999
DXF file: 001-m32987-p-1.dxf
999
Pro/ENGINEER 2011490 by Parametric Technology Corporation
  0
SECTION
  2
HEADER
  9
$ACADVER
  1
AC1015
  9
$DWGCODEPAGE
  3
ANSI_1252
  9
$EXTMAX
 10
594.0
 20
420.0
 30
0.0
  9
$EXTMIN
 10
0.0
 20
0.0
 30
0.0
  9
$LIMMIN
 10
0.0
 20
0.0
  9
$LIMMAX
 10
594.0
 20
420.0
  9
$VIEWCTR
 10
297.0
 20
210.0
  9
$VIEWSIZE
 40
420.0
  9
$CLAYER
  8
0
  9
$LTSCALE
 40
32.67
  9
$CELTYPE
  6
BYLAYER
  9
$DIMSCALE
 40
1.0
  9
$DIMASZ
 40
3.5
  9
$DIMEXO
 40
3.7125
  9
$DIMDLI
 40
22.572
  9
$DIMEXE
 40
10.692
  9
$DIMCEN
 40
5.346
  9
$DIMLFAC
 40
1.0
  9
$DIMBLK
  1
_FILLED
  9
$DIMTXT
 40
3.5
  9
$DIMTOL
 70
1
  9
$DIMLIM
 70
0
  9
$DIMTFAC
 40
1.0
  9
$DIMTP
 40
0.005
  9
$DIMTM
 40
0.005
  9
$PDMODE
 70
3
  9
$PDSIZE
 40
0.3125
  9
$HANDSEED
  5
4B9
  9
$TILEMODE
 70
1
  9
$MEASUREMENT
 70
1
  9
$INSUNITS
 70
4
  0
ENDSEC
  0
SECTION
  2
CLASSES
  0
CLASS
  1
ACDBDICTIONARYWDFLT
  2
AcDbDictionaryWithDefault
  3
AutoCAD 2000
 90
0
280
0
281
0
  0
CLASS
  1
ACDBPLACEHOLDER
  2
AcDbPlaceHolder
  3
AutoCAD 2000
 90
0
280
0
281
0
  0
CLASS
  1
LAYOUT
  2
AcDbLayout
  3
AutoCAD 2000
 90
0
280
0
281
0
  0
ENDSEC
  0
SECTION
  2
TABLES
  0
TABLE
  2
VPORT
  5
8
100
AcDbSymbolTable
 70
2
  0
VPORT
  5
1F4
100
AcDbSymbolTableRecord
100
AcDbViewportTableRecord
  2
*ACTIVE
 70
0
 10
0.0
 20
0.0
 11
1.0
 21
1.0
 12
297.0
 22
210.0
 13
0.0
 23
0.0
 14
1.0
 24
1.0
 15
0.0
 25
0.0
 16
0.0
 26
0.0
 36
1.0
 17
0.0
 27
0.0
 37
0.0
 40
420.0
 41
1.4142857143
 42
50.0
 43
0.0
 44
0.0
 50
0.0
 51
0.0
 71
0
 72
100
 73
1
 74
1
 75
0
 76
0
 77
0
 78
0
  0
ENDTAB
  0
TABLE
  2
LTYPE
  5
5
100
AcDbSymbolTable
 70
6
  0
LTYPE
  5
14
100
AcDbSymbolTableRecord
100
AcDbLinetypeTableRecord
  2
BYBLOCK
 70
0
  3

 72
65
 73
0
 40
0.0
  0
LTYPE
  5
15
100
AcDbSymbolTableRecord
100
AcDbLinetypeTableRecord
  2
BYLAYER
 70
0
  3

 72
65
 73
0
 40
0.0
  0
LTYPE
  5
16
100
AcDbSymbolTableRecord
100
AcDbLinetypeTableRecord
  2
CONTINUOUS
 70
64
  3
Solid line
 72
65
 73
0
 40
0.0
  0
LTYPE
  5
1F5
100
AcDbSymbolTableRecord
100
AcDbLinetypeTableRecord
  2
CENTER
 70
64
  3
____ _ ____ _ ____ _ ____ _ ____ _ ____ _ ____
 72
65
 73
4
 40
0.6
 49
0.375
 74
0
 49
-0.075
 74
0
 49
0.075
 74
0
 49
-0.075
 74
0
  0
LTYPE
  5
1F6
100
AcDbSymbolTableRecord
100
AcDbLinetypeTableRecord
  2
HIDDEN
 70
64
  3
- - - - - - - - - - - - - - - - - - - -
 72
65
 73
2
 40
0.2
 49
0.1
 74
0
 49
-0.1
 74
0
  0
LTYPE
  5
1F7
100
AcDbSymbolTableRecord
100
AcDbLinetypeTableRecord
  2
PHANTOM
 70
64
  3
_____ _ _ _____ _ _ _____ _ _ _____
 72
65
 73
6
 40
0.8
 49
0.45
 74
0
 49
-0.05
 74
0
 49
0.1
 74
0
 49
-0.05
 74
0
 49
0.1
 74
0
 49
-0.05
 74
0
  0
LTYPE
  5
1F8
100
AcDbSymbolTableRecord
100
AcDbLinetypeTableRecord
  2
DOT
 70
64
  3
. . . . . . . . . . . . . . . . . . . .
 72
65
 73
2
 40
0.2
 49
0.1
 74
0
 49
-0.1
 74
0
  0
LTYPE
  5
1F9
100
AcDbSymbolTableRecord
100
AcDbLinetypeTableRecord
  2
DASHED
 70
64
  3
- - - - - - - - - - - - - - - - - - - -
 72
65
 73
2
 40
0.2
 49
0.1
 74
0
 49
-0.1
 74
0
  0
ENDTAB
  0
TABLE
  2
LAYER
  5
2
100
AcDbSymbolTable
 70
36
  0
LAYER
  5
10
100
AcDbSymbolTableRecord
100
AcDbLayerTableRecord
  2
0
 70
0
 62
7
  6
CONTINUOUS
370
-3
390
F
  0
LAYER
  5
1FA
100
AcDbSymbolTableRecord
100
AcDbLayerTableRecord
  2
DEFAULT_1
 70
0
 62
7
  6
CENTER
370
-3
390
F
  0
LAYER
  5
1FB
100
AcDbSymbolTableRecord
100
AcDbLayerTableRecord
  2
DEFAULT_2
 70
0
 62
8
  6
HIDDEN
370
-3
390
F
  0
LAYER
  5
1FC
100
AcDbSymbolTableRecord
100
AcDbLayerTableRecord
  2
DEFAULT_3
 70
0
 62
7
  6
PHANTOM
370
-3
390
F
  0
LAYER
  5
1FD
100
AcDbSymbolTableRecord
100
AcDbLayerTableRecord
  2
BEZUGSACHSEN
 70
0
 62
7
  6
CONTINUOUS
370
-3
390
F
  0
LAYER
  5
1FE
100
AcDbSymbolTableRecord
100
AcDbLayerTableRecord
  2
BEZUGSEBENEN
 70
0
 62
7
  6
CONTINUOUS
370
-3
390
F
  0
LAYER
  5
1FF
100
AcDbSymbolTableRecord
100
AcDbLayerTableRecord
  2
BG_STARTBEZUEGE
 70
0
 62
7
  6
CONTINUOUS
370
-3
390
F
  0
LAYER
  5
200
100
AcDbSymbolTableRecord
100
AcDbLayerTableRecord
  2
FASEN
 70
0
 62
7
  6
CONTINUOUS
370
-3
390
F
  0
LAYER
  5
201
100
AcDbSymbolTableRecord
100
AcDbLayerTableRecord
  2
FLAECHEN
 70
0
 62
7
  6
CONTINUOUS
370
-3
390
F
  0
LAYER
  5
202
100
AcDbSymbolTableRecord
100
AcDbLayerTableRecord
  2
GEWINDE
 70
0
 62
7
  6
CONTINUOUS
370
-3
390
F
  0
LAYER
  5
203
100
AcDbSymbolTableRecord
100
AcDbLayerTableRecord
  2
HILFEN
 70
0
 62
7
  6
CONTINUOUS
370
-3
390
F
  0
LAYER
  5
204
100
AcDbSymbolTableRecord
100
AcDbLayerTableRecord
  2
KONSTRUKTIONSELEMENTE
 70
0
 62
7
  6
CONTINUOUS
370
-3
390
F
  0
LAYER
  5
205
100
AcDbSymbolTableRecord
100
AcDbLayerTableRecord
  2
KURVEN
 70
0
 62
7
  6
CONTINUOUS
370
-3
390
F
  0
LAYER
  5
206
100
AcDbSymbolTableRecord
100
AcDbLayerTableRecord
  2
NORM
 70
0
 62
7
  6
CONTINUOUS
370
-3
390
F
  0
LAYER
  5
207
100
AcDbSymbolTableRecord
100
AcDbLayerTableRecord
  2
PLATZIERUNG
 70
0
 62
7
  6
CONTINUOUS
370
-3
390
F
  0
LAYER
  5
208
100
AcDbSymbolTableRecord
100
AcDbLayerTableRecord
  2
RUNDUNGEN
 70
0
 62
7
  6
CONTINUOUS
370
-3
390
F
  0
LAYER
  5
209
100
AcDbSymbolTableRecord
100
AcDbLayerTableRecord
  2
TEIL_STARTBEZUEGE
 70
0
 62
7
  6
CONTINUOUS
370
-3
390
F
  0
LAYER
  5
20A
100
AcDbSymbolTableRecord
100
AcDbLayerTableRecord
  2
T_STARTBEZUEGE
 70
0
 62
7
  6
CONTINUOUS
370
-3
390
F
  0
LAYER
  5
20B
100
AcDbSymbolTableRecord
100
AcDbLayerTableRecord
  2
ZEICHNUNGSBEMASSUNGEN
 70
0
 62
7
  6
CONTINUOUS
370
-3
390
F
  0
ENDTAB
  0
TABLE
  2
STYLE
  5
3
100
AcDbSymbolTable
 70
1
  0
STYLE
  5
11
100
AcDbSymbolTableRecord
100
AcDbTextStyleTableRecord
  2
STANDARD
 70
0
 40
0.0
 41
0.7
 50
0.0
 71
0
 42
0.2
  3
txt
  4

  0
STYLE
  5
20C
100
AcDbSymbolTableRecord
100
AcDbTextStyleTableRecord
  2
TEXTSTYLE_1
 70
0
 40
0.0
 41
0.8
 50
0.0
 71
0
 42
0.2
  3
gdt
  4

  0
ENDTAB
  0
TABLE
  2
VIEW
  5
6
100
AcDbSymbolTable
 70
0
  0
ENDTAB
  0
TABLE
  2
UCS
  5
7
100
AcDbSymbolTable
 70
0
  0
ENDTAB
  0
TABLE
  2
APPID
  5
9
100
AcDbSymbolTable
 70
1
  0
APPID
  5
20D
100
AcDbSymbolTableRecord
100
AcDbRegAppTableRecord
  2
ACAD
 70
0
  0
ENDTAB
  0
TABLE
  2
BLOCK_RECORD
  5
1
100
AcDbSymbolTable
 70
0
  0
BLOCK_RECORD
  5
20E
100
AcDbSymbolTableRecord
100
AcDbBlockTableRecord
  2
*Model_Space
  0
BLOCK_RECORD
  5
20F
100
AcDbSymbolTableRecord
100
AcDbBlockTableRecord
  2
*Paper_Space
  0
ENDTAB
  0
TABLE
  2
DIMSTYLE
  5
A
100
AcDbSymbolTable
 70
1
100
AcDbDimStyleTable
 71
0
  0
DIMSTYLE
105
210
100
AcDbSymbolTableRecord
100
AcDbDimStyleTableRecord
  2
STANDARD
 70
0
  3

  4

 40
1.0
 41
3.5
 42
0.0625
 43
0.38
 44
0.18
 45
0.0
 46
0.0
 47
0.005
 48
0.005
140
3.5
141
0.09
142
0.0
143
25.4
144
1.0
145
0.0
146
1.0
147
0.09
 71
1.0
 72
0.0
 73
0
 74
0
 75
0
 76
0
 77
1
 78
8
170
0
171
2
172
0
173
0
174
0
175
0
176
0
177
0
178
5
270
2
271
3
272
3
273
2
274
2
275
0
280
0
281
0
282
0
283
1
284
8
285
0
286
0
287
3
288
0
340
11
  0
ENDTAB
  0
ENDSEC
  0
SECTION
  2
BLOCKS
  0
BLOCK
  5
20
100
AcDbEntity
  8
0
100
AcDbBlockBegin
  2
*Model_Space
 70
0
 10
0.0
 20
0.0
 30
0.0
  3
*Model_Space
  1

  0
ENDBLK
  5
21
100
AcDbEntity
  8
0
100
AcDbBlockEnd
  0
BLOCK
  5
1C
100
AcDbEntity
  8
0
100
AcDbBlockBegin
  2
*Paper_Space
 70
0
 10
0.0
 20
0.0
 30
0.0
  3
*Paper_Space
  1

  0
ENDBLK
  5
1D
100
AcDbEntity
  8
0
100
AcDbBlockEnd
  0
ENDSEC
  0
SECTION
  2
ENTITIES
  0
MTEXT
  5
211
100
AcDbEntity
  8
0
100
AcDbMText
 62
5
  6
CONTINUOUS
  7
STANDARD
 71
1
 72
1
 10
397.1422039899
 20
296.0776217499
 30
0.0
 11
0.0
 21
1.0
 31
0.0
 44
0.9
  1
VRS 9t RUD
 40
8.0
 41
64.0
  0
MTEXT
  5
212
100
AcDbEntity
  8
0
100
AcDbMText
 62
5
  6
CONTINUOUS
  7
STANDARD
 71
1
 72
1
 10
122.5158911664
 20
86.2545872085
 30
0.0
 11
1.0
 21
0.0
 31
0.0
 44
0.9
  1
VRS 9t RUD
 40
8.0
 41
64.0
  0
LINE
  5
213
100
AcDbEntity
  8
0
100
AcDbLine
 62
7
  6
CONTINUOUS
 10
0.0
 20
0.0
 11
0.0
 21
420.0
  0
LINE
  5
214
100
AcDbEntity
  8
0
100
AcDbLine
 62
7
  6
CONTINUOUS
 10
0.0
 20
0.0
 11
594.0
 21
0.0
  0
LINE
  5
215
100
AcDbEntity
  8
0
100
AcDbLine
 62
7
  6
CONTINUOUS
 10
0.0
 20
420.0
 11
594.0
 21
420.0
  0
LINE
  5
216
100
AcDbEntity
  8
0
100
AcDbLine
 62
7
  6
CONTINUOUS
 10
594.0
 20
0.0
 11
594.0
 21
420.0
  0
LINE
  5
217
100
AcDbEntity
  8
KONSTRUKTIONSELEMENTE
100
AcDbLine
 62
7
  6
CONTINUOUS
 10
136.5673382977
 20
171.3480690742
 11
172.5673382977
 21
171.3480690742
  0
LINE
  5
218
100
AcDbEntity
  8
KONSTRUKTIONSELEMENTE
100
AcDbLine
 62
7
  6
CONTINUOUS
 10
133.5673382977
 20
174.3480690742
 11
175.5673382977
 21
174.3480690742
  0
LINE
  5
219
100
AcDbEntity
  8
KONSTRUKTIONSELEMENTE
100
AcDbLine
 62
7
  6
CONTINUOUS
 10
133.5673382977
 20
174.3480690742
 11
136.5673382977
 21
171.3480690742
  0
LINE
  5
21A
100
AcDbEntity
  8
BEZUGSACHSEN
100
AcDbLine
 62
7
  6
CONTINUOUS
 10
76.4353136965
 20
316.2471004444
 11
76.9010455208
 21
317.3714765311
  0
LINE
  5
21B
100
AcDbEntity
  8
RUNDUNGEN
100
AcDbLine
 62
7
  6
CONTINUOUS
 10
76.9010455208
 20
317.3714765311
 11
98.0927533425
 21
368.5327849641
  0
LINE
  5
21C
100
AcDbEntity
  8
0
100
AcDbLine
 62
7
  6
CONTINUOUS
 10
116.2647018585
 20
365.4993386302
 11
115.5107362533
 21
365.0011350218
  0
LINE
  5
21D
100
AcDbEntity
  8
RUNDUNGEN
100
AcDbLine
 62
7
  6
CONTINUOUS
 10
102.0513344233
 20
372.3890639231
 11
152.0587626508
 21
391.5851171043
  0
LINE
  5
21E
100
AcDbEntity
  8
0
100
AcDbLine
 62
7
  6
CONTINUOUS
 10
115.4041695906
 20
363.1042343818
 11
115.6519390697
 21
363.6077658577
  0
LINE
  5
21F
100
AcDbEntity
  8
0
100
AcDbLine
 62
7
  6
CONTINUOUS
 10
113.0570200896
 20
357.6879402033
 11
112.8092506105
 21
357.1844087275
  0
LINE
  5
220
100
AcDbEntity
  8
0
100
AcDbLine
 62
7
  6
CONTINUOUS
 10
114.8846530795
 20
364.3750518479
 11
114.5116658192
 21
363.7463025909
  0
LINE
  5
221
100
AcDbEntity
  8
0
100
AcDbLine
 62
7
  6
CONTINUOUS
 10
115.5107362533
 20
365.0011350218
 11
114.8846530795
 21
364.3750518479
  0
LINE
  5
222
100
AcDbEntity
  8
0
100
AcDbLine
 62
7
  6
CONTINUOUS
 10
110.1264132201
 20
359.6168119885
 11
107.1212094
 21
356.6116081685
  0
LINE
  5
223
100
AcDbEntity
  8
0
100
AcDbLine
 62
7
  6
CONTINUOUS
 10
106.1194746739
 20
355.6098734424
 11
105.3681737189
 21
354.8585724874
  0
LINE
  5
224
100
AcDbEntity
  8
0
100
AcDbLine
 62
7
  6
CONTINUOUS
 10
101.862102715
 20
351.3525014834
 11
101.11080176
 21
350.6012005284
  0
LINE
  5
225
100
AcDbEntity
  8
0
100
AcDbLine
 62
7
  6
CONTINUOUS
 10
108.5119153469
 20
356.7235041316
 11
110.8910352766
 21
359.1026240613
  0
LINE
  5
226
100
AcDbEntity
  8
0
100
AcDbLine
 62
7
  6
CONTINUOUS
 10
115.6519390697
 20
363.6077658577
 11
116.4032400247
 21
364.3590668127
  0
LINE
  5
227
100
AcDbEntity
  8
0
100
AcDbLine
 62
7
  6
CONTINUOUS
 10
117.7939459716
 20
364.4709627758
 11
118.5452469266
 21
365.2222637308
  0
LINE
  5
228
100
AcDbEntity
  8
0
100
AcDbLine
 62
7
  6
CONTINUOUS
 10
118.1935743602
 20
362.5687324772
 11
117.4422734052
 21
361.8174315222
  0
LINE
  5
229
100
AcDbEntity
  8
0
100
AcDbLine
 62
7
  6
CONTINUOUS
 10
112.8092506105
 20
357.1844087275
 11
110.4301306808
 21
354.8052887978
  0
LINE
  5
22A
100
AcDbEntity
  8
0
100
AcDbLine
 62
7
  6
CONTINUOUS
 10
111.197416671
 20
354.0380028075
 11
113.3261024714
 21
356.1666886079
  0
LINE
  5
22B
100
AcDbEntity
  8
0
100
AcDbLine
 62
7
  6
CONTINUOUS
 10
118.2095593955
 20
361.050145532
 11
118.9608603505
 21
361.801446487
  0
LINE
  5
22C
100
AcDbEntity
  8
0
100
AcDbLine
 62
7
  6
CONTINUOUS
 10
117.9804383479
 20
358.7749281522
 11
117.2291381094
 21
358.0236279136
  0
LINE
  5
22D
100
AcDbEntity
  8
0
100
AcDbLine
 62
7
  6
CONTINUOUS
 10
120.8790755948
 20
359.8832312427
 11
119.8773405104
 21
358.8814961583
  0
LINE
  5
22E
100
AcDbEntity
  8
0
100
AcDbLine
 62
7
  6
CONTINUOUS
 10
109.1246786731
 20
346.5942621614
 11
110.1264132201
 21
347.5959967084
  0
LINE
  5
22F
100
AcDbEntity
  8
0
100
AcDbLine
 62
7
  6
CONTINUOUS
 10
113.1316170401
 20
350.6012005284
 11
113.8829179951
 21
351.3525014834
  0
LINE
  5
230
100
AcDbEntity
  8
0
100
AcDbLine
 62
7
  6
CONTINUOUS
 10
117.0133388798
 20
354.4829223681
 11
117.889856183
 21
355.3594396713
  0
LINE
  5
231
100
AcDbEntity
  8
0
100
AcDbLine
 62
7
  6
CONTINUOUS
 10
120.6446265902
 20
358.1142100785
 11
121.6463616746
 21
359.1159451629
  0
LINE
  5
232
100
AcDbEntity
  8
0
100
AcDbLine
 62
7
  6
CONTINUOUS
 10
110.8803781088
 20
360.1150148805
 11
110.1264132201
 21
359.6168119885
  0
LINE
  5
233
100
AcDbEntity
  8
0
100
AcDbLine
 62
7
  6
CONTINUOUS
 10
118.9475385324
 20
363.0669346527
 11
118.1935743602
 21
362.5687324772
  0
LINE
  5
234
100
AcDbEntity
  8
0
100
AcDbLine
 62
7
  6
CONTINUOUS
 10
119.8906609738
 20
357.6160064812
 11
120.6446265902
 21
358.1142100785
  0
LINE
  5
235
100
AcDbEntity
  8
0
100
AcDbLine
 62
7
  6
CONTINUOUS
 10
118.9608603505
 20
361.801446487
 11
119.5896081745
 21
362.1744323143
  0
LINE
  5
236
100
AcDbEntity
  8
0
100
AcDbLine
 62
7
  6
CONTINUOUS
 10
117.5808101384
 20
360.6771582717
 11
118.2095593955
 21
361.050145532
  0
LINE
  5
237
100
AcDbEntity
  8
0
100
AcDbLine
 62
7
  6
CONTINUOUS
 10
119.8773405104
 20
358.8814961583
 11
119.2485926864
 21
358.508510331
  0
LINE
  5
238
100
AcDbEntity
  8
0
100
AcDbLine
 62
7
  6
CONTINUOUS
 10
148.192337195
 20
373.2076435531
 11
148.9006703594
 21
373.5693456376
  0
LINE
  5
239
100
AcDbEntity
  8
0
100
AcDbLine
 62
7
  6
CONTINUOUS
 10
116.4032400247
 20
364.3590668127
 11
116.9067715006
 21
364.6068362918
  0
LINE
  5
23A
100
AcDbEntity
  8
0
100
AcDbLine
 62
7
  6
CONTINUOUS
 10
110.8910352766
 20
359.1026240613
 11
111.3945667525
 21
359.3503935405
  0
LINE
  5
23B
100
AcDbEntity
  8
0
100
AcDbLine
 62
7
  6
CONTINUOUS
 10
117.4422734052
 20
361.8174315222
 11
116.9387419293
 21
361.5696620431
  0
LINE
  5
23C
100
AcDbEntity
  8
0
100
AcDbLine
 62
7
  6
CONTINUOUS
 10
148.0152535239
 20
374.1118987644
 11
147.4840035239
 21
373.9310477222
  0
LINE
  5
23D
100
AcDbEntity
  8
0
100
AcDbLine
 62
7
  6
CONTINUOUS
 10
119.7041687879
 20
363.3120409146
 11
118.9475385324
 21
363.0669346527
  0
LINE
  5
23E
100
AcDbEntity
  8
0
100
AcDbLine
 62
7
  6
CONTINUOUS
 10
116.824181316
 20
360.4320534427
 11
117.5808101384
 21
360.6771582717
  0
LINE
  5
23F
100
AcDbEntity
  8
KONSTRUKTIONSELEMENTE
100
AcDbLine
 62
7
  6
CONTINUOUS
 10
123.8173382977
 20
234.3480690742
 11
185.3173382977
 21
234.3480690742
  0
LINE
  5
240
100
AcDbEntity
  8
BEZUGSACHSEN
100
AcDbLine
 62
7
  6
CONTINUOUS
 10
197.0672883433
 20
234.5480690742
 11
112.0673882545
 21
234.5480690742
  0
LINE
  5
241
100
AcDbEntity
  8
0
100
AcDbLine
 62
7
  6
CONTINUOUS
 10
148.0048387894
 20
241.0480690742
 11
149.463171775
 21
241.0480690742
  0
LINE
  5
242
100
AcDbEntity
  8
0
100
AcDbLine
 62
7
  6
CONTINUOUS
 10
149.8277552822
 20
242.9097712407
 11
147.6402552822
 21
242.9097712407
  0
LINE
  5
243
100
AcDbEntity
  8
0
100
AcDbLine
 62
7
  6
CONTINUOUS
 10
146.1819220358
 20
241.420409488
 11
148.0048387894
 21
241.0480690742
  0
LINE
  5
244
100
AcDbEntity
  8
BEZUGSACHSEN
100
AcDbLine
 62
7
  6
CONTINUOUS
 10
101.5568248884
 20
250.2606934186
 11
76.4356238703
 21
310.888783688
  0
LINE
  5
245
100
AcDbEntity
  8
0
100
AcDbLine
 62
7
  6
CONTINUOUS
 10
115.2842811098
 20
362.4728219076
 11
115.4041695906
 21
363.1042343818
  0
LINE
  5
246
100
AcDbEntity
  8
0
100
AcDbLine
 62
7
  6
CONTINUOUS
 10
114.5116658192
 20
363.7463025909
 11
114.2665609903
 21
362.9896737685
  0
LINE
  5
247
100
AcDbEntity
  8
0
100
AcDbLine
 62
7
  6
CONTINUOUS
 10
113.8216414297
 20
357.1737515596
 11
114.0667469751
 21
357.9303810986
  0
LINE
  5
248
100
AcDbEntity
  8
0
100
AcDbLine
 62
7
  6
CONTINUOUS
 10
122.1445638389
 20
359.8699093463
 11
122.3896700672
 21
360.6265396353
  0
LINE
  5
249
100
AcDbEntity
  8
0
100
AcDbLine
 62
7
  6
CONTINUOUS
 10
121.2520614221
 20
360.5119790667
 11
120.8790755948
 21
359.8832312427
  0
LINE
  5
24A
100
AcDbEntity
  8
0
100
AcDbLine
 62
7
  6
CONTINUOUS
 10
121.6463616746
 20
359.1159451629
 11
122.1445638389
 21
359.8699093463
  0
LINE
  5
24B
100
AcDbEntity
  8
0
100
AcDbLine
 62
7
  6
CONTINUOUS
 10
148.3694203594
 20
374.473600849
 11
148.0152535239
 21
374.1118987644
  0
LINE
  5
24C
100
AcDbEntity
  8
0
100
AcDbLine
 62
7
  6
CONTINUOUS
 10
155.9840040305
 20
370.675728708
 11
155.4527540305
 21
370.3140264968
  0
LINE
  5
24D
100
AcDbEntity
  8
0
100
AcDbLine
 62
7
  6
CONTINUOUS
 10
164.4840030172
 20
370.675728708
 11
163.9527530172
 21
370.3140264968
  0
LINE
  5
24E
100
AcDbEntity
  8
0
100
AcDbLine
 62
7
  6
CONTINUOUS
 10
155.6298366883
 20
369.2289201323
 11
156.3381703594
 21
369.5906222644
  0
LINE
  5
24F
100
AcDbEntity
  8
0
100
AcDbLine
 62
7
  6
CONTINUOUS
 10
164.1298377016
 20
369.2289201323
 11
164.8381703594
 21
369.5906222644
  0
LINE
  5
250
100
AcDbEntity
  8
0
100
AcDbLine
 62
7
  6
CONTINUOUS
 10
149.463171775
 20
241.0480690742
 11
151.2860882679
 21
241.420409488
  0
LINE
  5
251
100
AcDbEntity
  8
0
100
AcDbLine
 62
7
  6
CONTINUOUS
 10
149.463171775
 20
247.3778560752
 11
151.2860882679
 21
247.7501969779
  0
LINE
  5
252
100
AcDbEntity
  8
0
100
AcDbLine
 62
7
  6
CONTINUOUS
 10
144.7235885286
 20
245.1438137884
 11
142.9006719706
 21
245.1438137884
  0
LINE
  5
253
100
AcDbEntity
  8
0
100
AcDbLine
 62
7
  6
CONTINUOUS
 10
147.6402552822
 20
247.3778560752
 11
149.463171775
 21
247.3778560752
  0
LINE
  5
254
100
AcDbEntity
  8
0
100
AcDbLine
 62
7
  6
CONTINUOUS
 10
149.8277552822
 20
249.2395585025
 11
147.275671775
 21
249.2395585025
  0
LINE
  5
255
100
AcDbEntity
  8
0
100
AcDbLine
 62
7
  6
CONTINUOUS
 10
158.2131722966
 20
251.4736007894
 11
161.1298393109
 21
251.4736007894
  0
LINE
  5
256
100
AcDbEntity
  8
0
100
AcDbLine
 62
7
  6
CONTINUOUS
 10
162.9527552822
 20
251.4736007894
 11
166.9631712535
 21
251.4736007894
  0
LINE
  5
257
100
AcDbEntity
  8
0
100
AcDbLine
 62
7
  6
CONTINUOUS
 10
166.9631712535
 20
252.962962314
 11
162.9527552822
 21
252.962962314
  0
LINE
  5
258
100
AcDbEntity
  8
0
100
AcDbLine
 62
7
  6
CONTINUOUS
 10
161.1298393109
 20
252.962962314
 11
158.2131722966
 21
252.962962314
  0
LINE
  5
259
100
AcDbEntity
  8
0
100
AcDbLine
 62
7
  6
CONTINUOUS
 10
164.0465052822
 20
241.420409488
 11
166.2340052822
 21
241.0480690742
  0
LINE
  5
25A
100
AcDbEntity
  8
0
100
AcDbLine
 62
7
  6
CONTINUOUS
 10
166.2340052822
 20
242.5374307292
 11
164.4110893109
 21
242.9097712407
  0
LINE
  5
25B
100
AcDbEntity
  8
0
100
AcDbLine
 62
7
  6
CONTINUOUS
 10
145.8173385286
 20
247.7501969779
 11
147.6402552822
 21
247.3778560752
  0
LINE
  5
25C
100
AcDbEntity
  8
0
100
AcDbLine
 62
7
  6
CONTINUOUS
 10
147.6402552822
 20
242.9097712407
 11
146.5465052822
 21
243.2821116219
  0
LINE
  5
25D
100
AcDbEntity
  8
0
100
AcDbLine
 62
7
  6
CONTINUOUS
 10
162.9527552822
 20
241.7927499017
 11
164.0465052822
 21
241.420409488
  0
LINE
  5
25E
100
AcDbEntity
  8
0
100
AcDbLine
 62
7
  6
CONTINUOUS
 10
147.275671775
 20
249.2395585025
 11
146.1819220358
 21
249.6118988837
  0
LINE
  5
25F
100
AcDbEntity
  8
0
100
AcDbLine
 62
7
  6
CONTINUOUS
 10
144.3590052822
 20
242.5374307292
 11
146.1819220358
 21
241.420409488
  0
LINE
  5
260
100
AcDbEntity
  8
0
100
AcDbLine
 62
7
  6
CONTINUOUS
 10
143.9944219054
 20
248.8672181214
 11
145.8173385286
 21
247.7501969779
  0
LINE
  5
261
100
AcDbEntity
  8
0
100
AcDbLine
 62
7
  6
CONTINUOUS
 10
146.5465052822
 20
243.2821116219
 11
145.4527552822
 21
244.0267923842
  0
LINE
  5
262
100
AcDbEntity
  8
0
100
AcDbLine
 62
7
  6
CONTINUOUS
 10
146.1819220358
 20
249.6118988837
 11
145.0881720358
 21
250.3565796459
  0
LINE
  5
263
100
AcDbEntity
  8
0
100
AcDbLine
 62
7
  6
CONTINUOUS
 10
113.0516915057
 20
358.1941356129
 11
113.0570200896
 21
357.6879402033
  0
LINE
  5
264
100
AcDbEntity
  8
0
100
AcDbLine
 62
7
  6
CONTINUOUS
 10
114.2665609903
 20
362.9896737685
 11
114.2772181581
 21
361.9772829493
  0
LINE
  5
265
100
AcDbEntity
  8
0
100
AcDbLine
 62
7
  6
CONTINUOUS
 10
121.3719498133
 20
361.1433916305
 11
121.2520614221
 21
360.5119790667
  0
LINE
  5
266
100
AcDbEntity
  8
0
100
AcDbLine
 62
7
  6
CONTINUOUS
 10
156.3381703594
 20
371.2182818348
 11
155.9840040305
 21
370.675728708
  0
LINE
  5
267
100
AcDbEntity
  8
0
100
AcDbLine
 62
7
  6
CONTINUOUS
 10
148.9006703594
 20
373.5693456376
 11
149.4319203594
 21
374.2927498067
  0
LINE
  5
268
100
AcDbEntity
  8
0
100
AcDbLine
 62
7
  6
CONTINUOUS
 10
156.3381703594
 20
369.5906222644
 11
157.0465040305
 21
370.3140264968
  0
LINE
  5
269
100
AcDbEntity
  8
0
100
AcDbLine
 62
7
  6
CONTINUOUS
 10
164.8381703594
 20
369.5906222644
 11
165.5465030172
 21
370.3140264968
  0
LINE
  5
26A
100
AcDbEntity
  8
0
100
AcDbLine
 62
7
  6
CONTINUOUS
 10
147.6402552822
 20
258.5480690742
 11
145.8173385286
 21
258.1757286931
  0
LINE
  5
26B
100
AcDbEntity
  8
0
100
AcDbLine
 62
7
  6
CONTINUOUS
 10
162.9527552822
 20
255.9416864062
 11
161.1298393109
 21
255.9416864062
  0
LINE
  5
26C
100
AcDbEntity
  8
0
100
AcDbLine
 62
7
  6
CONTINUOUS
 10
147.275671775
 20
256.6863671685
 11
149.8277552822
 21
256.6863671685
  0
LINE
  5
26D
100
AcDbEntity
  8
0
100
AcDbLine
 62
7
  6
CONTINUOUS
 10
149.463171775
 20
258.5480690742
 11
147.6402552822
 21
258.5480690742
  0
LINE
  5
26E
100
AcDbEntity
  8
0
100
AcDbLine
 62
7
  6
CONTINUOUS
 10
151.2860882679
 20
258.1757286931
 11
149.463171775
 21
258.5480690742
  0
LINE
  5
26F
100
AcDbEntity
  8
0
100
AcDbLine
 62
7
  6
CONTINUOUS
 10
149.8277552822
 20
256.6863671685
 11
150.9215052822
 21
256.3140267874
  0
LINE
  5
270
100
AcDbEntity
  8
0
100
AcDbLine
 62
7
  6
CONTINUOUS
 10
153.1090052822
 20
257.0587075496
 11
151.2860882679
 21
258.1757286931
  0
LINE
  5
271
100
AcDbEntity
  8
0
100
AcDbLine
 62
7
  6
CONTINUOUS
 10
161.8590052822
 20
242.5374307292
 11
162.9527552822
 21
241.7927499017
  0
LINE
  5
272
100
AcDbEntity
  8
0
100
AcDbLine
 62
7
  6
CONTINUOUS
 10
164.4110893109
 20
242.9097712407
 11
163.3173393109
 21
243.654452003
  0
LINE
  5
273
100
AcDbEntity
  8
0
100
AcDbLine
 62
7
  6
CONTINUOUS
 10
150.9215052822
 20
256.3140267874
 11
152.0152552822
 21
255.5693460251
  0
LINE
  5
274
100
AcDbEntity
  8
0
100
AcDbLine
 62
7
  6
CONTINUOUS
 10
143.2652552822
 20
244.0267923842
 11
144.3590052822
 21
242.5374307292
  0
LINE
  5
275
100
AcDbEntity
  8
0
100
AcDbLine
 62
7
  6
CONTINUOUS
 10
142.9006719706
 20
250.3565796459
 11
143.9944219054
 21
248.8672181214
  0
LINE
  5
276
100
AcDbEntity
  8
0
100
AcDbLine
 62
7
  6
CONTINUOUS
 10
145.4527552822
 20
244.0267923842
 11
144.7235885286
 21
245.1438137884
  0
LINE
  5
277
100
AcDbEntity
  8
0
100
AcDbLine
 62
7
  6
CONTINUOUS
 10
145.0881720358
 20
250.3565796459
 11
144.3590052822
 21
251.4736007894
  0
LINE
  5
278
100
AcDbEntity
  8
RUNDUNGEN
100
AcDbLine
 62
7
  6
CONTINUOUS
 10
114.0733587552
 20
300.6492718086
 11
114.0170221488
 21
300.8232170032
  0
LINE
  5
279
100
AcDbEntity
  8
0
100
AcDbLine
 62
7
  6
CONTINUOUS
 10
122.3896700672
 20
360.6265396353
 11
122.3790128546
 21
361.6389304992
  0
LINE
  5
27A
100
AcDbEntity
  8
KONSTRUKTIONSELEMENTE
100
AcDbLine
 62
7
  6
CONTINUOUS
 10
123.8173382977
 20
234.5480690742
 11
123.8173382977
 21
234.3480690742
  0
LINE
  5
27B
100
AcDbEntity
  8
0
100
AcDbLine
 62
7
  6
CONTINUOUS
 10
148.5465035239
 20
375.0161539758
 11
148.3694203594
 21
374.473600849
  0
LINE
  5
27C
100
AcDbEntity
  8
0
100
AcDbLine
 62
7
  6
CONTINUOUS
 10
149.4319203594
 20
374.2927498067
 11
149.6090035239
 21
374.8353029335
  0
LINE
  5
27D
100
AcDbEntity
  8
0
100
AcDbLine
 62
7
  6
CONTINUOUS
 10
157.0465040305
 20
370.3140264968
 11
157.4006703594
 21
371.0374307925
  0
LINE
  5
27E
100
AcDbEntity
  8
0
100
AcDbLine
 62
7
  6
CONTINUOUS
 10
164.8381703594
 20
371.2182818348
 11
164.4840030172
 21
370.675728708
  0
LINE
  5
27F
100
AcDbEntity
  8
0
100
AcDbLine
 62
7
  6
CONTINUOUS
 10
154.2027552822
 20
255.5693460251
 11
153.1090052822
 21
257.0587075496
  0
LINE
  5
280
100
AcDbEntity
  8
0
100
AcDbLine
 62
7
  6
CONTINUOUS
 10
152.0152552822
 20
255.5693460251
 11
152.7444222966
 21
254.4523248816
  0
LINE
  5
281
100
AcDbEntity
  8
0
100
AcDbLine
 62
7
  6
CONTINUOUS
 10
142.1715052822
 20
252.2182815517
 11
142.9006719706
 21
250.3565796459
  0
LINE
  5
282
100
AcDbEntity
  8
0
100
AcDbLine
 62
7
  6
CONTINUOUS
 10
142.9006719706
 20
245.1438137884
 11
143.2652552822
 21
244.0267923842
  0
LINE
  5
283
100
AcDbEntity
  8
0
100
AcDbLine
 62
7
  6
CONTINUOUS
 10
144.3590052822
 20
251.4736007894
 11
143.9944219054
 21
252.5906219328
  0
LINE
  5
284
100
AcDbEntity
  8
0
100
AcDbLine
 62
7
  6
CONTINUOUS
 10
114.0667469751
 20
357.9303810986
 11
113.9308734591
 21
358.8175555696
  0
LINE
  5
285
100
AcDbEntity
  8
KONSTRUKTIONSELEMENTE
100
AcDbLine
 62
7
  6
CONTINUOUS
 10
133.5673382977
 20
234.3480690742
 11
133.5673382977
 21
174.3480690742
  0
LINE
  5
286
100
AcDbEntity
  8
0
100
AcDbLine
 62
7
  6
CONTINUOUS
 10
142.1715052822
 20
253.7076430763
 11
142.1715052822
 21
252.2182815517
  0
LINE
  5
287
100
AcDbEntity
  8
0
100
AcDbLine
 62
7
  6
CONTINUOUS
 10
143.0569203594
 20
377.5480690742
 11
143.0569203594
 21
369.0480690742
  0
LINE
  5
288
100
AcDbEntity
  8
0
100
AcDbLine
 62
7
  6
CONTINUOUS
 10
156.5152540305
 20
371.9416860039
 11
156.3381703594
 21
371.2182818348
  0
LINE
  5
289
100
AcDbEntity
  8
0
100
AcDbLine
 62
7
  6
CONTINUOUS
 10
165.5465030172
 20
370.3140264968
 11
165.9006703594
 21
371.0374307925
  0
LINE
  5
28A
100
AcDbEntity
  8
0
100
AcDbLine
 62
7
  6
CONTINUOUS
 10
112.7932655752
 20
358.7029956727
 11
113.0516915057
 21
358.1941356129
  0
LINE
  5
28B
100
AcDbEntity
  8
0
100
AcDbLine
 62
7
  6
CONTINUOUS
 10
113.9308734591
 20
358.8175555696
 11
113.6724475286
 21
359.3264156294
  0
LINE
  5
28C
100
AcDbEntity
  8
0
100
AcDbLine
 62
7
  6
CONTINUOUS
 10
110.1264132201
 20
347.5959967084
 11
106.1194746739
 21
355.6098734424
  0
LINE
  5
28D
100
AcDbEntity
  8
0
100
AcDbLine
 62
7
  6
CONTINUOUS
 10
105.3681737189
 20
354.8585724874
 11
108.8582597772
 21
347.8624154251
  0
LINE
  5
28E
100
AcDbEntity
  8
0
100
AcDbLine
 62
7
  6
CONTINUOUS
 10
161.1298393109
 20
244.0267923842
 11
161.8590052822
 21
242.5374307292
  0
LINE
  5
28F
100
AcDbEntity
  8
0
100
AcDbLine
 62
7
  6
CONTINUOUS
 10
154.9319222966
 20
253.7076430763
 11
154.2027552822
 21
255.5693460251
  0
LINE
  5
290
100
AcDbEntity
  8
0
100
AcDbLine
 62
7
  6
CONTINUOUS
 10
122.3790128546
 20
361.6389304992
 11
122.1179229009
 21
362.4008887116
  0
LINE
  5
291
100
AcDbEntity
  8
0
100
AcDbLine
 62
7
  6
CONTINUOUS
 10
152.7444222966
 20
254.4523248816
 11
153.1090052822
 21
253.3353026951
  0
LINE
  5
292
100
AcDbEntity
  8
0
100
AcDbLine
 62
7
  6
CONTINUOUS
 10
121.2387409475
 20
361.777468755
 11
121.3719498133
 21
361.1433916305
  0
LINE
  5
293
100
AcDbEntity
  8
0
100
AcDbLine
 62
7
  6
CONTINUOUS
 10
143.9944219054
 20
252.5906219328
 11
143.9944219054
 21
253.3353026951
  0
LINE
  5
294
100
AcDbEntity
  8
0
100
AcDbLine
 62
7
  6
CONTINUOUS
 10
144.1194203594
 20
369.0480690742
 11
144.1194203594
 21
372.8459414686
  0
LINE
  5
295
100
AcDbEntity
  8
0
100
AcDbLine
 62
7
  6
CONTINUOUS
 10
144.1194203594
 20
373.9310477222
 11
144.1194203594
 21
376.6438138629
  0
LINE
  5
296
100
AcDbEntity
  8
0
100
AcDbLine
 62
7
  6
CONTINUOUS
 10
148.5465035239
 20
375.5587076093
 11
148.5465035239
 21
375.0161539758
  0
LINE
  5
297
100
AcDbEntity
  8
0
100
AcDbLine
 62
7
  6
CONTINUOUS
 10
149.6090035239
 20
374.8353029335
 11
149.6090035239
 21
375.5587076093
  0
LINE
  5
298
100
AcDbEntity
  8
0
100
AcDbLine
 62
7
  6
CONTINUOUS
 10
151.2027535239
 20
377.5480690742
 11
151.2027535239
 21
371.9416860039
  0
LINE
  5
299
100
AcDbEntity
  8
0
100
AcDbLine
 62
7
  6
CONTINUOUS
 10
152.2652540305
 20
371.9416860039
 11
152.2652540305
 21
377.5480690742
  0
LINE
  5
29A
100
AcDbEntity
  8
0
100
AcDbLine
 62
7
  6
CONTINUOUS
 10
153.1090052822
 20
253.3353026951
 11
153.1090052822
 21
252.5906219328
  0
LINE
  5
29B
100
AcDbEntity
  8
0
100
AcDbLine
 62
7
  6
CONTINUOUS
 10
153.4735882679
 20
249.2395585025
 11
153.4735882679
 21
248.4948777402
  0
LINE
  5
29C
100
AcDbEntity
  8
0
100
AcDbLine
 62
7
  6
CONTINUOUS
 10
155.2965052822
 20
248.4948777402
 11
155.2965052822
 21
251.1012604082
  0
LINE
  5
29D
100
AcDbEntity
  8
0
100
AcDbLine
 62
7
  6
CONTINUOUS
 10
157.4006703594
 20
371.0374307925
 11
157.5777540305
 21
371.9416860039
  0
LINE
  5
29E
100
AcDbEntity
  8
0
100
AcDbLine
 62
7
  6
CONTINUOUS
 10
165.9006703594
 20
371.0374307925
 11
166.0777530172
 21
371.9416860039
  0
LINE
  5
29F
100
AcDbEntity
  8
0
100
AcDbLine
 62
7
  6
CONTINUOUS
 10
165.0152530172
 20
371.9416860039
 11
164.8381703594
 21
371.2182818348
  0
LINE
  5
2A0
100
AcDbEntity
  8
0
100
AcDbLine
 62
7
  6
CONTINUOUS
 10
193.1683263956
 20
356.0130693251
 11
194.0943495394
 21
356.9390924689
  0
LINE
  5
2A1
100
AcDbEntity
  8
0
100
AcDbLine
 62
7
  6
CONTINUOUS
 10
198.3625810233
 20
361.2073239528
 11
199.2886041671
 21
362.1333470965
  0
LINE
  5
2A2
100
AcDbEntity
  8
0
100
AcDbLine
 62
7
  6
CONTINUOUS
 10
200.3765919062
 20
354.0058427705
 11
201.30261505
 21
354.9318659143
  0
LINE
  5
2A3
100
AcDbEntity
  8
0
100
AcDbLine
 62
7
  6
CONTINUOUS
 10
198.3983263956
 20
350.7830693251
 11
199.3243495394
 21
351.7090924689
  0
LINE
  5
2A4
100
AcDbEntity
  8
0
100
AcDbLine
 62
7
  6
CONTINUOUS
 10
203.5925810233
 20
355.9773239528
 11
204.5186041671
 21
356.9033470965
  0
LINE
  5
2A5
100
AcDbEntity
  8
0
100
AcDbLine
 62
7
  6
CONTINUOUS
 10
114.2772181581
 20
361.9772829493
 11
114.6635243704
 21
361.3405411746
  0
LINE
  5
2A6
100
AcDbEntity
  8
0
100
AcDbLine
 62
7
  6
CONTINUOUS
 10
115.542706682
 20
361.963960773
 11
115.2842811098
 21
362.4728219076
  0
LINE
  5
2A7
100
AcDbEntity
  8
0
100
AcDbLine
 62
7
  6
CONTINUOUS
 10
163.3173393109
 20
243.654452003
 11
162.9527552822
 21
244.7714734072
  0
LINE
  5
2A8
100
AcDbEntity
  8
0
100
AcDbLine
 62
7
  6
CONTINUOUS
 10
155.2965052822
 20
251.1012604082
 11
154.9319222966
 21
253.7076430763
  0
LINE
  5
2A9
100
AcDbEntity
  8
0
100
AcDbLine
 62
7
  6
CONTINUOUS
 10
156.5152540305
 20
377.5480690742
 11
156.5152540305
 21
371.9416860039
  0
LINE
  5
2AA
100
AcDbEntity
  8
0
100
AcDbLine
 62
7
  6
CONTINUOUS
 10
157.5777540305
 20
371.9416860039
 11
157.5777540305
 21
377.5480690742
  0
LINE
  5
2AB
100
AcDbEntity
  8
0
100
AcDbLine
 62
7
  6
CONTINUOUS
 10
158.2131722966
 20
252.962962314
 11
158.2131722966
 21
251.4736007894
  0
LINE
  5
2AC
100
AcDbEntity
  8
0
100
AcDbLine
 62
7
  6
CONTINUOUS
 10
158.9944203594
 20
377.5480690742
 11
158.9944203594
 21
369.0480690742
  0
LINE
  5
2AD
100
AcDbEntity
  8
0
100
AcDbLine
 62
7
  6
CONTINUOUS
 10
160.0569203594
 20
370.1331754545
 11
160.0569203594
 21
376.4629628206
  0
LINE
  5
2AE
100
AcDbEntity
  8
0
100
AcDbLine
 62
7
  6
CONTINUOUS
 10
161.1298393109
 20
255.9416864062
 11
161.1298393109
 21
252.962962314
  0
LINE
  5
2AF
100
AcDbEntity
  8
0
100
AcDbLine
 62
7
  6
CONTINUOUS
 10
161.1298393109
 20
251.4736007894
 11
161.1298393109
 21
244.0267923842
  0
LINE
  5
2B0
100
AcDbEntity
  8
0
100
AcDbLine
 62
7
  6
CONTINUOUS
 10
162.9527552822
 20
244.7714734072
 11
162.9527552822
 21
251.4736007894
  0
LINE
  5
2B1
100
AcDbEntity
  8
0
100
AcDbLine
 62
7
  6
CONTINUOUS
 10
162.9527552822
 20
252.962962314
 11
162.9527552822
 21
255.9416864062
  0
LINE
  5
2B2
100
AcDbEntity
  8
0
100
AcDbLine
 62
7
  6
CONTINUOUS
 10
165.0152530172
 20
374.6544518913
 11
165.0152530172
 21
371.9416860039
  0
LINE
  5
2B3
100
AcDbEntity
  8
0
100
AcDbLine
 62
7
  6
CONTINUOUS
 10
166.0777530172
 20
371.9416860039
 11
166.0777530172
 21
374.6544518913
  0
LINE
  5
2B4
100
AcDbEntity
  8
0
100
AcDbLine
 62
7
  6
CONTINUOUS
 10
166.2340052822
 20
241.0480690742
 11
166.2340052822
 21
242.5374307292
  0
LINE
  5
2B5
100
AcDbEntity
  8
0
100
AcDbLine
 62
7
  6
CONTINUOUS
 10
166.9631712535
 20
251.4736007894
 11
166.9631712535
 21
252.962962314
  0
LINE
  5
2B6
100
AcDbEntity
  8
0
100
AcDbLine
 62
7
  6
CONTINUOUS
 10
154.9319222966
 20
245.8884945507
 11
155.2965052822
 21
248.4948777402
  0
LINE
  5
2B7
100
AcDbEntity
  8
0
100
AcDbLine
 62
7
  6
CONTINUOUS
 10
153.4735882679
 20
248.4948777402
 11
153.1090052822
 21
246.2608349318
  0
LINE
  5
2B8
100
AcDbEntity
  8
0
100
AcDbLine
 62
7
  6
CONTINUOUS
 10
143.9944219054
 20
253.3353026951
 11
144.3590052822
 21
254.4523248816
  0
LINE
  5
2B9
100
AcDbEntity
  8
0
100
AcDbLine
 62
7
  6
CONTINUOUS
 10
142.9006719706
 20
255.5693460251
 11
142.1715052822
 21
253.7076430763
  0
LINE
  5
2BA
100
AcDbEntity
  8
0
100
AcDbLine
 62
7
  6
CONTINUOUS
 10
107.1212094
 20
356.6116081685
 11
113.1316170401
 21
350.6012005284
  0
LINE
  5
2BB
100
AcDbEntity
  8
0
100
AcDbLine
 62
7
  6
CONTINUOUS
 10
113.8829179951
 20
351.3525014834
 11
111.197416671
 21
354.0380028075
  0
LINE
  5
2BC
100
AcDbEntity
  8
0
100
AcDbLine
 62
7
  6
CONTINUOUS
 10
110.4301306808
 20
354.8052887978
 11
108.5119153469
 21
356.7235041316
  0
LINE
  5
2BD
100
AcDbEntity
  8
0
100
AcDbLine
 62
7
  6
CONTINUOUS
 10
112.4096222219
 20
359.0866390261
 11
112.7932655752
 21
358.7029956727
  0
LINE
  5
2BE
100
AcDbEntity
  8
0
100
AcDbLine
 62
7
  6
CONTINUOUS
 10
113.6724475286
 20
359.3264156294
 11
113.1609231769
 21
359.8379399811
  0
LINE
  5
2BF
100
AcDbEntity
  8
0
100
AcDbLine
 62
7
  6
CONTINUOUS
 10
114.6635243704
 20
361.3405411746
 11
115.1750487222
 21
360.8290168229
  0
LINE
  5
2C0
100
AcDbEntity
  8
0
100
AcDbLine
 62
7
  6
CONTINUOUS
 10
151.2027535239
 20
371.9416860039
 11
151.379837195
 21
371.0374307925
  0
LINE
  5
2C1
100
AcDbEntity
  8
KONSTRUKTIONSELEMENTE
100
AcDbLine
 62
7
  6
CONTINUOUS
 10
175.5673382977
 20
234.3480690742
 11
175.5673382977
 21
174.3480690742
  0
LINE
  5
2C2
100
AcDbEntity
  8
0
100
AcDbLine
 62
7
  6
CONTINUOUS
 10
153.1090052822
 20
252.5906219328
 11
152.7444222966
 21
251.4736007894
  0
LINE
  5
2C3
100
AcDbEntity
  8
0
100
AcDbLine
 62
7
  6
CONTINUOUS
 10
153.1090052822
 20
246.2608349318
 11
152.7444222966
 21
245.1438137884
  0
LINE
  5
2C4
100
AcDbEntity
  8
0
100
AcDbLine
 62
7
  6
CONTINUOUS
 10
154.2027552822
 20
244.0267923842
 11
154.9319222966
 21
245.8884945507
  0
LINE
  5
2C5
100
AcDbEntity
  8
0
100
AcDbLine
 62
7
  6
CONTINUOUS
 10
144.3590052822
 20
254.4523248816
 11
145.0881720358
 21
255.5693460251
  0
LINE
  5
2C6
100
AcDbEntity
  8
0
100
AcDbLine
 62
7
  6
CONTINUOUS
 10
143.9944219054
 20
257.0587075496
 11
142.9006719706
 21
255.5693460251
  0
LINE
  5
2C7
100
AcDbEntity
  8
0
100
AcDbLine
 62
7
  6
CONTINUOUS
 10
108.8582597772
 20
347.8624154251
 11
101.862102715
 21
351.3525014834
  0
LINE
  5
2C8
100
AcDbEntity
  8
0
100
AcDbLine
 62
7
  6
CONTINUOUS
 10
101.11080176
 20
350.6012005284
 11
109.1246786731
 21
346.5942621614
  0
LINE
  5
2C9
100
AcDbEntity
  8
0
100
AcDbLine
 62
7
  6
CONTINUOUS
 10
115.7984686788
 20
361.7081987763
 11
115.542706682
 21
361.963960773
  0
LINE
  5
2CA
100
AcDbEntity
  8
0
100
AcDbLine
 62
7
  6
CONTINUOUS
 10
120.8550979524
 20
362.1611117501
 11
121.2387409475
 21
361.777468755
  0
LINE
  5
2CB
100
AcDbEntity
  8
0
100
AcDbLine
 62
7
  6
CONTINUOUS
 10
122.1179229009
 20
362.4008887116
 11
121.478517909
 21
363.0402937035
  0
LINE
  5
2CC
100
AcDbEntity
  8
0
100
AcDbLine
 62
7
  6
CONTINUOUS
 10
149.786087195
 20
369.0480690742
 11
148.192337195
 21
373.2076435531
  0
LINE
  5
2CD
100
AcDbEntity
  8
0
100
AcDbLine
 62
7
  6
CONTINUOUS
 10
147.1298369417
 20
372.8459414686
 11
148.5465035239
 21
369.0480690742
  0
LINE
  5
2CE
100
AcDbEntity
  8
0
100
AcDbLine
 62
7
  6
CONTINUOUS
 10
148.3694203594
 20
376.1012607361
 11
148.5465035239
 21
375.5587076093
  0
LINE
  5
2CF
100
AcDbEntity
  8
0
100
AcDbLine
 62
7
  6
CONTINUOUS
 10
149.6090035239
 20
375.5587076093
 11
149.4319203594
 21
376.1012607361
  0
LINE
  5
2D0
100
AcDbEntity
  8
0
100
AcDbLine
 62
7
  6
CONTINUOUS
 10
152.4423366883
 20
371.2182818348
 11
152.2652540305
 21
371.9416860039
  0
LINE
  5
2D1
100
AcDbEntity
  8
0
100
AcDbLine
 62
7
  6
CONTINUOUS
 10
166.0777530172
 20
374.6544518913
 11
165.9006703594
 21
375.5587076093
  0
LINE
  5
2D2
100
AcDbEntity
  8
KONSTRUKTIONSELEMENTE
100
AcDbLine
 62
7
  6
CONTINUOUS
 10
185.3173382977
 20
234.5480690742
 11
185.3173382977
 21
234.3480690742
  0
LINE
  5
2D3
100
AcDbEntity
  8
0
100
AcDbLine
 62
7
  6
CONTINUOUS
 10
152.7444222966
 20
251.4736007894
 11
152.0152552822
 21
250.3565796459
  0
LINE
  5
2D4
100
AcDbEntity
  8
0
100
AcDbLine
 62
7
  6
CONTINUOUS
 10
152.7444222966
 20
245.1438137884
 11
152.0152552822
 21
244.0267923842
  0
LINE
  5
2D5
100
AcDbEntity
  8
0
100
AcDbLine
 62
7
  6
CONTINUOUS
 10
153.1090052822
 20
242.5374307292
 11
154.2027552822
 21
244.0267923842
  0
LINE
  5
2D6
100
AcDbEntity
  8
0
100
AcDbLine
 62
7
  6
CONTINUOUS
 10
145.0881720358
 20
255.5693460251
 11
146.1819220358
 21
256.3140267874
  0
LINE
  5
2D7
100
AcDbEntity
  8
0
100
AcDbLine
 62
7
  6
CONTINUOUS
 10
145.8173385286
 20
258.1757286931
 11
143.9944219054
 21
257.0587075496
  0
LINE
  5
2D8
100
AcDbEntity
  8
0
100
AcDbLine
 62
7
  6
CONTINUOUS
 10
117.889856183
 20
355.3594396713
 11
113.8216414297
 21
357.1737515596
  0
LINE
  5
2D9
100
AcDbEntity
  8
0
100
AcDbLine
 62
7
  6
CONTINUOUS
 10
113.3261024714
 20
356.1666886079
 11
117.0133388798
 21
354.4829223681
  0
LINE
  5
2DA
100
AcDbEntity
  8
0
100
AcDbLine
 62
7
  6
CONTINUOUS
 10
111.9007621621
 20
359.3450649565
 11
112.4096222219
 21
359.0866390261
  0
LINE
  5
2DB
100
AcDbEntity
  8
0
100
AcDbLine
 62
7
  6
CONTINUOUS
 10
113.1609231769
 20
359.8379399811
 11
112.6520631171
 21
360.0963659116
  0
LINE
  5
2DC
100
AcDbEntity
  8
0
100
AcDbLine
 62
7
  6
CONTINUOUS
 10
118.4892991242
 20
358.5165029382
 11
117.9804383479
 21
358.7749281522
  0
LINE
  5
2DD
100
AcDbEntity
  8
0
100
AcDbLine
 62
7
  6
CONTINUOUS
 10
116.3073294551
 20
361.4497735623
 11
115.7984686788
 21
361.7081987763
  0
LINE
  5
2DE
100
AcDbEntity
  8
0
100
AcDbLine
 62
7
  6
CONTINUOUS
 10
117.2291381094
 20
358.0236279136
 11
117.8658784511
 21
357.6373202683
  0
LINE
  5
2DF
100
AcDbEntity
  8
0
100
AcDbLine
 62
7
  6
CONTINUOUS
 10
115.1750487222
 20
360.8290168229
 11
115.8117904968
 21
360.4427106106
  0
LINE
  5
2E0
100
AcDbEntity
  8
0
100
AcDbLine
 62
7
  6
CONTINUOUS
 10
152.7965040305
 20
370.675728708
 11
152.4423366883
 21
371.2182818348
  0
LINE
  5
2E1
100
AcDbEntity
  8
0
100
AcDbLine
 62
7
  6
CONTINUOUS
 10
151.379837195
 20
371.0374307925
 11
151.7340040305
 21
370.3140264968
  0
LINE
  5
2E2
100
AcDbEntity
  8
0
100
AcDbLine
 62
7
  6
CONTINUOUS
 10
164.8381703594
 20
375.3778560603
 11
165.0152530172
 21
374.6544518913
  0
LINE
  5
2E3
100
AcDbEntity
  8
RUNDUNGEN
100
AcDbLine
 62
7
  6
CONTINUOUS
 10
195.1176544465
 20
300.8232170032
 11
195.0613178401
 21
300.6492718086
  0
LINE
  5
2E4
100
AcDbEntity
  8
0
100
AcDbLine
 62
7
  6
CONTINUOUS
 10
152.0152552822
 20
250.3565796459
 11
150.9215052822
 21
249.6118988837
  0
LINE
  5
2E5
100
AcDbEntity
  8
0
100
AcDbLine
 62
7
  6
CONTINUOUS
 10
151.2860882679
 20
247.7501969779
 11
153.4735882679
 21
249.2395585025
  0
LINE
  5
2E6
100
AcDbEntity
  8
0
100
AcDbLine
 62
7
  6
CONTINUOUS
 10
152.0152552822
 20
244.0267923842
 11
150.9215052822
 21
243.2821116219
  0
LINE
  5
2E7
100
AcDbEntity
  8
0
100
AcDbLine
 62
7
  6
CONTINUOUS
 10
151.2860882679
 20
241.420409488
 11
153.1090052822
 21
242.5374307292
  0
LINE
  5
2E8
100
AcDbEntity
  8
0
100
AcDbLine
 62
7
  6
CONTINUOUS
 10
146.1819220358
 20
256.3140267874
 11
147.275671775
 21
256.6863671685
  0
LINE
  5
2E9
100
AcDbEntity
  8
0
100
AcDbLine
 62
7
  6
CONTINUOUS
 10
150.9215052822
 20
249.6118988837
 11
149.8277552822
 21
249.2395585025
  0
LINE
  5
2EA
100
AcDbEntity
  8
0
100
AcDbLine
 62
7
  6
CONTINUOUS
 10
112.6520631171
 20
360.0963659116
 11
111.7648886461
 21
360.2322394276
  0
LINE
  5
2EB
100
AcDbEntity
  8
0
100
AcDbLine
 62
7
  6
CONTINUOUS
 10
117.8658784511
 20
357.6373202683
 11
118.8809347713
 21
357.3735663361
  0
LINE
  5
2EC
100
AcDbEntity
  8
0
100
AcDbLine
 62
7
  6
CONTINUOUS
 10
121.478517909
 20
363.0402937035
 11
120.716559607
 21
363.3013837468
  0
LINE
  5
2ED
100
AcDbEntity
  8
0
100
AcDbLine
 62
7
  6
CONTINUOUS
 10
117.4129661937
 20
364.6015069914
 11
117.7939459716
 21
364.4709627758
  0
LINE
  5
2EE
100
AcDbEntity
  8
0
100
AcDbLine
 62
7
  6
CONTINUOUS
 10
118.5452469266
 20
365.2222637308
 11
118.0363861503
 21
365.4806889448
  0
LINE
  5
2EF
100
AcDbEntity
  8
0
100
AcDbLine
 62
7
  6
CONTINUOUS
 10
151.7340040305
 20
370.3140264968
 11
152.4423366883
 21
369.5906222644
  0
LINE
  5
2F0
100
AcDbEntity
  8
0
100
AcDbLine
 62
7
  6
CONTINUOUS
 10
148.0152535239
 20
376.4629628206
 11
148.3694203594
 21
376.1012607361
  0
LINE
  5
2F1
100
AcDbEntity
  8
0
100
AcDbLine
 62
7
  6
CONTINUOUS
 10
149.4319203594
 20
376.1012607361
 11
148.9006703594
 21
376.8246649051
  0
LINE
  5
2F2
100
AcDbEntity
  8
0
100
AcDbLine
 62
7
  6
CONTINUOUS
 10
164.4840030172
 20
375.9204096938
 11
164.8381703594
 21
375.3778560603
  0
LINE
  5
2F3
100
AcDbEntity
  8
0
100
AcDbLine
 62
7
  6
CONTINUOUS
 10
165.9006703594
 20
375.5587076093
 11
165.5465030172
 21
376.2821117783
  0
LINE
  5
2F4
100
AcDbEntity
  8
0
100
AcDbLine
 62
7
  6
CONTINUOUS
 10
150.9215052822
 20
243.2821116219
 11
149.8277552822
 21
242.9097712407
  0
LINE
  5
2F5
100
AcDbEntity
  8
0
100
AcDbLine
 62
7
  6
CONTINUOUS
 10
163.9527530172
 20
370.3140264968
 11
163.2444203594
 21
370.1331754545
  0
LINE
  5
2F6
100
AcDbEntity
  8
0
100
AcDbLine
 62
7
  6
CONTINUOUS
 10
118.8809347713
 20
357.3735663361
 11
119.8906609738
 21
357.6160064812
  0
LINE
  5
2F7
100
AcDbEntity
  8
0
100
AcDbLine
 62
7
  6
CONTINUOUS
 10
163.2444203594
 20
369.0480690742
 11
164.1298377016
 21
369.2289201323
  0
LINE
  5
2F8
100
AcDbEntity
  8
0
100
AcDbLine
 62
7
  6
CONTINUOUS
 10
111.7648886461
 20
360.2322394276
 11
110.8803781088
 21
360.1150148805
  0
LINE
  5
2F9
100
AcDbEntity
  8
0
100
AcDbLine
 62
7
  6
CONTINUOUS
 10
119.2485926864
 20
358.508510331
 11
118.4892991242
 21
358.5165029382
  0
LINE
  5
2FA
100
AcDbEntity
  8
0
100
AcDbLine
 62
7
  6
CONTINUOUS
 10
111.3945667525
 20
359.3503935405
 11
111.9007621621
 21
359.3450649565
  0
LINE
  5
2FB
100
AcDbEntity
  8
0
100
AcDbLine
 62
7
  6
CONTINUOUS
 10
115.8117904968
 20
360.4427106106
 11
116.824181316
 21
360.4320534427
  0
LINE
  5
2FC
100
AcDbEntity
  8
0
100
AcDbLine
 62
7
  6
CONTINUOUS
 10
120.716559607
 20
363.3013837468
 11
119.7041687879
 21
363.3120409146
  0
LINE
  5
2FD
100
AcDbEntity
  8
0
100
AcDbLine
 62
7
  6
CONTINUOUS
 10
116.9067715006
 20
364.6068362918
 11
117.4129661937
 21
364.6015069914
  0
LINE
  5
2FE
100
AcDbEntity
  8
0
100
AcDbLine
 62
7
  6
CONTINUOUS
 10
118.0363861503
 20
365.4806889448
 11
117.1492116793
 21
365.6165624608
  0
LINE
  5
2FF
100
AcDbEntity
  8
0
100
AcDbLine
 62
7
  6
CONTINUOUS
 10
120.2210206488
 20
362.294320795
 11
120.8550979524
 21
362.1611117501
  0
LINE
  5
300
100
AcDbEntity
  8
0
100
AcDbLine
 62
7
  6
CONTINUOUS
 10
152.4423366883
 20
369.5906222644
 11
153.1506703594
 21
369.2289201323
  0
LINE
  5
301
100
AcDbEntity
  8
0
100
AcDbLine
 62
7
  6
CONTINUOUS
 10
153.3277540305
 20
370.3140264968
 11
152.7965040305
 21
370.675728708
  0
LINE
  5
302
100
AcDbEntity
  8
0
100
AcDbLine
 62
7
  6
CONTINUOUS
 10
148.9006703594
 20
376.8246649051
 11
148.192337195
 21
377.367218032
  0
LINE
  5
303
100
AcDbEntity
  8
0
100
AcDbLine
 62
7
  6
CONTINUOUS
 10
165.5465030172
 20
376.2821117783
 11
164.8381703594
 21
377.0055159474
  0
LINE
  5
304
100
AcDbEntity
  8
BEZUGSACHSEN
100
AcDbLine
 62
7
  6
CONTINUOUS
 10
232.699052725
 20
310.888783688
 11
207.5778517069
 21
250.2606934186
  0
LINE
  5
305
100
AcDbEntity
  8
0
100
AcDbLine
 62
7
  6
CONTINUOUS
 10
155.4527540305
 20
370.3140264968
 11
154.7444203594
 21
370.1331754545
  0
LINE
  5
306
100
AcDbEntity
  8
0
100
AcDbLine
 62
7
  6
CONTINUOUS
 10
154.7444203594
 20
369.0480690742
 11
155.6298366883
 21
369.2289201323
  0
LINE
  5
307
100
AcDbEntity
  8
0
100
AcDbLine
 62
7
  6
CONTINUOUS
 10
116.9387419293
 20
361.5696620431
 11
116.3073294551
 21
361.4497735623
  0
LINE
  5
308
100
AcDbEntity
  8
0
100
AcDbLine
 62
7
  6
CONTINUOUS
 10
119.5896081745
 20
362.1744323143
 11
120.2210206488
 21
362.294320795
  0
LINE
  5
309
100
AcDbEntity
  8
0
100
AcDbLine
 62
7
  6
CONTINUOUS
 10
117.1492116793
 20
365.6165624608
 11
116.2647018585
 21
365.4993386302
  0
LINE
  5
30A
100
AcDbEntity
  8
0
100
AcDbLine
 62
7
  6
CONTINUOUS
 10
143.0569203594
 20
369.0480690742
 11
144.1194203594
 21
369.0480690742
  0
LINE
  5
30B
100
AcDbEntity
  8
0
100
AcDbLine
 62
7
  6
CONTINUOUS
 10
148.5465035239
 20
369.0480690742
 11
149.786087195
 21
369.0480690742
  0
LINE
  5
30C
100
AcDbEntity
  8
0
100
AcDbLine
 62
7
  6
CONTINUOUS
 10
154.0360866883
 20
369.0480690742
 11
154.7444203594
 21
369.0480690742
  0
LINE
  5
30D
100
AcDbEntity
  8
0
100
AcDbLine
 62
7
  6
CONTINUOUS
 10
158.9944203594
 20
369.0480690742
 11
163.2444203594
 21
369.0480690742
  0
LINE
  5
30E
100
AcDbEntity
  8
0
100
AcDbLine
 62
7
  6
CONTINUOUS
 10
163.2444203594
 20
370.1331754545
 11
160.0569203594
 21
370.1331754545
  0
LINE
  5
30F
100
AcDbEntity
  8
0
100
AcDbLine
 62
7
  6
CONTINUOUS
 10
154.7444203594
 20
370.1331754545
 11
154.0360866883
 21
370.1331754545
  0
LINE
  5
310
100
AcDbEntity
  8
0
100
AcDbLine
 62
7
  6
CONTINUOUS
 10
144.1194203594
 20
372.8459414686
 11
147.1298369417
 21
372.8459414686
  0
LINE
  5
311
100
AcDbEntity
  8
0
100
AcDbLine
 62
7
  6
CONTINUOUS
 10
147.4840035239
 20
373.9310477222
 11
144.1194203594
 21
373.9310477222
  0
LINE
  5
312
100
AcDbEntity
  8
0
100
AcDbLine
 62
7
  6
CONTINUOUS
 10
160.0569203594
 20
376.4629628206
 11
163.2444203594
 21
376.4629628206
  0
LINE
  5
313
100
AcDbEntity
  8
0
100
AcDbLine
 62
7
  6
CONTINUOUS
 10
144.1194203594
 20
376.6438138629
 11
147.4840035239
 21
376.6438138629
  0
LINE
  5
314
100
AcDbEntity
  8
0
100
AcDbLine
 62
7
  6
CONTINUOUS
 10
163.2444203594
 20
377.5480690742
 11
158.9944203594
 21
377.5480690742
  0
LINE
  5
315
100
AcDbEntity
  8
0
100
AcDbLine
 62
7
  6
CONTINUOUS
 10
157.5777540305
 20
377.5480690742
 11
156.5152540305
 21
377.5480690742
  0
LINE
  5
316
100
AcDbEntity
  8
0
100
AcDbLine
 62
7
  6
CONTINUOUS
 10
152.2652540305
 20
377.5480690742
 11
151.2027535239
 21
377.5480690742
  0
LINE
  5
317
100
AcDbEntity
  8
0
100
AcDbLine
 62
7
  6
CONTINUOUS
 10
147.3069203594
 20
377.5480690742
 11
143.0569203594
 21
377.5480690742
  0
LINE
  5
318
100
AcDbEntity
  8
0
100
AcDbLine
 62
7
  6
CONTINUOUS
 10
153.1506703594
 20
369.2289201323
 11
154.0360866883
 21
369.0480690742
  0
LINE
  5
319
100
AcDbEntity
  8
0
100
AcDbLine
 62
7
  6
CONTINUOUS
 10
148.192337195
 20
377.367218032
 11
147.3069203594
 21
377.5480690742
  0
LINE
  5
31A
100
AcDbEntity
  8
0
100
AcDbLine
 62
7
  6
CONTINUOUS
 10
164.1298377016
 20
377.367218032
 11
163.2444203594
 21
377.5480690742
  0
LINE
  5
31B
100
AcDbEntity
  8
0
100
AcDbLine
 62
7
  6
CONTINUOUS
 10
154.0360866883
 20
370.1331754545
 11
153.3277540305
 21
370.3140264968
  0
LINE
  5
31C
100
AcDbEntity
  8
0
100
AcDbLine
 62
7
  6
CONTINUOUS
 10
163.2444203594
 20
376.4629628206
 11
163.9527530172
 21
376.2821117783
  0
LINE
  5
31D
100
AcDbEntity
  8
0
100
AcDbLine
 62
7
  6
CONTINUOUS
 10
147.4840035239
 20
376.6438138629
 11
148.0152535239
 21
376.4629628206
  0
LINE
  5
31E
100
AcDbEntity
  8
0
100
AcDbLine
 62
7
  6
CONTINUOUS
 10
164.8381703594
 20
377.0055159474
 11
164.1298377016
 21
377.367218032
  0
LINE
  5
31F
100
AcDbEntity
  8
0
100
AcDbLine
 62
7
  6
CONTINUOUS
 10
163.9527530172
 20
376.2821117783
 11
164.4840030172
 21
375.9204096938
  0
LINE
  5
320
100
AcDbEntity
  8
0
100
AcDbLine
 62
7
  6
CONTINUOUS
 10
198.5805881393
 20
355.8018465373
 11
200.3765919062
 21
354.0058427705
  0
LINE
  5
321
100
AcDbEntity
  8
0
100
AcDbLine
 62
7
  6
CONTINUOUS
 10
201.30261505
 20
354.9318659143
 11
199.5081025691
 21
356.7263783952
  0
LINE
  5
322
100
AcDbEntity
  8
RUNDUNGEN
100
AcDbLine
 62
7
  6
CONTINUOUS
 10
157.0759139445
 20
391.5851171043
 11
207.0833421721
 21
372.3890639231
  0
LINE
  5
323
100
AcDbEntity
  8
RUNDUNGEN
100
AcDbLine
 62
7
  6
CONTINUOUS
 10
211.0419232528
 20
368.5327849641
 11
232.2336366626
 21
317.3714630404
  0
LINE
  5
324
100
AcDbEntity
  8
BEZUGSACHSEN
100
AcDbLine
 62
7
  6
CONTINUOUS
 10
232.2336366626
 20
317.3714630404
 11
232.6993628988
 21
316.2471004444
  0
LINE
  5
325
100
AcDbEntity
  8
KONSTRUKTIONSELEMENTE
100
AcDbLine
 62
7
  6
CONTINUOUS
 10
175.5673382977
 20
174.3480690742
 11
172.5673382977
 21
171.3480690742
  0
LINE
  5
326
100
AcDbEntity
  8
KONSTRUKTIONSELEMENTE
100
AcDbLine
 62
7
  6
CONTINUOUS
 10
382.8943789394
 20
171.3480690742
 11
418.8937497094
 21
171.3480690742
  0
LINE
  5
327
100
AcDbEntity
  8
KONSTRUKTIONSELEMENTE
100
AcDbLine
 62
7
  6
CONTINUOUS
 10
379.8940643244
 20
174.3480690742
 11
421.8940643244
 21
174.3480690742
  0
LINE
  5
328
100
AcDbEntity
  8
KONSTRUKTIONSELEMENTE
100
AcDbLine
 62
7
  6
CONTINUOUS
 10
379.8940643244
 20
174.3480690742
 11
382.8940643244
 21
171.3480690742
  0
LINE
  5
329
100
AcDbEntity
  8
BEZUGSACHSEN
100
AcDbLine
 62
7
  6
CONTINUOUS
 10
346.7982126969
 20
261.3358245593
 11
349.0325378773
 21
255.9416864062
  0
LINE
  5
32A
100
AcDbEntity
  8
BEZUGSACHSEN
100
AcDbLine
 62
7
  6
CONTINUOUS
 10
354.6788358004
 20
242.3103173829
 11
357.8940643244
 21
234.5480690742
  0
LINE
  5
32B
100
AcDbEntity
  8
KONSTRUKTIONSELEMENTE
100
AcDbLine
 62
7
  6
CONTINUOUS
 10
370.1440643244
 20
234.5480690742
 11
370.1440643244
 21
234.3480690742
  0
LINE
  5
32C
100
AcDbEntity
  8
KONSTRUKTIONSELEMENTE
100
AcDbLine
 62
7
  6
CONTINUOUS
 10
370.1440643244
 20
234.3480690742
 11
431.6440643244
 21
234.3480690742
  0
LINE
  5
32D
100
AcDbEntity
  8
BEZUGSACHSEN
100
AcDbLine
 62
7
  6
CONTINUOUS
 10
357.8940643244
 20
234.5480690742
 11
443.8940643244
 21
234.5480690742
  0
LINE
  5
32E
100
AcDbEntity
  8
KONSTRUKTIONSELEMENTE
100
AcDbLine
 62
7
  6
CONTINUOUS
 10
379.8940643244
 20
234.3480690742
 11
379.8940643244
 21
174.3480690742
  0
LINE
  5
32F
100
AcDbEntity
  8
BEZUGSACHSEN
100
AcDbLine
 62
7
  6
CONTINUOUS
 10
383.8940643244
 20
297.4812437737
 11
383.8940643244
 21
386.0500541188
  0
LINE
  5
330
100
AcDbEntity
  8
0
100
AcDbLine
 62
7
  6
CONTINUOUS
 10
356.5049287774
 20
241.0480690742
 11
355.9501388965
 21
241.0480690742
  0
LINE
  5
331
100
AcDbEntity
  8
0
100
AcDbLine
 62
7
  6
CONTINUOUS
 10
355.201676169
 20
241.0480690742
 11
354.9046746385
 21
241.0480690742
  0
LINE
  5
332
100
AcDbEntity
  8
0
100
AcDbLine
 62
7
  6
CONTINUOUS
 10
446.178060508
 20
241.0480690742
 11
446.8834540103
 21
241.0480690742
  0
LINE
  5
333
100
AcDbEntity
  8
0
100
AcDbLine
 62
7
  6
CONTINUOUS
 10
355.0474477198
 20
241.420409488
 11
354.6067851418
 21
241.420409488
  0
LINE
  5
334
100
AcDbEntity
  8
0
100
AcDbLine
 62
7
  6
CONTINUOUS
 10
446.0741198237
 20
241.420409488
 11
446.6221377993
 21
241.420409488
  0
LINE
  5
335
100
AcDbEntity
  8
0
100
AcDbLine
 62
7
  6
CONTINUOUS
 10
355.8725318427
 20
242.5374307292
 11
355.3180669586
 21
242.5374307292
  0
LINE
  5
336
100
AcDbEntity
  8
0
100
AcDbLine
 62
7
  6
CONTINUOUS
 10
354.5373075376
 20
242.5374307292
 11
354.0632537179
 21
242.5374307292
  0
LINE
  5
337
100
AcDbEntity
  8
0
100
AcDbLine
 62
7
  6
CONTINUOUS
 10
446.2207561892
 20
242.5374307292
 11
446.7720030755
 21
242.5374307292
  0
LINE
  5
338
100
AcDbEntity
  8
0
100
AcDbLine
 62
7
  6
CONTINUOUS
 10
447.6912948378
 20
242.9097712407
 11
447.4546722554
 21
242.9097712407
  0
LINE
  5
339
100
AcDbEntity
  8
0
100
AcDbLine
 62
7
  6
CONTINUOUS
 10
355.3408313866
 20
242.9097712407
 11
354.790368589
 21
242.9097712407
  0
LINE
  5
33A
100
AcDbEntity
  8
0
100
AcDbLine
 62
7
  6
CONTINUOUS
 10
447.4584143017
 20
243.2821116219
 11
447.9306549554
 21
243.2821116219
  0
LINE
  5
33B
100
AcDbEntity
  8
0
100
AcDbLine
 62
7
  6
CONTINUOUS
 10
354.8356744665
 20
243.654452003
 11
354.2872928067
 21
243.654452003
  0
LINE
  5
33C
100
AcDbEntity
  8
0
100
AcDbLine
 62
7
  6
CONTINUOUS
 10
353.8216871751
 20
244.0267923842
 11
353.4278694888
 21
244.0267923842
  0
LINE
  5
33D
100
AcDbEntity
  8
0
100
AcDbLine
 62
7
  6
CONTINUOUS
 10
446.6269619538
 20
244.0267923842
 11
447.1802836414
 21
244.0267923842
  0
LINE
  5
33E
100
AcDbEntity
  8
0
100
AcDbLine
 62
7
  6
CONTINUOUS
 10
447.7600772631
 20
244.0267923842
 11
448.3018698449
 21
244.0267923842
  0
LINE
  5
33F
100
AcDbEntity
  8
0
100
AcDbLine
 62
7
  6
CONTINUOUS
 10
354.3087218832
 20
244.7714734072
 11
353.7610537306
 21
244.7714734072
  0
LINE
  5
340
100
AcDbEntity
  8
0
100
AcDbLine
 62
7
  6
CONTINUOUS
 10
447.0214097203
 20
245.1438137884
 11
447.9385508877
 21
245.1438137884
  0
LINE
  5
341
100
AcDbEntity
  8
0
100
AcDbLine
 62
7
  6
CONTINUOUS
 10
448.2525099646
 20
245.1438137884
 11
448.7940052821
 21
245.1438137884
  0
LINE
  5
342
100
AcDbEntity
  8
0
100
AcDbLine
 62
7
  6
CONTINUOUS
 10
353.0450187739
 20
245.8884945507
 11
352.6567102336
 21
245.8884945507
  0
LINE
  5
343
100
AcDbEntity
  8
0
100
AcDbLine
 62
7
  6
CONTINUOUS
 10
448.7263222209
 20
246.2608349318
 11
449.2677066606
 21
246.2608349318
  0
LINE
  5
344
100
AcDbEntity
  8
0
100
AcDbLine
 62
7
  6
CONTINUOUS
 10
448.7747839449
 20
247.3778560752
 11
449.5168060801
 21
247.3778560752
  0
LINE
  5
345
100
AcDbEntity
  8
0
100
AcDbLine
 62
7
  6
CONTINUOUS
 10
448.6710295924
 20
247.7501969779
 11
449.2189714346
 21
247.7501969779
  0
LINE
  5
346
100
AcDbEntity
  8
0
100
AcDbLine
 62
7
  6
CONTINUOUS
 10
351.9579266538
 20
248.4948777402
 11
351.5806184519
 21
248.4948777402
  0
LINE
  5
347
100
AcDbEntity
  8
0
100
AcDbLine
 62
7
  6
CONTINUOUS
 10
450.1698468726
 20
248.4948777402
 11
450.201627034
 21
248.4948777402
  0
LINE
  5
348
100
AcDbEntity
  8
0
100
AcDbLine
 62
7
  6
CONTINUOUS
 10
448.8207429165
 20
248.8672181214
 11
449.3717307592
 21
248.8672181214
  0
LINE
  5
349
100
AcDbEntity
  8
0
100
AcDbLine
 62
7
  6
CONTINUOUS
 10
450.3227848957
 20
249.2395585025
 11
450.0512708386
 21
249.2395585025
  0
LINE
  5
34A
100
AcDbEntity
  8
0
100
AcDbLine
 62
7
  6
CONTINUOUS
 10
450.0549449997
 20
249.6118988837
 11
450.5581815543
 21
249.6118988837
  0
LINE
  5
34B
100
AcDbEntity
  8
0
100
AcDbLine
 62
7
  6
CONTINUOUS
 10
449.229910145
 20
250.3565796459
 11
449.7828480259
 21
250.3565796459
  0
LINE
  5
34C
100
AcDbEntity
  8
0
100
AcDbLine
 62
7
  6
CONTINUOUS
 10
450.3847472041
 20
250.3565796459
 11
450.926486127
 21
250.3565796459
  0
LINE
  5
34D
100
AcDbEntity
  8
0
100
AcDbLine
 62
7
  6
CONTINUOUS
 10
350.8711184329
 20
251.1012604082
 11
350.5009309589
 21
251.1012604082
  0
LINE
  5
34E
100
AcDbEntity
  8
0
100
AcDbLine
 62
7
  6
CONTINUOUS
 10
350.4572430413
 20
251.4736007894
 11
350.7158760918
 21
251.4736007894
  0
LINE
  5
34F
100
AcDbEntity
  8
0
100
AcDbLine
 62
7
  6
CONTINUOUS
 10
350.9536659696
 20
251.4736007894
 11
352.2426430414
 21
251.4736007894
  0
LINE
  5
350
100
AcDbEntity
  8
0
100
AcDbLine
 62
7
  6
CONTINUOUS
 10
450.8757917214
 20
251.4736007894
 11
451.4172603362
 21
251.4736007894
  0
LINE
  5
351
100
AcDbEntity
  8
0
100
AcDbLine
 62
7
  6
CONTINUOUS
 10
449.8614454035
 20
252.2182815517
 11
450.41559525
 21
252.2182815517
  0
LINE
  5
352
100
AcDbEntity
  8
0
100
AcDbLine
 62
7
  6
CONTINUOUS
 10
451.349086158
 20
252.5906219328
 11
451.8904539188
 21
252.5906219328
  0
LINE
  5
353
100
AcDbEntity
  8
0
100
AcDbLine
 62
7
  6
CONTINUOUS
 10
351.6108071784
 20
252.962962314
 11
350.3302142216
 21
252.962962314
  0
LINE
  5
354
100
AcDbEntity
  8
0
100
AcDbLine
 62
7
  6
CONTINUOUS
 10
350.0949862226
 20
252.962962314
 11
349.8391095291
 21
252.962962314
  0
LINE
  5
355
100
AcDbEntity
  8
0
100
AcDbLine
 62
7
  6
CONTINUOUS
 10
451.6576413552
 20
253.3353026951
 11
452.1990073005
 21
253.3353026951
  0
LINE
  5
356
100
AcDbEntity
  8
0
100
AcDbLine
 62
7
  6
CONTINUOUS
 10
349.7845741094
 20
253.7076430763
 11
349.4178464554
 21
253.7076430763
  0
LINE
  5
357
100
AcDbEntity
  8
0
100
AcDbLine
 62
7
  6
CONTINUOUS
 10
450.4931151702
 20
253.7076430763
 11
451.0469804808
 21
253.7076430763
  0
LINE
  5
358
100
AcDbEntity
  8
0
100
AcDbLine
 62
7
  6
CONTINUOUS
 10
452.1102341319
 20
254.4523248816
 11
452.6516914011
 21
254.4523248816
  0
LINE
  5
359
100
AcDbEntity
  8
0
100
AcDbLine
 62
7
  6
CONTINUOUS
 10
349.0086298944
 20
255.5693460251
 11
348.6466890955
 21
255.5693460251
  0
LINE
  5
35A
100
AcDbEntity
  8
0
100
AcDbLine
 62
7
  6
CONTINUOUS
 10
451.4346470056
 20
255.5693460251
 11
451.9867103732
 21
255.5693460251
  0
LINE
  5
35B
100
AcDbEntity
  8
0
100
AcDbLine
 62
7
  6
CONTINUOUS
 10
452.5460538175
 20
255.5693460251
 11
453.0877538054
 21
255.5693460251
  0
LINE
  5
35C
100
AcDbEntity
  8
0
100
AcDbLine
 62
7
  6
CONTINUOUS
 10
349.6304034756
 20
255.9416864062
 11
348.8534554265
 21
255.9416864062
  0
LINE
  5
35D
100
AcDbEntity
  8
0
100
AcDbLine
 62
7
  6
CONTINUOUS
 10
452.8601785946
 20
256.3140267874
 11
453.3397277365
 21
256.3140267874
  0
LINE
  5
35E
100
AcDbEntity
  8
0
100
AcDbLine
 62
7
  6
CONTINUOUS
 10
453.1602000141
 20
256.6863671685
 11
453.4175745088
 21
256.6863671685
  0
LINE
  5
35F
100
AcDbEntity
  8
0
100
AcDbLine
 62
7
  6
CONTINUOUS
 10
348.5698525702
 20
257.0587075496
 11
348.0463688944
 21
257.0587075496
  0
LINE
  5
360
100
AcDbEntity
  8
0
100
AcDbLine
 62
7
  6
CONTINUOUS
 10
452.2721576067
 20
257.0587075496
 11
452.8220302094
 21
257.0587075496
  0
LINE
  5
361
100
AcDbEntity
  8
0
100
AcDbLine
 62
7
  6
CONTINUOUS
 10
348.1071672631
 20
258.1757286931
 11
347.6549558605
 21
258.1757286931
  0
LINE
  5
362
100
AcDbEntity
  8
0
100
AcDbLine
 62
7
  6
CONTINUOUS
 10
453.0398281731
 20
258.1757286931
 11
453.5868187798
 21
258.1757286931
  0
LINE
  5
363
100
AcDbEntity
  8
0
100
AcDbLine
 62
7
  6
CONTINUOUS
 10
347.9529388274
 20
258.5480690742
 11
347.626660658
 21
258.5480690742
  0
LINE
  5
364
100
AcDbEntity
  8
0
100
AcDbLine
 62
7
  6
CONTINUOUS
 10
453.4352298909
 20
258.5480690742
 11
454.1614679908
 21
258.5480690742
  0
LINE
  5
365
100
AcDbEntity
  8
RUNDUNGEN
100
AcDbLine
 62
7
  6
CONTINUOUS
 10
450.9995530274
 20
269.4274801112
 11
436.4236735367
 21
273.3330752497
  0
LINE
  5
366
100
AcDbEntity
  8
RUNDUNGEN
100
AcDbLine
 62
7
  6
CONTINUOUS
 10
417.8940643244
 20
297.4811099806
 11
417.8940643244
 21
386.0500541188
  0
LINE
  5
367
100
AcDbEntity
  8
0
100
AcDbLine
 62
7
  6
CONTINUOUS
 10
418.3940643244
 20
377.5480690742
 11
418.3940643244
 21
369.0480690742
  0
LINE
  5
368
100
AcDbEntity
  8
0
100
AcDbLine
 62
7
  6
CONTINUOUS
 10
418.3940643244
 20
365.6165624608
 11
418.3940643244
 21
346.5942621614
  0
LINE
  5
369
100
AcDbEntity
  8
KONSTRUKTIONSELEMENTE
100
AcDbLine
 62
7
  6
CONTINUOUS
 10
421.8940643244
 20
234.3480690742
 11
421.8940643244
 21
174.3480690742
  0
LINE
  5
36A
100
AcDbEntity
  8
BEZUGSACHSEN
100
AcDbLine
 62
7
  6
CONTINUOUS
 10
350.7885756214
 20
269.4274801112
 11
365.3644551121
 21
273.3330752497
  0
LINE
  5
36B
100
AcDbEntity
  8
KONSTRUKTIONSELEMENTE
100
AcDbLine
 62
7
  6
CONTINUOUS
 10
431.6440643244
 20
234.5480690742
 11
431.6440643244
 21
234.3480690742
  0
LINE
  5
36C
100
AcDbEntity
  8
0
100
AcDbLine
 62
7
  6
CONTINUOUS
 10
443.8940643244
 20
234.5480690742
 11
446.5864524798
 21
241.0480690742
  0
LINE
  5
36D
100
AcDbEntity
  8
0
100
AcDbLine
 62
7
  6
CONTINUOUS
 10
453.8351898214
 20
258.5480690742
 11
454.9899159518
 21
261.3358245593
  0
LINE
  5
36E
100
AcDbEntity
  8
0
100
AcDbLine
 62
7
  6
CONTINUOUS
 10
448.7470467967
 20
244.9576422119
 11
452.7569876508
 21
254.6384958062
  0
LINE
  5
36F
100
AcDbEntity
  8
0
100
AcDbLine
 62
7
  6
CONTINUOUS
 10
450.5101415122
 20
249.2395585025
 11
450.201627034
 21
248.4948777402
  0
LINE
  5
370
100
AcDbEntity
  8
0
100
AcDbLine
 62
7
  6
CONTINUOUS
 10
417.8940643244
 20
346.5942621614
 11
418.3940643244
 21
346.5942621614
  0
LINE
  5
371
100
AcDbEntity
  8
0
100
AcDbLine
 62
7
  6
CONTINUOUS
 10
417.8940643244
 20
350.6012005284
 11
418.3940643244
 21
350.6012005284
  0
LINE
  5
372
100
AcDbEntity
  8
0
100
AcDbLine
 62
7
  6
CONTINUOUS
 10
417.8940643244
 20
351.3525014834
 11
418.3940643244
 21
351.3525014834
  0
LINE
  5
373
100
AcDbEntity
  8
0
100
AcDbLine
 62
7
  6
CONTINUOUS
 10
417.8940643244
 20
354.8585724874
 11
418.3940643244
 21
354.8585724874
  0
LINE
  5
374
100
AcDbEntity
  8
0
100
AcDbLine
 62
7
  6
CONTINUOUS
 10
417.8940643244
 20
355.6098734424
 11
418.3940643244
 21
355.6098734424
  0
LINE
  5
375
100
AcDbEntity
  8
0
100
AcDbLine
 62
7
  6
CONTINUOUS
 10
417.8940643244
 20
356.6116081685
 11
418.3940643244
 21
356.6116081685
  0
LINE
  5
376
100
AcDbEntity
  8
0
100
AcDbLine
 62
7
  6
CONTINUOUS
 10
417.8940643244
 20
359.6168119885
 11
418.3940643244
 21
359.6168119885
  0
LINE
  5
377
100
AcDbEntity
  8
0
100
AcDbLine
 62
7
  6
CONTINUOUS
 10
417.8940643244
 20
360.1150148805
 11
418.3940643244
 21
360.1150148805
  0
LINE
  5
378
100
AcDbEntity
  8
0
100
AcDbLine
 62
7
  6
CONTINUOUS
 10
417.8940643244
 20
360.2322394276
 11
418.3940643244
 21
360.2322394276
  0
LINE
  5
379
100
AcDbEntity
  8
0
100
AcDbLine
 62
7
  6
CONTINUOUS
 10
417.8940643244
 20
360.4320534427
 11
418.3940643244
 21
360.4320534427
  0
LINE
  5
37A
100
AcDbEntity
  8
0
100
AcDbLine
 62
7
  6
CONTINUOUS
 10
417.8940643244
 20
360.4427106106
 11
418.3940643244
 21
360.4427106106
  0
LINE
  5
37B
100
AcDbEntity
  8
0
100
AcDbLine
 62
7
  6
CONTINUOUS
 10
417.8940643244
 20
360.8290168229
 11
418.3940643244
 21
360.8290168229
  0
LINE
  5
37C
100
AcDbEntity
  8
0
100
AcDbLine
 62
7
  6
CONTINUOUS
 10
417.8940643244
 20
361.3405411746
 11
418.3940643244
 21
361.3405411746
  0
LINE
  5
37D
100
AcDbEntity
  8
0
100
AcDbLine
 62
7
  6
CONTINUOUS
 10
417.8940643244
 20
361.9772829493
 11
418.3940643244
 21
361.9772829493
  0
LINE
  5
37E
100
AcDbEntity
  8
0
100
AcDbLine
 62
7
  6
CONTINUOUS
 10
417.8940643244
 20
362.9896737685
 11
418.3940643244
 21
362.9896737685
  0
LINE
  5
37F
100
AcDbEntity
  8
0
100
AcDbLine
 62
7
  6
CONTINUOUS
 10
417.8940643244
 20
363.7463025909
 11
418.3940643244
 21
363.7463025909
  0
LINE
  5
380
100
AcDbEntity
  8
0
100
AcDbLine
 62
7
  6
CONTINUOUS
 10
417.8940643244
 20
364.3750518479
 11
418.3940643244
 21
364.3750518479
  0
LINE
  5
381
100
AcDbEntity
  8
0
100
AcDbLine
 62
7
  6
CONTINUOUS
 10
417.8940643244
 20
365.0011350218
 11
418.3940643244
 21
365.0011350218
  0
LINE
  5
382
100
AcDbEntity
  8
0
100
AcDbLine
 62
7
  6
CONTINUOUS
 10
417.8940643244
 20
365.4993386302
 11
418.3940643244
 21
365.4993386302
  0
LINE
  5
383
100
AcDbEntity
  8
0
100
AcDbLine
 62
7
  6
CONTINUOUS
 10
417.8940643244
 20
365.6165624608
 11
418.3940643244
 21
365.6165624608
  0
LINE
  5
384
100
AcDbEntity
  8
0
100
AcDbLine
 62
7
  6
CONTINUOUS
 10
417.8940643244
 20
369.0480690742
 11
418.3940643244
 21
369.0480690742
  0
LINE
  5
385
100
AcDbEntity
  8
0
100
AcDbLine
 62
7
  6
CONTINUOUS
 10
417.8940643244
 20
377.5480690742
 11
418.3940643244
 21
377.5480690742
  0
LINE
  5
386
100
AcDbEntity
  8
KONSTRUKTIONSELEMENTE
100
AcDbLine
 62
7
  6
CONTINUOUS
 10
421.8940643244
 20
174.3480690742
 11
418.8940643244
 21
171.3480690742
  0
LINE
  5
387
100
AcDbEntity
  8
RUNDUNGEN
100
AcDbLine
 62
7
  6
CONTINUOUS
 10
411.8940643244
 20
392.0500541188
 11
389.8940643244
 21
392.0500541188
  0
LWPOLYLINE
  5
388
100
AcDbEntity
  8
BEZUGSACHSEN
100
AcDbPolyline
 62
7
  6
CONTINUOUS
 90
10
 70
0
 10
111.1120196748
 20
121.1867785683
 10
109.5930677467
 20
119.82443221
 10
108.0182939023
 20
118.3480372705
 10
106.513687545
 20
116.8767326533
 10
105.0866472142
 20
115.4276102105
 10
103.7403721172
 20
114.0147810339
 10
102.4780341421
 20
112.6527925993
 10
101.3023712607
 20
111.3558732537
 10
100.2112348646
 20
110.1322381962
 10
99.207265778
 20
108.9943819369
  0
LWPOLYLINE
  5
389
100
AcDbEntity
  8
RUNDUNGEN
100
AcDbPolyline
 62
7
  6
CONTINUOUS
 90
7
 70
0
 10
75.9024814418
 20
82.6992004493
 10
75.9142408927
 20
80.9051566612
 10
75.954252962
 20
78.9354680004
 10
76.0230755936
 20
76.9539372634
 10
76.1211070774
 20
74.9632036853
 10
76.2485403258
 20
72.9658477782
 10
76.385658556
 20
71.1971254228
  0
LWPOLYLINE
  5
38A
100
AcDbEntity
  8
BEZUGSACHSEN
100
AcDbPolyline
 62
7
  6
CONTINUOUS
 90
7
 70
0
 10
76.385658556
 20
94.2012754757
 10
76.2485403258
 20
92.4325531204
 10
76.1211070774
 20
90.4351972133
 10
76.0230755936
 20
88.4444636352
 10
75.954252962
 20
86.4629328982
 10
75.9142408927
 20
84.4932442374
 10
75.9024814418
 20
82.6992004493
  0
LWPOLYLINE
  5
38B
100
AcDbEntity
  8
BEZUGSACHSEN
100
AcDbPolyline
 62
7
  6
CONTINUOUS
 90
18
 70
0
 10
99.207265778
 20
108.9943819369
 10
97.409479843
 20
106.9479973267
 10
96.5971853756
 20
106.0299160308
 10
95.8283087536
 20
105.1717652399
 10
95.1025746565
 20
104.3768514725
 10
94.4158495088
 20
103.6434949385
 10
93.7716798398
 20
102.977410476
 10
93.1721633918
 20
102.3814085332
 10
92.6180135078
 20
101.8556088221
 10
92.1124816966
 20
101.401161867
 10
91.6510022684
 20
101.0111637731
 10
91.2322580541
 20
100.6813711787
 10
90.8538892212
 20
100.40648588
 10
90.5142648104
 20
100.1817855964
 10
90.2157066844
 20
100.0048668119
 10
89.9601168258
 20
99.872231485
 10
89.7533760478
 20
99.7812395224
 10
89.7102585974
 20
99.7645869787
  0
LWPOLYLINE
  5
38C
100
AcDbEntity
  8
BEZUGSACHSEN
100
AcDbPolyline
 62
7
  6
CONTINUOUS
 90
4
 70
0
 10
89.7102585974
 20
99.7645869787
 10
89.6016536444
 20
99.7272486857
 10
89.5097665388
 20
99.7028108913
 10
89.4896469402
 20
99.6992004493
  0
LINE
  5
38D
100
AcDbEntity
  8
0
100
AcDbLine
 62
7
  6
CONTINUOUS
 10
101.11080176
 20
65.6992004493
 11
101.11080176
 21
65.1992004493
  0
LINE
  5
38E
100
AcDbEntity
  8
0
100
AcDbLine
 62
7
  6
CONTINUOUS
 10
101.862102715
 20
65.6992004493
 11
101.862102715
 21
65.1992004493
  0
LINE
  5
38F
100
AcDbEntity
  8
0
100
AcDbLine
 62
7
  6
CONTINUOUS
 10
163.7340043285
 20
109.9864345172
 11
162.9006717899
 21
109.560902653
  0
LINE
  5
390
100
AcDbEntity
  8
0
100
AcDbLine
 62
7
  6
CONTINUOUS
 10
105.3681737189
 20
65.6992004493
 11
105.3681737189
 21
65.1992004493
  0
LINE
  5
391
100
AcDbEntity
  8
0
100
AcDbLine
 62
7
  6
CONTINUOUS
 10
106.1194746739
 20
65.6992004493
 11
106.1194746739
 21
65.1992004493
  0
LINE
  5
392
100
AcDbEntity
  8
0
100
AcDbLine
 62
7
  6
CONTINUOUS
 10
107.1212094
 20
65.6992004493
 11
107.1212094
 21
65.1992004493
  0
LINE
  5
393
100
AcDbEntity
  8
0
100
AcDbLine
 62
7
  6
CONTINUOUS
 10
110.1264132201
 20
65.6992004493
 11
110.1264132201
 21
65.1992004493
  0
LINE
  5
394
100
AcDbEntity
  8
0
100
AcDbLine
 62
7
  6
CONTINUOUS
 10
110.8803781088
 20
65.6992004493
 11
110.8803781088
 21
65.1992004493
  0
LINE
  5
395
100
AcDbEntity
  8
0
100
AcDbLine
 62
7
  6
CONTINUOUS
 10
111.7648886461
 20
65.6992004493
 11
111.7648886461
 21
65.1992004493
  0
LINE
  5
396
100
AcDbEntity
  8
0
100
AcDbLine
 62
7
  6
CONTINUOUS
 10
112.6520631171
 20
65.6992004493
 11
112.6520631171
 21
65.1992004493
  0
LINE
  5
397
100
AcDbEntity
  8
0
100
AcDbLine
 62
7
  6
CONTINUOUS
 10
113.1609231769
 20
65.6992004493
 11
113.1609231769
 21
65.1992004493
  0
LINE
  5
398
100
AcDbEntity
  8
0
100
AcDbLine
 62
7
  6
CONTINUOUS
 10
113.6724475286
 20
65.6992004493
 11
113.6724475286
 21
65.1992004493
  0
LINE
  5
399
100
AcDbEntity
  8
0
100
AcDbLine
 62
7
  6
CONTINUOUS
 10
163.3173368671
 20
108.4970729926
 11
163.9423368671
 21
108.9226048568
  0
LINE
  5
39A
100
AcDbEntity
  8
0
100
AcDbLine
 62
7
  6
CONTINUOUS
 10
113.9308734591
 20
65.6992004493
 11
113.9308734591
 21
65.1992004493
  0
LINE
  5
39B
100
AcDbEntity
  8
0
100
AcDbLine
 62
7
  6
CONTINUOUS
 10
114.0667469751
 20
65.6992004493
 11
114.0667469751
 21
65.1992004493
  0
LINE
  5
39C
100
AcDbEntity
  8
0
100
AcDbLine
 62
7
  6
CONTINUOUS
 10
114.2665609903
 20
65.6992004493
 11
114.2665609903
 21
65.1992004493
  0
LINE
  5
39D
100
AcDbEntity
  8
0
100
AcDbLine
 62
7
  6
CONTINUOUS
 10
114.5116658192
 20
65.6992004493
 11
114.5116658192
 21
65.1992004493
  0
LINE
  5
39E
100
AcDbEntity
  8
0
100
AcDbLine
 62
7
  6
CONTINUOUS
 10
114.8846530795
 20
65.6992004493
 11
114.8846530795
 21
65.1992004493
  0
LINE
  5
39F
100
AcDbEntity
  8
0
100
AcDbLine
 62
7
  6
CONTINUOUS
 10
115.5107362533
 20
65.6992004493
 11
115.5107362533
 21
65.1992004493
  0
LINE
  5
3A0
100
AcDbEntity
  8
0
100
AcDbLine
 62
7
  6
CONTINUOUS
 10
116.2647018585
 20
65.6992004493
 11
116.2647018585
 21
65.1992004493
  0
LINE
  5
3A1
100
AcDbEntity
  8
0
100
AcDbLine
 62
7
  6
CONTINUOUS
 10
117.1492116793
 20
65.6992004493
 11
117.1492116793
 21
65.1992004493
  0
LINE
  5
3A2
100
AcDbEntity
  8
0
100
AcDbLine
 62
7
  6
CONTINUOUS
 10
118.0363861503
 20
65.6992004493
 11
118.0363861503
 21
65.1992004493
  0
LINE
  5
3A3
100
AcDbEntity
  8
0
100
AcDbLine
 62
7
  6
CONTINUOUS
 10
118.5452469266
 20
65.6992004493
 11
118.5452469266
 21
65.1992004493
  0
LINE
  5
3A4
100
AcDbEntity
  8
0
100
AcDbLine
 62
7
  6
CONTINUOUS
 10
118.9475385324
 20
65.6992004493
 11
118.9475385324
 21
65.1992004493
  0
LINE
  5
3A5
100
AcDbEntity
  8
0
100
AcDbLine
 62
7
  6
CONTINUOUS
 10
119.7041687879
 20
65.6992004493
 11
119.7041687879
 21
65.1992004493
  0
LINE
  5
3A6
100
AcDbEntity
  8
0
100
AcDbLine
 62
7
  6
CONTINUOUS
 10
120.716559607
 20
65.6992004493
 11
120.716559607
 21
65.1992004493
  0
LINE
  5
3A7
100
AcDbEntity
  8
0
100
AcDbLine
 62
7
  6
CONTINUOUS
 10
121.478517909
 20
65.6992004493
 11
121.478517909
 21
65.1992004493
  0
LINE
  5
3A8
100
AcDbEntity
  8
0
100
AcDbLine
 62
7
  6
CONTINUOUS
 10
122.1179229009
 20
65.6992004493
 11
122.1179229009
 21
65.1992004493
  0
LINE
  5
3A9
100
AcDbEntity
  8
0
100
AcDbLine
 62
7
  6
CONTINUOUS
 10
122.3790128546
 20
65.6992004493
 11
122.3790128546
 21
65.1992004493
  0
LINE
  5
3AA
100
AcDbEntity
  8
0
100
AcDbLine
 62
7
  6
CONTINUOUS
 10
122.3896700672
 20
65.6992004493
 11
122.3896700672
 21
65.1992004493
  0
LINE
  5
3AB
100
AcDbEntity
  8
0
100
AcDbLine
 62
7
  6
CONTINUOUS
 10
156.6506705978
 20
110.1992004493
 11
151.6506705978
 21
104.454519687
  0
LINE
  5
3AC
100
AcDbEntity
  8
0
100
AcDbLine
 62
7
  6
CONTINUOUS
 10
153.1090043285
 20
104.454519687
 11
156.6506705978
 21
108.4970729926
  0
LINE
  5
3AD
100
AcDbEntity
  8
0
100
AcDbLine
 62
7
  6
CONTINUOUS
 10
162.9006717899
 20
109.560902653
 11
162.0673368671
 21
108.7098389247
  0
LINE
  5
3AE
100
AcDbEntity
  8
0
100
AcDbLine
 62
7
  6
CONTINUOUS
 10
167.4840043285
 20
106.5821790078
 11
161.6506717899
 21
101.2630302587
  0
LINE
  5
3AF
100
AcDbEntity
  8
0
100
AcDbLine
 62
7
  6
CONTINUOUS
 10
163.3173368671
 20
101.2630302587
 11
168.5256717899
 21
105.9438812116
  0
LWPOLYLINE
  5
3B0
100
AcDbEntity
  8
RUNDUNGEN
100
AcDbPolyline
 62
7
  6
CONTINUOUS
 90
37
 70
0
 10
111.1120221943
 20
44.2116163693
 10
112.949290478
 20
42.6621732331
 10
114.9748491815
 20
41.0873099634
 10
117.0732150705
 20
39.5891706043
 10
119.2410672549
 20
38.1709463174
 10
121.4751619184
 20
36.8355664567
 10
123.7714507716
 20
35.5863251793
 10
126.1257911857
 20
34.4263231287
 10
128.5340516642
 20
33.3580014234
 10
130.992025765
 20
32.3836204607
 10
133.4951877249
 20
31.50555465
 10
136.0389317719
 20
30.7260056911
 10
138.6186351799
 20
30.0465991809
 10
141.2297407139
 20
29.4687629826
 10
143.867045084
 20
28.994072074
 10
146.5254183841
 20
28.6238548502
 10
149.1996257395
 20
28.3588609851
 10
151.8844399889
 20
28.199614517
 10
154.5745601996
 20
28.146626401
 10
157.2646675724
 20
28.2001861036
 10
159.9494421794
 20
28.3600018846
 10
162.6235828737
 20
28.625562683
 10
165.2818617489
 20
28.996344206
 10
167.9190428745
 20
29.471594023
 10
170.5299957187
 20
30.0499808744
 10
173.1095168856
 20
30.7299291567
 10
175.6530504604
 20
31.5100107983
 10
178.1559735449
 20
32.3885972689
 10
180.6136806322
 20
33.3634839141
 10
183.0216477417
 20
34.4322963337
 10
185.3756706016
 20
35.5927743977
 10
187.6716174395
 20
36.8424737555
 10
189.9053464793
 20
38.1782909038
 10
192.0728133333
 20
39.5969331091
 10
194.1707788566
 20
41.0954732406
 10
196.195921461
 20
42.6707180209
 10
198.0226536521
 20
44.2116157345
  0
LWPOLYLINE
  5
3B1
100
AcDbEntity
  8
RUNDUNGEN
100
AcDbPolyline
 62
7
  6
CONTINUOUS
 90
11
 70
0
 10
97.4101905001
 20
58.4495969491
 10
99.2080987645
 20
56.4030717085
 10
100.2119119178
 20
55.2653986032
 10
101.3026131426
 20
54.042258332
 10
102.4776941919
 20
52.7459795665
 10
103.7393717598
 20
51.3846854455
 10
105.0850556491
 20
49.9724352732
 10
106.5117324776
 20
48.5236181707
 10
108.0163601587
 20
47.0522167041
 10
109.5917901074
 20
45.5751400546
 10
111.1120196448
 20
44.2116223566
  0
LINE
  5
3B2
100
AcDbEntity
  8
0
100
AcDbLine
 62
7
  6
CONTINUOUS
 10
148.1090043285
 20
110.1992004493
 11
144.9840043285
 21
101.2630302587
  0
LINE
  5
3B3
100
AcDbEntity
  8
0
100
AcDbLine
 62
7
  6
CONTINUOUS
 10
145.8173374632
 20
100.1992004493
 11
148.7340043285
 21
108.0715411285
  0
LINE
  5
3B4
100
AcDbEntity
  8
0
100
AcDbLine
 62
7
  6
CONTINUOUS
 10
162.9006717899
 20
107.8587751964
 11
163.3173368671
 21
108.4970729926
  0
LINE
  5
3B5
100
AcDbEntity
  8
0
100
AcDbLine
 62
7
  6
CONTINUOUS
 10
168.5256717899
 20
105.9438812116
 11
168.9423368671
 21
106.5821790078
  0
LINE
  5
3B6
100
AcDbEntity
  8
0
100
AcDbLine
 62
7
  6
CONTINUOUS
 10
139.9840043285
 20
110.1992004493
 11
139.9840043285
 21
100.1992004493
  0
LINE
  5
3B7
100
AcDbEntity
  8
0
100
AcDbLine
 62
7
  6
CONTINUOUS
 10
141.2340043285
 20
100.1992004493
 11
141.2340043285
 21
108.0715411285
  0
LINE
  5
3B8
100
AcDbEntity
  8
0
100
AcDbLine
 62
7
  6
CONTINUOUS
 10
143.0569203594
 20
65.6992004493
 11
143.0569203594
 21
65.1992004493
  0
LINE
  5
3B9
100
AcDbEntity
  8
0
100
AcDbLine
 62
7
  6
CONTINUOUS
 10
167.9006717899
 20
107.4332427362
 11
167.4840043285
 21
106.5821790078
  0
LINE
  5
3BA
100
AcDbEntity
  8
0
100
AcDbLine
 62
7
  6
CONTINUOUS
 10
147.3069203594
 20
65.6992004493
 11
147.3069203594
 21
65.1992004493
  0
LINE
  5
3BB
100
AcDbEntity
  8
0
100
AcDbLine
 62
7
  6
CONTINUOUS
 10
148.192337195
 20
65.6992004493
 11
148.192337195
 21
65.1992004493
  0
LINE
  5
3BC
100
AcDbEntity
  8
0
100
AcDbLine
 62
7
  6
CONTINUOUS
 10
148.7340043285
 20
108.0715411285
 11
148.7340043285
 21
100.1992004493
  0
LINE
  5
3BD
100
AcDbEntity
  8
0
100
AcDbLine
 62
7
  6
CONTINUOUS
 10
148.9006703594
 20
65.6992004493
 11
148.9006703594
 21
65.1992004493
  0
LINE
  5
3BE
100
AcDbEntity
  8
0
100
AcDbLine
 62
7
  6
CONTINUOUS
 10
149.4319203594
 20
65.6992004493
 11
149.4319203594
 21
65.1992004493
  0
LINE
  5
3BF
100
AcDbEntity
  8
0
100
AcDbLine
 62
7
  6
CONTINUOUS
 10
149.6090035239
 20
65.6992004493
 11
149.6090035239
 21
65.1992004493
  0
LINE
  5
3C0
100
AcDbEntity
  8
0
100
AcDbLine
 62
7
  6
CONTINUOUS
 10
149.786087195
 20
65.6992004493
 11
149.786087195
 21
65.1992004493
  0
LINE
  5
3C1
100
AcDbEntity
  8
0
100
AcDbLine
 62
7
  6
CONTINUOUS
 10
149.9840043285
 20
100.1992004493
 11
149.9840043285
 21
110.1992004493
  0
LINE
  5
3C2
100
AcDbEntity
  8
0
100
AcDbLine
 62
7
  6
CONTINUOUS
 10
151.2027535239
 20
65.6992004493
 11
151.2027535239
 21
65.1992004493
  0
LINE
  5
3C3
100
AcDbEntity
  8
0
100
AcDbLine
 62
7
  6
CONTINUOUS
 10
151.6506705978
 20
104.454519687
 11
151.6506705978
 21
103.1779237965
  0
LINE
  5
3C4
100
AcDbEntity
  8
0
100
AcDbLine
 62
7
  6
CONTINUOUS
 10
152.2652540305
 20
65.6992004493
 11
152.2652540305
 21
65.1992004493
  0
LINE
  5
3C5
100
AcDbEntity
  8
0
100
AcDbLine
 62
7
  6
CONTINUOUS
 10
152.4423366883
 20
65.6992004493
 11
152.4423366883
 21
65.1992004493
  0
LINE
  5
3C6
100
AcDbEntity
  8
0
100
AcDbLine
 62
7
  6
CONTINUOUS
 10
152.7965040305
 20
65.6992004493
 11
152.7965040305
 21
65.1992004493
  0
LINE
  5
3C7
100
AcDbEntity
  8
0
100
AcDbLine
 62
7
  6
CONTINUOUS
 10
153.3277540305
 20
65.6992004493
 11
153.3277540305
 21
65.1992004493
  0
LINE
  5
3C8
100
AcDbEntity
  8
0
100
AcDbLine
 62
7
  6
CONTINUOUS
 10
154.0360866883
 20
65.6992004493
 11
154.0360866883
 21
65.1992004493
  0
LINE
  5
3C9
100
AcDbEntity
  8
0
100
AcDbLine
 62
7
  6
CONTINUOUS
 10
154.7444203594
 20
65.6992004493
 11
154.7444203594
 21
65.1992004493
  0
LINE
  5
3CA
100
AcDbEntity
  8
0
100
AcDbLine
 62
7
  6
CONTINUOUS
 10
155.4527540305
 20
65.6992004493
 11
155.4527540305
 21
65.1992004493
  0
LINE
  5
3CB
100
AcDbEntity
  8
0
100
AcDbLine
 62
7
  6
CONTINUOUS
 10
162.0673368671
 20
108.7098389247
 11
161.8590043285
 21
107.8587751964
  0
LINE
  5
3CC
100
AcDbEntity
  8
0
100
AcDbLine
 62
7
  6
CONTINUOUS
 10
168.9423368671
 20
106.5821790078
 11
169.1506717899
 21
107.4332427362
  0
LWPOLYLINE
  5
3CD
100
AcDbEntity
  8
RUNDUNGEN
100
AcDbPolyline
 62
7
  6
CONTINUOUS
 90
17
 70
0
 10
89.6017018986
 20
65.6711373398
 10
89.7534646096
 20
65.6171262377
 10
89.9602485878
 20
65.5261062923
 10
90.2158794503
 20
65.3934380826
 10
90.5144711357
 20
65.2164859194
 10
90.8541201485
 20
64.9917547169
 10
91.2325011984
 20
64.7168456227
 10
91.6512491294
 20
64.3870355686
 10
92.1127267269
 20
63.9970253001
 10
92.6182543526
 20
63.5425694868
 10
93.1723993211
 20
63.0167630291
 10
93.7719198632
 20
62.420746847
 10
94.416110717
 20
61.7546312132
 10
95.1028857728
 20
61.0212126111
 10
95.8287237199
 20
60.2261764038
 10
96.597732388
 20
59.3678699046
 10
97.4101905001
 20
58.4495969491
  0
LINE
  5
3CE
100
AcDbEntity
  8
0
100
AcDbLine
 62
7
  6
CONTINUOUS
 10
155.9840040305
 20
65.6992004493
 11
155.9840040305
 21
65.1992004493
  0
LINE
  5
3CF
100
AcDbEntity
  8
0
100
AcDbLine
 62
7
  6
CONTINUOUS
 10
156.3381703594
 20
65.6992004493
 11
156.3381703594
 21
65.1992004493
  0
LINE
  5
3D0
100
AcDbEntity
  8
0
100
AcDbLine
 62
7
  6
CONTINUOUS
 10
156.5152540305
 20
65.6992004493
 11
156.5152540305
 21
65.1992004493
  0
LINE
  5
3D1
100
AcDbEntity
  8
0
100
AcDbLine
 62
7
  6
CONTINUOUS
 10
156.6506705978
 20
108.4970729926
 11
156.6506705978
 21
104.454519687
  0
LINE
  5
3D2
100
AcDbEntity
  8
0
100
AcDbLine
 62
7
  6
CONTINUOUS
 10
156.6506705978
 20
103.1779237965
 11
156.6506705978
 21
100.1992004493
  0
LINE
  5
3D3
100
AcDbEntity
  8
0
100
AcDbLine
 62
7
  6
CONTINUOUS
 10
157.5777540305
 20
65.6992004493
 11
157.5777540305
 21
65.1992004493
  0
LINE
  5
3D4
100
AcDbEntity
  8
0
100
AcDbLine
 62
7
  6
CONTINUOUS
 10
157.9006705978
 20
100.1992004493
 11
157.9006705978
 21
103.1779237965
  0
LINE
  5
3D5
100
AcDbEntity
  8
0
100
AcDbLine
 62
7
  6
CONTINUOUS
 10
157.9006705978
 20
104.454519687
 11
157.9006705978
 21
110.1992004493
  0
LINE
  5
3D6
100
AcDbEntity
  8
0
100
AcDbLine
 62
7
  6
CONTINUOUS
 10
158.9944203594
 20
65.6992004493
 11
158.9944203594
 21
65.1992004493
  0
LINE
  5
3D7
100
AcDbEntity
  8
0
100
AcDbLine
 62
7
  6
CONTINUOUS
 10
159.9840043285
 20
103.1779237965
 11
159.9840043285
 21
104.454519687
  0
LINE
  5
3D8
100
AcDbEntity
  8
0
100
AcDbLine
 62
7
  6
CONTINUOUS
 10
161.6506717899
 20
101.2630302587
 11
161.6506717899
 21
100.1992004493
  0
LINE
  5
3D9
100
AcDbEntity
  8
0
100
AcDbLine
 62
7
  6
CONTINUOUS
 10
163.2444203594
 20
65.6992004493
 11
163.2444203594
 21
65.1992004493
  0
LINE
  5
3DA
100
AcDbEntity
  8
0
100
AcDbLine
 62
7
  6
CONTINUOUS
 10
164.1298377016
 20
65.6992004493
 11
164.1298377016
 21
65.1992004493
  0
LINE
  5
3DB
100
AcDbEntity
  8
0
100
AcDbLine
 62
7
  6
CONTINUOUS
 10
164.8381703594
 20
65.6992004493
 11
164.8381703594
 21
65.1992004493
  0
LINE
  5
3DC
100
AcDbEntity
  8
0
100
AcDbLine
 62
7
  6
CONTINUOUS
 10
165.5465030172
 20
65.6992004493
 11
165.5465030172
 21
65.1992004493
  0
LINE
  5
3DD
100
AcDbEntity
  8
0
100
AcDbLine
 62
7
  6
CONTINUOUS
 10
165.9006703594
 20
65.6992004493
 11
165.9006703594
 21
65.1992004493
  0
LINE
  5
3DE
100
AcDbEntity
  8
0
100
AcDbLine
 62
7
  6
CONTINUOUS
 10
166.0777530172
 20
65.6992004493
 11
166.0777530172
 21
65.1992004493
  0
LWPOLYLINE
  5
3DF
100
AcDbEntity
  8
RUNDUNGEN
100
AcDbPolyline
 62
7
  6
CONTINUOUS
 90
4
 70
0
 10
219.4259432329
 20
65.634385798
 10
219.534118242
 20
65.671489286
 10
219.6254248228
 20
65.6956983918
 10
219.6449964312
 20
65.6992004493
  0
LWPOLYLINE
  5
3E0
100
AcDbEntity
  8
RUNDUNGEN
100
AcDbPolyline
 62
7
  6
CONTINUOUS
 90
3
 70
0
 10
89.502881321
 20
65.6970007942
 10
89.5097829511
 20
65.6955865431
 10
89.6017018986
 20
65.6711373398
  0
LINE
  5
3E1
100
AcDbEntity
  8
0
100
AcDbLine
 62
7
  6
CONTINUOUS
 10
141.2340043285
 20
108.0715411285
 11
144.1506708959
 21
100.1992004493
  0
LINE
  5
3E2
100
AcDbEntity
  8
0
100
AcDbLine
 62
7
  6
CONTINUOUS
 10
144.9840043285
 20
101.2630302587
 11
141.8590043285
 21
110.1992004493
  0
LINE
  5
3E3
100
AcDbEntity
  8
0
100
AcDbLine
 62
7
  6
CONTINUOUS
 10
167.9006717899
 20
107.8587751964
 11
167.9006717899
 21
107.4332427362
  0
LINE
  5
3E4
100
AcDbEntity
  8
0
100
AcDbLine
 62
7
  6
CONTINUOUS
 10
169.1506717899
 20
100.1992004493
 11
169.1506717899
 21
101.2630302587
  0
LINE
  5
3E5
100
AcDbEntity
  8
0
100
AcDbLine
 62
7
  6
CONTINUOUS
 10
169.1506717899
 20
107.4332427362
 11
169.1506717899
 21
107.8587751964
  0
LINE
  5
3E6
100
AcDbEntity
  8
0
100
AcDbLine
 62
7
  6
CONTINUOUS
 10
204.5186041671
 20
65.1992004493
 11
191.5673950265
 21
65.1992004493
  0
LINE
  5
3E7
100
AcDbEntity
  8
0
100
AcDbLine
 62
7
  6
CONTINUOUS
 10
166.0777530172
 20
65.1992004493
 11
158.9944203594
 21
65.1992004493
  0
LINE
  5
3E8
100
AcDbEntity
  8
0
100
AcDbLine
 62
7
  6
CONTINUOUS
 10
157.5777540305
 20
65.1992004493
 11
151.2027535239
 21
65.1992004493
  0
LINE
  5
3E9
100
AcDbEntity
  8
0
100
AcDbLine
 62
7
  6
CONTINUOUS
 10
149.786087195
 20
65.1992004493
 11
143.0569203594
 21
65.1992004493
  0
LINE
  5
3EA
100
AcDbEntity
  8
0
100
AcDbLine
 62
7
  6
CONTINUOUS
 10
122.3896700672
 20
65.1992004493
 11
101.11080176
 21
65.1992004493
  0
LINE
  5
3EB
100
AcDbEntity
  8
RUNDUNGEN
100
AcDbLine
 62
7
  6
CONTINUOUS
 10
82.364615089
 20
65.6992004493
 11
226.7700668561
 21
65.6992004493
  0
LWPOLYLINE
  5
3EC
100
AcDbEntity
  8
RUNDUNGEN
100
AcDbPolyline
 62
7
  6
CONTINUOUS
 90
10
 70
0
 10
198.0226561161
 20
44.2116216552
 10
199.5535896684
 20
45.5849547135
 10
201.1288112329
 20
47.0622753626
 10
202.6330278206
 20
48.5336768832
 10
204.0591849347
 20
49.9823191594
 10
205.4042974376
 20
51.3942653846
 10
206.6654079635
 20
52.7551820547
 10
207.8399787274
 20
54.0510716645
 10
208.9302454845
 20
55.2738414961
 10
209.9337458598
 20
56.4112231562
  0
LINE
  5
3ED
100
AcDbEntity
  8
0
100
AcDbLine
 62
7
  6
CONTINUOUS
 10
169.1506717899
 20
107.8587751964
 11
168.9423368671
 21
108.7098389247
  0
LINE
  5
3EE
100
AcDbEntity
  8
0
100
AcDbLine
 62
7
  6
CONTINUOUS
 10
191.5673382977
 20
65.6992004493
 11
191.5673382977
 21
65.1992004493
  0
LWPOLYLINE
  5
3EF
100
AcDbEntity
  8
RUNDUNGEN
100
AcDbPolyline
 62
7
  6
CONTINUOUS
 90
18
 70
0
 10
209.9337458598
 20
56.4112231562
 10
211.7312206405
 20
58.4572406688
 10
212.5435068886
 20
59.3752474127
 10
213.3123294767
 20
60.2332330074
 10
214.0379665609
 20
61.0278977938
 10
214.7245128784
 20
61.7608855894
 10
215.3684528192
 20
62.426526068
 10
215.9677036312
 20
63.02203682
 10
216.5215579553
 20
63.5473147869
 10
217.0267720325
 20
64.0012301099
 10
217.4879128758
 20
64.3906965603
 10
217.9063037632
 20
64.7199702746
 10
218.2842969052
 20
64.9943498754
 10
218.6235173274
 20
65.2185615703
 10
218.9216363515
 20
65.3950147773
 10
219.1767451169
 20
65.5272153933
 10
219.3829633631
 20
65.6178204644
 10
219.4259432329
 20
65.634385798
  0
LINE
  5
3F0
100
AcDbEntity
  8
0
100
AcDbLine
 62
7
  6
CONTINUOUS
 10
199.2886041671
 20
65.6992004493
 11
199.2886041671
 21
65.1992004493
  0
LINE
  5
3F1
100
AcDbEntity
  8
0
100
AcDbLine
 62
7
  6
CONTINUOUS
 10
204.5186041671
 20
65.6992004493
 11
204.5186041671
 21
65.1992004493
  0
LINE
  5
3F2
100
AcDbEntity
  8
BEZUGSACHSEN
100
AcDbLine
 62
7
  6
CONTINUOUS
 10
82.364615089
 20
99.6992004493
 11
226.7700668561
 21
99.6992004493
  0
LINE
  5
3F3
100
AcDbEntity
  8
0
100
AcDbLine
 62
7
  6
CONTINUOUS
 10
139.9840043285
 20
100.1992004493
 11
141.2340043285
 21
100.1992004493
  0
LINE
  5
3F4
100
AcDbEntity
  8
0
100
AcDbLine
 62
7
  6
CONTINUOUS
 10
144.1506708959
 20
100.1992004493
 11
145.8173374632
 21
100.1992004493
  0
LINE
  5
3F5
100
AcDbEntity
  8
0
100
AcDbLine
 62
7
  6
CONTINUOUS
 10
148.7340043285
 20
100.1992004493
 11
149.9840043285
 21
100.1992004493
  0
LINE
  5
3F6
100
AcDbEntity
  8
0
100
AcDbLine
 62
7
  6
CONTINUOUS
 10
156.6506705978
 20
100.1992004493
 11
157.9006705978
 21
100.1992004493
  0
LINE
  5
3F7
100
AcDbEntity
  8
0
100
AcDbLine
 62
7
  6
CONTINUOUS
 10
161.6506717899
 20
100.1992004493
 11
169.1506717899
 21
100.1992004493
  0
LINE
  5
3F8
100
AcDbEntity
  8
0
100
AcDbLine
 62
7
  6
CONTINUOUS
 10
168.9423368671
 20
108.7098389247
 11
168.1090043285
 21
109.560902653
  0
LINE
  5
3F9
100
AcDbEntity
  8
0
100
AcDbLine
 62
7
  6
CONTINUOUS
 10
167.4840043285
 20
108.4970729926
 11
167.9006717899
 21
107.8587751964
  0
LINE
  5
3FA
100
AcDbEntity
  8
0
100
AcDbLine
 62
7
  6
CONTINUOUS
 10
163.9423368671
 20
108.9226048568
 11
164.9840043285
 21
109.1353707889
  0
LINE
  5
3FB
100
AcDbEntity
  8
0
100
AcDbLine
 62
7
  6
CONTINUOUS
 10
165.1923368671
 20
110.1992004493
 11
163.7340043285
 21
109.9864345172
  0
LINE
  5
3FC
100
AcDbEntity
  8
0
100
AcDbLine
 62
7
  6
CONTINUOUS
 10
169.1506717899
 20
101.2630302587
 11
163.3173368671
 21
101.2630302587
  0
LINE
  5
3FD
100
AcDbEntity
  8
0
100
AcDbLine
 62
7
  6
CONTINUOUS
 10
151.6506705978
 20
103.1779237965
 11
156.6506705978
 21
103.1779237965
  0
LINE
  5
3FE
100
AcDbEntity
  8
0
100
AcDbLine
 62
7
  6
CONTINUOUS
 10
157.9006705978
 20
103.1779237965
 11
159.9840043285
 21
103.1779237965
  0
LINE
  5
3FF
100
AcDbEntity
  8
0
100
AcDbLine
 62
7
  6
CONTINUOUS
 10
159.9840043285
 20
104.454519687
 11
157.9006705978
 21
104.454519687
  0
LINE
  5
400
100
AcDbEntity
  8
0
100
AcDbLine
 62
7
  6
CONTINUOUS
 10
156.6506705978
 20
104.454519687
 11
153.1090043285
 21
104.454519687
  0
LINE
  5
401
100
AcDbEntity
  8
0
100
AcDbLine
 62
7
  6
CONTINUOUS
 10
161.8590043285
 20
107.8587751964
 11
162.9006717899
 21
107.8587751964
  0
LINE
  5
402
100
AcDbEntity
  8
0
100
AcDbLine
 62
7
  6
CONTINUOUS
 10
164.9840043285
 20
109.1353707889
 11
165.8173368671
 21
109.1353707889
  0
LINE
  5
403
100
AcDbEntity
  8
0
100
AcDbLine
 62
7
  6
CONTINUOUS
 10
166.0256717899
 20
110.1992004493
 11
165.1923368671
 21
110.1992004493
  0
LINE
  5
404
100
AcDbEntity
  8
0
100
AcDbLine
 62
7
  6
CONTINUOUS
 10
157.9006705978
 20
110.1992004493
 11
156.6506705978
 21
110.1992004493
  0
LINE
  5
405
100
AcDbEntity
  8
0
100
AcDbLine
 62
7
  6
CONTINUOUS
 10
149.9840043285
 20
110.1992004493
 11
148.1090043285
 21
110.1992004493
  0
LINE
  5
406
100
AcDbEntity
  8
0
100
AcDbLine
 62
7
  6
CONTINUOUS
 10
141.8590043285
 20
110.1992004493
 11
139.9840043285
 21
110.1992004493
  0
LINE
  5
407
100
AcDbEntity
  8
0
100
AcDbLine
 62
7
  6
CONTINUOUS
 10
167.2756717899
 20
109.9864345172
 11
166.0256717899
 21
110.1992004493
  0
LINE
  5
408
100
AcDbEntity
  8
0
100
AcDbLine
 62
7
  6
CONTINUOUS
 10
165.8173368671
 20
109.1353707889
 11
166.8590043285
 21
108.9226048568
  0
LINE
  5
409
100
AcDbEntity
  8
0
100
AcDbLine
 62
7
  6
CONTINUOUS
 10
168.1090043285
 20
109.560902653
 11
167.2756717899
 21
109.9864345172
  0
LINE
  5
40A
100
AcDbEntity
  8
0
100
AcDbLine
 62
7
  6
CONTINUOUS
 10
166.8590043285
 20
108.9226048568
 11
167.4840043285
 21
108.4970729926
  0
LWPOLYLINE
  5
40B
100
AcDbEntity
  8
BEZUGSACHSEN
100
AcDbPolyline
 62
7
  6
CONTINUOUS
 90
3
 70
0
 10
219.6322659644
 20
99.7013069863
 10
219.6254405293
 20
99.7026992058
 10
219.5341646439
 20
99.7268973504
  0
LWPOLYLINE
  5
40C
100
AcDbEntity
  8
BEZUGSACHSEN
100
AcDbPolyline
 62
7
  6
CONTINUOUS
 90
17
 70
0
 10
219.5341646439
 20
99.7268973504
 10
219.3830486375
 20
99.7805466708
 10
219.1768720601
 20
99.871124793
 10
218.9218028138
 20
100.0032937457
 10
218.623716061
 20
100.179714849
 10
218.2845191752
 20
100.4038968813
 10
217.9065374524
 20
100.6782538335
 10
217.4881497448
 20
101.0075110795
 10
217.0270067873
 20
101.3969661463
 10
216.5217884856
 20
101.8508731661
 10
215.9679294921
 20
102.3761446257
 10
215.3686831318
 20
102.971641194
 10
214.7247647289
 20
103.6372504816
 10
214.0382684547
 20
104.3701763467
 10
213.3127347391
 20
105.1647194482
 10
212.5440434196
 20
106.0225503692
 10
211.7319196086
 20
106.9403669158
  0
LWPOLYLINE
  5
40D
100
AcDbEntity
  8
BEZUGSACHSEN
100
AcDbPolyline
 62
7
  6
CONTINUOUS
 90
7
 70
0
 10
233.2322054356
 20
82.6992004493
 10
233.2202919433
 20
84.5036581379
 10
233.1801924882
 20
86.4716050486
 10
233.1112424748
 20
88.4525148487
 10
233.0130704329
 20
90.4438202049
 10
232.8854188341
 20
92.4428467424
 10
232.7490257762
 20
94.2012470482
  0
LWPOLYLINE
  5
40E
100
AcDbEntity
  8
RUNDUNGEN
100
AcDbPolyline
 62
7
  6
CONTINUOUS
 90
7
 70
0
 10
232.7490257762
 20
71.1971538504
 10
232.8854188341
 20
72.9555541562
 10
233.0130704329
 20
74.9545806937
 10
233.1112424748
 20
76.9458860499
 10
233.1801924882
 20
78.92679585
 10
233.2202919433
 20
80.8947427607
 10
233.2322054356
 20
82.6992004493
  0
LWPOLYLINE
  5
40F
100
AcDbEntity
  8
BEZUGSACHSEN
100
AcDbPolyline
 62
7
  6
CONTINUOUS
 90
37
 70
0
 10
198.0226536521
 20
121.1867851641
 10
196.195921461
 20
122.7276828777
 10
194.1707788566
 20
124.302927658
 10
192.0728133333
 20
125.8014677895
 10
189.9053464793
 20
127.2201099948
 10
187.6716174395
 20
128.5559271431
 10
185.3756706016
 20
129.8056265009
 10
183.0216477417
 20
130.9661045649
 10
180.6136806322
 20
132.0349169845
 10
178.1559735449
 20
133.0098036297
 10
175.6530504604
 20
133.8883901003
 10
173.1095168856
 20
134.6684717419
 10
170.5299957187
 20
135.3484200242
 10
167.9190428745
 20
135.9268068756
 10
165.2818617489
 20
136.4020566926
 10
162.6235828737
 20
136.7728382156
 10
159.9494421794
 20
137.038399014
 10
157.2646675724
 20
137.198214795
 10
154.5745601996
 20
137.2517744975
 10
151.8844399889
 20
137.1987863816
 10
149.1996257395
 20
137.0395399135
 10
146.5254183841
 20
136.7745460484
 10
143.867045084
 20
136.4043288246
 10
141.2297407139
 20
135.929637916
 10
138.6186351799
 20
135.3518017177
 10
136.0389317719
 20
134.6723952075
 10
133.4951877249
 20
133.8928462485
 10
130.992025765
 20
133.0147804379
 10
128.5340516642
 20
132.0403994751
 10
126.1257911857
 20
130.9720777699
 10
123.7714507716
 20
129.8120757193
 10
121.4751619184
 20
128.5628344419
 10
119.2410672549
 20
127.2274545812
 10
117.0732150705
 20
125.8092302943
 10
114.9748491815
 20
124.3110909352
 10
112.949290478
 20
122.7362276655
 10
111.1120221943
 20
121.1867845293
  0
LWPOLYLINE
  5
410
100
AcDbEntity
  8
BEZUGSACHSEN
100
AcDbPolyline
 62
7
  6
CONTINUOUS
 90
9
 70
0
 10
208.930915196
 20
110.1238035324
 10
207.8402210708
 20
111.3470593766
 10
206.6650783293
 20
112.6435789002
 10
205.4033181364
 20
114.0051788655
 10
204.0576237086
 20
115.4176953403
 10
202.6311084452
 20
116.8666388415
 10
201.1269119335
 20
118.3379461283
 10
199.5523344927
 20
119.814597309
 10
198.0226560889
 20
121.1867792672
  0
LINE
  5
411
100
AcDbEntity
  8
BEZUGSACHSEN
100
AcDbLine
 62
7
  6
CONTINUOUS
 10
211.7319196086
 20
106.9403669158
 11
208.930915196
 21
110.1238035324
  0
ARC
  5
412
100
AcDbEntity
  8
0
100
AcDbCircle
 62
7
  6
CONTINUOUS
 10
154.5673382977
 20
320.0480690742
 40
45.0
100
AcDbArc
 50
330.2532183156
 51
332.3714860311
  0
ARC
  5
413
100
AcDbEntity
  8
0
100
AcDbCircle
 62
7
  6
CONTINUOUS
 10
154.5673382977
 20
320.0480690742
 40
45.0
100
AcDbArc
 50
207.6285211096
 51
209.746786026
  0
ARC
  5
414
100
AcDbEntity
  8
RUNDUNGEN
100
AcDbCircle
 62
7
  6
CONTINUOUS
 10
154.5673382977
 20
313.5480690742
 40
42.5
100
AcDbArc
 50
342.5779332335
 51
197.4220667665
  0
ARC
  5
415
100
AcDbEntity
  8
BEZUGSACHSEN
100
AcDbCircle
 62
7
  6
CONTINUOUS
 10
95.0673382977
 20
234.5480690742
 40
17.0
100
AcDbArc
 50
0.0208930804
 51
67.5588366348
  0
ARC
  5
416
100
AcDbEntity
  8
BEZUGSACHSEN
100
AcDbCircle
 62
7
  6
CONTINUOUS
 10
214.0673382977
 20
234.5480690742
 40
17.0
100
AcDbArc
 50
112.4411633652
 51
179.9791069314
  0
ARC
  5
417
100
AcDbEntity
  8
RUNDUNGEN
100
AcDbCircle
 62
7
  6
CONTINUOUS
 10
123.5582730074
 20
303.8172998435
 40
10.0
100
AcDbArc
 50
197.4220667665
 51
207.6287145943
  0
ARC
  5
418
100
AcDbEntity
  8
RUNDUNGEN
100
AcDbCircle
 62
7
  6
CONTINUOUS
 10
185.576403588
 20
303.8172998435
 40
10.0
100
AcDbArc
 50
332.3713175386
 51
342.5779332335
  0
ARC
  5
419
100
AcDbEntity
  8
BEZUGSACHSEN
100
AcDbCircle
 62
7
  6
CONTINUOUS
 10
104.5599100701
 20
365.8540009376
 40
7.0
100
AcDbArc
 50
110.9999999991
 51
157.5000000011
  0
ARC
  5
41A
100
AcDbEntity
  8
BEZUGSACHSEN
100
AcDbCircle
 62
7
  6
CONTINUOUS
 10
226.2322053565
 20
313.5683183849
 40
7.0
100
AcDbArc
 50
337.4933543816
 51
22.4999825728
  0
ARC
  5
41B
100
AcDbEntity
  8
RUNDUNGEN
100
AcDbCircle
 62
7
  6
CONTINUOUS
 10
204.5747665252
 20
365.8540009376
 40
7.0
100
AcDbArc
 50
22.5
 51
69.0
  0
ARC
  5
41C
100
AcDbEntity
  8
RUNDUNGEN
100
AcDbCircle
 62
7
  6
CONTINUOUS
 10
154.5673382977
 20
385.0500541188
 40
7.0
100
AcDbArc
 50
69.0
 51
111.0
  0
ARC
  5
41D
100
AcDbEntity
  8
RUNDUNGEN
100
AcDbCircle
 62
7
  6
CONTINUOUS
 10
104.5599100701
 20
365.8540009376
 40
7.0
100
AcDbArc
 50
111.0
 51
157.5
  0
ARC
  5
41E
100
AcDbEntity
  8
BEZUGSACHSEN
100
AcDbCircle
 62
7
  6
CONTINUOUS
 10
82.9024803282
 20
313.5683403286
 40
7.0
100
AcDbArc
 50
157.5002118367
 51
202.5067830702
  0
ARC
  5
41F
100
AcDbEntity
  8
0
100
AcDbCircle
 62
7
  6
CONTINUOUS
 10
201.1473382977
 20
354.1543351945
 40
4.35
100
AcDbArc
 50
39.1946366708
 51
230.8053633292
  0
ARC
  5
420
100
AcDbEntity
  8
0
100
AcDbCircle
 62
7
  6
CONTINUOUS
 10
195.9173382977
 20
359.3843351945
 40
4.35
100
AcDbArc
 50
39.1946366708
 51
230.8053633292
  0
ARC
  5
421
100
AcDbEntity
  8
0
100
AcDbCircle
 62
7
  6
CONTINUOUS
 10
201.1473382977
 20
354.1543351945
 40
3.05
100
AcDbArc
 50
147.3049475335
 51
233.2945626727
  0
ARC
  5
422
100
AcDbEntity
  8
0
100
AcDbCircle
 62
7
  6
CONTINUOUS
 10
201.1473382977
 20
354.1543351945
 40
3.05
100
AcDbArc
 50
36.7054373273
 51
122.510512119
  0
ARC
  5
423
100
AcDbEntity
  8
0
100
AcDbCircle
 62
7
  6
CONTINUOUS
 10
195.9173382977
 20
359.3843351945
 40
3.05
100
AcDbArc
 50
36.7054373273
 51
233.2945626727
  0
ARC
  5
424
100
AcDbEntity
  8
0
100
AcDbCircle
 62
7
  6
CONTINUOUS
 10
273.7537498813
 20
305.1334455796
 40
184.7477023239
100
AcDbArc
 50
342.7527630607
 51
343.115141844
  0
ARC
  5
425
100
AcDbEntity
  8
0
100
AcDbCircle
 62
7
  6
CONTINUOUS
 10
285.0832659292
 20
320.5112658889
 40
180.1192963071
100
AcDbArc
 50
338.4846149033
 51
338.8660542759
  0
ARC
  5
426
100
AcDbEntity
  8
0
100
AcDbCircle
 62
7
  6
CONTINUOUS
 10
286.2343487441
 20
319.8140834237
 40
178.2890036792
100
AcDbArc
 50
338.4935685479
 51
338.8143533948
  0
ARC
  5
427
100
AcDbEntity
  8
0
100
AcDbCircle
 62
7
  6
CONTINUOUS
 10
279.1697433186
 20
296.1842204909
 40
176.317989793
100
AcDbArc
 50
342.793611783
 51
343.1732154835
  0
ARC
  5
428
100
AcDbEntity
  8
0
100
AcDbCircle
 62
7
  6
CONTINUOUS
 10
297.7858739156
 20
318.3067353612
 40
167.5388634622
100
AcDbArc
 50
336.0726179469
 51
336.4898679865
  0
ARC
  5
429
100
AcDbEntity
  8
0
100
AcDbCircle
 62
7
  6
CONTINUOUS
 10
298.7312776318
 20
317.6901620782
 40
165.9294613879
100
AcDbArc
 50
336.0589550647
 51
336.4802897159
  0
ARC
  5
42A
100
AcDbEntity
  8
0
100
AcDbCircle
 62
7
  6
CONTINUOUS
 10
302.3716230847
 20
308.9874212184
 40
159.7357825223
100
AcDbArc
 50
336.0038348701
 51
336.4416643563
  0
ARC
  5
42B
100
AcDbEntity
  8
0
100
AcDbCircle
 62
7
  6
CONTINUOUS
 10
303.3169310428
 20
308.3708074819
 40
158.1264518319
100
AcDbArc
 50
335.9888173035
 51
336.4311462562
  0
ARC
  5
42C
100
AcDbEntity
  8
0
100
AcDbCircle
 62
7
  6
CONTINUOUS
 10
-190.9874505582
 20
469.1772071407
 40
677.1034208781
100
AcDbArc
 50
341.1451585053
 51
341.3115440996
  0
ARC
  5
42D
100
AcDbEntity
  8
0
100
AcDbCircle
 62
7
  6
CONTINUOUS
 10
-187.8009320138
 20
467.4911390347
 40
673.0198442412
100
AcDbArc
 50
341.1781139329
 51
341.3454759059
  0
ARC
  5
42E
100
AcDbEntity
  8
0
100
AcDbCircle
 62
7
  6
CONTINUOUS
 10
-114.7475045829
 20
484.6132507845
 40
611.8125755783
100
AcDbArc
 50
336.9577503326
 51
337.0713802703
  0
ARC
  5
42F
100
AcDbEntity
  8
0
100
AcDbCircle
 62
7
  6
CONTINUOUS
 10
-1.8216458513
 20
442.9295470171
 40
492.0317611665
100
AcDbArc
 50
337.5001704066
 51
337.6174465448
  0
ARC
  5
430
100
AcDbEntity
  8
0
100
AcDbCircle
 62
7
  6
CONTINUOUS
 10
23.6247995689
 20
459.0925497497
 40
474.5558553188
100
AcDbArc
 50
334.3051197598
 51
334.4546897055
  0
ARC
  5
431
100
AcDbEntity
  8
0
100
AcDbCircle
 62
7
  6
CONTINUOUS
 10
32.536049615
 20
417.356257573
 40
450.5029153583
100
AcDbArc
 50
337.3719901861
 51
337.5001908775
  0
ARC
  5
432
100
AcDbEntity
  8
0
100
AcDbCircle
 62
7
  6
CONTINUOUS
 10
147.5272509452
 20
408.0830110777
 40
340.5230982811
100
AcDbArc
 50
333.0413264934
 51
333.3922180707
  0
ARC
  5
433
100
AcDbEntity
  8
0
100
AcDbCircle
 62
7
  6
CONTINUOUS
 10
150.9273762762
 20
406.3780195119
 40
336.2259296368
100
AcDbArc
 50
332.9948362882
 51
333.3503509597
  0
ARC
  5
434
100
AcDbEntity
  8
0
100
AcDbCircle
 62
7
  6
CONTINUOUS
 10
315.2274588937
 20
286.6972768715
 40
139.3764650842
100
AcDbArc
 50
344.2510044333
 51
344.8861615847
  0
ARC
  5
435
100
AcDbEntity
  8
0
100
AcDbCircle
 62
7
  6
CONTINUOUS
 10
315.890022195
 20
286.1877084382
 40
138.0702556999
100
AcDbArc
 50
344.3178374379
 51
344.958788687
  0
ARC
  5
436
100
AcDbEntity
  8
0
100
AcDbCircle
 62
7
  6
CONTINUOUS
 10
318.7669577662
 20
278.4282553272
 40
132.9415018531
100
AcDbArc
 50
344.3372464651
 51
345.0028241848
  0
ARC
  5
437
100
AcDbEntity
  8
0
100
AcDbCircle
 62
7
  6
CONTINUOUS
 10
319.4314020993
 20
277.9178012193
 40
131.6332440023
100
AcDbArc
 50
344.4083231581
 51
345.0802777052
  0
ARC
  5
438
100
AcDbEntity
  8
0
100
AcDbCircle
 62
7
  6
CONTINUOUS
 10
331.1792201101
 20
293.137784523
 40
127.0562295272
100
AcDbArc
 50
336.53107355
 51
337.2612681256
  0
ARC
  5
439
100
AcDbEntity
  8
0
100
AcDbCircle
 62
7
  6
CONTINUOUS
 10
418.0100754974
 20
278.1466845634
 40
41.1241368475
100
AcDbArc
 50
326.7012517978
 51
327.9339564268
  0
ARC
  5
43A
100
AcDbEntity
  8
0
100
AcDbCircle
 62
7
  6
CONTINUOUS
 10
386.2839045368
 20
264.7277815858
 40
38.3127704808
100
AcDbArc
 50
213.3693512442
 51
214.7133427106
  0
ARC
  5
43B
100
AcDbEntity
  8
0
100
AcDbCircle
 62
7
  6
CONTINUOUS
 10
386.5293464985
 20
264.6102925014
 40
37.9952115124
100
AcDbArc
 50
213.4726581532
 51
214.8296424525
  0
ARC
  5
43C
100
AcDbEntity
  8
0
100
AcDbCircle
 62
7
  6
CONTINUOUS
 10
385.9333762956
 20
261.9374577113
 40
36.9062891709
100
AcDbArc
 50
211.7124420757
 51
213.0816753927
  0
ARC
  5
43D
100
AcDbEntity
  8
0
100
AcDbCircle
 62
7
  6
CONTINUOUS
 10
418.855424007
 20
265.7548825967
 40
35.5761262544
100
AcDbArc
 50
333.0148922985
 51
334.3529061081
  0
ARC
  5
43E
100
AcDbEntity
  8
0
100
AcDbCircle
 62
7
  6
CONTINUOUS
 10
423.9147506786
 20
277.6709188913
 40
35.5034373867
100
AcDbArc
 50
324.5093948627
 51
326.6942208935
  0
ARC
  5
43F
100
AcDbEntity
  8
0
100
AcDbCircle
 62
7
  6
CONTINUOUS
 10
418.6076298249
 20
265.6342137819
 40
35.2589215092
100
AcDbArc
 50
333.197776095
 51
334.0980824581
  0
ARC
  5
440
100
AcDbEntity
  8
0
100
AcDbCircle
 62
7
  6
CONTINUOUS
 10
423.6090186004
 20
277.5796936185
 40
35.2517575013
100
AcDbArc
 50
324.3997435591
 51
326.602820239
  0
ARC
  5
441
100
AcDbEntity
  8
0
100
AcDbCircle
 62
7
  6
CONTINUOUS
 10
418.6186153254
 20
263.369390051
 40
34.8816899511
100
AcDbArc
 50
333.398898891
 51
334.7532620502
  0
ARC
  5
442
100
AcDbEntity
  8
0
100
AcDbCircle
 62
7
  6
CONTINUOUS
 10
419.1145285439
 20
263.1356163784
 40
34.3334376104
100
AcDbArc
 50
334.7813654807
 51
336.1252700008
  0
ARC
  5
443
100
AcDbEntity
  8
0
100
AcDbCircle
 62
7
  6
CONTINUOUS
 10
417.6954579638
 20
258.818876986
 40
33.9935025425
100
AcDbArc
 50
332.8030210191
 51
334.2055130013
  0
ARC
  5
444
100
AcDbEntity
  8
0
100
AcDbCircle
 62
7
  6
CONTINUOUS
 10
417.4386397368
 20
258.7028823998
 40
33.6864569939
100
AcDbArc
 50
333.1824245136
 51
333.9365206789
  0
ARC
  5
445
100
AcDbEntity
  8
0
100
AcDbCircle
 62
7
  6
CONTINUOUS
 10
421.5773887542
 20
266.6463217157
 40
33.4006361633
100
AcDbArc
 50
340.6316734461
 51
341.9802832621
  0
ARC
  5
446
100
AcDbEntity
  8
0
100
AcDbCircle
 62
7
  6
CONTINUOUS
 10
421.2815364903
 20
266.5416364185
 40
33.1339885945
100
AcDbArc
 50
340.6614641774
 51
341.6436404847
  0
ARC
  5
447
100
AcDbEntity
  8
0
100
AcDbCircle
 62
7
  6
CONTINUOUS
 10
421.3546043777
 20
255.3615814796
 40
29.270606447
100
AcDbArc
 50
348.6716131371
 51
350.1545738759
  0
ARC
  5
448
100
AcDbEntity
  8
0
100
AcDbCircle
 62
7
  6
CONTINUOUS
 10
420.0982156222
 20
248.7476390044
 40
27.9007609457
100
AcDbArc
 50
348.7031813054
 51
350.2586124633
  0
ARC
  5
449
100
AcDbEntity
  8
0
100
AcDbCircle
 62
7
  6
CONTINUOUS
 10
373.8075673661
 20
266.712722707
 40
27.5107134651
100
AcDbArc
 50
198.0782301318
 51
200.5434979685
  0
ARC
  5
44A
100
AcDbEntity
  8
0
100
AcDbCircle
 62
7
  6
CONTINUOUS
 10
427.980561283
 20
266.7127227069
 40
27.5107134648
100
AcDbArc
 50
339.4565020314
 51
341.9217698682
  0
ARC
  5
44B
100
AcDbEntity
  8
0
100
AcDbCircle
 62
7
  6
CONTINUOUS
 10
378.8122099504
 20
253.889277518
 40
27.2282070676
100
AcDbArc
 50
204.6399684857
 51
207.2542186389
  0
ARC
  5
44C
100
AcDbEntity
  8
0
100
AcDbCircle
 62
7
  6
CONTINUOUS
 10
422.9759186984
 20
253.889277518
 40
27.2282070676
100
AcDbArc
 50
332.7457813611
 51
335.3600315143
  0
ARC
  5
44D
100
AcDbEntity
  8
0
100
AcDbCircle
 62
7
  6
CONTINUOUS
 10
426.8842000906
 20
251.3735665379
 40
22.6267721506
100
AcDbArc
 50
350.7851872569
 51
353.6403441666
  0
ARC
  5
44E
100
AcDbEntity
  8
0
100
AcDbCircle
 62
7
  6
CONTINUOUS
 10
426.5718139087
 20
251.2806782224
 40
22.3794466343
100
AcDbArc
 50
350.9233574794
 51
353.8090280515
  0
ARC
  5
44F
100
AcDbEntity
  8
0
100
AcDbCircle
 62
7
  6
CONTINUOUS
 10
425.3540406619
 20
244.8424100166
 40
21.5416351159
100
AcDbArc
 50
350.8595464187
 51
353.8575275232
  0
ARC
  5
450
100
AcDbEntity
  8
0
100
AcDbCircle
 62
7
  6
CONTINUOUS
 10
425.0412591852
 20
244.7496224351
 40
21.2947149661
100
AcDbArc
 50
351.0054874756
 51
354.0370959483
  0
ARC
  5
451
100
AcDbEntity
  8
0
100
AcDbCircle
 62
7
  6
CONTINUOUS
 10
365.5134205556
 20
251.0735471353
 40
14.0163598784
100
AcDbArc
 50
221.4633119462
 51
223.5276885359
  0
ARC
  5
452
100
AcDbEntity
  8
0
100
AcDbCircle
 62
7
  6
CONTINUOUS
 10
442.2263249703
 20
265.1895319216
 40
13.8511167164
100
AcDbArc
 50
320.1500656375
 51
322.1281518503
  0
ARC
  5
453
100
AcDbEntity
  8
0
100
AcDbCircle
 62
7
  6
CONTINUOUS
 10
441.5088862774
 20
255.0723579179
 40
10.5691228527
100
AcDbArc
 50
326.5044880727
 51
328.8926884923
  0
ARC
  5
454
100
AcDbEntity
  8
0
100
AcDbCircle
 62
7
  6
CONTINUOUS
 10
439.2265540398
 20
248.614461824
 40
10.2076114458
100
AcDbArc
 50
326.0225652859
 51
328.507320998
  0
ARC
  5
455
100
AcDbEntity
  8
0
100
AcDbCircle
 62
7
  6
CONTINUOUS
 10
443.4034779771
 20
249.4913455679
 40
6.6525594064
100
AcDbArc
 50
357.8309426843
 51
1.0383333495
  0
ARC
  5
456
100
AcDbEntity
  8
0
100
AcDbCircle
 62
7
  6
CONTINUOUS
 10
441.1140166447
 20
243.1596842575
 40
6.3455787829
100
AcDbArc
 50
357.742890628
 51
1.1054951434
  0
ARC
  5
457
100
AcDbEntity
  8
BEZUGSACHSEN
100
AcDbCircle
 62
7
  6
CONTINUOUS
 10
352.341489892
 20
263.6319251535
 40
6.0
100
AcDbArc
 50
105.0
 51
202.5
  0
ARC
  5
458
100
AcDbEntity
  8
0
100
AcDbCircle
 62
7
  6
CONTINUOUS
 10
350.2024144886
 20
258.5565626119
 40
2.5757678342
100
AcDbArc
 50
180.1889319133
 51
188.5025008513
  0
ARC
  5
459
100
AcDbEntity
  8
0
100
AcDbCircle
 62
7
  6
CONTINUOUS
 10
313.2647092086
 20
328.6075594342
 40
157.1251714013
100
AcDbArc
 50
331.8390460214
 51
332.3000711267
  0
ARC
  5
45A
100
AcDbEntity
  8
0
100
AcDbCircle
 62
7
  6
CONTINUOUS
 10
322.4255481906
 20
309.1229526686
 40
141.2608687475
100
AcDbArc
 50
337.7213480044
 51
338.3726667523
  0
ARC
  5
45B
100
AcDbEntity
  8
0
100
AcDbCircle
 62
7
  6
CONTINUOUS
 10
340.2008053512
 20
319.2442569197
 40
128.649068551
100
AcDbArc
 50
330.3335187742
 51
331.0940371826
  0
ARC
  5
45C
100
AcDbEntity
  8
0
100
AcDbCircle
 62
7
  6
CONTINUOUS
 10
340.8473960145
 20
318.735880393
 40
127.356001609
100
AcDbArc
 50
330.2653450908
 51
331.0340679041
  0
ARC
  5
45D
100
AcDbEntity
  8
RUNDUNGEN
100
AcDbCircle
 62
7
  6
CONTINUOUS
 10
442.8940643244
 20
297.4812437737
 40
25.0
100
AcDbArc
 50
179.9998801574
 51
255.000202484
  0
ARC
  5
45E
100
AcDbEntity
  8
BEZUGSACHSEN
100
AcDbCircle
 62
7
  6
CONTINUOUS
 10
358.8940643244
 20
297.4812437737
 40
25.0
100
AcDbArc
 50
284.999797516
 51
0.0001198426
  0
ARC
  5
45F
100
AcDbEntity
  8
0
100
AcDbCircle
 62
7
  6
CONTINUOUS
 10
470.6089085387
 20
293.137784523
 40
127.0562295272
100
AcDbArc
 50
202.7387318744
 51
203.46892645
  0
ARC
  5
460
100
AcDbEntity
  8
0
100
AcDbCircle
 62
7
  6
CONTINUOUS
 10
446.0382635808
 20
258.0348827294
 40
7.5015147797
100
AcDbArc
 50
346.7381838561
 51
349.6438832805
  0
ARC
  5
461
100
AcDbEntity
  8
RUNDUNGEN
100
AcDbCircle
 62
7
  6
CONTINUOUS
 10
449.4466387568
 20
263.6319251535
 40
6.0
100
AcDbArc
 50
337.5
 51
75.0
  0
ARC
  5
462
100
AcDbEntity
  8
0
100
AcDbCircle
 62
7
  6
CONTINUOUS
 10
451.5857141602
 20
258.5565626119
 40
2.5757678342
100
AcDbArc
 50
351.4974991487
 51
359.8110680867
  0
ARC
  5
463
100
AcDbEntity
  8
0
100
AcDbCircle
 62
7
  6
CONTINUOUS
 10
575.7717521537
 20
349.7545248696
 40
245.8458556912
100
AcDbArc
 50
205.4711779013
 51
205.8562717569
  0
ARC
  5
464
100
AcDbEntity
  8
0
100
AcDbCircle
 62
7
  6
CONTINUOUS
 10
479.3625804582
 20
309.1229526686
 40
141.2608687475
100
AcDbArc
 50
201.6273332477
 51
202.2786519956
  0
ARC
  5
465
100
AcDbEntity
  8
0
100
AcDbCircle
 62
7
  6
CONTINUOUS
 10
803.6097745552
 20
442.9295470399
 40
492.0317612262
100
AcDbArc
 50
202.3825534552
 51
202.4998295934
  0
ARC
  5
466
100
AcDbEntity
  8
0
100
AcDbCircle
 62
7
  6
CONTINUOUS
 10
795.9171681084
 20
439.7432315538
 40
483.7053694314
100
AcDbArc
 50
202.4998339303
 51
202.6192312624
  0
ARC
  5
467
100
AcDbEntity
  8
0
100
AcDbCircle
 62
7
  6
CONTINUOUS
 10
772.9299745365
 20
441.5633456219
 40
463.0654652848
100
AcDbArc
 50
205.1491665862
 51
205.3019469344
  0
ARC
  5
468
100
AcDbEntity
  8
0
100
AcDbCircle
 62
7
  6
CONTINUOUS
 10
776.9443057853
 20
420.5424034906
 40
458.8288914694
100
AcDbArc
 50
202.3740443286
 51
202.4998035035
  0
ARC
  5
469
100
AcDbEntity
  8
0
100
AcDbCircle
 62
7
  6
CONTINUOUS
 10
767.7312795117
 20
439.1199218667
 40
456.8254924747
100
AcDbArc
 50
205.178047467
 51
205.3329528678
  0
ARC
  5
46A
100
AcDbEntity
  8
0
100
AcDbCircle
 62
7
  6
CONTINUOUS
 10
769.2520790242
 20
417.3562575691
 40
450.502915348
100
AcDbArc
 50
202.4998091225
 51
202.6280098139
  0
ARC
  5
46B
100
AcDbEntity
  8
BEZUGSACHSEN
100
AcDbCircle
 62
7
  6
CONTINUOUS
 10
389.8940643244
 20
386.0500541188
 40
6.0
100
AcDbArc
 50
90.0
 51
180.0
  0
ARC
  5
46C
100
AcDbEntity
  8
RUNDUNGEN
100
AcDbCircle
 62
7
  6
CONTINUOUS
 10
411.8940643244
 20
386.0500541188
 40
6.0
100
AcDbArc
 50
0.0
 51
90.0
  0
ARC
  5
46D
100
AcDbEntity
  8
0
100
AcDbCircle
 62
7
  6
CONTINUOUS
 10
154.5673382977
 20
82.6992004493
 40
39.75
100
AcDbArc
 50
206.1130818705
 51
334.6841769455
  0
ARC
  5
46E
100
AcDbEntity
  8
0
100
AcDbCircle
 62
7
  6
CONTINUOUS
 10
154.5673382977
 20
82.6992004493
 40
39.75
100
AcDbArc
 50
25.315708754
 51
154.6841592224
  0
ARC
  5
46F
100
AcDbEntity
  8
RUNDUNGEN
100
AcDbCircle
 62
7
  6
CONTINUOUS
 10
154.5673382977
 20
82.6992004493
 40
39.5
100
AcDbArc
 50
25.5033876653
 51
154.4966123342
  0
ARC
  5
470
100
AcDbEntity
  8
RUNDUNGEN
100
AcDbCircle
 62
7
  6
CONTINUOUS
 10
154.5673382977
 20
82.6992004493
 40
39.5
100
AcDbArc
 50
206.3101754801
 51
334.4966123342
  0
ARC
  5
471
100
AcDbEntity
  8
BEZUGSACHSEN
100
AcDbCircle
 62
7
  6
CONTINUOUS
 10
82.364615089
 20
93.6992004493
 40
6.0
100
AcDbArc
 50
90.0000000001
 51
175.1997490452
  0
ARC
  5
472
100
AcDbEntity
  8
BEZUGSACHSEN
100
AcDbCircle
 62
7
  6
CONTINUOUS
 10
226.770066856
 20
93.6992004493
 40
6.0
100
AcDbArc
 50
4.799990475
 51
89.9999999999
  0
ARC
  5
473
100
AcDbEntity
  8
RUNDUNGEN
100
AcDbCircle
 62
7
  6
CONTINUOUS
 10
82.364615089
 20
71.6992004493
 40
6.0
100
AcDbArc
 50
184.8002509548
 51
269.9999999999
  0
ARC
  5
474
100
AcDbEntity
  8
RUNDUNGEN
100
AcDbCircle
 62
7
  6
CONTINUOUS
 10
226.770066856
 20
71.6992004493
 40
6.0
100
AcDbArc
 50
270.0000000001
 51
355.200009525
  0
SPLINE
  5
475
100
AcDbEntity
  8
0
100
AcDbSpline
 62
7
  6
CONTINUOUS
 70
0
 71
3
 72
15
 73
11
 74
0
 42
0.0000001
 43
0.0000001
 44
0.0000000001
 40
0.0
 40
0.0
 40
0.0
 40
0.0
 40
0.1247867842
 40
0.2453376094
 40
0.3640635253
 40
0.4835072862
 40
0.6057892924
 40
0.7322942224
 40
0.8636728436
 40
1.0
 40
1.0
 40
1.0
 40
1.0
 10
187.4963223106
 20
282.1338528901
 30
0.0
 10
187.1430699734
 20
281.4620693589
 30
0.0
 10
186.3615939216
 20
280.1839695604
 30
0.0
 10
184.9305503465
 20
278.4827290896
 30
0.0
 10
183.273235533
 20
277.0496731437
 30
0.0
 10
181.409719987
 20
275.8802732397
 30
0.0
 10
179.364631215
 20
274.9532569015
 30
0.0
 10
177.1617667632
 20
274.2378910029
 30
0.0
 10
174.8226629005
 20
273.7004964647
 30
0.0
 10
173.2137127142
 20
273.4435692093
 30
0.0
 10
172.3919121607
 20
273.3330981165
 30
0.0
  0
SPLINE
  5
476
100
AcDbEntity
  8
0
100
AcDbSpline
 62
7
  6
CONTINUOUS
 70
0
 71
3
 72
15
 73
11
 74
0
 42
0.0000001
 43
0.0000001
 44
0.0000000001
 40
0.0
 40
0.0
 40
0.0
 40
0.0
 40
0.1363271704
 40
0.2677058172
 40
0.3942107693
 40
0.5164927993
 40
0.6359365464
 40
0.7546624203
 40
0.8752132218
 40
1.0
 40
1.0
 40
1.0
 40
1.0
 10
136.7427644346
 20
273.3330981165
 30
0.0
 10
135.9209641055
 20
273.4435691791
 30
0.0
 10
134.3120142853
 20
273.700496366
 30
0.0
 10
131.9729109181
 20
274.2378907078
 30
0.0
 10
129.7700468472
 20
274.9532563604
 30
0.0
 10
127.7249585662
 20
275.8802721977
 30
0.0
 10
125.8614436807
 20
277.0496712195
 30
0.0
 10
124.2041294954
 20
278.4827258669
 30
0.0
 10
122.7730860973
 20
280.1839648177
 30
0.0
 10
121.991609979
 20
281.4620637017
 30
0.0
 10
121.6383575127
 20
282.1338468014
 30
0.0
  0
SPLINE
  5
477
100
AcDbEntity
  8
0
100
AcDbSpline
 62
7
  6
CONTINUOUS
 70
0
 71
3
 72
19
 73
15
 74
0
 42
0.0000001
 43
0.0000001
 44
0.0000000001
 40
0.0
 40
0.0
 40
0.0
 40
0.0
 40
0.0170697551
 40
0.0377845026
 40
0.0868178898
 40
0.1423191141
 40
0.2017031571
 40
0.2635531615
 40
0.3270582513
 40
0.4572639208
 40
0.5902339661
 40
0.7251516491
 40
0.8617429749
 40
1.0
 40
1.0
 40
1.0
 40
1.0
 10
193.6375176304
 20
297.7204980589
 30
0.0
 10
193.5901476755
 20
297.6376070203
 30
0.0
 10
193.4992558725
 20
297.4463193317
 30
0.0
 10
193.3183087451
 20
296.9957018402
 30
0.0
 10
193.0916615428
 20
296.3324669955
 30
0.0
 10
192.8127031931
 20
295.459226349
 30
0.0
 10
192.517488203
 20
294.5158237166
 30
0.0
 10
192.2057250914
 20
293.5307299419
 30
0.0
 10
191.7635539871
 20
292.1714664079
 30
0.0
 10
191.1683470921
 20
290.4437528005
 30
0.0
 10
190.3796209654
 20
288.3611673053
 30
0.0
 10
189.5070735005
 20
286.2734397679
 30
0.0
 10
188.5485723291
 20
284.1911495975
 30
0.0
 10
187.8562048026
 20
282.8182468625
 30
0.0
 10
187.4963080806
 20
282.1338276377
 30
0.0
  0
SPLINE
  5
478
100
AcDbEntity
  8
0
100
AcDbSpline
 62
7
  6
CONTINUOUS
 70
0
 71
3
 72
19
 73
15
 74
0
 42
0.0000001
 43
0.0000001
 44
0.0000000001
 40
0.0
 40
0.0
 40
0.0
 40
0.0
 40
0.1382564931
 40
0.2748472267
 40
0.4097641191
 40
0.5427324719
 40
0.6729366514
 40
0.7364413105
 40
0.7982915507
 40
0.8576750954
 40
0.9131765305
 40
0.9622129322
 40
0.9829292848
 40
1.0
 40
1.0
 40
1.0
 40
1.0
 10
121.6383723482
 20
282.1338204707
 30
0.0
 10
121.2784766182
 20
282.8182371193
 30
0.0
 10
120.5861115216
 20
284.1911344974
 30
0.0
 10
119.6276106201
 20
286.2734138908
 30
0.0
 10
118.7550775987
 20
288.361129498
 30
0.0
 10
117.9663493576
 20
290.44369105
 30
0.0
 10
117.3711479459
 20
292.1713858127
 30
0.0
 10
116.9289773868
 20
293.5306400906
 30
0.0
 10
116.6172207948
 20
294.5157321528
 30
0.0
 10
116.3220042629
 20
295.4591344588
 30
0.0
 10
116.0430317205
 20
296.332386409
 30
0.0
 10
115.816399893
 20
296.9956559809
 30
0.0
 10
115.635428166
 20
297.4462973002
 30
0.0
 10
115.5445334601
 20
297.637599518
 30
0.0
 10
115.4971608202
 20
297.7204952404
 30
0.0
  0
SPLINE
  5
479
100
AcDbEntity
  8
BEZUGSACHSEN
100
AcDbSpline
 62
7
  6
CONTINUOUS
 70
0
 71
3
 72
32
 73
28
 74
0
 42
0.0000001
 43
0.0000001
 44
0.0000000001
 40
0.0
 40
0.0
 40
0.0
 40
0.0
 40
0.0200405469
 40
0.079164309
 40
0.1744814511
 40
0.3014782095
 40
0.4544238961
 40
0.5386255537
 40
0.5822977995
 40
0.6268797064
 40
0.6722644918
 40
0.7183471588
 40
0.7650243119
 40
0.7885541024
 40
0.8121928958
 40
0.8359258437
 40
0.8597365068
 40
0.8836048876
 40
0.9075019798
 40
0.9313735603
 40
0.9432705715
 40
0.9550977409
 40
0.9667847691
 40
0.9781942602
 40
0.9837716402
 40
0.9892507812
 40
1.0
 40
1.0
 40
1.0
 40
1.0
 10
101.5568248884
 20
250.2606934186
 30
0.0
 10
101.8576888702
 20
250.2017727617
 30
0.0
 10
103.0457826188
 20
249.9670706009
 30
0.0
 10
105.6609744884
 20
249.4325853486
 30
0.0
 10
109.8676132821
 20
248.5146468921
 30
0.0
 10
115.4509317282
 20
247.1774612542
 30
0.0
 10
120.8306603787
 20
245.7269989395
 30
0.0
 10
124.9450781231
 20
244.4901139472
 30
0.0
 10
127.4574160141
 20
243.6846654009
 30
0.0
 10
129.3953338215
 20
243.0332336774
 30
0.0
 10
131.3573875568
 20
242.3386144205
 30
0.0
 10
133.3360343163
 20
241.5958489532
 30
0.0
 10
134.986844985
 20
240.9321598925
 30
0.0
 10
136.306403502
 20
240.3664550996
 30
0.0
 10
137.2955118823
 20
239.9211729443
 30
0.0
 10
138.278707976
 20
239.4528189084
 30
0.0
 10
139.2521808984
 20
238.9566893561
 30
0.0
 10
140.2102377253
 20
238.425834094
 30
0.0
 10
141.1426939483
 20
237.8492578444
 30
0.0
 10
141.8845575634
 20
237.3147331847
 30
0.0
 10
142.4340629687
 20
236.8361330709
 30
0.0
 10
142.8101761598
 20
236.4447333899
 30
0.0
 10
143.1275923174
 20
236.0126126678
 30
0.0
 10
143.308040606
 20
235.605364094
 30
0.0
 10
143.3602514336
 20
235.263449051
 30
0.0
 10
143.3426238085
 20
234.9281687704
 30
0.0
 10
143.2496772429
 20
234.689502865
 30
0.0
 10
143.1657884205
 20
234.5480690742
 30
0.0
  0
SPLINE
  5
47A
100
AcDbEntity
  8
BEZUGSACHSEN
100
AcDbSpline
 62
7
  6
CONTINUOUS
 70
0
 71
3
 72
31
 73
27
 74
0
 42
0.0000001
 43
0.0000001
 44
0.0000000001
 40
0.0
 40
0.0
 40
0.0
 40
0.0
 40
0.0107462097
 40
0.0217476724
 40
0.0331592342
 40
0.0448472836
 40
0.0566754712
 40
0.0685732946
 40
0.0924461415
 40
0.116344479
 40
0.1402141356
 40
0.1640261152
 40
0.1877603909
 40
0.2114005119
 40
0.2349316282
 40
0.2816114106
 40
0.3276966708
 40
0.3730840021
 40
0.4176684207
 40
0.4613431168
 40
0.5455495312
 40
0.6985039191
 40
0.8255080031
 40
0.9208308588
 40
0.9799582406
 40
1.0
 40
1.0
 40
1.0
 40
1.0
 10
165.9688881748
 20
234.5480690742
 30
0.0
 10
165.8850275183
 20
234.6894553782
 30
0.0
 10
165.7596471617
 20
235.0084753801
 30
0.0
 10
165.7918517324
 20
235.5294216128
 30
0.0
 10
166.0071978537
 20
236.0121782992
 30
0.0
 10
166.3244021729
 20
236.4447702149
 30
0.0
 10
166.7005802952
 20
236.8360655069
 30
0.0
 10
167.2500687117
 20
237.3147118429
 30
0.0
 10
167.9919389751
 20
237.8492212961
 30
0.0
 10
168.9243872305
 20
238.4258054823
 30
0.0
 10
169.8824413176
 20
238.9566605527
 30
0.0
 10
170.8559125142
 20
239.4527912583
 30
0.0
 10
171.8391080296
 20
239.9211464226
 30
0.0
 10
172.8282162075
 20
240.3664298654
 30
0.0
 10
174.1477747162
 20
240.9321363426
 30
0.0
 10
175.7985856845
 20
241.5958269369
 30
0.0
 10
177.7772327545
 20
242.3385939812
 30
0.0
 10
179.739286957
 20
243.0332144141
 30
0.0
 10
181.6772049676
 20
243.6846477701
 30
0.0
 10
184.1895443057
 20
244.4900963123
 30
0.0
 10
188.3039646169
 20
245.7269849012
 30
0.0
 10
193.6836998869
 20
247.1774492807
 30
0.0
 10
199.2670294356
 20
248.5146403414
 30
0.0
 10
203.4736826189
 20
249.4325806911
 30
0.0
 10
206.0888863973
 20
249.9670690568
 30
0.0
 10
207.2769863186
 20
250.2017724987
 30
0.0
 10
207.5778517069
 20
250.2606934186
 30
0.0
  0
LINE
  5
47B
100
AcDbEntity
  8
0
100
AcDbLine
 62
7
  6
CONTINUOUS
 10
348.8534554265
 20
255.9416864062
 11
350.0949862226
 21
252.962962314
  0
LINE
  5
47C
100
AcDbEntity
  8
0
100
AcDbLine
 62
7
  6
CONTINUOUS
 10
349.8391095291
 20
252.962962314
 11
349.8767071458
 21
252.8723709731
  0
LINE
  5
47D
100
AcDbEntity
  8
0
100
AcDbLine
 62
7
  6
CONTINUOUS
 10
349.8767071458
 20
252.8723709731
 11
350.4572430413
 21
251.4736007894
  0
SPLINE
  5
47E
100
AcDbEntity
  8
0
100
AcDbSpline
 62
7
  6
CONTINUOUS
 70
0
 71
3
 72
8
 73
4
 74
0
 42
0.0000001
 43
0.0000001
 44
0.0000000001
 40
0.0
 40
0.0
 40
0.0
 40
0.0
 40
1.0
 40
1.0
 40
1.0
 40
1.0
 10
350.7158760918
 20
251.4736007894
 30
0.0
 10
351.7508207915
 20
248.9911955237
 30
0.0
 10
352.7860725007
 20
246.5089182231
 30
0.0
 10
353.8216871751
 20
244.0267923842
 30
0.0
  0
SPLINE
  5
47F
100
AcDbEntity
  8
0
100
AcDbSpline
 62
7
  6
CONTINUOUS
 70
0
 71
3
 72
9
 73
5
 74
0
 42
0.0000001
 43
0.0000001
 44
0.0000000001
 40
0.0
 40
0.0
 40
0.0
 40
0.0
 40
0.2399812614
 40
1.0
 40
1.0
 40
1.0
 40
1.0
 10
355.3509760759
 20
241.420409488
 30
0.0
 10
355.3977159341
 20
241.388777598
 30
0.0
 10
355.5938532361
 20
241.2589994708
 30
0.0
 10
355.7951205357
 20
241.1370424246
 30
0.0
 10
355.9501388965
 20
241.0480690742
 30
0.0
  0
SPLINE
  5
480
100
AcDbEntity
  8
0
100
AcDbSpline
 62
7
  6
CONTINUOUS
 70
0
 71
3
 72
9
 73
5
 74
0
 42
0.0000001
 43
0.0000001
 44
0.0000000001
 40
0.0
 40
0.0
 40
0.0
 40
0.0
 40
0.2574029012
 40
1.0
 40
1.0
 40
1.0
 40
1.0
 10
354.9046746385
 20
241.0480690742
 30
0.0
 10
354.8775452468
 20
241.07870763
 30
0.0
 10
354.7735712074
 20
241.1989829226
 30
0.0
 10
354.6754608575
 20
241.324376299
 30
0.0
 10
354.6067851418
 20
241.420409488
 30
0.0
  0
SPLINE
  5
481
100
AcDbEntity
  8
0
100
AcDbSpline
 62
7
  6
CONTINUOUS
 70
0
 71
3
 72
8
 73
4
 74
0
 42
0.0000001
 43
0.0000001
 44
0.0000000001
 40
0.0
 40
0.0
 40
0.0
 40
0.0
 40
1.0
 40
1.0
 40
1.0
 40
1.0
 10
450.5370482187
 20
251.4736007894
 30
0.0
 10
450.6718810941
 20
251.8458637243
 30
0.0
 10
450.806498614
 20
252.2182047283
 30
0.0
 10
450.9409047998
 20
252.5906219328
 30
0.0
  0
LINE
  5
482
100
AcDbEntity
  8
0
100
AcDbLine
 62
7
  6
CONTINUOUS
 10
450.9409047998
 20
252.5906219328
 11
451.2545636194
 21
253.3353026951
  0
SPLINE
  5
483
100
AcDbEntity
  8
0
100
AcDbSpline
 62
7
  6
CONTINUOUS
 70
0
 71
3
 72
9
 73
5
 74
0
 42
0.0000001
 43
0.0000001
 44
0.0000000001
 40
0.0
 40
0.0
 40
0.0
 40
0.0
 40
0.2574029012
 40
1.0
 40
1.0
 40
1.0
 40
1.0
 10
446.8834540103
 20
241.0480690742
 30
0.0
 10
446.910583402
 20
241.07870763
 30
0.0
 10
447.0145574414
 20
241.1989829226
 30
0.0
 10
447.1126677913
 20
241.324376299
 30
0.0
 10
447.181343507
 20
241.420409488
 30
0.0
  0
LINE
  5
484
100
AcDbEntity
  8
0
100
AcDbLine
 62
7
  6
CONTINUOUS
 10
450.1683863714
 20
248.4917477383
 11
450.1755956367
 21
248.5070467559
  0
SPLINE
  5
485
100
AcDbEntity
  8
0
100
AcDbSpline
 62
7
  6
CONTINUOUS
 70
0
 71
3
 72
9
 73
5
 74
0
 42
0.0000001
 43
0.0000001
 44
0.0000000001
 40
0.0
 40
0.0
 40
0.0
 40
0.0
 40
0.2570166269
 40
1.0
 40
1.0
 40
1.0
 40
1.0
 10
449.5168060801
 20
247.3778560752
 30
0.0
 10
449.5432702017
 20
247.4085159138
 30
0.0
 10
449.644850023
 20
247.528991617
 30
0.0
 10
449.7407188909
 20
247.6543254135
 30
0.0
 10
449.8079260197
 20
247.7501969779
 30
0.0
  0
SPLINE
  5
486
100
AcDbEntity
  8
0
100
AcDbSpline
 62
7
  6
CONTINUOUS
 70
0
 71
3
 72
9
 73
5
 74
0
 42
0.0000001
 43
0.0000001
 44
0.0000000001
 40
0.0
 40
0.0
 40
0.0
 40
0.0
 40
0.243352164
 40
1.0
 40
1.0
 40
1.0
 40
1.0
 10
453.4352298909
 20
258.5480690742
 30
0.0
 10
453.4043227507
 20
258.5166648744
 30
0.0
 10
453.2760374559
 20
258.3888787473
 30
0.0
 10
453.1428316487
 20
258.2660593262
 30
0.0
 10
453.0398281731
 20
258.1757286931
 30
0.0
  0
SPLINE
  5
487
100
AcDbEntity
  8
0
100
AcDbSpline
 62
7
  6
CONTINUOUS
 70
0
 71
3
 72
8
 73
4
 74
0
 42
0.0000001
 43
0.0000001
 44
0.0000000001
 40
0.0
 40
0.0
 40
0.0
 40
0.0
 40
1.0
 40
1.0
 40
1.0
 40
1.0
 10
353.7610537306
 20
244.7714734072
 30
0.0
 10
352.8248000831
 20
247.00532408
 30
0.0
 10
351.8890267764
 20
249.2393761181
 30
0.0
 10
350.9536659696
 20
251.4736007894
 30
0.0
  0
LINE
  5
488
100
AcDbEntity
  8
0
100
AcDbLine
 62
7
  6
CONTINUOUS
 10
351.6883472661
 20
251.4736007894
 11
351.0568008016
 21
252.962962314
  0
LINE
  5
489
100
AcDbEntity
  8
0
100
AcDbLine
 62
7
  6
CONTINUOUS
 10
350.3302142216
 20
252.962962314
 11
349.0837239453
 21
255.9416864062
  0
LINE
  5
48A
100
AcDbEntity
  8
0
100
AcDbLine
 62
7
  6
CONTINUOUS
 10
355.9501388965
 20
241.0480690742
 11
355.3180669586
 21
242.5374307292
  0
SPLINE
  5
48B
100
AcDbEntity
  8
0
100
AcDbSpline
 62
7
  6
CONTINUOUS
 70
0
 71
3
 72
9
 73
5
 74
0
 42
0.0000001
 43
0.0000001
 44
0.0000000001
 40
0.0
 40
0.0
 40
0.0
 40
0.0
 40
0.2572064526
 40
1.0
 40
1.0
 40
1.0
 40
1.0
 10
355.3180669586
 20
242.5374307292
 30
0.0
 10
355.2719058172
 20
242.5680185754
 30
0.0
 10
355.093269832
 20
242.6881935165
 30
0.0
 10
354.9180609581
 20
242.813493634
 30
0.0
 10
354.790368589
 20
242.9097712407
 30
0.0
  0
LINE
  5
48C
100
AcDbEntity
  8
0
100
AcDbLine
 62
7
  6
CONTINUOUS
 10
452.5460538175
 20
255.5693460251
 11
452.5247668529
 21
255.5142692281
  0
LINE
  5
48D
100
AcDbEntity
  8
0
100
AcDbLine
 62
7
  6
CONTINUOUS
 10
452.5247668529
 20
255.5142692281
 11
452.4735767136
 21
255.3820423492
  0
SPLINE
  5
48E
100
AcDbEntity
  8
0
100
AcDbSpline
 62
7
  6
CONTINUOUS
 70
0
 71
3
 72
8
 73
4
 74
0
 42
0.0000001
 43
0.0000001
 44
0.0000000001
 40
0.0
 40
0.0
 40
0.0
 40
0.0
 40
1.0
 40
1.0
 40
1.0
 40
1.0
 10
452.1102341319
 20
254.4523248816
 30
0.0
 10
451.959672833
 20
254.0798615435
 30
0.0
 10
451.8088106669
 20
253.7075196777
 30
0.0
 10
451.6576413552
 20
253.3353026951
 30
0.0
  0
LINE
  5
48F
100
AcDbEntity
  8
0
100
AcDbLine
 62
7
  6
CONTINUOUS
 10
451.6576413552
 20
253.3353026951
 11
451.349086158
 21
252.5906219328
  0
LINE
  5
490
100
AcDbEntity
  8
0
100
AcDbLine
 62
7
  6
CONTINUOUS
 10
450.4931151702
 20
253.7076430763
 11
449.8614454035
 21
252.2182815517
  0
SPLINE
  5
491
100
AcDbEntity
  8
BEZUGSACHSEN
100
AcDbSpline
 62
7
  6
CONTINUOUS
 70
0
 71
3
 72
24
 73
20
 74
0
 42
0.0000001
 43
0.0000001
 44
0.0000000001
 40
0.0
 40
0.0
 40
0.0
 40
0.0
 40
0.1717081102
 40
0.3362021505
 40
0.4136578282
 40
0.4869374787
 40
0.5554309887
 40
0.6186572641
 40
0.6762937461
 40
0.7282250183
 40
0.7746375712
 40
0.8161214259
 40
0.8539737592
 40
0.8723002993
 40
0.8908448825
 40
0.9103989475
 40
0.9323725553
 40
0.9602244383
 40
1.0
 40
1.0
 40
1.0
 40
1.0
 10
400.8940643244
 20
250.2606934186
 30
0.0
 10
397.9886980037
 20
250.2606934186
 30
0.0
 10
392.2994663983
 20
250.1483194802
 30
0.0
 10
385.3108401416
 20
249.7106929155
 30
0.0
 10
380.0055308199
 20
249.1527029712
 30
0.0
 10
376.3305548597
 20
248.6422632225
 30
0.0
 10
372.9157130809
 20
248.0270596907
 30
0.0
 10
369.7932566656
 20
247.3015724329
 30
0.0
 10
366.9906772478
 20
246.4597322215
 30
0.0
 10
364.5310668935
 20
245.492220238
 30
0.0
 10
362.4311496673
 20
244.3884427505
 30
0.0
 10
360.7067110337
 20
243.1255016274
 30
0.0
 10
359.5862107824
 20
241.8880639637
 30
0.0
 10
358.9393632772
 20
240.7971813042
 30
0.0
 10
358.5768644109
 20
239.9098325914
 30
0.0
 10
358.3459550044
 20
238.9153863034
 30
0.0
 10
358.2772569478
 20
237.7372595912
 30
0.0
 10
358.4712780468
 20
236.2258743152
 30
0.0
 10
358.8760987426
 20
235.1342379492
 30
0.0
 10
359.2067930398
 20
234.5480690742
 30
0.0
  0
SPLINE
  5
492
100
AcDbEntity
  8
0
100
AcDbSpline
 62
7
  6
CONTINUOUS
 70
0
 71
3
 72
8
 73
4
 74
0
 42
0.0000001
 43
0.0000001
 44
0.0000000001
 40
0.0
 40
0.0
 40
0.0
 40
0.0
 40
1.0
 40
1.0
 40
1.0
 40
1.0
 10
352.6567102336
 20
245.8884945507
 30
0.0
 10
352.2976909399
 20
246.7571559202
 30
0.0
 10
351.9389997316
 20
247.6259529526
 30
0.0
 10
351.5806184519
 20
248.4948777402
 30
0.0
  0
LINE
  5
493
100
AcDbEntity
  8
0
100
AcDbLine
 62
7
  6
CONTINUOUS
 10
351.5806184519
 20
248.4948777402
 11
350.5009309589
 21
251.1012604082
  0
LINE
  5
494
100
AcDbEntity
  8
0
100
AcDbLine
 62
7
  6
CONTINUOUS
 10
350.5009309589
 20
251.1012604082
 11
350.3624529365
 21
251.4341737999
  0
LINE
  5
495
100
AcDbEntity
  8
0
100
AcDbLine
 62
7
  6
CONTINUOUS
 10
350.3624529365
 20
251.4341737999
 11
350.3217529805
 21
251.5320385257
  0
LINE
  5
496
100
AcDbEntity
  8
0
100
AcDbLine
 62
7
  6
CONTINUOUS
 10
350.3217529805
 20
251.5320385257
 11
349.7810171788
 21
252.833046456
  0
LINE
  5
497
100
AcDbEntity
  8
0
100
AcDbLine
 62
7
  6
CONTINUOUS
 10
349.7810171788
 20
252.833046456
 11
349.7435398847
 21
252.9232703542
  0
LINE
  5
498
100
AcDbEntity
  8
0
100
AcDbLine
 62
7
  6
CONTINUOUS
 10
349.7435398847
 20
252.9232703542
 11
349.4178464554
 21
253.7076430763
  0
SPLINE
  5
499
100
AcDbEntity
  8
0
100
AcDbSpline
 62
7
  6
CONTINUOUS
 70
0
 71
3
 72
9
 73
5
 74
0
 42
0.0000001
 43
0.0000001
 44
0.0000000001
 40
0.0
 40
0.0
 40
0.0
 40
0.0
 40
0.2540093511
 40
1.0
 40
1.0
 40
1.0
 40
1.0
 10
448.6710295924
 20
247.7501969779
 30
0.0
 10
448.6821150522
 20
247.7193862598
 30
0.0
 10
448.7235857398
 20
247.5973222679
 30
0.0
 10
448.7561264913
 20
247.4721942685
 30
0.0
 10
448.7747839449
 20
247.3778560752
 30
0.0
  0
LINE
  5
49A
100
AcDbEntity
  8
0
100
AcDbLine
 62
7
  6
CONTINUOUS
 10
449.1914111365
 20
247.3724755163
 11
448.7263222209
 21
246.2608349318
  0
LINE
  5
49B
100
AcDbEntity
  8
0
100
AcDbLine
 62
7
  6
CONTINUOUS
 10
447.7600772631
 20
244.0267923842
 11
447.7288778323
 21
243.9625026502
  0
LINE
  5
49C
100
AcDbEntity
  8
0
100
AcDbLine
 62
7
  6
CONTINUOUS
 10
447.7288778323
 20
243.9625026502
 11
447.6994472542
 21
243.9021758896
  0
SPLINE
  5
49D
100
AcDbEntity
  8
0
100
AcDbSpline
 62
7
  6
CONTINUOUS
 70
0
 71
3
 72
9
 73
5
 74
0
 42
0.0000001
 43
0.0000001
 44
0.0000000001
 40
0.0
 40
0.0
 40
0.0
 40
0.0
 40
0.2572648095
 40
1.0
 40
1.0
 40
1.0
 40
1.0
 10
355.8725318427
 20
242.5374307292
 30
0.0
 10
355.8260158793
 20
242.5680135716
 30
0.0
 10
355.6460420399
 20
242.6881528133
 30
0.0
 10
355.4694981535
 20
242.8134618386
 30
0.0
 10
355.3408313866
 20
242.9097712407
 30
0.0
  0
SPLINE
  5
49E
100
AcDbEntity
  8
0
100
AcDbSpline
 62
7
  6
CONTINUOUS
 70
0
 71
3
 72
8
 73
4
 74
0
 42
0.0000001
 43
0.0000001
 44
0.0000000001
 40
0.0
 40
0.0
 40
0.0
 40
0.0
 40
1.0
 40
1.0
 40
1.0
 40
1.0
 10
354.3087218832
 20
244.7714734072
 30
0.0
 10
353.3815872657
 20
246.9830373758
 30
0.0
 10
352.4549381138
 20
249.1948049075
 30
0.0
 10
351.528705823
 20
251.4067469342
 30
0.0
  0
LINE
  5
49F
100
AcDbEntity
  8
0
100
AcDbLine
 62
7
  6
CONTINUOUS
 10
351.528705823
 20
251.4067469342
 11
351.5007114777
 21
251.4736007894
  0
LINE
  5
4A0
100
AcDbEntity
  8
0
100
AcDbLine
 62
7
  6
CONTINUOUS
 10
352.2426430414
 20
251.4736007894
 11
351.6108071784
 21
252.962962314
  0
LINE
  5
4A1
100
AcDbEntity
  8
0
100
AcDbLine
 62
7
  6
CONTINUOUS
 10
350.8771337251
 20
252.962962314
 11
349.6304034756
 21
255.9416864062
  0
SPLINE
  5
4A2
100
AcDbEntity
  8
0
100
AcDbSpline
 62
7
  6
CONTINUOUS
 70
0
 71
3
 72
8
 73
4
 74
0
 42
0.0000001
 43
0.0000001
 44
0.0000000001
 40
0.0
 40
0.0
 40
0.0
 40
0.0
 40
1.0
 40
1.0
 40
1.0
 40
1.0
 10
447.0214097203
 20
245.1438137884
 30
0.0
 10
446.8901358282
 20
244.7713996901
 30
0.0
 10
446.7586546741
 20
244.3990585829
 30
0.0
 10
446.6269619538
 20
244.0267923842
 30
0.0
  0
SPLINE
  5
4A3
100
AcDbEntity
  8
0
100
AcDbSpline
 62
7
  6
CONTINUOUS
 70
0
 71
3
 72
9
 73
5
 74
0
 42
0.0000001
 43
0.0000001
 44
0.0000000001
 40
0.0
 40
0.0
 40
0.0
 40
0.0
 40
0.2542274251
 40
1.0
 40
1.0
 40
1.0
 40
1.0
 10
446.0741198237
 20
241.420409488
 30
0.0
 10
446.0853407128
 20
241.3896115922
 30
0.0
 10
446.1272083468
 20
241.2676580314
 30
0.0
 10
446.1597243124
 20
241.1424593393
 30
0.0
 10
446.178060508
 20
241.0480690742
 30
0.0
  0
SPLINE
  5
4A4
100
AcDbEntity
  8
BEZUGSACHSEN
100
AcDbSpline
 62
7
  6
CONTINUOUS
 70
0
 71
3
 72
24
 73
20
 74
0
 42
0.0000001
 43
0.0000001
 44
0.0000000001
 40
0.0
 40
0.0
 40
0.0
 40
0.0
 40
0.1717081102
 40
0.3362021505
 40
0.4136578282
 40
0.4869374787
 40
0.5554309887
 40
0.6186572641
 40
0.6762937461
 40
0.7282250183
 40
0.7746375712
 40
0.8161214259
 40
0.8539737592
 40
0.8723002993
 40
0.8908448825
 40
0.9103989475
 40
0.9323725553
 40
0.9602244383
 40
1.0
 40
1.0
 40
1.0
 40
1.0
 10
400.8940643244
 20
250.2606934186
 30
0.0
 10
403.7994306451
 20
250.2606934186
 30
0.0
 10
409.4886622505
 20
250.1483194802
 30
0.0
 10
416.4772885072
 20
249.7106929155
 30
0.0
 10
421.7825978289
 20
249.1527029712
 30
0.0
 10
425.4575737891
 20
248.6422632225
 30
0.0
 10
428.8724155679
 20
248.0270596907
 30
0.0
 10
431.9948719832
 20
247.3015724329
 30
0.0
 10
434.797451401
 20
246.4597322215
 30
0.0
 10
437.2570617553
 20
245.492220238
 30
0.0
 10
439.3569789815
 20
244.3884427505
 30
0.0
 10
441.0814176151
 20
243.1255016274
 30
0.0
 10
442.2019178664
 20
241.8880639637
 30
0.0
 10
442.8487653715
 20
240.7971813042
 30
0.0
 10
443.2112642379
 20
239.9098325914
 30
0.0
 10
443.4421736444
 20
238.9153863034
 30
0.0
 10
443.510871701
 20
237.7372595912
 30
0.0
 10
443.316850602
 20
236.2258743152
 30
0.0
 10
442.9120299062
 20
235.1342379492
 30
0.0
 10
442.581335609
 20
234.5480690742
 30
0.0
  0
LINE
  5
4A5
100
AcDbEntity
  8
0
100
AcDbLine
 62
7
  6
CONTINUOUS
 10
356.5049287774
 20
241.0480690742
 11
355.8725318427
 21
242.5374307292
  0
SPLINE
  5
4A6
100
AcDbEntity
  8
0
100
AcDbSpline
 62
7
  6
CONTINUOUS
 70
0
 71
3
 72
8
 73
4
 74
0
 42
0.0000001
 43
0.0000001
 44
0.0000000001
 40
0.0
 40
0.0
 40
0.0
 40
0.0
 40
1.0
 40
1.0
 40
1.0
 40
1.0
 10
451.349086158
 20
252.5906219328
 30
0.0
 10
451.1916714042
 20
252.218133422
 30
0.0
 10
451.03390903
 20
251.8457916169
 30
0.0
 10
450.8757917214
 20
251.4736007894
 30
0.0
  0
LINE
  5
4A7
100
AcDbEntity
  8
0
100
AcDbLine
 62
7
  6
CONTINUOUS
 10
450.3847472041
 20
250.3565796459
 11
450.3487386609
 21
250.2819017552
  0
LINE
  5
4A8
100
AcDbEntity
  8
0
100
AcDbLine
 62
7
  6
CONTINUOUS
 10
450.3487386609
 20
250.2819017552
 11
450.3245514912
 21
250.2319923186
  0
SPLINE
  5
4A9
100
AcDbEntity
  8
0
100
AcDbSpline
 62
7
  6
CONTINUOUS
 70
0
 71
3
 72
8
 73
4
 74
0
 42
0.0000001
 43
0.0000001
 44
0.0000000001
 40
0.0
 40
0.0
 40
0.0
 40
0.0
 40
1.0
 40
1.0
 40
1.0
 40
1.0
 10
452.6516914011
 20
254.4523248816
 30
0.0
 10
452.5010970665
 20
254.0798625677
 30
0.0
 10
452.3502044221
 20
253.7075207217
 30
0.0
 10
452.1990073005
 20
253.3353026951
 30
0.0
  0
LINE
  5
4AA
100
AcDbEntity
  8
0
100
AcDbLine
 62
7
  6
CONTINUOUS
 10
452.1990073005
 20
253.3353026951
 11
451.8904539188
 21
252.5906219328
  0
SPLINE
  5
4AB
100
AcDbEntity
  8
0
100
AcDbSpline
 62
7
  6
CONTINUOUS
 70
0
 71
3
 72
8
 73
4
 74
0
 42
0.0000001
 43
0.0000001
 44
0.0000000001
 40
0.0
 40
0.0
 40
0.0
 40
0.0
 40
1.0
 40
1.0
 40
1.0
 40
1.0
 10
451.8904539188
 20
252.5906219328
 30
0.0
 10
451.7330693208
 20
252.2181349164
 30
0.0
 10
451.575340518
 20
251.8457931391
 30
0.0
 10
451.4172603362
 20
251.4736007894
 30
0.0
  0
SPLINE
  5
4AC
100
AcDbEntity
  8
0
100
AcDbSpline
 62
7
  6
CONTINUOUS
 70
0
 71
3
 72
9
 73
5
 74
0
 42
0.0000001
 43
0.0000001
 44
0.0000000001
 40
0.0
 40
0.0
 40
0.0
 40
0.0
 40
0.2540961738
 40
1.0
 40
1.0
 40
1.0
 40
1.0
 10
446.6221377993
 20
241.420409488
 30
0.0
 10
446.6331131284
 20
241.3896049519
 30
0.0
 10
446.6740483037
 20
241.267584506
 30
0.0
 10
446.7056832383
 20
241.1424112081
 30
0.0
 10
446.7234221403
 20
241.0480690742
 30
0.0
  0
SPLINE
  5
4AD
100
AcDbEntity
  8
0
100
AcDbSpline
 62
7
  6
CONTINUOUS
 70
0
 71
3
 72
9
 73
5
 74
0
 42
0.0000001
 43
0.0000001
 44
0.0000000001
 40
0.0
 40
0.0
 40
0.0
 40
0.0
 40
0.243411452
 40
1.0
 40
1.0
 40
1.0
 40
1.0
 10
453.9800139152
 20
258.5480690742
 30
0.0
 10
453.949273272
 20
258.5166688873
 30
0.0
 10
453.8217091692
 20
258.3889179213
 30
0.0
 10
453.6892465469
 20
258.2660847063
 30
0.0
 10
453.5868187798
 20
258.1757286931
 30
0.0
  0
LINE
  5
4AE
100
AcDbEntity
  8
0
100
AcDbLine
 62
7
  6
CONTINUOUS
 10
451.0469804808
 20
253.7076430763
 11
450.41559525
 21
252.2182815517
  0
SPLINE
  5
4AF
100
AcDbEntity
  8
0
100
AcDbSpline
 62
7
  6
CONTINUOUS
 70
0
 71
3
 72
8
 73
4
 74
0
 42
0.0000001
 43
0.0000001
 44
0.0000000001
 40
0.0
 40
0.0
 40
0.0
 40
0.0
 40
1.0
 40
1.0
 40
1.0
 40
1.0
 10
447.575333634
 20
245.1438137884
 30
0.0
 10
447.4438580702
 20
244.7713999058
 30
0.0
 10
447.3121761553
 20
244.3990588057
 30
0.0
 10
447.1802836414
 20
244.0267923842
 30
0.0
  0
SPLINE
  5
4B0
100
AcDbEntity
  8
0
100
AcDbSpline
 62
7
  6
CONTINUOUS
 70
0
 71
3
 72
8
 73
4
 74
0
 42
0.0000001
 43
0.0000001
 44
0.0000000001
 40
0.0
 40
0.0
 40
0.0
 40
0.0
 40
1.0
 40
1.0
 40
1.0
 40
1.0
 10
449.2677066606
 20
246.2608349318
 30
0.0
 10
449.1101702534
 20
245.8883403749
 30
0.0
 10
448.9522724251
 20
245.5159984549
 30
0.0
 10
448.7940052821
 20
245.1438137884
 30
0.0
  0
LINE
  5
4B1
100
AcDbEntity
  8
0
100
AcDbLine
 62
7
  6
CONTINUOUS
 10
450.201627034
 20
248.4948777402
 11
449.8886219542
 21
247.7454284236
  0
LINE
  5
4B2
100
AcDbEntity
  8
0
100
AcDbLine
 62
7
  6
CONTINUOUS
 10
449.8886219542
 20
247.7454284236
 11
449.8783209445
 21
247.7207760045
  0
LINE
  5
4B3
100
AcDbEntity
  8
0
100
AcDbLine
 62
7
  6
CONTINUOUS
 10
449.8783209445
 20
247.7207760045
 11
449.7025323205
 21
247.300196553
  0
LINE
  5
4B4
100
AcDbEntity
  8
0
100
AcDbLine
 62
7
  6
CONTINUOUS
 10
449.7025323205
 20
247.300196553
 11
449.2677066606
 21
246.2608349318
  0
SPLINE
  5
4B5
100
AcDbEntity
  8
0
100
AcDbSpline
 62
7
  6
CONTINUOUS
 70
0
 71
3
 72
9
 73
5
 74
0
 42
0.0000001
 43
0.0000001
 44
0.0000000001
 40
0.0
 40
0.0
 40
0.0
 40
0.0
 40
0.2538903988
 40
1.0
 40
1.0
 40
1.0
 40
1.0
 10
449.2189714346
 20
247.7501969779
 30
0.0
 10
449.2298240852
 20
247.7193802447
 30
0.0
 10
449.2704086149
 20
247.5972555809
 30
0.0
 10
449.3021106085
 20
247.4721504574
 30
0.0
 10
449.3201959175
 20
247.3778560752
 30
0.0
  0
ELLIPSE
  5
4B6
100
AcDbEntity
  8
0
100
AcDbEllipse
 62
7
  6
CONTINUOUS
 10
154.5673382977
 20
282.8532053456
 30
0.0
 11
39.75
 21
0.0
 31
0.0
 40
0.2679491924
 41
-2.0357897831
 42
-1.1058028705
  0
ENDSEC
  0
SECTION
  2
OBJECTS
  0
DICTIONARY
  5
C
100
AcDbDictionary
280
0
281
1
  3
ACAD_GROUP
350
D
  3
ACAD_MLINESTYLE
350
17
  3
ACAD_LAYOUT
350
1A
  3
ACAD_PLOTSETTINGS
350
19
  3
ACAD_PLOTSTYLENAME
350
E
  0
DICTIONARY
  5
D
102
{ACAD_REACTORS
330
C
102
}
100
AcDbDictionary
280
0
281
1
  0
ACDBDICTIONARYWDFLT
  5
E
102
{ACAD_REACTORS
330
C
102
}
100
AcDbDictionary
281
1
  3
Normal
350
F
100
AcDbDictionaryWithDefault
340
F
  0
DICTIONARY
  5
17
102
{ACAD_REACTORS
330
C
102
}
100
AcDbDictionary
280
0
281
1
  3
Standard
350
18
  0
DICTIONARY
  5
19
102
{ACAD_REACTORS
330
C
102
}
100
AcDbDictionary
281
1
  0
DICTIONARY
  5
1A
102
{ACAD_REACTORS
330
C
102
}
100
AcDbDictionary
281
1
  3
Model
350
4B7
  3
Layout1
350
4B8
  0
ACDBPLACEHOLDER
  5
F
102
{ACAD_REACTORS
330
E
102
}
  0
MLINESTYLE
  5
18
102
{ACAD_REACTORS
330
17
102
}
100
AcDbMlineStyle
  2
STANDARD
 70
0
  3

 62
256
 51
90.0
 52
90.0
 71
2
 49
0.5
 62
256
  6
BYLAYER
 49
-0.5
 62
256
  6
BYLAYER
  0
LAYOUT
  5
4B7
102
{ACAD_REACTORS
330
1A
102
}
100
AcDbPlotSettings
  1

  2
none_device
  4
ISO_A2_(594.00_x_420.00_MM)
  6

 40
0.0
 41
0.0
 42
0.0
 43
0.0
 44
594.0
 45
420.0
 46
0.0
 47
0.0
 48
0.0
 49
0.0
140
0.0
141
0.0
142
1.0
143
1.0
 70
1024
 72
1
 73
0
 74
0
  7

 75
0
147
1.0
148
0.0
149
0.0
100
AcDbLayout
  1
Model
 70
0
 71
0
 10
0.0
 20
0.0
 11
594.0
 21
420.0
 12
0.0
 22
0.0
 32
0.0
 14
0.0
 24
0.0
 34
0.0
 15
0.0
 25
0.0
 35
0.0
146
0.0
 13
0.0
 23
0.0
 33
0.0
 16
1.0
 26
0.0
 36
0.0
 17
0.0
 27
1.0
 37
0.0
 76
0
330
20E
345
0
346
0
  0
LAYOUT
  5
4B8
102
{ACAD_REACTORS
330
1A
102
}
100
AcDbPlotSettings
  1

  2
none_device
  4
ISO_A2_(594.00_x_420.00_MM)
  6

 40
0.0
 41
0.0
 42
0.0
 43
0.0
 44
594.0
 45
420.0
 46
0.0
 47
0.0
 48
0.0
 49
0.0
140
0.0
141
0.0
142
1.0
143
1.0
 70
0
 72
1
 73
0
 74
0
  7

 75
0
147
1.0
148
0.0
149
0.0
100
AcDbLayout
  1
Layout1
 70
0
 71
1
 10
0.0
 20
0.0
 11
594.0
 21
420.0
 12
0.0
 22
0.0
 32
0.0
 14
0.0
 24
0.0
 34
0.0
 15
0.0
 25
0.0
 35
0.0
146
0.0
 13
0.0
 23
0.0
 33
0.0
 16
1.0
 26
0.0
 36
0.0
 17
0.0
 27
1.0
 37
0.0
 76
0
330
20F
345
0
346
0
  0
ENDSEC
  0
EOF
