999
DXF file: 001-m32986-p-1.dxf
999
Pro/ENGINEER 2011490 by Parametric Technology Corporation
  0
SECTION
  2
HEADER
  9
$ACADVER
  1
AC1015
  9
$DWGCODEPAGE
  3
ANSI_1252
  9
$EXTMAX
 10
594.0
 20
420.0
 30
0.0
  9
$EXTMIN
 10
0.0
 20
0.0
 30
0.0
  9
$LIMMIN
 10
0.0
 20
0.0
  9
$LIMMAX
 10
594.0
 20
420.0
  9
$VIEWCTR
 10
297.0
 20
210.0
  9
$VIEWSIZE
 40
420.0
  9
$CLAYER
  8
0
  9
$LTSCALE
 40
32.67
  9
$CELTYPE
  6
BYLAYER
  9
$DIMSCALE
 40
1.0
  9
$DIMASZ
 40
3.5
  9
$DIMEXO
 40
3.7125
  9
$DIMDLI
 40
22.572
  9
$DIMEXE
 40
10.692
  9
$DIMCEN
 40
5.346
  9
$DIMLFAC
 40
1.0
  9
$DIMBLK
  1
_FILLED
  9
$DIMTXT
 40
3.5
  9
$DIMTOL
 70
1
  9
$DIMLIM
 70
0
  9
$DIMTFAC
 40
1.0
  9
$DIMTP
 40
0.005
  9
$DIMTM
 40
0.005
  9
$PDMODE
 70
3
  9
$PDSIZE
 40
0.3125
  9
$HANDSEED
  5
45B
  9
$TILEMODE
 70
1
  9
$MEASUREMENT
 70
1
  9
$INSUNITS
 70
4
  0
ENDSEC
  0
SECTION
  2
CLASSES
  0
CLASS
  1
ACDBDICTIONARYWDFLT
  2
AcDbDictionaryWithDefault
  3
AutoCAD 2000
 90
0
280
0
281
0
  0
CLASS
  1
ACDBPLACEHOLDER
  2
AcDbPlaceHolder
  3
AutoCAD 2000
 90
0
280
0
281
0
  0
CLASS
  1
LAYOUT
  2
AcDbLayout
  3
AutoCAD 2000
 90
0
280
0
281
0
  0
ENDSEC
  0
SECTION
  2
TABLES
  0
TABLE
  2
VPORT
  5
8
100
AcDbSymbolTable
 70
2
  0
VPORT
  5
1F4
100
AcDbSymbolTableRecord
100
AcDbViewportTableRecord
  2
*ACTIVE
 70
0
 10
0.0
 20
0.0
 11
1.0
 21
1.0
 12
297.0
 22
210.0
 13
0.0
 23
0.0
 14
1.0
 24
1.0
 15
0.0
 25
0.0
 16
0.0
 26
0.0
 36
1.0
 17
0.0
 27
0.0
 37
0.0
 40
420.0
 41
1.4142857143
 42
50.0
 43
0.0
 44
0.0
 50
0.0
 51
0.0
 71
0
 72
100
 73
1
 74
1
 75
0
 76
0
 77
0
 78
0
  0
ENDTAB
  0
TABLE
  2
LTYPE
  5
5
100
AcDbSymbolTable
 70
6
  0
LTYPE
  5
14
100
AcDbSymbolTableRecord
100
AcDbLinetypeTableRecord
  2
BYBLOCK
 70
0
  3

 72
65
 73
0
 40
0.0
  0
LTYPE
  5
15
100
AcDbSymbolTableRecord
100
AcDbLinetypeTableRecord
  2
BYLAYER
 70
0
  3

 72
65
 73
0
 40
0.0
  0
LTYPE
  5
16
100
AcDbSymbolTableRecord
100
AcDbLinetypeTableRecord
  2
CONTINUOUS
 70
64
  3
Solid line
 72
65
 73
0
 40
0.0
  0
LTYPE
  5
1F5
100
AcDbSymbolTableRecord
100
AcDbLinetypeTableRecord
  2
CENTER
 70
64
  3
____ _ ____ _ ____ _ ____ _ ____ _ ____ _ ____
 72
65
 73
4
 40
0.6
 49
0.375
 74
0
 49
-0.075
 74
0
 49
0.075
 74
0
 49
-0.075
 74
0
  0
LTYPE
  5
1F6
100
AcDbSymbolTableRecord
100
AcDbLinetypeTableRecord
  2
HIDDEN
 70
64
  3
- - - - - - - - - - - - - - - - - - - -
 72
65
 73
2
 40
0.2
 49
0.1
 74
0
 49
-0.1
 74
0
  0
LTYPE
  5
1F7
100
AcDbSymbolTableRecord
100
AcDbLinetypeTableRecord
  2
PHANTOM
 70
64
  3
_____ _ _ _____ _ _ _____ _ _ _____
 72
65
 73
6
 40
0.8
 49
0.45
 74
0
 49
-0.05
 74
0
 49
0.1
 74
0
 49
-0.05
 74
0
 49
0.1
 74
0
 49
-0.05
 74
0
  0
LTYPE
  5
1F8
100
AcDbSymbolTableRecord
100
AcDbLinetypeTableRecord
  2
DOT
 70
64
  3
. . . . . . . . . . . . . . . . . . . .
 72
65
 73
2
 40
0.2
 49
0.1
 74
0
 49
-0.1
 74
0
  0
LTYPE
  5
1F9
100
AcDbSymbolTableRecord
100
AcDbLinetypeTableRecord
  2
DASHED
 70
64
  3
- - - - - - - - - - - - - - - - - - - -
 72
65
 73
2
 40
0.2
 49
0.1
 74
0
 49
-0.1
 74
0
  0
ENDTAB
  0
TABLE
  2
LAYER
  5
2
100
AcDbSymbolTable
 70
36
  0
LAYER
  5
10
100
AcDbSymbolTableRecord
100
AcDbLayerTableRecord
  2
0
 70
0
 62
7
  6
CONTINUOUS
370
-3
390
F
  0
LAYER
  5
1FA
100
AcDbSymbolTableRecord
100
AcDbLayerTableRecord
  2
DEFAULT_1
 70
0
 62
7
  6
CENTER
370
-3
390
F
  0
LAYER
  5
1FB
100
AcDbSymbolTableRecord
100
AcDbLayerTableRecord
  2
DEFAULT_2
 70
0
 62
8
  6
HIDDEN
370
-3
390
F
  0
LAYER
  5
1FC
100
AcDbSymbolTableRecord
100
AcDbLayerTableRecord
  2
DEFAULT_3
 70
0
 62
7
  6
PHANTOM
370
-3
390
F
  0
LAYER
  5
1FD
100
AcDbSymbolTableRecord
100
AcDbLayerTableRecord
  2
BEZUGSACHSEN
 70
0
 62
7
  6
CONTINUOUS
370
-3
390
F
  0
LAYER
  5
1FE
100
AcDbSymbolTableRecord
100
AcDbLayerTableRecord
  2
BEZUGSEBENEN
 70
0
 62
7
  6
CONTINUOUS
370
-3
390
F
  0
LAYER
  5
1FF
100
AcDbSymbolTableRecord
100
AcDbLayerTableRecord
  2
BG_STARTBEZUEGE
 70
0
 62
7
  6
CONTINUOUS
370
-3
390
F
  0
LAYER
  5
200
100
AcDbSymbolTableRecord
100
AcDbLayerTableRecord
  2
FASEN
 70
0
 62
7
  6
CONTINUOUS
370
-3
390
F
  0
LAYER
  5
201
100
AcDbSymbolTableRecord
100
AcDbLayerTableRecord
  2
FLAECHEN
 70
0
 62
7
  6
CONTINUOUS
370
-3
390
F
  0
LAYER
  5
202
100
AcDbSymbolTableRecord
100
AcDbLayerTableRecord
  2
GEWINDE
 70
0
 62
7
  6
CONTINUOUS
370
-3
390
F
  0
LAYER
  5
203
100
AcDbSymbolTableRecord
100
AcDbLayerTableRecord
  2
HILFEN
 70
0
 62
7
  6
CONTINUOUS
370
-3
390
F
  0
LAYER
  5
204
100
AcDbSymbolTableRecord
100
AcDbLayerTableRecord
  2
KONSTRUKTIONSELEMENTE
 70
0
 62
7
  6
CONTINUOUS
370
-3
390
F
  0
LAYER
  5
205
100
AcDbSymbolTableRecord
100
AcDbLayerTableRecord
  2
KURVEN
 70
0
 62
7
  6
CONTINUOUS
370
-3
390
F
  0
LAYER
  5
206
100
AcDbSymbolTableRecord
100
AcDbLayerTableRecord
  2
NORM
 70
0
 62
7
  6
CONTINUOUS
370
-3
390
F
  0
LAYER
  5
207
100
AcDbSymbolTableRecord
100
AcDbLayerTableRecord
  2
PLATZIERUNG
 70
0
 62
7
  6
CONTINUOUS
370
-3
390
F
  0
LAYER
  5
208
100
AcDbSymbolTableRecord
100
AcDbLayerTableRecord
  2
RUNDUNGEN
 70
0
 62
7
  6
CONTINUOUS
370
-3
390
F
  0
LAYER
  5
209
100
AcDbSymbolTableRecord
100
AcDbLayerTableRecord
  2
TEIL_STARTBEZUEGE
 70
0
 62
7
  6
CONTINUOUS
370
-3
390
F
  0
LAYER
  5
20A
100
AcDbSymbolTableRecord
100
AcDbLayerTableRecord
  2
T_STARTBEZUEGE
 70
0
 62
7
  6
CONTINUOUS
370
-3
390
F
  0
LAYER
  5
20B
100
AcDbSymbolTableRecord
100
AcDbLayerTableRecord
  2
ZEICHNUNGSBEMASSUNGEN
 70
0
 62
7
  6
CONTINUOUS
370
-3
390
F
  0
ENDTAB
  0
TABLE
  2
STYLE
  5
3
100
AcDbSymbolTable
 70
1
  0
STYLE
  5
11
100
AcDbSymbolTableRecord
100
AcDbTextStyleTableRecord
  2
STANDARD
 70
0
 40
0.0
 41
0.7
 50
0.0
 71
0
 42
0.2
  3
txt
  4

  0
STYLE
  5
20C
100
AcDbSymbolTableRecord
100
AcDbTextStyleTableRecord
  2
TEXTSTYLE_1
 70
0
 40
0.0
 41
0.8
 50
0.0
 71
0
 42
0.2
  3
gdt
  4

  0
ENDTAB
  0
TABLE
  2
VIEW
  5
6
100
AcDbSymbolTable
 70
0
  0
ENDTAB
  0
TABLE
  2
UCS
  5
7
100
AcDbSymbolTable
 70
0
  0
ENDTAB
  0
TABLE
  2
APPID
  5
9
100
AcDbSymbolTable
 70
1
  0
APPID
  5
20D
100
AcDbSymbolTableRecord
100
AcDbRegAppTableRecord
  2
ACAD
 70
0
  0
ENDTAB
  0
TABLE
  2
BLOCK_RECORD
  5
1
100
AcDbSymbolTable
 70
0
  0
BLOCK_RECORD
  5
20E
100
AcDbSymbolTableRecord
100
AcDbBlockTableRecord
  2
*Model_Space
  0
BLOCK_RECORD
  5
20F
100
AcDbSymbolTableRecord
100
AcDbBlockTableRecord
  2
*Paper_Space
  0
ENDTAB
  0
TABLE
  2
DIMSTYLE
  5
A
100
AcDbSymbolTable
 70
1
100
AcDbDimStyleTable
 71
0
  0
DIMSTYLE
105
210
100
AcDbSymbolTableRecord
100
AcDbDimStyleTableRecord
  2
STANDARD
 70
0
  3

  4

 40
1.0
 41
3.5
 42
0.0625
 43
0.38
 44
0.18
 45
0.0
 46
0.0
 47
0.005
 48
0.005
140
3.5
141
0.09
142
0.0
143
25.4
144
1.0
145
0.0
146
1.0
147
0.09
 71
1.0
 72
0.0
 73
0
 74
0
 75
0
 76
0
 77
1
 78
8
170
0
171
2
172
0
173
0
174
0
175
0
176
0
177
0
178
5
270
2
271
3
272
3
273
2
274
2
275
0
280
0
281
0
282
0
283
1
284
8
285
0
286
0
287
3
288
0
340
11
  0
ENDTAB
  0
ENDSEC
  0
SECTION
  2
BLOCKS
  0
BLOCK
  5
20
100
AcDbEntity
  8
0
100
AcDbBlockBegin
  2
*Model_Space
 70
0
 10
0.0
 20
0.0
 30
0.0
  3
*Model_Space
  1

  0
ENDBLK
  5
21
100
AcDbEntity
  8
0
100
AcDbBlockEnd
  0
BLOCK
  5
1C
100
AcDbEntity
  8
0
100
AcDbBlockBegin
  2
*Paper_Space
 70
0
 10
0.0
 20
0.0
 30
0.0
  3
*Paper_Space
  1

  0
ENDBLK
  5
1D
100
AcDbEntity
  8
0
100
AcDbBlockEnd
  0
ENDSEC
  0
SECTION
  2
ENTITIES
  0
MTEXT
  5
211
100
AcDbEntity
  8
0
100
AcDbMText
 62
5
  6
CONTINUOUS
  7
STANDARD
 71
1
 72
1
 10
347.5385271172
 20
292.2352977057
 30
0.0
 11
0.0
 21
1.0
 31
0.0
 44
0.9
  1
VRS 7t RUD
 40
7.5
 41
60.0
  0
MTEXT
  5
212
100
AcDbEntity
  8
0
100
AcDbMText
 62
5
  6
CONTINUOUS
  7
STANDARD
 71
1
 72
1
 10
109.8936308722
 20
74.5173149564
 30
0.0
 11
1.0
 21
0.0
 31
0.0
 44
0.9
  1
VRS 7t RUD
 40
7.5
 41
60.0
  0
LINE
  5
213
100
AcDbEntity
  8
0
100
AcDbLine
 62
7
  6
CONTINUOUS
 10
0.0
 20
0.0
 11
0.0
 21
420.0
  0
LINE
  5
214
100
AcDbEntity
  8
0
100
AcDbLine
 62
7
  6
CONTINUOUS
 10
0.0
 20
0.0
 11
594.0
 21
0.0
  0
LINE
  5
215
100
AcDbEntity
  8
0
100
AcDbLine
 62
7
  6
CONTINUOUS
 10
0.0
 20
420.0
 11
594.0
 21
420.0
  0
LINE
  5
216
100
AcDbEntity
  8
0
100
AcDbLine
 62
7
  6
CONTINUOUS
 10
594.0
 20
0.0
 11
594.0
 21
420.0
  0
LINE
  5
217
100
AcDbEntity
  8
KONSTRUKTIONSELEMENTE
100
AcDbLine
 62
7
  6
CONTINUOUS
 10
124.9051618304
 20
187.8920689174
 11
155.4051618304
 21
187.8920689174
  0
LINE
  5
218
100
AcDbEntity
  8
KONSTRUKTIONSELEMENTE
100
AcDbLine
 62
7
  6
CONTINUOUS
 10
122.1551618304
 20
190.6420689174
 11
158.1551618304
 21
190.6420689174
  0
LINE
  5
219
100
AcDbEntity
  8
KONSTRUKTIONSELEMENTE
100
AcDbLine
 62
7
  6
CONTINUOUS
 10
122.1551618304
 20
190.6420689174
 11
124.9051618304
 21
187.8920689174
  0
LINE
  5
21A
100
AcDbEntity
  8
KONSTRUKTIONSELEMENTE
100
AcDbLine
 62
7
  6
CONTINUOUS
 10
113.7551618304
 20
241.8920689174
 11
166.5551618304
 21
241.8920689174
  0
LINE
  5
21B
100
AcDbEntity
  8
BEZUGSACHSEN
100
AcDbLine
 62
7
  6
CONTINUOUS
 10
177.6551618304
 20
242.0920689174
 11
102.6551618304
 21
242.0920689174
  0
LINE
  5
21C
100
AcDbEntity
  8
BEZUGSACHSEN
100
AcDbLine
 62
7
  6
CONTINUOUS
 10
72.8709404667
 20
312.2254414948
 11
73.2619235265
 21
313.1693581003
  0
LINE
  5
21D
100
AcDbEntity
  8
RUNDUNGEN
100
AcDbLine
 62
7
  6
CONTINUOUS
 10
73.2619235265
 20
313.1693581003
 11
91.6045277567
 21
357.4523220021
  0
LINE
  5
21E
100
AcDbEntity
  8
RUNDUNGEN
100
AcDbLine
 62
7
  6
CONTINUOUS
 10
94.9975972545
 20
360.7577039669
 11
138.0049541331
 21
377.2666815146
  0
LINE
  5
21F
100
AcDbEntity
  8
0
100
AcDbLine
 62
7
  6
CONTINUOUS
 10
132.6551617559
 20
248.0920689174
 11
134.5301619794
 21
248.0920689174
  0
LINE
  5
220
100
AcDbEntity
  8
0
100
AcDbLine
 62
7
  6
CONTINUOUS
 10
143.2801621284
 20
257.028238959
 11
145.7801624264
 21
257.028238959
  0
LINE
  5
221
100
AcDbEntity
  8
0
100
AcDbLine
 62
7
  6
CONTINUOUS
 10
147.3426618304
 20
257.028238959
 11
150.7801612343
 21
257.028238959
  0
LINE
  5
222
100
AcDbEntity
  8
0
100
AcDbLine
 62
7
  6
CONTINUOUS
 10
148.2801618304
 20
248.4112178435
 11
150.1551618304
 21
248.0920689174
  0
LINE
  5
223
100
AcDbEntity
  8
0
100
AcDbLine
 62
7
  6
CONTINUOUS
 10
150.1551618304
 20
249.3686646217
 11
148.5926624264
 21
249.6878136316
  0
LINE
  5
224
100
AcDbEntity
  8
0
100
AcDbLine
 62
7
  6
CONTINUOUS
 10
147.3426618304
 20
248.7303667695
 11
148.2801618304
 21
248.4112178435
  0
LINE
  5
225
100
AcDbEntity
  8
BEZUGSACHSEN
100
AcDbLine
 62
7
  6
CONTINUOUS
 10
94.626054658
 20
255.3738855547
 11
72.8750185819
 21
307.6234194895
  0
LINE
  5
226
100
AcDbEntity
  8
0
100
AcDbLine
 62
7
  6
CONTINUOUS
 10
106.6392880461
 20
352.2782346131
 11
106.8579081747
 21
352.7225270919
  0
LINE
  5
227
100
AcDbEntity
  8
0
100
AcDbLine
 62
7
  6
CONTINUOUS
 10
104.5682737805
 20
347.4991515145
 11
104.3496536519
 21
347.0548590358
  0
LINE
  5
228
100
AcDbEntity
  8
0
100
AcDbLine
 62
7
  6
CONTINUOUS
 10
106.1808911245
 20
353.3995441421
 11
105.8517847184
 21
352.8447653859
  0
LINE
  5
229
100
AcDbEntity
  8
0
100
AcDbLine
 62
7
  6
CONTINUOUS
 10
106.7333174544
 20
353.9519704719
 11
106.1808911245
 21
353.3995441421
  0
LINE
  5
22A
100
AcDbEntity
  8
0
100
AcDbLine
 62
7
  6
CONTINUOUS
 10
101.9824441897
 20
349.2010972073
 11
99.3307937603
 21
346.5494467779
  0
LINE
  5
22B
100
AcDbEntity
  8
0
100
AcDbLine
 62
7
  6
CONTINUOUS
 10
98.4469101784
 20
345.665563196
 11
97.7839975711
 21
345.0026505887
  0
LINE
  5
22C
100
AcDbEntity
  8
0
100
AcDbLine
 62
7
  6
CONTINUOUS
 10
94.6904055088
 20
341.9090585263
 11
94.0274929014
 21
341.246145919
  0
LINE
  5
22D
100
AcDbEntity
  8
0
100
AcDbLine
 62
7
  6
CONTINUOUS
 10
100.5578872428
 20
346.64817851
 11
102.6571107102
 21
348.7474019774
  0
LINE
  5
22E
100
AcDbEntity
  8
0
100
AcDbLine
 62
7
  6
CONTINUOUS
 10
106.8579081747
 20
352.7225270919
 11
107.5208207821
 21
353.3854396992
  0
LINE
  5
22F
100
AcDbEntity
  8
0
100
AcDbLine
 62
7
  6
CONTINUOUS
 10
108.7479142646
 20
353.4841714314
 11
109.410826872
 21
354.1470840388
  0
LINE
  5
230
100
AcDbEntity
  8
0
100
AcDbLine
 62
7
  6
CONTINUOUS
 10
109.1005275487
 20
351.8057329326
 11
108.4376149413
 21
351.1428203253
  0
LINE
  5
231
100
AcDbEntity
  8
0
100
AcDbLine
 62
7
  6
CONTINUOUS
 10
104.3496536519
 20
347.0548590358
 11
102.2504301845
 21
344.9556355684
  0
LINE
  5
232
100
AcDbEntity
  8
0
100
AcDbLine
 62
7
  6
CONTINUOUS
 10
102.9274472347
 20
344.2786185182
 11
104.8056994115
 21
346.156870695
  0
LINE
  5
233
100
AcDbEntity
  8
0
100
AcDbLine
 62
7
  6
CONTINUOUS
 10
109.1146319915
 20
350.465803275
 11
109.7775445989
 21
351.1287158824
  0
LINE
  5
234
100
AcDbEntity
  8
0
100
AcDbLine
 62
7
  6
CONTINUOUS
 10
108.9124663613
 20
348.4582585282
 11
108.2495543862
 21
347.795346553
  0
LINE
  5
235
100
AcDbEntity
  8
0
100
AcDbLine
 62
7
  6
CONTINUOUS
 10
107.3985812237
 20
354.3915618912
 11
106.7333174544
 21
353.9519704719
  0
LINE
  5
236
100
AcDbEntity
  8
0
100
AcDbLine
 62
7
  6
CONTINUOUS
 10
102.6477073268
 20
349.6406879943
 11
101.9824441897
 21
349.2010972073
  0
LINE
  5
237
100
AcDbEntity
  8
0
100
AcDbLine
 62
7
  6
CONTINUOUS
 10
109.7657900536
 20
352.2453230874
 11
109.1005275487
 21
351.8057329326
  0
LINE
  5
238
100
AcDbEntity
  8
0
100
AcDbLine
 62
7
  6
CONTINUOUS
 10
109.7775445989
 20
351.1287158824
 11
110.3323220907
 21
351.4578210241
  0
LINE
  5
239
100
AcDbEntity
  8
0
100
AcDbLine
 62
7
  6
CONTINUOUS
 10
108.5598532353
 20
350.1366968689
 11
109.1146319915
 21
350.465803275
  0
LINE
  5
23A
100
AcDbEntity
  8
0
100
AcDbLine
 62
7
  6
CONTINUOUS
 10
107.5208207821
 20
353.3854396992
 11
107.9651132608
 21
353.6040598279
  0
LINE
  5
23B
100
AcDbEntity
  8
0
100
AcDbLine
 62
7
  6
CONTINUOUS
 10
102.6571107102
 20
348.7474019774
 11
103.1014031889
 21
348.9660221061
  0
LINE
  5
23C
100
AcDbEntity
  8
0
100
AcDbLine
 62
7
  6
CONTINUOUS
 10
108.4376149413
 20
351.1428203253
 11
107.9933224626
 21
350.9242001966
  0
LINE
  5
23D
100
AcDbEntity
  8
0
100
AcDbLine
 62
7
  6
CONTINUOUS
 10
134.3739116813
 20
361.5601539382
 11
133.9051616813
 21
361.4005794891
  0
LINE
  5
23E
100
AcDbEntity
  8
0
100
AcDbLine
 62
7
  6
CONTINUOUS
 10
150.7801612343
 20
258.3048345515
 11
147.3426618304
 21
258.3048345515
  0
LINE
  5
23F
100
AcDbEntity
  8
0
100
AcDbLine
 62
7
  6
CONTINUOUS
 10
145.7801624264
 20
258.3048345515
 11
143.2801621284
 21
258.3048345515
  0
LINE
  5
240
100
AcDbEntity
  8
0
100
AcDbLine
 62
7
  6
CONTINUOUS
 10
147.3426618304
 20
260.8580266305
 11
145.7801624264
 21
260.8580266305
  0
LINE
  5
241
100
AcDbEntity
  8
0
100
AcDbLine
 62
7
  6
CONTINUOUS
 10
129.5301618304
 20
261.4963244268
 11
138.9051618304
 21
261.4963244268
  0
LINE
  5
242
100
AcDbEntity
  8
0
100
AcDbLine
 62
7
  6
CONTINUOUS
 10
140.7801618304
 20
263.0920689174
 11
129.5301618304
 21
263.0920689174
  0
LINE
  5
243
100
AcDbEntity
  8
0
100
AcDbLine
 62
7
  6
CONTINUOUS
 10
146.4051618304
 20
249.3686646217
 11
147.3426618304
 21
248.7303667695
  0
LINE
  5
244
100
AcDbEntity
  8
0
100
AcDbLine
 62
7
  6
CONTINUOUS
 10
148.5926624264
 20
249.6878136316
 11
147.6551624264
 21
250.3261114278
  0
LINE
  5
245
100
AcDbEntity
  8
0
100
AcDbLine
 62
7
  6
CONTINUOUS
 10
104.5635720888
 20
347.945794523
 11
104.5682737805
 21
347.4991515145
  0
LINE
  5
246
100
AcDbEntity
  8
0
100
AcDbLine
 62
7
  6
CONTINUOUS
 10
105.6355157517
 20
352.177151719
 11
105.644919135
 21
351.2838657021
  0
LINE
  5
247
100
AcDbEntity
  8
0
100
AcDbLine
 62
7
  6
CONTINUOUS
 10
106.5335040925
 20
351.7211059594
 11
106.6392880461
 21
352.2782346131
  0
LINE
  5
248
100
AcDbEntity
  8
0
100
AcDbLine
 62
7
  6
CONTINUOUS
 10
111.9049764778
 20
350.5480792444
 11
111.7991926033
 21
349.9909505116
  0
LINE
  5
249
100
AcDbEntity
  8
0
100
AcDbLine
 62
7
  6
CONTINUOUS
 10
105.8517847184
 20
352.8447653859
 11
105.6355157517
 21
352.177151719
  0
LINE
  5
24A
100
AcDbEntity
  8
0
100
AcDbLine
 62
7
  6
CONTINUOUS
 10
105.2429396688
 20
347.0454556524
 11
105.4592092677
 21
347.7130699515
  0
LINE
  5
24B
100
AcDbEntity
  8
0
100
AcDbLine
 62
7
  6
CONTINUOUS
 10
112.5866947357
 20
349.4244184053
 11
112.8029649372
 21
350.0920333662
  0
LINE
  5
24C
100
AcDbEntity
  8
0
100
AcDbLine
 62
7
  6
CONTINUOUS
 10
111.7991926033
 20
349.9909505116
 11
111.4700874615
 21
349.4361730198
  0
LINE
  5
24D
100
AcDbEntity
  8
0
100
AcDbLine
 62
7
  6
CONTINUOUS
 10
112.1471045908
 20
348.7591558905
 11
112.5866947357
 21
349.4244184053
  0
LINE
  5
24E
100
AcDbEntity
  8
0
100
AcDbLine
 62
7
  6
CONTINUOUS
 10
134.6864118304
 20
361.8793028363
 11
134.3739116813
 21
361.5601539382
  0
LINE
  5
24F
100
AcDbEntity
  8
0
100
AcDbLine
 62
7
  6
CONTINUOUS
 10
111.4700874615
 20
349.4361730198
 11
110.5862035636
 21
348.5522891218
  0
LINE
  5
250
100
AcDbEntity
  8
0
100
AcDbLine
 62
7
  6
CONTINUOUS
 10
101.0985607659
 20
337.7106120657
 11
101.9824441897
 21
338.5944954895
  0
LINE
  5
251
100
AcDbEntity
  8
0
100
AcDbLine
 62
7
  6
CONTINUOUS
 10
104.6340946192
 20
341.246145919
 11
105.2970072266
 21
341.9090585263
  0
LINE
  5
252
100
AcDbEntity
  8
0
100
AcDbLine
 62
7
  6
CONTINUOUS
 10
108.0591433013
 20
344.6711946011
 11
108.8325409218
 21
345.4445922215
  0
LINE
  5
253
100
AcDbEntity
  8
0
100
AcDbLine
 62
7
  6
CONTINUOUS
 10
111.2632206928
 20
347.8752719926
 11
112.1471045908
 21
348.7591558905
  0
LINE
  5
254
100
AcDbEntity
  8
0
100
AcDbLine
 62
7
  6
CONTINUOUS
 10
141.4051621284
 20
358.5282391825
 11
140.9364121284
 21
358.2090901726
  0
LINE
  5
255
100
AcDbEntity
  8
0
100
AcDbLine
 62
7
  6
CONTINUOUS
 10
110.5979569136
 20
347.4356805832
 11
111.2632206928
 21
347.8752719926
  0
LINE
  5
256
100
AcDbEntity
  8
0
100
AcDbLine
 62
7
  6
CONTINUOUS
 10
110.5862035636
 20
348.5522891218
 11
110.0314260718
 21
348.2231839801
  0
LINE
  5
257
100
AcDbEntity
  8
0
100
AcDbLine
 62
7
  6
CONTINUOUS
 10
134.5301619794
 20
360.7622816929
 11
135.1551618304
 21
361.081430591
  0
LINE
  5
258
100
AcDbEntity
  8
0
100
AcDbLine
 62
7
  6
CONTINUOUS
 10
141.0926615323
 20
357.2516433804
 11
141.7176618304
 21
357.5707923205
  0
LINE
  5
259
100
AcDbEntity
  8
0
100
AcDbLine
 62
7
  6
CONTINUOUS
 10
110.4334049848
 20
352.4615933186
 11
109.7657900536
 21
352.2453230874
  0
LINE
  5
25A
100
AcDbEntity
  8
0
100
AcDbLine
 62
7
  6
CONTINUOUS
 10
107.8922395685
 20
349.9204279022
 11
108.5598532353
 21
350.1366968689
  0
LINE
  5
25B
100
AcDbEntity
  8
0
100
AcDbLine
 62
7
  6
CONTINUOUS
 10
112.8029649372
 20
350.0920333662
 11
112.7935615143
 21
350.9853194226
  0
LINE
  5
25C
100
AcDbEntity
  8
KONSTRUKTIONSELEMENTE
100
AcDbLine
 62
7
  6
CONTINUOUS
 10
113.7551618304
 20
242.0920689174
 11
113.7551618304
 21
241.8920689174
  0
LINE
  5
25D
100
AcDbEntity
  8
0
100
AcDbLine
 62
7
  6
CONTINUOUS
 10
141.7176618304
 20
359.0069625297
 11
141.4051621284
 21
358.5282391825
  0
LINE
  5
25E
100
AcDbEntity
  8
0
100
AcDbLine
 62
7
  6
CONTINUOUS
 10
135.1551618304
 20
361.081430591
 11
135.6239118304
 21
361.7197283873
  0
LINE
  5
25F
100
AcDbEntity
  8
0
100
AcDbLine
 62
7
  6
CONTINUOUS
 10
141.7176618304
 20
357.5707923205
 11
142.3426621284
 21
358.2090901726
  0
LINE
  5
260
100
AcDbEntity
  8
0
100
AcDbLine
 62
7
  6
CONTINUOUS
 10
149.2176618304
 20
357.5707923205
 11
149.8426612343
 21
358.2090901726
  0
LINE
  5
261
100
AcDbEntity
  8
0
100
AcDbLine
 62
7
  6
CONTINUOUS
 10
148.9051612343
 20
358.5282391825
 11
148.4364112343
 21
358.2090901726
  0
LINE
  5
262
100
AcDbEntity
  8
0
100
AcDbLine
 62
7
  6
CONTINUOUS
 10
148.5926624264
 20
357.2516433804
 11
149.2176618304
 21
357.5707923205
  0
LINE
  5
263
100
AcDbEntity
  8
0
100
AcDbLine
 62
7
  6
CONTINUOUS
 10
101.9824441897
 20
338.5944954895
 11
98.4469101784
 21
345.665563196
  0
LINE
  5
264
100
AcDbEntity
  8
0
100
AcDbLine
 62
7
  6
CONTINUOUS
 10
97.7839975711
 20
345.0026505887
 11
100.8634852696
 21
338.8295708278
  0
LINE
  5
265
100
AcDbEntity
  8
0
100
AcDbLine
 62
7
  6
CONTINUOUS
 10
145.7801624264
 20
250.6452603259
 11
146.4051618304
 21
249.3686646217
  0
LINE
  5
266
100
AcDbEntity
  8
0
100
AcDbLine
 62
7
  6
CONTINUOUS
 10
105.4592092677
 20
347.7130699515
 11
105.3393208712
 21
348.4958709553
  0
LINE
  5
267
100
AcDbEntity
  8
KONSTRUKTIONSELEMENTE
100
AcDbLine
 62
7
  6
CONTINUOUS
 10
122.1551618304
 20
241.8920689174
 11
122.1551618304
 21
190.6420689174
  0
LINE
  5
268
100
AcDbEntity
  8
0
100
AcDbLine
 62
7
  6
CONTINUOUS
 10
129.5301618304
 20
263.0920689174
 11
129.5301618304
 21
261.4963244268
  0
LINE
  5
269
100
AcDbEntity
  8
0
100
AcDbLine
 62
7
  6
CONTINUOUS
 10
134.8426616813
 20
362.3580261835
 11
134.6864118304
 21
361.8793028363
  0
LINE
  5
26A
100
AcDbEntity
  8
0
100
AcDbLine
 62
7
  6
CONTINUOUS
 10
135.6239118304
 20
361.7197283873
 11
135.7801616813
 21
362.1984517344
  0
LINE
  5
26B
100
AcDbEntity
  8
0
100
AcDbLine
 62
7
  6
CONTINUOUS
 10
142.3426621284
 20
358.2090901726
 11
142.6551618304
 21
358.8473880806
  0
LINE
  5
26C
100
AcDbEntity
  8
0
100
AcDbLine
 62
7
  6
CONTINUOUS
 10
149.8426612343
 20
358.2090901726
 11
150.1551618304
 21
358.8473880806
  0
LINE
  5
26D
100
AcDbEntity
  8
0
100
AcDbLine
 62
7
  6
CONTINUOUS
 10
149.2176618304
 20
359.0069625297
 11
148.9051612343
 21
358.5282391825
  0
LINE
  5
26E
100
AcDbEntity
  8
0
100
AcDbLine
 62
7
  6
CONTINUOUS
 10
105.644919135
 20
351.2838657021
 11
105.9857775577
 21
350.7220347245
  0
LINE
  5
26F
100
AcDbEntity
  8
0
100
AcDbLine
 62
7
  6
CONTINUOUS
 10
104.335549209
 20
348.3947886934
 11
104.5635720888
 21
347.945794523
  0
LINE
  5
270
100
AcDbEntity
  8
0
100
AcDbLine
 62
7
  6
CONTINUOUS
 10
105.3393208712
 20
348.4958709553
 11
105.1112979914
 21
348.9448651257
  0
LINE
  5
271
100
AcDbEntity
  8
0
100
AcDbLine
 62
7
  6
CONTINUOUS
 10
106.7615266562
 20
351.2721108407
 11
106.5335040925
 21
351.7211059594
  0
LINE
  5
272
100
AcDbEntity
  8
0
100
AcDbLine
 62
7
  6
CONTINUOUS
 10
112.7935615143
 20
350.9853194226
 11
112.5631880257
 21
351.6576354924
  0
LINE
  5
273
100
AcDbEntity
  8
0
100
AcDbLine
 62
7
  6
CONTINUOUS
 10
147.6551624264
 20
250.3261114278
 11
147.3426618304
 21
251.2835583457
  0
LINE
  5
274
100
AcDbEntity
  8
0
100
AcDbLine
 62
7
  6
CONTINUOUS
 10
111.7874392433
 20
351.1075590601
 11
111.9049764778
 21
350.5480792444
  0
LINE
  5
275
100
AcDbEntity
  8
0
100
AcDbLine
 62
7
  6
CONTINUOUS
 10
129.9989118304
 20
364.5920689174
 11
129.9989118304
 21
357.0920689174
  0
LINE
  5
276
100
AcDbEntity
  8
0
100
AcDbLine
 62
7
  6
CONTINUOUS
 10
130.9364118304
 20
357.0920689174
 11
130.9364118304
 21
360.4431327948
  0
LINE
  5
277
100
AcDbEntity
  8
0
100
AcDbLine
 62
7
  6
CONTINUOUS
 10
130.9364118304
 20
361.4005794891
 11
130.9364118304
 21
363.7941966721
  0
LINE
  5
278
100
AcDbEntity
  8
0
100
AcDbLine
 62
7
  6
CONTINUOUS
 10
134.8426616813
 20
362.8367499777
 11
134.8426616813
 21
362.3580261835
  0
LINE
  5
279
100
AcDbEntity
  8
0
100
AcDbLine
 62
7
  6
CONTINUOUS
 10
135.7801616813
 20
362.1984517344
 11
135.7801616813
 21
362.8367499777
  0
LINE
  5
27A
100
AcDbEntity
  8
0
100
AcDbLine
 62
7
  6
CONTINUOUS
 10
137.1864116813
 20
364.5920689174
 11
137.1864116813
 21
359.6452603259
  0
LINE
  5
27B
100
AcDbEntity
  8
0
100
AcDbLine
 62
7
  6
CONTINUOUS
 10
138.1239121284
 20
359.6452603259
 11
138.1239121284
 21
364.5920689174
  0
LINE
  5
27C
100
AcDbEntity
  8
0
100
AcDbLine
 62
7
  6
CONTINUOUS
 10
140.7801618304
 20
261.4963244268
 11
140.7801618304
 21
263.0920689174
  0
LINE
  5
27D
100
AcDbEntity
  8
0
100
AcDbLine
 62
7
  6
CONTINUOUS
 10
142.6551618304
 20
358.8473880806
 11
142.8114121284
 21
359.6452603259
  0
LINE
  5
27E
100
AcDbEntity
  8
0
100
AcDbLine
 62
7
  6
CONTINUOUS
 10
150.1551618304
 20
358.8473880806
 11
150.3114112343
 21
359.6452603259
  0
LINE
  5
27F
100
AcDbEntity
  8
0
100
AcDbLine
 62
7
  6
CONTINUOUS
 10
141.8739121284
 20
359.6452603259
 11
141.7176618304
 21
359.0069625297
  0
LINE
  5
280
100
AcDbEntity
  8
0
100
AcDbLine
 62
7
  6
CONTINUOUS
 10
149.3739112343
 20
359.6452603259
 11
149.2176618304
 21
359.0069625297
  0
LINE
  5
281
100
AcDbEntity
  8
0
100
AcDbLine
 62
7
  6
CONTINUOUS
 10
172.0003254241
 20
345.9389366009
 11
172.8122502027
 21
346.7508613794
  0
LINE
  5
282
100
AcDbEntity
  8
0
100
AcDbLine
 62
7
  6
CONTINUOUS
 10
176.5354746117
 20
350.4740857885
 11
177.3473993903
 21
351.2860105671
  0
LINE
  5
283
100
AcDbEntity
  8
0
100
AcDbLine
 62
7
  6
CONTINUOUS
 10
99.3307937603
 20
346.5494467779
 11
104.6340946192
 21
341.246145919
  0
LINE
  5
284
100
AcDbEntity
  8
0
100
AcDbLine
 62
7
  6
CONTINUOUS
 10
105.2970072266
 20
341.9090585263
 11
102.9274472347
 21
344.2786185182
  0
LINE
  5
285
100
AcDbEntity
  8
0
100
AcDbLine
 62
7
  6
CONTINUOUS
 10
102.2504301845
 20
344.9556355684
 11
100.5578872428
 21
346.64817851
  0
LINE
  5
286
100
AcDbEntity
  8
0
100
AcDbLine
 62
7
  6
CONTINUOUS
 10
103.9970403678
 20
348.7332975346
 11
104.335549209
 21
348.3947886934
  0
LINE
  5
287
100
AcDbEntity
  8
0
100
AcDbLine
 62
7
  6
CONTINUOUS
 10
105.1112979914
 20
348.9448651257
 11
104.6599529752
 21
349.3962101419
  0
LINE
  5
288
100
AcDbEntity
  8
0
100
AcDbLine
 62
7
  6
CONTINUOUS
 10
105.9857775577
 20
350.7220347245
 11
106.4371225739
 21
350.2706897082
  0
LINE
  5
289
100
AcDbEntity
  8
0
100
AcDbLine
 62
7
  6
CONTINUOUS
 10
141.8739121284
 20
364.5920689174
 11
141.8739121284
 21
359.6452603259
  0
LINE
  5
28A
100
AcDbEntity
  8
0
100
AcDbLine
 62
7
  6
CONTINUOUS
 10
142.8114121284
 20
359.6452603259
 11
142.8114121284
 21
364.5920689174
  0
LINE
  5
28B
100
AcDbEntity
  8
0
100
AcDbLine
 62
7
  6
CONTINUOUS
 10
143.2801621284
 20
258.3048345515
 11
143.2801621284
 21
257.028238959
  0
LINE
  5
28C
100
AcDbEntity
  8
0
100
AcDbLine
 62
7
  6
CONTINUOUS
 10
144.0614118304
 20
364.5920689174
 11
144.0614118304
 21
357.0920689174
  0
LINE
  5
28D
100
AcDbEntity
  8
0
100
AcDbLine
 62
7
  6
CONTINUOUS
 10
144.9989118304
 20
358.0495157235
 11
144.9989118304
 21
363.634622223
  0
LINE
  5
28E
100
AcDbEntity
  8
0
100
AcDbLine
 62
7
  6
CONTINUOUS
 10
145.7801624264
 20
260.8580266305
 11
145.7801624264
 21
258.3048345515
  0
LINE
  5
28F
100
AcDbEntity
  8
0
100
AcDbLine
 62
7
  6
CONTINUOUS
 10
145.7801624264
 20
257.028238959
 11
145.7801624264
 21
250.6452603259
  0
LINE
  5
290
100
AcDbEntity
  8
0
100
AcDbLine
 62
7
  6
CONTINUOUS
 10
147.3426618304
 20
251.2835583457
 11
147.3426618304
 21
257.028238959
  0
LINE
  5
291
100
AcDbEntity
  8
0
100
AcDbLine
 62
7
  6
CONTINUOUS
 10
147.3426618304
 20
258.3048345515
 11
147.3426618304
 21
260.8580266305
  0
LINE
  5
292
100
AcDbEntity
  8
0
100
AcDbLine
 62
7
  6
CONTINUOUS
 10
149.3739112343
 20
362.0388772854
 11
149.3739112343
 21
359.6452603259
  0
LINE
  5
293
100
AcDbEntity
  8
0
100
AcDbLine
 62
7
  6
CONTINUOUS
 10
150.1551618304
 20
248.0920689174
 11
150.1551618304
 21
249.3686646217
  0
LINE
  5
294
100
AcDbEntity
  8
0
100
AcDbLine
 62
7
  6
CONTINUOUS
 10
150.3114112343
 20
359.6452603259
 11
150.3114112343
 21
362.0388772854
  0
LINE
  5
295
100
AcDbEntity
  8
0
100
AcDbLine
 62
7
  6
CONTINUOUS
 10
150.7801612343
 20
257.028238959
 11
150.7801612343
 21
258.3048345515
  0
LINE
  5
296
100
AcDbEntity
  8
0
100
AcDbLine
 62
7
  6
CONTINUOUS
 10
178.3034103882
 20
344.1768238724
 11
179.1153351668
 21
344.988748651
  0
LINE
  5
297
100
AcDbEntity
  8
0
100
AcDbLine
 62
7
  6
CONTINUOUS
 10
176.5703254241
 20
341.3689366009
 11
177.3822502027
 21
342.1808613794
  0
LINE
  5
298
100
AcDbEntity
  8
0
100
AcDbLine
 62
7
  6
CONTINUOUS
 10
181.1054746117
 20
345.9040857885
 11
181.9173993903
 21
346.7160105671
  0
LINE
  5
299
100
AcDbEntity
  8
0
100
AcDbLine
 62
7
  6
CONTINUOUS
 10
100.8634852696
 20
338.8295708278
 11
94.6904055088
 21
341.9090585263
  0
LINE
  5
29A
100
AcDbEntity
  8
0
100
AcDbLine
 62
7
  6
CONTINUOUS
 10
94.0274929014
 20
341.246145919
 11
101.0985607659
 21
337.7106120657
  0
LINE
  5
29B
100
AcDbEntity
  8
0
100
AcDbLine
 62
7
  6
CONTINUOUS
 10
108.2495543862
 20
347.795346553
 11
108.8113840994
 21
347.4544868659
  0
LINE
  5
29C
100
AcDbEntity
  8
0
100
AcDbLine
 62
7
  6
CONTINUOUS
 10
106.4371225739
 20
350.2706897082
 11
106.9989535516
 21
349.9298312856
  0
LINE
  5
29D
100
AcDbEntity
  8
0
100
AcDbLine
 62
7
  6
CONTINUOUS
 10
106.9871990063
 20
351.0464384906
 11
106.7615266562
 21
351.2721108407
  0
LINE
  5
29E
100
AcDbEntity
  8
0
100
AcDbLine
 62
7
  6
CONTINUOUS
 10
111.4489307182
 20
351.4460675852
 11
111.7874392433
 21
351.1075590601
  0
LINE
  5
29F
100
AcDbEntity
  8
0
100
AcDbLine
 62
7
  6
CONTINUOUS
 10
112.5631880257
 20
351.6576354924
 11
111.9990071505
 21
352.2218163676
  0
LINE
  5
2A0
100
AcDbEntity
  8
0
100
AcDbLine
 62
7
  6
CONTINUOUS
 10
135.9364119794
 20
357.0920689174
 11
134.5301619794
 21
360.7622816929
  0
LINE
  5
2A1
100
AcDbEntity
  8
0
100
AcDbLine
 62
7
  6
CONTINUOUS
 10
133.5926617559
 20
360.4431327948
 11
134.8426616813
 21
357.0920689174
  0
LINE
  5
2A2
100
AcDbEntity
  8
0
100
AcDbLine
 62
7
  6
CONTINUOUS
 10
134.6864118304
 20
363.3154733249
 11
134.8426616813
 21
362.8367499777
  0
LINE
  5
2A3
100
AcDbEntity
  8
0
100
AcDbLine
 62
7
  6
CONTINUOUS
 10
135.7801616813
 20
362.8367499777
 11
135.6239118304
 21
363.3154733249
  0
LINE
  5
2A4
100
AcDbEntity
  8
0
100
AcDbLine
 62
7
  6
CONTINUOUS
 10
138.2801615323
 20
359.0069625297
 11
138.1239121284
 21
359.6452603259
  0
LINE
  5
2A5
100
AcDbEntity
  8
0
100
AcDbLine
 62
7
  6
CONTINUOUS
 10
137.1864116813
 20
359.6452603259
 11
137.3426619794
 21
358.8473880806
  0
LINE
  5
2A6
100
AcDbEntity
  8
KONSTRUKTIONSELEMENTE
100
AcDbLine
 62
7
  6
CONTINUOUS
 10
158.1551618304
 20
241.8920689174
 11
158.1551618304
 21
190.6420689174
  0
LINE
  5
2A7
100
AcDbEntity
  8
0
100
AcDbLine
 62
7
  6
CONTINUOUS
 10
138.9051618304
 20
261.4963244268
 11
132.6551617559
 21
248.0920689174
  0
LINE
  5
2A8
100
AcDbEntity
  8
0
100
AcDbLine
 62
7
  6
CONTINUOUS
 10
134.5301619794
 20
248.0920689174
 11
140.7801618304
 21
261.4963244268
  0
LINE
  5
2A9
100
AcDbEntity
  8
0
100
AcDbLine
 62
7
  6
CONTINUOUS
 10
108.8113840994
 20
347.4544868659
 11
109.707022029
 21
347.2217628081
  0
LINE
  5
2AA
100
AcDbEntity
  8
0
100
AcDbLine
 62
7
  6
CONTINUOUS
 10
108.8325409218
 20
345.4445922215
 11
105.2429396688
 21
347.0454556524
  0
LINE
  5
2AB
100
AcDbEntity
  8
0
100
AcDbLine
 62
7
  6
CONTINUOUS
 10
104.8056994115
 20
346.156870695
 11
108.0591433013
 21
344.6711946011
  0
LINE
  5
2AC
100
AcDbEntity
  8
0
100
AcDbLine
 62
7
  6
CONTINUOUS
 10
103.5480461974
 20
348.9613204144
 11
103.9970403678
 21
348.7332975346
  0
LINE
  5
2AD
100
AcDbEntity
  8
0
100
AcDbLine
 62
7
  6
CONTINUOUS
 10
104.6599529752
 20
349.3962101419
 11
104.2109588048
 21
349.6242330217
  0
LINE
  5
2AE
100
AcDbEntity
  8
0
100
AcDbLine
 62
7
  6
CONTINUOUS
 10
109.3614611639
 20
348.2302362805
 11
108.9124663613
 21
348.4582585282
  0
LINE
  5
2AF
100
AcDbEntity
  8
0
100
AcDbLine
 62
7
  6
CONTINUOUS
 10
107.4361938089
 20
350.818416243
 11
106.9871990063
 21
351.0464384906
  0
LINE
  5
2B0
100
AcDbEntity
  8
0
100
AcDbLine
 62
7
  6
CONTINUOUS
 10
109.410826872
 20
354.1470840388
 11
108.9618320694
 21
354.3751062864
  0
LINE
  5
2B1
100
AcDbEntity
  8
0
100
AcDbLine
 62
7
  6
CONTINUOUS
 10
135.6239118304
 20
363.3154733249
 11
135.1551618304
 21
363.9537711212
  0
LINE
  5
2B2
100
AcDbEntity
  8
0
100
AcDbLine
 62
7
  6
CONTINUOUS
 10
138.5926621284
 20
358.5282391825
 11
138.2801615323
 21
359.0069625297
  0
LINE
  5
2B3
100
AcDbEntity
  8
0
100
AcDbLine
 62
7
  6
CONTINUOUS
 10
137.3426619794
 20
358.8473880806
 11
137.6551621284
 21
358.2090901726
  0
LINE
  5
2B4
100
AcDbEntity
  8
0
100
AcDbLine
 62
7
  6
CONTINUOUS
 10
149.2176618304
 20
362.6771750816
 11
149.3739112343
 21
362.0388772854
  0
LINE
  5
2B5
100
AcDbEntity
  8
0
100
AcDbLine
 62
7
  6
CONTINUOUS
 10
150.3114112343
 20
362.0388772854
 11
150.1551618304
 21
362.8367499777
  0
LINE
  5
2B6
100
AcDbEntity
  8
KONSTRUKTIONSELEMENTE
100
AcDbLine
 62
7
  6
CONTINUOUS
 10
166.5551618304
 20
242.0920689174
 11
166.5551618304
 21
241.8920689174
  0
LINE
  5
2B7
100
AcDbEntity
  8
0
100
AcDbLine
 62
7
  6
CONTINUOUS
 10
110.0314260718
 20
348.2231839801
 11
109.3614611639
 21
348.2302362805
  0
LINE
  5
2B8
100
AcDbEntity
  8
0
100
AcDbLine
 62
7
  6
CONTINUOUS
 10
103.1014031889
 20
348.9660221061
 11
103.5480461974
 21
348.9613204144
  0
LINE
  5
2B9
100
AcDbEntity
  8
0
100
AcDbLine
 62
7
  6
CONTINUOUS
 10
106.9989535516
 20
349.9298312856
 11
107.8922395685
 21
349.9204279022
  0
LINE
  5
2BA
100
AcDbEntity
  8
0
100
AcDbLine
 62
7
  6
CONTINUOUS
 10
104.2109588048
 20
349.6242330217
 11
103.4281578009
 21
349.7441214182
  0
LINE
  5
2BB
100
AcDbEntity
  8
0
100
AcDbLine
 62
7
  6
CONTINUOUS
 10
108.9618320694
 20
354.3751062864
 11
108.1790310656
 21
354.4949946828
  0
LINE
  5
2BC
100
AcDbEntity
  8
0
100
AcDbLine
 62
7
  6
CONTINUOUS
 10
110.8894507445
 20
351.5636049777
 11
111.4489307182
 21
351.4460675852
  0
LINE
  5
2BD
100
AcDbEntity
  8
0
100
AcDbLine
 62
7
  6
CONTINUOUS
 10
111.9990071505
 20
352.2218163676
 11
111.3266910018
 21
352.4521899352
  0
LINE
  5
2BE
100
AcDbEntity
  8
0
100
AcDbLine
 62
7
  6
CONTINUOUS
 10
108.4117556371
 20
353.599357504
 11
108.7479142646
 21
353.4841714314
  0
LINE
  5
2BF
100
AcDbEntity
  8
0
100
AcDbLine
 62
7
  6
CONTINUOUS
 10
139.0614121284
 20
358.2090901726
 11
138.5926621284
 21
358.5282391825
  0
LINE
  5
2C0
100
AcDbEntity
  8
0
100
AcDbLine
 62
7
  6
CONTINUOUS
 10
135.1551618304
 20
363.9537711212
 11
134.5301619794
 21
364.4324944683
  0
LINE
  5
2C1
100
AcDbEntity
  8
0
100
AcDbLine
 62
7
  6
CONTINUOUS
 10
137.6551621284
 20
358.2090901726
 11
138.2801615323
 21
357.5707923205
  0
LINE
  5
2C2
100
AcDbEntity
  8
0
100
AcDbLine
 62
7
  6
CONTINUOUS
 10
134.3739116813
 20
363.634622223
 11
134.6864118304
 21
363.3154733249
  0
LINE
  5
2C3
100
AcDbEntity
  8
0
100
AcDbLine
 62
7
  6
CONTINUOUS
 10
148.9051612343
 20
363.1558988758
 11
149.2176618304
 21
362.6771750816
  0
LINE
  5
2C4
100
AcDbEntity
  8
0
100
AcDbLine
 62
7
  6
CONTINUOUS
 10
150.1551618304
 20
362.8367499777
 11
149.8426612343
 21
363.475047774
  0
LINE
  5
2C5
100
AcDbEntity
  8
0
100
AcDbLine
 62
7
  6
CONTINUOUS
 10
148.4364112343
 20
358.2090901726
 11
147.8114118304
 21
358.0495157235
  0
LINE
  5
2C6
100
AcDbEntity
  8
0
100
AcDbLine
 62
7
  6
CONTINUOUS
 10
140.9364121284
 20
358.2090901726
 11
140.3114118304
 21
358.0495157235
  0
LINE
  5
2C7
100
AcDbEntity
  8
0
100
AcDbLine
 62
7
  6
CONTINUOUS
 10
109.707022029
 20
347.2217628081
 11
110.5979569136
 21
347.4356805832
  0
LINE
  5
2C8
100
AcDbEntity
  8
0
100
AcDbLine
 62
7
  6
CONTINUOUS
 10
147.8114118304
 20
357.0920689174
 11
148.5926624264
 21
357.2516433804
  0
LINE
  5
2C9
100
AcDbEntity
  8
0
100
AcDbLine
 62
7
  6
CONTINUOUS
 10
140.3114118304
 20
357.0920689174
 11
141.0926615323
 21
357.2516433804
  0
LINE
  5
2CA
100
AcDbEntity
  8
0
100
AcDbLine
 62
7
  6
CONTINUOUS
 10
107.9933224626
 20
350.9242001966
 11
107.4361938089
 21
350.818416243
  0
LINE
  5
2CB
100
AcDbEntity
  8
0
100
AcDbLine
 62
7
  6
CONTINUOUS
 10
110.3323220907
 20
351.4578210241
 11
110.8894507445
 21
351.5636049777
  0
LINE
  5
2CC
100
AcDbEntity
  8
0
100
AcDbLine
 62
7
  6
CONTINUOUS
 10
103.4281578009
 20
349.7441214182
 11
102.6477073268
 21
349.6406879943
  0
LINE
  5
2CD
100
AcDbEntity
  8
0
100
AcDbLine
 62
7
  6
CONTINUOUS
 10
108.1790310656
 20
354.4949946828
 11
107.3985812237
 21
354.3915618912
  0
LINE
  5
2CE
100
AcDbEntity
  8
0
100
AcDbLine
 62
7
  6
CONTINUOUS
 10
129.9989118304
 20
357.0920689174
 11
130.9364118304
 21
357.0920689174
  0
LINE
  5
2CF
100
AcDbEntity
  8
0
100
AcDbLine
 62
7
  6
CONTINUOUS
 10
134.8426616813
 20
357.0920689174
 11
135.9364119794
 21
357.0920689174
  0
LINE
  5
2D0
100
AcDbEntity
  8
0
100
AcDbLine
 62
7
  6
CONTINUOUS
 10
139.6864115323
 20
357.0920689174
 11
140.3114118304
 21
357.0920689174
  0
LINE
  5
2D1
100
AcDbEntity
  8
0
100
AcDbLine
 62
7
  6
CONTINUOUS
 10
144.0614118304
 20
357.0920689174
 11
147.8114118304
 21
357.0920689174
  0
LINE
  5
2D2
100
AcDbEntity
  8
0
100
AcDbLine
 62
7
  6
CONTINUOUS
 10
147.8114118304
 20
358.0495157235
 11
144.9989118304
 21
358.0495157235
  0
LINE
  5
2D3
100
AcDbEntity
  8
0
100
AcDbLine
 62
7
  6
CONTINUOUS
 10
140.3114118304
 20
358.0495157235
 11
139.6864115323
 21
358.0495157235
  0
LINE
  5
2D4
100
AcDbEntity
  8
0
100
AcDbLine
 62
7
  6
CONTINUOUS
 10
130.9364118304
 20
360.4431327948
 11
133.5926617559
 21
360.4431327948
  0
LINE
  5
2D5
100
AcDbEntity
  8
0
100
AcDbLine
 62
7
  6
CONTINUOUS
 10
133.9051616813
 20
361.4005794891
 11
130.9364118304
 21
361.4005794891
  0
LINE
  5
2D6
100
AcDbEntity
  8
0
100
AcDbLine
 62
7
  6
CONTINUOUS
 10
144.9989118304
 20
363.634622223
 11
147.8114118304
 21
363.634622223
  0
LINE
  5
2D7
100
AcDbEntity
  8
0
100
AcDbLine
 62
7
  6
CONTINUOUS
 10
111.3266910018
 20
352.4521899352
 11
110.4334049848
 21
352.4615933186
  0
LINE
  5
2D8
100
AcDbEntity
  8
0
100
AcDbLine
 62
7
  6
CONTINUOUS
 10
107.9651132608
 20
353.6040598279
 11
108.4117556371
 21
353.599357504
  0
LINE
  5
2D9
100
AcDbEntity
  8
0
100
AcDbLine
 62
7
  6
CONTINUOUS
 10
138.9051618304
 20
357.2516433804
 11
139.6864115323
 21
357.0920689174
  0
LINE
  5
2DA
100
AcDbEntity
  8
0
100
AcDbLine
 62
7
  6
CONTINUOUS
 10
134.5301619794
 20
364.4324944683
 11
133.7489118304
 21
364.5920689174
  0
LINE
  5
2DB
100
AcDbEntity
  8
0
100
AcDbLine
 62
7
  6
CONTINUOUS
 10
139.6864115323
 20
358.0495157235
 11
139.0614121284
 21
358.2090901726
  0
LINE
  5
2DC
100
AcDbEntity
  8
0
100
AcDbLine
 62
7
  6
CONTINUOUS
 10
133.9051616813
 20
363.7941966721
 11
134.3739116813
 21
363.634622223
  0
LINE
  5
2DD
100
AcDbEntity
  8
0
100
AcDbLine
 62
7
  6
CONTINUOUS
 10
138.2801615323
 20
357.5707923205
 11
138.9051618304
 21
357.2516433804
  0
LINE
  5
2DE
100
AcDbEntity
  8
0
100
AcDbLine
 62
7
  6
CONTINUOUS
 10
149.2176618304
 20
364.1133455702
 11
148.5926624264
 21
364.4324944683
  0
LINE
  5
2DF
100
AcDbEntity
  8
0
100
AcDbLine
 62
7
  6
CONTINUOUS
 10
148.4364112343
 20
363.475047774
 11
148.9051612343
 21
363.1558988758
  0
LINE
  5
2E0
100
AcDbEntity
  8
0
100
AcDbLine
 62
7
  6
CONTINUOUS
 10
176.7348984025
 20
345.7453358581
 11
178.3034103882
 21
344.1768238724
  0
LINE
  5
2E1
100
AcDbEntity
  8
0
100
AcDbLine
 62
7
  6
CONTINUOUS
 10
179.1153351668
 20
344.988748651
 11
177.5481103304
 21
346.5559734874
  0
LINE
  5
2E2
100
AcDbEntity
  8
0
100
AcDbLine
 62
7
  6
CONTINUOUS
 10
149.8426612343
 20
363.475047774
 11
149.2176618304
 21
364.1133455702
  0
LINE
  5
2E3
100
AcDbEntity
  8
0
100
AcDbLine
 62
7
  6
CONTINUOUS
 10
130.9364118304
 20
363.7941966721
 11
133.9051616813
 21
363.7941966721
  0
LINE
  5
2E4
100
AcDbEntity
  8
0
100
AcDbLine
 62
7
  6
CONTINUOUS
 10
147.8114118304
 20
364.5920689174
 11
144.0614118304
 21
364.5920689174
  0
LINE
  5
2E5
100
AcDbEntity
  8
0
100
AcDbLine
 62
7
  6
CONTINUOUS
 10
142.8114121284
 20
364.5920689174
 11
141.8739121284
 21
364.5920689174
  0
LINE
  5
2E6
100
AcDbEntity
  8
0
100
AcDbLine
 62
7
  6
CONTINUOUS
 10
138.1239121284
 20
364.5920689174
 11
137.1864116813
 21
364.5920689174
  0
LINE
  5
2E7
100
AcDbEntity
  8
0
100
AcDbLine
 62
7
  6
CONTINUOUS
 10
133.7489118304
 20
364.5920689174
 11
129.9989118304
 21
364.5920689174
  0
LINE
  5
2E8
100
AcDbEntity
  8
0
100
AcDbLine
 62
7
  6
CONTINUOUS
 10
148.5926624264
 20
364.4324944683
 11
147.8114118304
 21
364.5920689174
  0
LINE
  5
2E9
100
AcDbEntity
  8
0
100
AcDbLine
 62
7
  6
CONTINUOUS
 10
147.8114118304
 20
363.634622223
 11
148.4364112343
 21
363.475047774
  0
LINE
  5
2EA
100
AcDbEntity
  8
RUNDUNGEN
100
AcDbLine
 62
7
  6
CONTINUOUS
 10
142.3053695276
 20
377.2666815146
 11
185.3127264063
 21
360.7577039669
  0
LINE
  5
2EB
100
AcDbEntity
  8
BEZUGSACHSEN
100
AcDbLine
 62
7
  6
CONTINUOUS
 10
207.4353050788
 20
307.6234194895
 11
185.6842690027
 21
255.3738855547
  0
LINE
  5
2EC
100
AcDbEntity
  8
RUNDUNGEN
100
AcDbLine
 62
7
  6
CONTINUOUS
 10
188.7057959041
 20
357.4523220021
 11
207.0484037787
 21
313.1693493019
  0
LINE
  5
2ED
100
AcDbEntity
  8
BEZUGSACHSEN
100
AcDbLine
 62
7
  6
CONTINUOUS
 10
207.0484037787
 20
313.1693493019
 11
207.439383194
 21
312.2254414948
  0
LINE
  5
2EE
100
AcDbEntity
  8
KONSTRUKTIONSELEMENTE
100
AcDbLine
 62
7
  6
CONTINUOUS
 10
158.1551618304
 20
190.6420689174
 11
155.4051618304
 21
187.8920689174
  0
LINE
  5
2EF
100
AcDbEntity
  8
KONSTRUKTIONSELEMENTE
100
AcDbLine
 62
7
  6
CONTINUOUS
 10
336.0011580235
 20
187.8920689174
 11
366.5011580235
 21
187.8920689174
  0
LINE
  5
2F0
100
AcDbEntity
  8
KONSTRUKTIONSELEMENTE
100
AcDbLine
 62
7
  6
CONTINUOUS
 10
333.2511580235
 20
190.6420689174
 11
369.2511580235
 21
190.6420689174
  0
LINE
  5
2F1
100
AcDbEntity
  8
KONSTRUKTIONSELEMENTE
100
AcDbLine
 62
7
  6
CONTINUOUS
 10
333.2511580235
 20
190.6420689174
 11
336.0011580235
 21
187.8920689174
  0
LINE
  5
2F2
100
AcDbEntity
  8
BEZUGSACHSEN
100
AcDbLine
 62
7
  6
CONTINUOUS
 10
302.8673201703
 20
267.160871092
 11
304.5526732137
 21
263.0920689174
  0
LINE
  5
2F3
100
AcDbEntity
  8
BEZUGSACHSEN
100
AcDbLine
 62
7
  6
CONTINUOUS
 10
310.4466623816
 20
248.8627203317
 11
313.2511580235
 21
242.0920689174
  0
LINE
  5
2F4
100
AcDbEntity
  8
0
100
AcDbLine
 62
7
  6
CONTINUOUS
 10
305.2281868707
 20
260.1560718732
 11
304.6763106121
 21
261.4963244268
  0
LINE
  5
2F5
100
AcDbEntity
  8
KONSTRUKTIONSELEMENTE
100
AcDbLine
 62
7
  6
CONTINUOUS
 10
324.8514673574
 20
241.8920689174
 11
377.6508486896
 21
241.8920689174
  0
LINE
  5
2F6
100
AcDbEntity
  8
BEZUGSACHSEN
100
AcDbLine
 62
7
  6
CONTINUOUS
 10
313.2511580506
 20
242.0920689174
 11
389.2511579964
 21
242.0920689174
  0
LINE
  5
2F7
100
AcDbEntity
  8
KONSTRUKTIONSELEMENTE
100
AcDbLine
 62
7
  6
CONTINUOUS
 10
324.8511580235
 20
242.0920689174
 11
324.8511580235
 21
241.8920689174
  0
LINE
  5
2F8
100
AcDbEntity
  8
0
100
AcDbLine
 62
7
  6
CONTINUOUS
 10
311.9024495004
 20
248.0920689174
 11
311.3471980401
 21
248.0920689174
  0
LINE
  5
2F9
100
AcDbEntity
  8
0
100
AcDbLine
 62
7
  6
CONTINUOUS
 10
310.7658766493
 20
248.0920689174
 11
310.5765874553
 21
248.0920689174
  0
LINE
  5
2FA
100
AcDbEntity
  8
0
100
AcDbLine
 62
7
  6
CONTINUOUS
 10
391.1011393755
 20
248.0920689174
 11
391.9257285917
 21
248.0920689174
  0
LINE
  5
2FB
100
AcDbEntity
  8
0
100
AcDbLine
 62
7
  6
CONTINUOUS
 10
311.3597884145
 20
249.3686646217
 11
310.8048811561
 21
249.3686646217
  0
LINE
  5
2FC
100
AcDbEntity
  8
0
100
AcDbLine
 62
7
  6
CONTINUOUS
 10
310.8984900664
 20
249.6878136316
 11
310.3477159517
 21
249.6878136316
  0
LINE
  5
2FD
100
AcDbEntity
  8
0
100
AcDbLine
 62
7
  6
CONTINUOUS
 10
310.462535517
 20
250.3261114278
 11
309.9139129936
 21
250.3261114278
  0
LINE
  5
2FE
100
AcDbEntity
  8
0
100
AcDbLine
 62
7
  6
CONTINUOUS
 10
310.0097949468
 20
251.2835583457
 11
309.461912469
 21
251.2835583457
  0
LINE
  5
2FF
100
AcDbEntity
  8
KONSTRUKTIONSELEMENTE
100
AcDbLine
 62
7
  6
CONTINUOUS
 10
333.2511580235
 20
241.8920689174
 11
333.2511580235
 21
190.6420689174
  0
LINE
  5
300
100
AcDbEntity
  8
BEZUGSACHSEN
100
AcDbLine
 62
7
  6
CONTINUOUS
 10
336.7511580235
 20
297.4386524443
 11
336.7511580235
 21
372.6651989556
  0
LINE
  5
301
100
AcDbEntity
  8
0
100
AcDbLine
 62
7
  6
CONTINUOUS
 10
306.6232516398
 20
257.028238959
 11
306.8479408106
 21
257.028238959
  0
LINE
  5
302
100
AcDbEntity
  8
0
100
AcDbLine
 62
7
  6
CONTINUOUS
 10
307.0545027434
 20
257.028238959
 11
308.2472851566
 21
257.028238959
  0
LINE
  5
303
100
AcDbEntity
  8
0
100
AcDbLine
 62
7
  6
CONTINUOUS
 10
307.70518259
 20
258.3048345515
 11
306.5198989616
 21
258.3048345515
  0
LINE
  5
304
100
AcDbEntity
  8
0
100
AcDbLine
 62
7
  6
CONTINUOUS
 10
306.315616786
 20
258.3048345515
 11
306.0933819896
 21
258.3048345515
  0
LINE
  5
305
100
AcDbEntity
  8
0
100
AcDbLine
 62
7
  6
CONTINUOUS
 10
305.9979052679
 20
260.8580266305
 11
305.2511957628
 21
260.8580266305
  0
LINE
  5
306
100
AcDbEntity
  8
0
100
AcDbLine
 62
7
  6
CONTINUOUS
 10
305.2175483944
 20
261.4963244268
 11
304.6763106121
 21
261.4963244268
  0
LINE
  5
307
100
AcDbEntity
  8
0
100
AcDbLine
 62
7
  6
CONTINUOUS
 10
396.1510964759
 20
261.4963244268
 11
397.8144448361
 21
261.4963244268
  0
LINE
  5
308
100
AcDbEntity
  8
0
100
AcDbLine
 62
7
  6
CONTINUOUS
 10
304.5565180257
 20
263.0920689174
 11
304.0152813283
 21
263.0920689174
  0
LINE
  5
309
100
AcDbEntity
  8
0
100
AcDbLine
 62
7
  6
CONTINUOUS
 10
396.8274212438
 20
263.0920689174
 11
398.4907697504
 21
263.0920689174
  0
LINE
  5
30A
100
AcDbEntity
  8
0
100
AcDbLine
 62
7
  6
CONTINUOUS
 10
385.5565427036
 20
276.7852320866
 11
385.0591517165
 21
276.9185075999
  0
LINE
  5
30B
100
AcDbEntity
  8
RUNDUNGEN
100
AcDbLine
 62
7
  6
CONTINUOUS
 10
396.3095414844
 20
273.903974747
 11
380.5747940695
 21
278.12008761
  0
LINE
  5
30C
100
AcDbEntity
  8
RUNDUNGEN
100
AcDbLine
 62
7
  6
CONTINUOUS
 10
365.7511580235
 20
297.4386524443
 11
365.7511580235
 21
372.6651989556
  0
LINE
  5
30D
100
AcDbEntity
  8
0
100
AcDbLine
 62
7
  6
CONTINUOUS
 10
366.2511580235
 20
364.5920689174
 11
366.2511580235
 21
357.0920689174
  0
LINE
  5
30E
100
AcDbEntity
  8
0
100
AcDbLine
 62
7
  6
CONTINUOUS
 10
366.2511580235
 20
354.4949946828
 11
366.2511580235
 21
337.7106120657
  0
LINE
  5
30F
100
AcDbEntity
  8
KONSTRUKTIONSELEMENTE
100
AcDbLine
 62
7
  6
CONTINUOUS
 10
369.2511580235
 20
241.8920689174
 11
369.2511580235
 21
190.6420689174
  0
LINE
  5
310
100
AcDbEntity
  8
KONSTRUKTIONSELEMENTE
100
AcDbLine
 62
7
  6
CONTINUOUS
 10
377.6511580235
 20
242.0920689174
 11
377.6511580235
 21
241.8920689174
  0
LINE
  5
311
100
AcDbEntity
  8
0
100
AcDbLine
 62
7
  6
CONTINUOUS
 10
317.4431629085
 20
276.9185072189
 11
316.945773344
 21
276.7852320868
  0
LINE
  5
312
100
AcDbEntity
  8
BEZUGSACHSEN
100
AcDbLine
 62
7
  6
CONTINUOUS
 10
306.1927745625
 20
273.903974747
 11
321.9275219775
 21
278.12008761
  0
LINE
  5
313
100
AcDbEntity
  8
0
100
AcDbLine
 62
7
  6
CONTINUOUS
 10
389.2511580235
 20
242.0920689174
 11
391.7364393977
 21
248.0920689174
  0
LINE
  5
314
100
AcDbEntity
  8
0
100
AcDbLine
 62
7
  6
CONTINUOUS
 10
397.9496428333
 20
263.0920689174
 11
399.6349958767
 21
267.160871092
  0
LINE
  5
315
100
AcDbEntity
  8
0
100
AcDbLine
 62
7
  6
CONTINUOUS
 10
397.2746374676
 20
260.1558988439
 11
398.4908389335
 21
263.0920689174
  0
LINE
  5
316
100
AcDbEntity
  8
0
100
AcDbLine
 62
7
  6
CONTINUOUS
 10
365.7511580235
 20
337.7106120657
 11
366.2511580235
 21
337.7106120657
  0
LINE
  5
317
100
AcDbEntity
  8
0
100
AcDbLine
 62
7
  6
CONTINUOUS
 10
365.7511580235
 20
341.246145919
 11
366.2511580235
 21
341.246145919
  0
LINE
  5
318
100
AcDbEntity
  8
0
100
AcDbLine
 62
7
  6
CONTINUOUS
 10
365.7511580235
 20
341.9090585263
 11
366.2511580235
 21
341.9090585263
  0
LINE
  5
319
100
AcDbEntity
  8
0
100
AcDbLine
 62
7
  6
CONTINUOUS
 10
365.7511580235
 20
345.0026505887
 11
366.2511580235
 21
345.0026505887
  0
LINE
  5
31A
100
AcDbEntity
  8
0
100
AcDbLine
 62
7
  6
CONTINUOUS
 10
365.7511580235
 20
345.665563196
 11
366.2511580235
 21
345.665563196
  0
LINE
  5
31B
100
AcDbEntity
  8
0
100
AcDbLine
 62
7
  6
CONTINUOUS
 10
365.7511580235
 20
346.5494467779
 11
366.2511580235
 21
346.5494467779
  0
LINE
  5
31C
100
AcDbEntity
  8
0
100
AcDbLine
 62
7
  6
CONTINUOUS
 10
365.7511580235
 20
349.2010972073
 11
366.2511580235
 21
349.2010972073
  0
LINE
  5
31D
100
AcDbEntity
  8
0
100
AcDbLine
 62
7
  6
CONTINUOUS
 10
365.7511580235
 20
349.6406879943
 11
366.2511580235
 21
349.6406879943
  0
LINE
  5
31E
100
AcDbEntity
  8
0
100
AcDbLine
 62
7
  6
CONTINUOUS
 10
365.7511580235
 20
349.7441214182
 11
366.2511580235
 21
349.7441214182
  0
LINE
  5
31F
100
AcDbEntity
  8
0
100
AcDbLine
 62
7
  6
CONTINUOUS
 10
365.7511580235
 20
349.9204279022
 11
366.2511580235
 21
349.9204279022
  0
LINE
  5
320
100
AcDbEntity
  8
0
100
AcDbLine
 62
7
  6
CONTINUOUS
 10
365.7511580235
 20
349.9298312856
 11
366.2511580235
 21
349.9298312856
  0
LINE
  5
321
100
AcDbEntity
  8
0
100
AcDbLine
 62
7
  6
CONTINUOUS
 10
365.7511580235
 20
350.2706897082
 11
366.2511580235
 21
350.2706897082
  0
LINE
  5
322
100
AcDbEntity
  8
0
100
AcDbLine
 62
7
  6
CONTINUOUS
 10
365.7511580235
 20
350.7220347245
 11
366.2511580235
 21
350.7220347245
  0
LINE
  5
323
100
AcDbEntity
  8
0
100
AcDbLine
 62
7
  6
CONTINUOUS
 10
365.7511580235
 20
351.2838657021
 11
366.2511580235
 21
351.2838657021
  0
LINE
  5
324
100
AcDbEntity
  8
0
100
AcDbLine
 62
7
  6
CONTINUOUS
 10
365.7511580235
 20
352.177151719
 11
366.2511580235
 21
352.177151719
  0
LINE
  5
325
100
AcDbEntity
  8
0
100
AcDbLine
 62
7
  6
CONTINUOUS
 10
365.7511580235
 20
352.8447653859
 11
366.2511580235
 21
352.8447653859
  0
LINE
  5
326
100
AcDbEntity
  8
0
100
AcDbLine
 62
7
  6
CONTINUOUS
 10
365.7511580235
 20
353.3995441421
 11
366.2511580235
 21
353.3995441421
  0
LINE
  5
327
100
AcDbEntity
  8
0
100
AcDbLine
 62
7
  6
CONTINUOUS
 10
365.7511580235
 20
353.9519704719
 11
366.2511580235
 21
353.9519704719
  0
LINE
  5
328
100
AcDbEntity
  8
0
100
AcDbLine
 62
7
  6
CONTINUOUS
 10
365.7511580235
 20
354.3915618912
 11
366.2511580235
 21
354.3915618912
  0
LINE
  5
329
100
AcDbEntity
  8
0
100
AcDbLine
 62
7
  6
CONTINUOUS
 10
365.7511580235
 20
354.4949946828
 11
366.2511580235
 21
354.4949946828
  0
LINE
  5
32A
100
AcDbEntity
  8
0
100
AcDbLine
 62
7
  6
CONTINUOUS
 10
365.7511580235
 20
357.0920689174
 11
366.2511580235
 21
357.0920689174
  0
LINE
  5
32B
100
AcDbEntity
  8
0
100
AcDbLine
 62
7
  6
CONTINUOUS
 10
365.7511580235
 20
364.5920689174
 11
366.2511580235
 21
364.5920689174
  0
LINE
  5
32C
100
AcDbEntity
  8
RUNDUNGEN
100
AcDbLine
 62
7
  6
CONTINUOUS
 10
360.7511580235
 20
377.6651989556
 11
341.7511580235
 21
377.6651989556
  0
LINE
  5
32D
100
AcDbEntity
  8
KONSTRUKTIONSELEMENTE
100
AcDbLine
 62
7
  6
CONTINUOUS
 10
369.2511580235
 20
190.6420689174
 11
366.5011580235
 21
187.8920689174
  0
LWPOLYLINE
  5
32E
100
AcDbEntity
  8
BEZUGSACHSEN
100
AcDbPolyline
 62
7
  6
CONTINUOUS
 90
7
 70
0
 10
72.8183448369
 20
80.8436884808
 10
72.7050901263
 20
79.3400152411
 10
72.5977920582
 20
77.6104583773
 10
72.5153031749
 20
75.8871579921
 10
72.4574418488
 20
74.1722482733
 10
72.4239020988
 20
72.467930292
 10
72.4142247042
 20
70.9375009626
  0
LWPOLYLINE
  5
32F
100
AcDbEntity
  8
BEZUGSACHSEN
100
AcDbPolyline
 62
7
  6
CONTINUOUS
 90
17
 70
0
 10
90.101390788
 20
92.0381250317
 10
89.3963785876
 20
91.1847749722
 10
88.7366111954
 20
90.3972831234
 10
88.1169594634
 20
89.6725099612
 10
87.5308896703
 20
89.0051677556
 10
86.9804682041
 20
88.3992269145
 10
86.4655280296
 20
87.8550965683
 10
85.9879187699
 20
87.3742751948
 10
85.550315712
 20
86.95774698
 10
85.1510290344
 20
86.6012733105
 10
84.7911004758
 20
86.3024807321
 10
84.4674976347
 20
86.0551661957
 10
84.1786942413
 20
85.8545085643
 10
83.9263828314
 20
85.6977163409
 10
83.711931061
 20
85.5811433943
 10
83.5407953597
 20
85.5023155058
 10
83.5033956602
 20
85.4872385564
  0
LWPOLYLINE
  5
330
100
AcDbEntity
  8
BEZUGSACHSEN
100
AcDbPolyline
 62
7
  6
CONTINUOUS
 90
8
 70
0
 10
99.0678828504
 20
102.4310682211
 10
97.9242124858
 20
101.2198795972
 10
96.7251695468
 20
99.9060505289
 10
95.5869761644
 20
98.6189268176
 10
94.5126125172
 20
97.371203489
 10
93.5023578395
 20
96.1726631211
 10
92.5566679467
 20
95.0329198072
 10
90.101390788
 20
92.0381250317
  0
LWPOLYLINE
  5
331
100
AcDbEntity
  8
RUNDUNGEN
100
AcDbPolyline
 62
7
  6
CONTINUOUS
 90
7
 70
0
 10
72.4142247042
 20
70.9375009626
 10
72.4239020988
 20
69.4070716331
 10
72.4574418488
 20
67.7027536518
 10
72.5153031749
 20
65.987843933
 10
72.5977920582
 20
64.2645435478
 10
72.7050901263
 20
62.5349866841
 10
72.8183448369
 20
61.0313134444
  0
LWPOLYLINE
  5
332
100
AcDbEntity
  8
BEZUGSACHSEN
100
AcDbPolyline
 62
7
  6
CONTINUOUS
 90
4
 70
0
 10
83.5033956602
 20
85.4872385564
 10
83.4186524342
 20
85.4568441863
 10
83.3502749561
 20
85.4377755086
 10
83.3490297463
 20
85.4375009626
  0
LINE
  5
333
100
AcDbEntity
  8
0
100
AcDbLine
 62
7
  6
CONTINUOUS
 10
139.4884948458
 20
93.5757989972
 11
139.9884948458
 21
93.9162244886
  0
LINE
  5
334
100
AcDbEntity
  8
0
100
AcDbLine
 62
7
  6
CONTINUOUS
 10
139.8218278612
 20
94.7672882169
 11
139.1551608767
 21
94.4268627256
  0
LINE
  5
335
100
AcDbEntity
  8
0
100
AcDbLine
 62
7
  6
CONTINUOUS
 10
147.4884938921
 20
93.9162244886
 11
147.9884938921
 21
94.0864372342
  0
LINE
  5
336
100
AcDbEntity
  8
0
100
AcDbLine
 62
7
  6
CONTINUOUS
 10
142.4884948458
 20
91.7034583181
 11
141.4884948458
 21
91.3630328267
  0
LINE
  5
337
100
AcDbEntity
  8
0
100
AcDbLine
 62
7
  6
CONTINUOUS
 10
147.4884938921
 20
91.0226073354
 11
147.9884938921
 21
91.1928200811
  0
LINE
  5
338
100
AcDbEntity
  8
0
100
AcDbLine
 62
7
  6
CONTINUOUS
 10
94.0274929014
 20
56.4375009626
 11
94.0274929014
 21
55.9375009626
  0
LINE
  5
339
100
AcDbEntity
  8
0
100
AcDbLine
 62
7
  6
CONTINUOUS
 10
94.6904055088
 20
56.4375009626
 11
94.6904055088
 21
55.9375009626
  0
LINE
  5
33A
100
AcDbEntity
  8
0
100
AcDbLine
 62
7
  6
CONTINUOUS
 10
97.7839975711
 20
56.4375009626
 11
97.7839975711
 21
55.9375009626
  0
LINE
  5
33B
100
AcDbEntity
  8
0
100
AcDbLine
 62
7
  6
CONTINUOUS
 10
98.4469101784
 20
56.4375009626
 11
98.4469101784
 21
55.9375009626
  0
LINE
  5
33C
100
AcDbEntity
  8
0
100
AcDbLine
 62
7
  6
CONTINUOUS
 10
99.3307937603
 20
56.4375009626
 11
99.3307937603
 21
55.9375009626
  0
LINE
  5
33D
100
AcDbEntity
  8
0
100
AcDbLine
 62
7
  6
CONTINUOUS
 10
139.1551608767
 20
94.4268627256
 11
138.4884948458
 21
93.7460117429
  0
LINE
  5
33E
100
AcDbEntity
  8
0
100
AcDbLine
 62
7
  6
CONTINUOUS
 10
142.8218278612
 20
91.0226073354
 11
143.4884948458
 21
91.5332455724
  0
LINE
  5
33F
100
AcDbEntity
  8
0
100
AcDbLine
 62
7
  6
CONTINUOUS
 10
146.9884938921
 20
93.5757989972
 11
147.4884938921
 21
93.9162244886
  0
LINE
  5
340
100
AcDbEntity
  8
0
100
AcDbLine
 62
7
  6
CONTINUOUS
 10
147.3218278612
 20
91.8736710637
 11
146.3218278612
 21
91.1928200811
  0
LINE
  5
341
100
AcDbEntity
  8
0
100
AcDbLine
 62
7
  6
CONTINUOUS
 10
146.9884938921
 20
90.6821818441
 11
147.4884938921
 21
91.0226073354
  0
LINE
  5
342
100
AcDbEntity
  8
0
100
AcDbLine
 62
7
  6
CONTINUOUS
 10
143.1551608767
 20
87.4481392592
 11
143.6551608767
 21
87.7885648101
  0
LINE
  5
343
100
AcDbEntity
  8
0
100
AcDbLine
 62
7
  6
CONTINUOUS
 10
147.3218278612
 20
94.7672882169
 11
146.4884938921
 21
94.2566499799
  0
LINE
  5
344
100
AcDbEntity
  8
0
100
AcDbLine
 62
7
  6
CONTINUOUS
 10
149.8218278612
 20
87.1077137231
 11
150.6551618304
 21
87.6183520048
  0
LINE
  5
345
100
AcDbEntity
  8
0
100
AcDbLine
 62
7
  6
CONTINUOUS
 10
142.8218278612
 20
88.1289903014
 11
142.4884948458
 21
87.9587775558
  0
LINE
  5
346
100
AcDbEntity
  8
0
100
AcDbLine
 62
7
  6
CONTINUOUS
 10
142.4884948458
 20
87.1077137231
 11
143.1551608767
 21
87.4481392592
  0
LINE
  5
347
100
AcDbEntity
  8
0
100
AcDbLine
 62
7
  6
CONTINUOUS
 10
149.6551618304
 20
87.9587775558
 11
149.1551618304
 21
87.7885648101
  0
LINE
  5
348
100
AcDbEntity
  8
0
100
AcDbLine
 62
7
  6
CONTINUOUS
 10
101.9824441897
 20
56.4375009626
 11
101.9824441897
 21
55.9375009626
  0
LINE
  5
349
100
AcDbEntity
  8
0
100
AcDbLine
 62
7
  6
CONTINUOUS
 10
102.6477073268
 20
56.4375009626
 11
102.6477073268
 21
55.9375009626
  0
LINE
  5
34A
100
AcDbEntity
  8
0
100
AcDbLine
 62
7
  6
CONTINUOUS
 10
103.4281578009
 20
56.4375009626
 11
103.4281578009
 21
55.9375009626
  0
LINE
  5
34B
100
AcDbEntity
  8
0
100
AcDbLine
 62
7
  6
CONTINUOUS
 10
104.2109588048
 20
56.4375009626
 11
104.2109588048
 21
55.9375009626
  0
LINE
  5
34C
100
AcDbEntity
  8
0
100
AcDbLine
 62
7
  6
CONTINUOUS
 10
104.6599529752
 20
56.4375009626
 11
104.6599529752
 21
55.9375009626
  0
LINE
  5
34D
100
AcDbEntity
  8
0
100
AcDbLine
 62
7
  6
CONTINUOUS
 10
105.1112979914
 20
56.4375009626
 11
105.1112979914
 21
55.9375009626
  0
LINE
  5
34E
100
AcDbEntity
  8
0
100
AcDbLine
 62
7
  6
CONTINUOUS
 10
105.3393208712
 20
56.4375009626
 11
105.3393208712
 21
55.9375009626
  0
LINE
  5
34F
100
AcDbEntity
  8
0
100
AcDbLine
 62
7
  6
CONTINUOUS
 10
105.4592092677
 20
56.4375009626
 11
105.4592092677
 21
55.9375009626
  0
LINE
  5
350
100
AcDbEntity
  8
0
100
AcDbLine
 62
7
  6
CONTINUOUS
 10
105.6355157517
 20
56.4375009626
 11
105.6355157517
 21
55.9375009626
  0
LINE
  5
351
100
AcDbEntity
  8
0
100
AcDbLine
 62
7
  6
CONTINUOUS
 10
105.8517847184
 20
56.4375009626
 11
105.8517847184
 21
55.9375009626
  0
LINE
  5
352
100
AcDbEntity
  8
0
100
AcDbLine
 62
7
  6
CONTINUOUS
 10
106.1808911245
 20
56.4375009626
 11
106.1808911245
 21
55.9375009626
  0
LINE
  5
353
100
AcDbEntity
  8
0
100
AcDbLine
 62
7
  6
CONTINUOUS
 10
106.7333174544
 20
56.4375009626
 11
106.7333174544
 21
55.9375009626
  0
LINE
  5
354
100
AcDbEntity
  8
0
100
AcDbLine
 62
7
  6
CONTINUOUS
 10
107.3985812237
 20
56.4375009626
 11
107.3985812237
 21
55.9375009626
  0
LINE
  5
355
100
AcDbEntity
  8
0
100
AcDbLine
 62
7
  6
CONTINUOUS
 10
108.1790310656
 20
56.4375009626
 11
108.1790310656
 21
55.9375009626
  0
LINE
  5
356
100
AcDbEntity
  8
0
100
AcDbLine
 62
7
  6
CONTINUOUS
 10
108.9618320694
 20
56.4375009626
 11
108.9618320694
 21
55.9375009626
  0
LINE
  5
357
100
AcDbEntity
  8
0
100
AcDbLine
 62
7
  6
CONTINUOUS
 10
109.410826872
 20
56.4375009626
 11
109.410826872
 21
55.9375009626
  0
LINE
  5
358
100
AcDbEntity
  8
0
100
AcDbLine
 62
7
  6
CONTINUOUS
 10
109.7657900536
 20
56.4375009626
 11
109.7657900536
 21
55.9375009626
  0
LINE
  5
359
100
AcDbEntity
  8
0
100
AcDbLine
 62
7
  6
CONTINUOUS
 10
110.4334049848
 20
56.4375009626
 11
110.4334049848
 21
55.9375009626
  0
LINE
  5
35A
100
AcDbEntity
  8
0
100
AcDbLine
 62
7
  6
CONTINUOUS
 10
111.3266910018
 20
56.4375009626
 11
111.3266910018
 21
55.9375009626
  0
LINE
  5
35B
100
AcDbEntity
  8
0
100
AcDbLine
 62
7
  6
CONTINUOUS
 10
139.1551608767
 20
93.0651607602
 11
139.4884948458
 21
93.5757989972
  0
LINE
  5
35C
100
AcDbEntity
  8
0
100
AcDbLine
 62
7
  6
CONTINUOUS
 10
146.4884938921
 20
94.2566499799
 11
145.9884938921
 21
93.5757989972
  0
LINE
  5
35D
100
AcDbEntity
  8
0
100
AcDbLine
 62
7
  6
CONTINUOUS
 10
142.8218278612
 20
92.0438838094
 11
142.4884948458
 21
91.7034583181
  0
LINE
  5
35E
100
AcDbEntity
  8
0
100
AcDbLine
 62
7
  6
CONTINUOUS
 10
143.1551608767
 20
88.469415912
 11
142.8218278612
 21
88.1289903014
  0
LINE
  5
35F
100
AcDbEntity
  8
0
100
AcDbLine
 62
7
  6
CONTINUOUS
 10
146.6551618304
 20
90.3417563527
 11
146.9884938921
 21
90.6821818441
  0
LINE
  5
360
100
AcDbEntity
  8
0
100
AcDbLine
 62
7
  6
CONTINUOUS
 10
150.1551618304
 20
88.2992030471
 11
149.6551618304
 21
87.9587775558
  0
LWPOLYLINE
  5
361
100
AcDbEntity
  8
RUNDUNGEN
100
AcDbPolyline
 62
7
  6
CONTINUOUS
 90
7
 70
0
 10
92.5568412942
 20
46.8418719431
 10
93.5015345788
 20
45.7033242277
 10
94.5108268055
 20
44.505896631
 10
95.5845109676
 20
43.2589030249
 10
96.7225700621
 20
41.9718476356
 10
97.9224449103
 20
40.6570262669
 10
99.0678827742
 20
39.4439337833
  0
LINE
  5
362
100
AcDbEntity
  8
RUNDUNGEN
100
AcDbLine
 62
7
  6
CONTINUOUS
 10
90.1029169102
 20
49.8350206266
 11
92.5568412942
 21
46.8418719431
  0
LINE
  5
363
100
AcDbEntity
  8
0
100
AcDbLine
 62
7
  6
CONTINUOUS
 10
111.9990071505
 20
56.4375009626
 11
111.9990071505
 21
55.9375009626
  0
LINE
  5
364
100
AcDbEntity
  8
0
100
AcDbLine
 62
7
  6
CONTINUOUS
 10
112.5631880257
 20
56.4375009626
 11
112.5631880257
 21
55.9375009626
  0
LINE
  5
365
100
AcDbEntity
  8
0
100
AcDbLine
 62
7
  6
CONTINUOUS
 10
112.7935615143
 20
56.4375009626
 11
112.7935615143
 21
55.9375009626
  0
LINE
  5
366
100
AcDbEntity
  8
0
100
AcDbLine
 62
7
  6
CONTINUOUS
 10
112.8029649372
 20
56.4375009626
 11
112.8029649372
 21
55.9375009626
  0
LINE
  5
367
100
AcDbEntity
  8
0
100
AcDbLine
 62
7
  6
CONTINUOUS
 10
135.3218278612
 20
94.9375009626
 11
132.8218278612
 21
87.7885648101
  0
LINE
  5
368
100
AcDbEntity
  8
0
100
AcDbLine
 62
7
  6
CONTINUOUS
 10
133.488494369
 20
86.9375009626
 11
135.8218278612
 21
93.2353735059
  0
LINE
  5
369
100
AcDbEntity
  8
0
100
AcDbLine
 62
7
  6
CONTINUOUS
 10
143.1551608767
 20
92.7247347921
 11
142.8218278612
 21
92.0438838094
  0
LINE
  5
36A
100
AcDbEntity
  8
0
100
AcDbLine
 62
7
  6
CONTINUOUS
 10
143.3218278612
 20
88.8098414033
 11
143.1551608767
 21
88.469415912
  0
LINE
  5
36B
100
AcDbEntity
  8
0
100
AcDbLine
 62
7
  6
CONTINUOUS
 10
143.4884948458
 20
91.5332455724
 11
143.8218278612
 21
92.0438838094
  0
LINE
  5
36C
100
AcDbEntity
  8
0
100
AcDbLine
 62
7
  6
CONTINUOUS
 10
146.6551618304
 20
93.0651607602
 11
146.9884938921
 21
93.5757989972
  0
LINE
  5
36D
100
AcDbEntity
  8
0
100
AcDbLine
 62
7
  6
CONTINUOUS
 10
143.6551608767
 20
87.7885648101
 11
143.9884948458
 21
88.2992030471
  0
LINE
  5
36E
100
AcDbEntity
  8
0
100
AcDbLine
 62
7
  6
CONTINUOUS
 10
150.4884938921
 20
88.8098414033
 11
150.1551618304
 21
88.2992030471
  0
LINE
  5
36F
100
AcDbEntity
  8
0
100
AcDbLine
 62
7
  6
CONTINUOUS
 10
150.6551618304
 20
87.6183520048
 11
151.1551618304
 21
88.2992030471
  0
LWPOLYLINE
  5
370
100
AcDbEntity
  8
RUNDUNGEN
100
AcDbPolyline
 62
7
  6
CONTINUOUS
 90
39
 70
0
 10
99.0679011797
 20
39.4439208221
 10
100.6462839934
 20
37.8666631335
 10
102.4022346126
 20
36.2536587694
 10
104.2296307205
 20
34.7156211489
 10
106.1251058475
 20
33.2552998983
 10
108.0853342865
 20
31.8753100196
 10
110.1068981515
 20
30.5781785626
 10
112.1862872459
 20
29.3663274461
 10
114.3195996082
 20
28.2420978563
 10
116.5029385331
 20
27.2077459378
 10
118.7325192074
 20
26.2652109516
 10
121.0046322297
 20
25.4162603053
 10
123.314574742
 20
24.6627959059
 10
125.6576937811
 20
24.0065507409
 10
128.029806685
 20
23.4488176463
 10
130.4267644338
 20
22.9907334558
 10
132.8433977718
 20
22.6333880533
 10
135.2746746219
 20
22.3776804647
 10
137.7158295506
 20
22.2241561025
 10
140.162078917
 20
22.1731510533
 10
142.6083110722
 20
22.2247359453
 10
145.0494156063
 20
22.3788383869
 10
147.4806143653
 20
22.6351208119
 10
149.8971424874
 20
22.9930362588
 10
152.2939662709
 20
23.4516841514
 10
154.6659201551
 20
24.0099742531
 10
157.0088583501
 20
24.6667694494
 10
159.318597055
 20
25.4207754983
 10
161.5904817821
 20
26.2702579001
 10
163.8198133695
 20
27.2133154508
 10
166.0028840168
 20
28.2481805547
 10
168.1359064709
 20
29.3729117775
 10
170.2149818769
 20
30.5852507864
 10
172.2362105836
 20
31.8828566299
 10
174.1960851083
 20
33.2633074419
 10
176.0911859212
 20
34.7240741285
 10
177.9181861136
 20
36.2625399366
 10
179.6737209096
 20
37.8759539255
 10
181.2424220661
 20
39.4439203818
  0
LINE
  5
371
100
AcDbEntity
  8
0
100
AcDbLine
 62
7
  6
CONTINUOUS
 10
128.8218278612
 20
94.9375009626
 11
128.8218278612
 21
86.9375009626
  0
LINE
  5
372
100
AcDbEntity
  8
0
100
AcDbLine
 62
7
  6
CONTINUOUS
 10
129.8218278612
 20
86.9375009626
 11
129.8218278612
 21
93.2353735059
  0
LINE
  5
373
100
AcDbEntity
  8
0
100
AcDbLine
 62
7
  6
CONTINUOUS
 10
129.9989118304
 20
56.4375009626
 11
129.9989118304
 21
55.9375009626
  0
LINE
  5
374
100
AcDbEntity
  8
0
100
AcDbLine
 62
7
  6
CONTINUOUS
 10
138.4884948458
 20
93.7460117429
 11
138.3218278612
 21
93.0651607602
  0
LINE
  5
375
100
AcDbEntity
  8
0
100
AcDbLine
 62
7
  6
CONTINUOUS
 10
143.8218278612
 20
92.0438838094
 11
143.9884948458
 21
92.7247347921
  0
LINE
  5
376
100
AcDbEntity
  8
0
100
AcDbLine
 62
7
  6
CONTINUOUS
 10
143.9884948458
 20
88.2992030471
 11
144.1551608767
 21
88.8098414033
  0
LINE
  5
377
100
AcDbEntity
  8
0
100
AcDbLine
 62
7
  6
CONTINUOUS
 10
146.4884938921
 20
92.5545220464
 11
146.6551618304
 21
93.0651607602
  0
LINE
  5
378
100
AcDbEntity
  8
0
100
AcDbLine
 62
7
  6
CONTINUOUS
 10
146.4884938921
 20
89.8311178773
 11
146.6551618304
 21
90.3417563527
  0
LINE
  5
379
100
AcDbEntity
  8
0
100
AcDbLine
 62
7
  6
CONTINUOUS
 10
145.9884938921
 20
93.5757989972
 11
145.6551618304
 21
92.7247347921
  0
LINE
  5
37A
100
AcDbEntity
  8
0
100
AcDbLine
 62
7
  6
CONTINUOUS
 10
151.1551618304
 20
88.2992030471
 11
151.4884938921
 21
89.1502668947
  0
LINE
  5
37B
100
AcDbEntity
  8
0
100
AcDbLine
 62
7
  6
CONTINUOUS
 10
133.7489118304
 20
56.4375009626
 11
133.7489118304
 21
55.9375009626
  0
LINE
  5
37C
100
AcDbEntity
  8
0
100
AcDbLine
 62
7
  6
CONTINUOUS
 10
134.5301619794
 20
56.4375009626
 11
134.5301619794
 21
55.9375009626
  0
LINE
  5
37D
100
AcDbEntity
  8
0
100
AcDbLine
 62
7
  6
CONTINUOUS
 10
135.1551618304
 20
56.4375009626
 11
135.1551618304
 21
55.9375009626
  0
LINE
  5
37E
100
AcDbEntity
  8
0
100
AcDbLine
 62
7
  6
CONTINUOUS
 10
135.6239118304
 20
56.4375009626
 11
135.6239118304
 21
55.9375009626
  0
LINE
  5
37F
100
AcDbEntity
  8
0
100
AcDbLine
 62
7
  6
CONTINUOUS
 10
135.7801616813
 20
56.4375009626
 11
135.7801616813
 21
55.9375009626
  0
LINE
  5
380
100
AcDbEntity
  8
0
100
AcDbLine
 62
7
  6
CONTINUOUS
 10
135.8218278612
 20
93.2353735059
 11
135.8218278612
 21
86.9375009626
  0
LINE
  5
381
100
AcDbEntity
  8
0
100
AcDbLine
 62
7
  6
CONTINUOUS
 10
135.9364119794
 20
56.4375009626
 11
135.9364119794
 21
55.9375009626
  0
LINE
  5
382
100
AcDbEntity
  8
0
100
AcDbLine
 62
7
  6
CONTINUOUS
 10
136.8218278612
 20
86.9375009626
 11
136.8218278612
 21
94.9375009626
  0
LINE
  5
383
100
AcDbEntity
  8
0
100
AcDbLine
 62
7
  6
CONTINUOUS
 10
137.1864116813
 20
56.4375009626
 11
137.1864116813
 21
55.9375009626
  0
LINE
  5
384
100
AcDbEntity
  8
0
100
AcDbLine
 62
7
  6
CONTINUOUS
 10
138.1239121284
 20
56.4375009626
 11
138.1239121284
 21
55.9375009626
  0
LINE
  5
385
100
AcDbEntity
  8
0
100
AcDbLine
 62
7
  6
CONTINUOUS
 10
138.2801615323
 20
56.4375009626
 11
138.2801615323
 21
55.9375009626
  0
LINE
  5
386
100
AcDbEntity
  8
0
100
AcDbLine
 62
7
  6
CONTINUOUS
 10
138.5926621284
 20
56.4375009626
 11
138.5926621284
 21
55.9375009626
  0
LINE
  5
387
100
AcDbEntity
  8
0
100
AcDbLine
 62
7
  6
CONTINUOUS
 10
139.0614121284
 20
56.4375009626
 11
139.0614121284
 21
55.9375009626
  0
LINE
  5
388
100
AcDbEntity
  8
0
100
AcDbLine
 62
7
  6
CONTINUOUS
 10
139.6864115323
 20
56.4375009626
 11
139.6864115323
 21
55.9375009626
  0
LINE
  5
389
100
AcDbEntity
  8
0
100
AcDbLine
 62
7
  6
CONTINUOUS
 10
140.3114118304
 20
56.4375009626
 11
140.3114118304
 21
55.9375009626
  0
LINE
  5
38A
100
AcDbEntity
  8
0
100
AcDbLine
 62
7
  6
CONTINUOUS
 10
140.8218278612
 20
91.3630328267
 11
140.8218278612
 21
90.6821818441
  0
LINE
  5
38B
100
AcDbEntity
  8
0
100
AcDbLine
 62
7
  6
CONTINUOUS
 10
140.9364121284
 20
56.4375009626
 11
140.9364121284
 21
55.9375009626
  0
LINE
  5
38C
100
AcDbEntity
  8
0
100
AcDbLine
 62
7
  6
CONTINUOUS
 10
141.4051621284
 20
56.4375009626
 11
141.4051621284
 21
55.9375009626
  0
LINE
  5
38D
100
AcDbEntity
  8
0
100
AcDbLine
 62
7
  6
CONTINUOUS
 10
145.6551618304
 20
92.7247347921
 11
145.4884938921
 21
91.5332455724
  0
LINE
  5
38E
100
AcDbEntity
  8
0
100
AcDbLine
 62
7
  6
CONTINUOUS
 10
146.3218278612
 20
91.5332455724
 11
146.4884938921
 21
92.5545220464
  0
LINE
  5
38F
100
AcDbEntity
  8
0
100
AcDbLine
 62
7
  6
CONTINUOUS
 10
150.6551618304
 20
89.3204796403
 11
150.4884938921
 21
88.8098414033
  0
LWPOLYLINE
  5
390
100
AcDbEntity
  8
RUNDUNGEN
100
AcDbPolyline
 62
7
  6
CONTINUOUS
 90
4
 70
0
 10
196.8083485114
 20
56.3883179175
 10
196.8926695493
 20
56.4184786854
 10
196.9604471226
 20
56.4373138149
 10
196.9612872797
 20
56.4375009626
  0
LINE
  5
391
100
AcDbEntity
  8
RUNDUNGEN
100
AcDbLine
 62
7
  6
CONTINUOUS
 10
83.4186948041
 20
56.4181440966
 11
83.5408857445
 21
56.3726489151
  0
LWPOLYLINE
  5
392
100
AcDbEntity
  8
RUNDUNGEN
100
AcDbPolyline
 62
7
  6
CONTINUOUS
 90
16
 70
0
 10
83.5408857445
 20
56.3726489151
 10
83.7120843658
 20
56.2937816561
 10
83.926606808
 20
56.1771551556
 10
84.1789903519
 20
56.0202985175
 10
84.467862498
 20
55.8195695501
 10
84.7915248609
 20
55.5721828673
 10
85.1515026036
 20
55.2733206355
 10
85.5508226201
 20
54.9167872962
 10
85.9884534628
 20
54.500202921
 10
86.4660865377
 20
54.019328796
 10
86.9810742194
 20
53.475120767
 10
87.5316008501
 20
52.8690371534
 10
88.1178310742
 20
52.2014850687
 10
88.7377489763
 20
51.476373161
 10
89.3977654644
 20
50.6885583649
 10
90.1029169102
 20
49.8350206266
  0
LINE
  5
393
100
AcDbEntity
  8
0
100
AcDbLine
 62
7
  6
CONTINUOUS
 10
141.7176618304
 20
56.4375009626
 11
141.7176618304
 21
55.9375009626
  0
LINE
  5
394
100
AcDbEntity
  8
0
100
AcDbLine
 62
7
  6
CONTINUOUS
 10
141.8739121284
 20
56.4375009626
 11
141.8739121284
 21
55.9375009626
  0
LINE
  5
395
100
AcDbEntity
  8
0
100
AcDbLine
 62
7
  6
CONTINUOUS
 10
142.8114121284
 20
56.4375009626
 11
142.8114121284
 21
55.9375009626
  0
LINE
  5
396
100
AcDbEntity
  8
0
100
AcDbLine
 62
7
  6
CONTINUOUS
 10
143.1551608767
 20
93.0651607602
 11
143.1551608767
 21
92.7247347921
  0
LINE
  5
397
100
AcDbEntity
  8
0
100
AcDbLine
 62
7
  6
CONTINUOUS
 10
143.3218278612
 20
89.490692386
 11
143.3218278612
 21
88.8098414033
  0
LINE
  5
398
100
AcDbEntity
  8
0
100
AcDbLine
 62
7
  6
CONTINUOUS
 10
143.9884948458
 20
92.7247347921
 11
143.9884948458
 21
93.0651607602
  0
LINE
  5
399
100
AcDbEntity
  8
0
100
AcDbLine
 62
7
  6
CONTINUOUS
 10
144.0614118304
 20
56.4375009626
 11
144.0614118304
 21
55.9375009626
  0
LINE
  5
39A
100
AcDbEntity
  8
0
100
AcDbLine
 62
7
  6
CONTINUOUS
 10
144.1551608767
 20
88.8098414033
 11
144.1551608767
 21
89.490692386
  0
LINE
  5
39B
100
AcDbEntity
  8
0
100
AcDbLine
 62
7
  6
CONTINUOUS
 10
145.4884938921
 20
91.5332455724
 11
145.4884938921
 21
90.3417563527
  0
LINE
  5
39C
100
AcDbEntity
  8
0
100
AcDbLine
 62
7
  6
CONTINUOUS
 10
146.3218278612
 20
91.1928200811
 11
146.3218278612
 21
91.5332455724
  0
LINE
  5
39D
100
AcDbEntity
  8
0
100
AcDbLine
 62
7
  6
CONTINUOUS
 10
146.4884938921
 20
89.3204796403
 11
146.4884938921
 21
89.8311178773
  0
LINE
  5
39E
100
AcDbEntity
  8
0
100
AcDbLine
 62
7
  6
CONTINUOUS
 10
147.8114118304
 20
56.4375009626
 11
147.8114118304
 21
55.9375009626
  0
LINE
  5
39F
100
AcDbEntity
  8
0
100
AcDbLine
 62
7
  6
CONTINUOUS
 10
148.5926624264
 20
56.4375009626
 11
148.5926624264
 21
55.9375009626
  0
LINE
  5
3A0
100
AcDbEntity
  8
0
100
AcDbLine
 62
7
  6
CONTINUOUS
 10
149.2176618304
 20
56.4375009626
 11
149.2176618304
 21
55.9375009626
  0
LINE
  5
3A1
100
AcDbEntity
  8
0
100
AcDbLine
 62
7
  6
CONTINUOUS
 10
149.8426612343
 20
56.4375009626
 11
149.8426612343
 21
55.9375009626
  0
LINE
  5
3A2
100
AcDbEntity
  8
0
100
AcDbLine
 62
7
  6
CONTINUOUS
 10
150.1551618304
 20
56.4375009626
 11
150.1551618304
 21
55.9375009626
  0
LINE
  5
3A3
100
AcDbEntity
  8
0
100
AcDbLine
 62
7
  6
CONTINUOUS
 10
150.3114112343
 20
56.4375009626
 11
150.3114112343
 21
55.9375009626
  0
LINE
  5
3A4
100
AcDbEntity
  8
0
100
AcDbLine
 62
7
  6
CONTINUOUS
 10
150.6551618304
 20
89.8311178773
 11
150.6551618304
 21
89.3204796403
  0
LWPOLYLINE
  5
3A5
100
AcDbEntity
  8
RUNDUNGEN
100
AcDbPolyline
 62
7
  6
CONTINUOUS
 90
3
 70
0
 10
83.3489865483
 20
56.4375009626
 10
83.3502854725
 20
56.4372241036
 10
83.4186948041
 20
56.4181440966
  0
LINE
  5
3A6
100
AcDbEntity
  8
0
100
AcDbLine
 62
7
  6
CONTINUOUS
 10
129.8218278612
 20
93.2353735059
 11
132.1551611151
 21
86.9375009626
  0
LINE
  5
3A7
100
AcDbEntity
  8
0
100
AcDbLine
 62
7
  6
CONTINUOUS
 10
132.8218278612
 20
87.7885648101
 11
130.3218278612
 21
94.9375009626
  0
LINE
  5
3A8
100
AcDbEntity
  8
0
100
AcDbLine
 62
7
  6
CONTINUOUS
 10
151.4884938921
 20
89.1502668947
 11
151.4884938921
 21
90.0013308614
  0
LINE
  5
3A9
100
AcDbEntity
  8
0
100
AcDbLine
 62
7
  6
CONTINUOUS
 10
181.9173993903
 20
55.9375009626
 11
170.6051633585
 21
55.9375009626
  0
LINE
  5
3AA
100
AcDbEntity
  8
0
100
AcDbLine
 62
7
  6
CONTINUOUS
 10
150.3114112343
 20
55.9375009626
 11
144.0614118304
 21
55.9375009626
  0
LINE
  5
3AB
100
AcDbEntity
  8
0
100
AcDbLine
 62
7
  6
CONTINUOUS
 10
142.8114121284
 20
55.9375009626
 11
137.1864116813
 21
55.9375009626
  0
LINE
  5
3AC
100
AcDbEntity
  8
0
100
AcDbLine
 62
7
  6
CONTINUOUS
 10
135.9364119794
 20
55.9375009626
 11
129.9989118304
 21
55.9375009626
  0
LINE
  5
3AD
100
AcDbEntity
  8
0
100
AcDbLine
 62
7
  6
CONTINUOUS
 10
112.8029649372
 20
55.9375009626
 11
94.0274929014
 21
55.9375009626
  0
LINE
  5
3AE
100
AcDbEntity
  8
0
100
AcDbLine
 62
7
  6
CONTINUOUS
 10
138.1551608767
 20
88.8098414033
 11
138.3218278612
 21
88.2992030471
  0
LINE
  5
3AF
100
AcDbEntity
  8
0
100
AcDbLine
 62
7
  6
CONTINUOUS
 10
144.1551608767
 20
89.490692386
 11
143.9884948458
 21
90.1715436071
  0
LINE
  5
3B0
100
AcDbEntity
  8
0
100
AcDbLine
 62
7
  6
CONTINUOUS
 10
143.9884948458
 20
93.0651607602
 11
143.8218278612
 21
93.7460117429
  0
LINE
  5
3B1
100
AcDbEntity
  8
0
100
AcDbLine
 62
7
  6
CONTINUOUS
 10
145.4884938921
 20
90.3417563527
 11
145.6551618304
 21
89.1502668947
  0
LINE
  5
3B2
100
AcDbEntity
  8
0
100
AcDbLine
 62
7
  6
CONTINUOUS
 10
170.6051618304
 20
56.4375009626
 11
170.6051618304
 21
55.9375009626
  0
LWPOLYLINE
  5
3B3
100
AcDbEntity
  8
RUNDUNGEN
100
AcDbPolyline
 62
7
  6
CONTINUOUS
 90
17
 70
0
 10
190.2140471588
 20
49.8430976008
 10
190.9189406584
 20
50.6962368639
 10
191.5787229952
 20
51.4836441019
 10
192.198411879
 20
52.2083223424
 10
192.7843892532
 20
52.8753865745
 10
193.3346493823
 20
53.4809493633
 10
193.8493558046
 20
54.0246117858
 10
194.3266974063
 20
54.5049306279
 10
194.7640313978
 20
54.9209654913
 10
195.1630411445
 20
55.2769550059
 10
195.5226916483
 20
55.5752849603
 10
195.8459994075
 20
55.8221494704
 10
196.134482417
 20
56.0223694821
 10
196.3864290704
 20
56.178733436
 10
196.6004513113
 20
56.2948898461
 10
196.7710926853
 20
56.3733347614
 10
196.8083485114
 20
56.3883179175
  0
LWPOLYLINE
  5
3B4
100
AcDbEntity
  8
RUNDUNGEN
100
AcDbPolyline
 62
7
  6
CONTINUOUS
 90
8
 70
0
 10
181.2424396442
 20
39.4439325193
 10
182.3977525556
 20
40.6676636274
 10
183.5974485664
 20
41.9826510089
 10
184.7351358272
 20
43.2695994877
 10
185.808346694
 20
44.5162962981
 10
186.8171183385
 20
45.7132950001
 10
187.7612933182
 20
46.8513429673
 10
190.2140471588
 20
49.8430976008
  0
LINE
  5
3B5
100
AcDbEntity
  8
RUNDUNGEN
100
AcDbLine
 62
7
  6
CONTINUOUS
 10
77.8018187465
 20
56.4375009626
 11
202.5085072943
 21
56.4375009626
  0
LINE
  5
3B6
100
AcDbEntity
  8
0
100
AcDbLine
 62
7
  6
CONTINUOUS
 10
138.3218278612
 20
88.2992030471
 11
138.6551608767
 21
87.7885648101
  0
LINE
  5
3B7
100
AcDbEntity
  8
0
100
AcDbLine
 62
7
  6
CONTINUOUS
 10
139.1551608767
 20
88.469415912
 11
138.9884948458
 21
88.8098414033
  0
LINE
  5
3B8
100
AcDbEntity
  8
0
100
AcDbLine
 62
7
  6
CONTINUOUS
 10
142.9884948458
 20
90.1715436071
 11
143.3218278612
 21
89.490692386
  0
LINE
  5
3B9
100
AcDbEntity
  8
0
100
AcDbLine
 62
7
  6
CONTINUOUS
 10
145.6551618304
 20
89.1502668947
 11
145.9884938921
 21
88.2992030471
  0
LINE
  5
3BA
100
AcDbEntity
  8
0
100
AcDbLine
 62
7
  6
CONTINUOUS
 10
151.4884938921
 20
90.0013308614
 11
151.1551618304
 21
90.8523945897
  0
LINE
  5
3BB
100
AcDbEntity
  8
0
100
AcDbLine
 62
7
  6
CONTINUOUS
 10
146.6551618304
 20
88.8098414033
 11
146.4884938921
 21
89.3204796403
  0
LINE
  5
3BC
100
AcDbEntity
  8
0
100
AcDbLine
 62
7
  6
CONTINUOUS
 10
150.4884938921
 20
90.3417563527
 11
150.6551618304
 21
89.8311178773
  0
LINE
  5
3BD
100
AcDbEntity
  8
0
100
AcDbLine
 62
7
  6
CONTINUOUS
 10
151.1551618304
 20
93.0651607602
 11
150.9884938921
 21
93.5757989972
  0
LINE
  5
3BE
100
AcDbEntity
  8
0
100
AcDbLine
 62
7
  6
CONTINUOUS
 10
177.3473993903
 20
56.4375009626
 11
177.3473993903
 21
55.9375009626
  0
LINE
  5
3BF
100
AcDbEntity
  8
0
100
AcDbLine
 62
7
  6
CONTINUOUS
 10
139.4884948458
 20
88.1289903014
 11
139.1551608767
 21
88.469415912
  0
LINE
  5
3C0
100
AcDbEntity
  8
0
100
AcDbLine
 62
7
  6
CONTINUOUS
 10
145.9884938921
 20
88.2992030471
 11
146.4884938921
 21
87.6183520048
  0
LINE
  5
3C1
100
AcDbEntity
  8
0
100
AcDbLine
 62
7
  6
CONTINUOUS
 10
143.9884948458
 20
90.1715436071
 11
143.6551608767
 21
90.6821818441
  0
LINE
  5
3C2
100
AcDbEntity
  8
0
100
AcDbLine
 62
7
  6
CONTINUOUS
 10
142.8218278612
 20
93.5757989972
 11
143.1551608767
 21
93.0651607602
  0
LINE
  5
3C3
100
AcDbEntity
  8
0
100
AcDbLine
 62
7
  6
CONTINUOUS
 10
146.9884938921
 20
88.2992030471
 11
146.6551618304
 21
88.8098414033
  0
LINE
  5
3C4
100
AcDbEntity
  8
0
100
AcDbLine
 62
7
  6
CONTINUOUS
 10
149.9884938921
 20
93.5757989972
 11
150.3218278612
 21
93.0651607602
  0
LINE
  5
3C5
100
AcDbEntity
  8
0
100
AcDbLine
 62
7
  6
CONTINUOUS
 10
181.9173993903
 20
56.4375009626
 11
181.9173993903
 21
55.9375009626
  0
LINE
  5
3C6
100
AcDbEntity
  8
0
100
AcDbLine
 62
7
  6
CONTINUOUS
 10
141.8218278612
 20
86.9375009626
 11
142.4884948458
 21
87.1077137231
  0
LINE
  5
3C7
100
AcDbEntity
  8
0
100
AcDbLine
 62
7
  6
CONTINUOUS
 10
148.9884938921
 20
86.9375009626
 11
149.8218278612
 21
87.1077137231
  0
LINE
  5
3C8
100
AcDbEntity
  8
BEZUGSACHSEN
100
AcDbLine
 62
7
  6
CONTINUOUS
 10
77.8018187465
 20
85.4375009626
 11
202.5085072943
 21
85.4375009626
  0
LINE
  5
3C9
100
AcDbEntity
  8
0
100
AcDbLine
 62
7
  6
CONTINUOUS
 10
139.8218278612
 20
87.1077137231
 11
140.4884948458
 21
86.9375009626
  0
LINE
  5
3CA
100
AcDbEntity
  8
0
100
AcDbLine
 62
7
  6
CONTINUOUS
 10
139.1551608767
 20
87.4481392592
 11
139.8218278612
 21
87.1077137231
  0
LINE
  5
3CB
100
AcDbEntity
  8
0
100
AcDbLine
 62
7
  6
CONTINUOUS
 10
139.8218278612
 20
87.9587775558
 11
139.4884948458
 21
88.1289903014
  0
LINE
  5
3CC
100
AcDbEntity
  8
0
100
AcDbLine
 62
7
  6
CONTINUOUS
 10
146.4884938921
 20
87.6183520048
 11
147.3218278612
 21
87.1077137231
  0
LINE
  5
3CD
100
AcDbEntity
  8
0
100
AcDbLine
 62
7
  6
CONTINUOUS
 10
138.6551608767
 20
87.7885648101
 11
139.1551608767
 21
87.4481392592
  0
LINE
  5
3CE
100
AcDbEntity
  8
0
100
AcDbLine
 62
7
  6
CONTINUOUS
 10
142.4884948458
 20
90.5119690984
 11
142.9884948458
 21
90.1715436071
  0
LINE
  5
3CF
100
AcDbEntity
  8
0
100
AcDbLine
 62
7
  6
CONTINUOUS
 10
147.4884938921
 20
87.9587775558
 11
146.9884938921
 21
88.2992030471
  0
LINE
  5
3D0
100
AcDbEntity
  8
0
100
AcDbLine
 62
7
  6
CONTINUOUS
 10
142.3218278612
 20
93.9162244886
 11
142.8218278612
 21
93.5757989972
  0
LINE
  5
3D1
100
AcDbEntity
  8
0
100
AcDbLine
 62
7
  6
CONTINUOUS
 10
143.8218278612
 20
93.7460117429
 11
143.1551608767
 21
94.4268627256
  0
LINE
  5
3D2
100
AcDbEntity
  8
0
100
AcDbLine
 62
7
  6
CONTINUOUS
 10
150.1551618304
 20
90.6821818441
 11
150.4884938921
 21
90.3417563527
  0
LINE
  5
3D3
100
AcDbEntity
  8
0
100
AcDbLine
 62
7
  6
CONTINUOUS
 10
151.1551618304
 20
90.8523945897
 11
150.6551618304
 21
91.3630328267
  0
LINE
  5
3D4
100
AcDbEntity
  8
0
100
AcDbLine
 62
7
  6
CONTINUOUS
 10
150.9884938921
 20
93.5757989972
 11
150.4884938921
 21
94.2566499799
  0
LINE
  5
3D5
100
AcDbEntity
  8
0
100
AcDbLine
 62
7
  6
CONTINUOUS
 10
142.4884948458
 20
87.9587775558
 11
141.6551608767
 21
87.7885648101
  0
LINE
  5
3D6
100
AcDbEntity
  8
0
100
AcDbLine
 62
7
  6
CONTINUOUS
 10
148.1551618304
 20
92.0438838094
 11
147.3218278612
 21
91.8736710637
  0
LINE
  5
3D7
100
AcDbEntity
  8
0
100
AcDbLine
 62
7
  6
CONTINUOUS
 10
148.1551618304
 20
94.9375009626
 11
147.3218278612
 21
94.7672882169
  0
LINE
  5
3D8
100
AcDbEntity
  8
0
100
AcDbLine
 62
7
  6
CONTINUOUS
 10
139.9884948458
 20
93.9162244886
 11
140.8218278612
 21
94.0864372342
  0
LINE
  5
3D9
100
AcDbEntity
  8
0
100
AcDbLine
 62
7
  6
CONTINUOUS
 10
140.9884948458
 20
94.9375009626
 11
139.8218278612
 21
94.7672882169
  0
LINE
  5
3DA
100
AcDbEntity
  8
0
100
AcDbLine
 62
7
  6
CONTINUOUS
 10
128.8218278612
 20
86.9375009626
 11
129.8218278612
 21
86.9375009626
  0
LINE
  5
3DB
100
AcDbEntity
  8
0
100
AcDbLine
 62
7
  6
CONTINUOUS
 10
132.1551611151
 20
86.9375009626
 11
133.488494369
 21
86.9375009626
  0
LINE
  5
3DC
100
AcDbEntity
  8
0
100
AcDbLine
 62
7
  6
CONTINUOUS
 10
135.8218278612
 20
86.9375009626
 11
136.8218278612
 21
86.9375009626
  0
LINE
  5
3DD
100
AcDbEntity
  8
0
100
AcDbLine
 62
7
  6
CONTINUOUS
 10
140.4884948458
 20
86.9375009626
 11
141.8218278612
 21
86.9375009626
  0
LINE
  5
3DE
100
AcDbEntity
  8
0
100
AcDbLine
 62
7
  6
CONTINUOUS
 10
148.1551618304
 20
86.9375009626
 11
148.9884938921
 21
86.9375009626
  0
LINE
  5
3DF
100
AcDbEntity
  8
0
100
AcDbLine
 62
7
  6
CONTINUOUS
 10
149.1551618304
 20
87.7885648101
 11
147.9884938921
 21
87.7885648101
  0
LINE
  5
3E0
100
AcDbEntity
  8
0
100
AcDbLine
 62
7
  6
CONTINUOUS
 10
141.6551608767
 20
87.7885648101
 11
140.6551608767
 21
87.7885648101
  0
LINE
  5
3E1
100
AcDbEntity
  8
0
100
AcDbLine
 62
7
  6
CONTINUOUS
 10
138.9884948458
 20
88.8098414033
 11
138.1551608767
 21
88.8098414033
  0
LINE
  5
3E2
100
AcDbEntity
  8
0
100
AcDbLine
 62
7
  6
CONTINUOUS
 10
140.8218278612
 20
90.6821818441
 11
141.4884948458
 21
90.6821818441
  0
LINE
  5
3E3
100
AcDbEntity
  8
0
100
AcDbLine
 62
7
  6
CONTINUOUS
 10
147.9884938921
 20
91.1928200811
 11
149.1551618304
 21
91.1928200811
  0
LINE
  5
3E4
100
AcDbEntity
  8
0
100
AcDbLine
 62
7
  6
CONTINUOUS
 10
141.4884948458
 20
91.3630328267
 11
140.8218278612
 21
91.3630328267
  0
LINE
  5
3E5
100
AcDbEntity
  8
0
100
AcDbLine
 62
7
  6
CONTINUOUS
 10
148.9884938921
 20
92.0438838094
 11
148.1551618304
 21
92.0438838094
  0
LINE
  5
3E6
100
AcDbEntity
  8
0
100
AcDbLine
 62
7
  6
CONTINUOUS
 10
138.3218278612
 20
93.0651607602
 11
139.1551608767
 21
93.0651607602
  0
LINE
  5
3E7
100
AcDbEntity
  8
0
100
AcDbLine
 62
7
  6
CONTINUOUS
 10
150.3218278612
 20
93.0651607602
 11
151.1551618304
 21
93.0651607602
  0
LINE
  5
3E8
100
AcDbEntity
  8
0
100
AcDbLine
 62
7
  6
CONTINUOUS
 10
140.8218278612
 20
94.0864372342
 11
141.4884948458
 21
94.0864372342
  0
LINE
  5
3E9
100
AcDbEntity
  8
0
100
AcDbLine
 62
7
  6
CONTINUOUS
 10
147.9884938921
 20
94.0864372342
 11
148.9884938921
 21
94.0864372342
  0
LINE
  5
3EA
100
AcDbEntity
  8
0
100
AcDbLine
 62
7
  6
CONTINUOUS
 10
148.8218278612
 20
94.9375009626
 11
148.1551618304
 21
94.9375009626
  0
LINE
  5
3EB
100
AcDbEntity
  8
0
100
AcDbLine
 62
7
  6
CONTINUOUS
 10
141.3218278612
 20
94.9375009626
 11
140.9884948458
 21
94.9375009626
  0
LINE
  5
3EC
100
AcDbEntity
  8
0
100
AcDbLine
 62
7
  6
CONTINUOUS
 10
136.8218278612
 20
94.9375009626
 11
135.3218278612
 21
94.9375009626
  0
LINE
  5
3ED
100
AcDbEntity
  8
0
100
AcDbLine
 62
7
  6
CONTINUOUS
 10
130.3218278612
 20
94.9375009626
 11
128.8218278612
 21
94.9375009626
  0
LINE
  5
3EE
100
AcDbEntity
  8
0
100
AcDbLine
 62
7
  6
CONTINUOUS
 10
142.4884948458
 20
94.7672882169
 11
141.3218278612
 21
94.9375009626
  0
LINE
  5
3EF
100
AcDbEntity
  8
0
100
AcDbLine
 62
7
  6
CONTINUOUS
 10
141.4884948458
 20
90.6821818441
 11
142.4884948458
 21
90.5119690984
  0
LINE
  5
3F0
100
AcDbEntity
  8
0
100
AcDbLine
 62
7
  6
CONTINUOUS
 10
140.6551608767
 20
87.7885648101
 11
139.8218278612
 21
87.9587775558
  0
LINE
  5
3F1
100
AcDbEntity
  8
0
100
AcDbLine
 62
7
  6
CONTINUOUS
 10
147.3218278612
 20
87.1077137231
 11
148.1551618304
 21
86.9375009626
  0
LINE
  5
3F2
100
AcDbEntity
  8
0
100
AcDbLine
 62
7
  6
CONTINUOUS
 10
149.8218278612
 20
91.8736710637
 11
148.9884938921
 21
92.0438838094
  0
LINE
  5
3F3
100
AcDbEntity
  8
0
100
AcDbLine
 62
7
  6
CONTINUOUS
 10
141.4884948458
 20
94.0864372342
 11
142.3218278612
 21
93.9162244886
  0
LINE
  5
3F4
100
AcDbEntity
  8
0
100
AcDbLine
 62
7
  6
CONTINUOUS
 10
149.6551618304
 20
94.7672882169
 11
148.8218278612
 21
94.9375009626
  0
LINE
  5
3F5
100
AcDbEntity
  8
0
100
AcDbLine
 62
7
  6
CONTINUOUS
 10
147.9884938921
 20
87.7885648101
 11
147.4884938921
 21
87.9587775558
  0
LINE
  5
3F6
100
AcDbEntity
  8
0
100
AcDbLine
 62
7
  6
CONTINUOUS
 10
149.1551618304
 20
91.1928200811
 11
149.6551618304
 21
91.0226073354
  0
LINE
  5
3F7
100
AcDbEntity
  8
0
100
AcDbLine
 62
7
  6
CONTINUOUS
 10
148.9884938921
 20
94.0864372342
 11
149.4884938921
 21
93.9162244886
  0
LINE
  5
3F8
100
AcDbEntity
  8
0
100
AcDbLine
 62
7
  6
CONTINUOUS
 10
143.6551608767
 20
90.6821818441
 11
142.8218278612
 21
91.0226073354
  0
LINE
  5
3F9
100
AcDbEntity
  8
0
100
AcDbLine
 62
7
  6
CONTINUOUS
 10
143.1551608767
 20
94.4268627256
 11
142.4884948458
 21
94.7672882169
  0
LINE
  5
3FA
100
AcDbEntity
  8
0
100
AcDbLine
 62
7
  6
CONTINUOUS
 10
150.6551618304
 20
91.3630328267
 11
149.8218278612
 21
91.8736710637
  0
LINE
  5
3FB
100
AcDbEntity
  8
0
100
AcDbLine
 62
7
  6
CONTINUOUS
 10
150.4884938921
 20
94.2566499799
 11
149.6551618304
 21
94.7672882169
  0
LINE
  5
3FC
100
AcDbEntity
  8
0
100
AcDbLine
 62
7
  6
CONTINUOUS
 10
149.6551618304
 20
91.0226073354
 11
150.1551618304
 21
90.6821818441
  0
LINE
  5
3FD
100
AcDbEntity
  8
0
100
AcDbLine
 62
7
  6
CONTINUOUS
 10
149.4884938921
 20
93.9162244886
 11
149.9884938921
 21
93.5757989972
  0
LWPOLYLINE
  5
3FE
100
AcDbEntity
  8
BEZUGSACHSEN
100
AcDbPolyline
 62
7
  6
CONTINUOUS
 90
7
 70
0
 10
207.8961050074
 20
70.9375009626
 10
207.8862678567
 20
72.4793945487
 10
207.8526030165
 20
74.1826185937
 10
207.7946150603
 20
75.8971408628
 10
207.7119579823
 20
77.6207626675
 10
207.6044443108
 20
79.3513617921
 10
207.491987137
 20
80.8436156839
  0
LWPOLYLINE
  5
3FF
100
AcDbEntity
  8
RUNDUNGEN
100
AcDbPolyline
 62
7
  6
CONTINUOUS
 90
7
 70
0
 10
207.491987137
 20
61.0313862413
 10
207.6044443108
 20
62.5236401331
 10
207.7119579823
 20
64.2542392577
 10
207.7946150603
 20
65.9778610623
 10
207.8526030165
 20
67.6923833315
 10
207.8862678567
 20
69.3956073764
 10
207.8961050074
 20
70.9375009626
  0
LINE
  5
400
100
AcDbEntity
  8
BEZUGSACHSEN
100
AcDbLine
 62
7
  6
CONTINUOUS
 10
196.9613296016
 20
85.4375009626
 11
196.8927102215
 21
85.4565101869
  0
LINE
  5
401
100
AcDbEntity
  8
BEZUGSACHSEN
100
AcDbLine
 62
7
  6
CONTINUOUS
 10
196.8927102215
 20
85.4565101869
 11
196.7711801537
 21
85.5016309578
  0
LWPOLYLINE
  5
402
100
AcDbEntity
  8
BEZUGSACHSEN
100
AcDbPolyline
 62
7
  6
CONTINUOUS
 90
16
 70
0
 10
196.7711801537
 20
85.5016309578
 10
196.6006006757
 20
85.5800373228
 10
196.3866484127
 20
85.6961409577
 10
196.1347737109
 20
85.8524410182
 10
195.8463597034
 20
86.0525898972
 10
195.5231121025
 20
86.2993820886
 10
195.1635117166
 20
86.5976418504
 10
194.7645364225
 20
86.9535708468
 10
194.327231481
 20
87.3695484035
 10
193.8499150535
 20
87.8498131028
 10
193.335257586
 20
88.393396229
 10
192.7851041345
 20
88.9988144569
 10
192.1992887855
 20
89.6656668376
 10
191.5798676825
 20
90.3900042791
 10
190.9203363137
 20
91.1770861327
 10
190.2155844017
 20
92.0300346651
  0
LWPOLYLINE
  5
403
100
AcDbEntity
  8
BEZUGSACHSEN
100
AcDbPolyline
 62
7
  6
CONTINUOUS
 90
39
 70
0
 10
181.2424220661
 20
102.4310815433
 10
179.6737209096
 20
103.9990479996
 10
177.9181861136
 20
105.6124619885
 10
176.0911859212
 20
107.1509277966
 10
174.1960851083
 20
108.6116944833
 10
172.2362105836
 20
109.9921452953
 10
170.2149818769
 20
111.2897511388
 10
168.1359064709
 20
112.5020901477
 10
166.0028840168
 20
113.6268213704
 10
163.8198133695
 20
114.6616864744
 10
161.5904817821
 20
115.6047440251
 10
159.318597055
 20
116.4542264269
 10
157.0088583501
 20
117.2082324757
 10
154.6659201551
 20
117.8650276721
 10
152.2939662709
 20
118.4233177737
 10
149.8971424874
 20
118.8819656664
 10
147.4806143653
 20
119.2398811132
 10
145.0494156063
 20
119.4961635382
 10
142.6083110722
 20
119.6502659798
 10
140.162078917
 20
119.7018508718
 10
137.7158295506
 20
119.6508458226
 10
135.2746746219
 20
119.4973214604
 10
132.8433977718
 20
119.2416138719
 10
130.4267644338
 20
118.8842684694
 10
128.029806685
 20
118.4261842788
 10
125.6576937811
 20
117.8684511843
 10
123.314574742
 20
117.2122060192
 10
121.0046322297
 20
116.4587416199
 10
118.7325192074
 20
115.6097909736
 10
116.5029385331
 20
114.6672559874
 10
114.3195996082
 20
113.6329040688
 10
112.1862872459
 20
112.508674479
 10
110.1068981515
 20
111.2968233625
 10
108.0853342865
 20
109.9996919055
 10
106.1251058475
 20
108.6197020269
 10
104.2296307205
 20
107.1593807763
 10
102.4022346126
 20
105.6213431557
 10
100.6462839934
 20
104.0083387917
 10
99.0679011797
 20
102.431081103
  0
LWPOLYLINE
  5
404
100
AcDbEntity
  8
BEZUGSACHSEN
100
AcDbPolyline
 62
7
  6
CONTINUOUS
 90
7
 70
0
 10
187.7614897597
 20
95.0234207625
 10
186.8163227539
 20
96.1626593482
 10
185.8065918132
 20
97.3607679689
 10
184.7327018777
 20
98.6081951374
 10
183.5948764583
 20
99.8952174055
 10
182.3960018998
 20
101.2092245555
 10
181.2424395747
 20
102.4310694781
  0
LINE
  5
405
100
AcDbEntity
  8
BEZUGSACHSEN
100
AcDbLine
 62
7
  6
CONTINUOUS
 10
190.2155844017
 20
92.0300346651
 11
187.7614897597
 21
95.0234207625
  0
ARC
  5
406
100
AcDbEntity
  8
RUNDUNGEN
100
AcDbCircle
 62
7
  6
CONTINUOUS
 10
140.1551618304
 20
309.5920689174
 40
36.5
100
AcDbArc
 50
339.1470133794
 51
200.8529715132
  0
ARC
  5
407
100
AcDbEntity
  8
BEZUGSACHSEN
100
AcDbCircle
 62
7
  6
CONTINUOUS
 10
87.6551618304
 20
242.0920689174
 40
15.0
100
AcDbArc
 50
0.0
 51
62.3074971192
  0
ARC
  5
408
100
AcDbEntity
  8
BEZUGSACHSEN
100
AcDbCircle
 62
7
  6
CONTINUOUS
 10
192.6551618304
 20
242.0920689174
 40
15.0
100
AcDbArc
 50
117.6925028808
 51
180.0
  0
ARC
  5
409
100
AcDbEntity
  8
0
100
AcDbCircle
 62
7
  6
CONTINUOUS
 10
115.3910300624
 20
300.1587355841
 40
10.0
100
AcDbArc
 50
200.8523605436
 51
210.1862551292
  0
ARC
  5
40A
100
AcDbEntity
  8
0
100
AcDbCircle
 62
7
  6
CONTINUOUS
 10
164.9192935983
 20
300.1587355841
 40
10.0
100
AcDbArc
 50
329.8137645171
 51
339.147584315
  0
ARC
  5
40B
100
AcDbEntity
  8
BEZUGSACHSEN
100
AcDbCircle
 62
7
  6
CONTINUOUS
 10
97.1478049517
 20
355.156221408
 40
6.0
100
AcDbArc
 50
110.9999999986
 51
157.5000000017
  0
ARC
  5
40C
100
AcDbEntity
  8
BEZUGSACHSEN
100
AcDbCircle
 62
7
  6
CONTINUOUS
 10
201.8961051054
 20
309.9293430578
 40
6.0
100
AcDbArc
 50
337.3984381457
 51
22.4999777031
  0
ARC
  5
40D
100
AcDbEntity
  8
RUNDUNGEN
100
AcDbCircle
 62
7
  6
CONTINUOUS
 10
183.162518709
 20
355.156221408
 40
6.0
100
AcDbArc
 50
22.5
 51
69.0
  0
ARC
  5
40E
100
AcDbEntity
  8
RUNDUNGEN
100
AcDbCircle
 62
7
  6
CONTINUOUS
 10
140.1551618304
 20
371.6651989556
 40
6.0
100
AcDbArc
 50
69.0
 51
111.0
  0
ARC
  5
40F
100
AcDbEntity
  8
RUNDUNGEN
100
AcDbCircle
 62
7
  6
CONTINUOUS
 10
97.1478049517
 20
355.156221408
 40
6.0
100
AcDbArc
 50
111.0
 51
157.5
  0
ARC
  5
410
100
AcDbEntity
  8
BEZUGSACHSEN
100
AcDbCircle
 62
7
  6
CONTINUOUS
 10
78.4142238375
 20
309.9293558102
 40
6.0
100
AcDbArc
 50
157.5001541076
 51
202.6016548929
  0
ARC
  5
411
100
AcDbEntity
  8
0
100
AcDbCircle
 62
7
  6
CONTINUOUS
 10
178.9751618304
 20
344.3111741608
 40
3.8
100
AcDbArc
 50
39.2608295227
 51
230.7391704773
  0
ARC
  5
412
100
AcDbEntity
  8
0
100
AcDbCircle
 62
7
  6
CONTINUOUS
 10
174.4051618304
 20
348.8811741608
 40
3.8
100
AcDbArc
 50
39.2608295227
 51
230.7391704773
  0
ARC
  5
413
100
AcDbEntity
  8
0
100
AcDbCircle
 62
7
  6
CONTINUOUS
 10
178.9751618304
 20
344.3111741608
 40
2.66
100
AcDbArc
 50
147.3736251162
 51
233.2132107017
  0
ARC
  5
414
100
AcDbEntity
  8
0
100
AcDbCircle
 62
7
  6
CONTINUOUS
 10
178.9751618304
 20
344.3111741608
 40
2.66
100
AcDbArc
 50
36.7867892983
 51
122.4447123387
  0
ARC
  5
415
100
AcDbEntity
  8
0
100
AcDbCircle
 62
7
  6
CONTINUOUS
 10
174.4051618304
 20
348.8811741608
 40
2.66
100
AcDbArc
 50
36.7867892983
 51
233.2132107017
  0
ARC
  5
416
100
AcDbEntity
  8
0
100
AcDbCircle
 62
7
  6
CONTINUOUS
 10
660.9598381378
 20
416.6365813673
 40
388.4487275972
100
AcDbArc
 50
205.1934142691
 51
205.349582837
  0
ARC
  5
417
100
AcDbEntity
  8
0
100
AcDbCircle
 62
7
  6
CONTINUOUS
 10
655.7910109184
 20
414.204700662
 40
382.240693716
100
AcDbArc
 50
205.2283264372
 51
205.3870787542
  0
ARC
  5
418
100
AcDbEntity
  8
0
100
AcDbCircle
 62
7
  6
CONTINUOUS
 10
570.0505072276
 20
369.8417260021
 40
286.6393407991
100
AcDbArc
 50
202.4986370732
 51
202.906804658
  0
ARC
  5
419
100
AcDbEntity
  8
0
100
AcDbCircle
 62
7
  6
CONTINUOUS
 10
137.5648530992
 20
372.3171427644
 40
282.8623406822
100
AcDbArc
 50
336.6419003461
 51
336.9344759039
  0
ARC
  5
41A
100
AcDbEntity
  8
0
100
AcDbCircle
 62
7
  6
CONTINUOUS
 10
561.8059599624
 20
366.3616840818
 40
277.6904168924
100
AcDbArc
 50
202.9075164498
 51
203.1927187054
  0
ARC
  5
41B
100
AcDbEntity
  8
0
100
AcDbCircle
 62
7
  6
CONTINUOUS
 10
538.4300068262
 20
356.2155943209
 40
252.2078259534
100
AcDbArc
 50
203.1654346658
 51
204.7575689823
  0
ARC
  5
41C
100
AcDbEntity
  8
0
100
AcDbCircle
 62
7
  6
CONTINUOUS
 10
521.1005445594
 20
348.2649268895
 40
233.1415765012
100
AcDbArc
 50
204.7667411826
 51
205.1152275443
  0
ARC
  5
41D
100
AcDbEntity
  8
0
100
AcDbCircle
 62
7
  6
CONTINUOUS
 10
516.1364777856
 20
345.9408734665
 40
227.660410912
100
AcDbArc
 50
205.1158871081
 51
205.3048820061
  0
ARC
  5
41E
100
AcDbEntity
  8
0
100
AcDbCircle
 62
7
  6
CONTINUOUS
 10
496.1961459507
 20
339.7629616796
 40
206.8656112818
100
AcDbArc
 50
205.5183396446
 51
205.9107855347
  0
ARC
  5
41F
100
AcDbEntity
  8
0
100
AcDbCircle
 62
7
  6
CONTINUOUS
 10
336.9989227923
 20
268.2671930002
 40
32.4881542071
100
AcDbArc
 50
213.5204486491
 51
214.8815437241
  0
ARC
  5
420
100
AcDbEntity
  8
0
100
AcDbCircle
 62
7
  6
CONTINUOUS
 10
337.2457264811
 20
268.1508850567
 40
32.1723774866
100
AcDbArc
 50
213.6445955601
 51
215.0212082573
  0
ARC
  5
421
100
AcDbEntity
  8
0
100
AcDbCircle
 62
7
  6
CONTINUOUS
 10
336.676214764
 20
265.8597081124
 40
31.2552435225
100
AcDbArc
 50
211.8451162155
 51
213.2331294897
  0
ARC
  5
422
100
AcDbEntity
  8
RUNDUNGEN
100
AcDbCircle
 62
7
  6
CONTINUOUS
 10
385.7511580235
 20
297.438608677
 40
20.0
100
AcDbArc
 50
179.9998746158
 51
255.0000502653
  0
ARC
  5
423
100
AcDbEntity
  8
BEZUGSACHSEN
100
AcDbCircle
 62
7
  6
CONTINUOUS
 10
316.7511580235
 20
297.438608677
 40
20.0
100
AcDbArc
 50
284.9999497347
 51
0.0001253842
  0
ARC
  5
424
100
AcDbEntity
  8
0
100
AcDbCircle
 62
7
  6
CONTINUOUS
 10
319.4663088611
 20
256.6892614351
 40
11.9645654055
100
AcDbArc
 50
221.69809242
 51
223.7791125379
  0
ARC
  5
425
100
AcDbEntity
  8
BEZUGSACHSEN
100
AcDbCircle
 62
7
  6
CONTINUOUS
 10
341.7511580235
 20
372.6651989556
 40
5.0
100
AcDbArc
 50
90.0
 51
180.0
  0
ARC
  5
426
100
AcDbEntity
  8
BEZUGSACHSEN
100
AcDbCircle
 62
7
  6
CONTINUOUS
 10
307.4867849732
 20
269.0743228895
 40
5.0
100
AcDbArc
 50
105.0
 51
202.5000722583
  0
ARC
  5
427
100
AcDbEntity
  8
RUNDUNGEN
100
AcDbCircle
 62
7
  6
CONTINUOUS
 10
360.7511580235
 20
372.6651989556
 40
5.0
100
AcDbArc
 50
0.0
 51
90.0
  0
ARC
  5
428
100
AcDbEntity
  8
RUNDUNGEN
100
AcDbCircle
 62
7
  6
CONTINUOUS
 10
395.0155310738
 20
269.0743228895
 40
5.0
100
AcDbArc
 50
337.4999277417
 51
75.0
  0
ARC
  5
429
100
AcDbEntity
  8
0
100
AcDbCircle
 62
7
  6
CONTINUOUS
 10
140.1551618304
 20
70.9375009626
 40
34.0
100
AcDbArc
 50
206.1796277343
 51
333.8315799837
  0
ARC
  5
42A
100
AcDbEntity
  8
0
100
AcDbCircle
 62
7
  6
CONTINUOUS
 10
140.1551618304
 20
70.9375009626
 40
34.0
100
AcDbArc
 50
25.2448997912
 51
154.7560583802
  0
ARC
  5
42B
100
AcDbEntity
  8
RUNDUNGEN
100
AcDbCircle
 62
7
  6
CONTINUOUS
 10
140.1551618304
 20
70.9375009626
 40
33.75
100
AcDbArc
 50
25.4535685106
 51
154.5464314945
  0
ARC
  5
42C
100
AcDbEntity
  8
RUNDUNGEN
100
AcDbCircle
 62
7
  6
CONTINUOUS
 10
140.1551618304
 20
70.9375009626
 40
33.75
100
AcDbArc
 50
206.3900783472
 51
334.4927958969
  0
ARC
  5
42D
100
AcDbEntity
  8
BEZUGSACHSEN
100
AcDbCircle
 62
7
  6
CONTINUOUS
 10
77.8018187425
 20
80.4375009626
 40
5.0
100
AcDbArc
 50
90.0000000001
 51
175.3401212512
  0
ARC
  5
42E
100
AcDbEntity
  8
BEZUGSACHSEN
100
AcDbCircle
 62
7
  6
CONTINUOUS
 10
202.5085072984
 20
80.4375009626
 40
5.0
100
AcDbArc
 50
4.6590431533
 51
89.9999999999
  0
ARC
  5
42F
100
AcDbEntity
  8
RUNDUNGEN
100
AcDbCircle
 62
7
  6
CONTINUOUS
 10
77.8018187425
 20
61.4375009626
 40
5.0
100
AcDbArc
 50
184.6598787488
 51
269.9999999999
  0
ARC
  5
430
100
AcDbEntity
  8
RUNDUNGEN
100
AcDbCircle
 62
7
  6
CONTINUOUS
 10
202.5085072984
 20
61.4375009626
 40
5.0
100
AcDbArc
 50
270.0000000001
 51
355.3409568466
  0
SPLINE
  5
431
100
AcDbEntity
  8
0
100
AcDbSpline
 62
7
  6
CONTINUOUS
 70
0
 71
3
 72
9
 73
5
 74
0
 42
0.0000001
 43
0.0000001
 44
0.0000000001
 40
0.0
 40
0.0
 40
0.0
 40
0.0
 40
0.5172686616
 40
1.0
 40
1.0
 40
1.0
 40
1.0
 10
136.5468942063
 20
276.9185075999
 30
0.0
 10
134.1926054252
 20
276.9858329309
 30
0.0
 10
129.6438703704
 20
277.2434282259
 30
0.0
 10
125.1181831822
 20
277.7786670269
 30
0.0
 10
122.9468683938
 20
278.1200921512
 30
0.0
  0
SPLINE
  5
432
100
AcDbEntity
  8
0
100
AcDbSpline
 62
7
  6
CONTINUOUS
 70
0
 71
3
 72
9
 73
5
 74
0
 42
0.0000001
 43
0.0000001
 44
0.0000000001
 40
0.0
 40
0.0
 40
0.0
 40
0.0
 40
0.4827313337
 40
1.0
 40
1.0
 40
1.0
 40
1.0
 10
157.3634552669
 20
278.1200921512
 30
0.0
 10
155.1921383996
 20
277.7786667
 30
0.0
 10
150.6664468081
 20
277.2434275633
 30
0.0
 10
146.1177073305
 20
276.9858323172
 30
0.0
 10
143.7634162425
 20
276.9185072189
 30
0.0
  0
SPLINE
  5
433
100
AcDbEntity
  8
0
100
AcDbSpline
 62
7
  6
CONTINUOUS
 70
0
 71
3
 72
12
 73
8
 74
0
 42
0.0000001
 43
0.0000001
 44
0.0000000001
 40
0.0
 40
0.0
 40
0.0
 40
0.0
 40
0.1206948616
 40
0.2403960248
 40
0.4819711982
 40
0.7338276012
 40
1.0
 40
1.0
 40
1.0
 40
1.0
 10
166.8845535275
 20
282.6705096574
 30
0.0
 10
166.6017209777
 20
282.3419357016
 30
0.0
 10
166.0002446383
 20
281.719099411
 30
0.0
 10
164.6585713148
 20
280.6196765121
 30
0.0
 10
162.727158631
 20
279.524672076
 30
0.0
 10
160.1361774882
 20
278.6365798497
 30
0.0
 10
158.3079455933
 20
278.2686071104
 30
0.0
 10
157.3634552669
 20
278.1200921512
 30
0.0
  0
SPLINE
  5
434
100
AcDbEntity
  8
0
100
AcDbSpline
 62
7
  6
CONTINUOUS
 70
0
 71
3
 72
12
 73
8
 74
0
 42
0.0000001
 43
0.0000001
 44
0.0000000001
 40
0.0
 40
0.0
 40
0.0
 40
0.0
 40
0.2661724222
 40
0.5180288068
 40
0.7596039561
 40
0.8793051269
 40
1.0
 40
1.0
 40
1.0
 40
1.0
 10
122.9468683938
 20
278.1200921512
 30
0.0
 10
122.0023775822
 20
278.2686071867
 30
0.0
 10
120.1741448992
 20
278.636580145
 30
0.0
 10
117.58316279
 20
279.5246729829
 30
0.0
 10
115.6517496212
 20
280.6196782469
 30
0.0
 10
114.3100760804
 20
281.7191020611
 30
0.0
 10
113.7085999037
 20
282.3419391018
 30
0.0
 10
113.4257672519
 20
282.6705132674
 30
0.0
  0
SPLINE
  5
435
100
AcDbEntity
  8
0
100
AcDbSpline
 62
7
  6
CONTINUOUS
 70
0
 71
3
 72
9
 73
5
 74
0
 42
0.0000001
 43
0.0000001
 44
0.0000000001
 40
0.0
 40
0.0
 40
0.0
 40
0.0
 40
0.222837136
 40
1.0
 40
1.0
 40
1.0
 40
1.0
 10
173.5632494308
 20
295.1306120245
 30
0.0
 10
173.5433980089
 20
295.096485011
 30
0.0
 10
173.4581247374
 20
294.9411260258
 30
0.0
 10
173.381697038
 20
294.781162425
 30
0.0
 10
173.3228730361
 20
294.6566676308
 30
0.0
  0
SPLINE
  5
436
100
AcDbEntity
  8
0
100
AcDbSpline
 62
7
  6
CONTINUOUS
 70
0
 71
3
 72
15
 73
11
 74
0
 42
0.0000001
 43
0.0000001
 44
0.0000000001
 40
0.0
 40
0.0
 40
0.0
 40
0.0
 40
0.0456819456
 40
0.0979520577
 40
0.2138140964
 40
0.3379139861
 40
0.4664073378
 40
0.5975544078
 40
0.7304931163
 40
1.0
 40
1.0
 40
1.0
 40
1.0
 10
173.3228730361
 20
294.6566676308
 30
0.0
 10
173.2339334715
 20
294.4684488505
 30
0.0
 10
173.059006952
 20
294.0575348834
 30
0.0
 10
172.697777633
 20
293.1526874243
 30
0.0
 10
172.211994824
 20
291.9126745269
 30
0.0
 10
171.5626670123
 20
290.3639596917
 30
0.0
 10
170.8281403465
 20
288.7764848089
 30
0.0
 10
170.0027034328
 20
287.1882481023
 30
0.0
 10
168.766483275
 20
285.09387049
 30
0.0
 10
167.6858702309
 20
283.6014118405
 30
0.0
 10
166.8846446601
 20
282.6706071808
 30
0.0
  0
SPLINE
  5
437
100
AcDbEntity
  8
0
100
AcDbSpline
 62
7
  6
CONTINUOUS
 70
0
 71
3
 72
9
 73
5
 74
0
 42
0.0000001
 43
0.0000001
 44
0.0000000001
 40
0.0
 40
0.0
 40
0.0
 40
0.0
 40
0.5000000255
 40
1.0
 40
1.0
 40
1.0
 40
1.0
 10
143.7633065324
 20
276.9185028453
 30
0.0
 10
142.5609297824
 20
276.884118765
 30
0.0
 10
140.1551538525
 20
276.8386520567
 30
0.0
 10
137.7493779295
 20
276.8841191012
 30
0.0
 10
136.5470013064
 20
276.9185033304
 30
0.0
  0
SPLINE
  5
438
100
AcDbEntity
  8
0
100
AcDbSpline
 62
7
  6
CONTINUOUS
 70
0
 71
3
 72
15
 73
11
 74
0
 42
0.0000001
 43
0.0000001
 44
0.0000000001
 40
0.0
 40
0.0
 40
0.0
 40
0.0
 40
0.2695066259
 40
0.4024453585
 40
0.5335924422
 40
0.6620859612
 40
0.7861861823
 40
0.902048365
 40
0.954318098
 40
1.0
 40
1.0
 40
1.0
 40
1.0
 10
113.4256816527
 20
282.6706048613
 30
0.0
 10
112.6244565888
 20
283.6014091906
 30
0.0
 10
111.5438432601
 20
285.0938673261
 30
0.0
 10
110.307622091
 20
287.1882445663
 30
0.0
 10
109.4821843145
 20
288.7764828569
 30
0.0
 10
108.747655912
 20
290.363960431
 30
0.0
 10
108.0983265212
 20
291.9126786889
 30
0.0
 10
107.6125454899
 20
293.1526934413
 30
0.0
 10
107.2513142044
 20
294.05753928
 30
0.0
 10
107.0763878399
 20
294.4684514077
 30
0.0
 10
106.9874488151
 20
294.6566703347
 30
0.0
  0
SPLINE
  5
439
100
AcDbEntity
  8
0
100
AcDbSpline
 62
7
  6
CONTINUOUS
 70
0
 71
3
 72
9
 73
5
 74
0
 42
0.0000001
 43
0.0000001
 44
0.0000000001
 40
0.0
 40
0.0
 40
0.0
 40
0.0
 40
0.2740951362
 40
1.0
 40
1.0
 40
1.0
 40
1.0
 10
106.9874488151
 20
294.6566703347
 30
0.0
 10
106.9667045248
 20
294.700573502
 30
0.0
 10
106.8903835857
 20
294.8604011806
 30
0.0
 10
106.8117382801
 20
295.0194472249
 30
0.0
 10
106.7470777487
 20
295.1306064702
 30
0.0
  0
SPLINE
  5
43A
100
AcDbEntity
  8
BEZUGSACHSEN
100
AcDbSpline
 62
7
  6
CONTINUOUS
 70
0
 71
3
 72
32
 73
28
 74
0
 42
0.0000001
 43
0.0000001
 44
0.0000000001
 40
0.0
 40
0.0
 40
0.0
 40
0.0
 40
0.0197005919
 40
0.0779041173
 40
0.1720043892
 40
0.2978895663
 40
0.3711278323
 40
0.4502597074
 40
0.534490472
 40
0.6230231309
 40
0.668649747
 40
0.715044067
 40
0.7621041108
 40
0.7858525484
 40
0.8097287628
 40
0.8337183843
 40
0.8578056238
 40
0.8819716967
 40
0.9061904172
 40
0.9304124375
 40
0.9424974628
 40
0.9545211878
 40
0.966406076
 40
0.9779812288
 40
0.9836215085
 40
0.9891492131
 40
1.0
 40
1.0
 40
1.0
 40
1.0
 10
94.626054658
 20
255.3738855547
 30
0.0
 10
94.877042491
 20
255.3213649838
 30
0.0
 10
95.8692819342
 20
255.1123908409
 30
0.0
 10
98.0576353658
 20
254.6395952359
 30
0.0
 10
101.588662553
 20
253.8372930796
 30
0.0
 10
105.2961652496
 20
252.9299753171
 30
0.0
 10
108.7992126159
 20
252.0098233491
 30
0.0
 10
111.76627846
 20
251.1843810162
 30
0.0
 10
114.90965841
 20
250.2515771288
 30
0.0
 10
117.6169762398
 20
249.3840503019
 30
0.0
 10
119.8391749405
 20
248.6190537586
 30
0.0
 10
121.5405719651
 20
248.0003837575
 30
0.0
 10
122.9629503874
 20
247.4484926515
 30
0.0
 10
124.1022390975
 20
246.9783876978
 30
0.0
 10
124.9577991364
 20
246.6082612882
 30
0.0
 10
125.8096706032
 20
246.2189207914
 30
0.0
 10
126.6547938893
 20
245.8063835299
 30
0.0
 10
127.4885878416
 20
245.3646819916
 30
0.0
 10
128.3028445119
 20
244.8843407981
 30
0.0
 10
128.9536728726
 20
244.4380779942
 30
0.0
 10
129.4386736247
 20
244.036677869
 30
0.0
 10
129.7724434849
 20
243.7064942632
 30
0.0
 10
130.0552595307
 20
243.3392763637
 30
0.0
 10
130.2141104339
 20
242.9874092818
 30
0.0
 10
130.2503564302
 20
242.6910826033
 30
0.0
 10
130.2176995542
 20
242.4038365371
 30
0.0
 10
130.1188397235
 20
242.2064854755
 30
0.0
 10
130.036038411
 20
242.0920689174
 30
0.0
  0
SPLINE
  5
43B
100
AcDbEntity
  8
BEZUGSACHSEN
100
AcDbSpline
 62
7
  6
CONTINUOUS
 70
0
 71
3
 72
32
 73
28
 74
0
 42
0.0000001
 43
0.0000001
 44
0.0000000001
 40
0.0
 40
0.0
 40
0.0
 40
0.0
 40
0.010848761
 40
0.0163767277
 40
0.0220200601
 40
0.0335986794
 40
0.0454850619
 40
0.0575102032
 40
0.0695957509
 40
0.0938178891
 40
0.1180364764
 40
0.1422024851
 40
0.1662895809
 40
0.1902790571
 40
0.2141551199
 40
0.2379034101
 40
0.2849631266
 40
0.3313570991
 40
0.3769833687
 40
0.4655153531
 40
0.5497454633
 40
0.6288767013
 40
0.7021144229
 40
0.8279982254
 40
0.9220969703
 40
0.9802996362
 40
1.0
 40
1.0
 40
1.0
 40
1.0
 10
150.2742852497
 20
242.0920689174
 30
0.0
 10
150.1914994046
 20
242.2064641022
 30
0.0
 10
150.0925960807
 20
242.4037788562
 30
0.0
 10
150.0600180775
 20
242.6910492136
 30
0.0
 10
150.0961943747
 20
242.987470427
 30
0.0
 10
150.2551478796
 20
243.3394255822
 30
0.0
 10
150.538029724
 20
243.7066895507
 30
0.0
 10
150.8718756424
 20
244.0368629716
 30
0.0
 10
151.3569105629
 20
244.4382607227
 30
0.0
 10
152.0077569681
 20
244.8845092505
 30
0.0
 10
152.8220140613
 20
245.3648471411
 30
0.0
 10
153.6558172347
 20
245.8065219323
 30
0.0
 10
154.5009371687
 20
246.2190548031
 30
0.0
 10
155.3528054546
 20
246.6083885043
 30
0.0
 10
156.2083634432
 20
246.9785047764
 30
0.0
 10
157.3476456726
 20
247.44860375
 30
0.0
 10
158.7700178704
 20
248.0004809117
 30
0.0
 10
160.47140266
 20
248.6191450369
 30
0.0
 10
162.6935871204
 20
249.3841276095
 30
0.0
 10
165.4008845668
 20
250.25164548
 30
0.0
 10
168.544241227
 20
251.1844369236
 30
0.0
 10
171.5112848699
 20
252.009868703
 30
0.0
 10
175.0142996932
 20
252.9300122375
 30
0.0
 10
178.7217592667
 20
253.837316051
 30
0.0
 10
182.2527386355
 20
254.639606065
 30
0.0
 10
184.4410584513
 20
255.112395116
 30
0.0
 10
185.4332840561
 20
255.3213658057
 30
0.0
 10
185.6842690027
 20
255.3738855547
 30
0.0
  0
LINE
  5
43C
100
AcDbEntity
  8
0
100
AcDbLine
 62
7
  6
CONTINUOUS
 10
305.2511957628
 20
260.8580266305
 11
306.315616786
 21
258.3048345515
  0
LINE
  5
43D
100
AcDbEntity
  8
0
100
AcDbLine
 62
7
  6
CONTINUOUS
 10
306.0933819896
 20
258.3048345515
 11
306.1260406214
 21
258.2261496578
  0
LINE
  5
43E
100
AcDbEntity
  8
0
100
AcDbLine
 62
7
  6
CONTINUOUS
 10
306.1260406214
 20
258.2261496578
 11
306.6232516398
 21
257.028238959
  0
SPLINE
  5
43F
100
AcDbEntity
  8
0
100
AcDbSpline
 62
7
  6
CONTINUOUS
 70
0
 71
3
 72
8
 73
4
 74
0
 42
0.0000001
 43
0.0000001
 44
0.0000000001
 40
0.0
 40
0.0
 40
0.0
 40
0.0
 40
1.0
 40
1.0
 40
1.0
 40
1.0
 10
306.8479408106
 20
257.028238959
 30
0.0
 10
307.7352646528
 20
254.9004552714
 30
0.0
 10
308.6228686631
 20
252.7727883887
 30
0.0
 10
309.5108052396
 20
250.6452603259
 30
0.0
  0
SPLINE
  5
440
100
AcDbEntity
  8
0
100
AcDbSpline
 62
7
  6
CONTINUOUS
 70
0
 71
3
 72
9
 73
5
 74
0
 42
0.0000001
 43
0.0000001
 44
0.0000000001
 40
0.0
 40
0.0
 40
0.0
 40
0.0
 40
0.2398936449
 40
1.0
 40
1.0
 40
1.0
 40
1.0
 10
310.8277430289
 20
248.4112178435
 30
0.0
 10
310.8682622835
 20
248.3840974398
 30
0.0
 10
311.0383448591
 20
248.2728077969
 30
0.0
 10
311.2128242689
 20
248.1682975903
 30
0.0
 10
311.3471980401
 20
248.0920689174
 30
0.0
  0
LINE
  5
441
100
AcDbEntity
  8
0
100
AcDbLine
 62
7
  6
CONTINUOUS
 10
310.5765874553
 20
248.0920689174
 11
310.3209637856
 21
248.6308693889
  0
SPLINE
  5
442
100
AcDbEntity
  8
0
100
AcDbSpline
 62
7
  6
CONTINUOUS
 70
0
 71
3
 72
9
 73
5
 74
0
 42
0.0000001
 43
0.0000001
 44
0.0000000001
 40
0.0
 40
0.0
 40
0.0
 40
0.0
 40
0.2503486555
 40
1.0
 40
1.0
 40
1.0
 40
1.0
 10
391.9257285917
 20
248.0920689174
 30
0.0
 10
392.3991163056
 20
249.0864483122
 30
0.0
 10
394.2605278661
 20
253.0724507026
 30
0.0
 10
396.0126283067
 20
257.1091289928
 30
0.0
 10
397.2746382294
 20
260.1558986722
 30
0.0
  0
LINE
  5
443
100
AcDbEntity
  8
0
100
AcDbLine
 62
7
  6
CONTINUOUS
 10
305.4750300761
 20
260.8679707302
 11
305.4461074655
 21
260.9383478508
  0
LINE
  5
444
100
AcDbEntity
  8
0
100
AcDbLine
 62
7
  6
CONTINUOUS
 10
305.4461074655
 20
260.9383478508
 11
305.2175483944
 21
261.4963244268
  0
SPLINE
  5
445
100
AcDbEntity
  8
0
100
AcDbSpline
 62
7
  6
CONTINUOUS
 70
0
 71
3
 72
8
 73
4
 74
0
 42
0.0000001
 43
0.0000001
 44
0.0000000001
 40
0.0
 40
0.0
 40
0.0
 40
0.0
 40
1.0
 40
1.0
 40
1.0
 40
1.0
 10
309.461912469
 20
251.2835583457
 30
0.0
 10
308.659024346
 20
253.1982765696
 30
0.0
 10
307.8565755373
 20
255.1131790517
 30
0.0
 10
307.0545027434
 20
257.028238959
 30
0.0
  0
LINE
  5
446
100
AcDbEntity
  8
0
100
AcDbLine
 62
7
  6
CONTINUOUS
 10
307.6925996613
 20
257.028238959
 11
307.1508018468
 21
258.3048345515
  0
LINE
  5
447
100
AcDbEntity
  8
0
100
AcDbLine
 62
7
  6
CONTINUOUS
 10
306.5198989616
 20
258.3048345515
 11
305.4510678246
 21
260.8580266305
  0
LINE
  5
448
100
AcDbEntity
  8
0
100
AcDbLine
 62
7
  6
CONTINUOUS
 10
311.3471980401
 20
248.0920689174
 11
310.8048811561
 21
249.3686646217
  0
SPLINE
  5
449
100
AcDbEntity
  8
0
100
AcDbSpline
 62
7
  6
CONTINUOUS
 70
0
 71
3
 72
9
 73
5
 74
0
 42
0.0000001
 43
0.0000001
 44
0.0000000001
 40
0.0
 40
0.0
 40
0.0
 40
0.0
 40
0.2572761494
 40
1.0
 40
1.0
 40
1.0
 40
1.0
 10
310.8048811561
 20
249.3686646217
 30
0.0
 10
310.7648876118
 20
249.39487749
 30
0.0
 10
310.610152907
 20
249.4978470605
 30
0.0
 10
310.4583537318
 20
249.605255253
 30
0.0
 10
310.3477159517
 20
249.6878136316
 30
0.0
  0
LINE
  5
44A
100
AcDbEntity
  8
0
100
AcDbLine
 62
7
  6
CONTINUOUS
 10
304.6763106121
 20
261.4963244268
 11
304.0152813283
 21
263.0920689174
  0
SPLINE
  5
44B
100
AcDbEntity
  8
BEZUGSACHSEN
100
AcDbSpline
 62
7
  6
CONTINUOUS
 70
0
 71
3
 72
23
 73
19
 74
0
 42
0.0000001
 43
0.0000001
 44
0.0000000001
 40
0.0
 40
0.0
 40
0.0
 40
0.0
 40
0.1704855403
 40
0.3342628816
 40
0.4851445891
 40
0.5541066083
 40
0.6180381982
 40
0.6765863714
 40
0.7295495727
 40
0.7769885161
 40
0.819313443
 40
0.8575637915
 40
0.8758237909
 40
0.8940740892
 40
0.9130744277
 40
0.9342097847
 40
0.9610006311
 40
1.0
 40
1.0
 40
1.0
 40
1.0
 10
351.2511580235
 20
255.3738855547
 30
0.0
 10
348.7433790119
 20
255.3738855547
 30
0.0
 10
343.8257378963
 20
255.273503862
 30
0.0
 10
336.7019773047
 20
254.8145502087
 30
0.0
 10
331.0938183815
 20
254.1497025095
 30
0.0
 10
326.9828644664
 20
253.4188469831
 30
0.0
 10
324.2354158262
 20
252.7953942071
 30
0.0
 10
321.7543707594
 20
252.0783642332
 30
0.0
 10
319.5611774384
 20
251.2600226136
 30
0.0
 10
317.672233084
 20
250.3329720419
 30
0.0
 10
316.1024393564
 20
249.2803708046
 30
0.0
 10
315.0569458962
 20
248.2511386083
 30
0.0
 10
314.4341154225
 20
247.340869771
 30
0.0
 10
314.0747812646
 20
246.6039586781
 30
0.0
 10
313.8284809668
 20
245.7769080278
 30
0.0
 10
313.7212294844
 20
244.7921297856
 30
0.0
 10
313.8443790653
 20
243.511629393
 30
0.0
 10
314.1897449093
 20
242.582513084
 30
0.0
 10
314.4873309885
 20
242.0920689174
 30
0.0
  0
LINE
  5
44C
100
AcDbEntity
  8
0
100
AcDbLine
 62
7
  6
CONTINUOUS
 10
305.2175483944
 20
261.4963244268
 11
304.5565180257
 21
263.0920689174
  0
SPLINE
  5
44D
100
AcDbEntity
  8
0
100
AcDbSpline
 62
7
  6
CONTINUOUS
 70
0
 71
3
 72
9
 73
5
 74
0
 42
0.0000001
 43
0.0000001
 44
0.0000000001
 40
0.0
 40
0.0
 40
0.0
 40
0.0
 40
0.2573446167
 40
1.0
 40
1.0
 40
1.0
 40
1.0
 10
311.3597884145
 20
249.3686646217
 30
0.0
 10
311.3194286684
 20
249.3948723695
 30
0.0
 10
311.1633128322
 20
249.4978057768
 30
0.0
 10
311.0101347925
 20
249.6052228832
 30
0.0
 10
310.8984900664
 20
249.6878136316
 30
0.0
  0
SPLINE
  5
44E
100
AcDbEntity
  8
0
100
AcDbSpline
 62
7
  6
CONTINUOUS
 70
0
 71
3
 72
8
 73
4
 74
0
 42
0.0000001
 43
0.0000001
 44
0.0000000001
 40
0.0
 40
0.0
 40
0.0
 40
0.0
 40
1.0
 40
1.0
 40
1.0
 40
1.0
 10
310.0097949468
 20
251.2835583457
 30
0.0
 10
309.2111996082
 20
253.187476009
 30
0.0
 10
308.4130546763
 20
255.09158264
 30
0.0
 10
307.6152948485
 20
256.9958505415
 30
0.0
  0
LINE
  5
44F
100
AcDbEntity
  8
0
100
AcDbLine
 62
7
  6
CONTINUOUS
 10
307.6152948485
 20
256.9958505415
 11
307.6017263295
 21
257.028238959
  0
LINE
  5
450
100
AcDbEntity
  8
0
100
AcDbLine
 62
7
  6
CONTINUOUS
 10
308.2472851566
 20
257.028238959
 11
307.70518259
 21
258.3048345515
  0
LINE
  5
451
100
AcDbEntity
  8
0
100
AcDbLine
 62
7
  6
CONTINUOUS
 10
307.0669895023
 20
258.3048345515
 11
305.9979052679
 21
260.8580266305
  0
LINE
  5
452
100
AcDbEntity
  8
0
100
AcDbLine
 62
7
  6
CONTINUOUS
 10
397.3807473763
 20
263.0920689174
 11
396.7047594845
 21
261.4963244268
  0
SPLINE
  5
453
100
AcDbEntity
  8
0
100
AcDbSpline
 62
7
  6
CONTINUOUS
 70
0
 71
3
 72
9
 73
5
 74
0
 42
0.0000001
 43
0.0000001
 44
0.0000000001
 40
0.0
 40
0.0
 40
0.0
 40
0.0
 40
0.2496667275
 40
1.0
 40
1.0
 40
1.0
 40
1.0
 10
397.2451580683
 20
260.1688347639
 30
0.0
 10
396.8099663121
 20
259.1611791283
 30
0.0
 10
395.0430101982
 20
255.1355826067
 30
0.0
 10
393.1749807585
 20
251.1538905988
 30
0.0
 10
391.7044246978
 20
248.2011034892
 30
0.0
  0
LINE
  5
454
100
AcDbEntity
  8
0
100
AcDbLine
 62
7
  6
CONTINUOUS
 10
391.7044246978
 20
248.2011034892
 11
391.6500834847
 21
248.0920689174
  0
LINE
  5
455
100
AcDbEntity
  8
0
100
AcDbLine
 62
7
  6
CONTINUOUS
 10
396.8274212438
 20
263.0920689174
 11
396.1510964759
 21
261.4963244268
  0
LINE
  5
456
100
AcDbEntity
  8
0
100
AcDbLine
 62
7
  6
CONTINUOUS
 10
311.9024495004
 20
248.0920689174
 11
311.3597884145
 21
249.3686646217
  0
SPLINE
  5
457
100
AcDbEntity
  8
0
100
AcDbSpline
 62
7
  6
CONTINUOUS
 70
0
 71
3
 72
9
 73
5
 74
0
 42
0.0000001
 43
0.0000001
 44
0.0000000001
 40
0.0
 40
0.0
 40
0.0
 40
0.0
 40
0.2496313068
 40
1.0
 40
1.0
 40
1.0
 40
1.0
 10
397.2730820926
 20
261.4963244268
 30
0.0
 10
396.7918242833
 20
260.3665233167
 30
0.0
 10
394.8345054133
 20
255.8533333364
 30
0.0
 10
392.7516560951
 20
251.3938623333
 30
0.0
 10
391.1011393755
 20
248.0920689174
 30
0.0
  0
SPLINE
  5
458
100
AcDbEntity
  8
BEZUGSACHSEN
100
AcDbSpline
 62
7
  6
CONTINUOUS
 70
0
 71
3
 72
23
 73
19
 74
0
 42
0.0000001
 43
0.0000001
 44
0.0000000001
 40
0.0
 40
0.0
 40
0.0
 40
0.0
 40
0.1704855403
 40
0.3342628816
 40
0.4851445891
 40
0.5541066083
 40
0.6180381982
 40
0.6765863714
 40
0.7295495727
 40
0.7769885161
 40
0.819313443
 40
0.8575637915
 40
0.8758237909
 40
0.8940740892
 40
0.9130744277
 40
0.9342097847
 40
0.9610006311
 40
1.0
 40
1.0
 40
1.0
 40
1.0
 10
351.2511580235
 20
255.3738855547
 30
0.0
 10
353.7589370351
 20
255.3738855547
 30
0.0
 10
358.6765781506
 20
255.273503862
 30
0.0
 10
365.8003387423
 20
254.8145502087
 30
0.0
 10
371.4084976655
 20
254.1497025095
 30
0.0
 10
375.5194515806
 20
253.4188469831
 30
0.0
 10
378.2669002207
 20
252.7953942071
 30
0.0
 10
380.7479452876
 20
252.0783642332
 30
0.0
 10
382.9411386085
 20
251.2600226136
 30
0.0
 10
384.8300829629
 20
250.3329720419
 30
0.0
 10
386.3998766905
 20
249.2803708046
 30
0.0
 10
387.4453701508
 20
248.2511386083
 30
0.0
 10
388.0682006245
 20
247.340869771
 30
0.0
 10
388.4275347824
 20
246.6039586781
 30
0.0
 10
388.6738350802
 20
245.7769080278
 30
0.0
 10
388.7810865626
 20
244.7921297856
 30
0.0
 10
388.6579369816
 20
243.511629393
 30
0.0
 10
388.3125711377
 20
242.582513084
 30
0.0
 10
388.0149850585
 20
242.0920689174
 30
0.0
  0
ENDSEC
  0
SECTION
  2
OBJECTS
  0
DICTIONARY
  5
C
100
AcDbDictionary
280
0
281
1
  3
ACAD_GROUP
350
D
  3
ACAD_MLINESTYLE
350
17
  3
ACAD_LAYOUT
350
1A
  3
ACAD_PLOTSETTINGS
350
19
  3
ACAD_PLOTSTYLENAME
350
E
  0
DICTIONARY
  5
D
102
{ACAD_REACTORS
330
C
102
}
100
AcDbDictionary
280
0
281
1
  0
ACDBDICTIONARYWDFLT
  5
E
102
{ACAD_REACTORS
330
C
102
}
100
AcDbDictionary
281
1
  3
Normal
350
F
100
AcDbDictionaryWithDefault
340
F
  0
DICTIONARY
  5
17
102
{ACAD_REACTORS
330
C
102
}
100
AcDbDictionary
280
0
281
1
  3
Standard
350
18
  0
DICTIONARY
  5
19
102
{ACAD_REACTORS
330
C
102
}
100
AcDbDictionary
281
1
  0
DICTIONARY
  5
1A
102
{ACAD_REACTORS
330
C
102
}
100
AcDbDictionary
281
1
  3
Model
350
459
  3
Layout1
350
45A
  0
ACDBPLACEHOLDER
  5
F
102
{ACAD_REACTORS
330
E
102
}
  0
MLINESTYLE
  5
18
102
{ACAD_REACTORS
330
17
102
}
100
AcDbMlineStyle
  2
STANDARD
 70
0
  3

 62
256
 51
90.0
 52
90.0
 71
2
 49
0.5
 62
256
  6
BYLAYER
 49
-0.5
 62
256
  6
BYLAYER
  0
LAYOUT
  5
459
102
{ACAD_REACTORS
330
1A
102
}
100
AcDbPlotSettings
  1

  2
none_device
  4
ISO_A2_(594.00_x_420.00_MM)
  6

 40
0.0
 41
0.0
 42
0.0
 43
0.0
 44
594.0
 45
420.0
 46
0.0
 47
0.0
 48
0.0
 49
0.0
140
0.0
141
0.0
142
1.0
143
1.0
 70
1024
 72
1
 73
0
 74
0
  7

 75
0
147
1.0
148
0.0
149
0.0
100
AcDbLayout
  1
Model
 70
0
 71
0
 10
0.0
 20
0.0
 11
594.0
 21
420.0
 12
0.0
 22
0.0
 32
0.0
 14
0.0
 24
0.0
 34
0.0
 15
0.0
 25
0.0
 35
0.0
146
0.0
 13
0.0
 23
0.0
 33
0.0
 16
1.0
 26
0.0
 36
0.0
 17
0.0
 27
1.0
 37
0.0
 76
0
330
20E
345
0
346
0
  0
LAYOUT
  5
45A
102
{ACAD_REACTORS
330
1A
102
}
100
AcDbPlotSettings
  1

  2
none_device
  4
ISO_A2_(594.00_x_420.00_MM)
  6

 40
0.0
 41
0.0
 42
0.0
 43
0.0
 44
594.0
 45
420.0
 46
0.0
 47
0.0
 48
0.0
 49
0.0
140
0.0
141
0.0
142
1.0
143
1.0
 70
0
 72
1
 73
0
 74
0
  7

 75
0
147
1.0
148
0.0
149
0.0
100
AcDbLayout
  1
Layout1
 70
0
 71
1
 10
0.0
 20
0.0
 11
594.0
 21
420.0
 12
0.0
 22
0.0
 32
0.0
 14
0.0
 24
0.0
 34
0.0
 15
0.0
 25
0.0
 35
0.0
146
0.0
 13
0.0
 23
0.0
 33
0.0
 16
1.0
 26
0.0
 36
0.0
 17
0.0
 27
1.0
 37
0.0
 76
0
330
20F
345
0
346
0
  0
ENDSEC
  0
EOF
