999
DXF file: 001-m35378-p-1.dxf
999
Pro/ENGINEER 2011490 by Parametric Technology Corporation
  0
SECTION
  2
HEADER
  9
$ACADVER
  1
AC1015
  9
$DWGCODEPAGE
  3
ANSI_1252
  9
$EXTMAX
 10
841.0
 20
594.0
 30
0.0
  9
$EXTMIN
 10
0.0
 20
0.0
 30
0.0
  9
$LIMMIN
 10
0.0
 20
0.0
  9
$LIMMAX
 10
841.0
 20
594.0
  9
$VIEWCTR
 10
420.5
 20
297.0
  9
$VIEWSIZE
 40
594.0
  9
$CLAYER
  8
0
  9
$LTSCALE
 40
46.255
  9
$CELTYPE
  6
BYLAYER
  9
$DIMSCALE
 40
1.0
  9
$DIMASZ
 40
3.5
  9
$DIMEXO
 40
5.25625
  9
$DIMDLI
 40
31.958
  9
$DIMEXE
 40
15.138
  9
$DIMCEN
 40
7.569
  9
$DIMLFAC
 40
1.0
  9
$DIMBLK
  1
_FILLED
  9
$DIMTXT
 40
3.5
  9
$DIMTOL
 70
1
  9
$DIMLIM
 70
0
  9
$DIMTFAC
 40
1.0
  9
$DIMTP
 40
0.005
  9
$DIMTM
 40
0.005
  9
$PDMODE
 70
3
  9
$PDSIZE
 40
0.3125
  9
$HANDSEED
  5
519
  9
$TILEMODE
 70
1
  9
$MEASUREMENT
 70
1
  9
$INSUNITS
 70
4
  0
ENDSEC
  0
SECTION
  2
CLASSES
  0
CLASS
  1
ACDBDICTIONARYWDFLT
  2
AcDbDictionaryWithDefault
  3
AutoCAD 2000
 90
0
280
0
281
0
  0
CLASS
  1
ACDBPLACEHOLDER
  2
AcDbPlaceHolder
  3
AutoCAD 2000
 90
0
280
0
281
0
  0
CLASS
  1
LAYOUT
  2
AcDbLayout
  3
AutoCAD 2000
 90
0
280
0
281
0
  0
ENDSEC
  0
SECTION
  2
TABLES
  0
TABLE
  2
VPORT
  5
8
100
AcDbSymbolTable
 70
2
  0
VPORT
  5
1F4
100
AcDbSymbolTableRecord
100
AcDbViewportTableRecord
  2
*ACTIVE
 70
0
 10
0.0
 20
0.0
 11
1.0
 21
1.0
 12
420.5
 22
297.0
 13
0.0
 23
0.0
 14
1.0
 24
1.0
 15
0.0
 25
0.0
 16
0.0
 26
0.0
 36
1.0
 17
0.0
 27
0.0
 37
0.0
 40
594.0
 41
1.4158249158
 42
50.0
 43
0.0
 44
0.0
 50
0.0
 51
0.0
 71
0
 72
100
 73
1
 74
1
 75
0
 76
0
 77
0
 78
0
  0
ENDTAB
  0
TABLE
  2
LTYPE
  5
5
100
AcDbSymbolTable
 70
6
  0
LTYPE
  5
14
100
AcDbSymbolTableRecord
100
AcDbLinetypeTableRecord
  2
BYBLOCK
 70
0
  3

 72
65
 73
0
 40
0.0
  0
LTYPE
  5
15
100
AcDbSymbolTableRecord
100
AcDbLinetypeTableRecord
  2
BYLAYER
 70
0
  3

 72
65
 73
0
 40
0.0
  0
LTYPE
  5
16
100
AcDbSymbolTableRecord
100
AcDbLinetypeTableRecord
  2
CONTINUOUS
 70
64
  3
Solid line
 72
65
 73
0
 40
0.0
  0
LTYPE
  5
1F5
100
AcDbSymbolTableRecord
100
AcDbLinetypeTableRecord
  2
CENTER
 70
64
  3
____ _ ____ _ ____ _ ____ _ ____ _ ____ _ ____
 72
65
 73
4
 40
0.6
 49
0.375
 74
0
 49
-0.075
 74
0
 49
0.075
 74
0
 49
-0.075
 74
0
  0
LTYPE
  5
1F6
100
AcDbSymbolTableRecord
100
AcDbLinetypeTableRecord
  2
HIDDEN
 70
64
  3
- - - - - - - - - - - - - - - - - - - -
 72
65
 73
2
 40
0.2
 49
0.1
 74
0
 49
-0.1
 74
0
  0
LTYPE
  5
1F7
100
AcDbSymbolTableRecord
100
AcDbLinetypeTableRecord
  2
PHANTOM
 70
64
  3
_____ _ _ _____ _ _ _____ _ _ _____
 72
65
 73
6
 40
0.8
 49
0.45
 74
0
 49
-0.05
 74
0
 49
0.1
 74
0
 49
-0.05
 74
0
 49
0.1
 74
0
 49
-0.05
 74
0
  0
LTYPE
  5
1F8
100
AcDbSymbolTableRecord
100
AcDbLinetypeTableRecord
  2
DOT
 70
64
  3
. . . . . . . . . . . . . . . . . . . .
 72
65
 73
2
 40
0.2
 49
0.1
 74
0
 49
-0.1
 74
0
  0
LTYPE
  5
1F9
100
AcDbSymbolTableRecord
100
AcDbLinetypeTableRecord
  2
DASHED
 70
64
  3
- - - - - - - - - - - - - - - - - - - -
 72
65
 73
2
 40
0.2
 49
0.1
 74
0
 49
-0.1
 74
0
  0
ENDTAB
  0
TABLE
  2
LAYER
  5
2
100
AcDbSymbolTable
 70
36
  0
LAYER
  5
10
100
AcDbSymbolTableRecord
100
AcDbLayerTableRecord
  2
0
 70
0
 62
7
  6
CONTINUOUS
370
-3
390
F
  0
LAYER
  5
1FA
100
AcDbSymbolTableRecord
100
AcDbLayerTableRecord
  2
DEFAULT_1
 70
0
 62
7
  6
CENTER
370
-3
390
F
  0
LAYER
  5
1FB
100
AcDbSymbolTableRecord
100
AcDbLayerTableRecord
  2
DEFAULT_2
 70
0
 62
8
  6
HIDDEN
370
-3
390
F
  0
LAYER
  5
1FC
100
AcDbSymbolTableRecord
100
AcDbLayerTableRecord
  2
DEFAULT_3
 70
0
 62
7
  6
PHANTOM
370
-3
390
F
  0
LAYER
  5
1FD
100
AcDbSymbolTableRecord
100
AcDbLayerTableRecord
  2
BEZUGSACHSEN
 70
0
 62
7
  6
CONTINUOUS
370
-3
390
F
  0
LAYER
  5
1FE
100
AcDbSymbolTableRecord
100
AcDbLayerTableRecord
  2
BEZUGSEBENEN
 70
0
 62
7
  6
CONTINUOUS
370
-3
390
F
  0
LAYER
  5
1FF
100
AcDbSymbolTableRecord
100
AcDbLayerTableRecord
  2
BG_STARTBEZUEGE
 70
0
 62
7
  6
CONTINUOUS
370
-3
390
F
  0
LAYER
  5
200
100
AcDbSymbolTableRecord
100
AcDbLayerTableRecord
  2
FASEN
 70
0
 62
7
  6
CONTINUOUS
370
-3
390
F
  0
LAYER
  5
201
100
AcDbSymbolTableRecord
100
AcDbLayerTableRecord
  2
FLAECHEN
 70
0
 62
7
  6
CONTINUOUS
370
-3
390
F
  0
LAYER
  5
202
100
AcDbSymbolTableRecord
100
AcDbLayerTableRecord
  2
GEWINDE
 70
0
 62
7
  6
CONTINUOUS
370
-3
390
F
  0
LAYER
  5
203
100
AcDbSymbolTableRecord
100
AcDbLayerTableRecord
  2
HILFEN
 70
0
 62
7
  6
CONTINUOUS
370
-3
390
F
  0
LAYER
  5
204
100
AcDbSymbolTableRecord
100
AcDbLayerTableRecord
  2
KONSTRUKTIONSELEMENTE
 70
0
 62
7
  6
CONTINUOUS
370
-3
390
F
  0
LAYER
  5
205
100
AcDbSymbolTableRecord
100
AcDbLayerTableRecord
  2
KURVEN
 70
0
 62
7
  6
CONTINUOUS
370
-3
390
F
  0
LAYER
  5
206
100
AcDbSymbolTableRecord
100
AcDbLayerTableRecord
  2
NORM
 70
0
 62
7
  6
CONTINUOUS
370
-3
390
F
  0
LAYER
  5
207
100
AcDbSymbolTableRecord
100
AcDbLayerTableRecord
  2
PLATZIERUNG
 70
0
 62
7
  6
CONTINUOUS
370
-3
390
F
  0
LAYER
  5
208
100
AcDbSymbolTableRecord
100
AcDbLayerTableRecord
  2
RUNDUNGEN
 70
0
 62
7
  6
CONTINUOUS
370
-3
390
F
  0
LAYER
  5
209
100
AcDbSymbolTableRecord
100
AcDbLayerTableRecord
  2
TEIL_STARTBEZUEGE
 70
0
 62
7
  6
CONTINUOUS
370
-3
390
F
  0
LAYER
  5
20A
100
AcDbSymbolTableRecord
100
AcDbLayerTableRecord
  2
T_STARTBEZUEGE
 70
0
 62
7
  6
CONTINUOUS
370
-3
390
F
  0
LAYER
  5
20B
100
AcDbSymbolTableRecord
100
AcDbLayerTableRecord
  2
ZEICHNUNGSBEMASSUNGEN
 70
0
 62
7
  6
CONTINUOUS
370
-3
390
F
  0
ENDTAB
  0
TABLE
  2
STYLE
  5
3
100
AcDbSymbolTable
 70
1
  0
STYLE
  5
11
100
AcDbSymbolTableRecord
100
AcDbTextStyleTableRecord
  2
STANDARD
 70
0
 40
0.0
 41
0.7
 50
0.0
 71
0
 42
0.2
  3
txt
  4

  0
STYLE
  5
20C
100
AcDbSymbolTableRecord
100
AcDbTextStyleTableRecord
  2
TEXTSTYLE_1
 70
0
 40
0.0
 41
0.8
 50
0.0
 71
0
 42
0.2
  3
gdt
  4

  0
ENDTAB
  0
TABLE
  2
VIEW
  5
6
100
AcDbSymbolTable
 70
0
  0
ENDTAB
  0
TABLE
  2
UCS
  5
7
100
AcDbSymbolTable
 70
0
  0
ENDTAB
  0
TABLE
  2
APPID
  5
9
100
AcDbSymbolTable
 70
1
  0
APPID
  5
20D
100
AcDbSymbolTableRecord
100
AcDbRegAppTableRecord
  2
ACAD
 70
0
  0
ENDTAB
  0
TABLE
  2
BLOCK_RECORD
  5
1
100
AcDbSymbolTable
 70
0
  0
BLOCK_RECORD
  5
20E
100
AcDbSymbolTableRecord
100
AcDbBlockTableRecord
  2
*Model_Space
  0
BLOCK_RECORD
  5
20F
100
AcDbSymbolTableRecord
100
AcDbBlockTableRecord
  2
*Paper_Space
  0
ENDTAB
  0
TABLE
  2
DIMSTYLE
  5
A
100
AcDbSymbolTable
 70
1
100
AcDbDimStyleTable
 71
0
  0
DIMSTYLE
105
210
100
AcDbSymbolTableRecord
100
AcDbDimStyleTableRecord
  2
STANDARD
 70
0
  3

  4

 40
1.0
 41
3.5
 42
0.0625
 43
0.38
 44
0.18
 45
0.0
 46
0.0
 47
0.005
 48
0.005
140
3.5
141
0.09
142
0.0
143
25.4
144
1.0
145
0.0
146
1.0
147
0.09
 71
1.0
 72
0.0
 73
0
 74
0
 75
0
 76
0
 77
1
 78
8
170
0
171
2
172
0
173
0
174
0
175
0
176
0
177
0
178
5
270
2
271
3
272
3
273
2
274
2
275
0
280
0
281
0
282
0
283
1
284
8
285
0
286
0
287
3
288
0
340
11
  0
ENDTAB
  0
ENDSEC
  0
SECTION
  2
BLOCKS
  0
BLOCK
  5
20
100
AcDbEntity
  8
0
100
AcDbBlockBegin
  2
*Model_Space
 70
0
 10
0.0
 20
0.0
 30
0.0
  3
*Model_Space
  1

  0
ENDBLK
  5
21
100
AcDbEntity
  8
0
100
AcDbBlockEnd
  0
BLOCK
  5
1C
100
AcDbEntity
  8
0
100
AcDbBlockBegin
  2
*Paper_Space
 70
0
 10
0.0
 20
0.0
 30
0.0
  3
*Paper_Space
  1

  0
ENDBLK
  5
1D
100
AcDbEntity
  8
0
100
AcDbBlockEnd
  0
ENDSEC
  0
SECTION
  2
ENTITIES
  0
MTEXT
  5
211
100
AcDbEntity
  8
0
100
AcDbMText
 62
5
  6
CONTINUOUS
  7
STANDARD
 71
1
 72
1
 10
542.7541372431
 20
424.4331592925
 30
0.0
 11
0.0
 21
1.0
 31
0.0
 44
0.9
  1
VRS 20t RUD
 40
13.0
 41
114.2142857143
  0
MTEXT
  5
212
100
AcDbEntity
  8
0
100
AcDbMText
 62
5
  6
CONTINUOUS
  7
STANDARD
 71
1
 72
1
 10
163.6022375048
 20
116.0472199498
 30
0.0
 11
1.0
 21
0.0
 31
0.0
 44
0.9
  1
VRS 20t RUD
 40
13.0
 41
114.2142857143
  0
LINE
  5
213
100
AcDbEntity
  8
0
100
AcDbLine
 62
7
  6
CONTINUOUS
 10
0.0
 20
0.0
 11
0.0
 21
594.0
  0
LINE
  5
214
100
AcDbEntity
  8
0
100
AcDbLine
 62
7
  6
CONTINUOUS
 10
0.0
 20
0.0
 11
841.0
 21
0.0
  0
LINE
  5
215
100
AcDbEntity
  8
0
100
AcDbLine
 62
7
  6
CONTINUOUS
 10
0.0
 20
594.0
 11
841.0
 21
594.0
  0
LINE
  5
216
100
AcDbEntity
  8
0
100
AcDbLine
 62
7
  6
CONTINUOUS
 10
841.0
 20
0.0
 11
841.0
 21
594.0
  0
LINE
  5
217
100
AcDbEntity
  8
KONSTRUKTIONSELEMENTE
100
AcDbLine
 62
7
  6
CONTINUOUS
 10
191.7765194981
 20
240.9093315722
 11
247.7765194981
 21
240.9093315722
  0
LINE
  5
218
100
AcDbEntity
  8
RUNDUNGEN
100
AcDbLine
 62
7
  6
CONTINUOUS
 10
143.9320059264
 20
538.9953505573
 11
216.1928400026
 21
566.7336859008
  0
LINE
  5
219
100
AcDbEntity
  8
KONSTRUKTIONSELEMENTE
100
AcDbLine
 62
7
  6
CONTINUOUS
 10
187.7765194981
 20
244.9093315722
 11
251.7765194981
 21
244.9093315722
  0
LINE
  5
21A
100
AcDbEntity
  8
0
100
AcDbLine
 62
7
  6
CONTINUOUS
 10
164.2948097778
 20
528.965424527
 11
163.141685911
 21
528.203466067
  0
LINE
  5
21B
100
AcDbEntity
  8
0
100
AcDbLine
 62
7
  6
CONTINUOUS
 10
156.05996169
 20
520.7305764392
 11
154.906838919
 21
519.968619075
  0
LINE
  5
21C
100
AcDbEntity
  8
0
100
AcDbLine
 62
7
  6
CONTINUOUS
 10
164.506691679
 20
527.2214793943
 11
165.2767986422
 21
527.6004209506
  0
LINE
  5
21D
100
AcDbEntity
  8
0
100
AcDbLine
 62
7
  6
CONTINUOUS
 10
156.0762608878
 20
519.1822140099
 11
156.8463678509
 21
519.5611555662
  0
LINE
  5
21E
100
AcDbEntity
  8
0
100
AcDbLine
 62
7
  6
CONTINUOUS
 10
209.7556884496
 20
540.8540122749
 11
208.9431884496
 21
540.5774165632
  0
LINE
  5
21F
100
AcDbEntity
  8
KONSTRUKTIONSELEMENTE
100
AcDbLine
 62
7
  6
CONTINUOUS
 10
187.7765194981
 20
244.9093315722
 11
191.7765194981
 21
240.9093315722
  0
LINE
  5
220
100
AcDbEntity
  8
BEZUGSACHSEN
100
AcDbLine
 62
7
  6
CONTINUOUS
 10
106.3965767827
 20
456.5204958405
 11
106.9254597561
 21
457.7973322879
  0
LINE
  5
221
100
AcDbEntity
  8
RUNDUNGEN
100
AcDbLine
 62
7
  6
CONTINUOUS
 10
106.9254597561
 20
457.7973322879
 11
138.2768900967
 21
533.486380616
  0
LINE
  5
222
100
AcDbEntity
  8
0
100
AcDbLine
 62
7
  6
CONTINUOUS
 10
163.141685911
 20
528.203466067
 11
162.1841469392
 21
527.2459270953
  0
LINE
  5
223
100
AcDbEntity
  8
0
100
AcDbLine
 62
7
  6
CONTINUOUS
 10
154.906838919
 20
519.968619075
 11
150.3106448413
 21
515.3724249973
  0
LINE
  5
224
100
AcDbEntity
  8
0
100
AcDbLine
 62
7
  6
CONTINUOUS
 10
148.7785799661
 20
513.8403601221
 11
147.6295314466
 21
512.6913116026
  0
LINE
  5
225
100
AcDbEntity
  8
0
100
AcDbLine
 62
7
  6
CONTINUOUS
 10
142.2673052053
 20
507.3290853613
 11
141.1182566858
 21
506.1800368419
  0
LINE
  5
226
100
AcDbEntity
  8
0
100
AcDbLine
 62
7
  6
CONTINUOUS
 10
152.4376068777
 20
515.5435599997
 11
156.0762608878
 21
519.1822140099
  0
LINE
  5
227
100
AcDbEntity
  8
0
100
AcDbLine
 62
7
  6
CONTINUOUS
 10
163.3576431596
 20
526.0724308749
 11
164.506691679
 21
527.2214793943
  0
LINE
  5
228
100
AcDbEntity
  8
0
100
AcDbLine
 62
7
  6
CONTINUOUS
 10
166.6336537155
 20
527.3926143968
 11
167.7827022349
 21
528.5416629162
  0
LINE
  5
229
100
AcDbEntity
  8
0
100
AcDbLine
 62
7
  6
CONTINUOUS
 10
167.2448500745
 20
524.4833209989
 11
166.0958015551
 21
523.3342724794
  0
LINE
  5
22A
100
AcDbEntity
  8
0
100
AcDbLine
 62
7
  6
CONTINUOUS
 10
159.0100019867
 20
516.248472911
 11
155.3713479765
 21
512.6098189009
  0
LINE
  5
22B
100
AcDbEntity
  8
0
100
AcDbLine
 62
7
  6
CONTINUOUS
 10
156.5448441969
 20
511.4363226805
 11
159.8004813033
 21
514.691959787
  0
LINE
  5
22C
100
AcDbEntity
  8
0
100
AcDbLine
 62
7
  6
CONTINUOUS
 10
167.2692977754
 20
522.1607762591
 11
168.4183462949
 21
523.3098247785
  0
LINE
  5
22D
100
AcDbEntity
  8
0
100
AcDbLine
 62
7
  6
CONTINUOUS
 10
166.9188773498
 20
518.6810320311
 11
165.7698299262
 21
517.5319846075
  0
LINE
  5
22E
100
AcDbEntity
  8
0
100
AcDbLine
 62
7
  6
CONTINUOUS
 10
171.3520872567
 20
520.3760838166
 11
169.8200218336
 21
518.8440183935
  0
LINE
  5
22F
100
AcDbEntity
  8
0
100
AcDbLine
 62
7
  6
CONTINUOUS
 10
168.3979717497
 20
525.2452772672
 11
167.2448500745
 21
524.4833209989
  0
LINE
  5
230
100
AcDbEntity
  8
0
100
AcDbLine
 62
7
  6
CONTINUOUS
 10
169.8403943071
 20
516.9085635933
 11
170.993518191
 21
517.6705220361
  0
LINE
  5
231
100
AcDbEntity
  8
0
100
AcDbLine
 62
7
  6
CONTINUOUS
 10
168.4183462949
 20
523.3098247785
 11
169.379960614
 21
523.8802736908
  0
LINE
  5
232
100
AcDbEntity
  8
0
100
AcDbLine
 62
7
  6
CONTINUOUS
 10
166.3076812647
 20
521.5903251551
 11
167.2692977754
 21
522.1607762591
  0
LINE
  5
233
100
AcDbEntity
  8
0
100
AcDbLine
 62
7
  6
CONTINUOUS
 10
169.8200218336
 20
518.8440183935
 11
168.8584075145
 21
518.2735694811
  0
LINE
  5
234
100
AcDbEntity
  8
0
100
AcDbLine
 62
7
  6
CONTINUOUS
 10
210.0265222995
 20
539.4710337164
 11
211.1098553745
 21
540.0242251398
  0
LINE
  5
235
100
AcDbEntity
  8
0
100
AcDbLine
 62
7
  6
CONTINUOUS
 10
166.0958015551
 20
523.3342724794
 11
165.325694592
 21
522.9553309231
  0
LINE
  5
236
100
AcDbEntity
  8
0
100
AcDbLine
 62
7
  6
CONTINUOUS
 10
169.5551709638
 20
525.6201456678
 11
168.3979717497
 21
525.2452772672
  0
LINE
  5
237
100
AcDbEntity
  8
0
100
AcDbLine
 62
7
  6
CONTINUOUS
 10
165.1504842421
 20
521.2154589461
 11
166.3076812647
 21
521.5903251551
  0
LINE
  5
238
100
AcDbEntity
  8
0
100
AcDbLine
 62
7
  6
CONTINUOUS
 10
162.9787016033
 20
525.3023239118
 11
163.3576431596
 21
526.0724308749
  0
LINE
  5
239
100
AcDbEntity
  8
0
100
AcDbLine
 62
7
  6
CONTINUOUS
 10
159.388943543
 20
517.0185798741
 11
159.0100019867
 21
516.248472911
  0
LINE
  5
23A
100
AcDbEntity
  8
0
100
AcDbLine
 62
7
  6
CONTINUOUS
 10
162.1841469392
 20
527.2459270953
 11
161.6136958353
 21
526.2843105845
  0
LINE
  5
23B
100
AcDbEntity
  8
0
100
AcDbLine
 62
7
  6
CONTINUOUS
 10
172.5255836141
 20
519.2025874593
 11
173.2875398653
 21
520.3557091515
  0
LINE
  5
23C
100
AcDbEntity
  8
0
100
AcDbLine
 62
7
  6
CONTINUOUS
 10
210.2973553745
 20
541.4072036983
 11
209.7556884496
 21
540.8540122749
  0
LINE
  5
23D
100
AcDbEntity
  8
0
100
AcDbLine
 62
7
  6
CONTINUOUS
 10
153.3747743177
 20
500.0517781629
 11
154.906838919
 21
501.5838427641
  0
LINE
  5
23E
100
AcDbEntity
  8
0
100
AcDbLine
 62
7
  6
CONTINUOUS
 10
159.5030329967
 20
506.1800368419
 11
160.6520815161
 21
507.3290853613
  0
LINE
  5
23F
100
AcDbEntity
  8
0
100
AcDbLine
 62
7
  6
CONTINUOUS
 10
165.4397840457
 20
512.1167878908
 11
166.7803399211
 21
513.4573437663
  0
LINE
  5
240
100
AcDbEntity
  8
0
100
AcDbLine
 62
7
  6
CONTINUOUS
 10
170.993518191
 20
517.6705220361
 11
172.5255836141
 21
519.2025874593
  0
LINE
  5
241
100
AcDbEntity
  8
0
100
AcDbLine
 62
7
  6
CONTINUOUS
 10
221.9431892245
 20
535.598693365
 11
221.1306892245
 21
535.0455017479
  0
LINE
  5
242
100
AcDbEntity
  8
0
100
AcDbLine
 62
7
  6
CONTINUOUS
 10
221.4015215246
 20
533.3859273081
 11
222.4848553745
 21
533.9391188042
  0
LINE
  5
243
100
AcDbEntity
  8
0
100
AcDbLine
 62
7
  6
CONTINUOUS
 10
234.4015230744
 20
533.3859273081
 11
235.4848553745
 21
533.9391188042
  0
LINE
  5
244
100
AcDbEntity
  8
0
100
AcDbLine
 62
7
  6
CONTINUOUS
 10
161.6136958353
 20
526.2843105845
 11
161.2388296263
 21
525.127113562
  0
LINE
  5
245
100
AcDbEntity
  8
0
100
AcDbLine
 62
7
  6
CONTINUOUS
 10
160.558364416
 20
516.2321737132
 11
160.9332317207
 21
517.3893718315
  0
LINE
  5
246
100
AcDbEntity
  8
0
100
AcDbLine
 62
7
  6
CONTINUOUS
 10
171.9225361691
 20
521.3376981357
 11
171.3520872567
 21
520.3760838166
  0
LINE
  5
247
100
AcDbEntity
  8
0
100
AcDbLine
 62
7
  6
CONTINUOUS
 10
211.1098553745
 20
540.0242251398
 11
211.9223553745
 21
541.1306079866
  0
LINE
  5
248
100
AcDbEntity
  8
0
100
AcDbLine
 62
7
  6
CONTINUOUS
 10
222.4848553745
 20
533.9391188042
 11
223.5681892245
 21
535.0455017479
  0
LINE
  5
249
100
AcDbEntity
  8
0
100
AcDbLine
 62
7
  6
CONTINUOUS
 10
234.9431876747
 20
535.598693365
 11
234.1306876747
 21
535.0455017479
  0
LINE
  5
24A
100
AcDbEntity
  8
BEZUGSACHSEN
100
AcDbLine
 62
7
  6
CONTINUOUS
 10
143.2339013662
 20
360.1033023458
 11
106.3991640759
 21
448.8605868773
  0
LINE
  5
24B
100
AcDbEntity
  8
0
100
AcDbLine
 62
7
  6
CONTINUOUS
 10
162.7953427504
 20
524.3366342453
 11
162.9787016033
 21
525.3023239118
  0
LINE
  5
24C
100
AcDbEntity
  8
0
100
AcDbLine
 62
7
  6
CONTINUOUS
 10
173.2875398653
 20
520.3557091515
 11
173.6624082146
 21
521.5129084171
  0
LINE
  5
24D
100
AcDbEntity
  8
0
100
AcDbLine
 62
7
  6
CONTINUOUS
 10
235.4848553745
 20
533.9391188042
 11
236.5681876747
 21
535.0455017479
  0
LINE
  5
24E
100
AcDbEntity
  8
0
100
AcDbLine
 62
7
  6
CONTINUOUS
 10
159.3807939441
 20
517.7927610888
 11
159.388943543
 21
517.0185798741
  0
LINE
  5
24F
100
AcDbEntity
  8
0
100
AcDbLine
 62
7
  6
CONTINUOUS
 10
161.2388296263
 20
525.127113562
 11
161.2551288242
 21
523.5787511326
  0
LINE
  5
250
100
AcDbEntity
  8
0
100
AcDbLine
 62
7
  6
CONTINUOUS
 10
172.105894885
 20
522.3033879392
 11
171.9225361691
 21
521.3376981357
  0
LINE
  5
251
100
AcDbEntity
  8
0
100
AcDbLine
 62
7
  6
CONTINUOUS
 10
222.4848553745
 20
536.4284805001
 11
221.9431892245
 21
535.598693365
  0
LINE
  5
252
100
AcDbEntity
  8
0
100
AcDbLine
 62
7
  6
CONTINUOUS
 10
235.4848553745
 20
536.4284805001
 11
234.9431876747
 21
535.598693365
  0
LINE
  5
253
100
AcDbEntity
  8
KONSTRUKTIONSELEMENTE
100
AcDbLine
 62
7
  6
CONTINUOUS
 10
174.7765194981
 20
336.9093315722
 11
264.7765194981
 21
336.9093315722
  0
LINE
  5
254
100
AcDbEntity
  8
BEZUGSACHSEN
100
AcDbLine
 62
7
  6
CONTINUOUS
 10
280.2765194981
 20
337.1093315722
 11
159.2765194981
 21
337.1093315722
  0
LINE
  5
255
100
AcDbEntity
  8
0
100
AcDbLine
 62
7
  6
CONTINUOUS
 10
173.6624082146
 20
521.5129084171
 11
173.6461089482
 21
523.0612709149
  0
LINE
  5
256
100
AcDbEntity
  8
KONSTRUKTIONSELEMENTE
100
AcDbLine
 62
7
  6
CONTINUOUS
 10
174.7765194981
 20
337.1093315722
 11
174.7765194981
 21
336.9093315722
  0
LINE
  5
257
100
AcDbEntity
  8
0
100
AcDbLine
 62
7
  6
CONTINUOUS
 10
210.5681884496
 20
542.2369908334
 11
210.2973553745
 21
541.4072036983
  0
LINE
  5
258
100
AcDbEntity
  8
0
100
AcDbLine
 62
7
  6
CONTINUOUS
 10
211.9223553745
 20
541.1306079866
 11
212.1931884496
 21
541.9603951217
  0
LINE
  5
259
100
AcDbEntity
  8
0
100
AcDbLine
 62
7
  6
CONTINUOUS
 10
223.5681892245
 20
535.0455017479
 11
224.1098553745
 21
536.1518847884
  0
LINE
  5
25A
100
AcDbEntity
  8
0
100
AcDbLine
 62
7
  6
CONTINUOUS
 10
236.5681876747
 20
535.0455017479
 11
237.1098553745
 21
536.1518847884
  0
LINE
  5
25B
100
AcDbEntity
  8
0
100
AcDbLine
 62
7
  6
CONTINUOUS
 10
225.3911050765
 20
353.2369911389
 11
222.8390197961
 21
352.7157146053
  0
LINE
  5
25C
100
AcDbEntity
  8
0
100
AcDbLine
 62
7
  6
CONTINUOUS
 10
222.8390197961
 20
350.1093315722
 11
225.9015197961
 21
350.6306081514
  0
LINE
  5
25D
100
AcDbEntity
  8
0
100
AcDbLine
 62
7
  6
CONTINUOUS
 10
191.1931874363
 20
350.1093315722
 11
209.5681874363
 21
350.1093315722
  0
LINE
  5
25E
100
AcDbEntity
  8
0
100
AcDbLine
 62
7
  6
CONTINUOUS
 10
209.5681874363
 20
352.7157146053
 11
195.2765208913
 21
352.7157146053
  0
LINE
  5
25F
100
AcDbEntity
  8
0
100
AcDbLine
 62
7
  6
CONTINUOUS
 10
219.7765197961
 20
350.6306081514
 11
222.8390197961
 21
350.1093315722
  0
LINE
  5
260
100
AcDbEntity
  8
0
100
AcDbLine
 62
7
  6
CONTINUOUS
 10
244.2765227167
 20
350.6306081514
 11
247.3390227167
 21
350.1093315722
  0
LINE
  5
261
100
AcDbEntity
  8
0
100
AcDbLine
 62
7
  6
CONTINUOUS
 10
222.8390197961
 20
352.7157146053
 11
220.2869374363
 21
353.2369911389
  0
LINE
  5
262
100
AcDbEntity
  8
0
100
AcDbLine
 62
7
  6
CONTINUOUS
 10
247.3390227167
 20
352.1944378892
 11
244.7869374363
 21
352.7157146053
  0
LINE
  5
263
100
AcDbEntity
  8
0
100
AcDbLine
 62
7
  6
CONTINUOUS
 10
242.7452727167
 20
351.1518847307
 11
244.2765227167
 21
350.6306081514
  0
LINE
  5
264
100
AcDbEntity
  8
0
100
AcDbLine
 62
7
  6
CONTINUOUS
 10
217.2244374363
 20
352.1944378892
 11
219.7765197961
 21
350.6306081514
  0
LINE
  5
265
100
AcDbEntity
  8
KONSTRUKTIONSELEMENTE
100
AcDbLine
 62
7
  6
CONTINUOUS
 10
187.7765194981
 20
336.9093315722
 11
187.7765194981
 21
244.9093315722
  0
LINE
  5
266
100
AcDbEntity
  8
0
100
AcDbLine
 62
7
  6
CONTINUOUS
 10
191.1931874363
 20
352.7157146053
 11
191.1931874363
 21
350.1093315722
  0
LINE
  5
267
100
AcDbEntity
  8
0
100
AcDbLine
 62
7
  6
CONTINUOUS
 10
222.7556892245
 20
537.534863347
 11
222.4848553745
 21
536.4284805001
  0
LINE
  5
268
100
AcDbEntity
  8
0
100
AcDbLine
 62
7
  6
CONTINUOUS
 10
273.5996983714
 20
515.7035478006
 11
275.0098835132
 21
517.1137329423
  0
LINE
  5
269
100
AcDbEntity
  8
0
100
AcDbLine
 62
7
  6
CONTINUOUS
 10
281.4765364341
 20
523.5803858633
 11
282.8867215759
 21
524.990571005
  0
LINE
  5
26A
100
AcDbEntity
  8
0
100
AcDbLine
 62
7
  6
CONTINUOUS
 10
284.5397933091
 20
512.6504046406
 11
285.9499784509
 21
514.0605897823
  0
LINE
  5
26B
100
AcDbEntity
  8
0
100
AcDbLine
 62
7
  6
CONTINUOUS
 10
281.5296983714
 20
507.7735478006
 11
282.9398835132
 21
509.1837329423
  0
LINE
  5
26C
100
AcDbEntity
  8
0
100
AcDbLine
 62
7
  6
CONTINUOUS
 10
289.4065364341
 20
515.6503858633
 11
290.8167215759
 21
517.060571005
  0
LINE
  5
26D
100
AcDbEntity
  8
0
100
AcDbLine
 62
7
  6
CONTINUOUS
 10
220.2869374363
 20
371.4816723706
 11
222.8390197961
 21
372.0029489042
  0
LINE
  5
26E
100
AcDbEntity
  8
0
100
AcDbLine
 62
7
  6
CONTINUOUS
 10
222.8390197961
 20
374.6093315722
 11
219.7765197961
 21
374.0880550386
  0
LINE
  5
26F
100
AcDbEntity
  8
0
100
AcDbLine
 62
7
  6
CONTINUOUS
 10
236.1098550765
 20
364.7050759734
 11
240.1931874363
 21
364.7050759734
  0
LINE
  5
270
100
AcDbEntity
  8
0
100
AcDbLine
 62
7
  6
CONTINUOUS
 10
242.7452727167
 20
364.7050759734
 11
248.3598521559
 21
364.7050759734
  0
LINE
  5
271
100
AcDbEntity
  8
0
100
AcDbLine
 62
7
  6
CONTINUOUS
 10
248.3598521559
 20
366.7901821078
 11
242.7452727167
 21
366.7901821078
  0
LINE
  5
272
100
AcDbEntity
  8
0
100
AcDbLine
 62
7
  6
CONTINUOUS
 10
240.1931874363
 20
366.7901821078
 11
236.1098550765
 21
366.7901821078
  0
LINE
  5
273
100
AcDbEntity
  8
0
100
AcDbLine
 62
7
  6
CONTINUOUS
 10
191.7036041182
 20
368.8752897026
 11
194.2556874363
 21
368.8752897026
  0
LINE
  5
274
100
AcDbEntity
  8
0
100
AcDbLine
 62
7
  6
CONTINUOUS
 10
242.7452727167
 20
370.960395837
 11
240.1931874363
 21
370.960395837
  0
LINE
  5
275
100
AcDbEntity
  8
0
100
AcDbLine
 62
7
  6
CONTINUOUS
 10
199.3598543464
 20
372.0029489042
 11
201.4015205263
 21
372.0029489042
  0
LINE
  5
276
100
AcDbEntity
  8
0
100
AcDbLine
 62
7
  6
CONTINUOUS
 10
201.9119374363
 20
374.6093315722
 11
199.8702705263
 21
374.6093315722
  0
LINE
  5
277
100
AcDbEntity
  8
0
100
AcDbLine
 62
7
  6
CONTINUOUS
 10
204.9744374363
 20
374.0880550386
 11
201.9119374363
 21
374.6093315722
  0
LINE
  5
278
100
AcDbEntity
  8
0
100
AcDbLine
 62
7
  6
CONTINUOUS
 10
225.9015197961
 20
374.0880550386
 11
222.8390197961
 21
374.6093315722
  0
LINE
  5
279
100
AcDbEntity
  8
0
100
AcDbLine
 62
7
  6
CONTINUOUS
 10
201.4015205263
 20
372.0029489042
 11
203.9536036162
 21
371.4816723706
  0
LINE
  5
27A
100
AcDbEntity
  8
0
100
AcDbLine
 62
7
  6
CONTINUOUS
 10
222.8390197961
 20
372.0029489042
 11
225.3911050765
 21
371.4816723706
  0
LINE
  5
27B
100
AcDbEntity
  8
0
100
AcDbLine
 62
7
  6
CONTINUOUS
 10
207.0161036162
 20
373.0455019714
 11
204.9744374363
 21
374.0880550386
  0
LINE
  5
27C
100
AcDbEntity
  8
0
100
AcDbLine
 62
7
  6
CONTINUOUS
 10
220.2869374363
 20
353.2369911389
 11
218.7556874363
 21
354.2795442061
  0
LINE
  5
27D
100
AcDbEntity
  8
0
100
AcDbLine
 62
7
  6
CONTINUOUS
 10
203.9536036162
 20
371.4816723706
 11
205.4848536162
 21
370.4391193034
  0
LINE
  5
27E
100
AcDbEntity
  8
0
100
AcDbLine
 62
7
  6
CONTINUOUS
 10
241.2140227167
 20
352.1944378892
 11
242.7452727167
 21
351.1518847307
  0
LINE
  5
27F
100
AcDbEntity
  8
0
100
AcDbLine
 62
7
  6
CONTINUOUS
 10
244.7869374363
 20
352.7157146053
 11
243.2556874363
 21
353.7582676725
  0
LINE
  5
280
100
AcDbEntity
  8
0
100
AcDbLine
 62
7
  6
CONTINUOUS
 10
215.6931874363
 20
353.7582676725
 11
217.2244374363
 21
352.1944378892
  0
LINE
  5
281
100
AcDbEntity
  8
0
100
AcDbLine
 62
7
  6
CONTINUOUS
 10
209.0577712564
 20
370.960395837
 11
207.0161036162
 21
373.0455019714
  0
LINE
  5
282
100
AcDbEntity
  8
0
100
AcDbLine
 62
7
  6
CONTINUOUS
 10
205.4848536162
 20
370.4391193034
 11
206.5056874363
 21
368.8752897026
  0
LINE
  5
283
100
AcDbEntity
  8
0
100
AcDbLine
 62
7
  6
CONTINUOUS
 10
218.7556874363
 20
354.2795442061
 11
216.7140197961
 21
357.4072037728
  0
LINE
  5
284
100
AcDbEntity
  8
0
100
AcDbLine
 62
7
  6
CONTINUOUS
 10
160.9332317207
 20
517.3893718315
 11
160.7254251669
 21
518.7462269048
  0
LINE
  5
285
100
AcDbEntity
  8
0
100
AcDbLine
 62
7
  6
CONTINUOUS
 10
202.1723553745
 20
546.1093315722
 11
202.1723553745
 21
533.1093315722
  0
LINE
  5
286
100
AcDbEntity
  8
0
100
AcDbLine
 62
7
  6
CONTINUOUS
 10
203.7973553745
 20
533.1093315722
 11
203.7973553745
 21
538.9178422929
  0
LINE
  5
287
100
AcDbEntity
  8
0
100
AcDbLine
 62
7
  6
CONTINUOUS
 10
203.7973553745
 20
540.5774165632
 11
203.7973553745
 21
544.7263530137
  0
LINE
  5
288
100
AcDbEntity
  8
0
100
AcDbLine
 62
7
  6
CONTINUOUS
 10
206.5056874363
 20
368.8752897026
 11
206.5056874363
 21
367.832735175
  0
LINE
  5
289
100
AcDbEntity
  8
0
100
AcDbLine
 62
7
  6
CONTINUOUS
 10
224.1098553745
 20
536.1518847884
 11
224.3806892245
 21
537.534863347
  0
LINE
  5
28A
100
AcDbEntity
  8
0
100
AcDbLine
 62
7
  6
CONTINUOUS
 10
192.2140208001
 20
370.960395837
 11
191.7036041182
 21
368.8752897026
  0
LINE
  5
28B
100
AcDbEntity
  8
0
100
AcDbLine
 62
7
  6
CONTINUOUS
 10
235.7556876747
 20
537.534863347
 11
235.4848553745
 21
536.4284805001
  0
LINE
  5
28C
100
AcDbEntity
  8
0
100
AcDbLine
 62
7
  6
CONTINUOUS
 10
196.8077708913
 20
371.4816723706
 11
199.3598543464
 21
372.0029489042
  0
LINE
  5
28D
100
AcDbEntity
  8
0
100
AcDbLine
 62
7
  6
CONTINUOUS
 10
199.8702705263
 20
374.6093315722
 11
196.2973539813
 21
374.0880550386
  0
LINE
  5
28E
100
AcDbEntity
  8
0
100
AcDbLine
 62
7
  6
CONTINUOUS
 10
228.4536050765
 20
372.5242254378
 11
225.9015197961
 21
374.0880550386
  0
LINE
  5
28F
100
AcDbEntity
  8
0
100
AcDbLine
 62
7
  6
CONTINUOUS
 10
225.3911050765
 20
371.4816723706
 11
226.9223550765
 21
370.4391193034
  0
LINE
  5
290
100
AcDbEntity
  8
0
100
AcDbLine
 62
7
  6
CONTINUOUS
 10
229.9848550765
 20
370.960395837
 11
228.4536050765
 21
372.5242254378
  0
LINE
  5
291
100
AcDbEntity
  8
0
100
AcDbLine
 62
7
  6
CONTINUOUS
 10
154.906838919
 20
501.5838427641
 11
148.7785799661
 21
513.8403601221
  0
LINE
  5
292
100
AcDbEntity
  8
0
100
AcDbLine
 62
7
  6
CONTINUOUS
 10
147.6295314466
 20
512.6913116026
 11
152.967310124
 21
501.9913066839
  0
LINE
  5
293
100
AcDbEntity
  8
0
100
AcDbLine
 62
7
  6
CONTINUOUS
 10
214.6723536162
 20
355.843374172
 11
215.6931874363
 21
353.7582676725
  0
LINE
  5
294
100
AcDbEntity
  8
0
100
AcDbLine
 62
7
  6
CONTINUOUS
 10
214.1619374363
 20
357.4072037728
 11
214.6723536162
 21
355.843374172
  0
LINE
  5
295
100
AcDbEntity
  8
0
100
AcDbLine
 62
7
  6
CONTINUOUS
 10
209.5681874363
 20
368.8752897026
 11
209.0577712564
 21
370.960395837
  0
LINE
  5
296
100
AcDbEntity
  8
0
100
AcDbLine
 62
7
  6
CONTINUOUS
 10
171.9021636785
 20
523.2731529531
 11
172.105894885
 21
522.3033879392
  0
LINE
  5
297
100
AcDbEntity
  8
0
100
AcDbLine
 62
7
  6
CONTINUOUS
 10
213.6515212564
 20
360.013587171
 11
214.1619374363
 21
357.4072037728
  0
LINE
  5
298
100
AcDbEntity
  8
0
100
AcDbLine
 62
7
  6
CONTINUOUS
 10
209.5681874363
 20
350.1093315722
 11
209.5681874363
 21
352.7157146053
  0
LINE
  5
299
100
AcDbEntity
  8
0
100
AcDbLine
 62
7
  6
CONTINUOUS
 10
209.5681874363
 20
367.832735175
 11
209.5681874363
 21
368.8752897026
  0
LINE
  5
29A
100
AcDbEntity
  8
0
100
AcDbLine
 62
7
  6
CONTINUOUS
 10
210.5681884496
 20
543.0667787434
 11
210.5681884496
 21
542.2369908334
  0
LINE
  5
29B
100
AcDbEntity
  8
0
100
AcDbLine
 62
7
  6
CONTINUOUS
 10
211.6098515598
 20
395.1540231583
 11
211.6098515598
 21
395.2093315722
  0
LINE
  5
29C
100
AcDbEntity
  8
0
100
AcDbLine
 62
7
  6
CONTINUOUS
 10
212.1931884496
 20
541.9603951217
 11
212.1931884496
 21
543.0667787434
  0
LINE
  5
29D
100
AcDbEntity
  8
0
100
AcDbLine
 62
7
  6
CONTINUOUS
 10
213.3598515598
 20
395.095563626
 11
213.3598515598
 21
395.2093315722
  0
LINE
  5
29E
100
AcDbEntity
  8
0
100
AcDbLine
 62
7
  6
CONTINUOUS
 10
213.6515212564
 20
364.7050759734
 11
213.6515212564
 21
360.013587171
  0
LINE
  5
29F
100
AcDbEntity
  8
0
100
AcDbLine
 62
7
  6
CONTINUOUS
 10
214.6306884496
 20
546.1093315722
 11
214.6306884496
 21
537.534863347
  0
LINE
  5
2A0
100
AcDbEntity
  8
0
100
AcDbLine
 62
7
  6
CONTINUOUS
 10
215.6931843369
 20
395.0377354643
 11
215.6931843369
 21
395.2093315722
  0
LINE
  5
2A1
100
AcDbEntity
  8
0
100
AcDbLine
 62
7
  6
CONTINUOUS
 10
215.9848515598
 20
395.0335775262
 11
215.9848515598
 21
395.2093315722
  0
LINE
  5
2A2
100
AcDbEntity
  8
0
100
AcDbLine
 62
7
  6
CONTINUOUS
 10
216.2036050765
 20
360.5348637046
 11
216.2036050765
 21
364.1837994398
  0
LINE
  5
2A3
100
AcDbEntity
  8
0
100
AcDbLine
 62
7
  6
CONTINUOUS
 10
216.2556892245
 20
537.534863347
 11
216.2556892245
 21
546.1093315722
  0
LINE
  5
2A4
100
AcDbEntity
  8
0
100
AcDbLine
 62
7
  6
CONTINUOUS
 10
216.5681843369
 20
395.0252616739
 11
216.5681843369
 21
395.2093315722
  0
LINE
  5
2A5
100
AcDbEntity
  8
0
100
AcDbLine
 62
7
  6
CONTINUOUS
 10
217.4431843369
 20
395.0127878834
 11
217.4431843369
 21
395.2093315722
  0
LINE
  5
2A6
100
AcDbEntity
  8
0
100
AcDbLine
 62
7
  6
CONTINUOUS
 10
218.9015187828
 20
395.0032159747
 11
218.9015187828
 21
395.2093315722
  0
LINE
  5
2A7
100
AcDbEntity
  8
0
100
AcDbLine
 62
7
  6
CONTINUOUS
 10
220.3598515598
 20
395.001832434
 11
220.3598515598
 21
395.2093315722
  0
LINE
  5
2A8
100
AcDbEntity
  8
0
100
AcDbLine
 62
7
  6
CONTINUOUS
 10
237.1098553745
 20
536.1518847884
 11
237.3806876747
 21
537.534863347
  0
LINE
  5
2A9
100
AcDbEntity
  8
0
100
AcDbLine
 62
7
  6
CONTINUOUS
 10
214.1619374363
 20
367.3114586414
 11
213.6515212564
 21
364.7050759734
  0
LINE
  5
2AA
100
AcDbEntity
  8
0
100
AcDbLine
 62
7
  6
CONTINUOUS
 10
209.0577712564
 20
365.7476290406
 11
209.5681874363
 21
367.832735175
  0
LINE
  5
2AB
100
AcDbEntity
  8
0
100
AcDbLine
 62
7
  6
CONTINUOUS
 10
194.2556874363
 20
368.8752897026
 11
195.2765208913
 21
370.4391193034
  0
LINE
  5
2AC
100
AcDbEntity
  8
0
100
AcDbLine
 62
7
  6
CONTINUOUS
 10
210.3203616183
 20
395.2093315722
 11
213.3598515598
 21
395.2093315722
  0
LINE
  5
2AD
100
AcDbEntity
  8
0
100
AcDbLine
 62
7
  6
CONTINUOUS
 10
215.6931843369
 20
395.2093315722
 11
226.1931843369
 21
395.2093315722
  0
LINE
  5
2AE
100
AcDbEntity
  8
0
100
AcDbLine
 62
7
  6
CONTINUOUS
 10
228.5265171139
 20
395.2093315722
 11
229.2326784697
 21
395.2093315722
  0
LINE
  5
2AF
100
AcDbEntity
  8
0
100
AcDbLine
 62
7
  6
CONTINUOUS
 10
226.9223550765
 20
370.4391193034
 11
228.9640197961
 21
367.3114586414
  0
LINE
  5
2B0
100
AcDbEntity
  8
0
100
AcDbLine
 62
7
  6
CONTINUOUS
 10
158.9855542857
 20
518.5710176508
 11
159.3807939441
 21
517.7927610888
  0
LINE
  5
2B1
100
AcDbEntity
  8
0
100
AcDbLine
 62
7
  6
CONTINUOUS
 10
160.7254251669
 20
518.7462269048
 11
160.3301855085
 21
519.5244834669
  0
LINE
  5
2B2
100
AcDbEntity
  8
0
100
AcDbLine
 62
7
  6
CONTINUOUS
 10
231.0056874363
 20
368.8752897026
 11
229.9848550765
 21
370.960395837
  0
LINE
  5
2B3
100
AcDbEntity
  8
0
100
AcDbLine
 62
7
  6
CONTINUOUS
 10
240.1931874363
 20
354.2795442061
 11
241.2140227167
 21
352.1944378892
  0
LINE
  5
2B4
100
AcDbEntity
  8
0
100
AcDbLine
 62
7
  6
CONTINUOUS
 10
173.6461089482
 20
523.0612709149
 11
173.2467949014
 21
524.2266187691
  0
LINE
  5
2B5
100
AcDbEntity
  8
0
100
AcDbLine
 62
7
  6
CONTINUOUS
 10
231.5161050765
 20
367.3114586414
 11
231.0056874363
 21
368.8752897026
  0
LINE
  5
2B6
100
AcDbEntity
  8
0
100
AcDbLine
 62
7
  6
CONTINUOUS
 10
216.7140197961
 20
357.4072037728
 11
216.2036050765
 21
360.5348637046
  0
LINE
  5
2B7
100
AcDbEntity
  8
0
100
AcDbLine
 62
7
  6
CONTINUOUS
 10
221.8181843369
 20
395.0087502715
 11
221.8181843369
 21
395.2093315722
  0
LINE
  5
2B8
100
AcDbEntity
  8
0
100
AcDbLine
 62
7
  6
CONTINUOUS
 10
222.7556892245
 20
546.1093315722
 11
222.7556892245
 21
537.534863347
  0
LINE
  5
2B9
100
AcDbEntity
  8
0
100
AcDbLine
 62
7
  6
CONTINUOUS
 10
223.2765187828
 20
395.0294194717
 11
223.2765187828
 21
395.2093315722
  0
LINE
  5
2BA
100
AcDbEntity
  8
0
100
AcDbLine
 62
7
  6
CONTINUOUS
 10
224.3806892245
 20
537.534863347
 11
224.3806892245
 21
546.1093315722
  0
LINE
  5
2BB
100
AcDbEntity
  8
0
100
AcDbLine
 62
7
  6
CONTINUOUS
 10
224.7348515598
 20
395.0583356295
 11
224.7348515598
 21
395.2093315722
  0
LINE
  5
2BC
100
AcDbEntity
  8
0
100
AcDbLine
 62
7
  6
CONTINUOUS
 10
225.6098515598
 20
395.0791545612
 11
225.6098515598
 21
395.2093315722
  0
LINE
  5
2BD
100
AcDbEntity
  8
0
100
AcDbLine
 62
7
  6
CONTINUOUS
 10
226.1931843369
 20
395.0955636972
 11
226.1931843369
 21
395.2093315722
  0
LINE
  5
2BE
100
AcDbEntity
  8
0
100
AcDbLine
 62
7
  6
CONTINUOUS
 10
226.5473553745
 20
546.1093315722
 11
226.5473553745
 21
533.1093315722
  0
LINE
  5
2BF
100
AcDbEntity
  8
0
100
AcDbLine
 62
7
  6
CONTINUOUS
 10
228.1723553745
 20
534.7689060362
 11
228.1723553745
 21
544.449757302
  0
LINE
  5
2C0
100
AcDbEntity
  8
0
100
AcDbLine
 62
7
  6
CONTINUOUS
 10
228.5265171139
 20
395.1788999278
 11
228.5265171139
 21
395.2093315722
  0
LINE
  5
2C1
100
AcDbEntity
  8
0
100
AcDbLine
 62
7
  6
CONTINUOUS
 10
229.4744374363
 20
364.1837994398
 11
229.4744374363
 21
360.5348637046
  0
LINE
  5
2C2
100
AcDbEntity
  8
0
100
AcDbLine
 62
7
  6
CONTINUOUS
 10
232.0265197961
 20
360.013587171
 11
232.0265197961
 21
364.7050759734
  0
LINE
  5
2C3
100
AcDbEntity
  8
0
100
AcDbLine
 62
7
  6
CONTINUOUS
 10
235.7556876747
 20
541.68379941
 11
235.7556876747
 21
537.534863347
  0
LINE
  5
2C4
100
AcDbEntity
  8
0
100
AcDbLine
 62
7
  6
CONTINUOUS
 10
236.1098550765
 20
366.7901821078
 11
236.1098550765
 21
364.7050759734
  0
LINE
  5
2C5
100
AcDbEntity
  8
0
100
AcDbLine
 62
7
  6
CONTINUOUS
 10
216.2036050765
 20
364.1837994398
 11
216.7140197961
 21
367.3114586414
  0
LINE
  5
2C6
100
AcDbEntity
  8
0
100
AcDbLine
 62
7
  6
CONTINUOUS
 10
229.4744374363
 20
360.5348637046
 11
228.9640197961
 21
357.4072037728
  0
LINE
  5
2C7
100
AcDbEntity
  8
0
100
AcDbLine
 62
7
  6
CONTINUOUS
 10
214.6723536162
 20
368.8752897026
 11
214.1619374363
 21
367.3114586414
  0
LINE
  5
2C8
100
AcDbEntity
  8
0
100
AcDbLine
 62
7
  6
CONTINUOUS
 10
206.5056874363
 20
367.832735175
 11
205.4848536162
 21
365.7476290406
  0
LINE
  5
2C9
100
AcDbEntity
  8
0
100
AcDbLine
 62
7
  6
CONTINUOUS
 10
215.6931874363
 20
370.960395837
 11
214.6723536162
 21
368.8752897026
  0
LINE
  5
2CA
100
AcDbEntity
  8
0
100
AcDbLine
 62
7
  6
CONTINUOUS
 10
208.0369374363
 20
364.1837994398
 11
209.0577712564
 21
365.7476290406
  0
LINE
  5
2CB
100
AcDbEntity
  8
0
100
AcDbLine
 62
7
  6
CONTINUOUS
 10
194.2556874363
 20
373.0455019714
 11
192.2140208001
 21
370.960395837
  0
LINE
  5
2CC
100
AcDbEntity
  8
0
100
AcDbLine
 62
7
  6
CONTINUOUS
 10
195.2765208913
 20
370.4391193034
 11
196.8077708913
 21
371.4816723706
  0
LINE
  5
2CD
100
AcDbEntity
  8
0
100
AcDbLine
 62
7
  6
CONTINUOUS
 10
196.2973539813
 20
374.0880550386
 11
194.2556874363
 21
373.0455019714
  0
LINE
  5
2CE
100
AcDbEntity
  8
0
100
AcDbLine
 62
7
  6
CONTINUOUS
 10
161.2551288242
 20
523.5787511326
 11
161.8459500901
 21
522.6049107714
  0
LINE
  5
2CF
100
AcDbEntity
  8
0
100
AcDbLine
 62
7
  6
CONTINUOUS
 10
163.1905818608
 20
523.5583760395
 11
162.7953427504
 21
524.3366342453
  0
LINE
  5
2D0
100
AcDbEntity
  8
0
100
AcDbLine
 62
7
  6
CONTINUOUS
 10
243.2556874363
 20
353.7582676725
 11
242.7452727167
 21
355.3220976384
  0
LINE
  5
2D1
100
AcDbEntity
  8
0
100
AcDbLine
 62
7
  6
CONTINUOUS
 10
232.0265197961
 20
364.7050759734
 11
231.5161050765
 21
367.3114586414
  0
LINE
  5
2D2
100
AcDbEntity
  8
0
100
AcDbLine
 62
7
  6
CONTINUOUS
 10
228.9640197961
 20
367.3114586414
 11
229.4744374363
 21
364.1837994398
  0
LINE
  5
2D3
100
AcDbEntity
  8
0
100
AcDbLine
 62
7
  6
CONTINUOUS
 10
237.3806876747
 20
537.534863347
 11
237.3806876747
 21
541.68379941
  0
LINE
  5
2D4
100
AcDbEntity
  8
0
100
AcDbLine
 62
7
  6
CONTINUOUS
 10
240.1931874363
 20
370.960395837
 11
240.1931874363
 21
366.7901821078
  0
LINE
  5
2D5
100
AcDbEntity
  8
0
100
AcDbLine
 62
7
  6
CONTINUOUS
 10
240.1931874363
 20
364.7050759734
 11
240.1931874363
 21
354.2795442061
  0
LINE
  5
2D6
100
AcDbEntity
  8
0
100
AcDbLine
 62
7
  6
CONTINUOUS
 10
242.7452727167
 20
355.3220976384
 11
242.7452727167
 21
364.7050759734
  0
LINE
  5
2D7
100
AcDbEntity
  8
0
100
AcDbLine
 62
7
  6
CONTINUOUS
 10
242.7452727167
 20
366.7901821078
 11
242.7452727167
 21
370.960395837
  0
LINE
  5
2D8
100
AcDbEntity
  8
0
100
AcDbLine
 62
7
  6
CONTINUOUS
 10
247.3390227167
 20
350.1093315722
 11
247.3390227167
 21
352.1944378892
  0
LINE
  5
2D9
100
AcDbEntity
  8
0
100
AcDbLine
 62
7
  6
CONTINUOUS
 10
248.3598521559
 20
364.7050759734
 11
248.3598521559
 21
366.7901821078
  0
LINE
  5
2DA
100
AcDbEntity
  8
0
100
AcDbLine
 62
7
  6
CONTINUOUS
 10
231.5161050765
 20
357.4072037728
 11
232.0265197961
 21
360.013587171
  0
LINE
  5
2DB
100
AcDbEntity
  8
0
100
AcDbLine
 62
7
  6
CONTINUOUS
 10
231.0056874363
 20
355.843374172
 11
231.5161050765
 21
357.4072037728
  0
LINE
  5
2DC
100
AcDbEntity
  8
0
100
AcDbLine
 62
7
  6
CONTINUOUS
 10
229.9848550765
 20
353.7582676725
 11
231.0056874363
 21
355.843374172
  0
LINE
  5
2DD
100
AcDbEntity
  8
0
100
AcDbLine
 62
7
  6
CONTINUOUS
 10
216.7140197961
 20
367.3114586414
 11
218.7556874363
 21
370.4391193034
  0
LINE
  5
2DE
100
AcDbEntity
  8
0
100
AcDbLine
 62
7
  6
CONTINUOUS
 10
217.2244374363
 20
372.5242254378
 11
215.6931874363
 21
370.960395837
  0
LINE
  5
2DF
100
AcDbEntity
  8
0
100
AcDbLine
 62
7
  6
CONTINUOUS
 10
205.4848536162
 20
365.7476290406
 11
191.1931874363
 21
352.7157146053
  0
LINE
  5
2E0
100
AcDbEntity
  8
0
100
AcDbLine
 62
7
  6
CONTINUOUS
 10
195.2765208913
 20
352.7157146053
 11
208.0369374363
 21
364.1837994398
  0
LINE
  5
2E1
100
AcDbEntity
  8
0
100
AcDbLine
 62
7
  6
CONTINUOUS
 10
218.7556874363
 20
370.4391193034
 11
220.2869374363
 21
371.4816723706
  0
LINE
  5
2E2
100
AcDbEntity
  8
0
100
AcDbLine
 62
7
  6
CONTINUOUS
 10
219.7765197961
 20
374.0880550386
 11
217.2244374363
 21
372.5242254378
  0
LINE
  5
2E3
100
AcDbEntity
  8
0
100
AcDbLine
 62
7
  6
CONTINUOUS
 10
150.3106448413
 20
515.3724249973
 11
159.5030329967
 21
506.1800368419
  0
LINE
  5
2E4
100
AcDbEntity
  8
0
100
AcDbLine
 62
7
  6
CONTINUOUS
 10
160.6520815161
 20
507.3290853613
 11
156.5448441969
 21
511.4363226805
  0
LINE
  5
2E5
100
AcDbEntity
  8
0
100
AcDbLine
 62
7
  6
CONTINUOUS
 10
155.3713479765
 20
512.6098189009
 11
152.4376068777
 21
515.5435599997
  0
LINE
  5
2E6
100
AcDbEntity
  8
0
100
AcDbLine
 62
7
  6
CONTINUOUS
 10
216.5265215246
 20
536.4284805001
 11
216.2556892245
 21
537.534863347
  0
LINE
  5
2E7
100
AcDbEntity
  8
0
100
AcDbLine
 62
7
  6
CONTINUOUS
 10
214.6306884496
 20
537.534863347
 11
214.9015222995
 21
536.1518847884
  0
LINE
  5
2E8
100
AcDbEntity
  8
KONSTRUKTIONSELEMENTE
100
AcDbLine
 62
7
  6
CONTINUOUS
 10
251.7765194981
 20
336.9093315722
 11
251.7765194981
 21
244.9093315722
  0
LINE
  5
2E9
100
AcDbEntity
  8
KONSTRUKTIONSELEMENTE
100
AcDbLine
 62
7
  6
CONTINUOUS
 10
264.7765194981
 20
337.1093315722
 11
264.7765194981
 21
336.9093315722
  0
LINE
  5
2EA
100
AcDbEntity
  8
0
100
AcDbLine
 62
7
  6
CONTINUOUS
 10
228.9640197961
 20
357.4072037728
 11
226.9223550765
 21
354.2795442061
  0
LINE
  5
2EB
100
AcDbEntity
  8
0
100
AcDbLine
 62
7
  6
CONTINUOUS
 10
228.4536050765
 20
352.1944378892
 11
229.9848550765
 21
353.7582676725
  0
LINE
  5
2EC
100
AcDbEntity
  8
0
100
AcDbLine
 62
7
  6
CONTINUOUS
 10
226.9223550765
 20
354.2795442061
 11
225.3911050765
 21
353.2369911389
  0
LINE
  5
2ED
100
AcDbEntity
  8
0
100
AcDbLine
 62
7
  6
CONTINUOUS
 10
158.3988056276
 20
519.1577663089
 11
158.9855542857
 21
518.5710176508
  0
LINE
  5
2EE
100
AcDbEntity
  8
0
100
AcDbLine
 62
7
  6
CONTINUOUS
 10
160.3301855085
 20
519.5244834669
 11
159.547854147
 21
520.3068148283
  0
LINE
  5
2EF
100
AcDbEntity
  8
0
100
AcDbLine
 62
7
  6
CONTINUOUS
 10
161.8459500901
 20
522.6049107714
 11
162.6282814516
 21
521.8225794099
  0
LINE
  5
2F0
100
AcDbEntity
  8
0
100
AcDbLine
 62
7
  6
CONTINUOUS
 10
163.5817472676
 20
523.1672106327
 11
163.1905818608
 21
523.5583760395
  0
LINE
  5
2F1
100
AcDbEntity
  8
0
100
AcDbLine
 62
7
  6
CONTINUOUS
 10
212.4640222995
 20
533.1093315722
 11
210.0265222995
 21
539.4710337164
  0
LINE
  5
2F2
100
AcDbEntity
  8
0
100
AcDbLine
 62
7
  6
CONTINUOUS
 10
208.4015219121
 20
538.9178422929
 11
210.5681884496
 21
533.1093315722
  0
LINE
  5
2F3
100
AcDbEntity
  8
0
100
AcDbLine
 62
7
  6
CONTINUOUS
 10
210.2973553745
 20
543.8965658785
 11
210.5681884496
 21
543.0667787434
  0
LINE
  5
2F4
100
AcDbEntity
  8
0
100
AcDbLine
 62
7
  6
CONTINUOUS
 10
212.1931884496
 20
543.0667787434
 11
211.9223553745
 21
543.8965658785
  0
LINE
  5
2F5
100
AcDbEntity
  8
0
100
AcDbLine
 62
7
  6
CONTINUOUS
 10
237.3806876747
 20
541.68379941
 11
237.1098553745
 21
543.0667787434
  0
LINE
  5
2F6
100
AcDbEntity
  8
0
100
AcDbLine
 62
7
  6
CONTINUOUS
 10
225.9015197961
 20
350.6306081514
 11
228.4536050765
 21
352.1944378892
  0
LINE
  5
2F7
100
AcDbEntity
  8
0
100
AcDbLine
 62
7
  6
CONTINUOUS
 10
152.967310124
 20
501.9913066839
 11
142.2673052053
 21
507.3290853613
  0
LINE
  5
2F8
100
AcDbEntity
  8
0
100
AcDbLine
 62
7
  6
CONTINUOUS
 10
141.1182566858
 20
506.1800368419
 11
153.3747743177
 21
500.0517781629
  0
LINE
  5
2F9
100
AcDbEntity
  8
0
100
AcDbLine
 62
7
  6
CONTINUOUS
 10
171.3154155683
 20
523.8599010633
 11
171.9021636785
 21
523.2731529531
  0
LINE
  5
2FA
100
AcDbEntity
  8
0
100
AcDbLine
 62
7
  6
CONTINUOUS
 10
173.2467949014
 20
524.2266187691
 11
172.2688813844
 21
525.2045322861
  0
LINE
  5
2FB
100
AcDbEntity
  8
0
100
AcDbLine
 62
7
  6
CONTINUOUS
 10
214.9015222995
 20
536.1518847884
 11
215.4431892245
 21
535.0455017479
  0
LINE
  5
2FC
100
AcDbEntity
  8
0
100
AcDbLine
 62
7
  6
CONTINUOUS
 10
235.4848553745
 20
542.7901822569
 11
235.7556876747
 21
541.68379941
  0
LINE
  5
2FD
100
AcDbEntity
  8
0
100
AcDbLine
 62
7
  6
CONTINUOUS
 10
159.8004813033
 20
514.691959787
 11
165.4397840457
 21
512.1167878908
  0
LINE
  5
2FE
100
AcDbEntity
  8
0
100
AcDbLine
 62
7
  6
CONTINUOUS
 10
157.6205490656
 20
519.5530059673
 11
158.3988056276
 21
519.1577663089
  0
LINE
  5
2FF
100
AcDbEntity
  8
0
100
AcDbLine
 62
7
  6
CONTINUOUS
 10
165.7698299262
 20
517.5319846075
 11
166.7436680958
 21
516.94116115
  0
LINE
  5
300
100
AcDbEntity
  8
0
100
AcDbLine
 62
7
  6
CONTINUOUS
 10
162.6282814516
 20
521.8225794099
 11
163.6021218128
 21
521.231758144
  0
LINE
  5
301
100
AcDbEntity
  8
0
100
AcDbLine
 62
7
  6
CONTINUOUS
 10
217.0681892245
 20
535.598693365
 11
216.5265215246
 21
536.4284805001
  0
LINE
  5
302
100
AcDbEntity
  8
BEZUGSACHSEN
100
AcDbLine
 62
7
  6
CONTINUOUS
 10
333.1538749202
 20
448.8605868773
 11
296.3191376299
 21
360.1033023458
  0
LINE
  5
303
100
AcDbEntity
  8
0
100
AcDbLine
 62
7
  6
CONTINUOUS
 10
166.7803399211
 20
513.4573437663
 11
160.558364416
 21
516.2321737132
  0
LINE
  5
304
100
AcDbEntity
  8
0
100
AcDbLine
 62
7
  6
CONTINUOUS
 10
159.547854147
 20
520.3068148283
 11
158.769597585
 21
520.7020544867
  0
LINE
  5
305
100
AcDbEntity
  8
0
100
AcDbLine
 62
7
  6
CONTINUOUS
 10
167.6971350076
 20
518.2857934686
 11
166.9188773498
 21
518.6810320311
  0
LINE
  5
306
100
AcDbEntity
  8
0
100
AcDbLine
 62
7
  6
CONTINUOUS
 10
164.3600049255
 20
522.7719720702
 11
163.5817472676
 21
523.1672106327
  0
LINE
  5
307
100
AcDbEntity
  8
0
100
AcDbLine
 62
7
  6
CONTINUOUS
 10
167.7827022349
 20
528.5416629162
 11
167.004444577
 21
528.9369014787
  0
LINE
  5
308
100
AcDbEntity
  8
0
100
AcDbLine
 62
7
  6
CONTINUOUS
 10
215.4431892245
 20
535.0455017479
 11
216.5265215246
 21
533.9391188042
  0
LINE
  5
309
100
AcDbEntity
  8
0
100
AcDbLine
 62
7
  6
CONTINUOUS
 10
211.9223553745
 20
543.8965658785
 11
211.1098553745
 21
545.0029487254
  0
LINE
  5
30A
100
AcDbEntity
  8
0
100
AcDbLine
 62
7
  6
CONTINUOUS
 10
234.9431876747
 20
543.6199701668
 11
235.4848553745
 21
542.7901822569
  0
LINE
  5
30B
100
AcDbEntity
  8
0
100
AcDbLine
 62
7
  6
CONTINUOUS
 10
237.1098553745
 20
543.0667787434
 11
236.5681876747
 21
544.1731615903
  0
LINE
  5
30C
100
AcDbEntity
  8
0
100
AcDbLine
 62
7
  6
CONTINUOUS
 10
166.7436680958
 20
516.94116115
 11
168.2961071737
 21
516.537772783
  0
LINE
  5
30D
100
AcDbEntity
  8
0
100
AcDbLine
 62
7
  6
CONTINUOUS
 10
172.2688813844
 20
525.2045322861
 11
171.1035333932
 21
525.60384647
  0
LINE
  5
30E
100
AcDbEntity
  8
0
100
AcDbLine
 62
7
  6
CONTINUOUS
 10
166.050978761
 20
527.5922702559
 11
166.6336537155
 21
527.3926143968
  0
LINE
  5
30F
100
AcDbEntity
  8
0
100
AcDbLine
 62
7
  6
CONTINUOUS
 10
209.7556884496
 20
544.449757302
 11
210.2973553745
 21
543.8965658785
  0
LINE
  5
310
100
AcDbEntity
  8
0
100
AcDbLine
 62
7
  6
CONTINUOUS
 10
168.8584075145
 20
518.2735694811
 11
167.6971350076
 21
518.2857934686
  0
LINE
  5
311
100
AcDbEntity
  8
0
100
AcDbLine
 62
7
  6
CONTINUOUS
 10
156.8463678509
 20
519.5611555662
 11
157.6205490656
 21
519.5530059673
  0
LINE
  5
312
100
AcDbEntity
  8
0
100
AcDbLine
 62
7
  6
CONTINUOUS
 10
163.6021218128
 20
521.231758144
 11
165.1504842421
 21
521.2154589461
  0
LINE
  5
313
100
AcDbEntity
  8
0
100
AcDbLine
 62
7
  6
CONTINUOUS
 10
158.769597585
 20
520.7020544867
 11
157.4127425117
 21
520.9098610406
  0
LINE
  5
314
100
AcDbEntity
  8
0
100
AcDbLine
 62
7
  6
CONTINUOUS
 10
167.004444577
 20
528.9369014787
 11
165.6475895037
 21
529.1447080326
  0
LINE
  5
315
100
AcDbEntity
  8
0
100
AcDbLine
 62
7
  6
CONTINUOUS
 10
170.3456502805
 20
524.0636325437
 11
171.3154155683
 21
523.8599010633
  0
LINE
  5
316
100
AcDbEntity
  8
0
100
AcDbLine
 62
7
  6
CONTINUOUS
 10
216.5265215246
 20
533.9391188042
 11
217.6098553745
 21
533.3859273081
  0
LINE
  5
317
100
AcDbEntity
  8
0
100
AcDbLine
 62
7
  6
CONTINUOUS
 10
217.8806892245
 20
535.0455017479
 11
217.0681892245
 21
535.598693365
  0
LINE
  5
318
100
AcDbEntity
  8
0
100
AcDbLine
 62
7
  6
CONTINUOUS
 10
211.1098553745
 20
545.0029487254
 11
210.0265222995
 21
545.8327358605
  0
LINE
  5
319
100
AcDbEntity
  8
0
100
AcDbLine
 62
7
  6
CONTINUOUS
 10
236.5681876747
 20
544.1731615903
 11
235.4848553745
 21
545.2795444371
  0
LINE
  5
31A
100
AcDbEntity
  8
0
100
AcDbLine
 62
7
  6
CONTINUOUS
 10
234.1306876747
 20
535.0455017479
 11
233.0473553745
 21
534.7689060362
  0
LINE
  5
31B
100
AcDbEntity
  8
0
100
AcDbLine
 62
7
  6
CONTINUOUS
 10
221.1306892245
 20
535.0455017479
 11
220.0473553745
 21
534.7689060362
  0
LINE
  5
31C
100
AcDbEntity
  8
0
100
AcDbLine
 62
7
  6
CONTINUOUS
 10
168.2961071737
 20
516.537772783
 11
169.8403943071
 21
516.9085635933
  0
LINE
  5
31D
100
AcDbEntity
  8
0
100
AcDbLine
 62
7
  6
CONTINUOUS
 10
233.0473553745
 20
533.1093315722
 11
234.4015230744
 21
533.3859273081
  0
LINE
  5
31E
100
AcDbEntity
  8
0
100
AcDbLine
 62
7
  6
CONTINUOUS
 10
220.0473553745
 20
533.1093315722
 11
221.4015215246
 21
533.3859273081
  0
LINE
  5
31F
100
AcDbEntity
  8
0
100
AcDbLine
 62
7
  6
CONTINUOUS
 10
165.325694592
 20
522.9553309231
 11
164.3600049255
 21
522.7719720702
  0
LINE
  5
320
100
AcDbEntity
  8
0
100
AcDbLine
 62
7
  6
CONTINUOUS
 10
169.379960614
 20
523.8802736908
 11
170.3456502805
 21
524.0636325437
  0
LINE
  5
321
100
AcDbEntity
  8
0
100
AcDbLine
 62
7
  6
CONTINUOUS
 10
157.4127425117
 20
520.9098610406
 11
156.05996169
 21
520.7305764392
  0
LINE
  5
322
100
AcDbEntity
  8
0
100
AcDbLine
 62
7
  6
CONTINUOUS
 10
165.6475895037
 20
529.1447080326
 11
164.2948097778
 21
528.965424527
  0
LINE
  5
323
100
AcDbEntity
  8
0
100
AcDbLine
 62
7
  6
CONTINUOUS
 10
202.1723553745
 20
533.1093315722
 11
203.7973553745
 21
533.1093315722
  0
LINE
  5
324
100
AcDbEntity
  8
0
100
AcDbLine
 62
7
  6
CONTINUOUS
 10
210.5681884496
 20
533.1093315722
 11
212.4640222995
 21
533.1093315722
  0
LINE
  5
325
100
AcDbEntity
  8
0
100
AcDbLine
 62
7
  6
CONTINUOUS
 10
218.9640215246
 20
533.1093315722
 11
220.0473553745
 21
533.1093315722
  0
LINE
  5
326
100
AcDbEntity
  8
0
100
AcDbLine
 62
7
  6
CONTINUOUS
 10
226.5473553745
 20
533.1093315722
 11
233.0473553745
 21
533.1093315722
  0
LINE
  5
327
100
AcDbEntity
  8
0
100
AcDbLine
 62
7
  6
CONTINUOUS
 10
233.0473553745
 20
534.7689060362
 11
228.1723553745
 21
534.7689060362
  0
LINE
  5
328
100
AcDbEntity
  8
0
100
AcDbLine
 62
7
  6
CONTINUOUS
 10
220.0473553745
 20
534.7689060362
 11
218.9640215246
 21
534.7689060362
  0
LINE
  5
329
100
AcDbEntity
  8
0
100
AcDbLine
 62
7
  6
CONTINUOUS
 10
203.7973553745
 20
538.9178422929
 11
208.4015219121
 21
538.9178422929
  0
LINE
  5
32A
100
AcDbEntity
  8
0
100
AcDbLine
 62
7
  6
CONTINUOUS
 10
171.1035333932
 20
525.60384647
 11
169.5551709638
 21
525.6201456678
  0
LINE
  5
32B
100
AcDbEntity
  8
0
100
AcDbLine
 62
7
  6
CONTINUOUS
 10
165.2767986422
 20
527.6004209506
 11
166.050978761
 21
527.5922702559
  0
LINE
  5
32C
100
AcDbEntity
  8
0
100
AcDbLine
 62
7
  6
CONTINUOUS
 10
217.6098553745
 20
533.3859273081
 11
218.9640215246
 21
533.1093315722
  0
LINE
  5
32D
100
AcDbEntity
  8
0
100
AcDbLine
 62
7
  6
CONTINUOUS
 10
218.9640215246
 20
534.7689060362
 11
217.8806892245
 21
535.0455017479
  0
LINE
  5
32E
100
AcDbEntity
  8
0
100
AcDbLine
 62
7
  6
CONTINUOUS
 10
208.9431884496
 20
544.7263530137
 11
209.7556884496
 21
544.449757302
  0
LINE
  5
32F
100
AcDbEntity
  8
0
100
AcDbLine
 62
7
  6
CONTINUOUS
 10
235.4848553745
 20
545.2795444371
 11
234.4015230744
 21
545.8327358605
  0
LINE
  5
330
100
AcDbEntity
  8
0
100
AcDbLine
 62
7
  6
CONTINUOUS
 10
234.1306876747
 20
544.1731615903
 11
234.9431876747
 21
543.6199701668
  0
LINE
  5
331
100
AcDbEntity
  8
0
100
AcDbLine
 62
7
  6
CONTINUOUS
 10
281.8155356497
 20
515.3746623
 11
284.5397933091
 21
512.6504046406
  0
LINE
  5
332
100
AcDbEntity
  8
0
100
AcDbLine
 62
7
  6
CONTINUOUS
 10
285.9499784509
 20
514.0605897823
 11
283.2279563666
 21
516.7826118666
  0
LINE
  5
333
100
AcDbEntity
  8
RUNDUNGEN
100
AcDbLine
 62
7
  6
CONTINUOUS
 10
301.2761488994
 20
533.486380616
 11
332.6275741271
 21
457.7973446317
  0
LINE
  5
334
100
AcDbEntity
  8
BEZUGSACHSEN
100
AcDbLine
 62
7
  6
CONTINUOUS
 10
332.6275741271
 20
457.7973446317
 11
333.1564622135
 21
456.5204958405
  0
LINE
  5
335
100
AcDbEntity
  8
KONSTRUKTIONSELEMENTE
100
AcDbLine
 62
7
  6
CONTINUOUS
 10
251.7765194981
 20
244.9093315722
 11
247.7765194981
 21
240.9093315722
  0
LINE
  5
336
100
AcDbEntity
  8
0
100
AcDbLine
 62
7
  6
CONTINUOUS
 10
208.9431884496
 20
540.5774165632
 11
203.7973553745
 21
540.5774165632
  0
LINE
  5
337
100
AcDbEntity
  8
0
100
AcDbLine
 62
7
  6
CONTINUOUS
 10
228.1723553745
 20
544.449757302
 11
233.0473553745
 21
544.449757302
  0
LINE
  5
338
100
AcDbEntity
  8
0
100
AcDbLine
 62
7
  6
CONTINUOUS
 10
203.7973553745
 20
544.7263530137
 11
208.9431884496
 21
544.7263530137
  0
LINE
  5
339
100
AcDbEntity
  8
0
100
AcDbLine
 62
7
  6
CONTINUOUS
 10
233.0473553745
 20
546.1093315722
 11
226.5473553745
 21
546.1093315722
  0
LINE
  5
33A
100
AcDbEntity
  8
0
100
AcDbLine
 62
7
  6
CONTINUOUS
 10
224.3806892245
 20
546.1093315722
 11
222.7556892245
 21
546.1093315722
  0
LINE
  5
33B
100
AcDbEntity
  8
0
100
AcDbLine
 62
7
  6
CONTINUOUS
 10
216.2556892245
 20
546.1093315722
 11
214.6306884496
 21
546.1093315722
  0
LINE
  5
33C
100
AcDbEntity
  8
0
100
AcDbLine
 62
7
  6
CONTINUOUS
 10
208.6723553745
 20
546.1093315722
 11
202.1723553745
 21
546.1093315722
  0
LINE
  5
33D
100
AcDbEntity
  8
0
100
AcDbLine
 62
7
  6
CONTINUOUS
 10
210.0265222995
 20
545.8327358605
 11
208.6723553745
 21
546.1093315722
  0
LINE
  5
33E
100
AcDbEntity
  8
0
100
AcDbLine
 62
7
  6
CONTINUOUS
 10
234.4015230744
 20
545.8327358605
 11
233.0473553745
 21
546.1093315722
  0
LINE
  5
33F
100
AcDbEntity
  8
0
100
AcDbLine
 62
7
  6
CONTINUOUS
 10
233.0473553745
 20
544.449757302
 11
234.1306876747
 21
544.1731615903
  0
LINE
  5
340
100
AcDbEntity
  8
RUNDUNGEN
100
AcDbLine
 62
7
  6
CONTINUOUS
 10
223.3601989935
 20
566.7336859008
 11
295.6210330698
 21
538.9953505573
  0
LINE
  5
341
100
AcDbEntity
  8
KONSTRUKTIONSELEMENTE
100
AcDbLine
 62
7
  6
CONTINUOUS
 10
521.2468295154
 20
240.9093315722
 11
577.2468295154
 21
240.9093315722
  0
LINE
  5
342
100
AcDbEntity
  8
KONSTRUKTIONSELEMENTE
100
AcDbLine
 62
7
  6
CONTINUOUS
 10
517.2468295154
 20
244.9093315722
 11
581.2468295154
 21
244.9093315722
  0
LINE
  5
343
100
AcDbEntity
  8
KONSTRUKTIONSELEMENTE
100
AcDbLine
 62
7
  6
CONTINUOUS
 10
517.2468295154
 20
244.9093315722
 11
521.2468295154
 21
240.9093315722
  0
LINE
  5
344
100
AcDbEntity
  8
0
100
AcDbLine
 62
7
  6
CONTINUOUS
 10
472.3885447119
 20
374.088054856
 11
473.4942979466
 21
371.4185304001
  0
LINE
  5
345
100
AcDbEntity
  8
0
100
AcDbLine
 62
7
  6
CONTINUOUS
 10
481.0539592224
 20
353.167893621
 11
482.1049371999
 21
350.6306083341
  0
LINE
  5
346
100
AcDbEntity
  8
BEZUGSACHSEN
100
AcDbLine
 62
7
  6
CONTINUOUS
 10
471.3269720543
 20
377.9574809282
 11
472.7138209264
 21
374.6093315722
  0
LINE
  5
347
100
AcDbEntity
  8
BEZUGSACHSEN
100
AcDbLine
 62
7
  6
CONTINUOUS
 10
476.8040374583
 20
364.7346753479
 11
479.1049364536
 21
359.1798137876
  0
LINE
  5
348
100
AcDbEntity
  8
BEZUGSACHSEN
100
AcDbLine
 62
7
  6
CONTINUOUS
 10
482.8620532045
 20
350.1093315722
 11
488.2468295154
 21
337.1093315722
  0
LINE
  5
349
100
AcDbEntity
  8
KONSTRUKTIONSELEMENTE
100
AcDbLine
 62
7
  6
CONTINUOUS
 10
504.2468295154
 20
337.1093315722
 11
504.2468295154
 21
336.9093315722
  0
LINE
  5
34A
100
AcDbEntity
  8
KONSTRUKTIONSELEMENTE
100
AcDbLine
 62
7
  6
CONTINUOUS
 10
517.2468295154
 20
336.9093315722
 11
517.2468295154
 21
244.9093315722
  0
LINE
  5
34B
100
AcDbEntity
  8
KONSTRUKTIONSELEMENTE
100
AcDbLine
 62
7
  6
CONTINUOUS
 10
504.2470226136
 20
336.9093315722
 11
594.2466364172
 21
336.9093315722
  0
LINE
  5
34C
100
AcDbEntity
  8
BEZUGSACHSEN
100
AcDbLine
 62
7
  6
CONTINUOUS
 10
488.246877706
 20
337.1093315722
 11
610.2467813247
 21
337.1093315722
  0
LINE
  5
34D
100
AcDbEntity
  8
BEZUGSACHSEN
100
AcDbLine
 62
7
  6
CONTINUOUS
 10
525.2468295154
 20
430.9657761515
 11
525.2468295154
 21
557.3978816358
  0
LINE
  5
34E
100
AcDbEntity
  8
0
100
AcDbLine
 62
7
  6
CONTINUOUS
 10
487.8585924022
 20
350.1093315722
 11
487.2804119013
 21
350.1093315722
  0
LINE
  5
34F
100
AcDbEntity
  8
0
100
AcDbLine
 62
7
  6
CONTINUOUS
 10
482.9215414567
 20
350.1093315722
 11
482.3799391765
 21
350.1093315722
  0
LINE
  5
350
100
AcDbEntity
  8
0
100
AcDbLine
 62
7
  6
CONTINUOUS
 10
610.2414342379
 20
350.1093315722
 11
615.5143725795
 21
350.1093315722
  0
LINE
  5
351
100
AcDbEntity
  8
0
100
AcDbLine
 62
7
  6
CONTINUOUS
 10
615.6316058262
 20
350.1093315722
 11
616.1137198543
 21
350.1093315722
  0
LINE
  5
352
100
AcDbEntity
  8
0
100
AcDbLine
 62
7
  6
CONTINUOUS
 10
482.8835533767
 20
350.6306081514
 11
482.3407388041
 21
350.6306081514
  0
LINE
  5
353
100
AcDbEntity
  8
0
100
AcDbLine
 62
7
  6
CONTINUOUS
 10
615.8475256551
 20
350.6306081514
 11
616.3887217552
 21
350.6306081514
  0
LINE
  5
354
100
AcDbEntity
  8
0
100
AcDbLine
 62
7
  6
CONTINUOUS
 10
486.9359335707
 20
352.1944378892
 11
486.3586632835
 21
352.1944378892
  0
LINE
  5
355
100
AcDbEntity
  8
0
100
AcDbLine
 62
7
  6
CONTINUOUS
 10
482.4715737535
 20
352.1944378892
 11
481.9271683267
 21
352.1944378892
  0
LINE
  5
356
100
AcDbEntity
  8
0
100
AcDbLine
 62
7
  6
CONTINUOUS
 10
616.4544232931
 20
352.1944378892
 11
616.9958954036
 21
352.1944378892
  0
LINE
  5
357
100
AcDbEntity
  8
0
100
AcDbLine
 62
7
  6
CONTINUOUS
 10
616.6029212043
 20
352.7157146053
 11
613.4217422203
 21
352.7157146053
  0
LINE
  5
358
100
AcDbEntity
  8
0
100
AcDbLine
 62
7
  6
CONTINUOUS
 10
485.8082699646
 20
352.7157146053
 11
485.2382032924
 21
352.7157146053
  0
LINE
  5
359
100
AcDbEntity
  8
0
100
AcDbLine
 62
7
  6
CONTINUOUS
 10
611.4008696679
 20
352.7157146053
 11
611.9810023251
 21
352.7157146053
  0
LINE
  5
35A
100
AcDbEntity
  8
0
100
AcDbLine
 62
7
  6
CONTINUOUS
 10
481.2207753872
 20
353.2369911389
 11
481.0269534489
 21
353.2369911389
  0
LINE
  5
35B
100
AcDbEntity
  8
0
100
AcDbLine
 62
7
  6
CONTINUOUS
 10
484.8651769585
 20
353.7582676725
 11
484.2991326917
 21
353.7582676725
  0
LINE
  5
35C
100
AcDbEntity
  8
0
100
AcDbLine
 62
7
  6
CONTINUOUS
 10
482.0009700027
 20
353.7582676725
 11
481.4553870022
 21
353.7582676725
  0
LINE
  5
35D
100
AcDbEntity
  8
0
100
AcDbLine
 62
7
  6
CONTINUOUS
 10
617.0392854203
 20
353.7582676725
 11
617.5811767203
 21
353.7582676725
  0
LINE
  5
35E
100
AcDbEntity
  8
0
100
AcDbLine
 62
7
  6
CONTINUOUS
 10
480.9085542004
 20
354.2795442061
 11
480.5999242501
 21
354.2795442061
  0
LINE
  5
35F
100
AcDbEntity
  8
0
100
AcDbLine
 62
7
  6
CONTINUOUS
 10
484.0339150379
 20
355.3220976384
 11
483.4694372192
 21
355.3220976384
  0
LINE
  5
360
100
AcDbEntity
  8
0
100
AcDbLine
 62
7
  6
CONTINUOUS
 10
481.2660887819
 20
355.843374172
 11
480.7196826048
 21
355.843374172
  0
LINE
  5
361
100
AcDbEntity
  8
0
100
AcDbLine
 62
7
  6
CONTINUOUS
 10
617.846309192
 20
355.843374172
 11
618.388569046
 21
355.843374172
  0
LINE
  5
362
100
AcDbEntity
  8
0
100
AcDbLine
 62
7
  6
CONTINUOUS
 10
480.6843450919
 20
357.4072037728
 11
480.137536635
 21
357.4072037728
  0
LINE
  5
363
100
AcDbEntity
  8
0
100
AcDbLine
 62
7
  6
CONTINUOUS
 10
479.8111144506
 20
357.4072037728
 11
479.3548807617
 21
357.4072037728
  0
LINE
  5
364
100
AcDbEntity
  8
0
100
AcDbLine
 62
7
  6
CONTINUOUS
 10
618.4619035466
 20
357.4072037728
 11
619.004366947
 21
357.4072037728
  0
LINE
  5
365
100
AcDbEntity
  8
0
100
AcDbLine
 62
7
  6
CONTINUOUS
 10
479.6681275532
 20
360.013587171
 11
479.1209715111
 21
360.013587171
  0
LINE
  5
366
100
AcDbEntity
  8
0
100
AcDbLine
 62
7
  6
CONTINUOUS
 10
619.5078661186
 20
360.013587171
 11
620.0505319865
 21
360.013587171
  0
LINE
  5
367
100
AcDbEntity
  8
0
100
AcDbLine
 62
7
  6
CONTINUOUS
 10
478.5436564003
 20
360.5348637046
 11
478.0787035615
 21
360.5348637046
  0
LINE
  5
368
100
AcDbEntity
  8
0
100
AcDbLine
 62
7
  6
CONTINUOUS
 10
477.0322177306
 20
364.1837994398
 11
476.5659043737
 21
364.1837994398
  0
LINE
  5
369
100
AcDbEntity
  8
0
100
AcDbLine
 62
7
  6
CONTINUOUS
 10
477.7037171723
 20
364.7050759734
 11
477.1568365192
 21
364.7050759734
  0
LINE
  5
36A
100
AcDbEntity
  8
0
100
AcDbLine
 62
7
  6
CONTINUOUS
 10
477.8500824512
 20
364.7050759734
 11
478.7517320431
 21
364.7050759734
  0
LINE
  5
36B
100
AcDbEntity
  8
0
100
AcDbLine
 62
7
  6
CONTINUOUS
 10
479.4244252253
 20
364.7050759734
 11
481.7893023637
 21
364.7050759734
  0
LINE
  5
36C
100
AcDbEntity
  8
0
100
AcDbLine
 62
7
  6
CONTINUOUS
 10
621.4563585612
 20
364.7050759734
 11
621.9989576567
 21
364.7050759734
  0
LINE
  5
36D
100
AcDbEntity
  8
0
100
AcDbLine
 62
7
  6
CONTINUOUS
 10
620.9049445097
 20
365.7476290406
 11
621.4538543097
 21
365.7476290406
  0
LINE
  5
36E
100
AcDbEntity
  8
0
100
AcDbLine
 62
7
  6
CONTINUOUS
 10
480.871489186
 20
366.7901821078
 11
478.5276281965
 21
366.7901821078
  0
LINE
  5
36F
100
AcDbEntity
  8
0
100
AcDbLine
 62
7
  6
CONTINUOUS
 10
477.8622625455
 20
366.7901821078
 11
476.9702193884
 21
366.7901821078
  0
LINE
  5
370
100
AcDbEntity
  8
0
100
AcDbLine
 62
7
  6
CONTINUOUS
 10
475.6840613454
 20
367.3114586414
 11
475.2496894782
 21
367.3114586414
  0
LINE
  5
371
100
AcDbEntity
  8
0
100
AcDbLine
 62
7
  6
CONTINUOUS
 10
476.5409437658
 20
367.3114586414
 11
475.9946677551
 21
367.3114586414
  0
LINE
  5
372
100
AcDbEntity
  8
0
100
AcDbLine
 62
7
  6
CONTINUOUS
 10
622.6793411673
 20
367.3114586414
 11
623.115974872
 21
367.3114586414
  0
LINE
  5
373
100
AcDbEntity
  8
0
100
AcDbLine
 62
7
  6
CONTINUOUS
 10
621.9462714849
 20
367.832735175
 11
622.493957788
 21
367.832735175
  0
LINE
  5
374
100
AcDbEntity
  8
0
100
AcDbLine
 62
7
  6
CONTINUOUS
 10
475.8188786014
 20
368.8752897026
 11
475.2731117252
 21
368.8752897026
  0
LINE
  5
375
100
AcDbEntity
  8
0
100
AcDbLine
 62
7
  6
CONTINUOUS
 10
618.7168251775
 20
368.8752897026
 11
620.119318628
 21
368.8752897026
  0
LINE
  5
376
100
AcDbEntity
  8
0
100
AcDbLine
 62
7
  6
CONTINUOUS
 10
622.3833202022
 20
368.8752897026
 11
622.9309403997
 21
368.8752897026
  0
LINE
  5
377
100
AcDbEntity
  8
0
100
AcDbLine
 62
7
  6
CONTINUOUS
 10
623.3468923962
 20
368.8752897026
 11
623.7964956589
 21
368.8752897026
  0
LINE
  5
378
100
AcDbEntity
  8
0
100
AcDbLine
 62
7
  6
CONTINUOUS
 10
474.1908428644
 20
370.4391193034
 11
473.9059159462
 21
370.4391193034
  0
LINE
  5
379
100
AcDbEntity
  8
0
100
AcDbLine
 62
7
  6
CONTINUOUS
 10
622.8755813942
 20
370.4391193034
 11
623.424141786
 21
370.4391193034
  0
LINE
  5
37A
100
AcDbEntity
  8
0
100
AcDbLine
 62
7
  6
CONTINUOUS
 10
477.297047274
 20
370.960395837
 11
476.0849326279
 21
370.960395837
  0
LINE
  5
37B
100
AcDbEntity
  8
0
100
AcDbLine
 62
7
  6
CONTINUOUS
 10
474.8220340102
 20
370.960395837
 11
474.2771450514
 21
370.960395837
  0
LINE
  5
37C
100
AcDbEntity
  8
0
100
AcDbLine
 62
7
  6
CONTINUOUS
 10
619.8026424479
 20
370.960395837
 11
620.373100807
 21
370.960395837
  0
LINE
  5
37D
100
AcDbEntity
  8
0
100
AcDbLine
 62
7
  6
CONTINUOUS
 10
624.1731412872
 20
370.960395837
 11
624.714923745
 21
370.960395837
  0
LINE
  5
37E
100
AcDbEntity
  8
0
100
AcDbLine
 62
7
  6
CONTINUOUS
 10
473.6467361481
 20
371.4816723706
 11
473.4696197174
 21
371.4816723706
  0
LINE
  5
37F
100
AcDbEntity
  8
0
100
AcDbLine
 62
7
  6
CONTINUOUS
 10
623.0463917651
 20
371.4816723706
 11
623.5965779106
 21
371.4816723706
  0
LINE
  5
380
100
AcDbEntity
  8
0
100
AcDbLine
 62
7
  6
CONTINUOUS
 10
622.8527364187
 20
372.0029489042
 11
623.3126190494
 21
372.0029489042
  0
LINE
  5
381
100
AcDbEntity
  8
0
100
AcDbLine
 62
7
  6
CONTINUOUS
 10
474.0050726048
 20
372.5242254378
 11
473.4612559241
 21
372.5242254378
  0
LINE
  5
382
100
AcDbEntity
  8
0
100
AcDbLine
 62
7
  6
CONTINUOUS
 10
624.8792247315
 20
372.5242254378
 11
625.4206465254
 21
372.5242254378
  0
LINE
  5
383
100
AcDbEntity
  8
0
100
AcDbLine
 62
7
  6
CONTINUOUS
 10
621.3600139459
 20
373.0455019714
 11
621.9254188339
 21
373.0455019714
  0
LINE
  5
384
100
AcDbEntity
  8
0
100
AcDbLine
 62
7
  6
CONTINUOUS
 10
473.1410044887
 20
374.0880550386
 11
472.598525964
 21
374.0880550386
  0
LINE
  5
385
100
AcDbEntity
  8
0
100
AcDbLine
 62
7
  6
CONTINUOUS
 10
622.4002189159
 20
374.0880550386
 11
622.9614397224
 21
374.0880550386
  0
LINE
  5
386
100
AcDbEntity
  8
0
100
AcDbLine
 62
7
  6
CONTINUOUS
 10
625.5639182944
 20
374.0880550386
 11
626.1051143946
 21
374.0880550386
  0
LINE
  5
387
100
AcDbEntity
  8
0
100
AcDbLine
 62
7
  6
CONTINUOUS
 10
472.7664860825
 20
374.6093315722
 11
472.2249713035
 21
374.6093315722
  0
LINE
  5
388
100
AcDbEntity
  8
0
100
AcDbLine
 62
7
  6
CONTINUOUS
 10
623.5252053846
 20
374.6093315722
 11
624.52182145
 21
374.6093315722
  0
LINE
  5
389
100
AcDbEntity
  8
0
100
AcDbLine
 62
7
  6
CONTINUOUS
 10
625.7798381044
 20
374.6093315722
 11
626.2686877272
 21
374.6093315722
  0
LINE
  5
38A
100
AcDbEntity
  8
RUNDUNGEN
100
AcDbLine
 62
7
  6
CONTINUOUS
 10
573.2468295154
 20
430.9657761515
 11
573.2468295154
 21
557.3978816358
  0
LINE
  5
38B
100
AcDbEntity
  8
0
100
AcDbLine
 62
7
  6
CONTINUOUS
 10
573.7468295154
 20
546.1093315722
 11
573.7468295154
 21
533.1093315722
  0
LINE
  5
38C
100
AcDbEntity
  8
0
100
AcDbLine
 62
7
  6
CONTINUOUS
 10
573.7468295154
 20
529.1447080326
 11
573.7468295154
 21
500.0517781629
  0
LINE
  5
38D
100
AcDbEntity
  8
KONSTRUKTIONSELEMENTE
100
AcDbLine
 62
7
  6
CONTINUOUS
 10
581.2468295154
 20
336.9093315722
 11
581.2468295154
 21
244.9093315722
  0
LINE
  5
38E
100
AcDbEntity
  8
RUNDUNGEN
100
AcDbLine
 62
7
  6
CONTINUOUS
 10
620.5160821024
 20
391.4435735147
 11
599.1881939525
 21
397.1583639207
  0
LINE
  5
38F
100
AcDbEntity
  8
KONSTRUKTIONSELEMENTE
100
AcDbLine
 62
7
  6
CONTINUOUS
 10
594.2468295154
 20
337.1093315722
 11
594.2468295154
 21
336.9093315722
  0
LINE
  5
390
100
AcDbEntity
  8
BEZUGSACHSEN
100
AcDbLine
 62
7
  6
CONTINUOUS
 10
477.9775769284
 20
391.4435735147
 11
499.3054650783
 21
397.1583639207
  0
LINE
  5
391
100
AcDbEntity
  8
0
100
AcDbLine
 62
7
  6
CONTINUOUS
 10
610.2468295154
 20
337.1093315722
 11
615.8475256761
 21
350.6306082022
  0
LINE
  5
392
100
AcDbEntity
  8
0
100
AcDbLine
 62
7
  6
CONTINUOUS
 10
625.5639182734
 20
374.0880549879
 11
627.1666869765
 21
377.9574809282
  0
LINE
  5
393
100
AcDbEntity
  8
0
100
AcDbLine
 62
7
  6
CONTINUOUS
 10
616.3887218309
 20
350.6306083341
 11
617.612267836
 21
353.5845096937
  0
LINE
  5
394
100
AcDbEntity
  8
0
100
AcDbLine
 62
7
  6
CONTINUOUS
 10
624.8815684461
 20
371.1341538158
 11
626.1051143189
 21
374.088054856
  0
LINE
  5
395
100
AcDbEntity
  8
0
100
AcDbLine
 62
7
  6
CONTINUOUS
 10
573.2468295154
 20
500.0517781629
 11
573.7468295154
 21
500.0517781629
  0
LINE
  5
396
100
AcDbEntity
  8
0
100
AcDbLine
 62
7
  6
CONTINUOUS
 10
573.2468295154
 20
506.1800368419
 11
573.7468295154
 21
506.1800368419
  0
LINE
  5
397
100
AcDbEntity
  8
0
100
AcDbLine
 62
7
  6
CONTINUOUS
 10
573.2468295154
 20
507.3290853613
 11
573.7468295154
 21
507.3290853613
  0
LINE
  5
398
100
AcDbEntity
  8
KONSTRUKTIONSELEMENTE
100
AcDbLine
 62
7
  6
CONTINUOUS
 10
581.2468295154
 20
244.9093315722
 11
577.2468295154
 21
240.9093315722
  0
LINE
  5
399
100
AcDbEntity
  8
0
100
AcDbLine
 62
7
  6
CONTINUOUS
 10
573.2468295154
 20
512.6913116026
 11
573.7468295154
 21
512.6913116026
  0
LINE
  5
39A
100
AcDbEntity
  8
0
100
AcDbLine
 62
7
  6
CONTINUOUS
 10
573.2468295154
 20
513.8403601221
 11
573.7468295154
 21
513.8403601221
  0
LINE
  5
39B
100
AcDbEntity
  8
0
100
AcDbLine
 62
7
  6
CONTINUOUS
 10
573.2468295154
 20
515.3724249973
 11
573.7468295154
 21
515.3724249973
  0
LINE
  5
39C
100
AcDbEntity
  8
0
100
AcDbLine
 62
7
  6
CONTINUOUS
 10
573.2468295154
 20
519.968619075
 11
573.7468295154
 21
519.968619075
  0
LINE
  5
39D
100
AcDbEntity
  8
0
100
AcDbLine
 62
7
  6
CONTINUOUS
 10
573.2468295154
 20
520.7305764392
 11
573.7468295154
 21
520.7305764392
  0
LINE
  5
39E
100
AcDbEntity
  8
0
100
AcDbLine
 62
7
  6
CONTINUOUS
 10
573.2468295154
 20
520.9098610406
 11
573.7468295154
 21
520.9098610406
  0
LINE
  5
39F
100
AcDbEntity
  8
0
100
AcDbLine
 62
7
  6
CONTINUOUS
 10
573.2468295154
 20
521.2154589461
 11
573.7468295154
 21
521.2154589461
  0
LINE
  5
3A0
100
AcDbEntity
  8
0
100
AcDbLine
 62
7
  6
CONTINUOUS
 10
573.2468295154
 20
521.231758144
 11
573.7468295154
 21
521.231758144
  0
LINE
  5
3A1
100
AcDbEntity
  8
0
100
AcDbLine
 62
7
  6
CONTINUOUS
 10
573.2468295154
 20
521.8225794099
 11
573.7468295154
 21
521.8225794099
  0
LINE
  5
3A2
100
AcDbEntity
  8
0
100
AcDbLine
 62
7
  6
CONTINUOUS
 10
573.2468295154
 20
522.6049107714
 11
573.7468295154
 21
522.6049107714
  0
LINE
  5
3A3
100
AcDbEntity
  8
0
100
AcDbLine
 62
7
  6
CONTINUOUS
 10
573.2468295154
 20
523.5787511326
 11
573.7468295154
 21
523.5787511326
  0
LINE
  5
3A4
100
AcDbEntity
  8
0
100
AcDbLine
 62
7
  6
CONTINUOUS
 10
573.2468295154
 20
525.127113562
 11
573.7468295154
 21
525.127113562
  0
LINE
  5
3A5
100
AcDbEntity
  8
0
100
AcDbLine
 62
7
  6
CONTINUOUS
 10
573.2468295154
 20
526.2843105845
 11
573.7468295154
 21
526.2843105845
  0
LINE
  5
3A6
100
AcDbEntity
  8
0
100
AcDbLine
 62
7
  6
CONTINUOUS
 10
573.2468295154
 20
527.2459270953
 11
573.7468295154
 21
527.2459270953
  0
LINE
  5
3A7
100
AcDbEntity
  8
0
100
AcDbLine
 62
7
  6
CONTINUOUS
 10
573.2468295154
 20
528.203466067
 11
573.7468295154
 21
528.203466067
  0
LINE
  5
3A8
100
AcDbEntity
  8
0
100
AcDbLine
 62
7
  6
CONTINUOUS
 10
573.2468295154
 20
528.965424527
 11
573.7468295154
 21
528.965424527
  0
LINE
  5
3A9
100
AcDbEntity
  8
0
100
AcDbLine
 62
7
  6
CONTINUOUS
 10
573.2468295154
 20
529.1447080326
 11
573.7468295154
 21
529.1447080326
  0
LINE
  5
3AA
100
AcDbEntity
  8
0
100
AcDbLine
 62
7
  6
CONTINUOUS
 10
573.2468295154
 20
533.1093315722
 11
573.7468295154
 21
533.1093315722
  0
LINE
  5
3AB
100
AcDbEntity
  8
0
100
AcDbLine
 62
7
  6
CONTINUOUS
 10
573.2468295154
 20
546.1093315722
 11
573.7468295154
 21
546.1093315722
  0
LINE
  5
3AC
100
AcDbEntity
  8
RUNDUNGEN
100
AcDbLine
 62
7
  6
CONTINUOUS
 10
563.2468295154
 20
567.3978816358
 11
535.2468295154
 21
567.3978816358
  0
LWPOLYLINE
  5
3AD
100
AcDbEntity
  8
RUNDUNGEN
100
AcDbPolyline
 62
7
  6
CONTINUOUS
 90
7
 70
0
 10
105.6353756198
 20
110.0747217628
 10
105.6491609843
 20
107.7558312495
 10
105.6947723499
 20
105.260356278
 10
105.7727325547
 20
102.7520948933
 10
105.8834233246
 20
100.2336203324
 10
106.027037471
 20
97.7075355551
 10
106.1926429121
 20
95.3217703863
  0
LWPOLYLINE
  5
3AE
100
AcDbEntity
  8
BEZUGSACHSEN
100
AcDbPolyline
 62
7
  6
CONTINUOUS
 90
7
 70
0
 10
106.1926429121
 20
124.8276731394
 10
106.027037471
 20
122.4419079705
 10
105.8834233246
 20
119.9158231933
 10
105.7727325547
 20
117.3973486323
 10
105.6947723499
 20
114.8890872476
 10
105.6491609843
 20
112.3936122761
 10
105.6353756198
 20
110.0747217628
  0
LWPOLYLINE
  5
3AF
100
AcDbEntity
  8
BEZUGSACHSEN
100
AcDbPolyline
 62
7
  6
CONTINUOUS
 90
18
 70
0
 10
135.897640121
 20
143.9975584884
 10
134.957617051
 20
142.91053116
 10
134.0608420534
 20
141.8833975413
 10
133.2057046858
 20
140.9173794768
 10
132.3865623616
 20
140.0087749784
 10
131.6078813964
 20
139.1646896234
 10
130.8715511725
 20
138.3884676763
 10
130.1797174784
 20
137.6827884987
 10
129.535193603
 20
137.0499136375
 10
128.9381473557
 20
136.4884694023
 10
128.3912238333
 20
135.9985114188
 10
127.8907775971
 20
135.5737649167
 10
127.4354450951
 20
135.209890543
 10
127.0243527961
 20
134.9027533507
 10
126.6568546446
 20
134.6482187975
 10
126.3349893071
 20
134.4436858676
 10
126.0604539447
 20
134.2856943612
 10
125.8379406331
 20
134.1716603998
  0
LWPOLYLINE
  5
3B0
100
AcDbEntity
  8
BEZUGSACHSEN
100
AcDbPolyline
 62
7
  6
CONTINUOUS
 90
12
 70
0
 10
155.6483541799
 20
164.8999561768
 10
153.6722797953
 20
163.1060227257
 10
151.6602698642
 20
161.2041977017
 10
149.7384363799
 20
159.31644745
 10
147.9131349901
 20
157.4596340027
 10
146.1869410297
 20
155.6476970629
 10
144.5620157756
 20
153.8946251712
 10
143.0395156413
 20
152.213292892
 10
141.6192436948
 20
150.614553686
 10
140.3040798031
 20
149.112066583
 10
139.0825467641
 20
147.7018135429
 10
135.897640121
 20
143.9975584884
  0
LINE
  5
3B1
100
AcDbEntity
  8
BEZUGSACHSEN
100
AcDbLine
 62
7
  6
CONTINUOUS
 10
125.8379406331
 20
134.1716603998
 11
125.671985308
 21
134.0975880889
  0
LINE
  5
3B2
100
AcDbEntity
  8
BEZUGSACHSEN
100
AcDbLine
 62
7
  6
CONTINUOUS
 10
125.671985308
 20
134.0975880889
 11
125.6113820747
 21
134.0747217628
  0
LINE
  5
3B3
100
AcDbEntity
  8
0
100
AcDbLine
 62
7
  6
CONTINUOUS
 10
141.1182566858
 20
86.0747217628
 11
141.1182566858
 21
85.5747217628
  0
LINE
  5
3B4
100
AcDbEntity
  8
0
100
AcDbLine
 62
7
  6
CONTINUOUS
 10
142.2673052053
 20
86.0747217628
 11
142.2673052053
 21
85.5747217628
  0
LINE
  5
3B5
100
AcDbEntity
  8
0
100
AcDbLine
 62
7
  6
CONTINUOUS
 10
147.6295314466
 20
86.0747217628
 11
147.6295314466
 21
85.5747217628
  0
LINE
  5
3B6
100
AcDbEntity
  8
0
100
AcDbLine
 62
7
  6
CONTINUOUS
 10
148.7785799661
 20
86.0747217628
 11
148.7785799661
 21
85.5747217628
  0
LINE
  5
3B7
100
AcDbEntity
  8
0
100
AcDbLine
 62
7
  6
CONTINUOUS
 10
150.3106448413
 20
86.0747217628
 11
150.3106448413
 21
85.5747217628
  0
LINE
  5
3B8
100
AcDbEntity
  8
0
100
AcDbLine
 62
7
  6
CONTINUOUS
 10
154.906838919
 20
86.0747217628
 11
154.906838919
 21
85.5747217628
  0
LINE
  5
3B9
100
AcDbEntity
  8
0
100
AcDbLine
 62
7
  6
CONTINUOUS
 10
156.05996169
 20
86.0747217628
 11
156.05996169
 21
85.5747217628
  0
LINE
  5
3BA
100
AcDbEntity
  8
0
100
AcDbLine
 62
7
  6
CONTINUOUS
 10
157.4127425117
 20
86.0747217628
 11
157.4127425117
 21
85.5747217628
  0
LINE
  5
3BB
100
AcDbEntity
  8
0
100
AcDbLine
 62
7
  6
CONTINUOUS
 10
158.769597585
 20
86.0747217628
 11
158.769597585
 21
85.5747217628
  0
LINE
  5
3BC
100
AcDbEntity
  8
0
100
AcDbLine
 62
7
  6
CONTINUOUS
 10
218.9015187828
 20
148.7768494579
 11
217.4431843369
 21
147.8832325431
  0
LINE
  5
3BD
100
AcDbEntity
  8
0
100
AcDbLine
 62
7
  6
CONTINUOUS
 10
219.1931843369
 20
147.2874879333
 11
220.0681843369
 21
147.5853602382
  0
LINE
  5
3BE
100
AcDbEntity
  8
0
100
AcDbLine
 62
7
  6
CONTINUOUS
 10
219.1931843369
 20
142.2236579153
 11
220.0681843369
 21
142.5215302202
  0
LWPOLYLINE
  5
3BF
100
AcDbEntity
  8
RUNDUNGEN
100
AcDbPolyline
 62
7
  6
CONTINUOUS
 90
11
 70
0
 10
139.0864827586
 20
72.4430681896
 10
140.3066950865
 20
71.0343711711
 10
141.6202214294
 20
69.533780187
 10
143.0392794476
 20
67.9364141878
 10
144.5609166703
 20
66.2560190224
 10
146.1856286318
 20
64.5031441875
 10
147.9119894706
 20
62.6909941273
 10
149.7376793582
 20
60.833753327
 10
151.6599621618
 20
58.9455425076
 10
153.6721988678
 20
57.0434957626
 10
155.6483541861
 20
55.2494873432
  0
LINE
  5
3C0
100
AcDbEntity
  8
RUNDUNGEN
100
AcDbLine
 62
7
  6
CONTINUOUS
 10
135.9007784544
 20
76.1482435218
 11
139.0864827586
 21
72.4430681896
  0
LINE
  5
3C1
100
AcDbEntity
  8
0
100
AcDbLine
 62
7
  6
CONTINUOUS
 10
159.547854147
 20
86.0747217628
 11
159.547854147
 21
85.5747217628
  0
LINE
  5
3C2
100
AcDbEntity
  8
0
100
AcDbLine
 62
7
  6
CONTINUOUS
 10
160.3301855085
 20
86.0747217628
 11
160.3301855085
 21
85.5747217628
  0
LINE
  5
3C3
100
AcDbEntity
  8
0
100
AcDbLine
 62
7
  6
CONTINUOUS
 10
160.7254251669
 20
86.0747217628
 11
160.7254251669
 21
85.5747217628
  0
LINE
  5
3C4
100
AcDbEntity
  8
0
100
AcDbLine
 62
7
  6
CONTINUOUS
 10
160.9332317207
 20
86.0747217628
 11
160.9332317207
 21
85.5747217628
  0
LINE
  5
3C5
100
AcDbEntity
  8
0
100
AcDbLine
 62
7
  6
CONTINUOUS
 10
161.2388296263
 20
86.0747217628
 11
161.2388296263
 21
85.5747217628
  0
LINE
  5
3C6
100
AcDbEntity
  8
0
100
AcDbLine
 62
7
  6
CONTINUOUS
 10
161.6136958353
 20
86.0747217628
 11
161.6136958353
 21
85.5747217628
  0
LINE
  5
3C7
100
AcDbEntity
  8
0
100
AcDbLine
 62
7
  6
CONTINUOUS
 10
162.1841469392
 20
86.0747217628
 11
162.1841469392
 21
85.5747217628
  0
LINE
  5
3C8
100
AcDbEntity
  8
0
100
AcDbLine
 62
7
  6
CONTINUOUS
 10
163.141685911
 20
86.0747217628
 11
163.141685911
 21
85.5747217628
  0
LINE
  5
3C9
100
AcDbEntity
  8
0
100
AcDbLine
 62
7
  6
CONTINUOUS
 10
164.2948097778
 20
86.0747217628
 11
164.2948097778
 21
85.5747217628
  0
LINE
  5
3CA
100
AcDbEntity
  8
0
100
AcDbLine
 62
7
  6
CONTINUOUS
 10
165.6475895037
 20
86.0747217628
 11
165.6475895037
 21
85.5747217628
  0
LINE
  5
3CB
100
AcDbEntity
  8
0
100
AcDbLine
 62
7
  6
CONTINUOUS
 10
167.004444577
 20
86.0747217628
 11
167.004444577
 21
85.5747217628
  0
LINE
  5
3CC
100
AcDbEntity
  8
0
100
AcDbLine
 62
7
  6
CONTINUOUS
 10
167.7827022349
 20
86.0747217628
 11
167.7827022349
 21
85.5747217628
  0
LINE
  5
3CD
100
AcDbEntity
  8
0
100
AcDbLine
 62
7
  6
CONTINUOUS
 10
168.3979717497
 20
86.0747217628
 11
168.3979717497
 21
85.5747217628
  0
LINE
  5
3CE
100
AcDbEntity
  8
0
100
AcDbLine
 62
7
  6
CONTINUOUS
 10
169.5551709638
 20
86.0747217628
 11
169.5551709638
 21
85.5747217628
  0
LINE
  5
3CF
100
AcDbEntity
  8
0
100
AcDbLine
 62
7
  6
CONTINUOUS
 10
171.1035333932
 20
86.0747217628
 11
171.1035333932
 21
85.5747217628
  0
LINE
  5
3D0
100
AcDbEntity
  8
0
100
AcDbLine
 62
7
  6
CONTINUOUS
 10
218.3181843369
 20
146.6917433235
 11
219.1931843369
 21
147.2874879333
  0
LINE
  5
3D1
100
AcDbEntity
  8
0
100
AcDbLine
 62
7
  6
CONTINUOUS
 10
218.9015187828
 20
143.7130194398
 11
217.1515187828
 21
142.5215302202
  0
LINE
  5
3D2
100
AcDbEntity
  8
0
100
AcDbLine
 62
7
  6
CONTINUOUS
 10
218.3181843369
 20
141.6279133054
 11
219.1931843369
 21
142.2236579153
  0
LINE
  5
3D3
100
AcDbEntity
  8
0
100
AcDbLine
 62
7
  6
CONTINUOUS
 10
222.9848515598
 20
136.8619558009
 11
222.1098515598
 21
136.564083496
  0
LWPOLYLINE
  5
3D4
100
AcDbEntity
  8
RUNDUNGEN
100
AcDbPolyline
 62
7
  6
CONTINUOUS
 90
43
 70
0
 10
155.6483583551
 20
55.2494832178
 10
157.9655205294
 20
53.2581048534
 10
160.4801722829
 20
51.2446333193
 10
163.0770525208
 20
49.3125743889
 10
165.7531241044
 20
47.464875838
 10
168.5055477811
 20
45.7041652985
 10
171.3311885867
 20
44.0334505956
 10
174.226855558
 20
42.4557427291
 10
177.1887222759
 20
40.9738124553
 10
180.2126555036
 20
39.5902565581
 10
183.2950359626
 20
38.3073953004
 10
186.4327752211
 20
37.1272768238
 10
189.6212521086
 20
36.0523031381
 10
192.8556757762
 20
35.0846763817
 10
196.1308344238
 20
34.2264596219
 10
199.4421144472
 20
33.4791887017
 10
202.7847422166
 20
32.8442832337
 10
206.1533409201
 20
32.3231877121
 10
209.5425617697
 20
31.9170413451
 10
212.9474862476
 20
31.6264243157
 10
216.3629911339
 20
31.451797094
 10
219.7837120528
 20
31.3936598851
 10
223.204423539
 20
31.4522877892
 10
226.6199010415
 20
31.6274041974
 10
230.0247780289
 20
31.918508948
 10
233.4139302092
 20
32.3251416
 10
236.7824370196
 20
32.8467202403
 10
240.1249452576
 20
33.4821024712
 10
243.4360815677
 20
34.2298435122
 10
246.7110758516
 20
35.0885238963
 10
249.9453168182
 20
36.0566074245
 10
253.1335924245
 20
37.1320295382
 10
256.2711118443
 20
38.3125876641
 10
259.3532581589
 20
39.5958801091
 10
262.3769434896
 20
40.9798586211
 10
265.3385457532
 20
42.4622015783
 10
268.2339309706
 20
44.0403115787
 10
271.0592753744
 20
45.7114165026
 10
273.8113886124
 20
47.4725043985
 10
276.487134769
 20
49.3205673567
 10
279.0836767418
 20
51.2529794238
 10
281.5979772403
 20
53.2667904655
 10
283.9046809724
 20
55.2494835132
  0
LINE
  5
3D5
100
AcDbEntity
  8
0
100
AcDbLine
 62
7
  6
CONTINUOUS
 10
172.2688813844
 20
86.0747217628
 11
172.2688813844
 21
85.5747217628
  0
LINE
  5
3D6
100
AcDbEntity
  8
0
100
AcDbLine
 62
7
  6
CONTINUOUS
 10
173.2467949014
 20
86.0747217628
 11
173.2467949014
 21
85.5747217628
  0
LINE
  5
3D7
100
AcDbEntity
  8
0
100
AcDbLine
 62
7
  6
CONTINUOUS
 10
173.6461089482
 20
86.0747217628
 11
173.6461089482
 21
85.5747217628
  0
LINE
  5
3D8
100
AcDbEntity
  8
0
100
AcDbLine
 62
7
  6
CONTINUOUS
 10
173.6624082146
 20
86.0747217628
 11
173.6624082146
 21
85.5747217628
  0
LINE
  5
3D9
100
AcDbEntity
  8
0
100
AcDbLine
 62
7
  6
CONTINUOUS
 10
217.7348515598
 20
145.7981264087
 11
218.3181843369
 21
146.6917433235
  0
LINE
  5
3DA
100
AcDbEntity
  8
0
100
AcDbLine
 62
7
  6
CONTINUOUS
 10
217.4431843369
 20
147.8832325431
 11
216.5681843369
 21
146.6917433235
  0
LINE
  5
3DB
100
AcDbEntity
  8
0
100
AcDbLine
 62
7
  6
CONTINUOUS
 10
217.7348515598
 20
141.0321686956
 11
218.3181843369
 21
141.6279133054
  0
LINE
  5
3DC
100
AcDbEntity
  8
0
100
AcDbLine
 62
7
  6
CONTINUOUS
 10
223.8598515598
 20
137.4577004108
 11
222.9848515598
 21
136.8619558009
  0
LINE
  5
3DD
100
AcDbEntity
  8
0
100
AcDbLine
 62
7
  6
CONTINUOUS
 10
223.2765187828
 20
135.3725940938
 11
224.7348515598
 21
136.2662110868
  0
LINE
  5
3DE
100
AcDbEntity
  8
0
100
AcDbLine
 62
7
  6
CONTINUOUS
 10
210.7348515598
 20
149.0747217628
 11
206.3598515598
 21
136.564083496
  0
LINE
  5
3DF
100
AcDbEntity
  8
0
100
AcDbLine
 62
7
  6
CONTINUOUS
 10
207.5265179484
 20
135.0747217628
 11
211.6098515598
 21
146.0959987136
  0
LINE
  5
3E0
100
AcDbEntity
  8
0
100
AcDbLine
 62
7
  6
CONTINUOUS
 10
216.5681843369
 20
146.6917433235
 11
215.9848515598
 21
145.2023809644
  0
LINE
  5
3E1
100
AcDbEntity
  8
0
100
AcDbLine
 62
7
  6
CONTINUOUS
 10
224.4431843369
 20
138.3513175341
 11
223.8598515598
 21
137.4577004108
  0
LINE
  5
3E2
100
AcDbEntity
  8
0
100
AcDbLine
 62
7
  6
CONTINUOUS
 10
224.7348515598
 20
136.2662110868
 11
225.6098515598
 21
137.4577004108
  0
LINE
  5
3E3
100
AcDbEntity
  8
0
100
AcDbLine
 62
7
  6
CONTINUOUS
 10
235.5265171139
 20
149.0747217628
 11
228.5265171139
 21
141.0321686956
  0
LINE
  5
3E4
100
AcDbEntity
  8
0
100
AcDbLine
 62
7
  6
CONTINUOUS
 10
230.5681860058
 20
141.0321686956
 11
235.5265171139
 21
146.6917433235
  0
LINE
  5
3E5
100
AcDbEntity
  8
RUNDUNGEN
100
AcDbLine
 62
7
  6
CONTINUOUS
 10
125.6113821222
 20
86.0747217628
 11
125.6719137495
 21
86.0518847472
  0
LINE
  5
3E6
100
AcDbEntity
  8
RUNDUNGEN
100
AcDbLine
 62
7
  6
CONTINUOUS
 10
125.6719137495
 20
86.0518847472
 11
125.8378528876
 21
85.9778250974
  0
LWPOLYLINE
  5
3E7
100
AcDbEntity
  8
RUNDUNGEN
100
AcDbPolyline
 62
7
  6
CONTINUOUS
 90
18
 70
0
 10
125.8378528876
 20
85.9778250974
 10
126.0603750481
 20
85.8637920349
 10
126.3349421962
 20
85.7057861693
 10
126.6568632578
 20
85.5012190102
 10
127.0244316998
 20
85.2466333799
 10
127.4356008159
 20
84.9394325933
 10
127.8910073906
 20
84.575489269
 10
128.391513755
 20
84.1506791841
 10
128.9384790073
 20
83.6606695886
 10
129.5355290755
 20
83.0992073529
 10
130.1800534998
 20
82.4663185455
 10
130.8719030158
 20
81.7606107693
 10
131.6083113372
 20
80.9842939925
 10
132.3871803746
 20
80.1399904082
 10
133.2066625639
 20
79.2309910522
 10
134.0623985998
 20
78.2642742451
 10
134.9599073963
 20
77.2362747673
 10
135.9007784544
 20
76.1482435218
  0
LINE
  5
3E8
100
AcDbEntity
  8
0
100
AcDbLine
 62
7
  6
CONTINUOUS
 10
199.3598515598
 20
149.0747217628
 11
199.3598515598
 21
135.0747217628
  0
LINE
  5
3E9
100
AcDbEntity
  8
0
100
AcDbLine
 62
7
  6
CONTINUOUS
 10
201.1098515598
 20
135.0747217628
 11
201.1098515598
 21
146.0959987136
  0
LINE
  5
3EA
100
AcDbEntity
  8
0
100
AcDbLine
 62
7
  6
CONTINUOUS
 10
202.1723553745
 20
86.0747217628
 11
202.1723553745
 21
85.5747217628
  0
LINE
  5
3EB
100
AcDbEntity
  8
0
100
AcDbLine
 62
7
  6
CONTINUOUS
 10
208.6723553745
 20
86.0747217628
 11
208.6723553745
 21
85.5747217628
  0
LINE
  5
3EC
100
AcDbEntity
  8
0
100
AcDbLine
 62
7
  6
CONTINUOUS
 10
215.9848515598
 20
145.2023809644
 11
215.6931843369
 21
143.11727483
  0
LINE
  5
3ED
100
AcDbEntity
  8
0
100
AcDbLine
 62
7
  6
CONTINUOUS
 10
217.1515187828
 20
143.11727483
 11
217.4431843369
 21
144.9045086595
  0
LINE
  5
3EE
100
AcDbEntity
  8
0
100
AcDbLine
 62
7
  6
CONTINUOUS
 10
217.4431843369
 20
144.9045086595
 11
217.7348515598
 21
145.7981264087
  0
LINE
  5
3EF
100
AcDbEntity
  8
0
100
AcDbLine
 62
7
  6
CONTINUOUS
 10
217.4431843369
 20
140.1385513636
 11
217.7348515598
 21
141.0321686956
  0
LINE
  5
3F0
100
AcDbEntity
  8
0
100
AcDbLine
 62
7
  6
CONTINUOUS
 10
224.7348515598
 20
139.2449344489
 11
224.4431843369
 21
138.3513175341
  0
LINE
  5
3F1
100
AcDbEntity
  8
0
100
AcDbLine
 62
7
  6
CONTINUOUS
 10
225.6098515598
 20
137.4577004108
 11
226.1931843369
 21
138.947062144
  0
LINE
  5
3F2
100
AcDbEntity
  8
0
100
AcDbLine
 62
7
  6
CONTINUOUS
 10
210.0265222995
 20
86.0747217628
 11
210.0265222995
 21
85.5747217628
  0
LINE
  5
3F3
100
AcDbEntity
  8
0
100
AcDbLine
 62
7
  6
CONTINUOUS
 10
211.1098553745
 20
86.0747217628
 11
211.1098553745
 21
85.5747217628
  0
LINE
  5
3F4
100
AcDbEntity
  8
0
100
AcDbLine
 62
7
  6
CONTINUOUS
 10
211.6098515598
 20
146.0959987136
 11
211.6098515598
 21
135.0747217628
  0
LINE
  5
3F5
100
AcDbEntity
  8
0
100
AcDbLine
 62
7
  6
CONTINUOUS
 10
211.9223553745
 20
86.0747217628
 11
211.9223553745
 21
85.5747217628
  0
LINE
  5
3F6
100
AcDbEntity
  8
0
100
AcDbLine
 62
7
  6
CONTINUOUS
 10
212.1931884496
 20
86.0747217628
 11
212.1931884496
 21
85.5747217628
  0
LINE
  5
3F7
100
AcDbEntity
  8
0
100
AcDbLine
 62
7
  6
CONTINUOUS
 10
212.4640222995
 20
86.0747217628
 11
212.4640222995
 21
85.5747217628
  0
LINE
  5
3F8
100
AcDbEntity
  8
0
100
AcDbLine
 62
7
  6
CONTINUOUS
 10
213.3598515598
 20
135.0747217628
 11
213.3598515598
 21
149.0747217628
  0
LINE
  5
3F9
100
AcDbEntity
  8
0
100
AcDbLine
 62
7
  6
CONTINUOUS
 10
214.6306884496
 20
86.0747217628
 11
214.6306884496
 21
85.5747217628
  0
LINE
  5
3FA
100
AcDbEntity
  8
0
100
AcDbLine
 62
7
  6
CONTINUOUS
 10
215.6931843369
 20
143.11727483
 11
215.6931843369
 21
141.0321686956
  0
LINE
  5
3FB
100
AcDbEntity
  8
0
100
AcDbLine
 62
7
  6
CONTINUOUS
 10
216.2556892245
 20
86.0747217628
 11
216.2556892245
 21
85.5747217628
  0
LINE
  5
3FC
100
AcDbEntity
  8
0
100
AcDbLine
 62
7
  6
CONTINUOUS
 10
216.5265215246
 20
86.0747217628
 11
216.5265215246
 21
85.5747217628
  0
LINE
  5
3FD
100
AcDbEntity
  8
0
100
AcDbLine
 62
7
  6
CONTINUOUS
 10
217.0681892245
 20
86.0747217628
 11
217.0681892245
 21
85.5747217628
  0
LINE
  5
3FE
100
AcDbEntity
  8
0
100
AcDbLine
 62
7
  6
CONTINUOUS
 10
217.1515187828
 20
142.5215302202
 11
217.1515187828
 21
143.11727483
  0
LINE
  5
3FF
100
AcDbEntity
  8
0
100
AcDbLine
 62
7
  6
CONTINUOUS
 10
217.4431843369
 20
139.2449344489
 11
217.4431843369
 21
140.1385513636
  0
LINE
  5
400
100
AcDbEntity
  8
0
100
AcDbLine
 62
7
  6
CONTINUOUS
 10
217.8806892245
 20
86.0747217628
 11
217.8806892245
 21
85.5747217628
  0
LINE
  5
401
100
AcDbEntity
  8
0
100
AcDbLine
 62
7
  6
CONTINUOUS
 10
218.9640215246
 20
86.0747217628
 11
218.9640215246
 21
85.5747217628
  0
LINE
  5
402
100
AcDbEntity
  8
0
100
AcDbLine
 62
7
  6
CONTINUOUS
 10
220.0473553745
 20
86.0747217628
 11
220.0473553745
 21
85.5747217628
  0
LINE
  5
403
100
AcDbEntity
  8
0
100
AcDbLine
 62
7
  6
CONTINUOUS
 10
221.1306892245
 20
86.0747217628
 11
221.1306892245
 21
85.5747217628
  0
LINE
  5
404
100
AcDbEntity
  8
0
100
AcDbLine
 62
7
  6
CONTINUOUS
 10
221.9431892245
 20
86.0747217628
 11
221.9431892245
 21
85.5747217628
  0
LINE
  5
405
100
AcDbEntity
  8
0
100
AcDbLine
 62
7
  6
CONTINUOUS
 10
222.4848553745
 20
86.0747217628
 11
222.4848553745
 21
85.5747217628
  0
LINE
  5
406
100
AcDbEntity
  8
0
100
AcDbLine
 62
7
  6
CONTINUOUS
 10
222.7556892245
 20
86.0747217628
 11
222.7556892245
 21
85.5747217628
  0
LINE
  5
407
100
AcDbEntity
  8
0
100
AcDbLine
 62
7
  6
CONTINUOUS
 10
224.3806892245
 20
86.0747217628
 11
224.3806892245
 21
85.5747217628
  0
LINE
  5
408
100
AcDbEntity
  8
0
100
AcDbLine
 62
7
  6
CONTINUOUS
 10
224.7348515598
 20
140.1385513636
 11
224.7348515598
 21
139.2449344489
  0
LINE
  5
409
100
AcDbEntity
  8
0
100
AcDbLine
 62
7
  6
CONTINUOUS
 10
226.1931843369
 20
138.947062144
 11
226.1931843369
 21
140.4364240858
  0
LINE
  5
40A
100
AcDbEntity
  8
0
100
AcDbLine
 62
7
  6
CONTINUOUS
 10
226.5473553745
 20
86.0747217628
 11
226.5473553745
 21
85.5747217628
  0
LINE
  5
40B
100
AcDbEntity
  8
0
100
AcDbLine
 62
7
  6
CONTINUOUS
 10
228.5265171139
 20
141.0321686956
 11
228.5265171139
 21
139.2449344489
  0
LINE
  5
40C
100
AcDbEntity
  8
0
100
AcDbLine
 62
7
  6
CONTINUOUS
 10
233.0473553745
 20
86.0747217628
 11
233.0473553745
 21
85.5747217628
  0
LINE
  5
40D
100
AcDbEntity
  8
0
100
AcDbLine
 62
7
  6
CONTINUOUS
 10
290.8167215759
 20
85.5747217628
 11
271.1765275854
 21
85.5747217628
  0
LINE
  5
40E
100
AcDbEntity
  8
0
100
AcDbLine
 62
7
  6
CONTINUOUS
 10
237.3806876747
 20
85.5747217628
 11
226.5473553745
 21
85.5747217628
  0
LINE
  5
40F
100
AcDbEntity
  8
0
100
AcDbLine
 62
7
  6
CONTINUOUS
 10
224.3806892245
 20
85.5747217628
 11
214.6306884496
 21
85.5747217628
  0
LINE
  5
410
100
AcDbEntity
  8
0
100
AcDbLine
 62
7
  6
CONTINUOUS
 10
212.4640222995
 20
85.5747217628
 11
202.1723553745
 21
85.5747217628
  0
LINE
  5
411
100
AcDbEntity
  8
0
100
AcDbLine
 62
7
  6
CONTINUOUS
 10
173.6624082146
 20
85.5747217628
 11
141.1182566858
 21
85.5747217628
  0
LINE
  5
412
100
AcDbEntity
  8
RUNDUNGEN
100
AcDbLine
 62
7
  6
CONTINUOUS
 10
116.1642585678
 20
86.0747217628
 11
323.3887788485
 21
86.0747217628
  0
LINE
  5
413
100
AcDbEntity
  8
0
100
AcDbLine
 62
7
  6
CONTINUOUS
 10
201.1098515598
 20
146.0959987136
 11
205.1931847541
 21
135.0747217628
  0
LINE
  5
414
100
AcDbEntity
  8
0
100
AcDbLine
 62
7
  6
CONTINUOUS
 10
206.3598515598
 20
136.564083496
 11
201.9848515598
 21
149.0747217628
  0
LINE
  5
415
100
AcDbEntity
  8
0
100
AcDbLine
 62
7
  6
CONTINUOUS
 10
215.6931843369
 20
141.0321686956
 11
215.9848515598
 21
138.947062144
  0
LINE
  5
416
100
AcDbEntity
  8
0
100
AcDbLine
 62
7
  6
CONTINUOUS
 10
234.4015230744
 20
86.0747217628
 11
234.4015230744
 21
85.5747217628
  0
LINE
  5
417
100
AcDbEntity
  8
0
100
AcDbLine
 62
7
  6
CONTINUOUS
 10
235.4848553745
 20
86.0747217628
 11
235.4848553745
 21
85.5747217628
  0
LINE
  5
418
100
AcDbEntity
  8
0
100
AcDbLine
 62
7
  6
CONTINUOUS
 10
235.5265171139
 20
146.6917433235
 11
235.5265171139
 21
141.0321686956
  0
LINE
  5
419
100
AcDbEntity
  8
0
100
AcDbLine
 62
7
  6
CONTINUOUS
 10
235.5265171139
 20
139.2449344489
 11
235.5265171139
 21
135.0747217628
  0
LINE
  5
41A
100
AcDbEntity
  8
0
100
AcDbLine
 62
7
  6
CONTINUOUS
 10
236.5681876747
 20
86.0747217628
 11
236.5681876747
 21
85.5747217628
  0
LINE
  5
41B
100
AcDbEntity
  8
0
100
AcDbLine
 62
7
  6
CONTINUOUS
 10
237.1098553745
 20
86.0747217628
 11
237.1098553745
 21
85.5747217628
  0
LINE
  5
41C
100
AcDbEntity
  8
0
100
AcDbLine
 62
7
  6
CONTINUOUS
 10
237.2765171139
 20
135.0747217628
 11
237.2765171139
 21
139.2449344489
  0
LINE
  5
41D
100
AcDbEntity
  8
0
100
AcDbLine
 62
7
  6
CONTINUOUS
 10
237.2765171139
 20
141.0321686956
 11
237.2765171139
 21
149.0747217628
  0
LINE
  5
41E
100
AcDbEntity
  8
0
100
AcDbLine
 62
7
  6
CONTINUOUS
 10
237.3806876747
 20
86.0747217628
 11
237.3806876747
 21
85.5747217628
  0
LINE
  5
41F
100
AcDbEntity
  8
0
100
AcDbLine
 62
7
  6
CONTINUOUS
 10
240.1931860058
 20
139.2449344489
 11
240.1931860058
 21
141.0321686956
  0
LINE
  5
420
100
AcDbEntity
  8
RUNDUNGEN
100
AcDbLine
 62
7
  6
CONTINUOUS
 10
313.8821872472
 20
86.0523194422
 11
313.9416525857
 21
86.0747217628
  0
LINE
  5
421
100
AcDbEntity
  8
0
100
AcDbLine
 62
7
  6
CONTINUOUS
 10
215.9848515598
 20
138.947062144
 11
216.5681843369
 21
137.4577004108
  0
LINE
  5
422
100
AcDbEntity
  8
0
100
AcDbLine
 62
7
  6
CONTINUOUS
 10
217.7348515598
 20
138.3513175341
 11
217.4431843369
 21
139.2449344489
  0
LINE
  5
423
100
AcDbEntity
  8
0
100
AcDbLine
 62
7
  6
CONTINUOUS
 10
224.4431843369
 20
141.0321686956
 11
224.7348515598
 21
140.1385513636
  0
LINE
  5
424
100
AcDbEntity
  8
RUNDUNGEN
100
AcDbLine
 62
7
  6
CONTINUOUS
 10
313.7167429149
 20
85.9785693299
 11
313.7751349931
 21
86.005859968
  0
LINE
  5
425
100
AcDbEntity
  8
RUNDUNGEN
100
AcDbLine
 62
7
  6
CONTINUOUS
 10
313.7751349931
 20
86.005859968
 11
313.8821872472
 21
86.0523194422
  0
LINE
  5
426
100
AcDbEntity
  8
0
100
AcDbLine
 62
7
  6
CONTINUOUS
 10
216.5681843369
 20
137.4577004108
 11
217.4431843369
 21
136.2662110868
  0
LINE
  5
427
100
AcDbEntity
  8
0
100
AcDbLine
 62
7
  6
CONTINUOUS
 10
218.3181843369
 20
137.4577004108
 11
217.7348515598
 21
138.3513175341
  0
LINE
  5
428
100
AcDbEntity
  8
0
100
AcDbLine
 62
7
  6
CONTINUOUS
 10
226.1931843369
 20
140.4364240858
 11
225.6098515598
 21
141.9257856103
  0
LINE
  5
429
100
AcDbEntity
  8
0
100
AcDbLine
 62
7
  6
CONTINUOUS
 10
225.6098515598
 20
145.7981264087
 11
225.3181843369
 21
146.6917433235
  0
LINE
  5
42A
100
AcDbEntity
  8
0
100
AcDbLine
 62
7
  6
CONTINUOUS
 10
271.1765194981
 20
86.0747217628
 11
271.1765194981
 21
85.5747217628
  0
LINE
  5
42B
100
AcDbEntity
  8
0
100
AcDbLine
 62
7
  6
CONTINUOUS
 10
217.4431843369
 20
136.2662110868
 11
218.9015187828
 21
135.3725940938
  0
LINE
  5
42C
100
AcDbEntity
  8
0
100
AcDbLine
 62
7
  6
CONTINUOUS
 10
219.1931843369
 20
136.8619558009
 11
218.3181843369
 21
137.4577004108
  0
LINE
  5
42D
100
AcDbEntity
  8
0
100
AcDbLine
 62
7
  6
CONTINUOUS
 10
223.8598515598
 20
141.6279133054
 11
224.4431843369
 21
141.0321686956
  0
LINE
  5
42E
100
AcDbEntity
  8
0
100
AcDbLine
 62
7
  6
CONTINUOUS
 10
225.6098515598
 20
141.9257856103
 11
224.7348515598
 21
142.8194025251
  0
LINE
  5
42F
100
AcDbEntity
  8
0
100
AcDbLine
 62
7
  6
CONTINUOUS
 10
225.3181843369
 20
146.6917433235
 11
224.4431843369
 21
147.8832325431
  0
LINE
  5
430
100
AcDbEntity
  8
0
100
AcDbLine
 62
7
  6
CONTINUOUS
 10
223.5681843369
 20
146.6917433235
 11
224.1515187828
 21
145.7981264087
  0
LINE
  5
431
100
AcDbEntity
  8
0
100
AcDbLine
 62
7
  6
CONTINUOUS
 10
282.8867215759
 20
86.0747217628
 11
282.8867215759
 21
85.5747217628
  0
LWPOLYLINE
  5
432
100
AcDbEntity
  8
RUNDUNGEN
100
AcDbPolyline
 62
7
  6
CONTINUOUS
 90
12
 70
0
 10
283.9046850585
 20
55.2494875697
 10
285.8913386001
 20
57.0532216132
 10
287.9032493119
 20
58.9553517006
 10
289.8251779046
 20
60.8435755873
 10
291.6504894295
 20
62.700756965
 10
293.3764515555
 20
64.5127739996
 10
295.0007489123
 20
66.2654433337
 10
296.5219487504
 20
67.9455524552
 10
297.9405763754
 20
69.5425863576
 10
299.2536931412
 20
71.0428179213
 10
300.4735528142
 20
72.4511772207
 10
303.6586655482
 20
76.1556753266
  0
LINE
  5
433
100
AcDbEntity
  8
0
100
AcDbLine
 62
7
  6
CONTINUOUS
 10
221.8181843369
 20
135.0747217628
 11
223.2765187828
 21
135.3725940938
  0
LINE
  5
434
100
AcDbEntity
  8
BEZUGSACHSEN
100
AcDbLine
 62
7
  6
CONTINUOUS
 10
116.1642585678
 20
134.0747217628
 11
323.3887788485
 21
134.0747217628
  0
LINE
  5
435
100
AcDbEntity
  8
0
100
AcDbLine
 62
7
  6
CONTINUOUS
 10
199.3598515598
 20
135.0747217628
 11
201.1098515598
 21
135.0747217628
  0
LINE
  5
436
100
AcDbEntity
  8
0
100
AcDbLine
 62
7
  6
CONTINUOUS
 10
205.1931847541
 20
135.0747217628
 11
207.5265179484
 21
135.0747217628
  0
LINE
  5
437
100
AcDbEntity
  8
0
100
AcDbLine
 62
7
  6
CONTINUOUS
 10
211.6098515598
 20
135.0747217628
 11
213.3598515598
 21
135.0747217628
  0
LINE
  5
438
100
AcDbEntity
  8
0
100
AcDbLine
 62
7
  6
CONTINUOUS
 10
220.3598515598
 20
135.0747217628
 11
221.8181843369
 21
135.0747217628
  0
LINE
  5
439
100
AcDbEntity
  8
0
100
AcDbLine
 62
7
  6
CONTINUOUS
 10
235.5265171139
 20
135.0747217628
 11
237.2765171139
 21
135.0747217628
  0
LINE
  5
43A
100
AcDbEntity
  8
0
100
AcDbLine
 62
7
  6
CONTINUOUS
 10
222.1098515598
 20
136.564083496
 11
220.0681843369
 21
136.564083496
  0
LINE
  5
43B
100
AcDbEntity
  8
0
100
AcDbLine
 62
7
  6
CONTINUOUS
 10
228.5265171139
 20
139.2449344489
 11
235.5265171139
 21
139.2449344489
  0
LINE
  5
43C
100
AcDbEntity
  8
0
100
AcDbLine
 62
7
  6
CONTINUOUS
 10
237.2765171139
 20
139.2449344489
 11
240.1931860058
 21
139.2449344489
  0
LINE
  5
43D
100
AcDbEntity
  8
0
100
AcDbLine
 62
7
  6
CONTINUOUS
 10
240.1931860058
 20
141.0321686956
 11
237.2765171139
 21
141.0321686956
  0
LINE
  5
43E
100
AcDbEntity
  8
0
100
AcDbLine
 62
7
  6
CONTINUOUS
 10
235.5265171139
 20
141.0321686956
 11
230.5681860058
 21
141.0321686956
  0
LINE
  5
43F
100
AcDbEntity
  8
0
100
AcDbLine
 62
7
  6
CONTINUOUS
 10
218.9015187828
 20
135.3725940938
 11
220.3598515598
 21
135.0747217628
  0
LINE
  5
440
100
AcDbEntity
  8
0
100
AcDbLine
 62
7
  6
CONTINUOUS
 10
220.0681843369
 20
136.564083496
 11
219.1931843369
 21
136.8619558009
  0
LINE
  5
441
100
AcDbEntity
  8
0
100
AcDbLine
 62
7
  6
CONTINUOUS
 10
222.1098515598
 20
142.5215302202
 11
222.9848515598
 21
142.2236579153
  0
LINE
  5
442
100
AcDbEntity
  8
0
100
AcDbLine
 62
7
  6
CONTINUOUS
 10
224.7348515598
 20
142.8194025251
 11
223.2765187828
 21
143.7130194398
  0
LINE
  5
443
100
AcDbEntity
  8
0
100
AcDbLine
 62
7
  6
CONTINUOUS
 10
224.4431843369
 20
147.8832325431
 11
222.9848515598
 21
148.7768494579
  0
LINE
  5
444
100
AcDbEntity
  8
0
100
AcDbLine
 62
7
  6
CONTINUOUS
 10
222.9848515598
 20
142.2236579153
 11
223.8598515598
 21
141.6279133054
  0
LINE
  5
445
100
AcDbEntity
  8
0
100
AcDbLine
 62
7
  6
CONTINUOUS
 10
222.6931843369
 20
147.2874879333
 11
223.5681843369
 21
146.6917433235
  0
LINE
  5
446
100
AcDbEntity
  8
0
100
AcDbLine
 62
7
  6
CONTINUOUS
 10
290.8167215759
 20
86.0747217628
 11
290.8167215759
 21
85.5747217628
  0
LWPOLYLINE
  5
447
100
AcDbEntity
  8
RUNDUNGEN
100
AcDbPolyline
 62
7
  6
CONTINUOUS
 90
18
 70
0
 10
303.6586655482
 20
76.1556753266
 10
304.599397294
 20
77.243490417
 10
305.4967563952
 20
78.2712354315
 10
306.3523288007
 20
79.2376584185
 10
307.1716215181
 20
80.1463135387
 10
307.9502819212
 20
80.9902348851
 10
308.686462598
 20
81.7661371132
 10
309.3780669745
 20
82.4714062637
 10
310.0223299159
 20
83.1038408136
 10
310.6191011337
 20
83.6648386836
 10
311.1657706223
 20
84.1543820808
 10
311.6659628569
 20
84.5787276825
 10
312.1210358965
 20
84.9422133365
 10
312.5318501863
 20
85.2489668869
 10
312.8990406844
 20
85.5031201613
 10
313.2205566531
 20
85.7072742638
 10
313.4946872864
 20
85.8648908973
 10
313.7167429149
 20
85.9785693299
  0
LINE
  5
448
100
AcDbEntity
  8
0
100
AcDbLine
 62
7
  6
CONTINUOUS
 10
220.3598515598
 20
144.0108917448
 11
218.9015187828
 21
143.7130194398
  0
LINE
  5
449
100
AcDbEntity
  8
0
100
AcDbLine
 62
7
  6
CONTINUOUS
 10
220.3598515598
 20
149.0747217628
 11
218.9015187828
 21
148.7768494579
  0
LINE
  5
44A
100
AcDbEntity
  8
0
100
AcDbLine
 62
7
  6
CONTINUOUS
 10
220.0681843369
 20
142.5215302202
 11
222.1098515598
 21
142.5215302202
  0
LINE
  5
44B
100
AcDbEntity
  8
0
100
AcDbLine
 62
7
  6
CONTINUOUS
 10
221.8181843369
 20
144.0108917448
 11
220.3598515598
 21
144.0108917448
  0
LINE
  5
44C
100
AcDbEntity
  8
0
100
AcDbLine
 62
7
  6
CONTINUOUS
 10
224.1515187828
 20
145.7981264087
 11
225.6098515598
 21
145.7981264087
  0
LINE
  5
44D
100
AcDbEntity
  8
0
100
AcDbLine
 62
7
  6
CONTINUOUS
 10
220.0681843369
 20
147.5853602382
 11
221.8181843369
 21
147.5853602382
  0
LINE
  5
44E
100
AcDbEntity
  8
0
100
AcDbLine
 62
7
  6
CONTINUOUS
 10
237.2765171139
 20
149.0747217628
 11
235.5265171139
 21
149.0747217628
  0
LINE
  5
44F
100
AcDbEntity
  8
0
100
AcDbLine
 62
7
  6
CONTINUOUS
 10
221.5265187828
 20
149.0747217628
 11
220.3598515598
 21
149.0747217628
  0
LINE
  5
450
100
AcDbEntity
  8
0
100
AcDbLine
 62
7
  6
CONTINUOUS
 10
213.3598515598
 20
149.0747217628
 11
210.7348515598
 21
149.0747217628
  0
LINE
  5
451
100
AcDbEntity
  8
0
100
AcDbLine
 62
7
  6
CONTINUOUS
 10
201.9848515598
 20
149.0747217628
 11
199.3598515598
 21
149.0747217628
  0
LINE
  5
452
100
AcDbEntity
  8
0
100
AcDbLine
 62
7
  6
CONTINUOUS
 10
223.2765187828
 20
143.7130194398
 11
221.8181843369
 21
144.0108917448
  0
LINE
  5
453
100
AcDbEntity
  8
0
100
AcDbLine
 62
7
  6
CONTINUOUS
 10
222.9848515598
 20
148.7768494579
 11
221.5265187828
 21
149.0747217628
  0
LINE
  5
454
100
AcDbEntity
  8
0
100
AcDbLine
 62
7
  6
CONTINUOUS
 10
221.8181843369
 20
147.5853602382
 11
222.6931843369
 21
147.2874879333
  0
LINE
  5
455
100
AcDbEntity
  8
BEZUGSACHSEN
100
AcDbLine
 62
7
  6
CONTINUOUS
 10
313.9416527309
 20
134.0747217628
 11
313.8821142666
 21
134.097153936
  0
LINE
  5
456
100
AcDbEntity
  8
BEZUGSACHSEN
100
AcDbLine
 62
7
  6
CONTINUOUS
 10
313.8821142666
 20
134.097153936
 11
313.7166526734
 21
134.1709173128
  0
LWPOLYLINE
  5
457
100
AcDbEntity
  8
BEZUGSACHSEN
100
AcDbPolyline
 62
7
  6
CONTINUOUS
 90
18
 70
0
 10
313.7166526734
 20
134.1709173128
 10
313.494604821
 20
134.2845973956
 10
313.2205049944
 20
134.4422004998
 10
312.8990439731
 20
134.6463211826
 10
312.5319231919
 20
134.9004241223
 10
312.1211853669
 20
135.2071146968
 10
311.6661862536
 20
135.5705318651
 10
311.1660541929
 20
135.9948141711
 10
310.6194266584
 20
136.4843060486
 10
310.0226596615
 20
137.0452857895
 10
309.3783977944
 20
137.6777060852
 10
308.6868098666
 20
138.382946168
 10
307.9507079213
 20
139.1587530397
 10
307.1722361467
 20
140.0024556733
 10
306.3532836826
 20
140.910715606
 10
305.498309973
 20
141.8764399044
 10
304.6016845035
 20
142.9033192939
 10
303.6618003283
 20
143.9901309406
  0
LWPOLYLINE
  5
458
100
AcDbEntity
  8
RUNDUNGEN
100
AcDbPolyline
 62
7
  6
CONTINUOUS
 90
7
 70
0
 10
333.3603919068
 20
95.3217559627
 10
333.5252163885
 20
97.6951143194
 10
333.6690127807
 20
100.2216225611
 10
333.7798609435
 20
102.7402261251
 10
333.8579694919
 20
105.2482941524
 10
333.9037277382
 20
107.7432767256
 10
333.9176662654
 20
110.0747217628
  0
LWPOLYLINE
  5
459
100
AcDbEntity
  8
BEZUGSACHSEN
100
AcDbPolyline
 62
7
  6
CONTINUOUS
 90
43
 70
0
 10
283.9046809724
 20
164.8999600124
 10
281.5979772403
 20
166.8826530601
 10
279.0836767418
 20
168.8964641018
 10
276.487134769
 20
170.8288761689
 10
273.8113886124
 20
172.6769391271
 10
271.0592753744
 20
174.438027023
 10
268.2339309706
 20
176.1091319469
 10
265.3385457532
 20
177.6872419473
 10
262.3769434896
 20
179.1695849045
 10
259.3532581589
 20
180.5535634165
 10
256.2711118443
 20
181.8368558616
 10
253.1335924245
 20
183.0174139874
 10
249.9453168182
 20
184.0928361011
 10
246.7110758516
 20
185.0609196293
 10
243.4360815677
 20
185.9196000134
 10
240.1249452576
 20
186.6673410544
 10
236.7824370196
 20
187.3027232853
 10
233.4139302092
 20
187.8243019257
 10
230.0247780289
 20
188.2309345776
 10
226.6199010415
 20
188.5220393283
 10
223.204423539
 20
188.6971557364
 10
219.7837120528
 20
188.7557836405
 10
216.3629911339
 20
188.6976464316
 10
212.9474862476
 20
188.5230192099
 10
209.5425617697
 20
188.2324021805
 10
206.1533409201
 20
187.8262558135
 10
202.7847422166
 20
187.3051602919
 10
199.4421144472
 20
186.6702548239
 10
196.1308344238
 20
185.9229839037
 10
192.8556757762
 20
185.0647671439
 10
189.6212521086
 20
184.0971403875
 10
186.4327752211
 20
183.0221667018
 10
183.2950359626
 20
181.8420482253
 10
180.2126555036
 20
180.5591869676
 10
177.1887222759
 20
179.1756310703
 10
174.226855558
 20
177.6937007965
 10
171.3311885867
 20
176.11599293
 10
168.5055477811
 20
174.4452782271
 10
165.7531241044
 20
172.6845676876
 10
163.0770525208
 20
170.8368691367
 10
160.4801722829
 20
168.9048102063
 10
157.9655205294
 20
166.8913386722
 10
155.6483583551
 20
164.8999603078
  0
LWPOLYLINE
  5
45A
100
AcDbEntity
  8
BEZUGSACHSEN
100
AcDbPolyline
 62
7
  6
CONTINUOUS
 90
11
 70
0
 10
300.4774874212
 20
147.6937059471
 10
299.2563098402
 20
149.1036180229
 10
297.9415575977
 20
150.6057434635
 10
296.5217141761
 20
152.2041528453
 10
294.9996486054
 20
153.8852023263
 10
293.3751368691
 20
155.6380698951
 10
291.6493412429
 20
157.4498741213
 10
289.8244184281
 20
159.3066277846
 10
287.9029398006
 20
161.1943903122
 10
285.8912566423
 20
163.0962978456
 10
283.9046850642
 20
164.8999559508
  0
LINE
  5
45B
100
AcDbEntity
  8
BEZUGSACHSEN
100
AcDbLine
 62
7
  6
CONTINUOUS
 10
303.6618003283
 20
143.9901309406
 11
300.4774874212
 21
147.6937059471
  0
LWPOLYLINE
  5
45C
100
AcDbEntity
  8
BEZUGSACHSEN
100
AcDbPolyline
 62
7
  6
CONTINUOUS
 90
7
 70
0
 10
333.9176662654
 20
110.0747217628
 10
333.9037277383
 20
112.4061667938
 10
333.857969492
 20
114.9011493682
 10
333.7798609437
 20
117.4092173968
 10
333.6690127808
 20
119.927820962
 10
333.5252163886
 20
122.454329205
 10
333.3603919068
 20
124.8276875629
  0
ARC
  5
45D
100
AcDbEntity
  8
0
100
AcDbCircle
 62
7
  6
CONTINUOUS
 10
219.7765194981
 20
452.6093315722
 40
60.0
100
AcDbArc
 50
343.2209479274
 51
343.4540848118
  0
ARC
  5
45E
100
AcDbEntity
  8
0
100
AcDbCircle
 62
7
  6
CONTINUOUS
 10
219.7765194981
 20
452.6093315722
 40
60.0
100
AcDbArc
 50
196.5459151882
 51
196.7790500417
  0
ARC
  5
45F
100
AcDbEntity
  8
RUNDUNGEN
100
AcDbCircle
 62
7
  6
CONTINUOUS
 10
219.7765194981
 20
452.6093315722
 40
60.0
100
AcDbArc
 50
343.4540848118
 51
196.5459151882
  0
ARC
  5
460
100
AcDbEntity
  8
0
100
AcDbCircle
 62
7
  6
CONTINUOUS
 10
199.6441516007
 20
433.3316760845
 40
36.2090817597
100
AcDbArc
 50
193.7437216952
 51
198.9699101367
  0
ARC
  5
461
100
AcDbEntity
  8
0
100
AcDbCircle
 62
7
  6
CONTINUOUS
 10
240.4716943569
 20
433.1664931547
 40
35.6231549143
100
AcDbArc
 50
340.9870615655
 51
346.2992529876
  0
ARC
  5
462
100
AcDbEntity
  8
BEZUGSACHSEN
100
AcDbCircle
 62
7
  6
CONTINUOUS
 10
134.7765194981
 20
337.1093315722
 40
24.5
100
AcDbArc
 50
0.0
 51
69.8060401957
  0
ARC
  5
463
100
AcDbEntity
  8
BEZUGSACHSEN
100
AcDbCircle
 62
7
  6
CONTINUOUS
 10
304.7765194981
 20
337.1093315722
 40
24.5
100
AcDbArc
 50
110.1939598043
 51
180.0
  0
ARC
  5
464
100
AcDbEntity
  8
BEZUGSACHSEN
100
AcDbCircle
 62
7
  6
CONTINUOUS
 10
147.5156854218
 20
529.6595462923
 40
10.0
100
AcDbArc
 50
110.9999999999
 51
157.5000000002
  0
ARC
  5
465
100
AcDbEntity
  8
BEZUGSACHSEN
100
AcDbCircle
 62
7
  6
CONTINUOUS
 10
323.9176663971
 20
452.6936627029
 40
10.0
100
AcDbArc
 50
337.461289126
 51
22.4999926444
  0
ARC
  5
466
100
AcDbEntity
  8
RUNDUNGEN
100
AcDbCircle
 62
7
  6
CONTINUOUS
 10
292.0373535743
 20
529.6595462923
 40
10.0
100
AcDbArc
 50
22.5
 51
69.0
  0
ARC
  5
467
100
AcDbEntity
  8
BEZUGSACHSEN
100
AcDbCircle
 62
7
  6
CONTINUOUS
 10
219.7765194981
 20
557.3978816358
 40
10.0
100
AcDbArc
 50
69.0
 51
111.0
  0
ARC
  5
468
100
AcDbEntity
  8
RUNDUNGEN
100
AcDbCircle
 62
7
  6
CONTINUOUS
 10
219.7765194981
 20
557.3978816358
 40
10.0
100
AcDbArc
 50
69.0
 51
111.0
  0
ARC
  5
469
100
AcDbEntity
  8
RUNDUNGEN
100
AcDbCircle
 62
7
  6
CONTINUOUS
 10
147.5156854218
 20
529.6595462923
 40
10.0
100
AcDbArc
 50
111.0
 51
157.5
  0
ARC
  5
46A
100
AcDbEntity
  8
BEZUGSACHSEN
100
AcDbCircle
 62
7
  6
CONTINUOUS
 10
115.6353749844
 20
452.6936684616
 40
10.0
100
AcDbArc
 50
157.5000430689
 51
202.53873611
  0
ARC
  5
46B
100
AcDbEntity
  8
0
100
AcDbCircle
 62
7
  6
CONTINUOUS
 10
285.7065194981
 20
512.8837498784
 40
6.6
100
AcDbArc
 50
39.2608295227
 51
230.7391704773
  0
ARC
  5
46C
100
AcDbEntity
  8
0
100
AcDbCircle
 62
7
  6
CONTINUOUS
 10
277.7765194981
 20
520.8137498784
 40
6.6
100
AcDbArc
 50
39.2608295227
 51
230.7391704773
  0
ARC
  5
46D
100
AcDbEntity
  8
0
100
AcDbCircle
 62
7
  6
CONTINUOUS
 10
285.7065194981
 20
512.8837498784
 40
4.62
100
AcDbArc
 50
147.3736251162
 51
233.2132107017
  0
ARC
  5
46E
100
AcDbEntity
  8
0
100
AcDbCircle
 62
7
  6
CONTINUOUS
 10
285.7065194981
 20
512.8837498784
 40
4.62
100
AcDbArc
 50
36.7867892983
 51
122.4447123387
  0
ARC
  5
46F
100
AcDbEntity
  8
0
100
AcDbCircle
 62
7
  6
CONTINUOUS
 10
277.7765194981
 20
520.8137498784
 40
4.62
100
AcDbArc
 50
36.7867892983
 51
233.2132107017
  0
ARC
  5
470
100
AcDbEntity
  8
0
100
AcDbCircle
 62
7
  6
CONTINUOUS
 10
188.6763515858
 20
521.0371285235
 40
460.3711180247
100
AcDbArc
 50
338.6935231135
 51
338.9718021634
  0
ARC
  5
471
100
AcDbEntity
  8
0
100
AcDbCircle
 62
7
  6
CONTINUOUS
 10
190.7767681817
 20
519.9384904628
 40
457.5102185189
100
AcDbArc
 50
338.7014687579
 51
338.9814712806
  0
ARC
  5
472
100
AcDbEntity
  8
0
100
AcDbCircle
 62
7
  6
CONTINUOUS
 10
355.9793390097
 20
453.9263113397
 40
280.1728640789
100
AcDbArc
 50
342.3280740192
 51
342.6634077884
  0
ARC
  5
473
100
AcDbEntity
  8
0
100
AcDbCircle
 62
7
  6
CONTINUOUS
 10
356.9812677875
 20
453.2777544355
 40
278.4995969098
100
AcDbArc
 50
342.3584317703
 51
342.6957221527
  0
ARC
  5
474
100
AcDbEntity
  8
0
100
AcDbCircle
 62
7
  6
CONTINUOUS
 10
517.6365280755
 20
420.2237343131
 40
117.8671257687
100
AcDbArc
 50
335.2943563267
 51
336.1283710851
  0
ARC
  5
475
100
AcDbEntity
  8
0
100
AcDbCircle
 62
7
  6
CONTINUOUS
 10
517.7566879584
 20
419.9497194074
 40
117.151249942
100
AcDbArc
 50
335.2807944448
 51
336.119978279
  0
ARC
  5
476
100
AcDbEntity
  8
0
100
AcDbCircle
 62
7
  6
CONTINUOUS
 10
515.4833608774
 20
403.2744585586
 40
113.3747336624
100
AcDbArc
 50
343.4399579528
 51
344.5362477566
  0
ARC
  5
477
100
AcDbEntity
  8
0
100
AcDbCircle
 62
7
  6
CONTINUOUS
 10
518.1172549858
 20
390.0923474955
 40
105.8925733155
100
AcDbArc
 50
339.0293202953
 51
339.9327974801
  0
ARC
  5
478
100
AcDbEntity
  8
0
100
AcDbCircle
 62
7
  6
CONTINUOUS
 10
518.1600145053
 20
389.8468761835
 40
105.2591938073
100
AcDbArc
 50
339.3425165212
 51
339.9491068958
  0
ARC
  5
479
100
AcDbEntity
  8
0
100
AcDbCircle
 62
7
  6
CONTINUOUS
 10
518.3970851124
 20
389.7577130532
 40
105.0059103676
100
AcDbArc
 50
339.0394329806
 51
339.3341314291
  0
ARC
  5
47A
100
AcDbEntity
  8
0
100
AcDbCircle
 62
7
  6
CONTINUOUS
 10
539.6566947022
 20
415.2468434225
 40
95.6083026954
100
AcDbArc
 50
319.1535185941
 51
328.8199433598
  0
ARC
  5
47B
100
AcDbEntity
  8
0
100
AcDbCircle
 62
7
  6
CONTINUOUS
 10
539.6591389257
 20
415.0179878827
 40
95.0181518733
100
AcDbArc
 50
319.0281526006
 51
328.765880941
  0
ARC
  5
47C
100
AcDbEntity
  8
0
100
AcDbCircle
 62
7
  6
CONTINUOUS
 10
541.2910566758
 20
409.9487049321
 40
92.0785044343
100
AcDbArc
 50
321.5693200953
 51
330.1969262877
  0
ARC
  5
47D
100
AcDbEntity
  8
0
100
AcDbCircle
 62
7
  6
CONTINUOUS
 10
568.567350569
 20
415.6425764227
 40
69.3053593349
100
AcDbArc
 50
319.2895930166
 51
320.417159138
  0
ARC
  5
47E
100
AcDbEntity
  8
0
100
AcDbCircle
 62
7
  6
CONTINUOUS
 10
533.4709660115
 20
397.1051621647
 40
65.5501522053
100
AcDbArc
 50
221.3974377165
 51
222.6239016041
  0
ARC
  5
47F
100
AcDbEntity
  8
0
100
AcDbCircle
 62
7
  6
CONTINUOUS
 10
533.7149891694
 20
396.9999471665
 40
65.2391523435
100
AcDbArc
 50
221.5151394131
 51
222.7498173875
  0
ARC
  5
480
100
AcDbEntity
  8
0
100
AcDbCircle
 62
7
  6
CONTINUOUS
 10
532.843779171
 20
392.8737517841
 40
63.2750268362
100
AcDbArc
 50
220.0081692222
 51
221.252099165
  0
ARC
  5
481
100
AcDbEntity
  8
0
100
AcDbCircle
 62
7
  6
CONTINUOUS
 10
523.4749470842
 20
396.8236722708
 40
55.9023037454
100
AcDbArc
 50
206.9573147216
 51
208.1626480364
  0
ARC
  5
482
100
AcDbEntity
  8
0
100
AcDbCircle
 62
7
  6
CONTINUOUS
 10
521.6747664878
 20
391.0429924726
 40
52.0229052595
100
AcDbArc
 50
202.5006374299
 51
203.3317177108
  0
ARC
  5
483
100
AcDbEntity
  8
0
100
AcDbCircle
 62
7
  6
CONTINUOUS
 10
524.8584794427
 20
371.8005883774
 40
47.6005232468
100
AcDbArc
 50
202.5001916045
 51
202.9537061647
  0
ARC
  5
484
100
AcDbEntity
  8
0
100
AcDbCircle
 62
7
  6
CONTINUOUS
 10
514.5668865528
 20
396.2211755744
 40
47.4470053339
100
AcDbArc
 50
207.806103868
 51
209.9629824095
  0
ARC
  5
485
100
AcDbEntity
  8
0
100
AcDbCircle
 62
7
  6
CONTINUOUS
 10
524.5787057082
 20
371.6850467013
 40
47.2978301368
100
AcDbArc
 50
201.5921959001
 51
202.5005782725
  0
ARC
  5
486
100
AcDbEntity
  8
0
100
AcDbCircle
 62
7
  6
CONTINUOUS
 10
573.914953322
 20
371.6850467015
 40
47.2978301373
100
AcDbArc
 50
337.4994217275
 51
338.4078040999
  0
ARC
  5
487
100
AcDbEntity
  8
0
100
AcDbCircle
 62
7
  6
CONTINUOUS
 10
514.8718084661
 20
396.1250907826
 40
47.192064428
100
AcDbArc
 50
207.8374586865
 51
210.0067758908
  0
ARC
  5
488
100
AcDbEntity
  8
0
100
AcDbCircle
 62
7
  6
CONTINUOUS
 10
523.4869877432
 20
366.4627989209
 40
44.2871843585
100
AcDbArc
 50
195.9677721493
 51
197.3757781327
  0
ARC
  5
489
100
AcDbEntity
  8
0
100
AcDbCircle
 62
7
  6
CONTINUOUS
 10
501.1468456001
 20
384.4168738757
 40
35.216976043
100
AcDbArc
 50
244.1800258241
 51
246.2013033861
  0
ARC
  5
48A
100
AcDbEntity
  8
0
100
AcDbCircle
 62
7
  6
CONTINUOUS
 10
500.5720238746
 20
384.2102202305
 40
35.0289871139
100
AcDbArc
 50
244.0398054501
 51
246.061240763
  0
ARC
  5
48B
100
AcDbEntity
  8
BEZUGSACHSEN
100
AcDbCircle
 62
7
  6
CONTINUOUS
 10
490.2468295154
 20
430.9657761515
 40
35.0
100
AcDbArc
 50
284.9999474355
 51
0.0000761486
  0
ARC
  5
48C
100
AcDbEntity
  8
0
100
AcDbCircle
 62
7
  6
CONTINUOUS
 10
515.4723281667
 20
360.2291909541
 40
34.4939850627
100
AcDbArc
 50
193.4697527732
 51
196.1568789745
  0
ARC
  5
48D
100
AcDbEntity
  8
0
100
AcDbCircle
 62
7
  6
CONTINUOUS
 10
506.007115548
 20
378.5484711534
 40
34.358290104
100
AcDbArc
 50
232.8805596795
 51
234.3459251515
  0
ARC
  5
48E
100
AcDbEntity
  8
0
100
AcDbCircle
 62
7
  6
CONTINUOUS
 10
515.7779012934
 20
360.1325673685
 40
34.2392370509
100
AcDbArc
 50
193.4056046949
 51
196.1120478629
  0
ARC
  5
48F
100
AcDbEntity
  8
0
100
AcDbCircle
 62
7
  6
CONTINUOUS
 10
499.3309370553
 20
382.0538620233
 40
34.141883109
100
AcDbArc
 50
246.9806150553
 51
249.3318786071
  0
ARC
  5
490
100
AcDbEntity
  8
BEZUGSACHSEN
100
AcDbCircle
 62
7
  6
CONTINUOUS
 10
480.5657673794
 20
381.7843152518
 40
10.0
100
AcDbArc
 50
105.0
 51
202.5
  0
ARC
  5
491
100
AcDbEntity
  8
0
100
AcDbCircle
 62
7
  6
CONTINUOUS
 10
485.1030866389
 20
355.0518936307
 40
4.4619203082
100
AcDbArc
 50
204.0010683379
 51
205.0369761535
  0
ARC
  5
492
100
AcDbEntity
  8
0
100
AcDbCircle
 62
7
  6
CONTINUOUS
 10
484.6989224897
 20
353.4959629516
 40
3.4877748876
100
AcDbArc
 50
184.258204892
 51
192.9270032223
  0
ARC
  5
493
100
AcDbEntity
  8
0
100
AcDbCircle
 62
7
  6
CONTINUOUS
 10
484.6919964866
 20
350.5453121766
 40
2.3528043039
100
AcDbArc
 50
177.9224066818
 51
190.6787714147
  0
ARC
  5
494
100
AcDbEntity
  8
0
100
AcDbCircle
 62
7
  6
CONTINUOUS
 10
485.2172292279
 20
350.5386525179
 40
2.3354868479
100
AcDbArc
 50
177.7434974842
 51
190.5926369435
  0
ARC
  5
495
100
AcDbEntity
  8
0
100
AcDbCircle
 62
7
  6
CONTINUOUS
 10
388.606156075
 20
469.9741552473
 40
256.1142963364
100
AcDbArc
 50
336.3688487493
 51
337.1303945644
  0
ARC
  5
496
100
AcDbEntity
  8
0
100
AcDbCircle
 62
7
  6
CONTINUOUS
 10
388.9649820929
 20
447.2220273878
 40
247.0762614804
100
AcDbArc
 50
337.9034041274
 51
338.6840529003
  0
ARC
  5
497
100
AcDbEntity
  8
0
100
AcDbCircle
 62
7
  6
CONTINUOUS
 10
413.1141305984
 20
470.0782953329
 40
233.4731011011
100
AcDbArc
 50
333.0275595896
 51
333.4573570333
  0
ARC
  5
498
100
AcDbEntity
  8
0
100
AcDbCircle
 62
7
  6
CONTINUOUS
 10
444.0854999787
 20
480.5725272088
 40
208.4806422064
100
AcDbArc
 50
327.6039959689
 51
328.111573882
  0
ARC
  5
499
100
AcDbEntity
  8
0
100
AcDbCircle
 62
7
  6
CONTINUOUS
 10
525.4203530757
 20
443.271123303
 40
119.3518563257
100
AcDbArc
 50
322.7091199531
 51
323.957050829
  0
ARC
  5
49A
100
AcDbEntity
  8
0
100
AcDbCircle
 62
7
  6
CONTINUOUS
 10
525.5782136915
 20
442.9610360315
 40
118.58471724
100
AcDbArc
 50
322.6151134824
 51
323.8725773732
  0
ARC
  5
49B
100
AcDbEntity
  8
0
100
AcDbCircle
 62
7
  6
CONTINUOUS
 10
-27.4037679836
 20
706.3777066801
 40
729.4653138796
100
AcDbArc
 50
332.440405586
 51
332.6249872223
  0
ARC
  5
49C
100
AcDbEntity
  8
0
100
AcDbCircle
 62
7
  6
CONTINUOUS
 10
-19.7954042799
 20
702.7052698401
 40
720.51392964
100
AcDbArc
 50
332.3983190141
 51
332.5852632514
  0
ARC
  5
49D
100
AcDbEntity
  8
0
100
AcDbCircle
 62
7
  6
CONTINUOUS
 10
225.1761219058
 20
545.7006942812
 40
436.079609791
100
AcDbArc
 50
336.0782375198
 51
336.3775951247
  0
ARC
  5
49E
100
AcDbEntity
  8
0
100
AcDbCircle
 62
7
  6
CONTINUOUS
 10
288.5963494083
 20
533.0873074779
 40
372.5542732928
100
AcDbArc
 50
333.3096458098
 51
333.6680004426
  0
ARC
  5
49F
100
AcDbEntity
  8
0
100
AcDbCircle
 62
7
  6
CONTINUOUS
 10
290.718689754
 20
531.9491776955
 40
369.6564859499
100
AcDbArc
 50
333.2812839257
 51
333.6425324482
  0
ARC
  5
4A0
100
AcDbEntity
  8
BEZUGSACHSEN
100
AcDbCircle
 62
7
  6
CONTINUOUS
 10
535.2468295154
 20
557.3978816358
 40
10.0
100
AcDbArc
 50
90.0
 51
180.0
  0
ARC
  5
4A1
100
AcDbEntity
  8
RUNDUNGEN
100
AcDbCircle
 62
7
  6
CONTINUOUS
 10
563.2468295154
 20
557.3978816358
 40
10.0
100
AcDbArc
 50
0.0
 51
90.0
  0
ARC
  5
4A2
100
AcDbEntity
  8
0
100
AcDbCircle
 62
7
  6
CONTINUOUS
 10
951.2160991813
 20
520.6799509578
 40
498.5358312677
100
AcDbArc
 50
199.3077094496
 51
199.5618263348
  0
ARC
  5
4A3
100
AcDbEntity
  8
0
100
AcDbCircle
 62
7
  6
CONTINUOUS
 10
949.0835623322
 20
519.5503197844
 40
495.6340914431
100
AcDbArc
 50
199.2868634389
 51
199.5424364323
  0
ARC
  5
4A4
100
AcDbEntity
  8
0
100
AcDbCircle
 62
7
  6
CONTINUOUS
 10
746.6083435444
 20
500.7362419518
 40
301.3791138495
100
AcDbArc
 50
209.075062651
 51
209.5296295623
  0
ARC
  5
4A5
100
AcDbEntity
  8
0
100
AcDbCircle
 62
7
  6
CONTINUOUS
 10
722.5818714261
 20
440.8347504837
 40
256.7056602271
100
AcDbArc
 50
198.9651518588
 51
199.7049656482
  0
ARC
  5
4A6
100
AcDbEntity
  8
0
100
AcDbCircle
 62
7
  6
CONTINUOUS
 10
709.8875029557
 20
469.9741552473
 40
256.1142963364
100
AcDbArc
 50
202.8696054356
 51
203.6311512507
  0
ARC
  5
4A7
100
AcDbEntity
  8
0
100
AcDbCircle
 62
7
  6
CONTINUOUS
 10
709.5286769379
 20
447.2220273878
 40
247.0762614804
100
AcDbArc
 50
201.3159470997
 51
202.0965958726
  0
ARC
  5
4A8
100
AcDbEntity
  8
0
100
AcDbCircle
 62
7
  6
CONTINUOUS
 10
695.8879521863
 20
474.3622345755
 40
244.846119368
100
AcDbArc
 50
205.1153847839
 51
205.9264205741
  0
ARC
  5
4A9
100
AcDbEntity
  8
0
100
AcDbCircle
 62
7
  6
CONTINUOUS
 10
579.3438359482
 20
426.7710735131
 40
118.9699175366
100
AcDbArc
 50
207.1274360498
 51
207.9769217509
  0
ARC
  5
4AA
100
AcDbEntity
  8
0
100
AcDbCircle
 62
7
  6
CONTINUOUS
 10
579.2176869693
 20
426.4931174339
 40
118.2469260687
100
AcDbArc
 50
207.1555907422
 51
208.0105109678
  0
ARC
  5
4AB
100
AcDbEntity
  8
0
100
AcDbCircle
 62
7
  6
CONTINUOUS
 10
581.060130087
 20
382.9542757623
 40
103.7955284844
100
AcDbArc
 50
196.3368451134
 51
197.2385260229
  0
ARC
  5
4AC
100
AcDbEntity
  8
0
100
AcDbCircle
 62
7
  6
CONTINUOUS
 10
580.9302261112
 20
382.6763530824
 40
103.0691679309
100
AcDbArc
 50
196.2942090506
 51
197.2020556613
  0
ARC
  5
4AD
100
AcDbEntity
  8
0
100
AcDbCircle
 62
7
  6
CONTINUOUS
 10
576.8188925433
 20
391.0429924725
 40
52.0229052591
100
AcDbArc
 50
336.6682822892
 51
337.4993625701
  0
ARC
  5
4AE
100
AcDbEntity
  8
0
100
AcDbCircle
 62
7
  6
CONTINUOUS
 10
586.5901125111
 20
409.1954541678
 40
50.5509932318
100
AcDbArc
 50
314.3470856663
 51
316.0130314589
  0
ARC
  5
4AF
100
AcDbEntity
  8
0
100
AcDbCircle
 62
7
  6
CONTINUOUS
 10
586.1945766018
 20
409.1719453357
 40
50.4155521021
100
AcDbArc
 50
314.2277065237
 51
315.9014837132
  0
ARC
  5
4B0
100
AcDbEntity
  8
0
100
AcDbCircle
 62
7
  6
CONTINUOUS
 10
579.5488091624
 20
378.2315455446
 40
44.5619425021
100
AcDbArc
 50
349.9290645439
 51
351.2877766551
  0
ARC
  5
4B1
100
AcDbEntity
  8
0
100
AcDbCircle
 62
7
  6
CONTINUOUS
 10
579.2978289787
 20
378.1141037676
 40
44.2484563811
100
AcDbArc
 50
350.0114117612
 51
351.3794084027
  0
ARC
  5
4B2
100
AcDbEntity
  8
0
100
AcDbCircle
 62
7
  6
CONTINUOUS
 10
586.3141816831
 20
390.5723224223
 40
43.0702843875
100
AcDbArc
 50
335.2261163573
 51
337.4971442295
  0
ARC
  5
4B3
100
AcDbEntity
  8
0
100
AcDbCircle
 62
7
  6
CONTINUOUS
 10
586.0112707126
 20
390.4736376066
 40
42.8123725905
100
AcDbArc
 50
335.212275063
 51
337.4971073631
  0
ARC
  5
4B4
100
AcDbEntity
  8
0
100
AcDbCircle
 62
7
  6
CONTINUOUS
 10
581.9566414885
 20
364.899017878
 40
37.2713786653
100
AcDbArc
 50
337.491230165
 51
340.070299785
  0
ARC
  5
4B5
100
AcDbEntity
  8
0
100
AcDbCircle
 62
7
  6
CONTINUOUS
 10
581.6534632892
 20
364.8004626076
 40
37.0137633374
100
AcDbArc
 50
337.4911188063
 51
340.0879874398
  0
ARC
  5
4B6
100
AcDbEntity
  8
RUNDUNGEN
100
AcDbCircle
 62
7
  6
CONTINUOUS
 10
608.2468295154
 20
430.9657761515
 40
35.0
100
AcDbArc
 50
179.9999238514
 51
255.0000525645
  0
ARC
  5
4B7
100
AcDbEntity
  8
0
100
AcDbCircle
 62
7
  6
CONTINUOUS
 10
600.6657939439
 20
376.291973196
 40
24.3058461576
100
AcDbArc
 50
352.3242062076
 51
354.7975936625
  0
ARC
  5
4B8
100
AcDbEntity
  8
0
100
AcDbCircle
 62
7
  6
CONTINUOUS
 10
610.1715444706
 20
392.214055292
 40
23.8600387813
100
AcDbArc
 50
299.667019653
 51
302.1056730499
  0
ARC
  5
4B9
100
AcDbEntity
  8
RUNDUNGEN
100
AcDbCircle
 62
7
  6
CONTINUOUS
 10
617.9278916513
 20
381.7843152518
 40
10.0
100
AcDbArc
 50
337.5
 51
75.0
  0
ARC
  5
4BA
100
AcDbEntity
  8
0
100
AcDbCircle
 62
7
  6
CONTINUOUS
 10
618.08538028
 20
369.079715819
 40
5.5126954206
100
AcDbArc
 50
29.9205223869
 51
30.9668022222
  0
ARC
  5
4BB
100
AcDbEntity
  8
0
100
AcDbCircle
 62
7
  6
CONTINUOUS
 10
618.3813307354
 20
369.2481235139
 40
5.1721885993
100
AcDbArc
 50
25.5842765821
 51
29.9388842223
  0
ARC
  5
4BC
100
AcDbEntity
  8
0
100
AcDbCircle
 62
7
  6
CONTINUOUS
 10
1179.3918323699
 20
692.8092592572
 40
775.0589586565
100
AcDbArc
 50
204.7050735002
 51
204.8323912573
  0
ARC
  5
4BD
100
AcDbEntity
  8
0
100
AcDbCircle
 62
7
  6
CONTINUOUS
 10
1174.1479969628
 20
690.3650396564
 40
768.7777421835
100
AcDbArc
 50
204.7199230519
 51
204.8482969475
  0
ARC
  5
4BE
100
AcDbEntity
  8
0
100
AcDbCircle
 62
7
  6
CONTINUOUS
 10
934.5077014636
 20
593.62001656
 40
510.1190194209
100
AcDbArc
 50
207.8489242156
 51
208.0477615678
  0
ARC
  5
4BF
100
AcDbEntity
  8
0
100
AcDbCircle
 62
7
  6
CONTINUOUS
 10
929.7531584099
 20
591.2436249477
 40
504.3060687321
100
AcDbArc
 50
207.8925031789
 51
208.0937159298
  0
ARC
  5
4C0
100
AcDbEntity
  8
0
100
AcDbCircle
 62
7
  6
CONTINUOUS
 10
834.4616927823
 20
541.7248434892
 40
398.6143562469
100
AcDbArc
 50
205.3657538938
 51
205.6978970946
  0
ARC
  5
4C1
100
AcDbEntity
  8
0
100
AcDbCircle
 62
7
  6
CONTINUOUS
 10
832.3524895047
 20
540.6072121405
 40
395.7373736305
100
AcDbArc
 50
205.384158332
 51
205.7187710017
  0
ARC
  5
4C2
100
AcDbEntity
  8
0
100
AcDbCircle
 62
7
  6
CONTINUOUS
 10
219.7765194981
 20
110.0747217628
 40
58.0
100
AcDbArc
 50
205.0018339532
 51
335.0131302948
  0
ARC
  5
4C3
100
AcDbEntity
  8
0
100
AcDbCircle
 62
7
  6
CONTINUOUS
 10
219.7765194981
 20
110.0747217628
 40
58.0
100
AcDbArc
 50
24.4398526938
 51
155.5601956127
  0
ARC
  5
4C4
100
AcDbEntity
  8
RUNDUNGEN
100
AcDbCircle
 62
7
  6
CONTINUOUS
 10
219.7765194981
 20
110.0747217628
 40
57.75
100
AcDbArc
 50
24.5621929302
 51
155.4378070727
  0
ARC
  5
4C5
100
AcDbEntity
  8
RUNDUNGEN
100
AcDbCircle
 62
7
  6
CONTINUOUS
 10
219.7765194981
 20
110.0747217628
 40
57.75
100
AcDbArc
 50
205.1048659744
 51
334.8951340261
  0
ARC
  5
4C6
100
AcDbEntity
  8
BEZUGSACHSEN
100
AcDbCircle
 62
7
  6
CONTINUOUS
 10
116.16425646
 20
124.0747217622
 40
10.0000000006
100
AcDbArc
 50
89.9999307074
 51
175.6818053088
  0
ARC
  5
4C7
100
AcDbEntity
  8
BEZUGSACHSEN
100
AcDbCircle
 62
7
  6
CONTINUOUS
 10
323.3887787487
 20
124.0747217623
 40
10.0000000006
100
AcDbArc
 50
4.318258102
 51
90.0000000445
  0
ARC
  5
4C8
100
AcDbEntity
  8
RUNDUNGEN
100
AcDbCircle
 62
7
  6
CONTINUOUS
 10
116.16425646
 20
96.0747217634
 40
10.0000000006
100
AcDbArc
 50
184.3181946912
 51
270.0000692926
  0
ARC
  5
4C9
100
AcDbEntity
  8
RUNDUNGEN
100
AcDbCircle
 62
7
  6
CONTINUOUS
 10
323.3887787487
 20
96.0747217634
 40
10.0000000006
100
AcDbArc
 50
269.9999999555
 51
355.681741898
  0
SPLINE
  5
4CA
100
AcDbEntity
  8
0
100
AcDbSpline
 62
7
  6
CONTINUOUS
 70
0
 71
3
 72
13
 73
9
 74
0
 42
0.0000001
 43
0.0000001
 44
0.0000000001
 40
0.0
 40
0.0
 40
0.0
 40
0.0
 40
0.1230219059
 40
0.2434889101
 40
0.3632523001
 40
0.484078867
 40
0.7339844943
 40
1.0
 40
1.0
 40
1.0
 40
1.0
 10
267.0244669385
 20
406.8440694018
 30
0.0
 10
266.5453437944
 20
406.1365741688
 30
0.0
 10
265.5113255643
 20
404.7916042106
 30
0.0
 10
263.7213099065
 20
403.0036031856
 30
0.0
 10
261.7248627375
 20
401.4744209983
 30
0.0
 10
258.7782652562
 20
399.7493062396
 30
0.0
 10
254.6127191763
 20
398.1760497455
 30
0.0
 10
251.0948996982
 20
397.4471512128
 30
0.0
 10
249.26996311
 20
397.1583722314
 30
0.0
  0
SPLINE
  5
4CB
100
AcDbEntity
  8
0
100
AcDbSpline
 62
7
  6
CONTINUOUS
 70
0
 71
3
 72
13
 73
9
 74
0
 42
0.0000001
 43
0.0000001
 44
0.0000000001
 40
0.0
 40
0.0
 40
0.0
 40
0.0
 40
0.2660155135
 40
0.5159211444
 40
0.6367477158
 40
0.7565111162
 40
0.8769781106
 40
1.0
 40
1.0
 40
1.0
 40
1.0
 10
190.2830758861
 20
397.1583722314
 30
0.0
 10
188.4581393327
 20
397.4471512073
 30
0.0
 10
184.9403199447
 20
398.1760497133
 30
0.0
 10
180.7747739631
 20
399.7493061566
 30
0.0
 10
177.8281764815
 20
401.4744208456
 30
0.0
 10
175.8317293882
 20
403.0036029907
 30
0.0
 10
174.04171383
 20
404.79160378
 30
0.0
 10
173.007695703
 20
406.1365734837
 30
0.0
 10
172.5285726167
 20
406.8440685672
 30
0.0
  0
SPLINE
  5
4CC
100
AcDbEntity
  8
0
100
AcDbSpline
 62
7
  6
CONTINUOUS
 70
0
 71
3
 72
15
 73
11
 74
0
 42
0.0000001
 43
0.0000001
 44
0.0000000001
 40
0.0
 40
0.0
 40
0.0
 40
0.0
 40
0.0419905574
 40
0.0924497806
 40
0.2079900009
 40
0.3337324468
 40
0.4643377948
 40
0.5973103243
 40
0.7313508203
 40
1.0
 40
1.0
 40
1.0
 40
1.0
 10
277.2220251528
 20
435.2884241016
 30
0.0
 10
277.1784816654
 20
435.144010314
 30
0.0
 10
277.0981478226
 20
434.8214952982
 30
0.0
 10
276.9426749841
 20
434.0907530184
 30
0.0
 10
276.7524474808
 20
433.0600301165
 30
0.0
 10
276.5184584349
 20
431.7448627015
 30
0.0
 10
276.2702794414
 20
430.3685515149
 30
0.0
 10
276.0051556128
 20
428.965047635
 30
0.0
 10
275.6257169617
 20
427.0786396414
 30
0.0
 10
275.3095137893
 20
425.6667530294
 30
0.0
 10
275.0812291633
 20
424.729119954
 30
0.0
  0
SPLINE
  5
4CD
100
AcDbEntity
  8
0
100
AcDbSpline
 62
7
  6
CONTINUOUS
 70
0
 71
3
 72
10
 73
6
 74
0
 42
0.0000001
 43
0.0000001
 44
0.0000000001
 40
0.0
 40
0.0
 40
0.0
 40
0.0
 40
0.2460305274
 40
0.6208583891
 40
1.0
 40
1.0
 40
1.0
 40
1.0
 10
274.1514292037
 20
421.5611225576
 30
0.0
 10
273.7149746915
 20
420.2895233523
 30
0.0
 10
272.5371185232
 20
417.1062149298
 30
0.0
 10
270.2762628668
 20
412.1232242709
 30
0.0
 10
268.1861863781
 20
408.5595173343
 30
0.0
 10
267.0244705671
 20
406.8440744289
 30
0.0
  0
SPLINE
  5
4CE
100
AcDbEntity
  8
0
100
AcDbSpline
 62
7
  6
CONTINUOUS
 70
0
 71
3
 72
10
 73
6
 74
0
 42
0.0000001
 43
0.0000001
 44
0.0000000001
 40
0.0
 40
0.0
 40
0.0
 40
0.0
 40
0.25325795
 40
0.6296694973
 40
1.0
 40
1.0
 40
1.0
 40
1.0
 10
172.5285688243
 20
406.8440738213
 30
0.0
 10
171.7525289432
 20
407.9900098367
 30
0.0
 10
169.9467761929
 20
410.9240914247
 30
0.0
 10
167.5233433796
 20
415.8328044324
 30
0.0
 10
166.0586009784
 20
419.6469958067
 30
0.0
 10
165.4016059671
 20
421.5611335987
 30
0.0
  0
SPLINE
  5
4CF
100
AcDbEntity
  8
0
100
AcDbSpline
 62
7
  6
CONTINUOUS
 70
0
 71
3
 72
15
 73
11
 74
0
 42
0.0000001
 43
0.0000001
 44
0.0000000001
 40
0.0
 40
0.0
 40
0.0
 40
0.0
 40
0.2686470397
 40
0.4026866383
 40
0.5356591486
 40
0.666262547
 40
0.7920046415
 40
0.9075457781
 40
0.9580069127
 40
1.0
 40
1.0
 40
1.0
 40
1.0
 10
164.4718043265
 20
424.7291422079
 30
0.0
 10
164.2435203721
 20
425.6667657092
 30
0.0
 10
163.9273231189
 20
427.0786397256
 30
0.0
 10
163.5478830867
 20
428.9650326592
 30
0.0
 10
163.2827706952
 20
430.368525541
 30
0.0
 10
163.0345830046
 20
431.7448240522
 30
0.0
 10
162.8005996283
 20
433.0599849447
 30
0.0
 10
162.6103697883
 20
434.0907145092
 30
0.0
 10
162.4548947234
 20
434.8214745418
 30
0.0
 10
162.3745586591
 20
435.144004864
 30
0.0
 10
162.3310126333
 20
435.2884270886
 30
0.0
  0
SPLINE
  5
4D0
100
AcDbEntity
  8
BEZUGSACHSEN
100
AcDbSpline
 62
7
  6
CONTINUOUS
 70
0
 71
3
 72
33
 73
29
 74
0
 42
0.0000001
 43
0.0000001
 44
0.0000000001
 40
0.0
 40
0.0
 40
0.0
 40
0.0
 40
0.0201706
 40
0.0796393958
 40
0.1753991097
 40
0.2354869917
 40
0.3027956972
 40
0.3765603893
 40
0.455977705
 40
0.5402065294
 40
0.5838673077
 40
0.6284213613
 40
0.673762717
 40
0.7197874153
 40
0.766392999
 40
0.7898822182
 40
0.813477203
 40
0.8371627957
 40
0.8609215083
 40
0.8847308298
 40
0.9085553811
 40
0.9323214351
 40
0.9441407314
 40
0.9558529685
 40
0.9673595633
 40
0.9785242725
 40
0.9893320392
 40
1.0
 40
1.0
 40
1.0
 40
1.0
 10
143.2339013662
 20
360.1033023458
 30
0.0
 10
143.6671256645
 20
360.0209980857
 30
0.0
 10
145.3770195685
 20
359.6928659752
 30
0.0
 10
149.1375363657
 20
358.9423583859
 30
0.0
 10
153.7399372767
 20
357.9527103544
 30
0.0
 10
158.4929245822
 20
356.8519354601
 30
0.0
 10
162.7637399725
 20
355.8019982619
 30
0.0
 10
167.4262399366
 20
354.5773656833
 30
0.0
 10
172.4211023447
 20
353.1652207314
 30
0.0
 10
176.7548186167
 20
351.8370340747
 30
0.0
 10
180.3365817704
 20
350.6603006947
 30
0.0
 10
183.0962606433
 20
349.7061814163
 30
0.0
 10
185.8872699645
 20
348.6857793101
 30
0.0
 10
188.6982469817
 20
347.5911179398
 30
0.0
 10
191.0397931285
 20
346.6093354995
 30
0.0
 10
192.9081643299
 20
345.7696889592
 30
0.0
 10
194.306410881
 20
345.107071487
 30
0.0
 10
195.6934255263
 20
344.407908303
 30
0.0
 10
197.0626363551
 20
343.6644385219
 30
0.0
 10
198.4039601765
 20
342.8650901381
 30
0.0
 10
199.6986364738
 20
341.991648437
 30
0.0
 10
200.712884408
 20
341.1748922459
 30
0.0
 10
201.4401756695
 20
340.4379409989
 30
0.0
 10
201.9157397836
 20
339.8345389695
 30
0.0
 10
202.2786979098
 20
339.1704064814
 30
0.0
 10
202.4530748456
 20
338.4458158758
 30
0.0
 10
202.3544272969
 20
337.7217073194
 30
0.0
 10
202.1292039075
 20
337.3003348697
 30
0.0
 10
201.9953699213
 20
337.1093315722
 30
0.0
  0
SPLINE
  5
4D1
100
AcDbEntity
  8
BEZUGSACHSEN
100
AcDbSpline
 62
7
  6
CONTINUOUS
 70
0
 71
3
 72
33
 73
29
 74
0
 42
0.0000001
 43
0.0000001
 44
0.0000000001
 40
0.0
 40
0.0
 40
0.0
 40
0.0
 40
0.0106681191
 40
0.0214754378
 40
0.0326404048
 40
0.0441481901
 40
0.0558612691
 40
0.0676811826
 40
0.0914476698
 40
0.1152724439
 40
0.1390818567
 40
0.162840601
 40
0.1865261515
 40
0.2101210858
 40
0.2336102659
 40
0.2802157488
 40
0.3262403295
 40
0.3715815857
 40
0.4161355897
 40
0.4597962633
 40
0.5440250565
 40
0.6234423605
 40
0.6972068407
 40
0.7645150298
 40
0.8246024137
 40
0.9203613163
 40
0.9798295786
 40
1.0
 40
1.0
 40
1.0
 40
1.0
 10
237.5576690749
 20
337.1093315722
 30
0.0
 10
237.4238330971
 20
337.3003377119
 30
0.0
 10
237.1986179346
 20
337.7217065934
 30
0.0
 10
237.0999579841
 20
338.4458117747
 30
0.0
 10
237.2743465299
 20
339.1704235861
 30
0.0
 10
237.637323735
 20
339.834603275
 30
0.0
 10
238.1129425728
 20
340.4380379263
 30
0.0
 10
238.8402877005
 20
341.1749930522
 30
0.0
 10
239.8545541663
 20
341.99176894
 30
0.0
 10
241.1492538527
 20
342.8652066838
 30
0.0
 10
242.4905912563
 20
343.6645468107
 30
0.0
 10
243.8598114352
 20
344.4080030095
 30
0.0
 10
245.2468226176
 20
345.107170069
 30
0.0
 10
246.6450700506
 20
345.7697792189
 30
0.0
 10
248.5134381227
 20
346.6094227119
 30
0.0
 10
250.8549849969
 20
347.5911890458
 30
0.0
 10
253.6659531133
 20
348.6858542584
 30
0.0
 10
256.4569610197
 20
349.7062436858
 30
0.0
 10
259.2166334703
 20
350.6603647971
 30
0.0
 10
262.7983972068
 20
351.8370839209
 30
0.0
 10
267.1321087399
 20
353.1652751881
 30
0.0
 10
272.126968133
 20
354.5774113655
 30
0.0
 10
276.7894532953
 20
355.8020371137
 30
0.0
 10
281.0602432756
 20
356.8519660311
 30
0.0
 10
285.8131921839
 20
357.952730559
 30
0.0
 10
290.4155541519
 20
358.9423688066
 30
0.0
 10
294.1760384786
 20
359.6928696115
 30
0.0
 10
295.885917153
 20
360.0209988031
 30
0.0
 10
296.3191376299
 20
360.1033023458
 30
0.0
  0
SPLINE
  5
4D2
100
AcDbEntity
  8
0
100
AcDbSpline
 62
7
  6
CONTINUOUS
 70
0
 71
3
 72
8
 73
4
 74
0
 42
0.0000001
 43
0.0000001
 44
0.0000000001
 40
0.0
 40
0.0
 40
0.0
 40
0.0
 40
1.0
 40
1.0
 40
1.0
 40
1.0
 10
476.0849326279
 20
370.960395837
 30
0.0
 10
476.6770828043
 20
369.5701996997
 30
0.0
 10
477.2695198399
 20
368.1801257097
 30
0.0
 10
477.8622625455
 20
366.7901821078
 30
0.0
  0
LINE
  5
4D3
100
AcDbEntity
  8
0
100
AcDbLine
 62
7
  6
CONTINUOUS
 10
476.9702193884
 20
366.7901821078
 11
477.8500824512
 21
364.7050759734
  0
SPLINE
  5
4D4
100
AcDbEntity
  8
0
100
AcDbSpline
 62
7
  6
CONTINUOUS
 70
0
 71
3
 72
8
 73
4
 74
0
 42
0.0000001
 43
0.0000001
 44
0.0000000001
 40
0.0
 40
0.0
 40
0.0
 40
0.0
 40
1.0
 40
1.0
 40
1.0
 40
1.0
 10
478.7517320431
 20
364.7050759734
 30
0.0
 10
480.2350240085
 20
361.2290063208
 30
0.0
 10
481.7202855605
 20
357.7537762044
 30
0.0
 10
483.207876669
 20
354.2795442061
 30
0.0
  0
SPLINE
  5
4D5
100
AcDbEntity
  8
0
100
AcDbSpline
 62
7
  6
CONTINUOUS
 70
0
 71
3
 72
9
 73
5
 74
0
 42
0.0000001
 43
0.0000001
 44
0.0000000001
 40
0.0
 40
0.0
 40
0.0
 40
0.0
 40
0.2443228314
 40
1.0
 40
1.0
 40
1.0
 40
1.0
 10
473.3052130736
 20
372.0029489042
 30
0.0
 10
473.330810226
 20
371.9591093601
 30
0.0
 10
473.43797361
 20
371.7810809002
 30
0.0
 10
473.5544305377
 20
371.6086889216
 30
0.0
 10
473.6467361481
 20
371.4816723706
 30
0.0
  0
SPLINE
  5
4D6
100
AcDbEntity
  8
0
100
AcDbSpline
 62
7
  6
CONTINUOUS
 70
0
 71
3
 72
8
 73
4
 74
0
 42
0.0000001
 43
0.0000001
 44
0.0000000001
 40
0.0
 40
0.0
 40
0.0
 40
0.0
 40
1.0
 40
1.0
 40
1.0
 40
1.0
 10
475.6840613454
 20
367.3114586414
 30
0.0
 10
476.1366411653
 20
366.2685995858
 30
0.0
 10
476.5899145444
 20
365.2260412201
 30
0.0
 10
477.0439140761
 20
364.1837994398
 30
0.0
  0
LINE
  5
4D7
100
AcDbEntity
  8
0
100
AcDbLine
 62
7
  6
CONTINUOUS
 10
477.0439140761
 20
364.1837994398
 11
478.5654472102
 21
360.5348637046
  0
SPLINE
  5
4D8
100
AcDbEntity
  8
0
100
AcDbSpline
 62
7
  6
CONTINUOUS
 70
0
 71
3
 72
8
 73
4
 74
0
 42
0.0000001
 43
0.0000001
 44
0.0000000001
 40
0.0
 40
0.0
 40
0.0
 40
0.0
 40
1.0
 40
1.0
 40
1.0
 40
1.0
 10
478.5654472102
 20
360.5348637046
 30
0.0
 10
478.9804390556
 20
359.4922185942
 30
0.0
 10
479.3956580386
 20
358.4496638573
 30
0.0
 10
479.8111144506
 20
357.4072037728
 30
0.0
  0
SPLINE
  5
4D9
100
AcDbEntity
  8
0
100
AcDbSpline
 62
7
  6
CONTINUOUS
 70
0
 71
3
 72
8
 73
4
 74
0
 42
0.0000001
 43
0.0000001
 44
0.0000000001
 40
0.0
 40
0.0
 40
0.0
 40
0.0
 40
1.0
 40
1.0
 40
1.0
 40
1.0
 10
479.3548807617
 20
357.4072037728
 30
0.0
 10
478.9291239342
 20
358.449608312
 30
0.0
 10
478.50373698
 20
359.4921639911
 30
0.0
 10
478.0787035615
 20
360.5348637046
 30
0.0
  0
LINE
  5
4DA
100
AcDbEntity
  8
0
100
AcDbLine
 62
7
  6
CONTINUOUS
 10
478.0787035615
 20
360.5348637046
 11
476.5659043737
 21
364.1837994398
  0
SPLINE
  5
4DB
100
AcDbEntity
  8
0
100
AcDbSpline
 62
7
  6
CONTINUOUS
 70
0
 71
3
 72
8
 73
4
 74
0
 42
0.0000001
 43
0.0000001
 44
0.0000000001
 40
0.0
 40
0.0
 40
0.0
 40
0.0
 40
1.0
 40
1.0
 40
1.0
 40
1.0
 10
476.5659043737
 20
364.1837994398
 30
0.0
 10
476.1266435259
 20
365.2261324481
 30
0.0
 10
475.6879128565
 20
366.2686890297
 30
0.0
 10
475.2496894782
 20
367.3114586414
 30
0.0
  0
SPLINE
  5
4DC
100
AcDbEntity
  8
0
100
AcDbSpline
 62
7
  6
CONTINUOUS
 70
0
 71
3
 72
9
 73
5
 74
0
 42
0.0000001
 43
0.0000001
 44
0.0000000001
 40
0.0
 40
0.0
 40
0.0
 40
0.0
 40
0.2419101841
 40
1.0
 40
1.0
 40
1.0
 40
1.0
 10
482.1049372755
 20
350.6306081514
 30
0.0
 10
482.1231379563
 20
350.5866678235
 30
0.0
 10
482.2028035985
 20
350.406873485
 30
0.0
 10
482.2994898424
 20
350.234798759
 30
0.0
 10
482.3799391765
 20
350.1093315722
 30
0.0
  0
SPLINE
  5
4DD
100
AcDbEntity
  8
0
100
AcDbSpline
 62
7
  6
CONTINUOUS
 70
0
 71
3
 72
9
 73
5
 74
0
 42
0.0000001
 43
0.0000001
 44
0.0000000001
 40
0.0
 40
0.0
 40
0.0
 40
0.0
 40
0.245189604
 40
1.0
 40
1.0
 40
1.0
 40
1.0
 10
472.2249713035
 20
374.6093315722
 30
0.0
 10
472.2343067861
 20
374.5656300739
 30
0.0
 10
472.2766570995
 20
374.3883221404
 30
0.0
 10
472.3358991099
 20
374.2151525882
 30
0.0
 10
472.3885446362
 20
374.0880550386
 30
0.0
  0
SPLINE
  5
4DE
100
AcDbEntity
  8
0
100
AcDbSpline
 62
7
  6
CONTINUOUS
 70
0
 71
3
 72
8
 73
4
 74
0
 42
0.0000001
 43
0.0000001
 44
0.0000000001
 40
0.0
 40
0.0
 40
0.0
 40
0.0
 40
1.0
 40
1.0
 40
1.0
 40
1.0
 10
619.1387782691
 20
357.4072037728
 30
0.0
 10
619.5645350966
 20
358.449608312
 30
0.0
 10
619.9899220507
 20
359.4921639911
 30
0.0
 10
620.4149554693
 20
360.5348637046
 30
0.0
  0
LINE
  5
4DF
100
AcDbEntity
  8
0
100
AcDbLine
 62
7
  6
CONTINUOUS
 10
620.4149554693
 20
360.5348637046
 11
621.927754657
 21
364.1837994398
  0
SPLINE
  5
4E0
100
AcDbEntity
  8
0
100
AcDbSpline
 62
7
  6
CONTINUOUS
 70
0
 71
3
 72
8
 73
4
 74
0
 42
0.0000001
 43
0.0000001
 44
0.0000000001
 40
0.0
 40
0.0
 40
0.0
 40
0.0
 40
1.0
 40
1.0
 40
1.0
 40
1.0
 10
621.927754657
 20
364.1837994398
 30
0.0
 10
622.3670155049
 20
365.2261324481
 30
0.0
 10
622.8057461742
 20
366.2686890297
 30
0.0
 10
623.2439695525
 20
367.3114586414
 30
0.0
  0
SPLINE
  5
4E1
100
AcDbEntity
  8
0
100
AcDbSpline
 62
7
  6
CONTINUOUS
 70
0
 71
3
 72
9
 73
5
 74
0
 42
0.0000001
 43
0.0000001
 44
0.0000000001
 40
0.0
 40
0.0
 40
0.0
 40
0.0
 40
0.2415910757
 40
1.0
 40
1.0
 40
1.0
 40
1.0
 10
624.8715143875
 20
374.0880550386
 30
0.0
 10
624.8465659363
 20
374.1320474669
 30
0.0
 10
624.7397023134
 20
374.3120945148
 30
0.0
 10
624.6190807549
 20
374.483845825
 30
0.0
 10
624.52182145
 20
374.6093315722
 30
0.0
  0
SPLINE
  5
4E2
100
AcDbEntity
  8
0
100
AcDbSpline
 62
7
  6
CONTINUOUS
 70
0
 71
3
 72
8
 73
4
 74
0
 42
0.0000001
 43
0.0000001
 44
0.0000000001
 40
0.0
 40
0.0
 40
0.0
 40
0.0
 40
1.0
 40
1.0
 40
1.0
 40
1.0
 10
623.3468923962
 20
368.8752897026
 30
0.0
 10
623.6167060303
 20
369.5702159674
 30
0.0
 10
623.8862360207
 20
370.2652524235
 30
0.0
 10
624.1554897028
 20
370.960395837
 30
0.0
  0
LINE
  5
4E3
100
AcDbEntity
  8
0
100
AcDbLine
 62
7
  6
CONTINUOUS
 10
622.9120357232
 20
367.832735175
 11
623.3468923962
 21
368.8752897026
  0
SPLINE
  5
4E4
100
AcDbEntity
  8
0
100
AcDbSpline
 62
7
  6
CONTINUOUS
 70
0
 71
3
 72
8
 73
4
 74
0
 42
0.0000001
 43
0.0000001
 44
0.0000000001
 40
0.0
 40
0.0
 40
0.0
 40
0.0
 40
1.0
 40
1.0
 40
1.0
 40
1.0
 10
621.9796399789
 20
365.7476290406
 30
0.0
 10
622.2910657623
 20
366.4423836135
 30
0.0
 10
622.6018581294
 20
367.137422443
 30
0.0
 10
622.9120357232
 20
367.832735175
 30
0.0
  0
LINE
  5
4E5
100
AcDbEntity
  8
0
100
AcDbLine
 62
7
  6
CONTINUOUS
 10
615.5143725795
 20
350.1093315722
 11
616.6029212043
 21
352.7157146053
  0
SPLINE
  5
4E6
100
AcDbEntity
  8
0
100
AcDbSpline
 62
7
  6
CONTINUOUS
 70
0
 71
3
 72
9
 73
5
 74
0
 42
0.0000001
 43
0.0000001
 44
0.0000000001
 40
0.0
 40
0.0
 40
0.0
 40
0.0
 40
0.245189604
 40
1.0
 40
1.0
 40
1.0
 40
1.0
 10
626.2686877272
 20
374.6093315722
 30
0.0
 10
626.2593522447
 20
374.5656300739
 30
0.0
 10
626.2170019313
 20
374.3883221404
 30
0.0
 10
626.1577599209
 20
374.2151525882
 30
0.0
 10
626.1051143946
 20
374.0880550386
 30
0.0
  0
SPLINE
  5
4E7
100
AcDbEntity
  8
0
100
AcDbSpline
 62
7
  6
CONTINUOUS
 70
0
 71
3
 72
9
 73
5
 74
0
 42
0.0000001
 43
0.0000001
 44
0.0000000001
 40
0.0
 40
0.0
 40
0.0
 40
0.0
 40
0.2419101841
 40
1.0
 40
1.0
 40
1.0
 40
1.0
 10
616.3887217552
 20
350.6306081514
 30
0.0
 10
616.3705210745
 20
350.5866678235
 30
0.0
 10
616.2908554322
 20
350.406873485
 30
0.0
 10
616.1941691883
 20
350.234798759
 30
0.0
 10
616.1137198543
 20
350.1093315722
 30
0.0
  0
SPLINE
  5
4E8
100
AcDbEntity
  8
0
100
AcDbSpline
 62
7
  6
CONTINUOUS
 70
0
 71
3
 72
8
 73
4
 74
0
 42
0.0000001
 43
0.0000001
 44
0.0000000001
 40
0.0
 40
0.0
 40
0.0
 40
0.0
 40
1.0
 40
1.0
 40
1.0
 40
1.0
 10
483.4694372192
 20
355.3220976384
 30
0.0
 10
482.1187916064
 20
358.4487609704
 30
0.0
 10
480.770569525
 20
361.5764720216
 30
0.0
 10
479.4244252253
 20
364.7050759734
 30
0.0
  0
SPLINE
  5
4E9
100
AcDbEntity
  8
0
100
AcDbSpline
 62
7
  6
CONTINUOUS
 70
0
 71
3
 72
8
 73
4
 74
0
 42
0.0000001
 43
0.0000001
 44
0.0000000001
 40
0.0
 40
0.0
 40
0.0
 40
0.0
 40
1.0
 40
1.0
 40
1.0
 40
1.0
 10
481.2141745958
 20
364.7050759734
 30
0.0
 10
480.9083217986
 20
365.40003637
 30
0.0
 10
480.602641408
 20
366.0950726666
 30
0.0
 10
480.297127495
 20
366.7901821078
 30
0.0
  0
SPLINE
  5
4EA
100
AcDbEntity
  8
0
100
AcDbSpline
 62
7
  6
CONTINUOUS
 70
0
 71
3
 72
8
 73
4
 74
0
 42
0.0000001
 43
0.0000001
 44
0.0000000001
 40
0.0
 40
0.0
 40
0.0
 40
0.0
 40
1.0
 40
1.0
 40
1.0
 40
1.0
 10
478.5276281965
 20
366.7901821078
 30
0.0
 10
477.9300735391
 20
368.1800860842
 30
0.0
 10
477.3329164
 20
369.5701610227
 30
0.0
 10
476.736131855
 20
370.960395837
 30
0.0
  0
SPLINE
  5
4EB
100
AcDbEntity
  8
0
100
AcDbSpline
 62
7
  6
CONTINUOUS
 70
0
 71
3
 72
8
 73
4
 74
0
 42
0.0000001
 43
0.0000001
 44
0.0000000001
 40
0.0
 40
0.0
 40
0.0
 40
0.0
 40
1.0
 40
1.0
 40
1.0
 40
1.0
 10
611.4008696679
 20
352.7157146053
 30
0.0
 10
611.0147387832
 20
351.8467657198
 30
0.0
 10
610.6282659103
 20
350.9779687133
 30
0.0
 10
610.2414342379
 20
350.1093315722
 30
0.0
  0
SPLINE
  5
4EC
100
AcDbEntity
  8
BEZUGSACHSEN
100
AcDbSpline
 62
7
  6
CONTINUOUS
 70
0
 71
3
 72
24
 73
20
 74
0
 42
0.0000001
 43
0.0000001
 44
0.0000000001
 40
0.0
 40
0.0
 40
0.0
 40
0.0
 40
0.1708917469
 40
0.3344573532
 40
0.4113863012
 40
0.4840978721
 40
0.5519922041
 40
0.6146078243
 40
0.6716525354
 40
0.7230564719
 40
0.7690690064
 40
0.8103769806
 40
0.848418732
 40
0.8670435696
 40
0.8860740543
 40
0.9063805491
 40
0.9295575867
 40
0.9595782482
 40
1.0
 40
1.0
 40
1.0
 40
1.0
 10
549.2468295154
 20
360.1033023458
 30
0.0
 10
553.3853639504
 20
360.1033023458
 30
0.0
 10
561.485773897
 20
359.9466336801
 30
0.0
 10
571.433912283
 20
359.3335374702
 30
0.0
 10
578.9790259201
 20
358.5457674404
 30
0.0
 10
584.1984083887
 20
357.8220723388
 30
0.0
 10
589.0429415222
 20
356.9455253836
 30
0.0
 10
593.467148417
 20
355.9064859604
 30
0.0
 10
597.4325935117
 20
354.6942128035
 30
0.0
 10
600.9074423927
 20
353.2934544564
 30
0.0
 10
603.8684558874
 20
351.6855718369
 30
0.0
 10
606.2936925626
 20
349.834143996
 30
0.0
 10
607.853954303
 20
348.0130252604
 30
0.0
 10
608.7434197299
 20
346.4035574325
 30
0.0
 10
609.2356742111
 20
345.0830478183
 30
0.0
 10
609.5338108826
 20
343.5920279046
 30
0.0
 10
609.5838700238
 20
341.8034311417
 30
0.0
 10
609.2222083044
 20
339.5523259167
 30
0.0
 10
608.5645343217
 20
337.9477283329
 30
0.0
 10
608.0592164285
 20
337.1093315722
 30
0.0
  0
LINE
  5
4ED
100
AcDbEntity
  8
0
100
AcDbLine
 62
7
  6
CONTINUOUS
 10
624.1731412872
 20
370.960395837
 11
624.0204063452
 21
370.6117112645
  0
SPLINE
  5
4EE
100
AcDbEntity
  8
0
100
AcDbSpline
 62
7
  6
CONTINUOUS
 70
0
 71
3
 72
8
 73
4
 74
0
 42
0.0000001
 43
0.0000001
 44
0.0000000001
 40
0.0
 40
0.0
 40
0.0
 40
0.0
 40
1.0
 40
1.0
 40
1.0
 40
1.0
 10
487.2804119013
 20
350.1093315722
 30
0.0
 10
486.9729603239
 20
350.8042776625
 30
0.0
 10
486.6657133526
 20
351.499314306
 30
0.0
 10
486.3586632835
 20
352.1944378892
 30
0.0
  0
SPLINE
  5
4EF
100
AcDbEntity
  8
0
100
AcDbSpline
 62
7
  6
CONTINUOUS
 70
0
 71
3
 72
9
 73
5
 74
0
 42
0.0000001
 43
0.0000001
 44
0.0000000001
 40
0.0
 40
0.0
 40
0.0
 40
0.0
 40
0.2538036827
 40
1.0
 40
1.0
 40
1.0
 40
1.0
 10
473.4696197174
 20
371.4816723706
 30
0.0
 10
473.4529649306
 20
371.5248299186
 30
0.0
 10
473.389944783
 20
371.6958611072
 30
0.0
 10
473.3375827914
 20
371.8708512404
 30
0.0
 10
473.3052130736
 20
372.0029489042
 30
0.0
  0
SPLINE
  5
4F0
100
AcDbEntity
  8
0
100
AcDbSpline
 62
7
  6
CONTINUOUS
 70
0
 71
3
 72
9
 73
5
 74
0
 42
0.0000001
 43
0.0000001
 44
0.0000000001
 40
0.0
 40
0.0
 40
0.0
 40
0.0
 40
0.2550629767
 40
1.0
 40
1.0
 40
1.0
 40
1.0
 10
481.2995422249
 20
352.7157146053
 30
0.0
 10
481.2773044357
 20
352.7527244912
 30
0.0
 10
481.1918982171
 20
352.8988831728
 30
0.0
 10
481.1137942584
 20
353.0493399508
 30
0.0
 10
481.0604313004
 20
353.1635952826
 30
0.0
  0
SPLINE
  5
4F1
100
AcDbEntity
  8
0
100
AcDbSpline
 62
7
  6
CONTINUOUS
 70
0
 71
3
 72
8
 73
4
 74
0
 42
0.0000001
 43
0.0000001
 44
0.0000000001
 40
0.0
 40
0.0
 40
0.0
 40
0.0
 40
1.0
 40
1.0
 40
1.0
 40
1.0
 10
480.7196826048
 20
355.843374172
 30
0.0
 10
480.5253087101
 20
356.364529518
 30
0.0
 10
480.3312620972
 20
356.885807042
 30
0.0
 10
480.137536635
 20
357.4072037728
 30
0.0
  0
SPLINE
  5
4F2
100
AcDbEntity
  8
0
100
AcDbSpline
 62
7
  6
CONTINUOUS
 70
0
 71
3
 72
8
 73
4
 74
0
 42
0.0000001
 43
0.0000001
 44
0.0000000001
 40
0.0
 40
0.0
 40
0.0
 40
0.0
 40
1.0
 40
1.0
 40
1.0
 40
1.0
 10
480.137536635
 20
357.4072037728
 30
0.0
 10
479.7984542309
 20
358.2759095265
 30
0.0
 10
479.4596019003
 20
359.1447051176
 30
0.0
 10
479.1209715111
 20
360.013587171
 30
0.0
  0
SPLINE
  5
4F3
100
AcDbEntity
  8
0
100
AcDbSpline
 62
7
  6
CONTINUOUS
 70
0
 71
3
 72
8
 73
4
 74
0
 42
0.0000001
 43
0.0000001
 44
0.0000000001
 40
0.0
 40
0.0
 40
0.0
 40
0.0
 40
1.0
 40
1.0
 40
1.0
 40
1.0
 10
479.1209715111
 20
360.013587171
 30
0.0
 10
478.4661187634
 20
361.5773576983
 30
0.0
 10
477.8114104085
 20
363.1411886991
 30
0.0
 10
477.1568365192
 20
364.7050759734
 30
0.0
  0
SPLINE
  5
4F4
100
AcDbEntity
  8
BEZUGSACHSEN
100
AcDbSpline
 62
7
  6
CONTINUOUS
 70
0
 71
3
 72
24
 73
20
 74
0
 42
0.0000001
 43
0.0000001
 44
0.0000000001
 40
0.0
 40
0.0
 40
0.0
 40
0.0
 40
0.1708917469
 40
0.3344573532
 40
0.4113863012
 40
0.4840978721
 40
0.5519922041
 40
0.6146078243
 40
0.6716525354
 40
0.7230564719
 40
0.7690690064
 40
0.8103769806
 40
0.848418732
 40
0.8670435696
 40
0.8860740543
 40
0.9063805491
 40
0.9295575867
 40
0.9595782482
 40
1.0
 40
1.0
 40
1.0
 40
1.0
 10
549.2468295154
 20
360.1033023458
 30
0.0
 10
545.1082950803
 20
360.1033023458
 30
0.0
 10
537.0078851338
 20
359.9466336801
 30
0.0
 10
527.0597467478
 20
359.3335374702
 30
0.0
 10
519.5146331106
 20
358.5457674404
 30
0.0
 10
514.295250642
 20
357.8220723388
 30
0.0
 10
509.4507175086
 20
356.9455253836
 30
0.0
 10
505.0265106138
 20
355.9064859604
 30
0.0
 10
501.061065519
 20
354.6942128035
 30
0.0
 10
497.5862166381
 20
353.2934544564
 30
0.0
 10
494.6252031434
 20
351.6855718369
 30
0.0
 10
492.1999664681
 20
349.834143996
 30
0.0
 10
490.6397047277
 20
348.0130252604
 30
0.0
 10
489.7502393008
 20
346.4035574325
 30
0.0
 10
489.2579848196
 20
345.0830478183
 30
0.0
 10
488.9598481482
 20
343.5920279046
 30
0.0
 10
488.9097890069
 20
341.8034311417
 30
0.0
 10
489.2714507263
 20
339.5523259167
 30
0.0
 10
489.9291247091
 20
337.9477283329
 30
0.0
 10
490.4344426022
 20
337.1093315722
 30
0.0
  0
SPLINE
  5
4F5
100
AcDbEntity
  8
0
100
AcDbSpline
 62
7
  6
CONTINUOUS
 70
0
 71
3
 72
8
 73
4
 74
0
 42
0.0000001
 43
0.0000001
 44
0.0000000001
 40
0.0
 40
0.0
 40
0.0
 40
0.0
 40
1.0
 40
1.0
 40
1.0
 40
1.0
 10
477.1568365192
 20
364.7050759734
 30
0.0
 10
476.7687108854
 20
365.5735416242
 30
0.0
 10
476.3813307573
 20
366.4423408031
 30
0.0
 10
475.9946677551
 20
367.3114586414
 30
0.0
  0
SPLINE
  5
4F6
100
AcDbEntity
  8
0
100
AcDbSpline
 62
7
  6
CONTINUOUS
 70
0
 71
3
 72
9
 73
5
 74
0
 42
0.0000001
 43
0.0000001
 44
0.0000000001
 40
0.0
 40
0.0
 40
0.0
 40
0.0
 40
0.2588238984
 40
1.0
 40
1.0
 40
1.0
 40
1.0
 10
472.598525964
 20
374.0880550386
 30
0.0
 10
472.5634710971
 20
374.1308908785
 30
0.0
 10
472.4305439041
 20
374.2984161065
 30
0.0
 10
472.3080347751
 20
374.4743337848
 30
0.0
 10
472.2249713035
 20
374.6093315722
 30
0.0
  0
LINE
  5
4F7
100
AcDbEntity
  8
0
100
AcDbLine
 62
7
  6
CONTINUOUS
 10
473.6120905846
 20
371.1341538158
 11
473.5406921904
 21
371.307411302
  0
LINE
  5
4F8
100
AcDbEntity
  8
0
100
AcDbLine
 62
7
  6
CONTINUOUS
 10
473.5406921904
 20
371.307411302
 11
473.4947993237
 21
371.4197270308
  0
LINE
  5
4F9
100
AcDbEntity
  8
0
100
AcDbLine
 62
7
  6
CONTINUOUS
 10
473.4947993237
 20
371.4197270308
 11
473.4696197174
 21
371.4816723706
  0
SPLINE
  5
4FA
100
AcDbEntity
  8
0
100
AcDbSpline
 62
7
  6
CONTINUOUS
 70
0
 71
3
 72
8
 73
4
 74
0
 42
0.0000001
 43
0.0000001
 44
0.0000000001
 40
0.0
 40
0.0
 40
0.0
 40
0.0
 40
1.0
 40
1.0
 40
1.0
 40
1.0
 10
481.2660887819
 20
355.843374172
 30
0.0
 10
481.0718475269
 20
356.3645290599
 30
0.0
 10
480.8779350284
 20
356.8858065933
 30
0.0
 10
480.6843450919
 20
357.4072037728
 30
0.0
  0
SPLINE
  5
4FB
100
AcDbEntity
  8
0
100
AcDbSpline
 62
7
  6
CONTINUOUS
 70
0
 71
3
 72
8
 73
4
 74
0
 42
0.0000001
 43
0.0000001
 44
0.0000000001
 40
0.0
 40
0.0
 40
0.0
 40
0.0
 40
1.0
 40
1.0
 40
1.0
 40
1.0
 10
480.6843450919
 20
357.4072037728
 30
0.0
 10
480.3453782299
 20
358.2759094321
 30
0.0
 10
480.0066417822
 20
359.1447050312
 30
0.0
 10
479.6681275532
 20
360.013587171
 30
0.0
  0
SPLINE
  5
4FC
100
AcDbEntity
  8
0
100
AcDbSpline
 62
7
  6
CONTINUOUS
 70
0
 71
3
 72
8
 73
4
 74
0
 42
0.0000001
 43
0.0000001
 44
0.0000000001
 40
0.0
 40
0.0
 40
0.0
 40
0.0
 40
1.0
 40
1.0
 40
1.0
 40
1.0
 10
479.6681275532
 20
360.013587171
 30
0.0
 10
479.0204582911
 20
361.5599790567
 30
0.0
 10
478.3729331016
 20
363.1064312906
 30
0.0
 10
477.7255421184
 20
364.6529396974
 30
0.0
  0
LINE
  5
4FD
100
AcDbEntity
  8
0
100
AcDbLine
 62
7
  6
CONTINUOUS
 10
477.7255421184
 20
364.6529396974
 11
477.7037171723
 21
364.7050759734
  0
SPLINE
  5
4FE
100
AcDbEntity
  8
0
100
AcDbSpline
 62
7
  6
CONTINUOUS
 70
0
 71
3
 72
8
 73
4
 74
0
 42
0.0000001
 43
0.0000001
 44
0.0000000001
 40
0.0
 40
0.0
 40
0.0
 40
0.0
 40
1.0
 40
1.0
 40
1.0
 40
1.0
 10
477.7037171723
 20
364.7050759734
 30
0.0
 10
477.4039448509
 20
365.3754802357
 30
0.0
 10
477.1046211576
 20
366.046085272
 30
0.0
 10
476.8057327249
 20
366.7168840678
 30
0.0
  0
LINE
  5
4FF
100
AcDbEntity
  8
0
100
AcDbLine
 62
7
  6
CONTINUOUS
 10
476.8057327249
 20
366.7168840678
 11
476.5409437658
 21
367.3114586414
  0
SPLINE
  5
500
100
AcDbEntity
  8
0
100
AcDbSpline
 62
7
  6
CONTINUOUS
 70
0
 71
3
 72
9
 73
5
 74
0
 42
0.0000001
 43
0.0000001
 44
0.0000000001
 40
0.0
 40
0.0
 40
0.0
 40
0.0
 40
0.258885279
 40
1.0
 40
1.0
 40
1.0
 40
1.0
 10
473.1410044887
 20
374.0880550386
 30
0.0
 10
473.1058469177
 20
374.1308866463
 30
0.0
 10
472.9725637368
 20
374.2983691342
 30
0.0
 10
472.8497357386
 20
374.4743001271
 30
0.0
 10
472.7664860825
 20
374.6093315722
 30
0.0
  0
SPLINE
  5
501
100
AcDbEntity
  8
0
100
AcDbSpline
 62
7
  6
CONTINUOUS
 70
0
 71
3
 72
8
 73
4
 74
0
 42
0.0000001
 43
0.0000001
 44
0.0000000001
 40
0.0
 40
0.0
 40
0.0
 40
0.0
 40
1.0
 40
1.0
 40
1.0
 40
1.0
 10
484.0339150379
 20
355.3220976384
 30
0.0
 10
482.6824698385
 20
358.4487383835
 30
0.0
 10
481.3335026356
 20
361.5764510516
 30
0.0
 10
479.9866572198
 20
364.7050759734
 30
0.0
  0
SPLINE
  5
502
100
AcDbEntity
  8
0
100
AcDbSpline
 62
7
  6
CONTINUOUS
 70
0
 71
3
 72
8
 73
4
 74
0
 42
0.0000001
 43
0.0000001
 44
0.0000000001
 40
0.0
 40
0.0
 40
0.0
 40
0.0
 40
1.0
 40
1.0
 40
1.0
 40
1.0
 10
481.7893023637
 20
364.7050759734
 30
0.0
 10
481.483190357
 20
365.4000346113
 30
0.0
 10
481.1772546703
 20
366.0950709386
 30
0.0
 10
480.871489186
 20
366.7901821078
 30
0.0
  0
SPLINE
  5
503
100
AcDbEntity
  8
0
100
AcDbSpline
 62
7
  6
CONTINUOUS
 70
0
 71
3
 72
8
 73
4
 74
0
 42
0.0000001
 43
0.0000001
 44
0.0000000001
 40
0.0
 40
0.0
 40
0.0
 40
0.0
 40
1.0
 40
1.0
 40
1.0
 40
1.0
 10
479.0894066325
 20
366.7901821078
 30
0.0
 10
478.4915562196
 20
368.1800825268
 30
0.0
 10
477.8941116447
 20
369.5701575739
 30
0.0
 10
477.297047274
 20
370.960395837
 30
0.0
  0
SPLINE
  5
504
100
AcDbEntity
  8
0
100
AcDbSpline
 62
7
  6
CONTINUOUS
 70
0
 71
3
 72
9
 73
5
 74
0
 42
0.0000001
 43
0.0000001
 44
0.0000000001
 40
0.0
 40
0.0
 40
0.0
 40
0.0
 40
0.2399695319
 40
1.0
 40
1.0
 40
1.0
 40
1.0
 10
623.5252053846
 20
374.6093315722
 30
0.0
 10
623.436476024
 20
374.5650038747
 30
0.0
 10
623.0652712109
 20
374.3831929426
 30
0.0
 10
622.6886422096
 20
374.2125407154
 30
0.0
 10
622.4002189159
 20
374.0880550386
 30
0.0
  0
LINE
  5
505
100
AcDbEntity
  8
0
100
AcDbLine
 62
7
  6
CONTINUOUS
 10
622.7853248194
 20
371.9607595685
 11
622.8123268302
 21
371.9162254897
  0
LINE
  5
506
100
AcDbEntity
  8
0
100
AcDbLine
 62
7
  6
CONTINUOUS
 10
621.4563585612
 20
364.7050759734
 11
621.2327036735
 21
364.1665407291
  0
LINE
  5
507
100
AcDbEntity
  8
0
100
AcDbLine
 62
7
  6
CONTINUOUS
 10
621.2327036735
 20
364.1665407291
 11
619.5078661186
 21
360.013587171
  0
SPLINE
  5
508
100
AcDbEntity
  8
0
100
AcDbSpline
 62
7
  6
CONTINUOUS
 70
0
 71
3
 72
8
 73
4
 74
0
 42
0.0000001
 43
0.0000001
 44
0.0000000001
 40
0.0
 40
0.0
 40
0.0
 40
0.0
 40
1.0
 40
1.0
 40
1.0
 40
1.0
 10
487.8585924022
 20
350.1093315722
 30
0.0
 10
487.5508323983
 20
350.8042753503
 30
0.0
 10
487.2432821121
 20
351.4993120381
 30
0.0
 10
486.9359335707
 20
352.1944378892
 30
0.0
  0
SPLINE
  5
509
100
AcDbEntity
  8
0
100
AcDbSpline
 62
7
  6
CONTINUOUS
 70
0
 71
3
 72
8
 73
4
 74
0
 42
0.0000001
 43
0.0000001
 44
0.0000000001
 40
0.0
 40
0.0
 40
0.0
 40
0.0
 40
1.0
 40
1.0
 40
1.0
 40
1.0
 10
619.5078661186
 20
360.013587171
 30
0.0
 10
619.1595386912
 20
359.1446616436
 30
0.0
 10
618.8108885322
 20
358.2758654151
 30
0.0
 10
618.4619035466
 20
357.4072037728
 30
0.0
  0
SPLINE
  5
50A
100
AcDbEntity
  8
0
100
AcDbSpline
 62
7
  6
CONTINUOUS
 70
0
 71
3
 72
8
 73
4
 74
0
 42
0.0000001
 43
0.0000001
 44
0.0000000001
 40
0.0
 40
0.0
 40
0.0
 40
0.0
 40
1.0
 40
1.0
 40
1.0
 40
1.0
 10
618.4619035466
 20
357.4072037728
 30
0.0
 10
618.2570929142
 20
356.8857748735
 30
0.0
 10
618.051897393
 20
356.3644969827
 30
0.0
 10
617.846309192
 20
355.843374172
 30
0.0
  0
LINE
  5
50B
100
AcDbEntity
  8
0
100
AcDbLine
 62
7
  6
CONTINUOUS
 10
616.6516811188
 20
352.7134749303
 11
616.6463305193
 21
352.6992863583
  0
LINE
  5
50C
100
AcDbEntity
  8
0
100
AcDbLine
 62
7
  6
CONTINUOUS
 10
622.3833202022
 20
368.8752897026
 11
621.9462714849
 21
367.832735175
  0
SPLINE
  5
50D
100
AcDbEntity
  8
0
100
AcDbSpline
 62
7
  6
CONTINUOUS
 70
0
 71
3
 72
8
 73
4
 74
0
 42
0.0000001
 43
0.0000001
 44
0.0000000001
 40
0.0
 40
0.0
 40
0.0
 40
0.0
 40
1.0
 40
1.0
 40
1.0
 40
1.0
 10
620.0505319865
 20
360.013587171
 30
0.0
 10
619.7021356552
 20
359.1446621854
 30
0.0
 10
619.3534179641
 20
358.2758659751
 30
0.0
 10
619.004366947
 20
357.4072037728
 30
0.0
  0
SPLINE
  5
50E
100
AcDbEntity
  8
0
100
AcDbSpline
 62
7
  6
CONTINUOUS
 70
0
 71
3
 72
8
 73
4
 74
0
 42
0.0000001
 43
0.0000001
 44
0.0000000001
 40
0.0
 40
0.0
 40
0.0
 40
0.0
 40
1.0
 40
1.0
 40
1.0
 40
1.0
 10
619.004366947
 20
357.4072037728
 30
0.0
 10
618.7994863178
 20
356.8857756671
 30
0.0
 10
618.5942229172
 20
356.3644977916
 30
0.0
 10
618.388569046
 20
355.843374172
 30
0.0
  0
SPLINE
  5
50F
100
AcDbEntity
  8
0
100
AcDbSpline
 62
7
  6
CONTINUOUS
 70
0
 71
3
 72
8
 73
4
 74
0
 42
0.0000001
 43
0.0000001
 44
0.0000000001
 40
0.0
 40
0.0
 40
0.0
 40
0.0
 40
1.0
 40
1.0
 40
1.0
 40
1.0
 10
611.9810023251
 20
352.7157146053
 30
0.0
 10
611.5952772836
 20
351.8467695785
 30
0.0
 10
611.2092183873
 20
350.9779726656
 30
0.0
 10
610.8228093837
 20
350.1093315722
 30
0.0
  0
LINE
  5
510
100
AcDbEntity
  8
0
100
AcDbLine
 62
7
  6
CONTINUOUS
 10
622.9309403997
 20
368.8752897026
 11
622.493957788
 21
367.832735175
  0
SPLINE
  5
511
100
AcDbEntity
  8
0
100
AcDbSpline
 62
7
  6
CONTINUOUS
 70
0
 71
3
 72
9
 73
5
 74
0
 42
0.0000001
 43
0.0000001
 44
0.0000000001
 40
0.0
 40
0.0
 40
0.0
 40
0.0
 40
0.255598506
 40
1.0
 40
1.0
 40
1.0
 40
1.0
 10
623.3126190494
 20
372.0029489042
 30
0.0
 10
623.3392130841
 20
371.9599135926
 30
0.0
 10
623.4410354287
 20
371.7901847211
 30
0.0
 10
623.533712911
 20
371.6149232246
 30
0.0
 10
623.5965779106
 20
371.4816723706
 30
0.0
  0
SPLINE
  5
512
100
AcDbEntity
  8
0
100
AcDbSpline
 62
7
  6
CONTINUOUS
 70
0
 71
3
 72
9
 73
5
 74
0
 42
0.0000001
 43
0.0000001
 44
0.0000000001
 40
0.0
 40
0.0
 40
0.0
 40
0.0
 40
0.2400026045
 40
1.0
 40
1.0
 40
1.0
 40
1.0
 10
624.0804552224
 20
374.6093315722
 30
0.0
 10
623.9921923576
 20
374.56500936
 30
0.0
 10
623.6229815128
 20
374.3832331849
 30
0.0
 10
623.2483423906
 20
374.2125658813
 30
0.0
 10
622.9614397224
 20
374.0880550386
 30
0.0
  0
LINE
  5
513
100
AcDbEntity
  8
0
100
AcDbLine
 62
7
  6
CONTINUOUS
 10
621.9989576567
 20
364.7050759734
 11
620.0505319865
 21
360.013587171
  0
SPLINE
  5
514
100
AcDbEntity
  8
0
100
AcDbSpline
 62
7
  6
CONTINUOUS
 70
0
 71
3
 72
8
 73
4
 74
0
 42
0.0000001
 43
0.0000001
 44
0.0000000001
 40
0.0
 40
0.0
 40
0.0
 40
0.0
 40
1.0
 40
1.0
 40
1.0
 40
1.0
 10
623.115974872
 20
367.3114586414
 30
0.0
 10
622.7441945979
 20
366.4424251475
 30
0.0
 10
622.3718624185
 20
365.5736275403
 30
0.0
 10
621.9989576567
 20
364.7050759734
 30
0.0
  0
SPLINE
  5
515
100
AcDbEntity
  8
0
100
AcDbSpline
 62
7
  6
CONTINUOUS
 70
0
 71
3
 72
8
 73
4
 74
0
 42
0.0000001
 43
0.0000001
 44
0.0000000001
 40
0.0
 40
0.0
 40
0.0
 40
0.0
 40
1.0
 40
1.0
 40
1.0
 40
1.0
 10
623.7964956589
 20
368.8752897026
 30
0.0
 10
623.5701446975
 20
368.3538000298
 30
0.0
 10
623.3433077029
 20
367.8325210375
 30
0.0
 10
623.115974872
 20
367.3114586414
 30
0.0
  0
ELLIPSE
  5
516
100
AcDbEntity
  8
0
100
AcDbEllipse
 62
7
  6
CONTINUOUS
 10
219.7765194981
 20
410.5401121906
 30
0.0
 11
58.0
 21
-0.0
 31
0.0
 40
0.2679491924
 41
-2.104247067
 42
-1.0373455866
  0
ENDSEC
  0
SECTION
  2
OBJECTS
  0
DICTIONARY
  5
C
100
AcDbDictionary
280
0
281
1
  3
ACAD_GROUP
350
D
  3
ACAD_MLINESTYLE
350
17
  3
ACAD_LAYOUT
350
1A
  3
ACAD_PLOTSETTINGS
350
19
  3
ACAD_PLOTSTYLENAME
350
E
  0
DICTIONARY
  5
D
102
{ACAD_REACTORS
330
C
102
}
100
AcDbDictionary
280
0
281
1
  0
ACDBDICTIONARYWDFLT
  5
E
102
{ACAD_REACTORS
330
C
102
}
100
AcDbDictionary
281
1
  3
Normal
350
F
100
AcDbDictionaryWithDefault
340
F
  0
DICTIONARY
  5
17
102
{ACAD_REACTORS
330
C
102
}
100
AcDbDictionary
280
0
281
1
  3
Standard
350
18
  0
DICTIONARY
  5
19
102
{ACAD_REACTORS
330
C
102
}
100
AcDbDictionary
281
1
  0
DICTIONARY
  5
1A
102
{ACAD_REACTORS
330
C
102
}
100
AcDbDictionary
281
1
  3
Model
350
517
  3
Layout1
350
518
  0
ACDBPLACEHOLDER
  5
F
102
{ACAD_REACTORS
330
E
102
}
  0
MLINESTYLE
  5
18
102
{ACAD_REACTORS
330
17
102
}
100
AcDbMlineStyle
  2
STANDARD
 70
0
  3

 62
256
 51
90.0
 52
90.0
 71
2
 49
0.5
 62
256
  6
BYLAYER
 49
-0.5
 62
256
  6
BYLAYER
  0
LAYOUT
  5
517
102
{ACAD_REACTORS
330
1A
102
}
100
AcDbPlotSettings
  1

  2
none_device
  4
ISO_A1_(594.00_x_841.00_MM)
  6

 40
0.0
 41
0.0
 42
0.0
 43
0.0
 44
841.0
 45
594.0
 46
0.0
 47
0.0
 48
0.0
 49
0.0
140
0.0
141
0.0
142
1.0
143
1.0
 70
1024
 72
1
 73
0
 74
0
  7

 75
0
147
1.0
148
0.0
149
0.0
100
AcDbLayout
  1
Model
 70
0
 71
0
 10
0.0
 20
0.0
 11
841.0
 21
594.0
 12
0.0
 22
0.0
 32
0.0
 14
0.0
 24
0.0
 34
0.0
 15
0.0
 25
0.0
 35
0.0
146
0.0
 13
0.0
 23
0.0
 33
0.0
 16
1.0
 26
0.0
 36
0.0
 17
0.0
 27
1.0
 37
0.0
 76
0
330
20E
345
0
346
0
  0
LAYOUT
  5
518
102
{ACAD_REACTORS
330
1A
102
}
100
AcDbPlotSettings
  1

  2
none_device
  4
ISO_A1_(594.00_x_841.00_MM)
  6

 40
0.0
 41
0.0
 42
0.0
 43
0.0
 44
841.0
 45
594.0
 46
0.0
 47
0.0
 48
0.0
 49
0.0
140
0.0
141
0.0
142
1.0
143
1.0
 70
0
 72
1
 73
0
 74
0
  7

 75
0
147
1.0
148
0.0
149
0.0
100
AcDbLayout
  1
Layout1
 70
0
 71
1
 10
0.0
 20
0.0
 11
841.0
 21
594.0
 12
0.0
 22
0.0
 32
0.0
 14
0.0
 24
0.0
 34
0.0
 15
0.0
 25
0.0
 35
0.0
146
0.0
 13
0.0
 23
0.0
 33
0.0
 16
1.0
 26
0.0
 36
0.0
 17
0.0
 27
1.0
 37
0.0
 76
0
330
20F
345
0
346
0
  0
ENDSEC
  0
EOF
