999
DXF file: 001-m35376-p-1.dxf
999
Pro/ENGINEER 2011490 by Parametric Technology Corporation
  0
SECTION
  2
HEADER
  9
$ACADVER
  1
AC1015
  9
$DWGCODEPAGE
  3
ANSI_1252
  9
$EXTMAX
 10
841.0
 20
594.0
 30
0.0
  9
$EXTMIN
 10
0.0
 20
0.0
 30
0.0
  9
$LIMMIN
 10
0.0
 20
0.0
  9
$LIMMAX
 10
841.0
 20
594.0
  9
$VIEWCTR
 10
420.5
 20
297.0
  9
$VIEWSIZE
 40
594.0
  9
$CLAYER
  8
0
  9
$LTSCALE
 40
46.255
  9
$CELTYPE
  6
BYLAYER
  9
$DIMSCALE
 40
1.0
  9
$DIMASZ
 40
3.5
  9
$DIMEXO
 40
5.25625
  9
$DIMDLI
 40
31.958
  9
$DIMEXE
 40
15.138
  9
$DIMCEN
 40
7.569
  9
$DIMLFAC
 40
1.0
  9
$DIMBLK
  1
_FILLED
  9
$DIMTXT
 40
3.5
  9
$DIMTOL
 70
1
  9
$DIMLIM
 70
0
  9
$DIMTFAC
 40
1.0
  9
$DIMTP
 40
0.005
  9
$DIMTM
 40
0.005
  9
$PDMODE
 70
3
  9
$PDSIZE
 40
0.3125
  9
$HANDSEED
  5
51E
  9
$TILEMODE
 70
1
  9
$MEASUREMENT
 70
1
  9
$INSUNITS
 70
4
  0
ENDSEC
  0
SECTION
  2
CLASSES
  0
CLASS
  1
ACDBDICTIONARYWDFLT
  2
AcDbDictionaryWithDefault
  3
AutoCAD 2000
 90
0
280
0
281
0
  0
CLASS
  1
ACDBPLACEHOLDER
  2
AcDbPlaceHolder
  3
AutoCAD 2000
 90
0
280
0
281
0
  0
CLASS
  1
LAYOUT
  2
AcDbLayout
  3
AutoCAD 2000
 90
0
280
0
281
0
  0
ENDSEC
  0
SECTION
  2
TABLES
  0
TABLE
  2
VPORT
  5
8
100
AcDbSymbolTable
 70
2
  0
VPORT
  5
1F4
100
AcDbSymbolTableRecord
100
AcDbViewportTableRecord
  2
*ACTIVE
 70
0
 10
0.0
 20
0.0
 11
1.0
 21
1.0
 12
420.5
 22
297.0
 13
0.0
 23
0.0
 14
1.0
 24
1.0
 15
0.0
 25
0.0
 16
0.0
 26
0.0
 36
1.0
 17
0.0
 27
0.0
 37
0.0
 40
594.0
 41
1.4158249158
 42
50.0
 43
0.0
 44
0.0
 50
0.0
 51
0.0
 71
0
 72
100
 73
1
 74
1
 75
0
 76
0
 77
0
 78
0
  0
ENDTAB
  0
TABLE
  2
LTYPE
  5
5
100
AcDbSymbolTable
 70
6
  0
LTYPE
  5
14
100
AcDbSymbolTableRecord
100
AcDbLinetypeTableRecord
  2
BYBLOCK
 70
0
  3

 72
65
 73
0
 40
0.0
  0
LTYPE
  5
15
100
AcDbSymbolTableRecord
100
AcDbLinetypeTableRecord
  2
BYLAYER
 70
0
  3

 72
65
 73
0
 40
0.0
  0
LTYPE
  5
16
100
AcDbSymbolTableRecord
100
AcDbLinetypeTableRecord
  2
CONTINUOUS
 70
64
  3
Solid line
 72
65
 73
0
 40
0.0
  0
LTYPE
  5
1F5
100
AcDbSymbolTableRecord
100
AcDbLinetypeTableRecord
  2
CENTER
 70
64
  3
____ _ ____ _ ____ _ ____ _ ____ _ ____ _ ____
 72
65
 73
4
 40
0.6
 49
0.375
 74
0
 49
-0.075
 74
0
 49
0.075
 74
0
 49
-0.075
 74
0
  0
LTYPE
  5
1F6
100
AcDbSymbolTableRecord
100
AcDbLinetypeTableRecord
  2
HIDDEN
 70
64
  3
- - - - - - - - - - - - - - - - - - - -
 72
65
 73
2
 40
0.2
 49
0.1
 74
0
 49
-0.1
 74
0
  0
LTYPE
  5
1F7
100
AcDbSymbolTableRecord
100
AcDbLinetypeTableRecord
  2
PHANTOM
 70
64
  3
_____ _ _ _____ _ _ _____ _ _ _____
 72
65
 73
6
 40
0.8
 49
0.45
 74
0
 49
-0.05
 74
0
 49
0.1
 74
0
 49
-0.05
 74
0
 49
0.1
 74
0
 49
-0.05
 74
0
  0
LTYPE
  5
1F8
100
AcDbSymbolTableRecord
100
AcDbLinetypeTableRecord
  2
DOT
 70
64
  3
. . . . . . . . . . . . . . . . . . . .
 72
65
 73
2
 40
0.2
 49
0.1
 74
0
 49
-0.1
 74
0
  0
LTYPE
  5
1F9
100
AcDbSymbolTableRecord
100
AcDbLinetypeTableRecord
  2
DASHED
 70
64
  3
- - - - - - - - - - - - - - - - - - - -
 72
65
 73
2
 40
0.2
 49
0.1
 74
0
 49
-0.1
 74
0
  0
ENDTAB
  0
TABLE
  2
LAYER
  5
2
100
AcDbSymbolTable
 70
36
  0
LAYER
  5
10
100
AcDbSymbolTableRecord
100
AcDbLayerTableRecord
  2
0
 70
0
 62
7
  6
CONTINUOUS
370
-3
390
F
  0
LAYER
  5
1FA
100
AcDbSymbolTableRecord
100
AcDbLayerTableRecord
  2
DEFAULT_1
 70
0
 62
7
  6
CENTER
370
-3
390
F
  0
LAYER
  5
1FB
100
AcDbSymbolTableRecord
100
AcDbLayerTableRecord
  2
DEFAULT_2
 70
0
 62
8
  6
HIDDEN
370
-3
390
F
  0
LAYER
  5
1FC
100
AcDbSymbolTableRecord
100
AcDbLayerTableRecord
  2
DEFAULT_3
 70
0
 62
7
  6
PHANTOM
370
-3
390
F
  0
LAYER
  5
1FD
100
AcDbSymbolTableRecord
100
AcDbLayerTableRecord
  2
BEZUGSACHSEN
 70
0
 62
7
  6
CONTINUOUS
370
-3
390
F
  0
LAYER
  5
1FE
100
AcDbSymbolTableRecord
100
AcDbLayerTableRecord
  2
BEZUGSEBENEN
 70
0
 62
7
  6
CONTINUOUS
370
-3
390
F
  0
LAYER
  5
1FF
100
AcDbSymbolTableRecord
100
AcDbLayerTableRecord
  2
BG_STARTBEZUEGE
 70
0
 62
7
  6
CONTINUOUS
370
-3
390
F
  0
LAYER
  5
200
100
AcDbSymbolTableRecord
100
AcDbLayerTableRecord
  2
FASEN
 70
0
 62
7
  6
CONTINUOUS
370
-3
390
F
  0
LAYER
  5
201
100
AcDbSymbolTableRecord
100
AcDbLayerTableRecord
  2
FLAECHEN
 70
0
 62
7
  6
CONTINUOUS
370
-3
390
F
  0
LAYER
  5
202
100
AcDbSymbolTableRecord
100
AcDbLayerTableRecord
  2
GEWINDE
 70
0
 62
7
  6
CONTINUOUS
370
-3
390
F
  0
LAYER
  5
203
100
AcDbSymbolTableRecord
100
AcDbLayerTableRecord
  2
HILFEN
 70
0
 62
7
  6
CONTINUOUS
370
-3
390
F
  0
LAYER
  5
204
100
AcDbSymbolTableRecord
100
AcDbLayerTableRecord
  2
KONSTRUKTIONSELEMENTE
 70
0
 62
7
  6
CONTINUOUS
370
-3
390
F
  0
LAYER
  5
205
100
AcDbSymbolTableRecord
100
AcDbLayerTableRecord
  2
KURVEN
 70
0
 62
7
  6
CONTINUOUS
370
-3
390
F
  0
LAYER
  5
206
100
AcDbSymbolTableRecord
100
AcDbLayerTableRecord
  2
NORM
 70
0
 62
7
  6
CONTINUOUS
370
-3
390
F
  0
LAYER
  5
207
100
AcDbSymbolTableRecord
100
AcDbLayerTableRecord
  2
PLATZIERUNG
 70
0
 62
7
  6
CONTINUOUS
370
-3
390
F
  0
LAYER
  5
208
100
AcDbSymbolTableRecord
100
AcDbLayerTableRecord
  2
RUNDUNGEN
 70
0
 62
7
  6
CONTINUOUS
370
-3
390
F
  0
LAYER
  5
209
100
AcDbSymbolTableRecord
100
AcDbLayerTableRecord
  2
TEIL_STARTBEZUEGE
 70
0
 62
7
  6
CONTINUOUS
370
-3
390
F
  0
LAYER
  5
20A
100
AcDbSymbolTableRecord
100
AcDbLayerTableRecord
  2
T_STARTBEZUEGE
 70
0
 62
7
  6
CONTINUOUS
370
-3
390
F
  0
LAYER
  5
20B
100
AcDbSymbolTableRecord
100
AcDbLayerTableRecord
  2
ZEICHNUNGSBEMASSUNGEN
 70
0
 62
7
  6
CONTINUOUS
370
-3
390
F
  0
ENDTAB
  0
TABLE
  2
STYLE
  5
3
100
AcDbSymbolTable
 70
1
  0
STYLE
  5
11
100
AcDbSymbolTableRecord
100
AcDbTextStyleTableRecord
  2
STANDARD
 70
0
 40
0.0
 41
0.7
 50
0.0
 71
0
 42
0.2
  3
txt
  4

  0
STYLE
  5
20C
100
AcDbSymbolTableRecord
100
AcDbTextStyleTableRecord
  2
TEXTSTYLE_1
 70
0
 40
0.0
 41
0.8
 50
0.0
 71
0
 42
0.2
  3
gdt
  4

  0
ENDTAB
  0
TABLE
  2
VIEW
  5
6
100
AcDbSymbolTable
 70
0
  0
ENDTAB
  0
TABLE
  2
UCS
  5
7
100
AcDbSymbolTable
 70
0
  0
ENDTAB
  0
TABLE
  2
APPID
  5
9
100
AcDbSymbolTable
 70
1
  0
APPID
  5
20D
100
AcDbSymbolTableRecord
100
AcDbRegAppTableRecord
  2
ACAD
 70
0
  0
ENDTAB
  0
TABLE
  2
BLOCK_RECORD
  5
1
100
AcDbSymbolTable
 70
0
  0
BLOCK_RECORD
  5
20E
100
AcDbSymbolTableRecord
100
AcDbBlockTableRecord
  2
*Model_Space
  0
BLOCK_RECORD
  5
20F
100
AcDbSymbolTableRecord
100
AcDbBlockTableRecord
  2
*Paper_Space
  0
ENDTAB
  0
TABLE
  2
DIMSTYLE
  5
A
100
AcDbSymbolTable
 70
1
100
AcDbDimStyleTable
 71
0
  0
DIMSTYLE
105
210
100
AcDbSymbolTableRecord
100
AcDbDimStyleTableRecord
  2
STANDARD
 70
0
  3

  4

 40
1.0
 41
3.5
 42
0.0625
 43
0.38
 44
0.18
 45
0.0
 46
0.0
 47
0.005
 48
0.005
140
3.5
141
0.09
142
0.0
143
25.4
144
1.0
145
0.0
146
1.0
147
0.09
 71
1.0
 72
0.0
 73
0
 74
0
 75
0
 76
0
 77
1
 78
8
170
0
171
2
172
0
173
0
174
0
175
0
176
0
177
0
178
5
270
2
271
3
272
3
273
2
274
2
275
0
280
0
281
0
282
0
283
1
284
8
285
0
286
0
287
3
288
0
340
11
  0
ENDTAB
  0
ENDSEC
  0
SECTION
  2
BLOCKS
  0
BLOCK
  5
20
100
AcDbEntity
  8
0
100
AcDbBlockBegin
  2
*Model_Space
 70
0
 10
0.0
 20
0.0
 30
0.0
  3
*Model_Space
  1

  0
ENDBLK
  5
21
100
AcDbEntity
  8
0
100
AcDbBlockEnd
  0
BLOCK
  5
1C
100
AcDbEntity
  8
0
100
AcDbBlockBegin
  2
*Paper_Space
 70
0
 10
0.0
 20
0.0
 30
0.0
  3
*Paper_Space
  1

  0
ENDBLK
  5
1D
100
AcDbEntity
  8
0
100
AcDbBlockEnd
  0
ENDSEC
  0
SECTION
  2
ENTITIES
  0
MTEXT
  5
211
100
AcDbEntity
  8
0
100
AcDbMText
 62
5
  6
CONTINUOUS
  7
STANDARD
 71
1
 72
1
 10
537.0498481834
 20
435.8906715779
 30
0.0
 11
0.0
 21
1.0
 31
0.0
 44
0.9
  1
VRS 16t RUD
 40
12.0
 41
102.8571428571
  0
MTEXT
  5
212
100
AcDbEntity
  8
0
100
AcDbMText
 62
5
  6
CONTINUOUS
  7
STANDARD
 71
1
 72
1
 10
155.9732770078
 20
134.0462853319
 30
0.0
 11
1.0
 21
0.0
 31
0.0
 44
0.9
  1
VRS 16t RUD
 40
12.0
 41
102.8571428571
  0
LINE
  5
213
100
AcDbEntity
  8
0
100
AcDbLine
 62
7
  6
CONTINUOUS
 10
0.0
 20
0.0
 11
0.0
 21
594.0
  0
LINE
  5
214
100
AcDbEntity
  8
0
100
AcDbLine
 62
7
  6
CONTINUOUS
 10
0.0
 20
0.0
 11
841.0
 21
0.0
  0
LINE
  5
215
100
AcDbEntity
  8
0
100
AcDbLine
 62
7
  6
CONTINUOUS
 10
0.0
 20
594.0
 11
841.0
 21
594.0
  0
LINE
  5
216
100
AcDbEntity
  8
0
100
AcDbLine
 62
7
  6
CONTINUOUS
 10
841.0
 20
0.0
 11
841.0
 21
594.0
  0
LINE
  5
217
100
AcDbEntity
  8
RUNDUNGEN
100
AcDbLine
 62
7
  6
CONTINUOUS
 10
140.8508058858
 20
538.827757827
 11
207.5002672634
 21
564.4120890043
  0
LINE
  5
218
100
AcDbEntity
  8
KONSTRUKTIONSELEMENTE
100
AcDbLine
 62
7
  6
CONTINUOUS
 10
186.4755788093
 20
270.4501701086
 11
234.9755788093
 21
270.4501701086
  0
LINE
  5
219
100
AcDbEntity
  8
KONSTRUKTIONSELEMENTE
100
AcDbLine
 62
7
  6
CONTINUOUS
 10
182.7255788093
 20
274.2001701086
 11
238.7255788093
 21
274.2001701086
  0
LINE
  5
21A
100
AcDbEntity
  8
BEZUGSACHSEN
100
AcDbLine
 62
7
  6
CONTINUOUS
 10
106.7256366264
 20
463.7716300349
 11
107.3015084158
 21
465.161907519
  0
LINE
  5
21B
100
AcDbEntity
  8
RUNDUNGEN
100
AcDbLine
 62
7
  6
CONTINUOUS
 10
107.3015084158
 20
465.161907519
 11
135.7612016391
 21
533.8696848798
  0
LINE
  5
21C
100
AcDbEntity
  8
0
100
AcDbLine
 62
7
  6
CONTINUOUS
 10
159.0183947607
 20
529.3582456428
 11
158.1345126329
 21
528.4743635151
  0
LINE
  5
21D
100
AcDbEntity
  8
0
100
AcDbLine
 62
7
  6
CONTINUOUS
 10
151.4169975373
 20
521.7568484194
 11
147.1743568502
 21
517.5142077323
  0
LINE
  5
21E
100
AcDbEntity
  8
0
100
AcDbLine
 62
7
  6
CONTINUOUS
 10
145.7601431192
 20
516.0999940014
 11
144.6994829474
 21
515.0393338296
  0
LINE
  5
21F
100
AcDbEntity
  8
0
100
AcDbLine
 62
7
  6
CONTINUOUS
 10
139.7497356477
 20
510.0895865299
 11
138.6890754759
 21
509.0289263581
  0
LINE
  5
220
100
AcDbEntity
  8
0
100
AcDbLine
 62
7
  6
CONTINUOUS
 10
149.1377064222
 20
517.6721785038
 11
152.49646397
 21
521.0309360516
  0
LINE
  5
221
100
AcDbEntity
  8
0
100
AcDbLine
 62
7
  6
CONTINUOUS
 10
159.2177399133
 20
527.3911362347
 11
160.278400085
 21
528.4517964065
  0
LINE
  5
222
100
AcDbEntity
  8
0
100
AcDbLine
 62
7
  6
CONTINUOUS
 10
162.2417496571
 20
528.609767178
 11
163.3024098289
 21
529.6704273498
  0
LINE
  5
223
100
AcDbEntity
  8
0
100
AcDbLine
 62
7
  6
CONTINUOUS
 10
162.8059309116
 20
525.9242655799
 11
161.7452707398
 21
524.8636054081
  0
LINE
  5
224
100
AcDbEntity
  8
0
100
AcDbLine
 62
7
  6
CONTINUOUS
 10
155.2045326767
 20
518.322867345
 11
151.8457751289
 21
514.9641097972
  0
LINE
  5
225
100
AcDbEntity
  8
0
100
AcDbLine
 62
7
  6
CONTINUOUS
 10
152.9290024092
 20
513.8808825168
 11
155.9342058921
 21
516.8860859997
  0
LINE
  5
226
100
AcDbEntity
  8
0
100
AcDbLine
 62
7
  6
CONTINUOUS
 10
162.8284980202
 20
523.7803781278
 11
163.889158192
 21
524.8410382996
  0
LINE
  5
227
100
AcDbEntity
  8
0
100
AcDbLine
 62
7
  6
CONTINUOUS
 10
160.0828167916
 20
530.0615919136
 11
159.0183947607
 21
529.3582456428
  0
LINE
  5
228
100
AcDbEntity
  8
0
100
AcDbLine
 62
7
  6
CONTINUOUS
 10
152.4814185567
 20
522.4601936787
 11
151.4169975373
 21
521.7568484194
  0
LINE
  5
229
100
AcDbEntity
  8
0
100
AcDbLine
 62
7
  6
CONTINUOUS
 10
163.8703509194
 20
526.6276098276
 11
162.8059309116
 21
525.9242655799
  0
LINE
  5
22A
100
AcDbEntity
  8
0
100
AcDbLine
 62
7
  6
CONTINUOUS
 10
165.2018178955
 20
518.9321818209
 11
166.2662399422
 21
519.6355280759
  0
LINE
  5
22B
100
AcDbEntity
  8
0
100
AcDbLine
 62
7
  6
CONTINUOUS
 10
163.889158192
 20
524.8410382996
 11
164.7768021788
 21
525.3676065263
  0
LINE
  5
22C
100
AcDbEntity
  8
0
100
AcDbLine
 62
7
  6
CONTINUOUS
 10
161.9408520102
 20
523.253807878
 11
162.8284980202
 21
523.7803781278
  0
LINE
  5
22D
100
AcDbEntity
  8
0
100
AcDbLine
 62
7
  6
CONTINUOUS
 10
165.1830125354
 20
520.7187554827
 11
164.2953685485
 21
520.1921872559
  0
LINE
  5
22E
100
AcDbEntity
  8
0
100
AcDbLine
 62
7
  6
CONTINUOUS
 10
201.7255790477
 20
539.5225105493
 11
202.7255788093
 21
540.0331487863
  0
LINE
  5
22F
100
AcDbEntity
  8
0
100
AcDbLine
 62
7
  6
CONTINUOUS
 10
160.278400085
 20
528.4517964065
 11
160.989268051
 21
528.8015886123
  0
LINE
  5
230
100
AcDbEntity
  8
0
100
AcDbLine
 62
7
  6
CONTINUOUS
 10
152.49646397
 20
521.0309360516
 11
153.207331936
 21
521.3807282574
  0
LINE
  5
231
100
AcDbEntity
  8
0
100
AcDbLine
 62
7
  6
CONTINUOUS
 10
161.7452707398
 20
524.8636054081
 11
161.0344027739
 21
524.5138132023
  0
LINE
  5
232
100
AcDbEntity
  8
0
100
AcDbLine
 62
7
  6
CONTINUOUS
 10
201.4755785709
 20
540.7991061418
 11
200.7255785709
 21
540.5437870233
  0
LINE
  5
233
100
AcDbEntity
  8
0
100
AcDbLine
 62
7
  6
CONTINUOUS
 10
164.9385348094
 20
526.9736421974
 11
163.8703509194
 21
526.6276098276
  0
LINE
  5
234
100
AcDbEntity
  8
0
100
AcDbLine
 62
7
  6
CONTINUOUS
 10
160.8726701433
 20
522.9077775312
 11
161.9408520102
 21
523.253807878
  0
LINE
  5
235
100
AcDbEntity
  8
KONSTRUKTIONSELEMENTE
100
AcDbLine
 62
7
  6
CONTINUOUS
 10
182.7255788093
 20
274.2001701086
 11
186.4755788093
 21
270.4501701086
  0
LINE
  5
236
100
AcDbEntity
  8
0
100
AcDbLine
 62
7
  6
CONTINUOUS
 10
158.8679477074
 20
526.6802682688
 11
159.2177399133
 21
527.3911362347
  0
LINE
  5
237
100
AcDbEntity
  8
0
100
AcDbLine
 62
7
  6
CONTINUOUS
 10
158.1345126329
 20
528.4743635151
 11
157.6079423831
 21
527.5867175051
  0
LINE
  5
238
100
AcDbEntity
  8
0
100
AcDbLine
 62
7
  6
CONTINUOUS
 10
162.5050330118
 20
520.5683065328
 11
161.4443738516
 21
519.5076473725
  0
LINE
  5
239
100
AcDbEntity
  8
0
100
AcDbLine
 62
7
  6
CONTINUOUS
 10
166.5972267721
 20
522.1329697194
 11
165.1830125354
 21
520.7187554827
  0
LINE
  5
23A
100
AcDbEntity
  8
0
100
AcDbLine
 62
7
  6
CONTINUOUS
 10
150.0027840592
 20
503.3720721929
 11
151.4169975373
 21
504.786285671
  0
LINE
  5
23B
100
AcDbEntity
  8
0
100
AcDbLine
 62
7
  6
CONTINUOUS
 10
155.6596382244
 20
509.0289263581
 11
156.7202983962
 21
510.0895865299
  0
LINE
  5
23C
100
AcDbEntity
  8
0
100
AcDbLine
 62
7
  6
CONTINUOUS
 10
161.1397161158
 20
514.5090042494
 11
162.3771523085
 21
515.7464404422
  0
LINE
  5
23D
100
AcDbEntity
  8
0
100
AcDbLine
 62
7
  6
CONTINUOUS
 10
166.2662399422
 20
519.6355280759
 11
167.6804541789
 21
521.0497423126
  0
LINE
  5
23E
100
AcDbEntity
  8
0
100
AcDbLine
 62
7
  6
CONTINUOUS
 10
212.7255792861
 20
535.9480425327
 11
211.9755792861
 21
535.4374041169
  0
LINE
  5
23F
100
AcDbEntity
  8
0
100
AcDbLine
 62
7
  6
CONTINUOUS
 10
212.2255783325
 20
533.9054892494
 11
213.2255788093
 21
534.4161275535
  0
LINE
  5
240
100
AcDbEntity
  8
0
100
AcDbLine
 62
7
  6
CONTINUOUS
 10
224.225579763
 20
533.9054892494
 11
225.2255788093
 21
534.4161275535
  0
LINE
  5
241
100
AcDbEntity
  8
0
100
AcDbLine
 62
7
  6
CONTINUOUS
 10
157.6079423831
 20
527.5867175051
 11
157.2619120364
 21
526.5185356382
  0
LINE
  5
242
100
AcDbEntity
  8
0
100
AcDbLine
 62
7
  6
CONTINUOUS
 10
156.6337903037
 20
518.3078219316
 11
156.979821662
 21
519.3760048101
  0
LINE
  5
243
100
AcDbEntity
  8
0
100
AcDbLine
 62
7
  6
CONTINUOUS
 10
155.5543248825
 20
519.0337353109
 11
155.2045326767
 21
518.322867345
  0
LINE
  5
244
100
AcDbEntity
  8
0
100
AcDbLine
 62
7
  6
CONTINUOUS
 10
167.1237949989
 20
523.0206137063
 11
166.5972267721
 21
522.1329697194
  0
LINE
  5
245
100
AcDbEntity
  8
0
100
AcDbLine
 62
7
  6
CONTINUOUS
 10
167.6804541789
 20
521.0497423126
 11
168.3837984108
 21
522.1141623362
  0
LINE
  5
246
100
AcDbEntity
  8
0
100
AcDbLine
 62
7
  6
CONTINUOUS
 10
201.9755788093
 20
541.3097443788
 11
201.4755785709
 21
540.7991061418
  0
LINE
  5
247
100
AcDbEntity
  8
0
100
AcDbLine
 62
7
  6
CONTINUOUS
 10
224.7255778556
 20
535.9480425327
 11
223.9755778556
 21
535.4374041169
  0
LINE
  5
248
100
AcDbEntity
  8
BEZUGSACHSEN
100
AcDbLine
 62
7
  6
CONTINUOUS
 10
140.5328480565
 20
375.560437387
 11
106.7300576535
 21
456.8726742644
  0
LINE
  5
249
100
AcDbEntity
  8
0
100
AcDbLine
 62
7
  6
CONTINUOUS
 10
158.6986933816
 20
525.7888624228
 11
158.8679477074
 21
526.6802682688
  0
LINE
  5
24A
100
AcDbEntity
  8
0
100
AcDbLine
 62
7
  6
CONTINUOUS
 10
168.3837984108
 20
522.1141623362
 11
168.7298307332
 21
523.1823462737
  0
LINE
  5
24B
100
AcDbEntity
  8
0
100
AcDbLine
 62
7
  6
CONTINUOUS
 10
202.7255788093
 20
540.0331487863
 11
203.4755788093
 21
541.0544252603
  0
LINE
  5
24C
100
AcDbEntity
  8
0
100
AcDbLine
 62
7
  6
CONTINUOUS
 10
213.2255788093
 20
534.4161275535
 11
214.2255792861
 21
535.4374041169
  0
LINE
  5
24D
100
AcDbEntity
  8
0
100
AcDbLine
 62
7
  6
CONTINUOUS
 10
225.2255788093
 20
534.4161275535
 11
226.2255778556
 21
535.4374041169
  0
LINE
  5
24E
100
AcDbEntity
  8
0
100
AcDbLine
 62
7
  6
CONTINUOUS
 10
155.5468021758
 20
519.7483641245
 11
155.5543248825
 21
519.0337353109
  0
LINE
  5
24F
100
AcDbEntity
  8
0
100
AcDbLine
 62
7
  6
CONTINUOUS
 10
167.2930491983
 20
523.9120196787
 11
167.1237949989
 21
523.0206137063
  0
LINE
  5
250
100
AcDbEntity
  8
0
100
AcDbLine
 62
7
  6
CONTINUOUS
 10
213.2255788093
 20
536.7139998882
 11
212.7255792861
 21
535.9480425327
  0
LINE
  5
251
100
AcDbEntity
  8
KONSTRUKTIONSELEMENTE
100
AcDbLine
 62
7
  6
CONTINUOUS
 10
169.7255788093
 20
354.4501701086
 11
251.7255788093
 21
354.4501701086
  0
LINE
  5
252
100
AcDbEntity
  8
BEZUGSACHSEN
100
AcDbLine
 62
7
  6
CONTINUOUS
 10
266.7255325974
 20
354.6501701086
 11
154.7256250251
 21
354.6501701086
  0
LINE
  5
253
100
AcDbEntity
  8
0
100
AcDbLine
 62
7
  6
CONTINUOUS
 10
157.2619120364
 20
526.5185356382
 11
157.2769574498
 21
525.0892780111
  0
LINE
  5
254
100
AcDbEntity
  8
0
100
AcDbLine
 62
7
  6
CONTINUOUS
 10
168.7298307332
 20
523.1823462737
 11
168.7147852566
 21
524.6116039639
  0
LINE
  5
255
100
AcDbEntity
  8
KONSTRUKTIONSELEMENTE
100
AcDbLine
 62
7
  6
CONTINUOUS
 10
169.7255788093
 20
354.6501701086
 11
169.7255788093
 21
354.4501701086
  0
LINE
  5
256
100
AcDbEntity
  8
0
100
AcDbLine
 62
7
  6
CONTINUOUS
 10
202.2255785709
 20
542.0757017343
 11
201.9755788093
 21
541.3097443788
  0
LINE
  5
257
100
AcDbEntity
  8
0
100
AcDbLine
 62
7
  6
CONTINUOUS
 10
203.4755788093
 20
541.0544252603
 11
203.7255785709
 21
541.8203826158
  0
LINE
  5
258
100
AcDbEntity
  8
0
100
AcDbLine
 62
7
  6
CONTINUOUS
 10
214.2255792861
 20
535.4374041169
 11
214.7255788093
 21
536.4586807697
  0
LINE
  5
259
100
AcDbEntity
  8
0
100
AcDbLine
 62
7
  6
CONTINUOUS
 10
225.2255788093
 20
536.7139998882
 11
224.7255778556
 21
535.9480425327
  0
LINE
  5
25A
100
AcDbEntity
  8
0
100
AcDbLine
 62
7
  6
CONTINUOUS
 10
209.3193292563
 20
364.6501701086
 11
211.6630783623
 21
365.1288934977
  0
LINE
  5
25B
100
AcDbEntity
  8
0
100
AcDbLine
 62
7
  6
CONTINUOUS
 10
192.9130788093
 20
364.6501701086
 11
195.7255788093
 21
364.6501701086
  0
LINE
  5
25C
100
AcDbEntity
  8
0
100
AcDbLine
 62
7
  6
CONTINUOUS
 10
206.9755788093
 20
364.6501701086
 11
209.3193292563
 21
364.6501701086
  0
LINE
  5
25D
100
AcDbEntity
  8
0
100
AcDbLine
 62
7
  6
CONTINUOUS
 10
209.7880788093
 20
367.0437871798
 11
206.5068292563
 21
367.0437871798
  0
LINE
  5
25E
100
AcDbEntity
  8
0
100
AcDbLine
 62
7
  6
CONTINUOUS
 10
206.5068292563
 20
376.6182551293
 11
209.7880788093
 21
376.6182551293
  0
LINE
  5
25F
100
AcDbEntity
  8
0
100
AcDbLine
 62
7
  6
CONTINUOUS
 10
220.1005797034
 20
378.0544251709
 11
223.8505788093
 21
378.0544251709
  0
LINE
  5
260
100
AcDbEntity
  8
0
100
AcDbLine
 62
7
  6
CONTINUOUS
 10
226.1943279152
 20
378.0544251709
 11
231.3505797034
 21
378.0544251709
  0
LINE
  5
261
100
AcDbEntity
  8
0
100
AcDbLine
 62
7
  6
CONTINUOUS
 10
227.6005779152
 20
365.1288934977
 11
230.4130779152
 21
364.6501701086
  0
LINE
  5
262
100
AcDbEntity
  8
0
100
AcDbLine
 62
7
  6
CONTINUOUS
 10
204.6318283623
 20
365.1288934977
 11
206.9755788093
 21
364.6501701086
  0
LINE
  5
263
100
AcDbEntity
  8
0
100
AcDbLine
 62
7
  6
CONTINUOUS
 10
230.4130779152
 20
366.5650636649
 11
228.0693288093
 21
367.0437871798
  0
LINE
  5
264
100
AcDbEntity
  8
0
100
AcDbLine
 62
7
  6
CONTINUOUS
 10
206.5068292563
 20
367.0437871798
 11
205.1005792563
 21
367.522510527
  0
LINE
  5
265
100
AcDbEntity
  8
0
100
AcDbLine
 62
7
  6
CONTINUOUS
 10
226.1943279152
 20
365.6076168867
 11
227.6005779152
 21
365.1288934977
  0
LINE
  5
266
100
AcDbEntity
  8
0
100
AcDbLine
 62
7
  6
CONTINUOUS
 10
202.2880792563
 20
366.5650636649
 11
204.6318283623
 21
365.1288934977
  0
LINE
  5
267
100
AcDbEntity
  8
0
100
AcDbLine
 62
7
  6
CONTINUOUS
 10
205.1005792563
 20
367.522510527
 11
203.6943292563
 21
368.4799572213
  0
LINE
  5
268
100
AcDbEntity
  8
KONSTRUKTIONSELEMENTE
100
AcDbLine
 62
7
  6
CONTINUOUS
 10
182.7255788093
 20
354.4501701086
 11
182.7255788093
 21
274.2001701086
  0
LINE
  5
269
100
AcDbEntity
  8
0
100
AcDbLine
 62
7
  6
CONTINUOUS
 10
213.4755792861
 20
537.7352763622
 11
213.2255788093
 21
536.7139998882
  0
LINE
  5
26A
100
AcDbEntity
  8
0
100
AcDbLine
 62
7
  6
CONTINUOUS
 10
226.2255778556
 20
535.4374041169
 11
226.7255788093
 21
536.4586807697
  0
LINE
  5
26B
100
AcDbEntity
  8
0
100
AcDbLine
 62
7
  6
CONTINUOUS
 10
260.9284686942
 20
517.3286226144
 11
262.2104551867
 21
518.6106091069
  0
LINE
  5
26C
100
AcDbEntity
  8
0
100
AcDbLine
 62
7
  6
CONTINUOUS
 10
268.0892305694
 20
524.4893844895
 11
269.3712170619
 21
525.771370982
  0
LINE
  5
26D
100
AcDbEntity
  8
0
100
AcDbLine
 62
7
  6
CONTINUOUS
 10
270.8749186375
 20
514.5521288326
 11
272.15690513
 21
515.8341153251
  0
LINE
  5
26E
100
AcDbEntity
  8
0
100
AcDbLine
 62
7
  6
CONTINUOUS
 10
206.9755788093
 20
379.0118718653
 11
204.6318283623
 21
378.5331485181
  0
LINE
  5
26F
100
AcDbEntity
  8
0
100
AcDbLine
 62
7
  6
CONTINUOUS
 10
206.9755788093
 20
387.1501701086
 11
204.6318283623
 21
386.6714467614
  0
LINE
  5
270
100
AcDbEntity
  8
0
100
AcDbLine
 62
7
  6
CONTINUOUS
 10
209.3193292563
 20
379.0118718653
 11
206.9755788093
 21
379.0118718653
  0
LINE
  5
271
100
AcDbEntity
  8
0
100
AcDbLine
 62
7
  6
CONTINUOUS
 10
231.3505797034
 20
379.9693185596
 11
226.1943279152
 21
379.9693185596
  0
LINE
  5
272
100
AcDbEntity
  8
0
100
AcDbLine
 62
7
  6
CONTINUOUS
 10
223.8505788093
 20
379.9693185596
 11
220.1005797034
 21
379.9693185596
  0
LINE
  5
273
100
AcDbEntity
  8
0
100
AcDbLine
 62
7
  6
CONTINUOUS
 10
213.0693297034
 20
381.8842132895
 11
215.4130788093
 21
381.8842132895
  0
LINE
  5
274
100
AcDbEntity
  8
0
100
AcDbLine
 62
7
  6
CONTINUOUS
 10
226.1943279152
 20
383.7991066782
 11
223.8505788093
 21
383.7991066782
  0
LINE
  5
275
100
AcDbEntity
  8
0
100
AcDbLine
 62
7
  6
CONTINUOUS
 10
206.5068292563
 20
384.7565533726
 11
209.3193292563
 21
384.7565533726
  0
LINE
  5
276
100
AcDbEntity
  8
0
100
AcDbLine
 62
7
  6
CONTINUOUS
 10
208.8505783623
 20
387.1501701086
 11
206.9755788093
 21
387.1501701086
  0
LINE
  5
277
100
AcDbEntity
  8
0
100
AcDbLine
 62
7
  6
CONTINUOUS
 10
195.7255788093
 20
387.1501701086
 11
192.9130788093
 21
387.1501701086
  0
LINE
  5
278
100
AcDbEntity
  8
0
100
AcDbLine
 62
7
  6
CONTINUOUS
 10
211.6630783623
 20
378.5331485181
 11
209.3193292563
 21
379.0118718653
  0
LINE
  5
279
100
AcDbEntity
  8
0
100
AcDbLine
 62
7
  6
CONTINUOUS
 10
211.1943288093
 20
386.6714467614
 11
208.8505783623
 21
387.1501701086
  0
LINE
  5
27A
100
AcDbEntity
  8
0
100
AcDbLine
 62
7
  6
CONTINUOUS
 10
209.7880788093
 20
376.6182551293
 11
211.1943288093
 21
376.1395317821
  0
LINE
  5
27B
100
AcDbEntity
  8
0
100
AcDbLine
 62
7
  6
CONTINUOUS
 10
209.3193292563
 20
384.7565533726
 11
210.7255792563
 21
384.2778300254
  0
LINE
  5
27C
100
AcDbEntity
  8
0
100
AcDbLine
 62
7
  6
CONTINUOUS
 10
214.0068288093
 20
377.0969784765
 11
211.6630783623
 21
378.5331485181
  0
LINE
  5
27D
100
AcDbEntity
  8
0
100
AcDbLine
 62
7
  6
CONTINUOUS
 10
213.5380779152
 20
385.2352767198
 11
211.1943288093
 21
386.6714467614
  0
LINE
  5
27E
100
AcDbEntity
  8
0
100
AcDbLine
 62
7
  6
CONTINUOUS
 10
224.7880779152
 20
366.5650636649
 11
226.1943279152
 21
365.6076168867
  0
LINE
  5
27F
100
AcDbEntity
  8
0
100
AcDbLine
 62
7
  6
CONTINUOUS
 10
211.1943288093
 20
376.1395317821
 11
212.6005788093
 21
375.1820850878
  0
LINE
  5
280
100
AcDbEntity
  8
0
100
AcDbLine
 62
7
  6
CONTINUOUS
 10
228.0693288093
 20
367.0437871798
 11
226.6630788093
 21
368.0012338741
  0
LINE
  5
281
100
AcDbEntity
  8
0
100
AcDbLine
 62
7
  6
CONTINUOUS
 10
210.7255792563
 20
384.2778300254
 11
212.1318292563
 21
383.3203833311
  0
LINE
  5
282
100
AcDbEntity
  8
0
100
AcDbLine
 62
7
  6
CONTINUOUS
 10
212.6005788093
 20
375.1820850878
 11
213.5380779152
 21
374.2246383934
  0
LINE
  5
283
100
AcDbEntity
  8
0
100
AcDbLine
 62
7
  6
CONTINUOUS
 10
215.4130788093
 20
375.660808435
 11
214.0068288093
 21
377.0969784765
  0
LINE
  5
284
100
AcDbEntity
  8
0
100
AcDbLine
 62
7
  6
CONTINUOUS
 10
200.8818285858
 20
368.4799572213
 11
202.2880792563
 21
366.5650636649
  0
LINE
  5
285
100
AcDbEntity
  8
0
100
AcDbLine
 62
7
  6
CONTINUOUS
 10
203.6943292563
 20
368.4799572213
 11
202.7568288093
 21
369.9161275982
  0
LINE
  5
286
100
AcDbEntity
  8
0
100
AcDbLine
 62
7
  6
CONTINUOUS
 10
199.9443288093
 20
370.8735742925
 11
200.8818285858
 21
368.4799572213
  0
LINE
  5
287
100
AcDbEntity
  8
0
100
AcDbLine
 62
7
  6
CONTINUOUS
 10
156.979821662
 20
519.3760048101
 11
156.7880002276
 21
520.6284864162
  0
LINE
  5
288
100
AcDbEntity
  8
0
100
AcDbLine
 62
7
  6
CONTINUOUS
 10
190.1005788093
 20
383.7991066782
 11
190.1005788093
 21
379.9693185596
  0
LINE
  5
289
100
AcDbEntity
  8
0
100
AcDbLine
 62
7
  6
CONTINUOUS
 10
192.9130788093
 20
383.3203833311
 11
192.9130788093
 21
364.6501701086
  0
LINE
  5
28A
100
AcDbEntity
  8
0
100
AcDbLine
 62
7
  6
CONTINUOUS
 10
194.4755788093
 20
545.6501701086
 11
194.4755788093
 21
533.6501701086
  0
LINE
  5
28B
100
AcDbEntity
  8
0
100
AcDbLine
 62
7
  6
CONTINUOUS
 10
195.7255788093
 20
364.6501701086
 11
195.7255788093
 21
387.1501701086
  0
LINE
  5
28C
100
AcDbEntity
  8
0
100
AcDbLine
 62
7
  6
CONTINUOUS
 10
195.9755788093
 20
533.6501701086
 11
195.9755788093
 21
539.0118723123
  0
LINE
  5
28D
100
AcDbEntity
  8
0
100
AcDbLine
 62
7
  6
CONTINUOUS
 10
195.9755788093
 20
540.5437870233
 11
195.9755788093
 21
544.3735745161
  0
LINE
  5
28E
100
AcDbEntity
  8
0
100
AcDbLine
 62
7
  6
CONTINUOUS
 10
214.7255788093
 20
536.4586807697
 11
214.9755792861
 21
537.7352763622
  0
LINE
  5
28F
100
AcDbEntity
  8
0
100
AcDbLine
 62
7
  6
CONTINUOUS
 10
225.4755778556
 20
537.7352763622
 11
225.2255788093
 21
536.7139998882
  0
LINE
  5
290
100
AcDbEntity
  8
0
100
AcDbLine
 62
7
  6
CONTINUOUS
 10
268.1384686942
 20
510.1186226144
 11
269.4204551867
 21
511.4006091069
  0
LINE
  5
291
100
AcDbEntity
  8
0
100
AcDbLine
 62
7
  6
CONTINUOUS
 10
275.2992305694
 20
517.2793844895
 11
276.5812170619
 21
518.561370982
  0
LINE
  5
292
100
AcDbEntity
  8
0
100
AcDbLine
 62
7
  6
CONTINUOUS
 10
214.9443279152
 20
383.3203833311
 11
213.5380779152
 21
385.2352767198
  0
LINE
  5
293
100
AcDbEntity
  8
0
100
AcDbLine
 62
7
  6
CONTINUOUS
 10
212.1318292563
 20
383.3203833311
 11
213.0693297034
 21
381.8842132895
  0
LINE
  5
294
100
AcDbEntity
  8
0
100
AcDbLine
 62
7
  6
CONTINUOUS
 10
151.4169975373
 20
504.786285671
 11
145.7601431192
 21
516.0999940014
  0
LINE
  5
295
100
AcDbEntity
  8
0
100
AcDbLine
 62
7
  6
CONTINUOUS
 10
144.6994829474
 20
515.0393338296
 11
149.626663265
 21
505.1624062123
  0
LINE
  5
296
100
AcDbEntity
  8
0
100
AcDbLine
 62
7
  6
CONTINUOUS
 10
202.7568288093
 20
369.9161275982
 11
202.2880792563
 21
371.3522976397
  0
LINE
  5
297
100
AcDbEntity
  8
0
100
AcDbLine
 62
7
  6
CONTINUOUS
 10
167.104989623
 20
524.8071873838
 11
167.2930491983
 21
523.9120196787
  0
LINE
  5
298
100
AcDbEntity
  8
0
100
AcDbLine
 62
7
  6
CONTINUOUS
 10
199.4755785858
 20
374.2246383934
 11
199.9443288093
 21
370.8735742925
  0
LINE
  5
299
100
AcDbEntity
  8
0
100
AcDbLine
 62
7
  6
CONTINUOUS
 10
199.4755785858
 20
377.5757018237
 11
199.4755785858
 21
374.2246383934
  0
LINE
  5
29A
100
AcDbEntity
  8
0
100
AcDbLine
 62
7
  6
CONTINUOUS
 10
201.8193283623
 20
376.6182551293
 11
201.8193283623
 21
377.5757018237
  0
LINE
  5
29B
100
AcDbEntity
  8
0
100
AcDbLine
 62
7
  6
CONTINUOUS
 10
202.2255785709
 20
542.8416598051
 11
202.2255785709
 21
542.0757017343
  0
LINE
  5
29C
100
AcDbEntity
  8
0
100
AcDbLine
 62
7
  6
CONTINUOUS
 10
202.2880792563
 20
371.3522976397
 11
202.2880792563
 21
372.7884676813
  0
LINE
  5
29D
100
AcDbEntity
  8
0
100
AcDbLine
 62
7
  6
CONTINUOUS
 10
203.7255785709
 20
541.8203826158
 11
203.7255785709
 21
542.8416598051
  0
LINE
  5
29E
100
AcDbEntity
  8
0
100
AcDbLine
 62
7
  6
CONTINUOUS
 10
205.9755785709
 20
545.6501701086
 11
205.9755785709
 21
537.7352763622
  0
LINE
  5
29F
100
AcDbEntity
  8
0
100
AcDbLine
 62
7
  6
CONTINUOUS
 10
207.4755792861
 20
537.7352763622
 11
207.4755792861
 21
545.6501701086
  0
LINE
  5
2A0
100
AcDbEntity
  8
0
100
AcDbLine
 62
7
  6
CONTINUOUS
 10
199.9443288093
 20
380.926765254
 11
199.4755785858
 21
377.5757018237
  0
LINE
  5
2A1
100
AcDbEntity
  8
0
100
AcDbLine
 62
7
  6
CONTINUOUS
 10
201.8193283623
 20
377.5757018237
 11
202.2880792563
 21
380.4480419068
  0
LINE
  5
2A2
100
AcDbEntity
  8
0
100
AcDbLine
 62
7
  6
CONTINUOUS
 10
226.7255788093
 20
536.4586807697
 11
226.9755778556
 21
537.7352763622
  0
LINE
  5
2A3
100
AcDbEntity
  8
0
100
AcDbLine
 62
7
  6
CONTINUOUS
 10
155.1819655681
 20
520.4667547971
 11
155.5468021758
 21
519.7483641245
  0
LINE
  5
2A4
100
AcDbEntity
  8
0
100
AcDbLine
 62
7
  6
CONTINUOUS
 10
156.7880002276
 20
520.6284864162
 11
156.4231636199
 21
521.3468770888
  0
LINE
  5
2A5
100
AcDbEntity
  8
0
100
AcDbLine
 62
7
  6
CONTINUOUS
 10
223.8505788093
 20
368.4799572213
 11
224.7880779152
 21
366.5650636649
  0
LINE
  5
2A6
100
AcDbEntity
  8
0
100
AcDbLine
 62
7
  6
CONTINUOUS
 10
216.3505779152
 20
373.267191699
 11
215.4130788093
 21
375.660808435
  0
LINE
  5
2A7
100
AcDbEntity
  8
0
100
AcDbLine
 62
7
  6
CONTINUOUS
 10
168.7147852566
 20
524.6116039639
 11
168.3461876749
 21
525.6873096756
  0
LINE
  5
2A8
100
AcDbEntity
  8
0
100
AcDbLine
 62
7
  6
CONTINUOUS
 10
213.5380779152
 20
374.2246383934
 11
214.0068288093
 21
372.7884676813
  0
LINE
  5
2A9
100
AcDbEntity
  8
0
100
AcDbLine
 62
7
  6
CONTINUOUS
 10
215.4130788093
 20
381.8842132895
 11
214.9443279152
 21
383.3203833311
  0
LINE
  5
2AA
100
AcDbEntity
  8
0
100
AcDbLine
 62
7
  6
CONTINUOUS
 10
226.6630788093
 20
368.0012338741
 11
226.1943279152
 21
369.437404251
  0
LINE
  5
2AB
100
AcDbEntity
  8
0
100
AcDbLine
 62
7
  6
CONTINUOUS
 10
213.4755792861
 20
545.6501701086
 11
213.4755792861
 21
537.7352763622
  0
LINE
  5
2AC
100
AcDbEntity
  8
0
100
AcDbLine
 62
7
  6
CONTINUOUS
 10
214.0068288093
 20
372.7884676813
 11
214.0068288093
 21
371.3522976397
  0
LINE
  5
2AD
100
AcDbEntity
  8
0
100
AcDbLine
 62
7
  6
CONTINUOUS
 10
214.9755792861
 20
537.7352763622
 11
214.9755792861
 21
545.6501701086
  0
LINE
  5
2AE
100
AcDbEntity
  8
0
100
AcDbLine
 62
7
  6
CONTINUOUS
 10
216.3505779152
 20
370.8735742925
 11
216.3505779152
 21
373.267191699
  0
LINE
  5
2AF
100
AcDbEntity
  8
0
100
AcDbLine
 62
7
  6
CONTINUOUS
 10
216.9755788093
 20
545.6501701086
 11
216.9755788093
 21
533.6501701086
  0
LINE
  5
2B0
100
AcDbEntity
  8
0
100
AcDbLine
 62
7
  6
CONTINUOUS
 10
218.4755788093
 20
535.1820849984
 11
218.4755788093
 21
544.1182553976
  0
LINE
  5
2B1
100
AcDbEntity
  8
0
100
AcDbLine
 62
7
  6
CONTINUOUS
 10
220.1005797034
 20
379.9693185596
 11
220.1005797034
 21
378.0544251709
  0
LINE
  5
2B2
100
AcDbEntity
  8
0
100
AcDbLine
 62
7
  6
CONTINUOUS
 10
223.8505788093
 20
383.7991066782
 11
223.8505788093
 21
379.9693185596
  0
LINE
  5
2B3
100
AcDbEntity
  8
0
100
AcDbLine
 62
7
  6
CONTINUOUS
 10
223.8505788093
 20
378.0544251709
 11
223.8505788093
 21
368.4799572213
  0
LINE
  5
2B4
100
AcDbEntity
  8
0
100
AcDbLine
 62
7
  6
CONTINUOUS
 10
225.4755778556
 20
541.5650634973
 11
225.4755778556
 21
537.7352763622
  0
LINE
  5
2B5
100
AcDbEntity
  8
0
100
AcDbLine
 62
7
  6
CONTINUOUS
 10
226.1943279152
 20
369.437404251
 11
226.1943279152
 21
378.0544251709
  0
LINE
  5
2B6
100
AcDbEntity
  8
0
100
AcDbLine
 62
7
  6
CONTINUOUS
 10
226.1943279152
 20
379.9693185596
 11
226.1943279152
 21
383.7991066782
  0
LINE
  5
2B7
100
AcDbEntity
  8
0
100
AcDbLine
 62
7
  6
CONTINUOUS
 10
202.2880792563
 20
380.4480419068
 11
202.7568288093
 21
381.8842132895
  0
LINE
  5
2B8
100
AcDbEntity
  8
0
100
AcDbLine
 62
7
  6
CONTINUOUS
 10
202.2880792563
 20
372.7884676813
 11
202.7568288093
 21
374.2246383934
  0
LINE
  5
2B9
100
AcDbEntity
  8
0
100
AcDbLine
 62
7
  6
CONTINUOUS
 10
200.8818285858
 20
383.3203833311
 11
199.9443288093
 21
380.926765254
  0
LINE
  5
2BA
100
AcDbEntity
  8
0
100
AcDbLine
 62
7
  6
CONTINUOUS
 10
202.7568288093
 20
381.8842132895
 11
203.6943292563
 21
383.3203833311
  0
LINE
  5
2BB
100
AcDbEntity
  8
0
100
AcDbLine
 62
7
  6
CONTINUOUS
 10
202.2880792563
 20
385.2352767198
 11
200.8818285858
 21
383.3203833311
  0
LINE
  5
2BC
100
AcDbEntity
  8
0
100
AcDbLine
 62
7
  6
CONTINUOUS
 10
192.9130788093
 20
387.1501701086
 11
190.1005788093
 21
383.7991066782
  0
LINE
  5
2BD
100
AcDbEntity
  8
0
100
AcDbLine
 62
7
  6
CONTINUOUS
 10
190.1005788093
 20
379.9693185596
 11
192.9130788093
 21
383.3203833311
  0
LINE
  5
2BE
100
AcDbEntity
  8
0
100
AcDbLine
 62
7
  6
CONTINUOUS
 10
157.2769574498
 20
525.0892780111
 11
157.822330926
 21
524.1903484469
  0
LINE
  5
2BF
100
AcDbEntity
  8
0
100
AcDbLine
 62
7
  6
CONTINUOUS
 10
159.0635294836
 20
525.0704702328
 11
158.6986933816
 21
525.7888624228
  0
LINE
  5
2C0
100
AcDbEntity
  8
0
100
AcDbLine
 62
7
  6
CONTINUOUS
 10
226.9755778556
 20
537.7352763622
 11
226.9755778556
 21
541.5650634973
  0
LINE
  5
2C1
100
AcDbEntity
  8
0
100
AcDbLine
 62
7
  6
CONTINUOUS
 10
230.4130779152
 20
364.6501701086
 11
230.4130779152
 21
366.5650636649
  0
LINE
  5
2C2
100
AcDbEntity
  8
0
100
AcDbLine
 62
7
  6
CONTINUOUS
 10
231.3505797034
 20
378.0544251709
 11
231.3505797034
 21
379.9693185596
  0
LINE
  5
2C3
100
AcDbEntity
  8
KONSTRUKTIONSELEMENTE
100
AcDbLine
 62
7
  6
CONTINUOUS
 10
238.7255788093
 20
354.4501701086
 11
238.7255788093
 21
274.2001701086
  0
LINE
  5
2C4
100
AcDbEntity
  8
0
100
AcDbLine
 62
7
  6
CONTINUOUS
 10
214.0068288093
 20
371.3522976397
 11
213.5380779152
 21
369.9161275982
  0
LINE
  5
2C5
100
AcDbEntity
  8
0
100
AcDbLine
 62
7
  6
CONTINUOUS
 10
215.4130788093
 20
368.4799572213
 11
216.3505779152
 21
370.8735742925
  0
LINE
  5
2C6
100
AcDbEntity
  8
0
100
AcDbLine
 62
7
  6
CONTINUOUS
 10
213.5380779152
 20
369.9161275982
 11
212.6005788093
 21
368.4799572213
  0
LINE
  5
2C7
100
AcDbEntity
  8
0
100
AcDbLine
 62
7
  6
CONTINUOUS
 10
202.7568288093
 20
374.2246383934
 11
203.6943292563
 21
375.1820850878
  0
LINE
  5
2C8
100
AcDbEntity
  8
0
100
AcDbLine
 62
7
  6
CONTINUOUS
 10
203.6943292563
 20
383.3203833311
 11
205.1005792563
 21
384.2778300254
  0
LINE
  5
2C9
100
AcDbEntity
  8
0
100
AcDbLine
 62
7
  6
CONTINUOUS
 10
204.6318283623
 20
378.5331485181
 11
201.8193283623
 21
376.6182551293
  0
LINE
  5
2CA
100
AcDbEntity
  8
0
100
AcDbLine
 62
7
  6
CONTINUOUS
 10
204.6318283623
 20
386.6714467614
 11
202.2880792563
 21
385.2352767198
  0
LINE
  5
2CB
100
AcDbEntity
  8
0
100
AcDbLine
 62
7
  6
CONTINUOUS
 10
147.1743568502
 20
517.5142077323
 11
155.6596382244
 21
509.0289263581
  0
LINE
  5
2CC
100
AcDbEntity
  8
0
100
AcDbLine
 62
7
  6
CONTINUOUS
 10
156.7202983962
 20
510.0895865299
 11
152.9290024092
 21
513.8808825168
  0
LINE
  5
2CD
100
AcDbEntity
  8
0
100
AcDbLine
 62
7
  6
CONTINUOUS
 10
151.8457751289
 20
514.9641097972
 11
149.1377064222
 21
517.6721785038
  0
LINE
  5
2CE
100
AcDbEntity
  8
0
100
AcDbLine
 62
7
  6
CONTINUOUS
 10
207.7255783325
 20
536.7139998882
 11
207.4755792861
 21
537.7352763622
  0
LINE
  5
2CF
100
AcDbEntity
  8
0
100
AcDbLine
 62
7
  6
CONTINUOUS
 10
205.9755785709
 20
537.7352763622
 11
206.2255790477
 21
536.4586807697
  0
LINE
  5
2D0
100
AcDbEntity
  8
KONSTRUKTIONSELEMENTE
100
AcDbLine
 62
7
  6
CONTINUOUS
 10
251.7255788093
 20
354.6501701086
 11
251.7255788093
 21
354.4501701086
  0
LINE
  5
2D1
100
AcDbEntity
  8
0
100
AcDbLine
 62
7
  6
CONTINUOUS
 10
214.0068288093
 20
366.5650636649
 11
215.4130788093
 21
368.4799572213
  0
LINE
  5
2D2
100
AcDbEntity
  8
0
100
AcDbLine
 62
7
  6
CONTINUOUS
 10
203.6943292563
 20
375.1820850878
 11
205.1005792563
 21
376.1395317821
  0
LINE
  5
2D3
100
AcDbEntity
  8
0
100
AcDbLine
 62
7
  6
CONTINUOUS
 10
212.6005788093
 20
368.4799572213
 11
211.1943288093
 21
367.522510527
  0
LINE
  5
2D4
100
AcDbEntity
  8
0
100
AcDbLine
 62
7
  6
CONTINUOUS
 10
205.1005792563
 20
384.2778300254
 11
206.5068292563
 21
384.7565533726
  0
LINE
  5
2D5
100
AcDbEntity
  8
0
100
AcDbLine
 62
7
  6
CONTINUOUS
 10
205.1005792563
 20
376.1395317821
 11
206.5068292563
 21
376.6182551293
  0
LINE
  5
2D6
100
AcDbEntity
  8
0
100
AcDbLine
 62
7
  6
CONTINUOUS
 10
154.6403514222
 20
521.008368943
 11
155.1819655681
 21
520.4667547971
  0
LINE
  5
2D7
100
AcDbEntity
  8
0
100
AcDbLine
 62
7
  6
CONTINUOUS
 10
156.4231636199
 20
521.3468770888
 11
155.701011594
 21
522.0690291148
  0
LINE
  5
2D8
100
AcDbEntity
  8
0
100
AcDbLine
 62
7
  6
CONTINUOUS
 10
157.822330926
 20
524.1903484469
 11
158.544482952
 21
523.4681964209
  0
LINE
  5
2D9
100
AcDbEntity
  8
0
100
AcDbLine
 62
7
  6
CONTINUOUS
 10
159.4246052437
 20
524.7093944727
 11
159.0635294836
 21
525.0704702328
  0
LINE
  5
2DA
100
AcDbEntity
  8
0
100
AcDbLine
 62
7
  6
CONTINUOUS
 10
203.9755790477
 20
533.6501701086
 11
201.7255790477
 21
539.5225105493
  0
LINE
  5
2DB
100
AcDbEntity
  8
0
100
AcDbLine
 62
7
  6
CONTINUOUS
 10
200.2255786901
 20
539.0118723123
 11
202.2255785709
 21
533.6501701086
  0
LINE
  5
2DC
100
AcDbEntity
  8
0
100
AcDbLine
 62
7
  6
CONTINUOUS
 10
201.9755788093
 20
543.6076171606
 11
202.2255785709
 21
542.8416598051
  0
LINE
  5
2DD
100
AcDbEntity
  8
0
100
AcDbLine
 62
7
  6
CONTINUOUS
 10
203.7255785709
 20
542.8416598051
 11
203.4755788093
 21
543.6076171606
  0
LINE
  5
2DE
100
AcDbEntity
  8
0
100
AcDbLine
 62
7
  6
CONTINUOUS
 10
226.9755778556
 20
541.5650634973
 11
226.7255788093
 21
542.8416598051
  0
LINE
  5
2DF
100
AcDbEntity
  8
0
100
AcDbLine
 62
7
  6
CONTINUOUS
 10
211.6630783623
 20
365.1288934977
 11
214.0068288093
 21
366.5650636649
  0
LINE
  5
2E0
100
AcDbEntity
  8
0
100
AcDbLine
 62
7
  6
CONTINUOUS
 10
211.1943288093
 20
367.522510527
 11
209.7880788093
 21
367.0437871798
  0
LINE
  5
2E1
100
AcDbEntity
  8
0
100
AcDbLine
 62
7
  6
CONTINUOUS
 10
149.626663265
 20
505.1624062123
 11
139.7497356477
 21
510.0895865299
  0
LINE
  5
2E2
100
AcDbEntity
  8
0
100
AcDbLine
 62
7
  6
CONTINUOUS
 10
138.6890754759
 20
509.0289263581
 11
150.0027840592
 21
503.3720721929
  0
LINE
  5
2E3
100
AcDbEntity
  8
0
100
AcDbLine
 62
7
  6
CONTINUOUS
 10
166.5633759828
 20
525.348801024
 11
167.104989623
 21
524.8071873838
  0
LINE
  5
2E4
100
AcDbEntity
  8
0
100
AcDbLine
 62
7
  6
CONTINUOUS
 10
168.3461876749
 20
525.6873096756
 11
167.4434982746
 21
526.5899990758
  0
LINE
  5
2E5
100
AcDbEntity
  8
0
100
AcDbLine
 62
7
  6
CONTINUOUS
 10
206.2255790477
 20
536.4586807697
 11
206.7255792861
 21
535.4374041169
  0
LINE
  5
2E6
100
AcDbEntity
  8
0
100
AcDbLine
 62
7
  6
CONTINUOUS
 10
225.2255788093
 20
542.5863399713
 11
225.4755778556
 21
541.5650634973
  0
LINE
  5
2E7
100
AcDbEntity
  8
0
100
AcDbLine
 62
7
  6
CONTINUOUS
 10
162.3771523085
 20
515.7464404422
 11
156.6337903037
 21
518.3078219316
  0
LINE
  5
2E8
100
AcDbEntity
  8
0
100
AcDbLine
 62
7
  6
CONTINUOUS
 10
155.9342058921
 20
516.8860859997
 11
161.1397161158
 21
514.5090042494
  0
LINE
  5
2E9
100
AcDbEntity
  8
0
100
AcDbLine
 62
7
  6
CONTINUOUS
 10
153.9219607495
 20
521.3732055507
 11
154.6403514222
 21
521.008368943
  0
LINE
  5
2EA
100
AcDbEntity
  8
0
100
AcDbLine
 62
7
  6
CONTINUOUS
 10
155.701011594
 20
522.0690291148
 11
154.9826209213
 21
522.4338657225
  0
LINE
  5
2EB
100
AcDbEntity
  8
0
100
AcDbLine
 62
7
  6
CONTINUOUS
 10
163.223424696
 20
520.2034709366
 11
162.5050330118
 21
520.5683065328
  0
LINE
  5
2EC
100
AcDbEntity
  8
0
100
AcDbLine
 62
7
  6
CONTINUOUS
 10
161.4443738516
 20
519.5076473725
 11
162.3433013928
 21
518.9622718732
  0
LINE
  5
2ED
100
AcDbEntity
  8
0
100
AcDbLine
 62
7
  6
CONTINUOUS
 10
158.544482952
 20
523.4681964209
 11
159.4434125162
 21
522.9228229446
  0
LINE
  5
2EE
100
AcDbEntity
  8
0
100
AcDbLine
 62
7
  6
CONTINUOUS
 10
203.4755788093
 20
543.6076171606
 11
202.7255788093
 21
544.6288936346
  0
LINE
  5
2EF
100
AcDbEntity
  8
0
100
AcDbLine
 62
7
  6
CONTINUOUS
 10
208.2255792861
 20
535.9480425327
 11
207.7255783325
 21
536.7139998882
  0
LINE
  5
2F0
100
AcDbEntity
  8
0
100
AcDbLine
 62
7
  6
CONTINUOUS
 10
226.7255788093
 20
542.8416598051
 11
226.2255778556
 21
543.8629362791
  0
LINE
  5
2F1
100
AcDbEntity
  8
BEZUGSACHSEN
100
AcDbLine
 62
7
  6
CONTINUOUS
 10
314.7210999651
 20
456.8726742644
 11
280.9183095621
 21
375.560437387
  0
LINE
  5
2F2
100
AcDbEntity
  8
0
100
AcDbLine
 62
7
  6
CONTINUOUS
 10
160.1429969279
 20
524.3445588765
 11
159.4246052437
 21
524.7093944727
  0
LINE
  5
2F3
100
AcDbEntity
  8
0
100
AcDbLine
 62
7
  6
CONTINUOUS
 10
163.3024098289
 20
529.6704273498
 11
162.5840181447
 21
530.0352629459
  0
LINE
  5
2F4
100
AcDbEntity
  8
0
100
AcDbLine
 62
7
  6
CONTINUOUS
 10
206.7255792861
 20
535.4374041169
 11
207.7255783325
 21
534.4161275535
  0
LINE
  5
2F5
100
AcDbEntity
  8
0
100
AcDbLine
 62
7
  6
CONTINUOUS
 10
201.4755785709
 20
544.1182553976
 11
201.9755788093
 21
543.6076171606
  0
LINE
  5
2F6
100
AcDbEntity
  8
0
100
AcDbLine
 62
7
  6
CONTINUOUS
 10
224.7255778556
 20
543.3522980421
 11
225.2255788093
 21
542.5863399713
  0
LINE
  5
2F7
100
AcDbEntity
  8
0
100
AcDbLine
 62
7
  6
CONTINUOUS
 10
154.9826209213
 20
522.4338657225
 11
153.7301393152
 21
522.6256871569
  0
LINE
  5
2F8
100
AcDbEntity
  8
0
100
AcDbLine
 62
7
  6
CONTINUOUS
 10
165.6682080249
 20
525.5368608521
 11
166.5633759828
 21
525.348801024
  0
LINE
  5
2F9
100
AcDbEntity
  8
0
100
AcDbLine
 62
7
  6
CONTINUOUS
 10
162.3433013928
 20
518.9622718732
 11
163.7763220801
 21
518.5899133807
  0
LINE
  5
2FA
100
AcDbEntity
  8
0
100
AcDbLine
 62
7
  6
CONTINUOUS
 10
167.4434982746
 20
526.5899990758
 11
166.3677924365
 21
526.958596784
  0
LINE
  5
2FB
100
AcDbEntity
  8
0
100
AcDbLine
 62
7
  6
CONTINUOUS
 10
161.703895853
 20
528.7940648941
 11
162.2417496571
 21
528.609767178
  0
LINE
  5
2FC
100
AcDbEntity
  8
0
100
AcDbLine
 62
7
  6
CONTINUOUS
 10
208.9755792861
 20
535.4374041169
 11
208.2255792861
 21
535.9480425327
  0
LINE
  5
2FD
100
AcDbEntity
  8
0
100
AcDbLine
 62
7
  6
CONTINUOUS
 10
202.7255788093
 20
544.6288936346
 11
201.7255790477
 21
545.3948509901
  0
LINE
  5
2FE
100
AcDbEntity
  8
0
100
AcDbLine
 62
7
  6
CONTINUOUS
 10
223.9755778556
 20
535.4374041169
 11
222.9755788093
 21
535.1820849984
  0
LINE
  5
2FF
100
AcDbEntity
  8
0
100
AcDbLine
 62
7
  6
CONTINUOUS
 10
163.7763220801
 20
518.5899133807
 11
165.2018178955
 21
518.9321818209
  0
LINE
  5
300
100
AcDbEntity
  8
0
100
AcDbLine
 62
7
  6
CONTINUOUS
 10
222.9755788093
 20
533.6501701086
 11
224.225579763
 21
533.9054892494
  0
LINE
  5
301
100
AcDbEntity
  8
0
100
AcDbLine
 62
7
  6
CONTINUOUS
 10
153.7301393152
 20
522.6256871569
 11
152.4814185567
 21
522.4601936787
  0
LINE
  5
302
100
AcDbEntity
  8
0
100
AcDbLine
 62
7
  6
CONTINUOUS
 10
164.2953685485
 20
520.1921872559
 11
163.223424696
 21
520.2034709366
  0
LINE
  5
303
100
AcDbEntity
  8
0
100
AcDbLine
 62
7
  6
CONTINUOUS
 10
153.207331936
 20
521.3807282574
 11
153.9219607495
 21
521.3732055507
  0
LINE
  5
304
100
AcDbEntity
  8
0
100
AcDbLine
 62
7
  6
CONTINUOUS
 10
159.4434125162
 20
522.9228229446
 11
160.8726701433
 21
522.9077775312
  0
LINE
  5
305
100
AcDbEntity
  8
0
100
AcDbLine
 62
7
  6
CONTINUOUS
 10
166.3677924365
 20
526.958596784
 11
164.9385348094
 21
526.9736421974
  0
LINE
  5
306
100
AcDbEntity
  8
0
100
AcDbLine
 62
7
  6
CONTINUOUS
 10
160.989268051
 20
528.8015886123
 11
161.703895853
 21
528.7940648941
  0
LINE
  5
307
100
AcDbEntity
  8
0
100
AcDbLine
 62
7
  6
CONTINUOUS
 10
162.5840181447
 20
530.0352629459
 11
161.3315365386
 21
530.2270843803
  0
LINE
  5
308
100
AcDbEntity
  8
0
100
AcDbLine
 62
7
  6
CONTINUOUS
 10
207.7255783325
 20
534.4161275535
 11
208.7255788093
 21
533.9054892494
  0
LINE
  5
309
100
AcDbEntity
  8
0
100
AcDbLine
 62
7
  6
CONTINUOUS
 10
223.9755778556
 20
543.8629362791
 11
224.7255778556
 21
543.3522980421
  0
LINE
  5
30A
100
AcDbEntity
  8
0
100
AcDbLine
 62
7
  6
CONTINUOUS
 10
268.3983207654
 20
517.0287267047
 11
270.8749186375
 21
514.5521288326
  0
LINE
  5
30B
100
AcDbEntity
  8
0
100
AcDbLine
 62
7
  6
CONTINUOUS
 10
226.2255778556
 20
543.8629362791
 11
225.2255788093
 21
544.8842127531
  0
LINE
  5
30C
100
AcDbEntity
  8
KONSTRUKTIONSELEMENTE
100
AcDbLine
 62
7
  6
CONTINUOUS
 10
238.7255788093
 20
274.2001701086
 11
234.9755788093
 21
270.4501701086
  0
LINE
  5
30D
100
AcDbEntity
  8
0
100
AcDbLine
 62
7
  6
CONTINUOUS
 10
211.9755792861
 20
535.4374041169
 11
210.9755788093
 21
535.1820849984
  0
LINE
  5
30E
100
AcDbEntity
  8
0
100
AcDbLine
 62
7
  6
CONTINUOUS
 10
210.9755788093
 20
533.6501701086
 11
212.2255783325
 21
533.9054892494
  0
LINE
  5
30F
100
AcDbEntity
  8
0
100
AcDbLine
 62
7
  6
CONTINUOUS
 10
161.0344027739
 20
524.5138132023
 11
160.1429969279
 21
524.3445588765
  0
LINE
  5
310
100
AcDbEntity
  8
0
100
AcDbLine
 62
7
  6
CONTINUOUS
 10
164.7768021788
 20
525.3676065263
 11
165.6682080249
 21
525.5368608521
  0
LINE
  5
311
100
AcDbEntity
  8
0
100
AcDbLine
 62
7
  6
CONTINUOUS
 10
161.3315365386
 20
530.2270843803
 11
160.0828167916
 21
530.0615919136
  0
LINE
  5
312
100
AcDbEntity
  8
0
100
AcDbLine
 62
7
  6
CONTINUOUS
 10
194.4755788093
 20
533.6501701086
 11
195.9755788093
 21
533.6501701086
  0
LINE
  5
313
100
AcDbEntity
  8
0
100
AcDbLine
 62
7
  6
CONTINUOUS
 10
202.2255785709
 20
533.6501701086
 11
203.9755790477
 21
533.6501701086
  0
LINE
  5
314
100
AcDbEntity
  8
0
100
AcDbLine
 62
7
  6
CONTINUOUS
 10
209.9755783325
 20
533.6501701086
 11
210.9755788093
 21
533.6501701086
  0
LINE
  5
315
100
AcDbEntity
  8
0
100
AcDbLine
 62
7
  6
CONTINUOUS
 10
216.9755788093
 20
533.6501701086
 11
222.9755788093
 21
533.6501701086
  0
LINE
  5
316
100
AcDbEntity
  8
0
100
AcDbLine
 62
7
  6
CONTINUOUS
 10
222.9755788093
 20
535.1820849984
 11
218.4755788093
 21
535.1820849984
  0
LINE
  5
317
100
AcDbEntity
  8
0
100
AcDbLine
 62
7
  6
CONTINUOUS
 10
210.9755788093
 20
535.1820849984
 11
209.9755783325
 21
535.1820849984
  0
LINE
  5
318
100
AcDbEntity
  8
0
100
AcDbLine
 62
7
  6
CONTINUOUS
 10
195.9755788093
 20
539.0118723123
 11
200.2255786901
 21
539.0118723123
  0
LINE
  5
319
100
AcDbEntity
  8
0
100
AcDbLine
 62
7
  6
CONTINUOUS
 10
200.7255785709
 20
540.5437870233
 11
195.9755788093
 21
540.5437870233
  0
LINE
  5
31A
100
AcDbEntity
  8
0
100
AcDbLine
 62
7
  6
CONTINUOUS
 10
208.7255788093
 20
533.9054892494
 11
209.9755783325
 21
533.6501701086
  0
LINE
  5
31B
100
AcDbEntity
  8
0
100
AcDbLine
 62
7
  6
CONTINUOUS
 10
201.7255790477
 20
545.3948509901
 11
200.4755788093
 21
545.6501701086
  0
LINE
  5
31C
100
AcDbEntity
  8
0
100
AcDbLine
 62
7
  6
CONTINUOUS
 10
209.9755783325
 20
535.1820849984
 11
208.9755792861
 21
535.4374041169
  0
LINE
  5
31D
100
AcDbEntity
  8
0
100
AcDbLine
 62
7
  6
CONTINUOUS
 10
222.9755788093
 20
544.1182553976
 11
223.9755778556
 21
543.8629362791
  0
LINE
  5
31E
100
AcDbEntity
  8
0
100
AcDbLine
 62
7
  6
CONTINUOUS
 10
200.7255785709
 20
544.3735745161
 11
201.4755785709
 21
544.1182553976
  0
LINE
  5
31F
100
AcDbEntity
  8
0
100
AcDbLine
 62
7
  6
CONTINUOUS
 10
225.2255788093
 20
544.8842127531
 11
224.225579763
 21
545.3948509901
  0
LINE
  5
320
100
AcDbEntity
  8
0
100
AcDbLine
 62
7
  6
CONTINUOUS
 10
272.15690513
 20
515.8341153251
 11
269.6823395989
 21
518.3086808562
  0
LINE
  5
321
100
AcDbEntity
  8
RUNDUNGEN
100
AcDbLine
 62
7
  6
CONTINUOUS
 10
285.6899559795
 20
533.8696848798
 11
314.1496517136
 21
465.1619014576
  0
LINE
  5
322
100
AcDbEntity
  8
BEZUGSACHSEN
100
AcDbLine
 62
7
  6
CONTINUOUS
 10
314.1496517136
 20
465.1619014576
 11
314.7255209922
 21
463.7716300349
  0
LINE
  5
323
100
AcDbEntity
  8
0
100
AcDbLine
 62
7
  6
CONTINUOUS
 10
218.4755788093
 20
544.1182553976
 11
222.9755788093
 21
544.1182553976
  0
LINE
  5
324
100
AcDbEntity
  8
0
100
AcDbLine
 62
7
  6
CONTINUOUS
 10
195.9755788093
 20
544.3735745161
 11
200.7255785709
 21
544.3735745161
  0
LINE
  5
325
100
AcDbEntity
  8
0
100
AcDbLine
 62
7
  6
CONTINUOUS
 10
222.9755788093
 20
545.6501701086
 11
216.9755788093
 21
545.6501701086
  0
LINE
  5
326
100
AcDbEntity
  8
0
100
AcDbLine
 62
7
  6
CONTINUOUS
 10
214.9755792861
 20
545.6501701086
 11
213.4755792861
 21
545.6501701086
  0
LINE
  5
327
100
AcDbEntity
  8
0
100
AcDbLine
 62
7
  6
CONTINUOUS
 10
207.4755792861
 20
545.6501701086
 11
205.9755785709
 21
545.6501701086
  0
LINE
  5
328
100
AcDbEntity
  8
0
100
AcDbLine
 62
7
  6
CONTINUOUS
 10
200.4755788093
 20
545.6501701086
 11
194.4755788093
 21
545.6501701086
  0
LINE
  5
329
100
AcDbEntity
  8
0
100
AcDbLine
 62
7
  6
CONTINUOUS
 10
224.225579763
 20
545.3948509901
 11
222.9755788093
 21
545.6501701086
  0
LINE
  5
32A
100
AcDbEntity
  8
RUNDUNGEN
100
AcDbLine
 62
7
  6
CONTINUOUS
 10
213.9508903552
 20
564.4120890043
 11
280.6003517328
 21
538.827757827
  0
LINE
  5
32B
100
AcDbEntity
  8
KONSTRUKTIONSELEMENTE
100
AcDbLine
 62
7
  6
CONTINUOUS
 10
518.9580592645
 20
270.4501701086
 11
567.4576642019
 21
270.4501701086
  0
LINE
  5
32C
100
AcDbEntity
  8
KONSTRUKTIONSELEMENTE
100
AcDbLine
 62
7
  6
CONTINUOUS
 10
515.2078617332
 20
274.2001701086
 11
571.2078617332
 21
274.2001701086
  0
LINE
  5
32D
100
AcDbEntity
  8
KONSTRUKTIONSELEMENTE
100
AcDbLine
 62
7
  6
CONTINUOUS
 10
515.2078617332
 20
274.2001701086
 11
518.9578617332
 21
270.4501701086
  0
LINE
  5
32E
100
AcDbEntity
  8
0
100
AcDbLine
 62
7
  6
CONTINUOUS
 10
473.3633598259
 20
386.7671914125
 11
474.394486948
 21
384.2778303298
  0
LINE
  5
32F
100
AcDbEntity
  8
0
100
AcDbLine
 62
7
  6
CONTINUOUS
 10
476.6946945923
 20
378.7246378387
 11
477.6993826801
 21
376.2991062312
  0
LINE
  5
330
100
AcDbEntity
  8
0
100
AcDbLine
 62
7
  6
CONTINUOUS
 10
481.4008655533
 20
367.3629360779
 11
482.4055537695
 21
364.9374041603
  0
LINE
  5
331
100
AcDbEntity
  8
BEZUGSACHSEN
100
AcDbLine
 62
7
  6
CONTINUOUS
 10
471.352570075
 20
392.9282302652
 11
473.9045559261
 21
386.7671914125
  0
LINE
  5
332
100
AcDbEntity
  8
BEZUGSACHSEN
100
AcDbLine
 62
7
  6
CONTINUOUS
 10
475.9271516894
 20
381.8842132895
 11
477.2358906925
 21
378.7246378387
  0
LINE
  5
333
100
AcDbEntity
  8
BEZUGSACHSEN
100
AcDbLine
 62
7
  6
CONTINUOUS
 10
482.9467498697
 20
364.9374041603
 11
487.2078617332
 21
354.6501701086
  0
LINE
  5
334
100
AcDbEntity
  8
KONSTRUKTIONSELEMENTE
100
AcDbLine
 62
7
  6
CONTINUOUS
 10
502.2078617332
 20
354.6501701086
 11
502.2078617332
 21
354.4501701086
  0
LINE
  5
335
100
AcDbEntity
  8
KONSTRUKTIONSELEMENTE
100
AcDbLine
 62
7
  6
CONTINUOUS
 10
515.2078617332
 20
354.4501701086
 11
515.2078617332
 21
274.2001701086
  0
LINE
  5
336
100
AcDbEntity
  8
KONSTRUKTIONSELEMENTE
100
AcDbLine
 62
7
  6
CONTINUOUS
 10
502.2078617332
 20
354.4501701086
 11
584.2078617332
 21
354.4501701086
  0
LINE
  5
337
100
AcDbEntity
  8
BEZUGSACHSEN
100
AcDbLine
 62
7
  6
CONTINUOUS
 10
487.2078617332
 20
354.6501701086
 11
599.2078617332
 21
354.6501701086
  0
LINE
  5
338
100
AcDbEntity
  8
BEZUGSACHSEN
100
AcDbLine
 62
7
  6
CONTINUOUS
 10
521.2078617332
 20
440.5884499648
 11
521.2078617332
 21
557.0098651658
  0
LINE
  5
339
100
AcDbEntity
  8
0
100
AcDbLine
 62
7
  6
CONTINUOUS
 10
485.8317615198
 20
364.6501701086
 11
485.2687529306
 21
364.6501701086
  0
LINE
  5
33A
100
AcDbEntity
  8
0
100
AcDbLine
 62
7
  6
CONTINUOUS
 10
483.0657261095
 20
364.6501701086
 11
482.5382449762
 21
364.6501701086
  0
LINE
  5
33B
100
AcDbEntity
  8
0
100
AcDbLine
 62
7
  6
CONTINUOUS
 10
601.0955513322
 20
364.6501701086
 11
602.3137994736
 21
364.6501701086
  0
LINE
  5
33C
100
AcDbEntity
  8
0
100
AcDbLine
 62
7
  6
CONTINUOUS
 10
603.2517430265
 20
364.6501701086
 11
603.8774784902
 21
364.6501701086
  0
LINE
  5
33D
100
AcDbEntity
  8
0
100
AcDbLine
 62
7
  6
CONTINUOUS
 10
482.8735577515
 20
365.1288934977
 11
482.332315669
 21
365.1288934977
  0
LINE
  5
33E
100
AcDbEntity
  8
0
100
AcDbLine
 62
7
  6
CONTINUOUS
 10
603.289384644
 20
365.1288934977
 11
603.832525832
 21
365.1288934977
  0
LINE
  5
33F
100
AcDbEntity
  8
0
100
AcDbLine
 62
7
  6
CONTINUOUS
 10
485.0064918231
 20
366.5650636649
 11
484.4439986323
 21
366.5650636649
  0
LINE
  5
340
100
AcDbEntity
  8
0
100
AcDbLine
 62
7
  6
CONTINUOUS
 10
482.3469406172
 20
366.5650636649
 11
481.8051911606
 21
366.5650636649
  0
LINE
  5
341
100
AcDbEntity
  8
0
100
AcDbLine
 62
7
  6
CONTINUOUS
 10
603.6502007339
 20
366.5650636649
 11
604.195082846
 21
366.5650636649
  0
LINE
  5
342
100
AcDbEntity
  8
0
100
AcDbLine
 62
7
  6
CONTINUOUS
 10
604.8766494891
 20
367.0437871798
 11
604.7609284646
 21
367.0437871798
  0
LINE
  5
343
100
AcDbEntity
  8
0
100
AcDbLine
 62
7
  6
CONTINUOUS
 10
484.1789032312
 20
367.0437871798
 11
483.6215392198
 21
367.0437871798
  0
LINE
  5
344
100
AcDbEntity
  8
0
100
AcDbLine
 62
7
  6
CONTINUOUS
 10
604.8650471097
 20
367.522510527
 11
605.0794565485
 21
367.522510527
  0
LINE
  5
345
100
AcDbEntity
  8
0
100
AcDbLine
 62
7
  6
CONTINUOUS
 10
483.4398788477
 20
368.0012338741
 11
482.8853024824
 21
368.0012338741
  0
LINE
  5
346
100
AcDbEntity
  8
0
100
AcDbLine
 62
7
  6
CONTINUOUS
 10
481.6295584396
 20
368.4799572213
 11
481.0872568475
 21
368.4799572213
  0
LINE
  5
347
100
AcDbEntity
  8
0
100
AcDbLine
 62
7
  6
CONTINUOUS
 10
604.2719076014
 20
368.4799572213
 11
604.8180320075
 21
368.4799572213
  0
LINE
  5
348
100
AcDbEntity
  8
0
100
AcDbLine
 62
7
  6
CONTINUOUS
 10
605.141797282
 20
368.4799572213
 11
605.4536940718
 21
368.4799572213
  0
LINE
  5
349
100
AcDbEntity
  8
0
100
AcDbLine
 62
7
  6
CONTINUOUS
 10
482.7275029225
 20
369.437404251
 11
482.1739489424
 21
369.437404251
  0
LINE
  5
34A
100
AcDbEntity
  8
0
100
AcDbLine
 62
7
  6
CONTINUOUS
 10
605.6444221166
 20
369.9161275982
 11
606.0192026079
 21
369.9161275982
  0
LINE
  5
34B
100
AcDbEntity
  8
0
100
AcDbLine
 62
7
  6
CONTINUOUS
 10
480.7013072217
 20
370.8735742925
 11
480.1585603482
 21
370.8735742925
  0
LINE
  5
34C
100
AcDbEntity
  8
0
100
AcDbLine
 62
7
  6
CONTINUOUS
 10
605.1408763751
 20
370.8735742925
 11
605.6878430003
 21
370.8735742925
  0
LINE
  5
34D
100
AcDbEntity
  8
0
100
AcDbLine
 62
7
  6
CONTINUOUS
 10
606.1911754873
 20
371.3522976397
 11
606.595445912
 21
371.3522976397
  0
LINE
  5
34E
100
AcDbEntity
  8
0
100
AcDbLine
 62
7
  6
CONTINUOUS
 10
606.7898659305
 20
372.7884676813
 11
607.190899486
 21
372.7884676813
  0
LINE
  5
34F
100
AcDbEntity
  8
0
100
AcDbLine
 62
7
  6
CONTINUOUS
 10
479.7069897501
 20
373.267191699
 11
479.1642838571
 21
373.267191699
  0
LINE
  5
350
100
AcDbEntity
  8
0
100
AcDbLine
 62
7
  6
CONTINUOUS
 10
606.4746482002
 20
374.2246383934
 11
607.0219036966
 21
374.2246383934
  0
LINE
  5
351
100
AcDbEntity
  8
0
100
AcDbLine
 62
7
  6
CONTINUOUS
 10
607.4392493547
 20
374.2246383934
 11
607.8051081877
 21
374.2246383934
  0
LINE
  5
352
100
AcDbEntity
  8
0
100
AcDbLine
 62
7
  6
CONTINUOUS
 10
607.9302550461
 20
375.1820850878
 11
608.2306816603
 21
375.1820850878
  0
LINE
  5
353
100
AcDbEntity
  8
0
100
AcDbLine
 62
7
  6
CONTINUOUS
 10
478.6492206735
 20
375.660808435
 11
478.107004334
 21
375.660808435
  0
LINE
  5
354
100
AcDbEntity
  8
0
100
AcDbLine
 62
7
  6
CONTINUOUS
 10
608.4444743366
 20
376.1395317821
 11
608.6488140703
 21
376.1395317821
  0
LINE
  5
355
100
AcDbEntity
  8
0
100
AcDbLine
 62
7
  6
CONTINUOUS
 10
608.733134376
 20
376.6182551293
 11
608.8428369489
 21
376.6182551293
  0
LINE
  5
356
100
AcDbEntity
  8
0
100
AcDbLine
 62
7
  6
CONTINUOUS
 10
477.9802043492
 20
377.0969784765
 11
477.438516373
 21
377.0969784765
  0
LINE
  5
357
100
AcDbEntity
  8
0
100
AcDbLine
 62
7
  6
CONTINUOUS
 10
607.8781984758
 20
377.5757018237
 11
608.4252317618
 21
377.5757018237
  0
LINE
  5
358
100
AcDbEntity
  8
0
100
AcDbLine
 62
7
  6
CONTINUOUS
 10
477.5392007764
 20
378.0544251709
 11
478.0878191968
 21
378.0544251709
  0
LINE
  5
359
100
AcDbEntity
  8
0
100
AcDbLine
 62
7
  6
CONTINUOUS
 10
478.5270617908
 20
378.0544251709
 11
480.3246895225
 21
378.0544251709
  0
LINE
  5
35A
100
AcDbEntity
  8
0
100
AcDbLine
 62
7
  6
CONTINUOUS
 10
477.3208886445
 20
378.5331485181
 11
476.7796529707
 21
378.5331485181
  0
LINE
  5
35B
100
AcDbEntity
  8
0
100
AcDbLine
 62
7
  6
CONTINUOUS
 10
609.149395937
 20
378.5331485181
 11
609.4032880728
 21
378.5331485181
  0
LINE
  5
35C
100
AcDbEntity
  8
0
100
AcDbLine
 62
7
  6
CONTINUOUS
 10
477.1169144631
 20
379.0118718653
 11
476.5883765519
 21
379.0118718653
  0
LINE
  5
35D
100
AcDbEntity
  8
0
100
AcDbLine
 62
7
  6
CONTINUOUS
 10
609.3577154306
 20
379.0118718653
 11
609.8273469145
 21
379.0118718653
  0
LINE
  5
35E
100
AcDbEntity
  8
0
100
AcDbLine
 62
7
  6
CONTINUOUS
 10
479.5013388539
 20
379.9693185596
 11
477.7176487745
 21
379.9693185596
  0
LINE
  5
35F
100
AcDbEntity
  8
0
100
AcDbLine
 62
7
  6
CONTINUOUS
 10
477.2830824435
 20
379.9693185596
 11
476.7402033552
 21
379.9693185596
  0
LINE
  5
360
100
AcDbEntity
  8
0
100
AcDbLine
 62
7
  6
CONTINUOUS
 10
606.9143848589
 20
379.9693185596
 11
607.4756348111
 21
379.9693185596
  0
LINE
  5
361
100
AcDbEntity
  8
0
100
AcDbLine
 62
7
  6
CONTINUOUS
 10
476.522033354
 20
380.4480419068
 11
476.433831657
 21
380.4480419068
  0
LINE
  5
362
100
AcDbEntity
  8
0
100
AcDbLine
 62
7
  6
CONTINUOUS
 10
609.3476930341
 20
380.926765254
 11
609.8940489218
 21
380.926765254
  0
LINE
  5
363
100
AcDbEntity
  8
0
100
AcDbLine
 62
7
  6
CONTINUOUS
 10
475.4205798136
 20
381.8842132895
 11
476.0666273505
 21
381.8842132895
  0
LINE
  5
364
100
AcDbEntity
  8
0
100
AcDbLine
 62
7
  6
CONTINUOUS
 10
610.6289029248
 20
381.8842132895
 11
610.9951436528
 21
381.8842132895
  0
LINE
  5
365
100
AcDbEntity
  8
0
100
AcDbLine
 62
7
  6
CONTINUOUS
 10
475.4443795672
 20
383.3203833311
 11
474.9024224742
 21
383.3203833311
  0
LINE
  5
366
100
AcDbEntity
  8
0
100
AcDbLine
 62
7
  6
CONTINUOUS
 10
610.4713863142
 20
383.3203833311
 11
611.0167630406
 21
383.3203833311
  0
LINE
  5
367
100
AcDbEntity
  8
0
100
AcDbLine
 62
7
  6
CONTINUOUS
 10
611.3150698643
 20
383.3203833311
 11
611.6122768009
 21
383.3203833311
  0
LINE
  5
368
100
AcDbEntity
  8
0
100
AcDbLine
 62
7
  6
CONTINUOUS
 10
476.6515292781
 20
383.7991066782
 11
475.674320642
 21
383.7991066782
  0
LINE
  5
369
100
AcDbEntity
  8
0
100
AcDbLine
 62
7
  6
CONTINUOUS
 10
608.5591375146
 20
383.7991066782
 11
609.1195364747
 21
383.7991066782
  0
LINE
  5
36A
100
AcDbEntity
  8
0
100
AcDbLine
 62
7
  6
CONTINUOUS
 10
611.8242073083
 20
384.2778300254
 11
612.0212363923
 21
384.2778300254
  0
LINE
  5
36B
100
AcDbEntity
  8
0
100
AcDbLine
 62
7
  6
CONTINUOUS
 10
612.1090140801
 20
384.7565533726
 11
612.2072504169
 21
384.7565533726
  0
LINE
  5
36C
100
AcDbEntity
  8
0
100
AcDbLine
 62
7
  6
CONTINUOUS
 10
474.5884181527
 20
385.2352767198
 11
474.0468906124
 21
385.2352767198
  0
LINE
  5
36D
100
AcDbEntity
  8
0
100
AcDbLine
 62
7
  6
CONTINUOUS
 10
611.4319274524
 20
385.2352767198
 11
611.9761232672
 21
385.2352767198
  0
LINE
  5
36E
100
AcDbEntity
  8
0
100
AcDbLine
 62
7
  6
CONTINUOUS
 10
473.9455749501
 20
386.6714467614
 11
473.4043697672
 21
386.6714467614
  0
LINE
  5
36F
100
AcDbEntity
  8
0
100
AcDbLine
 62
7
  6
CONTINUOUS
 10
612.2415546442
 20
386.6714467614
 11
612.7842862966
 21
386.6714467614
  0
LINE
  5
370
100
AcDbEntity
  8
0
100
AcDbLine
 62
7
  6
CONTINUOUS
 10
473.7459209561
 20
387.1501701086
 11
473.2262854477
 21
387.1501701086
  0
LINE
  5
371
100
AcDbEntity
  8
0
100
AcDbLine
 62
7
  6
CONTINUOUS
 10
610.6858730437
 20
387.1501701086
 11
611.8197137806
 21
387.1501701086
  0
LINE
  5
372
100
AcDbEntity
  8
0
100
AcDbLine
 62
7
  6
CONTINUOUS
 10
612.5829827379
 20
387.1501701086
 11
613.1894380187
 21
387.1501701086
  0
LINE
  5
373
100
AcDbEntity
  8
RUNDUNGEN
100
AcDbLine
 62
7
  6
CONTINUOUS
 10
565.2078617332
 20
440.5884499648
 11
565.2078617332
 21
557.0098651658
  0
LINE
  5
374
100
AcDbEntity
  8
0
100
AcDbLine
 62
7
  6
CONTINUOUS
 10
565.7078617332
 20
545.6501701086
 11
565.7078617332
 21
533.6501701086
  0
LINE
  5
375
100
AcDbEntity
  8
0
100
AcDbLine
 62
7
  6
CONTINUOUS
 10
565.7078617332
 20
530.2270843803
 11
565.7078617332
 21
503.3720721929
  0
LINE
  5
376
100
AcDbEntity
  8
KONSTRUKTIONSELEMENTE
100
AcDbLine
 62
7
  6
CONTINUOUS
 10
571.2078617332
 20
354.4501701086
 11
571.2078617332
 21
274.2001701086
  0
LINE
  5
377
100
AcDbEntity
  8
RUNDUNGEN
100
AcDbLine
 62
7
  6
CONTINUOUS
 10
609.7426694922
 20
403.7171043345
 11
589.2962803515
 21
409.1956977928
  0
LINE
  5
378
100
AcDbEntity
  8
KONSTRUKTIONSELEMENTE
100
AcDbLine
 62
7
  6
CONTINUOUS
 10
584.2078617332
 20
354.6501701086
 11
584.2078617332
 21
354.4501701086
  0
LINE
  5
379
100
AcDbEntity
  8
BEZUGSACHSEN
100
AcDbLine
 62
7
  6
CONTINUOUS
 10
476.6730539742
 20
403.7171043345
 11
497.1194431149
 21
409.1956977928
  0
LINE
  5
37A
100
AcDbEntity
  8
0
100
AcDbLine
 62
7
  6
CONTINUOUS
 10
599.2078617332
 20
354.6501701086
 11
603.3499973569
 21
364.6501701086
  0
LINE
  5
37B
100
AcDbEntity
  8
0
100
AcDbLine
 62
7
  6
CONTINUOUS
 10
612.6698025103
 20
387.1501701086
 11
615.0631533914
 21
392.9282302652
  0
LINE
  5
37C
100
AcDbEntity
  8
0
100
AcDbLine
 62
7
  6
CONTINUOUS
 10
604.0101696969
 20
364.9374041603
 11
604.881781583
 21
367.0416613969
  0
LINE
  5
37D
100
AcDbEntity
  8
0
100
AcDbLine
 62
7
  6
CONTINUOUS
 10
608.8477018954
 20
376.6162400025
 11
609.7210288741
 21
378.7246378387
  0
LINE
  5
37E
100
AcDbEntity
  8
0
100
AcDbLine
 62
7
  6
CONTINUOUS
 10
612.2033453996
 20
384.7174800607
 11
613.0523636405
 21
386.7671914125
  0
LINE
  5
37F
100
AcDbEntity
  8
0
100
AcDbLine
 62
7
  6
CONTINUOUS
 10
565.2078617332
 20
503.3720721929
 11
565.7078617332
 21
503.3720721929
  0
LINE
  5
380
100
AcDbEntity
  8
KONSTRUKTIONSELEMENTE
100
AcDbLine
 62
7
  6
CONTINUOUS
 10
571.2078617332
 20
274.2001701086
 11
567.4578617332
 21
270.4501701086
  0
LINE
  5
381
100
AcDbEntity
  8
0
100
AcDbLine
 62
7
  6
CONTINUOUS
 10
565.2078617332
 20
509.0289263581
 11
565.7078617332
 21
509.0289263581
  0
LINE
  5
382
100
AcDbEntity
  8
0
100
AcDbLine
 62
7
  6
CONTINUOUS
 10
565.2078617332
 20
510.0895865299
 11
565.7078617332
 21
510.0895865299
  0
LINE
  5
383
100
AcDbEntity
  8
0
100
AcDbLine
 62
7
  6
CONTINUOUS
 10
565.2078617332
 20
515.0393338296
 11
565.7078617332
 21
515.0393338296
  0
LINE
  5
384
100
AcDbEntity
  8
0
100
AcDbLine
 62
7
  6
CONTINUOUS
 10
565.2078617332
 20
516.0999940014
 11
565.7078617332
 21
516.0999940014
  0
LINE
  5
385
100
AcDbEntity
  8
0
100
AcDbLine
 62
7
  6
CONTINUOUS
 10
565.2078617332
 20
517.5142077323
 11
565.7078617332
 21
517.5142077323
  0
LINE
  5
386
100
AcDbEntity
  8
0
100
AcDbLine
 62
7
  6
CONTINUOUS
 10
565.2078617332
 20
521.7568484194
 11
565.7078617332
 21
521.7568484194
  0
LINE
  5
387
100
AcDbEntity
  8
0
100
AcDbLine
 62
7
  6
CONTINUOUS
 10
565.2078617332
 20
522.4601936787
 11
565.7078617332
 21
522.4601936787
  0
LINE
  5
388
100
AcDbEntity
  8
0
100
AcDbLine
 62
7
  6
CONTINUOUS
 10
565.2078617332
 20
522.6256871569
 11
565.7078617332
 21
522.6256871569
  0
LINE
  5
389
100
AcDbEntity
  8
0
100
AcDbLine
 62
7
  6
CONTINUOUS
 10
565.2078617332
 20
522.9077775312
 11
565.7078617332
 21
522.9077775312
  0
LINE
  5
38A
100
AcDbEntity
  8
0
100
AcDbLine
 62
7
  6
CONTINUOUS
 10
565.2078617332
 20
522.9228229446
 11
565.7078617332
 21
522.9228229446
  0
LINE
  5
38B
100
AcDbEntity
  8
0
100
AcDbLine
 62
7
  6
CONTINUOUS
 10
565.2078617332
 20
523.4681964209
 11
565.7078617332
 21
523.4681964209
  0
LINE
  5
38C
100
AcDbEntity
  8
0
100
AcDbLine
 62
7
  6
CONTINUOUS
 10
565.2078617332
 20
524.1903484469
 11
565.7078617332
 21
524.1903484469
  0
LINE
  5
38D
100
AcDbEntity
  8
0
100
AcDbLine
 62
7
  6
CONTINUOUS
 10
565.2078617332
 20
525.0892780111
 11
565.7078617332
 21
525.0892780111
  0
LINE
  5
38E
100
AcDbEntity
  8
0
100
AcDbLine
 62
7
  6
CONTINUOUS
 10
565.2078617332
 20
526.5185356382
 11
565.7078617332
 21
526.5185356382
  0
LINE
  5
38F
100
AcDbEntity
  8
0
100
AcDbLine
 62
7
  6
CONTINUOUS
 10
565.2078617332
 20
527.5867175051
 11
565.7078617332
 21
527.5867175051
  0
LINE
  5
390
100
AcDbEntity
  8
0
100
AcDbLine
 62
7
  6
CONTINUOUS
 10
565.2078617332
 20
528.4743635151
 11
565.7078617332
 21
528.4743635151
  0
LINE
  5
391
100
AcDbEntity
  8
0
100
AcDbLine
 62
7
  6
CONTINUOUS
 10
565.2078617332
 20
529.3582456428
 11
565.7078617332
 21
529.3582456428
  0
LINE
  5
392
100
AcDbEntity
  8
0
100
AcDbLine
 62
7
  6
CONTINUOUS
 10
565.2078617332
 20
530.0615919136
 11
565.7078617332
 21
530.0615919136
  0
LINE
  5
393
100
AcDbEntity
  8
0
100
AcDbLine
 62
7
  6
CONTINUOUS
 10
565.2078617332
 20
530.2270843803
 11
565.7078617332
 21
530.2270843803
  0
LINE
  5
394
100
AcDbEntity
  8
0
100
AcDbLine
 62
7
  6
CONTINUOUS
 10
565.2078617332
 20
533.6501701086
 11
565.7078617332
 21
533.6501701086
  0
LINE
  5
395
100
AcDbEntity
  8
0
100
AcDbLine
 62
7
  6
CONTINUOUS
 10
565.2078617332
 20
545.6501701086
 11
565.7078617332
 21
545.6501701086
  0
LINE
  5
396
100
AcDbEntity
  8
RUNDUNGEN
100
AcDbLine
 62
7
  6
CONTINUOUS
 10
557.2078617332
 20
565.0098651658
 11
529.2078617332
 21
565.0098651658
  0
LWPOLYLINE
  5
397
100
AcDbEntity
  8
BEZUGSACHSEN
100
AcDbPolyline
 62
7
  6
CONTINUOUS
 90
7
 70
0
 10
106.6396209145
 20
143.4365958003
 10
106.4662358778
 20
141.1345115178
 10
106.3099131542
 20
138.6080178379
 10
106.1895862953
 20
136.0905711174
 10
106.1049205517
 20
133.5853358296
 10
106.0554749946
 20
131.0953871587
 10
106.0405525087
 20
128.7850065093
  0
LWPOLYLINE
  5
398
100
AcDbEntity
  8
RUNDUNGEN
100
AcDbPolyline
 62
7
  6
CONTINUOUS
 90
7
 70
0
 10
106.0405525087
 20
128.7850065093
 10
106.0554749946
 20
126.4746258578
 10
106.1049205517
 20
123.9846771873
 10
106.1895862954
 20
121.4794418999
 10
106.3099131543
 20
118.9619951799
 10
106.4662358778
 20
116.4355015003
 10
106.6396209145
 20
114.1334172182
  0
LWPOLYLINE
  5
399
100
AcDbEntity
  8
BEZUGSACHSEN
100
AcDbPolyline
 62
7
  6
CONTINUOUS
 90
20
 70
0
 10
133.8820026156
 20
160.5894720139
 10
132.9387621255
 20
159.5063542384
 10
132.0452351125
 20
158.4900473568
 10
131.192129835
 20
157.5333631804
 10
130.3806917166
 20
156.6405669111
 10
129.6086788429
 20
155.8114039616
 10
128.8790866818
 20
155.0505562016
 10
128.1938557465
 20
154.3605108713
 10
127.5541778637
 20
153.7419228754
 10
126.9631046349
 20
153.1961201638
 10
126.4175157754
 20
152.7178231898
 10
125.9172800455
 20
152.3040703956
 10
125.459028825
 20
151.9489471678
 10
125.0406702274
 20
151.6476999257
 10
124.662586677
 20
151.3972832261
 10
124.3248433378
 20
151.1941485077
 10
124.0311112686
 20
151.0363891632
 10
123.7847088494
 20
150.9208487201
 10
123.591353789
 20
150.8441867181
 10
123.5564317605
 20
150.8320350843
  0
LWPOLYLINE
  5
39A
100
AcDbEntity
  8
BEZUGSACHSEN
100
AcDbPolyline
 62
7
  6
CONTINUOUS
 90
11
 70
0
 10
150.9972236251
 20
178.7313057609
 10
149.2575968543
 20
177.1248803313
 10
147.4634277643
 20
175.4045967162
 10
145.7392523987
 20
173.6909034905
 10
144.0915762087
 20
171.9987338006
 10
142.5234611541
 20
170.3405080792
 10
141.0378892284
 20
168.7291921025
 10
139.6367003805
 20
167.176671907
 10
138.3212091339
 20
165.6940215556
 10
137.0947309718
 20
164.2941753741
 10
133.8820026156
 20
160.5894720139
  0
LINE
  5
39B
100
AcDbEntity
  8
0
100
AcDbLine
 62
7
  6
CONTINUOUS
 10
138.6890754759
 20
106.7850065093
 11
138.6890754759
 21
106.2850065093
  0
LINE
  5
39C
100
AcDbEntity
  8
0
100
AcDbLine
 62
7
  6
CONTINUOUS
 10
139.7497356477
 20
106.7850065093
 11
139.7497356477
 21
106.2850065093
  0
LWPOLYLINE
  5
39D
100
AcDbEntity
  8
BEZUGSACHSEN
100
AcDbPolyline
 62
7
  6
CONTINUOUS
 90
3
 70
0
 10
123.5564317605
 20
150.8320350843
 10
123.4572640342
 20
150.8013048964
 10
123.3892410178
 20
150.7850065093
  0
LINE
  5
39E
100
AcDbEntity
  8
0
100
AcDbLine
 62
7
  6
CONTINUOUS
 10
144.6994829474
 20
106.7850065093
 11
144.6994829474
 21
106.2850065093
  0
LINE
  5
39F
100
AcDbEntity
  8
0
100
AcDbLine
 62
7
  6
CONTINUOUS
 10
145.7601431192
 20
106.7850065093
 11
145.7601431192
 21
106.2850065093
  0
LINE
  5
3A0
100
AcDbEntity
  8
0
100
AcDbLine
 62
7
  6
CONTINUOUS
 10
147.1743568502
 20
106.7850065093
 11
147.1743568502
 21
106.2850065093
  0
LINE
  5
3A1
100
AcDbEntity
  8
0
100
AcDbLine
 62
7
  6
CONTINUOUS
 10
151.4169975373
 20
106.7850065093
 11
151.4169975373
 21
106.2850065093
  0
LINE
  5
3A2
100
AcDbEntity
  8
0
100
AcDbLine
 62
7
  6
CONTINUOUS
 10
152.4814185567
 20
106.7850065093
 11
152.4814185567
 21
106.2850065093
  0
LINE
  5
3A3
100
AcDbEntity
  8
0
100
AcDbLine
 62
7
  6
CONTINUOUS
 10
222.6422450786
 20
162.625432239
 11
223.4547450786
 21
162.9020279507
  0
LINE
  5
3A4
100
AcDbEntity
  8
0
100
AcDbLine
 62
7
  6
CONTINUOUS
 10
153.7301393152
 20
106.7850065093
 11
153.7301393152
 21
106.2850065093
  0
LINE
  5
3A5
100
AcDbEntity
  8
0
100
AcDbLine
 62
7
  6
CONTINUOUS
 10
154.9826209213
 20
106.7850065093
 11
154.9826209213
 21
106.2850065093
  0
LINE
  5
3A6
100
AcDbEntity
  8
0
100
AcDbLine
 62
7
  6
CONTINUOUS
 10
155.701011594
 20
106.7850065093
 11
155.701011594
 21
106.2850065093
  0
LINE
  5
3A7
100
AcDbEntity
  8
0
100
AcDbLine
 62
7
  6
CONTINUOUS
 10
156.4231636199
 20
106.7850065093
 11
156.4231636199
 21
106.2850065093
  0
LINE
  5
3A8
100
AcDbEntity
  8
0
100
AcDbLine
 62
7
  6
CONTINUOUS
 10
156.7880002276
 20
106.7850065093
 11
156.7880002276
 21
106.2850065093
  0
LINE
  5
3A9
100
AcDbEntity
  8
0
100
AcDbLine
 62
7
  6
CONTINUOUS
 10
156.979821662
 20
106.7850065093
 11
156.979821662
 21
106.2850065093
  0
LINE
  5
3AA
100
AcDbEntity
  8
0
100
AcDbLine
 62
7
  6
CONTINUOUS
 10
157.2619120364
 20
106.7850065093
 11
157.2619120364
 21
106.2850065093
  0
LINE
  5
3AB
100
AcDbEntity
  8
0
100
AcDbLine
 62
7
  6
CONTINUOUS
 10
157.6079423831
 20
106.7850065093
 11
157.6079423831
 21
106.2850065093
  0
LINE
  5
3AC
100
AcDbEntity
  8
0
100
AcDbLine
 62
7
  6
CONTINUOUS
 10
158.1345126329
 20
106.7850065093
 11
158.1345126329
 21
106.2850065093
  0
LINE
  5
3AD
100
AcDbEntity
  8
0
100
AcDbLine
 62
7
  6
CONTINUOUS
 10
159.0183947607
 20
106.7850065093
 11
159.0183947607
 21
106.2850065093
  0
LINE
  5
3AE
100
AcDbEntity
  8
0
100
AcDbLine
 62
7
  6
CONTINUOUS
 10
160.0828167916
 20
106.7850065093
 11
160.0828167916
 21
106.2850065093
  0
LINE
  5
3AF
100
AcDbEntity
  8
0
100
AcDbLine
 62
7
  6
CONTINUOUS
 10
161.3315365386
 20
106.7850065093
 11
161.3315365386
 21
106.2850065093
  0
LINE
  5
3B0
100
AcDbEntity
  8
0
100
AcDbLine
 62
7
  6
CONTINUOUS
 10
162.5840181447
 20
106.7850065093
 11
162.5840181447
 21
106.2850065093
  0
LINE
  5
3B1
100
AcDbEntity
  8
0
100
AcDbLine
 62
7
  6
CONTINUOUS
 10
163.3024098289
 20
106.7850065093
 11
163.3024098289
 21
106.2850065093
  0
LINE
  5
3B2
100
AcDbEntity
  8
0
100
AcDbLine
 62
7
  6
CONTINUOUS
 10
163.8703509194
 20
106.7850065093
 11
163.8703509194
 21
106.2850065093
  0
LINE
  5
3B3
100
AcDbEntity
  8
0
100
AcDbLine
 62
7
  6
CONTINUOUS
 10
209.3714127784
 20
157.09351723
 11
210.4547466283
 21
157.9233043651
  0
LINE
  5
3B4
100
AcDbEntity
  8
0
100
AcDbLine
 62
7
  6
CONTINUOUS
 10
221.8297450786
 20
162.0722408156
 11
222.6422450786
 21
162.625432239
  0
LINE
  5
3B5
100
AcDbEntity
  8
0
100
AcDbLine
 62
7
  6
CONTINUOUS
 10
210.1839127784
 20
159.3062829237
 11
208.8297466283
 21
158.4764957885
  0
LINE
  5
3B6
100
AcDbEntity
  8
0
100
AcDbLine
 62
7
  6
CONTINUOUS
 10
222.3714127784
 20
164.0084107976
 11
221.0172450786
 21
163.1786236624
  0
LINE
  5
3B7
100
AcDbEntity
  8
0
100
AcDbLine
 62
7
  6
CONTINUOUS
 10
222.6422450786
 20
157.9233043651
 11
223.4547450786
 21
158.1999000768
  0
LINE
  5
3B8
100
AcDbEntity
  8
0
100
AcDbLine
 62
7
  6
CONTINUOUS
 10
226.1630804782
 20
152.9445809732
 11
225.3505804782
 21
152.6679852615
  0
LWPOLYLINE
  5
3B9
100
AcDbEntity
  8
RUNDUNGEN
100
AcDbPolyline
 62
7
  6
CONTINUOUS
 90
41
 70
0
 10
150.9972284914
 20
78.8387030589
 10
153.2513017506
 20
76.869446663
 10
155.7053976769
 20
74.880520973
 10
158.2454628338
 20
72.9763349741
 10
160.8681184469
 20
71.1601064426
 10
163.5701554757
 20
69.4348118927
 10
166.3481101276
 20
67.8037781689
 10
169.1983464425
 20
66.2702407902
 10
172.116560761
 20
64.8371722773
 10
175.098412767
 20
63.5073798916
 10
178.1400173123
 20
62.2833250299
 10
181.2377184304
 20
61.1672557156
 10
184.3858391882
 20
60.161909471
 10
187.5790068378
 20
59.2696413659
 10
190.8119358298
 20
58.4923245371
 10
194.0793130201
 20
57.8315807681
 10
197.375437511
 20
57.2890084346
 10
200.6945306481
 20
56.865974508
 10
204.0308997458
 20
56.5632402117
 10
207.3788955145
 20
56.3813200158
 10
210.7327335976
 20
56.3207513881
 10
214.0865621666
 20
56.3818387392
 10
217.4345267456
 20
56.564275974
 10
220.7708424984
 20
56.8675257638
 10
224.0898585804
 20
57.2910734745
 10
227.3858785406
 20
57.8341551532
 10
230.653123644
 20
58.4954014508
 10
233.8858937804
 20
59.2732133568
 10
237.0788808442
 20
60.1659695223
 10
240.2268002424
 20
61.1717954935
 10
243.3242779676
 20
62.2883344495
 10
246.3656409128
 20
63.5128493518
 10
249.3472352918
 20
64.8430922843
 10
252.2651742748
 20
66.2766005798
 10
255.1151155899
 20
67.810565586
 10
257.8927581757
 20
69.4420142712
 10
260.594467884
 20
71.1677098446
 10
263.2167796102
 20
72.9843248252
 10
265.7564859306
 20
74.8888842866
 10
268.2102089684
 20
76.87816885
 10
270.4539299293
 20
78.8387037746
  0
LWPOLYLINE
  5
3BA
100
AcDbEntity
  8
RUNDUNGEN
100
AcDbPolyline
 62
7
  6
CONTINUOUS
 90
10
 70
0
 10
137.0953001807
 20
93.2751848283
 10
138.3214341792
 20
91.8757360114
 10
139.6363881588
 20
90.393690301
 10
141.0369696206
 20
88.8418298438
 10
142.5219673563
 20
87.231105977
 10
144.0896378771
 20
85.5733006604
 10
145.7371151338
 20
83.8812702783
 10
147.4614571504
 20
82.167341196
 10
149.2563412668
 20
80.4463139943
 10
150.9972236019
 20
78.8387072787
  0
LINE
  5
3BB
100
AcDbEntity
  8
RUNDUNGEN
100
AcDbLine
 62
7
  6
CONTINUOUS
 10
133.8826608703
 20
96.9797826893
 11
137.0953001807
 21
93.2751848283
  0
LINE
  5
3BC
100
AcDbEntity
  8
0
100
AcDbLine
 62
7
  6
CONTINUOUS
 10
164.9385348094
 20
106.7850065093
 11
164.9385348094
 21
106.2850065093
  0
LINE
  5
3BD
100
AcDbEntity
  8
0
100
AcDbLine
 62
7
  6
CONTINUOUS
 10
166.3677924365
 20
106.7850065093
 11
166.3677924365
 21
106.2850065093
  0
LINE
  5
3BE
100
AcDbEntity
  8
0
100
AcDbLine
 62
7
  6
CONTINUOUS
 10
167.4434982746
 20
106.7850065093
 11
167.4434982746
 21
106.2850065093
  0
LINE
  5
3BF
100
AcDbEntity
  8
0
100
AcDbLine
 62
7
  6
CONTINUOUS
 10
168.3461876749
 20
106.7850065093
 11
168.3461876749
 21
106.2850065093
  0
LINE
  5
3C0
100
AcDbEntity
  8
0
100
AcDbLine
 62
7
  6
CONTINUOUS
 10
168.7147852566
 20
106.7850065093
 11
168.7147852566
 21
106.2850065093
  0
LINE
  5
3C1
100
AcDbEntity
  8
0
100
AcDbLine
 62
7
  6
CONTINUOUS
 10
168.7298307332
 20
106.7850065093
 11
168.7298307332
 21
106.2850065093
  0
LINE
  5
3C2
100
AcDbEntity
  8
0
100
AcDbLine
 62
7
  6
CONTINUOUS
 10
221.2880804782
 20
156.8169215183
 11
221.8297450786
 21
157.3701129417
  0
LINE
  5
3C3
100
AcDbEntity
  8
0
100
AcDbLine
 62
7
  6
CONTINUOUS
 10
222.3714127784
 20
159.3062829237
 11
220.7464127784
 21
158.1999000768
  0
LINE
  5
3C4
100
AcDbEntity
  8
0
100
AcDbLine
 62
7
  6
CONTINUOUS
 10
215.0589127784
 20
153.4977723967
 11
214.2464127784
 21
152.9445809732
  0
LINE
  5
3C5
100
AcDbEntity
  8
0
100
AcDbLine
 62
7
  6
CONTINUOUS
 10
221.8297450786
 20
157.3701129417
 11
222.6422450786
 21
157.9233043651
  0
LINE
  5
3C6
100
AcDbEntity
  8
0
100
AcDbLine
 62
7
  6
CONTINUOUS
 10
226.9755804782
 20
153.4977723967
 11
226.1630804782
 21
152.9445809732
  0
LINE
  5
3C7
100
AcDbEntity
  8
0
100
AcDbLine
 62
7
  6
CONTINUOUS
 10
214.5172466283
 20
151.5616022452
 11
215.8714127784
 21
152.391389453
  0
LINE
  5
3C8
100
AcDbEntity
  8
0
100
AcDbLine
 62
7
  6
CONTINUOUS
 10
226.4339127784
 20
151.5616022452
 11
227.7880804782
 21
152.391389453
  0
LINE
  5
3C9
100
AcDbEntity
  8
0
100
AcDbLine
 62
7
  6
CONTINUOUS
 10
202.8714127784
 20
164.2850065093
 11
198.8089127784
 21
152.6679852615
  0
LINE
  5
3CA
100
AcDbEntity
  8
0
100
AcDbLine
 62
7
  6
CONTINUOUS
 10
199.8922458535
 20
151.2850065093
 11
203.6839127784
 21
161.5190493922
  0
LINE
  5
3CB
100
AcDbEntity
  8
0
100
AcDbLine
 62
7
  6
CONTINUOUS
 10
215.6005789285
 20
154.3275597255
 11
215.0589127784
 21
153.4977723967
  0
LINE
  5
3CC
100
AcDbEntity
  8
0
100
AcDbLine
 62
7
  6
CONTINUOUS
 10
221.2880804782
 20
161.2424536805
 11
221.8297450786
 21
162.0722408156
  0
LINE
  5
3CD
100
AcDbEntity
  8
0
100
AcDbLine
 62
7
  6
CONTINUOUS
 10
221.0172450786
 20
163.1786236624
 11
220.2047450786
 21
162.0722408156
  0
LINE
  5
3CE
100
AcDbEntity
  8
0
100
AcDbLine
 62
7
  6
CONTINUOUS
 10
215.8714127784
 20
152.391389453
 11
216.6839127784
 21
153.4977723967
  0
LINE
  5
3CF
100
AcDbEntity
  8
0
100
AcDbLine
 62
7
  6
CONTINUOUS
 10
192.3089127784
 20
164.2850065093
 11
192.3089127784
 21
151.2850065093
  0
LINE
  5
3D0
100
AcDbEntity
  8
0
100
AcDbLine
 62
7
  6
CONTINUOUS
 10
193.9339127784
 20
151.2850065093
 11
193.9339127784
 21
161.5190493922
  0
LINE
  5
3D1
100
AcDbEntity
  8
0
100
AcDbLine
 62
7
  6
CONTINUOUS
 10
194.4755788093
 20
106.7850065093
 11
194.4755788093
 21
106.2850065093
  0
LINE
  5
3D2
100
AcDbEntity
  8
0
100
AcDbLine
 62
7
  6
CONTINUOUS
 10
215.8714127784
 20
155.1573468606
 11
215.6005789285
 21
154.3275597255
  0
LINE
  5
3D3
100
AcDbEntity
  8
0
100
AcDbLine
 62
7
  6
CONTINUOUS
 10
216.6839127784
 20
153.4977723967
 11
217.2255789285
 21
154.8807511489
  0
LINE
  5
3D4
100
AcDbEntity
  8
0
100
AcDbLine
 62
7
  6
CONTINUOUS
 10
220.2047450786
 20
162.0722408156
 11
219.6630804782
 21
160.6892614822
  0
LINE
  5
3D5
100
AcDbEntity
  8
0
100
AcDbLine
 62
7
  6
CONTINUOUS
 10
227.5172450786
 20
154.3275597255
 11
226.9755804782
 21
153.4977723967
  0
LINE
  5
3D6
100
AcDbEntity
  8
0
100
AcDbLine
 62
7
  6
CONTINUOUS
 10
227.7880804782
 20
152.391389453
 11
228.6005804782
 21
153.4977723967
  0
LINE
  5
3D7
100
AcDbEntity
  8
RUNDUNGEN
100
AcDbLine
 62
7
  6
CONTINUOUS
 10
123.4572638409
 20
106.7687081755
 11
123.5913551918
 21
106.7258258003
  0
LWPOLYLINE
  5
3D8
100
AcDbEntity
  8
RUNDUNGEN
100
AcDbPolyline
 62
7
  6
CONTINUOUS
 90
19
 70
0
 10
123.5913551918
 20
106.7258258003
 10
123.7847147061
 20
106.6491617686
 10
124.0311239319
 20
106.5336174895
 10
124.3248651925
 20
106.3758520728
 10
124.6626182013
 20
106.1727098729
 10
125.0407097337
 20
105.9222857858
 10
125.4590742554
 20
105.6210318882
 10
125.9173281336
 20
105.2659041
 10
126.4175640848
 20
104.8521486707
 10
126.9631505476
 20
104.3738515226
 10
127.5542214723
 20
103.8280489123
 10
128.1938973165
 20
103.2094610984
 10
128.8791353981
 20
102.5194068594
 10
129.6087512108
 20
101.7585324127
 10
130.3808135185
 20
100.9293136012
 10
131.1923441852
 20
100.0364115652
 10
132.0455733919
 20
99.0795833339
 10
132.9392660374
 20
98.0630824782
 10
133.8826608703
 20
96.9797826893
  0
LINE
  5
3D9
100
AcDbEntity
  8
0
100
AcDbLine
 62
7
  6
CONTINUOUS
 10
200.4755788093
 20
106.7850065093
 11
200.4755788093
 21
106.2850065093
  0
LINE
  5
3DA
100
AcDbEntity
  8
0
100
AcDbLine
 62
7
  6
CONTINUOUS
 10
201.7255790477
 20
106.7850065093
 11
201.7255790477
 21
106.2850065093
  0
LINE
  5
3DB
100
AcDbEntity
  8
0
100
AcDbLine
 62
7
  6
CONTINUOUS
 10
202.7255788093
 20
106.7850065093
 11
202.7255788093
 21
106.2850065093
  0
LINE
  5
3DC
100
AcDbEntity
  8
0
100
AcDbLine
 62
7
  6
CONTINUOUS
 10
203.4755788093
 20
106.7850065093
 11
203.4755788093
 21
106.2850065093
  0
LINE
  5
3DD
100
AcDbEntity
  8
0
100
AcDbLine
 62
7
  6
CONTINUOUS
 10
203.6839127784
 20
161.5190493922
 11
203.6839127784
 21
151.2850065093
  0
LINE
  5
3DE
100
AcDbEntity
  8
0
100
AcDbLine
 62
7
  6
CONTINUOUS
 10
203.7255785709
 20
106.7850065093
 11
203.7255785709
 21
106.2850065093
  0
LINE
  5
3DF
100
AcDbEntity
  8
0
100
AcDbLine
 62
7
  6
CONTINUOUS
 10
203.9755790477
 20
106.7850065093
 11
203.9755790477
 21
106.2850065093
  0
LINE
  5
3E0
100
AcDbEntity
  8
0
100
AcDbLine
 62
7
  6
CONTINUOUS
 10
205.3089127784
 20
151.2850065093
 11
205.3089127784
 21
164.2850065093
  0
LINE
  5
3E1
100
AcDbEntity
  8
0
100
AcDbLine
 62
7
  6
CONTINUOUS
 10
205.9755785709
 20
106.7850065093
 11
205.9755785709
 21
106.2850065093
  0
LINE
  5
3E2
100
AcDbEntity
  8
0
100
AcDbLine
 62
7
  6
CONTINUOUS
 10
207.4755789285
 20
164.2850065093
 11
207.4755789285
 21
157.09351723
  0
LINE
  5
3E3
100
AcDbEntity
  8
0
100
AcDbLine
 62
7
  6
CONTINUOUS
 10
207.4755792861
 20
106.7850065093
 11
207.4755792861
 21
106.2850065093
  0
LINE
  5
3E4
100
AcDbEntity
  8
0
100
AcDbLine
 62
7
  6
CONTINUOUS
 10
207.7255783325
 20
106.7850065093
 11
207.7255783325
 21
106.2850065093
  0
LINE
  5
3E5
100
AcDbEntity
  8
0
100
AcDbLine
 62
7
  6
CONTINUOUS
 10
208.2255792861
 20
106.7850065093
 11
208.2255792861
 21
106.2850065093
  0
LINE
  5
3E6
100
AcDbEntity
  8
0
100
AcDbLine
 62
7
  6
CONTINUOUS
 10
208.8297466283
 20
158.4764957885
 11
208.8297466283
 21
162.9020279507
  0
LINE
  5
3E7
100
AcDbEntity
  8
0
100
AcDbLine
 62
7
  6
CONTINUOUS
 10
208.9755792861
 20
106.7850065093
 11
208.9755792861
 21
106.2850065093
  0
LINE
  5
3E8
100
AcDbEntity
  8
0
100
AcDbLine
 62
7
  6
CONTINUOUS
 10
209.9755783325
 20
106.7850065093
 11
209.9755783325
 21
106.2850065093
  0
LINE
  5
3E9
100
AcDbEntity
  8
0
100
AcDbLine
 62
7
  6
CONTINUOUS
 10
210.9755788093
 20
106.7850065093
 11
210.9755788093
 21
106.2850065093
  0
LINE
  5
3EA
100
AcDbEntity
  8
0
100
AcDbLine
 62
7
  6
CONTINUOUS
 10
211.9755792861
 20
106.7850065093
 11
211.9755792861
 21
106.2850065093
  0
LINE
  5
3EB
100
AcDbEntity
  8
0
100
AcDbLine
 62
7
  6
CONTINUOUS
 10
219.6630804782
 20
160.6892614822
 11
219.3922450786
 21
158.7530915002
  0
LINE
  5
3EC
100
AcDbEntity
  8
0
100
AcDbLine
 62
7
  6
CONTINUOUS
 10
220.7464127784
 20
158.7530915002
 11
221.0172450786
 21
160.4126657705
  0
LINE
  5
3ED
100
AcDbEntity
  8
0
100
AcDbLine
 62
7
  6
CONTINUOUS
 10
221.0172450786
 20
160.4126657705
 11
221.2880804782
 21
161.2424536805
  0
LINE
  5
3EE
100
AcDbEntity
  8
0
100
AcDbLine
 62
7
  6
CONTINUOUS
 10
221.0172450786
 20
155.9871339957
 11
221.2880804782
 21
156.8169215183
  0
LINE
  5
3EF
100
AcDbEntity
  8
0
100
AcDbLine
 62
7
  6
CONTINUOUS
 10
227.7880804782
 20
155.1573468606
 11
227.5172450786
 21
154.3275597255
  0
LINE
  5
3F0
100
AcDbEntity
  8
0
100
AcDbLine
 62
7
  6
CONTINUOUS
 10
228.6005804782
 20
153.4977723967
 11
229.1422450786
 21
154.8807511489
  0
LINE
  5
3F1
100
AcDbEntity
  8
RUNDUNGEN
100
AcDbLine
 62
7
  6
CONTINUOUS
 10
123.3892409642
 20
106.7850065093
 11
123.4572638409
 21
106.7687081755
  0
LINE
  5
3F2
100
AcDbEntity
  8
0
100
AcDbLine
 62
7
  6
CONTINUOUS
 10
212.7255792861
 20
106.7850065093
 11
212.7255792861
 21
106.2850065093
  0
LINE
  5
3F3
100
AcDbEntity
  8
0
100
AcDbLine
 62
7
  6
CONTINUOUS
 10
213.2255788093
 20
106.7850065093
 11
213.2255788093
 21
106.2850065093
  0
LINE
  5
3F4
100
AcDbEntity
  8
0
100
AcDbLine
 62
7
  6
CONTINUOUS
 10
213.4755792861
 20
106.7850065093
 11
213.4755792861
 21
106.2850065093
  0
LINE
  5
3F5
100
AcDbEntity
  8
0
100
AcDbLine
 62
7
  6
CONTINUOUS
 10
214.9755792861
 20
106.7850065093
 11
214.9755792861
 21
106.2850065093
  0
LINE
  5
3F6
100
AcDbEntity
  8
0
100
AcDbLine
 62
7
  6
CONTINUOUS
 10
215.8714127784
 20
155.710538284
 11
215.8714127784
 21
155.1573468606
  0
LINE
  5
3F7
100
AcDbEntity
  8
0
100
AcDbLine
 62
7
  6
CONTINUOUS
 10
216.6839127784
 20
162.9020279507
 11
216.6839127784
 21
164.2850065093
  0
LINE
  5
3F8
100
AcDbEntity
  8
0
100
AcDbLine
 62
7
  6
CONTINUOUS
 10
216.9755788093
 20
106.7850065093
 11
216.9755788093
 21
106.2850065093
  0
LINE
  5
3F9
100
AcDbEntity
  8
0
100
AcDbLine
 62
7
  6
CONTINUOUS
 10
217.2255789285
 20
154.8807511489
 11
217.2255789285
 21
155.9871339957
  0
LINE
  5
3FA
100
AcDbEntity
  8
0
100
AcDbLine
 62
7
  6
CONTINUOUS
 10
219.3922450786
 20
158.7530915002
 11
219.3922450786
 21
156.8169215183
  0
LINE
  5
3FB
100
AcDbEntity
  8
0
100
AcDbLine
 62
7
  6
CONTINUOUS
 10
220.7464127784
 20
158.1999000768
 11
220.7464127784
 21
158.7530915002
  0
LINE
  5
3FC
100
AcDbEntity
  8
0
100
AcDbLine
 62
7
  6
CONTINUOUS
 10
221.0172450786
 20
155.1573468606
 11
221.0172450786
 21
155.9871339957
  0
LINE
  5
3FD
100
AcDbEntity
  8
0
100
AcDbLine
 62
7
  6
CONTINUOUS
 10
222.9755788093
 20
106.7850065093
 11
222.9755788093
 21
106.2850065093
  0
LINE
  5
3FE
100
AcDbEntity
  8
0
100
AcDbLine
 62
7
  6
CONTINUOUS
 10
224.225579763
 20
106.7850065093
 11
224.225579763
 21
106.2850065093
  0
LINE
  5
3FF
100
AcDbEntity
  8
0
100
AcDbLine
 62
7
  6
CONTINUOUS
 10
276.5812170619
 20
106.2850065093
 11
258.7256026712
 21
106.2850065093
  0
LINE
  5
400
100
AcDbEntity
  8
0
100
AcDbLine
 62
7
  6
CONTINUOUS
 10
226.9755778556
 20
106.2850065093
 11
216.9755788093
 21
106.2850065093
  0
LINE
  5
401
100
AcDbEntity
  8
0
100
AcDbLine
 62
7
  6
CONTINUOUS
 10
214.9755792861
 20
106.2850065093
 11
205.9755785709
 21
106.2850065093
  0
LINE
  5
402
100
AcDbEntity
  8
0
100
AcDbLine
 62
7
  6
CONTINUOUS
 10
203.9755790477
 20
106.2850065093
 11
194.4755788093
 21
106.2850065093
  0
LINE
  5
403
100
AcDbEntity
  8
0
100
AcDbLine
 62
7
  6
CONTINUOUS
 10
168.7298307332
 20
106.2850065093
 11
138.6890754759
 21
106.2850065093
  0
LINE
  5
404
100
AcDbEntity
  8
RUNDUNGEN
100
AcDbLine
 62
7
  6
CONTINUOUS
 10
114.6130453011
 20
106.7850065093
 11
306.8381158927
 21
106.7850065093
  0
LINE
  5
405
100
AcDbEntity
  8
0
100
AcDbLine
 62
7
  6
CONTINUOUS
 10
193.9339127784
 20
161.5190493922
 11
197.7255793159
 21
151.2850065093
  0
LINE
  5
406
100
AcDbEntity
  8
0
100
AcDbLine
 62
7
  6
CONTINUOUS
 10
198.8089127784
 20
152.6679852615
 11
194.7464127784
 21
164.2850065093
  0
LINE
  5
407
100
AcDbEntity
  8
0
100
AcDbLine
 62
7
  6
CONTINUOUS
 10
225.2255788093
 20
106.7850065093
 11
225.2255788093
 21
106.2850065093
  0
LINE
  5
408
100
AcDbEntity
  8
0
100
AcDbLine
 62
7
  6
CONTINUOUS
 10
226.2255778556
 20
106.7850065093
 11
226.2255778556
 21
106.2850065093
  0
LINE
  5
409
100
AcDbEntity
  8
0
100
AcDbLine
 62
7
  6
CONTINUOUS
 10
226.7255788093
 20
106.7850065093
 11
226.7255788093
 21
106.2850065093
  0
LINE
  5
40A
100
AcDbEntity
  8
0
100
AcDbLine
 62
7
  6
CONTINUOUS
 10
226.9755778556
 20
106.7850065093
 11
226.9755778556
 21
106.2850065093
  0
LINE
  5
40B
100
AcDbEntity
  8
0
100
AcDbLine
 62
7
  6
CONTINUOUS
 10
227.7880804782
 20
155.9871339957
 11
227.7880804782
 21
155.1573468606
  0
LINE
  5
40C
100
AcDbEntity
  8
0
100
AcDbLine
 62
7
  6
CONTINUOUS
 10
229.1422450786
 20
154.8807511489
 11
229.1422450786
 21
156.2637300949
  0
LWPOLYLINE
  5
40D
100
AcDbEntity
  8
RUNDUNGEN
100
AcDbPolyline
 62
7
  6
CONTINUOUS
 90
3
 70
0
 10
297.8959658366
 20
106.7383980691
 10
297.9947159304
 20
106.768934899
 10
298.0619695777
 20
106.7850065093
  0
LINE
  5
40E
100
AcDbEntity
  8
0
100
AcDbLine
 62
7
  6
CONTINUOUS
 10
207.4755789285
 20
154.6041554372
 11
208.0172466283
 21
153.4977723967
  0
LINE
  5
40F
100
AcDbEntity
  8
0
100
AcDbLine
 62
7
  6
CONTINUOUS
 10
209.6422466283
 20
153.4977723967
 11
209.1005789285
 21
154.6041554372
  0
LINE
  5
410
100
AcDbEntity
  8
0
100
AcDbLine
 62
7
  6
CONTINUOUS
 10
215.6005789285
 20
156.5403258066
 11
215.8714127784
 21
155.710538284
  0
LINE
  5
411
100
AcDbEntity
  8
0
100
AcDbLine
 62
7
  6
CONTINUOUS
 10
219.3922450786
 20
156.8169215183
 11
219.6630804782
 21
154.8807511489
  0
LINE
  5
412
100
AcDbEntity
  8
0
100
AcDbLine
 62
7
  6
CONTINUOUS
 10
208.0172466283
 20
153.4977723967
 11
208.8297466283
 21
152.391389453
  0
LINE
  5
413
100
AcDbEntity
  8
0
100
AcDbLine
 62
7
  6
CONTINUOUS
 10
215.0589127784
 20
157.3701129417
 11
215.6005789285
 21
156.5403258066
  0
LINE
  5
414
100
AcDbEntity
  8
0
100
AcDbLine
 62
7
  6
CONTINUOUS
 10
217.2255789285
 20
155.9871339957
 11
216.6839127784
 21
157.3701129417
  0
LINE
  5
415
100
AcDbEntity
  8
0
100
AcDbLine
 62
7
  6
CONTINUOUS
 10
219.6630804782
 20
154.8807511489
 11
220.2047450786
 21
153.4977723967
  0
LINE
  5
416
100
AcDbEntity
  8
0
100
AcDbLine
 62
7
  6
CONTINUOUS
 10
221.2880804782
 20
154.3275597255
 11
221.0172450786
 21
155.1573468606
  0
LINE
  5
417
100
AcDbEntity
  8
0
100
AcDbLine
 62
7
  6
CONTINUOUS
 10
227.5172450786
 20
156.8169215183
 11
227.7880804782
 21
155.9871339957
  0
LINE
  5
418
100
AcDbEntity
  8
0
100
AcDbLine
 62
7
  6
CONTINUOUS
 10
228.6005804782
 20
161.2424536805
 11
228.3297450786
 21
162.0722408156
  0
LINE
  5
419
100
AcDbEntity
  8
0
100
AcDbLine
 62
7
  6
CONTINUOUS
 10
258.7255788093
 20
106.7850065093
 11
258.7255788093
 21
106.2850065093
  0
LINE
  5
41A
100
AcDbEntity
  8
0
100
AcDbLine
 62
7
  6
CONTINUOUS
 10
208.8297466283
 20
152.391389453
 11
210.1839127784
 21
151.5616022452
  0
LINE
  5
41B
100
AcDbEntity
  8
0
100
AcDbLine
 62
7
  6
CONTINUOUS
 10
210.4547466283
 20
152.9445809732
 11
209.6422466283
 21
153.4977723967
  0
LINE
  5
41C
100
AcDbEntity
  8
0
100
AcDbLine
 62
7
  6
CONTINUOUS
 10
216.6839127784
 20
157.3701129417
 11
215.8714127784
 21
158.4764957885
  0
LINE
  5
41D
100
AcDbEntity
  8
0
100
AcDbLine
 62
7
  6
CONTINUOUS
 10
220.2047450786
 20
153.4977723967
 11
221.0172450786
 21
152.391389453
  0
LINE
  5
41E
100
AcDbEntity
  8
0
100
AcDbLine
 62
7
  6
CONTINUOUS
 10
221.8297450786
 20
153.4977723967
 11
221.2880804782
 21
154.3275597255
  0
LINE
  5
41F
100
AcDbEntity
  8
0
100
AcDbLine
 62
7
  6
CONTINUOUS
 10
229.1422450786
 20
156.2637300949
 11
228.6005804782
 21
157.6467086534
  0
LINE
  5
420
100
AcDbEntity
  8
0
100
AcDbLine
 62
7
  6
CONTINUOUS
 10
269.3712170619
 20
106.7850065093
 11
269.3712170619
 21
106.2850065093
  0
LWPOLYLINE
  5
421
100
AcDbEntity
  8
RUNDUNGEN
100
AcDbPolyline
 62
7
  6
CONTINUOUS
 90
20
 70
0
 10
287.5752245389
 20
96.987533037
 10
288.5184548208
 20
98.070588332
 10
289.4119880706
 20
99.0868206856
 10
290.2650431308
 20
100.0433360567
 10
291.076386821
 20
100.9358867852
 10
291.8482433697
 20
101.764713583
 10
292.5776376416
 20
102.5251645738
 10
293.2626384367
 20
103.2147709393
 10
293.9020614518
 20
103.8328938183
 10
294.4928643929
 20
104.3782232775
 10
295.0381649183
 20
104.8560423563
 10
295.5380950645
 20
105.2693202363
 10
295.9960211179
 20
105.6239746844
 10
296.4140343979
 20
105.9247638901
 10
296.7917468853
 20
106.1747357342
 10
297.1290894322
 20
106.3774431239
 10
297.4223861764
 20
106.5347993952
 10
297.6683125044
 20
106.649968791
 10
297.8611599665
 20
106.7263093265
 10
297.8959658366
 20
106.7383980691
  0
LWPOLYLINE
  5
422
100
AcDbEntity
  8
RUNDUNGEN
100
AcDbPolyline
 62
7
  6
CONTINUOUS
 90
11
 70
0
 10
270.4539347307
 20
78.8387079628
 10
272.2053394708
 20
80.4562158703
 10
274.0000407687
 20
82.1774428179
 10
275.7240574288
 20
83.8913964843
 10
277.3711226833
 20
85.583316398
 10
278.938330076
 20
87.2409028042
 10
280.4228493881
 20
88.8513331701
 10
281.8229667101
 20
90.4028586162
 10
283.137496563
 20
91.8845597045
 10
284.3632805394
 20
93.2836984566
 10
287.5752245389
 20
96.987533037
  0
LINE
  5
423
100
AcDbEntity
  8
0
100
AcDbLine
 62
7
  6
CONTINUOUS
 10
214.2464127784
 20
152.9445809732
 11
213.1630789285
 21
152.6679852615
  0
LINE
  5
424
100
AcDbEntity
  8
0
100
AcDbLine
 62
7
  6
CONTINUOUS
 10
210.4547466283
 20
157.9233043651
 11
211.5380789285
 21
158.1999000768
  0
LINE
  5
425
100
AcDbEntity
  8
0
100
AcDbLine
 62
7
  6
CONTINUOUS
 10
225.0797450786
 20
151.2850065093
 11
226.4339127784
 21
151.5616022452
  0
LINE
  5
426
100
AcDbEntity
  8
0
100
AcDbLine
 62
7
  6
CONTINUOUS
 10
213.1630789285
 20
151.2850065093
 11
214.5172466283
 21
151.5616022452
  0
LINE
  5
427
100
AcDbEntity
  8
0
100
AcDbLine
 62
7
  6
CONTINUOUS
 10
223.7255804782
 20
159.5828786354
 11
222.3714127784
 21
159.3062829237
  0
LINE
  5
428
100
AcDbEntity
  8
BEZUGSACHSEN
100
AcDbLine
 62
7
  6
CONTINUOUS
 10
114.6130453011
 20
150.7850065093
 11
306.8381158927
 21
150.7850065093
  0
LINE
  5
429
100
AcDbEntity
  8
0
100
AcDbLine
 62
7
  6
CONTINUOUS
 10
192.3089127784
 20
151.2850065093
 11
193.9339127784
 21
151.2850065093
  0
LINE
  5
42A
100
AcDbEntity
  8
0
100
AcDbLine
 62
7
  6
CONTINUOUS
 10
197.7255793159
 20
151.2850065093
 11
199.8922458535
 21
151.2850065093
  0
LINE
  5
42B
100
AcDbEntity
  8
0
100
AcDbLine
 62
7
  6
CONTINUOUS
 10
203.6839127784
 20
151.2850065093
 11
205.3089127784
 21
151.2850065093
  0
LINE
  5
42C
100
AcDbEntity
  8
0
100
AcDbLine
 62
7
  6
CONTINUOUS
 10
211.5380789285
 20
151.2850065093
 11
213.1630789285
 21
151.2850065093
  0
LINE
  5
42D
100
AcDbEntity
  8
0
100
AcDbLine
 62
7
  6
CONTINUOUS
 10
223.7255804782
 20
151.2850065093
 11
225.0797450786
 21
151.2850065093
  0
LINE
  5
42E
100
AcDbEntity
  8
0
100
AcDbLine
 62
7
  6
CONTINUOUS
 10
225.3505804782
 20
152.6679852615
 11
223.4547450786
 21
152.6679852615
  0
LINE
  5
42F
100
AcDbEntity
  8
0
100
AcDbLine
 62
7
  6
CONTINUOUS
 10
213.1630789285
 20
152.6679852615
 11
211.5380789285
 21
152.6679852615
  0
LINE
  5
430
100
AcDbEntity
  8
0
100
AcDbLine
 62
7
  6
CONTINUOUS
 10
209.1005789285
 20
154.6041554372
 11
207.4755789285
 21
154.6041554372
  0
LINE
  5
431
100
AcDbEntity
  8
0
100
AcDbLine
 62
7
  6
CONTINUOUS
 10
210.1839127784
 20
151.5616022452
 11
211.5380789285
 21
151.2850065093
  0
LINE
  5
432
100
AcDbEntity
  8
0
100
AcDbLine
 62
7
  6
CONTINUOUS
 10
222.3714127784
 20
151.5616022452
 11
223.7255804782
 21
151.2850065093
  0
LINE
  5
433
100
AcDbEntity
  8
0
100
AcDbLine
 62
7
  6
CONTINUOUS
 10
211.5380789285
 20
152.6679852615
 11
210.4547466283
 21
152.9445809732
  0
LINE
  5
434
100
AcDbEntity
  8
0
100
AcDbLine
 62
7
  6
CONTINUOUS
 10
213.1630789285
 20
158.1999000768
 11
214.2464127784
 21
157.9233043651
  0
LINE
  5
435
100
AcDbEntity
  8
0
100
AcDbLine
 62
7
  6
CONTINUOUS
 10
223.4547450786
 20
152.6679852615
 11
222.6422450786
 21
152.9445809732
  0
LINE
  5
436
100
AcDbEntity
  8
0
100
AcDbLine
 62
7
  6
CONTINUOUS
 10
221.0172450786
 20
152.391389453
 11
222.3714127784
 21
151.5616022452
  0
LINE
  5
437
100
AcDbEntity
  8
0
100
AcDbLine
 62
7
  6
CONTINUOUS
 10
215.8714127784
 20
158.4764957885
 11
214.5172466283
 21
159.3062829237
  0
LINE
  5
438
100
AcDbEntity
  8
0
100
AcDbLine
 62
7
  6
CONTINUOUS
 10
214.2464127784
 20
157.9233043651
 11
215.0589127784
 21
157.3701129417
  0
LINE
  5
439
100
AcDbEntity
  8
0
100
AcDbLine
 62
7
  6
CONTINUOUS
 10
222.6422450786
 20
152.9445809732
 11
221.8297450786
 21
153.4977723967
  0
LINE
  5
43A
100
AcDbEntity
  8
0
100
AcDbLine
 62
7
  6
CONTINUOUS
 10
226.1630804782
 20
157.9233043651
 11
226.9755804782
 21
157.3701129417
  0
LINE
  5
43B
100
AcDbEntity
  8
0
100
AcDbLine
 62
7
  6
CONTINUOUS
 10
226.9755804782
 20
157.3701129417
 11
227.5172450786
 21
156.8169215183
  0
LINE
  5
43C
100
AcDbEntity
  8
0
100
AcDbLine
 62
7
  6
CONTINUOUS
 10
228.6005804782
 20
157.6467086534
 11
227.7880804782
 21
158.4764957885
  0
LINE
  5
43D
100
AcDbEntity
  8
0
100
AcDbLine
 62
7
  6
CONTINUOUS
 10
228.3297450786
 20
162.0722408156
 11
227.5172450786
 21
163.1786236624
  0
LINE
  5
43E
100
AcDbEntity
  8
0
100
AcDbLine
 62
7
  6
CONTINUOUS
 10
226.7047450786
 20
162.0722408156
 11
227.2464127784
 21
161.2424536805
  0
LINE
  5
43F
100
AcDbEntity
  8
0
100
AcDbLine
 62
7
  6
CONTINUOUS
 10
276.5812170619
 20
106.7850065093
 11
276.5812170619
 21
106.2850065093
  0
LINE
  5
440
100
AcDbEntity
  8
0
100
AcDbLine
 62
7
  6
CONTINUOUS
 10
211.5380789285
 20
159.5828786354
 11
210.1839127784
 21
159.3062829237
  0
LINE
  5
441
100
AcDbEntity
  8
0
100
AcDbLine
 62
7
  6
CONTINUOUS
 10
223.7255804782
 20
164.2850065093
 11
222.3714127784
 21
164.0084107976
  0
LINE
  5
442
100
AcDbEntity
  8
0
100
AcDbLine
 62
7
  6
CONTINUOUS
 10
207.4755789285
 20
157.09351723
 11
209.3714127784
 21
157.09351723
  0
LINE
  5
443
100
AcDbEntity
  8
0
100
AcDbLine
 62
7
  6
CONTINUOUS
 10
211.5380789285
 20
158.1999000768
 11
213.1630789285
 21
158.1999000768
  0
LINE
  5
444
100
AcDbEntity
  8
0
100
AcDbLine
 62
7
  6
CONTINUOUS
 10
223.4547450786
 20
158.1999000768
 11
225.3505804782
 21
158.1999000768
  0
LINE
  5
445
100
AcDbEntity
  8
0
100
AcDbLine
 62
7
  6
CONTINUOUS
 10
225.0797450786
 20
159.5828786354
 11
223.7255804782
 21
159.5828786354
  0
LINE
  5
446
100
AcDbEntity
  8
0
100
AcDbLine
 62
7
  6
CONTINUOUS
 10
213.1630789285
 20
159.5828786354
 11
211.5380789285
 21
159.5828786354
  0
LINE
  5
447
100
AcDbEntity
  8
0
100
AcDbLine
 62
7
  6
CONTINUOUS
 10
227.2464127784
 20
161.2424536805
 11
228.6005804782
 21
161.2424536805
  0
LINE
  5
448
100
AcDbEntity
  8
0
100
AcDbLine
 62
7
  6
CONTINUOUS
 10
208.8297466283
 20
162.9020279507
 11
216.6839127784
 21
162.9020279507
  0
LINE
  5
449
100
AcDbEntity
  8
0
100
AcDbLine
 62
7
  6
CONTINUOUS
 10
223.4547450786
 20
162.9020279507
 11
225.0797450786
 21
162.9020279507
  0
LINE
  5
44A
100
AcDbEntity
  8
0
100
AcDbLine
 62
7
  6
CONTINUOUS
 10
224.8089127784
 20
164.2850065093
 11
223.7255804782
 21
164.2850065093
  0
LINE
  5
44B
100
AcDbEntity
  8
0
100
AcDbLine
 62
7
  6
CONTINUOUS
 10
216.6839127784
 20
164.2850065093
 11
207.4755789285
 21
164.2850065093
  0
LINE
  5
44C
100
AcDbEntity
  8
0
100
AcDbLine
 62
7
  6
CONTINUOUS
 10
205.3089127784
 20
164.2850065093
 11
202.8714127784
 21
164.2850065093
  0
LINE
  5
44D
100
AcDbEntity
  8
0
100
AcDbLine
 62
7
  6
CONTINUOUS
 10
194.7464127784
 20
164.2850065093
 11
192.3089127784
 21
164.2850065093
  0
LINE
  5
44E
100
AcDbEntity
  8
0
100
AcDbLine
 62
7
  6
CONTINUOUS
 10
214.5172466283
 20
159.3062829237
 11
213.1630789285
 21
159.5828786354
  0
LINE
  5
44F
100
AcDbEntity
  8
0
100
AcDbLine
 62
7
  6
CONTINUOUS
 10
226.4339127784
 20
159.3062829237
 11
225.0797450786
 21
159.5828786354
  0
LINE
  5
450
100
AcDbEntity
  8
0
100
AcDbLine
 62
7
  6
CONTINUOUS
 10
226.1630804782
 20
164.0084107976
 11
224.8089127784
 21
164.2850065093
  0
LINE
  5
451
100
AcDbEntity
  8
0
100
AcDbLine
 62
7
  6
CONTINUOUS
 10
225.3505804782
 20
158.1999000768
 11
226.1630804782
 21
157.9233043651
  0
LINE
  5
452
100
AcDbEntity
  8
0
100
AcDbLine
 62
7
  6
CONTINUOUS
 10
225.0797450786
 20
162.9020279507
 11
225.8922450786
 21
162.625432239
  0
LINE
  5
453
100
AcDbEntity
  8
0
100
AcDbLine
 62
7
  6
CONTINUOUS
 10
227.7880804782
 20
158.4764957885
 11
226.4339127784
 21
159.3062829237
  0
LINE
  5
454
100
AcDbEntity
  8
0
100
AcDbLine
 62
7
  6
CONTINUOUS
 10
227.5172450786
 20
163.1786236624
 11
226.1630804782
 21
164.0084107976
  0
LINE
  5
455
100
AcDbEntity
  8
0
100
AcDbLine
 62
7
  6
CONTINUOUS
 10
225.8922450786
 20
162.625432239
 11
226.7047450786
 21
162.0722408156
  0
LINE
  5
456
100
AcDbEntity
  8
BEZUGSACHSEN
100
AcDbLine
 62
7
  6
CONTINUOUS
 10
298.0619695248
 20
150.7850065093
 11
297.9947157058
 21
150.8010781814
  0
LINE
  5
457
100
AcDbEntity
  8
BEZUGSACHSEN
100
AcDbLine
 62
7
  6
CONTINUOUS
 10
297.9947157058
 20
150.8010781814
 11
297.8611612553
 21
150.8437032335
  0
LWPOLYLINE
  5
458
100
AcDbEntity
  8
BEZUGSACHSEN
100
AcDbPolyline
 62
7
  6
CONTINUOUS
 90
19
 70
0
 10
297.8611612553
 20
150.8437032335
 10
297.6683180947
 20
150.9200418162
 10
297.4223983579
 20
151.0352075069
 10
297.1291105239
 20
151.1925579029
 10
296.7917773272
 20
151.3952580654
 10
296.4140724907
 20
151.6452228182
 10
295.9960648085
 20
151.9460056939
 10
295.5381411058
 20
152.3006559204
 10
295.0382109233
 20
152.7139314875
 10
294.4929078294
 20
153.1917506555
 10
293.9021024996
 20
153.7370804057
 10
293.262677482
 20
154.3552035361
 10
292.5776839242
 20
155.044800996
 10
291.848313406
 20
155.8052252778
 10
291.0765063374
 20
156.6339962373
 10
290.2652550815
 20
157.5264413898
 10
289.4123237063
 20
158.4828130324
 10
288.5189556219
 20
159.4988519814
 10
287.5758792632
 20
160.5817257599
  0
LWPOLYLINE
  5
459
100
AcDbEntity
  8
BEZUGSACHSEN
100
AcDbPolyline
 62
7
  6
CONTINUOUS
 90
7
 70
0
 10
315.4106044689
 20
128.7850065084
 10
315.3955148688
 20
131.1084674952
 10
315.3458914459
 20
133.5982374774
 10
315.2610586003
 20
136.1033787519
 10
315.1405235251
 20
138.6208311043
 10
314.9840329485
 20
141.1474633944
 10
314.8115398675
 20
143.436600845
  0
LWPOLYLINE
  5
45A
100
AcDbEntity
  8
RUNDUNGEN
100
AcDbPolyline
 62
7
  6
CONTINUOUS
 90
7
 70
0
 10
314.8115398675
 20
114.1334121735
 10
314.9840329485
 20
116.4225496242
 10
315.1405235251
 20
118.9491819142
 10
315.2610586003
 20
121.4666342666
 10
315.3458914459
 20
123.9717755411
 10
315.3955148688
 20
126.4615455234
 10
315.4106044689
 20
128.7850065084
  0
LWPOLYLINE
  5
45B
100
AcDbEntity
  8
BEZUGSACHSEN
100
AcDbPolyline
 62
7
  6
CONTINUOUS
 90
41
 70
0
 10
270.4539299293
 20
178.731309244
 10
268.2102089684
 20
180.6918441685
 10
265.7564859306
 20
182.681128732
 10
263.2167796102
 20
184.5856881933
 10
260.594467884
 20
186.402303174
 10
257.8927581757
 20
188.1279987474
 10
255.1151155899
 20
189.7594474325
 10
252.2651742748
 20
191.2934124388
 10
249.3472352918
 20
192.7269207342
 10
246.3656409128
 20
194.0571636667
 10
243.3242779676
 20
195.281678569
 10
240.2268002424
 20
196.398217525
 10
237.0788808442
 20
197.4040434962
 10
233.8858937804
 20
198.2967996618
 10
230.653123644
 20
199.0746115677
 10
227.3858785406
 20
199.7358578653
 10
224.0898585804
 20
200.278939544
 10
220.7708424984
 20
200.7024872548
 10
217.4345267456
 20
201.0057370446
 10
214.0865621666
 20
201.1881742793
 10
210.7327335976
 20
201.2492616305
 10
207.3788955145
 20
201.1886930028
 10
204.0308997458
 20
201.0067728068
 10
200.6945306481
 20
200.7040385105
 10
197.375437511
 20
200.2810045839
 10
194.0793130201
 20
199.7384322505
 10
190.8119358298
 20
199.0776884814
 10
187.5790068378
 20
198.3003716527
 10
184.3858391882
 20
197.4081035476
 10
181.2377184304
 20
196.402757303
 10
178.1400173123
 20
195.2866879886
 10
175.098412767
 20
194.0626331269
 10
172.116560761
 20
192.7328407413
 10
169.1983464425
 20
191.2997722284
 10
166.3481101276
 20
189.7662348496
 10
163.5701554757
 20
188.1352011258
 10
160.8681184469
 20
186.4099065759
 10
158.2454628338
 20
184.5936780444
 10
155.7053976769
 20
182.6894920456
 10
153.2513017506
 20
180.7005663555
 10
150.9972284914
 20
178.7313099596
  0
LWPOLYLINE
  5
45C
100
AcDbEntity
  8
BEZUGSACHSEN
100
AcDbPolyline
 62
7
  6
CONTINUOUS
 90
10
 70
0
 10
284.3638476192
 20
164.2856641548
 10
283.1377215091
 20
165.6851979554
 10
281.8226574408
 20
167.1675003256
 10
280.4219361033
 20
168.719681967
 10
278.9368456994
 20
170.3307013962
 10
277.3691960887
 20
171.9887061735
 10
275.7219328294
 20
173.6807648978
 10
273.9980816743
 20
175.3944842467
 10
272.2040911557
 20
177.1149718763
 10
270.4539347095
 20
178.731305075
  0
LINE
  5
45D
100
AcDbEntity
  8
BEZUGSACHSEN
100
AcDbLine
 62
7
  6
CONTINUOUS
 10
287.5758792632
 20
160.5817257599
 11
284.3638476192
 21
164.2856641548
  0
ARC
  5
45E
100
AcDbEntity
  8
BEZUGSACHSEN
100
AcDbCircle
 62
7
  6
CONTINUOUS
 10
132.2255788093
 20
354.6501701086
 40
22.5
100
AcDbArc
 50
0.0173855117
 51
68.3329745679
  0
ARC
  5
45F
100
AcDbEntity
  8
RUNDUNGEN
100
AcDbCircle
 62
7
  6
CONTINUOUS
 10
175.78276839
 20
462.1501701086
 40
20.0
100
AcDbArc
 50
176.7241710402
 51
183.2758289598
  0
ARC
  5
460
100
AcDbEntity
  8
BEZUGSACHSEN
100
AcDbCircle
 62
7
  6
CONTINUOUS
 10
144.0761174317
 20
530.4255339885
 40
9.0
100
AcDbArc
 50
153.8764824011
 51
157.5000000003
  0
ARC
  5
461
100
AcDbEntity
  8
BEZUGSACHSEN
100
AcDbCircle
 62
7
  6
CONTINUOUS
 10
144.0761174317
 20
530.4255339885
 40
9.0
100
AcDbArc
 50
110.9999999998
 51
114.623517599
  0
ARC
  5
462
100
AcDbEntity
  8
RUNDUNGEN
100
AcDbCircle
 62
7
  6
CONTINUOUS
 10
144.0761174317
 20
530.4255339885
 40
9.0
100
AcDbArc
 50
111.0
 51
157.5
  0
ARC
  5
463
100
AcDbEntity
  8
BEZUGSACHSEN
100
AcDbCircle
 62
7
  6
CONTINUOUS
 10
115.0405524374
 20
460.327479188
 40
9.0
100
AcDbArc
 50
157.5000003065
 51
202.5734334055
  0
ARC
  5
464
100
AcDbEntity
  8
BEZUGSACHSEN
100
AcDbCircle
 62
7
  6
CONTINUOUS
 10
289.2255788093
 20
354.6501701086
 40
22.5
100
AcDbArc
 50
111.6670254321
 51
179.9826145037
  0
ARC
  5
465
100
AcDbEntity
  8
0
100
AcDbCircle
 62
7
  6
CONTINUOUS
 10
210.7255788093
 20
464.1501701086
 40
55.0
100
AcDbArc
 50
341.9171653987
 51
356.7241710402
  0
ARC
  5
466
100
AcDbEntity
  8
0
100
AcDbCircle
 62
7
  6
CONTINUOUS
 10
210.7255788093
 20
464.1501701086
 40
55.0
100
AcDbArc
 50
183.2758289598
 51
198.0828346013
  0
ARC
  5
467
100
AcDbEntity
  8
RUNDUNGEN
100
AcDbCircle
 62
7
  6
CONTINUOUS
 10
210.7255788093
 20
460.1501701086
 40
55.0
100
AcDbArc
 50
3.2758289598
 51
176.7241710402
  0
ARC
  5
468
100
AcDbEntity
  8
RUNDUNGEN
100
AcDbCircle
 62
7
  6
CONTINUOUS
 10
245.6683892286
 20
462.1501701086
 40
20.0
100
AcDbArc
 50
356.7241710402
 51
3.2758289598
  0
ARC
  5
469
100
AcDbEntity
  8
BEZUGSACHSEN
100
AcDbCircle
 62
7
  6
CONTINUOUS
 10
277.3750401869
 20
530.4255339885
 40
9.0
100
AcDbArc
 50
65.376482401
 51
69.0000000003
  0
ARC
  5
46A
100
AcDbEntity
  8
BEZUGSACHSEN
100
AcDbCircle
 62
7
  6
CONTINUOUS
 10
277.3750401869
 20
530.4255339885
 40
9.0
100
AcDbArc
 50
22.4999999998
 51
26.123517599
  0
ARC
  5
46B
100
AcDbEntity
  8
BEZUGSACHSEN
100
AcDbCircle
 62
7
  6
CONTINUOUS
 10
210.7255788093
 20
556.0098651658
 40
9.0
100
AcDbArc
 50
68.9999999997
 51
111.0000000004
  0
ARC
  5
46C
100
AcDbEntity
  8
BEZUGSACHSEN
100
AcDbCircle
 62
7
  6
CONTINUOUS
 10
306.4106045944
 20
460.3274806047
 40
9.0
100
AcDbArc
 50
337.4265597005
 51
22.4999899315
  0
ARC
  5
46D
100
AcDbEntity
  8
RUNDUNGEN
100
AcDbCircle
 62
7
  6
CONTINUOUS
 10
277.3750401869
 20
530.4255339885
 40
9.0
100
AcDbArc
 50
22.5
 51
69.0
  0
ARC
  5
46E
100
AcDbEntity
  8
RUNDUNGEN
100
AcDbCircle
 62
7
  6
CONTINUOUS
 10
210.7255788093
 20
556.0098651658
 40
9.0
100
AcDbArc
 50
69.0
 51
111.0
  0
ARC
  5
46F
100
AcDbEntity
  8
0
100
AcDbCircle
 62
7
  6
CONTINUOUS
 10
271.9355788093
 20
514.7642608669
 40
6.0
100
AcDbArc
 50
39.2608295227
 51
230.7391704773
  0
ARC
  5
470
100
AcDbEntity
  8
0
100
AcDbCircle
 62
7
  6
CONTINUOUS
 10
264.7255788093
 20
521.9742608669
 40
6.0
100
AcDbArc
 50
39.2608295227
 51
230.7391704773
  0
ARC
  5
471
100
AcDbEntity
  8
0
100
AcDbCircle
 62
7
  6
CONTINUOUS
 10
271.9355788093
 20
514.7642608669
 40
4.2
100
AcDbArc
 50
147.3736251162
 51
233.2132107017
  0
ARC
  5
472
100
AcDbEntity
  8
0
100
AcDbCircle
 62
7
  6
CONTINUOUS
 10
271.9355788093
 20
514.7642608669
 40
4.2
100
AcDbArc
 50
36.7867892983
 51
122.4447123387
  0
ARC
  5
473
100
AcDbEntity
  8
0
100
AcDbCircle
 62
7
  6
CONTINUOUS
 10
264.7255788093
 20
521.9742608669
 40
4.2
100
AcDbArc
 50
36.7867892983
 51
233.2132107017
  0
ARC
  5
474
100
AcDbEntity
  8
0
100
AcDbCircle
 62
7
  6
CONTINUOUS
 10
-7781.7582497326
 20
3949.5883274547
 40
9117.7512927994
100
AcDbArc
 50
336.8473449309
 51
336.9748844508
  0
ARC
  5
475
100
AcDbEntity
  8
0
100
AcDbCircle
 62
7
  6
CONTINUOUS
 10
396.4471011614
 20
474.9278110982
 40
233.8545993349
100
AcDbArc
 50
336.5549459002
 51
336.9379277225
  0
ARC
  5
476
100
AcDbEntity
  8
0
100
AcDbCircle
 62
7
  6
CONTINUOUS
 10
385.7770718729
 20
446.0583345156
 40
232.6785064793
100
AcDbArc
 50
340.5238494521
 51
340.8985315966
  0
ARC
  5
477
100
AcDbEntity
  8
0
100
AcDbCircle
 62
7
  6
CONTINUOUS
 10
396.7237845419
 20
451.4991728547
 40
224.6338471752
100
AcDbArc
 50
338.3105468255
 51
338.7042367389
  0
ARC
  5
478
100
AcDbEntity
  8
0
100
AcDbCircle
 62
7
  6
CONTINUOUS
 10
409.3961283384
 20
478.9103158784
 40
223.4025383727
100
AcDbArc
 50
334.2585621551
 51
334.6667763865
  0
ARC
  5
479
100
AcDbEntity
  8
0
100
AcDbCircle
 62
7
  6
CONTINUOUS
 10
450.4490362992
 20
464.9624663841
 40
180.1316868186
100
AcDbArc
 50
333.0485366299
 51
333.7297895538
  0
ARC
  5
47A
100
AcDbEntity
  8
0
100
AcDbCircle
 62
7
  6
CONTINUOUS
 10
451.0974044081
 20
464.4632787387
 40
178.841369889
100
AcDbArc
 50
333.0177564592
 51
333.7040941433
  0
ARC
  5
47B
100
AcDbEntity
  8
0
100
AcDbCircle
 62
7
  6
CONTINUOUS
 10
434.6861481678
 20
422.7681303409
 40
178.5834920689
100
AcDbArc
 50
341.656335448
 51
342.3023953474
  0
ARC
  5
47C
100
AcDbEntity
  8
0
100
AcDbCircle
 62
7
  6
CONTINUOUS
 10
435.3472716787
 20
422.2662042571
 40
177.2808308639
100
AcDbArc
 50
341.6876437254
 51
342.3383268321
  0
ARC
  5
47D
100
AcDbEntity
  8
0
100
AcDbCircle
 62
7
  6
CONTINUOUS
 10
493.7702845771
 20
459.1583728946
 40
137.7841388477
100
AcDbArc
 50
326.8428576639
 51
328.4921046918
  0
ARC
  5
47E
100
AcDbEntity
  8
0
100
AcDbCircle
 62
7
  6
CONTINUOUS
 10
494.154144346
 20
458.7560521287
 40
136.7737040997
100
AcDbArc
 50
326.7676056752
 51
328.43029765
  0
ARC
  5
47F
100
AcDbEntity
  8
0
100
AcDbCircle
 62
7
  6
CONTINUOUS
 10
495.5311239669
 20
453.7471201295
 40
134.0698978616
100
AcDbArc
 50
326.6128451626
 51
328.3116493759
  0
ARC
  5
480
100
AcDbEntity
  8
BEZUGSACHSEN
100
AcDbCircle
 62
7
  6
CONTINUOUS
 10
488.7078617332
 20
440.5882972179
 40
32.5
100
AcDbArc
 50
284.9999314038
 51
0.0000735134
  0
ARC
  5
481
100
AcDbEntity
  8
0
100
AcDbCircle
 62
7
  6
CONTINUOUS
 10
499.8961332923
 20
382.7920039481
 40
23.5472541719
100
AcDbArc
 50
226.8682097837
 51
228.6002002943
  0
ARC
  5
482
100
AcDbEntity
  8
0
100
AcDbCircle
 62
7
  6
CONTINUOUS
 10
495.0258829712
 20
384.8406926684
 40
20.8419484323
100
AcDbArc
 50
238.6382421064
 51
241.2667802665
  0
ARC
  5
483
100
AcDbEntity
  8
0
100
AcDbCircle
 62
7
  6
CONTINUOUS
 10
494.4696406441
 20
384.7352416782
 40
20.7525628967
100
AcDbArc
 50
238.4840767823
 51
241.1116868755
  0
ARC
  5
484
100
AcDbEntity
  8
0
100
AcDbCircle
 62
7
  6
CONTINUOUS
 10
488.2359680104
 20
380.6637716167
 40
11.4048206628
100
AcDbArc
 50
202.501247798
 51
203.3717535153
  0
ARC
  5
485
100
AcDbEntity
  8
0
100
AcDbCircle
 62
7
  6
CONTINUOUS
 10
491.2578349391
 20
371.4460788965
 40
10.6692033794
100
AcDbArc
 50
201.5767406925
 51
202.5012523373
  0
ARC
  5
486
100
AcDbEntity
  8
BEZUGSACHSEN
100
AcDbCircle
 62
7
  6
CONTINUOUS
 10
478.7436063351
 20
395.9896977242
 40
8.0
100
AcDbArc
 50
105.0
 51
202.5
  0
ARC
  5
487
100
AcDbEntity
  8
0
100
AcDbCircle
 62
7
  6
CONTINUOUS
 10
477.3976996694
 20
388.4385461918
 40
4.3668437234
100
AcDbArc
 50
202.5033521083
 51
203.8700013696
  0
ARC
  5
488
100
AcDbEntity
  8
0
100
AcDbCircle
 62
7
  6
CONTINUOUS
 10
477.9123727322
 20
388.4275619231
 40
4.3381361327
100
AcDbArc
 50
202.5033978878
 51
203.8791386048
  0
ARC
  5
489
100
AcDbEntity
  8
0
100
AcDbCircle
 62
7
  6
CONTINUOUS
 10
480.6256722908
 20
380.3541086377
 40
4.2553214177
100
AcDbArc
 50
202.5150088735
 51
205.3359726864
  0
ARC
  5
48A
100
AcDbEntity
  8
0
100
AcDbCircle
 62
7
  6
CONTINUOUS
 10
481.1403851899
 20
380.3431481231
 40
4.226659725
100
AcDbArc
 50
202.5152257081
 51
205.3555405169
  0
ARC
  5
48B
100
AcDbEntity
  8
0
100
AcDbCircle
 62
7
  6
CONTINUOUS
 10
477.1663661144
 20
388.3443707073
 40
4.1170803648
100
AcDbArc
 50
196.8615520673
 51
202.5247186716
  0
ARC
  5
48C
100
AcDbEntity
  8
0
100
AcDbCircle
 62
7
  6
CONTINUOUS
 10
486.1498676891
 20
366.4928677567
 40
4.0545472303
100
AcDbArc
 50
202.558985238
 51
207.0312756335
  0
ARC
  5
48D
100
AcDbEntity
  8
0
100
AcDbCircle
 62
7
  6
CONTINUOUS
 10
480.3510230166
 20
380.2413011412
 40
3.9584093729
100
AcDbArc
 50
198.0945908714
 51
202.5289183415
  0
ARC
  5
48E
100
AcDbEntity
  8
0
100
AcDbCircle
 62
7
  6
CONTINUOUS
 10
485.8285117242
 20
366.356319475
 40
3.7053962523
100
AcDbArc
 50
199.3448836944
 51
202.5154247928
  0
ARC
  5
48F
100
AcDbEntity
  8
0
100
AcDbCircle
 62
7
  6
CONTINUOUS
 10
486.343238231
 20
366.3453626077
 40
3.6767485263
100
AcDbArc
 50
199.3206535582
 51
202.5156486058
  0
ARC
  5
490
100
AcDbEntity
  8
0
100
AcDbCircle
 62
7
  6
CONTINUOUS
 10
-125.3772680313
 20
635.1787928129
 40
777.3759998255
100
AcDbArc
 50
339.935624886
 51
340.1233313787
  0
ARC
  5
491
100
AcDbEntity
  8
0
100
AcDbCircle
 62
7
  6
CONTINUOUS
 10
-121.8542527941
 20
633.444316596
 40
772.9588039149
100
AcDbArc
 50
339.9529097066
 51
340.1416675658
  0
ARC
  5
492
100
AcDbEntity
  8
0
100
AcDbCircle
 62
7
  6
CONTINUOUS
 10
-73.8439729325
 20
689.3829967855
 40
750.3723206755
100
AcDbArc
 50
335.687770136
 51
335.808045813
  0
ARC
  5
493
100
AcDbEntity
  8
0
100
AcDbCircle
 62
7
  6
CONTINUOUS
 10
-42.5673391207
 20
667.2687438692
 40
713.0101070922
100
AcDbArc
 50
335.605943408
 51
335.7325999877
  0
ARC
  5
494
100
AcDbEntity
  8
0
100
AcDbCircle
 62
7
  6
CONTINUOUS
 10
136.537057224
 20
604.4125127014
 40
523.4622440074
100
AcDbArc
 50
334.7266270267
 51
335.0160100447
  0
ARC
  5
495
100
AcDbEntity
  8
0
100
AcDbCircle
 62
7
  6
CONTINUOUS
 10
140.0836962925
 20
602.6851367686
 40
519.0235774748
100
AcDbArc
 50
334.7061581979
 51
334.9980619296
  0
ARC
  5
496
100
AcDbEntity
  8
0
100
AcDbCircle
 62
7
  6
CONTINUOUS
 10
520.8006879107
 20
383.4998450453
 40
42.5759996079
100
AcDbArc
 50
200.6573414648
 51
202.0407679307
  0
ARC
  5
497
100
AcDbEntity
  8
0
100
AcDbCircle
 62
7
  6
CONTINUOUS
 10
513.5382964576
 20
377.3973977341
 40
33.5310219525
100
AcDbArc
 50
198.8477247418
 51
201.4620687744
  0
ARC
  5
498
100
AcDbEntity
  8
0
100
AcDbCircle
 62
7
  6
CONTINUOUS
 10
513.8415646643
 20
377.2989264295
 40
33.2735203085
100
AcDbArc
 50
198.8199167952
 51
201.4541956346
  0
ARC
  5
499
100
AcDbEntity
  8
0
100
AcDbCircle
 62
7
  6
CONTINUOUS
 10
516.3663858033
 20
421.5339977285
 40
102.6276861094
100
AcDbArc
 50
332.5496062212
 51
333.1503304165
  0
ARC
  5
49A
100
AcDbEntity
  8
0
100
AcDbCircle
 62
7
  6
CONTINUOUS
 10
515.151506186
 20
415.9813480501
 40
101.6283069093
100
AcDbArc
 50
335.7400764824
 51
336.3307871747
  0
ARC
  5
49B
100
AcDbEntity
  8
0
100
AcDbCircle
 62
7
  6
CONTINUOUS
 10
526.8195057186
 20
401.0230201316
 40
54.9604638047
100
AcDbArc
 50
216.929222749
 51
218.1883546421
  0
ARC
  5
49C
100
AcDbEntity
  8
0
100
AcDbCircle
 62
7
  6
CONTINUOUS
 10
527.0718211846
 20
400.9154826404
 40
54.6543151447
100
AcDbArc
 50
217.0294889729
 51
218.2974578695
  0
ARC
  5
49D
100
AcDbEntity
  8
0
100
AcDbCircle
 62
7
  6
CONTINUOUS
 10
526.1879979491
 20
397.2205980426
 40
52.8804831327
100
AcDbArc
 50
215.430400155
 51
216.713886113
  0
ARC
  5
49E
100
AcDbEntity
  8
0
100
AcDbCircle
 62
7
  6
CONTINUOUS
 10
518.3017455563
 20
402.4661203288
 40
47.5253748178
100
AcDbArc
 50
202.5014572615
 51
203.7566511496
  0
ARC
  5
49F
100
AcDbEntity
  8
0
100
AcDbCircle
 62
7
  6
CONTINUOUS
 10
519.964221114
 20
393.9977522987
 40
45.8206193349
100
AcDbArc
 50
202.9384477877
 51
204.2448914651
  0
ARC
  5
4A0
100
AcDbEntity
  8
0
100
AcDbCircle
 62
7
  6
CONTINUOUS
 10
509.9577782358
 20
402.1630790543
 40
39.7006592108
100
AcDbArc
 50
202.9676265045
 51
205.2384195757
  0
ARC
  5
4A1
100
AcDbEntity
  8
0
100
AcDbCircle
 62
7
  6
CONTINUOUS
 10
510.260856717
 20
402.0645516943
 40
39.4429634952
100
AcDbArc
 50
202.9708266311
 51
205.2566489158
  0
ARC
  5
4A2
100
AcDbEntity
  8
0
100
AcDbCircle
 62
7
  6
CONTINUOUS
 10
511.991854389
 20
393.8180294916
 40
38.3865434117
100
AcDbArc
 50
203.4646575312
 51
205.8232678756
  0
ARC
  5
4A3
100
AcDbEntity
  8
0
100
AcDbCircle
 62
7
  6
CONTINUOUS
 10
512.4525154153
 20
393.794564632
 40
38.3033890623
100
AcDbArc
 50
204.2675407405
 51
205.8444689782
  0
ARC
  5
4A4
100
AcDbEntity
  8
0
100
AcDbCircle
 62
7
  6
CONTINUOUS
 10
511.8266084738
 20
393.5097926665
 40
37.6157489741
100
AcDbArc
 50
203.4624667803
 51
204.2639430184
  0
ARC
  5
4A5
100
AcDbEntity
  8
0
100
AcDbCircle
 62
7
  6
CONTINUOUS
 10
565.6150355557
 20
383.4998450453
 40
42.5759996079
100
AcDbArc
 50
337.9592320693
 51
339.3426585352
  0
ARC
  5
4A6
100
AcDbEntity
  8
0
100
AcDbCircle
 62
7
  6
CONTINUOUS
 10
566.5801357699
 20
379.1074930552
 40
39.9993282003
100
AcDbArc
 50
343.164228306
 51
344.5918734014
  0
ARC
  5
4A7
100
AcDbEntity
  8
0
100
AcDbCircle
 62
7
  6
CONTINUOUS
 10
573.9711575386
 20
373.4311580644
 40
30.9940141525
100
AcDbArc
 50
344.4626370493
 51
347.2011049569
  0
ARC
  5
4A8
100
AcDbEntity
  8
0
100
AcDbCircle
 62
7
  6
CONTINUOUS
 10
573.665283121
 20
373.3349120088
 40
30.7396507926
100
AcDbArc
 50
344.5170126912
 51
347.2773524544
  0
ARC
  5
4A9
100
AcDbEntity
  8
0
100
AcDbCircle
 62
7
  6
CONTINUOUS
 10
599.554006751
 20
391.9018193318
 40
14.4458656597
100
AcDbArc
 50
328.1455851241
 51
330.3550673815
  0
ARC
  5
4AA
100
AcDbEntity
  8
0
100
AcDbCircle
 62
7
  6
CONTINUOUS
 10
596.6283760604
 20
383.5907784068
 40
13.969296859
100
AcDbArc
 50
327.7644168886
 51
330.057408886
  0
ARC
  5
4AB
100
AcDbEntity
  8
0
100
AcDbCircle
 62
7
  6
CONTINUOUS
 10
601.2810702526
 20
388.7274580189
 40
11.6254186157
100
AcDbArc
 50
337.4958768832
 51
339.1873424656
  0
ARC
  5
4AC
100
AcDbEntity
  8
0
100
AcDbCircle
 62
7
  6
CONTINUOUS
 10
598.179755456
 20
380.6637716167
 40
11.4048206628
100
AcDbArc
 50
336.6282464847
 51
337.498752202
  0
ARC
  5
4AD
100
AcDbEntity
  8
0
100
AcDbCircle
 62
7
  6
CONTINUOUS
 10
601.514865618
 20
388.6379066558
 40
11.3750602635
100
AcDbArc
 50
339.1905522389
 51
340.0490194595
  0
ARC
  5
4AE
100
AcDbEntity
  8
0
100
AcDbCircle
 62
7
  6
CONTINUOUS
 10
598.350707071
 20
380.5929330265
 40
11.2197732092
100
AcDbArc
 50
337.4988642566
 51
338.3770857126
  0
ARC
  5
4AF
100
AcDbEntity
  8
0
100
AcDbCircle
 62
7
  6
CONTINUOUS
 10
598.5098648976
 20
380.5298375897
 40
11.0485650089
100
AcDbArc
 50
338.3771182721
 51
339.265665868
  0
ARC
  5
4B0
100
AcDbEntity
  8
0
100
AcDbCircle
 62
7
  6
CONTINUOUS
 10
594.8946829624
 20
371.5560091081
 40
10.9544421341
100
AcDbArc
 50
335.6752535652
 51
337.4943979363
  0
ARC
  5
4B1
100
AcDbEntity
  8
0
100
AcDbCircle
 62
7
  6
CONTINUOUS
 10
595.1578885273
 20
371.4460788965
 40
10.6692033794
100
AcDbArc
 50
337.4987476627
 51
338.4232593075
  0
ARC
  5
4B2
100
AcDbEntity
  8
0
100
AcDbCircle
 62
7
  6
CONTINUOUS
 10
595.7974231779
 20
369.2439647974
 40
9.229583337
100
AcDbArc
 50
346.2088648063
 51
349.2505362337
  0
ARC
  5
4B3
100
AcDbEntity
  8
0
100
AcDbCircle
 62
7
  6
CONTINUOUS
 10
609.2416468339
 20
388.347392033
 40
4.1253600997
100
AcDbArc
 50
337.4775440526
 51
342.8613107737
  0
ARC
  5
4B4
100
AcDbEntity
  8
0
100
AcDbCircle
 62
7
  6
CONTINUOUS
 10
600.2658557773
 20
366.4928677567
 40
4.0545472303
100
AcDbArc
 50
332.9687243665
 51
337.441014762
  0
ARC
  5
4B5
100
AcDbEntity
  8
0
100
AcDbCircle
 62
7
  6
CONTINUOUS
 10
606.0530142835
 20
380.245823135
 40
3.9709363361
100
AcDbArc
 50
337.4754196332
 51
341.5389250781
  0
ARC
  5
4B6
100
AcDbEntity
  8
0
100
AcDbCircle
 62
7
  6
CONTINUOUS
 10
600.7562846315
 20
365.137587821
 40
3.0762534867
100
AcDbArc
 50
350.8833362754
 51
359.8380664341
  0
ARC
  5
4B7
100
AcDbEntity
  8
0
100
AcDbCircle
 62
7
  6
CONTINUOUS
 10
600.2378526521
 20
365.1279913333
 40
3.0515321252
100
AcDbArc
 50
350.9913231251
 51
0.0169391016
  0
ARC
  5
4B8
100
AcDbEntity
  8
0
100
AcDbCircle
 62
7
  6
CONTINUOUS
 10
571.1203419759
 20
419.8289952523
 40
102.9675177229
100
AcDbArc
 50
204.5196203996
 51
205.4011093203
  0
ARC
  5
4B9
100
AcDbEntity
  8
0
100
AcDbCircle
 62
7
  6
CONTINUOUS
 10
570.9995142142
 20
419.5545924062
 40
102.2508728001
100
AcDbArc
 50
204.5337916673
 51
205.4215837774
  0
ARC
  5
4BA
100
AcDbEntity
  8
0
100
AcDbCircle
 62
7
  6
CONTINUOUS
 10
571.2642172804
 20
415.9813480501
 40
101.6283069093
100
AcDbArc
 50
203.6692128253
 51
204.2599235176
  0
ARC
  5
4BB
100
AcDbEntity
  8
0
100
AcDbCircle
 62
7
  6
CONTINUOUS
 10
566.3612843232
 20
407.8393650789
 40
51.2056959764
100
AcDbArc
 50
331.3907828648
 51
332.6041781606
  0
ARC
  5
4BC
100
AcDbEntity
  8
0
100
AcDbCircle
 62
7
  6
CONTINUOUS
 10
564.476564769
 20
402.3902062568
 40
50.868344717
100
AcDbArc
 50
329.5597032143
 51
330.7201206125
  0
ARC
  5
4BD
100
AcDbEntity
  8
0
100
AcDbCircle
 62
7
  6
CONTINUOUS
 10
565.1285984803
 20
402.0253658248
 40
50.1211772856
100
AcDbArc
 50
330.7964121725
 51
332.0495107567
  0
ARC
  5
4BE
100
AcDbEntity
  8
0
100
AcDbCircle
 62
7
  6
CONTINUOUS
 10
564.8304949816
 20
398.9466361617
 40
49.2173059539
100
AcDbArc
 50
331.1283273376
 51
332.3935345798
  0
ARC
  5
4BF
100
AcDbEntity
  8
0
100
AcDbCircle
 62
7
  6
CONTINUOUS
 10
568.0643517777
 20
402.4875715311
 40
47.5794375474
100
AcDbArc
 50
336.2437805664
 51
337.2888271498
  0
ARC
  5
4C0
100
AcDbEntity
  8
0
100
AcDbCircle
 62
7
  6
CONTINUOUS
 10
566.4012055831
 20
394.0199876646
 40
45.8756105397
100
AcDbArc
 50
335.7555825888
 51
336.8432399031
  0
ARC
  5
4C1
100
AcDbEntity
  8
0
100
AcDbCircle
 62
7
  6
CONTINUOUS
 10
574.6371283467
 20
407.1921831248
 40
43.3163511916
100
AcDbArc
 50
329.5426732478
 51
331.7225844647
  0
ARC
  5
4C2
100
AcDbEntity
  8
0
100
AcDbCircle
 62
7
  6
CONTINUOUS
 10
574.3323451892
 20
407.0961079475
 40
43.0612928983
100
AcDbArc
 50
329.491393372
 51
331.6851743164
  0
ARC
  5
4C3
100
AcDbEntity
  8
RUNDUNGEN
100
AcDbCircle
 62
7
  6
CONTINUOUS
 10
607.6721171313
 20
395.9896977242
 40
8.0
100
AcDbArc
 50
337.5
 51
75.0
  0
ARC
  5
4C4
100
AcDbEntity
  8
RUNDUNGEN
100
AcDbCircle
 62
7
  6
CONTINUOUS
 10
597.7078617332
 20
440.5882972179
 40
32.5
100
AcDbArc
 50
179.9999264866
 51
255.0000685962
  0
ARC
  5
4C5
100
AcDbEntity
  8
0
100
AcDbCircle
 62
7
  6
CONTINUOUS
 10
646.1442112532
 20
429.2712880449
 40
175.8959468009
100
AcDbArc
 50
200.2190134953
 51
200.8851666457
  0
ARC
  5
4C6
100
AcDbEntity
  8
0
100
AcDbCircle
 62
7
  6
CONTINUOUS
 10
645.5075255146
 20
428.7822154034
 40
174.62058995
100
AcDbArc
 50
200.2021267398
 51
200.8730816749
  0
ARC
  5
4C7
100
AcDbEntity
  8
0
100
AcDbCircle
 62
7
  6
CONTINUOUS
 10
753.2196005838
 20
506.6539035965
 40
304.2852818156
100
AcDbArc
 50
207.0066188803
 51
207.4120513084
  0
ARC
  5
4C8
100
AcDbEntity
  8
0
100
AcDbCircle
 62
7
  6
CONTINUOUS
 10
689.968622305
 20
474.9278110982
 40
233.8545993349
100
AcDbArc
 50
203.0620722775
 51
203.4450540998
  0
ARC
  5
4C9
100
AcDbEntity
  8
0
100
AcDbCircle
 62
7
  6
CONTINUOUS
 10
689.6919389245
 20
451.4991728547
 40
224.6338471752
100
AcDbArc
 50
201.2957632611
 51
201.6894531745
  0
ARC
  5
4CA
100
AcDbEntity
  8
0
100
AcDbCircle
 62
7
  6
CONTINUOUS
 10
644.3368686441
 20
460.1684960152
 40
186.0474777362
100
AcDbArc
 50
203.7510812034
 51
204.3969820552
  0
ARC
  5
4CB
100
AcDbEntity
  8
0
100
AcDbCircle
 62
7
  6
CONTINUOUS
 10
643.7011459263
 20
459.6802704634
 40
184.7732983645
100
AcDbArc
 50
203.7595401376
 51
204.409949455
  0
ARC
  5
4CC
100
AcDbEntity
  8
0
100
AcDbCircle
 62
7
  6
CONTINUOUS
 10
1126.430166207
 20
620.2427174277
 40
692.7134747407
100
AcDbArc
 50
201.0995126832
 51
201.3118732557
  0
ARC
  5
4CD
100
AcDbEntity
  8
0
100
AcDbCircle
 62
7
  6
CONTINUOUS
 10
1122.865828229
 20
618.5299264025
 40
688.2651674906
100
AcDbArc
 50
201.0895684663
 51
201.3032881366
  0
ARC
  5
4CE
100
AcDbEntity
  8
0
100
AcDbCircle
 62
7
  6
CONTINUOUS
 10
992.4747061005
 20
601.4307948245
 40
561.7350081443
100
AcDbArc
 50
203.697978109
 51
203.9648785821
  0
ARC
  5
4CF
100
AcDbEntity
  8
0
100
AcDbCircle
 62
7
  6
CONTINUOUS
 10
988.9040277147
 20
599.7182399293
 40
557.2806301285
100
AcDbArc
 50
203.7067058401
 51
203.9757600095
  0
ARC
  5
4D0
100
AcDbEntity
  8
0
100
AcDbCircle
 62
7
  6
CONTINUOUS
 10
973.530056719
 20
611.9181068934
 40
547.9303932101
100
AcDbArc
 50
206.2660075476
 51
206.4335968966
  0
ARC
  5
4D1
100
AcDbEntity
  8
0
100
AcDbCircle
 62
7
  6
CONTINUOUS
 10
968.5846919124
 20
609.5397888179
 40
541.9468268824
100
AcDbArc
 50
206.297801653
 51
206.467289339
  0
ARC
  5
4D2
100
AcDbEntity
  8
BEZUGSACHSEN
100
AcDbCircle
 62
7
  6
CONTINUOUS
 10
529.2078617332
 20
557.0098651658
 40
8.0
100
AcDbArc
 50
90.0
 51
180.0
  0
ARC
  5
4D3
100
AcDbEntity
  8
RUNDUNGEN
100
AcDbCircle
 62
7
  6
CONTINUOUS
 10
557.2078617332
 20
557.0098651658
 40
8.0
100
AcDbArc
 50
0.0
 51
90.0
  0
ARC
  5
4D4
100
AcDbEntity
  8
0
100
AcDbCircle
 62
7
  6
CONTINUOUS
 10
210.7255788093
 20
128.7850065093
 40
52.75
100
AcDbArc
 50
205.2478548046
 51
335.3570103298
  0
ARC
  5
4D5
100
AcDbEntity
  8
0
100
AcDbCircle
 62
7
  6
CONTINUOUS
 10
210.7255788093
 20
128.7850065093
 40
52.75
100
AcDbArc
 50
24.6431477116
 51
155.3570308037
  0
ARC
  5
4D6
100
AcDbEntity
  8
RUNDUNGEN
100
AcDbCircle
 62
7
  6
CONTINUOUS
 10
210.7255788093
 20
128.7850065093
 40
52.5
100
AcDbArc
 50
24.7815854728
 51
155.2184145272
  0
ARC
  5
4D7
100
AcDbEntity
  8
RUNDUNGEN
100
AcDbCircle
 62
7
  6
CONTINUOUS
 10
210.7255788093
 20
128.7850065093
 40
52.5
100
AcDbArc
 50
205.3820864465
 51
335.2184145272
  0
ARC
  5
4D8
100
AcDbEntity
  8
BEZUGSACHSEN
100
AcDbCircle
 62
7
  6
CONTINUOUS
 10
306.8381195608
 20
142.7850065093
 40
8.0
100
AcDbArc
 50
4.6718373885
 51
90.0
  0
ARC
  5
4D9
100
AcDbEntity
  8
BEZUGSACHSEN
100
AcDbCircle
 62
7
  6
CONTINUOUS
 10
114.6130416334
 20
142.7850065093
 40
8.0
100
AcDbArc
 50
90.0
 51
175.3282028466
  0
ARC
  5
4DA
100
AcDbEntity
  8
RUNDUNGEN
100
AcDbCircle
 62
7
  6
CONTINUOUS
 10
306.8381195608
 20
114.7850065093
 40
8.0
100
AcDbArc
 50
270.0
 51
355.3281626115
  0
ARC
  5
4DB
100
AcDbEntity
  8
RUNDUNGEN
100
AcDbCircle
 62
7
  6
CONTINUOUS
 10
114.6130416334
 20
114.7850065093
 40
8.0
100
AcDbArc
 50
184.6717971534
 51
270.0
  0
SPLINE
  5
4DC
100
AcDbEntity
  8
0
100
AcDbSpline
 62
7
  6
CONTINUOUS
 70
0
 71
3
 72
13
 73
9
 74
0
 42
0.0000001
 43
0.0000001
 44
0.0000000001
 40
0.0
 40
0.0
 40
0.0
 40
0.0
 40
0.1236286422
 40
0.2440850573
 40
0.3634511071
 40
0.4837798135
 40
0.7332153235
 40
1.0
 40
1.0
 40
1.0
 40
1.0
 10
254.0150570962
 20
419.0714906787
 30
0.0
 10
253.5635154217
 20
418.3374007809
 30
0.0
 10
252.5801279281
 20
416.9415371228
 30
0.0
 10
250.8429725119
 20
415.0859282455
 30
0.0
 10
248.8790286347
 20
413.50855924
 30
0.0
 10
245.9501475048
 20
411.7448144084
 30
0.0
 10
241.7642532138
 20
410.1705358383
 30
0.0
 10
238.2248110985
 20
409.4701212814
 30
0.0
 10
236.385345637
 20
409.1957078635
 30
0.0
  0
SPLINE
  5
4DD
100
AcDbEntity
  8
0
100
AcDbSpline
 62
7
  6
CONTINUOUS
 70
0
 71
3
 72
13
 73
9
 74
0
 42
0.0000001
 43
0.0000001
 44
0.0000000001
 40
0.0
 40
0.0
 40
0.0
 40
0.0
 40
0.2667846807
 40
0.516220186
 40
0.6365488924
 40
0.7559149537
 40
0.8763713705
 40
1.0
 40
1.0
 40
1.0
 40
1.0
 10
185.0658119817
 20
409.1957078635
 30
0.0
 10
183.2263465915
 20
409.4701212707
 30
0.0
 10
179.6869046727
 20
410.1705357834
 30
0.0
 10
175.5010105944
 20
411.7448141992
 30
0.0
 10
172.5721295331
 20
413.5085588707
 30
0.0
 10
170.6081856308
 20
415.0859277729
 30
0.0
 10
168.8710302388
 20
416.9415364837
 30
0.0
 10
167.8876427528
 20
418.3373999381
 30
0.0
 10
167.4361011151
 20
419.0714896997
 30
0.0
  0
SPLINE
  5
4DE
100
AcDbEntity
  8
0
100
AcDbSpline
 62
7
  6
CONTINUOUS
 70
0
 71
3
 72
10
 73
6
 74
0
 42
0.0000001
 43
0.0000001
 44
0.0000000001
 40
0.0
 40
0.0
 40
0.0
 40
0.0
 40
0.1983015617
 40
0.4375849585
 40
1.0
 40
1.0
 40
1.0
 40
1.0
 10
263.0090609045
 20
447.0786294634
 30
0.0
 10
262.9775722818
 20
446.9821920721
 30
0.0
 10
262.9179231465
 20
446.766233673
 30
0.0
 10
262.8010811185
 20
446.2681589569
 30
0.0
 10
262.7217028265
 20
445.8656455787
 30
0.0
 10
262.6681547968
 20
445.5829494931
 30
0.0
  0
SPLINE
  5
4DF
100
AcDbEntity
  8
0
100
AcDbSpline
 62
7
  6
CONTINUOUS
 70
0
 71
3
 72
14
 73
10
 74
0
 42
0.0000001
 43
0.0000001
 44
0.0000000001
 40
0.0
 40
0.0
 40
0.0
 40
0.0
 40
0.0572991933
 40
0.118559122
 40
0.2450163155
 40
0.3724420992
 40
0.4992872359
 40
0.750527857
 40
1.0
 40
1.0
 40
1.0
 40
1.0
 10
262.6681547968
 20
445.5829494931
 30
0.0
 10
262.5683984602
 20
445.0563128235
 30
0.0
 10
262.3765358694
 20
443.9639300174
 30
0.0
 10
261.9811841075
 20
441.7063391995
 30
0.0
 10
261.4330154049
 20
438.8093787765
 30
0.0
 10
260.6429396663
 20
435.3354716582
 30
0.0
 10
259.3845482347
 20
430.7756439707
 30
0.0
 10
257.3814610948
 20
425.2445553562
 30
0.0
 10
255.2377407524
 20
421.0592563103
 30
0.0
 10
254.0150747309
 20
419.0715178013
 30
0.0
  0
SPLINE
  5
4E0
100
AcDbEntity
  8
0
100
AcDbSpline
 62
7
  6
CONTINUOUS
 70
0
 71
3
 72
14
 73
10
 74
0
 42
0.0000001
 43
0.0000001
 44
0.0000000001
 40
0.0
 40
0.0
 40
0.0
 40
0.0
 40
0.2494720024
 40
0.5007127713
 40
0.6275580314
 40
0.7549839803
 40
0.8814413094
 40
0.9427011233
 40
1.0
 40
1.0
 40
1.0
 40
1.0
 10
167.4360832162
 20
419.0715172272
 30
0.0
 10
166.2134177897
 20
421.0592545619
 30
0.0
 10
164.0696970342
 20
425.2445534635
 30
0.0
 10
162.0666094933
 20
430.7756433122
 30
0.0
 10
160.8082176154
 20
435.3354750957
 30
0.0
 10
160.018140278
 20
438.8093859523
 30
0.0
 10
159.4699732031
 20
441.7063484503
 30
0.0
 10
159.0746195459
 20
443.9639361235
 30
0.0
 10
158.8827587663
 20
445.0563151563
 30
0.0
 10
158.783002941
 20
445.5829489094
 30
0.0
  0
SPLINE
  5
4E1
100
AcDbEntity
  8
0
100
AcDbSpline
 62
7
  6
CONTINUOUS
 70
0
 71
3
 72
10
 73
6
 74
0
 42
0.0000001
 43
0.0000001
 44
0.0000000001
 40
0.0
 40
0.0
 40
0.0
 40
0.0
 40
0.5624150415
 40
0.8016984304
 40
1.0
 40
1.0
 40
1.0
 40
1.0
 10
158.783002941
 20
445.5829489094
 30
0.0
 10
158.729454888
 20
445.8656451042
 30
0.0
 10
158.6500765698
 20
446.2681586353
 30
0.0
 10
158.5332345046
 20
446.7662335466
 30
0.0
 10
158.4735853503
 20
446.9821920308
 30
0.0
 10
158.4420967141
 20
447.0786294634
 30
0.0
  0
SPLINE
  5
4E2
100
AcDbEntity
  8
BEZUGSACHSEN
100
AcDbSpline
 62
7
  6
CONTINUOUS
 70
0
 71
3
 72
33
 73
29
 74
0
 42
0.0000001
 43
0.0000001
 44
0.0000000001
 40
0.0
 40
0.0
 40
0.0
 40
0.0
 40
0.0198417709
 40
0.0784186127
 40
0.1729965631
 40
0.2325069808
 40
0.2993244205
 40
0.372741664
 40
0.4520169382
 40
0.4936094908
 40
0.5363727856
 40
0.5802104773
 40
0.6250285141
 40
0.6707316708
 40
0.71722238
 40
0.764405038
 40
0.812182704
 40
0.8362643519
 40
0.8604501069
 40
0.8847109907
 40
0.9089859474
 40
0.9331029896
 40
0.944989569
 40
0.9565962033
 40
0.967800617
 40
0.9786520157
 40
0.9893409064
 40
1.0
 40
1.0
 40
1.0
 40
1.0
 10
140.5328480565
 20
375.560437387
 30
0.0
 10
140.9000695404
 20
375.4877122272
 30
0.0
 10
142.3508853266
 20
375.1976774053
 30
0.0
 10
145.5468421132
 20
374.5348155229
 30
0.0
 10
149.4635477358
 20
373.6627950837
 30
0.0
 10
153.5171575774
 20
372.6934061051
 30
0.0
 10
157.1703164563
 20
371.7672923795
 30
0.0
 10
161.1681763579
 20
370.6853340997
 30
0.0
 10
164.6876887608
 20
369.6598335233
 30
0.0
 10
167.6364582704
 20
368.7454517423
 30
0.0
 10
169.9371840492
 20
367.9992899583
 30
0.0
 10
172.2844115396
 20
367.2000326125
 30
0.0
 10
174.6700574838
 20
366.3425129337
 30
0.0
 10
177.084960226
 20
365.4197661949
 30
0.0
 10
179.5184376086
 20
364.4223885833
 30
0.0
 10
181.9563510248
 20
363.3355554705
 30
0.0
 10
183.9696454203
 20
362.3376236661
 30
0.0
 10
185.5546273359
 20
361.458521729
 30
0.0
 10
186.7236520672
 20
360.7464676114
 30
0.0
 10
187.8551092922
 20
359.9682087339
 30
0.0
 10
188.9179312908
 20
359.10055529
 30
0.0
 10
189.7015492445
 20
358.2647100436
 30
0.0
 10
190.1764746117
 20
357.4978265712
 30
0.0
 10
190.4067630302
 20
356.8783619249
 30
0.0
 10
190.4555055568
 20
356.2345249554
 30
0.0
 10
190.300483302
 20
355.6261077325
 30
0.0
 10
189.9930513566
 20
355.095846693
 30
0.0
 10
189.7258176803
 20
354.7918890504
 30
0.0
 10
189.5831335623
 20
354.6501701086
 30
0.0
  0
SPLINE
  5
4E3
100
AcDbEntity
  8
BEZUGSACHSEN
100
AcDbSpline
 62
7
  6
CONTINUOUS
 70
0
 71
3
 72
33
 73
29
 74
0
 42
0.0000001
 43
0.0000001
 44
0.0000000001
 40
0.0
 40
0.0
 40
0.0
 40
0.0
 40
0.0106587841
 40
0.0213470918
 40
0.0321981117
 40
0.0434027359
 40
0.0550103877
 40
0.0668977596
 40
0.0910159427
 40
0.1152913114
 40
0.1395522514
 40
0.1637379491
 40
0.1878195261
 40
0.2355970333
 40
0.2827795332
 40
0.3292701142
 40
0.3749731193
 40
0.4197909568
 40
0.4636283657
 40
0.5063913393
 40
0.5479834389
 40
0.6272577472
 40
0.7006742376
 40
0.7674915487
 40
0.8270024106
 40
0.9215809279
 40
0.980158137
 40
1.0
 40
1.0
 40
1.0
 40
1.0
 10
231.8680240563
 20
354.6501701086
 30
0.0
 10
231.7253440898
 20
354.791884927
 30
0.0
 10
231.4581228807
 20
355.0958292013
 30
0.0
 10
231.1506838083
 20
355.6260607046
 30
0.0
 10
230.9956823781
 20
356.2344659756
 30
0.0
 10
231.0443782336
 20
356.8783200952
 30
0.0
 10
231.2746770132
 20
357.4978266489
 30
0.0
 10
231.7496362386
 20
358.2647540389
 30
0.0
 10
232.5332973207
 20
359.1006207572
 30
0.0
 10
233.596147586
 20
359.9682867666
 30
0.0
 10
234.7276193141
 20
360.7465383459
 30
0.0
 10
235.8966454854
 20
361.4585870375
 30
0.0
 10
237.4816266705
 20
362.337679038
 30
0.0
 10
239.4949165147
 20
363.3356025781
 30
0.0
 10
241.9328187936
 20
364.4224400227
 30
0.0
 10
244.3662956057
 20
365.4197969803
 30
0.0
 10
246.7811887106
 20
366.3425428352
 30
0.0
 10
249.1668239893
 20
367.2000565373
 30
0.0
 10
251.5140371611
 20
367.9993084484
 30
0.0
 10
253.8147449037
 20
368.7454607053
 30
0.0
 10
256.7634813392
 20
369.6598376161
 30
0.0
 10
260.2829539538
 20
370.6853275948
 30
0.0
 10
264.280779732
 20
371.7672776355
 30
0.0
 10
267.9339310699
 20
372.6933865113
 30
0.0
 10
271.9875553445
 20
373.6627857072
 30
0.0
 10
275.9042872876
 20
374.5348065718
 30
0.0
 10
279.1002620797
 20
375.1976759793
 30
0.0
 10
280.5510863375
 20
375.4877121773
 30
0.0
 10
280.9183095621
 20
375.560437387
 30
0.0
  0
LINE
  5
4E4
100
AcDbEntity
  8
0
100
AcDbLine
 62
7
  6
CONTINUOUS
 10
613.1838172032
 20
387.1317075628
 11
613.1894380187
 21
387.1501701086
  0
LINE
  5
4E5
100
AcDbEntity
  8
0
100
AcDbLine
 62
7
  6
CONTINUOUS
 10
609.8196022801
 20
378.9883851647
 11
609.8273469145
 21
379.0118718653
  0
SPLINE
  5
4E6
100
AcDbEntity
  8
0
100
AcDbSpline
 62
7
  6
CONTINUOUS
 70
0
 71
3
 72
8
 73
4
 74
0
 42
0.0000001
 43
0.0000001
 44
0.0000000001
 40
0.0
 40
0.0
 40
0.0
 40
0.0
 40
1.0
 40
1.0
 40
1.0
 40
1.0
 10
475.674320642
 20
383.7991066782
 30
0.0
 10
476.2104442349
 20
382.5224558948
 30
0.0
 10
476.7466954104
 20
381.2458586806
 30
0.0
 10
477.2830824435
 20
379.9693185596
 30
0.0
  0
LINE
  5
4E7
100
AcDbEntity
  8
0
100
AcDbLine
 62
7
  6
CONTINUOUS
 10
476.7402033552
 20
379.9693185596
 11
477.5392007764
 21
378.0544251709
  0
SPLINE
  5
4E8
100
AcDbEntity
  8
0
100
AcDbSpline
 62
7
  6
CONTINUOUS
 70
0
 71
3
 72
8
 73
4
 74
0
 42
0.0000001
 43
0.0000001
 44
0.0000000001
 40
0.0
 40
0.0
 40
0.0
 40
0.0
 40
1.0
 40
1.0
 40
1.0
 40
1.0
 10
478.0878191968
 20
378.0544251709
 30
0.0
 10
479.4294153838
 20
374.8625459608
 30
0.0
 10
480.7718862195
 20
371.6710341841
 30
0.0
 10
482.1153894902
 20
368.4799572213
 30
0.0
  0
SPLINE
  5
4E9
100
AcDbEntity
  8
0
100
AcDbSpline
 62
7
  6
CONTINUOUS
 70
0
 71
3
 72
9
 73
5
 74
0
 42
0.0000001
 43
0.0000001
 44
0.0000000001
 40
0.0
 40
0.0
 40
0.0
 40
0.0
 40
0.2412138138
 40
1.0
 40
1.0
 40
1.0
 40
1.0
 10
484.3241164591
 20
365.1288934977
 30
0.0
 10
484.3989468065
 20
365.0882496059
 30
0.0
 10
484.7104430923
 20
364.9220983684
 30
0.0
 10
485.0267421888
 20
364.7650071569
 30
0.0
 10
485.2687529306
 20
364.6501701086
 30
0.0
  0
LINE
  5
4EA
100
AcDbEntity
  8
0
100
AcDbLine
 62
7
  6
CONTINUOUS
 10
479.2248239804
 20
372.7884676813
 11
479.8202775544
 21
371.3522976397
  0
SPLINE
  5
4EB
100
AcDbEntity
  8
0
100
AcDbSpline
 62
7
  6
CONTINUOUS
 70
0
 71
3
 72
8
 73
4
 74
0
 42
0.0000001
 43
0.0000001
 44
0.0000000001
 40
0.0
 40
0.0
 40
0.0
 40
0.0
 40
1.0
 40
1.0
 40
1.0
 40
1.0
 10
479.8202775544
 20
371.3522976397
 30
0.0
 10
480.01198004
 20
370.873422552
 30
0.0
 10
480.204058523
 20
370.3946978041
 30
0.0
 10
480.3965208585
 20
369.9161275982
 30
0.0
  0
SPLINE
  5
4EC
100
AcDbEntity
  8
0
100
AcDbSpline
 62
7
  6
CONTINUOUS
 70
0
 71
3
 72
8
 73
4
 74
0
 42
0.0000001
 43
0.0000001
 44
0.0000000001
 40
0.0
 40
0.0
 40
0.0
 40
0.0
 40
1.0
 40
1.0
 40
1.0
 40
1.0
 10
478.6106152787
 20
374.2246383934
 30
0.0
 10
478.8149012306
 20
373.7457225005
 30
0.0
 10
479.019634344
 20
373.2669970908
 30
0.0
 10
479.2248239804
 20
372.7884676813
 30
0.0
  0
LINE
  5
4ED
100
AcDbEntity
  8
0
100
AcDbLine
 62
7
  6
CONTINUOUS
 10
477.0616725211
 20
379.0034455689
 11
476.6573970749
 21
379.9333298977
  0
LINE
  5
4EE
100
AcDbEntity
  8
0
100
AcDbLine
 62
7
  6
CONTINUOUS
 10
476.6573970749
 20
379.9333298977
 11
476.6437980109
 21
379.964629068
  0
LINE
  5
4EF
100
AcDbEntity
  8
0
100
AcDbLine
 62
7
  6
CONTINUOUS
 10
476.6437980109
 20
379.964629068
 11
476.433831657
 21
380.4480419068
  0
SPLINE
  5
4F0
100
AcDbEntity
  8
0
100
AcDbSpline
 62
7
  6
CONTINUOUS
 70
0
 71
3
 72
8
 73
4
 74
0
 42
0.0000001
 43
0.0000001
 44
0.0000000001
 40
0.0
 40
0.0
 40
0.0
 40
0.0
 40
1.0
 40
1.0
 40
1.0
 40
1.0
 10
476.433831657
 20
380.4480419068
 30
0.0
 10
476.2333993524
 20
380.8916930794
 30
0.0
 10
476.0334035675
 20
381.3355417105
 30
0.0
 10
475.8338358423
 20
381.7795824685
 30
0.0
  0
LINE
  5
4F1
100
AcDbEntity
  8
0
100
AcDbLine
 62
7
  6
CONTINUOUS
 10
475.8338358423
 20
381.7795824685
 11
475.7868205416
 21
381.8842132895
  0
LINE
  5
4F2
100
AcDbEntity
  8
0
100
AcDbLine
 62
7
  6
CONTINUOUS
 10
607.190899486
 20
372.7884676813
 11
606.595445912
 21
371.3522976397
  0
SPLINE
  5
4F3
100
AcDbEntity
  8
0
100
AcDbSpline
 62
7
  6
CONTINUOUS
 70
0
 71
3
 72
8
 73
4
 74
0
 42
0.0000001
 43
0.0000001
 44
0.0000000001
 40
0.0
 40
0.0
 40
0.0
 40
0.0
 40
1.0
 40
1.0
 40
1.0
 40
1.0
 10
606.595445912
 20
371.3522976397
 30
0.0
 10
606.4037434264
 20
370.873422552
 30
0.0
 10
606.2116649435
 20
370.3946978041
 30
0.0
 10
606.0192026079
 20
369.9161275982
 30
0.0
  0
SPLINE
  5
4F4
100
AcDbEntity
  8
0
100
AcDbSpline
 62
7
  6
CONTINUOUS
 70
0
 71
3
 72
8
 73
4
 74
0
 42
0.0000001
 43
0.0000001
 44
0.0000000001
 40
0.0
 40
0.0
 40
0.0
 40
0.0
 40
1.0
 40
1.0
 40
1.0
 40
1.0
 10
605.6444221166
 20
369.9161275982
 30
0.0
 10
605.8269967167
 20
370.3947276719
 30
0.0
 10
606.0092457388
 20
370.8734520678
 30
0.0
 10
606.1911754873
 20
371.3522976397
 30
0.0
  0
LINE
  5
4F5
100
AcDbEntity
  8
0
100
AcDbLine
 62
7
  6
CONTINUOUS
 10
606.1911754873
 20
371.3522976397
 11
606.7898659305
 21
372.7884676813
  0
LINE
  5
4F6
100
AcDbEntity
  8
0
100
AcDbLine
 62
7
  6
CONTINUOUS
 10
608.6488140703
 20
376.1395317821
 11
608.6175831649
 21
376.0659106332
  0
LINE
  5
4F7
100
AcDbEntity
  8
0
100
AcDbLine
 62
7
  6
CONTINUOUS
 10
608.6175831649
 20
376.0659106332
 11
608.5807272299
 21
375.9794888901
  0
SPLINE
  5
4F8
100
AcDbEntity
  8
0
100
AcDbSpline
 62
7
  6
CONTINUOUS
 70
0
 71
3
 72
8
 73
4
 74
0
 42
0.0000001
 43
0.0000001
 44
0.0000000001
 40
0.0
 40
0.0
 40
0.0
 40
0.0
 40
1.0
 40
1.0
 40
1.0
 40
1.0
 10
607.8051081877
 20
374.2246383934
 30
0.0
 10
607.6008222358
 20
373.7457225005
 30
0.0
 10
607.3960891224
 20
373.2669970908
 30
0.0
 10
607.190899486
 20
372.7884676813
 30
0.0
  0
SPLINE
  5
4F9
100
AcDbEntity
  8
0
100
AcDbSpline
 62
7
  6
CONTINUOUS
 70
0
 71
3
 72
8
 73
4
 74
0
 42
0.0000001
 43
0.0000001
 44
0.0000000001
 40
0.0
 40
0.0
 40
0.0
 40
0.0
 40
1.0
 40
1.0
 40
1.0
 40
1.0
 10
602.3137994736
 20
364.6501701086
 30
0.0
 10
605.4895945955
 20
372.1471423486
 30
0.0
 10
608.6573738038
 20
379.6475123598
 30
0.0
 10
611.8197137806
 20
387.1501701086
 30
0.0
  0
LINE
  5
4FA
100
AcDbEntity
  8
0
100
AcDbLine
 62
7
  6
CONTINUOUS
 10
608.3330925537
 20
376.6182551293
 11
608.7323594287
 21
377.5757018237
  0
LINE
  5
4FB
100
AcDbEntity
  8
0
100
AcDbLine
 62
7
  6
CONTINUOUS
 10
608.7323594287
 20
377.5757018237
 11
609.189828677
 21
378.6260378588
  0
SPLINE
  5
4FC
100
AcDbEntity
  8
0
100
AcDbSpline
 62
7
  6
CONTINUOUS
 70
0
 71
3
 72
8
 73
4
 74
0
 42
0.0000001
 43
0.0000001
 44
0.0000000001
 40
0.0
 40
0.0
 40
0.0
 40
0.0
 40
1.0
 40
1.0
 40
1.0
 40
1.0
 10
609.189828677
 20
378.6260378588
 30
0.0
 10
609.4541152734
 20
379.2332570313
 30
0.0
 10
609.7181337231
 20
379.8405929785
 30
0.0
 10
609.9818918094
 20
380.4480419068
 30
0.0
  0
LINE
  5
4FD
100
AcDbEntity
  8
0
100
AcDbLine
 62
7
  6
CONTINUOUS
 10
612.0212363923
 20
384.2778300254
 11
611.9922062725
 21
384.20790375
  0
LINE
  5
4FE
100
AcDbEntity
  8
0
100
AcDbLine
 62
7
  6
CONTINUOUS
 10
611.9922062725
 20
384.20790375
 11
611.9546138675
 21
384.1178200082
  0
SPLINE
  5
4FF
100
AcDbEntity
  8
0
100
AcDbSpline
 62
7
  6
CONTINUOUS
 70
0
 71
3
 72
8
 73
4
 74
0
 42
0.0000001
 43
0.0000001
 44
0.0000000001
 40
0.0
 40
0.0
 40
0.0
 40
0.0
 40
1.0
 40
1.0
 40
1.0
 40
1.0
 10
482.1739489424
 20
369.437404251
 30
0.0
 10
480.9572069657
 20
372.3092732918
 30
0.0
 10
479.7416318337
 20
375.1816369022
 30
0.0
 10
478.5270617908
 20
378.0544251709
 30
0.0
  0
LINE
  5
500
100
AcDbEntity
  8
0
100
AcDbLine
 62
7
  6
CONTINUOUS
 10
479.7629920867
 20
378.0544251709
 11
478.9400888999
 21
379.9693185596
  0
SPLINE
  5
501
100
AcDbEntity
  8
0
100
AcDbSpline
 62
7
  6
CONTINUOUS
 70
0
 71
3
 72
8
 73
4
 74
0
 42
0.0000001
 43
0.0000001
 44
0.0000000001
 40
0.0
 40
0.0
 40
0.0
 40
0.0
 40
1.0
 40
1.0
 40
1.0
 40
1.0
 10
477.7176487745
 20
379.9693185596
 30
0.0
 10
477.1781883581
 20
381.2458349014
 30
0.0
 10
476.6389204943
 20
382.5224326316
 30
0.0
 10
476.0998334047
 20
383.7991066782
 30
0.0
  0
LINE
  5
502
100
AcDbEntity
  8
0
100
AcDbLine
 62
7
  6
CONTINUOUS
 10
485.2687529306
 20
364.6501701086
 11
484.4439986323
 21
366.5650636649
  0
SPLINE
  5
503
100
AcDbEntity
  8
0
100
AcDbSpline
 62
7
  6
CONTINUOUS
 70
0
 71
3
 72
8
 73
4
 74
0
 42
0.0000001
 43
0.0000001
 44
0.0000000001
 40
0.0
 40
0.0
 40
0.0
 40
0.0
 40
1.0
 40
1.0
 40
1.0
 40
1.0
 10
608.5591375146
 20
383.7991066782
 30
0.0
 10
608.0112402793
 20
382.5223588171
 30
0.0
 10
607.4629972561
 20
381.2457592825
 30
0.0
 10
606.9143848589
 20
379.9693185596
 30
0.0
  0
LINE
  5
504
100
AcDbEntity
  8
0
100
AcDbLine
 62
7
  6
CONTINUOUS
 10
607.9246768357
 20
380.65558336
 11
607.6085189311
 21
379.9127314803
  0
SPLINE
  5
505
100
AcDbEntity
  8
0
100
AcDbSpline
 62
7
  6
CONTINUOUS
 70
0
 71
3
 72
8
 73
4
 74
0
 42
0.0000001
 43
0.0000001
 44
0.0000000001
 40
0.0
 40
0.0
 40
0.0
 40
0.0
 40
1.0
 40
1.0
 40
1.0
 40
1.0
 10
607.6085189311
 20
379.9127314803
 30
0.0
 10
605.4421821446
 20
374.8232282202
 30
0.0
 10
603.2716364052
 20
369.7355129941
 30
0.0
 10
601.0955513322
 20
364.6501701086
 30
0.0
  0
SPLINE
  5
506
100
AcDbEntity
  8
BEZUGSACHSEN
100
AcDbSpline
 62
7
  6
CONTINUOUS
 70
0
 71
3
 72
26
 73
22
 74
0
 42
0.0000001
 43
0.0000001
 44
0.0000000001
 40
0.0
 40
0.0
 40
0.0
 40
0.0
 40
0.1663346584
 40
0.3260454004
 40
0.4015012673
 40
0.4731220973
 40
0.5403463923
 40
0.602731074
 40
0.6599828439
 40
0.7119966121
 40
0.7589543201
 40
0.8014567813
 40
0.840838129
 40
0.8601990758
 40
0.8800834302
 40
0.9015663472
 40
0.9268617479
 40
0.9424872462
 40
0.9614008982
 40
0.9820077899
 40
1.0
 40
1.0
 40
1.0
 40
1.0
 10
543.2078617332
 20
375.560437387
 30
0.0
 10
546.8502604071
 20
375.560437387
 30
0.0
 10
553.9906924423
 20
375.4215189762
 30
0.0
 10
562.7698128816
 20
374.8793867687
 30
0.0
 10
569.4528717391
 20
374.1854587129
 30
0.0
 10
574.1030727223
 20
373.5472870625
 30
0.0
 10
578.4427302429
 20
372.7742905296
 30
0.0
 10
582.432649282
 20
371.8571942606
 30
0.0
 10
586.0387794046
 20
370.7856300509
 30
0.0
 10
589.2319175949
 20
369.5444901353
 30
0.0
 10
591.9883087887
 20
368.1126151523
 30
0.0
 10
594.2873708861
 20
366.4557864969
 30
0.0
 10
595.8048226058
 20
364.8082180238
 30
0.0
 10
596.6956905941
 20
363.3284278369
 30
0.0
 10
597.2032876383
 20
362.0929736848
 30
0.0
 10
597.5206288462
 20
360.6602418824
 30
0.0
 10
597.5511610514
 20
359.2832890181
 30
0.0
 10
597.3661183838
 20
357.9833888046
 30
0.0
 10
597.0351782865
 20
356.8172434708
 30
0.0
 10
596.5054310217
 20
355.6684857964
 30
0.0
 10
596.0354107497
 20
354.9619845337
 30
0.0
 10
595.7945730984
 20
354.6501701086
 30
0.0
  0
SPLINE
  5
507
100
AcDbEntity
  8
BEZUGSACHSEN
100
AcDbSpline
 62
7
  6
CONTINUOUS
 70
0
 71
3
 72
26
 73
22
 74
0
 42
0.0000001
 43
0.0000001
 44
0.0000000001
 40
0.0
 40
0.0
 40
0.0
 40
0.0
 40
0.1663346584
 40
0.3260454004
 40
0.4015012673
 40
0.4731220973
 40
0.5403463923
 40
0.602731074
 40
0.6599828439
 40
0.7119966121
 40
0.7589543201
 40
0.8014567813
 40
0.840838129
 40
0.8601990758
 40
0.8800834302
 40
0.9015663472
 40
0.9268617479
 40
0.9424872462
 40
0.9614008982
 40
0.9820077899
 40
1.0
 40
1.0
 40
1.0
 40
1.0
 10
543.2078617332
 20
375.560437387
 30
0.0
 10
539.5654630593
 20
375.560437387
 30
0.0
 10
532.4250310241
 20
375.4215189762
 30
0.0
 10
523.6459105848
 20
374.8793867687
 30
0.0
 10
516.9628517273
 20
374.1854587129
 30
0.0
 10
512.3126507441
 20
373.5472870625
 30
0.0
 10
507.9729932235
 20
372.7742905296
 30
0.0
 10
503.9830741844
 20
371.8571942606
 30
0.0
 10
500.3769440618
 20
370.7856300509
 30
0.0
 10
497.1838058715
 20
369.5444901353
 30
0.0
 10
494.4274146777
 20
368.1126151523
 30
0.0
 10
492.1283525803
 20
366.4557864969
 30
0.0
 10
490.6109008606
 20
364.8082180238
 30
0.0
 10
489.7200328723
 20
363.3284278369
 30
0.0
 10
489.2124358281
 20
362.0929736848
 30
0.0
 10
488.8950946202
 20
360.6602418824
 30
0.0
 10
488.864562415
 20
359.2832890181
 30
0.0
 10
489.0496050827
 20
357.9833888046
 30
0.0
 10
489.3805451799
 20
356.8172434708
 30
0.0
 10
489.9102924447
 20
355.6684857964
 30
0.0
 10
490.3803127168
 20
354.9619845337
 30
0.0
 10
490.621150368
 20
354.6501701086
 30
0.0
  0
SPLINE
  5
508
100
AcDbEntity
  8
0
100
AcDbSpline
 62
7
  6
CONTINUOUS
 70
0
 71
3
 72
9
 73
5
 74
0
 42
0.0000001
 43
0.0000001
 44
0.0000000001
 40
0.0
 40
0.0
 40
0.0
 40
0.0
 40
0.2441048635
 40
1.0
 40
1.0
 40
1.0
 40
1.0
 10
612.5829827379
 20
387.1501701086
 30
0.0
 10
612.5571461117
 20
387.1098886432
 30
0.0
 10
612.4491953201
 20
386.9462288546
 30
0.0
 10
612.3330803715
 20
386.7879925464
 30
0.0
 10
612.2415546442
 20
386.6714467614
 30
0.0
  0
SPLINE
  5
509
100
AcDbEntity
  8
0
100
AcDbSpline
 62
7
  6
CONTINUOUS
 70
0
 71
3
 72
8
 73
4
 74
0
 42
0.0000001
 43
0.0000001
 44
0.0000000001
 40
0.0
 40
0.0
 40
0.0
 40
0.0
 40
1.0
 40
1.0
 40
1.0
 40
1.0
 10
609.3476930341
 20
380.926765254
 30
0.0
 10
608.8586831711
 20
379.8093841614
 30
0.0
 10
608.368867184
 20
378.6923554724
 30
0.0
 10
607.8781984758
 20
377.5757018237
 30
0.0
  0
SPLINE
  5
50A
100
AcDbEntity
  8
0
100
AcDbSpline
 62
7
  6
CONTINUOUS
 70
0
 71
3
 72
8
 73
4
 74
0
 42
0.0000001
 43
0.0000001
 44
0.0000000001
 40
0.0
 40
0.0
 40
0.0
 40
0.0
 40
1.0
 40
1.0
 40
1.0
 40
1.0
 10
475.5244771629
 20
381.8842132895
 30
0.0
 10
475.3166780294
 20
382.3627425298
 30
0.0
 10
475.1093294423
 20
382.8414676596
 30
0.0
 10
474.9024224742
 20
383.3203833311
 30
0.0
  0
LINE
  5
50B
100
AcDbEntity
  8
0
100
AcDbLine
 62
7
  6
CONTINUOUS
 10
607.8781984758
 20
377.5757018237
 11
606.4746482002
 21
374.2246383934
  0
LINE
  5
50C
100
AcDbEntity
  8
0
100
AcDbLine
 62
7
  6
CONTINUOUS
 10
480.7013072217
 20
370.8735742925
 11
479.7069897501
 21
373.267191699
  0
LINE
  5
50D
100
AcDbEntity
  8
0
100
AcDbLine
 62
7
  6
CONTINUOUS
 10
480.1585603482
 20
370.8735742925
 11
479.1642838571
 21
373.267191699
  0
SPLINE
  5
50E
100
AcDbEntity
  8
0
100
AcDbSpline
 62
7
  6
CONTINUOUS
 70
0
 71
3
 72
8
 73
4
 74
0
 42
0.0000001
 43
0.0000001
 44
0.0000000001
 40
0.0
 40
0.0
 40
0.0
 40
0.0
 40
1.0
 40
1.0
 40
1.0
 40
1.0
 10
606.4746482002
 20
374.2246383934
 30
0.0
 10
606.0301940283
 20
373.1075627324
 30
0.0
 10
605.5856058891
 20
371.9905403631
 30
0.0
 10
605.1408763751
 20
370.8735742925
 30
0.0
  0
SPLINE
  5
50F
100
AcDbEntity
  8
0
100
AcDbSpline
 62
7
  6
CONTINUOUS
 70
0
 71
3
 72
8
 73
4
 74
0
 42
0.0000001
 43
0.0000001
 44
0.0000000001
 40
0.0
 40
0.0
 40
0.0
 40
0.0
 40
1.0
 40
1.0
 40
1.0
 40
1.0
 10
476.0666273505
 20
381.8842132895
 30
0.0
 10
475.8587603841
 20
382.3627409632
 30
0.0
 10
475.6513474765
 20
382.8414661203
 30
0.0
 10
475.4443795672
 20
383.3203833311
 30
0.0
  0
SPLINE
  5
510
100
AcDbEntity
  8
0
100
AcDbSpline
 62
7
  6
CONTINUOUS
 70
0
 71
3
 72
8
 73
4
 74
0
 42
0.0000001
 43
0.0000001
 44
0.0000000001
 40
0.0
 40
0.0
 40
0.0
 40
0.0
 40
1.0
 40
1.0
 40
1.0
 40
1.0
 10
482.7275029225
 20
369.437404251
 30
0.0
 10
481.5103454283
 20
372.3092622396
 30
0.0
 10
480.2943821737
 20
375.1816265884
 30
0.0
 10
479.0794463823
 20
378.0544251709
 30
0.0
  0
LINE
  5
511
100
AcDbEntity
  8
0
100
AcDbLine
 62
7
  6
CONTINUOUS
 10
480.3246895225
 20
378.0544251709
 11
479.5013388539
 21
379.9693185596
  0
SPLINE
  5
512
100
AcDbEntity
  8
0
100
AcDbSpline
 62
7
  6
CONTINUOUS
 70
0
 71
3
 72
8
 73
4
 74
0
 42
0.0000001
 43
0.0000001
 44
0.0000000001
 40
0.0
 40
0.0
 40
0.0
 40
0.0
 40
1.0
 40
1.0
 40
1.0
 40
1.0
 10
478.2697963604
 20
379.9693185596
 30
0.0
 10
477.7301812466
 20
381.2458331347
 30
0.0
 10
477.1907629276
 20
382.5224309157
 30
0.0
 10
476.6515292781
 20
383.7991066782
 30
0.0
  0
LINE
  5
513
100
AcDbEntity
  8
0
100
AcDbLine
 62
7
  6
CONTINUOUS
 10
485.8317615198
 20
364.6501701086
 11
485.0064918231
 21
366.5650636649
  0
SPLINE
  5
514
100
AcDbEntity
  8
0
100
AcDbSpline
 62
7
  6
CONTINUOUS
 70
0
 71
3
 72
8
 73
4
 74
0
 42
0.0000001
 43
0.0000001
 44
0.0000000001
 40
0.0
 40
0.0
 40
0.0
 40
0.0
 40
1.0
 40
1.0
 40
1.0
 40
1.0
 10
609.1195364747
 20
383.7991066782
 30
0.0
 10
608.5719150798
 20
382.5223622514
 30
0.0
 10
608.0239554825
 20
381.2457628259
 30
0.0
 10
607.4756348111
 20
379.9693185596
 30
0.0
  0
SPLINE
  5
515
100
AcDbEntity
  8
0
100
AcDbSpline
 62
7
  6
CONTINUOUS
 70
0
 71
3
 72
9
 73
5
 74
0
 42
0.0000001
 43
0.0000001
 44
0.0000000001
 40
0.0
 40
0.0
 40
0.0
 40
0.0
 40
0.2438593212
 40
1.0
 40
1.0
 40
1.0
 40
1.0
 10
609.7499991959
 20
379.0118718653
 30
0.0
 10
609.7238147836
 20
378.9715731587
 30
0.0
 10
609.6142655468
 20
378.8077369933
 30
0.0
 10
609.4963112033
 20
378.6495633953
 30
0.0
 10
609.4032880728
 20
378.5331485181
 30
0.0
  0
LINE
  5
516
100
AcDbEntity
  8
0
100
AcDbLine
 62
7
  6
CONTINUOUS
 10
608.87894941
 20
377.5705256898
 11
608.8460244764
 21
377.5117107331
  0
SPLINE
  5
517
100
AcDbEntity
  8
0
100
AcDbSpline
 62
7
  6
CONTINUOUS
 70
0
 71
3
 72
8
 73
4
 74
0
 42
0.0000001
 43
0.0000001
 44
0.0000000001
 40
0.0
 40
0.0
 40
0.0
 40
0.0
 40
1.0
 40
1.0
 40
1.0
 40
1.0
 10
607.0219036966
 20
374.2246383934
 30
0.0
 10
606.5773537007
 20
373.107562535
 30
0.0
 10
606.1326692613
 20
371.9905401692
 30
0.0
 10
605.6878430003
 20
370.8735742925
 30
0.0
  0
LINE
  5
518
100
AcDbEntity
  8
0
100
AcDbLine
 62
7
  6
CONTINUOUS
 10
608.4252317618
 20
377.5757018237
 11
607.0219036966
 21
374.2246383934
  0
SPLINE
  5
519
100
AcDbEntity
  8
0
100
AcDbSpline
 62
7
  6
CONTINUOUS
 70
0
 71
3
 72
8
 73
4
 74
0
 42
0.0000001
 43
0.0000001
 44
0.0000000001
 40
0.0
 40
0.0
 40
0.0
 40
0.0
 40
1.0
 40
1.0
 40
1.0
 40
1.0
 10
609.8940489218
 20
380.926765254
 30
0.0
 10
609.4052555058
 20
379.8093884186
 30
0.0
 10
608.915665019
 20
378.6923598807
 30
0.0
 10
608.4252317618
 20
377.5757018237
 30
0.0
  0
SPLINE
  5
51A
100
AcDbEntity
  8
0
100
AcDbSpline
 62
7
  6
CONTINUOUS
 70
0
 71
3
 72
9
 73
5
 74
0
 42
0.0000001
 43
0.0000001
 44
0.0000000001
 40
0.0
 40
0.0
 40
0.0
 40
0.0
 40
0.2441493413
 40
1.0
 40
1.0
 40
1.0
 40
1.0
 10
613.1247565367
 20
387.1501701086
 30
0.0
 10
613.0989829304
 20
387.1098917539
 30
0.0
 10
612.9913215464
 20
386.9462638584
 30
0.0
 10
612.8755401701
 20
386.788016274
 30
0.0
 10
612.7842862966
 20
386.6714467614
 30
0.0
  0
ELLIPSE
  5
51B
100
AcDbEntity
  8
0
100
AcDbEllipse
 62
7
  6
CONTINUOUS
 10
210.7255788093
 20
421.545052342
 30
0.0
 11
52.75
 21
-0.0
 31
0.0
 40
0.2679491924
 41
-2.0788081094
 42
-1.0627845442
  0
ENDSEC
  0
SECTION
  2
OBJECTS
  0
DICTIONARY
  5
C
100
AcDbDictionary
280
0
281
1
  3
ACAD_GROUP
350
D
  3
ACAD_MLINESTYLE
350
17
  3
ACAD_LAYOUT
350
1A
  3
ACAD_PLOTSETTINGS
350
19
  3
ACAD_PLOTSTYLENAME
350
E
  0
DICTIONARY
  5
D
102
{ACAD_REACTORS
330
C
102
}
100
AcDbDictionary
280
0
281
1
  0
ACDBDICTIONARYWDFLT
  5
E
102
{ACAD_REACTORS
330
C
102
}
100
AcDbDictionary
281
1
  3
Normal
350
F
100
AcDbDictionaryWithDefault
340
F
  0
DICTIONARY
  5
17
102
{ACAD_REACTORS
330
C
102
}
100
AcDbDictionary
280
0
281
1
  3
Standard
350
18
  0
DICTIONARY
  5
19
102
{ACAD_REACTORS
330
C
102
}
100
AcDbDictionary
281
1
  0
DICTIONARY
  5
1A
102
{ACAD_REACTORS
330
C
102
}
100
AcDbDictionary
281
1
  3
Model
350
51C
  3
Layout1
350
51D
  0
ACDBPLACEHOLDER
  5
F
102
{ACAD_REACTORS
330
E
102
}
  0
MLINESTYLE
  5
18
102
{ACAD_REACTORS
330
17
102
}
100
AcDbMlineStyle
  2
STANDARD
 70
0
  3

 62
256
 51
90.0
 52
90.0
 71
2
 49
0.5
 62
256
  6
BYLAYER
 49
-0.5
 62
256
  6
BYLAYER
  0
LAYOUT
  5
51C
102
{ACAD_REACTORS
330
1A
102
}
100
AcDbPlotSettings
  1

  2
none_device
  4
ISO_A1_(594.00_x_841.00_MM)
  6

 40
0.0
 41
0.0
 42
0.0
 43
0.0
 44
841.0
 45
594.0
 46
0.0
 47
0.0
 48
0.0
 49
0.0
140
0.0
141
0.0
142
1.0
143
1.0
 70
1024
 72
1
 73
0
 74
0
  7

 75
0
147
1.0
148
0.0
149
0.0
100
AcDbLayout
  1
Model
 70
0
 71
0
 10
0.0
 20
0.0
 11
841.0
 21
594.0
 12
0.0
 22
0.0
 32
0.0
 14
0.0
 24
0.0
 34
0.0
 15
0.0
 25
0.0
 35
0.0
146
0.0
 13
0.0
 23
0.0
 33
0.0
 16
1.0
 26
0.0
 36
0.0
 17
0.0
 27
1.0
 37
0.0
 76
0
330
20E
345
0
346
0
  0
LAYOUT
  5
51D
102
{ACAD_REACTORS
330
1A
102
}
100
AcDbPlotSettings
  1

  2
none_device
  4
ISO_A1_(594.00_x_841.00_MM)
  6

 40
0.0
 41
0.0
 42
0.0
 43
0.0
 44
841.0
 45
594.0
 46
0.0
 47
0.0
 48
0.0
 49
0.0
140
0.0
141
0.0
142
1.0
143
1.0
 70
0
 72
1
 73
0
 74
0
  7

 75
0
147
1.0
148
0.0
149
0.0
100
AcDbLayout
  1
Layout1
 70
0
 71
1
 10
0.0
 20
0.0
 11
841.0
 21
594.0
 12
0.0
 22
0.0
 32
0.0
 14
0.0
 24
0.0
 34
0.0
 15
0.0
 25
0.0
 35
0.0
146
0.0
 13
0.0
 23
0.0
 33
0.0
 16
1.0
 26
0.0
 36
0.0
 17
0.0
 27
1.0
 37
0.0
 76
0
330
20F
345
0
346
0
  0
ENDSEC
  0
EOF
