999
DXF file: 001-m32988-p-1.dxf
999
Pro/ENGINEER 2011490 by Parametric Technology Corporation
  0
SECTION
  2
HEADER
  9
$ACADVER
  1
AC1015
  9
$DWGCODEPAGE
  3
ANSI_1252
  9
$EXTMAX
 10
594.0
 20
420.0
 30
0.0
  9
$EXTMIN
 10
0.0
 20
0.0
 30
0.0
  9
$LIMMIN
 10
0.0
 20
0.0
  9
$LIMMAX
 10
594.0
 20
420.0
  9
$VIEWCTR
 10
297.0
 20
210.0
  9
$VIEWSIZE
 40
420.0
  9
$CLAYER
  8
0
  9
$LTSCALE
 40
32.67
  9
$CELTYPE
  6
BYLAYER
  9
$DIMSCALE
 40
1.0
  9
$DIMASZ
 40
3.5
  9
$DIMEXO
 40
3.7125
  9
$DIMDLI
 40
22.572
  9
$DIMEXE
 40
10.692
  9
$DIMCEN
 40
5.346
  9
$DIMLFAC
 40
1.0
  9
$DIMBLK
  1
_FILLED
  9
$DIMTXT
 40
3.5
  9
$DIMTOL
 70
1
  9
$DIMLIM
 70
0
  9
$DIMTFAC
 40
1.0
  9
$DIMTP
 40
0.005
  9
$DIMTM
 40
0.005
  9
$PDMODE
 70
3
  9
$PDSIZE
 40
0.3125
  9
$HANDSEED
  5
497
  9
$TILEMODE
 70
1
  9
$MEASUREMENT
 70
1
  9
$INSUNITS
 70
4
  0
ENDSEC
  0
SECTION
  2
CLASSES
  0
CLASS
  1
ACDBDICTIONARYWDFLT
  2
AcDbDictionaryWithDefault
  3
AutoCAD 2000
 90
0
280
0
281
0
  0
CLASS
  1
ACDBPLACEHOLDER
  2
AcDbPlaceHolder
  3
AutoCAD 2000
 90
0
280
0
281
0
  0
CLASS
  1
LAYOUT
  2
AcDbLayout
  3
AutoCAD 2000
 90
0
280
0
281
0
  0
ENDSEC
  0
SECTION
  2
TABLES
  0
TABLE
  2
VPORT
  5
8
100
AcDbSymbolTable
 70
2
  0
VPORT
  5
1F4
100
AcDbSymbolTableRecord
100
AcDbViewportTableRecord
  2
*ACTIVE
 70
0
 10
0.0
 20
0.0
 11
1.0
 21
1.0
 12
297.0
 22
210.0
 13
0.0
 23
0.0
 14
1.0
 24
1.0
 15
0.0
 25
0.0
 16
0.0
 26
0.0
 36
1.0
 17
0.0
 27
0.0
 37
0.0
 40
420.0
 41
1.4142857143
 42
50.0
 43
0.0
 44
0.0
 50
0.0
 51
0.0
 71
0
 72
100
 73
1
 74
1
 75
0
 76
0
 77
0
 78
0
  0
ENDTAB
  0
TABLE
  2
LTYPE
  5
5
100
AcDbSymbolTable
 70
6
  0
LTYPE
  5
14
100
AcDbSymbolTableRecord
100
AcDbLinetypeTableRecord
  2
BYBLOCK
 70
0
  3

 72
65
 73
0
 40
0.0
  0
LTYPE
  5
15
100
AcDbSymbolTableRecord
100
AcDbLinetypeTableRecord
  2
BYLAYER
 70
0
  3

 72
65
 73
0
 40
0.0
  0
LTYPE
  5
16
100
AcDbSymbolTableRecord
100
AcDbLinetypeTableRecord
  2
CONTINUOUS
 70
64
  3
Solid line
 72
65
 73
0
 40
0.0
  0
LTYPE
  5
1F5
100
AcDbSymbolTableRecord
100
AcDbLinetypeTableRecord
  2
CENTER
 70
64
  3
____ _ ____ _ ____ _ ____ _ ____ _ ____ _ ____
 72
65
 73
4
 40
0.6
 49
0.375
 74
0
 49
-0.075
 74
0
 49
0.075
 74
0
 49
-0.075
 74
0
  0
LTYPE
  5
1F6
100
AcDbSymbolTableRecord
100
AcDbLinetypeTableRecord
  2
HIDDEN
 70
64
  3
- - - - - - - - - - - - - - - - - - - -
 72
65
 73
2
 40
0.2
 49
0.1
 74
0
 49
-0.1
 74
0
  0
LTYPE
  5
1F7
100
AcDbSymbolTableRecord
100
AcDbLinetypeTableRecord
  2
PHANTOM
 70
64
  3
_____ _ _ _____ _ _ _____ _ _ _____
 72
65
 73
6
 40
0.8
 49
0.45
 74
0
 49
-0.05
 74
0
 49
0.1
 74
0
 49
-0.05
 74
0
 49
0.1
 74
0
 49
-0.05
 74
0
  0
LTYPE
  5
1F8
100
AcDbSymbolTableRecord
100
AcDbLinetypeTableRecord
  2
DOT
 70
64
  3
. . . . . . . . . . . . . . . . . . . .
 72
65
 73
2
 40
0.2
 49
0.1
 74
0
 49
-0.1
 74
0
  0
LTYPE
  5
1F9
100
AcDbSymbolTableRecord
100
AcDbLinetypeTableRecord
  2
DASHED
 70
64
  3
- - - - - - - - - - - - - - - - - - - -
 72
65
 73
2
 40
0.2
 49
0.1
 74
0
 49
-0.1
 74
0
  0
ENDTAB
  0
TABLE
  2
LAYER
  5
2
100
AcDbSymbolTable
 70
36
  0
LAYER
  5
10
100
AcDbSymbolTableRecord
100
AcDbLayerTableRecord
  2
0
 70
0
 62
7
  6
CONTINUOUS
370
-3
390
F
  0
LAYER
  5
1FA
100
AcDbSymbolTableRecord
100
AcDbLayerTableRecord
  2
DEFAULT_1
 70
0
 62
7
  6
CENTER
370
-3
390
F
  0
LAYER
  5
1FB
100
AcDbSymbolTableRecord
100
AcDbLayerTableRecord
  2
DEFAULT_2
 70
0
 62
8
  6
HIDDEN
370
-3
390
F
  0
LAYER
  5
1FC
100
AcDbSymbolTableRecord
100
AcDbLayerTableRecord
  2
DEFAULT_3
 70
0
 62
7
  6
PHANTOM
370
-3
390
F
  0
LAYER
  5
1FD
100
AcDbSymbolTableRecord
100
AcDbLayerTableRecord
  2
BEZUGSACHSEN
 70
0
 62
7
  6
CONTINUOUS
370
-3
390
F
  0
LAYER
  5
1FE
100
AcDbSymbolTableRecord
100
AcDbLayerTableRecord
  2
BEZUGSEBENEN
 70
0
 62
7
  6
CONTINUOUS
370
-3
390
F
  0
LAYER
  5
1FF
100
AcDbSymbolTableRecord
100
AcDbLayerTableRecord
  2
BG_STARTBEZUEGE
 70
0
 62
7
  6
CONTINUOUS
370
-3
390
F
  0
LAYER
  5
200
100
AcDbSymbolTableRecord
100
AcDbLayerTableRecord
  2
FASEN
 70
0
 62
7
  6
CONTINUOUS
370
-3
390
F
  0
LAYER
  5
201
100
AcDbSymbolTableRecord
100
AcDbLayerTableRecord
  2
FLAECHEN
 70
0
 62
7
  6
CONTINUOUS
370
-3
390
F
  0
LAYER
  5
202
100
AcDbSymbolTableRecord
100
AcDbLayerTableRecord
  2
GEWINDE
 70
0
 62
7
  6
CONTINUOUS
370
-3
390
F
  0
LAYER
  5
203
100
AcDbSymbolTableRecord
100
AcDbLayerTableRecord
  2
HILFEN
 70
0
 62
7
  6
CONTINUOUS
370
-3
390
F
  0
LAYER
  5
204
100
AcDbSymbolTableRecord
100
AcDbLayerTableRecord
  2
KONSTRUKTIONSELEMENTE
 70
0
 62
7
  6
CONTINUOUS
370
-3
390
F
  0
LAYER
  5
205
100
AcDbSymbolTableRecord
100
AcDbLayerTableRecord
  2
KURVEN
 70
0
 62
7
  6
CONTINUOUS
370
-3
390
F
  0
LAYER
  5
206
100
AcDbSymbolTableRecord
100
AcDbLayerTableRecord
  2
NORM
 70
0
 62
7
  6
CONTINUOUS
370
-3
390
F
  0
LAYER
  5
207
100
AcDbSymbolTableRecord
100
AcDbLayerTableRecord
  2
PLATZIERUNG
 70
0
 62
7
  6
CONTINUOUS
370
-3
390
F
  0
LAYER
  5
208
100
AcDbSymbolTableRecord
100
AcDbLayerTableRecord
  2
RUNDUNGEN
 70
0
 62
7
  6
CONTINUOUS
370
-3
390
F
  0
LAYER
  5
209
100
AcDbSymbolTableRecord
100
AcDbLayerTableRecord
  2
TEIL_STARTBEZUEGE
 70
0
 62
7
  6
CONTINUOUS
370
-3
390
F
  0
LAYER
  5
20A
100
AcDbSymbolTableRecord
100
AcDbLayerTableRecord
  2
T_STARTBEZUEGE
 70
0
 62
7
  6
CONTINUOUS
370
-3
390
F
  0
LAYER
  5
20B
100
AcDbSymbolTableRecord
100
AcDbLayerTableRecord
  2
ZEICHNUNGSBEMASSUNGEN
 70
0
 62
7
  6
CONTINUOUS
370
-3
390
F
  0
ENDTAB
  0
TABLE
  2
STYLE
  5
3
100
AcDbSymbolTable
 70
1
  0
STYLE
  5
11
100
AcDbSymbolTableRecord
100
AcDbTextStyleTableRecord
  2
STANDARD
 70
0
 40
0.0
 41
0.7
 50
0.0
 71
0
 42
0.2
  3
txt
  4

  0
STYLE
  5
20C
100
AcDbSymbolTableRecord
100
AcDbTextStyleTableRecord
  2
TEXTSTYLE_1
 70
0
 40
0.0
 41
0.8
 50
0.0
 71
0
 42
0.2
  3
gdt
  4

  0
ENDTAB
  0
TABLE
  2
VIEW
  5
6
100
AcDbSymbolTable
 70
0
  0
ENDTAB
  0
TABLE
  2
UCS
  5
7
100
AcDbSymbolTable
 70
0
  0
ENDTAB
  0
TABLE
  2
APPID
  5
9
100
AcDbSymbolTable
 70
1
  0
APPID
  5
20D
100
AcDbSymbolTableRecord
100
AcDbRegAppTableRecord
  2
ACAD
 70
0
  0
ENDTAB
  0
TABLE
  2
BLOCK_RECORD
  5
1
100
AcDbSymbolTable
 70
0
  0
BLOCK_RECORD
  5
20E
100
AcDbSymbolTableRecord
100
AcDbBlockTableRecord
  2
*Model_Space
  0
BLOCK_RECORD
  5
20F
100
AcDbSymbolTableRecord
100
AcDbBlockTableRecord
  2
*Paper_Space
  0
ENDTAB
  0
TABLE
  2
DIMSTYLE
  5
A
100
AcDbSymbolTable
 70
1
100
AcDbDimStyleTable
 71
0
  0
DIMSTYLE
105
210
100
AcDbSymbolTableRecord
100
AcDbDimStyleTableRecord
  2
STANDARD
 70
0
  3

  4

 40
1.0
 41
3.5
 42
0.0625
 43
0.38
 44
0.18
 45
0.0
 46
0.0
 47
0.005
 48
0.005
140
3.5
141
0.09
142
0.0
143
25.4
144
1.0
145
0.0
146
1.0
147
0.09
 71
1.0
 72
0.0
 73
0
 74
0
 75
0
 76
0
 77
1
 78
8
170
0
171
2
172
0
173
0
174
0
175
0
176
0
177
0
178
5
270
2
271
3
272
3
273
2
274
2
275
0
280
0
281
0
282
0
283
1
284
8
285
0
286
0
287
3
288
0
340
11
  0
ENDTAB
  0
ENDSEC
  0
SECTION
  2
BLOCKS
  0
BLOCK
  5
20
100
AcDbEntity
  8
0
100
AcDbBlockBegin
  2
*Model_Space
 70
0
 10
0.0
 20
0.0
 30
0.0
  3
*Model_Space
  1

  0
ENDBLK
  5
21
100
AcDbEntity
  8
0
100
AcDbBlockEnd
  0
BLOCK
  5
1C
100
AcDbEntity
  8
0
100
AcDbBlockBegin
  2
*Paper_Space
 70
0
 10
0.0
 20
0.0
 30
0.0
  3
*Paper_Space
  1

  0
ENDBLK
  5
1D
100
AcDbEntity
  8
0
100
AcDbBlockEnd
  0
ENDSEC
  0
SECTION
  2
ENTITIES
  0
MTEXT
  5
211
100
AcDbEntity
  8
0
100
AcDbMText
 62
5
  6
CONTINUOUS
  7
STANDARD
 71
1
 72
1
 10
386.3629827498
 20
292.5163769442
 30
0.0
 11
0.0
 21
1.0
 31
0.0
 44
0.9
  1
VRS 12t RUD
 40
9.0
 41
77.1428571429
  0
MTEXT
  5
212
100
AcDbEntity
  8
0
100
AcDbMText
 62
5
  6
CONTINUOUS
  7
STANDARD
 71
1
 72
1
 10
124.966862234
 20
74.3322081602
 30
0.0
 11
1.0
 21
0.0
 31
0.0
 44
0.9
  1
VRS 12t RUD
 40
9.0
 41
77.1428571429
  0
LINE
  5
213
100
AcDbEntity
  8
0
100
AcDbLine
 62
7
  6
CONTINUOUS
 10
0.0
 20
0.0
 11
0.0
 21
420.0
  0
LINE
  5
214
100
AcDbEntity
  8
0
100
AcDbLine
 62
7
  6
CONTINUOUS
 10
0.0
 20
0.0
 11
594.0
 21
0.0
  0
LINE
  5
215
100
AcDbEntity
  8
0
100
AcDbLine
 62
7
  6
CONTINUOUS
 10
0.0
 20
420.0
 11
594.0
 21
420.0
  0
LINE
  5
216
100
AcDbEntity
  8
0
100
AcDbLine
 62
7
  6
CONTINUOUS
 10
594.0
 20
0.0
 11
594.0
 21
420.0
  0
LINE
  5
217
100
AcDbEntity
  8
KONSTRUKTIONSELEMENTE
100
AcDbLine
 62
7
  6
CONTINUOUS
 10
142.257982231
 20
152.2647274368
 11
183.257982231
 21
152.2647274368
  0
LINE
  5
218
100
AcDbEntity
  8
KONSTRUKTIONSELEMENTE
100
AcDbLine
 62
7
  6
CONTINUOUS
 10
138.757982231
 20
155.7647274368
 11
186.757982231
 21
155.7647274368
  0
LINE
  5
219
100
AcDbEntity
  8
RUNDUNGEN
100
AcDbLine
 62
7
  6
CONTINUOUS
 10
103.0787993343
 20
382.0560354824
 11
159.8910386347
 21
403.8642108997
  0
LINE
  5
21A
100
AcDbEntity
  8
KONSTRUKTIONSELEMENTE
100
AcDbLine
 62
7
  6
CONTINUOUS
 10
138.757982231
 20
155.7647274368
 11
142.257982231
 21
152.2647274368
  0
LINE
  5
21B
100
AcDbEntity
  8
BEZUGSACHSEN
100
AcDbLine
 62
7
  6
CONTINUOUS
 10
73.6781406887
 20
317.5915165507
 11
74.147137359
 21
318.7237746729
  0
LINE
  5
21C
100
AcDbEntity
  8
RUNDUNGEN
100
AcDbLine
 62
7
  6
CONTINUOUS
 10
74.147137359
 20
318.7237746729
 11
98.5547066705
 21
377.6488595294
  0
LINE
  5
21D
100
AcDbEntity
  8
0
100
AcDbLine
 62
7
  6
CONTINUOUS
 10
117.3705647021
 20
374.4362203047
 11
116.6339962623
 21
373.6996518648
  0
LINE
  5
21E
100
AcDbEntity
  8
0
100
AcDbLine
 62
7
  6
CONTINUOUS
 10
111.0360670159
 20
368.1017226185
 11
107.50053311
 21
364.5661887126
  0
LINE
  5
21F
100
AcDbEntity
  8
0
100
AcDbLine
 62
7
  6
CONTINUOUS
 10
106.3220216675
 20
363.3876772701
 11
105.438138191
 21
362.5037937936
  0
LINE
  5
220
100
AcDbEntity
  8
0
100
AcDbLine
 62
7
  6
CONTINUOUS
 10
101.3133487746
 20
358.3790043772
 11
100.4294652981
 21
357.4951209007
  0
LINE
  5
221
100
AcDbEntity
  8
0
100
AcDbLine
 62
7
  6
CONTINUOUS
 10
109.1366577534
 20
364.6978310221
 11
111.9356223765
 21
367.4967956453
  0
LINE
  5
222
100
AcDbEntity
  8
0
100
AcDbLine
 62
7
  6
CONTINUOUS
 10
117.5366856625
 20
372.7969624645
 11
118.420569139
 21
373.680845941
  0
LINE
  5
223
100
AcDbEntity
  8
0
100
AcDbLine
 62
7
  6
CONTINUOUS
 10
120.0566937824
 20
373.8124882506
 11
120.9405772589
 21
374.6963717271
  0
LINE
  5
224
100
AcDbEntity
  8
0
100
AcDbLine
 62
7
  6
CONTINUOUS
 10
120.5268448278
 20
371.5745702522
 11
119.6429613514
 21
370.6906867757
  0
LINE
  5
225
100
AcDbEntity
  8
0
100
AcDbLine
 62
7
  6
CONTINUOUS
 10
114.1923462987
 20
365.2400717231
 11
111.3933816756
 21
362.4411070999
  0
LINE
  5
226
100
AcDbEntity
  8
0
100
AcDbLine
 62
7
  6
CONTINUOUS
 10
118.2575830612
 20
375.022342197
 11
117.3705647021
 21
374.4362203047
  0
LINE
  5
227
100
AcDbEntity
  8
0
100
AcDbLine
 62
7
  6
CONTINUOUS
 10
111.923084532
 20
368.6878436679
 11
111.0360670159
 21
368.1017226185
  0
LINE
  5
228
100
AcDbEntity
  8
0
100
AcDbLine
 62
7
  6
CONTINUOUS
 10
121.413861501
 20
372.1606904587
 11
120.5268448278
 21
371.5745702522
  0
LINE
  5
229
100
AcDbEntity
  8
0
100
AcDbLine
 62
7
  6
CONTINUOUS
 10
121.4295342281
 20
370.6718808519
 11
122.1692375505
 21
371.1106877076
  0
LINE
  5
22A
100
AcDbEntity
  8
0
100
AcDbLine
 62
7
  6
CONTINUOUS
 10
119.8059457434
 20
369.3491888339
 11
120.5456507516
 21
369.7879973754
  0
LINE
  5
22B
100
AcDbEntity
  8
0
100
AcDbLine
 62
7
  6
CONTINUOUS
 10
122.507746181
 20
367.2366451712
 11
121.7680428586
 21
366.7978383155
  0
LINE
  5
22C
100
AcDbEntity
  8
0
100
AcDbLine
 62
7
  6
CONTINUOUS
 10
155.2579811581
 20
383.8583444708
 11
156.0913142928
 21
384.2838763349
  0
LINE
  5
22D
100
AcDbEntity
  8
0
100
AcDbLine
 62
7
  6
CONTINUOUS
 10
118.420569139
 20
373.680845941
 11
119.0129591107
 21
373.9723394459
  0
LINE
  5
22E
100
AcDbEntity
  8
0
100
AcDbLine
 62
7
  6
CONTINUOUS
 10
111.9356223765
 20
367.4967956453
 11
112.5280123482
 21
367.7882891502
  0
LINE
  5
22F
100
AcDbEntity
  8
0
100
AcDbLine
 62
7
  6
CONTINUOUS
 10
119.6429613514
 20
370.6906867757
 11
119.0505713797
 21
370.3991932709
  0
LINE
  5
230
100
AcDbEntity
  8
0
100
AcDbLine
 62
7
  6
CONTINUOUS
 10
155.0496474274
 20
384.9221741312
 11
154.4246474274
 21
384.7094081991
  0
LINE
  5
231
100
AcDbEntity
  8
0
100
AcDbLine
 62
7
  6
CONTINUOUS
 10
122.3040147427
 20
372.4490507668
 11
121.413861501
 21
372.1606904587
  0
LINE
  5
232
100
AcDbEntity
  8
0
100
AcDbLine
 62
7
  6
CONTINUOUS
 10
118.9157941876
 20
369.0608302117
 11
119.8059457434
 21
369.3491888339
  0
LINE
  5
233
100
AcDbEntity
  8
0
100
AcDbLine
 62
7
  6
CONTINUOUS
 10
117.2451921577
 20
372.2045724929
 11
117.5366856625
 21
372.7969624645
  0
LINE
  5
234
100
AcDbEntity
  8
0
100
AcDbLine
 62
7
  6
CONTINUOUS
 10
114.4838398036
 20
365.8324616947
 11
114.1923462987
 21
365.2400717231
  0
LINE
  5
235
100
AcDbEntity
  8
0
100
AcDbLine
 62
7
  6
CONTINUOUS
 10
116.6339962623
 20
373.6996518648
 11
116.1951877207
 21
372.9599468565
  0
LINE
  5
236
100
AcDbEntity
  8
0
100
AcDbLine
 62
7
  6
CONTINUOUS
 10
124.5889475506
 20
367.5124675295
 11
125.1750677439
 21
368.3994842158
  0
LINE
  5
237
100
AcDbEntity
  8
0
100
AcDbLine
 62
7
  6
CONTINUOUS
 10
112.2960710758
 20
361.5384176996
 11
114.8004073116
 21
364.0427539354
  0
LINE
  5
238
100
AcDbEntity
  8
0
100
AcDbLine
 62
7
  6
CONTINUOUS
 10
120.5456507516
 20
369.7879973754
 11
121.4295342281
 21
370.6718808519
  0
LINE
  5
239
100
AcDbEntity
  8
0
100
AcDbLine
 62
7
  6
CONTINUOUS
 10
120.276096578
 20
367.1112710463
 11
119.3922139445
 21
366.2273884127
  0
LINE
  5
23A
100
AcDbEntity
  8
0
100
AcDbLine
 62
7
  6
CONTINUOUS
 10
123.686258045
 20
368.4151570351
 11
122.507746181
 21
367.2366451712
  0
LINE
  5
23B
100
AcDbEntity
  8
0
100
AcDbLine
 62
7
  6
CONTINUOUS
 10
109.8575557842
 20
352.781075763
 11
111.0360670159
 21
353.9595869948
  0
LINE
  5
23C
100
AcDbEntity
  8
0
100
AcDbLine
 62
7
  6
CONTINUOUS
 10
114.5716009218
 20
357.4951209007
 11
115.4554843983
 21
358.3790043772
  0
LINE
  5
23D
100
AcDbEntity
  8
0
100
AcDbLine
 62
7
  6
CONTINUOUS
 10
119.138332498
 20
362.0618524768
 11
120.1695293253
 21
363.0930493041
  0
LINE
  5
23E
100
AcDbEntity
  8
0
100
AcDbLine
 62
7
  6
CONTINUOUS
 10
123.4104356867
 20
366.3339556655
 11
124.5889475506
 21
367.5124675295
  0
LINE
  5
23F
100
AcDbEntity
  8
0
100
AcDbLine
 62
7
  6
CONTINUOUS
 10
164.4246480235
 20
380.8796211236
 11
163.7996480235
 21
380.4540891104
  0
LINE
  5
240
100
AcDbEntity
  8
0
100
AcDbLine
 62
7
  6
CONTINUOUS
 10
122.5234173144
 20
365.7478337864
 11
123.4104356867
 21
366.3339556655
  0
LINE
  5
241
100
AcDbEntity
  8
0
100
AcDbLine
 62
7
  6
CONTINUOUS
 10
164.0079805621
 20
379.1774933875
 11
164.8413142928
 21
379.6030253075
  0
LINE
  5
242
100
AcDbEntity
  8
0
100
AcDbLine
 62
7
  6
CONTINUOUS
 10
174.0079817542
 20
379.1774933875
 11
174.8413142928
 21
379.6030253075
  0
LINE
  5
243
100
AcDbEntity
  8
0
100
AcDbLine
 62
7
  6
CONTINUOUS
 10
116.1951877207
 20
372.9599468565
 11
115.9068290985
 21
372.0697953008
  0
LINE
  5
244
100
AcDbEntity
  8
0
100
AcDbLine
 62
7
  6
CONTINUOUS
 10
115.3833943213
 20
365.2275338786
 11
115.6717537865
 21
366.1176862773
  0
LINE
  5
245
100
AcDbEntity
  8
0
100
AcDbLine
 62
7
  6
CONTINUOUS
 10
124.1250649006
 20
369.1548603575
 11
123.686258045
 21
368.4151570351
  0
LINE
  5
246
100
AcDbEntity
  8
0
100
AcDbLine
 62
7
  6
CONTINUOUS
 10
155.4663142928
 20
385.3477059953
 11
155.0496474274
 21
384.9221741312
  0
LINE
  5
247
100
AcDbEntity
  8
0
100
AcDbLine
 62
7
  6
CONTINUOUS
 10
174.4246468314
 20
380.8796211236
 11
173.7996468314
 21
380.4540891104
  0
LINE
  5
248
100
AcDbEntity
  8
KONSTRUKTIONSELEMENTE
100
AcDbLine
 62
7
  6
CONTINUOUS
 10
127.557982231
 20
224.2647274368
 11
197.957982231
 21
224.2647274368
  0
LINE
  5
249
100
AcDbEntity
  8
BEZUGSACHSEN
100
AcDbLine
 62
7
  6
CONTINUOUS
 10
212.7579343672
 20
224.4647274368
 11
112.7580300957
 21
224.4647274368
  0
LINE
  5
24A
100
AcDbEntity
  8
BEZUGSACHSEN
100
AcDbLine
 62
7
  6
CONTINUOUS
 10
102.8364506398
 20
241.1554856985
 11
73.679392512
 21
311.46556121
  0
LINE
  5
24B
100
AcDbEntity
  8
0
100
AcDbLine
 62
7
  6
CONTINUOUS
 10
117.1041468862
 20
371.4617342879
 11
117.2451921577
 21
372.2045724929
  0
LINE
  5
24C
100
AcDbEntity
  8
0
100
AcDbLine
 62
7
  6
CONTINUOUS
 10
124.2661100667
 20
369.8976986679
 11
124.1250649006
 21
369.1548603575
  0
LINE
  5
24D
100
AcDbEntity
  8
0
100
AcDbLine
 62
7
  6
CONTINUOUS
 10
125.1750677439
 20
368.3994842158
 11
125.4634280125
 21
369.289637497
  0
LINE
  5
24E
100
AcDbEntity
  8
0
100
AcDbLine
 62
7
  6
CONTINUOUS
 10
156.0913142928
 20
384.2838763349
 11
156.7163142928
 21
385.1349400633
  0
LINE
  5
24F
100
AcDbEntity
  8
0
100
AcDbLine
 62
7
  6
CONTINUOUS
 10
164.8413142928
 20
379.6030253075
 11
165.6746480235
 21
380.4540891104
  0
LINE
  5
250
100
AcDbEntity
  8
0
100
AcDbLine
 62
7
  6
CONTINUOUS
 10
174.8413142928
 20
379.6030253075
 11
175.6746468314
 21
380.4540891104
  0
LINE
  5
251
100
AcDbEntity
  8
0
100
AcDbLine
 62
7
  6
CONTINUOUS
 10
147.7163162001
 20
231.9647274368
 11
150.0913162001
 21
231.9647274368
  0
LINE
  5
252
100
AcDbEntity
  8
0
100
AcDbLine
 62
7
  6
CONTINUOUS
 10
153.257982678
 20
231.9647274368
 11
167.5079821118
 21
231.9647274368
  0
LINE
  5
253
100
AcDbEntity
  8
0
100
AcDbLine
 62
7
  6
CONTINUOUS
 10
167.5079821118
 20
233.9860040747
 11
156.424649156
 21
233.9860040747
  0
LINE
  5
254
100
AcDbEntity
  8
0
100
AcDbLine
 62
7
  6
CONTINUOUS
 10
177.0079821118
 20
232.3689827431
 11
179.3829821118
 21
231.9647274368
  0
LINE
  5
255
100
AcDbEntity
  8
0
100
AcDbLine
 62
7
  6
CONTINUOUS
 10
179.3829821118
 20
233.5817486622
 11
177.4038162001
 21
233.9860040747
  0
LINE
  5
256
100
AcDbEntity
  8
0
100
AcDbLine
 62
7
  6
CONTINUOUS
 10
114.4775708813
 20
366.427985706
 11
114.4838398036
 21
365.8324616947
  0
LINE
  5
257
100
AcDbEntity
  8
0
100
AcDbLine
 62
7
  6
CONTINUOUS
 10
115.9068290985
 20
372.0697953008
 11
115.919366943
 21
370.8787472782
  0
LINE
  5
258
100
AcDbEntity
  8
0
100
AcDbLine
 62
7
  6
CONTINUOUS
 10
155.6746474274
 20
385.9860037916
 11
155.4663142928
 21
385.3477059953
  0
LINE
  5
259
100
AcDbEntity
  8
0
100
AcDbLine
 62
7
  6
CONTINUOUS
 10
165.6746480235
 20
380.4540891104
 11
166.0913142928
 21
381.3051529877
  0
LINE
  5
25A
100
AcDbEntity
  8
0
100
AcDbLine
 62
7
  6
CONTINUOUS
 10
164.8413142928
 20
381.5179189198
 11
164.4246480235
 21
380.8796211236
  0
LINE
  5
25B
100
AcDbEntity
  8
0
100
AcDbLine
 62
7
  6
CONTINUOUS
 10
174.8413142928
 20
381.5179189198
 11
174.4246468314
 21
380.8796211236
  0
LINE
  5
25C
100
AcDbEntity
  8
0
100
AcDbLine
 62
7
  6
CONTINUOUS
 10
157.612149156
 20
248.539195811
 11
159.5913162001
 21
248.943451082
  0
LINE
  5
25D
100
AcDbEntity
  8
0
100
AcDbLine
 62
7
  6
CONTINUOUS
 10
170.6746502885
 20
243.2838761561
 11
173.8413162001
 21
243.2838761561
  0
LINE
  5
25E
100
AcDbEntity
  8
0
100
AcDbLine
 62
7
  6
CONTINUOUS
 10
175.8204821118
 20
243.2838761561
 11
180.1746502885
 21
243.2838761561
  0
LINE
  5
25F
100
AcDbEntity
  8
0
100
AcDbLine
 62
7
  6
CONTINUOUS
 10
180.1746502885
 20
244.9008972399
 11
175.8204821118
 21
244.9008972399
  0
LINE
  5
260
100
AcDbEntity
  8
0
100
AcDbLine
 62
7
  6
CONTINUOUS
 10
173.8413162001
 20
244.9008972399
 11
170.6746502885
 21
244.9008972399
  0
LINE
  5
261
100
AcDbEntity
  8
0
100
AcDbLine
 62
7
  6
CONTINUOUS
 10
153.6538162001
 20
246.5179194563
 11
155.6329832443
 21
246.5179194563
  0
LINE
  5
262
100
AcDbEntity
  8
0
100
AcDbLine
 62
7
  6
CONTINUOUS
 10
175.8204821118
 20
248.1349405401
 11
173.8413162001
 21
248.1349405401
  0
LINE
  5
263
100
AcDbEntity
  8
0
100
AcDbLine
 62
7
  6
CONTINUOUS
 10
159.5913162001
 20
248.943451082
 11
161.174649156
 21
248.943451082
  0
LINE
  5
264
100
AcDbEntity
  8
0
100
AcDbLine
 62
7
  6
CONTINUOUS
 10
161.5704832443
 20
250.9647274368
 11
159.987149156
 21
250.9647274368
  0
LINE
  5
265
100
AcDbEntity
  8
0
100
AcDbLine
 62
7
  6
CONTINUOUS
 10
150.0913162001
 20
250.9647274368
 11
147.7163162001
 21
250.9647274368
  0
LINE
  5
266
100
AcDbEntity
  8
0
100
AcDbLine
 62
7
  6
CONTINUOUS
 10
163.9454832443
 20
250.5604721658
 11
161.5704832443
 21
250.9647274368
  0
LINE
  5
267
100
AcDbEntity
  8
0
100
AcDbLine
 62
7
  6
CONTINUOUS
 10
161.174649156
 20
248.943451082
 11
163.1538162001
 21
248.539195811
  0
LINE
  5
268
100
AcDbEntity
  8
0
100
AcDbLine
 62
7
  6
CONTINUOUS
 10
175.8204821118
 20
232.7732380495
 11
177.0079821118
 21
232.3689827431
  0
LINE
  5
269
100
AcDbEntity
  8
0
100
AcDbLine
 62
7
  6
CONTINUOUS
 10
174.6329821118
 20
233.5817486622
 11
175.8204821118
 21
232.7732380495
  0
LINE
  5
26A
100
AcDbEntity
  8
0
100
AcDbLine
 62
7
  6
CONTINUOUS
 10
125.4634280125
 20
369.289637497
 11
125.4508901153
 21
370.4806855722
  0
LINE
  5
26B
100
AcDbEntity
  8
KONSTRUKTIONSELEMENTE
100
AcDbLine
 62
7
  6
CONTINUOUS
 10
127.557982231
 20
224.4647274368
 11
127.557982231
 21
224.2647274368
  0
LINE
  5
26C
100
AcDbEntity
  8
KONSTRUKTIONSELEMENTE
100
AcDbLine
 62
7
  6
CONTINUOUS
 10
138.757982231
 20
224.2647274368
 11
138.757982231
 21
155.7647274368
  0
LINE
  5
26D
100
AcDbEntity
  8
0
100
AcDbLine
 62
7
  6
CONTINUOUS
 10
156.7163142928
 20
385.1349400633
 11
156.9246474274
 21
385.7732378595
  0
LINE
  5
26E
100
AcDbEntity
  8
0
100
AcDbLine
 62
7
  6
CONTINUOUS
 10
175.6746468314
 20
380.4540891104
 11
176.0913142928
 21
381.3051529877
  0
LINE
  5
26F
100
AcDbEntity
  8
0
100
AcDbLine
 62
7
  6
CONTINUOUS
 10
159.987149156
 20
250.9647274368
 11
157.2163162001
 21
250.5604721658
  0
LINE
  5
270
100
AcDbEntity
  8
0
100
AcDbLine
 62
7
  6
CONTINUOUS
 10
165.5288162001
 20
249.7519616239
 11
163.9454832443
 21
250.5604721658
  0
LINE
  5
271
100
AcDbEntity
  8
0
100
AcDbLine
 62
7
  6
CONTINUOUS
 10
177.4038162001
 20
233.9860040747
 11
176.2163162001
 21
234.7945146166
  0
LINE
  5
272
100
AcDbEntity
  8
0
100
AcDbLine
 62
7
  6
CONTINUOUS
 10
163.1538162001
 20
248.539195811
 11
164.3413162001
 21
247.7306852691
  0
LINE
  5
273
100
AcDbEntity
  8
0
100
AcDbLine
 62
7
  6
CONTINUOUS
 10
167.1121502885
 20
248.1349405401
 11
165.5288162001
 21
249.7519616239
  0
LINE
  5
274
100
AcDbEntity
  8
0
100
AcDbLine
 62
7
  6
CONTINUOUS
 10
115.6717537865
 20
366.1176862773
 11
115.5119025912
 21
367.1614209491
  0
LINE
  5
275
100
AcDbEntity
  8
0
100
AcDbLine
 62
7
  6
CONTINUOUS
 10
145.3413162001
 20
248.1349405401
 11
145.3413162001
 21
244.9008972399
  0
LINE
  5
276
100
AcDbEntity
  8
0
100
AcDbLine
 62
7
  6
CONTINUOUS
 10
147.7163162001
 20
247.7306852691
 11
147.7163162001
 21
231.9647274368
  0
LINE
  5
277
100
AcDbEntity
  8
0
100
AcDbLine
 62
7
  6
CONTINUOUS
 10
149.2163142928
 20
388.9647274368
 11
149.2163142928
 21
378.9647274368
  0
LINE
  5
278
100
AcDbEntity
  8
0
100
AcDbLine
 62
7
  6
CONTINUOUS
 10
150.0913162001
 20
231.9647274368
 11
150.0913162001
 21
250.9647274368
  0
LINE
  5
279
100
AcDbEntity
  8
0
100
AcDbLine
 62
7
  6
CONTINUOUS
 10
150.4663142928
 20
378.9647274368
 11
150.4663142928
 21
383.4328126066
  0
LINE
  5
27A
100
AcDbEntity
  8
0
100
AcDbLine
 62
7
  6
CONTINUOUS
 10
150.4663142928
 20
384.7094081991
 11
150.4663142928
 21
387.9008977764
  0
LINE
  5
27B
100
AcDbEntity
  8
0
100
AcDbLine
 62
7
  6
CONTINUOUS
 10
166.0913142928
 20
381.3051529877
 11
166.2996480235
 21
382.3689826481
  0
LINE
  5
27C
100
AcDbEntity
  8
0
100
AcDbLine
 62
7
  6
CONTINUOUS
 10
165.0496480235
 20
382.3689826481
 11
164.8413142928
 21
381.5179189198
  0
LINE
  5
27D
100
AcDbEntity
  8
0
100
AcDbLine
 62
7
  6
CONTINUOUS
 10
207.0937238017
 20
364.209631936
 11
208.1620458788
 21
365.2779540131
  0
LINE
  5
27E
100
AcDbEntity
  8
0
100
AcDbLine
 62
7
  6
CONTINUOUS
 10
213.0610253644
 20
370.1769334987
 11
214.1293474415
 21
371.2452555757
  0
LINE
  5
27F
100
AcDbEntity
  8
0
100
AcDbLine
 62
7
  6
CONTINUOUS
 10
215.3840987545
 20
361.8942204512
 11
216.4524208316
 21
362.9625425283
  0
LINE
  5
280
100
AcDbEntity
  8
0
100
AcDbLine
 62
7
  6
CONTINUOUS
 10
213.1037238017
 20
358.199631936
 11
214.1720458788
 21
359.2679540131
  0
LINE
  5
281
100
AcDbEntity
  8
0
100
AcDbLine
 62
7
  6
CONTINUOUS
 10
219.0710253644
 20
364.1669334987
 11
220.1393474415
 21
365.2352555757
  0
LINE
  5
282
100
AcDbEntity
  8
0
100
AcDbLine
 62
7
  6
CONTINUOUS
 10
164.3413162001
 20
247.7306852691
 11
165.1329821118
 21
246.5179194563
  0
LINE
  5
283
100
AcDbEntity
  8
0
100
AcDbLine
 62
7
  6
CONTINUOUS
 10
111.0360670159
 20
353.9595869948
 11
106.3220216675
 21
363.3876772701
  0
LINE
  5
284
100
AcDbEntity
  8
0
100
AcDbLine
 62
7
  6
CONTINUOUS
 10
105.438138191
 20
362.5037937936
 11
109.544121789
 21
354.2730207792
  0
LINE
  5
285
100
AcDbEntity
  8
0
100
AcDbLine
 62
7
  6
CONTINUOUS
 10
173.8413162001
 20
235.1987698876
 11
174.6329821118
 21
233.5817486622
  0
LINE
  5
286
100
AcDbEntity
  8
0
100
AcDbLine
 62
7
  6
CONTINUOUS
 10
124.109393754
 20
370.6436717555
 11
124.2661100667
 21
369.8976986679
  0
LINE
  5
287
100
AcDbEntity
  8
0
100
AcDbLine
 62
7
  6
CONTINUOUS
 10
153.257982678
 20
233.9860040747
 11
153.257982678
 21
231.9647274368
  0
LINE
  5
288
100
AcDbEntity
  8
0
100
AcDbLine
 62
7
  6
CONTINUOUS
 10
155.6746474274
 20
386.6243021839
 11
155.6746474274
 21
385.9860037916
  0
LINE
  5
289
100
AcDbEntity
  8
0
100
AcDbLine
 62
7
  6
CONTINUOUS
 10
156.9246474274
 20
385.7732378595
 11
156.9246474274
 21
386.6243021839
  0
LINE
  5
28A
100
AcDbEntity
  8
0
100
AcDbLine
 62
7
  6
CONTINUOUS
 10
158.7996474274
 20
388.9647274368
 11
158.7996474274
 21
382.3689826481
  0
LINE
  5
28B
100
AcDbEntity
  8
0
100
AcDbLine
 62
7
  6
CONTINUOUS
 10
160.0496480235
 20
382.3689826481
 11
160.0496480235
 21
388.9647274368
  0
LINE
  5
28C
100
AcDbEntity
  8
0
100
AcDbLine
 62
7
  6
CONTINUOUS
 10
176.0913142928
 20
381.3051529877
 11
176.2996468314
 21
382.3689826481
  0
LINE
  5
28D
100
AcDbEntity
  8
0
100
AcDbLine
 62
7
  6
CONTINUOUS
 10
175.0496468314
 20
382.3689826481
 11
174.8413142928
 21
381.5179189198
  0
LINE
  5
28E
100
AcDbEntity
  8
0
100
AcDbLine
 62
7
  6
CONTINUOUS
 10
154.0496497222
 20
248.1349405401
 11
153.6538162001
 21
246.5179194563
  0
LINE
  5
28F
100
AcDbEntity
  8
0
100
AcDbLine
 62
7
  6
CONTINUOUS
 10
114.1735403749
 20
367.0266445999
 11
114.4775708813
 21
366.427985706
  0
LINE
  5
290
100
AcDbEntity
  8
0
100
AcDbLine
 62
7
  6
CONTINUOUS
 10
115.5119025912
 20
367.1614209491
 11
115.2078720848
 21
367.760079843
  0
LINE
  5
291
100
AcDbEntity
  8
0
100
AcDbLine
 62
7
  6
CONTINUOUS
 10
117.4081769712
 20
370.8630741296
 11
117.1041468862
 21
371.4617342879
  0
LINE
  5
292
100
AcDbEntity
  8
0
100
AcDbLine
 62
7
  6
CONTINUOUS
 10
125.4508901153
 20
370.4806855722
 11
125.1437254639
 21
371.3771069986
  0
LINE
  5
293
100
AcDbEntity
  8
0
100
AcDbLine
 62
7
  6
CONTINUOUS
 10
176.2163162001
 20
234.7945146166
 11
175.8204821118
 21
236.0072807126
  0
LINE
  5
294
100
AcDbEntity
  8
0
100
AcDbLine
 62
7
  6
CONTINUOUS
 10
167.5079821118
 20
246.5179194563
 11
167.1121502885
 21
248.1349405401
  0
LINE
  5
295
100
AcDbEntity
  8
0
100
AcDbLine
 62
7
  6
CONTINUOUS
 10
165.0496480235
 20
388.9647274368
 11
165.0496480235
 21
382.3689826481
  0
LINE
  5
296
100
AcDbEntity
  8
0
100
AcDbLine
 62
7
  6
CONTINUOUS
 10
165.1329821118
 20
246.5179194563
 11
165.1329821118
 21
245.7094077819
  0
LINE
  5
297
100
AcDbEntity
  8
0
100
AcDbLine
 62
7
  6
CONTINUOUS
 10
166.2996480235
 20
382.3689826481
 11
166.2996480235
 21
388.9647274368
  0
LINE
  5
298
100
AcDbEntity
  8
0
100
AcDbLine
 62
7
  6
CONTINUOUS
 10
167.5079821118
 20
231.9647274368
 11
167.5079821118
 21
233.9860040747
  0
LINE
  5
299
100
AcDbEntity
  8
0
100
AcDbLine
 62
7
  6
CONTINUOUS
 10
167.5079821118
 20
245.7094077819
 11
167.5079821118
 21
246.5179194563
  0
LINE
  5
29A
100
AcDbEntity
  8
0
100
AcDbLine
 62
7
  6
CONTINUOUS
 10
167.9663142928
 20
388.9647274368
 11
167.9663142928
 21
378.9647274368
  0
LINE
  5
29B
100
AcDbEntity
  8
0
100
AcDbLine
 62
7
  6
CONTINUOUS
 10
169.2163142928
 20
380.2413231783
 11
169.2163142928
 21
387.6881318443
  0
LINE
  5
29C
100
AcDbEntity
  8
0
100
AcDbLine
 62
7
  6
CONTINUOUS
 10
170.6746502885
 20
244.9008972399
 11
170.6746502885
 21
243.2838761561
  0
LINE
  5
29D
100
AcDbEntity
  8
0
100
AcDbLine
 62
7
  6
CONTINUOUS
 10
173.8413162001
 20
248.1349405401
 11
173.8413162001
 21
244.9008972399
  0
LINE
  5
29E
100
AcDbEntity
  8
0
100
AcDbLine
 62
7
  6
CONTINUOUS
 10
173.8413162001
 20
243.2838761561
 11
173.8413162001
 21
235.1987698876
  0
LINE
  5
29F
100
AcDbEntity
  8
0
100
AcDbLine
 62
7
  6
CONTINUOUS
 10
175.0496468314
 20
385.5604719274
 11
175.0496468314
 21
382.3689826481
  0
LINE
  5
2A0
100
AcDbEntity
  8
0
100
AcDbLine
 62
7
  6
CONTINUOUS
 10
175.8204821118
 20
236.0072807126
 11
175.8204821118
 21
243.2838761561
  0
LINE
  5
2A1
100
AcDbEntity
  8
0
100
AcDbLine
 62
7
  6
CONTINUOUS
 10
175.8204821118
 20
244.9008972399
 11
175.8204821118
 21
248.1349405401
  0
LINE
  5
2A2
100
AcDbEntity
  8
0
100
AcDbLine
 62
7
  6
CONTINUOUS
 10
176.2996468314
 20
382.3689826481
 11
176.2996468314
 21
385.5604719274
  0
LINE
  5
2A3
100
AcDbEntity
  8
0
100
AcDbLine
 62
7
  6
CONTINUOUS
 10
147.7163162001
 20
250.9647274368
 11
145.3413162001
 21
248.1349405401
  0
LINE
  5
2A4
100
AcDbEntity
  8
0
100
AcDbLine
 62
7
  6
CONTINUOUS
 10
115.919366943
 20
370.8787472782
 11
116.3738448398
 21
370.129639308
  0
LINE
  5
2A5
100
AcDbEntity
  8
0
100
AcDbLine
 62
7
  6
CONTINUOUS
 10
158.7996474274
 20
382.3689826481
 11
159.0079811581
 21
381.3051529877
  0
LINE
  5
2A6
100
AcDbEntity
  8
0
100
AcDbLine
 62
7
  6
CONTINUOUS
 10
179.3829821118
 20
231.9647274368
 11
179.3829821118
 21
233.5817486622
  0
LINE
  5
2A7
100
AcDbEntity
  8
0
100
AcDbLine
 62
7
  6
CONTINUOUS
 10
180.1746502885
 20
243.2838761561
 11
180.1746502885
 21
244.9008972399
  0
LINE
  5
2A8
100
AcDbEntity
  8
KONSTRUKTIONSELEMENTE
100
AcDbLine
 62
7
  6
CONTINUOUS
 10
186.757982231
 20
224.2647274368
 11
186.757982231
 21
155.7647274368
  0
LINE
  5
2A9
100
AcDbEntity
  8
0
100
AcDbLine
 62
7
  6
CONTINUOUS
 10
167.1121502885
 20
244.092386698
 11
167.5079821118
 21
245.7094077819
  0
LINE
  5
2AA
100
AcDbEntity
  8
0
100
AcDbLine
 62
7
  6
CONTINUOUS
 10
165.1329821118
 20
245.7094077819
 11
164.3413162001
 21
244.092386698
  0
LINE
  5
2AB
100
AcDbEntity
  8
0
100
AcDbLine
 62
7
  6
CONTINUOUS
 10
155.6329832443
 20
246.5179194563
 11
156.424649156
 21
247.7306852691
  0
LINE
  5
2AC
100
AcDbEntity
  8
0
100
AcDbLine
 62
7
  6
CONTINUOUS
 10
145.3413162001
 20
244.9008972399
 11
147.7163162001
 21
247.7306852691
  0
LINE
  5
2AD
100
AcDbEntity
  8
0
100
AcDbLine
 62
7
  6
CONTINUOUS
 10
155.6329832443
 20
249.7519616239
 11
154.0496497222
 21
248.1349405401
  0
LINE
  5
2AE
100
AcDbEntity
  8
0
100
AcDbLine
 62
7
  6
CONTINUOUS
 10
107.50053311
 20
364.5661887126
 11
114.5716009218
 21
357.4951209007
  0
LINE
  5
2AF
100
AcDbEntity
  8
0
100
AcDbLine
 62
7
  6
CONTINUOUS
 10
115.4554843983
 20
358.3790043772
 11
112.2960710758
 21
361.5384176996
  0
LINE
  5
2B0
100
AcDbEntity
  8
0
100
AcDbLine
 62
7
  6
CONTINUOUS
 10
111.3933816756
 20
362.4411070999
 11
109.1366577534
 21
364.6978310221
  0
LINE
  5
2B1
100
AcDbEntity
  8
0
100
AcDbLine
 62
7
  6
CONTINUOUS
 10
113.7221952533
 20
367.4779897215
 11
114.1735403749
 21
367.0266445999
  0
LINE
  5
2B2
100
AcDbEntity
  8
0
100
AcDbLine
 62
7
  6
CONTINUOUS
 10
115.2078720848
 20
367.760079843
 11
114.6060787298
 21
368.361873198
  0
LINE
  5
2B3
100
AcDbEntity
  8
0
100
AcDbLine
 62
7
  6
CONTINUOUS
 10
116.3738448398
 20
370.129639308
 11
116.9756381948
 21
369.527845953
  0
LINE
  5
2B4
100
AcDbEntity
  8
0
100
AcDbLine
 62
7
  6
CONTINUOUS
 10
117.7090734379
 20
370.5621776629
 11
117.4081769712
 21
370.8630741296
  0
LINE
  5
2B5
100
AcDbEntity
  8
0
100
AcDbLine
 62
7
  6
CONTINUOUS
 10
157.1329811581
 20
378.9647274368
 11
155.2579811581
 21
383.8583444708
  0
LINE
  5
2B6
100
AcDbEntity
  8
0
100
AcDbLine
 62
7
  6
CONTINUOUS
 10
154.0079808601
 20
383.4328126066
 11
155.6746474274
 21
378.9647274368
  0
LINE
  5
2B7
100
AcDbEntity
  8
0
100
AcDbLine
 62
7
  6
CONTINUOUS
 10
155.4663142928
 20
387.2625999801
 11
155.6746474274
 21
386.6243021839
  0
LINE
  5
2B8
100
AcDbEntity
  8
0
100
AcDbLine
 62
7
  6
CONTINUOUS
 10
156.9246474274
 20
386.6243021839
 11
156.7163142928
 21
387.2625999801
  0
LINE
  5
2B9
100
AcDbEntity
  8
0
100
AcDbLine
 62
7
  6
CONTINUOUS
 10
160.2579805621
 20
381.5179189198
 11
160.0496480235
 21
382.3689826481
  0
LINE
  5
2BA
100
AcDbEntity
  8
KONSTRUKTIONSELEMENTE
100
AcDbLine
 62
7
  6
CONTINUOUS
 10
197.957982231
 20
224.4647274368
 11
197.957982231
 21
224.2647274368
  0
LINE
  5
2BB
100
AcDbEntity
  8
0
100
AcDbLine
 62
7
  6
CONTINUOUS
 10
166.3204821118
 20
242.8796208851
 11
167.1121502885
 21
244.092386698
  0
LINE
  5
2BC
100
AcDbEntity
  8
0
100
AcDbLine
 62
7
  6
CONTINUOUS
 10
164.3413162001
 20
244.092386698
 11
153.257982678
 21
233.9860040747
  0
LINE
  5
2BD
100
AcDbEntity
  8
0
100
AcDbLine
 62
7
  6
CONTINUOUS
 10
156.424649156
 20
233.9860040747
 11
166.3204821118
 21
242.8796208851
  0
LINE
  5
2BE
100
AcDbEntity
  8
0
100
AcDbLine
 62
7
  6
CONTINUOUS
 10
156.424649156
 20
247.7306852691
 11
157.612149156
 21
248.539195811
  0
LINE
  5
2BF
100
AcDbEntity
  8
0
100
AcDbLine
 62
7
  6
CONTINUOUS
 10
157.2163162001
 20
250.5604721658
 11
155.6329832443
 21
249.7519616239
  0
LINE
  5
2C0
100
AcDbEntity
  8
0
100
AcDbLine
 62
7
  6
CONTINUOUS
 10
109.544121789
 20
354.2730207792
 11
101.3133487746
 21
358.3790043772
  0
LINE
  5
2C1
100
AcDbEntity
  8
0
100
AcDbLine
 62
7
  6
CONTINUOUS
 10
100.4294652981
 20
357.4951209007
 11
109.8575557842
 21
352.781075763
  0
LINE
  5
2C2
100
AcDbEntity
  8
0
100
AcDbLine
 62
7
  6
CONTINUOUS
 10
123.6580490539
 20
371.0950164556
 11
124.109393754
 21
370.6436717555
  0
LINE
  5
2C3
100
AcDbEntity
  8
0
100
AcDbLine
 62
7
  6
CONTINUOUS
 10
125.1437254639
 20
371.3771069986
 11
124.391484297
 21
372.1293481655
  0
LINE
  5
2C4
100
AcDbEntity
  8
0
100
AcDbLine
 62
7
  6
CONTINUOUS
 10
159.0079811581
 20
381.3051529877
 11
159.4246480235
 21
380.4540891104
  0
LINE
  5
2C5
100
AcDbEntity
  8
0
100
AcDbLine
 62
7
  6
CONTINUOUS
 10
174.8413142928
 20
386.4115356558
 11
175.0496468314
 21
385.5604719274
  0
LINE
  5
2C6
100
AcDbEntity
  8
0
100
AcDbLine
 62
7
  6
CONTINUOUS
 10
176.2996468314
 20
385.5604719274
 11
176.0913142928
 21
386.6243021839
  0
LINE
  5
2C7
100
AcDbEntity
  8
0
100
AcDbLine
 62
7
  6
CONTINUOUS
 10
120.1695293253
 20
363.0930493041
 11
115.3833943213
 21
365.2275338786
  0
LINE
  5
2C8
100
AcDbEntity
  8
0
100
AcDbLine
 62
7
  6
CONTINUOUS
 10
114.8004073116
 20
364.0427539354
 11
119.138332498
 21
362.0618524768
  0
LINE
  5
2C9
100
AcDbEntity
  8
0
100
AcDbLine
 62
7
  6
CONTINUOUS
 10
113.1235363594
 20
367.7820202279
 11
113.7221952533
 21
367.4779897215
  0
LINE
  5
2CA
100
AcDbEntity
  8
0
100
AcDbLine
 62
7
  6
CONTINUOUS
 10
114.6060787298
 20
368.361873198
 11
114.0074198359
 21
368.6659037044
  0
LINE
  5
2CB
100
AcDbEntity
  8
0
100
AcDbLine
 62
7
  6
CONTINUOUS
 10
120.8747563148
 20
366.8072413828
 11
120.276096578
 21
367.1112710463
  0
LINE
  5
2CC
100
AcDbEntity
  8
0
100
AcDbLine
 62
7
  6
CONTINUOUS
 10
118.3077331747
 20
370.2581479994
 11
117.7090734379
 21
370.5621776629
  0
LINE
  5
2CD
100
AcDbEntity
  8
0
100
AcDbLine
 62
7
  6
CONTINUOUS
 10
119.3922139445
 20
366.2273884127
 11
120.1413202288
 21
365.77290883
  0
LINE
  5
2CE
100
AcDbEntity
  8
0
100
AcDbLine
 62
7
  6
CONTINUOUS
 10
116.9756381948
 20
369.527845953
 11
117.724746165
 21
369.0733680562
  0
LINE
  5
2CF
100
AcDbEntity
  8
0
100
AcDbLine
 62
7
  6
CONTINUOUS
 10
160.6746480235
 20
380.8796211236
 11
160.2579805621
 21
381.5179189198
  0
LINE
  5
2D0
100
AcDbEntity
  8
0
100
AcDbLine
 62
7
  6
CONTINUOUS
 10
120.1413202288
 20
365.77290883
 11
121.3355041349
 21
365.4626100862
  0
LINE
  5
2D1
100
AcDbEntity
  8
0
100
AcDbLine
 62
7
  6
CONTINUOUS
 10
120.9405772589
 20
374.6963717271
 11
120.3419175221
 21
375.0004013906
  0
LINE
  5
2D2
100
AcDbEntity
  8
0
100
AcDbLine
 62
7
  6
CONTINUOUS
 10
159.4246480235
 20
380.4540891104
 11
160.2579805621
 21
379.6030253075
  0
LINE
  5
2D3
100
AcDbEntity
  8
0
100
AcDbLine
 62
7
  6
CONTINUOUS
 10
155.0496474274
 20
387.6881318443
 11
155.4663142928
 21
387.2625999801
  0
LINE
  5
2D4
100
AcDbEntity
  8
0
100
AcDbLine
 62
7
  6
CONTINUOUS
 10
156.7163142928
 20
387.2625999801
 11
156.0913142928
 21
388.1136637085
  0
LINE
  5
2D5
100
AcDbEntity
  8
0
100
AcDbLine
 62
7
  6
CONTINUOUS
 10
174.4246468314
 20
387.049834048
 11
174.8413142928
 21
386.4115356558
  0
LINE
  5
2D6
100
AcDbEntity
  8
0
100
AcDbLine
 62
7
  6
CONTINUOUS
 10
176.0913142928
 20
386.6243021839
 11
175.6746468314
 21
387.4753659122
  0
LINE
  5
2D7
100
AcDbEntity
  8
BEZUGSACHSEN
100
AcDbLine
 62
7
  6
CONTINUOUS
 10
251.83657195
 20
311.46556121
 11
222.6795138222
 21
241.1554856985
  0
LINE
  5
2D8
100
AcDbEntity
  8
0
100
AcDbLine
 62
7
  6
CONTINUOUS
 10
121.7680428586
 20
366.7978383155
 11
120.8747563148
 21
366.8072413828
  0
LINE
  5
2D9
100
AcDbEntity
  8
0
100
AcDbLine
 62
7
  6
CONTINUOUS
 10
114.0074198359
 20
368.6659037044
 11
112.9636851642
 21
368.8257548997
  0
LINE
  5
2DA
100
AcDbEntity
  8
0
100
AcDbLine
 62
7
  6
CONTINUOUS
 10
122.9120757555
 20
371.2517329791
 11
123.6580490539
 21
371.0950164556
  0
LINE
  5
2DB
100
AcDbEntity
  8
0
100
AcDbLine
 62
7
  6
CONTINUOUS
 10
124.391484297
 20
372.1293481655
 11
123.4950627653
 21
372.4365129223
  0
LINE
  5
2DC
100
AcDbEntity
  8
0
100
AcDbLine
 62
7
  6
CONTINUOUS
 10
119.608482279
 20
373.9660696807
 11
120.0566937824
 21
373.8124882506
  0
LINE
  5
2DD
100
AcDbEntity
  8
0
100
AcDbLine
 62
7
  6
CONTINUOUS
 10
161.2996480235
 20
380.4540891104
 11
160.6746480235
 21
380.8796211236
  0
LINE
  5
2DE
100
AcDbEntity
  8
0
100
AcDbLine
 62
7
  6
CONTINUOUS
 10
156.0913142928
 20
388.1136637085
 11
155.2579811581
 21
388.7519615047
  0
LINE
  5
2DF
100
AcDbEntity
  8
0
100
AcDbLine
 62
7
  6
CONTINUOUS
 10
175.6746468314
 20
387.4753659122
 11
174.8413142928
 21
388.3264296405
  0
LINE
  5
2E0
100
AcDbEntity
  8
0
100
AcDbLine
 62
7
  6
CONTINUOUS
 10
173.7996468314
 20
380.4540891104
 11
172.9663142928
 21
380.2413231783
  0
LINE
  5
2E1
100
AcDbEntity
  8
0
100
AcDbLine
 62
7
  6
CONTINUOUS
 10
163.7996480235
 20
380.4540891104
 11
162.9663142928
 21
380.2413231783
  0
LINE
  5
2E2
100
AcDbEntity
  8
0
100
AcDbLine
 62
7
  6
CONTINUOUS
 10
121.3355041349
 20
365.4626100862
 11
122.5234173144
 21
365.7478337864
  0
LINE
  5
2E3
100
AcDbEntity
  8
0
100
AcDbLine
 62
7
  6
CONTINUOUS
 10
172.9663142928
 20
378.9647274368
 11
174.0079817542
 21
379.1774933875
  0
LINE
  5
2E4
100
AcDbEntity
  8
0
100
AcDbLine
 62
7
  6
CONTINUOUS
 10
162.9663142928
 20
378.9647274368
 11
164.0079805621
 21
379.1774933875
  0
LINE
  5
2E5
100
AcDbEntity
  8
0
100
AcDbLine
 62
7
  6
CONTINUOUS
 10
119.0505713797
 20
370.3991932709
 11
118.3077331747
 21
370.2581479994
  0
LINE
  5
2E6
100
AcDbEntity
  8
0
100
AcDbLine
 62
7
  6
CONTINUOUS
 10
122.1692375505
 20
371.1106877076
 11
122.9120757555
 21
371.2517329791
  0
LINE
  5
2E7
100
AcDbEntity
  8
0
100
AcDbLine
 62
7
  6
CONTINUOUS
 10
112.9636851642
 20
368.8257548997
 11
111.923084532
 21
368.6878436679
  0
LINE
  5
2E8
100
AcDbEntity
  8
0
100
AcDbLine
 62
7
  6
CONTINUOUS
 10
149.2163142928
 20
378.9647274368
 11
150.4663142928
 21
378.9647274368
  0
LINE
  5
2E9
100
AcDbEntity
  8
0
100
AcDbLine
 62
7
  6
CONTINUOUS
 10
155.6746474274
 20
378.9647274368
 11
157.1329811581
 21
378.9647274368
  0
LINE
  5
2EA
100
AcDbEntity
  8
0
100
AcDbLine
 62
7
  6
CONTINUOUS
 10
162.1329805621
 20
378.9647274368
 11
162.9663142928
 21
378.9647274368
  0
LINE
  5
2EB
100
AcDbEntity
  8
0
100
AcDbLine
 62
7
  6
CONTINUOUS
 10
167.9663142928
 20
378.9647274368
 11
172.9663142928
 21
378.9647274368
  0
LINE
  5
2EC
100
AcDbEntity
  8
0
100
AcDbLine
 62
7
  6
CONTINUOUS
 10
112.5280123482
 20
367.7882891502
 11
113.1235363594
 21
367.7820202279
  0
LINE
  5
2ED
100
AcDbEntity
  8
0
100
AcDbLine
 62
7
  6
CONTINUOUS
 10
117.724746165
 20
369.0733680562
 11
118.9157941876
 21
369.0608302117
  0
LINE
  5
2EE
100
AcDbEntity
  8
0
100
AcDbLine
 62
7
  6
CONTINUOUS
 10
123.4950627653
 20
372.4365129223
 11
122.3040147427
 21
372.4490507668
  0
LINE
  5
2EF
100
AcDbEntity
  8
0
100
AcDbLine
 62
7
  6
CONTINUOUS
 10
119.0129591107
 20
373.9723394459
 11
119.608482279
 21
373.9660696807
  0
LINE
  5
2F0
100
AcDbEntity
  8
0
100
AcDbLine
 62
7
  6
CONTINUOUS
 10
120.3419175221
 20
375.0004013906
 11
119.2981828503
 21
375.1602525859
  0
LINE
  5
2F1
100
AcDbEntity
  8
0
100
AcDbLine
 62
7
  6
CONTINUOUS
 10
161.0913142928
 20
379.1774933875
 11
162.1329805621
 21
378.9647274368
  0
LINE
  5
2F2
100
AcDbEntity
  8
0
100
AcDbLine
 62
7
  6
CONTINUOUS
 10
162.1329805621
 20
380.2413231783
 11
161.2996480235
 21
380.4540891104
  0
LINE
  5
2F3
100
AcDbEntity
  8
0
100
AcDbLine
 62
7
  6
CONTINUOUS
 10
160.2579805621
 20
379.6030253075
 11
161.0913142928
 21
379.1774933875
  0
LINE
  5
2F4
100
AcDbEntity
  8
0
100
AcDbLine
 62
7
  6
CONTINUOUS
 10
173.7996468314
 20
387.4753659122
 11
174.4246468314
 21
387.049834048
  0
LINE
  5
2F5
100
AcDbEntity
  8
0
100
AcDbLine
 62
7
  6
CONTINUOUS
 10
213.3202671944
 20
363.9580520113
 11
215.3840987545
 21
361.8942204512
  0
LINE
  5
2F6
100
AcDbEntity
  8
0
100
AcDbLine
 62
7
  6
CONTINUOUS
 10
216.4524208316
 20
362.9625425283
 11
214.390282889
 21
365.0246804709
  0
LINE
  5
2F7
100
AcDbEntity
  8
0
100
AcDbLine
 62
7
  6
CONTINUOUS
 10
119.2981828503
 20
375.1602525859
 11
118.2575830612
 21
375.022342197
  0
LINE
  5
2F8
100
AcDbEntity
  8
0
100
AcDbLine
 62
7
  6
CONTINUOUS
 10
172.9663142928
 20
380.2413231783
 11
169.2163142928
 21
380.2413231783
  0
LINE
  5
2F9
100
AcDbEntity
  8
0
100
AcDbLine
 62
7
  6
CONTINUOUS
 10
162.9663142928
 20
380.2413231783
 11
162.1329805621
 21
380.2413231783
  0
LINE
  5
2FA
100
AcDbEntity
  8
0
100
AcDbLine
 62
7
  6
CONTINUOUS
 10
150.4663142928
 20
383.4328126066
 11
154.0079808601
 21
383.4328126066
  0
LINE
  5
2FB
100
AcDbEntity
  8
0
100
AcDbLine
 62
7
  6
CONTINUOUS
 10
154.4246474274
 20
384.7094081991
 11
150.4663142928
 21
384.7094081991
  0
LINE
  5
2FC
100
AcDbEntity
  8
0
100
AcDbLine
 62
7
  6
CONTINUOUS
 10
169.2163142928
 20
387.6881318443
 11
172.9663142928
 21
387.6881318443
  0
LINE
  5
2FD
100
AcDbEntity
  8
0
100
AcDbLine
 62
7
  6
CONTINUOUS
 10
150.4663142928
 20
387.9008977764
 11
154.4246474274
 21
387.9008977764
  0
LINE
  5
2FE
100
AcDbEntity
  8
0
100
AcDbLine
 62
7
  6
CONTINUOUS
 10
172.9663142928
 20
388.9647274368
 11
167.9663142928
 21
388.9647274368
  0
LINE
  5
2FF
100
AcDbEntity
  8
0
100
AcDbLine
 62
7
  6
CONTINUOUS
 10
166.2996480235
 20
388.9647274368
 11
165.0496480235
 21
388.9647274368
  0
LINE
  5
300
100
AcDbEntity
  8
0
100
AcDbLine
 62
7
  6
CONTINUOUS
 10
160.0496480235
 20
388.9647274368
 11
158.7996474274
 21
388.9647274368
  0
LINE
  5
301
100
AcDbEntity
  8
0
100
AcDbLine
 62
7
  6
CONTINUOUS
 10
154.2163142928
 20
388.9647274368
 11
149.2163142928
 21
388.9647274368
  0
LINE
  5
302
100
AcDbEntity
  8
0
100
AcDbLine
 62
7
  6
CONTINUOUS
 10
155.2579811581
 20
388.7519615047
 11
154.2163142928
 21
388.9647274368
  0
LINE
  5
303
100
AcDbEntity
  8
0
100
AcDbLine
 62
7
  6
CONTINUOUS
 10
174.0079817542
 20
388.7519615047
 11
172.9663142928
 21
388.9647274368
  0
LINE
  5
304
100
AcDbEntity
  8
0
100
AcDbLine
 62
7
  6
CONTINUOUS
 10
172.9663142928
 20
387.6881318443
 11
173.7996468314
 21
387.4753659122
  0
LINE
  5
305
100
AcDbEntity
  8
0
100
AcDbLine
 62
7
  6
CONTINUOUS
 10
154.4246474274
 20
387.9008977764
 11
155.0496474274
 21
387.6881318443
  0
LINE
  5
306
100
AcDbEntity
  8
0
100
AcDbLine
 62
7
  6
CONTINUOUS
 10
174.8413142928
 20
388.3264296405
 11
174.0079817542
 21
388.7519615047
  0
LINE
  5
307
100
AcDbEntity
  8
RUNDUNGEN
100
AcDbLine
 62
7
  6
CONTINUOUS
 10
226.9612577915
 20
377.6488595294
 11
251.3688293716
 21
318.7237691962
  0
LINE
  5
308
100
AcDbEntity
  8
BEZUGSACHSEN
100
AcDbLine
 62
7
  6
CONTINUOUS
 10
251.3688293716
 20
318.7237691962
 11
251.8378237733
 21
317.5915165507
  0
LINE
  5
309
100
AcDbEntity
  8
KONSTRUKTIONSELEMENTE
100
AcDbLine
 62
7
  6
CONTINUOUS
 10
186.757982231
 20
155.7647274368
 11
183.257982231
 21
152.2647274368
  0
LINE
  5
30A
100
AcDbEntity
  8
RUNDUNGEN
100
AcDbLine
 62
7
  6
CONTINUOUS
 10
165.6249258274
 20
403.8642108997
 11
222.4371651278
 21
382.0560354824
  0
LINE
  5
30B
100
AcDbEntity
  8
KONSTRUKTIONSELEMENTE
100
AcDbLine
 62
7
  6
CONTINUOUS
 10
369.9188657765
 20
152.2647274368
 11
410.9183853716
 21
152.2647274368
  0
LINE
  5
30C
100
AcDbEntity
  8
KONSTRUKTIONSELEMENTE
100
AcDbLine
 62
7
  6
CONTINUOUS
 10
366.4186255741
 20
155.7647274368
 11
369.9186255741
 21
152.2647274368
  0
LINE
  5
30D
100
AcDbEntity
  8
KONSTRUKTIONSELEMENTE
100
AcDbLine
 62
7
  6
CONTINUOUS
 10
366.4186255741
 20
155.7647274368
 11
414.4186255741
 21
155.7647274368
  0
LINE
  5
30E
100
AcDbEntity
  8
0
100
AcDbLine
 62
7
  6
CONTINUOUS
 10
328.4844940075
 20
250.7625999738
 11
329.3719685158
 21
248.6200469797
  0
LINE
  5
30F
100
AcDbEntity
  8
0
100
AcDbLine
 62
7
  6
CONTINUOUS
 10
331.8454157187
 20
242.6486171967
 11
333.0759192767
 21
239.6779188184
  0
LINE
  5
310
100
AcDbEntity
  8
0
100
AcDbLine
 62
7
  6
CONTINUOUS
 10
335.4335875594
 20
233.9860040747
 11
336.2708277561
 21
231.9647274368
  0
LINE
  5
311
100
AcDbEntity
  8
BEZUGSACHSEN
100
AcDbLine
 62
7
  6
CONTINUOUS
 10
327.1055573417
 20
255.3982105389
 11
329.0256901077
 21
250.7625999738
  0
LINE
  5
312
100
AcDbEntity
  8
BEZUGSACHSEN
100
AcDbLine
 62
7
  6
CONTINUOUS
 10
333.6171153768
 20
239.6779188184
 11
335.9747836595
 21
233.9860040747
  0
LINE
  5
313
100
AcDbEntity
  8
BEZUGSACHSEN
100
AcDbLine
 62
7
  6
CONTINUOUS
 10
336.8120238563
 20
231.9647274368
 11
339.9186255741
 21
224.4647274368
  0
LINE
  5
314
100
AcDbEntity
  8
KONSTRUKTIONSELEMENTE
100
AcDbLine
 62
7
  6
CONTINUOUS
 10
355.2186255741
 20
224.4647274368
 11
355.2186255741
 21
224.2647274368
  0
LINE
  5
315
100
AcDbEntity
  8
KONSTRUKTIONSELEMENTE
100
AcDbLine
 62
7
  6
CONTINUOUS
 10
366.4186255741
 20
224.2647274368
 11
366.4186255741
 21
155.7647274368
  0
LINE
  5
316
100
AcDbEntity
  8
KONSTRUKTIONSELEMENTE
100
AcDbLine
 62
7
  6
CONTINUOUS
 10
355.2186255741
 20
224.2647274368
 11
425.6186255741
 21
224.2647274368
  0
LINE
  5
317
100
AcDbEntity
  8
BEZUGSACHSEN
100
AcDbLine
 62
7
  6
CONTINUOUS
 10
339.9187119703
 20
224.4647274368
 11
440.9185391778
 21
224.4647274368
  0
LINE
  5
318
100
AcDbEntity
  8
0
100
AcDbLine
 62
7
  6
CONTINUOUS
 10
339.2189845824
 20
231.9647274368
 11
338.6547458844
 21
231.9647274368
  0
LINE
  5
319
100
AcDbEntity
  8
0
100
AcDbLine
 62
7
  6
CONTINUOUS
 10
336.2708277607
 20
231.9647274368
 11
337.0046165825
 21
231.9647274368
  0
LINE
  5
31A
100
AcDbEntity
  8
0
100
AcDbLine
 62
7
  6
CONTINUOUS
 10
442.0632212587
 20
231.9647274368
 11
443.1957500839
 21
231.9647274368
  0
LINE
  5
31B
100
AcDbEntity
  8
0
100
AcDbLine
 62
7
  6
CONTINUOUS
 10
443.2513740655
 20
231.9647274368
 11
444.5664233874
 21
231.9647274368
  0
LINE
  5
31C
100
AcDbEntity
  8
0
100
AcDbLine
 62
7
  6
CONTINUOUS
 10
338.5206759777
 20
233.5817486622
 11
337.9569907965
 21
233.5817486622
  0
LINE
  5
31D
100
AcDbEntity
  8
BEZUGSACHSEN
100
AcDbLine
 62
7
  6
CONTINUOUS
 10
371.4186255741
 20
298.4845762638
 11
371.4186255741
 21
397.3955674877
  0
LINE
  5
31E
100
AcDbEntity
  8
0
100
AcDbLine
 62
7
  6
CONTINUOUS
 10
445.4036366769
 20
233.9860040747
 11
445.0688630998
 21
233.9860040747
  0
LINE
  5
31F
100
AcDbEntity
  8
0
100
AcDbLine
 62
7
  6
CONTINUOUS
 10
337.805894942
 20
233.9860040747
 11
337.247613578
 21
233.9860040747
  0
LINE
  5
320
100
AcDbEntity
  8
0
100
AcDbLine
 62
7
  6
CONTINUOUS
 10
336.1646535834
 20
233.9860040747
 11
335.4336144712
 21
233.9860040747
  0
LINE
  5
321
100
AcDbEntity
  8
0
100
AcDbLine
 62
7
  6
CONTINUOUS
 10
444.0996760262
 20
233.9860040747
 11
444.6478372093
 21
233.9860040747
  0
LINE
  5
322
100
AcDbEntity
  8
0
100
AcDbLine
 62
7
  6
CONTINUOUS
 10
337.1729851241
 20
234.7945146166
 11
336.6176464308
 21
234.7945146166
  0
LINE
  5
323
100
AcDbEntity
  8
0
100
AcDbLine
 62
7
  6
CONTINUOUS
 10
336.5681905422
 20
236.0072807126
 11
336.0139349718
 21
236.0072807126
  0
LINE
  5
324
100
AcDbEntity
  8
0
100
AcDbLine
 62
7
  6
CONTINUOUS
 10
332.3914446336
 20
242.8796208851
 11
331.8493941813
 21
242.8796208851
  0
LINE
  5
325
100
AcDbEntity
  8
0
100
AcDbLine
 62
7
  6
CONTINUOUS
 10
332.0742672666
 20
243.2838761561
 11
332.5502130383
 21
243.2838761561
  0
LINE
  5
326
100
AcDbEntity
  8
0
100
AcDbLine
 62
7
  6
CONTINUOUS
 10
332.9311906107
 20
243.2838761561
 11
334.5656297222
 21
243.2838761561
  0
LINE
  5
327
100
AcDbEntity
  8
0
100
AcDbLine
 62
7
  6
CONTINUOUS
 10
331.7367822154
 20
244.092386698
 11
331.3951224051
 21
244.092386698
  0
LINE
  5
328
100
AcDbEntity
  8
0
100
AcDbLine
 62
7
  6
CONTINUOUS
 10
449.0486682377
 20
244.092386698
 11
449.5703310261
 21
244.092386698
  0
LINE
  5
329
100
AcDbEntity
  8
0
100
AcDbLine
 62
7
  6
CONTINUOUS
 10
333.8691099163
 20
244.9008972399
 11
332.2470427332
 21
244.9008972399
  0
LINE
  5
32A
100
AcDbEntity
  8
0
100
AcDbLine
 62
7
  6
CONTINUOUS
 10
331.8701961172
 20
244.9008972399
 11
331.3993243844
 21
244.9008972399
  0
LINE
  5
32B
100
AcDbEntity
  8
0
100
AcDbLine
 62
7
  6
CONTINUOUS
 10
446.9681418059
 20
244.9008972399
 11
447.5304522671
 21
244.9008972399
  0
LINE
  5
32C
100
AcDbEntity
  8
0
100
AcDbLine
 62
7
  6
CONTINUOUS
 10
331.2942730911
 20
245.7094077819
 11
330.7516112563
 21
245.7094077819
  0
LINE
  5
32D
100
AcDbEntity
  8
0
100
AcDbLine
 62
7
  6
CONTINUOUS
 10
449.7184603013
 20
245.7094077819
 11
450.2161660185
 21
245.7094077819
  0
LINE
  5
32E
100
AcDbEntity
  8
0
100
AcDbLine
 62
7
  6
CONTINUOUS
 10
330.958464369
 20
246.5179194563
 11
330.4158176836
 21
246.5179194563
  0
LINE
  5
32F
100
AcDbEntity
  8
0
100
AcDbLine
 62
7
  6
CONTINUOUS
 10
449.4100762554
 20
246.5179194563
 11
450.5512864665
 21
246.5179194563
  0
LINE
  5
330
100
AcDbEntity
  8
0
100
AcDbLine
 62
7
  6
CONTINUOUS
 10
450.7912729661
 20
247.7306852691
 11
451.077812837
 21
247.7306852691
  0
LINE
  5
331
100
AcDbEntity
  8
0
100
AcDbLine
 62
7
  6
CONTINUOUS
 10
331.4319149096
 20
248.1349405401
 11
330.5108033149
 21
248.1349405401
  0
LINE
  5
332
100
AcDbEntity
  8
0
100
AcDbLine
 62
7
  6
CONTINUOUS
 10
330.2592635126
 20
248.1349405401
 11
329.7168739231
 21
248.1349405401
  0
LINE
  5
333
100
AcDbEntity
  8
0
100
AcDbLine
 62
7
  6
CONTINUOUS
 10
448.359426739
 20
248.1349405401
 11
448.9208275443
 21
248.1349405401
  0
LINE
  5
334
100
AcDbEntity
  8
0
100
AcDbLine
 62
7
  6
CONTINUOUS
 10
450.1409277314
 20
248.1349405401
 11
450.6869435906
 21
248.1349405401
  0
LINE
  5
335
100
AcDbEntity
  8
0
100
AcDbLine
 62
7
  6
CONTINUOUS
 10
451.2311755861
 20
248.539195811
 11
451.4306058814
 21
248.539195811
  0
LINE
  5
336
100
AcDbEntity
  8
0
100
AcDbLine
 62
7
  6
CONTINUOUS
 10
451.5234932429
 20
248.943451082
 11
451.5803020842
 21
248.943451082
  0
LINE
  5
337
100
AcDbEntity
  8
0
100
AcDbLine
 62
7
  6
CONTINUOUS
 10
329.5024844878
 20
249.7519616239
 11
328.9608152676
 21
249.7519616239
  0
LINE
  5
338
100
AcDbEntity
  8
0
100
AcDbLine
 62
7
  6
CONTINUOUS
 10
451.0076935279
 20
249.7519616239
 11
451.5520358367
 21
249.7519616239
  0
LINE
  5
339
100
AcDbEntity
  8
0
100
AcDbLine
 62
7
  6
CONTINUOUS
 10
329.1200473524
 20
250.5604721658
 11
328.5787651944
 21
250.5604721658
  0
LINE
  5
33A
100
AcDbEntity
  8
0
100
AcDbLine
 62
7
  6
CONTINUOUS
 10
451.4961782527
 20
250.5604721658
 11
452.0392523702
 21
250.5604721658
  0
LINE
  5
33B
100
AcDbEntity
  8
0
100
AcDbLine
 62
7
  6
CONTINUOUS
 10
328.9419661712
 20
250.9647274368
 11
328.4112907289
 21
250.9647274368
  0
LINE
  5
33C
100
AcDbEntity
  8
0
100
AcDbLine
 62
7
  6
CONTINUOUS
 10
450.1732550225
 20
250.9647274368
 11
451.2304819426
 21
250.9647274368
  0
LINE
  5
33D
100
AcDbEntity
  8
0
100
AcDbLine
 62
7
  6
CONTINUOUS
 10
451.8375512836
 20
250.9647274368
 11
452.4259604192
 21
250.9647274368
  0
LINE
  5
33E
100
AcDbEntity
  8
RUNDUNGEN
100
AcDbLine
 62
7
  6
CONTINUOUS
 10
409.4186255741
 20
298.4845762638
 11
409.4186255741
 21
397.3955674877
  0
LINE
  5
33F
100
AcDbEntity
  8
0
100
AcDbLine
 62
7
  6
CONTINUOUS
 10
409.9186255741
 20
388.9647274368
 11
409.9186255741
 21
378.9647274368
  0
LINE
  5
340
100
AcDbEntity
  8
0
100
AcDbLine
 62
7
  6
CONTINUOUS
 10
409.9186255741
 20
375.1602525859
 11
409.9186255741
 21
352.781075763
  0
LINE
  5
341
100
AcDbEntity
  8
KONSTRUKTIONSELEMENTE
100
AcDbLine
 62
7
  6
CONTINUOUS
 10
414.4186255741
 20
224.2647274368
 11
414.4186255741
 21
155.7647274368
  0
LINE
  5
342
100
AcDbEntity
  8
RUNDUNGEN
100
AcDbLine
 62
7
  6
CONTINUOUS
 10
449.0761516104
 20
264.8385253615
 11
431.654143487
 21
269.5067383687
  0
LINE
  5
343
100
AcDbEntity
  8
KONSTRUKTIONSELEMENTE
100
AcDbLine
 62
7
  6
CONTINUOUS
 10
425.6186255741
 20
224.4647274368
 11
425.6186255741
 21
224.2647274368
  0
LINE
  5
344
100
AcDbEntity
  8
BEZUGSACHSEN
100
AcDbLine
 62
7
  6
CONTINUOUS
 10
331.7610995377
 20
264.8385253615
 11
349.1831076612
 21
269.5067383687
  0
LINE
  5
345
100
AcDbEntity
  8
0
100
AcDbLine
 62
7
  6
CONTINUOUS
 10
449.5703310261
 20
244.092386698
 11
448.9911708602
 21
242.6487421769
  0
LINE
  5
346
100
AcDbEntity
  8
0
100
AcDbLine
 62
7
  6
CONTINUOUS
 10
440.9186255741
 20
224.4647274368
 11
444.0252272919
 21
231.9647274368
  0
LINE
  5
347
100
AcDbEntity
  8
0
100
AcDbLine
 62
7
  6
CONTINUOUS
 10
448.4506393293
 20
242.6486171967
 11
450.0533568021
 21
246.5179194563
  0
LINE
  5
348
100
AcDbEntity
  8
0
100
AcDbLine
 62
7
  6
CONTINUOUS
 10
451.8952849769
 20
250.9647274368
 11
453.7316938064
 21
255.3982105389
  0
LINE
  5
349
100
AcDbEntity
  8
0
100
AcDbLine
 62
7
  6
CONTINUOUS
 10
444.566423392
 20
231.9647274368
 11
445.4036635887
 21
233.9860040747
  0
LINE
  5
34A
100
AcDbEntity
  8
0
100
AcDbLine
 62
7
  6
CONTINUOUS
 10
447.7613318714
 20
239.6779188184
 11
448.9918354294
 21
242.6486171967
  0
LINE
  5
34B
100
AcDbEntity
  8
0
100
AcDbLine
 62
7
  6
CONTINUOUS
 10
451.5881479958
 20
248.9166702065
 11
452.3527571406
 21
250.7625999738
  0
LINE
  5
34C
100
AcDbEntity
  8
0
100
AcDbLine
 62
7
  6
CONTINUOUS
 10
409.4186255741
 20
352.781075763
 11
409.9186255741
 21
352.781075763
  0
LINE
  5
34D
100
AcDbEntity
  8
0
100
AcDbLine
 62
7
  6
CONTINUOUS
 10
409.4186255741
 20
357.4951209007
 11
409.9186255741
 21
357.4951209007
  0
LINE
  5
34E
100
AcDbEntity
  8
0
100
AcDbLine
 62
7
  6
CONTINUOUS
 10
409.4186255741
 20
358.3790043772
 11
409.9186255741
 21
358.3790043772
  0
LINE
  5
34F
100
AcDbEntity
  8
0
100
AcDbLine
 62
7
  6
CONTINUOUS
 10
409.4186255741
 20
362.5037937936
 11
409.9186255741
 21
362.5037937936
  0
LINE
  5
350
100
AcDbEntity
  8
0
100
AcDbLine
 62
7
  6
CONTINUOUS
 10
409.4186255741
 20
363.3876772701
 11
409.9186255741
 21
363.3876772701
  0
LINE
  5
351
100
AcDbEntity
  8
0
100
AcDbLine
 62
7
  6
CONTINUOUS
 10
409.4186255741
 20
364.5661887126
 11
409.9186255741
 21
364.5661887126
  0
LINE
  5
352
100
AcDbEntity
  8
0
100
AcDbLine
 62
7
  6
CONTINUOUS
 10
409.4186255741
 20
368.1017226185
 11
409.9186255741
 21
368.1017226185
  0
LINE
  5
353
100
AcDbEntity
  8
KONSTRUKTIONSELEMENTE
100
AcDbLine
 62
7
  6
CONTINUOUS
 10
414.4186255741
 20
155.7647274368
 11
410.9186255741
 21
152.2647274368
  0
LINE
  5
354
100
AcDbEntity
  8
0
100
AcDbLine
 62
7
  6
CONTINUOUS
 10
409.4186255741
 20
368.6878436679
 11
409.9186255741
 21
368.6878436679
  0
LINE
  5
355
100
AcDbEntity
  8
0
100
AcDbLine
 62
7
  6
CONTINUOUS
 10
409.4186255741
 20
368.8257548997
 11
409.9186255741
 21
368.8257548997
  0
LINE
  5
356
100
AcDbEntity
  8
0
100
AcDbLine
 62
7
  6
CONTINUOUS
 10
409.4186255741
 20
369.0608302117
 11
409.9186255741
 21
369.0608302117
  0
LINE
  5
357
100
AcDbEntity
  8
0
100
AcDbLine
 62
7
  6
CONTINUOUS
 10
409.4186255741
 20
369.0733680562
 11
409.9186255741
 21
369.0733680562
  0
LINE
  5
358
100
AcDbEntity
  8
0
100
AcDbLine
 62
7
  6
CONTINUOUS
 10
409.4186255741
 20
369.527845953
 11
409.9186255741
 21
369.527845953
  0
LINE
  5
359
100
AcDbEntity
  8
0
100
AcDbLine
 62
7
  6
CONTINUOUS
 10
409.4186255741
 20
370.129639308
 11
409.9186255741
 21
370.129639308
  0
LINE
  5
35A
100
AcDbEntity
  8
0
100
AcDbLine
 62
7
  6
CONTINUOUS
 10
409.4186255741
 20
370.8787472782
 11
409.9186255741
 21
370.8787472782
  0
LINE
  5
35B
100
AcDbEntity
  8
0
100
AcDbLine
 62
7
  6
CONTINUOUS
 10
409.4186255741
 20
372.0697953008
 11
409.9186255741
 21
372.0697953008
  0
LINE
  5
35C
100
AcDbEntity
  8
0
100
AcDbLine
 62
7
  6
CONTINUOUS
 10
409.4186255741
 20
372.9599468565
 11
409.9186255741
 21
372.9599468565
  0
LINE
  5
35D
100
AcDbEntity
  8
0
100
AcDbLine
 62
7
  6
CONTINUOUS
 10
409.4186255741
 20
373.6996518648
 11
409.9186255741
 21
373.6996518648
  0
LINE
  5
35E
100
AcDbEntity
  8
0
100
AcDbLine
 62
7
  6
CONTINUOUS
 10
409.4186255741
 20
374.4362203047
 11
409.9186255741
 21
374.4362203047
  0
LINE
  5
35F
100
AcDbEntity
  8
0
100
AcDbLine
 62
7
  6
CONTINUOUS
 10
409.4186255741
 20
375.022342197
 11
409.9186255741
 21
375.022342197
  0
LINE
  5
360
100
AcDbEntity
  8
0
100
AcDbLine
 62
7
  6
CONTINUOUS
 10
409.4186255741
 20
375.1602525859
 11
409.9186255741
 21
375.1602525859
  0
LINE
  5
361
100
AcDbEntity
  8
0
100
AcDbLine
 62
7
  6
CONTINUOUS
 10
409.4186255741
 20
378.9647274368
 11
409.9186255741
 21
378.9647274368
  0
LINE
  5
362
100
AcDbEntity
  8
0
100
AcDbLine
 62
7
  6
CONTINUOUS
 10
409.4186255741
 20
388.9647274368
 11
409.9186255741
 21
388.9647274368
  0
LINE
  5
363
100
AcDbEntity
  8
RUNDUNGEN
100
AcDbLine
 62
7
  6
CONTINUOUS
 10
402.4186255741
 20
404.3955674877
 11
378.4186255741
 21
404.3955674877
  0
LWPOLYLINE
  5
364
100
AcDbEntity
  8
RUNDUNGEN
100
AcDbPolyline
 62
7
  6
CONTINUOUS
 90
7
 70
0
 10
73.0691778379
 20
69.6467673087
 10
73.081169284
 20
67.6822369143
 10
73.1214844748
 20
65.5416682311
 10
73.1906297922
 20
63.3886548841
 10
73.2889301469
 20
61.2256316855
 10
73.4166056061
 20
59.0550021695
 10
73.5560691781
 20
57.1054611365
  0
LWPOLYLINE
  5
365
100
AcDbEntity
  8
BEZUGSACHSEN
100
AcDbPolyline
 62
7
  6
CONTINUOUS
 90
7
 70
0
 10
73.5560691781
 20
82.1880734809
 10
73.4166056061
 20
80.2385324478
 10
73.2889301469
 20
78.0679029318
 10
73.1906297922
 20
75.9048797332
 10
73.1214844748
 20
73.7518663863
 10
73.081169284
 20
71.6112977031
 10
73.0691778379
 20
69.6467673087
  0
LWPOLYLINE
  5
366
100
AcDbEntity
  8
BEZUGSACHSEN
100
AcDbPolyline
 62
7
  6
CONTINUOUS
 90
21
 70
0
 10
97.5698459206
 20
98.1199926407
 10
96.6461650426
 20
97.0344149916
 10
95.7744921014
 20
96.0185834718
 10
94.9499590304
 20
95.0708930583
 10
94.1654954648
 20
94.1866066466
 10
93.4234515444
 20
93.3710162299
 10
92.7237443699
 20
92.6256567639
 10
92.0679401642
 20
91.9527840865
 10
91.4581574038
 20
91.3539513183
 10
90.8935413421
 20
90.8266716239
 10
90.3760184863
 20
90.3701477361
 10
89.9011779902
 20
89.9773393927
 10
89.4669671003
 20
89.643337519
 10
89.0727215352
 20
89.364212597
 10
88.7178545363
 20
89.1359181577
 10
88.405479762
 20
88.9563441357
 10
88.1383667087
 20
88.8221990193
 10
87.922386876
 20
88.7304463464
 10
87.7639784213
 20
88.6761806519
 10
87.6666280078
 20
88.651329948
 10
87.6394301653
 20
88.6467673087
  0
LWPOLYLINE
  5
367
100
AcDbEntity
  8
BEZUGSACHSEN
100
AcDbPolyline
 62
7
  6
CONTINUOUS
 90
11
 70
0
 10
112.5702821805
 20
114.2401410465
 10
110.9335316358
 20
112.7142032266
 10
109.2446626327
 20
111.073119048
 10
107.6278649605
 20
109.4389196943
 10
106.0882887527
 20
107.8262897795
 10
104.6281400763
 20
106.2478785123
 10
103.249447855
 20
104.7167745994
 10
101.9531069373
 20
103.2449831587
 10
100.7388470075
 20
101.842624878
 10
99.6089336249
 20
100.5219498137
 10
97.5698459206
 20
98.1199926407
  0
LINE
  5
368
100
AcDbEntity
  8
0
100
AcDbLine
 62
7
  6
CONTINUOUS
 10
100.4294652981
 20
50.6467673087
 11
100.4294652981
 21
50.1467673087
  0
LINE
  5
369
100
AcDbEntity
  8
0
100
AcDbLine
 62
7
  6
CONTINUOUS
 10
101.3133487746
 20
50.6467673087
 11
101.3133487746
 21
50.1467673087
  0
LINE
  5
36A
100
AcDbEntity
  8
0
100
AcDbLine
 62
7
  6
CONTINUOUS
 10
105.438138191
 20
50.6467673087
 11
105.438138191
 21
50.1467673087
  0
LINE
  5
36B
100
AcDbEntity
  8
0
100
AcDbLine
 62
7
  6
CONTINUOUS
 10
106.3220216675
 20
50.6467673087
 11
106.3220216675
 21
50.1467673087
  0
LINE
  5
36C
100
AcDbEntity
  8
0
100
AcDbLine
 62
7
  6
CONTINUOUS
 10
107.50053311
 20
50.6467673087
 11
107.50053311
 21
50.1467673087
  0
LINE
  5
36D
100
AcDbEntity
  8
0
100
AcDbLine
 62
7
  6
CONTINUOUS
 10
111.0360670159
 20
50.6467673087
 11
111.0360670159
 21
50.1467673087
  0
LINE
  5
36E
100
AcDbEntity
  8
0
100
AcDbLine
 62
7
  6
CONTINUOUS
 10
111.923084532
 20
50.6467673087
 11
111.923084532
 21
50.1467673087
  0
LINE
  5
36F
100
AcDbEntity
  8
0
100
AcDbLine
 62
7
  6
CONTINUOUS
 10
112.9636851642
 20
50.6467673087
 11
112.9636851642
 21
50.1467673087
  0
LINE
  5
370
100
AcDbEntity
  8
0
100
AcDbLine
 62
7
  6
CONTINUOUS
 10
114.0074198359
 20
50.6467673087
 11
114.0074198359
 21
50.1467673087
  0
LINE
  5
371
100
AcDbEntity
  8
0
100
AcDbLine
 62
7
  6
CONTINUOUS
 10
114.6060787298
 20
50.6467673087
 11
114.6060787298
 21
50.1467673087
  0
LINE
  5
372
100
AcDbEntity
  8
0
100
AcDbLine
 62
7
  6
CONTINUOUS
 10
115.2078720848
 20
50.6467673087
 11
115.2078720848
 21
50.1467673087
  0
LINE
  5
373
100
AcDbEntity
  8
0
100
AcDbLine
 62
7
  6
CONTINUOUS
 10
115.5119025912
 20
50.6467673087
 11
115.5119025912
 21
50.1467673087
  0
LINE
  5
374
100
AcDbEntity
  8
0
100
AcDbLine
 62
7
  6
CONTINUOUS
 10
115.6717537865
 20
50.6467673087
 11
115.6717537865
 21
50.1467673087
  0
LINE
  5
375
100
AcDbEntity
  8
0
100
AcDbLine
 62
7
  6
CONTINUOUS
 10
115.9068290985
 20
50.6467673087
 11
115.9068290985
 21
50.1467673087
  0
LINE
  5
376
100
AcDbEntity
  8
0
100
AcDbLine
 62
7
  6
CONTINUOUS
 10
116.1951877207
 20
50.6467673087
 11
116.1951877207
 21
50.1467673087
  0
LINE
  5
377
100
AcDbEntity
  8
0
100
AcDbLine
 62
7
  6
CONTINUOUS
 10
116.6339962623
 20
50.6467673087
 11
116.6339962623
 21
50.1467673087
  0
LINE
  5
378
100
AcDbEntity
  8
0
100
AcDbLine
 62
7
  6
CONTINUOUS
 10
117.3705647021
 20
50.6467673087
 11
117.3705647021
 21
50.1467673087
  0
LINE
  5
379
100
AcDbEntity
  8
0
100
AcDbLine
 62
7
  6
CONTINUOUS
 10
118.2575830612
 20
50.6467673087
 11
118.2575830612
 21
50.1467673087
  0
LINE
  5
37A
100
AcDbEntity
  8
0
100
AcDbLine
 62
7
  6
CONTINUOUS
 10
119.2981828503
 20
50.6467673087
 11
119.2981828503
 21
50.1467673087
  0
LINE
  5
37B
100
AcDbEntity
  8
0
100
AcDbLine
 62
7
  6
CONTINUOUS
 10
173.2579812773
 20
98.8488952422
 11
174.2579831847
 21
99.6148525977
  0
LINE
  5
37C
100
AcDbEntity
  8
0
100
AcDbLine
 62
7
  6
CONTINUOUS
 10
174.0079812773
 20
100.8914481902
 11
172.7579831847
 21
100.1254908347
  0
LINE
  5
37D
100
AcDbEntity
  8
0
100
AcDbLine
 62
7
  6
CONTINUOUS
 10
173.2579812773
 20
95.2744268679
 11
172.7579831847
 21
95.0191077494
  0
LINE
  5
37E
100
AcDbEntity
  8
0
100
AcDbLine
 62
7
  6
CONTINUOUS
 10
173.2579812773
 20
93.9978312754
 11
174.2579831847
 21
94.5084695124
  0
LINE
  5
37F
100
AcDbEntity
  8
0
100
AcDbLine
 62
7
  6
CONTINUOUS
 10
178.257982231
 20
95.2744268679
 11
178.7579831847
 21
95.5297459864
  0
LWPOLYLINE
  5
380
100
AcDbEntity
  8
RUNDUNGEN
100
AcDbPolyline
 62
7
  6
CONTINUOUS
 90
10
 70
0
 10
99.6090737836
 20
38.7714202725
 10
100.7387735648
 20
37.4509951475
 10
101.9526618726
 20
36.0490615697
 10
103.2485687816
 20
34.5777480289
 10
104.626836832
 20
33.0470853472
 10
106.0866540884
 20
31.4689856847
 10
107.6260883791
 20
29.8564443244
 10
109.2430344257
 20
28.2220303447
 10
110.9324970768
 20
26.5803159607
 10
112.5702821588
 20
25.0533935906
  0
LINE
  5
381
100
AcDbEntity
  8
RUNDUNGEN
100
AcDbLine
 62
7
  6
CONTINUOUS
 10
96.6463108086
 20
42.2589488889
 11
99.6090737836
 21
38.7714202725
  0
LINE
  5
382
100
AcDbEntity
  8
0
100
AcDbLine
 62
7
  6
CONTINUOUS
 10
120.3419175221
 20
50.6467673087
 11
120.3419175221
 21
50.1467673087
  0
LINE
  5
383
100
AcDbEntity
  8
0
100
AcDbLine
 62
7
  6
CONTINUOUS
 10
120.9405772589
 20
50.6467673087
 11
120.9405772589
 21
50.1467673087
  0
LINE
  5
384
100
AcDbEntity
  8
0
100
AcDbLine
 62
7
  6
CONTINUOUS
 10
121.413861501
 20
50.6467673087
 11
121.413861501
 21
50.1467673087
  0
LINE
  5
385
100
AcDbEntity
  8
0
100
AcDbLine
 62
7
  6
CONTINUOUS
 10
122.3040147427
 20
50.6467673087
 11
122.3040147427
 21
50.1467673087
  0
LINE
  5
386
100
AcDbEntity
  8
0
100
AcDbLine
 62
7
  6
CONTINUOUS
 10
123.4950627653
 20
50.6467673087
 11
123.4950627653
 21
50.1467673087
  0
LINE
  5
387
100
AcDbEntity
  8
0
100
AcDbLine
 62
7
  6
CONTINUOUS
 10
124.391484297
 20
50.6467673087
 11
124.391484297
 21
50.1467673087
  0
LINE
  5
388
100
AcDbEntity
  8
0
100
AcDbLine
 62
7
  6
CONTINUOUS
 10
125.1437254639
 20
50.6467673087
 11
125.1437254639
 21
50.1467673087
  0
LINE
  5
389
100
AcDbEntity
  8
0
100
AcDbLine
 62
7
  6
CONTINUOUS
 10
125.4508901153
 20
50.6467673087
 11
125.4508901153
 21
50.1467673087
  0
LINE
  5
38A
100
AcDbEntity
  8
0
100
AcDbLine
 62
7
  6
CONTINUOUS
 10
125.4634280125
 20
50.6467673087
 11
125.4634280125
 21
50.1467673087
  0
LINE
  5
38B
100
AcDbEntity
  8
0
100
AcDbLine
 62
7
  6
CONTINUOUS
 10
165.2579817542
 20
101.1467673087
 11
159.2579817542
 21
94.2531503939
  0
LINE
  5
38C
100
AcDbEntity
  8
0
100
AcDbLine
 62
7
  6
CONTINUOUS
 10
161.007982231
 20
94.2531503939
 11
165.2579817542
 21
99.1042143607
  0
LINE
  5
38D
100
AcDbEntity
  8
0
100
AcDbLine
 62
7
  6
CONTINUOUS
 10
172.7579831847
 20
100.1254908347
 11
172.0079831847
 21
99.3595334792
  0
LINE
  5
38E
100
AcDbEntity
  8
0
100
AcDbLine
 62
7
  6
CONTINUOUS
 10
172.7579831847
 20
95.0191077494
 11
171.7579812773
 21
94.2531503939
  0
LINE
  5
38F
100
AcDbEntity
  8
0
100
AcDbLine
 62
7
  6
CONTINUOUS
 10
178.257982231
 20
96.8063415789
 11
177.2579831847
 21
96.0403842234
  0
LINE
  5
390
100
AcDbEntity
  8
0
100
AcDbLine
 62
7
  6
CONTINUOUS
 10
177.7579812773
 20
89.4020864495
 11
179.007982231
 21
90.1680438721
  0
LINE
  5
391
100
AcDbEntity
  8
0
100
AcDbLine
 62
7
  6
CONTINUOUS
 10
178.257982231
 20
91.1893204355
 11
177.2579831847
 21
90.6786821985
  0
LWPOLYLINE
  5
392
100
AcDbEntity
  8
RUNDUNGEN
100
AcDbPolyline
 62
7
  6
CONTINUOUS
 90
39
 70
0
 10
112.5702851823
 20
25.0533886365
 10
114.6072864177
 20
23.2630710814
 10
116.8324091777
 20
21.4551218989
 10
119.1316317806
 20
19.7337694134
 10
121.5015353259
 20
18.1015454983
 10
123.9388016074
 20
16.5608071603
 10
126.4393915439
 20
15.1145121092
 10
128.999184255
 20
13.7654495616
 10
131.6138600271
 20
12.5157410183
 10
134.2790508978
 20
11.367383247
 10
136.9907490659
 20
10.3223613421
 10
139.744693036
 20
9.3826098116
 10
142.5364268202
 20
8.549514275
 10
145.3614328257
 20
7.8243904826
 10
148.215724074
 20
7.2084872453
 10
151.0954407311
 20
6.7029449936
 10
153.9951967022
 20
6.3087460464
 10
156.9099110158
 20
6.0266576181
 10
159.8347395796
 20
5.8572637332
 10
162.7648378153
 20
5.8009499914
 10
165.6949193877
 20
5.8577929152
 10
168.6196987624
 20
6.0277139406
 10
171.5343400209
 20
6.3103259788
 10
174.4340012649
 20
6.7050444111
 10
177.3136009481
 20
7.2111016728
 10
180.1677587122
 20
7.8275152431
 10
182.9926175028
 20
8.5531442935
 10
185.7841896887
 20
9.3867407013
 10
188.5379558866
 20
10.326989219
 10
191.249463277
 20
11.3725042463
 10
193.9144487292
 20
12.5213491083
 10
196.5289020231
 20
13.7715387154
 10
199.0884517467
 20
15.1210754712
 10
201.5887765247
 20
16.5678344398
 10
204.0257528983
 20
18.1090214322
 10
206.3953400054
 20
19.7416768695
 10
208.6942218764
 20
21.4634442781
 10
210.9189764918
 20
23.2717856954
 10
212.9456792602
 20
25.053388623
  0
LINE
  5
393
100
AcDbEntity
  8
0
100
AcDbLine
 62
7
  6
CONTINUOUS
 10
155.007982231
 20
101.1467673087
 11
151.257982231
 21
90.42336308
  0
LINE
  5
394
100
AcDbEntity
  8
0
100
AcDbLine
 62
7
  6
CONTINUOUS
 10
152.2579819926
 20
89.1467673087
 11
155.757982231
 21
98.5935761237
  0
LINE
  5
395
100
AcDbEntity
  8
0
100
AcDbLine
 62
7
  6
CONTINUOUS
 10
172.7579831847
 20
98.0829371714
 11
173.2579812773
 21
98.8488952422
  0
LINE
  5
396
100
AcDbEntity
  8
0
100
AcDbLine
 62
7
  6
CONTINUOUS
 10
172.5079812773
 20
92.9765544438
 11
173.2579812773
 21
93.9978312754
  0
LINE
  5
397
100
AcDbEntity
  8
0
100
AcDbLine
 62
7
  6
CONTINUOUS
 10
178.7579831847
 20
95.5297459864
 11
179.5079831847
 21
96.2957033419
  0
LINE
  5
398
100
AcDbEntity
  8
0
100
AcDbLine
 62
7
  6
CONTINUOUS
 10
179.007982231
 20
90.1680438721
 11
179.757982231
 21
90.934001317
  0
LINE
  5
399
100
AcDbEntity
  8
0
100
AcDbLine
 62
7
  6
CONTINUOUS
 10
145.257982231
 20
101.1467673087
 11
145.257982231
 21
89.1467673087
  0
LINE
  5
39A
100
AcDbEntity
  8
0
100
AcDbLine
 62
7
  6
CONTINUOUS
 10
146.757982231
 20
89.1467673087
 11
146.757982231
 21
98.5935761237
  0
LINE
  5
39B
100
AcDbEntity
  8
0
100
AcDbLine
 62
7
  6
CONTINUOUS
 10
149.2163142928
 20
50.6467673087
 11
149.2163142928
 21
50.1467673087
  0
LINE
  5
39C
100
AcDbEntity
  8
0
100
AcDbLine
 62
7
  6
CONTINUOUS
 10
172.0079831847
 20
99.3595334792
 11
171.507982231
 21
98.0829371714
  0
LINE
  5
39D
100
AcDbEntity
  8
0
100
AcDbLine
 62
7
  6
CONTINUOUS
 10
171.7579812773
 20
94.2531503939
 11
171.2579831847
 21
92.9765544438
  0
LINE
  5
39E
100
AcDbEntity
  8
0
100
AcDbLine
 62
7
  6
CONTINUOUS
 10
179.5079831847
 20
96.2957033419
 11
180.0079812773
 21
97.3169798159
  0
LINE
  5
39F
100
AcDbEntity
  8
0
100
AcDbLine
 62
7
  6
CONTINUOUS
 10
178.7579831847
 20
97.5722989344
 11
178.257982231
 21
96.8063415789
  0
LINE
  5
3A0
100
AcDbEntity
  8
0
100
AcDbLine
 62
7
  6
CONTINUOUS
 10
179.007982231
 20
92.2105970883
 11
178.257982231
 21
91.1893204355
  0
LINE
  5
3A1
100
AcDbEntity
  8
0
100
AcDbLine
 62
7
  6
CONTINUOUS
 10
154.2163142928
 20
50.6467673087
 11
154.2163142928
 21
50.1467673087
  0
LINE
  5
3A2
100
AcDbEntity
  8
0
100
AcDbLine
 62
7
  6
CONTINUOUS
 10
155.2579811581
 20
50.6467673087
 11
155.2579811581
 21
50.1467673087
  0
LINE
  5
3A3
100
AcDbEntity
  8
0
100
AcDbLine
 62
7
  6
CONTINUOUS
 10
155.757982231
 20
98.5935761237
 11
155.757982231
 21
89.1467673087
  0
LINE
  5
3A4
100
AcDbEntity
  8
0
100
AcDbLine
 62
7
  6
CONTINUOUS
 10
156.0913142928
 20
50.6467673087
 11
156.0913142928
 21
50.1467673087
  0
LINE
  5
3A5
100
AcDbEntity
  8
0
100
AcDbLine
 62
7
  6
CONTINUOUS
 10
156.7163142928
 20
50.6467673087
 11
156.7163142928
 21
50.1467673087
  0
LINE
  5
3A6
100
AcDbEntity
  8
0
100
AcDbLine
 62
7
  6
CONTINUOUS
 10
156.9246474274
 20
50.6467673087
 11
156.9246474274
 21
50.1467673087
  0
LINE
  5
3A7
100
AcDbEntity
  8
0
100
AcDbLine
 62
7
  6
CONTINUOUS
 10
157.1329811581
 20
50.6467673087
 11
157.1329811581
 21
50.1467673087
  0
LINE
  5
3A8
100
AcDbEntity
  8
0
100
AcDbLine
 62
7
  6
CONTINUOUS
 10
157.257982231
 20
89.1467673087
 11
157.257982231
 21
101.1467673087
  0
LINE
  5
3A9
100
AcDbEntity
  8
0
100
AcDbLine
 62
7
  6
CONTINUOUS
 10
158.7996474274
 20
50.6467673087
 11
158.7996474274
 21
50.1467673087
  0
LINE
  5
3AA
100
AcDbEntity
  8
0
100
AcDbLine
 62
7
  6
CONTINUOUS
 10
159.2579817542
 20
94.2531503939
 11
159.2579817542
 21
92.7212353253
  0
LINE
  5
3AB
100
AcDbEntity
  8
0
100
AcDbLine
 62
7
  6
CONTINUOUS
 10
160.0496480235
 20
50.6467673087
 11
160.0496480235
 21
50.1467673087
  0
LINE
  5
3AC
100
AcDbEntity
  8
0
100
AcDbLine
 62
7
  6
CONTINUOUS
 10
160.2579805621
 20
50.6467673087
 11
160.2579805621
 21
50.1467673087
  0
LINE
  5
3AD
100
AcDbEntity
  8
0
100
AcDbLine
 62
7
  6
CONTINUOUS
 10
160.6746480235
 20
50.6467673087
 11
160.6746480235
 21
50.1467673087
  0
LINE
  5
3AE
100
AcDbEntity
  8
0
100
AcDbLine
 62
7
  6
CONTINUOUS
 10
161.2996480235
 20
50.6467673087
 11
161.2996480235
 21
50.1467673087
  0
LINE
  5
3AF
100
AcDbEntity
  8
0
100
AcDbLine
 62
7
  6
CONTINUOUS
 10
162.1329805621
 20
50.6467673087
 11
162.1329805621
 21
50.1467673087
  0
LINE
  5
3B0
100
AcDbEntity
  8
0
100
AcDbLine
 62
7
  6
CONTINUOUS
 10
162.9663142928
 20
50.6467673087
 11
162.9663142928
 21
50.1467673087
  0
LINE
  5
3B1
100
AcDbEntity
  8
0
100
AcDbLine
 62
7
  6
CONTINUOUS
 10
163.7996480235
 20
50.6467673087
 11
163.7996480235
 21
50.1467673087
  0
LINE
  5
3B2
100
AcDbEntity
  8
0
100
AcDbLine
 62
7
  6
CONTINUOUS
 10
179.757982231
 20
90.934001317
 11
180.2579831847
 21
92.2105970883
  0
LINE
  5
3B3
100
AcDbEntity
  8
0
100
AcDbLine
 62
7
  6
CONTINUOUS
 10
164.4246480235
 20
50.6467673087
 11
164.4246480235
 21
50.1467673087
  0
LINE
  5
3B4
100
AcDbEntity
  8
0
100
AcDbLine
 62
7
  6
CONTINUOUS
 10
164.8413142928
 20
50.6467673087
 11
164.8413142928
 21
50.1467673087
  0
LINE
  5
3B5
100
AcDbEntity
  8
0
100
AcDbLine
 62
7
  6
CONTINUOUS
 10
165.0496480235
 20
50.6467673087
 11
165.0496480235
 21
50.1467673087
  0
LINE
  5
3B6
100
AcDbEntity
  8
0
100
AcDbLine
 62
7
  6
CONTINUOUS
 10
165.2579817542
 20
99.1042143607
 11
165.2579817542
 21
94.2531503939
  0
LINE
  5
3B7
100
AcDbEntity
  8
0
100
AcDbLine
 62
7
  6
CONTINUOUS
 10
165.2579817542
 20
92.7212353253
 11
165.2579817542
 21
89.1467673087
  0
LINE
  5
3B8
100
AcDbEntity
  8
0
100
AcDbLine
 62
7
  6
CONTINUOUS
 10
166.2996480235
 20
50.6467673087
 11
166.2996480235
 21
50.1467673087
  0
LINE
  5
3B9
100
AcDbEntity
  8
0
100
AcDbLine
 62
7
  6
CONTINUOUS
 10
166.7579817542
 20
89.1467673087
 11
166.7579817542
 21
92.7212353253
  0
LINE
  5
3BA
100
AcDbEntity
  8
0
100
AcDbLine
 62
7
  6
CONTINUOUS
 10
166.7579817542
 20
94.2531503939
 11
166.7579817542
 21
101.1467673087
  0
LINE
  5
3BB
100
AcDbEntity
  8
0
100
AcDbLine
 62
7
  6
CONTINUOUS
 10
167.9663142928
 20
50.6467673087
 11
167.9663142928
 21
50.1467673087
  0
LINE
  5
3BC
100
AcDbEntity
  8
0
100
AcDbLine
 62
7
  6
CONTINUOUS
 10
169.257982231
 20
92.7212353253
 11
169.257982231
 21
94.2531503939
  0
LINE
  5
3BD
100
AcDbEntity
  8
0
100
AcDbLine
 62
7
  6
CONTINUOUS
 10
171.2579831847
 20
92.9765544438
 11
171.2579831847
 21
92.2105970883
  0
LINE
  5
3BE
100
AcDbEntity
  8
0
100
AcDbLine
 62
7
  6
CONTINUOUS
 10
171.507982231
 20
98.0829371714
 11
171.507982231
 21
97.3169798159
  0
LINE
  5
3BF
100
AcDbEntity
  8
0
100
AcDbLine
 62
7
  6
CONTINUOUS
 10
172.5079812773
 20
92.2105970883
 11
172.5079812773
 21
92.9765544438
  0
LINE
  5
3C0
100
AcDbEntity
  8
0
100
AcDbLine
 62
7
  6
CONTINUOUS
 10
172.7579831847
 20
97.5722989344
 11
172.7579831847
 21
98.0829371714
  0
LINE
  5
3C1
100
AcDbEntity
  8
0
100
AcDbLine
 62
7
  6
CONTINUOUS
 10
172.9663142928
 20
50.6467673087
 11
172.9663142928
 21
50.1467673087
  0
LINE
  5
3C2
100
AcDbEntity
  8
0
100
AcDbLine
 62
7
  6
CONTINUOUS
 10
174.0079817542
 20
50.6467673087
 11
174.0079817542
 21
50.1467673087
  0
LINE
  5
3C3
100
AcDbEntity
  8
0
100
AcDbLine
 62
7
  6
CONTINUOUS
 10
174.8413142928
 20
50.6467673087
 11
174.8413142928
 21
50.1467673087
  0
LWPOLYLINE
  5
3C4
100
AcDbEntity
  8
RUNDUNGEN
100
AcDbPolyline
 62
7
  6
CONTINUOUS
 90
20
 70
0
 10
87.639430001
 20
50.6467673087
 10
87.6666086801
 20
50.6422085836
 10
87.7639278767
 20
50.6173689428
 10
87.9223021378
 20
50.5631206744
 10
88.1382542576
 20
50.4713876563
 10
88.4053487786
 20
50.3372609939
 10
88.7177183305
 20
50.1576994105
 10
89.0725897038
 20
49.9294111001
 10
89.4668460126
 20
49.6502865385
 10
89.9010706823
 20
49.31628089
 10
90.3759239601
 20
48.9234676842
 10
90.8934557944
 20
48.4669406837
 10
91.4580706426
 20
47.939666442
 10
92.0678482475
 20
47.3408428621
 10
92.7236452652
 20
46.6679815434
 10
93.4233533964
 20
45.922624676
 10
94.1654182766
 20
45.1070139608
 10
94.9499255896
 20
44.2226796561
 10
95.7745452033
 20
43.2748896368
 10
96.6463108086
 20
42.2589488889
  0
LINE
  5
3C5
100
AcDbEntity
  8
0
100
AcDbLine
 62
7
  6
CONTINUOUS
 10
146.757982231
 20
98.5935761237
 11
150.2579821118
 21
89.1467673087
  0
LINE
  5
3C6
100
AcDbEntity
  8
0
100
AcDbLine
 62
7
  6
CONTINUOUS
 10
151.257982231
 20
90.42336308
 11
147.507982231
 21
101.1467673087
  0
LINE
  5
3C7
100
AcDbEntity
  8
0
100
AcDbLine
 62
7
  6
CONTINUOUS
 10
175.6746468314
 20
50.6467673087
 11
175.6746468314
 21
50.1467673087
  0
LINE
  5
3C8
100
AcDbEntity
  8
0
100
AcDbLine
 62
7
  6
CONTINUOUS
 10
176.0913142928
 20
50.6467673087
 11
176.0913142928
 21
50.1467673087
  0
LINE
  5
3C9
100
AcDbEntity
  8
0
100
AcDbLine
 62
7
  6
CONTINUOUS
 10
176.2996468314
 20
50.6467673087
 11
176.2996468314
 21
50.1467673087
  0
LINE
  5
3CA
100
AcDbEntity
  8
0
100
AcDbLine
 62
7
  6
CONTINUOUS
 10
178.7579831847
 20
98.0829371714
 11
178.7579831847
 21
97.5722989344
  0
LINE
  5
3CB
100
AcDbEntity
  8
0
100
AcDbLine
 62
7
  6
CONTINUOUS
 10
179.007982231
 20
92.9765544438
 11
179.007982231
 21
92.2105970883
  0
LINE
  5
3CC
100
AcDbEntity
  8
0
100
AcDbLine
 62
7
  6
CONTINUOUS
 10
180.0079812773
 20
97.3169798159
 11
180.0079812773
 21
98.0829371714
  0
LINE
  5
3CD
100
AcDbEntity
  8
0
100
AcDbLine
 62
7
  6
CONTINUOUS
 10
180.2579831847
 20
92.2105970883
 11
180.2579831847
 21
92.9765544438
  0
LINE
  5
3CE
100
AcDbEntity
  8
0
100
AcDbLine
 62
7
  6
CONTINUOUS
 10
220.1393474415
 20
50.1467673087
 11
205.2580547401
 21
50.1467673087
  0
LINE
  5
3CF
100
AcDbEntity
  8
0
100
AcDbLine
 62
7
  6
CONTINUOUS
 10
176.2996468314
 20
50.1467673087
 11
167.9663142928
 21
50.1467673087
  0
LINE
  5
3D0
100
AcDbEntity
  8
0
100
AcDbLine
 62
7
  6
CONTINUOUS
 10
166.2996480235
 20
50.1467673087
 11
158.7996474274
 21
50.1467673087
  0
LINE
  5
3D1
100
AcDbEntity
  8
0
100
AcDbLine
 62
7
  6
CONTINUOUS
 10
157.1329811581
 20
50.1467673087
 11
149.2163142928
 21
50.1467673087
  0
LINE
  5
3D2
100
AcDbEntity
  8
0
100
AcDbLine
 62
7
  6
CONTINUOUS
 10
125.4634280125
 20
50.1467673087
 11
100.4294652981
 21
50.1467673087
  0
LINE
  5
3D3
100
AcDbEntity
  8
RUNDUNGEN
100
AcDbLine
 62
7
  6
CONTINUOUS
 10
80.5351083837
 20
50.6467673087
 11
244.9808583857
 21
50.6467673087
  0
LINE
  5
3D4
100
AcDbEntity
  8
0
100
AcDbLine
 62
7
  6
CONTINUOUS
 10
171.2579831847
 20
92.2105970883
 11
171.7579812773
 21
90.934001317
  0
LINE
  5
3D5
100
AcDbEntity
  8
0
100
AcDbLine
 62
7
  6
CONTINUOUS
 10
205.257982231
 20
50.6467673087
 11
205.257982231
 21
50.1467673087
  0
LWPOLYLINE
  5
3D6
100
AcDbEntity
  8
RUNDUNGEN
100
AcDbPolyline
 62
7
  6
CONTINUOUS
 90
21
 70
0
 10
227.952842184
 20
41.1814635348
 10
228.8763074713
 20
42.2667422864
 10
229.7477865202
 20
43.2822645331
 10
230.5721254653
 20
44.2296132324
 10
231.3563526901
 20
45.113481943
 10
232.0981402188
 20
45.928611689
 10
232.7975738305
 20
46.6734785315
 10
233.4530992495
 20
47.3458474837
 10
234.0626086138
 20
47.9441837332
 10
234.6269536295
 20
48.4709764199
 10
235.1442117603
 20
48.9270324119
 10
235.6187790821
 20
49.3193815956
 10
236.0526981703
 20
49.6529296438
 10
236.4466236118
 20
49.9316054547
 10
236.8011336959
 20
50.1594570767
 10
237.1131038743
 20
50.3385996196
 10
237.3797517722
 20
50.4723320652
 10
237.5952173671
 20
50.5637147596
 10
237.7530674694
 20
50.6176740312
 10
237.849858271
 20
50.6423101417
 10
237.8765249629
 20
50.6467673087
  0
LWPOLYLINE
  5
3D7
100
AcDbEntity
  8
RUNDUNGEN
100
AcDbPolyline
 62
7
  6
CONTINUOUS
 90
11
 70
0
 10
212.9456822351
 20
25.0533935333
 10
214.5938240399
 20
26.5901737745
 10
216.2830369288
 20
28.2320551728
 10
217.8996699506
 20
29.8665306179
 10
219.4387511442
 20
31.4790412243
 10
220.8981896168
 20
33.0570243437
 10
222.2760695885
 20
34.5874975557
 10
223.5715931272
 20
36.0585643049
 10
224.7851113879
 20
37.460206414
 10
225.9144669384
 20
38.780314205
 10
227.952842184
 20
41.1814635348
  0
LINE
  5
3D8
100
AcDbEntity
  8
0
100
AcDbLine
 62
7
  6
CONTINUOUS
 10
171.7579812773
 20
90.934001317
 11
172.5079812773
 21
90.1680438721
  0
LINE
  5
3D9
100
AcDbEntity
  8
0
100
AcDbLine
 62
7
  6
CONTINUOUS
 10
173.2579812773
 20
91.1893204355
 11
172.5079812773
 21
92.2105970883
  0
LINE
  5
3DA
100
AcDbEntity
  8
0
100
AcDbLine
 62
7
  6
CONTINUOUS
 10
173.2579812773
 20
96.8063415789
 11
172.7579831847
 21
97.5722989344
  0
LINE
  5
3DB
100
AcDbEntity
  8
0
100
AcDbLine
 62
7
  6
CONTINUOUS
 10
171.507982231
 20
97.3169798159
 11
172.0079831847
 21
96.2957033419
  0
LINE
  5
3DC
100
AcDbEntity
  8
0
100
AcDbLine
 62
7
  6
CONTINUOUS
 10
180.2579831847
 20
92.9765544438
 11
179.757982231
 21
94.2531503939
  0
LINE
  5
3DD
100
AcDbEntity
  8
0
100
AcDbLine
 62
7
  6
CONTINUOUS
 10
180.0079812773
 20
98.0829371714
 11
179.5079831847
 21
99.3595334792
  0
LINE
  5
3DE
100
AcDbEntity
  8
0
100
AcDbLine
 62
7
  6
CONTINUOUS
 10
214.1293474415
 20
50.6467673087
 11
214.1293474415
 21
50.1467673087
  0
LINE
  5
3DF
100
AcDbEntity
  8
0
100
AcDbLine
 62
7
  6
CONTINUOUS
 10
220.1393474415
 20
50.6467673087
 11
220.1393474415
 21
50.1467673087
  0
LINE
  5
3E0
100
AcDbEntity
  8
0
100
AcDbLine
 62
7
  6
CONTINUOUS
 10
177.2579831847
 20
90.6786821985
 11
176.2579812773
 21
90.42336308
  0
LINE
  5
3E1
100
AcDbEntity
  8
0
100
AcDbLine
 62
7
  6
CONTINUOUS
 10
174.2579831847
 20
94.5084695124
 11
175.257982231
 21
94.7637886309
  0
LINE
  5
3E2
100
AcDbEntity
  8
0
100
AcDbLine
 62
7
  6
CONTINUOUS
 10
177.2579831847
 20
96.0403842234
 11
176.2579812773
 21
95.7850651049
  0
LINE
  5
3E3
100
AcDbEntity
  8
0
100
AcDbLine
 62
7
  6
CONTINUOUS
 10
176.5079831847
 20
89.1467673087
 11
177.7579812773
 21
89.4020864495
  0
LINE
  5
3E4
100
AcDbEntity
  8
BEZUGSACHSEN
100
AcDbLine
 62
7
  6
CONTINUOUS
 10
80.5351083837
 20
88.6467673087
 11
244.9808583857
 21
88.6467673087
  0
LINE
  5
3E5
100
AcDbEntity
  8
0
100
AcDbLine
 62
7
  6
CONTINUOUS
 10
145.257982231
 20
89.1467673087
 11
146.757982231
 21
89.1467673087
  0
LINE
  5
3E6
100
AcDbEntity
  8
0
100
AcDbLine
 62
7
  6
CONTINUOUS
 10
150.2579821118
 20
89.1467673087
 11
152.2579819926
 21
89.1467673087
  0
LINE
  5
3E7
100
AcDbEntity
  8
0
100
AcDbLine
 62
7
  6
CONTINUOUS
 10
155.757982231
 20
89.1467673087
 11
157.257982231
 21
89.1467673087
  0
LINE
  5
3E8
100
AcDbEntity
  8
0
100
AcDbLine
 62
7
  6
CONTINUOUS
 10
165.2579817542
 20
89.1467673087
 11
166.7579817542
 21
89.1467673087
  0
LINE
  5
3E9
100
AcDbEntity
  8
0
100
AcDbLine
 62
7
  6
CONTINUOUS
 10
175.0079831847
 20
89.1467673087
 11
176.5079831847
 21
89.1467673087
  0
LINE
  5
3EA
100
AcDbEntity
  8
0
100
AcDbLine
 62
7
  6
CONTINUOUS
 10
176.2579812773
 20
90.42336308
 11
175.257982231
 21
90.42336308
  0
LINE
  5
3EB
100
AcDbEntity
  8
0
100
AcDbLine
 62
7
  6
CONTINUOUS
 10
173.757982231
 20
89.4020864495
 11
175.0079831847
 21
89.1467673087
  0
LINE
  5
3EC
100
AcDbEntity
  8
0
100
AcDbLine
 62
7
  6
CONTINUOUS
 10
175.257982231
 20
90.42336308
 11
174.2579831847
 21
90.6786821985
  0
LINE
  5
3ED
100
AcDbEntity
  8
0
100
AcDbLine
 62
7
  6
CONTINUOUS
 10
174.2579831847
 20
90.6786821985
 11
173.2579812773
 21
91.1893204355
  0
LINE
  5
3EE
100
AcDbEntity
  8
0
100
AcDbLine
 62
7
  6
CONTINUOUS
 10
172.5079812773
 20
90.1680438721
 11
173.757982231
 21
89.4020864495
  0
LINE
  5
3EF
100
AcDbEntity
  8
0
100
AcDbLine
 62
7
  6
CONTINUOUS
 10
174.2579831847
 20
96.0403842234
 11
173.2579812773
 21
96.8063415789
  0
LINE
  5
3F0
100
AcDbEntity
  8
0
100
AcDbLine
 62
7
  6
CONTINUOUS
 10
179.757982231
 20
94.2531503939
 11
178.7579831847
 21
95.0191077494
  0
LINE
  5
3F1
100
AcDbEntity
  8
0
100
AcDbLine
 62
7
  6
CONTINUOUS
 10
172.0079831847
 20
96.2957033419
 11
172.7579831847
 21
95.5297459864
  0
LINE
  5
3F2
100
AcDbEntity
  8
0
100
AcDbLine
 62
7
  6
CONTINUOUS
 10
179.5079831847
 20
99.3595334792
 11
178.7579831847
 21
100.1254908347
  0
LINE
  5
3F3
100
AcDbEntity
  8
0
100
AcDbLine
 62
7
  6
CONTINUOUS
 10
178.257982231
 20
93.9978312754
 11
179.007982231
 21
92.9765544438
  0
LINE
  5
3F4
100
AcDbEntity
  8
0
100
AcDbLine
 62
7
  6
CONTINUOUS
 10
178.257982231
 20
98.8488952422
 11
178.7579831847
 21
98.0829371714
  0
LINE
  5
3F5
100
AcDbEntity
  8
0
100
AcDbLine
 62
7
  6
CONTINUOUS
 10
174.2579831847
 20
99.6148525977
 11
175.257982231
 21
99.8701717162
  0
LINE
  5
3F6
100
AcDbEntity
  8
0
100
AcDbLine
 62
7
  6
CONTINUOUS
 10
175.257982231
 20
101.1467673087
 11
174.0079812773
 21
100.8914481902
  0
LINE
  5
3F7
100
AcDbEntity
  8
0
100
AcDbLine
 62
7
  6
CONTINUOUS
 10
159.2579817542
 20
92.7212353253
 11
165.2579817542
 21
92.7212353253
  0
LINE
  5
3F8
100
AcDbEntity
  8
0
100
AcDbLine
 62
7
  6
CONTINUOUS
 10
166.7579817542
 20
92.7212353253
 11
169.257982231
 21
92.7212353253
  0
LINE
  5
3F9
100
AcDbEntity
  8
0
100
AcDbLine
 62
7
  6
CONTINUOUS
 10
169.257982231
 20
94.2531503939
 11
166.7579817542
 21
94.2531503939
  0
LINE
  5
3FA
100
AcDbEntity
  8
0
100
AcDbLine
 62
7
  6
CONTINUOUS
 10
165.2579817542
 20
94.2531503939
 11
161.007982231
 21
94.2531503939
  0
LINE
  5
3FB
100
AcDbEntity
  8
0
100
AcDbLine
 62
7
  6
CONTINUOUS
 10
175.257982231
 20
94.7637886309
 11
176.2579812773
 21
94.7637886309
  0
LINE
  5
3FC
100
AcDbEntity
  8
0
100
AcDbLine
 62
7
  6
CONTINUOUS
 10
176.2579812773
 20
95.7850651049
 11
175.257982231
 21
95.7850651049
  0
LINE
  5
3FD
100
AcDbEntity
  8
0
100
AcDbLine
 62
7
  6
CONTINUOUS
 10
175.257982231
 20
99.8701717162
 11
176.2579812773
 21
99.8701717162
  0
LINE
  5
3FE
100
AcDbEntity
  8
0
100
AcDbLine
 62
7
  6
CONTINUOUS
 10
176.2579812773
 20
101.1467673087
 11
175.257982231
 21
101.1467673087
  0
LINE
  5
3FF
100
AcDbEntity
  8
0
100
AcDbLine
 62
7
  6
CONTINUOUS
 10
166.7579817542
 20
101.1467673087
 11
165.2579817542
 21
101.1467673087
  0
LINE
  5
400
100
AcDbEntity
  8
0
100
AcDbLine
 62
7
  6
CONTINUOUS
 10
157.257982231
 20
101.1467673087
 11
155.007982231
 21
101.1467673087
  0
LINE
  5
401
100
AcDbEntity
  8
0
100
AcDbLine
 62
7
  6
CONTINUOUS
 10
147.507982231
 20
101.1467673087
 11
145.257982231
 21
101.1467673087
  0
LWPOLYLINE
  5
402
100
AcDbEntity
  8
BEZUGSACHSEN
100
AcDbPolyline
 62
7
  6
CONTINUOUS
 90
20
 70
0
 10
237.8765248301
 20
88.6467673087
 10
237.8498386925
 20
88.6512284258
 10
237.753016026
 20
88.675875793
 10
237.5951309319
 20
88.7298528505
 10
237.379636842
 20
88.8212556825
 10
237.1129697452
 20
88.9550071195
 10
236.8009939037
 20
89.1341625928
 10
236.4464879617
 20
89.3620207464
 10
236.0525732527
 20
89.6406971764
 10
235.6186680705
 20
89.9742415887
 10
235.1441137106
 20
90.366585975
 10
234.6268647362
 20
90.8226388883
 10
234.0625185479
 20
91.3494371591
 10
233.4530040651
 20
91.9477827144
 10
232.7974715523
 20
92.620163065
 10
232.0980392034
 20
93.3650322957
 10
231.3562733489
 20
94.180141046
 10
230.5720910266
 20
95.063960613
 10
229.747840542
 20
96.0112075164
 10
228.8764562122
 20
97.0266181207
  0
LINE
  5
403
100
AcDbEntity
  8
0
100
AcDbLine
 62
7
  6
CONTINUOUS
 10
177.507982231
 20
100.8914481902
 11
176.2579812773
 21
101.1467673087
  0
LINE
  5
404
100
AcDbEntity
  8
0
100
AcDbLine
 62
7
  6
CONTINUOUS
 10
176.2579812773
 20
94.7637886309
 11
177.2579831847
 21
94.5084695124
  0
LINE
  5
405
100
AcDbEntity
  8
0
100
AcDbLine
 62
7
  6
CONTINUOUS
 10
175.257982231
 20
95.7850651049
 11
174.2579831847
 21
96.0403842234
  0
LINE
  5
406
100
AcDbEntity
  8
0
100
AcDbLine
 62
7
  6
CONTINUOUS
 10
176.2579812773
 20
99.8701717162
 11
177.2579831847
 21
99.6148525977
  0
LINE
  5
407
100
AcDbEntity
  8
0
100
AcDbLine
 62
7
  6
CONTINUOUS
 10
172.7579831847
 20
95.5297459864
 11
173.2579812773
 21
95.2744268679
  0
LINE
  5
408
100
AcDbEntity
  8
0
100
AcDbLine
 62
7
  6
CONTINUOUS
 10
177.2579831847
 20
94.5084695124
 11
178.257982231
 21
93.9978312754
  0
LINE
  5
409
100
AcDbEntity
  8
0
100
AcDbLine
 62
7
  6
CONTINUOUS
 10
178.7579831847
 20
95.0191077494
 11
178.257982231
 21
95.2744268679
  0
LINE
  5
40A
100
AcDbEntity
  8
0
100
AcDbLine
 62
7
  6
CONTINUOUS
 10
178.7579831847
 20
100.1254908347
 11
177.507982231
 21
100.8914481902
  0
LINE
  5
40B
100
AcDbEntity
  8
0
100
AcDbLine
 62
7
  6
CONTINUOUS
 10
177.2579831847
 20
99.6148525977
 11
178.257982231
 21
98.8488952422
  0
LWPOLYLINE
  5
40C
100
AcDbEntity
  8
BEZUGSACHSEN
100
AcDbPolyline
 62
7
  6
CONTINUOUS
 90
7
 70
0
 10
252.4467869076
 20
69.6467673143
 10
252.4346334956
 20
71.624507592
 10
252.3941481905
 20
73.764988186
 10
252.3248283005
 20
75.9179380746
 10
252.2263551793
 20
78.0809393185
 10
252.0985032563
 20
80.2515666369
 10
251.959900616
 20
82.1880344825
  0
LWPOLYLINE
  5
40D
100
AcDbEntity
  8
RUNDUNGEN
100
AcDbPolyline
 62
7
  6
CONTINUOUS
 90
7
 70
0
 10
251.959900616
 20
57.1055001349
 10
252.0985032563
 20
59.0419679804
 10
252.2263551793
 20
61.2125952989
 10
252.3248283005
 20
63.3755965428
 10
252.3941481905
 20
65.5285464313
 10
252.4346334956
 20
67.6690270254
 10
252.4467869076
 20
69.6467673143
  0
LWPOLYLINE
  5
40E
100
AcDbEntity
  8
BEZUGSACHSEN
100
AcDbPolyline
 62
7
  6
CONTINUOUS
 90
10
 70
0
 10
225.9146115764
 20
100.5130506149
 10
224.7850394201
 20
101.8334119031
 10
223.5711440229
 20
103.2354851114
 10
222.2751798345
 20
104.70703722
 10
220.8968689131
 20
106.2379589121
 10
219.4370934779
 20
107.8162590862
 10
217.8978676044
 20
109.4288603426
 10
216.2813846163
 20
111.0631185208
 10
214.592773991
 20
112.7043604118
 10
212.9456822149
 20
114.2401411025
  0
LINE
  5
40F
100
AcDbEntity
  8
BEZUGSACHSEN
100
AcDbLine
 62
7
  6
CONTINUOUS
 10
228.8764562122
 20
97.0266181207
 11
225.9146115764
 21
100.5130506149
  0
LWPOLYLINE
  5
410
100
AcDbEntity
  8
BEZUGSACHSEN
100
AcDbPolyline
 62
7
  6
CONTINUOUS
 90
39
 70
0
 10
212.9456792602
 20
114.2401459944
 10
210.9189764918
 20
116.0217489219
 10
208.6942218764
 20
117.8300903393
 10
206.3953400054
 20
119.5518577479
 10
204.0257528983
 20
121.1845131852
 10
201.5887765247
 20
122.7257001776
 10
199.0884517467
 20
124.1724591462
 10
196.5289020231
 20
125.521995902
 10
193.9144487292
 20
126.7721855091
 10
191.249463277
 20
127.9210303711
 10
188.5379558866
 20
128.9665453984
 10
185.7841896887
 20
129.9067939161
 10
182.9926175028
 20
130.7403903239
 10
180.1677587122
 20
131.4660193743
 10
177.3136009481
 20
132.0824329446
 10
174.4340012649
 20
132.5884902063
 10
171.5343400209
 20
132.9832086385
 10
168.6196987624
 20
133.2658206768
 10
165.6949193877
 20
133.4357417022
 10
162.7648378153
 20
133.492584626
 10
159.8347395796
 20
133.4362708842
 10
156.9099110158
 20
133.2668769993
 10
153.9951967022
 20
132.984788571
 10
151.0954407311
 20
132.5905896238
 10
148.215724074
 20
132.0850473721
 10
145.3614328257
 20
131.4691441348
 10
142.5364268202
 20
130.7440203424
 10
139.744693036
 20
129.9109248057
 10
136.9907490659
 20
128.9711732753
 10
134.2790508978
 20
127.9261513704
 10
131.6138600271
 20
126.7777935991
 10
128.999184255
 20
125.5280850557
 10
126.4393915439
 20
124.1790225082
 10
123.9388016074
 20
122.7327274571
 10
121.5015353259
 20
121.1919891191
 10
119.1316317806
 20
119.5597652039
 10
116.8324091777
 20
117.8384127185
 10
114.6072864177
 20
116.0304635359
 10
112.5702851823
 20
114.2401459809
  0
ARC
  5
411
100
AcDbEntity
  8
0
100
AcDbCircle
 62
7
  6
CONTINUOUS
 10
162.757982231
 20
320.4647274368
 40
50.0
100
AcDbArc
 50
333.9572550679
 51
336.4217857297
  0
ARC
  5
412
100
AcDbEntity
  8
0
100
AcDbCircle
 62
7
  6
CONTINUOUS
 10
162.757982231
 20
320.4647274368
 40
50.0
100
AcDbArc
 50
203.5782282515
 51
206.0427453134
  0
ARC
  5
413
100
AcDbEntity
  8
RUNDUNGEN
100
AcDbCircle
 62
7
  6
CONTINUOUS
 10
162.757982231
 20
314.4647274368
 40
48.0
100
AcDbArc
 50
344.7425467083
 51
195.2574706121
  0
ARC
  5
414
100
AcDbEntity
  8
BEZUGSACHSEN
100
AcDbCircle
 62
7
  6
CONTINUOUS
 10
93.757982231
 20
224.4647274368
 40
19.0
100
AcDbArc
 50
0.0200158278
 51
61.4572637543
  0
ARC
  5
415
100
AcDbEntity
  8
BEZUGSACHSEN
100
AcDbCircle
 62
7
  6
CONTINUOUS
 10
231.757982231
 20
224.4647274368
 40
19.0
100
AcDbArc
 50
118.5427362457
 51
179.9799841809
  0
ARC
  5
416
100
AcDbEntity
  8
RUNDUNGEN
100
AcDbCircle
 62
7
  6
CONTINUOUS
 10
126.0973766714
 20
304.4647274368
 40
10.0
100
AcDbArc
 50
195.2572704343
 51
203.5784273449
  0
ARC
  5
417
100
AcDbEntity
  8
RUNDUNGEN
100
AcDbCircle
 62
7
  6
CONTINUOUS
 10
199.4185877907
 20
304.4647274368
 40
10.0
100
AcDbArc
 50
336.4216425615
 51
344.7428127035
  0
ARC
  5
418
100
AcDbEntity
  8
BEZUGSACHSEN
100
AcDbCircle
 62
7
  6
CONTINUOUS
 10
244.4467870146
 20
314.5300502958
 40
8.0
100
AcDbArc
 50
337.4765769117
 51
22.4999906671
  0
ARC
  5
419
100
AcDbEntity
  8
RUNDUNGEN
100
AcDbCircle
 62
7
  6
CONTINUOUS
 10
219.5702215314
 20
374.5873920705
 40
8.0
100
AcDbArc
 50
22.5
 51
69.0
  0
ARC
  5
41A
100
AcDbEntity
  8
RUNDUNGEN
100
AcDbCircle
 62
7
  6
CONTINUOUS
 10
162.757982231
 20
396.3955674877
 40
8.0
100
AcDbArc
 50
69.0
 51
111.0
  0
ARC
  5
41B
100
AcDbEntity
  8
RUNDUNGEN
100
AcDbCircle
 62
7
  6
CONTINUOUS
 10
105.9457429306
 20
374.5873920705
 40
8.0
100
AcDbArc
 50
111.0
 51
157.5
  0
ARC
  5
41C
100
AcDbEntity
  8
BEZUGSACHSEN
100
AcDbCircle
 62
7
  6
CONTINUOUS
 10
81.0691777512
 20
314.5300510291
 40
8.0
100
AcDbArc
 50
157.5000150175
 51
202.5234271063
  0
ARC
  5
41D
100
AcDbEntity
  8
0
100
AcDbCircle
 62
7
  6
CONTINUOUS
 10
216.267982231
 20
362.0709971465
 40
5.0
100
AcDbArc
 50
39.2608295227
 51
230.7391704773
  0
ARC
  5
41E
100
AcDbEntity
  8
0
100
AcDbCircle
 62
7
  6
CONTINUOUS
 10
210.257982231
 20
368.0809971465
 40
5.0
100
AcDbArc
 50
39.2608295227
 51
230.7391704773
  0
ARC
  5
41F
100
AcDbEntity
  8
0
100
AcDbCircle
 62
7
  6
CONTINUOUS
 10
216.267982231
 20
362.0709971465
 40
3.5
100
AcDbArc
 50
147.3736251162
 51
233.2132107017
  0
ARC
  5
420
100
AcDbEntity
  8
0
100
AcDbCircle
 62
7
  6
CONTINUOUS
 10
216.267982231
 20
362.0709971465
 40
3.5
100
AcDbArc
 50
36.7867892983
 51
122.4447123387
  0
ARC
  5
421
100
AcDbEntity
  8
0
100
AcDbCircle
 62
7
  6
CONTINUOUS
 10
210.257982231
 20
368.0809971465
 40
3.5
100
AcDbArc
 50
36.7867892983
 51
233.2132107017
  0
ARC
  5
422
100
AcDbEntity
  8
0
100
AcDbCircle
 62
7
  6
CONTINUOUS
 10
-6204.7326265941
 20
3078.9190831374
 40
7231.3544001535
100
AcDbArc
 50
336.815336447
 51
336.9511596837
  0
ARC
  5
423
100
AcDbEntity
  8
0
100
AcDbCircle
 62
7
  6
CONTINUOUS
 10
-5839.9087632099
 20
2924.3124245998
 40
6834.6110449731
100
AcDbArc
 50
336.8008393704
 51
336.9185725626
  0
ARC
  5
424
100
AcDbEntity
  8
0
100
AcDbCircle
 62
7
  6
CONTINUOUS
 10
349.8465829052
 20
260.1157533091
 40
23.315734342
100
AcDbArc
 50
204.1936004417
 51
206.3912100674
  0
ARC
  5
425
100
AcDbEntity
  8
0
100
AcDbCircle
 62
7
  6
CONTINUOUS
 10
350.2231728767
 20
260.0478501871
 40
23.1376802773
100
AcDbArc
 50
204.2073573385
 51
206.4222903269
  0
ARC
  5
426
100
AcDbEntity
  8
0
100
AcDbCircle
 62
7
  6
CONTINUOUS
 10
350.8741881421
 20
247.4243637386
 40
19.9142294902
100
AcDbArc
 50
227.3673628334
 51
229.113806832
  0
ARC
  5
427
100
AcDbEntity
  8
0
100
AcDbCircle
 62
7
  6
CONTINUOUS
 10
347.0290683393
 20
249.4598408027
 40
18.0140653546
100
AcDbArc
 50
239.2029631169
 51
241.8150412038
  0
ARC
  5
428
100
AcDbEntity
  8
0
100
AcDbCircle
 62
7
  6
CONTINUOUS
 10
346.4693326878
 20
249.3435182136
 40
17.9134961374
100
AcDbArc
 50
239.0164671322
 51
241.6281778182
  0
ARC
  5
429
100
AcDbEntity
  8
BEZUGSACHSEN
100
AcDbCircle
 62
7
  6
CONTINUOUS
 10
333.5727790303
 20
258.0770301557
 40
7.0
100
AcDbArc
 50
105.0
 51
202.5000656579
  0
ARC
  5
42A
100
AcDbEntity
  8
0
100
AcDbCircle
 62
7
  6
CONTINUOUS
 10
332.6485844459
 20
249.9775092878
 40
3.5466766555
100
AcDbArc
 50
202.5036355331
 51
203.9248686955
  0
ARC
  5
42B
100
AcDbEntity
  8
0
100
AcDbCircle
 62
7
  6
CONTINUOUS
 10
330.9105995363
 20
251.7710709327
 40
2.6273562325
100
AcDbArc
 50
202.5714270395
 51
207.436604755
  0
ARC
  5
42C
100
AcDbEntity
  8
0
100
AcDbCircle
 62
7
  6
CONTINUOUS
 10
331.4335319054
 20
251.7635378084
 40
2.6075999919
100
AcDbArc
 50
202.572617043
 51
207.475477991
  0
ARC
  5
42D
100
AcDbEntity
  8
0
100
AcDbCircle
 62
7
  6
CONTINUOUS
 10
330.6623706444
 20
251.6656699716
 40
2.357685565
100
AcDbArc
 50
197.2955734083
 51
202.521644372
  0
ARC
  5
42E
100
AcDbEntity
  8
0
100
AcDbCircle
 62
7
  6
CONTINUOUS
 10
275.1089969423
 20
323.4074610416
 40
191.5515558765
100
AcDbArc
 50
336.334027573
 51
336.729496502
  0
ARC
  5
42F
100
AcDbEntity
  8
0
100
AcDbCircle
 62
7
  6
CONTINUOUS
 10
285.8089041163
 20
326.7993592718
 40
182.9509148374
100
AcDbArc
 50
333.9717599171
 51
334.393682729
  0
ARC
  5
430
100
AcDbEntity
  8
BEZUGSACHSEN
100
AcDbCircle
 62
7
  6
CONTINUOUS
 10
341.4186255741
 20
298.4845370762
 40
30.0
100
AcDbArc
 50
284.9998235005
 51
0.0000748429
  0
ARC
  5
431
100
AcDbEntity
  8
0
100
AcDbCircle
 62
7
  6
CONTINUOUS
 10
409.5588367171
 20
286.4513228088
 40
88.5600596937
100
AcDbArc
 50
204.4815888114
 51
205.6364798076
  0
ARC
  5
432
100
AcDbEntity
  8
0
100
AcDbCircle
 62
7
  6
CONTINUOUS
 10
409.43876578
 20
286.1771917909
 40
87.8442169954
100
AcDbArc
 50
204.4977256545
 51
205.6622272786
  0
ARC
  5
433
100
AcDbEntity
  8
0
100
AcDbCircle
 62
7
  6
CONTINUOUS
 10
386.7607845715
 20
268.4363601599
 40
67.3627359557
100
AcDbArc
 50
329.3334112592
 51
334.7599831345
  0
ARC
  5
434
100
AcDbEntity
  8
0
100
AcDbCircle
 62
7
  6
CONTINUOUS
 10
386.9411997986
 20
268.3517010803
 40
67.1634454944
100
AcDbArc
 50
334.7596807758
 51
337.4993130796
  0
ARC
  5
435
100
AcDbEntity
  8
0
100
AcDbCircle
 62
7
  6
CONTINUOUS
 10
393.763946729
 20
268.296713558
 40
67.0203534268
100
AcDbArc
 50
201.1707706245
 51
202.3179856136
  0
ARC
  5
436
100
AcDbEntity
  8
0
100
AcDbCircle
 62
7
  6
CONTINUOUS
 10
386.747522727
 20
268.2176712066
 40
66.7912907698
100
AcDbArc
 50
329.1683730737
 51
334.7359050824
  0
ARC
  5
437
100
AcDbEntity
  8
0
100
AcDbCircle
 62
7
  6
CONTINUOUS
 10
386.9576778058
 20
268.1202467878
 40
66.559657118
100
AcDbArc
 50
334.7345393484
 51
337.4996726795
  0
ARC
  5
438
100
AcDbEntity
  8
0
100
AcDbCircle
 62
7
  6
CONTINUOUS
 10
388.4015912346
 20
264.2743151556
 40
64.2538830638
100
AcDbArc
 50
331.8757681528
 51
337.4927611872
  0
ARC
  5
439
100
AcDbEntity
  8
0
100
AcDbCircle
 62
7
  6
CONTINUOUS
 10
392.4328395632
 20
264.2730061571
 40
64.2507764516
100
AcDbArc
 50
202.5071231855
 51
208.0639765283
  0
ARC
  5
43A
100
AcDbEntity
  8
0
100
AcDbCircle
 62
7
  6
CONTINUOUS
 10
392.0456082278
 20
264.1041216966
 40
63.8283915651
100
AcDbArc
 50
199.615159063
 51
202.5001310323
  0
ARC
  5
43B
100
AcDbEntity
  8
0
100
AcDbCircle
 62
7
  6
CONTINUOUS
 10
392.0751953605
 20
263.8922050976
 40
63.2746295478
100
AcDbArc
 50
199.5898323225
 51
202.5001311508
  0
ARC
  5
43C
100
AcDbEntity
  8
0
100
AcDbCircle
 62
7
  6
CONTINUOUS
 10
373.0497418259
 20
262.5316288413
 40
45.789137144
100
AcDbArc
 50
217.2833722665
 51
218.5659307281
  0
ARC
  5
43D
100
AcDbEntity
  8
0
100
AcDbCircle
 62
7
  6
CONTINUOUS
 10
373.3076457966
 20
262.4290948501
 40
45.490479516
100
AcDbArc
 50
217.4075503942
 51
218.7008110131
  0
ARC
  5
43E
100
AcDbEntity
  8
0
100
AcDbCircle
 62
7
  6
CONTINUOUS
 10
372.4423423357
 20
259.2549372648
 40
43.9340540616
100
AcDbArc
 50
215.7576046236
 51
217.0678392446
  0
ARC
  5
43F
100
AcDbEntity
  8
0
100
AcDbCircle
 62
7
  6
CONTINUOUS
 10
413.612069038
 20
268.4834524301
 40
42.5789918805
100
AcDbArc
 50
330.8305259135
 51
332.0691217431
  0
ARC
  5
440
100
AcDbEntity
  8
0
100
AcDbCircle
 62
7
  6
CONTINUOUS
 10
415.1695529108
 20
263.8806851027
 40
39.3729047131
100
AcDbArc
 50
335.7838226298
 51
336.8538492972
  0
ARC
  5
441
100
AcDbEntity
  8
0
100
AcDbCircle
 62
7
  6
CONTINUOUS
 10
365.6244283342
 20
263.861575906
 40
39.3256041542
100
AcDbArc
 50
202.9313917923
 51
204.2166447661
  0
ARC
  5
442
100
AcDbEntity
  8
0
100
AcDbCircle
 62
7
  6
CONTINUOUS
 10
428.9715717957
 20
263.6175349082
 40
26.0354524351
100
AcDbArc
 50
327.8210674258
 51
329.8999903355
  0
ARC
  5
443
100
AcDbEntity
  8
0
100
AcDbCircle
 62
7
  6
CONTINUOUS
 10
353.7005404144
 20
310.9625692635
 40
114.0798580474
100
AcDbArc
 50
326.5826337201
 51
328.2692335424
  0
ARC
  5
444
100
AcDbEntity
  8
0
100
AcDbCircle
 62
7
  6
CONTINUOUS
 10
354.0724212752
 20
310.5669459138
 40
113.0831317851
100
AcDbArc
 50
326.4895227959
 51
328.1926032963
  0
ARC
  5
445
100
AcDbEntity
  8
0
100
AcDbCircle
 62
7
  6
CONTINUOUS
 10
355.1002151312
 20
306.4411266598
 40
111.0430032648
100
AcDbArc
 50
326.3442474444
 51
328.0811197615
  0
ARC
  5
446
100
AcDbEntity
  8
0
100
AcDbCircle
 62
7
  6
CONTINUOUS
 10
372.2432204478
 20
291.1415705898
 40
89.4594205701
100
AcDbArc
 50
331.26632331
 51
332.4408874685
  0
ARC
  5
447
100
AcDbEntity
  8
0
100
AcDbCircle
 62
7
  6
CONTINUOUS
 10
372.36910096
 20
290.8634987132
 40
88.7366143309
100
AcDbArc
 50
331.2152008993
 51
332.3998429878
  0
ARC
  5
448
100
AcDbEntity
  8
0
100
AcDbCircle
 62
7
  6
CONTINUOUS
 10
120.8851056388
 20
376.3060926141
 40
354.2801736197
100
AcDbArc
 50
338.0875316518
 51
338.3691304481
  0
ARC
  5
449
100
AcDbEntity
  8
BEZUGSACHSEN
100
AcDbCircle
 62
7
  6
CONTINUOUS
 10
378.4186255741
 20
397.3955674877
 40
7.0
100
AcDbArc
 50
90.0
 51
180.0
  0
ARC
  5
44A
100
AcDbEntity
  8
RUNDUNGEN
100
AcDbCircle
 62
7
  6
CONTINUOUS
 10
402.4186255741
 20
397.3955674877
 40
7.0
100
AcDbArc
 50
0.0
 51
90.0
  0
ARC
  5
44B
100
AcDbEntity
  8
0
100
AcDbCircle
 62
7
  6
CONTINUOUS
 10
516.4072686723
 20
312.7018523804
 40
197.3239799102
100
AcDbArc
 50
200.3466757735
 51
200.7227133809
  0
ARC
  5
44C
100
AcDbEntity
  8
0
100
AcDbCircle
 62
7
  6
CONTINUOUS
 10
505.7282542058
 20
323.4074610416
 40
191.5515558765
100
AcDbArc
 50
203.270503498
 51
203.665972427
  0
ARC
  5
44D
100
AcDbEntity
  8
RUNDUNGEN
100
AcDbCircle
 62
7
  6
CONTINUOUS
 10
439.4186255741
 20
298.4845370762
 40
30.0
100
AcDbArc
 50
179.9999251571
 51
255.0001764995
  0
ARC
  5
44E
100
AcDbEntity
  8
0
100
AcDbCircle
 62
7
  6
CONTINUOUS
 10
429.3510196819
 20
263.6815719045
 40
26.2091426963
100
AcDbArc
 50
327.8945571021
 51
329.9582687769
  0
ARC
  5
44F
100
AcDbEntity
  8
RUNDUNGEN
100
AcDbCircle
 62
7
  6
CONTINUOUS
 10
447.2644721178
 20
258.0770301557
 40
7.0
100
AcDbArc
 50
337.4999343421
 51
75.0
  0
ARC
  5
450
100
AcDbEntity
  8
0
100
AcDbCircle
 62
7
  6
CONTINUOUS
 10
448.1886667022
 20
249.9775092878
 40
3.5466766555
100
AcDbArc
 50
336.0751313045
 51
337.4963644669
  0
ARC
  5
451
100
AcDbEntity
  8
0
100
AcDbCircle
 62
7
  6
CONTINUOUS
 10
448.341590914
 20
249.9150582467
 40
3.3814942831
100
AcDbArc
 50
337.4822195988
 51
340.8993218155
  0
ARC
  5
452
100
AcDbEntity
  8
0
100
AcDbCircle
 62
7
  6
CONTINUOUS
 10
448.5018221528
 20
249.8589630181
 40
3.2117286301
100
AcDbArc
 50
340.9095721776
 51
343.438000914
  0
ARC
  5
453
100
AcDbEntity
  8
0
100
AcDbCircle
 62
7
  6
CONTINUOUS
 10
450.1839285495
 20
251.6625277413
 40
2.3481240607
100
AcDbArc
 50
337.4646154442
 51
342.358333305
  0
ARC
  5
454
100
AcDbEntity
  8
0
100
AcDbCircle
 62
7
  6
CONTINUOUS
 10
737.4918951209
 20
435.1052034821
 40
448.1345058536
100
AcDbArc
 50
206.3773859694
 51
206.5505925118
  0
ARC
  5
455
100
AcDbEntity
  8
0
100
AcDbCircle
 62
7
  6
CONTINUOUS
 10
732.6161651415
 20
432.7553436332
 40
442.2259585859
100
AcDbArc
 50
206.4171918207
 51
206.592775146
  0
ARC
  5
456
100
AcDbEntity
  8
0
100
AcDbCircle
 62
7
  6
CONTINUOUS
 10
659.9521455093
 20
376.3060926141
 40
354.2801736197
100
AcDbArc
 50
201.6308695519
 51
201.9124683482
  0
ARC
  5
457
100
AcDbEntity
  8
0
100
AcDbCircle
 62
7
  6
CONTINUOUS
 10
558.0436150489
 20
349.0234991917
 40
249.5595191589
100
AcDbArc
 50
207.1358957293
 51
207.5538474936
  0
ARC
  5
458
100
AcDbEntity
  8
0
100
AcDbCircle
 62
7
  6
CONTINUOUS
 10
162.757982231
 20
69.6467673087
 40
45.25
100
AcDbArc
 50
205.5264386687
 51
335.1766777371
  0
ARC
  5
459
100
AcDbEntity
  8
0
100
AcDbCircle
 62
7
  6
CONTINUOUS
 10
162.757982231
 20
69.6467673087
 40
45.25
100
AcDbArc
 50
24.8233421723
 51
155.1766645782
  0
ARC
  5
45A
100
AcDbEntity
  8
RUNDUNGEN
100
AcDbCircle
 62
7
  6
CONTINUOUS
 10
162.757982231
 20
69.6467673087
 40
45.0
100
AcDbArc
 50
24.9821918972
 51
155.0178081017
  0
ARC
  5
45B
100
AcDbEntity
  8
RUNDUNGEN
100
AcDbCircle
 62
7
  6
CONTINUOUS
 10
162.757982231
 20
69.6467673087
 40
45.0
100
AcDbArc
 50
205.6797318527
 51
335.0178081017
  0
ARC
  5
45C
100
AcDbEntity
  8
BEZUGSACHSEN
100
AcDbCircle
 62
7
  6
CONTINUOUS
 10
80.5351083845
 20
81.6467673087
 40
7.0
100
AcDbArc
 50
90.0000000001
 51
175.5647578263
  0
ARC
  5
45D
100
AcDbEntity
  8
BEZUGSACHSEN
100
AcDbCircle
 62
7
  6
CONTINUOUS
 10
244.9808583849
 20
81.6467673087
 40
7.0
100
AcDbArc
 50
4.4349225654
 51
89.9999999999
  0
ARC
  5
45E
100
AcDbEntity
  8
RUNDUNGEN
100
AcDbCircle
 62
7
  6
CONTINUOUS
 10
80.5351083845
 20
57.6467673087
 40
7.0
100
AcDbArc
 50
184.4352421737
 51
269.9999999999
  0
ARC
  5
45F
100
AcDbEntity
  8
RUNDUNGEN
100
AcDbCircle
 62
7
  6
CONTINUOUS
 10
244.9808583849
 20
57.6467673087
 40
7.0
100
AcDbArc
 50
270.0000000001
 51
355.5650774346
  0
SPLINE
  5
460
100
AcDbEntity
  8
0
100
AcDbSpline
 62
7
  6
CONTINUOUS
 70
0
 71
3
 72
14
 73
10
 74
0
 42
0.0000001
 43
0.0000001
 44
0.0000000001
 40
0.0
 40
0.0
 40
0.0
 40
0.0
 40
0.1187530335
 40
0.2363767905
 40
0.3548455616
 40
0.4758102514
 40
0.6004146776
 40
0.7292682943
 40
1.0
 40
1.0
 40
1.0
 40
1.0
 10
198.4585070302
 20
277.2546369643
 30
0.0
 10
197.9896183021
 20
276.6535183144
 30
0.0
 10
196.9744685418
 20
275.5179234186
 30
0.0
 10
195.2289225803
 20
274.0434180285
 30
0.0
 10
193.2902943673
 20
272.8084183222
 30
0.0
 10
191.1780935548
 20
271.7970223516
 30
0.0
 10
188.9117867653
 20
270.985471876
 30
0.0
 10
185.6565391854
 20
270.1210961011
 30
0.0
 10
183.1167658332
 20
269.7156774471
 30
0.0
 10
181.3913373853
 20
269.5067622875
 30
0.0
  0
SPLINE
  5
461
100
AcDbEntity
  8
0
100
AcDbSpline
 62
7
  6
CONTINUOUS
 70
0
 71
3
 72
14
 73
10
 74
0
 42
0.0000001
 43
0.0000001
 44
0.0000000001
 40
0.0
 40
0.0
 40
0.0
 40
0.0
 40
0.2707317339
 40
0.3995853605
 40
0.5241897964
 40
0.6451545005
 40
0.7636232573
 40
0.8812469829
 40
1.0
 40
1.0
 40
1.0
 40
1.0
 10
144.1246270768
 20
269.5067622875
 30
0.0
 10
142.3991979562
 20
269.7156775285
 30
0.0
 10
139.85942363
 20
270.121096347
 30
0.0
 10
136.6041748933
 20
270.9854727253
 30
0.0
 10
134.3378673515
 20
271.7970237899
 30
0.0
 10
132.2256660863
 20
272.8084205459
 30
0.0
 10
130.2870378857
 20
274.0434210773
 30
0.0
 10
128.5414919334
 20
275.5179269392
 30
0.0
 10
127.5263429544
 20
276.6535226838
 30
0.0
 10
127.0574542036
 20
277.2546414586
 30
0.0
  0
SPLINE
  5
462
100
AcDbEntity
  8
0
100
AcDbSpline
 62
7
  6
CONTINUOUS
 70
0
 71
3
 72
22
 73
18
 74
0
 42
0.0000001
 43
0.0000001
 44
0.0000000001
 40
0.0
 40
0.0
 40
0.0
 40
0.0
 40
0.0147443993
 40
0.0346597833
 40
0.058209764
 40
0.084293969
 40
0.1121700605
 40
0.1413382129
 40
0.2022868175
 40
0.2654514138
 40
0.329953379
 40
0.3953094181
 40
0.4612433949
 40
0.5942638824
 40
0.7284357536
 40
0.8636464328
 40
1.0
 40
1.0
 40
1.0
 40
1.0
 10
207.6813103099
 20
298.5126400693
 30
0.0
 10
207.6309392663
 20
298.4095593769
 30
0.0
 10
207.5390738555
 20
298.1550151816
 30
0.0
 10
207.4063969478
 20
297.7222469855
 30
0.0
 10
207.2618290523
 20
297.2005648259
 30
0.0
 10
207.1066962095
 20
296.617775871
 30
0.0
 10
206.9424412034
 20
295.9921228555
 30
0.0
 10
206.7081098623
 20
295.1044063507
 30
0.0
 10
206.3958579695
 20
293.9532511672
 30
0.0
 10
205.988337124
 20
292.5432134934
 30
0.0
 10
205.5411518032
 20
291.1092447674
 30
0.0
 10
205.0524847842
 20
289.6660513625
 30
0.0
 10
204.3410375014
 20
287.7361497066
 30
0.0
 10
203.3391407568
 20
285.3435943807
 30
0.0
 10
201.9431550432
 20
282.5380347977
 30
0.0
 10
200.3338426771
 20
279.8185233902
 30
0.0
 10
199.1110477723
 20
278.0912005948
 30
0.0
 10
198.4584860084
 20
277.2546118201
 30
0.0
  0
SPLINE
  5
463
100
AcDbEntity
  8
0
100
AcDbSpline
 62
7
  6
CONTINUOUS
 70
0
 71
3
 72
22
 73
18
 74
0
 42
0.0000001
 43
0.0000001
 44
0.0000000001
 40
0.0
 40
0.0
 40
0.0
 40
0.0
 40
0.1363535114
 40
0.2715641748
 40
0.4057360039
 40
0.5387564581
 40
0.6046904359
 40
0.6700464496
 40
0.7345484177
 40
0.7977129997
 40
0.8586615896
 40
0.8878297698
 40
0.9157058534
 40
0.9417900535
 40
0.9653400798
 40
0.9852555806
 40
1.0
 40
1.0
 40
1.0
 40
1.0
 10
127.0574820218
 20
277.2546081849
 30
0.0
 10
126.4049204932
 20
278.0911967912
 30
0.0
 10
125.1821239558
 20
279.8185181297
 30
0.0
 10
123.5728128129
 20
282.5380298396
 30
0.0
 10
122.1768260618
 20
285.3435885595
 30
0.0
 10
121.1749289222
 20
287.7361435568
 30
0.0
 10
120.4634821881
 20
289.6660452496
 30
0.0
 10
119.9748143998
 20
291.1092384538
 30
0.0
 10
119.5276294385
 20
292.5432072304
 30
0.0
 10
119.1201083701
 20
293.9532448455
 30
0.0
 10
118.8078558583
 20
295.1044000379
 30
0.0
 10
118.5735250987
 20
295.9921168782
 30
0.0
 10
118.4092697469
 20
296.6177700196
 30
0.0
 10
118.2541366892
 20
297.2005592784
 30
0.0
 10
118.1095684456
 20
297.7222426794
 30
0.0
 10
117.9768925174
 20
298.155012743
 30
0.0
 10
117.8850264758
 20
298.4095578976
 30
0.0
 10
117.8346553557
 20
298.5126387447
 30
0.0
  0
SPLINE
  5
464
100
AcDbEntity
  8
BEZUGSACHSEN
100
AcDbSpline
 62
7
  6
CONTINUOUS
 70
0
 71
3
 72
34
 73
30
 74
0
 42
0.0000001
 43
0.0000001
 44
0.0000000001
 40
0.0
 40
0.0
 40
0.0
 40
0.0
 40
0.0193290036
 40
0.0765158946
 40
0.1692332248
 40
0.2278036136
 40
0.2937826204
 40
0.3665213003
 40
0.4453427548
 40
0.5295269568
 40
0.5733955709
 40
0.6183265408
 40
0.6642265748
 40
0.7109985605
 40
0.75854762
 40
0.7825853841
 40
0.8067830642
 40
0.8311289366
 40
0.8556103225
 40
0.880211381
 40
0.9049081096
 40
0.9296469521
 40
0.9419981581
 40
0.9542707602
 40
0.9663337745
 40
0.9779355322
 40
0.9835580413
 40
0.9890830918
 40
1.0
 40
1.0
 40
1.0
 40
1.0
 10
102.8364506398
 20
241.1554856985
 30
0.0
 10
103.1426412005
 20
241.0909688461
 30
0.0
 10
104.3544200153
 20
240.8341047492
 30
0.0
 10
107.0317720342
 20
240.2529006863
 30
0.0
 10
110.3226163934
 20
239.5036264869
 30
0.0
 10
113.7434722388
 20
238.6854705039
 30
0.0
 10
116.8423731856
 20
237.9121951847
 30
0.0
 10
120.2494446282
 20
237.0206120491
 30
0.0
 10
123.9278063308
 20
236.0028514353
 30
0.0
 10
127.1400237746
 20
235.054509399
 30
0.0
 10
129.8129505181
 20
234.2190202625
 30
0.0
 10
131.8859606908
 20
233.5422120033
 30
0.0
 10
133.9931407224
 20
232.8193174156
 30
0.0
 10
136.1269770102
 20
232.0445182056
 30
0.0
 10
137.9132415113
 20
231.350554887
 30
0.0
 10
139.3458392034
 20
230.7569718546
 30
0.0
 10
140.4232128721
 20
230.2878437565
 30
0.0
 10
141.4966506789
 20
229.7922783024
 30
0.0
 10
142.5618581071
 20
229.2642628072
 30
0.0
 10
143.6123216266
 20
228.6949517609
 30
0.0
 10
144.6357515809
 20
228.070168922
 30
0.0
 10
145.4480368491
 20
227.4825290519
 30
0.0
 10
146.0417493617
 20
226.9461483292
 30
0.0
 10
146.437007432
 20
226.5004975208
 30
0.0
 10
146.7451625229
 20
226.0018333483
 30
0.0
 10
146.8633803375
 20
225.528663065
 30
0.0
 10
146.8260083597
 20
225.1589173509
 30
0.0
 10
146.7112993196
 20
224.8180470529
 30
0.0
 10
146.5542064504
 20
224.5958796397
 30
0.0
 10
146.4357443191
 20
224.4647274368
 30
0.0
  0
SPLINE
  5
465
100
AcDbEntity
  8
BEZUGSACHSEN
100
AcDbSpline
 62
7
  6
CONTINUOUS
 70
0
 71
3
 72
34
 73
30
 74
0
 42
0.0000001
 43
0.0000001
 44
0.0000000001
 40
0.0
 40
0.0
 40
0.0
 40
0.0
 40
0.0109189876
 40
0.0164451624
 40
0.0220686083
 40
0.0336717574
 40
0.0457340553
 40
0.058006763
 40
0.0703581117
 40
0.0950974756
 40
0.1197944146
 40
0.144395578
 40
0.1688769412
 40
0.1932227877
 40
0.2174203988
 40
0.2414580773
 40
0.2890069532
 40
0.3357787656
 40
0.3816786216
 40
0.426609407
 40
0.4704778426
 40
0.5546616875
 40
0.6334827766
 40
0.7062210785
 40
0.7721996471
 40
0.8307693032
 40
0.9234853538
 40
0.9806712533
 40
1.0
 40
1.0
 40
1.0
 40
1.0
 10
179.080220143
 20
224.4647274368
 30
0.0
 10
178.9617354515
 20
224.5959046165
 30
0.0
 10
178.8046024665
 20
224.818120646
 30
0.0
 10
178.689957077
 20
225.1590803282
 30
0.0
 10
178.6525573385
 20
225.528879834
 30
0.0
 10
178.7709156598
 20
226.0020560613
 30
0.0
 10
179.0791012989
 20
226.5007004497
 30
0.0
 10
179.4743950434
 20
226.9463133818
 30
0.0
 10
180.0681159212
 20
227.4827000651
 30
0.0
 10
180.8804376116
 20
228.0703168431
 30
0.0
 10
181.9038821062
 20
228.695099771
 30
0.0
 10
182.95436393
 20
229.2643874993
 30
0.0
 10
184.0195705701
 20
229.7924059282
 30
0.0
 10
185.0930119217
 20
230.2879594364
 30
0.0
 10
186.1703851103
 20
230.7570810212
 30
0.0
 10
187.602980016
 20
231.3506563722
 30
0.0
 10
189.3892392921
 20
232.0446131051
 30
0.0
 10
191.5230693096
 20
232.8194040016
 30
0.0
 10
193.6302422544
 20
233.5422922699
 30
0.0
 10
195.7032453369
 20
234.2190937966
 30
0.0
 10
198.376161787
 20
235.0545764619
 30
0.0
 10
201.5883661056
 20
236.0029110371
 30
0.0
 10
205.2667115876
 20
237.0206630605
 30
0.0
 10
208.6737656586
 20
237.9122364045
 30
0.0
 10
211.7726407344
 20
238.6855114655
 30
0.0
 10
215.1934599781
 20
239.5036494565
 30
0.0
 10
218.4842556185
 20
240.2529179834
 30
0.0
 10
221.161568381
 20
240.8341095997
 30
0.0
 10
222.3733273827
 20
241.0909695164
 30
0.0
 10
222.6795138222
 20
241.1554856985
 30
0.0
  0
LINE
  5
466
100
AcDbEntity
  8
0
100
AcDbLine
 62
7
  6
CONTINUOUS
 10
452.4216215708
 20
250.9508982402
 11
452.4259604192
 21
250.9647274368
  0
LINE
  5
467
100
AcDbEntity
  8
0
100
AcDbLine
 62
7
  6
CONTINUOUS
 10
330.5108033149
 20
248.1349405401
 11
331.8701961172
 21
244.9008972399
  0
LINE
  5
468
100
AcDbEntity
  8
0
100
AcDbLine
 62
7
  6
CONTINUOUS
 10
331.3993243844
 20
244.9008972399
 11
332.0742672666
 21
243.2838761561
  0
SPLINE
  5
469
100
AcDbEntity
  8
0
100
AcDbSpline
 62
7
  6
CONTINUOUS
 70
0
 71
3
 72
8
 73
4
 74
0
 42
0.0000001
 43
0.0000001
 44
0.0000000001
 40
0.0
 40
0.0
 40
0.0
 40
0.0
 40
1.0
 40
1.0
 40
1.0
 40
1.0
 10
332.5502130383
 20
243.2838761561
 30
0.0
 10
333.6839067531
 20
240.5884888356
 30
0.0
 10
334.8183885536
 20
237.8934327995
 30
0.0
 10
335.9538030321
 20
235.1987698876
 30
0.0
  0
SPLINE
  5
46A
100
AcDbEntity
  8
0
100
AcDbSpline
 62
7
  6
CONTINUOUS
 70
0
 71
3
 72
9
 73
5
 74
0
 42
0.0000001
 43
0.0000001
 44
0.0000000001
 40
0.0
 40
0.0
 40
0.0
 40
0.0
 40
0.2411355072
 40
1.0
 40
1.0
 40
1.0
 40
1.0
 10
337.8391569082
 20
232.3689827431
 30
0.0
 10
337.9037724498
 20
232.3346466467
 30
0.0
 10
338.1728039601
 20
232.1942662271
 30
0.0
 10
338.445860119
 20
232.0616477566
 30
0.0
 10
338.6547458844
 20
231.9647274368
 30
0.0
  0
LINE
  5
46B
100
AcDbEntity
  8
0
100
AcDbLine
 62
7
  6
CONTINUOUS
 10
335.7683880483
 20
233.9860040747
 11
335.7364875711
 21
234.0457676888
  0
LINE
  5
46C
100
AcDbEntity
  8
0
100
AcDbLine
 62
7
  6
CONTINUOUS
 10
330.2859646816
 20
246.5179194563
 11
330.6210851296
 21
245.7094077819
  0
LINE
  5
46D
100
AcDbEntity
  8
0
100
AcDbLine
 62
7
  6
CONTINUOUS
 10
331.7640505523
 20
242.8459641085
 11
331.8454268746
 21
242.6486193008
  0
SPLINE
  5
46E
100
AcDbEntity
  8
0
100
AcDbSpline
 62
7
  6
CONTINUOUS
 70
0
 71
3
 72
9
 73
5
 74
0
 42
0.0000001
 43
0.0000001
 44
0.0000000001
 40
0.0
 40
0.0
 40
0.0
 40
0.0
 40
0.2563222355
 40
1.0
 40
1.0
 40
1.0
 40
1.0
 10
451.2311755861
 20
248.539195811
 30
0.0
 10
451.2577593876
 20
248.5725259025
 30
0.0
 10
451.3599954152
 20
248.7037238363
 30
0.0
 10
451.4561597019
 20
248.8396904087
 30
0.0
 10
451.5234932429
 20
248.943451082
 30
0.0
  0
LINE
  5
46F
100
AcDbEntity
  8
0
100
AcDbLine
 62
7
  6
CONTINUOUS
 10
451.4306058814
 20
248.539195811
 11
451.4001352763
 21
248.4673664135
  0
LINE
  5
470
100
AcDbEntity
  8
0
100
AcDbLine
 62
7
  6
CONTINUOUS
 10
451.4001352763
 20
248.4673664135
 11
451.3731426907
 21
248.4040668482
  0
LINE
  5
471
100
AcDbEntity
  8
0
100
AcDbLine
 62
7
  6
CONTINUOUS
 10
450.5512864665
 20
246.5179194563
 11
450.2161660185
 21
245.7094077819
  0
SPLINE
  5
472
100
AcDbEntity
  8
0
100
AcDbSpline
 62
7
  6
CONTINUOUS
 70
0
 71
3
 72
8
 73
4
 74
0
 42
0.0000001
 43
0.0000001
 44
0.0000000001
 40
0.0
 40
0.0
 40
0.0
 40
0.0
 40
1.0
 40
1.0
 40
1.0
 40
1.0
 10
443.1957500839
 20
231.9647274368
 30
0.0
 10
445.8804477726
 20
238.2953277324
 30
0.0
 10
448.5579068256
 20
244.6289998522
 30
0.0
 10
451.2304819426
 20
250.9647274368
 30
0.0
  0
LINE
  5
473
100
AcDbEntity
  8
0
100
AcDbLine
 62
7
  6
CONTINUOUS
 10
332.4630932826
 20
242.6772096871
 11
332.3914446336
 21
242.8796208851
  0
LINE
  5
474
100
AcDbEntity
  8
0
100
AcDbLine
 62
7
  6
CONTINUOUS
 10
331.9212632747
 20
242.6768793694
 11
331.8493941813
 21
242.8796208851
  0
LINE
  5
475
100
AcDbEntity
  8
0
100
AcDbLine
 62
7
  6
CONTINUOUS
 10
447.7021968842
 20
245.1601775972
 11
447.6311233899
 21
244.993407787
  0
LINE
  5
476
100
AcDbEntity
  8
0
100
AcDbLine
 62
7
  6
CONTINUOUS
 10
447.6311233899
 20
244.993407787
 11
447.5822768551
 21
244.8787984076
  0
LINE
  5
477
100
AcDbEntity
  8
0
100
AcDbLine
 62
7
  6
CONTINUOUS
 10
444.7028312325
 20
234.0785746642
 11
444.6478372093
 21
233.9860040747
  0
LINE
  5
478
100
AcDbEntity
  8
0
100
AcDbLine
 62
7
  6
CONTINUOUS
 10
444.0996760262
 20
233.9860040747
 11
443.2513740655
 21
231.9647274368
  0
SPLINE
  5
479
100
AcDbEntity
  8
BEZUGSACHSEN
100
AcDbSpline
 62
7
  6
CONTINUOUS
 70
0
 71
3
 72
24
 73
20
 74
0
 42
0.0000001
 43
0.0000001
 44
0.0000000001
 40
0.0
 40
0.0
 40
0.0
 40
0.0
 40
0.1672555978
 40
0.3284359222
 40
0.4778862292
 40
0.5466835627
 40
0.6108458654
 40
0.670008893
 40
0.7239377198
 40
0.7726046595
 40
0.8162910338
 40
0.8558070051
 40
0.8931005116
 40
0.9123320441
 40
0.9336659685
 40
0.9461725614
 40
0.9612577909
 40
0.9806168359
 40
1.0
 40
1.0
 40
1.0
 40
1.0
 10
390.4186255741
 20
241.1554856985
 30
0.0
 10
393.6057941068
 20
241.1554856985
 30
0.0
 10
399.8652503585
 20
241.0317550668
 30
0.0
 10
408.9567950499
 20
240.4665498709
 30
0.0
 10
416.1458589171
 20
239.6492359121
 30
0.0
 10
421.4535299412
 20
238.7529350887
 30
0.0
 10
425.034807876
 20
237.9861675233
 30
0.0
 10
428.2970107896
 20
237.1027597517
 30
0.0
 10
431.2130057004
 20
236.0939702129
 30
0.0
 10
433.7591938477
 20
234.9478058587
 30
0.0
 10
435.9171163564
 20
233.6436711715
 30
0.0
 10
437.66585575
 20
232.1345492387
 30
0.0
 10
438.7432031739
 20
230.6211669516
 30
0.0
 10
439.2818425392
 20
229.2308722933
 30
0.0
 10
439.4580975305
 20
228.2266799968
 30
0.0
 10
439.4639372645
 20
227.2923689276
 30
0.0
 10
439.3478229345
 20
226.4018747453
 30
0.0
 10
439.0411855596
 20
225.4161492995
 30
0.0
 10
438.6782326525
 20
224.7656014732
 30
0.0
 10
438.463987214
 20
224.4647274368
 30
0.0
  0
SPLINE
  5
47A
100
AcDbEntity
  8
0
100
AcDbSpline
 62
7
  6
CONTINUOUS
 70
0
 71
3
 72
8
 73
4
 74
0
 42
0.0000001
 43
0.0000001
 44
0.0000000001
 40
0.0
 40
0.0
 40
0.0
 40
0.0
 40
1.0
 40
1.0
 40
1.0
 40
1.0
 10
336.0139349718
 20
236.0072807126
 30
0.0
 10
334.985350516
 20
238.4323873586
 30
0.0
 10
333.9578183398
 20
240.8579405154
 30
0.0
 10
332.9311906107
 20
243.2838761561
 30
0.0
  0
LINE
  5
47B
100
AcDbEntity
  8
0
100
AcDbLine
 62
7
  6
CONTINUOUS
 10
334.0028406223
 20
243.2838761561
 11
333.3067994499
 21
244.9008972399
  0
SPLINE
  5
47C
100
AcDbEntity
  8
0
100
AcDbSpline
 62
7
  6
CONTINUOUS
 70
0
 71
3
 72
8
 73
4
 74
0
 42
0.0000001
 43
0.0000001
 44
0.0000000001
 40
0.0
 40
0.0
 40
0.0
 40
0.0
 40
1.0
 40
1.0
 40
1.0
 40
1.0
 10
332.2470427332
 20
244.9008972399
 30
0.0
 10
331.7910776114
 20
245.9788399409
 30
0.0
 10
331.335285687
 20
247.0568559181
 30
0.0
 10
330.8796562249
 20
248.1349405401
 30
0.0
  0
LINE
  5
47D
100
AcDbEntity
  8
0
100
AcDbLine
 62
7
  6
CONTINUOUS
 10
338.6547458844
 20
231.9647274368
 11
337.9569907965
 21
233.5817486622
  0
LINE
  5
47E
100
AcDbEntity
  8
0
100
AcDbLine
 62
7
  6
CONTINUOUS
 10
336.4616560719
 20
231.9647274368
 11
335.621742446
 21
233.9860040747
  0
SPLINE
  5
47F
100
AcDbEntity
  8
0
100
AcDbSpline
 62
7
  6
CONTINUOUS
 70
0
 71
3
 72
8
 73
4
 74
0
 42
0.0000001
 43
0.0000001
 44
0.0000000001
 40
0.0
 40
0.0
 40
0.0
 40
0.0
 40
1.0
 40
1.0
 40
1.0
 40
1.0
 10
331.3951224051
 20
244.092386698
 30
0.0
 10
331.1803452225
 20
244.6312848167
 30
0.0
 10
330.9658440669
 20
245.1702930229
 30
0.0
 10
330.7516112563
 20
245.7094077819
 30
0.0
  0
LINE
  5
480
100
AcDbEntity
  8
0
100
AcDbLine
 62
7
  6
CONTINUOUS
 10
330.7516112563
 20
245.7094077819
 11
330.4158176836
 21
246.5179194563
  0
SPLINE
  5
481
100
AcDbEntity
  8
0
100
AcDbSpline
 62
7
  6
CONTINUOUS
 70
0
 71
3
 72
8
 73
4
 74
0
 42
0.0000001
 43
0.0000001
 44
0.0000000001
 40
0.0
 40
0.0
 40
0.0
 40
0.0
 40
1.0
 40
1.0
 40
1.0
 40
1.0
 10
330.4158176836
 20
246.5179194563
 30
0.0
 10
330.1824129015
 20
247.05674322
 30
0.0
 10
329.9494357242
 20
247.595752401
 30
0.0
 10
329.7168739231
 20
248.1349405401
 30
0.0
  0
SPLINE
  5
482
100
AcDbEntity
  8
BEZUGSACHSEN
100
AcDbSpline
 62
7
  6
CONTINUOUS
 70
0
 71
3
 72
24
 73
20
 74
0
 42
0.0000001
 43
0.0000001
 44
0.0000000001
 40
0.0
 40
0.0
 40
0.0
 40
0.0
 40
0.1672555978
 40
0.3284359222
 40
0.4778862292
 40
0.5466835627
 40
0.6108458654
 40
0.670008893
 40
0.7239377198
 40
0.7726046595
 40
0.8162910338
 40
0.8558070051
 40
0.8931005116
 40
0.9123320441
 40
0.9336659685
 40
0.9461725614
 40
0.9612577909
 40
0.9806168359
 40
1.0
 40
1.0
 40
1.0
 40
1.0
 10
390.4186255741
 20
241.1554856985
 30
0.0
 10
387.2314570413
 20
241.1554856985
 30
0.0
 10
380.9720007897
 20
241.0317550668
 30
0.0
 10
371.8804560982
 20
240.4665498709
 30
0.0
 10
364.691392231
 20
239.6492359121
 30
0.0
 10
359.383721207
 20
238.7529350887
 30
0.0
 10
355.8024432721
 20
237.9861675233
 30
0.0
 10
352.5402403585
 20
237.1027597517
 30
0.0
 10
349.6242454477
 20
236.0939702129
 30
0.0
 10
347.0780573004
 20
234.9478058587
 30
0.0
 10
344.9201347917
 20
233.6436711715
 30
0.0
 10
343.1713953981
 20
232.1345492387
 30
0.0
 10
342.0940479743
 20
230.6211669516
 30
0.0
 10
341.5554086089
 20
229.2308722933
 30
0.0
 10
341.3791536176
 20
228.2266799968
 30
0.0
 10
341.3733138837
 20
227.2923689276
 30
0.0
 10
341.4894282136
 20
226.4018747453
 30
0.0
 10
341.7960655885
 20
225.4161492995
 30
0.0
 10
342.1590184956
 20
224.7656014732
 30
0.0
 10
342.3732639341
 20
224.4647274368
 30
0.0
  0
LINE
  5
483
100
AcDbEntity
  8
0
100
AcDbLine
 62
7
  6
CONTINUOUS
 10
337.0046165825
 20
231.9647274368
 11
336.1646535834
 21
233.9860040747
  0
LINE
  5
484
100
AcDbEntity
  8
0
100
AcDbLine
 62
7
  6
CONTINUOUS
 10
332.3914446336
 20
242.8796208851
 11
332.2398632178
 21
243.2819429262
  0
LINE
  5
485
100
AcDbEntity
  8
0
100
AcDbLine
 62
7
  6
CONTINUOUS
 10
331.6156864352
 20
244.9008971477
 11
331.5861299617
 21
244.9751963565
  0
LINE
  5
486
100
AcDbEntity
  8
0
100
AcDbLine
 62
7
  6
CONTINUOUS
 10
331.5861299617
 20
244.9751963565
 11
331.2942730911
 21
245.7094077819
  0
LINE
  5
487
100
AcDbEntity
  8
0
100
AcDbLine
 62
7
  6
CONTINUOUS
 10
331.2942730911
 20
245.7094077819
 11
330.958464369
 21
246.5179194563
  0
SPLINE
  5
488
100
AcDbEntity
  8
0
100
AcDbSpline
 62
7
  6
CONTINUOUS
 70
0
 71
3
 72
8
 73
4
 74
0
 42
0.0000001
 43
0.0000001
 44
0.0000000001
 40
0.0
 40
0.0
 40
0.0
 40
0.0
 40
1.0
 40
1.0
 40
1.0
 40
1.0
 10
330.958464369
 20
246.5179194563
 30
0.0
 10
330.7249696007
 20
247.0567412947
 30
0.0
 10
330.4919068017
 20
247.5957505176
 30
0.0
 10
330.2592635126
 20
248.1349405401
 30
0.0
  0
SPLINE
  5
489
100
AcDbEntity
  8
0
100
AcDbSpline
 62
7
  6
CONTINUOUS
 70
0
 71
3
 72
8
 73
4
 74
0
 42
0.0000001
 43
0.0000001
 44
0.0000000001
 40
0.0
 40
0.0
 40
0.0
 40
0.0
 40
1.0
 40
1.0
 40
1.0
 40
1.0
 10
336.5681905422
 20
236.0072807126
 30
0.0
 10
335.5391587977
 20
238.4323752672
 30
0.0
 10
334.5112092741
 20
240.8579292445
 30
0.0
 10
333.4841885771
 20
243.2838761561
 30
0.0
  0
LINE
  5
48A
100
AcDbEntity
  8
0
100
AcDbLine
 62
7
  6
CONTINUOUS
 10
334.5656297222
 20
243.2838761561
 11
333.8691099163
 21
244.9008972399
  0
SPLINE
  5
48B
100
AcDbEntity
  8
0
100
AcDbSpline
 62
7
  6
CONTINUOUS
 70
0
 71
3
 72
8
 73
4
 74
0
 42
0.0000001
 43
0.0000001
 44
0.0000000001
 40
0.0
 40
0.0
 40
0.0
 40
0.0
 40
1.0
 40
1.0
 40
1.0
 40
1.0
 10
332.7997861757
 20
244.9008972399
 30
0.0
 10
332.3436549762
 20
245.9788380148
 30
0.0
 10
331.8877015936
 20
247.0568540482
 30
0.0
 10
331.4319149096
 20
248.1349405401
 30
0.0
  0
LINE
  5
48C
100
AcDbEntity
  8
0
100
AcDbLine
 62
7
  6
CONTINUOUS
 10
339.2189845824
 20
231.9647274368
 11
338.5206759777
 21
233.5817486622
  0
SPLINE
  5
48D
100
AcDbEntity
  8
0
100
AcDbSpline
 62
7
  6
CONTINUOUS
 70
0
 71
3
 72
9
 73
5
 74
0
 42
0.0000001
 43
0.0000001
 44
0.0000000001
 40
0.0
 40
0.0
 40
0.0
 40
0.0
 40
0.2374566682
 40
1.0
 40
1.0
 40
1.0
 40
1.0
 10
451.8375512836
 20
250.9647274368
 30
0.0
 10
451.8135132482
 20
250.9303973216
 30
0.0
 10
451.7087309627
 20
250.7883142393
 30
0.0
 10
451.5908349912
 20
250.6561416975
 30
0.0
 10
451.4961782527
 20
250.5604721658
 30
0.0
  0
SPLINE
  5
48E
100
AcDbEntity
  8
0
100
AcDbSpline
 62
7
  6
CONTINUOUS
 70
0
 71
3
 72
8
 73
4
 74
0
 42
0.0000001
 43
0.0000001
 44
0.0000000001
 40
0.0
 40
0.0
 40
0.0
 40
0.0
 40
1.0
 40
1.0
 40
1.0
 40
1.0
 10
450.1409277314
 20
248.1349405401
 30
0.0
 10
449.8978290949
 20
247.5956994538
 30
0.0
 10
449.6542172869
 20
247.0566894006
 30
0.0
 10
449.4100762554
 20
246.5179194563
 30
0.0
  0
SPLINE
  5
48F
100
AcDbEntity
  8
0
100
AcDbSpline
 62
7
  6
CONTINUOUS
 70
0
 71
3
 72
8
 73
4
 74
0
 42
0.0000001
 43
0.0000001
 44
0.0000000001
 40
0.0
 40
0.0
 40
0.0
 40
0.0
 40
1.0
 40
1.0
 40
1.0
 40
1.0
 10
448.359426739
 20
248.1349405401
 30
0.0
 10
447.8959832148
 20
247.0567893071
 30
0.0
 10
447.4322287348
 20
245.9787716778
 30
0.0
 10
446.9681418059
 20
244.9008972399
 30
0.0
  0
SPLINE
  5
490
100
AcDbEntity
  8
0
100
AcDbSpline
 62
7
  6
CONTINUOUS
 70
0
 71
3
 72
9
 73
5
 74
0
 42
0.0000001
 43
0.0000001
 44
0.0000000001
 40
0.0
 40
0.0
 40
0.0
 40
0.0
 40
0.2375665163
 40
1.0
 40
1.0
 40
1.0
 40
1.0
 10
452.3792133955
 20
250.9647274368
 30
0.0
 10
452.3552590363
 20
250.930403497
 30
0.0
 10
452.2509000443
 20
250.7883881853
 30
0.0
 10
452.1335049847
 20
250.6561869157
 30
0.0
 10
452.0392523702
 20
250.5604721658
 30
0.0
  0
SPLINE
  5
491
100
AcDbEntity
  8
0
100
AcDbSpline
 62
7
  6
CONTINUOUS
 70
0
 71
3
 72
8
 73
4
 74
0
 42
0.0000001
 43
0.0000001
 44
0.0000000001
 40
0.0
 40
0.0
 40
0.0
 40
0.0
 40
1.0
 40
1.0
 40
1.0
 40
1.0
 10
450.6869435906
 20
248.1349405401
 30
0.0
 10
450.4440278728
 20
247.5957023433
 30
0.0
 10
450.2006048829
 20
247.0566923566
 30
0.0
 10
449.956658904
 20
246.5179194563
 30
0.0
  0
LINE
  5
492
100
AcDbEntity
  8
0
100
AcDbLine
 62
7
  6
CONTINUOUS
 10
444.6478372093
 20
233.9860040747
 11
443.7997397754
 21
231.9647274368
  0
SPLINE
  5
493
100
AcDbEntity
  8
0
100
AcDbSpline
 62
7
  6
CONTINUOUS
 70
0
 71
3
 72
8
 73
4
 74
0
 42
0.0000001
 43
0.0000001
 44
0.0000000001
 40
0.0
 40
0.0
 40
0.0
 40
0.0
 40
1.0
 40
1.0
 40
1.0
 40
1.0
 10
448.9208275443
 20
248.1349405401
 30
0.0
 10
448.4576787785
 20
247.0567930308
 30
0.0
 10
447.9942272576
 20
245.9787755212
 30
0.0
 10
447.5304522671
 20
244.9008972399
 30
0.0
  0
ELLIPSE
  5
494
100
AcDbEntity
  8
0
100
AcDbEllipse
 62
7
  6
CONTINUOUS
 10
162.757982231
 20
280.555762093
 30
0.0
 11
45.25
 21
0.0
 31
0.0
 40
0.2679491924
 41
-1.9952103399
 42
-1.1463823137
  0
ENDSEC
  0
SECTION
  2
OBJECTS
  0
DICTIONARY
  5
C
100
AcDbDictionary
280
0
281
1
  3
ACAD_GROUP
350
D
  3
ACAD_MLINESTYLE
350
17
  3
ACAD_LAYOUT
350
1A
  3
ACAD_PLOTSETTINGS
350
19
  3
ACAD_PLOTSTYLENAME
350
E
  0
DICTIONARY
  5
D
102
{ACAD_REACTORS
330
C
102
}
100
AcDbDictionary
280
0
281
1
  0
ACDBDICTIONARYWDFLT
  5
E
102
{ACAD_REACTORS
330
C
102
}
100
AcDbDictionary
281
1
  3
Normal
350
F
100
AcDbDictionaryWithDefault
340
F
  0
DICTIONARY
  5
17
102
{ACAD_REACTORS
330
C
102
}
100
AcDbDictionary
280
0
281
1
  3
Standard
350
18
  0
DICTIONARY
  5
19
102
{ACAD_REACTORS
330
C
102
}
100
AcDbDictionary
281
1
  0
DICTIONARY
  5
1A
102
{ACAD_REACTORS
330
C
102
}
100
AcDbDictionary
281
1
  3
Model
350
495
  3
Layout1
350
496
  0
ACDBPLACEHOLDER
  5
F
102
{ACAD_REACTORS
330
E
102
}
  0
MLINESTYLE
  5
18
102
{ACAD_REACTORS
330
17
102
}
100
AcDbMlineStyle
  2
STANDARD
 70
0
  3

 62
256
 51
90.0
 52
90.0
 71
2
 49
0.5
 62
256
  6
BYLAYER
 49
-0.5
 62
256
  6
BYLAYER
  0
LAYOUT
  5
495
102
{ACAD_REACTORS
330
1A
102
}
100
AcDbPlotSettings
  1

  2
none_device
  4
ISO_A2_(594.00_x_420.00_MM)
  6

 40
0.0
 41
0.0
 42
0.0
 43
0.0
 44
594.0
 45
420.0
 46
0.0
 47
0.0
 48
0.0
 49
0.0
140
0.0
141
0.0
142
1.0
143
1.0
 70
1024
 72
1
 73
0
 74
0
  7

 75
0
147
1.0
148
0.0
149
0.0
100
AcDbLayout
  1
Model
 70
0
 71
0
 10
0.0
 20
0.0
 11
594.0
 21
420.0
 12
0.0
 22
0.0
 32
0.0
 14
0.0
 24
0.0
 34
0.0
 15
0.0
 25
0.0
 35
0.0
146
0.0
 13
0.0
 23
0.0
 33
0.0
 16
1.0
 26
0.0
 36
0.0
 17
0.0
 27
1.0
 37
0.0
 76
0
330
20E
345
0
346
0
  0
LAYOUT
  5
496
102
{ACAD_REACTORS
330
1A
102
}
100
AcDbPlotSettings
  1

  2
none_device
  4
ISO_A2_(594.00_x_420.00_MM)
  6

 40
0.0
 41
0.0
 42
0.0
 43
0.0
 44
594.0
 45
420.0
 46
0.0
 47
0.0
 48
0.0
 49
0.0
140
0.0
141
0.0
142
1.0
143
1.0
 70
0
 72
1
 73
0
 74
0
  7

 75
0
147
1.0
148
0.0
149
0.0
100
AcDbLayout
  1
Layout1
 70
0
 71
1
 10
0.0
 20
0.0
 11
594.0
 21
420.0
 12
0.0
 22
0.0
 32
0.0
 14
0.0
 24
0.0
 34
0.0
 15
0.0
 25
0.0
 35
0.0
146
0.0
 13
0.0
 23
0.0
 33
0.0
 16
1.0
 26
0.0
 36
0.0
 17
0.0
 27
1.0
 37
0.0
 76
0
330
20F
345
0
346
0
  0
ENDSEC
  0
EOF
