999
DXF file: VRS_0_3t_M8_7100554_M35304-P-1.dxf
999
Pro/ENGINEER 2011490 by Parametric Technology Corporation
  0
SECTION
  2
HEADER
  9
$ACADVER
  1
AC1015
  9
$DWGCODEPAGE
  3
ANSI_1252
  9
$EXTMAX
 10
297.0
 20
210.0
 30
0.0
  9
$EXTMIN
 10
0.0
 20
0.0
 30
0.0
  9
$LIMMIN
 10
0.0
 20
0.0
  9
$LIMMAX
 10
297.0
 20
210.0
  9
$VIEWCTR
 10
148.5
 20
105.0
  9
$VIEWSIZE
 40
210.0
  9
$CLAYER
  8
0
  9
$LTSCALE
 40
16.335
  9
$CELTYPE
  6
BYLAYER
  9
$DIMSCALE
 40
1.0
  9
$DIMASZ
 40
3.5
  9
$DIMEXO
 40
1.85625
  9
$DIMDLI
 40
11.286
  9
$DIMEXE
 40
5.346
  9
$DIMCEN
 40
2.673
  9
$DIMLFAC
 40
1.0
  9
$DIMBLK
  1
_FILLED
  9
$DIMTXT
 40
3.5
  9
$DIMTOL
 70
1
  9
$DIMLIM
 70
0
  9
$DIMTFAC
 40
1.0
  9
$DIMTP
 40
0.005
  9
$DIMTM
 40
0.005
  9
$PDMODE
 70
3
  9
$PDSIZE
 40
0.3125
  9
$HANDSEED
  5
5A9
  9
$TILEMODE
 70
1
  9
$MEASUREMENT
 70
1
  9
$INSUNITS
 70
4
  0
ENDSEC
  0
SECTION
  2
CLASSES
  0
CLASS
  1
ACDBDICTIONARYWDFLT
  2
AcDbDictionaryWithDefault
  3
AutoCAD 2000
 90
0
280
0
281
0
  0
CLASS
  1
ACDBPLACEHOLDER
  2
AcDbPlaceHolder
  3
AutoCAD 2000
 90
0
280
0
281
0
  0
CLASS
  1
LAYOUT
  2
AcDbLayout
  3
AutoCAD 2000
 90
0
280
0
281
0
  0
ENDSEC
  0
SECTION
  2
TABLES
  0
TABLE
  2
VPORT
  5
8
100
AcDbSymbolTable
 70
2
  0
VPORT
  5
1F4
100
AcDbSymbolTableRecord
100
AcDbViewportTableRecord
  2
*ACTIVE
 70
0
 10
0.0
 20
0.0
 11
1.0
 21
1.0
 12
148.5
 22
105.0
 13
0.0
 23
0.0
 14
1.0
 24
1.0
 15
0.0
 25
0.0
 16
0.0
 26
0.0
 36
1.0
 17
0.0
 27
0.0
 37
0.0
 40
210.0
 41
1.4142857143
 42
50.0
 43
0.0
 44
0.0
 50
0.0
 51
0.0
 71
0
 72
100
 73
1
 74
1
 75
0
 76
0
 77
0
 78
0
  0
ENDTAB
  0
TABLE
  2
LTYPE
  5
5
100
AcDbSymbolTable
 70
6
  0
LTYPE
  5
14
100
AcDbSymbolTableRecord
100
AcDbLinetypeTableRecord
  2
BYBLOCK
 70
0
  3

 72
65
 73
0
 40
0.0
  0
LTYPE
  5
15
100
AcDbSymbolTableRecord
100
AcDbLinetypeTableRecord
  2
BYLAYER
 70
0
  3

 72
65
 73
0
 40
0.0
  0
LTYPE
  5
16
100
AcDbSymbolTableRecord
100
AcDbLinetypeTableRecord
  2
CONTINUOUS
 70
64
  3
Solid line
 72
65
 73
0
 40
0.0
  0
LTYPE
  5
1F5
100
AcDbSymbolTableRecord
100
AcDbLinetypeTableRecord
  2
CENTER
 70
64
  3
____ _ ____ _ ____ _ ____ _ ____ _ ____ _ ____
 72
65
 73
4
 40
0.6
 49
0.375
 74
0
 49
-0.075
 74
0
 49
0.075
 74
0
 49
-0.075
 74
0
  0
LTYPE
  5
1F6
100
AcDbSymbolTableRecord
100
AcDbLinetypeTableRecord
  2
HIDDEN
 70
64
  3
- - - - - - - - - - - - - - - - - - - -
 72
65
 73
2
 40
0.2
 49
0.1
 74
0
 49
-0.1
 74
0
  0
LTYPE
  5
1F7
100
AcDbSymbolTableRecord
100
AcDbLinetypeTableRecord
  2
PHANTOM
 70
64
  3
_____ _ _ _____ _ _ _____ _ _ _____
 72
65
 73
6
 40
0.8
 49
0.45
 74
0
 49
-0.05
 74
0
 49
0.1
 74
0
 49
-0.05
 74
0
 49
0.1
 74
0
 49
-0.05
 74
0
  0
LTYPE
  5
1F8
100
AcDbSymbolTableRecord
100
AcDbLinetypeTableRecord
  2
DOT
 70
64
  3
. . . . . . . . . . . . . . . . . . . .
 72
65
 73
2
 40
0.2
 49
0.1
 74
0
 49
-0.1
 74
0
  0
LTYPE
  5
1F9
100
AcDbSymbolTableRecord
100
AcDbLinetypeTableRecord
  2
DASHED
 70
64
  3
- - - - - - - - - - - - - - - - - - - -
 72
65
 73
2
 40
0.2
 49
0.1
 74
0
 49
-0.1
 74
0
  0
ENDTAB
  0
TABLE
  2
LAYER
  5
2
100
AcDbSymbolTable
 70
36
  0
LAYER
  5
10
100
AcDbSymbolTableRecord
100
AcDbLayerTableRecord
  2
0
 70
0
 62
7
  6
CONTINUOUS
370
-3
390
F
  0
LAYER
  5
1FA
100
AcDbSymbolTableRecord
100
AcDbLayerTableRecord
  2
DEFAULT_1
 70
0
 62
7
  6
CENTER
370
-3
390
F
  0
LAYER
  5
1FB
100
AcDbSymbolTableRecord
100
AcDbLayerTableRecord
  2
DEFAULT_2
 70
0
 62
8
  6
HIDDEN
370
-3
390
F
  0
LAYER
  5
1FC
100
AcDbSymbolTableRecord
100
AcDbLayerTableRecord
  2
DEFAULT_3
 70
0
 62
7
  6
PHANTOM
370
-3
390
F
  0
LAYER
  5
1FD
100
AcDbSymbolTableRecord
100
AcDbLayerTableRecord
  2
BEZUGSACHSEN
 70
0
 62
7
  6
CONTINUOUS
370
-3
390
F
  0
LAYER
  5
1FE
100
AcDbSymbolTableRecord
100
AcDbLayerTableRecord
  2
BEZUGSEBENEN
 70
0
 62
7
  6
CONTINUOUS
370
-3
390
F
  0
LAYER
  5
1FF
100
AcDbSymbolTableRecord
100
AcDbLayerTableRecord
  2
BG_STARTBEZUEGE
 70
0
 62
7
  6
CONTINUOUS
370
-3
390
F
  0
LAYER
  5
200
100
AcDbSymbolTableRecord
100
AcDbLayerTableRecord
  2
FASEN
 70
0
 62
7
  6
CONTINUOUS
370
-3
390
F
  0
LAYER
  5
201
100
AcDbSymbolTableRecord
100
AcDbLayerTableRecord
  2
FLAECHEN
 70
0
 62
7
  6
CONTINUOUS
370
-3
390
F
  0
LAYER
  5
202
100
AcDbSymbolTableRecord
100
AcDbLayerTableRecord
  2
FLAECHENVERBUND
 70
0
 62
7
  6
CONTINUOUS
370
-3
390
F
  0
LAYER
  5
203
100
AcDbSymbolTableRecord
100
AcDbLayerTableRecord
  2
GEWINDE
 70
0
 62
7
  6
CONTINUOUS
370
-3
390
F
  0
LAYER
  5
204
100
AcDbSymbolTableRecord
100
AcDbLayerTableRecord
  2
HILFEN
 70
0
 62
7
  6
CONTINUOUS
370
-3
390
F
  0
LAYER
  5
205
100
AcDbSymbolTableRecord
100
AcDbLayerTableRecord
  2
KONSTRUKTIONSELEMENTE
 70
0
 62
7
  6
CONTINUOUS
370
-3
390
F
  0
LAYER
  5
206
100
AcDbSymbolTableRecord
100
AcDbLayerTableRecord
  2
KURVEN
 70
0
 62
7
  6
CONTINUOUS
370
-3
390
F
  0
LAYER
  5
207
100
AcDbSymbolTableRecord
100
AcDbLayerTableRecord
  2
NORM
 70
0
 62
7
  6
CONTINUOUS
370
-3
390
F
  0
LAYER
  5
208
100
AcDbSymbolTableRecord
100
AcDbLayerTableRecord
  2
PLATZIERUNG
 70
0
 62
7
  6
CONTINUOUS
370
-3
390
F
  0
LAYER
  5
209
100
AcDbSymbolTableRecord
100
AcDbLayerTableRecord
  2
RUNDUNGEN
 70
0
 62
7
  6
CONTINUOUS
370
-3
390
F
  0
LAYER
  5
20A
100
AcDbSymbolTableRecord
100
AcDbLayerTableRecord
  2
TEIL_STARTBEZUEGE
 70
0
 62
7
  6
CONTINUOUS
370
-3
390
F
  0
LAYER
  5
20B
100
AcDbSymbolTableRecord
100
AcDbLayerTableRecord
  2
T_STARTBEZUEGE
 70
0
 62
7
  6
CONTINUOUS
370
-3
390
F
  0
LAYER
  5
20C
100
AcDbSymbolTableRecord
100
AcDbLayerTableRecord
  2
ZEICHNUNGSBEMASSUNGEN
 70
0
 62
7
  6
CONTINUOUS
370
-3
390
F
  0
ENDTAB
  0
TABLE
  2
STYLE
  5
3
100
AcDbSymbolTable
 70
1
  0
STYLE
  5
11
100
AcDbSymbolTableRecord
100
AcDbTextStyleTableRecord
  2
STANDARD
 70
0
 40
0.0
 41
0.7
 50
0.0
 71
0
 42
0.2
  3
txt
  4

  0
STYLE
  5
20D
100
AcDbSymbolTableRecord
100
AcDbTextStyleTableRecord
  2
TEXTSTYLE_1
 70
0
 40
0.0
 41
0.8
 50
0.0
 71
0
 42
0.2
  3
gdt
  4

  0
ENDTAB
  0
TABLE
  2
VIEW
  5
6
100
AcDbSymbolTable
 70
0
  0
ENDTAB
  0
TABLE
  2
UCS
  5
7
100
AcDbSymbolTable
 70
0
  0
ENDTAB
  0
TABLE
  2
APPID
  5
9
100
AcDbSymbolTable
 70
1
  0
APPID
  5
20E
100
AcDbSymbolTableRecord
100
AcDbRegAppTableRecord
  2
ACAD
 70
0
  0
ENDTAB
  0
TABLE
  2
BLOCK_RECORD
  5
1
100
AcDbSymbolTable
 70
0
  0
BLOCK_RECORD
  5
20F
100
AcDbSymbolTableRecord
100
AcDbBlockTableRecord
  2
*Model_Space
  0
BLOCK_RECORD
  5
210
100
AcDbSymbolTableRecord
100
AcDbBlockTableRecord
  2
*Paper_Space
  0
ENDTAB
  0
TABLE
  2
DIMSTYLE
  5
A
100
AcDbSymbolTable
 70
1
100
AcDbDimStyleTable
 71
0
  0
DIMSTYLE
105
211
100
AcDbSymbolTableRecord
100
AcDbDimStyleTableRecord
  2
STANDARD
 70
0
  3

  4

 40
1.0
 41
3.5
 42
0.0625
 43
0.38
 44
0.18
 45
0.0
 46
0.0
 47
0.005
 48
0.005
140
3.5
141
0.09
142
0.0
143
25.4
144
1.0
145
0.0
146
1.0
147
0.09
 71
1.0
 72
0.0
 73
0
 74
0
 75
0
 76
0
 77
1
 78
8
170
0
171
2
172
0
173
0
174
0
175
0
176
0
177
0
178
5
270
2
271
3
272
3
273
2
274
2
275
0
280
0
281
0
282
0
283
1
284
8
285
0
286
0
287
3
288
0
340
11
  0
ENDTAB
  0
ENDSEC
  0
SECTION
  2
BLOCKS
  0
BLOCK
  5
20
100
AcDbEntity
  8
0
100
AcDbBlockBegin
  2
*Model_Space
 70
0
 10
0.0
 20
0.0
 30
0.0
  3
*Model_Space
  1

  0
ENDBLK
  5
21
100
AcDbEntity
  8
0
100
AcDbBlockEnd
  0
BLOCK
  5
1C
100
AcDbEntity
  8
0
100
AcDbBlockBegin
  2
*Paper_Space
 70
0
 10
0.0
 20
0.0
 30
0.0
  3
*Paper_Space
  1

  0
ENDBLK
  5
1D
100
AcDbEntity
  8
0
100
AcDbBlockEnd
  0
ENDSEC
  0
SECTION
  2
ENTITIES
  0
MTEXT
  5
212
100
AcDbEntity
  8
0
100
AcDbMText
 62
5
  6
CONTINUOUS
  7
STANDARD
 71
1
 72
1
 10
180.2036122423
 20
145.7645344219
 30
0.0
 11
0.0
 21
1.0
 31
0.0
 44
0.9
  1
VRS 0,3t RUD
 40
3.0
 41
27.8571428571
  0
MTEXT
  5
213
100
AcDbEntity
  8
0
100
AcDbMText
 62
5
  6
CONTINUOUS
  7
STANDARD
 71
1
 72
1
 10
84.8770753103
 20
74.1287101018
 30
0.0
 11
1.0
 21
0.0
 31
0.0
 44
0.9
  1
VRS 0,3t RUD
 40
3.0
 41
27.8571428571
  0
LINE
  5
214
100
AcDbEntity
  8
0
100
AcDbLine
 62
7
  6
CONTINUOUS
 10
0.0
 20
0.0
 11
0.0
 21
210.0
  0
LINE
  5
215
100
AcDbEntity
  8
0
100
AcDbLine
 62
7
  6
CONTINUOUS
 10
0.0
 20
0.0
 11
297.0
 21
0.0
  0
LINE
  5
216
100
AcDbEntity
  8
0
100
AcDbLine
 62
7
  6
CONTINUOUS
 10
0.0
 20
210.0
 11
297.0
 21
210.0
  0
LINE
  5
217
100
AcDbEntity
  8
0
100
AcDbLine
 62
7
  6
CONTINUOUS
 10
297.0
 20
0.0
 11
297.0
 21
210.0
  0
LINE
  5
218
100
AcDbEntity
  8
KONSTRUKTIONSELEMENTE
100
AcDbLine
 62
7
  6
CONTINUOUS
 10
95.570314534
 20
118.288840915
 11
101.9700269676
 21
118.288840915
  0
LINE
  5
219
100
AcDbEntity
  8
KONSTRUKTIONSELEMENTE
100
AcDbLine
 62
7
  6
CONTINUOUS
 10
94.7701707508
 20
119.088840915
 11
102.7701707508
 21
119.088840915
  0
LINE
  5
21A
100
AcDbEntity
  8
BEZUGSACHSEN
100
AcDbLine
 62
7
  6
CONTINUOUS
 10
75.5140905663
 20
153.0777154419
 11
75.6394149642
 21
153.380275303
  0
LINE
  5
21B
100
AcDbEntity
  8
RUNDUNGEN
100
AcDbLine
 62
7
  6
CONTINUOUS
 10
75.6394149642
 20
153.380275303
 11
81.9153923912
 21
168.5318251244
  0
LINE
  5
21C
100
AcDbEntity
  8
0
100
AcDbLine
 62
7
  6
CONTINUOUS
 10
87.3799062525
 20
167.8934099852
 11
87.1581516628
 21
167.7468795121
  0
LINE
  5
21D
100
AcDbEntity
  8
RUNDUNGEN
100
AcDbLine
 62
7
  6
CONTINUOUS
 10
82.7271865414
 20
169.3436192746
 11
98.1961456022
 21
175.7510719133
  0
LINE
  5
21E
100
AcDbEntity
  8
KONSTRUKTIONSELEMENTE
100
AcDbLine
 62
7
  6
CONTINUOUS
 10
94.7701707508
 20
119.088840915
 11
95.5701707508
 21
118.288840915
  0
LINE
  5
21F
100
AcDbEntity
  8
RUNDUNGEN
100
AcDbLine
 62
7
  6
CONTINUOUS
 10
79.2701707508
 20
142.9144862136
 11
79.2701707508
 21
137.488840915
  0
LINE
  5
220
100
AcDbEntity
  8
BEZUGSACHSEN
100
AcDbLine
 62
7
  6
CONTINUOUS
 10
79.2701707508
 20
137.488840915
 11
79.2701707508
 21
142.9144814195
  0
LINE
  5
221
100
AcDbEntity
  8
0
100
AcDbLine
 62
7
  6
CONTINUOUS
 10
86.9740095528
 20
167.5627374021
 11
86.8643074174
 21
167.3778111501
  0
LINE
  5
222
100
AcDbEntity
  8
0
100
AcDbLine
 62
7
  6
CONTINUOUS
 10
87.1581516628
 20
167.7468795121
 11
86.9740095528
 21
167.5627374021
  0
LINE
  5
223
100
AcDbEntity
  8
0
100
AcDbLine
 62
7
  6
CONTINUOUS
 10
85.5745272412
 20
166.1632550906
 11
84.6906437648
 21
165.2793716141
  0
LINE
  5
224
100
AcDbEntity
  8
0
100
AcDbLine
 62
7
  6
CONTINUOUS
 10
84.3960159041
 20
164.9847437535
 11
84.175045035
 21
164.7637728843
  0
LINE
  5
225
100
AcDbEntity
  8
0
100
AcDbLine
 62
7
  6
CONTINUOUS
 10
83.1438476809
 20
163.7325755302
 11
82.9228768118
 21
163.5116046611
  0
LINE
  5
226
100
AcDbEntity
  8
0
100
AcDbLine
 62
7
  6
CONTINUOUS
 10
85.0996749256
 20
165.3122821915
 11
85.7994160814
 21
166.0120233473
  0
LINE
  5
227
100
AcDbEntity
  8
0
100
AcDbLine
 62
7
  6
CONTINUOUS
 10
87.1996819029
 20
167.3370650521
 11
87.420652772
 21
167.5580359212
  0
LINE
  5
228
100
AcDbEntity
  8
0
100
AcDbLine
 62
7
  6
CONTINUOUS
 10
87.8296839329
 20
167.5909464986
 11
88.050654802
 21
167.8119173677
  0
LINE
  5
229
100
AcDbEntity
  8
0
100
AcDbLine
 62
7
  6
CONTINUOUS
 10
87.9472216942
 20
167.031466999
 11
87.7262508251
 21
166.8104961299
  0
LINE
  5
22A
100
AcDbEntity
  8
0
100
AcDbLine
 62
7
  6
CONTINUOUS
 10
86.3635970619
 20
165.4478423667
 11
85.6638559061
 21
164.7481012109
  0
LINE
  5
22B
100
AcDbEntity
  8
0
100
AcDbLine
 62
7
  6
CONTINUOUS
 10
85.8895282562
 20
164.5224288608
 11
86.5156123152
 21
165.1485129198
  0
LINE
  5
22C
100
AcDbEntity
  8
0
100
AcDbLine
 62
7
  6
CONTINUOUS
 10
87.9519231752
 20
166.5848237798
 11
88.1728940443
 21
166.8057946489
  0
LINE
  5
22D
100
AcDbEntity
  8
0
100
AcDbLine
 62
7
  6
CONTINUOUS
 10
87.8845346318
 20
165.9156421975
 11
87.6635639734
 21
165.6946715391
  0
LINE
  5
22E
100
AcDbEntity
  8
0
100
AcDbLine
 62
7
  6
CONTINUOUS
 10
88.7370749985
 20
166.2416136947
 11
88.4424470325
 21
165.9469857287
  0
LINE
  5
22F
100
AcDbEntity
  8
0
100
AcDbLine
 62
7
  6
CONTINUOUS
 10
85.2798994333
 20
162.3330933767
 11
85.5745272412
 21
162.6277211846
  0
LINE
  5
230
100
AcDbEntity
  8
0
100
AcDbLine
 62
7
  6
CONTINUOUS
 10
86.4584107177
 20
163.5116046611
 11
86.6793815868
 21
163.7325755302
  0
LINE
  5
231
100
AcDbEntity
  8
0
100
AcDbLine
 62
7
  6
CONTINUOUS
 10
87.6000936118
 20
164.6532875551
 11
87.8578928186
 21
164.911086762
  0
LINE
  5
232
100
AcDbEntity
  8
0
100
AcDbLine
 62
7
  6
CONTINUOUS
 10
88.6681194089
 20
165.7213133523
 11
88.9627473749
 21
166.0159413183
  0
LINE
  5
233
100
AcDbEntity
  8
0
100
AcDbLine
 62
7
  6
CONTINUOUS
 10
85.7962816203
 20
166.3097853529
 11
85.5745272412
 21
166.1632550906
  0
LINE
  5
234
100
AcDbEntity
  8
0
100
AcDbLine
 62
7
  6
CONTINUOUS
 10
88.1689758625
 20
167.1779970506
 11
87.9472216942
 21
167.031466999
  0
LINE
  5
235
100
AcDbEntity
  8
0
100
AcDbLine
 62
7
  6
CONTINUOUS
 10
88.4463648159
 20
165.5747828825
 11
88.6681194089
 21
165.7213133523
  0
LINE
  5
236
100
AcDbEntity
  8
0
100
AcDbLine
 62
7
  6
CONTINUOUS
 10
88.1728940443
 20
166.8057946489
 11
88.3578198749
 21
166.9154963628
  0
LINE
  5
237
100
AcDbEntity
  8
0
100
AcDbLine
 62
7
  6
CONTINUOUS
 10
87.7669969231
 20
166.4751216444
 11
87.9519231752
 21
166.5848237798
  0
LINE
  5
238
100
AcDbEntity
  8
0
100
AcDbLine
 62
7
  6
CONTINUOUS
 10
88.4424470325
 20
165.9469857287
 11
88.2575212019
 21
165.8372840148
  0
LINE
  5
239
100
AcDbEntity
  8
0
100
AcDbLine
 62
7
  6
CONTINUOUS
 10
96.8951714362
 20
170.2122451735
 11
97.1035047199
 21
170.3186281395
  0
LINE
  5
23A
100
AcDbEntity
  8
0
100
AcDbLine
 62
7
  6
CONTINUOUS
 10
87.420652772
 20
167.5580359212
 11
87.5687502649
 21
167.6309092974
  0
LINE
  5
23B
100
AcDbEntity
  8
0
100
AcDbLine
 62
7
  6
CONTINUOUS
 10
85.7994160814
 20
166.0120233473
 11
85.9475135743
 21
166.0848967235
  0
LINE
  5
23C
100
AcDbEntity
  8
0
100
AcDbLine
 62
7
  6
CONTINUOUS
 10
87.7262508251
 20
166.8104961299
 11
87.5781533322
 21
166.7376227537
  0
LINE
  5
23D
100
AcDbEntity
  8
0
100
AcDbLine
 62
7
  6
CONTINUOUS
 10
96.8430880036
 20
170.4782025886
 11
96.6868380036
 21
170.4250111056
  0
LINE
  5
23E
100
AcDbEntity
  8
0
100
AcDbLine
 62
7
  6
CONTINUOUS
 10
88.3915141729
 20
167.2500871276
 11
88.1689758625
 21
167.1779970506
  0
LINE
  5
23F
100
AcDbEntity
  8
0
100
AcDbLine
 62
7
  6
CONTINUOUS
 10
87.5444590341
 20
166.4030319889
 11
87.7669969231
 21
166.4751216444
  0
LINE
  5
240
100
AcDbEntity
  8
KONSTRUKTIONSELEMENTE
100
AcDbLine
 62
7
  6
CONTINUOUS
 10
90.6203132015
 20
130.288840915
 11
106.9200283001
 21
130.288840915
  0
LINE
  5
241
100
AcDbEntity
  8
BEZUGSACHSEN
100
AcDbLine
 62
7
  6
CONTINUOUS
 10
111.2701707508
 20
130.488840915
 11
86.2701707508
 21
130.488840915
  0
LINE
  5
242
100
AcDbEntity
  8
BEZUGSACHSEN
100
AcDbLine
 62
7
  6
CONTINUOUS
 10
82.3753272503
 20
135.3651744876
 11
82.1655902711
 21
135.8715243474
  0
LINE
  5
243
100
AcDbEntity
  8
BEZUGSACHSEN
100
AcDbLine
 62
7
  6
CONTINUOUS
 10
79.1940502833
 20
143.0454564872
 11
75.5140905663
 21
151.9296651448
  0
LINE
  5
244
100
AcDbEntity
  8
0
100
AcDbLine
 62
7
  6
CONTINUOUS
 10
86.8643074174
 20
167.3778111501
 11
86.7922177619
 21
167.1552732611
  0
LINE
  5
245
100
AcDbEntity
  8
0
100
AcDbLine
 62
7
  6
CONTINUOUS
 10
86.6613590676
 20
165.4447079056
 11
86.7334489339
 21
165.6672460053
  0
LINE
  5
246
100
AcDbEntity
  8
0
100
AcDbLine
 62
7
  6
CONTINUOUS
 10
87.1268085267
 20
167.1889675592
 11
87.1996819029
 21
167.3370650521
  0
LINE
  5
247
100
AcDbEntity
  8
0
100
AcDbLine
 62
7
  6
CONTINUOUS
 10
86.4364704382
 20
165.5959398596
 11
86.3635970619
 21
165.4478423667
  0
LINE
  5
248
100
AcDbEntity
  8
0
100
AcDbLine
 62
7
  6
CONTINUOUS
 10
88.8467767124
 20
166.4265395253
 11
88.7370749985
 21
166.2416136947
  0
LINE
  5
249
100
AcDbEntity
  8
0
100
AcDbLine
 62
7
  6
CONTINUOUS
 10
88.9627473749
 20
166.0159413183
 11
89.1092774232
 21
166.2376954899
  0
LINE
  5
24A
100
AcDbEntity
  8
0
100
AcDbLine
 62
7
  6
CONTINUOUS
 10
96.9472547199
 20
170.5845855547
 11
96.8430880036
 21
170.4782025886
  0
LINE
  5
24B
100
AcDbEntity
  8
0
100
AcDbLine
 62
7
  6
CONTINUOUS
 10
99.1868381526
 20
169.4675643367
 11
99.0305881526
 21
169.3611813334
  0
LINE
  5
24C
100
AcDbEntity
  8
0
100
AcDbLine
 62
7
  6
CONTINUOUS
 10
99.0826712872
 20
169.0420324027
 11
99.2910047199
 21
169.1484153827
  0
LINE
  5
24D
100
AcDbEntity
  8
0
100
AcDbLine
 62
7
  6
CONTINUOUS
 10
101.5826715852
 20
169.0420324027
 11
101.7910047199
 21
169.1484153827
  0
LINE
  5
24E
100
AcDbEntity
  8
0
100
AcDbLine
 62
7
  6
CONTINUOUS
 10
100.3951707508
 20
133.488840915
 11
100.7285037662
 21
133.5739472953
  0
LINE
  5
24F
100
AcDbEntity
  8
0
100
AcDbLine
 62
7
  6
CONTINUOUS
 10
100.7285037662
 20
133.9994792116
 11
100.3118372585
 21
133.9143728388
  0
LINE
  5
250
100
AcDbEntity
  8
0
100
AcDbLine
 62
7
  6
CONTINUOUS
 10
96.9785040046
 20
132.9782026184
 11
97.3951707508
 21
132.9782026184
  0
LINE
  5
251
100
AcDbEntity
  8
0
100
AcDbLine
 62
7
  6
CONTINUOUS
 10
99.7285037662
 20
133.488840915
 11
100.3951707508
 21
133.488840915
  0
LINE
  5
252
100
AcDbEntity
  8
0
100
AcDbLine
 62
7
  6
CONTINUOUS
 10
100.3118372585
 20
133.9143728388
 11
99.8118372585
 21
133.9143728388
  0
LINE
  5
253
100
AcDbEntity
  8
0
100
AcDbLine
 62
7
  6
CONTINUOUS
 10
97.8951707508
 20
133.9143728388
 11
97.4785037662
 21
133.9143728388
  0
LINE
  5
254
100
AcDbEntity
  8
0
100
AcDbLine
 62
7
  6
CONTINUOUS
 10
94.3118372585
 20
133.5739472953
 11
94.8118372585
 21
133.488840915
  0
LINE
  5
255
100
AcDbEntity
  8
0
100
AcDbLine
 62
7
  6
CONTINUOUS
 10
94.8118372585
 20
133.9143728388
 11
94.3951706316
 21
133.9994792116
  0
LINE
  5
256
100
AcDbEntity
  8
0
100
AcDbLine
 62
7
  6
CONTINUOUS
 10
93.895170572
 20
133.8292664362
 11
94.3118372585
 21
133.5739472953
  0
LINE
  5
257
100
AcDbEntity
  8
0
100
AcDbLine
 62
7
  6
CONTINUOUS
 10
86.4349032076
 20
165.7448208624
 11
86.4364704382
 21
165.5959398596
  0
LINE
  5
258
100
AcDbEntity
  8
0
100
AcDbLine
 62
7
  6
CONTINUOUS
 10
87.0915472088
 20
167.0032580079
 11
87.1268085267
 21
167.1889675592
  0
LINE
  5
259
100
AcDbEntity
  8
0
100
AcDbLine
 62
7
  6
CONTINUOUS
 10
88.8820380039
 20
166.6122491029
 11
88.8467767124
 21
166.4265395253
  0
LINE
  5
25A
100
AcDbEntity
  8
0
100
AcDbLine
 62
7
  6
CONTINUOUS
 10
89.1092774232
 20
166.2376954899
 11
89.1813674904
 21
166.4602338102
  0
LINE
  5
25B
100
AcDbEntity
  8
0
100
AcDbLine
 62
7
  6
CONTINUOUS
 10
97.1035047199
 20
170.3186281395
 11
97.2597547199
 21
170.5313940716
  0
LINE
  5
25C
100
AcDbEntity
  8
0
100
AcDbLine
 62
7
  6
CONTINUOUS
 10
99.2910047199
 20
169.1484153827
 11
99.4993381526
 21
169.3611813334
  0
LINE
  5
25D
100
AcDbEntity
  8
0
100
AcDbLine
 62
7
  6
CONTINUOUS
 10
101.6868378545
 20
169.4675643367
 11
101.5305878545
 21
169.3611813334
  0
LINE
  5
25E
100
AcDbEntity
  8
0
100
AcDbLine
 62
7
  6
CONTINUOUS
 10
95.2285038854
 20
133.9994792116
 11
94.8118372585
 21
133.9143728388
  0
LINE
  5
25F
100
AcDbEntity
  8
0
100
AcDbLine
 62
7
  6
CONTINUOUS
 10
99.4785037662
 20
136.978202678
 11
99.8951707508
 21
137.0633090508
  0
LINE
  5
260
100
AcDbEntity
  8
0
100
AcDbLine
 62
7
  6
CONTINUOUS
 10
94.8118372585
 20
133.488840915
 11
95.3118372585
 21
133.5739472953
  0
LINE
  5
261
100
AcDbEntity
  8
0
100
AcDbLine
 62
7
  6
CONTINUOUS
 10
98.9785037662
 20
134.4250111354
 11
98.5618372585
 21
134.4250111354
  0
LINE
  5
262
100
AcDbEntity
  8
0
100
AcDbLine
 62
7
  6
CONTINUOUS
 10
99.8951707508
 20
135.3611813558
 11
100.2285037662
 21
135.3611813558
  0
LINE
  5
263
100
AcDbEntity
  8
0
100
AcDbLine
 62
7
  6
CONTINUOUS
 10
100.2285037662
 20
135.7016068471
 11
99.8951707508
 21
135.7016068471
  0
LINE
  5
264
100
AcDbEntity
  8
0
100
AcDbLine
 62
7
  6
CONTINUOUS
 10
102.2285042431
 20
135.8718195928
 11
102.8951702739
 21
135.8718195928
  0
LINE
  5
265
100
AcDbEntity
  8
0
100
AcDbLine
 62
7
  6
CONTINUOUS
 10
103.3118372585
 20
135.8718195928
 11
104.2285042431
 21
135.8718195928
  0
LINE
  5
266
100
AcDbEntity
  8
0
100
AcDbLine
 62
7
  6
CONTINUOUS
 10
104.2285042431
 20
136.2122450841
 11
103.3118372585
 21
136.2122450841
  0
LINE
  5
267
100
AcDbEntity
  8
0
100
AcDbLine
 62
7
  6
CONTINUOUS
 10
102.8951702739
 20
136.2122450841
 11
102.2285042431
 21
136.2122450841
  0
LINE
  5
268
100
AcDbEntity
  8
0
100
AcDbLine
 62
7
  6
CONTINUOUS
 10
80.2701707508
 20
136.488840915
 11
81.2417107386
 21
136.488840915
  0
LINE
  5
269
100
AcDbEntity
  8
0
100
AcDbLine
 62
7
  6
CONTINUOUS
 10
116.2986307629
 20
136.488840915
 11
117.2701707508
 21
136.488840915
  0
LINE
  5
26A
100
AcDbEntity
  8
0
100
AcDbLine
 62
7
  6
CONTINUOUS
 10
98.6451707508
 20
136.5526708138
 11
99.0618372585
 21
136.5526708138
  0
LINE
  5
26B
100
AcDbEntity
  8
0
100
AcDbLine
 62
7
  6
CONTINUOUS
 10
103.3118372585
 20
136.8930963052
 11
102.8951702739
 21
136.8930963052
  0
LINE
  5
26C
100
AcDbEntity
  8
0
100
AcDbLine
 62
7
  6
CONTINUOUS
 10
99.8951707508
 20
137.0633090508
 11
100.2285037662
 21
137.0633090508
  0
LINE
  5
26D
100
AcDbEntity
  8
0
100
AcDbLine
 62
7
  6
CONTINUOUS
 10
103.5618372585
 20
133.5739472953
 11
104.0618372585
 21
133.488840915
  0
LINE
  5
26E
100
AcDbEntity
  8
0
100
AcDbLine
 62
7
  6
CONTINUOUS
 10
100.2285037662
 20
135.3611813558
 11
100.7285037662
 21
135.2760749829
  0
LINE
  5
26F
100
AcDbEntity
  8
0
100
AcDbLine
 62
7
  6
CONTINUOUS
 10
95.3118372585
 20
137.4037345422
 11
94.8118372585
 21
137.488840915
  0
LINE
  5
270
100
AcDbEntity
  8
0
100
AcDbLine
 62
7
  6
CONTINUOUS
 10
99.8118372585
 20
133.9143728388
 11
99.3951707508
 21
133.9994792116
  0
LINE
  5
271
100
AcDbEntity
  8
0
100
AcDbLine
 62
7
  6
CONTINUOUS
 10
104.0618372585
 20
133.8292664362
 11
103.6451702739
 21
133.9143728388
  0
LINE
  5
272
100
AcDbEntity
  8
0
100
AcDbLine
 62
7
  6
CONTINUOUS
 10
94.8118372585
 20
137.0633090508
 11
95.2285038854
 21
136.978202678
  0
LINE
  5
273
100
AcDbEntity
  8
0
100
AcDbLine
 62
7
  6
CONTINUOUS
 10
99.3951707508
 20
133.5739472953
 11
99.7285037662
 21
133.488840915
  0
LINE
  5
274
100
AcDbEntity
  8
0
100
AcDbLine
 62
7
  6
CONTINUOUS
 10
103.3118372585
 20
133.6590536756
 11
103.5618372585
 21
133.5739472953
  0
LINE
  5
275
100
AcDbEntity
  8
0
100
AcDbLine
 62
7
  6
CONTINUOUS
 10
99.0618372585
 20
133.7441600633
 11
99.3951707508
 21
133.5739472953
  0
LINE
  5
276
100
AcDbEntity
  8
0
100
AcDbLine
 62
7
  6
CONTINUOUS
 10
99.3951707508
 20
133.9994792116
 11
99.2285037662
 21
134.0845855845
  0
LINE
  5
277
100
AcDbEntity
  8
0
100
AcDbLine
 62
7
  6
CONTINUOUS
 10
94.3951706316
 20
133.9994792116
 11
94.145170572
 21
134.1696919573
  0
LINE
  5
278
100
AcDbEntity
  8
0
100
AcDbLine
 62
7
  6
CONTINUOUS
 10
98.8118372585
 20
133.9143728388
 11
99.0618372585
 21
133.7441600633
  0
LINE
  5
279
100
AcDbEntity
  8
0
100
AcDbLine
 62
7
  6
CONTINUOUS
 10
95.2285038854
 20
136.978202678
 11
95.4785040046
 21
136.8079899323
  0
LINE
  5
27A
100
AcDbEntity
  8
0
100
AcDbLine
 62
7
  6
CONTINUOUS
 10
93.6451706018
 20
134.0845855845
 11
93.895170572
 21
133.8292664362
  0
LINE
  5
27B
100
AcDbEntity
  8
0
100
AcDbLine
 62
7
  6
CONTINUOUS
 10
94.145170572
 20
134.1696919573
 11
93.8118372585
 21
134.6803302539
  0
LINE
  5
27C
100
AcDbEntity
  8
0
100
AcDbLine
 62
7
  6
CONTINUOUS
 10
86.7922177619
 20
167.1552732611
 11
86.795352223
 21
166.8575112555
  0
LINE
  5
27D
100
AcDbEntity
  8
0
100
AcDbLine
 62
7
  6
CONTINUOUS
 10
89.1813674904
 20
166.4602338102
 11
89.1782330161
 21
166.757995829
  0
LINE
  5
27E
100
AcDbEntity
  8
0
100
AcDbLine
 62
7
  6
CONTINUOUS
 10
99.2910047199
 20
169.6271387858
 11
99.1868381526
 21
169.4675643367
  0
LINE
  5
27F
100
AcDbEntity
  8
0
100
AcDbLine
 62
7
  6
CONTINUOUS
 10
101.7910047199
 20
169.1484153827
 11
101.9993378545
 21
169.3611813334
  0
LINE
  5
280
100
AcDbEntity
  8
0
100
AcDbLine
 62
7
  6
CONTINUOUS
 10
94.3951706316
 20
136.978202678
 11
94.8118372585
 21
137.0633090508
  0
LINE
  5
281
100
AcDbEntity
  8
0
100
AcDbLine
 62
7
  6
CONTINUOUS
 10
94.8118372585
 20
137.488840915
 11
94.3118372585
 21
137.4037345422
  0
LINE
  5
282
100
AcDbEntity
  8
0
100
AcDbLine
 62
7
  6
CONTINUOUS
 10
99.9785037662
 20
137.488840915
 11
99.3951707508
 21
137.4037345422
  0
LINE
  5
283
100
AcDbEntity
  8
0
100
AcDbLine
 62
7
  6
CONTINUOUS
 10
100.1451707508
 20
137.488840915
 11
99.9785037662
 21
137.488840915
  0
LINE
  5
284
100
AcDbEntity
  8
0
100
AcDbLine
 62
7
  6
CONTINUOUS
 10
100.7285037662
 20
137.4037345422
 11
100.1451707508
 21
137.488840915
  0
LINE
  5
285
100
AcDbEntity
  8
0
100
AcDbLine
 62
7
  6
CONTINUOUS
 10
100.2285037662
 20
137.0633090508
 11
100.6451707508
 21
136.978202678
  0
LINE
  5
286
100
AcDbEntity
  8
0
100
AcDbLine
 62
7
  6
CONTINUOUS
 10
101.3118372585
 20
135.3611813558
 11
100.8951707508
 21
135.5313941014
  0
LINE
  5
287
100
AcDbEntity
  8
0
100
AcDbLine
 62
7
  6
CONTINUOUS
 10
101.0618372585
 20
137.2335217965
 11
100.7285037662
 21
137.4037345422
  0
LINE
  5
288
100
AcDbEntity
  8
0
100
AcDbLine
 62
7
  6
CONTINUOUS
 10
95.7285040046
 20
137.1484154237
 11
95.3118372585
 21
137.4037345422
  0
LINE
  5
289
100
AcDbEntity
  8
0
100
AcDbLine
 62
7
  6
CONTINUOUS
 10
100.7285037662
 20
135.2760749829
 11
100.9785037662
 21
135.1058622373
  0
LINE
  5
28A
100
AcDbEntity
  8
0
100
AcDbLine
 62
7
  6
CONTINUOUS
 10
103.0618372585
 20
133.8292664362
 11
103.3118372585
 21
133.6590536756
  0
LINE
  5
28B
100
AcDbEntity
  8
0
100
AcDbLine
 62
7
  6
CONTINUOUS
 10
103.6451702739
 20
133.9143728388
 11
103.3951702739
 21
134.0845855845
  0
LINE
  5
28C
100
AcDbEntity
  8
0
100
AcDbLine
 62
7
  6
CONTINUOUS
 10
100.6451707508
 20
136.978202678
 11
100.8951707508
 21
136.8079899323
  0
LINE
  5
28D
100
AcDbEntity
  8
0
100
AcDbLine
 62
7
  6
CONTINUOUS
 10
95.9785040046
 20
136.8930963052
 11
95.7285040046
 21
137.1484154237
  0
LINE
  5
28E
100
AcDbEntity
  8
0
100
AcDbLine
 62
7
  6
CONTINUOUS
 10
99.2285037662
 20
134.0845855845
 11
99.0618372585
 21
134.2547983897
  0
LINE
  5
28F
100
AcDbEntity
  8
0
100
AcDbLine
 62
7
  6
CONTINUOUS
 10
95.4785040046
 20
136.8079899323
 11
95.8118372585
 21
136.2973514569
  0
LINE
  5
290
100
AcDbEntity
  8
0
100
AcDbLine
 62
7
  6
CONTINUOUS
 10
93.4785039301
 20
134.4250111354
 11
93.6451706018
 21
134.0845855845
  0
LINE
  5
291
100
AcDbEntity
  8
0
100
AcDbLine
 62
7
  6
CONTINUOUS
 10
93.3951705943
 20
134.6803302539
 11
93.4785039301
 21
134.4250111354
  0
LINE
  5
292
100
AcDbEntity
  8
0
100
AcDbLine
 62
7
  6
CONTINUOUS
 10
86.7334489339
 20
165.6672460053
 11
86.6934861351
 21
165.9281796732
  0
LINE
  5
293
100
AcDbEntity
  8
KONSTRUKTIONSELEMENTE
100
AcDbLine
 62
7
  6
CONTINUOUS
 10
90.6201707508
 20
130.488840915
 11
90.6201707508
 21
130.288840915
  0
LINE
  5
294
100
AcDbEntity
  8
0
100
AcDbLine
 62
7
  6
CONTINUOUS
 10
96.9993380036
 20
170.7441600037
 11
96.9472547199
 21
170.5845855547
  0
LINE
  5
295
100
AcDbEntity
  8
0
100
AcDbLine
 62
7
  6
CONTINUOUS
 10
97.2597547199
 20
170.5313940716
 11
97.3118380036
 21
170.6909685207
  0
LINE
  5
296
100
AcDbEntity
  8
0
100
AcDbLine
 62
7
  6
CONTINUOUS
 10
99.4993381526
 20
169.3611813334
 11
99.6035047199
 21
169.5739473028
  0
LINE
  5
297
100
AcDbEntity
  8
0
100
AcDbLine
 62
7
  6
CONTINUOUS
 10
101.9993378545
 20
169.3611813334
 11
102.1035047199
 21
169.5739473028
  0
LINE
  5
298
100
AcDbEntity
  8
0
100
AcDbLine
 62
7
  6
CONTINUOUS
 10
101.7910047199
 20
169.6271387858
 11
101.6868378545
 21
169.4675643367
  0
LINE
  5
299
100
AcDbEntity
  8
0
100
AcDbLine
 62
7
  6
CONTINUOUS
 10
101.3951702739
 20
136.8930963052
 11
101.0618372585
 21
137.2335217965
  0
LINE
  5
29A
100
AcDbEntity
  8
0
100
AcDbLine
 62
7
  6
CONTINUOUS
 10
98.6451707508
 20
134.1696919573
 11
98.8118372585
 21
133.9143728388
  0
LINE
  5
29B
100
AcDbEntity
  8
0
100
AcDbLine
 62
7
  6
CONTINUOUS
 10
85.5745272412
 20
162.6277211846
 11
84.3960159041
 21
164.9847437535
  0
LINE
  5
29C
100
AcDbEntity
  8
0
100
AcDbLine
 62
7
  6
CONTINUOUS
 10
84.175045035
 20
164.7637728843
 11
85.2015409345
 21
162.7060796307
  0
LINE
  5
29D
100
AcDbEntity
  8
0
100
AcDbLine
 62
7
  6
CONTINUOUS
 10
96.1451705124
 20
136.5526708138
 11
95.9785040046
 21
136.8930963052
  0
LINE
  5
29E
100
AcDbEntity
  8
0
100
AcDbLine
 62
7
  6
CONTINUOUS
 10
99.0618372585
 20
134.2547983897
 11
98.9785037662
 21
134.4250111354
  0
LINE
  5
29F
100
AcDbEntity
  8
0
100
AcDbLine
 62
7
  6
CONTINUOUS
 10
96.2285040046
 20
136.2973514569
 11
96.1451705124
 21
136.5526708138
  0
LINE
  5
2A0
100
AcDbEntity
  8
0
100
AcDbLine
 62
7
  6
CONTINUOUS
 10
88.8428589258
 20
166.7987423748
 11
88.8820380039
 21
166.6122491029
  0
LINE
  5
2A1
100
AcDbEntity
  8
0
100
AcDbLine
 62
7
  6
CONTINUOUS
 10
93.3118372585
 20
135.1058622373
 11
93.3951705943
 21
134.6803302539
  0
LINE
  5
2A2
100
AcDbEntity
  8
0
100
AcDbLine
 62
7
  6
CONTINUOUS
 10
93.8118372585
 20
134.6803302539
 11
93.7285039152
 21
135.1909686101
  0
LINE
  5
2A3
100
AcDbEntity
  8
0
100
AcDbLine
 62
7
  6
CONTINUOUS
 10
93.3118372585
 20
135.8718195928
 11
93.3118372585
 21
135.1058622373
  0
LINE
  5
2A4
100
AcDbEntity
  8
0
100
AcDbLine
 62
7
  6
CONTINUOUS
 10
93.7285039152
 20
135.1909686101
 11
93.7285039152
 21
135.7867132199
  0
LINE
  5
2A5
100
AcDbEntity
  8
KONSTRUKTIONSELEMENTE
100
AcDbLine
 62
7
  6
CONTINUOUS
 10
94.7701707508
 20
130.288840915
 11
94.7701707508
 21
119.088840915
  0
LINE
  5
2A6
100
AcDbEntity
  8
0
100
AcDbLine
 62
7
  6
CONTINUOUS
 10
95.3847547199
 20
171.488840915
 11
95.3847547199
 21
168.988840915
  0
LINE
  5
2A7
100
AcDbEntity
  8
0
100
AcDbLine
 62
7
  6
CONTINUOUS
 10
95.6972547199
 20
168.988840915
 11
95.6972547199
 21
170.1058622075
  0
LINE
  5
2A8
100
AcDbEntity
  8
0
100
AcDbLine
 62
7
  6
CONTINUOUS
 10
95.6972547199
 20
170.4250111056
 11
95.6972547199
 21
171.2228834999
  0
LINE
  5
2A9
100
AcDbEntity
  8
0
100
AcDbLine
 62
7
  6
CONTINUOUS
 10
95.8951705124
 20
135.7867132199
 11
95.8951705124
 21
135.1909686101
  0
LINE
  5
2AA
100
AcDbEntity
  8
0
100
AcDbLine
 62
7
  6
CONTINUOUS
 10
93.7285039152
 20
135.7867132199
 11
93.8118372585
 21
136.2973514569
  0
LINE
  5
2AB
100
AcDbEntity
  8
0
100
AcDbLine
 62
7
  6
CONTINUOUS
 10
99.6035047199
 20
169.5739473028
 11
99.6555881526
 21
169.8399047179
  0
LINE
  5
2AC
100
AcDbEntity
  8
0
100
AcDbLine
 62
7
  6
CONTINUOUS
 10
93.3951705943
 20
136.2973514569
 11
93.3118372585
 21
135.8718195928
  0
LINE
  5
2AD
100
AcDbEntity
  8
0
100
AcDbLine
 62
7
  6
CONTINUOUS
 10
99.3430881526
 20
169.8399047179
 11
99.2910047199
 21
169.6271387858
  0
LINE
  5
2AE
100
AcDbEntity
  8
0
100
AcDbLine
 62
7
  6
CONTINUOUS
 10
101.4785042431
 20
135.1058622373
 11
101.3118372585
 21
135.3611813558
  0
LINE
  5
2AF
100
AcDbEntity
  8
0
100
AcDbLine
 62
7
  6
CONTINUOUS
 10
100.8951707508
 20
136.8079899323
 11
101.0618372585
 21
136.5526708138
  0
LINE
  5
2B0
100
AcDbEntity
  8
0
100
AcDbLine
 62
7
  6
CONTINUOUS
 10
86.358895581
 20
165.8944855859
 11
86.4349032076
 21
165.7448208624
  0
LINE
  5
2B1
100
AcDbEntity
  8
0
100
AcDbLine
 62
7
  6
CONTINUOUS
 10
86.6934861351
 20
165.9281796732
 11
86.6174785085
 21
166.0778443967
  0
LINE
  5
2B2
100
AcDbEntity
  8
0
100
AcDbLine
 62
7
  6
CONTINUOUS
 10
100.9785037662
 20
135.1058622373
 11
101.1451707508
 21
134.7654366267
  0
LINE
  5
2B3
100
AcDbEntity
  8
0
100
AcDbLine
 62
7
  6
CONTINUOUS
 10
102.8951702739
 20
134.1696919573
 11
103.0618372585
 21
133.8292664362
  0
LINE
  5
2B4
100
AcDbEntity
  8
0
100
AcDbLine
 62
7
  6
CONTINUOUS
 10
89.1782330161
 20
166.757995829
 11
89.1014418532
 21
166.9821011856
  0
LINE
  5
2B5
100
AcDbEntity
  8
0
100
AcDbLine
 62
7
  6
CONTINUOUS
 10
98.5618372585
 20
134.4250111354
 11
98.6451707508
 21
134.1696919573
  0
LINE
  5
2B6
100
AcDbEntity
  8
0
100
AcDbLine
 62
7
  6
CONTINUOUS
 10
96.3118372585
 20
135.8718195928
 11
96.2285040046
 21
136.2973514569
  0
LINE
  5
2B7
100
AcDbEntity
  8
0
100
AcDbLine
 62
7
  6
CONTINUOUS
 10
95.8118372585
 20
136.2973514569
 11
95.8951705124
 21
135.7867132199
  0
LINE
  5
2B8
100
AcDbEntity
  8
0
100
AcDbLine
 62
7
  6
CONTINUOUS
 10
96.3118372585
 20
135.1058622373
 11
96.3118372585
 21
135.8718195928
  0
LINE
  5
2B9
100
AcDbEntity
  8
0
100
AcDbLine
 62
7
  6
CONTINUOUS
 10
96.9993380036
 20
170.9037346018
 11
96.9993380036
 21
170.7441600037
  0
LINE
  5
2BA
100
AcDbEntity
  8
0
100
AcDbLine
 62
7
  6
CONTINUOUS
 10
97.3118380036
 20
170.6909685207
 11
97.3118380036
 21
170.9037346018
  0
LINE
  5
2BB
100
AcDbEntity
  8
0
100
AcDbLine
 62
7
  6
CONTINUOUS
 10
97.7805880036
 20
171.488840915
 11
97.7805880036
 21
169.8399047179
  0
LINE
  5
2BC
100
AcDbEntity
  8
0
100
AcDbLine
 62
7
  6
CONTINUOUS
 10
98.0930881526
 20
169.8399047179
 11
98.0930881526
 21
171.488840915
  0
LINE
  5
2BD
100
AcDbEntity
  8
0
100
AcDbLine
 62
7
  6
CONTINUOUS
 10
95.8951705124
 20
135.1909686101
 11
95.8118372585
 21
134.6803302539
  0
LINE
  5
2BE
100
AcDbEntity
  8
0
100
AcDbLine
 62
7
  6
CONTINUOUS
 10
102.1035047199
 20
169.5739473028
 11
102.1555878545
 21
169.8399047179
  0
LINE
  5
2BF
100
AcDbEntity
  8
0
100
AcDbLine
 62
7
  6
CONTINUOUS
 10
96.2285040046
 20
134.6803302539
 11
96.3118372585
 21
135.1058622373
  0
LINE
  5
2C0
100
AcDbEntity
  8
0
100
AcDbLine
 62
7
  6
CONTINUOUS
 10
101.8430878545
 20
169.8399047179
 11
101.7910047199
 21
169.6271387858
  0
LINE
  5
2C1
100
AcDbEntity
  8
0
100
AcDbLine
 62
7
  6
CONTINUOUS
 10
93.4785039301
 20
136.5526708138
 11
93.3951705943
 21
136.2973514569
  0
LINE
  5
2C2
100
AcDbEntity
  8
0
100
AcDbLine
 62
7
  6
CONTINUOUS
 10
110.4830041933
 20
164.8272241077
 11
110.7466679511
 21
165.0908878655
  0
LINE
  5
2C3
100
AcDbEntity
  8
0
100
AcDbLine
 62
7
  6
CONTINUOUS
 10
111.9775213136
 20
166.321741228
 11
112.2411850714
 21
166.5854049858
  0
LINE
  5
2C4
100
AcDbEntity
  8
0
100
AcDbLine
 62
7
  6
CONTINUOUS
 10
112.5438965808
 20
164.2558120215
 11
112.8075603386
 21
164.5194757792
  0
LINE
  5
2C5
100
AcDbEntity
  8
0
100
AcDbLine
 62
7
  6
CONTINUOUS
 10
111.9830041933
 20
163.3272241077
 11
112.2466679511
 21
163.5908878655
  0
LINE
  5
2C6
100
AcDbEntity
  8
0
100
AcDbLine
 62
7
  6
CONTINUOUS
 10
113.4775213136
 20
164.821741228
 11
113.7411850714
 21
165.0854049858
  0
LINE
  5
2C7
100
AcDbEntity
  8
0
100
AcDbLine
 62
7
  6
CONTINUOUS
 10
86.795352223
 20
166.8575112555
 11
86.9089716972
 21
166.6702342629
  0
LINE
  5
2C8
100
AcDbEntity
  8
0
100
AcDbLine
 62
7
  6
CONTINUOUS
 10
87.16755473
 20
166.8535929683
 11
87.0915472088
 21
167.0032580079
  0
LINE
  5
2C9
100
AcDbEntity
  8
0
100
AcDbLine
 62
7
  6
CONTINUOUS
 10
103.3951702739
 20
134.0845855845
 11
103.3118372585
 21
134.3399047626
  0
LINE
  5
2CA
100
AcDbEntity
  8
0
100
AcDbLine
 62
7
  6
CONTINUOUS
 10
101.5618372585
 20
134.7654366267
 11
101.4785042431
 21
135.1058622373
  0
LINE
  5
2CB
100
AcDbEntity
  8
0
100
AcDbLine
 62
7
  6
CONTINUOUS
 10
101.4785042431
 20
136.5526708138
 11
101.3951702739
 21
136.8930963052
  0
LINE
  5
2CC
100
AcDbEntity
  8
0
100
AcDbLine
 62
7
  6
CONTINUOUS
 10
99.3430881526
 20
171.488840915
 11
99.3430881526
 21
169.8399047179
  0
LINE
  5
2CD
100
AcDbEntity
  8
0
100
AcDbLine
 62
7
  6
CONTINUOUS
 10
99.6555881526
 20
169.8399047179
 11
99.6555881526
 21
171.488840915
  0
LINE
  5
2CE
100
AcDbEntity
  8
0
100
AcDbLine
 62
7
  6
CONTINUOUS
 10
99.8951707508
 20
135.7016068471
 11
99.8951707508
 21
135.3611813558
  0
LINE
  5
2CF
100
AcDbEntity
  8
0
100
AcDbLine
 62
7
  6
CONTINUOUS
 10
100.0722547199
 20
171.488840915
 11
100.0722547199
 21
168.988840915
  0
LINE
  5
2D0
100
AcDbEntity
  8
0
100
AcDbLine
 62
7
  6
CONTINUOUS
 10
100.3847547199
 20
169.3079898504
 11
100.3847547199
 21
171.1696920169
  0
LINE
  5
2D1
100
AcDbEntity
  8
0
100
AcDbLine
 62
7
  6
CONTINUOUS
 10
101.0618372585
 20
136.5526708138
 11
101.0618372585
 21
136.3824578298
  0
LINE
  5
2D2
100
AcDbEntity
  8
0
100
AcDbLine
 62
7
  6
CONTINUOUS
 10
101.1451707508
 20
134.7654366267
 11
101.1451707508
 21
134.4250111354
  0
LINE
  5
2D3
100
AcDbEntity
  8
0
100
AcDbLine
 62
7
  6
CONTINUOUS
 10
101.4785042431
 20
136.3824578298
 11
101.4785042431
 21
136.5526708138
  0
LINE
  5
2D4
100
AcDbEntity
  8
0
100
AcDbLine
 62
7
  6
CONTINUOUS
 10
101.5618372585
 20
134.4250111354
 11
101.5618372585
 21
134.7654366267
  0
LINE
  5
2D5
100
AcDbEntity
  8
0
100
AcDbLine
 62
7
  6
CONTINUOUS
 10
101.8430878545
 20
170.6377770377
 11
101.8430878545
 21
169.8399047179
  0
LINE
  5
2D6
100
AcDbEntity
  8
0
100
AcDbLine
 62
7
  6
CONTINUOUS
 10
102.1555878545
 20
169.8399047179
 11
102.1555878545
 21
170.6377770377
  0
LINE
  5
2D7
100
AcDbEntity
  8
0
100
AcDbLine
 62
7
  6
CONTINUOUS
 10
102.2285042431
 20
136.2122450841
 11
102.2285042431
 21
135.8718195928
  0
LINE
  5
2D8
100
AcDbEntity
  8
0
100
AcDbLine
 62
7
  6
CONTINUOUS
 10
98.7285037662
 20
136.8930963052
 11
98.6451707508
 21
136.5526708138
  0
LINE
  5
2D9
100
AcDbEntity
  8
0
100
AcDbLine
 62
7
  6
CONTINUOUS
 10
96.1451705124
 20
134.4250111354
 11
96.2285040046
 21
134.6803302539
  0
LINE
  5
2DA
100
AcDbEntity
  8
0
100
AcDbLine
 62
7
  6
CONTINUOUS
 10
93.6451706018
 20
136.8930963052
 11
93.4785039301
 21
136.5526708138
  0
LINE
  5
2DB
100
AcDbEntity
  8
0
100
AcDbLine
 62
7
  6
CONTINUOUS
 10
93.8118372585
 20
136.2973514569
 11
94.145170572
 21
136.8079899323
  0
LINE
  5
2DC
100
AcDbEntity
  8
0
100
AcDbLine
 62
7
  6
CONTINUOUS
 10
84.6906437648
 20
165.2793716141
 11
86.4584107177
 21
163.5116046611
  0
LINE
  5
2DD
100
AcDbEntity
  8
0
100
AcDbLine
 62
7
  6
CONTINUOUS
 10
86.6793815868
 20
163.7325755302
 11
85.8895282562
 21
164.5224288608
  0
LINE
  5
2DE
100
AcDbEntity
  8
0
100
AcDbLine
 62
7
  6
CONTINUOUS
 10
85.6638559061
 20
164.7481012109
 11
85.0996749256
 21
165.3122821915
  0
LINE
  5
2DF
100
AcDbEntity
  8
0
100
AcDbLine
 62
7
  6
CONTINUOUS
 10
86.2460593006
 20
166.0073218663
 11
86.358895581
 21
165.8944855859
  0
LINE
  5
2E0
100
AcDbEntity
  8
0
100
AcDbLine
 62
7
  6
CONTINUOUS
 10
86.6174785085
 20
166.0778443967
 11
86.4670301697
 21
166.2282927354
  0
LINE
  5
2E1
100
AcDbEntity
  8
0
100
AcDbLine
 62
7
  6
CONTINUOUS
 10
97.7805880036
 20
169.8399047179
 11
97.8326714362
 21
169.5739473028
  0
LINE
  5
2E2
100
AcDbEntity
  8
KONSTRUKTIONSELEMENTE
100
AcDbLine
 62
7
  6
CONTINUOUS
 10
102.7701707508
 20
130.288840915
 11
102.7701707508
 21
119.088840915
  0
LINE
  5
2E3
100
AcDbEntity
  8
0
100
AcDbLine
 62
7
  6
CONTINUOUS
 10
102.8951702739
 20
136.8930963052
 11
102.8951702739
 21
136.2122450841
  0
LINE
  5
2E4
100
AcDbEntity
  8
0
100
AcDbLine
 62
7
  6
CONTINUOUS
 10
102.8951702739
 20
135.8718195928
 11
102.8951702739
 21
134.1696919573
  0
LINE
  5
2E5
100
AcDbEntity
  8
0
100
AcDbLine
 62
7
  6
CONTINUOUS
 10
103.3118372585
 20
134.3399047626
 11
103.3118372585
 21
135.8718195928
  0
LINE
  5
2E6
100
AcDbEntity
  8
0
100
AcDbLine
 62
7
  6
CONTINUOUS
 10
103.3118372585
 20
136.2122450841
 11
103.3118372585
 21
136.8930963052
  0
LINE
  5
2E7
100
AcDbEntity
  8
0
100
AcDbLine
 62
7
  6
CONTINUOUS
 10
104.0618372585
 20
133.488840915
 11
104.0618372585
 21
133.8292664362
  0
LINE
  5
2E8
100
AcDbEntity
  8
0
100
AcDbLine
 62
7
  6
CONTINUOUS
 10
104.2285042431
 20
135.8718195928
 11
104.2285042431
 21
136.2122450841
  0
LINE
  5
2E9
100
AcDbEntity
  8
0
100
AcDbLine
 62
7
  6
CONTINUOUS
 10
101.3951702739
 20
136.0420323384
 11
101.4785042431
 21
136.3824578298
  0
LINE
  5
2EA
100
AcDbEntity
  8
0
100
AcDbLine
 62
7
  6
CONTINUOUS
 10
95.9785040046
 20
134.0845855845
 11
96.1451705124
 21
134.4250111354
  0
LINE
  5
2EB
100
AcDbEntity
  8
0
100
AcDbLine
 62
7
  6
CONTINUOUS
 10
97.4785037662
 20
133.9143728388
 11
96.9785040046
 21
132.9782026184
  0
LINE
  5
2EC
100
AcDbEntity
  8
0
100
AcDbLine
 62
7
  6
CONTINUOUS
 10
97.3951707508
 20
132.9782026184
 11
97.8951707508
 21
133.9143728388
  0
LINE
  5
2ED
100
AcDbEntity
  8
0
100
AcDbLine
 62
7
  6
CONTINUOUS
 10
95.8118372585
 20
134.6803302539
 11
95.4785040046
 21
134.1696919573
  0
LINE
  5
2EE
100
AcDbEntity
  8
0
100
AcDbLine
 62
7
  6
CONTINUOUS
 10
93.895170572
 20
137.1484154237
 11
93.6451706018
 21
136.8930963052
  0
LINE
  5
2EF
100
AcDbEntity
  8
0
100
AcDbLine
 62
7
  6
CONTINUOUS
 10
85.2015409345
 20
162.7060796307
 11
83.1438476809
 21
163.7325755302
  0
LINE
  5
2F0
100
AcDbEntity
  8
0
100
AcDbLine
 62
7
  6
CONTINUOUS
 10
82.9228768118
 20
163.5116046611
 11
85.2798994333
 21
162.3330933767
  0
LINE
  5
2F1
100
AcDbEntity
  8
0
100
AcDbLine
 62
7
  6
CONTINUOUS
 10
86.9089716972
 20
166.6702342629
 11
87.059420036
 21
166.5197859242
  0
LINE
  5
2F2
100
AcDbEntity
  8
0
100
AcDbLine
 62
7
  6
CONTINUOUS
 10
87.2427788467
 20
166.7783688517
 11
87.16755473
 21
166.8535929683
  0
LINE
  5
2F3
100
AcDbEntity
  8
0
100
AcDbLine
 62
7
  6
CONTINUOUS
 10
88.7300227507
 20
166.9115785498
 11
88.8428589258
 21
166.7987423748
  0
LINE
  5
2F4
100
AcDbEntity
  8
0
100
AcDbLine
 62
7
  6
CONTINUOUS
 10
89.1014418532
 20
166.9821011856
 11
88.9133815615
 21
167.1701614773
  0
LINE
  5
2F5
100
AcDbEntity
  8
0
100
AcDbLine
 62
7
  6
CONTINUOUS
 10
97.3639214362
 20
168.988840915
 11
96.8951714362
 21
170.2122451735
  0
LINE
  5
2F6
100
AcDbEntity
  8
0
100
AcDbLine
 62
7
  6
CONTINUOUS
 10
96.5826713617
 20
170.1058622075
 11
96.9993380036
 21
168.988840915
  0
LINE
  5
2F7
100
AcDbEntity
  8
0
100
AcDbLine
 62
7
  6
CONTINUOUS
 10
96.9472547199
 20
171.0633090508
 11
96.9993380036
 21
170.9037346018
  0
LINE
  5
2F8
100
AcDbEntity
  8
0
100
AcDbLine
 62
7
  6
CONTINUOUS
 10
97.3118380036
 20
170.9037346018
 11
97.2597547199
 21
171.0633090508
  0
LINE
  5
2F9
100
AcDbEntity
  8
0
100
AcDbLine
 62
7
  6
CONTINUOUS
 10
98.1451712872
 20
169.6271387858
 11
98.0930881526
 21
169.8399047179
  0
LINE
  5
2FA
100
AcDbEntity
  8
KONSTRUKTIONSELEMENTE
100
AcDbLine
 62
7
  6
CONTINUOUS
 10
106.9201707508
 20
130.488840915
 11
106.9201707508
 21
130.288840915
  0
LINE
  5
2FB
100
AcDbEntity
  8
0
100
AcDbLine
 62
7
  6
CONTINUOUS
 10
101.4785042431
 20
134.1696919573
 11
101.5618372585
 21
134.4250111354
  0
LINE
  5
2FC
100
AcDbEntity
  8
0
100
AcDbLine
 62
7
  6
CONTINUOUS
 10
101.0618372585
 20
136.3824578298
 11
100.8951707508
 21
136.0420323384
  0
LINE
  5
2FD
100
AcDbEntity
  8
0
100
AcDbLine
 62
7
  6
CONTINUOUS
 10
101.1451707508
 20
134.4250111354
 11
101.0618372585
 21
134.2547983897
  0
LINE
  5
2FE
100
AcDbEntity
  8
0
100
AcDbLine
 62
7
  6
CONTINUOUS
 10
99.0618372585
 20
136.5526708138
 11
99.2285037662
 21
136.8079899323
  0
LINE
  5
2FF
100
AcDbEntity
  8
0
100
AcDbLine
 62
7
  6
CONTINUOUS
 10
101.2285037662
 20
135.7867132199
 11
101.3951702739
 21
136.0420323384
  0
LINE
  5
300
100
AcDbEntity
  8
0
100
AcDbLine
 62
7
  6
CONTINUOUS
 10
95.7285040046
 20
133.8292664362
 11
95.9785040046
 21
134.0845855845
  0
LINE
  5
301
100
AcDbEntity
  8
0
100
AcDbLine
 62
7
  6
CONTINUOUS
 10
99.0618372585
 20
137.2335217965
 11
98.7285037662
 21
136.8930963052
  0
LINE
  5
302
100
AcDbEntity
  8
0
100
AcDbLine
 62
7
  6
CONTINUOUS
 10
94.145170572
 20
136.8079899323
 11
94.3951706316
 21
136.978202678
  0
LINE
  5
303
100
AcDbEntity
  8
0
100
AcDbLine
 62
7
  6
CONTINUOUS
 10
94.3118372585
 20
137.4037345422
 11
93.895170572
 21
137.1484154237
  0
LINE
  5
304
100
AcDbEntity
  8
0
100
AcDbLine
 62
7
  6
CONTINUOUS
 10
87.8578928186
 20
164.911086762
 11
86.6613590676
 21
165.4447079056
  0
LINE
  5
305
100
AcDbEntity
  8
0
100
AcDbLine
 62
7
  6
CONTINUOUS
 10
86.5156123152
 20
165.1485129198
 11
87.6000936118
 21
164.6532875551
  0
LINE
  5
306
100
AcDbEntity
  8
0
100
AcDbLine
 62
7
  6
CONTINUOUS
 10
86.0963945771
 20
166.0833294929
 11
86.2460593006
 21
166.0073218663
  0
LINE
  5
307
100
AcDbEntity
  8
0
100
AcDbLine
 62
7
  6
CONTINUOUS
 10
86.4670301697
 20
166.2282927354
 11
86.3173654462
 21
166.304300362
  0
LINE
  5
308
100
AcDbEntity
  8
0
100
AcDbLine
 62
7
  6
CONTINUOUS
 10
87.6635639734
 20
165.6946715391
 11
87.8508405445
 21
165.5810516434
  0
LINE
  5
309
100
AcDbEntity
  8
0
100
AcDbLine
 62
7
  6
CONTINUOUS
 10
87.059420036
 20
166.5197859242
 11
87.2466970285
 21
166.40616645
  0
LINE
  5
30A
100
AcDbEntity
  8
0
100
AcDbLine
 62
7
  6
CONTINUOUS
 10
97.8326714362
 20
169.5739473028
 11
97.9368381526
 21
169.3611813334
  0
LINE
  5
30B
100
AcDbEntity
  8
0
100
AcDbLine
 62
7
  6
CONTINUOUS
 10
101.7910047199
 20
170.8505429698
 11
101.8430878545
 21
170.6377770377
  0
LINE
  5
30C
100
AcDbEntity
  8
0
100
AcDbLine
 62
7
  6
CONTINUOUS
 10
102.1555878545
 20
170.6377770377
 11
102.1035047199
 21
170.9037346018
  0
LINE
  5
30D
100
AcDbEntity
  8
0
100
AcDbLine
 62
7
  6
CONTINUOUS
 10
101.3118372585
 20
133.9143728388
 11
101.4785042431
 21
134.1696919573
  0
LINE
  5
30E
100
AcDbEntity
  8
0
100
AcDbLine
 62
7
  6
CONTINUOUS
 10
100.8951707508
 20
136.0420323384
 11
100.7285037662
 21
135.8718195928
  0
LINE
  5
30F
100
AcDbEntity
  8
0
100
AcDbLine
 62
7
  6
CONTINUOUS
 10
101.0618372585
 20
134.2547983897
 11
100.8951707508
 21
134.0845855845
  0
LINE
  5
310
100
AcDbEntity
  8
0
100
AcDbLine
 62
7
  6
CONTINUOUS
 10
100.8951707508
 20
135.5313941014
 11
101.2285037662
 21
135.7867132199
  0
LINE
  5
311
100
AcDbEntity
  8
0
100
AcDbLine
 62
7
  6
CONTINUOUS
 10
99.2285037662
 20
136.8079899323
 11
99.4785037662
 21
136.978202678
  0
LINE
  5
312
100
AcDbEntity
  8
0
100
AcDbLine
 62
7
  6
CONTINUOUS
 10
95.4785040046
 20
134.1696919573
 11
95.2285038854
 21
133.9994792116
  0
LINE
  5
313
100
AcDbEntity
  8
0
100
AcDbLine
 62
7
  6
CONTINUOUS
 10
95.3118372585
 20
133.5739472953
 11
95.7285040046
 21
133.8292664362
  0
LINE
  5
314
100
AcDbEntity
  8
0
100
AcDbLine
 62
7
  6
CONTINUOUS
 10
99.3951707508
 20
137.4037345422
 11
99.0618372585
 21
137.2335217965
  0
LINE
  5
315
100
AcDbEntity
  8
0
100
AcDbLine
 62
7
  6
CONTINUOUS
 10
88.034199566
 20
165.8396347816
 11
87.8845346318
 21
165.9156421975
  0
LINE
  5
316
100
AcDbEntity
  8
0
100
AcDbLine
 62
7
  6
CONTINUOUS
 10
87.3924437809
 20
166.7023614358
 11
87.2427788467
 21
166.7783688517
  0
LINE
  5
317
100
AcDbEntity
  8
0
100
AcDbLine
 62
7
  6
CONTINUOUS
 10
88.050654802
 20
167.8119173677
 11
87.9009898678
 21
167.8879247836
  0
LINE
  5
318
100
AcDbEntity
  8
0
100
AcDbLine
 62
7
  6
CONTINUOUS
 10
97.2597547199
 20
171.0633090508
 11
97.1035047199
 21
171.2760749829
  0
LINE
  5
319
100
AcDbEntity
  8
0
100
AcDbLine
 62
7
  6
CONTINUOUS
 10
98.2493381526
 20
169.4675643367
 11
98.1451712872
 21
169.6271387858
  0
LINE
  5
31A
100
AcDbEntity
  8
0
100
AcDbLine
 62
7
  6
CONTINUOUS
 10
102.1035047199
 20
170.9037346018
 11
101.9993378545
 21
171.1165005339
  0
LINE
  5
31B
100
AcDbEntity
  8
0
100
AcDbLine
 62
7
  6
CONTINUOUS
 10
101.0618372585
 20
133.7441600633
 11
101.3118372585
 21
133.9143728388
  0
LINE
  5
31C
100
AcDbEntity
  8
0
100
AcDbLine
 62
7
  6
CONTINUOUS
 10
100.8951707508
 20
134.0845855845
 11
100.7285037662
 21
133.9994792116
  0
LINE
  5
31D
100
AcDbEntity
  8
0
100
AcDbLine
 62
7
  6
CONTINUOUS
 10
100.7285037662
 20
133.5739472953
 11
101.0618372585
 21
133.7441600633
  0
LINE
  5
31E
100
AcDbEntity
  8
0
100
AcDbLine
 62
7
  6
CONTINUOUS
 10
100.7285037662
 20
135.8718195928
 11
100.2285037662
 21
135.7016068471
  0
LINE
  5
31F
100
AcDbEntity
  8
0
100
AcDbLine
 62
7
  6
CONTINUOUS
 10
86.3173654462
 20
166.304300362
 11
86.0564317783
 21
166.3442631609
  0
LINE
  5
320
100
AcDbEntity
  8
0
100
AcDbLine
 62
7
  6
CONTINUOUS
 10
88.5435294261
 20
166.9507576807
 11
88.7300227507
 21
166.9115785498
  0
LINE
  5
321
100
AcDbEntity
  8
0
100
AcDbLine
 62
7
  6
CONTINUOUS
 10
87.8508405445
 20
165.5810516434
 11
88.149386521
 21
165.5034769575
  0
LINE
  5
322
100
AcDbEntity
  8
0
100
AcDbLine
 62
7
  6
CONTINUOUS
 10
88.9133815615
 20
167.1701614773
 11
88.6892761786
 21
167.2469526665
  0
LINE
  5
323
100
AcDbEntity
  8
0
100
AcDbLine
 62
7
  6
CONTINUOUS
 10
87.717631057
 20
167.6293418561
 11
87.8296839329
 21
167.5909464986
  0
LINE
  5
324
100
AcDbEntity
  8
0
100
AcDbLine
 62
7
  6
CONTINUOUS
 10
97.9368381526
 20
169.3611813334
 11
98.1451712872
 21
169.1484153827
  0
LINE
  5
325
100
AcDbEntity
  8
0
100
AcDbLine
 62
7
  6
CONTINUOUS
 10
96.8430880036
 20
171.1696920169
 11
96.9472547199
 21
171.0633090508
  0
LINE
  5
326
100
AcDbEntity
  8
0
100
AcDbLine
 62
7
  6
CONTINUOUS
 10
101.6868378545
 20
171.0101175678
 11
101.7910047199
 21
170.8505429698
  0
LINE
  5
327
100
AcDbEntity
  8
0
100
AcDbLine
 62
7
  6
CONTINUOUS
 10
101.5305878545
 20
169.3611813334
 11
101.3222547199
 21
169.3079898504
  0
LINE
  5
328
100
AcDbEntity
  8
0
100
AcDbLine
 62
7
  6
CONTINUOUS
 10
88.149386521
 20
165.5034769575
 11
88.4463648159
 21
165.5747828825
  0
LINE
  5
329
100
AcDbEntity
  8
0
100
AcDbLine
 62
7
  6
CONTINUOUS
 10
101.3222547199
 20
168.988840915
 11
101.5826715852
 21
169.0420324027
  0
LINE
  5
32A
100
AcDbEntity
  8
0
100
AcDbLine
 62
7
  6
CONTINUOUS
 10
87.5781533322
 20
166.7376227537
 11
87.3924437809
 21
166.7023614358
  0
LINE
  5
32B
100
AcDbEntity
  8
0
100
AcDbLine
 62
7
  6
CONTINUOUS
 10
88.3578198749
 20
166.9154963628
 11
88.5435294261
 21
166.9507576807
  0
LINE
  5
32C
100
AcDbEntity
  8
0
100
AcDbLine
 62
7
  6
CONTINUOUS
 10
86.0564317783
 20
166.3442631609
 11
85.7962816203
 21
166.3097853529
  0
LINE
  5
32D
100
AcDbEntity
  8
0
100
AcDbLine
 62
7
  6
CONTINUOUS
 10
88.2575212019
 20
165.8372840148
 11
88.034199566
 21
165.8396347816
  0
LINE
  5
32E
100
AcDbEntity
  8
0
100
AcDbLine
 62
7
  6
CONTINUOUS
 10
85.9475135743
 20
166.0848967235
 11
86.0963945771
 21
166.0833294929
  0
LINE
  5
32F
100
AcDbEntity
  8
0
100
AcDbLine
 62
7
  6
CONTINUOUS
 10
87.2466970285
 20
166.40616645
 11
87.5444590341
 21
166.4030319889
  0
LINE
  5
330
100
AcDbEntity
  8
0
100
AcDbLine
 62
7
  6
CONTINUOUS
 10
88.6892761786
 20
167.2469526665
 11
88.3915141729
 21
167.2500871276
  0
LINE
  5
331
100
AcDbEntity
  8
0
100
AcDbLine
 62
7
  6
CONTINUOUS
 10
87.5687502649
 20
167.6309092974
 11
87.717631057
 21
167.6293418561
  0
LINE
  5
332
100
AcDbEntity
  8
0
100
AcDbLine
 62
7
  6
CONTINUOUS
 10
87.9009898678
 20
167.8879247836
 11
87.6400561998
 21
167.9278875824
  0
LINE
  5
333
100
AcDbEntity
  8
0
100
AcDbLine
 62
7
  6
CONTINUOUS
 10
98.3535047199
 20
169.0420324027
 11
98.6139212872
 21
168.988840915
  0
LINE
  5
334
100
AcDbEntity
  8
0
100
AcDbLine
 62
7
  6
CONTINUOUS
 10
98.1451712872
 20
169.1484153827
 11
98.3535047199
 21
169.0420324027
  0
LINE
  5
335
100
AcDbEntity
  8
0
100
AcDbLine
 62
7
  6
CONTINUOUS
 10
98.4055881526
 20
169.3611813334
 11
98.2493381526
 21
169.4675643367
  0
LINE
  5
336
100
AcDbEntity
  8
0
100
AcDbLine
 62
7
  6
CONTINUOUS
 10
97.1035047199
 20
171.2760749829
 11
96.8951714362
 21
171.435649432
  0
LINE
  5
337
100
AcDbEntity
  8
0
100
AcDbLine
 62
7
  6
CONTINUOUS
 10
101.9993378545
 20
171.1165005339
 11
101.7910047199
 21
171.329266466
  0
LINE
  5
338
100
AcDbEntity
  8
RUNDUNGEN
100
AcDbLine
 62
7
  6
CONTINUOUS
 10
118.2701707508
 20
142.9144862136
 11
118.2701707508
 21
137.488840915
  0
LINE
  5
339
100
AcDbEntity
  8
BEZUGSACHSEN
100
AcDbLine
 62
7
  6
CONTINUOUS
 10
118.2701707508
 20
142.9144838751
 11
118.2701707508
 21
137.488840915
  0
LINE
  5
33A
100
AcDbEntity
  8
BEZUGSACHSEN
100
AcDbLine
 62
7
  6
CONTINUOUS
 10
122.0262509352
 20
151.9296651448
 11
118.3462912183
 21
143.0454564872
  0
LINE
  5
33B
100
AcDbEntity
  8
BEZUGSACHSEN
100
AcDbLine
 62
7
  6
CONTINUOUS
 10
115.3747512304
 20
135.8715243474
 11
115.1650142512
 21
135.3651744876
  0
LINE
  5
33C
100
AcDbEntity
  8
0
100
AcDbLine
 62
7
  6
CONTINUOUS
 10
99.0305881526
 20
169.3611813334
 11
98.8222547199
 21
169.3079898504
  0
LINE
  5
33D
100
AcDbEntity
  8
0
100
AcDbLine
 62
7
  6
CONTINUOUS
 10
98.8222547199
 20
168.988840915
 11
99.0826712872
 21
169.0420324027
  0
LINE
  5
33E
100
AcDbEntity
  8
0
100
AcDbLine
 62
7
  6
CONTINUOUS
 10
87.6400561998
 20
167.9278875824
 11
87.3799062525
 21
167.8934099852
  0
LINE
  5
33F
100
AcDbEntity
  8
0
100
AcDbLine
 62
7
  6
CONTINUOUS
 10
95.3847547199
 20
168.988840915
 11
95.6972547199
 21
168.988840915
  0
LINE
  5
340
100
AcDbEntity
  8
0
100
AcDbLine
 62
7
  6
CONTINUOUS
 10
96.9993380036
 20
168.988840915
 11
97.3639214362
 21
168.988840915
  0
LINE
  5
341
100
AcDbEntity
  8
0
100
AcDbLine
 62
7
  6
CONTINUOUS
 10
98.6139212872
 20
168.988840915
 11
98.8222547199
 21
168.988840915
  0
LINE
  5
342
100
AcDbEntity
  8
0
100
AcDbLine
 62
7
  6
CONTINUOUS
 10
100.0722547199
 20
168.988840915
 11
101.3222547199
 21
168.988840915
  0
LINE
  5
343
100
AcDbEntity
  8
0
100
AcDbLine
 62
7
  6
CONTINUOUS
 10
101.3222547199
 20
169.3079898504
 11
100.3847547199
 21
169.3079898504
  0
LINE
  5
344
100
AcDbEntity
  8
0
100
AcDbLine
 62
7
  6
CONTINUOUS
 10
98.8222547199
 20
169.3079898504
 11
98.6139212872
 21
169.3079898504
  0
LINE
  5
345
100
AcDbEntity
  8
0
100
AcDbLine
 62
7
  6
CONTINUOUS
 10
95.6972547199
 20
170.1058622075
 11
96.5826713617
 21
170.1058622075
  0
LINE
  5
346
100
AcDbEntity
  8
0
100
AcDbLine
 62
7
  6
CONTINUOUS
 10
96.6868380036
 20
170.4250111056
 11
95.6972547199
 21
170.4250111056
  0
LINE
  5
347
100
AcDbEntity
  8
0
100
AcDbLine
 62
7
  6
CONTINUOUS
 10
100.3847547199
 20
171.1696920169
 11
101.3222547199
 21
171.1696920169
  0
LINE
  5
348
100
AcDbEntity
  8
0
100
AcDbLine
 62
7
  6
CONTINUOUS
 10
95.6972547199
 20
171.2228834999
 11
96.6868380036
 21
171.2228834999
  0
LINE
  5
349
100
AcDbEntity
  8
0
100
AcDbLine
 62
7
  6
CONTINUOUS
 10
101.3222547199
 20
171.488840915
 11
100.0722547199
 21
171.488840915
  0
LINE
  5
34A
100
AcDbEntity
  8
0
100
AcDbLine
 62
7
  6
CONTINUOUS
 10
99.6555881526
 20
171.488840915
 11
99.3430881526
 21
171.488840915
  0
LINE
  5
34B
100
AcDbEntity
  8
0
100
AcDbLine
 62
7
  6
CONTINUOUS
 10
98.0930881526
 20
171.488840915
 11
97.7805880036
 21
171.488840915
  0
LINE
  5
34C
100
AcDbEntity
  8
0
100
AcDbLine
 62
7
  6
CONTINUOUS
 10
96.6347547199
 20
171.488840915
 11
95.3847547199
 21
171.488840915
  0
LINE
  5
34D
100
AcDbEntity
  8
0
100
AcDbLine
 62
7
  6
CONTINUOUS
 10
96.8951714362
 20
171.435649432
 11
96.6347547199
 21
171.488840915
  0
LINE
  5
34E
100
AcDbEntity
  8
0
100
AcDbLine
 62
7
  6
CONTINUOUS
 10
101.5826715852
 20
171.435649432
 11
101.3222547199
 21
171.488840915
  0
LINE
  5
34F
100
AcDbEntity
  8
0
100
AcDbLine
 62
7
  6
CONTINUOUS
 10
98.6139212872
 20
169.3079898504
 11
98.4055881526
 21
169.3611813334
  0
LINE
  5
350
100
AcDbEntity
  8
0
100
AcDbLine
 62
7
  6
CONTINUOUS
 10
101.3222547199
 20
171.1696920169
 11
101.5305878545
 21
171.1165005339
  0
LINE
  5
351
100
AcDbEntity
  8
0
100
AcDbLine
 62
7
  6
CONTINUOUS
 10
96.6868380036
 20
171.2228834999
 11
96.8430880036
 21
171.1696920169
  0
LINE
  5
352
100
AcDbEntity
  8
0
100
AcDbLine
 62
7
  6
CONTINUOUS
 10
101.7910047199
 20
171.329266466
 11
101.5826715852
 21
171.435649432
  0
LINE
  5
353
100
AcDbEntity
  8
0
100
AcDbLine
 62
7
  6
CONTINUOUS
 10
101.5305878545
 20
171.1165005339
 11
101.6868378545
 21
171.0101175678
  0
LINE
  5
354
100
AcDbEntity
  8
0
100
AcDbLine
 62
7
  6
CONTINUOUS
 10
111.830496815
 20
163.4744620078
 11
111.9830041933
 21
163.3272241077
  0
LINE
  5
355
100
AcDbEntity
  8
0
100
AcDbLine
 62
7
  6
CONTINUOUS
 10
110.330496815
 20
164.9744620078
 11
110.4830041933
 21
164.8272241077
  0
LINE
  5
356
100
AcDbEntity
  8
0
100
AcDbLine
 62
7
  6
CONTINUOUS
 10
112.0282433068
 20
164.7714652955
 11
112.5438965808
 21
164.2558120215
  0
LINE
  5
357
100
AcDbEntity
  8
0
100
AcDbLine
 62
7
  6
CONTINUOUS
 10
112.8075603386
 20
164.5194757792
 11
112.2908151585
 21
165.0362209594
  0
LINE
  5
358
100
AcDbEntity
  8
0
100
AcDbLine
 62
7
  6
CONTINUOUS
 10
111.8627597273
 20
166.4482259814
 11
111.9775213136
 21
166.321741228
  0
LINE
  5
359
100
AcDbEntity
  8
KONSTRUKTIONSELEMENTE
100
AcDbLine
 62
7
  6
CONTINUOUS
 10
102.7701707508
 20
119.088840915
 11
101.9701707508
 21
118.288840915
  0
LINE
  5
35A
100
AcDbEntity
  8
RUNDUNGEN
100
AcDbLine
 62
7
  6
CONTINUOUS
 10
99.3441958993
 20
175.7510719133
 11
114.8131549601
 21
169.3436192746
  0
LINE
  5
35B
100
AcDbEntity
  8
RUNDUNGEN
100
AcDbLine
 62
7
  6
CONTINUOUS
 10
115.6249491103
 20
168.5318251244
 11
121.9009259667
 21
153.3802766807
  0
LINE
  5
35C
100
AcDbEntity
  8
BEZUGSACHSEN
100
AcDbLine
 62
7
  6
CONTINUOUS
 10
121.9009259667
 20
153.3802766807
 11
122.0262509352
 21
153.0777154419
  0
LINE
  5
35D
100
AcDbEntity
  8
KONSTRUKTIONSELEMENTE
100
AcDbLine
 62
7
  6
CONTINUOUS
 10
178.4564799474
 20
118.288840915
 11
184.8564799474
 21
118.288840915
  0
LINE
  5
35E
100
AcDbEntity
  8
KONSTRUKTIONSELEMENTE
100
AcDbLine
 62
7
  6
CONTINUOUS
 10
177.6564799474
 20
119.088840915
 11
185.6564799474
 21
119.088840915
  0
LINE
  5
35F
100
AcDbEntity
  8
KONSTRUKTIONSELEMENTE
100
AcDbLine
 62
7
  6
CONTINUOUS
 10
178.4564799474
 20
118.288840915
 11
177.6564799474
 21
119.088840915
  0
LINE
  5
360
100
AcDbEntity
  8
0
100
AcDbLine
 62
7
  6
CONTINUOUS
 10
167.0069363897
 20
136.3824578298
 11
166.9538802903
 21
136.5526708138
  0
LINE
  5
361
100
AcDbEntity
  8
0
100
AcDbLine
 62
7
  6
CONTINUOUS
 10
166.90404805
 20
136.5526708138
 11
166.9568160817
 21
136.3824578298
  0
LINE
  5
362
100
AcDbEntity
  8
0
100
AcDbLine
 62
7
  6
CONTINUOUS
 10
167.0705875113
 20
135.7016068471
 11
167.1750368298
 21
135.3611813558
  0
LINE
  5
363
100
AcDbEntity
  8
BEZUGSACHSEN
100
AcDbLine
 62
7
  6
CONTINUOUS
 10
166.6323744895
 20
138.7448178613
 11
167.0163651772
 21
137.488840915
  0
LINE
  5
364
100
AcDbEntity
  8
BEZUGSACHSEN
100
AcDbLine
 62
7
  6
CONTINUOUS
 10
168.239287903
 20
133.488840915
 11
169.1564799474
 21
130.488840915
  0
LINE
  5
365
100
AcDbEntity
  8
KONSTRUKTIONSELEMENTE
100
AcDbLine
 62
7
  6
CONTINUOUS
 10
173.5064799474
 20
130.288840915
 11
189.8064799474
 21
130.288840915
  0
LINE
  5
366
100
AcDbEntity
  8
BEZUGSACHSEN
100
AcDbLine
 62
7
  6
CONTINUOUS
 10
169.156480056
 20
130.488840915
 11
194.1564798387
 21
130.488840915
  0
LINE
  5
367
100
AcDbEntity
  8
0
100
AcDbLine
 62
7
  6
CONTINUOUS
 10
168.3954056974
 20
132.9782026184
 11
167.9230978084
 21
132.9782026184
  0
LINE
  5
368
100
AcDbEntity
  8
0
100
AcDbLine
 62
7
  6
CONTINUOUS
 10
194.8288475005
 20
132.9782026184
 11
195.3898620863
 21
132.9782026184
  0
LINE
  5
369
100
AcDbEntity
  8
0
100
AcDbLine
 62
7
  6
CONTINUOUS
 10
169.0228271069
 20
133.488840915
 11
168.4746509766
 21
133.488840915
  0
LINE
  5
36A
100
AcDbEntity
  8
0
100
AcDbLine
 62
7
  6
CONTINUOUS
 10
167.7405083646
 20
133.488840915
 11
168.3108348173
 21
133.488840915
  0
LINE
  5
36B
100
AcDbEntity
  8
0
100
AcDbLine
 62
7
  6
CONTINUOUS
 10
194.6419081323
 20
133.488840915
 11
195.1783203209
 21
133.488840915
  0
LINE
  5
36C
100
AcDbEntity
  8
0
100
AcDbLine
 62
7
  6
CONTINUOUS
 10
168.3066219312
 20
133.5739472953
 11
167.7909991283
 21
133.5739472953
  0
LINE
  5
36D
100
AcDbEntity
  8
0
100
AcDbLine
 62
7
  6
CONTINUOUS
 10
194.5507877403
 20
133.5739472953
 11
195.0909974235
 21
133.5739472953
  0
LINE
  5
36E
100
AcDbEntity
  8
0
100
AcDbLine
 62
7
  6
CONTINUOUS
 10
195.5933236638
 20
133.5739472953
 11
195.6123412525
 21
133.5739472953
  0
LINE
  5
36F
100
AcDbEntity
  8
0
100
AcDbLine
 62
7
  6
CONTINUOUS
 10
168.1566720371
 20
133.7441600633
 11
167.7755243233
 21
133.7441600633
  0
LINE
  5
370
100
AcDbEntity
  8
0
100
AcDbLine
 62
7
  6
CONTINUOUS
 10
195.6503393486
 20
133.7441600633
 11
195.6723713657
 21
133.7441600633
  0
LINE
  5
371
100
AcDbEntity
  8
0
100
AcDbLine
 62
7
  6
CONTINUOUS
 10
168.9090403805
 20
133.8292664362
 11
168.361450968
 21
133.8292664362
  0
LINE
  5
372
100
AcDbEntity
  8
0
100
AcDbLine
 62
7
  6
CONTINUOUS
 10
194.5244062152
 20
133.8292664362
 11
195.0679363079
 21
133.8292664362
  0
LINE
  5
373
100
AcDbEntity
  8
0
100
AcDbLine
 62
7
  6
CONTINUOUS
 10
168.7605128588
 20
133.9143728388
 11
168.2171023929
 21
133.9143728388
  0
LINE
  5
374
100
AcDbEntity
  8
0
100
AcDbLine
 62
7
  6
CONTINUOUS
 10
167.6477997484
 20
133.9143728388
 11
167.6143487561
 21
133.9143728388
  0
LINE
  5
375
100
AcDbEntity
  8
0
100
AcDbLine
 62
7
  6
CONTINUOUS
 10
168.0625779907
 20
133.9143728388
 11
167.7542774236
 21
133.9143728388
  0
LINE
  5
376
100
AcDbEntity
  8
0
100
AcDbLine
 62
7
  6
CONTINUOUS
 10
195.498453
 20
133.9143728388
 11
195.7265713223
 21
133.9143728388
  0
LINE
  5
377
100
AcDbEntity
  8
0
100
AcDbLine
 62
7
  6
CONTINUOUS
 10
167.650691899
 20
133.9994792116
 11
167.5703633596
 21
133.9994792116
  0
LINE
  5
378
100
AcDbEntity
  8
0
100
AcDbLine
 62
7
  6
CONTINUOUS
 10
195.2488635046
 20
133.9994792116
 11
195.4250768394
 21
133.9994792116
  0
LINE
  5
379
100
AcDbEntity
  8
0
100
AcDbLine
 62
7
  6
CONTINUOUS
 10
168.6380710293
 20
134.0845855845
 11
168.0970805506
 21
134.0845855845
  0
LINE
  5
37A
100
AcDbEntity
  8
0
100
AcDbLine
 62
7
  6
CONTINUOUS
 10
167.650691899
 20
134.0845855845
 11
167.5396847261
 21
134.0845855845
  0
LINE
  5
37B
100
AcDbEntity
  8
0
100
AcDbLine
 62
7
  6
CONTINUOUS
 10
194.5382068608
 20
134.0845855845
 11
195.0837191364
 21
134.0845855845
  0
LINE
  5
37C
100
AcDbEntity
  8
0
100
AcDbLine
 62
7
  6
CONTINUOUS
 10
167.9523435563
 20
134.1696919573
 11
167.697457956
 21
134.1696919573
  0
LINE
  5
37D
100
AcDbEntity
  8
0
100
AcDbLine
 62
7
  6
CONTINUOUS
 10
195.2435821543
 20
134.1696919573
 11
195.524008972
 21
134.1696919573
  0
LINE
  5
37E
100
AcDbEntity
  8
0
100
AcDbLine
 62
7
  6
CONTINUOUS
 10
195.6095729319
 20
134.1696919573
 11
195.8042762238
 21
134.1696919573
  0
LINE
  5
37F
100
AcDbEntity
  8
0
100
AcDbLine
 62
7
  6
CONTINUOUS
 10
167.6169402723
 20
134.2547983897
 11
167.4844298632
 21
134.2547983897
  0
LINE
  5
380
100
AcDbEntity
  8
0
100
AcDbLine
 62
7
  6
CONTINUOUS
 10
168.5335973938
 20
134.3399047626
 11
167.9935996272
 21
134.3399047626
  0
LINE
  5
381
100
AcDbEntity
  8
0
100
AcDbLine
 62
7
  6
CONTINUOUS
 10
167.8703262719
 20
134.4250111354
 11
167.6295345342
 21
134.4250111354
  0
LINE
  5
382
100
AcDbEntity
  8
0
100
AcDbLine
 62
7
  6
CONTINUOUS
 10
167.5740791837
 20
134.4250111354
 11
167.4313234165
 21
134.4250111354
  0
LINE
  5
383
100
AcDbEntity
  8
0
100
AcDbLine
 62
7
  6
CONTINUOUS
 10
194.6026152292
 20
134.4250111354
 11
195.1492200712
 21
134.4250111354
  0
LINE
  5
384
100
AcDbEntity
  8
0
100
AcDbLine
 62
7
  6
CONTINUOUS
 10
195.7067164622
 20
134.4250111354
 11
195.8816364732
 21
134.4250111354
  0
LINE
  5
385
100
AcDbEntity
  8
KONSTRUKTIONSELEMENTE
100
AcDbLine
 62
7
  6
CONTINUOUS
 10
173.5064799474
 20
130.488840915
 11
173.5064799474
 21
130.288840915
  0
LINE
  5
386
100
AcDbEntity
  8
0
100
AcDbLine
 62
7
  6
CONTINUOUS
 10
194.6629502345
 20
134.6803302539
 11
195.2099661166
 21
134.6803302539
  0
LINE
  5
387
100
AcDbEntity
  8
0
100
AcDbLine
 62
7
  6
CONTINUOUS
 10
195.325004163
 20
134.6803302539
 11
195.7387017066
 21
134.6803302539
  0
LINE
  5
388
100
AcDbEntity
  8
0
100
AcDbLine
 62
7
  6
CONTINUOUS
 10
167.7610450211
 20
134.7654366267
 11
167.5230891946
 21
134.7654366267
  0
LINE
  5
389
100
AcDbEntity
  8
0
100
AcDbLine
 62
7
  6
CONTINUOUS
 10
195.825993523
 20
134.7654366267
 11
195.8446730726
 21
134.7654366267
  0
LINE
  5
38A
100
AcDbEntity
  8
0
100
AcDbLine
 62
7
  6
CONTINUOUS
 10
167.6518556584
 20
135.1058622373
 11
167.405128354
 21
135.1058622373
  0
LINE
  5
38B
100
AcDbEntity
  8
0
100
AcDbLine
 62
7
  6
CONTINUOUS
 10
194.7800609972
 20
135.1058622373
 11
195.3272069441
 21
135.1058622373
  0
LINE
  5
38C
100
AcDbEntity
  8
0
100
AcDbLine
 62
7
  6
CONTINUOUS
 10
195.940325678
 20
135.1058622373
 11
195.9695852564
 21
135.1058622373
  0
LINE
  5
38D
100
AcDbEntity
  8
0
100
AcDbLine
 62
7
  6
CONTINUOUS
 10
195.4705192068
 20
135.1909686101
 11
195.9109880639
 21
135.1909686101
  0
LINE
  5
38E
100
AcDbEntity
  8
0
100
AcDbLine
 62
7
  6
CONTINUOUS
 10
195.9932558552
 20
135.2760749829
 11
196.048242268
 21
135.2760749829
  0
LINE
  5
38F
100
AcDbEntity
  8
0
100
AcDbLine
 62
7
  6
CONTINUOUS
 10
167.570016239
 20
135.3611813558
 11
167.3036198455
 21
135.3611813558
  0
LINE
  5
390
100
AcDbEntity
  8
0
100
AcDbLine
 62
7
  6
CONTINUOUS
 10
167.1750368298
 20
135.3611813558
 11
167.1962251511
 21
135.3611813558
  0
LINE
  5
391
100
AcDbEntity
  8
0
100
AcDbLine
 62
7
  6
CONTINUOUS
 10
196.0197188696
 20
135.3611813558
 11
196.1379230649
 21
135.3611813558
  0
LINE
  5
392
100
AcDbEntity
  8
0
100
AcDbLine
 62
7
  6
CONTINUOUS
 10
167.5154836963
 20
135.5313941014
 11
167.2025807888
 21
135.5313941014
  0
LINE
  5
393
100
AcDbEntity
  8
0
100
AcDbLine
 62
7
  6
CONTINUOUS
 10
167.0915257958
 20
135.7016068471
 11
167.0705875113
 21
135.7016068471
  0
LINE
  5
394
100
AcDbEntity
  8
0
100
AcDbLine
 62
7
  6
CONTINUOUS
 10
196.1255504099
 20
135.7016068471
 11
196.2423723834
 21
135.7016068471
  0
LINE
  5
395
100
AcDbEntity
  8
0
100
AcDbLine
 62
7
  6
CONTINUOUS
 10
167.4337265216
 20
135.7867132199
 11
167.1609554998
 21
135.7867132199
  0
LINE
  5
396
100
AcDbEntity
  8
0
100
AcDbLine
 62
7
  6
CONTINUOUS
 10
195.6657889368
 20
135.7867132199
 11
196.0973297191
 21
135.7867132199
  0
LINE
  5
397
100
AcDbEntity
  8
0
100
AcDbLine
 62
7
  6
CONTINUOUS
 10
167.4974660593
 20
135.8718195928
 11
168.2776058064
 21
135.8718195928
  0
LINE
  5
398
100
AcDbEntity
  8
0
100
AcDbLine
 62
7
  6
CONTINUOUS
 10
167.2803042973
 20
135.8718195928
 11
167.4064779354
 21
135.8718195928
  0
LINE
  5
399
100
AcDbEntity
  8
0
100
AcDbLine
 62
7
  6
CONTINUOUS
 10
195.0353540883
 20
135.8718195928
 11
195.5812945052
 21
135.8718195928
  0
LINE
  5
39A
100
AcDbEntity
  8
0
100
AcDbLine
 62
7
  6
CONTINUOUS
 10
196.1784560446
 20
135.8718195928
 11
196.2323271595
 21
135.8718195928
  0
LINE
  5
39B
100
AcDbEntity
  8
0
100
AcDbLine
 62
7
  6
CONTINUOUS
 10
167.2265634505
 20
136.0420323384
 11
167.1022342946
 21
136.0420323384
  0
LINE
  5
39C
100
AcDbEntity
  8
0
100
AcDbLine
 62
7
  6
CONTINUOUS
 10
196.2273397722
 20
136.0420323384
 11
196.2684404351
 21
136.0420323384
  0
LINE
  5
39D
100
AcDbEntity
  8
0
100
AcDbLine
 62
7
  6
CONTINUOUS
 10
168.1644120796
 20
136.2122450841
 11
167.3874974997
 21
136.2122450841
  0
LINE
  5
39E
100
AcDbEntity
  8
0
100
AcDbLine
 62
7
  6
CONTINUOUS
 10
167.2975581471
 20
136.2122450841
 11
167.1728366082
 21
136.2122450841
  0
LINE
  5
39F
100
AcDbEntity
  8
0
100
AcDbLine
 62
7
  6
CONTINUOUS
 10
195.2005036038
 20
136.2973514569
 11
195.7450599516
 21
136.2973514569
  0
LINE
  5
3A0
100
AcDbEntity
  8
0
100
AcDbLine
 62
7
  6
CONTINUOUS
 10
195.8538284828
 20
136.2973514569
 11
196.2451623378
 21
136.2973514569
  0
LINE
  5
3A1
100
AcDbEntity
  8
0
100
AcDbLine
 62
7
  6
CONTINUOUS
 10
167.2431293814
 20
136.3824578298
 11
167.0069363897
 21
136.3824578298
  0
LINE
  5
3A2
100
AcDbEntity
  8
0
100
AcDbLine
 62
7
  6
CONTINUOUS
 10
196.3236886684
 20
136.3824578298
 11
196.356143813
 21
136.3824578298
  0
LINE
  5
3A3
100
AcDbEntity
  8
0
100
AcDbLine
 62
7
  6
CONTINUOUS
 10
167.1887180534
 20
136.5526708138
 11
166.9538802903
 21
136.5526708138
  0
LINE
  5
3A4
100
AcDbEntity
  8
0
100
AcDbLine
 62
7
  6
CONTINUOUS
 10
166.90404805
 20
136.5526708138
 11
166.7817282358
 21
136.5526708138
  0
LINE
  5
3A5
100
AcDbEntity
  8
0
100
AcDbLine
 62
7
  6
CONTINUOUS
 10
195.30811465
 20
136.5526708138
 11
195.8515932382
 21
136.5526708138
  0
LINE
  5
3A6
100
AcDbEntity
  8
0
100
AcDbLine
 62
7
  6
CONTINUOUS
 10
196.3697326234
 20
136.5526708138
 11
196.5328588158
 21
136.5526708138
  0
LINE
  5
3A7
100
AcDbEntity
  8
0
100
AcDbLine
 62
7
  6
CONTINUOUS
 10
166.807515191
 20
136.8079899323
 11
166.7065567923
 21
136.8079899323
  0
LINE
  5
3A8
100
AcDbEntity
  8
0
100
AcDbLine
 62
7
  6
CONTINUOUS
 10
196.0989392743
 20
136.8079899323
 11
196.3550714951
 21
136.8079899323
  0
LINE
  5
3A9
100
AcDbEntity
  8
0
100
AcDbLine
 62
7
  6
CONTINUOUS
 10
167.7051976421
 20
136.8930963052
 11
166.8372612112
 21
136.8930963052
  0
LINE
  5
3AA
100
AcDbEntity
  8
0
100
AcDbLine
 62
7
  6
CONTINUOUS
 10
195.4648207155
 20
136.8930963052
 11
196.0064872232
 21
136.8930963052
  0
LINE
  5
3AB
100
AcDbEntity
  8
0
100
AcDbLine
 62
7
  6
CONTINUOUS
 10
196.454294223
 20
136.8930963052
 11
196.6372630378
 21
136.8930963052
  0
LINE
  5
3AC
100
AcDbEntity
  8
0
100
AcDbLine
 62
7
  6
CONTINUOUS
 10
166.7314263304
 20
136.978202678
 11
166.6612366646
 21
136.978202678
  0
LINE
  5
3AD
100
AcDbEntity
  8
0
100
AcDbLine
 62
7
  6
CONTINUOUS
 10
196.2086900078
 20
136.978202678
 11
196.3677712101
 21
136.978202678
  0
LINE
  5
3AE
100
AcDbEntity
  8
0
100
AcDbLine
 62
7
  6
CONTINUOUS
 10
166.6528495741
 20
137.0633090508
 11
166.6728275315
 21
137.0633090508
  0
LINE
  5
3AF
100
AcDbEntity
  8
BEZUGSACHSEN
100
AcDbLine
 62
7
  6
CONTINUOUS
 10
177.4064799474
 20
148.6101298309
 11
177.4064799474
 21
174.3652526146
  0
LINE
  5
3B0
100
AcDbEntity
  8
KONSTRUKTIONSELEMENTE
100
AcDbLine
 62
7
  6
CONTINUOUS
 10
177.6564799474
 20
130.288840915
 11
177.6564799474
 21
119.088840915
  0
LINE
  5
3B1
100
AcDbEntity
  8
0
100
AcDbLine
 62
7
  6
CONTINUOUS
 10
195.6116215379
 20
137.1484154237
 11
196.1510787073
 21
137.1484154237
  0
LINE
  5
3B2
100
AcDbEntity
  8
0
100
AcDbLine
 62
7
  6
CONTINUOUS
 10
167.2193106814
 20
137.2335217965
 11
166.6930343111
 21
137.2335217965
  0
LINE
  5
3B3
100
AcDbEntity
  8
0
100
AcDbLine
 62
7
  6
CONTINUOUS
 10
196.4995496756
 20
137.2335217965
 11
196.7394359308
 21
137.2335217965
  0
LINE
  5
3B4
100
AcDbEntity
  8
0
100
AcDbLine
 62
7
  6
CONTINUOUS
 10
167.1328334554
 20
137.4037345422
 11
166.6075194194
 21
137.4037345422
  0
LINE
  5
3B5
100
AcDbEntity
  8
0
100
AcDbLine
 62
7
  6
CONTINUOUS
 10
195.7912638915
 20
137.4037345422
 11
196.3275998989
 21
137.4037345422
  0
LINE
  5
3B6
100
AcDbEntity
  8
0
100
AcDbLine
 62
7
  6
CONTINUOUS
 10
196.5158326127
 20
137.4037345422
 11
196.78452642
 21
137.4037345422
  0
LINE
  5
3B7
100
AcDbEntity
  8
0
100
AcDbLine
 62
7
  6
CONTINUOUS
 10
167.0606607916
 20
137.488840915
 11
166.5366103797
 21
137.488840915
  0
LINE
  5
3B8
100
AcDbEntity
  8
0
100
AcDbLine
 62
7
  6
CONTINUOUS
 10
195.9218562223
 20
137.488840915
 11
196.7861940977
 21
137.488840915
  0
LINE
  5
3B9
100
AcDbEntity
  8
RUNDUNGEN
100
AcDbLine
 62
7
  6
CONTINUOUS
 10
195.634356839
 20
140.6322641578
 11
191.0947466316
 21
141.8486490468
  0
LINE
  5
3BA
100
AcDbEntity
  8
KONSTRUKTIONSELEMENTE
100
AcDbLine
 62
7
  6
CONTINUOUS
 10
185.6564799474
 20
130.288840915
 11
185.6564799474
 21
119.088840915
  0
LINE
  5
3BB
100
AcDbEntity
  8
BEZUGSACHSEN
100
AcDbLine
 62
7
  6
CONTINUOUS
 10
167.6786030558
 20
140.6322641578
 11
172.2182132631
 21
141.8486490468
  0
LINE
  5
3BC
100
AcDbEntity
  8
RUNDUNGEN
100
AcDbLine
 62
7
  6
CONTINUOUS
 10
185.9064799474
 20
148.6101298309
 11
185.9064799474
 21
174.3652526146
  0
LINE
  5
3BD
100
AcDbEntity
  8
0
100
AcDbLine
 62
7
  6
CONTINUOUS
 10
186.4064799474
 20
171.488840915
 11
186.4064799474
 21
168.988840915
  0
LINE
  5
3BE
100
AcDbEntity
  8
0
100
AcDbLine
 62
7
  6
CONTINUOUS
 10
186.4064799474
 20
167.9278875824
 11
186.4064799474
 21
166.40616645
  0
LINE
  5
3BF
100
AcDbEntity
  8
0
100
AcDbLine
 62
7
  6
CONTINUOUS
 10
186.4064799474
 20
166.4030319889
 11
186.4064799474
 21
162.3330933767
  0
LINE
  5
3C0
100
AcDbEntity
  8
KONSTRUKTIONSELEMENTE
100
AcDbLine
 62
7
  6
CONTINUOUS
 10
189.8064799474
 20
130.488840915
 11
189.8064799474
 21
130.288840915
  0
LINE
  5
3C1
100
AcDbEntity
  8
0
100
AcDbLine
 62
7
  6
CONTINUOUS
 10
194.1564799474
 20
130.488840915
 11
194.9175541973
 21
132.9782026184
  0
LINE
  5
3C2
100
AcDbEntity
  8
0
100
AcDbLine
 62
7
  6
CONTINUOUS
 10
196.2965947176
 20
137.488840915
 11
196.6805854053
 21
138.7448178613
  0
LINE
  5
3C3
100
AcDbEntity
  8
0
100
AcDbLine
 62
7
  6
CONTINUOUS
 10
196.637299758
 20
136.8930850787
 11
196.650313098
 21
136.935649796
  0
LINE
  5
3C4
100
AcDbEntity
  8
0
100
AcDbLine
 62
7
  6
CONTINUOUS
 10
196.2423723834
 20
135.7016068471
 11
196.1379230649
 21
135.3611813558
  0
LINE
  5
3C5
100
AcDbEntity
  8
0
100
AcDbLine
 62
7
  6
CONTINUOUS
 10
185.9064799474
 20
162.3330933767
 11
186.4064799474
 21
162.3330933767
  0
LINE
  5
3C6
100
AcDbEntity
  8
0
100
AcDbLine
 62
7
  6
CONTINUOUS
 10
185.9064799474
 20
163.5116046611
 11
186.4064799474
 21
163.5116046611
  0
LINE
  5
3C7
100
AcDbEntity
  8
0
100
AcDbLine
 62
7
  6
CONTINUOUS
 10
185.9064799474
 20
163.7325755302
 11
186.4064799474
 21
163.7325755302
  0
LINE
  5
3C8
100
AcDbEntity
  8
0
100
AcDbLine
 62
7
  6
CONTINUOUS
 10
185.9064799474
 20
164.7637728843
 11
186.4064799474
 21
164.7637728843
  0
LINE
  5
3C9
100
AcDbEntity
  8
0
100
AcDbLine
 62
7
  6
CONTINUOUS
 10
185.9064799474
 20
164.9847437535
 11
186.4064799474
 21
164.9847437535
  0
LINE
  5
3CA
100
AcDbEntity
  8
0
100
AcDbLine
 62
7
  6
CONTINUOUS
 10
185.9064799474
 20
165.2793716141
 11
186.4064799474
 21
165.2793716141
  0
LINE
  5
3CB
100
AcDbEntity
  8
0
100
AcDbLine
 62
7
  6
CONTINUOUS
 10
185.9064799474
 20
166.1632550906
 11
186.4064799474
 21
166.1632550906
  0
LINE
  5
3CC
100
AcDbEntity
  8
0
100
AcDbLine
 62
7
  6
CONTINUOUS
 10
185.9064799474
 20
166.3097853529
 11
186.4064799474
 21
166.3097853529
  0
LINE
  5
3CD
100
AcDbEntity
  8
0
100
AcDbLine
 62
7
  6
CONTINUOUS
 10
185.9064799474
 20
166.3442631609
 11
186.4064799474
 21
166.3442631609
  0
LINE
  5
3CE
100
AcDbEntity
  8
0
100
AcDbLine
 62
7
  6
CONTINUOUS
 10
185.9064799474
 20
166.40616645
 11
186.4064799474
 21
166.40616645
  0
LINE
  5
3CF
100
AcDbEntity
  8
0
100
AcDbLine
 62
7
  6
CONTINUOUS
 10
185.9064799474
 20
166.5197859242
 11
186.4064799474
 21
166.5197859242
  0
LINE
  5
3D0
100
AcDbEntity
  8
0
100
AcDbLine
 62
7
  6
CONTINUOUS
 10
185.9064799474
 20
166.6702342629
 11
186.4064799474
 21
166.6702342629
  0
LINE
  5
3D1
100
AcDbEntity
  8
0
100
AcDbLine
 62
7
  6
CONTINUOUS
 10
185.9064799474
 20
166.8575112555
 11
186.4064799474
 21
166.8575112555
  0
LINE
  5
3D2
100
AcDbEntity
  8
0
100
AcDbLine
 62
7
  6
CONTINUOUS
 10
185.9064799474
 20
167.1552732611
 11
186.4064799474
 21
167.1552732611
  0
LINE
  5
3D3
100
AcDbEntity
  8
KONSTRUKTIONSELEMENTE
100
AcDbLine
 62
7
  6
CONTINUOUS
 10
185.6564799474
 20
119.088840915
 11
184.8564799474
 21
118.288840915
  0
LINE
  5
3D4
100
AcDbEntity
  8
0
100
AcDbLine
 62
7
  6
CONTINUOUS
 10
185.9064799474
 20
167.3778111501
 11
186.4064799474
 21
167.3778111501
  0
LINE
  5
3D5
100
AcDbEntity
  8
0
100
AcDbLine
 62
7
  6
CONTINUOUS
 10
185.9064799474
 20
167.5627374021
 11
186.4064799474
 21
167.5627374021
  0
LINE
  5
3D6
100
AcDbEntity
  8
0
100
AcDbLine
 62
7
  6
CONTINUOUS
 10
185.9064799474
 20
167.7468795121
 11
186.4064799474
 21
167.7468795121
  0
LINE
  5
3D7
100
AcDbEntity
  8
0
100
AcDbLine
 62
7
  6
CONTINUOUS
 10
185.9064799474
 20
167.8934099852
 11
186.4064799474
 21
167.8934099852
  0
LINE
  5
3D8
100
AcDbEntity
  8
0
100
AcDbLine
 62
7
  6
CONTINUOUS
 10
185.9064799474
 20
167.9278875824
 11
186.4064799474
 21
167.9278875824
  0
LINE
  5
3D9
100
AcDbEntity
  8
0
100
AcDbLine
 62
7
  6
CONTINUOUS
 10
185.9064799474
 20
168.988840915
 11
186.4064799474
 21
168.988840915
  0
LINE
  5
3DA
100
AcDbEntity
  8
0
100
AcDbLine
 62
7
  6
CONTINUOUS
 10
185.9064799474
 20
171.488840915
 11
186.4064799474
 21
171.488840915
  0
LINE
  5
3DB
100
AcDbEntity
  8
RUNDUNGEN
100
AcDbLine
 62
7
  6
CONTINUOUS
 10
184.4064799474
 20
175.8652526146
 11
178.9064799474
 21
175.8652526146
  0
LWPOLYLINE
  5
3DC
100
AcDbEntity
  8
RUNDUNGEN
100
AcDbPolyline
 62
7
  6
CONTINUOUS
 90
7
 70
0
 10
75.3999110716
 20
72.5087520879
 10
75.4019571796
 20
72.1499835978
 10
75.4123285828
 20
71.6240469789
 10
75.4316494806
 20
71.0930251798
 10
75.4600967045
 20
70.5578700075
 10
75.4977921228
 20
70.0195622606
 10
75.5313995779
 20
69.6228930861
  0
LWPOLYLINE
  5
3DD
100
AcDbEntity
  8
BEZUGSACHSEN
100
AcDbPolyline
 62
7
  6
CONTINUOUS
 90
7
 70
0
 10
75.5313995779
 20
75.3946110897
 10
75.4977921228
 20
74.9979419152
 10
75.4600967045
 20
74.4596341682
 10
75.4316494806
 20
73.9244789959
 10
75.4123285828
 20
73.3934571969
 10
75.4019571796
 20
72.867520578
 10
75.3999110716
 20
72.5087520879
  0
LWPOLYLINE
  5
3DE
100
AcDbEntity
  8
BEZUGSACHSEN
100
AcDbPolyline
 62
7
  6
CONTINUOUS
 90
19
 70
0
 10
84.8602740216
 20
82.6907123015
 10
84.2413566884
 20
82.1350219291
 10
83.5656740835
 20
81.4880077028
 10
82.9612291808
 20
80.8743392128
 10
82.416550039
 20
80.2954397322
 10
81.9225662015
 20
79.7528491461
 10
81.4740986953
 20
79.2505485459
 10
81.06479631
 20
78.7897746026
 10
80.6922818569
 20
78.3747956178
 10
80.3536459624
 20
78.0077035949
 10
80.0471350478
 20
77.6902250704
 10
79.7721455796
 20
77.4234390146
 10
79.5267793233
 20
77.2053996447
 10
79.3114704331
 20
77.0347686585
 10
79.1266012339
 20
76.9085905819
 10
78.9745893664
 20
76.8237578537
 10
78.8626254405
 20
76.7769846508
 10
78.7995359918
 20
76.7604275849
 10
78.7845796603
 20
76.7587527359
  0
LINE
  5
3DF
100
AcDbEntity
  8
0
100
AcDbLine
 62
7
  6
CONTINUOUS
 10
82.9228768118
 20
68.2587520879
 11
82.9228768118
 21
67.7587520879
  0
LINE
  5
3E0
100
AcDbEntity
  8
0
100
AcDbLine
 62
7
  6
CONTINUOUS
 10
83.1438476809
 20
68.2587520879
 11
83.1438476809
 21
67.7587520879
  0
LINE
  5
3E1
100
AcDbEntity
  8
0
100
AcDbLine
 62
7
  6
CONTINUOUS
 10
84.175045035
 20
68.2587520879
 11
84.175045035
 21
67.7587520879
  0
LINE
  5
3E2
100
AcDbEntity
  8
0
100
AcDbLine
 62
7
  6
CONTINUOUS
 10
84.3960159041
 20
68.2587520879
 11
84.3960159041
 21
67.7587520879
  0
LINE
  5
3E3
100
AcDbEntity
  8
0
100
AcDbLine
 62
7
  6
CONTINUOUS
 10
84.6906437648
 20
68.2587520879
 11
84.6906437648
 21
67.7587520879
  0
LINE
  5
3E4
100
AcDbEntity
  8
0
100
AcDbLine
 62
7
  6
CONTINUOUS
 10
85.5745272412
 20
68.2587520879
 11
85.5745272412
 21
67.7587520879
  0
LINE
  5
3E5
100
AcDbEntity
  8
0
100
AcDbLine
 62
7
  6
CONTINUOUS
 10
85.7962816203
 20
68.2587520879
 11
85.7962816203
 21
67.7587520879
  0
LINE
  5
3E6
100
AcDbEntity
  8
0
100
AcDbLine
 62
7
  6
CONTINUOUS
 10
86.0564317783
 20
68.2587520879
 11
86.0564317783
 21
67.7587520879
  0
LINE
  5
3E7
100
AcDbEntity
  8
0
100
AcDbLine
 62
7
  6
CONTINUOUS
 10
86.3173654462
 20
68.2587520879
 11
86.3173654462
 21
67.7587520879
  0
LINE
  5
3E8
100
AcDbEntity
  8
0
100
AcDbLine
 62
7
  6
CONTINUOUS
 10
86.4670301697
 20
68.2587520879
 11
86.4670301697
 21
67.7587520879
  0
LINE
  5
3E9
100
AcDbEntity
  8
0
100
AcDbLine
 62
7
  6
CONTINUOUS
 10
86.6174785085
 20
68.2587520879
 11
86.6174785085
 21
67.7587520879
  0
LINE
  5
3EA
100
AcDbEntity
  8
0
100
AcDbLine
 62
7
  6
CONTINUOUS
 10
86.6934861351
 20
68.2587520879
 11
86.6934861351
 21
67.7587520879
  0
LINE
  5
3EB
100
AcDbEntity
  8
0
100
AcDbLine
 62
7
  6
CONTINUOUS
 10
86.7334489339
 20
68.2587520879
 11
86.7334489339
 21
67.7587520879
  0
LINE
  5
3EC
100
AcDbEntity
  8
0
100
AcDbLine
 62
7
  6
CONTINUOUS
 10
86.7922177619
 20
68.2587520879
 11
86.7922177619
 21
67.7587520879
  0
LINE
  5
3ED
100
AcDbEntity
  8
0
100
AcDbLine
 62
7
  6
CONTINUOUS
 10
86.8643074174
 20
68.2587520879
 11
86.8643074174
 21
67.7587520879
  0
LINE
  5
3EE
100
AcDbEntity
  8
0
100
AcDbLine
 62
7
  6
CONTINUOUS
 10
86.9740095528
 20
68.2587520879
 11
86.9740095528
 21
67.7587520879
  0
LINE
  5
3EF
100
AcDbEntity
  8
0
100
AcDbLine
 62
7
  6
CONTINUOUS
 10
87.1581516628
 20
68.2587520879
 11
87.1581516628
 21
67.7587520879
  0
LINE
  5
3F0
100
AcDbEntity
  8
0
100
AcDbLine
 62
7
  6
CONTINUOUS
 10
87.3799062525
 20
68.2587520879
 11
87.3799062525
 21
67.7587520879
  0
LINE
  5
3F1
100
AcDbEntity
  8
0
100
AcDbLine
 62
7
  6
CONTINUOUS
 10
87.6400561998
 20
68.2587520879
 11
87.6400561998
 21
67.7587520879
  0
LINE
  5
3F2
100
AcDbEntity
  8
0
100
AcDbLine
 62
7
  6
CONTINUOUS
 10
87.9009898678
 20
68.2587520879
 11
87.9009898678
 21
67.7587520879
  0
LINE
  5
3F3
100
AcDbEntity
  8
0
100
AcDbLine
 62
7
  6
CONTINUOUS
 10
88.050654802
 20
68.2587520879
 11
88.050654802
 21
67.7587520879
  0
LINE
  5
3F4
100
AcDbEntity
  8
0
100
AcDbLine
 62
7
  6
CONTINUOUS
 10
88.1689758625
 20
68.2587520879
 11
88.1689758625
 21
67.7587520879
  0
LWPOLYLINE
  5
3F5
100
AcDbEntity
  8
RUNDUNGEN
100
AcDbPolyline
 62
7
  6
CONTINUOUS
 90
21
 70
0
 10
84.860292687
 20
62.3267761474
 10
85.7811215055
 20
61.5778315268
 10
86.917836027
 20
60.7783151491
 10
88.1582792561
 20
60.0374453386
 10
89.4917798344
 20
59.3703243977
 10
90.9082451085
 20
58.7884483341
 10
92.3957080473
 20
58.3014517985
 10
93.9410603566
 20
57.9168972709
 10
95.5296927383
 20
57.640049058
 10
97.1469315888
 20
57.4739022066
 10
98.7783167898
 20
57.4191051322
 10
100.409616184
 20
57.4750076256
 10
102.0266183847
 20
57.6422611868
 10
103.6148653241
 20
57.9201934906
 10
105.1596921189
 20
58.3057891428
 10
106.6465101774
 20
58.7937664281
 10
108.0622286838
 20
59.3765470956
 10
109.394899694
 20
60.0444856505
 10
110.6344608545
 20
60.7860861053
 10
111.7702724257
 20
61.586245716
 10
112.6800474556
 20
62.3267748807
  0
LINE
  5
3F6
100
AcDbEntity
  8
0
100
AcDbLine
 62
7
  6
CONTINUOUS
 10
88.3915141729
 20
68.2587520879
 11
88.3915141729
 21
67.7587520879
  0
LINE
  5
3F7
100
AcDbEntity
  8
0
100
AcDbLine
 62
7
  6
CONTINUOUS
 10
88.6892761786
 20
68.2587520879
 11
88.6892761786
 21
67.7587520879
  0
LINE
  5
3F8
100
AcDbEntity
  8
0
100
AcDbLine
 62
7
  6
CONTINUOUS
 10
88.9133815615
 20
68.2587520879
 11
88.9133815615
 21
67.7587520879
  0
LINE
  5
3F9
100
AcDbEntity
  8
0
100
AcDbLine
 62
7
  6
CONTINUOUS
 10
89.1014418532
 20
68.2587520879
 11
89.1014418532
 21
67.7587520879
  0
LINE
  5
3FA
100
AcDbEntity
  8
0
100
AcDbLine
 62
7
  6
CONTINUOUS
 10
89.1782330161
 20
68.2587520879
 11
89.1782330161
 21
67.7587520879
  0
LINE
  5
3FB
100
AcDbEntity
  8
0
100
AcDbLine
 62
7
  6
CONTINUOUS
 10
99.4368373777
 20
78.8385393422
 11
99.3118373777
 21
78.710879783
  0
LINE
  5
3FC
100
AcDbEntity
  8
0
100
AcDbLine
 62
7
  6
CONTINUOUS
 10
99.52017087
 20
78.6257734101
 11
99.6868373777
 21
78.7534329694
  0
LINE
  5
3FD
100
AcDbEntity
  8
0
100
AcDbLine
 62
7
  6
CONTINUOUS
 10
99.4368373777
 20
77.9874754947
 11
99.27017087
 21
77.8598159354
  0
LINE
  5
3FE
100
AcDbEntity
  8
0
100
AcDbLine
 62
7
  6
CONTINUOUS
 10
100.3535041239
 20
78.2853477996
 11
100.1868373777
 21
78.1576882403
  0
LINE
  5
3FF
100
AcDbEntity
  8
0
100
AcDbLine
 62
7
  6
CONTINUOUS
 10
99.64517087
 20
78.9661989015
 11
99.4368373777
 21
78.8385393422
  0
LINE
  5
400
100
AcDbEntity
  8
0
100
AcDbLine
 62
7
  6
CONTINUOUS
 10
100.27017087
 20
77.051305278
 11
100.4785041239
 21
77.1789648485
  0
LINE
  5
401
100
AcDbEntity
  8
0
100
AcDbLine
 62
7
  6
CONTINUOUS
 10
99.52017087
 20
78.0300286811
 11
99.4368373777
 21
77.9874754947
  0
LINE
  5
402
100
AcDbEntity
  8
0
100
AcDbLine
 62
7
  6
CONTINUOUS
 10
99.52017087
 20
77.817262749
 11
99.6868373777
 21
77.9023691218
  0
LINE
  5
403
100
AcDbEntity
  8
0
100
AcDbLine
 62
7
  6
CONTINUOUS
 10
100.3535041239
 20
78.0300286811
 11
100.4368373777
 21
78.0725818675
  0
LINE
  5
404
100
AcDbEntity
  8
0
100
AcDbLine
 62
7
  6
CONTINUOUS
 10
100.3535041239
 20
77.349177609
 11
100.1868373777
 21
77.2640712362
  0
LINE
  5
405
100
AcDbEntity
  8
0
100
AcDbLine
 62
7
  6
CONTINUOUS
 10
99.4368373777
 20
78.4981137317
 11
99.52017087
 21
78.6257734101
  0
LINE
  5
406
100
AcDbEntity
  8
0
100
AcDbLine
 62
7
  6
CONTINUOUS
 10
100.4368373777
 20
78.4130073588
 11
100.3535041239
 21
78.2853477996
  0
LINE
  5
407
100
AcDbEntity
  8
0
100
AcDbLine
 62
7
  6
CONTINUOUS
 10
99.39517087
 20
77.6470499437
 11
99.52017087
 21
77.817262749
  0
LINE
  5
408
100
AcDbEntity
  8
0
100
AcDbLine
 62
7
  6
CONTINUOUS
 10
100.4785041239
 20
77.5193903845
 11
100.3535041239
 21
77.349177609
  0
LINE
  5
409
100
AcDbEntity
  8
0
100
AcDbLine
 62
7
  6
CONTINUOUS
 10
100.4368373777
 20
78.0725818675
 11
100.5618373777
 21
78.2002414268
  0
LINE
  5
40A
100
AcDbEntity
  8
0
100
AcDbLine
 62
7
  6
CONTINUOUS
 10
100.4785041239
 20
77.1789648485
 11
100.6035041239
 21
77.3066244226
  0
LINE
  5
40B
100
AcDbEntity
  8
0
100
AcDbLine
 62
7
  6
CONTINUOUS
 10
94.8118372585
 20
57.7651484888
 11
94.8118372585
 21
57.7101034443
  0
LINE
  5
40C
100
AcDbEntity
  8
0
100
AcDbLine
 62
7
  6
CONTINUOUS
 10
95.3118372585
 20
57.678014355
 11
95.3118372585
 21
57.6493994226
  0
LINE
  5
40D
100
AcDbEntity
  8
0
100
AcDbLine
 62
7
  6
CONTINUOUS
 10
95.3847547199
 20
68.2587520879
 11
95.3847547199
 21
67.7587520879
  0
LINE
  5
40E
100
AcDbEntity
  8
0
100
AcDbLine
 62
7
  6
CONTINUOUS
 10
98.4785041239
 20
79.0087520879
 11
97.8535041239
 21
77.2215180498
  0
LINE
  5
40F
100
AcDbEntity
  8
0
100
AcDbLine
 62
7
  6
CONTINUOUS
 10
98.0201707508
 20
77.0087520879
 11
98.6035041239
 21
78.5832202237
  0
LINE
  5
410
100
AcDbEntity
  8
0
100
AcDbLine
 62
7
  6
CONTINUOUS
 10
99.3118373777
 20
78.710879783
 11
99.2285041239
 21
78.4981137317
  0
LINE
  5
411
100
AcDbEntity
  8
0
100
AcDbLine
 62
7
  6
CONTINUOUS
 10
99.27017087
 20
77.8598159354
 11
99.1868373777
 21
77.6470499437
  0
LINE
  5
412
100
AcDbEntity
  8
0
100
AcDbLine
 62
7
  6
CONTINUOUS
 10
100.5618373777
 20
78.2002414268
 11
100.64517087
 21
78.3704541724
  0
LINE
  5
413
100
AcDbEntity
  8
0
100
AcDbLine
 62
7
  6
CONTINUOUS
 10
96.6347547199
 20
68.2587520879
 11
96.6347547199
 21
67.7587520879
  0
LINE
  5
414
100
AcDbEntity
  8
0
100
AcDbLine
 62
7
  6
CONTINUOUS
 10
96.8118377353
 20
87.5091761398
 11
96.8118377353
 21
87.5577126159
  0
LINE
  5
415
100
AcDbEntity
  8
0
100
AcDbLine
 62
7
  6
CONTINUOUS
 10
96.8535041239
 20
79.0087520879
 11
96.8535041239
 21
77.0087520879
  0
LINE
  5
416
100
AcDbEntity
  8
0
100
AcDbLine
 62
7
  6
CONTINUOUS
 10
96.8951714362
 20
68.2587520879
 11
96.8951714362
 21
67.7587520879
  0
LINE
  5
417
100
AcDbEntity
  8
0
100
AcDbLine
 62
7
  6
CONTINUOUS
 10
97.1035041239
 20
77.0087520879
 11
97.1035041239
 21
78.5832202237
  0
LINE
  5
418
100
AcDbEntity
  8
0
100
AcDbLine
 62
7
  6
CONTINUOUS
 10
97.1035047199
 20
68.2587520879
 11
97.1035047199
 21
67.7587520879
  0
LINE
  5
419
100
AcDbEntity
  8
0
100
AcDbLine
 62
7
  6
CONTINUOUS
 10
97.2597547199
 20
68.2587520879
 11
97.2597547199
 21
67.7587520879
  0
LINE
  5
41A
100
AcDbEntity
  8
0
100
AcDbLine
 62
7
  6
CONTINUOUS
 10
97.3118380036
 20
68.2587520879
 11
97.3118380036
 21
67.7587520879
  0
LINE
  5
41B
100
AcDbEntity
  8
0
100
AcDbLine
 62
7
  6
CONTINUOUS
 10
97.3639214362
 20
68.2587520879
 11
97.3639214362
 21
67.7587520879
  0
LINE
  5
41C
100
AcDbEntity
  8
0
100
AcDbLine
 62
7
  6
CONTINUOUS
 10
97.3951707508
 20
87.5519401469
 11
97.3951707508
 21
87.6286216555
  0
LINE
  5
41D
100
AcDbEntity
  8
0
100
AcDbLine
 62
7
  6
CONTINUOUS
 10
97.5618377353
 20
87.557538373
 11
97.5618377353
 21
87.6384662382
  0
LINE
  5
41E
100
AcDbEntity
  8
0
100
AcDbLine
 62
7
  6
CONTINUOUS
 10
97.7805880036
 20
68.2587520879
 11
97.7805880036
 21
67.7587520879
  0
LINE
  5
41F
100
AcDbEntity
  8
0
100
AcDbLine
 62
7
  6
CONTINUOUS
 10
98.0930881526
 20
68.2587520879
 11
98.0930881526
 21
67.7587520879
  0
LINE
  5
420
100
AcDbEntity
  8
0
100
AcDbLine
 62
7
  6
CONTINUOUS
 10
98.1451707508
 20
87.5771321162
 11
98.1451707508
 21
87.6367985605
  0
LINE
  5
421
100
AcDbEntity
  8
0
100
AcDbLine
 62
7
  6
CONTINUOUS
 10
98.1451712872
 20
68.2587520879
 11
98.1451712872
 21
67.7587520879
  0
LINE
  5
422
100
AcDbEntity
  8
0
100
AcDbLine
 62
7
  6
CONTINUOUS
 10
98.2493381526
 20
68.2587520879
 11
98.2493381526
 21
67.7587520879
  0
LINE
  5
423
100
AcDbEntity
  8
0
100
AcDbLine
 62
7
  6
CONTINUOUS
 10
98.4055881526
 20
68.2587520879
 11
98.4055881526
 21
67.7587520879
  0
LINE
  5
424
100
AcDbEntity
  8
0
100
AcDbLine
 62
7
  6
CONTINUOUS
 10
98.6035041239
 20
78.5832202237
 11
98.6035041239
 21
77.0087520879
  0
LINE
  5
425
100
AcDbEntity
  8
0
100
AcDbLine
 62
7
  6
CONTINUOUS
 10
98.6139212872
 20
68.2587520879
 11
98.6139212872
 21
67.7587520879
  0
LINE
  5
426
100
AcDbEntity
  8
0
100
AcDbLine
 62
7
  6
CONTINUOUS
 10
98.8222547199
 20
68.2587520879
 11
98.8222547199
 21
67.7587520879
  0
LINE
  5
427
100
AcDbEntity
  8
0
100
AcDbLine
 62
7
  6
CONTINUOUS
 10
98.8535041239
 20
77.0087520879
 11
98.8535041239
 21
79.0087520879
  0
LINE
  5
428
100
AcDbEntity
  8
0
100
AcDbLine
 62
7
  6
CONTINUOUS
 10
99.0305881526
 20
68.2587520879
 11
99.0305881526
 21
67.7587520879
  0
LINE
  5
429
100
AcDbEntity
  8
0
100
AcDbLine
 62
7
  6
CONTINUOUS
 10
100.6035041239
 20
77.3066244226
 11
100.6868373777
 21
77.5193903845
  0
LWPOLYLINE
  5
42A
100
AcDbEntity
  8
RUNDUNGEN
100
AcDbPolyline
 62
7
  6
CONTINUOUS
 90
19
 70
0
 10
78.7845840642
 20
68.25875144
 10
78.7996121363
 20
68.2570642097
 10
78.8629168429
 20
68.2404218378
 10
78.9752011413
 20
68.1934480793
 10
79.1276395242
 20
68.108268532
 10
79.3130521508
 20
67.981566796
 10
79.5291107243
 20
67.8101407036
 10
79.7756111073
 20
67.5908362831
 10
80.0519780392
 20
67.3224085824
 10
80.3600744724
 20
67.0029671276
 10
80.7002806948
 20
66.6338923052
 10
81.0741117341
 20
66.2172690241
 10
81.4842531644
 20
65.7555247273
 10
81.9326322791
 20
65.2534653504
 10
82.4257234249
 20
64.7121322083
 10
82.968581413
 20
64.135511687
 10
83.5706478496
 20
63.5245811788
 10
84.2439394357
 20
62.8800899247
 10
84.8602741763
 20
62.3267917396
  0
LINE
  5
42B
100
AcDbEntity
  8
0
100
AcDbLine
 62
7
  6
CONTINUOUS
 10
99.1868373777
 20
77.6470499437
 11
99.1868373777
 21
77.5193903845
  0
LINE
  5
42C
100
AcDbEntity
  8
0
100
AcDbLine
 62
7
  6
CONTINUOUS
 10
99.1868381526
 20
68.2587520879
 11
99.1868381526
 21
67.7587520879
  0
LINE
  5
42D
100
AcDbEntity
  8
0
100
AcDbLine
 62
7
  6
CONTINUOUS
 10
99.2285041239
 20
78.4981137317
 11
99.2285041239
 21
78.3704541724
  0
LINE
  5
42E
100
AcDbEntity
  8
0
100
AcDbLine
 62
7
  6
CONTINUOUS
 10
99.2910047199
 20
68.2587520879
 11
99.2910047199
 21
67.7587520879
  0
LINE
  5
42F
100
AcDbEntity
  8
0
100
AcDbLine
 62
7
  6
CONTINUOUS
 10
99.3430881526
 20
68.2587520879
 11
99.3430881526
 21
67.7587520879
  0
LINE
  5
430
100
AcDbEntity
  8
0
100
AcDbLine
 62
7
  6
CONTINUOUS
 10
99.3951707508
 20
57.4402439094
 11
99.3951707508
 21
57.3807056152
  0
LINE
  5
431
100
AcDbEntity
  8
0
100
AcDbLine
 62
7
  6
CONTINUOUS
 10
99.39517087
 20
77.5193903845
 11
99.39517087
 21
77.6470499437
  0
LINE
  5
432
100
AcDbEntity
  8
0
100
AcDbLine
 62
7
  6
CONTINUOUS
 10
99.4368373777
 20
78.4130073588
 11
99.4368373777
 21
78.4981137317
  0
LINE
  5
433
100
AcDbEntity
  8
0
100
AcDbLine
 62
7
  6
CONTINUOUS
 10
99.6555881526
 20
68.2587520879
 11
99.6555881526
 21
67.7587520879
  0
LINE
  5
434
100
AcDbEntity
  8
0
100
AcDbLine
 62
7
  6
CONTINUOUS
 10
99.9785037662
 20
57.4602339678
 11
99.9785037662
 21
57.3790379375
  0
LINE
  5
435
100
AcDbEntity
  8
0
100
AcDbLine
 62
7
  6
CONTINUOUS
 10
100.0722547199
 20
68.2587520879
 11
100.0722547199
 21
67.7587520879
  0
LINE
  5
436
100
AcDbEntity
  8
0
100
AcDbLine
 62
7
  6
CONTINUOUS
 10
100.1451707508
 20
57.465945427
 11
100.1451707508
 21
57.3888825203
  0
LINE
  5
437
100
AcDbEntity
  8
0
100
AcDbLine
 62
7
  6
CONTINUOUS
 10
100.4368373777
 20
78.4981137317
 11
100.4368373777
 21
78.4130073588
  0
LINE
  5
438
100
AcDbEntity
  8
0
100
AcDbLine
 62
7
  6
CONTINUOUS
 10
100.4785041239
 20
77.6470499437
 11
100.4785041239
 21
77.5193903845
  0
LINE
  5
439
100
AcDbEntity
  8
0
100
AcDbLine
 62
7
  6
CONTINUOUS
 10
100.64517087
 20
78.3704541724
 11
100.64517087
 21
78.4981137317
  0
LINE
  5
43A
100
AcDbEntity
  8
0
100
AcDbLine
 62
7
  6
CONTINUOUS
 10
100.6868373777
 20
77.5193903845
 11
100.6868373777
 21
77.6470499437
  0
LINE
  5
43B
100
AcDbEntity
  8
0
100
AcDbLine
 62
7
  6
CONTINUOUS
 10
100.7285037662
 20
57.5079915533
 11
100.7285037662
 21
57.4597915599
  0
LINE
  5
43C
100
AcDbEntity
  8
0
100
AcDbLine
 62
7
  6
CONTINUOUS
 10
101.3222547199
 20
68.2587520879
 11
101.3222547199
 21
67.7587520879
  0
LINE
  5
43D
100
AcDbEntity
  8
0
100
AcDbLine
 62
7
  6
CONTINUOUS
 10
101.5826715852
 20
68.2587520879
 11
101.5826715852
 21
67.7587520879
  0
LINE
  5
43E
100
AcDbEntity
  8
0
100
AcDbLine
 62
7
  6
CONTINUOUS
 10
101.7910047199
 20
68.2587520879
 11
101.7910047199
 21
67.7587520879
  0
LINE
  5
43F
100
AcDbEntity
  8
0
100
AcDbLine
 62
7
  6
CONTINUOUS
 10
113.7411850714
 20
67.7587520879
 11
110.0204688364
 21
67.7587520879
  0
LINE
  5
440
100
AcDbEntity
  8
0
100
AcDbLine
 62
7
  6
CONTINUOUS
 10
102.1555878545
 20
67.7587520879
 11
100.0722547199
 21
67.7587520879
  0
LINE
  5
441
100
AcDbEntity
  8
0
100
AcDbLine
 62
7
  6
CONTINUOUS
 10
99.6555881526
 20
67.7587520879
 11
97.7805880036
 21
67.7587520879
  0
LINE
  5
442
100
AcDbEntity
  8
0
100
AcDbLine
 62
7
  6
CONTINUOUS
 10
97.3639214362
 20
67.7587520879
 11
95.3847547199
 21
67.7587520879
  0
LINE
  5
443
100
AcDbEntity
  8
0
100
AcDbLine
 62
7
  6
CONTINUOUS
 10
89.1782330161
 20
67.7587520879
 11
82.9228768118
 21
67.7587520879
  0
LINE
  5
444
100
AcDbEntity
  8
RUNDUNGEN
100
AcDbLine
 62
7
  6
CONTINUOUS
 10
77.025234506
 20
68.2587520879
 11
120.5151066176
 21
68.2587520879
  0
LINE
  5
445
100
AcDbEntity
  8
0
100
AcDbLine
 62
7
  6
CONTINUOUS
 10
97.1035041239
 20
78.5832202237
 11
97.6868374373
 21
77.0087520879
  0
LINE
  5
446
100
AcDbEntity
  8
0
100
AcDbLine
 62
7
  6
CONTINUOUS
 10
97.8535041239
 20
77.2215180498
 11
97.2285041239
 21
79.0087520879
  0
LINE
  5
447
100
AcDbEntity
  8
0
100
AcDbLine
 62
7
  6
CONTINUOUS
 10
101.9993378545
 20
68.2587520879
 11
101.9993378545
 21
67.7587520879
  0
LINE
  5
448
100
AcDbEntity
  8
0
100
AcDbLine
 62
7
  6
CONTINUOUS
 10
102.1035047199
 20
68.2587520879
 11
102.1035047199
 21
67.7587520879
  0
LINE
  5
449
100
AcDbEntity
  8
0
100
AcDbLine
 62
7
  6
CONTINUOUS
 10
102.1555878545
 20
68.2587520879
 11
102.1555878545
 21
67.7587520879
  0
LINE
  5
44A
100
AcDbEntity
  8
0
100
AcDbLine
 62
7
  6
CONTINUOUS
 10
102.2285042431
 20
87.3399143507
 11
102.2285042431
 21
87.3681047532
  0
LINE
  5
44B
100
AcDbEntity
  8
0
100
AcDbLine
 62
7
  6
CONTINUOUS
 10
102.7285042431
 20
87.2524177855
 11
102.7285042431
 21
87.3074007314
  0
LINE
  5
44C
100
AcDbEntity
  8
0
100
AcDbLine
 62
7
  6
CONTINUOUS
 10
99.2285041239
 20
78.3704541724
 11
99.3118373777
 21
78.2002414268
  0
LINE
  5
44D
100
AcDbEntity
  8
0
100
AcDbLine
 62
7
  6
CONTINUOUS
 10
99.1868373777
 20
77.5193903845
 11
99.27017087
 21
77.3066244226
  0
LINE
  5
44E
100
AcDbEntity
  8
0
100
AcDbLine
 62
7
  6
CONTINUOUS
 10
99.27017087
 20
77.3066244226
 11
99.39517087
 21
77.1789648485
  0
LINE
  5
44F
100
AcDbEntity
  8
0
100
AcDbLine
 62
7
  6
CONTINUOUS
 10
99.52017087
 20
77.349177609
 11
99.39517087
 21
77.5193903845
  0
LINE
  5
450
100
AcDbEntity
  8
0
100
AcDbLine
 62
7
  6
CONTINUOUS
 10
100.3535041239
 20
77.817262749
 11
100.4785041239
 21
77.6470499437
  0
LINE
  5
451
100
AcDbEntity
  8
0
100
AcDbLine
 62
7
  6
CONTINUOUS
 10
99.52017087
 20
78.2853477996
 11
99.4368373777
 21
78.4130073588
  0
LINE
  5
452
100
AcDbEntity
  8
0
100
AcDbLine
 62
7
  6
CONTINUOUS
 10
100.3535041239
 20
78.6257734101
 11
100.4368373777
 21
78.4981137317
  0
LINE
  5
453
100
AcDbEntity
  8
0
100
AcDbLine
 62
7
  6
CONTINUOUS
 10
100.6868373777
 20
77.6470499437
 11
100.6035041239
 21
77.8598159354
  0
LINE
  5
454
100
AcDbEntity
  8
0
100
AcDbLine
 62
7
  6
CONTINUOUS
 10
100.64517087
 20
78.4981137317
 11
100.5618373777
 21
78.710879783
  0
LINE
  5
455
100
AcDbEntity
  8
0
100
AcDbLine
 62
7
  6
CONTINUOUS
 10
110.0201707508
 20
68.2587520879
 11
110.0201707508
 21
67.7587520879
  0
LINE
  5
456
100
AcDbEntity
  8
0
100
AcDbLine
 62
7
  6
CONTINUOUS
 10
100.1868373777
 20
77.2640712362
 11
100.02017087
 21
77.2215180498
  0
LINE
  5
457
100
AcDbEntity
  8
0
100
AcDbLine
 62
7
  6
CONTINUOUS
 10
99.6868373777
 20
77.9023691218
 11
99.8535041239
 21
77.9449223083
  0
LINE
  5
458
100
AcDbEntity
  8
0
100
AcDbLine
 62
7
  6
CONTINUOUS
 10
100.1868373777
 20
78.1576882403
 11
100.02017087
 21
78.1151350539
  0
LINE
  5
459
100
AcDbEntity
  8
0
100
AcDbLine
 62
7
  6
CONTINUOUS
 10
100.0618373777
 20
77.0087520879
 11
100.27017087
 21
77.051305278
  0
LINE
  5
45A
100
AcDbEntity
  8
BEZUGSACHSEN
100
AcDbLine
 62
7
  6
CONTINUOUS
 10
77.025234506
 20
76.7587520879
 11
120.5151066176
 21
76.7587520879
  0
LINE
  5
45B
100
AcDbEntity
  8
0
100
AcDbLine
 62
7
  6
CONTINUOUS
 10
96.8535041239
 20
77.0087520879
 11
97.1035041239
 21
77.0087520879
  0
LINE
  5
45C
100
AcDbEntity
  8
0
100
AcDbLine
 62
7
  6
CONTINUOUS
 10
97.6868374373
 20
77.0087520879
 11
98.0201707508
 21
77.0087520879
  0
LINE
  5
45D
100
AcDbEntity
  8
0
100
AcDbLine
 62
7
  6
CONTINUOUS
 10
98.6035041239
 20
77.0087520879
 11
98.8535041239
 21
77.0087520879
  0
LINE
  5
45E
100
AcDbEntity
  8
0
100
AcDbLine
 62
7
  6
CONTINUOUS
 10
99.8118373777
 20
77.0087520879
 11
100.0618373777
 21
77.0087520879
  0
LINE
  5
45F
100
AcDbEntity
  8
0
100
AcDbLine
 62
7
  6
CONTINUOUS
 10
100.02017087
 20
77.2215180498
 11
99.8535041239
 21
77.2215180498
  0
LINE
  5
460
100
AcDbEntity
  8
0
100
AcDbLine
 62
7
  6
CONTINUOUS
 10
99.6035041239
 20
77.051305278
 11
99.8118373777
 21
77.0087520879
  0
LINE
  5
461
100
AcDbEntity
  8
0
100
AcDbLine
 62
7
  6
CONTINUOUS
 10
99.8535041239
 20
77.2215180498
 11
99.6868373777
 21
77.2640712362
  0
LINE
  5
462
100
AcDbEntity
  8
0
100
AcDbLine
 62
7
  6
CONTINUOUS
 10
99.6868373777
 20
77.2640712362
 11
99.52017087
 21
77.349177609
  0
LINE
  5
463
100
AcDbEntity
  8
0
100
AcDbLine
 62
7
  6
CONTINUOUS
 10
99.4368373777
 20
78.0725818675
 11
99.52017087
 21
78.0300286811
  0
LINE
  5
464
100
AcDbEntity
  8
0
100
AcDbLine
 62
7
  6
CONTINUOUS
 10
100.1868373777
 20
77.9023691218
 11
100.3535041239
 21
77.817262749
  0
LINE
  5
465
100
AcDbEntity
  8
0
100
AcDbLine
 62
7
  6
CONTINUOUS
 10
100.4368373777
 20
77.9874754947
 11
100.3535041239
 21
78.0300286811
  0
LINE
  5
466
100
AcDbEntity
  8
0
100
AcDbLine
 62
7
  6
CONTINUOUS
 10
99.39517087
 20
77.1789648485
 11
99.6035041239
 21
77.051305278
  0
LINE
  5
467
100
AcDbEntity
  8
0
100
AcDbLine
 62
7
  6
CONTINUOUS
 10
99.6868373777
 20
78.1576882403
 11
99.52017087
 21
78.2853477996
  0
LINE
  5
468
100
AcDbEntity
  8
0
100
AcDbLine
 62
7
  6
CONTINUOUS
 10
100.6035041239
 20
77.8598159354
 11
100.4368373777
 21
77.9874754947
  0
LINE
  5
469
100
AcDbEntity
  8
0
100
AcDbLine
 62
7
  6
CONTINUOUS
 10
100.1868373777
 20
78.7534329694
 11
100.3535041239
 21
78.6257734101
  0
LINE
  5
46A
100
AcDbEntity
  8
0
100
AcDbLine
 62
7
  6
CONTINUOUS
 10
99.3118373777
 20
78.2002414268
 11
99.4368373777
 21
78.0725818675
  0
LINE
  5
46B
100
AcDbEntity
  8
0
100
AcDbLine
 62
7
  6
CONTINUOUS
 10
100.5618373777
 20
78.710879783
 11
100.4368373777
 21
78.8385393422
  0
LINE
  5
46C
100
AcDbEntity
  8
0
100
AcDbLine
 62
7
  6
CONTINUOUS
 10
112.2411850714
 20
68.2587520879
 11
112.2411850714
 21
67.7587520879
  0
LWPOLYLINE
  5
46D
100
AcDbEntity
  8
RUNDUNGEN
100
AcDbPolyline
 62
7
  6
CONTINUOUS
 90
19
 70
0
 10
112.6800653576
 20
62.3267898247
 10
113.3062833594
 20
62.8892460161
 10
113.9787623198
 20
63.5335451611
 10
114.580069149
 20
64.144161757
 10
115.1222487097
 20
64.7203938382
 10
115.6147640918
 20
65.2613074182
 10
116.0626573918
 20
65.7629189941
 10
116.4724071887
 20
66.2242061149
 10
116.8458995706
 20
66.6403283132
 10
117.1857901622
 20
67.0088385183
 10
117.4935630418
 20
67.3276375189
 10
117.7695617463
 20
67.5953367334
 10
118.0156282573
 20
67.8138428328
 10
118.2311514943
 20
67.9844177876
 10
118.4159258702
 20
68.1102685828
 10
118.5675977544
 20
68.1946436126
 10
118.6790170962
 20
68.2409538174
 10
118.7414264627
 20
68.2571769153
 10
118.7557804284
 20
68.2587514416
  0
LINE
  5
46E
100
AcDbEntity
  8
0
100
AcDbLine
 62
7
  6
CONTINUOUS
 10
99.6868373777
 20
78.7534329694
 11
99.8535041239
 21
78.7959861558
  0
LINE
  5
46F
100
AcDbEntity
  8
0
100
AcDbLine
 62
7
  6
CONTINUOUS
 10
99.8535041239
 20
79.0087520879
 11
99.64517087
 21
78.9661989015
  0
LINE
  5
470
100
AcDbEntity
  8
0
100
AcDbLine
 62
7
  6
CONTINUOUS
 10
99.8535041239
 20
77.9449223083
 11
100.02017087
 21
77.9449223083
  0
LINE
  5
471
100
AcDbEntity
  8
0
100
AcDbLine
 62
7
  6
CONTINUOUS
 10
100.02017087
 20
78.1151350539
 11
99.8535041239
 21
78.1151350539
  0
LINE
  5
472
100
AcDbEntity
  8
0
100
AcDbLine
 62
7
  6
CONTINUOUS
 10
99.8535041239
 20
78.7959861558
 11
100.02017087
 21
78.7959861558
  0
LINE
  5
473
100
AcDbEntity
  8
0
100
AcDbLine
 62
7
  6
CONTINUOUS
 10
100.02017087
 20
79.0087520879
 11
99.8535041239
 21
79.0087520879
  0
LINE
  5
474
100
AcDbEntity
  8
0
100
AcDbLine
 62
7
  6
CONTINUOUS
 10
98.8535041239
 20
79.0087520879
 11
98.4785041239
 21
79.0087520879
  0
LINE
  5
475
100
AcDbEntity
  8
0
100
AcDbLine
 62
7
  6
CONTINUOUS
 10
97.2285041239
 20
79.0087520879
 11
96.8535041239
 21
79.0087520879
  0
LWPOLYLINE
  5
476
100
AcDbEntity
  8
BEZUGSACHSEN
100
AcDbPolyline
 62
7
  6
CONTINUOUS
 90
19
 70
0
 10
118.7557859497
 20
76.7587527344
 10
118.74150671
 20
76.7603144904
 10
118.6793213718
 20
76.7764492497
 10
118.5682342978
 20
76.8225519323
 10
118.4169982855
 20
76.9065719112
 10
118.2327701243
 20
77.0318938558
 10
118.0179951265
 20
77.2016720169
 10
117.773059436
 20
77.4189139386
 10
117.4984336781
 20
77.6849740989
 10
117.1922419201
 20
78.0018128601
 10
116.853917723
 20
78.3683422847
 10
116.4817390536
 20
78.7828207982
 10
116.0728272563
 20
79.2431360471
 10
115.6248482637
 20
79.7449836682
 10
115.1314447398
 20
80.2871487463
 10
114.5874506646
 20
80.8656535662
 10
113.9837678621
 20
81.4790082045
 10
113.308887905
 20
82.1258432469
 10
112.6800655038
 20
82.6907142238
  0
LINE
  5
477
100
AcDbEntity
  8
0
100
AcDbLine
 62
7
  6
CONTINUOUS
 10
100.2285041239
 20
78.9661989015
 11
100.02017087
 21
79.0087520879
  0
LINE
  5
478
100
AcDbEntity
  8
0
100
AcDbLine
 62
7
  6
CONTINUOUS
 10
100.02017087
 20
77.9449223083
 11
100.1868373777
 21
77.9023691218
  0
LINE
  5
479
100
AcDbEntity
  8
0
100
AcDbLine
 62
7
  6
CONTINUOUS
 10
99.8535041239
 20
78.1151350539
 11
99.6868373777
 21
78.1576882403
  0
LINE
  5
47A
100
AcDbEntity
  8
0
100
AcDbLine
 62
7
  6
CONTINUOUS
 10
100.02017087
 20
78.7959861558
 11
100.1868373777
 21
78.7534329694
  0
LINE
  5
47B
100
AcDbEntity
  8
0
100
AcDbLine
 62
7
  6
CONTINUOUS
 10
100.4368373777
 20
78.8385393422
 11
100.2285041239
 21
78.9661989015
  0
LINE
  5
47C
100
AcDbEntity
  8
0
100
AcDbLine
 62
7
  6
CONTINUOUS
 10
113.7411850714
 20
68.2587520879
 11
113.7411850714
 21
67.7587520879
  0
LWPOLYLINE
  5
47D
100
AcDbEntity
  8
BEZUGSACHSEN
100
AcDbPolyline
 62
7
  6
CONTINUOUS
 90
21
 70
0
 10
112.6800474556
 20
82.6907292951
 10
111.7702724257
 20
83.4312584598
 10
110.6344608545
 20
84.2314180705
 10
109.394899694
 20
84.9730185253
 10
108.0622286838
 20
85.6409570802
 10
106.6465101774
 20
86.2237377476
 10
105.1596921189
 20
86.7117150329
 10
103.6148653241
 20
87.0973106852
 10
102.0266183847
 20
87.375242989
 10
100.409616184
 20
87.5424965502
 10
98.7783167898
 20
87.5983990435
 10
97.1469315888
 20
87.5436019691
 10
95.5296927383
 20
87.3774551178
 10
93.9410603566
 20
87.1006069049
 10
92.3957080473
 20
86.7160523773
 10
90.9082451085
 20
86.2290558417
 10
89.4917798344
 20
85.647179778
 10
88.1582792561
 20
84.9800588372
 10
86.917836027
 20
84.2391890266
 10
85.7811215055
 20
83.439672649
 10
84.860292687
 20
82.6907280284
  0
LWPOLYLINE
  5
47E
100
AcDbEntity
  8
BEZUGSACHSEN
100
AcDbPolyline
 62
7
  6
CONTINUOUS
 90
7
 70
0
 10
122.1404298583
 20
72.5087520879
 10
122.1382306737
 20
72.8807872224
 10
122.1276390737
 20
73.4066714883
 10
122.1081002354
 20
73.9376371789
 10
122.0794365878
 20
74.4727248214
 10
122.0415251461
 20
75.010954151
 10
122.0089414313
 20
75.3946103233
  0
LWPOLYLINE
  5
47F
100
AcDbEntity
  8
RUNDUNGEN
100
AcDbPolyline
 62
7
  6
CONTINUOUS
 90
7
 70
0
 10
122.0089414313
 20
69.6228938525
 10
122.0415251461
 20
70.0065500248
 10
122.0794365878
 20
70.5447793545
 10
122.1081002354
 20
71.0798669969
 10
122.1276390737
 20
71.6108326875
 10
122.1382306737
 20
72.1367169535
 10
122.1404298583
 20
72.5087520879
  0
ARC
  5
480
100
AcDbEntity
  8
0
100
AcDbCircle
 62
7
  6
CONTINUOUS
 10
96.8876903879
 20
160.241473838
 40
18.5142246357
100
AcDbArc
 50
262.9838278117
 51
263.3180380407
  0
ARC
  5
481
100
AcDbEntity
  8
0
100
AcDbCircle
 62
7
  6
CONTINUOUS
 10
100.7348106547
 20
159.5583520083
 40
17.8261810243
100
AcDbArc
 50
276.7225560853
 51
277.132411856
  0
ARC
  5
482
100
AcDbEntity
  8
0
100
AcDbCircle
 62
7
  6
CONTINUOUS
 10
96.7893716422
 20
159.4131852095
 40
17.6801292498
100
AcDbArc
 50
262.8577353228
 51
262.972185547
  0
ARC
  5
483
100
AcDbEntity
  8
0
100
AcDbCircle
 62
7
  6
CONTINUOUS
 10
98.7701707508
 20
156.488840915
 40
15.0
100
AcDbArc
 50
228.3198055131
 51
229.3357703763
  0
ARC
  5
484
100
AcDbEntity
  8
0
100
AcDbCircle
 62
7
  6
CONTINUOUS
 10
98.7701707508
 20
156.488840915
 40
15.0
100
AcDbArc
 50
310.6642498434
 51
311.6800498572
  0
ARC
  5
485
100
AcDbEntity
  8
0
100
AcDbCircle
 62
7
  6
CONTINUOUS
 10
98.7701707508
 20
156.488840915
 40
15.0
100
AcDbArc
 50
265.5407412102
 51
274.4595626198
  0
ARC
  5
486
100
AcDbEntity
  8
BEZUGSACHSEN
100
AcDbCircle
 62
7
  6
CONTINUOUS
 10
98.7701707508
 20
152.488840915
 40
12.5
100
AcDbArc
 50
332.4520874172
 51
345.5083194415
  0
ARC
  5
487
100
AcDbEntity
  8
BEZUGSACHSEN
100
AcDbCircle
 62
7
  6
CONTINUOUS
 10
98.7701707508
 20
152.488840915
 40
12.5
100
AcDbArc
 50
194.4916805585
 51
207.5478133357
  0
ARC
  5
488
100
AcDbEntity
  8
RUNDUNGEN
100
AcDbCircle
 62
7
  6
CONTINUOUS
 10
98.7701707508
 20
152.488840915
 40
12.5
100
AcDbArc
 50
332.4520874172
 51
207.5478133357
  0
ARC
  5
489
100
AcDbEntity
  8
BEZUGSACHSEN
100
AcDbCircle
 62
7
  6
CONTINUOUS
 10
116.2701707508
 20
130.488840915
 40
5.0
100
AcDbArc
 50
102.7696134117
 51
180.0
  0
ARC
  5
48A
100
AcDbEntity
  8
BEZUGSACHSEN
100
AcDbCircle
 62
7
  6
CONTINUOUS
 10
81.2701707508
 20
130.488840915
 40
5.0
100
AcDbArc
 50
0.0
 51
77.2303865883
  0
ARC
  5
48B
100
AcDbEntity
  8
RUNDUNGEN
100
AcDbCircle
 62
7
  6
CONTINUOUS
 10
105.4198153606
 20
149.020090915
 40
5.0
100
AcDbArc
 50
311.680951574
 51
332.4530374549
  0
ARC
  5
48C
100
AcDbEntity
  8
BEZUGSACHSEN
100
AcDbCircle
 62
7
  6
CONTINUOUS
 10
105.4198153606
 20
149.020090915
 40
5.0
100
AcDbArc
 50
315.3527770305
 51
332.4530374549
  0
ARC
  5
48D
100
AcDbEntity
  8
BEZUGSACHSEN
100
AcDbCircle
 62
7
  6
CONTINUOUS
 10
92.1205261409
 20
149.020090915
 40
5.0
100
AcDbArc
 50
207.5467144367
 51
224.6474603225
  0
ARC
  5
48E
100
AcDbEntity
  8
RUNDUNGEN
100
AcDbCircle
 62
7
  6
CONTINUOUS
 10
92.1205261409
 20
149.020090915
 40
5.0
100
AcDbArc
 50
207.5467144367
 51
228.318614542
  0
ARC
  5
48F
100
AcDbEntity
  8
BEZUGSACHSEN
100
AcDbCircle
 62
7
  6
CONTINUOUS
 10
120.6404302028
 20
152.5036937546
 40
1.5
100
AcDbArc
 50
337.4998988125
 51
22.4998568986
  0
ARC
  5
490
100
AcDbEntity
  8
RUNDUNGEN
100
AcDbCircle
 62
7
  6
CONTINUOUS
 10
114.2391298116
 20
167.9577999758
 40
1.5
100
AcDbArc
 50
22.5
 51
67.5
  0
ARC
  5
491
100
AcDbEntity
  8
RUNDUNGEN
100
AcDbCircle
 62
7
  6
CONTINUOUS
 10
98.7701707508
 20
174.3652526146
 40
1.5
100
AcDbArc
 50
67.5
 51
112.5
  0
ARC
  5
492
100
AcDbEntity
  8
RUNDUNGEN
100
AcDbCircle
 62
7
  6
CONTINUOUS
 10
83.30121169
 20
167.9577999758
 40
1.5
100
AcDbArc
 50
112.5
 51
157.5
  0
ARC
  5
493
100
AcDbEntity
  8
BEZUGSACHSEN
100
AcDbCircle
 62
7
  6
CONTINUOUS
 10
76.8999108334
 20
152.5036926311
 40
1.5
100
AcDbArc
 50
157.5000966532
 51
202.5000683439
  0
ARC
  5
494
100
AcDbEntity
  8
0
100
AcDbCircle
 62
7
  6
CONTINUOUS
 10
112.7701707508
 20
164.2982384283
 40
1.25
100
AcDbArc
 50
39.0304446498
 51
221.239813447
  0
ARC
  5
495
100
AcDbEntity
  8
0
100
AcDbCircle
 62
7
  6
CONTINUOUS
 10
111.2701707508
 20
165.7982384283
 40
1.25
100
AcDbArc
 50
39.0304446498
 51
221.239813447
  0
ARC
  5
496
100
AcDbEntity
  8
RUNDUNGEN
100
AcDbCircle
 62
7
  6
CONTINUOUS
 10
80.2701707508
 20
137.488840915
 40
1.0
100
AcDbArc
 50
180.0
 51
270.0
  0
ARC
  5
497
100
AcDbEntity
  8
RUNDUNGEN
100
AcDbCircle
 62
7
  6
CONTINUOUS
 10
117.2701707508
 20
137.488840915
 40
1.0
100
AcDbArc
 50
270.0
 51
360.0
  0
ARC
  5
498
100
AcDbEntity
  8
BEZUGSACHSEN
100
AcDbCircle
 62
7
  6
CONTINUOUS
 10
116.2986306204
 20
135.4888409958
 40
0.9999999838
100
AcDbArc
 50
89.9999918339
 51
157.5000011528
  0
ARC
  5
499
100
AcDbEntity
  8
BEZUGSACHSEN
100
AcDbCircle
 62
7
  6
CONTINUOUS
 10
119.2701707508
 20
142.6627771368
 40
0.9999999177
100
AcDbArc
 50
157.5002160809
 51
180.0002338839
  0
ARC
  5
49A
100
AcDbEntity
  8
BEZUGSACHSEN
100
AcDbCircle
 62
7
  6
CONTINUOUS
 10
81.2417111614
 20
135.4888413818
 40
0.9999999066
100
AcDbArc
 50
22.4999845593
 51
90.0000242219
  0
ARC
  5
49B
100
AcDbEntity
  8
BEZUGSACHSEN
100
AcDbCircle
 62
7
  6
CONTINUOUS
 10
78.2701707508
 20
142.6627823595
 40
0.9999997272
100
AcDbArc
 50
359.9994668798
 51
22.4995074591
  0
ARC
  5
49C
100
AcDbEntity
  8
0
100
AcDbCircle
 62
7
  6
CONTINUOUS
 10
112.7701707508
 20
164.2982384283
 40
0.88
100
AcDbArc
 50
147.4688671253
 51
233.4952415783
  0
ARC
  5
49D
100
AcDbEntity
  8
0
100
AcDbCircle
 62
7
  6
CONTINUOUS
 10
112.7701707508
 20
164.2982384283
 40
0.88
100
AcDbArc
 50
36.5047584217
 51
123.0056861701
  0
ARC
  5
49E
100
AcDbEntity
  8
0
100
AcDbCircle
 62
7
  6
CONTINUOUS
 10
111.2701707508
 20
165.7982384283
 40
0.88
100
AcDbArc
 50
47.6447948634
 51
233.4952415783
  0
ARC
  5
49F
100
AcDbEntity
  8
0
100
AcDbCircle
 62
7
  6
CONTINUOUS
 10
26.8970915992
 20
165.9785185425
 40
170.6480778845
100
AcDbArc
 50
349.2281391554
 51
349.3444661934
  0
ARC
  5
4A0
100
AcDbEntity
  8
0
100
AcDbCircle
 62
7
  6
CONTINUOUS
 10
61.1769594105
 20
170.3150711554
 40
139.344844601
100
AcDbArc
 50
346.0020113183
 51
346.1222643563
  0
ARC
  5
4A1
100
AcDbEntity
  8
0
100
AcDbCircle
 62
7
  6
CONTINUOUS
 10
110.7978562268
 20
172.0214005548
 40
91.6515933751
100
AcDbArc
 50
337.0591271502
 51
337.2323372476
  0
ARC
  5
4A2
100
AcDbEntity
  8
0
100
AcDbCircle
 62
7
  6
CONTINUOUS
 10
124.0093476583
 20
145.7896601598
 40
72.1757582133
100
AcDbArc
 50
350.803452186
 51
351.1458049368
  0
ARC
  5
4A3
100
AcDbEntity
  8
0
100
AcDbCircle
 62
7
  6
CONTINUOUS
 10
127.925733653
 20
151.269187578
 40
69.940690679
100
AcDbArc
 50
347.6393362518
 51
347.9956204698
  0
ARC
  5
4A4
100
AcDbEntity
  8
0
100
AcDbCircle
 62
7
  6
CONTINUOUS
 10
132.2928780741
 20
158.4044810117
 40
67.7962369219
100
AcDbArc
 50
338.9783658199
 51
339.2347871655
  0
ARC
  5
4A5
100
AcDbEntity
  8
0
100
AcDbCircle
 62
7
  6
CONTINUOUS
 10
131.6728504766
 20
155.073538543
 40
67.4393312617
100
AcDbArc
 50
341.0136470788
 51
341.5734631062
  0
ARC
  5
4A6
100
AcDbEntity
  8
0
100
AcDbCircle
 62
7
  6
CONTINUOUS
 10
134.6428154464
 20
154.8422711348
 40
64.5286167972
100
AcDbArc
 50
340.3401707378
 51
340.9275679618
  0
ARC
  5
4A7
100
AcDbEntity
  8
0
100
AcDbCircle
 62
7
  6
CONTINUOUS
 10
137.5336034901
 20
153.7249792244
 40
60.9358164444
100
AcDbArc
 50
340.0945292307
 51
340.5588815681
  0
ARC
  5
4A8
100
AcDbEntity
  8
0
100
AcDbCircle
 62
7
  6
CONTINUOUS
 10
-15.1931708734
 20
213.7242340227
 40
224.8015971499
100
AcDbArc
 50
339.7147194718
 51
339.8534110495
  0
ARC
  5
4A9
100
AcDbEntity
  8
0
100
AcDbCircle
 62
7
  6
CONTINUOUS
 10
36.0123577428
 20
197.5260189973
 40
171.065735563
100
AcDbArc
 50
338.8744795603
 51
339.0271951274
  0
ARC
  5
4AA
100
AcDbEntity
  8
0
100
AcDbCircle
 62
7
  6
CONTINUOUS
 10
44.6494642601
 20
194.4816084203
 40
161.4032936648
100
AcDbArc
 50
338.7076795454
 51
338.869714585
  0
ARC
  5
4AB
100
AcDbEntity
  8
0
100
AcDbCircle
 62
7
  6
CONTINUOUS
 10
69.9427757042
 20
179.2077034331
 40
133.4992821119
100
AcDbArc
 50
340.3999323221
 51
340.5162091666
  0
ARC
  5
4AC
100
AcDbEntity
  8
0
100
AcDbCircle
 62
7
  6
CONTINUOUS
 10
106.9108777506
 20
173.5137465177
 40
96.3149624339
100
AcDbArc
 50
337.2691291409
 51
337.4337048117
  0
ARC
  5
4AD
100
AcDbEntity
  8
0
100
AcDbCircle
 62
7
  6
CONTINUOUS
 10
169.717118514
 20
141.763945575
 40
27.1772282896
100
AcDbArc
 50
349.6753559249
 51
350.2220190191
  0
ARC
  5
4AE
100
AcDbEntity
  8
0
100
AcDbCircle
 62
7
  6
CONTINUOUS
 10
170.8301097881
 20
141.3502316076
 40
25.986258784
100
AcDbArc
 50
347.8296142927
 51
348.2132622229
  0
ARC
  5
4AF
100
AcDbEntity
  8
0
100
AcDbCircle
 62
7
  6
CONTINUOUS
 10
170.2646771496
 20
135.4906540388
 40
24.8588389439
100
AcDbArc
 50
356.1679021173
 51
356.7574991412
  0
ARC
  5
4B0
100
AcDbEntity
  8
0
100
AcDbCircle
 62
7
  6
CONTINUOUS
 10
170.5115633423
 20
135.2552538731
 40
24.0551462895
100
AcDbArc
 50
356.6015176592
 51
357.2105404856
  0
ARC
  5
4B1
100
AcDbEntity
  8
0
100
AcDbCircle
 62
7
  6
CONTINUOUS
 10
173.0542891917
 20
140.5360042736
 40
7.1674231191
100
AcDbArc
 50
205.9135659712
 51
207.4363453438
  0
ARC
  5
4B2
100
AcDbEntity
  8
0
100
AcDbCircle
 62
7
  6
CONTINUOUS
 10
173.4165036634
 20
140.4891029239
 40
7.0002863751
100
AcDbArc
 50
206.15167241
 51
207.7143635856
  0
ARC
  5
4B3
100
AcDbEntity
  8
0
100
AcDbCircle
 62
7
  6
CONTINUOUS
 10
172.7398881911
 20
138.9581114786
 40
6.4029881582
100
AcDbArc
 50
194.0493802273
 51
195.6250790355
  0
ARC
  5
4B4
100
AcDbEntity
  8
0
100
AcDbCircle
 62
7
  6
CONTINUOUS
 10
173.1742038072
 20
136.0676285785
 40
5.9732963368
100
AcDbArc
 50
199.8232760617
 51
200.1124819977
  0
ARC
  5
4B5
100
AcDbEntity
  8
0
100
AcDbCircle
 62
7
  6
CONTINUOUS
 10
173.2010158499
 20
135.6095023929
 40
5.8649683714
100
AcDbArc
 50
198.5449261527
 51
200.3082130517
  0
ARC
  5
4B6
100
AcDbEntity
  8
0
100
AcDbCircle
 62
7
  6
CONTINUOUS
 10
172.0245792717
 20
137.6766338058
 40
5.5367177452
100
AcDbArc
 50
226.5208550406
 51
227.8163411921
  0
ARC
  5
4B7
100
AcDbEntity
  8
0
100
AcDbCircle
 62
7
  6
CONTINUOUS
 10
173.0086851899
 20
134.5886674691
 40
5.3816531523
100
AcDbArc
 50
185.3745872254
 51
186.2853928911
  0
ARC
  5
4B8
100
AcDbEntity
  8
0
100
AcDbCircle
 62
7
  6
CONTINUOUS
 10
173.0597876335
 20
134.1387662764
 40
5.2989765799
100
AcDbArc
 50
184.2706774276
 51
186.1187926115
  0
ARC
  5
4B9
100
AcDbEntity
  8
0
100
AcDbCircle
 62
7
  6
CONTINUOUS
 10
171.3326060393
 20
138.231026487
 40
5.0248544306
100
AcDbArc
 50
239.2112520477
 51
241.163253247
  0
ARC
  5
4BA
100
AcDbEntity
  8
0
100
AcDbCircle
 62
7
  6
CONTINUOUS
 10
170.7886980584
 20
138.1110766516
 40
4.9219332745
100
AcDbArc
 50
238.5014663809
 51
240.452224531
  0
ARC
  5
4BB
100
AcDbEntity
  8
0
100
AcDbCircle
 62
7
  6
CONTINUOUS
 10
171.4589779337
 20
137.9435464338
 40
4.8924033192
100
AcDbArc
 50
210.6976723343
 51
211.8590616027
  0
ARC
  5
4BC
100
AcDbEntity
  8
0
100
AcDbCircle
 62
7
  6
CONTINUOUS
 10
171.368855902
 20
137.8900346755
 40
4.7875916363
100
AcDbArc
 50
209.5153691533
 51
210.6976089076
  0
ARC
  5
4BD
100
AcDbEntity
  8
0
100
AcDbCircle
 62
7
  6
CONTINUOUS
 10
170.5246369967
 20
137.7446396093
 40
4.7237977527
100
AcDbArc
 50
241.9955167593
 51
244.2802351319
  0
ARC
  5
4BE
100
AcDbEntity
  8
0
100
AcDbCircle
 62
7
  6
CONTINUOUS
 10
169.5444581705
 20
135.9442887172
 40
2.4649080561
100
AcDbArc
 50
184.988659911
 51
185.6501942044
  0
ARC
  5
4BF
100
AcDbEntity
  8
0
100
AcDbCircle
 62
7
  6
CONTINUOUS
 10
169.5321813832
 20
135.9432777756
 40
2.4525898649
100
AcDbArc
 50
181.6695950005
 51
184.9900723329
  0
ARC
  5
4C0
100
AcDbEntity
  8
0
100
AcDbCircle
 62
7
  6
CONTINUOUS
 10
169.2120532439
 20
134.230461689
 40
1.6478609481
100
AcDbArc
 50
203.4784426783
 51
206.7469290982
  0
ARC
  5
4C1
100
AcDbEntity
  8
0
100
AcDbCircle
 62
7
  6
CONTINUOUS
 10
167.9567000831
 20
137.8845746053
 40
1.5240754049
100
AcDbArc
 50
212.6061696087
 51
216.4914490599
  0
ARC
  5
4C2
100
AcDbEntity
  8
BEZUGSACHSEN
100
AcDbCircle
 62
7
  6
CONTINUOUS
 10
168.0668316234
 20
139.1833754184
 40
1.5
100
AcDbArc
 50
105.0
 51
197.0
  0
ARC
  5
4C3
100
AcDbEntity
  8
0
100
AcDbCircle
 62
7
  6
CONTINUOUS
 10
168.2404994676
 20
136.1351739598
 40
1.3000774027
100
AcDbArc
 50
220.5376916663
 51
221.3613736204
  0
ARC
  5
4C4
100
AcDbEntity
  8
0
100
AcDbCircle
 62
7
  6
CONTINUOUS
 10
169.0507411748
 20
133.4542666719
 40
1.2654143493
100
AcDbArc
 50
174.5729563099
 51
178.4343430547
  0
ARC
  5
4C5
100
AcDbEntity
  8
0
100
AcDbCircle
 62
7
  6
CONTINUOUS
 10
169.5389166174
 20
133.4424133316
 40
1.2289590832
100
AcDbArc
 50
174.1003500387
 51
177.834966385
  0
ARC
  5
4C6
100
AcDbEntity
  8
0
100
AcDbCircle
 62
7
  6
CONTINUOUS
 10
168.610421489
 20
134.4832956116
 40
1.1470980824
100
AcDbArc
 50
205.7332234524
 51
209.7335343863
  0
ARC
  5
4C7
100
AcDbEntity
  8
0
100
AcDbCircle
 62
7
  6
CONTINUOUS
 10
168.5530342325
 20
134.4549650762
 40
1.0831017576
100
AcDbArc
 50
204.8685826851
 51
205.7012518932
  0
ARC
  5
4C8
100
AcDbEntity
  8
0
100
AcDbCircle
 62
7
  6
CONTINUOUS
 10
167.5737808538
 20
137.1111390087
 40
0.9221762117
100
AcDbArc
 50
183.8559487444
 51
188.2883513643
  0
ARC
  5
4C9
100
AcDbEntity
  8
0
100
AcDbCircle
 62
7
  6
CONTINUOUS
 10
167.5624863033
 20
137.1102270228
 40
0.9108459118
100
AcDbArc
 50
182.9526311029
 51
183.8464890576
  0
ARC
  5
4CA
100
AcDbEntity
  8
0
100
AcDbCircle
 62
7
  6
CONTINUOUS
 10
167.2512622576
 20
138.0167033818
 40
0.8884627681
100
AcDbArc
 50
216.4506431955
 51
217.6027424679
  0
ARC
  5
4CB
100
AcDbEntity
  8
0
100
AcDbCircle
 62
7
  6
CONTINUOUS
 10
168.4951452651
 20
133.8418945717
 40
0.8504902462
100
AcDbArc
 50
169.3221444567
 51
170.2927250208
  0
ARC
  5
4CC
100
AcDbEntity
  8
0
100
AcDbCircle
 62
7
  6
CONTINUOUS
 10
168.4775321179
 20
133.8447448195
 40
0.8326487051
100
AcDbArc
 50
170.2816880383
 51
175.2031922476
  0
ARC
  5
4CD
100
AcDbEntity
  8
0
100
AcDbCircle
 62
7
  6
CONTINUOUS
 10
166.995763486
 20
137.4554615
 40
0.4701840252
100
AcDbArc
 50
175.92902008
 51
186.316138847
  0
ARC
  5
4CE
100
AcDbEntity
  8
0
100
AcDbCircle
 62
7
  6
CONTINUOUS
 10
145.3777461068
 20
149.3770638422
 40
52.669717099
100
AcDbArc
 50
343.0003111945
 51
343.218011229
  0
ARC
  5
4CF
100
AcDbEntity
  8
0
100
AcDbCircle
 62
7
  6
CONTINUOUS
 10
157.5098871108
 20
150.4523849755
 40
41.354564144
100
AcDbArc
 50
336.9401777116
 51
337.5804344806
  0
ARC
  5
4D0
100
AcDbEntity
  8
0
100
AcDbCircle
 62
7
  6
CONTINUOUS
 10
171.7376476541
 20
144.5517481381
 40
26.0508321138
100
AcDbArc
 50
343.0009840031
 51
343.6848182298
  0
ARC
  5
4D1
100
AcDbEntity
  8
0
100
AcDbCircle
 62
7
  6
CONTINUOUS
 10
176.3717490157
 20
142.8370341235
 40
21.1055607824
100
AcDbArc
 50
334.7356062842
 51
335.4996566168
  0
ARC
  5
4D2
100
AcDbEntity
  8
BEZUGSACHSEN
100
AcDbCircle
 62
7
  6
CONTINUOUS
 10
170.4064799474
 20
148.6101298309
 40
7.0
100
AcDbArc
 50
284.9998929547
 51
0.0001066761
  0
ARC
  5
4D3
100
AcDbEntity
  8
0
100
AcDbCircle
 62
7
  6
CONTINUOUS
 10
177.4116900246
 20
136.9492251519
 40
10.2833300143
100
AcDbArc
 50
197.3313136798
 51
197.6634671017
  0
ARC
  5
4D4
100
AcDbEntity
  8
0
100
AcDbCircle
 62
7
  6
CONTINUOUS
 10
185.9012698713
 20
136.9492251515
 40
10.2833300131
100
AcDbArc
 50
342.3365328983
 51
342.6686863202
  0
ARC
  5
4D5
100
AcDbEntity
  8
0
100
AcDbCircle
 62
7
  6
CONTINUOUS
 10
185.9117621246
 20
136.9458846415
 40
10.2723188195
100
AcDbArc
 50
342.0047940868
 51
342.3365295753
  0
ARC
  5
4D6
100
AcDbEntity
  8
0
100
AcDbCircle
 62
7
  6
CONTINUOUS
 10
177.3987877842
 20
136.9451109508
 40
10.2697876944
100
AcDbArc
 50
197.6634371528
 51
198.1608768947
  0
ARC
  5
4D7
100
AcDbEntity
  8
0
100
AcDbCircle
 62
7
  6
CONTINUOUS
 10
177.5645662209
 20
135.0525148619
 40
9.8760889806
100
AcDbArc
 50
186.6175938076
 51
187.6127531455
  0
ARC
  5
4D8
100
AcDbEntity
  8
0
100
AcDbCircle
 62
7
  6
CONTINUOUS
 10
185.4695263391
 20
133.7812348622
 40
9.7817721294
100
AcDbArc
 50
1.2784511476
 51
2.275948168
  0
ARC
  5
4D9
100
AcDbEntity
  8
0
100
AcDbCircle
 62
7
  6
CONTINUOUS
 10
180.6374876035
 20
137.8527185002
 40
13.633974772
100
AcDbArc
 50
189.0789806498
 51
189.8029527815
  0
ARC
  5
4DA
100
AcDbEntity
  8
0
100
AcDbCircle
 62
7
  6
CONTINUOUS
 10
177.7095183913
 20
140.7351667972
 40
11.6888490328
100
AcDbArc
 50
214.678293498
 51
215.6992082874
  0
ARC
  5
4DB
100
AcDbEntity
  8
0
100
AcDbCircle
 62
7
  6
CONTINUOUS
 10
177.3719781099
 20
141.6326465604
 40
11.6140083532
100
AcDbArc
 50
203.6257731664
 51
204.3926666278
  0
ARC
  5
4DC
100
AcDbEntity
  8
0
100
AcDbCircle
 62
7
  6
CONTINUOUS
 10
177.6568589644
 20
140.1723156762
 40
11.4706037349
100
AcDbArc
 50
213.5719031499
 51
214.5984915508
  0
ARC
  5
4DD
100
AcDbEntity
  8
0
100
AcDbCircle
 62
7
  6
CONTINUOUS
 10
177.9578631935
 20
140.6595938698
 40
11.4056678865
100
AcDbArc
 50
215.2025373105
 51
216.2558528832
  0
ARC
  5
4DE
100
AcDbEntity
  8
0
100
AcDbCircle
 62
7
  6
CONTINUOUS
 10
177.6376724946
 20
139.8095987442
 40
11.3357375568
100
AcDbArc
 50
194.6129207439
 51
195.3545738182
  0
ARC
  5
4DF
100
AcDbEntity
  8
0
100
AcDbCircle
 62
7
  6
CONTINUOUS
 10
185.8553841476
 20
139.6754941043
 40
11.1263724222
100
AcDbArc
 50
329.3268009804
 51
330.3406336584
  0
ARC
  5
4E0
100
AcDbEntity
  8
0
100
AcDbCircle
 62
7
  6
CONTINUOUS
 10
177.3535200371
 20
139.8349309751
 40
11.0710027564
100
AcDbArc
 50
204.3169192828
 51
205.2873421031
  0
ARC
  5
4E1
100
AcDbEntity
  8
0
100
AcDbCircle
 62
7
  6
CONTINUOUS
 10
185.9594398576
 20
139.8349309751
 40
11.0710027564
100
AcDbArc
 50
334.7126578969
 51
335.6830807172
  0
ARC
  5
4E2
100
AcDbEntity
  8
0
100
AcDbCircle
 62
7
  6
CONTINUOUS
 10
185.5698560788
 20
137.6982341371
 40
10.8218952354
100
AcDbArc
 50
355.7328277612
 51
356.1850247267
  0
ARC
  5
4E3
100
AcDbEntity
  8
0
100
AcDbCircle
 62
7
  6
CONTINUOUS
 10
185.5849133814
 20
137.6971106734
 40
10.8067960787
100
AcDbArc
 50
355.2806998681
 51
355.7328276291
  0
ARC
  5
4E4
100
AcDbEntity
  8
BEZUGSACHSEN
100
AcDbCircle
 62
7
  6
CONTINUOUS
 10
181.6564799474
 20
140.488840915
 40
4.0
100
AcDbArc
 50
185.8667885188
 51
354.1332114812
  0
ARC
  5
4E5
100
AcDbEntity
  8
0
100
AcDbCircle
 62
7
  6
CONTINUOUS
 10
187.4070214576
 20
133.0086108382
 40
7.7047447689
100
AcDbArc
 50
4.2078654106
 51
6.1143448545
  0
ARC
  5
4E6
100
AcDbEntity
  8
0
100
AcDbCircle
 62
7
  6
CONTINUOUS
 10
187.1097823646
 20
132.9341082865
 40
7.4684640294
100
AcDbArc
 50
4.9146744378
 51
6.8839305195
  0
ARC
  5
4E7
100
AcDbEntity
  8
0
100
AcDbCircle
 62
7
  6
CONTINUOUS
 10
190.1119440448
 20
135.6095023929
 40
5.8649683714
100
AcDbArc
 50
339.6917869483
 51
341.4550738473
  0
ARC
  5
4E8
100
AcDbEntity
  8
0
100
AcDbCircle
 62
7
  6
CONTINUOUS
 10
193.3739090396
 20
136.5504850953
 40
3.2734796217
100
AcDbArc
 50
306.3613786083
 51
306.7758216302
  0
ARC
  5
4E9
100
AcDbEntity
  8
0
100
AcDbCircle
 62
7
  6
CONTINUOUS
 10
193.5344342132
 20
136.3386033024
 40
3.0076620575
100
AcDbArc
 50
306.7429124484
 51
308.9475515865
  0
ARC
  5
4EA
100
AcDbEntity
  8
0
100
AcDbCircle
 62
7
  6
CONTINUOUS
 10
193.7685017243
 20
135.9442887172
 40
2.464908056
100
AcDbArc
 50
354.3498057956
 51
355.011340089
  0
ARC
  5
4EB
100
AcDbEntity
  8
0
100
AcDbCircle
 62
7
  6
CONTINUOUS
 10
193.7759923524
 20
135.9436458632
 40
2.4573899013
100
AcDbArc
 50
355.0110846549
 51
356.3372385207
  0
ARC
  5
4EC
100
AcDbEntity
  8
0
100
AcDbCircle
 62
7
  6
CONTINUOUS
 10
193.7845824222
 20
135.9430966673
 40
2.4487822934
100
AcDbArc
 50
356.3372223421
 51
358.33204755
  0
ARC
  5
4ED
100
AcDbEntity
  8
0
100
AcDbCircle
 62
7
  6
CONTINUOUS
 10
194.1009066508
 20
134.230461689
 40
1.6478609481
100
AcDbArc
 50
333.2530709018
 51
336.5215573217
  0
ARC
  5
4EE
100
AcDbEntity
  8
0
100
AcDbCircle
 62
7
  6
CONTINUOUS
 10
194.0775591367
 20
133.0256964085
 40
1.5232225281
100
AcDbArc
 50
35.6913532363
 51
39.7389885668
  0
ARC
  5
4EF
100
AcDbEntity
  8
0
100
AcDbCircle
 62
7
  6
CONTINUOUS
 10
195.2005692535
 20
136.3761870382
 40
1.3133100312
100
AcDbArc
 50
27.2836317786
 51
31.5470550672
  0
ARC
  5
4F0
100
AcDbEntity
  8
0
100
AcDbCircle
 62
7
  6
CONTINUOUS
 10
195.0724604264
 20
136.1351739604
 40
1.3000774036
100
AcDbArc
 50
318.6386263798
 51
319.4623083332
  0
ARC
  5
4F1
100
AcDbEntity
  8
0
100
AcDbCircle
 62
7
  6
CONTINUOUS
 10
192.4828501067
 20
141.3502316076
 40
25.986258784
100
AcDbArc
 50
191.7867377771
 51
192.1703857073
  0
ARC
  5
4F2
100
AcDbEntity
  8
0
100
AcDbCircle
 62
7
  6
CONTINUOUS
 10
191.6985627779
 20
138.9415089195
 40
24.5334424427
100
AcDbArc
 50
191.0131069578
 51
191.4183651069
  0
ARC
  5
4F3
100
AcDbEntity
  8
0
100
AcDbCircle
 62
7
  6
CONTINUOUS
 10
189.4883729012
 20
141.3035781363
 40
23.1053846874
100
AcDbArc
 50
197.8365572023
 51
197.9846148072
  0
ARC
  5
4F4
100
AcDbEntity
  8
0
100
AcDbCircle
 62
7
  6
CONTINUOUS
 10
189.3792295235
 20
141.268122091
 40
22.9906266487
100
AcDbArc
 50
197.9845541002
 51
198.2072433143
  0
ARC
  5
4F5
100
AcDbEntity
  8
0
100
AcDbCircle
 62
7
  6
CONTINUOUS
 10
187.3633330433
 20
138.5013772466
 40
9.3466928543
100
AcDbArc
 50
328.1845924151
 51
330.0087457824
  0
ARC
  5
4F6
100
AcDbEntity
  8
0
100
AcDbCircle
 62
7
  6
CONTINUOUS
 10
187.8228173049
 20
137.8299514593
 40
8.7034577037
100
AcDbArc
 50
355.5087784936
 51
357.1930464236
  0
ARC
  5
4F7
100
AcDbEntity
  8
0
100
AcDbCircle
 62
7
  6
CONTINUOUS
 10
190.5730717037
 20
138.9581114786
 40
6.4029881582
100
AcDbArc
 50
344.3749209645
 51
345.9506197727
  0
ARC
  5
4F8
100
AcDbEntity
  8
0
100
AcDbCircle
 62
7
  6
CONTINUOUS
 10
194.1621133455
 20
139.765507528
 40
3.4579682418
100
AcDbArc
 50
306.2879510315
 51
308.2268679149
  0
ARC
  5
4F9
100
AcDbEntity
  8
0
100
AcDbCircle
 62
7
  6
CONTINUOUS
 10
194.3184571239
 20
139.564613801
 40
3.2034112337
100
AcDbArc
 50
308.2535161014
 51
308.6637925932
  0
ARC
  5
4FA
100
AcDbEntity
  8
0
100
AcDbCircle
 62
7
  6
CONTINUOUS
 10
194.1341872818
 20
140.0891999761
 40
3.1555708655
100
AcDbArc
 50
301.6768177138
 51
304.5073572264
  0
ARC
  5
4FB
100
AcDbEntity
  8
0
100
AcDbCircle
 62
7
  6
CONTINUOUS
 10
194.6659467953
 20
140.0317607446
 40
3.1092784947
100
AcDbArc
 50
302.3044220686
 51
305.1299688325
  0
ARC
  5
4FC
100
AcDbEntity
  8
RUNDUNGEN
100
AcDbCircle
 62
7
  6
CONTINUOUS
 10
195.2461282713
 20
139.1833754184
 40
1.5
100
AcDbArc
 50
343.0
 51
75.0
  0
ARC
  5
4FD
100
AcDbEntity
  8
0
100
AcDbCircle
 62
7
  6
CONTINUOUS
 10
196.3171964088
 20
137.4554615
 40
0.4701840252
100
AcDbArc
 50
353.683861153
 51
4.07097992
  0
ARC
  5
4FE
100
AcDbEntity
  8
0
100
AcDbCircle
 62
7
  6
CONTINUOUS
 10
208.4339565473
 20
151.5655006658
 40
44.2072908185
100
AcDbArc
 50
201.5031941749
 51
201.740849233
  0
ARC
  5
4FF
100
AcDbEntity
  8
0
100
AcDbCircle
 62
7
  6
CONTINUOUS
 10
191.6271261594
 20
144.5671140641
 40
26.1048761445
100
AcDbArc
 50
196.3156021567
 51
196.8365440897
  0
ARC
  5
500
100
AcDbEntity
  8
0
100
AcDbCircle
 62
7
  6
CONTINUOUS
 10
188.6048996626
 20
146.3155357191
 40
23.719460788
100
AcDbArc
 50
202.5129931397
 51
202.9607299306
  0
ARC
  5
501
100
AcDbEntity
  8
0
100
AcDbCircle
 62
7
  6
CONTINUOUS
 10
188.3307965978
 20
146.1991524715
 40
23.4216725446
100
AcDbArc
 50
203.1107596247
 51
203.4111644242
  0
ARC
  5
502
100
AcDbEntity
  8
0
100
AcDbCircle
 62
7
  6
CONTINUOUS
 10
188.4152037204
 20
146.0862676033
 40
22.9703502377
100
AcDbArc
 50
202.6685015361
 51
203.361972924
  0
ARC
  5
503
100
AcDbEntity
  8
0
100
AcDbCircle
 62
7
  6
CONTINUOUS
 10
188.1809070164
 20
145.9854396778
 40
22.7152794727
100
AcDbArc
 50
203.3628452946
 51
203.5953295672
  0
ARC
  5
504
100
AcDbEntity
  8
0
100
AcDbCircle
 62
7
  6
CONTINUOUS
 10
177.0123411644
 20
147.8184005261
 40
21.9120938485
100
AcDbArc
 50
330.0927785118
 51
330.8600160214
  0
ARC
  5
505
100
AcDbEntity
  8
0
100
AcDbCircle
 62
7
  6
CONTINUOUS
 10
177.1322856729
 20
147.6036157667
 40
21.2319822019
100
AcDbArc
 50
329.7050071669
 51
330.4997765167
  0
ARC
  5
506
100
AcDbEntity
  8
0
100
AcDbCircle
 62
7
  6
CONTINUOUS
 10
185.8195730974
 20
143.5564668124
 40
12.2966381259
100
AcDbArc
 50
326.7148167851
 51
327.6585001157
  0
ARC
  5
507
100
AcDbEntity
  8
0
100
AcDbCircle
 62
7
  6
CONTINUOUS
 10
187.3662316168
 20
143.4107851123
 40
10.7884557764
100
AcDbArc
 50
324.6661393448
 51
326.1649705064
  0
ARC
  5
508
100
AcDbEntity
  8
0
100
AcDbCircle
 62
7
  6
CONTINUOUS
 10
187.0628028879
 20
143.3542159385
 40
10.5638184545
100
AcDbArc
 50
324.023167369
 51
325.7164481947
  0
ARC
  5
509
100
AcDbEntity
  8
RUNDUNGEN
100
AcDbCircle
 62
7
  6
CONTINUOUS
 10
192.9064799474
 20
148.6101298309
 40
7.0
100
AcDbArc
 50
179.9998933239
 51
255.0001070453
  0
ARC
  5
50A
100
AcDbEntity
  8
0
100
AcDbCircle
 62
7
  6
CONTINUOUS
 10
143.2776219216
 20
160.6788927593
 40
57.8454609192
100
AcDbArc
 50
335.4727348748
 51
335.7200400996
  0
ARC
  5
50B
100
AcDbEntity
  8
0
100
AcDbCircle
 62
7
  6
CONTINUOUS
 10
145.294402929
 20
159.7814692996
 40
55.1447952141
100
AcDbArc
 50
335.0875539205
 51
335.4769343327
  0
ARC
  5
50C
100
AcDbEntity
  8
0
100
AcDbCircle
 62
7
  6
CONTINUOUS
 10
211.5530781573
 20
153.579800526
 40
47.785552584
100
AcDbArc
 50
200.5473158285
 51
200.8745988921
  0
ARC
  5
50D
100
AcDbEntity
  8
0
100
AcDbCircle
 62
7
  6
CONTINUOUS
 10
160.7662705865
 20
153.4528741383
 40
39.0569926851
100
AcDbArc
 50
333.9443888001
 51
334.4970893555
  0
ARC
  5
50E
100
AcDbEntity
  8
0
100
AcDbCircle
 62
7
  6
CONTINUOUS
 10
231.9603126067
 20
150.8244212642
 40
66.5213450306
100
AcDbArc
 50
192.839471628
 51
193.0651229987
  0
ARC
  5
50F
100
AcDbEntity
  8
0
100
AcDbCircle
 62
7
  6
CONTINUOUS
 10
229.2985984766
 20
147.7446090083
 40
63.0791477936
100
AcDbArc
 50
192.4275256913
 51
192.6651095497
  0
ARC
  5
510
100
AcDbEntity
  8
0
100
AcDbCircle
 62
7
  6
CONTINUOUS
 10
292.5161957951
 20
168.5486478247
 40
129.6141258228
100
AcDbArc
 50
194.3691812404
 51
194.5245797974
  0
ARC
  5
511
100
AcDbEntity
  8
0
100
AcDbCircle
 62
7
  6
CONTINUOUS
 10
258.3182735102
 20
170.799886463
 40
97.4057338028
100
AcDbArc
 50
201.9816993613
 51
202.1437490591
  0
ARC
  5
512
100
AcDbEntity
  8
0
100
AcDbCircle
 62
7
  6
CONTINUOUS
 10
254.3094698449
 20
169.2893589466
 40
92.6227004708
100
AcDbArc
 50
202.1684817106
 51
202.3391312685
  0
ARC
  5
513
100
AcDbEntity
  8
0
100
AcDbCircle
 62
7
  6
CONTINUOUS
 10
235.7490186661
 20
160.0125847743
 40
72.7988793233
100
AcDbArc
 50
200.054442472
 51
200.2921301193
  0
ARC
  5
514
100
AcDbEntity
  8
0
100
AcDbCircle
 62
7
  6
CONTINUOUS
 10
230.2669647174
 20
154.6050331157
 40
65.988465193
100
AcDbArc
 50
198.7044641437
 51
199.1314494284
  0
ARC
  5
515
100
AcDbEntity
  8
0
100
AcDbCircle
 62
7
  6
CONTINUOUS
 10
223.6425966983
 20
153.4322584312
 40
59.3133958724
100
AcDbArc
 50
196.3041949708
 51
196.448383265
  0
ARC
  5
516
100
AcDbEntity
  8
0
100
AcDbCircle
 62
7
  6
CONTINUOUS
 10
220.7665184976
 20
156.8190849184
 40
57.4659209988
100
AcDbArc
 50
203.2121046085
 51
203.5819317355
  0
ARC
  5
517
100
AcDbEntity
  8
BEZUGSACHSEN
100
AcDbCircle
 62
7
  6
CONTINUOUS
 10
178.9064799474
 20
174.3652526146
 40
1.5
100
AcDbArc
 50
90.0
 51
180.0
  0
ARC
  5
518
100
AcDbEntity
  8
RUNDUNGEN
100
AcDbCircle
 62
7
  6
CONTINUOUS
 10
184.4064799474
 20
174.3652526146
 40
1.5
100
AcDbArc
 50
0.0
 51
90.0
  0
ARC
  5
519
100
AcDbEntity
  8
0
100
AcDbCircle
 62
7
  6
CONTINUOUS
 10
95.2569177545
 20
65.0306201592
 40
22.7899387293
100
AcDbArc
 50
81.8734468703
 51
82.7191148559
  0
ARC
  5
51A
100
AcDbEntity
  8
0
100
AcDbCircle
 62
7
  6
CONTINUOUS
 10
97.7907763568
 20
65.6961941401
 40
21.9434664017
100
AcDbArc
 50
89.0746135771
 51
90.5977840746
  0
ARC
  5
51B
100
AcDbEntity
  8
0
100
AcDbCircle
 62
7
  6
CONTINUOUS
 10
98.7591132877
 20
65.9530670791
 40
21.7184254825
100
AcDbArc
 50
93.1601567573
 51
93.6006114498
  0
ARC
  5
51C
100
AcDbEntity
  8
0
100
AcDbCircle
 62
7
  6
CONTINUOUS
 10
97.9133330593
 20
67.3846889377
 40
20.4963489126
100
AcDbArc
 50
74.9701149843
 51
76.4126071722
  0
ARC
  5
51D
100
AcDbEntity
  8
RUNDUNGEN
100
AcDbCircle
 62
7
  6
CONTINUOUS
 10
77.0253037682
 20
69.7588280175
 40
1.5000819139
100
AcDbArc
 50
185.1992872743
 51
269.9974055991
  0
ARC
  5
51E
100
AcDbEntity
  8
0
100
AcDbCircle
 62
7
  6
CONTINUOUS
 10
94.6170472487
 20
80.7736988611
 40
23.1347348737
100
AcDbArc
 50
271.720984572
 51
272.0630114326
  0
ARC
  5
51F
100
AcDbEntity
  8
0
100
AcDbCircle
 62
7
  6
CONTINUOUS
 10
95.5314569297
 20
78.4101685609
 40
21.5853559689
100
AcDbArc
 50
283.9318285993
 51
284.7966818589
  0
ARC
  5
520
100
AcDbEntity
  8
0
100
AcDbCircle
 62
7
  6
CONTINUOUS
 10
97.8416256654
 20
78.7738379263
 40
21.5086642467
100
AcDbArc
 50
276.1480820553
 51
277.7134788744
  0
ARC
  5
521
100
AcDbEntity
  8
0
100
AcDbCircle
 62
7
  6
CONTINUOUS
 10
97.617360807
 20
78.7287978956
 40
21.2051050178
100
AcDbArc
 50
262.3972388901
 51
263.7581814327
  0
ARC
  5
522
100
AcDbEntity
  8
BEZUGSACHSEN
100
AcDbCircle
 62
7
  6
CONTINUOUS
 10
77.025360353
 20
75.2586141937
 40
1.5001559237
100
AcDbArc
 50
90.0047554726
 51
174.7985516537
  0
ARC
  5
523
100
AcDbEntity
  8
0
100
AcDbCircle
 62
7
  6
CONTINUOUS
 10
102.9233077318
 20
64.2433842279
 40
23.1351561754
100
AcDbArc
 50
91.7209866194
 51
92.056803872
  0
ARC
  5
524
100
AcDbEntity
  8
0
100
AcDbCircle
 62
7
  6
CONTINUOUS
 10
102.0088083527
 20
66.6076364176
 40
21.5850456639
100
AcDbArc
 50
103.9318244754
 51
104.798664109
  0
ARC
  5
525
100
AcDbEntity
  8
0
100
AcDbCircle
 62
7
  6
CONTINUOUS
 10
99.6987158362
 20
66.2436662495
 40
21.5086642467
100
AcDbArc
 50
96.1480820553
 51
97.7134788744
  0
ARC
  5
526
100
AcDbEntity
  8
0
100
AcDbCircle
 62
7
  6
CONTINUOUS
 10
99.9229806946
 20
66.2887062802
 40
21.2051050178
100
AcDbArc
 50
82.3972388901
 51
83.7581814327
  0
ARC
  5
527
100
AcDbEntity
  8
RUNDUNGEN
100
AcDbCircle
 62
7
  6
CONTINUOUS
 10
120.5150373796
 20
69.7588280172
 40
1.5000819138
100
AcDbArc
 50
270.0026731808
 51
354.8007340035
  0
ARC
  5
528
100
AcDbEntity
  8
0
100
AcDbCircle
 62
7
  6
CONTINUOUS
 10
102.283423747
 20
79.9868840165
 40
22.7899387292
100
AcDbArc
 50
261.8734468703
 51
262.7191148559
  0
ARC
  5
529
100
AcDbEntity
  8
0
100
AcDbCircle
 62
7
  6
CONTINUOUS
 10
99.7495651448
 20
79.3213100357
 40
21.9434664017
100
AcDbArc
 50
269.0746135771
 51
270.5977840746
  0
ARC
  5
52A
100
AcDbEntity
  8
0
100
AcDbCircle
 62
7
  6
CONTINUOUS
 10
98.7812282139
 20
79.0644370967
 40
21.7184254825
100
AcDbArc
 50
273.1601567573
 51
273.6006114498
  0
ARC
  5
52B
100
AcDbEntity
  8
0
100
AcDbCircle
 62
7
  6
CONTINUOUS
 10
99.6270084423
 20
77.6328152381
 40
20.4963489126
100
AcDbArc
 50
254.9701149843
 51
256.4126071722
  0
ARC
  5
52C
100
AcDbEntity
  8
0
100
AcDbCircle
 62
7
  6
CONTINUOUS
 10
98.7701707508
 20
72.5087520879
 40
10.25
100
AcDbArc
 50
204.501258881
 51
335.4975345197
  0
ARC
  5
52D
100
AcDbEntity
  8
0
100
AcDbCircle
 62
7
  6
CONTINUOUS
 10
98.7701707508
 20
72.5087520879
 40
10.25
100
AcDbArc
 50
24.5012010942
 51
155.5013930846
  0
ARC
  5
52E
100
AcDbEntity
  8
RUNDUNGEN
100
AcDbCircle
 62
7
  6
CONTINUOUS
 10
98.7701707508
 20
72.5087520879
 40
10.0
100
AcDbArc
 50
25.1661627206
 51
154.8338372807
  0
ARC
  5
52F
100
AcDbEntity
  8
RUNDUNGEN
100
AcDbCircle
 62
7
  6
CONTINUOUS
 10
98.7701707508
 20
72.5087520879
 40
10.0
100
AcDbArc
 50
205.1661627206
 51
334.8338372807
  0
ARC
  5
530
100
AcDbEntity
  8
BEZUGSACHSEN
100
AcDbCircle
 62
7
  6
CONTINUOUS
 10
120.5149807948
 20
75.258614194
 40
1.5001559236
100
AcDbArc
 50
5.2014270674
 51
89.9951657485
  0
SPLINE
  5
531
100
AcDbEntity
  8
0
100
AcDbSpline
 62
7
  6
CONTINUOUS
 70
0
 71
3
 72
9
 73
5
 74
0
 42
0.0000001
 43
0.0000001
 44
0.0000000001
 40
0.0
 40
0.0
 40
0.0
 40
0.0
 40
0.5095138455
 40
1.0
 40
1.0
 40
1.0
 40
1.0
 10
97.6041760886
 20
141.5342377476
 30
0.0
 10
97.115084165
 20
141.5723802244
 30
0.0
 10
96.1580555262
 20
141.6810565775
 30
0.0
 10
95.2024447616
 20
141.7979315982
 30
0.0
 10
94.7334111609
 20
141.8530102025
 30
0.0
  0
SPLINE
  5
532
100
AcDbEntity
  8
0
100
AcDbSpline
 62
7
  6
CONTINUOUS
 70
0
 71
3
 72
9
 73
5
 74
0
 42
0.0000001
 43
0.0000001
 44
0.0000000001
 40
0.0
 40
0.0
 40
0.0
 40
0.0
 40
0.4904863133
 40
1.0
 40
1.0
 40
1.0
 40
1.0
 10
102.8069303144
 20
141.8530095333
 30
0.0
 10
102.3379159072
 20
141.7979329663
 30
0.0
 10
101.3823442117
 20
141.68106514
 30
0.0
 10
100.425355541
 20
141.572388957
 30
0.0
 10
99.9362841184
 20
141.5342454729
 30
0.0
  0
SPLINE
  5
533
100
AcDbEntity
  8
0
100
AcDbSpline
 62
7
  6
CONTINUOUS
 70
0
 71
3
 72
9
 73
5
 74
0
 42
0.0000001
 43
0.0000001
 44
0.0000000001
 40
0.0
 40
0.0
 40
0.0
 40
0.0
 40
0.4882029225
 40
1.0
 40
1.0
 40
1.0
 40
1.0
 10
104.6184648026
 20
142.2086577362
 30
0.0
 10
104.3533543208
 20
142.1271707922
 30
0.0
 10
103.8000633481
 20
141.9931645271
 30
0.0
 10
103.2381728114
 20
141.9064626842
 30
0.0
 10
102.9496709431
 20
141.8703343808
 30
0.0
  0
SPLINE
  5
534
100
AcDbEntity
  8
0
100
AcDbSpline
 62
7
  6
CONTINUOUS
 70
0
 71
3
 72
9
 73
5
 74
0
 42
0.0000001
 43
0.0000001
 44
0.0000000001
 40
0.0
 40
0.0
 40
0.0
 40
0.0
 40
0.5117956042
 40
1.0
 40
1.0
 40
1.0
 40
1.0
 10
94.5897234913
 20
141.8704532247
 30
0.0
 10
94.3013157064
 20
141.9065892775
 30
0.0
 10
93.7396076299
 20
141.9933001245
 30
0.0
 10
93.1865002243
 20
142.1273024155
 30
0.0
 10
92.921477496
 20
142.2087804543
 30
0.0
  0
SPLINE
  5
535
100
AcDbEntity
  8
0
100
AcDbSpline
 62
7
  6
CONTINUOUS
 70
0
 71
3
 72
16
 73
12
 74
0
 42
0.0000001
 43
0.0000001
 44
0.0000000001
 40
0.0
 40
0.0
 40
0.0
 40
0.0
 40
0.0395480245
 40
0.0856067893
 40
0.1910652756
 40
0.3085071802
 40
0.4341760921
 40
0.5663742375
 40
0.7045517915
 40
0.8489148283
 40
1.0
 40
1.0
 40
1.0
 40
1.0
 10
108.5445408763
 20
145.1107186668
 30
0.0
 10
108.4949990727
 20
145.0681597461
 30
0.0
 10
108.3945552378
 20
144.9682919605
 30
0.0
 10
108.1822055999
 20
144.7349796055
 30
0.0
 10
107.8897497891
 20
144.4005991748
 30
0.0
 10
107.4957521759
 20
143.9806286251
 30
0.0
 10
107.0444640607
 20
143.5549875787
 30
0.0
 10
106.5329060469
 20
143.1460251328
 30
0.0
 10
105.9575122812
 20
142.772125687
 30
0.0
 10
105.3162624305
 20
142.4499845152
 30
0.0
 10
104.8569073331
 20
142.2819493538
 30
0.0
 10
104.6184082572
 20
142.2086421372
 30
0.0
  0
LINE
  5
536
100
AcDbEntity
  8
0
100
AcDbLine
 62
7
  6
CONTINUOUS
 10
102.8215740207
 20
141.8547323624
 11
102.8069303144
 21
141.8530095333
  0
SPLINE
  5
537
100
AcDbEntity
  8
0
100
AcDbSpline
 62
7
  6
CONTINUOUS
 70
0
 71
3
 72
16
 73
12
 74
0
 42
0.0000001
 43
0.0000001
 44
0.0000000001
 40
0.0
 40
0.0
 40
0.0
 40
0.0
 40
0.1510867438
 40
0.2954546936
 40
0.4336329623
 40
0.5658309536
 40
0.6914983406
 40
0.8089387183
 40
0.914396134
 40
0.9604509352
 40
1.0
 40
1.0
 40
1.0
 40
1.0
 10
92.921520366
 20
142.208768619
 30
0.0
 10
92.6830444525
 20
142.2820850176
 30
0.0
 10
92.2237358598
 20
142.4501514573
 30
0.0
 10
91.5825429095
 20
142.7722897047
 30
0.0
 10
91.0072118775
 20
143.146191639
 30
0.0
 10
90.4957138318
 20
143.5551330803
 30
0.0
 10
90.0444780641
 20
143.9807418015
 30
0.0
 10
89.6505216018
 20
144.4006717614
 30
0.0
 10
89.3581094368
 20
144.7350244809
 30
0.0
 10
89.1457676588
 20
144.9682968499
 30
0.0
 10
89.0453429193
 20
145.0681592921
 30
0.0
 10
88.9958041734
 20
145.1107155557
 30
0.0
  0
SPLINE
  5
538
100
AcDbEntity
  8
BEZUGSACHSEN
100
AcDbSpline
 62
7
  6
CONTINUOUS
 70
0
 71
3
 72
29
 73
25
 74
0
 42
0.0000001
 43
0.0000001
 44
0.0000000001
 40
0.0
 40
0.0
 40
0.0
 40
0.0
 40
0.0109284669
 40
0.0220791152
 40
0.0334537933
 40
0.0449334216
 40
0.0679990372
 40
0.0911202826
 40
0.1026789373
 40
0.1142295649
 40
0.1372955499
 40
0.1603055551
 40
0.1832482309
 40
0.2288899824
 40
0.2741477508
 40
0.3189452169
 40
0.3632018418
 40
0.4497373428
 40
0.5330100153
 40
0.686431415
 40
0.8164238853
 40
0.9158495547
 40
0.9785125572
 40
1.0
 40
1.0
 40
1.0
 40
1.0
 10
102.367651039
 20
130.488840915
 30
0.0
 10
102.3501771592
 20
130.5371890686
 30
0.0
 10
102.3315997989
 20
130.6420945797
 30
0.0
 10
102.3613549896
 20
130.7994050618
 30
0.0
 10
102.4328925796
 20
130.9439138468
 30
0.0
 10
102.5615257839
 20
131.1182577172
 30
0.0
 10
102.7575110662
 20
131.3078393593
 30
0.0
 10
102.9726481187
 20
131.4739812626
 30
0.0
 10
103.1514196266
 20
131.5978857391
 30
0.0
 10
103.3334358924
 20
131.7164683224
 30
0.0
 10
103.5656882586
 20
131.8564329086
 30
0.0
 10
103.8494023495
 20
132.0143814244
 30
0.0
 10
104.2314041069
 20
132.2137807709
 30
0.0
 10
104.7140874544
 20
132.4460681956
 30
0.0
 10
105.2978077096
 20
132.7045987785
 30
0.0
 10
105.8818371726
 20
132.9458085982
 30
0.0
 10
106.6519268297
 20
133.2446579828
 30
0.0
 10
107.6008625338
 20
133.5823271958
 30
0.0
 10
109.0491750538
 20
134.0459241271
 30
0.0
 10
110.7132241754
 20
134.503466225
 30
0.0
 10
112.4703728978
 20
134.9003816228
 30
0.0
 10
113.8209355542
 20
135.1542555307
 30
0.0
 10
114.6734382723
 20
135.2923781141
 30
0.0
 10
115.064986609
 20
135.350629517
 30
0.0
 10
115.1650142512
 20
135.3651744876
 30
0.0
  0
SPLINE
  5
539
100
AcDbEntity
  8
BEZUGSACHSEN
100
AcDbSpline
 62
7
  6
CONTINUOUS
 70
0
 71
3
 72
30
 73
26
 74
0
 42
0.0000001
 43
0.0000001
 44
0.0000000001
 40
0.0
 40
0.0
 40
0.0
 40
0.0
 40
0.0214836987
 40
0.0841374262
 40
0.1835505318
 40
0.3135283692
 40
0.4669337449
 40
0.55019816
 40
0.6367254189
 40
0.6809780213
 40
0.7257715048
 40
0.7710253295
 40
0.816663245
 40
0.839604075
 40
0.8626123083
 40
0.8856766111
 40
0.8972263066
 40
0.908784434
 40
0.931904001
 40
0.9549715494
 40
0.9664492246
 40
0.9778453821
 40
0.9834669081
 40
0.9890508187
 40
1.0
 40
1.0
 40
1.0
 40
1.0
 10
82.3753272503
 20
135.3651744876
 30
0.0
 10
82.4753408441
 20
135.3506316832
 30
0.0
 10
82.8668418196
 20
135.2923877178
 30
0.0
 10
83.7192544864
 20
135.1542804119
 30
0.0
 10
85.0696951836
 20
134.9004368411
 30
0.0
 10
86.8267075802
 20
134.5035664244
 30
0.0
 10
88.4906413305
 20
134.0460773214
 30
0.0
 10
89.9388638613
 20
133.5825336285
 30
0.0
 10
90.8877470376
 20
133.244904041
 30
0.0
 10
91.6577985156
 20
132.9460908659
 30
0.0
 10
92.2418027998
 20
132.7049117512
 30
0.0
 10
92.8255001076
 20
132.4464130318
 30
0.0
 10
93.3081703571
 20
132.2141620124
 30
0.0
 10
93.6901685722
 20
132.0147999997
 30
0.0
 10
93.973880945
 20
131.8568783688
 30
0.0
 10
94.2061481756
 20
131.7169590905
 30
0.0
 10
94.3881583977
 20
131.5983829224
 30
0.0
 10
94.5669665114
 20
131.4745387282
 30
0.0
 10
94.782078842
 20
131.3083883736
 30
0.0
 10
94.9783120536
 20
131.1189878407
 30
0.0
 10
95.1068991542
 20
130.9445706108
 30
0.0
 10
95.167201842
 20
130.823476343
 30
0.0
 10
95.1943889497
 20
130.7201961597
 30
0.0
 10
95.2032837984
 20
130.6160102719
 30
0.0
 10
95.1901980519
 20
130.5372823389
 30
0.0
 10
95.1726904626
 20
130.488840915
 30
0.0
  0
LINE
  5
53A
100
AcDbEntity
  8
0
100
AcDbLine
 62
7
  6
CONTINUOUS
 10
167.5668291933
 20
133.9782024357
 11
167.573378795
 21
133.9567960762
  0
LINE
  5
53B
100
AcDbEntity
  8
0
100
AcDbLine
 62
7
  6
CONTINUOUS
 10
167.573378795
 20
133.9567960762
 11
167.5863885724
 21
133.9143728388
  0
LINE
  5
53C
100
AcDbEntity
  8
0
100
AcDbLine
 62
7
  6
CONTINUOUS
 10
195.7461307014
 20
133.9782024357
 11
195.7265713223
 21
133.9143728388
  0
LINE
  5
53D
100
AcDbEntity
  8
0
100
AcDbLine
 62
7
  6
CONTINUOUS
 10
167.0799558598
 20
136.8930963052
 11
167.0880924804
 21
136.8676203836
  0
LINE
  5
53E
100
AcDbEntity
  8
0
100
AcDbLine
 62
7
  6
CONTINUOUS
 10
167.0880924804
 20
136.8676203836
 11
167.2975581471
 21
136.2122450841
  0
LINE
  5
53F
100
AcDbEntity
  8
0
100
AcDbLine
 62
7
  6
CONTINUOUS
 10
167.1728366082
 20
136.2122450841
 11
167.1907637951
 21
136.1554448149
  0
LINE
  5
540
100
AcDbEntity
  8
0
100
AcDbLine
 62
7
  6
CONTINUOUS
 10
167.1907637951
 20
136.1554448149
 11
167.2803042973
 21
135.8718195928
  0
LINE
  5
541
100
AcDbEntity
  8
0
100
AcDbLine
 62
7
  6
CONTINUOUS
 10
167.4064779354
 20
135.8718195928
 11
167.414935681
 21
135.8453957653
  0
SPLINE
  5
542
100
AcDbEntity
  8
0
100
AcDbSpline
 62
7
  6
CONTINUOUS
 70
0
 71
3
 72
8
 73
4
 74
0
 42
0.0000001
 43
0.0000001
 44
0.0000000001
 40
0.0
 40
0.0
 40
0.0
 40
0.0
 40
1.0
 40
1.0
 40
1.0
 40
1.0
 10
167.414935681
 20
135.8453957653
 30
0.0
 10
167.5937594753
 20
135.2867278127
 30
0.0
 10
167.7728827548
 20
134.7281556101
 30
0.0
 10
167.9523435563
 20
134.1696919573
 30
0.0
  0
LINE
  5
543
100
AcDbEntity
  8
0
100
AcDbLine
 62
7
  6
CONTINUOUS
 10
166.6412367292
 20
137.0060368989
 11
166.6584166603
 21
136.9494998073
  0
LINE
  5
544
100
AcDbEntity
  8
0
100
AcDbLine
 62
7
  6
CONTINUOUS
 10
166.7946764755
 20
136.836202027
 11
166.807515191
 21
136.8079899323
  0
SPLINE
  5
545
100
AcDbEntity
  8
0
100
AcDbSpline
 62
7
  6
CONTINUOUS
 70
0
 71
3
 72
9
 73
5
 74
0
 42
0.0000001
 43
0.0000001
 44
0.0000000001
 40
0.0
 40
0.0
 40
0.0
 40
0.0
 40
0.2446082368
 40
1.0
 40
1.0
 40
1.0
 40
1.0
 10
167.1962251511
 20
135.3611813558
 30
0.0
 10
167.2005789068
 20
135.355215253
 30
0.0
 10
167.2186270051
 20
135.3310072296
 30
0.0
 10
167.2376448646
 20
135.3075256517
 30
0.0
 10
167.2524685077
 20
135.2901910752
 30
0.0
  0
LINE
  5
546
100
AcDbEntity
  8
0
100
AcDbLine
 62
7
  6
CONTINUOUS
 10
167.3433746383
 20
135.1058622373
 11
167.3641385817
 21
135.0489110348
  0
LINE
  5
547
100
AcDbEntity
  8
0
100
AcDbLine
 62
7
  6
CONTINUOUS
 10
167.4682868221
 20
134.7654366267
 11
167.5740791837
 21
134.4250111354
  0
LINE
  5
548
100
AcDbEntity
  8
0
100
AcDbLine
 62
7
  6
CONTINUOUS
 10
167.5740791837
 20
134.4250111354
 11
167.6169402723
 21
134.2547983897
  0
LINE
  5
549
100
AcDbEntity
  8
0
100
AcDbLine
 62
7
  6
CONTINUOUS
 10
167.5863885724
 20
133.9143728388
 11
167.5952423859
 21
133.8858557747
  0
LINE
  5
54A
100
AcDbEntity
  8
0
100
AcDbLine
 62
7
  6
CONTINUOUS
 10
167.7636608715
 20
133.443403999
 11
167.748297561
 21
133.4888303761
  0
SPLINE
  5
54B
100
AcDbEntity
  8
0
100
AcDbSpline
 62
7
  6
CONTINUOUS
 70
0
 71
3
 72
9
 73
5
 74
0
 42
0.0000001
 43
0.0000001
 44
0.0000000001
 40
0.0
 40
0.0
 40
0.0
 40
0.0
 40
0.2440922576
 40
1.0
 40
1.0
 40
1.0
 40
1.0
 10
196.5158326127
 20
137.4037345422
 30
0.0
 10
196.5112333604
 20
137.4108915184
 30
0.0
 10
196.4920232205
 20
137.439975045
 30
0.0
 10
196.4713866868
 20
137.4681099666
 30
0.0
 10
196.4551285909
 20
137.488840915
 30
0.0
  0
LINE
  5
54C
100
AcDbEntity
  8
0
100
AcDbLine
 62
7
  6
CONTINUOUS
 10
196.3697326234
 20
136.5526708138
 11
196.3838499022
 21
136.6092485066
  0
LINE
  5
54D
100
AcDbEntity
  8
0
100
AcDbLine
 62
7
  6
CONTINUOUS
 10
196.3006361628
 20
136.2973514569
 11
196.3697326234
 21
136.5526708138
  0
LINE
  5
54E
100
AcDbEntity
  8
0
100
AcDbLine
 62
7
  6
CONTINUOUS
 10
196.1784560446
 20
135.8718195928
 11
196.3006361628
 21
136.2973514569
  0
LINE
  5
54F
100
AcDbEntity
  8
0
100
AcDbLine
 62
7
  6
CONTINUOUS
 10
195.940325678
 20
135.1058622373
 11
196.1784560446
 21
135.8718195928
  0
LINE
  5
550
100
AcDbEntity
  8
0
100
AcDbLine
 62
7
  6
CONTINUOUS
 10
195.7973400321
 20
134.6803302539
 11
195.940325678
 21
135.1058622373
  0
LINE
  5
551
100
AcDbEntity
  8
0
100
AcDbLine
 62
7
  6
CONTINUOUS
 10
195.6851465282
 20
134.3680494752
 11
195.7067164622
 21
134.4250111354
  0
SPLINE
  5
552
100
AcDbEntity
  8
0
100
AcDbSpline
 62
7
  6
CONTINUOUS
 70
0
 71
3
 72
9
 73
5
 74
0
 42
0.0000001
 43
0.0000001
 44
0.0000000001
 40
0.0
 40
0.0
 40
0.0
 40
0.0
 40
0.256996142
 40
1.0
 40
1.0
 40
1.0
 40
1.0
 10
195.1783203209
 20
133.488840915
 30
0.0
 10
195.1894199285
 20
133.4958435997
 30
0.0
 10
195.2324377371
 20
133.5233627226
 30
0.0
 10
195.2747511557
 20
133.5519885588
 30
0.0
 10
195.3056942405
 20
133.5739472953
 30
0.0
  0
LINE
  5
553
100
AcDbEntity
  8
0
100
AcDbLine
 62
7
  6
CONTINUOUS
 10
195.4705192068
 20
135.1909686101
 11
195.6657889368
 21
135.7867132199
  0
LINE
  5
554
100
AcDbEntity
  8
0
100
AcDbLine
 62
7
  6
CONTINUOUS
 10
195.325004163
 20
134.6803302539
 11
195.4705192068
 21
135.1909686101
  0
LINE
  5
555
100
AcDbEntity
  8
0
100
AcDbLine
 62
7
  6
CONTINUOUS
 10
195.2435821543
 20
134.1696919573
 11
195.2573512013
 21
134.2544070288
  0
LINE
  5
556
100
AcDbEntity
  8
0
100
AcDbLine
 62
7
  6
CONTINUOUS
 10
196.0176832089
 20
136.6366145744
 11
196.0583671747
 21
136.7221569264
  0
LINE
  5
557
100
AcDbEntity
  8
0
100
AcDbLine
 62
7
  6
CONTINUOUS
 10
196.0583671747
 20
136.7221569264
 11
196.0989392743
 21
136.8079899323
  0
LINE
  5
558
100
AcDbEntity
  8
0
100
AcDbLine
 62
7
  6
CONTINUOUS
 10
195.3898620863
 20
132.9782026184
 11
195.4432187471
 21
133.132628542
  0
LINE
  5
559
100
AcDbEntity
  8
0
100
AcDbLine
 62
7
  6
CONTINUOUS
 10
195.6545480095
 20
133.7567427746
 11
195.7068656531
 21
133.9143728388
  0
LINE
  5
55A
100
AcDbEntity
  8
0
100
AcDbLine
 62
7
  6
CONTINUOUS
 10
195.7265713223
 20
133.9143728388
 11
195.7177175088
 21
133.8858557747
  0
LINE
  5
55B
100
AcDbEntity
  8
0
100
AcDbLine
 62
7
  6
CONTINUOUS
 10
195.6815834448
 20
133.7723810099
 11
195.6723713657
 21
133.7441600633
  0
LINE
  5
55C
100
AcDbEntity
  8
0
100
AcDbLine
 62
7
  6
CONTINUOUS
 10
196.405476721
 20
136.5415897222
 11
196.356143813
 21
136.3824578298
  0
LINE
  5
55D
100
AcDbEntity
  8
0
100
AcDbLine
 62
7
  6
CONTINUOUS
 10
196.356143813
 20
136.3824578298
 11
196.3123396087
 21
136.2119516895
  0
LINE
  5
55E
100
AcDbEntity
  8
0
100
AcDbLine
 62
7
  6
CONTINUOUS
 10
196.3123396087
 20
136.2119516895
 11
196.2830841322
 21
136.0986069669
  0
LINE
  5
55F
100
AcDbEntity
  8
0
100
AcDbLine
 62
7
  6
CONTINUOUS
 10
196.2830841322
 20
136.0986069669
 11
196.2684404351
 21
136.0420323384
  0
LINE
  5
560
100
AcDbEntity
  8
0
100
AcDbLine
 62
7
  6
CONTINUOUS
 10
195.8446730726
 20
134.7654366267
 11
195.7917517755
 21
134.5951314471
  0
LINE
  5
561
100
AcDbEntity
  8
0
100
AcDbLine
 62
7
  6
CONTINUOUS
 10
195.7917517755
 20
134.5951314471
 11
195.75649882
 21
134.4816973598
  0
LINE
  5
562
100
AcDbEntity
  8
0
100
AcDbLine
 62
7
  6
CONTINUOUS
 10
195.75649882
 20
134.4816973598
 11
195.7515525102
 21
134.4657823572
  0
LINE
  5
563
100
AcDbEntity
  8
0
100
AcDbLine
 62
7
  6
CONTINUOUS
 10
195.7515525102
 20
134.4657823572
 11
195.738880711
 21
134.4250111354
  0
LINE
  5
564
100
AcDbEntity
  8
0
100
AcDbLine
 62
7
  6
CONTINUOUS
 10
195.9695852564
 20
135.1058622373
 11
195.948821313
 21
135.0489110348
  0
LINE
  5
565
100
AcDbEntity
  8
0
100
AcDbLine
 62
7
  6
CONTINUOUS
 10
195.948821313
 20
135.0489110348
 11
195.9072279565
 21
134.9352649202
  0
LINE
  5
566
100
AcDbEntity
  8
0
100
AcDbLine
 62
7
  6
CONTINUOUS
 10
195.9072279565
 20
134.9352649202
 11
195.886398389
 21
134.8785700351
  0
LINE
  5
567
100
AcDbEntity
  8
0
100
AcDbLine
 62
7
  6
CONTINUOUS
 10
195.886398389
 20
134.8785700351
 11
195.8446730726
 21
134.7654366267
  0
SPLINE
  5
568
100
AcDbEntity
  8
0
100
AcDbSpline
 62
7
  6
CONTINUOUS
 70
0
 71
3
 72
9
 73
5
 74
0
 42
0.0000001
 43
0.0000001
 44
0.0000000001
 40
0.0
 40
0.0
 40
0.0
 40
0.0
 40
0.2446082368
 40
1.0
 40
1.0
 40
1.0
 40
1.0
 10
196.1167347436
 20
135.3611813558
 30
0.0
 10
196.1123809879
 20
135.355215253
 30
0.0
 10
196.0943328896
 20
135.3310072296
 30
0.0
 10
196.0753150301
 20
135.3075256517
 30
0.0
 10
196.060491387
 20
135.2901910752
 30
0.0
  0
LINE
  5
569
100
AcDbEntity
  8
0
100
AcDbLine
 62
7
  6
CONTINUOUS
 10
167.7316653895
 20
135.8718195928
 11
167.618982496
 21
136.2122450841
  0
LINE
  5
56A
100
AcDbEntity
  8
0
100
AcDbLine
 62
7
  6
CONTINUOUS
 10
167.3874974997
 20
136.2122450841
 11
167.1678508935
 21
136.8930963052
  0
LINE
  5
56B
100
AcDbEntity
  8
0
100
AcDbLine
 62
7
  6
CONTINUOUS
 10
168.4746509766
 20
133.488840915
 11
168.361450968
 21
133.8292664362
  0
LINE
  5
56C
100
AcDbEntity
  8
0
100
AcDbLine
 62
7
  6
CONTINUOUS
 10
167.697457956
 20
134.1696919573
 11
167.6295345342
 21
134.4250111354
  0
LINE
  5
56D
100
AcDbEntity
  8
0
100
AcDbLine
 62
7
  6
CONTINUOUS
 10
167.6295345342
 20
134.4250111354
 11
167.5230891946
 21
134.7654366267
  0
LINE
  5
56E
100
AcDbEntity
  8
0
100
AcDbLine
 62
7
  6
CONTINUOUS
 10
167.5230891946
 20
134.7654366267
 11
167.405128354
 21
135.1058622373
  0
LINE
  5
56F
100
AcDbEntity
  8
0
100
AcDbLine
 62
7
  6
CONTINUOUS
 10
167.405128354
 20
135.1058622373
 11
167.3711867718
 21
135.1907182286
  0
LINE
  5
570
100
AcDbEntity
  8
0
100
AcDbLine
 62
7
  6
CONTINUOUS
 10
167.1743225167
 20
135.701334311
 11
167.1675751845
 21
135.7439899684
  0
LINE
  5
571
100
AcDbEntity
  8
0
100
AcDbLine
 62
7
  6
CONTINUOUS
 10
167.1675751845
 20
135.7439899684
 11
167.1609554998
 21
135.7867132199
  0
LINE
  5
572
100
AcDbEntity
  8
0
100
AcDbLine
 62
7
  6
CONTINUOUS
 10
167.1022342946
 20
136.0420323384
 11
167.0705018915
 21
136.1553350439
  0
LINE
  5
573
100
AcDbEntity
  8
0
100
AcDbLine
 62
7
  6
CONTINUOUS
 10
167.0705018915
 20
136.1553350439
 11
167.0069363897
 21
136.3824578298
  0
LINE
  5
574
100
AcDbEntity
  8
0
100
AcDbLine
 62
7
  6
CONTINUOUS
 10
166.9538802903
 20
136.5526708138
 11
166.8372612112
 21
136.8930963052
  0
LINE
  5
575
100
AcDbEntity
  8
0
100
AcDbLine
 62
7
  6
CONTINUOUS
 10
166.7887647142
 20
137.0059154402
 11
166.7646738485
 21
137.06257098
  0
SPLINE
  5
576
100
AcDbEntity
  8
0
100
AcDbSpline
 62
7
  6
CONTINUOUS
 70
0
 71
3
 72
9
 73
5
 74
0
 42
0.0000001
 43
0.0000001
 44
0.0000000001
 40
0.0
 40
0.0
 40
0.0
 40
0.0
 40
0.2571695221
 40
1.0
 40
1.0
 40
1.0
 40
1.0
 10
166.6075194194
 20
137.4037345422
 30
0.0
 10
166.6020973821
 20
137.4095736389
 30
0.0
 10
166.5812562191
 20
137.4325018071
 30
0.0
 10
166.5614112223
 20
137.4563425653
 30
0.0
 10
166.547368356
 20
137.4745784279
 30
0.0
  0
LINE
  5
577
100
AcDbEntity
  8
0
100
AcDbLine
 62
7
  6
CONTINUOUS
 10
166.7817282358
 20
136.5526708138
 11
166.756589093
 21
136.6375846137
  0
LINE
  5
578
100
AcDbEntity
  8
0
100
AcDbLine
 62
7
  6
CONTINUOUS
 10
166.7145044569
 20
136.7807947219
 11
166.7065567923
 21
136.8079899323
  0
LINE
  5
579
100
AcDbEntity
  8
0
100
AcDbLine
 62
7
  6
CONTINUOUS
 10
166.6686199548
 20
136.9497329546
 11
166.6656506547
 21
136.9611459932
  0
LINE
  5
57A
100
AcDbEntity
  8
0
100
AcDbLine
 62
7
  6
CONTINUOUS
 10
166.6656506547
 20
136.9611459932
 11
166.6612366646
 21
136.978202678
  0
SPLINE
  5
57B
100
AcDbEntity
  8
BEZUGSACHSEN
100
AcDbSpline
 62
7
  6
CONTINUOUS
 70
0
 71
3
 72
22
 73
18
 74
0
 42
0.0000001
 43
0.0000001
 44
0.0000000001
 40
0.0
 40
0.0
 40
0.0
 40
0.0
 40
0.1739896529
 40
0.3390081096
 40
0.4157535641
 40
0.4876496833
 40
0.5541800227
 40
0.6150622086
 40
0.6702850031
 40
0.720121895
 40
0.7652186804
 40
0.8066271513
 40
0.8459376375
 40
0.8855886434
 40
0.9304525984
 40
0.9594824215
 40
1.0
 40
1.0
 40
1.0
 40
1.0
 10
181.6564799474
 20
135.3651744876
 30
0.0
 10
180.7929876997
 20
135.3651744876
 30
0.0
 10
179.1104353815
 20
135.3378988151
 30
0.0
 10
177.0492064708
 20
135.2270703827
 30
0.0
 10
175.4996791221
 20
135.0754295392
 30
0.0
 10
174.4411606844
 20
134.9320556819
 30
0.0
 10
173.4679007228
 20
134.7528351726
 30
0.0
 10
172.5875514881
 20
134.5340957864
 30
0.0
 10
171.8054027919
 20
134.2727617397
 30
0.0
 10
171.1250008854
 20
133.9647995896
 30
0.0
 10
170.5480519557
 20
133.6066732207
 30
0.0
 10
170.0761037749
 20
133.1926226322
 30
0.0
 10
169.7114341767
 20
132.7136061295
 30
0.0
 10
169.4586904268
 20
132.1470734034
 30
0.0
 10
169.3672818744
 20
131.5835386441
 30
0.0
 10
169.3948081999
 20
131.014846432
 30
0.0
 10
169.4792217586
 20
130.6753922473
 30
0.0
 10
169.5542787992
 20
130.488840915
 30
0.0
  0
LINE
  5
57C
100
AcDbEntity
  8
0
100
AcDbLine
 62
7
  6
CONTINUOUS
 10
167.5703633596
 20
133.9994792116
 11
167.5651628868
 21
134.0136253945
  0
LINE
  5
57D
100
AcDbEntity
  8
0
100
AcDbLine
 62
7
  6
CONTINUOUS
 10
167.554866607
 20
134.0419636118
 11
167.5522486954
 21
134.0492406808
  0
LINE
  5
57E
100
AcDbEntity
  8
0
100
AcDbLine
 62
7
  6
CONTINUOUS
 10
167.5522486954
 20
134.0492406808
 11
167.5497709159
 21
134.0561556504
  0
LINE
  5
57F
100
AcDbEntity
  8
0
100
AcDbLine
 62
7
  6
CONTINUOUS
 10
167.5497709159
 20
134.0561556504
 11
167.5447102701
 21
134.0703629725
  0
LINE
  5
580
100
AcDbEntity
  8
0
100
AcDbLine
 62
7
  6
CONTINUOUS
 10
167.5447102701
 20
134.0703629725
 11
167.5396847261
 21
134.0845855845
  0
LINE
  5
581
100
AcDbEntity
  8
0
100
AcDbLine
 62
7
  6
CONTINUOUS
 10
167.4935681214
 20
134.2263354352
 11
167.4844298632
 21
134.2547983897
  0
LINE
  5
582
100
AcDbEntity
  8
0
100
AcDbLine
 62
7
  6
CONTINUOUS
 10
167.4844298632
 20
134.2547983897
 11
167.466710406
 21
134.3114611271
  0
LINE
  5
583
100
AcDbEntity
  8
0
100
AcDbLine
 62
7
  6
CONTINUOUS
 10
167.466710406
 20
134.3114611271
 11
167.4401637029
 21
134.3965955656
  0
LINE
  5
584
100
AcDbEntity
  8
0
100
AcDbLine
 62
7
  6
CONTINUOUS
 10
167.4401637029
 20
134.3965955656
 11
167.4313234165
 21
134.4250111354
  0
SPLINE
  5
585
100
AcDbEntity
  8
0
100
AcDbSpline
 62
7
  6
CONTINUOUS
 70
0
 71
3
 72
9
 73
5
 74
0
 42
0.0000001
 43
0.0000001
 44
0.0000000001
 40
0.0
 40
0.0
 40
0.0
 40
0.0
 40
0.2588692024
 40
1.0
 40
1.0
 40
1.0
 40
1.0
 10
167.1328334554
 20
137.4037345422
 30
0.0
 10
167.1262135889
 20
137.4107308932
 30
0.0
 10
167.100991512
 20
137.4380845651
 30
0.0
 10
167.0772152169
 20
137.4667874801
 30
0.0
 10
167.0606607916
 20
137.488840915
 30
0.0
  0
LINE
  5
586
100
AcDbEntity
  8
0
100
AcDbLine
 62
7
  6
CONTINUOUS
 10
195.0353540883
 20
135.8718195928
 11
194.7800609972
 21
135.1058622373
  0
LINE
  5
587
100
AcDbEntity
  8
0
100
AcDbLine
 62
7
  6
CONTINUOUS
 10
194.7800609972
 20
135.1058622373
 11
194.6629502345
 21
134.6803302539
  0
LINE
  5
588
100
AcDbEntity
  8
0
100
AcDbLine
 62
7
  6
CONTINUOUS
 10
194.6629502345
 20
134.6803302539
 11
194.6026152292
 21
134.4250111354
  0
LINE
  5
589
100
AcDbEntity
  8
0
100
AcDbLine
 62
7
  6
CONTINUOUS
 10
195.0111832632
 20
133.4888289206
 11
194.9951057987
 21
133.4432268795
  0
SPLINE
  5
58A
100
AcDbEntity
  8
0
100
AcDbSpline
 62
7
  6
CONTINUOUS
 70
0
 71
3
 72
8
 73
4
 74
0
 42
0.0000001
 43
0.0000001
 44
0.0000000001
 40
0.0
 40
0.0
 40
0.0
 40
0.0
 40
1.0
 40
1.0
 40
1.0
 40
1.0
 10
168.5335973938
 20
134.3399047626
 30
0.0
 10
168.3750053693
 20
134.8267830055
 30
0.0
 10
168.2167554746
 20
135.3137727974
 30
0.0
 10
168.058812088
 20
135.800861845
 30
0.0
  0
LINE
  5
58B
100
AcDbEntity
  8
0
100
AcDbLine
 62
7
  6
CONTINUOUS
 10
168.058812088
 20
135.800861845
 11
168.0358057391
 21
135.8718195928
  0
LINE
  5
58C
100
AcDbEntity
  8
0
100
AcDbLine
 62
7
  6
CONTINUOUS
 10
168.2776058064
 20
135.8718195928
 11
168.1644120796
 21
136.2122450841
  0
LINE
  5
58D
100
AcDbEntity
  8
0
100
AcDbLine
 62
7
  6
CONTINUOUS
 10
167.9254968626
 20
136.2122450841
 11
167.7051976421
 21
136.8930963052
  0
LINE
  5
58E
100
AcDbEntity
  8
0
100
AcDbLine
 62
7
  6
CONTINUOUS
 10
169.0228271069
 20
133.488840915
 11
168.9090403805
 21
133.8292664362
  0
SPLINE
  5
58F
100
AcDbEntity
  8
0
100
AcDbSpline
 62
7
  6
CONTINUOUS
 70
0
 71
3
 72
9
 73
5
 74
0
 42
0.0000001
 43
0.0000001
 44
0.0000000001
 40
0.0
 40
0.0
 40
0.0
 40
0.0
 40
0.2576014945
 40
1.0
 40
1.0
 40
1.0
 40
1.0
 10
194.5507877403
 20
133.5739472953
 30
0.0
 10
194.5588875492
 20
133.5669437195
 30
0.0
 10
194.5900810496
 20
133.5394698121
 30
0.0
 10
194.6202482955
 20
133.5108218278
 30
0.0
 10
194.6419081323
 20
133.488840915
 30
0.0
  0
LINE
  5
590
100
AcDbEntity
  8
0
100
AcDbLine
 62
7
  6
CONTINUOUS
 10
195.5812945052
 20
135.8718195928
 11
195.3272069441
 21
135.1058622373
  0
LINE
  5
591
100
AcDbEntity
  8
0
100
AcDbLine
 62
7
  6
CONTINUOUS
 10
195.9033299582
 20
136.6657254839
 11
195.8515932382
 21
136.5526708138
  0
LINE
  5
592
100
AcDbEntity
  8
0
100
AcDbLine
 62
7
  6
CONTINUOUS
 10
196.1674100955
 20
137.1713912775
 11
196.1510787073
 21
137.1484154237
  0
SPLINE
  5
593
100
AcDbEntity
  8
0
100
AcDbSpline
 62
7
  6
CONTINUOUS
 70
0
 71
3
 72
9
 73
5
 74
0
 42
0.0000001
 43
0.0000001
 44
0.0000000001
 40
0.0
 40
0.0
 40
0.0
 40
0.0
 40
0.2573622997
 40
1.0
 40
1.0
 40
1.0
 40
1.0
 10
195.0909974235
 20
133.5739472953
 30
0.0
 10
195.0987664704
 20
133.566940296
 30
0.0
 10
195.1287012369
 20
133.5394365818
 30
0.0
 10
195.1575985874
 20
133.5107954058
 30
0.0
 10
195.1783203209
 20
133.488840915
 30
0.0
  0
LINE
  5
594
100
AcDbEntity
  8
0
100
AcDbLine
 62
7
  6
CONTINUOUS
 10
195.1492200712
 20
134.4250111354
 11
195.1383287056
 21
134.3681517083
  0
LINE
  5
595
100
AcDbEntity
  8
0
100
AcDbLine
 62
7
  6
CONTINUOUS
 10
195.1383287056
 20
134.3681517083
 11
195.0837191364
 21
134.0845855845
  0
LINE
  5
596
100
AcDbEntity
  8
0
100
AcDbLine
 62
7
  6
CONTINUOUS
 10
195.2099661166
 20
134.6803302539
 11
195.1492200712
 21
134.4250111354
  0
LINE
  5
597
100
AcDbEntity
  8
0
100
AcDbLine
 62
7
  6
CONTINUOUS
 10
195.3272069441
 20
135.1058622373
 11
195.2099661166
 21
134.6803302539
  0
LINE
  5
598
100
AcDbEntity
  8
0
100
AcDbLine
 62
7
  6
CONTINUOUS
 10
195.5600723319
 20
134.2541325951
 11
195.524008972
 21
134.1696919573
  0
SPLINE
  5
599
100
AcDbEntity
  8
0
100
AcDbSpline
 62
7
  6
CONTINUOUS
 70
0
 71
3
 72
8
 73
4
 74
0
 42
0.0000001
 43
0.0000001
 44
0.0000000001
 40
0.0
 40
0.0
 40
0.0
 40
0.0
 40
1.0
 40
1.0
 40
1.0
 40
1.0
 10
195.9109880639
 20
135.1909686101
 30
0.0
 10
195.8536930084
 20
135.0207107634
 30
0.0
 10
195.7962661554
 20
134.8504972071
 30
0.0
 10
195.7387017066
 20
134.6803302539
 30
0.0
  0
LINE
  5
59A
100
AcDbEntity
  8
0
100
AcDbLine
 62
7
  6
CONTINUOUS
 10
196.0973297191
 20
135.7867132199
 11
195.9109880639
 21
135.1909686101
  0
LINE
  5
59B
100
AcDbEntity
  8
0
100
AcDbLine
 62
7
  6
CONTINUOUS
 10
196.2451623378
 20
136.2973514569
 11
196.0973297191
 21
135.7867132199
  0
LINE
  5
59C
100
AcDbEntity
  8
0
100
AcDbLine
 62
7
  6
CONTINUOUS
 10
196.3550714951
 20
136.8079899323
 11
196.3369407236
 21
136.7224711169
  0
LINE
  5
59D
100
AcDbEntity
  8
0
100
AcDbLine
 62
7
  6
CONTINUOUS
 10
195.6835185768
 20
133.9143728388
 11
195.6334732396
 21
133.7690147371
  0
LINE
  5
59E
100
AcDbEntity
  8
0
100
AcDbLine
 62
7
  6
CONTINUOUS
 10
195.6334732396
 20
133.7690147371
 11
195.6292141122
 21
133.75669399
  0
LINE
  5
59F
100
AcDbEntity
  8
0
100
AcDbLine
 62
7
  6
CONTINUOUS
 10
195.4098433098
 20
133.132579511
 11
195.3544530523
 21
132.9782026184
  0
LINE
  5
5A0
100
AcDbEntity
  8
0
100
AcDbLine
 62
7
  6
CONTINUOUS
 10
196.6372630378
 20
136.8930963052
 11
196.6198477606
 21
136.8362363807
  0
LINE
  5
5A1
100
AcDbEntity
  8
0
100
AcDbLine
 62
7
  6
CONTINUOUS
 10
196.6198477606
 20
136.8362363807
 11
196.602438356
 21
136.779425393
  0
LINE
  5
5A2
100
AcDbEntity
  8
0
100
AcDbLine
 62
7
  6
CONTINUOUS
 10
196.602438356
 20
136.779425393
 11
196.5328588158
 21
136.5526708138
  0
SPLINE
  5
5A3
100
AcDbEntity
  8
BEZUGSACHSEN
100
AcDbSpline
 62
7
  6
CONTINUOUS
 70
0
 71
3
 72
22
 73
18
 74
0
 42
0.0000001
 43
0.0000001
 44
0.0000000001
 40
0.0
 40
0.0
 40
0.0
 40
0.0
 40
0.1739896529
 40
0.3390081096
 40
0.4157535641
 40
0.4876496833
 40
0.5541800227
 40
0.6150622086
 40
0.6702850031
 40
0.720121895
 40
0.7652186804
 40
0.8066271513
 40
0.8459376375
 40
0.8855886434
 40
0.9304525984
 40
0.9594824215
 40
1.0
 40
1.0
 40
1.0
 40
1.0
 10
181.6564799474
 20
135.3651744876
 30
0.0
 10
182.519972195
 20
135.3651744876
 30
0.0
 10
184.2025245132
 20
135.3378988151
 30
0.0
 10
186.2637534239
 20
135.2270703827
 30
0.0
 10
187.8132807726
 20
135.0754295392
 30
0.0
 10
188.8717992103
 20
134.9320556819
 30
0.0
 10
189.845059172
 20
134.7528351726
 30
0.0
 10
190.7254084066
 20
134.5340957864
 30
0.0
 10
191.5075571028
 20
134.2727617397
 30
0.0
 10
192.1879590094
 20
133.9647995896
 30
0.0
 10
192.764907939
 20
133.6066732207
 30
0.0
 10
193.2368561199
 20
133.1926226322
 30
0.0
 10
193.601525718
 20
132.7136061295
 30
0.0
 10
193.8542694679
 20
132.1470734034
 30
0.0
 10
193.9456780203
 20
131.5835386441
 30
0.0
 10
193.9181516948
 20
131.014846432
 30
0.0
 10
193.8337381361
 20
130.6753922473
 30
0.0
 10
193.7586810955
 20
130.488840915
 30
0.0
  0
LINE
  5
5A4
100
AcDbEntity
  8
0
100
AcDbLine
 62
7
  6
CONTINUOUS
 10
195.8816364732
 20
134.4250111354
 11
195.8558478569
 21
134.339774029
  0
LINE
  5
5A5
100
AcDbEntity
  8
0
100
AcDbLine
 62
7
  6
CONTINUOUS
 10
195.8558478569
 20
134.339774029
 11
195.8042762238
 21
134.1696919573
  0
SPLINE
  5
5A6
100
AcDbEntity
  8
0
100
AcDbSpline
 62
7
  6
CONTINUOUS
 70
0
 71
3
 72
8
 73
4
 74
0
 42
0.0000001
 43
0.0000001
 44
0.0000000001
 40
0.0
 40
0.0
 40
0.0
 40
0.0
 40
1.0
 40
1.0
 40
1.0
 40
1.0
 10
167.9935996272
 20
134.3399047626
 30
0.0
 10
167.8278924995
 20
134.8504362824
 30
0.0
 10
167.6625265287
 20
135.3610786346
 30
0.0
 10
167.4974660593
 20
135.8718195928
 30
0.0
  0
ENDSEC
  0
SECTION
  2
OBJECTS
  0
DICTIONARY
  5
C
100
AcDbDictionary
280
0
281
1
  3
ACAD_GROUP
350
D
  3
ACAD_MLINESTYLE
350
17
  3
ACAD_LAYOUT
350
1A
  3
ACAD_PLOTSETTINGS
350
19
  3
ACAD_PLOTSTYLENAME
350
E
  0
DICTIONARY
  5
D
102
{ACAD_REACTORS
330
C
102
}
100
AcDbDictionary
280
0
281
1
  0
ACDBDICTIONARYWDFLT
  5
E
102
{ACAD_REACTORS
330
C
102
}
100
AcDbDictionary
281
1
  3
Normal
350
F
100
AcDbDictionaryWithDefault
340
F
  0
DICTIONARY
  5
17
102
{ACAD_REACTORS
330
C
102
}
100
AcDbDictionary
280
0
281
1
  3
Standard
350
18
  0
DICTIONARY
  5
19
102
{ACAD_REACTORS
330
C
102
}
100
AcDbDictionary
281
1
  0
DICTIONARY
  5
1A
102
{ACAD_REACTORS
330
C
102
}
100
AcDbDictionary
281
1
  3
Model
350
5A7
  3
Layout1
350
5A8
  0
ACDBPLACEHOLDER
  5
F
102
{ACAD_REACTORS
330
E
102
}
  0
MLINESTYLE
  5
18
102
{ACAD_REACTORS
330
17
102
}
100
AcDbMlineStyle
  2
STANDARD
 70
0
  3

 62
256
 51
90.0
 52
90.0
 71
2
 49
0.5
 62
256
  6
BYLAYER
 49
-0.5
 62
256
  6
BYLAYER
  0
LAYOUT
  5
5A7
102
{ACAD_REACTORS
330
1A
102
}
100
AcDbPlotSettings
  1

  2
none_device
  4
ISO_A4_(297.00_x_210.00_MM)
  6

 40
0.0
 41
0.0
 42
0.0
 43
0.0
 44
297.0
 45
210.0
 46
0.0
 47
0.0
 48
0.0
 49
0.0
140
0.0
141
0.0
142
1.0
143
1.0
 70
1024
 72
1
 73
0
 74
0
  7

 75
0
147
1.0
148
0.0
149
0.0
100
AcDbLayout
  1
Model
 70
0
 71
0
 10
0.0
 20
0.0
 11
297.0
 21
210.0
 12
0.0
 22
0.0
 32
0.0
 14
0.0
 24
0.0
 34
0.0
 15
0.0
 25
0.0
 35
0.0
146
0.0
 13
0.0
 23
0.0
 33
0.0
 16
1.0
 26
0.0
 36
0.0
 17
0.0
 27
1.0
 37
0.0
 76
0
330
20F
345
0
346
0
  0
LAYOUT
  5
5A8
102
{ACAD_REACTORS
330
1A
102
}
100
AcDbPlotSettings
  1

  2
none_device
  4
ISO_A4_(297.00_x_210.00_MM)
  6

 40
0.0
 41
0.0
 42
0.0
 43
0.0
 44
297.0
 45
210.0
 46
0.0
 47
0.0
 48
0.0
 49
0.0
140
0.0
141
0.0
142
1.0
143
1.0
 70
0
 72
1
 73
0
 74
0
  7

 75
0
147
1.0
148
0.0
149
0.0
100
AcDbLayout
  1
Layout1
 70
0
 71
1
 10
0.0
 20
0.0
 11
297.0
 21
210.0
 12
0.0
 22
0.0
 32
0.0
 14
0.0
 24
0.0
 34
0.0
 15
0.0
 25
0.0
 35
0.0
146
0.0
 13
0.0
 23
0.0
 33
0.0
 16
1.0
 26
0.0
 36
0.0
 17
0.0
 27
1.0
 37
0.0
 76
0
330
210
345
0
346
0
  0
ENDSEC
  0
EOF
