999
DXF file: G:\TBM\JAKUBETZ\Internet\CAD-Daten\2vlbg-20t-m48.dxf
999
Pro/ENGINEER 2001400 by Parametric Technology Corporation
0
SECTION
2
HEADER
9
$ACADVER
1
AC1014
9
$EXTMAX
10
420.0000000000
20
297.0000000000
9
$EXTMIN
10
0.0000000000
20
0.0000000000
9
$LIMMIN
10
0.0000000000
20
0.0000000000
9
$LIMMAX
10
420.0000000000
20
297.0000000000
9
$VIEWCTR
10
210.0000000000
20
148.5000000000
9
$VIEWSIZE
40
297.0000000000
9
$CLAYER
8
0
9
$LTSCALE
40
23.1000000000
9
$CELTYPE
6
BYLAYER
9
$DIMSCALE
40
1
9
$DIMASZ
40
3.5000000000
9
$DIMEXO
40
2.6250000000
9
$DIMDLI
40
15.9600000000
9
$DIMEXE
40
7.5600000000
9
$DIMCEN
40
3.7800000000
9
$DIMLFAC
40
1.0000000000
9
$DIMTXT
40
3.5000000000
9
$DIMTOL
70
1
9
$DIMTFAC
40
0.6000000000
9
$DIMTP
40
0.0050000000
9
$DIMTM
40
0.0050000000
9
$HANDSEED
5
622
0
ENDSEC
0
SECTION
2
CLASSES
0
ENDSEC
0
SECTION
2
TABLES
0
TABLE
2
VPORT
5
8
100
AcDbSymbolTable
70
2
0
VPORT
5
1F4
100
AcDbSymbolTableRecord
100
AcDbViewportTableRecord
2
*ACTIVE
70
0
10
0.0
20
0.0
11
1.0
21
1.0
12
210.0000000000
22
148.5000000000
13
0.0
23
0.0
14
1.0
24
1.0
15
0.0
25
0.0
16
0.0
26
0.0
36
1.0
17
0.0
27
0.0
37
0.0
40
297.0000000000
41
1.4141414141
42
50.0
43
0.0
44
0.0
50
0.0
51
0.0
71
0
72
100
73
1
74
1
75
0
76
0
77
0
78
0
0
ENDTAB
0
TABLE
2
LTYPE
5
5
100
AcDbSymbolTable
70
6
0
LTYPE
5
14
100
AcDbSymbolTableRecord
100
AcDbLinetypeTableRecord
2
BYBLOCK
70
0
3

72
65
73
0
40
0.0
0
LTYPE
5
15
100
AcDbSymbolTableRecord
100
AcDbLinetypeTableRecord
2
BYLAYER
70
0
3

72
65
73
0
40
0.0
0
LTYPE
5
16
100
AcDbSymbolTableRecord
100
AcDbLinetypeTableRecord
2
CONTINUOUS
70
64
3
Solid line
72
65
73
0
40
0
0
LTYPE
5
1F5
100
AcDbSymbolTableRecord
100
AcDbLinetypeTableRecord
2
CENTER
70
64
3
____ _ ____ _ ____ _ ____ _ ____ _ ____ _ ____
72
65
73
4
40
0.6
49
0.375
74
0
49
-0.075
74
0
49
0.075
74
0
49
-0.075
74
0
0
LTYPE
5
1F6
100
AcDbSymbolTableRecord
100
AcDbLinetypeTableRecord
2
HIDDEN
70
64
3
- - - - - - - - - - - - - - - - - - - -
72
65
73
2
40
0.2
49
0.1
74
0
49
-0.1
74
0
0
LTYPE
5
1F7
100
AcDbSymbolTableRecord
100
AcDbLinetypeTableRecord
2
PHANTOM
70
64
3
_____ _ _ _____ _ _ _____ _ _ _____
72
65
73
6
40
0.8
49
0.45
74
0
49
-0.05
74
0
49
0.1
74
0
49
-0.05
74
0
49
0.1
74
0
49
-0.05
74
0
0
LTYPE
5
1F8
100
AcDbSymbolTableRecord
100
AcDbLinetypeTableRecord
2
DOT
70
64
3
. . . . . . . . . . . . . . . . . . . .
72
65
73
2
40
0.2
49
0.1
74
0
49
-0.1
74
0
0
LTYPE
5
1F9
100
AcDbSymbolTableRecord
100
AcDbLinetypeTableRecord
2
DASHED
70
64
3
- - - - - - - - - - - - - - - - - - - -
72
65
73
2
40
0.2
49
0.1
74
0
49
-0.1
74
0
0
ENDTAB
0
TABLE
2
LAYER
5
2
100
AcDbSymbolTable
70
36
0
LAYER
5
10
100
AcDbSymbolTableRecord
100
AcDbLayerTableRecord
2
0
70
0
62
7
6
CONTINUOUS
0
LAYER
5
1FA
100
AcDbSymbolTableRecord
100
AcDbLayerTableRecord
2
DEFAULT_1
70
0
62
7
6
CENTER
0
LAYER
5
1FB
100
AcDbSymbolTableRecord
100
AcDbLayerTableRecord
2
DEFAULT_2
70
0
62
8
6
HIDDEN
0
LAYER
5
1FC
100
AcDbSymbolTableRecord
100
AcDbLayerTableRecord
2
DEFAULT_3
70
0
62
7
6
PHANTOM
0
ENDTAB
0
TABLE
2
STYLE
5
3
100
AcDbSymbolTable
70
1
0
STYLE
5
11
100
AcDbSymbolTableRecord
100
AcDbTextStyleTableRecord
2
STANDARD
70
0
40
0.0
41
1.0
50
0.0
71
0
42
0.0
3
txt
4

0
STYLE
5
1FD
100
AcDbSymbolTableRecord
100
AcDbTextStyleTableRecord
2
TEXTSTYLE_0
70
0
40
0.0
41
0.80
50
0.0
71
0
42
0.2
3
txt
4

0
ENDTAB
0
TABLE
2
VIEW
5
6
100
AcDbSymbolTable
70
0
0
ENDTAB
0
TABLE
2
UCS
5
7
100
AcDbSymbolTable
70
0
0
ENDTAB
0
TABLE
2
APPID
5
9
100
AcDbSymbolTable
70
1
0
APPID
5
1FE
100
AcDbSymbolTableRecord
100
AcDbRegAppTableRecord
2
ACAD
70
0
0
ENDTAB
0
TABLE
2
DIMSTYLE
5
A
100
AcDbSymbolTable
70
1
0
DIMSTYLE
105
1FF
100
AcDbSymbolTableRecord
100
AcDbDimStyleTableRecord
2
STANDARD
70
0
3

4

5

6

7

40
1.0
41
0.18
42
0.0625
43
0.38
44
0.18
45
0.0
46
0.0
47
0.0050000000
48
0.0050000000
140
3.5000000000
141
0.09
142
0.0
143
25.4
144
1.0000000000
145
0.0
146
0.6000000000
147
0.09
71
1
72
0
73
1
74
1
75
0
76
0
77
0
78
0
170
0
171
2
172
0
173
0
174
0
175
0
176
0
177
0
178
0
270
2
271
3
272
4
273
2
274
2
340
11
275
0
280
0
281
0
282
0
283
1
284
0
285
0
286
0
287
3
288
0
0
ENDTAB
0
TABLE
2
BLOCK_RECORD
5
1
100
AcDbSymbolTable
70
0
0
BLOCK_RECORD
5
1B
100
AcDbSymbolTableRecord
100
AcDbBlockTableRecord
2
*MODEL_SPACE
0
BLOCK_RECORD
5
1C
100
AcDbSymbolTableRecord
100
AcDbBlockTableRecord
2
*PAPER_SPACE
0
ENDTAB
0
ENDSEC
0
SECTION
2
BLOCKS
0
BLOCK
5
1E
100
AcDbEntity
8
0
100
AcDbBlockBegin
2
*MODEL_SPACE
70
0
10
0.0
20
0.0
30
0.0
3
*MODEL_SPACE
1

0
ENDBLK
5
1F
100
AcDbEntity
8
0
100
AcDbBlockEnd
0
BLOCK
5
20
100
AcDbEntity
8
0
100
AcDbBlockBegin
2
*PAPER_SPACE
70
0
10
0.0
20
0.0
30
0.0
3
*PAPER_SPACE
1

0
ENDBLK
5
21
100
AcDbEntity
8
0
100
AcDbBlockEnd
0
ENDSEC
0
SECTION
2
ENTITIES
0
TEXT
5
200
100
AcDbEntity
8
0
100
AcDbText
62
2
6
CONTINUOUS
10
48.3629327191
20
-119.6110242072
7
TEXTSTYLE_0
40
10.0000000000
1
RUD VLBG 20t-M48
72
5
11
172.1724565287
21
-119.6110242072
100
AcDbText
0
TEXT
5
201
100
AcDbEntity
8
0
100
AcDbText
62
2
6
CONTINUOUS
10
180.0398113278
20
157.7981301649
7
TEXTSTYLE_0
40
10.0000000000
1
RUD VLBG 20t-M48
50
90.0000000000
72
5
11
180.0398113278
21
281.6076539745
100
AcDbText
0
TEXT
5
202
100
AcDbEntity
8
0
100
AcDbText
62
2
6
CONTINUOUS
10
335.3889377762
20
160.7571611449
7
TEXTSTYLE_0
40
10.0000000000
1
RUD VLBG 20t-M48
50
90.0000000000
72
5
11
335.3889377762
21
284.5666849544
100
AcDbText
0
LINE
5
203
100
AcDbEntity
8
0
100
AcDbLine
62
7
6
CONTINUOUS
10
0.0000000000
20
0.0000000000
11
0.0000000000
21
297.0000000000
0
LINE
5
204
100
AcDbEntity
8
0
100
AcDbLine
62
7
6
CONTINUOUS
10
0.0000000000
20
0.0000000000
11
420.0000000000
21
0.0000000000
0
LINE
5
205
100
AcDbEntity
8
0
100
AcDbLine
62
7
6
CONTINUOUS
10
0.0000000000
20
297.0000000000
11
420.0000000000
21
297.0000000000
0
LINE
5
206
100
AcDbEntity
8
0
100
AcDbLine
62
7
6
CONTINUOUS
10
420.0000000000
20
0.0000000000
11
420.0000000000
21
297.0000000000
0
LINE
5
207
100
AcDbEntity
8
0
100
AcDbLine
62
7
6
CONTINUOUS
10
131.9518218214
20
12.9833385899
11
90.0858218214
21
12.9833385899
0
LINE
5
208
100
AcDbEntity
8
0
100
AcDbLine
62
7
6
CONTINUOUS
10
87.0188218214
20
17.9833385899
11
135.0188218214
21
17.9833385899
0
LINE
5
209
100
AcDbEntity
8
0
100
AcDbLine
62
7
6
CONTINUOUS
10
92.0188218214
20
12.9833385899
11
87.0188218214
21
17.9833385899
0
LINE
5
20A
100
AcDbEntity
8
0
100
AcDbLine
62
7
6
CONTINUOUS
10
153.5188218214
20
85.9833385899
11
68.5188218214
21
85.9833385899
0
LINE
5
20B
100
AcDbEntity
8
0
100
AcDbLine
62
7
6
CONTINUOUS
10
153.5188218214
20
93.9833385899
11
68.5188218214
21
93.9833385899
0
LINE
5
20C
100
AcDbEntity
8
0
100
AcDbLine
62
7
6
CONTINUOUS
10
66.0188218214
20
94.4833385899
11
156.0188218214
21
94.4833385899
0
LINE
5
20D
100
AcDbEntity
8
0
100
AcDbLine
62
7
6
CONTINUOUS
10
33.0188218214
20
294.6202841215
11
33.0188218214
21
141.4833385899
0
LINE
5
20E
100
AcDbEntity
8
0
100
AcDbLine
62
7
6
CONTINUOUS
10
159.0188218214
20
111.4833385899
11
158.5188218214
21
111.4833385899
0
LINE
5
20F
100
AcDbEntity
8
0
100
AcDbLine
62
7
6
CONTINUOUS
10
63.0188218214
20
111.4833385899
11
63.5188218214
21
111.4833385899
0
LINE
5
210
100
AcDbEntity
8
0
100
AcDbLine
62
7
6
CONTINUOUS
10
61.0188218214
20
282.7327166955
11
61.0188218214
21
159.4833385899
0
LINE
5
211
100
AcDbEntity
8
0
100
AcDbLine
62
7
6
CONTINUOUS
10
63.5188218214
20
96.9833385899
11
63.5188218214
21
161.9833385899
0
LINE
5
212
100
AcDbEntity
8
0
100
AcDbLine
62
7
6
CONTINUOUS
10
61.0188218214
20
282.7327166955
11
61.0326804679
21
283.3092715102
0
LINE
5
213
100
AcDbEntity
8
DEFAULT_1
100
AcDbLine
62
2
6
CENTER
10
55.0207524241
20
129.4833385899
11
165.9844141729
21
129.4833385899
0
LINE
5
214
100
AcDbEntity
8
0
100
AcDbLine
62
7
6
CONTINUOUS
10
67.7175516322
20
173.4833385899
11
67.7175516322
21
199.6339736845
0
LINE
5
215
100
AcDbEntity
8
0
100
AcDbLine
62
7
6
CONTINUOUS
10
68.5188218214
20
172.9833385899
11
68.5188218214
21
164.9833385899
0
LINE
5
216
100
AcDbEntity
8
0
100
AcDbLine
62
7
6
CONTINUOUS
10
68.5188218214
20
93.9833385899
11
68.5188218214
21
85.9833385899
0
LINE
5
217
100
AcDbEntity
8
0
100
AcDbLine
62
7
6
CONTINUOUS
10
67.7175516322
20
199.6339736845
11
73.5188218214
21
202.9833385899
0
LINE
5
218
100
AcDbEntity
8
0
100
AcDbLine
62
7
6
CONTINUOUS
10
76.3188218214
20
172.9833385899
11
76.3188218214
21
173.4833385899
0
LINE
5
219
100
AcDbEntity
8
0
100
AcDbLine
62
7
6
CONTINUOUS
10
78.0188218214
20
164.9833385899
11
78.0188218214
21
164.4833385899
0
LINE
5
21A
100
AcDbEntity
8
0
100
AcDbLine
62
7
6
CONTINUOUS
10
78.0188218214
20
94.4833385899
11
78.0188218214
21
93.9833385899
0
LINE
5
21B
100
AcDbEntity
8
0
100
AcDbLine
62
7
6
CONTINUOUS
10
82.7169352765
20
202.9833385899
11
82.7169352765
21
203.1833385899
0
LINE
5
21C
100
AcDbEntity
8
0
100
AcDbLine
62
7
6
CONTINUOUS
10
87.0188218214
20
17.9833385899
11
87.0188218214
21
85.9833385899
0
LINE
5
21D
100
AcDbEntity
8
0
100
AcDbLine
62
7
6
CONTINUOUS
10
89.3681867268
20
173.4833385899
11
89.3681867268
21
199.6339736845
0
LINE
5
21E
100
AcDbEntity
8
0
100
AcDbLine
62
2
6
CONTINUOUS
10
90.0858218214
20
85.9833385899
11
90.0858218214
21
12.9833385899
0
LINE
5
21F
100
AcDbEntity
8
0
100
AcDbLine
62
7
6
CONTINUOUS
10
92.6040710713
20
202.9833385899
11
92.6040710713
21
203.1833385899
0
LINE
5
220
100
AcDbEntity
8
0
100
AcDbLine
62
7
6
CONTINUOUS
10
92.7336320579
20
202.9833385899
11
92.7336320579
21
203.1833385899
0
LINE
5
221
100
AcDbEntity
8
0
100
AcDbLine
62
7
6
CONTINUOUS
10
93.2734694814
20
202.9833385899
11
93.2734694814
21
203.1833385899
0
LINE
5
222
100
AcDbEntity
8
0
100
AcDbLine
62
7
6
CONTINUOUS
10
93.4246240070
20
202.9833385899
11
93.4246240070
21
203.1833385899
0
LINE
5
223
100
AcDbEntity
8
0
100
AcDbLine
62
7
6
CONTINUOUS
10
93.7682849092
20
202.9833385899
11
93.7682849092
21
203.1833385899
0
LINE
5
224
100
AcDbEntity
8
0
100
AcDbLine
62
7
6
CONTINUOUS
10
94.4200916203
20
202.9833385899
11
94.4200916203
21
203.1833385899
0
LINE
5
225
100
AcDbEntity
8
0
100
AcDbLine
62
7
6
CONTINUOUS
10
94.9557795301
20
202.9833385899
11
94.9557795301
21
203.1833385899
0
LINE
5
226
100
AcDbEntity
8
0
100
AcDbLine
62
7
6
CONTINUOUS
10
95.2354926801
20
202.9833385899
11
95.2354926801
21
203.1833385899
0
LINE
5
227
100
AcDbEntity
8
0
100
AcDbLine
62
7
6
CONTINUOUS
10
95.3990870450
20
202.9833385899
11
95.3990870450
21
203.1833385899
0
LINE
5
228
100
AcDbEntity
8
0
100
AcDbLine
62
7
6
CONTINUOUS
10
97.0810444718
20
202.9833385899
11
97.0810444718
21
203.1833385899
0
LINE
5
229
100
AcDbEntity
8
0
100
AcDbLine
62
7
6
CONTINUOUS
10
99.7264164993
20
202.9833385899
11
99.7264164993
21
203.1833385899
0
LINE
5
22A
100
AcDbEntity
8
0
100
AcDbLine
62
7
6
CONTINUOUS
10
100.1404440046
20
202.9833385899
11
100.1404440046
21
203.1833385899
0
LINE
5
22B
100
AcDbEntity
8
0
100
AcDbLine
62
7
6
CONTINUOUS
10
100.3071547350
20
202.9833385899
11
100.3071547350
21
203.1833385899
0
LINE
5
22C
100
AcDbEntity
8
0
100
AcDbLine
62
7
6
CONTINUOUS
10
66.0188218214
20
164.4833385899
11
156.0188218214
21
164.4833385899
0
LINE
5
22D
100
AcDbEntity
8
0
100
AcDbLine
62
7
6
CONTINUOUS
10
153.5188218214
20
164.9833385899
11
68.5188218214
21
164.9833385899
0
LINE
5
22E
100
AcDbEntity
8
0
100
AcDbLine
62
7
6
CONTINUOUS
10
109.2351801544
20
202.9833385899
11
109.2351801544
21
203.1833385899
0
LINE
5
22F
100
AcDbEntity
8
0
100
AcDbLine
62
7
6
CONTINUOUS
10
110.0963634674
20
202.9833385899
11
110.0963634674
21
203.1833385899
0
LINE
5
230
100
AcDbEntity
8
0
100
AcDbLine
62
7
6
CONTINUOUS
10
110.8144677428
20
202.9833385899
11
110.8144677428
21
203.1833385899
0
LINE
5
231
100
AcDbEntity
8
DEFAULT_1
100
AcDbLine
62
2
6
CENTER
10
111.0188218214
20
175.9833385899
11
111.0188218214
21
9.9833385899
0
LINE
5
232
100
AcDbEntity
8
0
100
AcDbLine
62
7
6
CONTINUOUS
10
112.1057901025
20
202.9833385899
11
112.1057901025
21
203.1833385899
0
LINE
5
233
100
AcDbEntity
8
0
100
AcDbLine
62
7
6
CONTINUOUS
10
153.5188218214
20
172.9833385899
11
68.5188218214
21
172.9833385899
0
LINE
5
234
100
AcDbEntity
8
0
100
AcDbLine
62
7
6
CONTINUOUS
10
67.7175516322
20
173.4833385899
11
154.3200920106
21
173.4833385899
0
LINE
5
235
100
AcDbEntity
8
0
100
AcDbLine
62
7
6
CONTINUOUS
10
113.2540367099
20
202.9833385899
11
113.2540367099
21
203.1833385899
0
LINE
5
236
100
AcDbEntity
8
0
100
AcDbLine
62
7
6
CONTINUOUS
10
115.2634633451
20
202.9833385899
11
115.2634633451
21
203.1833385899
0
LINE
5
237
100
AcDbEntity
8
0
100
AcDbLine
62
7
6
CONTINUOUS
10
116.1246466581
20
202.9833385899
11
116.1246466581
21
203.1833385899
0
LINE
5
238
100
AcDbEntity
8
0
100
AcDbLine
62
7
6
CONTINUOUS
10
117.0368331407
20
202.9833385899
11
117.0368331407
21
203.1833385899
0
LINE
5
239
100
AcDbEntity
8
0
100
AcDbLine
62
7
6
CONTINUOUS
10
118.7058632091
20
202.9833385899
11
118.7058632091
21
203.1833385899
0
LINE
5
23A
100
AcDbEntity
8
0
100
AcDbLine
62
7
6
CONTINUOUS
10
120.3009832411
20
202.9833385899
11
120.3009832411
21
203.1833385899
0
LINE
5
23B
100
AcDbEntity
8
0
100
AcDbLine
62
7
6
CONTINUOUS
10
121.0586913626
20
202.9833385899
11
121.0586913626
21
203.1833385899
0
LINE
5
23C
100
AcDbEntity
8
0
100
AcDbLine
62
7
6
CONTINUOUS
10
122.4944038166
20
202.9833385899
11
122.4944038166
21
203.1833385899
0
LINE
5
23D
100
AcDbEntity
8
0
100
AcDbLine
62
7
6
CONTINUOUS
10
123.7572516492
20
202.9833385899
11
123.7572516492
21
203.1833385899
0
LINE
5
23E
100
AcDbEntity
8
0
100
AcDbLine
62
7
6
CONTINUOUS
10
124.3181661932
20
202.9833385899
11
124.3181661932
21
203.1833385899
0
LINE
5
23F
100
AcDbEntity
8
0
100
AcDbLine
62
7
6
CONTINUOUS
10
124.6222958129
20
202.9833385899
11
124.6222958129
21
203.1833385899
0
LINE
5
240
100
AcDbEntity
8
0
100
AcDbLine
62
7
6
CONTINUOUS
10
125.1819071825
20
202.9833385899
11
125.1819071825
21
203.1833385899
0
LINE
5
241
100
AcDbEntity
8
0
100
AcDbLine
62
7
6
CONTINUOUS
10
125.2655631710
20
202.9833385899
11
125.2655631710
21
203.1833385899
0
LINE
5
242
100
AcDbEntity
8
0
100
AcDbLine
62
7
6
CONTINUOUS
10
125.3530679734
20
202.9833385899
11
125.3530679734
21
203.1833385899
0
LINE
5
243
100
AcDbEntity
8
0
100
AcDbLine
62
7
6
CONTINUOUS
10
125.7827343959
20
202.9833385899
11
125.7827343959
21
203.1833385899
0
LINE
5
244
100
AcDbEntity
8
0
100
AcDbLine
62
7
6
CONTINUOUS
10
126.4691985289
20
202.9833385899
11
126.4691985289
21
203.1833385899
0
LINE
5
245
100
AcDbEntity
8
0
100
AcDbLine
62
7
6
CONTINUOUS
10
127.5839019427
20
202.9833385899
11
127.5839019427
21
203.1833385899
0
LINE
5
246
100
AcDbEntity
8
0
100
AcDbLine
62
7
6
CONTINUOUS
10
128.7839651638
20
202.9833385899
11
128.7839651638
21
203.1833385899
0
LINE
5
247
100
AcDbEntity
8
0
100
AcDbLine
62
7
6
CONTINUOUS
10
130.0693884322
20
202.9833385899
11
130.0693884322
21
203.1833385899
0
LINE
5
248
100
AcDbEntity
8
0
100
AcDbLine
62
7
6
CONTINUOUS
10
131.0973009297
20
202.9833385899
11
131.0973009297
21
203.1833385899
0
LINE
5
249
100
AcDbEntity
8
0
100
AcDbLine
62
2
6
CONTINUOUS
10
131.9518218214
20
85.9833385899
11
131.9518218214
21
12.9833385899
0
LINE
5
24A
100
AcDbEntity
8
0
100
AcDbLine
62
7
6
CONTINUOUS
10
132.0391353912
20
202.9833385899
11
132.0391353912
21
203.1833385899
0
LINE
5
24B
100
AcDbEntity
8
0
100
AcDbLine
62
7
6
CONTINUOUS
10
132.6694569160
20
173.4833385899
11
132.6694569160
21
199.6339736845
0
LINE
5
24C
100
AcDbEntity
8
0
100
AcDbLine
62
7
6
CONTINUOUS
10
132.9802562519
20
202.9833385899
11
132.9802562519
21
203.1833385899
0
LINE
5
24D
100
AcDbEntity
8
0
100
AcDbLine
62
7
6
CONTINUOUS
10
133.5784979991
20
202.9833385899
11
133.5784979991
21
203.1833385899
0
LINE
5
24E
100
AcDbEntity
8
0
100
AcDbLine
62
7
6
CONTINUOUS
10
134.0053060507
20
202.9833385899
11
134.0053060507
21
203.1833385899
0
LINE
5
24F
100
AcDbEntity
8
0
100
AcDbLine
62
7
6
CONTINUOUS
10
134.2606764994
20
202.9833385899
11
134.2606764994
21
203.1833385899
0
LINE
5
250
100
AcDbEntity
8
0
100
AcDbLine
62
7
6
CONTINUOUS
10
134.3127456487
20
202.9833385899
11
134.3127456487
21
203.1833385899
0
LINE
5
251
100
AcDbEntity
8
0
100
AcDbLine
62
7
6
CONTINUOUS
10
135.0188218214
20
17.9833385899
11
135.0188218214
21
85.9833385899
0
LINE
5
252
100
AcDbEntity
8
0
100
AcDbLine
62
7
6
CONTINUOUS
10
135.3850563188
20
202.9833385899
11
135.3850563188
21
203.1833385899
0
LINE
5
253
100
AcDbEntity
8
0
100
AcDbLine
62
7
6
CONTINUOUS
10
136.0389184763
20
202.9833385899
11
136.0389184763
21
203.1833385899
0
LINE
5
254
100
AcDbEntity
8
0
100
AcDbLine
62
7
6
CONTINUOUS
10
136.9281889240
20
202.9833385899
11
136.9281889240
21
203.1833385899
0
LINE
5
255
100
AcDbEntity
8
0
100
AcDbLine
62
7
6
CONTINUOUS
10
73.5189888102
20
202.9833385899
11
148.5186548327
21
202.9833385899
0
LINE
5
256
100
AcDbEntity
8
0
100
AcDbLine
62
7
6
CONTINUOUS
10
82.7169352765
20
203.1833385899
11
100.3071547350
21
203.1833385899
0
LINE
5
257
100
AcDbEntity
8
0
100
AcDbLine
62
7
6
CONTINUOUS
10
109.2351801544
20
203.1833385899
11
117.0368331407
21
203.1833385899
0
LINE
5
258
100
AcDbEntity
8
0
100
AcDbLine
62
7
6
CONTINUOUS
10
118.7058632091
20
203.1833385899
11
139.2195639138
21
203.1833385899
0
LINE
5
259
100
AcDbEntity
8
0
100
AcDbLine
62
7
6
CONTINUOUS
10
137.6344203480
20
202.9833385899
11
137.6344203480
21
203.1833385899
0
LINE
5
25A
100
AcDbEntity
8
0
100
AcDbLine
62
7
6
CONTINUOUS
10
138.3930228234
20
202.9833385899
11
138.3930228234
21
203.1833385899
0
LINE
5
25B
100
AcDbEntity
8
0
100
AcDbLine
62
7
6
CONTINUOUS
10
138.7593599276
20
202.9833385899
11
138.7593599276
21
203.1833385899
0
LINE
5
25C
100
AcDbEntity
8
0
100
AcDbLine
62
7
6
CONTINUOUS
10
139.2195639138
20
202.9833385899
11
139.2195639138
21
203.1833385899
0
LINE
5
25D
100
AcDbEntity
8
0
100
AcDbLine
62
7
6
CONTINUOUS
10
144.0188218214
20
164.9833385899
11
144.0188218214
21
164.4833385899
0
LINE
5
25E
100
AcDbEntity
8
0
100
AcDbLine
62
7
6
CONTINUOUS
10
144.0188218214
20
94.4833385899
11
144.0188218214
21
93.9833385899
0
LINE
5
25F
100
AcDbEntity
8
0
100
AcDbLine
62
7
6
CONTINUOUS
10
145.7188218214
20
172.9833385899
11
145.7188218214
21
173.4833385899
0
LINE
5
260
100
AcDbEntity
8
0
100
AcDbLine
62
7
6
CONTINUOUS
10
153.5188218214
20
172.9833385899
11
153.5188218214
21
164.9833385899
0
LINE
5
261
100
AcDbEntity
8
0
100
AcDbLine
62
7
6
CONTINUOUS
10
153.5188218214
20
93.9833385899
11
153.5188218214
21
85.9833385899
0
LINE
5
262
100
AcDbEntity
8
0
100
AcDbLine
62
7
6
CONTINUOUS
10
154.3200920106
20
173.4833385899
11
154.3200920106
21
199.6339736845
0
LINE
5
263
100
AcDbEntity
8
0
100
AcDbLine
62
7
6
CONTINUOUS
10
158.5188218214
20
161.9833385899
11
158.5188218214
21
96.9833385899
0
LINE
5
264
100
AcDbEntity
8
0
100
AcDbLine
62
7
6
CONTINUOUS
10
161.0188218214
20
159.4833385899
11
161.0188218214
21
282.7327166955
0
LINE
5
265
100
AcDbEntity
8
0
100
AcDbLine
62
7
6
CONTINUOUS
10
154.3200920106
20
199.6339736845
11
148.5188218214
21
202.9833385899
0
LINE
5
266
100
AcDbEntity
8
0
100
AcDbLine
62
7
6
CONTINUOUS
10
189.0188218214
20
294.6202841215
11
189.0188218214
21
141.4833385899
0
LINE
5
267
100
AcDbEntity
8
0
100
AcDbLine
62
7
6
CONTINUOUS
10
130.0188218214
20
12.9833385899
11
135.0188218214
21
17.9833385899
0
LINE
5
268
100
AcDbEntity
8
0
100
AcDbLine
62
7
6
CONTINUOUS
10
298.6109521376
20
12.9833385899
11
256.7449521376
21
12.9833385899
0
LINE
5
269
100
AcDbEntity
8
0
100
AcDbLine
62
7
6
CONTINUOUS
10
253.6779521376
20
17.9833385899
11
301.6779521376
21
17.9833385899
0
LINE
5
26A
100
AcDbEntity
8
0
100
AcDbLine
62
7
6
CONTINUOUS
10
258.6779521376
20
12.9833385899
11
253.6779521376
21
17.9833385899
0
LINE
5
26B
100
AcDbEntity
8
0
100
AcDbLine
62
7
6
CONTINUOUS
10
235.1779521376
20
85.9833385899
11
320.1779521376
21
85.9833385899
0
LINE
5
26C
100
AcDbEntity
8
0
100
AcDbLine
62
7
6
CONTINUOUS
10
235.1779521376
20
93.9833385899
11
320.1779521376
21
93.9833385899
0
LINE
5
26D
100
AcDbEntity
8
0
100
AcDbLine
62
7
6
CONTINUOUS
10
228.1779521409
20
94.4833385899
11
330.6779521376
21
94.4833385899
0
LINE
5
26E
100
AcDbEntity
8
0
100
AcDbLine
62
7
6
CONTINUOUS
10
225.1779521376
20
114.3528369958
11
225.1779521376
21
115.6294327671
0
LINE
5
26F
100
AcDbEntity
8
0
100
AcDbLine
62
7
6
CONTINUOUS
10
225.1779521376
20
123.0336877400
11
225.1779521376
21
123.5443266923
0
LINE
5
270
100
AcDbEntity
8
0
100
AcDbLine
62
7
6
CONTINUOUS
10
225.1800709651
20
136.7162750409
11
225.1800709651
21
138.2481899307
0
LINE
5
271
100
AcDbEntity
8
0
100
AcDbLine
62
7
6
CONTINUOUS
10
225.2183195472
20
136.7162750409
11
225.2183195472
21
148.7162750409
0
LINE
5
272
100
AcDbEntity
8
0
100
AcDbLine
62
7
6
CONTINUOUS
10
225.2196369144
20
119.2039009625
11
225.2196369144
21
121.5017730290
0
LINE
5
273
100
AcDbEntity
8
0
100
AcDbLine
62
7
6
CONTINUOUS
10
225.2785511766
20
138.2481899307
11
225.2785511766
21
142.0779772447
0
LINE
5
274
100
AcDbEntity
8
0
100
AcDbLine
62
7
6
CONTINUOUS
10
225.2785511766
20
143.6098919557
11
225.2785511766
21
147.1843603299
0
LINE
5
275
100
AcDbEntity
8
0
100
AcDbLine
62
7
6
CONTINUOUS
10
225.2881046028
20
119.4592200810
11
225.2881046028
21
121.2464539105
0
LINE
5
276
100
AcDbEntity
8
0
100
AcDbLine
62
7
6
CONTINUOUS
10
225.6779521376
20
96.9833385899
11
225.6779521376
21
114.3528369958
0
LINE
5
277
100
AcDbEntity
8
0
100
AcDbLine
62
7
6
CONTINUOUS
10
225.6779521376
20
126.3528369958
11
225.6779521376
21
136.7162750409
0
LINE
5
278
100
AcDbEntity
8
0
100
AcDbLine
62
7
6
CONTINUOUS
10
225.6779521376
20
148.7162750409
11
225.6779521376
21
161.9833385899
0
LINE
5
279
100
AcDbEntity
8
0
100
AcDbLine
62
7
6
CONTINUOUS
10
225.7796123732
20
138.9044820846
11
225.7796123732
21
141.4216852312
0
LINE
5
27A
100
AcDbEntity
8
0
100
AcDbLine
62
7
6
CONTINUOUS
10
225.7796123732
20
144.2661839691
11
225.7796123732
21
146.5280683164
0
LINE
5
27B
100
AcDbEntity
8
0
100
AcDbLine
62
7
6
CONTINUOUS
10
225.7892668118
20
119.4592200810
11
225.7892668118
21
121.2464539105
0
LINE
5
27C
100
AcDbEntity
8
0
100
AcDbLine
62
7
6
CONTINUOUS
10
225.8237285087
20
139.7801048205
11
225.8237285087
21
140.5460621760
0
LINE
5
27D
100
AcDbEntity
8
0
100
AcDbLine
62
7
6
CONTINUOUS
10
225.8237285087
20
145.1418066666
11
225.8237285087
21
145.6524449036
0
LINE
5
27E
100
AcDbEntity
8
0
100
AcDbLine
62
7
6
CONTINUOUS
10
226.0263903705
20
139.5247857020
11
226.0263903705
21
140.8013812945
0
LINE
5
27F
100
AcDbEntity
8
0
100
AcDbLine
62
7
6
CONTINUOUS
10
226.0263903705
20
144.8864875481
11
226.0263903705
21
145.9077647374
0
LINE
5
280
100
AcDbEntity
8
0
100
AcDbLine
62
7
6
CONTINUOUS
10
226.1786170359
20
119.4592200810
11
226.1786170359
21
121.2464539105
0
LINE
5
281
100
AcDbEntity
8
0
100
AcDbLine
62
7
6
CONTINUOUS
10
226.3409504782
20
140.8013812945
11
226.3409504782
21
144.6311684296
0
LINE
5
282
100
AcDbEntity
8
0
100
AcDbLine
62
7
6
CONTINUOUS
10
226.4553664804
20
119.2039009625
11
226.4553664804
21
121.5017730290
0
LINE
5
283
100
AcDbEntity
8
0
100
AcDbLine
62
7
6
CONTINUOUS
10
226.6106901928
20
140.8013812945
11
226.6106901928
21
144.6311684296
0
LINE
5
284
100
AcDbEntity
8
0
100
AcDbLine
62
7
6
CONTINUOUS
10
226.9691866218
20
119.2039009625
11
226.9691866218
21
121.5017730290
0
LINE
5
285
100
AcDbEntity
8
0
100
AcDbLine
62
7
6
CONTINUOUS
10
226.9718920631
20
121.5017730290
11
226.9718920631
21
122.5230495030
0
LINE
5
286
100
AcDbEntity
8
0
100
AcDbLine
62
7
6
CONTINUOUS
10
227.1262433198
20
140.8013812945
11
227.1262433198
21
144.6311684296
0
LINE
5
287
100
AcDbEntity
8
0
100
AcDbLine
62
7
6
CONTINUOUS
10
227.5818996768
20
116.3953901226
11
227.5818996768
21
121.5017730290
0
LINE
5
288
100
AcDbEntity
8
0
100
AcDbLine
62
7
6
CONTINUOUS
10
227.5818996768
20
122.5230495030
11
227.5818996768
21
124.5656031663
0
LINE
5
289
100
AcDbEntity
8
0
100
AcDbLine
62
7
6
CONTINUOUS
10
227.5995747145
20
141.8226581262
11
227.5995747145
21
143.3545728372
0
LINE
5
28A
100
AcDbEntity
8
0
100
AcDbLine
62
7
6
CONTINUOUS
10
228.0122852101
20
116.9060285384
11
228.0122852101
21
121.5017730290
0
LINE
5
28B
100
AcDbEntity
8
0
100
AcDbLine
62
7
6
CONTINUOUS
10
228.0122852101
20
122.5230495030
11
228.0122852101
21
124.5656031663
0
LINE
5
28C
100
AcDbEntity
8
0
100
AcDbLine
62
7
6
CONTINUOUS
10
228.1991983062
20
139.7801048205
11
228.1991983062
21
141.8226581262
0
LINE
5
28D
100
AcDbEntity
8
0
100
AcDbLine
62
7
6
CONTINUOUS
10
228.5440248064
20
116.9060285384
11
228.5440248064
21
121.5017730290
0
LINE
5
28E
100
AcDbEntity
8
0
100
AcDbLine
62
7
6
CONTINUOUS
10
228.5440248064
20
122.5230495030
11
228.5440248064
21
124.5656031663
0
LINE
5
28F
100
AcDbEntity
8
0
100
AcDbLine
62
7
6
CONTINUOUS
10
228.6397514738
20
139.5247857020
11
228.6397514738
21
143.3545728372
0
LINE
5
290
100
AcDbEntity
8
0
100
AcDbLine
62
7
6
CONTINUOUS
10
228.8863054679
20
114.3528369958
11
228.8863054679
21
115.3741135592
0
LINE
5
291
100
AcDbEntity
8
0
100
AcDbLine
62
7
6
CONTINUOUS
10
229.0984780454
20
121.5017730290
11
229.0984780454
21
122.5230495030
0
LINE
5
292
100
AcDbEntity
8
0
100
AcDbLine
62
7
6
CONTINUOUS
10
229.1790735340
20
139.5247857020
11
229.1790735340
21
143.3545728372
0
LINE
5
293
100
AcDbEntity
8
0
100
AcDbLine
62
7
6
CONTINUOUS
10
229.4286668324
20
114.3528369958
11
229.4286668324
21
115.3741135592
0
LINE
5
294
100
AcDbEntity
8
0
100
AcDbLine
62
7
6
CONTINUOUS
10
229.6434826193
20
121.5017730290
11
229.6434826193
21
122.5230495030
0
LINE
5
295
100
AcDbEntity
8
0
100
AcDbLine
62
7
6
CONTINUOUS
10
235.1779521376
20
172.9833385899
11
235.1779521376
21
164.9833385899
0
LINE
5
296
100
AcDbEntity
8
0
100
AcDbLine
62
7
6
CONTINUOUS
10
235.1779521376
20
93.9833385899
11
235.1779521376
21
85.9833385899
0
LINE
5
297
100
AcDbEntity
8
0
100
AcDbLine
62
7
6
CONTINUOUS
10
329.1457969797
20
111.4833385899
11
332.2101072954
21
111.4833385899
0
LINE
5
298
100
AcDbEntity
8
0
100
AcDbLine
62
7
6
CONTINUOUS
10
225.1779521376
20
114.3528369958
11
226.1247906476
21
114.3528369958
0
LINE
5
299
100
AcDbEntity
8
0
100
AcDbLine
62
7
6
CONTINUOUS
10
228.8863054679
20
114.3528369958
11
229.4286668324
21
114.3528369958
0
LINE
5
29A
100
AcDbEntity
8
0
100
AcDbLine
62
7
6
CONTINUOUS
10
225.8493137922
20
114.6081561366
11
226.3564826217
21
114.6081561366
0
LINE
5
29B
100
AcDbEntity
8
0
100
AcDbLine
62
7
6
CONTINUOUS
10
226.0776603001
20
115.3741135592
11
226.5873147607
21
115.3741135592
0
LINE
5
29C
100
AcDbEntity
8
0
100
AcDbLine
62
7
6
CONTINUOUS
10
228.8863054679
20
115.3741135592
11
229.4286668324
21
115.3741135592
0
LINE
5
29D
100
AcDbEntity
8
0
100
AcDbLine
62
7
6
CONTINUOUS
10
225.1779521376
20
115.6294327671
11
225.3058083850
21
115.6294327671
0
LINE
5
29E
100
AcDbEntity
8
0
100
AcDbLine
62
7
6
CONTINUOUS
10
228.3846769726
20
115.6294327671
11
228.9208905541
21
115.6294327671
0
LINE
5
29F
100
AcDbEntity
8
0
100
AcDbLine
62
7
6
CONTINUOUS
10
225.4659253519
20
115.8847518856
11
225.8077347789
21
115.8847518856
0
LINE
5
2A0
100
AcDbEntity
8
0
100
AcDbLine
62
7
6
CONTINUOUS
10
226.2311738619
20
116.1400710041
11
226.7425131877
21
116.1400710041
0
LINE
5
2A1
100
AcDbEntity
8
0
100
AcDbLine
62
7
6
CONTINUOUS
10
228.1030145336
20
116.1400710041
11
228.6358372349
21
116.1400710041
0
LINE
5
2A2
100
AcDbEntity
8
0
100
AcDbLine
62
7
6
CONTINUOUS
10
225.3893551713
20
116.3953901226
11
225.8915904674
21
116.3953901226
0
LINE
5
2A3
100
AcDbEntity
8
0
100
AcDbLine
62
7
6
CONTINUOUS
10
228.0122852101
20
116.9060285384
11
228.5440248064
21
116.9060285384
0
LINE
5
2A4
100
AcDbEntity
8
0
100
AcDbLine
62
7
6
CONTINUOUS
10
226.3404671496
20
117.1613476569
11
226.8530128500
21
117.1613476569
0
LINE
5
2A5
100
AcDbEntity
8
0
100
AcDbLine
62
7
6
CONTINUOUS
10
225.3057263345
20
117.9273050124
11
225.8070749730
21
117.9273050124
0
LINE
5
2A6
100
AcDbEntity
8
0
100
AcDbLine
62
7
6
CONTINUOUS
10
226.3972136895
20
117.9273050124
11
226.9103880159
21
117.9273050124
0
LINE
5
2A7
100
AcDbEntity
8
0
100
AcDbLine
62
7
6
CONTINUOUS
10
226.4553664804
20
119.2039009625
11
226.9691866218
21
119.2039009625
0
LINE
5
2A8
100
AcDbEntity
8
0
100
AcDbLine
62
7
6
CONTINUOUS
10
225.2881046028
20
119.4592200810
11
225.7892668118
21
119.4592200810
0
LINE
5
2A9
100
AcDbEntity
8
0
100
AcDbLine
62
7
6
CONTINUOUS
10
240.1779521376
20
173.4833385899
11
240.1779521376
21
202.9833385928
0
LINE
5
2AA
100
AcDbEntity
8
0
100
AcDbLine
62
7
6
CONTINUOUS
10
242.9779521376
20
172.9833385899
11
242.9779521376
21
173.4833385899
0
LINE
5
2AB
100
AcDbEntity
8
0
100
AcDbLine
62
7
6
CONTINUOUS
10
244.6779521376
20
164.9833385899
11
244.6779521376
21
164.4833385899
0
LINE
5
2AC
100
AcDbEntity
8
0
100
AcDbLine
62
7
6
CONTINUOUS
10
244.6779521376
20
94.4833385899
11
244.6779521376
21
93.9833385899
0
LINE
5
2AD
100
AcDbEntity
8
0
100
AcDbLine
62
7
6
CONTINUOUS
10
225.2881046028
20
121.2464539105
11
225.7892668118
21
121.2464539105
0
LINE
5
2AE
100
AcDbEntity
8
0
100
AcDbLine
62
7
6
CONTINUOUS
10
225.1838118702
20
121.2464539105
11
225.2196369144
21
121.2464539105
0
LINE
5
2AF
100
AcDbEntity
8
0
100
AcDbLine
62
7
6
CONTINUOUS
10
226.4553664804
20
121.5017730290
11
226.9691866218
21
121.5017730290
0
LINE
5
2B0
100
AcDbEntity
8
0
100
AcDbLine
62
7
6
CONTINUOUS
10
226.9718920631
20
121.5017730290
11
227.5818996768
21
121.5017730290
0
LINE
5
2B1
100
AcDbEntity
8
0
100
AcDbLine
62
7
6
CONTINUOUS
10
228.0122852101
20
121.5017730290
11
229.6434826193
21
121.5017730290
0
LINE
5
2B2
100
AcDbEntity
8
0
100
AcDbLine
62
7
6
CONTINUOUS
10
225.1786031824
20
122.0124112660
11
225.2239214438
21
122.0124112660
0
LINE
5
2B3
100
AcDbEntity
8
0
100
AcDbLine
62
7
6
CONTINUOUS
10
226.9718920631
20
122.5230495030
11
227.5818996768
21
122.5230495030
0
LINE
5
2B4
100
AcDbEntity
8
0
100
AcDbLine
62
7
6
CONTINUOUS
10
228.0122852101
20
122.5230495030
11
229.6434826193
21
122.5230495030
0
LINE
5
2B5
100
AcDbEntity
8
0
100
AcDbLine
62
7
6
CONTINUOUS
10
225.3057263345
20
122.7783686215
11
225.8070749730
21
122.7783686215
0
LINE
5
2B6
100
AcDbEntity
8
0
100
AcDbLine
62
7
6
CONTINUOUS
10
226.3972136895
20
122.7783686215
11
226.9103880159
21
122.7783686215
0
LINE
5
2B7
100
AcDbEntity
8
0
100
AcDbLine
62
7
6
CONTINUOUS
10
225.1779521376
20
123.0336877400
11
225.2347077120
21
123.0336877400
0
LINE
5
2B8
100
AcDbEntity
8
0
100
AcDbLine
62
7
6
CONTINUOUS
10
225.1779521376
20
123.5443266923
11
225.2431005034
21
123.5443266923
0
LINE
5
2B9
100
AcDbEntity
8
0
100
AcDbLine
62
7
6
CONTINUOUS
10
226.3404671496
20
123.5443266923
11
226.8530128500
21
123.5443266923
0
LINE
5
2BA
100
AcDbEntity
8
0
100
AcDbLine
62
7
6
CONTINUOUS
10
225.3893551713
20
124.3102840478
11
225.8915904674
21
124.3102840478
0
LINE
5
2BB
100
AcDbEntity
8
0
100
AcDbLine
62
7
6
CONTINUOUS
10
225.1786031824
20
124.5656031663
11
225.2717938695
21
124.5656031663
0
LINE
5
2BC
100
AcDbEntity
8
0
100
AcDbLine
62
7
6
CONTINUOUS
10
226.2311738619
20
124.5656031663
11
226.7425131877
21
124.5656031663
0
LINE
5
2BD
100
AcDbEntity
8
0
100
AcDbLine
62
7
6
CONTINUOUS
10
227.5818996768
20
124.5656031663
11
228.5440248064
21
124.5656031663
0
LINE
5
2BE
100
AcDbEntity
8
0
100
AcDbLine
62
7
6
CONTINUOUS
10
225.4659253519
20
124.8209222848
11
225.8077347789
21
124.8209222848
0
LINE
5
2BF
100
AcDbEntity
8
0
100
AcDbLine
62
7
6
CONTINUOUS
10
226.0776603001
20
125.3315605218
11
226.5873147607
21
125.3315605218
0
LINE
5
2C0
100
AcDbEntity
8
0
100
AcDbLine
62
7
6
CONTINUOUS
10
225.1942309458
20
125.5868796403
11
225.3593678342
21
125.5868796403
0
LINE
5
2C1
100
AcDbEntity
8
0
100
AcDbLine
62
7
6
CONTINUOUS
10
225.2307155123
20
126.0975178773
11
225.4390790385
21
126.0975178773
0
LINE
5
2C2
100
AcDbEntity
8
0
100
AcDbLine
62
7
6
CONTINUOUS
10
225.8493137922
20
126.0975178773
11
226.3564826217
21
126.0975178773
0
LINE
5
2C3
100
AcDbEntity
8
0
100
AcDbLine
62
7
6
CONTINUOUS
10
225.3246607147
20
126.3528369958
11
226.1247906476
21
126.3528369958
0
LINE
5
2C4
100
AcDbEntity
8
DEFAULT_1
100
AcDbLine
62
2
6
CENTER
10
330.6779521376
20
129.4833385899
11
303.5793547415
21
129.4833385899
0
LINE
5
2C5
100
AcDbEntity
8
DEFAULT_1
100
AcDbLine
62
2
6
CENTER
10
330.6779521376
20
129.4833385899
11
356.8419123810
21
129.4833385899
0
LINE
5
2C6
100
AcDbEntity
8
0
100
AcDbLine
62
7
6
CONTINUOUS
10
249.2700233470
20
202.9833385899
11
249.2700233470
21
203.1833385899
0
LINE
5
2C7
100
AcDbEntity
8
0
100
AcDbLine
62
7
6
CONTINUOUS
10
253.6779521376
20
17.9833385899
11
253.6779521376
21
85.9833385899
0
LINE
5
2C8
100
AcDbEntity
8
0
100
AcDbLine
62
7
6
CONTINUOUS
10
255.3853332432
20
202.9833385899
11
255.3853332432
21
203.1833385899
0
LINE
5
2C9
100
AcDbEntity
8
0
100
AcDbLine
62
7
6
CONTINUOUS
10
255.4313839510
20
202.9833385899
11
255.4313839510
21
203.1833385899
0
LINE
5
2CA
100
AcDbEntity
8
0
100
AcDbLine
62
7
6
CONTINUOUS
10
255.7330157168
20
202.9833385899
11
255.7330157168
21
203.1833385899
0
LINE
5
2CB
100
AcDbEntity
8
0
100
AcDbLine
62
2
6
CONTINUOUS
10
256.7449521376
20
85.9833385899
11
256.7449521376
21
12.9833385899
0
LINE
5
2CC
100
AcDbEntity
8
0
100
AcDbLine
62
7
6
CONTINUOUS
10
257.9618627604
20
202.9833385899
11
257.9618627604
21
203.1833385899
0
LINE
5
2CD
100
AcDbEntity
8
0
100
AcDbLine
62
7
6
CONTINUOUS
10
225.1800709651
20
136.7162750409
11
226.1275057044
21
136.7162750409
0
LINE
5
2CE
100
AcDbEntity
8
0
100
AcDbLine
62
7
6
CONTINUOUS
10
227.1261974886
20
136.7162750409
11
228.1902551989
21
136.7162750409
0
LINE
5
2CF
100
AcDbEntity
8
0
100
AcDbLine
62
7
6
CONTINUOUS
10
225.7624345739
20
136.9715941818
11
226.2686640825
21
136.9715941818
0
LINE
5
2D0
100
AcDbEntity
8
0
100
AcDbLine
62
7
6
CONTINUOUS
10
227.9912756693
20
136.9715941818
11
228.5227650900
21
136.9715941818
0
LINE
5
2D1
100
AcDbEntity
8
0
100
AcDbLine
62
7
6
CONTINUOUS
10
228.2703212038
20
137.4822324858
11
228.8051528560
21
137.4822324858
0
LINE
5
2D2
100
AcDbEntity
8
0
100
AcDbLine
62
7
6
CONTINUOUS
10
225.8881438901
20
137.7375516043
11
226.3957336771
21
137.7375516043
0
LINE
5
2D3
100
AcDbEntity
8
0
100
AcDbLine
62
7
6
CONTINUOUS
10
225.1800709651
20
138.2481899307
11
225.2183195472
21
138.2481899307
0
LINE
5
2D4
100
AcDbEntity
8
0
100
AcDbLine
62
7
6
CONTINUOUS
10
225.2785511766
20
138.2481899307
11
225.6491636596
21
138.2481899307
0
LINE
5
2D5
100
AcDbEntity
8
0
100
AcDbLine
62
7
6
CONTINUOUS
10
227.1261974886
20
138.2481899307
11
227.6626483833
21
138.2481899307
0
LINE
5
2D6
100
AcDbEntity
8
0
100
AcDbLine
62
7
6
CONTINUOUS
10
226.9099765398
20
138.5035090492
11
227.4289022467
21
138.5035090492
0
LINE
5
2D7
100
AcDbEntity
8
0
100
AcDbLine
62
7
6
CONTINUOUS
10
228.5640078574
20
138.5035090492
11
229.1024030856
21
138.5035090492
0
LINE
5
2D8
100
AcDbEntity
8
0
100
AcDbLine
62
7
6
CONTINUOUS
10
225.9906476048
20
138.7588281677
11
226.4497853835
21
138.7588281677
0
LINE
5
2D9
100
AcDbEntity
8
0
100
AcDbLine
62
7
6
CONTINUOUS
10
226.7566056422
20
139.0141474650
11
227.2737975278
21
139.0141474650
0
LINE
5
2DA
100
AcDbEntity
8
0
100
AcDbLine
62
7
6
CONTINUOUS
10
226.0263903705
20
139.5247857020
11
226.3838774594
21
139.5247857020
0
LINE
5
2DB
100
AcDbEntity
8
0
100
AcDbLine
62
7
6
CONTINUOUS
10
228.6397514738
20
139.5247857020
11
229.1790735340
21
139.5247857020
0
LINE
5
2DC
100
AcDbEntity
8
0
100
AcDbLine
62
7
6
CONTINUOUS
10
226.6585045132
20
139.7801048205
11
227.1745934854
21
139.7801048205
0
LINE
5
2DD
100
AcDbEntity
8
0
100
AcDbLine
62
7
6
CONTINUOUS
10
226.0263903705
20
140.8013812945
11
226.3409504782
21
140.8013812945
0
LINE
5
2DE
100
AcDbEntity
8
0
100
AcDbLine
62
7
6
CONTINUOUS
10
226.6106901928
20
140.8013812945
11
227.1262433198
21
140.8013812945
0
LINE
5
2DF
100
AcDbEntity
8
0
100
AcDbLine
62
7
6
CONTINUOUS
10
225.9906476048
20
141.5673390077
11
226.3409504782
21
141.5673390077
0
LINE
5
2E0
100
AcDbEntity
8
0
100
AcDbLine
62
7
6
CONTINUOUS
10
227.5995747145
20
141.8226581262
11
228.1991983062
21
141.8226581262
0
LINE
5
2E1
100
AcDbEntity
8
0
100
AcDbLine
62
7
6
CONTINUOUS
10
225.2785511766
20
142.0779772447
11
225.6491636596
21
142.0779772447
0
LINE
5
2E2
100
AcDbEntity
8
0
100
AcDbLine
62
7
6
CONTINUOUS
10
225.8881438901
20
142.5886154817
11
226.3409504782
21
142.5886154817
0
LINE
5
2E3
100
AcDbEntity
8
0
100
AcDbLine
62
7
6
CONTINUOUS
10
225.8237285087
20
142.8439346002
11
226.3306203513
21
142.8439346002
0
LINE
5
2E4
100
AcDbEntity
8
0
100
AcDbLine
62
7
6
CONTINUOUS
10
225.8881438901
20
143.0992537187
11
226.3409504782
21
143.0992537187
0
LINE
5
2E5
100
AcDbEntity
8
0
100
AcDbLine
62
7
6
CONTINUOUS
10
227.5995747145
20
143.3545728372
11
229.1790735340
21
143.3545728372
0
LINE
5
2E6
100
AcDbEntity
8
0
100
AcDbLine
62
7
6
CONTINUOUS
10
225.2785511766
20
143.6098919557
11
225.6491636596
21
143.6098919557
0
LINE
5
2E7
100
AcDbEntity
8
0
100
AcDbLine
62
7
6
CONTINUOUS
10
261.7227414834
20
202.9833385899
11
261.7227414834
21
203.1833385899
0
LINE
5
2E8
100
AcDbEntity
8
0
100
AcDbLine
62
7
6
CONTINUOUS
10
262.4789299077
20
202.9833385899
11
262.4789299077
21
203.1833385899
0
LINE
5
2E9
100
AcDbEntity
8
0
100
AcDbLine
62
7
6
CONTINUOUS
10
265.5036836049
20
202.9833385899
11
265.5036836049
21
203.1833385899
0
LINE
5
2EA
100
AcDbEntity
8
0
100
AcDbLine
62
7
6
CONTINUOUS
10
266.2598723898
20
202.9833385899
11
266.2598723898
21
203.1833385899
0
LINE
5
2EB
100
AcDbEntity
8
0
100
AcDbLine
62
7
6
CONTINUOUS
10
269.4599297722
20
202.9833385899
11
269.4599297722
21
203.1833385899
0
LINE
5
2EC
100
AcDbEntity
8
0
100
AcDbLine
62
7
6
CONTINUOUS
10
269.8500363453
20
202.9833385899
11
269.8500363453
21
203.1833385899
0
LINE
5
2ED
100
AcDbEntity
8
0
100
AcDbLine
62
7
6
CONTINUOUS
10
270.0108840633
20
202.9833385899
11
270.0108840633
21
203.1833385899
0
LINE
5
2EE
100
AcDbEntity
8
0
100
AcDbLine
62
7
6
CONTINUOUS
10
271.2371372316
20
202.9833385899
11
271.2371372316
21
203.1833385899
0
LINE
5
2EF
100
AcDbEntity
8
0
100
AcDbLine
62
7
6
CONTINUOUS
10
271.2840132681
20
202.9833385899
11
271.2840132681
21
203.1833385899
0
LINE
5
2F0
100
AcDbEntity
8
0
100
AcDbLine
62
7
6
CONTINUOUS
10
271.5840227047
20
202.9833385899
11
271.5840227047
21
203.1833385899
0
LINE
5
2F1
100
AcDbEntity
8
0
100
AcDbLine
62
7
6
CONTINUOUS
10
272.0584129135
20
202.9833385899
11
272.0584129135
21
203.1833385899
0
LINE
5
2F2
100
AcDbEntity
8
0
100
AcDbLine
62
7
6
CONTINUOUS
10
272.7390604860
20
202.9833385899
11
272.7390604860
21
203.1833385899
0
LINE
5
2F3
100
AcDbEntity
8
0
100
AcDbLine
62
7
6
CONTINUOUS
10
225.9906476048
20
144.1205301926
11
226.3409504782
21
144.1205301926
0
LINE
5
2F4
100
AcDbEntity
8
0
100
AcDbLine
62
7
6
CONTINUOUS
10
226.6106901928
20
144.6311684296
11
227.1262433198
21
144.6311684296
0
LINE
5
2F5
100
AcDbEntity
8
0
100
AcDbLine
62
7
6
CONTINUOUS
10
226.0263903705
20
144.8864875481
11
226.3494753320
21
144.8864875481
0
LINE
5
2F6
100
AcDbEntity
8
0
100
AcDbLine
62
7
6
CONTINUOUS
10
226.6585045132
20
145.6524449036
11
227.1745934854
21
145.6524449036
0
LINE
5
2F7
100
AcDbEntity
8
0
100
AcDbLine
62
7
6
CONTINUOUS
10
228.1991983062
20
145.6524449036
11
229.1790735340
21
145.6524449036
0
LINE
5
2F8
100
AcDbEntity
8
0
100
AcDbLine
62
7
6
CONTINUOUS
10
226.0263903705
20
145.9077647374
11
226.3838774594
21
145.9077647374
0
LINE
5
2F9
100
AcDbEntity
8
0
100
AcDbLine
62
7
6
CONTINUOUS
10
226.7566056422
20
146.4184029744
11
227.2737975278
21
146.4184029744
0
LINE
5
2FA
100
AcDbEntity
8
0
100
AcDbLine
62
7
6
CONTINUOUS
10
225.9906476048
20
146.6737220929
11
226.4497853796
21
146.6737220929
0
LINE
5
2FB
100
AcDbEntity
8
0
100
AcDbLine
62
7
6
CONTINUOUS
10
226.9099765398
20
146.9290412114
11
227.4289022467
21
146.9290412114
0
LINE
5
2FC
100
AcDbEntity
8
0
100
AcDbLine
62
7
6
CONTINUOUS
10
228.5640078574
20
146.9290412114
11
229.1024030856
21
146.9290412114
0
LINE
5
2FD
100
AcDbEntity
8
0
100
AcDbLine
62
7
6
CONTINUOUS
10
225.2785511766
20
147.1843603299
11
225.6491636596
21
147.1843603299
0
LINE
5
2FE
100
AcDbEntity
8
0
100
AcDbLine
62
7
6
CONTINUOUS
10
227.1261974886
20
147.1843603299
11
227.6626483833
21
147.1843603299
0
LINE
5
2FF
100
AcDbEntity
8
0
100
AcDbLine
62
7
6
CONTINUOUS
10
225.8881438901
20
147.6949985669
11
226.3957336771
21
147.6949985669
0
LINE
5
300
100
AcDbEntity
8
0
100
AcDbLine
62
7
6
CONTINUOUS
10
228.2703212038
20
147.9503176854
11
228.8051528560
21
147.9503176854
0
LINE
5
301
100
AcDbEntity
8
0
100
AcDbLine
62
7
6
CONTINUOUS
10
225.7624345739
20
148.4609559224
11
226.2686640825
21
148.4609559224
0
LINE
5
302
100
AcDbEntity
8
0
100
AcDbLine
62
7
6
CONTINUOUS
10
227.9912756693
20
148.4609559224
11
228.5227650900
21
148.4609559224
0
LINE
5
303
100
AcDbEntity
8
0
100
AcDbLine
62
7
6
CONTINUOUS
10
225.2183195472
20
148.7162750409
11
226.1275057044
21
148.7162750409
0
LINE
5
304
100
AcDbEntity
8
0
100
AcDbLine
62
7
6
CONTINUOUS
10
227.1261974886
20
148.7162750409
11
228.1902551989
21
148.7162750409
0
LINE
5
305
100
AcDbEntity
8
0
100
AcDbLine
62
7
6
CONTINUOUS
10
276.1591738642
20
202.9833385899
11
276.1591738642
21
203.1833385899
0
LINE
5
306
100
AcDbEntity
8
0
100
AcDbLine
62
7
6
CONTINUOUS
10
277.6573546863
20
202.9833385899
11
277.6573546863
21
203.1833385899
0
LINE
5
307
100
AcDbEntity
8
DEFAULT_1
100
AcDbLine
62
2
6
CENTER
10
277.6779521376
20
173.4833385899
11
277.6779521376
21
9.9833385899
0
LINE
5
308
100
AcDbEntity
8
0
100
AcDbLine
62
7
6
CONTINUOUS
10
277.6779521376
20
173.4833385899
11
277.6779521376
21
199.6339736845
0
LINE
5
309
100
AcDbEntity
8
0
100
AcDbLine
62
7
6
CONTINUOUS
10
279.1179885470
20
202.9833385899
11
279.1179885470
21
203.1833385899
0
LINE
5
30A
100
AcDbEntity
8
0
100
AcDbLine
62
7
6
CONTINUOUS
10
279.1437619005
20
202.9833385899
11
279.1437619005
21
203.1833385899
0
LINE
5
30B
100
AcDbEntity
8
0
100
AcDbLine
62
7
6
CONTINUOUS
10
279.2726048271
20
202.9833385899
11
279.2726048271
21
203.1833385899
0
LINE
5
30C
100
AcDbEntity
8
0
100
AcDbLine
62
7
6
CONTINUOUS
10
279.5818395662
20
202.9833385899
11
279.5818395662
21
203.1833385899
0
LINE
5
30D
100
AcDbEntity
8
0
100
AcDbLine
62
7
6
CONTINUOUS
10
280.1745421959
20
202.9833385899
11
280.1745421959
21
203.1833385899
0
LINE
5
30E
100
AcDbEntity
8
0
100
AcDbLine
62
7
6
CONTINUOUS
10
280.9862847547
20
202.9833385899
11
280.9862847547
21
203.1833385899
0
LINE
5
30F
100
AcDbEntity
8
0
100
AcDbLine
62
7
6
CONTINUOUS
10
281.8753365429
20
202.9833385899
11
281.8753365429
21
203.1833385899
0
LINE
5
310
100
AcDbEntity
8
0
100
AcDbLine
62
7
6
CONTINUOUS
10
282.6999668611
20
202.9833385899
11
282.6999668611
21
203.1833385899
0
LINE
5
311
100
AcDbEntity
8
0
100
AcDbLine
62
7
6
CONTINUOUS
10
283.2411292955
20
202.9833385899
11
283.2411292955
21
203.1833385899
0
LINE
5
312
100
AcDbEntity
8
0
100
AcDbLine
62
7
6
CONTINUOUS
10
283.6792091672
20
202.9833385899
11
283.6792091672
21
203.1833385899
0
LINE
5
313
100
AcDbEntity
8
0
100
AcDbLine
62
7
6
CONTINUOUS
10
283.9369101889
20
202.9833385899
11
283.9369101889
21
203.1833385899
0
LINE
5
314
100
AcDbEntity
8
0
100
AcDbLine
62
7
6
CONTINUOUS
10
284.2719139994
20
202.9833385899
11
284.2719139994
21
203.1833385899
0
LINE
5
315
100
AcDbEntity
8
0
100
AcDbLine
62
7
6
CONTINUOUS
10
284.5769745506
20
202.9833385899
11
284.5769745506
21
203.1833385899
0
LINE
5
316
100
AcDbEntity
8
0
100
AcDbLine
62
7
6
CONTINUOUS
10
316.3252981761
20
164.4833385899
11
228.1779521409
21
164.4833385899
0
LINE
5
317
100
AcDbEntity
8
0
100
AcDbLine
62
7
6
CONTINUOUS
10
235.1779521376
20
164.9833385899
11
316.3252981761
21
164.9833385899
0
LINE
5
318
100
AcDbEntity
8
0
100
AcDbLine
62
7
6
CONTINUOUS
10
285.2383969348
20
202.9833385899
11
285.2383969348
21
203.1833385899
0
LINE
5
319
100
AcDbEntity
8
0
100
AcDbLine
62
7
6
CONTINUOUS
10
285.6607586109
20
202.9833385899
11
285.6607586109
21
203.1833385899
0
LINE
5
31A
100
AcDbEntity
8
0
100
AcDbLine
62
7
6
CONTINUOUS
10
287.5731818582
20
202.9833385899
11
287.5731818582
21
203.1833385899
0
LINE
5
31B
100
AcDbEntity
8
0
100
AcDbLine
62
7
6
CONTINUOUS
10
287.7758284646
20
202.9833385899
11
287.7758284646
21
203.1833385899
0
LINE
5
31C
100
AcDbEntity
8
0
100
AcDbLine
62
7
6
CONTINUOUS
10
288.2304895389
20
202.9833385899
11
288.2304895389
21
203.1833385899
0
LINE
5
31D
100
AcDbEntity
8
0
100
AcDbLine
62
7
6
CONTINUOUS
10
288.6950326915
20
202.9833385899
11
288.6950326915
21
203.1833385899
0
LINE
5
31E
100
AcDbEntity
8
0
100
AcDbLine
62
7
6
CONTINUOUS
10
289.4017135500
20
202.9833385899
11
289.4017135500
21
203.1833385899
0
LINE
5
31F
100
AcDbEntity
8
0
100
AcDbLine
62
7
6
CONTINUOUS
10
290.3604195090
20
202.9833385899
11
290.3604195090
21
203.1833385899
0
LINE
5
320
100
AcDbEntity
8
0
100
AcDbLine
62
7
6
CONTINUOUS
10
291.2128637838
20
202.9833385899
11
291.2128637838
21
203.1833385899
0
LINE
5
321
100
AcDbEntity
8
0
100
AcDbLine
62
7
6
CONTINUOUS
10
292.0751848538
20
202.9833385899
11
292.0751848538
21
203.1833385899
0
LINE
5
322
100
AcDbEntity
8
0
100
AcDbLine
62
7
6
CONTINUOUS
10
293.0733873279
20
202.9833385899
11
293.0733873279
21
203.1833385899
0
LINE
5
323
100
AcDbEntity
8
0
100
AcDbLine
62
7
6
CONTINUOUS
10
293.9554564954
20
202.9833385899
11
293.9554564954
21
203.1833385899
0
LINE
5
324
100
AcDbEntity
8
0
100
AcDbLine
62
7
6
CONTINUOUS
10
294.7213925330
20
202.9833385899
11
294.7213925330
21
203.1833385899
0
LINE
5
325
100
AcDbEntity
8
0
100
AcDbLine
62
7
6
CONTINUOUS
10
295.1191707151
20
202.9833385899
11
295.1191707151
21
203.1833385899
0
LINE
5
326
100
AcDbEntity
8
0
100
AcDbLine
62
7
6
CONTINUOUS
10
295.2748055330
20
202.9833385899
11
295.2748055330
21
203.1833385899
0
LINE
5
327
100
AcDbEntity
8
0
100
AcDbLine
62
7
6
CONTINUOUS
10
235.1779521376
20
172.9833385899
11
316.3252981761
21
172.9833385899
0
LINE
5
328
100
AcDbEntity
8
0
100
AcDbLine
62
7
6
CONTINUOUS
10
240.1779521376
20
173.4833385899
11
315.1779521376
21
173.4833385899
0
LINE
5
329
100
AcDbEntity
8
0
100
AcDbLine
62
2
6
CONTINUOUS
10
298.6109521376
20
85.9833385899
11
298.6109521376
21
12.9833385899
0
LINE
5
32A
100
AcDbEntity
8
0
100
AcDbLine
62
7
6
CONTINUOUS
10
301.6779521376
20
17.9833385899
11
301.6779521376
21
85.9833385899
0
LINE
5
32B
100
AcDbEntity
8
0
100
AcDbLine
62
7
6
CONTINUOUS
10
312.7087162256
20
127.0208533065
11
312.7080833889
21
127.0310099635
0
LINE
5
32C
100
AcDbEntity
8
0
100
AcDbLine
62
7
6
CONTINUOUS
10
310.6779521376
20
164.9833385899
11
310.6779521376
21
164.4833385899
0
LINE
5
32D
100
AcDbEntity
8
0
100
AcDbLine
62
7
6
CONTINUOUS
10
310.6779521376
20
94.4833385899
11
310.6779521376
21
93.9833385899
0
LINE
5
32E
100
AcDbEntity
8
0
100
AcDbLine
62
7
6
CONTINUOUS
10
312.3779521376
20
172.9833385899
11
312.3779521376
21
173.4833385899
0
LINE
5
32F
100
AcDbEntity
8
0
100
AcDbLine
62
7
6
CONTINUOUS
10
312.6779521376
20
326.5218241207
11
312.6779521376
21
325.4833385899
0
LINE
5
330
100
AcDbEntity
8
0
100
AcDbLine
62
7
6
CONTINUOUS
10
312.6779521376
20
127.9962347048
11
312.6779521376
21
134.8612714220
0
LINE
5
331
100
AcDbEntity
8
0
100
AcDbLine
62
7
6
CONTINUOUS
10
315.1779521376
20
173.4833385899
11
315.1779521376
21
202.9833385928
0
LINE
5
332
100
AcDbEntity
8
0
100
AcDbLine
62
7
6
CONTINUOUS
10
316.3252981761
20
159.4833385899
11
316.3252981761
21
188.7624390728
0
LINE
5
333
100
AcDbEntity
8
0
100
AcDbLine
62
7
6
CONTINUOUS
10
316.6779521376
20
286.4825407459
11
316.6779521376
21
257.6787009789
0
LINE
5
334
100
AcDbEntity
8
0
100
AcDbLine
62
7
6
CONTINUOUS
10
317.1779521376
20
197.6791165783
11
317.1779521376
21
209.6791165783
0
LINE
5
335
100
AcDbEntity
8
0
100
AcDbLine
62
7
6
CONTINUOUS
10
317.1779521376
20
215.7083157345
11
317.1779521376
21
227.7083157345
0
LINE
5
336
100
AcDbEntity
8
0
100
AcDbLine
62
7
6
CONTINUOUS
10
317.1779521376
20
233.4336519836
11
317.1779521376
21
245.4336519836
0
LINE
5
337
100
AcDbEntity
8
0
100
AcDbLine
62
7
6
CONTINUOUS
10
317.6779521376
20
192.1277059183
11
317.6779521376
21
254.7189712615
0
LINE
5
338
100
AcDbEntity
8
0
100
AcDbLine
62
7
6
CONTINUOUS
10
320.1779521376
20
93.9833385899
11
320.1779521376
21
85.9833385899
0
LINE
5
339
100
AcDbEntity
8
0
100
AcDbLine
62
7
6
CONTINUOUS
10
317.6779521376
20
197.6791165783
11
317.1779521376
21
197.6791165783
0
LINE
5
33A
100
AcDbEntity
8
0
100
AcDbLine
62
7
6
CONTINUOUS
10
317.6779521376
20
197.9344357191
11
317.1779521376
21
197.9344357191
0
LINE
5
33B
100
AcDbEntity
8
0
100
AcDbLine
62
7
6
CONTINUOUS
10
317.6779521376
20
198.4450740232
11
317.1779521376
21
198.4450740232
0
LINE
5
33C
100
AcDbEntity
8
0
100
AcDbLine
62
7
6
CONTINUOUS
10
317.6779521376
20
199.4663505866
11
317.1779521376
21
199.4663505866
0
LINE
5
33D
100
AcDbEntity
8
0
100
AcDbLine
62
7
6
CONTINUOUS
10
317.6779521376
20
200.4876272394
11
317.1779521376
21
200.4876272394
0
LINE
5
33E
100
AcDbEntity
8
0
100
AcDbLine
62
7
6
CONTINUOUS
10
317.6779521376
20
201.7642228319
11
317.1779521376
21
201.7642228319
0
LINE
5
33F
100
AcDbEntity
8
0
100
AcDbLine
62
7
6
CONTINUOUS
10
240.1779521456
20
202.9833385899
11
315.1779521295
21
202.9833385899
0
LINE
5
340
100
AcDbEntity
8
0
100
AcDbLine
62
7
6
CONTINUOUS
10
249.2700233470
20
203.1833385899
11
270.0108840633
21
203.1833385899
0
LINE
5
341
100
AcDbEntity
8
0
100
AcDbLine
62
7
6
CONTINUOUS
10
271.2371372316
20
203.1833385899
11
277.6573546863
21
203.1833385899
0
LINE
5
342
100
AcDbEntity
8
0
100
AcDbLine
62
7
6
CONTINUOUS
10
279.1179885470
20
203.1833385899
11
285.6607586109
21
203.1833385899
0
LINE
5
343
100
AcDbEntity
8
0
100
AcDbLine
62
7
6
CONTINUOUS
10
287.5731818582
20
203.1833385899
11
295.2748055330
21
203.1833385899
0
LINE
5
344
100
AcDbEntity
8
0
100
AcDbLine
62
7
6
CONTINUOUS
10
312.7765580209
20
323.6018262511
11
316.6779521376
21
286.4825407459
0
LINE
5
345
100
AcDbEntity
8
DEFAULT_1
100
AcDbLine
62
2
6
CENTER
10
330.6779521376
20
129.4833385899
11
330.6779521376
21
105.0970260555
0
LINE
5
346
100
AcDbEntity
8
DEFAULT_1
100
AcDbLine
62
2
6
CENTER
10
330.6779521376
20
129.4833385899
11
330.6779521376
21
153.9210372250
0
LINE
5
347
100
AcDbEntity
8
0
100
AcDbLine
62
7
6
CONTINUOUS
10
317.6779521376
20
205.5940099670
11
317.1779521376
21
205.5940099670
0
LINE
5
348
100
AcDbEntity
8
0
100
AcDbLine
62
7
6
CONTINUOUS
10
317.6779521376
20
206.8706062748
11
317.1779521376
21
206.8706062748
0
LINE
5
349
100
AcDbEntity
8
0
100
AcDbLine
62
7
6
CONTINUOUS
10
317.6779521376
20
207.8918827488
11
317.1779521376
21
207.8918827488
0
LINE
5
34A
100
AcDbEntity
8
0
100
AcDbLine
62
7
6
CONTINUOUS
10
317.6779521376
20
208.9131592228
11
317.1779521376
21
208.9131592228
0
LINE
5
34B
100
AcDbEntity
8
0
100
AcDbLine
62
7
6
CONTINUOUS
10
317.6779521376
20
209.4237974598
11
317.1779521376
21
209.4237974598
0
LINE
5
34C
100
AcDbEntity
8
0
100
AcDbLine
62
7
6
CONTINUOUS
10
317.6779521376
20
209.6791165783
11
317.1779521376
21
209.6791165783
0
LINE
5
34D
100
AcDbEntity
8
0
100
AcDbLine
62
7
6
CONTINUOUS
10
317.6779521376
20
215.7083157345
11
317.1779521376
21
215.7083157345
0
LINE
5
34E
100
AcDbEntity
8
0
100
AcDbLine
62
7
6
CONTINUOUS
10
343.6779521376
20
192.1277059183
11
343.6779521376
21
254.7189712615
0
LINE
5
34F
100
AcDbEntity
8
0
100
AcDbLine
62
7
6
CONTINUOUS
10
344.6779521376
20
286.4825407459
11
344.6779521376
21
257.6787009789
0
LINE
5
350
100
AcDbEntity
8
0
100
AcDbLine
62
7
6
CONTINUOUS
10
348.5793462542
20
323.6018262511
11
344.6779521376
21
286.4825407459
0
LINE
5
351
100
AcDbEntity
8
0
100
AcDbLine
62
7
6
CONTINUOUS
10
317.6779521376
20
215.9636348753
11
317.1779521376
21
215.9636348753
0
LINE
5
352
100
AcDbEntity
8
0
100
AcDbLine
62
7
6
CONTINUOUS
10
317.6779521376
20
216.4742731794
11
317.1779521376
21
216.4742731794
0
LINE
5
353
100
AcDbEntity
8
0
100
AcDbLine
62
7
6
CONTINUOUS
10
317.6779521376
20
217.4955497428
11
317.1779521376
21
217.4955497428
0
LINE
5
354
100
AcDbEntity
8
0
100
AcDbLine
62
7
6
CONTINUOUS
10
317.6779521376
20
218.5168263956
11
317.1779521376
21
218.5168263956
0
LINE
5
355
100
AcDbEntity
8
0
100
AcDbLine
62
7
6
CONTINUOUS
10
317.6779521376
20
219.7934219881
11
317.1779521376
21
219.7934219881
0
LINE
5
356
100
AcDbEntity
8
0
100
AcDbLine
62
7
6
CONTINUOUS
10
317.6779521376
20
227.7083157345
11
317.1779521376
21
227.7083157345
0
LINE
5
357
100
AcDbEntity
8
0
100
AcDbLine
62
7
6
CONTINUOUS
10
345.0306060990
20
188.7624390728
11
345.0306060990
21
159.4833385899
0
LINE
5
358
100
AcDbEntity
8
0
100
AcDbLine
62
7
6
CONTINUOUS
10
348.6779521376
20
326.5218213171
11
348.6779521376
21
325.4833385899
0
LINE
5
359
100
AcDbEntity
8
0
100
AcDbLine
62
7
6
CONTINUOUS
10
348.6779521376
20
127.9962347048
11
348.6779521376
21
134.8612714220
0
LINE
5
35A
100
AcDbEntity
8
0
100
AcDbLine
62
7
6
CONTINUOUS
10
348.6471880495
20
127.0208533065
11
348.6478208862
21
127.0310099635
0
LINE
5
35B
100
AcDbEntity
8
0
100
AcDbLine
62
7
6
CONTINUOUS
10
317.6779521376
20
233.4336519836
11
317.1779521376
21
233.4336519836
0
LINE
5
35C
100
AcDbEntity
8
0
100
AcDbLine
62
7
6
CONTINUOUS
10
317.6779521376
20
239.3059924243
11
317.1779521376
21
239.3059924243
0
LINE
5
35D
100
AcDbEntity
8
0
100
AcDbLine
62
7
6
CONTINUOUS
10
317.6779521376
20
239.8166306613
11
317.1779521376
21
239.8166306613
0
LINE
5
35E
100
AcDbEntity
8
0
100
AcDbLine
62
7
6
CONTINUOUS
10
317.6779521376
20
240.8379071353
11
317.1779521376
21
240.8379071353
0
LINE
5
35F
100
AcDbEntity
8
0
100
AcDbLine
62
7
6
CONTINUOUS
10
317.6779521376
20
241.6038644908
11
317.1779521376
21
241.6038644908
0
LINE
5
360
100
AcDbEntity
8
0
100
AcDbLine
62
7
6
CONTINUOUS
10
317.6779521376
20
242.6251416801
11
317.1779521376
21
242.6251416801
0
LINE
5
361
100
AcDbEntity
8
0
100
AcDbLine
62
7
6
CONTINUOUS
10
317.6779521376
20
243.3910990356
11
317.1779521376
21
243.3910990356
0
LINE
5
362
100
AcDbEntity
8
0
100
AcDbLine
62
7
6
CONTINUOUS
10
317.6779521376
20
244.4123755096
11
317.1779521376
21
244.4123755096
0
LINE
5
363
100
AcDbEntity
8
0
100
AcDbLine
62
7
6
CONTINUOUS
10
317.6779521376
20
245.1783328651
11
317.1779521376
21
245.1783328651
0
LINE
5
364
100
AcDbEntity
8
0
100
AcDbLine
62
7
6
CONTINUOUS
10
317.6779521376
20
245.4336519836
11
317.1779521376
21
245.4336519836
0
LINE
5
365
100
AcDbEntity
8
0
100
AcDbLine
62
7
6
CONTINUOUS
10
296.6779521376
20
12.9833385899
11
301.6779521376
21
17.9833385899
0
LINE
5
366
100
AcDbEntity
8
0
100
AcDbLine
62
7
6
CONTINUOUS
10
331.6787156713
20
343.4833385899
11
329.6771886038
21
343.4833385899
0
LINE
5
367
100
AcDbEntity
8
0
100
AcDbLine
62
7
6
CONTINUOUS
10
37.2142302163
20
-126.0346190013
11
36.5396256808
21
-124.8661696709
0
LINE
5
368
100
AcDbEntity
8
0
100
AcDbLine
62
7
6
CONTINUOUS
10
33.0188218214
20
-115.8183324344
11
33.0188218214
21
-112.7509055683
0
LINE
5
369
100
AcDbEntity
8
0
100
AcDbLine
62
7
6
CONTINUOUS
10
66.0188218214
20
-149.2846190013
11
156.0188218214
21
-149.2846190013
0
LINE
5
36A
100
AcDbEntity
8
0
100
AcDbLine
62
7
6
CONTINUOUS
10
160.5372918975
20
-131.2149763841
11
158.5188218214
21
-131.5708871182
0
LINE
5
36B
100
AcDbEntity
8
0
100
AcDbLine
62
7
6
CONTINUOUS
10
165.9457459606
20
-130.8997169963
11
165.9456238914
21
-130.8997246557
0
LINE
5
36C
100
AcDbEntity
8
0
100
AcDbLine
62
7
6
CONTINUOUS
10
56.0918976822
20
-130.8997169963
11
56.0920197991
21
-130.8997246586
0
LINE
5
36D
100
AcDbEntity
8
0
100
AcDbLine
62
7
6
CONTINUOUS
10
63.5188218214
20
-131.5708871182
11
61.5003517453
21
-131.2149763841
0
LINE
5
36E
100
AcDbEntity
8
0
100
AcDbLine
62
7
6
CONTINUOUS
10
37.2142302163
20
-102.5346190013
11
36.5397959649
21
-103.7027733911
0
LINE
5
36F
100
AcDbEntity
8
0
100
AcDbLine
62
7
6
CONTINUOUS
10
130.8914859840
20
-132.2720812794
11
130.8912885620
21
-132.2720846310
0
LINE
5
370
100
AcDbEntity
8
0
100
AcDbLine
62
7
6
CONTINUOUS
10
92.6787513761
20
-132.2846190013
11
129.3588922667
21
-132.2846190013
0
LINE
5
371
100
AcDbEntity
8
0
100
AcDbLine
62
7
6
CONTINUOUS
10
39.4312244663
20
-127.2846190013
11
39.3792937257
21
-127.2846190013
0
LINE
5
372
100
AcDbEntity
8
0
100
AcDbLine
62
7
6
CONTINUOUS
10
182.6064366015
20
-127.2846190013
11
182.6583499171
21
-127.2846190013
0
LINE
5
373
100
AcDbEntity
8
0
100
AcDbLine
62
7
6
CONTINUOUS
10
91.1461576588
20
-132.2720812794
11
91.1463550808
21
-132.2720846310
0
LINE
5
374
100
AcDbEntity
8
0
100
AcDbLine
62
7
6
CONTINUOUS
10
63.5188218214
20
-146.7842354996
11
63.5188218214
21
-131.3230004933
0
LINE
5
375
100
AcDbEntity
8
0
100
AcDbLine
62
7
6
CONTINUOUS
10
63.5188218214
20
-97.2462375093
11
63.5188218214
21
-56.7846190013
0
LINE
5
376
100
AcDbEntity
8
0
100
AcDbLine
62
7
6
CONTINUOUS
10
89.3681867268
20
-23.7846190013
11
67.7175516322
21
-61.2846190013
0
LINE
5
377
100
AcDbEntity
8
0
100
AcDbLine
62
7
6
CONTINUOUS
10
93.2830881796
20
-39.3396825805
11
90.6377161521
21
-41.5685296242
0
LINE
5
378
100
AcDbEntity
8
0
100
AcDbLine
62
7
6
CONTINUOUS
10
93.9712998481
20
-39.0380508147
11
93.2830881796
21
-39.3396825805
0
LINE
5
379
100
AcDbEntity
8
0
100
AcDbLine
62
7
6
CONTINUOUS
10
94.1056406330
20
-40.3159529161
11
94.6836276260
21
-40.1071904857
0
LINE
5
37A
100
AcDbEntity
8
0
100
AcDbLine
62
7
6
CONTINUOUS
10
83.5535112986
20
-55.6650797773
11
83.2351792229
21
-56.3457273497
0
LINE
5
37B
100
AcDbEntity
8
0
100
AcDbLine
62
7
6
CONTINUOUS
10
87.6101462987
20
-45.3294083472
11
87.1905767738
21
-46.0855967715
0
LINE
5
37C
100
AcDbEntity
8
0
100
AcDbLine
62
7
6
CONTINUOUS
10
85.5122986742
20
-49.1103504686
11
85.0927289492
21
-49.8665392535
0
LINE
5
37D
100
AcDbEntity
8
0
100
AcDbLine
62
7
6
CONTINUOUS
10
84.3085955315
20
-56.3626036811
11
84.5837405911
21
-55.9669656927
0
LINE
5
37E
100
AcDbEntity
8
0
100
AcDbLine
62
7
6
CONTINUOUS
10
92.1216116124
20
-41.9875881989
11
94.1056406330
21
-40.3159529161
0
LINE
5
37F
100
AcDbEntity
8
0
100
AcDbLine
62
7
6
CONTINUOUS
10
84.2709789680
20
-55.1906895685
11
83.5535112986
21
-55.6650797773
0
LINE
5
380
100
AcDbEntity
8
0
100
AcDbLine
62
7
6
CONTINUOUS
10
83.2351792229
20
-56.3457273497
11
82.7169352765
21
-59.7658407280
0
LINE
5
381
100
AcDbEntity
8
0
100
AcDbLine
62
7
6
CONTINUOUS
10
83.8983190946
20
-59.0701933029
11
84.3085955315
21
-56.3626036811
0
LINE
5
382
100
AcDbEntity
8
0
100
AcDbLine
62
7
6
CONTINUOUS
10
94.1192120129
20
-51.5782449421
11
93.8394988630
21
-52.0823707987
0
LINE
5
383
100
AcDbEntity
8
0
100
AcDbLine
62
7
6
CONTINUOUS
10
99.7264164993
20
-46.9871344545
11
100.1404440046
21
-46.3600792292
0
LINE
5
384
100
AcDbEntity
8
0
100
AcDbLine
62
7
6
CONTINUOUS
10
94.4200916203
20
-53.2286658593
11
94.9557795301
21
-52.7017367320
0
LINE
5
385
100
AcDbEntity
8
0
100
AcDbLine
62
7
6
CONTINUOUS
10
93.8394988630
20
-52.0823707987
11
93.3737393570
21
-52.4832682906
0
LINE
5
386
100
AcDbEntity
8
0
100
AcDbLine
62
7
6
CONTINUOUS
10
98.9038639499
20
-46.0108640049
11
96.9198349293
21
-47.6824992877
0
LINE
5
387
100
AcDbEntity
8
0
100
AcDbLine
62
7
6
CONTINUOUS
10
97.0810444718
20
-49.2159814981
11
99.7264164993
21
-46.9871344545
0
LINE
5
388
100
AcDbEntity
8
0
100
AcDbLine
62
7
6
CONTINUOUS
10
125.1208751432
20
-36.8455401831
11
119.3211686286
21
-40.2116230271
0
LINE
5
389
100
AcDbEntity
8
0
100
AcDbLine
62
7
6
CONTINUOUS
10
120.2051624005
20
-40.6979121709
11
124.3004681087
21
-38.3369053887
0
LINE
5
38A
100
AcDbEntity
8
0
100
AcDbLine
62
7
6
CONTINUOUS
10
84.5837405911
20
-55.9669656927
11
85.0476567399
21
-55.7457084764
0
LINE
5
38B
100
AcDbEntity
8
0
100
AcDbLine
62
7
6
CONTINUOUS
10
93.7682849092
20
-53.5263364018
11
94.4200916203
21
-53.2286658593
0
LINE
5
38C
100
AcDbEntity
8
0
100
AcDbLine
62
7
6
CONTINUOUS
10
85.1772177265
20
-54.8906801318
11
84.2709789680
21
-55.1906895685
0
LINE
5
38D
100
AcDbEntity
8
0
100
AcDbLine
62
7
6
CONTINUOUS
10
93.3737393570
20
-52.4832682906
11
92.7918609519
21
-52.6549071435
0
LINE
5
38E
100
AcDbEntity
8
0
100
AcDbLine
62
7
6
CONTINUOUS
10
129.4603153978
20
-43.3632752812
11
130.1334917858
21
-43.1700004555
0
LINE
5
38F
100
AcDbEntity
8
0
100
AcDbLine
62
7
6
CONTINUOUS
10
67.7175516322
20
-61.2846190013
11
87.9681854717
21
-96.3597456969
0
LINE
5
390
100
AcDbEntity
8
0
100
AcDbLine
62
7
6
CONTINUOUS
10
87.4640646154
20
-56.8407465289
11
87.0537881784
21
-59.5483361508
0
LINE
5
391
100
AcDbEntity
8
0
100
AcDbLine
62
7
6
CONTINUOUS
10
88.3159755762
20
-59.7395932542
11
88.6830650280
21
-57.3170130126
0
LINE
5
392
100
AcDbEntity
8
0
100
AcDbLine
62
7
6
CONTINUOUS
10
92.6040710713
20
-61.2640215501
11
92.7336320579
21
-60.4089932055
0
LINE
5
393
100
AcDbEntity
8
0
100
AcDbLine
62
7
6
CONTINUOUS
10
93.2734694814
20
-56.8463752390
11
93.4246240070
21
-55.8488418986
0
LINE
5
394
100
AcDbEntity
8
0
100
AcDbLine
62
7
6
CONTINUOUS
10
94.2128784068
20
-50.9708914420
11
94.1192120129
21
-51.5782449421
0
LINE
5
395
100
AcDbEntity
8
0
100
AcDbLine
62
7
6
CONTINUOUS
10
95.2354926801
20
-52.1976108755
11
95.3990870450
21
-51.4642264431
0
LINE
5
396
100
AcDbEntity
8
0
100
AcDbLine
62
7
6
CONTINUOUS
10
94.9557795301
20
-52.7017367320
11
95.2354926801
21
-52.1976108755
0
LINE
5
397
100
AcDbEntity
8
0
100
AcDbLine
62
7
6
CONTINUOUS
10
99.2076667918
20
-45.4766781293
11
98.9038639499
21
-46.0108640049
0
LINE
5
398
100
AcDbEntity
8
0
100
AcDbLine
62
7
6
CONTINUOUS
10
103.2245931873
20
-47.7846190013
11
95.4303645533
21
-61.2846190013
0
LINE
5
399
100
AcDbEntity
8
0
100
AcDbLine
62
7
6
CONTINUOUS
10
129.9915724796
20
-42.3452057318
11
128.9939733014
21
-42.8138479861
0
LINE
5
39A
100
AcDbEntity
8
0
100
AcDbLine
62
7
6
CONTINUOUS
10
126.6540556383
20
-44.9889713021
11
125.6564545526
21
-45.4576108485
0
LINE
5
39B
100
AcDbEntity
8
0
100
AcDbLine
62
7
6
CONTINUOUS
10
130.8430793238
20
-47.2939643990
11
131.6784677198
21
-46.9630075022
0
LINE
5
39C
100
AcDbEntity
8
0
100
AcDbLine
62
7
6
CONTINUOUS
10
131.3743359511
20
-46.2758952353
11
130.7011621523
21
-46.4691721905
0
LINE
5
39D
100
AcDbEntity
8
0
100
AcDbLine
62
7
6
CONTINUOUS
10
39.4312070413
20
-101.2846190013
11
39.3792937257
21
-101.2846190013
0
LINE
5
39E
100
AcDbEntity
8
0
100
AcDbLine
62
7
6
CONTINUOUS
10
182.6064191765
20
-101.2846190013
11
182.6583499171
21
-101.2846190013
0
LINE
5
39F
100
AcDbEntity
8
0
100
AcDbLine
62
7
6
CONTINUOUS
10
92.0188227751
20
-12.7051449092
11
92.0188227751
21
-13.2501494830
0
LINE
5
3A0
100
AcDbEntity
8
0
100
AcDbLine
62
7
6
CONTINUOUS
10
93.1205347070
20
-12.2464183375
11
93.1205347070
21
-12.7857403978
0
LINE
5
3A1
100
AcDbEntity
8
0
100
AcDbLine
62
7
6
CONTINUOUS
10
93.3101805476
20
-12.1706747211
11
93.3101805476
21
-12.7090699493
0
LINE
5
3A2
100
AcDbEntity
8
0
100
AcDbLine
62
7
6
CONTINUOUS
10
94.0687573992
20
-11.8769880676
11
94.0687573992
21
-12.4118197198
0
LINE
5
3A3
100
AcDbEntity
8
0
100
AcDbLine
62
7
6
CONTINUOUS
10
94.8273342508
20
-11.5979425330
11
94.8273342508
21
-12.1294319538
0
LINE
5
3A4
100
AcDbEntity
8
0
100
AcDbLine
62
7
6
CONTINUOUS
10
95.7755569430
20
-11.2693152470
11
95.7755569430
21
-11.7969220626
0
LINE
5
3A5
100
AcDbEntity
8
0
100
AcDbLine
62
7
6
CONTINUOUS
10
97.4823564868
20
-10.7328643524
11
97.4823564868
21
-11.2542543394
0
LINE
5
3A6
100
AcDbEntity
8
0
100
AcDbLine
62
7
6
CONTINUOUS
10
99.2641540481
20
-44.8726486896
11
99.2076667918
21
-45.4766781293
0
LINE
5
3A7
100
AcDbEntity
8
0
100
AcDbLine
62
7
6
CONTINUOUS
10
100.1404440046
20
-46.3600792292
11
100.3071547350
21
-45.6631815883
0
LINE
5
3A8
100
AcDbEntity
8
0
100
AcDbLine
62
7
6
CONTINUOUS
10
125.6564545526
20
-45.4576108485
11
125.1698171654
21
-45.8706582187
0
LINE
5
3A9
100
AcDbEntity
8
0
100
AcDbLine
62
7
6
CONTINUOUS
10
128.9939733014
20
-42.8138479861
11
128.5073359142
21
-43.2268953563
0
LINE
5
3AA
100
AcDbEntity
8
0
100
AcDbLine
62
7
6
CONTINUOUS
10
125.6361613965
20
-46.4200880288
11
126.1227987837
21
-46.0070406587
0
LINE
5
3AB
100
AcDbEntity
8
0
100
AcDbLine
62
7
6
CONTINUOUS
10
129.1358904730
20
-43.6386401947
11
129.4603153978
21
-43.3632752812
0
LINE
5
3AC
100
AcDbEntity
8
0
100
AcDbLine
62
7
6
CONTINUOUS
10
127.5298865453
20
-50.2951827446
11
128.5274853826
21
-49.8265407796
0
LINE
5
3AD
100
AcDbEntity
8
0
100
AcDbLine
62
7
6
CONTINUOUS
10
56.0918976822
20
-97.6695210064
11
56.0920197514
21
-97.6695133470
0
LINE
5
3AE
100
AcDbEntity
8
0
100
AcDbLine
62
7
6
CONTINUOUS
10
91.1461576588
20
-96.2971567232
11
91.1463550808
21
-96.2971533716
0
LINE
5
3AF
100
AcDbEntity
8
0
100
AcDbLine
62
7
6
CONTINUOUS
10
129.3588922667
20
-96.2846190013
11
92.6787513761
21
-96.2846190013
0
LINE
5
3B0
100
AcDbEntity
8
0
100
AcDbLine
62
7
6
CONTINUOUS
10
130.8914859840
20
-96.2971567232
11
130.8912885620
21
-96.2971533716
0
LINE
5
3B1
100
AcDbEntity
8
0
100
AcDbLine
62
7
6
CONTINUOUS
10
165.9457459606
20
-97.6695210064
11
165.9456238437
21
-97.6695133440
0
LINE
5
3B2
100
AcDbEntity
8
0
100
AcDbLine
62
7
6
CONTINUOUS
10
87.3184805424
20
-56.3813561727
11
87.4640646154
21
-56.8407465289
0
LINE
5
3B3
100
AcDbEntity
8
0
100
AcDbLine
62
7
6
CONTINUOUS
10
100.3071547350
20
-45.6631815883
11
100.1996813021
21
-44.6408604879
0
LINE
5
3B4
100
AcDbEntity
8
0
100
AcDbLine
62
7
6
CONTINUOUS
10
98.4305791790
20
-10.4646864973
11
98.4305791790
21
-10.9830235359
0
LINE
5
3B5
100
AcDbEntity
8
0
100
AcDbLine
62
7
6
CONTINUOUS
10
99.1891560306
20
-10.2651713769
11
99.1891560306
21
-10.7812603492
0
LINE
5
3B6
100
AcDbEntity
8
0
100
AcDbLine
62
7
6
CONTINUOUS
10
99.9477328822
20
-10.0788271795
11
99.9477328822
21
-10.5928341289
0
LINE
5
3B7
100
AcDbEntity
8
0
100
AcDbLine
62
7
6
CONTINUOUS
10
100.3270223932
20
-9.9905443231
11
100.3270223932
21
-10.5035707744
0
LINE
5
3B8
100
AcDbEntity
8
0
100
AcDbLine
62
7
6
CONTINUOUS
10
100.5166660635
20
-9.9476173420
11
100.5166660635
21
-10.4601683900
0
LINE
5
3B9
100
AcDbEntity
8
0
100
AcDbLine
62
7
6
CONTINUOUS
10
101.0188213446
20
-9.8378407257
11
101.0188213446
21
-10.3491800515
0
LINE
5
3BA
100
AcDbEntity
8
0
100
AcDbLine
62
7
6
CONTINUOUS
10
101.7688213446
20
-9.6843271638
11
101.7688213446
21
-10.1939816245
0
LINE
5
3BB
100
AcDbEntity
8
0
100
AcDbLine
62
7
6
CONTINUOUS
10
102.0338219370
20
-9.6330572342
11
102.0338219370
21
-10.1421514736
0
LINE
5
3BC
100
AcDbEntity
8
0
100
AcDbLine
62
7
6
CONTINUOUS
10
102.2234656073
20
-9.5973144686
11
102.2234656073
21
-10.1060188823
0
LINE
5
3BD
100
AcDbEntity
8
0
100
AcDbLine
62
7
6
CONTINUOUS
10
102.7923987886
20
-9.4948107538
11
102.7923987886
21
-10.0024005408
0
LINE
5
3BE
100
AcDbEntity
8
0
100
AcDbLine
62
7
6
CONTINUOUS
10
103.5509778105
20
-9.3691014377
11
103.5509778105
21
-9.8753309463
0
LINE
5
3BF
100
AcDbEntity
8
0
100
AcDbLine
62
7
6
CONTINUOUS
10
104.4991983324
20
-9.2294456806
11
104.4991983324
21
-9.7341725681
0
LINE
5
3C0
100
AcDbEntity
8
0
100
AcDbLine
62
7
6
CONTINUOUS
10
115.7450581712
20
-33.3894417844
11
112.7769545234
21
-42.0911439401
0
LINE
5
3C1
100
AcDbEntity
8
0
100
AcDbLine
62
7
6
CONTINUOUS
10
113.2540367099
20
-43.2031285296
11
115.9815676205
21
-35.5476730848
0
LINE
5
3C2
100
AcDbEntity
8
0
100
AcDbLine
62
7
6
CONTINUOUS
10
119.3211686286
20
-40.2116230271
11
118.7058632091
21
-41.3301471924
0
LINE
5
3C3
100
AcDbEntity
8
0
100
AcDbLine
62
7
6
CONTINUOUS
10
124.3004681087
20
-38.3369053887
11
122.3520011146
21
-41.8788982743
0
LINE
5
3C4
100
AcDbEntity
8
0
100
AcDbLine
62
7
6
CONTINUOUS
10
121.7366956951
20
-42.9974224396
11
120.3009832411
21
-45.6073118106
0
LINE
5
3C5
100
AcDbEntity
8
0
100
AcDbLine
62
7
6
CONTINUOUS
10
121.0586913626
20
-46.0241306223
11
122.4944038166
21
-43.4142412514
0
LINE
5
3C6
100
AcDbEntity
8
0
100
AcDbLine
62
7
6
CONTINUOUS
10
123.1097092361
20
-42.2957170861
11
125.8785832647
21
-37.2623589949
0
LINE
5
3C7
100
AcDbEntity
8
0
100
AcDbLine
62
7
6
CONTINUOUS
10
125.1698171654
20
-45.8706582187
11
124.5452932860
21
-46.7788435288
0
LINE
5
3C8
100
AcDbEntity
8
0
100
AcDbLine
62
7
6
CONTINUOUS
10
131.6987608760
20
-46.0005303219
11
131.3743359511
21
-46.2758952353
0
LINE
5
3C9
100
AcDbEntity
8
0
100
AcDbLine
62
7
6
CONTINUOUS
10
128.5477806735
20
-48.8640661143
11
128.0611432862
21
-49.2771134845
0
LINE
5
3CA
100
AcDbEntity
8
0
100
AcDbLine
62
7
6
CONTINUOUS
10
131.6784677198
20
-46.9630075022
11
132.1651051071
21
-46.5499601321
0
LINE
5
3CB
100
AcDbEntity
8
0
100
AcDbLine
62
7
6
CONTINUOUS
10
128.5274853826
20
-49.8265407796
11
129.0141227699
21
-49.4134934094
0
LINE
5
3CC
100
AcDbEntity
8
0
100
AcDbLine
62
7
6
CONTINUOUS
10
130.7569479135
20
-62.8792716909
11
130.0507164162
21
-63.1885064300
0
LINE
5
3CD
100
AcDbEntity
8
0
100
AcDbLine
62
7
6
CONTINUOUS
10
63.5188218214
20
-96.9983508844
11
61.5003517453
21
-97.3542616186
0
LINE
5
3CE
100
AcDbEntity
8
0
100
AcDbLine
62
7
6
CONTINUOUS
10
160.5372918975
20
-97.3542616186
11
158.5188218214
21
-96.9983508844
0
LINE
5
3CF
100
AcDbEntity
8
0
100
AcDbLine
62
7
6
CONTINUOUS
10
88.3918969128
20
-56.3982320963
11
88.0575417507
21
-55.7644609681
0
LINE
5
3D0
100
AcDbEntity
8
0
100
AcDbLine
62
7
6
CONTINUOUS
10
94.0505695266
20
-50.3863418706
11
94.2128784068
21
-50.9708914420
0
LINE
5
3D1
100
AcDbEntity
8
0
100
AcDbLine
62
7
6
CONTINUOUS
10
95.3990870450
20
-51.4642264431
11
95.3067066339
21
-50.7536452724
0
LINE
5
3D2
100
AcDbEntity
8
0
100
AcDbLine
62
7
6
CONTINUOUS
10
109.0506648677
20
-8.8249864109
11
109.0506648677
21
-9.3254116944
0
LINE
5
3D3
100
AcDbEntity
8
0
100
AcDbLine
62
7
6
CONTINUOUS
10
110.5678196561
20
-8.7867378288
11
110.5678196561
21
-9.2867601333
0
LINE
5
3D4
100
AcDbEntity
8
DEFAULT_1
100
AcDbLine
62
2
6
CENTER
10
111.0188218214
20
-61.2846190013
11
111.0188218214
21
-24.5346190013
0
LINE
5
3D5
100
AcDbEntity
8
DEFAULT_1
100
AcDbLine
62
2
6
CENTER
10
111.0188218214
20
-61.2846190013
11
111.0188218214
21
-98.0346190013
0
LINE
5
3D6
100
AcDbEntity
8
0
100
AcDbLine
62
7
6
CONTINUOUS
10
110.1473666370
20
-32.8766902108
11
109.2351801544
21
-42.8349990943
0
LINE
5
3D7
100
AcDbEntity
8
0
100
AcDbLine
62
7
6
CONTINUOUS
10
110.0963634674
20
-42.9138839518
11
110.8144677428
21
-35.0743639398
0
LINE
5
3D8
100
AcDbEntity
8
0
100
AcDbLine
62
7
6
CONTINUOUS
10
125.2671171179
20
-47.3004748323
11
125.6361613965
21
-46.4200880288
0
LINE
5
3D9
100
AcDbEntity
8
0
100
AcDbLine
62
7
6
CONTINUOUS
10
123.7572516492
20
-44.1089398011
11
124.3725570687
21
-42.9904156357
0
LINE
5
3DA
100
AcDbEntity
8
0
100
AcDbLine
62
7
6
CONTINUOUS
10
128.5073359142
20
-43.2268953563
11
128.0450224761
21
-43.9973955983
0
LINE
5
3DB
100
AcDbEntity
8
0
100
AcDbLine
62
7
6
CONTINUOUS
10
129.0141227699
20
-49.4134934094
11
129.6386488976
21
-48.5053105179
0
LINE
5
3DC
100
AcDbEntity
8
0
100
AcDbLine
62
7
6
CONTINUOUS
10
132.1651051071
20
-46.5499601321
11
132.7896293273
21
-45.6417745326
0
LINE
5
3DD
100
AcDbEntity
8
0
100
AcDbLine
62
7
6
CONTINUOUS
10
130.0507164162
20
-63.1885064300
11
129.2921138859
21
-63.7812090597
0
LINE
5
3DE
100
AcDbEntity
8
0
100
AcDbLine
62
7
6
CONTINUOUS
10
130.3120548316
20
-64.1162128398
11
130.8090611068
21
-63.7683234757
0
LINE
5
3DF
100
AcDbEntity
8
0
100
AcDbLine
62
7
6
CONTINUOUS
10
136.9281889240
20
-68.1233985237
11
137.6344203480
21
-67.8141637711
0
LINE
5
3E0
100
AcDbEntity
8
0
100
AcDbLine
62
7
6
CONTINUOUS
10
132.0391353912
20
-78.8814723968
11
132.9802562519
21
-78.6788257574
0
LINE
5
3E1
100
AcDbEntity
8
0
100
AcDbLine
62
7
6
CONTINUOUS
10
132.2084282842
20
-77.9326432219
11
131.6094690287
21
-78.0290281661
0
LINE
5
3E2
100
AcDbEntity
8
0
100
AcDbLine
62
7
6
CONTINUOUS
10
86.9409384259
20
-56.0325942208
11
87.3184805424
21
-56.3813561727
0
LINE
5
3E3
100
AcDbEntity
8
0
100
AcDbLine
62
7
6
CONTINUOUS
10
95.4303645533
20
-61.2846190013
11
103.2245931873
21
-74.7846190013
0
LINE
5
3E4
100
AcDbEntity
8
0
100
AcDbLine
62
7
6
CONTINUOUS
10
95.3067066339
20
-50.7536452724
11
94.8422326941
21
-49.8366088056
0
LINE
5
3E5
100
AcDbEntity
8
0
100
AcDbLine
62
7
6
CONTINUOUS
10
99.0733259108
20
-44.1987759139
11
99.2641540481
21
-44.8726486896
0
LINE
5
3E6
100
AcDbEntity
8
0
100
AcDbLine
62
7
6
CONTINUOUS
10
116.2571514688
20
-9.0713095111
11
116.2571514688
21
-9.5743457284
0
LINE
5
3E7
100
AcDbEntity
8
0
100
AcDbLine
62
7
6
CONTINUOUS
10
117.3950178313
20
-9.2100026136
11
117.3950178313
21
-9.7145210150
0
LINE
5
3E8
100
AcDbEntity
8
0
100
AcDbLine
62
7
6
CONTINUOUS
10
117.5188218810
20
-9.2267595118
11
117.5188218810
21
-9.7314575855
0
LINE
5
3E9
100
AcDbEntity
8
0
100
AcDbLine
62
7
6
CONTINUOUS
10
118.5188218214
20
-9.3741771135
11
118.5188218214
21
-9.8804614031
0
LINE
5
3EA
100
AcDbEntity
8
0
100
AcDbLine
62
7
6
CONTINUOUS
10
118.9121731622
20
-9.4380773683
11
118.9121731622
21
-9.9450523444
0
LINE
5
3EB
100
AcDbEntity
8
0
100
AcDbLine
62
7
6
CONTINUOUS
10
115.9815676205
20
-35.5476730848
11
115.2634633451
21
-43.3871930968
0
LINE
5
3EC
100
AcDbEntity
8
0
100
AcDbLine
62
7
6
CONTINUOUS
10
116.1246466581
20
-43.4660779543
11
117.0368331407
21
-33.5077690707
0
LINE
5
3ED
100
AcDbEntity
8
0
100
AcDbLine
62
7
6
CONTINUOUS
10
124.5452932860
20
-46.7788435288
11
124.3384615267
21
-47.5215478273
0
LINE
5
3EE
100
AcDbEntity
8
0
100
AcDbLine
62
7
6
CONTINUOUS
10
128.0450224761
20
-43.9973955983
11
127.8381907736
21
-44.7400998485
0
LINE
5
3EF
100
AcDbEntity
8
0
100
AcDbLine
62
7
6
CONTINUOUS
10
128.9168250656
20
-47.9836792145
11
128.5477806735
21
-48.8640661143
0
LINE
5
3F0
100
AcDbEntity
8
0
100
AcDbLine
62
7
6
CONTINUOUS
10
128.8357916320
20
-44.2714604950
11
129.1358904730
21
-43.6386401947
0
LINE
5
3F1
100
AcDbEntity
8
0
100
AcDbLine
62
7
6
CONTINUOUS
10
131.9988623061
20
-45.3677121510
11
131.6987608760
21
-46.0005303219
0
LINE
5
3F2
100
AcDbEntity
8
0
100
AcDbLine
62
7
6
CONTINUOUS
10
118.8130504555
20
-74.7846190013
11
126.6072790895
21
-61.2846190013
0
LINE
5
3F3
100
AcDbEntity
8
0
100
AcDbLine
62
7
6
CONTINUOUS
10
125.8623777014
20
-71.8371564026
11
125.5209296971
21
-72.3016995553
0
LINE
5
3F4
100
AcDbEntity
8
0
100
AcDbLine
62
7
6
CONTINUOUS
10
137.6344203480
20
-67.8141637711
11
138.3930228234
21
-67.2214611312
0
LINE
5
3F5
100
AcDbEntity
8
0
100
AcDbLine
62
7
6
CONTINUOUS
10
126.4606194636
20
-71.3824953283
11
125.8623777014
21
-71.8371564026
0
LINE
5
3F6
100
AcDbEntity
8
0
100
AcDbLine
62
7
6
CONTINUOUS
10
129.4604231349
20
-73.4085252024
11
128.8621772401
21
-73.8631914275
0
LINE
5
3F7
100
AcDbEntity
8
0
100
AcDbLine
62
7
6
CONTINUOUS
10
137.3730820059
20
-66.8864573748
11
136.8760757307
21
-67.2343467389
0
LINE
5
3F8
100
AcDbEntity
8
0
100
AcDbLine
62
7
6
CONTINUOUS
10
126.8049258839
20
-72.3510727662
11
127.2324475364
21
-72.1286779410
0
LINE
5
3F9
100
AcDbEntity
8
0
100
AcDbLine
62
7
6
CONTINUOUS
10
129.8047255426
20
-74.3771078793
11
130.2322471951
21
-74.1547130540
0
LINE
5
3FA
100
AcDbEntity
8
0
100
AcDbLine
62
7
6
CONTINUOUS
10
136.8760757307
20
-67.2343467389
11
135.5159833479
21
-67.5693482487
0
LINE
5
3FB
100
AcDbEntity
8
0
100
AcDbLine
62
7
6
CONTINUOUS
10
130.4015400880
20
-73.2058838792
11
129.4604231349
21
-73.4085252024
0
LINE
5
3FC
100
AcDbEntity
8
0
100
AcDbLine
62
7
6
CONTINUOUS
10
127.4017403693
20
-71.1798487220
11
126.4606194636
21
-71.3824953283
0
LINE
5
3FD
100
AcDbEntity
8
0
100
AcDbLine
62
7
6
CONTINUOUS
10
130.2322471951
20
-74.1547130540
11
130.8312064506
21
-74.0583281099
0
LINE
5
3FE
100
AcDbEntity
8
0
100
AcDbLine
62
7
6
CONTINUOUS
10
127.2324475364
20
-72.1286779410
11
127.8314067919
21
-72.0322929968
0
LINE
5
3FF
100
AcDbEntity
8
0
100
AcDbLine
62
7
6
CONTINUOUS
10
136.0389184763
20
-68.2522414774
11
136.9281889240
21
-68.1233985237
0
LINE
5
400
100
AcDbEntity
8
0
100
AcDbLine
62
7
6
CONTINUOUS
10
103.2245931873
20
-74.7846190013
11
118.8130504555
21
-74.7846190013
0
LINE
5
401
100
AcDbEntity
8
0
100
AcDbLine
62
7
6
CONTINUOUS
10
131.0973009297
20
-78.7258375788
11
132.0391353912
21
-78.8814723968
0
LINE
5
402
100
AcDbEntity
8
0
100
AcDbLine
62
7
6
CONTINUOUS
10
131.6094690287
20
-78.0290281661
11
130.9244322175
21
-77.8832700992
0
LINE
5
403
100
AcDbEntity
8
0
100
AcDbLine
62
7
6
CONTINUOUS
10
130.0693884322
20
-78.3280593967
11
131.0973009297
21
-78.7258375788
0
LINE
5
404
100
AcDbEntity
8
0
100
AcDbLine
62
7
6
CONTINUOUS
10
88.0575417507
20
-55.7644609681
11
87.2808639788
21
-55.2094420602
0
LINE
5
405
100
AcDbEntity
8
0
100
AcDbLine
62
7
6
CONTINUOUS
10
94.8422326941
20
-49.8366088056
11
94.2379019142
21
-49.1716355916
0
LINE
5
406
100
AcDbEntity
8
0
100
AcDbLine
62
7
6
CONTINUOUS
10
93.6322856331
20
-49.8245963724
11
94.0505695266
21
-50.3863418706
0
LINE
5
407
100
AcDbEntity
8
0
100
AcDbLine
62
7
6
CONTINUOUS
10
98.6351810226
20
-43.4550607510
11
99.0733259108
21
-44.1987759139
0
LINE
5
408
100
AcDbEntity
8
0
100
AcDbLine
62
7
6
CONTINUOUS
10
100.1996813021
20
-44.6408604879
11
99.8717609933
21
-43.8042758756
0
LINE
5
409
100
AcDbEntity
8
0
100
AcDbLine
62
7
6
CONTINUOUS
10
110.8144677428
20
-35.0743639398
11
112.1057901025
21
-43.0979485190
0
LINE
5
40A
100
AcDbEntity
8
0
100
AcDbLine
62
7
6
CONTINUOUS
10
112.7769545234
20
-42.0911439401
11
111.4391416064
21
-32.9950174970
0
LINE
5
40B
100
AcDbEntity
8
0
100
AcDbLine
62
7
6
CONTINUOUS
10
125.2655631710
20
-73.0083804138
11
125.3530679734
21
-73.9670863728
0
LINE
5
40C
100
AcDbEntity
8
0
100
AcDbLine
62
7
6
CONTINUOUS
10
120.0500395248
20
-9.6418877822
11
120.0500395248
21
-10.1510784238
0
LINE
5
40D
100
AcDbEntity
8
0
100
AcDbLine
62
7
6
CONTINUOUS
10
122.7050609470
20
-10.2289339016
11
122.7050609470
21
-10.7446166653
0
LINE
5
40E
100
AcDbEntity
8
0
100
AcDbLine
62
7
6
CONTINUOUS
10
125.3600823691
20
-10.9771060160
11
125.3600823691
21
-11.5013081031
0
LINE
5
40F
100
AcDbEntity
8
0
100
AcDbLine
62
7
6
CONTINUOUS
10
124.3384615267
20
-47.5215478273
11
124.3181661932
21
-48.4840225287
0
LINE
5
410
100
AcDbEntity
8
0
100
AcDbLine
62
7
6
CONTINUOUS
10
128.7222270680
20
-45.1240486952
11
128.8357916320
21
-44.2714604950
0
LINE
5
411
100
AcDbEntity
8
0
100
AcDbLine
62
7
6
CONTINUOUS
10
129.6386488976
20
-48.5053105179
11
129.7522113269
21
-47.6527198026
0
LINE
5
412
100
AcDbEntity
8
0
100
AcDbLine
62
7
6
CONTINUOUS
10
126.2081113384
20
-73.5222967664
11
126.2927577849
21
-73.0478821789
0
LINE
5
413
100
AcDbEntity
8
0
100
AcDbLine
62
7
6
CONTINUOUS
10
132.7896293273
20
-45.6417745326
11
132.9964610298
21
-44.8990702824
0
LINE
5
414
100
AcDbEntity
8
0
100
AcDbLine
62
7
6
CONTINUOUS
10
125.5209296971
20
-72.3016995553
11
125.2655631710
21
-73.0083804138
0
LINE
5
415
100
AcDbEntity
8
0
100
AcDbLine
62
7
6
CONTINUOUS
10
128.4353691884
20
-74.4438677101
11
128.1800028874
21
-75.1505487341
0
LINE
5
416
100
AcDbEntity
8
0
100
AcDbLine
62
7
6
CONTINUOUS
10
127.8751982079
20
-68.1836414143
11
127.5890846318
21
-68.8450637985
0
LINE
5
417
100
AcDbEntity
8
0
100
AcDbLine
62
7
6
CONTINUOUS
10
128.5654782399
20
-69.2674254747
11
128.8515918160
21
-68.6060030905
0
LINE
5
418
100
AcDbEntity
8
0
100
AcDbLine
62
7
6
CONTINUOUS
10
129.2921138859
20
-63.7812090597
11
128.9257767634
21
-64.5929516184
0
LINE
5
419
100
AcDbEntity
8
0
100
AcDbLine
62
7
6
CONTINUOUS
10
129.9719026538
20
-64.7862247023
11
130.3120548316
21
-64.1162128398
0
LINE
5
41A
100
AcDbEntity
8
0
100
AcDbLine
62
7
6
CONTINUOUS
10
126.2927577849
20
-73.0478821789
11
126.8049258839
21
-72.3510727662
0
LINE
5
41B
100
AcDbEntity
8
0
100
AcDbLine
62
7
6
CONTINUOUS
10
128.5164437232
20
-72.1780511520
11
128.9432478673
21
-71.5973801855
0
LINE
5
41C
100
AcDbEntity
8
0
100
AcDbLine
62
7
6
CONTINUOUS
10
128.8621772401
20
-73.8631914275
11
128.4353691884
21
-74.4438677101
0
LINE
5
41D
100
AcDbEntity
8
0
100
AcDbLine
62
7
6
CONTINUOUS
10
129.2071973962
20
-75.1900504221
11
129.8047255426
21
-74.3771078793
0
LINE
5
41E
100
AcDbEntity
8
0
100
AcDbLine
62
7
6
CONTINUOUS
10
132.9802562519
20
-78.6788257574
11
133.5784979991
21
-78.2241646720
0
LINE
5
41F
100
AcDbEntity
8
0
100
AcDbLine
62
7
6
CONTINUOUS
10
132.6359499367
20
-77.7102483967
11
132.2084282842
21
-77.9326432219
0
LINE
5
420
100
AcDbEntity
8
0
100
AcDbLine
62
7
6
CONTINUOUS
10
130.8090611068
20
-63.7683234757
11
132.1691530500
21
-63.4333218846
0
LINE
5
421
100
AcDbEntity
8
0
100
AcDbLine
62
7
6
CONTINUOUS
10
131.6462185078
20
-62.7504287642
11
130.7569479135
21
-62.8792716909
0
LINE
5
422
100
AcDbEntity
8
0
100
AcDbLine
62
7
6
CONTINUOUS
10
135.3850563188
20
-68.2780147227
11
136.0389184763
21
-68.2522414774
0
LINE
5
423
100
AcDbEntity
8
0
100
AcDbLine
62
7
6
CONTINUOUS
10
134.3127456487
20
-68.2264723654
11
135.3850563188
21
-68.2780147227
0
LINE
5
424
100
AcDbEntity
8
0
100
AcDbLine
62
7
6
CONTINUOUS
10
135.5159833479
20
-67.5693482487
11
134.2344475290
21
-67.4791512801
0
LINE
5
425
100
AcDbEntity
8
0
100
AcDbLine
62
7
6
CONTINUOUS
10
82.7169352765
20
-59.7658407280
11
92.6040710713
21
-61.2640215501
0
LINE
5
426
100
AcDbEntity
8
0
100
AcDbLine
62
7
6
CONTINUOUS
10
131.3433745496
20
-73.3615186972
11
130.4015400880
21
-73.2058838792
0
LINE
5
427
100
AcDbEntity
8
0
100
AcDbLine
62
7
6
CONTINUOUS
10
128.3435748909
20
-71.3354835841
11
127.4017403693
21
-71.1798487220
0
LINE
5
428
100
AcDbEntity
8
0
100
AcDbLine
62
7
6
CONTINUOUS
10
132.4297193098
20
-67.8785808632
11
134.3127456487
21
-68.2264723654
0
LINE
5
429
100
AcDbEntity
8
0
100
AcDbLine
62
7
6
CONTINUOUS
10
130.8312064506
20
-74.0583281099
11
131.5162432618
21
-74.2040861768
0
LINE
5
42A
100
AcDbEntity
8
0
100
AcDbLine
62
7
6
CONTINUOUS
10
127.8314067919
20
-72.0322929968
11
128.5164437232
21
-72.1780511520
0
LINE
5
42B
100
AcDbEntity
8
0
100
AcDbLine
62
7
6
CONTINUOUS
10
132.3712865668
20
-73.7592965262
11
131.3433745496
21
-73.3615186972
0
LINE
5
42C
100
AcDbEntity
8
0
100
AcDbLine
62
7
6
CONTINUOUS
10
86.3314382042
20
-55.7944610809
11
86.9409384259
21
-56.0325942208
0
LINE
5
42D
100
AcDbEntity
8
0
100
AcDbLine
62
7
6
CONTINUOUS
10
87.2808639788
20
-55.2094420602
11
86.6713637571
21
-54.9713089203
0
LINE
5
42E
100
AcDbEntity
8
0
100
AcDbLine
62
7
6
CONTINUOUS
10
130.9244322175
20
-77.8832700992
11
130.3247588808
21
-77.6213732330
0
LINE
5
42F
100
AcDbEntity
8
0
100
AcDbLine
62
7
6
CONTINUOUS
10
131.5162432618
20
-74.2040861768
11
132.1159161181
21
-74.4659826900
0
LINE
5
430
100
AcDbEntity
8
0
100
AcDbLine
62
7
6
CONTINUOUS
10
128.9432478673
20
-71.5973801855
11
128.3435748909
21
-71.3354835841
0
LINE
5
431
100
AcDbEntity
8
0
100
AcDbLine
62
7
6
CONTINUOUS
10
85.0927289492
20
-49.8665392535
11
90.8601791715
21
-53.0665966359
0
LINE
5
432
100
AcDbEntity
8
0
100
AcDbLine
62
7
6
CONTINUOUS
10
91.2797488965
20
-52.3104078511
11
85.5122986742
21
-49.1103504686
0
LINE
5
433
100
AcDbEntity
8
0
100
AcDbLine
62
7
6
CONTINUOUS
10
128.7839651638
20
-77.5621233592
11
130.0693884322
21
-78.3280593967
0
LINE
5
434
100
AcDbEntity
8
0
100
AcDbLine
62
7
6
CONTINUOUS
10
127.5839019427
20
-76.6800541916
11
128.7839651638
21
-77.5621233592
0
LINE
5
435
100
AcDbEntity
8
0
100
AcDbLine
62
7
6
CONTINUOUS
10
128.3535852004
20
-76.3513976711
11
128.0107099944
21
-76.0993779090
0
LINE
5
436
100
AcDbEntity
8
0
100
AcDbLine
62
7
6
CONTINUOUS
10
130.3247588808
20
-77.6213732330
11
129.9818836748
21
-77.3693534708
0
LINE
5
437
100
AcDbEntity
8
0
100
AcDbLine
62
7
6
CONTINUOUS
10
94.2379019142
20
-49.1716355916
11
93.3775965210
21
-48.5294657296
0
LINE
5
438
100
AcDbEntity
8
0
100
AcDbLine
62
7
6
CONTINUOUS
10
92.9580269961
20
-49.2856541539
11
93.6322856331
21
-49.8245963724
0
LINE
5
439
100
AcDbEntity
8
0
100
AcDbLine
62
7
6
CONTINUOUS
10
126.4691985289
20
-75.6818517175
11
127.5839019427
21
-76.6800541916
0
LINE
5
43A
100
AcDbEntity
8
0
100
AcDbLine
62
7
6
CONTINUOUS
10
128.0107099944
20
-76.0993779090
11
127.0674441835
21
-75.2271853160
0
LINE
5
43B
100
AcDbEntity
8
0
100
AcDbLine
62
7
6
CONTINUOUS
10
127.0674441835
20
-75.2271853160
11
126.6384914218
21
-74.7330225427
0
LINE
5
43C
100
AcDbEntity
8
0
100
AcDbLine
62
7
6
CONTINUOUS
10
90.6377161521
20
-41.5685296242
11
97.0810444718
21
-49.2159814981
0
LINE
5
43D
100
AcDbEntity
8
0
100
AcDbLine
62
7
6
CONTINUOUS
10
96.9198349293
20
-47.6824992877
11
92.1216116124
21
-41.9875881989
0
LINE
5
43E
100
AcDbEntity
8
0
100
AcDbLine
62
7
6
CONTINUOUS
10
96.5787996971
20
-41.0143846840
11
98.6351810226
21
-43.4550607510
0
LINE
5
43F
100
AcDbEntity
8
0
100
AcDbLine
62
7
6
CONTINUOUS
10
99.2965240295
20
-42.8978489901
11
97.2401427039
21
-40.4571729231
0
LINE
5
440
100
AcDbEntity
8
0
100
AcDbLine
62
7
6
CONTINUOUS
10
125.7827343959
20
-74.8195306476
11
126.4691985289
21
-75.6818517175
0
LINE
5
441
100
AcDbEntity
8
0
100
AcDbLine
62
7
6
CONTINUOUS
10
99.8717609933
20
-43.8042758756
11
99.2965240295
21
-42.8978489901
0
LINE
5
442
100
AcDbEntity
8
0
100
AcDbLine
62
7
6
CONTINUOUS
10
130.0502007734
20
-65.5335457876
11
129.9719026538
21
-64.7862247023
0
LINE
5
443
100
AcDbEntity
8
0
100
AcDbLine
62
7
6
CONTINUOUS
10
129.1834739455
20
-60.0002852399
11
129.2444665824
21
-60.8629203989
0
LINE
5
444
100
AcDbEntity
8
0
100
AcDbLine
62
7
6
CONTINUOUS
10
125.3157650163
20
-48.0153805758
11
125.2671171179
21
-47.3004748323
0
LINE
5
445
100
AcDbEntity
8
0
100
AcDbLine
62
7
6
CONTINUOUS
10
127.8381907736
20
-44.7400998485
11
127.8625168575
21
-45.0975552353
0
LINE
5
446
100
AcDbEntity
8
0
100
AcDbLine
62
7
6
CONTINUOUS
10
128.8681750325
20
-47.2687709559
11
128.9168250656
21
-47.9836792145
0
LINE
5
447
100
AcDbEntity
8
0
100
AcDbLine
62
7
6
CONTINUOUS
10
129.7522113269
20
-47.6527198026
11
129.7278873777
21
-47.2952669309
0
LINE
5
448
100
AcDbEntity
8
0
100
AcDbLine
62
7
6
CONTINUOUS
10
128.9257767634
20
-64.5929516184
11
128.9778899751
21
-65.4820034067
0
LINE
5
449
100
AcDbEntity
8
0
100
AcDbLine
62
7
6
CONTINUOUS
10
126.4979487317
20
-11.3489872780
11
126.4979487317
21
-11.8775301389
0
LINE
5
44A
100
AcDbEntity
8
0
100
AcDbLine
62
7
6
CONTINUOUS
10
132.9964610298
20
-44.8990702824
11
133.0167563207
21
-43.9365956171
0
LINE
5
44B
100
AcDbEntity
8
0
100
AcDbLine
62
7
6
CONTINUOUS
10
132.1124247354
20
-44.5151214357
11
131.9988623061
21
-45.3677121510
0
LINE
5
44C
100
AcDbEntity
8
0
100
AcDbLine
62
7
6
CONTINUOUS
10
129.1225509498
20
-75.6644650095
11
129.2071973962
21
-75.1900504221
0
LINE
5
44D
100
AcDbEntity
8
0
100
AcDbLine
62
7
6
CONTINUOUS
10
133.3181245295
20
-76.4228912665
11
133.2334780830
21
-76.8973058539
0
LINE
5
44E
100
AcDbEntity
8
0
100
AcDbLine
62
7
6
CONTINUOUS
10
134.0053060507
20
-77.6434883894
11
134.2606764994
21
-76.9368022256
0
LINE
5
44F
100
AcDbEntity
8
0
100
AcDbLine
62
7
6
CONTINUOUS
10
138.3930228234
20
-67.2214611312
11
138.7593599276
21
-66.4097185691
0
LINE
5
450
100
AcDbEntity
8
0
100
AcDbLine
62
7
6
CONTINUOUS
10
137.7132341838
20
-66.2164455123
11
137.3730820059
21
-66.8864573748
0
LINE
5
451
100
AcDbEntity
8
0
100
AcDbLine
62
7
6
CONTINUOUS
10
133.2334780830
20
-76.8973058539
11
132.6359499367
21
-77.7102483967
0
LINE
5
452
100
AcDbEntity
8
0
100
AcDbLine
62
7
6
CONTINUOUS
10
133.5784979991
20
-78.2241646720
11
134.0053060507
21
-77.6434883894
0
LINE
5
453
100
AcDbEntity
8
0
100
AcDbLine
62
7
6
CONTINUOUS
10
129.2444665824
20
-60.8629203989
11
139.2195639138
21
-60.1576309337
0
LINE
5
454
100
AcDbEntity
8
0
100
AcDbLine
62
7
6
CONTINUOUS
10
137.4606825718
20
-59.4150450311
11
129.1834739455
21
-60.0002852399
0
LINE
5
455
100
AcDbEntity
8
0
100
AcDbLine
62
7
6
CONTINUOUS
10
137.6119262557
20
-58.5374070058
11
135.9140369560
21
-58.6574563042
0
LINE
5
456
100
AcDbEntity
8
0
100
AcDbLine
62
7
6
CONTINUOUS
10
132.3000800791
20
-62.7246554107
11
131.6462185078
21
-62.7504287642
0
LINE
5
457
100
AcDbEntity
8
DEFAULT_1
100
AcDbLine
62
2
6
CENTER
10
111.0188218214
20
-61.2846190013
11
74.2688218214
21
-61.2846190013
0
LINE
5
458
100
AcDbEntity
8
DEFAULT_1
100
AcDbLine
62
2
6
CENTER
10
111.0188218214
20
-61.2846190013
11
147.7688218214
21
-61.2846190013
0
LINE
5
459
100
AcDbEntity
8
0
100
AcDbLine
62
7
6
CONTINUOUS
10
133.3723910423
20
-62.7761978221
11
132.3000800791
21
-62.7246554107
0
LINE
5
45A
100
AcDbEntity
8
0
100
AcDbLine
62
7
6
CONTINUOUS
10
132.1691530500
20
-63.4333218846
11
133.4506891620
21
-63.5235189074
0
LINE
5
45B
100
AcDbEntity
8
0
100
AcDbLine
62
7
6
CONTINUOUS
10
92.7336320579
20
-60.4089932055
11
88.3159755762
21
-59.7395932542
0
LINE
5
45C
100
AcDbEntity
8
0
100
AcDbLine
62
7
6
CONTINUOUS
10
87.0537881784
20
-59.5483361508
11
83.8983190946
21
-59.0701933029
0
LINE
5
45D
100
AcDbEntity
8
0
100
AcDbLine
62
7
6
CONTINUOUS
10
85.7003439159
20
-55.6988324399
11
86.3314382042
21
-55.7944610809
0
LINE
5
45E
100
AcDbEntity
8
0
100
AcDbLine
62
7
6
CONTINUOUS
10
86.6713637571
20
-54.9713089203
11
85.8299049025
21
-54.8438040953
0
LINE
5
45F
100
AcDbEntity
8
0
100
AcDbLine
62
7
6
CONTINUOUS
10
91.8603413397
20
-53.4567032090
11
92.7443850696
21
-53.6175509271
0
LINE
5
460
100
AcDbEntity
8
0
100
AcDbLine
62
7
6
CONTINUOUS
10
134.2344475290
20
-67.4791512801
11
132.7698714876
21
-67.2085690006
0
LINE
5
461
100
AcDbEntity
8
0
100
AcDbLine
62
7
6
CONTINUOUS
10
133.4506891620
20
-63.5235189074
11
134.9152652034
21
-63.7941011869
0
LINE
5
462
100
AcDbEntity
8
0
100
AcDbLine
62
7
6
CONTINUOUS
10
135.2554173812
20
-63.1240893244
11
133.3723910423
21
-62.7761978221
0
LINE
5
463
100
AcDbEntity
8
0
100
AcDbLine
62
7
6
CONTINUOUS
10
132.7698714876
20
-67.2085690006
11
131.5407052283
21
-66.8349105787
0
LINE
5
464
100
AcDbEntity
8
0
100
AcDbLine
62
7
6
CONTINUOUS
10
134.9152652034
20
-63.7941011869
11
136.1444311696
21
-64.1677595547
0
LINE
5
465
100
AcDbEntity
8
0
100
AcDbLine
62
7
6
CONTINUOUS
10
131.4097781992
20
-67.5435770526
11
132.4297193098
21
-67.8785808632
0
LINE
5
466
100
AcDbEntity
8
0
100
AcDbLine
62
7
6
CONTINUOUS
10
92.0938639084
20
-52.5972875018
11
91.2797488965
21
-52.3104078511
0
LINE
5
467
100
AcDbEntity
8
0
100
AcDbLine
62
7
6
CONTINUOUS
10
90.8601791715
20
-53.0665966359
11
91.8603413397
21
-53.4567032090
0
LINE
5
468
100
AcDbEntity
8
0
100
AcDbLine
62
7
6
CONTINUOUS
10
130.8082888780
20
-67.2858760309
11
131.4097781992
21
-67.5435770526
0
LINE
5
469
100
AcDbEntity
8
0
100
AcDbLine
62
7
6
CONTINUOUS
10
127.5890846318
20
-68.8450637985
11
128.5654782399
21
-69.2674254747
0
LINE
5
46A
100
AcDbEntity
8
0
100
AcDbLine
62
7
6
CONTINUOUS
10
128.8515918160
20
-68.6060030905
11
127.8751982079
21
-68.1836414143
0
LINE
5
46B
100
AcDbEntity
8
0
100
AcDbLine
62
7
6
CONTINUOUS
10
87.1905767738
20
-46.0855967715
11
92.9580269961
21
-49.2856541539
0
LINE
5
46C
100
AcDbEntity
8
0
100
AcDbLine
62
7
6
CONTINUOUS
10
93.3775965210
20
-48.5294657296
11
87.6101462987
21
-45.3294083472
0
LINE
5
46D
100
AcDbEntity
8
0
100
AcDbLine
62
7
6
CONTINUOUS
10
130.0237579891
20
-66.8477961593
11
130.8082888780
21
-67.2858760309
0
LINE
5
46E
100
AcDbEntity
8
0
100
AcDbLine
62
7
6
CONTINUOUS
10
131.5407052283
20
-66.8349105787
11
130.3900950933
21
-66.0360535971
0
LINE
5
46F
100
AcDbEntity
8
0
100
AcDbLine
62
7
6
CONTINUOUS
10
132.1159161181
20
-74.4659826900
11
132.4587913242
21
-74.7180024521
0
LINE
5
470
100
AcDbEntity
8
0
100
AcDbLine
62
7
6
CONTINUOUS
10
133.0570369788
20
-74.2633360506
11
132.3712865668
21
-73.7592965262
0
LINE
5
471
100
AcDbEntity
8
0
100
AcDbLine
62
7
6
CONTINUOUS
10
95.9202079808
20
-40.4564060662
11
96.5787996971
21
-41.0143846840
0
LINE
5
472
100
AcDbEntity
8
0
100
AcDbLine
62
7
6
CONTINUOUS
10
97.2401427039
20
-40.4571729231
11
96.4444585280
21
-39.7364821268
0
LINE
5
473
100
AcDbEntity
8
0
100
AcDbLine
62
7
6
CONTINUOUS
10
129.9818836748
20
-77.3693534708
11
129.5529309131
21
-76.8751906975
0
LINE
5
474
100
AcDbEntity
8
0
100
AcDbLine
62
7
6
CONTINUOUS
10
132.4587913242
20
-74.7180024521
11
132.8877445661
21
-75.2121655784
0
LINE
5
475
100
AcDbEntity
8
0
100
AcDbLine
62
7
6
CONTINUOUS
10
133.7435014720
20
-75.1256573853
11
133.0570369788
21
-74.2633360506
0
LINE
5
476
100
AcDbEntity
8
0
100
AcDbLine
62
7
6
CONTINUOUS
10
126.6384914218
20
-74.7330225427
11
126.2949024949
21
-74.1227212349
0
LINE
5
477
100
AcDbEntity
8
0
100
AcDbLine
62
7
6
CONTINUOUS
10
129.5529309131
20
-76.8751906975
11
129.2093421063
21
-76.2648894780
0
LINE
5
478
100
AcDbEntity
8
0
100
AcDbLine
62
7
6
CONTINUOUS
10
132.8877445661
20
-75.2121655784
11
133.2313333730
21
-75.8224667980
0
LINE
5
479
100
AcDbEntity
8
0
100
AcDbLine
62
7
6
CONTINUOUS
10
125.3530679734
20
-73.9670863728
11
125.7827343959
21
-74.8195306476
0
LINE
5
47A
100
AcDbEntity
8
0
100
AcDbLine
62
7
6
CONTINUOUS
10
126.2949024949
20
-74.1227212349
11
126.2081113384
21
-73.5222967664
0
LINE
5
47B
100
AcDbEntity
8
0
100
AcDbLine
62
7
6
CONTINUOUS
10
128.1800028874
20
-75.1505487341
11
128.3535852004
21
-76.3513976711
0
LINE
5
47C
100
AcDbEntity
8
0
100
AcDbLine
62
7
6
CONTINUOUS
10
129.2093421063
20
-76.2648894780
11
129.1225509498
21
-75.6644650095
0
LINE
5
47D
100
AcDbEntity
8
0
100
AcDbLine
62
7
6
CONTINUOUS
10
137.6349360641
20
-65.4691244270
11
137.7132341838
21
-66.2164455123
0
LINE
5
47E
100
AcDbEntity
8
0
100
AcDbLine
62
7
6
CONTINUOUS
10
134.2606764994
20
-76.9368022256
11
134.1731678345
21
-75.9781016160
0
LINE
5
47F
100
AcDbEntity
8
0
100
AcDbLine
62
7
6
CONTINUOUS
10
138.7593599276
20
-66.4097185691
11
138.7072467342
21
-65.5206667842
0
LINE
5
480
100
AcDbEntity
8
0
100
AcDbLine
62
7
6
CONTINUOUS
10
134.0694581711
20
-96.3597456969
11
154.3200920106
21
-61.2846190013
0
LINE
5
481
100
AcDbEntity
8
0
100
AcDbLine
62
7
6
CONTINUOUS
10
128.0611432862
20
-49.2771134845
11
127.1324876382
21
-49.4981865278
0
LINE
5
482
100
AcDbEntity
8
0
100
AcDbLine
62
7
6
CONTINUOUS
10
126.1227987837
20
-46.0070406587
11
127.0514545454
21
-45.7859675190
0
LINE
5
483
100
AcDbEntity
8
0
100
AcDbLine
62
7
6
CONTINUOUS
10
93.4246240070
20
-55.8488418986
11
88.3918969128
21
-56.3982320963
0
LINE
5
484
100
AcDbEntity
8
0
100
AcDbLine
62
7
6
CONTINUOUS
10
126.7634434165
20
-50.3785732830
11
127.5298865453
21
-50.2951827446
0
LINE
5
485
100
AcDbEntity
8
0
100
AcDbLine
62
7
6
CONTINUOUS
10
88.6830650280
20
-57.3170130126
11
93.2734694814
21
-56.8463752390
0
LINE
5
486
100
AcDbEntity
8
0
100
AcDbLine
62
7
6
CONTINUOUS
10
92.7443850696
20
-53.6175509271
11
93.7682849092
21
-53.5263364018
0
LINE
5
487
100
AcDbEntity
8
0
100
AcDbLine
62
7
6
CONTINUOUS
10
85.0476567399
20
-55.7457084764
11
85.7003439159
21
-55.6988324399
0
LINE
5
488
100
AcDbEntity
8
0
100
AcDbLine
62
7
6
CONTINUOUS
10
85.8299049025
20
-54.8438040953
11
85.1772177265
21
-54.8906801318
0
LINE
5
489
100
AcDbEntity
8
0
100
AcDbLine
62
7
6
CONTINUOUS
10
92.7918609519
20
-52.6549071435
11
92.0938639084
21
-52.5972875018
0
LINE
5
48A
100
AcDbEntity
8
0
100
AcDbLine
62
7
6
CONTINUOUS
10
136.2753581987
20
-63.4590930808
11
135.2554173812
21
-63.1240893244
0
LINE
5
48B
100
AcDbEntity
8
0
100
AcDbLine
62
7
6
CONTINUOUS
10
136.8768481061
20
-63.7167942107
11
136.2753581987
21
-63.4590930808
0
LINE
5
48C
100
AcDbEntity
8
0
100
AcDbLine
62
7
6
CONTINUOUS
10
95.2884832806
20
-40.1540080505
11
95.9202079808
21
-40.4564060662
0
LINE
5
48D
100
AcDbEntity
8
0
100
AcDbLine
62
7
6
CONTINUOUS
10
137.6613788485
20
-64.1548740553
11
136.8768481061
21
-63.7167942107
0
LINE
5
48E
100
AcDbEntity
8
0
100
AcDbLine
62
7
6
CONTINUOUS
10
96.4444585280
20
-39.7364821268
11
95.6756421363
21
-39.2713728443
0
LINE
5
48F
100
AcDbEntity
8
0
100
AcDbLine
62
7
6
CONTINUOUS
10
136.1444311696
20
-64.1677595547
11
137.2950417443
21
-64.9666166175
0
LINE
5
490
100
AcDbEntity
8
0
100
AcDbLine
62
7
6
CONTINUOUS
10
129.4746384472
20
-66.3066337249
11
130.0237579891
21
-66.8477961593
0
LINE
5
491
100
AcDbEntity
8
0
100
AcDbLine
62
7
6
CONTINUOUS
10
130.3900950933
20
-66.0360535971
11
130.0502007734
21
-65.5335457876
0
LINE
5
492
100
AcDbEntity
8
0
100
AcDbLine
62
7
6
CONTINUOUS
10
128.9778899751
20
-65.4820034067
11
129.4746384472
21
-66.3066337249
0
LINE
5
493
100
AcDbEntity
8
0
100
AcDbLine
62
7
6
CONTINUOUS
10
126.6072790895
20
-61.2846190013
11
118.8130504555
21
-47.7846190013
0
LINE
5
494
100
AcDbEntity
8
0
100
AcDbLine
62
7
6
CONTINUOUS
10
134.1731678345
20
-75.9781016160
11
133.7435014720
21
-75.1256573853
0
LINE
5
495
100
AcDbEntity
8
0
100
AcDbLine
62
7
6
CONTINUOUS
10
124.3181661932
20
-48.4840225287
11
124.6222958129
21
-49.1711322926
0
LINE
5
496
100
AcDbEntity
8
0
100
AcDbLine
62
7
6
CONTINUOUS
10
125.5266275118
20
-48.5926063776
11
125.3157650163
21
-48.0153805758
0
LINE
5
497
100
AcDbEntity
8
0
100
AcDbLine
62
7
6
CONTINUOUS
10
128.9330895635
20
-45.7012744971
11
128.7222270680
21
-45.1240486952
0
LINE
5
498
100
AcDbEntity
8
0
100
AcDbLine
62
7
6
CONTINUOUS
10
128.6573146718
20
-46.6915476691
11
128.8681750325
21
-47.2687709559
0
LINE
5
499
100
AcDbEntity
8
0
100
AcDbLine
62
7
6
CONTINUOUS
10
133.2313333730
20
-75.8224667980
11
133.3181245295
21
-76.4228912665
0
LINE
5
49A
100
AcDbEntity
8
0
100
AcDbLine
62
7
6
CONTINUOUS
10
139.2195639138
20
-60.1576309337
11
139.1585712769
21
-59.2949957747
0
LINE
5
49B
100
AcDbEntity
8
0
100
AcDbLine
62
7
6
CONTINUOUS
10
130.0766362518
20
-47.3773548891
11
130.8430793238
21
-47.2939643990
0
LINE
5
49C
100
AcDbEntity
8
0
100
AcDbLine
62
7
6
CONTINUOUS
10
130.7580155516
20
-42.2618152417
11
129.9915724796
21
-42.3452057318
0
LINE
5
49D
100
AcDbEntity
8
0
100
AcDbLine
62
7
6
CONTINUOUS
10
118.8130504555
20
-47.7846190013
11
103.2245931873
21
-47.7846190013
0
LINE
5
49E
100
AcDbEntity
8
0
100
AcDbLine
62
7
6
CONTINUOUS
10
130.7011621523
20
-46.4691721905
11
129.8414498071
21
-46.4426762155
0
LINE
5
49F
100
AcDbEntity
8
0
100
AcDbLine
62
7
6
CONTINUOUS
10
127.5137658487
20
-45.0154647620
11
126.6540556383
21
-44.9889713021
0
LINE
5
4A0
100
AcDbEntity
8
0
100
AcDbLine
62
7
6
CONTINUOUS
10
109.2351801544
20
-42.8349990943
11
110.0963634674
21
-42.9138839518
0
LINE
5
4A1
100
AcDbEntity
8
0
100
AcDbLine
62
7
6
CONTINUOUS
10
112.1057901025
20
-43.0979485190
11
113.2540367099
21
-43.2031285296
0
LINE
5
4A2
100
AcDbEntity
8
0
100
AcDbLine
62
7
6
CONTINUOUS
10
115.2634633451
20
-43.3871930968
11
116.1246466581
21
-43.4660779543
0
LINE
5
4A3
100
AcDbEntity
8
0
100
AcDbLine
62
7
6
CONTINUOUS
10
125.8104638902
20
-50.2421933942
11
126.7634434165
21
-50.3785732830
0
LINE
5
4A4
100
AcDbEntity
8
0
100
AcDbLine
62
7
6
CONTINUOUS
10
127.1324876382
20
-49.4981865278
11
126.4349877554
21
-49.3340080961
0
LINE
5
4A5
100
AcDbEntity
8
0
100
AcDbLine
62
7
6
CONTINUOUS
10
129.7278873777
20
-47.2952669309
11
130.0766362518
21
-47.3773548891
0
LINE
5
4A6
100
AcDbEntity
8
0
100
AcDbLine
62
7
6
CONTINUOUS
10
95.6756421363
20
-39.2713728443
11
94.6863789166
21
-38.9920001069
0
LINE
5
4A7
100
AcDbEntity
8
0
100
AcDbLine
62
7
6
CONTINUOUS
10
135.9140369560
20
-58.6574563042
11
137.4606825718
21
-59.4150450311
0
LINE
5
4A8
100
AcDbEntity
8
0
100
AcDbLine
62
7
6
CONTINUOUS
10
139.1585712769
20
-59.2949957747
11
137.6119262557
21
-58.5374070058
0
LINE
5
4A9
100
AcDbEntity
8
0
100
AcDbLine
62
7
6
CONTINUOUS
10
120.3009832411
20
-45.6073118106
11
121.0586913626
21
-46.0241306223
0
LINE
5
4AA
100
AcDbEntity
8
0
100
AcDbLine
62
7
6
CONTINUOUS
10
126.4349877554
20
-49.3340080961
11
125.8997024698
21
-49.0321497228
0
LINE
5
4AB
100
AcDbEntity
8
0
100
AcDbLine
62
7
6
CONTINUOUS
10
125.1819071825
20
-49.8304460528
11
125.8104638902
21
-50.2421933942
0
LINE
5
4AC
100
AcDbEntity
8
0
100
AcDbLine
62
7
6
CONTINUOUS
10
138.2104983170
20
-64.6960364762
11
137.6613788485
21
-64.1548740553
0
LINE
5
4AD
100
AcDbEntity
8
0
100
AcDbLine
62
7
6
CONTINUOUS
10
124.6222958129
20
-49.1711322926
11
125.1819071825
21
-49.8304460528
0
LINE
5
4AE
100
AcDbEntity
8
0
100
AcDbLine
62
7
6
CONTINUOUS
10
125.8997024698
20
-49.0321497228
11
125.5266275118
21
-48.5926063776
0
LINE
5
4AF
100
AcDbEntity
8
0
100
AcDbLine
62
7
6
CONTINUOUS
10
128.2842397138
20
-46.2520043240
11
128.6573146718
21
-46.6915476691
0
LINE
5
4B0
100
AcDbEntity
8
0
100
AcDbLine
62
7
6
CONTINUOUS
10
129.3061645214
20
-46.1408178422
11
128.9330895635
21
-45.7012744971
0
LINE
5
4B1
100
AcDbEntity
8
0
100
AcDbLine
62
7
6
CONTINUOUS
10
137.2950417443
20
-64.9666166175
11
137.6349360641
21
-65.4691244270
0
LINE
5
4B2
100
AcDbEntity
8
0
100
AcDbLine
62
7
6
CONTINUOUS
10
138.7072467342
20
-65.5206667842
11
138.2104983170
21
-64.6960364762
0
LINE
5
4B3
100
AcDbEntity
8
0
100
AcDbLine
62
7
6
CONTINUOUS
10
133.0167563207
20
-43.9365956171
11
132.7126266867
21
-43.2494858652
0
LINE
5
4B4
100
AcDbEntity
8
0
100
AcDbLine
62
7
6
CONTINUOUS
10
131.9015643746
20
-43.9378981489
11
132.1124247354
21
-44.5151214357
0
LINE
5
4B5
100
AcDbEntity
8
0
100
AcDbLine
62
7
6
CONTINUOUS
10
94.6863789166
20
-38.9920001069
11
93.9712998481
21
-39.0380508147
0
LINE
5
4B6
100
AcDbEntity
8
0
100
AcDbLine
62
7
6
CONTINUOUS
10
130.1334917858
20
-43.1700004555
11
130.9932019963
21
-43.1964939153
0
LINE
5
4B7
100
AcDbEntity
8
0
100
AcDbLine
62
7
6
CONTINUOUS
10
94.6836276260
20
-40.1071904857
11
95.2884832806
21
-40.1540080505
0
LINE
5
4B8
100
AcDbEntity
8
0
100
AcDbLine
62
7
6
CONTINUOUS
10
131.7109971700
20
-42.3981976817
11
130.7580155516
21
-42.2618152417
0
LINE
5
4B9
100
AcDbEntity
8
0
100
AcDbLine
62
7
6
CONTINUOUS
10
127.0514545454
20
-45.7859675190
11
127.7489522934
21
-45.9501434356
0
LINE
5
4BA
100
AcDbEntity
8
0
100
AcDbLine
62
7
6
CONTINUOUS
10
127.8625168575
20
-45.0975552353
11
127.5137658487
21
-45.0154647620
0
LINE
5
4BB
100
AcDbEntity
8
0
100
AcDbLine
62
7
6
CONTINUOUS
10
118.7058632091
20
-41.3301471924
11
121.7366956951
21
-42.9974224396
0
LINE
5
4BC
100
AcDbEntity
8
0
100
AcDbLine
62
7
6
CONTINUOUS
10
122.4944038166
20
-43.4142412514
11
123.7572516492
21
-44.1089398011
0
LINE
5
4BD
100
AcDbEntity
8
0
100
AcDbLine
62
7
6
CONTINUOUS
10
124.3725570687
20
-42.9904156357
11
123.1097092361
21
-42.2957170861
0
LINE
5
4BE
100
AcDbEntity
8
0
100
AcDbLine
62
7
6
CONTINUOUS
10
122.3520011146
20
-41.8788982743
11
120.2051624005
21
-40.6979121709
0
LINE
5
4BF
100
AcDbEntity
8
0
100
AcDbLine
62
7
6
CONTINUOUS
10
127.7489522934
20
-45.9501434356
11
128.2842397138
21
-46.2520043240
0
LINE
5
4C0
100
AcDbEntity
8
0
100
AcDbLine
62
7
6
CONTINUOUS
10
129.8414498071
20
-46.4426762155
11
129.3061645214
21
-46.1408178422
0
LINE
5
4C1
100
AcDbEntity
8
0
100
AcDbLine
62
7
6
CONTINUOUS
10
130.9932019963
20
-43.1964939153
11
131.5284894167
21
-43.4983548037
0
LINE
5
4C2
100
AcDbEntity
8
0
100
AcDbLine
62
7
6
CONTINUOUS
10
132.3395517288
20
-42.8099425201
11
131.7109971700
21
-42.3981976817
0
LINE
5
4C3
100
AcDbEntity
8
0
100
AcDbLine
62
7
6
CONTINUOUS
10
131.5284894167
20
-43.4983548037
11
131.9015643746
21
-43.9378981489
0
LINE
5
4C4
100
AcDbEntity
8
0
100
AcDbLine
62
7
6
CONTINUOUS
10
132.7126266867
20
-43.2494858652
11
132.3395517288
21
-42.8099425201
0
LINE
5
4C5
100
AcDbEntity
8
0
100
AcDbLine
62
7
6
CONTINUOUS
10
158.5188218214
20
-56.7846190013
11
158.5188218214
21
-97.2462375093
0
LINE
5
4C6
100
AcDbEntity
8
0
100
AcDbLine
62
7
6
CONTINUOUS
10
158.5188218214
20
-131.3230004933
11
158.5188218214
21
-146.7846190013
0
LINE
5
4C7
100
AcDbEntity
8
0
100
AcDbLine
62
7
6
CONTINUOUS
10
117.0368331407
20
-33.5077690707
11
115.7450581712
21
-33.3894417844
0
LINE
5
4C8
100
AcDbEntity
8
0
100
AcDbLine
62
7
6
CONTINUOUS
10
111.4391416064
20
-32.9950174970
11
110.1473666370
21
-32.8766902108
0
LINE
5
4C9
100
AcDbEntity
8
0
100
AcDbLine
62
7
6
CONTINUOUS
10
125.8785832647
20
-37.2623589949
11
125.1208751432
21
-36.8455401831
0
LINE
5
4CA
100
AcDbEntity
8
0
100
AcDbLine
62
7
6
CONTINUOUS
10
154.3200920106
20
-61.2846190013
11
132.6694569160
21
-23.7846190013
0
LINE
5
4CB
100
AcDbEntity
8
0
100
AcDbLine
62
7
6
CONTINUOUS
10
132.6694569160
20
-23.7846190013
11
89.3681867268
21
-23.7846190013
0
LINE
5
4CC
100
AcDbEntity
8
0
100
AcDbLine
62
7
6
CONTINUOUS
10
184.8234134265
20
-102.5346190013
11
185.4980179620
21
-103.7030683317
0
LINE
5
4CD
100
AcDbEntity
8
0
100
AcDbLine
62
7
6
CONTINUOUS
10
189.0188218214
20
-115.8183324344
11
189.0188218214
21
-112.7509055683
0
LINE
5
4CE
100
AcDbEntity
8
0
100
AcDbLine
62
7
6
CONTINUOUS
10
184.8234134265
20
-126.0346190013
11
185.4978476779
21
-124.8664646116
0
ARC
5
4CF
100
AcDbEntity
8
0
100
AcDbCircle
62
7
6
CONTINUOUS
10
156.0188218214
20
96.9833385899
40
2.5000000000
100
AcDbArc
50
270.0000000000
51
360.0000000000
0
ARC
5
4D0
100
AcDbEntity
8
0
100
AcDbCircle
62
7
6
CONTINUOUS
10
156.0188218214
20
161.9833385899
40
2.5000000000
100
AcDbArc
50
0.0000000000
51
90.0000000000
0
ARC
5
4D1
100
AcDbEntity
8
0
100
AcDbCircle
62
7
6
CONTINUOUS
10
66.0188218214
20
96.9833385899
40
2.5000000000
100
AcDbArc
50
180.0000000000
51
270.0000000000
0
ARC
5
4D2
100
AcDbEntity
8
0
100
AcDbCircle
62
7
6
CONTINUOUS
10
66.0188218214
20
161.9833385899
40
2.5000000000
100
AcDbArc
50
90.0000000000
51
180.0000000000
0
ARC
5
4D3
100
AcDbEntity
8
0
100
AcDbCircle
62
7
6
CONTINUOUS
10
149.0188218214
20
159.4833385899
40
12.0000000000
100
AcDbArc
50
322.3439327476
51
360.0000000000
0
ARC
5
4D4
100
AcDbEntity
8
0
100
AcDbCircle
62
7
6
CONTINUOUS
10
149.0188218214
20
282.7327166955
40
12.0000000000
100
AcDbArc
50
0.0000000000
51
52.9023981987
0
ARC
5
4D5
100
AcDbEntity
8
0
100
AcDbCircle
62
7
6
CONTINUOUS
10
69.0188218214
20
294.6202841215
40
36.0000000000
100
AcDbArc
50
124.0557977426
51
180.0000000000
0
ARC
5
4D6
100
AcDbEntity
8
0
100
AcDbCircle
62
7
6
CONTINUOUS
10
63.0188218214
20
141.4833385899
40
30.0000000000
100
AcDbArc
50
180.0000000000
51
270.0000000000
0
ARC
5
4D7
100
AcDbEntity
8
0
100
AcDbCircle
62
7
6
CONTINUOUS
10
111.0188218214
20
232.4833385899
40
75.0000000000
100
AcDbArc
50
52.9023981987
51
127.0976018013
0
ARC
5
4D8
100
AcDbEntity
8
0
100
AcDbCircle
62
7
6
CONTINUOUS
10
73.0188218214
20
282.7327166955
40
12.0000000000
100
AcDbArc
50
127.0976018013
51
180.0000000000
0
ARC
5
4D9
100
AcDbEntity
8
0
100
AcDbCircle
62
7
6
CONTINUOUS
10
73.0188218214
20
159.4833385899
40
12.0000000000
100
AcDbArc
50
180.0000000000
51
217.6560672524
0
ARC
5
4DA
100
AcDbEntity
8
0
100
AcDbCircle
62
7
6
CONTINUOUS
10
111.0188218214
20
232.4833385899
40
111.0000000000
100
AcDbArc
50
55.9442022574
51
124.0557977426
0
ARC
5
4DB
100
AcDbEntity
8
0
100
AcDbCircle
62
7
6
CONTINUOUS
10
153.0188218214
20
294.6202841215
40
36.0000000000
100
AcDbArc
50
0.0000000000
51
55.9442022574
0
ARC
5
4DC
100
AcDbEntity
8
0
100
AcDbCircle
62
7
6
CONTINUOUS
10
159.0188218214
20
141.4833385899
40
30.0000000000
100
AcDbArc
50
270.0000000000
51
360.0000000000
0
ARC
5
4DD
100
AcDbEntity
8
0
100
AcDbCircle
62
7
6
CONTINUOUS
10
330.6779521376
20
325.4833385899
40
18.0000000000
100
AcDbArc
50
180.0000000000
51
186.0000000000
0
ARC
5
4DE
100
AcDbEntity
8
0
100
AcDbCircle
62
7
6
CONTINUOUS
10
344.8979521376
20
192.1277059183
40
1.2200000000
100
AcDbArc
50
180.0000000000
51
223.6620093383
0
ARC
5
4DF
100
AcDbEntity
8
0
100
AcDbCircle
62
7
6
CONTINUOUS
10
320.3379521376
20
257.6787009789
40
3.6600000000
100
AcDbArc
50
180.0000000000
51
217.3370016598
0
ARC
5
4E0
100
AcDbEntity
8
0
100
AcDbCircle
62
7
6
CONTINUOUS
10
316.4579521376
20
254.7189712615
40
1.2200000000
100
AcDbArc
50
0.0000000000
51
37.3370016598
0
ARC
5
4E1
100
AcDbEntity
8
0
100
AcDbCircle
62
7
6
CONTINUOUS
10
341.0179458240
20
257.6787200805
40
3.6600124537
100
AcDbArc
50
322.6628205324
51
359.9997009716
0
ARC
5
4E2
100
AcDbEntity
8
0
100
AcDbCircle
62
7
6
CONTINUOUS
10
316.4579521376
20
192.1277059183
40
1.2200000000
100
AcDbArc
50
316.3379906602
51
360.0000000000
0
ARC
5
4E3
100
AcDbEntity
8
0
100
AcDbCircle
62
7
6
CONTINUOUS
10
344.8979521376
20
254.7189712615
40
1.2200000000
100
AcDbArc
50
142.6629983402
51
180.0000000000
0
ARC
5
4E4
100
AcDbEntity
8
0
100
AcDbCircle
62
7
6
CONTINUOUS
10
330.6779521376
20
325.4833385899
40
18.0000000000
100
AcDbArc
50
354.0000000000
51
360.0000000000
0
ARC
5
4E5
100
AcDbEntity
8
0
100
AcDbCircle
62
7
6
CONTINUOUS
10
228.1779521376
20
161.9833385899
40
2.5000000000
100
AcDbArc
50
90.0000000000
51
180.0000000000
0
ARC
5
4E6
100
AcDbEntity
8
0
100
AcDbCircle
62
7
6
CONTINUOUS
10
228.1779521376
20
96.9833385899
40
2.5000000000
100
AcDbArc
50
180.0000000000
51
270.0000000000
0
ARC
5
4E7
100
AcDbEntity
8
0
100
AcDbCircle
62
7
6
CONTINUOUS
10
330.6779521376
20
129.4833385899
40
35.0000000000
100
AcDbArc
50
269.9999999996
51
65.7883881643
0
ARC
5
4E8
100
AcDbEntity
8
0
100
AcDbCircle
62
7
6
CONTINUOUS
10
330.6779521376
20
129.4833385899
40
20.0000000000
100
AcDbArc
50
147.0495560320
51
32.9504439680
0
ARC
5
4E9
100
AcDbEntity
8
0
100
AcDbCircle
62
7
6
CONTINUOUS
10
111.0188218214
20
-61.2846190013
40
37.5000000000
100
AcDbArc
50
290.9855783825
51
249.0144216258
0
ARC
5
4EA
100
AcDbEntity
8
0
100
AcDbCircle
62
7
6
CONTINUOUS
10
111.0188218214
20
-61.2846190013
40
42.5000000000
100
AcDbArc
50
304.3164632110
51
358.0114971087
0
ARC
5
4EB
100
AcDbEntity
8
0
100
AcDbCircle
62
7
6
CONTINUOUS
10
111.0188218214
20
-61.2846190013
40
42.5000000000
100
AcDbArc
50
181.9885028913
51
235.6835367890
0
ARC
5
4EC
100
AcDbEntity
8
0
100
AcDbCircle
62
7
6
CONTINUOUS
10
111.0188218214
20
-61.2846190013
40
42.5000000000
100
AcDbArc
50
1.9885028913
51
58.0166873751
0
ARC
5
4ED
100
AcDbEntity
8
0
100
AcDbCircle
62
7
6
CONTINUOUS
10
111.0188218214
20
-61.2846190013
40
42.5000000000
100
AcDbArc
50
61.9833126249
51
118.0166873751
0
ARC
5
4EE
100
AcDbEntity
8
0
100
AcDbCircle
62
7
6
CONTINUOUS
10
111.0188218214
20
-61.2846190013
40
42.5000000000
100
AcDbArc
50
121.9833126249
51
178.0114971087
0
ARC
5
4EF
100
AcDbEntity
8
0
100
AcDbCircle
62
7
6
CONTINUOUS
10
39.3792937257
20
-103.7846190013
40
2.5000000000
100
AcDbArc
50
90.0000000000
51
150.0000000000
0
ARC
5
4F0
100
AcDbEntity
8
0
100
AcDbCircle
62
7
6
CONTINUOUS
10
182.6583499171
20
-124.7846190013
40
2.5000000000
100
AcDbArc
50
270.0000000000
51
330.0000000000
0
ARC
5
4F1
100
AcDbEntity
8
0
100
AcDbCircle
62
7
6
CONTINUOUS
10
39.3792937257
20
-124.7846190013
40
2.5000000000
100
AcDbArc
50
210.0000000000
51
270.0000000000
0
ARC
5
4F2
100
AcDbEntity
8
0
100
AcDbCircle
62
7
6
CONTINUOUS
10
182.6583499171
20
-103.7846190013
40
2.5000000000
100
AcDbArc
50
30.0000000000
51
90.0000000000
0
ARC
5
4F3
100
AcDbEntity
8
0
100
AcDbCircle
62
7
6
CONTINUOUS
10
66.0188218214
20
-146.7846190013
40
2.5000000000
100
AcDbArc
50
180.0000000000
51
270.0000000000
0
ARC
5
4F4
100
AcDbEntity
8
0
100
AcDbCircle
62
7
6
CONTINUOUS
10
156.0188218214
20
-146.7846190013
40
2.5000000000
100
AcDbArc
50
270.0000000000
51
360.0000000000
0
ARC
5
4F5
100
AcDbEntity
8
0
100
AcDbCircle
62
7
6
CONTINUOUS
10
111.0188218214
20
-56.7846190013
40
47.5000000000
100
AcDbArc
50
0.0000000000
51
180.0000000000
0
ARC
5
4F6
100
AcDbEntity
8
0
100
AcDbCircle
62
7
6
CONTINUOUS
10
111.0188218214
20
-56.7846190013
40
48.0000000000
100
AcDbArc
50
71.1869191451
51
90.5383521011
0
ARC
5
4F7
100
AcDbEntity
8
0
100
AcDbCircle
62
7
6
CONTINUOUS
10
111.0188218214
20
-56.7846190013
40
48.0000000000
100
AcDbArc
50
92.3499731128
51
113.3179558257
0
SPLINE
5
4F8
100
AcDbEntity
8
0
100
AcDbSpline
62
7
6
CONTINUOUS
70
0
71
3
72
13
73
9
74
7
42
0.0000001000
43
0.0000001000
44
0.0000000001
40
0.0000000000
40
0.0000000000
40
0.0000000000
40
0.0000000000
40
0.1874936750
40
0.3623670480
40
0.5285619847
40
0.6888136759
40
0.8453172166
40
1.0000000000
40
1.0000000000
40
1.0000000000
40
1.0000000000
10
67.7175516322
20
199.6339736845
30
0.0000000000
10
68.3379297832
20
199.9921491770
30
0.0000000000
10
69.5566140203
20
200.6513118274
30
0.0000000000
10
71.3951076654
20
201.4909713444
30
0.0000000000
10
73.1961008305
20
202.1494371038
30
0.0000000000
10
74.9812930629
20
202.6270263262
30
0.0000000000
10
76.7619557954
20
202.9179576047
30
0.0000000000
10
77.9518777018
20
202.9833385899
30
0.0000000000
10
78.5428691807
20
202.9833385899
30
0.0000000000
11
67.7175516322
21
199.6339736845
31
0.0000000000
11
69.6102306991
21
200.6519101030
31
0.0000000000
11
71.4355339410
21
201.4800909520
31
0.0000000000
11
73.2262454551
21
202.1297818431
31
0.0000000000
11
75.0016869605
21
202.6005907847
31
0.0000000000
11
76.7725115946
21
202.8870454423
31
0.0000000000
11
78.5428691807
21
202.9833385899
31
0.0000000000
0
SPLINE
5
4F9
100
AcDbEntity
8
0
100
AcDbSpline
62
7
6
CONTINUOUS
70
0
71
3
72
13
73
9
74
7
42
0.0000001000
43
0.0000001000
44
0.0000000001
40
0.0000000000
40
0.0000000000
40
0.0000000000
40
0.0000000000
40
0.1547086743
40
0.3112316215
40
0.4714876634
40
0.6376675400
40
0.8125050540
40
1.0000000000
40
1.0000000000
40
1.0000000000
40
1.0000000000
10
78.5428691807
20
202.9833385899
30
0.0000000000
10
79.1339595689
20
202.9833385899
30
0.0000000000
10
80.3240549922
20
202.9179369776
30
0.0000000000
10
82.1048988651
20
202.6269323372
30
0.0000000000
10
83.8901096993
20
202.1492844218
30
0.0000000000
10
85.6909212700
20
201.4908426638
30
0.0000000000
10
87.5292362732
20
200.6512511532
30
0.0000000000
10
88.7478043821
20
199.9921515982
30
0.0000000000
10
89.3681867268
20
199.6339736845
30
0.0000000000
11
78.5428691807
21
202.9833385899
31
0.0000000000
11
80.3135221891
21
202.8870133734
31
0.0000000000
11
82.0845596841
21
202.6004818556
31
0.0000000000
11
83.8600362422
21
202.1296106831
31
0.0000000000
11
85.6505716546
21
201.4799406456
31
0.0000000000
11
87.4754946417
21
200.6519165682
31
0.0000000000
11
89.3681867268
21
199.6339736845
31
0.0000000000
0
SPLINE
5
4FA
100
AcDbEntity
8
0
100
AcDbSpline
62
7
6
CONTINUOUS
70
0
71
3
72
13
73
9
74
7
42
0.0000001000
43
0.0000001000
44
0.0000000001
40
0.0000000000
40
0.0000000000
40
0.0000000000
40
0.0000000000
40
0.1773238618
40
0.3473010077
40
0.5128777268
40
0.6761052974
40
0.8382212952
40
1.0000000000
40
1.0000000000
40
1.0000000000
40
1.0000000000
10
89.3681867268
20
199.6339736845
30
0.0000000000
10
90.6164265790
20
199.9943094919
30
0.0000000000
10
93.0736747151
20
200.6579299028
30
0.0000000000
10
96.7382865686
20
201.4939679947
30
0.0000000000
10
100.3345070844
20
202.1508667397
30
0.0000000000
10
103.9011369909
20
202.6276355192
30
0.0000000000
10
107.4599068165
20
202.9181495595
30
0.0000000000
10
109.8335083152
20
202.9833385873
30
0.0000000000
10
111.0188219236
20
202.9833385928
30
0.0000000000
11
89.3681867268
21
199.6339736845
31
0.0000000000
11
93.1319856948
21
200.6465540190
31
0.0000000000
11
96.7753094094
21
201.4741834880
31
0.0000000000
11
100.3560452703
21
202.1251250261
31
0.0000000000
11
103.9125302337
21
202.5980229061
31
0.0000000000
11
107.4642056807
21
202.8862895480
31
0.0000000000
11
111.0188219236
21
202.9833385928
31
0.0000000000
0
SPLINE
5
4FB
100
AcDbEntity
8
0
100
AcDbSpline
62
7
6
CONTINUOUS
70
0
71
3
72
13
73
9
74
7
42
0.0000001000
43
0.0000001000
44
0.0000000001
40
0.0000000000
40
0.0000000000
40
0.0000000000
40
0.0000000000
40
0.1622117553
40
0.3247089044
40
0.4881323821
40
0.6537038210
40
0.8233367069
40
1.0000000000
40
1.0000000000
40
1.0000000000
40
1.0000000000
10
111.0188219236
20
202.9833385928
30
0.0000000000
10
112.2073082612
20
202.9833385928
30
0.0000000000
10
114.5868789194
20
202.9178094943
30
0.0000000000
10
118.1529749261
20
202.6259603003
30
0.0000000000
10
121.7236272691
20
202.1476395480
30
0.0000000000
10
125.3185552082
20
201.4899447951
30
0.0000000000
10
128.9757766964
20
200.6548231025
30
0.0000000000
10
131.4258671529
20
199.9929671268
30
0.0000000000
10
132.6694569160
20
199.6339736845
30
0.0000000000
11
111.0188219236
21
202.9833385928
31
0.0000000000
11
114.5829457302
21
202.8857708527
31
0.0000000000
11
118.1429126975
21
202.5961072511
31
0.0000000000
11
121.7035348249
21
202.1216578554
31
0.0000000000
11
125.2839754294
21
201.4697440228
31
0.0000000000
11
128.9197514053
21
200.6430498454
31
0.0000000000
11
132.6694569160
21
199.6339736845
31
0.0000000000
0
SPLINE
5
4FC
100
AcDbEntity
8
0
100
AcDbSpline
62
7
6
CONTINUOUS
70
0
71
3
72
13
73
9
74
7
42
0.0000001000
43
0.0000001000
44
0.0000000001
40
0.0000000000
40
0.0000000000
40
0.0000000000
40
0.0000000000
40
0.1874936750
40
0.3623670481
40
0.5285619848
40
0.6888136759
40
0.8453172166
40
1.0000000000
40
1.0000000000
40
1.0000000000
40
1.0000000000
10
132.6694569160
20
199.6339736845
30
0.0000000000
10
133.2898350668
20
199.9921491769
30
0.0000000000
10
134.5085193036
20
200.6513118271
30
0.0000000000
10
136.3470129481
20
201.4909713439
30
0.0000000000
10
138.1480061126
20
202.1494371033
30
0.0000000000
10
139.9331983445
20
202.6270263257
30
0.0000000000
10
141.7138610761
20
202.9179576044
30
0.0000000000
10
142.9037829819
20
202.9833385898
30
0.0000000000
10
143.4947744603
20
202.9833385899
30
0.0000000000
11
132.6694569160
21
199.6339736845
31
0.0000000000
11
134.5621359824
21
200.6519101027
31
0.0000000000
11
136.3874392237
21
201.4800909515
31
0.0000000000
11
138.1781507372
21
202.1297818425
31
0.0000000000
11
139.9535922421
21
202.6005907842
31
0.0000000000
11
141.7244168756
21
202.8870454420
31
0.0000000000
11
143.4947744603
21
202.9833385899
31
0.0000000000
0
SPLINE
5
4FD
100
AcDbEntity
8
0
100
AcDbSpline
62
7
6
CONTINUOUS
70
0
71
3
72
13
73
9
74
7
42
0.0000001000
43
0.0000001000
44
0.0000000001
40
0.0000000000
40
0.0000000000
40
0.0000000000
40
0.0000000000
40
0.1547086743
40
0.3112316215
40
0.4714876634
40
0.6376675400
40
0.8125050540
40
1.0000000000
40
1.0000000000
40
1.0000000000
40
1.0000000000
10
143.4947744603
20
202.9833385899
30
0.0000000000
10
144.0858648488
20
202.9833385900
30
0.0000000000
10
145.2759602726
20
202.9179369781
30
0.0000000000
10
147.0568041461
20
202.6269323378
30
0.0000000000
10
148.8420149810
20
202.1492844225
30
0.0000000000
10
150.6428265524
20
201.4908426644
30
0.0000000000
10
152.4811415563
20
200.6512511535
30
0.0000000000
10
153.6997096657
20
199.9921515983
30
0.0000000000
10
154.3200920106
20
199.6339736845
30
0.0000000000
11
143.4947744603
21
202.9833385899
31
0.0000000000
11
145.2654274694
21
202.8870133737
31
0.0000000000
11
147.0364649651
21
202.6004818562
31
0.0000000000
11
148.8119415239
21
202.1296106838
31
0.0000000000
11
150.6024769370
21
201.4799406462
31
0.0000000000
11
152.4273999248
21
200.6519165685
31
0.0000000000
11
154.3200920106
21
199.6339736845
31
0.0000000000
0
SPLINE
5
4FE
100
AcDbEntity
8
DEFAULT_2
100
AcDbSpline
62
8
6
HIDDEN
70
0
71
3
72
18
73
14
74
12
42
0.0000001000
43
0.0000001000
44
0.0000000001
40
0.0000000000
40
0.0000000000
40
0.0000000000
40
0.0000000000
40
0.0908804325
40
0.1818183483
40
0.2728273895
40
0.3636823434
40
0.4546819978
40
0.5455053388
40
0.6364976095
40
0.7273354887
40
0.8182903795
40
0.9091848707
40
1.0000000000
40
1.0000000000
40
1.0000000000
40
1.0000000000
10
328.8781123181
20
307.4833384935
30
0.0000000000
10
328.1679377187
20
307.4833384783
30
0.0000000000
10
326.7453259751
20
307.5780157415
30
0.0000000000
10
324.6498054811
20
308.0020546354
30
0.0000000000
10
322.6290435028
20
308.7009150016
30
0.0000000000
10
320.7188517683
20
309.6624801965
30
0.0000000000
10
318.9546977324
20
310.8688092654
30
0.0000000000
10
317.3659329785
20
312.2997936788
30
0.0000000000
10
315.9824243841
20
313.9284563285
30
0.0000000000
10
314.8272603838
20
315.7274510586
30
0.0000000000
10
313.9217365875
20
317.6634325897
30
0.0000000000
10
313.2815543570
20
319.7019862513
30
0.0000000000
10
313.0388728114
20
321.1060690039
30
0.0000000000
10
312.9646926823
20
321.8118456825
30
0.0000000000
11
328.8781123181
21
307.4833384935
31
0.0000000000
11
326.7522989803
21
307.6249340721
31
0.0000000000
11
324.6627745961
21
308.0477383472
31
0.0000000000
11
322.6464334800
21
308.7451308306
31
0.0000000000
11
320.7439585083
21
309.7028238248
31
0.0000000000
11
318.9829849364
21
310.9069919638
31
0.0000000000
11
317.4009145652
21
312.3319424120
31
0.0000000000
11
316.0198689150
21
313.9576801568
31
0.0000000000
11
314.8692404164
21
315.7495886243
31
0.0000000000
11
313.9657941692
21
317.6810019403
31
0.0000000000
11
313.3273956934
21
319.7139759940
31
0.0000000000
11
312.9646926823
21
321.8118456825
31
0.0000000000
0
SPLINE
5
4FF
100
AcDbEntity
8
DEFAULT_2
100
AcDbSpline
62
8
6
HIDDEN
70
0
71
3
72
18
73
14
74
12
42
0.0000001000
43
0.0000001000
44
0.0000000001
40
0.0000000000
40
0.0000000000
40
0.0000000000
40
0.0000000000
40
0.0908356366
40
0.1817758528
40
0.2727530483
40
0.3636101571
40
0.4545883506
40
0.5454117625
40
0.6364077860
40
0.7272445877
40
0.8182229320
40
0.9091176753
40
1.0000000000
40
1.0000000000
40
1.0000000000
40
1.0000000000
10
348.3912115928
20
321.8118456825
30
0.0000000000
10
348.3170147129
20
321.1059096297
30
0.0000000000
10
348.0742233963
20
319.7013168758
30
0.0000000000
10
347.4337014292
20
317.6621355106
30
0.0000000000
10
346.5276666789
20
315.7256349732
30
0.0000000000
10
345.3721252079
20
313.9266231036
30
0.0000000000
10
343.9883506547
20
312.2981360712
30
0.0000000000
10
342.3994913437
20
310.8674627643
30
0.0000000000
10
340.6353151340
20
309.6614684695
30
0.0000000000
10
338.7253786333
20
308.7003168549
30
0.0000000000
10
336.7052440611
20
308.0018616378
30
0.0000000000
10
334.6102707289
20
307.5779963776
30
0.0000000000
10
333.1879813425
20
307.4833384783
30
0.0000000000
10
332.4777919570
20
307.4833384935
30
0.0000000000
11
348.3912115928
21
321.8118456825
31
0.0000000000
11
348.0283951252
21
319.7135077213
31
0.0000000000
11
347.3895460565
21
317.6795516186
31
0.0000000000
11
346.4856587705
21
315.7477673501
31
0.0000000000
11
345.3345282933
21
313.9556455032
31
0.0000000000
11
343.9534557125
21
312.3303636758
31
0.0000000000
11
342.3711878309
21
310.9056300624
31
0.0000000000
11
340.6101218269
21
309.7017479289
31
0.0000000000
11
338.7079129450
21
308.7444727948
31
0.0000000000
11
336.6921939643
21
308.0474831572
31
0.0000000000
11
334.6036493585
21
307.6249399691
31
0.0000000000
11
332.4777919570
21
307.4833384935
31
0.0000000000
0
SPLINE
5
500
100
AcDbEntity
8
0
100
AcDbSpline
62
7
6
CONTINUOUS
70
0
71
3
72
8
73
4
74
2
42
0.0000001000
43
0.0000001000
44
0.0000000001
40
0.0000000000
40
0.0000000000
40
0.0000000000
40
0.0000000000
40
1.0000000000
40
1.0000000000
40
1.0000000000
40
1.0000000000
10
345.0305775678
20
188.7554269145
30
0.0000000000
10
345.0305738967
20
188.7871948967
30
0.0000000000
10
345.0301576031
20
188.8189697324
30
0.0000000000
10
345.0293288405
20
188.8507387144
30
0.0000000000
11
345.0305775678
21
188.7554269145
31
0.0000000000
11
345.0293288405
21
188.8507387144
31
0.0000000000
0
SPLINE
5
501
100
AcDbEntity
8
0
100
AcDbSpline
62
7
6
CONTINUOUS
70
0
71
3
72
11
73
7
74
5
42
0.0000001000
43
0.0000001000
44
0.0000000001
40
0.0000000000
40
0.0000000000
40
0.0000000000
40
0.0000000000
40
0.1728714962
40
0.5040328438
40
0.8351838110
40
1.0000000000
40
1.0000000000
40
1.0000000000
40
1.0000000000
10
345.0293288405
20
188.8507387144
30
0.0000000000
10
345.0258514251
20
188.9840385904
30
0.0000000000
10
344.9945396348
20
189.3723939460
30
0.0000000000
10
344.8405246199
20
190.0012254093
30
0.0000000000
10
344.5621002871
20
190.5787917293
30
0.0000000000
10
344.3436453599
20
190.8937717672
30
0.0000000000
10
344.2658720986
20
190.9943483636
30
0.0000000000
11
345.0293288405
21
188.8507387144
31
0.0000000000
11
344.9971225535
21
189.2493904693
31
0.0000000000
11
344.8153197656
21
189.9921845954
31
0.0000000000
11
344.4831483080
21
190.6809667303
31
0.0000000000
11
344.2658720986
21
190.9943483636
31
0.0000000000
0
SPLINE
5
502
100
AcDbEntity
8
0
100
AcDbSpline
62
7
6
CONTINUOUS
70
0
71
3
72
8
73
4
74
2
42
0.0000001000
43
0.0000001000
44
0.0000000001
40
0.0000000000
40
0.0000000000
40
0.0000000000
40
0.0000000000
40
1.0000000000
40
1.0000000000
40
1.0000000000
40
1.0000000000
10
344.2658720986
20
190.9943483636
30
0.0000000000
10
344.1876809992
20
191.0954653093
30
0.0000000000
10
344.1042562008
20
191.1924428598
30
0.0000000000
10
344.0161158010
20
191.2846367669
30
0.0000000000
11
344.2658720986
21
190.9943483636
31
0.0000000000
11
344.0161158010
21
191.2846367669
31
0.0000000000
0
SPLINE
5
503
100
AcDbEntity
8
0
100
AcDbSpline
62
7
6
CONTINUOUS
70
0
71
3
72
8
73
4
74
2
42
0.0000001000
43
0.0000001000
44
0.0000000001
40
0.0000000000
40
0.0000000000
40
0.0000000000
40
0.0000000000
40
1.0000000000
40
1.0000000000
40
1.0000000000
40
1.0000000000
10
348.6779655907
20
134.4825474520
30
0.0000000000
10
348.6779618410
20
134.4860358551
30
0.0000000000
10
348.6779568029
20
134.4896594254
30
0.0000000000
10
348.6779503790
20
134.4933994887
30
0.0000000000
11
348.6779655907
21
134.4825474520
31
0.0000000000
11
348.6779503790
21
134.4933994887
31
0.0000000000
0
SPLINE
5
504
100
AcDbEntity
8
0
100
AcDbSpline
62
7
6
CONTINUOUS
70
0
71
3
72
8
73
4
74
2
42
0.0000001000
43
0.0000001000
44
0.0000000001
40
0.0000000000
40
0.0000000000
40
0.0000000000
40
0.0000000000
40
1.0000000000
40
1.0000000000
40
1.0000000000
40
1.0000000000
10
312.7067690303
20
127.0207381359
30
0.0000000000
10
312.6973014415
20
127.1811528507
30
0.0000000000
10
312.6901068406
20
127.3417123462
30
0.0000000000
10
312.6853334243
20
127.5023429102
30
0.0000000000
11
312.7067690303
21
127.0207381359
31
0.0000000000
11
312.6853334243
21
127.5023429102
31
0.0000000000
0
SPLINE
5
505
100
AcDbEntity
8
0
100
AcDbSpline
62
7
6
CONTINUOUS
70
0
71
3
72
8
73
4
74
2
42
0.0000001000
43
0.0000001000
44
0.0000000001
40
0.0000000000
40
0.0000000000
40
0.0000000000
40
0.0000000000
40
1.0000000000
40
1.0000000000
40
1.0000000000
40
1.0000000000
10
312.6853334243
20
127.5023429102
30
0.0000000000
10
312.6804425209
20
127.6669270413
30
0.0000000000
10
312.6780934530
20
127.8315857825
30
0.0000000000
10
312.6779521376
20
127.9962347048
30
0.0000000000
11
312.6853334243
21
127.5023429102
31
0.0000000000
11
312.6779521376
21
127.9962347048
31
0.0000000000
0
SPLINE
5
506
100
AcDbEntity
8
0
100
AcDbSpline
62
7
6
CONTINUOUS
70
0
71
3
72
8
73
4
74
2
42
0.0000001000
43
0.0000001000
44
0.0000000001
40
0.0000000000
40
0.0000000000
40
0.0000000000
40
0.0000000000
40
1.0000000000
40
1.0000000000
40
1.0000000000
40
1.0000000000
10
348.6764242660
20
326.7895181499
30
0.0000000000
10
348.6706988015
20
327.2313664685
30
0.0000000000
10
348.6474909105
20
327.6733826317
30
0.0000000000
10
348.6069401480
20
328.1139478789
30
0.0000000000
11
348.6764242660
21
326.7895181499
31
0.0000000000
11
348.6069401480
21
328.1139478789
31
0.0000000000
0
SPLINE
5
507
100
AcDbEntity
8
0
100
AcDbSpline
62
7
6
CONTINUOUS
70
0
71
3
72
8
73
4
74
2
42
0.0000001000
43
0.0000001000
44
0.0000000001
40
0.0000000000
40
0.0000000000
40
0.0000000000
40
0.0000000000
40
1.0000000000
40
1.0000000000
40
1.0000000000
40
1.0000000000
10
348.6069401480
20
328.1139478789
30
0.0000000000
10
348.5663761768
20
328.5546566314
30
0.0000000000
10
348.5084580341
20
328.9939135224
30
0.0000000000
10
348.4333254111
20
329.4300982089
30
0.0000000000
11
348.6069401480
21
328.1139478789
31
0.0000000000
11
348.4333254111
21
329.4300982089
31
0.0000000000
0
SPLINE
5
508
100
AcDbEntity
8
0
100
AcDbSpline
62
7
6
CONTINUOUS
70
0
71
3
72
8
73
4
74
2
42
0.0000001000
43
0.0000001000
44
0.0000000001
40
0.0000000000
40
0.0000000000
40
0.0000000000
40
0.0000000000
40
1.0000000000
40
1.0000000000
40
1.0000000000
40
1.0000000000
10
348.4333254111
20
329.4300982089
30
0.0000000000
10
348.3580351472
20
329.8671980844
30
0.0000000000
10
348.2654578842
20
330.3012124981
30
0.0000000000
10
348.1559446877
20
330.7308716269
30
0.0000000000
11
348.4333254111
21
329.4300982089
31
0.0000000000
11
348.1559446877
21
330.7308716269
31
0.0000000000
0
SPLINE
5
509
100
AcDbEntity
8
0
100
AcDbSpline
62
7
6
CONTINUOUS
70
0
71
3
72
8
73
4
74
2
42
0.0000001000
43
0.0000001000
44
0.0000000001
40
0.0000000000
40
0.0000000000
40
0.0000000000
40
0.0000000000
40
1.0000000000
40
1.0000000000
40
1.0000000000
40
1.0000000000
10
348.1559446877
20
330.7308716269
30
0.0000000000
10
348.0466991404
20
331.1594806726
30
0.0000000000
10
347.9206003412
20
331.5837556964
30
0.0000000000
10
347.7779967884
20
332.0024361639
30
0.0000000000
11
348.1559446877
21
330.7308716269
31
0.0000000000
11
347.7779967884
21
332.0024361639
31
0.0000000000
0
SPLINE
5
50A
100
AcDbEntity
8
0
100
AcDbSpline
62
7
6
CONTINUOUS
70
0
71
3
72
8
73
4
74
2
42
0.0000001000
43
0.0000001000
44
0.0000000001
40
0.0000000000
40
0.0000000000
40
0.0000000000
40
0.0000000000
40
1.0000000000
40
1.0000000000
40
1.0000000000
40
1.0000000000
10
347.7779967884
20
332.0024361639
30
0.0000000000
10
347.6350847088
20
332.4220224583
30
0.0000000000
10
347.4755956106
20
332.8359899972
30
0.0000000000
10
347.3000857792
20
333.2430607506
30
0.0000000000
11
347.7779967884
21
332.0024361639
31
0.0000000000
11
347.3000857792
21
333.2430607506
31
0.0000000000
0
SPLINE
5
50B
100
AcDbEntity
8
0
100
AcDbSpline
62
7
6
CONTINUOUS
70
0
71
3
72
8
73
4
74
2
42
0.0000001000
43
0.0000001000
44
0.0000000001
40
0.0000000000
40
0.0000000000
40
0.0000000000
40
0.0000000000
40
1.0000000000
40
1.0000000000
40
1.0000000000
40
1.0000000000
10
347.3000857792
20
333.2430607506
30
0.0000000000
10
347.1247747171
20
333.6496704861
30
0.0000000000
10
346.9334791919
20
334.0493990488
30
0.0000000000
10
346.7267536099
20
334.4409727456
30
0.0000000000
11
347.3000857792
21
333.2430607506
31
0.0000000000
11
346.7267536099
21
334.4409727456
31
0.0000000000
0
SPLINE
5
50C
100
AcDbEntity
8
0
100
AcDbSpline
62
7
6
CONTINUOUS
70
0
71
3
72
8
73
4
74
2
42
0.0000001000
43
0.0000001000
44
0.0000000001
40
0.0000000000
40
0.0000000000
40
0.0000000000
40
0.0000000000
40
1.0000000000
40
1.0000000000
40
1.0000000000
40
1.0000000000
10
346.7267536099
20
334.4409727456
30
0.0000000000
10
346.6438421125
20
334.5980213374
30
0.0000000000
10
346.5584484268
20
334.7537580571
30
0.0000000000
10
346.4706205026
20
334.9081090197
30
0.0000000000
11
346.7267536099
21
334.4409727456
31
0.0000000000
11
346.4706205026
21
334.9081090197
31
0.0000000000
0
SPLINE
5
50D
100
AcDbEntity
8
0
100
AcDbSpline
62
7
6
CONTINUOUS
70
0
71
3
72
14
73
10
74
8
42
0.0000001000
43
0.0000001000
44
0.0000000001
40
0.0000000000
40
0.0000000000
40
0.0000000000
40
0.0000000000
40
0.1267114760
40
0.2848364347
40
0.4431683351
40
0.6018393754
40
0.7609551044
40
0.9205963067
40
1.0000000000
40
1.0000000000
40
1.0000000000
40
1.0000000000
10
346.4706205026
20
334.9081090197
30
0.0000000000
10
346.1184957833
20
335.5269416958
30
0.0000000000
10
345.2389929291
20
336.8679521089
30
0.0000000000
10
343.5872728427
20
338.7418317492
30
0.0000000000
10
341.5233400832
20
340.4483233123
30
0.0000000000
10
339.2126688735
20
341.8130460896
30
0.0000000000
10
336.7095578399
20
342.8013318750
30
0.0000000000
10
334.5191656512
20
343.2879437571
30
0.0000000000
10
333.1810626213
20
343.4231130510
30
0.0000000000
10
332.7356510548
20
343.4506403940
30
0.0000000000
11
346.4706205026
21
334.9081090197
31
0.0000000000
11
345.2999520630
21
336.6930212623
31
0.0000000000
11
343.5393039286
21
338.6906487313
31
0.0000000000
11
341.4845459519
21
340.3897478701
31
0.0000000000
11
339.1839479248
21
341.7486826585
31
0.0000000000
11
336.6917914050
21
342.7329005265
31
0.0000000000
11
334.0674763223
21
343.3159938305
31
0.0000000000
11
332.7356510548
21
343.4506403940
31
0.0000000000
0
SPLINE
5
50E
100
AcDbEntity
8
0
100
AcDbSpline
62
7
6
CONTINUOUS
70
0
71
3
72
8
73
4
74
2
42
0.0000001000
43
0.0000001000
44
0.0000000001
40
0.0000000000
40
0.0000000000
40
0.0000000000
40
0.0000000000
40
1.0000000000
40
1.0000000000
40
1.0000000000
40
1.0000000000
10
332.7356510548
20
343.4506403940
30
0.0000000000
10
332.3834647282
20
343.4724062270
30
0.0000000000
10
332.0306950598
20
343.4833110560
30
0.0000000000
10
331.6781381019
20
343.4833295481
30
0.0000000000
11
332.7356510548
21
343.4506403940
31
0.0000000000
11
331.6781381019
21
343.4833295481
31
0.0000000000
0
SPLINE
5
50F
100
AcDbEntity
8
0
100
AcDbSpline
62
7
6
CONTINUOUS
70
0
71
3
72
9
73
5
74
3
42
0.0000001000
43
0.0000001000
44
0.0000000001
40
0.0000000000
40
0.0000000000
40
0.0000000000
40
0.0000000000
40
0.3084402544
40
1.0000000000
40
1.0000000000
40
1.0000000000
40
1.0000000000
10
348.6767992504
20
326.7620793332
30
0.0000000000
10
348.6767746823
20
326.7640578235
30
0.0000000000
10
348.6766936247
20
326.7704796349
30
0.0000000000
10
348.6766079402
20
326.7769217414
30
0.0000000000
10
348.6765560717
20
326.7807336628
30
0.0000000000
11
348.6767992504
21
326.7620793332
31
0.0000000000
11
348.6767242393
21
326.7680212446
31
0.0000000000
11
348.6765560717
21
326.7807336628
31
0.0000000000
0
SPLINE
5
510
100
AcDbEntity
8
0
100
AcDbSpline
62
7
6
CONTINUOUS
70
0
71
3
72
8
73
4
74
2
42
0.0000001000
43
0.0000001000
44
0.0000000001
40
0.0000000000
40
0.0000000000
40
0.0000000000
40
0.0000000000
40
1.0000000000
40
1.0000000000
40
1.0000000000
40
1.0000000000
10
348.6765560717
20
326.7807336628
30
0.0000000000
10
348.6764718221
20
326.7869253370
30
0.0000000000
10
348.6764070630
20
326.7914200929
30
0.0000000000
10
348.6764029353
20
326.7914200442
30
0.0000000000
11
348.6765560717
21
326.7807336628
31
0.0000000000
11
348.6764029353
21
326.7914200442
31
0.0000000000
0
SPLINE
5
511
100
AcDbEntity
8
0
100
AcDbSpline
62
7
6
CONTINUOUS
70
0
71
3
72
8
73
4
74
2
42
0.0000001000
43
0.0000001000
44
0.0000000001
40
0.0000000000
40
0.0000000000
40
0.0000000000
40
0.0000000000
40
1.0000000000
40
1.0000000000
40
1.0000000000
40
1.0000000000
10
348.6764029353
20
326.7914200442
30
0.0000000000
10
348.6764014402
20
326.7914200253
30
0.0000000000
10
348.6764078989
20
326.7908303721
30
0.0000000000
10
348.6764242660
20
326.7895181499
30
0.0000000000
11
348.6764029353
21
326.7914200442
31
0.0000000000
11
348.6764242660
21
326.7895181499
31
0.0000000000
0
SPLINE
5
512
100
AcDbEntity
8
0
100
AcDbSpline
62
7
6
CONTINUOUS
70
0
71
3
72
8
73
4
74
2
42
0.0000001000
43
0.0000001000
44
0.0000000001
40
0.0000000000
40
0.0000000000
40
0.0000000000
40
0.0000000000
40
1.0000000000
40
1.0000000000
40
1.0000000000
40
1.0000000000
10
317.3397884757
20
191.2846367670
30
0.0000000000
10
317.2516492027
20
191.1924440301
30
0.0000000000
10
317.1682248609
20
191.0954661000
30
0.0000000000
10
317.0900331350
20
190.9943476223
30
0.0000000000
11
317.3397884757
21
191.2846367670
31
0.0000000000
11
317.0900331350
21
190.9943476223
31
0.0000000000
0
SPLINE
5
513
100
AcDbEntity
8
0
100
AcDbSpline
62
7
6
CONTINUOUS
70
0
71
3
72
21
73
17
74
15
42
0.0000001000
43
0.0000001000
44
0.0000000001
40
0.0000000000
40
0.0000000000
40
0.0000000000
40
0.0000000000
40
0.0046731518
40
0.0674904101
40
0.1352788955
40
0.2075138172
40
0.2837283125
40
0.3635036983
40
0.4464613990
40
0.5322561359
40
0.6205701364
40
0.7111081644
40
0.8035932140
40
0.8977627390
40
0.9933653127
40
1.0000000000
40
1.0000000000
40
1.0000000000
40
1.0000000000
10
312.6779521282
20
134.2502216610
30
0.0000000000
10
312.6779516589
20
134.2497202976
30
0.0000000000
10
312.6779448922
20
134.2424795277
30
0.0000000000
10
312.6779317221
20
134.2279660082
30
0.0000000000
10
312.6779142815
20
134.2062040607
30
0.0000000000
10
312.6778991478
20
134.1830047757
30
0.0000000000
10
312.6778875263
20
134.1585194624
30
0.0000000000
10
312.6778803140
20
134.1328837438
30
0.0000000000
10
312.6778780586
20
134.1062201990
30
0.0000000000
10
312.6778809354
20
134.0786405807
30
0.0000000000
10
312.6778887354
20
134.0502477008
30
0.0000000000
10
312.6779008595
20
134.0211370457
30
0.0000000000
10
312.6779163252
20
133.9913981767
30
0.0000000000
10
312.6779337554
20
133.9611159541
30
0.0000000000
10
312.6779458870
20
133.9400442680
30
0.0000000000
10
312.6779517897
20
133.9290756474
30
0.0000000000
10
312.6779521710
20
133.9283638388
30
0.0000000000
11
312.6779521282
21
134.2502216610
31
0.0000000000
11
312.6779507227
21
134.2487175710
31
0.0000000000
11
312.6779325497
21
134.2284993505
31
0.0000000000
11
312.6779151887
21
134.2066811003
31
0.0000000000
11
312.6779000964
21
134.1834317276
31
0.0000000000
11
312.6778884799
21
134.1589014957
31
0.0000000000
11
312.6778812356
21
134.1332251614
31
0.0000000000
11
312.6778789108
21
134.1065245731
31
0.0000000000
11
312.6778816801
21
134.0789108625
31
0.0000000000
11
312.6778893331
21
134.0504863079
31
0.0000000000
11
312.6779012701
21
134.0213459340
31
0.0000000000
11
312.6779165043
21
133.9915788974
31
0.0000000000
11
312.6779336676
21
133.9612697001
31
0.0000000000
11
312.6779510219
21
133.9304992647
31
0.0000000000
11
312.6779521710
21
133.9283638388
31
0.0000000000
0
SPLINE
5
514
100
AcDbEntity
8
0
100
AcDbSpline
62
7
6
CONTINUOUS
70
0
71
3
72
8
73
4
74
2
42
0.0000001000
43
0.0000001000
44
0.0000000001
40
0.0000000000
40
0.0000000000
40
0.0000000000
40
0.0000000000
40
1.0000000000
40
1.0000000000
40
1.0000000000
40
1.0000000000
10
312.6779719352
20
134.5087106292
30
0.0000000000
10
312.6779643563
20
134.5043564893
30
0.0000000000
10
312.6779585625
20
134.5000350079
30
0.0000000000
10
312.6779543938
20
134.4957763476
30
0.0000000000
11
312.6779719352
21
134.5087106292
31
0.0000000000
11
312.6779543938
21
134.4957763476
31
0.0000000000
0
SPLINE
5
515
100
AcDbEntity
8
0
100
AcDbSpline
62
7
6
CONTINUOUS
70
0
71
3
72
8
73
4
74
2
42
0.0000001000
43
0.0000001000
44
0.0000000001
40
0.0000000000
40
0.0000000000
40
0.0000000000
40
0.0000000000
40
1.0000000000
40
1.0000000000
40
1.0000000000
40
1.0000000000
10
312.6779543938
20
134.4957763476
30
0.0000000000
10
312.6779499975
20
134.4912851610
30
0.0000000000
10
312.6779474086
20
134.4868638430
30
0.0000000000
10
312.6779464395
20
134.4825477717
30
0.0000000000
11
312.6779543938
21
134.4957763476
31
0.0000000000
11
312.6779464395
21
134.4825477717
31
0.0000000000
0
SPLINE
5
516
100
AcDbEntity
8
0
100
AcDbSpline
62
7
6
CONTINUOUS
70
0
71
3
72
9
73
5
74
3
42
0.0000001000
43
0.0000001000
44
0.0000000001
40
0.0000000000
40
0.0000000000
40
0.0000000000
40
0.0000000000
40
0.7666949957
40
1.0000000000
40
1.0000000000
40
1.0000000000
40
1.0000000000
10
314.8853281020
20
334.9082021809
30
0.0000000000
10
314.8187622630
20
334.7912119429
30
0.0000000000
10
314.7337607228
20
334.6375774685
30
0.0000000000
10
314.6511716183
20
334.4826488476
30
0.0000000000
10
314.6320349606
20
334.4464336900
30
0.0000000000
11
314.8853281020
21
334.9082021809
31
0.0000000000
11
314.6898398329
21
334.5548696507
31
0.0000000000
11
314.6320349606
21
334.4464336900
31
0.0000000000
0
SPLINE
5
517
100
AcDbEntity
8
0
100
AcDbSpline
62
7
6
CONTINUOUS
70
0
71
3
72
11
73
7
74
5
42
0.0000001000
43
0.0000001000
44
0.0000000001
40
0.0000000000
40
0.0000000000
40
0.0000000000
40
0.0000000000
40
0.2029007509
40
0.4902621831
40
0.7700818700
40
1.0000000000
40
1.0000000000
40
1.0000000000
40
1.0000000000
10
314.6320349606
20
334.4464336900
30
0.0000000000
10
314.5899953122
20
334.3668757795
30
0.0000000000
10
314.4899531689
20
334.1738318680
30
0.0000000000
10
314.3386911342
20
333.8676178934
30
0.0000000000
10
314.1892448748
20
333.5472431945
30
0.0000000000
10
314.0978117250
20
333.3404923215
30
0.0000000000
10
314.0574190599
20
333.2468709799
30
0.0000000000
11
314.6320349606
21
334.4464336900
31
0.0000000000
11
314.5078292293
21
334.2067628488
31
0.0000000000
11
314.3385107152
21
333.8639947814
31
0.0000000000
11
314.1811354272
21
333.5266217172
31
0.0000000000
11
314.0574190599
21
333.2468709799
31
0.0000000000
0
SPLINE
5
518
100
AcDbEntity
8
0
100
AcDbSpline
62
7
6
CONTINUOUS
70
0
71
3
72
12
73
8
74
6
42
0.0000001000
43
0.0000001000
44
0.0000000001
40
0.0000000000
40
0.0000000000
40
0.0000000000
40
0.0000000000
40
0.0427665038
40
0.3088750968
40
0.5685150086
40
0.8220474999
40
1.0000000000
40
1.0000000000
40
1.0000000000
40
1.0000000000
10
314.0574190599
20
333.2468709799
30
0.0000000000
10
314.0499139904
20
333.2294758745
30
0.0000000000
10
313.9959212154
20
333.1037508999
30
0.0000000000
10
313.8993585350
20
332.8711380092
30
0.0000000000
10
313.7736265791
20
332.5496177281
30
0.0000000000
10
313.6679039193
20
332.2622750099
30
0.0000000000
10
313.6049589828
20
332.0817891977
30
0.0000000000
10
313.5795223922
20
332.0071751629
30
0.0000000000
11
314.0574190599
21
333.2468709799
31
0.0000000000
11
314.0349917645
21
333.1946478558
31
0.0000000000
11
313.8994056676
21
332.8680296964
31
0.0000000000
11
313.7737409325
21
332.5466807963
31
0.0000000000
11
313.6573988207
21
332.2304750585
31
0.0000000000
11
313.5795223922
21
332.0071751629
31
0.0000000000
0
SPLINE
5
519
100
AcDbEntity
8
0
100
AcDbSpline
62
7
6
CONTINUOUS
70
0
71
3
72
12
73
8
74
6
42
0.0000001000
43
0.0000001000
44
0.0000000001
40
0.0000000000
40
0.0000000000
40
0.0000000000
40
0.0000000000
40
0.0696013742
40
0.3111962499
40
0.5477878850
40
0.7797349463
40
1.0000000000
40
1.0000000000
40
1.0000000000
40
1.0000000000
10
313.5795223922
20
332.0071751629
30
0.0000000000
10
313.5695402363
20
331.9778941582
30
0.0000000000
10
313.5252689749
20
331.8468524346
30
0.0000000000
10
313.4501800503
20
331.6152335283
30
0.0000000000
10
313.3585310481
20
331.3131849174
30
0.0000000000
10
313.2750777026
20
331.0186128731
30
0.0000000000
10
313.2237563379
20
330.8242730824
30
0.0000000000
10
313.1995850556
20
330.7294028229
30
0.0000000000
11
313.5795223922
21
332.0071751629
31
0.0000000000
11
313.5498177501
21
331.9192502126
31
0.0000000000
11
313.4504728889
21
331.6128110861
31
0.0000000000
11
313.3588756522
21
331.3109325983
31
0.0000000000
11
313.2745745263
21
331.0133675943
31
0.0000000000
11
313.1995850556
21
330.7294028229
31
0.0000000000
0
SPLINE
5
51A
100
AcDbEntity
8
0
100
AcDbSpline
62
7
6
CONTINUOUS
70
0
71
3
72
13
73
9
74
7
42
0.0000001000
43
0.0000001000
44
0.0000000001
40
0.0000000000
40
0.0000000000
40
0.0000000000
40
0.0000000000
40
0.0073841810
40
0.2317687665
40
0.4524238064
40
0.6696576884
40
0.8837823505
40
1.0000000000
40
1.0000000000
40
1.0000000000
40
1.0000000000
10
313.1995850556
20
330.7294028229
30
0.0000000000
10
313.1987775606
20
330.7262334727
30
0.0000000000
10
313.1734615065
20
330.6267490698
30
0.0000000000
10
313.1258175005
20
330.4320998439
30
0.0000000000
10
313.0610837199
20
330.1459865241
30
0.0000000000
10
313.0022248715
20
329.8632479216
30
0.0000000000
10
312.9568394147
20
329.6249914484
30
0.0000000000
10
312.9313345565
20
329.4809150303
30
0.0000000000
10
312.9225941922
20
329.4301874862
30
0.0000000000
11
313.1995850556
21
330.7294028229
31
0.0000000000
11
313.1971653380
21
330.7198940680
31
0.0000000000
11
313.1262804337
21
330.4302938388
31
0.0000000000
11
313.0615801671
21
330.1443281467
31
0.0000000000
11
313.0027524571
21
329.8617386101
31
0.0000000000
11
312.9495123818
21
329.5822478278
31
0.0000000000
11
312.9225941922
21
329.4301874862
31
0.0000000000
0
SPLINE
5
51B
100
AcDbEntity
8
0
100
AcDbSpline
62
7
6
CONTINUOUS
70
0
71
3
72
13
73
9
74
7
42
0.0000001000
43
0.0000001000
44
0.0000000001
40
0.0000000000
40
0.0000000000
40
0.0000000000
40
0.0000000000
40
0.0952052289
40
0.3042754693
40
0.5112605919
40
0.7148584498
40
0.9132589167
40
1.0000000000
40
1.0000000000
40
1.0000000000
40
1.0000000000
10
312.9225941922
20
329.4301874862
30
0.0000000000
10
312.9154409309
20
329.3886712096
30
0.0000000000
10
312.8930768398
20
329.2558996392
30
0.0000000000
10
312.8581757535
20
329.0323690282
30
0.0000000000
10
312.8203225568
20
328.7607906495
30
0.0000000000
10
312.7874447038
20
328.4933222213
30
0.0000000000
10
312.7644630075
20
328.2782740776
30
0.0000000000
10
312.7524663046
20
328.1526718255
30
0.0000000000
10
312.7489475570
20
328.1144510058
30
0.0000000000
11
312.9225941922
21
329.4301874862
31
0.0000000000
11
312.9016017964
21
329.3055593382
31
0.0000000000
11
312.8587874281
21
329.0313460060
31
0.0000000000
11
312.8208564562
21
328.7592090568
31
0.0000000000
11
312.7878823750
21
328.4909569095
31
0.0000000000
11
312.7598957895
21
328.2290763361
31
0.0000000000
11
312.7489475570
21
328.1144510058
31
0.0000000000
0
SPLINE
5
51C
100
AcDbEntity
8
0
100
AcDbSpline
62
7
6
CONTINUOUS
70
0
71
3
72
12
73
8
74
6
42
0.0000001000
43
0.0000001000
44
0.0000000001
40
0.0000000000
40
0.0000000000
40
0.0000000000
40
0.0000000000
40
0.1339897497
40
0.3685642855
40
0.5920517818
40
0.8035506389
40
1.0000000000
40
1.0000000000
40
1.0000000000
40
1.0000000000
10
312.7489475570
20
328.1144510058
30
0.0000000000
10
312.7446947111
20
328.0682563729
30
0.0000000000
10
312.7335215902
20
327.9411403757
30
0.0000000000
10
312.7178956755
20
327.7367423695
30
0.0000000000
10
312.7034917156
20
327.5054021165
30
0.0000000000
10
312.6928374381
20
327.2869266812
30
0.0000000000
10
312.6877280899
20
327.1460418306
30
0.0000000000
10
312.6856801973
20
327.0778810547
30
0.0000000000
11
312.7489475570
21
328.1144510058
31
0.0000000000
11
312.7367619110
21
327.9758149279
31
0.0000000000
11
312.7181893053
21
327.7328818382
31
0.0000000000
11
312.7037665271
21
327.5012039402
31
0.0000000000
11
312.6930603328
21
327.2817906483
31
0.0000000000
11
312.6856801973
21
327.0778810547
31
0.0000000000
0
SPLINE
5
51D
100
AcDbEntity
8
0
100
AcDbSpline
62
7
6
CONTINUOUS
70
0
71
3
72
8
73
4
74
2
42
0.0000001000
43
0.0000001000
44
0.0000000001
40
0.0000000000
40
0.0000000000
40
0.0000000000
40
0.0000000000
40
1.0000000000
40
1.0000000000
40
1.0000000000
40
1.0000000000
10
312.6856801973
20
327.0778810547
30
0.0000000000
10
312.6840268118
20
327.0228508058
30
0.0000000000
10
312.6826423306
20
326.9676139132
30
0.0000000000
10
312.6815212541
20
326.9131974254
30
0.0000000000
11
312.6856801973
21
327.0778810547
31
0.0000000000
11
312.6815212541
21
326.9131974254
31
0.0000000000
0
SPLINE
5
51E
100
AcDbEntity
8
0
100
AcDbSpline
62
7
6
CONTINUOUS
70
0
71
3
72
8
73
4
74
2
42
0.0000001000
43
0.0000001000
44
0.0000000001
40
0.0000000000
40
0.0000000000
40
0.0000000000
40
0.0000000000
40
1.0000000000
40
1.0000000000
40
1.0000000000
40
1.0000000000
10
312.6815212541
20
326.9131974254
30
0.0000000000
10
312.6810742603
20
326.8915005754
30
0.0000000000
10
312.6806691417
20
326.8699341502
30
0.0000000000
10
312.6803070524
20
326.8481232095
30
0.0000000000
11
312.6815212541
21
326.9131974254
31
0.0000000000
11
312.6803070524
21
326.8481232095
31
0.0000000000
0
SPLINE
5
51F
100
AcDbEntity
8
0
100
AcDbSpline
62
7
6
CONTINUOUS
70
0
71
3
72
8
73
4
74
2
42
0.0000001000
43
0.0000001000
44
0.0000000001
40
0.0000000000
40
0.0000000000
40
0.0000000000
40
0.0000000000
40
1.0000000000
40
1.0000000000
40
1.0000000000
40
1.0000000000
10
312.6803070524
20
326.8481232095
30
0.0000000000
10
312.6800575314
20
326.8330929733
30
0.0000000000
10
312.6798284441
20
326.8179466218
30
0.0000000000
10
312.6796201682
20
326.8025614573
30
0.0000000000
11
312.6803070524
21
326.8481232095
31
0.0000000000
11
312.6796201682
21
326.8025614573
31
0.0000000000
0
SPLINE
5
520
100
AcDbEntity
8
0
100
AcDbSpline
62
7
6
CONTINUOUS
70
0
71
3
72
9
73
5
74
3
42
0.0000001000
43
0.0000001000
44
0.0000000001
40
0.0000000000
40
0.0000000000
40
0.0000000000
40
0.0000000000
40
0.5717299125
40
1.0000000000
40
1.0000000000
40
1.0000000000
40
1.0000000000
10
312.6796201682
20
326.8025614573
30
0.0000000000
10
312.6795642797
20
326.7984330202
30
0.0000000000
10
312.6794691474
20
326.7911819862
30
0.0000000000
10
312.6793786219
20
326.7838710925
30
0.0000000000
10
312.6793406787
20
326.7807337139
30
0.0000000000
11
312.6796201682
21
326.8025614573
31
0.0000000000
11
312.6794570056
21
326.7901221875
31
0.0000000000
11
312.6793406787
21
326.7807337139
31
0.0000000000
0
SPLINE
5
521
100
AcDbEntity
8
0
100
AcDbSpline
62
7
6
CONTINUOUS
70
0
71
3
72
8
73
4
74
2
42
0.0000001000
43
0.0000001000
44
0.0000000001
40
0.0000000000
40
0.0000000000
40
0.0000000000
40
0.0000000000
40
1.0000000000
40
1.0000000000
40
1.0000000000
40
1.0000000000
10
312.6793406787
20
326.7807337139
30
0.0000000000
10
312.6792656316
20
326.7745283592
30
0.0000000000
10
312.6791938164
20
326.7682981963
30
0.0000000000
10
312.6791250874
20
326.7620791088
30
0.0000000000
11
312.6793406787
21
326.7807337139
31
0.0000000000
11
312.6791250874
21
326.7620791088
31
0.0000000000
0
SPLINE
5
522
100
AcDbEntity
8
0
100
AcDbSpline
62
7
6
CONTINUOUS
70
0
71
3
72
9
73
5
74
3
42
0.0000001000
43
0.0000001000
44
0.0000000001
40
0.0000000000
40
0.0000000000
40
0.0000000000
40
0.0000000000
40
0.7158501634
40
1.0000000000
40
1.0000000000
40
1.0000000000
40
1.0000000000
10
312.6788935716
20
326.7400822125
30
0.0000000000
10
312.6786895624
20
326.7197460888
30
0.0000000000
10
312.6784491901
20
326.6921582421
30
0.0000000000
10
312.6782608366
20
326.6682577062
30
0.0000000000
10
312.6782126675
20
326.6614629042
30
0.0000000000
11
312.6788935716
21
326.7400822125
31
0.0000000000
11
312.6783720779
21
326.6821380906
31
0.0000000000
11
312.6782126675
21
326.6614629042
31
0.0000000000
0
SPLINE
5
523
100
AcDbEntity
8
0
100
AcDbSpline
62
7
6
CONTINUOUS
70
0
71
3
72
8
73
4
74
2
42
0.0000001000
43
0.0000001000
44
0.0000000001
40
0.0000000000
40
0.0000000000
40
0.0000000000
40
0.0000000000
40
1.0000000000
40
1.0000000000
40
1.0000000000
40
1.0000000000
10
312.6789340025
20
326.7391554232
30
0.0000000000
10
312.6789260135
20
326.7383919801
30
0.0000000000
10
312.6789141050
20
326.7372412470
30
0.0000000000
10
312.6788997121
20
326.7358405054
30
0.0000000000
11
312.6789340025
21
326.7391554232
31
0.0000000000
11
312.6788997121
21
326.7358405054
31
0.0000000000
0
SPLINE
5
524
100
AcDbEntity
8
0
100
AcDbSpline
62
7
6
CONTINUOUS
70
0
71
3
72
8
73
4
74
2
42
0.0000001000
43
0.0000001000
44
0.0000000001
40
0.0000000000
40
0.0000000000
40
0.0000000000
40
0.0000000000
40
1.0000000000
40
1.0000000000
40
1.0000000000
40
1.0000000000
10
312.6778113010
20
326.5407199839
30
0.0000000000
10
312.6778098333
20
326.5389747805
30
0.0000000000
10
312.6778085716
20
326.5372293511
30
0.0000000000
10
312.6778075137
20
326.5354837390
30
0.0000000000
11
312.6778113010
21
326.5407199839
31
0.0000000000
11
312.6778075137
21
326.5354837390
31
0.0000000000
0
SPLINE
5
525
100
AcDbEntity
8
0
100
AcDbSpline
62
7
6
CONTINUOUS
70
0
71
3
72
8
73
4
74
2
42
0.0000001000
43
0.0000001000
44
0.0000000001
40
0.0000000000
40
0.0000000000
40
0.0000000000
40
0.0000000000
40
1.0000000000
40
1.0000000000
40
1.0000000000
40
1.0000000000
10
312.6778075137
20
326.5354837390
30
0.0000000000
10
312.6778047361
20
326.5309008088
30
0.0000000000
10
312.6778033634
20
326.5263166192
30
0.0000000000
10
312.6778033583
20
326.5217319534
30
0.0000000000
11
312.6778075137
21
326.5354837390
31
0.0000000000
11
312.6778033583
21
326.5217319534
31
0.0000000000
0
SPLINE
5
526
100
AcDbEntity
8
0
100
AcDbSpline
62
7
6
CONTINUOUS
70
0
71
3
72
8
73
4
74
2
42
0.0000001000
43
0.0000001000
44
0.0000000001
40
0.0000000000
40
0.0000000000
40
0.0000000000
40
0.0000000000
40
1.0000000000
40
1.0000000000
40
1.0000000000
40
1.0000000000
10
329.6777664174
20
343.4833308462
30
0.0000000000
10
329.3252121073
20
343.4833133782
30
0.0000000000
10
328.9724423299
20
343.4724079030
30
0.0000000000
10
328.6202531920
20
343.4506408824
30
0.0000000000
11
329.6777664174
21
343.4833308462
31
0.0000000000
11
328.6202531920
21
343.4506408824
31
0.0000000000
0
SPLINE
5
527
100
AcDbEntity
8
0
100
AcDbSpline
62
7
6
CONTINUOUS
70
0
71
3
72
14
73
10
74
8
42
0.0000001000
43
0.0000001000
44
0.0000000001
40
0.0000000000
40
0.0000000000
40
0.0000000000
40
0.0000000000
40
0.0807436097
40
0.2402323299
40
0.3991973065
40
0.5577189643
40
0.7159024948
40
0.8738798057
40
1.0000000000
40
1.0000000000
40
1.0000000000
40
1.0000000000
10
328.6202531920
20
343.4506408824
30
0.0000000000
10
328.1673310837
20
343.4226480689
30
0.0000000000
10
326.8226322104
20
343.2859171190
30
0.0000000000
10
324.6271601891
20
342.7953028515
30
0.0000000000
10
322.1275263485
20
341.8052085593
30
0.0000000000
10
319.8203483822
20
340.4395775932
30
0.0000000000
10
317.7597419931
20
338.7330304217
30
0.0000000000
10
316.1125781284
20
336.8618231209
30
0.0000000000
10
315.2357683341
20
335.5240583309
30
0.0000000000
10
314.8852867533
20
334.9081138770
30
0.0000000000
11
328.6202531920
21
343.4506408824
31
0.0000000000
11
327.2660609552
21
343.3128287451
31
0.0000000000
11
324.6449773488
21
342.7270226093
31
0.0000000000
11
322.1562620418
21
341.7409967632
31
0.0000000000
11
319.8591231948
21
340.3811470920
31
0.0000000000
11
317.8076602932
21
338.6819794519
31
0.0000000000
11
316.0499755618
21
336.6850502390
31
0.0000000000
11
314.8852867533
21
334.9081138770
31
0.0000000000
0
SPLINE
5
528
100
AcDbEntity
8
0
100
AcDbSpline
62
7
6
CONTINUOUS
70
0
71
3
72
8
73
4
74
2
42
0.0000001000
43
0.0000001000
44
0.0000000001
40
0.0000000000
40
0.0000000000
40
0.0000000000
40
0.0000000000
40
1.0000000000
40
1.0000000000
40
1.0000000000
40
1.0000000000
10
314.8852867533
20
334.9081138770
30
0.0000000000
10
314.7984759210
20
334.7555505081
30
0.0000000000
10
314.7140432161
20
334.6016333311
30
0.0000000000
10
314.6320349102
20
334.4464337142
30
0.0000000000
11
314.8852867533
21
334.9081138770
31
0.0000000000
11
314.6320349102
21
334.4464337142
31
0.0000000000
0
SPLINE
5
529
100
AcDbEntity
8
0
100
AcDbSpline
62
7
6
CONTINUOUS
70
0
71
3
72
8
73
4
74
2
42
0.0000001000
43
0.0000001000
44
0.0000000001
40
0.0000000000
40
0.0000000000
40
0.0000000000
40
0.0000000000
40
1.0000000000
40
1.0000000000
40
1.0000000000
40
1.0000000000
10
314.6320349102
20
334.4464337142
30
0.0000000000
10
314.4248473005
20
334.0543339471
30
0.0000000000
10
314.2331351490
20
333.6540479437
30
0.0000000000
10
314.0574549743
20
333.2468554840
30
0.0000000000
11
314.6320349102
21
334.4464337142
31
0.0000000000
11
314.0574549743
21
333.2468554840
31
0.0000000000
0
SPLINE
5
52A
100
AcDbEntity
8
0
100
AcDbSpline
62
7
6
CONTINUOUS
70
0
71
3
72
8
73
4
74
2
42
0.0000001000
43
0.0000001000
44
0.0000000001
40
0.0000000000
40
0.0000000000
40
0.0000000000
40
0.0000000000
40
1.0000000000
40
1.0000000000
40
1.0000000000
40
1.0000000000
10
314.0574549743
20
333.2468554840
30
0.0000000000
10
313.8819612838
20
332.8400952583
30
0.0000000000
10
313.7224655471
20
332.4264432343
30
0.0000000000
10
313.5795224974
20
332.0071751318
30
0.0000000000
11
314.0574549743
21
333.2468554840
31
0.0000000000
11
313.5795224974
21
332.0071751318
31
0.0000000000
0
SPLINE
5
52B
100
AcDbEntity
8
0
100
AcDbSpline
62
7
6
CONTINUOUS
70
0
71
3
72
8
73
4
74
2
42
0.0000001000
43
0.0000001000
44
0.0000000001
40
0.0000000000
40
0.0000000000
40
0.0000000000
40
0.0000000000
40
1.0000000000
40
1.0000000000
40
1.0000000000
40
1.0000000000
10
313.5795224974
20
332.0071751318
30
0.0000000000
10
313.4360925636
20
331.5864789436
30
0.0000000000
10
313.3093290365
20
331.1601283884
30
0.0000000000
10
313.1995852876
20
330.7294027640
30
0.0000000000
11
313.5795224974
21
332.0071751318
31
0.0000000000
11
313.1995852876
21
330.7294027640
31
0.0000000000
0
SPLINE
5
52C
100
AcDbEntity
8
0
100
AcDbSpline
62
7
6
CONTINUOUS
70
0
71
3
72
8
73
4
74
2
42
0.0000001000
43
0.0000001000
44
0.0000000001
40
0.0000000000
40
0.0000000000
40
0.0000000000
40
0.0000000000
40
1.0000000000
40
1.0000000000
40
1.0000000000
40
1.0000000000
10
313.1995852876
20
330.7294027640
30
0.0000000000
10
313.0902428871
20
330.3002523638
30
0.0000000000
10
312.9977960021
20
329.8667588362
30
0.0000000000
10
312.9225941332
20
329.4301874941
30
0.0000000000
11
313.1995852876
21
330.7294027640
31
0.0000000000
11
312.9225941332
21
329.4301874941
31
0.0000000000
0
SPLINE
5
52D
100
AcDbEntity
8
0
100
AcDbSpline
62
7
6
CONTINUOUS
70
0
71
3
72
8
73
4
74
2
42
0.0000001000
43
0.0000001000
44
0.0000000001
40
0.0000000000
40
0.0000000000
40
0.0000000000
40
0.0000000000
40
1.0000000000
40
1.0000000000
40
1.0000000000
40
1.0000000000
10
312.9225941332
20
329.4301874941
30
0.0000000000
10
312.8474821466
20
328.9941379486
30
0.0000000000
10
312.7895741806
20
328.5550175935
30
0.0000000000
10
312.7490096962
20
328.1144452849
30
0.0000000000
11
312.9225941332
21
329.4301874941
31
0.0000000000
11
312.7490096962
21
328.1144452849
31
0.0000000000
0
SPLINE
5
52E
100
AcDbEntity
8
0
100
AcDbSpline
62
7
6
CONTINUOUS
70
0
71
3
72
8
73
4
74
2
42
0.0000001000
43
0.0000001000
44
0.0000000001
40
0.0000000000
40
0.0000000000
40
0.0000000000
40
0.0000000000
40
1.0000000000
40
1.0000000000
40
1.0000000000
40
1.0000000000
10
312.7490096962
20
328.1144452849
30
0.0000000000
10
312.7084307426
20
327.6737158261
30
0.0000000000
10
312.6852076453
20
327.2315333783
30
0.0000000000
10
312.6794800140
20
326.7895185315
30
0.0000000000
11
312.7490096962
21
328.1144452849
31
0.0000000000
11
312.6794800140
21
326.7895185315
31
0.0000000000
0
SPLINE
5
52F
100
AcDbEntity
8
0
100
AcDbSpline
62
7
6
CONTINUOUS
70
0
71
3
72
11
73
7
74
5
42
0.0000001000
43
0.0000001000
44
0.0000000001
40
0.0000000000
40
0.0000000000
40
0.0000000000
40
0.0000000000
40
0.1708185455
40
0.4473938536
40
0.7239596905
40
1.0000000000
40
1.0000000000
40
1.0000000000
40
1.0000000000
10
345.0305740896
20
188.7554269144
30
0.0000000000
10
345.0305578036
20
188.9144063139
30
0.0000000000
10
345.0034608265
20
189.3312149733
30
0.0000000000
10
344.8450603511
20
189.9898008457
30
0.0000000000
10
344.5099179179
20
190.6894942843
30
0.0000000000
10
344.1933219693
20
191.0992810086
30
0.0000000000
10
344.0161157995
20
191.2846367670
30
0.0000000000
11
345.0305740896
21
188.7554269144
31
0.0000000000
11
344.9995463052
21
189.2312573115
31
0.0000000000
11
344.8194210648
21
189.9807012231
31
0.0000000000
11
344.4863508968
21
190.6757802493
31
0.0000000000
11
344.0161157995
21
191.2846367670
31
0.0000000000
0
SPLINE
5
530
100
AcDbEntity
8
0
100
AcDbSpline
62
7
6
CONTINUOUS
70
0
71
3
72
8
73
4
74
2
42
0.0000001000
43
0.0000001000
44
0.0000000001
40
0.0000000000
40
0.0000000000
40
0.0000000000
40
0.0000000000
40
1.0000000000
40
1.0000000000
40
1.0000000000
40
1.0000000000
10
346.5924784961
20
141.9206149614
30
0.0000000000
10
346.6421047025
20
141.8439158428
30
0.0000000000
10
346.6909209540
20
141.7666960772
30
0.0000000000
10
346.7389172653
20
141.6889721909
30
0.0000000000
11
346.5924784961
21
141.9206149614
31
0.0000000000
11
346.7389172653
21
141.6889721909
31
0.0000000000
0
SPLINE
5
531
100
AcDbEntity
8
0
100
AcDbSpline
62
7
6
CONTINUOUS
70
0
71
3
72
8
73
4
74
2
42
0.0000001000
43
0.0000001000
44
0.0000000001
40
0.0000000000
40
0.0000000000
40
0.0000000000
40
0.0000000000
40
1.0000000000
40
1.0000000000
40
1.0000000000
40
1.0000000000
10
346.7389172653
20
141.6889721909
30
0.0000000000
10
346.7735423066
20
141.6329013657
30
0.0000000000
10
346.8077406240
20
141.5765681793
30
0.0000000000
10
346.8415084686
20
141.5199788365
30
0.0000000000
11
346.7389172653
21
141.6889721909
31
0.0000000000
11
346.8415084686
21
141.5199788365
31
0.0000000000
0
SPLINE
5
532
100
AcDbEntity
8
0
100
AcDbSpline
62
7
6
CONTINUOUS
70
0
71
3
72
11
73
7
74
5
42
0.0000001000
43
0.0000001000
44
0.0000000001
40
0.0000000000
40
0.0000000000
40
0.0000000000
40
0.0000000000
40
0.1181021961
40
0.4114408010
40
0.7056936599
40
1.0000000000
40
1.0000000000
40
1.0000000000
40
1.0000000000
10
346.8415084686
20
141.5199788365
30
0.0000000000
10
346.9825859974
20
141.2835561467
30
0.0000000000
10
347.4478915048
20
140.4443377658
30
0.0000000000
10
348.0838726228
20
138.9212760127
30
0.0000000000
10
348.5690878643
20
136.9171303539
30
0.0000000000
10
348.6779519597
20
135.5439387963
30
0.0000000000
10
348.6779521376
20
134.8585196438
30
0.0000000000
11
346.8415084686
21
141.5199788365
31
0.0000000000
11
347.2419265288
21
140.7977499290
31
0.0000000000
11
348.0316449679
21
138.9065125114
31
0.0000000000
11
348.5153287338
21
136.9083363073
31
0.0000000000
11
348.6779521376
21
134.8585196438
31
0.0000000000
0
SPLINE
5
533
100
AcDbEntity
8
0
100
AcDbSpline
62
7
6
CONTINUOUS
70
0
71
3
72
8
73
4
74
2
42
0.0000001000
43
0.0000001000
44
0.0000000001
40
0.0000000000
40
0.0000000000
40
0.0000000000
40
0.0000000000
40
1.0000000000
40
1.0000000000
40
1.0000000000
40
1.0000000000
10
348.6491352449
20
127.0207381359
30
0.0000000000
10
348.6586028336
20
127.1811528507
30
0.0000000000
10
348.6657974345
20
127.3417123462
30
0.0000000000
10
348.6705708508
20
127.5023429102
30
0.0000000000
11
348.6491352449
21
127.0207381359
31
0.0000000000
11
348.6705708508
21
127.5023429102
31
0.0000000000
0
SPLINE
5
534
100
AcDbEntity
8
0
100
AcDbSpline
62
7
6
CONTINUOUS
70
0
71
3
72
8
73
4
74
2
42
0.0000001000
43
0.0000001000
44
0.0000000001
40
0.0000000000
40
0.0000000000
40
0.0000000000
40
0.0000000000
40
1.0000000000
40
1.0000000000
40
1.0000000000
40
1.0000000000
10
348.6705708508
20
127.5023429102
30
0.0000000000
10
348.6754617542
20
127.6669270413
30
0.0000000000
10
348.6778108222
20
127.8315857825
30
0.0000000000
10
348.6779521376
20
127.9962347048
30
0.0000000000
11
348.6705708508
21
127.5023429102
31
0.0000000000
11
348.6779521376
21
127.9962347048
31
0.0000000000
0
SPLINE
5
535
100
AcDbEntity
8
0
100
AcDbSpline
62
7
6
CONTINUOUS
70
0
71
3
72
8
73
4
74
2
42
0.0000001000
43
0.0000001000
44
0.0000000001
40
0.0000000000
40
0.0000000000
40
0.0000000000
40
0.0000000000
40
1.0000000000
40
1.0000000000
40
1.0000000000
40
1.0000000000
10
348.6779655907
20
134.4825474520
30
0.0000000000
10
348.6779618410
20
134.4860358551
30
0.0000000000
10
348.6779568029
20
134.4896594254
30
0.0000000000
10
348.6779503790
20
134.4933994887
30
0.0000000000
11
348.6779655907
21
134.4825474520
31
0.0000000000
11
348.6779503790
21
134.4933994887
31
0.0000000000
0
SPLINE
5
536
100
AcDbEntity
8
0
100
AcDbSpline
62
7
6
CONTINUOUS
70
0
71
3
72
17
73
13
74
11
42
0.0000001000
43
0.0000001000
44
0.0000000001
40
0.0000000000
40
0.0000000000
40
0.0000000000
40
0.0000000000
40
0.0553974175
40
0.1730612287
40
0.2879427265
40
0.4000224120
40
0.5092805107
40
0.6156967826
40
0.7192503094
40
0.8199192554
40
0.9176805965
40
1.0000000000
40
1.0000000000
40
1.0000000000
40
1.0000000000
10
348.6779521385
20
132.9200780043
30
0.0000000000
10
348.6779529300
20
132.9306439460
30
0.0000000000
10
348.6779555515
20
132.9636518900
30
0.0000000000
10
348.6779605665
20
133.0185711660
30
0.0000000000
10
348.6779665298
20
133.0843014430
30
0.0000000000
10
348.6779714713
20
133.1484284998
30
0.0000000000
10
348.6779746816
20
133.2109409853
30
0.0000000000
10
348.6779756243
20
133.2718272778
30
0.0000000000
10
348.6779739178
20
133.3310753624
30
0.0000000000
10
348.6779693270
20
133.3886726931
30
0.0000000000
10
348.6779620996
20
133.4422200421
30
0.0000000000
10
348.6779555779
20
133.4765668169
30
0.0000000000
10
348.6779522098
20
133.4922675849
30
0.0000000000
11
348.6779521385
21
132.9200780043
31
0.0000000000
11
348.6779546485
21
132.9517758294
31
0.0000000000
11
348.6779606082
21
133.0191018362
31
0.0000000000
11
348.6779664267
21
133.0848358323
31
0.0000000000
11
348.6779712345
21
133.1489666607
31
0.0000000000
11
348.6779743308
21
133.2114830065
31
0.0000000000
11
348.6779751772
21
133.2723732887
31
0.0000000000
11
348.6779733922
21
133.3316255381
31
0.0000000000
11
348.6779687444
21
133.3892272601
31
0.0000000000
11
348.6779611463
21
133.4451652806
31
0.0000000000
11
348.6779522098
21
133.4922675849
31
0.0000000000
0
SPLINE
5
537
100
AcDbEntity
8
0
100
AcDbSpline
62
7
6
CONTINUOUS
70
0
71
3
72
19
73
15
74
13
42
0.0000001000
43
0.0000001000
44
0.0000000001
40
0.0000000000
40
0.0000000000
40
0.0000000000
40
0.0000000000
40
0.0175417929
40
0.1281323002
40
0.2374743636
40
0.3450905167
40
0.4504617305
40
0.5530181945
40
0.6521281941
40
0.7470846039
40
0.8370883751
40
0.9212282158
40
0.9984554364
40
1.0000000000
40
1.0000000000
40
1.0000000000
40
1.0000000000
10
348.6779520643
20
133.9282734027
30
0.0000000000
10
348.6779530710
20
133.9301559574
30
0.0000000000
10
348.6779605112
20
133.9439068929
30
0.0000000000
10
348.6779753929
20
133.9693922277
30
0.0000000000
10
348.6779952257
20
134.0045441863
30
0.0000000000
10
348.6780115910
20
134.0391360211
30
0.0000000000
10
348.6780224754
20
134.0729996392
30
0.0000000000
10
348.6780265812
20
134.1059503932
30
0.0000000000
10
348.6780233541
20
134.1377834486
30
0.0000000000
10
348.6780130322
20
134.1682693690
30
0.0000000000
10
348.6779966556
20
134.1971487148
30
0.0000000000
10
348.6779760332
20
134.2241253912
30
0.0000000000
10
348.6779602046
20
134.2416087788
30
0.0000000000
10
348.6779522963
20
134.2500624271
30
0.0000000000
10
348.6779521412
20
134.2502281869
30
0.0000000000
11
348.6779520643
21
133.9282734027
31
0.0000000000
11
348.6779551192
21
133.9339210668
31
0.0000000000
11
348.6779753534
21
133.9695262086
31
0.0000000000
11
348.6779947914
21
134.0047294083
31
0.0000000000
11
348.6780108199
21
134.0393769444
31
0.0000000000
11
348.6780214446
21
134.0733017136
31
0.0000000000
11
348.6780253625
21
134.1063202619
31
0.0000000000
11
348.6780220204
21
134.1382292044
31
0.0000000000
11
348.6780116568
21
134.1688008770
31
0.0000000000
11
348.6779953133
21
134.1977780209
31
0.0000000000
11
348.6779748027
21
134.2248672410
31
0.0000000000
11
348.6779526064
21
134.2497309074
31
0.0000000000
11
348.6779521412
21
134.2502281869
31
0.0000000000
0
SPLINE
5
538
100
AcDbEntity
8
0
100
AcDbSpline
62
7
6
CONTINUOUS
70
0
71
3
72
20
73
16
74
14
42
0.0000001000
43
0.0000001000
44
0.0000000001
40
0.0000000000
40
0.0000000000
40
0.0000000000
40
0.0000000000
40
0.0028729125
40
0.0241191266
40
0.0607874895
40
0.1112081611
40
0.1741109170
40
0.2485510870
40
0.3337630919
40
0.4290191915
40
0.5335060895
40
0.6462602112
40
0.7662047897
40
0.8920979112
40
1.0000000000
40
1.0000000000
40
1.0000000000
40
1.0000000000
10
346.7252484497
20
141.4538270337
30
0.0000000000
10
346.7196070208
20
141.4702449146
30
0.0000000000
10
346.6557610114
20
141.6516050012
30
0.0000000000
10
346.5773524762
20
141.9461217436
30
0.0000000000
10
346.4047653729
20
142.6188410272
30
0.0000000000
10
346.2252224489
20
143.4910736509
30
0.0000000000
10
346.0245128251
20
144.6154364930
30
0.0000000000
10
345.8268069329
20
145.9449273984
30
0.0000000000
10
345.6364920641
20
147.4757976600
30
0.0000000000
10
345.4622963120
20
149.1904282608
30
0.0000000000
10
345.3099887109
20
151.0746119580
30
0.0000000000
10
345.1852880258
20
153.1103620712
30
0.0000000000
10
345.0931449465
20
155.2774733106
30
0.0000000000
10
345.0413403636
20
157.4165478428
30
0.0000000000
10
345.0306016798
20
158.8306890171
30
0.0000000000
10
345.0306048471
20
159.4833385899
30
0.0000000000
11
346.7252484497
21
141.4538270337
31
0.0000000000
11
346.7048616315
21
141.5125346064
31
0.0000000000
11
346.5948819361
21
141.8820370226
31
0.0000000000
11
346.4327888062
21
142.5273553866
31
0.0000000000
11
346.2430367900
21
143.4223683752
31
0.0000000000
11
346.0420487499
21
144.5459329664
31
0.0000000000
11
345.8412958606
21
145.8816829980
31
0.0000000000
11
345.6494344240
21
147.4159448329
31
0.0000000000
11
345.4735685413
21
149.1354410044
31
0.0000000000
11
345.3199261155
21
151.0251689046
31
0.0000000000
11
345.1941139052
21
153.0672730968
31
0.0000000000
11
345.1011406344
21
155.2417366847
31
0.0000000000
11
345.0455196490
21
157.5254488345
31
0.0000000000
11
345.0306048471
21
159.4833385899
31
0.0000000000
0
SPLINE
5
539
100
AcDbEntity
8
0
100
AcDbSpline
62
7
6
CONTINUOUS
70
0
71
3
72
17
73
13
74
11
42
0.0000001000
43
0.0000001000
44
0.0000000001
40
0.0000000000
40
0.0000000000
40
0.0000000000
40
0.0000000000
40
0.0376111042
40
0.1323051666
40
0.2346665084
40
0.3406981630
40
0.4487168699
40
0.5580561062
40
0.6679517392
40
0.7786166700
40
0.8892873520
40
1.0000000000
40
1.0000000000
40
1.0000000000
40
1.0000000000
10
333.2303466872
20
111.5152678106
30
0.0000000000
10
333.5293330652
20
111.5339927625
30
0.0000000000
10
334.5794612213
20
111.6287664456
30
0.0000000000
10
336.4206151578
20
111.9761025727
30
0.0000000000
10
338.7116359191
20
112.7600313287
30
0.0000000000
10
340.9532736429
20
113.9296703963
30
0.0000000000
10
343.0324269637
20
115.4649652879
30
0.0000000000
10
344.8670409827
20
117.3294065705
30
0.0000000000
10
346.3963512180
20
119.4775403641
30
0.0000000000
10
347.5697507498
20
121.8512323028
30
0.0000000000
10
348.3517946773
20
124.3871076231
30
0.0000000000
10
348.5971040343
20
126.1410523208
30
0.0000000000
10
348.6491352449
20
127.0207381359
30
0.0000000000
11
333.2303466872
21
111.5152678106
31
0.0000000000
11
334.1254077240
21
111.5960428996
31
0.0000000000
11
336.3474046066
21
112.0150984358
31
0.0000000000
11
338.6600400878
21
112.8063527775
31
0.0000000000
11
340.9047770790
21
113.9775240937
31
0.0000000000
11
342.9797487508
21
115.5096786659
31
0.0000000000
11
344.8110043525
21
117.3706376542
31
0.0000000000
11
346.3329287255
21
119.5083851490
31
0.0000000000
11
347.5040343448
21
121.8772409536
31
0.0000000000
11
348.2826981953
21
124.4025873935
31
0.0000000000
11
348.6491352449
21
127.0207381359
31
0.0000000000
0
SPLINE
5
53A
100
AcDbEntity
8
0
100
AcDbSpline
62
7
6
CONTINUOUS
70
0
71
3
72
17
73
13
74
11
42
0.0000001000
43
0.0000001000
44
0.0000000001
40
0.0000000000
40
0.0000000000
40
0.0000000000
40
0.0000000000
40
0.0271603601
40
0.1210233986
40
0.2236721688
40
0.3309917812
40
0.4420155559
40
0.5557270699
40
0.6708608370
40
0.7861087853
40
0.9002012993
40
1.0000000000
40
1.0000000000
40
1.0000000000
40
1.0000000000
10
333.2321943174
20
111.5153178375
30
0.0000000000
10
333.4480976031
20
111.5288858607
30
0.0000000000
10
334.4090159929
20
111.6084752705
30
0.0000000000
10
336.1685042949
20
111.9117580289
30
0.0000000000
10
338.4773063149
20
112.6603515873
30
0.0000000000
10
340.7687693524
20
113.8127390531
30
0.0000000000
10
342.9223956034
20
115.3638803714
30
0.0000000000
10
344.8406671462
20
117.2881641631
30
0.0000000000
10
346.4352167886
20
119.5300671343
30
0.0000000000
10
347.6370686393
20
122.0083806241
30
0.0000000000
10
348.3788220396
20
124.5324861272
30
0.0000000000
10
348.6021495050
20
126.2275895273
30
0.0000000000
10
348.6491012492
20
127.0207401483
30
0.0000000000
11
333.2321943174
21
111.5153178375
31
0.0000000000
11
333.8789523787
21
111.5688654960
31
0.0000000000
11
336.0874034284
21
111.9495169160
31
0.0000000000
11
338.4187152746
21
112.7053607994
31
0.0000000000
11
340.7078845119
21
113.8564767187
31
0.0000000000
11
342.8588032649
21
115.4056518961
31
0.0000000000
11
344.7755674492
21
117.3283395195
31
0.0000000000
11
346.3687995077
21
119.5683967760
31
0.0000000000
11
347.5695566725
21
122.0441637339
31
0.0000000000
11
348.3374264795
21
124.6576984536
31
0.0000000000
11
348.6491012492
21
127.0207401483
31
0.0000000000
0
SPLINE
5
53B
100
AcDbEntity
8
0
100
AcDbSpline
62
7
6
CONTINUOUS
70
0
71
3
72
9
73
5
74
3
42
0.0000001000
43
0.0000001000
44
0.0000000001
40
0.0000000000
40
0.0000000000
40
0.0000000000
40
0.0000000000
40
0.4907000927
40
1.0000000000
40
1.0000000000
40
1.0000000000
40
1.0000000000
10
348.6478215583
20
127.0310099243
30
0.0000000000
10
348.6570272839
20
127.1887130555
30
0.0000000000
10
348.6717113787
20
127.5103516479
30
0.0000000000
10
348.6774653744
20
127.8322700283
30
0.0000000000
10
348.6777454842
20
127.9962349392
30
0.0000000000
11
348.6478215583
21
127.0310099243
31
0.0000000000
11
348.6692880092
21
127.5044365989
31
0.0000000000
11
348.6777454842
21
127.9962349392
31
0.0000000000
0
SPLINE
5
53C
100
AcDbEntity
8
0
100
AcDbSpline
62
7
6
CONTINUOUS
70
0
71
3
72
8
73
4
74
2
42
0.0000001000
43
0.0000001000
44
0.0000000001
40
0.0000000000
40
0.0000000000
40
0.0000000000
40
0.0000000000
40
1.0000000000
40
1.0000000000
40
1.0000000000
40
1.0000000000
10
332.2101117608
20
111.4833385899
30
0.0000000000
10
332.5502805371
20
111.4833230944
30
0.0000000000
10
332.8906110795
20
111.4939908114
30
0.0000000000
10
333.2303466872
20
111.5152678106
30
0.0000000000
11
332.2101117608
21
111.4833385899
31
0.0000000000
11
333.2303466872
21
111.5152678106
31
0.0000000000
0
SPLINE
5
53D
100
AcDbEntity
8
0
100
AcDbSpline
62
7
6
CONTINUOUS
70
0
71
3
72
8
73
4
74
2
42
0.0000001000
43
0.0000001000
44
0.0000000001
40
0.0000000000
40
0.0000000000
40
0.0000000000
40
0.0000000000
40
1.0000000000
40
1.0000000000
40
1.0000000000
40
1.0000000000
10
348.6764242583
20
326.7895187433
30
0.0000000000
10
348.6707056332
20
327.2308381414
30
0.0000000000
10
348.6475465519
20
327.6723246135
30
0.0000000000
10
348.6070859665
20
328.1123652066
30
0.0000000000
11
348.6764242583
21
326.7895187433
31
0.0000000000
11
348.6070859665
21
328.1123652066
31
0.0000000000
0
SPLINE
5
53E
100
AcDbEntity
8
0
100
AcDbSpline
62
7
6
CONTINUOUS
70
0
71
3
72
8
73
4
74
2
42
0.0000001000
43
0.0000001000
44
0.0000000001
40
0.0000000000
40
0.0000000000
40
0.0000000000
40
0.0000000000
40
1.0000000000
40
1.0000000000
40
1.0000000000
40
1.0000000000
10
348.6069403669
20
328.1139478991
30
0.0000000000
10
348.5664598067
20
328.5537513183
30
0.0000000000
10
348.5086962817
20
328.9921084623
30
0.0000000000
10
348.4337885223
20
329.4274089467
30
0.0000000000
11
348.6069403669
21
328.1139478991
31
0.0000000000
11
348.4337885223
21
329.4274089467
31
0.0000000000
0
SPLINE
5
53F
100
AcDbEntity
8
0
100
AcDbSpline
62
7
6
CONTINUOUS
70
0
71
3
72
8
73
4
74
2
42
0.0000001000
43
0.0000001000
44
0.0000000001
40
0.0000000000
40
0.0000000000
40
0.0000000000
40
0.0000000000
40
1.0000000000
40
1.0000000000
40
1.0000000000
40
1.0000000000
10
348.4333255184
20
329.4300982274
30
0.0000000000
10
348.3582279986
20
329.8660778344
30
0.0000000000
10
348.2659321892
20
330.2989880573
30
0.0000000000
10
348.1567861696
20
330.7275687236
30
0.0000000000
11
348.4333255184
21
329.4300982274
31
0.0000000000
11
348.1567861696
21
330.7275687236
31
0.0000000000
0
SPLINE
5
540
100
AcDbEntity
8
0
100
AcDbSpline
62
7
6
CONTINUOUS
70
0
71
3
72
8
73
4
74
2
42
0.0000001000
43
0.0000001000
44
0.0000000001
40
0.0000000000
40
0.0000000000
40
0.0000000000
40
0.0000000000
40
1.0000000000
40
1.0000000000
40
1.0000000000
40
1.0000000000
10
348.1559446697
20
330.7308716223
30
0.0000000000
10
348.0471124068
20
331.1578594041
30
0.0000000000
10
347.9215541045
20
331.5805460929
30
0.0000000000
10
347.7796140302
20
331.9976853223
30
0.0000000000
11
348.1559446697
21
330.7308716223
31
0.0000000000
11
347.7796140302
21
331.9976853223
31
0.0000000000
0
SPLINE
5
541
100
AcDbEntity
8
0
100
AcDbSpline
62
7
6
CONTINUOUS
70
0
71
3
72
8
73
4
74
2
42
0.0000001000
43
0.0000001000
44
0.0000000001
40
0.0000000000
40
0.0000000000
40
0.0000000000
40
0.0000000000
40
1.0000000000
40
1.0000000000
40
1.0000000000
40
1.0000000000
10
347.7779966823
20
332.0024361278
30
0.0000000000
10
347.6357158269
20
332.4201685474
30
0.0000000000
10
347.4770045665
20
332.8323318484
30
0.0000000000
10
347.3024113860
20
333.2376646603
30
0.0000000000
11
347.7779966823
21
332.0024361278
31
0.0000000000
11
347.3024113860
21
333.2376646603
31
0.0000000000
0
SPLINE
5
542
100
AcDbEntity
8
0
100
AcDbSpline
62
7
6
CONTINUOUS
70
0
71
3
72
8
73
4
74
2
42
0.0000001000
43
0.0000001000
44
0.0000000001
40
0.0000000000
40
0.0000000000
40
0.0000000000
40
0.0000000000
40
1.0000000000
40
1.0000000000
40
1.0000000000
40
1.0000000000
10
347.3000859318
20
333.2430608163
30
0.0000000000
10
347.1257139809
20
333.6474929359
30
0.0000000000
10
346.9355283082
20
334.0451172783
30
0.0000000000
10
346.7300740037
20
334.4346803001
30
0.0000000000
11
347.3000859318
21
333.2430608163
31
0.0000000000
11
346.7300740037
21
334.4346803001
31
0.0000000000
0
SPLINE
5
543
100
AcDbEntity
8
0
100
AcDbSpline
62
7
6
CONTINUOUS
70
0
71
3
72
8
73
4
74
2
42
0.0000001000
43
0.0000001000
44
0.0000000001
40
0.0000000000
40
0.0000000000
40
0.0000000000
40
0.0000000000
40
1.0000000000
40
1.0000000000
40
1.0000000000
40
1.0000000000
10
346.7300740037
20
334.4346803001
30
0.0000000000
10
346.6461214334
20
334.5938632244
30
0.0000000000
10
346.5596193199
20
334.7517000541
30
0.0000000000
10
346.4706175223
20
334.9081138762
30
0.0000000000
11
346.7300740037
21
334.4346803001
31
0.0000000000
11
346.4706175223
21
334.9081138762
31
0.0000000000
0
SPLINE
5
544
100
AcDbEntity
8
0
100
AcDbSpline
62
7
6
CONTINUOUS
70
0
71
3
72
8
73
4
74
2
42
0.0000001000
43
0.0000001000
44
0.0000000001
40
0.0000000000
40
0.0000000000
40
0.0000000000
40
0.0000000000
40
1.0000000000
40
1.0000000000
40
1.0000000000
40
1.0000000000
10
332.7356510860
20
343.4506408822
30
0.0000000000
10
332.3834619472
20
343.4724079030
30
0.0000000000
10
332.0306921688
20
343.4833133782
30
0.0000000000
10
331.6781378578
20
343.4833308462
30
0.0000000000
11
332.7356510860
21
343.4506408822
31
0.0000000000
11
331.6781378578
21
343.4833308462
31
0.0000000000
0
SPLINE
5
545
100
AcDbEntity
8
0
100
AcDbSpline
62
7
6
CONTINUOUS
70
0
71
3
72
8
73
4
74
2
42
0.0000001000
43
0.0000001000
44
0.0000000001
40
0.0000000000
40
0.0000000000
40
0.0000000000
40
0.0000000000
40
1.0000000000
40
1.0000000000
40
1.0000000000
40
1.0000000000
10
348.6776930098
20
326.6613704188
30
0.0000000000
10
348.6776444829
20
326.6681925376
30
0.0000000000
10
348.6775904848
20
326.6750077883
30
0.0000000000
10
348.6775321972
20
326.6821380907
30
0.0000000000
11
348.6776930098
21
326.6613704188
31
0.0000000000
11
348.6775321972
21
326.6821380907
31
0.0000000000
0
SPLINE
5
546
100
AcDbEntity
8
0
100
AcDbSpline
62
7
6
CONTINUOUS
70
0
71
3
72
8
73
4
74
2
42
0.0000001000
43
0.0000001000
44
0.0000000001
40
0.0000000000
40
0.0000000000
40
0.0000000000
40
0.0000000000
40
1.0000000000
40
1.0000000000
40
1.0000000000
40
1.0000000000
10
348.6775321972
20
326.6821380907
30
0.0000000000
10
348.6773980065
20
326.6985536047
30
0.0000000000
10
348.6772410806
20
326.7166389585
30
0.0000000000
10
348.6770572818
20
326.7353319812
30
0.0000000000
11
348.6775321972
21
326.6821380907
31
0.0000000000
11
348.6770572818
21
326.7353319812
31
0.0000000000
0
SPLINE
5
547
100
AcDbEntity
8
0
100
AcDbSpline
62
7
6
CONTINUOUS
70
0
71
3
72
9
73
5
74
3
42
0.0000001000
43
0.0000001000
44
0.0000000001
40
0.0000000000
40
0.0000000000
40
0.0000000000
40
0.0000000000
40
0.4801241339
40
1.0000000000
40
1.0000000000
40
1.0000000000
40
1.0000000000
10
348.6770572818
20
326.7353319812
30
0.0000000000
10
348.6768801406
20
326.7533478990
30
0.0000000000
10
348.6764592023
20
326.7920469776
30
0.0000000000
10
348.6759139108
20
326.8290696902
30
0.0000000000
10
348.6755975837
20
326.8481232157
30
0.0000000000
11
348.6770572818
21
326.7353319812
31
0.0000000000
11
348.6764472695
21
326.7901221876
31
0.0000000000
11
348.6755975837
21
326.8481232157
31
0.0000000000
0
SPLINE
5
548
100
AcDbEntity
8
0
100
AcDbSpline
62
7
6
CONTINUOUS
70
0
71
3
72
8
73
4
74
2
42
0.0000001000
43
0.0000001000
44
0.0000000001
40
0.0000000000
40
0.0000000000
40
0.0000000000
40
0.0000000000
40
1.0000000000
40
1.0000000000
40
1.0000000000
40
1.0000000000
10
348.6755975837
20
326.8481232157
30
0.0000000000
10
348.6752354016
20
326.8699387575
30
0.0000000000
10
348.6748301641
20
326.8915003851
30
0.0000000000
10
348.6743830210
20
326.9131974257
30
0.0000000000
11
348.6755975837
21
326.8481232157
31
0.0000000000
11
348.6743830210
21
326.9131974257
31
0.0000000000
0
SPLINE
5
549
100
AcDbEntity
8
0
100
AcDbSpline
62
7
6
CONTINUOUS
70
0
71
3
72
8
73
4
74
2
42
0.0000001000
43
0.0000001000
44
0.0000000001
40
0.0000000000
40
0.0000000000
40
0.0000000000
40
0.0000000000
40
1.0000000000
40
1.0000000000
40
1.0000000000
40
1.0000000000
10
348.6743830210
20
326.9131974257
30
0.0000000000
10
348.6732619520
20
326.9675958523
30
0.0000000000
10
348.6718774655
20
327.0228454793
30
0.0000000000
10
348.6702240778
20
327.0778810551
30
0.0000000000
11
348.6743830210
21
326.9131974257
31
0.0000000000
11
348.6702240778
21
327.0778810551
31
0.0000000000
0
SPLINE
5
54A
100
AcDbEntity
8
0
100
AcDbSpline
62
7
6
CONTINUOUS
70
0
71
3
72
12
73
8
74
6
42
0.0000001000
43
0.0000001000
44
0.0000000001
40
0.0000000000
40
0.0000000000
40
0.0000000000
40
0.0000000000
40
0.1968452446
40
0.4087703128
40
0.6327081795
40
0.8677554283
40
1.0000000000
40
1.0000000000
40
1.0000000000
40
1.0000000000
10
348.6702240778
20
327.0778810551
30
0.0000000000
10
348.6681761825
20
327.1460484290
30
0.0000000000
10
348.6630668384
20
327.2869233821
30
0.0000000000
10
348.6524125591
20
327.5054030844
30
0.0000000000
10
348.6380085997
20
327.7367420905
30
0.0000000000
10
348.6224357646
20
327.9404460789
30
0.0000000000
10
348.6113314574
20
328.0668691319
30
0.0000000000
10
348.6071480904
20
328.1123709184
30
0.0000000000
11
348.6702240778
21
327.0778810551
31
0.0000000000
11
348.6628439423
21
327.2817906488
31
0.0000000000
11
348.6521377480
21
327.5012039407
31
0.0000000000
11
348.6377149698
21
327.7328818386
31
0.0000000000
11
348.6191423641
21
327.9758149282
31
0.0000000000
11
348.6071480904
21
328.1123709184
31
0.0000000000
0
SPLINE
5
54B
100
AcDbEntity
8
0
100
AcDbSpline
62
7
6
CONTINUOUS
70
0
71
3
72
13
73
9
74
7
42
0.0000001000
43
0.0000001000
44
0.0000000001
40
0.0000000000
40
0.0000000000
40
0.0000000000
40
0.0000000000
40
0.0872698805
40
0.2860176774
40
0.4899719641
40
0.6973194456
40
0.9067556951
40
1.0000000000
40
1.0000000000
40
1.0000000000
40
1.0000000000
10
348.6070025040
20
328.1139536178
30
0.0000000000
10
348.6034696308
20
328.1523403413
30
0.0000000000
10
348.5914589614
20
328.2781084926
30
0.0000000000
10
348.5684595713
20
328.4933222277
30
0.0000000000
10
348.5355817183
20
328.7607906478
30
0.0000000000
10
348.4977285216
20
329.0323690286
30
0.0000000000
10
348.4629724213
20
329.2549710490
30
0.0000000000
10
348.4407754744
20
329.3868176758
30
0.0000000000
10
348.4337885840
20
329.4274089600
30
0.0000000000
11
348.6070025040
21
328.1139536178
31
0.0000000000
11
348.5960084856
21
328.2290763363
31
0.0000000000
11
348.5680219001
21
328.4909569096
31
0.0000000000
11
348.5350478189
21
328.7592090568
31
0.0000000000
11
348.4971168470
21
329.0313460060
31
0.0000000000
11
348.4543024787
21
329.3055593382
31
0.0000000000
11
348.4337885840
21
329.4274089600
31
0.0000000000
0
SPLINE
5
54C
100
AcDbEntity
8
0
100
AcDbSpline
62
7
6
CONTINUOUS
70
0
71
3
72
13
73
9
74
7
42
0.0000001000
43
0.0000001000
44
0.0000000001
40
0.0000000000
40
0.0000000000
40
0.0000000000
40
0.0000000000
40
0.1164437385
40
0.3308591844
40
0.5483880725
40
0.7693427645
40
0.9940320668
40
1.0000000000
40
1.0000000000
40
1.0000000000
40
1.0000000000
10
348.4333254636
20
329.4300982180
30
0.0000000000
10
348.4245802453
20
329.4808555652
30
0.0000000000
10
348.3990705108
20
329.6249617862
30
0.0000000000
10
348.3536794037
20
329.8632479215
30
0.0000000000
10
348.2948205552
20
330.1459865240
30
0.0000000000
10
348.2300867746
20
330.4320998438
30
0.0000000000
10
348.1825927637
20
330.6261362660
30
0.0000000000
10
348.1574378413
20
330.7250106956
30
0.0000000000
10
348.1567863919
20
330.7275687801
30
0.0000000000
11
348.4333254636
21
329.4300982180
31
0.0000000000
11
348.4063918933
21
329.5822478278
31
0.0000000000
11
348.3531518180
21
329.8617386100
31
0.0000000000
11
348.2943241080
21
330.1443281467
31
0.0000000000
11
348.2296238414
21
330.4302938387
31
0.0000000000
11
348.1587389371
21
330.7198940679
31
0.0000000000
11
348.1567863919
21
330.7275687801
31
0.0000000000
0
SPLINE
5
54D
100
AcDbEntity
8
0
100
AcDbSpline
62
7
6
CONTINUOUS
70
0
71
3
72
12
73
8
74
6
42
0.0000001000
43
0.0000001000
44
0.0000000001
40
0.0000000000
40
0.0000000000
40
0.0000000000
40
0.0000000000
40
0.2210414279
40
0.4550135704
40
0.6936708375
40
0.9373750275
40
1.0000000000
40
1.0000000000
40
1.0000000000
40
1.0000000000
10
348.1559449093
20
330.7308716834
30
0.0000000000
10
348.1318898880
20
330.8252501546
30
0.0000000000
10
348.0806888427
20
331.0190990292
30
0.0000000000
10
347.9973732270
20
331.3131849173
30
0.0000000000
10
347.9057242249
20
331.6152335281
30
0.0000000000
10
347.8316659020
20
331.8436734454
30
0.0000000000
10
347.7885022655
20
331.9715619627
30
0.0000000000
10
347.7796139209
20
331.9976852805
30
0.0000000000
11
348.1559449093
21
330.7308716834
31
0.0000000000
11
348.0813297489
21
331.0133675942
31
0.0000000000
11
347.9970286229
21
331.3109325982
31
0.0000000000
11
347.9054313863
21
331.6128110859
31
0.0000000000
11
347.8060865251
21
331.9192502125
31
0.0000000000
11
347.7796139209
21
331.9976852805
31
0.0000000000
0
SPLINE
5
54E
100
AcDbEntity
8
0
100
AcDbSpline
62
7
6
CONTINUOUS
70
0
71
3
72
12
73
8
74
6
42
0.0000001000
43
0.0000001000
44
0.0000000001
40
0.0000000000
40
0.0000000000
40
0.0000000000
40
0.0000000000
40
0.1824063307
40
0.4368966559
40
0.6975174750
40
0.9646314138
40
1.0000000000
40
1.0000000000
40
1.0000000000
40
1.0000000000
10
347.7779966778
20
332.0024361262
30
0.0000000000
10
347.7520442054
20
332.0786374659
30
0.0000000000
10
347.6885766470
20
332.2607087130
30
0.0000000000
10
347.5822776961
20
332.5496177280
30
0.0000000000
10
347.4565457401
20
332.8711380091
30
0.0000000000
10
347.3612622116
20
333.1006695107
30
0.0000000000
10
347.3086222938
20
333.2233445979
30
0.0000000000
10
347.3024473417
20
333.2376801485
30
0.0000000000
11
347.7779966778
21
332.0024361262
31
0.0000000000
11
347.6985054544
21
332.2304750584
31
0.0000000000
11
347.5821633427
21
332.5466807961
31
0.0000000000
11
347.4564986076
21
332.8680296963
31
0.0000000000
11
347.3209125107
21
333.1946478556
31
0.0000000000
11
347.3024473417
21
333.2376801485
31
0.0000000000
0
SPLINE
5
54F
100
AcDbEntity
8
0
100
AcDbSpline
62
7
6
CONTINUOUS
70
0
71
3
72
11
73
7
74
5
42
0.0000001000
43
0.0000001000
44
0.0000000001
40
0.0000000000
40
0.0000000000
40
0.0000000000
40
0.0000000000
40
0.2346394559
40
0.5163986240
40
0.8057518107
40
1.0000000000
40
1.0000000000
40
1.0000000000
40
1.0000000000
10
347.3001218644
20
333.2430763089
30
0.0000000000
10
347.2592067298
20
333.3379724941
30
0.0000000000
10
347.1672417729
20
333.5459947360
30
0.0000000000
10
347.0172131410
20
333.8676178933
30
0.0000000000
10
346.8679133091
20
334.1698595960
30
0.0000000000
10
346.7699843594
20
334.3590079998
30
0.0000000000
10
346.7300740586
20
334.4346803318
30
0.0000000000
11
347.3001218644
21
333.2430763089
31
0.0000000000
11
347.1747688479
21
333.5266217171
31
0.0000000000
11
347.0173935600
21
333.8639947813
31
0.0000000000
11
346.8480750458
21
334.2067628487
31
0.0000000000
11
346.7300740586
21
334.4346803318
31
0.0000000000
0
SPLINE
5
550
100
AcDbEntity
8
0
100
AcDbSpline
62
7
6
CONTINUOUS
70
0
71
3
72
9
73
5
74
3
42
0.0000001000
43
0.0000001000
44
0.0000000001
40
0.0000000000
40
0.0000000000
40
0.0000000000
40
0.0000000000
40
0.2521755267
40
1.0000000000
40
1.0000000000
40
1.0000000000
40
1.0000000000
10
346.7300740586
20
334.4346803318
30
0.0000000000
10
346.7088992100
20
334.4748291191
30
0.0000000000
10
346.6242884721
20
334.6337006726
30
0.0000000000
10
346.5371420121
20
334.7912119429
30
0.0000000000
10
346.4705761732
20
334.9082021809
30
0.0000000000
11
346.7300740586
21
334.4346803318
31
0.0000000000
11
346.6660644423
21
334.5548696507
31
0.0000000000
11
346.4705761732
21
334.9082021809
31
0.0000000000
0
SPLINE
5
551
100
AcDbEntity
8
0
100
AcDbSpline
62
7
6
CONTINUOUS
70
0
71
3
72
14
73
10
74
8
42
0.0000001000
43
0.0000001000
44
0.0000000001
40
0.0000000000
40
0.0000000000
40
0.0000000000
40
0.0000000000
40
0.0875068105
40
0.2623927246
40
0.4436539218
40
0.6232800028
40
0.7895870490
40
0.9246001298
40
1.0000000000
40
1.0000000000
40
1.0000000000
40
1.0000000000
10
348.6781009163
20
326.5217319534
30
0.0000000000
10
348.6781009091
20
326.5280629390
30
0.0000000000
10
348.6780930683
20
326.5470438542
30
0.0000000000
10
348.6780386858
20
326.5790903295
30
0.0000000000
10
348.6778984934
20
326.6180638728
30
0.0000000000
10
348.6776969467
20
326.6554158272
30
0.0000000000
10
348.6774134919
20
326.6927542728
30
0.0000000000
10
348.6772353024
20
326.7133799404
30
0.0000000000
10
348.6769746048
20
326.7388383548
30
0.0000000000
10
348.6769735516
20
326.7388383437
30
0.0000000000
11
348.6781009163
21
326.5217319534
31
0.0000000000
11
348.6780929742
21
326.5407199839
31
0.0000000000
11
348.6780275230
21
326.5786735838
31
0.0000000000
11
348.6778870826
21
326.6180105502
31
0.0000000000
11
348.6776725414
21
326.6569923249
31
0.0000000000
11
348.6774057295
21
326.6930832132
31
0.0000000000
11
348.6771407469
21
326.7223824883
31
0.0000000000
11
348.6769735516
21
326.7388383437
31
0.0000000000
0
SPLINE
5
552
100
AcDbEntity
8
0
100
AcDbSpline
62
7
6
CONTINUOUS
70
0
71
3
72
11
73
7
74
5
42
0.0000001000
43
0.0000001000
44
0.0000000001
40
0.0000000000
40
0.0000000000
40
0.0000000000
40
0.0000000000
40
0.2738564970
40
0.5482375700
40
0.8226272439
40
1.0000000000
40
1.0000000000
40
1.0000000000
40
1.0000000000
10
317.3397884741
20
191.2846367669
30
0.0000000000
10
317.1639786797
20
191.1007416191
30
0.0000000000
10
316.8495817490
20
190.6944976944
30
0.0000000000
10
316.5153796552
20
190.0012254093
30
0.0000000000
10
316.3537670139
20
189.3413734212
30
0.0000000000
10
316.3253457818
20
188.9204905773
30
0.0000000000
10
316.3253267073
20
188.7554269145
30
0.0000000000
11
317.3397884741
21
191.2846367669
31
0.0000000000
11
316.8727559672
21
190.6809667303
31
0.0000000000
11
316.5405845095
21
189.9921845954
31
0.0000000000
11
316.3587817216
21
189.2493904693
31
0.0000000000
11
316.3253267073
21
188.7554269145
31
0.0000000000
0
SPLINE
5
553
100
AcDbEntity
8
0
100
AcDbSpline
62
7
6
CONTINUOUS
70
0
71
3
72
8
73
4
74
2
42
0.0000001000
43
0.0000001000
44
0.0000000001
40
0.0000000000
40
0.0000000000
40
0.0000000000
40
0.0000000000
40
1.0000000000
40
1.0000000000
40
1.0000000000
40
1.0000000000
10
314.7634464492
20
141.9206469079
30
0.0000000000
10
314.7138131278
20
141.8439372850
30
0.0000000000
10
314.6649899849
20
141.7667068684
30
0.0000000000
10
314.6169870099
20
141.6889721909
30
0.0000000000
11
314.7634464492
21
141.9206469079
31
0.0000000000
11
314.6169870099
21
141.6889721909
31
0.0000000000
0
SPLINE
5
554
100
AcDbEntity
8
0
100
AcDbSpline
62
7
6
CONTINUOUS
70
0
71
3
72
8
73
4
74
2
42
0.0000001000
43
0.0000001000
44
0.0000000001
40
0.0000000000
40
0.0000000000
40
0.0000000000
40
0.0000000000
40
1.0000000000
40
1.0000000000
40
1.0000000000
40
1.0000000000
10
314.6169870099
20
141.6889721909
30
0.0000000000
10
314.5828490475
20
141.6336901277
30
0.0000000000
10
314.5491258878
20
141.5781530329
30
0.0000000000
10
314.5158211237
20
141.5223668530
30
0.0000000000
11
314.6169870099
21
141.6889721909
31
0.0000000000
11
314.5158211237
21
141.5223668530
31
0.0000000000
0
SPLINE
5
555
100
AcDbEntity
8
0
100
AcDbSpline
62
7
6
CONTINUOUS
70
0
71
3
72
11
73
7
74
5
42
0.0000001000
43
0.0000001000
44
0.0000000001
40
0.0000000000
40
0.0000000000
40
0.0000000000
40
0.0000000000
40
0.1184527527
40
0.4116747548
40
0.7058106474
40
1.0000000000
40
1.0000000000
40
1.0000000000
40
1.0000000000
10
314.5158211237
20
141.5223668530
30
0.0000000000
10
314.3742178084
20
141.2851783227
30
0.0000000000
10
313.9083711477
20
140.4451960159
30
0.0000000000
10
313.2720316523
20
138.9212760127
30
0.0000000000
10
312.7868164108
20
136.9171303539
30
0.0000000000
10
312.6779523155
20
135.5439387963
30
0.0000000000
10
312.6779521376
20
134.8585196438
30
0.0000000000
11
314.5158211237
21
141.5223668530
31
0.0000000000
11
314.1139777463
21
140.7977499290
31
0.0000000000
11
313.3242593072
21
138.9065125114
31
0.0000000000
11
312.8405755413
21
136.9083363073
31
0.0000000000
11
312.6779521376
21
134.8585196438
31
0.0000000000
0
SPLINE
5
556
100
AcDbEntity
8
0
100
AcDbSpline
62
7
6
CONTINUOUS
70
0
71
3
72
20
73
16
74
14
42
0.0000001000
43
0.0000001000
44
0.0000000001
40
0.0000000000
40
0.0000000000
40
0.0000000000
40
0.0000000000
40
0.0319176161
40
0.0978061492
40
0.1685374107
40
0.2435970944
40
0.3225261104
40
0.4049113022
40
0.4903776588
40
0.5785817297
40
0.6692060078
40
0.7619540929
40
0.8565464825
40
0.9527168677
40
1.0000000000
40
1.0000000000
40
1.0000000000
40
1.0000000000
10
312.6779521391
20
134.2502299127
30
0.0000000000
10
312.6779489353
20
134.2468061097
30
0.0000000000
10
312.6779392222
20
134.2363144429
30
0.0000000000
10
312.6779235640
20
134.2182354319
30
0.0000000000
10
312.6779068247
20
134.1955285682
30
0.0000000000
10
312.6778930592
20
134.1714228488
30
0.0000000000
10
312.6778833711
20
134.1460670095
30
0.0000000000
10
312.6778785193
20
134.1195948444
30
0.0000000000
10
312.6778788828
20
134.0921277431
30
0.0000000000
10
312.6778844421
20
134.0637768352
30
0.0000000000
10
312.6778947703
20
134.0346448172
30
0.0000000000
10
312.6779090356
20
134.0048275255
30
0.0000000000
10
312.6779259901
20
133.9744153039
30
0.0000000000
10
312.6779408979
20
133.9488801101
30
0.0000000000
10
312.6779494042
20
133.9334918454
30
0.0000000000
10
312.6779521263
20
133.9284197817
30
0.0000000000
11
312.6779521391
21
134.2502299127
31
0.0000000000
11
312.6779426626
21
134.2399585035
31
0.0000000000
11
312.6779244534
21
134.2187549111
31
0.0000000000
11
312.6779077786
21
134.1959928777
31
0.0000000000
11
312.6778940378
21
134.1718379118
31
0.0000000000
11
312.6778843363
21
134.1464377534
31
0.0000000000
11
312.6778794323
21
134.1199253610
31
0.0000000000
11
312.6778797039
21
134.0924214180
31
0.0000000000
11
312.6778851306
21
134.0640364512
31
0.0000000000
11
312.6778952848
21
134.0348726384
31
0.0000000000
11
312.6779093304
21
134.0050253644
31
0.0000000000
11
312.6779260282
21
133.9745845757
31
0.0000000000
11
312.6779437449
21
133.9436359724
31
0.0000000000
11
312.6779521263
21
133.9284197817
31
0.0000000000
0
SPLINE
5
557
100
AcDbEntity
8
0
100
AcDbSpline
62
7
6
CONTINUOUS
70
0
71
3
72
16
73
12
74
10
42
0.0000001000
43
0.0000001000
44
0.0000000001
40
0.0000000000
40
0.0000000000
40
0.0000000000
40
0.0000000000
40
0.0994297639
40
0.2087209490
40
0.3243199492
40
0.4457902924
40
0.5726322275
40
0.7042829138
40
0.8402051943
40
0.9803105146
40
1.0000000000
40
1.0000000000
40
1.0000000000
40
1.0000000000
10
312.6779521109
20
133.4924977031
30
0.0000000000
10
312.6779480241
20
133.4735070929
30
0.0000000000
10
312.6779406797
20
133.4336423879
30
0.0000000000
10
312.6779331321
20
133.3716988249
30
0.0000000000
10
312.6779291195
20
133.3055456161
30
0.0000000000
10
312.6779287630
20
133.2360402977
30
0.0000000000
10
312.6779317437
20
133.1634691838
30
0.0000000000
10
312.6779373534
20
133.0881378190
30
0.0000000000
10
312.6779444881
20
133.0102732111
30
0.0000000000
10
312.6779495828
20
132.9537926583
30
0.0000000000
10
312.6779519073
20
132.9232726127
30
0.0000000000
10
312.6779521872
20
132.9195120149
30
0.0000000000
11
312.6779521109
21
133.4924977031
31
0.0000000000
11
312.6779415911
21
133.4355258722
31
0.0000000000
11
312.6779338997
21
133.3729035875
31
0.0000000000
11
312.6779297853
21
133.3066670146
31
0.0000000000
11
312.6779292926
21
133.2370662461
31
0.0000000000
11
312.6779321030
21
133.1643876324
31
0.0000000000
11
312.6779375050
21
133.0889536732
31
0.0000000000
11
312.6779443967
21
133.0110721517
31
0.0000000000
11
312.6779513280
21
132.9307938083
31
0.0000000000
11
312.6779521872
21
132.9195120149
31
0.0000000000
0
SPLINE
5
558
100
AcDbEntity
8
0
100
AcDbSpline
62
7
6
CONTINUOUS
70
0
71
3
72
8
73
4
74
2
42
0.0000001000
43
0.0000001000
44
0.0000000001
40
0.0000000000
40
0.0000000000
40
0.0000000000
40
0.0000000000
40
1.0000000000
40
1.0000000000
40
1.0000000000
40
1.0000000000
10
312.6779488613
20
134.4924252458
30
0.0000000000
10
312.6779465000
20
134.4890941463
30
0.0000000000
10
312.6779451569
20
134.4857970214
30
0.0000000000
10
312.6779447581
20
134.4825477414
30
0.0000000000
11
312.6779488613
21
134.4924252458
31
0.0000000000
11
312.6779447581
21
134.4825477414
31
0.0000000000
0
SPLINE
5
559
100
AcDbEntity
8
0
100
AcDbSpline
62
7
6
CONTINUOUS
70
0
71
3
72
20
73
16
74
14
42
0.0000001000
43
0.0000001000
44
0.0000000001
40
0.0000000000
40
0.0000000000
40
0.0000000000
40
0.0000000000
40
0.1078977212
40
0.2337846387
40
0.3537201112
40
0.4664651565
40
0.5709458227
40
0.6662010396
40
0.7514194308
40
0.8258747041
40
0.8888022083
40
0.9392575894
40
0.9759701124
40
0.9972657441
40
1.0000000000
40
1.0000000000
40
1.0000000000
40
1.0000000000
10
316.3252994275
20
159.4833385899
30
0.0000000000
10
316.3253025925
20
158.8308293109
30
0.0000000000
10
316.3145685688
20
157.4169988314
30
0.0000000000
10
316.2627873415
20
155.2784163020
30
0.0000000000
10
316.1706884907
20
153.1118296555
30
0.0000000000
10
316.0460512177
20
151.0765803478
30
0.0000000000
10
315.8938215887
20
149.1928191835
30
0.0000000000
10
315.7197118875
20
147.4784880606
30
0.0000000000
10
315.5294777893
20
145.9477490061
30
0.0000000000
10
315.3318439080
20
144.6182163434
30
0.0000000000
10
315.1311513498
20
143.4935510217
30
0.0000000000
10
314.9516373654
20
142.6209574944
30
0.0000000000
10
314.7788370369
20
141.9472914542
30
0.0000000000
10
314.7007233000
20
141.6534639547
30
0.0000000000
10
314.6372117977
20
141.4728821670
30
0.0000000000
10
314.6316362064
20
141.4567110441
30
0.0000000000
11
316.3252994275
21
159.4833385899
31
0.0000000000
11
316.3103910499
21
157.5258696797
31
0.0000000000
11
316.2547949253
21
155.2426682315
31
0.0000000000
11
316.1618673209
21
153.0687481611
31
0.0000000000
11
316.0361205061
21
151.0271625963
31
0.0000000000
11
315.8825587640
21
149.1378734874
31
0.0000000000
11
315.7067811795
21
147.4186875557
31
0.0000000000
11
315.5150052813
21
145.8845701586
31
0.0000000000
11
315.3143218533
21
144.5487709432
31
0.0000000000
11
315.1133705116
21
143.4249459957
31
0.0000000000
11
314.9236016542
21
142.5294560634
31
0.0000000000
11
314.7614126954
21
141.8834554254
31
0.0000000000
11
314.6512429899
21
141.5131443356
31
0.0000000000
11
314.6316362064
21
141.4567110441
31
0.0000000000
0
SPLINE
5
55A
100
AcDbEntity
8
0
100
AcDbSpline
62
7
6
CONTINUOUS
70
0
71
3
72
17
73
13
74
11
42
0.0000001000
43
0.0000001000
44
0.0000000001
40
0.0000000000
40
0.0000000000
40
0.0000000000
40
0.0000000000
40
0.0376111042
40
0.1323051666
40
0.2346665084
40
0.3406981630
40
0.4487168699
40
0.5580561062
40
0.6679517392
40
0.7786166700
40
0.8892873520
40
1.0000000000
40
1.0000000000
40
1.0000000000
40
1.0000000000
10
328.1255575879
20
111.5152678106
30
0.0000000000
10
327.8265712099
20
111.5339927625
30
0.0000000000
10
326.7764430538
20
111.6287664456
30
0.0000000000
10
324.9352891173
20
111.9761025727
30
0.0000000000
10
322.6442683560
20
112.7600313287
30
0.0000000000
10
320.4026306322
20
113.9296703963
30
0.0000000000
10
318.3234773114
20
115.4649652879
30
0.0000000000
10
316.4888632924
20
117.3294065705
30
0.0000000000
10
314.9595530572
20
119.4775403641
30
0.0000000000
10
313.7861535253
20
121.8512323028
30
0.0000000000
10
313.0041095979
20
124.3871076231
30
0.0000000000
10
312.7588002408
20
126.1410523208
30
0.0000000000
10
312.7067690303
20
127.0207381359
30
0.0000000000
11
328.1255575879
21
111.5152678106
31
0.0000000000
11
327.2304965511
21
111.5960428996
31
0.0000000000
11
325.0084996685
21
112.0150984358
31
0.0000000000
11
322.6958641873
21
112.8063527775
31
0.0000000000
11
320.4511271962
21
113.9775240937
31
0.0000000000
11
318.3761555243
21
115.5096786659
31
0.0000000000
11
316.5448999227
21
117.3706376542
31
0.0000000000
11
315.0229755496
21
119.5083851490
31
0.0000000000
11
313.8518699303
21
121.8772409536
31
0.0000000000
11
313.0732060798
21
124.4025873935
31
0.0000000000
11
312.7067690303
21
127.0207381359
31
0.0000000000
0
SPLINE
5
55B
100
AcDbEntity
8
0
100
AcDbSpline
62
7
6
CONTINUOUS
70
0
71
3
72
17
73
13
74
11
42
0.0000001000
43
0.0000001000
44
0.0000000001
40
0.0000000000
40
0.0000000000
40
0.0000000000
40
0.0000000000
40
0.0997987007
40
0.2138912147
40
0.3291391630
40
0.4442729301
40
0.5579844441
40
0.6690082188
40
0.7763278312
40
0.8789766014
40
0.9728396399
40
1.0000000000
40
1.0000000000
40
1.0000000000
40
1.0000000000
10
312.7068030259
20
127.0207401483
30
0.0000000000
10
312.7537547701
20
126.2275895273
30
0.0000000000
10
312.9770822355
20
124.5324861272
30
0.0000000000
10
313.7188356358
20
122.0083806241
30
0.0000000000
10
314.9206874866
20
119.5300671343
30
0.0000000000
10
316.5152371289
20
117.2881641631
30
0.0000000000
10
318.4335086718
20
115.3638803714
30
0.0000000000
10
320.5871349228
20
113.8127390531
30
0.0000000000
10
322.8785979602
20
112.6603515873
30
0.0000000000
10
325.1873999802
20
111.9117580289
30
0.0000000000
10
326.9468882822
20
111.6084752705
30
0.0000000000
10
327.9078066720
20
111.5288858607
30
0.0000000000
10
328.1237099578
20
111.5153178375
30
0.0000000000
11
312.7068030259
21
127.0207401483
31
0.0000000000
11
313.0184777956
21
124.6576984536
31
0.0000000000
11
313.7863476027
21
122.0441637339
31
0.0000000000
11
314.9871047674
21
119.5683967760
31
0.0000000000
11
316.5803368259
21
117.3283395195
31
0.0000000000
11
318.4971010102
21
115.4056518961
31
0.0000000000
11
320.6480197633
21
113.8564767187
31
0.0000000000
11
322.9371890005
21
112.7053607994
31
0.0000000000
11
325.2685008467
21
111.9495169160
31
0.0000000000
11
327.4769518964
21
111.5688654960
31
0.0000000000
11
328.1237099578
21
111.5153178375
31
0.0000000000
0
SPLINE
5
55C
100
AcDbEntity
8
0
100
AcDbSpline
62
7
6
CONTINUOUS
70
0
71
3
72
9
73
5
74
3
42
0.0000001000
43
0.0000001000
44
0.0000000001
40
0.0000000000
40
0.0000000000
40
0.0000000000
40
0.0000000000
40
0.5092999073
40
1.0000000000
40
1.0000000000
40
1.0000000000
40
1.0000000000
10
312.6781587909
20
127.9962349392
30
0.0000000000
10
312.6784389007
20
127.8322700283
30
0.0000000000
10
312.6841928964
20
127.5103516479
30
0.0000000000
10
312.6988769912
20
127.1887130555
30
0.0000000000
10
312.7080827168
20
127.0310099243
30
0.0000000000
11
312.6781587909
21
127.9962349392
31
0.0000000000
11
312.6866162659
21
127.5044365989
31
0.0000000000
11
312.7080827168
21
127.0310099243
31
0.0000000000
0
SPLINE
5
55D
100
AcDbEntity
8
0
100
AcDbSpline
62
7
6
CONTINUOUS
70
0
71
3
72
8
73
4
74
2
42
0.0000001000
43
0.0000001000
44
0.0000000001
40
0.0000000000
40
0.0000000000
40
0.0000000000
40
0.0000000000
40
1.0000000000
40
1.0000000000
40
1.0000000000
40
1.0000000000
10
329.1457925144
20
111.4833385899
30
0.0000000000
10
328.8056237380
20
111.4833230944
30
0.0000000000
10
328.4652931957
20
111.4939908114
30
0.0000000000
10
328.1255575879
20
111.5152678106
30
0.0000000000
11
329.1457925144
21
111.4833385899
31
0.0000000000
11
328.1255575879
21
111.5152678106
31
0.0000000000
0
SPLINE
5
55E
100
AcDbEntity
8
0
100
AcDbSpline
62
7
6
CONTINUOUS
70
0
71
3
72
14
73
10
74
8
42
0.0000001000
43
0.0000001000
44
0.0000000001
40
0.0000000000
40
0.0000000000
40
0.0000000000
40
0.0000000000
40
0.0748377008
40
0.2085376239
40
0.3704173176
40
0.5445098473
40
0.7199335522
40
0.8887039758
40
1.0000000000
40
1.0000000000
40
1.0000000000
40
1.0000000000
10
312.6789437124
20
326.7400817095
30
0.0000000000
10
312.6789158500
20
326.7374159281
30
0.0000000000
10
312.6786546559
20
326.7119402723
30
0.0000000000
10
312.6784862238
20
326.6921033534
30
0.0000000000
10
312.6782107870
20
326.6558323771
30
0.0000000000
10
312.6780151465
20
326.6199005778
30
0.0000000000
10
312.6778757287
20
326.5824801242
30
0.0000000000
10
312.6778139082
20
326.5498311525
30
0.0000000000
10
312.6778033550
20
326.5297231501
30
0.0000000000
10
312.6778033375
20
326.5217319591
30
0.0000000000
11
312.6789437124
21
326.7400817095
31
0.0000000000
11
312.6787498074
21
326.7209737456
31
0.0000000000
11
312.6784910705
21
326.6921807814
31
0.0000000000
11
312.6782338516
21
326.6573187004
31
0.0000000000
11
312.6780255035
21
326.6198260464
31
0.0000000000
11
312.6778858547
21
326.5820463846
31
0.0000000000
11
312.6778160787
21
326.5456994077
31
0.0000000000
11
312.6778033375
21
326.5217319591
31
0.0000000000
0
SPLINE
5
55F
100
AcDbEntity
8
0
100
AcDbSpline
62
7
6
CONTINUOUS
70
0
71
3
72
9
73
5
74
3
42
0.0000001000
43
0.0000001000
44
0.0000000001
40
0.0000000000
40
0.0000000000
40
0.0000000000
40
0.0000000000
40
0.2340148562
40
1.0000000000
40
1.0000000000
40
1.0000000000
40
1.0000000000
10
312.6794800197
20
326.7895189669
30
0.0000000000
10
312.6795694006
20
326.7966850040
30
0.0000000000
10
312.6786886794
20
326.7352275595
30
0.0000000000
10
312.6782250154
20
326.6755994987
30
0.0000000000
10
312.6780248770
20
326.6352465884
30
0.0000000000
11
312.6794800197
21
326.7895189669
31
0.0000000000
11
312.6791800362
21
326.7680212764
31
0.0000000000
11
312.6780248770
21
326.6352465884
31
0.0000000000
0
SPLINE
5
560
100
AcDbEntity
8
0
100
AcDbSpline
62
7
6
CONTINUOUS
70
0
71
3
72
8
73
4
74
2
42
0.0000001000
43
0.0000001000
44
0.0000000001
40
0.0000000000
40
0.0000000000
40
0.0000000000
40
0.0000000000
40
1.0000000000
40
1.0000000000
40
1.0000000000
40
1.0000000000
10
329.6777661732
20
343.4833295481
30
0.0000000000
10
329.3252092163
20
343.4833110560
30
0.0000000000
10
328.9724395488
20
343.4724062271
30
0.0000000000
10
328.6202532232
20
343.4506403941
30
0.0000000000
11
329.6777661732
21
343.4833295481
31
0.0000000000
11
328.6202532232
21
343.4506403941
31
0.0000000000
0
SPLINE
5
561
100
AcDbEntity
8
0
100
AcDbSpline
62
7
6
CONTINUOUS
70
0
71
3
72
17
73
13
74
11
42
0.0000001000
43
0.0000001000
44
0.0000000001
40
0.0000000000
40
0.0000000000
40
0.0000000000
40
0.0000000000
40
0.0527810253
40
0.1588973320
40
0.2646643489
40
0.3701357740
40
0.4753817661
40
0.5804901986
40
0.6854617526
40
0.7903477400
40
0.8952759460
40
1.0000000000
40
1.0000000000
40
1.0000000000
40
1.0000000000
10
328.6202532232
20
343.4506403941
30
0.0000000000
10
328.1748416695
20
343.4231130520
30
0.0000000000
10
326.8367386429
20
343.2879437602
30
0.0000000000
10
324.6463464335
20
342.8013318772
30
0.0000000000
10
322.1432353444
20
341.8130460661
30
0.0000000000
10
319.8325640797
20
340.4483232382
30
0.0000000000
10
317.7686312951
20
338.7418316191
30
0.0000000000
10
316.0005983927
20
336.7359948128
30
0.0000000000
10
314.5707083079
20
334.4802820828
30
0.0000000000
10
313.5130785930
20
332.0293608422
30
0.0000000000
10
312.8540561599
20
329.4454082115
30
0.0000000000
10
312.6909384628
20
327.6737921686
30
0.0000000000
10
312.6794800197
20
326.7895189669
30
0.0000000000
11
328.6202532232
21
343.4506403941
31
0.0000000000
11
327.2884279940
21
343.3159938363
31
0.0000000000
11
324.6641128822
21
342.7329005302
31
0.0000000000
11
322.1719562986
21
341.7486826332
31
0.0000000000
11
319.8713582088
21
340.3897477897
31
0.0000000000
11
317.8166001999
21
338.6906485892
31
0.0000000000
11
316.0559520797
21
336.6930210858
31
0.0000000000
11
314.6322774841
21
334.4468926282
31
0.0000000000
11
313.5795282818
21
332.0071924522
31
0.0000000000
11
312.9227996817
21
329.4313798760
31
0.0000000000
11
312.6794800197
21
326.7895189669
31
0.0000000000
0
SPLINE
5
562
100
AcDbEntity
8
0
100
AcDbSpline
62
7
6
CONTINUOUS
70
0
71
3
72
9
73
5
74
3
42
0.0000001000
43
0.0000001000
44
0.0000000001
40
0.0000000000
40
0.0000000000
40
0.0000000000
40
0.0000000000
40
0.4913728934
40
1.0000000000
40
1.0000000000
40
1.0000000000
40
1.0000000000
10
228.2892011238
20
114.6081561366
30
0.0000000000
10
228.3862223405
20
114.5645500204
30
0.0000000000
10
228.5845314753
20
114.4777104226
30
0.0000000000
10
228.7843416070
20
114.3943886638
30
0.0000000000
10
228.8863054679
20
114.3528369958
30
0.0000000000
11
228.2892011238
21
114.6081561366
31
0.0000000000
11
228.5814722189
21
114.4800581443
31
0.0000000000
11
228.8863054679
21
114.3528369958
31
0.0000000000
0
SPLINE
5
563
100
AcDbEntity
8
0
100
AcDbSpline
62
7
6
CONTINUOUS
70
0
71
3
72
9
73
5
74
3
42
0.0000001000
43
0.0000001000
44
0.0000000001
40
0.0000000000
40
0.0000000000
40
0.0000000000
40
0.0000000000
40
0.4973910654
40
1.0000000000
40
1.0000000000
40
1.0000000000
40
1.0000000000
10
228.0122852101
20
114.8634752775
30
0.0000000000
10
228.0576475762
20
114.8205539795
30
0.0000000000
10
228.1494153189
20
114.7348586914
30
0.0000000000
10
228.2422698783
20
114.6503425659
30
0.0000000000
10
228.2892011238
20
114.6081561366
30
0.0000000000
11
228.0122852101
21
114.8634752775
31
0.0000000000
11
228.1492053629
21
114.7355975605
31
0.0000000000
11
228.2892011238
21
114.6081561366
31
0.0000000000
0
SPLINE
5
564
100
AcDbEntity
8
0
100
AcDbSpline
62
7
6
CONTINUOUS
70
0
71
3
72
9
73
5
74
3
42
0.0000001000
43
0.0000001000
44
0.0000000001
40
0.0000000000
40
0.0000000000
40
0.0000000000
40
0.0000000000
40
0.4995974698
40
1.0000000000
40
1.0000000000
40
1.0000000000
40
1.0000000000
10
227.7494371890
20
115.3741135592
30
0.0000000000
10
227.7922877799
20
115.2886057583
30
0.0000000000
10
227.8789888423
20
115.1179172815
30
0.0000000000
10
227.9675270176
20
114.9481745505
30
0.0000000000
10
228.0122852101
20
114.8634752775
30
0.0000000000
11
227.7494371890
21
115.3741135592
31
0.0000000000
11
227.8793775817
21
115.1182907520
31
0.0000000000
11
228.0122852101
21
114.8634752775
31
0.0000000000
0
SPLINE
5
565
100
AcDbEntity
8
0
100
AcDbSpline
62
7
6
CONTINUOUS
70
0
71
3
72
9
73
5
74
3
42
0.0000001000
43
0.0000001000
44
0.0000000001
40
0.0000000000
40
0.0000000000
40
0.0000000000
40
0.0000000000
40
0.5005215586
40
1.0000000000
40
1.0000000000
40
1.0000000000
40
1.0000000000
10
227.5818996768
20
116.3953901226
30
0.0000000000
10
227.6093559886
20
116.2249190412
30
0.0000000000
10
227.6647059596
20
115.8844116201
30
0.0000000000
10
227.7210475241
20
115.5440668638
30
0.0000000000
10
227.7494371890
20
115.3741135592
30
0.0000000000
11
227.5818996768
21
116.3953901226
31
0.0000000000
11
227.6650121119
21
115.8840971820
31
0.0000000000
11
227.7494371890
21
115.3741135592
31
0.0000000000
0
SPLINE
5
566
100
AcDbEntity
8
0
100
AcDbSpline
62
7
6
CONTINUOUS
70
0
71
3
72
9
73
5
74
3
42
0.0000001000
43
0.0000001000
44
0.0000000001
40
0.0000000000
40
0.0000000000
40
0.0000000000
40
0.0000000000
40
0.4992549184
40
1.0000000000
40
1.0000000000
40
1.0000000000
40
1.0000000000
10
225.6491636596
20
147.1843603299
30
0.0000000000
10
225.6625824267
20
147.1417007723
30
0.0000000000
10
225.6899904296
20
147.0564202885
30
0.0000000000
10
225.7184463291
20
146.9714837626
30
0.0000000000
10
225.7329545108
20
146.9290412114
30
0.0000000000
11
225.6491636596
21
147.1843603299
31
0.0000000000
11
225.6902107812
21
147.0566331037
31
0.0000000000
11
225.7329545108
21
146.9290412114
31
0.0000000000
0
SPLINE
5
567
100
AcDbEntity
8
0
100
AcDbSpline
62
7
6
CONTINUOUS
70
0
71
3
72
9
73
5
74
3
42
0.0000001000
43
0.0000001000
44
0.0000000001
40
0.0000000000
40
0.0000000000
40
0.0000000000
40
0.0000000000
40
0.5001196042
40
1.0000000000
40
1.0000000000
40
1.0000000000
40
1.0000000000
10
225.7329545108
20
146.9290412114
30
0.0000000000
10
225.7426575568
20
146.8438848662
30
0.0000000000
10
225.7623145683
20
146.6736419286
30
0.0000000000
10
225.7824828018
20
146.5034587968
30
0.0000000000
10
225.7926923074
20
146.4184029744
30
0.0000000000
11
225.7329545108
21
146.9290412114
31
0.0000000000
11
225.7624471371
21
146.6736161637
31
0.0000000000
11
225.7926923074
21
146.4184029744
31
0.0000000000
0
SPLINE
5
568
100
AcDbEntity
8
0
100
AcDbSpline
62
7
6
CONTINUOUS
70
0
71
3
72
9
73
5
74
3
42
0.0000001000
43
0.0000001000
44
0.0000000001
40
0.0000000000
40
0.0000000000
40
0.0000000000
40
0.0000000000
40
0.5001152331
40
1.0000000000
40
1.0000000000
40
1.0000000000
40
1.0000000000
10
225.7926923074
20
146.4184029744
30
0.0000000000
10
225.7978013466
20
146.2907112593
30
0.0000000000
10
225.8080818852
20
146.0353892618
30
0.0000000000
10
225.8184921386
20
145.7800725203
30
0.0000000000
10
225.8237285087
20
145.6524449036
30
0.0000000000
11
225.7926923074
21
146.4184029744
31
0.0000000000
11
225.8081166982
21
146.0353317333
31
0.0000000000
11
225.8237285087
21
145.6524449036
31
0.0000000000
0
SPLINE
5
569
100
AcDbEntity
8
0
100
AcDbSpline
62
7
6
CONTINUOUS
70
0
71
3
72
9
73
5
74
3
42
0.0000001000
43
0.0000001000
44
0.0000000001
40
0.0000000000
40
0.0000000000
40
0.0000000000
40
0.0000000000
40
0.5001152331
40
1.0000000000
40
1.0000000000
40
1.0000000000
40
1.0000000000
10
225.7926923074
20
144.3758493111
30
0.0000000000
10
225.7978013466
20
144.5035409071
30
0.0000000000
10
225.8080818852
20
144.7588626661
30
0.0000000000
10
225.8184921386
20
145.0141791692
30
0.0000000000
10
225.8237285087
20
145.1418066666
30
0.0000000000
11
225.7926923074
21
144.3758493111
31
0.0000000000
11
225.8081166982
21
144.7589201945
31
0.0000000000
11
225.8237285087
21
145.1418066666
31
0.0000000000
0
SPLINE
5
56A
100
AcDbEntity
8
0
100
AcDbSpline
62
7
6
CONTINUOUS
70
0
71
3
72
9
73
5
74
3
42
0.0000001000
43
0.0000001000
44
0.0000000001
40
0.0000000000
40
0.0000000000
40
0.0000000000
40
0.0000000000
40
0.5001196042
40
1.0000000000
40
1.0000000000
40
1.0000000000
40
1.0000000000
10
225.7329545108
20
143.8652110742
30
0.0000000000
10
225.7426575568
20
143.9503674193
30
0.0000000000
10
225.7623145683
20
144.1206103569
30
0.0000000000
10
225.7824828018
20
144.2907934888
30
0.0000000000
10
225.7926923074
20
144.3758493111
30
0.0000000000
11
225.7329545108
21
143.8652110742
31
0.0000000000
11
225.7624471371
21
144.1206361219
31
0.0000000000
11
225.7926923074
21
144.3758493111
31
0.0000000000
0
SPLINE
5
56B
100
AcDbEntity
8
0
100
AcDbSpline
62
7
6
CONTINUOUS
70
0
71
3
72
9
73
5
74
3
42
0.0000001000
43
0.0000001000
44
0.0000000001
40
0.0000000000
40
0.0000000000
40
0.0000000000
40
0.0000000000
40
0.4992549184
40
1.0000000000
40
1.0000000000
40
1.0000000000
40
1.0000000000
10
225.6491636596
20
143.6098919557
30
0.0000000000
10
225.6625824267
20
143.6525515133
30
0.0000000000
10
225.6899904296
20
143.7378319971
30
0.0000000000
10
225.7184463291
20
143.8227685229
30
0.0000000000
10
225.7329545108
20
143.8652110742
30
0.0000000000
11
225.6491636596
21
143.6098919557
31
0.0000000000
11
225.6902107812
21
143.7376191818
31
0.0000000000
11
225.7329545108
21
143.8652110742
31
0.0000000000
0
SPLINE
5
56C
100
AcDbEntity
8
0
100
AcDbSpline
62
7
6
CONTINUOUS
70
0
71
3
72
9
73
5
74
3
42
0.0000001000
43
0.0000001000
44
0.0000000001
40
0.0000000000
40
0.0000000000
40
0.0000000000
40
0.0000000000
40
0.4926559630
40
1.0000000000
40
1.0000000000
40
1.0000000000
40
1.0000000000
10
225.6200925747
20
115.6294327671
30
0.0000000000
10
225.6490363012
20
115.6726877767
30
0.0000000000
10
225.7098125129
20
115.7591453406
30
0.0000000000
10
225.7742278037
20
115.8429195740
30
0.0000000000
10
225.8077347789
20
115.8847518856
30
0.0000000000
11
225.6200925747
21
115.6294327671
31
0.0000000000
11
225.7098030679
21
115.7572241747
31
0.0000000000
11
225.8077347789
21
115.8847518856
31
0.0000000000
0
SPLINE
5
56D
100
AcDbEntity
8
0
100
AcDbSpline
62
7
6
CONTINUOUS
70
0
71
3
72
9
73
5
74
3
42
0.0000001000
43
0.0000001000
44
0.0000000001
40
0.0000000000
40
0.0000000000
40
0.0000000000
40
0.0000000000
40
0.4997599515
40
1.0000000000
40
1.0000000000
40
1.0000000000
40
1.0000000000
10
225.8077347789
20
115.8847518856
30
0.0000000000
10
225.8282327915
20
115.9700555081
30
0.0000000000
10
225.8702143512
20
116.1405140440
30
0.0000000000
10
225.9141141634
20
116.3104886206
30
0.0000000000
10
225.9365508894
20
116.3953901226
30
0.0000000000
11
225.8077347789
21
115.8847518856
31
0.0000000000
11
225.8706732987
21
116.1403113337
31
0.0000000000
11
225.9365508894
21
116.3953901226
31
0.0000000000
0
SPLINE
5
56E
100
AcDbEntity
8
0
100
AcDbSpline
62
7
6
CONTINUOUS
70
0
71
3
72
9
73
5
74
3
42
0.0000001000
43
0.0000001000
44
0.0000000001
40
0.0000000000
40
0.0000000000
40
0.0000000000
40
0.0000000000
40
0.5004602264
40
1.0000000000
40
1.0000000000
40
1.0000000000
40
1.0000000000
10
225.9365508894
20
116.3953901226
30
0.0000000000
10
225.9665921217
20
116.6511642527
30
0.0000000000
10
226.0284205649
20
117.1620321533
30
0.0000000000
10
226.0938567546
20
117.6724505056
30
0.0000000000
10
226.1274472618
20
117.9273050124
30
0.0000000000
11
225.9365508894
21
116.3953901226
31
0.0000000000
11
226.0293810728
21
117.1623897890
31
0.0000000000
11
226.1274472618
21
117.9273050124
31
0.0000000000
0
SPLINE
5
56F
100
AcDbEntity
8
0
100
AcDbSpline
62
7
6
CONTINUOUS
70
0
71
3
72
9
73
5
74
3
42
0.0000001000
43
0.0000001000
44
0.0000000001
40
0.0000000000
40
0.0000000000
40
0.0000000000
40
0.0000000000
40
0.5001983774
40
1.0000000000
40
1.0000000000
40
1.0000000000
40
1.0000000000
10
226.1274472618
20
117.9273050124
30
0.0000000000
10
226.1358636871
20
118.1827293199
30
0.0000000000
10
226.1528049957
20
118.6933715463
30
0.0000000000
10
226.1699768406
20
119.2040060724
30
0.0000000000
10
226.1786170359
20
119.4592200810
30
0.0000000000
11
226.1274472618
21
117.9273050124
31
0.0000000000
11
226.1528693971
21
118.6935722195
31
0.0000000000
11
226.1786170359
21
119.4592200810
31
0.0000000000
0
SPLINE
5
570
100
AcDbEntity
8
0
100
AcDbSpline
62
7
6
CONTINUOUS
70
0
71
3
72
9
73
5
74
3
42
0.0000001000
43
0.0000001000
44
0.0000000001
40
0.0000000000
40
0.0000000000
40
0.0000000000
40
0.0000000000
40
0.5001152331
40
1.0000000000
40
1.0000000000
40
1.0000000000
40
1.0000000000
10
225.7926923074
20
139.0141474650
30
0.0000000000
10
225.7978013466
20
139.1418390609
30
0.0000000000
10
225.8080818852
20
139.3971608200
30
0.0000000000
10
225.8184921386
20
139.6524773231
30
0.0000000000
10
225.8237285087
20
139.7801048205
30
0.0000000000
11
225.7926923074
21
139.0141474650
31
0.0000000000
11
225.8081166982
21
139.3972183484
31
0.0000000000
11
225.8237285087
21
139.7801048205
31
0.0000000000
0
SPLINE
5
571
100
AcDbEntity
8
0
100
AcDbSpline
62
7
6
CONTINUOUS
70
0
71
3
72
9
73
5
74
3
42
0.0000001000
43
0.0000001000
44
0.0000000001
40
0.0000000000
40
0.0000000000
40
0.0000000000
40
0.0000000000
40
0.5001983774
40
1.0000000000
40
1.0000000000
40
1.0000000000
40
1.0000000000
10
226.1274472618
20
122.7783686215
30
0.0000000000
10
226.1358636871
20
122.5229443737
30
0.0000000000
10
226.1528049957
20
122.0123022664
30
0.0000000000
10
226.1699768406
20
121.5016678596
30
0.0000000000
10
226.1786170359
20
121.2464539105
30
0.0000000000
11
226.1274472618
21
122.7783686215
31
0.0000000000
11
226.1528693971
21
122.0121015934
31
0.0000000000
11
226.1786170359
21
121.2464539105
31
0.0000000000
0
SPLINE
5
572
100
AcDbEntity
8
0
100
AcDbSpline
62
7
6
CONTINUOUS
70
0
71
3
72
9
73
5
74
3
42
0.0000001000
43
0.0000001000
44
0.0000000001
40
0.0000000000
40
0.0000000000
40
0.0000000000
40
0.0000000000
40
0.5001196043
40
1.0000000000
40
1.0000000000
40
1.0000000000
40
1.0000000000
10
225.7329545108
20
138.5035090492
30
0.0000000000
10
225.7426575568
20
138.5886654242
30
0.0000000000
10
225.7623145683
20
138.7589084214
30
0.0000000000
10
225.7824828018
20
138.9290916129
30
0.0000000000
10
225.7926923074
20
139.0141474650
30
0.0000000000
11
225.7329545108
21
138.5035090492
31
0.0000000000
11
225.7624471371
21
138.7589341864
31
0.0000000000
11
225.7926923074
21
139.0141474650
31
0.0000000000
0
SPLINE
5
573
100
AcDbEntity
8
0
100
AcDbSpline
62
7
6
CONTINUOUS
70
0
71
3
72
9
73
5
74
3
42
0.0000001000
43
0.0000001000
44
0.0000000001
40
0.0000000000
40
0.0000000000
40
0.0000000000
40
0.0000000000
40
0.5004602266
40
1.0000000000
40
1.0000000000
40
1.0000000000
40
1.0000000000
10
225.9365508894
20
124.3102840478
30
0.0000000000
10
225.9665921217
20
124.0545098282
30
0.0000000000
10
226.0284205649
20
123.5436417489
30
0.0000000000
10
226.0938567546
20
123.0332232177
30
0.0000000000
10
226.1274472618
20
122.7783686215
30
0.0000000000
11
225.9365508894
21
124.3102840478
31
0.0000000000
11
226.0293810728
21
123.5432841127
31
0.0000000000
11
226.1274472618
21
122.7783686215
31
0.0000000000
0
SPLINE
5
574
100
AcDbEntity
8
0
100
AcDbSpline
62
7
6
CONTINUOUS
70
0
71
3
72
9
73
5
74
3
42
0.0000001000
43
0.0000001000
44
0.0000000001
40
0.0000000000
40
0.0000000000
40
0.0000000000
40
0.0000000000
40
0.4997599515
40
1.0000000000
40
1.0000000000
40
1.0000000000
40
1.0000000000
10
225.8077347789
20
124.8209222848
30
0.0000000000
10
225.8282327915
20
124.7356186623
30
0.0000000000
10
225.8702143512
20
124.5651601264
30
0.0000000000
10
225.9141141634
20
124.3951855498
30
0.0000000000
10
225.9365508894
20
124.3102840478
30
0.0000000000
11
225.8077347789
21
124.8209222848
31
0.0000000000
11
225.8706732987
21
124.5653628367
31
0.0000000000
11
225.9365508894
21
124.3102840478
31
0.0000000000
0
SPLINE
5
575
100
AcDbEntity
8
0
100
AcDbSpline
62
7
6
CONTINUOUS
70
0
71
3
72
9
73
5
74
3
42
0.0000001000
43
0.0000001000
44
0.0000000001
40
0.0000000000
40
0.0000000000
40
0.0000000000
40
0.0000000000
40
0.4992549184
40
1.0000000000
40
1.0000000000
40
1.0000000000
40
1.0000000000
10
225.6491636596
20
138.2481899307
30
0.0000000000
10
225.6625824267
20
138.2908494883
30
0.0000000000
10
225.6899904296
20
138.3761299721
30
0.0000000000
10
225.7184463291
20
138.4610664980
30
0.0000000000
10
225.7329545108
20
138.5035090492
30
0.0000000000
11
225.6491636596
21
138.2481899307
31
0.0000000000
11
225.6902107812
21
138.3759171569
31
0.0000000000
11
225.7329545108
21
138.5035090492
31
0.0000000000
0
SPLINE
5
576
100
AcDbEntity
8
0
100
AcDbSpline
62
7
6
CONTINUOUS
70
0
71
3
72
9
73
5
74
3
42
0.0000001000
43
0.0000001000
44
0.0000000001
40
0.0000000000
40
0.0000000000
40
0.0000000000
40
0.0000000000
40
0.4926559630
40
1.0000000000
40
1.0000000000
40
1.0000000000
40
1.0000000000
10
225.6200925747
20
125.0762414033
30
0.0000000000
10
225.6490363012
20
125.0329863937
30
0.0000000000
10
225.7098125129
20
124.9465288298
30
0.0000000000
10
225.7742278037
20
124.8627545964
30
0.0000000000
10
225.8077347789
20
124.8209222848
30
0.0000000000
11
225.6200925747
21
125.0762414033
31
0.0000000000
11
225.7098030679
21
124.9484499957
31
0.0000000000
11
225.8077347789
21
124.8209222848
31
0.0000000000
0
SPLINE
5
577
100
AcDbEntity
8
0
100
AcDbSpline
62
7
6
CONTINUOUS
70
0
71
3
72
9
73
5
74
3
42
0.0000001000
43
0.0000001000
44
0.0000000001
40
0.0000000000
40
0.0000000000
40
0.0000000000
40
0.0000000000
40
0.4992549184
40
1.0000000000
40
1.0000000000
40
1.0000000000
40
1.0000000000
10
225.6491636596
20
142.0779772447
30
0.0000000000
10
225.6625824267
20
142.0353176870
30
0.0000000000
10
225.6899904296
20
141.9500372032
30
0.0000000000
10
225.7184463291
20
141.8651006774
30
0.0000000000
10
225.7329545108
20
141.8226581262
30
0.0000000000
11
225.6491636596
21
142.0779772447
31
0.0000000000
11
225.6902107812
21
141.9502500185
31
0.0000000000
11
225.7329545108
21
141.8226581262
31
0.0000000000
0
SPLINE
5
578
100
AcDbEntity
8
0
100
AcDbSpline
62
7
6
CONTINUOUS
70
0
71
3
72
9
73
5
74
3
42
0.0000001000
43
0.0000001000
44
0.0000000001
40
0.0000000000
40
0.0000000000
40
0.0000000000
40
0.0000000000
40
0.5001196042
40
1.0000000000
40
1.0000000000
40
1.0000000000
40
1.0000000000
10
225.7329545108
20
141.8226581262
30
0.0000000000
10
225.7426575568
20
141.7375017810
30
0.0000000000
10
225.7623145683
20
141.5672588434
30
0.0000000000
10
225.7824828018
20
141.3970757115
30
0.0000000000
10
225.7926923074
20
141.3120198892
30
0.0000000000
11
225.7329545108
21
141.8226581262
31
0.0000000000
11
225.7624471371
21
141.5672330784
31
0.0000000000
11
225.7926923074
21
141.3120198892
31
0.0000000000
0
SPLINE
5
579
100
AcDbEntity
8
0
100
AcDbSpline
62
7
6
CONTINUOUS
70
0
71
3
72
9
73
5
74
3
42
0.0000001000
43
0.0000001000
44
0.0000000001
40
0.0000000000
40
0.0000000000
40
0.0000000000
40
0.0000000000
40
0.5001152331
40
1.0000000000
40
1.0000000000
40
1.0000000000
40
1.0000000000
10
225.7926923074
20
141.3120198892
30
0.0000000000
10
225.7978013466
20
141.1843282336
30
0.0000000000
10
225.8080818852
20
140.9290063554
30
0.0000000000
10
225.8184921386
20
140.6736897331
30
0.0000000000
10
225.8237285087
20
140.5460621760
30
0.0000000000
11
225.7926923074
21
141.3120198892
31
0.0000000000
11
225.8081166982
21
140.9289488269
31
0.0000000000
11
225.8237285087
21
140.5460621760
31
0.0000000000
0
SPLINE
5
57A
100
AcDbEntity
8
0
100
AcDbSpline
62
7
6
CONTINUOUS
70
0
71
3
72
9
73
5
74
3
42
0.0000001000
43
0.0000001000
44
0.0000000001
40
0.0000000000
40
0.0000000000
40
0.0000000000
40
0.0000000000
40
0.5000416649
40
1.0000000000
40
1.0000000000
40
1.0000000000
40
1.0000000000
10
225.2196369144
20
121.5017730290
30
0.0000000000
10
225.2213746854
20
121.7145576143
30
0.0000000000
10
225.2249587304
20
122.1400904437
30
0.0000000000
10
225.2287604116
20
122.5656213845
30
0.0000000000
10
225.2307155123
20
122.7783686215
30
0.0000000000
11
225.2196369144
21
121.5017730290
31
0.0000000000
11
225.2250134472
21
122.1401254311
31
0.0000000000
11
225.2307155123
21
122.7783686215
31
0.0000000000
0
SPLINE
5
57B
100
AcDbEntity
8
0
100
AcDbSpline
62
7
6
CONTINUOUS
70
0
71
3
72
9
73
5
74
3
42
0.0000001000
43
0.0000001000
44
0.0000000001
40
0.0000000000
40
0.0000000000
40
0.0000000000
40
0.0000000000
40
0.5000434094
40
1.0000000000
40
1.0000000000
40
1.0000000000
40
1.0000000000
10
225.2307155123
20
122.7783686215
30
0.0000000000
10
225.2326709809
20
122.9060411089
30
0.0000000000
10
225.2366904309
20
123.1613622611
30
0.0000000000
10
225.2409276365
20
123.4166798925
30
0.0000000000
10
225.2431005034
20
123.5443266923
30
0.0000000000
11
225.2307155123
21
122.7783686215
31
0.0000000000
11
225.2367452282
21
123.1613835474
31
0.0000000000
11
225.2431005034
21
123.5443266923
31
0.0000000000
0
SPLINE
5
57C
100
AcDbEntity
8
0
100
AcDbSpline
62
7
6
CONTINUOUS
70
0
71
3
72
9
73
5
74
3
42
0.0000001000
43
0.0000001000
44
0.0000000001
40
0.0000000000
40
0.0000000000
40
0.0000000000
40
0.0000000000
40
0.5000869159
40
1.0000000000
40
1.0000000000
40
1.0000000000
40
1.0000000000
10
225.2431005034
20
123.5443266923
30
0.0000000000
10
225.2474477392
20
123.7145808524
30
0.0000000000
10
225.2565763538
20
124.0550190076
30
0.0000000000
10
225.2665766267
20
124.3954326734
30
0.0000000000
10
225.2717938695
20
124.5656031663
30
0.0000000000
11
225.2431005034
21
123.5443266923
31
0.0000000000
11
225.2567959310
21
124.0550720621
31
0.0000000000
11
225.2717938695
21
124.5656031663
31
0.0000000000
0
SPLINE
5
57D
100
AcDbEntity
8
0
100
AcDbSpline
62
7
6
CONTINUOUS
70
0
71
3
72
9
73
5
74
3
42
0.0000001000
43
0.0000001000
44
0.0000000001
40
0.0000000000
40
0.0000000000
40
0.0000000000
40
0.0000000000
40
0.5000403870
40
1.0000000000
40
1.0000000000
40
1.0000000000
40
1.0000000000
10
225.2717938695
20
124.5656031663
30
0.0000000000
10
225.2796262771
20
124.6933378090
30
0.0000000000
10
225.2962695968
20
124.9487273266
30
0.0000000000
10
225.3148713432
20
125.2039816712
30
0.0000000000
10
225.3246607147
20
125.3315605218
30
0.0000000000
11
225.2717938695
21
124.5656031663
31
0.0000000000
11
225.2967606269
21
124.9487141567
31
0.0000000000
11
225.3246607147
21
125.3315605218
31
0.0000000000
0
SPLINE
5
57E
100
AcDbEntity
8
0
100
AcDbSpline
62
7
6
CONTINUOUS
70
0
71
3
72
9
73
5
74
3
42
0.0000001000
43
0.0000001000
44
0.0000000001
40
0.0000000000
40
0.0000000000
40
0.0000000000
40
0.0000000000
40
0.4996129035
40
1.0000000000
40
1.0000000000
40
1.0000000000
40
1.0000000000
10
225.3246607147
20
125.3315605218
30
0.0000000000
10
225.3410226715
20
125.4595017544
30
0.0000000000
10
225.3764808111
20
125.7152432391
30
0.0000000000
10
225.4173141879
20
125.9701814577
30
0.0000000000
10
225.4390790385
20
126.0975178773
30
0.0000000000
11
225.3246607147
21
125.3315605218
31
0.0000000000
11
225.3777950890
21
125.7148447401
31
0.0000000000
11
225.4390790385
21
126.0975178773
31
0.0000000000
0
SPLINE
5
57F
100
AcDbEntity
8
0
100
AcDbSpline
62
7
6
CONTINUOUS
70
0
71
3
72
9
73
5
74
3
42
0.0000001000
43
0.0000001000
44
0.0000000001
40
0.0000000000
40
0.0000000000
40
0.0000000000
40
0.0000000000
40
0.4894337954
40
1.0000000000
40
1.0000000000
40
1.0000000000
40
1.0000000000
10
225.4390790385
20
126.0975178773
30
0.0000000000
10
225.4658508149
20
126.1410261124
30
0.0000000000
10
225.5236367683
20
126.2280484929
30
0.0000000000
10
225.5867268421
20
126.3112840595
30
0.0000000000
10
225.6200925747
20
126.3528369958
30
0.0000000000
11
225.4390790385
21
126.0975178773
31
0.0000000000
11
225.5236861898
21
126.2253023863
31
0.0000000000
11
225.6200925747
21
126.3528369958
31
0.0000000000
0
SPLINE
5
580
100
AcDbEntity
8
0
100
AcDbSpline
62
7
6
CONTINUOUS
70
0
71
3
72
9
73
5
74
3
42
0.0000001000
43
0.0000001000
44
0.0000000001
40
0.0000000000
40
0.0000000000
40
0.0000000000
40
0.0000000000
40
0.5002725343
40
1.0000000000
40
1.0000000000
40
1.0000000000
40
1.0000000000
10
228.1289852366
20
139.0141474650
30
0.0000000000
10
228.1406187274
20
139.1418834719
30
0.0000000000
10
228.1639479940
20
139.3972094903
30
0.0000000000
10
228.1874274163
20
139.6525217445
30
0.0000000000
10
228.1991983062
20
139.7801048205
30
0.0000000000
11
228.1289852366
21
139.0141474650
31
0.0000000000
11
228.1639982899
21
139.3973452157
31
0.0000000000
11
228.1991983062
21
139.7801048205
31
0.0000000000
0
SPLINE
5
581
100
AcDbEntity
8
0
100
AcDbSpline
62
7
6
CONTINUOUS
70
0
71
3
72
9
73
5
74
3
42
0.0000001000
43
0.0000001000
44
0.0000000001
40
0.0000000000
40
0.0000000000
40
0.0000000000
40
0.0000000000
40
0.5001745334
40
1.0000000000
40
1.0000000000
40
1.0000000000
40
1.0000000000
10
227.9237693337
20
138.5035090492
30
0.0000000000
10
227.9574016032
20
138.5888774512
30
0.0000000000
10
228.0252267264
20
138.7593251547
30
0.0000000000
10
228.0942143564
20
138.9293056553
30
0.0000000000
10
228.1289852366
20
139.0141474650
30
0.0000000000
11
227.9237693337
21
138.5035090492
31
0.0000000000
11
228.0255412315
21
138.7592677701
31
0.0000000000
11
228.1289852366
21
139.0141474650
31
0.0000000000
0
SPLINE
5
582
100
AcDbEntity
8
0
100
AcDbSpline
62
7
6
CONTINUOUS
70
0
71
3
72
9
73
5
74
3
42
0.0000001000
43
0.0000001000
44
0.0000000001
40
0.0000000000
40
0.0000000000
40
0.0000000000
40
0.0000000000
40
0.4973283873
40
1.0000000000
40
1.0000000000
40
1.0000000000
40
1.0000000000
10
227.6626483833
20
138.2481899307
30
0.0000000000
10
227.7053520377
20
138.2911068206
30
0.0000000000
10
227.7918211648
20
138.3768036040
30
0.0000000000
10
227.8794452262
20
138.4613187596
30
0.0000000000
10
227.9237693337
20
138.5035090492
30
0.0000000000
11
227.6626483833
21
138.2481899307
31
0.0000000000
11
227.7916447970
21
138.3760534483
31
0.0000000000
11
227.9237693337
21
138.5035090492
31
0.0000000000
0
SPLINE
5
583
100
AcDbEntity
8
0
100
AcDbSpline
62
7
6
CONTINUOUS
70
0
71
3
72
9
73
5
74
3
42
0.0000001000
43
0.0000001000
44
0.0000000001
40
0.0000000000
40
0.0000000000
40
0.0000000000
40
0.0000000000
40
0.4973283873
40
1.0000000000
40
1.0000000000
40
1.0000000000
40
1.0000000000
10
227.6626483833
20
147.1843603299
30
0.0000000000
10
227.7053520377
20
147.1414434400
30
0.0000000000
10
227.7918211648
20
147.0557466566
30
0.0000000000
10
227.8794452262
20
146.9712315010
30
0.0000000000
10
227.9237693337
20
146.9290412114
30
0.0000000000
11
227.6626483833
21
147.1843603299
31
0.0000000000
11
227.7916447970
21
147.0564968124
31
0.0000000000
11
227.9237693337
21
146.9290412114
31
0.0000000000
0
SPLINE
5
584
100
AcDbEntity
8
0
100
AcDbSpline
62
7
6
CONTINUOUS
70
0
71
3
72
9
73
5
74
3
42
0.0000001000
43
0.0000001000
44
0.0000000001
40
0.0000000000
40
0.0000000000
40
0.0000000000
40
0.0000000000
40
0.5001745328
40
1.0000000000
40
1.0000000000
40
1.0000000000
40
1.0000000000
10
227.9237693337
20
146.9290412114
30
0.0000000000
10
227.9574016032
20
146.8436728393
30
0.0000000000
10
228.0252267265
20
146.6732251953
30
0.0000000000
10
228.0942143564
20
146.5032447544
30
0.0000000000
10
228.1289852366
20
146.4184029744
30
0.0000000000
11
227.9237693337
21
146.9290412114
31
0.0000000000
11
228.0255412315
21
146.6732825802
31
0.0000000000
11
228.1289852366
21
146.4184029744
31
0.0000000000
0
SPLINE
5
585
100
AcDbEntity
8
0
100
AcDbSpline
62
7
6
CONTINUOUS
70
0
71
3
72
9
73
5
74
3
42
0.0000001000
43
0.0000001000
44
0.0000000001
40
0.0000000000
40
0.0000000000
40
0.0000000000
40
0.0000000000
40
0.5002725343
40
1.0000000000
40
1.0000000000
40
1.0000000000
40
1.0000000000
10
228.1289852366
20
146.4184029744
30
0.0000000000
10
228.1406187274
20
146.2906668483
30
0.0000000000
10
228.1639479940
20
146.0353405914
30
0.0000000000
10
228.1874274163
20
145.7800280988
30
0.0000000000
10
228.1991983062
20
145.6524449036
30
0.0000000000
11
228.1289852366
21
146.4184029744
31
0.0000000000
11
228.1639982899
21
146.0352048659
31
0.0000000000
11
228.1991983062
21
145.6524449036
31
0.0000000000
0
SPLINE
5
586
100
AcDbEntity
8
0
100
AcDbSpline
62
7
6
CONTINUOUS
70
0
71
3
72
9
73
5
74
3
42
0.0000001000
43
0.0000001000
44
0.0000000001
40
0.0000000000
40
0.0000000000
40
0.0000000000
40
0.0000000000
40
0.4956400022
40
1.0000000000
40
1.0000000000
40
1.0000000000
40
1.0000000000
10
226.8580196335
20
148.4609559224
30
0.0000000000
10
226.9014790440
20
148.5040144956
30
0.0000000000
10
226.9900530462
20
148.5899943441
30
0.0000000000
10
227.0802920171
20
148.6742238450
30
0.0000000000
10
227.1261974886
20
148.7162750409
30
0.0000000000
11
226.8580196335
21
148.4609559224
31
0.0000000000
11
226.9896896958
21
148.5888146116
31
0.0000000000
11
227.1261974886
21
148.7162750409
31
0.0000000000
0
SPLINE
5
587
100
AcDbEntity
8
0
100
AcDbSpline
62
7
6
CONTINUOUS
70
0
71
3
72
9
73
5
74
3
42
0.0000001000
43
0.0000001000
44
0.0000000001
40
0.0000000000
40
0.0000000000
40
0.0000000000
40
0.0000000000
40
0.4996345106
40
1.0000000000
40
1.0000000000
40
1.0000000000
40
1.0000000000
10
226.6585045132
20
147.9503176854
30
0.0000000000
10
226.6907715082
20
148.0357327241
30
0.0000000000
10
226.7563213478
20
148.2063233883
30
0.0000000000
10
226.8237876602
20
148.3761651691
30
0.0000000000
10
226.8580196335
20
148.4609559224
30
0.0000000000
11
226.6585045132
21
147.9503176854
31
0.0000000000
11
226.7567518503
21
148.2060117429
31
0.0000000000
11
226.8580196335
21
148.4609559224
31
0.0000000000
0
SPLINE
5
588
100
AcDbEntity
8
0
100
AcDbSpline
62
7
6
CONTINUOUS
70
0
71
3
72
9
73
5
74
3
42
0.0000001000
43
0.0000001000
44
0.0000000001
40
0.0000000000
40
0.0000000000
40
0.0000000000
40
0.0000000000
40
0.5003731059
40
1.0000000000
40
1.0000000000
40
1.0000000000
40
1.0000000000
10
226.4721603158
20
146.9290412114
30
0.0000000000
10
226.5021848593
20
147.0995711183
30
0.0000000000
10
226.5632442399
20
147.4401917042
30
0.0000000000
10
226.6264149649
20
147.7804270582
30
0.0000000000
10
226.6585045132
20
147.9503176854
30
0.0000000000
11
226.4721603158
21
146.9290412114
31
0.0000000000
11
226.5638184273
21
147.4403494275
31
0.0000000000
11
226.6585045132
21
147.9503176854
31
0.0000000000
0
SPLINE
5
589
100
AcDbEntity
8
0
100
AcDbSpline
62
7
6
CONTINUOUS
70
0
71
3
72
9
73
5
74
3
42
0.0000001000
43
0.0000001000
44
0.0000000001
40
0.0000000000
40
0.0000000000
40
0.0000000000
40
0.0000000000
40
0.5003047645
40
1.0000000000
40
1.0000000000
40
1.0000000000
40
1.0000000000
10
226.3838774594
20
145.9077647374
30
0.0000000000
10
226.3983319530
20
146.0781042646
30
0.0000000000
10
226.4274912111
20
146.4185531135
30
0.0000000000
10
226.4571871115
20
146.7589555737
30
0.0000000000
10
226.4721603158
20
146.9290412114
30
0.0000000000
11
226.3838774594
21
145.9077647374
31
0.0000000000
11
226.4276433087
21
146.4187490157
31
0.0000000000
11
226.4721603158
21
146.9290412114
31
0.0000000000
0
SPLINE
5
58A
100
AcDbEntity
8
0
100
AcDbSpline
62
7
6
CONTINUOUS
70
0
71
3
72
9
73
5
74
3
42
0.0000001000
43
0.0000001000
44
0.0000000001
40
0.0000000000
40
0.0000000000
40
0.0000000000
40
0.0000000000
40
0.5001679422
40
1.0000000000
40
1.0000000000
40
1.0000000000
40
1.0000000000
10
226.3409504782
20
144.6311684296
30
0.0000000000
10
226.3480401628
20
144.8440081979
30
0.0000000000
10
226.3622819269
20
145.2695425692
30
0.0000000000
10
226.3766581358
20
145.6950724195
30
0.0000000000
10
226.3838774594
20
145.9077647374
30
0.0000000000
11
226.3409504782
21
144.6311684296
31
0.0000000000
11
226.3623203443
21
145.2696843685
31
0.0000000000
11
226.3838774594
21
145.9077647374
31
0.0000000000
0
SPLINE
5
58B
100
AcDbEntity
8
0
100
AcDbSpline
62
7
6
CONTINUOUS
70
0
71
3
72
9
73
5
74
3
42
0.0000001000
43
0.0000001000
44
0.0000000001
40
0.0000000000
40
0.0000000000
40
0.0000000000
40
0.0000000000
40
0.5001679421
40
1.0000000000
40
1.0000000000
40
1.0000000000
40
1.0000000000
10
226.3409504782
20
140.8013812945
30
0.0000000000
10
226.3480401628
20
140.5885416455
30
0.0000000000
10
226.3622819269
20
140.1630075127
30
0.0000000000
10
226.3766581358
20
139.7374779007
30
0.0000000000
10
226.3838774594
20
139.5247857020
30
0.0000000000
11
226.3409504782
21
140.8013812945
31
0.0000000000
11
226.3623203443
21
140.1628657134
31
0.0000000000
11
226.3838774594
21
139.5247857020
31
0.0000000000
0
SPLINE
5
58C
100
AcDbEntity
8
0
100
AcDbSpline
62
7
6
CONTINUOUS
70
0
71
3
72
9
73
5
74
3
42
0.0000001000
43
0.0000001000
44
0.0000000001
40
0.0000000000
40
0.0000000000
40
0.0000000000
40
0.0000000000
40
0.5003047646
40
1.0000000000
40
1.0000000000
40
1.0000000000
40
1.0000000000
10
226.3838774594
20
139.5247857020
30
0.0000000000
10
226.3983319530
20
139.3544461450
30
0.0000000000
10
226.4274912111
20
139.0139972365
30
0.0000000000
10
226.4571871115
20
138.6735947167
30
0.0000000000
10
226.4721603158
20
138.5035090492
30
0.0000000000
11
226.3838774594
21
139.5247857020
31
0.0000000000
11
226.4276433087
21
139.0138013343
31
0.0000000000
11
226.4721603158
21
138.5035090492
31
0.0000000000
0
SPLINE
5
58D
100
AcDbEntity
8
0
100
AcDbSpline
62
7
6
CONTINUOUS
70
0
71
3
72
9
73
5
74
3
42
0.0000001000
43
0.0000001000
44
0.0000000001
40
0.0000000000
40
0.0000000000
40
0.0000000000
40
0.0000000000
40
0.5003731059
40
1.0000000000
40
1.0000000000
40
1.0000000000
40
1.0000000000
10
226.4721603158
20
138.5035090492
30
0.0000000000
10
226.5021848593
20
138.3329791274
30
0.0000000000
10
226.5632442399
20
137.9923585117
30
0.0000000000
10
226.6264149649
20
137.6521231279
30
0.0000000000
10
226.6585045132
20
137.4822324858
30
0.0000000000
11
226.4721603158
21
138.5035090492
31
0.0000000000
11
226.5638184273
21
137.9922007883
31
0.0000000000
11
226.6585045132
21
137.4822324858
31
0.0000000000
0
SPLINE
5
58E
100
AcDbEntity
8
0
100
AcDbSpline
62
7
6
CONTINUOUS
70
0
71
3
72
9
73
5
74
3
42
0.0000001000
43
0.0000001000
44
0.0000000001
40
0.0000000000
40
0.0000000000
40
0.0000000000
40
0.0000000000
40
0.4996345108
40
1.0000000000
40
1.0000000000
40
1.0000000000
40
1.0000000000
10
226.6585045132
20
137.4822324858
30
0.0000000000
10
226.6907715082
20
137.3968174359
30
0.0000000000
10
226.7563213478
20
137.2262267494
30
0.0000000000
10
226.8237876602
20
137.0563849462
30
0.0000000000
10
226.8580196335
20
136.9715941818
30
0.0000000000
11
226.6585045132
21
137.4822324858
31
0.0000000000
11
226.7567518503
21
137.2265383947
31
0.0000000000
11
226.8580196335
21
136.9715941818
31
0.0000000000
0
SPLINE
5
58F
100
AcDbEntity
8
0
100
AcDbSpline
62
7
6
CONTINUOUS
70
0
71
3
72
9
73
5
74
3
42
0.0000001000
43
0.0000001000
44
0.0000000001
40
0.0000000000
40
0.0000000000
40
0.0000000000
40
0.0000000000
40
0.4894337967
40
1.0000000000
40
1.0000000000
40
1.0000000000
40
1.0000000000
10
225.4390790385
20
114.6081561366
30
0.0000000000
10
225.4658508148
20
114.5646478979
30
0.0000000000
10
225.5236367681
20
114.4776255099
30
0.0000000000
10
225.5867268420
20
114.3943899358
30
0.0000000000
10
225.6200925747
20
114.3528369958
30
0.0000000000
11
225.4390790385
21
114.6081561366
31
0.0000000000
11
225.5236861898
21
114.4803716164
31
0.0000000000
11
225.6200925747
21
114.3528369958
31
0.0000000000
0
SPLINE
5
590
100
AcDbEntity
8
0
100
AcDbSpline
62
7
6
CONTINUOUS
70
0
71
3
72
9
73
5
74
3
42
0.0000001000
43
0.0000001000
44
0.0000000001
40
0.0000000000
40
0.0000000000
40
0.0000000000
40
0.0000000000
40
0.4956400027
40
1.0000000000
40
1.0000000000
40
1.0000000000
40
1.0000000000
10
226.8580196335
20
136.9715941818
30
0.0000000000
10
226.9014790439
20
136.9285356048
30
0.0000000000
10
226.9900530461
20
136.8425557488
30
0.0000000000
10
227.0802920171
20
136.7583262405
30
0.0000000000
10
227.1261974886
20
136.7162750409
30
0.0000000000
11
226.8580196335
21
136.9715941818
31
0.0000000000
11
226.9896896958
21
136.8437354814
31
0.0000000000
11
227.1261974886
21
136.7162750409
31
0.0000000000
0
SPLINE
5
591
100
AcDbEntity
8
0
100
AcDbSpline
62
7
6
CONTINUOUS
70
0
71
3
72
9
73
5
74
3
42
0.0000001000
43
0.0000001000
44
0.0000000001
40
0.0000000000
40
0.0000000000
40
0.0000000000
40
0.0000000000
40
0.4996129036
40
1.0000000000
40
1.0000000000
40
1.0000000000
40
1.0000000000
10
225.3246607147
20
115.3741135592
30
0.0000000000
10
225.3410226714
20
115.2461723154
30
0.0000000000
10
225.3764808110
20
114.9904308084
30
0.0000000000
10
225.4173141879
20
114.7354925675
30
0.0000000000
10
225.4390790385
20
114.6081561366
30
0.0000000000
11
225.3246607147
21
115.3741135592
31
0.0000000000
11
225.3777950890
21
114.9908293073
31
0.0000000000
11
225.4390790385
21
114.6081561366
31
0.0000000000
0
SPLINE
5
592
100
AcDbEntity
8
0
100
AcDbSpline
62
7
6
CONTINUOUS
70
0
71
3
72
9
73
5
74
3
42
0.0000001000
43
0.0000001000
44
0.0000000001
40
0.0000000000
40
0.0000000000
40
0.0000000000
40
0.0000000000
40
0.5000403870
40
1.0000000000
40
1.0000000000
40
1.0000000000
40
1.0000000000
10
225.2717938695
20
116.1400710041
30
0.0000000000
10
225.2796262771
20
116.0123363465
30
0.0000000000
10
225.2962695968
20
115.7569467991
30
0.0000000000
10
225.3148713432
20
115.5016924247
30
0.0000000000
10
225.3246607147
20
115.3741135592
30
0.0000000000
11
225.2717938695
21
116.1400710041
31
0.0000000000
11
225.2967606269
21
115.7569599690
31
0.0000000000
11
225.3246607147
21
115.3741135592
31
0.0000000000
0
SPLINE
5
593
100
AcDbEntity
8
0
100
AcDbSpline
62
7
6
CONTINUOUS
70
0
71
3
72
9
73
5
74
3
42
0.0000001000
43
0.0000001000
44
0.0000000001
40
0.0000000000
40
0.0000000000
40
0.0000000000
40
0.0000000000
40
0.5000869159
40
1.0000000000
40
1.0000000000
40
1.0000000000
40
1.0000000000
10
225.2431005034
20
117.1613476569
30
0.0000000000
10
225.2474477392
20
116.9910934670
30
0.0000000000
10
225.2565763538
20
116.6506552522
30
0.0000000000
10
225.2665766267
20
116.3102415268
30
0.0000000000
10
225.2717938695
20
116.1400710041
30
0.0000000000
11
225.2431005034
21
117.1613476569
31
0.0000000000
11
225.2567959310
21
116.6506021977
31
0.0000000000
11
225.2717938695
21
116.1400710041
31
0.0000000000
0
SPLINE
5
594
100
AcDbEntity
8
0
100
AcDbSpline
62
7
6
CONTINUOUS
70
0
71
3
72
9
73
5
74
3
42
0.0000001000
43
0.0000001000
44
0.0000000001
40
0.0000000000
40
0.0000000000
40
0.0000000000
40
0.0000000000
40
0.5000434094
40
1.0000000000
40
1.0000000000
40
1.0000000000
40
1.0000000000
10
225.2307155123
20
117.9273050124
30
0.0000000000
10
225.2326709809
20
117.7996326443
30
0.0000000000
10
225.2366904309
20
117.5443117305
30
0.0000000000
10
225.2409276365
20
117.2889943376
30
0.0000000000
10
225.2431005034
20
117.1613476569
30
0.0000000000
11
225.2307155123
21
117.9273050124
31
0.0000000000
11
225.2367452282
21
117.5442904442
31
0.0000000000
11
225.2431005034
21
117.1613476569
31
0.0000000000
0
SPLINE
5
595
100
AcDbEntity
8
0
100
AcDbSpline
62
7
6
CONTINUOUS
70
0
71
3
72
9
73
5
74
3
42
0.0000001000
43
0.0000001000
44
0.0000000001
40
0.0000000000
40
0.0000000000
40
0.0000000000
40
0.0000000000
40
0.5000416649
40
1.0000000000
40
1.0000000000
40
1.0000000000
40
1.0000000000
10
225.2196369144
20
119.2039009625
30
0.0000000000
10
225.2213746854
20
118.9911163176
30
0.0000000000
10
225.2249587304
20
118.5655833690
30
0.0000000000
10
225.2287604116
20
118.1400523091
30
0.0000000000
10
225.2307155123
20
117.9273050124
30
0.0000000000
11
225.2196369144
21
119.2039009625
31
0.0000000000
11
225.2250134472
21
118.5655483817
31
0.0000000000
11
225.2307155123
21
117.9273050124
31
0.0000000000
0
SPLINE
5
596
100
AcDbEntity
8
0
100
AcDbSpline
62
7
6
CONTINUOUS
70
0
71
3
72
8
73
4
74
2
42
0.0000001000
43
0.0000001000
44
0.0000000001
40
0.0000000000
40
0.0000000000
40
0.0000000000
40
0.0000000000
40
1.0000000000
40
1.0000000000
40
1.0000000000
40
1.0000000000
10
225.2142436761
20
120.2434228442
30
0.0000000000
10
225.1997736135
20
120.5776467684
30
0.0000000000
10
225.1896267558
20
120.9120324256
30
0.0000000000
10
225.1838118702
20
121.2464539105
30
0.0000000000
11
225.2142436761
21
120.2434228442
31
0.0000000000
11
225.1838118702
21
121.2464539105
31
0.0000000000
0
SPLINE
5
597
100
AcDbEntity
8
0
100
AcDbSpline
62
7
6
CONTINUOUS
70
0
71
3
72
9
73
5
74
3
42
0.0000001000
43
0.0000001000
44
0.0000000001
40
0.0000000000
40
0.0000000000
40
0.0000000000
40
0.0000000000
40
0.6760016986
40
1.0000000000
40
1.0000000000
40
1.0000000000
40
1.0000000000
10
225.3246607147
20
126.3528369958
30
0.0000000000
10
225.3054089701
20
126.3110209737
30
0.0000000000
10
225.2792426311
20
126.2480654424
30
0.0000000000
10
225.2569837468
20
126.1836592671
30
0.0000000000
10
225.2502052079
20
126.1626546424
30
0.0000000000
11
225.3246607147
21
126.3528369958
31
0.0000000000
11
225.2718176129
21
126.2252419687
31
0.0000000000
11
225.2502052079
21
126.1626546424
31
0.0000000000
0
SPLINE
5
598
100
AcDbEntity
8
0
100
AcDbSpline
62
7
6
CONTINUOUS
70
0
71
3
72
8
73
4
74
2
42
0.0000001000
43
0.0000001000
44
0.0000000001
40
0.0000000000
40
0.0000000000
40
0.0000000000
40
0.0000000000
40
1.0000000000
40
1.0000000000
40
1.0000000000
40
1.0000000000
10
225.2502052079
20
126.1626546424
30
0.0000000000
10
225.2493507778
20
126.1600070240
30
0.0000000000
10
225.2485032321
20
126.1573572268
30
0.0000000000
10
225.2476626173
20
126.1547052812
30
0.0000000000
11
225.2502052079
21
126.1626546424
31
0.0000000000
11
225.2476626173
21
126.1547052812
31
0.0000000000
0
SPLINE
5
599
100
AcDbEntity
8
0
100
AcDbSpline
62
7
6
CONTINUOUS
70
0
71
3
72
8
73
4
74
2
42
0.0000001000
43
0.0000001000
44
0.0000000001
40
0.0000000000
40
0.0000000000
40
0.0000000000
40
0.0000000000
40
1.0000000000
40
1.0000000000
40
1.0000000000
40
1.0000000000
10
225.2476626173
20
126.1547052812
30
0.0000000000
10
225.2416538149
20
126.1357488980
30
0.0000000000
10
225.2359991435
20
126.1166827367
30
0.0000000000
10
225.2307155123
20
126.0975178773
30
0.0000000000
11
225.2476626173
21
126.1547052812
31
0.0000000000
11
225.2307155123
21
126.0975178773
31
0.0000000000
0
SPLINE
5
59A
100
AcDbEntity
8
0
100
AcDbSpline
62
7
6
CONTINUOUS
70
0
71
3
72
8
73
4
74
2
42
0.0000001000
43
0.0000001000
44
0.0000000001
40
0.0000000000
40
0.0000000000
40
0.0000000000
40
0.0000000000
40
1.0000000000
40
1.0000000000
40
1.0000000000
40
1.0000000000
10
225.1838118702
20
121.2464539105
30
0.0000000000
10
225.1825096956
20
121.3741067698
30
0.0000000000
10
225.1814245678
20
121.5017619353
30
0.0000000000
10
225.1805564689
20
121.6294185767
30
0.0000000000
11
225.1838118702
21
121.2464539105
31
0.0000000000
11
225.1805564689
21
121.6294185767
31
0.0000000000
0
SPLINE
5
59B
100
AcDbEntity
8
0
100
AcDbSpline
62
7
6
CONTINUOUS
70
0
71
3
72
8
73
4
74
2
42
0.0000001000
43
0.0000001000
44
0.0000000001
40
0.0000000000
40
0.0000000000
40
0.0000000000
40
0.0000000000
40
1.0000000000
40
1.0000000000
40
1.0000000000
40
1.0000000000
10
225.1805564689
20
121.6294185767
30
0.0000000000
10
225.1801224039
20
121.6932491896
30
0.0000000000
10
225.1797426000
20
121.7570801714
30
0.0000000000
10
225.1794170558
20
121.8209114185
30
0.0000000000
11
225.1805564689
21
121.6294185767
31
0.0000000000
11
225.1794170558
21
121.8209114185
31
0.0000000000
0
SPLINE
5
59C
100
AcDbEntity
8
0
100
AcDbSpline
62
7
6
CONTINUOUS
70
0
71
3
72
8
73
4
74
2
42
0.0000001000
43
0.0000001000
44
0.0000000001
40
0.0000000000
40
0.0000000000
40
0.0000000000
40
0.0000000000
40
1.0000000000
40
1.0000000000
40
1.0000000000
40
1.0000000000
10
225.1794170558
20
121.8209114185
30
0.0000000000
10
225.1790915023
20
121.8847444704
30
0.0000000000
10
225.1788202117
20
121.9485777875
30
0.0000000000
10
225.1786031824
20
122.0124112660
30
0.0000000000
11
225.1794170558
21
121.8209114185
31
0.0000000000
11
225.1786031824
21
122.0124112660
31
0.0000000000
0
SPLINE
5
59D
100
AcDbEntity
8
0
100
AcDbSpline
62
7
6
CONTINUOUS
70
0
71
3
72
8
73
4
74
2
42
0.0000001000
43
0.0000001000
44
0.0000000001
40
0.0000000000
40
0.0000000000
40
0.0000000000
40
0.0000000000
40
1.0000000000
40
1.0000000000
40
1.0000000000
40
1.0000000000
10
225.1786031824
20
122.0124112660
30
0.0000000000
10
225.1783861671
20
122.1826231020
30
0.0000000000
10
225.1782234067
20
122.3528350115
30
0.0000000000
10
225.1781148996
20
122.5230469555
30
0.0000000000
11
225.1786031824
21
122.0124112660
31
0.0000000000
11
225.1781148996
21
122.5230469555
31
0.0000000000
0
SPLINE
5
59E
100
AcDbEntity
8
0
100
AcDbSpline
62
7
6
CONTINUOUS
70
0
71
3
72
8
73
4
74
2
42
0.0000001000
43
0.0000001000
44
0.0000000001
40
0.0000000000
40
0.0000000000
40
0.0000000000
40
0.0000000000
40
1.0000000000
40
1.0000000000
40
1.0000000000
40
1.0000000000
10
225.1781148996
20
122.5230469555
30
0.0000000000
10
225.1780606456
20
122.6081535336
30
0.0000000000
10
225.1780199552
20
122.6932601204
30
0.0000000000
10
225.1779928282
20
122.7783667109
30
0.0000000000
11
225.1781148996
21
122.5230469555
31
0.0000000000
11
225.1779928282
21
122.7783667109
31
0.0000000000
0
SPLINE
5
59F
100
AcDbEntity
8
0
100
AcDbSpline
62
7
6
CONTINUOUS
70
0
71
3
72
8
73
4
74
2
42
0.0000001000
43
0.0000001000
44
0.0000000001
40
0.0000000000
40
0.0000000000
40
0.0000000000
40
0.0000000000
40
1.0000000000
40
1.0000000000
40
1.0000000000
40
1.0000000000
10
225.1779928282
20
122.7783667109
30
0.0000000000
10
225.1779657011
20
122.8634737185
30
0.0000000000
10
225.1779521376
20
122.9485807298
30
0.0000000000
10
225.1779521376
20
123.0336877400
30
0.0000000000
11
225.1779928282
21
122.7783667109
31
0.0000000000
11
225.1779521376
21
123.0336877400
31
0.0000000000
0
SPLINE
5
5A0
100
AcDbEntity
8
0
100
AcDbSpline
62
7
6
CONTINUOUS
70
0
71
3
72
9
73
5
74
3
42
0.0000001000
43
0.0000001000
44
0.0000000001
40
0.0000000000
40
0.0000000000
40
0.0000000000
40
0.0000000000
40
0.5002440925
40
1.0000000000
40
1.0000000000
40
1.0000000000
40
1.0000000000
10
225.2307155123
20
126.0975178773
30
0.0000000000
10
225.2229031649
20
126.0125066967
30
0.0000000000
10
225.2090084630
20
125.8424045714
30
0.0000000000
10
225.1985762131
20
125.6720549577
30
0.0000000000
10
225.1942309458
20
125.5868796403
30
0.0000000000
11
225.2307155123
21
126.0975178773
31
0.0000000000
11
225.2098681382
21
125.8422595976
31
0.0000000000
11
225.1942309458
21
125.5868796403
31
0.0000000000
0
SPLINE
5
5A1
100
AcDbEntity
8
0
100
AcDbSpline
62
7
6
CONTINUOUS
70
0
71
3
72
8
73
4
74
2
42
0.0000001000
43
0.0000001000
44
0.0000000001
40
0.0000000000
40
0.0000000000
40
0.0000000000
40
0.0000000000
40
1.0000000000
40
1.0000000000
40
1.0000000000
40
1.0000000000
10
225.1786031824
20
124.5656031663
30
0.0000000000
10
225.1784946750
20
124.4804974471
30
0.0000000000
10
225.1783997313
20
124.3953917095
30
0.0000000000
10
225.1783183510
20
124.3102859584
30
0.0000000000
11
225.1786031824
21
124.5656031663
31
0.0000000000
11
225.1783183510
21
124.3102859584
31
0.0000000000
0
SPLINE
5
5A2
100
AcDbEntity
8
0
100
AcDbSpline
62
7
6
CONTINUOUS
70
0
71
3
72
9
73
5
74
3
42
0.0000001000
43
0.0000001000
44
0.0000000001
40
0.0000000000
40
0.0000000000
40
0.0000000000
40
0.0000000000
40
0.4999988036
40
1.0000000000
40
1.0000000000
40
1.0000000000
40
1.0000000000
10
225.1783183510
20
124.3102859584
30
0.0000000000
10
225.1782369703
20
124.2251798098
30
0.0000000000
10
225.1781013359
20
124.0549670781
30
0.0000000000
10
225.1780199552
20
123.8847543119
30
0.0000000000
10
225.1779928282
20
123.7996477214
30
0.0000000000
11
225.1783183510
21
124.3102859584
31
0.0000000000
11
225.1781148996
21
124.0549674768
31
0.0000000000
11
225.1779928282
21
123.7996477214
31
0.0000000000
0
SPLINE
5
5A3
100
AcDbEntity
8
0
100
AcDbSpline
62
7
6
CONTINUOUS
70
0
71
3
72
8
73
4
74
2
42
0.0000001000
43
0.0000001000
44
0.0000000001
40
0.0000000000
40
0.0000000000
40
0.0000000000
40
0.0000000000
40
1.0000000000
40
1.0000000000
40
1.0000000000
40
1.0000000000
10
225.1779928282
20
123.7996477214
30
0.0000000000
10
225.1779657011
20
123.7145407139
30
0.0000000000
10
225.1779521376
20
123.6294337025
30
0.0000000000
10
225.1779521376
20
123.5443266923
30
0.0000000000
11
225.1779928282
21
123.7996477214
31
0.0000000000
11
225.1779521376
21
123.5443266923
31
0.0000000000
0
SPLINE
5
5A4
100
AcDbEntity
8
0
100
AcDbSpline
62
7
6
CONTINUOUS
70
0
71
3
72
8
73
4
74
2
42
0.0000001000
43
0.0000001000
44
0.0000000001
40
0.0000000000
40
0.0000000000
40
0.0000000000
40
0.0000000000
40
1.0000000000
40
1.0000000000
40
1.0000000000
40
1.0000000000
10
225.1942309458
20
125.5868796403
30
0.0000000000
10
225.1920605388
20
125.5017916741
30
0.0000000000
10
225.1901071271
20
125.4166978959
30
0.0000000000
10
225.1883707355
20
125.3315995511
30
0.0000000000
11
225.1942309458
21
125.5868796403
31
0.0000000000
11
225.1883707355
21
125.3315995511
31
0.0000000000
0
SPLINE
5
5A5
100
AcDbEntity
8
0
100
AcDbSpline
62
7
6
CONTINUOUS
70
0
71
3
72
8
73
4
74
2
42
0.0000001000
43
0.0000001000
44
0.0000000001
40
0.0000000000
40
0.0000000000
40
0.0000000000
40
0.0000000000
40
1.0000000000
40
1.0000000000
40
1.0000000000
40
1.0000000000
10
225.1883707355
20
125.3315995511
30
0.0000000000
10
225.1866343533
20
125.2465016665
30
0.0000000000
10
225.1851149888
20
125.1613992155
30
0.0000000000
10
225.1838126665
20
125.0762934431
30
0.0000000000
11
225.1883707355
21
125.3315995511
31
0.0000000000
11
225.1838126665
21
125.0762934431
31
0.0000000000
0
SPLINE
5
5A6
100
AcDbEntity
8
0
100
AcDbSpline
62
7
6
CONTINUOUS
70
0
71
3
72
8
73
4
74
2
42
0.0000001000
43
0.0000001000
44
0.0000000001
40
0.0000000000
40
0.0000000000
40
0.0000000000
40
0.0000000000
40
1.0000000000
40
1.0000000000
40
1.0000000000
40
1.0000000000
10
225.1838126665
20
125.0762934431
30
0.0000000000
10
225.1825103132
20
124.9911856400
30
0.0000000000
10
225.1814250126
20
124.9060745155
30
0.0000000000
10
225.1805567737
20
124.8209613152
30
0.0000000000
11
225.1838126665
21
125.0762934431
31
0.0000000000
11
225.1805567737
21
124.8209613152
31
0.0000000000
0
SPLINE
5
5A7
100
AcDbEntity
8
0
100
AcDbSpline
62
7
6
CONTINUOUS
70
0
71
3
72
8
73
4
74
2
42
0.0000001000
43
0.0000001000
44
0.0000000001
40
0.0000000000
40
0.0000000000
40
0.0000000000
40
0.0000000000
40
1.0000000000
40
1.0000000000
40
1.0000000000
40
1.0000000000
10
225.1805567737
20
124.8209613152
30
0.0000000000
10
225.1796884887
20
124.7358435930
30
0.0000000000
10
225.1790372886
20
124.6507237948
30
0.0000000000
10
225.1786031824
20
124.5656031663
30
0.0000000000
11
225.1805567737
21
124.8209613152
31
0.0000000000
11
225.1786031824
21
124.5656031663
31
0.0000000000
0
SPLINE
5
5A8
100
AcDbEntity
8
0
100
AcDbSpline
62
7
6
CONTINUOUS
70
0
71
3
72
9
73
5
74
3
42
0.0000001000
43
0.0000001000
44
0.0000000001
40
0.0000000000
40
0.0000000000
40
0.0000000000
40
0.0000000000
40
0.4933706965
40
1.0000000000
40
1.0000000000
40
1.0000000000
40
1.0000000000
10
228.9208905541
20
115.6294327671
30
0.0000000000
10
229.0036836184
20
115.5860456717
30
0.0000000000
10
229.1722659186
20
115.4995708665
30
0.0000000000
10
229.3422368965
20
115.4158616430
30
0.0000000000
10
229.4286668324
20
115.3741135592
30
0.0000000000
11
228.9208905541
21
115.6294327671
31
0.0000000000
11
229.1703687766
21
115.5013905850
31
0.0000000000
11
229.4286668324
21
115.3741135592
31
0.0000000000
0
SPLINE
5
5A9
100
AcDbEntity
8
0
100
AcDbSpline
62
7
6
CONTINUOUS
70
0
71
3
72
9
73
5
74
3
42
0.0000001000
43
0.0000001000
44
0.0000000001
40
0.0000000000
40
0.0000000000
40
0.0000000000
40
0.0000000000
40
0.4934025860
40
1.0000000000
40
1.0000000000
40
1.0000000000
40
1.0000000000
10
228.3846769726
20
115.6294327671
30
0.0000000000
10
228.4664617322
20
115.5860547951
30
0.0000000000
10
228.6329920551
20
115.4995912219
30
0.0000000000
10
228.8009163857
20
115.4158702011
30
0.0000000000
10
228.8863054679
20
115.3741135592
30
0.0000000000
11
228.3846769726
21
115.6294327671
31
0.0000000000
11
228.6311340819
21
115.5013997576
31
0.0000000000
11
228.8863054679
21
115.3741135592
31
0.0000000000
0
SPLINE
5
5AA
100
AcDbEntity
8
0
100
AcDbSpline
62
7
6
CONTINUOUS
70
0
71
3
72
9
73
5
74
3
42
0.0000001000
43
0.0000001000
44
0.0000000001
40
0.0000000000
40
0.0000000000
40
0.0000000000
40
0.0000000000
40
0.5000685923
40
1.0000000000
40
1.0000000000
40
1.0000000000
40
1.0000000000
10
225.7892668118
20
119.4592200810
30
0.0000000000
10
225.7921247814
20
119.2038646109
30
0.0000000000
10
225.7979503615
20
118.6932249525
30
0.0000000000
10
225.8039968791
20
118.1825878625
30
0.0000000000
10
225.8070749730
20
117.9273050124
30
0.0000000000
11
225.7892668118
21
119.4592200810
31
0.0000000000
11
225.7980064102
21
118.6931555428
31
0.0000000000
11
225.8070749730
21
117.9273050124
31
0.0000000000
0
SPLINE
5
5AB
100
AcDbEntity
8
0
100
AcDbSpline
62
7
6
CONTINUOUS
70
0
71
3
72
9
73
5
74
3
42
0.0000001000
43
0.0000001000
44
0.0000000001
40
0.0000000000
40
0.0000000000
40
0.0000000000
40
0.0000000000
40
0.5000671638
40
1.0000000000
40
1.0000000000
40
1.0000000000
40
1.0000000000
10
225.2881046028
20
119.4592200810
30
0.0000000000
10
225.2909326556
20
119.2038653668
30
0.0000000000
10
225.2966972604
20
118.6932257357
30
0.0000000000
10
225.3026804674
20
118.1825886192
30
0.0000000000
10
225.3057263345
20
117.9273050124
30
0.0000000000
11
225.2881046028
21
119.4592200810
31
0.0000000000
11
225.2967527000
21
118.6931577716
31
0.0000000000
11
225.3057263345
21
117.9273050124
31
0.0000000000
0
SPLINE
5
5AC
100
AcDbEntity
8
0
100
AcDbSpline
62
7
6
CONTINUOUS
70
0
71
3
72
9
73
5
74
3
42
0.0000001000
43
0.0000001000
44
0.0000000001
40
0.0000000000
40
0.0000000000
40
0.0000000000
40
0.0000000000
40
0.6668049564
40
1.0000000000
40
1.0000000000
40
1.0000000000
40
1.0000000000
10
225.8070749730
20
117.9273050124
30
0.0000000000
10
225.8193986904
20
117.6717881279
30
0.0000000000
10
225.8392057517
20
117.2886550576
30
0.0000000000
10
225.8610024537
20
116.9056317498
30
0.0000000000
10
225.8684860230
20
116.7780233398
30
0.0000000000
11
225.8070749730
21
117.9273050124
31
0.0000000000
11
225.8466982353
21
117.1608868710
31
0.0000000000
11
225.8684860230
21
116.7780233398
31
0.0000000000
0
SPLINE
5
5AD
100
AcDbEntity
8
0
100
AcDbSpline
62
7
6
CONTINUOUS
70
0
71
3
72
8
73
4
74
2
42
0.0000001000
43
0.0000001000
44
0.0000000001
40
0.0000000000
40
0.0000000000
40
0.0000000000
40
0.0000000000
40
1.0000000000
40
1.0000000000
40
1.0000000000
40
1.0000000000
10
225.8684860230
20
116.7780233398
30
0.0000000000
10
225.8759666209
20
116.6504655964
30
0.0000000000
10
225.8836680596
20
116.5229209003
30
0.0000000000
10
225.8915904674
20
116.3953901226
30
0.0000000000
11
225.8684860230
21
116.7780233398
31
0.0000000000
11
225.8915904674
21
116.3953901226
31
0.0000000000
0
SPLINE
5
5AE
100
AcDbEntity
8
0
100
AcDbSpline
62
7
6
CONTINUOUS
70
0
71
3
72
9
73
5
74
3
42
0.0000001000
43
0.0000001000
44
0.0000000001
40
0.0000000000
40
0.0000000000
40
0.0000000000
40
0.0000000000
40
0.5002009492
40
1.0000000000
40
1.0000000000
40
1.0000000000
40
1.0000000000
10
225.3057263345
20
117.9273050124
30
0.0000000000
10
225.3179207929
20
117.6717922598
30
0.0000000000
10
225.3440479865
20
117.1610539762
30
0.0000000000
10
225.3736734976
20
116.6505066597
30
0.0000000000
10
225.3893551713
20
116.3953901226
30
0.0000000000
11
225.3057263345
21
117.9273050124
31
0.0000000000
11
225.3449337695
21
117.1608964915
31
0.0000000000
11
225.3893551713
21
116.3953901226
31
0.0000000000
0
SPLINE
5
5AF
100
AcDbEntity
8
0
100
AcDbSpline
62
7
6
CONTINUOUS
70
0
71
3
72
8
73
4
74
2
42
0.0000001000
43
0.0000001000
44
0.0000000001
40
0.0000000000
40
0.0000000000
40
0.0000000000
40
0.0000000000
40
1.0000000000
40
1.0000000000
40
1.0000000000
40
1.0000000000
10
225.8915904674
20
116.3953901226
30
0.0000000000
10
225.8967778215
20
116.3582775253
30
0.0000000000
10
225.9020584813
20
116.3211778333
30
0.0000000000
10
225.9074322626
20
116.2840915569
30
0.0000000000
11
225.8915904674
21
116.3953901226
31
0.0000000000
11
225.9074322626
21
116.2840915569
31
0.0000000000
0
SPLINE
5
5B0
100
AcDbEntity
8
0
100
AcDbSpline
62
7
6
CONTINUOUS
70
0
71
3
72
9
73
5
74
3
42
0.0000001000
43
0.0000001000
44
0.0000000001
40
0.0000000000
40
0.0000000000
40
0.0000000000
40
0.0000000000
40
0.4998508714
40
1.0000000000
40
1.0000000000
40
1.0000000000
40
1.0000000000
10
225.3893551713
20
116.3953901226
30
0.0000000000
10
225.4011418061
20
116.3101677421
30
0.0000000000
10
225.4256962776
20
116.1398054517
30
0.0000000000
10
225.4521910182
20
115.9697341355
30
0.0000000000
10
225.4659253519
20
115.8847518856
30
0.0000000000
11
225.3893551713
21
116.3953901226
31
0.0000000000
11
225.4261737320
21
116.1399289636
31
0.0000000000
11
225.4659253519
21
115.8847518856
31
0.0000000000
0
SPLINE
5
5B1
100
AcDbEntity
8
0
100
AcDbSpline
62
7
6
CONTINUOUS
70
0
71
3
72
9
73
5
74
3
42
0.0000001000
43
0.0000001000
44
0.0000000001
40
0.0000000000
40
0.0000000000
40
0.0000000000
40
0.0000000000
40
0.4932130219
40
1.0000000000
40
1.0000000000
40
1.0000000000
40
1.0000000000
10
225.4659253519
20
115.8847518856
30
0.0000000000
10
225.4891875478
20
115.8415708791
30
0.0000000000
10
225.5385933541
20
115.7552127186
30
0.0000000000
10
225.5920650269
20
115.6713186396
30
0.0000000000
10
225.6200925747
20
115.6294327671
30
0.0000000000
11
225.4659253519
21
115.8847518856
31
0.0000000000
11
225.5389117808
21
115.7569843507
31
0.0000000000
11
225.6200925747
21
115.6294327671
31
0.0000000000
0
SPLINE
5
5B2
100
AcDbEntity
8
0
100
AcDbSpline
62
7
6
CONTINUOUS
70
0
71
3
72
9
73
5
74
3
42
0.0000001000
43
0.0000001000
44
0.0000000001
40
0.0000000000
40
0.0000000000
40
0.0000000000
40
0.0000000000
40
0.4932130219
40
1.0000000000
40
1.0000000000
40
1.0000000000
40
1.0000000000
10
225.4659253519
20
124.8209222848
30
0.0000000000
10
225.4891875478
20
124.8641032913
30
0.0000000000
10
225.5385933541
20
124.9504614518
30
0.0000000000
10
225.5920650269
20
125.0343555308
30
0.0000000000
10
225.6200925747
20
125.0762414033
30
0.0000000000
11
225.4659253519
21
124.8209222848
31
0.0000000000
11
225.5389117808
21
124.9486898197
31
0.0000000000
11
225.6200925747
21
125.0762414033
31
0.0000000000
0
SPLINE
5
5B3
100
AcDbEntity
8
0
100
AcDbSpline
62
7
6
CONTINUOUS
70
0
71
3
72
8
73
4
74
2
42
0.0000001000
43
0.0000001000
44
0.0000000001
40
0.0000000000
40
0.0000000000
40
0.0000000000
40
0.0000000000
40
1.0000000000
40
1.0000000000
40
1.0000000000
40
1.0000000000
10
225.8915904674
20
124.3102840478
30
0.0000000000
10
225.8967778215
20
124.3473966451
30
0.0000000000
10
225.9020584813
20
124.3844963371
30
0.0000000000
10
225.9074322626
20
124.4215826135
30
0.0000000000
11
225.8915904674
21
124.3102840478
31
0.0000000000
11
225.9074322626
21
124.4215826135
31
0.0000000000
0
SPLINE
5
5B4
100
AcDbEntity
8
0
100
AcDbSpline
62
7
6
CONTINUOUS
70
0
71
3
72
9
73
5
74
3
42
0.0000001000
43
0.0000001000
44
0.0000000001
40
0.0000000000
40
0.0000000000
40
0.0000000000
40
0.0000000000
40
0.4998508714
40
1.0000000000
40
1.0000000000
40
1.0000000000
40
1.0000000000
10
225.3893551713
20
124.3102840478
30
0.0000000000
10
225.4011418061
20
124.3955064283
30
0.0000000000
10
225.4256962776
20
124.5658687187
30
0.0000000000
10
225.4521910182
20
124.7359400349
30
0.0000000000
10
225.4659253519
20
124.8209222848
30
0.0000000000
11
225.3893551713
21
124.3102840478
31
0.0000000000
11
225.4261737320
21
124.5657452068
31
0.0000000000
11
225.4659253519
21
124.8209222848
31
0.0000000000
0
SPLINE
5
5B5
100
AcDbEntity
8
0
100
AcDbSpline
62
7
6
CONTINUOUS
70
0
71
3
72
9
73
5
74
3
42
0.0000001000
43
0.0000001000
44
0.0000000001
40
0.0000000000
40
0.0000000000
40
0.0000000000
40
0.0000000000
40
0.6668049565
40
1.0000000000
40
1.0000000000
40
1.0000000000
40
1.0000000000
10
225.8070749730
20
122.7783686215
30
0.0000000000
10
225.8193986904
20
123.0338855955
30
0.0000000000
10
225.8392057517
20
123.4170188000
30
0.0000000000
10
225.8610024537
20
123.8000422419
30
0.0000000000
10
225.8684860230
20
123.9276506966
30
0.0000000000
11
225.8070749730
21
122.7783686215
31
0.0000000000
11
225.8466982353
21
123.5447870314
31
0.0000000000
11
225.8684860230
21
123.9276506966
31
0.0000000000
0
SPLINE
5
5B6
100
AcDbEntity
8
0
100
AcDbSpline
62
7
6
CONTINUOUS
70
0
71
3
72
8
73
4
74
2
42
0.0000001000
43
0.0000001000
44
0.0000000001
40
0.0000000000
40
0.0000000000
40
0.0000000000
40
0.0000000000
40
1.0000000000
40
1.0000000000
40
1.0000000000
40
1.0000000000
10
225.8684860230
20
123.9276506966
30
0.0000000000
10
225.8759666209
20
124.0552084847
30
0.0000000000
10
225.8836680596
20
124.1827532254
30
0.0000000000
10
225.8915904674
20
124.3102840478
30
0.0000000000
11
225.8684860230
21
123.9276506966
31
0.0000000000
11
225.8915904674
21
124.3102840478
31
0.0000000000
0
SPLINE
5
5B7
100
AcDbEntity
8
0
100
AcDbSpline
62
7
6
CONTINUOUS
70
0
71
3
72
9
73
5
74
3
42
0.0000001000
43
0.0000001000
44
0.0000000001
40
0.0000000000
40
0.0000000000
40
0.0000000000
40
0.0000000000
40
0.5002009493
40
1.0000000000
40
1.0000000000
40
1.0000000000
40
1.0000000000
10
225.3057263345
20
122.7783686215
30
0.0000000000
10
225.3179207929
20
123.0338814636
30
0.0000000000
10
225.3440479865
20
123.5446199260
30
0.0000000000
10
225.3736734976
20
124.0551674213
30
0.0000000000
10
225.3893551713
20
124.3102840478
30
0.0000000000
11
225.3057263345
21
122.7783686215
31
0.0000000000
11
225.3449337695
21
123.5447774109
31
0.0000000000
11
225.3893551713
21
124.3102840478
31
0.0000000000
0
SPLINE
5
5B8
100
AcDbEntity
8
0
100
AcDbSpline
62
7
6
CONTINUOUS
70
0
71
3
72
9
73
5
74
3
42
0.0000001000
43
0.0000001000
44
0.0000000001
40
0.0000000000
40
0.0000000000
40
0.0000000000
40
0.0000000000
40
0.5000685923
40
1.0000000000
40
1.0000000000
40
1.0000000000
40
1.0000000000
10
225.7892668118
20
121.2464539105
30
0.0000000000
10
225.7921247814
20
121.5018093211
30
0.0000000000
10
225.7979503615
20
122.0124488603
30
0.0000000000
10
225.8039968791
20
122.5230858311
30
0.0000000000
10
225.8070749730
20
122.7783686215
30
0.0000000000
11
225.7892668118
21
121.2464539105
31
0.0000000000
11
225.7980064102
21
122.0125182699
31
0.0000000000
11
225.8070749730
21
122.7783686215
31
0.0000000000
0
SPLINE
5
5B9
100
AcDbEntity
8
0
100
AcDbSpline
62
7
6
CONTINUOUS
70
0
71
3
72
9
73
5
74
3
42
0.0000001000
43
0.0000001000
44
0.0000000001
40
0.0000000000
40
0.0000000000
40
0.0000000000
40
0.0000000000
40
0.5000671638
40
1.0000000000
40
1.0000000000
40
1.0000000000
40
1.0000000000
10
225.2881046028
20
121.2464539105
30
0.0000000000
10
225.2909326556
20
121.5018085651
30
0.0000000000
10
225.2966972604
20
122.0124480770
30
0.0000000000
10
225.3026804674
20
122.5230850743
30
0.0000000000
10
225.3057263345
20
122.7783686215
30
0.0000000000
11
225.2881046028
21
121.2464539105
31
0.0000000000
11
225.2967527000
21
122.0125160411
31
0.0000000000
11
225.3057263345
21
122.7783686215
31
0.0000000000
0
SPLINE
5
5BA
100
AcDbEntity
8
0
100
AcDbSpline
62
7
6
CONTINUOUS
70
0
71
3
72
9
73
5
74
3
42
0.0000001000
43
0.0000001000
44
0.0000000001
40
0.0000000000
40
0.0000000000
40
0.0000000000
40
0.0000000000
40
0.4998711861
40
1.0000000000
40
1.0000000000
40
1.0000000000
40
1.0000000000
10
225.8237285087
20
142.8439346002
30
0.0000000000
10
225.8342163374
20
142.8865381480
30
0.0000000000
10
225.8554433429
20
142.9717068440
30
0.0000000000
10
225.8771604442
20
143.0567518884
30
0.0000000000
10
225.8881438901
20
143.0992537187
30
0.0000000000
11
225.8237285087
21
142.8439346002
31
0.0000000000
11
225.8555603351
21
142.9716540052
31
0.0000000000
11
225.8881438901
21
143.0992537187
31
0.0000000000
0
SPLINE
5
5BB
100
AcDbEntity
8
0
100
AcDbSpline
62
7
6
CONTINUOUS
70
0
71
3
72
9
73
5
74
3
42
0.0000001000
43
0.0000001000
44
0.0000000001
40
0.0000000000
40
0.0000000000
40
0.0000000000
40
0.0000000000
40
0.5002874080
40
1.0000000000
40
1.0000000000
40
1.0000000000
40
1.0000000000
10
225.8881438901
20
143.0992537187
30
0.0000000000
10
225.9046540199
20
143.2696221275
30
0.0000000000
10
225.9382382471
20
143.6101069584
30
0.0000000000
10
225.9729897867
20
143.9504746307
30
0.0000000000
10
225.9906476048
20
144.1205301926
30
0.0000000000
11
225.8881438901
21
143.0992537187
31
0.0000000000
11
225.9385497155
21
143.6102733512
31
0.0000000000
11
225.9906476048
21
144.1205301926
31
0.0000000000
0
SPLINE
5
5BC
100
AcDbEntity
8
0
100
AcDbSpline
62
7
6
CONTINUOUS
70
0
71
3
72
9
73
5
74
3
42
0.0000001000
43
0.0000001000
44
0.0000000001
40
0.0000000000
40
0.0000000000
40
0.0000000000
40
0.0000000000
40
0.5001332021
40
1.0000000000
40
1.0000000000
40
1.0000000000
40
1.0000000000
10
225.9906476048
20
144.1205301926
30
0.0000000000
10
225.9965406724
20
144.2482268116
30
0.0000000000
10
226.0083892704
20
144.5035490066
30
0.0000000000
10
226.0203691724
20
144.7588650745
30
0.0000000000
10
226.0263903705
20
144.8864875481
30
0.0000000000
11
225.9906476048
21
144.1205301926
31
0.0000000000
11
226.0084252704
21
144.5036154929
31
0.0000000000
11
226.0263903705
21
144.8864875481
31
0.0000000000
0
SPLINE
5
5BD
100
AcDbEntity
8
0
100
AcDbSpline
62
7
6
CONTINUOUS
70
0
71
3
72
9
73
5
74
3
42
0.0000001000
43
0.0000001000
44
0.0000000001
40
0.0000000000
40
0.0000000000
40
0.0000000000
40
0.0000000000
40
0.4886863936
40
1.0000000000
40
1.0000000000
40
1.0000000000
40
1.0000000000
10
226.1247906476
20
126.3528369958
30
0.0000000000
10
226.1601942301
20
126.3092140719
30
0.0000000000
10
226.2352806416
20
126.2220685467
30
0.0000000000
10
226.3148377888
20
126.1390045189
30
0.0000000000
10
226.3564826217
20
126.0975178773
30
0.0000000000
11
226.1247906476
21
126.3528369958
31
0.0000000000
11
226.2346493214
21
126.2250151274
31
0.0000000000
11
226.3564826217
21
126.0975178773
31
0.0000000000
0
SPLINE
5
5BE
100
AcDbEntity
8
0
100
AcDbSpline
62
7
6
CONTINUOUS
70
0
71
3
72
9
73
5
74
3
42
0.0000001000
43
0.0000001000
44
0.0000000001
40
0.0000000000
40
0.0000000000
40
0.0000000000
40
0.0000000000
40
0.4888190515
40
1.0000000000
40
1.0000000000
40
1.0000000000
40
1.0000000000
10
225.6200925747
20
126.3528369958
30
0.0000000000
10
225.6551087665
20
126.3092286146
30
0.0000000000
10
225.7293736279
20
126.2221070074
30
0.0000000000
10
225.8081026740
20
126.1390171537
30
0.0000000000
10
225.8493137922
20
126.0975178773
30
0.0000000000
11
225.6200925747
21
126.3528369958
31
0.0000000000
11
225.7287796152
21
126.2250185754
31
0.0000000000
11
225.8493137922
21
126.0975178773
31
0.0000000000
0
SPLINE
5
5BF
100
AcDbEntity
8
0
100
AcDbSpline
62
7
6
CONTINUOUS
70
0
71
3
72
9
73
5
74
3
42
0.0000001000
43
0.0000001000
44
0.0000000001
40
0.0000000000
40
0.0000000000
40
0.0000000000
40
0.0000000000
40
0.4992601485
40
1.0000000000
40
1.0000000000
40
1.0000000000
40
1.0000000000
10
226.3564826217
20
126.0975178773
30
0.0000000000
10
226.3922429707
20
125.9692697372
30
0.0000000000
10
226.4665560210
20
125.7131350386
30
0.0000000000
10
226.5461555111
20
125.4585941178
30
0.0000000000
10
226.5873147607
20
125.3315605218
30
0.0000000000
11
226.3564826217
21
126.0975178773
31
0.0000000000
11
226.4677637614
21
125.7139113080
31
0.0000000000
11
226.5873147607
21
125.3315605218
31
0.0000000000
0
SPLINE
5
5C0
100
AcDbEntity
8
0
100
AcDbSpline
62
7
6
CONTINUOUS
70
0
71
3
72
9
73
5
74
3
42
0.0000001000
43
0.0000001000
44
0.0000000001
40
0.0000000000
40
0.0000000000
40
0.0000000000
40
0.0000000000
40
0.4992744042
40
1.0000000000
40
1.0000000000
40
1.0000000000
40
1.0000000000
10
225.8493137922
20
126.0975178773
30
0.0000000000
10
225.8846875592
20
125.9692819823
30
0.0000000000
10
225.9581973476
20
125.7131638425
30
0.0000000000
10
226.0369422873
20
125.4586070096
30
0.0000000000
10
226.0776603001
20
125.3315605218
30
0.0000000000
11
225.8493137922
21
126.0975178773
31
0.0000000000
11
225.9593956628
21
125.7139247136
31
0.0000000000
11
226.0776603001
21
125.3315605218
31
0.0000000000
0
SPLINE
5
5C1
100
AcDbEntity
8
0
100
AcDbSpline
62
7
6
CONTINUOUS
70
0
71
3
72
9
73
5
74
3
42
0.0000001000
43
0.0000001000
44
0.0000000001
40
0.0000000000
40
0.0000000000
40
0.0000000000
40
0.0000000000
40
0.5001195174
40
1.0000000000
40
1.0000000000
40
1.0000000000
40
1.0000000000
10
226.5873147607
20
125.3315605218
30
0.0000000000
10
226.6121770996
20
125.2036688672
30
0.0000000000
10
226.6629012008
20
124.9481422460
30
0.0000000000
10
226.7156442799
20
124.6930247141
30
0.0000000000
10
226.7425131877
20
124.5656031663
30
0.0000000000
11
226.5873147607
21
125.3315605218
31
0.0000000000
11
226.6634183114
21
124.9481834875
31
0.0000000000
11
226.7425131877
21
124.5656031663
31
0.0000000000
0
SPLINE
5
5C2
100
AcDbEntity
8
0
100
AcDbSpline
62
7
6
CONTINUOUS
70
0
71
3
72
9
73
5
74
3
42
0.0000001000
43
0.0000001000
44
0.0000000001
40
0.0000000000
40
0.0000000000
40
0.0000000000
40
0.0000000000
40
0.4973982296
40
1.0000000000
40
1.0000000000
40
1.0000000000
40
1.0000000000
10
226.9099765398
20
138.5035090492
30
0.0000000000
10
226.9451648934
20
138.4606241788
30
0.0000000000
10
227.0165913172
20
138.3749629832
30
0.0000000000
10
227.0893257360
20
138.2904099511
30
0.0000000000
10
227.1261974886
20
138.2481899307
30
0.0000000000
11
226.9099765398
21
138.5035090492
31
0.0000000000
11
227.0165432514
21
138.3756828899
31
0.0000000000
11
227.1261974886
21
138.2481899307
31
0.0000000000
0
SPLINE
5
5C3
100
AcDbEntity
8
0
100
AcDbSpline
62
7
6
CONTINUOUS
70
0
71
3
72
9
73
5
74
3
42
0.0000001000
43
0.0000001000
44
0.0000000001
40
0.0000000000
40
0.0000000000
40
0.0000000000
40
0.0000000000
40
0.4973644027
40
1.0000000000
40
1.0000000000
40
1.0000000000
40
1.0000000000
10
227.4289022467
20
138.5035090492
30
0.0000000000
10
227.4644942777
20
138.4606187074
30
0.0000000000
10
227.5367399449
20
138.3749492794
30
0.0000000000
10
227.6102982141
20
138.2904045996
30
0.0000000000
10
227.6475874757
20
138.2481899307
30
0.0000000000
11
227.4289022467
21
138.5035090492
31
0.0000000000
11
227.5366838241
21
138.3756790901
31
0.0000000000
11
227.6475874757
21
138.2481899307
31
0.0000000000
0
SPLINE
5
5C4
100
AcDbEntity
8
0
100
AcDbSpline
62
7
6
CONTINUOUS
70
0
71
3
72
9
73
5
74
3
42
0.0000001000
43
0.0000001000
44
0.0000000001
40
0.0000000000
40
0.0000000000
40
0.0000000000
40
0.0000000000
40
0.5001169782
40
1.0000000000
40
1.0000000000
40
1.0000000000
40
1.0000000000
10
226.0776603001
20
125.3315605218
30
0.0000000000
10
226.1022526498
20
125.2036738760
30
0.0000000000
10
226.1524260984
20
124.9481517422
30
0.0000000000
10
226.2045965362
20
124.6930298496
30
0.0000000000
10
226.2311738619
20
124.5656031663
30
0.0000000000
11
226.0776603001
21
125.3315605218
31
0.0000000000
11
226.1529373177
21
124.9481920683
31
0.0000000000
11
226.2311738619
21
124.5656031663
31
0.0000000000
0
SPLINE
5
5C5
100
AcDbEntity
8
0
100
AcDbSpline
62
7
6
CONTINUOUS
70
0
71
3
72
9
73
5
74
3
42
0.0000001000
43
0.0000001000
44
0.0000000001
40
0.0000000000
40
0.0000000000
40
0.0000000000
40
0.0000000000
40
0.5001280191
40
1.0000000000
40
1.0000000000
40
1.0000000000
40
1.0000000000
10
226.7566056422
20
139.0141474650
30
0.0000000000
10
226.7816005608
20
138.9288486150
30
0.0000000000
10
226.8321523209
20
138.7584624671
30
0.0000000000
10
226.8838494066
20
138.5884203286
30
0.0000000000
10
226.9099765398
20
138.5035090492
30
0.0000000000
11
226.7566056422
21
139.0141474650
31
0.0000000000
11
226.8324517421
21
138.7585048881
31
0.0000000000
11
226.9099765398
21
138.5035090492
31
0.0000000000
0
SPLINE
5
5C6
100
AcDbEntity
8
0
100
AcDbSpline
62
7
6
CONTINUOUS
70
0
71
3
72
9
73
5
74
3
42
0.0000001000
43
0.0000001000
44
0.0000000001
40
0.0000000000
40
0.0000000000
40
0.0000000000
40
0.0000000000
40
0.5001309412
40
1.0000000000
40
1.0000000000
40
1.0000000000
40
1.0000000000
10
227.2737975278
20
139.0141474650
30
0.0000000000
10
227.2990753389
20
138.9288442939
30
0.0000000000
10
227.3501987891
20
138.7584542678
30
0.0000000000
10
227.4024801182
20
138.5884159534
30
0.0000000000
10
227.4289022467
20
138.5035090492
30
0.0000000000
11
227.2737975278
21
139.0141474650
31
0.0000000000
11
227.3505017988
21
138.7584976197
31
0.0000000000
11
227.4289022467
21
138.5035090492
31
0.0000000000
0
SPLINE
5
5C7
100
AcDbEntity
8
0
100
AcDbSpline
62
7
6
CONTINUOUS
70
0
71
3
72
9
73
5
74
3
42
0.0000001000
43
0.0000001000
44
0.0000000001
40
0.0000000000
40
0.0000000000
40
0.0000000000
40
0.0000000000
40
0.5003001608
40
1.0000000000
40
1.0000000000
40
1.0000000000
40
1.0000000000
10
226.6585045132
20
139.7801048205
30
0.0000000000
10
226.6745937445
20
139.6523341635
30
0.0000000000
10
226.7070233064
20
139.3969801415
30
0.0000000000
10
226.7399944530
20
139.1416954830
30
0.0000000000
10
226.7566056422
20
139.0141474650
30
0.0000000000
11
226.6585045132
21
139.7801048205
31
0.0000000000
11
226.7071783334
21
139.3968442087
31
0.0000000000
11
226.7566056422
21
139.0141474650
31
0.0000000000
0
SPLINE
5
5C8
100
AcDbEntity
8
0
100
AcDbSpline
62
7
6
CONTINUOUS
70
0
71
3
72
9
73
5
74
3
42
0.0000001000
43
0.0000001000
44
0.0000000001
40
0.0000000000
40
0.0000000000
40
0.0000000000
40
0.0000000000
40
0.5003068489
40
1.0000000000
40
1.0000000000
40
1.0000000000
40
1.0000000000
10
227.1745934854
20
139.7801048205
30
0.0000000000
10
227.1908635352
20
139.6523316400
30
0.0000000000
10
227.2236574016
20
139.3969767909
30
0.0000000000
10
227.2569995178
20
139.1416929482
30
0.0000000000
10
227.2737975278
20
139.0141474650
30
0.0000000000
11
227.1745934854
21
139.7801048205
31
0.0000000000
11
227.2238147579
21
139.3968378536
31
0.0000000000
11
227.2737975278
21
139.0141474650
31
0.0000000000
0
SPLINE
5
5C9
100
AcDbEntity
8
0
100
AcDbSpline
62
7
6
CONTINUOUS
70
0
71
3
72
9
73
5
74
3
42
0.0000001000
43
0.0000001000
44
0.0000000001
40
0.0000000000
40
0.0000000000
40
0.0000000000
40
0.0000000000
40
0.5001856059
40
1.0000000000
40
1.0000000000
40
1.0000000000
40
1.0000000000
10
226.6106901928
20
140.8013812945
30
0.0000000000
10
226.6185938759
20
140.6311021752
30
0.0000000000
10
226.6344636386
20
140.2906734738
30
0.0000000000
10
226.6504700736
20
139.9502511711
30
0.0000000000
10
226.6585045132
20
139.7801048205
30
0.0000000000
11
226.6106901928
21
140.8013812945
31
0.0000000000
11
226.6345037231
21
140.2905487035
31
0.0000000000
11
226.6585045132
21
139.7801048205
31
0.0000000000
0
SPLINE
5
5CA
100
AcDbEntity
8
0
100
AcDbSpline
62
7
6
CONTINUOUS
70
0
71
3
72
9
73
5
74
3
42
0.0000001000
43
0.0000001000
44
0.0000000001
40
0.0000000000
40
0.0000000000
40
0.0000000000
40
0.0000000000
40
0.5001897807
40
1.0000000000
40
1.0000000000
40
1.0000000000
40
1.0000000000
10
227.1262433198
20
140.8013812945
30
0.0000000000
10
227.1342355557
20
140.6311006779
30
0.0000000000
10
227.1502830776
20
140.2906718999
30
0.0000000000
10
227.1664689829
20
139.9502496733
30
0.0000000000
10
227.1745934854
20
139.7801048205
30
0.0000000000
11
227.1262433198
21
140.8013812945
31
0.0000000000
11
227.1503237908
21
140.2905443254
31
0.0000000000
11
227.1745934854
21
139.7801048205
31
0.0000000000
0
SPLINE
5
5CB
100
AcDbEntity
8
0
100
AcDbSpline
62
7
6
CONTINUOUS
70
0
71
3
72
9
73
5
74
3
42
0.0000001000
43
0.0000001000
44
0.0000000001
40
0.0000000000
40
0.0000000000
40
0.0000000000
40
0.0000000000
40
0.5001856059
40
1.0000000000
40
1.0000000000
40
1.0000000000
40
1.0000000000
10
226.6106901928
20
144.6311684296
30
0.0000000000
10
226.6185938759
20
144.8014475490
30
0.0000000000
10
226.6344636386
20
145.1418762504
30
0.0000000000
10
226.6504700736
20
145.4822985530
30
0.0000000000
10
226.6585045132
20
145.6524449036
30
0.0000000000
11
226.6106901928
21
144.6311684296
31
0.0000000000
11
226.6345037231
21
145.1420010206
31
0.0000000000
11
226.6585045132
21
145.6524449036
31
0.0000000000
0
SPLINE
5
5CC
100
AcDbEntity
8
0
100
AcDbSpline
62
7
6
CONTINUOUS
70
0
71
3
72
9
73
5
74
3
42
0.0000001000
43
0.0000001000
44
0.0000000001
40
0.0000000000
40
0.0000000000
40
0.0000000000
40
0.0000000000
40
0.5001897807
40
1.0000000000
40
1.0000000000
40
1.0000000000
40
1.0000000000
10
227.1262433198
20
144.6311684296
30
0.0000000000
10
227.1342355557
20
144.8014490463
30
0.0000000000
10
227.1502830776
20
145.1418778243
30
0.0000000000
10
227.1664689829
20
145.4823000509
30
0.0000000000
10
227.1745934854
20
145.6524449036
30
0.0000000000
11
227.1262433198
21
144.6311684296
31
0.0000000000
11
227.1503237908
21
145.1420053988
31
0.0000000000
11
227.1745934854
21
145.6524449036
31
0.0000000000
0
SPLINE
5
5CD
100
AcDbEntity
8
0
100
AcDbSpline
62
7
6
CONTINUOUS
70
0
71
3
72
9
73
5
74
3
42
0.0000001000
43
0.0000001000
44
0.0000000001
40
0.0000000000
40
0.0000000000
40
0.0000000000
40
0.0000000000
40
0.5003001610
40
1.0000000000
40
1.0000000000
40
1.0000000000
40
1.0000000000
10
226.6585045132
20
145.6524449036
30
0.0000000000
10
226.6745937445
20
145.7802156799
30
0.0000000000
10
226.7070233064
20
146.0355699403
30
0.0000000000
10
226.7399944530
20
146.2908548373
30
0.0000000000
10
226.7566056422
20
146.4184029744
30
0.0000000000
11
226.6585045132
21
145.6524449036
31
0.0000000000
11
226.7071783334
21
146.0357058734
31
0.0000000000
11
226.7566056422
21
146.4184029744
31
0.0000000000
0
SPLINE
5
5CE
100
AcDbEntity
8
0
100
AcDbSpline
62
7
6
CONTINUOUS
70
0
71
3
72
9
73
5
74
3
42
0.0000001000
43
0.0000001000
44
0.0000000001
40
0.0000000000
40
0.0000000000
40
0.0000000000
40
0.0000000000
40
0.5003068490
40
1.0000000000
40
1.0000000000
40
1.0000000000
40
1.0000000000
10
227.1745934854
20
145.6524449036
30
0.0000000000
10
227.1908635352
20
145.7802182035
30
0.0000000000
10
227.2236574016
20
146.0355732910
30
0.0000000000
10
227.2569995178
20
146.2908573721
30
0.0000000000
10
227.2737975278
20
146.4184029744
30
0.0000000000
11
227.1745934854
21
145.6524449036
31
0.0000000000
11
227.2238147579
21
146.0357122285
31
0.0000000000
11
227.2737975278
21
146.4184029744
31
0.0000000000
0
SPLINE
5
5CF
100
AcDbEntity
8
0
100
AcDbSpline
62
7
6
CONTINUOUS
70
0
71
3
72
9
73
5
74
3
42
0.0000001000
43
0.0000001000
44
0.0000000001
40
0.0000000000
40
0.0000000000
40
0.0000000000
40
0.0000000000
40
0.5001280187
40
1.0000000000
40
1.0000000000
40
1.0000000000
40
1.0000000000
10
226.7566056422
20
146.4184029744
30
0.0000000000
10
226.7816005608
20
146.5037017946
30
0.0000000000
10
226.8321523209
20
146.6740878830
30
0.0000000000
10
226.8838494066
20
146.8441299618
30
0.0000000000
10
226.9099765398
20
146.9290412114
30
0.0000000000
11
226.7566056422
21
146.4184029744
31
0.0000000000
11
226.8324517421
21
146.6740454617
31
0.0000000000
11
226.9099765398
21
146.9290412114
31
0.0000000000
0
SPLINE
5
5D0
100
AcDbEntity
8
0
100
AcDbSpline
62
7
6
CONTINUOUS
70
0
71
3
72
9
73
5
74
3
42
0.0000001000
43
0.0000001000
44
0.0000000001
40
0.0000000000
40
0.0000000000
40
0.0000000000
40
0.0000000000
40
0.5001309408
40
1.0000000000
40
1.0000000000
40
1.0000000000
40
1.0000000000
10
227.2737975278
20
146.4184029744
30
0.0000000000
10
227.2990753390
20
146.5037061157
30
0.0000000000
10
227.3501987892
20
146.6740960822
30
0.0000000000
10
227.4024801182
20
146.8441343370
30
0.0000000000
10
227.4289022467
20
146.9290412114
30
0.0000000000
11
227.2737975278
21
146.4184029744
31
0.0000000000
11
227.3505017988
21
146.6740527302
31
0.0000000000
11
227.4289022467
21
146.9290412114
31
0.0000000000
0
SPLINE
5
5D1
100
AcDbEntity
8
0
100
AcDbSpline
62
7
6
CONTINUOUS
70
0
71
3
72
9
73
5
74
3
42
0.0000001000
43
0.0000001000
44
0.0000000001
40
0.0000000000
40
0.0000000000
40
0.0000000000
40
0.0000000000
40
0.4973982296
40
1.0000000000
40
1.0000000000
40
1.0000000000
40
1.0000000000
10
226.9099765398
20
146.9290412114
30
0.0000000000
10
226.9451648934
20
146.9719260818
30
0.0000000000
10
227.0165913172
20
147.0575872774
30
0.0000000000
10
227.0893257360
20
147.1421403095
30
0.0000000000
10
227.1261974886
20
147.1843603299
30
0.0000000000
11
226.9099765398
21
146.9290412114
31
0.0000000000
11
227.0165432514
21
147.0568673707
31
0.0000000000
11
227.1261974886
21
147.1843603299
31
0.0000000000
0
SPLINE
5
5D2
100
AcDbEntity
8
0
100
AcDbSpline
62
7
6
CONTINUOUS
70
0
71
3
72
9
73
5
74
3
42
0.0000001000
43
0.0000001000
44
0.0000000001
40
0.0000000000
40
0.0000000000
40
0.0000000000
40
0.0000000000
40
0.4973644027
40
1.0000000000
40
1.0000000000
40
1.0000000000
40
1.0000000000
10
227.4289022467
20
146.9290412114
30
0.0000000000
10
227.4644942777
20
146.9719315532
30
0.0000000000
10
227.5367399449
20
147.0576009812
30
0.0000000000
10
227.6102982141
20
147.1421456610
30
0.0000000000
10
227.6475874757
20
147.1843603299
30
0.0000000000
11
227.4289022467
21
146.9290412114
31
0.0000000000
11
227.5366838241
21
147.0568711705
31
0.0000000000
11
227.6475874757
21
147.1843603299
31
0.0000000000
0
SPLINE
5
5D3
100
AcDbEntity
8
0
100
AcDbSpline
62
7
6
CONTINUOUS
70
0
71
3
72
9
73
5
74
3
42
0.0000001000
43
0.0000001000
44
0.0000000001
40
0.0000000000
40
0.0000000000
40
0.0000000000
40
0.0000000000
40
0.5003423468
40
1.0000000000
40
1.0000000000
40
1.0000000000
40
1.0000000000
10
226.7425131877
20
124.5656031663
30
0.0000000000
10
226.7604767832
20
124.3952239801
30
0.0000000000
10
226.7968442930
20
124.0547476176
30
0.0000000000
10
226.8341431320
20
123.7143720207
30
0.0000000000
10
226.8530128500
20
123.5443266923
30
0.0000000000
11
226.7425131877
21
124.5656031663
31
0.0000000000
11
226.7971023449
21
124.0545397215
31
0.0000000000
11
226.8530128500
21
123.5443266923
31
0.0000000000
0
SPLINE
5
5D4
100
AcDbEntity
8
0
100
AcDbSpline
62
7
6
CONTINUOUS
70
0
71
3
72
9
73
5
74
3
42
0.0000001000
43
0.0000001000
44
0.0000000001
40
0.0000000000
40
0.0000000000
40
0.0000000000
40
0.0000000000
40
0.5003349854
40
1.0000000000
40
1.0000000000
40
1.0000000000
40
1.0000000000
10
226.2311738619
20
124.5656031663
30
0.0000000000
10
226.2489414217
20
124.3952276062
30
0.0000000000
10
226.2849122419
20
124.0547523868
30
0.0000000000
10
226.3218035237
20
123.7143756699
30
0.0000000000
10
226.3404671496
20
123.5443266923
30
0.0000000000
11
226.2311738619
21
124.5656031663
31
0.0000000000
11
226.2851667651
21
124.0545489370
31
0.0000000000
11
226.3404671496
21
123.5443266923
31
0.0000000000
0
SPLINE
5
5D5
100
AcDbEntity
8
0
100
AcDbSpline
62
7
6
CONTINUOUS
70
0
71
3
72
9
73
5
74
3
42
0.0000001000
43
0.0000001000
44
0.0000000001
40
0.0000000000
40
0.0000000000
40
0.0000000000
40
0.0000000000
40
0.5001332021
40
1.0000000000
40
1.0000000000
40
1.0000000000
40
1.0000000000
10
225.9906476048
20
146.6737220929
30
0.0000000000
10
225.9965406724
20
146.5460254739
30
0.0000000000
10
226.0083892704
20
146.2907032789
30
0.0000000000
10
226.0203691724
20
146.0353872111
30
0.0000000000
10
226.0263903705
20
145.9077647374
30
0.0000000000
11
225.9906476048
21
146.6737220929
31
0.0000000000
11
226.0084252704
21
146.2906367926
31
0.0000000000
11
226.0263903705
21
145.9077647374
31
0.0000000000
0
SPLINE
5
5D6
100
AcDbEntity
8
0
100
AcDbSpline
62
7
6
CONTINUOUS
70
0
71
3
72
9
73
5
74
3
42
0.0000001000
43
0.0000001000
44
0.0000000001
40
0.0000000000
40
0.0000000000
40
0.0000000000
40
0.0000000000
40
0.5002071575
40
1.0000000000
40
1.0000000000
40
1.0000000000
40
1.0000000000
10
226.8530128500
20
123.5443266923
30
0.0000000000
10
226.8624615873
20
123.4166053431
30
0.0000000000
10
226.8814688651
20
123.1612771229
30
0.0000000000
10
226.9007116720
20
122.9059665453
30
0.0000000000
10
226.9103880159
20
122.7783686215
30
0.0000000000
11
226.8530128500
21
123.5443266923
31
0.0000000000
11
226.8815356712
21
123.1611757509
31
0.0000000000
11
226.9103880159
21
122.7783686215
31
0.0000000000
0
SPLINE
5
5D7
100
AcDbEntity
8
0
100
AcDbSpline
62
7
6
CONTINUOUS
70
0
71
3
72
9
73
5
74
3
42
0.0000001000
43
0.0000001000
44
0.0000000001
40
0.0000000000
40
0.0000000000
40
0.0000000000
40
0.0000000000
40
0.5002026648
40
1.0000000000
40
1.0000000000
40
1.0000000000
40
1.0000000000
10
226.3404671496
20
123.5443266923
30
0.0000000000
10
226.3498123903
20
123.4166066897
30
0.0000000000
10
226.3686115295
20
123.1612786712
30
0.0000000000
10
226.3876433917
20
122.9059678940
30
0.0000000000
10
226.3972136895
20
122.7783686215
30
0.0000000000
11
226.3404671496
21
123.5443266923
31
0.0000000000
11
226.3686773773
21
123.1611794930
31
0.0000000000
11
226.3972136895
21
122.7783686215
31
0.0000000000
0
SPLINE
5
5D8
100
AcDbEntity
8
0
100
AcDbSpline
62
7
6
CONTINUOUS
70
0
71
3
72
8
73
4
74
2
42
0.0000001000
43
0.0000001000
44
0.0000000001
40
0.0000000000
40
0.0000000000
40
0.0000000000
40
0.0000000000
40
1.0000000000
40
1.0000000000
40
1.0000000000
40
1.0000000000
10
226.9103880159
20
122.7783686215
30
0.0000000000
10
226.9152319491
20
122.6719098911
30
0.0000000000
10
226.9200907035
20
122.5654518339
30
0.0000000000
10
226.9249642923
20
122.4589944554
30
0.0000000000
11
226.9103880159
21
122.7783686215
31
0.0000000000
11
226.9249642923
21
122.4589944554
31
0.0000000000
0
SPLINE
5
5D9
100
AcDbEntity
8
0
100
AcDbSpline
62
7
6
CONTINUOUS
70
0
71
3
72
8
73
4
74
2
42
0.0000001000
43
0.0000001000
44
0.0000000001
40
0.0000000000
40
0.0000000000
40
0.0000000000
40
0.0000000000
40
1.0000000000
40
1.0000000000
40
1.0000000000
40
1.0000000000
10
226.9249642923
20
122.4589944554
30
0.0000000000
10
226.9298356516
20
122.3525857802
30
0.0000000000
10
226.9347218317
20
122.2461777831
30
0.0000000000
10
226.9396228460
20
122.1397704692
30
0.0000000000
11
226.9249642923
21
122.4589944554
31
0.0000000000
11
226.9396228460
21
122.1397704692
31
0.0000000000
0
SPLINE
5
5DA
100
AcDbEntity
8
0
100
AcDbSpline
62
7
6
CONTINUOUS
70
0
71
3
72
8
73
4
74
2
42
0.0000001000
43
0.0000001000
44
0.0000000001
40
0.0000000000
40
0.0000000000
40
0.0000000000
40
0.0000000000
40
1.0000000000
40
1.0000000000
40
1.0000000000
40
1.0000000000
10
226.9396228460
20
122.1397704692
30
0.0000000000
10
226.9494181468
20
121.9271019125
30
0.0000000000
10
226.9592727029
20
121.7144360850
30
0.0000000000
10
226.9691866218
20
121.5017730290
30
0.0000000000
11
226.9396228460
21
122.1397704692
31
0.0000000000
11
226.9691866218
21
121.5017730290
31
0.0000000000
0
SPLINE
5
5DB
100
AcDbEntity
8
0
100
AcDbSpline
62
7
6
CONTINUOUS
70
0
71
3
72
9
73
5
74
3
42
0.0000001000
43
0.0000001000
44
0.0000000001
40
0.0000000000
40
0.0000000000
40
0.0000000000
40
0.0000000000
40
0.5002238690
40
1.0000000000
40
1.0000000000
40
1.0000000000
40
1.0000000000
10
226.3972136895
20
122.7783686215
30
0.0000000000
10
226.4067929891
20
122.5655021128
30
0.0000000000
10
226.4260600490
20
122.1399648854
30
0.0000000000
10
226.4455614837
20
121.7144383344
30
0.0000000000
10
226.4553664804
20
121.5017730290
30
0.0000000000
11
226.3972136895
21
122.7783686215
31
0.0000000000
11
226.4261273218
21
122.1397770277
31
0.0000000000
11
226.4553664804
21
121.5017730290
31
0.0000000000
0
SPLINE
5
5DC
100
AcDbEntity
8
0
100
AcDbSpline
62
7
6
CONTINUOUS
70
0
71
3
72
9
73
5
74
3
42
0.0000001000
43
0.0000001000
44
0.0000000001
40
0.0000000000
40
0.0000000000
40
0.0000000000
40
0.0000000000
40
0.5003104848
40
1.0000000000
40
1.0000000000
40
1.0000000000
40
1.0000000000
10
228.5640078574
20
146.9290412114
30
0.0000000000
10
228.5765619599
20
146.7161384410
30
0.0000000000
10
228.6017321288
20
146.2906017174
30
0.0000000000
10
228.6270576733
20
145.8650742127
30
0.0000000000
10
228.6397514738
20
145.6524449036
30
0.0000000000
11
228.5640078574
21
146.9290412114
31
0.0000000000
11
228.6017866508
21
146.2903397796
31
0.0000000000
11
228.6397514738
21
145.6524449036
31
0.0000000000
0
SPLINE
5
5DD
100
AcDbEntity
8
0
100
AcDbSpline
62
7
6
CONTINUOUS
70
0
71
3
72
9
73
5
74
3
42
0.0000001000
43
0.0000001000
44
0.0000000001
40
0.0000000000
40
0.0000000000
40
0.0000000000
40
0.0000000000
40
0.5003181032
40
1.0000000000
40
1.0000000000
40
1.0000000000
40
1.0000000000
10
229.1024030856
20
146.9290412114
30
0.0000000000
10
229.1151107412
20
146.7161350704
30
0.0000000000
10
229.1405886433
20
146.2905982174
30
0.0000000000
10
229.1662243413
20
145.8650708413
30
0.0000000000
10
229.1790735340
20
145.6524449036
30
0.0000000000
11
229.1024030856
21
146.9290412114
31
0.0000000000
11
229.1406443517
21
146.2903298603
31
0.0000000000
11
229.1790735340
21
145.6524449036
31
0.0000000000
0
SPLINE
5
5DE
100
AcDbEntity
8
0
100
AcDbSpline
62
7
6
CONTINUOUS
70
0
71
3
72
9
73
5
74
3
42
0.0000001000
43
0.0000001000
44
0.0000000001
40
0.0000000000
40
0.0000000000
40
0.0000000000
40
0.0000000000
40
0.5002874080
40
1.0000000000
40
1.0000000000
40
1.0000000000
40
1.0000000000
10
225.8881438901
20
147.6949985669
30
0.0000000000
10
225.9046540199
20
147.5246301581
30
0.0000000000
10
225.9382382471
20
147.1841453272
30
0.0000000000
10
225.9729897867
20
146.8437776549
30
0.0000000000
10
225.9906476048
20
146.6737220929
30
0.0000000000
11
225.8881438901
21
147.6949985669
31
0.0000000000
11
225.9385497155
21
147.1839789344
31
0.0000000000
11
225.9906476048
21
146.6737220929
31
0.0000000000
0
SPLINE
5
5DF
100
AcDbEntity
8
0
100
AcDbSpline
62
7
6
CONTINUOUS
70
0
71
3
72
9
73
5
74
3
42
0.0000001000
43
0.0000001000
44
0.0000000001
40
0.0000000000
40
0.0000000000
40
0.0000000000
40
0.0000000000
40
0.5005882396
40
1.0000000000
40
1.0000000000
40
1.0000000000
40
1.0000000000
10
228.2703212038
20
147.9503176854
30
0.0000000000
10
228.3181881629
20
147.7795804001
30
0.0000000000
10
228.4149465389
20
147.4388248131
30
0.0000000000
10
228.5139804920
20
147.0987235942
30
0.0000000000
10
228.5640078574
20
146.9290412114
30
0.0000000000
11
228.2703212038
21
147.9503176854
31
0.0000000000
11
228.4156306067
21
147.4385878984
31
0.0000000000
11
228.5640078574
21
146.9290412114
31
0.0000000000
0
SPLINE
5
5E0
100
AcDbEntity
8
0
100
AcDbSpline
62
7
6
CONTINUOUS
70
0
71
3
72
9
73
5
74
3
42
0.0000001000
43
0.0000001000
44
0.0000000001
40
0.0000000000
40
0.0000000000
40
0.0000000000
40
0.0000000000
40
0.5006016641
40
1.0000000000
40
1.0000000000
40
1.0000000000
40
1.0000000000
10
228.8051528560
20
147.9503176854
30
0.0000000000
10
228.8536004280
20
147.7795674806
30
0.0000000000
10
228.9515313679
20
147.4388033848
30
0.0000000000
10
229.0517685252
20
147.0987105145
30
0.0000000000
10
229.1024030856
20
146.9290412114
30
0.0000000000
11
228.8051528560
21
147.9503176854
31
0.0000000000
11
228.9522271537
21
147.4385615442
31
0.0000000000
11
229.1024030856
21
146.9290412114
31
0.0000000000
0
SPLINE
5
5E1
100
AcDbEntity
8
0
100
AcDbSpline
62
7
6
CONTINUOUS
70
0
71
3
72
9
73
5
74
3
42
0.0000001000
43
0.0000001000
44
0.0000000001
40
0.0000000000
40
0.0000000000
40
0.0000000000
40
0.0000000000
40
0.4995523450
40
1.0000000000
40
1.0000000000
40
1.0000000000
40
1.0000000000
10
227.9912756693
20
148.4609559224
30
0.0000000000
10
228.0368070657
20
148.3754200350
30
0.0000000000
10
228.1288955332
20
148.2046958612
30
0.0000000000
10
228.2228452830
20
148.0349889282
30
0.0000000000
10
228.2703212038
20
147.9503176854
30
0.0000000000
11
227.9912756693
21
148.4609559224
31
0.0000000000
11
228.1292775732
21
148.2051025673
31
0.0000000000
11
228.2703212038
21
147.9503176854
31
0.0000000000
0
SPLINE
5
5E2
100
AcDbEntity
8
0
100
AcDbSpline
62
7
6
CONTINUOUS
70
0
71
3
72
9
73
5
74
3
42
0.0000001000
43
0.0000001000
44
0.0000000001
40
0.0000000000
40
0.0000000000
40
0.0000000000
40
0.0000000000
40
0.4995451022
40
1.0000000000
40
1.0000000000
40
1.0000000000
40
1.0000000000
10
228.5227650900
20
148.4609559224
30
0.0000000000
10
228.5688435803
20
148.3754104262
30
0.0000000000
10
228.6620375973
20
148.2046753480
30
0.0000000000
10
228.7571101875
20
148.0349792602
30
0.0000000000
10
228.8051528560
20
147.9503176854
30
0.0000000000
11
228.5227650900
21
148.4609559224
31
0.0000000000
11
228.6624215989
21
148.2050899572
31
0.0000000000
11
228.8051528560
21
147.9503176854
31
0.0000000000
0
SPLINE
5
5E3
100
AcDbEntity
8
0
100
AcDbSpline
62
7
6
CONTINUOUS
70
0
71
3
72
9
73
5
74
3
42
0.0000001000
43
0.0000001000
44
0.0000000001
40
0.0000000000
40
0.0000000000
40
0.0000000000
40
0.0000000000
40
0.4957037905
40
1.0000000000
40
1.0000000000
40
1.0000000000
40
1.0000000000
10
227.6626483833
20
148.7162750409
30
0.0000000000
10
227.7162404769
20
148.6731873556
30
0.0000000000
10
227.8250985039
20
148.5871880394
30
0.0000000000
10
227.9353486800
20
148.5029819249
30
0.0000000000
10
227.9912756693
20
148.4609559224
30
0.0000000000
11
227.6626483833
21
148.7162750409
31
0.0000000000
11
227.8245052321
21
148.5883676111
31
0.0000000000
11
227.9912756693
21
148.4609559224
31
0.0000000000
0
SPLINE
5
5E4
100
AcDbEntity
8
0
100
AcDbSpline
62
7
6
CONTINUOUS
70
0
71
3
72
9
73
5
74
3
42
0.0000001000
43
0.0000001000
44
0.0000000001
40
0.0000000000
40
0.0000000000
40
0.0000000000
40
0.0000000000
40
0.4956667705
40
1.0000000000
40
1.0000000000
40
1.0000000000
40
1.0000000000
10
228.1902551989
20
148.7162750409
30
0.0000000000
10
228.2444849046
20
148.6731801283
30
0.0000000000
10
228.3546375536
20
148.5871707775
30
0.0000000000
10
228.4661817380
20
148.5029750301
30
0.0000000000
10
228.5227650900
20
148.4609559224
30
0.0000000000
11
228.1902551989
21
148.7162750409
31
0.0000000000
11
228.3540248003
21
148.5883617502
31
0.0000000000
11
228.5227650900
21
148.4609559224
31
0.0000000000
0
SPLINE
5
5E5
100
AcDbEntity
8
0
100
AcDbSpline
62
7
6
CONTINUOUS
70
0
71
3
72
8
73
4
74
2
42
0.0000001000
43
0.0000001000
44
0.0000000001
40
0.0000000000
40
0.0000000000
40
0.0000000000
40
0.0000000000
40
1.0000000000
40
1.0000000000
40
1.0000000000
40
1.0000000000
10
226.3957336771
20
147.6949985669
30
0.0000000000
10
226.4124232771
20
147.5246267449
30
0.0000000000
10
226.4294078187
20
147.3542836857
30
0.0000000000
10
226.4466878468
20
147.1839706058
30
0.0000000000
11
226.3957336771
21
147.6949985669
31
0.0000000000
11
226.4466878468
21
147.1839706058
31
0.0000000000
0
SPLINE
5
5E6
100
AcDbEntity
8
0
100
AcDbSpline
62
7
6
CONTINUOUS
70
0
71
3
72
8
73
4
74
2
42
0.0000001000
43
0.0000001000
44
0.0000000001
40
0.0000000000
40
0.0000000000
40
0.0000000000
40
0.0000000000
40
1.0000000000
40
1.0000000000
40
1.0000000000
40
1.0000000000
10
226.4466878468
20
147.1839706058
30
0.0000000000
10
226.4552359482
20
147.0997199632
30
0.0000000000
10
226.4638563579
20
147.0154766568
30
0.0000000000
10
226.4725491440
20
146.9312408351
30
0.0000000000
11
226.4466878468
21
147.1839706058
31
0.0000000000
11
226.4725491440
21
146.9312408351
31
0.0000000000
0
SPLINE
5
5E7
100
AcDbEntity
8
0
100
AcDbSpline
62
7
6
CONTINUOUS
70
0
71
3
72
9
73
5
74
3
42
0.0000001000
43
0.0000001000
44
0.0000000001
40
0.0000000000
40
0.0000000000
40
0.0000000000
40
0.0000000000
40
0.5000877998
40
1.0000000000
40
1.0000000000
40
1.0000000000
40
1.0000000000
10
225.7624345739
20
148.4609559224
30
0.0000000000
10
225.7823759738
20
148.3331106526
30
0.0000000000
10
225.8232665201
20
148.0776222539
30
0.0000000000
10
225.8661834800
20
147.8224664348
30
0.0000000000
10
225.8881438901
20
147.6949985669
30
0.0000000000
11
225.7624345739
21
148.4609559224
31
0.0000000000
11
225.8237804818
21
148.0776605644
31
0.0000000000
11
225.8881438901
21
147.6949985669
31
0.0000000000
0
SPLINE
5
5E8
100
AcDbEntity
8
0
100
AcDbSpline
62
7
6
CONTINUOUS
70
0
71
3
72
9
73
5
74
3
42
0.0000001000
43
0.0000001000
44
0.0000000001
40
0.0000000000
40
0.0000000000
40
0.0000000000
40
0.0000000000
40
0.5000896965
40
1.0000000000
40
1.0000000000
40
1.0000000000
40
1.0000000000
10
226.2686640825
20
148.4609559224
30
0.0000000000
10
226.2888213204
20
148.3331066131
30
0.0000000000
10
226.3301543392
20
148.0776145297
30
0.0000000000
10
226.3735357213
20
147.8224622661
30
0.0000000000
10
226.3957336771
20
147.6949985669
30
0.0000000000
11
226.2686640825
21
148.4609559224
31
0.0000000000
11
226.3306740286
21
148.0776536816
31
0.0000000000
11
226.3957336771
21
147.6949985669
31
0.0000000000
0
SPLINE
5
5E9
100
AcDbEntity
8
0
100
AcDbSpline
62
7
6
CONTINUOUS
70
0
71
3
72
9
73
5
74
3
42
0.0000001000
43
0.0000001000
44
0.0000000001
40
0.0000000000
40
0.0000000000
40
0.0000000000
40
0.0000000000
40
0.5002288594
40
1.0000000000
40
1.0000000000
40
1.0000000000
40
1.0000000000
10
226.9103880159
20
117.9273050124
30
0.0000000000
10
226.9200736662
20
118.1401738290
30
0.0000000000
10
226.9395545653
20
118.5657113014
30
0.0000000000
10
226.9592727029
20
118.9912378470
30
0.0000000000
10
226.9691866218
20
119.2039009625
30
0.0000000000
11
226.9103880159
21
117.9273050124
31
0.0000000000
11
226.9396228460
21
118.5659033437
31
0.0000000000
11
226.9691866218
21
119.2039009625
31
0.0000000000
0
SPLINE
5
5EA
100
AcDbEntity
8
0
100
AcDbSpline
62
7
6
CONTINUOUS
70
0
71
3
72
9
73
5
74
3
42
0.0000001000
43
0.0000001000
44
0.0000000001
40
0.0000000000
40
0.0000000000
40
0.0000000000
40
0.0000000000
40
0.5002238690
40
1.0000000000
40
1.0000000000
40
1.0000000000
40
1.0000000000
10
226.3972136895
20
117.9273050124
30
0.0000000000
10
226.4067929891
20
118.1401715808
30
0.0000000000
10
226.4260600490
20
118.5657089274
30
0.0000000000
10
226.4455614837
20
118.9912355976
30
0.0000000000
10
226.4553664804
20
119.2039009625
30
0.0000000000
11
226.3972136895
21
117.9273050124
31
0.0000000000
11
226.4261273218
21
118.5658967851
31
0.0000000000
11
226.4553664804
21
119.2039009625
31
0.0000000000
0
SPLINE
5
5EB
100
AcDbEntity
8
0
100
AcDbSpline
62
7
6
CONTINUOUS
70
0
71
3
72
9
73
5
74
3
42
0.0000001000
43
0.0000001000
44
0.0000000001
40
0.0000000000
40
0.0000000000
40
0.0000000000
40
0.0000000000
40
0.5002071574
40
1.0000000000
40
1.0000000000
40
1.0000000000
40
1.0000000000
10
226.8530128500
20
117.1613476569
30
0.0000000000
10
226.8624615873
20
117.2890688869
30
0.0000000000
10
226.8814688651
20
117.5443968686
30
0.0000000000
10
226.9007116720
20
117.7997072078
30
0.0000000000
10
226.9103880159
20
117.9273050124
30
0.0000000000
11
226.8530128500
21
117.1613476569
31
0.0000000000
11
226.8815356712
21
117.5444982405
31
0.0000000000
11
226.9103880159
21
117.9273050124
31
0.0000000000
0
SPLINE
5
5EC
100
AcDbEntity
8
0
100
AcDbSpline
62
7
6
CONTINUOUS
70
0
71
3
72
9
73
5
74
3
42
0.0000001000
43
0.0000001000
44
0.0000000001
40
0.0000000000
40
0.0000000000
40
0.0000000000
40
0.0000000000
40
0.4964099338
40
1.0000000000
40
1.0000000000
40
1.0000000000
40
1.0000000000
10
225.6227788169
20
148.7162750409
30
0.0000000000
10
225.6446303567
20
148.6733578503
30
0.0000000000
10
225.6899578629
20
148.5875632614
30
0.0000000000
10
225.7377671200
20
148.5031278614
30
0.0000000000
10
225.7624345739
20
148.4609559224
30
0.0000000000
11
225.6227788169
21
148.7162750409
31
0.0000000000
11
225.6902439655
21
148.5885142130
31
0.0000000000
11
225.7624345739
21
148.4609559224
31
0.0000000000
0
SPLINE
5
5ED
100
AcDbEntity
8
0
100
AcDbSpline
62
7
6
CONTINUOUS
70
0
71
3
72
9
73
5
74
3
42
0.0000001000
43
0.0000001000
44
0.0000000001
40
0.0000000000
40
0.0000000000
40
0.0000000000
40
0.0000000000
40
0.5002026648
40
1.0000000000
40
1.0000000000
40
1.0000000000
40
1.0000000000
10
226.3404671496
20
117.1613476569
30
0.0000000000
10
226.3498123903
20
117.2890675402
30
0.0000000000
10
226.3686115295
20
117.5443953203
30
0.0000000000
10
226.3876433917
20
117.7997058591
30
0.0000000000
10
226.3972136895
20
117.9273050124
30
0.0000000000
11
226.3404671496
21
117.1613476569
31
0.0000000000
11
226.3686773773
21
117.5444944984
31
0.0000000000
11
226.3972136895
21
117.9273050124
31
0.0000000000
0
SPLINE
5
5EE
100
AcDbEntity
8
0
100
AcDbSpline
62
7
6
CONTINUOUS
70
0
71
3
72
9
73
5
74
3
42
0.0000001000
43
0.0000001000
44
0.0000000001
40
0.0000000000
40
0.0000000000
40
0.0000000000
40
0.0000000000
40
0.4963506129
40
1.0000000000
40
1.0000000000
40
1.0000000000
40
1.0000000000
10
226.1275057044
20
148.7162750409
30
0.0000000000
10
226.1495949976
20
148.6733513521
30
0.0000000000
10
226.1954160669
20
148.5875451773
30
0.0000000000
10
226.2437342693
20
148.5031213603
30
0.0000000000
10
226.2686640825
20
148.4609559224
30
0.0000000000
11
226.1275057044
21
148.7162750409
31
0.0000000000
11
226.1956968328
21
148.5885120203
31
0.0000000000
11
226.2686640825
21
148.4609559224
31
0.0000000000
0
SPLINE
5
5EF
100
AcDbEntity
8
0
100
AcDbSpline
62
7
6
CONTINUOUS
70
0
71
3
72
9
73
5
74
3
42
0.0000001000
43
0.0000001000
44
0.0000000001
40
0.0000000000
40
0.0000000000
40
0.0000000000
40
0.0000000000
40
0.5003423469
40
1.0000000000
40
1.0000000000
40
1.0000000000
40
1.0000000000
10
226.7425131877
20
116.1400710041
30
0.0000000000
10
226.7604767832
20
116.3104502201
30
0.0000000000
10
226.7968442930
20
116.6509266422
30
0.0000000000
10
226.8341431320
20
116.9913022987
30
0.0000000000
10
226.8530128500
20
117.1613476569
30
0.0000000000
11
226.7425131877
21
116.1400710041
31
0.0000000000
11
226.7971023449
21
116.6511345384
31
0.0000000000
11
226.8530128500
21
117.1613476569
31
0.0000000000
0
SPLINE
5
5F0
100
AcDbEntity
8
0
100
AcDbSpline
62
7
6
CONTINUOUS
70
0
71
3
72
9
73
5
74
3
42
0.0000001000
43
0.0000001000
44
0.0000000001
40
0.0000000000
40
0.0000000000
40
0.0000000000
40
0.0000000000
40
0.5003349854
40
1.0000000000
40
1.0000000000
40
1.0000000000
40
1.0000000000
10
226.2311738619
20
116.1400710041
30
0.0000000000
10
226.2489414217
20
116.3104465940
30
0.0000000000
10
226.2849122419
20
116.6509218731
30
0.0000000000
10
226.3218035237
20
116.9912986495
30
0.0000000000
10
226.3404671496
20
117.1613476569
30
0.0000000000
11
226.2311738619
21
116.1400710041
31
0.0000000000
11
226.2851667651
21
116.6511253229
31
0.0000000000
11
226.3404671496
21
117.1613476569
31
0.0000000000
0
SPLINE
5
5F1
100
AcDbEntity
8
0
100
AcDbSpline
62
7
6
CONTINUOUS
70
0
71
3
72
9
73
5
74
3
42
0.0000001000
43
0.0000001000
44
0.0000000001
40
0.0000000000
40
0.0000000000
40
0.0000000000
40
0.0000000000
40
0.5001195175
40
1.0000000000
40
1.0000000000
40
1.0000000000
40
1.0000000000
10
226.5873147607
20
115.3741135592
30
0.0000000000
10
226.6121770996
20
115.5020052287
30
0.0000000000
10
226.6629012008
20
115.7575318797
30
0.0000000000
10
226.7156442799
20
116.0126494414
30
0.0000000000
10
226.7425131877
20
116.1400710041
30
0.0000000000
11
226.5873147607
21
115.3741135592
31
0.0000000000
11
226.6634183114
21
115.7574906383
31
0.0000000000
11
226.7425131877
21
116.1400710041
31
0.0000000000
0
SPLINE
5
5F2
100
AcDbEntity
8
0
100
AcDbSpline
62
7
6
CONTINUOUS
70
0
71
3
72
9
73
5
74
3
42
0.0000001000
43
0.0000001000
44
0.0000000001
40
0.0000000000
40
0.0000000000
40
0.0000000000
40
0.0000000000
40
0.5001169783
40
1.0000000000
40
1.0000000000
40
1.0000000000
40
1.0000000000
10
226.0776603001
20
115.3741135592
30
0.0000000000
10
226.1022526498
20
115.5020002199
30
0.0000000000
10
226.1524260983
20
115.7575223835
30
0.0000000000
10
226.2045965362
20
116.0126443059
30
0.0000000000
10
226.2311738619
20
116.1400710041
30
0.0000000000
11
226.0776603001
21
115.3741135592
31
0.0000000000
11
226.1529373177
21
115.7574820575
31
0.0000000000
11
226.2311738619
21
116.1400710041
31
0.0000000000
0
SPLINE
5
5F3
100
AcDbEntity
8
0
100
AcDbSpline
62
7
6
CONTINUOUS
70
0
71
3
72
9
73
5
74
3
42
0.0000001000
43
0.0000001000
44
0.0000000001
40
0.0000000000
40
0.0000000000
40
0.0000000000
40
0.0000000000
40
0.5003413214
40
1.0000000000
40
1.0000000000
40
1.0000000000
40
1.0000000000
10
228.5440248064
20
116.9060285384
30
0.0000000000
10
228.5592066609
20
116.7782661922
30
0.0000000000
10
228.5896800952
20
116.5229312958
30
0.0000000000
10
228.6204149001
20
116.2676277287
30
0.0000000000
10
228.6358372349
20
116.1400710041
30
0.0000000000
11
228.5440248064
21
116.9060285384
31
0.0000000000
11
228.5897663295
21
116.5227648363
31
0.0000000000
11
228.6358372349
21
116.1400710041
31
0.0000000000
0
SPLINE
5
5F4
100
AcDbEntity
8
0
100
AcDbSpline
62
7
6
CONTINUOUS
70
0
71
3
72
9
73
5
74
3
42
0.0000001000
43
0.0000001000
44
0.0000000001
40
0.0000000000
40
0.0000000000
40
0.0000000000
40
0.0000000000
40
0.4992601488
40
1.0000000000
40
1.0000000000
40
1.0000000000
40
1.0000000000
10
226.3564826217
20
114.6081561366
30
0.0000000000
10
226.3922429707
20
114.7364042879
30
0.0000000000
10
226.4665560209
20
114.9925390088
30
0.0000000000
10
226.5461555111
20
115.2470799520
30
0.0000000000
10
226.5873147607
20
115.3741135592
30
0.0000000000
11
226.3564826217
21
114.6081561366
31
0.0000000000
11
226.4677637614
21
114.9917627395
31
0.0000000000
11
226.5873147607
21
115.3741135592
31
0.0000000000
0
SPLINE
5
5F5
100
AcDbEntity
8
0
100
AcDbSpline
62
7
6
CONTINUOUS
70
0
71
3
72
9
73
5
74
3
42
0.0000001000
43
0.0000001000
44
0.0000000001
40
0.0000000000
40
0.0000000000
40
0.0000000000
40
0.0000000000
40
0.4992744045
40
1.0000000000
40
1.0000000000
40
1.0000000000
40
1.0000000000
10
225.8493137922
20
114.6081561366
30
0.0000000000
10
225.8846875592
20
114.7363920428
30
0.0000000000
10
225.9581973475
20
114.9925102050
30
0.0000000000
10
226.0369422873
20
115.2470670602
30
0.0000000000
10
226.0776603001
20
115.3741135592
30
0.0000000000
11
225.8493137922
21
114.6081561366
31
0.0000000000
11
225.9593956628
21
114.9917493339
31
0.0000000000
11
226.0776603001
21
115.3741135592
31
0.0000000000
0
SPLINE
5
5F6
100
AcDbEntity
8
0
100
AcDbSpline
62
7
6
CONTINUOUS
70
0
71
3
72
9
73
5
74
3
42
0.0000001000
43
0.0000001000
44
0.0000000001
40
0.0000000000
40
0.0000000000
40
0.0000000000
40
0.0000000000
40
0.4886863948
40
1.0000000000
40
1.0000000000
40
1.0000000000
40
1.0000000000
10
226.1247906476
20
114.3528369958
30
0.0000000000
10
226.1601942300
20
114.3964599234
30
0.0000000000
10
226.2352806413
20
114.4836054560
30
0.0000000000
10
226.3148377887
20
114.5666694913
30
0.0000000000
10
226.3564826217
20
114.6081561366
30
0.0000000000
11
226.1247906476
21
114.3528369958
31
0.0000000000
11
226.2346493214
21
114.4806588754
31
0.0000000000
11
226.3564826217
21
114.6081561366
31
0.0000000000
0
SPLINE
5
5F7
100
AcDbEntity
8
0
100
AcDbSpline
62
7
6
CONTINUOUS
70
0
71
3
72
9
73
5
74
3
42
0.0000001000
43
0.0000001000
44
0.0000000001
40
0.0000000000
40
0.0000000000
40
0.0000000000
40
0.0000000000
40
0.5003334198
40
1.0000000000
40
1.0000000000
40
1.0000000000
40
1.0000000000
10
228.0122852101
20
116.9060285384
30
0.0000000000
10
228.0272880430
20
116.7782686131
30
0.0000000000
10
228.0574023019
20
116.5229341232
30
0.0000000000
10
228.0877742138
20
116.2676301527
30
0.0000000000
10
228.1030145336
20
116.1400710041
30
0.0000000000
11
228.0122852101
21
116.9060285384
31
0.0000000000
11
228.0574868824
21
116.5227714961
31
0.0000000000
11
228.1030145336
21
116.1400710041
31
0.0000000000
0
SPLINE
5
5F8
100
AcDbEntity
8
0
100
AcDbSpline
62
7
6
CONTINUOUS
70
0
71
3
72
9
73
5
74
3
42
0.0000001000
43
0.0000001000
44
0.0000000001
40
0.0000000000
40
0.0000000000
40
0.0000000000
40
0.0000000000
40
0.4888190527
40
1.0000000000
40
1.0000000000
40
1.0000000000
40
1.0000000000
10
225.6200925747
20
114.3528369958
30
0.0000000000
10
225.6551087664
20
114.3964453807
30
0.0000000000
10
225.7293736277
20
114.4835669953
30
0.0000000000
10
225.8081026739
20
114.5666568565
30
0.0000000000
10
225.8493137922
20
114.6081561366
30
0.0000000000
11
225.6200925747
21
114.3528369958
31
0.0000000000
11
225.7287796152
21
114.4806554274
31
0.0000000000
11
225.8493137922
21
114.6081561366
31
0.0000000000
0
SPLINE
5
5F9
100
AcDbEntity
8
0
100
AcDbSpline
62
7
6
CONTINUOUS
70
0
71
3
72
9
73
5
74
3
42
0.0000001000
43
0.0000001000
44
0.0000000001
40
0.0000000000
40
0.0000000000
40
0.0000000000
40
0.0000000000
40
0.4995768710
40
1.0000000000
40
1.0000000000
40
1.0000000000
40
1.0000000000
10
228.6358372349
20
116.1400710041
30
0.0000000000
10
228.6823808245
20
116.0545251765
30
0.0000000000
10
228.7764813231
20
115.8837954196
30
0.0000000000
10
228.8724242032
20
115.7140942493
30
0.0000000000
10
228.9208905541
20
115.6294327671
30
0.0000000000
11
228.6358372349
21
116.1400710041
31
0.0000000000
11
228.7768615059
21
115.8841966126
31
0.0000000000
11
228.9208905541
21
115.6294327671
31
0.0000000000
0
SPLINE
5
5FA
100
AcDbEntity
8
0
100
AcDbSpline
62
7
6
CONTINUOUS
70
0
71
3
72
9
73
5
74
3
42
0.0000001000
43
0.0000001000
44
0.0000000001
40
0.0000000000
40
0.0000000000
40
0.0000000000
40
0.0000000000
40
0.4995835103
40
1.0000000000
40
1.0000000000
40
1.0000000000
40
1.0000000000
10
228.1030145336
20
116.1400710041
30
0.0000000000
10
228.1490027399
20
116.0545348481
30
0.0000000000
10
228.2419813766
20
115.8838159532
30
0.0000000000
10
228.3367853025
20
115.7141039778
30
0.0000000000
10
228.3846769726
20
115.6294327671
30
0.0000000000
11
228.1030145336
21
116.1400710041
31
0.0000000000
11
228.2423594897
21
115.8842094692
31
0.0000000000
11
228.3846769726
21
115.6294327671
31
0.0000000000
0
SPLINE
5
5FB
100
AcDbEntity
8
0
100
AcDbSpline
62
7
6
CONTINUOUS
70
0
71
3
72
9
73
5
74
3
42
0.0000001000
43
0.0000001000
44
0.0000000001
40
0.0000000000
40
0.0000000000
40
0.0000000000
40
0.0000000000
40
0.4964099344
40
1.0000000000
40
1.0000000000
40
1.0000000000
40
1.0000000000
10
225.6227788169
20
136.7162750409
30
0.0000000000
10
225.6446303567
20
136.7591922353
30
0.0000000000
10
225.6899578629
20
136.8449868315
30
0.0000000000
10
225.7377671200
20
136.9294222391
30
0.0000000000
10
225.7624345739
20
136.9715941818
30
0.0000000000
11
225.6227788169
21
136.7162750409
31
0.0000000000
11
225.6902439655
21
136.8440358800
31
0.0000000000
11
225.7624345739
21
136.9715941818
31
0.0000000000
0
SPLINE
5
5FC
100
AcDbEntity
8
0
100
AcDbSpline
62
7
6
CONTINUOUS
70
0
71
3
72
9
73
5
74
3
42
0.0000001000
43
0.0000001000
44
0.0000000001
40
0.0000000000
40
0.0000000000
40
0.0000000000
40
0.0000000000
40
0.4963506134
40
1.0000000000
40
1.0000000000
40
1.0000000000
40
1.0000000000
10
226.1275057044
20
136.7162750409
30
0.0000000000
10
226.1495949975
20
136.7591987335
30
0.0000000000
10
226.1954160668
20
136.8450049156
30
0.0000000000
10
226.2437342693
20
136.9294287401
30
0.0000000000
10
226.2686640825
20
136.9715941818
30
0.0000000000
11
226.1275057044
21
136.7162750409
31
0.0000000000
11
226.1956968328
21
136.8440380727
31
0.0000000000
11
226.2686640825
21
136.9715941818
31
0.0000000000
0
SPLINE
5
5FD
100
AcDbEntity
8
0
100
AcDbSpline
62
7
6
CONTINUOUS
70
0
71
3
72
9
73
5
74
3
42
0.0000001000
43
0.0000001000
44
0.0000000001
40
0.0000000000
40
0.0000000000
40
0.0000000000
40
0.0000000000
40
0.4957037909
40
1.0000000000
40
1.0000000000
40
1.0000000000
40
1.0000000000
10
227.6626483833
20
136.7162750409
30
0.0000000000
10
227.7162404768
20
136.7593627300
30
0.0000000000
10
227.8250985038
20
136.8453620536
30
0.0000000000
10
227.9353486799
20
136.9295681756
30
0.0000000000
10
227.9912756693
20
136.9715941818
30
0.0000000000
11
227.6626483833
21
136.7162750409
31
0.0000000000
11
227.8245052321
21
136.8441824819
31
0.0000000000
11
227.9912756693
21
136.9715941818
31
0.0000000000
0
SPLINE
5
5FE
100
AcDbEntity
8
0
100
AcDbSpline
62
7
6
CONTINUOUS
70
0
71
3
72
9
73
5
74
3
42
0.0000001000
43
0.0000001000
44
0.0000000001
40
0.0000000000
40
0.0000000000
40
0.0000000000
40
0.0000000000
40
0.4956667709
40
1.0000000000
40
1.0000000000
40
1.0000000000
40
1.0000000000
10
228.1902551989
20
136.7162750409
30
0.0000000000
10
228.2444849046
20
136.7593699573
30
0.0000000000
10
228.3546375535
20
136.8453793155
30
0.0000000000
10
228.4661817379
20
136.9295750703
30
0.0000000000
10
228.5227650900
20
136.9715941818
30
0.0000000000
11
228.1902551989
21
136.7162750409
31
0.0000000000
11
228.3540248003
21
136.8441883428
31
0.0000000000
11
228.5227650900
21
136.9715941818
31
0.0000000000
0
SPLINE
5
5FF
100
AcDbEntity
8
0
100
AcDbSpline
62
7
6
CONTINUOUS
70
0
71
3
72
9
73
5
74
3
42
0.0000001000
43
0.0000001000
44
0.0000000001
40
0.0000000000
40
0.0000000000
40
0.0000000000
40
0.0000000000
40
0.5000877999
40
1.0000000000
40
1.0000000000
40
1.0000000000
40
1.0000000000
10
225.7624345739
20
136.9715941818
30
0.0000000000
10
225.7823759738
20
137.0994394627
30
0.0000000000
10
225.8232665201
20
137.3549278837
30
0.0000000000
10
225.8661834800
20
137.6100837252
30
0.0000000000
10
225.8881438901
20
137.7375516043
30
0.0000000000
11
225.7624345739
21
136.9715941818
31
0.0000000000
11
225.8237804818
21
137.3548895733
31
0.0000000000
11
225.8881438901
21
137.7375516043
31
0.0000000000
0
SPLINE
5
600
100
AcDbEntity
8
0
100
AcDbSpline
62
7
6
CONTINUOUS
70
0
71
3
72
9
73
5
74
3
42
0.0000001000
43
0.0000001000
44
0.0000000001
40
0.0000000000
40
0.0000000000
40
0.0000000000
40
0.0000000000
40
0.4995523453
40
1.0000000000
40
1.0000000000
40
1.0000000000
40
1.0000000000
10
227.9912756693
20
136.9715941818
30
0.0000000000
10
228.0368070657
20
137.0571300803
30
0.0000000000
10
228.1288955331
20
137.2278542765
30
0.0000000000
10
228.2228452830
20
137.3975612318
30
0.0000000000
10
228.2703212038
20
137.4822324858
30
0.0000000000
11
227.9912756693
21
136.9715941818
31
0.0000000000
11
228.1292775732
21
137.2274475705
31
0.0000000000
11
228.2703212038
21
137.4822324858
31
0.0000000000
0
SPLINE
5
601
100
AcDbEntity
8
0
100
AcDbSpline
62
7
6
CONTINUOUS
70
0
71
3
72
9
73
5
74
3
42
0.0000001000
43
0.0000001000
44
0.0000000001
40
0.0000000000
40
0.0000000000
40
0.0000000000
40
0.0000000000
40
0.4995451025
40
1.0000000000
40
1.0000000000
40
1.0000000000
40
1.0000000000
10
228.5227650900
20
136.9715941818
30
0.0000000000
10
228.5688435803
20
137.0571396891
30
0.0000000000
10
228.6620375972
20
137.2278747897
30
0.0000000000
10
228.7571101874
20
137.3975708998
30
0.0000000000
10
228.8051528560
20
137.4822324858
30
0.0000000000
11
228.5227650900
21
136.9715941818
31
0.0000000000
11
228.6624215989
21
137.2274601806
31
0.0000000000
11
228.8051528560
21
137.4822324858
31
0.0000000000
0
SPLINE
5
602
100
AcDbEntity
8
0
100
AcDbSpline
62
7
6
CONTINUOUS
70
0
71
3
72
9
73
5
74
3
42
0.0000001000
43
0.0000001000
44
0.0000000001
40
0.0000000000
40
0.0000000000
40
0.0000000000
40
0.0000000000
40
0.5005882397
40
1.0000000000
40
1.0000000000
40
1.0000000000
40
1.0000000000
10
228.2703212038
20
137.4822324858
30
0.0000000000
10
228.3181881629
20
137.6529697861
30
0.0000000000
10
228.4149465388
20
137.9937254028
30
0.0000000000
10
228.5139804920
20
138.3338266516
30
0.0000000000
10
228.5640078574
20
138.5035090492
30
0.0000000000
11
228.2703212038
21
137.4822324858
31
0.0000000000
11
228.4156306067
21
137.9939623176
31
0.0000000000
11
228.5640078574
21
138.5035090492
31
0.0000000000
0
SPLINE
5
603
100
AcDbEntity
8
0
100
AcDbSpline
62
7
6
CONTINUOUS
70
0
71
3
72
9
73
5
74
3
42
0.0000001000
43
0.0000001000
44
0.0000000001
40
0.0000000000
40
0.0000000000
40
0.0000000000
40
0.0000000000
40
0.5006016642
40
1.0000000000
40
1.0000000000
40
1.0000000000
40
1.0000000000
10
228.8051528560
20
137.4822324858
30
0.0000000000
10
228.8536004280
20
137.6529827055
30
0.0000000000
10
228.9515313679
20
137.9937468311
30
0.0000000000
10
229.0517685252
20
138.3338397312
30
0.0000000000
10
229.1024030856
20
138.5035090492
30
0.0000000000
11
228.8051528560
21
137.4822324858
31
0.0000000000
11
228.9522271537
21
137.9939886718
31
0.0000000000
11
229.1024030856
21
138.5035090492
31
0.0000000000
0
SPLINE
5
604
100
AcDbEntity
8
0
100
AcDbSpline
62
7
6
CONTINUOUS
70
0
71
3
72
9
73
5
74
3
42
0.0000001000
43
0.0000001000
44
0.0000000001
40
0.0000000000
40
0.0000000000
40
0.0000000000
40
0.0000000000
40
0.5003060009
40
1.0000000000
40
1.0000000000
40
1.0000000000
40
1.0000000000
10
228.5640078574
20
138.5035090492
30
0.0000000000
10
228.5765619991
20
138.6738317313
30
0.0000000000
10
228.6017323216
20
139.0142630470
30
0.0000000000
10
228.6270577137
20
139.3546828620
30
0.0000000000
10
228.6397514738
20
139.5247857020
30
0.0000000000
11
228.5640078574
21
138.5035090492
31
0.0000000000
11
228.6017865407
21
139.0144685129
31
0.0000000000
11
228.6397514738
21
139.5247857020
31
0.0000000000
0
SPLINE
5
605
100
AcDbEntity
8
0
100
AcDbSpline
62
7
6
CONTINUOUS
70
0
71
3
72
9
73
5
74
3
42
0.0000001000
43
0.0000001000
44
0.0000000001
40
0.0000000000
40
0.0000000000
40
0.0000000000
40
0.0000000000
40
0.5003134949
40
1.0000000000
40
1.0000000000
40
1.0000000000
40
1.0000000000
10
229.1024030856
20
138.5035090492
30
0.0000000000
10
229.1151107819
20
138.6738344427
30
0.0000000000
10
229.1405888439
20
139.0142659196
30
0.0000000000
10
229.1662243834
20
139.3546855743
30
0.0000000000
10
229.1790735340
20
139.5247857020
30
0.0000000000
11
229.1024030856
21
138.5035090492
31
0.0000000000
11
229.1406442371
21
139.0144764074
31
0.0000000000
11
229.1790735340
21
139.5247857020
31
0.0000000000
0
SPLINE
5
606
100
AcDbEntity
8
0
100
AcDbSpline
62
7
6
CONTINUOUS
70
0
71
3
72
9
73
5
74
3
42
0.0000001000
43
0.0000001000
44
0.0000000001
40
0.0000000000
40
0.0000000000
40
0.0000000000
40
0.0000000000
40
0.5000896965
40
1.0000000000
40
1.0000000000
40
1.0000000000
40
1.0000000000
10
226.2686640825
20
136.9715941818
30
0.0000000000
10
226.2888213204
20
137.0994435023
30
0.0000000000
10
226.3301543392
20
137.3549356080
30
0.0000000000
10
226.3735357213
20
137.6100878939
30
0.0000000000
10
226.3957336771
20
137.7375516043
30
0.0000000000
11
226.2686640825
21
136.9715941818
31
0.0000000000
11
226.3306740286
21
137.3548964561
31
0.0000000000
11
226.3957336771
21
137.7375516043
31
0.0000000000
0
SPLINE
5
607
100
AcDbEntity
8
0
100
AcDbSpline
62
7
6
CONTINUOUS
70
0
71
3
72
9
73
5
74
3
42
0.0000001000
43
0.0000001000
44
0.0000000001
40
0.0000000000
40
0.0000000000
40
0.0000000000
40
0.0000000000
40
0.5002874080
40
1.0000000000
40
1.0000000000
40
1.0000000000
40
1.0000000000
10
225.8881438901
20
137.7375516043
30
0.0000000000
10
225.9046540199
20
137.9079200281
30
0.0000000000
10
225.9382382471
20
138.2484048887
30
0.0000000000
10
225.9729897867
20
138.5887725908
30
0.0000000000
10
225.9906476048
20
138.7588281677
30
0.0000000000
11
225.8881438901
21
137.7375516043
31
0.0000000000
11
225.9385497155
21
138.2485712815
31
0.0000000000
11
225.9906476048
21
138.7588281677
31
0.0000000000
0
SPLINE
5
608
100
AcDbEntity
8
0
100
AcDbSpline
62
7
6
CONTINUOUS
70
0
71
3
72
8
73
4
74
2
42
0.0000001000
43
0.0000001000
44
0.0000000001
40
0.0000000000
40
0.0000000000
40
0.0000000000
40
0.0000000000
40
1.0000000000
40
1.0000000000
40
1.0000000000
40
1.0000000000
10
226.3957336771
20
137.7375516043
30
0.0000000000
10
226.4124232771
20
137.9079234413
30
0.0000000000
10
226.4294078187
20
138.0782665154
30
0.0000000000
10
226.4466878468
20
138.2485796102
30
0.0000000000
11
226.3957336771
21
137.7375516043
31
0.0000000000
11
226.4466878468
21
138.2485796102
31
0.0000000000
0
SPLINE
5
609
100
AcDbEntity
8
0
100
AcDbSpline
62
7
6
CONTINUOUS
70
0
71
3
72
8
73
4
74
2
42
0.0000001000
43
0.0000001000
44
0.0000000001
40
0.0000000000
40
0.0000000000
40
0.0000000000
40
0.0000000000
40
1.0000000000
40
1.0000000000
40
1.0000000000
40
1.0000000000
10
226.4466878468
20
138.2485796102
30
0.0000000000
10
226.4553202396
20
138.3336610413
30
0.0000000000
10
226.4640263736
20
138.4187349909
30
0.0000000000
10
226.4728063193
20
138.5038013058
30
0.0000000000
11
226.4466878468
21
138.2485796102
31
0.0000000000
11
226.4728063193
21
138.5038013058
31
0.0000000000
0
SPLINE
5
60A
100
AcDbEntity
8
0
100
AcDbSpline
62
7
6
CONTINUOUS
70
0
71
3
72
9
73
5
74
3
42
0.0000001000
43
0.0000001000
44
0.0000000001
40
0.0000000000
40
0.0000000000
40
0.0000000000
40
0.0000000000
40
0.5001332021
40
1.0000000000
40
1.0000000000
40
1.0000000000
40
1.0000000000
10
225.9906476048
20
138.7588281677
30
0.0000000000
10
225.9965406724
20
138.8865248165
30
0.0000000000
10
226.0083892704
20
139.1418470711
30
0.0000000000
10
226.0203691724
20
139.3971631986
30
0.0000000000
10
226.0263903705
20
139.5247857020
30
0.0000000000
11
225.9906476048
21
138.7588281677
31
0.0000000000
11
226.0084252704
21
139.1419135574
31
0.0000000000
11
226.0263903705
21
139.5247857020
31
0.0000000000
0
SPLINE
5
60B
100
AcDbEntity
8
0
100
AcDbSpline
62
7
6
CONTINUOUS
70
0
71
3
72
9
73
5
74
3
42
0.0000001000
43
0.0000001000
44
0.0000000001
40
0.0000000000
40
0.0000000000
40
0.0000000000
40
0.0000000000
40
0.5001332021
40
1.0000000000
40
1.0000000000
40
1.0000000000
40
1.0000000000
10
225.9906476048
20
141.5673390077
30
0.0000000000
10
225.9965406724
20
141.4396423291
30
0.0000000000
10
226.0083892704
20
141.1843200148
30
0.0000000000
10
226.0203691724
20
140.9290038278
30
0.0000000000
10
226.0263903705
20
140.8013812945
30
0.0000000000
11
225.9906476048
21
141.5673390077
31
0.0000000000
11
226.0084252704
21
141.1842535285
31
0.0000000000
11
226.0263903705
21
140.8013812945
31
0.0000000000
0
SPLINE
5
60C
100
AcDbEntity
8
0
100
AcDbSpline
62
7
6
CONTINUOUS
70
0
71
3
72
9
73
5
74
3
42
0.0000001000
43
0.0000001000
44
0.0000000001
40
0.0000000000
40
0.0000000000
40
0.0000000000
40
0.0000000000
40
0.5002874080
40
1.0000000000
40
1.0000000000
40
1.0000000000
40
1.0000000000
10
225.8881438901
20
142.5886154817
30
0.0000000000
10
225.9046540199
20
142.4182470728
30
0.0000000000
10
225.9382382471
20
142.0777622419
30
0.0000000000
10
225.9729897867
20
141.7373945696
30
0.0000000000
10
225.9906476048
20
141.5673390077
30
0.0000000000
11
225.8881438901
21
142.5886154817
31
0.0000000000
11
225.9385497155
21
142.0775958492
31
0.0000000000
11
225.9906476048
21
141.5673390077
31
0.0000000000
0
SPLINE
5
60D
100
AcDbEntity
8
0
100
AcDbSpline
62
7
6
CONTINUOUS
70
0
71
3
72
9
73
5
74
3
42
0.0000001000
43
0.0000001000
44
0.0000000001
40
0.0000000000
40
0.0000000000
40
0.0000000000
40
0.0000000000
40
0.4998711861
40
1.0000000000
40
1.0000000000
40
1.0000000000
40
1.0000000000
10
225.8237285087
20
142.8439346002
30
0.0000000000
10
225.8342163374
20
142.8013310523
30
0.0000000000
10
225.8554433429
20
142.7161623563
30
0.0000000000
10
225.8771604442
20
142.6311173119
30
0.0000000000
10
225.8881438901
20
142.5886154817
30
0.0000000000
11
225.8237285087
21
142.8439346002
31
0.0000000000
11
225.8555603351
21
142.7162151951
31
0.0000000000
11
225.8881438901
21
142.5886154817
31
0.0000000000
0
SPLINE
5
60E
100
AcDbEntity
8
0
100
AcDbSpline
62
7
6
CONTINUOUS
70
0
71
3
72
13
73
9
74
7
42
0.0000001000
43
0.0000001000
44
0.0000000001
40
0.0000000000
40
0.0000000000
40
0.0000000000
40
0.0000000000
40
0.1794451882
40
0.3502945463
40
0.5159542142
40
0.6785854440
40
0.8396232375
40
1.0000000000
40
1.0000000000
40
1.0000000000
40
1.0000000000
10
277.6779521376
20
199.6339736845
30
0.0000000000
10
278.7634426582
20
199.9958038580
30
0.0000000000
10
280.8965478647
20
200.6608990437
30
0.0000000000
10
284.0792735037
20
201.4984696754
30
0.0000000000
10
287.1951058251
20
202.1545108128
30
0.0000000000
10
290.2805928650
20
202.6296018795
30
0.0000000000
10
293.3553028583
20
202.9185519049
30
0.0000000000
10
295.4053318496
20
202.9833385899
30
0.0000000000
10
296.4279521396
20
202.9833385899
30
0.0000000000
11
277.6779521376
21
199.6339736845
31
0.0000000000
11
280.9561684439
21
200.6519101030
31
0.0000000000
11
284.1176863981
21
201.4800909520
31
0.0000000000
11
287.2192897222
21
202.1297818431
31
0.0000000000
11
290.2944446154
21
202.6005907847
31
0.0000000000
11
293.3616028530
21
202.8870454423
31
0.0000000000
11
296.4279521396
21
202.9833385899
31
0.0000000000
0
SPLINE
5
60F
100
AcDbEntity
8
0
100
AcDbSpline
62
7
6
CONTINUOUS
70
0
71
3
72
13
73
9
74
7
42
0.0000001000
43
0.0000001000
44
0.0000000001
40
0.0000000000
40
0.0000000000
40
0.0000000000
40
0.0000000000
40
0.1604035519
40
0.3214609100
40
0.4840957703
40
0.6497396092
40
0.8205535849
40
1.0000000000
40
1.0000000000
40
1.0000000000
40
1.0000000000
10
296.4279521396
20
202.9833385899
30
0.0000000000
10
297.4507432433
20
202.9833385899
30
0.0000000000
10
299.5010680730
20
202.9185316496
30
0.0000000000
10
302.5760919173
20
202.6295089086
30
0.0000000000
10
305.6616173228
20
202.1543584764
30
0.0000000000
10
308.7771436377
20
201.4983390870
30
0.0000000000
10
311.9595568355
20
200.6608363984
30
0.0000000000
10
314.0924542011
20
199.9958063300
30
0.0000000000
10
315.1779521376
20
199.6339736845
30
0.0000000000
11
296.4279521396
21
202.9833385899
31
0.0000000000
11
299.4948131128
21
202.8870133734
31
0.0000000000
11
302.5623400362
21
202.6004818556
31
0.0000000000
11
305.6375556425
21
202.1296106831
31
0.0000000000
11
308.7388539495
21
201.4799406456
31
0.0000000000
11
311.8997132832
21
200.6519165682
31
0.0000000000
11
315.1779521376
21
199.6339736845
31
0.0000000000
0
SPLINE
5
610
100
AcDbEntity
8
0
100
AcDbSpline
62
7
6
CONTINUOUS
70
0
71
3
72
13
73
9
74
7
42
0.0000001000
43
0.0000001000
44
0.0000000001
40
0.0000000000
40
0.0000000000
40
0.0000000000
40
0.0000000000
40
0.1794451742
40
0.3502945190
40
0.5159541740
40
0.6785853910
40
0.8396231720
40
1.0000000000
40
1.0000000000
40
1.0000000000
40
1.0000000000
10
240.1779521376
20
199.6339736845
30
0.0000000000
10
241.2634426583
20
199.9958038581
30
0.0000000000
10
243.3965478652
20
200.6608990438
30
0.0000000000
10
246.5792735048
20
201.4984696758
30
0.0000000000
10
249.6951058266
20
202.1545108125
30
0.0000000000
10
252.7805928669
20
202.6296018817
30
0.0000000000
10
255.8553033570
20
202.9185519445
30
0.0000000000
10
257.9053328469
20
202.9833386369
30
0.0000000000
10
258.9279536346
20
202.9833386368
30
0.0000000000
11
240.1779521376
21
199.6339736845
31
0.0000000000
11
243.4561684445
21
200.6519101031
31
0.0000000000
11
246.6176863991
21
201.4800909523
31
0.0000000000
11
249.7192897238
21
202.1297818434
31
0.0000000000
11
252.7944446175
21
202.6005907849
31
0.0000000000
11
255.8616028555
21
202.8870454425
31
0.0000000000
11
258.9279536346
21
202.9833386368
31
0.0000000000
0
SPLINE
5
611
100
AcDbEntity
8
0
100
AcDbSpline
62
7
6
CONTINUOUS
70
0
71
3
72
13
73
9
74
7
42
0.0000001000
43
0.0000001000
44
0.0000000001
40
0.0000000000
40
0.0000000000
40
0.0000000000
40
0.0000000000
40
0.1604035516
40
0.3214609095
40
0.4840957700
40
0.6497396092
40
0.8205535851
40
1.0000000000
40
1.0000000000
40
1.0000000000
40
1.0000000000
10
258.9279536346
20
202.9833386368
30
0.0000000000
10
259.9507446564
20
202.9833386367
30
0.0000000000
10
262.0010693188
20
202.9185315294
30
0.0000000000
10
265.0760929151
20
202.6295087893
30
0.0000000000
10
268.1616180737
20
202.1543583317
30
0.0000000000
10
271.2771441423
20
201.4983389634
30
0.0000000000
10
274.4595570890
20
200.6608363209
30
0.0000000000
10
276.5924542869
20
199.9958063014
30
0.0000000000
10
277.6779521376
20
199.6339736845
30
0.0000000000
11
258.9279536346
21
202.9833386368
31
0.0000000000
11
261.9948143581
21
202.8870132953
31
0.0000000000
11
265.0623410329
21
202.6004817323
31
0.0000000000
11
268.1375563943
21
202.1296105464
31
0.0000000000
11
271.2388544585
21
201.4799405253
31
0.0000000000
11
274.3997135441
21
200.6519164933
31
0.0000000000
11
277.6779521376
21
199.6339736845
31
0.0000000000
0
SPLINE
5
612
100
AcDbEntity
8
0
100
AcDbSpline
62
7
6
CONTINUOUS
70
0
71
3
72
24
73
20
74
18
42
0.0000001000
43
0.0000001000
44
0.0000000001
40
0.0000000000
40
0.0000000000
40
0.0000000000
40
0.0000000000
40
0.0662213464
40
0.1324799892
40
0.1926485637
40
0.2471605878
40
0.2966453094
40
0.3421043974
40
0.3851727812
40
0.4279228492
40
0.4733309242
40
0.5241745221
40
0.5822279632
40
0.6468715029
40
0.7166778637
40
0.7898831667
40
0.8646644525
40
0.9402819146
40
1.0000000000
40
1.0000000000
40
1.0000000000
40
1.0000000000
10
165.9456239387
20
-130.8997254100
30
0.0000000000
10
166.6267659394
20
-130.8569832122
30
0.0000000000
10
167.9888765466
20
-130.7622172845
30
0.0000000000
10
169.9671324178
20
-130.5922128127
30
0.0000000000
10
171.8217137002
20
-130.3962664082
30
0.0000000000
10
173.4998851568
20
-130.1798421894
30
0.0000000000
10
175.0217164123
20
-129.9405144181
30
0.0000000000
10
176.4187735565
20
-129.6716397052
30
0.0000000000
10
177.7356939988
20
-129.3592740482
30
0.0000000000
10
179.0335696555
20
-128.9761636399
30
0.0000000000
10
180.3775603814
20
-128.4761847276
30
0.0000000000
10
181.8155853069
20
-127.7911707647
30
0.0000000000
10
183.3390657849
20
-126.8457723765
30
0.0000000000
10
184.8768891196
20
-125.5817009309
30
0.0000000000
10
186.3142031160
20
-123.9841030308
30
0.0000000000
10
187.5312226650
20
-122.0856091999
30
0.0000000000
10
188.4332823472
20
-119.9524486707
30
0.0000000000
10
188.9217745084
20
-117.8319317998
30
0.0000000000
10
189.0187365646
20
-116.4342406272
30
0.0000000000
10
189.0187918588
20
-115.8182890539
30
0.0000000000
11
165.9456239387
21
-130.8997254100
31
0.0000000000
11
167.9880659395
21
-130.7567115199
31
0.0000000000
11
170.0290104977
21
-130.5798768284
31
0.0000000000
11
171.8788301555
21
-130.3827098502
31
0.0000000000
11
173.5501345070
21
-130.1651283052
31
0.0000000000
11
175.0611657104
21
-129.9251218437
31
0.0000000000
11
176.4408465964
21
-129.6569156912
31
0.0000000000
11
177.7358346659
21
-129.3468444152
31
0.0000000000
11
179.0026898854
21
-128.9698793063
31
0.0000000000
11
180.3175176661
21
-128.4776896322
31
0.0000000000
11
181.7355623354
21
-127.7992406110
31
0.0000000000
11
183.2595059183
21
-126.8509429304
31
0.0000000000
11
184.8024852041
21
-125.5805740123
31
0.0000000000
11
186.2452338280
21
-123.9753800331
31
0.0000000000
11
187.4661492257
21
-122.0695461777
31
0.0000000000
11
188.3663516957
21
-119.9398940013
31
0.0000000000
11
188.8907824246
21
-117.6615233630
31
0.0000000000
11
189.0187918588
21
-115.8182890539
31
0.0000000000
0
SPLINE
5
613
100
AcDbEntity
8
0
100
AcDbSpline
62
7
6
CONTINUOUS
70
0
71
3
72
11
73
7
74
5
42
0.0000001000
43
0.0000001000
44
0.0000000001
40
0.0000000000
40
0.0000000000
40
0.0000000000
40
0.0000000000
40
0.2439662094
40
0.4985558990
40
0.7535067484
40
1.0000000000
40
1.0000000000
40
1.0000000000
40
1.0000000000
10
130.8914859856
20
-132.2720813713
30
0.0000000000
10
133.7441600000
20
-132.2229905692
30
0.0000000000
10
139.5732559196
20
-132.0927214026
30
0.0000000000
10
148.3806171024
20
-131.8019678972
30
0.0000000000
10
157.2136537606
20
-131.4100431908
30
0.0000000000
10
163.0687571295
20
-131.0802760593
30
0.0000000000
10
165.9457459674
20
-130.8997171072
30
0.0000000000
11
130.8914859856
21
-132.2720813713
31
0.0000000000
11
139.4486330834
21
-132.0806251042
31
0.0000000000
11
148.3757459200
21
-131.7852490071
31
0.0000000000
11
157.3115719677
21
-131.3876098684
31
0.0000000000
11
165.9457459674
21
-130.8997171072
31
0.0000000000
0
SPLINE
5
614
100
AcDbEntity
8
0
100
AcDbSpline
62
7
6
CONTINUOUS
70
0
71
3
72
10
73
6
74
4
42
0.0000001000
43
0.0000001000
44
0.0000000001
40
0.0000000000
40
0.0000000000
40
0.0000000000
40
0.0000000000
40
0.3070028765
40
0.7278658219
40
1.0000000000
40
1.0000000000
40
1.0000000000
40
1.0000000000
10
129.3589258113
20
-132.2846190426
30
0.0000000000
10
129.5157459103
20
-132.2846191405
30
0.0000000000
10
129.8875475011
20
-132.2837281433
30
0.0000000000
10
130.3983426198
20
-132.2794756860
30
0.0000000000
10
130.7522978826
20
-132.2744129892
30
0.0000000000
10
130.8912872818
20
-132.2720866878
30
0.0000000000
11
129.3589258113
21
-132.2846190426
31
0.0000000000
11
129.8293845617
21
-132.2834753854
31
0.0000000000
11
130.4743035912
21
-132.2780628828
31
0.0000000000
11
130.8912872818
21
-132.2720866878
31
0.0000000000
0
SPLINE
5
615
100
AcDbEntity
8
0
100
AcDbSpline
62
7
6
CONTINUOUS
70
0
71
3
72
24
73
20
74
18
42
0.0000001000
43
0.0000001000
44
0.0000000001
40
0.0000000000
40
0.0000000000
40
0.0000000000
40
0.0000000000
40
0.0596500639
40
0.1352321949
40
0.2100039762
40
0.2832253183
40
0.3530718758
40
0.4177593925
40
0.4758529261
40
0.5267086449
40
0.5721107231
40
0.6148521163
40
0.6579144228
40
0.7033708207
40
0.7528545659
40
0.8073659544
40
0.8675329448
40
0.9337873769
40
1.0000000000
40
1.0000000000
40
1.0000000000
40
1.0000000000
10
189.0187919374
20
-112.7509489971
30
0.0000000000
10
189.0187368801
20
-112.1356995819
30
0.0000000000
10
188.9219600625
20
-110.7390815108
30
0.0000000000
10
188.4341546977
20
-108.6196150963
30
0.0000000000
10
187.5327451895
20
-106.4865066322
30
0.0000000000
10
186.3159184130
20
-104.5873084985
30
0.0000000000
10
184.8781803898
20
-102.9886821181
30
0.0000000000
10
183.3394529492
20
-101.7236718608
30
0.0000000000
10
181.8151066047
20
-100.7777717238
30
0.0000000000
10
180.3766049653
20
-100.0926473905
30
0.0000000000
10
179.0326084198
20
-99.5927617253
30
0.0000000000
10
177.7349228419
20
-99.2097649307
30
0.0000000000
10
176.4181701561
20
-98.8974720398
30
0.0000000000
10
175.0212078192
20
-98.6286363205
30
0.0000000000
10
173.4994180480
20
-98.3893299567
30
0.0000000000
10
171.8212777338
20
-98.1729212777
30
0.0000000000
10
169.9667613491
20
-97.9769906099
30
0.0000000000
10
167.9886539757
20
-97.8070046400
30
0.0000000000
10
166.6266762050
20
-97.7122491611
30
0.0000000000
10
165.9456238910
20
-97.6695125898
30
0.0000000000
11
189.0187919374
21
-112.7509489971
31
0.0000000000
11
188.8910740213
21
-110.9098052864
31
0.0000000000
11
188.3673410427
21
-108.6323948875
31
0.0000000000
11
187.4677845012
21
-106.5027886398
31
0.0000000000
11
186.2470594477
21
-104.5962438406
31
0.0000000000
11
184.8037586319
21
-102.9898750194
31
0.0000000000
11
183.2598270237
21
-101.7185234315
31
0.0000000000
11
181.7348166859
21
-100.7695936197
31
0.0000000000
11
180.3163900168
21
-100.0910745024
31
0.0000000000
11
179.0017051087
21
-99.5990317957
31
0.0000000000
11
177.7350912258
21
-99.2221957917
31
0.0000000000
11
176.4402782279
21
-98.9121999363
31
0.0000000000
11
175.0606749452
21
-98.6440300060
31
0.0000000000
11
173.5496711149
21
-98.4040430757
31
0.0000000000
11
171.8783846452
21
-98.1864756395
31
0.0000000000
11
170.0286126178
21
-97.9893228728
31
0.0000000000
11
167.9877971073
21
-97.8125055810
31
0.0000000000
11
165.9456238910
21
-97.6695125898
31
0.0000000000
0
SPLINE
5
616
100
AcDbEntity
8
0
100
AcDbSpline
62
7
6
CONTINUOUS
70
0
71
3
72
11
73
7
74
5
42
0.0000001000
43
0.0000001000
44
0.0000000001
40
0.0000000000
40
0.0000000000
40
0.0000000000
40
0.0000000000
40
0.2464932516
40
0.5014441010
40
0.7560337906
40
1.0000000000
40
1.0000000000
40
1.0000000000
40
1.0000000000
10
165.9457459674
20
-97.6695208954
30
0.0000000000
10
163.0687571295
20
-97.4889619433
30
0.0000000000
10
157.2136537606
20
-97.1591948118
30
0.0000000000
10
148.3806171024
20
-96.7672701054
30
0.0000000000
10
139.5732559196
20
-96.4765166000
30
0.0000000000
10
133.7441600000
20
-96.3462474335
30
0.0000000000
10
130.8914859856
20
-96.2971566313
30
0.0000000000
11
165.9457459674
21
-97.6695208954
31
0.0000000000
11
157.3115719677
21
-97.1816281343
31
0.0000000000
11
148.3757459200
21
-96.7839889955
31
0.0000000000
11
139.4486330834
21
-96.4886128984
31
0.0000000000
11
130.8914859856
21
-96.2971566313
31
0.0000000000
0
SPLINE
5
617
100
AcDbEntity
8
0
100
AcDbSpline
62
7
6
CONTINUOUS
70
0
71
3
72
10
73
6
74
4
42
0.0000001000
43
0.0000001000
44
0.0000000001
40
0.0000000000
40
0.0000000000
40
0.0000000000
40
0.0000000000
40
0.2721341781
40
0.6929971235
40
1.0000000000
40
1.0000000000
40
1.0000000000
40
1.0000000000
10
130.8912872818
20
-96.2971513148
30
0.0000000000
10
130.7522978826
20
-96.2948250134
30
0.0000000000
10
130.3983426198
20
-96.2897623166
30
0.0000000000
10
129.8875475011
20
-96.2855098594
30
0.0000000000
10
129.5157459103
20
-96.2846188621
30
0.0000000000
10
129.3589258113
20
-96.2846189601
30
0.0000000000
11
130.8912872818
21
-96.2971513148
31
0.0000000000
11
130.4743035912
21
-96.2911751198
31
0.0000000000
11
129.8293845617
21
-96.2857626172
31
0.0000000000
11
129.3589258113
21
-96.2846189601
31
0.0000000000
0
SPLINE
5
618
100
AcDbEntity
8
0
100
AcDbSpline
62
7
6
CONTINUOUS
70
0
71
3
72
24
73
20
74
18
42
0.0000001000
43
0.0000001000
44
0.0000000001
40
0.0000000000
40
0.0000000000
40
0.0000000000
40
0.0000000000
40
0.0596500639
40
0.1352321949
40
0.2100039762
40
0.2832253183
40
0.3530718758
40
0.4177593925
40
0.4758529261
40
0.5267086449
40
0.5721107231
40
0.6148521163
40
0.6579144228
40
0.7033708207
40
0.7528545659
40
0.8073659544
40
0.8675329448
40
0.9337873769
40
1.0000000000
40
1.0000000000
40
1.0000000000
40
1.0000000000
10
33.0188517054
20
-115.8182890055
30
0.0000000000
10
33.0189067627
20
-116.4335384207
30
0.0000000000
10
33.1156835803
20
-117.8301564919
30
0.0000000000
10
33.6034889451
20
-119.9496229063
30
0.0000000000
10
34.5048984533
20
-122.0827313704
30
0.0000000000
10
35.7217252298
20
-123.9819295041
30
0.0000000000
10
37.1594632530
20
-125.5805558845
30
0.0000000000
10
38.6981906936
20
-126.8455661418
30
0.0000000000
10
40.2225370382
20
-127.7914662788
30
0.0000000000
10
41.6610386776
20
-128.4765906121
30
0.0000000000
10
43.0050352230
20
-128.9764762773
30
0.0000000000
10
44.3027208009
20
-129.3594730719
30
0.0000000000
10
45.6194734867
20
-129.6717659628
30
0.0000000000
10
47.0164358236
20
-129.9406016821
30
0.0000000000
10
48.5382255948
20
-130.1799080459
30
0.0000000000
10
50.2163659091
20
-130.3963167249
30
0.0000000000
10
52.0708822937
20
-130.5922473928
30
0.0000000000
10
54.0489896671
20
-130.7622333626
30
0.0000000000
10
55.4109674378
20
-130.8569888416
30
0.0000000000
10
56.0920197518
20
-130.8997254128
30
0.0000000000
11
33.0188517054
21
-115.8182890055
31
0.0000000000
11
33.1465696215
21
-117.6594327163
31
0.0000000000
11
33.6703026002
21
-119.9368431151
31
0.0000000000
11
34.5698591416
21
-122.0664493629
31
0.0000000000
11
35.7905841951
21
-123.9729941621
31
0.0000000000
11
37.2338850109
21
-125.5793629832
31
0.0000000000
11
38.7778166191
21
-126.8507145711
31
0.0000000000
11
40.3028269569
21
-127.7996443829
31
0.0000000000
11
41.7212536260
21
-128.4781635002
31
0.0000000000
11
43.0359385341
21
-128.9702062069
31
0.0000000000
11
44.3025524170
21
-129.3470422110
31
0.0000000000
11
45.5973654149
21
-129.6570380664
31
0.0000000000
11
46.9769686976
21
-129.9252079967
31
0.0000000000
11
48.4879725279
21
-130.1651949269
31
0.0000000000
11
50.1592589976
21
-130.3827623631
31
0.0000000000
11
52.0090310250
21
-130.5799151298
31
0.0000000000
11
54.0498465355
21
-130.7567324216
31
0.0000000000
11
56.0920197518
21
-130.8997254128
31
0.0000000000
0
SPLINE
5
619
100
AcDbEntity
8
0
100
AcDbSpline
62
7
6
CONTINUOUS
70
0
71
3
72
11
73
7
74
5
42
0.0000001000
43
0.0000001000
44
0.0000000001
40
0.0000000000
40
0.0000000000
40
0.0000000000
40
0.0000000000
40
0.2464932516
40
0.5014441010
40
0.7560337906
40
1.0000000000
40
1.0000000000
40
1.0000000000
40
1.0000000000
10
56.0918976754
20
-130.8997171072
30
0.0000000000
10
58.9688865133
20
-131.0802760593
30
0.0000000000
10
64.8239898822
20
-131.4100431908
30
0.0000000000
10
73.6570265404
20
-131.8019678972
30
0.0000000000
10
82.4643877232
20
-132.0927214026
30
0.0000000000
10
88.2934836428
20
-132.2229905692
30
0.0000000000
10
91.1461576572
20
-132.2720813713
30
0.0000000000
11
56.0918976754
21
-130.8997171072
31
0.0000000000
11
64.7260716752
21
-131.3876098684
31
0.0000000000
11
73.6618977228
21
-131.7852490071
31
0.0000000000
11
82.5890105594
21
-132.0806251042
31
0.0000000000
11
91.1461576572
21
-132.2720813713
31
0.0000000000
0
SPLINE
5
61A
100
AcDbEntity
8
0
100
AcDbSpline
62
7
6
CONTINUOUS
70
0
71
3
72
10
73
6
74
4
42
0.0000001000
43
0.0000001000
44
0.0000000001
40
0.0000000000
40
0.0000000000
40
0.0000000000
40
0.0000000000
40
0.2721341781
40
0.6929971235
40
1.0000000000
40
1.0000000000
40
1.0000000000
40
1.0000000000
10
91.1463563610
20
-132.2720866878
30
0.0000000000
10
91.2853457603
20
-132.2744129892
30
0.0000000000
10
91.6393010230
20
-132.2794756860
30
0.0000000000
10
92.1500961417
20
-132.2837281433
30
0.0000000000
10
92.5218977325
20
-132.2846191405
30
0.0000000000
10
92.6787178316
20
-132.2846190426
30
0.0000000000
11
91.1463563610
21
-132.2720866878
31
0.0000000000
11
91.5633400516
21
-132.2780628828
31
0.0000000000
11
92.2082590811
21
-132.2834753854
31
0.0000000000
11
92.6787178316
21
-132.2846190426
31
0.0000000000
0
SPLINE
5
61B
100
AcDbEntity
8
0
100
AcDbSpline
62
7
6
CONTINUOUS
70
0
71
3
72
24
73
20
74
18
42
0.0000001000
43
0.0000001000
44
0.0000000001
40
0.0000000000
40
0.0000000000
40
0.0000000000
40
0.0000000000
40
0.0662213464
40
0.1324799892
40
0.1926485637
40
0.2471605878
40
0.2966453094
40
0.3421043974
40
0.3851727812
40
0.4279228492
40
0.4733309242
40
0.5241745221
40
0.5822279632
40
0.6468715029
40
0.7166778637
40
0.7898831667
40
0.8646644525
40
0.9402819146
40
1.0000000000
40
1.0000000000
40
1.0000000000
40
1.0000000000
10
56.0920197041
20
-97.6695125926
30
0.0000000000
10
55.4108777034
20
-97.7122547904
30
0.0000000000
10
54.0487670962
20
-97.8070207181
30
0.0000000000
10
52.0705112250
20
-97.9770251899
30
0.0000000000
10
50.2159299426
20
-98.1729715944
30
0.0000000000
10
48.5377584860
20
-98.3893958132
30
0.0000000000
10
47.0159272305
20
-98.6287235845
30
0.0000000000
10
45.6188700863
20
-98.8975982974
30
0.0000000000
10
44.3019496440
20
-99.2099639544
30
0.0000000000
10
43.0040739873
20
-99.5930743627
30
0.0000000000
10
41.6600832614
20
-100.0930532750
30
0.0000000000
10
40.2220583359
20
-100.7780672380
30
0.0000000000
10
38.6985778579
20
-101.7234656262
30
0.0000000000
10
37.1607545232
20
-102.9875370717
30
0.0000000000
10
35.7234405268
20
-104.5851349719
30
0.0000000000
10
34.5064209778
20
-106.4836288027
30
0.0000000000
10
33.6043612956
20
-108.6167893319
30
0.0000000000
10
33.1158691344
20
-110.7373062028
30
0.0000000000
10
33.0189070782
20
-112.1349973754
30
0.0000000000
10
33.0188517840
20
-112.7509489487
30
0.0000000000
11
56.0920197041
21
-97.6695125926
31
0.0000000000
11
54.0495777033
21
-97.8125264827
31
0.0000000000
11
52.0086331452
21
-97.9893611742
31
0.0000000000
11
50.1588134874
21
-98.1865281524
31
0.0000000000
11
48.4875091358
21
-98.4041096975
31
0.0000000000
11
46.9764779324
21
-98.6441161589
31
0.0000000000
11
45.5967970464
21
-98.9123223114
31
0.0000000000
11
44.3018089769
21
-99.2223935875
31
0.0000000000
11
43.0349537574
21
-99.5993586963
31
0.0000000000
11
41.7201259767
21
-100.0915483705
31
0.0000000000
11
40.3020813074
21
-100.7699973916
31
0.0000000000
11
38.7781377246
21
-101.7182950723
31
0.0000000000
11
37.2351584387
21
-102.9886639904
31
0.0000000000
11
35.7924098148
21
-104.5938579695
31
0.0000000000
11
34.5714944171
21
-106.4996918249
31
0.0000000000
11
33.6712919471
21
-108.6293440014
31
0.0000000000
11
33.1468612182
21
-110.9077146396
31
0.0000000000
11
33.0188517840
21
-112.7509489487
31
0.0000000000
0
SPLINE
5
61C
100
AcDbEntity
8
0
100
AcDbSpline
62
7
6
CONTINUOUS
70
0
71
3
72
11
73
7
74
5
42
0.0000001000
43
0.0000001000
44
0.0000000001
40
0.0000000000
40
0.0000000000
40
0.0000000000
40
0.0000000000
40
0.2439662094
40
0.4985558990
40
0.7535067484
40
1.0000000000
40
1.0000000000
40
1.0000000000
40
1.0000000000
10
91.1461576572
20
-96.2971566313
30
0.0000000000
10
88.2934836428
20
-96.3462474335
30
0.0000000000
10
82.4643877232
20
-96.4765166000
30
0.0000000000
10
73.6570265404
20
-96.7672701054
30
0.0000000000
10
64.8239898822
20
-97.1591948118
30
0.0000000000
10
58.9688865133
20
-97.4889619433
30
0.0000000000
10
56.0918976754
20
-97.6695208954
30
0.0000000000
11
91.1461576572
21
-96.2971566313
31
0.0000000000
11
82.5890105594
21
-96.4886128984
31
0.0000000000
11
73.6618977228
21
-96.7839889955
31
0.0000000000
11
64.7260716752
21
-97.1816281343
31
0.0000000000
11
56.0918976754
21
-97.6695208954
31
0.0000000000
0
SPLINE
5
61D
100
AcDbEntity
8
0
100
AcDbSpline
62
7
6
CONTINUOUS
70
0
71
3
72
10
73
6
74
4
42
0.0000001000
43
0.0000001000
44
0.0000000001
40
0.0000000000
40
0.0000000000
40
0.0000000000
40
0.0000000000
40
0.3070028765
40
0.7278658219
40
1.0000000000
40
1.0000000000
40
1.0000000000
40
1.0000000000
10
92.6787178316
20
-96.2846189601
30
0.0000000000
10
92.5218977325
20
-96.2846188621
30
0.0000000000
10
92.1500961417
20
-96.2855098594
30
0.0000000000
10
91.6393010230
20
-96.2897623166
30
0.0000000000
10
91.2853457603
20
-96.2948250134
30
0.0000000000
10
91.1463563610
20
-96.2971513148
30
0.0000000000
11
92.6787178316
21
-96.2846189601
31
0.0000000000
11
92.2082590811
21
-96.2857626172
31
0.0000000000
11
91.5633400516
21
-96.2911751198
31
0.0000000000
11
91.1463563610
21
-96.2971513148
31
0.0000000000
0
ENDSEC
0
SECTION
2
OBJECTS
0
DICTIONARY
5
61E
100
AcDbDictionary
3
ACAD_GROUP
350
61F
3
ACAD_MLINESTYLE
350
620
0
DICTIONARY
5
61F
102
{ACAD_REACTORS
330
61E
102
}
100
AcDbDictionary
0
DICTIONARY
5
620
102
{ACAD_REACTORS
330
61E
102
}
100
AcDbDictionary
3
STANDARD
350
621
0
MLINESTYLE
5
621
102
{ACAD_REACTORS
330
620
102
}
100
AcDbMlineStyle
2
STANDARD
70
0
3

62
256
51
90.0
52
90.0
71
2
49
0.5
62
256
6
BYLAYER
49
-0.5
62
256
6
BYLAYER
0
ENDSEC
0
EOF
