999
DXF file: 001-m35328-p-1.dxf
999
Pro/ENGINEER 2011490 by Parametric Technology Corporation
  0
SECTION
  2
HEADER
  9
$ACADVER
  1
AC1015
  9
$DWGCODEPAGE
  3
ANSI_1252
  9
$EXTMAX
 10
297.0
 20
210.0
 30
0.0
  9
$EXTMIN
 10
0.0
 20
0.0
 30
0.0
  9
$LIMMIN
 10
0.0
 20
0.0
  9
$LIMMAX
 10
297.0
 20
210.0
  9
$VIEWCTR
 10
148.5
 20
105.0
  9
$VIEWSIZE
 40
210.0
  9
$CLAYER
  8
0
  9
$LTSCALE
 40
16.335
  9
$CELTYPE
  6
BYLAYER
  9
$DIMSCALE
 40
1.0
  9
$DIMASZ
 40
3.5
  9
$DIMEXO
 40
1.85625
  9
$DIMDLI
 40
11.286
  9
$DIMEXE
 40
5.346
  9
$DIMCEN
 40
2.673
  9
$DIMLFAC
 40
1.0
  9
$DIMBLK
  1
_FILLED
  9
$DIMTXT
 40
3.5
  9
$DIMTOL
 70
1
  9
$DIMLIM
 70
0
  9
$DIMTFAC
 40
1.0
  9
$DIMTP
 40
0.005
  9
$DIMTM
 40
0.005
  9
$PDMODE
 70
3
  9
$PDSIZE
 40
0.3125
  9
$HANDSEED
  5
7F9
  9
$TILEMODE
 70
1
  9
$MEASUREMENT
 70
1
  9
$INSUNITS
 70
4
  0
ENDSEC
  0
SECTION
  2
CLASSES
  0
CLASS
  1
ACDBDICTIONARYWDFLT
  2
AcDbDictionaryWithDefault
  3
AutoCAD 2000
 90
0
280
0
281
0
  0
CLASS
  1
ACDBPLACEHOLDER
  2
AcDbPlaceHolder
  3
AutoCAD 2000
 90
0
280
0
281
0
  0
CLASS
  1
LAYOUT
  2
AcDbLayout
  3
AutoCAD 2000
 90
0
280
0
281
0
  0
ENDSEC
  0
SECTION
  2
TABLES
  0
TABLE
  2
VPORT
  5
8
100
AcDbSymbolTable
 70
2
  0
VPORT
  5
1F4
100
AcDbSymbolTableRecord
100
AcDbViewportTableRecord
  2
*ACTIVE
 70
0
 10
0.0
 20
0.0
 11
1.0
 21
1.0
 12
148.5
 22
105.0
 13
0.0
 23
0.0
 14
1.0
 24
1.0
 15
0.0
 25
0.0
 16
0.0
 26
0.0
 36
1.0
 17
0.0
 27
0.0
 37
0.0
 40
210.0
 41
1.4142857143
 42
50.0
 43
0.0
 44
0.0
 50
0.0
 51
0.0
 71
0
 72
100
 73
1
 74
1
 75
0
 76
0
 77
0
 78
0
  0
ENDTAB
  0
TABLE
  2
LTYPE
  5
5
100
AcDbSymbolTable
 70
6
  0
LTYPE
  5
14
100
AcDbSymbolTableRecord
100
AcDbLinetypeTableRecord
  2
BYBLOCK
 70
0
  3

 72
65
 73
0
 40
0.0
  0
LTYPE
  5
15
100
AcDbSymbolTableRecord
100
AcDbLinetypeTableRecord
  2
BYLAYER
 70
0
  3

 72
65
 73
0
 40
0.0
  0
LTYPE
  5
16
100
AcDbSymbolTableRecord
100
AcDbLinetypeTableRecord
  2
CONTINUOUS
 70
64
  3
Solid line
 72
65
 73
0
 40
0.0
  0
LTYPE
  5
1F5
100
AcDbSymbolTableRecord
100
AcDbLinetypeTableRecord
  2
CENTER
 70
64
  3
____ _ ____ _ ____ _ ____ _ ____ _ ____ _ ____
 72
65
 73
4
 40
0.6
 49
0.375
 74
0
 49
-0.075
 74
0
 49
0.075
 74
0
 49
-0.075
 74
0
  0
LTYPE
  5
1F6
100
AcDbSymbolTableRecord
100
AcDbLinetypeTableRecord
  2
HIDDEN
 70
64
  3
- - - - - - - - - - - - - - - - - - - -
 72
65
 73
2
 40
0.2
 49
0.1
 74
0
 49
-0.1
 74
0
  0
LTYPE
  5
1F7
100
AcDbSymbolTableRecord
100
AcDbLinetypeTableRecord
  2
PHANTOM
 70
64
  3
_____ _ _ _____ _ _ _____ _ _ _____
 72
65
 73
6
 40
0.8
 49
0.45
 74
0
 49
-0.05
 74
0
 49
0.1
 74
0
 49
-0.05
 74
0
 49
0.1
 74
0
 49
-0.05
 74
0
  0
LTYPE
  5
1F8
100
AcDbSymbolTableRecord
100
AcDbLinetypeTableRecord
  2
DOT
 70
64
  3
. . . . . . . . . . . . . . . . . . . .
 72
65
 73
2
 40
0.2
 49
0.1
 74
0
 49
-0.1
 74
0
  0
LTYPE
  5
1F9
100
AcDbSymbolTableRecord
100
AcDbLinetypeTableRecord
  2
DASHED
 70
64
  3
- - - - - - - - - - - - - - - - - - - -
 72
65
 73
2
 40
0.2
 49
0.1
 74
0
 49
-0.1
 74
0
  0
ENDTAB
  0
TABLE
  2
LAYER
  5
2
100
AcDbSymbolTable
 70
36
  0
LAYER
  5
10
100
AcDbSymbolTableRecord
100
AcDbLayerTableRecord
  2
0
 70
0
 62
7
  6
CONTINUOUS
370
-3
390
F
  0
LAYER
  5
1FA
100
AcDbSymbolTableRecord
100
AcDbLayerTableRecord
  2
DEFAULT_1
 70
0
 62
7
  6
CENTER
370
-3
390
F
  0
LAYER
  5
1FB
100
AcDbSymbolTableRecord
100
AcDbLayerTableRecord
  2
DEFAULT_2
 70
0
 62
8
  6
HIDDEN
370
-3
390
F
  0
LAYER
  5
1FC
100
AcDbSymbolTableRecord
100
AcDbLayerTableRecord
  2
DEFAULT_3
 70
0
 62
7
  6
PHANTOM
370
-3
390
F
  0
LAYER
  5
1FD
100
AcDbSymbolTableRecord
100
AcDbLayerTableRecord
  2
AUSFORMSCHRAEGEN
 70
0
 62
7
  6
CONTINUOUS
370
-3
390
F
  0
LAYER
  5
1FE
100
AcDbSymbolTableRecord
100
AcDbLayerTableRecord
  2
BEZUGSACHSEN
 70
0
 62
7
  6
CONTINUOUS
370
-3
390
F
  0
LAYER
  5
1FF
100
AcDbSymbolTableRecord
100
AcDbLayerTableRecord
  2
BEZUGSEBENEN
 70
0
 62
7
  6
CONTINUOUS
370
-3
390
F
  0
LAYER
  5
200
100
AcDbSymbolTableRecord
100
AcDbLayerTableRecord
  2
BG_STARTBEZUEGE
 70
0
 62
7
  6
CONTINUOUS
370
-3
390
F
  0
LAYER
  5
201
100
AcDbSymbolTableRecord
100
AcDbLayerTableRecord
  2
FASEN
 70
0
 62
7
  6
CONTINUOUS
370
-3
390
F
  0
LAYER
  5
202
100
AcDbSymbolTableRecord
100
AcDbLayerTableRecord
  2
GEWINDE
 70
0
 62
7
  6
CONTINUOUS
370
-3
390
F
  0
LAYER
  5
203
100
AcDbSymbolTableRecord
100
AcDbLayerTableRecord
  2
HILFEN
 70
0
 62
7
  6
CONTINUOUS
370
-3
390
F
  0
LAYER
  5
204
100
AcDbSymbolTableRecord
100
AcDbLayerTableRecord
  2
KONSTRUKTIONSELEMENTE
 70
0
 62
7
  6
CONTINUOUS
370
-3
390
F
  0
LAYER
  5
205
100
AcDbSymbolTableRecord
100
AcDbLayerTableRecord
  2
KURVEN
 70
0
 62
7
  6
CONTINUOUS
370
-3
390
F
  0
LAYER
  5
206
100
AcDbSymbolTableRecord
100
AcDbLayerTableRecord
  2
NORM
 70
0
 62
7
  6
CONTINUOUS
370
-3
390
F
  0
LAYER
  5
207
100
AcDbSymbolTableRecord
100
AcDbLayerTableRecord
  2
PLATZIERUNG
 70
0
 62
7
  6
CONTINUOUS
370
-3
390
F
  0
LAYER
  5
208
100
AcDbSymbolTableRecord
100
AcDbLayerTableRecord
  2
PLAZIERUNG
 70
0
 62
7
  6
CONTINUOUS
370
-3
390
F
  0
LAYER
  5
209
100
AcDbSymbolTableRecord
100
AcDbLayerTableRecord
  2
RUNDUNGEN
 70
0
 62
7
  6
CONTINUOUS
370
-3
390
F
  0
LAYER
  5
20A
100
AcDbSymbolTableRecord
100
AcDbLayerTableRecord
  2
TEIL_STARTBEZUEGE
 70
0
 62
7
  6
CONTINUOUS
370
-3
390
F
  0
LAYER
  5
20B
100
AcDbSymbolTableRecord
100
AcDbLayerTableRecord
  2
T_STARTBEZUEGE
 70
0
 62
7
  6
CONTINUOUS
370
-3
390
F
  0
LAYER
  5
20C
100
AcDbSymbolTableRecord
100
AcDbLayerTableRecord
  2
ZEICHNUNGSBEMASSUNGEN
 70
0
 62
7
  6
CONTINUOUS
370
-3
390
F
  0
ENDTAB
  0
TABLE
  2
STYLE
  5
3
100
AcDbSymbolTable
 70
1
  0
STYLE
  5
11
100
AcDbSymbolTableRecord
100
AcDbTextStyleTableRecord
  2
STANDARD
 70
0
 40
0.0
 41
0.7
 50
0.0
 71
0
 42
0.2
  3
txt
  4

  0
STYLE
  5
20D
100
AcDbSymbolTableRecord
100
AcDbTextStyleTableRecord
  2
TEXTSTYLE_1
 70
0
 40
0.0
 41
0.8
 50
0.0
 71
0
 42
0.2
  3
gdt
  4

  0
ENDTAB
  0
TABLE
  2
VIEW
  5
6
100
AcDbSymbolTable
 70
0
  0
ENDTAB
  0
TABLE
  2
UCS
  5
7
100
AcDbSymbolTable
 70
0
  0
ENDTAB
  0
TABLE
  2
APPID
  5
9
100
AcDbSymbolTable
 70
1
  0
APPID
  5
20E
100
AcDbSymbolTableRecord
100
AcDbRegAppTableRecord
  2
ACAD
 70
0
  0
ENDTAB
  0
TABLE
  2
BLOCK_RECORD
  5
1
100
AcDbSymbolTable
 70
0
  0
BLOCK_RECORD
  5
20F
100
AcDbSymbolTableRecord
100
AcDbBlockTableRecord
  2
*Model_Space
  0
BLOCK_RECORD
  5
210
100
AcDbSymbolTableRecord
100
AcDbBlockTableRecord
  2
*Paper_Space
  0
ENDTAB
  0
TABLE
  2
DIMSTYLE
  5
A
100
AcDbSymbolTable
 70
1
100
AcDbDimStyleTable
 71
0
  0
DIMSTYLE
105
211
100
AcDbSymbolTableRecord
100
AcDbDimStyleTableRecord
  2
STANDARD
 70
0
  3

  4

 40
1.0
 41
3.5
 42
0.0625
 43
0.38
 44
0.18
 45
0.0
 46
0.0
 47
0.005
 48
0.005
140
3.5
141
0.09
142
0.0
143
25.4
144
1.0
145
0.0
146
1.0
147
0.09
 71
1.0
 72
0.0
 73
0
 74
0
 75
0
 76
0
 77
1
 78
8
170
0
171
2
172
0
173
0
174
0
175
0
176
0
177
0
178
5
270
2
271
3
272
3
273
2
274
2
275
0
280
0
281
0
282
0
283
1
284
8
285
0
286
0
287
3
288
0
340
11
  0
ENDTAB
  0
ENDSEC
  0
SECTION
  2
BLOCKS
  0
BLOCK
  5
20
100
AcDbEntity
  8
0
100
AcDbBlockBegin
  2
*Model_Space
 70
0
 10
0.0
 20
0.0
 30
0.0
  3
*Model_Space
  1

  0
ENDBLK
  5
21
100
AcDbEntity
  8
0
100
AcDbBlockEnd
  0
BLOCK
  5
1C
100
AcDbEntity
  8
0
100
AcDbBlockBegin
  2
*Paper_Space
 70
0
 10
0.0
 20
0.0
 30
0.0
  3
*Paper_Space
  1

  0
ENDBLK
  5
1D
100
AcDbEntity
  8
0
100
AcDbBlockEnd
  0
ENDSEC
  0
SECTION
  2
ENTITIES
  0
MTEXT
  5
212
100
AcDbEntity
  8
0
100
AcDbMText
 62
5
  6
CONTINUOUS
  7
STANDARD
 71
1
 72
1
 10
136.4174786523
 20
134.5753011471
 30
0.0
 11
0.0
 21
1.0
 31
0.0
 44
0.9
  1
RUD VLBG-PLUS 0,63t
 40
3.5
 41
50.5
  0
MTEXT
  5
213
100
AcDbEntity
  8
0
100
AcDbMText
 62
5
  6
CONTINUOUS
  7
STANDARD
 71
1
 72
1
 10
136.1428168869
 20
28.4841631636
 30
0.0
 11
0.0
 21
1.0
 31
0.0
 44
0.9
  1
VLBG-PLUS 0,63t
 40
3.5
 41
39.0833333333
  0
LINE
  5
214
100
AcDbEntity
  8
0
100
AcDbLine
 62
7
  6
CONTINUOUS
 10
0.0
 20
0.0
 11
0.0
 21
210.0
  0
LINE
  5
215
100
AcDbEntity
  8
0
100
AcDbLine
 62
7
  6
CONTINUOUS
 10
0.0
 20
0.0
 11
297.0
 21
0.0
  0
LINE
  5
216
100
AcDbEntity
  8
0
100
AcDbLine
 62
7
  6
CONTINUOUS
 10
0.0
 20
210.0
 11
297.0
 21
210.0
  0
LINE
  5
217
100
AcDbEntity
  8
0
100
AcDbLine
 62
7
  6
CONTINUOUS
 10
297.0
 20
0.0
 11
297.0
 21
210.0
  0
LINE
  5
218
100
AcDbEntity
  8
BEZUGSACHSEN
100
AcDbLine
 62
7
  6
CONTINUOUS
 10
119.8095769855
 20
105.5263277701
 11
125.8095769855
 21
105.5263277701
  0
LINE
  5
219
100
AcDbEntity
  8
BEZUGSACHSEN
100
AcDbLine
 62
7
  6
CONTINUOUS
 10
118.8095769855
 20
106.5263277701
 11
126.8095769855
 21
106.5263277701
  0
LINE
  5
21A
100
AcDbEntity
  8
BEZUGSACHSEN
100
AcDbLine
 62
7
  6
CONTINUOUS
 10
118.8095769855
 20
106.5263277701
 11
119.8095769855
 21
105.5263277701
  0
LINE
  5
21B
100
AcDbEntity
  8
0
100
AcDbLine
 62
7
  6
CONTINUOUS
 10
134.8095769855
 20
116.5263277701
 11
110.8095769855
 21
116.5263277701
  0
LINE
  5
21C
100
AcDbEntity
  8
0
100
AcDbLine
 62
7
  6
CONTINUOUS
 10
134.8095769855
 20
120.8263277701
 11
110.8095769855
 21
120.8263277701
  0
LINE
  5
21D
100
AcDbEntity
  8
RUNDUNGEN
100
AcDbLine
 62
7
  6
CONTINUOUS
 10
137.3095769855
 20
121.0263277701
 11
106.8095769855
 21
121.0263277701
  0
LINE
  5
21E
100
AcDbEntity
  8
0
100
AcDbLine
 62
7
  6
CONTINUOUS
 10
104.923732361
 20
125.0171788347
 11
105.3095769855
 21
125.0171788347
  0
LINE
  5
21F
100
AcDbEntity
  8
0
100
AcDbLine
 62
7
  6
CONTINUOUS
 10
104.8096745651
 20
125.3363277701
 11
105.4852178615
 21
125.3363277701
  0
LINE
  5
220
100
AcDbEntity
  8
0
100
AcDbLine
 62
7
  6
CONTINUOUS
 10
105.5018161372
 20
125.3363277701
 11
106.0260276598
 21
125.3363277701
  0
LINE
  5
221
100
AcDbEntity
  8
0
100
AcDbLine
 62
7
  6
CONTINUOUS
 10
104.8109382605
 20
125.3895192578
 11
104.8991280648
 21
125.3895192578
  0
LINE
  5
222
100
AcDbEntity
  8
0
100
AcDbLine
 62
7
  6
CONTINUOUS
 10
105.0120420266
 20
125.3895192578
 11
105.4087419206
 21
125.3895192578
  0
LINE
  5
223
100
AcDbEntity
  8
0
100
AcDbLine
 62
7
  6
CONTINUOUS
 10
105.0475089872
 20
125.4959022378
 11
105.3435976779
 21
125.4959022378
  0
LINE
  5
224
100
AcDbEntity
  8
0
100
AcDbLine
 62
7
  6
CONTINUOUS
 10
104.8165785923
 20
125.5490937208
 11
104.8641192242
 21
125.5490937208
  0
LINE
  5
225
100
AcDbEntity
  8
0
100
AcDbLine
 62
7
  6
CONTINUOUS
 10
105.5018161372
 20
125.5490937208
 11
106.0260276598
 21
125.5490937208
  0
LINE
  5
226
100
AcDbEntity
  8
0
100
AcDbLine
 62
7
  6
CONTINUOUS
 10
104.9294735439
 20
125.6022852225
 11
104.9718026576
 21
125.6022852225
  0
LINE
  5
227
100
AcDbEntity
  8
0
100
AcDbLine
 62
7
  6
CONTINUOUS
 10
105.0760329871
 20
125.6022852225
 11
105.322760198
 21
125.6022852225
  0
LINE
  5
228
100
AcDbEntity
  8
0
100
AcDbLine
 62
7
  6
CONTINUOUS
 10
105.4237582307
 20
125.6022852225
 11
105.9451208524
 21
125.6022852225
  0
LINE
  5
229
100
AcDbEntity
  8
0
100
AcDbLine
 62
7
  6
CONTINUOUS
 10
104.8991280648
 20
125.6554767055
 11
105.0120420266
 21
125.6554767055
  0
LINE
  5
22A
100
AcDbEntity
  8
0
100
AcDbLine
 62
7
  6
CONTINUOUS
 10
104.8882378593
 20
125.7086681885
 11
105.0294101527
 21
125.7086681885
  0
LINE
  5
22B
100
AcDbEntity
  8
0
100
AcDbLine
 62
7
  6
CONTINUOUS
 10
105.3792994952
 20
125.7086681885
 11
105.8990535413
 21
125.7086681885
  0
LINE
  5
22C
100
AcDbEntity
  8
0
100
AcDbLine
 62
7
  6
CONTINUOUS
 10
104.8220654819
 20
125.7618596715
 11
104.8557109644
 21
125.7618596715
  0
LINE
  5
22D
100
AcDbEntity
  8
0
100
AcDbLine
 62
7
  6
CONTINUOUS
 10
105.0959701214
 20
125.7618596715
 11
105.2956543323
 21
125.7618596715
  0
LINE
  5
22E
100
AcDbEntity
  8
0
100
AcDbLine
 62
7
  6
CONTINUOUS
 10
104.8780585331
 20
125.8150511918
 11
105.0475089872
 21
125.8150511918
  0
LINE
  5
22F
100
AcDbEntity
  8
0
100
AcDbLine
 62
7
  6
CONTINUOUS
 10
105.3648723853
 20
125.8682426748
 11
105.8841066088
 21
125.8682426748
  0
LINE
  5
230
100
AcDbEntity
  8
0
100
AcDbLine
 62
7
  6
CONTINUOUS
 10
104.8517718037
 20
125.9214341578
 11
105.056833175
 21
125.9214341578
  0
LINE
  5
231
100
AcDbEntity
  8
0
100
AcDbLine
 62
7
  6
CONTINUOUS
 10
105.1062162454
 20
125.9214341578
 11
105.2956543323
 21
125.9214341578
  0
LINE
  5
232
100
AcDbEntity
  8
0
100
AcDbLine
 62
7
  6
CONTINUOUS
 10
104.8266004972
 20
126.0278171239
 11
105.056833175
 21
126.0278171239
  0
LINE
  5
233
100
AcDbEntity
  8
0
100
AcDbLine
 62
7
  6
CONTINUOUS
 10
105.1062162454
 20
126.1342000899
 11
105.2956543323
 21
126.1342000899
  0
LINE
  5
234
100
AcDbEntity
  8
0
100
AcDbLine
 62
7
  6
CONTINUOUS
 10
104.8266004972
 20
126.2937746135
 11
105.0383680197
 21
126.2937746135
  0
LINE
  5
235
100
AcDbEntity
  8
0
100
AcDbLine
 62
7
  6
CONTINUOUS
 10
105.0959701214
 20
126.3469660965
 11
105.2956543323
 21
126.3469660965
  0
LINE
  5
236
100
AcDbEntity
  8
0
100
AcDbLine
 62
7
  6
CONTINUOUS
 10
104.9360791422
 20
126.5065405456
 11
104.9642976942
 21
126.5065405456
  0
LINE
  5
237
100
AcDbEntity
  8
0
100
AcDbLine
 62
7
  6
CONTINUOUS
 10
105.0760329871
 20
126.5065405456
 11
105.2956543323
 21
126.5065405456
  0
LINE
  5
238
100
AcDbEntity
  8
0
100
AcDbLine
 62
7
  6
CONTINUOUS
 10
104.8220654819
 20
126.5597320286
 11
104.9360791422
 21
126.5597320286
  0
LINE
  5
239
100
AcDbEntity
  8
0
100
AcDbLine
 62
7
  6
CONTINUOUS
 10
105.0294101527
 20
126.6129235116
 11
105.2956543323
 21
126.6129235116
  0
LINE
  5
23A
100
AcDbEntity
  8
0
100
AcDbLine
 62
7
  6
CONTINUOUS
 10
104.8165779492
 20
126.7193064777
 11
104.9642976942
 21
126.7193064777
  0
LINE
  5
23B
100
AcDbEntity
  8
0
100
AcDbLine
 62
7
  6
CONTINUOUS
 10
105.066341023
 20
126.7724979607
 11
105.2956543323
 21
126.7724979607
  0
LINE
  5
23C
100
AcDbEntity
  8
0
100
AcDbLine
 62
7
  6
CONTINUOUS
 10
105.1948941013
 20
126.8256894437
 11
105.2956543323
 21
126.8256894437
  0
LINE
  5
23D
100
AcDbEntity
  8
0
100
AcDbLine
 62
7
  6
CONTINUOUS
 10
105.3648723853
 20
126.8256894437
 11
106.0598513441
 21
126.8256894437
  0
LINE
  5
23E
100
AcDbEntity
  8
0
100
AcDbLine
 62
7
  6
CONTINUOUS
 10
104.8109381328
 20
126.8788809267
 11
105.0120420266
 21
126.8788809267
  0
LINE
  5
23F
100
AcDbEntity
  8
0
100
AcDbLine
 62
7
  6
CONTINUOUS
 10
104.8096745679
 20
126.9320724097
 11
105.0294101527
 21
126.9320724097
  0
LINE
  5
240
100
AcDbEntity
  8
0
100
AcDbLine
 62
7
  6
CONTINUOUS
 10
105.0859091969
 20
126.9320724097
 11
105.1948941013
 21
126.9320724097
  0
LINE
  5
241
100
AcDbEntity
  8
0
100
AcDbLine
 62
7
  6
CONTINUOUS
 10
105.1948941013
 20
127.0384553758
 11
105.2956543323
 21
127.0384553758
  0
LINE
  5
242
100
AcDbEntity
  8
0
100
AcDbLine
 62
7
  6
CONTINUOUS
 10
105.3648723853
 20
127.0384553758
 11
106.0598513441
 21
127.0384553758
  0
LINE
  5
243
100
AcDbEntity
  8
0
100
AcDbLine
 62
7
  6
CONTINUOUS
 10
104.8321519433
 20
127.0916468588
 11
105.0475089872
 21
127.0916468588
  0
LINE
  5
244
100
AcDbEntity
  8
0
100
AcDbLine
 62
7
  6
CONTINUOUS
 10
105.0959701214
 20
127.1448383418
 11
105.2956543323
 21
127.1448383418
  0
LINE
  5
245
100
AcDbEntity
  8
0
100
AcDbLine
 62
7
  6
CONTINUOUS
 10
104.8220654819
 20
127.2512214569
 11
105.0475089872
 21
127.2512214569
  0
LINE
  5
246
100
AcDbEntity
  8
0
100
AcDbLine
 62
7
  6
CONTINUOUS
 10
105.0959701214
 20
127.2512214569
 11
105.2956543323
 21
127.2512214569
  0
LINE
  5
247
100
AcDbEntity
  8
0
100
AcDbLine
 62
7
  6
CONTINUOUS
 10
104.8200611764
 20
127.4107959059
 11
104.8598267074
 21
127.4107959059
  0
LINE
  5
248
100
AcDbEntity
  8
0
100
AcDbLine
 62
7
  6
CONTINUOUS
 10
104.8882378593
 20
127.4107959059
 11
105.0294101527
 21
127.4107959059
  0
LINE
  5
249
100
AcDbEntity
  8
0
100
AcDbLine
 62
7
  6
CONTINUOUS
 10
105.0859091969
 20
127.463987389
 11
105.8841066088
 21
127.463987389
  0
LINE
  5
24A
100
AcDbEntity
  8
0
100
AcDbLine
 62
7
  6
CONTINUOUS
 10
104.9048401603
 20
127.517178872
 11
105.0036312454
 21
127.517178872
  0
LINE
  5
24B
100
AcDbEntity
  8
0
100
AcDbLine
 62
7
  6
CONTINUOUS
 10
104.9360791422
 20
127.570370355
 11
104.9642976942
 21
127.570370355
  0
LINE
  5
24C
100
AcDbEntity
  8
0
100
AcDbLine
 62
7
  6
CONTINUOUS
 10
104.815099747
 20
127.623561838
 11
104.8780585331
 21
127.623561838
  0
LINE
  5
24D
100
AcDbEntity
  8
0
100
AcDbLine
 62
7
  6
CONTINUOUS
 10
105.0475089872
 20
127.6767533211
 11
105.5555700862
 21
127.6767533211
  0
LINE
  5
24E
100
AcDbEntity
  8
0
100
AcDbLine
 62
7
  6
CONTINUOUS
 10
104.8103353978
 20
127.7831362871
 11
104.8991280648
 21
127.7831362871
  0
LINE
  5
24F
100
AcDbEntity
  8
0
100
AcDbLine
 62
7
  6
CONTINUOUS
 10
105.0120420266
 20
127.7831362871
 11
105.5188847834
 21
127.7831362871
  0
LINE
  5
250
100
AcDbEntity
  8
0
100
AcDbLine
 62
7
  6
CONTINUOUS
 10
104.9569731754
 20
127.8363277701
 11
105.4619359692
 21
127.8363277701
  0
LINE
  5
251
100
AcDbEntity
  8
0
100
AcDbLine
 62
7
  6
CONTINUOUS
 10
104.8099468973
 20
127.8363277701
 11
104.9428641069
 21
127.8363277701
  0
LINE
  5
252
100
AcDbEntity
  8
0
100
AcDbLine
 62
7
  6
CONTINUOUS
 10
104.8096745651
 20
125.3363277701
 11
104.8095769688
 21
125.3475615196
  0
LINE
  5
253
100
AcDbEntity
  8
0
100
AcDbLine
 62
7
  6
CONTINUOUS
 10
104.8095769855
 20
133.9978171313
 11
104.8095769855
 21
134.1893064926
  0
LINE
  5
254
100
AcDbEntity
  8
0
100
AcDbLine
 62
7
  6
CONTINUOUS
 10
104.8096687414
 20
130.400583056
 11
104.8096687414
 21
130.6665405456
  0
LINE
  5
255
100
AcDbEntity
  8
0
100
AcDbLine
 62
7
  6
CONTINUOUS
 10
104.8138359889
 20
130.0814341578
 11
104.8138359889
 21
130.400583056
  0
LINE
  5
256
100
AcDbEntity
  8
0
100
AcDbLine
 62
7
  6
CONTINUOUS
 10
104.8138359889
 20
130.6665405456
 11
104.8138359889
 21
130.8793064777
  0
LINE
  5
257
100
AcDbEntity
  8
0
100
AcDbLine
 62
7
  6
CONTINUOUS
 10
104.8165785923
 20
126.0810086069
 11
104.8165785923
 21
126.240583056
  0
LINE
  5
258
100
AcDbEntity
  8
0
100
AcDbLine
 62
7
  6
CONTINUOUS
 10
104.8253915102
 20
134.8276043335
 11
104.8253915102
 21
136.8063277701
  0
LINE
  5
259
100
AcDbEntity
  8
0
100
AcDbLine
 62
7
  6
CONTINUOUS
 10
104.8266004972
 20
126.0278171239
 11
104.8266004972
 21
126.2937746135
  0
LINE
  5
25A
100
AcDbEntity
  8
0
100
AcDbLine
 62
7
  6
CONTINUOUS
 10
104.8293414011
 20
130.400583056
 11
104.8293414011
 21
130.6665405456
  0
LINE
  5
25B
100
AcDbEntity
  8
0
100
AcDbLine
 62
7
  6
CONTINUOUS
 10
104.8469001557
 20
134.8276043335
 11
104.8469001557
 21
136.8063277701
  0
LINE
  5
25C
100
AcDbEntity
  8
0
100
AcDbLine
 62
7
  6
CONTINUOUS
 10
104.8560336941
 20
129.4963277701
 11
104.8560336941
 21
131.9963277701
  0
LINE
  5
25D
100
AcDbEntity
  8
0
100
AcDbLine
 62
7
  6
CONTINUOUS
 10
104.883467136
 20
129.4963277701
 11
104.883467136
 21
130.6133490626
  0
LINE
  5
25E
100
AcDbEntity
  8
0
100
AcDbLine
 62
7
  6
CONTINUOUS
 10
104.883467136
 20
130.9324979607
 11
104.883467136
 21
131.730370355
  0
LINE
  5
25F
100
AcDbEntity
  8
0
100
AcDbLine
 62
7
  6
CONTINUOUS
 10
104.8898047758
 20
133.8063277701
 11
104.8898047758
 21
136.8063277701
  0
LINE
  5
260
100
AcDbEntity
  8
0
100
AcDbLine
 62
7
  6
CONTINUOUS
 10
104.9327275033
 20
134.1893064926
 11
104.9327275033
 21
136.4233490924
  0
LINE
  5
261
100
AcDbEntity
  8
0
100
AcDbLine
 62
7
  6
CONTINUOUS
 10
104.9360791422
 20
126.5065405456
 11
104.9360791422
 21
126.7193064777
  0
LINE
  5
262
100
AcDbEntity
  8
0
100
AcDbLine
 62
7
  6
CONTINUOUS
 10
105.0475089872
 20
127.1448383418
 11
105.0475089872
 21
127.2512214569
  0
LINE
  5
263
100
AcDbEntity
  8
0
100
AcDbLine
 62
7
  6
CONTINUOUS
 10
105.056833175
 20
125.9214341578
 11
105.056833175
 21
126.1342000899
  0
LINE
  5
264
100
AcDbEntity
  8
0
100
AcDbLine
 62
7
  6
CONTINUOUS
 10
105.0671096348
 20
131.2516468588
 11
105.0671096348
 21
131.4112214569
  0
LINE
  5
265
100
AcDbEntity
  8
0
100
AcDbLine
 62
7
  6
CONTINUOUS
 10
105.0959701214
 20
127.1448383418
 11
105.0959701214
 21
127.2512214569
  0
LINE
  5
266
100
AcDbEntity
  8
0
100
AcDbLine
 62
7
  6
CONTINUOUS
 10
105.1062162454
 20
125.9214341578
 11
105.1062162454
 21
126.1342000899
  0
LINE
  5
267
100
AcDbEntity
  8
0
100
AcDbLine
 62
7
  6
CONTINUOUS
 10
105.1281224789
 20
131.1984553758
 11
105.1281224789
 21
131.4112214569
  0
LINE
  5
268
100
AcDbEntity
  8
0
100
AcDbLine
 62
7
  6
CONTINUOUS
 10
105.1948941013
 20
126.8256894437
 11
105.1948941013
 21
127.0384553758
  0
LINE
  5
269
100
AcDbEntity
  8
0
100
AcDbLine
 62
7
  6
CONTINUOUS
 10
105.2199201203
 20
129.4963277701
 11
105.2199201203
 21
131.9963277701
  0
LINE
  5
26A
100
AcDbEntity
  8
0
100
AcDbLine
 62
7
  6
CONTINUOUS
 10
105.2576667491
 20
134.8276043335
 11
105.2576667491
 21
135.7850511173
  0
LINE
  5
26B
100
AcDbEntity
  8
0
100
AcDbLine
 62
7
  6
CONTINUOUS
 10
105.2956543323
 20
125.7618596715
 11
105.2956543323
 21
126.8256894437
  0
LINE
  5
26C
100
AcDbEntity
  8
0
100
AcDbLine
 62
7
  6
CONTINUOUS
 10
105.2956543323
 20
127.0384553758
 11
105.2956543323
 21
127.463987389
  0
LINE
  5
26D
100
AcDbEntity
  8
0
100
AcDbLine
 62
7
  6
CONTINUOUS
 10
105.2967236461
 20
129.8154767055
 11
105.2967236461
 21
131.9963277701
  0
LINE
  5
26E
100
AcDbEntity
  8
0
100
AcDbLine
 62
7
  6
CONTINUOUS
 10
105.3095769855
 20
122.5263277701
 11
105.3095769855
 21
125.3363277701
  0
LINE
  5
26F
100
AcDbEntity
  8
0
100
AcDbLine
 62
7
  6
CONTINUOUS
 10
105.3095769855
 20
127.8363277701
 11
105.3095769855
 21
129.4963277701
  0
LINE
  5
270
100
AcDbEntity
  8
0
100
AcDbLine
 62
7
  6
CONTINUOUS
 10
105.3095769855
 20
131.9963277701
 11
105.3095769855
 21
133.8063277701
  0
LINE
  5
271
100
AcDbEntity
  8
0
100
AcDbLine
 62
7
  6
CONTINUOUS
 10
105.3095769855
 20
136.8063277701
 11
105.3095769855
 21
139.5263277701
  0
LINE
  5
272
100
AcDbEntity
  8
0
100
AcDbLine
 62
7
  6
CONTINUOUS
 10
105.35483269
 20
134.8276043335
 11
105.35483269
 21
135.7850511173
  0
LINE
  5
273
100
AcDbEntity
  8
0
100
AcDbLine
 62
7
  6
CONTINUOUS
 10
105.3648723853
 20
125.8682426748
 11
105.3648723853
 21
126.8256894437
  0
LINE
  5
274
100
AcDbEntity
  8
0
100
AcDbLine
 62
7
  6
CONTINUOUS
 10
105.3648723853
 20
127.0384553758
 11
105.3648723853
 21
127.463987389
  0
LINE
  5
275
100
AcDbEntity
  8
0
100
AcDbLine
 62
7
  6
CONTINUOUS
 10
105.5018161372
 20
125.3363277701
 11
105.5018161372
 21
125.5490937208
  0
LINE
  5
276
100
AcDbEntity
  8
0
100
AcDbLine
 62
7
  6
CONTINUOUS
 10
105.5344397322
 20
126.8256894437
 11
105.5344397322
 21
127.0384553758
  0
LINE
  5
277
100
AcDbEntity
  8
0
100
AcDbLine
 62
7
  6
CONTINUOUS
 10
104.8096745651
 20
126.9320724097
 11
104.8095769688
 21
126.9208386612
  0
LINE
  5
278
100
AcDbEntity
  8
0
100
AcDbLine
 62
7
  6
CONTINUOUS
 10
104.8560336941
 20
129.4963277701
 11
106.9785160398
 21
129.4963277701
  0
LINE
  5
279
100
AcDbEntity
  8
0
100
AcDbLine
 62
7
  6
CONTINUOUS
 10
107.588271915
 20
129.4963277701
 11
108.5185438123
 21
129.4963277701
  0
LINE
  5
27A
100
AcDbEntity
  8
0
100
AcDbLine
 62
7
  6
CONTINUOUS
 10
104.8319273688
 20
129.5495192578
 11
104.8560336941
 21
129.5495192578
  0
LINE
  5
27B
100
AcDbEntity
  8
0
100
AcDbLine
 62
7
  6
CONTINUOUS
 10
106.5502894109
 20
129.5495192578
 11
107.1160939518
 21
129.5495192578
  0
LINE
  5
27C
100
AcDbEntity
  8
0
100
AcDbLine
 62
7
  6
CONTINUOUS
 10
108.087406812
 20
129.5495192578
 11
108.7280639691
 21
129.5495192578
  0
LINE
  5
27D
100
AcDbEntity
  8
0
100
AcDbLine
 62
7
  6
CONTINUOUS
 10
104.8221325244
 20
129.6559022378
 11
104.8560336941
 21
129.6559022378
  0
LINE
  5
27E
100
AcDbEntity
  8
0
100
AcDbLine
 62
7
  6
CONTINUOUS
 10
106.6603654698
 20
129.6559022378
 11
107.2309312223
 21
129.6559022378
  0
LINE
  5
27F
100
AcDbEntity
  8
0
100
AcDbLine
 62
7
  6
CONTINUOUS
 10
108.2527881
 20
129.6559022378
 11
108.9027299965
 21
129.6559022378
  0
LINE
  5
280
100
AcDbEntity
  8
0
100
AcDbLine
 62
7
  6
CONTINUOUS
 10
105.2967236461
 20
129.8154767055
 11
106.036065315
 21
129.8154767055
  0
LINE
  5
281
100
AcDbEntity
  8
0
100
AcDbLine
 62
7
  6
CONTINUOUS
 10
106.3171185659
 20
129.8154767055
 11
106.4183140502
 21
129.8154767055
  0
LINE
  5
282
100
AcDbEntity
  8
0
100
AcDbLine
 62
7
  6
CONTINUOUS
 10
107.588271915
 20
129.8154767055
 11
107.8886888011
 21
129.8154767055
  0
LINE
  5
283
100
AcDbEntity
  8
0
100
AcDbLine
 62
7
  6
CONTINUOUS
 10
104.8151447975
 20
129.8686681885
 11
104.8560336941
 21
129.8686681885
  0
LINE
  5
284
100
AcDbEntity
  8
0
100
AcDbLine
 62
7
  6
CONTINUOUS
 10
106.2197303566
 20
129.8686681885
 11
106.5234000912
 21
129.8686681885
  0
LINE
  5
285
100
AcDbEntity
  8
0
100
AcDbLine
 62
7
  6
CONTINUOUS
 10
106.7745428314
 20
129.8686681885
 11
107.1818146408
 21
129.8686681885
  0
LINE
  5
286
100
AcDbEntity
  8
0
100
AcDbLine
 62
7
  6
CONTINUOUS
 10
107.4457539552
 20
129.8686681885
 11
108.0528260721
 21
129.8686681885
  0
LINE
  5
287
100
AcDbEntity
  8
0
100
AcDbLine
 62
7
  6
CONTINUOUS
 10
108.4241198826
 20
129.8686681885
 11
109.0839771999
 21
129.8686681885
  0
LINE
  5
288
100
AcDbEntity
  8
0
100
AcDbLine
 62
7
  6
CONTINUOUS
 10
106.1491397084
 20
129.9750511918
 11
106.6048213553
 21
129.9750511918
  0
LINE
  5
289
100
AcDbEntity
  8
0
100
AcDbLine
 62
7
  6
CONTINUOUS
 10
107.3420890809
 20
130.0282426748
 11
107.9440708269
 21
130.0282426748
  0
LINE
  5
28A
100
AcDbEntity
  8
0
100
AcDbLine
 62
7
  6
CONTINUOUS
 10
104.8138359889
 20
130.0814341578
 11
104.8560336941
 21
130.0814341578
  0
LINE
  5
28B
100
AcDbEntity
  8
0
100
AcDbLine
 62
7
  6
CONTINUOUS
 10
106.8332015919
 20
130.0814341578
 11
107.1266282641
 21
130.0814341578
  0
LINE
  5
28C
100
AcDbEntity
  8
0
100
AcDbLine
 62
7
  6
CONTINUOUS
 10
108.5120992509
 20
130.0814341578
 11
109.1771701973
 21
130.0814341578
  0
LINE
  5
28D
100
AcDbEntity
  8
0
100
AcDbLine
 62
7
  6
CONTINUOUS
 10
106.1032284904
 20
130.1346256409
 11
106.6505017033
 21
130.1346256409
  0
LINE
  5
28E
100
AcDbEntity
  8
0
100
AcDbLine
 62
7
  6
CONTINUOUS
 10
107.1105595623
 20
130.1878171239
 11
107.9084682271
 21
130.1878171239
  0
LINE
  5
28F
100
AcDbEntity
  8
0
100
AcDbLine
 62
7
  6
CONTINUOUS
 10
106.0806149149
 20
130.347391573
 11
106.6269836053
 21
130.347391573
  0
LINE
  5
290
100
AcDbEntity
  8
0
100
AcDbLine
 62
7
  6
CONTINUOUS
 10
106.8629298681
 20
130.347391573
 11
107.4424747982
 21
130.347391573
  0
LINE
  5
291
100
AcDbEntity
  8
0
100
AcDbLine
 62
7
  6
CONTINUOUS
 10
108.5120992509
 20
130.347391573
 11
109.1771701973
 21
130.347391573
  0
LINE
  5
292
100
AcDbEntity
  8
0
100
AcDbLine
 62
7
  6
CONTINUOUS
 10
104.8096687414
 20
130.400583056
 11
104.8560336941
 21
130.400583056
  0
LINE
  5
293
100
AcDbEntity
  8
0
100
AcDbLine
 62
7
  6
CONTINUOUS
 10
108.4241198826
 20
130.5601575795
 11
109.0839771999
 21
130.5601575795
  0
LINE
  5
294
100
AcDbEntity
  8
0
100
AcDbLine
 62
7
  6
CONTINUOUS
 10
104.883467136
 20
130.6133490626
 11
105.2199201203
 21
130.6133490626
  0
LINE
  5
295
100
AcDbEntity
  8
0
100
AcDbLine
 62
7
  6
CONTINUOUS
 10
107.6614206229
 20
130.6133490626
 11
107.8886888011
 21
130.6133490626
  0
LINE
  5
296
100
AcDbEntity
  8
0
100
AcDbLine
 62
7
  6
CONTINUOUS
 10
104.8096687414
 20
130.6665405456
 11
104.8560336941
 21
130.6665405456
  0
LINE
  5
297
100
AcDbEntity
  8
0
100
AcDbLine
 62
7
  6
CONTINUOUS
 10
105.0482482096
 20
130.6665405456
 11
105.2199201203
 21
130.6665405456
  0
LINE
  5
298
100
AcDbEntity
  8
0
100
AcDbLine
 62
7
  6
CONTINUOUS
 10
108.2527881
 20
130.7729235116
 11
108.9027299965
 21
130.7729235116
  0
LINE
  5
299
100
AcDbEntity
  8
0
100
AcDbLine
 62
7
  6
CONTINUOUS
 10
105.0867071954
 20
130.8261149946
 11
105.2199201203
 21
130.8261149946
  0
LINE
  5
29A
100
AcDbEntity
  8
0
100
AcDbLine
 62
7
  6
CONTINUOUS
 10
104.8138359889
 20
130.8793064777
 11
104.8560336941
 21
130.8793064777
  0
LINE
  5
29B
100
AcDbEntity
  8
0
100
AcDbLine
 62
7
  6
CONTINUOUS
 10
108.087406812
 20
130.8793064777
 11
108.7280639691
 21
130.8793064777
  0
LINE
  5
29C
100
AcDbEntity
  8
0
100
AcDbLine
 62
7
  6
CONTINUOUS
 10
104.883467136
 20
130.9324979607
 11
105.0127227848
 21
130.9324979607
  0
LINE
  5
29D
100
AcDbEntity
  8
0
100
AcDbLine
 62
7
  6
CONTINUOUS
 10
107.6614206229
 20
130.9324979607
 11
108.5185438123
 21
130.9324979607
  0
LINE
  5
29E
100
AcDbEntity
  8
0
100
AcDbLine
 62
7
  6
CONTINUOUS
 10
107.5521746157
 20
130.9856894437
 11
108.1645650372
 21
130.9856894437
  0
LINE
  5
29F
100
AcDbEntity
  8
0
100
AcDbLine
 62
7
  6
CONTINUOUS
 10
105.117490172
 20
131.0388809267
 11
105.2199201203
 21
131.0388809267
  0
LINE
  5
2A0
100
AcDbEntity
  8
0
100
AcDbLine
 62
7
  6
CONTINUOUS
 10
107.4457539552
 20
131.0920724097
 11
108.0528260721
 21
131.0920724097
  0
LINE
  5
2A1
100
AcDbEntity
  8
0
100
AcDbLine
 62
7
  6
CONTINUOUS
 10
105.1281224789
 20
131.1984553758
 11
105.2199201203
 21
131.1984553758
  0
LINE
  5
2A2
100
AcDbEntity
  8
0
100
AcDbLine
 62
7
  6
CONTINUOUS
 10
107.4108958514
 20
131.2516468588
 11
108.0162464767
 21
131.2516468588
  0
LINE
  5
2A3
100
AcDbEntity
  8
0
100
AcDbLine
 62
7
  6
CONTINUOUS
 10
104.8138359889
 20
131.3580298249
 11
104.8560336941
 21
131.3580298249
  0
LINE
  5
2A4
100
AcDbEntity
  8
0
100
AcDbLine
 62
7
  6
CONTINUOUS
 10
107.4108958514
 20
131.3580298249
 11
108.0162464767
 21
131.3580298249
  0
LINE
  5
2A5
100
AcDbEntity
  8
0
100
AcDbLine
 62
7
  6
CONTINUOUS
 10
105.1281224789
 20
131.4112214569
 11
105.2199201203
 21
131.4112214569
  0
LINE
  5
2A6
100
AcDbEntity
  8
0
100
AcDbLine
 62
7
  6
CONTINUOUS
 10
108.1282078215
 20
131.4112214569
 11
109.0380316776
 21
131.4112214569
  0
LINE
  5
2A7
100
AcDbEntity
  8
0
100
AcDbLine
 62
7
  6
CONTINUOUS
 10
107.4457539552
 20
131.5176044229
 11
108.0528260721
 21
131.5176044229
  0
LINE
  5
2A8
100
AcDbEntity
  8
0
100
AcDbLine
 62
7
  6
CONTINUOUS
 10
105.117490172
 20
131.5707959059
 11
105.2199201203
 21
131.5707959059
  0
LINE
  5
2A9
100
AcDbEntity
  8
0
100
AcDbLine
 62
7
  6
CONTINUOUS
 10
108.3376943015
 20
131.5707959059
 11
108.9925113323
 21
131.5707959059
  0
LINE
  5
2AA
100
AcDbEntity
  8
0
100
AcDbLine
 62
7
  6
CONTINUOUS
 10
104.8151447975
 20
131.623987389
 11
104.8560336941
 21
131.623987389
  0
LINE
  5
2AB
100
AcDbEntity
  8
0
100
AcDbLine
 62
7
  6
CONTINUOUS
 10
107.5521746157
 20
131.623987389
 11
108.0068730932
 21
131.623987389
  0
LINE
  5
2AC
100
AcDbEntity
  8
0
100
AcDbLine
 62
7
  6
CONTINUOUS
 10
107.6614206229
 20
131.677178872
 11
107.8886888011
 21
131.677178872
  0
LINE
  5
2AD
100
AcDbEntity
  8
0
100
AcDbLine
 62
7
  6
CONTINUOUS
 10
104.883467136
 20
131.730370355
 11
105.0127227848
 21
131.730370355
  0
LINE
  5
2AE
100
AcDbEntity
  8
0
100
AcDbLine
 62
7
  6
CONTINUOUS
 10
105.0867071954
 20
131.783561838
 11
105.2199201203
 21
131.783561838
  0
LINE
  5
2AF
100
AcDbEntity
  8
0
100
AcDbLine
 62
7
  6
CONTINUOUS
 10
108.2108942705
 20
131.783561838
 11
108.8584581128
 21
131.783561838
  0
LINE
  5
2B0
100
AcDbEntity
  8
0
100
AcDbLine
 62
7
  6
CONTINUOUS
 10
104.8221325244
 20
131.8367533211
 11
104.8560336941
 21
131.8367533211
  0
LINE
  5
2B1
100
AcDbEntity
  8
0
100
AcDbLine
 62
7
  6
CONTINUOUS
 10
104.8319273688
 20
131.9431362871
 11
104.8560336941
 21
131.9431362871
  0
LINE
  5
2B2
100
AcDbEntity
  8
0
100
AcDbLine
 62
7
  6
CONTINUOUS
 10
105.0482482096
 20
131.9431362871
 11
105.2199201203
 21
131.9431362871
  0
LINE
  5
2B3
100
AcDbEntity
  8
0
100
AcDbLine
 62
7
  6
CONTINUOUS
 10
108.0469627715
 20
131.9431362871
 11
108.6853906759
 21
131.9431362871
  0
LINE
  5
2B4
100
AcDbEntity
  8
0
100
AcDbLine
 62
7
  6
CONTINUOUS
 10
104.8560336941
 20
131.9963277701
 11
105.8135166452
 21
131.9963277701
  0
LINE
  5
2B5
100
AcDbEntity
  8
0
100
AcDbLine
 62
7
  6
CONTINUOUS
 10
105.9496454853
 20
131.9963277701
 11
106.6269836053
 21
131.9963277701
  0
LINE
  5
2B6
100
AcDbEntity
  8
0
100
AcDbLine
 62
7
  6
CONTINUOUS
 10
106.6885215095
 20
131.9963277701
 11
107.4424747982
 21
131.9963277701
  0
LINE
  5
2B7
100
AcDbEntity
  8
0
100
AcDbLine
 62
7
  6
CONTINUOUS
 10
107.6614206229
 20
131.9963277701
 11
108.4777723894
 21
131.9963277701
  0
LINE
  5
2B8
100
AcDbEntity
  8
0
100
AcDbLine
 62
7
  6
CONTINUOUS
 10
105.7873118971
 20
129.4963277701
 11
105.7873118971
 21
129.8154767055
  0
LINE
  5
2B9
100
AcDbEntity
  8
0
100
AcDbLine
 62
7
  6
CONTINUOUS
 10
105.8135166452
 20
129.8154767055
 11
105.8135166452
 21
131.9963277701
  0
LINE
  5
2BA
100
AcDbEntity
  8
0
100
AcDbLine
 62
7
  6
CONTINUOUS
 10
105.873705798
 20
134.8276043335
 11
105.873705798
 21
135.7850511173
  0
LINE
  5
2BB
100
AcDbEntity
  8
0
100
AcDbLine
 62
7
  6
CONTINUOUS
 10
105.8841066088
 20
125.8682426748
 11
105.8841066088
 21
126.8256894437
  0
LINE
  5
2BC
100
AcDbEntity
  8
0
100
AcDbLine
 62
7
  6
CONTINUOUS
 10
105.8841066088
 20
127.0384553758
 11
105.8841066088
 21
127.463987389
  0
LINE
  5
2BD
100
AcDbEntity
  8
0
100
AcDbLine
 62
7
  6
CONTINUOUS
 10
105.9496454853
 20
130.347391573
 11
105.9496454853
 21
131.9963277701
  0
LINE
  5
2BE
100
AcDbEntity
  8
0
100
AcDbLine
 62
7
  6
CONTINUOUS
 10
106.0260276598
 20
125.3363277701
 11
106.0260276598
 21
125.5490937208
  0
LINE
  5
2BF
100
AcDbEntity
  8
0
100
AcDbLine
 62
7
  6
CONTINUOUS
 10
106.0598513441
 20
126.8256894437
 11
106.0598513441
 21
127.0384553758
  0
LINE
  5
2C0
100
AcDbEntity
  8
0
100
AcDbLine
 62
7
  6
CONTINUOUS
 10
106.0806149149
 20
130.347391573
 11
106.0806149149
 21
131.9963277701
  0
LINE
  5
2C1
100
AcDbEntity
  8
0
100
AcDbLine
 62
7
  6
CONTINUOUS
 10
106.6269836053
 20
130.347391573
 11
106.6269836053
 21
131.9963277701
  0
LINE
  5
2C2
100
AcDbEntity
  8
0
100
AcDbLine
 62
7
  6
CONTINUOUS
 10
106.6885215095
 20
130.347391573
 11
106.6885215095
 21
131.9963277701
  0
LINE
  5
2C3
100
AcDbEntity
  8
0
100
AcDbLine
 62
7
  6
CONTINUOUS
 10
106.8629298681
 20
130.347391573
 11
106.8629298681
 21
131.9963277701
  0
LINE
  5
2C4
100
AcDbEntity
  8
0
100
AcDbLine
 62
7
  6
CONTINUOUS
 10
107.2080429627
 20
131.1984553758
 11
107.2080429627
 21
131.4112214569
  0
LINE
  5
2C5
100
AcDbEntity
  8
0
100
AcDbLine
 62
7
  6
CONTINUOUS
 10
107.4108958514
 20
131.2516468588
 11
107.4108958514
 21
131.3580298249
  0
LINE
  5
2C6
100
AcDbEntity
  8
0
100
AcDbLine
 62
7
  6
CONTINUOUS
 10
107.4424747982
 20
130.347391573
 11
107.4424747982
 21
130.7222342782
  0
LINE
  5
2C7
100
AcDbEntity
  8
0
100
AcDbLine
 62
7
  6
CONTINUOUS
 10
107.4424747982
 20
131.8874425544
 11
107.4424747982
 21
131.9963277701
  0
LINE
  5
2C8
100
AcDbEntity
  8
0
100
AcDbLine
 62
7
  6
CONTINUOUS
 10
108.0162464767
 20
131.2516468588
 11
108.0162464767
 21
131.3580298249
  0
LINE
  5
2C9
100
AcDbEntity
  8
0
100
AcDbLine
 62
7
  6
CONTINUOUS
 10
108.2527881
 20
130.1346256409
 11
108.2527881
 21
130.2942000899
  0
LINE
  5
2CA
100
AcDbEntity
  8
0
100
AcDbLine
 62
7
  6
CONTINUOUS
 10
108.5120992509
 20
130.0814341578
 11
108.5120992509
 21
130.347391573
  0
LINE
  5
2CB
100
AcDbEntity
  8
0
100
AcDbLine
 62
7
  6
CONTINUOUS
 10
104.8097584425
 20
133.8063277701
 11
105.6281473889
 21
133.8063277701
  0
LINE
  5
2CC
100
AcDbEntity
  8
0
100
AcDbLine
 62
7
  6
CONTINUOUS
 10
104.8144214896
 20
133.8701575553
 11
104.8898047758
 21
133.8701575553
  0
LINE
  5
2CD
100
AcDbEntity
  8
0
100
AcDbLine
 62
7
  6
CONTINUOUS
 10
105.1842722899
 20
133.8701575553
 11
105.6970877337
 21
133.8701575553
  0
LINE
  5
2CE
100
AcDbEntity
  8
0
100
AcDbLine
 62
7
  6
CONTINUOUS
 10
104.8226924134
 20
133.9978171313
 11
104.8898047758
 21
133.9978171313
  0
LINE
  5
2CF
100
AcDbEntity
  8
0
100
AcDbLine
 62
7
  6
CONTINUOUS
 10
105.2424407696
 20
133.9978171313
 11
105.7573058999
 21
133.9978171313
  0
LINE
  5
2D0
100
AcDbEntity
  8
0
100
AcDbLine
 62
7
  6
CONTINUOUS
 10
104.8095769771
 20
134.1893064926
 11
104.8097584347
 21
134.1893064926
  0
LINE
  5
2D1
100
AcDbEntity
  8
0
100
AcDbLine
 62
7
  6
CONTINUOUS
 10
104.9327275033
 20
134.1893064926
 11
105.1176589039
 21
134.1893064926
  0
LINE
  5
2D2
100
AcDbEntity
  8
0
100
AcDbLine
 62
7
  6
CONTINUOUS
 10
104.8350061179
 20
134.2531362722
 11
104.8898047758
 21
134.2531362722
  0
LINE
  5
2D3
100
AcDbEntity
  8
0
100
AcDbLine
 62
7
  6
CONTINUOUS
 10
105.3049994972
 20
134.2531362722
 11
105.8220877067
 21
134.2531362722
  0
LINE
  5
2D4
100
AcDbEntity
  8
0
100
AcDbLine
 62
7
  6
CONTINUOUS
 10
104.8426818947
 20
134.5084554354
 11
104.8898047758
 21
134.5084554354
  0
LINE
  5
2D5
100
AcDbEntity
  8
0
100
AcDbLine
 62
7
  6
CONTINUOUS
 10
105.337942347
 20
134.5084554354
 11
105.8562090822
 21
134.5084554354
  0
LINE
  5
2D6
100
AcDbEntity
  8
0
100
AcDbLine
 62
7
  6
CONTINUOUS
 10
104.8469001557
 20
134.8276043335
 11
104.8898047758
 21
134.8276043335
  0
LINE
  5
2D7
100
AcDbEntity
  8
0
100
AcDbLine
 62
7
  6
CONTINUOUS
 10
105.35483269
 20
134.8276043335
 11
105.873705798
 21
134.8276043335
  0
LINE
  5
2D8
100
AcDbEntity
  8
0
100
AcDbLine
 62
7
  6
CONTINUOUS
 10
105.35483269
 20
135.7850511173
 11
105.873705798
 21
135.7850511173
  0
LINE
  5
2D9
100
AcDbEntity
  8
0
100
AcDbLine
 62
7
  6
CONTINUOUS
 10
105.337942347
 20
136.1042001942
 11
105.8562090822
 21
136.1042001942
  0
LINE
  5
2DA
100
AcDbEntity
  8
0
100
AcDbLine
 62
7
  6
CONTINUOUS
 10
105.3049994972
 20
136.3595193127
 11
105.8220877067
 21
136.3595193127
  0
LINE
  5
2DB
100
AcDbEntity
  8
0
100
AcDbLine
 62
7
  6
CONTINUOUS
 10
109.1771701973
 20
130.0814341578
 11
109.1771701973
 21
130.347391573
  0
LINE
  5
2DC
100
AcDbEntity
  8
0
100
AcDbLine
 62
7
  6
CONTINUOUS
 10
110.8095769855
 20
145.5263277701
 11
110.8095769855
 21
141.2263277701
  0
LINE
  5
2DD
100
AcDbEntity
  8
0
100
AcDbLine
 62
7
  6
CONTINUOUS
 10
110.8095769855
 20
120.8263277701
 11
110.8095769855
 21
116.5263277701
  0
LINE
  5
2DE
100
AcDbEntity
  8
0
100
AcDbLine
 62
7
  6
CONTINUOUS
 10
104.9327275033
 20
136.4233490924
 11
105.1176589039
 21
136.4233490924
  0
LINE
  5
2DF
100
AcDbEntity
  8
0
100
AcDbLine
 62
7
  6
CONTINUOUS
 10
105.2424407696
 20
136.6148384312
 11
105.7573058999
 21
136.6148384312
  0
LINE
  5
2E0
100
AcDbEntity
  8
0
100
AcDbLine
 62
7
  6
CONTINUOUS
 10
105.1842722899
 20
136.7424979905
 11
105.6970877337
 21
136.7424979905
  0
LINE
  5
2E1
100
AcDbEntity
  8
0
100
AcDbLine
 62
7
  6
CONTINUOUS
 10
104.8253915102
 20
136.8063277701
 11
105.6281473889
 21
136.8063277701
  0
LINE
  5
2E2
100
AcDbEntity
  8
0
100
AcDbLine
 62
7
  6
CONTINUOUS
 10
114.5595769855
 20
141.2263277701
 11
114.5595769855
 21
141.0263277701
  0
LINE
  5
2E3
100
AcDbEntity
  8
0
100
AcDbLine
 62
7
  6
CONTINUOUS
 10
114.5595769855
 20
121.0263277701
 11
114.5595769855
 21
120.8263277701
  0
LINE
  5
2E4
100
AcDbEntity
  8
BEZUGSACHSEN
100
AcDbLine
 62
7
  6
CONTINUOUS
 10
115.3040234861
 20
146.0263277701
 11
115.3040234861
 21
150.2457711865
  0
LINE
  5
2E5
100
AcDbEntity
  8
RUNDUNGEN
100
AcDbLine
 62
7
  6
CONTINUOUS
 10
106.8095769855
 20
141.0263277701
 11
133.1095769855
 21
141.0263277701
  0
LINE
  5
2E6
100
AcDbEntity
  8
0
100
AcDbLine
 62
7
  6
CONTINUOUS
 10
133.1095769855
 20
141.2263277701
 11
110.8095769855
 21
141.2263277701
  0
LINE
  5
2E7
100
AcDbEntity
  8
KONSTRUKTIONSELEMENTE
100
AcDbLine
 62
7
  6
CONTINUOUS
 10
117.1095769855
 20
145.5263277701
 11
117.1095769855
 21
146.0263277701
  0
LINE
  5
2E8
100
AcDbEntity
  8
BEZUGSACHSEN
100
AcDbLine
 62
7
  6
CONTINUOUS
 10
117.1095769855
 20
145.5263277701
 11
117.1095769855
 21
146.0263277701
  0
LINE
  5
2E9
100
AcDbEntity
  8
KONSTRUKTIONSELEMENTE
100
AcDbLine
 62
7
  6
CONTINUOUS
 10
117.2935302519
 20
150.8263277701
 11
117.2935302519
 21
151.0263277701
  0
LINE
  5
2EA
100
AcDbEntity
  8
BEZUGSACHSEN
100
AcDbLine
 62
7
  6
CONTINUOUS
 10
118.8095769855
 20
116.5263277701
 11
118.8095769855
 21
106.5263277701
  0
LINE
  5
2EB
100
AcDbEntity
  8
BEZUGSACHSEN
100
AcDbLine
 62
7
  6
CONTINUOUS
 10
119.0568002358
 20
146.0263277701
 11
119.0568002358
 21
150.2457711865
  0
LINE
  5
2EC
100
AcDbEntity
  8
KONSTRUKTIONSELEMENTE
100
AcDbLine
 62
7
  6
CONTINUOUS
 10
119.2719531598
 20
150.8263277701
 11
119.2719531598
 21
151.0263277701
  0
LINE
  5
2ED
100
AcDbEntity
  8
KONSTRUKTIONSELEMENTE
100
AcDbLine
 62
7
  6
CONTINUOUS
 10
119.2957585498
 20
150.8263277701
 11
119.2957585498
 21
151.0263277701
  0
LINE
  5
2EE
100
AcDbEntity
  8
KONSTRUKTIONSELEMENTE
100
AcDbLine
 62
7
  6
CONTINUOUS
 10
119.3949476709
 20
150.8263277701
 11
119.3949476709
 21
151.0263277701
  0
LINE
  5
2EF
100
AcDbEntity
  8
KONSTRUKTIONSELEMENTE
100
AcDbLine
 62
7
  6
CONTINUOUS
 10
119.4227206335
 20
150.8263277701
 11
119.4227206335
 21
151.0263277701
  0
LINE
  5
2F0
100
AcDbEntity
  8
KONSTRUKTIONSELEMENTE
100
AcDbLine
 62
7
  6
CONTINUOUS
 10
119.4761781734
 20
150.8263277701
 11
119.4761781734
 21
151.0263277701
  0
LINE
  5
2F1
100
AcDbEntity
  8
0
100
AcDbLine
 62
7
  6
CONTINUOUS
 10
133.1095769855
 20
144.2263277701
 11
134.1095769855
 21
144.2263277701
  0
LINE
  5
2F2
100
AcDbEntity
  8
0
100
AcDbLine
 62
7
  6
CONTINUOUS
 10
142.1095769855
 20
144.2263277701
 11
143.1095769855
 21
144.2263277701
  0
LINE
  5
2F3
100
AcDbEntity
  8
0
100
AcDbLine
 62
7
  6
CONTINUOUS
 10
134.1095769855
 20
145.5263277701
 11
110.8095769855
 21
145.5263277701
  0
LINE
  5
2F4
100
AcDbEntity
  8
KONSTRUKTIONSELEMENTE
100
AcDbLine
 62
7
  6
CONTINUOUS
 10
115.3040234861
 20
146.0263277701
 11
130.315130485
 21
146.0263277701
  0
LINE
  5
2F5
100
AcDbEntity
  8
KONSTRUKTIONSELEMENTE
100
AcDbLine
 62
7
  6
CONTINUOUS
 10
119.6025439835
 20
150.8263277701
 11
119.6025439835
 21
151.0263277701
  0
LINE
  5
2F6
100
AcDbEntity
  8
KONSTRUKTIONSELEMENTE
100
AcDbLine
 62
7
  6
CONTINUOUS
 10
119.7043401942
 20
150.8263277701
 11
119.7043401942
 21
151.0263277701
  0
LINE
  5
2F7
100
AcDbEntity
  8
KONSTRUKTIONSELEMENTE
100
AcDbLine
 62
7
  6
CONTINUOUS
 10
119.7558246775
 20
150.8263277701
 11
119.7558246775
 21
151.0263277701
  0
LINE
  5
2F8
100
AcDbEntity
  8
KONSTRUKTIONSELEMENTE
100
AcDbLine
 62
7
  6
CONTINUOUS
 10
119.7827395645
 20
150.8263277701
 11
119.7827395645
 21
151.0263277701
  0
LINE
  5
2F9
100
AcDbEntity
  8
KONSTRUKTIONSELEMENTE
100
AcDbLine
 62
7
  6
CONTINUOUS
 10
120.0953991026
 20
150.8263277701
 11
120.0953991026
 21
151.0263277701
  0
LINE
  5
2FA
100
AcDbEntity
  8
KONSTRUKTIONSELEMENTE
100
AcDbLine
 62
7
  6
CONTINUOUS
 10
120.5842417147
 20
150.8263277701
 11
120.5842417147
 21
151.0263277701
  0
LINE
  5
2FB
100
AcDbEntity
  8
KONSTRUKTIONSELEMENTE
100
AcDbLine
 62
7
  6
CONTINUOUS
 10
120.6580376932
 20
150.8263277701
 11
120.6580376932
 21
151.0263277701
  0
LINE
  5
2FC
100
AcDbEntity
  8
KONSTRUKTIONSELEMENTE
100
AcDbLine
 62
7
  6
CONTINUOUS
 10
120.6834187615
 20
150.8263277701
 11
120.6834187615
 21
151.0263277701
  0
LINE
  5
2FD
100
AcDbEntity
  8
KONSTRUKTIONSELEMENTE
100
AcDbLine
 62
7
  6
CONTINUOUS
 10
122.3501515868
 20
150.8263277701
 11
122.3501515868
 21
151.0263277701
  0
LINE
  5
2FE
100
AcDbEntity
  8
KONSTRUKTIONSELEMENTE
100
AcDbLine
 62
7
  6
CONTINUOUS
 10
122.5124129296
 20
150.8263277701
 11
122.5124129296
 21
151.0263277701
  0
LINE
  5
2FF
100
AcDbEntity
  8
KONSTRUKTIONSELEMENTE
100
AcDbLine
 62
7
  6
CONTINUOUS
 10
122.5977131024
 20
150.8263277701
 11
122.5977131024
 21
151.0263277701
  0
LINE
  5
300
100
AcDbEntity
  8
KONSTRUKTIONSELEMENTE
100
AcDbLine
 62
7
  6
CONTINUOUS
 10
122.8910225232
 20
150.8263277701
 11
122.8910225232
 21
151.0263277701
  0
LINE
  5
301
100
AcDbEntity
  8
KONSTRUKTIONSELEMENTE
100
AcDbLine
 62
7
  6
CONTINUOUS
 10
123.107371393
 20
150.8263277701
 11
123.107371393
 21
151.0263277701
  0
LINE
  5
302
100
AcDbEntity
  8
KONSTRUKTIONSELEMENTE
100
AcDbLine
 62
7
  6
CONTINUOUS
 10
123.4859809866
 20
150.8263277701
 11
123.4859809866
 21
151.0263277701
  0
LINE
  5
303
100
AcDbEntity
  8
KONSTRUKTIONSELEMENTE
100
AcDbLine
 62
7
  6
CONTINUOUS
 10
123.6482423295
 20
150.8263277701
 11
123.6482423295
 21
151.0263277701
  0
LINE
  5
304
100
AcDbEntity
  8
KONSTRUKTIONSELEMENTE
100
AcDbLine
 62
7
  6
CONTINUOUS
 10
123.7565965995
 20
150.8263277701
 11
123.7565965995
 21
151.0263277701
  0
LINE
  5
305
100
AcDbEntity
  8
KONSTRUKTIONSELEMENTE
100
AcDbLine
 62
7
  6
CONTINUOUS
 10
124.039194365
 20
150.8263277701
 11
124.039194365
 21
151.0263277701
  0
LINE
  5
306
100
AcDbEntity
  8
KONSTRUKTIONSELEMENTE
100
AcDbLine
 62
7
  6
CONTINUOUS
 10
124.0581637993
 20
150.8263277701
 11
124.0581637993
 21
151.0263277701
  0
LINE
  5
307
100
AcDbEntity
  8
KONSTRUKTIONSELEMENTE
100
AcDbLine
 62
7
  6
CONTINUOUS
 10
124.1261148279
 20
150.8263277701
 11
124.1261148279
 21
151.0263277701
  0
LINE
  5
308
100
AcDbEntity
  8
KONSTRUKTIONSELEMENTE
100
AcDbLine
 62
7
  6
CONTINUOUS
 10
124.2304013454
 20
150.8263277701
 11
124.2304013454
 21
151.0263277701
  0
LINE
  5
309
100
AcDbEntity
  8
KONSTRUKTIONSELEMENTE
100
AcDbLine
 62
7
  6
CONTINUOUS
 10
124.3773466839
 20
150.8263277701
 11
124.3773466839
 21
151.0263277701
  0
LINE
  5
30A
100
AcDbEntity
  8
KONSTRUKTIONSELEMENTE
100
AcDbLine
 62
7
  6
CONTINUOUS
 10
124.5179692509
 20
150.8263277701
 11
124.5179692509
 21
151.0263277701
  0
LINE
  5
30B
100
AcDbEntity
  8
KONSTRUKTIONSELEMENTE
100
AcDbLine
 62
7
  6
CONTINUOUS
 10
124.6949267462
 20
150.8263277701
 11
124.6949267462
 21
151.0263277701
  0
LINE
  5
30C
100
AcDbEntity
  8
KONSTRUKTIONSELEMENTE
100
AcDbLine
 62
7
  6
CONTINUOUS
 10
124.8229026504
 20
150.8263277701
 11
124.8229026504
 21
151.0263277701
  0
LINE
  5
30D
100
AcDbEntity
  8
KONSTRUKTIONSELEMENTE
100
AcDbLine
 62
7
  6
CONTINUOUS
 10
124.9627229702
 20
150.8263277701
 11
124.9627229702
 21
151.0263277701
  0
LINE
  5
30E
100
AcDbEntity
  8
KONSTRUKTIONSELEMENTE
100
AcDbLine
 62
7
  6
CONTINUOUS
 10
125.0172261988
 20
150.8263277701
 11
125.0172261988
 21
151.0263277701
  0
LINE
  5
30F
100
AcDbEntity
  8
KONSTRUKTIONSELEMENTE
100
AcDbLine
 62
7
  6
CONTINUOUS
 10
125.0590833459
 20
150.8263277701
 11
125.0590833459
 21
151.0263277701
  0
LINE
  5
310
100
AcDbEntity
  8
KONSTRUKTIONSELEMENTE
100
AcDbLine
 62
7
  6
CONTINUOUS
 10
125.1799342123
 20
150.8263277701
 11
125.1799342123
 21
151.0263277701
  0
LINE
  5
311
100
AcDbEntity
  8
KONSTRUKTIONSELEMENTE
100
AcDbLine
 62
7
  6
CONTINUOUS
 10
125.301587337
 20
150.8263277701
 11
125.301587337
 21
151.0263277701
  0
LINE
  5
312
100
AcDbEntity
  8
KONSTRUKTIONSELEMENTE
100
AcDbLine
 62
7
  6
CONTINUOUS
 10
125.3560905656
 20
150.8263277701
 11
125.3560905656
 21
151.0263277701
  0
LINE
  5
313
100
AcDbEntity
  8
KONSTRUKTIONSELEMENTE
100
AcDbLine
 62
7
  6
CONTINUOUS
 10
125.3979471776
 20
150.8263277701
 11
125.3979471776
 21
151.0263277701
  0
LINE
  5
314
100
AcDbEntity
  8
BEZUGSACHSEN
100
AcDbLine
 62
7
  6
CONTINUOUS
 10
115.3040234861
 20
150.2457711865
 11
116.3095769855
 21
150.8263277701
  0
LINE
  5
315
100
AcDbEntity
  8
0
100
AcDbLine
 62
7
  6
CONTINUOUS
 10
134.1095769855
 20
150.6263277701
 11
133.3595769855
 21
150.6263277701
  0
LINE
  5
316
100
AcDbEntity
  8
BEZUGSACHSEN
100
AcDbLine
 62
7
  6
CONTINUOUS
 10
116.3095769855
 20
150.8263277701
 11
129.3095769855
 21
150.8263277701
  0
LINE
  5
317
100
AcDbEntity
  8
KONSTRUKTIONSELEMENTE
100
AcDbLine
 62
7
  6
CONTINUOUS
 10
117.2935302519
 20
151.0263277701
 11
120.6834187615
 21
151.0263277701
  0
LINE
  5
318
100
AcDbEntity
  8
KONSTRUKTIONSELEMENTE
100
AcDbLine
 62
7
  6
CONTINUOUS
 10
122.3501515868
 20
151.0263277701
 11
123.7565965995
 21
151.0263277701
  0
LINE
  5
319
100
AcDbEntity
  8
KONSTRUKTIONSELEMENTE
100
AcDbLine
 62
7
  6
CONTINUOUS
 10
124.039194365
 20
151.0263277701
 11
125.3979471776
 21
151.0263277701
  0
LINE
  5
31A
100
AcDbEntity
  8
0
100
AcDbLine
 62
7
  6
CONTINUOUS
 10
134.1095769855
 20
151.1888277701
 11
133.3595769855
 21
151.1888277701
  0
LINE
  5
31B
100
AcDbEntity
  8
0
100
AcDbLine
 62
7
  6
CONTINUOUS
 10
134.1095769855
 20
152.7825777254
 11
133.3595769855
 21
152.7825777254
  0
LINE
  5
31C
100
AcDbEntity
  8
0
100
AcDbLine
 62
7
  6
CONTINUOUS
 10
134.1095769855
 20
153.5325776807
 11
133.3595769855
 21
153.5325776807
  0
LINE
  5
31D
100
AcDbEntity
  8
BEZUGSACHSEN
100
AcDbLine
 62
7
  6
CONTINUOUS
 10
130.315130485
 20
150.2457711865
 11
129.3095769855
 21
150.8263277701
  0
LINE
  5
31E
100
AcDbEntity
  8
BEZUGSACHSEN
100
AcDbLine
 62
7
  6
CONTINUOUS
 10
126.5623537352
 20
146.0263277701
 11
126.5623537352
 21
150.2457711865
  0
LINE
  5
31F
100
AcDbEntity
  8
BEZUGSACHSEN
100
AcDbLine
 62
7
  6
CONTINUOUS
 10
126.8095769855
 20
106.5263277701
 11
126.8095769855
 21
116.5263277701
  0
LINE
  5
320
100
AcDbEntity
  8
KONSTRUKTIONSELEMENTE
100
AcDbLine
 62
7
  6
CONTINUOUS
 10
128.5095769855
 20
145.5263277701
 11
128.5095769855
 21
146.0263277701
  0
LINE
  5
321
100
AcDbEntity
  8
BEZUGSACHSEN
100
AcDbLine
 62
7
  6
CONTINUOUS
 10
128.5095769855
 20
145.5263277701
 11
128.5095769855
 21
146.0263277701
  0
LINE
  5
322
100
AcDbEntity
  8
0
100
AcDbLine
 62
7
  6
CONTINUOUS
 10
134.1095769855
 20
154.1888278595
 11
133.3595769855
 21
154.1888278595
  0
LINE
  5
323
100
AcDbEntity
  8
0
100
AcDbLine
 62
7
  6
CONTINUOUS
 10
134.1095769855
 20
154.9388276807
 11
133.3595769855
 21
154.9388276807
  0
LINE
  5
324
100
AcDbEntity
  8
0
100
AcDbLine
 62
7
  6
CONTINUOUS
 10
134.1095769855
 20
155.0325778595
 11
133.3595769855
 21
155.0325778595
  0
LINE
  5
325
100
AcDbEntity
  8
0
100
AcDbLine
 62
7
  6
CONTINUOUS
 10
134.1095769855
 20
155.2200779489
 11
133.3595769855
 21
155.2200779489
  0
LINE
  5
326
100
AcDbEntity
  8
0
100
AcDbLine
 62
7
  6
CONTINUOUS
 10
134.1095769855
 20
155.5950775913
 11
133.3595769855
 21
155.5950775913
  0
LINE
  5
327
100
AcDbEntity
  8
0
100
AcDbLine
 62
7
  6
CONTINUOUS
 10
134.1095769855
 20
155.9700777701
 11
133.3595769855
 21
155.9700777701
  0
LINE
  5
328
100
AcDbEntity
  8
0
100
AcDbLine
 62
7
  6
CONTINUOUS
 10
134.1095769855
 20
156.4388275913
 11
133.3595769855
 21
156.4388275913
  0
LINE
  5
329
100
AcDbEntity
  8
0
100
AcDbLine
 62
7
  6
CONTINUOUS
 10
134.1095769855
 20
156.8138277701
 11
133.3595769855
 21
156.8138277701
  0
LINE
  5
32A
100
AcDbEntity
  8
0
100
AcDbLine
 62
7
  6
CONTINUOUS
 10
134.1095769855
 20
157.2825775913
 11
133.3595769855
 21
157.2825775913
  0
LINE
  5
32B
100
AcDbEntity
  8
BEZUGSACHSEN
100
AcDbLine
 62
7
  6
CONTINUOUS
 10
130.315130485
 20
146.0263277701
 11
130.315130485
 21
150.2457711865
  0
LINE
  5
32C
100
AcDbEntity
  8
0
100
AcDbLine
 62
7
  6
CONTINUOUS
 10
131.0595769855
 20
141.2263277701
 11
131.0595769855
 21
141.0263277701
  0
LINE
  5
32D
100
AcDbEntity
  8
0
100
AcDbLine
 62
7
  6
CONTINUOUS
 10
131.0595769855
 20
121.0263277701
 11
131.0595769855
 21
120.8263277701
  0
LINE
  5
32E
100
AcDbEntity
  8
0
100
AcDbLine
 62
7
  6
CONTINUOUS
 10
133.1095769855
 20
144.2263277701
 11
133.1095769855
 21
141.1762021412
  0
LINE
  5
32F
100
AcDbEntity
  8
RUNDUNGEN
100
AcDbLine
 62
7
  6
CONTINUOUS
 10
133.1095769855
 20
131.2263277701
 11
133.1095769855
 21
144.2263277701
  0
LINE
  5
330
100
AcDbEntity
  8
RUNDUNGEN
100
AcDbLine
 62
7
  6
CONTINUOUS
 10
133.1095769855
 20
169.2263277701
 11
133.1095769855
 21
175.2263277701
  0
LINE
  5
331
100
AcDbEntity
  8
0
100
AcDbLine
 62
7
  6
CONTINUOUS
 10
133.1095769855
 20
169.2263277701
 11
133.1095769855
 21
196.2263277701
  0
LINE
  5
332
100
AcDbEntity
  8
0
100
AcDbLine
 62
7
  6
CONTINUOUS
 10
133.3595769855
 20
150.6263277701
 11
133.3595769855
 21
154.1888278595
  0
LINE
  5
333
100
AcDbEntity
  8
0
100
AcDbLine
 62
7
  6
CONTINUOUS
 10
133.3595769855
 20
154.9388276807
 11
133.3595769855
 21
158.3138279489
  0
LINE
  5
334
100
AcDbEntity
  8
0
100
AcDbLine
 62
7
  6
CONTINUOUS
 10
133.3595769855
 20
159.0638277701
 11
133.3595769855
 21
162.8138274125
  0
LINE
  5
335
100
AcDbEntity
  8
0
100
AcDbLine
 62
7
  6
CONTINUOUS
 10
134.1095769855
 20
157.6575777701
 11
133.3595769855
 21
157.6575777701
  0
LINE
  5
336
100
AcDbEntity
  8
0
100
AcDbLine
 62
7
  6
CONTINUOUS
 10
134.1095769855
 20
158.0325779489
 11
133.3595769855
 21
158.0325779489
  0
LINE
  5
337
100
AcDbEntity
  8
0
100
AcDbLine
 62
7
  6
CONTINUOUS
 10
134.1095769855
 20
158.2200777701
 11
133.3595769855
 21
158.2200777701
  0
LINE
  5
338
100
AcDbEntity
  8
0
100
AcDbLine
 62
7
  6
CONTINUOUS
 10
134.1095769855
 20
158.3138279489
 11
133.3595769855
 21
158.3138279489
  0
LINE
  5
339
100
AcDbEntity
  8
0
100
AcDbLine
 62
7
  6
CONTINUOUS
 10
134.1095769855
 20
158.8822615338
 11
133.6095769855
 21
158.8822615338
  0
LINE
  5
33A
100
AcDbEntity
  8
0
100
AcDbLine
 62
7
  6
CONTINUOUS
 10
133.6095769855
 20
159.0638277701
 11
133.3595769855
 21
159.0638277701
  0
LINE
  5
33B
100
AcDbEntity
  8
0
100
AcDbLine
 62
7
  6
CONTINUOUS
 10
133.6095769855
 20
158.8826578281
 11
133.6095769855
 21
161.0822615338
  0
LINE
  5
33C
100
AcDbEntity
  8
0
100
AcDbLine
 62
7
  6
CONTINUOUS
 10
133.6095769855
 20
162.2826578281
 11
133.6095769855
 21
164.4822615338
  0
LINE
  5
33D
100
AcDbEntity
  8
0
100
AcDbLine
 62
7
  6
CONTINUOUS
 10
134.1095769855
 20
144.2263277701
 11
134.1095769855
 21
169.2263277701
  0
LINE
  5
33E
100
AcDbEntity
  8
0
100
AcDbLine
 62
7
  6
CONTINUOUS
 10
134.4095769855
 20
175.5756203839
 11
134.4095769855
 21
199.5893621143
  0
LINE
  5
33F
100
AcDbEntity
  8
0
100
AcDbLine
 62
7
  6
CONTINUOUS
 10
134.8095769855
 20
120.8263277701
 11
134.8095769855
 21
116.5263277701
  0
LINE
  5
340
100
AcDbEntity
  8
0
100
AcDbLine
 62
7
  6
CONTINUOUS
 10
134.1095769855
 20
161.0822615338
 11
133.6095769855
 21
161.0822615338
  0
LINE
  5
341
100
AcDbEntity
  8
0
100
AcDbLine
 62
7
  6
CONTINUOUS
 10
134.1095769855
 20
161.3138277701
 11
133.3595769855
 21
161.3138277701
  0
LINE
  5
342
100
AcDbEntity
  8
0
100
AcDbLine
 62
7
  6
CONTINUOUS
 10
134.1095769855
 20
161.7825781277
 11
133.3595769855
 21
161.7825781277
  0
LINE
  5
343
100
AcDbEntity
  8
0
100
AcDbLine
 62
7
  6
CONTINUOUS
 10
134.1095769855
 20
162.1575777701
 11
133.3595769855
 21
162.1575777701
  0
LINE
  5
344
100
AcDbEntity
  8
0
100
AcDbLine
 62
7
  6
CONTINUOUS
 10
134.1095769855
 20
162.2822615338
 11
133.6095769855
 21
162.2822615338
  0
LINE
  5
345
100
AcDbEntity
  8
0
100
AcDbLine
 62
7
  6
CONTINUOUS
 10
133.6095769855
 20
162.5325774125
 11
133.3595769855
 21
162.5325774125
  0
LINE
  5
346
100
AcDbEntity
  8
0
100
AcDbLine
 62
7
  6
CONTINUOUS
 10
133.6095769855
 20
162.7200777701
 11
133.3595769855
 21
162.7200777701
  0
LINE
  5
347
100
AcDbEntity
  8
0
100
AcDbLine
 62
7
  6
CONTINUOUS
 10
133.6095769855
 20
162.8138274125
 11
133.3595769855
 21
162.8138274125
  0
LINE
  5
348
100
AcDbEntity
  8
0
100
AcDbLine
 62
7
  6
CONTINUOUS
 10
134.1095769855
 20
164.4822615338
 11
133.6095769855
 21
164.4822615338
  0
LINE
  5
349
100
AcDbEntity
  8
0
100
AcDbLine
 62
7
  6
CONTINUOUS
 10
141.8095769855
 20
199.5893621143
 11
141.8095769855
 21
175.5756203839
  0
LINE
  5
34A
100
AcDbEntity
  8
0
100
AcDbLine
 62
7
  6
CONTINUOUS
 10
142.1095769855
 20
144.2263277701
 11
142.1095769855
 21
169.2263277701
  0
LINE
  5
34B
100
AcDbEntity
  8
0
100
AcDbLine
 62
7
  6
CONTINUOUS
 10
143.1095769855
 20
196.2263277701
 11
143.1095769855
 21
169.2263277701
  0
LINE
  5
34C
100
AcDbEntity
  8
0
100
AcDbLine
 62
7
  6
CONTINUOUS
 10
143.1095769855
 20
144.2263277701
 11
143.1095769855
 21
141.1762021412
  0
LINE
  5
34D
100
AcDbEntity
  8
RUNDUNGEN
100
AcDbLine
 62
7
  6
CONTINUOUS
 10
143.1095769855
 20
131.2263277701
 11
143.1095769855
 21
144.2263277701
  0
LINE
  5
34E
100
AcDbEntity
  8
RUNDUNGEN
100
AcDbLine
 62
7
  6
CONTINUOUS
 10
143.1095769855
 20
169.2263277701
 11
143.1095769855
 21
175.2263277701
  0
LINE
  5
34F
100
AcDbEntity
  8
0
100
AcDbLine
 62
7
  6
CONTINUOUS
 10
133.1095769855
 20
169.2263277701
 11
134.1095769855
 21
169.2263277701
  0
LINE
  5
350
100
AcDbEntity
  8
0
100
AcDbLine
 62
7
  6
CONTINUOUS
 10
142.1095769855
 20
169.2263277701
 11
143.1095769855
 21
169.2263277701
  0
LINE
  5
351
100
AcDbEntity
  8
BEZUGSACHSEN
100
AcDbLine
 62
7
  6
CONTINUOUS
 10
126.8095769855
 20
106.5263277701
 11
125.8095769855
 21
105.5263277701
  0
LINE
  5
352
100
AcDbEntity
  8
0
100
AcDbLine
 62
7
  6
CONTINUOUS
 10
134.4095769855
 20
199.2263277701
 11
134.1095769855
 21
199.2263277701
  0
LINE
  5
353
100
AcDbEntity
  8
0
100
AcDbLine
 62
7
  6
CONTINUOUS
 10
141.8095769855
 20
199.2263277701
 11
142.1095769855
 21
199.2263277701
  0
LINE
  5
354
100
AcDbEntity
  8
BEZUGSACHSEN
100
AcDbLine
 62
7
  6
CONTINUOUS
 10
203.8464616171
 20
105.5263277701
 11
209.8464616171
 21
105.5263277701
  0
LINE
  5
355
100
AcDbEntity
  8
BEZUGSACHSEN
100
AcDbLine
 62
7
  6
CONTINUOUS
 10
202.8464616171
 20
106.5263277701
 11
210.8464616171
 21
106.5263277701
  0
LINE
  5
356
100
AcDbEntity
  8
0
100
AcDbLine
 62
7
  6
CONTINUOUS
 10
189.5964616171
 20
191.5461329485
 11
206.8464616171
 21
199.2263277701
  0
LINE
  5
357
100
AcDbEntity
  8
0
100
AcDbLine
 62
7
  6
CONTINUOUS
 10
194.8464616171
 20
116.5263277701
 11
218.8464616171
 21
116.5263277701
  0
LINE
  5
358
100
AcDbEntity
  8
BEZUGSACHSEN
100
AcDbLine
 62
7
  6
CONTINUOUS
 10
203.8464616171
 20
105.5263277701
 11
202.8464616171
 21
106.5263277701
  0
LINE
  5
359
100
AcDbEntity
  8
0
100
AcDbLine
 62
7
  6
CONTINUOUS
 10
194.8464616171
 20
120.8263277701
 11
218.8464616171
 21
120.8263277701
  0
LINE
  5
35A
100
AcDbEntity
  8
RUNDUNGEN
100
AcDbLine
 62
7
  6
CONTINUOUS
 10
220.3464616171
 20
121.0263277701
 11
193.3464616171
 21
121.0263277701
  0
LINE
  5
35B
100
AcDbEntity
  8
0
100
AcDbLine
 62
7
  6
CONTINUOUS
 10
182.4859313043
 20
175.5756203839
 11
189.5964616171
 21
191.5461329485
  0
LINE
  5
35C
100
AcDbEntity
  8
0
100
AcDbLine
 62
7
  6
CONTINUOUS
 10
180.8464616171
 20
175.2263277701
 11
180.8464616171
 21
135.2263277701
  0
LINE
  5
35D
100
AcDbEntity
  8
0
100
AcDbLine
 62
7
  6
CONTINUOUS
 10
209.1352116171
 20
125.3363277701
 11
209.3435447518
 21
125.3895192578
  0
LINE
  5
35E
100
AcDbEntity
  8
0
100
AcDbLine
 62
7
  6
CONTINUOUS
 10
216.1185453478
 20
129.8154767055
 11
216.3268778865
 21
129.8686681885
  0
LINE
  5
35F
100
AcDbEntity
  8
0
100
AcDbLine
 62
7
  6
CONTINUOUS
 10
209.0831284825
 20
125.6022852225
 11
209.3435447518
 21
125.6554767055
  0
LINE
  5
360
100
AcDbEntity
  8
0
100
AcDbLine
 62
7
  6
CONTINUOUS
 10
206.7914616171
 20
125.3363277701
 11
207.0518781845
 21
125.3895192578
  0
LINE
  5
361
100
AcDbEntity
  8
0
100
AcDbLine
 62
7
  6
CONTINUOUS
 10
203.3539616171
 20
125.6022852225
 11
203.614378259
 21
125.6554767055
  0
LINE
  5
362
100
AcDbEntity
  8
0
100
AcDbLine
 62
7
  6
CONTINUOUS
 10
206.2706281845
 20
126.8788809267
 11
206.5310450498
 21
126.9320724097
  0
LINE
  5
363
100
AcDbEntity
  8
0
100
AcDbLine
 62
7
  6
CONTINUOUS
 10
208.5622947518
 20
127.517178872
 11
208.8227116171
 21
127.570370355
  0
LINE
  5
364
100
AcDbEntity
  8
0
100
AcDbLine
 62
7
  6
CONTINUOUS
 10
216.1185453478
 20
129.4963277701
 11
216.3789616171
 21
129.5495192578
  0
LINE
  5
365
100
AcDbEntity
  8
0
100
AcDbLine
 62
7
  6
CONTINUOUS
 10
206.2706281845
 20
127.7831362871
 11
206.5310450498
 21
127.8363277701
  0
LINE
  5
366
100
AcDbEntity
  8
0
100
AcDbLine
 62
7
  6
CONTINUOUS
 10
203.3539616171
 20
125.3363277701
 11
203.6664616171
 21
125.3895192578
  0
LINE
  5
367
100
AcDbEntity
  8
0
100
AcDbLine
 62
7
  6
CONTINUOUS
 10
208.5102116171
 20
127.7831362871
 11
208.8747947518
 21
127.8363277701
  0
LINE
  5
368
100
AcDbEntity
  8
0
100
AcDbLine
 62
7
  6
CONTINUOUS
 10
204.7081283335
 20
125.0171788347
 11
204.9685450498
 21
125.0171788347
  0
LINE
  5
369
100
AcDbEntity
  8
0
100
AcDbLine
 62
7
  6
CONTINUOUS
 10
206.5310450498
 20
125.3363277701
 11
206.7914616171
 21
125.3363277701
  0
LINE
  5
36A
100
AcDbEntity
  8
0
100
AcDbLine
 62
7
  6
CONTINUOUS
 10
208.7185447518
 20
125.3363277701
 11
209.1352116171
 21
125.3363277701
  0
LINE
  5
36B
100
AcDbEntity
  8
0
100
AcDbLine
 62
7
  6
CONTINUOUS
 10
205.0206281845
 20
125.6022852225
 11
205.2810450498
 21
125.6022852225
  0
LINE
  5
36C
100
AcDbEntity
  8
0
100
AcDbLine
 62
7
  6
CONTINUOUS
 10
206.4789616171
 20
125.6022852225
 11
206.8435450498
 21
125.6022852225
  0
LINE
  5
36D
100
AcDbEntity
  8
0
100
AcDbLine
 62
7
  6
CONTINUOUS
 10
208.7706284825
 20
125.6022852225
 11
209.0831284825
 21
125.6022852225
  0
LINE
  5
36E
100
AcDbEntity
  8
0
100
AcDbLine
 62
7
  6
CONTINUOUS
 10
207.9893784825
 20
125.9214341578
 11
208.2497947518
 21
125.9214341578
  0
LINE
  5
36F
100
AcDbEntity
  8
0
100
AcDbLine
 62
7
  6
CONTINUOUS
 10
189.8464616171
 20
126.2263277701
 11
191.8464616171
 21
126.2263277701
  0
LINE
  5
370
100
AcDbEntity
  8
KONSTRUKTIONSELEMENTE
100
AcDbLine
 62
7
  6
CONTINUOUS
 10
189.8464616171
 20
126.2263277701
 11
191.8464616171
 21
126.2263277701
  0
LINE
  5
371
100
AcDbEntity
  8
0
100
AcDbLine
 62
7
  6
CONTINUOUS
 10
221.8464616171
 20
126.2263277701
 11
223.8464616171
 21
126.2263277701
  0
LINE
  5
372
100
AcDbEntity
  8
KONSTRUKTIONSELEMENTE
100
AcDbLine
 62
7
  6
CONTINUOUS
 10
221.8464616171
 20
126.2263277701
 11
223.8464616171
 21
126.2263277701
  0
LINE
  5
373
100
AcDbEntity
  8
0
100
AcDbLine
 62
7
  6
CONTINUOUS
 10
208.8227116171
 20
126.5065405456
 11
209.0310447518
 21
126.5065405456
  0
LINE
  5
374
100
AcDbEntity
  8
0
100
AcDbLine
 62
7
  6
CONTINUOUS
 10
206.4789616171
 20
126.6661149946
 11
206.8435450498
 21
126.6661149946
  0
LINE
  5
375
100
AcDbEntity
  8
0
100
AcDbLine
 62
7
  6
CONTINUOUS
 10
208.8227116171
 20
126.7193064777
 11
209.0310447518
 21
126.7193064777
  0
LINE
  5
376
100
AcDbEntity
  8
0
100
AcDbLine
 62
7
  6
CONTINUOUS
 10
210.2810447518
 20
126.8256894437
 11
210.6977116171
 21
126.8256894437
  0
LINE
  5
377
100
AcDbEntity
  8
0
100
AcDbLine
 62
7
  6
CONTINUOUS
 10
210.9581284825
 20
126.8256894437
 11
211.5310447518
 21
126.8256894437
  0
LINE
  5
378
100
AcDbEntity
  8
0
100
AcDbLine
 62
7
  6
CONTINUOUS
 10
206.5310450498
 20
126.9320724097
 11
206.7914616171
 21
126.9320724097
  0
LINE
  5
379
100
AcDbEntity
  8
0
100
AcDbLine
 62
7
  6
CONTINUOUS
 10
210.2810447518
 20
127.0384553758
 11
210.6977116171
 21
127.0384553758
  0
LINE
  5
37A
100
AcDbEntity
  8
0
100
AcDbLine
 62
7
  6
CONTINUOUS
 10
210.9581284825
 20
127.0384553758
 11
211.5310447518
 21
127.0384553758
  0
LINE
  5
37B
100
AcDbEntity
  8
0
100
AcDbLine
 62
7
  6
CONTINUOUS
 10
207.2081281845
 20
127.2512214569
 11
207.4685447518
 21
127.2512214569
  0
LINE
  5
37C
100
AcDbEntity
  8
0
100
AcDbLine
 62
7
  6
CONTINUOUS
 10
208.0414616171
 20
127.2512214569
 11
208.3018784825
 21
127.2512214569
  0
LINE
  5
37D
100
AcDbEntity
  8
0
100
AcDbLine
 62
7
  6
CONTINUOUS
 10
210.6977116171
 20
127.463987389
 11
210.9581284825
 21
127.463987389
  0
LINE
  5
37E
100
AcDbEntity
  8
0
100
AcDbLine
 62
7
  6
CONTINUOUS
 10
206.4789616171
 20
127.570370355
 11
206.7914616171
 21
127.570370355
  0
LINE
  5
37F
100
AcDbEntity
  8
0
100
AcDbLine
 62
7
  6
CONTINUOUS
 10
208.8227116171
 20
127.570370355
 11
209.0310447518
 21
127.570370355
  0
LINE
  5
380
100
AcDbEntity
  8
0
100
AcDbLine
 62
7
  6
CONTINUOUS
 10
206.5310450498
 20
127.8363277701
 11
206.7393781845
 21
127.8363277701
  0
LINE
  5
381
100
AcDbEntity
  8
0
100
AcDbLine
 62
7
  6
CONTINUOUS
 10
208.8747947518
 20
127.8363277701
 11
208.9789616171
 21
127.8363277701
  0
LINE
  5
382
100
AcDbEntity
  8
0
100
AcDbLine
 62
7
  6
CONTINUOUS
 10
208.9789616171
 20
127.8363277701
 11
209.3435447518
 21
127.7831362871
  0
LINE
  5
383
100
AcDbEntity
  8
0
100
AcDbLine
 62
7
  6
CONTINUOUS
 10
203.0414616171
 20
125.3895192578
 11
203.3539616171
 21
125.3363277701
  0
LINE
  5
384
100
AcDbEntity
  8
0
100
AcDbLine
 62
7
  6
CONTINUOUS
 10
211.1143784825
 20
125.3895192578
 11
211.4268784825
 21
125.3363277701
  0
LINE
  5
385
100
AcDbEntity
  8
0
100
AcDbLine
 62
7
  6
CONTINUOUS
 10
209.0310447518
 20
126.5065405456
 11
209.3435447518
 21
126.4533490626
  0
LINE
  5
386
100
AcDbEntity
  8
0
100
AcDbLine
 62
7
  6
CONTINUOUS
 10
203.3539616171
 20
127.8363277701
 11
203.6664616171
 21
127.7831362871
  0
LINE
  5
387
100
AcDbEntity
  8
0
100
AcDbLine
 62
7
  6
CONTINUOUS
 10
203.0935449753
 20
125.6554767055
 11
203.3539616171
 21
125.6022852225
  0
LINE
  5
388
100
AcDbEntity
  8
0
100
AcDbLine
 62
7
  6
CONTINUOUS
 10
206.2706281845
 20
125.3895192578
 11
206.5310450498
 21
125.3363277701
  0
LINE
  5
389
100
AcDbEntity
  8
0
100
AcDbLine
 62
7
  6
CONTINUOUS
 10
208.5102116171
 20
125.6554767055
 11
208.7706284825
 21
125.6022852225
  0
LINE
  5
38A
100
AcDbEntity
  8
0
100
AcDbLine
 62
7
  6
CONTINUOUS
 10
211.1664616171
 20
125.6022852225
 11
211.4268784825
 21
125.5490937208
  0
LINE
  5
38B
100
AcDbEntity
  8
0
100
AcDbLine
 62
7
  6
CONTINUOUS
 10
203.3539616171
 20
127.570370355
 11
203.614378259
 21
127.517178872
  0
LINE
  5
38C
100
AcDbEntity
  8
0
100
AcDbLine
 62
7
  6
CONTINUOUS
 10
206.7914616171
 20
126.9320724097
 11
207.0518781845
 21
126.8788809267
  0
LINE
  5
38D
100
AcDbEntity
  8
0
100
AcDbLine
 62
7
  6
CONTINUOUS
 10
206.7393781845
 20
127.8363277701
 11
206.9997950498
 21
127.7831362871
  0
LINE
  5
38E
100
AcDbEntity
  8
0
100
AcDbLine
 62
7
  6
CONTINUOUS
 10
208.5102116171
 20
125.3895192578
 11
208.7185447518
 21
125.3363277701
  0
LINE
  5
38F
100
AcDbEntity
  8
0
100
AcDbLine
 62
7
  6
CONTINUOUS
 10
206.3227116171
 20
125.6554767055
 11
206.4789616171
 21
125.6022852225
  0
LINE
  5
390
100
AcDbEntity
  8
0
100
AcDbLine
 62
7
  6
CONTINUOUS
 10
206.8435450498
 20
126.6661149946
 11
206.9997950498
 21
126.6129235116
  0
LINE
  5
391
100
AcDbEntity
  8
0
100
AcDbLine
 62
7
  6
CONTINUOUS
 10
210.9581284825
 20
125.4427107455
 11
211.1143784825
 21
125.3895192578
  0
LINE
  5
392
100
AcDbEntity
  8
0
100
AcDbLine
 62
7
  6
CONTINUOUS
 10
202.7810449381
 20
125.5490937208
 11
203.0414616171
 21
125.3895192578
  0
LINE
  5
393
100
AcDbEntity
  8
0
100
AcDbLine
 62
7
  6
CONTINUOUS
 10
202.9372949381
 20
125.7618596715
 11
203.0935449753
 21
125.6554767055
  0
LINE
  5
394
100
AcDbEntity
  8
0
100
AcDbLine
 62
7
  6
CONTINUOUS
 10
182.8464616171
 20
144.2263277701
 11
182.8464616171
 21
169.2263277701
  0
LINE
  5
395
100
AcDbEntity
  8
0
100
AcDbLine
 62
7
  6
CONTINUOUS
 10
183.3964616171
 20
161.3138277701
 11
183.3964616171
 21
159.0638277701
  0
LINE
  5
396
100
AcDbEntity
  8
0
100
AcDbLine
 62
7
  6
CONTINUOUS
 10
183.3964616171
 20
158.3138279489
 11
183.3964616171
 21
157.7513279489
  0
LINE
  5
397
100
AcDbEntity
  8
0
100
AcDbLine
 62
7
  6
CONTINUOUS
 10
183.3964616171
 20
155.5013279489
 11
183.3964616171
 21
154.9388276807
  0
LINE
  5
398
100
AcDbEntity
  8
0
100
AcDbLine
 62
7
  6
CONTINUOUS
 10
183.3964616171
 20
152.8763277701
 11
183.3964616171
 21
150.6263277701
  0
LINE
  5
399
100
AcDbEntity
  8
0
100
AcDbLine
 62
7
  6
CONTINUOUS
 10
183.8751849643
 20
151.1888277701
 11
183.8751849643
 21
152.9700776807
  0
LINE
  5
39A
100
AcDbEntity
  8
0
100
AcDbLine
 62
7
  6
CONTINUOUS
 10
183.9709296338
 20
159.6263277701
 11
183.9709296338
 21
161.3138277701
  0
LINE
  5
39B
100
AcDbEntity
  8
0
100
AcDbLine
 62
7
  6
CONTINUOUS
 10
185.3113552741
 20
152.9700776807
 11
185.3113552741
 21
151.1888277701
  0
LINE
  5
39C
100
AcDbEntity
  8
0
100
AcDbLine
 62
7
  6
CONTINUOUS
 10
183.4922062866
 20
161.7825781277
 11
183.3964616171
 21
161.3138277701
  0
LINE
  5
39D
100
AcDbEntity
  8
0
100
AcDbLine
 62
7
  6
CONTINUOUS
 10
183.4922062866
 20
153.3450778595
 11
183.3964616171
 21
152.8763277701
  0
LINE
  5
39E
100
AcDbEntity
  8
0
100
AcDbLine
 62
7
  6
CONTINUOUS
 10
183.9709296338
 20
161.3138277701
 11
184.0666743032
 21
161.6888274125
  0
LINE
  5
39F
100
AcDbEntity
  8
0
100
AcDbLine
 62
7
  6
CONTINUOUS
 10
183.8751849643
 20
152.9700776807
 11
183.9709296338
 21
153.2513276807
  0
LINE
  5
3A0
100
AcDbEntity
  8
0
100
AcDbLine
 62
7
  6
CONTINUOUS
 10
183.6836956255
 20
162.1575777701
 11
183.4922062866
 21
161.7825781277
  0
LINE
  5
3A1
100
AcDbEntity
  8
0
100
AcDbLine
 62
7
  6
CONTINUOUS
 10
184.0666743032
 20
161.6888274125
 11
184.2581636421
 21
161.9700774125
  0
LINE
  5
3A2
100
AcDbEntity
  8
0
100
AcDbLine
 62
7
  6
CONTINUOUS
 10
184.0666743032
 20
162.5325774125
 11
183.6836956255
 21
162.1575777701
  0
LINE
  5
3A3
100
AcDbEntity
  8
0
100
AcDbLine
 62
7
  6
CONTINUOUS
 10
213.7227116171
 20
129.8154767055
 11
213.9310453478
 21
129.8686681885
  0
LINE
  5
3A4
100
AcDbEntity
  8
0
100
AcDbLine
 62
7
  6
CONTINUOUS
 10
215.5977116171
 20
131.9431362871
 11
215.8060453478
 21
131.9963277701
  0
LINE
  5
3A5
100
AcDbEntity
  8
0
100
AcDbLine
 62
7
  6
CONTINUOUS
 10
205.7539616171
 20
129.8154767055
 11
205.9622947518
 21
129.8686681885
  0
LINE
  5
3A6
100
AcDbEntity
  8
0
100
AcDbLine
 62
7
  6
CONTINUOUS
 10
213.7227116171
 20
129.4963277701
 11
213.9831278865
 21
129.5495192578
  0
LINE
  5
3A7
100
AcDbEntity
  8
0
100
AcDbLine
 62
7
  6
CONTINUOUS
 10
203.0935449753
 20
127.517178872
 11
203.3539616171
 21
127.570370355
  0
LINE
  5
3A8
100
AcDbEntity
  8
0
100
AcDbLine
 62
7
  6
CONTINUOUS
 10
205.7539616171
 20
129.4963277701
 11
206.0143784825
 21
129.5495192578
  0
LINE
  5
3A9
100
AcDbEntity
  8
0
100
AcDbLine
 62
7
  6
CONTINUOUS
 10
209.2956278865
 20
130.6133490626
 11
209.5560453478
 21
130.6665405456
  0
LINE
  5
3AA
100
AcDbEntity
  8
0
100
AcDbLine
 62
7
  6
CONTINUOUS
 10
203.3581284825
 20
129.4963277701
 11
203.6185447518
 21
129.5495192578
  0
LINE
  5
3AB
100
AcDbEntity
  8
0
100
AcDbLine
 62
7
  6
CONTINUOUS
 10
203.0414616171
 20
127.7831362871
 11
203.3539616171
 21
127.8363277701
  0
LINE
  5
3AC
100
AcDbEntity
  8
0
100
AcDbLine
 62
7
  6
CONTINUOUS
 10
198.1497949753
 20
129.4963277701
 11
198.5664616171
 21
129.4963277701
  0
LINE
  5
3AD
100
AcDbEntity
  8
0
100
AcDbLine
 62
7
  6
CONTINUOUS
 10
199.8164616171
 20
129.4963277701
 11
201.6914616171
 21
129.4963277701
  0
LINE
  5
3AE
100
AcDbEntity
  8
0
100
AcDbLine
 62
7
  6
CONTINUOUS
 10
202.1081281845
 20
129.4963277701
 11
203.3581284825
 21
129.4963277701
  0
LINE
  5
3AF
100
AcDbEntity
  8
0
100
AcDbLine
 62
7
  6
CONTINUOUS
 10
205.2852116171
 20
129.4963277701
 11
205.7539616171
 21
129.4963277701
  0
LINE
  5
3B0
100
AcDbEntity
  8
0
100
AcDbLine
 62
7
  6
CONTINUOUS
 10
208.0456278865
 20
129.4963277701
 11
208.3581278865
 21
129.4963277701
  0
LINE
  5
3B1
100
AcDbEntity
  8
0
100
AcDbLine
 62
7
  6
CONTINUOUS
 10
210.3893778865
 20
129.4963277701
 11
212.2643778865
 21
129.4963277701
  0
LINE
  5
3B2
100
AcDbEntity
  8
0
100
AcDbLine
 62
7
  6
CONTINUOUS
 10
213.5143778865
 20
129.4963277701
 11
213.7227116171
 21
129.4963277701
  0
LINE
  5
3B3
100
AcDbEntity
  8
0
100
AcDbLine
 62
7
  6
CONTINUOUS
 10
215.7018778865
 20
129.4963277701
 11
216.1185453478
 21
129.4963277701
  0
LINE
  5
3B4
100
AcDbEntity
  8
0
100
AcDbLine
 62
7
  6
CONTINUOUS
 10
200.1289616171
 20
129.8154767055
 11
201.6914616171
 21
129.8154767055
  0
LINE
  5
3B5
100
AcDbEntity
  8
0
100
AcDbLine
 62
7
  6
CONTINUOUS
 10
202.4206284825
 20
129.8154767055
 11
203.4102116171
 21
129.8154767055
  0
LINE
  5
3B6
100
AcDbEntity
  8
0
100
AcDbLine
 62
7
  6
CONTINUOUS
 10
205.2852116171
 20
129.8154767055
 11
205.7539616171
 21
129.8154767055
  0
LINE
  5
3B7
100
AcDbEntity
  8
0
100
AcDbLine
 62
7
  6
CONTINUOUS
 10
210.7018778865
 20
129.8154767055
 11
212.2643778865
 21
129.8154767055
  0
LINE
  5
3B8
100
AcDbEntity
  8
0
100
AcDbLine
 62
7
  6
CONTINUOUS
 10
213.5143778865
 20
129.8154767055
 11
213.7227116171
 21
129.8154767055
  0
LINE
  5
3B9
100
AcDbEntity
  8
0
100
AcDbLine
 62
7
  6
CONTINUOUS
 10
215.7018778865
 20
129.8154767055
 11
216.1185453478
 21
129.8154767055
  0
LINE
  5
3BA
100
AcDbEntity
  8
0
100
AcDbLine
 62
7
  6
CONTINUOUS
 10
214.9727116171
 20
130.1878171239
 11
215.2852116171
 21
130.1878171239
  0
LINE
  5
3BB
100
AcDbEntity
  8
0
100
AcDbLine
 62
7
  6
CONTINUOUS
 10
206.8997947518
 20
130.400583056
 11
207.6289616171
 21
130.400583056
  0
LINE
  5
3BC
100
AcDbEntity
  8
0
100
AcDbLine
 62
7
  6
CONTINUOUS
 10
205.7018784825
 20
130.5601575795
 11
206.1706284825
 21
130.5601575795
  0
LINE
  5
3BD
100
AcDbEntity
  8
0
100
AcDbLine
 62
7
  6
CONTINUOUS
 10
202.4206284825
 20
130.6133490626
 11
203.4102116171
 21
130.6133490626
  0
LINE
  5
3BE
100
AcDbEntity
  8
0
100
AcDbLine
 62
7
  6
CONTINUOUS
 10
208.3581278865
 20
130.6133490626
 11
209.2956278865
 21
130.6133490626
  0
LINE
  5
3BF
100
AcDbEntity
  8
0
100
AcDbLine
 62
7
  6
CONTINUOUS
 10
215.8060453478
 20
130.6133490626
 11
216.1185453478
 21
130.6133490626
  0
LINE
  5
3C0
100
AcDbEntity
  8
0
100
AcDbLine
 62
7
  6
CONTINUOUS
 10
206.8997947518
 20
130.6665405456
 11
207.6289616171
 21
130.6665405456
  0
LINE
  5
3C1
100
AcDbEntity
  8
0
100
AcDbLine
 62
7
  6
CONTINUOUS
 10
205.7018784825
 20
130.8793064777
 11
206.4831284825
 21
130.8793064777
  0
LINE
  5
3C2
100
AcDbEntity
  8
0
100
AcDbLine
 62
7
  6
CONTINUOUS
 10
202.4206284825
 20
130.9324979607
 11
203.4102116171
 21
130.9324979607
  0
LINE
  5
3C3
100
AcDbEntity
  8
0
100
AcDbLine
 62
7
  6
CONTINUOUS
 10
208.3581278865
 20
130.9324979607
 11
209.3477116171
 21
130.9324979607
  0
LINE
  5
3C4
100
AcDbEntity
  8
0
100
AcDbLine
 62
7
  6
CONTINUOUS
 10
215.8060453478
 20
130.9324979607
 11
216.1185453478
 21
130.9324979607
  0
LINE
  5
3C5
100
AcDbEntity
  8
0
100
AcDbLine
 62
7
  6
CONTINUOUS
 10
206.1706284825
 20
131.3580298249
 11
206.4831284825
 21
131.3580298249
  0
LINE
  5
3C6
100
AcDbEntity
  8
0
100
AcDbLine
 62
7
  6
CONTINUOUS
 10
216.4310453478
 20
131.4112214569
 11
216.7435453478
 21
131.4112214569
  0
LINE
  5
3C7
100
AcDbEntity
  8
0
100
AcDbLine
 62
7
  6
CONTINUOUS
 10
202.4206284825
 20
131.677178872
 11
203.4102116171
 21
131.677178872
  0
LINE
  5
3C8
100
AcDbEntity
  8
0
100
AcDbLine
 62
7
  6
CONTINUOUS
 10
205.2852116171
 20
131.677178872
 11
205.7539616171
 21
131.677178872
  0
LINE
  5
3C9
100
AcDbEntity
  8
0
100
AcDbLine
 62
7
  6
CONTINUOUS
 10
215.8060453478
 20
131.677178872
 11
216.1185453478
 21
131.677178872
  0
LINE
  5
3CA
100
AcDbEntity
  8
0
100
AcDbLine
 62
7
  6
CONTINUOUS
 10
208.3581278865
 20
131.730370355
 11
209.3477116171
 21
131.730370355
  0
LINE
  5
3CB
100
AcDbEntity
  8
0
100
AcDbLine
 62
7
  6
CONTINUOUS
 10
197.3164616171
 20
131.9963277701
 11
197.6289616171
 21
131.9963277701
  0
LINE
  5
3CC
100
AcDbEntity
  8
0
100
AcDbLine
 62
7
  6
CONTINUOUS
 10
199.0872949008
 20
131.9963277701
 11
199.3997949008
 21
131.9963277701
  0
LINE
  5
3CD
100
AcDbEntity
  8
0
100
AcDbLine
 62
7
  6
CONTINUOUS
 10
199.8164616171
 20
131.9963277701
 11
200.1289616171
 21
131.9963277701
  0
LINE
  5
3CE
100
AcDbEntity
  8
0
100
AcDbLine
 62
7
  6
CONTINUOUS
 10
202.1081281845
 20
131.9963277701
 11
203.3581284825
 21
131.9963277701
  0
LINE
  5
3CF
100
AcDbEntity
  8
0
100
AcDbLine
 62
7
  6
CONTINUOUS
 10
205.2852116171
 20
131.9963277701
 11
205.7539616171
 21
131.9963277701
  0
LINE
  5
3D0
100
AcDbEntity
  8
0
100
AcDbLine
 62
7
  6
CONTINUOUS
 10
208.0456278865
 20
131.9963277701
 11
209.2956278865
 21
131.9963277701
  0
LINE
  5
3D1
100
AcDbEntity
  8
0
100
AcDbLine
 62
7
  6
CONTINUOUS
 10
210.3893778865
 20
131.9963277701
 11
210.7018778865
 21
131.9963277701
  0
LINE
  5
3D2
100
AcDbEntity
  8
0
100
AcDbLine
 62
7
  6
CONTINUOUS
 10
212.6810453478
 20
131.9963277701
 11
212.9935453478
 21
131.9963277701
  0
LINE
  5
3D3
100
AcDbEntity
  8
0
100
AcDbLine
 62
7
  6
CONTINUOUS
 10
214.2435453478
 20
131.9963277701
 11
214.5560453478
 21
131.9963277701
  0
LINE
  5
3D4
100
AcDbEntity
  8
0
100
AcDbLine
 62
7
  6
CONTINUOUS
 10
215.8060453478
 20
131.9963277701
 11
216.0664616171
 21
131.9963277701
  0
LINE
  5
3D5
100
AcDbEntity
  8
0
100
AcDbLine
 62
7
  6
CONTINUOUS
 10
209.0310447518
 20
127.570370355
 11
209.2914616171
 21
127.517178872
  0
LINE
  5
3D6
100
AcDbEntity
  8
0
100
AcDbLine
 62
7
  6
CONTINUOUS
 10
205.0247947518
 20
129.5495192578
 11
205.2852116171
 21
129.4963277701
  0
LINE
  5
3D7
100
AcDbEntity
  8
0
100
AcDbLine
 62
7
  6
CONTINUOUS
 10
213.2539616171
 20
129.5495192578
 11
213.5143778865
 21
129.4963277701
  0
LINE
  5
3D8
100
AcDbEntity
  8
0
100
AcDbLine
 62
7
  6
CONTINUOUS
 10
203.3581284825
 20
131.9963277701
 11
203.6185447518
 21
131.9431362871
  0
LINE
  5
3D9
100
AcDbEntity
  8
0
100
AcDbLine
 62
7
  6
CONTINUOUS
 10
215.4414616171
 20
129.5495192578
 11
215.7018778865
 21
129.4963277701
  0
LINE
  5
3DA
100
AcDbEntity
  8
0
100
AcDbLine
 62
7
  6
CONTINUOUS
 10
205.0768784825
 20
129.8686681885
 11
205.2852116171
 21
129.8154767055
  0
LINE
  5
3DB
100
AcDbEntity
  8
0
100
AcDbLine
 62
7
  6
CONTINUOUS
 10
206.7914616171
 20
127.570370355
 11
206.9477116171
 21
127.517178872
  0
LINE
  5
3DC
100
AcDbEntity
  8
0
100
AcDbLine
 62
7
  6
CONTINUOUS
 10
203.4102116171
 20
130.6133490626
 11
203.5664616171
 21
130.5601575795
  0
LINE
  5
3DD
100
AcDbEntity
  8
0
100
AcDbLine
 62
7
  6
CONTINUOUS
 10
203.4102116171
 20
131.677178872
 11
203.5664616171
 21
131.623987389
  0
LINE
  5
3DE
100
AcDbEntity
  8
0
100
AcDbLine
 62
7
  6
CONTINUOUS
 10
209.4477116171
 20
126.6129235116
 11
209.7081284825
 21
126.5065405456
  0
LINE
  5
3DF
100
AcDbEntity
  8
0
100
AcDbLine
 62
7
  6
CONTINUOUS
 10
208.3018784825
 20
125.4959022378
 11
208.5102116171
 21
125.3895192578
  0
LINE
  5
3E0
100
AcDbEntity
  8
0
100
AcDbLine
 62
7
  6
CONTINUOUS
 10
208.4060447518
 20
125.7086681885
 11
208.5102116171
 21
125.6554767055
  0
LINE
  5
3E1
100
AcDbEntity
  8
0
100
AcDbLine
 62
7
  6
CONTINUOUS
 10
204.8164616171
 20
129.6559022378
 11
205.0247947518
 21
129.5495192578
  0
LINE
  5
3E2
100
AcDbEntity
  8
0
100
AcDbLine
 62
7
  6
CONTINUOUS
 10
209.3435447518
 20
127.7831362871
 11
209.5518784825
 21
127.6767533211
  0
LINE
  5
3E3
100
AcDbEntity
  8
0
100
AcDbLine
 62
7
  6
CONTINUOUS
 10
203.7227116171
 20
130.7729235116
 11
203.8268784825
 21
130.7197320286
  0
LINE
  5
3E4
100
AcDbEntity
  8
0
100
AcDbLine
 62
7
  6
CONTINUOUS
 10
206.0102116171
 20
125.5490937208
 11
206.2706281845
 21
125.3895192578
  0
LINE
  5
3E5
100
AcDbEntity
  8
0
100
AcDbLine
 62
7
  6
CONTINUOUS
 10
203.6664616171
 20
127.7831362871
 11
203.9268783335
 21
127.623561838
  0
LINE
  5
3E6
100
AcDbEntity
  8
0
100
AcDbLine
 62
7
  6
CONTINUOUS
 10
207.0518781845
 20
126.8788809267
 11
207.3122950498
 21
126.7193064777
  0
LINE
  5
3E7
100
AcDbEntity
  8
0
100
AcDbLine
 62
7
  6
CONTINUOUS
 10
206.9997950498
 20
127.7831362871
 11
207.2602116171
 21
127.623561838
  0
LINE
  5
3E8
100
AcDbEntity
  8
0
100
AcDbLine
 62
7
  6
CONTINUOUS
 10
206.1664616171
 20
125.7618596715
 11
206.3227116171
 21
125.6554767055
  0
LINE
  5
3E9
100
AcDbEntity
  8
0
100
AcDbLine
 62
7
  6
CONTINUOUS
 10
203.614378259
 20
127.517178872
 11
203.7706283335
 21
127.4107959059
  0
LINE
  5
3EA
100
AcDbEntity
  8
0
100
AcDbLine
 62
7
  6
CONTINUOUS
 10
208.1456284825
 20
125.6022852225
 11
208.3018784825
 21
125.4959022378
  0
LINE
  5
3EB
100
AcDbEntity
  8
0
100
AcDbLine
 62
7
  6
CONTINUOUS
 10
206.9997950498
 20
126.6129235116
 11
207.1560450498
 21
126.5065405456
  0
LINE
  5
3EC
100
AcDbEntity
  8
0
100
AcDbLine
 62
7
  6
CONTINUOUS
 10
206.9477116171
 20
127.517178872
 11
207.1039616171
 21
127.4107959059
  0
LINE
  5
3ED
100
AcDbEntity
  8
0
100
AcDbLine
 62
7
  6
CONTINUOUS
 10
202.6247949567
 20
125.7086681885
 11
202.7810449381
 21
125.5490937208
  0
LINE
  5
3EE
100
AcDbEntity
  8
0
100
AcDbLine
 62
7
  6
CONTINUOUS
 10
185.8858232907
 20
151.1888277701
 11
185.8858232907
 21
152.7825777254
  0
LINE
  5
3EF
100
AcDbEntity
  8
0
100
AcDbLine
 62
7
  6
CONTINUOUS
 10
187.3219935335
 20
161.3138277701
 11
187.3219935335
 21
159.6263277701
  0
LINE
  5
3F0
100
AcDbEntity
  8
0
100
AcDbLine
 62
7
  6
CONTINUOUS
 10
187.3219935335
 20
156.8138277701
 11
187.3219935335
 21
156.4388275913
  0
LINE
  5
3F1
100
AcDbEntity
  8
0
100
AcDbLine
 62
7
  6
CONTINUOUS
 10
187.8964616171
 20
150.6263277701
 11
187.8964616171
 21
151.1888277701
  0
LINE
  5
3F2
100
AcDbEntity
  8
0
100
AcDbLine
 62
7
  6
CONTINUOUS
 10
187.8964616171
 20
153.5325776807
 11
187.8964616171
 21
154.1888278595
  0
LINE
  5
3F3
100
AcDbEntity
  8
0
100
AcDbLine
 62
7
  6
CONTINUOUS
 10
187.8964616171
 20
156.4388275913
 11
187.8964616171
 21
156.8138277701
  0
LINE
  5
3F4
100
AcDbEntity
  8
0
100
AcDbLine
 62
7
  6
CONTINUOUS
 10
187.8964616171
 20
159.0638277701
 11
187.8964616171
 21
161.3138277701
  0
LINE
  5
3F5
100
AcDbEntity
  8
0
100
AcDbLine
 62
7
  6
CONTINUOUS
 10
188.4922129282
 20
169.2263277701
 11
188.4922129282
 21
144.2263277701
  0
LINE
  5
3F6
100
AcDbEntity
  8
0
100
AcDbLine
 62
7
  6
CONTINUOUS
 10
187.8007169393
 20
155.9700777701
 11
187.8964616171
 21
156.4388275913
  0
LINE
  5
3F7
100
AcDbEntity
  8
0
100
AcDbLine
 62
7
  6
CONTINUOUS
 10
187.3219935335
 20
156.4388275913
 11
187.226248864
 21
156.0638279489
  0
LINE
  5
3F8
100
AcDbEntity
  8
0
100
AcDbLine
 62
7
  6
CONTINUOUS
 10
187.6092275753
 20
155.5950775913
 11
187.8007169393
 21
155.9700777701
  0
LINE
  5
3F9
100
AcDbEntity
  8
0
100
AcDbLine
 62
7
  6
CONTINUOUS
 10
187.226248864
 20
156.0638279489
 11
187.0347594581
 21
155.7825779489
  0
LINE
  5
3FA
100
AcDbEntity
  8
0
100
AcDbLine
 62
7
  6
CONTINUOUS
 10
183.7794402949
 20
153.7200777701
 11
183.4922062866
 21
153.3450778595
  0
LINE
  5
3FB
100
AcDbEntity
  8
0
100
AcDbLine
 62
7
  6
CONTINUOUS
 10
184.2581636421
 20
161.9700774125
 11
184.5453979186
 21
162.1575777701
  0
LINE
  5
3FC
100
AcDbEntity
  8
0
100
AcDbLine
 62
7
  6
CONTINUOUS
 10
184.449652981
 20
162.7200777701
 11
184.0666743032
 21
162.5325774125
  0
LINE
  5
3FD
100
AcDbEntity
  8
0
100
AcDbLine
 62
7
  6
CONTINUOUS
 10
205.0768784825
 20
131.623987389
 11
205.2852116171
 21
131.677178872
  0
LINE
  5
3FE
100
AcDbEntity
  8
0
100
AcDbLine
 62
7
  6
CONTINUOUS
 10
209.9214616171
 20
134.1893064926
 11
210.1714613787
 21
134.2531362722
  0
LINE
  5
3FF
100
AcDbEntity
  8
0
100
AcDbLine
 62
7
  6
CONTINUOUS
 10
206.9214616171
 20
134.1893064926
 11
207.1714617364
 21
134.2531362722
  0
LINE
  5
400
100
AcDbEntity
  8
0
100
AcDbLine
 62
7
  6
CONTINUOUS
 10
205.0247947518
 20
131.9431362871
 11
205.2852116171
 21
131.9963277701
  0
LINE
  5
401
100
AcDbEntity
  8
0
100
AcDbLine
 62
7
  6
CONTINUOUS
 10
209.9214616171
 20
133.8063277701
 11
210.2339618556
 21
133.8701575553
  0
LINE
  5
402
100
AcDbEntity
  8
0
100
AcDbLine
 62
7
  6
CONTINUOUS
 10
206.9214616171
 20
133.8063277701
 11
207.2339614979
 21
133.8701575553
  0
LINE
  5
403
100
AcDbEntity
  8
0
100
AcDbLine
 62
7
  6
CONTINUOUS
 10
202.7964616171
 20
133.8063277701
 11
203.1714616171
 21
133.8063277701
  0
LINE
  5
404
100
AcDbEntity
  8
0
100
AcDbLine
 62
7
  6
CONTINUOUS
 10
204.7339615575
 20
133.8063277701
 11
205.1714616768
 21
133.8063277701
  0
LINE
  5
405
100
AcDbEntity
  8
0
100
AcDbLine
 62
7
  6
CONTINUOUS
 10
206.6714614979
 20
133.8063277701
 11
206.9214616171
 21
133.8063277701
  0
LINE
  5
406
100
AcDbEntity
  8
0
100
AcDbLine
 62
7
  6
CONTINUOUS
 10
208.4214616171
 20
133.8063277701
 11
209.9214616171
 21
133.8063277701
  0
LINE
  5
407
100
AcDbEntity
  8
0
100
AcDbLine
 62
7
  6
CONTINUOUS
 10
206.6714614979
 20
134.1893064926
 11
206.9214616171
 21
134.1893064926
  0
LINE
  5
408
100
AcDbEntity
  8
0
100
AcDbLine
 62
7
  6
CONTINUOUS
 10
208.7964616171
 20
134.1893064926
 11
209.9214616171
 21
134.1893064926
  0
LINE
  5
409
100
AcDbEntity
  8
0
100
AcDbLine
 62
7
  6
CONTINUOUS
 10
203.1714616171
 20
135.1467533211
 11
204.2339615873
 21
135.1467533211
  0
LINE
  5
40A
100
AcDbEntity
  8
0
100
AcDbLine
 62
7
  6
CONTINUOUS
 10
203.1714616171
 20
135.5297319988
 11
204.3589615575
 21
135.5297319988
  0
LINE
  5
40B
100
AcDbEntity
  8
0
100
AcDbLine
 62
7
  6
CONTINUOUS
 10
205.7539616171
 20
131.9963277701
 11
206.0143784825
 21
131.9431362871
  0
LINE
  5
40C
100
AcDbEntity
  8
0
100
AcDbLine
 62
7
  6
CONTINUOUS
 10
209.2956278865
 20
131.9963277701
 11
209.5560453478
 21
131.9431362871
  0
LINE
  5
40D
100
AcDbEntity
  8
0
100
AcDbLine
 62
7
  6
CONTINUOUS
 10
216.1185453478
 20
130.9324979607
 11
216.3789616171
 21
130.8793064777
  0
LINE
  5
40E
100
AcDbEntity
  8
0
100
AcDbLine
 62
7
  6
CONTINUOUS
 10
206.3589616171
 20
133.8701575553
 11
206.6714614979
 21
133.8063277701
  0
LINE
  5
40F
100
AcDbEntity
  8
0
100
AcDbLine
 62
7
  6
CONTINUOUS
 10
216.0664616171
 20
131.9963277701
 11
216.3268778865
 21
131.9431362871
  0
LINE
  5
410
100
AcDbEntity
  8
0
100
AcDbLine
 62
7
  6
CONTINUOUS
 10
205.7539616171
 20
131.677178872
 11
205.9622947518
 21
131.623987389
  0
LINE
  5
411
100
AcDbEntity
  8
0
100
AcDbLine
 62
7
  6
CONTINUOUS
 10
213.3060453478
 20
129.8686681885
 11
213.5143778865
 21
129.8154767055
  0
LINE
  5
412
100
AcDbEntity
  8
0
100
AcDbLine
 62
7
  6
CONTINUOUS
 10
215.4935453478
 20
129.8686681885
 11
215.7018778865
 21
129.8154767055
  0
LINE
  5
413
100
AcDbEntity
  8
0
100
AcDbLine
 62
7
  6
CONTINUOUS
 10
215.5977116171
 20
130.6665405456
 11
215.8060453478
 21
130.6133490626
  0
LINE
  5
414
100
AcDbEntity
  8
0
100
AcDbLine
 62
7
  6
CONTINUOUS
 10
216.1185453478
 20
130.6133490626
 11
216.3268778865
 21
130.5601575795
  0
LINE
  5
415
100
AcDbEntity
  8
0
100
AcDbLine
 62
7
  6
CONTINUOUS
 10
206.4214617364
 20
134.2531362722
 11
206.6714614979
 21
134.1893064926
  0
LINE
  5
416
100
AcDbEntity
  8
0
100
AcDbLine
 62
7
  6
CONTINUOUS
 10
209.3477116171
 20
131.730370355
 11
209.5039616171
 21
131.677178872
  0
LINE
  5
417
100
AcDbEntity
  8
0
100
AcDbLine
 62
7
  6
CONTINUOUS
 10
215.6497953478
 20
130.9856894437
 11
215.8060453478
 21
130.9324979607
  0
LINE
  5
418
100
AcDbEntity
  8
0
100
AcDbLine
 62
7
  6
CONTINUOUS
 10
206.0143784825
 20
131.9431362871
 11
206.2227116171
 21
131.8367533211
  0
LINE
  5
419
100
AcDbEntity
  8
0
100
AcDbLine
 62
7
  6
CONTINUOUS
 10
213.0456278865
 20
129.6559022378
 11
213.2539616171
 21
129.5495192578
  0
LINE
  5
41A
100
AcDbEntity
  8
0
100
AcDbLine
 62
7
  6
CONTINUOUS
 10
209.3435447518
 20
126.4533490626
 11
209.4997947518
 21
126.3469660965
  0
LINE
  5
41B
100
AcDbEntity
  8
0
100
AcDbLine
 62
7
  6
CONTINUOUS
 10
210.8018784825
 20
125.5490937208
 11
210.9581284825
 21
125.4427107455
  0
LINE
  5
41C
100
AcDbEntity
  8
0
100
AcDbLine
 62
7
  6
CONTINUOUS
 10
211.0102116171
 20
125.7086681885
 11
211.1664616171
 21
125.6022852225
  0
LINE
  5
41D
100
AcDbEntity
  8
0
100
AcDbLine
 62
7
  6
CONTINUOUS
 10
204.9206284825
 20
129.9750511918
 11
205.0768784825
 21
129.8686681885
  0
LINE
  5
41E
100
AcDbEntity
  8
0
100
AcDbLine
 62
7
  6
CONTINUOUS
 10
209.2914616171
 20
127.517178872
 11
209.4477116171
 21
127.4107959059
  0
LINE
  5
41F
100
AcDbEntity
  8
0
100
AcDbLine
 62
7
  6
CONTINUOUS
 10
205.9622947518
 20
131.623987389
 11
206.1185447518
 21
131.5176044229
  0
LINE
  5
420
100
AcDbEntity
  8
0
100
AcDbLine
 62
7
  6
CONTINUOUS
 10
203.6185447518
 20
131.9431362871
 11
203.8268784825
 21
131.783561838
  0
LINE
  5
421
100
AcDbEntity
  8
0
100
AcDbLine
 62
7
  6
CONTINUOUS
 10
203.9268783335
 20
127.623561838
 11
204.0831283335
 21
127.463987389
  0
LINE
  5
422
100
AcDbEntity
  8
0
100
AcDbLine
 62
7
  6
CONTINUOUS
 10
207.1560450498
 20
126.5065405456
 11
207.2602116171
 21
126.4001575795
  0
LINE
  5
423
100
AcDbEntity
  8
0
100
AcDbLine
 62
7
  6
CONTINUOUS
 10
207.3122950498
 20
126.7193064777
 11
207.4685447518
 21
126.5597320286
  0
LINE
  5
424
100
AcDbEntity
  8
0
100
AcDbLine
 62
7
  6
CONTINUOUS
 10
203.5664616171
 20
130.5601575795
 11
203.6706284825
 21
130.4537746135
  0
LINE
  5
425
100
AcDbEntity
  8
0
100
AcDbLine
 62
7
  6
CONTINUOUS
 10
208.3018784825
 20
125.8150511918
 11
208.4060447518
 21
125.7086681885
  0
LINE
  5
426
100
AcDbEntity
  8
0
100
AcDbLine
 62
7
  6
CONTINUOUS
 10
204.6081284825
 20
129.8686681885
 11
204.8164616171
 21
129.6559022378
  0
LINE
  5
427
100
AcDbEntity
  8
0
100
AcDbLine
 62
7
  6
CONTINUOUS
 10
202.7289616171
 20
126.0810086069
 11
202.9372949381
 21
125.7618596715
  0
LINE
  5
428
100
AcDbEntity
  8
0
100
AcDbLine
 62
7
  6
CONTINUOUS
 10
185.6943339519
 20
153.3450778595
 11
185.502844613
 21
153.7200777701
  0
LINE
  5
429
100
AcDbEntity
  8
0
100
AcDbLine
 62
7
  6
CONTINUOUS
 10
185.2156106047
 20
153.2513276807
 11
185.3113552741
 21
152.9700776807
  0
LINE
  5
42A
100
AcDbEntity
  8
0
100
AcDbLine
 62
7
  6
CONTINUOUS
 10
187.226248864
 20
157.1888279489
 11
187.3219935335
 21
156.8138277701
  0
LINE
  5
42B
100
AcDbEntity
  8
0
100
AcDbLine
 62
7
  6
CONTINUOUS
 10
187.8964616171
 20
156.8138277701
 11
187.8007169393
 21
157.2825775913
  0
LINE
  5
42C
100
AcDbEntity
  8
0
100
AcDbLine
 62
7
  6
CONTINUOUS
 10
189.8464616171
 20
174.2263277701
 11
189.8464616171
 21
141.1764327512
  0
LINE
  5
42D
100
AcDbEntity
  8
RUNDUNGEN
100
AcDbLine
 62
7
  6
CONTINUOUS
 10
191.8464616171
 20
122.5263277701
 11
191.8464616171
 21
139.5263277701
  0
LINE
  5
42E
100
AcDbEntity
  8
0
100
AcDbLine
 62
7
  6
CONTINUOUS
 10
191.8464616171
 20
122.5263277701
 11
191.8464616171
 21
139.5263277701
  0
LINE
  5
42F
100
AcDbEntity
  8
0
100
AcDbLine
 62
7
  6
CONTINUOUS
 10
183.9709296338
 20
153.2513276807
 11
184.1624189726
 21
153.4388277701
  0
LINE
  5
430
100
AcDbEntity
  8
0
100
AcDbLine
 62
7
  6
CONTINUOUS
 10
187.226248864
 20
155.2200779489
 11
187.6092275753
 21
155.5950775913
  0
LINE
  5
431
100
AcDbEntity
  8
0
100
AcDbLine
 62
7
  6
CONTINUOUS
 10
208.7964616171
 20
136.4233490924
 11
209.9214616171
 21
136.4233490924
  0
LINE
  5
432
100
AcDbEntity
  8
0
100
AcDbLine
 62
7
  6
CONTINUOUS
 10
203.1714616171
 20
136.487178872
 11
204.3589615575
 21
136.487178872
  0
LINE
  5
433
100
AcDbEntity
  8
0
100
AcDbLine
 62
7
  6
CONTINUOUS
 10
202.7964616171
 20
136.8063277701
 11
204.2964616171
 21
136.8063277701
  0
LINE
  5
434
100
AcDbEntity
  8
0
100
AcDbLine
 62
7
  6
CONTINUOUS
 10
205.6714615575
 20
136.8063277701
 11
206.0464617364
 21
136.8063277701
  0
LINE
  5
435
100
AcDbEntity
  8
0
100
AcDbLine
 62
7
  6
CONTINUOUS
 10
207.5464617364
 20
136.8063277701
 11
207.9214617364
 21
136.8063277701
  0
LINE
  5
436
100
AcDbEntity
  8
0
100
AcDbLine
 62
7
  6
CONTINUOUS
 10
208.4214616171
 20
136.8063277701
 11
209.9214616171
 21
136.8063277701
  0
LINE
  5
437
100
AcDbEntity
  8
0
100
AcDbLine
 62
7
  6
CONTINUOUS
 10
204.2964616171
 20
136.8063277701
 11
204.6089616768
 21
136.7424979905
  0
LINE
  5
438
100
AcDbEntity
  8
0
100
AcDbLine
 62
7
  6
CONTINUOUS
 10
209.9214616171
 20
136.8063277701
 11
210.2339618556
 21
136.7424979905
  0
LINE
  5
439
100
AcDbEntity
  8
0
100
AcDbLine
 62
7
  6
CONTINUOUS
 10
209.9214616171
 20
136.4233490924
 11
210.1714613787
 21
136.3595193127
  0
LINE
  5
43A
100
AcDbEntity
  8
0
100
AcDbLine
 62
7
  6
CONTINUOUS
 10
216.1185453478
 20
131.677178872
 11
216.2747953478
 21
131.623987389
  0
LINE
  5
43B
100
AcDbEntity
  8
0
100
AcDbLine
 62
7
  6
CONTINUOUS
 10
204.3589615575
 20
136.487178872
 11
204.5464615575
 21
136.4233490924
  0
LINE
  5
43C
100
AcDbEntity
  8
0
100
AcDbLine
 62
7
  6
CONTINUOUS
 10
206.1089614979
 20
133.9978171313
 11
206.3589616171
 21
133.8701575553
  0
LINE
  5
43D
100
AcDbEntity
  8
0
100
AcDbLine
 62
7
  6
CONTINUOUS
 10
215.3893778865
 20
130.7729235116
 11
215.5977116171
 21
130.6665405456
  0
LINE
  5
43E
100
AcDbEntity
  8
0
100
AcDbLine
 62
7
  6
CONTINUOUS
 10
216.3789616171
 20
130.8793064777
 11
216.5872953478
 21
130.7729235116
  0
LINE
  5
43F
100
AcDbEntity
  8
0
100
AcDbLine
 62
7
  6
CONTINUOUS
 10
215.1810453478
 20
129.7090937208
 11
215.4414616171
 21
129.5495192578
  0
LINE
  5
440
100
AcDbEntity
  8
0
100
AcDbLine
 62
7
  6
CONTINUOUS
 10
206.2339617364
 20
134.3807958761
 11
206.4214617364
 21
134.2531362722
  0
LINE
  5
441
100
AcDbEntity
  8
0
100
AcDbLine
 62
7
  6
CONTINUOUS
 10
213.1497953478
 20
129.9750511918
 11
213.3060453478
 21
129.8686681885
  0
LINE
  5
442
100
AcDbEntity
  8
0
100
AcDbLine
 62
7
  6
CONTINUOUS
 10
209.5560453478
 20
131.9431362871
 11
209.7643778865
 21
131.783561838
  0
LINE
  5
443
100
AcDbEntity
  8
0
100
AcDbLine
 62
7
  6
CONTINUOUS
 10
204.6089616768
 20
136.7424979905
 11
204.8589616171
 21
136.5510086516
  0
LINE
  5
444
100
AcDbEntity
  8
0
100
AcDbLine
 62
7
  6
CONTINUOUS
 10
185.0241212658
 20
153.4388277701
 11
185.2156106047
 21
153.2513276807
  0
LINE
  5
445
100
AcDbEntity
  8
0
100
AcDbLine
 62
7
  6
CONTINUOUS
 10
203.5664616171
 20
131.623987389
 11
203.6706284825
 21
131.5176044229
  0
LINE
  5
446
100
AcDbEntity
  8
0
100
AcDbLine
 62
7
  6
CONTINUOUS
 10
209.5518784825
 20
127.6767533211
 11
209.7602116171
 21
127.463987389
  0
LINE
  5
447
100
AcDbEntity
  8
0
100
AcDbLine
 62
7
  6
CONTINUOUS
 10
206.2227116171
 20
131.8367533211
 11
206.4310447518
 21
131.623987389
  0
LINE
  5
448
100
AcDbEntity
  8
0
100
AcDbLine
 62
7
  6
CONTINUOUS
 10
205.8589617364
 20
134.2531362722
 11
206.1089614979
 21
133.9978171313
  0
LINE
  5
449
100
AcDbEntity
  8
0
100
AcDbLine
 62
7
  6
CONTINUOUS
 10
205.8539616171
 20
125.7618596715
 11
206.0102116171
 21
125.5490937208
  0
LINE
  5
44A
100
AcDbEntity
  8
0
100
AcDbLine
 62
7
  6
CONTINUOUS
 10
203.8268784825
 20
130.7197320286
 11
203.9831284825
 21
130.5069660965
  0
LINE
  5
44B
100
AcDbEntity
  8
0
100
AcDbLine
 62
7
  6
CONTINUOUS
 10
203.8268784825
 20
131.783561838
 11
203.9831284825
 21
131.5707959059
  0
LINE
  5
44C
100
AcDbEntity
  8
0
100
AcDbLine
 62
7
  6
CONTINUOUS
 10
207.2602116171
 20
127.623561838
 11
207.4164616171
 21
127.4107959059
  0
LINE
  5
44D
100
AcDbEntity
  8
0
100
AcDbLine
 62
7
  6
CONTINUOUS
 10
187.0347594581
 20
157.4700779489
 11
187.226248864
 21
157.1888279489
  0
LINE
  5
44E
100
AcDbEntity
  8
0
100
AcDbLine
 62
7
  6
CONTINUOUS
 10
203.7706283335
 20
127.4107959059
 11
203.9789616171
 21
127.0916468588
  0
LINE
  5
44F
100
AcDbEntity
  8
0
100
AcDbLine
 62
7
  6
CONTINUOUS
 10
206.0622950498
 20
125.9214341578
 11
206.1664616171
 21
125.7618596715
  0
LINE
  5
450
100
AcDbEntity
  8
0
100
AcDbLine
 62
7
  6
CONTINUOUS
 10
204.8164616171
 20
130.1346256409
 11
204.9206284825
 21
129.9750511918
  0
LINE
  5
451
100
AcDbEntity
  8
0
100
AcDbLine
 62
7
  6
CONTINUOUS
 10
208.0414616171
 20
125.7618596715
 11
208.1456284825
 21
125.6022852225
  0
LINE
  5
452
100
AcDbEntity
  8
0
100
AcDbLine
 62
7
  6
CONTINUOUS
 10
187.8007169393
 20
157.2825775913
 11
187.6092275753
 21
157.6575777701
  0
LINE
  5
453
100
AcDbEntity
  8
0
100
AcDbLine
 62
7
  6
CONTINUOUS
 10
202.5206282869
 20
125.9214341578
 11
202.6247949567
 21
125.7086681885
  0
LINE
  5
454
100
AcDbEntity
  8
0
100
AcDbLine
 62
7
  6
CONTINUOUS
 10
197.6289616171
 20
131.9963277701
 11
198.358128259
 21
129.8154767055
  0
LINE
  5
455
100
AcDbEntity
  8
0
100
AcDbLine
 62
7
  6
CONTINUOUS
 10
197.3164616171
 20
131.9963277701
 11
198.1497949753
 21
129.4963277701
  0
LINE
  5
456
100
AcDbEntity
  8
0
100
AcDbLine
 62
7
  6
CONTINUOUS
 10
187.226248864
 20
161.6888274125
 11
187.3219935335
 21
161.3138277701
  0
LINE
  5
457
100
AcDbEntity
  8
0
100
AcDbLine
 62
7
  6
CONTINUOUS
 10
187.8964616171
 20
161.3138277701
 11
187.8007169393
 21
161.7825781277
  0
LINE
  5
458
100
AcDbEntity
  8
0
100
AcDbLine
 62
7
  6
CONTINUOUS
 10
194.8464616171
 20
145.5263277701
 11
194.8464616171
 21
141.2263277701
  0
LINE
  5
459
100
AcDbEntity
  8
0
100
AcDbLine
 62
7
  6
CONTINUOUS
 10
194.8464616171
 20
120.8263277701
 11
194.8464616171
 21
116.5263277701
  0
LINE
  5
45A
100
AcDbEntity
  8
0
100
AcDbLine
 62
7
  6
CONTINUOUS
 10
184.1624189726
 20
154.0013277701
 11
183.7794402949
 21
153.7200777701
  0
LINE
  5
45B
100
AcDbEntity
  8
0
100
AcDbLine
 62
7
  6
CONTINUOUS
 10
187.0347594581
 20
155.7825779489
 11
186.7475254498
 21
155.5950775913
  0
LINE
  5
45C
100
AcDbEntity
  8
RUNDUNGEN
100
AcDbLine
 62
7
  6
CONTINUOUS
 10
193.3464616171
 20
141.0263277701
 11
220.3464616171
 21
141.0263277701
  0
LINE
  5
45D
100
AcDbEntity
  8
0
100
AcDbLine
 62
7
  6
CONTINUOUS
 10
194.8464616171
 20
141.2263277701
 11
218.8464616171
 21
141.2263277701
  0
LINE
  5
45E
100
AcDbEntity
  8
0
100
AcDbLine
 62
7
  6
CONTINUOUS
 10
210.2339618556
 20
136.7424979905
 11
210.4839616171
 21
136.6148384312
  0
LINE
  5
45F
100
AcDbEntity
  8
0
100
AcDbLine
 62
7
  6
CONTINUOUS
 10
215.4935453478
 20
131.0920724097
 11
215.6497953478
 21
130.9856894437
  0
LINE
  5
460
100
AcDbEntity
  8
0
100
AcDbLine
 62
7
  6
CONTINUOUS
 10
216.3268778865
 20
130.5601575795
 11
216.4831278865
 21
130.4537746135
  0
LINE
  5
461
100
AcDbEntity
  8
0
100
AcDbLine
 62
7
  6
CONTINUOUS
 10
210.1714613787
 20
136.3595193127
 11
210.3589613787
 21
136.2318597535
  0
LINE
  5
462
100
AcDbEntity
  8
0
100
AcDbLine
 62
7
  6
CONTINUOUS
 10
185.502844613
 20
153.7200777701
 11
185.1198659352
 21
154.0013277701
  0
LINE
  5
463
100
AcDbEntity
  8
0
100
AcDbLine
 62
7
  6
CONTINUOUS
 10
216.3268778865
 20
131.9431362871
 11
216.5352116171
 21
131.783561838
  0
LINE
  5
464
100
AcDbEntity
  8
0
100
AcDbLine
 62
7
  6
CONTINUOUS
 10
204.5464615575
 20
136.4233490924
 11
204.6714616171
 21
136.2956895331
  0
LINE
  5
465
100
AcDbEntity
  8
0
100
AcDbLine
 62
7
  6
CONTINUOUS
 10
209.5039616171
 20
131.677178872
 11
209.6081278865
 21
131.5707959059
  0
LINE
  5
466
100
AcDbEntity
  8
0
100
AcDbLine
 62
7
  6
CONTINUOUS
 10
212.8372953478
 20
129.8686681885
 11
213.0456278865
 21
129.6559022378
  0
LINE
  5
467
100
AcDbEntity
  8
0
100
AcDbLine
 62
7
  6
CONTINUOUS
 10
204.8589616171
 20
136.5510086516
 11
205.0464616171
 21
136.2956895331
  0
LINE
  5
468
100
AcDbEntity
  8
0
100
AcDbLine
 62
7
  6
CONTINUOUS
 10
209.7643778865
 20
131.783561838
 11
209.9206278865
 21
131.5707959059
  0
LINE
  5
469
100
AcDbEntity
  8
0
100
AcDbLine
 62
7
  6
CONTINUOUS
 10
187.0347594581
 20
161.9700774125
 11
187.226248864
 21
161.6888274125
  0
LINE
  5
46A
100
AcDbEntity
  8
0
100
AcDbLine
 62
7
  6
CONTINUOUS
 10
207.1039616171
 20
127.4107959059
 11
207.2081281845
 21
127.2512214569
  0
LINE
  5
46B
100
AcDbEntity
  8
0
100
AcDbLine
 62
7
  6
CONTINUOUS
 10
209.7081284825
 20
126.5065405456
 11
209.8122947518
 21
126.3469660965
  0
LINE
  5
46C
100
AcDbEntity
  8
0
100
AcDbLine
 62
7
  6
CONTINUOUS
 10
209.4477116171
 20
127.4107959059
 11
209.5518784825
 21
127.2512214569
  0
LINE
  5
46D
100
AcDbEntity
  8
0
100
AcDbLine
 62
7
  6
CONTINUOUS
 10
206.1089614979
 20
134.572285215
 11
206.2339617364
 21
134.3807958761
  0
LINE
  5
46E
100
AcDbEntity
  8
0
100
AcDbLine
 62
7
  6
CONTINUOUS
 10
187.8007169393
 20
161.7825781277
 11
187.6092275753
 21
162.1575777701
  0
LINE
  5
46F
100
AcDbEntity
  8
0
100
AcDbLine
 62
7
  6
CONTINUOUS
 10
204.0831283335
 20
127.463987389
 11
204.1872949008
 21
127.2512214569
  0
LINE
  5
470
100
AcDbEntity
  8
0
100
AcDbLine
 62
7
  6
CONTINUOUS
 10
204.5039616171
 20
130.0814341578
 11
204.6081284825
 21
129.8686681885
  0
LINE
  5
471
100
AcDbEntity
  8
0
100
AcDbLine
 62
7
  6
CONTINUOUS
 10
208.2497947518
 20
125.9214341578
 11
208.3018784825
 21
125.8150511918
  0
LINE
  5
472
100
AcDbEntity
  8
0
100
AcDbLine
 62
7
  6
CONTINUOUS
 10
205.7497950498
 20
126.0278171239
 11
205.8539616171
 21
125.7618596715
  0
LINE
  5
473
100
AcDbEntity
  8
0
100
AcDbLine
 62
7
  6
CONTINUOUS
 10
202.468544952
 20
126.0810086069
 11
202.5206282869
 21
125.9214341578
  0
LINE
  5
474
100
AcDbEntity
  8
0
100
AcDbLine
 62
7
  6
CONTINUOUS
 10
204.1872949008
 20
127.2512214569
 11
204.2393783335
 21
127.0916468588
  0
LINE
  5
475
100
AcDbEntity
  8
0
100
AcDbLine
 62
7
  6
CONTINUOUS
 10
198.5964616171
 20
141.2263277701
 11
198.5964616171
 21
141.0263277701
  0
LINE
  5
476
100
AcDbEntity
  8
0
100
AcDbLine
 62
7
  6
CONTINUOUS
 10
198.5964616171
 20
121.0263277701
 11
198.5964616171
 21
120.8263277701
  0
LINE
  5
477
100
AcDbEntity
  8
0
100
AcDbLine
 62
7
  6
CONTINUOUS
 10
199.8164616171
 20
129.4963277701
 11
199.8164616171
 21
131.9963277701
  0
LINE
  5
478
100
AcDbEntity
  8
0
100
AcDbLine
 62
7
  6
CONTINUOUS
 10
186.8432701192
 20
155.0325778595
 11
187.226248864
 21
155.2200779489
  0
LINE
  5
479
100
AcDbEntity
  8
0
100
AcDbLine
 62
7
  6
CONTINUOUS
 10
187.8964616171
 20
154.1888278595
 11
185.6943339519
 21
153.3450778595
  0
LINE
  5
47A
100
AcDbEntity
  8
0
100
AcDbLine
 62
7
  6
CONTINUOUS
 10
184.449652981
 20
154.0950776807
 11
184.1624189726
 21
154.0013277701
  0
LINE
  5
47B
100
AcDbEntity
  8
0
100
AcDbLine
 62
7
  6
CONTINUOUS
 10
184.1624189726
 20
153.4388277701
 11
184.449652981
 21
153.5325776807
  0
LINE
  5
47C
100
AcDbEntity
  8
0
100
AcDbLine
 62
7
  6
CONTINUOUS
 10
182.8464616171
 20
144.2263277701
 11
188.4922129282
 21
144.2263277701
  0
LINE
  5
47D
100
AcDbEntity
  8
0
100
AcDbLine
 62
7
  6
CONTINUOUS
 10
225.2007103061
 20
144.2263277701
 11
230.8464616171
 21
144.2263277701
  0
LINE
  5
47E
100
AcDbEntity
  8
0
100
AcDbLine
 62
7
  6
CONTINUOUS
 10
194.8464616171
 20
145.5263277701
 11
218.8464616171
 21
145.5263277701
  0
LINE
  5
47F
100
AcDbEntity
  8
KONSTRUKTIONSELEMENTE
100
AcDbLine
 62
7
  6
CONTINUOUS
 10
200.3464616171
 20
146.0263277701
 11
213.3464616171
 21
146.0263277701
  0
LINE
  5
480
100
AcDbEntity
  8
0
100
AcDbLine
 62
7
  6
CONTINUOUS
 10
186.7475254498
 20
157.6575777701
 11
187.0347594581
 21
157.4700779489
  0
LINE
  5
481
100
AcDbEntity
  8
0
100
AcDbLine
 62
7
  6
CONTINUOUS
 10
187.6092275753
 20
157.6575777701
 11
187.226248864
 21
158.0325779489
  0
LINE
  5
482
100
AcDbEntity
  8
0
100
AcDbLine
 62
7
  6
CONTINUOUS
 10
187.6092275753
 20
162.1575777701
 11
187.226248864
 21
162.5325774125
  0
LINE
  5
483
100
AcDbEntity
  8
0
100
AcDbLine
 62
7
  6
CONTINUOUS
 10
215.3372953478
 20
130.0282426748
 11
215.4935453478
 21
129.8686681885
  0
LINE
  5
484
100
AcDbEntity
  8
0
100
AcDbLine
 62
7
  6
CONTINUOUS
 10
215.1810453478
 20
130.9856894437
 11
215.3893778865
 21
130.7729235116
  0
LINE
  5
485
100
AcDbEntity
  8
0
100
AcDbLine
 62
7
  6
CONTINUOUS
 10
210.4839616171
 20
136.6148384312
 11
210.7339613787
 21
136.3595193127
  0
LINE
  5
486
100
AcDbEntity
  8
0
100
AcDbLine
 62
7
  6
CONTINUOUS
 10
216.5872953478
 20
130.7729235116
 11
216.7956278865
 21
130.5601575795
  0
LINE
  5
487
100
AcDbEntity
  8
0
100
AcDbLine
 62
7
  6
CONTINUOUS
 10
216.2747953478
 20
131.623987389
 11
216.3789616171
 21
131.5176044229
  0
LINE
  5
488
100
AcDbEntity
  8
0
100
AcDbLine
 62
7
  6
CONTINUOUS
 10
213.0456278865
 20
130.1346256409
 11
213.1497953478
 21
129.9750511918
  0
LINE
  5
489
100
AcDbEntity
  8
0
100
AcDbLine
 62
7
  6
CONTINUOUS
 10
209.4997947518
 20
126.3469660965
 11
209.6039616171
 21
126.1342000899
  0
LINE
  5
48A
100
AcDbEntity
  8
0
100
AcDbLine
 62
7
  6
CONTINUOUS
 10
205.7339616768
 20
134.5084554354
 11
205.8589617364
 21
134.2531362722
  0
LINE
  5
48B
100
AcDbEntity
  8
0
100
AcDbLine
 62
7
  6
CONTINUOUS
 10
210.6977116171
 20
125.7618596715
 11
210.8018784825
 21
125.5490937208
  0
LINE
  5
48C
100
AcDbEntity
  8
0
100
AcDbLine
 62
7
  6
CONTINUOUS
 10
207.4685447518
 20
126.5597320286
 11
207.5727116171
 21
126.2937746135
  0
LINE
  5
48D
100
AcDbEntity
  8
0
100
AcDbLine
 62
7
  6
CONTINUOUS
 10
204.6089616768
 20
135.2744128803
 11
205.1714616768
 21
133.8063277701
  0
LINE
  5
48E
100
AcDbEntity
  8
0
100
AcDbLine
 62
7
  6
CONTINUOUS
 10
204.2339615873
 20
135.1467533211
 11
204.7339615575
 21
133.8063277701
  0
LINE
  5
48F
100
AcDbEntity
  8
0
100
AcDbLine
 62
7
  6
CONTINUOUS
 10
203.6706284825
 20
130.4537746135
 11
203.7227116171
 21
130.2942000899
  0
LINE
  5
490
100
AcDbEntity
  8
0
100
AcDbLine
 62
7
  6
CONTINUOUS
 10
203.9831284825
 20
130.5069660965
 11
204.0352116171
 21
130.347391573
  0
LINE
  5
491
100
AcDbEntity
  8
0
100
AcDbLine
 62
7
  6
CONTINUOUS
 10
203.6706284825
 20
131.5176044229
 11
203.7227116171
 21
131.3580298249
  0
LINE
  5
492
100
AcDbEntity
  8
0
100
AcDbLine
 62
7
  6
CONTINUOUS
 10
203.9831284825
 20
131.5707959059
 11
204.0352116171
 21
131.4112214569
  0
LINE
  5
493
100
AcDbEntity
  8
0
100
AcDbLine
 62
7
  6
CONTINUOUS
 10
206.0102116171
 20
126.0810086069
 11
206.0622950498
 21
125.9214341578
  0
LINE
  5
494
100
AcDbEntity
  8
0
100
AcDbLine
 62
7
  6
CONTINUOUS
 10
207.2602116171
 20
126.4001575795
 11
207.3122950498
 21
126.240583056
  0
LINE
  5
495
100
AcDbEntity
  8
0
100
AcDbLine
 62
7
  6
CONTINUOUS
 10
207.4164616171
 20
127.4107959059
 11
207.4685447518
 21
127.2512214569
  0
LINE
  5
496
100
AcDbEntity
  8
0
100
AcDbLine
 62
7
  6
CONTINUOUS
 10
206.1185447518
 20
131.5176044229
 11
206.1706284825
 21
131.3580298249
  0
LINE
  5
497
100
AcDbEntity
  8
0
100
AcDbLine
 62
7
  6
CONTINUOUS
 10
207.9893784825
 20
125.9214341578
 11
208.0414616171
 21
125.7618596715
  0
LINE
  5
498
100
AcDbEntity
  8
0
100
AcDbLine
 62
7
  6
CONTINUOUS
 10
204.6714616171
 20
136.2956895331
 11
204.7339615575
 21
136.1042001942
  0
LINE
  5
499
100
AcDbEntity
  8
0
100
AcDbLine
 62
7
  6
CONTINUOUS
 10
205.0464616171
 20
136.2956895331
 11
205.1089615575
 21
136.1042001942
  0
LINE
  5
49A
100
AcDbEntity
  8
0
100
AcDbLine
 62
7
  6
CONTINUOUS
 10
204.7643784825
 20
130.347391573
 11
204.8164616171
 21
130.1346256409
  0
LINE
  5
49B
100
AcDbEntity
  8
0
100
AcDbLine
 62
7
  6
CONTINUOUS
 10
202.4164616171
 20
126.3469660965
 11
202.468544952
 21
126.0810086069
  0
LINE
  5
49C
100
AcDbEntity
  8
0
100
AcDbLine
 62
7
  6
CONTINUOUS
 10
204.2393783335
 20
127.0916468588
 11
204.2914616171
 21
126.8256894437
  0
LINE
  5
49D
100
AcDbEntity
  8
0
100
AcDbLine
 62
7
  6
CONTINUOUS
 10
204.4518784825
 20
130.347391573
 11
204.5039616171
 21
130.0814341578
  0
LINE
  5
49E
100
AcDbEntity
  8
0
100
AcDbLine
 62
7
  6
CONTINUOUS
 10
202.6768782776
 20
126.4001575795
 11
202.7289616171
 21
126.0810086069
  0
LINE
  5
49F
100
AcDbEntity
  8
0
100
AcDbLine
 62
7
  6
CONTINUOUS
 10
203.9789616171
 20
127.0916468588
 11
204.0310449008
 21
126.7724979607
  0
LINE
  5
4A0
100
AcDbEntity
  8
0
100
AcDbLine
 62
7
  6
CONTINUOUS
 10
200.1289616171
 20
129.8154767055
 11
200.1289616171
 21
131.9963277701
  0
LINE
  5
4A1
100
AcDbEntity
  8
BEZUGSACHSEN
100
AcDbLine
 62
7
  6
CONTINUOUS
 10
200.3464616171
 20
146.0263277701
 11
200.3464616171
 21
150.8263277701
  0
LINE
  5
4A2
100
AcDbEntity
  8
BEZUGSACHSEN
100
AcDbLine
 62
7
  6
CONTINUOUS
 10
201.1464616171
 20
145.5263277701
 11
201.1464616171
 21
146.0263277701
  0
LINE
  5
4A3
100
AcDbEntity
  8
KONSTRUKTIONSELEMENTE
100
AcDbLine
 62
7
  6
CONTINUOUS
 10
201.3193241064
 20
150.8263277701
 11
201.3193241064
 21
151.0263277701
  0
LINE
  5
4A4
100
AcDbEntity
  8
0
100
AcDbLine
 62
7
  6
CONTINUOUS
 10
201.6914616171
 20
129.4963277701
 11
201.6914616171
 21
129.8154767055
  0
LINE
  5
4A5
100
AcDbEntity
  8
0
100
AcDbLine
 62
7
  6
CONTINUOUS
 10
202.1081281845
 20
129.4963277701
 11
202.1081281845
 21
131.9963277701
  0
LINE
  5
4A6
100
AcDbEntity
  8
0
100
AcDbLine
 62
7
  6
CONTINUOUS
 10
202.4164616171
 20
126.3469660965
 11
202.4164616171
 21
126.8256894437
  0
LINE
  5
4A7
100
AcDbEntity
  8
0
100
AcDbLine
 62
7
  6
CONTINUOUS
 10
202.4206284825
 20
129.8154767055
 11
202.4206284825
 21
130.6133490626
  0
LINE
  5
4A8
100
AcDbEntity
  8
0
100
AcDbLine
 62
7
  6
CONTINUOUS
 10
202.4206284825
 20
130.9324979607
 11
202.4206284825
 21
131.677178872
  0
LINE
  5
4A9
100
AcDbEntity
  8
KONSTRUKTIONSELEMENTE
100
AcDbLine
 62
7
  6
CONTINUOUS
 10
202.5740553682
 20
150.8263277701
 11
202.5740553682
 21
151.0263277701
  0
LINE
  5
4AA
100
AcDbEntity
  8
KONSTRUKTIONSELEMENTE
100
AcDbLine
 62
7
  6
CONTINUOUS
 10
202.5814509618
 20
150.8263277701
 11
202.5814509618
 21
151.0263277701
  0
LINE
  5
4AB
100
AcDbEntity
  8
KONSTRUKTIONSELEMENTE
100
AcDbLine
 62
7
  6
CONTINUOUS
 10
202.6386997858
 20
150.8263277701
 11
202.6386997858
 21
151.0263277701
  0
LINE
  5
4AC
100
AcDbEntity
  8
0
100
AcDbLine
 62
7
  6
CONTINUOUS
 10
202.6768782776
 20
126.4001575795
 11
202.6768782776
 21
126.7724979607
  0
LINE
  5
4AD
100
AcDbEntity
  8
0
100
AcDbLine
 62
7
  6
CONTINUOUS
 10
202.7964616171
 20
133.8063277701
 11
202.7964616171
 21
136.8063277701
  0
LINE
  5
4AE
100
AcDbEntity
  8
BEZUGSACHSEN
100
AcDbLine
 62
7
  6
CONTINUOUS
 10
202.8464616171
 20
106.5263277701
 11
202.8464616171
 21
116.5263277701
  0
LINE
  5
4AF
100
AcDbEntity
  8
KONSTRUKTIONSELEMENTE
100
AcDbLine
 62
7
  6
CONTINUOUS
 10
203.0671071861
 20
150.8263277701
 11
203.0671071861
 21
151.0263277701
  0
LINE
  5
4B0
100
AcDbEntity
  8
0
100
AcDbLine
 62
7
  6
CONTINUOUS
 10
203.1714616171
 20
133.8063277701
 11
203.1714616171
 21
135.1467533211
  0
LINE
  5
4B1
100
AcDbEntity
  8
0
100
AcDbLine
 62
7
  6
CONTINUOUS
 10
203.1714616171
 20
135.5297319988
 11
203.1714616171
 21
136.487178872
  0
LINE
  5
4B2
100
AcDbEntity
  8
0
100
AcDbLine
 62
7
  6
CONTINUOUS
 10
185.8858232907
 20
152.7825777254
 11
187.8964616171
 21
153.5325776807
  0
LINE
  5
4B3
100
AcDbEntity
  8
0
100
AcDbLine
 62
7
  6
CONTINUOUS
 10
184.7368872575
 20
153.5325776807
 11
185.0241212658
 21
153.4388277701
  0
LINE
  5
4B4
100
AcDbEntity
  8
0
100
AcDbLine
 62
7
  6
CONTINUOUS
 10
185.1198659352
 20
154.0013277701
 11
184.8326319269
 21
154.0950776807
  0
LINE
  5
4B5
100
AcDbEntity
  8
0
100
AcDbLine
 62
7
  6
CONTINUOUS
 10
187.226248864
 20
158.0325779489
 11
186.8432701192
 21
158.2200777701
  0
LINE
  5
4B6
100
AcDbEntity
  8
0
100
AcDbLine
 62
7
  6
CONTINUOUS
 10
186.7475254498
 20
162.1575777701
 11
187.0347594581
 21
161.9700774125
  0
LINE
  5
4B7
100
AcDbEntity
  8
0
100
AcDbLine
 62
7
  6
CONTINUOUS
 10
216.5352116171
 20
131.783561838
 11
216.6914616171
 21
131.5707959059
  0
LINE
  5
4B8
100
AcDbEntity
  8
0
100
AcDbLine
 62
7
  6
CONTINUOUS
 10
210.3589613787
 20
136.2318597535
 11
210.4839616171
 21
136.0403702358
  0
LINE
  5
4B9
100
AcDbEntity
  8
0
100
AcDbLine
 62
7
  6
CONTINUOUS
 10
216.4831278865
 20
130.4537746135
 11
216.5872953478
 21
130.2942000899
  0
LINE
  5
4BA
100
AcDbEntity
  8
0
100
AcDbLine
 62
7
  6
CONTINUOUS
 10
215.0247953478
 20
129.9750511918
 11
215.1810453478
 21
129.7090937208
  0
LINE
  5
4BB
100
AcDbEntity
  8
0
100
AcDbLine
 62
7
  6
CONTINUOUS
 10
212.7331278865
 20
130.0814341578
 11
212.8372953478
 21
129.8686681885
  0
LINE
  5
4BC
100
AcDbEntity
  8
0
100
AcDbLine
 62
7
  6
CONTINUOUS
 10
210.7339613787
 20
136.3595193127
 11
210.8589616171
 21
136.1042001942
  0
LINE
  5
4BD
100
AcDbEntity
  8
0
100
AcDbLine
 62
7
  6
CONTINUOUS
 10
210.9581284825
 20
125.8682426748
 11
211.0102116171
 21
125.7086681885
  0
LINE
  5
4BE
100
AcDbEntity
  8
0
100
AcDbLine
 62
7
  6
CONTINUOUS
 10
209.6081278865
 20
131.5707959059
 11
209.6602116171
 21
131.4112214569
  0
LINE
  5
4BF
100
AcDbEntity
  8
0
100
AcDbLine
 62
7
  6
CONTINUOUS
 10
209.9206278865
 20
131.5707959059
 11
209.9727116171
 21
131.4112214569
  0
LINE
  5
4C0
100
AcDbEntity
  8
0
100
AcDbLine
 62
7
  6
CONTINUOUS
 10
206.0464617364
 20
134.8276043335
 11
206.1089614979
 21
134.572285215
  0
LINE
  5
4C1
100
AcDbEntity
  8
0
100
AcDbLine
 62
7
  6
CONTINUOUS
 10
209.8122947518
 20
126.3469660965
 11
209.8643784825
 21
126.1342000899
  0
LINE
  5
4C2
100
AcDbEntity
  8
0
100
AcDbLine
 62
7
  6
CONTINUOUS
 10
209.7602116171
 20
127.463987389
 11
209.8122947518
 21
127.2512214569
  0
LINE
  5
4C3
100
AcDbEntity
  8
0
100
AcDbLine
 62
7
  6
CONTINUOUS
 10
205.6714615575
 20
134.8276043335
 11
205.7339616768
 21
134.5084554354
  0
LINE
  5
4C4
100
AcDbEntity
  8
0
100
AcDbLine
 62
7
  6
CONTINUOUS
 10
206.4310447518
 20
131.623987389
 11
206.4831284825
 21
131.3580298249
  0
LINE
  5
4C5
100
AcDbEntity
  8
0
100
AcDbLine
 62
7
  6
CONTINUOUS
 10
205.6977116171
 20
126.4001575795
 11
205.7497950498
 21
126.0278171239
  0
LINE
  5
4C6
100
AcDbEntity
  8
0
100
AcDbLine
 62
7
  6
CONTINUOUS
 10
203.7227116171
 20
130.1346256409
 11
203.7227116171
 21
130.2942000899
  0
LINE
  5
4C7
100
AcDbEntity
  8
0
100
AcDbLine
 62
7
  6
CONTINUOUS
 10
203.7227116171
 20
131.2516468588
 11
203.7227116171
 21
131.3580298249
  0
LINE
  5
4C8
100
AcDbEntity
  8
KONSTRUKTIONSELEMENTE
100
AcDbLine
 62
7
  6
CONTINUOUS
 10
203.8037056219
 20
150.8263277701
 11
203.8037056219
 21
151.0263277701
  0
LINE
  5
4C9
100
AcDbEntity
  8
KONSTRUKTIONSELEMENTE
100
AcDbLine
 62
7
  6
CONTINUOUS
 10
203.9466821537
 20
150.8263277701
 11
203.9466821537
 21
151.0263277701
  0
LINE
  5
4CA
100
AcDbEntity
  8
0
100
AcDbLine
 62
7
  6
CONTINUOUS
 10
204.0310449008
 20
126.4001575795
 11
204.0310449008
 21
126.7724979607
  0
LINE
  5
4CB
100
AcDbEntity
  8
0
100
AcDbLine
 62
7
  6
CONTINUOUS
 10
204.0352116171
 20
130.0814341578
 11
204.0352116171
 21
130.347391573
  0
LINE
  5
4CC
100
AcDbEntity
  8
0
100
AcDbLine
 62
7
  6
CONTINUOUS
 10
204.0352116171
 20
131.1984553758
 11
204.0352116171
 21
131.4112214569
  0
LINE
  5
4CD
100
AcDbEntity
  8
0
100
AcDbLine
 62
7
  6
CONTINUOUS
 10
204.2914616171
 20
126.3469660965
 11
204.2914616171
 21
126.8256894437
  0
LINE
  5
4CE
100
AcDbEntity
  8
0
100
AcDbLine
 62
7
  6
CONTINUOUS
 10
204.4518784825
 20
130.347391573
 11
204.4518784825
 21
131.1452638928
  0
LINE
  5
4CF
100
AcDbEntity
  8
KONSTRUKTIONSELEMENTE
100
AcDbLine
 62
7
  6
CONTINUOUS
 10
204.5185882809
 20
150.8263277701
 11
204.5185882809
 21
151.0263277701
  0
LINE
  5
4D0
100
AcDbEntity
  8
KONSTRUKTIONSELEMENTE
100
AcDbLine
 62
7
  6
CONTINUOUS
 10
204.6615648809
 20
150.8263277701
 11
204.6615648809
 21
151.0263277701
  0
LINE
  5
4D1
100
AcDbEntity
  8
0
100
AcDbLine
 62
7
  6
CONTINUOUS
 10
204.7339615575
 20
135.9127106765
 11
204.7339615575
 21
136.1042001942
  0
LINE
  5
4D2
100
AcDbEntity
  8
0
100
AcDbLine
 62
7
  6
CONTINUOUS
 10
204.7643784825
 20
130.347391573
 11
204.7643784825
 21
131.1452638928
  0
LINE
  5
4D3
100
AcDbEntity
  8
0
100
AcDbLine
 62
7
  6
CONTINUOUS
 10
205.1089615575
 20
135.8488808969
 11
205.1089615575
 21
136.1042001942
  0
LINE
  5
4D4
100
AcDbEntity
  8
KONSTRUKTIONSELEMENTE
100
AcDbLine
 62
7
  6
CONTINUOUS
 10
205.2884787584
 20
150.8263277701
 11
205.2884787584
 21
151.0263277701
  0
LINE
  5
4D5
100
AcDbEntity
  8
KONSTRUKTIONSELEMENTE
100
AcDbLine
 62
7
  6
CONTINUOUS
 10
205.3657644188
 20
150.8263277701
 11
205.3657644188
 21
151.0263277701
  0
LINE
  5
4D6
100
AcDbEntity
  8
KONSTRUKTIONSELEMENTE
100
AcDbLine
 62
7
  6
CONTINUOUS
 10
205.3989976685
 20
150.8263277701
 11
205.3989976685
 21
151.0263277701
  0
LINE
  5
4D7
100
AcDbEntity
  8
KONSTRUKTIONSELEMENTE
100
AcDbLine
 62
7
  6
CONTINUOUS
 10
205.6270721627
 20
150.8263277701
 11
205.6270721627
 21
151.0263277701
  0
LINE
  5
4D8
100
AcDbEntity
  8
KONSTRUKTIONSELEMENTE
100
AcDbLine
 62
7
  6
CONTINUOUS
 10
205.6351618309
 20
150.8263277701
 11
205.6351618309
 21
151.0263277701
  0
LINE
  5
4D9
100
AcDbEntity
  8
0
100
AcDbLine
 62
7
  6
CONTINUOUS
 10
205.6714615575
 20
134.8276043335
 11
205.6714615575
 21
136.8063277701
  0
LINE
  5
4DA
100
AcDbEntity
  8
KONSTRUKTIONSELEMENTE
100
AcDbLine
 62
7
  6
CONTINUOUS
 10
205.6905999951
 20
150.8263277701
 11
205.6905999951
 21
151.0263277701
  0
LINE
  5
4DB
100
AcDbEntity
  8
0
100
AcDbLine
 62
7
  6
CONTINUOUS
 10
205.6977116171
 20
126.4001575795
 11
205.6977116171
 21
126.7724979607
  0
LINE
  5
4DC
100
AcDbEntity
  8
0
100
AcDbLine
 62
7
  6
CONTINUOUS
 10
205.7018784825
 20
130.5601575795
 11
205.7018784825
 21
130.8793064777
  0
LINE
  5
4DD
100
AcDbEntity
  8
KONSTRUKTIONSELEMENTE
100
AcDbLine
 62
7
  6
CONTINUOUS
 10
205.7790630939
 20
150.8263277701
 11
205.7790630939
 21
151.0263277701
  0
LINE
  5
4DE
100
AcDbEntity
  8
KONSTRUKTIONSELEMENTE
100
AcDbLine
 62
7
  6
CONTINUOUS
 10
205.9067850206
 20
150.8263277701
 11
205.9067850206
 21
151.0263277701
  0
LINE
  5
4DF
100
AcDbEntity
  8
0
100
AcDbLine
 62
7
  6
CONTINUOUS
 10
205.9581281845
 20
126.6661149946
 11
205.9581281845
 21
126.7724979607
  0
LINE
  5
4E0
100
AcDbEntity
  8
0
100
AcDbLine
 62
7
  6
CONTINUOUS
 10
206.0102116171
 20
126.0810086069
 11
206.0102116171
 21
126.240583056
  0
LINE
  5
4E1
100
AcDbEntity
  8
0
100
AcDbLine
 62
7
  6
CONTINUOUS
 10
206.0464617364
 20
134.8276043335
 11
206.0464617364
 21
136.8063277701
  0
LINE
  5
4E2
100
AcDbEntity
  8
0
100
AcDbLine
 62
7
  6
CONTINUOUS
 10
206.1706284825
 20
130.1346256409
 11
206.1706284825
 21
130.5601575795
  0
LINE
  5
4E3
100
AcDbEntity
  8
0
100
AcDbLine
 62
7
  6
CONTINUOUS
 10
206.4831284825
 20
130.0814341578
 11
206.4831284825
 21
130.8793064777
  0
LINE
  5
4E4
100
AcDbEntity
  8
KONSTRUKTIONSELEMENTE
100
AcDbLine
 62
7
  6
CONTINUOUS
 10
206.5497724657
 20
150.8263277701
 11
206.5497724657
 21
151.0263277701
  0
LINE
  5
4E5
100
AcDbEntity
  8
KONSTRUKTIONSELEMENTE
100
AcDbLine
 62
7
  6
CONTINUOUS
 10
206.8427618808
 20
150.8263277701
 11
206.8427618808
 21
151.0263277701
  0
LINE
  5
4E6
100
AcDbEntity
  8
BEZUGSACHSEN
100
AcDbLine
 62
7
  6
CONTINUOUS
 10
206.8464616171
 20
146.0263277701
 11
206.8464616171
 21
150.2457711865
  0
LINE
  5
4E7
100
AcDbEntity
  8
0
100
AcDbLine
 62
7
  6
CONTINUOUS
 10
206.8997947518
 20
130.400583056
 11
206.8997947518
 21
130.6665405456
  0
LINE
  5
4E8
100
AcDbEntity
  8
0
100
AcDbLine
 62
7
  6
CONTINUOUS
 10
207.3122950498
 20
126.0810086069
 11
207.3122950498
 21
126.240583056
  0
LINE
  5
4E9
100
AcDbEntity
  8
0
100
AcDbLine
 62
7
  6
CONTINUOUS
 10
202.6768782776
 20
126.7724979607
 11
202.7289616171
 21
127.0916468588
  0
LINE
  5
4EA
100
AcDbEntity
  8
0
100
AcDbLine
 62
7
  6
CONTINUOUS
 10
198.5664616171
 20
129.4963277701
 11
199.3997949008
 21
131.9963277701
  0
LINE
  5
4EB
100
AcDbEntity
  8
0
100
AcDbLine
 62
7
  6
CONTINUOUS
 10
198.358128259
 20
129.8154767055
 11
199.0872949008
 21
131.9963277701
  0
LINE
  5
4EC
100
AcDbEntity
  8
0
100
AcDbLine
 62
7
  6
CONTINUOUS
 10
183.3964616171
 20
150.6263277701
 11
187.8964616171
 21
150.6263277701
  0
LINE
  5
4ED
100
AcDbEntity
  8
BEZUGSACHSEN
100
AcDbLine
 62
7
  6
CONTINUOUS
 10
200.3464616171
 20
150.8263277701
 11
213.3464616172
 21
150.8263277701
  0
LINE
  5
4EE
100
AcDbEntity
  8
KONSTRUKTIONSELEMENTE
100
AcDbLine
 62
7
  6
CONTINUOUS
 10
201.3193241064
 20
151.0263277701
 11
205.3989976685
 21
151.0263277701
  0
LINE
  5
4EF
100
AcDbEntity
  8
KONSTRUKTIONSELEMENTE
100
AcDbLine
 62
7
  6
CONTINUOUS
 10
205.6270721627
 20
151.0263277701
 11
206.8427618808
 21
151.0263277701
  0
LINE
  5
4F0
100
AcDbEntity
  8
0
100
AcDbLine
 62
7
  6
CONTINUOUS
 10
187.8964616171
 20
151.1888277701
 11
185.8858232907
 21
151.1888277701
  0
LINE
  5
4F1
100
AcDbEntity
  8
0
100
AcDbLine
 62
7
  6
CONTINUOUS
 10
185.3113552741
 20
151.1888277701
 11
183.8751849643
 21
151.1888277701
  0
LINE
  5
4F2
100
AcDbEntity
  8
0
100
AcDbLine
 62
7
  6
CONTINUOUS
 10
184.449652981
 20
153.5325776807
 11
184.7368872575
 21
153.5325776807
  0
LINE
  5
4F3
100
AcDbEntity
  8
0
100
AcDbLine
 62
7
  6
CONTINUOUS
 10
186.364546772
 20
157.7513279489
 11
186.7475254498
 21
157.6575777701
  0
LINE
  5
4F4
100
AcDbEntity
  8
0
100
AcDbLine
 62
7
  6
CONTINUOUS
 10
187.226248864
 20
162.5325774125
 11
186.8432701192
 21
162.7200777701
  0
LINE
  5
4F5
100
AcDbEntity
  8
0
100
AcDbLine
 62
7
  6
CONTINUOUS
 10
216.7956278865
 20
130.5601575795
 11
216.8997953478
 21
130.347391573
  0
LINE
  5
4F6
100
AcDbEntity
  8
0
100
AcDbLine
 62
7
  6
CONTINUOUS
 10
216.3789616171
 20
131.5176044229
 11
216.4310453478
 21
131.4112214569
  0
LINE
  5
4F7
100
AcDbEntity
  8
0
100
AcDbLine
 62
7
  6
CONTINUOUS
 10
210.4839616171
 20
136.0403702358
 11
210.5464613787
 21
135.7850511173
  0
LINE
  5
4F8
100
AcDbEntity
  8
0
100
AcDbLine
 62
7
  6
CONTINUOUS
 10
207.5464617364
 20
134.8276043335
 11
207.5464617364
 21
136.8063277701
  0
LINE
  5
4F9
100
AcDbEntity
  8
0
100
AcDbLine
 62
7
  6
CONTINUOUS
 10
207.5727116171
 20
126.0278171239
 11
207.5727116171
 21
126.2937746135
  0
LINE
  5
4FA
100
AcDbEntity
  8
0
100
AcDbLine
 62
7
  6
CONTINUOUS
 10
207.6289616171
 20
130.400583056
 11
207.6289616171
 21
130.6665405456
  0
LINE
  5
4FB
100
AcDbEntity
  8
0
100
AcDbLine
 62
7
  6
CONTINUOUS
 10
207.9214617364
 20
134.8276043335
 11
207.9214617364
 21
136.8063277701
  0
LINE
  5
4FC
100
AcDbEntity
  8
0
100
AcDbLine
 62
7
  6
CONTINUOUS
 10
208.0456278865
 20
129.4963277701
 11
208.0456278865
 21
131.9963277701
  0
LINE
  5
4FD
100
AcDbEntity
  8
0
100
AcDbLine
 62
7
  6
CONTINUOUS
 10
208.3581278865
 20
129.4963277701
 11
208.3581278865
 21
130.6133490626
  0
LINE
  5
4FE
100
AcDbEntity
  8
0
100
AcDbLine
 62
7
  6
CONTINUOUS
 10
208.3581278865
 20
130.9324979607
 11
208.3581278865
 21
131.730370355
  0
LINE
  5
4FF
100
AcDbEntity
  8
0
100
AcDbLine
 62
7
  6
CONTINUOUS
 10
208.4214616171
 20
133.8063277701
 11
208.4214616171
 21
136.8063277701
  0
LINE
  5
500
100
AcDbEntity
  8
0
100
AcDbLine
 62
7
  6
CONTINUOUS
 10
208.7964616171
 20
134.1893064926
 11
208.7964616171
 21
136.4233490924
  0
LINE
  5
501
100
AcDbEntity
  8
0
100
AcDbLine
 62
7
  6
CONTINUOUS
 10
208.8227116171
 20
126.5065405456
 11
208.8227116171
 21
126.7193064777
  0
LINE
  5
502
100
AcDbEntity
  8
0
100
AcDbLine
 62
7
  6
CONTINUOUS
 10
209.5518784825
 20
127.1448383418
 11
209.5518784825
 21
127.2512214569
  0
LINE
  5
503
100
AcDbEntity
  8
0
100
AcDbLine
 62
7
  6
CONTINUOUS
 10
209.6039616171
 20
125.9214341578
 11
209.6039616171
 21
126.1342000899
  0
LINE
  5
504
100
AcDbEntity
  8
0
100
AcDbLine
 62
7
  6
CONTINUOUS
 10
209.6602116171
 20
131.2516468588
 11
209.6602116171
 21
131.4112214569
  0
LINE
  5
505
100
AcDbEntity
  8
0
100
AcDbLine
 62
7
  6
CONTINUOUS
 10
209.8122947518
 20
127.1448383418
 11
209.8122947518
 21
127.2512214569
  0
LINE
  5
506
100
AcDbEntity
  8
0
100
AcDbLine
 62
7
  6
CONTINUOUS
 10
209.8643784825
 20
125.9214341578
 11
209.8643784825
 21
126.1342000899
  0
LINE
  5
507
100
AcDbEntity
  8
0
100
AcDbLine
 62
7
  6
CONTINUOUS
 10
209.9727116171
 20
131.1984553758
 11
209.9727116171
 21
131.4112214569
  0
LINE
  5
508
100
AcDbEntity
  8
0
100
AcDbLine
 62
7
  6
CONTINUOUS
 10
210.2810447518
 20
126.8256894437
 11
210.2810447518
 21
127.0384553758
  0
LINE
  5
509
100
AcDbEntity
  8
0
100
AcDbLine
 62
7
  6
CONTINUOUS
 10
210.3893778865
 20
129.4963277701
 11
210.3893778865
 21
131.9963277701
  0
LINE
  5
50A
100
AcDbEntity
  8
0
100
AcDbLine
 62
7
  6
CONTINUOUS
 10
210.5464613787
 20
134.8276043335
 11
210.5464613787
 21
135.7850511173
  0
LINE
  5
50B
100
AcDbEntity
  8
0
100
AcDbLine
 62
7
  6
CONTINUOUS
 10
210.6977116171
 20
125.7618596715
 11
210.6977116171
 21
126.8256894437
  0
LINE
  5
50C
100
AcDbEntity
  8
0
100
AcDbLine
 62
7
  6
CONTINUOUS
 10
210.6977116171
 20
127.0384553758
 11
210.6977116171
 21
127.463987389
  0
LINE
  5
50D
100
AcDbEntity
  8
0
100
AcDbLine
 62
7
  6
CONTINUOUS
 10
210.7018778865
 20
129.8154767055
 11
210.7018778865
 21
131.9963277701
  0
LINE
  5
50E
100
AcDbEntity
  8
BEZUGSACHSEN
100
AcDbLine
 62
7
  6
CONTINUOUS
 10
210.8464616171
 20
106.5263277701
 11
210.8464616171
 21
116.5263277701
  0
LINE
  5
50F
100
AcDbEntity
  8
0
100
AcDbLine
 62
7
  6
CONTINUOUS
 10
210.9214613787
 20
134.8276043335
 11
210.9214613787
 21
135.7850511173
  0
LINE
  5
510
100
AcDbEntity
  8
0
100
AcDbLine
 62
7
  6
CONTINUOUS
 10
210.9581284825
 20
125.8682426748
 11
210.9581284825
 21
126.8256894437
  0
LINE
  5
511
100
AcDbEntity
  8
0
100
AcDbLine
 62
7
  6
CONTINUOUS
 10
210.9581284825
 20
127.0384553758
 11
210.9581284825
 21
127.463987389
  0
LINE
  5
512
100
AcDbEntity
  8
0
100
AcDbLine
 62
7
  6
CONTINUOUS
 10
205.6977116171
 20
126.7724979607
 11
205.7497950498
 21
127.1448383418
  0
LINE
  5
513
100
AcDbEntity
  8
0
100
AcDbLine
 62
7
  6
CONTINUOUS
 10
203.9789616171
 20
126.0810086069
 11
204.0310449008
 21
126.4001575795
  0
LINE
  5
514
100
AcDbEntity
  8
0
100
AcDbLine
 62
7
  6
CONTINUOUS
 10
205.9581281845
 20
126.7724979607
 11
206.0102116171
 21
127.0916468588
  0
LINE
  5
515
100
AcDbEntity
  8
0
100
AcDbLine
 62
7
  6
CONTINUOUS
 10
202.4164616171
 20
126.8256894437
 11
202.468544952
 21
127.0916468588
  0
LINE
  5
516
100
AcDbEntity
  8
0
100
AcDbLine
 62
7
  6
CONTINUOUS
 10
204.4518784825
 20
131.1452638928
 11
204.5039616171
 21
131.4112214569
  0
LINE
  5
517
100
AcDbEntity
  8
0
100
AcDbLine
 62
7
  6
CONTINUOUS
 10
204.2393783335
 20
126.0810086069
 11
204.2914616171
 21
126.3469660965
  0
LINE
  5
518
100
AcDbEntity
  8
0
100
AcDbLine
 62
7
  6
CONTINUOUS
 10
204.7643784825
 20
131.1452638928
 11
204.8164616171
 21
131.3580298249
  0
LINE
  5
519
100
AcDbEntity
  8
0
100
AcDbLine
 62
7
  6
CONTINUOUS
 10
204.6714616171
 20
135.7212213377
 11
204.7339615575
 21
135.9127106765
  0
LINE
  5
51A
100
AcDbEntity
  8
0
100
AcDbLine
 62
7
  6
CONTINUOUS
 10
205.0464616171
 20
135.657391558
 11
205.1089615575
 21
135.8488808969
  0
LINE
  5
51B
100
AcDbEntity
  8
0
100
AcDbLine
 62
7
  6
CONTINUOUS
 10
203.6706284825
 20
131.0920724097
 11
203.7227116171
 21
131.2516468588
  0
LINE
  5
51C
100
AcDbEntity
  8
0
100
AcDbLine
 62
7
  6
CONTINUOUS
 10
202.468544952
 20
127.0916468588
 11
202.5206282869
 21
127.2512214569
  0
LINE
  5
51D
100
AcDbEntity
  8
0
100
AcDbLine
 62
7
  6
CONTINUOUS
 10
184.8326319269
 20
154.0950776807
 11
184.449652981
 21
154.0950776807
  0
LINE
  5
51E
100
AcDbEntity
  8
0
100
AcDbLine
 62
7
  6
CONTINUOUS
 10
183.3964616171
 20
154.9388276807
 11
186.364546772
 21
154.9388276807
  0
LINE
  5
51F
100
AcDbEntity
  8
0
100
AcDbLine
 62
7
  6
CONTINUOUS
 10
186.364546772
 20
155.5013279489
 11
183.3964616171
 21
155.5013279489
  0
LINE
  5
520
100
AcDbEntity
  8
0
100
AcDbLine
 62
7
  6
CONTINUOUS
 10
186.8432701192
 20
158.2200777701
 11
186.364546772
 21
158.3138279489
  0
LINE
  5
521
100
AcDbEntity
  8
0
100
AcDbLine
 62
7
  6
CONTINUOUS
 10
186.364546772
 20
162.2513274125
 11
186.7475254498
 21
162.1575777701
  0
LINE
  5
522
100
AcDbEntity
  8
0
100
AcDbLine
 62
7
  6
CONTINUOUS
 10
215.2852116171
 20
130.1878171239
 11
215.3372953478
 21
130.0282426748
  0
LINE
  5
523
100
AcDbEntity
  8
0
100
AcDbLine
 62
7
  6
CONTINUOUS
 10
215.4414616171
 20
131.2516468588
 11
215.4935453478
 21
131.0920724097
  0
LINE
  5
524
100
AcDbEntity
  8
0
100
AcDbLine
 62
7
  6
CONTINUOUS
 10
216.6914616171
 20
131.5707959059
 11
216.7435453478
 21
131.4112214569
  0
LINE
  5
525
100
AcDbEntity
  8
0
100
AcDbLine
 62
7
  6
CONTINUOUS
 10
212.9935453478
 20
130.347391573
 11
213.0456278865
 21
130.1346256409
  0
LINE
  5
526
100
AcDbEntity
  8
0
100
AcDbLine
 62
7
  6
CONTINUOUS
 10
214.9727116171
 20
130.1878171239
 11
215.0247953478
 21
129.9750511918
  0
LINE
  5
527
100
AcDbEntity
  8
0
100
AcDbLine
 62
7
  6
CONTINUOUS
 10
215.1289616171
 20
131.1984553758
 11
215.1810453478
 21
130.9856894437
  0
LINE
  5
528
100
AcDbEntity
  8
0
100
AcDbLine
 62
7
  6
CONTINUOUS
 10
210.8589616171
 20
136.1042001942
 11
210.9214613787
 21
135.7850511173
  0
LINE
  5
529
100
AcDbEntity
  8
0
100
AcDbLine
 62
7
  6
CONTINUOUS
 10
212.6810453478
 20
130.347391573
 11
212.7331278865
 21
130.0814341578
  0
LINE
  5
52A
100
AcDbEntity
  8
0
100
AcDbLine
 62
7
  6
CONTINUOUS
 10
211.4268784825
 20
125.3363277701
 11
211.4268784825
 21
125.5490937208
  0
LINE
  5
52B
100
AcDbEntity
  8
0
100
AcDbLine
 62
7
  6
CONTINUOUS
 10
211.5310447518
 20
126.8256894437
 11
211.5310447518
 21
127.0384553758
  0
LINE
  5
52C
100
AcDbEntity
  8
0
100
AcDbLine
 62
7
  6
CONTINUOUS
 10
212.2643778865
 20
129.4963277701
 11
212.2643778865
 21
129.8154767055
  0
LINE
  5
52D
100
AcDbEntity
  8
BEZUGSACHSEN
100
AcDbLine
 62
7
  6
CONTINUOUS
 10
212.5464616171
 20
145.5263277701
 11
212.5464616171
 21
146.0263277701
  0
LINE
  5
52E
100
AcDbEntity
  8
0
100
AcDbLine
 62
7
  6
CONTINUOUS
 10
212.6810453478
 20
130.347391573
 11
212.6810453478
 21
131.9963277701
  0
LINE
  5
52F
100
AcDbEntity
  8
0
100
AcDbLine
 62
7
  6
CONTINUOUS
 10
212.9935453478
 20
130.347391573
 11
212.9935453478
 21
131.9963277701
  0
LINE
  5
530
100
AcDbEntity
  8
BEZUGSACHSEN
100
AcDbLine
 62
7
  6
CONTINUOUS
 10
213.3464616171
 20
146.0263277701
 11
213.3464616171
 21
150.8263277701
  0
LINE
  5
531
100
AcDbEntity
  8
0
100
AcDbLine
 62
7
  6
CONTINUOUS
 10
214.2435453478
 20
130.347391573
 11
214.2435453478
 21
131.9963277701
  0
LINE
  5
532
100
AcDbEntity
  8
0
100
AcDbLine
 62
7
  6
CONTINUOUS
 10
214.5560453478
 20
130.347391573
 11
214.5560453478
 21
131.9963277701
  0
LINE
  5
533
100
AcDbEntity
  8
0
100
AcDbLine
 62
7
  6
CONTINUOUS
 10
207.8589616171
 20
134.5084554354
 11
207.9214617364
 21
134.8276043335
  0
LINE
  5
534
100
AcDbEntity
  8
0
100
AcDbLine
 62
7
  6
CONTINUOUS
 10
210.8589616171
 20
134.5084554354
 11
210.9214613787
 21
134.8276043335
  0
LINE
  5
535
100
AcDbEntity
  8
0
100
AcDbLine
 62
7
  6
CONTINUOUS
 10
207.4839616171
 20
134.572285215
 11
207.5464617364
 21
134.8276043335
  0
LINE
  5
536
100
AcDbEntity
  8
0
100
AcDbLine
 62
7
  6
CONTINUOUS
 10
206.4310447518
 20
129.8686681885
 11
206.4831284825
 21
130.0814341578
  0
LINE
  5
537
100
AcDbEntity
  8
0
100
AcDbLine
 62
7
  6
CONTINUOUS
 10
208.0414616171
 20
127.2512214569
 11
208.0935447518
 21
127.463987389
  0
LINE
  5
538
100
AcDbEntity
  8
0
100
AcDbLine
 62
7
  6
CONTINUOUS
 10
203.9831284825
 20
131.0388809267
 11
204.0352116171
 21
131.1984553758
  0
LINE
  5
539
100
AcDbEntity
  8
0
100
AcDbLine
 62
7
  6
CONTINUOUS
 10
203.6706284825
 20
129.9750511918
 11
203.7227116171
 21
130.1346256409
  0
LINE
  5
53A
100
AcDbEntity
  8
0
100
AcDbLine
 62
7
  6
CONTINUOUS
 10
203.9831284825
 20
129.9218596715
 11
204.0352116171
 21
130.0814341578
  0
LINE
  5
53B
100
AcDbEntity
  8
0
100
AcDbLine
 62
7
  6
CONTINUOUS
 10
204.1872949008
 20
125.9214341578
 11
204.2393783335
 21
126.0810086069
  0
LINE
  5
53C
100
AcDbEntity
  8
0
100
AcDbLine
 62
7
  6
CONTINUOUS
 10
206.1185447518
 20
129.9750511918
 11
206.1706284825
 21
130.1346256409
  0
LINE
  5
53D
100
AcDbEntity
  8
0
100
AcDbLine
 62
7
  6
CONTINUOUS
 10
206.0102116171
 20
127.0916468588
 11
206.0622950498
 21
127.2512214569
  0
LINE
  5
53E
100
AcDbEntity
  8
0
100
AcDbLine
 62
7
  6
CONTINUOUS
 10
206.0102116171
 20
126.240583056
 11
206.0622950498
 21
126.4001575795
  0
LINE
  5
53F
100
AcDbEntity
  8
0
100
AcDbLine
 62
7
  6
CONTINUOUS
 10
204.5039616171
 20
131.4112214569
 11
204.6081284825
 21
131.623987389
  0
LINE
  5
540
100
AcDbEntity
  8
0
100
AcDbLine
 62
7
  6
CONTINUOUS
 10
202.5206282869
 20
127.2512214569
 11
202.6247949567
 21
127.463987389
  0
LINE
  5
541
100
AcDbEntity
  8
0
100
AcDbLine
 62
7
  6
CONTINUOUS
 10
186.7475254498
 20
155.5950775913
 11
186.364546772
 21
155.5013279489
  0
LINE
  5
542
100
AcDbEntity
  8
0
100
AcDbLine
 62
7
  6
CONTINUOUS
 10
186.364546772
 20
154.9388276807
 11
186.8432701192
 21
155.0325778595
  0
LINE
  5
543
100
AcDbEntity
  8
0
100
AcDbLine
 62
7
  6
CONTINUOUS
 10
183.3964616171
 20
157.7513279489
 11
186.364546772
 21
157.7513279489
  0
LINE
  5
544
100
AcDbEntity
  8
0
100
AcDbLine
 62
7
  6
CONTINUOUS
 10
186.364546772
 20
158.3138279489
 11
183.3964616171
 21
158.3138279489
  0
LINE
  5
545
100
AcDbEntity
  8
0
100
AcDbLine
 62
7
  6
CONTINUOUS
 10
183.3964616171
 20
159.0638277701
 11
187.8964616171
 21
159.0638277701
  0
LINE
  5
546
100
AcDbEntity
  8
0
100
AcDbLine
 62
7
  6
CONTINUOUS
 10
187.3219935335
 20
159.6263277701
 11
183.9709296338
 21
159.6263277701
  0
LINE
  5
547
100
AcDbEntity
  8
0
100
AcDbLine
 62
7
  6
CONTINUOUS
 10
229.9343603684
 20
161.0822615338
 11
229.3300261402
 21
161.0822615338
  0
LINE
  5
548
100
AcDbEntity
  8
0
100
AcDbLine
 62
7
  6
CONTINUOUS
 10
226.5587448481
 20
161.0822615338
 11
225.95441062
 21
161.0822615338
  0
LINE
  5
549
100
AcDbEntity
  8
0
100
AcDbLine
 62
7
  6
CONTINUOUS
 10
186.8432701192
 20
162.7200777701
 11
186.364546772
 21
162.8138274125
  0
LINE
  5
54A
100
AcDbEntity
  8
0
100
AcDbLine
 62
7
  6
CONTINUOUS
 10
215.0964616171
 20
141.2263277701
 11
215.0964616171
 21
141.0263277701
  0
LINE
  5
54B
100
AcDbEntity
  8
0
100
AcDbLine
 62
7
  6
CONTINUOUS
 10
215.0964616171
 20
121.0263277701
 11
215.0964616171
 21
120.8263277701
  0
LINE
  5
54C
100
AcDbEntity
  8
0
100
AcDbLine
 62
7
  6
CONTINUOUS
 10
215.1289616171
 20
131.1984553758
 11
215.1289616171
 21
131.4112214569
  0
LINE
  5
54D
100
AcDbEntity
  8
0
100
AcDbLine
 62
7
  6
CONTINUOUS
 10
215.4414616171
 20
131.2516468588
 11
215.4414616171
 21
131.3580298249
  0
LINE
  5
54E
100
AcDbEntity
  8
0
100
AcDbLine
 62
7
  6
CONTINUOUS
 10
216.5872953478
 20
130.1346256409
 11
216.5872953478
 21
130.2942000899
  0
LINE
  5
54F
100
AcDbEntity
  8
0
100
AcDbLine
 62
7
  6
CONTINUOUS
 10
216.8997953478
 20
130.0814341578
 11
216.8997953478
 21
130.347391573
  0
LINE
  5
550
100
AcDbEntity
  8
0
100
AcDbLine
 62
7
  6
CONTINUOUS
 10
210.4839616171
 20
134.572285215
 11
210.5464613787
 21
134.8276043335
  0
LINE
  5
551
100
AcDbEntity
  8
0
100
AcDbLine
 62
7
  6
CONTINUOUS
 10
209.7602116171
 20
126.9320724097
 11
209.8122947518
 21
127.1448383418
  0
LINE
  5
552
100
AcDbEntity
  8
0
100
AcDbLine
 62
7
  6
CONTINUOUS
 10
207.2602116171
 20
125.9214341578
 11
207.3122950498
 21
126.0810086069
  0
LINE
  5
553
100
AcDbEntity
  8
0
100
AcDbLine
 62
7
  6
CONTINUOUS
 10
209.6081278865
 20
131.0920724097
 11
209.6602116171
 21
131.2516468588
  0
LINE
  5
554
100
AcDbEntity
  8
0
100
AcDbLine
 62
7
  6
CONTINUOUS
 10
209.9206278865
 20
131.0388809267
 11
209.9727116171
 21
131.1984553758
  0
LINE
  5
555
100
AcDbEntity
  8
0
100
AcDbLine
 62
7
  6
CONTINUOUS
 10
205.7497950498
 20
127.1448383418
 11
205.8539616171
 21
127.4107959059
  0
LINE
  5
556
100
AcDbEntity
  8
0
100
AcDbLine
 62
7
  6
CONTINUOUS
 10
207.4685447518
 20
125.7618596715
 11
207.5727116171
 21
126.0278171239
  0
LINE
  5
557
100
AcDbEntity
  8
0
100
AcDbLine
 62
7
  6
CONTINUOUS
 10
207.7339617364
 20
134.2531362722
 11
207.8589616171
 21
134.5084554354
  0
LINE
  5
558
100
AcDbEntity
  8
0
100
AcDbLine
 62
7
  6
CONTINUOUS
 10
204.0831283335
 20
125.7086681885
 11
204.1872949008
 21
125.9214341578
  0
LINE
  5
559
100
AcDbEntity
  8
0
100
AcDbLine
 62
7
  6
CONTINUOUS
 10
204.8164616171
 20
131.3580298249
 11
204.9206284825
 21
131.5176044229
  0
LINE
  5
55A
100
AcDbEntity
  8
0
100
AcDbLine
 62
7
  6
CONTINUOUS
 10
207.3589617364
 20
134.3807958761
 11
207.4839616171
 21
134.572285215
  0
LINE
  5
55B
100
AcDbEntity
  8
0
100
AcDbLine
 62
7
  6
CONTINUOUS
 10
202.7289616171
 20
127.0916468588
 11
202.9372949381
 21
127.4107959059
  0
LINE
  5
55C
100
AcDbEntity
  8
0
100
AcDbLine
 62
7
  6
CONTINUOUS
 10
204.8589616171
 20
135.4020724396
 11
205.0464616171
 21
135.657391558
  0
LINE
  5
55D
100
AcDbEntity
  8
0
100
AcDbLine
 62
7
  6
CONTINUOUS
 10
203.8268784825
 20
130.8261149946
 11
203.9831284825
 21
131.0388809267
  0
LINE
  5
55E
100
AcDbEntity
  8
0
100
AcDbLine
 62
7
  6
CONTINUOUS
 10
204.5464615575
 20
135.5935617784
 11
204.6714616171
 21
135.7212213377
  0
LINE
  5
55F
100
AcDbEntity
  8
0
100
AcDbLine
 62
7
  6
CONTINUOUS
 10
184.9283765964
 20
162.2513274125
 11
186.364546772
 21
162.2513274125
  0
LINE
  5
560
100
AcDbEntity
  8
0
100
AcDbLine
 62
7
  6
CONTINUOUS
 10
186.364546772
 20
162.8138274125
 11
184.9283765964
 21
162.8138274125
  0
LINE
  5
561
100
AcDbEntity
  8
0
100
AcDbLine
 62
7
  6
CONTINUOUS
 10
228.2443854942
 20
164.0822615338
 11
227.640051266
 21
164.0822615338
  0
LINE
  5
562
100
AcDbEntity
  8
0
100
AcDbLine
 62
7
  6
CONTINUOUS
 10
229.9343603684
 20
164.4822615338
 11
229.3300261402
 21
164.4822615338
  0
LINE
  5
563
100
AcDbEntity
  8
0
100
AcDbLine
 62
7
  6
CONTINUOUS
 10
226.5587448481
 20
164.4822615338
 11
225.95441062
 21
164.4822615338
  0
LINE
  5
564
100
AcDbEntity
  8
0
100
AcDbLine
 62
7
  6
CONTINUOUS
 10
218.8464616171
 20
145.5263277701
 11
218.8464616171
 21
141.2263277701
  0
LINE
  5
565
100
AcDbEntity
  8
0
100
AcDbLine
 62
7
  6
CONTINUOUS
 10
218.8464616171
 20
120.8263277701
 11
218.8464616171
 21
116.5263277701
  0
LINE
  5
566
100
AcDbEntity
  8
RUNDUNGEN
100
AcDbLine
 62
7
  6
CONTINUOUS
 10
221.8464616171
 20
122.5263277701
 11
221.8464616171
 21
139.5263277701
  0
LINE
  5
567
100
AcDbEntity
  8
0
100
AcDbLine
 62
7
  6
CONTINUOUS
 10
214.5039616171
 20
130.0814341578
 11
214.5560453478
 21
130.347391573
  0
LINE
  5
568
100
AcDbEntity
  8
0
100
AcDbLine
 62
7
  6
CONTINUOUS
 10
214.1914616171
 20
130.1346256409
 11
214.2435453478
 21
130.347391573
  0
LINE
  5
569
100
AcDbEntity
  8
0
100
AcDbLine
 62
7
  6
CONTINUOUS
 10
215.1289616171
 20
131.4112214569
 11
215.1810453478
 21
131.623987389
  0
LINE
  5
56A
100
AcDbEntity
  8
0
100
AcDbLine
 62
7
  6
CONTINUOUS
 10
209.8122947518
 20
125.7618596715
 11
209.8643784825
 21
125.9214341578
  0
LINE
  5
56B
100
AcDbEntity
  8
0
100
AcDbLine
 62
7
  6
CONTINUOUS
 10
215.4414616171
 20
131.3580298249
 11
215.4935453478
 21
131.5176044229
  0
LINE
  5
56C
100
AcDbEntity
  8
0
100
AcDbLine
 62
7
  6
CONTINUOUS
 10
210.7339613787
 20
134.2531362722
 11
210.8589616171
 21
134.5084554354
  0
LINE
  5
56D
100
AcDbEntity
  8
0
100
AcDbLine
 62
7
  6
CONTINUOUS
 10
209.4477116171
 20
126.9320724097
 11
209.5518784825
 21
127.1448383418
  0
LINE
  5
56E
100
AcDbEntity
  8
0
100
AcDbLine
 62
7
  6
CONTINUOUS
 10
209.5518784825
 20
125.8150511918
 11
209.6039616171
 21
125.9214341578
  0
LINE
  5
56F
100
AcDbEntity
  8
0
100
AcDbLine
 62
7
  6
CONTINUOUS
 10
204.7081283335
 20
125.0171788347
 11
205.0206281845
 21
125.6022852225
  0
LINE
  5
570
100
AcDbEntity
  8
0
100
AcDbLine
 62
7
  6
CONTINUOUS
 10
204.9685450498
 20
125.0171788347
 11
205.2810450498
 21
125.6022852225
  0
LINE
  5
571
100
AcDbEntity
  8
0
100
AcDbLine
 62
7
  6
CONTINUOUS
 10
203.7706283335
 20
125.7618596715
 11
203.9789616171
 21
126.0810086069
  0
LINE
  5
572
100
AcDbEntity
  8
0
100
AcDbLine
 62
7
  6
CONTINUOUS
 10
210.3589613787
 20
134.3807958761
 11
210.4839616171
 21
134.572285215
  0
LINE
  5
573
100
AcDbEntity
  8
0
100
AcDbLine
 62
7
  6
CONTINUOUS
 10
206.0622950498
 20
127.2512214569
 11
206.1664616171
 21
127.4107959059
  0
LINE
  5
574
100
AcDbEntity
  8
0
100
AcDbLine
 62
7
  6
CONTINUOUS
 10
203.8268784825
 20
129.7090937208
 11
203.9831284825
 21
129.9218596715
  0
LINE
  5
575
100
AcDbEntity
  8
0
100
AcDbLine
 62
7
  6
CONTINUOUS
 10
205.8539616171
 20
127.4107959059
 11
206.0102116171
 21
127.623561838
  0
LINE
  5
576
100
AcDbEntity
  8
0
100
AcDbLine
 62
7
  6
CONTINUOUS
 10
203.5664616171
 20
130.9856894437
 11
203.6706284825
 21
131.0920724097
  0
LINE
  5
577
100
AcDbEntity
  8
0
100
AcDbLine
 62
7
  6
CONTINUOUS
 10
204.6081284825
 20
131.623987389
 11
204.8164616171
 21
131.8367533211
  0
LINE
  5
578
100
AcDbEntity
  8
0
100
AcDbLine
 62
7
  6
CONTINUOUS
 10
207.4839616171
 20
133.9978171313
 11
207.7339617364
 21
134.2531362722
  0
LINE
  5
579
100
AcDbEntity
  8
0
100
AcDbLine
 62
7
  6
CONTINUOUS
 10
203.5664616171
 20
129.8686681885
 11
203.6706284825
 21
129.9750511918
  0
LINE
  5
57A
100
AcDbEntity
  8
0
100
AcDbLine
 62
7
  6
CONTINUOUS
 10
184.5453979186
 20
162.1575777701
 11
184.9283765964
 21
162.2513274125
  0
LINE
  5
57B
100
AcDbEntity
  8
0
100
AcDbLine
 62
7
  6
CONTINUOUS
 10
184.9283765964
 20
162.8138274125
 11
184.449652981
 21
162.7200777701
  0
LINE
  5
57C
100
AcDbEntity
  8
RUNDUNGEN
100
AcDbLine
 62
7
  6
CONTINUOUS
 10
223.8464616171
 20
174.2263277701
 11
223.8464616171
 21
141.1764327512
  0
LINE
  5
57D
100
AcDbEntity
  8
0
100
AcDbLine
 62
7
  6
CONTINUOUS
 10
225.2007103061
 20
169.2263277701
 11
225.2007103061
 21
144.2263277701
  0
LINE
  5
57E
100
AcDbEntity
  8
0
100
AcDbLine
 62
7
  6
CONTINUOUS
 10
214.3997953478
 20
129.8686681885
 11
214.5039616171
 21
130.0814341578
  0
LINE
  5
57F
100
AcDbEntity
  8
0
100
AcDbLine
 62
7
  6
CONTINUOUS
 10
207.1560450498
 20
125.7618596715
 11
207.2602116171
 21
125.9214341578
  0
LINE
  5
580
100
AcDbEntity
  8
0
100
AcDbLine
 62
7
  6
CONTINUOUS
 10
208.3018784825
 20
127.2512214569
 11
208.4060447518
 21
127.4107959059
  0
LINE
  5
581
100
AcDbEntity
  8
0
100
AcDbLine
 62
7
  6
CONTINUOUS
 10
209.6560447518
 20
126.7724979607
 11
209.7602116171
 21
126.9320724097
  0
LINE
  5
582
100
AcDbEntity
  8
0
100
AcDbLine
 62
7
  6
CONTINUOUS
 10
209.7081284825
 20
125.6022852225
 11
209.8122947518
 21
125.7618596715
  0
LINE
  5
583
100
AcDbEntity
  8
0
100
AcDbLine
 62
7
  6
CONTINUOUS
 10
209.7643778865
 20
130.8261149946
 11
209.9206278865
 21
131.0388809267
  0
LINE
  5
584
100
AcDbEntity
  8
0
100
AcDbLine
 62
7
  6
CONTINUOUS
 10
207.3122950498
 20
125.5490937208
 11
207.4685447518
 21
125.7618596715
  0
LINE
  5
585
100
AcDbEntity
  8
0
100
AcDbLine
 62
7
  6
CONTINUOUS
 10
202.6247949567
 20
127.463987389
 11
202.7810449381
 21
127.623561838
  0
LINE
  5
586
100
AcDbEntity
  8
0
100
AcDbLine
 62
7
  6
CONTINUOUS
 10
206.2227116171
 20
129.6559022378
 11
206.4310447518
 21
129.8686681885
  0
LINE
  5
587
100
AcDbEntity
  8
0
100
AcDbLine
 62
7
  6
CONTINUOUS
 10
210.4839616171
 20
133.9978171313
 11
210.7339613787
 21
134.2531362722
  0
LINE
  5
588
100
AcDbEntity
  8
0
100
AcDbLine
 62
7
  6
CONTINUOUS
 10
203.9268783335
 20
125.5490937208
 11
204.0831283335
 21
125.7086681885
  0
LINE
  5
589
100
AcDbEntity
  8
0
100
AcDbLine
 62
7
  6
CONTINUOUS
 10
209.5039616171
 20
130.9856894437
 11
209.6081278865
 21
131.0920724097
  0
LINE
  5
58A
100
AcDbEntity
  8
0
100
AcDbLine
 62
7
  6
CONTINUOUS
 10
206.0622950498
 20
126.4001575795
 11
206.1664616171
 21
126.5065405456
  0
LINE
  5
58B
100
AcDbEntity
  8
0
100
AcDbLine
 62
7
  6
CONTINUOUS
 10
203.6185447518
 20
129.5495192578
 11
203.8268784825
 21
129.7090937208
  0
LINE
  5
58C
100
AcDbEntity
  8
0
100
AcDbLine
 62
7
  6
CONTINUOUS
 10
207.1714617364
 20
134.2531362722
 11
207.3589617364
 21
134.3807958761
  0
LINE
  5
58D
100
AcDbEntity
  8
0
100
AcDbLine
 62
7
  6
CONTINUOUS
 10
204.9206284825
 20
131.5176044229
 11
205.0768784825
 21
131.623987389
  0
LINE
  5
58E
100
AcDbEntity
  8
0
100
AcDbLine
 62
7
  6
CONTINUOUS
 10
210.1714613787
 20
134.2531362722
 11
210.3589613787
 21
134.3807958761
  0
LINE
  5
58F
100
AcDbEntity
  8
0
100
AcDbLine
 62
7
  6
CONTINUOUS
 10
204.6089616768
 20
135.2744128803
 11
204.8589616171
 21
135.4020724396
  0
LINE
  5
590
100
AcDbEntity
  8
0
100
AcDbLine
 62
7
  6
CONTINUOUS
 10
207.2339614979
 20
133.8701575553
 11
207.4839616171
 21
133.9978171313
  0
LINE
  5
591
100
AcDbEntity
  8
0
100
AcDbLine
 62
7
  6
CONTINUOUS
 10
204.8164616171
 20
131.8367533211
 11
205.0247947518
 21
131.9431362871
  0
LINE
  5
592
100
AcDbEntity
  8
0
100
AcDbLine
 62
7
  6
CONTINUOUS
 10
204.3589615575
 20
135.5297319988
 11
204.5464615575
 21
135.5935617784
  0
LINE
  5
593
100
AcDbEntity
  8
0
100
AcDbLine
 62
7
  6
CONTINUOUS
 10
182.8464616171
 20
169.2263277701
 11
188.4922129282
 21
169.2263277701
  0
LINE
  5
594
100
AcDbEntity
  8
0
100
AcDbLine
 62
7
  6
CONTINUOUS
 10
225.2007103061
 20
169.2263277701
 11
230.8464616171
 21
169.2263277701
  0
LINE
  5
595
100
AcDbEntity
  8
0
100
AcDbLine
 62
7
  6
CONTINUOUS
 10
227.640051266
 20
164.0822615338
 11
227.640051266
 21
162.9157401554
  0
LINE
  5
596
100
AcDbEntity
  8
0
100
AcDbLine
 62
7
  6
CONTINUOUS
 10
228.2443854942
 20
162.9147821007
 11
228.2443854942
 21
164.0822615338
  0
LINE
  5
597
100
AcDbEntity
  8
0
100
AcDbLine
 62
7
  6
CONTINUOUS
 10
226.5454830431
 20
160.8395129208
 11
226.5587448481
 21
161.0822615338
  0
LINE
  5
598
100
AcDbEntity
  8
0
100
AcDbLine
 62
7
  6
CONTINUOUS
 10
216.7956278865
 20
129.8686681885
 11
216.8997953478
 21
130.0814341578
  0
LINE
  5
599
100
AcDbEntity
  8
0
100
AcDbLine
 62
7
  6
CONTINUOUS
 10
214.0872953478
 20
129.9750511918
 11
214.1914616171
 21
130.1346256409
  0
LINE
  5
59A
100
AcDbEntity
  8
0
100
AcDbLine
 62
7
  6
CONTINUOUS
 10
216.4831278865
 20
129.9750511918
 11
216.5872953478
 21
130.1346256409
  0
LINE
  5
59B
100
AcDbEntity
  8
0
100
AcDbLine
 62
7
  6
CONTINUOUS
 10
208.0935447518
 20
127.463987389
 11
208.3018784825
 21
127.6767533211
  0
LINE
  5
59C
100
AcDbEntity
  8
0
100
AcDbLine
 62
7
  6
CONTINUOUS
 10
209.3435447518
 20
126.8256894437
 11
209.4477116171
 21
126.9320724097
  0
LINE
  5
59D
100
AcDbEntity
  8
0
100
AcDbLine
 62
7
  6
CONTINUOUS
 10
215.1810453478
 20
131.623987389
 11
215.3893778865
 21
131.8367533211
  0
LINE
  5
59E
100
AcDbEntity
  8
0
100
AcDbLine
 62
7
  6
CONTINUOUS
 10
209.4477116171
 20
125.7086681885
 11
209.5518784825
 21
125.8150511918
  0
LINE
  5
59F
100
AcDbEntity
  8
0
100
AcDbLine
 62
7
  6
CONTINUOUS
 10
214.1914616171
 20
129.6559022378
 11
214.3997953478
 21
129.8686681885
  0
LINE
  5
5A0
100
AcDbEntity
  8
0
100
AcDbLine
 62
7
  6
CONTINUOUS
 10
209.5560453478
 20
130.6665405456
 11
209.7643778865
 21
130.8261149946
  0
LINE
  5
5A1
100
AcDbEntity
  8
0
100
AcDbLine
 62
7
  6
CONTINUOUS
 10
205.9622947518
 20
129.8686681885
 11
206.1185447518
 21
129.9750511918
  0
LINE
  5
5A2
100
AcDbEntity
  8
0
100
AcDbLine
 62
7
  6
CONTINUOUS
 10
202.9372949381
 20
127.4107959059
 11
203.0935449753
 21
127.517178872
  0
LINE
  5
5A3
100
AcDbEntity
  8
0
100
AcDbLine
 62
7
  6
CONTINUOUS
 10
206.1664616171
 20
127.4107959059
 11
206.3227116171
 21
127.517178872
  0
LINE
  5
5A4
100
AcDbEntity
  8
0
100
AcDbLine
 62
7
  6
CONTINUOUS
 10
203.614378259
 20
125.6554767055
 11
203.7706283335
 21
125.7618596715
  0
LINE
  5
5A5
100
AcDbEntity
  8
0
100
AcDbLine
 62
7
  6
CONTINUOUS
 10
205.9581281845
 20
126.6661149946
 11
206.2706281845
 21
126.8788809267
  0
LINE
  5
5A6
100
AcDbEntity
  8
0
100
AcDbLine
 62
7
  6
CONTINUOUS
 10
206.1664616171
 20
126.5065405456
 11
206.3227116171
 21
126.6129235116
  0
LINE
  5
5A7
100
AcDbEntity
  8
0
100
AcDbLine
 62
7
  6
CONTINUOUS
 10
202.7810449381
 20
127.623561838
 11
203.0414616171
 21
127.7831362871
  0
LINE
  5
5A8
100
AcDbEntity
  8
0
100
AcDbLine
 62
7
  6
CONTINUOUS
 10
206.0102116171
 20
127.623561838
 11
206.2706281845
 21
127.7831362871
  0
LINE
  5
5A9
100
AcDbEntity
  8
0
100
AcDbLine
 62
7
  6
CONTINUOUS
 10
203.6664616171
 20
125.3895192578
 11
203.9268783335
 21
125.5490937208
  0
LINE
  5
5AA
100
AcDbEntity
  8
0
100
AcDbLine
 62
7
  6
CONTINUOUS
 10
203.7227116171
 20
130.7729235116
 11
203.8268784825
 21
130.8261149946
  0
LINE
  5
5AB
100
AcDbEntity
  8
0
100
AcDbLine
 62
7
  6
CONTINUOUS
 10
210.2339618556
 20
133.8701575553
 11
210.4839616171
 21
133.9978171313
  0
LINE
  5
5AC
100
AcDbEntity
  8
0
100
AcDbLine
 62
7
  6
CONTINUOUS
 10
206.0143784825
 20
129.5495192578
 11
206.2227116171
 21
129.6559022378
  0
LINE
  5
5AD
100
AcDbEntity
  8
0
100
AcDbLine
 62
7
  6
CONTINUOUS
 10
203.4102116171
 20
130.9324979607
 11
203.5664616171
 21
130.9856894437
  0
LINE
  5
5AE
100
AcDbEntity
  8
0
100
AcDbLine
 62
7
  6
CONTINUOUS
 10
203.4102116171
 20
129.8154767055
 11
203.5664616171
 21
129.8686681885
  0
LINE
  5
5AF
100
AcDbEntity
  8
0
100
AcDbLine
 62
7
  6
CONTINUOUS
 10
209.3477116171
 20
130.9324979607
 11
209.5039616171
 21
130.9856894437
  0
LINE
  5
5B0
100
AcDbEntity
  8
0
100
AcDbLine
 62
7
  6
CONTINUOUS
 10
229.9411342723
 20
160.7753910347
 11
229.9343603684
 21
161.0822615338
  0
LINE
  5
5B1
100
AcDbEntity
  8
0
100
AcDbLine
 62
7
  6
CONTINUOUS
 10
229.9411342723
 20
164.1753910347
 11
229.9343603684
 21
164.4822615338
  0
LINE
  5
5B2
100
AcDbEntity
  8
0
100
AcDbLine
 62
7
  6
CONTINUOUS
 10
230.8464616171
 20
144.2263277701
 11
230.8464616171
 21
169.2263277701
  0
LINE
  5
5B3
100
AcDbEntity
  8
0
100
AcDbLine
 62
7
  6
CONTINUOUS
 10
216.5872953478
 20
129.6559022378
 11
216.7956278865
 21
129.8686681885
  0
LINE
  5
5B4
100
AcDbEntity
  8
0
100
AcDbLine
 62
7
  6
CONTINUOUS
 10
209.4477116171
 20
126.6129235116
 11
209.6560447518
 21
126.7724979607
  0
LINE
  5
5B5
100
AcDbEntity
  8
0
100
AcDbLine
 62
7
  6
CONTINUOUS
 10
208.4060447518
 20
127.4107959059
 11
208.5622947518
 21
127.517178872
  0
LINE
  5
5B6
100
AcDbEntity
  8
0
100
AcDbLine
 62
7
  6
CONTINUOUS
 10
215.4935453478
 20
131.5176044229
 11
215.6497953478
 21
131.623987389
  0
LINE
  5
5B7
100
AcDbEntity
  8
0
100
AcDbLine
 62
7
  6
CONTINUOUS
 10
206.9997950498
 20
125.6554767055
 11
207.1560450498
 21
125.7618596715
  0
LINE
  5
5B8
100
AcDbEntity
  8
0
100
AcDbLine
 62
7
  6
CONTINUOUS
 10
213.9310453478
 20
129.8686681885
 11
214.0872953478
 21
129.9750511918
  0
LINE
  5
5B9
100
AcDbEntity
  8
0
100
AcDbLine
 62
7
  6
CONTINUOUS
 10
209.5518784825
 20
125.4959022378
 11
209.7081284825
 21
125.6022852225
  0
LINE
  5
5BA
100
AcDbEntity
  8
0
100
AcDbLine
 62
7
  6
CONTINUOUS
 10
216.3268778865
 20
129.8686681885
 11
216.4831278865
 21
129.9750511918
  0
LINE
  5
5BB
100
AcDbEntity
  8
0
100
AcDbLine
 62
7
  6
CONTINUOUS
 10
207.0518781845
 20
125.3895192578
 11
207.3122950498
 21
125.5490937208
  0
LINE
  5
5BC
100
AcDbEntity
  8
0
100
AcDbLine
 62
7
  6
CONTINUOUS
 10
215.3893778865
 20
131.8367533211
 11
215.5977116171
 21
131.9431362871
  0
LINE
  5
5BD
100
AcDbEntity
  8
0
100
AcDbLine
 62
7
  6
CONTINUOUS
 10
208.3018784825
 20
127.6767533211
 11
208.5102116171
 21
127.7831362871
  0
LINE
  5
5BE
100
AcDbEntity
  8
0
100
AcDbLine
 62
7
  6
CONTINUOUS
 10
213.9831278865
 20
129.5495192578
 11
214.1914616171
 21
129.6559022378
  0
LINE
  5
5BF
100
AcDbEntity
  8
0
100
AcDbLine
 62
7
  6
CONTINUOUS
 10
216.3789616171
 20
129.5495192578
 11
216.5872953478
 21
129.6559022378
  0
LINE
  5
5C0
100
AcDbEntity
  8
0
100
AcDbLine
 62
7
  6
CONTINUOUS
 10
209.3435447518
 20
125.6554767055
 11
209.4477116171
 21
125.7086681885
  0
LINE
  5
5C1
100
AcDbEntity
  8
0
100
AcDbLine
 62
7
  6
CONTINUOUS
 10
215.6497953478
 20
131.623987389
 11
215.8060453478
 21
131.677178872
  0
LINE
  5
5C2
100
AcDbEntity
  8
0
100
AcDbLine
 62
7
  6
CONTINUOUS
 10
206.3227116171
 20
127.517178872
 11
206.4789616171
 21
127.570370355
  0
LINE
  5
5C3
100
AcDbEntity
  8
0
100
AcDbLine
 62
7
  6
CONTINUOUS
 10
206.3227116171
 20
126.6129235116
 11
206.4789616171
 21
126.6661149946
  0
LINE
  5
5C4
100
AcDbEntity
  8
RUNDUNGEN
100
AcDbLine
 62
7
  6
CONTINUOUS
 10
232.8464616171
 20
135.2263277701
 11
232.8464616171
 21
175.2263277701
  0
LINE
  5
5C5
100
AcDbEntity
  8
0
100
AcDbLine
 62
7
  6
CONTINUOUS
 10
209.3435447518
 20
125.3895192578
 11
209.5518784825
 21
125.4959022378
  0
LINE
  5
5C6
100
AcDbEntity
  8
0
100
AcDbLine
 62
7
  6
CONTINUOUS
 10
209.0310447518
 20
126.7193064777
 11
209.3435447518
 21
126.8256894437
  0
LINE
  5
5C7
100
AcDbEntity
  8
0
100
AcDbLine
 62
7
  6
CONTINUOUS
 10
206.8435450498
 20
125.6022852225
 11
206.9997950498
 21
125.6554767055
  0
LINE
  5
5C8
100
AcDbEntity
  8
0
100
AcDbLine
 62
7
  6
CONTINUOUS
 10
231.20699193
 20
175.5756203839
 11
224.0964616171
 21
191.5461329485
  0
LINE
  5
5C9
100
AcDbEntity
  8
BEZUGSACHSEN
100
AcDbLine
 62
7
  6
CONTINUOUS
 10
209.8464616171
 20
105.5263277701
 11
210.8464616171
 21
106.5263277701
  0
LINE
  5
5CA
100
AcDbEntity
  8
0
100
AcDbLine
 62
7
  6
CONTINUOUS
 10
224.0964616171
 20
191.5461329485
 11
206.8464616171
 21
199.2263277701
  0
LWPOLYLINE
  5
5CB
100
AcDbEntity
  8
RUNDUNGEN
100
AcDbPolyline
 62
7
  6
CONTINUOUS
 90
3
 70
0
 10
144.362744316
 20
32.8981034383
 10
144.8125470832
 20
32.909296322
 10
145.8615345804
 20
32.9410535813
  0
LINE
  5
5CC
100
AcDbEntity
  8
RUNDUNGEN
100
AcDbLine
 62
7
  6
CONTINUOUS
 10
143.2467812055
 20
32.8761566288
 11
144.3595142592
 21
32.8980278008
  0
LINE
  5
5CD
100
AcDbEntity
  8
RUNDUNGEN
100
AcDbLine
 62
7
  6
CONTINUOUS
 10
143.1095769855
 20
32.8742293899
 11
143.252381265
 21
32.8762470604
  0
LINE
  5
5CE
100
AcDbEntity
  8
RUNDUNGEN
100
AcDbLine
 62
7
  6
CONTINUOUS
 10
120.3095769855
 20
32.8543670886
 11
133.1095769855
 21
32.8543670886
  0
LINE
  5
5CF
100
AcDbEntity
  8
KONSTRUKTIONSELEMENTE
100
AcDbLine
 62
7
  6
CONTINUOUS
 10
117.3887518118
 20
48.7940436852
 11
117.2935302519
 21
48.1510562401
  0
LINE
  5
5D0
100
AcDbEntity
  8
BEZUGSACHSEN
100
AcDbLine
 62
7
  6
CONTINUOUS
 10
119.0568002358
 20
54.3543670886
 11
115.3040234861
 21
47.8543670886
  0
LINE
  5
5D1
100
AcDbEntity
  8
0
100
AcDbLine
 62
7
  6
CONTINUOUS
 10
108.5120992509
 20
37.8010333579
 11
109.1771701973
 21
37.8010333579
  0
LINE
  5
5D2
100
AcDbEntity
  8
0
100
AcDbLine
 62
7
  6
CONTINUOUS
 10
108.4241198826
 20
37.9052008193
 11
109.0839771999
 21
37.9052008193
  0
LINE
  5
5D3
100
AcDbEntity
  8
0
100
AcDbLine
 62
7
  6
CONTINUOUS
 10
108.3807156137
 20
37.9572833579
 11
109.0380316776
 21
37.9572833579
  0
LINE
  5
5D4
100
AcDbEntity
  8
0
100
AcDbLine
 62
7
  6
CONTINUOUS
 10
108.3376943015
 20
38.0093670886
 11
108.9925113323
 21
38.0093670886
  0
LINE
  5
5D5
100
AcDbEntity
  8
0
100
AcDbLine
 62
7
  6
CONTINUOUS
 10
108.2108942705
 20
38.1656170886
 11
108.8584581128
 21
38.1656170886
  0
LINE
  5
5D6
100
AcDbEntity
  8
0
100
AcDbLine
 62
7
  6
CONTINUOUS
 10
108.0469627715
 20
38.3739508193
 11
108.6853906759
 21
38.3739508193
  0
LINE
  5
5D7
100
AcDbEntity
  8
0
100
AcDbLine
 62
7
  6
CONTINUOUS
 10
107.8499782761
 20
38.6343670886
 11
108.4777723894
 21
38.6343670886
  0
LINE
  5
5D8
100
AcDbEntity
  8
0
100
AcDbLine
 62
7
  6
CONTINUOUS
 10
107.6614206229
 20
38.8947833579
 11
108.2793708621
 21
38.8947833579
  0
LINE
  5
5D9
100
AcDbEntity
  8
0
100
AcDbLine
 62
7
  6
CONTINUOUS
 10
107.5163903834
 20
39.1031170886
 11
108.1269818828
 21
39.1031170886
  0
LINE
  5
5DA
100
AcDbEntity
  8
BEZUGSACHSEN
100
AcDbLine
 62
7
  6
CONTINUOUS
 10
115.3040234861
 20
47.8543670886
 11
119.0568002358
 21
41.3543670886
  0
LINE
  5
5DB
100
AcDbEntity
  8
KONSTRUKTIONSELEMENTE
100
AcDbLine
 62
7
  6
CONTINUOUS
 10
119.5452245248
 20
49.8022488986
 11
119.5311807
 21
49.6867081397
  0
LINE
  5
5DC
100
AcDbEntity
  8
KONSTRUKTIONSELEMENTE
100
AcDbLine
 62
7
  6
CONTINUOUS
 10
117.5278061389
 20
48.2806340183
 11
117.60318987
 21
48.7896657202
  0
LINE
  5
5DD
100
AcDbEntity
  8
KONSTRUKTIONSELEMENTE
100
AcDbLine
 62
7
  6
CONTINUOUS
 10
118.2346014791
 20
48.6961584537
 11
118.1592177479
 21
48.1871267519
  0
LINE
  5
5DE
100
AcDbEntity
  8
KONSTRUKTIONSELEMENTE
100
AcDbLine
 62
7
  6
CONTINUOUS
 10
118.4117823443
 20
48.1497238523
 11
118.4792309474
 21
48.6051732798
  0
LINE
  5
5DF
100
AcDbEntity
  8
KONSTRUKTIONSELEMENTE
100
AcDbLine
 62
7
  6
CONTINUOUS
 10
119.2719531598
 20
47.858066825
 11
119.2957585498
 21
48.0188136862
  0
LINE
  5
5E0
100
AcDbEntity
  8
KONSTRUKTIONSELEMENTE
100
AcDbLine
 62
7
  6
CONTINUOUS
 10
119.3949476709
 20
48.6885922493
 11
119.4227206335
 21
48.8761303052
  0
LINE
  5
5E1
100
AcDbEntity
  8
KONSTRUKTIONSELEMENTE
100
AcDbLine
 62
7
  6
CONTINUOUS
 10
119.7558246775
 20
49.5653699721
 11
119.7827395645
 21
49.7047400638
  0
LINE
  5
5E2
100
AcDbEntity
  8
KONSTRUKTIONSELEMENTE
100
AcDbLine
 62
7
  6
CONTINUOUS
 10
117.45068374
 20
48.9217656118
 11
117.3887518118
 21
48.7940436852
  0
LINE
  5
5E3
100
AcDbEntity
  8
KONSTRUKTIONSELEMENTE
100
AcDbLine
 62
7
  6
CONTINUOUS
 10
118.2020513761
 20
50.8971230839
 11
118.1248246881
 21
50.7541465521
  0
LINE
  5
5E4
100
AcDbEntity
  8
KONSTRUKTIONSELEMENTE
100
AcDbLine
 62
7
  6
CONTINUOUS
 10
117.8159179358
 20
50.1822404248
 11
117.7386912108
 21
50.0392638248
  0
LINE
  5
5E5
100
AcDbEntity
  8
KONSTRUKTIONSELEMENTE
100
AcDbLine
 62
7
  6
CONTINUOUS
 10
119.5311807
 20
49.6867081397
 11
119.4796962168
 21
49.5913904063
  0
LINE
  5
5E6
100
AcDbEntity
  8
KONSTRUKTIONSELEMENTE
100
AcDbLine
 62
7
  6
CONTINUOUS
 10
117.60318987
 20
48.7896657202
 11
117.6571866644
 21
48.8638053342
  0
LINE
  5
5E7
100
AcDbEntity
  8
KONSTRUKTIONSELEMENTE
100
AcDbLine
 62
7
  6
CONTINUOUS
 10
119.2660650986
 20
52.06212892
 11
118.7772224865
 21
51.6337215197
  0
LINE
  5
5E8
100
AcDbEntity
  8
KONSTRUKTIONSELEMENTE
100
AcDbLine
 62
7
  6
CONTINUOUS
 10
119.0677109853
 20
51.5488066547
 11
119.4343429444
 21
51.8701122049
  0
LINE
  5
5E9
100
AcDbEntity
  8
KONSTRUKTIONSELEMENTE
100
AcDbLine
 62
7
  6
CONTINUOUS
 10
119.3959536948
 20
52.1193777439
 11
119.2660650986
 21
52.06212892
  0
LINE
  5
5EA
100
AcDbEntity
  8
0
100
AcDbLine
 62
7
  6
CONTINUOUS
 10
107.3763414423
 20
39.3114508193
 11
107.9799954186
 21
39.3114508193
  0
LINE
  5
5EB
100
AcDbEntity
  8
0
100
AcDbLine
 62
7
  6
CONTINUOUS
 10
107.241114412
 20
39.5197833579
 11
107.8382212438
 21
39.5197833579
  0
LINE
  5
5EC
100
AcDbEntity
  8
0
100
AcDbLine
 62
7
  6
CONTINUOUS
 10
107.2080429627
 20
39.5718670886
 11
107.8035706785
 21
39.5718670886
  0
LINE
  5
5ED
100
AcDbEntity
  8
0
100
AcDbLine
 62
7
  6
CONTINUOUS
 10
107.1105595623
 20
39.7281170886
 11
107.7014819297
 21
39.7281170886
  0
LINE
  5
5EE
100
AcDbEntity
  8
0
100
AcDbLine
 62
7
  6
CONTINUOUS
 10
106.8629298681
 20
40.1447833579
 11
107.4424747982
 21
40.1447833579
  0
LINE
  5
5EF
100
AcDbEntity
  8
0
100
AcDbLine
 62
7
  6
CONTINUOUS
 10
106.6885215095
 20
40.4572833579
 11
107.2603182985
 21
40.4572833579
  0
LINE
  5
5F0
100
AcDbEntity
  8
0
100
AcDbLine
 62
7
  6
CONTINUOUS
 10
106.6603654698
 20
40.5093670886
 11
107.2309312223
 21
40.5093670886
  0
LINE
  5
5F1
100
AcDbEntity
  8
0
100
AcDbLine
 62
7
  6
CONTINUOUS
 10
106.6048213553
 20
40.6135333579
 11
107.172974423
 21
40.6135333579
  0
LINE
  5
5F2
100
AcDbEntity
  8
0
100
AcDbLine
 62
7
  6
CONTINUOUS
 10
106.5234000912
 20
40.7697833579
 11
107.088053875
 21
40.7697833579
  0
LINE
  5
5F3
100
AcDbEntity
  8
0
100
AcDbLine
 62
7
  6
CONTINUOUS
 10
106.4183140502
 20
40.9781170886
 11
106.9785160398
 21
40.9781170886
  0
LINE
  5
5F4
100
AcDbEntity
  8
0
100
AcDbLine
 62
7
  6
CONTINUOUS
 10
106.3171185659
 20
41.1864508193
 11
106.8731007873
 21
41.1864508193
  0
LINE
  5
5F5
100
AcDbEntity
  8
BEZUGSACHSEN
100
AcDbLine
 62
7
  6
CONTINUOUS
 10
119.0568002358
 20
41.3543670886
 11
126.5623537352
 21
41.3543670886
  0
LINE
  5
5F6
100
AcDbEntity
  8
0
100
AcDbLine
 62
7
  6
CONTINUOUS
 10
106.2197303566
 20
41.3947833579
 11
106.7717123819
 21
41.3947833579
  0
LINE
  5
5F7
100
AcDbEntity
  8
KONSTRUKTIONSELEMENTE
100
AcDbLine
 62
7
  6
CONTINUOUS
 10
118.2044100746
 20
48.7827657009
 11
118.2346014791
 21
48.6961584537
  0
LINE
  5
5F8
100
AcDbEntity
  8
KONSTRUKTIONSELEMENTE
100
AcDbLine
 62
7
  6
CONTINUOUS
 10
120.4744039242
 20
50.9709750136
 11
120.4693912326
 21
50.8534184944
  0
LINE
  5
5F9
100
AcDbEntity
  8
KONSTRUKTIONSELEMENTE
100
AcDbLine
 62
7
  6
CONTINUOUS
 10
120.6580376932
 20
50.6792522043
 11
120.6834187615
 21
50.8146589497
  0
LINE
  5
5FA
100
AcDbEntity
  8
KONSTRUKTIONSELEMENTE
100
AcDbLine
 62
7
  6
CONTINUOUS
 10
120.4693912326
 20
50.8534184944
 11
120.4159638493
 21
50.7500145433
  0
LINE
  5
5FB
100
AcDbEntity
  8
KONSTRUKTIONSELEMENTE
100
AcDbLine
 62
7
  6
CONTINUOUS
 10
119.7043401942
 20
49.4700522388
 11
119.7558246775
 21
49.5653699721
  0
LINE
  5
5FC
100
AcDbEntity
  8
KONSTRUKTIONSELEMENTE
100
AcDbLine
 62
7
  6
CONTINUOUS
 10
121.3662013125
 20
50.3543670886
 11
119.9228256396
 21
47.8543670886
  0
LINE
  5
5FD
100
AcDbEntity
  8
KONSTRUKTIONSELEMENTE
100
AcDbLine
 62
7
  6
CONTINUOUS
 10
120.5842417147
 20
50.5579978058
 11
120.6580376932
 21
50.6792522043
  0
LINE
  5
5FE
100
AcDbEntity
  8
KONSTRUKTIONSELEMENTE
100
AcDbLine
 62
7
  6
CONTINUOUS
 10
124.6632204848
 20
52.7319871431
 11
124.5234001269
 21
52.5627132069
  0
LINE
  5
5FF
100
AcDbEntity
  8
KONSTRUKTIONSELEMENTE
100
AcDbLine
 62
7
  6
CONTINUOUS
 10
119.6025439835
 20
49.3711282017
 11
119.7043401942
 21
49.4700522388
  0
LINE
  5
600
100
AcDbEntity
  8
KONSTRUKTIONSELEMENTE
100
AcDbLine
 62
7
  6
CONTINUOUS
 10
124.6458543889
 20
52.5048982314
 11
124.7493398216
 21
52.5972119968
  0
LINE
  5
601
100
AcDbEntity
  8
KONSTRUKTIONSELEMENTE
100
AcDbLine
 62
7
  6
CONTINUOUS
 10
120.4159638493
 20
50.7500145433
 11
120.0493318902
 21
50.4287089931
  0
LINE
  5
602
100
AcDbEntity
  8
KONSTRUKTIONSELEMENTE
100
AcDbLine
 62
7
  6
CONTINUOUS
 10
120.0953991026
 20
50.1295904055
 11
120.5842417147
 21
50.5579978058
  0
LINE
  5
603
100
AcDbEntity
  8
KONSTRUKTIONSELEMENTE
100
AcDbLine
 62
7
  6
CONTINUOUS
 10
119.4796962168
 20
49.5913904063
 11
119.3907711486
 21
49.5162958349
  0
LINE
  5
604
100
AcDbEntity
  8
KONSTRUKTIONSELEMENTE
100
AcDbLine
 62
7
  6
CONTINUOUS
 10
124.7911963827
 20
52.8127379643
 11
124.6632204848
 21
52.7319871431
  0
LINE
  5
605
100
AcDbEntity
  8
KONSTRUKTIONSELEMENTE
100
AcDbLine
 62
7
  6
CONTINUOUS
 10
117.5928362944
 20
49.0102287107
 11
117.45068374
 21
48.9217656118
  0
LINE
  5
606
100
AcDbEntity
  8
KONSTRUKTIONSELEMENTE
100
AcDbLine
 62
7
  6
CONTINUOUS
 10
124.7493398216
 20
52.5972119968
 11
124.9018062355
 21
52.6663999817
  0
LINE
  5
607
100
AcDbEntity
  8
KONSTRUKTIONSELEMENTE
100
AcDbLine
 62
7
  6
CONTINUOUS
 10
124.4278414744
 20
52.0431387938
 11
124.2753750605
 21
51.9739508089
  0
LINE
  5
608
100
AcDbEntity
  8
KONSTRUKTIONSELEMENTE
100
AcDbLine
 62
7
  6
CONTINUOUS
 10
125.0938154361
 20
52.0581120976
 11
124.9413484616
 21
51.9889243773
  0
LINE
  5
609
100
AcDbEntity
  8
KONSTRUKTIONSELEMENTE
100
AcDbLine
 62
7
  6
CONTINUOUS
 10
117.6571866644
 20
48.8638053342
 11
117.749309997
 21
48.9049200136
  0
LINE
  5
60A
100
AcDbEntity
  8
KONSTRUKTIONSELEMENTE
100
AcDbLine
 62
7
  6
CONTINUOUS
 10
119.4343429444
 20
51.8701122049
 11
119.543862943
 21
51.9095105843
  0
LINE
  5
60B
100
AcDbEntity
  8
KONSTRUKTIONSELEMENTE
100
AcDbLine
 62
7
  6
CONTINUOUS
 10
124.9681544338
 20
52.8703625837
 11
124.7911963827
 21
52.8127379643
  0
LINE
  5
60C
100
AcDbEntity
  8
0
100
AcDbLine
 62
7
  6
CONTINUOUS
 10
106.1491397084
 20
41.5510333579
 11
106.6982587584
 21
41.5510333579
  0
LINE
  5
60D
100
AcDbEntity
  8
0
100
AcDbLine
 62
7
  6
CONTINUOUS
 10
106.1032284904
 20
41.6552008193
 11
106.6505017033
 21
41.6552008193
  0
LINE
  5
60E
100
AcDbEntity
  8
0
100
AcDbLine
 62
7
  6
CONTINUOUS
 10
106.0806149149
 20
41.7072833579
 11
106.6269836053
 21
41.7072833579
  0
LINE
  5
60F
100
AcDbEntity
  8
0
100
AcDbLine
 62
7
  6
CONTINUOUS
 10
105.9496454853
 20
42.0197833579
 11
106.4908349049
 21
42.0197833579
  0
LINE
  5
610
100
AcDbEntity
  8
0
100
AcDbLine
 62
7
  6
CONTINUOUS
 10
105.7873118971
 20
42.4364508193
 11
106.3222190042
 21
42.4364508193
  0
LINE
  5
611
100
AcDbEntity
  8
KONSTRUKTIONSELEMENTE
100
AcDbLine
 62
7
  6
CONTINUOUS
 10
118.1281570096
 20
48.8488156468
 11
118.2044100746
 21
48.7827657009
  0
LINE
  5
612
100
AcDbEntity
  8
KONSTRUKTIONSELEMENTE
100
AcDbLine
 62
7
  6
CONTINUOUS
 10
119.9228256396
 20
47.8543670886
 11
121.3662013125
 21
45.3543670886
  0
LINE
  5
613
100
AcDbEntity
  8
KONSTRUKTIONSELEMENTE
100
AcDbLine
 62
7
  6
CONTINUOUS
 10
118.4188481442
 20
48.7783878126
 11
118.3505302016
 21
48.8980199944
  0
LINE
  5
614
100
AcDbEntity
  8
KONSTRUKTIONSELEMENTE
100
AcDbLine
 62
7
  6
CONTINUOUS
 10
119.7593427209
 20
49.8405038536
 11
119.6610645569
 21
50.0167136963
  0
LINE
  5
615
100
AcDbEntity
  8
KONSTRUKTIONSELEMENTE
100
AcDbLine
 62
7
  6
CONTINUOUS
 10
120.4310019633
 20
51.1026840559
 11
120.4744039242
 21
50.9709750136
  0
LINE
  5
616
100
AcDbEntity
  8
KONSTRUKTIONSELEMENTE
100
AcDbLine
 62
7
  6
CONTINUOUS
 10
119.5089565255
 20
49.9141832298
 11
119.5452245248
 21
49.8022488986
  0
LINE
  5
617
100
AcDbEntity
  8
KONSTRUKTIONSELEMENTE
100
AcDbLine
 62
7
  6
CONTINUOUS
 10
119.7827395645
 20
49.7047400638
 11
119.7593427209
 21
49.8405038536
  0
LINE
  5
618
100
AcDbEntity
  8
KONSTRUKTIONSELEMENTE
100
AcDbLine
 62
7
  6
CONTINUOUS
 10
120.6834187615
 20
50.8146589497
 11
120.6527072122
 21
51.0140712695
  0
LINE
  5
619
100
AcDbEntity
  8
KONSTRUKTIONSELEMENTE
100
AcDbLine
 62
7
  6
CONTINUOUS
 10
122.4585058568
 20
53.3815045993
 11
122.3501515868
 21
51.3844419183
  0
LINE
  5
61A
100
AcDbEntity
  8
KONSTRUKTIONSELEMENTE
100
AcDbLine
 62
7
  6
CONTINUOUS
 10
122.5124129296
 20
51.3756381338
 11
122.5977131024
 21
52.9477939121
  0
LINE
  5
61B
100
AcDbEntity
  8
KONSTRUKTIONSELEMENTE
100
AcDbLine
 62
7
  6
CONTINUOUS
 10
123.5712811594
 20
52.8949712055
 11
123.4859809866
 21
51.3228154272
  0
LINE
  5
61C
100
AcDbEntity
  8
KONSTRUKTIONSELEMENTE
100
AcDbLine
 62
7
  6
CONTINUOUS
 10
123.6482423295
 20
51.3140116427
 11
123.7565965995
 21
53.3110743238
  0
LINE
  5
61D
100
AcDbEntity
  8
KONSTRUKTIONSELEMENTE
100
AcDbLine
 62
7
  6
CONTINUOUS
 10
124.4688968983
 20
52.4472733474
 11
124.4452075195
 21
52.2702275977
  0
LINE
  5
61E
100
AcDbEntity
  8
KONSTRUKTIONSELEMENTE
100
AcDbLine
 62
7
  6
CONTINUOUS
 10
124.0810509389
 20
51.6892373318
 11
124.039194365
 21
51.4737113373
  0
LINE
  5
61F
100
AcDbEntity
  8
KONSTRUKTIONSELEMENTE
100
AcDbLine
 62
7
  6
CONTINUOUS
 10
123.5132045853
 20
53.3242800005
 11
123.0107240084
 21
51.5616802616
  0
LINE
  5
620
100
AcDbEntity
  8
KONSTRUKTIONSELEMENTE
100
AcDbLine
 62
7
  6
CONTINUOUS
 10
123.107371393
 20
51.3433575797
 11
123.5712811594
 21
52.8949712055
  0
LINE
  5
621
100
AcDbEntity
  8
KONSTRUKTIONSELEMENTE
100
AcDbLine
 62
7
  6
CONTINUOUS
 10
124.1355541675
 20
51.8046771912
 11
124.0810509389
 21
51.6892373318
  0
LINE
  5
622
100
AcDbEntity
  8
KONSTRUKTIONSELEMENTE
100
AcDbLine
 62
7
  6
CONTINUOUS
 10
124.5234001269
 20
52.5627132069
 11
124.4688968983
 21
52.4472733474
  0
LINE
  5
623
100
AcDbEntity
  8
KONSTRUKTIONSELEMENTE
100
AcDbLine
 62
7
  6
CONTINUOUS
 10
124.2035057614
 20
51.6314220917
 11
124.25800899
 21
51.7468619511
  0
LINE
  5
624
100
AcDbEntity
  8
KONSTRUKTIONSELEMENTE
100
AcDbLine
 62
7
  6
CONTINUOUS
 10
124.6095189031
 20
52.4279383252
 11
124.6458543889
 21
52.5048982314
  0
LINE
  5
625
100
AcDbEntity
  8
KONSTRUKTIONSELEMENTE
100
AcDbLine
 62
7
  6
CONTINUOUS
 10
125.2336357431
 20
52.227385926
 11
125.1973002573
 21
52.1504260198
  0
LINE
  5
626
100
AcDbEntity
  8
KONSTRUKTIONSELEMENTE
100
AcDbLine
 62
7
  6
CONTINUOUS
 10
124.8947719368
 20
51.4462237085
 11
124.8402687082
 21
51.3307838491
  0
LINE
  5
627
100
AcDbEntity
  8
KONSTRUKTIONSELEMENTE
100
AcDbLine
 62
7
  6
CONTINUOUS
 10
125.301587337
 20
52.0541308266
 11
125.3560905656
 21
52.169570686
  0
LINE
  5
628
100
AcDbEntity
  8
KONSTRUKTIONSELEMENTE
100
AcDbLine
 62
7
  6
CONTINUOUS
 10
124.9627229702
 20
51.2729688737
 11
125.0172261988
 21
51.3884087331
  0
LINE
  5
629
100
AcDbEntity
  8
KONSTRUKTIONSELEMENTE
100
AcDbLine
 62
7
  6
CONTINUOUS
 10
124.2753750605
 20
51.9739508089
 11
124.1355541675
 21
51.8046771912
  0
LINE
  5
62A
100
AcDbEntity
  8
KONSTRUKTIONSELEMENTE
100
AcDbLine
 62
7
  6
CONTINUOUS
 10
124.8229026504
 20
51.1036950183
 11
124.9627229702
 21
51.2729688737
  0
LINE
  5
62B
100
AcDbEntity
  8
KONSTRUKTIONSELEMENTE
100
AcDbLine
 62
7
  6
CONTINUOUS
 10
125.1799342123
 20
51.9233372159
 11
125.301587337
 21
52.0541308266
  0
LINE
  5
62C
100
AcDbEntity
  8
KONSTRUKTIONSELEMENTE
100
AcDbLine
 62
7
  6
CONTINUOUS
 10
125.1973002573
 20
52.1504260198
 11
125.0938154361
 21
52.0581120976
  0
LINE
  5
62D
100
AcDbEntity
  8
KONSTRUKTIONSELEMENTE
100
AcDbLine
 62
7
  6
CONTINUOUS
 10
124.25800899
 20
51.7468619511
 11
124.4041526562
 21
51.8660927794
  0
LINE
  5
62E
100
AcDbEntity
  8
KONSTRUKTIONSELEMENTE
100
AcDbLine
 62
7
  6
CONTINUOUS
 10
124.8402687082
 20
51.3307838491
 11
124.6941250548
 21
51.2115530478
  0
LINE
  5
62F
100
AcDbEntity
  8
KONSTRUKTIONSELEMENTE
100
AcDbLine
 62
7
  6
CONTINUOUS
 10
125.0519583144
 20
51.8425863947
 11
125.1799342123
 21
51.9233372159
  0
LINE
  5
630
100
AcDbEntity
  8
KONSTRUKTIONSELEMENTE
100
AcDbLine
 62
7
  6
CONTINUOUS
 10
124.6949267462
 20
51.0229441836
 11
124.8229026504
 21
51.1036950183
  0
LINE
  5
631
100
AcDbEntity
  8
KONSTRUKTIONSELEMENTE
100
AcDbLine
 62
7
  6
CONTINUOUS
 10
119.4761781734
 20
49.3162565249
 11
119.6025439835
 21
49.3711282017
  0
LINE
  5
632
100
AcDbEntity
  8
KONSTRUKTIONSELEMENTE
100
AcDbLine
 62
7
  6
CONTINUOUS
 10
124.5179692509
 20
50.9653192895
 11
124.6949267462
 21
51.0229441836
  0
LINE
  5
633
100
AcDbEntity
  8
KONSTRUKTIONSELEMENTE
100
AcDbLine
 62
7
  6
CONTINUOUS
 10
117.773115387
 20
49.0656668749
 11
117.5928362944
 21
49.0102287107
  0
LINE
  5
634
100
AcDbEntity
  8
0
100
AcDbLine
 62
7
  6
CONTINUOUS
 10
105.35483269
 20
43.779367327
 11
105.873705798
 21
43.779367327
  0
LINE
  5
635
100
AcDbEntity
  8
0
100
AcDbLine
 62
7
  6
CONTINUOUS
 10
105.337942347
 20
43.8418670886
 11
105.8562090822
 21
43.8418670886
  0
LINE
  5
636
100
AcDbEntity
  8
0
100
AcDbLine
 62
7
  6
CONTINUOUS
 10
105.3049994972
 20
43.966867327
 11
105.8220877067
 21
43.966867327
  0
LINE
  5
637
100
AcDbEntity
  8
0
100
AcDbLine
 62
7
  6
CONTINUOUS
 10
105.2424407696
 20
44.2168670886
 11
105.7573058999
 21
44.2168670886
  0
LINE
  5
638
100
AcDbEntity
  8
0
100
AcDbLine
 62
7
  6
CONTINUOUS
 10
105.1842722899
 20
44.4668668502
 11
105.6970877337
 21
44.4668668502
  0
LINE
  5
639
100
AcDbEntity
  8
0
100
AcDbLine
 62
7
  6
CONTINUOUS
 10
105.1176589039
 20
44.7793670886
 11
105.6281473889
 21
44.7793670886
  0
LINE
  5
63A
100
AcDbEntity
  8
KONSTRUKTIONSELEMENTE
100
AcDbLine
 62
7
  6
CONTINUOUS
 10
121.3662013125
 20
45.3543670886
 11
124.2529526585
 21
45.3543670886
  0
LINE
  5
63B
100
AcDbEntity
  8
KONSTRUKTIONSELEMENTE
100
AcDbLine
 62
7
  6
CONTINUOUS
 10
117.7386912108
 20
50.0392638248
 11
118.8993517826
 21
49.4123499474
  0
LINE
  5
63C
100
AcDbEntity
  8
KONSTRUKTIONSELEMENTE
100
AcDbLine
 62
7
  6
CONTINUOUS
 10
118.3505302016
 20
48.8980199944
 11
118.194056499
 21
49.0033286914
  0
LINE
  5
63D
100
AcDbEntity
  8
KONSTRUKTIONSELEMENTE
100
AcDbLine
 62
7
  6
CONTINUOUS
 10
119.2854852599
 20
50.1272326746
 11
119.4223767548
 21
50.0225111049
  0
LINE
  5
63E
100
AcDbEntity
  8
KONSTRUKTIONSELEMENTE
100
AcDbLine
 62
7
  6
CONTINUOUS
 10
119.6610645569
 20
50.0167136963
 11
119.5370441014
 21
50.1452646112
  0
LINE
  5
63F
100
AcDbEntity
  8
KONSTRUKTIONSELEMENTE
100
AcDbLine
 62
7
  6
CONTINUOUS
 10
118.7772224865
 20
51.6337215197
 11
120.0953991026
 21
50.1295904055
  0
LINE
  5
640
100
AcDbEntity
  8
KONSTRUKTIONSELEMENTE
100
AcDbLine
 62
7
  6
CONTINUOUS
 10
120.0493318902
 20
50.4287089931
 11
119.0677109853
 21
51.5488066547
  0
LINE
  5
641
100
AcDbEntity
  8
KONSTRUKTIONSELEMENTE
100
AcDbLine
 62
7
  6
CONTINUOUS
 10
119.9184904434
 20
51.7285872721
 11
120.3391850972
 21
51.2485454395
  0
LINE
  5
642
100
AcDbEntity
  8
KONSTRUKTIONSELEMENTE
100
AcDbLine
 62
7
  6
CONTINUOUS
 10
119.4223767548
 20
50.0225111049
 11
119.5089565255
 21
49.9141832298
  0
LINE
  5
643
100
AcDbEntity
  8
KONSTRUKTIONSELEMENTE
100
AcDbLine
 62
7
  6
CONTINUOUS
 10
120.581258924
 20
51.1777831201
 11
120.4613957503
 21
51.3556472896
  0
LINE
  5
644
100
AcDbEntity
  8
KONSTRUKTIONSELEMENTE
100
AcDbLine
 62
7
  6
CONTINUOUS
 10
120.3391850972
 20
51.2485454395
 11
120.4310019633
 21
51.1026840559
  0
LINE
  5
645
100
AcDbEntity
  8
KONSTRUKTIONSELEMENTE
100
AcDbLine
 62
7
  6
CONTINUOUS
 10
120.6527072122
 20
51.0140712695
 11
120.581258924
 21
51.1777831201
  0
LINE
  5
646
100
AcDbEntity
  8
KONSTRUKTIONSELEMENTE
100
AcDbLine
 62
7
  6
CONTINUOUS
 10
122.5977131024
 20
52.9477939121
 11
122.8910225232
 21
51.3550959813
  0
LINE
  5
647
100
AcDbEntity
  8
KONSTRUKTIONSELEMENTE
100
AcDbLine
 62
7
  6
CONTINUOUS
 10
123.0107240084
 20
51.5616802616
 11
122.7018978711
 21
53.3682989227
  0
LINE
  5
648
100
AcDbEntity
  8
KONSTRUKTIONSELEMENTE
100
AcDbLine
 62
7
  6
CONTINUOUS
 10
124.2043074464
 20
51.4428132141
 11
124.2035057614
 21
51.6314220917
  0
LINE
  5
649
100
AcDbEntity
  8
KONSTRUKTIONSELEMENTE
100
AcDbLine
 62
7
  6
CONTINUOUS
 10
124.8939702645
 20
51.6348326131
 11
124.8947719368
 21
51.4462237085
  0
LINE
  5
64A
100
AcDbEntity
  8
KONSTRUKTIONSELEMENTE
100
AcDbLine
 62
7
  6
CONTINUOUS
 10
124.6039978277
 20
52.2893722639
 11
124.6095189031
 21
52.4279383252
  0
LINE
  5
64B
100
AcDbEntity
  8
KONSTRUKTIONSELEMENTE
100
AcDbLine
 62
7
  6
CONTINUOUS
 10
125.2391574299
 20
52.3659518305
 11
125.2336357431
 21
52.227385926
  0
LINE
  5
64C
100
AcDbEntity
  8
KONSTRUKTIONSELEMENTE
100
AcDbLine
 62
7
  6
CONTINUOUS
 10
125.0172261988
 20
51.3884087331
 11
125.0590833459
 21
51.6039344899
  0
LINE
  5
64D
100
AcDbEntity
  8
KONSTRUKTIONSELEMENTE
100
AcDbLine
 62
7
  6
CONTINUOUS
 10
125.3560905656
 20
52.169570686
 11
125.3979471776
 21
52.3850967613
  0
LINE
  5
64E
100
AcDbEntity
  8
KONSTRUKTIONSELEMENTE
100
AcDbLine
 62
7
  6
CONTINUOUS
 10
124.2529526585
 20
45.3543670886
 11
125.6963283315
 21
47.8543670886
  0
LINE
  5
64F
100
AcDbEntity
  8
0
100
AcDbLine
 62
7
  6
CONTINUOUS
 10
104.8898047758
 20
46.2793670886
 11
105.392493658
 21
46.2793670886
  0
LINE
  5
650
100
AcDbEntity
  8
0
100
AcDbLine
 62
7
  6
CONTINUOUS
 10
104.8560336941
 20
46.6552008193
 11
105.3575871427
 21
46.6552008193
  0
LINE
  5
651
100
AcDbEntity
  8
0
100
AcDbLine
 62
7
  6
CONTINUOUS
 10
104.8517718037
 20
46.7114502233
 11
105.3531823318
 21
46.7114502233
  0
LINE
  5
652
100
AcDbEntity
  8
0
100
AcDbLine
 62
7
  6
CONTINUOUS
 10
104.8469001557
 20
46.7793669694
 11
105.3481474167
 21
46.7793669694
  0
LINE
  5
653
100
AcDbEntity
  8
0
100
AcDbLine
 62
7
  6
CONTINUOUS
 10
104.8253915102
 20
47.1543669694
 11
105.3259192267
 21
47.1543669694
  0
LINE
  5
654
100
AcDbEntity
  8
0
100
AcDbLine
 62
7
  6
CONTINUOUS
 10
104.8226924134
 20
47.2168670886
 11
105.3231299833
 21
47.2168670886
  0
LINE
  5
655
100
AcDbEntity
  8
0
100
AcDbLine
 62
7
  6
CONTINUOUS
 10
104.8180515086
 20
47.3418669694
 11
105.3183347545
 21
47.3418669694
  0
LINE
  5
656
100
AcDbEntity
  8
0
100
AcDbLine
 62
7
  6
CONTINUOUS
 10
104.8129843502
 20
47.5293669694
 11
105.3130982347
 21
47.5293669694
  0
LINE
  5
657
100
AcDbEntity
  8
0
100
AcDbLine
 62
7
  6
CONTINUOUS
 10
104.8097584347
 20
47.7793670886
 11
105.3097644867
 21
47.7793670886
  0
LINE
  5
658
100
AcDbEntity
  8
0
100
AcDbLine
 62
7
  6
CONTINUOUS
 10
104.8105649638
 20
48.0293672078
 11
105.310597855
 21
48.0293672078
  0
LINE
  5
659
100
AcDbEntity
  8
KONSTRUKTIONSELEMENTE
100
AcDbLine
 62
7
  6
CONTINUOUS
 10
117.2935302519
 20
48.1510562401
 11
119.2719531598
 21
47.858066825
  0
LINE
  5
65A
100
AcDbEntity
  8
KONSTRUKTIONSELEMENTE
100
AcDbLine
 62
7
  6
CONTINUOUS
 10
119.2957585498
 20
48.0188136862
 11
118.4117823443
 21
48.1497238523
  0
LINE
  5
65B
100
AcDbEntity
  8
KONSTRUKTIONSELEMENTE
100
AcDbLine
 62
7
  6
CONTINUOUS
 10
118.1592177479
 20
48.1871267519
 11
117.5278061389
 21
48.2806340183
  0
LINE
  5
65C
100
AcDbEntity
  8
KONSTRUKTIONSELEMENTE
100
AcDbLine
 62
7
  6
CONTINUOUS
 10
117.8795598565
 20
48.9130096818
 11
118.0058422726
 21
48.8943082146
  0
LINE
  5
65D
100
AcDbEntity
  8
KONSTRUKTIONSELEMENTE
100
AcDbLine
 62
7
  6
CONTINUOUS
 10
118.071741762
 20
49.0488212592
 11
117.9033652464
 21
49.0737565431
  0
LINE
  5
65E
100
AcDbEntity
  8
KONSTRUKTIONSELEMENTE
100
AcDbLine
 62
7
  6
CONTINUOUS
 10
119.0994262145
 20
49.335064287
 11
119.2749311165
 21
49.3018310372
  0
LINE
  5
65F
100
AcDbEntity
  8
KONSTRUKTIONSELEMENTE
100
AcDbLine
 62
7
  6
CONTINUOUS
 10
119.1392122072
 20
49.4982637762
 11
118.9765785075
 21
49.5553265474
  0
LINE
  5
660
100
AcDbEntity
  8
KONSTRUKTIONSELEMENTE
100
AcDbLine
 62
7
  6
CONTINUOUS
 10
118.0058422726
 20
48.8943082146
 11
118.1281570096
 21
48.8488156468
  0
LINE
  5
661
100
AcDbEntity
  8
KONSTRUKTIONSELEMENTE
100
AcDbLine
 62
7
  6
CONTINUOUS
 10
118.194056499
 20
49.0033286914
 11
118.071741762
 21
49.0488212592
  0
LINE
  5
662
100
AcDbEntity
  8
KONSTRUKTIONSELEMENTE
100
AcDbLine
 62
7
  6
CONTINUOUS
 10
118.8993517826
 20
49.4123499474
 11
119.0994262145
 21
49.335064287
  0
LINE
  5
663
100
AcDbEntity
  8
KONSTRUKTIONSELEMENTE
100
AcDbLine
 62
7
  6
CONTINUOUS
 10
118.9765785075
 20
49.5553265474
 11
117.8159179358
 21
50.1822404248
  0
LINE
  5
664
100
AcDbEntity
  8
KONSTRUKTIONSELEMENTE
100
AcDbLine
 62
7
  6
CONTINUOUS
 10
118.1248246881
 20
50.7541465521
 11
119.2854852599
 21
50.1272326746
  0
LINE
  5
665
100
AcDbEntity
  8
KONSTRUKTIONSELEMENTE
100
AcDbLine
 62
7
  6
CONTINUOUS
 10
119.3627119479
 20
50.2702092064
 11
118.2020513761
 21
50.8971230839
  0
LINE
  5
666
100
AcDbEntity
  8
KONSTRUKTIONSELEMENTE
100
AcDbLine
 62
7
  6
CONTINUOUS
 10
119.5370441014
 20
50.1452646112
 11
119.3627119479
 21
50.2702092064
  0
LINE
  5
667
100
AcDbEntity
  8
KONSTRUKTIONSELEMENTE
100
AcDbLine
 62
7
  6
CONTINUOUS
 10
119.7859368484
 20
51.8387481752
 11
119.9184904434
 21
51.7285872721
  0
LINE
  5
668
100
AcDbEntity
  8
KONSTRUKTIONSELEMENTE
100
AcDbLine
 62
7
  6
CONTINUOUS
 10
120.0407010964
 20
51.8356891222
 11
119.8801011152
 21
51.9778529008
  0
LINE
  5
669
100
AcDbEntity
  8
KONSTRUKTIONSELEMENTE
100
AcDbLine
 62
7
  6
CONTINUOUS
 10
120.4613957503
 20
51.3556472896
 11
120.0407010964
 21
51.8356891222
  0
LINE
  5
66A
100
AcDbEntity
  8
KONSTRUKTIONSELEMENTE
100
AcDbLine
 62
7
  6
CONTINUOUS
 10
125.6963283315
 20
47.8543670886
 11
124.2529526585
 21
50.3543670886
  0
LINE
  5
66B
100
AcDbEntity
  8
KONSTRUKTIONSELEMENTE
100
AcDbLine
 62
7
  6
CONTINUOUS
 10
124.265935146
 20
51.3196014333
 11
124.2043074464
 21
51.4428132141
  0
LINE
  5
66C
100
AcDbEntity
  8
KONSTRUKTIONSELEMENTE
100
AcDbLine
 62
7
  6
CONTINUOUS
 10
124.0581637993
 20
51.3235824262
 11
124.1261148279
 21
51.1503275813
  0
LINE
  5
66D
100
AcDbEntity
  8
KONSTRUKTIONSELEMENTE
100
AcDbLine
 62
7
  6
CONTINUOUS
 10
124.6474577845
 20
52.12768053
 11
124.6039978277
 21
52.2893722639
  0
LINE
  5
66E
100
AcDbEntity
  8
KONSTRUKTIONSELEMENTE
100
AcDbLine
 62
7
  6
CONTINUOUS
 10
125.0590833459
 20
51.6039344899
 11
125.0156228286
 21
51.7656264884
  0
LINE
  5
66F
100
AcDbEntity
  8
KONSTRUKTIONSELEMENTE
100
AcDbLine
 62
7
  6
CONTINUOUS
 10
124.039194365
 20
51.4737113373
 11
124.0581637993
 21
51.3235824262
  0
LINE
  5
670
100
AcDbEntity
  8
KONSTRUKTIONSELEMENTE
100
AcDbLine
 62
7
  6
CONTINUOUS
 10
124.4452075195
 20
52.2702275977
 11
124.4641769602
 21
52.1200987001
  0
LINE
  5
671
100
AcDbEntity
  8
KONSTRUKTIONSELEMENTE
100
AcDbLine
 62
7
  6
CONTINUOUS
 10
125.3979471776
 20
52.3850967613
 11
125.3789777369
 21
52.5352256589
  0
LINE
  5
672
100
AcDbEntity
  8
KONSTRUKTIONSELEMENTE
100
AcDbLine
 62
7
  6
CONTINUOUS
 10
119.4227206335
 20
48.8761303052
 11
118.4188481442
 21
48.7783878126
  0
LINE
  5
673
100
AcDbEntity
  8
KONSTRUKTIONSELEMENTE
100
AcDbLine
 62
7
  6
CONTINUOUS
 10
118.4792309474
 20
48.6051732798
 11
119.3949476709
 21
48.6885922493
  0
LINE
  5
674
100
AcDbEntity
  8
KONSTRUKTIONSELEMENTE
100
AcDbLine
 62
7
  6
CONTINUOUS
 10
119.2749311165
 20
49.3018310372
 11
119.4761781734
 21
49.3162565249
  0
LINE
  5
675
100
AcDbEntity
  8
KONSTRUKTIONSELEMENTE
100
AcDbLine
 62
7
  6
CONTINUOUS
 10
117.749309997
 20
48.9049200136
 11
117.8795598565
 21
48.9130096818
  0
LINE
  5
676
100
AcDbEntity
  8
KONSTRUKTIONSELEMENTE
100
AcDbLine
 62
7
  6
CONTINUOUS
 10
117.9033652464
 20
49.0737565431
 11
117.773115387
 21
49.0656668749
  0
LINE
  5
677
100
AcDbEntity
  8
0
100
AcDbLine
 62
7
  6
CONTINUOUS
 10
104.8154046907
 20
48.2793669694
 11
105.3155990243
 21
48.2793669694
  0
LINE
  5
678
100
AcDbEntity
  8
0
100
AcDbLine
 62
7
  6
CONTINUOUS
 10
104.8216835233
 20
48.4668669694
 11
105.322087406
 21
48.4668669694
  0
LINE
  5
679
100
AcDbEntity
  8
0
100
AcDbLine
 62
7
  6
CONTINUOUS
 10
104.8271322957
 20
48.5918672078
 11
105.3277181698
 21
48.5918672078
  0
LINE
  5
67A
100
AcDbEntity
  8
0
100
AcDbLine
 62
7
  6
CONTINUOUS
 10
104.8302359081
 20
48.6543669694
 11
105.3309255045
 21
48.6543669694
  0
LINE
  5
67B
100
AcDbEntity
  8
0
100
AcDbLine
 62
7
  6
CONTINUOUS
 10
104.8541774481
 20
49.0293671482
 11
105.3556686382
 21
49.0293671482
  0
LINE
  5
67C
100
AcDbEntity
  8
0
100
AcDbLine
 62
7
  6
CONTINUOUS
 10
104.8884065229
 20
49.4156170886
 11
105.39104829
 21
49.4156170886
  0
LINE
  5
67D
100
AcDbEntity
  8
0
100
AcDbLine
 62
7
  6
CONTINUOUS
 10
104.9003467906
 20
49.529367029
 11
105.4033911823
 21
49.529367029
  0
LINE
  5
67E
100
AcDbEntity
  8
0
100
AcDbLine
 62
7
  6
CONTINUOUS
 10
104.9072689266
 20
49.5918671482
 11
105.4105470324
 21
49.5918671482
  0
LINE
  5
67F
100
AcDbEntity
  8
0
100
AcDbLine
 62
7
  6
CONTINUOUS
 10
104.9144478857
 20
49.6543670886
 11
105.4179686103
 21
49.6543670886
  0
LINE
  5
680
100
AcDbEntity
  8
0
100
AcDbLine
 62
7
  6
CONTINUOUS
 10
104.9375295048
 20
49.8418670886
 11
105.441831906
 21
49.8418670886
  0
LINE
  5
681
100
AcDbEntity
  8
0
100
AcDbLine
 62
7
  6
CONTINUOUS
 10
104.9719241658
 20
50.091867029
 11
105.4773959585
 21
50.091867029
  0
LINE
  5
682
100
AcDbEntity
  8
KONSTRUKTIONSELEMENTE
100
AcDbLine
 62
7
  6
CONTINUOUS
 10
124.2529526585
 20
50.3543670886
 11
121.3662013125
 21
50.3543670886
  0
LINE
  5
683
100
AcDbEntity
  8
KONSTRUKTIONSELEMENTE
100
AcDbLine
 62
7
  6
CONTINUOUS
 10
119.2772764613
 20
49.4852536343
 11
119.1392122072
 21
49.4982637762
  0
LINE
  5
684
100
AcDbEntity
  8
KONSTRUKTIONSELEMENTE
100
AcDbLine
 62
7
  6
CONTINUOUS
 10
119.7271789226
 20
52.0701633594
 11
119.533520001
 21
52.1267733375
  0
LINE
  5
685
100
AcDbEntity
  8
KONSTRUKTIONSELEMENTE
100
AcDbLine
 62
7
  6
CONTINUOUS
 10
124.2304013454
 20
51.0540326494
 11
124.3773466839
 21
50.9846545731
  0
LINE
  5
686
100
AcDbEntity
  8
KONSTRUKTIONSELEMENTE
100
AcDbLine
 62
7
  6
CONTINUOUS
 10
124.4436948949
 20
51.188617202
 11
124.3457311491
 21
51.2348693411
  0
LINE
  5
687
100
AcDbEntity
  8
KONSTRUKTIONSELEMENTE
100
AcDbLine
 62
7
  6
CONTINUOUS
 10
119.6610608848
 20
51.8990559376
 11
119.7859368484
 21
51.8387481752
  0
LINE
  5
688
100
AcDbEntity
  8
KONSTRUKTIONSELEMENTE
100
AcDbLine
 62
7
  6
CONTINUOUS
 10
119.8801011152
 20
51.9778529008
 11
119.7271789226
 21
52.0701633594
  0
LINE
  5
689
100
AcDbEntity
  8
KONSTRUKTIONSELEMENTE
100
AcDbLine
 62
7
  6
CONTINUOUS
 10
124.1261148279
 20
51.1503275813
 11
124.2304013454
 21
51.0540326494
  0
LINE
  5
68A
100
AcDbEntity
  8
KONSTRUKTIONSELEMENTE
100
AcDbLine
 62
7
  6
CONTINUOUS
 10
124.3457311491
 20
51.2348693411
 11
124.265935146
 21
51.3196014333
  0
LINE
  5
68B
100
AcDbEntity
  8
KONSTRUKTIONSELEMENTE
100
AcDbLine
 62
7
  6
CONTINUOUS
 10
124.7525465619
 20
51.8427764861
 11
124.8323420043
 21
51.7580446585
  0
LINE
  5
68C
100
AcDbEntity
  8
KONSTRUKTIONSELEMENTE
100
AcDbLine
 62
7
  6
CONTINUOUS
 10
124.7272537875
 20
52.0429484378
 11
124.6474577845
 21
52.12768053
  0
LINE
  5
68D
100
AcDbEntity
  8
KONSTRUKTIONSELEMENTE
100
AcDbLine
 62
7
  6
CONTINUOUS
 10
124.4641769602
 20
52.1200987001
 11
124.4949913705
 21
52.0584925451
  0
LINE
  5
68E
100
AcDbEntity
  8
KONSTRUKTIONSELEMENTE
100
AcDbLine
 62
7
  6
CONTINUOUS
 10
124.8323420043
 20
51.7580446585
 11
124.8939702645
 21
51.6348326131
  0
LINE
  5
68F
100
AcDbEntity
  8
KONSTRUKTIONSELEMENTE
100
AcDbLine
 62
7
  6
CONTINUOUS
 10
125.0156228286
 20
51.7656264884
 11
124.9848089788
 21
51.8272323788
  0
LINE
  5
690
100
AcDbEntity
  8
KONSTRUKTIONSELEMENTE
100
AcDbLine
 62
7
  6
CONTINUOUS
 10
125.3789777369
 20
52.5352256589
 11
125.3110267036
 21
52.7084804937
  0
LINE
  5
691
100
AcDbEntity
  8
KONSTRUKTIONSELEMENTE
100
AcDbLine
 62
7
  6
CONTINUOUS
 10
125.1956969126
 20
52.527643829
 11
125.2391574299
 21
52.3659518305
  0
LINE
  5
692
100
AcDbEntity
  8
BEZUGSACHSEN
100
AcDbLine
 62
7
  6
CONTINUOUS
 10
126.5623537352
 20
41.3543670886
 11
130.315130485
 21
47.8543670886
  0
LINE
  5
693
100
AcDbEntity
  8
KONSTRUKTIONSELEMENTE
100
AcDbLine
 62
7
  6
CONTINUOUS
 10
119.3907711486
 20
49.5162958349
 11
119.2772764613
 21
49.4852536343
  0
LINE
  5
694
100
AcDbEntity
  8
KONSTRUKTIONSELEMENTE
100
AcDbLine
 62
7
  6
CONTINUOUS
 10
124.6941250548
 20
51.2115530478
 11
124.5598258231
 21
51.1808452806
  0
LINE
  5
695
100
AcDbEntity
  8
KONSTRUKTIONSELEMENTE
100
AcDbLine
 62
7
  6
CONTINUOUS
 10
124.9848089788
 20
51.8272323788
 11
125.0519583144
 21
51.8425863947
  0
LINE
  5
696
100
AcDbEntity
  8
KONSTRUKTIONSELEMENTE
100
AcDbLine
 62
7
  6
CONTINUOUS
 10
124.4041526562
 20
51.8660927794
 11
124.5384513272
 21
51.8968008112
  0
LINE
  5
697
100
AcDbEntity
  8
KONSTRUKTIONSELEMENTE
100
AcDbLine
 62
7
  6
CONTINUOUS
 10
124.4949913705
 20
52.0584925451
 11
124.4278414744
 21
52.0431387938
  0
LINE
  5
698
100
AcDbEntity
  8
KONSTRUKTIONSELEMENTE
100
AcDbLine
 62
7
  6
CONTINUOUS
 10
119.533520001
 20
52.1267733375
 11
119.3959536948
 21
52.1193777439
  0
LINE
  5
699
100
AcDbEntity
  8
0
100
AcDbLine
 62
7
  6
CONTINUOUS
 10
105.0207738931
 20
50.4043670886
 11
105.5279160504
 21
50.4043670886
  0
LINE
  5
69A
100
AcDbEntity
  8
0
100
AcDbLine
 62
7
  6
CONTINUOUS
 10
105.3480429733
 20
51.9043670886
 11
105.866672153
 21
51.9043670886
  0
LINE
  5
69B
100
AcDbEntity
  8
0
100
AcDbLine
 62
7
  6
CONTINUOUS
 10
105.5515894438
 20
52.5927005213
 11
106.0776341708
 21
52.5927005213
  0
LINE
  5
69C
100
AcDbEntity
  8
KONSTRUKTIONSELEMENTE
100
AcDbLine
 62
7
  6
CONTINUOUS
 10
122.3501515868
 20
51.3844419183
 11
122.5124129296
 21
51.3756381338
  0
LINE
  5
69D
100
AcDbEntity
  8
KONSTRUKTIONSELEMENTE
100
AcDbLine
 62
7
  6
CONTINUOUS
 10
122.8910225232
 20
51.3550959813
 11
123.107371393
 21
51.3433575797
  0
LINE
  5
69E
100
AcDbEntity
  8
KONSTRUKTIONSELEMENTE
100
AcDbLine
 62
7
  6
CONTINUOUS
 10
123.4859809866
 20
51.3228154272
 11
123.6482423295
 21
51.3140116427
  0
LINE
  5
69F
100
AcDbEntity
  8
KONSTRUKTIONSELEMENTE
100
AcDbLine
 62
7
  6
CONTINUOUS
 10
124.5598258231
 20
51.1808452806
 11
124.4436948949
 21
51.188617202
  0
LINE
  5
6A0
100
AcDbEntity
  8
KONSTRUKTIONSELEMENTE
100
AcDbLine
 62
7
  6
CONTINUOUS
 10
124.5384513272
 20
51.8968008112
 11
124.654582816
 21
51.8890286252
  0
LINE
  5
6A1
100
AcDbEntity
  8
KONSTRUKTIONSELEMENTE
100
AcDbLine
 62
7
  6
CONTINUOUS
 10
124.9413484616
 20
51.9889243773
 11
124.8252175334
 21
51.9966962986
  0
LINE
  5
6A2
100
AcDbEntity
  8
KONSTRUKTIONSELEMENTE
100
AcDbLine
 62
7
  6
CONTINUOUS
 10
124.9018062355
 20
52.6663999817
 11
125.0179377243
 21
52.6586277957
  0
LINE
  5
6A3
100
AcDbEntity
  8
KONSTRUKTIONSELEMENTE
100
AcDbLine
 62
7
  6
CONTINUOUS
 10
119.543862943
 20
51.9095105843
 11
119.6610608848
 21
51.8990559376
  0
LINE
  5
6A4
100
AcDbEntity
  8
KONSTRUKTIONSELEMENTE
100
AcDbLine
 62
7
  6
CONTINUOUS
 10
124.3773466839
 20
50.9846545731
 11
124.5179692509
 21
50.9653192895
  0
LINE
  5
6A5
100
AcDbEntity
  8
KONSTRUKTIONSELEMENTE
100
AcDbLine
 62
7
  6
CONTINUOUS
 10
124.654582816
 20
51.8890286252
 11
124.7525465619
 21
51.8427764861
  0
LINE
  5
6A6
100
AcDbEntity
  8
KONSTRUKTIONSELEMENTE
100
AcDbLine
 62
7
  6
CONTINUOUS
 10
124.8252175334
 20
51.9966962986
 11
124.7272537875
 21
52.0429484378
  0
LINE
  5
6A7
100
AcDbEntity
  8
KONSTRUKTIONSELEMENTE
100
AcDbLine
 62
7
  6
CONTINUOUS
 10
125.0179377243
 20
52.6586277957
 11
125.1159014702
 21
52.6123756566
  0
LINE
  5
6A8
100
AcDbEntity
  8
KONSTRUKTIONSELEMENTE
100
AcDbLine
 62
7
  6
CONTINUOUS
 10
125.2067401845
 20
52.8047754223
 11
125.1087764386
 21
52.8510275614
  0
LINE
  5
6A9
100
AcDbEntity
  8
KONSTRUKTIONSELEMENTE
100
AcDbLine
 62
7
  6
CONTINUOUS
 10
125.3110267036
 20
52.7084804937
 11
125.2067401845
 21
52.8047754223
  0
LINE
  5
6AA
100
AcDbEntity
  8
KONSTRUKTIONSELEMENTE
100
AcDbLine
 62
7
  6
CONTINUOUS
 10
125.1159014702
 20
52.6123756566
 11
125.1956969126
 21
52.527643829
  0
LINE
  5
6AB
100
AcDbEntity
  8
BEZUGSACHSEN
100
AcDbLine
 62
7
  6
CONTINUOUS
 10
130.315130485
 20
47.8543670886
 11
126.5623537352
 21
54.3543670886
  0
LINE
  5
6AC
100
AcDbEntity
  8
0
100
AcDbLine
 62
7
  6
CONTINUOUS
 10
105.6919172891
 20
53.0093670886
 11
106.2232014758
 21
53.0093670886
  0
LINE
  5
6AD
100
AcDbEntity
  8
BEZUGSACHSEN
100
AcDbLine
 62
7
  6
CONTINUOUS
 10
126.5623537352
 20
54.3543670886
 11
119.0568002358
 21
54.3543670886
  0
LINE
  5
6AE
100
AcDbEntity
  8
0
100
AcDbLine
 62
7
  6
CONTINUOUS
 10
106.3408550057
 20
54.5718670886
 11
106.8978211814
 21
54.5718670886
  0
LINE
  5
6AF
100
AcDbEntity
  8
KONSTRUKTIONSELEMENTE
100
AcDbLine
 62
7
  6
CONTINUOUS
 10
123.7565965995
 20
53.3110743238
 11
123.5132045853
 21
53.3242800005
  0
LINE
  5
6B0
100
AcDbEntity
  8
KONSTRUKTIONSELEMENTE
100
AcDbLine
 62
7
  6
CONTINUOUS
 10
122.7018978711
 20
53.3682989227
 11
122.4585058568
 21
53.3815045993
  0
LINE
  5
6B1
100
AcDbEntity
  8
KONSTRUKTIONSELEMENTE
100
AcDbLine
 62
7
  6
CONTINUOUS
 10
125.1087764386
 20
52.8510275614
 11
124.9681544338
 21
52.8703625837
  0
LINE
  5
6B2
100
AcDbEntity
  8
0
100
AcDbLine
 62
7
  6
CONTINUOUS
 10
133.1095769855
 20
68.8543670886
 11
133.1095769855
 21
26.8543670886
  0
LINE
  5
6B3
100
AcDbEntity
  8
0
100
AcDbLine
 62
7
  6
CONTINUOUS
 10
133.3595769855
 20
70.399605247
 11
133.3595769855
 21
71.3043670886
  0
LINE
  5
6B4
100
AcDbEntity
  8
0
100
AcDbLine
 62
7
  6
CONTINUOUS
 10
134.4095769855
 20
23.4938367757
 11
134.4095769855
 21
72.2148974015
  0
LINE
  5
6B5
100
AcDbEntity
  8
0
100
AcDbLine
 62
7
  6
CONTINUOUS
 10
106.4954863531
 20
54.8843670886
 11
107.0589505852
 21
54.8843670886
  0
LINE
  5
6B6
100
AcDbEntity
  8
0
100
AcDbLine
 62
7
  6
CONTINUOUS
 10
106.7155652592
 20
55.3010338049
 11
107.2885495754
 21
55.3010338049
  0
LINE
  5
6B7
100
AcDbEntity
  8
0
100
AcDbLine
 62
7
  6
CONTINUOUS
 10
106.8914798079
 20
55.6135338049
 11
107.4723135751
 21
55.6135338049
  0
LINE
  5
6B8
100
AcDbEntity
  8
0
100
AcDbLine
 62
7
  6
CONTINUOUS
 10
107.3404522348
 20
56.3427004468
 11
107.9423543062
 21
56.3427004468
  0
LINE
  5
6B9
100
AcDbEntity
  8
0
100
AcDbLine
 62
7
  6
CONTINUOUS
 10
107.8481286849
 20
57.0718670886
 11
108.4758246749
 21
57.0718670886
  0
LINE
  5
6BA
100
AcDbEntity
  8
0
100
AcDbLine
 62
7
  6
CONTINUOUS
 10
108.0854573853
 20
57.3843670886
 11
108.7260067242
 21
57.3843670886
  0
LINE
  5
6BB
100
AcDbEntity
  8
0
100
AcDbLine
 62
7
  6
CONTINUOUS
 10
141.8095769855
 20
72.2148974015
 11
141.8095769855
 21
23.4938367757
  0
LINE
  5
6BC
100
AcDbEntity
  8
RUNDUNGEN
100
AcDbLine
 62
7
  6
CONTINUOUS
 10
133.1095769855
 20
62.8543670886
 11
120.3095769855
 21
62.8543670886
  0
LINE
  5
6BD
100
AcDbEntity
  8
RUNDUNGEN
100
AcDbLine
 62
7
  6
CONTINUOUS
 10
143.841198372
 20
62.8218983759
 11
143.1095769855
 21
62.834505401
  0
LINE
  5
6BE
100
AcDbEntity
  8
RUNDUNGEN
100
AcDbLine
 62
7
  6
CONTINUOUS
 10
144.8101173517
 20
62.79950001
 11
143.8366886166
 21
62.8219883902
  0
LINE
  5
6BF
100
AcDbEntity
  8
RUNDUNGEN
100
AcDbLine
 62
7
  6
CONTINUOUS
 10
145.861493427
 20
62.7676821743
 11
144.8101173517
 21
62.79950001
  0
LINE
  5
6C0
100
AcDbEntity
  8
0
100
AcDbLine
 62
7
  6
CONTINUOUS
 10
143.1095769855
 20
68.8543670886
 11
143.1095769855
 21
26.8543670886
  0
LINE
  5
6C1
100
AcDbEntity
  8
RUNDUNGEN
100
AcDbLine
 62
7
  6
CONTINUOUS
 10
147.3095769855
 20
34.4401535262
 11
147.3095769855
 21
61.268580651
  0
LINE
  5
6C2
100
AcDbEntity
  8
0
100
AcDbLine
 62
7
  6
CONTINUOUS
 10
133.4433420434
 20
70.6341544025
 11
133.3595769855
 21
70.6341544025
  0
LINE
  5
6C3
100
AcDbEntity
  8
0
100
AcDbLine
 62
7
  6
CONTINUOUS
 10
133.6019770058
 20
71.0171330803
 11
133.3595769855
 21
71.0171330803
  0
LINE
  5
6C4
100
AcDbEntity
  8
0
100
AcDbLine
 62
7
  6
CONTINUOUS
 10
133.7068882432
 20
71.2086224192
 11
133.3595769855
 21
71.2086224192
  0
LINE
  5
6C5
100
AcDbEntity
  8
0
100
AcDbLine
 62
7
  6
CONTINUOUS
 10
133.7598044516
 20
71.3043670886
 11
133.3595769855
 21
71.3043670886
  0
ARC
  5
6C6
100
AcDbEntity
  8
0
100
AcDbCircle
 62
7
  6
CONTINUOUS
 10
112.0092022975
 20
134.031459913
 40
7.1996310417
100
AcDbArc
 50
177.4735403226
 51
178.2355863231
  0
ARC
  5
6C7
100
AcDbEntity
  8
0
100
AcDbCircle
 62
7
  6
CONTINUOUS
 10
112.0001155838
 20
126.7174069287
 40
7.1905393097
100
AcDbArc
 50
181.0444453538
 51
181.4683895463
  0
ARC
  5
6C8
100
AcDbEntity
  8
0
100
AcDbCircle
 62
7
  6
CONTINUOUS
 10
110.6410696658
 20
125.2633633034
 40
5.8314962179
100
AcDbArc
 50
177.5842726411
 51
178.3685846688
  0
ARC
  5
6C9
100
AcDbEntity
  8
0
100
AcDbCircle
 62
7
  6
CONTINUOUS
 10
110.6377527074
 20
127.8772682531
 40
5.828177636
100
AcDbArc
 50
181.317503463
 51
182.10213763
  0
ARC
  5
6CA
100
AcDbEntity
  8
0
100
AcDbCircle
 62
7
  6
CONTINUOUS
 10
110.6369605661
 20
127.0048976305
 40
5.827385015
100
AcDbArc
 50
181.2391129321
 51
182.8091030582
  0
ARC
  5
6CB
100
AcDbEntity
  8
0
100
AcDbCircle
 62
7
  6
CONTINUOUS
 10
110.632486357
 20
125.2635968522
 40
5.8229098131
100
AcDbArc
 50
178.3685885548
 51
178.7608626821
  0
ARC
  5
6CC
100
AcDbEntity
  8
0
100
AcDbCircle
 62
7
  6
CONTINUOUS
 10
110.6321362226
 20
127.8770527805
 40
5.8225570857
100
AcDbArc
 50
182.1021415433
 51
182.4952186703
  0
ARC
  5
6CD
100
AcDbEntity
  8
0
100
AcDbCircle
 62
7
  6
CONTINUOUS
 10
110.632066045
 20
125.2637427452
 40
5.8224846052
100
AcDbArc
 50
177.1908970957
 51
177.5842687328
  0
ARC
  5
6CE
100
AcDbEntity
  8
0
100
AcDbCircle
 62
7
  6
CONTINUOUS
 10
110.6311014857
 20
127.8771148897
 40
5.8215246465
100
AcDbArc
 50
180.9249829768
 51
181.3174995949
  0
ARC
  5
6CF
100
AcDbEntity
  8
BEZUGSACHSEN
100
AcDbCircle
 62
7
  6
CONTINUOUS
 10
128.2865218432
 20
147.2713503771
 40
3.5722099131
100
AcDbArc
 50
72.5468077634
 51
73.9090720296
  0
ARC
  5
6D0
100
AcDbEntity
  8
RUNDUNGEN
100
AcDbCircle
 62
7
  6
CONTINUOUS
 10
106.8095769855
 20
139.5263277701
 40
1.5
100
AcDbArc
 50
90.0
 51
180.0
  0
ARC
  5
6D1
100
AcDbEntity
  8
RUNDUNGEN
100
AcDbCircle
 62
7
  6
CONTINUOUS
 10
106.8095769855
 20
122.5263277701
 40
1.5
100
AcDbArc
 50
180.0
 51
270.0
  0
ARC
  5
6D2
100
AcDbEntity
  8
0
100
AcDbCircle
 62
7
  6
CONTINUOUS
 10
105.8288487771
 20
134.1442057512
 40
1.0192821009
100
AcDbArc
 50
173.865092901
 51
177.4639738312
  0
ARC
  5
6D3
100
AcDbEntity
  8
0
100
AcDbCircle
 62
7
  6
CONTINUOUS
 10
105.8243266282
 20
134.1700273924
 40
1.0147513435
100
AcDbArc
 50
175.3021716306
 51
178.911381057
  0
ARC
  5
6D4
100
AcDbEntity
  8
0
100
AcDbCircle
 62
7
  6
CONTINUOUS
 10
105.4669293906
 20
133.7902600914
 40
0.6573818756
100
AcDbArc
 50
173.019075347
 51
174.4189421793
  0
ARC
  5
6D5
100
AcDbEntity
  8
0
100
AcDbCircle
 62
7
  6
CONTINUOUS
 10
105.4605177468
 20
133.7908488344
 40
0.650943369
100
AcDbArc
 50
174.4156321959
 51
178.6374217306
  0
ARC
  5
6D6
100
AcDbEntity
  8
0
100
AcDbCircle
 62
7
  6
CONTINUOUS
 10
105.4577218709
 20
125.3475361318
 40
0.648144881
100
AcDbArc
 50
176.2861062682
 51
179.9977557286
  0
ARC
  5
6D7
100
AcDbEntity
  8
0
100
AcDbCircle
 62
7
  6
CONTINUOUS
 10
105.4577217577
 20
126.920864049
 40
0.6481447678
100
AcDbArc
 50
180.002244272
 51
183.7138940563
  0
ARC
  5
6D8
100
AcDbEntity
  8
0
100
AcDbCircle
 62
7
  6
CONTINUOUS
 10
105.4566383561
 20
127.8144520151
 40
0.6470613696
100
AcDbArc
 50
178.0625835817
 51
182.7734321925
  0
ARC
  5
6D9
100
AcDbEntity
  8
0
100
AcDbCircle
 62
7
  6
CONTINUOUS
 10
125.4903664712
 20
195.2728787933
 40
17.5329426272
100
AcDbArc
 50
359.8469118182
 51
2.6982855918
  0
ARC
  5
6DA
100
AcDbEntity
  8
0
100
AcDbCircle
 62
7
  6
CONTINUOUS
 10
157.7644468866
 20
128.458852149
 40
52.9526791275
100
AcDbArc
 50
183.4046822264
 51
183.7265811657
  0
ARC
  5
6DB
100
AcDbEntity
  8
RUNDUNGEN
100
AcDbCircle
 62
7
  6
CONTINUOUS
 10
137.3095769855
 20
131.0263277701
 40
10.0
100
AcDbArc
 50
270.0
 51
54.5251023125
  0
ARC
  5
6DC
100
AcDbEntity
  8
RUNDUNGEN
100
AcDbCircle
 62
7
  6
CONTINUOUS
 10
138.0595769855
 20
131.0263277701
 40
5.25
100
AcDbArc
 50
160.7417618798
 51
15.5876516121
  0
ARC
  5
6DD
100
AcDbEntity
  8
RUNDUNGEN
100
AcDbCircle
 62
7
  6
CONTINUOUS
 10
138.1095769855
 20
131.2263277701
 40
5.0
100
AcDbArc
 50
180.0
 51
360.0
  0
ARC
  5
6DE
100
AcDbEntity
  8
0
100
AcDbCircle
 62
7
  6
CONTINUOUS
 10
150.6646733922
 20
195.2739346099
 40
17.4688322121
100
AcDbArc
 50
177.2446648128
 51
180.1573871197
  0
ARC
  5
6DF
100
AcDbEntity
  8
0
100
AcDbCircle
 62
7
  6
CONTINUOUS
 10
147.5038632672
 20
195.4089940455
 40
14.3051939423
100
AcDbArc
 50
176.7518780981
 51
177.1764136788
  0
ARC
  5
6E0
100
AcDbEntity
  8
0
100
AcDbCircle
 62
7
  6
CONTINUOUS
 10
138.1095769855
 20
196.2263277701
 40
5.0
100
AcDbArc
 50
0.0
 51
36.8698976458
  0
ARC
  5
6E1
100
AcDbEntity
  8
0
100
AcDbCircle
 62
7
  6
CONTINUOUS
 10
138.1095769855
 20
196.2263277701
 40
5.0
100
AcDbArc
 50
42.2685844296
 51
137.7314155704
  0
ARC
  5
6E2
100
AcDbEntity
  8
0
100
AcDbCircle
 62
7
  6
CONTINUOUS
 10
138.1095769855
 20
196.2263277701
 40
5.0
100
AcDbArc
 50
143.1301023542
 51
180.0
  0
ARC
  5
6E3
100
AcDbEntity
  8
0
100
AcDbCircle
 62
7
  6
CONTINUOUS
 10
206.8464616171
 20
175.2263277701
 40
26.0
100
AcDbArc
 50
0.0
 51
180.0
  0
ARC
  5
6E4
100
AcDbEntity
  8
0
100
AcDbCircle
 62
7
  6
CONTINUOUS
 10
206.8464616171
 20
175.2263277701
 40
24.3630343442
100
AcDbArc
 50
0.8214772418
 51
179.1785227582
  0
ARC
  5
6E5
100
AcDbEntity
  8
0
100
AcDbCircle
 62
7
  6
CONTINUOUS
 10
206.8464616171
 20
174.2263277701
 40
17.0
100
AcDbArc
 50
0.0
 51
180.0
  0
ARC
  5
6E6
100
AcDbEntity
  8
0
100
AcDbCircle
 62
7
  6
CONTINUOUS
 10
189.8464616171
 20
135.2263277701
 40
9.0
100
AcDbArc
 50
180.0
 51
270.0000000014
  0
ARC
  5
6E7
100
AcDbEntity
  8
RUNDUNGEN
100
AcDbCircle
 62
7
  6
CONTINUOUS
 10
223.8464616171
 20
135.2263277701
 40
9.0
100
AcDbArc
 50
269.9999999986
 51
360.0
  0
ARC
  5
6E8
100
AcDbEntity
  8
0
100
AcDbCircle
 62
7
  6
CONTINUOUS
 10
194.8464616171
 20
141.2263277701
 40
5.0
100
AcDbArc
 50
180.5739511922
 51
233.0796568178
  0
ARC
  5
6E9
100
AcDbEntity
  8
RUNDUNGEN
100
AcDbCircle
 62
7
  6
CONTINUOUS
 10
218.8464616171
 20
141.2263277701
 40
5.0
100
AcDbArc
 50
306.9203431822
 51
359.4260488078
  0
ARC
  5
6EA
100
AcDbEntity
  8
0
100
AcDbCircle
 62
7
  6
CONTINUOUS
 10
227.9443854942
 20
164.2822615338
 40
2.0
100
AcDbArc
 50
174.2608295227
 51
356.9363238298
  0
ARC
  5
6EB
100
AcDbEntity
  8
0
100
AcDbCircle
 62
7
  6
CONTINUOUS
 10
227.9443854942
 20
160.8822615338
 40
2.0
100
AcDbArc
 50
174.2608295227
 51
356.9363238298
  0
ARC
  5
6EC
100
AcDbEntity
  8
RUNDUNGEN
100
AcDbCircle
 62
7
  6
CONTINUOUS
 10
220.3464616171
 20
122.5263277701
 40
1.5
100
AcDbArc
 50
270.0
 51
360.0
  0
ARC
  5
6ED
100
AcDbEntity
  8
RUNDUNGEN
100
AcDbCircle
 62
7
  6
CONTINUOUS
 10
193.3464616171
 20
122.5263277701
 40
1.5
100
AcDbArc
 50
180.0
 51
270.0
  0
ARC
  5
6EE
100
AcDbEntity
  8
RUNDUNGEN
100
AcDbCircle
 62
7
  6
CONTINUOUS
 10
220.3464616171
 20
139.5263277701
 40
1.5
100
AcDbArc
 50
0.0
 51
90.0
  0
ARC
  5
6EF
100
AcDbEntity
  8
RUNDUNGEN
100
AcDbCircle
 62
7
  6
CONTINUOUS
 10
193.3464616171
 20
139.5263277701
 40
1.5
100
AcDbArc
 50
90.0
 51
180.0
  0
ARC
  5
6F0
100
AcDbEntity
  8
0
100
AcDbCircle
 62
7
  6
CONTINUOUS
 10
227.9443854942
 20
164.2822615338
 40
1.4
100
AcDbArc
 50
282.3736251162
 51
8.2132107017
  0
ARC
  5
6F1
100
AcDbEntity
  8
0
100
AcDbCircle
 62
7
  6
CONTINUOUS
 10
227.9443854942
 20
164.2822615338
 40
1.4
100
AcDbArc
 50
171.7867892983
 51
257.4447123387
  0
ARC
  5
6F2
100
AcDbEntity
  8
0
100
AcDbCircle
 62
7
  6
CONTINUOUS
 10
227.9443854942
 20
160.8822615338
 40
1.4
100
AcDbArc
 50
181.7503387136
 51
8.2132107017
  0
ARC
  5
6F3
100
AcDbEntity
  8
0
100
AcDbCircle
 62
7
  6
CONTINUOUS
 10
120.3095769855
 20
47.8543670886
 40
15.5
100
AcDbArc
 50
184.2286321919
 51
184.4217142176
  0
ARC
  5
6F4
100
AcDbEntity
  8
0
100
AcDbCircle
 62
7
  6
CONTINUOUS
 10
120.3095769855
 20
47.8543670886
 40
15.5
100
AcDbArc
 50
211.6193951621
 51
220.436294669
  0
ARC
  5
6F5
100
AcDbEntity
  8
0
100
AcDbCircle
 62
7
  6
CONTINUOUS
 10
120.3095769855
 20
47.8543670886
 40
15.5
100
AcDbArc
 50
202.1123989115
 51
209.8276385273
  0
ARC
  5
6F6
100
AcDbEntity
  8
0
100
AcDbCircle
 62
7
  6
CONTINUOUS
 10
120.3095769855
 20
47.8543670886
 40
15.5
100
AcDbArc
 50
184.4371543075
 51
200.4593645972
  0
ARC
  5
6F7
100
AcDbEntity
  8
0
100
AcDbCircle
 62
7
  6
CONTINUOUS
 10
120.3095769855
 20
47.8543670886
 40
15.5
100
AcDbArc
 50
162.1997817893
 51
183.9769325805
  0
ARC
  5
6F8
100
AcDbEntity
  8
0
100
AcDbCircle
 62
7
  6
CONTINUOUS
 10
120.3095769855
 20
47.8543670886
 40
15.5
100
AcDbArc
 50
153.0284262657
 51
160.574514794
  0
ARC
  5
6F9
100
AcDbEntity
  8
0
100
AcDbCircle
 62
7
  6
CONTINUOUS
 10
120.3095769855
 20
47.8543670886
 40
15.5
100
AcDbArc
 50
142.0597984173
 51
151.2865030101
  0
ARC
  5
6FA
100
AcDbEntity
  8
RUNDUNGEN
100
AcDbCircle
 62
7
  6
CONTINUOUS
 10
120.3095769855
 20
47.8543670886
 40
15.0
100
AcDbArc
 50
90.0
 51
270.0
  0
ARC
  5
6FB
100
AcDbEntity
  8
0
100
AcDbCircle
 62
7
  6
CONTINUOUS
 10
122.8095769855
 20
47.8543670886
 40
12.0
100
AcDbArc
 50
30.7568360509
 51
329.2431639491
  0
CIRCLE
  5
6FC
100
AcDbEntity
  8
BEZUGSACHSEN
100
AcDbCircle
 62
7
  6
CONTINUOUS
 10
122.8095769855
 20
47.8543670886
 40
6.5
  0
ARC
  5
6FD
100
AcDbEntity
  8
0
100
AcDbCircle
 62
7
  6
CONTINUOUS
 10
138.1095769855
 20
26.8543670886
 40
5.0
100
AcDbArc
 50
180.0
 51
360.0
  0
ARC
  5
6FE
100
AcDbEntity
  8
RUNDUNGEN
100
AcDbCircle
 62
7
  6
CONTINUOUS
 10
138.1095769855
 20
26.8543670886
 40
5.0
100
AcDbArc
 50
180.0
 51
360.0
  0
ARC
  5
6FF
100
AcDbEntity
  8
RUNDUNGEN
100
AcDbCircle
 62
7
  6
CONTINUOUS
 10
145.8095517845
 20
34.4401508558
 40
1.4999987733
100
AcDbArc
 50
271.9859963351
 51
0.0001020039
  0
ARC
  5
700
100
AcDbEntity
  8
0
100
AcDbCircle
 62
7
  6
CONTINUOUS
 10
138.1095769855
 20
68.8543670886
 40
5.0
100
AcDbArc
 50
0.0
 51
180.0
  0
ARC
  5
701
100
AcDbEntity
  8
RUNDUNGEN
100
AcDbCircle
 62
7
  6
CONTINUOUS
 10
145.8095595393
 20
61.268582321
 40
1.4999992032
100
AcDbArc
 50
359.999936212
 51
88.0137468053
  0
SPLINE
  5
702
100
AcDbEntity
  8
BEZUGSACHSEN
100
AcDbSpline
 62
7
  6
CONTINUOUS
 70
0
 71
3
 72
11
 73
7
 74
0
 42
0.0000001
 43
0.0000001
 44
0.0000000001
 40
0.0
 40
0.0
 40
0.0
 40
0.0
 40
0.2616223753
 40
0.5144735034
 40
0.7595874882
 40
1.0
 40
1.0
 40
1.0
 40
1.0
 10
115.3040234861
 20
150.2457711865
 30
0.0
 10
115.4540070397
 20
150.3323642316
 30
0.0
 10
115.7557414307
 20
150.491417447
 30
0.0
 10
116.2236505858
 20
150.6787046673
 30
0.0
 10
116.6992703953
 20
150.798528214
 30
0.0
 10
117.0212660582
 20
150.8263277701
 30
0.0
 10
117.180411861
 20
150.8263277701
 30
0.0
  0
SPLINE
  5
703
100
AcDbEntity
  8
BEZUGSACHSEN
100
AcDbSpline
 62
7
  6
CONTINUOUS
 70
0
 71
3
 72
11
 73
7
 74
0
 42
0.0000001
 43
0.0000001
 44
0.0000000001
 40
0.0
 40
0.0
 40
0.0
 40
0.0
 40
0.2404125418
 40
0.4855265075
 40
0.7383775997
 40
1.0
 40
1.0
 40
1.0
 40
1.0
 10
117.180411861
 20
150.8263277701
 30
0.0
 10
117.3395576834
 20
150.8263277701
 30
0.0
 10
117.6615533337
 20
150.7985280819
 30
0.0
 10
118.1371731862
 20
150.6787047858
 30
0.0
 10
118.6050822597
 20
150.4914173907
 30
0.0
 10
118.906816668
 20
150.3323642397
 30
0.0
 10
119.0568002358
 20
150.2457711865
 30
0.0
  0
SPLINE
  5
704
100
AcDbEntity
  8
BEZUGSACHSEN
100
AcDbSpline
 62
7
  6
CONTINUOUS
 70
0
 71
3
 72
10
 73
6
 74
0
 42
0.0000001
 43
0.0000001
 44
0.0000000001
 40
0.0
 40
0.0
 40
0.0
 40
0.0
 40
0.4998769648
 40
0.7499453308
 40
1.0
 40
1.0
 40
1.0
 40
1.0
 10
119.0568002358
 20
150.2457711865
 30
0.0
 10
119.666512707
 20
150.4217800162
 30
0.0
 10
120.5960748051
 20
150.6418306397
 30
0.0
 10
121.8568701417
 20
150.7991784039
 30
0.0
 10
122.4921250527
 20
150.8263277701
 30
0.0
 10
122.8095769855
 20
150.8263277701
 30
0.0
  0
SPLINE
  5
705
100
AcDbEntity
  8
BEZUGSACHSEN
100
AcDbSpline
 62
7
  6
CONTINUOUS
 70
0
 71
3
 72
10
 73
6
 74
0
 42
0.0000001
 43
0.0000001
 44
0.0000000001
 40
0.0
 40
0.0
 40
0.0
 40
0.0
 40
0.2500561649
 40
0.5001262613
 40
1.0
 40
1.0
 40
1.0
 40
1.0
 10
122.8095769855
 20
150.8263277701
 30
0.0
 10
123.1270308095
 20
150.8263277701
 30
0.0
 10
123.762289299
 20
150.7991703822
 30
0.0
 10
125.0230862629
 20
150.6418373425
 30
0.0
 10
125.9526452138
 20
150.421778876
 30
0.0
 10
126.5623537352
 20
150.2457711865
 30
0.0
  0
SPLINE
  5
706
100
AcDbEntity
  8
BEZUGSACHSEN
100
AcDbSpline
 62
7
  6
CONTINUOUS
 70
0
 71
3
 72
11
 73
7
 74
0
 42
0.0000001
 43
0.0000001
 44
0.0000000001
 40
0.0
 40
0.0
 40
0.0
 40
0.0
 40
0.2616223753
 40
0.5144735034
 40
0.7595874882
 40
1.0
 40
1.0
 40
1.0
 40
1.0
 10
126.5623537352
 20
150.2457711865
 30
0.0
 10
126.7123372889
 20
150.3323642316
 30
0.0
 10
127.0140716799
 20
150.491417447
 30
0.0
 10
127.481980835
 20
150.6787046673
 30
0.0
 10
127.9576006445
 20
150.798528214
 30
0.0
 10
128.2795963074
 20
150.8263277701
 30
0.0
 10
128.4387421102
 20
150.8263277701
 30
0.0
  0
SPLINE
  5
707
100
AcDbEntity
  8
BEZUGSACHSEN
100
AcDbSpline
 62
7
  6
CONTINUOUS
 70
0
 71
3
 72
9
 73
5
 74
0
 42
0.0000001
 43
0.0000001
 44
0.0000000001
 40
0.0
 40
0.0
 40
0.0
 40
0.0
 40
0.4961271142
 40
1.0
 40
1.0
 40
1.0
 40
1.0
 10
128.4387421102
 20
150.8263277701
 30
0.0
 10
128.5791321211
 20
150.8263277701
 30
0.0
 10
128.8624737118
 20
150.8047695236
 30
0.0
 10
129.1396053348
 20
150.7431189203
 30
0.0
 10
129.2766045559
 20
150.7036120054
 30
0.0
  0
SPLINE
  5
708
100
AcDbEntity
  8
BEZUGSACHSEN
100
AcDbSpline
 62
7
  6
CONTINUOUS
 70
0
 71
3
 72
9
 73
5
 74
0
 42
0.0000001
 43
0.0000001
 44
0.0000000001
 40
0.0
 40
0.0
 40
0.0
 40
0.0
 40
0.2436589121
 40
1.0
 40
1.0
 40
1.0
 40
1.0
 10
129.3579224761
 20
150.6791039402
 30
0.0
 10
129.4394343736
 20
150.653483927
 30
0.0
 10
129.7702878574
 20
150.5365654247
 30
0.0
 10
130.0854391859
 20
150.3783835198
 30
0.0
 10
130.315130485
 20
150.2457711865
 30
0.0
  0
SPLINE
  5
709
100
AcDbEntity
  8
0
100
AcDbSpline
 62
7
  6
CONTINUOUS
 70
0
 71
3
 72
12
 73
8
 74
0
 42
0.0000001
 43
0.0000001
 44
0.0000000001
 40
0.0
 40
0.0
 40
0.0
 40
0.0
 40
0.1346997617
 40
0.2634863652
 40
0.5120707724
 40
0.7565062165
 40
1.0
 40
1.0
 40
1.0
 40
1.0
 10
133.9314824219
 20
191.5461329485
 30
0.0
 10
133.8428767092
 20
191.6888690476
 30
0.0
 10
133.6887883945
 20
191.9804767361
 30
0.0
 10
133.4622857288
 20
192.5789395007
 30
0.0
 10
133.2981371097
 20
193.3408236773
 30
0.0
 10
133.2138512831
 20
194.2563845705
 30
0.0
 10
133.1974557765
 20
194.8650622761
 30
0.0
 10
133.1960799072
 20
195.1687520947
 30
0.0
  0
LINE
  5
70A
100
AcDbEntity
  8
0
100
AcDbLine
 62
7
  6
CONTINUOUS
 10
133.1960799072
 20
195.1687520947
 11
133.1959070863
 21
195.2259491256
  0
SPLINE
  5
70B
100
AcDbEntity
  8
0
100
AcDbSpline
 62
7
  6
CONTINUOUS
 70
0
 71
3
 72
11
 73
7
 74
0
 42
0.0000001
 43
0.0000001
 44
0.0000000001
 40
0.0
 40
0.0
 40
0.0
 40
0.0
 40
0.2396158183
 40
0.4817260237
 40
0.731274674
 40
1.0
 40
1.0
 40
1.0
 40
1.0
 10
133.2216502134
 20
196.2195272106
 30
0.0
 10
133.236050006
 20
196.4730412142
 30
0.0
 10
133.2788294321
 20
196.9821577475
 30
0.0
 10
133.4122510523
 20
197.747169498
 30
0.0
 10
133.662293144
 20
198.5169677886
 30
0.0
 10
133.9387148703
 20
198.9985116165
 30
0.0
 10
134.1095769855
 20
199.2263277701
 30
0.0
  0
SPLINE
  5
70C
100
AcDbEntity
  8
0
100
AcDbSpline
 62
7
  6
CONTINUOUS
 70
0
 71
3
 72
15
 73
11
 74
0
 42
0.0000001
 43
0.0000001
 44
0.0000000001
 40
0.0
 40
0.0
 40
0.0
 40
0.0
 40
0.12557855
 40
0.2506260405
 40
0.3755046367
 40
0.5003351761
 40
0.6251569972
 40
0.7499920518
 40
0.8748888424
 40
1.0
 40
1.0
 40
1.0
 40
1.0
 10
134.4095769855
 20
175.5756203839
 30
0.0
 10
134.1634721458
 20
176.2040672686
 30
0.0
 10
133.8023697514
 20
177.5095410273
 30
0.0
 10
133.5071808534
 20
179.5079723092
 30
0.0
 10
133.3601278177
 20
181.517965099
 30
0.0
 10
133.3031611129
 20
183.5304197817
 30
0.0
 10
133.3090575795
 20
185.5433615238
 30
0.0
 10
133.3809663962
 20
187.5556775699
 30
0.0
 10
133.5517098259
 20
189.5638894966
 30
0.0
 10
133.77507593
 20
190.8921714522
 30
0.0
 10
133.9314824219
 20
191.5461329485
 30
0.0
  0
SPLINE
  5
70D
100
AcDbEntity
  8
0
100
AcDbSpline
 62
7
  6
CONTINUOUS
 70
0
 71
3
 72
11
 73
7
 74
0
 42
0.0000001
 43
0.0000001
 44
0.0000000001
 40
0.0
 40
0.0
 40
0.0
 40
0.0
 40
0.2686646427
 40
0.5179793973
 40
0.760123086
 40
1.0
 40
1.0
 40
1.0
 40
1.0
 10
142.1095769855
 20
199.2263277701
 30
0.0
 10
142.286909265
 20
198.9898847307
 30
0.0
 10
142.5715067754
 20
198.4885024843
 30
0.0
 10
142.8223663619
 20
197.6867824329
 30
0.0
 10
142.9517704814
 20
196.8910542056
 30
0.0
 10
142.9911355569
 20
196.3618468693
 30
0.0
 10
143.0038700451
 20
196.0982694511
 30
0.0
  0
LINE
  5
70E
100
AcDbEntity
  8
0
100
AcDbLine
 62
7
  6
CONTINUOUS
 10
143.0232465146
 20
195.2260327056
 11
143.0230678152
 21
195.1673132365
  0
LINE
  5
70F
100
AcDbEntity
  8
0
100
AcDbLine
 62
7
  6
CONTINUOUS
 10
143.0230678152
 20
195.1673132365
 11
143.0229968259
 21
195.1530290186
  0
SPLINE
  5
710
100
AcDbEntity
  8
0
100
AcDbSpline
 62
7
  6
CONTINUOUS
 70
0
 71
3
 72
12
 73
8
 74
0
 42
0.0000001
 43
0.0000001
 44
0.0000000001
 40
0.0
 40
0.0
 40
0.0
 40
0.0
 40
0.2434707004
 40
0.4878979464
 40
0.736500843
 40
0.8653004111
 40
1.0
 40
1.0
 40
1.0
 40
1.0
 10
143.0229968259
 20
195.1530290186
 30
0.0
 10
143.02137981
 20
194.8506441675
 30
0.0
 10
143.0045888729
 20
194.2445731611
 30
0.0
 10
142.9197420934
 20
193.3329481657
 30
0.0
 10
142.7554445188
 20
192.5744232981
 30
0.0
 10
142.5294331336
 20
191.9786144102
 30
0.0
 10
142.3759051268
 20
191.6882695704
 30
0.0
 10
142.2876715491
 20
191.5461329485
 30
0.0
  0
SPLINE
  5
711
100
AcDbEntity
  8
0
100
AcDbSpline
 62
7
  6
CONTINUOUS
 70
0
 71
3
 72
15
 73
11
 74
0
 42
0.0000001
 43
0.0000001
 44
0.0000000001
 40
0.0
 40
0.0
 40
0.0
 40
0.0
 40
0.1251111936
 40
0.2500079356
 40
0.3748427828
 40
0.4996643279
 40
0.6244945469
 40
0.7493730757
 40
0.8744206077
 40
1.0
 40
1.0
 40
1.0
 40
1.0
 10
142.2876715491
 20
191.5461329485
 30
0.0
 10
142.4440780878
 20
190.8921712564
 30
0.0
 10
142.6674465439
 20
189.5638896938
 30
0.0
 10
142.8381855429
 20
187.5556784903
 30
0.0
 10
142.9100968333
 20
185.5433654704
 30
0.0
 10
142.9159933827
 20
183.5304279166
 30
0.0
 10
142.8590228681
 20
181.5179770088
 30
0.0
 10
142.7119780123
 20
179.5079854554
 30
0.0
 10
142.4167869451
 20
177.5095498651
 30
0.0
 10
142.0556834789
 20
176.2040714914
 30
0.0
 10
141.8095769855
 20
175.5756203839
 30
0.0
  0
LINE
  5
712
100
AcDbEntity
  8
0
100
AcDbLine
 62
7
  6
CONTINUOUS
 10
104.8165695043
 20
134.3488250609
 11
104.8180515086
 21
134.3807958761
  0
LINE
  5
713
100
AcDbEntity
  8
0
100
AcDbLine
 62
7
  6
CONTINUOUS
 10
104.8126690189
 20
126.5065405456
 11
104.8132103465
 21
126.479982064
  0
LINE
  5
714
100
AcDbEntity
  8
0
100
AcDbLine
 62
7
  6
CONTINUOUS
 10
104.8103354409
 20
126.6129235116
 11
104.8107709376
 21
126.5863377729
  0
LINE
  5
715
100
AcDbEntity
  8
0
100
AcDbLine
 62
7
  6
CONTINUOUS
 10
104.8119375405
 20
126.5331462891
 11
104.8126688618
 21
126.5065405456
  0
LINE
  5
716
100
AcDbEntity
  8
0
100
AcDbLine
 62
7
  6
CONTINUOUS
 10
104.8158170237
 20
126.0011708434
 11
104.8161921931
 21
126.0410770906
  0
LINE
  5
717
100
AcDbEntity
  8
0
100
AcDbLine
 62
7
  6
CONTINUOUS
 10
104.8161921931
 20
126.0410770906
 11
104.8165785752
 21
126.0810086069
  0
LINE
  5
718
100
AcDbEntity
  8
0
100
AcDbLine
 62
7
  6
CONTINUOUS
 10
104.8151002093
 20
126.4001575795
 11
104.8161921967
 21
126.2805142138
  0
LINE
  5
719
100
AcDbEntity
  8
0
100
AcDbLine
 62
7
  6
CONTINUOUS
 10
104.8161921967
 20
126.2805142138
 11
104.8165785752
 21
126.240583056
  0
LINE
  5
71A
100
AcDbEntity
  8
0
100
AcDbLine
 62
7
  6
CONTINUOUS
 10
104.9052303996
 20
125.3141010991
 11
104.9041711176
 21
125.331937515
  0
SPLINE
  5
71B
100
AcDbEntity
  8
BEZUGSACHSEN
100
AcDbSpline
 62
7
  6
CONTINUOUS
 70
0
 71
3
 72
10
 73
6
 74
0
 42
0.0000001
 43
0.0000001
 44
0.0000000001
 40
0.0
 40
0.0
 40
0.0
 40
0.0
 40
0.5015800597
 40
0.7510700863
 40
1.0
 40
1.0
 40
1.0
 40
1.0
 10
206.8464616171
 20
150.2457711865
 30
0.0
 10
207.3721399378
 20
150.4209972934
 30
0.0
 10
208.1758386167
 20
150.6411913136
 30
0.0
 10
209.2704552819
 20
150.7991079849
 30
0.0
 10
209.821459753
 20
150.8263277701
 30
0.0
 10
210.0964616173
 20
150.8263277701
 30
0.0
  0
SPLINE
  5
71C
100
AcDbEntity
  8
BEZUGSACHSEN
100
AcDbSpline
 62
7
  6
CONTINUOUS
 70
0
 71
3
 72
10
 73
6
 74
0
 42
0.0000001
 43
0.0000001
 44
0.0000000001
 40
0.0
 40
0.0
 40
0.0
 40
0.0
 40
0.2489299426
 40
0.4984199578
 40
1.0
 40
1.0
 40
1.0
 40
1.0
 10
210.0964616173
 20
150.8263277701
 30
0.0
 10
210.3714635135
 20
150.8263277701
 30
0.0
 10
210.922467994
 20
150.7991078578
 30
0.0
 10
212.0170846984
 20
150.641191474
 30
0.0
 10
212.8207833146
 20
150.4209972874
 30
0.0
 10
213.3464616171
 20
150.2457711865
 30
0.0
  0
SPLINE
  5
71D
100
AcDbEntity
  8
BEZUGSACHSEN
100
AcDbSpline
 62
7
  6
CONTINUOUS
 70
0
 71
3
 72
10
 73
6
 74
0
 42
0.0000001
 43
0.0000001
 44
0.0000000001
 40
0.0
 40
0.0
 40
0.0
 40
0.0
 40
0.2489299426
 40
0.4984199579
 40
1.0
 40
1.0
 40
1.0
 40
1.0
 10
203.5964618722
 20
150.8263277859
 30
0.0
 10
203.8714637474
 20
150.8263277687
 30
0.0
 10
204.422468184
 20
150.7991078362
 30
0.0
 10
205.5170848016
 20
150.6411914466
 30
0.0
 10
206.3207833549
 20
150.4209972739
 30
0.0
 10
206.8464616171
 20
150.2457711865
 30
0.0
  0
SPLINE
  5
71E
100
AcDbEntity
  8
BEZUGSACHSEN
100
AcDbSpline
 62
7
  6
CONTINUOUS
 70
0
 71
3
 72
10
 73
6
 74
0
 42
0.0000001
 43
0.0000001
 44
0.0000000001
 40
0.0
 40
0.0
 40
0.0
 40
0.0
 40
0.5015800594
 40
0.7510700863
 40
1.0
 40
1.0
 40
1.0
 40
1.0
 10
200.3464616171
 20
150.2457711865
 30
0.0
 10
200.8721399781
 20
150.4209973068
 30
0.0
 10
201.6758387225
 20
150.6411913342
 30
0.0
 10
202.7704554721
 20
150.7991080071
 30
0.0
 10
203.3214599868
 20
150.8263278031
 30
0.0
 10
203.5964618722
 20
150.8263277859
 30
0.0
  0
SPLINE
  5
71F
100
AcDbEntity
  8
0
100
AcDbSpline
 62
7
  6
CONTINUOUS
 70
0
 71
3
 72
11
 73
7
 74
0
 42
0.0000001
 43
0.0000001
 44
0.0000000001
 40
0.0
 40
0.0
 40
0.0
 40
0.0
 40
0.2570782351
 40
0.5121024984
 40
0.7618830196
 40
1.0
 40
1.0
 40
1.0
 40
1.0
 10
189.846461634
 20
141.176188502
 30
0.0
 10
189.8464914509
 20
140.7561996476
 30
0.0
 10
189.9504009899
 20
139.9161581359
 30
0.0
 10
190.3932840769
 20
138.7418317111
 30
0.0
 10
191.0553108462
 20
137.7158206886
 30
0.0
 10
191.5842168264
 20
137.1179519767
 30
0.0
 10
191.8464816079
 20
136.8306413461
 30
0.0
  0
SPLINE
  5
720
100
AcDbEntity
  8
RUNDUNGEN
100
AcDbSpline
 62
7
  6
CONTINUOUS
 70
0
 71
3
 72
11
 73
7
 74
0
 42
0.0000001
 43
0.0000001
 44
0.0000000001
 40
0.0
 40
0.0
 40
0.0
 40
0.0
 40
0.2570782351
 40
0.5121024984
 40
0.7618830196
 40
1.0
 40
1.0
 40
1.0
 40
1.0
 10
223.8464616003
 20
141.176188502
 30
0.0
 10
223.8464317834
 20
140.7561996476
 30
0.0
 10
223.7425222444
 20
139.9161581359
 30
0.0
 10
223.2996391574
 20
138.7418317111
 30
0.0
 10
222.6376123881
 20
137.7158206886
 30
0.0
 10
222.1087064079
 20
137.1179519767
 30
0.0
 10
221.8464416264
 20
136.8306413461
 30
0.0
  0
SPLINE
  5
721
100
AcDbEntity
  8
0
100
AcDbSpline
 62
7
  6
CONTINUOUS
 70
0
 71
3
 72
16
 73
12
 74
0
 42
0.0000001
 43
0.0000001
 44
0.0000000001
 40
0.0
 40
0.0
 40
0.0
 40
0.0
 40
0.1279523949
 40
0.2504229091
 40
0.3712283634
 40
0.4916643198
 40
0.6123332289
 40
0.7342860495
 40
0.8606139958
 40
0.9278382691
 40
1.0
 40
1.0
 40
1.0
 40
1.0
 10
142.2876715491
 20
30.6043670886
 30
0.0
 10
142.4378389525
 20
30.3248192027
 30
0.0
 10
142.6635559076
 20
29.7397943665
 30
0.0
 10
142.8375857877
 20
28.833252905
 30
0.0
 10
142.9100942604
 20
27.9329617792
 30
0.0
 10
142.9160178909
 20
27.0348027222
 30
0.0
 10
142.8586145489
 20
26.1352368288
 30
0.0
 10
142.7094151946
 20
25.2303813393
 30
0.0
 10
142.4569551573
 20
24.4833714619
 30
0.0
 10
142.1370123648
 20
23.9053189596
 30
0.0
 10
141.9277731861
 20
23.6282169121
 30
0.0
 10
141.8095769855
 20
23.4938367757
 30
0.0
  0
SPLINE
  5
722
100
AcDbEntity
  8
0
100
AcDbSpline
 62
7
  6
CONTINUOUS
 70
0
 71
3
 72
15
 73
11
 74
0
 42
0.0000001
 43
0.0000001
 44
0.0000000001
 40
0.0
 40
0.0
 40
0.0
 40
0.0
 40
0.1253761874
 40
0.2503596611
 40
0.3752419882
 40
0.5001036976
 40
0.6249638895
 40
0.7498369859
 40
0.8747756773
 40
1.0
 40
1.0
 40
1.0
 40
1.0
 10
142.1095769855
 20
47.8543670886
 30
0.0
 10
142.3396701498
 20
47.1653034774
 30
0.0
 10
142.6626510995
 20
45.7436228149
 30
0.0
 10
142.8999709646
 20
43.5807834733
 30
0.0
 10
143.0008421539
 20
41.4109526851
 30
0.0
 10
143.0303493855
 20
39.2404420193
 30
0.0
 10
143.0144418664
 20
37.0698596373
 30
0.0
 10
142.9384296631
 20
34.8996098895
 30
0.0
 10
142.7482998738
 20
32.7337866487
 30
0.0
 10
142.4809640933
 20
31.3037323645
 30
0.0
 10
142.2876715491
 20
30.6043670886
 30
0.0
  0
SPLINE
  5
723
100
AcDbEntity
  8
0
100
AcDbSpline
 62
7
  6
CONTINUOUS
 70
0
 71
3
 72
15
 73
11
 74
0
 42
0.0000001
 43
0.0000001
 44
0.0000000001
 40
0.0
 40
0.0
 40
0.0
 40
0.0
 40
0.1253761874
 40
0.2503596611
 40
0.3752419882
 40
0.5001036976
 40
0.6249638895
 40
0.7498369859
 40
0.8747756773
 40
1.0
 40
1.0
 40
1.0
 40
1.0
 10
142.1095769855
 20
47.8543670886
 30
0.0
 10
142.3396701498
 20
48.5434306998
 30
0.0
 10
142.6626510995
 20
49.9651113623
 30
0.0
 10
142.8999709646
 20
52.1279507039
 30
0.0
 10
143.0008421539
 20
54.2977814921
 30
0.0
 10
143.0303493855
 20
56.4682921579
 30
0.0
 10
143.0144418664
 20
58.6388745399
 30
0.0
 10
142.9384296631
 20
60.8091242877
 30
0.0
 10
142.7482998738
 20
62.9749475285
 30
0.0
 10
142.4809640933
 20
64.4050018127
 30
0.0
 10
142.2876715491
 20
65.1043670886
 30
0.0
  0
SPLINE
  5
724
100
AcDbEntity
  8
0
100
AcDbSpline
 62
7
  6
CONTINUOUS
 70
0
 71
3
 72
16
 73
12
 74
0
 42
0.0000001
 43
0.0000001
 44
0.0000000001
 40
0.0
 40
0.0
 40
0.0
 40
0.0
 40
0.1279523949
 40
0.2504229091
 40
0.3712283634
 40
0.4916643198
 40
0.6123332289
 40
0.7342860495
 40
0.8606139958
 40
0.9278382691
 40
1.0
 40
1.0
 40
1.0
 40
1.0
 10
142.2876715491
 20
65.1043670886
 30
0.0
 10
142.4378389525
 20
65.3839149745
 30
0.0
 10
142.6635559076
 20
65.9689398107
 30
0.0
 10
142.8375857877
 20
66.8754812722
 30
0.0
 10
142.9100942604
 20
67.775772398
 30
0.0
 10
142.9160178909
 20
68.6739314551
 30
0.0
 10
142.8586145489
 20
69.5734973485
 30
0.0
 10
142.7094151946
 20
70.4783528379
 30
0.0
 10
142.4569551573
 20
71.2253627153
 30
0.0
 10
142.1370123648
 20
71.8034152176
 30
0.0
 10
141.9277731861
 20
72.0805172652
 30
0.0
 10
141.8095769855
 20
72.2148974015
 30
0.0
  0
SPLINE
  5
725
100
AcDbEntity
  8
0
100
AcDbSpline
 62
7
  6
CONTINUOUS
 70
0
 71
3
 72
15
 73
11
 74
0
 42
0.0000001
 43
0.0000001
 44
0.0000000001
 40
0.0
 40
0.0
 40
0.0
 40
0.0
 40
0.1252249954
 40
0.2501637576
 40
0.3750369451
 40
0.4998970999
 40
0.6247587779
 40
0.7496410353
 40
0.8746243683
 40
1.0
 40
1.0
 40
1.0
 40
1.0
 10
133.9314824219
 20
65.1043670886
 30
0.0
 10
133.7381888392
 20
64.4049980553
 30
0.0
 10
133.4708539358
 20
62.974939304
 30
0.0
 10
133.2807192519
 20
60.8091115567
 30
0.0
 10
133.2047162168
 20
58.638860742
 30
0.0
 10
133.1888008268
 20
56.4682783245
 30
0.0
 10
133.2183148025
 20
54.2977685447
 30
0.0
 10
133.3191819076
 20
52.1279389462
 30
0.0
 10
133.5565062126
 20
49.96510454
 30
0.0
 10
133.8794848409
 20
48.5434276461
 30
0.0
 10
134.1095769855
 20
47.8543670886
 30
0.0
  0
SPLINE
  5
726
100
AcDbEntity
  8
0
100
AcDbSpline
 62
7
  6
CONTINUOUS
 70
0
 71
3
 72
15
 73
11
 74
0
 42
0.0000001
 43
0.0000001
 44
0.0000000001
 40
0.0
 40
0.0
 40
0.0
 40
0.0
 40
0.1252249954
 40
0.2501637576
 40
0.3750369451
 40
0.4998970999
 40
0.6247587779
 40
0.7496410353
 40
0.8746243683
 40
1.0
 40
1.0
 40
1.0
 40
1.0
 10
133.9314824219
 20
30.6043670886
 30
0.0
 10
133.7381888392
 20
31.303736122
 30
0.0
 10
133.4708539358
 20
32.7337948732
 30
0.0
 10
133.2807192519
 20
34.8996226205
 30
0.0
 10
133.2047162168
 20
37.0698734352
 30
0.0
 10
133.1888008268
 20
39.2404558527
 30
0.0
 10
133.2183148025
 20
41.4109656325
 30
0.0
 10
133.3191819076
 20
43.580795231
 30
0.0
 10
133.5565062126
 20
45.7436296372
 30
0.0
 10
133.8794848409
 20
47.1653065311
 30
0.0
 10
134.1095769855
 20
47.8543670886
 30
0.0
  0
SPLINE
  5
727
100
AcDbEntity
  8
0
100
AcDbSpline
 62
7
  6
CONTINUOUS
 70
0
 71
3
 72
16
 73
12
 74
0
 42
0.0000001
 43
0.0000001
 44
0.0000000001
 40
0.0
 40
0.0
 40
0.0
 40
0.0
 40
0.0721615177
 40
0.1393850479
 40
0.2657129799
 40
0.3876659585
 40
0.5083351768
 40
0.6287714084
 40
0.7495770629
 40
0.8720476741
 40
1.0
 40
1.0
 40
1.0
 40
1.0
 10
134.4095769855
 20
23.4938367757
 30
0.0
 10
134.2913811441
 20
23.6282165037
 30
0.0
 10
134.0821460938
 20
23.9053185252
 30
0.0
 10
133.7622003658
 20
24.4833664576
 30
0.0
 10
133.5097441383
 20
25.2303761234
 30
0.0
 10
133.3605360922
 20
26.1352309816
 30
0.0
 10
133.3031366194
 20
27.0347992378
 30
0.0
 10
133.3090601262
 20
27.932959912
 30
0.0
 10
133.3815662253
 20
28.8332527944
 30
0.0
 10
133.5556003512
 20
29.7397938231
 30
0.0
 10
133.7813151122
 20
30.324819377
 30
0.0
 10
133.9314824219
 20
30.6043670886
 30
0.0
  0
SPLINE
  5
728
100
AcDbEntity
  8
0
100
AcDbSpline
 62
7
  6
CONTINUOUS
 70
0
 71
3
 72
16
 73
12
 74
0
 42
0.0000001
 43
0.0000001
 44
0.0000000001
 40
0.0
 40
0.0
 40
0.0
 40
0.0
 40
0.0721615177
 40
0.1393850479
 40
0.2657129799
 40
0.3876659585
 40
0.5083351768
 40
0.6287714084
 40
0.7495770629
 40
0.8720476741
 40
1.0
 40
1.0
 40
1.0
 40
1.0
 10
134.4095769855
 20
72.2148974015
 30
0.0
 10
134.2913811441
 20
72.0805176735
 30
0.0
 10
134.0821460938
 20
71.803415652
 30
0.0
 10
133.7622003658
 20
71.2253677196
 30
0.0
 10
133.5097441383
 20
70.4783580538
 30
0.0
 10
133.3605360922
 20
69.5735031956
 30
0.0
 10
133.3031366194
 20
68.6739349394
 30
0.0
 10
133.3090601262
 20
67.7757742652
 30
0.0
 10
133.3815662253
 20
66.8754813829
 30
0.0
 10
133.5556003512
 20
65.9689403541
 30
0.0
 10
133.7813151122
 20
65.3839148002
 30
0.0
 10
133.9314824219
 20
65.1043670886
 30
0.0
  0
ELLIPSE
  5
729
100
AcDbEntity
  8
0
100
AcDbEllipse
 62
7
  6
CONTINUOUS
 10
120.3095769855
 20
133.4041994544
 30
0.0
 11
15.5
 21
0.0
 31
0.0
 40
0.255319362
 41
2.9253962702
 42
2.9418806195
  0
ELLIPSE
  5
72A
100
AcDbEntity
  8
0
100
AcDbEllipse
 62
7
  6
CONTINUOUS
 10
120.3095769855
 20
131.9893061244
 30
0.0
 11
15.5
 21
0.0
 31
0.0
 40
0.6808512211
 41
2.9129939675
 42
2.9253962702
  0
ELLIPSE
  5
72B
100
AcDbEntity
  8
0
100
AcDbEllipse
 62
7
  6
CONTINUOUS
 10
120.3095769855
 20
128.9999560821
 30
0.0
 11
0.0
 21
23.7446327312
 31
0.0
 40
0.6527791007
 41
1.3339096201
 42
1.3421976407
  0
ELLIPSE
  5
72C
100
AcDbEntity
  8
0
100
AcDbEllipse
 62
7
  6
CONTINUOUS
 10
120.3095769855
 20
119.7126558333
 30
0.0
 11
-0.0
 21
63.3193829322
 31
0.0
 40
0.244790762
 41
1.3297594441
 42
1.3339096201
  0
ELLIPSE
  5
72D
100
AcDbEntity
  8
0
100
AcDbEllipse
 62
7
  6
CONTINUOUS
 10
120.3095769855
 20
150.8999996175
 30
0.0
 11
-0.0
 21
63.3193829322
 31
0.0
 40
0.244790762
 41
-4.4755022737
 42
-4.4713520977
  0
ELLIPSE
  5
72E
100
AcDbEntity
  8
0
100
AcDbEllipse
 62
7
  6
CONTINUOUS
 10
120.3095769855
 20
141.6127045722
 30
0.0
 11
-0.0
 21
23.7446549041
 31
0.0
 40
0.6527784911
 41
-4.4837902943
 42
-4.4755022737
  0
ELLIPSE
  5
72F
100
AcDbEntity
  8
0
100
AcDbEllipse
 62
7
  6
CONTINUOUS
 10
120.3095769855
 20
138.6233486678
 30
0.0
 11
15.5
 21
0.0
 31
0.0
 40
0.6808509827
 41
3.357789037
 42
3.3701913396
  0
ELLIPSE
  5
730
100
AcDbEntity
  8
0
100
AcDbEllipse
 62
7
  6
CONTINUOUS
 10
120.3095769855
 20
137.2084561305
 30
0.0
 11
15.5
 21
0.0
 31
0.0
 40
0.255319362
 41
-2.9418806195
 42
-2.9253962702
  0
ELLIPSE
  5
731
100
AcDbEntity
  8
0
100
AcDbEllipse
 62
7
  6
CONTINUOUS
 10
120.3095769855
 20
133.5956886554
 30
0.0
 11
-0.0
 21
23.7447006652
 31
0.0
 40
0.6527772331
 41
1.5296556901
 42
1.5377257753
  0
ELLIPSE
  5
732
100
AcDbEntity
  8
0
100
AcDbEllipse
 62
7
  6
CONTINUOUS
 10
120.3095769855
 20
131.9680351735
 30
0.0
 11
0.0
 21
63.3190206165
 31
0.0
 40
0.2447921628
 41
1.5256196633
 42
1.5296556901
  0
ELLIPSE
  5
733
100
AcDbEntity
  8
0
100
AcDbEllipse
 62
7
  6
CONTINUOUS
 10
120.3095769855
 20
126.1159731693
 30
0.0
 11
15.5
 21
0.0
 31
0.0
 40
0.1702127606
 41
3.4205458647
 42
3.4415827711
  0
ELLIPSE
  5
734
100
AcDbEntity
  8
0
100
AcDbEllipse
 62
7
  6
CONTINUOUS
 10
120.3095769855
 20
126.8424270808
 30
0.0
 11
15.5
 21
0.0
 31
0.0
 40
0.3404255211
 41
-2.8731099231
 42
-2.8626394425
  0
ELLIPSE
  5
735
100
AcDbEntity
  8
0
100
AcDbEllipse
 62
7
  6
CONTINUOUS
 10
120.3095769855
 20
128.2421434162
 30
0.0
 11
15.5
 21
0.0
 31
0.0
 40
0.6808510423
 41
3.3996349805
 42
3.4100753841
  0
ELLIPSE
  5
736
100
AcDbEntity
  8
0
100
AcDbEllipse
 62
7
  6
CONTINUOUS
 10
120.3095769855
 20
133.6282273973
 30
0.0
 11
0.0
 21
31.6595130799
 31
0.0
 40
0.4895842826
 41
1.8218943951
 42
1.8288386538
  0
ELLIPSE
  5
737
100
AcDbEntity
  8
0
100
AcDbEllipse
 62
7
  6
CONTINUOUS
 10
120.3095769855
 20
125.8143068835
 30
0.0
 11
15.5
 21
-0.0
 31
0.0
 40
0.2553193843
 41
-3.0340467489
 42
-3.0205175026
  0
ELLIPSE
  5
738
100
AcDbEntity
  8
0
100
AcDbEllipse
 62
7
  6
CONTINUOUS
 10
120.3095769855
 20
126.2390945464
 30
0.0
 11
15.5
 21
-0.0
 31
0.0
 40
0.510638791
 41
-3.0475562611
 42
-3.0340467489
  0
ELLIPSE
  5
739
100
AcDbEntity
  8
0
100
AcDbEllipse
 62
7
  6
CONTINUOUS
 10
120.3095769855
 20
126.4868244143
 30
0.0
 11
15.5
 21
0.0
 31
0.0
 40
0.6808511019
 41
3.2255083228
 42
3.2356290461
  0
ELLIPSE
  5
73A
100
AcDbEntity
  8
0
100
AcDbEllipse
 62
7
  6
CONTINUOUS
 10
120.3095769855
 20
127.5924942595
 30
0.0
 11
-0.0
 21
23.7446327312
 31
0.0
 40
0.6527791007
 41
1.6479696821
 42
1.654711996
  0
ELLIPSE
  5
73B
100
AcDbEntity
  8
0
100
AcDbEllipse
 62
7
  6
CONTINUOUS
 10
120.3095769855
 20
129.4231506523
 30
0.0
 11
0.0
 21
47.4895482857
 31
0.0
 40
0.3263876065
 41
1.6445998814
 42
1.6479696821
  0
ELLIPSE
  5
73C
100
AcDbEntity
  8
0
100
AcDbEllipse
 62
7
  6
CONTINUOUS
 10
120.3095769855
 20
125.1454334754
 30
0.0
 11
15.5
 21
0.0
 31
0.0
 40
0.2042556065
 41
2.9797853775
 42
2.9967860217
  0
ELLIPSE
  5
73D
100
AcDbEntity
  8
0
100
AcDbEllipse
 62
7
  6
CONTINUOUS
 10
120.3095769855
 20
124.380373008
 30
0.0
 11
15.5
 21
0.0
 31
0.0
 40
0.510637263
 41
2.9729721472
 42
2.9797853775
  0
ELLIPSE
  5
73E
100
AcDbEntity
  8
0
100
AcDbEllipse
 62
7
  6
CONTINUOUS
 10
120.3095769855
 20
123.0520768973
 30
0.0
 11
-0.0
 21
15.8297606973
 31
0.0
 40
0.9791683081
 41
1.3953546783
 42
1.4021758204
  0
ELLIPSE
  5
73F
100
AcDbEntity
  8
0
100
AcDbEllipse
 62
7
  6
CONTINUOUS
 10
120.3095769855
 20
120.289072918
 30
0.0
 11
0.0
 21
31.6596914661
 31
0.0
 40
0.4895815241
 41
1.3919410519
 42
1.3953546783
  0
ELLIPSE
  5
740
100
AcDbEntity
  8
0
100
AcDbEllipse
 62
7
  6
CONTINUOUS
 10
120.3095769855
 20
131.7665310735
 30
0.0
 11
0.0
 21
31.6595213947
 31
0.0
 40
0.4895841541
 41
1.7428263742
 42
1.7496516017
  0
ELLIPSE
  5
741
100
AcDbEntity
  8
0
100
AcDbEllipse
 62
7
  6
CONTINUOUS
 10
120.3095769855
 20
128.1534905686
 30
0.0
 11
15.5
 21
0.0
 31
0.0
 40
0.6808509827
 41
3.3033999297
 42
3.313622701
  0
ELLIPSE
  5
742
100
AcDbEntity
  8
0
100
AcDbEllipse
 62
7
  6
CONTINUOUS
 10
120.3095769855
 20
126.8783844391
 30
0.0
 11
15.5
 21
0.0
 31
0.0
 40
0.1702127457
 41
-3.0001809694
 42
-2.9797853775
  0
ELLIPSE
  5
743
100
AcDbEntity
  8
0
100
AcDbEllipse
 62
7
  6
CONTINUOUS
 10
120.3095769855
 20
125.9756186907
 30
0.0
 11
15.5
 21
-0.0
 31
0.0
 40
0.3404254913
 41
2.9797853775
 42
3.0001809694
  0
ELLIPSE
  5
744
100
AcDbEntity
  8
0
100
AcDbEllipse
 62
7
  6
CONTINUOUS
 10
120.3095769855
 20
124.2754820488
 30
0.0
 11
0.0
 21
15.8297551541
 31
0.0
 40
0.979168651
 41
1.4021758204
 42
1.4089890507
  0
ELLIPSE
  5
745
100
AcDbEntity
  8
0
100
AcDbEllipse
 62
7
  6
CONTINUOUS
 10
120.3095769855
 20
121.6188916879
 30
0.0
 11
-0.0
 21
31.6595103082
 31
0.0
 40
0.4895843255
 41
1.3953546783
 42
1.4021758204
  0
ELLIPSE
  5
746
100
AcDbEntity
  8
0
100
AcDbEllipse
 62
7
  6
CONTINUOUS
 10
120.3095769855
 20
131.3956814474
 30
0.0
 11
0.0
 21
23.7446327312
 31
0.0
 40
0.6527791007
 41
1.7394168332
 42
1.7462379753
  0
ELLIPSE
  5
747
100
AcDbEntity
  8
0
100
AcDbEllipse
 62
7
  6
CONTINUOUS
 10
120.3095769855
 20
129.1818595246
 30
0.0
 11
15.5
 21
-0.0
 31
0.0
 40
0.6808509827
 41
3.2999961937
 42
3.31021316
  0
ELLIPSE
  5
748
100
AcDbEntity
  8
0
100
AcDbEllipse
 62
7
  6
CONTINUOUS
 10
120.3095769855
 20
128.0165826868
 30
0.0
 11
15.5
 21
-0.0
 31
0.0
 40
0.204255139
 41
-3.0001809694
 42
-2.9831891135
  0
ELLIPSE
  5
749
100
AcDbEntity
  8
0
100
AcDbEllipse
 62
7
  6
CONTINUOUS
 10
120.3095769855
 20
122.3695012889
 30
0.0
 11
0.0
 21
63.3193829322
 31
0.0
 40
0.244790762
 41
1.4902522925
 42
1.4936229715
  0
ELLIPSE
  5
74A
100
AcDbEntity
  8
0
100
AcDbEllipse
 62
7
  6
CONTINUOUS
 10
120.3095769855
 20
126.1903731517
 30
0.0
 11
-0.0
 21
15.8297551541
 31
0.0
 40
0.979168651
 41
1.4767599343
 42
1.4902522925
  0
ELLIPSE
  5
74B
100
AcDbEntity
  8
0
100
AcDbEllipse
 62
7
  6
CONTINUOUS
 10
120.3095769855
 20
126.9335611101
 30
0.0
 11
15.5
 21
0.0
 31
0.0
 40
0.510638724
 41
3.0340467489
 42
3.0475562611
  0
ELLIPSE
  5
74C
100
AcDbEntity
  8
0
100
AcDbEllipse
 62
7
  6
CONTINUOUS
 10
120.3095769855
 20
127.5404006214
 30
0.0
 11
15.5
 21
0.0
 31
0.0
 40
0.1458967187
 41
3.01035606
 42
3.0340467489
  0
ELLIPSE
  5
74D
100
AcDbEntity
  8
0
100
AcDbEllipse
 62
7
  6
CONTINUOUS
 10
120.3095769855
 20
129.6537717186
 30
0.0
 11
-0.0
 21
47.4893098081
 31
0.0
 40
0.3263892456
 41
-4.6617759827
 42
-4.6584111596
  0
ELLIPSE
  5
74E
100
AcDbEntity
  8
0
100
AcDbEllipse
 62
7
  6
CONTINUOUS
 10
120.3095769855
 20
132.2158917934
 30
0.0
 11
-0.0
 21
94.9785309247
 31
0.0
 40
0.1631947752
 41
-4.6584111596
 42
-4.656728521
  0
ELLIPSE
  5
74F
100
AcDbEntity
  8
0
100
AcDbEllipse
 62
7
  6
CONTINUOUS
 10
120.3095769855
 20
150.9880918517
 30
0.0
 11
-0.0
 21
31.6593291525
 31
0.0
 40
0.4895871269
 41
-4.0500030139
 42
-4.0457344813
  0
ELLIPSE
  5
750
100
AcDbEntity
  8
0
100
AcDbEllipse
 62
7
  6
CONTINUOUS
 10
120.3095769855
 20
141.2529595488
 30
0.0
 11
-0.0
 21
15.8298457331
 31
0.0
 40
0.9791630482
 41
-4.0584977073
 42
-4.0500030139
  0
ELLIPSE
  5
751
100
AcDbEntity
  8
0
100
AcDbEllipse
 62
7
  6
CONTINUOUS
 10
120.3095769855
 20
134.8336325317
 30
0.0
 11
15.5
 21
0.0
 31
0.0
 40
0.3404254913
 41
-2.5003409613
 42
-2.4877013805
  0
ELLIPSE
  5
752
100
AcDbEntity
  8
0
100
AcDbEllipse
 62
7
  6
CONTINUOUS
 10
120.3095769855
 20
131.3050963491
 30
0.0
 11
15.5
 21
0.0
 31
0.0
 40
0.2042556244
 41
-2.553811255
 42
-2.5334828052
  0
ELLIPSE
  5
753
100
AcDbEntity
  8
0
100
AcDbEllipse
 62
7
  6
CONTINUOUS
 10
120.3095769855
 20
134.8162505317
 30
0.0
 11
15.5
 21
-0.0
 31
0.0
 40
0.6127668731
 41
-2.5738679499
 42
-2.553811255
  0
ELLIPSE
  5
754
100
AcDbEntity
  8
0
100
AcDbEllipse
 62
7
  6
CONTINUOUS
 10
120.3095769855
 20
143.8956205094
 30
0.0
 11
-0.0
 21
26.3829811215
 31
0.0
 40
0.5874999466
 41
-4.1565755811
 42
-4.1446642767
  0
ELLIPSE
  5
755
100
AcDbEntity
  8
0
100
AcDbEllipse
 62
7
  6
CONTINUOUS
 10
120.3095769855
 20
163.3841556433
 30
0.0
 11
-0.0
 21
63.3186583049
 31
0.0
 40
0.2447935635
 41
-4.1605264273
 42
-4.1565755811
  0
ELLIPSE
  5
756
100
AcDbEntity
  8
0
100
AcDbEllipse
 62
7
  6
CONTINUOUS
 10
120.3095769855
 20
127.44812743
 30
0.0
 11
15.5
 21
-0.0
 31
0.0
 40
0.2553200925
 41
2.4834610559
 42
2.5003409613
  0
ELLIPSE
  5
757
100
AcDbEntity
  8
0
100
AcDbEllipse
 62
7
  6
CONTINUOUS
 10
120.3095769855
 20
123.4139151952
 30
0.0
 11
15.5
 21
0.0
 31
0.0
 40
0.6808512211
 41
2.4706553354
 42
2.4834610559
  0
ELLIPSE
  5
758
100
AcDbEntity
  8
0
100
AcDbEllipse
 62
7
  6
CONTINUOUS
 10
120.3095769855
 20
115.2126129973
 30
0.0
 11
0.0
 21
23.7444968643
 31
0.0
 40
0.6527828359
 41
0.8912491124
 42
0.8998590086
  0
ELLIPSE
  5
759
100
AcDbEntity
  8
0
100
AcDbEllipse
 62
7
  6
CONTINUOUS
 10
120.3095769855
 20
145.2162197006
 30
0.0
 11
0.0
 21
23.7445079507
 31
0.0
 40
0.6527825311
 41
-4.0414516622
 42
-4.032841766
  0
ELLIPSE
  5
75A
100
AcDbEntity
  8
0
100
AcDbEllipse
 62
7
  6
CONTINUOUS
 10
120.3095769855
 20
137.0149083126
 30
0.0
 11
15.5
 21
0.0
 31
0.0
 40
0.6808509827
 41
-2.4834610559
 42
-2.4706553354
  0
ELLIPSE
  5
75B
100
AcDbEntity
  8
0
100
AcDbEllipse
 62
7
  6
CONTINUOUS
 10
120.3095769855
 20
132.9806983381
 30
0.0
 11
15.5
 21
0.0
 31
0.0
 40
0.2553200925
 41
-2.5003409613
 42
-2.4834610559
  0
ELLIPSE
  5
75C
100
AcDbEntity
  8
0
100
AcDbEllipse
 62
7
  6
CONTINUOUS
 10
120.3095769855
 20
132.9008977197
 30
0.0
 11
15.5
 21
0.0
 31
0.0
 40
0.2553186315
 41
-2.541648023
 42
-2.5252708157
  0
ELLIPSE
  5
75D
100
AcDbEntity
  8
0
100
AcDbEllipse
 62
7
  6
CONTINUOUS
 10
120.3095769855
 20
135.1352548937
 30
0.0
 11
15.5
 21
0.0
 31
0.0
 40
0.510637263
 41
-2.5578437595
 42
-2.541648023
  0
ELLIPSE
  5
75E
100
AcDbEntity
  8
0
100
AcDbEllipse
 62
7
  6
CONTINUOUS
 10
120.3095769855
 20
139.4976361989
 30
0.0
 11
0.0
 21
15.8298457331
 31
0.0
 40
0.9791630482
 41
-4.1446642767
 42
-4.1286400863
  0
ELLIPSE
  5
75F
100
AcDbEntity
  8
0
100
AcDbEllipse
 62
7
  6
CONTINUOUS
 10
120.3095769855
 20
165.0330868216
 30
0.0
 11
-0.0
 21
63.3186583049
 31
0.0
 40
0.2447935635
 41
-4.148644687
 42
-4.1446642767
  0
ELLIPSE
  5
760
100
AcDbEntity
  8
0
100
AcDbEllipse
 62
7
  6
CONTINUOUS
 10
120.3095769855
 20
97.576590011
 30
0.0
 11
0.0
 21
63.3186583049
 31
0.0
 40
0.2447935635
 41
1.0030716231
 42
1.0070520334
  0
ELLIPSE
  5
761
100
AcDbEntity
  8
0
100
AcDbEllipse
 62
7
  6
CONTINUOUS
 10
120.3095769855
 20
123.1120406337
 30
0.0
 11
-0.0
 21
15.8298457331
 31
0.0
 40
0.9791630482
 41
0.9870474327
 42
1.0030716231
  0
ELLIPSE
  5
762
100
AcDbEntity
  8
0
100
AcDbEllipse
 62
7
  6
CONTINUOUS
 10
120.3095769855
 20
127.4744219389
 30
0.0
 11
15.5
 21
0.0
 31
0.0
 40
0.510637263
 41
2.541648023
 42
2.5578437595
  0
ELLIPSE
  5
763
100
AcDbEntity
  8
0
100
AcDbEllipse
 62
7
  6
CONTINUOUS
 10
120.3095769855
 20
129.708779113
 30
0.0
 11
15.5
 21
0.0
 31
0.0
 40
0.2553186315
 41
2.5252708157
 42
2.541648023
  0
ELLIPSE
  5
764
100
AcDbEntity
  8
0
100
AcDbEllipse
 62
7
  6
CONTINUOUS
 10
120.3095769855
 20
130.8582871708
 30
0.0
 11
15.5
 21
0.0
 31
0.0
 40
0.2042556244
 41
-2.7154219044
 42
-2.6968914698
  0
ELLIPSE
  5
765
100
AcDbEntity
  8
0
100
AcDbEllipse
 62
7
  6
CONTINUOUS
 10
120.3095769855
 20
132.8214279504
 30
0.0
 11
15.5
 21
-0.0
 31
0.0
 40
0.5106373301
 41
-2.7301344955
 42
-2.7154219044
  0
ELLIPSE
  5
766
100
AcDbEntity
  8
0
100
AcDbEllipse
 62
7
  6
CONTINUOUS
 10
120.3095769855
 20
135.9869896125
 30
0.0
 11
-0.0
 21
15.8298471189
 31
0.0
 40
0.9791629624
 41
-4.3155494663
 42
-4.3009308223
  0
ELLIPSE
  5
767
100
AcDbEntity
  8
0
100
AcDbEllipse
 62
7
  6
CONTINUOUS
 10
120.3095769855
 20
142.1051720715
 30
0.0
 11
0.0
 21
31.6593346956
 31
0.0
 40
0.4895870412
 41
-4.3228251945
 42
-4.3155494663
  0
ELLIPSE
  5
768
100
AcDbEntity
  8
0
100
AcDbEllipse
 62
7
  6
CONTINUOUS
 10
120.3095769855
 20
160.1414616931
 30
0.0
 11
0.0
 21
79.1501344701
 31
0.0
 40
0.1958303685
 41
-4.3264548139
 42
-4.3228251945
  0
ELLIPSE
  5
769
100
AcDbEntity
  8
0
100
AcDbEllipse
 62
7
  6
CONTINUOUS
 10
120.3095769855
 20
128.0598419655
 30
0.0
 11
15.5
 21
-0.0
 31
0.0
 40
0.2553186315
 41
2.6668945882
 42
2.6819487115
  0
ELLIPSE
  5
76A
100
AcDbEntity
  8
0
100
AcDbEllipse
 62
7
  6
CONTINUOUS
 10
120.3095769855
 20
125.0451207046
 30
0.0
 11
15.5
 21
0.0
 31
0.0
 40
0.6808512211
 41
2.6555273261
 42
2.6668945882
  0
ELLIPSE
  5
76B
100
AcDbEntity
  8
0
100
AcDbEllipse
 62
7
  6
CONTINUOUS
 10
120.3095769855
 20
118.8826691658
 30
0.0
 11
0.0
 21
23.7447685996
 31
0.0
 40
0.6527753654
 41
1.0771148634
 42
1.0847309993
  0
ELLIPSE
  5
76C
100
AcDbEntity
  8
0
100
AcDbEllipse
 62
7
  6
CONTINUOUS
 10
120.3095769855
 20
100.1297517538
 30
0.0
 11
0.0
 21
63.3186583049
 31
0.0
 40
0.2447935635
 41
1.0732950498
 42
1.0771148634
  0
ELLIPSE
  5
76D
100
AcDbEntity
  8
0
100
AcDbEllipse
 62
7
  6
CONTINUOUS
 10
120.3095769855
 20
130.0810087005
 30
0.0
 11
15.5
 21
-0.0
 31
0.0
 40
0.3404254913
 41
2.9692897421
 42
2.9795129834
  0
ELLIPSE
  5
76E
100
AcDbEntity
  8
0
100
AcDbEllipse
 62
7
  6
CONTINUOUS
 10
120.3095769855
 20
128.2716368608
 30
0.0
 11
0.0
 21
15.8298457331
 31
0.0
 40
0.9791630482
 41
1.3916678963
 42
1.3984934153
  0
ELLIPSE
  5
76F
100
AcDbEntity
  8
0
100
AcDbEllipse
 62
7
  6
CONTINUOUS
 10
120.3095769855
 20
122.630862594
 30
0.0
 11
0.0
 21
47.4889937287
 31
0.0
 40
0.3263914179
 41
1.3882519523
 42
1.3916678963
  0
ELLIPSE
  5
770
100
AcDbEntity
  8
0
100
AcDbEllipse
 62
7
  6
CONTINUOUS
 10
120.3095769855
 20
140.0320057217
 30
0.0
 11
-0.0
 21
47.4889937287
 31
0.0
 40
0.3263914179
 41
1.7499247573
 42
1.7533407013
  0
ELLIPSE
  5
771
100
AcDbEntity
  8
0
100
AcDbEllipse
 62
7
  6
CONTINUOUS
 10
120.3095769855
 20
134.3912314549
 30
0.0
 11
-0.0
 21
15.8298457331
 31
0.0
 40
0.9791630482
 41
1.7430992383
 42
1.7499247573
  0
ELLIPSE
  5
772
100
AcDbEntity
  8
0
100
AcDbEllipse
 62
7
  6
CONTINUOUS
 10
120.3095769855
 20
132.5818596152
 30
0.0
 11
15.5
 21
0.0
 31
0.0
 40
0.3404254913
 41
3.3036723238
 42
3.3138955651
  0
ELLIPSE
  5
773
100
AcDbEntity
  8
0
100
AcDbEllipse
 62
7
  6
CONTINUOUS
 10
120.3095769855
 20
129.502725027
 30
0.0
 11
-0.0
 21
79.1483672267
 31
0.0
 40
0.195834741
 41
1.5439920291
 42
1.5473533322
  0
ELLIPSE
  5
774
100
AcDbEntity
  8
0
100
AcDbEllipse
 62
7
  6
CONTINUOUS
 10
120.3095769855
 20
131.1997315129
 30
0.0
 11
-0.0
 21
15.8298004435
 31
0.0
 40
0.9791658496
 41
7.8137288292
 42
7.8271773363
  0
ELLIPSE
  5
775
100
AcDbEntity
  8
0
100
AcDbEllipse
 62
7
  6
CONTINUOUS
 10
120.3095769855
 20
131.518242417
 30
0.0
 11
15.5
 21
-0.0
 31
0.0
 40
0.510638724
 41
9.3710693602
 42
9.384525156
  0
ELLIPSE
  5
776
100
AcDbEntity
  8
0
100
AcDbEllipse
 62
7
  6
CONTINUOUS
 10
120.3095769855
 20
131.7731790308
 30
0.0
 11
15.5
 21
0.0
 31
0.0
 40
0.204255139
 41
3.0710502914
 42
3.087884053
  0
ELLIPSE
  5
777
100
AcDbEntity
  8
0
100
AcDbEllipse
 62
7
  6
CONTINUOUS
 10
120.3095769855
 20
129.719476529
 30
0.0
 11
15.5
 21
0.0
 31
0.0
 40
0.2042551568
 41
-3.087884053
 42
-3.0710502914
  0
ELLIPSE
  5
778
100
AcDbEntity
  8
0
100
AcDbEllipse
 62
7
  6
CONTINUOUS
 10
120.3095769855
 20
129.9744131837
 30
0.0
 11
15.5
 21
-0.0
 31
0.0
 40
0.510638791
 41
-3.1013398488
 42
-3.087884053
  0
ELLIPSE
  5
779
100
AcDbEntity
  8
0
100
AcDbEllipse
 62
7
  6
CONTINUOUS
 10
120.3095769855
 20
130.2929241017
 30
0.0
 11
0.0
 21
15.8298018293
 31
0.0
 40
0.9791657639
 41
-4.6855846827
 42
-4.6721361756
  0
ELLIPSE
  5
77A
100
AcDbEntity
  8
0
100
AcDbEllipse
 62
7
  6
CONTINUOUS
 10
120.3095769855
 20
131.5656774244
 30
0.0
 11
0.0
 21
63.3186693913
 31
0.0
 40
0.2447935206
 41
-4.6889459858
 42
-4.6855846827
  0
ELLIPSE
  5
77B
100
AcDbEntity
  8
0
100
AcDbEllipse
 62
7
  6
CONTINUOUS
 10
120.3095769855
 20
128.0918150332
 30
0.0
 11
15.0
 21
-0.0
 31
0.0
 40
0.2042556244
 41
2.6457445883
 42
2.665379829
  0
ELLIPSE
  5
77C
100
AcDbEntity
  8
0
100
AcDbEllipse
 62
7
  6
CONTINUOUS
 10
120.3095769855
 20
125.9052710483
 30
0.0
 11
15.0
 21
-0.0
 31
0.0
 40
0.5106373301
 41
2.6298852443
 42
2.6457445883
  0
ELLIPSE
  5
77D
100
AcDbEntity
  8
0
100
AcDbEllipse
 62
7
  6
CONTINUOUS
 10
120.3095769855
 20
122.1546401871
 30
0.0
 11
0.0
 21
15.3191192322
 31
0.0
 40
0.9791685653
 41
1.0560026203
 42
1.0590889175
  0
ELLIPSE
  5
77E
100
AcDbEntity
  8
0
100
AcDbEllipse
 62
7
  6
CONTINUOUS
 10
120.3095769855
 20
128.1869660262
 30
0.0
 11
-0.0
 21
21.1063804626
 31
0.0
 40
0.7343750875
 41
1.5974930463
 42
1.6075788139
  0
ELLIPSE
  5
77F
100
AcDbEntity
  8
0
100
AcDbEllipse
 62
7
  6
CONTINUOUS
 10
120.3095769855
 20
129.1571853384
 30
0.0
 11
-0.0
 21
47.4895371992
 31
0.0
 40
0.3263876827
 41
1.6075788139
 42
1.6109415049
  0
ELLIPSE
  5
780
100
AcDbEntity
  8
0
100
AcDbEllipse
 62
7
  6
CONTINUOUS
 10
120.3095769855
 20
161.7339664388
 30
0.0
 11
-0.0
 21
45.9570907052
 31
0.0
 40
0.3263914179
 41
-3.9964404728
 42
-3.9918289774
  0
ELLIPSE
  5
781
100
AcDbEntity
  8
0
100
AcDbEllipse
 62
7
  6
CONTINUOUS
 10
120.3095769855
 20
144.9767517546
 30
0.0
 11
0.0
 21
20.42552948
 31
0.0
 40
0.7343750875
 41
-4.0101655502
 42
-3.9964404728
  0
ELLIPSE
  5
782
100
AcDbEntity
  8
0
100
AcDbEllipse
 62
7
  6
CONTINUOUS
 10
120.3095769855
 20
139.2047170114
 30
0.0
 11
15.0
 21
-0.0
 31
0.0
 40
0.7659558946
 41
-2.4574255887
 42
-2.4393692234
  0
ELLIPSE
  5
783
100
AcDbEntity
  8
0
100
AcDbEllipse
 62
7
  6
CONTINUOUS
 10
120.3095769855
 20
133.8795644618
 30
0.0
 11
15.0
 21
-0.0
 31
0.0
 40
0.2042556065
 41
-2.4796293465
 42
-2.4574255887
  0
ELLIPSE
  5
784
100
AcDbEntity
  8
0
100
AcDbEllipse
 62
7
  6
CONTINUOUS
 10
120.3095769855
 20
90.9796094829
 30
0.0
 11
0.0
 21
76.5951511753
 31
0.0
 40
0.1958348508
 41
1.0309872233
 42
1.0334141503
  0
ELLIPSE
  5
785
100
AcDbEntity
  8
0
100
AcDbEllipse
 62
7
  6
CONTINUOUS
 10
120.3095769855
 20
132.1403685289
 30
0.0
 11
15.5
 21
0.0
 31
0.0
 40
0.510638791
 41
2.9047059469
 42
2.9212659891
  0
ELLIPSE
  5
786
100
AcDbEntity
  8
0
100
AcDbEllipse
 62
7
  6
CONTINUOUS
 10
120.3095769855
 20
133.1782431628
 30
0.0
 11
15.5
 21
0.0
 31
0.0
 40
0.2042551568
 41
2.9212659891
 42
2.9418806195
  0
ELLIPSE
  5
787
100
AcDbEntity
  8
0
100
AcDbEllipse
 62
7
  6
CONTINUOUS
 10
120.3095769855
 20
129.3382531472
 30
0.0
 11
-0.0
 21
79.1487757706
 31
0.0
 40
0.1958337302
 41
1.5013857591
 42
1.505427201
  0
ELLIPSE
  5
788
100
AcDbEntity
  8
0
100
AcDbEllipse
 62
7
  6
CONTINUOUS
 10
120.3095769855
 20
138.699733433
 30
0.0
 11
-0.0
 21
15.3191506863
 31
0.0
 40
0.9791665548
 41
2.172509494
 42
2.1852010927
  0
ELLIPSE
  5
789
100
AcDbEntity
  8
0
100
AcDbEllipse
 62
7
  6
CONTINUOUS
 10
120.3095769855
 20
156.0425104031
 30
0.0
 11
-0.0
 21
45.9570907052
 31
0.0
 40
0.3263914179
 41
-4.1148817698
 42
-4.1106758131
  0
ELLIPSE
  5
78A
100
AcDbEntity
  8
0
100
AcDbEllipse
 62
7
  6
CONTINUOUS
 10
120.3095769855
 20
127.1950521107
 30
0.0
 11
0.0
 21
15.82981554
 31
0.0
 40
0.9791649158
 41
1.6008546227
 42
1.6109415049
  0
ELLIPSE
  5
78B
100
AcDbEntity
  8
0
100
AcDbEllipse
 62
7
  6
CONTINUOUS
 10
120.3095769855
 20
132.4403682412
 30
0.0
 11
-0.0
 21
31.6596064302
 31
0.0
 40
0.4895828391
 41
1.505427201
 42
1.5135069217
  0
ELLIPSE
  5
78C
100
AcDbEntity
  8
0
100
AcDbEllipse
 62
7
  6
CONTINUOUS
 10
120.3095769855
 20
127.6024525187
 30
0.0
 11
15.0
 21
0.0
 31
0.0
 40
0.2042556244
 41
2.4529367222
 42
2.4752197454
  0
ELLIPSE
  5
78D
100
AcDbEntity
  8
0
100
AcDbEllipse
 62
7
  6
CONTINUOUS
 10
120.3095769855
 20
124.6818689087
 30
0.0
 11
15.0
 21
0.0
 31
0.0
 40
0.5106373301
 41
2.4348120689
 42
2.4529367222
  0
ELLIPSE
  5
78E
100
AcDbEntity
  8
0
100
AcDbEllipse
 62
7
  6
CONTINUOUS
 10
120.3095769855
 20
119.7077790915
 30
0.0
 11
-0.0
 21
15.3192068892
 31
0.0
 40
0.9791629624
 41
0.8456061856
 42
0.8640157421
  0
ELLIPSE
  5
78F
100
AcDbEntity
  8
0
100
AcDbEllipse
 62
7
  6
CONTINUOUS
 10
120.3095769855
 20
109.547120778
 30
0.0
 11
0.0
 21
30.6380658345
 31
0.0
 40
0.4895870412
 41
0.836288118
 42
0.8456061856
  0
ELLIPSE
  5
790
100
AcDbEntity
  8
0
100
AcDbEllipse
 62
7
  6
CONTINUOUS
 10
120.3095769855
 20
150.8817085481
 30
0.0
 11
0.0
 21
30.6380711989
 31
0.0
 40
0.4895869555
 41
-3.9871988391
 42
-3.9778807716
  0
ELLIPSE
  5
791
100
AcDbEntity
  8
0
100
AcDbEllipse
 62
7
  6
CONTINUOUS
 10
120.3095769855
 20
140.721045787
 30
0.0
 11
0.0
 21
15.3192055481
 31
0.0
 40
0.9791630482
 41
-4.0056083957
 42
-3.9871988391
  0
ELLIPSE
  5
792
100
AcDbEntity
  8
0
100
AcDbEllipse
 62
7
  6
CONTINUOUS
 10
120.3095769855
 20
135.7469561876
 30
0.0
 11
15.0
 21
0.0
 31
0.0
 40
0.510637263
 41
-2.4529367222
 42
-2.4348120689
  0
ELLIPSE
  5
793
100
AcDbEntity
  8
0
100
AcDbEllipse
 62
7
  6
CONTINUOUS
 10
120.3095769855
 20
132.8263730463
 30
0.0
 11
15.0
 21
-0.0
 31
0.0
 40
0.2042556065
 41
-2.4752197454
 42
-2.4529367222
  0
ELLIPSE
  5
794
100
AcDbEntity
  8
0
100
AcDbEllipse
 62
7
  6
CONTINUOUS
 10
120.3095769855
 20
133.9825686543
 30
0.0
 11
15.0
 21
0.0
 31
0.0
 40
0.3404254913
 41
-2.5143816109
 42
-2.5014553304
  0
ELLIPSE
  5
795
100
AcDbEntity
  8
0
100
AcDbEllipse
 62
7
  6
CONTINUOUS
 10
120.3095769855
 20
136.979447865
 30
0.0
 11
15.0
 21
-0.0
 31
0.0
 40
0.6808509827
 41
-2.5271878877
 42
-2.5143816109
  0
ELLIPSE
  5
796
100
AcDbEntity
  8
0
100
AcDbEllipse
 62
7
  6
CONTINUOUS
 10
120.3095769855
 20
157.5850598329
 30
0.0
 11
-0.0
 21
45.9570907052
 31
0.0
 40
0.3263914179
 41
-4.1022272678
 42
-4.0979842145
  0
ELLIPSE
  5
797
100
AcDbEntity
  8
0
100
AcDbEllipse
 62
7
  6
CONTINUOUS
 10
120.3095769855
 20
105.0245922605
 30
0.0
 11
0.0
 21
45.9571336202
 31
0.0
 40
0.3263911132
 41
0.9563915609
 42
0.9606346142
  0
ELLIPSE
  5
798
100
AcDbEntity
  8
0
100
AcDbEllipse
 62
7
  6
CONTINUOUS
 10
120.3095769855
 20
125.6302289677
 30
0.0
 11
15.0
 21
0.0
 31
0.0
 40
0.6808509827
 41
2.5248855338
 42
2.5271878877
  0
ELLIPSE
  5
799
100
AcDbEntity
  8
0
100
AcDbEllipse
 62
7
  6
CONTINUOUS
 10
120.3095769855
 20
133.3467536326
 30
0.0
 11
-0.0
 21
15.8297791846
 31
0.0
 40
0.9791671646
 41
1.5135069217
 42
1.5296556901
  0
ELLIPSE
  5
79A
100
AcDbEntity
  8
0
100
AcDbEllipse
 62
7
  6
CONTINUOUS
 10
120.3095769855
 20
133.6722853677
 30
0.0
 11
15.5
 21
0.0
 31
0.0
 40
0.5106380606
 41
3.1004520169
 42
3.1165900564
  0
ELLIPSE
  5
79B
100
AcDbEntity
  8
0
100
AcDbEllipse
 62
7
  6
CONTINUOUS
 10
120.3095769855
 20
138.4657395869
 30
0.0
 11
-0.0
 21
47.4895482857
 31
0.0
 40
0.3263876065
 41
1.8392790573
 42
1.8427657929
  0
ELLIPSE
  5
79C
100
AcDbEntity
  8
0
100
AcDbEllipse
 62
7
  6
CONTINUOUS
 10
120.3095769855
 20
128.5435614676
 30
0.0
 11
15.5
 21
0.0
 31
0.0
 40
0.6808509827
 41
-2.8696231875
 42
-2.8591423675
  0
ELLIPSE
  5
79D
100
AcDbEntity
  8
0
100
AcDbEllipse
 62
7
  6
CONTINUOUS
 10
120.3095769855
 20
126.4846677318
 30
0.0
 11
15.5
 21
-0.0
 31
0.0
 40
0.2042552105
 41
-2.8591423675
 42
-2.8416025361
  0
ELLIPSE
  5
79E
100
AcDbEntity
  8
0
100
AcDbEllipse
 62
7
  6
CONTINUOUS
 10
120.3095769855
 20
123.653916184
 30
0.0
 11
15.5
 21
-0.0
 31
0.0
 40
0.6808511019
 41
2.9559037189
 42
2.9661510051
  0
ELLIPSE
  5
79F
100
AcDbEntity
  8
0
100
AcDbEllipse
 62
7
  6
CONTINUOUS
 10
120.3095769855
 20
124.1144153929
 30
0.0
 11
15.5
 21
-0.0
 31
0.0
 40
0.5106373301
 41
2.9661510051
 42
2.9797853775
  0
ELLIPSE
  5
7A0
100
AcDbEntity
  8
0
100
AcDbEllipse
 62
7
  6
CONTINUOUS
 10
120.3095769855
 20
124.7519655292
 30
0.0
 11
15.5
 21
-0.0
 31
0.0
 40
0.2553193843
 41
2.9797853775
 42
2.9933894314
  0
ELLIPSE
  5
7A1
100
AcDbEntity
  8
0
100
AcDbEllipse
 62
7
  6
CONTINUOUS
 10
120.3095769855
 20
128.6271081783
 30
0.0
 11
15.5
 21
0.0
 31
0.0
 40
0.3404254913
 41
2.5252708157
 42
2.5375711183
  0
ELLIPSE
  5
7A2
100
AcDbEntity
  8
0
100
AcDbEllipse
 62
7
  6
CONTINUOUS
 10
120.3095769855
 20
125.6302289677
 30
0.0
 11
15.5
 21
0.0
 31
0.0
 40
0.6808509827
 41
2.5375711183
 42
2.5497678856
  0
ELLIPSE
  5
7A3
100
AcDbEntity
  8
0
100
AcDbEllipse
 62
7
  6
CONTINUOUS
 10
120.3095769855
 20
105.0245922605
 30
0.0
 11
0.0
 21
47.4890380742
 31
0.0
 40
0.3263911132
 41
0.9789715588
 42
0.9830149282
  0
ELLIPSE
  5
7A4
100
AcDbEntity
  8
0
100
AcDbEllipse
 62
7
  6
CONTINUOUS
 10
120.3095769855
 20
133.1782431628
 30
0.0
 11
15.0
 21
0.0
 31
0.0
 40
0.2042551568
 41
2.9137942532
 42
2.9351289463
  0
ELLIPSE
  5
7A5
100
AcDbEntity
  8
0
100
AcDbEllipse
 62
7
  6
CONTINUOUS
 10
120.3095769855
 20
132.1403685289
 30
0.0
 11
15.0
 21
-0.0
 31
0.0
 40
0.510638791
 41
2.8966507117
 42
2.9137942532
  0
ELLIPSE
  5
7A6
100
AcDbEntity
  8
0
100
AcDbEllipse
 62
7
  6
CONTINUOUS
 10
120.3095769855
 20
130.2829200891
 30
0.0
 11
-0.0
 21
15.3191630606
 31
0.0
 40
0.9791657639
 41
1.3086370538
 42
1.3258543849
  0
ELLIPSE
  5
7A7
100
AcDbEntity
  8
0
100
AcDbEllipse
 62
7
  6
CONTINUOUS
 10
120.3095769855
 20
126.3127259287
 30
0.0
 11
0.0
 21
30.6382411466
 31
0.0
 40
0.4895842398
 41
1.2999987843
 42
1.3086370538
  0
ELLIPSE
  5
7A8
100
AcDbEntity
  8
0
100
AcDbEllipse
 62
7
  6
CONTINUOUS
 10
120.3095769855
 20
114.0190180148
 30
0.0
 11
0.0
 21
76.5960277406
 31
0.0
 40
0.1958326096
 41
1.295671937
 42
1.2999987843
  0
ELLIPSE
  5
7A9
100
AcDbEntity
  8
0
100
AcDbEllipse
 62
7
  6
CONTINUOUS
 10
120.3095769855
 20
156.5936490947
 30
0.0
 11
0.0
 21
76.5960706561
 31
0.0
 40
0.1958324999
 41
-4.4415914379
 42
-4.4372645905
  0
ELLIPSE
  5
7AA
100
AcDbEntity
  8
0
100
AcDbEllipse
 62
7
  6
CONTINUOUS
 10
120.3095769855
 20
144.299928266
 30
0.0
 11
0.0
 21
30.6382357822
 31
0.0
 40
0.4895843255
 41
-4.4502297074
 42
-4.4415914379
  0
ELLIPSE
  5
7AB
100
AcDbEntity
  8
0
100
AcDbEllipse
 62
7
  6
CONTINUOUS
 10
120.3095769855
 20
140.3297351482
 30
0.0
 11
0.0
 21
15.3191617195
 31
0.0
 40
0.9791658496
 41
-4.4674470385
 42
-4.4502297074
  0
ELLIPSE
  5
7AC
100
AcDbEntity
  8
0
100
AcDbEllipse
 62
7
  6
CONTINUOUS
 10
120.3095769855
 20
138.4722867897
 30
0.0
 11
15.0
 21
0.0
 31
0.0
 40
0.510638724
 41
-2.9137942532
 42
-2.8966507117
  0
ELLIPSE
  5
7AD
100
AcDbEntity
  8
0
100
AcDbEllipse
 62
7
  6
CONTINUOUS
 10
120.3095769855
 20
137.4344123224
 30
0.0
 11
15.0
 21
0.0
 31
0.0
 40
0.204255139
 41
-2.9351289463
 42
-2.9137942532
  0
ELLIPSE
  5
7AE
100
AcDbEntity
  8
0
100
AcDbEllipse
 62
7
  6
CONTINUOUS
 10
120.3095769855
 20
157.5850598329
 30
0.0
 11
0.0
 21
47.4889937287
 31
0.0
 40
0.3263914179
 41
-4.1246075818
 42
-4.1205642124
  0
ELLIPSE
  5
7AF
100
AcDbEntity
  8
0
100
AcDbEllipse
 62
7
  6
CONTINUOUS
 10
120.3095769855
 20
136.979447865
 30
0.0
 11
15.5
 21
-0.0
 31
0.0
 40
0.6808509827
 41
-2.5497678856
 42
-2.5375711183
  0
ELLIPSE
  5
7B0
100
AcDbEntity
  8
0
100
AcDbEllipse
 62
7
  6
CONTINUOUS
 10
120.3095769855
 20
133.9825686543
 30
0.0
 11
15.5
 21
-0.0
 31
0.0
 40
0.3404254913
 41
-2.5375711183
 42
-2.5252708157
  0
ELLIPSE
  5
7B1
100
AcDbEntity
  8
0
100
AcDbEllipse
 62
7
  6
CONTINUOUS
 10
120.3095769855
 20
132.8263730463
 30
0.0
 11
15.5
 21
-0.0
 31
0.0
 40
0.2042556065
 41
-2.5003409613
 42
-2.4792066871
  0
ELLIPSE
  5
7B2
100
AcDbEntity
  8
0
100
AcDbEllipse
 62
7
  6
CONTINUOUS
 10
120.3095769855
 20
137.4344123224
 30
0.0
 11
15.5
 21
0.0
 31
0.0
 40
0.204255139
 41
-2.9418806195
 42
-2.9212659891
  0
ELLIPSE
  5
7B3
100
AcDbEntity
  8
0
100
AcDbEllipse
 62
7
  6
CONTINUOUS
 10
120.3095769855
 20
128.7877945205
 30
0.0
 11
0.0
 21
31.6593291525
 31
0.0
 40
0.4895871269
 41
-4.6217272099
 42
-4.6183525879
  0
ELLIPSE
  5
7B4
100
AcDbEntity
  8
0
100
AcDbEllipse
 62
7
  6
CONTINUOUS
 10
120.3095769855
 20
135.7469561876
 30
0.0
 11
15.5
 21
-0.0
 31
0.0
 40
0.510637263
 41
-2.4792066871
 42
-2.4620454392
  0
ELLIPSE
  5
7B5
100
AcDbEntity
  8
0
100
AcDbEllipse
 62
7
  6
CONTINUOUS
 10
120.3095769855
 20
127.3014403869
 30
0.0
 11
-0.0
 21
15.8298512763
 31
0.0
 40
0.9791627053
 41
1.6648327193
 42
1.6715851489
  0
ELLIPSE
  5
7B6
100
AcDbEntity
  8
0
100
AcDbEllipse
 62
7
  6
CONTINUOUS
 10
120.3095769855
 20
140.721045787
 30
0.0
 11
-0.0
 21
15.8298457331
 31
0.0
 40
0.9791630482
 41
-4.032841766
 42
-4.0154392816
  0
ELLIPSE
  5
7B7
100
AcDbEntity
  8
0
100
AcDbEllipse
 62
7
  6
CONTINUOUS
 10
120.3095769855
 20
150.8817085481
 30
0.0
 11
-0.0
 21
31.6593402388
 31
0.0
 40
0.4895869555
 41
-4.0154392816
 42
-4.0066425011
  0
ELLIPSE
  5
7B8
100
AcDbEntity
  8
0
100
AcDbEllipse
 62
7
  6
CONTINUOUS
 10
120.3095769855
 20
109.547120778
 30
0.0
 11
-0.0
 21
31.6593346956
 31
0.0
 40
0.4895870412
 41
0.8650498475
 42
0.873846628
  0
ELLIPSE
  5
7B9
100
AcDbEntity
  8
0
100
AcDbEllipse
 62
7
  6
CONTINUOUS
 10
120.3095769855
 20
119.7077790915
 30
0.0
 11
0.0
 21
15.8298471189
 31
0.0
 40
0.9791629624
 41
0.873846628
 42
0.8912491124
  0
ELLIPSE
  5
7BA
100
AcDbEntity
  8
0
100
AcDbEllipse
 62
7
  6
CONTINUOUS
 10
120.3095769855
 20
124.6818689087
 30
0.0
 11
15.5
 21
-0.0
 31
0.0
 40
0.5106373301
 41
2.4620454392
 42
2.4792066871
  0
ELLIPSE
  5
7BB
100
AcDbEntity
  8
0
100
AcDbEllipse
 62
7
  6
CONTINUOUS
 10
120.3095769855
 20
127.6024525187
 30
0.0
 11
15.5
 21
-0.0
 31
0.0
 40
0.2042556244
 41
2.4792066871
 42
2.5003409613
  0
ELLIPSE
  5
7BC
100
AcDbEntity
  8
0
100
AcDbEllipse
 62
7
  6
CONTINUOUS
 10
120.3095769855
 20
126.5050494519
 30
0.0
 11
15.5
 21
0.0
 31
0.0
 40
0.510637263
 41
-3.0408038315
 42
-3.0340467489
  0
ELLIPSE
  5
7BD
100
AcDbEntity
  8
0
100
AcDbEllipse
 62
7
  6
CONTINUOUS
 10
120.3095769855
 20
125.9953061929
 30
0.0
 11
15.5
 21
0.0
 31
0.0
 40
0.204255139
 41
3.2491385582
 42
3.2660535296
  0
ELLIPSE
  5
7BE
100
AcDbEntity
  8
0
100
AcDbEllipse
 62
7
  6
CONTINUOUS
 10
120.3095769855
 20
138.4722867897
 30
0.0
 11
15.5
 21
0.0
 31
0.0
 40
0.510638724
 41
-2.9212659891
 42
-2.9047059469
  0
ELLIPSE
  5
7BF
100
AcDbEntity
  8
0
100
AcDbEllipse
 62
7
  6
CONTINUOUS
 10
120.3095769855
 20
140.3297351482
 30
0.0
 11
-0.0
 21
15.8298004435
 31
0.0
 40
0.9791658496
 41
1.8076830335
 42
1.8243095554
  0
ELLIPSE
  5
7C0
100
AcDbEntity
  8
0
100
AcDbEllipse
 62
7
  6
CONTINUOUS
 10
120.3095769855
 20
156.0425104031
 30
0.0
 11
-0.0
 21
47.4889937287
 31
0.0
 40
0.3263914179
 41
-4.136673015
 42
-4.1326617862
  0
ELLIPSE
  5
7C1
100
AcDbEntity
  8
0
100
AcDbEllipse
 62
7
  6
CONTINUOUS
 10
120.3095769855
 20
138.699733433
 30
0.0
 11
0.0
 21
15.8297890425
 31
0.0
 40
0.9791665548
 41
-4.1326617862
 42
-4.1205642124
  0
ELLIPSE
  5
7C2
100
AcDbEntity
  8
0
100
AcDbEllipse
 62
7
  6
CONTINUOUS
 10
120.3095769855
 20
132.0764424062
 30
0.0
 11
15.5
 21
-0.0
 31
0.0
 40
0.2553200925
 41
-2.5497678856
 42
-2.5334828052
  0
ELLIPSE
  5
7C3
100
AcDbEntity
  8
0
100
AcDbEllipse
 62
7
  6
CONTINUOUS
 10
120.3095769855
 20
144.299928266
 30
0.0
 11
-0.0
 21
31.6595103082
 31
0.0
 40
0.4895843255
 41
-4.4588757518
 42
-4.4505358379
  0
ELLIPSE
  5
7C4
100
AcDbEntity
  8
0
100
AcDbEllipse
 62
7
  6
CONTINUOUS
 10
120.3095769855
 20
156.5936490947
 30
0.0
 11
-0.0
 21
79.1492730113
 31
0.0
 40
0.1958324999
 41
-4.4505358379
 42
-4.446358943
  0
ELLIPSE
  5
7C5
100
AcDbEntity
  8
0
100
AcDbEllipse
 62
7
  6
CONTINUOUS
 10
120.3095769855
 20
127.1667111366
 30
0.0
 11
15.5
 21
0.0
 31
0.0
 40
0.204255139
 41
3.0137446565
 42
3.0306663971
  0
ELLIPSE
  5
7C6
100
AcDbEntity
  8
0
100
AcDbEllipse
 62
7
  6
CONTINUOUS
 10
120.3095769855
 20
126.3489521962
 30
0.0
 11
15.5
 21
-0.0
 31
0.0
 40
0.6808509827
 41
3.0306663971
 42
3.0408038315
  0
ELLIPSE
  5
7C7
100
AcDbEntity
  8
0
100
AcDbEllipse
 62
7
  6
CONTINUOUS
 10
120.3095769855
 20
125.021638445
 30
0.0
 11
0.0
 21
23.7447685996
 31
0.0
 40
0.6527753654
 41
1.4700075047
 42
1.4767599343
  0
ELLIPSE
  5
7C8
100
AcDbEntity
  8
0
100
AcDbEllipse
 62
7
  6
CONTINUOUS
 10
120.3095769855
 20
128.1474525226
 30
0.0
 11
15.5
 21
-0.0
 31
0.0
 40
0.1458967187
 41
3.279611069
 42
3.3033999297
  0
ELLIPSE
  5
7C9
100
AcDbEntity
  8
0
100
AcDbEllipse
 62
7
  6
CONTINUOUS
 10
120.3095769855
 20
129.0582399845
 30
0.0
 11
15.5
 21
0.0
 31
0.0
 40
0.510637263
 41
-2.9797853775
 42
-2.9661510051
  0
ELLIPSE
  5
7CA
100
AcDbEntity
  8
0
100
AcDbEllipse
 62
7
  6
CONTINUOUS
 10
120.3095769855
 20
130.439734553
 30
0.0
 11
-0.0
 21
15.8298004435
 31
0.0
 40
0.9791658496
 41
1.7462379753
 42
1.7599053437
  0
ELLIPSE
  5
7CB
100
AcDbEntity
  8
0
100
AcDbEllipse
 62
7
  6
CONTINUOUS
 10
120.3095769855
 20
139.3670100999
 30
0.0
 11
-0.0
 21
63.3193829322
 31
0.0
 40
0.244790762
 41
-4.5232799635
 42
-4.519857641
  0
ELLIPSE
  5
7CC
100
AcDbEntity
  8
0
100
AcDbEllipse
 62
7
  6
CONTINUOUS
 10
120.3095769855
 20
115.0290496989
 30
0.0
 11
-0.0
 21
63.3193829322
 31
0.0
 40
0.244790762
 41
1.3782649875
 42
1.3816873099
  0
ELLIPSE
  5
7CD
100
AcDbEntity
  8
0
100
AcDbEllipse
 62
7
  6
CONTINUOUS
 10
120.3095769855
 20
133.8795644618
 30
0.0
 11
15.5
 21
-0.0
 31
0.0
 40
0.2042556065
 41
-2.5045276683
 42
-2.4834610559
  0
ELLIPSE
  5
7CE
100
AcDbEntity
  8
0
100
AcDbEllipse
 62
7
  6
CONTINUOUS
 10
120.3095769855
 20
139.2047170114
 30
0.0
 11
15.5
 21
-0.0
 31
0.0
 40
0.7659558946
 41
-2.4834610559
 42
-2.4663578079
  0
ELLIPSE
  5
7CF
100
AcDbEntity
  8
0
100
AcDbEllipse
 62
7
  6
CONTINUOUS
 10
120.3095769855
 20
144.9767517546
 30
0.0
 11
-0.0
 21
21.1063804626
 31
0.0
 40
0.7343750875
 41
-4.0371541347
 42
-4.0241716556
  0
ELLIPSE
  5
7D0
100
AcDbEntity
  8
0
100
AcDbEllipse
 62
7
  6
CONTINUOUS
 10
120.3095769855
 20
122.4684644342
 30
0.0
 11
0.0
 21
23.7446327312
 31
0.0
 40
0.6527791007
 41
1.3816873099
 42
1.3885253175
  0
ELLIPSE
  5
7D1
100
AcDbEntity
  8
0
100
AcDbEllipse
 62
7
  6
CONTINUOUS
 10
120.3095769855
 20
161.7339664388
 30
0.0
 11
0.0
 21
47.4889937287
 31
0.0
 40
0.3263914179
 41
-4.0241716556
 42
-4.019813327
  0
ELLIPSE
  5
7D2
100
AcDbEntity
  8
0
100
AcDbEllipse
 62
7
  6
CONTINUOUS
 10
120.3095769855
 20
90.9796094829
 30
0.0
 11
0.0
 21
79.1483228811
 31
0.0
 40
0.1958348508
 41
1.0502058264
 42
1.0540749065
  0
ELLIPSE
  5
7D3
100
AcDbEntity
  8
0
100
AcDbEllipse
 62
7
  6
CONTINUOUS
 10
120.3095769855
 20
114.4405225547
 30
0.0
 11
-0.0
 21
31.6596970094
 31
0.0
 40
0.4895814384
 41
1.0540749065
 42
1.061787629
  0
ELLIPSE
  5
7D4
100
AcDbEntity
  8
0
100
AcDbEllipse
 62
7
  6
CONTINUOUS
 10
120.3095769855
 20
122.1546401871
 30
0.0
 11
-0.0
 21
15.8297565399
 31
0.0
 40
0.9791685653
 41
1.061787629
 42
1.0771148634
  0
ELLIPSE
  5
7D5
100
AcDbEntity
  8
0
100
AcDbEllipse
 62
7
  6
CONTINUOUS
 10
120.3095769855
 20
125.9052710483
 30
0.0
 11
15.5
 21
-0.0
 31
0.0
 40
0.5106373301
 41
2.6479111902
 42
2.6631130236
  0
ELLIPSE
  5
7D6
100
AcDbEntity
  8
0
100
AcDbEllipse
 62
7
  6
CONTINUOUS
 10
120.3095769855
 20
128.0918150332
 30
0.0
 11
15.5
 21
0.0
 31
0.0
 40
0.2042556244
 41
2.6631130236
 42
2.6819487115
  0
ELLIPSE
  5
7D7
100
AcDbEntity
  8
0
100
AcDbEllipse
 62
7
  6
CONTINUOUS
 10
120.3095769855
 20
130.439734553
 30
0.0
 11
-0.0
 21
15.3191617195
 31
0.0
 40
0.9791658496
 41
-4.5310353961
 42
-4.5168961515
  0
ELLIPSE
  5
7D8
100
AcDbEntity
  8
0
100
AcDbEllipse
 62
7
  6
CONTINUOUS
 10
120.3095769855
 20
129.0582399845
 30
0.0
 11
15.0
 21
-0.0
 31
0.0
 40
0.510637263
 41
-2.9743417872
 42
-2.9602390693
  0
ELLIPSE
  5
7D9
100
AcDbEntity
  8
0
100
AcDbEllipse
 62
7
  6
CONTINUOUS
 10
120.3095769855
 20
128.1474525226
 30
0.0
 11
15.0
 21
0.0
 31
0.0
 40
0.1458967187
 41
-2.9989426812
 42
-2.9743417872
  0
ELLIPSE
  5
7DA
100
AcDbEntity
  8
0
100
AcDbEllipse
 62
7
  6
CONTINUOUS
 10
120.3095769855
 20
124.6204750405
 30
0.0
 11
15.5
 21
0.0
 31
0.0
 40
0.765958086
 41
2.9593216443
 42
2.9729721472
  0
ELLIPSE
  5
7DB
100
AcDbEntity
  8
0
100
AcDbEllipse
 62
7
  6
CONTINUOUS
 10
120.3095769855
 20
127.6755608721
 30
0.0
 11
15.5
 21
0.0
 31
0.0
 40
0.4085102779
 41
3.31021316
 42
3.3272815883
  0
ELLIPSE
  5
7DC
100
AcDbEntity
  8
0
100
AcDbEllipse
 62
7
  6
CONTINUOUS
 10
120.3095769855
 20
130.8903868376
 30
0.0
 11
0.0
 21
23.7447685996
 31
0.0
 40
0.6527753654
 41
-4.5267000457
 42
-4.519857641
  0
ELLIPSE
  5
7DD
100
AcDbEntity
  8
0
100
AcDbEllipse
 62
7
  6
CONTINUOUS
 10
120.3095769855
 20
155.4592627412
 30
0.0
 11
-0.0
 21
63.3201075761
 31
0.0
 40
0.2447879606
 41
-4.304594048
 42
-4.3009308223
  0
ELLIPSE
  5
7DE
100
AcDbEntity
  8
0
100
AcDbEllipse
 62
7
  6
CONTINUOUS
 10
120.3095769855
 20
139.631147192
 30
0.0
 11
-0.0
 21
23.7444968643
 31
0.0
 40
0.6527828359
 41
-4.3009308223
 42
-4.2935865293
  0
ELLIPSE
  5
7DF
100
AcDbEntity
  8
0
100
AcDbEllipse
 62
7
  6
CONTINUOUS
 10
120.3095769855
 20
134.2666836593
 30
0.0
 11
15.5
 21
-0.0
 31
0.0
 40
0.6808512211
 41
-2.7227902025
 42
-2.7117284795
  0
ELLIPSE
  5
7E0
100
AcDbEntity
  8
0
100
AcDbEllipse
 62
7
  6
CONTINUOUS
 10
120.3095769855
 20
131.5179297039
 30
0.0
 11
15.5
 21
-0.0
 31
0.0
 40
0.2553200925
 41
-2.7117284795
 42
-2.6968914698
  0
ELLIPSE
  5
7E1
100
AcDbEntity
  8
0
100
AcDbEllipse
 62
7
  6
CONTINUOUS
 10
120.3095769855
 20
138.462620329
 30
0.0
 11
0.0
 21
63.3186804777
 31
0.0
 40
0.2447934777
 41
-4.519857641
 42
-4.5164329946
  0
ELLIPSE
  5
7E2
100
AcDbEntity
  8
0
100
AcDbEllipse
 62
7
  6
CONTINUOUS
 10
120.3095769855
 20
116.6751200578
 30
0.0
 11
0.0
 21
47.4890048151
 31
0.0
 40
0.3263913418
 41
1.374840341
 42
1.3782649875
  0
ELLIPSE
  5
7E3
100
AcDbEntity
  8
0
100
AcDbEllipse
 62
7
  6
CONTINUOUS
 10
120.3095769855
 20
121.2184389304
 30
0.0
 11
-0.0
 21
23.7447685996
 31
0.0
 40
0.6527753654
 41
1.3782649875
 42
1.3851073921
  0
ELLIPSE
  5
7E4
100
AcDbEntity
  8
0
100
AcDbEllipse
 62
7
  6
CONTINUOUS
 10
120.3095769855
 20
114.0190180148
 30
0.0
 11
-0.0
 21
79.1492286653
 31
0.0
 40
0.1958326096
 41
1.3047662894
 42
1.3089431843
  0
ELLIPSE
  5
7E5
100
AcDbEntity
  8
0
100
AcDbEllipse
 62
7
  6
CONTINUOUS
 10
120.3095769855
 20
139.631147192
 30
0.0
 11
-0.0
 21
22.9785453526
 31
0.0
 40
0.6527828359
 41
-4.2863383145
 42
-4.2856100889
  0
ELLIPSE
  5
7E6
100
AcDbEntity
  8
0
100
AcDbEllipse
 62
7
  6
CONTINUOUS
 10
120.3095769855
 20
155.4592627412
 30
0.0
 11
-0.0
 21
61.2775234607
 31
0.0
 40
0.2447879606
 41
1.9930372416
 42
1.9968469927
  0
ELLIPSE
  5
7E7
100
AcDbEntity
  8
0
100
AcDbEllipse
 62
7
  6
CONTINUOUS
 10
120.3095769855
 20
126.3127259287
 30
0.0
 11
-0.0
 21
31.6595158515
 31
0.0
 40
0.4895842398
 41
1.3089431843
 42
1.3172830982
  0
ELLIPSE
  5
7E8
100
AcDbEntity
  8
0
100
AcDbEllipse
 62
7
  6
CONTINUOUS
 10
120.3095769855
 20
121.6202317213
 30
0.0
 11
-0.0
 21
47.4889937287
 31
0.0
 40
0.3263914179
 41
1.3677096295
 42
1.3711391723
  0
ELLIPSE
  5
7E9
100
AcDbEntity
  8
0
100
AcDbEllipse
 62
7
  6
CONTINUOUS
 10
120.3095769855
 20
126.4846677318
 30
0.0
 11
15.0
 21
0.0
 31
0.0
 40
0.2042552105
 41
-2.8494549621
 42
-2.8312750093
  0
ELLIPSE
  5
7EA
100
AcDbEntity
  8
0
100
AcDbEllipse
 62
7
  6
CONTINUOUS
 10
120.3095769855
 20
128.5435614676
 30
0.0
 11
15.0
 21
0.0
 31
0.0
 40
0.6808509827
 41
-2.8603149847
 42
-2.8494549621
  0
ELLIPSE
  5
7EB
100
AcDbEntity
  8
0
100
AcDbEllipse
 62
7
  6
CONTINUOUS
 10
120.3095769855
 20
138.4657395869
 30
0.0
 11
0.0
 21
45.9576273732
 31
0.0
 40
0.3263876065
 41
-4.4347236772
 42
-4.4311113115
  0
ELLIPSE
  5
7EC
100
AcDbEntity
  8
0
100
AcDbEllipse
 62
7
  6
CONTINUOUS
 10
120.3095769855
 20
126.8527826761
 30
0.0
 11
0.0
 21
21.1063804626
 31
0.0
 40
0.7343750875
 41
1.3711391723
 42
1.3814136322
  0
ELLIPSE
  5
7ED
100
AcDbEntity
  8
0
100
AcDbEllipse
 62
7
  6
CONTINUOUS
 10
120.3095769855
 20
128.5911070396
 30
0.0
 11
15.5
 21
0.0
 31
0.0
 40
0.7659602774
 41
2.952209959
 42
2.9658779775
  0
ELLIPSE
  5
7EE
100
AcDbEntity
  8
0
100
AcDbEllipse
 62
7
  6
CONTINUOUS
 10
120.3095769855
 20
130.1130954109
 30
0.0
 11
15.5
 21
0.0
 31
0.0
 40
0.2042546715
 41
2.9658779775
 42
2.9829169082
  0
ELLIPSE
  5
7EF
100
AcDbEntity
  8
0
100
AcDbEllipse
 62
7
  6
CONTINUOUS
 10
120.3095769855
 20
130.2829200891
 30
0.0
 11
0.0
 21
15.8298018293
 31
0.0
 40
0.9791657639
 41
1.3172830982
 42
1.3339096201
  0
ELLIPSE
  5
7F0
100
AcDbEntity
  8
0
100
AcDbEllipse
 62
7
  6
CONTINUOUS
 10
120.3095769855
 20
128.1480261749
 30
0.0
 11
0.0
 21
39.5743878853
 31
0.0
 40
0.3916674604
 41
1.6109415049
 42
1.6176683265
  0
ELLIPSE
  5
7F1
100
AcDbEntity
  8
0
100
AcDbEllipse
 62
7
  6
CONTINUOUS
 10
120.3095769855
 20
132.4965814218
 30
0.0
 11
15.5
 21
-0.0
 31
0.0
 40
0.2042546715
 41
-2.9829169082
 42
-2.9658779775
  0
ELLIPSE
  5
7F2
100
AcDbEntity
  8
0
100
AcDbEllipse
 62
7
  6
CONTINUOUS
 10
120.3095769855
 20
134.0185697931
 30
0.0
 11
15.5
 21
0.0
 31
0.0
 40
0.7659602774
 41
-2.9658779775
 42
-2.952209959
  0
ELLIPSE
  5
7F3
100
AcDbEntity
  8
0
100
AcDbEllipse
 62
7
  6
CONTINUOUS
 10
120.3095769855
 20
135.7568941566
 30
0.0
 11
0.0
 21
21.1063804626
 31
0.0
 40
0.7343750875
 41
1.7601790214
 42
1.7704534813
  0
ELLIPSE
  5
7F4
100
AcDbEntity
  8
0
100
AcDbEllipse
 62
7
  6
CONTINUOUS
 10
120.3095769855
 20
140.9894451114
 30
0.0
 11
-0.0
 21
47.4889937287
 31
0.0
 40
0.3263914179
 41
-4.5127318259
 42
-4.5093022831
  0
ELLIPSE
  5
7F5
100
AcDbEntity
  8
0
100
AcDbEllipse
 62
7
  6
CONTINUOUS
 10
120.3095769855
 20
124.1735653028
 30
0.0
 11
0.0
 21
39.5743934285
 31
0.0
 40
0.3916674055
 41
1.5239243271
 42
1.5306511486
  0
ELLIPSE
  5
7F6
100
AcDbEntity
  8
0
100
AcDbEllipse
 62
7
  6
CONTINUOUS
 10
120.3095769855
 20
124.9147661546
 30
0.0
 11
-0.0
 21
21.1064225677
 31
0.0
 40
0.7343736225
 41
1.5306511486
 42
1.5407380309
  0
ENDSEC
  0
SECTION
  2
OBJECTS
  0
DICTIONARY
  5
C
100
AcDbDictionary
280
0
281
1
  3
ACAD_GROUP
350
D
  3
ACAD_MLINESTYLE
350
17
  3
ACAD_LAYOUT
350
1A
  3
ACAD_PLOTSETTINGS
350
19
  3
ACAD_PLOTSTYLENAME
350
E
  0
DICTIONARY
  5
D
102
{ACAD_REACTORS
330
C
102
}
100
AcDbDictionary
280
0
281
1
  0
ACDBDICTIONARYWDFLT
  5
E
102
{ACAD_REACTORS
330
C
102
}
100
AcDbDictionary
281
1
  3
Normal
350
F
100
AcDbDictionaryWithDefault
340
F
  0
DICTIONARY
  5
17
102
{ACAD_REACTORS
330
C
102
}
100
AcDbDictionary
280
0
281
1
  3
Standard
350
18
  0
DICTIONARY
  5
19
102
{ACAD_REACTORS
330
C
102
}
100
AcDbDictionary
281
1
  0
DICTIONARY
  5
1A
102
{ACAD_REACTORS
330
C
102
}
100
AcDbDictionary
281
1
  3
Model
350
7F7
  3
Layout1
350
7F8
  0
ACDBPLACEHOLDER
  5
F
102
{ACAD_REACTORS
330
E
102
}
  0
MLINESTYLE
  5
18
102
{ACAD_REACTORS
330
17
102
}
100
AcDbMlineStyle
  2
STANDARD
 70
0
  3

 62
256
 51
90.0
 52
90.0
 71
2
 49
0.5
 62
256
  6
BYLAYER
 49
-0.5
 62
256
  6
BYLAYER
  0
LAYOUT
  5
7F7
102
{ACAD_REACTORS
330
1A
102
}
100
AcDbPlotSettings
  1

  2
none_device
  4
ISO_A4_(297.00_x_210.00_MM)
  6

 40
0.0
 41
0.0
 42
0.0
 43
0.0
 44
297.0
 45
210.0
 46
0.0
 47
0.0
 48
0.0
 49
0.0
140
0.0
141
0.0
142
1.0
143
1.0
 70
1024
 72
1
 73
0
 74
0
  7

 75
0
147
1.0
148
0.0
149
0.0
100
AcDbLayout
  1
Model
 70
0
 71
0
 10
0.0
 20
0.0
 11
297.0
 21
210.0
 12
0.0
 22
0.0
 32
0.0
 14
0.0
 24
0.0
 34
0.0
 15
0.0
 25
0.0
 35
0.0
146
0.0
 13
0.0
 23
0.0
 33
0.0
 16
1.0
 26
0.0
 36
0.0
 17
0.0
 27
1.0
 37
0.0
 76
0
330
20F
345
0
346
0
  0
LAYOUT
  5
7F8
102
{ACAD_REACTORS
330
1A
102
}
100
AcDbPlotSettings
  1

  2
none_device
  4
ISO_A4_(297.00_x_210.00_MM)
  6

 40
0.0
 41
0.0
 42
0.0
 43
0.0
 44
297.0
 45
210.0
 46
0.0
 47
0.0
 48
0.0
 49
0.0
140
0.0
141
0.0
142
1.0
143
1.0
 70
0
 72
1
 73
0
 74
0
  7

 75
0
147
1.0
148
0.0
149
0.0
100
AcDbLayout
  1
Layout1
 70
0
 71
1
 10
0.0
 20
0.0
 11
297.0
 21
210.0
 12
0.0
 22
0.0
 32
0.0
 14
0.0
 24
0.0
 34
0.0
 15
0.0
 25
0.0
 35
0.0
146
0.0
 13
0.0
 23
0.0
 33
0.0
 16
1.0
 26
0.0
 36
0.0
 17
0.0
 27
1.0
 37
0.0
 76
0
330
210
345
0
346
0
  0
ENDSEC
  0
EOF
