999
DXF file: VLBG-PLUS-M48-20t-7982967-M34393-P-20.dxf
999
Pro/ENGINEER 2011490 by Parametric Technology Corporation
  0
SECTION
  2
HEADER
  9
$ACADVER
  1
AC1015
  9
$DWGCODEPAGE
  3
ANSI_1252
  9
$EXTMAX
 10
841.0
 20
594.0
 30
0.0
  9
$EXTMIN
 10
0.0
 20
0.0
 30
0.0
  9
$LIMMIN
 10
0.0
 20
0.0
  9
$LIMMAX
 10
841.0
 20
594.0
  9
$VIEWCTR
 10
420.5
 20
297.0
  9
$VIEWSIZE
 40
594.0
  9
$CLAYER
  8
0
  9
$LTSCALE
 40
46.255
  9
$CELTYPE
  6
BYLAYER
  9
$DIMSCALE
 40
1.0
  9
$DIMASZ
 40
3.5
  9
$DIMEXO
 40
5.25625
  9
$DIMDLI
 40
31.958
  9
$DIMEXE
 40
15.138
  9
$DIMCEN
 40
7.569
  9
$DIMLFAC
 40
1.0
  9
$DIMBLK
  1
_FILLED
  9
$DIMTXT
 40
3.5
  9
$DIMTOL
 70
1
  9
$DIMLIM
 70
0
  9
$DIMTFAC
 40
1.0
  9
$DIMTP
 40
0.005
  9
$DIMTM
 40
0.005
  9
$PDMODE
 70
3
  9
$PDSIZE
 40
0.3125
  9
$HANDSEED
  5
8C7
  9
$TILEMODE
 70
1
  9
$MEASUREMENT
 70
1
  9
$INSUNITS
 70
4
  0
ENDSEC
  0
SECTION
  2
CLASSES
  0
CLASS
  1
ACDBDICTIONARYWDFLT
  2
AcDbDictionaryWithDefault
  3
AutoCAD 2000
 90
0
280
0
281
0
  0
CLASS
  1
ACDBPLACEHOLDER
  2
AcDbPlaceHolder
  3
AutoCAD 2000
 90
0
280
0
281
0
  0
CLASS
  1
LAYOUT
  2
AcDbLayout
  3
AutoCAD 2000
 90
0
280
0
281
0
  0
ENDSEC
  0
SECTION
  2
TABLES
  0
TABLE
  2
VPORT
  5
8
100
AcDbSymbolTable
 70
2
  0
VPORT
  5
1F4
100
AcDbSymbolTableRecord
100
AcDbViewportTableRecord
  2
*ACTIVE
 70
0
 10
0.0
 20
0.0
 11
1.0
 21
1.0
 12
420.5
 22
297.0
 13
0.0
 23
0.0
 14
1.0
 24
1.0
 15
0.0
 25
0.0
 16
0.0
 26
0.0
 36
1.0
 17
0.0
 27
0.0
 37
0.0
 40
594.0
 41
1.4158249158
 42
50.0
 43
0.0
 44
0.0
 50
0.0
 51
0.0
 71
0
 72
100
 73
1
 74
1
 75
0
 76
0
 77
0
 78
0
  0
ENDTAB
  0
TABLE
  2
LTYPE
  5
5
100
AcDbSymbolTable
 70
6
  0
LTYPE
  5
14
100
AcDbSymbolTableRecord
100
AcDbLinetypeTableRecord
  2
BYBLOCK
 70
0
  3

 72
65
 73
0
 40
0.0
  0
LTYPE
  5
15
100
AcDbSymbolTableRecord
100
AcDbLinetypeTableRecord
  2
BYLAYER
 70
0
  3

 72
65
 73
0
 40
0.0
  0
LTYPE
  5
16
100
AcDbSymbolTableRecord
100
AcDbLinetypeTableRecord
  2
CONTINUOUS
 70
64
  3
Solid line
 72
65
 73
0
 40
0.0
  0
LTYPE
  5
1F5
100
AcDbSymbolTableRecord
100
AcDbLinetypeTableRecord
  2
CENTER
 70
64
  3
____ _ ____ _ ____ _ ____ _ ____ _ ____ _ ____
 72
65
 73
4
 40
0.6
 49
0.375
 74
0
 49
-0.075
 74
0
 49
0.075
 74
0
 49
-0.075
 74
0
  0
LTYPE
  5
1F6
100
AcDbSymbolTableRecord
100
AcDbLinetypeTableRecord
  2
HIDDEN
 70
64
  3
- - - - - - - - - - - - - - - - - - - -
 72
65
 73
2
 40
0.2
 49
0.1
 74
0
 49
-0.1
 74
0
  0
LTYPE
  5
1F7
100
AcDbSymbolTableRecord
100
AcDbLinetypeTableRecord
  2
PHANTOM
 70
64
  3
_____ _ _ _____ _ _ _____ _ _ _____
 72
65
 73
6
 40
0.8
 49
0.45
 74
0
 49
-0.05
 74
0
 49
0.1
 74
0
 49
-0.05
 74
0
 49
0.1
 74
0
 49
-0.05
 74
0
  0
LTYPE
  5
1F8
100
AcDbSymbolTableRecord
100
AcDbLinetypeTableRecord
  2
DOT
 70
64
  3
. . . . . . . . . . . . . . . . . . . .
 72
65
 73
2
 40
0.2
 49
0.1
 74
0
 49
-0.1
 74
0
  0
LTYPE
  5
1F9
100
AcDbSymbolTableRecord
100
AcDbLinetypeTableRecord
  2
DASHED
 70
64
  3
- - - - - - - - - - - - - - - - - - - -
 72
65
 73
2
 40
0.2
 49
0.1
 74
0
 49
-0.1
 74
0
  0
ENDTAB
  0
TABLE
  2
LAYER
  5
2
100
AcDbSymbolTable
 70
36
  0
LAYER
  5
10
100
AcDbSymbolTableRecord
100
AcDbLayerTableRecord
  2
0
 70
0
 62
7
  6
CONTINUOUS
370
-3
390
F
  0
LAYER
  5
1FA
100
AcDbSymbolTableRecord
100
AcDbLayerTableRecord
  2
DEFAULT_1
 70
0
 62
7
  6
CENTER
370
-3
390
F
  0
LAYER
  5
1FB
100
AcDbSymbolTableRecord
100
AcDbLayerTableRecord
  2
DEFAULT_2
 70
0
 62
8
  6
HIDDEN
370
-3
390
F
  0
LAYER
  5
1FC
100
AcDbSymbolTableRecord
100
AcDbLayerTableRecord
  2
DEFAULT_3
 70
0
 62
7
  6
PHANTOM
370
-3
390
F
  0
LAYER
  5
1FD
100
AcDbSymbolTableRecord
100
AcDbLayerTableRecord
  2
AUSFORMSCHRAEGEN
 70
0
 62
7
  6
CONTINUOUS
370
-3
390
F
  0
LAYER
  5
1FE
100
AcDbSymbolTableRecord
100
AcDbLayerTableRecord
  2
BEZUGSACHSEN
 70
0
 62
7
  6
CONTINUOUS
370
-3
390
F
  0
LAYER
  5
1FF
100
AcDbSymbolTableRecord
100
AcDbLayerTableRecord
  2
BEZUGSEBENEN
 70
0
 62
7
  6
CONTINUOUS
370
-3
390
F
  0
LAYER
  5
200
100
AcDbSymbolTableRecord
100
AcDbLayerTableRecord
  2
BG_STARTBEZUEGE
 70
0
 62
7
  6
CONTINUOUS
370
-3
390
F
  0
LAYER
  5
201
100
AcDbSymbolTableRecord
100
AcDbLayerTableRecord
  2
BOHRUNGEN
 70
0
 62
7
  6
CONTINUOUS
370
-3
390
F
  0
LAYER
  5
202
100
AcDbSymbolTableRecord
100
AcDbLayerTableRecord
  2
FASEN
 70
0
 62
7
  6
CONTINUOUS
370
-3
390
F
  0
LAYER
  5
203
100
AcDbSymbolTableRecord
100
AcDbLayerTableRecord
  2
FLAECHEN
 70
0
 62
7
  6
CONTINUOUS
370
-3
390
F
  0
LAYER
  5
204
100
AcDbSymbolTableRecord
100
AcDbLayerTableRecord
  2
GEWINDE
 70
0
 62
7
  6
CONTINUOUS
370
-3
390
F
  0
LAYER
  5
205
100
AcDbSymbolTableRecord
100
AcDbLayerTableRecord
  2
HILFEN
 70
0
 62
7
  6
CONTINUOUS
370
-3
390
F
  0
LAYER
  5
206
100
AcDbSymbolTableRecord
100
AcDbLayerTableRecord
  2
KONSTRUKTIONSELEMENTE
 70
0
 62
7
  6
CONTINUOUS
370
-3
390
F
  0
LAYER
  5
207
100
AcDbSymbolTableRecord
100
AcDbLayerTableRecord
  2
KURVEN
 70
0
 62
7
  6
CONTINUOUS
370
-3
390
F
  0
LAYER
  5
208
100
AcDbSymbolTableRecord
100
AcDbLayerTableRecord
  2
NORM
 70
0
 62
7
  6
CONTINUOUS
370
-3
390
F
  0
LAYER
  5
209
100
AcDbSymbolTableRecord
100
AcDbLayerTableRecord
  2
PLATZIERUNG
 70
0
 62
7
  6
CONTINUOUS
370
-3
390
F
  0
LAYER
  5
20A
100
AcDbSymbolTableRecord
100
AcDbLayerTableRecord
  2
PLAZIERUNG
 70
0
 62
7
  6
CONTINUOUS
370
-3
390
F
  0
LAYER
  5
20B
100
AcDbSymbolTableRecord
100
AcDbLayerTableRecord
  2
RUNDUNGEN
 70
0
 62
7
  6
CONTINUOUS
370
-3
390
F
  0
LAYER
  5
20C
100
AcDbSymbolTableRecord
100
AcDbLayerTableRecord
  2
TEIL_STARTBEZUEGE
 70
0
 62
7
  6
CONTINUOUS
370
-3
390
F
  0
LAYER
  5
20D
100
AcDbSymbolTableRecord
100
AcDbLayerTableRecord
  2
T_STARTBEZUEGE
 70
0
 62
7
  6
CONTINUOUS
370
-3
390
F
  0
LAYER
  5
20E
100
AcDbSymbolTableRecord
100
AcDbLayerTableRecord
  2
XSEC_DATUMS
 70
0
 62
7
  6
CONTINUOUS
370
-3
390
F
  0
LAYER
  5
20F
100
AcDbSymbolTableRecord
100
AcDbLayerTableRecord
  2
ZEICHNUNGSBEMASSUNGEN
 70
0
 62
7
  6
CONTINUOUS
370
-3
390
F
  0
ENDTAB
  0
TABLE
  2
STYLE
  5
3
100
AcDbSymbolTable
 70
1
  0
STYLE
  5
11
100
AcDbSymbolTableRecord
100
AcDbTextStyleTableRecord
  2
STANDARD
 70
0
 40
0.0
 41
0.7
 50
0.0
 71
0
 42
0.2
  3
txt
  4

  0
STYLE
  5
210
100
AcDbSymbolTableRecord
100
AcDbTextStyleTableRecord
  2
TEXTSTYLE_1
 70
0
 40
0.0
 41
0.8
 50
0.0
 71
0
 42
0.2
  3
gdt
  4

  0
ENDTAB
  0
TABLE
  2
VIEW
  5
6
100
AcDbSymbolTable
 70
0
  0
ENDTAB
  0
TABLE
  2
UCS
  5
7
100
AcDbSymbolTable
 70
0
  0
ENDTAB
  0
TABLE
  2
APPID
  5
9
100
AcDbSymbolTable
 70
1
  0
APPID
  5
211
100
AcDbSymbolTableRecord
100
AcDbRegAppTableRecord
  2
ACAD
 70
0
  0
ENDTAB
  0
TABLE
  2
BLOCK_RECORD
  5
1
100
AcDbSymbolTable
 70
0
  0
BLOCK_RECORD
  5
212
100
AcDbSymbolTableRecord
100
AcDbBlockTableRecord
  2
*Model_Space
  0
BLOCK_RECORD
  5
213
100
AcDbSymbolTableRecord
100
AcDbBlockTableRecord
  2
*Paper_Space
  0
ENDTAB
  0
TABLE
  2
DIMSTYLE
  5
A
100
AcDbSymbolTable
 70
1
100
AcDbDimStyleTable
 71
0
  0
DIMSTYLE
105
214
100
AcDbSymbolTableRecord
100
AcDbDimStyleTableRecord
  2
STANDARD
 70
0
  3

  4

 40
1.0
 41
3.5
 42
0.0625
 43
0.38
 44
0.18
 45
0.0
 46
0.0
 47
0.005
 48
0.005
140
3.5
141
0.09
142
0.0
143
25.4
144
1.0
145
0.0
146
1.0
147
0.09
 71
1.0
 72
0.0
 73
0
 74
0
 75
0
 76
0
 77
1
 78
8
170
0
171
2
172
0
173
0
174
0
175
0
176
0
177
0
178
5
270
2
271
3
272
3
273
2
274
2
275
0
280
0
281
0
282
0
283
1
284
8
285
0
286
0
287
3
288
0
340
11
  0
ENDTAB
  0
ENDSEC
  0
SECTION
  2
BLOCKS
  0
BLOCK
  5
20
100
AcDbEntity
  8
0
100
AcDbBlockBegin
  2
*Model_Space
 70
0
 10
0.0
 20
0.0
 30
0.0
  3
*Model_Space
  1

  0
ENDBLK
  5
21
100
AcDbEntity
  8
0
100
AcDbBlockEnd
  0
BLOCK
  5
1C
100
AcDbEntity
  8
0
100
AcDbBlockBegin
  2
*Paper_Space
 70
0
 10
0.0
 20
0.0
 30
0.0
  3
*Paper_Space
  1

  0
ENDBLK
  5
1D
100
AcDbEntity
  8
0
100
AcDbBlockEnd
  0
ENDSEC
  0
SECTION
  2
ENTITIES
  0
MTEXT
  5
215
100
AcDbEntity
  8
0
100
AcDbMText
 62
5
  6
CONTINUOUS
  7
STANDARD
 71
1
 72
1
 10
336.0670002565
 20
364.2314989875
 30
0.0
 11
0.0
 21
1.0
 31
0.0
 44
0.9
  1
RUD VLBG-PLUS 20t
 40
10.0
 41
131.4285714286
  0
MTEXT
  5
216
100
AcDbEntity
  8
0
100
AcDbMText
 62
5
  6
CONTINUOUS
  7
STANDARD
 71
1
 72
1
 10
337.4407902586
 20
45.8446837759
 30
0.0
 11
0.0
 21
1.0
 31
0.0
 44
0.9
  1
RUD VLBG-PLUS 20t
 40
10.0
 41
131.4285714286
  0
LINE
  5
217
100
AcDbEntity
  8
0
100
AcDbLine
 62
7
  6
CONTINUOUS
 10
0.0
 20
0.0
 11
0.0
 21
594.0
  0
LINE
  5
218
100
AcDbEntity
  8
0
100
AcDbLine
 62
7
  6
CONTINUOUS
 10
0.0
 20
0.0
 11
841.0
 21
0.0
  0
LINE
  5
219
100
AcDbEntity
  8
0
100
AcDbLine
 62
7
  6
CONTINUOUS
 10
0.0
 20
594.0
 11
841.0
 21
594.0
  0
LINE
  5
21A
100
AcDbEntity
  8
0
100
AcDbLine
 62
7
  6
CONTINUOUS
 10
841.0
 20
0.0
 11
841.0
 21
594.0
  0
LINE
  5
21B
100
AcDbEntity
  8
BEZUGSACHSEN
100
AcDbLine
 62
7
  6
CONTINUOUS
 10
268.4455130904
 20
229.7744098084
 11
306.4455130904
 21
229.7744098084
  0
LINE
  5
21C
100
AcDbEntity
  8
BEZUGSACHSEN
100
AcDbLine
 62
7
  6
CONTINUOUS
 10
263.4455130904
 20
234.7744098084
 11
311.4455130904
 21
234.7744098084
  0
LINE
  5
21D
100
AcDbEntity
  8
BEZUGSACHSEN
100
AcDbLine
 62
7
  6
CONTINUOUS
 10
263.4455130904
 20
234.7744098084
 11
268.4455130904
 21
229.7744098084
  0
LINE
  5
21E
100
AcDbEntity
  8
0
100
AcDbLine
 62
7
  6
CONTINUOUS
 10
334.9455130904
 20
302.7744098084
 11
239.9455130904
 21
302.7744098084
  0
LINE
  5
21F
100
AcDbEntity
  8
0
100
AcDbLine
 62
7
  6
CONTINUOUS
 10
334.9455130904
 20
311.0244098084
 11
239.9455130904
 21
311.0244098084
  0
LINE
  5
220
100
AcDbEntity
  8
RUNDUNGEN
100
AcDbLine
 62
7
  6
CONTINUOUS
 10
340.4455130904
 20
311.2744098084
 11
240.4455130904
 21
311.2744098084
  0
LINE
  5
221
100
AcDbEntity
  8
0
100
AcDbLine
 62
7
  6
CONTINUOUS
 10
234.9455129397
 20
331.2403653878
 11
234.9459651963
 21
331.1978142159
  0
LINE
  5
222
100
AcDbEntity
  8
0
100
AcDbLine
 62
7
  6
CONTINUOUS
 10
234.9455130904
 20
322.6871757591
 11
234.9455130904
 21
323.7084524149
  0
LINE
  5
223
100
AcDbEntity
  8
0
100
AcDbLine
 62
7
  6
CONTINUOUS
 10
234.9455130904
 20
331.2403673508
 11
234.9455130904
 21
332.2616438763
  0
LINE
  5
224
100
AcDbEntity
  8
0
100
AcDbLine
 62
7
  6
CONTINUOUS
 10
234.9455130904
 20
361.0544098084
 11
234.9455130904
 21
362.5863246982
  0
LINE
  5
225
100
AcDbEntity
  8
0
100
AcDbLine
 62
7
  6
CONTINUOUS
 10
234.9509635036
 20
346.4214309518
 11
234.9509635036
 21
347.4852609102
  0
LINE
  5
226
100
AcDbEntity
  8
BEZUGSACHSEN
100
AcDbLine
 62
7
  6
CONTINUOUS
 10
346.7998233336
 20
328.9334461901
 11
346.8814943154
 21
328.9564834887
  0
LINE
  5
227
100
AcDbEntity
  8
BEZUGSACHSEN
100
AcDbLine
 62
7
  6
CONTINUOUS
 10
346.7163137867
 20
328.9103193703
 11
346.7998233336
 21
328.9334461901
  0
LINE
  5
228
100
AcDbEntity
  8
BEZUGSACHSEN
100
AcDbLine
 62
7
  6
CONTINUOUS
 10
346.6307987722
 20
328.8870850326
 11
346.7163137867
 21
328.9103193703
  0
LINE
  5
229
100
AcDbEntity
  8
BEZUGSACHSEN
100
AcDbLine
 62
7
  6
CONTINUOUS
 10
346.554167455
 20
328.8666479501
 11
346.6307987722
 21
328.8870850326
  0
LINE
  5
22A
100
AcDbEntity
  8
BEZUGSACHSEN
100
AcDbLine
 62
7
  6
CONTINUOUS
 10
346.475707651
 20
328.8460974938
 11
346.554167455
 21
328.8666479501
  0
LINE
  5
22B
100
AcDbEntity
  8
BEZUGSACHSEN
100
AcDbLine
 62
7
  6
CONTINUOUS
 10
346.395282788
 20
328.8254240076
 11
346.475707651
 21
328.8460974938
  0
LINE
  5
22C
100
AcDbEntity
  8
BEZUGSACHSEN
100
AcDbLine
 62
7
  6
CONTINUOUS
 10
346.3127563996
 20
328.8046210632
 11
346.395282788
 21
328.8254240076
  0
LINE
  5
22D
100
AcDbEntity
  8
BEZUGSACHSEN
100
AcDbLine
 62
7
  6
CONTINUOUS
 10
346.227990702
 20
328.7836852502
 11
346.3127563996
 21
328.8046210632
  0
LINE
  5
22E
100
AcDbEntity
  8
BEZUGSACHSEN
100
AcDbLine
 62
7
  6
CONTINUOUS
 10
346.140831849
 20
328.7626128349
 11
346.227990702
 21
328.7836852502
  0
LINE
  5
22F
100
AcDbEntity
  8
BEZUGSACHSEN
100
AcDbLine
 62
7
  6
CONTINUOUS
 10
346.0640954083
 20
328.7444403959
 11
346.140831849
 21
328.7626128349
  0
LINE
  5
230
100
AcDbEntity
  8
BEZUGSACHSEN
100
AcDbLine
 62
7
  6
CONTINUOUS
 10
345.9853770783
 20
328.7261672998
 11
346.0640954083
 21
328.7444403959
  0
LINE
  5
231
100
AcDbEntity
  8
BEZUGSACHSEN
100
AcDbLine
 62
7
  6
CONTINUOUS
 10
345.9045732442
 20
328.7077972497
 11
345.9853770783
 21
328.7261672998
  0
LINE
  5
232
100
AcDbEntity
  8
BEZUGSACHSEN
100
AcDbLine
 62
7
  6
CONTINUOUS
 10
345.8215954476
 20
328.6893398961
 11
345.9045732442
 21
328.7077972497
  0
LINE
  5
233
100
AcDbEntity
  8
BEZUGSACHSEN
100
AcDbLine
 62
7
  6
CONTINUOUS
 10
345.7364357519
 20
328.6708246095
 11
345.8215954476
 21
328.6893398961
  0
LINE
  5
234
100
AcDbEntity
  8
BEZUGSACHSEN
100
AcDbLine
 62
7
  6
CONTINUOUS
 10
345.6491140428
 20
328.652287437
 11
345.7364357519
 21
328.6708246095
  0
LINE
  5
235
100
AcDbEntity
  8
BEZUGSACHSEN
100
AcDbLine
 62
7
  6
CONTINUOUS
 10
345.5596504857
 20
328.6337647398
 11
345.6491140428
 21
328.652287437
  0
LINE
  5
236
100
AcDbEntity
  8
BEZUGSACHSEN
100
AcDbLine
 62
7
  6
CONTINUOUS
 10
345.4680656113
 20
328.6152931768
 11
345.5596504857
 21
328.6337647398
  0
LINE
  5
237
100
AcDbEntity
  8
BEZUGSACHSEN
100
AcDbLine
 62
7
  6
CONTINUOUS
 10
345.3901395136
 20
328.5999659019
 11
345.4680656113
 21
328.6152931768
  0
LINE
  5
238
100
AcDbEntity
  8
BEZUGSACHSEN
100
AcDbLine
 62
7
  6
CONTINUOUS
 10
345.3107673388
 20
328.5847213134
 11
345.3901395136
 21
328.5999659019
  0
LINE
  5
239
100
AcDbEntity
  8
BEZUGSACHSEN
100
AcDbLine
 62
7
  6
CONTINUOUS
 10
345.2299342183
 20
328.5695759373
 11
345.3107673388
 21
328.5847213134
  0
LINE
  5
23A
100
AcDbEntity
  8
BEZUGSACHSEN
100
AcDbLine
 62
7
  6
CONTINUOUS
 10
345.1475299109
 20
328.5545296916
 11
345.2299342183
 21
328.5695759373
  0
LINE
  5
23B
100
AcDbEntity
  8
BEZUGSACHSEN
100
AcDbLine
 62
7
  6
CONTINUOUS
 10
345.0634212565
 20
328.5395809317
 11
345.1475299109
 21
328.5545296916
  0
LINE
  5
23C
100
AcDbEntity
  8
BEZUGSACHSEN
100
AcDbLine
 62
7
  6
CONTINUOUS
 10
344.9774750328
 20
328.5247310058
 11
345.0634212565
 21
328.5395809317
  0
LINE
  5
23D
100
AcDbEntity
  8
BEZUGSACHSEN
100
AcDbLine
 62
7
  6
CONTINUOUS
 10
344.8895577647
 20
328.5099843455
 11
344.9774750328
 21
328.5247310058
  0
LINE
  5
23E
100
AcDbEntity
  8
BEZUGSACHSEN
100
AcDbLine
 62
7
  6
CONTINUOUS
 10
344.7995357492
 20
328.495348607
 11
344.8895577647
 21
328.5099843455
  0
LWPOLYLINE
  5
23F
100
AcDbEntity
  8
BEZUGSACHSEN
100
AcDbPolyline
 62
7
  6
CONTINUOUS
 90
4
 70
0
 10
344.298095009
 20
328.4106455362
 10
345.38542955
 20
328.5805180675
 10
346.4606166305
 20
328.817510026
 10
347.5195437888
 20
329.1207676591
  0
LINE
  5
240
100
AcDbEntity
  8
BEZUGSACHSEN
100
AcDbLine
 62
7
  6
CONTINUOUS
 10
344.7072754133
 20
328.4808348727
 11
344.7995357492
 21
328.495348607
  0
LINE
  5
241
100
AcDbEntity
  8
BEZUGSACHSEN
100
AcDbLine
 62
7
  6
CONTINUOUS
 10
344.6127066186
 20
328.466467243
 11
344.7072754133
 21
328.4808348727
  0
LINE
  5
242
100
AcDbEntity
  8
BEZUGSACHSEN
100
AcDbLine
 62
7
  6
CONTINUOUS
 10
344.5158984589
 20
328.4522921168
 11
344.6127066186
 21
328.466467243
  0
LINE
  5
243
100
AcDbEntity
  8
BEZUGSACHSEN
100
AcDbLine
 62
7
  6
CONTINUOUS
 10
344.4368987185
 20
328.4411230685
 11
344.5158984589
 21
328.4522921168
  0
LINE
  5
244
100
AcDbEntity
  8
BEZUGSACHSEN
100
AcDbLine
 62
7
  6
CONTINUOUS
 10
344.3565674419
 20
328.4301322497
 11
344.4368987185
 21
328.4411230685
  0
LINE
  5
245
100
AcDbEntity
  8
BEZUGSACHSEN
100
AcDbLine
 62
7
  6
CONTINUOUS
 10
344.2749502071
 20
328.4193432627
 11
344.3565674419
 21
328.4301322497
  0
LINE
  5
246
100
AcDbEntity
  8
BEZUGSACHSEN
100
AcDbLine
 62
7
  6
CONTINUOUS
 10
344.1920928374
 20
328.4087791407
 11
344.2749502071
 21
328.4193432627
  0
LINE
  5
247
100
AcDbEntity
  8
BEZUGSACHSEN
100
AcDbLine
 62
7
  6
CONTINUOUS
 10
344.1080411001
 20
328.3984622779
 11
344.1920928374
 21
328.4087791407
  0
LINE
  5
248
100
AcDbEntity
  8
BEZUGSACHSEN
100
AcDbLine
 62
7
  6
CONTINUOUS
 10
344.0228238198
 20
328.3884124539
 11
344.1080411001
 21
328.3984622779
  0
LINE
  5
249
100
AcDbEntity
  8
BEZUGSACHSEN
100
AcDbLine
 62
7
  6
CONTINUOUS
 10
343.9364438893
 20
328.378646229
 11
344.0228238198
 21
328.3884124539
  0
LINE
  5
24A
100
AcDbEntity
  8
BEZUGSACHSEN
100
AcDbLine
 62
7
  6
CONTINUOUS
 10
343.8489021562
 20
328.3691800956
 11
343.9364438893
 21
328.378646229
  0
LINE
  5
24B
100
AcDbEntity
  8
BEZUGSACHSEN
100
AcDbLine
 62
7
  6
CONTINUOUS
 10
343.8098383454
 20
328.3650984556
 11
343.8489021562
 21
328.3691800956
  0
LINE
  5
24C
100
AcDbEntity
  8
0
100
AcDbLine
 62
7
  6
CONTINUOUS
 10
234.9527466441
 20
322.4744098084
 11
235.4528236015
 21
322.4744098084
  0
LINE
  5
24D
100
AcDbEntity
  8
0
100
AcDbLine
 62
7
  6
CONTINUOUS
 10
235.8289320636
 20
322.4744098084
 11
236.3384083997
 21
322.4744098084
  0
LINE
  5
24E
100
AcDbEntity
  8
0
100
AcDbLine
 62
7
  6
CONTINUOUS
 10
234.9473215701
 20
322.6871757591
 11
235.4473406075
 21
322.6871757591
  0
LINE
  5
24F
100
AcDbEntity
  8
0
100
AcDbLine
 62
7
  6
CONTINUOUS
 10
234.9676717183
 20
323.3254736112
 11
235.4107306153
 21
323.3254736112
  0
LINE
  5
250
100
AcDbEntity
  8
0
100
AcDbLine
 62
7
  6
CONTINUOUS
 10
235.8289320636
 20
323.3254736112
 11
236.3384083997
 21
323.3254736112
  0
LINE
  5
251
100
AcDbEntity
  8
0
100
AcDbLine
 62
7
  6
CONTINUOUS
 10
235.6381735436
 20
323.5382396178
 11
236.1455731866
 21
323.5382396178
  0
LINE
  5
252
100
AcDbEntity
  8
0
100
AcDbLine
 62
7
  6
CONTINUOUS
 10
234.9907456468
 20
323.9637714819
 11
235.3679495476
 21
323.9637714819
  0
LINE
  5
253
100
AcDbEntity
  8
0
100
AcDbLine
 62
7
  6
CONTINUOUS
 10
235.5350712026
 20
323.9637714819
 11
236.0413554922
 21
323.9637714819
  0
LINE
  5
254
100
AcDbEntity
  8
0
100
AcDbLine
 62
7
  6
CONTINUOUS
 10
235.5025833154
 20
324.6020694272
 11
236.0085171743
 21
324.6020694272
  0
LINE
  5
255
100
AcDbEntity
  8
0
100
AcDbLine
 62
7
  6
CONTINUOUS
 10
234.9547835302
 20
345.1448353593
 11
234.9547835302
 21
346.4214309518
  0
LINE
  5
256
100
AcDbEntity
  8
0
100
AcDbLine
 62
7
  6
CONTINUOUS
 10
234.9547835302
 20
347.4852609102
 11
234.9547835302
 21
348.3363246386
  0
LINE
  5
257
100
AcDbEntity
  8
0
100
AcDbLine
 62
7
  6
CONTINUOUS
 10
234.9821481647
 20
326.7297290461
 11
234.9821481647
 21
328.2190905706
  0
LINE
  5
258
100
AcDbEntity
  8
0
100
AcDbLine
 62
7
  6
CONTINUOUS
 10
235.0301971958
 20
365.139516062
 11
235.0301971958
 21
373.0544098084
  0
LINE
  5
259
100
AcDbEntity
  8
0
100
AcDbLine
 62
7
  6
CONTINUOUS
 10
235.0342090185
 20
326.516963114
 11
235.0342090185
 21
328.4318565027
  0
LINE
  5
25A
100
AcDbEntity
  8
0
100
AcDbLine
 62
7
  6
CONTINUOUS
 10
235.0837287526
 20
346.4214309518
 11
235.0837287526
 21
347.4852609102
  0
LINE
  5
25B
100
AcDbEntity
  8
0
100
AcDbLine
 62
7
  6
CONTINUOUS
 10
235.1430288887
 20
365.139516062
 11
235.1430288887
 21
373.0544098084
  0
LINE
  5
25C
100
AcDbEntity
  8
0
100
AcDbLine
 62
7
  6
CONTINUOUS
 10
235.1648365369
 20
328.4318565027
 11
235.1648365369
 21
329.2829202311
  0
LINE
  5
25D
100
AcDbEntity
  8
0
100
AcDbLine
 62
7
  6
CONTINUOUS
 10
235.2397555159
 20
342.8044098084
 11
235.2397555159
 21
352.8044098084
  0
LINE
  5
25E
100
AcDbEntity
  8
0
100
AcDbLine
 62
7
  6
CONTINUOUS
 10
235.3541535805
 20
324.176537414
 11
235.3541535805
 21
328.4318565027
  0
LINE
  5
25F
100
AcDbEntity
  8
0
100
AcDbLine
 62
7
  6
CONTINUOUS
 10
235.3541535805
 20
329.2829202311
 11
235.3541535805
 21
330.9850482838
  0
LINE
  5
260
100
AcDbEntity
  8
0
100
AcDbLine
 62
7
  6
CONTINUOUS
 10
235.3673931191
 20
361.0544098084
 11
235.3673931191
 21
373.0544098084
  0
LINE
  5
261
100
AcDbEntity
  8
0
100
AcDbLine
 62
7
  6
CONTINUOUS
 10
235.3954327218
 20
342.8044098084
 11
235.3954327218
 21
347.2724949781
  0
LINE
  5
262
100
AcDbEntity
  8
0
100
AcDbLine
 62
7
  6
CONTINUOUS
 10
235.3954327218
 20
348.5490905706
 11
235.3954327218
 21
351.7405801479
  0
LINE
  5
263
100
AcDbEntity
  8
0
100
AcDbLine
 62
7
  6
CONTINUOUS
 10
235.4455130904
 20
316.2744098084
 11
235.4455130904
 21
322.6162536157
  0
LINE
  5
264
100
AcDbEntity
  8
0
100
AcDbLine
 62
7
  6
CONTINUOUS
 10
235.4455130904
 20
332.3325660134
 11
235.4455130904
 21
342.8044098084
  0
LINE
  5
265
100
AcDbEntity
  8
0
100
AcDbLine
 62
7
  6
CONTINUOUS
 10
235.4455130904
 20
352.8044098084
 11
235.4455130904
 21
361.0544098084
  0
LINE
  5
266
100
AcDbEntity
  8
0
100
AcDbLine
 62
7
  6
CONTINUOUS
 10
235.4455130904
 20
373.0544098084
 11
235.4455130904
 21
376.2744098084
  0
LINE
  5
267
100
AcDbEntity
  8
0
100
AcDbLine
 62
7
  6
CONTINUOUS
 10
235.5025833154
 20
324.6020694272
 11
235.5025833154
 21
328.4318565027
  0
LINE
  5
268
100
AcDbEntity
  8
0
100
AcDbLine
 62
7
  6
CONTINUOUS
 10
235.5025833154
 20
329.2829202311
 11
235.5025833154
 21
330.9850482838
  0
LINE
  5
269
100
AcDbEntity
  8
0
100
AcDbLine
 62
7
  6
CONTINUOUS
 10
235.5917645587
 20
362.5863246982
 11
235.5917645587
 21
371.5224950974
  0
LINE
  5
26A
100
AcDbEntity
  8
0
100
AcDbLine
 62
7
  6
CONTINUOUS
 10
235.8289320636
 20
322.4744098084
 11
235.8289320636
 21
323.3254736112
  0
LINE
  5
26B
100
AcDbEntity
  8
0
100
AcDbLine
 62
7
  6
CONTINUOUS
 10
235.9002142491
 20
342.8044098084
 11
235.9002142491
 21
347.2724949781
  0
LINE
  5
26C
100
AcDbEntity
  8
0
100
AcDbLine
 62
7
  6
CONTINUOUS
 10
235.9002142491
 20
348.5490905706
 11
235.9002142491
 21
351.7405801479
  0
LINE
  5
26D
100
AcDbEntity
  8
0
100
AcDbLine
 62
7
  6
CONTINUOUS
 10
235.911910874
 20
328.4318565027
 11
235.911910874
 21
329.2829202311
  0
LINE
  5
26E
100
AcDbEntity
  8
0
100
AcDbLine
 62
7
  6
CONTINUOUS
 10
236.0085171743
 20
324.6020694272
 11
236.0085171743
 21
328.4318565027
  0
LINE
  5
26F
100
AcDbEntity
  8
0
100
AcDbLine
 62
7
  6
CONTINUOUS
 10
236.0085171743
 20
329.2829202311
 11
236.0085171743
 21
330.9850482838
  0
LINE
  5
270
100
AcDbEntity
  8
0
100
AcDbLine
 62
7
  6
CONTINUOUS
 10
236.098661542
 20
362.5863246982
 11
236.098661542
 21
371.5224950974
  0
LINE
  5
271
100
AcDbEntity
  8
0
100
AcDbLine
 62
7
  6
CONTINUOUS
 10
236.3384083997
 20
322.4744098084
 11
236.3384083997
 21
323.3254736112
  0
LINE
  5
272
100
AcDbEntity
  8
0
100
AcDbLine
 62
7
  6
CONTINUOUS
 10
236.4096691097
 20
349.8256861631
 11
236.4096691097
 21
350.4639845554
  0
LINE
  5
273
100
AcDbEntity
  8
0
100
AcDbLine
 62
7
  6
CONTINUOUS
 10
236.4222959031
 20
328.4318565027
 11
236.4222959031
 21
329.2829202311
  0
LINE
  5
274
100
AcDbEntity
  8
0
100
AcDbLine
 62
7
  6
CONTINUOUS
 10
236.7436757352
 20
349.6129202311
 11
236.7436757352
 21
350.4639845554
  0
LINE
  5
275
100
AcDbEntity
  8
0
100
AcDbLine
 62
7
  6
CONTINUOUS
 10
237.2459648371
 20
342.8044098084
 11
237.2459648371
 21
352.8044098084
  0
LINE
  5
276
100
AcDbEntity
  8
0
100
AcDbLine
 62
7
  6
CONTINUOUS
 10
237.300387082
 20
365.139516062
 11
237.300387082
 21
368.9693031971
  0
LINE
  5
277
100
AcDbEntity
  8
0
100
AcDbLine
 62
7
  6
CONTINUOUS
 10
237.666577062
 20
344.0810055499
 11
237.666577062
 21
352.8044098084
  0
LINE
  5
278
100
AcDbEntity
  8
0
100
AcDbLine
 62
7
  6
CONTINUOUS
 10
237.8159492637
 20
365.139516062
 11
237.8159492637
 21
368.9693031971
  0
LINE
  5
279
100
AcDbEntity
  8
0
100
AcDbLine
 62
7
  6
CONTINUOUS
 10
238.1969706799
 20
344.0810055499
 11
238.1969706799
 21
352.8044098084
  0
LINE
  5
27A
100
AcDbEntity
  8
0
100
AcDbLine
 62
7
  6
CONTINUOUS
 10
238.3481193192
 20
365.139516062
 11
238.3481193192
 21
368.9693031971
  0
LINE
  5
27B
100
AcDbEntity
  8
0
100
AcDbLine
 62
7
  6
CONTINUOUS
 10
239.9455130904
 20
389.7744098084
 11
239.9455130904
 21
381.5244098084
  0
LINE
  5
27C
100
AcDbEntity
  8
0
100
AcDbLine
 62
7
  6
CONTINUOUS
 10
239.9455130904
 20
311.0244098084
 11
239.9455130904
 21
302.7744098084
  0
LINE
  5
27D
100
AcDbEntity
  8
0
100
AcDbLine
 62
7
  6
CONTINUOUS
 10
240.3782283003
 20
342.8044098084
 11
240.3782283003
 21
344.0810055499
  0
LINE
  5
27E
100
AcDbEntity
  8
0
100
AcDbLine
 62
7
  6
CONTINUOUS
 10
240.9428496701
 20
342.8044098084
 11
240.9428496701
 21
344.0810055499
  0
LINE
  5
27F
100
AcDbEntity
  8
0
100
AcDbLine
 62
7
  6
CONTINUOUS
 10
241.2890979613
 20
346.2086650197
 11
241.2890979613
 21
352.8044098084
  0
LINE
  5
280
100
AcDbEntity
  8
0
100
AcDbLine
 62
7
  6
CONTINUOUS
 10
242.030068768
 20
346.2086650197
 11
242.030068768
 21
352.8044098084
  0
LINE
  5
281
100
AcDbEntity
  8
0
100
AcDbLine
 62
7
  6
CONTINUOUS
 10
242.6178106502
 20
346.2086650197
 11
242.6178106502
 21
352.8044098084
  0
LINE
  5
282
100
AcDbEntity
  8
BEZUGSACHSEN
100
AcDbLine
 62
7
  6
CONTINUOUS
 10
244.1442429012
 20
390.2744098084
 11
244.1442429012
 21
416.425044903
  0
LINE
  5
283
100
AcDbEntity
  8
0
100
AcDbLine
 62
7
  6
CONTINUOUS
 10
245.5544682417
 20
346.2086650197
 11
245.5544682417
 21
352.8044098084
  0
LINE
  5
284
100
AcDbEntity
  8
0
100
AcDbLine
 62
7
  6
CONTINUOUS
 10
246.5960715876
 20
346.2086650197
 11
246.5960715876
 21
352.8044098084
  0
LINE
  5
285
100
AcDbEntity
  8
0
100
AcDbLine
 62
7
  6
CONTINUOUS
 10
234.9455129397
 20
323.7084543779
 11
234.9459651963
 21
323.7510055499
  0
LINE
  5
286
100
AcDbEntity
  8
BEZUGSACHSEN
100
AcDbLine
 62
7
  6
CONTINUOUS
 10
343.2022148154
 20
328.3084593923
 11
344.2969894478
 21
328.4105077934
  0
LINE
  5
287
100
AcDbEntity
  8
BEZUGSACHSEN
100
AcDbLine
 62
7
  6
CONTINUOUS
 10
342.1036647005
 20
328.2744098084
 11
343.202492112
 21
328.3084852402
  0
LINE
  5
288
100
AcDbEntity
  8
BEZUGSACHSEN
100
AcDbLine
 62
7
  6
CONTINUOUS
 10
342.1845379003
 20
328.2711179715
 11
342.2915414962
 21
328.2727672166
  0
LINE
  5
289
100
AcDbEntity
  8
BEZUGSACHSEN
100
AcDbLine
 62
7
  6
CONTINUOUS
 10
342.0764170533
 20
328.2700990303
 11
342.1845379003
 21
328.2711179715
  0
LINE
  5
28A
100
AcDbEntity
  8
BEZUGSACHSEN
100
AcDbLine
 62
7
  6
CONTINUOUS
 10
341.9611875588
 20
328.2697294653
 11
342.0764170533
 21
328.2700990303
  0
LINE
  5
28B
100
AcDbEntity
  8
0
100
AcDbLine
 62
7
  6
CONTINUOUS
 10
235.0106614686
 20
324.8148353593
 11
235.3541535805
 21
324.8148353593
  0
LINE
  5
28C
100
AcDbEntity
  8
0
100
AcDbLine
 62
7
  6
CONTINUOUS
 10
235.021980996
 20
325.4531331555
 11
235.3541535805
 21
325.4531331555
  0
LINE
  5
28D
100
AcDbEntity
  8
0
100
AcDbLine
 62
7
  6
CONTINUOUS
 10
235.0342090185
 20
326.516963114
 11
235.3541535805
 21
326.516963114
  0
LINE
  5
28E
100
AcDbEntity
  8
BEZUGSACHSEN
100
AcDbLine
 62
7
  6
CONTINUOUS
 10
341.8613964304
 20
328.2744098084
 11
342.1036454489
 21
328.2744098084
  0
LINE
  5
28F
100
AcDbEntity
  8
0
100
AcDbLine
 62
7
  6
CONTINUOUS
 10
235.0342090185
 20
328.4318565027
 11
235.3541535805
 21
328.4318565027
  0
LINE
  5
290
100
AcDbEntity
  8
0
100
AcDbLine
 62
7
  6
CONTINUOUS
 10
235.5025833154
 20
328.4318565027
 11
236.4222959031
 21
328.4318565027
  0
LINE
  5
291
100
AcDbEntity
  8
0
100
AcDbLine
 62
7
  6
CONTINUOUS
 10
235.1648365369
 20
329.2829202311
 11
235.3541535805
 21
329.2829202311
  0
LINE
  5
292
100
AcDbEntity
  8
0
100
AcDbLine
 62
7
  6
CONTINUOUS
 10
235.5025833154
 20
329.2829202311
 11
236.4222959031
 21
329.2829202311
  0
LINE
  5
293
100
AcDbEntity
  8
0
100
AcDbLine
 62
7
  6
CONTINUOUS
 10
235.021980996
 20
329.4956861631
 11
235.3541535805
 21
329.4956861631
  0
LINE
  5
294
100
AcDbEntity
  8
0
100
AcDbLine
 62
7
  6
CONTINUOUS
 10
235.0106614686
 20
330.1339845554
 11
235.3541535805
 21
330.1339845554
  0
LINE
  5
295
100
AcDbEntity
  8
0
100
AcDbLine
 62
7
  6
CONTINUOUS
 10
234.9907456468
 20
330.9850482838
 11
236.0085171743
 21
330.9850482838
  0
LINE
  5
296
100
AcDbEntity
  8
0
100
AcDbLine
 62
7
  6
CONTINUOUS
 10
234.9676717183
 20
331.62334608
 11
235.4679050764
 21
331.62334608
  0
LINE
  5
297
100
AcDbEntity
  8
0
100
AcDbLine
 62
7
  6
CONTINUOUS
 10
234.9473214708
 20
332.2616438763
 11
235.4473406075
 21
332.2616438763
  0
LINE
  5
298
100
AcDbEntity
  8
0
100
AcDbLine
 62
7
  6
CONTINUOUS
 10
234.9527474388
 20
332.4744098084
 11
235.4528236015
 21
332.4744098084
  0
LINE
  5
299
100
AcDbEntity
  8
0
100
AcDbLine
 62
7
  6
CONTINUOUS
 10
341.8588271629
 20
328.2744099976
 11
341.8613964304
 21
328.2744098084
  0
LINE
  5
29A
100
AcDbEntity
  8
RUNDUNGEN
100
AcDbLine
 62
7
  6
CONTINUOUS
 10
341.7886311187
 20
328.2744098084
 11
341.9080903953
 21
328.2743700633
  0
LINE
  5
29B
100
AcDbEntity
  8
RUNDUNGEN
100
AcDbLine
 62
7
  6
CONTINUOUS
 10
341.8477558051
 20
328.2699169933
 11
341.929838622
 21
328.2697294653
  0
LINE
  5
29C
100
AcDbEntity
  8
RUNDUNGEN
100
AcDbLine
 62
7
  6
CONTINUOUS
 10
341.7510459952
 20
328.2706192159
 11
341.8477558051
 21
328.2699169933
  0
LINE
  5
29D
100
AcDbEntity
  8
RUNDUNGEN
100
AcDbLine
 62
7
  6
CONTINUOUS
 10
341.6565386866
 20
328.2718084984
 11
341.7510459952
 21
328.2706192159
  0
LINE
  5
29E
100
AcDbEntity
  8
RUNDUNGEN
100
AcDbLine
 62
7
  6
CONTINUOUS
 10
341.594666186
 20
328.2728564867
 11
341.6565386866
 21
328.2718084984
  0
LWPOLYLINE
  5
29F
100
AcDbEntity
  8
BEZUGSACHSEN
100
AcDbPolyline
 62
7
  6
CONTINUOUS
 90
3
 70
0
 10
339.5940367331
 20
328.4105077934
 10
340.6888113655
 20
328.3084593923
 10
340.8088620749
 20
328.304738418
  0
LINE
  5
2A0
100
AcDbEntity
  8
RUNDUNGEN
100
AcDbLine
 62
7
  6
CONTINUOUS
 10
339.9922123018
 20
328.374524008
 11
340.0802010665
 21
328.3652019941
  0
LINE
  5
2A1
100
AcDbEntity
  8
RUNDUNGEN
100
AcDbLine
 62
7
  6
CONTINUOUS
 10
339.8978031263
 20
328.3850180847
 11
339.9922123018
 21
328.374524008
  0
LINE
  5
2A2
100
AcDbEntity
  8
RUNDUNGEN
100
AcDbLine
 62
7
  6
CONTINUOUS
 10
339.8074763083
 20
328.3955317311
 11
339.8978031263
 21
328.3850180847
  0
LINE
  5
2A3
100
AcDbEntity
  8
RUNDUNGEN
100
AcDbLine
 62
7
  6
CONTINUOUS
 10
339.7233627097
 20
328.4057391272
 11
339.8074763083
 21
328.3955317311
  0
LINE
  5
2A4
100
AcDbEntity
  8
RUNDUNGEN
100
AcDbLine
 62
7
  6
CONTINUOUS
 10
339.627497459
 20
328.4178637881
 11
339.7233627097
 21
328.4057391272
  0
LINE
  5
2A5
100
AcDbEntity
  8
RUNDUNGEN
100
AcDbLine
 62
7
  6
CONTINUOUS
 10
339.5392020442
 20
328.4294948169
 11
339.627497459
 21
328.4178637881
  0
LINE
  5
2A6
100
AcDbEntity
  8
RUNDUNGEN
100
AcDbLine
 62
7
  6
CONTINUOUS
 10
339.4562383278
 20
328.440829538
 11
339.5392020442
 21
328.4294948169
  0
LINE
  5
2A7
100
AcDbEntity
  8
RUNDUNGEN
100
AcDbLine
 62
7
  6
CONTINUOUS
 10
339.3765804784
 20
328.4520834952
 11
339.4562383278
 21
328.440829538
  0
LINE
  5
2A8
100
AcDbEntity
  8
RUNDUNGEN
100
AcDbLine
 62
7
  6
CONTINUOUS
 10
339.2839810233
 20
328.4656234385
 11
339.3765804784
 21
328.4520834952
  0
LINE
  5
2A9
100
AcDbEntity
  8
RUNDUNGEN
100
AcDbLine
 62
7
  6
CONTINUOUS
 10
339.1942935592
 20
328.4792076184
 11
339.2839810233
 21
328.4656234385
  0
LINE
  5
2AA
100
AcDbEntity
  8
RUNDUNGEN
100
AcDbLine
 62
7
  6
CONTINUOUS
 10
339.1071804269
 20
328.4928456902
 11
339.1942935592
 21
328.4792076184
  0
LINE
  5
2AB
100
AcDbEntity
  8
RUNDUNGEN
100
AcDbLine
 62
7
  6
CONTINUOUS
 10
339.0223047505
 20
328.5065550716
 11
339.1071804269
 21
328.4928456902
  0
LINE
  5
2AC
100
AcDbEntity
  8
RUNDUNGEN
100
AcDbLine
 62
7
  6
CONTINUOUS
 10
338.9393365607
 20
328.5203594629
 11
339.0223047505
 21
328.5065550716
  0
LINE
  5
2AD
100
AcDbEntity
  8
RUNDUNGEN
100
AcDbLine
 62
7
  6
CONTINUOUS
 10
338.8580758338
 20
328.5342669708
 11
338.9393365607
 21
328.5203594629
  0
LINE
  5
2AE
100
AcDbEntity
  8
RUNDUNGEN
100
AcDbLine
 62
7
  6
CONTINUOUS
 10
338.7784463128
 20
328.5482678905
 11
338.8580758338
 21
328.5342669708
  0
LINE
  5
2AF
100
AcDbEntity
  8
RUNDUNGEN
100
AcDbLine
 62
7
  6
CONTINUOUS
 10
338.7003767473
 20
328.5623534136
 11
338.7784463128
 21
328.5482678905
  0
LINE
  5
2B0
100
AcDbEntity
  8
RUNDUNGEN
100
AcDbLine
 62
7
  6
CONTINUOUS
 10
338.6111722466
 20
328.5788839859
 11
338.7003767473
 21
328.5623534136
  0
LINE
  5
2B1
100
AcDbEntity
  8
RUNDUNGEN
100
AcDbLine
 62
7
  6
CONTINUOUS
 10
338.5238812728
 20
328.5955113739
 11
338.6111722466
 21
328.5788839859
  0
LINE
  5
2B2
100
AcDbEntity
  8
RUNDUNGEN
100
AcDbLine
 62
7
  6
CONTINUOUS
 10
338.4383911448
 20
328.612229739
 11
338.5238812728
 21
328.5955113739
  0
LINE
  5
2B3
100
AcDbEntity
  8
RUNDUNGEN
100
AcDbLine
 62
7
  6
CONTINUOUS
 10
338.3545893725
 20
328.6290359475
 11
338.4383911448
 21
328.612229739
  0
LINE
  5
2B4
100
AcDbEntity
  8
RUNDUNGEN
100
AcDbLine
 62
7
  6
CONTINUOUS
 10
338.2723776816
 20
328.6459265512
 11
338.3545893725
 21
328.6290359475
  0
LINE
  5
2B5
100
AcDbEntity
  8
0
100
AcDbLine
 62
7
  6
CONTINUOUS
 10
247.2589344148
 20
346.2086650197
 11
247.2589344148
 21
352.8044098084
  0
LINE
  5
2B6
100
AcDbEntity
  8
0
100
AcDbLine
 62
7
  6
CONTINUOUS
 10
248.705910289
 20
349.6129202311
 11
248.705910289
 21
350.4639845554
  0
LINE
  5
2B7
100
AcDbEntity
  8
0
100
AcDbLine
 62
7
  6
CONTINUOUS
 10
249.9805635227
 20
349.8256861631
 11
249.9805635227
 21
350.2512180273
  0
LINE
  5
2B8
100
AcDbEntity
  8
0
100
AcDbLine
 62
7
  6
CONTINUOUS
 10
250.7129534651
 20
349.8256861631
 11
250.7129534651
 21
350.2512180273
  0
LINE
  5
2B9
100
AcDbEntity
  8
KONSTRUKTIONSELEMENTE
100
AcDbLine
 62
7
  6
CONTINUOUS
 10
252.7455130904
 20
389.7744098084
 11
252.7455130904
 21
390.2744098084
  0
LINE
  5
2BA
100
AcDbEntity
  8
BEZUGSACHSEN
100
AcDbLine
 62
7
  6
CONTINUOUS
 10
252.7455130904
 20
389.7744098084
 11
252.7455130904
 21
390.2744098084
  0
LINE
  5
2BB
100
AcDbEntity
  8
0
100
AcDbLine
 62
7
  6
CONTINUOUS
 10
253.6955130904
 20
381.5244098084
 11
253.6955130904
 21
381.2744098084
  0
LINE
  5
2BC
100
AcDbEntity
  8
0
100
AcDbLine
 62
7
  6
CONTINUOUS
 10
253.6955130904
 20
311.2744098084
 11
253.6955130904
 21
311.0244098084
  0
LINE
  5
2BD
100
AcDbEntity
  8
0
100
AcDbLine
 62
7
  6
CONTINUOUS
 10
255.6351518685
 20
345.3576012914
 11
255.6351518685
 21
345.9958990876
  0
LINE
  5
2BE
100
AcDbEntity
  8
KONSTRUKTIONSELEMENTE
100
AcDbLine
 62
7
  6
CONTINUOUS
 10
256.3526215027
 20
419.7744098084
 11
256.3526215027
 21
419.9744098084
  0
LINE
  5
2BF
100
AcDbEntity
  8
0
100
AcDbLine
 62
7
  6
CONTINUOUS
 10
256.9455130904
 20
343.7276689251
 11
256.9455130904
 21
347.6258315533
  0
LINE
  5
2C0
100
AcDbEntity
  8
0
100
AcDbLine
 62
7
  6
CONTINUOUS
 10
256.9455130904
 20
350.4639845554
 11
256.9455130904
 21
351.2897091609
  0
LINE
  5
2C1
100
AcDbEntity
  8
BEZUGSACHSEN
100
AcDbLine
 62
7
  6
CONTINUOUS
 10
244.1442429012
 20
416.425044903
 11
249.9455130904
 21
419.7744098084
  0
LINE
  5
2C2
100
AcDbEntity
  8
0
100
AcDbLine
 62
7
  6
CONTINUOUS
 10
235.1009689918
 20
342.8044098084
 11
235.9002142491
 21
342.8044098084
  0
LINE
  5
2C3
100
AcDbEntity
  8
0
100
AcDbLine
 62
7
  6
CONTINUOUS
 10
237.2459648371
 20
342.8044098084
 11
240.9428496701
 21
342.8044098084
  0
LINE
  5
2C4
100
AcDbEntity
  8
0
100
AcDbLine
 62
7
  6
CONTINUOUS
 10
243.38344687
 20
342.8044098084
 11
244.5865535764
 21
342.8044098084
  0
LINE
  5
2C5
100
AcDbEntity
  8
0
100
AcDbLine
 62
7
  6
CONTINUOUS
 10
251.1191805216
 20
342.8044098084
 11
253.9176779828
 21
342.8044098084
  0
LINE
  5
2C6
100
AcDbEntity
  8
0
100
AcDbLine
 62
7
  6
CONTINUOUS
 10
235.02832409
 20
343.0171757591
 11
235.2397555159
 21
343.0171757591
  0
LINE
  5
2C7
100
AcDbEntity
  8
0
100
AcDbLine
 62
7
  6
CONTINUOUS
 10
244.7393589449
 20
343.0171757591
 11
245.3694540289
 21
343.0171757591
  0
LINE
  5
2C8
100
AcDbEntity
  8
0
100
AcDbLine
 62
7
  6
CONTINUOUS
 10
254.4683222177
 20
343.0171757591
 11
255.3194312111
 21
343.0171757591
  0
LINE
  5
2C9
100
AcDbEntity
  8
0
100
AcDbLine
 62
7
  6
CONTINUOUS
 10
234.9865746639
 20
343.4427076791
 11
235.2397555159
 21
343.4427076791
  0
LINE
  5
2CA
100
AcDbEntity
  8
0
100
AcDbLine
 62
7
  6
CONTINUOUS
 10
245.3877189592
 20
343.4427076791
 11
246.0288786284
 21
343.4427076791
  0
LINE
  5
2CB
100
AcDbEntity
  8
0
100
AcDbLine
 62
7
  6
CONTINUOUS
 10
255.6351518685
 20
343.4427076791
 11
256.5238206754
 21
343.4427076791
  0
LINE
  5
2CC
100
AcDbEntity
  8
0
100
AcDbLine
 62
7
  6
CONTINUOUS
 10
237.666577062
 20
344.0810055499
 11
240.9428496701
 21
344.0810055499
  0
LINE
  5
2CD
100
AcDbEntity
  8
0
100
AcDbLine
 62
7
  6
CONTINUOUS
 10
243.38344687
 20
344.0810055499
 11
243.969112859
 21
344.0810055499
  0
LINE
  5
2CE
100
AcDbEntity
  8
0
100
AcDbLine
 62
7
  6
CONTINUOUS
 10
251.1191805216
 20
344.0810055499
 11
253.106524987
 21
344.0810055499
  0
LINE
  5
2CF
100
AcDbEntity
  8
0
100
AcDbLine
 62
7
  6
CONTINUOUS
 10
234.9593310996
 20
344.2937714819
 11
235.2397555159
 21
344.2937714819
  0
LINE
  5
2D0
100
AcDbEntity
  8
0
100
AcDbLine
 62
7
  6
CONTINUOUS
 10
242.8236331893
 20
344.2937714819
 11
243.4231745109
 21
344.2937714819
  0
LINE
  5
2D1
100
AcDbEntity
  8
0
100
AcDbLine
 62
7
  6
CONTINUOUS
 10
246.0662954845
 20
344.2937714819
 11
246.7194631923
 21
344.2937714819
  0
LINE
  5
2D2
100
AcDbEntity
  8
0
100
AcDbLine
 62
7
  6
CONTINUOUS
 10
250.2024697736
 20
344.2937714819
 11
250.9399372379
 21
344.2937714819
  0
LINE
  5
2D3
100
AcDbEntity
  8
0
100
AcDbLine
 62
7
  6
CONTINUOUS
 10
256.8807332073
 20
344.2937714819
 11
256.9455130904
 21
344.2937714819
  0
LINE
  5
2D4
100
AcDbEntity
  8
0
100
AcDbLine
 62
7
  6
CONTINUOUS
 10
242.4200884726
 20
344.7193034951
 11
243.0135704824
 21
344.7193034951
  0
LINE
  5
2D5
100
AcDbEntity
  8
0
100
AcDbLine
 62
7
  6
CONTINUOUS
 10
249.5450762774
 20
344.9320694272
 11
250.267704423
 21
344.9320694272
  0
LINE
  5
2D6
100
AcDbEntity
  8
0
100
AcDbLine
 62
7
  6
CONTINUOUS
 10
234.9547835302
 20
345.1448353593
 11
235.2397555159
 21
345.1448353593
  0
LINE
  5
2D7
100
AcDbEntity
  8
0
100
AcDbLine
 62
7
  6
CONTINUOUS
 10
246.417436218
 20
345.1448353593
 11
247.0769976486
 21
345.1448353593
  0
LINE
  5
2D8
100
AcDbEntity
  8
0
100
AcDbLine
 62
7
  6
CONTINUOUS
 10
242.1585948117
 20
345.3576012914
 11
242.7482158844
 21
345.3576012914
  0
LINE
  5
2D9
100
AcDbEntity
  8
0
100
AcDbLine
 62
7
  6
CONTINUOUS
 10
248.1028700362
 20
345.5703672235
 11
250.0493161218
 21
345.5703672235
  0
LINE
  5
2DA
100
AcDbEntity
  8
0
100
AcDbLine
 62
7
  6
CONTINUOUS
 10
242.030068768
 20
346.2086650197
 11
242.6178106502
 21
346.2086650197
  0
LINE
  5
2DB
100
AcDbEntity
  8
0
100
AcDbLine
 62
7
  6
CONTINUOUS
 10
246.5960715876
 20
346.2086650197
 11
247.2589344148
 21
346.2086650197
  0
LINE
  5
2DC
100
AcDbEntity
  8
0
100
AcDbLine
 62
7
  6
CONTINUOUS
 10
234.9509635036
 20
346.4214309518
 11
235.2397555159
 21
346.4214309518
  0
LINE
  5
2DD
100
AcDbEntity
  8
0
100
AcDbLine
 62
7
  6
CONTINUOUS
 10
256.8807332073
 20
347.0597290461
 11
256.9455130904
 21
347.0597290461
  0
LINE
  5
2DE
100
AcDbEntity
  8
0
100
AcDbLine
 62
7
  6
CONTINUOUS
 10
235.3954327218
 20
347.2724949781
 11
236.5771763186
 21
347.2724949781
  0
LINE
  5
2DF
100
AcDbEntity
  8
0
100
AcDbLine
 62
7
  6
CONTINUOUS
 10
251.5958950969
 20
347.2724949781
 11
253.106524987
 21
347.2724949781
  0
LINE
  5
2E0
100
AcDbEntity
  8
0
100
AcDbLine
 62
7
  6
CONTINUOUS
 10
234.9509635036
 20
347.4852609102
 11
235.2397555159
 21
347.4852609102
  0
LINE
  5
2E1
100
AcDbEntity
  8
0
100
AcDbLine
 62
7
  6
CONTINUOUS
 10
236.306309683
 20
347.4852609102
 11
236.8210586819
 21
347.4852609102
  0
LINE
  5
2E2
100
AcDbEntity
  8
0
100
AcDbLine
 62
7
  6
CONTINUOUS
 10
255.6351518685
 20
347.9107927744
 11
256.5238206754
 21
347.9107927744
  0
LINE
  5
2E3
100
AcDbEntity
  8
0
100
AcDbLine
 62
7
  6
CONTINUOUS
 10
236.5169977583
 20
348.1235587065
 11
237.0341088868
 21
348.1235587065
  0
LINE
  5
2E4
100
AcDbEntity
  8
0
100
AcDbLine
 62
7
  6
CONTINUOUS
 10
234.9547835302
 20
348.3363246386
 11
235.2397555159
 21
348.3363246386
  0
LINE
  5
2E5
100
AcDbEntity
  8
0
100
AcDbLine
 62
7
  6
CONTINUOUS
 10
254.4683222177
 20
348.3363246386
 11
255.3194312111
 21
348.3363246386
  0
LINE
  5
2E6
100
AcDbEntity
  8
0
100
AcDbLine
 62
7
  6
CONTINUOUS
 10
235.3954327218
 20
348.5490905706
 11
236.1113933165
 21
348.5490905706
  0
LINE
  5
2E7
100
AcDbEntity
  8
0
100
AcDbLine
 62
7
  6
CONTINUOUS
 10
251.5958950969
 20
348.5490905706
 11
253.9176779828
 21
348.5490905706
  0
LINE
  5
2E8
100
AcDbEntity
  8
RUNDUNGEN
100
AcDbLine
 62
7
  6
CONTINUOUS
 10
338.1917014143
 20
328.6628911025
 11
338.2723776816
 21
328.6459265512
  0
LINE
  5
2E9
100
AcDbEntity
  8
RUNDUNGEN
100
AcDbLine
 62
7
  6
CONTINUOUS
 10
338.1125145555
 20
328.6799186524
 11
338.1917014143
 21
328.6628911025
  0
LINE
  5
2EA
100
AcDbEntity
  8
RUNDUNGEN
100
AcDbLine
 62
7
  6
CONTINUOUS
 10
338.0347710293
 20
328.6969994425
 11
338.1125145555
 21
328.6799186524
  0
LINE
  5
2EB
100
AcDbEntity
  8
RUNDUNGEN
100
AcDbLine
 62
7
  6
CONTINUOUS
 10
337.9476294981
 20
328.7165745447
 11
338.0347710293
 21
328.6969994425
  0
LINE
  5
2EC
100
AcDbEntity
  8
RUNDUNGEN
100
AcDbLine
 62
7
  6
CONTINUOUS
 10
337.8622441059
 20
328.7361969054
 11
337.9476294981
 21
328.7165745447
  0
LINE
  5
2ED
100
AcDbEntity
  8
RUNDUNGEN
100
AcDbLine
 62
7
  6
CONTINUOUS
 10
337.7785460317
 20
328.755857291
 11
337.8622441059
 21
328.7361969054
  0
LINE
  5
2EE
100
AcDbEntity
  8
RUNDUNGEN
100
AcDbLine
 62
7
  6
CONTINUOUS
 10
337.696467597
 20
328.7755479714
 11
337.7785460317
 21
328.755857291
  0
LINE
  5
2EF
100
AcDbEntity
  8
RUNDUNGEN
100
AcDbLine
 62
7
  6
CONTINUOUS
 10
337.6159617401
 20
328.7952578214
 11
337.696467597
 21
328.7755479714
  0
LINE
  5
2F0
100
AcDbEntity
  8
RUNDUNGEN
100
AcDbLine
 62
7
  6
CONTINUOUS
 10
337.5369989383
 20
328.8149725486
 11
337.6159617401
 21
328.7952578214
  0
LINE
  5
2F1
100
AcDbEntity
  8
RUNDUNGEN
100
AcDbLine
 62
7
  6
CONTINUOUS
 10
337.4595498479
 20
328.8346787014
 11
337.5369989383
 21
328.8149725486
  0
LINE
  5
2F2
100
AcDbEntity
  8
RUNDUNGEN
100
AcDbLine
 62
7
  6
CONTINUOUS
 10
337.3741919474
 20
328.856822362
 11
337.4595498479
 21
328.8346787014
  0
LINE
  5
2F3
100
AcDbEntity
  8
RUNDUNGEN
100
AcDbLine
 62
7
  6
CONTINUOUS
 10
337.2906692833
 20
328.8789230505
 11
337.3741919474
 21
328.856822362
  0
LINE
  5
2F4
100
AcDbEntity
  8
RUNDUNGEN
100
AcDbLine
 62
7
  6
CONTINUOUS
 10
337.2089382914
 20
328.900965937
 11
337.2906692833
 21
328.8789230505
  0
LINE
  5
2F5
100
AcDbEntity
  8
RUNDUNGEN
100
AcDbLine
 62
7
  6
CONTINUOUS
 10
337.1289546532
 20
328.9229377126
 11
337.2089382914
 21
328.900965937
  0
LINE
  5
2F6
100
AcDbEntity
  8
RUNDUNGEN
100
AcDbLine
 62
7
  6
CONTINUOUS
 10
337.0506948934
 20
328.9448204799
 11
337.1289546532
 21
328.9229377126
  0
LWPOLYLINE
  5
2F7
100
AcDbEntity
  8
BEZUGSACHSEN
100
AcDbPolyline
 62
7
  6
CONTINUOUS
 90
4
 70
0
 10
336.3741405547
 20
329.1199167136
 10
337.4325731055
 20
328.8169624866
 10
338.5072404481
 20
328.5802088867
 10
339.5940367331
 20
328.4105077934
  0
LINE
  5
2F8
100
AcDbEntity
  8
RUNDUNGEN
100
AcDbLine
 62
7
  6
CONTINUOUS
 10
336.9742186709
 20
328.9665733517
 11
337.0506948934
 21
328.9448204799
  0
LINE
  5
2F9
100
AcDbEntity
  8
RUNDUNGEN
100
AcDbLine
 62
7
  6
CONTINUOUS
 10
336.8914299993
 20
328.9905342346
 11
336.9742186709
 21
328.9665733517
  0
LINE
  5
2FA
100
AcDbEntity
  8
RUNDUNGEN
100
AcDbLine
 62
7
  6
CONTINUOUS
 10
336.8110368853
 20
329.0142137992
 11
336.8914299993
 21
328.9905342346
  0
LINE
  5
2FB
100
AcDbEntity
  8
RUNDUNGEN
100
AcDbLine
 62
7
  6
CONTINUOUS
 10
336.7331310892
 20
329.0375495759
 11
336.8110368853
 21
329.0142137992
  0
LINE
  5
2FC
100
AcDbEntity
  8
RUNDUNGEN
100
AcDbLine
 62
7
  6
CONTINUOUS
 10
336.6578161107
 20
329.0604745599
 11
336.7331310892
 21
329.0375495759
  0
LINE
  5
2FD
100
AcDbEntity
  8
RUNDUNGEN
100
AcDbLine
 62
7
  6
CONTINUOUS
 10
336.5784600587
 20
329.0850195846
 11
336.6578161107
 21
329.0604745599
  0
LINE
  5
2FE
100
AcDbEntity
  8
RUNDUNGEN
100
AcDbLine
 62
7
  6
CONTINUOUS
 10
336.4969742625
 20
329.110641363
 11
336.5784600587
 21
329.0850195846
  0
LINE
  5
2FF
100
AcDbEntity
  8
RUNDUNGEN
100
AcDbLine
 62
7
  6
CONTINUOUS
 10
336.4216682816
 20
329.1346979215
 11
336.4969742625
 21
329.110641363
  0
LINE
  5
300
100
AcDbEntity
  8
RUNDUNGEN
100
AcDbLine
 62
7
  6
CONTINUOUS
 10
336.3666491483
 20
329.1525037561
 11
336.4216682816
 21
329.1346979215
  0
LINE
  5
301
100
AcDbEntity
  8
BEZUGSACHSEN
100
AcDbLine
 62
7
  6
CONTINUOUS
 10
335.3360049315
 20
329.4879650119
 11
336.3741405547
 21
329.1199167136
  0
LINE
  5
302
100
AcDbEntity
  8
BEZUGSACHSEN
100
AcDbLine
 62
7
  6
CONTINUOUS
 10
263.4455130904
 20
302.7744098084
 11
263.4455130904
 21
234.7744098084
  0
LINE
  5
303
100
AcDbEntity
  8
BEZUGSACHSEN
100
AcDbLine
 62
7
  6
CONTINUOUS
 10
265.7948779958
 20
390.2744098084
 11
265.7948779958
 21
416.425044903
  0
LINE
  5
304
100
AcDbEntity
  8
KONSTRUKTIONSELEMENTE
100
AcDbLine
 62
7
  6
CONTINUOUS
 10
266.2677150628
 20
419.7744098084
 11
266.2677150628
 21
419.9744098084
  0
LINE
  5
305
100
AcDbEntity
  8
KONSTRUKTIONSELEMENTE
100
AcDbLine
 62
7
  6
CONTINUOUS
 10
266.3801681815
 20
419.7744098084
 11
266.3801681815
 21
419.9744098084
  0
LINE
  5
306
100
AcDbEntity
  8
KONSTRUKTIONSELEMENTE
100
AcDbLine
 62
7
  6
CONTINUOUS
 10
266.8487228248
 20
419.7744098084
 11
266.8487228248
 21
419.9744098084
  0
LINE
  5
307
100
AcDbEntity
  8
KONSTRUKTIONSELEMENTE
100
AcDbLine
 62
7
  6
CONTINUOUS
 10
266.9799181657
 20
419.7744098084
 11
266.9799181657
 21
419.9744098084
  0
LINE
  5
308
100
AcDbEntity
  8
KONSTRUKTIONSELEMENTE
100
AcDbLine
 62
7
  6
CONTINUOUS
 10
267.1871523074
 20
419.7744098084
 11
267.1871523074
 21
419.9744098084
  0
LINE
  5
309
100
AcDbEntity
  8
KONSTRUKTIONSELEMENTE
100
AcDbLine
 62
7
  6
CONTINUOUS
 10
267.8174654285
 20
419.7744098084
 11
267.8174654285
 21
419.9744098084
  0
LINE
  5
30A
100
AcDbEntity
  8
KONSTRUKTIONSELEMENTE
100
AcDbLine
 62
7
  6
CONTINUOUS
 10
268.3165052052
 20
419.7744098084
 11
268.3165052052
 21
419.9744098084
  0
LINE
  5
30B
100
AcDbEntity
  8
KONSTRUKTIONSELEMENTE
100
AcDbLine
 62
7
  6
CONTINUOUS
 10
268.5616831888
 20
419.7744098084
 11
268.5616831888
 21
419.9744098084
  0
LINE
  5
30C
100
AcDbEntity
  8
KONSTRUKTIONSELEMENTE
100
AcDbLine
 62
7
  6
CONTINUOUS
 10
268.6755878449
 20
419.7744098084
 11
268.6755878449
 21
419.9744098084
  0
LINE
  5
30D
100
AcDbEntity
  8
KONSTRUKTIONSELEMENTE
100
AcDbLine
 62
7
  6
CONTINUOUS
 10
270.1760614768
 20
419.7744098084
 11
270.1760614768
 21
419.9744098084
  0
LINE
  5
30E
100
AcDbEntity
  8
0
100
AcDbLine
 62
7
  6
CONTINUOUS
 10
250.8855171142
 20
348.7618565027
 11
251.6390705906
 21
348.7618565027
  0
LINE
  5
30F
100
AcDbEntity
  8
0
100
AcDbLine
 62
7
  6
CONTINUOUS
 10
236.6854943961
 20
348.9746224348
 11
237.2045103729
 21
348.9746224348
  0
LINE
  5
310
100
AcDbEntity
  8
0
100
AcDbLine
 62
7
  6
CONTINUOUS
 10
250.2024697736
 20
349.1873883669
 11
250.9399372379
 21
349.1873883669
  0
LINE
  5
311
100
AcDbEntity
  8
0
100
AcDbLine
 62
7
  6
CONTINUOUS
 10
236.7436757352
 20
349.6129202311
 11
237.2459648371
 21
349.6129202311
  0
LINE
  5
312
100
AcDbEntity
  8
0
100
AcDbLine
 62
7
  6
CONTINUOUS
 10
249.9805635227
 20
349.8256861631
 11
250.7129534651
 21
349.8256861631
  0
LINE
  5
313
100
AcDbEntity
  8
0
100
AcDbLine
 62
7
  6
CONTINUOUS
 10
234.9547835302
 20
350.2512180273
 11
235.2397555159
 21
350.2512180273
  0
LINE
  5
314
100
AcDbEntity
  8
0
100
AcDbLine
 62
7
  6
CONTINUOUS
 10
249.9805635227
 20
350.2512180273
 11
250.7129534651
 21
350.2512180273
  0
LINE
  5
315
100
AcDbEntity
  8
0
100
AcDbLine
 62
7
  6
CONTINUOUS
 10
236.7436757352
 20
350.4639845554
 11
237.2459648371
 21
350.4639845554
  0
LINE
  5
316
100
AcDbEntity
  8
0
100
AcDbLine
 62
7
  6
CONTINUOUS
 10
254.7531936802
 20
350.4639845554
 11
256.9455130904
 21
350.4639845554
  0
LINE
  5
317
100
AcDbEntity
  8
0
100
AcDbLine
 62
7
  6
CONTINUOUS
 10
250.2024697736
 20
350.8895164196
 11
250.9399372379
 21
350.8895164196
  0
LINE
  5
318
100
AcDbEntity
  8
0
100
AcDbLine
 62
7
  6
CONTINUOUS
 10
236.6854943961
 20
351.1022823517
 11
237.2045103729
 21
351.1022823517
  0
LINE
  5
319
100
AcDbEntity
  8
0
100
AcDbLine
 62
7
  6
CONTINUOUS
 10
256.2474251439
 20
351.1022823517
 11
256.9455130904
 21
351.1022823517
  0
LINE
  5
31A
100
AcDbEntity
  8
0
100
AcDbLine
 62
7
  6
CONTINUOUS
 10
234.9593310996
 20
351.3150482838
 11
235.2397555159
 21
351.3150482838
  0
LINE
  5
31B
100
AcDbEntity
  8
0
100
AcDbLine
 62
7
  6
CONTINUOUS
 10
250.8855171142
 20
351.3150482838
 11
251.6390705906
 21
351.3150482838
  0
LINE
  5
31C
100
AcDbEntity
  8
0
100
AcDbLine
 62
7
  6
CONTINUOUS
 10
251.5958950969
 20
351.5278142159
 11
253.106524987
 21
351.5278142159
  0
LINE
  5
31D
100
AcDbEntity
  8
0
100
AcDbLine
 62
7
  6
CONTINUOUS
 10
235.3954327218
 20
351.7405801479
 11
236.1113933165
 21
351.7405801479
  0
LINE
  5
31E
100
AcDbEntity
  8
0
100
AcDbLine
 62
7
  6
CONTINUOUS
 10
236.5169977583
 20
351.95334608
 11
237.0341088868
 21
351.95334608
  0
LINE
  5
31F
100
AcDbEntity
  8
0
100
AcDbLine
 62
7
  6
CONTINUOUS
 10
255.33646068
 20
351.95334608
 11
256.2151974357
 21
351.95334608
  0
LINE
  5
320
100
AcDbEntity
  8
0
100
AcDbLine
 62
7
  6
CONTINUOUS
 10
234.9865746639
 20
352.1661120121
 11
235.2397555159
 21
352.1661120121
  0
LINE
  5
321
100
AcDbEntity
  8
0
100
AcDbLine
 62
7
  6
CONTINUOUS
 10
235.02832409
 20
352.5916438763
 11
235.2397555159
 21
352.5916438763
  0
LINE
  5
322
100
AcDbEntity
  8
0
100
AcDbLine
 62
7
  6
CONTINUOUS
 10
236.306309683
 20
352.5916438763
 11
236.8210586819
 21
352.5916438763
  0
LINE
  5
323
100
AcDbEntity
  8
0
100
AcDbLine
 62
7
  6
CONTINUOUS
 10
254.1877816188
 20
352.5916438763
 11
255.0303358674
 21
352.5916438763
  0
LINE
  5
324
100
AcDbEntity
  8
0
100
AcDbLine
 62
7
  6
CONTINUOUS
 10
235.1009689918
 20
352.8044098084
 11
236.5771763186
 21
352.8044098084
  0
LINE
  5
325
100
AcDbEntity
  8
0
100
AcDbLine
 62
7
  6
CONTINUOUS
 10
237.2459648371
 20
352.8044098084
 11
238.1969706799
 21
352.8044098084
  0
LINE
  5
326
100
AcDbEntity
  8
0
100
AcDbLine
 62
7
  6
CONTINUOUS
 10
241.2890979613
 20
352.8044098084
 11
242.6178106502
 21
352.8044098084
  0
LINE
  5
327
100
AcDbEntity
  8
0
100
AcDbLine
 62
7
  6
CONTINUOUS
 10
245.5544682417
 20
352.8044098084
 11
247.2589344148
 21
352.8044098084
  0
LINE
  5
328
100
AcDbEntity
  8
0
100
AcDbLine
 62
7
  6
CONTINUOUS
 10
251.5958950969
 20
352.8044098084
 11
253.6498154541
 21
352.8044098084
  0
LINE
  5
329
100
AcDbEntity
  8
KONSTRUKTIONSELEMENTE
100
AcDbLine
 62
7
  6
CONTINUOUS
 10
272.5465162585
 20
419.7744098084
 11
272.5465162585
 21
419.9744098084
  0
LINE
  5
32A
100
AcDbEntity
  8
KONSTRUKTIONSELEMENTE
100
AcDbLine
 62
7
  6
CONTINUOUS
 10
272.8854062414
 20
419.7744098084
 11
272.8854062414
 21
419.9744098084
  0
LINE
  5
32B
100
AcDbEntity
  8
KONSTRUKTIONSELEMENTE
100
AcDbLine
 62
7
  6
CONTINUOUS
 10
272.9705713677
 20
419.7744098084
 11
272.9705713677
 21
419.9744098084
  0
LINE
  5
32C
100
AcDbEntity
  8
KONSTRUKTIONSELEMENTE
100
AcDbLine
 62
7
  6
CONTINUOUS
 10
280.0125856827
 20
419.7744098084
 11
280.0125856827
 21
419.9744098084
  0
LINE
  5
32D
100
AcDbEntity
  8
KONSTRUKTIONSELEMENTE
100
AcDbLine
 62
7
  6
CONTINUOUS
 10
281.3037887014
 20
419.7744098084
 11
281.3037887014
 21
419.9744098084
  0
LINE
  5
32E
100
AcDbEntity
  8
KONSTRUKTIONSELEMENTE
100
AcDbLine
 62
7
  6
CONTINUOUS
 10
282.1613382138
 20
419.7744098084
 11
282.1613382138
 21
419.9744098084
  0
LINE
  5
32F
100
AcDbEntity
  8
0
100
AcDbLine
 62
7
  6
CONTINUOUS
 10
234.946789149
 20
361.0544098084
 11
237.079103813
 21
361.0544098084
  0
LINE
  5
330
100
AcDbEntity
  8
0
100
AcDbLine
 62
7
  6
CONTINUOUS
 10
234.9721871527
 20
361.3097289492
 11
235.3673931191
 21
361.3097289492
  0
LINE
  5
331
100
AcDbEntity
  8
0
100
AcDbLine
 62
7
  6
CONTINUOUS
 10
236.9124817536
 20
361.3097289492
 11
237.4340862389
 21
361.3097289492
  0
LINE
  5
332
100
AcDbEntity
  8
0
100
AcDbLine
 62
7
  6
CONTINUOUS
 10
235.0159814841
 20
361.8203672533
 11
235.3673931191
 21
361.8203672533
  0
LINE
  5
333
100
AcDbEntity
  8
0
100
AcDbLine
 62
7
  6
CONTINUOUS
 10
237.2198091592
 20
361.8203672533
 11
237.7449599964
 21
361.8203672533
  0
LINE
  5
334
100
AcDbEntity
  8
0
100
AcDbLine
 62
7
  6
CONTINUOUS
 10
234.9455130478
 20
362.5863246982
 11
234.9467891006
 21
362.5863246982
  0
LINE
  5
335
100
AcDbEntity
  8
0
100
AcDbLine
 62
7
  6
CONTINUOUS
 10
235.5917645587
 20
362.5863246982
 11
236.561491057
 21
362.5863246982
  0
LINE
  5
336
100
AcDbEntity
  8
0
100
AcDbLine
 62
7
  6
CONTINUOUS
 10
235.0807035058
 20
362.8416438167
 11
235.3673931191
 21
362.8416438167
  0
LINE
  5
337
100
AcDbEntity
  8
0
100
AcDbLine
 62
7
  6
CONTINUOUS
 10
237.5512399962
 20
362.8416438167
 11
238.080270087
 21
362.8416438167
  0
LINE
  5
338
100
AcDbEntity
  8
0
100
AcDbLine
 62
7
  6
CONTINUOUS
 10
235.1209378179
 20
363.8629204695
 11
235.3673931191
 21
363.8629204695
  0
LINE
  5
339
100
AcDbEntity
  8
0
100
AcDbLine
 62
7
  6
CONTINUOUS
 10
237.726158827
 20
363.8629204695
 11
238.2572596003
 21
363.8629204695
  0
LINE
  5
33A
100
AcDbEntity
  8
0
100
AcDbLine
 62
7
  6
CONTINUOUS
 10
235.1430288887
 20
365.139516062
 11
235.3673931191
 21
365.139516062
  0
LINE
  5
33B
100
AcDbEntity
  8
0
100
AcDbLine
 62
7
  6
CONTINUOUS
 10
237.8159492637
 20
365.139516062
 11
238.3481193192
 21
365.139516062
  0
LINE
  5
33C
100
AcDbEntity
  8
0
100
AcDbLine
 62
7
  6
CONTINUOUS
 10
237.8159492637
 20
368.9693031971
 11
238.3481193192
 21
368.9693031971
  0
LINE
  5
33D
100
AcDbEntity
  8
0
100
AcDbLine
 62
7
  6
CONTINUOUS
 10
237.726158827
 20
370.2458995049
 11
238.2572596003
 21
370.2458995049
  0
LINE
  5
33E
100
AcDbEntity
  8
0
100
AcDbLine
 62
7
  6
CONTINUOUS
 10
237.5512399962
 20
371.2671759789
 11
238.080270087
 21
371.2671759789
  0
LINE
  5
33F
100
AcDbEntity
  8
0
100
AcDbLine
 62
7
  6
CONTINUOUS
 10
235.5917645587
 20
371.5224950974
 11
236.561491057
 21
371.5224950974
  0
LINE
  5
340
100
AcDbEntity
  8
0
100
AcDbLine
 62
7
  6
CONTINUOUS
 10
237.2198091592
 20
372.2884524529
 11
237.7449599964
 21
372.2884524529
  0
LINE
  5
341
100
AcDbEntity
  8
KONSTRUKTIONSELEMENTE
100
AcDbLine
 62
7
  6
CONTINUOUS
 10
284.1622859856
 20
419.7744098084
 11
284.1622859856
 21
419.9744098084
  0
LINE
  5
342
100
AcDbEntity
  8
KONSTRUKTIONSELEMENTE
100
AcDbLine
 62
7
  6
CONTINUOUS
 10
285.3056875163
 20
419.7744098084
 11
285.3056875163
 21
419.9744098084
  0
LINE
  5
343
100
AcDbEntity
  8
KONSTRUKTIONSELEMENTE
100
AcDbLine
 62
7
  6
CONTINUOUS
 10
286.2901562832
 20
419.7744098084
 11
286.2901562832
 21
419.9744098084
  0
LINE
  5
344
100
AcDbEntity
  8
KONSTRUKTIONSELEMENTE
100
AcDbLine
 62
7
  6
CONTINUOUS
 10
287.3066352881
 20
419.7744098084
 11
287.3066352881
 21
419.9744098084
  0
LINE
  5
345
100
AcDbEntity
  8
KONSTRUKTIONSELEMENTE
100
AcDbLine
 62
7
  6
CONTINUOUS
 10
288.1641848005
 20
419.7744098084
 11
288.1641848005
 21
419.9744098084
  0
LINE
  5
346
100
AcDbEntity
  8
KONSTRUKTIONSELEMENTE
100
AcDbLine
 62
7
  6
CONTINUOUS
 10
290.0433455467
 20
419.7744098084
 11
290.0433455467
 21
419.9744098084
  0
LINE
  5
347
100
AcDbEntity
  8
KONSTRUKTIONSELEMENTE
100
AcDbLine
 62
7
  6
CONTINUOUS
 10
292.7418528384
 20
419.7744098084
 11
292.7418528384
 21
419.9744098084
  0
LINE
  5
348
100
AcDbEntity
  8
KONSTRUKTIONSELEMENTE
100
AcDbLine
 62
7
  6
CONTINUOUS
 10
293.5843753535
 20
419.7744098084
 11
293.5843753535
 21
419.9744098084
  0
LINE
  5
349
100
AcDbEntity
  8
KONSTRUKTIONSELEMENTE
100
AcDbLine
 62
7
  6
CONTINUOUS
 10
294.2559581217
 20
419.7744098084
 11
294.2559581217
 21
419.9744098084
  0
LINE
  5
34A
100
AcDbEntity
  8
0
100
AcDbLine
 62
7
  6
CONTINUOUS
 10
236.9124817536
 20
372.7990906899
 11
237.4340862389
 21
372.7990906899
  0
LINE
  5
34B
100
AcDbEntity
  8
0
100
AcDbLine
 62
7
  6
CONTINUOUS
 10
235.0301971958
 20
373.0544098084
 11
237.079103813
 21
373.0544098084
  0
LINE
  5
34C
100
AcDbEntity
  8
RUNDUNGEN
100
AcDbLine
 62
7
  6
CONTINUOUS
 10
240.4455130904
 20
381.2744098084
 11
327.9455130904
 21
381.2744098084
  0
LINE
  5
34D
100
AcDbEntity
  8
0
100
AcDbLine
 62
7
  6
CONTINUOUS
 10
327.9455130904
 20
381.5244098084
 11
239.9455130904
 21
381.5244098084
  0
LINE
  5
34E
100
AcDbEntity
  8
0
100
AcDbLine
 62
7
  6
CONTINUOUS
 10
328.1582250098
 20
376.2744098084
 11
327.9455139124
 21
376.2744376437
  0
LINE
  5
34F
100
AcDbEntity
  8
BEZUGSACHSEN
100
AcDbLine
 62
7
  6
CONTINUOUS
 10
355.732801171
 20
376.2744098084
 11
355.9455122677
 21
376.2744376438
  0
LINE
  5
350
100
AcDbEntity
  8
KONSTRUKTIONSELEMENTE
100
AcDbLine
 62
7
  6
CONTINUOUS
 10
295.6601633847
 20
419.7744098084
 11
295.6601633847
 21
419.9744098084
  0
LINE
  5
351
100
AcDbEntity
  8
KONSTRUKTIONSELEMENTE
100
AcDbLine
 62
7
  6
CONTINUOUS
 10
295.9479846095
 20
419.7744098084
 11
295.9479846095
 21
419.9744098084
  0
LINE
  5
352
100
AcDbEntity
  8
KONSTRUKTIONSELEMENTE
100
AcDbLine
 62
7
  6
CONTINUOUS
 10
297.094212536
 20
419.7744098084
 11
297.094212536
 21
419.9744098084
  0
LINE
  5
353
100
AcDbEntity
  8
KONSTRUKTIONSELEMENTE
100
AcDbLine
 62
7
  6
CONTINUOUS
 10
297.1344981723
 20
419.7744098084
 11
297.1344981723
 21
419.9744098084
  0
LINE
  5
354
100
AcDbEntity
  8
KONSTRUKTIONSELEMENTE
100
AcDbLine
 62
7
  6
CONTINUOUS
 10
297.4215631397
 20
419.7744098084
 11
297.4215631397
 21
419.9744098084
  0
LINE
  5
355
100
AcDbEntity
  8
KONSTRUKTIONSELEMENTE
100
AcDbLine
 62
7
  6
CONTINUOUS
 10
297.9285512731
 20
419.7744098084
 11
297.9285512731
 21
419.9744098084
  0
LINE
  5
356
100
AcDbEntity
  8
KONSTRUKTIONSELEMENTE
100
AcDbLine
 62
7
  6
CONTINUOUS
 10
298.6688920622
 20
419.7744098084
 11
298.6688920622
 21
419.9744098084
  0
LINE
  5
357
100
AcDbEntity
  8
KONSTRUKTIONSELEMENTE
100
AcDbLine
 62
7
  6
CONTINUOUS
 10
299.3958061855
 20
419.7744098084
 11
299.3958061855
 21
419.9744098084
  0
LINE
  5
358
100
AcDbEntity
  8
KONSTRUKTIONSELEMENTE
100
AcDbLine
 62
7
  6
CONTINUOUS
 10
300.3426406505
 20
419.7744098084
 11
300.3426406505
 21
419.9744098084
  0
LINE
  5
359
100
AcDbEntity
  8
KONSTRUKTIONSELEMENTE
100
AcDbLine
 62
7
  6
CONTINUOUS
 10
301.0426958034
 20
419.7744098084
 11
301.0426958034
 21
419.9744098084
  0
LINE
  5
35A
100
AcDbEntity
  8
KONSTRUKTIONSELEMENTE
100
AcDbLine
 62
7
  6
CONTINUOUS
 10
301.8392830685
 20
419.7744098084
 11
301.8392830685
 21
419.9744098084
  0
LINE
  5
35B
100
AcDbEntity
  8
KONSTRUKTIONSELEMENTE
100
AcDbLine
 62
7
  6
CONTINUOUS
 10
302.1691677884
 20
419.7744098084
 11
302.1691677884
 21
419.9744098084
  0
LINE
  5
35C
100
AcDbEntity
  8
KONSTRUKTIONSELEMENTE
100
AcDbLine
 62
7
  6
CONTINUOUS
 10
302.4721964872
 20
419.7744098084
 11
302.4721964872
 21
419.9744098084
  0
LINE
  5
35D
100
AcDbEntity
  8
KONSTRUKTIONSELEMENTE
100
AcDbLine
 62
7
  6
CONTINUOUS
 10
302.5284428861
 20
419.7744098084
 11
302.5284428861
 21
419.9744098084
  0
LINE
  5
35E
100
AcDbEntity
  8
KONSTRUKTIONSELEMENTE
100
AcDbLine
 62
7
  6
CONTINUOUS
 10
303.2284980006
 20
419.7744098084
 11
303.2284980006
 21
419.9744098084
  0
LINE
  5
35F
100
AcDbEntity
  8
KONSTRUKTIONSELEMENTE
100
AcDbLine
 62
7
  6
CONTINUOUS
 10
303.9151264396
 20
419.7744098084
 11
303.9151264396
 21
419.9744098084
  0
LINE
  5
360
100
AcDbEntity
  8
KONSTRUKTIONSELEMENTE
100
AcDbLine
 62
7
  6
CONTINUOUS
 10
304.2450111594
 20
419.7744098084
 11
304.2450111594
 21
419.9744098084
  0
LINE
  5
361
100
AcDbEntity
  8
KONSTRUKTIONSELEMENTE
100
AcDbLine
 62
7
  6
CONTINUOUS
 10
304.5480371881
 20
419.7744098084
 11
304.5480371881
 21
419.9744098084
  0
LINE
  5
362
100
AcDbEntity
  8
0
100
AcDbLine
 62
7
  6
CONTINUOUS
 10
327.9455130904
 20
389.7744098084
 11
239.9455130904
 21
389.7744098084
  0
LINE
  5
363
100
AcDbEntity
  8
KONSTRUKTIONSELEMENTE
100
AcDbLine
 62
7
  6
CONTINUOUS
 10
244.1442429012
 20
390.2744098084
 11
327.9455130904
 21
390.2744098084
  0
LINE
  5
364
100
AcDbEntity
  8
BEZUGSACHSEN
100
AcDbLine
 62
7
  6
CONTINUOUS
 10
309.096148185
 20
390.2744098084
 11
309.096148185
 21
416.425044903
  0
LINE
  5
365
100
AcDbEntity
  8
BEZUGSACHSEN
100
AcDbLine
 62
7
  6
CONTINUOUS
 10
311.4455130904
 20
234.7744098084
 11
311.4455130904
 21
302.7744098084
  0
LINE
  5
366
100
AcDbEntity
  8
BEZUGSACHSEN
100
AcDbLine
 62
7
  6
CONTINUOUS
 10
355.9456819881
 20
470.0067531553
 11
354.9455130904
 21
468.2744098084
  0
LWPOLYLINE
  5
367
100
AcDbEntity
  8
BEZUGSACHSEN
100
AcDbPolyline
 62
7
  6
CONTINUOUS
 90
19
 70
0
 10
324.0580313221
 20
344.2036172691
 10
324.1426482288
 20
343.5547536922
 10
324.3406710066
 20
342.4580850968
 10
324.6057614149
 20
341.3766516355
 10
324.9368209194
 20
340.3145458405
 10
325.3325036937
 20
339.275769899
 10
325.7912208642
 20
338.2642341005
 10
326.311140443
 20
337.2837523475
 10
326.8902016542
 20
336.3380096013
 10
327.5261014982
 20
335.4305809876
 10
328.2163665948
 20
334.5648292052
 10
328.958307178
 20
333.7439839469
 10
329.7490516572
 20
332.9710952021
 10
330.5855447323
 20
332.2490374954
 10
331.4645591818
 20
331.5804963683
 10
332.3827049701
 20
330.9679586801
 10
333.3364561697
 20
330.4136934457
 10
334.3221489465
 20
329.9197541822
 10
335.3360049315
 20
329.4879650119
  0
LWPOLYLINE
  5
368
100
AcDbEntity
  8
RUNDUNGEN
100
AcDbPolyline
 62
7
  6
CONTINUOUS
 90
25
 70
0
 10
324.0580310075
 20
344.2036200767
 10
324.1407390093
 20
343.5676103931
 10
324.3380920174
 20
342.4702342714
 10
324.6025915694
 20
341.3880631538
 10
324.9331401389
 20
340.325196623
 10
325.3283923026
 20
339.2856439286
 10
325.7867591046
 20
338.2733221691
 10
326.3064079408
 20
337.2920520392
 10
326.8852769088
 20
336.3455251402
 10
327.5210613482
 20
335.4373231493
 10
328.2112857455
 20
334.5708150253
 10
328.9532577173
 20
333.7492365456
 10
329.7441025913
 20
332.9756435289
 10
330.5807615409
 20
332.2529160522
 10
331.4600034198
 20
331.5837448783
 10
332.3784338587
 20
330.970621754
 10
333.3325222933
 20
330.4158201629
 10
334.3185999403
 20
329.9213976952
 10
335.332883054
 20
329.4891821838
 10
336.371482392
 20
329.1207676591
 10
337.4304095504
 20
328.817510026
 10
338.5055966308
 20
328.5805180675
 10
339.5929311718
 20
328.4106455362
 10
340.6882558327
 20
328.3084938685
 10
341.7873614803
 20
328.2744098084
  0
LINE
  5
369
100
AcDbEntity
  8
0
100
AcDbLine
 62
7
  6
CONTINUOUS
 10
321.1955130904
 20
381.5244098084
 11
321.1955130904
 21
381.2744098084
  0
LINE
  5
36A
100
AcDbEntity
  8
0
100
AcDbLine
 62
7
  6
CONTINUOUS
 10
321.1955130904
 20
311.2744098084
 11
321.1955130904
 21
311.0244098084
  0
LINE
  5
36B
100
AcDbEntity
  8
KONSTRUKTIONSELEMENTE
100
AcDbLine
 62
7
  6
CONTINUOUS
 10
322.1455130904
 20
389.7744098084
 11
322.1455130904
 21
390.2744098084
  0
LINE
  5
36C
100
AcDbEntity
  8
BEZUGSACHSEN
100
AcDbLine
 62
7
  6
CONTINUOUS
 10
322.1455130904
 20
389.7744098084
 11
322.1455130904
 21
390.2744098084
  0
LINE
  5
36D
100
AcDbEntity
  8
RUNDUNGEN
100
AcDbLine
 62
7
  6
CONTINUOUS
 10
323.9455130904
 20
538.7539165718
 11
323.9455130904
 21
522.9521697196
  0
LINE
  5
36E
100
AcDbEntity
  8
BEZUGSACHSEN
100
AcDbLine
 62
7
  6
CONTINUOUS
 10
323.9455130904
 20
522.9521697196
 11
323.9455130904
 21
538.7539165718
  0
LINE
  5
36F
100
AcDbEntity
  8
0
100
AcDbLine
 62
7
  6
CONTINUOUS
 10
324.8186711983
 20
345.751688374
 11
324.8186711982
 21
348.1585211334
  0
LINE
  5
370
100
AcDbEntity
  8
BEZUGSACHSEN
100
AcDbLine
 62
7
  6
CONTINUOUS
 10
325.9455130904
 20
550.5206209714
 11
325.9455130904
 21
533.1561083828
  0
LINE
  5
371
100
AcDbEntity
  8
0
100
AcDbLine
 62
7
  6
CONTINUOUS
 10
325.9455130904
 20
533.1561083828
 11
325.9455130904
 21
522.5622082705
  0
LINE
  5
372
100
AcDbEntity
  8
RUNDUNGEN
100
AcDbLine
 62
7
  6
CONTINUOUS
 10
325.9455130904
 20
522.5622082705
 11
325.9455130904
 21
521.4848387695
  0
LINE
  5
373
100
AcDbEntity
  8
BEZUGSACHSEN
100
AcDbLine
 62
7
  6
CONTINUOUS
 10
327.9455130904
 20
376.2744414823
 11
327.9455130904
 21
406.5611040483
  0
LINE
  5
374
100
AcDbEntity
  8
BEZUGSACHSEN
100
AcDbLine
 62
7
  6
CONTINUOUS
 10
327.9455130904
 20
469.9877155684
 11
327.9455130904
 21
479.6540208442
  0
LINE
  5
375
100
AcDbEntity
  8
0
100
AcDbLine
 62
7
  6
CONTINUOUS
 10
328.4455130904
 20
425.7455031969
 11
328.4455130904
 21
432.8705033757
  0
LINE
  5
376
100
AcDbEntity
  8
0
100
AcDbLine
 62
7
  6
CONTINUOUS
 10
328.4455130904
 20
434.3705030181
 11
328.4455130904
 21
441.1205035545
  0
LINE
  5
377
100
AcDbEntity
  8
0
100
AcDbLine
 62
7
  6
CONTINUOUS
 10
328.4455130904
 20
442.6205031969
 11
328.4455130904
 21
448.7972269849
  0
LINE
  5
378
100
AcDbEntity
  8
0
100
AcDbLine
 62
7
  6
CONTINUOUS
 10
328.4455130904
 20
448.8080031969
 11
328.4455130904
 21
450.1205024816
  0
LINE
  5
379
100
AcDbEntity
  8
0
100
AcDbLine
 62
7
  6
CONTINUOUS
 10
328.4455130904
 20
451.4972269849
 11
328.4455130904
 21
456.4472269849
  0
LINE
  5
37A
100
AcDbEntity
  8
0
100
AcDbLine
 62
7
  6
CONTINUOUS
 10
328.9455130904
 20
408.2744098084
 11
328.9455130904
 21
468.2744098084
  0
LINE
  5
37B
100
AcDbEntity
  8
RUNDUNGEN
100
AcDbLine
 62
7
  6
CONTINUOUS
 10
329.9455130904
 20
481.3310697813
 11
329.9455130904
 21
479.6540208442
  0
LINE
  5
37C
100
AcDbEntity
  8
0
100
AcDbLine
 62
7
  6
CONTINUOUS
 10
329.9455130904
 20
474.941984245
 11
329.9455130904
 21
479.6540208442
  0
LINE
  5
37D
100
AcDbEntity
  8
0
100
AcDbLine
 62
7
  6
CONTINUOUS
 10
327.9467504706
 20
376.2743790626
 11
327.7285509303
 21
373.9120207275
  0
LINE
  5
37E
100
AcDbEntity
  8
0
100
AcDbLine
 62
7
  6
CONTINUOUS
 10
327.9453441927
 20
406.5420664614
 11
328.9455130904
 21
408.2744098084
  0
LINE
  5
37F
100
AcDbEntity
  8
BEZUGSACHSEN
100
AcDbLine
 62
7
  6
CONTINUOUS
 10
249.9456800792
 20
419.7744098084
 11
324.9453461017
 21
419.7744098084
  0
LINE
  5
380
100
AcDbEntity
  8
KONSTRUKTIONSELEMENTE
100
AcDbLine
 62
7
  6
CONTINUOUS
 10
256.3526215027
 20
419.9744098084
 11
272.9705713677
 21
419.9744098084
  0
LINE
  5
381
100
AcDbEntity
  8
KONSTRUKTIONSELEMENTE
100
AcDbLine
 62
7
  6
CONTINUOUS
 10
280.0125856827
 20
419.9744098084
 11
288.1641848005
 21
419.9744098084
  0
LINE
  5
382
100
AcDbEntity
  8
KONSTRUKTIONSELEMENTE
100
AcDbLine
 62
7
  6
CONTINUOUS
 10
290.0433455467
 20
419.9744098084
 11
295.9479846095
 21
419.9744098084
  0
LINE
  5
383
100
AcDbEntity
  8
KONSTRUKTIONSELEMENTE
100
AcDbLine
 62
7
  6
CONTINUOUS
 10
297.094212536
 20
419.9744098084
 11
304.5480371881
 21
419.9744098084
  0
LINE
  5
384
100
AcDbEntity
  8
RUNDUNGEN
100
AcDbLine
 62
7
  6
CONTINUOUS
 10
327.2493002614
 20
488.8984324016
 11
327.36124786
 21
487.8333221487
  0
LINE
  5
385
100
AcDbEntity
  8
RUNDUNGEN
100
AcDbLine
 62
7
  6
CONTINUOUS
 10
327.5550584101
 20
485.9893379393
 11
327.6716078588
 21
484.8804440076
  0
LINE
  5
386
100
AcDbEntity
  8
RUNDUNGEN
100
AcDbLine
 62
7
  6
CONTINUOUS
 10
327.1674473052
 20
489.6772112585
 11
324.2194201581
 21
517.7258159562
  0
LINE
  5
387
100
AcDbEntity
  8
RUNDUNGEN
100
AcDbLine
 62
7
  6
CONTINUOUS
 10
326.055075183
 20
519.3942695041
 11
327.0115598087
 21
510.2939261803
  0
LINE
  5
388
100
AcDbEntity
  8
0
100
AcDbLine
 62
7
  6
CONTINUOUS
 10
327.0115598087
 20
510.2939261803
 11
329.6606516493
 21
485.089500937
  0
LINE
  5
389
100
AcDbEntity
  8
RUNDUNGEN
100
AcDbLine
 62
7
  6
CONTINUOUS
 10
329.6606516493
 20
485.089500937
 11
329.8359509978
 21
483.4216390466
  0
LINE
  5
38A
100
AcDbEntity
  8
0
100
AcDbLine
 62
7
  6
CONTINUOUS
 10
334.9455130904
 20
311.0244098084
 11
334.9455130904
 21
302.7744098084
  0
LWPOLYLINE
  5
38B
100
AcDbEntity
  8
0
100
AcDbPolyline
 62
7
  6
CONTINUOUS
 90
10
 70
0
 10
325.5479149938
 20
353.8501549835
 10
325.5275027566
 20
353.727517469
 10
325.4818643522
 20
353.4609497085
 10
325.4399128046
 20
353.2258202167
 10
325.4021032073
 20
353.022809509
 10
325.3689038989
 20
352.8523381274
 10
325.3409685612
 20
352.7154034522
 10
325.3189650031
 20
352.6126207295
 10
325.3038166299
 20
352.545294007
 10
325.2965310123
 20
352.5144754866
  0
LINE
  5
38C
100
AcDbEntity
  8
0
100
AcDbLine
 62
7
  6
CONTINUOUS
 10
328.9455130904
 20
425.7455031969
 11
328.4455130904
 21
425.7455031969
  0
LINE
  5
38D
100
AcDbEntity
  8
0
100
AcDbLine
 62
7
  6
CONTINUOUS
 10
328.9455130904
 20
426.8705031969
 11
328.4455130904
 21
426.8705031969
  0
LINE
  5
38E
100
AcDbEntity
  8
0
100
AcDbLine
 62
7
  6
CONTINUOUS
 10
328.9455130904
 20
430.0580031075
 11
328.4455130904
 21
430.0580031075
  0
LINE
  5
38F
100
AcDbEntity
  8
0
100
AcDbLine
 62
7
  6
CONTINUOUS
 10
328.9455130904
 20
431.5580030181
 11
328.4455130904
 21
431.5580030181
  0
LINE
  5
390
100
AcDbEntity
  8
BEZUGSACHSEN
100
AcDbLine
 62
7
  6
CONTINUOUS
 10
328.9455130904
 20
417.4650087316
 11
324.9455130904
 21
419.7744098084
  0
LINE
  5
391
100
AcDbEntity
  8
BEZUGSACHSEN
100
AcDbLine
 62
7
  6
CONTINUOUS
 10
356.1624748635
 20
373.9120249161
 11
355.9442757101
 21
376.2743790628
  0
LINE
  5
392
100
AcDbEntity
  8
BEZUGSACHSEN
100
AcDbLine
 62
7
  6
CONTINUOUS
 10
353.9455130904
 20
474.941984245
 11
353.9455130904
 21
481.3310697813
  0
LINE
  5
393
100
AcDbEntity
  8
BEZUGSACHSEN
100
AcDbLine
 62
7
  6
CONTINUOUS
 10
357.8359509978
 20
519.3942695041
 11
354.055075183
 21
483.4216390466
  0
LINE
  5
394
100
AcDbEntity
  8
BEZUGSACHSEN
100
AcDbLine
 62
7
  6
CONTINUOUS
 10
356.3359677707
 20
485.9893379393
 11
356.219418322
 21
484.8804440076
  0
LINE
  5
395
100
AcDbEntity
  8
BEZUGSACHSEN
100
AcDbLine
 62
7
  6
CONTINUOUS
 10
356.5297783208
 20
487.8333221487
 11
356.6417259195
 21
488.8984324016
  0
LINE
  5
396
100
AcDbEntity
  8
BEZUGSACHSEN
100
AcDbLine
 62
7
  6
CONTINUOUS
 10
356.7235788756
 20
489.6772112585
 11
359.6716060227
 21
517.7258159562
  0
LINE
  5
397
100
AcDbEntity
  8
0
100
AcDbLine
 62
7
  6
CONTINUOUS
 10
328.9455130904
 20
432.8705033757
 11
328.4455130904
 21
432.8705033757
  0
LINE
  5
398
100
AcDbEntity
  8
0
100
AcDbLine
 62
7
  6
CONTINUOUS
 10
328.9455130904
 20
434.3705030181
 11
328.4455130904
 21
434.3705030181
  0
LINE
  5
399
100
AcDbEntity
  8
0
100
AcDbLine
 62
7
  6
CONTINUOUS
 10
328.9455130904
 20
434.5580033757
 11
328.4455130904
 21
434.5580033757
  0
LINE
  5
39A
100
AcDbEntity
  8
0
100
AcDbLine
 62
7
  6
CONTINUOUS
 10
328.9455130904
 20
434.9330035545
 11
328.4455130904
 21
434.9330035545
  0
LINE
  5
39B
100
AcDbEntity
  8
0
100
AcDbLine
 62
7
  6
CONTINUOUS
 10
328.9455130904
 20
435.6830028393
 11
328.4455130904
 21
435.6830028393
  0
LINE
  5
39C
100
AcDbEntity
  8
0
100
AcDbLine
 62
7
  6
CONTINUOUS
 10
328.9455130904
 20
436.4330031969
 11
328.4455130904
 21
436.4330031969
  0
LINE
  5
39D
100
AcDbEntity
  8
0
100
AcDbLine
 62
7
  6
CONTINUOUS
 10
328.9455130904
 20
437.3705028393
 11
328.4455130904
 21
437.3705028393
  0
LINE
  5
39E
100
AcDbEntity
  8
0
100
AcDbLine
 62
7
  6
CONTINUOUS
 10
328.9455130904
 20
438.1205031969
 11
328.4455130904
 21
438.1205031969
  0
LINE
  5
39F
100
AcDbEntity
  8
0
100
AcDbLine
 62
7
  6
CONTINUOUS
 10
328.9455130904
 20
439.0580028393
 11
328.4455130904
 21
439.0580028393
  0
LINE
  5
3A0
100
AcDbEntity
  8
0
100
AcDbLine
 62
7
  6
CONTINUOUS
 10
328.9455130904
 20
439.8080031969
 11
328.4455130904
 21
439.8080031969
  0
LINE
  5
3A1
100
AcDbEntity
  8
0
100
AcDbLine
 62
7
  6
CONTINUOUS
 10
328.9455130904
 20
440.5580035545
 11
328.4455130904
 21
440.5580035545
  0
LINE
  5
3A2
100
AcDbEntity
  8
0
100
AcDbLine
 62
7
  6
CONTINUOUS
 10
328.9455130904
 20
440.9330031969
 11
328.4455130904
 21
440.9330031969
  0
LINE
  5
3A3
100
AcDbEntity
  8
0
100
AcDbLine
 62
7
  6
CONTINUOUS
 10
328.9455130904
 20
441.1205035545
 11
328.4455130904
 21
441.1205035545
  0
LINE
  5
3A4
100
AcDbEntity
  8
0
100
AcDbLine
 62
7
  6
CONTINUOUS
 10
328.9455130904
 20
442.6205031969
 11
328.4455130904
 21
442.6205031969
  0
LINE
  5
3A5
100
AcDbEntity
  8
0
100
AcDbLine
 62
7
  6
CONTINUOUS
 10
328.9455130904
 20
443.8472269849
 11
328.4455130904
 21
443.8472269849
  0
LWPOLYLINE
  5
3A6
100
AcDbEntity
  8
BEZUGSACHSEN
100
AcDbPolyline
 62
7
  6
CONTINUOUS
 90
9
 70
0
 10
358.5936493923
 20
352.5177379355
 10
358.5941360023
 20
352.5159515385
 10
358.5860230067
 20
352.5504348657
 10
358.5702136909
 20
352.6210474931
 10
358.5474876699
 20
352.7277221505
 10
358.5185981195
 20
352.8700576316
 10
358.4842270045
 20
353.0475326386
 10
358.4449692662
 20
353.2596307065
 10
358.4013906725
 20
353.5055714551
  0
LINE
  5
3A7
100
AcDbEntity
  8
BEZUGSACHSEN
100
AcDbLine
 62
7
  6
CONTINUOUS
 10
358.4013906725
 20
353.5055714551
 11
358.3431643471
 21
353.8498329459
  0
LINE
  5
3A8
100
AcDbEntity
  8
BEZUGSACHSEN
100
AcDbLine
 62
7
  6
CONTINUOUS
 10
354.9455130904
 20
408.2744098084
 11
354.9455130904
 21
468.2744098084
  0
LINE
  5
3A9
100
AcDbEntity
  8
BEZUGSACHSEN
100
AcDbLine
 62
7
  6
CONTINUOUS
 10
355.9455130904
 20
479.6540208442
 11
355.9455130904
 21
469.9877155684
  0
LINE
  5
3AA
100
AcDbEntity
  8
BEZUGSACHSEN
100
AcDbLine
 62
7
  6
CONTINUOUS
 10
355.9455130904
 20
406.5611040483
 11
355.9455130904
 21
376.2744414823
  0
LINE
  5
3AB
100
AcDbEntity
  8
BEZUGSACHSEN
100
AcDbLine
 62
7
  6
CONTINUOUS
 10
357.9455130904
 20
550.5206209714
 11
357.9455130904
 21
521.4848387695
  0
LINE
  5
3AC
100
AcDbEntity
  8
BEZUGSACHSEN
100
AcDbLine
 62
7
  6
CONTINUOUS
 10
359.0723549825
 20
345.751688374
 11
359.0723549826
 21
348.1585211334
  0
LINE
  5
3AD
100
AcDbEntity
  8
BEZUGSACHSEN
100
AcDbLine
 62
7
  6
CONTINUOUS
 10
359.9455130904
 20
538.7539165718
 11
359.9455130904
 21
522.9521697196
  0
LINE
  5
3AE
100
AcDbEntity
  8
BEZUGSACHSEN
100
AcDbLine
 62
7
  6
CONTINUOUS
 10
359.7483779521
 20
343.5547536922
 11
359.8329948588
 21
344.2036172691
  0
LINE
  5
3AF
100
AcDbEntity
  8
0
100
AcDbLine
 62
7
  6
CONTINUOUS
 10
328.9455130904
 20
448.7972269849
 11
328.4455130904
 21
448.7972269849
  0
LINE
  5
3B0
100
AcDbEntity
  8
0
100
AcDbLine
 62
7
  6
CONTINUOUS
 10
328.9455130904
 20
448.8080031969
 11
328.4455130904
 21
448.8080031969
  0
LINE
  5
3B1
100
AcDbEntity
  8
0
100
AcDbLine
 62
7
  6
CONTINUOUS
 10
328.9455130904
 20
449.5580024816
 11
328.4455130904
 21
449.5580024816
  0
LINE
  5
3B2
100
AcDbEntity
  8
0
100
AcDbLine
 62
7
  6
CONTINUOUS
 10
328.9455130904
 20
449.9330031969
 11
328.4455130904
 21
449.9330031969
  0
LINE
  5
3B3
100
AcDbEntity
  8
0
100
AcDbLine
 62
7
  6
CONTINUOUS
 10
328.9455130904
 20
450.1205024816
 11
328.4455130904
 21
450.1205024816
  0
LINE
  5
3B4
100
AcDbEntity
  8
0
100
AcDbLine
 62
7
  6
CONTINUOUS
 10
328.9455130904
 20
451.4972269849
 11
328.4455130904
 21
451.4972269849
  0
LINE
  5
3B5
100
AcDbEntity
  8
0
100
AcDbLine
 62
7
  6
CONTINUOUS
 10
328.9455130904
 20
456.4472269849
 11
328.4455130904
 21
456.4472269849
  0
LINE
  5
3B6
100
AcDbEntity
  8
BEZUGSACHSEN
100
AcDbLine
 62
7
  6
CONTINUOUS
 10
355.9456819881
 20
406.5420664614
 11
354.9455130904
 21
408.2744098084
  0
LINE
  5
3B7
100
AcDbEntity
  8
0
100
AcDbLine
 62
7
  6
CONTINUOUS
 10
327.9453441927
 20
470.0067531553
 11
328.9455130904
 21
468.2744098084
  0
LINE
  5
3B8
100
AcDbEntity
  8
BEZUGSACHSEN
100
AcDbLine
 62
7
  6
CONTINUOUS
 10
359.5503551742
 20
342.4580850968
 11
359.7502871715
 21
343.5676103931
  0
LINE
  5
3B9
100
AcDbEntity
  8
BEZUGSACHSEN
100
AcDbLine
 62
7
  6
CONTINUOUS
 10
359.285264766
 20
341.3766516355
 11
359.5529341634
 21
342.4702342714
  0
LINE
  5
3BA
100
AcDbEntity
  8
BEZUGSACHSEN
100
AcDbLine
 62
7
  6
CONTINUOUS
 10
358.9542052614
 20
340.3145458406
 11
359.2884346114
 21
341.3880631538
  0
LINE
  5
3BB
100
AcDbEntity
  8
BEZUGSACHSEN
100
AcDbLine
 62
7
  6
CONTINUOUS
 10
358.5585224871
 20
339.275769899
 11
358.9578860419
 21
340.325196623
  0
LINE
  5
3BC
100
AcDbEntity
  8
BEZUGSACHSEN
100
AcDbLine
 62
7
  6
CONTINUOUS
 10
358.0998053166
 20
338.2642341006
 11
358.5626338782
 21
339.2856439286
  0
LINE
  5
3BD
100
AcDbEntity
  8
BEZUGSACHSEN
100
AcDbLine
 62
7
  6
CONTINUOUS
 10
357.5798857378
 20
337.2837523475
 11
358.1042670763
 21
338.2733221691
  0
LINE
  5
3BE
100
AcDbEntity
  8
BEZUGSACHSEN
100
AcDbLine
 62
7
  6
CONTINUOUS
 10
357.0008245266
 20
336.3380096014
 11
357.58461824
 21
337.2920520392
  0
LINE
  5
3BF
100
AcDbEntity
  8
BEZUGSACHSEN
100
AcDbLine
 62
7
  6
CONTINUOUS
 10
356.3649246827
 20
335.4305809876
 11
357.005749272
 21
336.3455251402
  0
LINE
  5
3C0
100
AcDbEntity
  8
BEZUGSACHSEN
100
AcDbLine
 62
7
  6
CONTINUOUS
 10
355.6746595861
 20
334.5648292052
 11
356.3699648326
 21
335.4373231493
  0
LINE
  5
3C1
100
AcDbEntity
  8
BEZUGSACHSEN
100
AcDbLine
 62
7
  6
CONTINUOUS
 10
354.9327190028
 20
333.7439839469
 11
355.6797404353
 21
334.5708150253
  0
LINE
  5
3C2
100
AcDbEntity
  8
BEZUGSACHSEN
100
AcDbLine
 62
7
  6
CONTINUOUS
 10
354.1419745237
 20
332.9710952021
 11
354.9377684635
 21
333.7492365456
  0
LINE
  5
3C3
100
AcDbEntity
  8
BEZUGSACHSEN
100
AcDbLine
 62
7
  6
CONTINUOUS
 10
353.3054814486
 20
332.2490374954
 11
354.1469235895
 21
332.9756435289
  0
LINE
  5
3C4
100
AcDbEntity
  8
BEZUGSACHSEN
100
AcDbLine
 62
7
  6
CONTINUOUS
 10
352.4264669991
 20
331.5804963683
 11
353.3102646399
 21
332.2529160522
  0
LINE
  5
3C5
100
AcDbEntity
  8
BEZUGSACHSEN
100
AcDbLine
 62
7
  6
CONTINUOUS
 10
351.5083212108
 20
330.9679586802
 11
352.431022761
 21
331.5837448783
  0
LINE
  5
3C6
100
AcDbEntity
  8
BEZUGSACHSEN
100
AcDbLine
 62
7
  6
CONTINUOUS
 10
350.5545700112
 20
330.4136934458
 11
351.5125923221
 21
330.970621754
  0
LINE
  5
3C7
100
AcDbEntity
  8
BEZUGSACHSEN
100
AcDbLine
 62
7
  6
CONTINUOUS
 10
349.5688772344
 20
329.9197541823
 11
350.5585038875
 21
330.4158201629
  0
LINE
  5
3C8
100
AcDbEntity
  8
BEZUGSACHSEN
100
AcDbLine
 62
7
  6
CONTINUOUS
 10
348.5550212494
 20
329.487965012
 11
349.5724262405
 21
329.9213976952
  0
LINE
  5
3C9
100
AcDbEntity
  8
BEZUGSACHSEN
100
AcDbLine
 62
7
  6
CONTINUOUS
 10
347.5195437888
 20
329.1207676591
 11
348.5581431268
 21
329.4891821838
  0
LINE
  5
3CA
100
AcDbEntity
  8
BEZUGSACHSEN
100
AcDbLine
 62
7
  6
CONTINUOUS
 10
347.4471640275
 20
329.1275702778
 11
347.5247274426
 21
329.1526177792
  0
LINE
  5
3CB
100
AcDbEntity
  8
BEZUGSACHSEN
100
AcDbLine
 62
7
  6
CONTINUOUS
 10
347.3710983601
 20
329.1033810764
 11
347.4471640275
 21
329.1275702778
  0
LINE
  5
3CC
100
AcDbEntity
  8
BEZUGSACHSEN
100
AcDbLine
 62
7
  6
CONTINUOUS
 10
347.2947333977
 20
329.0794689414
 11
347.3710983601
 21
329.1033810764
  0
LINE
  5
3CD
100
AcDbEntity
  8
BEZUGSACHSEN
100
AcDbLine
 62
7
  6
CONTINUOUS
 10
347.2113534607
 20
329.0537846051
 11
347.2947333977
 21
329.0794689414
  0
LINE
  5
3CE
100
AcDbEntity
  8
BEZUGSACHSEN
100
AcDbLine
 62
7
  6
CONTINUOUS
 10
347.131582063
 20
329.0296249164
 11
347.2113534607
 21
329.0537846051
  0
LINE
  5
3CF
100
AcDbEntity
  8
BEZUGSACHSEN
100
AcDbLine
 62
7
  6
CONTINUOUS
 10
347.0480492821
 20
329.0047572503
 11
347.131582063
 21
329.0296249164
  0
LINE
  5
3D0
100
AcDbEntity
  8
BEZUGSACHSEN
100
AcDbLine
 62
7
  6
CONTINUOUS
 10
346.9709787626
 20
328.982203116
 11
347.0480492821
 21
329.0047572503
  0
LWPOLYLINE
  5
3D1
100
AcDbEntity
  8
BEZUGSACHSEN
100
AcDbPolyline
 62
7
  6
CONTINUOUS
 90
3
 70
0
 10
346.8814943154
 20
328.9564834887
 10
346.8915695574
 20
328.9593542909
 10
346.9709787626
 20
328.982203116
  0
LINE
  5
3D2
100
AcDbEntity
  8
BEZUGSACHSEN
100
AcDbLine
 62
7
  6
CONTINUOUS
 10
311.4455130904
 20
234.7744098084
 11
306.4455130904
 21
229.7744098084
  0
LINE
  5
3D3
100
AcDbEntity
  8
BEZUGSACHSEN
100
AcDbLine
 62
7
  6
CONTINUOUS
 10
325.9455130904
 20
549.2744098084
 11
325.3623891754
 21
549.2744098084
  0
LINE
  5
3D4
100
AcDbEntity
  8
BEZUGSACHSEN
100
AcDbLine
 62
7
  6
CONTINUOUS
 10
357.9455130904
 20
549.2744098084
 11
358.5286370054
 21
549.2744098084
  0
LINE
  5
3D5
100
AcDbEntity
  8
BEZUGSACHSEN
100
AcDbLine
 62
7
  6
CONTINUOUS
 10
513.0980728617
 20
229.7744098084
 11
551.0980728617
 21
229.7744098084
  0
LINE
  5
3D6
100
AcDbEntity
  8
BEZUGSACHSEN
100
AcDbLine
 62
7
  6
CONTINUOUS
 10
508.0980728617
 20
234.7744098084
 11
556.0980728617
 21
234.7744098084
  0
LINE
  5
3D7
100
AcDbEntity
  8
BEZUGSACHSEN
100
AcDbLine
 62
7
  6
CONTINUOUS
 10
477.7128710215
 20
531.6035865469
 11
532.0980728617
 21
549.2744098084
  0
LINE
  5
3D8
100
AcDbEntity
  8
BEZUGSACHSEN
100
AcDbLine
 62
7
  6
CONTINUOUS
 10
513.0980728617
 20
229.7744098084
 11
508.0980728617
 21
234.7744098084
  0
LINE
  5
3D9
100
AcDbEntity
  8
BEZUGSACHSEN
100
AcDbLine
 62
7
  6
CONTINUOUS
 10
462.9157361531
 20
504.0511112248
 11
475.3537628138
 21
529.5528450689
  0
LINE
  5
3DA
100
AcDbEntity
  8
BEZUGSACHSEN
100
AcDbLine
 62
7
  6
CONTINUOUS
 10
460.8869703107
 20
474.941984245
 11
467.5256254554
 21
485.9905617926
  0
LINE
  5
3DB
100
AcDbEntity
  8
0
100
AcDbLine
 62
7
  6
CONTINUOUS
 10
464.3473905553
 20
448.8080031969
 11
463.9644118776
 21
448.0580039121
  0
LINE
  5
3DC
100
AcDbEntity
  8
0
100
AcDbLine
 62
7
  6
CONTINUOUS
 10
465.1133479108
 20
447.8705024816
 11
465.4963265886
 21
448.4330024816
  0
LINE
  5
3DD
100
AcDbEntity
  8
0
100
AcDbLine
 62
7
  6
CONTINUOUS
 10
465.1133479108
 20
449.5580024816
 11
464.3473905553
 21
448.8080031969
  0
LINE
  5
3DE
100
AcDbEntity
  8
0
100
AcDbLine
 62
7
  6
CONTINUOUS
 10
484.5980728617
 20
302.7744098084
 11
579.5980728617
 21
302.7744098084
  0
LINE
  5
3DF
100
AcDbEntity
  8
0
100
AcDbLine
 62
7
  6
CONTINUOUS
 10
484.5980728617
 20
311.0244098084
 11
579.5980728617
 21
311.0244098084
  0
LINE
  5
3E0
100
AcDbEntity
  8
RUNDUNGEN
100
AcDbLine
 62
7
  6
CONTINUOUS
 10
574.5980728617
 20
311.2744098084
 11
489.5980728617
 21
311.2744098084
  0
LINE
  5
3E1
100
AcDbEntity
  8
BEZUGSACHSEN
100
AcDbLine
 62
7
  6
CONTINUOUS
 10
454.0980728617
 20
376.2744098084
 11
454.0980728617
 21
511.4113890599
  0
LINE
  5
3E2
100
AcDbEntity
  8
0
100
AcDbLine
 62
7
  6
CONTINUOUS
 10
463.9644118776
 20
448.0580039121
 11
463.7729225387
 21
447.1205031969
  0
LINE
  5
3E3
100
AcDbEntity
  8
0
100
AcDbLine
 62
7
  6
CONTINUOUS
 10
463.9644118776
 20
431.1830033757
 11
463.7729225387
 21
430.2455031969
  0
LINE
  5
3E4
100
AcDbEntity
  8
0
100
AcDbLine
 62
7
  6
CONTINUOUS
 10
464.921858572
 20
447.1205031969
 11
465.1133479108
 21
447.8705024816
  0
LINE
  5
3E5
100
AcDbEntity
  8
0
100
AcDbLine
 62
7
  6
CONTINUOUS
 10
464.7303692331
 20
430.4330030181
 11
464.921858572
 21
430.9955030181
  0
LINE
  5
3E6
100
AcDbEntity
  8
0
100
AcDbLine
 62
7
  6
CONTINUOUS
 10
472.198454455
 20
435.6830028393
 11
472.5814331831
 21
436.4330031969
  0
LINE
  5
3E7
100
AcDbEntity
  8
0
100
AcDbLine
 62
7
  6
CONTINUOUS
 10
471.4324970325
 20
436.6205035545
 11
471.0495182206
 21
436.0580035545
  0
LINE
  5
3E8
100
AcDbEntity
  8
0
100
AcDbLine
 62
7
  6
CONTINUOUS
 10
464.5388798942
 20
431.9330031969
 11
463.9644118776
 21
431.1830033757
  0
LINE
  5
3E9
100
AcDbEntity
  8
0
100
AcDbLine
 62
7
  6
CONTINUOUS
 10
464.921858572
 20
430.9955030181
 11
465.3048372497
 21
431.3705031969
  0
LINE
  5
3EA
100
AcDbEntity
  8
0
100
AcDbLine
 62
7
  6
CONTINUOUS
 10
465.4963265886
 20
448.4330024816
 11
466.0707951417
 21
448.8080031969
  0
LINE
  5
3EB
100
AcDbEntity
  8
0
100
AcDbLine
 62
7
  6
CONTINUOUS
 10
465.8793052663
 20
449.9330031969
 11
465.1133479108
 21
449.5580024816
  0
LINE
  5
3EC
100
AcDbEntity
  8
0
100
AcDbLine
 62
7
  6
CONTINUOUS
 10
518.3480728617
 20
322.4744098084
 11
525.8480728617
 21
322.4744098084
  0
LINE
  5
3ED
100
AcDbEntity
  8
0
100
AcDbLine
 62
7
  6
CONTINUOUS
 10
520.014739578
 20
323.5382396178
 11
525.8480728617
 21
323.5382396178
  0
LINE
  5
3EE
100
AcDbEntity
  8
0
100
AcDbLine
 62
7
  6
CONTINUOUS
 10
530.014739131
 20
322.6871757591
 11
531.264739131
 21
322.4744098084
  0
LINE
  5
3EF
100
AcDbEntity
  8
BEZUGSACHSEN
100
AcDbLine
 62
7
  6
CONTINUOUS
 10
460.8869703107
 20
474.941984245
 11
460.8869703107
 21
479.6540208442
  0
LINE
  5
3F0
100
AcDbEntity
  8
0
100
AcDbLine
 62
7
  6
CONTINUOUS
 10
463.7729225387
 20
447.1205031969
 11
463.7729225387
 21
442.6205031969
  0
LINE
  5
3F1
100
AcDbEntity
  8
0
100
AcDbLine
 62
7
  6
CONTINUOUS
 10
463.7729225387
 20
441.1205035545
 11
463.7729225387
 21
439.9955035545
  0
LINE
  5
3F2
100
AcDbEntity
  8
0
100
AcDbLine
 62
7
  6
CONTINUOUS
 10
463.7729225387
 20
435.4955035545
 11
463.7729225387
 21
434.3705030181
  0
LINE
  5
3F3
100
AcDbEntity
  8
0
100
AcDbLine
 62
7
  6
CONTINUOUS
 10
463.7729225387
 20
430.2455031969
 11
463.7729225387
 21
425.7455031969
  0
LINE
  5
3F4
100
AcDbEntity
  8
0
100
AcDbLine
 62
7
  6
CONTINUOUS
 10
464.7303692331
 20
426.8705031969
 11
464.7303692331
 21
430.4330030181
  0
LINE
  5
3F5
100
AcDbEntity
  8
0
100
AcDbLine
 62
7
  6
CONTINUOUS
 10
464.921858572
 20
443.7455031969
 11
464.921858572
 21
447.1205031969
  0
LINE
  5
3F6
100
AcDbEntity
  8
0
100
AcDbLine
 62
7
  6
CONTINUOUS
 10
467.6027098527
 20
430.4330030181
 11
467.6027098527
 21
426.8705031969
  0
LINE
  5
3F7
100
AcDbEntity
  8
0
100
AcDbLine
 62
7
  6
CONTINUOUS
 10
468.7516458859
 20
426.8705031969
 11
468.7516458859
 21
430.0580031075
  0
LINE
  5
3F8
100
AcDbEntity
  8
0
100
AcDbLine
 62
7
  6
CONTINUOUS
 10
471.6239863714
 20
447.1205031969
 11
471.6239863714
 21
443.7455031969
  0
LINE
  5
3F9
100
AcDbEntity
  8
0
100
AcDbLine
 62
7
  6
CONTINUOUS
 10
471.6239863714
 20
438.1205031969
 11
471.6239863714
 21
437.3705028393
  0
LINE
  5
3FA
100
AcDbEntity
  8
0
100
AcDbLine
 62
7
  6
CONTINUOUS
 10
472.7729225387
 20
425.7455031969
 11
472.7729225387
 21
426.8705031969
  0
LINE
  5
3FB
100
AcDbEntity
  8
0
100
AcDbLine
 62
7
  6
CONTINUOUS
 10
472.7729225387
 20
431.5580030181
 11
472.7729225387
 21
432.8705033757
  0
LINE
  5
3FC
100
AcDbEntity
  8
0
100
AcDbLine
 62
7
  6
CONTINUOUS
 10
472.7729225387
 20
437.3705028393
 11
472.7729225387
 21
438.1205031969
  0
LINE
  5
3FD
100
AcDbEntity
  8
0
100
AcDbLine
 62
7
  6
CONTINUOUS
 10
472.7729225387
 20
442.6205031969
 11
472.7729225387
 21
447.1205031969
  0
LINE
  5
3FE
100
AcDbEntity
  8
0
100
AcDbLine
 62
7
  6
CONTINUOUS
 10
472.5814331831
 20
436.4330031969
 11
472.7729225387
 21
437.3705028393
  0
LINE
  5
3FF
100
AcDbEntity
  8
0
100
AcDbLine
 62
7
  6
CONTINUOUS
 10
471.6239863714
 20
437.3705028393
 11
471.4324970325
 21
436.6205035545
  0
LINE
  5
400
100
AcDbEntity
  8
0
100
AcDbLine
 62
7
  6
CONTINUOUS
 10
471.4324970325
 20
434.9330035545
 11
472.198454455
 21
435.6830028393
  0
LINE
  5
401
100
AcDbEntity
  8
0
100
AcDbLine
 62
7
  6
CONTINUOUS
 10
465.3048372497
 20
432.4955031969
 11
464.5388798942
 21
431.9330031969
  0
LINE
  5
402
100
AcDbEntity
  8
0
100
AcDbLine
 62
7
  6
CONTINUOUS
 10
471.0495182206
 20
436.0580035545
 11
470.475050204
 21
435.6830028393
  0
LINE
  5
403
100
AcDbEntity
  8
0
100
AcDbLine
 62
7
  6
CONTINUOUS
 10
470.6665395429
 20
434.5580033757
 11
471.4324970325
 21
434.9330035545
  0
LINE
  5
404
100
AcDbEntity
  8
0
100
AcDbLine
 62
7
  6
CONTINUOUS
 10
531.264739131
 20
323.5382396178
 11
532.3064065924
 21
323.7510055499
  0
LINE
  5
405
100
AcDbEntity
  8
0
100
AcDbLine
 62
7
  6
CONTINUOUS
 10
530.2230728617
 20
331.1978142159
 11
531.264739131
 21
331.4105801479
  0
LINE
  5
406
100
AcDbEntity
  8
0
100
AcDbLine
 62
7
  6
CONTINUOUS
 10
520.639739578
 20
331.1978142159
 11
521.6814062943
 21
331.4105801479
  0
LINE
  5
407
100
AcDbEntity
  8
0
100
AcDbLine
 62
7
  6
CONTINUOUS
 10
531.264739131
 20
322.4744098084
 11
532.514739131
 21
322.6871757591
  0
LINE
  5
408
100
AcDbEntity
  8
0
100
AcDbLine
 62
7
  6
CONTINUOUS
 10
530.014739131
 20
332.2616438763
 11
531.264739131
 21
332.4744098084
  0
LINE
  5
409
100
AcDbEntity
  8
0
100
AcDbLine
 62
7
  6
CONTINUOUS
 10
520.4314061453
 20
332.2616438763
 11
521.889739429
 21
332.4744098084
  0
LINE
  5
40A
100
AcDbEntity
  8
0
100
AcDbLine
 62
7
  6
CONTINUOUS
 10
536.6814065924
 20
328.4318565027
 11
538.3480728617
 21
328.4318565027
  0
LINE
  5
40B
100
AcDbEntity
  8
0
100
AcDbLine
 62
7
  6
CONTINUOUS
 10
539.3897403231
 20
328.4318565027
 11
541.6814054003
 21
328.4318565027
  0
LINE
  5
40C
100
AcDbEntity
  8
0
100
AcDbLine
 62
7
  6
CONTINUOUS
 10
536.6814065924
 20
329.2829202311
 11
538.3480728617
 21
329.2829202311
  0
LINE
  5
40D
100
AcDbEntity
  8
0
100
AcDbLine
 62
7
  6
CONTINUOUS
 10
539.3897403231
 20
329.2829202311
 11
541.6814054003
 21
329.2829202311
  0
LINE
  5
40E
100
AcDbEntity
  8
0
100
AcDbLine
 62
7
  6
CONTINUOUS
 10
518.5564062012
 20
330.1339845554
 11
519.5980728617
 21
330.1339845554
  0
LINE
  5
40F
100
AcDbEntity
  8
0
100
AcDbLine
 62
7
  6
CONTINUOUS
 10
538.3480728617
 20
330.9850482838
 11
539.3897403231
 21
330.9850482838
  0
LINE
  5
410
100
AcDbEntity
  8
0
100
AcDbLine
 62
7
  6
CONTINUOUS
 10
521.6814062943
 20
331.4105801479
 11
522.514739429
 21
331.4105801479
  0
LINE
  5
411
100
AcDbEntity
  8
0
100
AcDbLine
 62
7
  6
CONTINUOUS
 10
521.889739429
 20
332.4744098084
 11
522.7230728617
 21
332.4744098084
  0
LINE
  5
412
100
AcDbEntity
  8
0
100
AcDbLine
 62
7
  6
CONTINUOUS
 10
540.0147403231
 20
322.6871757591
 11
541.2647403231
 21
322.4744098084
  0
LINE
  5
413
100
AcDbEntity
  8
0
100
AcDbLine
 62
7
  6
CONTINUOUS
 10
522.7230728617
 20
332.4744098084
 11
523.9730728617
 21
332.2616438763
  0
LINE
  5
414
100
AcDbEntity
  8
0
100
AcDbLine
 62
7
  6
CONTINUOUS
 10
531.264739131
 20
332.4744098084
 11
532.514739131
 21
332.2616438763
  0
LINE
  5
415
100
AcDbEntity
  8
0
100
AcDbLine
 62
7
  6
CONTINUOUS
 10
530.2230728617
 20
323.7510055499
 11
531.264739131
 21
323.5382396178
  0
LINE
  5
416
100
AcDbEntity
  8
0
100
AcDbLine
 62
7
  6
CONTINUOUS
 10
540.2230728617
 20
323.5382396178
 11
541.2647403231
 21
323.3254736112
  0
LINE
  5
417
100
AcDbEntity
  8
0
100
AcDbLine
 62
7
  6
CONTINUOUS
 10
522.514739429
 20
331.4105801479
 11
523.5564059963
 21
331.1978142159
  0
LINE
  5
418
100
AcDbEntity
  8
0
100
AcDbLine
 62
7
  6
CONTINUOUS
 10
531.264739131
 20
331.4105801479
 11
532.3064065924
 21
331.1978142159
  0
LINE
  5
419
100
AcDbEntity
  8
0
100
AcDbLine
 62
7
  6
CONTINUOUS
 10
539.3897403231
 20
322.8999417098
 11
540.0147403231
 21
322.6871757591
  0
LINE
  5
41A
100
AcDbEntity
  8
0
100
AcDbLine
 62
7
  6
CONTINUOUS
 10
523.9730728617
 20
332.2616438763
 11
524.8064059963
 21
331.8361120121
  0
LINE
  5
41B
100
AcDbEntity
  8
0
100
AcDbLine
 62
7
  6
CONTINUOUS
 10
528.9730728617
 20
323.3254736112
 11
530.014739131
 21
322.6871757591
  0
LINE
  5
41C
100
AcDbEntity
  8
0
100
AcDbLine
 62
7
  6
CONTINUOUS
 10
529.5980728617
 20
324.176537414
 11
530.2230728617
 21
323.7510055499
  0
LINE
  5
41D
100
AcDbEntity
  8
BEZUGSACHSEN
100
AcDbLine
 62
7
  6
CONTINUOUS
 10
482.0980728617
 20
499.5237860175
 11
482.0980728617
 21
376.2744098084
  0
LINE
  5
41E
100
AcDbEntity
  8
0
100
AcDbLine
 62
7
  6
CONTINUOUS
 10
484.5980728617
 20
389.7744098084
 11
484.5980728617
 21
381.5244098084
  0
LINE
  5
41F
100
AcDbEntity
  8
0
100
AcDbLine
 62
7
  6
CONTINUOUS
 10
484.5980728617
 20
311.0244098084
 11
484.5980728617
 21
302.7744098084
  0
LINE
  5
420
100
AcDbEntity
  8
RUNDUNGEN
100
AcDbLine
 62
7
  6
CONTINUOUS
 10
484.5980728617
 20
316.2744098084
 11
484.5980728617
 21
376.2744098084
  0
LINE
  5
421
100
AcDbEntity
  8
0
100
AcDbLine
 62
7
  6
CONTINUOUS
 10
484.5980728617
 20
316.2744098084
 11
484.5980728617
 21
376.2744098084
  0
LINE
  5
422
100
AcDbEntity
  8
0
100
AcDbLine
 62
7
  6
CONTINUOUS
 10
472.7729225387
 20
432.8705033757
 11
468.3686672082
 21
431.1830033757
  0
LINE
  5
423
100
AcDbEntity
  8
0
100
AcDbLine
 62
7
  6
CONTINUOUS
 10
468.7516458859
 20
430.0580031075
 11
472.7729225387
 21
431.5580030181
  0
LINE
  5
424
100
AcDbEntity
  8
0
100
AcDbLine
 62
7
  6
CONTINUOUS
 10
465.8793052663
 20
432.6830030181
 11
465.3048372497
 21
432.4955031969
  0
LINE
  5
425
100
AcDbEntity
  8
0
100
AcDbLine
 62
7
  6
CONTINUOUS
 10
465.3048372497
 20
431.3705031969
 11
465.8793052663
 21
431.5580030181
  0
LINE
  5
426
100
AcDbEntity
  8
0
100
AcDbLine
 62
7
  6
CONTINUOUS
 10
569.6964077845
 20
344.0810055499
 11
570.5297379389
 21
344.2937714819
  0
LINE
  5
427
100
AcDbEntity
  8
0
100
AcDbLine
 62
7
  6
CONTINUOUS
 10
560.1130728617
 20
344.0810055499
 11
560.9464077845
 21
344.2937714819
  0
LINE
  5
428
100
AcDbEntity
  8
0
100
AcDbLine
 62
7
  6
CONTINUOUS
 10
567.6130728617
 20
352.5916438763
 11
568.4464077845
 21
352.8044098084
  0
LINE
  5
429
100
AcDbEntity
  8
0
100
AcDbLine
 62
7
  6
CONTINUOUS
 10
528.2380728617
 20
344.0810055499
 11
529.0714054003
 21
344.2937714819
  0
LINE
  5
42A
100
AcDbEntity
  8
0
100
AcDbLine
 62
7
  6
CONTINUOUS
 10
569.6964077845
 20
342.8044098084
 11
570.7380728617
 21
343.0171757591
  0
LINE
  5
42B
100
AcDbEntity
  8
0
100
AcDbLine
 62
7
  6
CONTINUOUS
 10
560.1130728617
 20
342.8044098084
 11
561.1547379389
 21
343.0171757591
  0
LINE
  5
42C
100
AcDbEntity
  8
0
100
AcDbLine
 62
7
  6
CONTINUOUS
 10
528.2380728617
 20
342.8044098084
 11
529.2797403231
 21
343.0171757591
  0
LINE
  5
42D
100
AcDbEntity
  8
0
100
AcDbLine
 62
7
  6
CONTINUOUS
 10
542.4047379389
 20
347.2724949781
 11
543.4464077845
 21
347.4852609102
  0
LINE
  5
42E
100
AcDbEntity
  8
0
100
AcDbLine
 62
7
  6
CONTINUOUS
 10
518.6547403231
 20
342.8044098084
 11
519.6964054003
 21
343.0171757591
  0
LINE
  5
42F
100
AcDbEntity
  8
0
100
AcDbLine
 62
7
  6
CONTINUOUS
 10
497.8214062943
 20
342.8044098084
 11
499.4880728617
 21
342.8044098084
  0
LINE
  5
430
100
AcDbEntity
  8
0
100
AcDbLine
 62
7
  6
CONTINUOUS
 10
504.4880728617
 20
342.8044098084
 11
511.9880728617
 21
342.8044098084
  0
LINE
  5
431
100
AcDbEntity
  8
0
100
AcDbLine
 62
7
  6
CONTINUOUS
 10
513.654739131
 20
342.8044098084
 11
518.6547403231
 21
342.8044098084
  0
LINE
  5
432
100
AcDbEntity
  8
0
100
AcDbLine
 62
7
  6
CONTINUOUS
 10
526.3630728617
 20
342.8044098084
 11
528.2380728617
 21
342.8044098084
  0
LINE
  5
433
100
AcDbEntity
  8
0
100
AcDbLine
 62
7
  6
CONTINUOUS
 10
537.4047379389
 20
342.8044098084
 11
538.6547379389
 21
342.8044098084
  0
LINE
  5
434
100
AcDbEntity
  8
0
100
AcDbLine
 62
7
  6
CONTINUOUS
 10
546.7797379389
 20
342.8044098084
 11
554.2797379389
 21
342.8044098084
  0
LINE
  5
435
100
AcDbEntity
  8
0
100
AcDbLine
 62
7
  6
CONTINUOUS
 10
559.2797379389
 20
342.8044098084
 11
560.1130728617
 21
342.8044098084
  0
LINE
  5
436
100
AcDbEntity
  8
0
100
AcDbLine
 62
7
  6
CONTINUOUS
 10
568.0297379389
 20
342.8044098084
 11
569.6964077845
 21
342.8044098084
  0
LINE
  5
437
100
AcDbEntity
  8
0
100
AcDbLine
 62
7
  6
CONTINUOUS
 10
505.7380728617
 20
344.0810055499
 11
511.9880728617
 21
344.0810055499
  0
LINE
  5
438
100
AcDbEntity
  8
0
100
AcDbLine
 62
7
  6
CONTINUOUS
 10
514.9047403231
 20
344.0810055499
 11
518.8630728617
 21
344.0810055499
  0
LINE
  5
439
100
AcDbEntity
  8
0
100
AcDbLine
 62
7
  6
CONTINUOUS
 10
526.3630728617
 20
344.0810055499
 11
528.2380728617
 21
344.0810055499
  0
LINE
  5
43A
100
AcDbEntity
  8
0
100
AcDbLine
 62
7
  6
CONTINUOUS
 10
548.0297379389
 20
344.0810055499
 11
554.2797379389
 21
344.0810055499
  0
LINE
  5
43B
100
AcDbEntity
  8
0
100
AcDbLine
 62
7
  6
CONTINUOUS
 10
559.2797379389
 20
344.0810055499
 11
560.1130728617
 21
344.0810055499
  0
LINE
  5
43C
100
AcDbEntity
  8
0
100
AcDbLine
 62
7
  6
CONTINUOUS
 10
568.0297379389
 20
344.0810055499
 11
569.6964077845
 21
344.0810055499
  0
LINE
  5
43D
100
AcDbEntity
  8
0
100
AcDbLine
 62
7
  6
CONTINUOUS
 10
565.1130728617
 20
345.5703672235
 11
566.3630728617
 21
345.5703672235
  0
LINE
  5
43E
100
AcDbEntity
  8
0
100
AcDbLine
 62
7
  6
CONTINUOUS
 10
532.8214054003
 20
346.4214309518
 11
535.7380728617
 21
346.4214309518
  0
LINE
  5
43F
100
AcDbEntity
  8
0
100
AcDbLine
 62
7
  6
CONTINUOUS
 10
528.0297403231
 20
347.0597290461
 11
529.9047403231
 21
347.0597290461
  0
LINE
  5
440
100
AcDbEntity
  8
0
100
AcDbLine
 62
7
  6
CONTINUOUS
 10
514.9047403231
 20
347.2724949781
 11
518.8630728617
 21
347.2724949781
  0
LINE
  5
441
100
AcDbEntity
  8
0
100
AcDbLine
 62
7
  6
CONTINUOUS
 10
538.6547379389
 20
347.2724949781
 11
542.4047379389
 21
347.2724949781
  0
LINE
  5
442
100
AcDbEntity
  8
0
100
AcDbLine
 62
7
  6
CONTINUOUS
 10
568.4464077845
 20
347.2724949781
 11
569.6964077845
 21
347.2724949781
  0
LINE
  5
443
100
AcDbEntity
  8
0
100
AcDbLine
 62
7
  6
CONTINUOUS
 10
532.8214054003
 20
347.4852609102
 11
535.7380728617
 21
347.4852609102
  0
LINE
  5
444
100
AcDbEntity
  8
0
100
AcDbLine
 62
7
  6
CONTINUOUS
 10
525.3214054003
 20
343.0171757591
 11
526.3630728617
 21
342.8044098084
  0
LINE
  5
445
100
AcDbEntity
  8
0
100
AcDbLine
 62
7
  6
CONTINUOUS
 10
525.5297403231
 20
344.2937714819
 11
526.3630728617
 21
344.0810055499
  0
LINE
  5
446
100
AcDbEntity
  8
0
100
AcDbLine
 62
7
  6
CONTINUOUS
 10
518.8630728617
 20
347.2724949781
 11
519.4880728617
 21
347.0597290461
  0
LINE
  5
447
100
AcDbEntity
  8
0
100
AcDbLine
 62
7
  6
CONTINUOUS
 10
524.4880728617
 20
343.4427076791
 11
525.3214054003
 21
343.0171757591
  0
LINE
  5
448
100
AcDbEntity
  8
0
100
AcDbLine
 62
7
  6
CONTINUOUS
 10
520.1130728617
 20
347.9107927744
 11
520.5297403231
 21
347.6980268423
  0
LINE
  5
449
100
AcDbEntity
  8
0
100
AcDbLine
 62
7
  6
CONTINUOUS
 10
532.514739131
 20
332.2616438763
 11
533.5564065924
 21
331.62334608
  0
LINE
  5
44A
100
AcDbEntity
  8
0
100
AcDbLine
 62
7
  6
CONTINUOUS
 10
523.5564059963
 20
331.1978142159
 11
524.1814059963
 21
330.7722823517
  0
LINE
  5
44B
100
AcDbEntity
  8
0
100
AcDbLine
 62
7
  6
CONTINUOUS
 10
538.7647403231
 20
323.3254736112
 11
539.3897403231
 21
322.8999417098
  0
LINE
  5
44C
100
AcDbEntity
  8
0
100
AcDbLine
 62
7
  6
CONTINUOUS
 10
539.5980728617
 20
323.9637714819
 11
540.2230728617
 21
323.5382396178
  0
LINE
  5
44D
100
AcDbEntity
  8
0
100
AcDbLine
 62
7
  6
CONTINUOUS
 10
532.3064065924
 20
331.1978142159
 11
532.9314065924
 21
330.7722823517
  0
LINE
  5
44E
100
AcDbEntity
  8
0
100
AcDbLine
 62
7
  6
CONTINUOUS
 10
528.3480728617
 20
323.9637714819
 11
528.9730728617
 21
323.3254736112
  0
LINE
  5
44F
100
AcDbEntity
  8
0
100
AcDbLine
 62
7
  6
CONTINUOUS
 10
524.8064059963
 20
331.8361120121
 11
525.639739727
 21
330.9850482838
  0
LINE
  5
450
100
AcDbEntity
  8
0
100
AcDbLine
 62
7
  6
CONTINUOUS
 10
467.4112205138
 20
430.9955030181
 11
467.6027098527
 21
430.4330030181
  0
LINE
  5
451
100
AcDbEntity
  8
0
100
AcDbLine
 62
7
  6
CONTINUOUS
 10
495.7380728617
 20
352.8044098084
 11
498.654739429
 21
344.0810055499
  0
LINE
  5
452
100
AcDbEntity
  8
0
100
AcDbLine
 62
7
  6
CONTINUOUS
 10
494.4880728617
 20
352.8044098084
 11
497.8214062943
 21
342.8044098084
  0
LINE
  5
453
100
AcDbEntity
  8
0
100
AcDbLine
 62
7
  6
CONTINUOUS
 10
471.4324970325
 20
438.8705035545
 11
471.6239863714
 21
438.1205031969
  0
LINE
  5
454
100
AcDbEntity
  8
0
100
AcDbLine
 62
7
  6
CONTINUOUS
 10
472.7729225387
 20
438.1205031969
 11
472.5814331831
 21
439.0580028393
  0
LINE
  5
455
100
AcDbEntity
  8
0
100
AcDbLine
 62
7
  6
CONTINUOUS
 10
472.7729225387
 20
447.1205031969
 11
472.5814331831
 21
448.0580039121
  0
LINE
  5
456
100
AcDbEntity
  8
BEZUGSACHSEN
100
AcDbLine
 62
7
  6
CONTINUOUS
 10
494.5980728617
 20
390.2744098084
 11
494.5980728617
 21
419.7744098113
  0
LINE
  5
457
100
AcDbEntity
  8
0
100
AcDbLine
 62
7
  6
CONTINUOUS
 10
525.5297403231
 20
351.3150482838
 11
526.3630728617
 21
351.5278142159
  0
LINE
  5
458
100
AcDbEntity
  8
0
100
AcDbLine
 62
7
  6
CONTINUOUS
 10
525.3214054003
 20
352.5916438763
 11
526.3630728617
 21
352.8044098084
  0
LINE
  5
459
100
AcDbEntity
  8
0
100
AcDbLine
 62
7
  6
CONTINUOUS
 10
544.4480728617
 20
361.0544098084
 11
545.6980738153
 21
361.3097289492
  0
LINE
  5
45A
100
AcDbEntity
  8
0
100
AcDbLine
 62
7
  6
CONTINUOUS
 10
528.0297403231
 20
348.3363246386
 11
531.1547403231
 21
348.3363246386
  0
LINE
  5
45B
100
AcDbEntity
  8
0
100
AcDbLine
 62
7
  6
CONTINUOUS
 10
514.9047403231
 20
348.5490905706
 11
518.8630728617
 21
348.5490905706
  0
LINE
  5
45C
100
AcDbEntity
  8
0
100
AcDbLine
 62
7
  6
CONTINUOUS
 10
538.6547379389
 20
348.5490905706
 11
542.6130728617
 21
348.5490905706
  0
LINE
  5
45D
100
AcDbEntity
  8
0
100
AcDbLine
 62
7
  6
CONTINUOUS
 10
568.4464077845
 20
348.5490905706
 11
569.6964077845
 21
348.5490905706
  0
LINE
  5
45E
100
AcDbEntity
  8
0
100
AcDbLine
 62
7
  6
CONTINUOUS
 10
529.9047403231
 20
350.2512180273
 11
531.1547403231
 21
350.2512180273
  0
LINE
  5
45F
100
AcDbEntity
  8
0
100
AcDbLine
 62
7
  6
CONTINUOUS
 10
570.9464077845
 20
350.4639845554
 11
572.1964077845
 21
350.4639845554
  0
LINE
  5
460
100
AcDbEntity
  8
0
100
AcDbLine
 62
7
  6
CONTINUOUS
 10
514.9047403231
 20
351.5278142159
 11
518.8630728617
 21
351.5278142159
  0
LINE
  5
461
100
AcDbEntity
  8
0
100
AcDbLine
 62
7
  6
CONTINUOUS
 10
526.3630728617
 20
351.5278142159
 11
528.2380728617
 21
351.5278142159
  0
LINE
  5
462
100
AcDbEntity
  8
0
100
AcDbLine
 62
7
  6
CONTINUOUS
 10
568.4464077845
 20
351.5278142159
 11
569.6964077845
 21
351.5278142159
  0
LINE
  5
463
100
AcDbEntity
  8
0
100
AcDbLine
 62
7
  6
CONTINUOUS
 10
538.6547379389
 20
351.7405801479
 11
542.6130728617
 21
351.7405801479
  0
LINE
  5
464
100
AcDbEntity
  8
0
100
AcDbLine
 62
7
  6
CONTINUOUS
 10
494.4880728617
 20
352.8044098084
 11
495.7380728617
 21
352.8044098084
  0
LINE
  5
465
100
AcDbEntity
  8
0
100
AcDbLine
 62
7
  6
CONTINUOUS
 10
501.5714059963
 20
352.8044098084
 11
502.8214059963
 21
352.8044098084
  0
LINE
  5
466
100
AcDbEntity
  8
0
100
AcDbLine
 62
7
  6
CONTINUOUS
 10
504.4880728617
 20
352.8044098084
 11
505.7380728617
 21
352.8044098084
  0
LINE
  5
467
100
AcDbEntity
  8
0
100
AcDbLine
 62
7
  6
CONTINUOUS
 10
513.654739131
 20
352.8044098084
 11
518.6547403231
 21
352.8044098084
  0
LINE
  5
468
100
AcDbEntity
  8
0
100
AcDbLine
 62
7
  6
CONTINUOUS
 10
526.3630728617
 20
352.8044098084
 11
528.2380728617
 21
352.8044098084
  0
LINE
  5
469
100
AcDbEntity
  8
0
100
AcDbLine
 62
7
  6
CONTINUOUS
 10
537.4047379389
 20
352.8044098084
 11
542.4047379389
 21
352.8044098084
  0
LINE
  5
46A
100
AcDbEntity
  8
0
100
AcDbLine
 62
7
  6
CONTINUOUS
 10
546.7797379389
 20
352.8044098084
 11
548.0297379389
 21
352.8044098084
  0
LINE
  5
46B
100
AcDbEntity
  8
0
100
AcDbLine
 62
7
  6
CONTINUOUS
 10
555.9464077845
 20
352.8044098084
 11
557.1964077845
 21
352.8044098084
  0
LINE
  5
46C
100
AcDbEntity
  8
0
100
AcDbLine
 62
7
  6
CONTINUOUS
 10
562.1964077845
 20
352.8044098084
 11
563.4464077845
 21
352.8044098084
  0
LINE
  5
46D
100
AcDbEntity
  8
0
100
AcDbLine
 62
7
  6
CONTINUOUS
 10
568.4464077845
 20
352.8044098084
 11
569.4880728617
 21
352.8044098084
  0
LINE
  5
46E
100
AcDbEntity
  8
0
100
AcDbLine
 62
7
  6
CONTINUOUS
 10
558.2380728617
 20
343.0171757591
 11
559.2797379389
 21
342.8044098084
  0
LINE
  5
46F
100
AcDbEntity
  8
0
100
AcDbLine
 62
7
  6
CONTINUOUS
 10
518.6547403231
 20
352.8044098084
 11
519.6964054003
 21
352.5916438763
  0
LINE
  5
470
100
AcDbEntity
  8
0
100
AcDbLine
 62
7
  6
CONTINUOUS
 10
566.9880728617
 20
343.0171757591
 11
568.0297379389
 21
342.8044098084
  0
LINE
  5
471
100
AcDbEntity
  8
0
100
AcDbLine
 62
7
  6
CONTINUOUS
 10
528.2380728617
 20
352.8044098084
 11
529.2797403231
 21
352.5916438763
  0
LINE
  5
472
100
AcDbEntity
  8
0
100
AcDbLine
 62
7
  6
CONTINUOUS
 10
542.4047379389
 20
352.8044098084
 11
543.4464077845
 21
352.5916438763
  0
LINE
  5
473
100
AcDbEntity
  8
0
100
AcDbLine
 62
7
  6
CONTINUOUS
 10
569.6964077845
 20
348.5490905706
 11
570.7380728617
 21
348.3363246386
  0
LINE
  5
474
100
AcDbEntity
  8
0
100
AcDbLine
 62
7
  6
CONTINUOUS
 10
528.2380728617
 20
351.5278142159
 11
529.0714054003
 21
351.3150482838
  0
LINE
  5
475
100
AcDbEntity
  8
0
100
AcDbLine
 62
7
  6
CONTINUOUS
 10
558.4464077845
 20
344.2937714819
 11
559.2797379389
 21
344.0810055499
  0
LINE
  5
476
100
AcDbEntity
  8
0
100
AcDbLine
 62
7
  6
CONTINUOUS
 10
567.1964077845
 20
344.2937714819
 11
568.0297379389
 21
344.0810055499
  0
LINE
  5
477
100
AcDbEntity
  8
0
100
AcDbLine
 62
7
  6
CONTINUOUS
 10
567.6130728617
 20
347.4852609102
 11
568.4464077845
 21
347.2724949781
  0
LINE
  5
478
100
AcDbEntity
  8
0
100
AcDbLine
 62
7
  6
CONTINUOUS
 10
569.6964077845
 20
347.2724949781
 11
570.5297379389
 21
347.0597290461
  0
LINE
  5
479
100
AcDbEntity
  8
0
100
AcDbLine
 62
7
  6
CONTINUOUS
 10
518.8630728617
 20
351.5278142159
 11
519.4880728617
 21
351.3150482838
  0
LINE
  5
47A
100
AcDbEntity
  8
0
100
AcDbLine
 62
7
  6
CONTINUOUS
 10
542.6130728617
 20
351.7405801479
 11
543.2380728617
 21
351.5278142159
  0
LINE
  5
47B
100
AcDbEntity
  8
0
100
AcDbLine
 62
7
  6
CONTINUOUS
 10
529.2797403231
 20
352.5916438763
 11
530.1130728617
 21
352.1661120121
  0
LINE
  5
47C
100
AcDbEntity
  8
0
100
AcDbLine
 62
7
  6
CONTINUOUS
 10
524.9047403231
 20
344.7193034951
 11
525.5297403231
 21
344.2937714819
  0
LINE
  5
47D
100
AcDbEntity
  8
0
100
AcDbLine
 62
7
  6
CONTINUOUS
 10
529.0714054003
 20
351.3150482838
 11
529.6964054003
 21
350.8895164196
  0
LINE
  5
47E
100
AcDbEntity
  8
0
100
AcDbLine
 62
7
  6
CONTINUOUS
 10
519.6964054003
 20
352.5916438763
 11
520.5297403231
 21
351.95334608
  0
LINE
  5
47F
100
AcDbEntity
  8
0
100
AcDbLine
 62
7
  6
CONTINUOUS
 10
533.5564065924
 20
331.62334608
 11
534.1814065924
 21
330.9850482838
  0
LINE
  5
480
100
AcDbEntity
  8
0
100
AcDbLine
 62
7
  6
CONTINUOUS
 10
519.4880728617
 20
347.0597290461
 11
519.9047403231
 21
346.6341971819
  0
LINE
  5
481
100
AcDbEntity
  8
0
100
AcDbLine
 62
7
  6
CONTINUOUS
 10
523.6547403231
 20
344.2937714819
 11
524.4880728617
 21
343.4427076791
  0
LINE
  5
482
100
AcDbEntity
  8
0
100
AcDbLine
 62
7
  6
CONTINUOUS
 10
519.4880728617
 20
351.3150482838
 11
519.9047403231
 21
350.8895164196
  0
LINE
  5
483
100
AcDbEntity
  8
0
100
AcDbLine
 62
7
  6
CONTINUOUS
 10
520.5297403231
 20
347.6980268423
 11
521.1547403231
 21
346.846963114
  0
LINE
  5
484
100
AcDbEntity
  8
0
100
AcDbLine
 62
7
  6
CONTINUOUS
 10
524.1814059963
 20
330.7722823517
 11
524.5980728617
 21
330.1339845554
  0
LINE
  5
485
100
AcDbEntity
  8
0
100
AcDbLine
 62
7
  6
CONTINUOUS
 10
528.764739131
 20
325.4531331555
 11
529.5980728617
 21
324.176537414
  0
LINE
  5
486
100
AcDbEntity
  8
0
100
AcDbLine
 62
7
  6
CONTINUOUS
 10
468.3686672082
 20
431.1830033757
 11
467.9856885304
 21
431.9330031969
  0
LINE
  5
487
100
AcDbEntity
  8
0
100
AcDbLine
 62
7
  6
CONTINUOUS
 10
471.4324970325
 20
447.8705024816
 11
471.6239863714
 21
447.1205031969
  0
LINE
  5
488
100
AcDbEntity
  8
BEZUGSACHSEN
100
AcDbLine
 62
7
  6
CONTINUOUS
 10
497.3980728617
 20
389.7744098084
 11
497.3980728617
 21
390.2744098084
  0
LINE
  5
489
100
AcDbEntity
  8
0
100
AcDbLine
 62
7
  6
CONTINUOUS
 10
498.3480728617
 20
381.5244098084
 11
498.3480728617
 21
381.2744098084
  0
LINE
  5
48A
100
AcDbEntity
  8
0
100
AcDbLine
 62
7
  6
CONTINUOUS
 10
498.3480728617
 20
311.2744098084
 11
498.3480728617
 21
311.0244098084
  0
LINE
  5
48B
100
AcDbEntity
  8
KONSTRUKTIONSELEMENTE
100
AcDbLine
 62
7
  6
CONTINUOUS
 10
500.9109287121
 20
419.7744098084
 11
500.9109287121
 21
419.9744098084
  0
LINE
  5
48C
100
AcDbEntity
  8
KONSTRUKTIONSELEMENTE
100
AcDbLine
 62
7
  6
CONTINUOUS
 10
501.0784213817
 20
419.7744098084
 11
501.0784213817
 21
419.9744098084
  0
LINE
  5
48D
100
AcDbEntity
  8
KONSTRUKTIONSELEMENTE
100
AcDbLine
 62
7
  6
CONTINUOUS
 10
501.6367302805
 20
419.7744098084
 11
501.6367302805
 21
419.9744098084
  0
LINE
  5
48E
100
AcDbEntity
  8
KONSTRUKTIONSELEMENTE
100
AcDbLine
 62
7
  6
CONTINUOUS
 10
501.8042229502
 20
419.7744098084
 11
501.8042229502
 21
419.9744098084
  0
LINE
  5
48F
100
AcDbEntity
  8
0
100
AcDbLine
 62
7
  6
CONTINUOUS
 10
504.4880728617
 20
342.8044098084
 11
504.4880728617
 21
352.8044098084
  0
LINE
  5
490
100
AcDbEntity
  8
0
100
AcDbLine
 62
7
  6
CONTINUOUS
 10
505.7380728617
 20
344.0810055499
 11
505.7380728617
 21
352.8044098084
  0
LINE
  5
491
100
AcDbEntity
  8
BEZUGSACHSEN
100
AcDbLine
 62
7
  6
CONTINUOUS
 10
508.0980728617
 20
234.7744098084
 11
508.0980728617
 21
302.7744098084
  0
LINE
  5
492
100
AcDbEntity
  8
0
100
AcDbLine
 62
7
  6
CONTINUOUS
 10
544.4480728617
 20
362.5863246982
 11
545.448071908
 21
362.8416438167
  0
LINE
  5
493
100
AcDbEntity
  8
0
100
AcDbLine
 62
7
  6
CONTINUOUS
 10
532.4480728617
 20
362.5863246982
 11
533.4480733385
 21
362.8416438167
  0
LINE
  5
494
100
AcDbEntity
  8
0
100
AcDbLine
 62
7
  6
CONTINUOUS
 10
532.4480728617
 20
361.0544098084
 11
533.6980723848
 21
361.3097289492
  0
LINE
  5
495
100
AcDbEntity
  8
0
100
AcDbLine
 62
7
  6
CONTINUOUS
 10
515.9480728617
 20
361.0544098084
 11
517.4480728617
 21
361.0544098084
  0
LINE
  5
496
100
AcDbEntity
  8
0
100
AcDbLine
 62
7
  6
CONTINUOUS
 10
523.6980726232
 20
361.0544098084
 11
525.4480731001
 21
361.0544098084
  0
LINE
  5
497
100
AcDbEntity
  8
0
100
AcDbLine
 62
7
  6
CONTINUOUS
 10
531.4480723848
 20
361.0544098084
 11
532.4480728617
 21
361.0544098084
  0
LINE
  5
498
100
AcDbEntity
  8
0
100
AcDbLine
 62
7
  6
CONTINUOUS
 10
538.4480728617
 20
361.0544098084
 11
544.4480728617
 21
361.0544098084
  0
LINE
  5
499
100
AcDbEntity
  8
0
100
AcDbLine
 62
7
  6
CONTINUOUS
 10
531.4480723848
 20
362.5863246982
 11
532.4480728617
 21
362.5863246982
  0
LINE
  5
49A
100
AcDbEntity
  8
0
100
AcDbLine
 62
7
  6
CONTINUOUS
 10
539.9480728617
 20
362.5863246982
 11
544.4480728617
 21
362.5863246982
  0
LINE
  5
49B
100
AcDbEntity
  8
0
100
AcDbLine
 62
7
  6
CONTINUOUS
 10
517.4480728617
 20
366.4161120121
 11
521.6980727425
 21
366.4161120121
  0
LINE
  5
49C
100
AcDbEntity
  8
0
100
AcDbLine
 62
7
  6
CONTINUOUS
 10
517.4480728617
 20
367.9480267231
 11
522.1980726232
 21
367.9480267231
  0
LINE
  5
49D
100
AcDbEntity
  8
0
100
AcDbLine
 62
7
  6
CONTINUOUS
 10
539.9480728617
 20
371.5224950974
 11
544.4480728617
 21
371.5224950974
  0
LINE
  5
49E
100
AcDbEntity
  8
0
100
AcDbLine
 62
7
  6
CONTINUOUS
 10
517.4480728617
 20
371.7778142159
 11
522.1980726232
 21
371.7778142159
  0
LINE
  5
49F
100
AcDbEntity
  8
0
100
AcDbLine
 62
7
  6
CONTINUOUS
 10
569.4880728617
 20
352.8044098084
 11
570.5297379389
 21
352.5916438763
  0
LINE
  5
4A0
100
AcDbEntity
  8
0
100
AcDbLine
 62
7
  6
CONTINUOUS
 10
530.1980728617
 20
361.3097289492
 11
531.4480723848
 21
361.0544098084
  0
LINE
  5
4A1
100
AcDbEntity
  8
0
100
AcDbLine
 62
7
  6
CONTINUOUS
 10
521.9480728617
 20
373.0544098084
 11
523.1980731001
 21
372.7990906899
  0
LINE
  5
4A2
100
AcDbEntity
  8
0
100
AcDbLine
 62
7
  6
CONTINUOUS
 10
530.4480733385
 20
362.8416438167
 11
531.4480723848
 21
362.5863246982
  0
LINE
  5
4A3
100
AcDbEntity
  8
0
100
AcDbLine
 62
7
  6
CONTINUOUS
 10
567.8214077845
 20
348.7618565027
 11
568.4464077845
 21
348.5490905706
  0
LINE
  5
4A4
100
AcDbEntity
  8
0
100
AcDbLine
 62
7
  6
CONTINUOUS
 10
569.6964077845
 20
351.5278142159
 11
570.3214077845
 21
351.3150482838
  0
LINE
  5
4A5
100
AcDbEntity
  8
0
100
AcDbLine
 62
7
  6
CONTINUOUS
 10
522.1980726232
 20
371.7778142159
 11
522.9480726232
 21
371.5224950974
  0
LINE
  5
4A6
100
AcDbEntity
  8
0
100
AcDbLine
 62
7
  6
CONTINUOUS
 10
557.4047379389
 20
343.4427076791
 11
558.2380728617
 21
343.0171757591
  0
LINE
  5
4A7
100
AcDbEntity
  8
0
100
AcDbLine
 62
7
  6
CONTINUOUS
 10
529.1980723848
 20
361.8203672533
 11
530.1980728617
 21
361.3097289492
  0
LINE
  5
4A8
100
AcDbEntity
  8
0
100
AcDbLine
 62
7
  6
CONTINUOUS
 10
566.7797379389
 20
347.9107927744
 11
567.6130728617
 21
347.4852609102
  0
LINE
  5
4A9
100
AcDbEntity
  8
0
100
AcDbLine
 62
7
  6
CONTINUOUS
 10
570.7380728617
 20
348.3363246386
 11
571.5714077845
 21
347.9107927744
  0
LINE
  5
4AA
100
AcDbEntity
  8
0
100
AcDbLine
 62
7
  6
CONTINUOUS
 10
565.9464077845
 20
343.6554736112
 11
566.9880728617
 21
343.0171757591
  0
LINE
  5
4AB
100
AcDbEntity
  8
0
100
AcDbLine
 62
7
  6
CONTINUOUS
 10
529.6980733385
 20
363.3522822325
 11
530.4480733385
 21
362.8416438167
  0
LINE
  5
4AC
100
AcDbEntity
  8
0
100
AcDbLine
 62
7
  6
CONTINUOUS
 10
557.8214077845
 20
344.7193034951
 11
558.4464077845
 21
344.2937714819
  0
LINE
  5
4AD
100
AcDbEntity
  8
0
100
AcDbLine
 62
7
  6
CONTINUOUS
 10
543.4464077845
 20
352.5916438763
 11
544.2797379389
 21
351.95334608
  0
LINE
  5
4AE
100
AcDbEntity
  8
0
100
AcDbLine
 62
7
  6
CONTINUOUS
 10
523.1980731001
 20
372.7990906899
 11
524.1980728617
 21
372.0331333344
  0
LINE
  5
4AF
100
AcDbEntity
  8
0
100
AcDbLine
 62
7
  6
CONTINUOUS
 10
530.1130728617
 20
352.1661120121
 11
530.9464054003
 21
351.3150482838
  0
LINE
  5
4B0
100
AcDbEntity
  8
0
100
AcDbLine
 62
7
  6
CONTINUOUS
 10
528.1980733385
 20
362.8416438167
 11
529.1980723848
 21
361.8203672533
  0
LINE
  5
4B1
100
AcDbEntity
  8
0
100
AcDbLine
 62
7
  6
CONTINUOUS
 10
522.9480726232
 20
371.5224950974
 11
523.4480728617
 21
371.0118568604
  0
LINE
  5
4B2
100
AcDbEntity
  8
0
100
AcDbLine
 62
7
  6
CONTINUOUS
 10
520.5297403231
 20
351.95334608
 11
521.1547403231
 21
351.1022823517
  0
LINE
  5
4B3
100
AcDbEntity
  8
0
100
AcDbLine
 62
7
  6
CONTINUOUS
 10
471.0495182206
 20
439.4330035545
 11
471.4324970325
 21
438.8705035545
  0
LINE
  5
4B4
100
AcDbEntity
  8
0
100
AcDbLine
 62
7
  6
CONTINUOUS
 10
532.9314065924
 20
330.7722823517
 11
533.764739131
 21
329.4956861631
  0
LINE
  5
4B5
100
AcDbEntity
  8
0
100
AcDbLine
 62
7
  6
CONTINUOUS
 10
524.4880728617
 20
345.3576012914
 11
524.9047403231
 21
344.7193034951
  0
LINE
  5
4B6
100
AcDbEntity
  8
0
100
AcDbLine
 62
7
  6
CONTINUOUS
 10
472.5814331831
 20
439.0580028393
 11
472.198454455
 21
439.8080031969
  0
LINE
  5
4B7
100
AcDbEntity
  8
0
100
AcDbLine
 62
7
  6
CONTINUOUS
 10
472.5814331831
 20
448.0580039121
 11
472.198454455
 21
448.8080031969
  0
LINE
  5
4B8
100
AcDbEntity
  8
0
100
AcDbLine
 62
7
  6
CONTINUOUS
 10
527.9314059963
 20
324.8148353593
 11
528.3480728617
 21
323.9637714819
  0
LINE
  5
4B9
100
AcDbEntity
  8
0
100
AcDbLine
 62
7
  6
CONTINUOUS
 10
523.2380728617
 20
345.1448353593
 11
523.6547403231
 21
344.2937714819
  0
LINE
  5
4BA
100
AcDbEntity
  8
0
100
AcDbLine
 62
7
  6
CONTINUOUS
 10
534.1814065924
 20
330.9850482838
 11
534.5980728617
 21
330.1339845554
  0
LINE
  5
4BB
100
AcDbEntity
  8
0
100
AcDbLine
 62
7
  6
CONTINUOUS
 10
538.3480728617
 20
324.176537414
 11
538.7647403231
 21
323.3254736112
  0
LINE
  5
4BC
100
AcDbEntity
  8
0
100
AcDbLine
 62
7
  6
CONTINUOUS
 10
519.9047403231
 20
346.6341971819
 11
520.1130728617
 21
345.9958990876
  0
LINE
  5
4BD
100
AcDbEntity
  8
0
100
AcDbLine
 62
7
  6
CONTINUOUS
 10
527.7230728617
 20
325.4531331555
 11
527.9314059963
 21
324.8148353593
  0
LINE
  5
4BE
100
AcDbEntity
  8
0
100
AcDbLine
 62
7
  6
CONTINUOUS
 10
521.1547403231
 20
346.846963114
 11
521.3630728617
 21
346.2086650197
  0
LINE
  5
4BF
100
AcDbEntity
  8
0
100
AcDbLine
 62
7
  6
CONTINUOUS
 10
519.9047403231
 20
350.8895164196
 11
520.1130728617
 21
350.2512180273
  0
LINE
  5
4C0
100
AcDbEntity
  8
0
100
AcDbLine
 62
7
  6
CONTINUOUS
 10
521.1547403231
 20
351.1022823517
 11
521.3630728617
 21
350.4639845554
  0
LINE
  5
4C1
100
AcDbEntity
  8
KONSTRUKTIONSELEMENTE
100
AcDbLine
 62
7
  6
CONTINUOUS
 10
509.9275094157
 20
419.7744098084
 11
509.9275094157
 21
419.9744098084
  0
LINE
  5
4C2
100
AcDbEntity
  8
KONSTRUKTIONSELEMENTE
100
AcDbLine
 62
7
  6
CONTINUOUS
 10
510.0557823372
 20
419.7744098084
 11
510.0557823372
 21
419.9744098084
  0
LINE
  5
4C3
100
AcDbEntity
  8
KONSTRUKTIONSELEMENTE
100
AcDbLine
 62
7
  6
CONTINUOUS
 10
510.4348275309
 20
419.7744098084
 11
510.4348275309
 21
419.9744098084
  0
LINE
  5
4C4
100
AcDbEntity
  8
0
100
AcDbLine
 62
7
  6
CONTINUOUS
 10
511.9880728617
 20
342.8044098084
 11
511.9880728617
 21
344.0810055499
  0
LINE
  5
4C5
100
AcDbEntity
  8
KONSTRUKTIONSELEMENTE
100
AcDbLine
 62
7
  6
CONTINUOUS
 10
512.9540925895
 20
419.7744098084
 11
512.9540925895
 21
419.9744098084
  0
LINE
  5
4C6
100
AcDbEntity
  8
0
100
AcDbLine
 62
7
  6
CONTINUOUS
 10
513.654739131
 20
342.8044098084
 11
513.654739131
 21
352.8044098084
  0
LINE
  5
4C7
100
AcDbEntity
  8
0
100
AcDbLine
 62
7
  6
CONTINUOUS
 10
514.9047403231
 20
344.0810055499
 11
514.9047403231
 21
347.2724949781
  0
LINE
  5
4C8
100
AcDbEntity
  8
0
100
AcDbLine
 62
7
  6
CONTINUOUS
 10
514.9047403231
 20
348.5490905706
 11
514.9047403231
 21
351.5278142159
  0
LINE
  5
4C9
100
AcDbEntity
  8
0
100
AcDbLine
 62
7
  6
CONTINUOUS
 10
515.9480728617
 20
361.0544098084
 11
515.9480728617
 21
373.0544098084
  0
LINE
  5
4CA
100
AcDbEntity
  8
KONSTRUKTIONSELEMENTE
100
AcDbLine
 62
7
  6
CONTINUOUS
 10
516.5666940113
 20
419.7744098084
 11
516.5666940113
 21
419.9744098084
  0
LINE
  5
4CB
100
AcDbEntity
  8
KONSTRUKTIONSELEMENTE
100
AcDbLine
 62
7
  6
CONTINUOUS
 10
517.3493862241
 20
419.7744098084
 11
517.3493862241
 21
419.9744098084
  0
LINE
  5
4CC
100
AcDbEntity
  8
0
100
AcDbLine
 62
7
  6
CONTINUOUS
 10
517.4480728617
 20
361.0544098084
 11
517.4480728617
 21
366.4161120121
  0
LINE
  5
4CD
100
AcDbEntity
  8
0
100
AcDbLine
 62
7
  6
CONTINUOUS
 10
517.4480728617
 20
367.9480267231
 11
517.4480728617
 21
371.7778142159
  0
LINE
  5
4CE
100
AcDbEntity
  8
0
100
AcDbLine
 62
7
  6
CONTINUOUS
 10
518.3480728617
 20
322.4744098084
 11
518.3480728617
 21
323.5382396178
  0
LINE
  5
4CF
100
AcDbEntity
  8
0
100
AcDbLine
 62
7
  6
CONTINUOUS
 10
520.1130728617
 20
345.3576012914
 11
520.1130728617
 21
345.9958990876
  0
LINE
  5
4D0
100
AcDbEntity
  8
0
100
AcDbLine
 62
7
  6
CONTINUOUS
 10
520.1130728617
 20
349.8256861631
 11
520.1130728617
 21
350.2512180273
  0
LINE
  5
4D1
100
AcDbEntity
  8
KONSTRUKTIONSELEMENTE
100
AcDbLine
 62
7
  6
CONTINUOUS
 10
520.1543441477
 20
419.7744098084
 11
520.1543441477
 21
419.9744098084
  0
LINE
  5
4D2
100
AcDbEntity
  8
KONSTRUKTIONSELEMENTE
100
AcDbLine
 62
7
  6
CONTINUOUS
 10
520.4801550756
 20
419.7744098084
 11
520.4801550756
 21
419.9744098084
  0
LINE
  5
4D3
100
AcDbEntity
  8
KONSTRUKTIONSELEMENTE
100
AcDbLine
 62
7
  6
CONTINUOUS
 10
521.2628476617
 20
419.7744098084
 11
521.2628476617
 21
419.9744098084
  0
LINE
  5
4D4
100
AcDbEntity
  8
0
100
AcDbLine
 62
7
  6
CONTINUOUS
 10
521.3630728617
 20
345.1448353593
 11
521.3630728617
 21
346.2086650197
  0
LINE
  5
4D5
100
AcDbEntity
  8
0
100
AcDbLine
 62
7
  6
CONTINUOUS
 10
521.3630728617
 20
349.6129202311
 11
521.3630728617
 21
350.4639845554
  0
LINE
  5
4D6
100
AcDbEntity
  8
0
100
AcDbLine
 62
7
  6
CONTINUOUS
 10
499.4880728617
 20
342.8044098084
 11
502.8214059963
 21
352.8044098084
  0
LINE
  5
4D7
100
AcDbEntity
  8
0
100
AcDbLine
 62
7
  6
CONTINUOUS
 10
498.654739429
 20
344.0810055499
 11
501.5714059963
 21
352.8044098084
  0
LINE
  5
4D8
100
AcDbEntity
  8
0
100
AcDbLine
 62
7
  6
CONTINUOUS
 10
515.9480728617
 20
373.0544098084
 11
521.9480728617
 21
373.0544098084
  0
LINE
  5
4D9
100
AcDbEntity
  8
0
100
AcDbLine
 62
7
  6
CONTINUOUS
 10
527.4480726232
 20
373.0544098084
 11
528.9480733385
 21
373.0544098084
  0
LINE
  5
4DA
100
AcDbEntity
  8
0
100
AcDbLine
 62
7
  6
CONTINUOUS
 10
534.9480733385
 20
373.0544098084
 11
536.4480733385
 21
373.0544098084
  0
LINE
  5
4DB
100
AcDbEntity
  8
0
100
AcDbLine
 62
7
  6
CONTINUOUS
 10
538.4480728617
 20
373.0544098084
 11
544.4480728617
 21
373.0544098084
  0
LINE
  5
4DC
100
AcDbEntity
  8
RUNDUNGEN
100
AcDbLine
 62
7
  6
CONTINUOUS
 10
489.5980728617
 20
381.2744098084
 11
574.5980728617
 21
381.2744098084
  0
LINE
  5
4DD
100
AcDbEntity
  8
0
100
AcDbLine
 62
7
  6
CONTINUOUS
 10
484.5980728617
 20
381.5244098084
 11
579.5980728617
 21
381.5244098084
  0
LINE
  5
4DE
100
AcDbEntity
  8
0
100
AcDbLine
 62
7
  6
CONTINUOUS
 10
544.4480728617
 20
373.0544098084
 11
545.6980738153
 21
372.7990906899
  0
LINE
  5
4DF
100
AcDbEntity
  8
0
100
AcDbLine
 62
7
  6
CONTINUOUS
 10
544.4480728617
 20
371.5224950974
 11
545.448071908
 21
371.2671759789
  0
LINE
  5
4E0
100
AcDbEntity
  8
0
100
AcDbLine
 62
7
  6
CONTINUOUS
 10
545.6980738153
 20
372.7990906899
 11
546.6980728617
 21
372.2884524529
  0
LINE
  5
4E1
100
AcDbEntity
  8
0
100
AcDbLine
 62
7
  6
CONTINUOUS
 10
567.1964077845
 20
349.1873883669
 11
567.8214077845
 21
348.7618565027
  0
LINE
  5
4E2
100
AcDbEntity
  8
0
100
AcDbLine
 62
7
  6
CONTINUOUS
 10
570.5297379389
 20
347.0597290461
 11
571.1547379389
 21
346.6341971819
  0
LINE
  5
4E3
100
AcDbEntity
  8
0
100
AcDbLine
 62
7
  6
CONTINUOUS
 10
545.448071908
 20
371.2671759789
 11
546.198071908
 21
370.7565377419
  0
LINE
  5
4E4
100
AcDbEntity
  8
0
100
AcDbLine
 62
7
  6
CONTINUOUS
 10
467.028241836
 20
431.3705031969
 11
467.4112205138
 21
430.9955030181
  0
LINE
  5
4E5
100
AcDbEntity
  8
0
100
AcDbLine
 62
7
  6
CONTINUOUS
 10
543.2380728617
 20
351.5278142159
 11
543.6547379389
 21
351.1022823517
  0
LINE
  5
4E6
100
AcDbEntity
  8
0
100
AcDbLine
 62
7
  6
CONTINUOUS
 10
556.5714077845
 20
344.2937714819
 11
557.4047379389
 21
343.4427076791
  0
LINE
  5
4E7
100
AcDbEntity
  8
0
100
AcDbLine
 62
7
  6
CONTINUOUS
 10
524.1980728617
 20
372.0331333344
 11
524.9480728617
 21
371.0118568604
  0
LINE
  5
4E8
100
AcDbEntity
  8
0
100
AcDbLine
 62
7
  6
CONTINUOUS
 10
544.2797379389
 20
351.95334608
 11
544.9047379389
 21
351.1022823517
  0
LINE
  5
4E9
100
AcDbEntity
  8
0
100
AcDbLine
 62
7
  6
CONTINUOUS
 10
471.0495182206
 20
448.4330024816
 11
471.4324970325
 21
447.8705024816
  0
LINE
  5
4EA
100
AcDbEntity
  8
0
100
AcDbLine
 62
7
  6
CONTINUOUS
 10
529.1980723848
 20
364.118239588
 11
529.6980733385
 21
363.3522822325
  0
LINE
  5
4EB
100
AcDbEntity
  8
0
100
AcDbLine
 62
7
  6
CONTINUOUS
 10
527.6980731001
 20
363.8629204695
 11
528.1980733385
 21
362.8416438167
  0
LINE
  5
4EC
100
AcDbEntity
  8
BEZUGSACHSEN
100
AcDbLine
 62
7
  6
CONTINUOUS
 10
467.7511380831
 20
489.6776606645
 11
462.8567305077
 21
500.6706800653
  0
LINE
  5
4ED
100
AcDbEntity
  8
0
100
AcDbLine
 62
7
  6
CONTINUOUS
 10
523.1980731001
 20
366.9267502491
 11
525.4480731001
 21
361.0544098084
  0
LINE
  5
4EE
100
AcDbEntity
  8
0
100
AcDbLine
 62
7
  6
CONTINUOUS
 10
521.6980727425
 20
366.4161120121
 11
523.6980726232
 21
361.0544098084
  0
LINE
  5
4EF
100
AcDbEntity
  8
0
100
AcDbLine
 62
7
  6
CONTINUOUS
 10
534.5980728617
 20
330.1339845554
 11
534.8064065924
 21
329.4956861631
  0
LINE
  5
4F0
100
AcDbEntity
  8
0
100
AcDbLine
 62
7
  6
CONTINUOUS
 10
529.6964054003
 20
350.8895164196
 11
529.9047403231
 21
350.2512180273
  0
LINE
  5
4F1
100
AcDbEntity
  8
0
100
AcDbLine
 62
7
  6
CONTINUOUS
 10
523.4480728617
 20
371.0118568604
 11
523.6980726232
 21
370.2458995049
  0
LINE
  5
4F2
100
AcDbEntity
  8
0
100
AcDbLine
 62
7
  6
CONTINUOUS
 10
539.3897403231
 20
324.6020694272
 11
539.5980728617
 21
323.9637714819
  0
LINE
  5
4F3
100
AcDbEntity
  8
0
100
AcDbLine
 62
7
  6
CONTINUOUS
 10
524.9480728617
 20
371.0118568604
 11
525.1980726232
 21
370.2458995049
  0
LINE
  5
4F4
100
AcDbEntity
  8
0
100
AcDbLine
 62
7
  6
CONTINUOUS
 10
525.639739727
 20
330.9850482838
 11
525.8480728617
 21
330.1339845554
  0
LINE
  5
4F5
100
AcDbEntity
  8
0
100
AcDbLine
 62
7
  6
CONTINUOUS
 10
524.2797403231
 20
346.2086650197
 11
524.4880728617
 21
345.3576012914
  0
LINE
  5
4F6
100
AcDbEntity
  8
0
100
AcDbLine
 62
7
  6
CONTINUOUS
 10
523.0297403231
 20
346.2086650197
 11
523.2380728617
 21
345.1448353593
  0
LINE
  5
4F7
100
AcDbEntity
  8
0
100
AcDbLine
 62
7
  6
CONTINUOUS
 10
527.514739727
 20
326.516963114
 11
527.7230728617
 21
325.4531331555
  0
LINE
  5
4F8
100
AcDbEntity
  8
0
100
AcDbLine
 62
7
  6
CONTINUOUS
 10
528.5564065924
 20
326.7297290461
 11
528.764739131
 21
325.4531331555
  0
LINE
  5
4F9
100
AcDbEntity
  8
0
100
AcDbLine
 62
7
  6
CONTINUOUS
 10
523.0297403231
 20
346.2086650197
 11
523.0297403231
 21
349.400154299
  0
LINE
  5
4FA
100
AcDbEntity
  8
0
100
AcDbLine
 62
7
  6
CONTINUOUS
 10
523.6980726232
 20
369.4799414341
 11
523.6980726232
 21
370.2458995049
  0
LINE
  5
4FB
100
AcDbEntity
  8
KONSTRUKTIONSELEMENTE
100
AcDbLine
 62
7
  6
CONTINUOUS
 10
524.0678055852
 20
419.7744098084
 11
524.0678055852
 21
419.9744098084
  0
LINE
  5
4FC
100
AcDbEntity
  8
0
100
AcDbLine
 62
7
  6
CONTINUOUS
 10
524.2797403231
 20
346.2086650197
 11
524.2797403231
 21
349.400154299
  0
LINE
  5
4FD
100
AcDbEntity
  8
KONSTRUKTIONSELEMENTE
100
AcDbLine
 62
7
  6
CONTINUOUS
 10
524.3897691412
 20
419.7744098084
 11
524.3897691412
 21
419.9744098084
  0
LINE
  5
4FE
100
AcDbEntity
  8
KONSTRUKTIONSELEMENTE
100
AcDbLine
 62
7
  6
CONTINUOUS
 10
524.4908016815
 20
419.7744098084
 11
524.4908016815
 21
419.9744098084
  0
LINE
  5
4FF
100
AcDbEntity
  8
0
100
AcDbLine
 62
7
  6
CONTINUOUS
 10
524.5980728617
 20
329.7084520952
 11
524.5980728617
 21
330.1339845554
  0
LINE
  5
500
100
AcDbEntity
  8
0
100
AcDbLine
 62
7
  6
CONTINUOUS
 10
525.1980726232
 20
369.2246223156
 11
525.1980726232
 21
370.2458995049
  0
LINE
  5
501
100
AcDbEntity
  8
KONSTRUKTIONSELEMENTE
100
AcDbLine
 62
7
  6
CONTINUOUS
 10
525.7989764132
 20
419.7744098084
 11
525.7989764132
 21
419.9744098084
  0
LINE
  5
502
100
AcDbEntity
  8
0
100
AcDbLine
 62
7
  6
CONTINUOUS
 10
525.8480728617
 20
322.4744098084
 11
525.8480728617
 21
323.5382396178
  0
LINE
  5
503
100
AcDbEntity
  8
0
100
AcDbLine
 62
7
  6
CONTINUOUS
 10
525.8480728617
 20
329.7084520952
 11
525.8480728617
 21
330.1339845554
  0
LINE
  5
504
100
AcDbEntity
  8
KONSTRUKTIONSELEMENTE
100
AcDbLine
 62
7
  6
CONTINUOUS
 10
525.8588826715
 20
419.7744098084
 11
525.8588826715
 21
419.9744098084
  0
LINE
  5
505
100
AcDbEntity
  8
KONSTRUKTIONSELEMENTE
100
AcDbLine
 62
7
  6
CONTINUOUS
 10
526.1769373366
 20
419.7744098084
 11
526.1769373366
 21
419.9744098084
  0
LINE
  5
506
100
AcDbEntity
  8
KONSTRUKTIONSELEMENTE
100
AcDbLine
 62
7
  6
CONTINUOUS
 10
526.6655666451
 20
419.7744098084
 11
526.6655666451
 21
419.9744098084
  0
LINE
  5
507
100
AcDbEntity
  8
KONSTRUKTIONSELEMENTE
100
AcDbLine
 62
7
  6
CONTINUOUS
 10
527.3524381022
 20
419.7744098084
 11
527.3524381022
 21
419.9744098084
  0
LINE
  5
508
100
AcDbEntity
  8
0
100
AcDbLine
 62
7
  6
CONTINUOUS
 10
527.4480726232
 20
365.139516062
 11
527.4480726232
 21
373.0544098084
  0
LINE
  5
509
100
AcDbEntity
  8
0
100
AcDbLine
 62
7
  6
CONTINUOUS
 10
527.514739727
 20
326.516963114
 11
527.514739727
 21
328.4318565027
  0
LINE
  5
50A
100
AcDbEntity
  8
0
100
AcDbLine
 62
7
  6
CONTINUOUS
 10
528.0297403231
 20
347.0597290461
 11
528.0297403231
 21
348.3363246386
  0
LINE
  5
50B
100
AcDbEntity
  8
0
100
AcDbLine
 62
7
  6
CONTINUOUS
 10
528.5564065924
 20
326.7297290461
 11
528.5564065924
 21
328.2190905706
  0
LINE
  5
50C
100
AcDbEntity
  8
0
100
AcDbLine
 62
7
  6
CONTINUOUS
 10
528.9480733385
 20
365.139516062
 11
528.9480733385
 21
373.0544098084
  0
LINE
  5
50D
100
AcDbEntity
  8
0
100
AcDbLine
 62
7
  6
CONTINUOUS
 10
529.9047403231
 20
345.3576012914
 11
529.9047403231
 21
347.0597290461
  0
LINE
  5
50E
100
AcDbEntity
  8
KONSTRUKTIONSELEMENTE
100
AcDbLine
 62
7
  6
CONTINUOUS
 10
530.7822225044
 20
419.7744098084
 11
530.7822225044
 21
419.9744098084
  0
LINE
  5
50F
100
AcDbEntity
  8
0
100
AcDbLine
 62
7
  6
CONTINUOUS
 10
531.1547403231
 20
345.1448353593
 11
531.1547403231
 21
348.3363246386
  0
LINE
  5
510
100
AcDbEntity
  8
KONSTRUKTIONSELEMENTE
100
AcDbLine
 62
7
  6
CONTINUOUS
 10
532.0825761852
 20
419.7744098084
 11
532.0825761852
 21
419.9744098084
  0
LINE
  5
511
100
AcDbEntity
  8
BEZUGSACHSEN
100
AcDbLine
 62
7
  6
CONTINUOUS
 10
532.0980728617
 20
390.2744098084
 11
532.0980728617
 21
416.425044903
  0
LINE
  5
512
100
AcDbEntity
  8
0
100
AcDbLine
 62
7
  6
CONTINUOUS
 10
532.8214054003
 20
346.4214309518
 11
532.8214054003
 21
347.4852609102
  0
LINE
  5
513
100
AcDbEntity
  8
0
100
AcDbLine
 62
7
  6
CONTINUOUS
 10
523.0297403231
 20
349.400154299
 11
523.2380728617
 21
350.4639845554
  0
LINE
  5
514
100
AcDbEntity
  8
0
100
AcDbLine
 62
7
  6
CONTINUOUS
 10
523.4480728617
 20
368.7139840786
 11
523.6980726232
 21
369.4799414341
  0
LINE
  5
515
100
AcDbEntity
  8
0
100
AcDbLine
 62
7
  6
CONTINUOUS
 10
524.9480728617
 20
368.4586649601
 11
525.1980726232
 21
369.2246223156
  0
LINE
  5
516
100
AcDbEntity
  8
0
100
AcDbLine
 62
7
  6
CONTINUOUS
 10
484.5980728617
 20
389.7744098084
 11
579.5980728617
 21
389.7744098084
  0
LINE
  5
517
100
AcDbEntity
  8
KONSTRUKTIONSELEMENTE
100
AcDbLine
 62
7
  6
CONTINUOUS
 10
494.5980728617
 20
390.2744098084
 11
569.5980728617
 21
390.2744098084
  0
LINE
  5
518
100
AcDbEntity
  8
0
100
AcDbLine
 62
7
  6
CONTINUOUS
 10
467.9856885304
 20
431.9330031969
 11
467.2197311749
 21
432.4955031969
  0
LINE
  5
519
100
AcDbEntity
  8
0
100
AcDbLine
 62
7
  6
CONTINUOUS
 10
570.5297379389
 20
352.5916438763
 11
571.3630728617
 21
351.95334608
  0
LINE
  5
51A
100
AcDbEntity
  8
0
100
AcDbLine
 62
7
  6
CONTINUOUS
 10
472.198454455
 20
439.8080031969
 11
471.4324970325
 21
440.5580035545
  0
LINE
  5
51B
100
AcDbEntity
  8
0
100
AcDbLine
 62
7
  6
CONTINUOUS
 10
472.198454455
 20
448.8080031969
 11
471.4324970325
 21
449.5580024816
  0
LINE
  5
51C
100
AcDbEntity
  8
0
100
AcDbLine
 62
7
  6
CONTINUOUS
 10
566.5714077845
 20
344.9320694272
 11
567.1964077845
 21
344.2937714819
  0
LINE
  5
51D
100
AcDbEntity
  8
0
100
AcDbLine
 62
7
  6
CONTINUOUS
 10
565.9464077845
 20
348.7618565027
 11
566.7797379389
 21
347.9107927744
  0
LINE
  5
51E
100
AcDbEntity
  8
0
100
AcDbLine
 62
7
  6
CONTINUOUS
 10
546.6980728617
 20
372.2884524529
 11
547.698071908
 21
371.2671759789
  0
LINE
  5
51F
100
AcDbEntity
  8
0
100
AcDbLine
 62
7
  6
CONTINUOUS
 10
571.5714077845
 20
347.9107927744
 11
572.4047379389
 21
347.0597290461
  0
LINE
  5
520
100
AcDbEntity
  8
0
100
AcDbLine
 62
7
  6
CONTINUOUS
 10
570.3214077845
 20
351.3150482838
 11
570.7380728617
 21
350.8895164196
  0
LINE
  5
521
100
AcDbEntity
  8
0
100
AcDbLine
 62
7
  6
CONTINUOUS
 10
557.4047379389
 20
345.3576012914
 11
557.8214077845
 21
344.7193034951
  0
LINE
  5
522
100
AcDbEntity
  8
0
100
AcDbLine
 62
7
  6
CONTINUOUS
 10
546.198071908
 20
370.7565377419
 11
546.6980728617
 21
369.9905796711
  0
LINE
  5
523
100
AcDbEntity
  8
0
100
AcDbLine
 62
7
  6
CONTINUOUS
 10
556.1547379389
 20
345.1448353593
 11
556.5714077845
 21
344.2937714819
  0
LINE
  5
524
100
AcDbEntity
  8
0
100
AcDbLine
 62
7
  6
CONTINUOUS
 10
543.6547379389
 20
351.1022823517
 11
543.8630728617
 21
350.4639845554
  0
LINE
  5
525
100
AcDbEntity
  8
0
100
AcDbLine
 62
7
  6
CONTINUOUS
 10
544.9047379389
 20
351.1022823517
 11
545.1130728617
 21
350.4639845554
  0
LINE
  5
526
100
AcDbEntity
  8
0
100
AcDbLine
 62
7
  6
CONTINUOUS
 10
528.9480733385
 20
365.139516062
 11
529.1980723848
 21
364.118239588
  0
LINE
  5
527
100
AcDbEntity
  8
0
100
AcDbLine
 62
7
  6
CONTINUOUS
 10
527.4480726232
 20
365.139516062
 11
527.6980731001
 21
363.8629204695
  0
LINE
  5
528
100
AcDbEntity
  8
0
100
AcDbLine
 62
7
  6
CONTINUOUS
 10
534.8064065924
 20
329.4956861631
 11
535.014739131
 21
328.4318565027
  0
LINE
  5
529
100
AcDbEntity
  8
0
100
AcDbLine
 62
7
  6
CONTINUOUS
 10
530.9464054003
 20
351.3150482838
 11
531.1547403231
 21
350.2512180273
  0
LINE
  5
52A
100
AcDbEntity
  8
0
100
AcDbLine
 62
7
  6
CONTINUOUS
 10
533.764739131
 20
329.4956861631
 11
533.9730728617
 21
328.2190905706
  0
LINE
  5
52B
100
AcDbEntity
  8
0
100
AcDbLine
 62
7
  6
CONTINUOUS
 10
533.9730728617
 20
326.7297290461
 11
533.9730728617
 21
328.2190905706
  0
LINE
  5
52C
100
AcDbEntity
  8
0
100
AcDbLine
 62
7
  6
CONTINUOUS
 10
534.9480733385
 20
365.139516062
 11
534.9480733385
 21
373.0544098084
  0
LINE
  5
52D
100
AcDbEntity
  8
0
100
AcDbLine
 62
7
  6
CONTINUOUS
 10
535.014739131
 20
326.516963114
 11
535.014739131
 21
328.4318565027
  0
LINE
  5
52E
100
AcDbEntity
  8
0
100
AcDbLine
 62
7
  6
CONTINUOUS
 10
535.7380728617
 20
346.4214309518
 11
535.7380728617
 21
347.4852609102
  0
LINE
  5
52F
100
AcDbEntity
  8
0
100
AcDbLine
 62
7
  6
CONTINUOUS
 10
536.4480733385
 20
365.139516062
 11
536.4480733385
 21
373.0544098084
  0
LINE
  5
530
100
AcDbEntity
  8
0
100
AcDbLine
 62
7
  6
CONTINUOUS
 10
536.6814065924
 20
328.4318565027
 11
536.6814065924
 21
329.2829202311
  0
LINE
  5
531
100
AcDbEntity
  8
0
100
AcDbLine
 62
7
  6
CONTINUOUS
 10
537.4047379389
 20
342.8044098084
 11
537.4047379389
 21
352.8044098084
  0
LINE
  5
532
100
AcDbEntity
  8
0
100
AcDbLine
 62
7
  6
CONTINUOUS
 10
538.3480728617
 20
324.176537414
 11
538.3480728617
 21
328.4318565027
  0
LINE
  5
533
100
AcDbEntity
  8
0
100
AcDbLine
 62
7
  6
CONTINUOUS
 10
538.3480728617
 20
329.2829202311
 11
538.3480728617
 21
330.9850482838
  0
LINE
  5
534
100
AcDbEntity
  8
0
100
AcDbLine
 62
7
  6
CONTINUOUS
 10
538.4480728617
 20
361.0544098084
 11
538.4480728617
 21
373.0544098084
  0
LINE
  5
535
100
AcDbEntity
  8
0
100
AcDbLine
 62
7
  6
CONTINUOUS
 10
538.6547379389
 20
342.8044098084
 11
538.6547379389
 21
347.2724949781
  0
LINE
  5
536
100
AcDbEntity
  8
0
100
AcDbLine
 62
7
  6
CONTINUOUS
 10
538.6547379389
 20
348.5490905706
 11
538.6547379389
 21
351.7405801479
  0
LINE
  5
537
100
AcDbEntity
  8
0
100
AcDbLine
 62
7
  6
CONTINUOUS
 10
539.3897403231
 20
324.6020694272
 11
539.3897403231
 21
328.4318565027
  0
LINE
  5
538
100
AcDbEntity
  8
0
100
AcDbLine
 62
7
  6
CONTINUOUS
 10
539.3897403231
 20
329.2829202311
 11
539.3897403231
 21
330.9850482838
  0
LINE
  5
539
100
AcDbEntity
  8
0
100
AcDbLine
 62
7
  6
CONTINUOUS
 10
539.9480728617
 20
362.5863246982
 11
539.9480728617
 21
371.5224950974
  0
LINE
  5
53A
100
AcDbEntity
  8
0
100
AcDbLine
 62
7
  6
CONTINUOUS
 10
541.2647403231
 20
322.4744098084
 11
541.2647403231
 21
323.3254736112
  0
LINE
  5
53B
100
AcDbEntity
  8
0
100
AcDbLine
 62
7
  6
CONTINUOUS
 10
541.6814054003
 20
328.4318565027
 11
541.6814054003
 21
329.2829202311
  0
LINE
  5
53C
100
AcDbEntity
  8
0
100
AcDbLine
 62
7
  6
CONTINUOUS
 10
543.8630728617
 20
349.8256861631
 11
543.8630728617
 21
350.4639845554
  0
LINE
  5
53D
100
AcDbEntity
  8
0
100
AcDbLine
 62
7
  6
CONTINUOUS
 10
545.1130728617
 20
349.6129202311
 11
545.1130728617
 21
350.4639845554
  0
LINE
  5
53E
100
AcDbEntity
  8
0
100
AcDbLine
 62
7
  6
CONTINUOUS
 10
528.5564065924
 20
328.2190905706
 11
528.764739131
 21
329.4956861631
  0
LINE
  5
53F
100
AcDbEntity
  8
0
100
AcDbLine
 62
7
  6
CONTINUOUS
 10
533.764739131
 20
325.4531331555
 11
533.9730728617
 21
326.7297290461
  0
LINE
  5
540
100
AcDbEntity
  8
0
100
AcDbLine
 62
7
  6
CONTINUOUS
 10
527.514739727
 20
328.4318565027
 11
527.7230728617
 21
329.4956861631
  0
LINE
  5
541
100
AcDbEntity
  8
0
100
AcDbLine
 62
7
  6
CONTINUOUS
 10
536.1980728617
 20
363.8629204695
 11
536.4480733385
 21
365.139516062
  0
LINE
  5
542
100
AcDbEntity
  8
0
100
AcDbLine
 62
7
  6
CONTINUOUS
 10
518.5564062012
 20
330.1339845554
 11
518.7647395408
 21
330.9850482838
  0
LINE
  5
543
100
AcDbEntity
  8
0
100
AcDbLine
 62
7
  6
CONTINUOUS
 10
524.2797403231
 20
349.400154299
 11
524.4880728617
 21
350.2512180273
  0
LINE
  5
544
100
AcDbEntity
  8
0
100
AcDbLine
 62
7
  6
CONTINUOUS
 10
525.639739727
 20
328.8573883669
 11
525.8480728617
 21
329.7084520952
  0
LINE
  5
545
100
AcDbEntity
  8
0
100
AcDbLine
 62
7
  6
CONTINUOUS
 10
534.6980728617
 20
364.118239588
 11
534.9480733385
 21
365.139516062
  0
LINE
  5
546
100
AcDbEntity
  8
0
100
AcDbLine
 62
7
  6
CONTINUOUS
 10
530.9464054003
 20
344.2937714819
 11
531.1547403231
 21
345.1448353593
  0
LINE
  5
547
100
AcDbEntity
  8
0
100
AcDbLine
 62
7
  6
CONTINUOUS
 10
519.9047403231
 20
349.1873883669
 11
520.1130728617
 21
349.8256861631
  0
LINE
  5
548
100
AcDbEntity
  8
0
100
AcDbLine
 62
7
  6
CONTINUOUS
 10
521.1547403231
 20
348.9746224348
 11
521.3630728617
 21
349.6129202311
  0
LINE
  5
549
100
AcDbEntity
  8
0
100
AcDbLine
 62
7
  6
CONTINUOUS
 10
519.9047403231
 20
344.7193034951
 11
520.1130728617
 21
345.3576012914
  0
LINE
  5
54A
100
AcDbEntity
  8
0
100
AcDbLine
 62
7
  6
CONTINUOUS
 10
521.1547403231
 20
344.506537414
 11
521.3630728617
 21
345.1448353593
  0
LINE
  5
54B
100
AcDbEntity
  8
0
100
AcDbLine
 62
7
  6
CONTINUOUS
 10
529.6964054003
 20
344.7193034951
 11
529.9047403231
 21
345.3576012914
  0
LINE
  5
54C
100
AcDbEntity
  8
0
100
AcDbLine
 62
7
  6
CONTINUOUS
 10
523.2380728617
 20
350.4639845554
 11
523.6547403231
 21
351.3150482838
  0
LINE
  5
54D
100
AcDbEntity
  8
0
100
AcDbLine
 62
7
  6
CONTINUOUS
 10
524.1980728617
 20
367.4373884861
 11
524.9480728617
 21
368.4586649601
  0
LINE
  5
54E
100
AcDbEntity
  8
0
100
AcDbLine
 62
7
  6
CONTINUOUS
 10
522.9480726232
 20
368.2033458416
 11
523.4480728617
 21
368.7139840786
  0
LINE
  5
54F
100
AcDbEntity
  8
0
100
AcDbLine
 62
7
  6
CONTINUOUS
 10
470.475050204
 20
439.8080031969
 11
471.0495182206
 21
439.4330035545
  0
LINE
  5
550
100
AcDbEntity
  8
0
100
AcDbLine
 62
7
  6
CONTINUOUS
 10
470.475050204
 20
448.8080031969
 11
471.0495182206
 21
448.4330024816
  0
LINE
  5
551
100
AcDbEntity
  8
0
100
AcDbLine
 62
7
  6
CONTINUOUS
 10
571.3630728617
 20
351.95334608
 11
571.9880728617
 21
351.1022823517
  0
LINE
  5
552
100
AcDbEntity
  8
0
100
AcDbLine
 62
7
  6
CONTINUOUS
 10
571.1547379389
 20
346.6341971819
 11
571.5714077845
 21
345.9958990876
  0
LINE
  5
553
100
AcDbEntity
  8
0
100
AcDbLine
 62
7
  6
CONTINUOUS
 10
565.3214077845
 20
344.7193034951
 11
565.9464077845
 21
343.6554736112
  0
LINE
  5
554
100
AcDbEntity
  8
0
100
AcDbLine
 62
7
  6
CONTINUOUS
 10
547.698071908
 20
371.2671759789
 11
548.1980728617
 21
370.2458995049
  0
LINE
  5
555
100
AcDbEntity
  8
0
100
AcDbLine
 62
7
  6
CONTINUOUS
 10
546.6980728617
 20
369.9905796711
 11
546.948071908
 21
368.9693031971
  0
LINE
  5
556
100
AcDbEntity
  8
0
100
AcDbLine
 62
7
  6
CONTINUOUS
 10
557.1964077845
 20
346.2086650197
 11
557.4047379389
 21
345.3576012914
  0
LINE
  5
557
100
AcDbEntity
  8
0
100
AcDbLine
 62
7
  6
CONTINUOUS
 10
548.1980728617
 20
370.2458995049
 11
548.448071908
 21
368.9693031971
  0
LINE
  5
558
100
AcDbEntity
  8
0
100
AcDbLine
 62
7
  6
CONTINUOUS
 10
546.7797379389
 20
342.8044098084
 11
546.7797379389
 21
352.8044098084
  0
LINE
  5
559
100
AcDbEntity
  8
0
100
AcDbLine
 62
7
  6
CONTINUOUS
 10
546.948071908
 20
365.139516062
 11
546.948071908
 21
368.9693031971
  0
LINE
  5
55A
100
AcDbEntity
  8
0
100
AcDbLine
 62
7
  6
CONTINUOUS
 10
548.0297379389
 20
344.0810055499
 11
548.0297379389
 21
352.8044098084
  0
LINE
  5
55B
100
AcDbEntity
  8
0
100
AcDbLine
 62
7
  6
CONTINUOUS
 10
548.448071908
 20
365.139516062
 11
548.448071908
 21
368.9693031971
  0
LINE
  5
55C
100
AcDbEntity
  8
0
100
AcDbLine
 62
7
  6
CONTINUOUS
 10
554.2797379389
 20
342.8044098084
 11
554.2797379389
 21
344.0810055499
  0
LINE
  5
55D
100
AcDbEntity
  8
0
100
AcDbLine
 62
7
  6
CONTINUOUS
 10
555.9464077845
 20
346.2086650197
 11
555.9464077845
 21
352.8044098084
  0
LINE
  5
55E
100
AcDbEntity
  8
BEZUGSACHSEN
100
AcDbLine
 62
7
  6
CONTINUOUS
 10
556.0980728617
 20
234.7744098084
 11
556.0980728617
 21
302.7744098084
  0
LINE
  5
55F
100
AcDbEntity
  8
0
100
AcDbLine
 62
7
  6
CONTINUOUS
 10
557.1964077845
 20
346.2086650197
 11
557.1964077845
 21
352.8044098084
  0
LINE
  5
560
100
AcDbEntity
  8
0
100
AcDbLine
 62
7
  6
CONTINUOUS
 10
534.8064065924
 20
325.4531331555
 11
535.014739131
 21
326.516963114
  0
LINE
  5
561
100
AcDbEntity
  8
0
100
AcDbLine
 62
7
  6
CONTINUOUS
 10
548.1980728617
 20
363.8629204695
 11
548.448071908
 21
365.139516062
  0
LINE
  5
562
100
AcDbEntity
  8
0
100
AcDbLine
 62
7
  6
CONTINUOUS
 10
546.6980728617
 20
364.118239588
 11
546.948071908
 21
365.139516062
  0
LINE
  5
563
100
AcDbEntity
  8
0
100
AcDbLine
 62
7
  6
CONTINUOUS
 10
527.7230728617
 20
329.4956861631
 11
527.9314059963
 21
330.1339845554
  0
LINE
  5
564
100
AcDbEntity
  8
0
100
AcDbLine
 62
7
  6
CONTINUOUS
 10
534.5980728617
 20
324.8148353593
 11
534.8064065924
 21
325.4531331555
  0
LINE
  5
565
100
AcDbEntity
  8
0
100
AcDbLine
 62
7
  6
CONTINUOUS
 10
543.6547379389
 20
349.1873883669
 11
543.8630728617
 21
349.8256861631
  0
LINE
  5
566
100
AcDbEntity
  8
RUNDUNGEN
100
AcDbLine
 62
7
  6
CONTINUOUS
 10
596.4450076402
 20
489.6776606645
 11
601.3394152156
 21
500.6706800653
  0
LINE
  5
567
100
AcDbEntity
  8
0
100
AcDbLine
 62
7
  6
CONTINUOUS
 10
535.6980733385
 20
362.8416438167
 11
536.1980728617
 21
363.8629204695
  0
LINE
  5
568
100
AcDbEntity
  8
0
100
AcDbLine
 62
7
  6
CONTINUOUS
 10
524.1814059963
 20
328.8573883669
 11
524.5980728617
 21
329.7084520952
  0
LINE
  5
569
100
AcDbEntity
  8
0
100
AcDbLine
 62
7
  6
CONTINUOUS
 10
527.9314059963
 20
330.1339845554
 11
528.3480728617
 21
330.9850482838
  0
LINE
  5
56A
100
AcDbEntity
  8
0
100
AcDbLine
 62
7
  6
CONTINUOUS
 10
524.4880728617
 20
350.2512180273
 11
524.9047403231
 21
350.8895164196
  0
LINE
  5
56B
100
AcDbEntity
  8
0
100
AcDbLine
 62
7
  6
CONTINUOUS
 10
534.1980733385
 20
363.3522822325
 11
534.6980728617
 21
364.118239588
  0
LINE
  5
56C
100
AcDbEntity
  8
0
100
AcDbLine
 62
7
  6
CONTINUOUS
 10
519.5980728617
 20
330.1339845554
 11
520.014739578
 21
330.7722823517
  0
LINE
  5
56D
100
AcDbEntity
  8
0
100
AcDbLine
 62
7
  6
CONTINUOUS
 10
520.5297403231
 20
348.1235587065
 11
521.1547403231
 21
348.9746224348
  0
LINE
  5
56E
100
AcDbEntity
  8
0
100
AcDbLine
 62
7
  6
CONTINUOUS
 10
520.5297403231
 20
343.6554736112
 11
521.1547403231
 21
344.506537414
  0
LINE
  5
56F
100
AcDbEntity
  8
0
100
AcDbLine
 62
7
  6
CONTINUOUS
 10
519.4880728617
 20
348.7618565027
 11
519.9047403231
 21
349.1873883669
  0
LINE
  5
570
100
AcDbEntity
  8
0
100
AcDbLine
 62
7
  6
CONTINUOUS
 10
523.6547403231
 20
351.3150482838
 11
524.4880728617
 21
352.1661120121
  0
LINE
  5
571
100
AcDbEntity
  8
0
100
AcDbLine
 62
7
  6
CONTINUOUS
 10
534.6980728617
 20
361.8203672533
 11
535.6980733385
 21
362.8416438167
  0
LINE
  5
572
100
AcDbEntity
  8
0
100
AcDbLine
 62
7
  6
CONTINUOUS
 10
523.1980731001
 20
366.9267502491
 11
524.1980728617
 21
367.4373884861
  0
LINE
  5
573
100
AcDbEntity
  8
0
100
AcDbLine
 62
7
  6
CONTINUOUS
 10
522.1980726232
 20
367.9480267231
 11
522.9480726232
 21
368.2033458416
  0
LINE
  5
574
100
AcDbEntity
  8
BEZUGSACHSEN
100
AcDbLine
 62
7
  6
CONTINUOUS
 10
494.5980728698
 20
419.7744098084
 11
569.5980728536
 21
419.7744098084
  0
LINE
  5
575
100
AcDbEntity
  8
KONSTRUKTIONSELEMENTE
100
AcDbLine
 62
7
  6
CONTINUOUS
 10
500.9109287121
 20
419.9744098084
 11
524.4908016815
 21
419.9744098084
  0
LINE
  5
576
100
AcDbEntity
  8
KONSTRUKTIONSELEMENTE
100
AcDbLine
 62
7
  6
CONTINUOUS
 10
525.7989764132
 20
419.9744098084
 11
532.0825761852
 21
419.9744098084
  0
LINE
  5
577
100
AcDbEntity
  8
0
100
AcDbLine
 62
7
  6
CONTINUOUS
 10
466.4537738194
 20
431.5580030181
 11
467.028241836
 21
431.3705031969
  0
LINE
  5
578
100
AcDbEntity
  8
0
100
AcDbLine
 62
7
  6
CONTINUOUS
 10
467.2197311749
 20
432.4955031969
 11
466.6452631583
 21
432.6830030181
  0
LINE
  5
579
100
AcDbEntity
  8
0
100
AcDbLine
 62
7
  6
CONTINUOUS
 10
471.4324970325
 20
440.5580035545
 11
470.6665395429
 21
440.9330031969
  0
LINE
  5
57A
100
AcDbEntity
  8
0
100
AcDbLine
 62
7
  6
CONTINUOUS
 10
471.4324970325
 20
449.5580024816
 11
470.6665395429
 21
449.9330031969
  0
LINE
  5
57B
100
AcDbEntity
  8
0
100
AcDbLine
 62
7
  6
CONTINUOUS
 10
572.4047379389
 20
347.0597290461
 11
572.4465548653
 21
346.9743163814
  0
LINE
  5
57C
100
AcDbEntity
  8
0
100
AcDbLine
 62
7
  6
CONTINUOUS
 10
570.7380728617
 20
350.8895164196
 11
570.9464077845
 21
350.4639845554
  0
LINE
  5
57D
100
AcDbEntity
  8
0
100
AcDbLine
 62
7
  6
CONTINUOUS
 10
566.3630728617
 20
345.5703672235
 11
566.5714077845
 21
344.9320694272
  0
LINE
  5
57E
100
AcDbEntity
  8
0
100
AcDbLine
 62
7
  6
CONTINUOUS
 10
566.9880728617
 20
349.8256861631
 11
567.1964077845
 21
349.1873883669
  0
LINE
  5
57F
100
AcDbEntity
  8
0
100
AcDbLine
 62
7
  6
CONTINUOUS
 10
571.9880728617
 20
351.1022823517
 11
572.1964077845
 21
350.4639845554
  0
LINE
  5
580
100
AcDbEntity
  8
0
100
AcDbLine
 62
7
  6
CONTINUOUS
 10
565.1130728617
 20
345.5703672235
 11
565.3214077845
 21
344.7193034951
  0
LINE
  5
581
100
AcDbEntity
  8
0
100
AcDbLine
 62
7
  6
CONTINUOUS
 10
565.7380728617
 20
349.6129202311
 11
565.9464077845
 21
348.7618565027
  0
LINE
  5
582
100
AcDbEntity
  8
0
100
AcDbLine
 62
7
  6
CONTINUOUS
 10
555.9464077845
 20
346.2086650197
 11
556.1547379389
 21
345.1448353593
  0
LINE
  5
583
100
AcDbEntity
  8
0
100
AcDbLine
 62
7
  6
CONTINUOUS
 10
562.1964077845
 20
346.2086650197
 11
562.1964077845
 21
352.8044098084
  0
LINE
  5
584
100
AcDbEntity
  8
0
100
AcDbLine
 62
7
  6
CONTINUOUS
 10
563.4464077845
 20
346.2086650197
 11
563.4464077845
 21
352.8044098084
  0
LINE
  5
585
100
AcDbEntity
  8
0
100
AcDbLine
 62
7
  6
CONTINUOUS
 10
565.7380728617
 20
349.6129202311
 11
565.7380728617
 21
350.4639845554
  0
LINE
  5
586
100
AcDbEntity
  8
0
100
AcDbLine
 62
7
  6
CONTINUOUS
 10
565.8480728617
 20
381.5244098084
 11
565.8480728617
 21
381.2744098084
  0
LINE
  5
587
100
AcDbEntity
  8
0
100
AcDbLine
 62
7
  6
CONTINUOUS
 10
565.8480728617
 20
311.2744098084
 11
565.8480728617
 21
311.0244098084
  0
LINE
  5
588
100
AcDbEntity
  8
BEZUGSACHSEN
100
AcDbLine
 62
7
  6
CONTINUOUS
 10
566.7980728617
 20
389.7744098084
 11
566.7980728617
 21
390.2744098084
  0
LINE
  5
589
100
AcDbEntity
  8
0
100
AcDbLine
 62
7
  6
CONTINUOUS
 10
566.9880728617
 20
349.8256861631
 11
566.9880728617
 21
350.2512180273
  0
LINE
  5
58A
100
AcDbEntity
  8
BEZUGSACHSEN
100
AcDbLine
 62
7
  6
CONTINUOUS
 10
569.5980728617
 20
390.2744098084
 11
569.5980728617
 21
419.7744098113
  0
LINE
  5
58B
100
AcDbEntity
  8
0
100
AcDbLine
 62
7
  6
CONTINUOUS
 10
544.9047379389
 20
348.9746224348
 11
545.1130728617
 21
349.6129202311
  0
LINE
  5
58C
100
AcDbEntity
  8
0
100
AcDbLine
 62
7
  6
CONTINUOUS
 10
547.698071908
 20
362.8416438167
 11
548.1980728617
 21
363.8629204695
  0
LINE
  5
58D
100
AcDbEntity
  8
0
100
AcDbLine
 62
7
  6
CONTINUOUS
 10
534.1814065924
 20
323.9637714819
 11
534.5980728617
 21
324.8148353593
  0
LINE
  5
58E
100
AcDbEntity
  8
0
100
AcDbLine
 62
7
  6
CONTINUOUS
 10
546.198071908
 20
363.3522822325
 11
546.6980728617
 21
364.118239588
  0
LINE
  5
58F
100
AcDbEntity
  8
0
100
AcDbLine
 62
7
  6
CONTINUOUS
 10
525.2230728617
 20
328.2190905706
 11
525.639739727
 21
328.8573883669
  0
LINE
  5
590
100
AcDbEntity
  8
0
100
AcDbLine
 62
7
  6
CONTINUOUS
 10
528.764739131
 20
329.4956861631
 11
529.5980728617
 21
330.7722823517
  0
LINE
  5
591
100
AcDbEntity
  8
0
100
AcDbLine
 62
7
  6
CONTINUOUS
 10
544.2797379389
 20
348.1235587065
 11
544.9047379389
 21
348.9746224348
  0
LINE
  5
592
100
AcDbEntity
  8
0
100
AcDbLine
 62
7
  6
CONTINUOUS
 10
519.4880728617
 20
344.2937714819
 11
519.9047403231
 21
344.7193034951
  0
LINE
  5
593
100
AcDbEntity
  8
0
100
AcDbLine
 62
7
  6
CONTINUOUS
 10
546.6980728617
 20
361.8203672533
 11
547.698071908
 21
362.8416438167
  0
LINE
  5
594
100
AcDbEntity
  8
0
100
AcDbLine
 62
7
  6
CONTINUOUS
 10
530.1130728617
 20
343.4427076791
 11
530.9464054003
 21
344.2937714819
  0
LINE
  5
595
100
AcDbEntity
  8
0
100
AcDbLine
 62
7
  6
CONTINUOUS
 10
518.7647395408
 20
330.9850482838
 11
519.5980728617
 21
331.8361120121
  0
LINE
  5
596
100
AcDbEntity
  8
0
100
AcDbLine
 62
7
  6
CONTINUOUS
 10
519.6964054003
 20
343.0171757591
 11
520.5297403231
 21
343.6554736112
  0
LINE
  5
597
100
AcDbEntity
  8
0
100
AcDbLine
 62
7
  6
CONTINUOUS
 10
533.4480733385
 20
362.8416438167
 11
534.1980733385
 21
363.3522822325
  0
LINE
  5
598
100
AcDbEntity
  8
0
100
AcDbLine
 62
7
  6
CONTINUOUS
 10
524.9047403231
 20
350.8895164196
 11
525.5297403231
 21
351.3150482838
  0
LINE
  5
599
100
AcDbEntity
  8
0
100
AcDbLine
 62
7
  6
CONTINUOUS
 10
545.448071908
 20
362.8416438167
 11
546.198071908
 21
363.3522822325
  0
LINE
  5
59A
100
AcDbEntity
  8
0
100
AcDbLine
 62
7
  6
CONTINUOUS
 10
533.6980723848
 20
361.3097289492
 11
534.6980728617
 21
361.8203672533
  0
LINE
  5
59B
100
AcDbEntity
  8
0
100
AcDbLine
 62
7
  6
CONTINUOUS
 10
524.4880728617
 20
352.1661120121
 11
525.3214054003
 21
352.5916438763
  0
LINE
  5
59C
100
AcDbEntity
  8
0
100
AcDbLine
 62
7
  6
CONTINUOUS
 10
545.6980738153
 20
361.3097289492
 11
546.6980728617
 21
361.8203672533
  0
LINE
  5
59D
100
AcDbEntity
  8
0
100
AcDbLine
 62
7
  6
CONTINUOUS
 10
520.1130728617
 20
347.9107927744
 11
520.5297403231
 21
348.1235587065
  0
LINE
  5
59E
100
AcDbEntity
  8
0
100
AcDbLine
 62
7
  6
CONTINUOUS
 10
463.7729225387
 20
425.7455031969
 11
472.7729225387
 21
425.7455031969
  0
LINE
  5
59F
100
AcDbEntity
  8
0
100
AcDbLine
 62
7
  6
CONTINUOUS
 10
472.7729225387
 20
426.8705031969
 11
468.7516458859
 21
426.8705031969
  0
LINE
  5
5A0
100
AcDbEntity
  8
0
100
AcDbLine
 62
7
  6
CONTINUOUS
 10
467.6027098527
 20
426.8705031969
 11
464.7303692331
 21
426.8705031969
  0
LINE
  5
5A1
100
AcDbEntity
  8
0
100
AcDbLine
 62
7
  6
CONTINUOUS
 10
465.8793052663
 20
431.5580030181
 11
466.4537738194
 21
431.5580030181
  0
LINE
  5
5A2
100
AcDbEntity
  8
0
100
AcDbLine
 62
7
  6
CONTINUOUS
 10
466.6452631583
 20
432.6830030181
 11
465.8793052663
 21
432.6830030181
  0
LINE
  5
5A3
100
AcDbEntity
  8
0
100
AcDbLine
 62
7
  6
CONTINUOUS
 10
470.6665395429
 20
440.9330031969
 11
469.7090928485
 21
441.1205035545
  0
LINE
  5
5A4
100
AcDbEntity
  8
0
100
AcDbLine
 62
7
  6
CONTINUOUS
 10
469.7090928485
 20
439.9955035545
 11
470.475050204
 21
439.8080031969
  0
LINE
  5
5A5
100
AcDbEntity
  8
0
100
AcDbLine
 62
7
  6
CONTINUOUS
 10
469.7090928485
 20
448.9955024816
 11
470.475050204
 21
448.8080031969
  0
LINE
  5
5A6
100
AcDbEntity
  8
0
100
AcDbLine
 62
7
  6
CONTINUOUS
 10
571.5714077845
 20
345.3576012914
 11
571.5714077845
 21
345.9958990876
  0
LINE
  5
5A7
100
AcDbEntity
  8
0
100
AcDbLine
 62
7
  6
CONTINUOUS
 10
572.4465548653
 20
344.3791841317
 11
572.4465548653
 21
346.9743163814
  0
LINE
  5
5A8
100
AcDbEntity
  8
0
100
AcDbLine
 62
7
  6
CONTINUOUS
 10
579.5980728617
 20
389.7744098084
 11
579.5980728617
 21
381.5244098084
  0
LINE
  5
5A9
100
AcDbEntity
  8
0
100
AcDbLine
 62
7
  6
CONTINUOUS
 10
579.5980728617
 20
311.0244098084
 11
579.5980728617
 21
302.7744098084
  0
LINE
  5
5AA
100
AcDbEntity
  8
RUNDUNGEN
100
AcDbLine
 62
7
  6
CONTINUOUS
 10
579.5980728617
 20
316.2744098084
 11
579.5980728617
 21
376.2744098084
  0
LINE
  5
5AB
100
AcDbEntity
  8
RUNDUNGEN
100
AcDbLine
 62
7
  6
CONTINUOUS
 10
582.0980728617
 20
499.5237860175
 11
582.0980728617
 21
486.3438424933
  0
LINE
  5
5AC
100
AcDbEntity
  8
BEZUGSACHSEN
100
AcDbLine
 62
7
  6
CONTINUOUS
 10
582.0980728617
 20
486.3438424933
 11
582.0980728617
 21
376.2744098084
  0
LINE
  5
5AD
100
AcDbEntity
  8
0
100
AcDbLine
 62
7
  6
CONTINUOUS
 10
563.2380728617
 20
345.1448353593
 11
563.4464077845
 21
346.2086650197
  0
LINE
  5
5AE
100
AcDbEntity
  8
0
100
AcDbLine
 62
7
  6
CONTINUOUS
 10
561.9880728617
 20
345.3576012914
 11
562.1964077845
 21
346.2086650197
  0
LINE
  5
5AF
100
AcDbEntity
  8
0
100
AcDbLine
 62
7
  6
CONTINUOUS
 10
565.7380728617
 20
350.4639845554
 11
565.9464077845
 21
351.3150482838
  0
LINE
  5
5B0
100
AcDbEntity
  8
0
100
AcDbLine
 62
7
  6
CONTINUOUS
 10
566.9880728617
 20
350.2512180273
 11
567.1964077845
 21
350.8895164196
  0
LINE
  5
5B1
100
AcDbEntity
  8
0
100
AcDbLine
 62
7
  6
CONTINUOUS
 10
562.8214077845
 20
344.2937714819
 11
563.2380728617
 21
345.1448353593
  0
LINE
  5
5B2
100
AcDbEntity
  8
0
100
AcDbLine
 62
7
  6
CONTINUOUS
 10
532.9314065924
 20
324.176537414
 11
533.764739131
 21
325.4531331555
  0
LINE
  5
5B3
100
AcDbEntity
  8
0
100
AcDbLine
 62
7
  6
CONTINUOUS
 10
543.2380728617
 20
348.7618565027
 11
543.6547379389
 21
349.1873883669
  0
LINE
  5
5B4
100
AcDbEntity
  8
0
100
AcDbLine
 62
7
  6
CONTINUOUS
 10
528.3480728617
 20
330.9850482838
 11
528.9730728617
 21
331.62334608
  0
LINE
  5
5B5
100
AcDbEntity
  8
0
100
AcDbLine
 62
7
  6
CONTINUOUS
 10
518.3480728617
 20
323.5382396178
 11
524.1814059963
 21
328.8573883669
  0
LINE
  5
5B6
100
AcDbEntity
  8
0
100
AcDbLine
 62
7
  6
CONTINUOUS
 10
520.014739578
 20
323.5382396178
 11
525.2230728617
 21
328.2190905706
  0
LINE
  5
5B7
100
AcDbEntity
  8
0
100
AcDbLine
 62
7
  6
CONTINUOUS
 10
543.4464077845
 20
347.4852609102
 11
544.2797379389
 21
348.1235587065
  0
LINE
  5
5B8
100
AcDbEntity
  8
0
100
AcDbLine
 62
7
  6
CONTINUOUS
 10
529.0714054003
 20
344.2937714819
 11
529.6964054003
 21
344.7193034951
  0
LINE
  5
5B9
100
AcDbEntity
  8
0
100
AcDbLine
 62
7
  6
CONTINUOUS
 10
520.014739578
 20
330.7722823517
 11
520.639739578
 21
331.1978142159
  0
LINE
  5
5BA
100
AcDbEntity
  8
0
100
AcDbLine
 62
7
  6
CONTINUOUS
 10
529.2797403231
 20
343.0171757591
 11
530.1130728617
 21
343.4427076791
  0
LINE
  5
5BB
100
AcDbEntity
  8
0
100
AcDbLine
 62
7
  6
CONTINUOUS
 10
518.8630728617
 20
348.5490905706
 11
519.4880728617
 21
348.7618565027
  0
LINE
  5
5BC
100
AcDbEntity
  8
0
100
AcDbLine
 62
7
  6
CONTINUOUS
 10
518.8630728617
 20
344.0810055499
 11
519.4880728617
 21
344.2937714819
  0
LINE
  5
5BD
100
AcDbEntity
  8
0
100
AcDbLine
 62
7
  6
CONTINUOUS
 10
542.6130728617
 20
348.5490905706
 11
543.2380728617
 21
348.7618565027
  0
LINE
  5
5BE
100
AcDbEntity
  8
0
100
AcDbLine
 62
7
  6
CONTINUOUS
 10
463.7729225387
 20
434.3705030181
 11
469.7090928485
 21
434.3705030181
  0
LINE
  5
5BF
100
AcDbEntity
  8
0
100
AcDbLine
 62
7
  6
CONTINUOUS
 10
469.7090928485
 20
435.4955035545
 11
463.7729225387
 21
435.4955035545
  0
LINE
  5
5C0
100
AcDbEntity
  8
0
100
AcDbLine
 62
7
  6
CONTINUOUS
 10
463.7729225387
 20
439.9955035545
 11
469.7090928485
 21
439.9955035545
  0
LINE
  5
5C1
100
AcDbEntity
  8
0
100
AcDbLine
 62
7
  6
CONTINUOUS
 10
469.7090928485
 20
441.1205035545
 11
463.7729225387
 21
441.1205035545
  0
LINE
  5
5C2
100
AcDbEntity
  8
0
100
AcDbLine
 62
7
  6
CONTINUOUS
 10
463.7729225387
 20
442.6205031969
 11
472.7729225387
 21
442.6205031969
  0
LINE
  5
5C3
100
AcDbEntity
  8
0
100
AcDbLine
 62
7
  6
CONTINUOUS
 10
471.6239863714
 20
443.7455031969
 11
464.921858572
 21
443.7455031969
  0
LINE
  5
5C4
100
AcDbEntity
  8
0
100
AcDbLine
 62
7
  6
CONTINUOUS
 10
470.6665395429
 20
449.9330031969
 11
469.7090928485
 21
450.1205024816
  0
LINE
  5
5C5
100
AcDbEntity
  8
0
100
AcDbLine
 62
7
  6
CONTINUOUS
 10
572.4047379389
 20
344.2937714819
 11
572.4465548653
 21
344.3791841317
  0
LINE
  5
5C6
100
AcDbEntity
  8
0
100
AcDbLine
 62
7
  6
CONTINUOUS
 10
561.5714077845
 20
344.7193034951
 11
561.9880728617
 21
345.3576012914
  0
LINE
  5
5C7
100
AcDbEntity
  8
0
100
AcDbLine
 62
7
  6
CONTINUOUS
 10
571.1547379389
 20
344.7193034951
 11
571.5714077845
 21
345.3576012914
  0
LINE
  5
5C8
100
AcDbEntity
  8
0
100
AcDbLine
 62
7
  6
CONTINUOUS
 10
533.5564065924
 20
323.3254736112
 11
534.1814065924
 21
323.9637714819
  0
LINE
  5
5C9
100
AcDbEntity
  8
0
100
AcDbLine
 62
7
  6
CONTINUOUS
 10
565.9464077845
 20
351.3150482838
 11
566.7797379389
 21
352.1661120121
  0
LINE
  5
5CA
100
AcDbEntity
  8
0
100
AcDbLine
 62
7
  6
CONTINUOUS
 10
561.9880728617
 20
343.4427076791
 11
562.8214077845
 21
344.2937714819
  0
LINE
  5
5CB
100
AcDbEntity
  8
0
100
AcDbLine
 62
7
  6
CONTINUOUS
 10
529.5980728617
 20
330.7722823517
 11
530.2230728617
 21
331.1978142159
  0
LINE
  5
5CC
100
AcDbEntity
  8
0
100
AcDbLine
 62
7
  6
CONTINUOUS
 10
567.1964077845
 20
350.8895164196
 11
567.8214077845
 21
351.3150482838
  0
LINE
  5
5CD
100
AcDbEntity
  8
0
100
AcDbLine
 62
7
  6
CONTINUOUS
 10
560.9464077845
 20
344.2937714819
 11
561.5714077845
 21
344.7193034951
  0
LINE
  5
5CE
100
AcDbEntity
  8
0
100
AcDbLine
 62
7
  6
CONTINUOUS
 10
532.3064065924
 20
323.7510055499
 11
532.9314065924
 21
324.176537414
  0
LINE
  5
5CF
100
AcDbEntity
  8
0
100
AcDbLine
 62
7
  6
CONTINUOUS
 10
528.9730728617
 20
331.62334608
 11
530.014739131
 21
332.2616438763
  0
LINE
  5
5D0
100
AcDbEntity
  8
0
100
AcDbLine
 62
7
  6
CONTINUOUS
 10
532.514739131
 20
322.6871757591
 11
533.5564065924
 21
323.3254736112
  0
LINE
  5
5D1
100
AcDbEntity
  8
0
100
AcDbLine
 62
7
  6
CONTINUOUS
 10
519.5980728617
 20
331.8361120121
 11
520.4314061453
 21
332.2616438763
  0
LINE
  5
5D2
100
AcDbEntity
  8
0
100
AcDbLine
 62
7
  6
CONTINUOUS
 10
566.7797379389
 20
352.1661120121
 11
567.6130728617
 21
352.5916438763
  0
LINE
  5
5D3
100
AcDbEntity
  8
0
100
AcDbLine
 62
7
  6
CONTINUOUS
 10
561.1547379389
 20
343.0171757591
 11
561.9880728617
 21
343.4427076791
  0
LINE
  5
5D4
100
AcDbEntity
  8
0
100
AcDbLine
 62
7
  6
CONTINUOUS
 10
567.8214077845
 20
351.3150482838
 11
568.4464077845
 21
351.5278142159
  0
LINE
  5
5D5
100
AcDbEntity
  8
0
100
AcDbLine
 62
7
  6
CONTINUOUS
 10
470.475050204
 20
435.6830028393
 11
469.7090928485
 21
435.4955035545
  0
LINE
  5
5D6
100
AcDbEntity
  8
0
100
AcDbLine
 62
7
  6
CONTINUOUS
 10
469.7090928485
 20
434.3705030181
 11
470.6665395429
 21
434.5580033757
  0
LINE
  5
5D7
100
AcDbEntity
  8
0
100
AcDbLine
 62
7
  6
CONTINUOUS
 10
600.3836857876
 20
448.7972269849
 11
599.0239337743
 21
448.7972269849
  0
LINE
  5
5D8
100
AcDbEntity
  8
0
100
AcDbLine
 62
7
  6
CONTINUOUS
 10
592.788550867
 20
448.7972269849
 11
591.4287988537
 21
448.7972269849
  0
LINE
  5
5D9
100
AcDbEntity
  8
0
100
AcDbLine
 62
7
  6
CONTINUOUS
 10
466.8367524972
 20
448.9955024816
 11
469.7090928485
 21
448.9955024816
  0
LINE
  5
5DA
100
AcDbEntity
  8
0
100
AcDbLine
 62
7
  6
CONTINUOUS
 10
469.7090928485
 20
450.1205024816
 11
466.8367524972
 21
450.1205024816
  0
LINE
  5
5DB
100
AcDbEntity
  8
0
100
AcDbLine
 62
7
  6
CONTINUOUS
 10
596.5862423207
 20
455.5472269849
 11
595.2264903073
 21
455.5472269849
  0
LINE
  5
5DC
100
AcDbEntity
  8
0
100
AcDbLine
 62
7
  6
CONTINUOUS
 10
600.3836857876
 20
456.4472269849
 11
599.0239337743
 21
456.4472269849
  0
LINE
  5
5DD
100
AcDbEntity
  8
0
100
AcDbLine
 62
7
  6
CONTINUOUS
 10
592.788550867
 20
456.4472269849
 11
591.4287988537
 21
456.4472269849
  0
LINE
  5
5DE
100
AcDbEntity
  8
0
100
AcDbLine
 62
7
  6
CONTINUOUS
 10
595.2264903073
 20
455.5472269849
 11
595.2264903073
 21
452.9214446128
  0
LINE
  5
5DF
100
AcDbEntity
  8
0
100
AcDbLine
 62
7
  6
CONTINUOUS
 10
596.5862423207
 20
452.9214994287
 11
596.5862423207
 21
455.5472269849
  0
LINE
  5
5E0
100
AcDbEntity
  8
0
100
AcDbLine
 62
7
  6
CONTINUOUS
 10
603.3091754126
 20
474.941984245
 11
603.3091754126
 21
479.6540208442
  0
LINE
  5
5E1
100
AcDbEntity
  8
0
100
AcDbLine
 62
7
  6
CONTINUOUS
 10
571.5714077845
 20
343.4427076791
 11
572.4047379389
 21
344.2937714819
  0
LINE
  5
5E2
100
AcDbEntity
  8
0
100
AcDbLine
 62
7
  6
CONTINUOUS
 10
570.5297379389
 20
344.2937714819
 11
571.1547379389
 21
344.7193034951
  0
LINE
  5
5E3
100
AcDbEntity
  8
0
100
AcDbLine
 62
7
  6
CONTINUOUS
 10
570.7380728617
 20
343.0171757591
 11
571.5714077845
 21
343.4427076791
  0
LINE
  5
5E4
100
AcDbEntity
  8
0
100
AcDbLine
 62
7
  6
CONTINUOUS
 10
466.0707951417
 20
448.8080031969
 11
466.8367524972
 21
448.9955024816
  0
LINE
  5
5E5
100
AcDbEntity
  8
0
100
AcDbLine
 62
7
  6
CONTINUOUS
 10
466.8367524972
 20
450.1205024816
 11
465.8793052663
 21
449.9330031969
  0
LINE
  5
5E6
100
AcDbEntity
  8
BEZUGSACHSEN
100
AcDbLine
 62
7
  6
CONTINUOUS
 10
610.0980728617
 20
376.2744098084
 11
610.0980728617
 21
486.3438424933
  0
LINE
  5
5E7
100
AcDbEntity
  8
RUNDUNGEN
100
AcDbLine
 62
7
  6
CONTINUOUS
 10
610.0980728617
 20
486.3438424933
 11
610.0980728617
 21
511.4113890599
  0
LINE
  5
5E8
100
AcDbEntity
  8
0
100
AcDbLine
 62
7
  6
CONTINUOUS
 10
603.3091754126
 20
474.941984245
 11
597.3341126144
 21
484.8861586659
  0
LINE
  5
5E9
100
AcDbEntity
  8
RUNDUNGEN
100
AcDbLine
 62
7
  6
CONTINUOUS
 10
597.3341126144
 20
484.8861586659
 11
596.670520268
 21
485.9905617926
  0
LINE
  5
5EA
100
AcDbEntity
  8
RUNDUNGEN
100
AcDbLine
 62
7
  6
CONTINUOUS
 10
601.2804095702
 20
504.0511112248
 11
598.3683101568
 21
510.0217998391
  0
LINE
  5
5EB
100
AcDbEntity
  8
0
100
AcDbLine
 62
7
  6
CONTINUOUS
 10
598.3683101568
 20
510.0217998391
 11
590.9044207933
 21
525.3250408743
  0
LINE
  5
5EC
100
AcDbEntity
  8
RUNDUNGEN
100
AcDbLine
 62
7
  6
CONTINUOUS
 10
590.9044207933
 20
525.3250408743
 11
588.8423829095
 21
529.5528450689
  0
LINE
  5
5ED
100
AcDbEntity
  8
BEZUGSACHSEN
100
AcDbLine
 62
7
  6
CONTINUOUS
 10
551.0980728617
 20
229.7744098084
 11
556.0980728617
 21
234.7744098084
  0
LINE
  5
5EE
100
AcDbEntity
  8
BEZUGSACHSEN
100
AcDbLine
 62
7
  6
CONTINUOUS
 10
586.4832747018
 20
531.6035865469
 11
532.0980728617
 21
549.2744098084
  0
LWPOLYLINE
  5
5EF
100
AcDbEntity
  8
BEZUGSACHSEN
100
AcDbPolyline
 62
7
  6
CONTINUOUS
 90
19
 70
0
 10
345.0850994105
 20
34.3027030789
 10
346.0069375675
 20
34.343648019
 10
346.9221121222
 20
34.4443584259
 10
347.8238604393
 20
34.6034102373
 10
348.7066375779
 20
34.8186334709
 10
349.5653532054
 20
35.0871893853
 10
350.3953272991
 20
35.4056177743
 10
351.1923540319
 20
35.7699001433
 10
351.952860627
 20
36.1755893375
 10
352.6735736356
 20
36.617679916
 10
353.3518921164
 20
37.0908262882
 10
353.9861009674
 20
37.5896079224
 10
354.5747010916
 20
38.1081016083
 10
355.1183382576
 20
38.6417575172
 10
355.6175107634
 20
39.1856998418
 10
356.0739150683
 20
39.736197693
 10
356.4894269523
 20
40.2898349451
 10
356.8657542029
 20
40.8430100274
 10
357.2248974093
 20
41.4266385757
  0
LINE
  5
5F0
100
AcDbEntity
  8
BEZUGSACHSEN
100
AcDbLine
 62
7
  6
CONTINUOUS
 10
344.9315485125
 20
34.3017316522
 11
345.0850994105
 21
34.3027030789
  0
LINE
  5
5F1
100
AcDbEntity
  8
BEZUGSACHSEN
100
AcDbLine
 62
7
  6
CONTINUOUS
 10
344.9315485125
 20
34.3017316522
 11
338.9721928666
 21
34.3017258448
  0
LINE
  5
5F2
100
AcDbEntity
  8
RUNDUNGEN
100
AcDbLine
 62
7
  6
CONTINUOUS
 10
338.9768944661
 20
34.3017258448
 11
338.9721928666
 21
34.3017258448
  0
LINE
  5
5F3
100
AcDbEntity
  8
0
100
AcDbLine
 62
7
  6
CONTINUOUS
 10
338.9594825244
 20
34.3017316478
 11
338.9721960183
 21
34.3017258448
  0
LINE
  5
5F4
100
AcDbEntity
  8
RUNDUNGEN
100
AcDbLine
 62
7
  6
CONTINUOUS
 10
338.8060507058
 20
34.3027016226
 11
338.9594825244
 21
34.3017316478
  0
LINE
  5
5F5
100
AcDbEntity
  8
0
100
AcDbLine
 62
7
  6
CONTINUOUS
 10
256.9455130904
 20
71.9532438411
 11
256.9455130904
 21
72.5493674242
  0
LINE
  5
5F6
100
AcDbEntity
  8
KONSTRUKTIONSELEMENTE
100
AcDbLine
 62
7
  6
CONTINUOUS
 10
256.8024339775
 20
117.0473606042
 11
256.3526215027
 21
113.617576202
  0
LINE
  5
5F7
100
AcDbEntity
  8
BEZUGSACHSEN
100
AcDbLine
 62
7
  6
CONTINUOUS
 10
265.7948779958
 20
149.8017258448
 11
244.1442429012
 21
112.3017258448
  0
LINE
  5
5F8
100
AcDbEntity
  8
BEZUGSACHSEN
100
AcDbLine
 62
7
  6
CONTINUOUS
 10
244.1442429012
 20
112.3017258448
 11
265.7948779958
 21
74.8017258448
  0
LINE
  5
5F9
100
AcDbEntity
  8
KONSTRUKTIONSELEMENTE
100
AcDbLine
 62
7
  6
CONTINUOUS
 10
257.5198716829
 20
114.3366868211
 11
257.8759732076
 21
117.0519326699
  0
LINE
  5
5FA
100
AcDbEntity
  8
KONSTRUKTIONSELEMENTE
100
AcDbLine
 62
7
  6
CONTINUOUS
 10
261.0403649831
 20
116.636926148
 11
260.6842634584
 21
113.9216802992
  0
LINE
  5
5FB
100
AcDbEntity
  8
KONSTRUKTIONSELEMENTE
100
AcDbLine
 62
7
  6
CONTINUOUS
 10
261.9500199322
 20
113.7556777214
 11
262.2686370929
 21
116.1851082715
  0
LINE
  5
5FC
100
AcDbEntity
  8
KONSTRUKTIONSELEMENTE
100
AcDbLine
 62
7
  6
CONTINUOUS
 10
257.1071043399
 20
117.7342320614
 11
256.8024339775
 21
117.0473606042
  0
LINE
  5
5FD
100
AcDbEntity
  8
KONSTRUKTIONSELEMENTE
100
AcDbLine
 62
7
  6
CONTINUOUS
 10
260.4917191506
 20
127.8331046952
 11
260.1239523506
 21
127.0504124823
  0
LINE
  5
5FE
100
AcDbEntity
  8
KONSTRUKTIONSELEMENTE
100
AcDbLine
 62
7
  6
CONTINUOUS
 10
258.6528851506
 20
123.9196436309
 11
258.2851181752
 21
123.1369510448
  0
LINE
  5
5FF
100
AcDbEntity
  8
KONSTRUKTIONSELEMENTE
100
AcDbLine
 62
7
  6
CONTINUOUS
 10
257.8759732076
 20
117.0519326699
 11
258.1431591792
 21
117.4529886239
  0
LINE
  5
600
100
AcDbEntity
  8
KONSTRUKTIONSELEMENTE
100
AcDbLine
 62
7
  6
CONTINUOUS
 10
265.2636244408
 20
133.9649711756
 11
262.8931696591
 21
131.4457061169
  0
LINE
  5
601
100
AcDbEntity
  8
KONSTRUKTIONSELEMENTE
100
AcDbLine
 62
7
  6
CONTINUOUS
 10
264.415514114
 20
131.2007098179
 11
266.1933552003
 21
133.0901586119
  0
LINE
  5
602
100
AcDbEntity
  8
RUNDUNGEN
100
AcDbLine
 62
7
  6
CONTINUOUS
 10
282.9455130904
 20
64.8017258448
 11
323.9455130904
 21
64.8017258448
  0
LINE
  5
603
100
AcDbEntity
  8
RUNDUNGEN
100
AcDbLine
 62
7
  6
CONTINUOUS
 10
359.9455130904
 20
64.8017258448
 11
370.4455130904
 21
64.8017258448
  0
LINE
  5
604
100
AcDbEntity
  8
KONSTRUKTIONSELEMENTE
100
AcDbLine
 62
7
  6
CONTINUOUS
 10
267.4588882333
 20
122.64841977
 11
267.4062777932
 21
122.0361422112
  0
LINE
  5
605
100
AcDbEntity
  8
KONSTRUKTIONSELEMENTE
100
AcDbLine
 62
7
  6
CONTINUOUS
 10
266.2677150628
 20
112.3172225212
 11
266.3801681815
 21
113.1746686218
  0
LINE
  5
606
100
AcDbEntity
  8
KONSTRUKTIONSELEMENTE
100
AcDbLine
 62
7
  6
CONTINUOUS
 10
266.8487228248
 20
116.7473605711
 11
266.9799181657
 21
117.7477146277
  0
LINE
  5
607
100
AcDbEntity
  8
KONSTRUKTIONSELEMENTE
100
AcDbLine
 62
7
  6
CONTINUOUS
 10
268.5616831888
 20
121.4932471394
 11
268.6755878449
 21
122.2359729106
  0
LINE
  5
608
100
AcDbEntity
  8
KONSTRUKTIONSELEMENTE
100
AcDbLine
 62
7
  6
CONTINUOUS
 10
271.8569056841
 20
128.5527638122
 11
271.6167853905
 21
127.9870846089
  0
LINE
  5
609
100
AcDbEntity
  8
KONSTRUKTIONSELEMENTE
100
AcDbLine
 62
7
  6
CONTINUOUS
 10
267.4062777932
 20
122.0361422112
 11
267.1610998096
 21
121.5143471538
  0
LINE
  5
60A
100
AcDbEntity
  8
KONSTRUKTIONSELEMENTE
100
AcDbLine
 62
7
  6
CONTINUOUS
 10
268.3165052052
 20
120.971452082
 11
268.5616831888
 21
121.4932471394
  0
LINE
  5
60B
100
AcDbEntity
  8
KONSTRUKTIONSELEMENTE
100
AcDbLine
 62
7
  6
CONTINUOUS
 10
272.5465162585
 20
127.1122719431
 11
272.8854062414
 21
127.7829213374
  0
LINE
  5
60C
100
AcDbEntity
  8
KONSTRUKTIONSELEMENTE
100
AcDbLine
 62
7
  6
CONTINUOUS
 10
271.6167853905
 20
127.9870846089
 11
269.8389443042
 21
126.0976358149
  0
LINE
  5
60D
100
AcDbEntity
  8
KONSTRUKTIONSELEMENTE
100
AcDbLine
 62
7
  6
CONTINUOUS
 10
265.9124246904
 20
134.3440163693
 11
265.2636244408
 21
133.9649711756
  0
LINE
  5
60E
100
AcDbEntity
  8
KONSTRUKTIONSELEMENTE
100
AcDbLine
 62
7
  6
CONTINUOUS
 10
266.1933552003
 20
133.0901586119
 11
266.7433857471
 21
133.3642336273
  0
LINE
  5
60F
100
AcDbEntity
  8
0
100
AcDbLine
 62
7
  6
CONTINUOUS
 10
256.8807332073
 20
71.9950607676
 11
256.9455130904
 21
71.9950607676
  0
LINE
  5
610
100
AcDbEntity
  8
0
100
AcDbLine
 62
7
  6
CONTINUOUS
 10
256.5613599598
 20
72.203390922
 11
256.9455130904
 21
72.203390922
  0
LINE
  5
611
100
AcDbEntity
  8
0
100
AcDbLine
 62
7
  6
CONTINUOUS
 10
256.2474251439
 20
72.4117258448
 11
256.9455130904
 21
72.4117258448
  0
LINE
  5
612
100
AcDbEntity
  8
0
100
AcDbLine
 62
7
  6
CONTINUOUS
 10
255.33646068
 20
73.0367258448
 11
256.2151974357
 21
73.0367258448
  0
LINE
  5
613
100
AcDbEntity
  8
0
100
AcDbLine
 62
7
  6
CONTINUOUS
 10
254.1877816188
 20
73.8700607676
 11
255.0303358674
 21
73.8700607676
  0
LINE
  5
614
100
AcDbEntity
  8
BEZUGSACHSEN
100
AcDbLine
 62
7
  6
CONTINUOUS
 10
265.7948779958
 20
74.8017258448
 11
309.096148185
 21
74.8017258448
  0
LINE
  5
615
100
AcDbEntity
  8
0
100
AcDbLine
 62
7
  6
CONTINUOUS
 10
252.8458802023
 20
74.9117258448
 11
253.6498154541
 21
74.9117258448
  0
LINE
  5
616
100
AcDbEntity
  8
0
100
AcDbLine
 62
7
  6
CONTINUOUS
 10
251.5958950969
 20
75.953390922
 11
252.3669495476
 21
75.953390922
  0
LINE
  5
617
100
AcDbEntity
  8
0
100
AcDbLine
 62
7
  6
CONTINUOUS
 10
250.6548832576
 20
76.7867258448
 11
251.4029264019
 21
76.7867258448
  0
LINE
  5
618
100
AcDbEntity
  8
0
100
AcDbLine
 62
7
  6
CONTINUOUS
 10
249.7614490314
 20
77.6200607676
 11
250.4888942358
 21
77.6200607676
  0
LINE
  5
619
100
AcDbEntity
  8
KONSTRUKTIONSELEMENTE
100
AcDbLine
 62
7
  6
CONTINUOUS
 10
261.9591714138
 20
117.0978887691
 11
261.6122213171
 21
117.7248535591
  0
LINE
  5
61A
100
AcDbEntity
  8
KONSTRUKTIONSELEMENTE
100
AcDbLine
 62
7
  6
CONTINUOUS
 10
260.8856321301
 20
117.0933162946
 11
261.0403649831
 21
116.636926148
  0
LINE
  5
61B
100
AcDbEntity
  8
KONSTRUKTIONSELEMENTE
100
AcDbLine
 62
7
  6
CONTINUOUS
 10
271.8433021701
 20
129.1592762345
 11
271.8569056841
 21
128.5527638122
  0
LINE
  5
61C
100
AcDbEntity
  8
KONSTRUKTIONSELEMENTE
100
AcDbLine
 62
7
  6
CONTINUOUS
 10
272.8854062414
 20
127.7829213374
 11
272.9705713677
 21
128.494402673
  0
LINE
  5
61D
100
AcDbEntity
  8
KONSTRUKTIONSELEMENTE
100
AcDbLine
 62
7
  6
CONTINUOUS
 10
279.6512844563
 20
125.8017258448
 11
271.8570558223
 21
112.3017258448
  0
LINE
  5
61E
100
AcDbEntity
  8
KONSTRUKTIONSELEMENTE
100
AcDbLine
 62
7
  6
CONTINUOUS
 10
267.8174654285
 20
120.4096913294
 11
268.3165052052
 21
120.971452082
  0
LINE
  5
61F
100
AcDbEntity
  8
KONSTRUKTIONSELEMENTE
100
AcDbLine
 62
7
  6
CONTINUOUS
 10
270.1760614768
 20
124.5930068844
 11
272.5465162585
 21
127.1122719431
  0
LINE
  5
620
100
AcDbEntity
  8
KONSTRUKTIONSELEMENTE
100
AcDbLine
 62
7
  6
CONTINUOUS
 10
294.9964521751
 20
142.3735681614
 11
290.3311667715
 21
137.5566997314
  0
LINE
  5
621
100
AcDbEntity
  8
KONSTRUKTIONSELEMENTE
100
AcDbLine
 62
7
  6
CONTINUOUS
 10
291.314110777
 20
137.3292284098
 11
294.6126906316
 21
140.7152663322
  0
LINE
  5
622
100
AcDbEntity
  8
KONSTRUKTIONSELEMENTE
100
AcDbLine
 62
7
  6
CONTINUOUS
 10
267.1610998096
 20
121.5143471538
 11
266.7233546333
 21
121.0830353442
  0
LINE
  5
623
100
AcDbEntity
  8
KONSTRUKTIONSELEMENTE
100
AcDbLine
 62
7
  6
CONTINUOUS
 10
257.8149513047
 20
118.2228613699
 11
257.1071043399
 21
117.7342320614
  0
LINE
  5
624
100
AcDbEntity
  8
0
100
AcDbLine
 62
7
  6
CONTINUOUS
 10
248.9118500058
 20
78.453390922
 11
249.6207441797
 21
78.453390922
  0
LINE
  5
625
100
AcDbEntity
  8
0
100
AcDbLine
 62
7
  6
CONTINUOUS
 10
248.705910289
 20
78.6617258448
 11
249.4104508421
 21
78.6617258448
  0
LINE
  5
626
100
AcDbEntity
  8
0
100
AcDbLine
 62
7
  6
CONTINUOUS
 10
248.1028700362
 20
79.2867258448
 11
248.7949673407
 21
79.2867258448
  0
LINE
  5
627
100
AcDbEntity
  8
0
100
AcDbLine
 62
7
  6
CONTINUOUS
 10
246.5960715876
 20
80.953390922
 11
247.2589344148
 21
80.953390922
  0
LINE
  5
628
100
AcDbEntity
  8
0
100
AcDbLine
 62
7
  6
CONTINUOUS
 10
245.5544682417
 20
82.203390922
 11
246.1985372301
 21
82.203390922
  0
LINE
  5
629
100
AcDbEntity
  8
0
100
AcDbLine
 62
7
  6
CONTINUOUS
 10
245.3877189592
 20
82.4117258448
 11
246.0288786284
 21
82.4117258448
  0
LINE
  5
62A
100
AcDbEntity
  8
0
100
AcDbLine
 62
7
  6
CONTINUOUS
 10
245.0598623961
 20
82.828390922
 11
245.6953784795
 21
82.828390922
  0
LINE
  5
62B
100
AcDbEntity
  8
0
100
AcDbLine
 62
7
  6
CONTINUOUS
 10
244.5818118589
 20
83.453390922
 11
245.2092762327
 21
83.453390922
  0
LINE
  5
62C
100
AcDbEntity
  8
0
100
AcDbLine
 62
7
  6
CONTINUOUS
 10
243.969112859
 20
84.2867258448
 11
244.5865535764
 21
84.2867258448
  0
LINE
  5
62D
100
AcDbEntity
  8
0
100
AcDbLine
 62
7
  6
CONTINUOUS
 10
243.38344687
 20
85.1200607676
 11
243.9916033556
 21
85.1200607676
  0
LINE
  5
62E
100
AcDbEntity
  8
KONSTRUKTIONSELEMENTE
100
AcDbLine
 62
7
  6
CONTINUOUS
 10
271.8570558223
 20
112.3017258448
 11
279.6512844563
 21
98.8017258448
  0
LINE
  5
62F
100
AcDbEntity
  8
KONSTRUKTIONSELEMENTE
100
AcDbLine
 62
7
  6
CONTINUOUS
 10
267.2576364115
 20
123.2207309425
 11
267.4588882333
 21
122.64841977
  0
LINE
  5
630
100
AcDbEntity
  8
KONSTRUKTIONSELEMENTE
100
AcDbLine
 62
7
  6
CONTINUOUS
 10
272.9705713677
 20
128.494402673
 11
272.7458262272
 21
129.4974882092
  0
LINE
  5
631
100
AcDbEntity
  8
KONSTRUKTIONSELEMENTE
100
AcDbLine
 62
7
  6
CONTINUOUS
 10
268.6755878449
 20
122.2359729106
 11
268.535630691
 21
122.9387329946
  0
LINE
  5
632
100
AcDbEntity
  8
KONSTRUKTIONSELEMENTE
100
AcDbLine
 62
7
  6
CONTINUOUS
 10
285.5866575132
 20
143.3213773247
 11
284.5966247248
 21
134.1808579331
  0
LINE
  5
633
100
AcDbEntity
  8
KONSTRUKTIONSELEMENTE
100
AcDbLine
 62
7
  6
CONTINUOUS
 10
285.3056875163
 20
133.2003748391
 11
286.2901562832
 21
141.2673596651
  0
LINE
  5
634
100
AcDbEntity
  8
KONSTRUKTIONSELEMENTE
100
AcDbLine
 62
7
  6
CONTINUOUS
 10
290.3311667715
 20
137.5566997314
 11
290.0433455467
 21
136.3129730692
  0
LINE
  5
635
100
AcDbEntity
  8
KONSTRUKTIONSELEMENTE
100
AcDbLine
 62
7
  6
CONTINUOUS
 10
300.8463332423
 20
138.6829677503
 11
300.0497457462
 21
137.9212079169
  0
LINE
  5
636
100
AcDbEntity
  8
KONSTRUKTIONSELEMENTE
100
AcDbLine
 62
7
  6
CONTINUOUS
 10
298.5237132198
 20
135.1145015129
 11
297.7271230535
 21
134.3527436396
  0
LINE
  5
637
100
AcDbEntity
  8
KONSTRUKTIONSELEMENTE
100
AcDbLine
 62
7
  6
CONTINUOUS
 10
300.6666954624
 20
137.5487587914
 11
301.2433626362
 21
137.9462214669
  0
LINE
  5
638
100
AcDbEntity
  8
KONSTRUKTIONSELEMENTE
100
AcDbLine
 62
7
  6
CONTINUOUS
 10
298.3440755939
 20
133.9802928092
 11
299.1540924357
 21
134.4854141539
  0
LINE
  5
639
100
AcDbEntity
  8
KONSTRUKTIONSELEMENTE
100
AcDbLine
 62
7
  6
CONTINUOUS
 10
267.1871523074
 20
120.0688612986
 11
267.8174654285
 21
120.4096913294
  0
LINE
  5
63A
100
AcDbEntity
  8
KONSTRUKTIONSELEMENTE
100
AcDbLine
 62
7
  6
CONTINUOUS
 10
258.1431591792
 20
117.4529886239
 11
258.6025623946
 21
117.6834699344
  0
LINE
  5
63B
100
AcDbEntity
  8
KONSTRUKTIONSELEMENTE
100
AcDbLine
 62
7
  6
CONTINUOUS
 10
301.5463883568
 20
139.0059411134
 11
300.8463332423
 21
138.6829677503
  0
LINE
  5
63C
100
AcDbEntity
  8
KONSTRUKTIONSELEMENTE
100
AcDbLine
 62
7
  6
CONTINUOUS
 10
302.5284428861
 20
133.9395229964
 11
303.2284980006
 21
134.2624963595
  0
LINE
  5
63D
100
AcDbEntity
  8
KONSTRUKTIONSELEMENTE
100
AcDbLine
 62
7
  6
CONTINUOUS
 10
266.7233546333
 20
121.0830353442
 11
266.1543360115
 21
120.872654304
  0
LINE
  5
63E
100
AcDbEntity
  8
KONSTRUKTIONSELEMENTE
100
AcDbLine
 62
7
  6
CONTINUOUS
 10
258.7150155133
 20
118.540916035
 11
257.8149513047
 21
118.2228613699
  0
LINE
  5
63F
100
AcDbEntity
  8
KONSTRUKTIONSELEMENTE
100
AcDbLine
 62
7
  6
CONTINUOUS
 10
301.2433626362
 20
137.9462214669
 11
302.0668059993
 21
138.1947060279
  0
LINE
  5
640
100
AcDbEntity
  8
KONSTRUKTIONSELEMENTE
100
AcDbLine
 62
7
  6
CONTINUOUS
 10
299.347156583
 20
135.3629860739
 11
298.5237132198
 21
135.1145015129
  0
LINE
  5
641
100
AcDbEntity
  8
KONSTRUKTIONSELEMENTE
100
AcDbLine
 62
7
  6
CONTINUOUS
 10
302.8314714309
 20
134.9992409379
 11
302.0080252436
 21
134.7507580819
  0
LINE
  5
642
100
AcDbEntity
  8
0
100
AcDbLine
 62
7
  6
CONTINUOUS
 10
242.8236331893
 20
85.953390922
 11
243.4231745109
 21
85.953390922
  0
LINE
  5
643
100
AcDbEntity
  8
0
100
AcDbLine
 62
7
  6
CONTINUOUS
 10
242.4200884726
 20
86.578390922
 11
243.0135704824
 21
86.578390922
  0
LINE
  5
644
100
AcDbEntity
  8
0
100
AcDbLine
 62
7
  6
CONTINUOUS
 10
242.1585948117
 20
86.9950607676
 11
242.7482158844
 21
86.9950607676
  0
LINE
  5
645
100
AcDbEntity
  8
0
100
AcDbLine
 62
7
  6
CONTINUOUS
 10
242.030068768
 20
87.203390922
 11
242.6178106502
 21
87.203390922
  0
LINE
  5
646
100
AcDbEntity
  8
0
100
AcDbLine
 62
7
  6
CONTINUOUS
 10
241.2890979613
 20
88.453390922
 11
241.8662370329
 21
88.453390922
  0
LINE
  5
647
100
AcDbEntity
  8
0
100
AcDbLine
 62
7
  6
CONTINUOUS
 10
240.3782283003
 20
90.1200607676
 11
240.9428496701
 21
90.1200607676
  0
LINE
  5
648
100
AcDbEntity
  8
KONSTRUKTIONSELEMENTE
100
AcDbLine
 62
7
  6
CONTINUOUS
 10
261.6122213171
 20
117.7248535591
 11
260.8246102273
 21
118.2642449945
  0
LINE
  5
649
100
AcDbEntity
  8
KONSTRUKTIONSELEMENTE
100
AcDbLine
 62
7
  6
CONTINUOUS
 10
260.5011976963
 20
117.4344659903
 11
260.8856321301
 21
117.0933162946
  0
LINE
  5
64A
100
AcDbEntity
  8
KONSTRUKTIONSELEMENTE
100
AcDbLine
 62
7
  6
CONTINUOUS
 10
266.8025225975
 20
123.7530756022
 11
267.2576364115
 21
123.2207309425
  0
LINE
  5
64B
100
AcDbEntity
  8
KONSTRUKTIONSELEMENTE
100
AcDbLine
 62
7
  6
CONTINUOUS
 10
268.535630691
 20
122.9387329946
 11
268.0105384333
 21
123.8224580892
  0
LINE
  5
64C
100
AcDbEntity
  8
KONSTRUKTIONSELEMENTE
100
AcDbLine
 62
7
  6
CONTINUOUS
 10
272.7458262272
 20
129.4974882092
 11
272.3235438876
 21
130.2906358424
  0
LINE
  5
64D
100
AcDbEntity
  8
KONSTRUKTIONSELEMENTE
100
AcDbLine
 62
7
  6
CONTINUOUS
 10
271.5759750656
 20
129.8066216717
 11
271.8433021701
 21
129.1592762345
  0
LINE
  5
64E
100
AcDbEntity
  8
KONSTRUKTIONSELEMENTE
100
AcDbLine
 62
7
  6
CONTINUOUS
 10
280.0125856827
 20
142.5955757563
 11
281.3037887014
 21
132.6792863916
  0
LINE
  5
64F
100
AcDbEntity
  8
KONSTRUKTIONSELEMENTE
100
AcDbLine
 62
7
  6
CONTINUOUS
 10
282.1613382138
 20
132.7909481713
 11
281.1448592089
 21
140.5973889865
  0
LINE
  5
650
100
AcDbEntity
  8
KONSTRUKTIONSELEMENTE
100
AcDbLine
 62
7
  6
CONTINUOUS
 10
294.6126906316
 20
140.7152663322
 11
293.7012568315
 21
136.7767989074
  0
LINE
  5
651
100
AcDbEntity
  8
KONSTRUKTIONSELEMENTE
100
AcDbLine
 62
7
  6
CONTINUOUS
 10
293.4134356067
 20
135.5330722452
 11
292.7418528384
 21
132.6310437538
  0
LINE
  5
652
100
AcDbEntity
  8
KONSTRUKTIONSELEMENTE
100
AcDbLine
 62
7
  6
CONTINUOUS
 10
293.5843753535
 20
132.4360685478
 11
294.2559581217
 21
135.3380970391
  0
LINE
  5
653
100
AcDbEntity
  8
KONSTRUKTIONSELEMENTE
100
AcDbLine
 62
7
  6
CONTINUOUS
 10
294.5437793465
 20
136.5818237013
 11
295.8389746901
 21
142.1785929553
  0
LINE
  5
654
100
AcDbEntity
  8
KONSTRUKTIONSELEMENTE
100
AcDbLine
 62
7
  6
CONTINUOUS
 10
295.6601633847
 20
135.0131381145
 11
295.9479846095
 21
136.2568647767
  0
LINE
  5
655
100
AcDbEntity
  8
KONSTRUKTIONSELEMENTE
100
AcDbLine
 62
7
  6
CONTINUOUS
 10
297.3972383337
 20
133.8063004602
 11
297.094212536
 21
132.7465806862
  0
LINE
  5
656
100
AcDbEntity
  8
KONSTRUKTIONSELEMENTE
100
AcDbLine
 62
7
  6
CONTINUOUS
 10
297.7271230535
 20
134.3527436396
 11
297.3972383337
 21
133.8063004602
  0
LINE
  5
657
100
AcDbEntity
  8
KONSTRUKTIONSELEMENTE
100
AcDbLine
 62
7
  6
CONTINUOUS
 10
300.0497457462
 20
137.9212079169
 11
299.7198610263
 21
137.3747647375
  0
LINE
  5
658
100
AcDbEntity
  8
KONSTRUKTIONSELEMENTE
100
AcDbLine
 62
7
  6
CONTINUOUS
 10
298.0141908741
 20
133.4338496298
 11
298.3440755939
 21
133.9802928092
  0
LINE
  5
659
100
AcDbEntity
  8
KONSTRUKTIONSELEMENTE
100
AcDbLine
 62
7
  6
CONTINUOUS
 10
300.4467723159
 20
137.1844633385
 11
300.6666954624
 21
137.5487587914
  0
LINE
  5
65A
100
AcDbEntity
  8
KONSTRUKTIONSELEMENTE
100
AcDbLine
 62
7
  6
CONTINUOUS
 10
303.628058619
 20
135.761000261
 11
303.4081354724
 21
135.3967048081
  0
LINE
  5
65B
100
AcDbEntity
  8
KONSTRUKTIONSELEMENTE
100
AcDbLine
 62
7
  6
CONTINUOUS
 10
301.5522180722
 20
132.0435549696
 11
301.2223333523
 21
131.4971117902
  0
LINE
  5
65C
100
AcDbEntity
  8
KONSTRUKTIONSELEMENTE
100
AcDbLine
 62
7
  6
CONTINUOUS
 10
301.0426958034
 20
130.362903214
 11
301.8392830685
 21
131.1246626647
  0
LINE
  5
65D
100
AcDbEntity
  8
KONSTRUKTIONSELEMENTE
100
AcDbLine
 62
7
  6
CONTINUOUS
 10
303.2284980006
 20
134.2624963595
 11
303.9151264396
 21
134.8421062512
  0
LINE
  5
65E
100
AcDbEntity
  8
KONSTRUKTIONSELEMENTE
100
AcDbLine
 62
7
  6
CONTINUOUS
 10
303.4081354724
 20
135.3967048081
 11
302.8314714309
 21
134.9992409379
  0
LINE
  5
65F
100
AcDbEntity
  8
KONSTRUKTIONSELEMENTE
100
AcDbLine
 62
7
  6
CONTINUOUS
 10
301.2223333523
 20
131.4971117902
 11
300.4123165876
 21
130.9919905731
  0
LINE
  5
660
100
AcDbEntity
  8
KONSTRUKTIONSELEMENTE
100
AcDbLine
 62
7
  6
CONTINUOUS
 10
300.3426406505
 20
130.0399297871
 11
301.0426958034
 21
130.362903214
  0
LINE
  5
661
100
AcDbEntity
  8
0
100
AcDbLine
 62
7
  6
CONTINUOUS
 10
237.8159492637
 20
95.9517267984
 11
238.3481193192
 21
95.9517267984
  0
LINE
  5
662
100
AcDbEntity
  8
0
100
AcDbLine
 62
7
  6
CONTINUOUS
 10
237.726158827
 20
96.2017258448
 11
238.2572596003
 21
96.2017258448
  0
LINE
  5
663
100
AcDbEntity
  8
0
100
AcDbLine
 62
7
  6
CONTINUOUS
 10
237.5512399962
 20
96.7017267984
 11
238.080270087
 21
96.7017267984
  0
LINE
  5
664
100
AcDbEntity
  8
0
100
AcDbLine
 62
7
  6
CONTINUOUS
 10
237.2198091592
 20
97.7017258448
 11
237.7449599964
 21
97.7017258448
  0
LINE
  5
665
100
AcDbEntity
  8
0
100
AcDbLine
 62
7
  6
CONTINUOUS
 10
236.9124817536
 20
98.7017248911
 11
237.4340862389
 21
98.7017248911
  0
LINE
  5
666
100
AcDbEntity
  8
KONSTRUKTIONSELEMENTE
100
AcDbLine
 62
7
  6
CONTINUOUS
 10
279.6512844563
 20
98.8017258448
 11
295.2397417245
 21
98.8017258448
  0
LINE
  5
667
100
AcDbEntity
  8
KONSTRUKTIONSELEMENTE
100
AcDbLine
 62
7
  6
CONTINUOUS
 10
262.8931696591
 20
131.4457061169
 11
270.1760614768
 21
124.5930068844
  0
LINE
  5
668
100
AcDbEntity
  8
KONSTRUKTIONSELEMENTE
100
AcDbLine
 62
7
  6
CONTINUOUS
 10
269.8389443042
 20
126.0976358149
 11
264.415514114
 21
131.2007098179
  0
LINE
  5
669
100
AcDbEntity
  8
KONSTRUKTIONSELEMENTE
100
AcDbLine
 62
7
  6
CONTINUOUS
 10
268.0105384333
 20
123.8224580892
 11
267.362856941
 21
124.4452853137
  0
LINE
  5
66A
100
AcDbEntity
  8
KONSTRUKTIONSELEMENTE
100
AcDbLine
 62
7
  6
CONTINUOUS
 10
272.3235438876
 20
130.2906358424
 11
271.6475368272
 21
131.1246152892
  0
LINE
  5
66B
100
AcDbEntity
  8
KONSTRUKTIONSELEMENTE
100
AcDbLine
 62
7
  6
CONTINUOUS
 10
271.0549231317
 20
130.4947990245
 11
271.5759750656
 21
129.8066216717
  0
LWPOLYLINE
  5
66C
100
AcDbEntity
  8
RUNDUNGEN
100
AcDbPolyline
 62
7
  6
CONTINUOUS
 90
19
 70
0
 10
326.6661287059
 20
41.4266386881
 10
327.0248193696
 20
40.8437089518
 10
327.4012082454
 20
40.29038247
 10
327.8168065594
 20
39.7365840404
 10
328.273330952
 20
39.1859114798
 10
328.7726450872
 20
38.6418018583
 10
329.3164359066
 20
38.1079984609
 10
329.9051878371
 20
37.5893890852
 10
330.539524984
 20
37.0905363796
 10
331.2179469929
 20
36.6173559945
 10
331.9387297031
 20
36.1752660169
 10
332.6992734037
 20
35.7696025399
 10
333.4963037971
 20
35.405363636
 10
334.3262510647
 20
35.0869882057
 10
335.1849132937
 20
34.8184875443
 10
336.0676134476
 20
34.6033162285
 10
336.9692654135
 20
34.4443081343
 10
337.8843294292
 20
34.3436294349
 10
338.8060507058
 20
34.3027016226
  0
LINE
  5
66D
100
AcDbEntity
  8
KONSTRUKTIONSELEMENTE
100
AcDbLine
 62
7
  6
CONTINUOUS
 10
286.2901562832
 20
141.2673596651
 11
287.3066352881
 21
133.4609188499
  0
LINE
  5
66E
100
AcDbEntity
  8
KONSTRUKTIONSELEMENTE
100
AcDbLine
 62
7
  6
CONTINUOUS
 10
288.1641848005
 20
133.5725806297
 11
286.8729817818
 21
143.4888699944
  0
LINE
  5
66F
100
AcDbEntity
  8
KONSTRUKTIONSELEMENTE
100
AcDbLine
 62
7
  6
CONTINUOUS
 10
297.094212536
 20
132.7465806862
 11
297.1344981723
 21
131.9766676267
  0
LINE
  5
670
100
AcDbEntity
  8
KONSTRUKTIONSELEMENTE
100
AcDbLine
 62
7
  6
CONTINUOUS
 10
297.9445148985
 20
132.4817887801
 11
298.0141908741
 21
133.4338496298
  0
LINE
  5
671
100
AcDbEntity
  8
KONSTRUKTIONSELEMENTE
100
AcDbLine
 62
7
  6
CONTINUOUS
 10
300.3636697418
 20
136.4890391449
 11
300.4467723159
 21
137.1844633385
  0
LINE
  5
672
100
AcDbEntity
  8
KONSTRUKTIONSELEMENTE
100
AcDbLine
 62
7
  6
CONTINUOUS
 10
299.7198610263
 20
137.3747647375
 11
299.5267940548
 21
136.4971945225
  0
LINE
  5
673
100
AcDbEntity
  8
KONSTRUKTIONSELEMENTE
100
AcDbLine
 62
7
  6
CONTINUOUS
 10
302.1691677884
 20
131.6711058441
 11
302.4721964872
 21
132.7308240407
  0
LINE
  5
674
100
AcDbEntity
  8
KONSTRUKTIONSELEMENTE
100
AcDbLine
 62
7
  6
CONTINUOUS
 10
304.2450111594
 20
135.3885494306
 11
304.5480371881
 21
136.4482695873
  0
LINE
  5
675
100
AcDbEntity
  8
KONSTRUKTIONSELEMENTE
100
AcDbLine
 62
7
  6
CONTINUOUS
 10
303.9151264396
 20
134.8421062512
 11
304.2450111594
 21
135.3885494306
  0
LINE
  5
676
100
AcDbEntity
  8
KONSTRUKTIONSELEMENTE
100
AcDbLine
 62
7
  6
CONTINUOUS
 10
301.8392830685
 20
131.1246626647
 11
302.1691677884
 21
131.6711058441
  0
LINE
  5
677
100
AcDbEntity
  8
0
100
AcDbLine
 62
7
  6
CONTINUOUS
 10
236.561491057
 20
99.9517258448
 11
237.079103813
 21
99.9517258448
  0
LINE
  5
678
100
AcDbEntity
  8
0
100
AcDbLine
 62
7
  6
CONTINUOUS
 10
235.3673931191
 20
105.9517258448
 11
235.8718739704
 21
105.9517258448
  0
LINE
  5
679
100
AcDbEntity
  8
KONSTRUKTIONSELEMENTE
100
AcDbLine
 62
7
  6
CONTINUOUS
 10
259.887061628
 20
117.6603748263
 11
260.5011976963
 21
117.4344659903
  0
LINE
  5
67A
100
AcDbEntity
  8
KONSTRUKTIONSELEMENTE
100
AcDbLine
 62
7
  6
CONTINUOUS
 10
260.8246102273
 20
118.2642449945
 11
260.210474159
 21
118.4901538306
  0
LINE
  5
67B
100
AcDbEntity
  8
KONSTRUKTIONSELEMENTE
100
AcDbLine
 62
7
  6
CONTINUOUS
 10
258.2851181752
 20
123.1369510448
 11
264.2547128318
 21
120.3319931212
  0
LINE
  5
67C
100
AcDbEntity
  8
KONSTRUKTIONSELEMENTE
100
AcDbLine
 62
7
  6
CONTINUOUS
 10
264.6224798072
 20
121.1146857073
 11
258.6528851506
 21
123.9196436309
  0
LINE
  5
67D
100
AcDbEntity
  8
KONSTRUKTIONSELEMENTE
100
AcDbLine
 62
7
  6
CONTINUOUS
 10
267.362856941
 20
124.4452853137
 11
266.4613138072
 21
125.0281467716
  0
LINE
  5
67E
100
AcDbEntity
  8
KONSTRUKTIONSELEMENTE
100
AcDbLine
 62
7
  6
CONTINUOUS
 10
266.0935470072
 20
124.2454545588
 11
266.8025225975
 21
123.7530756022
  0
LINE
  5
67F
100
AcDbEntity
  8
KONSTRUKTIONSELEMENTE
100
AcDbLine
 62
7
  6
CONTINUOUS
 10
268.7305960159
 20
132.681830638
 11
271.0549231317
 21
130.4947990245
  0
LINE
  5
680
100
AcDbEntity
  8
KONSTRUKTIONSELEMENTE
100
AcDbLine
 62
7
  6
CONTINUOUS
 10
271.6475368272
 20
131.1246152892
 11
269.3232097113
 21
133.3116469026
  0
LINE
  5
681
100
AcDbEntity
  8
KONSTRUKTIONSELEMENTE
100
AcDbLine
 62
7
  6
CONTINUOUS
 10
281.1448592089
 20
140.5973889865
 11
284.1622859856
 21
133.0514921821
  0
LINE
  5
682
100
AcDbEntity
  8
KONSTRUKTIONSELEMENTE
100
AcDbLine
 62
7
  6
CONTINUOUS
 10
284.5966247248
 20
134.1808579331
 11
281.2989099512
 21
142.7630684259
  0
LINE
  5
683
100
AcDbEntity
  8
KONSTRUKTIONSELEMENTE
100
AcDbLine
 62
7
  6
CONTINUOUS
 10
299.5267940548
 20
136.4971945225
 11
299.5670797296
 21
135.7272815268
  0
LINE
  5
684
100
AcDbEntity
  8
KONSTRUKTIONSELEMENTE
100
AcDbLine
 62
7
  6
CONTINUOUS
 10
304.5480371881
 20
136.4482695873
 11
304.5077515134
 21
137.218182583
  0
LINE
  5
685
100
AcDbEntity
  8
KONSTRUKTIONSELEMENTE
100
AcDbLine
 62
7
  6
CONTINUOUS
 10
301.6218941248
 20
132.9956159469
 11
301.5522180722
 21
132.0435549696
  0
LINE
  5
686
100
AcDbEntity
  8
KONSTRUKTIONSELEMENTE
100
AcDbLine
 62
7
  6
CONTINUOUS
 10
303.7111643253
 20
136.4564232599
 11
303.628058619
 21
135.761000261
  0
LINE
  5
687
100
AcDbEntity
  8
KONSTRUKTIONSELEMENTE
100
AcDbLine
 62
7
  6
CONTINUOUS
 10
295.2397417245
 20
98.8017258448
 11
303.0339703585
 21
112.3017258448
  0
LINE
  5
688
100
AcDbEntity
  8
0
100
AcDbLine
 62
7
  6
CONTINUOUS
 10
235.2397555159
 20
106.9950607676
 11
235.7428722135
 21
106.9950607676
  0
LINE
  5
689
100
AcDbEntity
  8
0
100
AcDbLine
 62
7
  6
CONTINUOUS
 10
235.1648365369
 20
107.7183921141
 11
235.667155971
 21
107.7183921141
  0
LINE
  5
68A
100
AcDbEntity
  8
0
100
AcDbLine
 62
7
  6
CONTINUOUS
 10
235.1430288887
 20
107.9517253679
 11
235.64511673
 21
107.9517253679
  0
LINE
  5
68B
100
AcDbEntity
  8
0
100
AcDbLine
 62
7
  6
CONTINUOUS
 10
235.0301971958
 20
109.4517253679
 11
235.5310902079
 21
109.4517253679
  0
LINE
  5
68C
100
AcDbEntity
  8
0
100
AcDbLine
 62
7
  6
CONTINUOUS
 10
235.0159814841
 20
109.7017258448
 11
235.5167243646
 21
109.7017258448
  0
LINE
  5
68D
100
AcDbEntity
  8
0
100
AcDbLine
 62
7
  6
CONTINUOUS
 10
234.9914726142
 20
110.2017253679
 11
235.4919568696
 21
110.2017253679
  0
LINE
  5
68E
100
AcDbEntity
  8
0
100
AcDbLine
 62
7
  6
CONTINUOUS
 10
234.9645012345
 20
110.9517253679
 11
235.4647011901
 21
110.9517253679
  0
LINE
  5
68F
100
AcDbEntity
  8
0
100
AcDbLine
 62
7
  6
CONTINUOUS
 10
234.9467891006
 20
111.9517258448
 11
235.4468025816
 21
111.9517258448
  0
LINE
  5
690
100
AcDbEntity
  8
BEZUGSACHSEN
100
AcDbLine
 62
7
  6
CONTINUOUS
 10
325.9455130904
 20
112.3017258448
 11
325.3623891754
 21
112.3017258448
  0
LINE
  5
691
100
AcDbEntity
  8
BEZUGSACHSEN
100
AcDbLine
 62
7
  6
CONTINUOUS
 10
357.9455130904
 20
112.3017258448
 11
358.5286370054
 21
112.3017258448
  0
LINE
  5
692
100
AcDbEntity
  8
0
100
AcDbLine
 62
7
  6
CONTINUOUS
 10
234.9499143403
 20
112.9517263216
 11
235.4499606736
 21
112.9517263216
  0
LINE
  5
693
100
AcDbEntity
  8
KONSTRUKTIONSELEMENTE
100
AcDbLine
 62
7
  6
CONTINUOUS
 10
256.3526215027
 20
113.617576202
 11
266.2677150628
 21
112.3172225212
  0
LINE
  5
694
100
AcDbEntity
  8
KONSTRUKTIONSELEMENTE
100
AcDbLine
 62
7
  6
CONTINUOUS
 10
266.3801681815
 20
113.1746686218
 11
261.9500199322
 21
113.7556777214
  0
LINE
  5
695
100
AcDbEntity
  8
KONSTRUKTIONSELEMENTE
100
AcDbLine
 62
7
  6
CONTINUOUS
 10
260.6842634584
 20
113.9216802992
 11
257.5198716829
 21
114.3366868211
  0
LINE
  5
696
100
AcDbEntity
  8
KONSTRUKTIONSELEMENTE
100
AcDbLine
 62
7
  6
CONTINUOUS
 10
259.2541828001
 20
117.7433761927
 11
259.887061628
 21
117.6603748263
  0
LINE
  5
697
100
AcDbEntity
  8
KONSTRUKTIONSELEMENTE
100
AcDbLine
 62
7
  6
CONTINUOUS
 10
260.210474159
 20
118.4901538306
 11
259.3666359188
 21
118.6008222932
  0
LINE
  5
698
100
AcDbEntity
  8
KONSTRUKTIONSELEMENTE
100
AcDbLine
 62
7
  6
CONTINUOUS
 10
265.4540442139
 20
120.8832039063
 11
264.6224798072
 21
121.1146857073
  0
LINE
  5
699
100
AcDbEntity
  8
KONSTRUKTIONSELEMENTE
100
AcDbLine
 62
7
  6
CONTINUOUS
 10
264.2547128318
 20
120.3319931212
 11
265.2788451327
 21
120.0100295652
  0
LINE
  5
69A
100
AcDbEntity
  8
KONSTRUKTIONSELEMENTE
100
AcDbLine
 62
7
  6
CONTINUOUS
 10
260.1239523506
 20
127.0504124823
 11
266.0935470072
 21
124.2454545588
  0
LINE
  5
69B
100
AcDbEntity
  8
KONSTRUKTIONSELEMENTE
100
AcDbLine
 62
7
  6
CONTINUOUS
 10
266.4613138072
 20
125.0281467716
 11
260.4917191506
 21
127.8331046952
  0
LINE
  5
69C
100
AcDbEntity
  8
KONSTRUKTIONSELEMENTE
100
AcDbLine
 62
7
  6
CONTINUOUS
 10
268.0120069371
 20
133.1600700367
 11
268.7305960159
 21
132.681830638
  0
LINE
  5
69D
100
AcDbEntity
  8
KONSTRUKTIONSELEMENTE
100
AcDbLine
 62
7
  6
CONTINUOUS
 10
269.3232097113
 20
133.3116469026
 11
268.4496650718
 21
133.9356888038
  0
LINE
  5
69E
100
AcDbEntity
  8
KONSTRUKTIONSELEMENTE
100
AcDbLine
 62
7
  6
CONTINUOUS
 10
303.0339703585
 20
112.3017258448
 11
295.2397417245
 21
125.8017258448
  0
LINE
  5
69F
100
AcDbEntity
  8
KONSTRUKTIONSELEMENTE
100
AcDbLine
 62
7
  6
CONTINUOUS
 10
297.1344981723
 20
131.9766676267
 11
297.4215631397
 21
131.057775274
  0
LINE
  5
6A0
100
AcDbEntity
  8
KONSTRUKTIONSELEMENTE
100
AcDbLine
 62
7
  6
CONTINUOUS
 10
300.5273436653
 20
135.6446373471
 11
300.3636697418
 21
136.4890391449
  0
LINE
  5
6A1
100
AcDbEntity
  8
0
100
AcDbLine
 62
7
  6
CONTINUOUS
 10
234.9738808316
 20
113.9517253679
 11
235.4741796188
 21
113.9517253679
  0
LINE
  5
6A2
100
AcDbEntity
  8
0
100
AcDbLine
 62
7
  6
CONTINUOUS
 10
235.0055506135
 20
114.7017253679
 11
235.5061833914
 21
114.7017253679
  0
LINE
  5
6A3
100
AcDbEntity
  8
0
100
AcDbLine
 62
7
  6
CONTINUOUS
 10
235.0331973748
 20
115.2017263216
 11
235.5341220832
 21
115.2017263216
  0
LINE
  5
6A4
100
AcDbEntity
  8
0
100
AcDbLine
 62
7
  6
CONTINUOUS
 10
235.0489839572
 20
115.4517253679
 11
235.5500755146
 21
115.4517253679
  0
LINE
  5
6A5
100
AcDbEntity
  8
0
100
AcDbLine
 62
7
  6
CONTINUOUS
 10
235.1712784259
 20
116.9517260832
 11
235.6736663126
 21
116.9517260832
  0
LINE
  5
6A6
100
AcDbEntity
  8
0
100
AcDbLine
 62
7
  6
CONTINUOUS
 10
235.2893511069
 20
118.0367258448
 11
235.7929969857
 21
118.0367258448
  0
LINE
  5
6A7
100
AcDbEntity
  8
0
100
AcDbLine
 62
7
  6
CONTINUOUS
 10
235.40839598
 20
118.9517256064
 11
235.9133166376
 21
118.9517256064
  0
LINE
  5
6A8
100
AcDbEntity
  8
0
100
AcDbLine
 62
7
  6
CONTINUOUS
 10
235.4440394637
 20
119.2017260832
 11
235.9493430687
 21
119.2017260832
  0
LINE
  5
6A9
100
AcDbEntity
  8
0
100
AcDbLine
 62
7
  6
CONTINUOUS
 10
235.4810263661
 20
119.4517258448
 11
235.9867279698
 21
119.4517258448
  0
LINE
  5
6AA
100
AcDbEntity
  8
0
100
AcDbLine
 62
7
  6
CONTINUOUS
 10
235.6000803645
 20
120.2017258448
 11
236.1070673434
 21
120.2017258448
  0
LINE
  5
6AB
100
AcDbEntity
  8
KONSTRUKTIONSELEMENTE
100
AcDbLine
 62
7
  6
CONTINUOUS
 10
265.2788451327
 20
120.0100295652
 11
266.1717044333
 21
119.9089970249
  0
LINE
  5
6AC
100
AcDbEntity
  8
KONSTRUKTIONSELEMENTE
100
AcDbLine
 62
7
  6
CONTINUOUS
 10
267.349602848
 20
133.3875375717
 11
268.0120069371
 21
133.1600700367
  0
LINE
  5
6AD
100
AcDbEntity
  8
KONSTRUKTIONSELEMENTE
100
AcDbLine
 62
7
  6
CONTINUOUS
 10
268.4496650718
 20
133.9356888038
 11
267.6323062902
 21
134.3089580243
  0
LINE
  5
6AE
100
AcDbEntity
  8
KONSTRUKTIONSELEMENTE
100
AcDbLine
 62
7
  6
CONTINUOUS
 10
297.4215631397
 20
131.057775274
 11
297.9285512731
 21
130.5031784061
  0
LINE
  5
6AF
100
AcDbEntity
  8
KONSTRUKTIONSELEMENTE
100
AcDbLine
 62
7
  6
CONTINUOUS
 10
298.6017502894
 20
131.3394266589
 11
298.2181503952
 21
131.8195347087
  0
LINE
  5
6B0
100
AcDbEntity
  8
KONSTRUKTIONSELEMENTE
100
AcDbLine
 62
7
  6
CONTINUOUS
 10
298.2181503952
 20
131.8195347087
 11
297.9445148985
 21
132.4817887801
  0
LINE
  5
6B1
100
AcDbEntity
  8
KONSTRUKTIONSELEMENTE
100
AcDbLine
 62
7
  6
CONTINUOUS
 10
299.5670797296
 20
135.7272815268
 11
299.7039003021
 21
135.3961527862
  0
LINE
  5
6B2
100
AcDbEntity
  8
KONSTRUKTIONSELEMENTE
100
AcDbLine
 62
7
  6
CONTINUOUS
 10
301.3482558038
 20
133.6578717232
 11
301.6218941248
 21
132.9956159469
  0
LINE
  5
6B3
100
AcDbEntity
  8
KONSTRUKTIONSELEMENTE
100
AcDbLine
 62
7
  6
CONTINUOUS
 10
302.3085197396
 20
133.5752275435
 11
302.1717019912
 21
133.9063545792
  0
LINE
  5
6B4
100
AcDbEntity
  8
KONSTRUKTIONSELEMENTE
100
AcDbLine
 62
7
  6
CONTINUOUS
 10
304.5077515134
 20
137.218182583
 11
304.220686517
 21
138.1370748879
  0
LINE
  5
6B5
100
AcDbEntity
  8
KONSTRUKTIONSELEMENTE
100
AcDbLine
 62
7
  6
CONTINUOUS
 10
302.4721964872
 20
132.7308240407
 11
302.3085197396
 21
133.5752275435
  0
LINE
  5
6B6
100
AcDbEntity
  8
KONSTRUKTIONSELEMENTE
100
AcDbLine
 62
7
  6
CONTINUOUS
 10
303.5474875776
 20
137.3008267627
 11
303.7111643253
 21
136.4564232599
  0
LWPOLYLINE
  5
6B7
100
AcDbEntity
  8
BEZUGSACHSEN
100
AcDbPolyline
 62
7
  6
CONTINUOUS
 90
7
 70
0
 10
324.088086897
 20
173.5197718567
 10
324.0693627063
 20
173.261780861
 10
324.0233564569
 20
172.5004081488
 10
323.9884466398
 20
171.7094650395
 10
323.9640419683
 20
170.8886089699
 10
323.9497440459
 20
170.0370190234
 10
323.9455131318
 20
169.2425594195
  0
LINE
  5
6B8
100
AcDbEntity
  8
KONSTRUKTIONSELEMENTE
100
AcDbLine
 62
7
  6
CONTINUOUS
 10
266.1717044333
 20
119.9089970249
 11
267.1871523074
 21
120.0688612986
  0
LINE
  5
6B9
100
AcDbEntity
  8
KONSTRUKTIONSELEMENTE
100
AcDbLine
 62
7
  6
CONTINUOUS
 10
266.9799181657
 20
117.7477146277
 11
261.9591714138
 21
117.0978887691
  0
LINE
  5
6BA
100
AcDbEntity
  8
KONSTRUKTIONSELEMENTE
100
AcDbLine
 62
7
  6
CONTINUOUS
 10
262.2686370929
 20
116.1851082715
 11
266.8487228248
 21
116.7473605711
  0
LINE
  5
6BB
100
AcDbEntity
  8
KONSTRUKTIONSELEMENTE
100
AcDbLine
 62
7
  6
CONTINUOUS
 10
258.6025623946
 20
117.6834699344
 11
259.2541828001
 21
117.7433761927
  0
LINE
  5
6BC
100
AcDbEntity
  8
KONSTRUKTIONSELEMENTE
100
AcDbLine
 62
7
  6
CONTINUOUS
 10
259.3666359188
 20
118.6008222932
 11
258.7150155133
 21
118.540916035
  0
LINE
  5
6BD
100
AcDbEntity
  8
0
100
AcDbLine
 62
7
  6
CONTINUOUS
 10
235.7778334332
 20
121.2017256064
 11
236.2867518098
 21
121.2017256064
  0
LINE
  5
6BE
100
AcDbEntity
  8
0
100
AcDbLine
 62
7
  6
CONTINUOUS
 10
236.0309364644
 20
122.4517258448
 11
236.5426306368
 21
122.4517258448
  0
LINE
  5
6BF
100
AcDbEntity
  8
KONSTRUKTIONSELEMENTE
100
AcDbLine
 62
7
  6
CONTINUOUS
 10
295.2397417245
 20
125.8017258448
 11
279.6512844563
 21
125.8017258448
  0
LINE
  5
6C0
100
AcDbEntity
  8
KONSTRUKTIONSELEMENTE
100
AcDbLine
 62
7
  6
CONTINUOUS
 10
266.1543360115
 20
120.872654304
 11
265.4540442139
 21
120.8832039063
  0
LINE
  5
6C1
100
AcDbEntity
  8
KONSTRUKTIONSELEMENTE
100
AcDbLine
 62
7
  6
CONTINUOUS
 10
297.9285512731
 20
130.5031784061
 11
298.6688920622
 21
130.0562387735
  0
LINE
  5
6C2
100
AcDbEntity
  8
KONSTRUKTIONSELEMENTE
100
AcDbLine
 62
7
  6
CONTINUOUS
 10
299.0953117569
 20
131.0414663355
 11
298.6017502894
 21
131.3394266589
  0
LINE
  5
6C3
100
AcDbEntity
  8
KONSTRUKTIONSELEMENTE
100
AcDbLine
 62
7
  6
CONTINUOUS
 10
300.9646587338
 20
134.1379780681
 11
301.3482558038
 21
133.6578717232
  0
LINE
  5
6C4
100
AcDbEntity
  8
KONSTRUKTIONSELEMENTE
100
AcDbLine
 62
7
  6
CONTINUOUS
 10
300.9109435595
 20
135.1645292973
 11
300.5273436653
 21
135.6446373471
  0
LINE
  5
6C5
100
AcDbEntity
  8
KONSTRUKTIONSELEMENTE
100
AcDbLine
 62
7
  6
CONTINUOUS
 10
303.1638905076
 20
137.7809331076
 11
303.5474875776
 21
137.3008267627
  0
LWPOLYLINE
  5
6C6
100
AcDbEntity
  8
RUNDUNGEN
100
AcDbPolyline
 62
7
  6
CONTINUOUS
 90
7
 70
0
 10
323.9455131318
 20
55.36089227
 10
323.9497440459
 20
54.5664326662
 10
323.9640419683
 20
53.7148427196
 10
323.9884466398
 20
52.89398665
 10
324.0233564569
 20
52.1030435408
 10
324.0693627063
 20
51.3416708285
 10
324.088086897
 20
51.0836798328
  0
LINE
  5
6C7
100
AcDbEntity
  8
BEZUGSACHSEN
100
AcDbLine
 62
7
  6
CONTINUOUS
 10
323.9455131322
 20
169.2425479165
 11
323.9455130904
 21
137.6476894086
  0
LINE
  5
6C8
100
AcDbEntity
  8
RUNDUNGEN
100
AcDbLine
 62
7
  6
CONTINUOUS
 10
323.9455130904
 20
55.3621828167
 11
323.9455130904
 21
86.9557622809
  0
LINE
  5
6C9
100
AcDbEntity
  8
0
100
AcDbLine
 62
7
  6
CONTINUOUS
 10
325.9455130904
 20
55.6038737446
 11
325.9455130904
 21
44.8410352533
  0
LINE
  5
6CA
100
AcDbEntity
  8
RUNDUNGEN
100
AcDbLine
 62
7
  6
CONTINUOUS
 10
325.9455130904
 20
44.8410352533
 11
325.9455130904
 21
44.34615819
  0
LINE
  5
6CB
100
AcDbEntity
  8
BEZUGSACHSEN
100
AcDbLine
 62
7
  6
CONTINUOUS
 10
325.9455130904
 20
55.6038737446
 11
325.9455130904
 21
180.2572934995
  0
LINE
  5
6CC
100
AcDbEntity
  8
KONSTRUKTIONSELEMENTE
100
AcDbLine
 62
7
  6
CONTINUOUS
 10
299.3958061855
 20
129.8659356854
 11
300.3426406505
 21
130.0399297871
  0
LINE
  5
6CD
100
AcDbEntity
  8
KONSTRUKTIONSELEMENTE
100
AcDbLine
 62
7
  6
CONTINUOUS
 10
300.4123165876
 20
130.9919905731
 11
299.6988319735
 21
130.9256554435
  0
LINE
  5
6CE
100
AcDbEntity
  8
KONSTRUKTIONSELEMENTE
100
AcDbLine
 62
7
  6
CONTINUOUS
 10
302.1717019912
 20
133.9063545792
 11
302.5284428861
 21
133.9395229964
  0
LINE
  5
6CF
100
AcDbEntity
  8
0
100
AcDbLine
 62
7
  6
CONTINUOUS
 10
237.7439920983
 20
128.4517258448
 11
238.2753048975
 21
128.4517258448
  0
LINE
  5
6D0
100
AcDbEntity
  8
0
100
AcDbLine
 62
7
  6
CONTINUOUS
 10
238.6302398666
 20
130.7450595755
 11
239.172308491
 21
130.7450595755
  0
LINE
  5
6D1
100
AcDbEntity
  8
0
100
AcDbLine
 62
7
  6
CONTINUOUS
 10
239.3612510225
 20
132.4117258448
 11
239.9125269054
 21
132.4117258448
  0
LINE
  5
6D2
100
AcDbEntity
  8
KONSTRUKTIONSELEMENTE
100
AcDbLine
 62
7
  6
CONTINUOUS
 10
267.6323062902
 20
134.3089580243
 11
266.6174103637
 21
134.4722892907
  0
LINE
  5
6D3
100
AcDbEntity
  8
KONSTRUKTIONSELEMENTE
100
AcDbLine
 62
7
  6
CONTINUOUS
 10
299.6988319735
 20
130.9256554435
 11
299.0953117569
 21
131.0414663355
  0
LINE
  5
6D4
100
AcDbEntity
  8
KONSTRUKTIONSELEMENTE
100
AcDbLine
 62
7
  6
CONTINUOUS
 10
302.0080252436
 20
134.7507580819
 11
301.404505027
 21
134.8665689739
  0
LINE
  5
6D5
100
AcDbEntity
  8
KONSTRUKTIONSELEMENTE
100
AcDbLine
 62
7
  6
CONTINUOUS
 10
299.8675742256
 20
134.5517509883
 11
300.4710972663
 21
134.4359383914
  0
LINE
  5
6D6
100
AcDbEntity
  8
KONSTRUKTIONSELEMENTE
100
AcDbLine
 62
7
  6
CONTINUOUS
 10
292.7418528384
 20
132.6310437538
 11
293.5843753535
 21
132.4360685478
  0
LINE
  5
6D7
100
AcDbEntity
  8
KONSTRUKTIONSELEMENTE
100
AcDbLine
 62
7
  6
CONTINUOUS
 10
290.0433455467
 20
136.3129730692
 11
293.4134356067
 21
135.5330722452
  0
LINE
  5
6D8
100
AcDbEntity
  8
KONSTRUKTIONSELEMENTE
100
AcDbLine
 62
7
  6
CONTINUOUS
 10
294.2559581217
 20
135.3380970391
 11
295.6601633847
 21
135.0131381145
  0
LINE
  5
6D9
100
AcDbEntity
  8
KONSTRUKTIONSELEMENTE
100
AcDbLine
 62
7
  6
CONTINUOUS
 10
295.9479846095
 20
136.2568647767
 11
294.5437793465
 21
136.5818237013
  0
LINE
  5
6DA
100
AcDbEntity
  8
KONSTRUKTIONSELEMENTE
100
AcDbLine
 62
7
  6
CONTINUOUS
 10
293.7012568315
 20
136.7767989074
 11
291.314110777
 21
137.3292284098
  0
LINE
  5
6DB
100
AcDbEntity
  8
KONSTRUKTIONSELEMENTE
100
AcDbLine
 62
7
  6
CONTINUOUS
 10
298.6688920622
 20
130.0562387735
 11
299.3958061855
 21
129.8659356854
  0
LINE
  5
6DC
100
AcDbEntity
  8
KONSTRUKTIONSELEMENTE
100
AcDbLine
 62
7
  6
CONTINUOUS
 10
300.4710972663
 20
134.4359383914
 11
300.9646587338
 21
134.1379780681
  0
LINE
  5
6DD
100
AcDbEntity
  8
KONSTRUKTIONSELEMENTE
100
AcDbLine
 62
7
  6
CONTINUOUS
 10
301.404505027
 20
134.8665689739
 11
300.9109435595
 21
135.1645292973
  0
LINE
  5
6DE
100
AcDbEntity
  8
KONSTRUKTIONSELEMENTE
100
AcDbLine
 62
7
  6
CONTINUOUS
 10
302.6703290401
 20
138.078893431
 11
303.1638905076
 21
137.7809331076
  0
LINE
  5
6DF
100
AcDbEntity
  8
KONSTRUKTIONSELEMENTE
100
AcDbLine
 62
7
  6
CONTINUOUS
 10
303.713698374
 20
138.6916717399
 11
303.2201369066
 21
138.9896320633
  0
LINE
  5
6E0
100
AcDbEntity
  8
KONSTRUKTIONSELEMENTE
100
AcDbLine
 62
7
  6
CONTINUOUS
 10
304.220686517
 20
138.1370748879
 11
303.713698374
 21
138.6916717399
  0
LINE
  5
6E1
100
AcDbEntity
  8
BEZUGSACHSEN
100
AcDbLine
 62
7
  6
CONTINUOUS
 10
309.096148185
 20
74.8017258448
 11
323.9455130904
 21
100.521580321
  0
LINE
  5
6E2
100
AcDbEntity
  8
KONSTRUKTIONSELEMENTE
100
AcDbLine
 62
7
  6
CONTINUOUS
 10
302.493225617
 20
139.1799334623
 11
301.5463883568
 21
139.0059411134
  0
LINE
  5
6E3
100
AcDbEntity
  8
KONSTRUKTIONSELEMENTE
100
AcDbLine
 62
7
  6
CONTINUOUS
 10
266.6174103637
 20
134.4722892907
 11
265.9124246904
 21
134.3440163693
  0
LINE
  5
6E4
100
AcDbEntity
  8
KONSTRUKTIONSELEMENTE
100
AcDbLine
 62
7
  6
CONTINUOUS
 10
281.3037887014
 20
132.6792863916
 11
282.1613382138
 21
132.7909481713
  0
LINE
  5
6E5
100
AcDbEntity
  8
KONSTRUKTIONSELEMENTE
100
AcDbLine
 62
7
  6
CONTINUOUS
 10
284.1622859856
 20
133.0514921821
 11
285.3056875163
 21
133.2003748391
  0
LINE
  5
6E6
100
AcDbEntity
  8
KONSTRUKTIONSELEMENTE
100
AcDbLine
 62
7
  6
CONTINUOUS
 10
287.3066352881
 20
133.4609188499
 11
288.1641848005
 21
133.5725806297
  0
LINE
  5
6E7
100
AcDbEntity
  8
KONSTRUKTIONSELEMENTE
100
AcDbLine
 62
7
  6
CONTINUOUS
 10
299.1540924357
 20
134.4854141539
 11
299.8675742256
 21
134.5517509883
  0
LINE
  5
6E8
100
AcDbEntity
  8
KONSTRUKTIONSELEMENTE
100
AcDbLine
 62
7
  6
CONTINUOUS
 10
299.7039003021
 20
135.3961527862
 11
299.347156583
 21
135.3629860739
  0
LINE
  5
6E9
100
AcDbEntity
  8
KONSTRUKTIONSELEMENTE
100
AcDbLine
 62
7
  6
CONTINUOUS
 10
266.7433857471
 20
133.3642336273
 11
267.349602848
 21
133.3875375717
  0
LINE
  5
6EA
100
AcDbEntity
  8
0
100
AcDbLine
 62
7
  6
CONTINUOUS
 10
242.8312961592
 20
138.6617258448
 11
243.4309537483
 21
138.6617258448
  0
LINE
  5
6EB
100
AcDbEntity
  8
0
100
AcDbLine
 62
7
  6
CONTINUOUS
 10
243.6811794019
 20
139.9117258448
 11
244.2940202344
 21
139.9117258448
  0
LINE
  5
6EC
100
AcDbEntity
  8
KONSTRUKTIONSELEMENTE
100
AcDbLine
 62
7
  6
CONTINUOUS
 10
302.0668059993
 20
138.1947060279
 11
302.6703290401
 21
138.078893431
  0
LINE
  5
6ED
100
AcDbEntity
  8
KONSTRUKTIONSELEMENTE
100
AcDbLine
 62
7
  6
CONTINUOUS
 10
295.8389746901
 20
142.1785929553
 11
294.9964521751
 21
142.3735681614
  0
LINE
  5
6EE
100
AcDbEntity
  8
KONSTRUKTIONSELEMENTE
100
AcDbLine
 62
7
  6
CONTINUOUS
 10
303.2201369066
 20
138.9896320633
 11
302.493225617
 21
139.1799334623
  0
LINE
  5
6EF
100
AcDbEntity
  8
BEZUGSACHSEN
100
AcDbLine
 62
7
  6
CONTINUOUS
 10
323.9455130904
 20
124.0818713685
 11
309.096148185
 21
149.8017258448
  0
LINE
  5
6F0
100
AcDbEntity
  8
KONSTRUKTIONSELEMENTE
100
AcDbLine
 62
7
  6
CONTINUOUS
 10
286.8729817818
 20
143.4888699944
 11
285.5866575132
 21
143.3213773247
  0
LINE
  5
6F1
100
AcDbEntity
  8
KONSTRUKTIONSELEMENTE
100
AcDbLine
 62
7
  6
CONTINUOUS
 10
281.2989099512
 20
142.7630684259
 11
280.0125856827
 21
142.5955757563
  0
LINE
  5
6F2
100
AcDbEntity
  8
0
100
AcDbLine
 62
7
  6
CONTINUOUS
 10
244.907679592
 20
141.5783927101
 11
245.5406099726
 21
141.5783927101
  0
LINE
  5
6F3
100
AcDbEntity
  8
0
100
AcDbLine
 62
7
  6
CONTINUOUS
 10
245.9033396918
 20
142.8283927101
 11
246.5535825275
 21
142.8283927101
  0
LINE
  5
6F4
100
AcDbEntity
  8
0
100
AcDbLine
 62
7
  6
CONTINUOUS
 10
248.5137915402
 20
145.7450592774
 11
249.2143190868
 21
145.7450592774
  0
LINE
  5
6F5
100
AcDbEntity
  8
0
100
AcDbLine
 62
7
  6
CONTINUOUS
 10
251.6094252682
 20
148.6617258448
 11
252.3808210422
 21
148.6617258448
  0
LINE
  5
6F6
100
AcDbEntity
  8
BEZUGSACHSEN
100
AcDbLine
 62
7
  6
CONTINUOUS
 10
309.096148185
 20
149.8017258448
 11
265.7948779958
 21
149.8017258448
  0
LINE
  5
6F7
100
AcDbEntity
  8
0
100
AcDbLine
 62
7
  6
CONTINUOUS
 10
253.1212293605
 20
149.9117258448
 11
253.9327934661
 21
149.9117258448
  0
LINE
  5
6F8
100
AcDbEntity
  8
RUNDUNGEN
100
AcDbLine
 62
7
  6
CONTINUOUS
 10
370.4455130904
 20
159.8017258448
 11
359.9455130904
 21
159.8017258448
  0
LINE
  5
6F9
100
AcDbEntity
  8
RUNDUNGEN
100
AcDbLine
 62
7
  6
CONTINUOUS
 10
323.9455130904
 20
159.8017258448
 11
282.9455130904
 21
159.8017258448
  0
LWPOLYLINE
  5
6FA
100
AcDbEntity
  8
BEZUGSACHSEN
100
AcDbPolyline
 62
7
  6
CONTINUOUS
 90
7
 70
0
 10
359.9455130491
 20
169.2425594195
 10
359.9412821349
 20
170.0370190234
 10
359.9269842126
 20
170.8886089699
 10
359.902579541
 20
171.7094650395
 10
359.867669724
 20
172.5004081488
 10
359.8216634745
 20
173.261780861
 10
359.8029392838
 20
173.5197718567
  0
LINE
  5
6FB
100
AcDbEntity
  8
BEZUGSACHSEN
100
AcDbLine
 62
7
  6
CONTINUOUS
 10
357.9455130904
 20
44.34615819
 11
357.9455130904
 21
180.2572934995
  0
LINE
  5
6FC
100
AcDbEntity
  8
BEZUGSACHSEN
100
AcDbLine
 62
7
  6
CONTINUOUS
 10
359.9455130904
 20
169.2412688729
 11
359.9455130904
 21
137.6476894086
  0
LINE
  5
6FD
100
AcDbEntity
  8
BEZUGSACHSEN
100
AcDbLine
 62
7
  6
CONTINUOUS
 10
359.9455130904
 20
55.3621828167
 11
359.9455130904
 21
86.9557622809
  0
LWPOLYLINE
  5
6FE
100
AcDbEntity
  8
BEZUGSACHSEN
100
AcDbPolyline
 62
7
  6
CONTINUOUS
 90
7
 70
0
 10
359.8029392838
 20
51.0836798328
 10
359.8216634745
 20
51.3416708285
 10
359.867669724
 20
52.1030435408
 10
359.902579541
 20
52.89398665
 10
359.9269842126
 20
53.7148427196
 10
359.9412821349
 20
54.5664326662
 10
359.9455130491
 20
55.36089227
  0
LINE
  5
6FF
100
AcDbEntity
  8
RUNDUNGEN
100
AcDbLine
 62
7
  6
CONTINUOUS
 10
375.4455130904
 20
69.8017258448
 11
375.4455130904
 21
154.8017258448
  0
LWPOLYLINE
  5
700
100
AcDbEntity
  8
BEZUGSACHSEN
100
AcDbPolyline
 62
7
  6
CONTINUOUS
 90
19
 70
0
 10
338.8059267704
 20
190.3007486106
 10
337.8840886133
 20
190.2598036705
 10
336.9689140587
 20
190.1590932636
 10
336.0671657415
 20
190.0000414523
 10
335.1843886029
 20
189.7848182186
 10
334.3256729754
 20
189.5162623042
 10
333.4956988817
 20
189.1978339153
 10
332.6986721489
 20
188.8335515462
 10
331.9381655538
 20
188.427862352
 10
331.2174525453
 20
187.9857717735
 10
330.5391340644
 20
187.5126254013
 10
329.9049252134
 20
187.0138437671
 10
329.3163250892
 20
186.4953500812
 10
328.7726879232
 20
185.9616941723
 10
328.2735154174
 20
185.4177518478
 10
327.8171111125
 20
184.8672539965
 10
327.4015992285
 20
184.3136167445
 10
327.0252719779
 20
183.7604416622
 10
326.6661287715
 20
183.1768131138
  0
LINE
  5
701
100
AcDbEntity
  8
BEZUGSACHSEN
100
AcDbLine
 62
7
  6
CONTINUOUS
 10
338.9594776683
 20
190.3017200373
 11
338.8059267704
 21
190.3007486106
  0
LINE
  5
702
100
AcDbEntity
  8
BEZUGSACHSEN
100
AcDbLine
 62
7
  6
CONTINUOUS
 10
344.9315436564
 20
190.3017200418
 11
338.9594776683
 21
190.3017200373
  0
LINE
  5
703
100
AcDbEntity
  8
BEZUGSACHSEN
100
AcDbLine
 62
7
  6
CONTINUOUS
 10
345.084975475
 20
190.300750067
 11
344.9315436564
 21
190.3017200418
  0
LWPOLYLINE
  5
704
100
AcDbEntity
  8
BEZUGSACHSEN
100
AcDbPolyline
 62
7
  6
CONTINUOUS
 90
19
 70
0
 10
357.224897475
 20
183.1768130014
 10
356.8662068112
 20
183.7597427377
 10
356.4898179354
 20
184.3130692196
 10
356.0742196214
 20
184.8668676492
 10
355.6176952288
 20
185.4175402097
 10
355.1183810936
 20
185.9616498312
 10
354.5745902743
 20
186.4954532286
 10
353.9858383437
 20
187.0140626043
 10
353.3515011968
 20
187.51291531
 10
352.6730791879
 20
187.9860956951
 10
351.9522964777
 20
188.4281856727
 10
351.1917527771
 20
188.8338491496
 10
350.3947223837
 20
189.1980880535
 10
349.5647751161
 20
189.5164634839
 10
348.7061128871
 20
189.7849641452
 10
347.8234127333
 20
190.000135461
 10
346.9217607673
 20
190.1591435552
 10
346.0066967516
 20
190.2598222547
 10
345.084975475
 20
190.300750067
  0
ARC
  5
705
100
AcDbEntity
  8
RUNDUNGEN
100
AcDbCircle
 62
7
  6
CONTINUOUS
 10
340.4455130904
 20
346.2744098084
 40
35.0
100
AcDbArc
 50
270.0
 51
63.7090351991
  0
ARC
  5
706
100
AcDbEntity
  8
0
100
AcDbCircle
 62
7
  6
CONTINUOUS
 10
257.2019014028
 20
323.6091197447
 40
22.2563884617
100
AcDbArc
 50
178.5391088673
 51
179.6347335109
  0
ARC
  5
707
100
AcDbEntity
  8
0
100
AcDbCircle
 62
7
  6
CONTINUOUS
 10
257.2019014028
 20
331.339700021
 40
22.2563884617
100
AcDbArc
 50
180.3652664891
 51
181.4608911327
  0
ARC
  5
708
100
AcDbEntity
  8
0
100
AcDbCircle
 62
7
  6
CONTINUOUS
 10
336.8071395906
 20
345.6283214357
 40
12.8284654046
100
AcDbArc
 50
184.8994161698
 51
186.3763124039
  0
ARC
  5
709
100
AcDbEntity
  8
RUNDUNGEN
100
AcDbCircle
 62
7
  6
CONTINUOUS
 10
240.4455130904
 20
376.2744098084
 40
5.0
100
AcDbArc
 50
90.0
 51
180.0
  0
ARC
  5
70A
100
AcDbEntity
  8
RUNDUNGEN
100
AcDbCircle
 62
7
  6
CONTINUOUS
 10
240.4455130904
 20
316.2744098084
 40
5.0
100
AcDbArc
 50
180.0
 51
270.0
  0
ARC
  5
70B
100
AcDbEntity
  8
0
100
AcDbCircle
 62
7
  6
CONTINUOUS
 10
236.3441203835
 20
322.6164709547
 40
1.3986072544
100
AcDbArc
 50
180.0088489363
 51
185.8297749676
  0
ARC
  5
70C
100
AcDbEntity
  8
0
100
AcDbCircle
 62
7
  6
CONTINUOUS
 10
236.34412014
 20
332.3323486744
 40
1.3986070109
100
AcDbArc
 50
174.1702245245
 51
179.9911510614
  0
ARC
  5
70D
100
AcDbEntity
  8
0
100
AcDbCircle
 62
7
  6
CONTINUOUS
 10
236.3381379501
 20
322.6162295322
 40
1.3926248045
100
AcDbArc
 50
177.0798454064
 51
179.9989542731
  0
ARC
  5
70E
100
AcDbEntity
  8
0
100
AcDbCircle
 62
7
  6
CONTINUOUS
 10
236.3381377065
 20
332.3325900969
 40
1.392624561
100
AcDbArc
 50
180.0010457271
 51
182.920154849
  0
ARC
  5
70F
100
AcDbEntity
  8
BEZUGSACHSEN
100
AcDbCircle
 62
7
  6
CONTINUOUS
 10
165.6919296075
 20
507.6366986817
 40
191.8625917048
100
AcDbArc
 50
353.7645978455
 51
354.0756126905
  0
ARC
  5
710
100
AcDbEntity
  8
BEZUGSACHSEN
100
AcDbCircle
 62
7
  6
CONTINUOUS
 10
257.7382268507
 20
526.9098266017
 40
102.2969599627
100
AcDbArc
 50
354.8516164154
 51
355.3613392636
  0
ARC
  5
711
100
AcDbEntity
  8
RUNDUNGEN
100
AcDbCircle
 62
7
  6
CONTINUOUS
 10
277.9455130904
 20
479.6540208442
 40
50.0
100
AcDbArc
 50
0.0
 51
6.0
  0
ARC
  5
712
100
AcDbEntity
  8
BEZUGSACHSEN
100
AcDbCircle
 62
7
  6
CONTINUOUS
 10
309.9455130904
 20
522.9522565894
 40
50.0
100
AcDbArc
 50
353.9999798708
 51
359.9999004571
  0
ARC
  5
713
100
AcDbEntity
  8
BEZUGSACHSEN
100
AcDbCircle
 62
7
  6
CONTINUOUS
 10
320.1295314014
 20
521.8453048719
 40
39.7004404845
100
AcDbArc
 50
355.3645941651
 51
5.0284166266
  0
ARC
  5
714
100
AcDbEntity
  8
BEZUGSACHSEN
100
AcDbCircle
 62
7
  6
CONTINUOUS
 10
317.1327382821
 20
491.0790702965
 40
39.5205424723
100
AcDbArc
 50
350.9845334247
 51
352.6022855179
  0
ARC
  5
715
100
AcDbEntity
  8
RUNDUNGEN
100
AcDbCircle
 62
7
  6
CONTINUOUS
 10
309.9455130904
 20
481.3310697813
 40
20.0
100
AcDbArc
 50
0.0
 51
6.0
  0
ARC
  5
716
100
AcDbEntity
  8
BEZUGSACHSEN
100
AcDbCircle
 62
7
  6
CONTINUOUS
 10
337.9455130904
 20
521.4848387695
 40
20.0
100
AcDbArc
 50
354.0
 51
360.0
  0
ARC
  5
717
100
AcDbEntity
  8
RUNDUNGEN
100
AcDbCircle
 62
7
  6
CONTINUOUS
 10
341.9455130904
 20
346.2744098084
 40
18.5
100
AcDbArc
 50
151.0077269118
 51
28.9922730831
  0
ARC
  5
718
100
AcDbEntity
  8
0
100
AcDbCircle
 62
7
  6
CONTINUOUS
 10
341.9455130904
 20
346.2744098084
 40
18.0
100
AcDbArc
 50
156.0660396118
 51
179.9999996835
  0
ARC
  5
719
100
AcDbEntity
  8
BEZUGSACHSEN
100
AcDbCircle
 62
7
  6
CONTINUOUS
 10
341.9455130904
 20
346.2744098084
 40
18.0
100
AcDbArc
 50
251.9531550723
 51
269.4965194711
  0
ARC
  5
71A
100
AcDbEntity
  8
BEZUGSACHSEN
100
AcDbCircle
 62
7
  6
CONTINUOUS
 10
341.9455130904
 20
346.2744098084
 40
18.0
100
AcDbArc
 50
270.5034805211
 51
288.0491489871
  0
ARC
  5
71B
100
AcDbEntity
  8
BEZUGSACHSEN
100
AcDbCircle
 62
7
  6
CONTINUOUS
 10
341.9455130904
 20
346.2744098084
 40
18.0
100
AcDbArc
 50
0.0000003165
 51
23.9344795452
  0
ARC
  5
71C
100
AcDbEntity
  8
BEZUGSACHSEN
100
AcDbCircle
 62
7
  6
CONTINUOUS
 10
341.9773152158
 20
346.2117670785
 40
17.9399344988
100
AcDbArc
 50
287.67268673
 51
287.8332916652
  0
ARC
  5
71D
100
AcDbEntity
  8
BEZUGSACHSEN
100
AcDbCircle
 62
7
  6
CONTINUOUS
 10
347.0839043627
 20
345.6283197125
 40
12.8284475498
100
AcDbArc
 50
353.6236738116
 51
355.1005847188
  0
ARC
  5
71E
100
AcDbEntity
  8
RUNDUNGEN
100
AcDbCircle
 62
7
  6
CONTINUOUS
 10
518.1990965762
 20
507.636698682
 40
191.8625917077
100
AcDbArc
 50
185.9243873095
 51
186.2354021545
  0
ARC
  5
71F
100
AcDbEntity
  8
0
100
AcDbCircle
 62
7
  6
CONTINUOUS
 10
426.1527993305
 20
526.9098266017
 40
102.2969599631
100
AcDbArc
 50
184.6386607364
 51
185.1483835846
  0
ARC
  5
720
100
AcDbEntity
  8
RUNDUNGEN
100
AcDbCircle
 62
7
  6
CONTINUOUS
 10
373.9455130904
 20
522.9522565894
 40
50.0
100
AcDbArc
 50
180.0004416315
 51
186.0
  0
ARC
  5
721
100
AcDbEntity
  8
BEZUGSACHSEN
100
AcDbCircle
 62
7
  6
CONTINUOUS
 10
405.9455130904
 20
479.6540208442
 40
50.0
100
AcDbArc
 50
174.0
 51
180.0
  0
ARC
  5
722
100
AcDbEntity
  8
BEZUGSACHSEN
100
AcDbCircle
 62
7
  6
CONTINUOUS
 10
373.9455130904
 20
522.9522565894
 40
50.0
100
AcDbArc
 50
182.5613908778
 51
182.9080450117
  0
ARC
  5
723
100
AcDbEntity
  8
0
100
AcDbCircle
 62
7
  6
CONTINUOUS
 10
363.7614947794
 20
521.8453048719
 40
39.7004404845
100
AcDbArc
 50
174.9715833734
 51
184.6354058349
  0
ARC
  5
724
100
AcDbEntity
  8
RUNDUNGEN
100
AcDbCircle
 62
7
  6
CONTINUOUS
 10
366.7582878987
 20
491.0790702965
 40
39.5205424723
100
AcDbArc
 50
187.3977144821
 51
189.0154665753
  0
ARC
  5
725
100
AcDbEntity
  8
RUNDUNGEN
100
AcDbCircle
 62
7
  6
CONTINUOUS
 10
345.9455130904
 20
521.4848387695
 40
20.0
100
AcDbArc
 50
180.0
 51
186.0
  0
ARC
  5
726
100
AcDbEntity
  8
BEZUGSACHSEN
100
AcDbCircle
 62
7
  6
CONTINUOUS
 10
373.9455130904
 20
481.3310697813
 40
20.0
100
AcDbArc
 50
174.0
 51
180.0
  0
ARC
  5
727
100
AcDbEntity
  8
BEZUGSACHSEN
100
AcDbCircle
 62
7
  6
CONTINUOUS
 10
341.9455130904
 20
542.2744097274
 40
18.0
100
AcDbArc
 50
157.1146192408
 51
179.9999997993
  0
ARC
  5
728
100
AcDbEntity
  8
BEZUGSACHSEN
100
AcDbCircle
 62
7
  6
CONTINUOUS
 10
341.9455130904
 20
542.2744097274
 40
18.0
100
AcDbArc
 50
27.2660444304
 51
152.7339555696
  0
ARC
  5
729
100
AcDbEntity
  8
BEZUGSACHSEN
100
AcDbCircle
 62
7
  6
CONTINUOUS
 10
341.9455130904
 20
542.2744097274
 40
18.0
100
AcDbArc
 50
0.0000002007
 51
22.8853807592
  0
ARC
  5
72A
100
AcDbEntity
  8
BEZUGSACHSEN
100
AcDbCircle
 62
7
  6
CONTINUOUS
 10
-4973.2222654121
 20
373.8945738909
 40
5583.3208221583
100
AcDbArc
 50
359.8391282544
 51
0.0242801405
  0
ARC
  5
72B
100
AcDbEntity
  8
BEZUGSACHSEN
100
AcDbCircle
 62
7
  6
CONTINUOUS
 10
494.0980728617
 20
376.2744098084
 40
12.0
100
AcDbArc
 50
180.0
 51
217.6298348675
  0
ARC
  5
72C
100
AcDbEntity
  8
RUNDUNGEN
100
AcDbCircle
 62
7
  6
CONTINUOUS
 10
489.5980728617
 20
316.2744098084
 40
5.0
100
AcDbArc
 50
180.0
 51
270.0
  0
ARC
  5
72D
100
AcDbEntity
  8
RUNDUNGEN
100
AcDbCircle
 62
7
  6
CONTINUOUS
 10
489.5980728617
 20
376.2744098084
 40
5.0
100
AcDbArc
 50
90.0
 51
180.0
  0
ARC
  5
72E
100
AcDbEntity
  8
BEZUGSACHSEN
100
AcDbCircle
 62
7
  6
CONTINUOUS
 10
429.3070803039
 20
479.649511449
 40
31.5798903288
100
AcDbArc
 50
0.0081814506
 51
3.0523152994
  0
ARC
  5
72F
100
AcDbEntity
  8
BEZUGSACHSEN
100
AcDbCircle
 62
7
  6
CONTINUOUS
 10
429.6515795893
 20
485.0939937961
 40
31.2353910445
100
AcDbArc
 50
356.9308946179
 51
359.9917586476
  0
ARC
  5
730
100
AcDbEntity
  8
BEZUGSACHSEN
100
AcDbCircle
 62
7
  6
CONTINUOUS
 10
480.4538763166
 20
482.3763544139
 40
19.6395436322
100
AcDbArc
 50
176.9490783137
 51
183.0509216863
  0
ARC
  5
731
100
AcDbEntity
  8
BEZUGSACHSEN
100
AcDbCircle
 62
7
  6
CONTINUOUS
 10
464.0969562525
 20
488.0507140922
 40
4.0
100
AcDbArc
 50
329.0
 51
24.0
  0
ARC
  5
732
100
AcDbEntity
  8
BEZUGSACHSEN
100
AcDbCircle
 62
7
  6
CONTINUOUS
 10
466.5109123383
 20
502.2976266376
 40
4.0
100
AcDbArc
 50
154.0
 51
204.0
  0
ARC
  5
733
100
AcDbEntity
  8
BEZUGSACHSEN
100
AcDbCircle
 62
7
  6
CONTINUOUS
 10
478.948938999
 20
527.7993604817
 40
4.0
100
AcDbArc
 50
108.0
 51
154.0
  0
ARC
  5
734
100
AcDbEntity
  8
BEZUGSACHSEN
100
AcDbCircle
 62
7
  6
CONTINUOUS
 10
532.052684825
 20
449.1730730881
 40
111.1108154026
100
AcDbArc
 50
62.2552426137
 51
69.4902554266
  0
ARC
  5
735
100
AcDbEntity
  8
BEZUGSACHSEN
100
AcDbCircle
 62
7
  6
CONTINUOUS
 10
532.092184262
 20
449.1758085815
 40
111.0986012862
100
AcDbArc
 50
83.1675699128
 51
89.9969631309
  0
ARC
  5
736
100
AcDbEntity
  8
BEZUGSACHSEN
100
AcDbCircle
 62
7
  6
CONTINUOUS
 10
532.0804908676
 20
449.1772106278
 40
111.0986009372
100
AcDbArc
 50
76.3321569852
 51
83.1614962013
  0
ARC
  5
737
100
AcDbEntity
  8
BEZUGSACHSEN
100
AcDbCircle
 62
7
  6
CONTINUOUS
 10
532.0690483552
 20
449.1799965726
 40
111.0985982929
100
AcDbArc
 50
69.4969084894
 51
76.3260834626
  0
ARC
  5
738
100
AcDbEntity
  8
BEZUGSACHSEN
100
AcDbCircle
 62
7
  6
CONTINUOUS
 10
532.0548980108
 20
449.2022742162
 40
111.0839418183
100
AcDbArc
 50
55.946588235
 51
62.2492412288
  0
ARC
  5
739
100
AcDbEntity
  8
BEZUGSACHSEN
100
AcDbCircle
 62
7
  6
CONTINUOUS
 10
532.097833959
 20
449.2754630169
 40
101.2451579548
100
AcDbArc
 50
89.9998648023
 51
124.0560195622
  0
ARC
  5
73A
100
AcDbEntity
  8
BEZUGSACHSEN
100
AcDbCircle
 62
7
  6
CONTINUOUS
 10
532.0979376068
 20
449.2721988014
 40
75.0022150516
100
AcDbArc
 50
86.2058094609
 51
86.7929128112
  0
ARC
  5
73B
100
AcDbEntity
  8
BEZUGSACHSEN
100
AcDbCircle
 62
7
  6
CONTINUOUS
 10
532.0978184765
 20
449.2725783145
 40
75.0018489915
100
AcDbArc
 50
81.8023387868
 51
82.3893783753
  0
ARC
  5
73C
100
AcDbEntity
  8
BEZUGSACHSEN
100
AcDbCircle
 62
7
  6
CONTINUOUS
 10
532.0978661601
 20
449.2725765202
 40
75.00184482
100
AcDbArc
 50
83.2702400221
 51
83.8573849672
  0
ARC
  5
73D
100
AcDbEntity
  8
BEZUGSACHSEN
100
AcDbCircle
 62
7
  6
CONTINUOUS
 10
532.0976443834
 20
449.2726775353
 40
75.0017843747
100
AcDbArc
 50
75.4886848429
 51
76.4546226363
  0
ARC
  5
73E
100
AcDbEntity
  8
BEZUGSACHSEN
100
AcDbCircle
 62
7
  6
CONTINUOUS
 10
532.0979654067
 20
449.2731834717
 40
75.0012309509
100
AcDbArc
 50
84.7380098099
 51
85.6186641478
  0
ARC
  5
73F
100
AcDbEntity
  8
BEZUGSACHSEN
100
AcDbCircle
 62
7
  6
CONTINUOUS
 10
532.0980300478
 20
449.2731798701
 40
75.0012305988
100
AcDbArc
 50
87.3800581205
 51
88.3737335363
  0
ARC
  5
740
100
AcDbEntity
  8
BEZUGSACHSEN
100
AcDbCircle
 62
7
  6
CONTINUOUS
 10
532.0978696038
 20
449.2734633175
 40
75.0009679779
100
AcDbArc
 50
77.2165918074
 51
77.6935569716
  0
ARC
  5
741
100
AcDbEntity
  8
BEZUGSACHSEN
100
AcDbCircle
 62
7
  6
CONTINUOUS
 10
532.0978703517
 20
449.2734939897
 40
75.000937853
100
AcDbArc
 50
77.7796313051
 51
78.2540589873
  0
ARC
  5
742
100
AcDbEntity
  8
BEZUGSACHSEN
100
AcDbCircle
 62
7
  6
CONTINUOUS
 10
532.0980617987
 20
449.2737749599
 40
75.0006348345
100
AcDbArc
 50
89.1868752282
 51
89.9999915486
  0
ARC
  5
743
100
AcDbEntity
  8
BEZUGSACHSEN
100
AcDbCircle
 62
7
  6
CONTINUOUS
 10
532.0979673792
 20
449.2738932391
 40
75.0005270892
100
AcDbArc
 50
78.8663497142
 51
79.6012950171
  0
ARC
  5
744
100
AcDbEntity
  8
BEZUGSACHSEN
100
AcDbCircle
 62
7
  6
CONTINUOUS
 10
532.0979942581
 20
449.2738946007
 40
75.0005210326
100
AcDbArc
 50
80.1889236507
 51
80.9220300254
  0
ARC
  5
745
100
AcDbEntity
  8
BEZUGSACHSEN
100
AcDbCircle
 62
7
  6
CONTINUOUS
 10
532.0978592128
 20
449.2754435734
 40
74.9989443753
100
AcDbArc
 50
101.1336500027
 51
101.7459329431
  0
ARC
  5
746
100
AcDbEntity
  8
BEZUGSACHSEN
100
AcDbCircle
 62
7
  6
CONTINUOUS
 10
532.0980212885
 20
449.2755161792
 40
74.9988924172
100
AcDbArc
 50
92.6199514335
 51
93.2070864671
  0
ARC
  5
747
100
AcDbEntity
  8
BEZUGSACHSEN
100
AcDbCircle
 62
7
  6
CONTINUOUS
 10
532.0979891626
 20
449.2755146682
 40
74.9988919638
100
AcDbArc
 50
93.7941912618
 51
94.3813262986
  0
ARC
  5
748
100
AcDbEntity
  8
BEZUGSACHSEN
100
AcDbCircle
 62
7
  6
CONTINUOUS
 10
532.098031867
 20
449.2762695855
 40
74.9981397681
100
AcDbArc
 50
90.8131243451
 51
91.6262662798
  0
ARC
  5
749
100
AcDbEntity
  8
BEZUGSACHSEN
100
AcDbCircle
 62
7
  6
CONTINUOUS
 10
532.0975998163
 20
449.2764463664
 40
74.9979092255
100
AcDbArc
 50
102.7834085803
 51
103.5453768142
  0
ARC
  5
74A
100
AcDbEntity
  8
BEZUGSACHSEN
100
AcDbCircle
 62
7
  6
CONTINUOUS
 10
532.0976481643
 20
449.2772051585
 40
74.9971725701
100
AcDbArc
 50
98.1976610525
 51
99.0779701346
  0
ARC
  5
74B
100
AcDbEntity
  8
BEZUGSACHSEN
100
AcDbCircle
 62
7
  6
CONTINUOUS
 10
532.0977916668
 20
449.2772257894
 40
74.9971700125
100
AcDbArc
 50
95.2619900296
 51
95.8490755746
  0
ARC
  5
74C
100
AcDbEntity
  8
BEZUGSACHSEN
100
AcDbCircle
 62
7
  6
CONTINUOUS
 10
532.0977194176
 20
449.2772195328
 40
74.9971681307
100
AcDbArc
 50
96.7297598172
 51
97.6106217856
  0
ARC
  5
74D
100
AcDbEntity
  8
BEZUGSACHSEN
100
AcDbCircle
 62
7
  6
CONTINUOUS
 10
532.0975563627
 20
449.277311138
 40
74.997053055
100
AcDbArc
 50
99.8110763294
 51
100.3987050035
  0
ARC
  5
74E
100
AcDbEntity
  8
BEZUGSACHSEN
100
AcDbCircle
 62
7
  6
CONTINUOUS
 10
490.0980728617
 20
511.41135534
 40
36.0
100
AcDbArc
 50
124.0557977426
 51
179.999946333
  0
ARC
  5
74F
100
AcDbEntity
  8
BEZUGSACHSEN
100
AcDbCircle
 62
7
  6
CONTINUOUS
 10
482.7535074384
 20
513.5884355893
 40
20.2168886637
100
AcDbArc
 50
153.648612091
 51
157.0091269391
  0
ARC
  5
750
100
AcDbEntity
  8
BEZUGSACHSEN
100
AcDbCircle
 62
7
  6
CONTINUOUS
 10
494.0980728617
 20
499.523787914
 40
12.0
100
AcDbArc
 50
127.0976017452
 51
180.0000090549
  0
ARC
  5
751
100
AcDbEntity
  8
BEZUGSACHSEN
100
AcDbCircle
 62
7
  6
CONTINUOUS
 10
6037.4184110622
 20
373.8945738908
 40
5583.3208220851
100
AcDbArc
 50
179.9757198595
 51
180.1608717456
  0
ARC
  5
752
100
AcDbEntity
  8
BEZUGSACHSEN
100
AcDbCircle
 62
7
  6
CONTINUOUS
 10
570.0980728617
 20
376.2744098084
 40
12.0
100
AcDbArc
 50
322.3701651325
 51
360.0
  0
ARC
  5
753
100
AcDbEntity
  8
RUNDUNGEN
100
AcDbCircle
 62
7
  6
CONTINUOUS
 10
574.5980728617
 20
316.2744098084
 40
5.0
100
AcDbArc
 50
270.0
 51
360.0
  0
ARC
  5
754
100
AcDbEntity
  8
RUNDUNGEN
100
AcDbCircle
 62
7
  6
CONTINUOUS
 10
574.5980728617
 20
376.2744098084
 40
5.0
100
AcDbArc
 50
0.0
 51
90.0
  0
ARC
  5
755
100
AcDbEntity
  8
BEZUGSACHSEN
100
AcDbCircle
 62
7
  6
CONTINUOUS
 10
532.1434608983
 20
449.1730730881
 40
111.1108154026
100
AcDbArc
 50
110.5097445734
 51
117.7447573863
  0
ARC
  5
756
100
AcDbEntity
  8
BEZUGSACHSEN
100
AcDbCircle
 62
7
  6
CONTINUOUS
 10
532.1039614613
 20
449.1758085815
 40
111.0986012862
100
AcDbArc
 50
90.0030368691
 51
96.8324300872
  0
ARC
  5
757
100
AcDbEntity
  8
BEZUGSACHSEN
100
AcDbCircle
 62
7
  6
CONTINUOUS
 10
532.1156548558
 20
449.1772106278
 40
111.0986009372
100
AcDbArc
 50
96.8385037987
 51
103.6678430148
  0
ARC
  5
758
100
AcDbEntity
  8
BEZUGSACHSEN
100
AcDbCircle
 62
7
  6
CONTINUOUS
 10
532.1270973682
 20
449.1799965726
 40
111.0985982929
100
AcDbArc
 50
103.6739165374
 51
110.5030915106
  0
ARC
  5
759
100
AcDbEntity
  8
BEZUGSACHSEN
100
AcDbCircle
 62
7
  6
CONTINUOUS
 10
532.1412477125
 20
449.2022742162
 40
111.0839418183
100
AcDbArc
 50
117.7507587712
 51
124.053411765
  0
ARC
  5
75A
100
AcDbEntity
  8
BEZUGSACHSEN
100
AcDbCircle
 62
7
  6
CONTINUOUS
 10
532.0983117643
 20
449.2754630169
 40
101.2451579548
100
AcDbArc
 50
55.9439804378
 51
90.0001351977
  0
ARC
  5
75B
100
AcDbEntity
  8
BEZUGSACHSEN
100
AcDbCircle
 62
7
  6
CONTINUOUS
 10
532.0982081165
 20
449.2721988014
 40
75.0022150516
100
AcDbArc
 50
93.2070871888
 51
93.7941905391
  0
ARC
  5
75C
100
AcDbEntity
  8
BEZUGSACHSEN
100
AcDbCircle
 62
7
  6
CONTINUOUS
 10
532.0983272468
 20
449.2725783145
 40
75.0018489915
100
AcDbArc
 50
97.6106216247
 51
98.1976612132
  0
ARC
  5
75D
100
AcDbEntity
  8
BEZUGSACHSEN
100
AcDbCircle
 62
7
  6
CONTINUOUS
 10
532.0981803166
 20
449.2731834717
 40
75.0012309509
100
AcDbArc
 50
94.3813358522
 51
95.2619901901
  0
ARC
  5
75E
100
AcDbEntity
  8
BEZUGSACHSEN
100
AcDbCircle
 62
7
  6
CONTINUOUS
 10
532.0981156755
 20
449.2731798701
 40
75.0012305988
100
AcDbArc
 50
91.6262664637
 51
92.6199418795
  0
ARC
  5
75F
100
AcDbEntity
  8
BEZUGSACHSEN
100
AcDbCircle
 62
7
  6
CONTINUOUS
 10
532.0982761195
 20
449.2734633175
 40
75.0009679779
100
AcDbArc
 50
102.3064430284
 51
102.7834081926
  0
ARC
  5
760
100
AcDbEntity
  8
BEZUGSACHSEN
100
AcDbCircle
 62
7
  6
CONTINUOUS
 10
532.0982753716
 20
449.2734939897
 40
75.000937853
100
AcDbArc
 50
101.7459410127
 51
102.2203686949
  0
ARC
  5
761
100
AcDbEntity
  8
BEZUGSACHSEN
100
AcDbCircle
 62
7
  6
CONTINUOUS
 10
532.0980839247
 20
449.2737749599
 40
75.0006348345
100
AcDbArc
 50
90.0000084514
 51
90.8131247718
  0
ARC
  5
762
100
AcDbEntity
  8
BEZUGSACHSEN
100
AcDbCircle
 62
7
  6
CONTINUOUS
 10
532.0981783441
 20
449.2738932391
 40
75.0005270892
100
AcDbArc
 50
100.3987049829
 51
101.1336502858
  0
ARC
  5
763
100
AcDbEntity
  8
BEZUGSACHSEN
100
AcDbCircle
 62
7
  6
CONTINUOUS
 10
532.0981514652
 20
449.2738946007
 40
75.0005210326
100
AcDbArc
 50
99.0779699746
 51
99.8110763493
  0
ARC
  5
764
100
AcDbEntity
  8
BEZUGSACHSEN
100
AcDbCircle
 62
7
  6
CONTINUOUS
 10
532.0980728617
 20
449.2744098084
 40
75.0
100
AcDbArc
 50
52.9023982077
 51
75.4877891456
  0
ARC
  5
765
100
AcDbEntity
  8
RUNDUNGEN
100
AcDbCircle
 62
7
  6
CONTINUOUS
 10
532.0980728617
 20
449.2744098084
 40
75.0
100
AcDbArc
 50
52.9023982077
 51
54.2644429271
  0
ARC
  5
766
100
AcDbEntity
  8
BEZUGSACHSEN
100
AcDbCircle
 62
7
  6
CONTINUOUS
 10
532.0980728617
 20
449.2744098084
 40
75.0
100
AcDbArc
 50
103.5453773637
 51
127.0976017923
  0
ARC
  5
767
100
AcDbEntity
  8
BEZUGSACHSEN
100
AcDbCircle
 62
7
  6
CONTINUOUS
 10
532.0980693266
 20
449.2745339373
 40
74.9998761461
100
AcDbArc
 50
95.8490770199
 51
96.7297599779
  0
ARC
  5
768
100
AcDbEntity
  8
BEZUGSACHSEN
100
AcDbCircle
 62
7
  6
CONTINUOUS
 10
532.0982865105
 20
449.2754435734
 40
74.9989443753
100
AcDbArc
 50
78.2540670569
 51
78.8663499973
  0
ARC
  5
769
100
AcDbEntity
  8
BEZUGSACHSEN
100
AcDbCircle
 62
7
  6
CONTINUOUS
 10
532.0981244348
 20
449.2755161792
 40
74.9988924172
100
AcDbArc
 50
86.7929135329
 51
87.3800485665
  0
ARC
  5
76A
100
AcDbEntity
  8
BEZUGSACHSEN
100
AcDbCircle
 62
7
  6
CONTINUOUS
 10
532.0981565607
 20
449.2755146682
 40
74.9988919638
100
AcDbArc
 50
85.6186737014
 51
86.2058087382
  0
ARC
  5
76B
100
AcDbEntity
  8
BEZUGSACHSEN
100
AcDbCircle
 62
7
  6
CONTINUOUS
 10
532.0981138564
 20
449.2762695855
 40
74.9981397681
100
AcDbArc
 50
88.3737337202
 51
89.1868756549
  0
ARC
  5
76C
100
AcDbEntity
  8
BEZUGSACHSEN
100
AcDbCircle
 62
7
  6
CONTINUOUS
 10
532.098545907
 20
449.2764463664
 40
74.9979092255
100
AcDbArc
 50
76.4546231858
 51
77.2165914197
  0
ARC
  5
76D
100
AcDbEntity
  8
BEZUGSACHSEN
100
AcDbCircle
 62
7
  6
CONTINUOUS
 10
532.098497559
 20
449.2772051585
 40
74.9971725701
100
AcDbArc
 50
80.9220298654
 51
81.8023389475
  0
ARC
  5
76E
100
AcDbEntity
  8
BEZUGSACHSEN
100
AcDbCircle
 62
7
  6
CONTINUOUS
 10
532.0983540566
 20
449.2772257894
 40
74.9971700125
100
AcDbArc
 50
83.8573848068
 51
84.7380099704
  0
ARC
  5
76F
100
AcDbEntity
  8
BEZUGSACHSEN
100
AcDbCircle
 62
7
  6
CONTINUOUS
 10
532.0984263058
 20
449.2772195328
 40
74.9971681307
100
AcDbArc
 50
82.3893782144
 51
83.2702401828
  0
ARC
  5
770
100
AcDbEntity
  8
BEZUGSACHSEN
100
AcDbCircle
 62
7
  6
CONTINUOUS
 10
532.0985893606
 20
449.277311138
 40
74.997053055
100
AcDbArc
 50
79.6012949965
 51
80.1889236706
  0
ARC
  5
771
100
AcDbEntity
  8
BEZUGSACHSEN
100
AcDbCircle
 62
7
  6
CONTINUOUS
 10
574.0980728617
 20
511.41135534
 40
36.0
100
AcDbArc
 50
37.6873022613
 51
55.9442022574
  0
ARC
  5
772
100
AcDbEntity
  8
RUNDUNGEN
100
AcDbCircle
 62
7
  6
CONTINUOUS
 10
574.0980728617
 20
511.41135534
 40
36.0
100
AcDbArc
 50
0.000053667
 51
37.6873022613
  0
ARC
  5
773
100
AcDbEntity
  8
RUNDUNGEN
100
AcDbCircle
 62
7
  6
CONTINUOUS
 10
581.442638285
 20
513.5884355893
 40
20.2168886637
100
AcDbArc
 50
22.9908730609
 51
26.351387909
  0
ARC
  5
774
100
AcDbEntity
  8
RUNDUNGEN
100
AcDbCircle
 62
7
  6
CONTINUOUS
 10
570.0980728617
 20
499.523787914
 40
12.0
100
AcDbArc
 50
359.9999909451
 51
52.9023982548
  0
ARC
  5
775
100
AcDbEntity
  8
RUNDUNGEN
100
AcDbCircle
 62
7
  6
CONTINUOUS
 10
634.8890654194
 20
479.649511449
 40
31.5798903288
100
AcDbArc
 50
176.9476847006
 51
179.9918185494
  0
ARC
  5
776
100
AcDbEntity
  8
RUNDUNGEN
100
AcDbCircle
 62
7
  6
CONTINUOUS
 10
634.544566134
 20
485.0939937961
 40
31.2353910445
100
AcDbArc
 50
180.0082413524
 51
183.0691053821
  0
ARC
  5
777
100
AcDbEntity
  8
RUNDUNGEN
100
AcDbCircle
 62
7
  6
CONTINUOUS
 10
583.7422694069
 20
482.3763544139
 40
19.6395436321
100
AcDbArc
 50
356.9490783136
 51
3.0509216864
  0
ARC
  5
778
100
AcDbEntity
  8
0
100
AcDbCircle
 62
7
  6
CONTINUOUS
 10
595.9062423207
 20
455.9972269849
 40
4.5
100
AcDbArc
 50
174.2608295227
 51
5.7391704773
  0
ARC
  5
779
100
AcDbEntity
  8
0
100
AcDbCircle
 62
7
  6
CONTINUOUS
 10
595.9062423207
 20
448.3472269849
 40
4.5
100
AcDbArc
 50
174.2608295227
 51
5.7391704773
  0
ARC
  5
77A
100
AcDbEntity
  8
RUNDUNGEN
100
AcDbCircle
 62
7
  6
CONTINUOUS
 10
600.0991894708
 20
488.0507140922
 40
4.0
100
AcDbArc
 50
156.0
 51
211.0
  0
ARC
  5
77B
100
AcDbEntity
  8
0
100
AcDbCircle
 62
7
  6
CONTINUOUS
 10
595.9062423207
 20
455.9972269849
 40
3.15
100
AcDbArc
 50
282.4667502568
 51
8.2132107017
  0
ARC
  5
77C
100
AcDbEntity
  8
0
100
AcDbCircle
 62
7
  6
CONTINUOUS
 10
595.9062423207
 20
455.9972269849
 40
3.15
100
AcDbArc
 50
171.7867892983
 51
257.537869288
  0
ARC
  5
77D
100
AcDbEntity
  8
0
100
AcDbCircle
 62
7
  6
CONTINUOUS
 10
595.9062423207
 20
448.3472269849
 40
3.15
100
AcDbArc
 50
171.7867892983
 51
8.2132107017
  0
ARC
  5
77E
100
AcDbEntity
  8
RUNDUNGEN
100
AcDbCircle
 62
7
  6
CONTINUOUS
 10
597.685233385
 20
502.2976266376
 40
4.0
100
AcDbArc
 50
336.0
 51
26.0
  0
ARC
  5
77F
100
AcDbEntity
  8
RUNDUNGEN
100
AcDbCircle
 62
7
  6
CONTINUOUS
 10
585.2472067243
 20
527.7993604817
 40
4.0
100
AcDbArc
 50
26.0
 51
72.0
  0
ARC
  5
780
100
AcDbEntity
  8
0
100
AcDbCircle
 62
7
  6
CONTINUOUS
 10
282.9455130904
 20
112.3017258448
 40
48.0
100
AcDbArc
 50
223.4571977609
 51
237.2028317042
  0
ARC
  5
781
100
AcDbEntity
  8
0
100
AcDbCircle
 62
7
  6
CONTINUOUS
 10
282.9455130904
 20
112.3017258448
 40
48.0
100
AcDbArc
 50
209.7911758978
 51
220.7750053337
  0
ARC
  5
782
100
AcDbEntity
  8
0
100
AcDbCircle
 62
7
  6
CONTINUOUS
 10
282.9455130904
 20
112.3017258448
 40
48.0
100
AcDbArc
 50
185.4792995968
 51
207.5238642902
  0
ARC
  5
783
100
AcDbEntity
  8
0
100
AcDbCircle
 62
7
  6
CONTINUOUS
 10
282.9455130904
 20
112.3017258448
 40
48.0
100
AcDbArc
 50
157.4036741927
 51
185.1995644635
  0
ARC
  5
784
100
AcDbEntity
  8
0
100
AcDbCircle
 62
7
  6
CONTINUOUS
 10
282.9455130904
 20
112.3017258448
 40
48.0
100
AcDbArc
 50
144.885776789
 51
155.2311598253
  0
ARC
  5
785
100
AcDbEntity
  8
0
100
AcDbCircle
 62
7
  6
CONTINUOUS
 10
282.9455130904
 20
112.3017258448
 40
48.0
100
AcDbArc
 50
128.4139992836
 51
142.4155178518
  0
ARC
  5
786
100
AcDbEntity
  8
RUNDUNGEN
100
AcDbCircle
 62
7
  6
CONTINUOUS
 10
282.9455130904
 20
112.3017258448
 40
47.5
100
AcDbArc
 50
90.0
 51
270.0
  0
ARC
  5
787
100
AcDbEntity
  8
0
100
AcDbCircle
 62
7
  6
CONTINUOUS
 10
287.4455130904
 20
112.3017258448
 40
47.5
100
AcDbArc
 50
39.7611513688
 51
320.2388486312
  0
ARC
  5
788
100
AcDbEntity
  8
BEZUGSACHSEN
100
AcDbCircle
 62
7
  6
CONTINUOUS
 10
287.4455130904
 20
112.3017258448
 40
37.5
100
AcDbArc
 50
13.2502057156
 51
346.7497942846
  0
ARC
  5
789
100
AcDbEntity
  8
RUNDUNGEN
100
AcDbCircle
 62
7
  6
CONTINUOUS
 10
341.5154171403
 20
52.3013546758
 40
17.4663049366
100
AcDbArc
 50
205.9571591302
 51
206.9399671445
  0
ARC
  5
78A
100
AcDbEntity
  8
BEZUGSACHSEN
100
AcDbCircle
 62
7
  6
CONTINUOUS
 10
342.3756090404
 20
52.3013546758
 40
17.4663049367
100
AcDbArc
 50
333.0600328555
 51
334.0428408698
  0
ARC
  5
78B
100
AcDbEntity
  8
0
100
AcDbCircle
 62
7
  6
CONTINUOUS
 10
333.7191987108
 20
51.816922234
 40
9.6589833367
100
AcDbArc
 50
184.3536829083
 51
189.4360566733
  0
ARC
  5
78C
100
AcDbEntity
  8
BEZUGSACHSEN
100
AcDbCircle
 62
7
  6
CONTINUOUS
 10
350.17182747
 20
51.816922234
 40
9.6589833367
100
AcDbArc
 50
350.5639433267
 51
355.6463170917
  0
ARC
  5
78D
100
AcDbEntity
  8
RUNDUNGEN
100
AcDbCircle
 62
7
  6
CONTINUOUS
 10
370.4455130904
 20
69.8017258448
 40
5.0
100
AcDbArc
 50
270.0
 51
360.0
  0
ARC
  5
78E
100
AcDbEntity
  8
BEZUGSACHSEN
100
AcDbCircle
 62
7
  6
CONTINUOUS
 10
342.3756090397
 20
172.3020970134
 40
17.4663049375
100
AcDbArc
 50
25.9571591302
 51
26.9399671445
  0
ARC
  5
78F
100
AcDbEntity
  8
BEZUGSACHSEN
100
AcDbCircle
 62
7
  6
CONTINUOUS
 10
341.5154171406
 20
172.3020970137
 40
17.4663049369
100
AcDbArc
 50
153.0600328555
 51
154.0428408698
  0
ARC
  5
790
100
AcDbEntity
  8
BEZUGSACHSEN
100
AcDbCircle
 62
7
  6
CONTINUOUS
 10
350.17182747
 20
172.7865294555
 40
9.6589833367
100
AcDbArc
 50
4.3536829083
 51
9.4360566733
  0
ARC
  5
791
100
AcDbEntity
  8
BEZUGSACHSEN
100
AcDbCircle
 62
7
  6
CONTINUOUS
 10
333.7191987108
 20
172.7865294555
 40
9.6589833367
100
AcDbArc
 50
170.5639433267
 51
175.6463170917
  0
ARC
  5
792
100
AcDbEntity
  8
RUNDUNGEN
100
AcDbCircle
 62
7
  6
CONTINUOUS
 10
370.4455130904
 20
154.8017258448
 40
5.0
100
AcDbArc
 50
0.0
 51
90.0
  0
SPLINE
  5
793
100
AcDbEntity
  8
0
100
AcDbSpline
 62
7
  6
CONTINUOUS
 70
0
 71
3
 72
9
 73
5
 74
0
 42
0.0000001
 43
0.0000001
 44
0.0000000001
 40
0.0
 40
0.0
 40
0.0
 40
0.0
 40
0.216376581
 40
1.0
 40
1.0
 40
1.0
 40
1.0
 10
324.0255472932
 20
344.5326918458
 30
0.0
 10
324.0145592554
 20
344.6579189603
 30
0.0
 10
323.9690770377
 20
345.2370895773
 30
0.0
 10
323.9455131021
 20
345.8182429435
 30
0.0
 10
323.9455130609
 20
346.2735044959
 30
0.0
  0
LINE
  5
794
100
AcDbEntity
  8
BEZUGSACHSEN
100
AcDbLine
 62
7
  6
CONTINUOUS
 10
323.9455130904
 20
542.2744097904
 11
323.9455130904
 21
538.7539165717
  0
SPLINE
  5
795
100
AcDbEntity
  8
BEZUGSACHSEN
100
AcDbSpline
 62
7
  6
CONTINUOUS
 70
0
 71
3
 72
14
 73
10
 74
0
 42
0.0000001
 43
0.0000001
 44
0.0000000001
 40
0.0
 40
0.0
 40
0.0
 40
0.0
 40
0.1340958307
 40
0.2693912346
 40
0.4025551095
 40
0.5320024289
 40
0.7760981884
 40
0.8901976722
 40
1.0
 40
1.0
 40
1.0
 40
1.0
 10
356.1624763667
 20
373.9120294886
 30
0.0
 10
356.2454845179
 20
373.0134614122
 30
0.0
 10
356.3820734223
 20
371.2056314066
 30
0.0
 10
356.5866238375
 20
368.5044290559
 30
0.0
 10
356.809822826
 20
365.8359735398
 30
0.0
 10
357.1369294803
 20
362.4417692669
 30
0.0
 10
357.5259548501
 20
359.1826005246
 30
0.0
 10
357.9822435861
 20
356.0663277301
 30
0.0
 10
358.222816631
 20
354.5788780776
 30
0.0
 10
358.34316435
 20
353.8498329817
 30
0.0
  0
SPLINE
  5
796
100
AcDbEntity
  8
0
100
AcDbSpline
 62
7
  6
CONTINUOUS
 70
0
 71
3
 72
14
 73
10
 74
0
 42
0.0000001
 43
0.0000001
 44
0.0000000001
 40
0.0
 40
0.0
 40
0.0
 40
0.0
 40
0.1340954799
 40
0.2693905811
 40
0.4025542687
 40
0.5320015472
 40
0.7760976843
 40
0.8901974915
 40
1.0
 40
1.0
 40
1.0
 40
1.0
 10
327.7285494271
 20
373.9120252999
 30
0.0
 10
327.6455429104
 20
373.0134742827
 30
0.0
 10
327.5089561791
 20
371.2056782985
 30
0.0
 10
327.3044098133
 20
368.5045258008
 30
0.0
 10
327.0812160258
 20
365.8361174412
 30
0.0
 10
326.7541176467
 20
362.4419674621
 30
0.0
 10
326.3651032218
 20
359.1828471024
 30
0.0
 10
325.9088273875
 20
356.0666185452
 30
0.0
 10
325.668260349
 20
354.5791894729
 30
0.0
 10
325.547914991
 20
353.8501550177
 30
0.0
  0
SPLINE
  5
797
100
AcDbEntity
  8
BEZUGSACHSEN
100
AcDbSpline
 62
7
  6
CONTINUOUS
 70
0
 71
3
 72
9
 73
5
 74
0
 42
0.0000001
 43
0.0000001
 44
0.0000000001
 40
0.0
 40
0.0
 40
0.0
 40
0.0
 40
0.216376581
 40
1.0
 40
1.0
 40
1.0
 40
1.0
 10
359.8654788876
 20
344.5326918458
 30
0.0
 10
359.8764669254
 20
344.6579189603
 30
0.0
 10
359.9219491431
 20
345.2370895773
 30
0.0
 10
359.9455130787
 20
345.8182429435
 30
0.0
 10
359.9455131199
 20
346.2735044959
 30
0.0
  0
LINE
  5
798
100
AcDbEntity
  8
BEZUGSACHSEN
100
AcDbLine
 62
7
  6
CONTINUOUS
 10
359.9455130904
 20
542.2744097904
 11
359.9455130904
 21
538.7539165717
  0
SPLINE
  5
799
100
AcDbEntity
  8
BEZUGSACHSEN
100
AcDbSpline
 62
7
  6
CONTINUOUS
 70
0
 71
3
 72
9
 73
5
 74
0
 42
0.0000001
 43
0.0000001
 44
0.0000000001
 40
0.0
 40
0.0
 40
0.0
 40
0.0
 40
0.2597410427
 40
1.0
 40
1.0
 40
1.0
 40
1.0
 10
341.9455039094
 20
328.2743994592
 30
0.0
 10
341.9462292883
 20
328.2744283552
 30
0.0
 10
341.9441876152
 20
328.2787872022
 30
0.0
 10
341.9470823832
 20
328.281435879
 30
0.0
 10
341.9455131008
 20
328.2827841939
 30
0.0
  0
SPLINE
  5
79A
100
AcDbEntity
  8
0
100
AcDbSpline
 62
7
  6
CONTINUOUS
 70
0
 71
3
 72
9
 73
5
 74
0
 42
0.0000001
 43
0.0000001
 44
0.0000000001
 40
0.0
 40
0.0
 40
0.0
 40
0.0
 40
0.3246148142
 40
1.0
 40
1.0
 40
1.0
 40
1.0
 10
324.8186711982
 20
345.751688374
 30
0.0
 10
324.8186711982
 20
345.5263380796
 30
0.0
 10
324.8019282866
 20
344.832233117
 30
0.0
 10
324.7332523099
 20
344.1393663319
 30
0.0
 10
324.6563736957
 20
343.6768541732
 30
0.0
  0
SPLINE
  5
79B
100
AcDbEntity
  8
0
100
AcDbSpline
 62
7
  6
CONTINUOUS
 70
0
 71
3
 72
21
 73
17
 74
0
 42
0.0000001
 43
0.0000001
 44
0.0000000001
 40
0.0
 40
0.0
 40
0.0
 40
0.0
 40
0.1778748975
 40
0.2419672939
 40
0.2914035074
 40
0.3277557711
 40
0.3533826007
 40
0.3731946834
 40
0.395413868
 40
0.4261139505
 40
0.4678307456
 40
0.5216831047
 40
0.588465127
 40
0.668858437
 40
0.763649948
 40
1.0
 40
1.0
 40
1.0
 40
1.0
 10
324.6563736957
 20
343.6768541732
 30
0.0
 10
324.636768931
 20
343.5589082843
 30
0.0
 10
324.6058367885
 20
343.3987644104
 30
0.0
 10
324.5490198199
 20
343.2112288983
 30
0.0
 10
324.5107994489
 20
343.1175940156
 30
0.0
 10
324.4722812627
 20
343.0533104557
 30
0.0
 10
324.4319361072
 20
343.013307413
 30
0.0
 10
324.3834397697
 20
343.0051104791
 30
0.0
 10
324.3400023317
 20
343.0334236709
 30
0.0
 10
324.3021274559
 20
343.0847320264
 30
0.0
 10
324.2643422978
 20
343.1611852781
 30
0.0
 10
324.2271943891
 20
343.2638875659
 30
0.0
 10
324.1905500886
 20
343.3940546791
 30
0.0
 10
324.1547376785
 20
343.552759893
 30
0.0
 10
324.1047757792
 20
343.8248922717
 30
0.0
 10
324.0757208312
 20
344.0457345915
 30
0.0
 10
324.0580321193
 20
344.2036167927
 30
0.0
  0
SPLINE
  5
79C
100
AcDbEntity
  8
BEZUGSACHSEN
100
AcDbSpline
 62
7
  6
CONTINUOUS
 70
0
 71
3
 72
16
 73
12
 74
0
 42
0.0000001
 43
0.0000001
 44
0.0000000001
 40
0.0
 40
0.0
 40
0.0
 40
0.0
 40
0.0176345545
 40
0.0445377058
 40
0.082321031
 40
0.1296087574
 40
0.2455038443
 40
0.3802530361
 40
0.5264888996
 40
0.6800166028
 40
1.0
 40
1.0
 40
1.0
 40
1.0
 10
355.7327390003
 20
376.2744780671
 30
0.0
 10
355.7470354142
 20
376.2744780759
 30
0.0
 10
355.7809666302
 20
376.2531280048
 30
0.0
 10
355.8149015064
 20
376.1956488539
 30
0.0
 10
355.8495269977
 20
376.1113485878
 30
0.0
 10
355.8958150483
 20
375.9550493896
 30
0.0
 10
355.9454449761
 20
375.7183654873
 30
0.0
 10
355.996844594
 20
375.4007422044
 30
0.0
 10
356.0434392628
 20
375.0515301237
 30
0.0
 10
356.1011999292
 20
374.5524213543
 30
0.0
 10
356.1386139401
 20
374.1703416484
 30
0.0
 10
356.1624763667
 20
373.9120294886
 30
0.0
  0
SPLINE
  5
79D
100
AcDbEntity
  8
BEZUGSACHSEN
100
AcDbSpline
 62
7
  6
CONTINUOUS
 70
0
 71
3
 72
9
 73
5
 74
0
 42
0.0000001
 43
0.0000001
 44
0.0000000001
 40
0.0
 40
0.0
 40
0.0
 40
0.0
 40
0.3246148142
 40
1.0
 40
1.0
 40
1.0
 40
1.0
 10
359.0723549826
 20
345.751688374
 30
0.0
 10
359.0723549826
 20
345.5263380796
 30
0.0
 10
359.0890978943
 20
344.832233117
 30
0.0
 10
359.1577738709
 20
344.1393663319
 30
0.0
 10
359.2346524852
 20
343.6768541732
 30
0.0
  0
SPLINE
  5
79E
100
AcDbEntity
  8
BEZUGSACHSEN
100
AcDbSpline
 62
7
  6
CONTINUOUS
 70
0
 71
3
 72
21
 73
17
 74
0
 42
0.0000001
 43
0.0000001
 44
0.0000000001
 40
0.0
 40
0.0
 40
0.0
 40
0.0
 40
0.1778750531
 40
0.2419675226
 40
0.2914038047
 40
0.3277561311
 40
0.3533830117
 40
0.3731951175
 40
0.3954142885
 40
0.426114338
 40
0.4678310924
 40
0.5216834061
 40
0.5884653794
 40
0.668858636
 40
0.7636500884
 40
1.0
 40
1.0
 40
1.0
 40
1.0
 10
359.2346524852
 20
343.6768541732
 30
0.0
 10
359.2542572395
 20
343.5589083461
 30
0.0
 10
359.2851893669
 20
343.3987645461
 30
0.0
 10
359.3420062936
 20
343.2112290983
 30
0.0
 10
359.3802266385
 20
343.1175942117
 30
0.0
 10
359.4187448038
 20
343.0533106146
 30
0.0
 10
359.4590899069
 20
343.0133075236
 30
0.0
 10
359.5075861865
 20
343.0051104313
 30
0.0
 10
359.5510236382
 20
343.0334234562
 30
0.0
 10
359.5888984959
 20
343.0847316498
 30
0.0
 10
359.6266836339
 20
343.1611846878
 30
0.0
 10
359.6638315224
 20
343.2638867253
 30
0.0
 10
359.700475805
 20
343.3940535437
 30
0.0
 10
359.7362882004
 20
343.5527584168
 30
0.0
 10
359.7862500846
 20
343.8248902322
 30
0.0
 10
359.8153050315
 20
344.0457321031
 30
0.0
 10
359.832993747
 20
344.2036139852
 30
0.0
  0
SPLINE
  5
79F
100
AcDbEntity
  8
0
100
AcDbSpline
 62
7
  6
CONTINUOUS
 70
0
 71
3
 72
11
 73
7
 74
0
 42
0.0000001
 43
0.0000001
 44
0.0000000001
 40
0.0
 40
0.0
 40
0.0
 40
0.0
 40
0.4625662032
 40
0.7105810668
 40
0.8480761792
 40
1.0
 40
1.0
 40
1.0
 40
1.0
 10
325.547914991
 20
353.8501550177
 30
0.0
 10
325.4036779399
 20
352.9763882045
 30
0.0
 10
325.1746562336
 20
351.6354107665
 30
0.0
 10
324.9448494531
 20
350.0276125555
 30
0.0
 10
324.8434104289
 20
349.0035582305
 30
0.0
 10
324.8177843657
 20
348.4493808157
 30
0.0
 10
324.8186711982
 20
348.1585211334
 30
0.0
  0
SPLINE
  5
7A0
100
AcDbEntity
  8
0
100
AcDbSpline
 62
7
  6
CONTINUOUS
 70
0
 71
3
 72
9
 73
5
 74
0
 42
0.0000001
 43
0.0000001
 44
0.0000000001
 40
0.0
 40
0.0
 40
0.0
 40
0.0
 40
0.2501771385
 40
1.0
 40
1.0
 40
1.0
 40
1.0
 10
328.648252841
 20
479.6540208442
 30
0.0
 10
328.5622344843
 20
480.0886539262
 30
0.0
 10
328.2297589235
 20
481.8282018214
 30
0.0
 10
327.9340597394
 20
483.5746275521
 30
0.0
 10
327.7259791937
 20
484.8861586659
 30
0.0
  0
SPLINE
  5
7A1
100
AcDbEntity
  8
RUNDUNGEN
100
AcDbSpline
 62
7
  6
CONTINUOUS
 70
0
 71
3
 72
9
 73
5
 74
0
 42
0.0000001
 43
0.0000001
 44
0.0000000001
 40
0.0
 40
0.0
 40
0.0
 40
0.0
 40
0.5016247816
 40
1.0
 40
1.0
 40
1.0
 40
1.0
 10
327.0357492324
 20
500.6706800653
 30
0.0
 10
327.078832988
 20
501.2402351558
 30
0.0
 10
327.0536675036
 20
502.3864485516
 30
0.0
 10
326.8199770424
 20
503.5076394399
 30
0.0
 10
326.6566540883
 20
504.0511112248
 30
0.0
  0
SPLINE
  5
7A2
100
AcDbEntity
  8
RUNDUNGEN
100
AcDbSpline
 62
7
  6
CONTINUOUS
 70
0
 71
3
 72
9
 73
5
 74
0
 42
0.0000001
 43
0.0000001
 44
0.0000000001
 40
0.0
 40
0.0
 40
0.0
 40
0.0
 40
0.5000558097
 40
1.0
 40
1.0
 40
1.0
 40
1.0
 10
327.171723118
 20
489.6776606645
 30
0.0
 10
327.0000593176
 20
491.5037388905
 30
0.0
 10
326.7971407795
 20
495.1700799343
 30
0.0
 10
326.8974334279
 20
498.8421841653
 30
0.0
 10
327.0357492324
 20
500.6706800653
 30
0.0
  0
SPLINE
  5
7A3
100
AcDbEntity
  8
0
100
AcDbSpline
 62
7
  6
CONTINUOUS
 70
0
 71
3
 72
10
 73
6
 74
0
 42
0.0000001
 43
0.0000001
 44
0.0000000001
 40
0.0
 40
0.0
 40
0.0
 40
0.0
 40
0.5001966855
 40
0.7501282791
 40
1.0
 40
1.0
 40
1.0
 40
1.0
 10
325.2173879734
 20
510.0217998391
 30
0.0
 10
324.9901154066
 20
511.2709225686
 30
0.0
 10
324.7411635108
 20
513.1603764447
 30
0.0
 10
324.4646612216
 20
515.6832528567
 30
0.0
 10
324.3399793172
 20
516.9458368118
 30
0.0
 10
324.2823724045
 20
517.5774550146
 30
0.0
  0
LINE
  5
7A4
100
AcDbEntity
  8
0
100
AcDbLine
 62
7
  6
CONTINUOUS
 10
324.2823724045
 20
517.5774550146
 11
324.2685417996
 21
517.7301705594
  0
SPLINE
  5
7A5
100
AcDbEntity
  8
BEZUGSACHSEN
100
AcDbSpline
 62
7
  6
CONTINUOUS
 70
0
 71
3
 72
9
 73
5
 74
0
 42
0.0000001
 43
0.0000001
 44
0.0000000001
 40
0.0
 40
0.0
 40
0.0
 40
0.0
 40
0.2501771385
 40
1.0
 40
1.0
 40
1.0
 40
1.0
 10
355.2427733398
 20
479.6540208442
 30
0.0
 10
355.3287916965
 20
480.0886539262
 30
0.0
 10
355.6612672573
 20
481.8282018214
 30
0.0
 10
355.9569664414
 20
483.5746275521
 30
0.0
 10
356.1650469871
 20
484.8861586659
 30
0.0
  0
SPLINE
  5
7A6
100
AcDbEntity
  8
BEZUGSACHSEN
100
AcDbSpline
 62
7
  6
CONTINUOUS
 70
0
 71
3
 72
9
 73
5
 74
0
 42
0.0000001
 43
0.0000001
 44
0.0000000001
 40
0.0
 40
0.0
 40
0.0
 40
0.0
 40
0.5016247816
 40
1.0
 40
1.0
 40
1.0
 40
1.0
 10
356.8552769484
 20
500.6706800653
 30
0.0
 10
356.8121931928
 20
501.2402351558
 30
0.0
 10
356.8373586772
 20
502.3864485516
 30
0.0
 10
357.0710491385
 20
503.5076394399
 30
0.0
 10
357.2343720925
 20
504.0511112248
 30
0.0
  0
SPLINE
  5
7A7
100
AcDbEntity
  8
BEZUGSACHSEN
100
AcDbSpline
 62
7
  6
CONTINUOUS
 70
0
 71
3
 72
9
 73
5
 74
0
 42
0.0000001
 43
0.0000001
 44
0.0000000001
 40
0.0
 40
0.0
 40
0.0
 40
0.0
 40
0.5000558097
 40
1.0
 40
1.0
 40
1.0
 40
1.0
 10
356.7193030628
 20
489.6776606645
 30
0.0
 10
356.8909668632
 20
491.5037388905
 30
0.0
 10
357.0938854013
 20
495.1700799343
 30
0.0
 10
356.9935927529
 20
498.8421841653
 30
0.0
 10
356.8552769484
 20
500.6706800653
 30
0.0
  0
SPLINE
  5
7A8
100
AcDbEntity
  8
BEZUGSACHSEN
100
AcDbSpline
 62
7
  6
CONTINUOUS
 70
0
 71
3
 72
10
 73
6
 74
0
 42
0.0000001
 43
0.0000001
 44
0.0000000001
 40
0.0
 40
0.0
 40
0.0
 40
0.0
 40
0.5001966855
 40
0.7501282791
 40
1.0
 40
1.0
 40
1.0
 40
1.0
 10
358.6736382074
 20
510.0217998391
 30
0.0
 10
358.9009107742
 20
511.2709225686
 30
0.0
 10
359.14986267
 20
513.1603764447
 30
0.0
 10
359.4263649592
 20
515.6832528567
 30
0.0
 10
359.5510468636
 20
516.9458368118
 30
0.0
 10
359.6086537763
 20
517.5774550146
 30
0.0
  0
LINE
  5
7A9
100
AcDbEntity
  8
BEZUGSACHSEN
100
AcDbLine
 62
7
  6
CONTINUOUS
 10
359.6086537763
 20
517.5774550146
 11
359.6224843812
 21
517.7301705594
  0
SPLINE
  5
7AA
100
AcDbEntity
  8
BEZUGSACHSEN
100
AcDbSpline
 62
7
  6
CONTINUOUS
 70
0
 71
3
 72
9
 73
5
 74
0
 42
0.0000001
 43
0.0000001
 44
0.0000000001
 40
0.0
 40
0.0
 40
0.0
 40
0.0
 40
0.5600976641
 40
1.0
 40
1.0
 40
1.0
 40
1.0
 10
359.1470074716
 20
529.5528450689
 30
0.0
 10
359.0977480775
 20
529.8481822952
 30
0.0
 10
359.0185716063
 20
530.3767963099
 30
0.0
 10
358.9762798898
 20
530.9112365924
 30
0.0
 10
358.9784698765
 20
531.1463894116
 30
0.0
  0
SPLINE
  5
7AB
100
AcDbEntity
  8
BEZUGSACHSEN
100
AcDbSpline
 62
7
  6
CONTINUOUS
 70
0
 71
3
 72
9
 73
5
 74
0
 42
0.0000001
 43
0.0000001
 44
0.0000000001
 40
0.0
 40
0.0
 40
0.0
 40
0.0
 40
0.7497895079
 40
1.0
 40
1.0
 40
1.0
 40
1.0
 10
359.6771787653
 20
525.3250408743
 30
0.0
 10
359.5851311916
 20
526.3861457306
 30
0.0
 10
359.4242321791
 20
527.7986222054
 30
0.0
 10
359.2054817582
 20
529.2022594817
 30
0.0
 10
359.1470074716
 20
529.5528450689
 30
0.0
  0
SPLINE
  5
7AC
100
AcDbEntity
  8
BEZUGSACHSEN
100
AcDbSpline
 62
7
  6
CONTINUOUS
 70
0
 71
3
 72
9
 73
5
 74
0
 42
0.0000001
 43
0.0000001
 44
0.0000000001
 40
0.0
 40
0.0
 40
0.0
 40
0.0
 40
0.5660401345
 40
1.0
 40
1.0
 40
1.0
 40
1.0
 10
358.9784698765
 20
531.1463894116
 30
0.0
 10
358.9791972465
 20
531.2333526529
 30
0.0
 10
358.9858920709
 20
531.3869665527
 30
0.0
 10
359.0105734274
 20
531.5394965354
 30
0.0
 10
359.0289534696
 20
531.6035865469
 30
0.0
  0
SPLINE
  5
7AD
100
AcDbEntity
  8
BEZUGSACHSEN
100
AcDbSpline
 62
7
  6
CONTINUOUS
 70
0
 71
3
 72
15
 73
11
 74
0
 42
0.0000001
 43
0.0000001
 44
0.0000000001
 40
0.0
 40
0.0
 40
0.0
 40
0.0
 40
0.1261259629
 40
0.2503976561
 40
0.3741875937
 40
0.4978869883
 40
0.6216238194
 40
0.7456429605
 40
0.8708492233
 40
1.0
 40
1.0
 40
1.0
 40
1.0
 10
359.0289534696
 20
531.6035865469
 30
0.0
 10
359.236151115
 20
532.3260712566
 30
0.0
 10
359.5292610124
 20
533.7948318351
 30
0.0
 10
359.7380897663
 20
536.0164282267
 30
0.0
 10
359.8187846725
 20
538.2310739048
 30
0.0
 10
359.8288899158
 20
540.4434842067
 30
0.0
 10
359.7770186301
 20
542.6568071489
 30
0.0
 10
359.6226822205
 20
544.8754947008
 30
0.0
 10
359.2757713718
 20
547.107262959
 30
0.0
 10
358.8279390058
 20
548.5653580617
 30
0.0
 10
358.5286370054
 20
549.2744098084
 30
0.0
  0
SPLINE
  5
7AE
100
AcDbEntity
  8
BEZUGSACHSEN
100
AcDbSpline
 62
7
  6
CONTINUOUS
 70
0
 71
3
 72
9
 73
5
 74
0
 42
0.0000001
 43
0.0000001
 44
0.0000000001
 40
0.0
 40
0.0
 40
0.0
 40
0.0
 40
0.5006053262
 40
1.0
 40
1.0
 40
1.0
 40
1.0
 10
357.2343720925
 20
504.0511112248
 30
0.0
 10
357.529439036
 20
505.0329729562
 30
0.0
 10
358.0616075825
 20
507.0117571223
 30
0.0
 10
358.4907099534
 20
509.0155313022
 30
0.0
 10
358.6736382074
 20
510.0217998391
 30
0.0
  0
SPLINE
  5
7AF
100
AcDbEntity
  8
RUNDUNGEN
100
AcDbSpline
 62
7
  6
CONTINUOUS
 70
0
 71
3
 72
9
 73
5
 74
0
 42
0.0000001
 43
0.0000001
 44
0.0000000001
 40
0.0
 40
0.0
 40
0.0
 40
0.0
 40
0.5006053262
 40
1.0
 40
1.0
 40
1.0
 40
1.0
 10
326.6566540883
 20
504.0511112248
 30
0.0
 10
326.3615871449
 20
505.0329729562
 30
0.0
 10
325.8294185983
 20
507.0117571223
 30
0.0
 10
325.4003162274
 20
509.0155313022
 30
0.0
 10
325.2173879734
 20
510.0217998391
 30
0.0
  0
SPLINE
  5
7B0
100
AcDbEntity
  8
RUNDUNGEN
100
AcDbSpline
 62
7
  6
CONTINUOUS
 70
0
 71
3
 72
9
 73
5
 74
0
 42
0.0000001
 43
0.0000001
 44
0.0000000001
 40
0.0
 40
0.0
 40
0.0
 40
0.0
 40
0.5600976641
 40
1.0
 40
1.0
 40
1.0
 40
1.0
 10
324.7440187092
 20
529.5528450689
 30
0.0
 10
324.7932781034
 20
529.8481822952
 30
0.0
 10
324.8724545745
 20
530.3767963099
 30
0.0
 10
324.914746291
 20
530.9112365924
 30
0.0
 10
324.9125563043
 20
531.1463894116
 30
0.0
  0
LINE
  5
7B1
100
AcDbEntity
  8
BEZUGSACHSEN
100
AcDbLine
 62
7
  6
CONTINUOUS
 10
356.5598146499
 20
488.1190366036
 11
356.6049109887
 21
488.5484931214
  0
LINE
  5
7B2
100
AcDbEntity
  8
BEZUGSACHSEN
100
AcDbLine
 62
7
  6
CONTINUOUS
 10
356.6049109887
 20
488.5484931214
 11
356.641436308
 21
488.8985510455
  0
LINE
  5
7B3
100
AcDbEntity
  8
BEZUGSACHSEN
100
AcDbLine
 62
7
  6
CONTINUOUS
 10
356.641436308
 20
488.8985510455
 11
356.642756666
 21
488.9112906796
  0
SPLINE
  5
7B4
100
AcDbEntity
  8
BEZUGSACHSEN
100
AcDbSpline
 62
7
  6
CONTINUOUS
 70
0
 71
3
 72
9
 73
5
 74
0
 42
0.0000001
 43
0.0000001
 44
0.0000000001
 40
0.0
 40
0.0
 40
0.0
 40
0.0
 40
0.2558581153
 40
1.0
 40
1.0
 40
1.0
 40
1.0
 10
356.642756666
 20
488.9112906796
 30
0.0
 10
356.6495259865
 20
488.9766269283
 30
0.0
 10
356.6758420209
 20
489.2320023493
 30
0.0
 10
356.701422628
 20
489.4874570647
 30
0.0
 10
356.7193030628
 20
489.6776606645
 30
0.0
  0
LINE
  5
7B5
100
AcDbEntity
  8
BEZUGSACHSEN
100
AcDbLine
 62
7
  6
CONTINUOUS
 10
356.5297783208
 20
487.8334263724
 11
356.5429797863
 21
487.9589186558
  0
LINE
  5
7B6
100
AcDbEntity
  8
BEZUGSACHSEN
100
AcDbLine
 62
7
  6
CONTINUOUS
 10
356.5429797863
 20
487.9589186558
 11
356.5472148118
 21
487.9992207378
  0
LINE
  5
7B7
100
AcDbEntity
  8
BEZUGSACHSEN
100
AcDbLine
 62
7
  6
CONTINUOUS
 10
356.5472148118
 20
487.9992207378
 11
356.5492491473
 21
488.0185748668
  0
LINE
  5
7B8
100
AcDbEntity
  8
BEZUGSACHSEN
100
AcDbLine
 62
7
  6
CONTINUOUS
 10
356.5492491473
 20
488.0185748668
 11
356.5598146499
 21
488.1190366036
  0
SPLINE
  5
7B9
100
AcDbEntity
  8
BEZUGSACHSEN
100
AcDbSpline
 62
7
  6
CONTINUOUS
 70
0
 71
3
 72
9
 73
5
 74
0
 42
0.0000001
 43
0.0000001
 44
0.0000000001
 40
0.0
 40
0.0
 40
0.0
 40
0.0
 40
0.240212806
 40
1.0
 40
1.0
 40
1.0
 40
1.0
 10
356.3243235845
 20
485.9905617926
 30
0.0
 10
356.33270321
 20
486.0551054032
 30
0.0
 10
356.3664992793
 20
486.3239404715
 30
0.0
 10
356.3969816625
 20
486.5931797514
 30
0.0
 10
356.4194704913
 20
486.7978108971
 30
0.0
  0
SPLINE
  5
7BA
100
AcDbEntity
  8
RUNDUNGEN
100
AcDbSpline
 62
7
  6
CONTINUOUS
 70
0
 71
3
 72
9
 73
5
 74
0
 42
0.0000001
 43
0.0000001
 44
0.0000000001
 40
0.0
 40
0.0
 40
0.0
 40
0.0
 40
0.7497895079
 40
1.0
 40
1.0
 40
1.0
 40
1.0
 10
324.2138474156
 20
525.3250408743
 30
0.0
 10
324.3058949892
 20
526.3861457306
 30
0.0
 10
324.4667940017
 20
527.7986222054
 30
0.0
 10
324.6855444226
 20
529.2022594817
 30
0.0
 10
324.7440187092
 20
529.5528450689
 30
0.0
  0
SPLINE
  5
7BB
100
AcDbEntity
  8
RUNDUNGEN
100
AcDbSpline
 62
7
  6
CONTINUOUS
 70
0
 71
3
 72
9
 73
5
 74
0
 42
0.0000001
 43
0.0000001
 44
0.0000000001
 40
0.0
 40
0.0
 40
0.0
 40
0.0
 40
0.240212806
 40
1.0
 40
1.0
 40
1.0
 40
1.0
 10
327.5667025964
 20
485.9905617926
 30
0.0
 10
327.5583229708
 20
486.0551054032
 30
0.0
 10
327.5245269015
 20
486.3239404715
 30
0.0
 10
327.4940445183
 20
486.5931797514
 30
0.0
 10
327.4715556895
 20
486.7978108971
 30
0.0
  0
LINE
  5
7BC
100
AcDbEntity
  8
RUNDUNGEN
100
AcDbLine
 62
7
  6
CONTINUOUS
 10
327.36124786
 20
487.8334263724
 11
327.3480463945
 21
487.9589186558
  0
LINE
  5
7BD
100
AcDbEntity
  8
RUNDUNGEN
100
AcDbLine
 62
7
  6
CONTINUOUS
 10
327.3480463945
 20
487.9589186558
 11
327.3438113691
 21
487.9992207378
  0
LINE
  5
7BE
100
AcDbEntity
  8
RUNDUNGEN
100
AcDbLine
 62
7
  6
CONTINUOUS
 10
327.3438113691
 20
487.9992207378
 11
327.3417770335
 21
488.0185748668
  0
LINE
  5
7BF
100
AcDbEntity
  8
RUNDUNGEN
100
AcDbLine
 62
7
  6
CONTINUOUS
 10
327.3417770335
 20
488.0185748668
 11
327.3312115309
 21
488.1190366036
  0
LINE
  5
7C0
100
AcDbEntity
  8
RUNDUNGEN
100
AcDbLine
 62
7
  6
CONTINUOUS
 10
327.3312115309
 20
488.1190366036
 11
327.2861151922
 21
488.5484931214
  0
LINE
  5
7C1
100
AcDbEntity
  8
RUNDUNGEN
100
AcDbLine
 62
7
  6
CONTINUOUS
 10
327.2861151922
 20
488.5484931214
 11
327.2495898728
 21
488.8985510455
  0
LINE
  5
7C2
100
AcDbEntity
  8
RUNDUNGEN
100
AcDbLine
 62
7
  6
CONTINUOUS
 10
327.2495898728
 20
488.8985510455
 11
327.2482695148
 21
488.9112906796
  0
SPLINE
  5
7C3
100
AcDbEntity
  8
RUNDUNGEN
100
AcDbSpline
 62
7
  6
CONTINUOUS
 70
0
 71
3
 72
9
 73
5
 74
0
 42
0.0000001
 43
0.0000001
 44
0.0000000001
 40
0.0
 40
0.0
 40
0.0
 40
0.0
 40
0.2558581153
 40
1.0
 40
1.0
 40
1.0
 40
1.0
 10
327.2482695148
 20
488.9112906796
 30
0.0
 10
327.2415001943
 20
488.9766269283
 30
0.0
 10
327.2151841599
 20
489.2320023493
 30
0.0
 10
327.1896035529
 20
489.4874570647
 30
0.0
 10
327.171723118
 20
489.6776606645
 30
0.0
  0
SPLINE
  5
7C4
100
AcDbEntity
  8
BEZUGSACHSEN
100
AcDbSpline
 62
7
  6
CONTINUOUS
 70
0
 71
3
 72
15
 73
11
 74
0
 42
0.0000001
 43
0.0000001
 44
0.0000000001
 40
0.0
 40
0.0
 40
0.0
 40
0.0
 40
0.1261259629
 40
0.2503976561
 40
0.3741875937
 40
0.4978869883
 40
0.6216238194
 40
0.7456429605
 40
0.8708492233
 40
1.0
 40
1.0
 40
1.0
 40
1.0
 10
324.8620727112
 20
531.6035865469
 30
0.0
 10
324.6548750658
 20
532.3260712566
 30
0.0
 10
324.3617651684
 20
533.7948318351
 30
0.0
 10
324.1529364145
 20
536.0164282267
 30
0.0
 10
324.0722415083
 20
538.2310739048
 30
0.0
 10
324.0621362651
 20
540.4434842067
 30
0.0
 10
324.1140075507
 20
542.6568071489
 30
0.0
 10
324.2683439603
 20
544.8754947008
 30
0.0
 10
324.6152548091
 20
547.107262959
 30
0.0
 10
325.063087175
 20
548.5653580617
 30
0.0
 10
325.3623891754
 20
549.2744098084
 30
0.0
  0
SPLINE
  5
7C5
100
AcDbEntity
  8
RUNDUNGEN
100
AcDbSpline
 62
7
  6
CONTINUOUS
 70
0
 71
3
 72
9
 73
5
 74
0
 42
0.0000001
 43
0.0000001
 44
0.0000000001
 40
0.0
 40
0.0
 40
0.0
 40
0.0
 40
0.5660401345
 40
1.0
 40
1.0
 40
1.0
 40
1.0
 10
324.9125563043
 20
531.1463894116
 30
0.0
 10
324.9118289343
 20
531.2333526529
 30
0.0
 10
324.9051341099
 20
531.3869665527
 30
0.0
 10
324.8804527534
 20
531.5394965354
 30
0.0
 10
324.8620727112
 20
531.6035865469
 30
0.0
  0
SPLINE
  5
7C6
100
AcDbEntity
  8
0
100
AcDbSpline
 62
7
  6
CONTINUOUS
 70
0
 71
3
 72
16
 73
12
 74
0
 42
0.0000001
 43
0.0000001
 44
0.0000000001
 40
0.0
 40
0.0
 40
0.0
 40
0.0
 40
0.0176345515
 40
0.0445377135
 40
0.0823210579
 40
0.1296088047
 40
0.2455039237
 40
0.3802531281
 40
0.5264889863
 40
0.6800166701
 40
1.0
 40
1.0
 40
1.0
 40
1.0
 10
328.1582871806
 20
376.2744780671
 30
0.0
 10
328.1439907444
 20
376.2744780759
 30
0.0
 10
328.1100594742
 20
376.2531279351
 30
0.0
 10
328.0761245705
 20
376.1956486472
 30
0.0
 10
328.0414990391
 20
376.1113481819
 30
0.0
 10
327.9952109466
 20
375.9550486428
 30
0.0
 10
327.9455809769
 20
375.7183642686
 30
0.0
 10
327.8941813201
 20
375.4007403965
 30
0.0
 10
327.8475866181
 20
375.0515277161
 30
0.0
 10
327.7898259128
 20
374.5524181523
 30
0.0
 10
327.7524118733
 20
374.1703378533
 30
0.0
 10
327.7285494271
 20
373.9120252999
 30
0.0
  0
SPLINE
  5
7C7
100
AcDbEntity
  8
BEZUGSACHSEN
100
AcDbSpline
 62
7
  6
CONTINUOUS
 70
0
 71
3
 72
11
 73
7
 74
0
 42
0.0000001
 43
0.0000001
 44
0.0000000001
 40
0.0
 40
0.0
 40
0.0
 40
0.0
 40
0.4625650371
 40
0.7105808582
 40
0.8480764734
 40
1.0
 40
1.0
 40
1.0
 40
1.0
 10
358.34316435
 20
353.8498329817
 30
0.0
 10
358.4873935467
 20
352.9761181377
 30
0.0
 10
358.7164009557
 20
351.6352170545
 30
0.0
 10
358.9461890949
 20
350.0275088172
 30
0.0
 10
359.0476186428
 20
349.0035100586
 30
0.0
 10
359.073241763
 20
348.4493637249
 30
0.0
 10
359.0723549826
 20
348.1585211334
 30
0.0
  0
SPLINE
  5
7C8
100
AcDbEntity
  8
BEZUGSACHSEN
100
AcDbSpline
 62
7
  6
CONTINUOUS
 70
0
 71
3
 72
11
 73
7
 74
0
 42
0.0000001
 43
0.0000001
 44
0.0000000001
 40
0.0
 40
0.0
 40
0.0
 40
0.0
 40
0.2616462713
 40
0.5145010125
 40
0.7595982368
 40
1.0
 40
1.0
 40
1.0
 40
1.0
 10
244.1442429012
 20
416.425044903
 30
0.0
 10
245.0096146015
 20
416.9246674871
 30
0.0
 10
246.7505605808
 20
417.842193203
 30
0.0
 10
249.4499785714
 20
418.9229339382
 30
0.0
 10
252.1938577711
 20
419.6143380213
 30
0.0
 10
254.0514495241
 20
419.7744098084
 30
0.0
 10
254.9695604497
 20
419.7744098084
 30
0.0
  0
SPLINE
  5
7C9
100
AcDbEntity
  8
BEZUGSACHSEN
100
AcDbSpline
 62
7
  6
CONTINUOUS
 70
0
 71
3
 72
11
 73
7
 74
0
 42
0.0000001
 43
0.0000001
 44
0.0000000001
 40
0.0
 40
0.0
 40
0.0
 40
0.0
 40
0.2404017719
 40
0.4854989971
 40
0.7383537318
 40
1.0
 40
1.0
 40
1.0
 40
1.0
 10
254.9695604497
 20
419.7744098084
 30
0.0
 10
255.8876714081
 20
419.7744098084
 30
0.0
 10
257.7452631957
 20
419.6143379961
 30
0.0
 10
260.4891424067
 20
418.922933917
 30
0.0
 10
263.1885603602
 20
417.842193179
 30
0.0
 10
264.929506306
 20
416.924667481
 30
0.0
 10
265.7948779958
 20
416.425044903
 30
0.0
  0
SPLINE
  5
7CA
100
AcDbEntity
  8
BEZUGSACHSEN
100
AcDbSpline
 62
7
  6
CONTINUOUS
 70
0
 71
3
 72
10
 73
6
 74
0
 42
0.0000001
 43
0.0000001
 44
0.0000000001
 40
0.0
 40
0.0
 40
0.0
 40
0.0
 40
0.4999046085
 40
0.749955089
 40
1.0
 40
1.0
 40
1.0
 40
1.0
 10
265.7948779958
 20
416.425044903
 30
0.0
 10
269.3126488063
 20
417.4405378652
 30
0.0
 10
274.6755699928
 20
418.7100729202
 30
0.0
 10
281.9493798188
 20
419.6181133614
 30
0.0
 10
285.6141289477
 20
419.7744098028
 30
0.0
 10
287.4455131926
 20
419.7744098113
 30
0.0
  0
SPLINE
  5
7CB
100
AcDbEntity
  8
BEZUGSACHSEN
100
AcDbSpline
 62
7
  6
CONTINUOUS
 70
0
 71
3
 72
10
 73
6
 74
0
 42
0.0000001
 43
0.0000001
 44
0.0000000001
 40
0.0
 40
0.0
 40
0.0
 40
0.0
 40
0.2500450529
 40
0.500095578
 40
1.0
 40
1.0
 40
1.0
 40
1.0
 10
287.4455131926
 20
419.7744098113
 30
0.0
 10
289.2768984595
 20
419.7744098113
 30
0.0
 10
292.9416489034
 20
419.6181128967
 30
0.0
 10
300.215458666
 20
418.7100725925
 30
0.0
 10
305.5783787198
 20
417.4405374768
 30
0.0
 10
309.096148185
 20
416.425044903
 30
0.0
  0
SPLINE
  5
7CC
100
AcDbEntity
  8
BEZUGSACHSEN
100
AcDbSpline
 62
7
  6
CONTINUOUS
 70
0
 71
3
 72
11
 73
7
 74
0
 42
0.0000001
 43
0.0000001
 44
0.0000000001
 40
0.0
 40
0.0
 40
0.0
 40
0.0
 40
0.2616462713
 40
0.5145010125
 40
0.7595982368
 40
1.0
 40
1.0
 40
1.0
 40
1.0
 10
309.096148185
 20
416.425044903
 30
0.0
 10
309.9615198851
 20
416.9246674869
 30
0.0
 10
311.7024658637
 20
417.8421932025
 30
0.0
 10
314.4018838532
 20
418.9229339375
 30
0.0
 10
317.1457630518
 20
419.6143380207
 30
0.0
 10
319.0033548041
 20
419.7744098082
 30
0.0
 10
319.9214657293
 20
419.7744098084
 30
0.0
  0
SPLINE
  5
7CD
100
AcDbEntity
  8
BEZUGSACHSEN
100
AcDbSpline
 62
7
  6
CONTINUOUS
 70
0
 71
3
 72
11
 73
7
 74
0
 42
0.0000001
 43
0.0000001
 44
0.0000000001
 40
0.0
 40
0.0
 40
0.0
 40
0.0
 40
0.2427595219
 40
0.4888797066
 40
0.7408662137
 40
1.0
 40
1.0
 40
1.0
 40
1.0
 10
319.9214657293
 20
419.7744098084
 30
0.0
 10
320.6831846267
 20
419.7744098085
 30
0.0
 10
322.2192048111
 20
419.6651480498
 30
0.0
 10
324.5002858464
 20
419.1865990741
 30
0.0
 10
326.7555159873
 20
418.4238821208
 30
0.0
 10
328.2186795011
 20
417.7613666728
 30
0.0
 10
328.9457143182
 20
417.3972958991
 30
0.0
  0
SPLINE
  5
7CE
100
AcDbEntity
  8
BEZUGSACHSEN
100
AcDbSpline
 62
7
  6
CONTINUOUS
 70
0
 71
3
 72
10
 73
6
 74
0
 42
0.0000001
 43
0.0000001
 44
0.0000000001
 40
0.0
 40
0.0
 40
0.0
 40
0.0
 40
0.2489202642
 40
0.4983930055
 40
1.0
 40
1.0
 40
1.0
 40
1.0
 10
513.3480743587
 20
419.7744098553
 30
0.0
 10
514.9345644958
 20
419.7744098551
 30
0.0
 10
518.1132858173
 20
419.6176929658
 30
0.0
 10
524.4283735515
 20
418.7063948667
 30
0.0
 10
529.0651458315
 20
417.4360205797
 30
0.0
 10
532.0980728617
 20
416.425044903
 30
0.0
  0
SPLINE
  5
7CF
100
AcDbEntity
  8
BEZUGSACHSEN
100
AcDbSpline
 62
7
  6
CONTINUOUS
 70
0
 71
3
 72
10
 73
6
 74
0
 42
0.0000001
 43
0.0000001
 44
0.0000000001
 40
0.0
 40
0.0
 40
0.0
 40
0.0
 40
0.5016070043
 40
0.7510797446
 40
1.0
 40
1.0
 40
1.0
 40
1.0
 10
494.5980728617
 20
416.425044903
 30
0.0
 10
497.6310004248
 20
417.4360207574
 30
0.0
 10
502.2677735079
 20
418.7063951689
 30
0.0
 10
508.5828622612
 20
419.6176932911
 30
0.0
 10
511.76158403
 20
419.7744098554
 30
0.0
 10
513.3480743587
 20
419.7744098553
 30
0.0
  0
SPLINE
  5
7D0
100
AcDbEntity
  8
BEZUGSACHSEN
100
AcDbSpline
 62
7
  6
CONTINUOUS
 70
0
 71
3
 72
10
 73
6
 74
0
 42
0.0000001
 43
0.0000001
 44
0.0000000001
 40
0.0
 40
0.0
 40
0.0
 40
0.0
 40
0.5016070043
 40
0.7510797447
 40
1.0
 40
1.0
 40
1.0
 40
1.0
 10
532.0980728617
 20
416.425044903
 30
0.0
 10
535.131000188
 20
417.4360206784
 30
0.0
 10
539.7677729009
 20
418.7063950082
 30
0.0
 10
546.0828611411
 20
419.617693172
 30
0.0
 10
549.2615826596
 20
419.7744098084
 30
0.0
 10
550.8480728637
 20
419.7744098084
 30
0.0
  0
SPLINE
  5
7D1
100
AcDbEntity
  8
BEZUGSACHSEN
100
AcDbSpline
 62
7
  6
CONTINUOUS
 70
0
 71
3
 72
10
 73
6
 74
0
 42
0.0000001
 43
0.0000001
 44
0.0000000001
 40
0.0
 40
0.0
 40
0.0
 40
0.0
 40
0.2489202642
 40
0.4983930055
 40
1.0
 40
1.0
 40
1.0
 40
1.0
 10
550.8480728637
 20
419.7744098084
 30
0.0
 10
552.4345631242
 20
419.7744098084
 30
0.0
 10
555.6132847032
 20
419.6176931473
 30
0.0
 10
561.9283729422
 20
418.7063949903
 30
0.0
 10
566.5651455949
 20
417.4360206585
 30
0.0
 10
569.5980728617
 20
416.425044903
 30
0.0
  0
LINE
  5
7D2
100
AcDbEntity
  8
BEZUGSACHSEN
100
AcDbLine
 62
7
  6
CONTINUOUS
 10
610.098055477
 20
376.2744098084
 11
610.0980554208
 21
376.2606087187
  0
SPLINE
  5
7D3
100
AcDbEntity
  8
BEZUGSACHSEN
100
AcDbSpline
 62
7
  6
CONTINUOUS
 70
0
 71
3
 72
17
 73
13
 74
0
 42
0.0000001
 43
0.0000001
 44
0.0000000001
 40
0.0
 40
0.0
 40
0.0
 40
0.0
 40
0.1249626497
 40
0.2499241471
 40
0.3748865529
 40
0.4374427861
 40
0.49999879
 40
0.6249619103
 40
0.7499251729
 40
0.8124815396
 40
0.8750366677
 40
1.0
 40
1.0
 40
1.0
 40
1.0
 10
580.1512077214
 20
328.2827841942
 30
0.0
 10
582.1050159725
 20
328.2887891931
 30
0.0
 10
586.0223630254
 20
328.6859748687
 30
0.0
 10
591.6604950238
 20
330.411992294
 30
0.0
 10
595.9950770799
 20
332.7396303678
 30
0.0
 10
599.1367530831
 20
335.0761401703
 30
0.0
 10
602.0362075769
 20
337.7074778961
 30
0.0
 10
605.1574495011
 20
341.5091513485
 30
0.0
 10
607.4807451606
 20
345.844555091
 30
0.0
 10
608.8072882151
 20
349.528647746
 30
0.0
 10
609.7692101608
 20
353.3230228126
 30
0.0
 10
610.0691823916
 20
356.2642578942
 30
0.0
 10
610.0765489485
 20
358.2180721581
 30
0.0
  0
LINE
  5
7D4
100
AcDbEntity
  8
BEZUGSACHSEN
100
AcDbLine
 62
7
  6
CONTINUOUS
 10
579.5980728793
 20
328.2809978118
 11
580.1512077204
 21
328.2827841939
  0
LINE
  5
7D5
100
AcDbEntity
  8
BEZUGSACHSEN
100
AcDbLine
 62
7
  6
CONTINUOUS
 10
547.9734880105
 20
522.574963571
 11
548.0835921092
 21
522.551030651
  0
LINE
  5
7D6
100
AcDbEntity
  8
BEZUGSACHSEN
100
AcDbLine
 62
7
  6
CONTINUOUS
 10
516.2226577128
 20
522.574963571
 11
516.1125536142
 21
522.551030651
  0
LINE
  5
7D7
100
AcDbEntity
  8
BEZUGSACHSEN
100
AcDbLine
 62
7
  6
CONTINUOUS
 10
454.0980902463
 20
376.2744098084
 11
454.0980903025
 21
376.2606087187
  0
SPLINE
  5
7D8
100
AcDbEntity
  8
BEZUGSACHSEN
100
AcDbSpline
 62
7
  6
CONTINUOUS
 70
0
 71
3
 72
17
 73
13
 74
0
 42
0.0000001
 43
0.0000001
 44
0.0000000001
 40
0.0
 40
0.0
 40
0.0
 40
0.0
 40
0.1249626497
 40
0.2499241471
 40
0.3748865529
 40
0.4374427861
 40
0.49999879
 40
0.6249619103
 40
0.7499251729
 40
0.8124815396
 40
0.8750366677
 40
1.0
 40
1.0
 40
1.0
 40
1.0
 10
484.0449380019
 20
328.2827841942
 30
0.0
 10
482.0911297509
 20
328.2887891931
 30
0.0
 10
478.173782698
 20
328.6859748687
 30
0.0
 10
472.5356506996
 20
330.411992294
 30
0.0
 10
468.2010686435
 20
332.7396303678
 30
0.0
 10
465.0593926403
 20
335.0761401703
 30
0.0
 10
462.1599381464
 20
337.7074778961
 30
0.0
 10
459.0386962222
 20
341.5091513485
 30
0.0
 10
456.7154005628
 20
345.844555091
 30
0.0
 10
455.3888575083
 20
349.528647746
 30
0.0
 10
454.4269355625
 20
353.3230228126
 30
0.0
 10
454.1269633317
 20
356.2642578942
 30
0.0
 10
454.1195967749
 20
358.2180721581
 30
0.0
  0
LINE
  5
7D9
100
AcDbEntity
  8
BEZUGSACHSEN
100
AcDbLine
 62
7
  6
CONTINUOUS
 10
484.598072844
 20
328.2809978118
 11
484.044938003
 21
328.2827841939
  0
SPLINE
  5
7DA
100
AcDbEntity
  8
BEZUGSACHSEN
100
AcDbSpline
 62
7
  6
CONTINUOUS
 70
0
 71
3
 72
16
 73
12
 74
0
 42
0.0000001
 43
0.0000001
 44
0.0000000001
 40
0.0
 40
0.0
 40
0.0
 40
0.0
 40
0.0624992065
 40
0.124999258
 40
0.1874993109
 40
0.2499993639
 40
0.3749994699
 40
0.4999995759
 40
0.6249996819
 40
0.749999788
 40
1.0
 40
1.0
 40
1.0
 40
1.0
 10
460.8969207719
 20
510.2939261803
 30
0.0
 10
460.8865813164
 20
509.7689417731
 30
0.0
 10
460.8866711212
 20
508.7186615041
 30
0.0
 10
460.8871222555
 20
507.143429168
 30
0.0
 10
460.8869269024
 20
505.5681384128
 30
0.0
 10
460.8869942293
 20
503.467768643
 30
0.0
 10
460.8869621807
 20
500.84230028
 30
0.0
 10
460.8869725436
 20
497.6917408805
 30
0.0
 10
460.8869697302
 20
494.5411807755
 30
0.0
 10
460.8869706564
 20
490.3404342163
 30
0.0
 10
460.8869703117
 20
487.1898742413
 30
0.0
 10
460.8869703107
 20
485.089500937
 30
0.0
  0
SPLINE
  5
7DB
100
AcDbEntity
  8
RUNDUNGEN
100
AcDbSpline
 62
7
  6
CONTINUOUS
 70
0
 71
3
 72
9
 73
5
 74
0
 42
0.0000001
 43
0.0000001
 44
0.0000000001
 40
0.0
 40
0.0
 40
0.0
 40
0.0
 40
0.2503642196
 40
1.0
 40
1.0
 40
1.0
 40
1.0
 10
600.0536405164
 20
521.4848387695
 30
0.0
 10
600.1287830314
 20
521.3076938652
 30
0.0
 10
600.4352006538
 20
520.6028164021
 30
0.0
 10
600.7662192056
 20
519.9087220248
 30
0.0
 10
601.0256176083
 20
519.3942695041
 30
0.0
  0
SPLINE
  5
7DC
100
AcDbEntity
  8
0
100
AcDbSpline
 62
7
  6
CONTINUOUS
 70
0
 71
3
 72
16
 73
12
 74
0
 42
0.0000001
 43
0.0000001
 44
0.0000000001
 40
0.0
 40
0.0
 40
0.0
 40
0.0
 40
0.0624992065
 40
0.124999258
 40
0.1874993109
 40
0.2499993639
 40
0.3749994699
 40
0.4999995759
 40
0.6249996819
 40
0.749999788
 40
1.0
 40
1.0
 40
1.0
 40
1.0
 10
603.2992249515
 20
510.2939261803
 30
0.0
 10
603.3095644069
 20
509.7689417731
 30
0.0
 10
603.3094746022
 20
508.7186615041
 30
0.0
 10
603.3090234678
 20
507.143429168
 30
0.0
 10
603.3092188209
 20
505.5681384128
 30
0.0
 10
603.3091514941
 20
503.467768643
 30
0.0
 10
603.3091835426
 20
500.84230028
 30
0.0
 10
603.3091731797
 20
497.6917408805
 30
0.0
 10
603.3091759931
 20
494.5411807755
 30
0.0
 10
603.3091750669
 20
490.3404342163
 30
0.0
 10
603.3091754116
 20
487.1898742413
 30
0.0
 10
603.3091754126
 20
485.089500937
 30
0.0
  0
SPLINE
  5
7DD
100
AcDbEntity
  8
RUNDUNGEN
100
AcDbSpline
 62
7
  6
CONTINUOUS
 70
0
 71
3
 72
9
 73
5
 74
0
 42
0.0000001
 43
0.0000001
 44
0.0000000001
 40
0.0
 40
0.0
 40
0.0
 40
0.0
 40
0.5001608305
 40
1.0
 40
1.0
 40
1.0
 40
1.0
 10
601.0256176083
 20
519.3942695041
 30
0.0
 10
601.7341374284
 20
517.9890958268
 30
0.0
 10
602.8465256223
 20
515.015052955
 30
0.0
 10
603.2687730692
 20
511.8663134541
 30
0.0
 10
603.2992249515
 20
510.2939261803
 30
0.0
  0
SPLINE
  5
7DE
100
AcDbEntity
  8
0
100
AcDbSpline
 62
7
  6
CONTINUOUS
 70
0
 71
3
 72
9
 73
5
 74
0
 42
0.0000001
 43
0.0000001
 44
0.0000000001
 40
0.0
 40
0.0
 40
0.0
 40
0.0
 40
0.5002703613
 40
1.0
 40
1.0
 40
1.0
 40
1.0
 10
594.268729557
 20
529.0448164158
 30
0.0
 10
595.3327027946
 20
528.1311856137
 30
0.0
 10
597.3501578944
 20
526.1672340098
 30
0.0
 10
598.9370320473
 20
523.8175811481
 30
0.0
 10
599.5587634532
 20
522.5622082705
 30
0.0
  0
SPLINE
  5
7DF
100
AcDbEntity
  8
0
100
AcDbSpline
 62
7
  6
CONTINUOUS
 70
0
 71
3
 72
8
 73
4
 74
0
 42
0.0000001
 43
0.0000001
 44
0.0000000001
 40
0.0
 40
0.0
 40
0.0
 40
0.0
 40
1.0
 40
1.0
 40
1.0
 40
1.0
 10
588.7959249619
 20
533.1561083828
 30
0.0
 10
590.6862743771
 20
531.8783706436
 30
0.0
 10
592.5376775326
 20
530.5312529366
 30
0.0
 10
594.268729557
 20
529.0448164158
 30
0.0
  0
SPLINE
  5
7E0
100
AcDbEntity
  8
BEZUGSACHSEN
100
AcDbSpline
 62
7
  6
CONTINUOUS
 70
0
 71
3
 72
9
 73
5
 74
0
 42
0.0000001
 43
0.0000001
 44
0.0000000001
 40
0.0
 40
0.0
 40
0.0
 40
0.0
 40
0.2503642196
 40
1.0
 40
1.0
 40
1.0
 40
1.0
 10
464.1425052069
 20
521.4848387695
 30
0.0
 10
464.0673626919
 20
521.3076938652
 30
0.0
 10
463.7609450696
 20
520.6028164021
 30
0.0
 10
463.4299265178
 20
519.9087220248
 30
0.0
 10
463.170528115
 20
519.3942695041
 30
0.0
  0
SPLINE
  5
7E1
100
AcDbEntity
  8
BEZUGSACHSEN
100
AcDbSpline
 62
7
  6
CONTINUOUS
 70
0
 71
3
 72
9
 73
5
 74
0
 42
0.0000001
 43
0.0000001
 44
0.0000000001
 40
0.0
 40
0.0
 40
0.0
 40
0.0
 40
0.5001608305
 40
1.0
 40
1.0
 40
1.0
 40
1.0
 10
463.170528115
 20
519.3942695041
 30
0.0
 10
462.4620082949
 20
517.9890958268
 30
0.0
 10
461.349620101
 20
515.015052955
 30
0.0
 10
460.9273726541
 20
511.8663134541
 30
0.0
 10
460.8969207719
 20
510.2939261803
 30
0.0
  0
SPLINE
  5
7E2
100
AcDbEntity
  8
BEZUGSACHSEN
100
AcDbSpline
 62
7
  6
CONTINUOUS
 70
0
 71
3
 72
9
 73
5
 74
0
 42
0.0000001
 43
0.0000001
 44
0.0000000001
 40
0.0
 40
0.0
 40
0.0
 40
0.0
 40
0.5002703613
 40
1.0
 40
1.0
 40
1.0
 40
1.0
 10
469.9274161663
 20
529.0448164158
 30
0.0
 10
468.8634429288
 20
528.1311856137
 30
0.0
 10
466.8459878289
 20
526.1672340098
 30
0.0
 10
465.259113676
 20
523.8175811481
 30
0.0
 10
464.6373822702
 20
522.5622082705
 30
0.0
  0
SPLINE
  5
7E3
100
AcDbEntity
  8
BEZUGSACHSEN
100
AcDbSpline
 62
7
  6
CONTINUOUS
 70
0
 71
3
 72
8
 73
4
 74
0
 42
0.0000001
 43
0.0000001
 44
0.0000000001
 40
0.0
 40
0.0
 40
0.0
 40
0.0
 40
1.0
 40
1.0
 40
1.0
 40
1.0
 10
475.4002207615
 20
533.1561083828
 30
0.0
 10
473.5098713463
 20
531.8783706436
 30
0.0
 10
471.6584681907
 20
530.5312529366
 30
0.0
 10
469.9274161663
 20
529.0448164158
 30
0.0
  0
SPLINE
  5
7E4
100
AcDbEntity
  8
0
100
AcDbSpline
 62
7
  6
CONTINUOUS
 70
0
 71
3
 72
10
 73
6
 74
0
 42
0.0000001
 43
0.0000001
 44
0.0000000001
 40
0.0
 40
0.0
 40
0.0
 40
0.0
 40
0.5038559243
 40
0.7525207765
 40
1.0
 40
1.0
 40
1.0
 40
1.0
 10
325.2173879734
 20
46.0314885496
 30
0.0
 10
324.9632579679
 20
46.7127217642
 30
0.0
 10
324.6890474715
 20
47.7678532921
 30
0.0
 10
324.3831343296
 20
49.1773742326
 30
0.0
 10
324.2493835875
 20
49.8810571014
 30
0.0
 10
324.1909093006
 20
50.2333629475
 30
0.0
  0
SPLINE
  5
7E5
100
AcDbEntity
  8
RUNDUNGEN
100
AcDbSpline
 62
7
  6
CONTINUOUS
 70
0
 71
3
 72
9
 73
5
 74
0
 42
0.0000001
 43
0.0000001
 44
0.0000000001
 40
0.0
 40
0.0
 40
0.0
 40
0.0
 40
0.2351283728
 40
1.0
 40
1.0
 40
1.0
 40
1.0
 10
325.9455130904
 20
44.34615819
 30
0.0
 10
325.9455130904
 20
44.2694170969
 30
0.0
 10
325.9559882382
 20
43.9430408363
 30
0.0
 10
326.0041334457
 20
43.6185666539
 30
0.0
 10
326.055075183
 20
43.3741810981
 30
0.0
  0
SPLINE
  5
7E6
100
AcDbEntity
  8
RUNDUNGEN
100
AcDbSpline
 62
7
  6
CONTINUOUS
 70
0
 71
3
 72
10
 73
6
 74
0
 42
0.0000001
 43
0.0000001
 44
0.0000000001
 40
0.0
 40
0.0
 40
0.0
 40
0.0
 40
0.5965685017
 40
0.8224803487
 40
1.0
 40
1.0
 40
1.0
 40
1.0
 10
326.055075183
 20
43.3741810981
 30
0.0
 10
326.1381534815
 20
42.9756250773
 30
0.0
 10
326.2664903919
 20
42.4277000509
 30
0.0
 10
326.4894149509
 20
41.7823135856
 30
0.0
 10
326.6050265037
 20
41.5312489713
 30
0.0
 10
326.6661287307
 20
41.4266400257
 30
0.0
  0
LINE
  5
7E7
100
AcDbEntity
  8
BEZUGSACHSEN
100
AcDbLine
 62
7
  6
CONTINUOUS
 10
323.9455130904
 20
112.3017258448
 11
323.9455130904
 21
86.9557622805
  0
SPLINE
  5
7E8
100
AcDbEntity
  8
RUNDUNGEN
100
AcDbSpline
 62
7
  6
CONTINUOUS
 70
0
 71
3
 72
9
 73
5
 74
0
 42
0.0000001
 43
0.0000001
 44
0.0000000001
 40
0.0
 40
0.0
 40
0.0
 40
0.0
 40
0.2530211238
 40
1.0
 40
1.0
 40
1.0
 40
1.0
 10
325.8110855997
 20
44.6563707646
 30
0.0
 10
325.7557822253
 20
44.7699759071
 30
0.0
 10
325.5422103251
 20
45.2213607826
 30
0.0
 10
325.3476652361
 20
45.6819593166
 30
0.0
 10
325.2173879734
 20
46.0314885496
 30
0.0
  0
SPLINE
  5
7E9
100
AcDbEntity
  8
BEZUGSACHSEN
100
AcDbSpline
 62
7
  6
CONTINUOUS
 70
0
 71
3
 72
9
 73
5
 74
0
 42
0.0000001
 43
0.0000001
 44
0.0000000001
 40
0.0
 40
0.0
 40
0.0
 40
0.0
 40
0.2530211238
 40
1.0
 40
1.0
 40
1.0
 40
1.0
 10
358.0799405811
 20
179.947080925
 30
0.0
 10
358.1352439555
 20
179.8334757825
 30
0.0
 10
358.3488158557
 20
179.3820909069
 30
0.0
 10
358.5433609448
 20
178.9214923729
 30
0.0
 10
358.6736382074
 20
178.5719631399
 30
0.0
  0
LINE
  5
7EA
100
AcDbEntity
  8
BEZUGSACHSEN
100
AcDbLine
 62
7
  6
CONTINUOUS
 10
359.9455130904
 20
112.3017258448
 11
359.9455130904
 21
137.6476894091
  0
SPLINE
  5
7EB
100
AcDbEntity
  8
BEZUGSACHSEN
100
AcDbSpline
 62
7
  6
CONTINUOUS
 70
0
 71
3
 72
10
 73
6
 74
0
 42
0.0000001
 43
0.0000001
 44
0.0000000001
 40
0.0
 40
0.0
 40
0.0
 40
0.0
 40
0.5965685017
 40
0.8224803487
 40
1.0
 40
1.0
 40
1.0
 40
1.0
 10
357.8359509978
 20
181.2292705914
 30
0.0
 10
357.7528726994
 20
181.6278266122
 30
0.0
 10
357.6245357889
 20
182.1757516386
 30
0.0
 10
357.4016112299
 20
182.8211381039
 30
0.0
 10
357.2859996771
 20
183.0722027182
 30
0.0
 10
357.2248974501
 20
183.1768116638
 30
0.0
  0
SPLINE
  5
7EC
100
AcDbEntity
  8
BEZUGSACHSEN
100
AcDbSpline
 62
7
  6
CONTINUOUS
 70
0
 71
3
 72
9
 73
5
 74
0
 42
0.0000001
 43
0.0000001
 44
0.0000000001
 40
0.0
 40
0.0
 40
0.0
 40
0.0
 40
0.2351283728
 40
1.0
 40
1.0
 40
1.0
 40
1.0
 10
357.9455130904
 20
180.2572934995
 30
0.0
 10
357.9455130904
 20
180.3340345926
 30
0.0
 10
357.9350379426
 20
180.6604108533
 30
0.0
 10
357.8868927351
 20
180.9848850356
 30
0.0
 10
357.8359509978
 20
181.2292705914
 30
0.0
  0
SPLINE
  5
7ED
100
AcDbEntity
  8
BEZUGSACHSEN
100
AcDbSpline
 62
7
  6
CONTINUOUS
 70
0
 71
3
 72
10
 73
6
 74
0
 42
0.0000001
 43
0.0000001
 44
0.0000000001
 40
0.0
 40
0.0
 40
0.0
 40
0.0
 40
0.5038559243
 40
0.7525207765
 40
1.0
 40
1.0
 40
1.0
 40
1.0
 10
358.6736382074
 20
178.5719631399
 30
0.0
 10
358.9277682129
 20
177.8907299254
 30
0.0
 10
359.2019787094
 20
176.8355983975
 30
0.0
 10
359.5078918512
 20
175.4260774569
 30
0.0
 10
359.6416425933
 20
174.7223945881
 30
0.0
 10
359.7001168802
 20
174.370088742
 30
0.0
  0
SPLINE
  5
7EE
100
AcDbEntity
  8
BEZUGSACHSEN
100
AcDbSpline
 62
7
  6
CONTINUOUS
 70
0
 71
3
 72
10
 73
6
 74
0
 42
0.0000001
 43
0.0000001
 44
0.0000000001
 40
0.0
 40
0.0
 40
0.0
 40
0.0
 40
0.5038559243
 40
0.7525207765
 40
1.0
 40
1.0
 40
1.0
 40
1.0
 10
358.6736382074
 20
46.0314885496
 30
0.0
 10
358.9277682129
 20
46.7127217642
 30
0.0
 10
359.2019787094
 20
47.7678532921
 30
0.0
 10
359.5078918512
 20
49.1773742326
 30
0.0
 10
359.6416425933
 20
49.8810571014
 30
0.0
 10
359.7001168802
 20
50.2333629475
 30
0.0
  0
SPLINE
  5
7EF
100
AcDbEntity
  8
BEZUGSACHSEN
100
AcDbSpline
 62
7
  6
CONTINUOUS
 70
0
 71
3
 72
9
 73
5
 74
0
 42
0.0000001
 43
0.0000001
 44
0.0000000001
 40
0.0
 40
0.0
 40
0.0
 40
0.0
 40
0.2351283728
 40
1.0
 40
1.0
 40
1.0
 40
1.0
 10
357.9455130904
 20
44.34615819
 30
0.0
 10
357.9455130904
 20
44.2694170969
 30
0.0
 10
357.9350379426
 20
43.9430408363
 30
0.0
 10
357.8868927351
 20
43.6185666539
 30
0.0
 10
357.8359509978
 20
43.3741810981
 30
0.0
  0
SPLINE
  5
7F0
100
AcDbEntity
  8
BEZUGSACHSEN
100
AcDbSpline
 62
7
  6
CONTINUOUS
 70
0
 71
3
 72
10
 73
6
 74
0
 42
0.0000001
 43
0.0000001
 44
0.0000000001
 40
0.0
 40
0.0
 40
0.0
 40
0.0
 40
0.5965685154
 40
0.8224803589
 40
1.0
 40
1.0
 40
1.0
 40
1.0
 10
357.8359509978
 20
43.3741810981
 30
0.0
 10
357.7528726922
 20
42.9756250429
 30
0.0
 10
357.6245357716
 20
42.4276999745
 30
0.0
 10
357.4016111865
 20
41.7823134724
 30
0.0
 10
357.2859996198
 20
41.5312488549
 30
0.0
 10
357.2248973845
 20
41.4266399133
 30
0.0
  0
LINE
  5
7F1
100
AcDbEntity
  8
BEZUGSACHSEN
100
AcDbLine
 62
7
  6
CONTINUOUS
 10
359.9455130904
 20
112.3017258448
 11
359.9455130904
 21
86.9557622805
  0
SPLINE
  5
7F2
100
AcDbEntity
  8
BEZUGSACHSEN
100
AcDbSpline
 62
7
  6
CONTINUOUS
 70
0
 71
3
 72
9
 73
5
 74
0
 42
0.0000001
 43
0.0000001
 44
0.0000000001
 40
0.0
 40
0.0
 40
0.0
 40
0.0
 40
0.2530211238
 40
1.0
 40
1.0
 40
1.0
 40
1.0
 10
358.0799405811
 20
44.6563707646
 30
0.0
 10
358.1352439555
 20
44.7699759071
 30
0.0
 10
358.3488158557
 20
45.2213607826
 30
0.0
 10
358.5433609448
 20
45.6819593166
 30
0.0
 10
358.6736382074
 20
46.0314885496
 30
0.0
  0
SPLINE
  5
7F3
100
AcDbEntity
  8
BEZUGSACHSEN
100
AcDbSpline
 62
7
  6
CONTINUOUS
 70
0
 71
3
 72
9
 73
5
 74
0
 42
0.0000001
 43
0.0000001
 44
0.0000000001
 40
0.0
 40
0.0
 40
0.0
 40
0.0
 40
0.2530211238
 40
1.0
 40
1.0
 40
1.0
 40
1.0
 10
325.8110855997
 20
179.947080925
 30
0.0
 10
325.7557822253
 20
179.8334757825
 30
0.0
 10
325.5422103251
 20
179.3820909069
 30
0.0
 10
325.3476652361
 20
178.9214923729
 30
0.0
 10
325.2173879734
 20
178.5719631399
 30
0.0
  0
LINE
  5
7F4
100
AcDbEntity
  8
BEZUGSACHSEN
100
AcDbLine
 62
7
  6
CONTINUOUS
 10
323.9455130904
 20
112.3017258448
 11
323.9455130904
 21
137.6476894091
  0
SPLINE
  5
7F5
100
AcDbEntity
  8
BEZUGSACHSEN
100
AcDbSpline
 62
7
  6
CONTINUOUS
 70
0
 71
3
 72
10
 73
6
 74
0
 42
0.0000001
 43
0.0000001
 44
0.0000000001
 40
0.0
 40
0.0
 40
0.0
 40
0.0
 40
0.5965685154
 40
0.8224803589
 40
1.0
 40
1.0
 40
1.0
 40
1.0
 10
326.055075183
 20
181.2292705914
 30
0.0
 10
326.1381534886
 20
181.6278266467
 30
0.0
 10
326.2664904092
 20
182.1757517151
 30
0.0
 10
326.4894149943
 20
182.8211382171
 30
0.0
 10
326.6050265611
 20
183.0722028346
 30
0.0
 10
326.6661287963
 20
183.1768117763
 30
0.0
  0
SPLINE
  5
7F6
100
AcDbEntity
  8
BEZUGSACHSEN
100
AcDbSpline
 62
7
  6
CONTINUOUS
 70
0
 71
3
 72
9
 73
5
 74
0
 42
0.0000001
 43
0.0000001
 44
0.0000000001
 40
0.0
 40
0.0
 40
0.0
 40
0.0
 40
0.2351283728
 40
1.0
 40
1.0
 40
1.0
 40
1.0
 10
325.9455130904
 20
180.2572934995
 30
0.0
 10
325.9455130904
 20
180.3340345926
 30
0.0
 10
325.9559882382
 20
180.6604108533
 30
0.0
 10
326.0041334457
 20
180.9848850356
 30
0.0
 10
326.055075183
 20
181.2292705914
 30
0.0
  0
SPLINE
  5
7F7
100
AcDbEntity
  8
BEZUGSACHSEN
100
AcDbSpline
 62
7
  6
CONTINUOUS
 70
0
 71
3
 72
10
 73
6
 74
0
 42
0.0000001
 43
0.0000001
 44
0.0000000001
 40
0.0
 40
0.0
 40
0.0
 40
0.0
 40
0.5038559243
 40
0.7525207765
 40
1.0
 40
1.0
 40
1.0
 40
1.0
 10
325.2173879734
 20
178.5719631399
 30
0.0
 10
324.9632579679
 20
177.8907299254
 30
0.0
 10
324.6890474715
 20
176.8355983975
 30
0.0
 10
324.3831343296
 20
175.4260774569
 30
0.0
 10
324.2493835875
 20
174.7223945881
 30
0.0
 10
324.1909093006
 20
174.370088742
 30
0.0
  0
SPLINE
  5
7F8
100
AcDbEntity
  8
BEZUGSACHSEN
100
AcDbSpline
 62
7
  6
CONTINUOUS
 70
0
 71
3
 72
9
 73
5
 74
0
 42
0.0000001
 43
0.0000001
 44
0.0000000001
 40
0.0
 40
0.0
 40
0.0
 40
0.0
 40
0.2374250006
 40
1.0
 40
1.0
 40
1.0
 40
1.0
 10
358.9784698765
 20
167.6411558844
 30
0.0
 10
358.9788838778
 20
167.5655181136
 30
0.0
 10
358.9849054989
 20
167.246967277
 30
0.0
 10
359.0064133505
 20
166.9288210819
 30
0.0
 10
359.0289534696
 20
166.6869276849
 30
0.0
  0
SPLINE
  5
7F9
100
AcDbEntity
  8
BEZUGSACHSEN
100
AcDbSpline
 62
7
  6
CONTINUOUS
 70
0
 71
3
 72
15
 73
11
 74
0
 42
0.0000001
 43
0.0000001
 44
0.0000000001
 40
0.0
 40
0.0
 40
0.0
 40
0.0
 40
0.1250096932
 40
0.250002637
 40
0.3749916904
 40
0.4999801273
 40
0.6249688584
 40
0.7499597732
 40
0.8749609648
 40
1.0
 40
1.0
 40
1.0
 40
1.0
 10
359.0289534696
 20
166.6869276849
 30
0.0
 10
359.2394776816
 20
164.4276487326
 30
0.0
 10
359.530712766
 20
159.8972348617
 30
0.0
 10
359.7383155266
 20
153.0934384983
 30
0.0
 10
359.8187710389
 20
146.2875306064
 30
0.0
 10
359.8288982972
 20
139.4814073866
 30
0.0
 10
359.7770549212
 20
132.6754088586
 30
0.0
 10
359.6235634447
 20
125.8702844315
 30
0.0
 10
359.2813850372
 20
119.070601526
 30
0.0
 10
358.8370338954
 20
114.5502743627
 30
0.0
 10
358.5286370054
 20
112.3017258448
 30
0.0
  0
SPLINE
  5
7FA
100
AcDbEntity
  8
0
100
AcDbSpline
 62
7
  6
CONTINUOUS
 70
0
 71
3
 72
9
 73
5
 74
0
 42
0.0000001
 43
0.0000001
 44
0.0000000001
 40
0.0
 40
0.0
 40
0.0
 40
0.0
 40
0.4986644911
 40
1.0
 40
1.0
 40
1.0
 40
1.0
 10
324.0880869017
 20
51.0836798328
 30
0.0
 10
324.0576558536
 20
51.4847594551
 30
0.0
 10
324.0480354224
 20
52.293899116
 30
0.0
 10
324.1430354648
 20
53.0972391979
 30
0.0
 10
324.2138474156
 20
53.4953779132
 30
0.0
  0
SPLINE
  5
7FB
100
AcDbEntity
  8
BEZUGSACHSEN
100
AcDbSpline
 62
7
  6
CONTINUOUS
 70
0
 71
3
 72
9
 73
5
 74
0
 42
0.0000001
 43
0.0000001
 44
0.0000000001
 40
0.0
 40
0.0
 40
0.0
 40
0.0
 40
0.2473211304
 40
1.0
 40
1.0
 40
1.0
 40
1.0
 10
359.6771787653
 20
171.1080737764
 30
0.0
 10
359.6464261442
 20
170.9351678541
 30
0.0
 10
359.5096181105
 20
170.2383461688
 30
0.0
 10
359.3199470649
 20
169.5517503082
 30
0.0
 10
359.1470074716
 20
169.0460358926
 30
0.0
  0
SPLINE
  5
7FC
100
AcDbEntity
  8
BEZUGSACHSEN
100
AcDbSpline
 62
7
  6
CONTINUOUS
 70
0
 71
3
 72
9
 73
5
 74
0
 42
0.0000001
 43
0.0000001
 44
0.0000000001
 40
0.0
 40
0.0
 40
0.0
 40
0.0
 40
0.426902992
 40
1.0
 40
1.0
 40
1.0
 40
1.0
 10
359.1470074716
 20
169.0460358926
 30
0.0
 10
359.0816559636
 20
168.8549333285
 30
0.0
 10
358.9959777942
 20
168.3855422265
 30
0.0
 10
358.9768175047
 20
167.9122830941
 30
0.0
 10
358.9784698765
 20
167.6411558844
 30
0.0
  0
SPLINE
  5
7FD
100
AcDbEntity
  8
BEZUGSACHSEN
100
AcDbSpline
 62
7
  6
CONTINUOUS
 70
0
 71
3
 72
9
 73
5
 74
0
 42
0.0000001
 43
0.0000001
 44
0.0000000001
 40
0.0
 40
0.0
 40
0.0
 40
0.0
 40
0.4986644911
 40
1.0
 40
1.0
 40
1.0
 40
1.0
 10
359.8029392791
 20
173.5197718567
 30
0.0
 10
359.8333703273
 20
173.1186922344
 30
0.0
 10
359.8429907585
 20
172.3095525735
 30
0.0
 10
359.747990716
 20
171.5062124917
 30
0.0
 10
359.6771787653
 20
171.1080737764
 30
0.0
  0
SPLINE
  5
7FE
100
AcDbEntity
  8
BEZUGSACHSEN
100
AcDbSpline
 62
7
  6
CONTINUOUS
 70
0
 71
3
 72
9
 73
5
 74
0
 42
0.0000001
 43
0.0000001
 44
0.0000000001
 40
0.0
 40
0.0
 40
0.0
 40
0.0
 40
0.4986644911
 40
1.0
 40
1.0
 40
1.0
 40
1.0
 10
324.0880869017
 20
173.5197718567
 30
0.0
 10
324.0576558536
 20
173.1186922344
 30
0.0
 10
324.0480354224
 20
172.3095525735
 30
0.0
 10
324.1430354648
 20
171.5062124917
 30
0.0
 10
324.2138474156
 20
171.1080737764
 30
0.0
  0
SPLINE
  5
7FF
100
AcDbEntity
  8
BEZUGSACHSEN
100
AcDbSpline
 62
7
  6
CONTINUOUS
 70
0
 71
3
 72
9
 73
5
 74
0
 42
0.0000001
 43
0.0000001
 44
0.0000000001
 40
0.0
 40
0.0
 40
0.0
 40
0.0
 40
0.4986644911
 40
1.0
 40
1.0
 40
1.0
 40
1.0
 10
359.8029392791
 20
51.0836798328
 30
0.0
 10
359.8333703273
 20
51.4847594551
 30
0.0
 10
359.8429907585
 20
52.293899116
 30
0.0
 10
359.747990716
 20
53.0972391979
 30
0.0
 10
359.6771787653
 20
53.4953779132
 30
0.0
  0
SPLINE
  5
800
100
AcDbEntity
  8
RUNDUNGEN
100
AcDbSpline
 62
7
  6
CONTINUOUS
 70
0
 71
3
 72
9
 73
5
 74
0
 42
0.0000001
 43
0.0000001
 44
0.0000000001
 40
0.0
 40
0.0
 40
0.0
 40
0.0
 40
0.426902992
 40
1.0
 40
1.0
 40
1.0
 40
1.0
 10
324.7440187092
 20
55.5574157969
 30
0.0
 10
324.8093702173
 20
55.748518361
 30
0.0
 10
324.8950483866
 20
56.2179094631
 30
0.0
 10
324.9142086761
 20
56.6911685955
 30
0.0
 10
324.9125563043
 20
56.9622958052
 30
0.0
  0
SPLINE
  5
801
100
AcDbEntity
  8
RUNDUNGEN
100
AcDbSpline
 62
7
  6
CONTINUOUS
 70
0
 71
3
 72
9
 73
5
 74
0
 42
0.0000001
 43
0.0000001
 44
0.0000000001
 40
0.0
 40
0.0
 40
0.0
 40
0.0
 40
0.2473211304
 40
1.0
 40
1.0
 40
1.0
 40
1.0
 10
324.2138474156
 20
53.4953779132
 30
0.0
 10
324.2446000367
 20
53.6682838354
 30
0.0
 10
324.3814080703
 20
54.3651055208
 30
0.0
 10
324.5710791159
 20
55.0517013813
 30
0.0
 10
324.7440187092
 20
55.5574157969
 30
0.0
  0
SPLINE
  5
802
100
AcDbEntity
  8
BEZUGSACHSEN
100
AcDbSpline
 62
7
  6
CONTINUOUS
 70
0
 71
3
 72
9
 73
5
 74
0
 42
0.0000001
 43
0.0000001
 44
0.0000000001
 40
0.0
 40
0.0
 40
0.0
 40
0.0
 40
0.426902992
 40
1.0
 40
1.0
 40
1.0
 40
1.0
 10
359.1470074716
 20
55.5574157969
 30
0.0
 10
359.0816559636
 20
55.748518361
 30
0.0
 10
358.9959777942
 20
56.2179094631
 30
0.0
 10
358.9768175047
 20
56.6911685955
 30
0.0
 10
358.9784698765
 20
56.9622958052
 30
0.0
  0
SPLINE
  5
803
100
AcDbEntity
  8
BEZUGSACHSEN
100
AcDbSpline
 62
7
  6
CONTINUOUS
 70
0
 71
3
 72
9
 73
5
 74
0
 42
0.0000001
 43
0.0000001
 44
0.0000000001
 40
0.0
 40
0.0
 40
0.0
 40
0.0
 40
0.2473211304
 40
1.0
 40
1.0
 40
1.0
 40
1.0
 10
359.6771787653
 20
53.4953779132
 30
0.0
 10
359.6464261442
 20
53.6682838354
 30
0.0
 10
359.5096181105
 20
54.3651055208
 30
0.0
 10
359.3199470649
 20
55.0517013813
 30
0.0
 10
359.1470074716
 20
55.5574157969
 30
0.0
  0
SPLINE
  5
804
100
AcDbEntity
  8
BEZUGSACHSEN
100
AcDbSpline
 62
7
  6
CONTINUOUS
 70
0
 71
3
 72
15
 73
11
 74
0
 42
0.0000001
 43
0.0000001
 44
0.0000000001
 40
0.0
 40
0.0
 40
0.0
 40
0.0
 40
0.1250096932
 40
0.250002637
 40
0.3749916904
 40
0.4999801273
 40
0.6249688584
 40
0.7499597732
 40
0.8749609648
 40
1.0
 40
1.0
 40
1.0
 40
1.0
 10
324.8620727112
 20
57.9165240046
 30
0.0
 10
324.6515484992
 20
60.1758029569
 30
0.0
 10
324.3603134149
 20
64.7062168278
 30
0.0
 10
324.1527106542
 20
71.5100131912
 30
0.0
 10
324.072255142
 20
78.3159210832
 30
0.0
 10
324.0621278836
 20
85.1220443029
 30
0.0
 10
324.1139712596
 20
91.928042831
 30
0.0
 10
324.2674627361
 20
98.7331672581
 30
0.0
 10
324.6096411436
 20
105.5328501635
 30
0.0
 10
325.0539922854
 20
110.0531773269
 30
0.0
 10
325.3623891754
 20
112.3017258448
 30
0.0
  0
SPLINE
  5
805
100
AcDbEntity
  8
BEZUGSACHSEN
100
AcDbSpline
 62
7
  6
CONTINUOUS
 70
0
 71
3
 72
9
 73
5
 74
0
 42
0.0000001
 43
0.0000001
 44
0.0000000001
 40
0.0
 40
0.0
 40
0.0
 40
0.0
 40
0.2374250006
 40
1.0
 40
1.0
 40
1.0
 40
1.0
 10
358.9784698765
 20
56.9622958052
 30
0.0
 10
358.9788838778
 20
57.0379335759
 30
0.0
 10
358.9849054989
 20
57.3564844126
 30
0.0
 10
359.0064133505
 20
57.6746306076
 30
0.0
 10
359.0289534696
 20
57.9165240046
 30
0.0
  0
SPLINE
  5
806
100
AcDbEntity
  8
BEZUGSACHSEN
100
AcDbSpline
 62
7
  6
CONTINUOUS
 70
0
 71
3
 72
15
 73
11
 74
0
 42
0.0000001
 43
0.0000001
 44
0.0000000001
 40
0.0
 40
0.0
 40
0.0
 40
0.0
 40
0.1250096932
 40
0.250002637
 40
0.3749916904
 40
0.4999801273
 40
0.6249688584
 40
0.7499597732
 40
0.8749609648
 40
1.0
 40
1.0
 40
1.0
 40
1.0
 10
359.0289534696
 20
57.9165240046
 30
0.0
 10
359.2394776816
 20
60.1758029569
 30
0.0
 10
359.530712766
 20
64.7062168278
 30
0.0
 10
359.7383155266
 20
71.5100131912
 30
0.0
 10
359.8187710389
 20
78.3159210832
 30
0.0
 10
359.8288982972
 20
85.1220443029
 30
0.0
 10
359.7770549212
 20
91.928042831
 30
0.0
 10
359.6235634447
 20
98.7331672581
 30
0.0
 10
359.2813850372
 20
105.5328501635
 30
0.0
 10
358.8370338954
 20
110.0531773269
 30
0.0
 10
358.5286370054
 20
112.3017258448
 30
0.0
  0
SPLINE
  5
807
100
AcDbEntity
  8
RUNDUNGEN
100
AcDbSpline
 62
7
  6
CONTINUOUS
 70
0
 71
3
 72
9
 73
5
 74
0
 42
0.0000001
 43
0.0000001
 44
0.0000000001
 40
0.0
 40
0.0
 40
0.0
 40
0.0
 40
0.2374250006
 40
1.0
 40
1.0
 40
1.0
 40
1.0
 10
324.9125563043
 20
56.9622958052
 30
0.0
 10
324.912142303
 20
57.0379335759
 30
0.0
 10
324.9061206819
 20
57.3564844126
 30
0.0
 10
324.8846128303
 20
57.6746306076
 30
0.0
 10
324.8620727112
 20
57.9165240046
 30
0.0
  0
SPLINE
  5
808
100
AcDbEntity
  8
BEZUGSACHSEN
100
AcDbSpline
 62
7
  6
CONTINUOUS
 70
0
 71
3
 72
15
 73
11
 74
0
 42
0.0000001
 43
0.0000001
 44
0.0000000001
 40
0.0
 40
0.0
 40
0.0
 40
0.0
 40
0.1250096932
 40
0.250002637
 40
0.3749916904
 40
0.4999801273
 40
0.6249688584
 40
0.7499597732
 40
0.8749609648
 40
1.0
 40
1.0
 40
1.0
 40
1.0
 10
324.8620727112
 20
166.6869276849
 30
0.0
 10
324.6515484992
 20
164.4276487326
 30
0.0
 10
324.3603134149
 20
159.8972348617
 30
0.0
 10
324.1527106542
 20
153.0934384983
 30
0.0
 10
324.072255142
 20
146.2875306064
 30
0.0
 10
324.0621278836
 20
139.4814073866
 30
0.0
 10
324.1139712596
 20
132.6754088586
 30
0.0
 10
324.2674627361
 20
125.8702844315
 30
0.0
 10
324.6096411436
 20
119.070601526
 30
0.0
 10
325.0539922854
 20
114.5502743627
 30
0.0
 10
325.3623891754
 20
112.3017258448
 30
0.0
  0
SPLINE
  5
809
100
AcDbEntity
  8
BEZUGSACHSEN
100
AcDbSpline
 62
7
  6
CONTINUOUS
 70
0
 71
3
 72
9
 73
5
 74
0
 42
0.0000001
 43
0.0000001
 44
0.0000000001
 40
0.0
 40
0.0
 40
0.0
 40
0.0
 40
0.2374250006
 40
1.0
 40
1.0
 40
1.0
 40
1.0
 10
324.9125563043
 20
167.6411558844
 30
0.0
 10
324.912142303
 20
167.5655181136
 30
0.0
 10
324.9061206819
 20
167.246967277
 30
0.0
 10
324.8846128303
 20
166.9288210819
 30
0.0
 10
324.8620727112
 20
166.6869276849
 30
0.0
  0
SPLINE
  5
80A
100
AcDbEntity
  8
BEZUGSACHSEN
100
AcDbSpline
 62
7
  6
CONTINUOUS
 70
0
 71
3
 72
9
 73
5
 74
0
 42
0.0000001
 43
0.0000001
 44
0.0000000001
 40
0.0
 40
0.0
 40
0.0
 40
0.0
 40
0.2473211304
 40
1.0
 40
1.0
 40
1.0
 40
1.0
 10
324.2138474156
 20
171.1080737764
 30
0.0
 10
324.2446000367
 20
170.9351678541
 30
0.0
 10
324.3814080703
 20
170.2383461688
 30
0.0
 10
324.5710791159
 20
169.5517503082
 30
0.0
 10
324.7440187092
 20
169.0460358926
 30
0.0
  0
SPLINE
  5
80B
100
AcDbEntity
  8
BEZUGSACHSEN
100
AcDbSpline
 62
7
  6
CONTINUOUS
 70
0
 71
3
 72
9
 73
5
 74
0
 42
0.0000001
 43
0.0000001
 44
0.0000000001
 40
0.0
 40
0.0
 40
0.0
 40
0.0
 40
0.426902992
 40
1.0
 40
1.0
 40
1.0
 40
1.0
 10
324.7440187092
 20
169.0460358926
 30
0.0
 10
324.8093702173
 20
168.8549333285
 30
0.0
 10
324.8950483866
 20
168.3855422265
 30
0.0
 10
324.9142086761
 20
167.9122830941
 30
0.0
 10
324.9125563043
 20
167.6411558844
 30
0.0
  0
ELLIPSE
  5
80C
100
AcDbEntity
  8
BEZUGSACHSEN
100
AcDbEllipse
 62
7
  6
CONTINUOUS
 10
341.9455130904
 20
486.9432742656
 30
0.0
 11
-0.0
 21
23.2999127529
 31
0.0
 40
0.600860619
 41
-2.1118958528
 42
-1.88898289
  0
ELLIPSE
  5
80D
100
AcDbEntity
  8
0
100
AcDbEllipse
 62
7
  6
CONTINUOUS
 10
341.9455130904
 20
486.9432742656
 30
0.0
 11
0.0
 21
23.2999127529
 31
0.0
 40
0.600860619
 41
-4.3942024171
 42
-4.1712894544
  0
ELLIPSE
  5
80E
100
AcDbEntity
  8
0
100
AcDbEllipse
 62
7
  6
CONTINUOUS
 10
282.9455130904
 20
359.4331305776
 30
0.0
 11
48.0
 21
-0.0
 31
0.0
 40
0.255319362
 41
2.8597511353
 42
2.8813741901
  0
ELLIPSE
  5
80F
100
AcDbEntity
  8
0
100
AcDbEllipse
 62
7
  6
CONTINUOUS
 10
282.9455130904
 20
353.7522806645
 30
0.0
 11
48.0
 21
0.0
 31
0.0
 40
0.6808512211
 41
2.8434451113
 42
2.8597511353
  0
ELLIPSE
  5
810
100
AcDbEntity
  8
0
100
AcDbEllipse
 62
7
  6
CONTINUOUS
 10
282.9455130904
 20
341.752327467
 30
0.0
 11
-0.0
 21
73.5317658772
 31
0.0
 40
0.6527791007
 41
1.2617328013
 42
1.2726487846
  0
ELLIPSE
  5
811
100
AcDbEntity
  8
0
100
AcDbEllipse
 62
7
  6
CONTINUOUS
 10
282.9455130904
 20
304.4754659873
 30
0.0
 11
0.0
 21
196.0858310159
 31
0.0
 40
0.244790762
 41
1.2562606299
 42
1.2617328013
  0
ELLIPSE
  5
812
100
AcDbEntity
  8
0
100
AcDbEllipse
 62
7
  6
CONTINUOUS
 10
282.9455130904
 20
429.6333532718
 30
0.0
 11
-0.0
 21
196.0858310159
 31
0.0
 40
0.244790762
 41
-4.4033254549
 42
-4.3978532835
  0
ELLIPSE
  5
813
100
AcDbEntity
  8
0
100
AcDbEllipse
 62
7
  6
CONTINUOUS
 10
282.9455130904
 20
392.3565126775
 30
0.0
 11
0.0
 21
73.5318345416
 31
0.0
 40
0.6527784911
 41
-4.4142414381
 42
-4.4033254549
  0
ELLIPSE
  5
814
100
AcDbEntity
  8
0
100
AcDbEllipse
 62
7
  6
CONTINUOUS
 10
282.9455130904
 20
380.3565359481
 30
0.0
 11
48.0
 21
0.0
 31
0.0
 40
0.6808509827
 41
-2.8597511353
 42
-2.8434451113
  0
ELLIPSE
  5
815
100
AcDbEntity
  8
0
100
AcDbEllipse
 62
7
  6
CONTINUOUS
 10
282.9455130904
 20
374.6756892179
 30
0.0
 11
48.0
 21
0.0
 31
0.0
 40
0.255319362
 41
-2.8813741901
 42
-2.8597511353
  0
ELLIPSE
  5
816
100
AcDbEntity
  8
0
100
AcDbEllipse
 62
7
  6
CONTINUOUS
 10
282.9455130904
 20
362.4969630493
 30
0.0
 11
48.0
 21
-0.0
 31
0.0
 40
0.2553189968
 41
3.1134639344
 42
3.1343009223
  0
ELLIPSE
  5
817
100
AcDbEntity
  8
0
100
AcDbEllipse
 62
7
  6
CONTINUOUS
 10
282.9455130904
 20
361.9224943435
 30
0.0
 11
48.0
 21
-0.0
 31
0.0
 40
0.6808512211
 41
3.0978286749
 42
3.1134639344
  0
ELLIPSE
  5
818
100
AcDbEntity
  8
0
100
AcDbEllipse
 62
7
  6
CONTINUOUS
 10
282.9455130904
 20
360.1352575409
 30
0.0
 11
-0.0
 21
73.5319762535
 31
0.0
 40
0.6527772331
 41
1.5166031373
 42
1.5270323481
  0
ELLIPSE
  5
819
100
AcDbEntity
  8
0
100
AcDbEllipse
 62
7
  6
CONTINUOUS
 10
282.9455130904
 20
353.4969845168
 30
0.0
 11
0.0
 21
196.0847090059
 31
0.0
 40
0.2447921628
 41
1.5113863747
 42
1.5166031373
  0
ELLIPSE
  5
81A
100
AcDbEntity
  8
0
100
AcDbEllipse
 62
7
  6
CONTINUOUS
 10
282.9455130904
 20
324.0346935822
 30
0.0
 11
48.0
 21
-0.0
 31
0.0
 40
0.1702127606
 41
-2.9759050346
 42
-2.9494401344
  0
ELLIPSE
  5
81B
100
AcDbEntity
  8
0
100
AcDbEllipse
 62
7
  6
CONTINUOUS
 10
282.9455130904
 20
325.3822114053
 30
0.0
 11
48.0
 21
-0.0
 31
0.0
 40
0.3404255211
 41
-2.9890925037
 42
-2.9759050346
  0
ELLIPSE
  5
81C
100
AcDbEntity
  8
0
100
AcDbEllipse
 62
7
  6
CONTINUOUS
 10
282.9455130904
 20
327.8644811008
 30
0.0
 11
48.0
 21
-0.0
 31
0.0
 40
0.6808510423
 41
-3.0022532961
 42
-2.9890925037
  0
ELLIPSE
  5
81D
100
AcDbEntity
  8
0
100
AcDbEllipse
 62
7
  6
CONTINUOUS
 10
282.9455130904
 20
336.9424701075
 30
0.0
 11
0.0
 21
98.042363086
 31
0.0
 40
0.4895842826
 41
-4.5818098814
 42
-4.5730496229
  0
ELLIPSE
  5
81E
100
AcDbEntity
  8
0
100
AcDbEllipse
 62
7
  6
CONTINUOUS
 10
282.9455130904
 20
322.8999398463
 30
0.0
 11
-0.0
 21
73.5319848366
 31
0.0
 40
0.6527771569
 41
1.536067132
 42
1.5534343352
  0
ELLIPSE
  5
81F
100
AcDbEntity
  8
0
100
AcDbEllipse
 62
7
  6
CONTINUOUS
 10
282.9455130904
 20
315.2403879455
 30
0.0
 11
0.0
 21
294.1271321733
 31
0.0
 40
0.1631947371
 41
1.5317238859
 42
1.536067132
  0
ELLIPSE
  5
820
100
AcDbEntity
  8
0
100
AcDbEllipse
 62
7
  6
CONTINUOUS
 10
282.9455130904
 20
339.708428989
 30
0.0
 11
-0.0
 21
294.1270635089
 31
0.0
 40
0.1631947752
 41
-4.6776597856
 42
-4.6733165394
  0
ELLIPSE
  5
821
100
AcDbEntity
  8
0
100
AcDbEllipse
 62
7
  6
CONTINUOUS
 10
282.9455130904
 20
332.0488803664
 30
0.0
 11
-0.0
 21
73.5320105858
 31
0.0
 40
0.6527769283
 41
-4.6950269887
 42
-4.6776597856
  0
ELLIPSE
  5
822
100
AcDbEntity
  8
0
100
AcDbEllipse
 62
7
  6
CONTINUOUS
 10
282.9455130904
 20
429.8131601906
 30
0.0
 11
-0.0
 21
98.0417935044
 31
0.0
 40
0.4895871269
 41
-3.7767135122
 42
-3.769360917
  0
ELLIPSE
  5
823
100
AcDbEntity
  8
0
100
AcDbEllipse
 62
7
  6
CONTINUOUS
 10
282.9455130904
 20
390.3517899116
 30
0.0
 11
-0.0
 21
49.021457754
 31
0.0
 40
0.9791630482
 41
-3.7912031217
 42
-3.7767135122
  0
ELLIPSE
  5
824
100
AcDbEntity
  8
0
100
AcDbEllipse
 62
7
  6
CONTINUOUS
 10
282.9455130904
 20
364.3272458552
 30
0.0
 11
48.0
 21
-0.0
 31
0.0
 40
0.3404254913
 41
-2.2416381236
 42
-2.2204067949
  0
ELLIPSE
  5
825
100
AcDbEntity
  8
0
100
AcDbEllipse
 62
7
  6
CONTINUOUS
 10
282.9455130904
 20
350.1436544927
 30
0.0
 11
48.0
 21
0.0
 31
0.0
 40
0.2042556244
 41
-2.3278320166
 42
-2.295680304
  0
ELLIPSE
  5
826
100
AcDbEntity
  8
0
100
AcDbEllipse
 62
7
  6
CONTINUOUS
 10
282.9455130904
 20
364.3966119598
 30
0.0
 11
48.0
 21
0.0
 31
0.0
 40
0.6127668731
 41
-2.3589246352
 42
-2.3278320166
  0
ELLIPSE
  5
827
100
AcDbEntity
  8
0
100
AcDbEllipse
 62
7
  6
CONTINUOUS
 10
282.9455130904
 20
401.2696659508
 30
0.0
 11
-0.0
 21
81.7021350861
 31
0.0
 40
0.5874999466
 41
-3.9479214158
 42
-3.929720962
  0
ELLIPSE
  5
828
100
AcDbEntity
  8
0
100
AcDbEllipse
 62
7
  6
CONTINUOUS
 10
282.9455130904
 20
480.4391094129
 30
0.0
 11
-0.0
 21
196.0835870088
 31
0.0
 40
0.2447935635
 41
-3.9539177958
 42
-3.9479214158
  0
ELLIPSE
  5
829
100
AcDbEntity
  8
0
100
AcDbEllipse
 62
7
  6
CONTINUOUS
 10
282.9455130904
 20
334.4813952007
 30
0.0
 11
48.0
 21
-0.0
 31
0.0
 40
0.2553200925
 41
2.2131971464
 42
2.2416381236
  0
ELLIPSE
  5
82A
100
AcDbEntity
  8
0
100
AcDbEllipse
 62
7
  6
CONTINUOUS
 10
282.9455130904
 20
318.1275253858
 30
0.0
 11
48.0
 21
0.0
 31
0.0
 40
0.6808512211
 41
2.1911369035
 42
2.2131971464
  0
ELLIPSE
  5
82B
100
AcDbEntity
  8
0
100
AcDbEllipse
 62
7
  6
CONTINUOUS
 10
282.9455130904
 20
284.8882801753
 30
0.0
 11
0.0
 21
73.5313451283
 31
0.0
 40
0.6527828359
 41
0.6052477805
 42
0.6203405767
  0
ELLIPSE
  5
82C
100
AcDbEntity
  8
0
100
AcDbEllipse
 62
7
  6
CONTINUOUS
 10
282.9455130904
 20
406.465248437
 30
0.0
 11
-0.0
 21
73.5313794603
 31
0.0
 40
0.6527825311
 41
-3.7619332303
 42
-3.7468404341
  0
ELLIPSE
  5
82D
100
AcDbEntity
  8
0
100
AcDbEllipse
 62
7
  6
CONTINUOUS
 10
282.9455130904
 20
373.2259659794
 30
0.0
 11
48.0
 21
0.0
 31
0.0
 40
0.6808509827
 41
-2.2131971464
 42
-2.1911369035
  0
ELLIPSE
  5
82E
100
AcDbEntity
  8
0
100
AcDbEllipse
 62
7
  6
CONTINUOUS
 10
282.9455130904
 20
356.8721053273
 30
0.0
 11
48.0
 21
0.0
 31
0.0
 40
0.2553200925
 41
-2.2416381236
 42
-2.2131971464
  0
ELLIPSE
  5
82F
100
AcDbEntity
  8
0
100
AcDbEllipse
 62
7
  6
CONTINUOUS
 10
282.9455130904
 20
356.5529021086
 30
0.0
 11
48.0
 21
0.0
 31
0.0
 40
0.2553186315
 41
-2.3086771521
 42
-2.2824897211
  0
ELLIPSE
  5
830
100
AcDbEntity
  8
0
100
AcDbEllipse
 62
7
  6
CONTINUOUS
 10
282.9455130904
 20
365.620543307
 30
0.0
 11
48.0
 21
0.0
 31
0.0
 40
0.510637263
 41
-2.3341309536
 42
-2.3086771521
  0
ELLIPSE
  5
831
100
AcDbEntity
  8
0
100
AcDbEllipse
 62
7
  6
CONTINUOUS
 10
282.9455130904
 20
383.3304965123
 30
0.0
 11
-0.0
 21
49.021457754
 31
0.0
 40
0.9791630482
 41
-3.929720962
 42
-3.9049272804
  0
ELLIPSE
  5
832
100
AcDbEntity
  8
0
100
AcDbEllipse
 62
7
  6
CONTINUOUS
 10
282.9455130904
 20
487.0348341264
 30
0.0
 11
-0.0
 21
196.0835870088
 31
0.0
 40
0.2447935635
 41
-3.9358239153
 42
-3.929720962
  0
ELLIPSE
  5
833
100
AcDbEntity
  8
0
100
AcDbEllipse
 62
7
  6
CONTINUOUS
 10
282.9455130904
 20
213.0420706601
 30
0.0
 11
0.0
 21
196.0835870088
 31
0.0
 40
0.2447935635
 41
0.7881283085
 42
0.7942312617
  0
ELLIPSE
  5
834
100
AcDbEntity
  8
0
100
AcDbEllipse
 62
7
  6
CONTINUOUS
 10
282.9455130904
 20
316.7464082742
 30
0.0
 11
0.0
 21
49.021457754
 31
0.0
 40
0.9791630482
 41
0.7633346268
 42
0.7881283085
  0
ELLIPSE
  5
835
100
AcDbEntity
  8
0
100
AcDbEllipse
 62
7
  6
CONTINUOUS
 10
282.9455130904
 20
334.4563614795
 30
0.0
 11
48.0
 21
0.0
 31
0.0
 40
0.510637263
 41
2.3086771521
 42
2.3341309536
  0
ELLIPSE
  5
836
100
AcDbEntity
  8
0
100
AcDbEllipse
 62
7
  6
CONTINUOUS
 10
282.9455130904
 20
343.5240026779
 30
0.0
 11
48.0
 21
-0.0
 31
0.0
 40
0.2553186315
 41
2.2824897211
 42
2.3086771521
  0
ELLIPSE
  5
837
100
AcDbEntity
  8
0
100
AcDbEllipse
 62
7
  6
CONTINUOUS
 10
282.9455130904
 20
348.3564177796
 30
0.0
 11
48.0
 21
-0.0
 31
0.0
 40
0.2042556244
 41
-2.5657004156
 42
-2.5396015411
  0
ELLIPSE
  5
838
100
AcDbEntity
  8
0
100
AcDbEllipse
 62
7
  6
CONTINUOUS
 10
282.9455130904
 20
356.3652355676
 30
0.0
 11
48.0
 21
0.0
 31
0.0
 40
0.5106373301
 41
-2.5862644772
 42
-2.5657004156
  0
ELLIPSE
  5
839
100
AcDbEntity
  8
0
100
AcDbEllipse
 62
7
  6
CONTINUOUS
 10
282.9455130904
 20
369.287910212
 30
0.0
 11
-0.0
 21
49.0214620455
 31
0.0
 40
0.9791629624
 41
-4.1773656099
 42
-4.157060804
  0
ELLIPSE
  5
83A
100
AcDbEntity
  8
0
100
AcDbEllipse
 62
7
  6
CONTINUOUS
 10
282.9455130904
 20
394.2814812522
 30
0.0
 11
-0.0
 21
98.0418106704
 31
0.0
 40
0.4895870412
 41
-4.1874265176
 42
-4.1773656099
  0
ELLIPSE
  5
83B
100
AcDbEntity
  8
0
100
AcDbEllipse
 62
7
  6
CONTINUOUS
 10
282.9455130904
 20
467.9892402473
 30
0.0
 11
-0.0
 21
245.110093843
 31
0.0
 40
0.1958303685
 41
-4.1924348729
 42
-4.1874265176
  0
ELLIPSE
  5
83C
100
AcDbEntity
  8
0
100
AcDbEllipse
 62
7
  6
CONTINUOUS
 10
282.9455130904
 20
336.9282540879
 30
0.0
 11
48.0
 21
0.0
 31
0.0
 40
0.2553186315
 41
2.4968322278
 42
2.5183812731
  0
ELLIPSE
  5
83D
100
AcDbEntity
  8
0
100
AcDbEllipse
 62
7
  6
CONTINUOUS
 10
282.9455130904
 20
324.6523474235
 30
0.0
 11
48.0
 21
0.0
 31
0.0
 40
0.6808512211
 41
2.480439013
 42
2.4968322278
  0
ELLIPSE
  5
83E
100
AcDbEntity
  8
0
100
AcDbEllipse
 62
7
  6
CONTINUOUS
 10
282.9455130904
 20
299.5684959081
 30
0.0
 11
0.0
 21
73.532186631
 31
0.0
 40
0.6527753654
 41
0.8985970389
 42
0.9096426862
  0
ELLIPSE
  5
83F
100
AcDbEntity
  8
0
100
AcDbEllipse
 62
7
  6
CONTINUOUS
 10
282.9455130904
 20
223.2547176311
 30
0.0
 11
0.0
 21
196.0835870088
 31
0.0
 40
0.2447935635
 41
0.893037663
 42
0.8985970389
  0
ELLIPSE
  5
840
100
AcDbEntity
  8
0
100
AcDbEllipse
 62
7
  6
CONTINUOUS
 10
282.9455130904
 20
344.9695165293
 30
0.0
 11
48.0
 21
0.0
 31
0.0
 40
0.3404254913
 41
2.9073737025
 42
2.9207391249
  0
ELLIPSE
  5
841
100
AcDbEntity
  8
0
100
AcDbEllipse
 62
7
  6
CONTINUOUS
 10
282.9455130904
 20
337.3847931823
 30
0.0
 11
0.0
 21
49.021457754
 31
0.0
 40
0.9791630482
 41
1.3276435459
 42
1.3365773757
  0
ELLIPSE
  5
842
100
AcDbEntity
  8
0
100
AcDbEllipse
 62
7
  6
CONTINUOUS
 10
282.9455130904
 20
313.78000802
 30
0.0
 11
0.0
 21
147.0626902566
 31
0.0
 40
0.3263914179
 41
1.3231691917
 42
1.3276435459
  0
ELLIPSE
  5
843
100
AcDbEntity
  8
0
100
AcDbEllipse
 62
7
  6
CONTINUOUS
 10
282.9455130904
 20
386.5096626985
 30
0.0
 11
0.0
 21
147.0626902566
 31
0.0
 40
0.3263914179
 41
-4.4692361995
 42
-4.4647618453
  0
ELLIPSE
  5
844
100
AcDbEntity
  8
0
100
AcDbEllipse
 62
7
  6
CONTINUOUS
 10
282.9455130904
 20
362.9048775363
 30
0.0
 11
-0.0
 21
49.021457754
 31
0.0
 40
0.9791630482
 41
-4.4781700293
 42
-4.4692361995
  0
ELLIPSE
  5
845
100
AcDbEntity
  8
0
100
AcDbEllipse
 62
7
  6
CONTINUOUS
 10
282.9455130904
 20
355.3201541893
 30
0.0
 11
48.0
 21
-0.0
 31
0.0
 40
0.3404254913
 41
-2.9207391249
 42
-2.9073737025
  0
ELLIPSE
  5
846
100
AcDbEntity
  8
0
100
AcDbEllipse
 62
7
  6
CONTINUOUS
 10
282.9455130904
 20
345.4342354349
 30
0.0
 11
-0.0
 21
245.104621089
 31
0.0
 40
0.195834741
 41
1.5468009521
 42
1.5511423003
  0
ELLIPSE
  5
847
100
AcDbEntity
  8
0
100
AcDbEllipse
 62
7
  6
CONTINUOUS
 10
282.9455130904
 20
350.1388762779
 30
0.0
 11
-0.0
 21
49.0213175023
 31
0.0
 40
0.9791658496
 41
1.529430364
 42
1.5468009521
  0
ELLIPSE
  5
848
100
AcDbEntity
  8
0
100
AcDbEllipse
 62
7
  6
CONTINUOUS
 10
282.9455130904
 20
351.152494145
 30
0.0
 11
48.0
 21
0.0
 31
0.0
 40
0.510638724
 41
3.0828436033
 42
3.1002266908
  0
ELLIPSE
  5
849
100
AcDbEntity
  8
0
100
AcDbEllipse
 62
7
  6
CONTINUOUS
 10
282.9455130904
 20
352.0159849719
 30
0.0
 11
48.0
 21
-0.0
 31
0.0
 40
0.204255139
 41
3.0610890601
 42
3.0828436033
  0
ELLIPSE
  5
84A
100
AcDbEntity
  8
0
100
AcDbEllipse
 62
7
  6
CONTINUOUS
 10
282.9455130904
 20
348.9984199488
 30
0.0
 11
0.0
 21
196.0836213408
 31
0.0
 40
0.2447935206
 41
-4.6927349539
 42
-4.6883936057
  0
ELLIPSE
  5
84B
100
AcDbEntity
  8
0
100
AcDbEllipse
 62
7
  6
CONTINUOUS
 10
282.9455130904
 20
345.4699435908
 30
0.0
 11
0.0
 21
49.0213217939
 31
0.0
 40
0.9791657639
 41
-4.6883936057
 42
-4.6710230175
  0
ELLIPSE
  5
84C
100
AcDbEntity
  8
0
100
AcDbEllipse
 62
7
  6
CONTINUOUS
 10
282.9455130904
 20
344.4563256793
 30
0.0
 11
48.0
 21
0.0
 31
0.0
 40
0.510638791
 41
-3.1002266908
 42
-3.0828436033
  0
ELLIPSE
  5
84D
100
AcDbEntity
  8
0
100
AcDbEllipse
 62
7
  6
CONTINUOUS
 10
282.9455130904
 20
343.5928347138
 30
0.0
 11
48.0
 21
0.0
 31
0.0
 40
0.2042551568
 41
-3.0828436033
 42
-3.0610890601
  0
ELLIPSE
  5
84E
100
AcDbEntity
  8
0
100
AcDbEllipse
 62
7
  6
CONTINUOUS
 10
282.9455130904
 20
388.2241348645
 30
0.0
 11
0.0
 21
48.510817569
 31
0.0
 40
0.9791630482
 41
-3.7314544229
 42
-3.7208091785
  0
ELLIPSE
  5
84F
100
AcDbEntity
  8
0
100
AcDbEllipse
 62
7
  6
CONTINUOUS
 10
282.9455130904
 20
368.0673484823
 30
0.0
 11
47.5
 21
-0.0
 31
0.0
 40
0.510637263
 41
-2.1914926275
 42
-2.1606580961
  0
ELLIPSE
  5
850
100
AcDbEntity
  8
0
100
AcDbEllipse
 62
7
  6
CONTINUOUS
 10
282.9455130904
 20
356.2287612725
 30
0.0
 11
47.5
 21
-0.0
 31
0.0
 40
0.2042556065
 41
-2.228261408
 42
-2.1914926275
  0
ELLIPSE
  5
851
100
AcDbEntity
  8
0
100
AcDbEllipse
 62
7
  6
CONTINUOUS
 10
282.9455130904
 20
325.197813203
 30
0.0
 11
47.5
 21
-0.0
 31
0.0
 40
0.2042552105
 41
-2.9696947059
 42
-2.9473917996
  0
ELLIPSE
  5
852
100
AcDbEntity
  8
0
100
AcDbEllipse
 62
7
  6
CONTINUOUS
 10
282.9455130904
 20
329.0701538519
 30
0.0
 11
47.5
 21
-0.0
 31
0.0
 40
0.6808509827
 41
-2.983034373
 42
-2.9696947059
  0
ELLIPSE
  5
853
100
AcDbEntity
  8
0
100
AcDbEllipse
 62
7
  6
CONTINUOUS
 10
282.9455130904
 20
346.9425851686
 30
0.0
 11
0.0
 21
145.5324866819
 31
0.0
 40
0.3263876065
 41
-4.5582708028
 42
-4.5538306997
  0
ELLIPSE
  5
854
100
AcDbEntity
  8
0
100
AcDbEllipse
 62
7
  6
CONTINUOUS
 10
282.9455130904
 20
405.4205737488
 30
0.0
 11
0.0
 21
64.6808433533
 31
0.0
 40
0.7343750875
 41
-3.7392935945
 42
-3.7208091785
  0
ELLIPSE
  5
855
100
AcDbEntity
  8
0
100
AcDbEllipse
 62
7
  6
CONTINUOUS
 10
282.9455130904
 20
332.332565786
 30
0.0
 11
47.5
 21
0.0
 31
0.0
 40
0.1702127457
 41
3.1415925382
 42
3.1503646875
  0
ELLIPSE
  5
856
100
AcDbEntity
  8
0
100
AcDbEllipse
 62
7
  6
CONTINUOUS
 10
282.9455130904
 20
382.0286042797
 30
0.0
 11
47.5
 21
0.0
 31
0.0
 40
0.7659558946
 41
-2.1989945801
 42
-2.1684972677
  0
ELLIPSE
  5
857
100
AcDbEntity
  8
0
100
AcDbEllipse
 62
7
  6
CONTINUOUS
 10
282.9455130904
 20
353.2550815999
 30
0.0
 11
47.5
 21
0.0
 31
0.0
 40
0.2553200925
 41
-2.3101379797
 42
-2.2837150794
  0
ELLIPSE
  5
858
100
AcDbEntity
  8
0
100
AcDbEllipse
 62
7
  6
CONTINUOUS
 10
282.9455130904
 20
380.1388835832
 30
0.0
 11
0.0
 21
48.5106438398
 31
0.0
 40
0.9791665548
 41
-3.9002586061
 42
-3.8809343065
  0
ELLIPSE
  5
859
100
AcDbEntity
  8
0
100
AcDbEllipse
 62
7
  6
CONTINUOUS
 10
282.9455130904
 20
450.5516814243
 30
0.0
 11
-0.0
 21
145.5307872331
 31
0.0
 40
0.3263914179
 41
-3.906612777
 42
-3.9002586061
  0
ELLIPSE
  5
85A
100
AcDbEntity
  8
0
100
AcDbEllipse
 62
7
  6
CONTINUOUS
 10
282.9455130904
 20
360.4415269342
 30
0.0
 11
47.5
 21
0.0
 31
0.0
 40
0.2042556065
 41
-2.2354054895
 42
-2.1989945801
  0
ELLIPSE
  5
85B
100
AcDbEntity
  8
0
100
AcDbEllipse
 62
7
  6
CONTINUOUS
 10
282.9455130904
 20
339.1539144406
 30
0.0
 11
48.0
 21
0.0
 31
0.0
 40
0.3404254913
 41
2.2824897211
 42
2.3022021818
  0
ELLIPSE
  5
85C
100
AcDbEntity
  8
0
100
AcDbEllipse
 62
7
  6
CONTINUOUS
 10
282.9455130904
 20
326.9927805975
 30
0.0
 11
48.0
 21
0.0
 31
0.0
 40
0.6808509827
 41
2.3022021818
 42
2.3214908025
  0
ELLIPSE
  5
85D
100
AcDbEntity
  8
0
100
AcDbEllipse
 62
7
  6
CONTINUOUS
 10
282.9455130904
 20
243.3549252267
 30
0.0
 11
0.0
 21
147.0628275846
 31
0.0
 40
0.3263911132
 41
0.7506944757
 42
0.7570356898
  0
ELLIPSE
  5
85E
100
AcDbEntity
  8
0
100
AcDbEllipse
 62
7
  6
CONTINUOUS
 10
282.9455130904
 20
456.7218791434
 30
0.0
 11
0.0
 21
147.0626902566
 31
0.0
 40
0.3263914179
 41
-3.8986283434
 42
-3.8922871293
  0
ELLIPSE
  5
85F
100
AcDbEntity
  8
0
100
AcDbEllipse
 62
7
  6
CONTINUOUS
 10
282.9455130904
 20
373.084124189
 30
0.0
 11
48.0
 21
0.0
 31
0.0
 40
0.6808509827
 41
-2.3214908025
 42
-2.3022021818
  0
ELLIPSE
  5
860
100
AcDbEntity
  8
0
100
AcDbEllipse
 62
7
  6
CONTINUOUS
 10
282.9455130904
 20
360.9229903459
 30
0.0
 11
48.0
 21
-0.0
 31
0.0
 40
0.3404254913
 41
-2.3022021818
 42
-2.2824897211
  0
ELLIPSE
  5
861
100
AcDbEntity
  8
0
100
AcDbEllipse
 62
7
  6
CONTINUOUS
 10
282.9455130904
 20
322.6162538431
 30
0.0
 11
47.5
 21
0.0
 31
0.0
 40
0.1702127606
 41
3.1328206196
 42
3.141592769
  0
ELLIPSE
  5
862
100
AcDbEntity
  8
0
100
AcDbEllipse
 62
7
  6
CONTINUOUS
 10
282.9455130904
 20
356.2287612725
 30
0.0
 11
48.0
 21
0.0
 31
0.0
 40
0.2042556065
 41
-2.2416381236
 42
-2.2059171854
  0
ELLIPSE
  5
863
100
AcDbEntity
  8
0
100
AcDbEllipse
 62
7
  6
CONTINUOUS
 10
282.9455130904
 20
368.0673484823
 30
0.0
 11
48.0
 21
-0.0
 31
0.0
 40
0.510637263
 41
-2.2059171854
 42
-2.1760441073
  0
ELLIPSE
  5
864
100
AcDbEntity
  8
0
100
AcDbEllipse
 62
7
  6
CONTINUOUS
 10
282.9455130904
 20
388.2241348645
 30
0.0
 11
0.0
 21
49.021457754
 31
0.0
 40
0.9791630482
 41
-3.7468404341
 42
-3.7156175675
  0
ELLIPSE
  5
865
100
AcDbEntity
  8
0
100
AcDbEllipse
 62
7
  6
CONTINUOUS
 10
282.9455130904
 20
429.387627341
 30
0.0
 11
-0.0
 21
98.0418278364
 31
0.0
 40
0.4895869555
 41
2.5675677396
 42
2.5691740815
  0
ELLIPSE
  5
866
100
AcDbEntity
  8
0
100
AcDbEllipse
 62
7
  6
CONTINUOUS
 10
282.9455130904
 20
261.9658876016
 30
0.0
 11
0.0
 21
98.0418106704
 31
0.0
 40
0.4895870412
 41
0.5724185721
 42
0.5740249139
  0
ELLIPSE
  5
867
100
AcDbEntity
  8
0
100
AcDbEllipse
 62
7
  6
CONTINUOUS
 10
282.9455130904
 20
303.1293620598
 30
0.0
 11
-0.0
 21
49.0214620455
 31
0.0
 40
0.9791629624
 41
0.5740249139
 42
0.6052477805
  0
ELLIPSE
  5
868
100
AcDbEntity
  8
0
100
AcDbEllipse
 62
7
  6
CONTINUOUS
 10
282.9455130904
 20
323.2861493243
 30
0.0
 11
48.0
 21
-0.0
 31
0.0
 40
0.5106373301
 41
2.1760441073
 42
2.2059171854
  0
ELLIPSE
  5
869
100
AcDbEntity
  8
0
100
AcDbEllipse
 62
7
  6
CONTINUOUS
 10
282.9455130904
 20
335.1247384342
 30
0.0
 11
48.0
 21
0.0
 31
0.0
 40
0.2042556244
 41
2.2059171854
 42
2.2416381236
  0
ELLIPSE
  5
86A
100
AcDbEntity
  8
0
100
AcDbEllipse
 62
7
  6
CONTINUOUS
 10
282.9455130904
 20
360.9229903459
 30
0.0
 11
47.5
 21
0.0
 31
0.0
 40
0.3404254913
 41
-2.2903951342
 42
-2.2701970671
  0
ELLIPSE
  5
86B
100
AcDbEntity
  8
0
100
AcDbEllipse
 62
7
  6
CONTINUOUS
 10
282.9455130904
 20
373.084124189
 30
0.0
 11
47.5
 21
-0.0
 31
0.0
 40
0.6808509827
 41
-2.3101379797
 42
-2.2903951342
  0
ELLIPSE
  5
86C
100
AcDbEntity
  8
0
100
AcDbEllipse
 62
7
  6
CONTINUOUS
 10
282.9455130904
 20
450.5516814243
 30
0.0
 11
0.0
 21
147.0626902566
 31
0.0
 40
0.3263914179
 41
-3.917402458
 42
-3.911184877
  0
ELLIPSE
  5
86D
100
AcDbEntity
  8
0
100
AcDbEllipse
 62
7
  6
CONTINUOUS
 10
282.9455130904
 20
380.1388835832
 30
0.0
 11
0.0
 21
49.021282196
 31
0.0
 40
0.9791665548
 41
-3.911184877
 42
-3.8922871293
  0
ELLIPSE
  5
86E
100
AcDbEntity
  8
0
100
AcDbEllipse
 62
7
  6
CONTINUOUS
 10
282.9455130904
 20
353.2550815999
 30
0.0
 11
48.0
 21
0.0
 31
0.0
 40
0.2553200925
 41
-2.3214908025
 42
-2.295680304
  0
ELLIPSE
  5
86F
100
AcDbEntity
  8
0
100
AcDbEllipse
 62
7
  6
CONTINUOUS
 10
282.9455130904
 20
375.5769607746
 30
0.0
 11
48.0
 21
0.0
 31
0.0
 40
0.204255139
 41
-2.8813741901
 42
-2.8543245345
  0
ELLIPSE
  5
870
100
AcDbEntity
  8
0
100
AcDbEllipse
 62
7
  6
CONTINUOUS
 10
282.9455130904
 20
358.5318586213
 30
0.0
 11
47.5
 21
-0.0
 31
0.0
 40
0.2042551568
 41
2.8512132042
 42
2.8785704507
  0
ELLIPSE
  5
871
100
AcDbEntity
  8
0
100
AcDbEllipse
 62
7
  6
CONTINUOUS
 10
282.9455130904
 20
354.3650409041
 30
0.0
 11
47.5
 21
0.0
 31
0.0
 40
0.510638791
 41
2.8291663138
 42
2.8512132042
  0
ELLIPSE
  5
872
100
AcDbEntity
  8
0
100
AcDbEllipse
 62
7
  6
CONTINUOUS
 10
282.9455130904
 20
346.9097152076
 30
0.0
 11
0.0
 21
48.5106830252
 31
0.0
 40
0.9791657639
 41
1.2361649325
 42
1.258369987
  0
ELLIPSE
  5
873
100
AcDbEntity
  8
0
100
AcDbEllipse
 62
7
  6
CONTINUOUS
 10
282.9455130904
 20
330.9778749721
 30
0.0
 11
0.0
 21
97.0210969642
 31
0.0
 40
0.4895842398
 41
1.2249985174
 42
1.2361649325
  0
ELLIPSE
  5
874
100
AcDbEntity
  8
0
100
AcDbEllipse
 62
7
  6
CONTINUOUS
 10
282.9455130904
 20
281.6498506946
 30
0.0
 11
0.0
 21
242.5540878452
 31
0.0
 40
0.1958326096
 41
1.2193985491
 42
1.2249985174
  0
ELLIPSE
  5
875
100
AcDbEntity
  8
0
100
AcDbEllipse
 62
7
  6
CONTINUOUS
 10
282.9455130904
 20
452.4590153424
 30
0.0
 11
-0.0
 21
242.5542237443
 31
0.0
 40
0.1958324999
 41
-4.3665911709
 42
-4.3609912027
  0
ELLIPSE
  5
876
100
AcDbEntity
  8
0
100
AcDbEllipse
 62
7
  6
CONTINUOUS
 10
282.9455130904
 20
403.1309392444
 30
0.0
 11
-0.0
 21
97.0210799769
 31
0.0
 40
0.4895843255
 41
-4.3777575861
 42
-4.3665911709
  0
ELLIPSE
  5
877
100
AcDbEntity
  8
0
100
AcDbEllipse
 62
7
  6
CONTINUOUS
 10
282.9455130904
 20
387.1991031931
 30
0.0
 11
0.0
 21
48.5106787783
 31
0.0
 40
0.9791658496
 41
-4.3999626406
 42
-4.3777575861
  0
ELLIPSE
  5
878
100
AcDbEntity
  8
0
100
AcDbEllipse
 62
7
  6
CONTINUOUS
 10
282.9455130904
 20
379.743777823
 30
0.0
 11
47.5
 21
0.0
 31
0.0
 40
0.510638724
 41
-2.8512132042
 42
-2.8291663138
  0
ELLIPSE
  5
879
100
AcDbEntity
  8
0
100
AcDbEllipse
 62
7
  6
CONTINUOUS
 10
282.9455130904
 20
375.5769607746
 30
0.0
 11
47.5
 21
0.0
 31
0.0
 40
0.204255139
 41
-2.8785704507
 42
-2.8512132042
  0
ELLIPSE
  5
87A
100
AcDbEntity
  8
0
100
AcDbEllipse
 62
7
  6
CONTINUOUS
 10
282.9455130904
 20
390.3394202573
 30
0.0
 11
0.0
 21
145.5307872331
 31
0.0
 40
0.3263914179
 41
-4.4393968136
 42
-4.4361787167
  0
ELLIPSE
  5
87B
100
AcDbEntity
  8
0
100
AcDbEllipse
 62
7
  6
CONTINUOUS
 10
282.9455130904
 20
368.5411433567
 30
0.0
 11
0.0
 21
64.6808433533
 31
0.0
 40
0.7343750875
 41
-4.4530350874
 42
-4.4393968136
  0
ELLIPSE
  5
87C
100
AcDbEntity
  8
0
100
AcDbEllipse
 62
7
  6
CONTINUOUS
 10
282.9455130904
 20
361.2840176418
 30
0.0
 11
47.5
 21
-0.0
 31
0.0
 40
0.7659602774
 41
-2.9003470805
 42
-2.8822387606
  0
ELLIPSE
  5
87D
100
AcDbEntity
  8
0
100
AcDbEllipse
 62
7
  6
CONTINUOUS
 10
282.9455130904
 20
354.9095942976
 30
0.0
 11
47.5
 21
-0.0
 31
0.0
 40
0.2042546715
 41
-2.9228704749
 42
-2.9003470805
  0
ELLIPSE
  5
87E
100
AcDbEntity
  8
0
100
AcDbEllipse
 62
7
  6
CONTINUOUS
 10
282.9455130904
 20
379.743777823
 30
0.0
 11
48.0
 21
0.0
 31
0.0
 40
0.510638724
 41
-2.8543245345
 42
-2.8325291281
  0
ELLIPSE
  5
87F
100
AcDbEntity
  8
0
100
AcDbEllipse
 62
7
  6
CONTINUOUS
 10
282.9455130904
 20
387.1991031931
 30
0.0
 11
-0.0
 21
49.0213175023
 31
0.0
 40
0.9791658496
 41
-4.4033254549
 42
-4.3813772733
  0
ELLIPSE
  5
880
100
AcDbEntity
  8
0
100
AcDbEllipse
 62
7
  6
CONTINUOUS
 10
282.9455130904
 20
345.1673104889
 30
0.0
 11
47.5
 21
0.0
 31
0.0
 40
0.2042546715
 41
2.9003470805
 42
2.9228704749
  0
ELLIPSE
  5
881
100
AcDbEntity
  8
0
100
AcDbEllipse
 62
7
  6
CONTINUOUS
 10
282.9455130904
 20
338.7928871447
 30
0.0
 11
47.5
 21
0.0
 31
0.0
 40
0.7659602774
 41
2.8822387606
 42
2.9003470805
  0
ELLIPSE
  5
882
100
AcDbEntity
  8
0
100
AcDbEllipse
 62
7
  6
CONTINUOUS
 10
282.9455130904
 20
331.5357614298
 30
0.0
 11
0.0
 21
64.6808433533
 31
0.0
 40
0.7343750875
 41
1.29780416
 42
1.3114424339
  0
ELLIPSE
  5
883
100
AcDbEntity
  8
0
100
AcDbEllipse
 62
7
  6
CONTINUOUS
 10
282.9455130904
 20
309.7374845292
 30
0.0
 11
-0.0
 21
145.5307872331
 31
0.0
 40
0.3263914179
 41
1.2945860631
 42
1.29780416
  0
ELLIPSE
  5
884
100
AcDbEntity
  8
0
100
AcDbEllipse
 62
7
  6
CONTINUOUS
 10
282.9455130904
 20
403.1309392444
 30
0.0
 11
-0.0
 21
98.042354503
 31
0.0
 40
0.4895843255
 41
-4.3813772733
 42
-4.3703414966
  0
ELLIPSE
  5
885
100
AcDbEntity
  8
0
100
AcDbEllipse
 62
7
  6
CONTINUOUS
 10
282.9455130904
 20
360.4415269342
 30
0.0
 11
48.0
 21
-0.0
 31
0.0
 40
0.2042556065
 41
-2.2485897044
 42
-2.2131971464
  0
ELLIPSE
  5
886
100
AcDbEntity
  8
0
100
AcDbEllipse
 62
7
  6
CONTINUOUS
 10
282.9455130904
 20
382.0286042797
 30
0.0
 11
48.0
 21
-0.0
 31
0.0
 40
0.7659558946
 41
-2.2131971464
 42
-2.1836310027
  0
ELLIPSE
  5
887
100
AcDbEntity
  8
0
100
AcDbEllipse
 62
7
  6
CONTINUOUS
 10
282.9455130904
 20
405.4205737488
 30
0.0
 11
-0.0
 21
65.3616943359
 31
0.0
 40
0.7343750875
 41
-3.7544273295
 42
-3.7314111145
  0
ELLIPSE
  5
888
100
AcDbEntity
  8
0
100
AcDbEllipse
 62
7
  6
CONTINUOUS
 10
282.9455130904
 20
452.4590153424
 30
0.0
 11
-0.0
 21
245.1074260995
 31
0.0
 40
0.1958324999
 41
-4.3703414966
 42
-4.3648074313
  0
ELLIPSE
  5
889
100
AcDbEntity
  8
0
100
AcDbEllipse
 62
7
  6
CONTINUOUS
 10
282.9455130904
 20
473.317505567
 30
0.0
 11
0.0
 21
147.0626902566
 31
0.0
 40
0.3263914179
 41
-3.7314111145
 42
-3.7235616399
  0
ELLIPSE
  5
88A
100
AcDbEntity
  8
0
100
AcDbEllipse
 62
7
  6
CONTINUOUS
 10
282.9455130904
 20
281.6498506946
 30
0.0
 11
0.0
 21
245.1072887699
 31
0.0
 40
0.1958326096
 41
1.2232147777
 42
1.228748843
  0
ELLIPSE
  5
88B
100
AcDbEntity
  8
0
100
AcDbEllipse
 62
7
  6
CONTINUOUS
 10
282.9455130904
 20
186.1333015194
 30
0.0
 11
0.0
 21
245.104483761
 31
0.0
 40
0.1958348508
 41
0.8591382312
 42
0.8648556146
  0
ELLIPSE
  5
88C
100
AcDbEntity
  8
0
100
AcDbEllipse
 62
7
  6
CONTINUOUS
 10
282.9455130904
 20
281.5394827869
 30
0.0
 11
0.0
 21
98.0429326742
 31
0.0
 40
0.4895814384
 41
0.8648556146
 42
0.8762076363
  0
ELLIPSE
  5
88D
100
AcDbEntity
  8
0
100
AcDbEllipse
 62
7
  6
CONTINUOUS
 10
282.9455130904
 20
330.9778749721
 30
0.0
 11
0.0
 21
98.0423716691
 31
0.0
 40
0.4895842398
 41
1.228748843
 42
1.2397846197
  0
ELLIPSE
  5
88E
100
AcDbEntity
  8
0
100
AcDbEllipse
 62
7
  6
CONTINUOUS
 10
282.9455130904
 20
312.9168094224
 30
0.0
 11
-0.0
 21
49.021181543
 31
0.0
 40
0.9791685653
 41
0.8762076363
 42
0.8985970389
  0
ELLIPSE
  5
88F
100
AcDbEntity
  8
0
100
AcDbEllipse
 62
7
  6
CONTINUOUS
 10
282.9455130904
 20
328.1797578827
 30
0.0
 11
48.0
 21
0.0
 31
0.0
 40
0.5106373301
 41
2.4693933657
 42
2.4913906702
  0
ELLIPSE
  5
890
100
AcDbEntity
  8
0
100
AcDbEllipse
 62
7
  6
CONTINUOUS
 10
282.9455130904
 20
337.0821884922
 30
0.0
 11
48.0
 21
0.0
 31
0.0
 40
0.2042556244
 41
2.4913906702
 42
2.5183812731
  0
ELLIPSE
  5
891
100
AcDbEntity
  8
0
100
AcDbEllipse
 62
7
  6
CONTINUOUS
 10
282.9455130904
 20
346.9097152076
 30
0.0
 11
0.0
 21
49.0213217939
 31
0.0
 40
0.9791657639
 41
1.2397846197
 42
1.2617328013
  0
ELLIPSE
  5
892
100
AcDbEntity
  8
0
100
AcDbEllipse
 62
7
  6
CONTINUOUS
 10
282.9455130904
 20
354.3650409041
 30
0.0
 11
48.0
 21
0.0
 31
0.0
 40
0.510638791
 41
2.8325291281
 42
2.8543245345
  0
ELLIPSE
  5
893
100
AcDbEntity
  8
0
100
AcDbEllipse
 62
7
  6
CONTINUOUS
 10
282.9455130904
 20
456.7218791434
 30
0.0
 11
-0.0
 21
145.5307872331
 31
0.0
 40
0.3263914179
 41
-3.8874206153
 42
-3.8809343065
  0
ELLIPSE
  5
894
100
AcDbEntity
  8
0
100
AcDbEllipse
 62
7
  6
CONTINUOUS
 10
282.9455130904
 20
351.0210307908
 30
0.0
 11
47.5
 21
-0.0
 31
0.0
 40
0.2553200925
 41
3.72959717
 42
3.7501025688
  0
ELLIPSE
  5
895
100
AcDbEntity
  8
0
100
AcDbEllipse
 62
7
  6
CONTINUOUS
 10
282.9455130904
 20
362.2330674877
 30
0.0
 11
47.5
 21
-0.0
 31
0.0
 40
0.6808512211
 41
-2.5693201304
 42
-2.5535881371
  0
ELLIPSE
  5
896
100
AcDbEntity
  8
0
100
AcDbEllipse
 62
7
  6
CONTINUOUS
 10
282.9455130904
 20
384.124958038
 30
0.0
 11
0.0
 21
72.7653936165
 31
0.0
 40
0.6527828359
 41
-4.1505163086
 42
-4.1401164572
  0
ELLIPSE
  5
897
100
AcDbEntity
  8
0
100
AcDbEllipse
 62
7
  6
CONTINUOUS
 10
282.9455130904
 20
448.7395854902
 30
0.0
 11
-0.0
 21
194.045490959
 31
0.0
 40
0.2447879606
 41
-4.1556905946
 42
-4.1505163086
  0
ELLIPSE
  5
898
100
AcDbEntity
  8
0
100
AcDbEllipse
 62
7
  6
CONTINUOUS
 10
282.9455130904
 20
346.9425851686
 30
0.0
 11
0.0
 21
147.0644075943
 31
0.0
 40
0.3263876065
 41
-4.5598888305
 42
-4.5554961094
  0
ELLIPSE
  5
899
100
AcDbEntity
  8
0
100
AcDbEllipse
 62
7
  6
CONTINUOUS
 10
282.9455130904
 20
329.0701538519
 30
0.0
 11
48.0
 21
0.0
 31
0.0
 40
0.6808509827
 41
-2.9846997826
 42
-2.9715028745
  0
ELLIPSE
  5
89A
100
AcDbEntity
  8
0
100
AcDbEllipse
 62
7
  6
CONTINUOUS
 10
282.9455130904
 20
325.197813203
 30
0.0
 11
48.0
 21
-0.0
 31
0.0
 40
0.2042552105
 41
-2.9715028745
 42
-2.9494401344
  0
ELLIPSE
  5
89B
100
AcDbEntity
  8
0
100
AcDbEllipse
 62
7
  6
CONTINUOUS
 10
282.9455130904
 20
358.5318586213
 30
0.0
 11
48.0
 21
-0.0
 31
0.0
 40
0.2042551568
 41
2.8543245345
 42
2.8813741901
  0
ELLIPSE
  5
89C
100
AcDbEntity
  8
0
100
AcDbEllipse
 62
7
  6
CONTINUOUS
 10
282.9455130904
 20
337.0821884922
 30
0.0
 11
47.5
 21
-0.0
 31
0.0
 40
0.2042556244
 41
2.4833605568
 42
2.5107945329
  0
ELLIPSE
  5
89D
100
AcDbEntity
  8
0
100
AcDbEllipse
 62
7
  6
CONTINUOUS
 10
282.9455130904
 20
328.1797578827
 30
0.0
 11
47.5
 21
0.0
 31
0.0
 40
0.5106373301
 41
2.4609878884
 42
2.4833605568
  0
ELLIPSE
  5
89E
100
AcDbEntity
  8
0
100
AcDbEllipse
 62
7
  6
CONTINUOUS
 10
282.9455130904
 20
312.9168094224
 30
0.0
 11
0.0
 21
48.5105442353
 31
0.0
 40
0.9791685653
 41
0.8674059919
 42
0.8901915616
  0
ELLIPSE
  5
89F
100
AcDbEntity
  8
0
100
AcDbEllipse
 62
7
  6
CONTINUOUS
 10
282.9455130904
 20
281.5394827869
 30
0.0
 11
0.0
 21
97.0216521255
 31
0.0
 40
0.4895814384
 41
0.8558472721
 42
0.8674059919
  0
ELLIPSE
  5
8A0
100
AcDbEntity
  8
0
100
AcDbEllipse
 62
7
  6
CONTINUOUS
 10
282.9455130904
 20
186.1333015194
 30
0.0
 11
0.0
 21
242.5513120551
 31
0.0
 40
0.1958348508
 41
0.8500242252
 42
0.8558472721
  0
ELLIPSE
  5
8A1
100
AcDbEntity
  8
0
100
AcDbEllipse
 62
7
  6
CONTINUOUS
 10
282.9455130904
 20
335.1247384342
 30
0.0
 11
47.5
 21
0.0
 31
0.0
 40
0.2042556244
 41
2.1914926275
 42
2.228261408
  0
ELLIPSE
  5
8A2
100
AcDbEntity
  8
0
100
AcDbEllipse
 62
7
  6
CONTINUOUS
 10
282.9455130904
 20
448.7395854902
 30
0.0
 11
-0.0
 21
196.0880750744
 31
0.0
 40
0.2447879606
 41
-4.1621605268
 42
-4.157060804
  0
ELLIPSE
  5
8A3
100
AcDbEntity
  8
0
100
AcDbEllipse
 62
7
  6
CONTINUOUS
 10
282.9455130904
 20
384.124958038
 30
0.0
 11
-0.0
 21
73.5313451283
 31
0.0
 40
0.6527828359
 41
-4.157060804
 42
-4.1468122689
  0
ELLIPSE
  5
8A4
100
AcDbEntity
  8
0
100
AcDbEllipse
 62
7
  6
CONTINUOUS
 10
282.9455130904
 20
362.2330674877
 30
0.0
 11
48.0
 21
0.0
 31
0.0
 40
0.6808512211
 41
-2.5760159421
 42
-2.5605166643
  0
ELLIPSE
  5
8A5
100
AcDbEntity
  8
0
100
AcDbEllipse
 62
7
  6
CONTINUOUS
 10
282.9455130904
 20
351.0210307908
 30
0.0
 11
48.0
 21
0.0
 31
0.0
 40
0.2553200925
 41
-2.5605166643
 42
-2.5396015411
  0
ELLIPSE
  5
8A6
100
AcDbEntity
  8
0
100
AcDbEllipse
 62
7
  6
CONTINUOUS
 10
282.9455130904
 20
323.2861493243
 30
0.0
 11
47.5
 21
-0.0
 31
0.0
 40
0.5106373301
 41
2.1606580961
 42
2.1914926275
  0
ELLIPSE
  5
8A7
100
AcDbEntity
  8
0
100
AcDbEllipse
 62
7
  6
CONTINUOUS
 10
282.9455130904
 20
303.1293620598
 30
0.0
 11
0.0
 21
48.5108218159
 31
0.0
 40
0.9791629624
 41
0.579216525
 42
0.5898617693
  0
ELLIPSE
  5
8A8
100
AcDbEntity
  8
0
100
AcDbEllipse
 62
7
  6
CONTINUOUS
 10
282.9455130904
 20
342.926792685
 30
0.0
 11
0.0
 21
245.1058862574
 31
0.0
 40
0.1958337302
 41
1.4800468072
 42
1.4852754509
  0
ELLIPSE
  5
8A9
100
AcDbEntity
  8
0
100
AcDbEllipse
 62
7
  6
CONTINUOUS
 10
282.9455130904
 20
355.4884439299
 30
0.0
 11
0.0
 21
98.0426521708
 31
0.0
 40
0.4895828391
 41
1.4852754509
 42
1.4957258258
  0
ELLIPSE
  5
8AA
100
AcDbEntity
  8
0
100
AcDbEllipse
 62
7
  6
CONTINUOUS
 10
282.9455130904
 20
359.1650494546
 30
0.0
 11
0.0
 21
49.0212516683
 31
0.0
 40
0.9791671646
 41
1.4957258258
 42
1.5166031373
  0
ELLIPSE
  5
8AB
100
AcDbEntity
  8
0
100
AcDbEllipse
 62
7
  6
CONTINUOUS
 10
282.9455130904
 20
360.4927082958
 30
0.0
 11
48.0
 21
-0.0
 31
0.0
 40
0.5106380606
 41
3.0873994641
 42
3.1082531543
  0
ELLIPSE
  5
8AC
100
AcDbEntity
  8
0
100
AcDbEllipse
 62
7
  6
CONTINUOUS
 10
282.9455130904
 20
243.3549252267
 30
0.0
 11
0.0
 21
145.5309231306
 31
0.0
 40
0.3263911132
 41
0.7393416529
 42
0.7458279617
  0
ELLIPSE
  5
8AD
100
AcDbEntity
  8
0
100
AcDbEllipse
 62
7
  6
CONTINUOUS
 10
282.9455130904
 20
360.9829204216
 30
0.0
 11
48.0
 21
0.0
 31
0.0
 40
0.2042553906
 41
3.1082531543
 42
3.1343009223
  0
ELLIPSE
  5
8AE
100
AcDbEntity
  8
0
100
AcDbEllipse
 62
7
  6
CONTINUOUS
 10
282.9455130904
 20
326.9927805975
 30
0.0
 11
47.5
 21
-0.0
 31
0.0
 40
0.6808509827
 41
2.2903951342
 42
2.3101379797
  0
ELLIPSE
  5
8AF
100
AcDbEntity
  8
0
100
AcDbEllipse
 62
7
  6
CONTINUOUS
 10
282.9455130904
 20
339.1539144406
 30
0.0
 11
47.5
 21
-0.0
 31
0.0
 40
0.3404254913
 41
2.2701970671
 42
2.2903951342
  0
ELLIPSE
  5
8B0
100
AcDbEntity
  8
0
100
AcDbEllipse
 62
7
  6
CONTINUOUS
 10
282.9455130904
 20
332.5169625565
 30
0.0
 11
48.0
 21
-0.0
 31
0.0
 40
0.6127654169
 41
-3.1329119973
 42
-3.1112060248
  0
ELLIPSE
  5
8B1
100
AcDbEntity
  8
0
100
AcDbEllipse
 62
7
  6
CONTINUOUS
 10
282.9455130904
 20
333.1127080104
 30
0.0
 11
0.0
 21
49.021270752
 31
0.0
 40
0.9791667834
 41
-4.6820023516
 42
-4.6689725557
  0
ELLIPSE
  5
8B2
100
AcDbEntity
  8
0
100
AcDbEllipse
 62
7
  6
CONTINUOUS
 10
282.9455130904
 20
335.2403717953
 30
0.0
 11
-0.0
 21
98.0426350046
 31
0.0
 40
0.4895829248
 41
-4.6689725557
 42
-4.6602820707
  0
ELLIPSE
  5
8B3
100
AcDbEntity
  8
0
100
AcDbEllipse
 62
7
  6
CONTINUOUS
 10
282.9455130904
 20
309.7374845292
 30
0.0
 11
0.0
 21
147.0626902566
 31
0.0
 40
0.3263914179
 41
1.2962130657
 42
1.3007194553
  0
ELLIPSE
  5
8B4
100
AcDbEntity
  8
0
100
AcDbEllipse
 62
7
  6
CONTINUOUS
 10
282.9455130904
 20
331.5357614298
 30
0.0
 11
0.0
 21
65.3616943359
 31
0.0
 40
0.7343750875
 41
1.3007194553
 42
1.3142052771
  0
ELLIPSE
  5
8B5
100
AcDbEntity
  8
0
100
AcDbEllipse
 62
7
  6
CONTINUOUS
 10
282.9455130904
 20
338.7928871447
 30
0.0
 11
48.0
 21
0.0
 31
0.0
 40
0.7659602774
 41
2.8850016039
 42
2.902909164
  0
ELLIPSE
  5
8B6
100
AcDbEntity
  8
0
100
AcDbEllipse
 62
7
  6
CONTINUOUS
 10
282.9455130904
 20
345.1673104889
 30
0.0
 11
48.0
 21
-0.0
 31
0.0
 40
0.2042546715
 41
2.902909164
 42
2.9251852782
  0
ELLIPSE
  5
8B7
100
AcDbEntity
  8
0
100
AcDbEllipse
 62
7
  6
CONTINUOUS
 10
282.9455130904
 20
337.7935506535
 30
0.0
 11
-0.0
 21
147.0636690833
 31
0.0
 40
0.3263892456
 41
-4.6602820707
 42
-4.6559353794
  0
ELLIPSE
  5
8B8
100
AcDbEntity
  8
0
100
AcDbEllipse
 62
7
  6
CONTINUOUS
 10
282.9455130904
 20
343.3255265343
 30
0.0
 11
-0.0
 21
245.1072887699
 31
0.0
 40
0.1958326096
 41
-4.6559353794
 42
-4.6515876449
  0
ELLIPSE
  5
8B9
100
AcDbEntity
  8
0
100
AcDbEllipse
 62
7
  6
CONTINUOUS
 10
282.9455130904
 20
322.4318570565
 30
0.0
 11
47.5
 21
-0.0
 31
0.0
 40
0.6127654705
 41
3.1186113928
 42
3.1328206196
  0
ELLIPSE
  5
8BA
100
AcDbEntity
  8
0
100
AcDbEllipse
 62
7
  6
CONTINUOUS
 10
282.9455130904
 20
333.1127080104
 30
0.0
 11
0.0
 21
48.510632515
 31
0.0
 40
0.9791667834
 41
-4.6816823923
 42
-4.6685152488
  0
ELLIPSE
  5
8BB
100
AcDbEntity
  8
0
100
AcDbEllipse
 62
7
  6
CONTINUOUS
 10
282.9455130904
 20
354.9095942976
 30
0.0
 11
48.0
 21
0.0
 31
0.0
 40
0.2042546715
 41
-2.9251852782
 42
-2.902909164
  0
ELLIPSE
  5
8BC
100
AcDbEntity
  8
0
100
AcDbEllipse
 62
7
  6
CONTINUOUS
 10
282.9455130904
 20
361.2840176418
 30
0.0
 11
48.0
 21
-0.0
 31
0.0
 40
0.7659602774
 41
-2.902909164
 42
-2.8850016039
  0
ELLIPSE
  5
8BD
100
AcDbEntity
  8
0
100
AcDbEllipse
 62
7
  6
CONTINUOUS
 10
282.9455130904
 20
368.5411433567
 30
0.0
 11
-0.0
 21
65.3616943359
 31
0.0
 40
0.7343750875
 41
-4.4557979307
 42
-4.4423121089
  0
ELLIPSE
  5
8BE
100
AcDbEntity
  8
0
100
AcDbEllipse
 62
7
  6
CONTINUOUS
 10
282.9455130904
 20
390.3394202573
 30
0.0
 11
0.0
 21
147.0626902566
 31
0.0
 40
0.3263914179
 41
-4.4423121089
 42
-4.4378057193
  0
ELLIPSE
  5
8BF
100
AcDbEntity
  8
0
100
AcDbEllipse
 62
7
  6
CONTINUOUS
 10
282.9455130904
 20
332.5169625565
 30
0.0
 11
47.5
 21
0.0
 31
0.0
 40
0.6127654169
 41
-3.1328206196
 42
-3.1108860656
  0
ELLIPSE
  5
8C0
100
AcDbEntity
  8
0
100
AcDbEllipse
 62
7
  6
CONTINUOUS
 10
282.9455130904
 20
311.6232889101
 30
0.0
 11
0.0
 21
245.1073574347
 31
0.0
 40
0.1958325548
 41
1.5099949914
 42
1.5143427258
  0
ELLIPSE
  5
8C1
100
AcDbEntity
  8
0
100
AcDbEllipse
 62
7
  6
CONTINUOUS
 10
282.9455130904
 20
317.1552764137
 30
0.0
 11
-0.0
 21
147.0635317544
 31
0.0
 40
0.3263895503
 41
1.5143427258
 42
1.5186894172
  0
ELLIPSE
  5
8C2
100
AcDbEntity
  8
0
100
AcDbEllipse
 62
7
  6
CONTINUOUS
 10
282.9455130904
 20
319.7084472254
 30
0.0
 11
0.0
 21
98.0426521708
 31
0.0
 40
0.4895828391
 41
1.5186894172
 42
1.5273799021
  0
ELLIPSE
  5
8C3
100
AcDbEntity
  8
0
100
AcDbEllipse
 62
7
  6
CONTINUOUS
 10
282.9455130904
 20
321.8361115069
 30
0.0
 11
0.0
 21
49.021276474
 31
0.0
 40
0.9791666691
 41
1.5273799021
 42
1.5404096981
  0
ELLIPSE
  5
8C4
100
AcDbEntity
  8
0
100
AcDbEllipse
 62
7
  6
CONTINUOUS
 10
282.9455130904
 20
322.4318570565
 30
0.0
 11
48.0
 21
0.0
 31
0.0
 40
0.6127654705
 41
3.1112060248
 42
3.1329119973
  0
ENDSEC
  0
SECTION
  2
OBJECTS
  0
DICTIONARY
  5
C
100
AcDbDictionary
280
0
281
1
  3
ACAD_GROUP
350
D
  3
ACAD_MLINESTYLE
350
17
  3
ACAD_LAYOUT
350
1A
  3
ACAD_PLOTSETTINGS
350
19
  3
ACAD_PLOTSTYLENAME
350
E
  0
DICTIONARY
  5
D
102
{ACAD_REACTORS
330
C
102
}
100
AcDbDictionary
280
0
281
1
  0
ACDBDICTIONARYWDFLT
  5
E
102
{ACAD_REACTORS
330
C
102
}
100
AcDbDictionary
281
1
  3
Normal
350
F
100
AcDbDictionaryWithDefault
340
F
  0
DICTIONARY
  5
17
102
{ACAD_REACTORS
330
C
102
}
100
AcDbDictionary
280
0
281
1
  3
Standard
350
18
  0
DICTIONARY
  5
19
102
{ACAD_REACTORS
330
C
102
}
100
AcDbDictionary
281
1
  0
DICTIONARY
  5
1A
102
{ACAD_REACTORS
330
C
102
}
100
AcDbDictionary
281
1
  3
Model
350
8C5
  3
Layout1
350
8C6
  0
ACDBPLACEHOLDER
  5
F
102
{ACAD_REACTORS
330
E
102
}
  0
MLINESTYLE
  5
18
102
{ACAD_REACTORS
330
17
102
}
100
AcDbMlineStyle
  2
STANDARD
 70
0
  3

 62
256
 51
90.0
 52
90.0
 71
2
 49
0.5
 62
256
  6
BYLAYER
 49
-0.5
 62
256
  6
BYLAYER
  0
LAYOUT
  5
8C5
102
{ACAD_REACTORS
330
1A
102
}
100
AcDbPlotSettings
  1

  2
none_device
  4
ISO_A1_(594.00_x_841.00_MM)
  6

 40
0.0
 41
0.0
 42
0.0
 43
0.0
 44
841.0
 45
594.0
 46
0.0
 47
0.0
 48
0.0
 49
0.0
140
0.0
141
0.0
142
1.0
143
1.0
 70
1024
 72
1
 73
0
 74
0
  7

 75
0
147
1.0
148
0.0
149
0.0
100
AcDbLayout
  1
Model
 70
0
 71
0
 10
0.0
 20
0.0
 11
841.0
 21
594.0
 12
0.0
 22
0.0
 32
0.0
 14
0.0
 24
0.0
 34
0.0
 15
0.0
 25
0.0
 35
0.0
146
0.0
 13
0.0
 23
0.0
 33
0.0
 16
1.0
 26
0.0
 36
0.0
 17
0.0
 27
1.0
 37
0.0
 76
0
330
212
345
0
346
0
  0
LAYOUT
  5
8C6
102
{ACAD_REACTORS
330
1A
102
}
100
AcDbPlotSettings
  1

  2
none_device
  4
ISO_A1_(594.00_x_841.00_MM)
  6

 40
0.0
 41
0.0
 42
0.0
 43
0.0
 44
841.0
 45
594.0
 46
0.0
 47
0.0
 48
0.0
 49
0.0
140
0.0
141
0.0
142
1.0
143
1.0
 70
0
 72
1
 73
0
 74
0
  7

 75
0
147
1.0
148
0.0
149
0.0
100
AcDbLayout
  1
Layout1
 70
0
 71
1
 10
0.0
 20
0.0
 11
841.0
 21
594.0
 12
0.0
 22
0.0
 32
0.0
 14
0.0
 24
0.0
 34
0.0
 15
0.0
 25
0.0
 35
0.0
146
0.0
 13
0.0
 23
0.0
 33
0.0
 16
1.0
 26
0.0
 36
0.0
 17
0.0
 27
1.0
 37
0.0
 76
0
330
213
345
0
346
0
  0
ENDSEC
  0
EOF
