999
DXF file: VLBG-PLUS-M42-15t-7982966-M34392-P-20.dxf
999
Pro/ENGINEER 2011490 by Parametric Technology Corporation
  0
SECTION
  2
HEADER
  9
$ACADVER
  1
AC1015
  9
$DWGCODEPAGE
  3
ANSI_1252
  9
$EXTMAX
 10
841.0
 20
594.0
 30
0.0
  9
$EXTMIN
 10
0.0
 20
0.0
 30
0.0
  9
$LIMMIN
 10
0.0
 20
0.0
  9
$LIMMAX
 10
841.0
 20
594.0
  9
$VIEWCTR
 10
420.5
 20
297.0
  9
$VIEWSIZE
 40
594.0
  9
$CLAYER
  8
0
  9
$LTSCALE
 40
46.255
  9
$CELTYPE
  6
BYLAYER
  9
$DIMSCALE
 40
1.0
  9
$DIMASZ
 40
3.5
  9
$DIMEXO
 40
5.25625
  9
$DIMDLI
 40
31.958
  9
$DIMEXE
 40
15.138
  9
$DIMCEN
 40
7.569
  9
$DIMLFAC
 40
1.0
  9
$DIMBLK
  1
_FILLED
  9
$DIMTXT
 40
3.5
  9
$DIMTOL
 70
1
  9
$DIMLIM
 70
0
  9
$DIMTFAC
 40
1.0
  9
$DIMTP
 40
0.005
  9
$DIMTM
 40
0.005
  9
$PDMODE
 70
3
  9
$PDSIZE
 40
0.3125
  9
$HANDSEED
  5
87A
  9
$TILEMODE
 70
1
  9
$MEASUREMENT
 70
1
  9
$INSUNITS
 70
4
  0
ENDSEC
  0
SECTION
  2
CLASSES
  0
CLASS
  1
ACDBDICTIONARYWDFLT
  2
AcDbDictionaryWithDefault
  3
AutoCAD 2000
 90
0
280
0
281
0
  0
CLASS
  1
ACDBPLACEHOLDER
  2
AcDbPlaceHolder
  3
AutoCAD 2000
 90
0
280
0
281
0
  0
CLASS
  1
LAYOUT
  2
AcDbLayout
  3
AutoCAD 2000
 90
0
280
0
281
0
  0
ENDSEC
  0
SECTION
  2
TABLES
  0
TABLE
  2
VPORT
  5
8
100
AcDbSymbolTable
 70
2
  0
VPORT
  5
1F4
100
AcDbSymbolTableRecord
100
AcDbViewportTableRecord
  2
*ACTIVE
 70
0
 10
0.0
 20
0.0
 11
1.0
 21
1.0
 12
420.5
 22
297.0
 13
0.0
 23
0.0
 14
1.0
 24
1.0
 15
0.0
 25
0.0
 16
0.0
 26
0.0
 36
1.0
 17
0.0
 27
0.0
 37
0.0
 40
594.0
 41
1.4158249158
 42
50.0
 43
0.0
 44
0.0
 50
0.0
 51
0.0
 71
0
 72
100
 73
1
 74
1
 75
0
 76
0
 77
0
 78
0
  0
ENDTAB
  0
TABLE
  2
LTYPE
  5
5
100
AcDbSymbolTable
 70
6
  0
LTYPE
  5
14
100
AcDbSymbolTableRecord
100
AcDbLinetypeTableRecord
  2
BYBLOCK
 70
0
  3

 72
65
 73
0
 40
0.0
  0
LTYPE
  5
15
100
AcDbSymbolTableRecord
100
AcDbLinetypeTableRecord
  2
BYLAYER
 70
0
  3

 72
65
 73
0
 40
0.0
  0
LTYPE
  5
16
100
AcDbSymbolTableRecord
100
AcDbLinetypeTableRecord
  2
CONTINUOUS
 70
64
  3
Solid line
 72
65
 73
0
 40
0.0
  0
LTYPE
  5
1F5
100
AcDbSymbolTableRecord
100
AcDbLinetypeTableRecord
  2
CENTER
 70
64
  3
____ _ ____ _ ____ _ ____ _ ____ _ ____ _ ____
 72
65
 73
4
 40
0.6
 49
0.375
 74
0
 49
-0.075
 74
0
 49
0.075
 74
0
 49
-0.075
 74
0
  0
LTYPE
  5
1F6
100
AcDbSymbolTableRecord
100
AcDbLinetypeTableRecord
  2
HIDDEN
 70
64
  3
- - - - - - - - - - - - - - - - - - - -
 72
65
 73
2
 40
0.2
 49
0.1
 74
0
 49
-0.1
 74
0
  0
LTYPE
  5
1F7
100
AcDbSymbolTableRecord
100
AcDbLinetypeTableRecord
  2
PHANTOM
 70
64
  3
_____ _ _ _____ _ _ _____ _ _ _____
 72
65
 73
6
 40
0.8
 49
0.45
 74
0
 49
-0.05
 74
0
 49
0.1
 74
0
 49
-0.05
 74
0
 49
0.1
 74
0
 49
-0.05
 74
0
  0
LTYPE
  5
1F8
100
AcDbSymbolTableRecord
100
AcDbLinetypeTableRecord
  2
DOT
 70
64
  3
. . . . . . . . . . . . . . . . . . . .
 72
65
 73
2
 40
0.2
 49
0.1
 74
0
 49
-0.1
 74
0
  0
LTYPE
  5
1F9
100
AcDbSymbolTableRecord
100
AcDbLinetypeTableRecord
  2
DASHED
 70
64
  3
- - - - - - - - - - - - - - - - - - - -
 72
65
 73
2
 40
0.2
 49
0.1
 74
0
 49
-0.1
 74
0
  0
ENDTAB
  0
TABLE
  2
LAYER
  5
2
100
AcDbSymbolTable
 70
36
  0
LAYER
  5
10
100
AcDbSymbolTableRecord
100
AcDbLayerTableRecord
  2
0
 70
0
 62
7
  6
CONTINUOUS
370
-3
390
F
  0
LAYER
  5
1FA
100
AcDbSymbolTableRecord
100
AcDbLayerTableRecord
  2
DEFAULT_1
 70
0
 62
7
  6
CENTER
370
-3
390
F
  0
LAYER
  5
1FB
100
AcDbSymbolTableRecord
100
AcDbLayerTableRecord
  2
DEFAULT_2
 70
0
 62
8
  6
HIDDEN
370
-3
390
F
  0
LAYER
  5
1FC
100
AcDbSymbolTableRecord
100
AcDbLayerTableRecord
  2
DEFAULT_3
 70
0
 62
7
  6
PHANTOM
370
-3
390
F
  0
LAYER
  5
1FD
100
AcDbSymbolTableRecord
100
AcDbLayerTableRecord
  2
AUSFORMSCHRAEGEN
 70
0
 62
7
  6
CONTINUOUS
370
-3
390
F
  0
LAYER
  5
1FE
100
AcDbSymbolTableRecord
100
AcDbLayerTableRecord
  2
BEZUGSACHSEN
 70
0
 62
7
  6
CONTINUOUS
370
-3
390
F
  0
LAYER
  5
1FF
100
AcDbSymbolTableRecord
100
AcDbLayerTableRecord
  2
BEZUGSEBENEN
 70
0
 62
7
  6
CONTINUOUS
370
-3
390
F
  0
LAYER
  5
200
100
AcDbSymbolTableRecord
100
AcDbLayerTableRecord
  2
BG_STARTBEZUEGE
 70
0
 62
7
  6
CONTINUOUS
370
-3
390
F
  0
LAYER
  5
201
100
AcDbSymbolTableRecord
100
AcDbLayerTableRecord
  2
BOHRUNGEN
 70
0
 62
7
  6
CONTINUOUS
370
-3
390
F
  0
LAYER
  5
202
100
AcDbSymbolTableRecord
100
AcDbLayerTableRecord
  2
FASEN
 70
0
 62
7
  6
CONTINUOUS
370
-3
390
F
  0
LAYER
  5
203
100
AcDbSymbolTableRecord
100
AcDbLayerTableRecord
  2
FLAECHEN
 70
0
 62
7
  6
CONTINUOUS
370
-3
390
F
  0
LAYER
  5
204
100
AcDbSymbolTableRecord
100
AcDbLayerTableRecord
  2
GEWINDE
 70
0
 62
7
  6
CONTINUOUS
370
-3
390
F
  0
LAYER
  5
205
100
AcDbSymbolTableRecord
100
AcDbLayerTableRecord
  2
HILFEN
 70
0
 62
7
  6
CONTINUOUS
370
-3
390
F
  0
LAYER
  5
206
100
AcDbSymbolTableRecord
100
AcDbLayerTableRecord
  2
KONSTRUKTIONSELEMENTE
 70
0
 62
7
  6
CONTINUOUS
370
-3
390
F
  0
LAYER
  5
207
100
AcDbSymbolTableRecord
100
AcDbLayerTableRecord
  2
KURVEN
 70
0
 62
7
  6
CONTINUOUS
370
-3
390
F
  0
LAYER
  5
208
100
AcDbSymbolTableRecord
100
AcDbLayerTableRecord
  2
NORM
 70
0
 62
7
  6
CONTINUOUS
370
-3
390
F
  0
LAYER
  5
209
100
AcDbSymbolTableRecord
100
AcDbLayerTableRecord
  2
PLATZIERUNG
 70
0
 62
7
  6
CONTINUOUS
370
-3
390
F
  0
LAYER
  5
20A
100
AcDbSymbolTableRecord
100
AcDbLayerTableRecord
  2
PLAZIERUNG
 70
0
 62
7
  6
CONTINUOUS
370
-3
390
F
  0
LAYER
  5
20B
100
AcDbSymbolTableRecord
100
AcDbLayerTableRecord
  2
RUNDUNGEN
 70
0
 62
7
  6
CONTINUOUS
370
-3
390
F
  0
LAYER
  5
20C
100
AcDbSymbolTableRecord
100
AcDbLayerTableRecord
  2
TEIL_STARTBEZUEGE
 70
0
 62
7
  6
CONTINUOUS
370
-3
390
F
  0
LAYER
  5
20D
100
AcDbSymbolTableRecord
100
AcDbLayerTableRecord
  2
T_STARTBEZUEGE
 70
0
 62
7
  6
CONTINUOUS
370
-3
390
F
  0
LAYER
  5
20E
100
AcDbSymbolTableRecord
100
AcDbLayerTableRecord
  2
XSEC_DATUMS
 70
0
 62
7
  6
CONTINUOUS
370
-3
390
F
  0
LAYER
  5
20F
100
AcDbSymbolTableRecord
100
AcDbLayerTableRecord
  2
ZEICHNUNGSBEMASSUNGEN
 70
0
 62
7
  6
CONTINUOUS
370
-3
390
F
  0
ENDTAB
  0
TABLE
  2
STYLE
  5
3
100
AcDbSymbolTable
 70
1
  0
STYLE
  5
11
100
AcDbSymbolTableRecord
100
AcDbTextStyleTableRecord
  2
STANDARD
 70
0
 40
0.0
 41
0.7
 50
0.0
 71
0
 42
0.2
  3
txt
  4

  0
STYLE
  5
210
100
AcDbSymbolTableRecord
100
AcDbTextStyleTableRecord
  2
TEXTSTYLE_1
 70
0
 40
0.0
 41
0.8
 50
0.0
 71
0
 42
0.2
  3
gdt
  4

  0
ENDTAB
  0
TABLE
  2
VIEW
  5
6
100
AcDbSymbolTable
 70
0
  0
ENDTAB
  0
TABLE
  2
UCS
  5
7
100
AcDbSymbolTable
 70
0
  0
ENDTAB
  0
TABLE
  2
APPID
  5
9
100
AcDbSymbolTable
 70
1
  0
APPID
  5
211
100
AcDbSymbolTableRecord
100
AcDbRegAppTableRecord
  2
ACAD
 70
0
  0
ENDTAB
  0
TABLE
  2
BLOCK_RECORD
  5
1
100
AcDbSymbolTable
 70
0
  0
BLOCK_RECORD
  5
212
100
AcDbSymbolTableRecord
100
AcDbBlockTableRecord
  2
*Model_Space
  0
BLOCK_RECORD
  5
213
100
AcDbSymbolTableRecord
100
AcDbBlockTableRecord
  2
*Paper_Space
  0
ENDTAB
  0
TABLE
  2
DIMSTYLE
  5
A
100
AcDbSymbolTable
 70
1
100
AcDbDimStyleTable
 71
0
  0
DIMSTYLE
105
214
100
AcDbSymbolTableRecord
100
AcDbDimStyleTableRecord
  2
STANDARD
 70
0
  3

  4

 40
1.0
 41
3.5
 42
0.0625
 43
0.38
 44
0.18
 45
0.0
 46
0.0
 47
0.005
 48
0.005
140
3.5
141
0.09
142
0.0
143
25.4
144
1.0
145
0.0
146
1.0
147
0.09
 71
1.0
 72
0.0
 73
0
 74
0
 75
0
 76
0
 77
1
 78
8
170
0
171
2
172
0
173
0
174
0
175
0
176
0
177
0
178
5
270
2
271
3
272
3
273
2
274
2
275
0
280
0
281
0
282
0
283
1
284
8
285
0
286
0
287
3
288
0
340
11
  0
ENDTAB
  0
ENDSEC
  0
SECTION
  2
BLOCKS
  0
BLOCK
  5
20
100
AcDbEntity
  8
0
100
AcDbBlockBegin
  2
*Model_Space
 70
0
 10
0.0
 20
0.0
 30
0.0
  3
*Model_Space
  1

  0
ENDBLK
  5
21
100
AcDbEntity
  8
0
100
AcDbBlockEnd
  0
BLOCK
  5
1C
100
AcDbEntity
  8
0
100
AcDbBlockBegin
  2
*Paper_Space
 70
0
 10
0.0
 20
0.0
 30
0.0
  3
*Paper_Space
  1

  0
ENDBLK
  5
1D
100
AcDbEntity
  8
0
100
AcDbBlockEnd
  0
ENDSEC
  0
SECTION
  2
ENTITIES
  0
MTEXT
  5
215
100
AcDbEntity
  8
0
100
AcDbMText
 62
5
  6
CONTINUOUS
  7
STANDARD
 71
1
 72
1
 10
328.3487236427
 20
360.1570084055
 30
0.0
 11
0.0
 21
1.0
 31
0.0
 44
0.9
  1
RUD VLBG-PLUS 15t
 40
10.0
 41
128.5714285714
  0
MTEXT
  5
216
100
AcDbEntity
  8
0
100
AcDbMText
 62
5
  6
CONTINUOUS
  7
STANDARD
 71
1
 72
1
 10
326.3600468931
 20
47.8532565842
 30
0.0
 11
0.0
 21
1.0
 31
0.0
 44
0.9
  1
RUD VLBG-PLUS 15t
 40
10.0
 41
128.5714285714
  0
LINE
  5
217
100
AcDbEntity
  8
0
100
AcDbLine
 62
7
  6
CONTINUOUS
 10
0.0
 20
0.0
 11
0.0
 21
594.0
  0
LINE
  5
218
100
AcDbEntity
  8
0
100
AcDbLine
 62
7
  6
CONTINUOUS
 10
0.0
 20
0.0
 11
841.0
 21
0.0
  0
LINE
  5
219
100
AcDbEntity
  8
0
100
AcDbLine
 62
7
  6
CONTINUOUS
 10
0.0
 20
594.0
 11
841.0
 21
594.0
  0
LINE
  5
21A
100
AcDbEntity
  8
0
100
AcDbLine
 62
7
  6
CONTINUOUS
 10
841.0
 20
0.0
 11
841.0
 21
594.0
  0
LINE
  5
21B
100
AcDbEntity
  8
BEZUGSACHSEN
100
AcDbLine
 62
7
  6
CONTINUOUS
 10
263.0613903162
 20
245.4198696378
 11
297.0613903162
 21
245.4198696378
  0
LINE
  5
21C
100
AcDbEntity
  8
BEZUGSACHSEN
100
AcDbLine
 62
7
  6
CONTINUOUS
 10
259.0613903162
 20
249.4198696378
 11
301.0613903162
 21
249.4198696378
  0
LINE
  5
21D
100
AcDbEntity
  8
BEZUGSACHSEN
100
AcDbLine
 62
7
  6
CONTINUOUS
 10
259.0613903162
 20
249.4198696378
 11
263.0613903162
 21
245.4198696378
  0
LINE
  5
21E
100
AcDbEntity
  8
0
100
AcDbLine
 62
7
  6
CONTINUOUS
 10
322.5613903162
 20
308.4198696378
 11
237.5613903162
 21
308.4198696378
  0
LINE
  5
21F
100
AcDbEntity
  8
0
100
AcDbLine
 62
7
  6
CONTINUOUS
 10
322.5613903162
 20
316.6698696378
 11
237.5613903162
 21
316.6698696378
  0
LINE
  5
220
100
AcDbEntity
  8
RUNDUNGEN
100
AcDbLine
 62
7
  6
CONTINUOUS
 10
330.0613903162
 20
316.9198696378
 11
230.0613903162
 21
316.9198696378
  0
LINE
  5
221
100
AcDbEntity
  8
0
100
AcDbLine
 62
7
  6
CONTINUOUS
 10
224.5637240328
 20
325.3498696378
 11
225.0637487351
 21
325.3498696378
  0
LINE
  5
222
100
AcDbEntity
  8
0
100
AcDbLine
 62
7
  6
CONTINUOUS
 10
225.6202999531
 20
325.3498696378
 11
226.131701921
 21
325.3498696378
  0
LINE
  5
223
100
AcDbEntity
  8
0
100
AcDbLine
 62
7
  6
CONTINUOUS
 10
224.5613903162
 20
325.5881675026
 11
224.5613903162
 21
326.6622100201
  0
LINE
  5
224
100
AcDbEntity
  8
0
100
AcDbLine
 62
7
  6
CONTINUOUS
 10
224.5613903162
 20
331.1864654079
 11
224.5613903162
 21
332.2605077794
  0
LINE
  5
225
100
AcDbEntity
  8
0
100
AcDbLine
 62
7
  6
CONTINUOUS
 10
224.5613903162
 20
335.3583804181
 11
224.5613903162
 21
336.5498696378
  0
LINE
  5
226
100
AcDbEntity
  8
0
100
AcDbLine
 62
7
  6
CONTINUOUS
 10
224.5613903162
 20
361.9698696378
 11
224.5613903162
 21
363.7571036759
  0
LINE
  5
227
100
AcDbEntity
  8
0
100
AcDbLine
 62
7
  6
CONTINUOUS
 10
224.56740736
 20
347.1468907812
 11
224.56740736
 21
348.2107207396
  0
LINE
  5
228
100
AcDbEntity
  8
0
100
AcDbLine
 62
7
  6
CONTINUOUS
 10
224.5974413545
 20
328.6860397866
 11
224.5974413545
 21
329.1626354745
  0
LINE
  5
229
100
AcDbEntity
  8
0
100
AcDbLine
 62
7
  6
CONTINUOUS
 10
224.6227702213
 20
343.5298696378
 11
224.6227702213
 21
353.5298696378
  0
LINE
  5
22A
100
AcDbEntity
  8
0
100
AcDbLine
 62
7
  6
CONTINUOUS
 10
224.6297055972
 20
335.3583804181
 11
224.6297055972
 21
336.5498696378
  0
LINE
  5
22B
100
AcDbEntity
  8
0
100
AcDbLine
 62
7
  6
CONTINUOUS
 10
224.6569094028
 20
328.4477419427
 11
224.6569094028
 21
329.4009333184
  0
LINE
  5
22C
100
AcDbEntity
  8
0
100
AcDbLine
 62
7
  6
CONTINUOUS
 10
224.6800721851
 20
366.7358269337
 11
224.6800721851
 21
375.9698696378
  0
LINE
  5
22D
100
AcDbEntity
  8
0
100
AcDbLine
 62
7
  6
CONTINUOUS
 10
224.6985938574
 20
366.7358269337
 11
224.6985938574
 21
375.9698696378
  0
LINE
  5
22E
100
AcDbEntity
  8
0
100
AcDbLine
 62
7
  6
CONTINUOUS
 10
224.7024085687
 20
343.5298696378
 11
224.7024085687
 21
347.9979548076
  0
LINE
  5
22F
100
AcDbEntity
  8
0
100
AcDbLine
 62
7
  6
CONTINUOUS
 10
224.7024085687
 20
349.2745504001
 11
224.7024085687
 21
352.4660399774
  0
LINE
  5
230
100
AcDbEntity
  8
0
100
AcDbLine
 62
7
  6
CONTINUOUS
 10
224.7460794453
 20
332.4988056233
 11
224.7460794453
 21
335.3583804181
  0
LINE
  5
231
100
AcDbEntity
  8
0
100
AcDbLine
 62
7
  6
CONTINUOUS
 10
224.8114658709
 20
332.0222099355
 11
224.8114658709
 21
332.9754013112
  0
LINE
  5
232
100
AcDbEntity
  8
0
100
AcDbLine
 62
7
  6
CONTINUOUS
 10
224.863471603
 20
366.7358269337
 11
224.863471603
 21
375.9698696378
  0
LINE
  5
233
100
AcDbEntity
  8
0
100
AcDbLine
 62
7
  6
CONTINUOUS
 10
225.0397910165
 20
327.2562525561
 11
225.0397910165
 21
332.0222099355
  0
LINE
  5
234
100
AcDbEntity
  8
0
100
AcDbLine
 62
7
  6
CONTINUOUS
 10
225.0397910165
 20
332.9754013112
 11
225.0397910165
 21
334.8817847302
  0
LINE
  5
235
100
AcDbEntity
  8
0
100
AcDbLine
 62
7
  6
CONTINUOUS
 10
225.0613903162
 20
321.9198696378
 11
225.0613903162
 21
325.4465507627
  0
LINE
  5
236
100
AcDbEntity
  8
0
100
AcDbLine
 62
7
  6
CONTINUOUS
 10
225.0613903162
 20
334.8817847302
 11
225.0613903162
 21
335.3583804181
  0
LINE
  5
237
100
AcDbEntity
  8
0
100
AcDbLine
 62
7
  6
CONTINUOUS
 10
225.0613903162
 20
336.5498696378
 11
225.0613903162
 21
343.5298696378
  0
LINE
  5
238
100
AcDbEntity
  8
0
100
AcDbLine
 62
7
  6
CONTINUOUS
 10
225.0613903162
 20
353.5298696378
 11
225.0613903162
 21
361.9698696378
  0
LINE
  5
239
100
AcDbEntity
  8
0
100
AcDbLine
 62
7
  6
CONTINUOUS
 10
225.0613903162
 20
375.9698696378
 11
225.0613903162
 21
381.9198696378
  0
LINE
  5
23A
100
AcDbEntity
  8
0
100
AcDbLine
 62
7
  6
CONTINUOUS
 10
225.1304257466
 20
335.3583804181
 11
225.1304257466
 21
336.5498696378
  0
LINE
  5
23B
100
AcDbEntity
  8
0
100
AcDbLine
 62
7
  6
CONTINUOUS
 10
225.1846460211
 20
361.9698696378
 11
225.1846460211
 21
375.9698696378
  0
LINE
  5
23C
100
AcDbEntity
  8
0
100
AcDbLine
 62
7
  6
CONTINUOUS
 10
225.2038974148
 20
343.5298696378
 11
225.2038974148
 21
347.9979548076
  0
LINE
  5
23D
100
AcDbEntity
  8
0
100
AcDbLine
 62
7
  6
CONTINUOUS
 10
225.2038974148
 20
349.3399449011
 11
225.2038974148
 21
352.4006454763
  0
LINE
  5
23E
100
AcDbEntity
  8
0
100
AcDbLine
 62
7
  6
CONTINUOUS
 10
225.2204148023
 20
327.7328484109
 11
225.2204148023
 21
332.0222099355
  0
LINE
  5
23F
100
AcDbEntity
  8
0
100
AcDbLine
 62
7
  6
CONTINUOUS
 10
225.2204148023
 20
332.9754013112
 11
225.2204148023
 21
334.8817847302
  0
LINE
  5
240
100
AcDbEntity
  8
0
100
AcDbLine
 62
7
  6
CONTINUOUS
 10
225.390882846
 20
350.5511459926
 11
225.390882846
 21
351.1894443849
  0
LINE
  5
241
100
AcDbEntity
  8
0
100
AcDbLine
 62
7
  6
CONTINUOUS
 10
225.5028268022
 20
363.7571036759
 11
225.5028268022
 21
374.1826358083
  0
LINE
  5
242
100
AcDbEntity
  8
0
100
AcDbLine
 62
7
  6
CONTINUOUS
 10
225.6202999531
 20
325.3498696378
 11
225.6202999531
 21
326.3030610969
  0
LINE
  5
243
100
AcDbEntity
  8
0
100
AcDbLine
 62
7
  6
CONTINUOUS
 10
225.6435709402
 20
350.3383800605
 11
225.6435709402
 21
351.1894443849
  0
LINE
  5
244
100
AcDbEntity
  8
0
100
AcDbLine
 62
7
  6
CONTINUOUS
 10
225.7224113968
 20
332.0222099355
 11
225.7224113968
 21
332.9754013112
  0
LINE
  5
245
100
AcDbEntity
  8
0
100
AcDbLine
 62
7
  6
CONTINUOUS
 10
225.7274500313
 20
327.7328484109
 11
225.7274500313
 21
332.0222099355
  0
LINE
  5
246
100
AcDbEntity
  8
0
100
AcDbLine
 62
7
  6
CONTINUOUS
 10
225.7274500313
 20
332.9754013112
 11
225.7274500313
 21
334.8817847302
  0
LINE
  5
247
100
AcDbEntity
  8
0
100
AcDbLine
 62
7
  6
CONTINUOUS
 10
226.01293814
 20
363.7571036759
 11
226.01293814
 21
374.1826358083
  0
LINE
  5
248
100
AcDbEntity
  8
0
100
AcDbLine
 62
7
  6
CONTINUOUS
 10
226.0348312192
 20
343.5298696378
 11
226.0348312192
 21
353.5298696378
  0
LINE
  5
249
100
AcDbEntity
  8
0
100
AcDbLine
 62
7
  6
CONTINUOUS
 10
226.131701921
 20
325.3498696378
 11
226.131701921
 21
326.3030610969
  0
LINE
  5
24A
100
AcDbEntity
  8
0
100
AcDbLine
 62
7
  6
CONTINUOUS
 10
226.2349405686
 20
332.0222099355
 11
226.2349405686
 21
332.9754013112
  0
LINE
  5
24B
100
AcDbEntity
  8
BEZUGSACHSEN
100
AcDbLine
 62
7
  6
CONTINUOUS
 10
336.4157005594
 20
334.5789060195
 11
336.4973715412
 21
334.6019433182
  0
LINE
  5
24C
100
AcDbEntity
  8
BEZUGSACHSEN
100
AcDbLine
 62
7
  6
CONTINUOUS
 10
336.3321910125
 20
334.5557791997
 11
336.4157005594
 21
334.5789060195
  0
LINE
  5
24D
100
AcDbEntity
  8
BEZUGSACHSEN
100
AcDbLine
 62
7
  6
CONTINUOUS
 10
336.246675998
 20
334.532544862
 11
336.3321910125
 21
334.5557791997
  0
LINE
  5
24E
100
AcDbEntity
  8
BEZUGSACHSEN
100
AcDbLine
 62
7
  6
CONTINUOUS
 10
336.1700446808
 20
334.5121077795
 11
336.246675998
 21
334.532544862
  0
LINE
  5
24F
100
AcDbEntity
  8
BEZUGSACHSEN
100
AcDbLine
 62
7
  6
CONTINUOUS
 10
336.0915848768
 20
334.4915573232
 11
336.1700446808
 21
334.5121077795
  0
LINE
  5
250
100
AcDbEntity
  8
BEZUGSACHSEN
100
AcDbLine
 62
7
  6
CONTINUOUS
 10
336.0111600138
 20
334.470883837
 11
336.0915848768
 21
334.4915573232
  0
LINE
  5
251
100
AcDbEntity
  8
BEZUGSACHSEN
100
AcDbLine
 62
7
  6
CONTINUOUS
 10
335.9286336254
 20
334.4500808926
 11
336.0111600138
 21
334.470883837
  0
LINE
  5
252
100
AcDbEntity
  8
BEZUGSACHSEN
100
AcDbLine
 62
7
  6
CONTINUOUS
 10
335.8438679278
 20
334.4291450796
 11
335.9286336254
 21
334.4500808926
  0
LINE
  5
253
100
AcDbEntity
  8
BEZUGSACHSEN
100
AcDbLine
 62
7
  6
CONTINUOUS
 10
335.7567090748
 20
334.4080726643
 11
335.8438679278
 21
334.4291450796
  0
LINE
  5
254
100
AcDbEntity
  8
BEZUGSACHSEN
100
AcDbLine
 62
7
  6
CONTINUOUS
 10
335.6799726341
 20
334.3899002253
 11
335.7567090748
 21
334.4080726643
  0
LINE
  5
255
100
AcDbEntity
  8
BEZUGSACHSEN
100
AcDbLine
 62
7
  6
CONTINUOUS
 10
335.6012543041
 20
334.3716271292
 11
335.6799726341
 21
334.3899002253
  0
LINE
  5
256
100
AcDbEntity
  8
BEZUGSACHSEN
100
AcDbLine
 62
7
  6
CONTINUOUS
 10
335.52045047
 20
334.3532570791
 11
335.6012543041
 21
334.3716271292
  0
LINE
  5
257
100
AcDbEntity
  8
BEZUGSACHSEN
100
AcDbLine
 62
7
  6
CONTINUOUS
 10
335.4374726734
 20
334.3347997255
 11
335.52045047
 21
334.3532570791
  0
LINE
  5
258
100
AcDbEntity
  8
BEZUGSACHSEN
100
AcDbLine
 62
7
  6
CONTINUOUS
 10
335.3523129777
 20
334.3162844389
 11
335.4374726734
 21
334.3347997255
  0
LINE
  5
259
100
AcDbEntity
  8
BEZUGSACHSEN
100
AcDbLine
 62
7
  6
CONTINUOUS
 10
335.2649912686
 20
334.2977472665
 11
335.3523129777
 21
334.3162844389
  0
LINE
  5
25A
100
AcDbEntity
  8
BEZUGSACHSEN
100
AcDbLine
 62
7
  6
CONTINUOUS
 10
335.1755277116
 20
334.2792245693
 11
335.2649912686
 21
334.2977472665
  0
LINE
  5
25B
100
AcDbEntity
  8
BEZUGSACHSEN
100
AcDbLine
 62
7
  6
CONTINUOUS
 10
335.0839428371
 20
334.2607530062
 11
335.1755277116
 21
334.2792245693
  0
LINE
  5
25C
100
AcDbEntity
  8
BEZUGSACHSEN
100
AcDbLine
 62
7
  6
CONTINUOUS
 10
335.0060167394
 20
334.2454257314
 11
335.0839428371
 21
334.2607530062
  0
LINE
  5
25D
100
AcDbEntity
  8
BEZUGSACHSEN
100
AcDbLine
 62
7
  6
CONTINUOUS
 10
334.9266445646
 20
334.2301811428
 11
335.0060167394
 21
334.2454257314
  0
LINE
  5
25E
100
AcDbEntity
  8
BEZUGSACHSEN
100
AcDbLine
 62
7
  6
CONTINUOUS
 10
334.8458114441
 20
334.2150357667
 11
334.9266445646
 21
334.2301811428
  0
LINE
  5
25F
100
AcDbEntity
  8
BEZUGSACHSEN
100
AcDbLine
 62
7
  6
CONTINUOUS
 10
334.7634071367
 20
334.199989521
 11
334.8458114441
 21
334.2150357667
  0
LINE
  5
260
100
AcDbEntity
  8
BEZUGSACHSEN
100
AcDbLine
 62
7
  6
CONTINUOUS
 10
334.6792984823
 20
334.1850407611
 11
334.7634071367
 21
334.199989521
  0
LINE
  5
261
100
AcDbEntity
  8
BEZUGSACHSEN
100
AcDbLine
 62
7
  6
CONTINUOUS
 10
334.5933522586
 20
334.1701908352
 11
334.6792984823
 21
334.1850407611
  0
LINE
  5
262
100
AcDbEntity
  8
BEZUGSACHSEN
100
AcDbLine
 62
7
  6
CONTINUOUS
 10
334.5054349905
 20
334.1554441749
 11
334.5933522586
 21
334.1701908352
  0
LINE
  5
263
100
AcDbEntity
  8
BEZUGSACHSEN
100
AcDbLine
 62
7
  6
CONTINUOUS
 10
334.415412975
 20
334.1408084364
 11
334.5054349905
 21
334.1554441749
  0
LWPOLYLINE
  5
264
100
AcDbEntity
  8
BEZUGSACHSEN
100
AcDbPolyline
 62
7
  6
CONTINUOUS
 90
4
 70
0
 10
333.9139722348
 20
334.0561053656
 10
335.0013067758
 20
334.2259778969
 10
336.0764938563
 20
334.4629698554
 10
337.1354210146
 20
334.7662274885
  0
LINE
  5
265
100
AcDbEntity
  8
BEZUGSACHSEN
100
AcDbLine
 62
7
  6
CONTINUOUS
 10
334.3231526392
 20
334.1262947021
 11
334.415412975
 21
334.1408084364
  0
LINE
  5
266
100
AcDbEntity
  8
BEZUGSACHSEN
100
AcDbLine
 62
7
  6
CONTINUOUS
 10
334.2285838444
 20
334.1119270724
 11
334.3231526392
 21
334.1262947021
  0
LINE
  5
267
100
AcDbEntity
  8
BEZUGSACHSEN
100
AcDbLine
 62
7
  6
CONTINUOUS
 10
334.1317756847
 20
334.0977519462
 11
334.2285838444
 21
334.1119270724
  0
LINE
  5
268
100
AcDbEntity
  8
BEZUGSACHSEN
100
AcDbLine
 62
7
  6
CONTINUOUS
 10
334.0527759444
 20
334.086582898
 11
334.1317756847
 21
334.0977519462
  0
LINE
  5
269
100
AcDbEntity
  8
BEZUGSACHSEN
100
AcDbLine
 62
7
  6
CONTINUOUS
 10
333.9724446677
 20
334.0755920791
 11
334.0527759444
 21
334.086582898
  0
LINE
  5
26A
100
AcDbEntity
  8
BEZUGSACHSEN
100
AcDbLine
 62
7
  6
CONTINUOUS
 10
333.890827433
 20
334.0648030921
 11
333.9724446677
 21
334.0755920791
  0
LINE
  5
26B
100
AcDbEntity
  8
BEZUGSACHSEN
100
AcDbLine
 62
7
  6
CONTINUOUS
 10
333.8079700632
 20
334.0542389701
 11
333.890827433
 21
334.0648030921
  0
LINE
  5
26C
100
AcDbEntity
  8
BEZUGSACHSEN
100
AcDbLine
 62
7
  6
CONTINUOUS
 10
333.7239183259
 20
334.0439221073
 11
333.8079700632
 21
334.0542389701
  0
LINE
  5
26D
100
AcDbEntity
  8
BEZUGSACHSEN
100
AcDbLine
 62
7
  6
CONTINUOUS
 10
333.6387010456
 20
334.0338722834
 11
333.7239183259
 21
334.0439221073
  0
LINE
  5
26E
100
AcDbEntity
  8
BEZUGSACHSEN
100
AcDbLine
 62
7
  6
CONTINUOUS
 10
333.5523211151
 20
334.0241060584
 11
333.6387010456
 21
334.0338722834
  0
LINE
  5
26F
100
AcDbEntity
  8
BEZUGSACHSEN
100
AcDbLine
 62
7
  6
CONTINUOUS
 10
333.4647793821
 20
334.0146399251
 11
333.5523211151
 21
334.0241060584
  0
LINE
  5
270
100
AcDbEntity
  8
BEZUGSACHSEN
100
AcDbLine
 62
7
  6
CONTINUOUS
 10
333.4257155712
 20
334.010558285
 11
333.4647793821
 21
334.0146399251
  0
LINE
  5
271
100
AcDbEntity
  8
BEZUGSACHSEN
100
AcDbLine
 62
7
  6
CONTINUOUS
 10
332.8180920412
 20
333.9539192217
 11
333.9128666736
 21
334.0559676228
  0
LINE
  5
272
100
AcDbEntity
  8
BEZUGSACHSEN
100
AcDbLine
 62
7
  6
CONTINUOUS
 10
331.7195419263
 20
333.9198696378
 11
332.8183693378
 21
333.9539450697
  0
LINE
  5
273
100
AcDbEntity
  8
BEZUGSACHSEN
100
AcDbLine
 62
7
  6
CONTINUOUS
 10
331.8004151261
 20
333.9165778009
 11
331.907418722
 21
333.918227046
  0
LINE
  5
274
100
AcDbEntity
  8
BEZUGSACHSEN
100
AcDbLine
 62
7
  6
CONTINUOUS
 10
331.6922942791
 20
333.9155588597
 11
331.8004151261
 21
333.9165778009
  0
LINE
  5
275
100
AcDbEntity
  8
BEZUGSACHSEN
100
AcDbLine
 62
7
  6
CONTINUOUS
 10
331.5770647846
 20
333.9151892947
 11
331.6922942791
 21
333.9155588597
  0
LINE
  5
276
100
AcDbEntity
  8
0
100
AcDbLine
 62
7
  6
CONTINUOUS
 10
224.5663979816
 20
325.5881675026
 11
225.0664506995
 21
325.5881675026
  0
LINE
  5
277
100
AcDbEntity
  8
0
100
AcDbLine
 62
7
  6
CONTINUOUS
 10
224.5974413545
 20
326.3030610969
 11
225.0978211289
 21
326.3030610969
  0
LINE
  5
278
100
AcDbEntity
  8
0
100
AcDbLine
 62
7
  6
CONTINUOUS
 10
225.6202999531
 20
326.3030610969
 11
226.131701921
 21
326.3030610969
  0
LINE
  5
279
100
AcDbEntity
  8
0
100
AcDbLine
 62
7
  6
CONTINUOUS
 10
225.3861807247
 20
326.5413590243
 11
225.8950169838
 21
326.5413590243
  0
LINE
  5
27A
100
AcDbEntity
  8
0
100
AcDbLine
 62
7
  6
CONTINUOUS
 10
225.2600753239
 20
327.0179547122
 11
225.7675402929
 21
327.0179547122
  0
LINE
  5
27B
100
AcDbEntity
  8
0
100
AcDbLine
 62
7
  6
CONTINUOUS
 10
224.6297055972
 20
327.2562525561
 11
225.0397910165
 21
327.2562525561
  0
LINE
  5
27C
100
AcDbEntity
  8
0
100
AcDbLine
 62
7
  6
CONTINUOUS
 10
225.2204148023
 20
327.7328484109
 11
225.7274500313
 21
327.7328484109
  0
LINE
  5
27D
100
AcDbEntity
  8
0
100
AcDbLine
 62
7
  6
CONTINUOUS
 10
224.6569094028
 20
328.4477419427
 11
225.0397910165
 21
328.4477419427
  0
LINE
  5
27E
100
AcDbEntity
  8
0
100
AcDbLine
 62
7
  6
CONTINUOUS
 10
224.6569094028
 20
329.4009333184
 11
225.0397910165
 21
329.4009333184
  0
LINE
  5
27F
100
AcDbEntity
  8
0
100
AcDbLine
 62
7
  6
CONTINUOUS
 10
224.6297055972
 20
330.5924228719
 11
225.0397910165
 21
330.5924228719
  0
LINE
  5
280
100
AcDbEntity
  8
0
100
AcDbLine
 62
7
  6
CONTINUOUS
 10
224.5974413545
 20
331.5456142476
 11
225.0397910165
 21
331.5456142476
  0
LINE
  5
281
100
AcDbEntity
  8
0
100
AcDbLine
 62
7
  6
CONTINUOUS
 10
224.8114658709
 20
332.0222099355
 11
225.0397910165
 21
332.0222099355
  0
LINE
  5
282
100
AcDbEntity
  8
0
100
AcDbLine
 62
7
  6
CONTINUOUS
 10
225.2204148023
 20
332.0222099355
 11
226.2349405686
 21
332.0222099355
  0
LINE
  5
283
100
AcDbEntity
  8
0
100
AcDbLine
 62
7
  6
CONTINUOUS
 10
224.5663975597
 20
332.2605077794
 11
224.8114658709
 21
332.2605077794
  0
LINE
  5
284
100
AcDbEntity
  8
0
100
AcDbLine
 62
7
  6
CONTINUOUS
 10
224.5637241671
 20
332.4988056233
 11
224.8114658709
 21
332.4988056233
  0
LINE
  5
285
100
AcDbEntity
  8
0
100
AcDbLine
 62
7
  6
CONTINUOUS
 10
224.8114658709
 20
332.9754013112
 11
225.0397910165
 21
332.9754013112
  0
LINE
  5
286
100
AcDbEntity
  8
0
100
AcDbLine
 62
7
  6
CONTINUOUS
 10
225.2204148023
 20
332.9754013112
 11
226.2349405686
 21
332.9754013112
  0
LINE
  5
287
100
AcDbEntity
  8
BEZUGSACHSEN
100
AcDbLine
 62
7
  6
CONTINUOUS
 10
331.4772736562
 20
333.9198696378
 11
331.7195226747
 21
333.9198696378
  0
LINE
  5
288
100
AcDbEntity
  8
0
100
AcDbLine
 62
7
  6
CONTINUOUS
 10
225.0397910165
 20
334.8817847302
 11
225.7274500313
 21
334.8817847302
  0
LINE
  5
289
100
AcDbEntity
  8
0
100
AcDbLine
 62
7
  6
CONTINUOUS
 10
224.5613917817
 20
335.3583804181
 11
225.1304257466
 21
335.3583804181
  0
LINE
  5
28A
100
AcDbEntity
  8
0
100
AcDbLine
 62
7
  6
CONTINUOUS
 10
224.5613901266
 20
336.5498696378
 11
225.1304257466
 21
336.5498696378
  0
LINE
  5
28B
100
AcDbEntity
  8
0
100
AcDbLine
 62
7
  6
CONTINUOUS
 10
331.4747043887
 20
333.919869827
 11
331.4772736562
 21
333.9198696378
  0
LINE
  5
28C
100
AcDbEntity
  8
RUNDUNGEN
100
AcDbLine
 62
7
  6
CONTINUOUS
 10
331.4045083446
 20
333.9198696378
 11
331.5239676211
 21
333.9198298927
  0
LINE
  5
28D
100
AcDbEntity
  8
RUNDUNGEN
100
AcDbLine
 62
7
  6
CONTINUOUS
 10
331.4636330309
 20
333.9153768227
 11
331.5457158478
 21
333.9151892947
  0
LINE
  5
28E
100
AcDbEntity
  8
RUNDUNGEN
100
AcDbLine
 62
7
  6
CONTINUOUS
 10
331.366923221
 20
333.9160790453
 11
331.4636330309
 21
333.9153768227
  0
LINE
  5
28F
100
AcDbEntity
  8
RUNDUNGEN
100
AcDbLine
 62
7
  6
CONTINUOUS
 10
331.2724159124
 20
333.9172683278
 11
331.366923221
 21
333.9160790453
  0
LINE
  5
290
100
AcDbEntity
  8
RUNDUNGEN
100
AcDbLine
 62
7
  6
CONTINUOUS
 10
331.2105434118
 20
333.9183163161
 11
331.2724159124
 21
333.9172683278
  0
LINE
  5
291
100
AcDbEntity
  8
0
100
AcDbLine
 62
7
  6
CONTINUOUS
 10
226.3698971739
 20
344.8064653793
 11
226.3698971739
 21
353.5298696378
  0
LINE
  5
292
100
AcDbEntity
  8
0
100
AcDbLine
 62
7
  6
CONTINUOUS
 10
226.8896918727
 20
344.8064653793
 11
226.8896918727
 21
353.5298696378
  0
LINE
  5
293
100
AcDbEntity
  8
0
100
AcDbLine
 62
7
  6
CONTINUOUS
 10
227.9149944768
 20
366.7358269337
 11
227.9149944768
 21
371.2039119246
  0
LINE
  5
294
100
AcDbEntity
  8
0
100
AcDbLine
 62
7
  6
CONTINUOUS
 10
228.6131739105
 20
343.5298696378
 11
228.6131739105
 21
344.8064653793
  0
LINE
  5
295
100
AcDbEntity
  8
0
100
AcDbLine
 62
7
  6
CONTINUOUS
 10
228.6461898498
 20
366.7358269337
 11
228.6461898498
 21
371.2039119246
  0
LINE
  5
296
100
AcDbEntity
  8
0
100
AcDbLine
 62
7
  6
CONTINUOUS
 10
229.1598266895
 20
343.5298696378
 11
229.1598266895
 21
344.8064653793
  0
LINE
  5
297
100
AcDbEntity
  8
0
100
AcDbLine
 62
7
  6
CONTINUOUS
 10
229.1932587908
 20
366.7358269337
 11
229.1932587908
 21
371.2039119246
  0
LINE
  5
298
100
AcDbEntity
  8
0
100
AcDbLine
 62
7
  6
CONTINUOUS
 10
229.3835148409
 20
346.9341248491
 11
229.3835148409
 21
353.5298696378
  0
LINE
  5
299
100
AcDbEntity
  8
0
100
AcDbLine
 62
7
  6
CONTINUOUS
 10
230.0132341487
 20
346.9341248491
 11
230.0132341487
 21
353.5298696378
  0
LINE
  5
29A
100
AcDbEntity
  8
0
100
AcDbLine
 62
7
  6
CONTINUOUS
 10
230.5781127731
 20
346.9341248491
 11
230.5781127731
 21
353.5298696378
  0
LINE
  5
29B
100
AcDbEntity
  8
0
100
AcDbLine
 62
7
  6
CONTINUOUS
 10
233.0245436535
 20
346.9341248491
 11
233.0245436535
 21
353.5298696378
  0
LINE
  5
29C
100
AcDbEntity
  8
0
100
AcDbLine
 62
7
  6
CONTINUOUS
 10
233.914865159
 20
346.9341248491
 11
233.914865159
 21
353.5298696378
  0
LINE
  5
29D
100
AcDbEntity
  8
0
100
AcDbLine
 62
7
  6
CONTINUOUS
 10
234.5376621097
 20
346.9341248491
 11
234.5376621097
 21
353.5298696378
  0
LINE
  5
29E
100
AcDbEntity
  8
0
100
AcDbLine
 62
7
  6
CONTINUOUS
 10
235.7127485502
 20
350.3383800605
 11
235.7127485502
 21
351.1894443849
  0
LINE
  5
29F
100
AcDbEntity
  8
0
100
AcDbLine
 62
7
  6
CONTINUOUS
 10
236.7932494643
 20
350.5511459926
 11
236.7932494643
 21
350.9766778567
  0
LINE
  5
2A0
100
AcDbEntity
  8
0
100
AcDbLine
 62
7
  6
CONTINUOUS
 10
237.4670902092
 20
350.5511459926
 11
237.4670902092
 21
350.9766778567
  0
LINE
  5
2A1
100
AcDbEntity
  8
0
100
AcDbLine
 62
7
  6
CONTINUOUS
 10
237.5613903162
 20
395.4198696378
 11
237.5613903162
 21
387.1698696378
  0
LINE
  5
2A2
100
AcDbEntity
  8
0
100
AcDbLine
 62
7
  6
CONTINUOUS
 10
237.5613903162
 20
316.6698696378
 11
237.5613903162
 21
308.4198696378
  0
LINE
  5
2A3
100
AcDbEntity
  8
0
100
AcDbLine
 62
7
  6
CONTINUOUS
 10
224.6227702213
 20
343.5298696378
 11
225.2038974148
 21
343.5298696378
  0
LINE
  5
2A4
100
AcDbEntity
  8
0
100
AcDbLine
 62
7
  6
CONTINUOUS
 10
226.0348312192
 20
343.5298696378
 11
229.1598266895
 21
343.5298696378
  0
LINE
  5
2A5
100
AcDbEntity
  8
0
100
AcDbLine
 62
7
  6
CONTINUOUS
 10
231.1678029569
 20
343.5298696378
 11
232.2565298773
 21
343.5298696378
  0
LINE
  5
2A6
100
AcDbEntity
  8
0
100
AcDbLine
 62
7
  6
CONTINUOUS
 10
237.7535257505
 20
343.5298696378
 11
240.1439996102
 21
343.5298696378
  0
LINE
  5
2A7
100
AcDbEntity
  8
0
100
AcDbLine
 62
7
  6
CONTINUOUS
 10
232.3272977399
 20
343.7426355885
 11
232.9251416865
 21
343.7426355885
  0
LINE
  5
2A8
100
AcDbEntity
  8
0
100
AcDbLine
 62
7
  6
CONTINUOUS
 10
240.542296013
 20
343.7426355885
 11
241.2968353058
 21
343.7426355885
  0
LINE
  5
2A9
100
AcDbEntity
  8
0
100
AcDbLine
 62
7
  6
CONTINUOUS
 10
232.8819258541
 20
344.1681675085
 11
233.488255044
 21
344.1681675085
  0
LINE
  5
2AA
100
AcDbEntity
  8
0
100
AcDbLine
 62
7
  6
CONTINUOUS
 10
241.4981026726
 20
344.1681675085
 11
242.2764462148
 21
344.1681675085
  0
LINE
  5
2AB
100
AcDbEntity
  8
0
100
AcDbLine
 62
7
  6
CONTINUOUS
 10
226.3698971739
 20
344.8064653793
 11
229.1598266895
 21
344.8064653793
  0
LINE
  5
2AC
100
AcDbEntity
  8
0
100
AcDbLine
 62
7
  6
CONTINUOUS
 10
231.1678029569
 20
344.8064653793
 11
231.6684596924
 21
344.8064653793
  0
LINE
  5
2AD
100
AcDbEntity
  8
0
100
AcDbLine
 62
7
  6
CONTINUOUS
 10
237.7535257505
 20
344.8064653793
 11
239.4156934584
 21
344.8064653793
  0
LINE
  5
2AE
100
AcDbEntity
  8
0
100
AcDbLine
 62
7
  6
CONTINUOUS
 10
230.6897142577
 20
345.0192313114
 11
231.2638449176
 21
345.0192313114
  0
LINE
  5
2AF
100
AcDbEntity
  8
0
100
AcDbLine
 62
7
  6
CONTINUOUS
 10
233.4621742067
 20
345.0192313114
 11
234.0776443918
 21
345.0192313114
  0
LINE
  5
2B0
100
AcDbEntity
  8
0
100
AcDbLine
 62
7
  6
CONTINUOUS
 10
236.9807931486
 20
345.0192313114
 11
237.6582544284
 21
345.0192313114
  0
LINE
  5
2B1
100
AcDbEntity
  8
0
100
AcDbLine
 62
7
  6
CONTINUOUS
 10
242.5073599509
 20
345.0192313114
 11
243.3125486093
 21
345.0192313114
  0
LINE
  5
2B2
100
AcDbEntity
  8
0
100
AcDbLine
 62
7
  6
CONTINUOUS
 10
230.3454922492
 20
345.4447633245
 11
230.9148772616
 21
345.4447633245
  0
LINE
  5
2B3
100
AcDbEntity
  8
0
100
AcDbLine
 62
7
  6
CONTINUOUS
 10
236.4246889109
 20
345.6575292566
 11
237.0915272145
 21
345.6575292566
  0
LINE
  5
2B4
100
AcDbEntity
  8
0
100
AcDbLine
 62
7
  6
CONTINUOUS
 10
233.76226146
 20
345.8702951887
 11
234.382568962
 21
345.8702951887
  0
LINE
  5
2B5
100
AcDbEntity
  8
0
100
AcDbLine
 62
7
  6
CONTINUOUS
 10
243.0337422229
 20
345.8702951887
 11
243.8536909671
 21
345.8702951887
  0
LINE
  5
2B6
100
AcDbEntity
  8
0
100
AcDbLine
 62
7
  6
CONTINUOUS
 10
230.1226733998
 20
346.0830611208
 11
230.6890283872
 21
346.0830611208
  0
LINE
  5
2B7
100
AcDbEntity
  8
0
100
AcDbLine
 62
7
  6
CONTINUOUS
 10
235.199889075
 20
346.2958270529
 11
236.9070529223
 21
346.2958270529
  0
LINE
  5
2B8
100
AcDbEntity
  8
0
100
AcDbLine
 62
7
  6
CONTINUOUS
 10
230.0132341487
 20
346.9341248491
 11
230.5781127731
 21
346.9341248491
  0
LINE
  5
2B9
100
AcDbEntity
  8
0
100
AcDbLine
 62
7
  6
CONTINUOUS
 10
233.914865159
 20
346.9341248491
 11
234.5376621097
 21
346.9341248491
  0
LINE
  5
2BA
100
AcDbEntity
  8
0
100
AcDbLine
 62
7
  6
CONTINUOUS
 10
243.0337422229
 20
346.9341248491
 11
243.8536909671
 21
346.9341248491
  0
LINE
  5
2BB
100
AcDbEntity
  8
0
100
AcDbLine
 62
7
  6
CONTINUOUS
 10
224.56740736
 20
347.1468907812
 11
224.6227702213
 21
347.1468907812
  0
LINE
  5
2BC
100
AcDbEntity
  8
0
100
AcDbLine
 62
7
  6
CONTINUOUS
 10
242.5073599509
 20
347.7851888755
 11
243.3125486093
 21
347.7851888755
  0
LINE
  5
2BD
100
AcDbEntity
  8
0
100
AcDbLine
 62
7
  6
CONTINUOUS
 10
224.7024085687
 20
347.9979548076
 11
225.6455652054
 21
347.9979548076
  0
LINE
  5
2BE
100
AcDbEntity
  8
0
100
AcDbLine
 62
7
  6
CONTINUOUS
 10
238.1539702226
 20
347.9979548076
 11
239.4156934584
 21
347.9979548076
  0
LINE
  5
2BF
100
AcDbEntity
  8
0
100
AcDbLine
 62
7
  6
CONTINUOUS
 10
224.56740736
 20
348.2107207396
 11
224.6227702213
 21
348.2107207396
  0
LINE
  5
2C0
100
AcDbEntity
  8
0
100
AcDbLine
 62
7
  6
CONTINUOUS
 10
225.3143025368
 20
348.2107207396
 11
225.8223562693
 21
348.2107207396
  0
LINE
  5
2C1
100
AcDbEntity
  8
0
100
AcDbLine
 62
7
  6
CONTINUOUS
 10
241.4981026726
 20
348.6362526038
 11
242.2764462148
 21
348.6362526038
  0
LINE
  5
2C2
100
AcDbEntity
  8
0
100
AcDbLine
 62
7
  6
CONTINUOUS
 10
225.4712742961
 20
348.8490185359
 11
225.9810400943
 21
348.8490185359
  0
LWPOLYLINE
  5
2C3
100
AcDbEntity
  8
BEZUGSACHSEN
100
AcDbPolyline
 62
7
  6
CONTINUOUS
 90
3
 70
0
 10
329.2099139589
 20
334.0559676228
 10
330.3046885913
 20
333.9539192217
 10
330.4247393007
 20
333.9501982474
  0
LINE
  5
2C4
100
AcDbEntity
  8
RUNDUNGEN
100
AcDbLine
 62
7
  6
CONTINUOUS
 10
329.6080895276
 20
334.0199838374
 11
329.6960782924
 21
334.0106618235
  0
LINE
  5
2C5
100
AcDbEntity
  8
RUNDUNGEN
100
AcDbLine
 62
7
  6
CONTINUOUS
 10
329.5136803522
 20
334.0304779141
 11
329.6080895276
 21
334.0199838374
  0
LINE
  5
2C6
100
AcDbEntity
  8
RUNDUNGEN
100
AcDbLine
 62
7
  6
CONTINUOUS
 10
329.4233535341
 20
334.0409915606
 11
329.5136803522
 21
334.0304779141
  0
LINE
  5
2C7
100
AcDbEntity
  8
RUNDUNGEN
100
AcDbLine
 62
7
  6
CONTINUOUS
 10
329.3392399355
 20
334.0511989566
 11
329.4233535341
 21
334.0409915606
  0
LINE
  5
2C8
100
AcDbEntity
  8
RUNDUNGEN
100
AcDbLine
 62
7
  6
CONTINUOUS
 10
329.2433746848
 20
334.0633236175
 11
329.3392399355
 21
334.0511989566
  0
LINE
  5
2C9
100
AcDbEntity
  8
RUNDUNGEN
100
AcDbLine
 62
7
  6
CONTINUOUS
 10
329.1550792701
 20
334.0749546463
 11
329.2433746848
 21
334.0633236175
  0
LINE
  5
2CA
100
AcDbEntity
  8
RUNDUNGEN
100
AcDbLine
 62
7
  6
CONTINUOUS
 10
329.0721155536
 20
334.0862893674
 11
329.1550792701
 21
334.0749546463
  0
LINE
  5
2CB
100
AcDbEntity
  8
RUNDUNGEN
100
AcDbLine
 62
7
  6
CONTINUOUS
 10
328.9924577042
 20
334.0975433246
 11
329.0721155536
 21
334.0862893674
  0
LINE
  5
2CC
100
AcDbEntity
  8
RUNDUNGEN
100
AcDbLine
 62
7
  6
CONTINUOUS
 10
328.8998582491
 20
334.1110832679
 11
328.9924577042
 21
334.0975433246
  0
LINE
  5
2CD
100
AcDbEntity
  8
RUNDUNGEN
100
AcDbLine
 62
7
  6
CONTINUOUS
 10
328.810170785
 20
334.1246674478
 11
328.8998582491
 21
334.1110832679
  0
LINE
  5
2CE
100
AcDbEntity
  8
RUNDUNGEN
100
AcDbLine
 62
7
  6
CONTINUOUS
 10
328.7230576527
 20
334.1383055196
 11
328.810170785
 21
334.1246674478
  0
LINE
  5
2CF
100
AcDbEntity
  8
RUNDUNGEN
100
AcDbLine
 62
7
  6
CONTINUOUS
 10
328.6381819763
 20
334.152014901
 11
328.7230576527
 21
334.1383055196
  0
LINE
  5
2D0
100
AcDbEntity
  8
RUNDUNGEN
100
AcDbLine
 62
7
  6
CONTINUOUS
 10
328.5552137865
 20
334.1658192923
 11
328.6381819763
 21
334.152014901
  0
LINE
  5
2D1
100
AcDbEntity
  8
RUNDUNGEN
100
AcDbLine
 62
7
  6
CONTINUOUS
 10
328.4739530596
 20
334.1797268003
 11
328.5552137865
 21
334.1658192923
  0
LINE
  5
2D2
100
AcDbEntity
  8
RUNDUNGEN
100
AcDbLine
 62
7
  6
CONTINUOUS
 10
328.3943235386
 20
334.1937277199
 11
328.4739530596
 21
334.1797268003
  0
LINE
  5
2D3
100
AcDbEntity
  8
RUNDUNGEN
100
AcDbLine
 62
7
  6
CONTINUOUS
 10
328.3162539732
 20
334.207813243
 11
328.3943235386
 21
334.1937277199
  0
LINE
  5
2D4
100
AcDbEntity
  8
RUNDUNGEN
100
AcDbLine
 62
7
  6
CONTINUOUS
 10
328.2270494724
 20
334.2243438153
 11
328.3162539732
 21
334.207813243
  0
LINE
  5
2D5
100
AcDbEntity
  8
RUNDUNGEN
100
AcDbLine
 62
7
  6
CONTINUOUS
 10
328.1397584986
 20
334.2409712033
 11
328.2270494724
 21
334.2243438153
  0
LINE
  5
2D6
100
AcDbEntity
  8
RUNDUNGEN
100
AcDbLine
 62
7
  6
CONTINUOUS
 10
328.0542683706
 20
334.2576895684
 11
328.1397584986
 21
334.2409712033
  0
LINE
  5
2D7
100
AcDbEntity
  8
RUNDUNGEN
100
AcDbLine
 62
7
  6
CONTINUOUS
 10
327.9704665983
 20
334.2744957769
 11
328.0542683706
 21
334.2576895684
  0
LINE
  5
2D8
100
AcDbEntity
  8
RUNDUNGEN
100
AcDbLine
 62
7
  6
CONTINUOUS
 10
327.8882549074
 20
334.2913863807
 11
327.9704665983
 21
334.2744957769
  0
LINE
  5
2D9
100
AcDbEntity
  8
RUNDUNGEN
100
AcDbLine
 62
7
  6
CONTINUOUS
 10
327.8075786401
 20
334.3083509319
 11
327.8882549074
 21
334.2913863807
  0
LINE
  5
2DA
100
AcDbEntity
  8
RUNDUNGEN
100
AcDbLine
 62
7
  6
CONTINUOUS
 10
327.7283917813
 20
334.3253784818
 11
327.8075786401
 21
334.3083509319
  0
LINE
  5
2DB
100
AcDbEntity
  8
RUNDUNGEN
100
AcDbLine
 62
7
  6
CONTINUOUS
 10
327.6506482551
 20
334.3424592719
 11
327.7283917813
 21
334.3253784818
  0
LINE
  5
2DC
100
AcDbEntity
  8
RUNDUNGEN
100
AcDbLine
 62
7
  6
CONTINUOUS
 10
327.5635067239
 20
334.3620343741
 11
327.6506482551
 21
334.3424592719
  0
LINE
  5
2DD
100
AcDbEntity
  8
RUNDUNGEN
100
AcDbLine
 62
7
  6
CONTINUOUS
 10
327.4781213317
 20
334.3816567349
 11
327.5635067239
 21
334.3620343741
  0
LINE
  5
2DE
100
AcDbEntity
  8
RUNDUNGEN
100
AcDbLine
 62
7
  6
CONTINUOUS
 10
327.3944232575
 20
334.4013171204
 11
327.4781213317
 21
334.3816567349
  0
LINE
  5
2DF
100
AcDbEntity
  8
RUNDUNGEN
100
AcDbLine
 62
7
  6
CONTINUOUS
 10
327.3123448228
 20
334.4210078008
 11
327.3944232575
 21
334.4013171204
  0
LINE
  5
2E0
100
AcDbEntity
  8
RUNDUNGEN
100
AcDbLine
 62
7
  6
CONTINUOUS
 10
327.2318389659
 20
334.4407176508
 11
327.3123448228
 21
334.4210078008
  0
LINE
  5
2E1
100
AcDbEntity
  8
RUNDUNGEN
100
AcDbLine
 62
7
  6
CONTINUOUS
 10
327.1528761641
 20
334.460432378
 11
327.2318389659
 21
334.4407176508
  0
LINE
  5
2E2
100
AcDbEntity
  8
RUNDUNGEN
100
AcDbLine
 62
7
  6
CONTINUOUS
 10
327.0754270737
 20
334.4801385308
 11
327.1528761641
 21
334.460432378
  0
LINE
  5
2E3
100
AcDbEntity
  8
RUNDUNGEN
100
AcDbLine
 62
7
  6
CONTINUOUS
 10
326.9900691732
 20
334.5022821914
 11
327.0754270737
 21
334.4801385308
  0
LINE
  5
2E4
100
AcDbEntity
  8
RUNDUNGEN
100
AcDbLine
 62
7
  6
CONTINUOUS
 10
326.9065465091
 20
334.5243828799
 11
326.9900691732
 21
334.5022821914
  0
LINE
  5
2E5
100
AcDbEntity
  8
RUNDUNGEN
100
AcDbLine
 62
7
  6
CONTINUOUS
 10
326.8248155173
 20
334.5464257664
 11
326.9065465091
 21
334.5243828799
  0
LINE
  5
2E6
100
AcDbEntity
  8
RUNDUNGEN
100
AcDbLine
 62
7
  6
CONTINUOUS
 10
326.744831879
 20
334.568397542
 11
326.8248155173
 21
334.5464257664
  0
LINE
  5
2E7
100
AcDbEntity
  8
RUNDUNGEN
100
AcDbLine
 62
7
  6
CONTINUOUS
 10
326.6665721192
 20
334.5902803093
 11
326.744831879
 21
334.568397542
  0
LWPOLYLINE
  5
2E8
100
AcDbEntity
  8
BEZUGSACHSEN
100
AcDbPolyline
 62
7
  6
CONTINUOUS
 90
4
 70
0
 10
325.9900177805
 20
334.765376543
 10
327.0484503313
 20
334.4624223161
 10
328.1231176739
 20
334.2256687161
 10
329.2099139589
 20
334.0559676228
  0
LINE
  5
2E9
100
AcDbEntity
  8
RUNDUNGEN
100
AcDbLine
 62
7
  6
CONTINUOUS
 10
326.5900958967
 20
334.6120331811
 11
326.6665721192
 21
334.5902803093
  0
LINE
  5
2EA
100
AcDbEntity
  8
RUNDUNGEN
100
AcDbLine
 62
7
  6
CONTINUOUS
 10
326.5073072251
 20
334.635994064
 11
326.5900958967
 21
334.6120331811
  0
LINE
  5
2EB
100
AcDbEntity
  8
RUNDUNGEN
100
AcDbLine
 62
7
  6
CONTINUOUS
 10
326.4269141111
 20
334.6596736286
 11
326.5073072251
 21
334.635994064
  0
LINE
  5
2EC
100
AcDbEntity
  8
RUNDUNGEN
100
AcDbLine
 62
7
  6
CONTINUOUS
 10
326.349008315
 20
334.6830094054
 11
326.4269141111
 21
334.6596736286
  0
LINE
  5
2ED
100
AcDbEntity
  8
RUNDUNGEN
100
AcDbLine
 62
7
  6
CONTINUOUS
 10
326.2736933365
 20
334.7059343893
 11
326.349008315
 21
334.6830094054
  0
LINE
  5
2EE
100
AcDbEntity
  8
RUNDUNGEN
100
AcDbLine
 62
7
  6
CONTINUOUS
 10
326.1943372845
 20
334.730479414
 11
326.2736933365
 21
334.7059343893
  0
LINE
  5
2EF
100
AcDbEntity
  8
RUNDUNGEN
100
AcDbLine
 62
7
  6
CONTINUOUS
 10
326.1128514883
 20
334.7561011924
 11
326.1943372845
 21
334.730479414
  0
LINE
  5
2F0
100
AcDbEntity
  8
RUNDUNGEN
100
AcDbLine
 62
7
  6
CONTINUOUS
 10
326.0375455074
 20
334.7801577509
 11
326.1128514883
 21
334.7561011924
  0
LINE
  5
2F1
100
AcDbEntity
  8
RUNDUNGEN
100
AcDbLine
 62
7
  6
CONTINUOUS
 10
325.9825263741
 20
334.7979635855
 11
326.0375455074
 21
334.7801577509
  0
LINE
  5
2F2
100
AcDbEntity
  8
0
100
AcDbLine
 62
7
  6
CONTINUOUS
 10
241.4981026726
 20
346.0830611208
 11
241.4981026726
 21
346.721358917
  0
LINE
  5
2F3
100
AcDbEntity
  8
BEZUGSACHSEN
100
AcDbLine
 62
7
  6
CONTINUOUS
 10
242.5336228189
 20
395.9198696378
 11
242.5336228189
 21
418.5170867198
  0
LINE
  5
2F4
100
AcDbEntity
  8
0
100
AcDbLine
 62
7
  6
CONTINUOUS
 10
243.0337422229
 20
345.8702951887
 11
243.0337422229
 21
346.9341248491
  0
LINE
  5
2F5
100
AcDbEntity
  8
0
100
AcDbLine
 62
7
  6
CONTINUOUS
 10
243.8536909671
 20
345.8702951887
 11
243.8536909671
 21
346.9341248491
  0
LINE
  5
2F6
100
AcDbEntity
  8
0
100
AcDbLine
 62
7
  6
CONTINUOUS
 10
249.3113903162
 20
387.1698696378
 11
249.3113903162
 21
386.9198696378
  0
LINE
  5
2F7
100
AcDbEntity
  8
0
100
AcDbLine
 62
7
  6
CONTINUOUS
 10
249.3113903162
 20
316.9198696378
 11
249.3113903162
 21
316.6698696378
  0
LINE
  5
2F8
100
AcDbEntity
  8
0
100
AcDbLine
 62
7
  6
CONTINUOUS
 10
240.542296013
 20
349.061784468
 11
241.2968353058
 21
349.061784468
  0
LINE
  5
2F9
100
AcDbEntity
  8
0
100
AcDbLine
 62
7
  6
CONTINUOUS
 10
224.7024085687
 20
349.2745504001
 11
225.1725015869
 21
349.2745504001
  0
LINE
  5
2FA
100
AcDbEntity
  8
0
100
AcDbLine
 62
7
  6
CONTINUOUS
 10
238.1539702226
 20
349.2745504001
 11
240.1439996102
 21
349.2745504001
  0
LINE
  5
2FB
100
AcDbEntity
  8
0
100
AcDbLine
 62
7
  6
CONTINUOUS
 10
237.5568855897
 20
349.4873163321
 11
238.2457182239
 21
349.4873163321
  0
LINE
  5
2FC
100
AcDbEntity
  8
0
100
AcDbLine
 62
7
  6
CONTINUOUS
 10
225.5990509319
 20
349.7000822642
 11
226.0348312192
 21
349.7000822642
  0
LINE
  5
2FD
100
AcDbEntity
  8
0
100
AcDbLine
 62
7
  6
CONTINUOUS
 10
236.9807931486
 20
349.9128481963
 11
237.6582544284
 21
349.9128481963
  0
LINE
  5
2FE
100
AcDbEntity
  8
0
100
AcDbLine
 62
7
  6
CONTINUOUS
 10
225.6435709402
 20
350.3383800605
 11
226.0348312192
 21
350.3383800605
  0
LINE
  5
2FF
100
AcDbEntity
  8
0
100
AcDbLine
 62
7
  6
CONTINUOUS
 10
236.7932494643
 20
350.5511459926
 11
237.4670902092
 21
350.5511459926
  0
LINE
  5
300
100
AcDbEntity
  8
0
100
AcDbLine
 62
7
  6
CONTINUOUS
 10
236.7932494643
 20
350.9766778567
 11
237.4670902092
 21
350.9766778567
  0
LINE
  5
301
100
AcDbEntity
  8
0
100
AcDbLine
 62
7
  6
CONTINUOUS
 10
225.6435709402
 20
351.1894443849
 11
226.0348312192
 21
351.1894443849
  0
LINE
  5
302
100
AcDbEntity
  8
0
100
AcDbLine
 62
7
  6
CONTINUOUS
 10
240.776505813
 20
351.1894443849
 11
243.0479095731
 21
351.1894443849
  0
LINE
  5
303
100
AcDbEntity
  8
0
100
AcDbLine
 62
7
  6
CONTINUOUS
 10
236.9807931486
 20
351.614976249
 11
237.6582544284
 21
351.614976249
  0
LINE
  5
304
100
AcDbEntity
  8
0
100
AcDbLine
 62
7
  6
CONTINUOUS
 10
225.5990509319
 20
351.8277421811
 11
226.0348312192
 21
351.8277421811
  0
LINE
  5
305
100
AcDbEntity
  8
0
100
AcDbLine
 62
7
  6
CONTINUOUS
 10
241.9957249382
 20
351.8277421811
 11
242.7870742032
 21
351.8277421811
  0
LINE
  5
306
100
AcDbEntity
  8
0
100
AcDbLine
 62
7
  6
CONTINUOUS
 10
237.5568855897
 20
352.0405081132
 11
238.2457182239
 21
352.0405081132
  0
LINE
  5
307
100
AcDbEntity
  8
0
100
AcDbLine
 62
7
  6
CONTINUOUS
 10
238.1539702226
 20
352.2532740453
 11
239.4156934584
 21
352.2532740453
  0
LINE
  5
308
100
AcDbEntity
  8
0
100
AcDbLine
 62
7
  6
CONTINUOUS
 10
224.7024085687
 20
352.4660399774
 11
225.1725015869
 21
352.4660399774
  0
LINE
  5
309
100
AcDbEntity
  8
0
100
AcDbLine
 62
7
  6
CONTINUOUS
 10
225.4712742961
 20
352.6788059094
 11
225.9810400943
 21
352.6788059094
  0
LINE
  5
30A
100
AcDbEntity
  8
0
100
AcDbLine
 62
7
  6
CONTINUOUS
 10
241.254334003
 20
352.6788059094
 11
242.0264631835
 21
352.6788059094
  0
LINE
  5
30B
100
AcDbEntity
  8
0
100
AcDbLine
 62
7
  6
CONTINUOUS
 10
225.3143025368
 20
353.3171037057
 11
225.8223562693
 21
353.3171037057
  0
LINE
  5
30C
100
AcDbEntity
  8
0
100
AcDbLine
 62
7
  6
CONTINUOUS
 10
240.3111327942
 20
353.3171037057
 11
241.0601346232
 21
353.3171037057
  0
LINE
  5
30D
100
AcDbEntity
  8
0
100
AcDbLine
 62
7
  6
CONTINUOUS
 10
224.6227702213
 20
353.5298696378
 11
225.6455652054
 21
353.5298696378
  0
LINE
  5
30E
100
AcDbEntity
  8
0
100
AcDbLine
 62
7
  6
CONTINUOUS
 10
226.0348312192
 20
353.5298696378
 11
226.8896918727
 21
353.5298696378
  0
LINE
  5
30F
100
AcDbEntity
  8
0
100
AcDbLine
 62
7
  6
CONTINUOUS
 10
229.3835148409
 20
353.5298696378
 11
230.5781127731
 21
353.5298696378
  0
LINE
  5
310
100
AcDbEntity
  8
0
100
AcDbLine
 62
7
  6
CONTINUOUS
 10
233.0245436535
 20
353.5298696378
 11
234.5376621097
 21
353.5298696378
  0
LINE
  5
311
100
AcDbEntity
  8
0
100
AcDbLine
 62
7
  6
CONTINUOUS
 10
238.1539702226
 20
353.5298696378
 11
239.9223048511
 21
353.5298696378
  0
LINE
  5
312
100
AcDbEntity
  8
BEZUGSACHSEN
100
AcDbLine
 62
7
  6
CONTINUOUS
 10
324.9518821573
 20
335.1334248414
 11
325.9900177805
 21
334.765376543
  0
LINE
  5
313
100
AcDbEntity
  8
KONSTRUKTIONSELEMENTE
100
AcDbLine
 62
7
  6
CONTINUOUS
 10
250.1113903162
 20
395.4198696378
 11
250.1113903162
 21
395.9198696378
  0
LINE
  5
314
100
AcDbEntity
  8
BEZUGSACHSEN
100
AcDbLine
 62
7
  6
CONTINUOUS
 10
250.1113903162
 20
395.4198696378
 11
250.1113903162
 21
395.9198696378
  0
LINE
  5
315
100
AcDbEntity
  8
KONSTRUKTIONSELEMENTE
100
AcDbLine
 62
7
  6
CONTINUOUS
 10
253.77790786
 20
421.4198696378
 11
253.77790786
 21
421.6198696378
  0
LINE
  5
316
100
AcDbEntity
  8
BEZUGSACHSEN
100
AcDbLine
 62
7
  6
CONTINUOUS
 10
259.0613903162
 20
308.4198696378
 11
259.0613903162
 21
249.4198696378
  0
LINE
  5
317
100
AcDbEntity
  8
BEZUGSACHSEN
100
AcDbLine
 62
7
  6
CONTINUOUS
 10
261.2975065675
 20
395.9198696378
 11
261.2975065675
 21
418.5170867198
  0
LINE
  5
318
100
AcDbEntity
  8
BEZUGSACHSEN
100
AcDbLine
 62
7
  6
CONTINUOUS
 10
242.5336228189
 20
418.5170867198
 11
247.5613903162
 21
421.4198696378
  0
LINE
  5
319
100
AcDbEntity
  8
0
100
AcDbLine
 62
7
  6
CONTINUOUS
 10
224.5666416451
 20
361.9698696378
 11
225.0666969284
 21
361.9698696378
  0
LINE
  5
31A
100
AcDbEntity
  8
0
100
AcDbLine
 62
7
  6
CONTINUOUS
 10
225.1846460211
 20
361.9698696378
 11
227.39651569
 21
361.9698696378
  0
LINE
  5
31B
100
AcDbEntity
  8
0
100
AcDbLine
 62
7
  6
CONTINUOUS
 10
224.6103910256
 20
362.2677419688
 11
225.110907358
 21
362.2677419688
  0
LINE
  5
31C
100
AcDbEntity
  8
0
100
AcDbLine
 62
7
  6
CONTINUOUS
 10
227.3664242111
 20
362.2677419688
 11
227.8978149864
 21
362.2677419688
  0
LINE
  5
31D
100
AcDbEntity
  8
0
100
AcDbLine
 62
7
  6
CONTINUOUS
 10
224.6773869852
 20
362.8634866568
 11
225.1786110077
 21
362.8634866568
  0
LINE
  5
31E
100
AcDbEntity
  8
0
100
AcDbLine
 62
7
  6
CONTINUOUS
 10
227.8009415361
 20
362.8634866568
 11
228.3375531353
 21
362.8634866568
  0
LINE
  5
31F
100
AcDbEntity
  8
0
100
AcDbLine
 62
7
  6
CONTINUOUS
 10
224.5613902739
 20
363.7571036759
 11
224.5666411731
 21
363.7571036759
  0
LINE
  5
320
100
AcDbEntity
  8
0
100
AcDbLine
 62
7
  6
CONTINUOUS
 10
225.5028268022
 20
363.7571036759
 11
226.8709547744
 21
363.7571036759
  0
LINE
  5
321
100
AcDbEntity
  8
0
100
AcDbLine
 62
7
  6
CONTINUOUS
 10
224.7729503729
 20
364.0549759808
 11
225.1846460211
 21
364.0549759808
  0
LINE
  5
322
100
AcDbEntity
  8
0
100
AcDbLine
 62
7
  6
CONTINUOUS
 10
228.2704389635
 20
364.0549759808
 11
228.8128089481
 21
364.0549759808
  0
LINE
  5
323
100
AcDbEntity
  8
0
100
AcDbLine
 62
7
  6
CONTINUOUS
 10
224.626451771
 20
364.6507207992
 11
224.6403268108
 21
364.6507207992
  0
LINE
  5
324
100
AcDbEntity
  8
0
100
AcDbLine
 62
7
  6
CONTINUOUS
 10
224.8314963817
 20
365.2464654091
 11
225.1846460211
 21
365.2464654091
  0
LINE
  5
325
100
AcDbEntity
  8
0
100
AcDbLine
 62
7
  6
CONTINUOUS
 10
228.5186522655
 20
365.2464654091
 11
229.0641171258
 21
365.2464654091
  0
LINE
  5
326
100
AcDbEntity
  8
0
100
AcDbLine
 62
7
  6
CONTINUOUS
 10
224.660416139
 20
365.544337714
 11
224.6773869852
 21
365.544337714
  0
LINE
  5
327
100
AcDbEntity
  8
0
100
AcDbLine
 62
7
  6
CONTINUOUS
 10
224.6800721851
 20
366.7358269337
 11
224.6985938574
 21
366.7358269337
  0
LINE
  5
328
100
AcDbEntity
  8
0
100
AcDbLine
 62
7
  6
CONTINUOUS
 10
224.863471603
 20
366.7358269337
 11
225.1846460211
 21
366.7358269337
  0
LINE
  5
329
100
AcDbEntity
  8
0
100
AcDbLine
 62
7
  6
CONTINUOUS
 10
228.6461898498
 20
366.7358269337
 11
229.1932587908
 21
366.7358269337
  0
LINE
  5
32A
100
AcDbEntity
  8
0
100
AcDbLine
 62
7
  6
CONTINUOUS
 10
228.6461898498
 20
371.2039119246
 11
229.1932587908
 21
371.2039119246
  0
LINE
  5
32B
100
AcDbEntity
  8
KONSTRUKTIONSELEMENTE
100
AcDbLine
 62
7
  6
CONTINUOUS
 10
261.7200821555
 20
421.4198696378
 11
261.7200821555
 21
421.6198696378
  0
LINE
  5
32C
100
AcDbEntity
  8
KONSTRUKTIONSELEMENTE
100
AcDbLine
 62
7
  6
CONTINUOUS
 10
261.8031139178
 20
421.4198696378
 11
261.8031139178
 21
421.6198696378
  0
LINE
  5
32D
100
AcDbEntity
  8
KONSTRUKTIONSELEMENTE
100
AcDbLine
 62
7
  6
CONTINUOUS
 10
262.1490795809
 20
421.4198696378
 11
262.1490795809
 21
421.6198696378
  0
LINE
  5
32E
100
AcDbEntity
  8
KONSTRUKTIONSELEMENTE
100
AcDbLine
 62
7
  6
CONTINUOUS
 10
262.2459499966
 20
421.4198696378
 11
262.2459499966
 21
421.6198696378
  0
LINE
  5
32F
100
AcDbEntity
  8
KONSTRUKTIONSELEMENTE
100
AcDbLine
 62
7
  6
CONTINUOUS
 10
262.3569788901
 20
421.4198696378
 11
262.3569788901
 21
421.6198696378
  0
LINE
  5
330
100
AcDbEntity
  8
KONSTRUKTIONSELEMENTE
100
AcDbLine
 62
7
  6
CONTINUOUS
 10
262.8516657723
 20
421.4198696378
 11
262.8516657723
 21
421.6198696378
  0
LINE
  5
331
100
AcDbEntity
  8
KONSTRUKTIONSELEMENTE
100
AcDbLine
 62
7
  6
CONTINUOUS
 10
263.2353844875
 20
421.4198696378
 11
263.2353844875
 21
421.6198696378
  0
LINE
  5
332
100
AcDbEntity
  8
KONSTRUKTIONSELEMENTE
100
AcDbLine
 62
7
  6
CONTINUOUS
 10
263.4172184555
 20
421.4198696378
 11
263.4172184555
 21
421.6198696378
  0
LINE
  5
333
100
AcDbEntity
  8
KONSTRUKTIONSELEMENTE
100
AcDbLine
 62
7
  6
CONTINUOUS
 10
263.4880842702
 20
421.4198696378
 11
263.4880842702
 21
421.6198696378
  0
LINE
  5
334
100
AcDbEntity
  8
KONSTRUKTIONSELEMENTE
100
AcDbLine
 62
7
  6
CONTINUOUS
 10
264.6133550396
 20
421.4198696378
 11
264.6133550396
 21
421.6198696378
  0
LINE
  5
335
100
AcDbEntity
  8
KONSTRUKTIONSELEMENTE
100
AcDbLine
 62
7
  6
CONTINUOUS
 10
266.3887304188
 20
421.4198696378
 11
266.3887304188
 21
421.6198696378
  0
LINE
  5
336
100
AcDbEntity
  8
KONSTRUKTIONSELEMENTE
100
AcDbLine
 62
7
  6
CONTINUOUS
 10
266.6280334949
 20
421.4198696378
 11
266.6280334949
 21
421.6198696378
  0
LINE
  5
337
100
AcDbEntity
  8
KONSTRUKTIONSELEMENTE
100
AcDbLine
 62
7
  6
CONTINUOUS
 10
266.6627949444
 20
421.4198696378
 11
266.6627949444
 21
421.6198696378
  0
LINE
  5
338
100
AcDbEntity
  8
KONSTRUKTIONSELEMENTE
100
AcDbLine
 62
7
  6
CONTINUOUS
 10
271.1163493431
 20
421.4198696378
 11
271.1163493431
 21
421.6198696378
  0
LINE
  5
339
100
AcDbEntity
  8
0
100
AcDbLine
 62
7
  6
CONTINUOUS
 10
228.5186522655
 20
372.6932742837
 11
229.0641171258
 21
372.6932742837
  0
LINE
  5
33A
100
AcDbEntity
  8
0
100
AcDbLine
 62
7
  6
CONTINUOUS
 10
228.2704389635
 20
373.8847635034
 11
228.8128089481
 21
373.8847635034
  0
LINE
  5
33B
100
AcDbEntity
  8
0
100
AcDbLine
 62
7
  6
CONTINUOUS
 10
225.5028268022
 20
374.1826358083
 11
226.8709547744
 21
374.1826358083
  0
LINE
  5
33C
100
AcDbEntity
  8
0
100
AcDbLine
 62
7
  6
CONTINUOUS
 10
227.8009415361
 20
375.076252723
 11
228.3375531353
 21
375.076252723
  0
LINE
  5
33D
100
AcDbEntity
  8
0
100
AcDbLine
 62
7
  6
CONTINUOUS
 10
227.3664242111
 20
375.6719973329
 11
227.8978149864
 21
375.6719973329
  0
LINE
  5
33E
100
AcDbEntity
  8
0
100
AcDbLine
 62
7
  6
CONTINUOUS
 10
224.6800721851
 20
375.9698696378
 11
227.39651569
 21
375.9698696378
  0
LINE
  5
33F
100
AcDbEntity
  8
0
100
AcDbLine
 62
7
  6
CONTINUOUS
 10
317.7741022356
 20
381.9198696378
 11
317.5613911382
 21
381.9198974731
  0
LINE
  5
340
100
AcDbEntity
  8
BEZUGSACHSEN
100
AcDbLine
 62
7
  6
CONTINUOUS
 10
345.3486783968
 20
381.9198696378
 11
345.5613894935
 21
381.9198974732
  0
LINE
  5
341
100
AcDbEntity
  8
KONSTRUKTIONSELEMENTE
100
AcDbLine
 62
7
  6
CONTINUOUS
 10
273.0263830749
 20
421.4198696378
 11
273.0263830749
 21
421.6198696378
  0
LINE
  5
342
100
AcDbEntity
  8
KONSTRUKTIONSELEMENTE
100
AcDbLine
 62
7
  6
CONTINUOUS
 10
273.6982063147
 20
421.4198696378
 11
273.6982063147
 21
421.6198696378
  0
LINE
  5
343
100
AcDbEntity
  8
KONSTRUKTIONSELEMENTE
100
AcDbLine
 62
7
  6
CONTINUOUS
 10
275.26579302
 20
421.4198696378
 11
275.26579302
 21
421.6198696378
  0
LINE
  5
344
100
AcDbEntity
  8
KONSTRUKTIONSELEMENTE
100
AcDbLine
 62
7
  6
CONTINUOUS
 10
276.1615590483
 20
421.4198696378
 11
276.1615590483
 21
421.6198696378
  0
LINE
  5
345
100
AcDbEntity
  8
KONSTRUKTIONSELEMENTE
100
AcDbLine
 62
7
  6
CONTINUOUS
 10
276.225502129
 20
421.4198696378
 11
276.225502129
 21
421.6198696378
  0
LINE
  5
346
100
AcDbEntity
  8
KONSTRUKTIONSELEMENTE
100
AcDbLine
 62
7
  6
CONTINUOUS
 10
277.7291457535
 20
421.4198696378
 11
277.7291457535
 21
421.6198696378
  0
LINE
  5
347
100
AcDbEntity
  8
KONSTRUKTIONSELEMENTE
100
AcDbLine
 62
7
  6
CONTINUOUS
 10
278.4009689933
 20
421.4198696378
 11
278.4009689933
 21
421.6198696378
  0
LINE
  5
348
100
AcDbEntity
  8
KONSTRUKTIONSELEMENTE
100
AcDbLine
 62
7
  6
CONTINUOUS
 10
279.57777519
 20
421.4198696378
 11
279.57777519
 21
421.6198696378
  0
LINE
  5
349
100
AcDbEntity
  8
KONSTRUKTIONSELEMENTE
100
AcDbLine
 62
7
  6
CONTINUOUS
 10
282.1244892397
 20
421.4198696378
 11
282.1244892397
 21
421.6198696378
  0
LINE
  5
34A
100
AcDbEntity
  8
KONSTRUKTIONSELEMENTE
100
AcDbLine
 62
7
  6
CONTINUOUS
 10
282.813632237
 20
421.4198696378
 11
282.813632237
 21
421.6198696378
  0
LINE
  5
34B
100
AcDbEntity
  8
KONSTRUKTIONSELEMENTE
100
AcDbLine
 62
7
  6
CONTINUOUS
 10
283.0234901764
 20
421.4198696378
 11
283.0234901764
 21
421.6198696378
  0
LINE
  5
34C
100
AcDbEntity
  8
KONSTRUKTIONSELEMENTE
100
AcDbLine
 62
7
  6
CONTINUOUS
 10
284.1720627149
 20
421.4198696378
 11
284.1720627149
 21
421.6198696378
  0
LINE
  5
34D
100
AcDbEntity
  8
KONSTRUKTIONSELEMENTE
100
AcDbLine
 62
7
  6
CONTINUOUS
 10
284.2620018437
 20
421.4198696378
 11
284.2620018437
 21
421.6198696378
  0
LINE
  5
34E
100
AcDbEntity
  8
RUNDUNGEN
100
AcDbLine
 62
7
  6
CONTINUOUS
 10
230.0613903162
 20
386.9198696378
 11
317.5613903162
 21
386.9198696378
  0
LINE
  5
34F
100
AcDbEntity
  8
0
100
AcDbLine
 62
7
  6
CONTINUOUS
 10
317.5613903162
 20
387.1698696378
 11
237.5613903162
 21
387.1698696378
  0
LINE
  5
350
100
AcDbEntity
  8
0
100
AcDbLine
 62
7
  6
CONTINUOUS
 10
317.5613903162
 20
395.4198696378
 11
237.5613903162
 21
395.4198696378
  0
LINE
  5
351
100
AcDbEntity
  8
KONSTRUKTIONSELEMENTE
100
AcDbLine
 62
7
  6
CONTINUOUS
 10
284.878693264
 20
421.4198696378
 11
284.878693264
 21
421.6198696378
  0
LINE
  5
352
100
AcDbEntity
  8
KONSTRUKTIONSELEMENTE
100
AcDbLine
 62
7
  6
CONTINUOUS
 10
288.734412964
 20
421.4198696378
 11
288.734412964
 21
421.6198696378
  0
LINE
  5
353
100
AcDbEntity
  8
KONSTRUKTIONSELEMENTE
100
AcDbLine
 62
7
  6
CONTINUOUS
 10
289.0496553695
 20
421.4198696378
 11
289.0496553695
 21
421.6198696378
  0
LINE
  5
354
100
AcDbEntity
  8
KONSTRUKTIONSELEMENTE
100
AcDbLine
 62
7
  6
CONTINUOUS
 10
290.1154119166
 20
421.4198696378
 11
290.1154119166
 21
421.6198696378
  0
LINE
  5
355
100
AcDbEntity
  8
KONSTRUKTIONSELEMENTE
100
AcDbLine
 62
7
  6
CONTINUOUS
 10
290.5187656176
 20
421.4198696378
 11
290.5187656176
 21
421.6198696378
  0
LINE
  5
356
100
AcDbEntity
  8
KONSTRUKTIONSELEMENTE
100
AcDbLine
 62
7
  6
CONTINUOUS
 10
290.8780611974
 20
421.4198696378
 11
290.8780611974
 21
421.6198696378
  0
LINE
  5
357
100
AcDbEntity
  8
KONSTRUKTIONSELEMENTE
100
AcDbLine
 62
7
  6
CONTINUOUS
 10
291.0041583185
 20
421.4198696378
 11
291.0041583185
 21
421.6198696378
  0
LINE
  5
358
100
AcDbEntity
  8
KONSTRUKTIONSELEMENTE
100
AcDbLine
 62
7
  6
CONTINUOUS
 10
291.1492505168
 20
421.4198696378
 11
291.1492505168
 21
421.6198696378
  0
LINE
  5
359
100
AcDbEntity
  8
KONSTRUKTIONSELEMENTE
100
AcDbLine
 62
7
  6
CONTINUOUS
 10
242.5336228189
 20
395.9198696378
 11
317.5613903162
 21
395.9198696378
  0
LINE
  5
35A
100
AcDbEntity
  8
BEZUGSACHSEN
100
AcDbLine
 62
7
  6
CONTINUOUS
 10
298.8252740649
 20
395.9198696378
 11
298.8252740649
 21
418.5170867198
  0
LINE
  5
35B
100
AcDbEntity
  8
BEZUGSACHSEN
100
AcDbLine
 62
7
  6
CONTINUOUS
 10
301.0613903162
 20
249.4198696378
 11
301.0613903162
 21
308.4198696378
  0
LINE
  5
35C
100
AcDbEntity
  8
BEZUGSACHSEN
100
AcDbLine
 62
7
  6
CONTINUOUS
 10
345.5615592139
 20
475.6522129847
 11
344.5613903162
 21
473.9198696378
  0
LWPOLYLINE
  5
35D
100
AcDbEntity
  8
BEZUGSACHSEN
100
AcDbPolyline
 62
7
  6
CONTINUOUS
 90
19
 70
0
 10
313.6739085479
 20
349.8490770985
 10
313.7585254546
 20
349.2002135216
 10
313.9565482324
 20
348.1035449262
 10
314.2216386407
 20
347.0221114649
 10
314.5526981452
 20
345.96000567
 10
314.9483809195
 20
344.9212297284
 10
315.40709809
 20
343.9096939299
 10
315.9270176688
 20
342.9292121769
 10
316.50607888
 20
341.9834694308
 10
317.141978724
 20
341.076040817
 10
317.8322438206
 20
340.2102890346
 10
318.5741844038
 20
339.3894437763
 10
319.364928883
 20
338.6165550315
 10
320.2014219581
 20
337.8944973248
 10
321.0804364076
 20
337.2259561977
 10
321.9985821959
 20
336.6134185096
 10
322.9523333955
 20
336.0591532751
 10
323.9380261723
 20
335.5652140116
 10
324.9518821573
 20
335.1334248414
  0
LWPOLYLINE
  5
35E
100
AcDbEntity
  8
RUNDUNGEN
100
AcDbPolyline
 62
7
  6
CONTINUOUS
 90
25
 70
0
 10
313.6739082333
 20
349.8490799061
 10
313.7566162351
 20
349.2130702225
 10
313.9539692432
 20
348.1156941008
 10
314.2184687953
 20
347.0335229832
 10
314.5490173647
 20
345.9706564524
 10
314.9442695284
 20
344.9311037581
 10
315.4026363304
 20
343.9187819986
 10
315.9222851666
 20
342.9375118686
 10
316.5011541346
 20
341.9909849696
 10
317.136938574
 20
341.0827829787
 10
317.8271629713
 20
340.2162748547
 10
318.5691349431
 20
339.394696375
 10
319.3599798171
 20
338.6211033583
 10
320.1966387668
 20
337.8983758817
 10
321.0758806456
 20
337.2292047077
 10
321.9943110845
 20
336.6160815834
 10
322.9483995191
 20
336.0612799924
 10
323.9344771661
 20
335.5668575246
 10
324.9487602798
 20
335.1346420132
 10
325.9873596178
 20
334.7662274885
 10
327.0462867762
 20
334.4629698554
 10
328.1214738566
 20
334.2259778969
 10
329.2088083976
 20
334.0561053656
 10
330.3041330585
 20
333.953953698
 10
331.4032387061
 20
333.9198696378
  0
LINE
  5
35F
100
AcDbEntity
  8
KONSTRUKTIONSELEMENTE
100
AcDbLine
 62
7
  6
CONTINUOUS
 10
310.0113903162
 20
395.4198696378
 11
310.0113903162
 21
395.9198696378
  0
LINE
  5
360
100
AcDbEntity
  8
BEZUGSACHSEN
100
AcDbLine
 62
7
  6
CONTINUOUS
 10
310.0113903162
 20
395.4198696378
 11
310.0113903162
 21
395.9198696378
  0
LINE
  5
361
100
AcDbEntity
  8
0
100
AcDbLine
 62
7
  6
CONTINUOUS
 10
310.8113903162
 20
387.1698696378
 11
310.8113903162
 21
386.9198696378
  0
LINE
  5
362
100
AcDbEntity
  8
0
100
AcDbLine
 62
7
  6
CONTINUOUS
 10
310.8113903162
 20
316.9198696378
 11
310.8113903162
 21
316.6698696378
  0
LINE
  5
363
100
AcDbEntity
  8
RUNDUNGEN
100
AcDbLine
 62
7
  6
CONTINUOUS
 10
313.5613903162
 20
544.3993764013
 11
313.5613903162
 21
528.597629549
  0
LINE
  5
364
100
AcDbEntity
  8
BEZUGSACHSEN
100
AcDbLine
 62
7
  6
CONTINUOUS
 10
313.5613903162
 20
528.597629549
 11
313.5613903162
 21
544.3993764013
  0
LINE
  5
365
100
AcDbEntity
  8
0
100
AcDbLine
 62
7
  6
CONTINUOUS
 10
314.4345484241
 20
351.3971482034
 11
314.434548424
 21
353.8039809628
  0
LINE
  5
366
100
AcDbEntity
  8
BEZUGSACHSEN
100
AcDbLine
 62
7
  6
CONTINUOUS
 10
315.5613903162
 20
556.1660808008
 11
315.5613903162
 21
538.8015682122
  0
LINE
  5
367
100
AcDbEntity
  8
0
100
AcDbLine
 62
7
  6
CONTINUOUS
 10
315.5613903162
 20
538.8015682122
 11
315.5613903162
 21
528.2076680999
  0
LINE
  5
368
100
AcDbEntity
  8
RUNDUNGEN
100
AcDbLine
 62
7
  6
CONTINUOUS
 10
315.5613903162
 20
528.2076680999
 11
315.5613903162
 21
527.1302985989
  0
LINE
  5
369
100
AcDbEntity
  8
BEZUGSACHSEN
100
AcDbLine
 62
7
  6
CONTINUOUS
 10
317.5613903162
 20
381.9199013118
 11
317.5613903162
 21
412.2065638777
  0
LINE
  5
36A
100
AcDbEntity
  8
BEZUGSACHSEN
100
AcDbLine
 62
7
  6
CONTINUOUS
 10
317.5613903162
 20
475.6331753978
 11
317.5613903162
 21
485.2994806736
  0
LINE
  5
36B
100
AcDbEntity
  8
BEZUGSACHSEN
100
AcDbLine
 62
7
  6
CONTINUOUS
 10
317.5891578135
 20
412.2359135464
 11
317.5891578135
 21
418.5170867198
  0
LINE
  5
36C
100
AcDbEntity
  8
0
100
AcDbLine
 62
7
  6
CONTINUOUS
 10
318.0613903162
 20
431.3909630263
 11
318.0613903162
 21
438.5159632051
  0
LINE
  5
36D
100
AcDbEntity
  8
0
100
AcDbLine
 62
7
  6
CONTINUOUS
 10
318.0613903162
 20
440.0159628475
 11
318.0613903162
 21
446.7659633839
  0
LINE
  5
36E
100
AcDbEntity
  8
0
100
AcDbLine
 62
7
  6
CONTINUOUS
 10
318.0613903162
 20
448.2659630263
 11
318.0613903162
 21
454.4426868143
  0
LINE
  5
36F
100
AcDbEntity
  8
0
100
AcDbLine
 62
7
  6
CONTINUOUS
 10
318.0613903162
 20
454.4534630263
 11
318.0613903162
 21
455.765962311
  0
LINE
  5
370
100
AcDbEntity
  8
0
100
AcDbLine
 62
7
  6
CONTINUOUS
 10
318.0613903162
 20
457.1426868143
 11
318.0613903162
 21
462.0926868143
  0
LINE
  5
371
100
AcDbEntity
  8
0
100
AcDbLine
 62
7
  6
CONTINUOUS
 10
318.5613903162
 20
413.9198696378
 11
318.5613903162
 21
473.9198696378
  0
LINE
  5
372
100
AcDbEntity
  8
RUNDUNGEN
100
AcDbLine
 62
7
  6
CONTINUOUS
 10
319.5613903162
 20
486.9765296107
 11
319.5613903162
 21
485.2994806736
  0
LINE
  5
373
100
AcDbEntity
  8
0
100
AcDbLine
 62
7
  6
CONTINUOUS
 10
319.5613903162
 20
480.5874440744
 11
319.5613903162
 21
485.2994806736
  0
LINE
  5
374
100
AcDbEntity
  8
0
100
AcDbLine
 62
7
  6
CONTINUOUS
 10
317.5626276965
 20
381.919838892
 11
317.3444281561
 21
379.557480557
  0
LINE
  5
375
100
AcDbEntity
  8
0
100
AcDbLine
 62
7
  6
CONTINUOUS
 10
317.5612214185
 20
412.1875262908
 11
318.5613903162
 21
413.9198696378
  0
LINE
  5
376
100
AcDbEntity
  8
BEZUGSACHSEN
100
AcDbLine
 62
7
  6
CONTINUOUS
 10
247.5613903162
 20
421.4198696378
 11
312.5613903162
 21
421.4198696378
  0
LINE
  5
377
100
AcDbEntity
  8
KONSTRUKTIONSELEMENTE
100
AcDbLine
 62
7
  6
CONTINUOUS
 10
253.77790786
 20
421.6198696378
 11
266.6627949444
 21
421.6198696378
  0
LINE
  5
378
100
AcDbEntity
  8
KONSTRUKTIONSELEMENTE
100
AcDbLine
 62
7
  6
CONTINUOUS
 10
271.1163493431
 20
421.6198696378
 11
278.4009689933
 21
421.6198696378
  0
LINE
  5
379
100
AcDbEntity
  8
KONSTRUKTIONSELEMENTE
100
AcDbLine
 62
7
  6
CONTINUOUS
 10
279.57777519
 20
421.6198696378
 11
284.2620018437
 21
421.6198696378
  0
LINE
  5
37A
100
AcDbEntity
  8
KONSTRUKTIONSELEMENTE
100
AcDbLine
 62
7
  6
CONTINUOUS
 10
284.878693264
 20
421.6198696378
 11
291.1492505168
 21
421.6198696378
  0
LINE
  5
37B
100
AcDbEntity
  8
BEZUGSACHSEN
100
AcDbLine
 62
7
  6
CONTINUOUS
 10
317.5891578135
 20
418.5170867198
 11
312.5613903162
 21
421.4198696378
  0
LINE
  5
37C
100
AcDbEntity
  8
RUNDUNGEN
100
AcDbLine
 62
7
  6
CONTINUOUS
 10
316.8651774872
 20
494.543892231
 11
316.9771250858
 21
493.4787819781
  0
LINE
  5
37D
100
AcDbEntity
  8
RUNDUNGEN
100
AcDbLine
 62
7
  6
CONTINUOUS
 10
317.1709356359
 20
491.6347977687
 11
317.2874850846
 21
490.525903837
  0
LINE
  5
37E
100
AcDbEntity
  8
RUNDUNGEN
100
AcDbLine
 62
7
  6
CONTINUOUS
 10
316.783324531
 20
495.3226710879
 11
313.8352973839
 21
523.3712757856
  0
LINE
  5
37F
100
AcDbEntity
  8
RUNDUNGEN
100
AcDbLine
 62
7
  6
CONTINUOUS
 10
315.6709524088
 20
525.0397293335
 11
316.6274370345
 21
515.9393860097
  0
LINE
  5
380
100
AcDbEntity
  8
0
100
AcDbLine
 62
7
  6
CONTINUOUS
 10
316.6274370345
 20
515.9393860097
 11
319.2765288751
 21
490.7349607664
  0
LINE
  5
381
100
AcDbEntity
  8
RUNDUNGEN
100
AcDbLine
 62
7
  6
CONTINUOUS
 10
319.2765288751
 20
490.7349607664
 11
319.4518282236
 21
489.067098876
  0
LINE
  5
382
100
AcDbEntity
  8
0
100
AcDbLine
 62
7
  6
CONTINUOUS
 10
322.5613903162
 20
316.6698696378
 11
322.5613903162
 21
308.4198696378
  0
LWPOLYLINE
  5
383
100
AcDbEntity
  8
0
100
AcDbPolyline
 62
7
  6
CONTINUOUS
 90
10
 70
0
 10
315.1637922196
 20
359.495614813
 10
315.1433799824
 20
359.3729772984
 10
315.0977415781
 20
359.1064095379
 10
315.0557900304
 20
358.8712800462
 10
315.0179804331
 20
358.6682693385
 10
314.9847811247
 20
358.4977979568
 10
314.956845787
 20
358.3608632817
 10
314.9348422289
 20
358.2580805589
 10
314.9196938558
 20
358.1907538364
 10
314.9124082381
 20
358.159935316
  0
LINE
  5
384
100
AcDbEntity
  8
0
100
AcDbLine
 62
7
  6
CONTINUOUS
 10
318.5613903162
 20
431.3909630263
 11
318.0613903162
 21
431.3909630263
  0
LINE
  5
385
100
AcDbEntity
  8
0
100
AcDbLine
 62
7
  6
CONTINUOUS
 10
318.5613903162
 20
432.5159630263
 11
318.0613903162
 21
432.5159630263
  0
LINE
  5
386
100
AcDbEntity
  8
0
100
AcDbLine
 62
7
  6
CONTINUOUS
 10
318.5613903162
 20
435.7034629369
 11
318.0613903162
 21
435.7034629369
  0
LINE
  5
387
100
AcDbEntity
  8
0
100
AcDbLine
 62
7
  6
CONTINUOUS
 10
318.5613903162
 20
437.2034628475
 11
318.0613903162
 21
437.2034628475
  0
LINE
  5
388
100
AcDbEntity
  8
0
100
AcDbLine
 62
7
  6
CONTINUOUS
 10
318.5613903162
 20
438.5159632051
 11
318.0613903162
 21
438.5159632051
  0
LINE
  5
389
100
AcDbEntity
  8
0
100
AcDbLine
 62
7
  6
CONTINUOUS
 10
318.5613903162
 20
440.0159628475
 11
318.0613903162
 21
440.0159628475
  0
LINE
  5
38A
100
AcDbEntity
  8
0
100
AcDbLine
 62
7
  6
CONTINUOUS
 10
318.5613903162
 20
440.2034632051
 11
318.0613903162
 21
440.2034632051
  0
LINE
  5
38B
100
AcDbEntity
  8
0
100
AcDbLine
 62
7
  6
CONTINUOUS
 10
318.5613903162
 20
440.5784633839
 11
318.0613903162
 21
440.5784633839
  0
LINE
  5
38C
100
AcDbEntity
  8
0
100
AcDbLine
 62
7
  6
CONTINUOUS
 10
318.5613903162
 20
441.3284626687
 11
318.0613903162
 21
441.3284626687
  0
LINE
  5
38D
100
AcDbEntity
  8
0
100
AcDbLine
 62
7
  6
CONTINUOUS
 10
318.5613903162
 20
442.0784630263
 11
318.0613903162
 21
442.0784630263
  0
LINE
  5
38E
100
AcDbEntity
  8
BEZUGSACHSEN
100
AcDbLine
 62
7
  6
CONTINUOUS
 10
347.4518282236
 20
525.0397293335
 11
343.6709524088
 21
489.067098876
  0
LINE
  5
38F
100
AcDbEntity
  8
BEZUGSACHSEN
100
AcDbLine
 62
7
  6
CONTINUOUS
 10
345.9518449965
 20
491.6347977687
 11
345.8352955478
 21
490.525903837
  0
LINE
  5
390
100
AcDbEntity
  8
BEZUGSACHSEN
100
AcDbLine
 62
7
  6
CONTINUOUS
 10
346.1456555467
 20
493.4787819781
 11
346.2576031453
 21
494.543892231
  0
LINE
  5
391
100
AcDbEntity
  8
BEZUGSACHSEN
100
AcDbLine
 62
7
  6
CONTINUOUS
 10
346.3394561015
 20
495.3226710879
 11
349.2874832485
 21
523.3712757856
  0
LINE
  5
392
100
AcDbEntity
  8
0
100
AcDbLine
 62
7
  6
CONTINUOUS
 10
318.5613903162
 20
443.0159626687
 11
318.0613903162
 21
443.0159626687
  0
LINE
  5
393
100
AcDbEntity
  8
0
100
AcDbLine
 62
7
  6
CONTINUOUS
 10
318.5613903162
 20
443.7659630263
 11
318.0613903162
 21
443.7659630263
  0
LINE
  5
394
100
AcDbEntity
  8
0
100
AcDbLine
 62
7
  6
CONTINUOUS
 10
318.5613903162
 20
444.7034626687
 11
318.0613903162
 21
444.7034626687
  0
LINE
  5
395
100
AcDbEntity
  8
0
100
AcDbLine
 62
7
  6
CONTINUOUS
 10
318.5613903162
 20
445.4534630263
 11
318.0613903162
 21
445.4534630263
  0
LINE
  5
396
100
AcDbEntity
  8
0
100
AcDbLine
 62
7
  6
CONTINUOUS
 10
318.5613903162
 20
446.2034633839
 11
318.0613903162
 21
446.2034633839
  0
LINE
  5
397
100
AcDbEntity
  8
0
100
AcDbLine
 62
7
  6
CONTINUOUS
 10
318.5613903162
 20
446.5784630263
 11
318.0613903162
 21
446.5784630263
  0
LINE
  5
398
100
AcDbEntity
  8
0
100
AcDbLine
 62
7
  6
CONTINUOUS
 10
318.5613903162
 20
446.7659633839
 11
318.0613903162
 21
446.7659633839
  0
LINE
  5
399
100
AcDbEntity
  8
0
100
AcDbLine
 62
7
  6
CONTINUOUS
 10
318.5613903162
 20
448.2659630263
 11
318.0613903162
 21
448.2659630263
  0
LINE
  5
39A
100
AcDbEntity
  8
0
100
AcDbLine
 62
7
  6
CONTINUOUS
 10
318.5613903162
 20
449.4926868143
 11
318.0613903162
 21
449.4926868143
  0
LINE
  5
39B
100
AcDbEntity
  8
BEZUGSACHSEN
100
AcDbLine
 62
7
  6
CONTINUOUS
 10
345.5615592139
 20
412.1875262908
 11
344.5613903162
 21
413.9198696378
  0
LWPOLYLINE
  5
39C
100
AcDbEntity
  8
BEZUGSACHSEN
100
AcDbPolyline
 62
7
  6
CONTINUOUS
 90
9
 70
0
 10
348.2095266181
 20
358.1631977649
 10
348.2100132281
 20
358.1614113679
 10
348.2019002325
 20
358.1958946951
 10
348.1860909167
 20
358.2665073225
 10
348.1633648957
 20
358.3731819799
 10
348.1344753453
 20
358.515517461
 10
348.1001042303
 20
358.6929924681
 10
348.060846492
 20
358.9050905359
 10
348.0172678983
 20
359.1510312846
  0
LINE
  5
39D
100
AcDbEntity
  8
BEZUGSACHSEN
100
AcDbLine
 62
7
  6
CONTINUOUS
 10
348.0172678983
 20
359.1510312846
 11
347.9590415729
 21
359.4952927753
  0
LINE
  5
39E
100
AcDbEntity
  8
BEZUGSACHSEN
100
AcDbLine
 62
7
  6
CONTINUOUS
 10
345.7783520893
 20
379.5574847455
 11
345.5601529359
 21
381.9198388922
  0
LINE
  5
39F
100
AcDbEntity
  8
BEZUGSACHSEN
100
AcDbLine
 62
7
  6
CONTINUOUS
 10
343.5613903162
 20
480.5874440744
 11
343.5613903162
 21
486.9765296107
  0
LINE
  5
3A0
100
AcDbEntity
  8
BEZUGSACHSEN
100
AcDbLine
 62
7
  6
CONTINUOUS
 10
344.5613903162
 20
413.9198696378
 11
344.5613903162
 21
473.9198696378
  0
LINE
  5
3A1
100
AcDbEntity
  8
BEZUGSACHSEN
100
AcDbLine
 62
7
  6
CONTINUOUS
 10
345.5613903162
 20
485.2994806736
 11
345.5613903162
 21
475.6331753978
  0
LINE
  5
3A2
100
AcDbEntity
  8
BEZUGSACHSEN
100
AcDbLine
 62
7
  6
CONTINUOUS
 10
345.5613903162
 20
412.2065638777
 11
345.5613903162
 21
381.9199013118
  0
LINE
  5
3A3
100
AcDbEntity
  8
BEZUGSACHSEN
100
AcDbLine
 62
7
  6
CONTINUOUS
 10
347.5613903162
 20
556.1660808008
 11
347.5613903162
 21
527.1302985989
  0
LINE
  5
3A4
100
AcDbEntity
  8
BEZUGSACHSEN
100
AcDbLine
 62
7
  6
CONTINUOUS
 10
348.6882322083
 20
351.3971482034
 11
348.6882322084
 21
353.8039809628
  0
LINE
  5
3A5
100
AcDbEntity
  8
BEZUGSACHSEN
100
AcDbLine
 62
7
  6
CONTINUOUS
 10
349.5613903162
 20
544.3993764013
 11
349.5613903162
 21
528.597629549
  0
LINE
  5
3A6
100
AcDbEntity
  8
0
100
AcDbLine
 62
7
  6
CONTINUOUS
 10
318.5613903162
 20
454.4426868143
 11
318.0613903162
 21
454.4426868143
  0
LINE
  5
3A7
100
AcDbEntity
  8
0
100
AcDbLine
 62
7
  6
CONTINUOUS
 10
318.5613903162
 20
454.4534630263
 11
318.0613903162
 21
454.4534630263
  0
LINE
  5
3A8
100
AcDbEntity
  8
0
100
AcDbLine
 62
7
  6
CONTINUOUS
 10
318.5613903162
 20
455.203462311
 11
318.0613903162
 21
455.203462311
  0
LINE
  5
3A9
100
AcDbEntity
  8
0
100
AcDbLine
 62
7
  6
CONTINUOUS
 10
318.5613903162
 20
455.5784630263
 11
318.0613903162
 21
455.5784630263
  0
LINE
  5
3AA
100
AcDbEntity
  8
0
100
AcDbLine
 62
7
  6
CONTINUOUS
 10
318.5613903162
 20
455.765962311
 11
318.0613903162
 21
455.765962311
  0
LINE
  5
3AB
100
AcDbEntity
  8
0
100
AcDbLine
 62
7
  6
CONTINUOUS
 10
318.5613903162
 20
457.1426868143
 11
318.0613903162
 21
457.1426868143
  0
LINE
  5
3AC
100
AcDbEntity
  8
0
100
AcDbLine
 62
7
  6
CONTINUOUS
 10
318.5613903162
 20
462.0926868143
 11
318.0613903162
 21
462.0926868143
  0
LINE
  5
3AD
100
AcDbEntity
  8
0
100
AcDbLine
 62
7
  6
CONTINUOUS
 10
317.5612214185
 20
475.6522129847
 11
318.5613903162
 21
473.9198696378
  0
LINE
  5
3AE
100
AcDbEntity
  8
BEZUGSACHSEN
100
AcDbLine
 62
7
  6
CONTINUOUS
 10
349.3642551779
 20
349.2002135216
 11
349.4488720846
 21
349.8490770985
  0
LINE
  5
3AF
100
AcDbEntity
  8
BEZUGSACHSEN
100
AcDbLine
 62
7
  6
CONTINUOUS
 10
349.1662324
 20
348.1035449263
 11
349.3661643973
 21
349.2130702225
  0
LINE
  5
3B0
100
AcDbEntity
  8
BEZUGSACHSEN
100
AcDbLine
 62
7
  6
CONTINUOUS
 10
348.9011419918
 20
347.0221114649
 11
349.1688113892
 21
348.1156941008
  0
LINE
  5
3B1
100
AcDbEntity
  8
BEZUGSACHSEN
100
AcDbLine
 62
7
  6
CONTINUOUS
 10
348.5700824872
 20
345.96000567
 11
348.9043118372
 21
347.0335229832
  0
LINE
  5
3B2
100
AcDbEntity
  8
BEZUGSACHSEN
100
AcDbLine
 62
7
  6
CONTINUOUS
 10
348.1743997129
 20
344.9212297284
 11
348.5737632677
 21
345.9706564524
  0
LINE
  5
3B3
100
AcDbEntity
  8
BEZUGSACHSEN
100
AcDbLine
 62
7
  6
CONTINUOUS
 10
347.7156825425
 20
343.90969393
 11
348.178511104
 21
344.9311037581
  0
LINE
  5
3B4
100
AcDbEntity
  8
BEZUGSACHSEN
100
AcDbLine
 62
7
  6
CONTINUOUS
 10
347.1957629636
 20
342.9292121769
 11
347.7201443021
 21
343.9187819986
  0
LINE
  5
3B5
100
AcDbEntity
  8
BEZUGSACHSEN
100
AcDbLine
 62
7
  6
CONTINUOUS
 10
346.6167017524
 20
341.9834694308
 11
347.2004954658
 21
342.9375118686
  0
LINE
  5
3B6
100
AcDbEntity
  8
BEZUGSACHSEN
100
AcDbLine
 62
7
  6
CONTINUOUS
 10
345.9808019085
 20
341.076040817
 11
346.6216264978
 21
341.9909849696
  0
LINE
  5
3B7
100
AcDbEntity
  8
BEZUGSACHSEN
100
AcDbLine
 62
7
  6
CONTINUOUS
 10
345.2905368119
 20
340.2102890346
 11
345.9858420584
 21
341.0827829787
  0
LINE
  5
3B8
100
AcDbEntity
  8
BEZUGSACHSEN
100
AcDbLine
 62
7
  6
CONTINUOUS
 10
344.5485962286
 20
339.3894437763
 11
345.2956176611
 21
340.2162748547
  0
LINE
  5
3B9
100
AcDbEntity
  8
BEZUGSACHSEN
100
AcDbLine
 62
7
  6
CONTINUOUS
 10
343.7578517495
 20
338.6165550315
 11
344.5536456893
 21
339.394696375
  0
LINE
  5
3BA
100
AcDbEntity
  8
BEZUGSACHSEN
100
AcDbLine
 62
7
  6
CONTINUOUS
 10
342.9213586744
 20
337.8944973248
 11
343.7628008153
 21
338.6211033583
  0
LINE
  5
3BB
100
AcDbEntity
  8
BEZUGSACHSEN
100
AcDbLine
 62
7
  6
CONTINUOUS
 10
342.0423442249
 20
337.2259561977
 11
342.9261418657
 21
337.8983758817
  0
LINE
  5
3BC
100
AcDbEntity
  8
BEZUGSACHSEN
100
AcDbLine
 62
7
  6
CONTINUOUS
 10
341.1241984366
 20
336.6134185096
 11
342.0468999868
 21
337.2292047077
  0
LINE
  5
3BD
100
AcDbEntity
  8
BEZUGSACHSEN
100
AcDbLine
 62
7
  6
CONTINUOUS
 10
340.170447237
 20
336.0591532752
 11
341.128469548
 21
336.6160815834
  0
LINE
  5
3BE
100
AcDbEntity
  8
BEZUGSACHSEN
100
AcDbLine
 62
7
  6
CONTINUOUS
 10
339.1847544602
 20
335.5652140117
 11
340.1743811133
 21
336.0612799924
  0
LINE
  5
3BF
100
AcDbEntity
  8
BEZUGSACHSEN
100
AcDbLine
 62
7
  6
CONTINUOUS
 10
338.1708984752
 20
335.1334248414
 11
339.1883034663
 21
335.5668575246
  0
LINE
  5
3C0
100
AcDbEntity
  8
BEZUGSACHSEN
100
AcDbLine
 62
7
  6
CONTINUOUS
 10
337.1354210146
 20
334.7662274885
 11
338.1740203526
 21
335.1346420132
  0
LINE
  5
3C1
100
AcDbEntity
  8
BEZUGSACHSEN
100
AcDbLine
 62
7
  6
CONTINUOUS
 10
337.0630412533
 20
334.7730301072
 11
337.1406046684
 21
334.7980776086
  0
LINE
  5
3C2
100
AcDbEntity
  8
BEZUGSACHSEN
100
AcDbLine
 62
7
  6
CONTINUOUS
 10
336.9869755859
 20
334.7488409058
 11
337.0630412533
 21
334.7730301072
  0
LINE
  5
3C3
100
AcDbEntity
  8
BEZUGSACHSEN
100
AcDbLine
 62
7
  6
CONTINUOUS
 10
336.9106106235
 20
334.7249287708
 11
336.9869755859
 21
334.7488409058
  0
LINE
  5
3C4
100
AcDbEntity
  8
BEZUGSACHSEN
100
AcDbLine
 62
7
  6
CONTINUOUS
 10
336.8272306865
 20
334.6992444345
 11
336.9106106235
 21
334.7249287708
  0
LINE
  5
3C5
100
AcDbEntity
  8
BEZUGSACHSEN
100
AcDbLine
 62
7
  6
CONTINUOUS
 10
336.7474592888
 20
334.6750847458
 11
336.8272306865
 21
334.6992444345
  0
LINE
  5
3C6
100
AcDbEntity
  8
BEZUGSACHSEN
100
AcDbLine
 62
7
  6
CONTINUOUS
 10
336.6639265079
 20
334.6502170797
 11
336.7474592888
 21
334.6750847458
  0
LINE
  5
3C7
100
AcDbEntity
  8
BEZUGSACHSEN
100
AcDbLine
 62
7
  6
CONTINUOUS
 10
336.5868559884
 20
334.6276629454
 11
336.6639265079
 21
334.6502170797
  0
LWPOLYLINE
  5
3C8
100
AcDbEntity
  8
BEZUGSACHSEN
100
AcDbPolyline
 62
7
  6
CONTINUOUS
 90
3
 70
0
 10
336.4973715412
 20
334.6019433182
 10
336.5074467832
 20
334.6048141203
 10
336.5868559884
 20
334.6276629454
  0
LINE
  5
3C9
100
AcDbEntity
  8
BEZUGSACHSEN
100
AcDbLine
 62
7
  6
CONTINUOUS
 10
301.0613903162
 20
249.4198696378
 11
297.0613903162
 21
245.4198696378
  0
LINE
  5
3CA
100
AcDbEntity
  8
BEZUGSACHSEN
100
AcDbLine
 62
7
  6
CONTINUOUS
 10
315.5613903162
 20
554.9198696378
 11
314.9782664012
 21
554.9198696378
  0
LINE
  5
3CB
100
AcDbEntity
  8
BEZUGSACHSEN
100
AcDbLine
 62
7
  6
CONTINUOUS
 10
347.5613903162
 20
554.9198696378
 11
348.1445142312
 21
554.9198696378
  0
LINE
  5
3CC
100
AcDbEntity
  8
BEZUGSACHSEN
100
AcDbLine
 62
7
  6
CONTINUOUS
 10
513.1766434933
 20
245.4198696378
 11
547.1760492205
 21
245.4198696378
  0
LINE
  5
3CD
100
AcDbEntity
  8
BEZUGSACHSEN
100
AcDbLine
 62
7
  6
CONTINUOUS
 10
509.1763463569
 20
249.4198696378
 11
551.1763463569
 21
249.4198696378
  0
LINE
  5
3CE
100
AcDbEntity
  8
BEZUGSACHSEN
100
AcDbLine
 62
7
  6
CONTINUOUS
 10
475.7911445168
 20
537.2490463763
 11
530.1763463569
 21
554.9198696378
  0
LINE
  5
3CF
100
AcDbEntity
  8
BEZUGSACHSEN
100
AcDbLine
 62
7
  6
CONTINUOUS
 10
513.1763463569
 20
245.4198696378
 11
509.1763463569
 21
249.4198696378
  0
LINE
  5
3D0
100
AcDbEntity
  8
BEZUGSACHSEN
100
AcDbLine
 62
7
  6
CONTINUOUS
 10
460.9940096484
 20
509.6965710542
 11
473.4320363091
 21
535.1983048983
  0
LINE
  5
3D1
100
AcDbEntity
  8
BEZUGSACHSEN
100
AcDbLine
 62
7
  6
CONTINUOUS
 10
458.965243806
 20
480.5874440744
 11
465.6038989506
 21
491.636021622
  0
LINE
  5
3D2
100
AcDbEntity
  8
0
100
AcDbLine
 62
7
  6
CONTINUOUS
 10
487.6765287274
 20
308.4198696378
 11
572.6761639864
 21
308.4198696378
  0
LINE
  5
3D3
100
AcDbEntity
  8
0
100
AcDbLine
 62
7
  6
CONTINUOUS
 10
462.4256640506
 20
454.4534630263
 11
462.0426853728
 21
453.7034637416
  0
LINE
  5
3D4
100
AcDbEntity
  8
0
100
AcDbLine
 62
7
  6
CONTINUOUS
 10
463.1916214061
 20
453.515962311
 11
463.5746000838
 21
454.078462311
  0
LINE
  5
3D5
100
AcDbEntity
  8
0
100
AcDbLine
 62
7
  6
CONTINUOUS
 10
463.1916214061
 20
455.203462311
 11
462.4256640506
 21
454.4534630263
  0
LINE
  5
3D6
100
AcDbEntity
  8
0
100
AcDbLine
 62
7
  6
CONTINUOUS
 10
487.6765287274
 20
316.6698696378
 11
572.6761639864
 21
316.6698696378
  0
LINE
  5
3D7
100
AcDbEntity
  8
RUNDUNGEN
100
AcDbLine
 62
7
  6
CONTINUOUS
 10
572.6763463569
 20
316.9198696378
 11
487.6763463569
 21
316.9198696378
  0
LINE
  5
3D8
100
AcDbEntity
  8
BEZUGSACHSEN
100
AcDbLine
 62
7
  6
CONTINUOUS
 10
452.1763463569
 20
381.9198696378
 11
452.1763463569
 21
517.0568488894
  0
LINE
  5
3D9
100
AcDbEntity
  8
BEZUGSACHSEN
100
AcDbLine
 62
7
  6
CONTINUOUS
 10
458.965243806
 20
480.5874440744
 11
458.965243806
 21
485.2994806736
  0
LINE
  5
3DA
100
AcDbEntity
  8
0
100
AcDbLine
 62
7
  6
CONTINUOUS
 10
462.0426853728
 20
453.7034637416
 11
461.851196034
 21
452.7659630263
  0
LINE
  5
3DB
100
AcDbEntity
  8
0
100
AcDbLine
 62
7
  6
CONTINUOUS
 10
462.0426853728
 20
436.8284632051
 11
461.851196034
 21
435.8909630263
  0
LINE
  5
3DC
100
AcDbEntity
  8
0
100
AcDbLine
 62
7
  6
CONTINUOUS
 10
463.0001320672
 20
452.7659630263
 11
463.1916214061
 21
453.515962311
  0
LINE
  5
3DD
100
AcDbEntity
  8
0
100
AcDbLine
 62
7
  6
CONTINUOUS
 10
462.8086427283
 20
436.0784628475
 11
463.0001320672
 21
436.6409628475
  0
LINE
  5
3DE
100
AcDbEntity
  8
0
100
AcDbLine
 62
7
  6
CONTINUOUS
 10
469.5107705277
 20
442.2659633839
 11
469.1277917159
 21
441.7034633839
  0
LINE
  5
3DF
100
AcDbEntity
  8
0
100
AcDbLine
 62
7
  6
CONTINUOUS
 10
462.6171533895
 20
437.5784630263
 11
462.0426853728
 21
436.8284632051
  0
LINE
  5
3E0
100
AcDbEntity
  8
0
100
AcDbLine
 62
7
  6
CONTINUOUS
 10
463.5746000838
 20
454.078462311
 11
464.1490686369
 21
454.4534630263
  0
LINE
  5
3E1
100
AcDbEntity
  8
0
100
AcDbLine
 62
7
  6
CONTINUOUS
 10
463.9575787616
 20
455.5784630263
 11
463.1916214061
 21
455.203462311
  0
LINE
  5
3E2
100
AcDbEntity
  8
0
100
AcDbLine
 62
7
  6
CONTINUOUS
 10
529.7030132461
 20
326.5413590243
 11
530.6363463569
 21
326.7796568683
  0
LINE
  5
3E3
100
AcDbEntity
  8
0
100
AcDbLine
 62
7
  6
CONTINUOUS
 10
527.3696794677
 20
331.0690185597
 11
528.3030132461
 21
331.3073164037
  0
LINE
  5
3E4
100
AcDbEntity
  8
0
100
AcDbLine
 62
7
  6
CONTINUOUS
 10
529.7030132461
 20
325.3498696378
 11
530.8696794677
 21
325.5881675026
  0
LINE
  5
3E5
100
AcDbEntity
  8
0
100
AcDbLine
 62
7
  6
CONTINUOUS
 10
527.1363463569
 20
332.2605077794
 11
528.3030132461
 21
332.4988056233
  0
LINE
  5
3E6
100
AcDbEntity
  8
0
100
AcDbLine
 62
7
  6
CONTINUOUS
 10
521.5363463569
 20
325.3498696378
 11
522.9363463569
 21
325.3498696378
  0
LINE
  5
3E7
100
AcDbEntity
  8
0
100
AcDbLine
 62
7
  6
CONTINUOUS
 10
528.3030132461
 20
325.3498696378
 11
529.7030132461
 21
325.3498696378
  0
LINE
  5
3E8
100
AcDbEntity
  8
0
100
AcDbLine
 62
7
  6
CONTINUOUS
 10
528.3030132461
 20
326.5413590243
 11
529.7030132461
 21
326.5413590243
  0
LINE
  5
3E9
100
AcDbEntity
  8
0
100
AcDbLine
 62
7
  6
CONTINUOUS
 10
524.8030129123
 20
328.2094440988
 11
526.2030132461
 21
328.2094440988
  0
LINE
  5
3EA
100
AcDbEntity
  8
0
100
AcDbLine
 62
7
  6
CONTINUOUS
 10
524.8030129123
 20
330.3541250279
 11
526.4363463569
 21
330.3541250279
  0
LINE
  5
3EB
100
AcDbEntity
  8
0
100
AcDbLine
 62
7
  6
CONTINUOUS
 10
528.3030132461
 20
331.3073164037
 11
529.7030132461
 21
331.3073164037
  0
LINE
  5
3EC
100
AcDbEntity
  8
0
100
AcDbLine
 62
7
  6
CONTINUOUS
 10
535.0696801353
 20
332.0222099355
 11
536.9363463569
 21
332.0222099355
  0
LINE
  5
3ED
100
AcDbEntity
  8
0
100
AcDbLine
 62
7
  6
CONTINUOUS
 10
538.1030125785
 20
332.0222099355
 11
540.6696801353
 21
332.0222099355
  0
LINE
  5
3EE
100
AcDbEntity
  8
0
100
AcDbLine
 62
7
  6
CONTINUOUS
 10
528.3030132461
 20
332.4988056233
 11
529.7030132461
 21
332.4988056233
  0
LINE
  5
3EF
100
AcDbEntity
  8
0
100
AcDbLine
 62
7
  6
CONTINUOUS
 10
535.0696801353
 20
332.9754013112
 11
536.9363463569
 21
332.9754013112
  0
LINE
  5
3F0
100
AcDbEntity
  8
0
100
AcDbLine
 62
7
  6
CONTINUOUS
 10
538.1030125785
 20
332.9754013112
 11
540.6696801353
 21
332.9754013112
  0
LINE
  5
3F1
100
AcDbEntity
  8
0
100
AcDbLine
 62
7
  6
CONTINUOUS
 10
536.9363463569
 20
334.8817847302
 11
538.1030125785
 21
334.8817847302
  0
LINE
  5
3F2
100
AcDbEntity
  8
0
100
AcDbLine
 62
7
  6
CONTINUOUS
 10
525.9696794677
 20
335.3583804181
 11
532.7363463569
 21
335.3583804181
  0
LINE
  5
3F3
100
AcDbEntity
  8
0
100
AcDbLine
 62
7
  6
CONTINUOUS
 10
538.8030125785
 20
325.5881675026
 11
540.2030125785
 21
325.3498696378
  0
LINE
  5
3F4
100
AcDbEntity
  8
0
100
AcDbLine
 62
7
  6
CONTINUOUS
 10
527.1363463569
 20
325.5881675026
 11
528.3030132461
 21
325.3498696378
  0
LINE
  5
3F5
100
AcDbEntity
  8
0
100
AcDbLine
 62
7
  6
CONTINUOUS
 10
539.0363463569
 20
326.5413590243
 11
540.2030125785
 21
326.3030610969
  0
LINE
  5
3F6
100
AcDbEntity
  8
0
100
AcDbLine
 62
7
  6
CONTINUOUS
 10
529.7030132461
 20
332.4988056233
 11
530.8696794677
 21
332.2605077794
  0
LINE
  5
3F7
100
AcDbEntity
  8
0
100
AcDbLine
 62
7
  6
CONTINUOUS
 10
527.3696794677
 20
326.7796568683
 11
528.3030132461
 21
326.5413590243
  0
LINE
  5
3F8
100
AcDbEntity
  8
0
100
AcDbLine
 62
7
  6
CONTINUOUS
 10
529.7030132461
 20
331.3073164037
 11
530.6363463569
 21
331.0690185597
  0
LINE
  5
3F9
100
AcDbEntity
  8
0
100
AcDbLine
 62
7
  6
CONTINUOUS
 10
538.1030125785
 20
325.8264653674
 11
538.8030125785
 21
325.5881675026
  0
LINE
  5
3FA
100
AcDbEntity
  8
0
100
AcDbLine
 62
7
  6
CONTINUOUS
 10
525.9696794677
 20
326.3030610969
 11
527.1363463569
 21
325.5881675026
  0
LINE
  5
3FB
100
AcDbEntity
  8
0
100
AcDbLine
 62
7
  6
CONTINUOUS
 10
461.851196034
 20
452.7659630263
 11
461.851196034
 21
448.2659630263
  0
LINE
  5
3FC
100
AcDbEntity
  8
0
100
AcDbLine
 62
7
  6
CONTINUOUS
 10
461.851196034
 20
446.7659633839
 11
461.851196034
 21
445.6409633839
  0
LINE
  5
3FD
100
AcDbEntity
  8
0
100
AcDbLine
 62
7
  6
CONTINUOUS
 10
461.851196034
 20
441.1409633839
 11
461.851196034
 21
440.0159628475
  0
LINE
  5
3FE
100
AcDbEntity
  8
0
100
AcDbLine
 62
7
  6
CONTINUOUS
 10
461.851196034
 20
435.8909630263
 11
461.851196034
 21
431.3909630263
  0
LINE
  5
3FF
100
AcDbEntity
  8
0
100
AcDbLine
 62
7
  6
CONTINUOUS
 10
462.8086427283
 20
432.5159630263
 11
462.8086427283
 21
436.0784628475
  0
LINE
  5
400
100
AcDbEntity
  8
0
100
AcDbLine
 62
7
  6
CONTINUOUS
 10
463.0001320672
 20
449.3909630263
 11
463.0001320672
 21
452.7659630263
  0
LINE
  5
401
100
AcDbEntity
  8
0
100
AcDbLine
 62
7
  6
CONTINUOUS
 10
465.6809833479
 20
436.0784628475
 11
465.6809833479
 21
432.5159630263
  0
LINE
  5
402
100
AcDbEntity
  8
0
100
AcDbLine
 62
7
  6
CONTINUOUS
 10
466.8299193812
 20
432.5159630263
 11
466.8299193812
 21
435.7034629369
  0
LINE
  5
403
100
AcDbEntity
  8
0
100
AcDbLine
 62
7
  6
CONTINUOUS
 10
469.7022598666
 20
452.7659630263
 11
469.7022598666
 21
449.3909630263
  0
LINE
  5
404
100
AcDbEntity
  8
0
100
AcDbLine
 62
7
  6
CONTINUOUS
 10
469.7022598666
 20
443.7659630263
 11
469.7022598666
 21
443.0159626687
  0
LINE
  5
405
100
AcDbEntity
  8
0
100
AcDbLine
 62
7
  6
CONTINUOUS
 10
470.851196034
 20
431.3909630263
 11
470.851196034
 21
432.5159630263
  0
LINE
  5
406
100
AcDbEntity
  8
0
100
AcDbLine
 62
7
  6
CONTINUOUS
 10
470.851196034
 20
437.2034628475
 11
470.851196034
 21
438.5159632051
  0
LINE
  5
407
100
AcDbEntity
  8
0
100
AcDbLine
 62
7
  6
CONTINUOUS
 10
470.851196034
 20
443.0159626687
 11
470.851196034
 21
443.7659630263
  0
LINE
  5
408
100
AcDbEntity
  8
0
100
AcDbLine
 62
7
  6
CONTINUOUS
 10
470.851196034
 20
448.2659630263
 11
470.851196034
 21
452.7659630263
  0
LINE
  5
409
100
AcDbEntity
  8
0
100
AcDbLine
 62
7
  6
CONTINUOUS
 10
470.6597066783
 20
442.0784630263
 11
470.851196034
 21
443.0159626687
  0
LINE
  5
40A
100
AcDbEntity
  8
0
100
AcDbLine
 62
7
  6
CONTINUOUS
 10
469.7022598666
 20
443.0159626687
 11
469.5107705277
 21
442.2659633839
  0
LINE
  5
40B
100
AcDbEntity
  8
0
100
AcDbLine
 62
7
  6
CONTINUOUS
 10
470.2767279503
 20
441.3284626687
 11
470.6597066783
 21
442.0784630263
  0
LINE
  5
40C
100
AcDbEntity
  8
0
100
AcDbLine
 62
7
  6
CONTINUOUS
 10
463.0001320672
 20
436.6409628475
 11
463.383110745
 21
437.0159630263
  0
LINE
  5
40D
100
AcDbEntity
  8
0
100
AcDbLine
 62
7
  6
CONTINUOUS
 10
469.5107705277
 20
440.5784633839
 11
470.2767279503
 21
441.3284626687
  0
LINE
  5
40E
100
AcDbEntity
  8
0
100
AcDbLine
 62
7
  6
CONTINUOUS
 10
463.383110745
 20
438.1409630263
 11
462.6171533895
 21
437.5784630263
  0
LINE
  5
40F
100
AcDbEntity
  8
0
100
AcDbLine
 62
7
  6
CONTINUOUS
 10
469.1277917159
 20
441.7034633839
 11
468.5533236992
 21
441.3284626687
  0
LINE
  5
410
100
AcDbEntity
  8
0
100
AcDbLine
 62
7
  6
CONTINUOUS
 10
468.7448130381
 20
440.2034632051
 11
469.5107705277
 21
440.5784633839
  0
LINE
  5
411
100
AcDbEntity
  8
0
100
AcDbLine
 62
7
  6
CONTINUOUS
 10
564.8946812797
 20
344.8064653793
 11
565.7280114341
 21
345.0192313114
  0
LINE
  5
412
100
AcDbEntity
  8
0
100
AcDbLine
 62
7
  6
CONTINUOUS
 10
555.3113463569
 20
344.8064653793
 11
556.1446812797
 21
345.0192313114
  0
LINE
  5
413
100
AcDbEntity
  8
0
100
AcDbLine
 62
7
  6
CONTINUOUS
 10
562.8113463569
 20
353.3171037057
 11
563.6446812797
 21
353.5298696378
  0
LINE
  5
414
100
AcDbEntity
  8
0
100
AcDbLine
 62
7
  6
CONTINUOUS
 10
564.8946812797
 20
343.5298696378
 11
565.9363463569
 21
343.7426355885
  0
LINE
  5
415
100
AcDbEntity
  8
0
100
AcDbLine
 62
7
  6
CONTINUOUS
 10
555.3113463569
 20
343.5298696378
 11
556.3530114341
 21
343.7426355885
  0
LINE
  5
416
100
AcDbEntity
  8
0
100
AcDbLine
 62
7
  6
CONTINUOUS
 10
523.4363463569
 20
343.5298696378
 11
524.4780138183
 21
343.7426355885
  0
LINE
  5
417
100
AcDbEntity
  8
0
100
AcDbLine
 62
7
  6
CONTINUOUS
 10
537.6030114341
 20
347.9979548076
 11
538.6446812797
 21
348.2107207396
  0
LINE
  5
418
100
AcDbEntity
  8
0
100
AcDbLine
 62
7
  6
CONTINUOUS
 10
532.7363463569
 20
336.5498696378
 11
524.8030129123
 21
336.5498696378
  0
LINE
  5
419
100
AcDbEntity
  8
0
100
AcDbLine
 62
7
  6
CONTINUOUS
 10
521.5363463569
 20
336.5498696378
 11
522.9363463569
 21
336.5498696378
  0
LINE
  5
41A
100
AcDbEntity
  8
0
100
AcDbLine
 62
7
  6
CONTINUOUS
 10
493.0196797896
 20
343.5298696378
 11
494.6863463569
 21
343.5298696378
  0
LINE
  5
41B
100
AcDbEntity
  8
0
100
AcDbLine
 62
7
  6
CONTINUOUS
 10
499.6863463569
 20
343.5298696378
 11
507.1863463569
 21
343.5298696378
  0
LINE
  5
41C
100
AcDbEntity
  8
0
100
AcDbLine
 62
7
  6
CONTINUOUS
 10
508.8530126262
 20
343.5298696378
 11
513.8530138183
 21
343.5298696378
  0
LINE
  5
41D
100
AcDbEntity
  8
0
100
AcDbLine
 62
7
  6
CONTINUOUS
 10
521.5613463569
 20
343.5298696378
 11
523.4363463569
 21
343.5298696378
  0
LINE
  5
41E
100
AcDbEntity
  8
0
100
AcDbLine
 62
7
  6
CONTINUOUS
 10
532.6030114341
 20
343.5298696378
 11
533.8530114341
 21
343.5298696378
  0
LINE
  5
41F
100
AcDbEntity
  8
0
100
AcDbLine
 62
7
  6
CONTINUOUS
 10
541.9780114341
 20
343.5298696378
 11
549.4780114341
 21
343.5298696378
  0
LINE
  5
420
100
AcDbEntity
  8
0
100
AcDbLine
 62
7
  6
CONTINUOUS
 10
554.4780114341
 20
343.5298696378
 11
555.3113463569
 21
343.5298696378
  0
LINE
  5
421
100
AcDbEntity
  8
0
100
AcDbLine
 62
7
  6
CONTINUOUS
 10
563.2280114341
 20
343.5298696378
 11
564.8946812797
 21
343.5298696378
  0
LINE
  5
422
100
AcDbEntity
  8
0
100
AcDbLine
 62
7
  6
CONTINUOUS
 10
500.9363463569
 20
344.8064653793
 11
507.1863463569
 21
344.8064653793
  0
LINE
  5
423
100
AcDbEntity
  8
0
100
AcDbLine
 62
7
  6
CONTINUOUS
 10
510.1030138183
 20
344.8064653793
 11
514.0613463569
 21
344.8064653793
  0
LINE
  5
424
100
AcDbEntity
  8
0
100
AcDbLine
 62
7
  6
CONTINUOUS
 10
521.5613463569
 20
344.8064653793
 11
523.4363463569
 21
344.8064653793
  0
LINE
  5
425
100
AcDbEntity
  8
0
100
AcDbLine
 62
7
  6
CONTINUOUS
 10
543.2280114341
 20
344.8064653793
 11
549.4780114341
 21
344.8064653793
  0
LINE
  5
426
100
AcDbEntity
  8
0
100
AcDbLine
 62
7
  6
CONTINUOUS
 10
554.4780114341
 20
344.8064653793
 11
555.3113463569
 21
344.8064653793
  0
LINE
  5
427
100
AcDbEntity
  8
0
100
AcDbLine
 62
7
  6
CONTINUOUS
 10
563.2280114341
 20
344.8064653793
 11
564.8946812797
 21
344.8064653793
  0
LINE
  5
428
100
AcDbEntity
  8
0
100
AcDbLine
 62
7
  6
CONTINUOUS
 10
560.3113463569
 20
346.2958270529
 11
561.5613463569
 21
346.2958270529
  0
LINE
  5
429
100
AcDbEntity
  8
0
100
AcDbLine
 62
7
  6
CONTINUOUS
 10
528.0196788955
 20
347.1468907812
 11
530.9363463569
 21
347.1468907812
  0
LINE
  5
42A
100
AcDbEntity
  8
0
100
AcDbLine
 62
7
  6
CONTINUOUS
 10
523.2280138183
 20
347.7851888755
 11
525.1030138183
 21
347.7851888755
  0
LINE
  5
42B
100
AcDbEntity
  8
0
100
AcDbLine
 62
7
  6
CONTINUOUS
 10
520.5196788955
 20
343.7426355885
 11
521.5613463569
 21
343.5298696378
  0
LINE
  5
42C
100
AcDbEntity
  8
0
100
AcDbLine
 62
7
  6
CONTINUOUS
 10
520.7280138183
 20
345.0192313114
 11
521.5613463569
 21
344.8064653793
  0
LINE
  5
42D
100
AcDbEntity
  8
0
100
AcDbLine
 62
7
  6
CONTINUOUS
 10
514.0613463569
 20
347.9979548076
 11
514.6863463569
 21
347.7851888755
  0
LINE
  5
42E
100
AcDbEntity
  8
0
100
AcDbLine
 62
7
  6
CONTINUOUS
 10
519.6863463569
 20
344.1681675085
 11
520.5196788955
 21
343.7426355885
  0
LINE
  5
42F
100
AcDbEntity
  8
0
100
AcDbLine
 62
7
  6
CONTINUOUS
 10
530.8696794677
 20
332.2605077794
 11
532.0363463569
 21
331.5456142476
  0
LINE
  5
430
100
AcDbEntity
  8
0
100
AcDbLine
 62
7
  6
CONTINUOUS
 10
526.6696794677
 20
327.2562525561
 11
527.3696794677
 21
326.7796568683
  0
LINE
  5
431
100
AcDbEntity
  8
0
100
AcDbLine
 62
7
  6
CONTINUOUS
 10
537.4030125785
 20
326.3030610969
 11
538.1030125785
 21
325.8264653674
  0
LINE
  5
432
100
AcDbEntity
  8
0
100
AcDbLine
 62
7
  6
CONTINUOUS
 10
530.6363463569
 20
331.0690185597
 11
531.3363463569
 21
330.5924228719
  0
LINE
  5
433
100
AcDbEntity
  8
0
100
AcDbLine
 62
7
  6
CONTINUOUS
 10
538.3363463569
 20
327.0179547122
 11
539.0363463569
 21
326.5413590243
  0
LINE
  5
434
100
AcDbEntity
  8
BEZUGSACHSEN
100
AcDbLine
 62
7
  6
CONTINUOUS
 10
480.1763463569
 20
505.1692458469
 11
480.1763463569
 21
381.9198696378
  0
LINE
  5
435
100
AcDbEntity
  8
RUNDUNGEN
100
AcDbLine
 62
7
  6
CONTINUOUS
 10
482.6763463569
 20
321.9198696378
 11
482.6763463569
 21
381.9198696378
  0
LINE
  5
436
100
AcDbEntity
  8
0
100
AcDbLine
 62
7
  6
CONTINUOUS
 10
482.6763463569
 20
321.9198696378
 11
482.6763463569
 21
381.9198696378
  0
LINE
  5
437
100
AcDbEntity
  8
0
100
AcDbLine
 62
7
  6
CONTINUOUS
 10
470.851196034
 20
438.5159632051
 11
466.4469407034
 21
436.8284632051
  0
LINE
  5
438
100
AcDbEntity
  8
0
100
AcDbLine
 62
7
  6
CONTINUOUS
 10
466.8299193812
 20
435.7034629369
 11
470.851196034
 21
437.2034628475
  0
LINE
  5
439
100
AcDbEntity
  8
0
100
AcDbLine
 62
7
  6
CONTINUOUS
 10
463.9575787616
 20
438.3284628475
 11
463.383110745
 21
438.1409630263
  0
LINE
  5
43A
100
AcDbEntity
  8
0
100
AcDbLine
 62
7
  6
CONTINUOUS
 10
463.383110745
 20
437.0159630263
 11
463.9575787616
 21
437.2034628475
  0
LINE
  5
43B
100
AcDbEntity
  8
0
100
AcDbLine
 62
7
  6
CONTINUOUS
 10
523.4363463569
 20
344.8064653793
 11
524.2696788955
 21
345.0192313114
  0
LINE
  5
43C
100
AcDbEntity
  8
0
100
AcDbLine
 62
7
  6
CONTINUOUS
 10
520.7280138183
 20
352.0405081132
 11
521.5613463569
 21
352.2532740453
  0
LINE
  5
43D
100
AcDbEntity
  8
0
100
AcDbLine
 62
7
  6
CONTINUOUS
 10
513.8530138183
 20
343.5298696378
 11
514.8946788955
 21
343.7426355885
  0
LINE
  5
43E
100
AcDbEntity
  8
0
100
AcDbLine
 62
7
  6
CONTINUOUS
 10
520.5196788955
 20
353.3171037057
 11
521.5613463569
 21
353.5298696378
  0
LINE
  5
43F
100
AcDbEntity
  8
0
100
AcDbLine
 62
7
  6
CONTINUOUS
 10
510.1030138183
 20
347.9979548076
 11
514.0613463569
 21
347.9979548076
  0
LINE
  5
440
100
AcDbEntity
  8
0
100
AcDbLine
 62
7
  6
CONTINUOUS
 10
533.8530114341
 20
347.9979548076
 11
537.6030114341
 21
347.9979548076
  0
LINE
  5
441
100
AcDbEntity
  8
0
100
AcDbLine
 62
7
  6
CONTINUOUS
 10
563.6446812797
 20
347.9979548076
 11
564.8946812797
 21
347.9979548076
  0
LINE
  5
442
100
AcDbEntity
  8
0
100
AcDbLine
 62
7
  6
CONTINUOUS
 10
530.9363463569
 20
348.2107207396
 11
528.0196788955
 21
348.2107207396
  0
LINE
  5
443
100
AcDbEntity
  8
0
100
AcDbLine
 62
7
  6
CONTINUOUS
 10
523.2280138183
 20
349.061784468
 11
526.3530138183
 21
349.061784468
  0
LINE
  5
444
100
AcDbEntity
  8
0
100
AcDbLine
 62
7
  6
CONTINUOUS
 10
510.1030138183
 20
349.2745504001
 11
514.0613463569
 21
349.2745504001
  0
LINE
  5
445
100
AcDbEntity
  8
0
100
AcDbLine
 62
7
  6
CONTINUOUS
 10
533.8530114341
 20
349.2745504001
 11
537.8113463569
 21
349.2745504001
  0
LINE
  5
446
100
AcDbEntity
  8
0
100
AcDbLine
 62
7
  6
CONTINUOUS
 10
563.6446812797
 20
349.2745504001
 11
564.8946812797
 21
349.2745504001
  0
LINE
  5
447
100
AcDbEntity
  8
0
100
AcDbLine
 62
7
  6
CONTINUOUS
 10
525.1030138183
 20
350.9766778567
 11
526.3530138183
 21
350.9766778567
  0
LINE
  5
448
100
AcDbEntity
  8
0
100
AcDbLine
 62
7
  6
CONTINUOUS
 10
566.1446812797
 20
351.1894443849
 11
567.3946812797
 21
351.1894443849
  0
LINE
  5
449
100
AcDbEntity
  8
0
100
AcDbLine
 62
7
  6
CONTINUOUS
 10
510.1030138183
 20
352.2532740453
 11
514.0613463569
 21
352.2532740453
  0
LINE
  5
44A
100
AcDbEntity
  8
0
100
AcDbLine
 62
7
  6
CONTINUOUS
 10
521.5613463569
 20
352.2532740453
 11
523.4363463569
 21
352.2532740453
  0
LINE
  5
44B
100
AcDbEntity
  8
0
100
AcDbLine
 62
7
  6
CONTINUOUS
 10
563.6446812797
 20
352.2532740453
 11
564.8946812797
 21
352.2532740453
  0
LINE
  5
44C
100
AcDbEntity
  8
0
100
AcDbLine
 62
7
  6
CONTINUOUS
 10
533.8530114341
 20
352.4660399774
 11
537.8113463569
 21
352.4660399774
  0
LINE
  5
44D
100
AcDbEntity
  8
0
100
AcDbLine
 62
7
  6
CONTINUOUS
 10
489.6863463569
 20
353.5298696378
 11
490.9363463569
 21
353.5298696378
  0
LINE
  5
44E
100
AcDbEntity
  8
0
100
AcDbLine
 62
7
  6
CONTINUOUS
 10
496.7696794916
 20
353.5298696378
 11
498.0196794916
 21
353.5298696378
  0
LINE
  5
44F
100
AcDbEntity
  8
0
100
AcDbLine
 62
7
  6
CONTINUOUS
 10
499.6863463569
 20
353.5298696378
 11
500.9363463569
 21
353.5298696378
  0
LINE
  5
450
100
AcDbEntity
  8
0
100
AcDbLine
 62
7
  6
CONTINUOUS
 10
508.8530126262
 20
353.5298696378
 11
513.8530138183
 21
353.5298696378
  0
LINE
  5
451
100
AcDbEntity
  8
0
100
AcDbLine
 62
7
  6
CONTINUOUS
 10
521.5613463569
 20
353.5298696378
 11
523.4363463569
 21
353.5298696378
  0
LINE
  5
452
100
AcDbEntity
  8
0
100
AcDbLine
 62
7
  6
CONTINUOUS
 10
532.6030114341
 20
353.5298696378
 11
537.6030114341
 21
353.5298696378
  0
LINE
  5
453
100
AcDbEntity
  8
0
100
AcDbLine
 62
7
  6
CONTINUOUS
 10
541.9780114341
 20
353.5298696378
 11
543.2280114341
 21
353.5298696378
  0
LINE
  5
454
100
AcDbEntity
  8
0
100
AcDbLine
 62
7
  6
CONTINUOUS
 10
551.1446812797
 20
353.5298696378
 11
552.3946812797
 21
353.5298696378
  0
LINE
  5
455
100
AcDbEntity
  8
0
100
AcDbLine
 62
7
  6
CONTINUOUS
 10
557.3946812797
 20
353.5298696378
 11
558.6446812797
 21
353.5298696378
  0
LINE
  5
456
100
AcDbEntity
  8
0
100
AcDbLine
 62
7
  6
CONTINUOUS
 10
563.6446812797
 20
353.5298696378
 11
564.6863463569
 21
353.5298696378
  0
LINE
  5
457
100
AcDbEntity
  8
0
100
AcDbLine
 62
7
  6
CONTINUOUS
 10
553.4363463569
 20
343.7426355885
 11
554.4780114341
 21
343.5298696378
  0
LINE
  5
458
100
AcDbEntity
  8
0
100
AcDbLine
 62
7
  6
CONTINUOUS
 10
513.8530138183
 20
353.5298696378
 11
514.8946788955
 21
353.3171037057
  0
LINE
  5
459
100
AcDbEntity
  8
0
100
AcDbLine
 62
7
  6
CONTINUOUS
 10
562.1863463569
 20
343.7426355885
 11
563.2280114341
 21
343.5298696378
  0
LINE
  5
45A
100
AcDbEntity
  8
0
100
AcDbLine
 62
7
  6
CONTINUOUS
 10
523.4363463569
 20
353.5298696378
 11
524.4780138183
 21
353.3171037057
  0
LINE
  5
45B
100
AcDbEntity
  8
0
100
AcDbLine
 62
7
  6
CONTINUOUS
 10
537.6030114341
 20
353.5298696378
 11
538.6446812797
 21
353.3171037057
  0
LINE
  5
45C
100
AcDbEntity
  8
0
100
AcDbLine
 62
7
  6
CONTINUOUS
 10
564.8946812797
 20
349.2745504001
 11
565.9363463569
 21
349.061784468
  0
LINE
  5
45D
100
AcDbEntity
  8
0
100
AcDbLine
 62
7
  6
CONTINUOUS
 10
523.4363463569
 20
352.2532740453
 11
524.2696788955
 21
352.0405081132
  0
LINE
  5
45E
100
AcDbEntity
  8
0
100
AcDbLine
 62
7
  6
CONTINUOUS
 10
553.6446812797
 20
345.0192313114
 11
554.4780114341
 21
344.8064653793
  0
LINE
  5
45F
100
AcDbEntity
  8
0
100
AcDbLine
 62
7
  6
CONTINUOUS
 10
562.3946812797
 20
345.0192313114
 11
563.2280114341
 21
344.8064653793
  0
LINE
  5
460
100
AcDbEntity
  8
0
100
AcDbLine
 62
7
  6
CONTINUOUS
 10
562.8113463569
 20
348.2107207396
 11
563.6446812797
 21
347.9979548076
  0
LINE
  5
461
100
AcDbEntity
  8
0
100
AcDbLine
 62
7
  6
CONTINUOUS
 10
564.8946812797
 20
347.9979548076
 11
565.7280114341
 21
347.7851888755
  0
LINE
  5
462
100
AcDbEntity
  8
0
100
AcDbLine
 62
7
  6
CONTINUOUS
 10
514.0613463569
 20
352.2532740453
 11
514.6863463569
 21
352.0405081132
  0
LINE
  5
463
100
AcDbEntity
  8
0
100
AcDbLine
 62
7
  6
CONTINUOUS
 10
537.8113463569
 20
352.4660399774
 11
538.4363463569
 21
352.2532740453
  0
LINE
  5
464
100
AcDbEntity
  8
0
100
AcDbLine
 62
7
  6
CONTINUOUS
 10
515.3113463569
 20
348.6362526038
 11
515.7280138183
 21
348.4234866717
  0
LINE
  5
465
100
AcDbEntity
  8
0
100
AcDbLine
 62
7
  6
CONTINUOUS
 10
524.4780138183
 20
353.3171037057
 11
525.3113463569
 21
352.8915718415
  0
LINE
  5
466
100
AcDbEntity
  8
0
100
AcDbLine
 62
7
  6
CONTINUOUS
 10
520.1030138183
 20
345.4447633245
 11
520.7280138183
 21
345.0192313114
  0
LINE
  5
467
100
AcDbEntity
  8
0
100
AcDbLine
 62
7
  6
CONTINUOUS
 10
524.2696788955
 20
352.0405081132
 11
524.8946788955
 21
351.614976249
  0
LINE
  5
468
100
AcDbEntity
  8
0
100
AcDbLine
 62
7
  6
CONTINUOUS
 10
514.8946788955
 20
353.3171037057
 11
515.7280138183
 21
352.6788059094
  0
LINE
  5
469
100
AcDbEntity
  8
0
100
AcDbLine
 62
7
  6
CONTINUOUS
 10
514.6863463569
 20
347.7851888755
 11
515.1030138183
 21
347.3596570113
  0
LINE
  5
46A
100
AcDbEntity
  8
0
100
AcDbLine
 62
7
  6
CONTINUOUS
 10
518.8530138183
 20
345.0192313114
 11
519.6863463569
 21
344.1681675085
  0
LINE
  5
46B
100
AcDbEntity
  8
0
100
AcDbLine
 62
7
  6
CONTINUOUS
 10
514.6863463569
 20
352.0405081132
 11
515.1030138183
 21
351.614976249
  0
LINE
  5
46C
100
AcDbEntity
  8
0
100
AcDbLine
 62
7
  6
CONTINUOUS
 10
525.2696798015
 20
327.2562525561
 11
525.9696794677
 21
326.3030610969
  0
LINE
  5
46D
100
AcDbEntity
  8
0
100
AcDbLine
 62
7
  6
CONTINUOUS
 10
465.489494009
 20
436.6409628475
 11
465.6809833479
 21
436.0784628475
  0
LINE
  5
46E
100
AcDbEntity
  8
0
100
AcDbLine
 62
7
  6
CONTINUOUS
 10
490.9363463569
 20
353.5298696378
 11
493.8530129242
 21
344.8064653793
  0
LINE
  5
46F
100
AcDbEntity
  8
0
100
AcDbLine
 62
7
  6
CONTINUOUS
 10
489.6863463569
 20
353.5298696378
 11
493.0196797896
 21
343.5298696378
  0
LINE
  5
470
100
AcDbEntity
  8
0
100
AcDbLine
 62
7
  6
CONTINUOUS
 10
469.5107705277
 20
444.5159633839
 11
469.7022598666
 21
443.7659630263
  0
LINE
  5
471
100
AcDbEntity
  8
0
100
AcDbLine
 62
7
  6
CONTINUOUS
 10
469.5107705277
 20
453.515962311
 11
469.7022598666
 21
452.7659630263
  0
LINE
  5
472
100
AcDbEntity
  8
0
100
AcDbLine
 62
7
  6
CONTINUOUS
 10
470.851196034
 20
443.7659630263
 11
470.6597066783
 21
444.7034626687
  0
LINE
  5
473
100
AcDbEntity
  8
0
100
AcDbLine
 62
7
  6
CONTINUOUS
 10
470.851196034
 20
452.7659630263
 11
470.6597066783
 21
453.7034637416
  0
LINE
  5
474
100
AcDbEntity
  8
0
100
AcDbLine
 62
7
  6
CONTINUOUS
 10
487.6763463569
 20
395.4198696378
 11
487.6763463569
 21
387.1698696378
  0
LINE
  5
475
100
AcDbEntity
  8
0
100
AcDbLine
 62
7
  6
CONTINUOUS
 10
487.6763463569
 20
316.6698696378
 11
487.6763463569
 21
308.4198696378
  0
LINE
  5
476
100
AcDbEntity
  8
0
100
AcDbLine
 62
7
  6
CONTINUOUS
 10
544.8863463569
 20
363.7571036759
 11
546.053011911
 21
364.0549759808
  0
LINE
  5
477
100
AcDbEntity
  8
0
100
AcDbLine
 62
7
  6
CONTINUOUS
 10
530.8863463569
 20
363.7571036759
 11
532.0530135799
 21
364.0549759808
  0
LINE
  5
478
100
AcDbEntity
  8
0
100
AcDbLine
 62
7
  6
CONTINUOUS
 10
544.8863463569
 20
361.9698696378
 11
546.3446808029
 21
362.2677419688
  0
LINE
  5
479
100
AcDbEntity
  8
0
100
AcDbLine
 62
7
  6
CONTINUOUS
 10
530.8863463569
 20
361.9698696378
 11
532.3446791339
 21
362.2677419688
  0
LINE
  5
47A
100
AcDbEntity
  8
0
100
AcDbLine
 62
7
  6
CONTINUOUS
 10
511.6363463569
 20
361.9698696378
 11
513.3863463569
 21
361.9698696378
  0
LINE
  5
47B
100
AcDbEntity
  8
0
100
AcDbLine
 62
7
  6
CONTINUOUS
 10
520.6780127454
 20
361.9698696378
 11
522.7196799684
 21
361.9698696378
  0
LINE
  5
47C
100
AcDbEntity
  8
0
100
AcDbLine
 62
7
  6
CONTINUOUS
 10
529.7196791339
 20
361.9698696378
 11
530.8863463569
 21
361.9698696378
  0
LINE
  5
47D
100
AcDbEntity
  8
0
100
AcDbLine
 62
7
  6
CONTINUOUS
 10
537.8863463569
 20
361.9698696378
 11
544.8863463569
 21
361.9698696378
  0
LINE
  5
47E
100
AcDbEntity
  8
0
100
AcDbLine
 62
7
  6
CONTINUOUS
 10
529.7196791339
 20
363.7571036759
 11
530.8863463569
 21
363.7571036759
  0
LINE
  5
47F
100
AcDbEntity
  8
0
100
AcDbLine
 62
7
  6
CONTINUOUS
 10
539.6363463569
 20
363.7571036759
 11
544.8863463569
 21
363.7571036759
  0
LINE
  5
480
100
AcDbEntity
  8
0
100
AcDbLine
 62
7
  6
CONTINUOUS
 10
513.3863463569
 20
368.2251888755
 11
518.3446795512
 21
368.2251888755
  0
LINE
  5
481
100
AcDbEntity
  8
0
100
AcDbLine
 62
7
  6
CONTINUOUS
 10
513.3863463569
 20
370.012422705
 11
518.9280127454
 21
370.012422705
  0
LINE
  5
482
100
AcDbEntity
  8
0
100
AcDbLine
 62
7
  6
CONTINUOUS
 10
564.6863463569
 20
353.5298696378
 11
565.7280114341
 21
353.3171037057
  0
LINE
  5
483
100
AcDbEntity
  8
0
100
AcDbLine
 62
7
  6
CONTINUOUS
 10
528.2613463569
 20
362.2677419688
 11
529.7196791339
 21
361.9698696378
  0
LINE
  5
484
100
AcDbEntity
  8
0
100
AcDbLine
 62
7
  6
CONTINUOUS
 10
528.5530135799
 20
364.0549759808
 11
529.7196791339
 21
363.7571036759
  0
LINE
  5
485
100
AcDbEntity
  8
0
100
AcDbLine
 62
7
  6
CONTINUOUS
 10
563.0196812797
 20
349.4873163321
 11
563.6446812797
 21
349.2745504001
  0
LINE
  5
486
100
AcDbEntity
  8
0
100
AcDbLine
 62
7
  6
CONTINUOUS
 10
564.8946812797
 20
352.2532740453
 11
565.5196812797
 21
352.0405081132
  0
LINE
  5
487
100
AcDbEntity
  8
0
100
AcDbLine
 62
7
  6
CONTINUOUS
 10
552.6030114341
 20
344.1681675085
 11
553.4363463569
 21
343.7426355885
  0
LINE
  5
488
100
AcDbEntity
  8
0
100
AcDbLine
 62
7
  6
CONTINUOUS
 10
527.0946791339
 20
362.8634866568
 11
528.2613463569
 21
362.2677419688
  0
LINE
  5
489
100
AcDbEntity
  8
0
100
AcDbLine
 62
7
  6
CONTINUOUS
 10
561.9780114341
 20
348.6362526038
 11
562.8113463569
 21
348.2107207396
  0
LINE
  5
48A
100
AcDbEntity
  8
0
100
AcDbLine
 62
7
  6
CONTINUOUS
 10
565.9363463569
 20
349.061784468
 11
566.7696812797
 21
348.6362526038
  0
LINE
  5
48B
100
AcDbEntity
  8
0
100
AcDbLine
 62
7
  6
CONTINUOUS
 10
561.1446812797
 20
344.3809334406
 11
562.1863463569
 21
343.7426355885
  0
LINE
  5
48C
100
AcDbEntity
  8
0
100
AcDbLine
 62
7
  6
CONTINUOUS
 10
553.0196812797
 20
345.4447633245
 11
553.6446812797
 21
345.0192313114
  0
LINE
  5
48D
100
AcDbEntity
  8
0
100
AcDbLine
 62
7
  6
CONTINUOUS
 10
527.6780135799
 20
364.6507207992
 11
528.5530135799
 21
364.0549759808
  0
LINE
  5
48E
100
AcDbEntity
  8
0
100
AcDbLine
 62
7
  6
CONTINUOUS
 10
538.6446812797
 20
353.3171037057
 11
539.4780114341
 21
352.6788059094
  0
LINE
  5
48F
100
AcDbEntity
  8
0
100
AcDbLine
 62
7
  6
CONTINUOUS
 10
525.3113463569
 20
352.8915718415
 11
526.1446788955
 21
352.0405081132
  0
LINE
  5
490
100
AcDbEntity
  8
0
100
AcDbLine
 62
7
  6
CONTINUOUS
 10
515.7280138183
 20
348.4234866717
 11
516.3530138183
 21
347.5724229434
  0
LINE
  5
491
100
AcDbEntity
  8
0
100
AcDbLine
 62
7
  6
CONTINUOUS
 10
515.7280138183
 20
352.6788059094
 11
516.3530138183
 21
351.8277421811
  0
LINE
  5
492
100
AcDbEntity
  8
0
100
AcDbLine
 62
7
  6
CONTINUOUS
 10
532.0363463569
 20
331.5456142476
 11
532.7363463569
 21
330.5924228719
  0
LINE
  5
493
100
AcDbEntity
  8
0
100
AcDbLine
 62
7
  6
CONTINUOUS
 10
519.6863463569
 20
346.0830611208
 11
520.1030138183
 21
345.4447633245
  0
LINE
  5
494
100
AcDbEntity
  8
0
100
AcDbLine
 62
7
  6
CONTINUOUS
 10
531.3363463569
 20
330.5924228719
 11
531.8030125785
 21
329.8775293401
  0
LINE
  5
495
100
AcDbEntity
  8
0
100
AcDbLine
 62
7
  6
CONTINUOUS
 10
466.4469407034
 20
436.8284632051
 11
466.0639620257
 21
437.5784630263
  0
LINE
  5
496
100
AcDbEntity
  8
0
100
AcDbLine
 62
7
  6
CONTINUOUS
 10
470.6597066783
 20
444.7034626687
 11
470.2767279503
 21
445.4534630263
  0
LINE
  5
497
100
AcDbEntity
  8
0
100
AcDbLine
 62
7
  6
CONTINUOUS
 10
524.8030129123
 20
328.2094440988
 11
525.2696798015
 21
327.2562525561
  0
LINE
  5
498
100
AcDbEntity
  8
0
100
AcDbLine
 62
7
  6
CONTINUOUS
 10
526.2030132461
 20
328.2094440988
 11
526.6696794677
 21
327.2562525561
  0
LINE
  5
499
100
AcDbEntity
  8
0
100
AcDbLine
 62
7
  6
CONTINUOUS
 10
518.4363463569
 20
345.8702951887
 11
518.8530138183
 21
345.0192313114
  0
LINE
  5
49A
100
AcDbEntity
  8
BEZUGSACHSEN
100
AcDbLine
 62
7
  6
CONTINUOUS
 10
497.6763463569
 20
395.9198696378
 11
497.6763463569
 21
421.419869638
  0
LINE
  5
49B
100
AcDbEntity
  8
0
100
AcDbLine
 62
7
  6
CONTINUOUS
 10
499.4263463569
 20
387.1698696378
 11
499.4263463569
 21
386.9198696378
  0
LINE
  5
49C
100
AcDbEntity
  8
0
100
AcDbLine
 62
7
  6
CONTINUOUS
 10
499.4263463569
 20
316.9198696378
 11
499.4263463569
 21
316.6698696378
  0
LINE
  5
49D
100
AcDbEntity
  8
0
100
AcDbLine
 62
7
  6
CONTINUOUS
 10
499.6863463569
 20
343.5298696378
 11
499.6863463569
 21
353.5298696378
  0
LINE
  5
49E
100
AcDbEntity
  8
BEZUGSACHSEN
100
AcDbLine
 62
7
  6
CONTINUOUS
 10
500.2263463569
 20
395.4198696378
 11
500.2263463569
 21
395.9198696378
  0
LINE
  5
49F
100
AcDbEntity
  8
0
100
AcDbLine
 62
7
  6
CONTINUOUS
 10
500.9363463569
 20
344.8064653793
 11
500.9363463569
 21
353.5298696378
  0
LINE
  5
4A0
100
AcDbEntity
  8
KONSTRUKTIONSELEMENTE
100
AcDbLine
 62
7
  6
CONTINUOUS
 10
504.0636285325
 20
421.4198696378
 11
504.0636285325
 21
421.6198696378
  0
LINE
  5
4A1
100
AcDbEntity
  8
KONSTRUKTIONSELEMENTE
100
AcDbLine
 62
7
  6
CONTINUOUS
 10
504.3113948746
 20
421.4198696378
 11
504.3113948746
 21
421.6198696378
  0
LINE
  5
4A2
100
AcDbEntity
  8
KONSTRUKTIONSELEMENTE
100
AcDbLine
 62
7
  6
CONTINUOUS
 10
505.1372826815
 20
421.4198696378
 11
505.1372826815
 21
421.6198696378
  0
LINE
  5
4A3
100
AcDbEntity
  8
KONSTRUKTIONSELEMENTE
100
AcDbLine
 62
7
  6
CONTINUOUS
 10
505.3850490236
 20
421.4198696378
 11
505.3850490236
 21
421.6198696378
  0
LINE
  5
4A4
100
AcDbEntity
  8
0
100
AcDbLine
 62
7
  6
CONTINUOUS
 10
507.1863463569
 20
343.5298696378
 11
507.1863463569
 21
344.8064653793
  0
LINE
  5
4A5
100
AcDbEntity
  8
0
100
AcDbLine
 62
7
  6
CONTINUOUS
 10
539.6363463569
 20
374.1826358083
 11
544.8863463569
 21
374.1826358083
  0
LINE
  5
4A6
100
AcDbEntity
  8
0
100
AcDbLine
 62
7
  6
CONTINUOUS
 10
513.3863463569
 20
374.4805081132
 11
518.9280127454
 21
374.4805081132
  0
LINE
  5
4A7
100
AcDbEntity
  8
0
100
AcDbLine
 62
7
  6
CONTINUOUS
 10
511.6363463569
 20
375.9698696378
 11
518.6363463569
 21
375.9698696378
  0
LINE
  5
4A8
100
AcDbEntity
  8
0
100
AcDbLine
 62
7
  6
CONTINUOUS
 10
525.0530127454
 20
375.9698696378
 11
526.8030135799
 21
375.9698696378
  0
LINE
  5
4A9
100
AcDbEntity
  8
0
100
AcDbLine
 62
7
  6
CONTINUOUS
 10
533.8030135799
 20
375.9698696378
 11
535.5530135799
 21
375.9698696378
  0
LINE
  5
4AA
100
AcDbEntity
  8
0
100
AcDbLine
 62
7
  6
CONTINUOUS
 10
537.8863463569
 20
375.9698696378
 11
544.8863463569
 21
375.9698696378
  0
LINE
  5
4AB
100
AcDbEntity
  8
BEZUGSACHSEN
100
AcDbLine
 62
7
  6
CONTINUOUS
 10
475.1646291652
 20
381.9198487105
 11
475.1753751246
 21
381.9198490751
  0
LINE
  5
4AC
100
AcDbEntity
  8
0
100
AcDbLine
 62
7
  6
CONTINUOUS
 10
518.6363463569
 20
375.9698696378
 11
520.0946799684
 21
375.6719973329
  0
LINE
  5
4AD
100
AcDbEntity
  8
0
100
AcDbLine
 62
7
  6
CONTINUOUS
 10
544.8863463569
 20
375.9698696378
 11
546.3446808029
 21
375.6719973329
  0
LINE
  5
4AE
100
AcDbEntity
  8
0
100
AcDbLine
 62
7
  6
CONTINUOUS
 10
544.8863463569
 20
374.1826358083
 11
546.053011911
 21
373.8847635034
  0
LINE
  5
4AF
100
AcDbEntity
  8
0
100
AcDbLine
 62
7
  6
CONTINUOUS
 10
518.9280127454
 20
374.4805081132
 11
519.8030127454
 21
374.1826358083
  0
LINE
  5
4B0
100
AcDbEntity
  8
0
100
AcDbLine
 62
7
  6
CONTINUOUS
 10
562.3946812797
 20
349.9128481963
 11
563.0196812797
 21
349.4873163321
  0
LINE
  5
4B1
100
AcDbEntity
  8
0
100
AcDbLine
 62
7
  6
CONTINUOUS
 10
565.7280114341
 20
347.7851888755
 11
566.3530114341
 21
347.3596570113
  0
LINE
  5
4B2
100
AcDbEntity
  8
0
100
AcDbLine
 62
7
  6
CONTINUOUS
 10
520.0946799684
 20
375.6719973329
 11
521.2613463569
 21
374.7783804181
  0
LINE
  5
4B3
100
AcDbEntity
  8
0
100
AcDbLine
 62
7
  6
CONTINUOUS
 10
465.1065153313
 20
437.0159630263
 11
465.489494009
 21
436.6409628475
  0
LINE
  5
4B4
100
AcDbEntity
  8
0
100
AcDbLine
 62
7
  6
CONTINUOUS
 10
525.9280135799
 20
364.0549759808
 11
527.0946791339
 21
362.8634866568
  0
LINE
  5
4B5
100
AcDbEntity
  8
0
100
AcDbLine
 62
7
  6
CONTINUOUS
 10
538.4363463569
 20
352.2532740453
 11
538.8530114341
 21
351.8277421811
  0
LINE
  5
4B6
100
AcDbEntity
  8
0
100
AcDbLine
 62
7
  6
CONTINUOUS
 10
519.8030127454
 20
374.1826358083
 11
520.3863463569
 21
373.5868911984
  0
LINE
  5
4B7
100
AcDbEntity
  8
0
100
AcDbLine
 62
7
  6
CONTINUOUS
 10
551.7696812797
 20
345.0192313114
 11
552.6030114341
 21
344.1681675085
  0
LINE
  5
4B8
100
AcDbEntity
  8
0
100
AcDbLine
 62
7
  6
CONTINUOUS
 10
521.2613463569
 20
374.7783804181
 11
522.1363463569
 21
373.5868911984
  0
LINE
  5
4B9
100
AcDbEntity
  8
0
100
AcDbLine
 62
7
  6
CONTINUOUS
 10
539.4780114341
 20
352.6788059094
 11
540.1030114341
 21
351.8277421811
  0
LINE
  5
4BA
100
AcDbEntity
  8
0
100
AcDbLine
 62
7
  6
CONTINUOUS
 10
469.1277917159
 20
445.0784633839
 11
469.5107705277
 21
444.5159633839
  0
LINE
  5
4BB
100
AcDbEntity
  8
0
100
AcDbLine
 62
7
  6
CONTINUOUS
 10
469.1277917159
 20
454.078462311
 11
469.5107705277
 21
453.515962311
  0
LINE
  5
4BC
100
AcDbEntity
  8
0
100
AcDbLine
 62
7
  6
CONTINUOUS
 10
527.0946791339
 20
365.544337714
 11
527.6780135799
 21
364.6507207992
  0
LINE
  5
4BD
100
AcDbEntity
  8
0
100
AcDbLine
 62
7
  6
CONTINUOUS
 10
470.6597066783
 20
453.7034637416
 11
470.2767279503
 21
454.4534630263
  0
LINE
  5
4BE
100
AcDbEntity
  8
0
100
AcDbLine
 62
7
  6
CONTINUOUS
 10
536.9363463569
 20
327.2562525561
 11
537.4030125785
 21
326.3030610969
  0
LINE
  5
4BF
100
AcDbEntity
  8
BEZUGSACHSEN
100
AcDbLine
 62
7
  6
CONTINUOUS
 10
465.8294115784
 20
495.323120494
 11
460.935004003
 21
506.3161398947
  0
LINE
  5
4C0
100
AcDbEntity
  8
0
100
AcDbLine
 62
7
  6
CONTINUOUS
 10
532.7363463569
 20
330.5924228719
 11
533.2030125785
 21
329.4009333184
  0
LINE
  5
4C1
100
AcDbEntity
  8
0
100
AcDbLine
 62
7
  6
CONTINUOUS
 10
520.0946799684
 20
368.8209334853
 11
522.7196799684
 21
361.9698696378
  0
LINE
  5
4C2
100
AcDbEntity
  8
0
100
AcDbLine
 62
7
  6
CONTINUOUS
 10
518.3446795512
 20
368.2251888755
 11
520.6780127454
 21
361.9698696378
  0
LINE
  5
4C3
100
AcDbEntity
  8
0
100
AcDbLine
 62
7
  6
CONTINUOUS
 10
515.1030138183
 20
347.3596570113
 11
515.3113463569
 21
346.721358917
  0
LINE
  5
4C4
100
AcDbEntity
  8
0
100
AcDbLine
 62
7
  6
CONTINUOUS
 10
516.3530138183
 20
347.5724229434
 11
516.5613463569
 21
346.9341248491
  0
LINE
  5
4C5
100
AcDbEntity
  8
0
100
AcDbLine
 62
7
  6
CONTINUOUS
 10
515.1030138183
 20
351.614976249
 11
515.3113463569
 21
350.9766778567
  0
LINE
  5
4C6
100
AcDbEntity
  8
0
100
AcDbLine
 62
7
  6
CONTINUOUS
 10
516.3530138183
 20
351.8277421811
 11
516.5613463569
 21
351.1894443849
  0
LINE
  5
4C7
100
AcDbEntity
  8
0
100
AcDbLine
 62
7
  6
CONTINUOUS
 10
519.4780138183
 20
346.9341248491
 11
519.6863463569
 21
346.0830611208
  0
LINE
  5
4C8
100
AcDbEntity
  8
0
100
AcDbLine
 62
7
  6
CONTINUOUS
 10
518.2280138183
 20
346.9341248491
 11
518.4363463569
 21
345.8702951887
  0
LINE
  5
4C9
100
AcDbEntity
  8
0
100
AcDbLine
 62
7
  6
CONTINUOUS
 10
508.8530126262
 20
343.5298696378
 11
508.8530126262
 21
353.5298696378
  0
LINE
  5
4CA
100
AcDbEntity
  8
BEZUGSACHSEN
100
AcDbLine
 62
7
  6
CONTINUOUS
 10
509.1763463569
 20
249.4198696378
 11
509.1763463569
 21
308.4198696378
  0
LINE
  5
4CB
100
AcDbEntity
  8
0
100
AcDbLine
 62
7
  6
CONTINUOUS
 10
510.1030138183
 20
344.8064653793
 11
510.1030138183
 21
347.9979548076
  0
LINE
  5
4CC
100
AcDbEntity
  8
0
100
AcDbLine
 62
7
  6
CONTINUOUS
 10
510.1030138183
 20
349.2745504001
 11
510.1030138183
 21
352.2532740453
  0
LINE
  5
4CD
100
AcDbEntity
  8
0
100
AcDbLine
 62
7
  6
CONTINUOUS
 10
511.6363463569
 20
361.9698696378
 11
511.6363463569
 21
375.9698696378
  0
LINE
  5
4CE
100
AcDbEntity
  8
KONSTRUKTIONSELEMENTE
100
AcDbLine
 62
7
  6
CONTINUOUS
 10
512.5391022516
 20
421.4198696378
 11
512.5391022516
 21
421.6198696378
  0
LINE
  5
4CF
100
AcDbEntity
  8
KONSTRUKTIONSELEMENTE
100
AcDbLine
 62
7
  6
CONTINUOUS
 10
512.6744959671
 20
421.4198696378
 11
512.6744959671
 21
421.6198696378
  0
LINE
  5
4D0
100
AcDbEntity
  8
KONSTRUKTIONSELEMENTE
100
AcDbLine
 62
7
  6
CONTINUOUS
 10
513.007538735
 20
421.4198696378
 11
513.007538735
 21
421.6198696378
  0
LINE
  5
4D1
100
AcDbEntity
  8
0
100
AcDbLine
 62
7
  6
CONTINUOUS
 10
513.3863463569
 20
361.9698696378
 11
513.3863463569
 21
368.2251888755
  0
LINE
  5
4D2
100
AcDbEntity
  8
0
100
AcDbLine
 62
7
  6
CONTINUOUS
 10
513.3863463569
 20
370.012422705
 11
513.3863463569
 21
374.4805081132
  0
LINE
  5
4D3
100
AcDbEntity
  8
KONSTRUKTIONSELEMENTE
100
AcDbLine
 62
7
  6
CONTINUOUS
 10
515.1303019673
 20
421.4198696378
 11
515.1303019673
 21
421.6198696378
  0
LINE
  5
4D4
100
AcDbEntity
  8
0
100
AcDbLine
 62
7
  6
CONTINUOUS
 10
515.3113463569
 20
346.0830611208
 11
515.3113463569
 21
346.721358917
  0
LINE
  5
4D5
100
AcDbEntity
  8
0
100
AcDbLine
 62
7
  6
CONTINUOUS
 10
515.3113463569
 20
350.5511459926
 11
515.3113463569
 21
350.9766778567
  0
LINE
  5
4D6
100
AcDbEntity
  8
0
100
AcDbLine
 62
7
  6
CONTINUOUS
 10
516.5613463569
 20
345.8702951887
 11
516.5613463569
 21
346.9341248491
  0
LINE
  5
4D7
100
AcDbEntity
  8
0
100
AcDbLine
 62
7
  6
CONTINUOUS
 10
516.5613463569
 20
350.3383800605
 11
516.5613463569
 21
351.1894443849
  0
LINE
  5
4D8
100
AcDbEntity
  8
KONSTRUKTIONSELEMENTE
100
AcDbLine
 62
7
  6
CONTINUOUS
 10
517.9357985095
 20
421.4198696378
 11
517.9357985095
 21
421.6198696378
  0
LINE
  5
4D9
100
AcDbEntity
  8
0
100
AcDbLine
 62
7
  6
CONTINUOUS
 10
518.2280138183
 20
346.9341248491
 11
518.2280138183
 21
350.1256141284
  0
LINE
  5
4DA
100
AcDbEntity
  8
KONSTRUKTIONSELEMENTE
100
AcDbLine
 62
7
  6
CONTINUOUS
 10
518.5715949246
 20
421.4198696378
 11
518.5715949246
 21
421.6198696378
  0
LINE
  5
4DB
100
AcDbEntity
  8
0
100
AcDbLine
 62
7
  6
CONTINUOUS
 10
519.4780138183
 20
346.9341248491
 11
519.4780138183
 21
350.1256141284
  0
LINE
  5
4DC
100
AcDbEntity
  8
0
100
AcDbLine
 62
7
  6
CONTINUOUS
 10
494.6863463569
 20
343.5298696378
 11
498.0196794916
 21
353.5298696378
  0
LINE
  5
4DD
100
AcDbEntity
  8
0
100
AcDbLine
 62
7
  6
CONTINUOUS
 10
493.8530129242
 20
344.8064653793
 11
496.7696794916
 21
353.5298696378
  0
LINE
  5
4DE
100
AcDbEntity
  8
RUNDUNGEN
100
AcDbLine
 62
7
  6
CONTINUOUS
 10
487.6763463569
 20
386.9198696378
 11
572.6763463569
 21
386.9198696378
  0
LINE
  5
4DF
100
AcDbEntity
  8
0
100
AcDbLine
 62
7
  6
CONTINUOUS
 10
487.6765287274
 20
387.1698696378
 11
572.6761639864
 21
387.1698696378
  0
LINE
  5
4E0
100
AcDbEntity
  8
0
100
AcDbLine
 62
7
  6
CONTINUOUS
 10
546.3446808029
 20
375.6719973329
 11
547.5113463569
 21
375.076252723
  0
LINE
  5
4E1
100
AcDbEntity
  8
0
100
AcDbLine
 62
7
  6
CONTINUOUS
 10
546.053011911
 20
373.8847635034
 11
546.928011911
 21
373.2890188935
  0
LINE
  5
4E2
100
AcDbEntity
  8
0
100
AcDbLine
 62
7
  6
CONTINUOUS
 10
466.0639620257
 20
437.5784630263
 11
465.2980046702
 21
438.1409630263
  0
LINE
  5
4E3
100
AcDbEntity
  8
0
100
AcDbLine
 62
7
  6
CONTINUOUS
 10
565.7280114341
 20
353.3171037057
 11
566.5613463569
 21
352.6788059094
  0
LINE
  5
4E4
100
AcDbEntity
  8
0
100
AcDbLine
 62
7
  6
CONTINUOUS
 10
470.2767279503
 20
445.4534630263
 11
469.5107705277
 21
446.2034633839
  0
LINE
  5
4E5
100
AcDbEntity
  8
0
100
AcDbLine
 62
7
  6
CONTINUOUS
 10
561.7696812797
 20
345.6575292566
 11
562.3946812797
 21
345.0192313114
  0
LINE
  5
4E6
100
AcDbEntity
  8
0
100
AcDbLine
 62
7
  6
CONTINUOUS
 10
561.1446812797
 20
349.4873163321
 11
561.9780114341
 21
348.6362526038
  0
LINE
  5
4E7
100
AcDbEntity
  8
0
100
AcDbLine
 62
7
  6
CONTINUOUS
 10
566.7696812797
 20
348.6362526038
 11
567.6030114341
 21
347.7851888755
  0
LINE
  5
4E8
100
AcDbEntity
  8
0
100
AcDbLine
 62
7
  6
CONTINUOUS
 10
565.5196812797
 20
352.0405081132
 11
565.9363463569
 21
351.614976249
  0
LINE
  5
4E9
100
AcDbEntity
  8
0
100
AcDbLine
 62
7
  6
CONTINUOUS
 10
552.6030114341
 20
346.0830611208
 11
553.0196812797
 21
345.4447633245
  0
LINE
  5
4EA
100
AcDbEntity
  8
0
100
AcDbLine
 62
7
  6
CONTINUOUS
 10
525.3446799684
 20
365.2464654091
 11
525.9280135799
 21
364.0549759808
  0
LINE
  5
4EB
100
AcDbEntity
  8
0
100
AcDbLine
 62
7
  6
CONTINUOUS
 10
531.8030125785
 20
329.8775293401
 11
532.0363463569
 21
329.1626354745
  0
LINE
  5
4EC
100
AcDbEntity
  8
0
100
AcDbLine
 62
7
  6
CONTINUOUS
 10
524.8946788955
 20
351.614976249
 11
525.1030138183
 21
350.9766778567
  0
LINE
  5
4ED
100
AcDbEntity
  8
0
100
AcDbLine
 62
7
  6
CONTINUOUS
 10
520.3863463569
 20
373.5868911984
 11
520.6780127454
 21
372.6932742837
  0
LINE
  5
4EE
100
AcDbEntity
  8
0
100
AcDbLine
 62
7
  6
CONTINUOUS
 10
522.1363463569
 20
373.5868911984
 11
522.4280127454
 21
372.6932742837
  0
LINE
  5
4EF
100
AcDbEntity
  8
0
100
AcDbLine
 62
7
  6
CONTINUOUS
 10
538.1030125785
 20
327.7328484109
 11
538.3363463569
 21
327.0179547122
  0
LINE
  5
4F0
100
AcDbEntity
  8
0
100
AcDbLine
 62
7
  6
CONTINUOUS
 10
526.8030135799
 20
366.7358269337
 11
527.0946791339
 21
365.544337714
  0
LINE
  5
4F1
100
AcDbEntity
  8
0
100
AcDbLine
 62
7
  6
CONTINUOUS
 10
526.1446788955
 20
352.0405081132
 11
526.3530138183
 21
350.9766778567
  0
LINE
  5
4F2
100
AcDbEntity
  8
0
100
AcDbLine
 62
7
  6
CONTINUOUS
 10
525.0530127454
 20
366.7358269337
 11
525.3446799684
 21
365.2464654091
  0
LINE
  5
4F3
100
AcDbEntity
  8
0
100
AcDbLine
 62
7
  6
CONTINUOUS
 10
520.1363463569
 20
332.9754013112
 11
520.1363463569
 21
334.8817847302
  0
LINE
  5
4F4
100
AcDbEntity
  8
KONSTRUKTIONSELEMENTE
100
AcDbLine
 62
7
  6
CONTINUOUS
 10
520.6518658441
 20
421.4198696378
 11
520.6518658441
 21
421.6198696378
  0
LINE
  5
4F5
100
AcDbEntity
  8
0
100
AcDbLine
 62
7
  6
CONTINUOUS
 10
520.6780127454
 20
371.7996565345
 11
520.6780127454
 21
372.6932742837
  0
LINE
  5
4F6
100
AcDbEntity
  8
KONSTRUKTIONSELEMENTE
100
AcDbLine
 62
7
  6
CONTINUOUS
 10
521.0262541332
 20
421.4198696378
 11
521.0262541332
 21
421.6198696378
  0
LINE
  5
4F7
100
AcDbEntity
  8
KONSTRUKTIONSELEMENTE
100
AcDbLine
 62
7
  6
CONTINUOUS
 10
521.114780585
 20
421.4198696378
 11
521.114780585
 21
421.6198696378
  0
LINE
  5
4F8
100
AcDbEntity
  8
0
100
AcDbLine
 62
7
  6
CONTINUOUS
 10
521.5363463569
 20
325.3498696378
 11
521.5363463569
 21
334.6434868863
  0
LINE
  5
4F9
100
AcDbEntity
  8
KONSTRUKTIONSELEMENTE
100
AcDbLine
 62
7
  6
CONTINUOUS
 10
521.7505773033
 20
421.4198696378
 11
521.7505773033
 21
421.6198696378
  0
LINE
  5
4FA
100
AcDbEntity
  8
0
100
AcDbLine
 62
7
  6
CONTINUOUS
 10
522.4280127454
 20
371.5017842296
 11
522.4280127454
 21
372.6932742837
  0
LINE
  5
4FB
100
AcDbEntity
  8
0
100
AcDbLine
 62
7
  6
CONTINUOUS
 10
522.9363463569
 20
325.3498696378
 11
522.9363463569
 21
336.5498696378
  0
LINE
  5
4FC
100
AcDbEntity
  8
0
100
AcDbLine
 62
7
  6
CONTINUOUS
 10
523.2280138183
 20
347.7851888755
 11
523.2280138183
 21
349.061784468
  0
LINE
  5
4FD
100
AcDbEntity
  8
KONSTRUKTIONSELEMENTE
100
AcDbLine
 62
7
  6
CONTINUOUS
 10
523.8308482228
 20
421.4198696378
 11
523.8308482228
 21
421.6198696378
  0
LINE
  5
4FE
100
AcDbEntity
  8
KONSTRUKTIONSELEMENTE
100
AcDbLine
 62
7
  6
CONTINUOUS
 10
524.0604094737
 20
421.4198696378
 11
524.0604094737
 21
421.6198696378
  0
LINE
  5
4FF
100
AcDbEntity
  8
KONSTRUKTIONSELEMENTE
100
AcDbLine
 62
7
  6
CONTINUOUS
 10
524.116899299
 20
421.4198696378
 11
524.116899299
 21
421.6198696378
  0
LINE
  5
500
100
AcDbEntity
  8
0
100
AcDbLine
 62
7
  6
CONTINUOUS
 10
524.8030129123
 20
330.3541250279
 11
524.8030129123
 21
336.5498696378
  0
LINE
  5
501
100
AcDbEntity
  8
0
100
AcDbLine
 62
7
  6
CONTINUOUS
 10
525.0530127454
 20
366.7358269337
 11
525.0530127454
 21
375.9698696378
  0
LINE
  5
502
100
AcDbEntity
  8
0
100
AcDbLine
 62
7
  6
CONTINUOUS
 10
525.1030138183
 20
346.0830611208
 11
525.1030138183
 21
347.7851888755
  0
LINE
  5
503
100
AcDbEntity
  8
KONSTRUKTIONSELEMENTE
100
AcDbLine
 62
7
  6
CONTINUOUS
 10
525.1949127826
 20
421.4198696378
 11
525.1949127826
 21
421.6198696378
  0
LINE
  5
504
100
AcDbEntity
  8
KONSTRUKTIONSELEMENTE
100
AcDbLine
 62
7
  6
CONTINUOUS
 10
525.2480989055
 20
421.4198696378
 11
525.2480989055
 21
421.6198696378
  0
LINE
  5
505
100
AcDbEntity
  8
KONSTRUKTIONSELEMENTE
100
AcDbLine
 62
7
  6
CONTINUOUS
 10
525.5098000676
 20
421.4198696378
 11
525.5098000676
 21
421.6198696378
  0
LINE
  5
506
100
AcDbEntity
  8
KONSTRUKTIONSELEMENTE
100
AcDbLine
 62
7
  6
CONTINUOUS
 10
525.9064013252
 20
421.4198696378
 11
525.9064013252
 21
421.6198696378
  0
LINE
  5
507
100
AcDbEntity
  8
0
100
AcDbLine
 62
7
  6
CONTINUOUS
 10
525.9696794677
 20
331.5456142476
 11
525.9696794677
 21
335.3583804181
  0
LINE
  5
508
100
AcDbEntity
  8
0
100
AcDbLine
 62
7
  6
CONTINUOUS
 10
526.3530138183
 20
345.8702951887
 11
526.3530138183
 21
349.061784468
  0
LINE
  5
509
100
AcDbEntity
  8
KONSTRUKTIONSELEMENTE
100
AcDbLine
 62
7
  6
CONTINUOUS
 10
526.458331499
 20
421.4198696378
 11
526.458331499
 21
421.6198696378
  0
LINE
  5
50A
100
AcDbEntity
  8
0
100
AcDbLine
 62
7
  6
CONTINUOUS
 10
526.8030135799
 20
366.7358269337
 11
526.8030135799
 21
375.9698696378
  0
LINE
  5
50B
100
AcDbEntity
  8
0
100
AcDbLine
 62
7
  6
CONTINUOUS
 10
528.0196788955
 20
347.1468907812
 11
528.0196788955
 21
348.2107207396
  0
LINE
  5
50C
100
AcDbEntity
  8
KONSTRUKTIONSELEMENTE
100
AcDbLine
 62
7
  6
CONTINUOUS
 10
529.205652576
 20
421.4198696378
 11
529.205652576
 21
421.6198696378
  0
LINE
  5
50D
100
AcDbEntity
  8
KONSTRUKTIONSELEMENTE
100
AcDbLine
 62
7
  6
CONTINUOUS
 10
530.1657918678
 20
421.4198696378
 11
530.1657918678
 21
421.6198696378
  0
LINE
  5
50E
100
AcDbEntity
  8
BEZUGSACHSEN
100
AcDbLine
 62
7
  6
CONTINUOUS
 10
530.1763463569
 20
395.9198696378
 11
530.1763463569
 21
418.5170867198
  0
LINE
  5
50F
100
AcDbEntity
  8
0
100
AcDbLine
 62
7
  6
CONTINUOUS
 10
530.9363463569
 20
347.1468907812
 11
530.9363463569
 21
348.2107207396
  0
LINE
  5
510
100
AcDbEntity
  8
0
100
AcDbLine
 62
7
  6
CONTINUOUS
 10
518.2280138183
 20
350.1256141284
 11
518.4363463569
 21
351.1894443849
  0
LINE
  5
511
100
AcDbEntity
  8
0
100
AcDbLine
 62
7
  6
CONTINUOUS
 10
520.3863463569
 20
370.9060396197
 11
520.6780127454
 21
371.7996565345
  0
LINE
  5
512
100
AcDbEntity
  8
0
100
AcDbLine
 62
7
  6
CONTINUOUS
 10
487.6765287274
 20
395.4198696378
 11
572.6761639864
 21
395.4198696378
  0
LINE
  5
513
100
AcDbEntity
  8
KONSTRUKTIONSELEMENTE
100
AcDbLine
 62
7
  6
CONTINUOUS
 10
497.6763463569
 20
395.9198696378
 11
562.6763463569
 21
395.9198696378
  0
LINE
  5
514
100
AcDbEntity
  8
0
100
AcDbLine
 62
7
  6
CONTINUOUS
 10
468.5533236992
 20
445.4534630263
 11
469.1277917159
 21
445.0784633839
  0
LINE
  5
515
100
AcDbEntity
  8
0
100
AcDbLine
 62
7
  6
CONTINUOUS
 10
470.2767279503
 20
454.4534630263
 11
469.5107705277
 21
455.203462311
  0
LINE
  5
516
100
AcDbEntity
  8
0
100
AcDbLine
 62
7
  6
CONTINUOUS
 10
547.5113463569
 20
375.076252723
 11
548.678011911
 21
373.8847635034
  0
LINE
  5
517
100
AcDbEntity
  8
0
100
AcDbLine
 62
7
  6
CONTINUOUS
 10
566.5613463569
 20
352.6788059094
 11
567.1863463569
 21
351.8277421811
  0
LINE
  5
518
100
AcDbEntity
  8
0
100
AcDbLine
 62
7
  6
CONTINUOUS
 10
546.928011911
 20
373.2890188935
 11
547.5113463569
 21
372.3954011443
  0
LINE
  5
519
100
AcDbEntity
  8
0
100
AcDbLine
 62
7
  6
CONTINUOUS
 10
566.3530114341
 20
347.3596570113
 11
566.7696812797
 21
346.721358917
  0
LINE
  5
51A
100
AcDbEntity
  8
0
100
AcDbLine
 62
7
  6
CONTINUOUS
 10
560.5196812797
 20
345.4447633245
 11
561.1446812797
 21
344.3809334406
  0
LINE
  5
51B
100
AcDbEntity
  8
0
100
AcDbLine
 62
7
  6
CONTINUOUS
 10
551.3530114341
 20
345.8702951887
 11
551.7696812797
 21
345.0192313114
  0
LINE
  5
51C
100
AcDbEntity
  8
0
100
AcDbLine
 62
7
  6
CONTINUOUS
 10
538.8530114341
 20
351.8277421811
 11
539.0613463569
 21
351.1894443849
  0
LINE
  5
51D
100
AcDbEntity
  8
0
100
AcDbLine
 62
7
  6
CONTINUOUS
 10
540.1030114341
 20
351.8277421811
 11
540.3113463569
 21
351.1894443849
  0
LINE
  5
51E
100
AcDbEntity
  8
0
100
AcDbLine
 62
7
  6
CONTINUOUS
 10
532.0363463569
 20
328.6860397866
 11
532.0363463569
 21
329.1626354745
  0
LINE
  5
51F
100
AcDbEntity
  8
0
100
AcDbLine
 62
7
  6
CONTINUOUS
 10
532.6030114341
 20
343.5298696378
 11
532.6030114341
 21
353.5298696378
  0
LINE
  5
520
100
AcDbEntity
  8
0
100
AcDbLine
 62
7
  6
CONTINUOUS
 10
532.7363463569
 20
335.3583804181
 11
532.7363463569
 21
336.5498696378
  0
LINE
  5
521
100
AcDbEntity
  8
0
100
AcDbLine
 62
7
  6
CONTINUOUS
 10
533.2030125785
 20
328.4477419427
 11
533.2030125785
 21
329.4009333184
  0
LINE
  5
522
100
AcDbEntity
  8
0
100
AcDbLine
 62
7
  6
CONTINUOUS
 10
533.8030135799
 20
366.7358269337
 11
533.8030135799
 21
375.9698696378
  0
LINE
  5
523
100
AcDbEntity
  8
0
100
AcDbLine
 62
7
  6
CONTINUOUS
 10
533.8530114341
 20
343.5298696378
 11
533.8530114341
 21
347.9979548076
  0
LINE
  5
524
100
AcDbEntity
  8
0
100
AcDbLine
 62
7
  6
CONTINUOUS
 10
533.8530114341
 20
349.2745504001
 11
533.8530114341
 21
352.4660399774
  0
LINE
  5
525
100
AcDbEntity
  8
0
100
AcDbLine
 62
7
  6
CONTINUOUS
 10
535.0696801353
 20
332.0222099355
 11
535.0696801353
 21
332.9754013112
  0
LINE
  5
526
100
AcDbEntity
  8
0
100
AcDbLine
 62
7
  6
CONTINUOUS
 10
535.5530135799
 20
366.7358269337
 11
535.5530135799
 21
375.9698696378
  0
LINE
  5
527
100
AcDbEntity
  8
0
100
AcDbLine
 62
7
  6
CONTINUOUS
 10
536.9363463569
 20
327.2562525561
 11
536.9363463569
 21
332.0222099355
  0
LINE
  5
528
100
AcDbEntity
  8
0
100
AcDbLine
 62
7
  6
CONTINUOUS
 10
536.9363463569
 20
332.9754013112
 11
536.9363463569
 21
334.8817847302
  0
LINE
  5
529
100
AcDbEntity
  8
0
100
AcDbLine
 62
7
  6
CONTINUOUS
 10
537.8863463569
 20
361.9698696378
 11
537.8863463569
 21
375.9698696378
  0
LINE
  5
52A
100
AcDbEntity
  8
0
100
AcDbLine
 62
7
  6
CONTINUOUS
 10
538.1030125785
 20
327.7328484109
 11
538.1030125785
 21
332.0222099355
  0
LINE
  5
52B
100
AcDbEntity
  8
0
100
AcDbLine
 62
7
  6
CONTINUOUS
 10
538.1030125785
 20
332.9754013112
 11
538.1030125785
 21
334.8817847302
  0
LINE
  5
52C
100
AcDbEntity
  8
0
100
AcDbLine
 62
7
  6
CONTINUOUS
 10
539.0613463569
 20
350.5511459926
 11
539.0613463569
 21
351.1894443849
  0
LINE
  5
52D
100
AcDbEntity
  8
0
100
AcDbLine
 62
7
  6
CONTINUOUS
 10
539.6363463569
 20
363.7571036759
 11
539.6363463569
 21
374.1826358083
  0
LINE
  5
52E
100
AcDbEntity
  8
0
100
AcDbLine
 62
7
  6
CONTINUOUS
 10
540.2030125785
 20
325.3498696378
 11
540.2030125785
 21
326.3030610969
  0
LINE
  5
52F
100
AcDbEntity
  8
0
100
AcDbLine
 62
7
  6
CONTINUOUS
 10
540.3113463569
 20
350.3383800605
 11
540.3113463569
 21
351.1894443849
  0
LINE
  5
530
100
AcDbEntity
  8
0
100
AcDbLine
 62
7
  6
CONTINUOUS
 10
540.6696801353
 20
332.0222099355
 11
540.6696801353
 21
332.9754013112
  0
LINE
  5
531
100
AcDbEntity
  8
0
100
AcDbLine
 62
7
  6
CONTINUOUS
 10
541.9780114341
 20
343.5298696378
 11
541.9780114341
 21
353.5298696378
  0
LINE
  5
532
100
AcDbEntity
  8
0
100
AcDbLine
 62
7
  6
CONTINUOUS
 10
543.2280114341
 20
344.8064653793
 11
543.2280114341
 21
353.5298696378
  0
LINE
  5
533
100
AcDbEntity
  8
0
100
AcDbLine
 62
7
  6
CONTINUOUS
 10
535.2613463569
 20
365.2464654091
 11
535.5530135799
 21
366.7358269337
  0
LINE
  5
534
100
AcDbEntity
  8
0
100
AcDbLine
 62
7
  6
CONTINUOUS
 10
519.4780138183
 20
350.1256141284
 11
519.6863463569
 21
350.9766778567
  0
LINE
  5
535
100
AcDbEntity
  8
0
100
AcDbLine
 62
7
  6
CONTINUOUS
 10
526.1446788955
 20
345.0192313114
 11
526.3530138183
 21
345.8702951887
  0
LINE
  5
536
100
AcDbEntity
  8
0
100
AcDbLine
 62
7
  6
CONTINUOUS
 10
533.5113463569
 20
365.544337714
 11
533.8030135799
 21
366.7358269337
  0
LINE
  5
537
100
AcDbEntity
  8
0
100
AcDbLine
 62
7
  6
CONTINUOUS
 10
515.1030138183
 20
349.9128481963
 11
515.3113463569
 21
350.5511459926
  0
LINE
  5
538
100
AcDbEntity
  8
0
100
AcDbLine
 62
7
  6
CONTINUOUS
 10
522.1363463569
 20
370.6081673148
 11
522.4280127454
 21
371.5017842296
  0
LINE
  5
539
100
AcDbEntity
  8
0
100
AcDbLine
 62
7
  6
CONTINUOUS
 10
516.3530138183
 20
349.7000822642
 11
516.5613463569
 21
350.3383800605
  0
LINE
  5
53A
100
AcDbEntity
  8
0
100
AcDbLine
 62
7
  6
CONTINUOUS
 10
515.1030138183
 20
345.4447633245
 11
515.3113463569
 21
346.0830611208
  0
LINE
  5
53B
100
AcDbEntity
  8
0
100
AcDbLine
 62
7
  6
CONTINUOUS
 10
516.3530138183
 20
345.2319972434
 11
516.5613463569
 21
345.8702951887
  0
LINE
  5
53C
100
AcDbEntity
  8
0
100
AcDbLine
 62
7
  6
CONTINUOUS
 10
518.4363463569
 20
351.1894443849
 11
518.8530138183
 21
352.0405081132
  0
LINE
  5
53D
100
AcDbEntity
  8
0
100
AcDbLine
 62
7
  6
CONTINUOUS
 10
464.5320473147
 20
437.2034628475
 11
465.1065153313
 21
437.0159630263
  0
LINE
  5
53E
100
AcDbEntity
  8
0
100
AcDbLine
 62
7
  6
CONTINUOUS
 10
465.2980046702
 20
438.1409630263
 11
464.7235366535
 21
438.3284628475
  0
LINE
  5
53F
100
AcDbEntity
  8
0
100
AcDbLine
 62
7
  6
CONTINUOUS
 10
469.5107705277
 20
446.2034633839
 11
468.7448130381
 21
446.5784630263
  0
LINE
  5
540
100
AcDbEntity
  8
0
100
AcDbLine
 62
7
  6
CONTINUOUS
 10
468.5533236992
 20
454.4534630263
 11
469.1277917159
 21
454.078462311
  0
LINE
  5
541
100
AcDbEntity
  8
0
100
AcDbLine
 62
7
  6
CONTINUOUS
 10
548.678011911
 20
373.8847635034
 11
549.2613463569
 21
372.6932742837
  0
LINE
  5
542
100
AcDbEntity
  8
0
100
AcDbLine
 62
7
  6
CONTINUOUS
 10
567.6030114341
 20
347.7851888755
 11
568.0196812797
 21
346.9341248491
  0
LINE
  5
543
100
AcDbEntity
  8
0
100
AcDbLine
 62
7
  6
CONTINUOUS
 10
565.9363463569
 20
351.614976249
 11
566.1446812797
 21
351.1894443849
  0
LINE
  5
544
100
AcDbEntity
  8
0
100
AcDbLine
 62
7
  6
CONTINUOUS
 10
561.5613463569
 20
346.2958270529
 11
561.7696812797
 21
345.6575292566
  0
LINE
  5
545
100
AcDbEntity
  8
0
100
AcDbLine
 62
7
  6
CONTINUOUS
 10
562.1863463569
 20
350.5511459926
 11
562.3946812797
 21
349.9128481963
  0
LINE
  5
546
100
AcDbEntity
  8
0
100
AcDbLine
 62
7
  6
CONTINUOUS
 10
552.3946812797
 20
346.9341248491
 11
552.6030114341
 21
346.0830611208
  0
LINE
  5
547
100
AcDbEntity
  8
0
100
AcDbLine
 62
7
  6
CONTINUOUS
 10
547.5113463569
 20
372.3954011443
 11
547.803011911
 21
371.2039119246
  0
LINE
  5
548
100
AcDbEntity
  8
0
100
AcDbLine
 62
7
  6
CONTINUOUS
 10
551.1446812797
 20
346.9341248491
 11
551.3530114341
 21
345.8702951887
  0
LINE
  5
549
100
AcDbEntity
  8
0
100
AcDbLine
 62
7
  6
CONTINUOUS
 10
549.2613463569
 20
372.6932742837
 11
549.553011911
 21
371.2039119246
  0
LINE
  5
54A
100
AcDbEntity
  8
0
100
AcDbLine
 62
7
  6
CONTINUOUS
 10
547.803011911
 20
366.7358269337
 11
547.803011911
 21
371.2039119246
  0
LINE
  5
54B
100
AcDbEntity
  8
0
100
AcDbLine
 62
7
  6
CONTINUOUS
 10
549.4780114341
 20
343.5298696378
 11
549.4780114341
 21
344.8064653793
  0
LINE
  5
54C
100
AcDbEntity
  8
0
100
AcDbLine
 62
7
  6
CONTINUOUS
 10
549.553011911
 20
366.7358269337
 11
549.553011911
 21
371.2039119246
  0
LINE
  5
54D
100
AcDbEntity
  8
0
100
AcDbLine
 62
7
  6
CONTINUOUS
 10
551.1446812797
 20
346.9341248491
 11
551.1446812797
 21
353.5298696378
  0
LINE
  5
54E
100
AcDbEntity
  8
BEZUGSACHSEN
100
AcDbLine
 62
7
  6
CONTINUOUS
 10
551.1763463569
 20
249.4198696378
 11
551.1763463569
 21
308.4198696378
  0
LINE
  5
54F
100
AcDbEntity
  8
0
100
AcDbLine
 62
7
  6
CONTINUOUS
 10
552.3946812797
 20
346.9341248491
 11
552.3946812797
 21
353.5298696378
  0
LINE
  5
550
100
AcDbEntity
  8
0
100
AcDbLine
 62
7
  6
CONTINUOUS
 10
524.8946788955
 20
345.4447633245
 11
525.1030138183
 21
346.0830611208
  0
LINE
  5
551
100
AcDbEntity
  8
RUNDUNGEN
100
AcDbLine
 62
7
  6
CONTINUOUS
 10
594.5232811355
 20
495.323120494
 11
599.4176887108
 21
506.3161398947
  0
LINE
  5
552
100
AcDbEntity
  8
0
100
AcDbLine
 62
7
  6
CONTINUOUS
 10
534.6780135799
 20
364.0549759808
 11
535.2613463569
 21
365.2464654091
  0
LINE
  5
553
100
AcDbEntity
  8
0
100
AcDbLine
 62
7
  6
CONTINUOUS
 10
519.6863463569
 20
350.9766778567
 11
520.1030138183
 21
351.614976249
  0
LINE
  5
554
100
AcDbEntity
  8
0
100
AcDbLine
 62
7
  6
CONTINUOUS
 10
532.9280135799
 20
364.6507207992
 11
533.5113463569
 21
365.544337714
  0
LINE
  5
555
100
AcDbEntity
  8
0
100
AcDbLine
 62
7
  6
CONTINUOUS
 10
521.2613463569
 20
369.4166780951
 11
522.1363463569
 21
370.6081673148
  0
LINE
  5
556
100
AcDbEntity
  8
0
100
AcDbLine
 62
7
  6
CONTINUOUS
 10
515.7280138183
 20
348.8490185359
 11
516.3530138183
 21
349.7000822642
  0
LINE
  5
557
100
AcDbEntity
  8
0
100
AcDbLine
 62
7
  6
CONTINUOUS
 10
515.7280138183
 20
344.3809334406
 11
516.3530138183
 21
345.2319972434
  0
LINE
  5
558
100
AcDbEntity
  8
0
100
AcDbLine
 62
7
  6
CONTINUOUS
 10
519.8030127454
 20
370.3102950099
 11
520.3863463569
 21
370.9060396197
  0
LINE
  5
559
100
AcDbEntity
  8
BEZUGSACHSEN
100
AcDbLine
 62
7
  6
CONTINUOUS
 10
497.6763463569
 20
421.4198696378
 11
562.676346357
 21
421.4198696378
  0
LINE
  5
55A
100
AcDbEntity
  8
KONSTRUKTIONSELEMENTE
100
AcDbLine
 62
7
  6
CONTINUOUS
 10
504.0636285325
 20
421.6198696378
 11
524.116899299
 21
421.6198696378
  0
LINE
  5
55B
100
AcDbEntity
  8
KONSTRUKTIONSELEMENTE
100
AcDbLine
 62
7
  6
CONTINUOUS
 10
525.1949127826
 20
421.6198696378
 11
530.1657918678
 21
421.6198696378
  0
LINE
  5
55C
100
AcDbEntity
  8
0
100
AcDbLine
 62
7
  6
CONTINUOUS
 10
467.7873663437
 20
445.6409633839
 11
468.5533236992
 21
445.4534630263
  0
LINE
  5
55D
100
AcDbEntity
  8
0
100
AcDbLine
 62
7
  6
CONTINUOUS
 10
469.5107705277
 20
455.203462311
 11
468.7448130381
 21
455.5784630263
  0
LINE
  5
55E
100
AcDbEntity
  8
0
100
AcDbLine
 62
7
  6
CONTINUOUS
 10
567.1863463569
 20
351.8277421811
 11
567.3946812797
 21
351.1894443849
  0
LINE
  5
55F
100
AcDbEntity
  8
0
100
AcDbLine
 62
7
  6
CONTINUOUS
 10
560.3113463569
 20
346.2958270529
 11
560.5196812797
 21
345.4447633245
  0
LINE
  5
560
100
AcDbEntity
  8
0
100
AcDbLine
 62
7
  6
CONTINUOUS
 10
560.9363463569
 20
350.3383800605
 11
561.1446812797
 21
349.4873163321
  0
LINE
  5
561
100
AcDbEntity
  8
0
100
AcDbLine
 62
7
  6
CONTINUOUS
 10
557.3946812797
 20
346.9341248491
 11
557.3946812797
 21
353.5298696378
  0
LINE
  5
562
100
AcDbEntity
  8
0
100
AcDbLine
 62
7
  6
CONTINUOUS
 10
558.6446812797
 20
346.9341248491
 11
558.6446812797
 21
353.5298696378
  0
LINE
  5
563
100
AcDbEntity
  8
BEZUGSACHSEN
100
AcDbLine
 62
7
  6
CONTINUOUS
 10
560.1263463569
 20
395.4198696378
 11
560.1263463569
 21
395.9198696378
  0
LINE
  5
564
100
AcDbEntity
  8
0
100
AcDbLine
 62
7
  6
CONTINUOUS
 10
560.9263463569
 20
387.1698696378
 11
560.9263463569
 21
386.9198696378
  0
LINE
  5
565
100
AcDbEntity
  8
0
100
AcDbLine
 62
7
  6
CONTINUOUS
 10
560.9263463569
 20
316.9198696378
 11
560.9263463569
 21
316.6698696378
  0
LINE
  5
566
100
AcDbEntity
  8
0
100
AcDbLine
 62
7
  6
CONTINUOUS
 10
560.9363463569
 20
350.3383800605
 11
560.9363463569
 21
351.1894443849
  0
LINE
  5
567
100
AcDbEntity
  8
0
100
AcDbLine
 62
7
  6
CONTINUOUS
 10
562.1863463569
 20
350.5511459926
 11
562.1863463569
 21
350.9766778567
  0
LINE
  5
568
100
AcDbEntity
  8
BEZUGSACHSEN
100
AcDbLine
 62
7
  6
CONTINUOUS
 10
562.6763463569
 20
395.9198696378
 11
562.6763463569
 21
421.419869638
  0
LINE
  5
569
100
AcDbEntity
  8
0
100
AcDbLine
 62
7
  6
CONTINUOUS
 10
566.7696812797
 20
346.0830611208
 11
566.7696812797
 21
346.721358917
  0
LINE
  5
56A
100
AcDbEntity
  8
0
100
AcDbLine
 62
7
  6
CONTINUOUS
 10
549.2613463569
 20
365.2464654091
 11
549.553011911
 21
366.7358269337
  0
LINE
  5
56B
100
AcDbEntity
  8
0
100
AcDbLine
 62
7
  6
CONTINUOUS
 10
547.5113463569
 20
365.544337714
 11
547.803011911
 21
366.7358269337
  0
LINE
  5
56C
100
AcDbEntity
  8
0
100
AcDbLine
 62
7
  6
CONTINUOUS
 10
538.8530114341
 20
349.9128481963
 11
539.0613463569
 21
350.5511459926
  0
LINE
  5
56D
100
AcDbEntity
  8
0
100
AcDbLine
 62
7
  6
CONTINUOUS
 10
531.8030125785
 20
327.9711462548
 11
532.0363463569
 21
328.6860397866
  0
LINE
  5
56E
100
AcDbEntity
  8
0
100
AcDbLine
 62
7
  6
CONTINUOUS
 10
540.1030114341
 20
349.7000822642
 11
540.3113463569
 21
350.3383800605
  0
LINE
  5
56F
100
AcDbEntity
  8
0
100
AcDbLine
 62
7
  6
CONTINUOUS
 10
532.7363463569
 20
327.2562525561
 11
533.2030125785
 21
328.4477419427
  0
LINE
  5
570
100
AcDbEntity
  8
0
100
AcDbLine
 62
7
  6
CONTINUOUS
 10
548.678011911
 20
364.0549759808
 11
549.2613463569
 21
365.2464654091
  0
LINE
  5
571
100
AcDbEntity
  8
0
100
AcDbLine
 62
7
  6
CONTINUOUS
 10
546.928011911
 20
364.6507207992
 11
547.5113463569
 21
365.544337714
  0
LINE
  5
572
100
AcDbEntity
  8
0
100
AcDbLine
 62
7
  6
CONTINUOUS
 10
514.6863463569
 20
349.4873163321
 11
515.1030138183
 21
349.9128481963
  0
LINE
  5
573
100
AcDbEntity
  8
0
100
AcDbLine
 62
7
  6
CONTINUOUS
 10
518.8530138183
 20
352.0405081132
 11
519.6863463569
 21
352.8915718415
  0
LINE
  5
574
100
AcDbEntity
  8
0
100
AcDbLine
 62
7
  6
CONTINUOUS
 10
514.6863463569
 20
345.0192313114
 11
515.1030138183
 21
345.4447633245
  0
LINE
  5
575
100
AcDbEntity
  8
0
100
AcDbLine
 62
7
  6
CONTINUOUS
 10
533.5113463569
 20
362.8634866568
 11
534.6780135799
 21
364.0549759808
  0
LINE
  5
576
100
AcDbEntity
  8
0
100
AcDbLine
 62
7
  6
CONTINUOUS
 10
532.0530135799
 20
364.0549759808
 11
532.9280135799
 21
364.6507207992
  0
LINE
  5
577
100
AcDbEntity
  8
0
100
AcDbLine
 62
7
  6
CONTINUOUS
 10
520.0946799684
 20
368.8209334853
 11
521.2613463569
 21
369.4166780951
  0
LINE
  5
578
100
AcDbEntity
  8
0
100
AcDbLine
 62
7
  6
CONTINUOUS
 10
518.9280127454
 20
370.012422705
 11
519.8030127454
 21
370.3102950099
  0
LINE
  5
579
100
AcDbEntity
  8
0
100
AcDbLine
 62
7
  6
CONTINUOUS
 10
461.851196034
 20
431.3909630263
 11
470.851196034
 21
431.3909630263
  0
LINE
  5
57A
100
AcDbEntity
  8
0
100
AcDbLine
 62
7
  6
CONTINUOUS
 10
470.851196034
 20
432.5159630263
 11
466.8299193812
 21
432.5159630263
  0
LINE
  5
57B
100
AcDbEntity
  8
0
100
AcDbLine
 62
7
  6
CONTINUOUS
 10
465.6809833479
 20
432.5159630263
 11
462.8086427283
 21
432.5159630263
  0
LINE
  5
57C
100
AcDbEntity
  8
0
100
AcDbLine
 62
7
  6
CONTINUOUS
 10
463.9575787616
 20
437.2034628475
 11
464.5320473147
 21
437.2034628475
  0
LINE
  5
57D
100
AcDbEntity
  8
0
100
AcDbLine
 62
7
  6
CONTINUOUS
 10
464.7235366535
 20
438.3284628475
 11
463.9575787616
 21
438.3284628475
  0
LINE
  5
57E
100
AcDbEntity
  8
0
100
AcDbLine
 62
7
  6
CONTINUOUS
 10
461.851196034
 20
440.0159628475
 11
467.7873663437
 21
440.0159628475
  0
LINE
  5
57F
100
AcDbEntity
  8
0
100
AcDbLine
 62
7
  6
CONTINUOUS
 10
467.7873663437
 20
441.1409633839
 11
461.851196034
 21
441.1409633839
  0
LINE
  5
580
100
AcDbEntity
  8
0
100
AcDbLine
 62
7
  6
CONTINUOUS
 10
468.7448130381
 20
446.5784630263
 11
467.7873663437
 21
446.7659633839
  0
LINE
  5
581
100
AcDbEntity
  8
0
100
AcDbLine
 62
7
  6
CONTINUOUS
 10
468.7448130381
 20
455.5784630263
 11
467.7873663437
 21
455.765962311
  0
LINE
  5
582
100
AcDbEntity
  8
0
100
AcDbLine
 62
7
  6
CONTINUOUS
 10
467.7873663437
 20
454.640962311
 11
468.5533236992
 21
454.4534630263
  0
LINE
  5
583
100
AcDbEntity
  8
0
100
AcDbLine
 62
7
  6
CONTINUOUS
 10
568.0196812797
 20
345.8702951887
 11
568.0196812797
 21
346.9341248491
  0
LINE
  5
584
100
AcDbEntity
  8
0
100
AcDbLine
 62
7
  6
CONTINUOUS
 10
572.6763463569
 20
395.4198696378
 11
572.6763463569
 21
387.1698696378
  0
LINE
  5
585
100
AcDbEntity
  8
0
100
AcDbLine
 62
7
  6
CONTINUOUS
 10
572.6763463569
 20
316.6698696378
 11
572.6763463569
 21
308.4198696378
  0
LINE
  5
586
100
AcDbEntity
  8
RUNDUNGEN
100
AcDbLine
 62
7
  6
CONTINUOUS
 10
577.6763463569
 20
321.9198696378
 11
577.6763463569
 21
381.9198696378
  0
LINE
  5
587
100
AcDbEntity
  8
0
100
AcDbLine
 62
7
  6
CONTINUOUS
 10
558.4363463569
 20
345.8702951887
 11
558.6446812797
 21
346.9341248491
  0
LINE
  5
588
100
AcDbEntity
  8
0
100
AcDbLine
 62
7
  6
CONTINUOUS
 10
557.1863463569
 20
346.0830611208
 11
557.3946812797
 21
346.9341248491
  0
LINE
  5
589
100
AcDbEntity
  8
0
100
AcDbLine
 62
7
  6
CONTINUOUS
 10
560.9363463569
 20
351.1894443849
 11
561.1446812797
 21
352.0405081132
  0
LINE
  5
58A
100
AcDbEntity
  8
0
100
AcDbLine
 62
7
  6
CONTINUOUS
 10
562.1863463569
 20
350.9766778567
 11
562.3946812797
 21
351.614976249
  0
LINE
  5
58B
100
AcDbEntity
  8
0
100
AcDbLine
 62
7
  6
CONTINUOUS
 10
531.3363463569
 20
327.2562525561
 11
531.8030125785
 21
327.9711462548
  0
LINE
  5
58C
100
AcDbEntity
  8
0
100
AcDbLine
 62
7
  6
CONTINUOUS
 10
539.4780114341
 20
348.8490185359
 11
540.1030114341
 21
349.7000822642
  0
LINE
  5
58D
100
AcDbEntity
  8
0
100
AcDbLine
 62
7
  6
CONTINUOUS
 10
532.0363463569
 20
326.3030610969
 11
532.7363463569
 21
327.2562525561
  0
LINE
  5
58E
100
AcDbEntity
  8
0
100
AcDbLine
 62
7
  6
CONTINUOUS
 10
520.1363463569
 20
334.8817847302
 11
521.5363463569
 21
336.5498696378
  0
LINE
  5
58F
100
AcDbEntity
  8
0
100
AcDbLine
 62
7
  6
CONTINUOUS
 10
520.1363463569
 20
332.9754013112
 11
521.5363463569
 21
334.6434868863
  0
LINE
  5
590
100
AcDbEntity
  8
0
100
AcDbLine
 62
7
  6
CONTINUOUS
 10
525.3113463569
 20
344.1681675085
 11
526.1446788955
 21
345.0192313114
  0
LINE
  5
591
100
AcDbEntity
  8
0
100
AcDbLine
 62
7
  6
CONTINUOUS
 10
547.5113463569
 20
362.8634866568
 11
548.678011911
 21
364.0549759808
  0
LINE
  5
592
100
AcDbEntity
  8
0
100
AcDbLine
 62
7
  6
CONTINUOUS
 10
538.4363463569
 20
349.4873163321
 11
538.8530114341
 21
349.9128481963
  0
LINE
  5
593
100
AcDbEntity
  8
0
100
AcDbLine
 62
7
  6
CONTINUOUS
 10
514.8946788955
 20
343.7426355885
 11
515.7280138183
 21
344.3809334406
  0
LINE
  5
594
100
AcDbEntity
  8
0
100
AcDbLine
 62
7
  6
CONTINUOUS
 10
520.1030138183
 20
351.614976249
 11
520.7280138183
 21
352.0405081132
  0
LINE
  5
595
100
AcDbEntity
  8
0
100
AcDbLine
 62
7
  6
CONTINUOUS
 10
546.053011911
 20
364.0549759808
 11
546.928011911
 21
364.6507207992
  0
LINE
  5
596
100
AcDbEntity
  8
0
100
AcDbLine
 62
7
  6
CONTINUOUS
 10
524.2696788955
 20
345.0192313114
 11
524.8946788955
 21
345.4447633245
  0
LINE
  5
597
100
AcDbEntity
  8
0
100
AcDbLine
 62
7
  6
CONTINUOUS
 10
532.3446791339
 20
362.2677419688
 11
533.5113463569
 21
362.8634866568
  0
LINE
  5
598
100
AcDbEntity
  8
0
100
AcDbLine
 62
7
  6
CONTINUOUS
 10
519.6863463569
 20
352.8915718415
 11
520.5196788955
 21
353.3171037057
  0
LINE
  5
599
100
AcDbEntity
  8
0
100
AcDbLine
 62
7
  6
CONTINUOUS
 10
515.3113463569
 20
348.6362526038
 11
515.7280138183
 21
348.8490185359
  0
LINE
  5
59A
100
AcDbEntity
  8
0
100
AcDbLine
 62
7
  6
CONTINUOUS
 10
546.3446808029
 20
362.2677419688
 11
547.5113463569
 21
362.8634866568
  0
LINE
  5
59B
100
AcDbEntity
  8
0
100
AcDbLine
 62
7
  6
CONTINUOUS
 10
514.0613463569
 20
349.2745504001
 11
514.6863463569
 21
349.4873163321
  0
LINE
  5
59C
100
AcDbEntity
  8
0
100
AcDbLine
 62
7
  6
CONTINUOUS
 10
467.7873663437
 20
440.0159628475
 11
468.7448130381
 21
440.2034632051
  0
LINE
  5
59D
100
AcDbEntity
  8
0
100
AcDbLine
 62
7
  6
CONTINUOUS
 10
461.851196034
 20
445.6409633839
 11
467.7873663437
 21
445.6409633839
  0
LINE
  5
59E
100
AcDbEntity
  8
0
100
AcDbLine
 62
7
  6
CONTINUOUS
 10
467.7873663437
 20
446.7659633839
 11
461.851196034
 21
446.7659633839
  0
LINE
  5
59F
100
AcDbEntity
  8
0
100
AcDbLine
 62
7
  6
CONTINUOUS
 10
461.851196034
 20
448.2659630263
 11
470.851196034
 21
448.2659630263
  0
LINE
  5
5A0
100
AcDbEntity
  8
0
100
AcDbLine
 62
7
  6
CONTINUOUS
 10
469.7022598666
 20
449.3909630263
 11
463.0001320672
 21
449.3909630263
  0
LINE
  5
5A1
100
AcDbEntity
  8
0
100
AcDbLine
 62
7
  6
CONTINUOUS
 10
598.4619592829
 20
454.4426868143
 11
597.1022072695
 21
454.4426868143
  0
LINE
  5
5A2
100
AcDbEntity
  8
0
100
AcDbLine
 62
7
  6
CONTINUOUS
 10
590.8668243623
 20
454.4426868143
 11
589.5070723489
 21
454.4426868143
  0
LINE
  5
5A3
100
AcDbEntity
  8
0
100
AcDbLine
 62
7
  6
CONTINUOUS
 10
464.9150259924
 20
454.640962311
 11
467.7873663437
 21
454.640962311
  0
LINE
  5
5A4
100
AcDbEntity
  8
RUNDUNGEN
100
AcDbLine
 62
7
  6
CONTINUOUS
 10
580.1763463569
 20
505.1692458469
 11
580.1763463569
 21
491.9893023227
  0
LINE
  5
5A5
100
AcDbEntity
  8
BEZUGSACHSEN
100
AcDbLine
 62
7
  6
CONTINUOUS
 10
580.1763463569
 20
491.9893023227
 11
580.1763463569
 21
381.9198696378
  0
LINE
  5
5A6
100
AcDbEntity
  8
0
100
AcDbLine
 62
7
  6
CONTINUOUS
 10
558.0196812797
 20
345.0192313114
 11
558.4363463569
 21
345.8702951887
  0
LINE
  5
5A7
100
AcDbEntity
  8
0
100
AcDbLine
 62
7
  6
CONTINUOUS
 10
567.6030114341
 20
345.0192313114
 11
568.0196812797
 21
345.8702951887
  0
LINE
  5
5A8
100
AcDbEntity
  8
0
100
AcDbLine
 62
7
  6
CONTINUOUS
 10
556.7696812797
 20
345.4447633245
 11
557.1863463569
 21
346.0830611208
  0
LINE
  5
5A9
100
AcDbEntity
  8
0
100
AcDbLine
 62
7
  6
CONTINUOUS
 10
561.1446812797
 20
352.0405081132
 11
561.9780114341
 21
352.8915718415
  0
LINE
  5
5AA
100
AcDbEntity
  8
0
100
AcDbLine
 62
7
  6
CONTINUOUS
 10
538.6446812797
 20
348.2107207396
 11
539.4780114341
 21
348.8490185359
  0
LINE
  5
5AB
100
AcDbEntity
  8
0
100
AcDbLine
 62
7
  6
CONTINUOUS
 10
526.4363463569
 20
330.3541250279
 11
527.3696794677
 21
331.0690185597
  0
LINE
  5
5AC
100
AcDbEntity
  8
0
100
AcDbLine
 62
7
  6
CONTINUOUS
 10
524.4780138183
 20
343.7426355885
 11
525.3113463569
 21
344.1681675085
  0
LINE
  5
5AD
100
AcDbEntity
  8
0
100
AcDbLine
 62
7
  6
CONTINUOUS
 10
514.0613463569
 20
344.8064653793
 11
514.6863463569
 21
345.0192313114
  0
LINE
  5
5AE
100
AcDbEntity
  8
0
100
AcDbLine
 62
7
  6
CONTINUOUS
 10
537.8113463569
 20
349.2745504001
 11
538.4363463569
 21
349.4873163321
  0
LINE
  5
5AF
100
AcDbEntity
  8
0
100
AcDbLine
 62
7
  6
CONTINUOUS
 10
468.5533236992
 20
441.3284626687
 11
467.7873663437
 21
441.1409633839
  0
LINE
  5
5B0
100
AcDbEntity
  8
0
100
AcDbLine
 62
7
  6
CONTINUOUS
 10
467.7873663437
 20
455.765962311
 11
464.9150259924
 21
455.765962311
  0
LINE
  5
5B1
100
AcDbEntity
  8
0
100
AcDbLine
 62
7
  6
CONTINUOUS
 10
594.6645158159
 20
461.1926868143
 11
593.3047638025
 21
461.1926868143
  0
LINE
  5
5B2
100
AcDbEntity
  8
0
100
AcDbLine
 62
7
  6
CONTINUOUS
 10
598.4619592829
 20
462.0926868143
 11
597.1022072695
 21
462.0926868143
  0
LINE
  5
5B3
100
AcDbEntity
  8
0
100
AcDbLine
 62
7
  6
CONTINUOUS
 10
590.8668243623
 20
462.0926868143
 11
589.5070723489
 21
462.0926868143
  0
LINE
  5
5B4
100
AcDbEntity
  8
0
100
AcDbLine
 62
7
  6
CONTINUOUS
 10
593.3047638025
 20
461.1926868143
 11
593.3047638025
 21
458.5669044422
  0
LINE
  5
5B5
100
AcDbEntity
  8
0
100
AcDbLine
 62
7
  6
CONTINUOUS
 10
594.6645158159
 20
458.5669592581
 11
594.6645158159
 21
461.1926868143
  0
LINE
  5
5B6
100
AcDbEntity
  8
0
100
AcDbLine
 62
7
  6
CONTINUOUS
 10
601.3874489078
 20
480.5874440744
 11
601.3874489078
 21
485.2994806736
  0
LINE
  5
5B7
100
AcDbEntity
  8
0
100
AcDbLine
 62
7
  6
CONTINUOUS
 10
566.3530114341
 20
345.4447633245
 11
566.7696812797
 21
346.0830611208
  0
LINE
  5
5B8
100
AcDbEntity
  8
0
100
AcDbLine
 62
7
  6
CONTINUOUS
 10
557.1863463569
 20
344.1681675085
 11
558.0196812797
 21
345.0192313114
  0
LINE
  5
5B9
100
AcDbEntity
  8
0
100
AcDbLine
 62
7
  6
CONTINUOUS
 10
566.7696812797
 20
344.1681675085
 11
567.6030114341
 21
345.0192313114
  0
LINE
  5
5BA
100
AcDbEntity
  8
0
100
AcDbLine
 62
7
  6
CONTINUOUS
 10
562.3946812797
 20
351.614976249
 11
563.0196812797
 21
352.0405081132
  0
LINE
  5
5BB
100
AcDbEntity
  8
0
100
AcDbLine
 62
7
  6
CONTINUOUS
 10
556.1446812797
 20
345.0192313114
 11
556.7696812797
 21
345.4447633245
  0
LINE
  5
5BC
100
AcDbEntity
  8
0
100
AcDbLine
 62
7
  6
CONTINUOUS
 10
530.6363463569
 20
326.7796568683
 11
531.3363463569
 21
327.2562525561
  0
LINE
  5
5BD
100
AcDbEntity
  8
0
100
AcDbLine
 62
7
  6
CONTINUOUS
 10
565.7280114341
 20
345.0192313114
 11
566.3530114341
 21
345.4447633245
  0
LINE
  5
5BE
100
AcDbEntity
  8
0
100
AcDbLine
 62
7
  6
CONTINUOUS
 10
525.9696794677
 20
331.5456142476
 11
527.1363463569
 21
332.2605077794
  0
LINE
  5
5BF
100
AcDbEntity
  8
0
100
AcDbLine
 62
7
  6
CONTINUOUS
 10
530.8696794677
 20
325.5881675026
 11
532.0363463569
 21
326.3030610969
  0
LINE
  5
5C0
100
AcDbEntity
  8
0
100
AcDbLine
 62
7
  6
CONTINUOUS
 10
561.9780114341
 20
352.8915718415
 11
562.8113463569
 21
353.3171037057
  0
LINE
  5
5C1
100
AcDbEntity
  8
0
100
AcDbLine
 62
7
  6
CONTINUOUS
 10
556.3530114341
 20
343.7426355885
 11
557.1863463569
 21
344.1681675085
  0
LINE
  5
5C2
100
AcDbEntity
  8
0
100
AcDbLine
 62
7
  6
CONTINUOUS
 10
565.9363463569
 20
343.7426355885
 11
566.7696812797
 21
344.1681675085
  0
LINE
  5
5C3
100
AcDbEntity
  8
0
100
AcDbLine
 62
7
  6
CONTINUOUS
 10
563.0196812797
 20
352.0405081132
 11
563.6446812797
 21
352.2532740453
  0
LINE
  5
5C4
100
AcDbEntity
  8
0
100
AcDbLine
 62
7
  6
CONTINUOUS
 10
464.1490686369
 20
454.4534630263
 11
464.9150259924
 21
454.640962311
  0
LINE
  5
5C5
100
AcDbEntity
  8
0
100
AcDbLine
 62
7
  6
CONTINUOUS
 10
464.9150259924
 20
455.765962311
 11
463.9575787616
 21
455.5784630263
  0
LINE
  5
5C6
100
AcDbEntity
  8
BEZUGSACHSEN
100
AcDbLine
 62
7
  6
CONTINUOUS
 10
608.1763463569
 20
381.9198696378
 11
608.1763463569
 21
491.9893023227
  0
LINE
  5
5C7
100
AcDbEntity
  8
RUNDUNGEN
100
AcDbLine
 62
7
  6
CONTINUOUS
 10
608.1763463569
 20
491.9893023227
 11
608.1763463569
 21
517.0568488894
  0
LINE
  5
5C8
100
AcDbEntity
  8
0
100
AcDbLine
 62
7
  6
CONTINUOUS
 10
601.3874489078
 20
480.5874440744
 11
595.4123861096
 21
490.5316184953
  0
LINE
  5
5C9
100
AcDbEntity
  8
RUNDUNGEN
100
AcDbLine
 62
7
  6
CONTINUOUS
 10
595.4123861096
 20
490.5316184953
 11
594.7487937632
 21
491.636021622
  0
LINE
  5
5CA
100
AcDbEntity
  8
RUNDUNGEN
100
AcDbLine
 62
7
  6
CONTINUOUS
 10
599.3586830655
 20
509.6965710542
 11
596.4465836521
 21
515.6672596685
  0
LINE
  5
5CB
100
AcDbEntity
  8
0
100
AcDbLine
 62
7
  6
CONTINUOUS
 10
596.4465836521
 20
515.6672596685
 11
588.9826942885
 21
530.9705007037
  0
LINE
  5
5CC
100
AcDbEntity
  8
RUNDUNGEN
100
AcDbLine
 62
7
  6
CONTINUOUS
 10
588.9826942885
 20
530.9705007037
 11
586.9206564048
 21
535.1983048983
  0
LINE
  5
5CD
100
AcDbEntity
  8
BEZUGSACHSEN
100
AcDbLine
 62
7
  6
CONTINUOUS
 10
547.1763463569
 20
245.4198696378
 11
551.1763463569
 21
249.4198696378
  0
LINE
  5
5CE
100
AcDbEntity
  8
BEZUGSACHSEN
100
AcDbLine
 62
7
  6
CONTINUOUS
 10
584.5615481971
 20
537.2490463763
 11
530.1763463569
 21
554.9198696378
  0
LWPOLYLINE
  5
5CF
100
AcDbEntity
  8
BEZUGSACHSEN
100
AcDbPolyline
 62
7
  6
CONTINUOUS
 90
19
 70
0
 10
334.7009766363
 20
34.282920212
 10
335.6228147933
 20
34.3238651521
 10
336.537989348
 20
34.424575559
 10
337.4397376651
 20
34.5836273703
 10
338.3225148037
 20
34.798850604
 10
339.1812304312
 20
35.0674065184
 10
340.0112045249
 20
35.3858349073
 10
340.8082312577
 20
35.7501172764
 10
341.5687378528
 20
36.1558064706
 10
342.2894508614
 20
36.5978970491
 10
342.9677693422
 20
37.0710434213
 10
343.6019781932
 20
37.5698250555
 10
344.1905783174
 20
38.0883187414
 10
344.7342154835
 20
38.6219746503
 10
345.2333879892
 20
39.1659169748
 10
345.6897922941
 20
39.7164148261
 10
346.1053041781
 20
40.2700520781
 10
346.4816314287
 20
40.8232271604
 10
346.8407746351
 20
41.4068557088
  0
LINE
  5
5D0
100
AcDbEntity
  8
BEZUGSACHSEN
100
AcDbLine
 62
7
  6
CONTINUOUS
 10
334.5474257383
 20
34.2819487853
 11
334.7009766363
 21
34.282920212
  0
LINE
  5
5D1
100
AcDbEntity
  8
BEZUGSACHSEN
100
AcDbLine
 62
7
  6
CONTINUOUS
 10
334.5474257383
 20
34.2819487853
 11
328.5880700924
 21
34.2819429778
  0
LINE
  5
5D2
100
AcDbEntity
  8
RUNDUNGEN
100
AcDbLine
 62
7
  6
CONTINUOUS
 10
328.5927716919
 20
34.2819429778
 11
328.5880700924
 21
34.2819429778
  0
LINE
  5
5D3
100
AcDbEntity
  8
0
100
AcDbLine
 62
7
  6
CONTINUOUS
 10
328.5753597502
 20
34.2819487808
 11
328.5880732441
 21
34.2819429778
  0
LINE
  5
5D4
100
AcDbEntity
  8
RUNDUNGEN
100
AcDbLine
 62
7
  6
CONTINUOUS
 10
328.4219279316
 20
34.2829187556
 11
328.5753597502
 21
34.2819487808
  0
LINE
  5
5D5
100
AcDbEntity
  8
BEZUGSACHSEN
100
AcDbLine
 62
7
  6
CONTINUOUS
 10
261.2975065675
 20
144.7819429778
 11
242.5336228189
 21
112.2819429778
  0
LINE
  5
5D6
100
AcDbEntity
  8
RUNDUNGEN
100
AcDbLine
 62
7
  6
CONTINUOUS
 10
272.5613903162
 20
64.7819429778
 11
313.5613903162
 21
64.7819429778
  0
LINE
  5
5D7
100
AcDbEntity
  8
RUNDUNGEN
100
AcDbLine
 62
7
  6
CONTINUOUS
 10
349.5613903162
 20
64.7819429778
 11
360.0613903162
 21
64.7819429778
  0
LINE
  5
5D8
100
AcDbEntity
  8
BEZUGSACHSEN
100
AcDbLine
 62
7
  6
CONTINUOUS
 10
242.5336228189
 20
112.2819429778
 11
261.2975065675
 21
79.7819429778
  0
LINE
  5
5D9
100
AcDbEntity
  8
KONSTRUKTIONSELEMENTE
100
AcDbLine
 62
7
  6
CONTINUOUS
 10
254.1100349092
 20
115.9999578358
 11
253.77790786
 21
113.2526367587
  0
LINE
  5
5DA
100
AcDbEntity
  8
KONSTRUKTIONSELEMENTE
100
AcDbLine
 62
7
  6
CONTINUOUS
 10
254.7058516806
 20
113.8373245623
 11
254.9687855814
 21
116.0122869725
  0
LINE
  5
5DB
100
AcDbEntity
  8
KONSTRUKTIONSELEMENTE
100
AcDbLine
 62
7
  6
CONTINUOUS
 10
257.5035222299
 20
115.7058595182
 11
257.2405883292
 21
113.5308971081
  0
LINE
  5
5DC
100
AcDbEntity
  8
KONSTRUKTIONSELEMENTE
100
AcDbLine
 62
7
  6
CONTINUOUS
 10
258.2544827992
 20
113.4083261493
 11
258.4897394525
 21
115.3543451909
  0
LINE
  5
5DD
100
AcDbEntity
  8
KONSTRUKTIONSELEMENTE
100
AcDbLine
 62
7
  6
CONTINUOUS
 10
256.7925106717
 20
124.5224908252
 11
256.5197598497
 21
123.8866944101
  0
LINE
  5
5DE
100
AcDbEntity
  8
KONSTRUKTIONSELEMENTE
100
AcDbLine
 62
7
  6
CONTINUOUS
 10
255.4287565619
 20
121.3435087497
 11
255.1560056099
 21
120.7077120315
  0
LINE
  5
5DF
100
AcDbEntity
  8
KONSTRUKTIONSELEMENTE
100
AcDbLine
 62
7
  6
CONTINUOUS
 10
254.3482104693
 20
116.5518880095
 11
254.1100349092
 21
115.9999578358
  0
LINE
  5
5E0
100
AcDbEntity
  8
KONSTRUKTIONSELEMENTE
100
AcDbLine
 62
7
  6
CONTINUOUS
 10
254.9687855814
 20
116.0122869725
 11
255.1792838743
 21
116.335273614
  0
LINE
  5
5E1
100
AcDbEntity
  8
KONSTRUKTIONSELEMENTE
100
AcDbLine
 62
7
  6
CONTINUOUS
 10
260.2520776192
 20
129.4507505997
 11
258.47670224
 21
127.3279873675
  0
LINE
  5
5E2
100
AcDbEntity
  8
KONSTRUKTIONSELEMENTE
100
AcDbLine
 62
7
  6
CONTINUOUS
 10
259.7039484765
 20
127.2034787181
 11
261.0354800108
 21
128.7955511423
  0
LINE
  5
5E3
100
AcDbEntity
  8
0
100
AcDbLine
 62
7
  6
CONTINUOUS
 10
243.0337422229
 20
74.438608055
 11
243.8536909671
 21
74.438608055
  0
LINE
  5
5E4
100
AcDbEntity
  8
0
100
AcDbLine
 62
7
  6
CONTINUOUS
 10
242.5073599509
 20
74.8552779006
 11
243.3125486093
 21
74.8552779006
  0
LINE
  5
5E5
100
AcDbEntity
  8
0
100
AcDbLine
 62
7
  6
CONTINUOUS
 10
242.2497498859
 20
75.063608055
 11
243.0479095731
 21
75.063608055
  0
LINE
  5
5E6
100
AcDbEntity
  8
0
100
AcDbLine
 62
7
  6
CONTINUOUS
 10
241.9957249382
 20
75.2719429778
 11
242.7870742032
 21
75.2719429778
  0
LINE
  5
5E7
100
AcDbEntity
  8
0
100
AcDbLine
 62
7
  6
CONTINUOUS
 10
241.254334003
 20
75.8969429778
 11
242.0264631835
 21
75.8969429778
  0
LINE
  5
5E8
100
AcDbEntity
  8
0
100
AcDbLine
 62
7
  6
CONTINUOUS
 10
240.3111327942
 20
76.7302779006
 11
241.0601346232
 21
76.7302779006
  0
LINE
  5
5E9
100
AcDbEntity
  8
0
100
AcDbLine
 62
7
  6
CONTINUOUS
 10
239.1988379558
 20
77.7719429778
 11
239.9223048511
 21
77.7719429778
  0
LINE
  5
5EA
100
AcDbEntity
  8
KONSTRUKTIONSELEMENTE
100
AcDbLine
 62
7
  6
CONTINUOUS
 10
257.3760556994
 20
116.069703146
 11
257.5035222299
 21
115.7058595182
  0
LINE
  5
5EB
100
AcDbEntity
  8
KONSTRUKTIONSELEMENTE
100
AcDbLine
 62
7
  6
CONTINUOUS
 10
265.7314441851
 20
125.9202925155
 11
265.7706564847
 21
125.4365472159
  0
LINE
  5
5EC
100
AcDbEntity
  8
KONSTRUKTIONSELEMENTE
100
AcDbLine
 62
7
  6
CONTINUOUS
 10
262.5040672579
 20
120.5666774886
 11
262.4786597265
 21
120.0757075053
  0
LINE
  5
5ED
100
AcDbEntity
  8
KONSTRUKTIONSELEMENTE
100
AcDbLine
 62
7
  6
CONTINUOUS
 10
266.6280334949
 20
124.8697968343
 11
266.6627949444
 21
125.4419902168
  0
LINE
  5
5EE
100
AcDbEntity
  8
KONSTRUKTIONSELEMENTE
100
AcDbLine
 62
7
  6
CONTINUOUS
 10
263.4172184555
 20
119.6730744317
 11
263.4880842702
 21
120.2700100858
  0
LINE
  5
5EF
100
AcDbEntity
  8
KONSTRUKTIONSELEMENTE
100
AcDbLine
 62
7
  6
CONTINUOUS
 10
261.7200821555
 20
112.2924974669
 11
261.8031139178
 21
112.9793277362
  0
LINE
  5
5F0
100
AcDbEntity
  8
KONSTRUKTIONSELEMENTE
100
AcDbLine
 62
7
  6
CONTINUOUS
 10
262.1490795809
 20
115.8411204156
 11
262.2459499966
 21
116.6424226147
  0
LINE
  5
5F1
100
AcDbEntity
  8
KONSTRUKTIONSELEMENTE
100
AcDbLine
 62
7
  6
CONTINUOUS
 10
265.7706564847
 20
125.4365472159
 11
265.6053279356
 21
124.9735537716
  0
LINE
  5
5F2
100
AcDbEntity
  8
KONSTRUKTIONSELEMENTE
100
AcDbLine
 62
7
  6
CONTINUOUS
 10
262.4786597265
 20
120.0757075053
 11
262.2968257585
 21
119.6518430265
  0
LINE
  5
5F3
100
AcDbEntity
  8
KONSTRUKTIONSELEMENTE
100
AcDbLine
 62
7
  6
CONTINUOUS
 10
263.2353844875
 20
119.2492099529
 11
263.4172184555
 21
119.6730744317
  0
LINE
  5
5F4
100
AcDbEntity
  8
KONSTRUKTIONSELEMENTE
100
AcDbLine
 62
7
  6
CONTINUOUS
 10
266.3887304188
 20
124.3183542377
 11
266.6280334949
 21
124.8697968343
  0
LINE
  5
5F5
100
AcDbEntity
  8
KONSTRUKTIONSELEMENTE
100
AcDbLine
 62
7
  6
CONTINUOUS
 10
262.8516657723
 20
118.7864853194
 11
263.2353844875
 21
119.2492099529
  0
LINE
  5
5F6
100
AcDbEntity
  8
KONSTRUKTIONSELEMENTE
100
AcDbLine
 62
7
  6
CONTINUOUS
 10
265.6053279356
 20
124.9735537716
 11
264.2737964013
 21
123.3814813474
  0
LINE
  5
5F7
100
AcDbEntity
  8
KONSTRUKTIONSELEMENTE
100
AcDbLine
 62
7
  6
CONTINUOUS
 10
264.6133550396
 20
122.1955910054
 11
266.3887304188
 21
124.3183542377
  0
LINE
  5
5F8
100
AcDbEntity
  8
KONSTRUKTIONSELEMENTE
100
AcDbLine
 62
7
  6
CONTINUOUS
 10
262.2968257585
 20
119.6518430265
 11
261.958565614
 21
119.2950846584
  0
LINE
  5
5F9
100
AcDbEntity
  8
KONSTRUKTIONSELEMENTE
100
AcDbLine
 62
7
  6
CONTINUOUS
 10
260.7525148373
 20
129.7837933676
 11
260.2520776192
 21
129.4507505997
  0
LINE
  5
5FA
100
AcDbEntity
  8
KONSTRUKTIONSELEMENTE
100
AcDbLine
 62
7
  6
CONTINUOUS
 10
261.0354800108
 20
128.7955511423
 11
261.4619426904
 21
129.0401447673
  0
LINE
  5
5FB
100
AcDbEntity
  8
0
100
AcDbLine
 62
7
  6
CONTINUOUS
 10
238.1539702226
 20
78.813608055
 11
238.8550028281
 21
78.813608055
  0
LINE
  5
5FC
100
AcDbEntity
  8
0
100
AcDbLine
 62
7
  6
CONTINUOUS
 10
237.3625725094
 20
79.6469429778
 11
238.0475267973
 21
79.6469429778
  0
LINE
  5
5FD
100
AcDbEntity
  8
BEZUGSACHSEN
100
AcDbLine
 62
7
  6
CONTINUOUS
 10
261.2975065675
 20
79.7819429778
 11
298.8252740649
 21
79.7819429778
  0
LINE
  5
5FE
100
AcDbEntity
  8
0
100
AcDbLine
 62
7
  6
CONTINUOUS
 10
236.6078912053
 20
80.4802779006
 11
237.2781917889
 21
80.4802779006
  0
LINE
  5
5FF
100
AcDbEntity
  8
0
100
AcDbLine
 62
7
  6
CONTINUOUS
 10
235.8876635884
 20
81.313608055
 11
236.5445576944
 21
81.313608055
  0
LINE
  5
600
100
AcDbEntity
  8
0
100
AcDbLine
 62
7
  6
CONTINUOUS
 10
235.7127485502
 20
81.5219429778
 11
236.3664680204
 21
81.5219429778
  0
LINE
  5
601
100
AcDbEntity
  8
0
100
AcDbLine
 62
7
  6
CONTINUOUS
 10
235.199889075
 20
82.1469429778
 11
235.8444762983
 21
82.1469429778
  0
LINE
  5
602
100
AcDbEntity
  8
0
100
AcDbLine
 62
7
  6
CONTINUOUS
 10
233.914865159
 20
83.813608055
 11
234.5376621097
 21
83.813608055
  0
LINE
  5
603
100
AcDbEntity
  8
0
100
AcDbLine
 62
7
  6
CONTINUOUS
 10
233.0245436535
 20
85.063608055
 11
233.6330941291
 21
85.063608055
  0
LINE
  5
604
100
AcDbEntity
  8
KONSTRUKTIONSELEMENTE
100
AcDbLine
 62
7
  6
CONTINUOUS
 10
258.2348064112
 20
116.0820326102
 11
257.9521960829
 21
116.5807763335
  0
LINE
  5
605
100
AcDbEntity
  8
KONSTRUKTIONSELEMENTE
100
AcDbLine
 62
7
  6
CONTINUOUS
 10
262.3275896862
 20
121.018786752
 11
262.5040672579
 21
120.5666774886
  0
LINE
  5
606
100
AcDbEntity
  8
KONSTRUKTIONSELEMENTE
100
AcDbLine
 62
7
  6
CONTINUOUS
 10
263.4880842702
 20
120.2700100858
 11
263.357065324
 21
120.8280855911
  0
LINE
  5
607
100
AcDbEntity
  8
KONSTRUKTIONSELEMENTE
100
AcDbLine
 62
7
  6
CONTINUOUS
 10
273.1331870859
 20
124.2819429778
 11
266.2049838557
 21
112.2819429778
  0
LINE
  5
608
100
AcDbEntity
  8
KONSTRUKTIONSELEMENTE
100
AcDbLine
 62
7
  6
CONTINUOUS
 10
282.8290123355
 20
138.3494916243
 11
279.6677143188
 21
134.015308328
  0
LINE
  5
609
100
AcDbEntity
  8
KONSTRUKTIONSELEMENTE
100
AcDbLine
 62
7
  6
CONTINUOUS
 10
280.4717153586
 20
133.9442274947
 11
282.709093525
 21
136.9930802851
  0
LINE
  5
60A
100
AcDbEntity
  8
KONSTRUKTIONSELEMENTE
100
AcDbLine
 62
7
  6
CONTINUOUS
 10
287.7910585684
 20
135.4009488714
 11
288.1944122695
 21
135.7898436307
  0
LINE
  5
60B
100
AcDbEntity
  8
KONSTRUKTIONSELEMENTE
100
AcDbLine
 62
7
  6
CONTINUOUS
 10
254.9105121994
 20
116.9484892671
 11
254.3482104693
 21
116.5518880095
  0
LINE
  5
60C
100
AcDbEntity
  8
KONSTRUKTIONSELEMENTE
100
AcDbLine
 62
7
  6
CONTINUOUS
 10
288.2954463465
 20
136.6657908425
 11
287.6148407917
 21
136.2042098615
  0
LINE
  5
60D
100
AcDbEntity
  8
KONSTRUKTIONSELEMENTE
100
AcDbLine
 62
7
  6
CONTINUOUS
 10
289.7690415255
 20
133.5126930146
 11
285.1939356694
 21
130.7559464429
  0
LINE
  5
60E
100
AcDbEntity
  8
KONSTRUKTIONSELEMENTE
100
AcDbLine
 62
7
  6
CONTINUOUS
 10
262.3569788901
 20
118.496831867
 11
262.8516657723
 21
118.7864853194
  0
LINE
  5
60F
100
AcDbEntity
  8
KONSTRUKTIONSELEMENTE
100
AcDbLine
 62
7
  6
CONTINUOUS
 10
255.1792838743
 20
116.335273614
 11
255.5449259649
 21
116.52336016
  0
LINE
  5
610
100
AcDbEntity
  8
KONSTRUKTIONSELEMENTE
100
AcDbLine
 62
7
  6
CONTINUOUS
 10
288.1944122695
 20
135.7898436307
 11
288.641819189
 21
135.9779236312
  0
LINE
  5
611
100
AcDbEntity
  8
0
100
AcDbLine
 62
7
  6
CONTINUOUS
 10
232.8819258541
 20
85.2719429778
 11
233.488255044
 21
85.2719429778
  0
LINE
  5
612
100
AcDbEntity
  8
0
100
AcDbLine
 62
7
  6
CONTINUOUS
 10
232.6014786836
 20
85.688608055
 11
233.2034872003
 21
85.688608055
  0
LINE
  5
613
100
AcDbEntity
  8
0
100
AcDbLine
 62
7
  6
CONTINUOUS
 10
232.1925213534
 20
86.313608055
 11
232.7883393729
 21
86.313608055
  0
LINE
  5
614
100
AcDbEntity
  8
0
100
AcDbLine
 62
7
  6
CONTINUOUS
 10
231.6684596924
 20
87.1469429778
 11
232.2565298773
 21
87.1469429778
  0
LINE
  5
615
100
AcDbEntity
  8
0
100
AcDbLine
 62
7
  6
CONTINUOUS
 10
231.1678029569
 20
87.9802779006
 11
231.7486585469
 21
87.9802779006
  0
LINE
  5
616
100
AcDbEntity
  8
0
100
AcDbLine
 62
7
  6
CONTINUOUS
 10
230.6897142577
 20
88.813608055
 11
231.2638449176
 21
88.813608055
  0
LINE
  5
617
100
AcDbEntity
  8
0
100
AcDbLine
 62
7
  6
CONTINUOUS
 10
230.3454922492
 20
89.438608055
 11
230.9148772616
 21
89.438608055
  0
LINE
  5
618
100
AcDbEntity
  8
0
100
AcDbLine
 62
7
  6
CONTINUOUS
 10
230.1226733998
 20
89.8552779006
 11
230.6890283872
 21
89.8552779006
  0
LINE
  5
619
100
AcDbEntity
  8
0
100
AcDbLine
 62
7
  6
CONTINUOUS
 10
230.0132341487
 20
90.063608055
 11
230.5781127731
 21
90.063608055
  0
LINE
  5
61A
100
AcDbEntity
  8
0
100
AcDbLine
 62
7
  6
CONTINUOUS
 10
229.3835148409
 20
91.313608055
 11
229.9400467127
 21
91.313608055
  0
LINE
  5
61B
100
AcDbEntity
  8
KONSTRUKTIONSELEMENTE
100
AcDbLine
 62
7
  6
CONTINUOUS
 10
257.0657681434
 20
116.3395036645
 11
257.3760556994
 21
116.069703146
  0
LINE
  5
61C
100
AcDbEntity
  8
KONSTRUKTIONSELEMENTE
100
AcDbLine
 62
7
  6
CONTINUOUS
 10
263.357065324
 20
120.8280855911
 11
262.9131934909
 21
121.5203721112
  0
LINE
  5
61D
100
AcDbEntity
  8
KONSTRUKTIONSELEMENTE
100
AcDbLine
 62
7
  6
CONTINUOUS
 10
266.2049838557
 20
112.2819429778
 11
273.1331870859
 21
100.2819429778
  0
LINE
  5
61E
100
AcDbEntity
  8
KONSTRUKTIONSELEMENTE
100
AcDbLine
 62
7
  6
CONTINUOUS
 10
265.4876912197
 20
126.4247895177
 11
265.7314441851
 21
125.9202925155
  0
LINE
  5
61F
100
AcDbEntity
  8
KONSTRUKTIONSELEMENTE
100
AcDbLine
 62
7
  6
CONTINUOUS
 10
266.6627949444
 20
125.4419902168
 11
266.4364222519
 21
126.232583428
  0
LINE
  5
620
100
AcDbEntity
  8
KONSTRUKTIONSELEMENTE
100
AcDbLine
 62
7
  6
CONTINUOUS
 10
275.4832004018
 20
138.1468944602
 11
275.510480952
 21
130.7917614253
  0
LINE
  5
621
100
AcDbEntity
  8
KONSTRUKTIONSELEMENTE
100
AcDbLine
 62
7
  6
CONTINUOUS
 10
276.1615590483
 20
130.0754289033
 11
276.225502129
 21
136.5765812597
  0
LINE
  5
622
100
AcDbEntity
  8
KONSTRUKTIONSELEMENTE
100
AcDbLine
 62
7
  6
CONTINUOUS
 10
279.6677143188
 20
134.015308328
 11
279.57777519
 21
132.9979995861
  0
LINE
  5
623
100
AcDbEntity
  8
KONSTRUKTIONSELEMENTE
100
AcDbLine
 62
7
  6
CONTINUOUS
 10
282.709093525
 20
136.9930802851
 11
282.424286308
 21
133.7716028793
  0
LINE
  5
624
100
AcDbEntity
  8
KONSTRUKTIONSELEMENTE
100
AcDbLine
 62
7
  6
CONTINUOUS
 10
282.3343471791
 20
132.7542941374
 11
282.1244892397
 21
130.3805740562
  0
LINE
  5
625
100
AcDbEntity
  8
KONSTRUKTIONSELEMENTE
100
AcDbLine
 62
7
  6
CONTINUOUS
 10
282.813632237
 20
130.319647694
 11
283.0234901764
 21
132.6933677752
  0
LINE
  5
626
100
AcDbEntity
  8
KONSTRUKTIONSELEMENTE
100
AcDbLine
 62
7
  6
CONTINUOUS
 10
283.1134293053
 20
133.7106765172
 11
283.5181553328
 21
138.2885652622
  0
LINE
  5
627
100
AcDbEntity
  8
KONSTRUKTIONSELEMENTE
100
AcDbLine
 62
7
  6
CONTINUOUS
 10
285.1939356694
 20
130.7559464429
 11
284.878693264
 21
129.9654201003
  0
LINE
  5
628
100
AcDbEntity
  8
KONSTRUKTIONSELEMENTE
100
AcDbLine
 62
7
  6
CONTINUOUS
 10
287.6148407917
 20
136.2042098615
 11
287.2555427606
 21
135.6144993659
  0
LINE
  5
629
100
AcDbEntity
  8
KONSTRUKTIONSELEMENTE
100
AcDbLine
 62
7
  6
CONTINUOUS
 10
290.5187656176
 20
133.2137215402
 11
290.8780611974
 21
133.8034330133
  0
LINE
  5
62A
100
AcDbEntity
  8
KONSTRUKTIONSELEMENTE
100
AcDbLine
 62
7
  6
CONTINUOUS
 10
290.2354412474
 20
134.0596939978
 11
289.7690415255
 21
133.5126930146
  0
LINE
  5
62B
100
AcDbEntity
  8
KONSTRUKTIONSELEMENTE
100
AcDbLine
 62
7
  6
CONTINUOUS
 10
290.1154119166
 20
132.8248267809
 11
290.5187656176
 21
133.2137215402
  0
LINE
  5
62C
100
AcDbEntity
  8
KONSTRUKTIONSELEMENTE
100
AcDbLine
 62
7
  6
CONTINUOUS
 10
286.0507639037
 20
130.4142644786
 11
290.1154119166
 21
132.8248267809
  0
LINE
  5
62D
100
AcDbEntity
  8
KONSTRUKTIONSELEMENTE
100
AcDbLine
 62
7
  6
CONTINUOUS
 10
261.958565614
 20
119.2950846584
 11
261.5093372203
 21
119.1113975067
  0
LINE
  5
62E
100
AcDbEntity
  8
KONSTRUKTIONSELEMENTE
100
AcDbLine
 62
7
  6
CONTINUOUS
 10
255.6279577272
 20
117.2101904292
 11
254.9105121994
 21
116.9484892671
  0
LINE
  5
62F
100
AcDbEntity
  8
0
100
AcDbLine
 62
7
  6
CONTINUOUS
 10
228.6461898498
 20
92.9052774238
 11
229.1932587908
 21
92.9052774238
  0
LINE
  5
630
100
AcDbEntity
  8
0
100
AcDbLine
 62
7
  6
CONTINUOUS
 10
228.5186522655
 20
93.1969429778
 11
229.0641171258
 21
93.1969429778
  0
LINE
  5
631
100
AcDbEntity
  8
0
100
AcDbLine
 62
7
  6
CONTINUOUS
 10
228.2704389635
 20
93.7802774238
 11
228.8128089481
 21
93.7802774238
  0
LINE
  5
632
100
AcDbEntity
  8
0
100
AcDbLine
 62
7
  6
CONTINUOUS
 10
227.8009415361
 20
94.9469429778
 11
228.3375531353
 21
94.9469429778
  0
LINE
  5
633
100
AcDbEntity
  8
0
100
AcDbLine
 62
7
  6
CONTINUOUS
 10
227.3664242111
 20
96.1136085319
 11
227.8978149864
 21
96.1136085319
  0
LINE
  5
634
100
AcDbEntity
  8
0
100
AcDbLine
 62
7
  6
CONTINUOUS
 10
226.8709547744
 20
97.5719429778
 11
227.39651569
 21
97.5719429778
  0
LINE
  5
635
100
AcDbEntity
  8
KONSTRUKTIONSELEMENTE
100
AcDbLine
 62
7
  6
CONTINUOUS
 10
257.9521960829
 20
116.5807763335
 11
257.3177823174
 21
117.0059054406
  0
LINE
  5
636
100
AcDbEntity
  8
KONSTRUKTIONSELEMENTE
100
AcDbLine
 62
7
  6
CONTINUOUS
 10
262.9131934909
 20
121.5203721112
 11
262.3784044889
 21
122.0007261122
  0
LINE
  5
637
100
AcDbEntity
  8
KONSTRUKTIONSELEMENTE
100
AcDbLine
 62
7
  6
CONTINUOUS
 10
261.9492272304
 20
121.4320352016
 11
262.3275896862
 21
121.018786752
  0
LINE
  5
638
100
AcDbEntity
  8
KONSTRUKTIONSELEMENTE
100
AcDbLine
 62
7
  6
CONTINUOUS
 10
265.0393966505
 20
126.9500372866
 11
265.4876912197
 21
126.4247895177
  0
LWPOLYLINE
  5
639
100
AcDbEntity
  8
RUNDUNGEN
100
AcDbPolyline
 62
7
  6
CONTINUOUS
 90
19
 70
0
 10
316.2820059317
 20
41.4068558212
 10
316.6406965954
 20
40.8239260849
 10
317.0170854712
 20
40.270599603
 10
317.4326837852
 20
39.7168011734
 10
317.8892081778
 20
39.1661286129
 10
318.388522313
 20
38.6220189914
 10
318.9323131324
 20
38.088215594
 10
319.5210650629
 20
37.5696062183
 10
320.1554022098
 20
37.0707535126
 10
320.8338242187
 20
36.5975731275
 10
321.5546069289
 20
36.1554831499
 10
322.3151506295
 20
35.749819673
 10
323.1121810229
 20
35.3855807691
 10
323.9421282905
 20
35.0672053387
 10
324.8007905195
 20
34.7987046774
 10
325.6834906734
 20
34.5835333616
 10
326.5851426393
 20
34.4245252674
 10
327.500206655
 20
34.3238465679
 10
328.4219279316
 20
34.2829187556
  0
LINE
  5
63A
100
AcDbEntity
  8
KONSTRUKTIONSELEMENTE
100
AcDbLine
 62
7
  6
CONTINUOUS
 10
266.4364222519
 20
126.232583428
 11
266.0621021298
 21
126.8462804162
  0
LINE
  5
63B
100
AcDbEntity
  8
KONSTRUKTIONSELEMENTE
100
AcDbLine
 62
7
  6
CONTINUOUS
 10
271.1163493431
 20
137.0732403111
 11
273.0263830749
 21
129.3046000734
  0
LINE
  5
63C
100
AcDbEntity
  8
KONSTRUKTIONSELEMENTE
100
AcDbLine
 62
7
  6
CONTINUOUS
 10
273.6982063147
 20
129.4697776348
 11
272.1945626902
 21
135.5855158913
  0
LINE
  5
63D
100
AcDbEntity
  8
KONSTRUKTIONSELEMENTE
100
AcDbLine
 62
7
  6
CONTINUOUS
 10
284.1720627149
 20
132.5918237608
 11
284.2620018437
 21
133.6091325027
  0
LINE
  5
63E
100
AcDbEntity
  8
KONSTRUKTIONSELEMENTE
100
AcDbLine
 62
7
  6
CONTINUOUS
 10
291.0041583185
 20
134.119643949
 11
291.1492505168
 21
134.7947744469
  0
LINE
  5
63F
100
AcDbEntity
  8
KONSTRUKTIONSELEMENTE
100
AcDbLine
 62
7
  6
CONTINUOUS
 10
290.3615383685
 20
134.3759049335
 11
290.2354412474
 21
134.0596939978
  0
LINE
  5
640
100
AcDbEntity
  8
KONSTRUKTIONSELEMENTE
100
AcDbLine
 62
7
  6
CONTINUOUS
 10
288.734412964
 20
128.4278541934
 11
289.0496553695
 21
129.218380536
  0
LINE
  5
641
100
AcDbEntity
  8
KONSTRUKTIONSELEMENTE
100
AcDbLine
 62
7
  6
CONTINUOUS
 10
290.8780611974
 20
133.8034330133
 11
291.0041583185
 21
134.119643949
  0
LINE
  5
642
100
AcDbEntity
  8
KONSTRUKTIONSELEMENTE
100
AcDbLine
 62
7
  6
CONTINUOUS
 10
273.1331870859
 20
100.2819429778
 11
286.9895935465
 21
100.2819429778
  0
LINE
  5
643
100
AcDbEntity
  8
0
100
AcDbLine
 62
7
  6
CONTINUOUS
 10
225.1846460211
 20
104.5719429778
 11
225.6912943061
 21
104.5719429778
  0
LINE
  5
644
100
AcDbEntity
  8
0
100
AcDbLine
 62
7
  6
CONTINUOUS
 10
225.1394054797
 20
104.8552779006
 11
225.6455652054
 21
104.8552779006
  0
LINE
  5
645
100
AcDbEntity
  8
KONSTRUKTIONSELEMENTE
100
AcDbLine
 62
7
  6
CONTINUOUS
 10
256.5726595222
 20
116.5152607463
 11
257.0657681434
 21
116.3395036645
  0
LINE
  5
646
100
AcDbEntity
  8
KONSTRUKTIONSELEMENTE
100
AcDbLine
 62
7
  6
CONTINUOUS
 10
257.3177823174
 20
117.0059054406
 11
256.8246736962
 21
117.1816625224
  0
LINE
  5
647
100
AcDbEntity
  8
KONSTRUKTIONSELEMENTE
100
AcDbLine
 62
7
  6
CONTINUOUS
 10
255.1560056099
 20
120.7077120315
 11
260.0052258012
 21
118.627441112
  0
LINE
  5
648
100
AcDbEntity
  8
KONSTRUKTIONSELEMENTE
100
AcDbLine
 62
7
  6
CONTINUOUS
 10
260.2779767533
 20
119.2632378302
 11
255.4287565619
 21
121.3435087497
  0
LINE
  5
649
100
AcDbEntity
  8
KONSTRUKTIONSELEMENTE
100
AcDbLine
 62
7
  6
CONTINUOUS
 10
262.3784044889
 20
122.0007261122
 11
261.641730863
 21
122.4422199057
  0
LINE
  5
64A
100
AcDbEntity
  8
KONSTRUKTIONSELEMENTE
100
AcDbLine
 62
7
  6
CONTINUOUS
 10
261.3689800411
 20
121.8064234906
 11
261.9492272304
 21
121.4320352016
  0
LINE
  5
64B
100
AcDbEntity
  8
KONSTRUKTIONSELEMENTE
100
AcDbLine
 62
7
  6
CONTINUOUS
 10
258.47670224
 20
127.3279873675
 11
264.6133550396
 21
122.1955910054
  0
LINE
  5
64C
100
AcDbEntity
  8
KONSTRUKTIONSELEMENTE
100
AcDbLine
 62
7
  6
CONTINUOUS
 10
264.2737964013
 20
123.3814813474
 11
259.7039484765
 21
127.2034787181
  0
LINE
  5
64D
100
AcDbEntity
  8
KONSTRUKTIONSELEMENTE
100
AcDbLine
 62
7
  6
CONTINUOUS
 10
263.0808904885
 20
128.5880360833
 11
265.0393966505
 21
126.9500372866
  0
LINE
  5
64E
100
AcDbEntity
  8
KONSTRUKTIONSELEMENTE
100
AcDbLine
 62
7
  6
CONTINUOUS
 10
265.4832404953
 20
127.4807280947
 11
263.5247343333
 21
129.1187268913
  0
LINE
  5
64F
100
AcDbEntity
  8
KONSTRUKTIONSELEMENTE
100
AcDbLine
 62
7
  6
CONTINUOUS
 10
266.0621021298
 20
126.8462804162
 11
265.4832404953
 21
127.4807280947
  0
LINE
  5
650
100
AcDbEntity
  8
KONSTRUKTIONSELEMENTE
100
AcDbLine
 62
7
  6
CONTINUOUS
 10
272.1945626902
 20
135.5855158913
 11
275.26579302
 21
129.8551917347
  0
LINE
  5
651
100
AcDbEntity
  8
KONSTRUKTIONSELEMENTE
100
AcDbLine
 62
7
  6
CONTINUOUS
 10
275.510480952
 20
130.7917614253
 11
272.1240842028
 21
137.3210066532
  0
LINE
  5
652
100
AcDbEntity
  8
KONSTRUKTIONSELEMENTE
100
AcDbLine
 62
7
  6
CONTINUOUS
 10
276.225502129
 20
136.5765812597
 11
277.7291457535
 21
130.4608430032
  0
LINE
  5
653
100
AcDbEntity
  8
KONSTRUKTIONSELEMENTE
100
AcDbLine
 62
7
  6
CONTINUOUS
 10
278.4009689933
 20
130.6260205645
 11
276.4909352615
 21
138.3946608023
  0
LINE
  5
654
100
AcDbEntity
  8
KONSTRUKTIONSELEMENTE
100
AcDbLine
 62
7
  6
CONTINUOUS
 10
290.3364779524
 20
134.9356406749
 11
290.3615383685
 21
134.3759049335
  0
LINE
  5
655
100
AcDbEntity
  8
KONSTRUKTIONSELEMENTE
100
AcDbLine
 62
7
  6
CONTINUOUS
 10
286.9895935465
 20
100.2819429778
 11
293.9177967768
 21
112.2819429778
  0
LINE
  5
656
100
AcDbEntity
  8
0
100
AcDbLine
 62
7
  6
CONTINUOUS
 10
224.863471603
 20
106.9052757548
 11
225.3666718662
 21
106.9052757548
  0
LINE
  5
657
100
AcDbEntity
  8
0
100
AcDbLine
 62
7
  6
CONTINUOUS
 10
224.6985938574
 20
108.6552757548
 11
225.2000423112
 21
108.6552757548
  0
LINE
  5
658
100
AcDbEntity
  8
0
100
AcDbLine
 62
7
  6
CONTINUOUS
 10
224.6773869852
 20
108.9469429778
 11
225.1786110077
 21
108.9469429778
  0
LINE
  5
659
100
AcDbEntity
  8
0
100
AcDbLine
 62
7
  6
CONTINUOUS
 10
224.6403268108
 20
109.5302757548
 11
225.1411591117
 21
109.5302757548
  0
LINE
  5
65A
100
AcDbEntity
  8
0
100
AcDbLine
 62
7
  6
CONTINUOUS
 10
224.5980905951
 20
110.4052757548
 11
225.0984772141
 21
110.4052757548
  0
LINE
  5
65B
100
AcDbEntity
  8
0
100
AcDbLine
 62
7
  6
CONTINUOUS
 10
224.5666411731
 20
111.5719429778
 11
225.0666969284
 21
111.5719429778
  0
LINE
  5
65C
100
AcDbEntity
  8
BEZUGSACHSEN
100
AcDbLine
 62
7
  6
CONTINUOUS
 10
315.5613903162
 20
112.2819429778
 11
314.9782664012
 21
112.2819429778
  0
LINE
  5
65D
100
AcDbEntity
  8
BEZUGSACHSEN
100
AcDbLine
 62
7
  6
CONTINUOUS
 10
347.5613903162
 20
112.2819429778
 11
348.1445142312
 21
112.2819429778
  0
LINE
  5
65E
100
AcDbEntity
  8
0
100
AcDbLine
 62
7
  6
CONTINUOUS
 10
224.5635627086
 20
112.7386102008
 11
225.063585577
 21
112.7386102008
  0
LINE
  5
65F
100
AcDbEntity
  8
KONSTRUKTIONSELEMENTE
100
AcDbLine
 62
7
  6
CONTINUOUS
 10
253.77790786
 20
113.2526367587
 11
261.7200821555
 21
112.2924974669
  0
LINE
  5
660
100
AcDbEntity
  8
KONSTRUKTIONSELEMENTE
100
AcDbLine
 62
7
  6
CONTINUOUS
 10
261.8031139178
 20
112.9793277362
 11
258.2544827992
 21
113.4083261493
  0
LINE
  5
661
100
AcDbEntity
  8
KONSTRUKTIONSELEMENTE
100
AcDbLine
 62
7
  6
CONTINUOUS
 10
257.2405883292
 20
113.5308971081
 11
254.7058516806
 21
113.8373245623
  0
LINE
  5
662
100
AcDbEntity
  8
KONSTRUKTIONSELEMENTE
100
AcDbLine
 62
7
  6
CONTINUOUS
 10
256.0657118138
 20
116.5765462829
 11
256.5726595222
 21
116.5152607463
  0
LINE
  5
663
100
AcDbEntity
  8
KONSTRUKTIONSELEMENTE
100
AcDbLine
 62
7
  6
CONTINUOUS
 10
256.8246736962
 20
117.1816625224
 11
256.1487435761
 21
117.2633765522
  0
LINE
  5
664
100
AcDbEntity
  8
KONSTRUKTIONSELEMENTE
100
AcDbLine
 62
7
  6
CONTINUOUS
 10
260.9491407965
 20
119.1007814774
 11
260.2779767533
 21
119.2632378302
  0
LINE
  5
665
100
AcDbEntity
  8
KONSTRUKTIONSELEMENTE
100
AcDbLine
 62
7
  6
CONTINUOUS
 10
260.0052258012
 20
118.627441112
 11
260.8328165412
 21
118.3978798611
  0
LINE
  5
666
100
AcDbEntity
  8
KONSTRUKTIONSELEMENTE
100
AcDbLine
 62
7
  6
CONTINUOUS
 10
256.5197598497
 20
123.8866944101
 11
261.3689800411
 21
121.8064234906
  0
LINE
  5
667
100
AcDbEntity
  8
KONSTRUKTIONSELEMENTE
100
AcDbLine
 62
7
  6
CONTINUOUS
 10
261.641730863
 20
122.4422199057
 11
256.7925106717
 21
124.5224908252
  0
LINE
  5
668
100
AcDbEntity
  8
KONSTRUKTIONSELEMENTE
100
AcDbLine
 62
7
  6
CONTINUOUS
 10
262.4846485354
 20
128.936387591
 11
263.0808904885
 21
128.5880360833
  0
LINE
  5
669
100
AcDbEntity
  8
KONSTRUKTIONSELEMENTE
100
AcDbLine
 62
7
  6
CONTINUOUS
 10
263.5247343333
 20
129.1187268913
 11
262.7979249492
 21
129.5762786145
  0
LINE
  5
66A
100
AcDbEntity
  8
KONSTRUKTIONSELEMENTE
100
AcDbLine
 62
7
  6
CONTINUOUS
 10
293.9177967768
 20
112.2819429778
 11
286.9895935465
 21
124.2819429778
  0
LINE
  5
66B
100
AcDbEntity
  8
KONSTRUKTIONSELEMENTE
100
AcDbLine
 62
7
  6
CONTINUOUS
 10
258.4897394525
 20
115.3543451909
 11
262.1490795809
 21
115.8411204156
  0
LINE
  5
66C
100
AcDbEntity
  8
KONSTRUKTIONSELEMENTE
100
AcDbLine
 62
7
  6
CONTINUOUS
 10
261.5093372203
 20
119.1113975067
 11
260.9491407965
 21
119.1007814774
  0
LINE
  5
66D
100
AcDbEntity
  8
0
100
AcDbLine
 62
7
  6
CONTINUOUS
 10
224.5888482667
 20
113.9052757548
 11
225.0891374658
 21
113.9052757548
  0
LINE
  5
66E
100
AcDbEntity
  8
0
100
AcDbLine
 62
7
  6
CONTINUOUS
 10
224.626451771
 20
114.7802757548
 11
225.1271375727
 21
114.7802757548
  0
LINE
  5
66F
100
AcDbEntity
  8
0
100
AcDbLine
 62
7
  6
CONTINUOUS
 10
224.660416139
 20
115.3636102008
 11
225.1614607052
 21
115.3636102008
  0
LINE
  5
670
100
AcDbEntity
  8
0
100
AcDbLine
 62
7
  6
CONTINUOUS
 10
224.6800721851
 20
115.6552757548
 11
225.1813246137
 21
115.6552757548
  0
LINE
  5
671
100
AcDbEntity
  8
0
100
AcDbLine
 62
7
  6
CONTINUOUS
 10
224.8355958995
 20
117.4052765893
 11
225.3384991224
 21
117.4052765893
  0
LINE
  5
672
100
AcDbEntity
  8
0
100
AcDbLine
 62
7
  6
CONTINUOUS
 10
224.9008300354
 20
117.9802755164
 11
225.4044289396
 21
117.9802755164
  0
LINE
  5
673
100
AcDbEntity
  8
0
100
AcDbLine
 62
7
  6
CONTINUOUS
 10
225.0369502879
 20
119.0219429778
 11
225.5420070791
 21
119.0219429778
  0
LINE
  5
674
100
AcDbEntity
  8
0
100
AcDbLine
 62
7
  6
CONTINUOUS
 10
225.1441136507
 20
119.7386093663
 11
225.6503241764
 21
119.7386093663
  0
LINE
  5
675
100
AcDbEntity
  8
0
100
AcDbLine
 62
7
  6
CONTINUOUS
 10
225.1909002803
 20
120.0302765893
 11
225.6976161805
 21
120.0302765893
  0
LINE
  5
676
100
AcDbEntity
  8
KONSTRUKTIONSELEMENTE
100
AcDbLine
 62
7
  6
CONTINUOUS
 10
260.8328165412
 20
118.3978798611
 11
261.5494393811
 21
118.3413900358
  0
LINE
  5
677
100
AcDbEntity
  8
KONSTRUKTIONSELEMENTE
100
AcDbLine
 62
7
  6
CONTINUOUS
 10
261.9449987434
 20
129.0870903522
 11
262.4846485354
 21
128.936387591
  0
LINE
  5
678
100
AcDbEntity
  8
KONSTRUKTIONSELEMENTE
100
AcDbLine
 62
7
  6
CONTINUOUS
 10
262.7979249492
 20
129.5762786145
 11
262.1277084576
 21
129.8361809794
  0
LINE
  5
679
100
AcDbEntity
  8
KONSTRUKTIONSELEMENTE
100
AcDbLine
 62
7
  6
CONTINUOUS
 10
290.1412649219
 20
135.3799816599
 11
290.3364779524
 21
134.9356406749
  0
LINE
  5
67A
100
AcDbEntity
  8
KONSTRUKTIONSELEMENTE
100
AcDbLine
 62
7
  6
CONTINUOUS
 10
291.1492505168
 20
134.7947744469
 11
290.9730302887
 21
135.5980364146
  0
LWPOLYLINE
  5
67B
100
AcDbEntity
  8
BEZUGSACHSEN
100
AcDbPolyline
 62
7
  6
CONTINUOUS
 90
7
 70
0
 10
313.7039641228
 20
173.4999889898
 10
313.6852399321
 20
173.2419979941
 10
313.6392336827
 20
172.4806252818
 10
313.6043238656
 20
171.6896821726
 10
313.5799191941
 20
170.868826103
 10
313.5656212717
 20
170.0172361564
 10
313.5613903576
 20
169.2227765526
  0
LINE
  5
67C
100
AcDbEntity
  8
KONSTRUKTIONSELEMENTE
100
AcDbLine
 62
7
  6
CONTINUOUS
 10
261.5494393811
 20
118.3413900358
 11
262.3569788901
 21
118.496831867
  0
LINE
  5
67D
100
AcDbEntity
  8
KONSTRUKTIONSELEMENTE
100
AcDbLine
 62
7
  6
CONTINUOUS
 10
262.2459499966
 20
116.6424226147
 11
258.2348064112
 21
116.0820326102
  0
LINE
  5
67E
100
AcDbEntity
  8
KONSTRUKTIONSELEMENTE
100
AcDbLine
 62
7
  6
CONTINUOUS
 10
255.5449259649
 20
116.52336016
 11
256.0657118138
 21
116.5765462829
  0
LINE
  5
67F
100
AcDbEntity
  8
KONSTRUKTIONSELEMENTE
100
AcDbLine
 62
7
  6
CONTINUOUS
 10
256.1487435761
 20
117.2633765522
 11
255.6279577272
 21
117.2101904292
  0
LINE
  5
680
100
AcDbEntity
  8
0
100
AcDbLine
 62
7
  6
CONTINUOUS
 10
225.239530674
 20
120.3219429778
 11
225.7467729409
 21
120.3219429778
  0
LINE
  5
681
100
AcDbEntity
  8
0
100
AcDbLine
 62
7
  6
CONTINUOUS
 10
225.3965435021
 20
121.1969429778
 11
225.905492779
 21
121.1969429778
  0
LINE
  5
682
100
AcDbEntity
  8
0
100
AcDbLine
 62
7
  6
CONTINUOUS
 10
225.6320817465
 20
122.3636093663
 11
226.1436135186
 21
122.3636093663
  0
LINE
  5
683
100
AcDbEntity
  8
0
100
AcDbLine
 62
7
  6
CONTINUOUS
 10
225.9692407629
 20
123.8219429778
 11
226.4845154222
 21
123.8219429778
  0
LINE
  5
684
100
AcDbEntity
  8
KONSTRUKTIONSELEMENTE
100
AcDbLine
 62
7
  6
CONTINUOUS
 10
286.9895935465
 20
124.2819429778
 11
273.1331870859
 21
124.2819429778
  0
LINE
  5
685
100
AcDbEntity
  8
KONSTRUKTIONSELEMENTE
100
AcDbLine
 62
7
  6
CONTINUOUS
 10
262.1277084576
 20
129.8361809794
 11
261.3095445822
 21
129.9191870831
  0
LINE
  5
686
100
AcDbEntity
  8
KONSTRUKTIONSELEMENTE
100
AcDbLine
 62
7
  6
CONTINUOUS
 10
284.878693264
 20
129.9654201003
 11
288.734412964
 21
128.4278541934
  0
LINE
  5
687
100
AcDbEntity
  8
KONSTRUKTIONSELEMENTE
100
AcDbLine
 62
7
  6
CONTINUOUS
 10
289.0496553695
 20
129.218380536
 11
286.0507639037
 21
130.4142644786
  0
LINE
  5
688
100
AcDbEntity
  8
KONSTRUKTIONSELEMENTE
100
AcDbLine
 62
7
  6
CONTINUOUS
 10
290.9730302887
 20
135.5980364146
 11
290.670713116
 21
136.0850878895
  0
LWPOLYLINE
  5
689
100
AcDbEntity
  8
RUNDUNGEN
100
AcDbPolyline
 62
7
  6
CONTINUOUS
 90
7
 70
0
 10
313.5613903576
 20
55.3411094031
 10
313.5656212717
 20
54.5466497992
 10
313.5799191941
 20
53.6950598527
 10
313.6043238656
 20
52.8742037831
 10
313.6392336827
 20
52.0832606738
 10
313.6852399321
 20
51.3218879615
 10
313.7039641228
 20
51.0638969659
  0
LINE
  5
68A
100
AcDbEntity
  8
BEZUGSACHSEN
100
AcDbLine
 62
7
  6
CONTINUOUS
 10
313.561390358
 20
169.2227650496
 11
313.5613903162
 21
137.6279065417
  0
LINE
  5
68B
100
AcDbEntity
  8
RUNDUNGEN
100
AcDbLine
 62
7
  6
CONTINUOUS
 10
313.5613903162
 20
55.3423999497
 11
313.5613903162
 21
86.935979414
  0
LINE
  5
68C
100
AcDbEntity
  8
0
100
AcDbLine
 62
7
  6
CONTINUOUS
 10
315.5613903162
 20
55.5840908776
 11
315.5613903162
 21
44.8212523863
  0
LINE
  5
68D
100
AcDbEntity
  8
RUNDUNGEN
100
AcDbLine
 62
7
  6
CONTINUOUS
 10
315.5613903162
 20
44.8212523863
 11
315.5613903162
 21
44.3263753231
  0
LINE
  5
68E
100
AcDbEntity
  8
BEZUGSACHSEN
100
AcDbLine
 62
7
  6
CONTINUOUS
 10
315.5613903162
 20
55.5840908776
 11
315.5613903162
 21
180.2375106326
  0
LINE
  5
68F
100
AcDbEntity
  8
BEZUGSACHSEN
100
AcDbLine
 62
7
  6
CONTINUOUS
 10
298.8252740649
 20
79.7819429778
 11
313.5613903162
 21
105.3056450314
  0
LINE
  5
690
100
AcDbEntity
  8
KONSTRUKTIONSELEMENTE
100
AcDbLine
 62
7
  6
CONTINUOUS
 10
273.0263830749
 20
129.3046000734
 11
273.6982063147
 21
129.4697776348
  0
LINE
  5
691
100
AcDbEntity
  8
KONSTRUKTIONSELEMENTE
100
AcDbLine
 62
7
  6
CONTINUOUS
 10
275.26579302
 20
129.8551917347
 11
276.1615590483
 21
130.0754289033
  0
LINE
  5
692
100
AcDbEntity
  8
KONSTRUKTIONSELEMENTE
100
AcDbLine
 62
7
  6
CONTINUOUS
 10
277.7291457535
 20
130.4608430032
 11
278.4009689933
 21
130.6260205645
  0
LINE
  5
693
100
AcDbEntity
  8
KONSTRUKTIONSELEMENTE
100
AcDbLine
 62
7
  6
CONTINUOUS
 10
261.4619426904
 20
129.0401447673
 11
261.9449987434
 21
129.0870903522
  0
LINE
  5
694
100
AcDbEntity
  8
0
100
AcDbLine
 62
7
  6
CONTINUOUS
 10
228.2864719086
 20
130.8219429778
 11
228.8290407338
 21
130.8219429778
  0
LINE
  5
695
100
AcDbEntity
  8
0
100
AcDbLine
 62
7
  6
CONTINUOUS
 10
229.5577225818
 20
133.6052767085
 11
230.1165385835
 21
133.6052767085
  0
LINE
  5
696
100
AcDbEntity
  8
KONSTRUKTIONSELEMENTE
100
AcDbLine
 62
7
  6
CONTINUOUS
 10
282.1244892397
 20
130.3805740562
 11
282.813632237
 21
130.319647694
  0
LINE
  5
697
100
AcDbEntity
  8
KONSTRUKTIONSELEMENTE
100
AcDbLine
 62
7
  6
CONTINUOUS
 10
279.57777519
 20
132.9979995861
 11
282.3343471791
 21
132.7542941374
  0
LINE
  5
698
100
AcDbEntity
  8
KONSTRUKTIONSELEMENTE
100
AcDbLine
 62
7
  6
CONTINUOUS
 10
283.0234901764
 20
132.6933677752
 11
284.1720627149
 21
132.5918237608
  0
LINE
  5
699
100
AcDbEntity
  8
KONSTRUKTIONSELEMENTE
100
AcDbLine
 62
7
  6
CONTINUOUS
 10
284.2620018437
 20
133.6091325027
 11
283.1134293053
 21
133.7106765172
  0
LINE
  5
69A
100
AcDbEntity
  8
KONSTRUKTIONSELEMENTE
100
AcDbLine
 62
7
  6
CONTINUOUS
 10
282.424286308
 20
133.7716028793
 11
280.4717153586
 21
133.9442274947
  0
LINE
  5
69B
100
AcDbEntity
  8
KONSTRUKTIONSELEMENTE
100
AcDbLine
 62
7
  6
CONTINUOUS
 10
287.2555427606
 20
135.6144993659
 11
287.7910585684
 21
135.4009488714
  0
LINE
  5
69C
100
AcDbEntity
  8
KONSTRUKTIONSELEMENTE
100
AcDbLine
 62
7
  6
CONTINUOUS
 10
289.2403834691
 20
135.922478383
 11
289.6687975863
 21
135.7516374009
  0
LINE
  5
69D
100
AcDbEntity
  8
KONSTRUKTIONSELEMENTE
100
AcDbLine
 62
7
  6
CONTINUOUS
 10
290.0911416383
 20
136.4994541204
 11
289.6627299725
 21
136.670294125
  0
LINE
  5
69E
100
AcDbEntity
  8
KONSTRUKTIONSELEMENTE
100
AcDbLine
 62
7
  6
CONTINUOUS
 10
290.670713116
 20
136.0850878895
 11
290.0911416383
 21
136.4994541204
  0
LINE
  5
69F
100
AcDbEntity
  8
KONSTRUKTIONSELEMENTE
100
AcDbLine
 62
7
  6
CONTINUOUS
 10
289.6687975863
 20
135.7516374009
 11
290.1412649219
 21
135.3799816599
  0
LINE
  5
6A0
100
AcDbEntity
  8
BEZUGSACHSEN
100
AcDbLine
 62
7
  6
CONTINUOUS
 10
313.5613903162
 20
119.2582409243
 11
298.8252740649
 21
144.7819429778
  0
LINE
  5
6A1
100
AcDbEntity
  8
KONSTRUKTIONSELEMENTE
100
AcDbLine
 62
7
  6
CONTINUOUS
 10
288.8499574081
 20
136.811160353
 11
288.2954463465
 21
136.6657908425
  0
LINE
  5
6A2
100
AcDbEntity
  8
KONSTRUKTIONSELEMENTE
100
AcDbLine
 62
7
  6
CONTINUOUS
 10
261.3095445822
 20
129.9191870831
 11
260.7525148373
 21
129.7837933676
  0
LINE
  5
6A3
100
AcDbEntity
  8
0
100
AcDbLine
 62
7
  6
CONTINUOUS
 10
230.425183795
 20
135.2719429778
 11
230.9956604417
 21
135.2719429778
  0
LINE
  5
6A4
100
AcDbEntity
  8
KONSTRUKTIONSELEMENTE
100
AcDbLine
 62
7
  6
CONTINUOUS
 10
283.5181553328
 20
138.2885652622
 11
282.8290123355
 21
138.3494916243
  0
LINE
  5
6A5
100
AcDbEntity
  8
KONSTRUKTIONSELEMENTE
100
AcDbLine
 62
7
  6
CONTINUOUS
 10
288.641819189
 20
135.9779236312
 11
289.2403834691
 21
135.922478383
  0
LINE
  5
6A6
100
AcDbEntity
  8
KONSTRUKTIONSELEMENTE
100
AcDbLine
 62
7
  6
CONTINUOUS
 10
289.6627299725
 20
136.670294125
 11
288.8499574081
 21
136.811160353
  0
LINE
  5
6A7
100
AcDbEntity
  8
KONSTRUKTIONSELEMENTE
100
AcDbLine
 62
7
  6
CONTINUOUS
 10
276.4909352615
 20
138.3946608023
 11
275.4832004018
 21
138.1468944602
  0
LINE
  5
6A8
100
AcDbEntity
  8
KONSTRUKTIONSELEMENTE
100
AcDbLine
 62
7
  6
CONTINUOUS
 10
272.1240842028
 20
137.3210066532
 11
271.1163493431
 21
137.0732403111
  0
LINE
  5
6A9
100
AcDbEntity
  8
0
100
AcDbLine
 62
7
  6
CONTINUOUS
 10
234.4953634681
 20
141.5219429778
 11
235.1278171499
 21
141.5219429778
  0
LINE
  5
6AA
100
AcDbEntity
  8
0
100
AcDbLine
 62
7
  6
CONTINUOUS
 10
235.4890299921
 20
142.7719429778
 11
236.1387339057
 21
142.7719429778
  0
LINE
  5
6AB
100
AcDbEntity
  8
0
100
AcDbLine
 62
7
  6
CONTINUOUS
 10
236.9250496495
 20
144.4386098432
 11
237.6014307037
 21
144.4386098432
  0
LINE
  5
6AC
100
AcDbEntity
  8
BEZUGSACHSEN
100
AcDbLine
 62
7
  6
CONTINUOUS
 10
298.8252740649
 20
144.7819429778
 11
261.2975065675
 21
144.7819429778
  0
LINE
  5
6AD
100
AcDbEntity
  8
0
100
AcDbLine
 62
7
  6
CONTINUOUS
 10
238.0940926422
 20
145.6886098432
 11
238.7938821323
 21
145.6886098432
  0
LINE
  5
6AE
100
AcDbEntity
  8
0
100
AcDbLine
 62
7
  6
CONTINUOUS
 10
241.1828076787
 20
148.6052764105
 11
241.9531324707
 21
148.6052764105
  0
LINE
  5
6AF
100
AcDbEntity
  8
0
100
AcDbLine
 62
7
  6
CONTINUOUS
 10
244.916817612
 20
151.5219429778
 11
245.7943882428
 21
151.5219429778
  0
LINE
  5
6B0
100
AcDbEntity
  8
0
100
AcDbLine
 62
7
  6
CONTINUOUS
 10
246.782330985
 20
152.7719429778
 11
247.7257324832
 21
152.7719429778
  0
LINE
  5
6B1
100
AcDbEntity
  8
RUNDUNGEN
100
AcDbLine
 62
7
  6
CONTINUOUS
 10
360.0613903162
 20
159.7819429778
 11
349.5613903162
 21
159.7819429778
  0
LINE
  5
6B2
100
AcDbEntity
  8
RUNDUNGEN
100
AcDbLine
 62
7
  6
CONTINUOUS
 10
313.5613903162
 20
159.7819429778
 11
272.5613903162
 21
159.7819429778
  0
LWPOLYLINE
  5
6B3
100
AcDbEntity
  8
BEZUGSACHSEN
100
AcDbPolyline
 62
7
  6
CONTINUOUS
 90
7
 70
0
 10
349.5613902749
 20
169.2227765526
 10
349.5571593607
 20
170.0172361564
 10
349.5428614384
 20
170.868826103
 10
349.5184567668
 20
171.6896821726
 10
349.4835469498
 20
172.4806252818
 10
349.4375407003
 20
173.2419979941
 10
349.4188165096
 20
173.4999889898
  0
LINE
  5
6B4
100
AcDbEntity
  8
BEZUGSACHSEN
100
AcDbLine
 62
7
  6
CONTINUOUS
 10
347.5613903162
 20
44.3263753231
 11
347.5613903162
 21
180.2375106326
  0
LINE
  5
6B5
100
AcDbEntity
  8
BEZUGSACHSEN
100
AcDbLine
 62
7
  6
CONTINUOUS
 10
349.5613903162
 20
169.2214860059
 11
349.5613903162
 21
137.6279065417
  0
LINE
  5
6B6
100
AcDbEntity
  8
BEZUGSACHSEN
100
AcDbLine
 62
7
  6
CONTINUOUS
 10
349.5613903162
 20
55.3423999497
 11
349.5613903162
 21
86.935979414
  0
LWPOLYLINE
  5
6B7
100
AcDbEntity
  8
BEZUGSACHSEN
100
AcDbPolyline
 62
7
  6
CONTINUOUS
 90
7
 70
0
 10
349.4188165096
 20
51.0638969659
 10
349.4375407003
 20
51.3218879615
 10
349.4835469498
 20
52.0832606738
 10
349.5184567668
 20
52.8742037831
 10
349.5428614384
 20
53.6950598527
 10
349.5571593607
 20
54.5466497992
 10
349.5613902749
 20
55.3411094031
  0
LINE
  5
6B8
100
AcDbEntity
  8
RUNDUNGEN
100
AcDbLine
 62
7
  6
CONTINUOUS
 10
365.0613903162
 20
69.7819429778
 11
365.0613903162
 21
154.7819429778
  0
LWPOLYLINE
  5
6B9
100
AcDbEntity
  8
BEZUGSACHSEN
100
AcDbPolyline
 62
7
  6
CONTINUOUS
 90
19
 70
0
 10
328.4218039962
 20
190.2809657437
 10
327.4999658392
 20
190.2400208036
 10
326.5847912845
 20
190.1393103967
 10
325.6830429673
 20
189.9802585853
 10
324.8002658287
 20
189.7650353517
 10
323.9415502012
 20
189.4964794373
 10
323.1115761075
 20
189.1780510483
 10
322.3145493747
 20
188.8137686793
 10
321.5540427796
 20
188.4080794851
 10
320.8333297711
 20
187.9659889066
 10
320.1550112902
 20
187.4928425344
 10
319.5208024392
 20
186.9940609002
 10
318.932202315
 20
186.4755672143
 10
318.388565149
 20
185.9419113054
 10
317.8893926432
 20
185.3979689808
 10
317.4329883383
 20
184.8474711296
 10
317.0174764543
 20
184.2938338775
 10
316.6411492038
 20
183.7406587952
 10
316.2820059973
 20
183.1570302469
  0
LINE
  5
6BA
100
AcDbEntity
  8
BEZUGSACHSEN
100
AcDbLine
 62
7
  6
CONTINUOUS
 10
328.5753548941
 20
190.2819371704
 11
328.4218039962
 21
190.2809657437
  0
LINE
  5
6BB
100
AcDbEntity
  8
BEZUGSACHSEN
100
AcDbLine
 62
7
  6
CONTINUOUS
 10
334.5474208822
 20
190.2819371748
 11
328.5753548941
 21
190.2819371704
  0
LINE
  5
6BC
100
AcDbEntity
  8
BEZUGSACHSEN
100
AcDbLine
 62
7
  6
CONTINUOUS
 10
334.7008527008
 20
190.2809672
 11
334.5474208822
 21
190.2819371748
  0
LWPOLYLINE
  5
6BD
100
AcDbEntity
  8
BEZUGSACHSEN
100
AcDbPolyline
 62
7
  6
CONTINUOUS
 90
19
 70
0
 10
346.8407747008
 20
183.1570301345
 10
346.482084037
 20
183.7399598708
 10
346.1056951612
 20
184.2932863526
 10
345.6900968472
 20
184.8470847822
 10
345.2335724546
 20
185.3977573428
 10
344.7342583194
 20
185.9418669643
 10
344.1904675001
 20
186.4756703617
 10
343.6017155695
 20
186.9942797374
 10
342.9673784226
 20
187.493132443
 10
342.2889564137
 20
187.9663128281
 10
341.5681737035
 20
188.4084028057
 10
340.8076300029
 20
188.8140662827
 10
340.0105996095
 20
189.1783051866
 10
339.1806523419
 20
189.4966806169
 10
338.3219901129
 20
189.7651812783
 10
337.4392899591
 20
189.9803525941
 10
336.5376379931
 20
190.1393606883
 10
335.6225739775
 20
190.2400393877
 10
334.7008527008
 20
190.2809672
  0
ARC
  5
6BE
100
AcDbEntity
  8
RUNDUNGEN
100
AcDbCircle
 62
7
  6
CONTINUOUS
 10
330.0613903162
 20
351.9198696378
 40
35.0
100
AcDbArc
 50
270.0
 51
63.7090351991
  0
ARC
  5
6BF
100
AcDbEntity
  8
0
100
AcDbCircle
 62
7
  6
CONTINUOUS
 10
326.4230168157
 20
351.273781265
 40
12.8284654038
100
AcDbArc
 50
184.8994161697
 51
186.3763124039
  0
ARC
  5
6C0
100
AcDbEntity
  8
RUNDUNGEN
100
AcDbCircle
 62
7
  6
CONTINUOUS
 10
230.0613903162
 20
381.9198696378
 40
5.0
100
AcDbArc
 50
90.0
 51
180.0
  0
ARC
  5
6C1
100
AcDbEntity
  8
RUNDUNGEN
100
AcDbCircle
 62
7
  6
CONTINUOUS
 10
230.0613903162
 20
321.9198696378
 40
5.0
100
AcDbArc
 50
180.0
 51
270.0
  0
ARC
  5
6C2
100
AcDbEntity
  8
0
100
AcDbCircle
 62
7
  6
CONTINUOUS
 10
227.692743259
 20
331.1864872915
 40
3.1313529428
100
AcDbArc
 50
180.0004004501
 51
182.1498829058
  0
ARC
  5
6C3
100
AcDbEntity
  8
0
100
AcDbCircle
 62
7
  6
CONTINUOUS
 10
227.692743259
 20
326.6621881365
 40
3.1313529428
100
AcDbArc
 50
177.8501170942
 51
179.9995995499
  0
ARC
  5
6C4
100
AcDbEntity
  8
0
100
AcDbCircle
 62
7
  6
CONTINUOUS
 10
226.5664777325
 20
325.4465810834
 40
2.005087401
100
AcDbArc
 50
175.9528935383
 51
182.7646218464
  0
ARC
  5
6C5
100
AcDbEntity
  8
0
100
AcDbCircle
 62
7
  6
CONTINUOUS
 10
226.5664773819
 20
332.4020941862
 40
2.0050870503
100
AcDbArc
 50
177.2353779118
 51
184.0471068152
  0
ARC
  5
6C6
100
AcDbEntity
  8
BEZUGSACHSEN
100
AcDbCircle
 62
7
  6
CONTINUOUS
 10
155.3078068304
 20
513.2821585114
 40
191.8625917077
100
AcDbArc
 50
353.7645978455
 51
354.0756126905
  0
ARC
  5
6C7
100
AcDbEntity
  8
BEZUGSACHSEN
100
AcDbCircle
 62
7
  6
CONTINUOUS
 10
247.3541040745
 20
532.5552864313
 40
102.2969599647
100
AcDbArc
 50
354.8516164155
 51
355.3613392636
  0
ARC
  5
6C8
100
AcDbEntity
  8
RUNDUNGEN
100
AcDbCircle
 62
7
  6
CONTINUOUS
 10
267.5613903162
 20
485.2994806736
 40
50.0
100
AcDbArc
 50
0.0
 51
6.0
  0
ARC
  5
6C9
100
AcDbEntity
  8
BEZUGSACHSEN
100
AcDbCircle
 62
7
  6
CONTINUOUS
 10
299.5613903162
 20
528.5977164188
 40
50.0
100
AcDbArc
 50
353.9999798708
 51
359.9999004571
  0
ARC
  5
6CA
100
AcDbEntity
  8
BEZUGSACHSEN
100
AcDbCircle
 62
7
  6
CONTINUOUS
 10
309.7454086272
 20
527.4907647014
 40
39.7004404845
100
AcDbArc
 50
355.3645941651
 51
5.0284166266
  0
ARC
  5
6CB
100
AcDbEntity
  8
BEZUGSACHSEN
100
AcDbCircle
 62
7
  6
CONTINUOUS
 10
306.748615508
 20
496.7245301259
 40
39.5205424722
100
AcDbArc
 50
350.9845334247
 51
352.6022855179
  0
ARC
  5
6CC
100
AcDbEntity
  8
RUNDUNGEN
100
AcDbCircle
 62
7
  6
CONTINUOUS
 10
299.5613903162
 20
486.9765296107
 40
20.0
100
AcDbArc
 50
0.0
 51
6.0
  0
ARC
  5
6CD
100
AcDbEntity
  8
BEZUGSACHSEN
100
AcDbCircle
 62
7
  6
CONTINUOUS
 10
327.5613903162
 20
527.1302985989
 40
20.0
100
AcDbArc
 50
354.0
 51
360.0
  0
ARC
  5
6CE
100
AcDbEntity
  8
RUNDUNGEN
100
AcDbCircle
 62
7
  6
CONTINUOUS
 10
331.5613903162
 20
351.9198696378
 40
18.5
100
AcDbArc
 50
151.0077269122
 51
28.9922730826
  0
ARC
  5
6CF
100
AcDbEntity
  8
0
100
AcDbCircle
 62
7
  6
CONTINUOUS
 10
331.5613903162
 20
351.9198696378
 40
18.0
100
AcDbArc
 50
156.0660396118
 51
179.9999996835
  0
ARC
  5
6D0
100
AcDbEntity
  8
BEZUGSACHSEN
100
AcDbCircle
 62
7
  6
CONTINUOUS
 10
331.5613903162
 20
351.9198696378
 40
18.0
100
AcDbArc
 50
251.9531550723
 51
269.4965194711
  0
ARC
  5
6D1
100
AcDbEntity
  8
BEZUGSACHSEN
100
AcDbCircle
 62
7
  6
CONTINUOUS
 10
331.5613903162
 20
351.9198696378
 40
18.0
100
AcDbArc
 50
270.5034805211
 51
288.0491489871
  0
ARC
  5
6D2
100
AcDbEntity
  8
BEZUGSACHSEN
100
AcDbCircle
 62
7
  6
CONTINUOUS
 10
331.5613903162
 20
351.9198696378
 40
18.0
100
AcDbArc
 50
0.0000003165
 51
23.9344795452
  0
ARC
  5
6D3
100
AcDbEntity
  8
BEZUGSACHSEN
100
AcDbCircle
 62
7
  6
CONTINUOUS
 10
331.5931924368
 20
351.8572269229
 40
17.9399345145
100
AcDbArc
 50
287.67268673
 51
287.8332916651
  0
ARC
  5
6D4
100
AcDbEntity
  8
BEZUGSACHSEN
100
AcDbCircle
 62
7
  6
CONTINUOUS
 10
336.6997815885
 20
351.2737795419
 40
12.8284475498
100
AcDbArc
 50
353.6236738116
 51
355.1005847188
  0
ARC
  5
6D5
100
AcDbEntity
  8
RUNDUNGEN
100
AcDbCircle
 62
7
  6
CONTINUOUS
 10
507.8149738165
 20
513.2821585129
 40
191.8625917223
100
AcDbArc
 50
185.9243873096
 51
186.2354021544
  0
ARC
  5
6D6
100
AcDbEntity
  8
0
100
AcDbCircle
 62
7
  6
CONTINUOUS
 10
415.7686765555
 20
532.5552864311
 40
102.2969599622
100
AcDbArc
 50
184.6386607364
 51
185.1483835846
  0
ARC
  5
6D7
100
AcDbEntity
  8
RUNDUNGEN
100
AcDbCircle
 62
7
  6
CONTINUOUS
 10
363.5613903162
 20
528.5977164188
 40
50.0
100
AcDbArc
 50
180.0004416315
 51
186.0
  0
ARC
  5
6D8
100
AcDbEntity
  8
BEZUGSACHSEN
100
AcDbCircle
 62
7
  6
CONTINUOUS
 10
395.5613903162
 20
485.2994806736
 40
50.0
100
AcDbArc
 50
174.0
 51
180.0
  0
ARC
  5
6D9
100
AcDbEntity
  8
BEZUGSACHSEN
100
AcDbCircle
 62
7
  6
CONTINUOUS
 10
363.5613903162
 20
528.5977164188
 40
50.0
100
AcDbArc
 50
182.5613908778
 51
182.9080450117
  0
ARC
  5
6DA
100
AcDbEntity
  8
0
100
AcDbCircle
 62
7
  6
CONTINUOUS
 10
353.3773720052
 20
527.4907647014
 40
39.7004404845
100
AcDbArc
 50
174.9715833734
 51
184.6354058349
  0
ARC
  5
6DB
100
AcDbEntity
  8
RUNDUNGEN
100
AcDbCircle
 62
7
  6
CONTINUOUS
 10
356.3741651244
 20
496.7245301259
 40
39.5205424722
100
AcDbArc
 50
187.3977144821
 51
189.0154665753
  0
ARC
  5
6DC
100
AcDbEntity
  8
RUNDUNGEN
100
AcDbCircle
 62
7
  6
CONTINUOUS
 10
335.5613903162
 20
527.1302985989
 40
20.0
100
AcDbArc
 50
180.0
 51
186.0
  0
ARC
  5
6DD
100
AcDbEntity
  8
BEZUGSACHSEN
100
AcDbCircle
 62
7
  6
CONTINUOUS
 10
363.5613903162
 20
486.9765296107
 40
20.0
100
AcDbArc
 50
174.0
 51
180.0
  0
ARC
  5
6DE
100
AcDbEntity
  8
BEZUGSACHSEN
100
AcDbCircle
 62
7
  6
CONTINUOUS
 10
331.5613903162
 20
547.9198695568
 40
18.0
100
AcDbArc
 50
157.1146192408
 51
179.9999997993
  0
ARC
  5
6DF
100
AcDbEntity
  8
BEZUGSACHSEN
100
AcDbCircle
 62
7
  6
CONTINUOUS
 10
331.5613903162
 20
547.9198695568
 40
18.0
100
AcDbArc
 50
27.2660444304
 51
152.7339555696
  0
ARC
  5
6E0
100
AcDbEntity
  8
BEZUGSACHSEN
100
AcDbCircle
 62
7
  6
CONTINUOUS
 10
331.5613903162
 20
547.9198695568
 40
18.0
100
AcDbArc
 50
0.0000002007
 51
22.8853807592
  0
ARC
  5
6E1
100
AcDbEntity
  8
BEZUGSACHSEN
100
AcDbCircle
 62
7
  6
CONTINUOUS
 10
-4975.1439919169
 20
379.5400337203
 40
5583.3208221583
100
AcDbArc
 50
359.8391282544
 51
0.0242801405
  0
ARC
  5
6E2
100
AcDbEntity
  8
BEZUGSACHSEN
100
AcDbCircle
 62
7
  6
CONTINUOUS
 10
513.9278524137
 20
379.142641851
 40
42.2772278598
100
AcDbArc
 50
90.0020393977
 51
91.881863961
  0
ARC
  5
6E3
100
AcDbEntity
  8
BEZUGSACHSEN
100
AcDbCircle
 62
7
  6
CONTINUOUS
 10
492.1763463569
 20
381.9198696378
 40
12.0
100
AcDbArc
 50
180.0
 51
217.6298348675
  0
ARC
  5
6E4
100
AcDbEntity
  8
RUNDUNGEN
100
AcDbCircle
 62
7
  6
CONTINUOUS
 10
487.6763463569
 20
321.9198696378
 40
5.0
100
AcDbArc
 50
180.0
 51
270.0
  0
ARC
  5
6E5
100
AcDbEntity
  8
RUNDUNGEN
100
AcDbCircle
 62
7
  6
CONTINUOUS
 10
487.6763463569
 20
381.9198696378
 40
5.0
100
AcDbArc
 50
90.0
 51
180.0
  0
ARC
  5
6E6
100
AcDbEntity
  8
BEZUGSACHSEN
100
AcDbCircle
 62
7
  6
CONTINUOUS
 10
427.3853537992
 20
485.2949712785
 40
31.5798903288
100
AcDbArc
 50
0.0081814506
 51
3.0523152994
  0
ARC
  5
6E7
100
AcDbEntity
  8
BEZUGSACHSEN
100
AcDbCircle
 62
7
  6
CONTINUOUS
 10
427.7298530846
 20
490.7394536255
 40
31.2353910445
100
AcDbArc
 50
356.9308946179
 51
359.9917586476
  0
ARC
  5
6E8
100
AcDbEntity
  8
BEZUGSACHSEN
100
AcDbCircle
 62
7
  6
CONTINUOUS
 10
478.5321498118
 20
488.0218142434
 40
19.6395436322
100
AcDbArc
 50
176.9490783137
 51
183.0509216863
  0
ARC
  5
6E9
100
AcDbEntity
  8
BEZUGSACHSEN
100
AcDbCircle
 62
7
  6
CONTINUOUS
 10
462.1752297478
 20
493.6961739217
 40
4.0
100
AcDbArc
 50
329.0
 51
24.0
  0
ARC
  5
6EA
100
AcDbEntity
  8
BEZUGSACHSEN
100
AcDbCircle
 62
7
  6
CONTINUOUS
 10
464.5891858336
 20
507.943086467
 40
4.0
100
AcDbArc
 50
154.0
 51
204.0
  0
ARC
  5
6EB
100
AcDbEntity
  8
BEZUGSACHSEN
100
AcDbCircle
 62
7
  6
CONTINUOUS
 10
477.0272124943
 20
533.4448203111
 40
4.0
100
AcDbArc
 50
108.0
 51
154.0
  0
ARC
  5
6EC
100
AcDbEntity
  8
BEZUGSACHSEN
100
AcDbCircle
 62
7
  6
CONTINUOUS
 10
530.1309583202
 20
454.8185329175
 40
111.1108154026
100
AcDbArc
 50
62.2552426137
 51
69.4902554266
  0
ARC
  5
6ED
100
AcDbEntity
  8
BEZUGSACHSEN
100
AcDbCircle
 62
7
  6
CONTINUOUS
 10
530.1704577573
 20
454.8212684109
 40
111.0986012862
100
AcDbArc
 50
83.1675699128
 51
89.9969631309
  0
ARC
  5
6EE
100
AcDbEntity
  8
BEZUGSACHSEN
100
AcDbCircle
 62
7
  6
CONTINUOUS
 10
530.1587643628
 20
454.8226704572
 40
111.0986009372
100
AcDbArc
 50
76.3321569852
 51
83.1614962013
  0
ARC
  5
6EF
100
AcDbEntity
  8
BEZUGSACHSEN
100
AcDbCircle
 62
7
  6
CONTINUOUS
 10
530.1473218504
 20
454.8254564021
 40
111.0985982928
100
AcDbArc
 50
69.4969084894
 51
76.3260834626
  0
ARC
  5
6F0
100
AcDbEntity
  8
BEZUGSACHSEN
100
AcDbCircle
 62
7
  6
CONTINUOUS
 10
530.133171506
 20
454.8477340457
 40
111.0839418183
100
AcDbArc
 50
55.946588235
 51
62.2492412288
  0
ARC
  5
6F1
100
AcDbEntity
  8
BEZUGSACHSEN
100
AcDbCircle
 62
7
  6
CONTINUOUS
 10
530.1761074542
 20
454.9209228463
 40
101.2451579548
100
AcDbArc
 50
89.9998648023
 51
124.0560195622
  0
ARC
  5
6F2
100
AcDbEntity
  8
BEZUGSACHSEN
100
AcDbCircle
 62
7
  6
CONTINUOUS
 10
530.1762111016
 20
454.9176586236
 40
75.0022150589
100
AcDbArc
 50
86.2058094609
 51
86.7929128112
  0
ARC
  5
6F3
100
AcDbEntity
  8
BEZUGSACHSEN
100
AcDbCircle
 62
7
  6
CONTINUOUS
 10
530.1760919679
 20
454.9180381153
 40
75.0018490204
100
AcDbArc
 50
81.8023387869
 51
82.3893783753
  0
ARC
  5
6F4
100
AcDbEntity
  8
BEZUGSACHSEN
100
AcDbCircle
 62
7
  6
CONTINUOUS
 10
530.1761396533
 20
454.9180363319
 40
75.0018448378
100
AcDbArc
 50
83.2702400221
 51
83.8573849673
  0
ARC
  5
6F5
100
AcDbEntity
  8
BEZUGSACHSEN
100
AcDbCircle
 62
7
  6
CONTINUOUS
 10
530.1759178787
 20
454.9181373647
 40
75.0017843747
100
AcDbArc
 50
75.4886848429
 51
76.4546226363
  0
ARC
  5
6F6
100
AcDbEntity
  8
BEZUGSACHSEN
100
AcDbCircle
 62
7
  6
CONTINUOUS
 10
530.176238902
 20
454.9186433011
 40
75.0012309509
100
AcDbArc
 50
84.7380098099
 51
85.6186641478
  0
ARC
  5
6F7
100
AcDbEntity
  8
BEZUGSACHSEN
100
AcDbCircle
 62
7
  6
CONTINUOUS
 10
530.1763035431
 20
454.9186396995
 40
75.0012305988
100
AcDbArc
 50
87.3800581205
 51
88.3737335363
  0
ARC
  5
6F8
100
AcDbEntity
  8
BEZUGSACHSEN
100
AcDbCircle
 62
7
  6
CONTINUOUS
 10
530.1761431039
 20
454.9189231687
 40
75.0009679555
100
AcDbArc
 50
77.2165918074
 51
77.6935569716
  0
ARC
  5
6F9
100
AcDbEntity
  8
BEZUGSACHSEN
100
AcDbCircle
 62
7
  6
CONTINUOUS
 10
530.1761438493
 20
454.9189538297
 40
75.0009378421
100
AcDbArc
 50
77.7796313051
 51
78.2540589873
  0
ARC
  5
6FA
100
AcDbEntity
  8
BEZUGSACHSEN
100
AcDbCircle
 62
7
  6
CONTINUOUS
 10
530.1763352939
 20
454.9192347893
 40
75.0006348345
100
AcDbArc
 50
89.1868752281
 51
89.9999915486
  0
ARC
  5
6FB
100
AcDbEntity
  8
BEZUGSACHSEN
100
AcDbCircle
 62
7
  6
CONTINUOUS
 10
530.1762408848
 20
454.9193531245
 40
75.0005270323
100
AcDbArc
 50
78.8663497142
 51
79.6012950171
  0
ARC
  5
6FC
100
AcDbEntity
  8
BEZUGSACHSEN
100
AcDbCircle
 62
7
  6
CONTINUOUS
 10
530.1762677534
 20
454.9193544301
 40
75.0005210326
100
AcDbArc
 50
80.1889236507
 51
80.9220300254
  0
ARC
  5
6FD
100
AcDbEntity
  8
BEZUGSACHSEN
100
AcDbCircle
 62
7
  6
CONTINUOUS
 10
530.176132708
 20
454.9209034028
 40
74.9989443753
100
AcDbArc
 50
101.1336500027
 51
101.7459329431
  0
ARC
  5
6FE
100
AcDbEntity
  8
BEZUGSACHSEN
100
AcDbCircle
 62
7
  6
CONTINUOUS
 10
530.1762947838
 20
454.9209760087
 40
74.9988924172
100
AcDbArc
 50
92.6199514335
 51
93.2070864671
  0
ARC
  5
6FF
100
AcDbEntity
  8
BEZUGSACHSEN
100
AcDbCircle
 62
7
  6
CONTINUOUS
 10
530.1762626584
 20
454.9209744904
 40
74.9988919711
100
AcDbArc
 50
93.7941912618
 51
94.3813262986
  0
ARC
  5
700
100
AcDbEntity
  8
BEZUGSACHSEN
100
AcDbCircle
 62
7
  6
CONTINUOUS
 10
530.1763053618
 20
454.9217294301
 40
74.9981397529
100
AcDbArc
 50
90.8131243452
 51
91.6262662798
  0
ARC
  5
701
100
AcDbEntity
  8
BEZUGSACHSEN
100
AcDbCircle
 62
7
  6
CONTINUOUS
 10
530.1758733115
 20
454.9219061958
 40
74.9979092255
100
AcDbArc
 50
102.7834085803
 51
103.5453768142
  0
ARC
  5
702
100
AcDbEntity
  8
BEZUGSACHSEN
100
AcDbCircle
 62
7
  6
CONTINUOUS
 10
530.1759216639
 20
454.9226649594
 40
74.997172599
100
AcDbArc
 50
98.1976610525
 51
99.0779701346
  0
ARC
  5
703
100
AcDbEntity
  8
BEZUGSACHSEN
100
AcDbCircle
 62
7
  6
CONTINUOUS
 10
530.1760651635
 20
454.9226856044
 40
74.997170027
100
AcDbArc
 50
95.2619900295
 51
95.8490755746
  0
ARC
  5
704
100
AcDbEntity
  8
BEZUGSACHSEN
100
AcDbCircle
 62
7
  6
CONTINUOUS
 10
530.1759929128
 20
454.9226793622
 40
74.9971681307
100
AcDbArc
 50
96.7297598173
 51
97.6106217856
  0
ARC
  5
705
100
AcDbEntity
  8
BEZUGSACHSEN
100
AcDbCircle
 62
7
  6
CONTINUOUS
 10
530.1758298378
 20
454.9227710796
 40
74.997052941
100
AcDbArc
 50
99.8110763295
 51
100.3987050034
  0
ARC
  5
706
100
AcDbEntity
  8
BEZUGSACHSEN
100
AcDbCircle
 62
7
  6
CONTINUOUS
 10
488.1763463569
 20
517.0568151694
 40
36.0
100
AcDbArc
 50
124.0557977426
 51
179.999946333
  0
ARC
  5
707
100
AcDbEntity
  8
BEZUGSACHSEN
100
AcDbCircle
 62
7
  6
CONTINUOUS
 10
480.8317809336
 20
519.2338954188
 40
20.2168886637
100
AcDbArc
 50
153.648612091
 51
157.0091269391
  0
ARC
  5
708
100
AcDbEntity
  8
BEZUGSACHSEN
100
AcDbCircle
 62
7
  6
CONTINUOUS
 10
492.1763463569
 20
505.1692477434
 40
12.0
100
AcDbArc
 50
127.0976017452
 51
180.0000090549
  0
ARC
  5
709
100
AcDbEntity
  8
BEZUGSACHSEN
100
AcDbCircle
 62
7
  6
CONTINUOUS
 10
6035.4966845574
 20
379.5400337202
 40
5583.3208220851
100
AcDbArc
 50
179.9757198595
 51
180.1608717456
  0
ARC
  5
70A
100
AcDbEntity
  8
BEZUGSACHSEN
100
AcDbCircle
 62
7
  6
CONTINUOUS
 10
568.1763463569
 20
381.9198696378
 40
12.0
100
AcDbArc
 50
322.3701651325
 51
360.0
  0
ARC
  5
70B
100
AcDbEntity
  8
RUNDUNGEN
100
AcDbCircle
 62
7
  6
CONTINUOUS
 10
572.6763463569
 20
321.9198696378
 40
5.0
100
AcDbArc
 50
270.0
 51
360.0
  0
ARC
  5
70C
100
AcDbEntity
  8
RUNDUNGEN
100
AcDbCircle
 62
7
  6
CONTINUOUS
 10
572.6763463569
 20
381.9198696378
 40
5.0
100
AcDbArc
 50
0.0
 51
90.0
  0
ARC
  5
70D
100
AcDbEntity
  8
BEZUGSACHSEN
100
AcDbCircle
 62
7
  6
CONTINUOUS
 10
530.2217343936
 20
454.8185329175
 40
111.1108154026
100
AcDbArc
 50
110.5097445734
 51
117.7447573863
  0
ARC
  5
70E
100
AcDbEntity
  8
BEZUGSACHSEN
100
AcDbCircle
 62
7
  6
CONTINUOUS
 10
530.1822349566
 20
454.8212684109
 40
111.0986012862
100
AcDbArc
 50
90.0030368691
 51
96.8324300872
  0
ARC
  5
70F
100
AcDbEntity
  8
BEZUGSACHSEN
100
AcDbCircle
 62
7
  6
CONTINUOUS
 10
530.193928351
 20
454.8226704572
 40
111.0986009372
100
AcDbArc
 50
96.8385037987
 51
103.6678430148
  0
ARC
  5
710
100
AcDbEntity
  8
BEZUGSACHSEN
100
AcDbCircle
 62
7
  6
CONTINUOUS
 10
530.2053708634
 20
454.8254564021
 40
111.0985982928
100
AcDbArc
 50
103.6739165374
 51
110.5030915106
  0
ARC
  5
711
100
AcDbEntity
  8
BEZUGSACHSEN
100
AcDbCircle
 62
7
  6
CONTINUOUS
 10
530.2195212078
 20
454.8477340457
 40
111.0839418183
100
AcDbArc
 50
117.7507587712
 51
124.053411765
  0
ARC
  5
712
100
AcDbEntity
  8
BEZUGSACHSEN
100
AcDbCircle
 62
7
  6
CONTINUOUS
 10
530.1765852596
 20
454.9209228463
 40
101.2451579548
100
AcDbArc
 50
55.9439804378
 51
90.0001351977
  0
ARC
  5
713
100
AcDbEntity
  8
BEZUGSACHSEN
100
AcDbCircle
 62
7
  6
CONTINUOUS
 10
530.1764816122
 20
454.9176586236
 40
75.0022150589
100
AcDbArc
 50
93.2070871888
 51
93.7941905391
  0
ARC
  5
714
100
AcDbEntity
  8
BEZUGSACHSEN
100
AcDbCircle
 62
7
  6
CONTINUOUS
 10
530.1766007459
 20
454.9180381153
 40
75.0018490204
100
AcDbArc
 50
97.6106216247
 51
98.1976612131
  0
ARC
  5
715
100
AcDbEntity
  8
BEZUGSACHSEN
100
AcDbCircle
 62
7
  6
CONTINUOUS
 10
530.1764538119
 20
454.9186433011
 40
75.0012309509
100
AcDbArc
 50
94.3813358522
 51
95.2619901901
  0
ARC
  5
716
100
AcDbEntity
  8
BEZUGSACHSEN
100
AcDbCircle
 62
7
  6
CONTINUOUS
 10
530.1763891708
 20
454.9186396995
 40
75.0012305988
100
AcDbArc
 50
91.6262664637
 51
92.6199418795
  0
ARC
  5
717
100
AcDbEntity
  8
BEZUGSACHSEN
100
AcDbCircle
 62
7
  6
CONTINUOUS
 10
530.1765496099
 20
454.9189231687
 40
75.0009679555
100
AcDbArc
 50
102.3064430284
 51
102.7834081926
  0
ARC
  5
718
100
AcDbEntity
  8
BEZUGSACHSEN
100
AcDbCircle
 62
7
  6
CONTINUOUS
 10
530.1765488646
 20
454.9189538297
 40
75.0009378421
100
AcDbArc
 50
101.7459410127
 51
102.2203686949
  0
ARC
  5
719
100
AcDbEntity
  8
BEZUGSACHSEN
100
AcDbCircle
 62
7
  6
CONTINUOUS
 10
530.1763574199
 20
454.9192347893
 40
75.0006348345
100
AcDbArc
 50
90.0000084514
 51
90.8131247719
  0
ARC
  5
71A
100
AcDbEntity
  8
BEZUGSACHSEN
100
AcDbCircle
 62
7
  6
CONTINUOUS
 10
530.1764518291
 20
454.9193531245
 40
75.0005270323
100
AcDbArc
 50
100.3987049829
 51
101.1336502858
  0
ARC
  5
71B
100
AcDbEntity
  8
BEZUGSACHSEN
100
AcDbCircle
 62
7
  6
CONTINUOUS
 10
530.1764249605
 20
454.9193544301
 40
75.0005210326
100
AcDbArc
 50
99.0779699746
 51
99.8110763493
  0
ARC
  5
71C
100
AcDbEntity
  8
BEZUGSACHSEN
100
AcDbCircle
 62
7
  6
CONTINUOUS
 10
530.1763463569
 20
454.9198696378
 40
75.0
100
AcDbArc
 50
52.9023982077
 51
75.4877891456
  0
ARC
  5
71D
100
AcDbEntity
  8
RUNDUNGEN
100
AcDbCircle
 62
7
  6
CONTINUOUS
 10
530.1763463569
 20
454.9198696378
 40
75.0
100
AcDbArc
 50
52.9023982077
 51
54.2644429271
  0
ARC
  5
71E
100
AcDbEntity
  8
BEZUGSACHSEN
100
AcDbCircle
 62
7
  6
CONTINUOUS
 10
530.1763463569
 20
454.9198696378
 40
75.0
100
AcDbArc
 50
103.5453773637
 51
127.0976017923
  0
ARC
  5
71F
100
AcDbEntity
  8
BEZUGSACHSEN
100
AcDbCircle
 62
7
  6
CONTINUOUS
 10
530.1763428218
 20
454.9199937668
 40
74.9998761461
100
AcDbArc
 50
95.8490770199
 51
96.7297599779
  0
ARC
  5
720
100
AcDbEntity
  8
BEZUGSACHSEN
100
AcDbCircle
 62
7
  6
CONTINUOUS
 10
530.1765600058
 20
454.9209034028
 40
74.9989443753
100
AcDbArc
 50
78.2540670569
 51
78.8663499973
  0
ARC
  5
721
100
AcDbEntity
  8
BEZUGSACHSEN
100
AcDbCircle
 62
7
  6
CONTINUOUS
 10
530.1763979301
 20
454.9209760087
 40
74.9988924172
100
AcDbArc
 50
86.7929135329
 51
87.3800485665
  0
ARC
  5
722
100
AcDbEntity
  8
BEZUGSACHSEN
100
AcDbCircle
 62
7
  6
CONTINUOUS
 10
530.1764300555
 20
454.9209744904
 40
74.9988919711
100
AcDbArc
 50
85.6186737014
 51
86.2058087382
  0
ARC
  5
723
100
AcDbEntity
  8
BEZUGSACHSEN
100
AcDbCircle
 62
7
  6
CONTINUOUS
 10
530.176387352
 20
454.9217294301
 40
74.9981397529
100
AcDbArc
 50
88.3737337202
 51
89.1868756548
  0
ARC
  5
724
100
AcDbEntity
  8
BEZUGSACHSEN
100
AcDbCircle
 62
7
  6
CONTINUOUS
 10
530.1768194023
 20
454.9219061958
 40
74.9979092255
100
AcDbArc
 50
76.4546231858
 51
77.2165914197
  0
ARC
  5
725
100
AcDbEntity
  8
BEZUGSACHSEN
100
AcDbCircle
 62
7
  6
CONTINUOUS
 10
530.17677105
 20
454.9226649594
 40
74.997172599
100
AcDbArc
 50
80.9220298654
 51
81.8023389475
  0
ARC
  5
726
100
AcDbEntity
  8
BEZUGSACHSEN
100
AcDbCircle
 62
7
  6
CONTINUOUS
 10
530.1766275503
 20
454.9226856044
 40
74.997170027
100
AcDbArc
 50
83.8573848068
 51
84.7380099705
  0
ARC
  5
727
100
AcDbEntity
  8
BEZUGSACHSEN
100
AcDbCircle
 62
7
  6
CONTINUOUS
 10
530.176699801
 20
454.9226793622
 40
74.9971681307
100
AcDbArc
 50
82.3893782144
 51
83.2702401827
  0
ARC
  5
728
100
AcDbEntity
  8
BEZUGSACHSEN
100
AcDbCircle
 62
7
  6
CONTINUOUS
 10
530.176862876
 20
454.9227710796
 40
74.997052941
100
AcDbArc
 50
79.6012949966
 51
80.1889236705
  0
ARC
  5
729
100
AcDbEntity
  8
BEZUGSACHSEN
100
AcDbCircle
 62
7
  6
CONTINUOUS
 10
572.1763463569
 20
517.0568151694
 40
36.0
100
AcDbArc
 50
37.6873022613
 51
55.9442022574
  0
ARC
  5
72A
100
AcDbEntity
  8
RUNDUNGEN
100
AcDbCircle
 62
7
  6
CONTINUOUS
 10
572.1763463569
 20
517.0568151694
 40
36.0
100
AcDbArc
 50
0.000053667
 51
37.6873022613
  0
ARC
  5
72B
100
AcDbEntity
  8
RUNDUNGEN
100
AcDbCircle
 62
7
  6
CONTINUOUS
 10
579.5209117803
 20
519.2338954188
 40
20.2168886637
100
AcDbArc
 50
22.9908730609
 51
26.351387909
  0
ARC
  5
72C
100
AcDbEntity
  8
RUNDUNGEN
100
AcDbCircle
 62
7
  6
CONTINUOUS
 10
568.1763463569
 20
505.1692477434
 40
12.0
100
AcDbArc
 50
359.9999909451
 51
52.9023982548
  0
ARC
  5
72D
100
AcDbEntity
  8
RUNDUNGEN
100
AcDbCircle
 62
7
  6
CONTINUOUS
 10
632.9673389146
 20
485.2949712785
 40
31.5798903288
100
AcDbArc
 50
176.9476847006
 51
179.9918185494
  0
ARC
  5
72E
100
AcDbEntity
  8
RUNDUNGEN
100
AcDbCircle
 62
7
  6
CONTINUOUS
 10
632.6228396292
 20
490.7394536255
 40
31.2353910445
100
AcDbArc
 50
180.0082413524
 51
183.0691053821
  0
ARC
  5
72F
100
AcDbEntity
  8
RUNDUNGEN
100
AcDbCircle
 62
7
  6
CONTINUOUS
 10
581.820542902
 20
488.0218142434
 40
19.6395436322
100
AcDbArc
 50
356.9490783137
 51
3.0509216863
  0
ARC
  5
730
100
AcDbEntity
  8
0
100
AcDbCircle
 62
7
  6
CONTINUOUS
 10
593.9845158159
 20
461.6426868143
 40
4.5
100
AcDbArc
 50
174.2608295227
 51
5.7391704773
  0
ARC
  5
731
100
AcDbEntity
  8
0
100
AcDbCircle
 62
7
  6
CONTINUOUS
 10
593.9845158159
 20
453.9926868143
 40
4.5
100
AcDbArc
 50
174.2608295227
 51
5.7391704773
  0
ARC
  5
732
100
AcDbEntity
  8
RUNDUNGEN
100
AcDbCircle
 62
7
  6
CONTINUOUS
 10
598.177462966
 20
493.6961739217
 40
4.0
100
AcDbArc
 50
156.0
 51
211.0
  0
ARC
  5
733
100
AcDbEntity
  8
0
100
AcDbCircle
 62
7
  6
CONTINUOUS
 10
593.9845158159
 20
461.6426868143
 40
3.15
100
AcDbArc
 50
282.4667502568
 51
8.2132107017
  0
ARC
  5
734
100
AcDbEntity
  8
0
100
AcDbCircle
 62
7
  6
CONTINUOUS
 10
593.9845158159
 20
461.6426868143
 40
3.15
100
AcDbArc
 50
171.7867892983
 51
257.537869288
  0
ARC
  5
735
100
AcDbEntity
  8
0
100
AcDbCircle
 62
7
  6
CONTINUOUS
 10
593.9845158159
 20
453.9926868143
 40
3.15
100
AcDbArc
 50
171.7867892983
 51
8.2132107017
  0
ARC
  5
736
100
AcDbEntity
  8
RUNDUNGEN
100
AcDbCircle
 62
7
  6
CONTINUOUS
 10
595.7635068803
 20
507.943086467
 40
4.0
100
AcDbArc
 50
336.0
 51
26.0
  0
ARC
  5
737
100
AcDbEntity
  8
RUNDUNGEN
100
AcDbCircle
 62
7
  6
CONTINUOUS
 10
583.3254802196
 20
533.4448203111
 40
4.0
100
AcDbArc
 50
26.0
 51
72.0
  0
ARC
  5
738
100
AcDbEntity
  8
0
100
AcDbCircle
 62
7
  6
CONTINUOUS
 10
272.5613903162
 20
112.2819429778
 40
48.0
100
AcDbArc
 50
218.8889165169
 51
232.0365012141
  0
ARC
  5
739
100
AcDbEntity
  8
0
100
AcDbCircle
 62
7
  6
CONTINUOUS
 10
272.5613903162
 20
112.2819429778
 40
48.0
100
AcDbArc
 50
205.9024536511
 51
216.3766140949
  0
ARC
  5
73A
100
AcDbEntity
  8
0
100
AcDbCircle
 62
7
  6
CONTINUOUS
 10
272.5613903162
 20
112.2819429778
 40
48.0
100
AcDbArc
 50
153.625523741
 51
203.8084689044
  0
ARC
  5
73B
100
AcDbEntity
  8
0
100
AcDbCircle
 62
7
  6
CONTINUOUS
 10
272.5613903162
 20
112.2819429778
 40
48.0
100
AcDbArc
 50
140.5645621262
 51
151.3826087983
  0
ARC
  5
73C
100
AcDbEntity
  8
0
100
AcDbCircle
 62
7
  6
CONTINUOUS
 10
272.5613903162
 20
112.2819429778
 40
48.0
100
AcDbArc
 50
122.4839774488
 51
137.9382944068
  0
ARC
  5
73D
100
AcDbEntity
  8
RUNDUNGEN
100
AcDbCircle
 62
7
  6
CONTINUOUS
 10
272.5613903162
 20
112.2819429778
 40
47.5
100
AcDbArc
 50
90.0
 51
270.0
  0
ARC
  5
73E
100
AcDbEntity
  8
0
100
AcDbCircle
 62
7
  6
CONTINUOUS
 10
280.0613903162
 20
112.2819429778
 40
42.5
100
AcDbArc
 50
37.9508151033
 51
322.0491848967
  0
CIRCLE
  5
73F
100
AcDbEntity
  8
BEZUGSACHSEN
100
AcDbCircle
 62
7
  6
CONTINUOUS
 10
280.0613903162
 20
112.2819429778
 40
32.5
  0
ARC
  5
740
100
AcDbEntity
  8
RUNDUNGEN
100
AcDbCircle
 62
7
  6
CONTINUOUS
 10
331.1312943666
 20
52.2815718091
 40
17.4663049372
100
AcDbArc
 50
205.9571591302
 51
206.9399671445
  0
ARC
  5
741
100
AcDbEntity
  8
BEZUGSACHSEN
100
AcDbCircle
 62
7
  6
CONTINUOUS
 10
331.9914862663
 20
52.2815718088
 40
17.4663049366
100
AcDbArc
 50
333.0600328555
 51
334.0428408698
  0
ARC
  5
742
100
AcDbEntity
  8
0
100
AcDbCircle
 62
7
  6
CONTINUOUS
 10
323.3350759366
 20
51.7971393671
 40
9.6589833367
100
AcDbArc
 50
184.3536829083
 51
189.4360566733
  0
ARC
  5
743
100
AcDbEntity
  8
BEZUGSACHSEN
100
AcDbCircle
 62
7
  6
CONTINUOUS
 10
339.7877046958
 20
51.7971393671
 40
9.6589833367
100
AcDbArc
 50
350.5639433267
 51
355.6463170917
  0
ARC
  5
744
100
AcDbEntity
  8
RUNDUNGEN
100
AcDbCircle
 62
7
  6
CONTINUOUS
 10
360.0613903162
 20
69.7819429778
 40
5.0
100
AcDbArc
 50
270.0
 51
360.0
  0
ARC
  5
745
100
AcDbEntity
  8
BEZUGSACHSEN
100
AcDbCircle
 62
7
  6
CONTINUOUS
 10
331.9914862658
 20
172.2823141466
 40
17.4663049372
100
AcDbArc
 50
25.9571591302
 51
26.9399671445
  0
ARC
  5
746
100
AcDbEntity
  8
BEZUGSACHSEN
100
AcDbCircle
 62
7
  6
CONTINUOUS
 10
331.1312943661
 20
172.2823141468
 40
17.4663049366
100
AcDbArc
 50
153.0600328555
 51
154.0428408698
  0
ARC
  5
747
100
AcDbEntity
  8
BEZUGSACHSEN
100
AcDbCircle
 62
7
  6
CONTINUOUS
 10
339.7877046958
 20
172.7667465886
 40
9.6589833367
100
AcDbArc
 50
4.3536829083
 51
9.4360566733
  0
ARC
  5
748
100
AcDbEntity
  8
BEZUGSACHSEN
100
AcDbCircle
 62
7
  6
CONTINUOUS
 10
323.3350759366
 20
172.7667465886
 40
9.6589833367
100
AcDbArc
 50
170.5639433267
 51
175.6463170917
  0
ARC
  5
749
100
AcDbEntity
  8
RUNDUNGEN
100
AcDbCircle
 62
7
  6
CONTINUOUS
 10
360.0613903162
 20
154.7819429778
 40
5.0
100
AcDbArc
 50
0.0
 51
90.0
  0
SPLINE
  5
74A
100
AcDbEntity
  8
0
100
AcDbSpline
 62
7
  6
CONTINUOUS
 70
0
 71
3
 72
9
 73
5
 74
0
 42
0.0000001
 43
0.0000001
 44
0.0000000001
 40
0.0
 40
0.0
 40
0.0
 40
0.0
 40
0.216376581
 40
1.0
 40
1.0
 40
1.0
 40
1.0
 10
313.641424519
 20
350.1781516752
 30
0.0
 10
313.6304364812
 20
350.3033787897
 30
0.0
 10
313.5849542635
 20
350.8825494067
 30
0.0
 10
313.5613903279
 20
351.4637027729
 30
0.0
 10
313.5613902867
 20
351.9189643254
 30
0.0
  0
LINE
  5
74B
100
AcDbEntity
  8
BEZUGSACHSEN
100
AcDbLine
 62
7
  6
CONTINUOUS
 10
313.5613903162
 20
547.9198696198
 11
313.5613903162
 21
544.3993764011
  0
SPLINE
  5
74C
100
AcDbEntity
  8
BEZUGSACHSEN
100
AcDbSpline
 62
7
  6
CONTINUOUS
 70
0
 71
3
 72
14
 73
10
 74
0
 42
0.0000001
 43
0.0000001
 44
0.0000000001
 40
0.0
 40
0.0
 40
0.0
 40
0.0
 40
0.1340958307
 40
0.2693912346
 40
0.4025551095
 40
0.5320024289
 40
0.7760981884
 40
0.8901976722
 40
1.0
 40
1.0
 40
1.0
 40
1.0
 10
345.7783535925
 20
379.557489318
 30
0.0
 10
345.8613617437
 20
378.6589212416
 30
0.0
 10
345.9979506481
 20
376.851091236
 30
0.0
 10
346.2025010633
 20
374.1498888853
 30
0.0
 10
346.4257000518
 20
371.4814333692
 30
0.0
 10
346.7528067061
 20
368.0872290963
 30
0.0
 10
347.1418320759
 20
364.8280603541
 30
0.0
 10
347.5981208119
 20
361.7117875595
 30
0.0
 10
347.8386938568
 20
360.2243379071
 30
0.0
 10
347.9590415758
 20
359.4952928111
 30
0.0
  0
SPLINE
  5
74D
100
AcDbEntity
  8
0
100
AcDbSpline
 62
7
  6
CONTINUOUS
 70
0
 71
3
 72
14
 73
10
 74
0
 42
0.0000001
 43
0.0000001
 44
0.0000000001
 40
0.0
 40
0.0
 40
0.0
 40
0.0
 40
0.1340954799
 40
0.2693905811
 40
0.4025542687
 40
0.5320015472
 40
0.7760976843
 40
0.8901974915
 40
1.0
 40
1.0
 40
1.0
 40
1.0
 10
317.3444266529
 20
379.5574851293
 30
0.0
 10
317.2614201362
 20
378.6589341121
 30
0.0
 10
317.1248334049
 20
376.8511381279
 30
0.0
 10
316.9202870391
 20
374.1499856302
 30
0.0
 10
316.6970932516
 20
371.4815772707
 30
0.0
 10
316.3699948725
 20
368.0874272915
 30
0.0
 10
315.9809804476
 20
364.8283069318
 30
0.0
 10
315.5247046133
 20
361.7120783747
 30
0.0
 10
315.2841375748
 20
360.2246493023
 30
0.0
 10
315.1637922168
 20
359.4956148472
 30
0.0
  0
SPLINE
  5
74E
100
AcDbEntity
  8
BEZUGSACHSEN
100
AcDbSpline
 62
7
  6
CONTINUOUS
 70
0
 71
3
 72
9
 73
5
 74
0
 42
0.0000001
 43
0.0000001
 44
0.0000000001
 40
0.0
 40
0.0
 40
0.0
 40
0.0
 40
0.216376581
 40
1.0
 40
1.0
 40
1.0
 40
1.0
 10
349.4813561134
 20
350.1781516752
 30
0.0
 10
349.4923441512
 20
350.3033787897
 30
0.0
 10
349.5378263689
 20
350.8825494067
 30
0.0
 10
349.5613903045
 20
351.4637027729
 30
0.0
 10
349.5613903457
 20
351.9189643254
 30
0.0
  0
LINE
  5
74F
100
AcDbEntity
  8
BEZUGSACHSEN
100
AcDbLine
 62
7
  6
CONTINUOUS
 10
349.5613903162
 20
547.9198696198
 11
349.5613903162
 21
544.3993764011
  0
SPLINE
  5
750
100
AcDbEntity
  8
BEZUGSACHSEN
100
AcDbSpline
 62
7
  6
CONTINUOUS
 70
0
 71
3
 72
9
 73
5
 74
0
 42
0.0000001
 43
0.0000001
 44
0.0000000001
 40
0.0
 40
0.0
 40
0.0
 40
0.0
 40
0.2597410427
 40
1.0
 40
1.0
 40
1.0
 40
1.0
 10
331.5613811352
 20
333.9198592886
 30
0.0
 10
331.5621065142
 20
333.9198881846
 30
0.0
 10
331.560064841
 20
333.9242470317
 30
0.0
 10
331.562959609
 20
333.9268957084
 30
0.0
 10
331.5613903266
 20
333.9282440233
 30
0.0
  0
SPLINE
  5
751
100
AcDbEntity
  8
0
100
AcDbSpline
 62
7
  6
CONTINUOUS
 70
0
 71
3
 72
9
 73
5
 74
0
 42
0.0000001
 43
0.0000001
 44
0.0000000001
 40
0.0
 40
0.0
 40
0.0
 40
0.0
 40
0.3246148142
 40
1.0
 40
1.0
 40
1.0
 40
1.0
 10
314.434548424
 20
351.3971482034
 30
0.0
 10
314.434548424
 20
351.171797909
 30
0.0
 10
314.4178055124
 20
350.4776929465
 30
0.0
 10
314.3491295357
 20
349.7848261613
 30
0.0
 10
314.2722509215
 20
349.3223140026
 30
0.0
  0
SPLINE
  5
752
100
AcDbEntity
  8
0
100
AcDbSpline
 62
7
  6
CONTINUOUS
 70
0
 71
3
 72
21
 73
17
 74
0
 42
0.0000001
 43
0.0000001
 44
0.0000000001
 40
0.0
 40
0.0
 40
0.0
 40
0.0
 40
0.1778748975
 40
0.2419672939
 40
0.2914035074
 40
0.3277557711
 40
0.3533826007
 40
0.3731946834
 40
0.395413868
 40
0.4261139505
 40
0.4678307456
 40
0.5216831047
 40
0.588465127
 40
0.668858437
 40
0.763649948
 40
1.0
 40
1.0
 40
1.0
 40
1.0
 10
314.2722509215
 20
349.3223140026
 30
0.0
 10
314.2526461568
 20
349.2043681137
 30
0.0
 10
314.2217140143
 20
349.0442242398
 30
0.0
 10
314.1648970457
 20
348.8566887277
 30
0.0
 10
314.1266766747
 20
348.763053845
 30
0.0
 10
314.0881584885
 20
348.6987702852
 30
0.0
 10
314.047813333
 20
348.6587672424
 30
0.0
 10
313.9993169955
 20
348.6505703086
 30
0.0
 10
313.9558795575
 20
348.6788835003
 30
0.0
 10
313.9180046817
 20
348.7301918558
 30
0.0
 10
313.8802195237
 20
348.8066451075
 30
0.0
 10
313.8430716149
 20
348.9093473953
 30
0.0
 10
313.8064273144
 20
349.0395145085
 30
0.0
 10
313.7706149043
 20
349.1982197224
 30
0.0
 10
313.720653005
 20
349.4703521011
 30
0.0
 10
313.691598057
 20
349.691194421
 30
0.0
 10
313.6739093451
 20
349.8490766221
 30
0.0
  0
SPLINE
  5
753
100
AcDbEntity
  8
BEZUGSACHSEN
100
AcDbSpline
 62
7
  6
CONTINUOUS
 70
0
 71
3
 72
16
 73
12
 74
0
 42
0.0000001
 43
0.0000001
 44
0.0000000001
 40
0.0
 40
0.0
 40
0.0
 40
0.0
 40
0.0176345545
 40
0.0445377058
 40
0.082321031
 40
0.1296087574
 40
0.2455038443
 40
0.3802530361
 40
0.5264888996
 40
0.6800166028
 40
1.0
 40
1.0
 40
1.0
 40
1.0
 10
345.3486162261
 20
381.9199378965
 30
0.0
 10
345.36291264
 20
381.9199379053
 30
0.0
 10
345.396843856
 20
381.8985878342
 30
0.0
 10
345.4307787322
 20
381.8411086833
 30
0.0
 10
345.4654042235
 20
381.7568084172
 30
0.0
 10
345.5116922741
 20
381.600509219
 30
0.0
 10
345.5613222019
 20
381.3638253167
 30
0.0
 10
345.6127218198
 20
381.0462020338
 30
0.0
 10
345.6593164886
 20
380.6969899531
 30
0.0
 10
345.717077155
 20
380.1978811837
 30
0.0
 10
345.7544911659
 20
379.8158014778
 30
0.0
 10
345.7783535925
 20
379.557489318
 30
0.0
  0
SPLINE
  5
754
100
AcDbEntity
  8
BEZUGSACHSEN
100
AcDbSpline
 62
7
  6
CONTINUOUS
 70
0
 71
3
 72
9
 73
5
 74
0
 42
0.0000001
 43
0.0000001
 44
0.0000000001
 40
0.0
 40
0.0
 40
0.0
 40
0.0
 40
0.3246148142
 40
1.0
 40
1.0
 40
1.0
 40
1.0
 10
348.6882322084
 20
351.3971482034
 30
0.0
 10
348.6882322084
 20
351.171797909
 30
0.0
 10
348.7049751201
 20
350.4776929465
 30
0.0
 10
348.7736510967
 20
349.7848261613
 30
0.0
 10
348.850529711
 20
349.3223140026
 30
0.0
  0
SPLINE
  5
755
100
AcDbEntity
  8
BEZUGSACHSEN
100
AcDbSpline
 62
7
  6
CONTINUOUS
 70
0
 71
3
 72
21
 73
17
 74
0
 42
0.0000001
 43
0.0000001
 44
0.0000000001
 40
0.0
 40
0.0
 40
0.0
 40
0.0
 40
0.1778750531
 40
0.2419675226
 40
0.2914038047
 40
0.3277561311
 40
0.3533830117
 40
0.3731951175
 40
0.3954142885
 40
0.426114338
 40
0.4678310924
 40
0.5216834061
 40
0.5884653794
 40
0.668858636
 40
0.7636500884
 40
1.0
 40
1.0
 40
1.0
 40
1.0
 10
348.850529711
 20
349.3223140026
 30
0.0
 10
348.8701344653
 20
349.2043681756
 30
0.0
 10
348.9010665927
 20
349.0442243755
 30
0.0
 10
348.9578835194
 20
348.8566889277
 30
0.0
 10
348.9961038643
 20
348.7630540411
 30
0.0
 10
349.0346220296
 20
348.6987704441
 30
0.0
 10
349.0749671327
 20
348.6587673531
 30
0.0
 10
349.1234634123
 20
348.6505702607
 30
0.0
 10
349.166900864
 20
348.6788832856
 30
0.0
 10
349.2047757217
 20
348.7301914792
 30
0.0
 10
349.2425608597
 20
348.8066445172
 30
0.0
 10
349.2797087482
 20
348.9093465548
 30
0.0
 10
349.3163530308
 20
349.0395133731
 30
0.0
 10
349.3521654262
 20
349.1982182462
 30
0.0
 10
349.4021273104
 20
349.4703500616
 30
0.0
 10
349.4311822573
 20
349.6911919325
 30
0.0
 10
349.4488709728
 20
349.8490738147
 30
0.0
  0
SPLINE
  5
756
100
AcDbEntity
  8
0
100
AcDbSpline
 62
7
  6
CONTINUOUS
 70
0
 71
3
 72
11
 73
7
 74
0
 42
0.0000001
 43
0.0000001
 44
0.0000000001
 40
0.0
 40
0.0
 40
0.0
 40
0.0
 40
0.4625662032
 40
0.7105810668
 40
0.8480761792
 40
1.0
 40
1.0
 40
1.0
 40
1.0
 10
315.1637922168
 20
359.4956148472
 30
0.0
 10
315.0195551657
 20
358.6218480339
 30
0.0
 10
314.7905334594
 20
357.2808705959
 30
0.0
 10
314.5607266789
 20
355.6730723849
 30
0.0
 10
314.4592876548
 20
354.6490180599
 30
0.0
 10
314.4336615915
 20
354.0948406451
 30
0.0
 10
314.434548424
 20
353.8039809628
 30
0.0
  0
SPLINE
  5
757
100
AcDbEntity
  8
0
100
AcDbSpline
 62
7
  6
CONTINUOUS
 70
0
 71
3
 72
9
 73
5
 74
0
 42
0.0000001
 43
0.0000001
 44
0.0000000001
 40
0.0
 40
0.0
 40
0.0
 40
0.0
 40
0.2501771385
 40
1.0
 40
1.0
 40
1.0
 40
1.0
 10
318.2641300668
 20
485.2994806736
 30
0.0
 10
318.1781117101
 20
485.7341137556
 30
0.0
 10
317.8456361493
 20
487.4736616508
 30
0.0
 10
317.5499369652
 20
489.2200873815
 30
0.0
 10
317.3418564195
 20
490.5316184953
 30
0.0
  0
SPLINE
  5
758
100
AcDbEntity
  8
RUNDUNGEN
100
AcDbSpline
 62
7
  6
CONTINUOUS
 70
0
 71
3
 72
9
 73
5
 74
0
 42
0.0000001
 43
0.0000001
 44
0.0000000001
 40
0.0
 40
0.0
 40
0.0
 40
0.0
 40
0.5016247816
 40
1.0
 40
1.0
 40
1.0
 40
1.0
 10
316.6516264582
 20
506.3161398947
 30
0.0
 10
316.6947102138
 20
506.8856949853
 30
0.0
 10
316.6695447294
 20
508.031908381
 30
0.0
 10
316.4358542682
 20
509.1530992693
 30
0.0
 10
316.2725313141
 20
509.6965710542
 30
0.0
  0
SPLINE
  5
759
100
AcDbEntity
  8
RUNDUNGEN
100
AcDbSpline
 62
7
  6
CONTINUOUS
 70
0
 71
3
 72
9
 73
5
 74
0
 42
0.0000001
 43
0.0000001
 44
0.0000000001
 40
0.0
 40
0.0
 40
0.0
 40
0.0
 40
0.5000558097
 40
1.0
 40
1.0
 40
1.0
 40
1.0
 10
316.7876003438
 20
495.323120494
 30
0.0
 10
316.6159365434
 20
497.1491987199
 30
0.0
 10
316.4130180053
 20
500.8155397637
 30
0.0
 10
316.5133106537
 20
504.4876439947
 30
0.0
 10
316.6516264582
 20
506.3161398947
 30
0.0
  0
SPLINE
  5
75A
100
AcDbEntity
  8
0
100
AcDbSpline
 62
7
  6
CONTINUOUS
 70
0
 71
3
 72
10
 73
6
 74
0
 42
0.0000001
 43
0.0000001
 44
0.0000000001
 40
0.0
 40
0.0
 40
0.0
 40
0.0
 40
0.5001966855
 40
0.7501282791
 40
1.0
 40
1.0
 40
1.0
 40
1.0
 10
314.8332651992
 20
515.6672596685
 30
0.0
 10
314.6059926324
 20
516.916382398
 30
0.0
 10
314.3570407366
 20
518.8058362741
 30
0.0
 10
314.0805384474
 20
521.3287126861
 30
0.0
 10
313.955856543
 20
522.5912966412
 30
0.0
 10
313.8982496303
 20
523.222914844
 30
0.0
  0
LINE
  5
75B
100
AcDbEntity
  8
0
100
AcDbLine
 62
7
  6
CONTINUOUS
 10
313.8982496303
 20
523.222914844
 11
313.8844190254
 21
523.3756303888
  0
SPLINE
  5
75C
100
AcDbEntity
  8
BEZUGSACHSEN
100
AcDbSpline
 62
7
  6
CONTINUOUS
 70
0
 71
3
 72
9
 73
5
 74
0
 42
0.0000001
 43
0.0000001
 44
0.0000000001
 40
0.0
 40
0.0
 40
0.0
 40
0.0
 40
0.2501771385
 40
1.0
 40
1.0
 40
1.0
 40
1.0
 10
344.8586505656
 20
485.2994806736
 30
0.0
 10
344.9446689223
 20
485.7341137556
 30
0.0
 10
345.2771444832
 20
487.4736616508
 30
0.0
 10
345.5728436672
 20
489.2200873815
 30
0.0
 10
345.7809242129
 20
490.5316184953
 30
0.0
  0
SPLINE
  5
75D
100
AcDbEntity
  8
BEZUGSACHSEN
100
AcDbSpline
 62
7
  6
CONTINUOUS
 70
0
 71
3
 72
9
 73
5
 74
0
 42
0.0000001
 43
0.0000001
 44
0.0000000001
 40
0.0
 40
0.0
 40
0.0
 40
0.0
 40
0.5016247816
 40
1.0
 40
1.0
 40
1.0
 40
1.0
 10
346.4711541742
 20
506.3161398947
 30
0.0
 10
346.4280704186
 20
506.8856949853
 30
0.0
 10
346.453235903
 20
508.031908381
 30
0.0
 10
346.6869263643
 20
509.1530992693
 30
0.0
 10
346.8502493183
 20
509.6965710542
 30
0.0
  0
SPLINE
  5
75E
100
AcDbEntity
  8
BEZUGSACHSEN
100
AcDbSpline
 62
7
  6
CONTINUOUS
 70
0
 71
3
 72
9
 73
5
 74
0
 42
0.0000001
 43
0.0000001
 44
0.0000000001
 40
0.0
 40
0.0
 40
0.0
 40
0.0
 40
0.5000558097
 40
1.0
 40
1.0
 40
1.0
 40
1.0
 10
346.3351802886
 20
495.323120494
 30
0.0
 10
346.506844089
 20
497.1491987199
 30
0.0
 10
346.7097626271
 20
500.8155397637
 30
0.0
 10
346.6094699787
 20
504.4876439947
 30
0.0
 10
346.4711541742
 20
506.3161398947
 30
0.0
  0
SPLINE
  5
75F
100
AcDbEntity
  8
BEZUGSACHSEN
100
AcDbSpline
 62
7
  6
CONTINUOUS
 70
0
 71
3
 72
10
 73
6
 74
0
 42
0.0000001
 43
0.0000001
 44
0.0000000001
 40
0.0
 40
0.0
 40
0.0
 40
0.0
 40
0.5001966855
 40
0.7501282791
 40
1.0
 40
1.0
 40
1.0
 40
1.0
 10
348.2895154332
 20
515.6672596685
 30
0.0
 10
348.516788
 20
516.916382398
 30
0.0
 10
348.7657398958
 20
518.8058362741
 30
0.0
 10
349.042242185
 20
521.3287126861
 30
0.0
 10
349.1669240894
 20
522.5912966412
 30
0.0
 10
349.2245310021
 20
523.222914844
 30
0.0
  0
LINE
  5
760
100
AcDbEntity
  8
BEZUGSACHSEN
100
AcDbLine
 62
7
  6
CONTINUOUS
 10
349.2245310021
 20
523.222914844
 11
349.238361607
 21
523.3756303888
  0
SPLINE
  5
761
100
AcDbEntity
  8
BEZUGSACHSEN
100
AcDbSpline
 62
7
  6
CONTINUOUS
 70
0
 71
3
 72
9
 73
5
 74
0
 42
0.0000001
 43
0.0000001
 44
0.0000000001
 40
0.0
 40
0.0
 40
0.0
 40
0.0
 40
0.5600976641
 40
1.0
 40
1.0
 40
1.0
 40
1.0
 10
348.7628846974
 20
535.1983048983
 30
0.0
 10
348.7136253033
 20
535.4936421246
 30
0.0
 10
348.6344488321
 20
536.0222561394
 30
0.0
 10
348.5921571156
 20
536.5566964218
 30
0.0
 10
348.5943471023
 20
536.791849241
 30
0.0
  0
SPLINE
  5
762
100
AcDbEntity
  8
BEZUGSACHSEN
100
AcDbSpline
 62
7
  6
CONTINUOUS
 70
0
 71
3
 72
9
 73
5
 74
0
 42
0.0000001
 43
0.0000001
 44
0.0000000001
 40
0.0
 40
0.0
 40
0.0
 40
0.0
 40
0.7497895079
 40
1.0
 40
1.0
 40
1.0
 40
1.0
 10
349.2930559911
 20
530.9705007037
 30
0.0
 10
349.2010084174
 20
532.03160556
 30
0.0
 10
349.0401094049
 20
533.4440820348
 30
0.0
 10
348.821358984
 20
534.8477193112
 30
0.0
 10
348.7628846974
 20
535.1983048983
 30
0.0
  0
SPLINE
  5
763
100
AcDbEntity
  8
BEZUGSACHSEN
100
AcDbSpline
 62
7
  6
CONTINUOUS
 70
0
 71
3
 72
9
 73
5
 74
0
 42
0.0000001
 43
0.0000001
 44
0.0000000001
 40
0.0
 40
0.0
 40
0.0
 40
0.0
 40
0.5660401345
 40
1.0
 40
1.0
 40
1.0
 40
1.0
 10
348.5943471023
 20
536.791849241
 30
0.0
 10
348.5950744723
 20
536.8788124823
 30
0.0
 10
348.6017692967
 20
537.0324263822
 30
0.0
 10
348.6264506532
 20
537.1849563649
 30
0.0
 10
348.6448306954
 20
537.2490463763
 30
0.0
  0
SPLINE
  5
764
100
AcDbEntity
  8
BEZUGSACHSEN
100
AcDbSpline
 62
7
  6
CONTINUOUS
 70
0
 71
3
 72
15
 73
11
 74
0
 42
0.0000001
 43
0.0000001
 44
0.0000000001
 40
0.0
 40
0.0
 40
0.0
 40
0.0
 40
0.1261259629
 40
0.2503976561
 40
0.3741875937
 40
0.4978869883
 40
0.6216238194
 40
0.7456429605
 40
0.8708492233
 40
1.0
 40
1.0
 40
1.0
 40
1.0
 10
348.6448306954
 20
537.2490463763
 30
0.0
 10
348.8520283408
 20
537.9715310861
 30
0.0
 10
349.1451382382
 20
539.4402916645
 30
0.0
 10
349.3539669921
 20
541.6618880561
 30
0.0
 10
349.4346618983
 20
543.8765337342
 30
0.0
 10
349.4447671416
 20
546.0889440361
 30
0.0
 10
349.392895856
 20
548.3022669783
 30
0.0
 10
349.2385594463
 20
550.5209545302
 30
0.0
 10
348.8916485976
 20
552.7527227885
 30
0.0
 10
348.4438162316
 20
554.2108178911
 30
0.0
 10
348.1445142312
 20
554.9198696378
 30
0.0
  0
SPLINE
  5
765
100
AcDbEntity
  8
BEZUGSACHSEN
100
AcDbSpline
 62
7
  6
CONTINUOUS
 70
0
 71
3
 72
9
 73
5
 74
0
 42
0.0000001
 43
0.0000001
 44
0.0000000001
 40
0.0
 40
0.0
 40
0.0
 40
0.0
 40
0.5006053262
 40
1.0
 40
1.0
 40
1.0
 40
1.0
 10
346.8502493183
 20
509.6965710542
 30
0.0
 10
347.1453162618
 20
510.6784327856
 30
0.0
 10
347.6774848083
 20
512.6572169518
 30
0.0
 10
348.1065871792
 20
514.6609911316
 30
0.0
 10
348.2895154332
 20
515.6672596685
 30
0.0
  0
SPLINE
  5
766
100
AcDbEntity
  8
RUNDUNGEN
100
AcDbSpline
 62
7
  6
CONTINUOUS
 70
0
 71
3
 72
9
 73
5
 74
0
 42
0.0000001
 43
0.0000001
 44
0.0000000001
 40
0.0
 40
0.0
 40
0.0
 40
0.0
 40
0.5006053262
 40
1.0
 40
1.0
 40
1.0
 40
1.0
 10
316.2725313141
 20
509.6965710542
 30
0.0
 10
315.9774643707
 20
510.6784327856
 30
0.0
 10
315.4452958241
 20
512.6572169518
 30
0.0
 10
315.0161934532
 20
514.6609911316
 30
0.0
 10
314.8332651992
 20
515.6672596685
 30
0.0
  0
SPLINE
  5
767
100
AcDbEntity
  8
RUNDUNGEN
100
AcDbSpline
 62
7
  6
CONTINUOUS
 70
0
 71
3
 72
9
 73
5
 74
0
 42
0.0000001
 43
0.0000001
 44
0.0000000001
 40
0.0
 40
0.0
 40
0.0
 40
0.0
 40
0.5600976641
 40
1.0
 40
1.0
 40
1.0
 40
1.0
 10
314.359895935
 20
535.1983048983
 30
0.0
 10
314.4091553292
 20
535.4936421246
 30
0.0
 10
314.4883318003
 20
536.0222561394
 30
0.0
 10
314.5306235168
 20
536.5566964218
 30
0.0
 10
314.5284335301
 20
536.791849241
 30
0.0
  0
LINE
  5
768
100
AcDbEntity
  8
BEZUGSACHSEN
100
AcDbLine
 62
7
  6
CONTINUOUS
 10
346.1756918757
 20
493.7644964331
 11
346.2207882145
 21
494.1939529508
  0
LINE
  5
769
100
AcDbEntity
  8
BEZUGSACHSEN
100
AcDbLine
 62
7
  6
CONTINUOUS
 10
346.2207882145
 20
494.1939529508
 11
346.2573135338
 21
494.5440108749
  0
LINE
  5
76A
100
AcDbEntity
  8
BEZUGSACHSEN
100
AcDbLine
 62
7
  6
CONTINUOUS
 10
346.2573135338
 20
494.5440108749
 11
346.2586338918
 21
494.556750509
  0
SPLINE
  5
76B
100
AcDbEntity
  8
BEZUGSACHSEN
100
AcDbSpline
 62
7
  6
CONTINUOUS
 70
0
 71
3
 72
9
 73
5
 74
0
 42
0.0000001
 43
0.0000001
 44
0.0000000001
 40
0.0
 40
0.0
 40
0.0
 40
0.0
 40
0.2558581153
 40
1.0
 40
1.0
 40
1.0
 40
1.0
 10
346.2586338918
 20
494.556750509
 30
0.0
 10
346.2654032123
 20
494.6220867577
 30
0.0
 10
346.2917192467
 20
494.8774621788
 30
0.0
 10
346.3172998538
 20
495.1329168942
 30
0.0
 10
346.3351802886
 20
495.323120494
 30
0.0
  0
LINE
  5
76C
100
AcDbEntity
  8
BEZUGSACHSEN
100
AcDbLine
 62
7
  6
CONTINUOUS
 10
346.1456555467
 20
493.4788862018
 11
346.1588570122
 21
493.6043784854
  0
LINE
  5
76D
100
AcDbEntity
  8
BEZUGSACHSEN
100
AcDbLine
 62
7
  6
CONTINUOUS
 10
346.1588570122
 20
493.6043784854
 11
346.1630920373
 21
493.6446805645
  0
LINE
  5
76E
100
AcDbEntity
  8
BEZUGSACHSEN
100
AcDbLine
 62
7
  6
CONTINUOUS
 10
346.1630920373
 20
493.6446805645
 11
346.1651263732
 21
493.6640346965
  0
LINE
  5
76F
100
AcDbEntity
  8
BEZUGSACHSEN
100
AcDbLine
 62
7
  6
CONTINUOUS
 10
346.1651263732
 20
493.6640346965
 11
346.1756918757
 21
493.7644964331
  0
SPLINE
  5
770
100
AcDbEntity
  8
BEZUGSACHSEN
100
AcDbSpline
 62
7
  6
CONTINUOUS
 70
0
 71
3
 72
9
 73
5
 74
0
 42
0.0000001
 43
0.0000001
 44
0.0000000001
 40
0.0
 40
0.0
 40
0.0
 40
0.0
 40
0.240212806
 40
1.0
 40
1.0
 40
1.0
 40
1.0
 10
345.9402008103
 20
491.636021622
 30
0.0
 10
345.9485804358
 20
491.7005652326
 30
0.0
 10
345.9823765051
 20
491.9694003009
 30
0.0
 10
346.0128588883
 20
492.2386395808
 30
0.0
 10
346.0353477171
 20
492.4432707265
 30
0.0
  0
SPLINE
  5
771
100
AcDbEntity
  8
RUNDUNGEN
100
AcDbSpline
 62
7
  6
CONTINUOUS
 70
0
 71
3
 72
9
 73
5
 74
0
 42
0.0000001
 43
0.0000001
 44
0.0000000001
 40
0.0
 40
0.0
 40
0.0
 40
0.0
 40
0.7497895079
 40
1.0
 40
1.0
 40
1.0
 40
1.0
 10
313.8297246414
 20
530.9705007037
 30
0.0
 10
313.921772215
 20
532.03160556
 30
0.0
 10
314.0826712275
 20
533.4440820348
 30
0.0
 10
314.3014216484
 20
534.8477193112
 30
0.0
 10
314.359895935
 20
535.1983048983
 30
0.0
  0
SPLINE
  5
772
100
AcDbEntity
  8
RUNDUNGEN
100
AcDbSpline
 62
7
  6
CONTINUOUS
 70
0
 71
3
 72
9
 73
5
 74
0
 42
0.0000001
 43
0.0000001
 44
0.0000000001
 40
0.0
 40
0.0
 40
0.0
 40
0.0
 40
0.240212806
 40
1.0
 40
1.0
 40
1.0
 40
1.0
 10
317.1825798222
 20
491.636021622
 30
0.0
 10
317.1742001966
 20
491.7005652326
 30
0.0
 10
317.1404041273
 20
491.9694003009
 30
0.0
 10
317.1099217441
 20
492.2386395808
 30
0.0
 10
317.0874329153
 20
492.4432707265
 30
0.0
  0
LINE
  5
773
100
AcDbEntity
  8
RUNDUNGEN
100
AcDbLine
 62
7
  6
CONTINUOUS
 10
316.9771250858
 20
493.4788862018
 11
316.9639236203
 21
493.6043784854
  0
LINE
  5
774
100
AcDbEntity
  8
RUNDUNGEN
100
AcDbLine
 62
7
  6
CONTINUOUS
 10
316.9639236203
 20
493.6043784854
 11
316.9596885952
 21
493.6446805644
  0
LINE
  5
775
100
AcDbEntity
  8
RUNDUNGEN
100
AcDbLine
 62
7
  6
CONTINUOUS
 10
316.9596885952
 20
493.6446805644
 11
316.9576542592
 21
493.6640346965
  0
LINE
  5
776
100
AcDbEntity
  8
RUNDUNGEN
100
AcDbLine
 62
7
  6
CONTINUOUS
 10
316.9576542592
 20
493.6640346965
 11
316.9470887567
 21
493.7644964331
  0
LINE
  5
777
100
AcDbEntity
  8
RUNDUNGEN
100
AcDbLine
 62
7
  6
CONTINUOUS
 10
316.9470887567
 20
493.7644964331
 11
316.901992418
 21
494.1939529508
  0
LINE
  5
778
100
AcDbEntity
  8
RUNDUNGEN
100
AcDbLine
 62
7
  6
CONTINUOUS
 10
316.901992418
 20
494.1939529508
 11
316.8654670986
 21
494.5440108749
  0
LINE
  5
779
100
AcDbEntity
  8
RUNDUNGEN
100
AcDbLine
 62
7
  6
CONTINUOUS
 10
316.8654670986
 20
494.5440108749
 11
316.8641467406
 21
494.556750509
  0
SPLINE
  5
77A
100
AcDbEntity
  8
RUNDUNGEN
100
AcDbSpline
 62
7
  6
CONTINUOUS
 70
0
 71
3
 72
9
 73
5
 74
0
 42
0.0000001
 43
0.0000001
 44
0.0000000001
 40
0.0
 40
0.0
 40
0.0
 40
0.0
 40
0.2558581153
 40
1.0
 40
1.0
 40
1.0
 40
1.0
 10
316.8641467406
 20
494.556750509
 30
0.0
 10
316.8573774201
 20
494.6220867577
 30
0.0
 10
316.8310613857
 20
494.8774621788
 30
0.0
 10
316.8054807787
 20
495.1329168942
 30
0.0
 10
316.7876003438
 20
495.323120494
 30
0.0
  0
SPLINE
  5
77B
100
AcDbEntity
  8
BEZUGSACHSEN
100
AcDbSpline
 62
7
  6
CONTINUOUS
 70
0
 71
3
 72
15
 73
11
 74
0
 42
0.0000001
 43
0.0000001
 44
0.0000000001
 40
0.0
 40
0.0
 40
0.0
 40
0.0
 40
0.1261259629
 40
0.2503976561
 40
0.3741875937
 40
0.4978869883
 40
0.6216238194
 40
0.7456429605
 40
0.8708492233
 40
1.0
 40
1.0
 40
1.0
 40
1.0
 10
314.477949937
 20
537.2490463763
 30
0.0
 10
314.2707522916
 20
537.9715310861
 30
0.0
 10
313.9776423942
 20
539.4402916645
 30
0.0
 10
313.7688136403
 20
541.6618880561
 30
0.0
 10
313.6881187341
 20
543.8765337342
 30
0.0
 10
313.6780134909
 20
546.0889440361
 30
0.0
 10
313.7298847765
 20
548.3022669783
 30
0.0
 10
313.8842211862
 20
550.5209545302
 30
0.0
 10
314.2311320349
 20
552.7527227885
 30
0.0
 10
314.6789644008
 20
554.2108178911
 30
0.0
 10
314.9782664012
 20
554.9198696378
 30
0.0
  0
SPLINE
  5
77C
100
AcDbEntity
  8
RUNDUNGEN
100
AcDbSpline
 62
7
  6
CONTINUOUS
 70
0
 71
3
 72
9
 73
5
 74
0
 42
0.0000001
 43
0.0000001
 44
0.0000000001
 40
0.0
 40
0.0
 40
0.0
 40
0.0
 40
0.5660401345
 40
1.0
 40
1.0
 40
1.0
 40
1.0
 10
314.5284335301
 20
536.791849241
 30
0.0
 10
314.5277061601
 20
536.8788124823
 30
0.0
 10
314.5210113357
 20
537.0324263822
 30
0.0
 10
314.4963299792
 20
537.1849563649
 30
0.0
 10
314.477949937
 20
537.2490463763
 30
0.0
  0
SPLINE
  5
77D
100
AcDbEntity
  8
0
100
AcDbSpline
 62
7
  6
CONTINUOUS
 70
0
 71
3
 72
16
 73
12
 74
0
 42
0.0000001
 43
0.0000001
 44
0.0000000001
 40
0.0
 40
0.0
 40
0.0
 40
0.0
 40
0.0176345515
 40
0.0445377135
 40
0.0823210579
 40
0.1296088047
 40
0.2455039237
 40
0.3802531281
 40
0.5264889863
 40
0.6800166701
 40
1.0
 40
1.0
 40
1.0
 40
1.0
 10
317.7741644064
 20
381.9199378965
 30
0.0
 10
317.7598679702
 20
381.9199379053
 30
0.0
 10
317.7259367
 20
381.8985877645
 30
0.0
 10
317.6920017963
 20
381.8411084767
 30
0.0
 10
317.6573762649
 20
381.7568080114
 30
0.0
 10
317.6110881724
 20
381.6005084723
 30
0.0
 10
317.5614582027
 20
381.363824098
 30
0.0
 10
317.510058546
 20
381.0462002259
 30
0.0
 10
317.4634638439
 20
380.6969875455
 30
0.0
 10
317.4057031386
 20
380.1978779817
 30
0.0
 10
317.3682890991
 20
379.8157976827
 30
0.0
 10
317.3444266529
 20
379.5574851293
 30
0.0
  0
SPLINE
  5
77E
100
AcDbEntity
  8
BEZUGSACHSEN
100
AcDbSpline
 62
7
  6
CONTINUOUS
 70
0
 71
3
 72
11
 73
7
 74
0
 42
0.0000001
 43
0.0000001
 44
0.0000000001
 40
0.0
 40
0.0
 40
0.0
 40
0.0
 40
0.4625650371
 40
0.7105808582
 40
0.8480764734
 40
1.0
 40
1.0
 40
1.0
 40
1.0
 10
347.9590415758
 20
359.4952928111
 30
0.0
 10
348.1032707725
 20
358.6215779671
 30
0.0
 10
348.3322781815
 20
357.2806768839
 30
0.0
 10
348.5620663207
 20
355.6729686466
 30
0.0
 10
348.6634958686
 20
354.6489698881
 30
0.0
 10
348.6891189888
 20
354.0948235543
 30
0.0
 10
348.6882322084
 20
353.8039809628
 30
0.0
  0
SPLINE
  5
77F
100
AcDbEntity
  8
BEZUGSACHSEN
100
AcDbSpline
 62
7
  6
CONTINUOUS
 70
0
 71
3
 72
11
 73
7
 74
0
 42
0.0000001
 43
0.0000001
 44
0.0000000001
 40
0.0
 40
0.0
 40
0.0
 40
0.0
 40
0.2404052835
 40
0.4855030057
 40
0.7383571307
 40
1.0
 40
1.0
 40
1.0
 40
1.0
 10
251.9155646933
 20
421.4198696378
 30
0.0
 10
252.7112722685
 20
421.4198696378
 30
0.0
 10
254.3211996847
 20
421.281141794
 30
0.0
 10
256.6992291052
 20
420.6818877596
 30
0.0
 10
259.0387214894
 20
419.745274359
 30
0.0
 10
260.5475277121
 20
418.9500872138
 30
0.0
 10
261.2975065675
 20
418.5170867198
 30
0.0
  0
SPLINE
  5
780
100
AcDbEntity
  8
BEZUGSACHSEN
100
AcDbSpline
 62
7
  6
CONTINUOUS
 70
0
 71
3
 72
10
 73
6
 74
0
 42
0.0000001
 43
0.0000001
 44
0.0000000001
 40
0.0
 40
0.0
 40
0.0
 40
0.0
 40
0.4999007848
 40
0.7499513947
 40
1.0
 40
1.0
 40
1.0
 40
1.0
 10
261.2975065675
 20
418.5170867198
 30
0.0
 10
264.3462176685
 20
419.3971738072
 30
0.0
 10
268.9940646663
 20
420.497401947
 30
0.0
 10
275.2980266039
 20
421.284414241
 30
0.0
 10
278.4741673339
 20
421.4198696378
 30
0.0
 10
280.0613903162
 20
421.419869638
 30
0.0
  0
SPLINE
  5
781
100
AcDbEntity
  8
BEZUGSACHSEN
100
AcDbSpline
 62
7
  6
CONTINUOUS
 70
0
 71
3
 72
10
 73
6
 74
0
 42
0.0000001
 43
0.0000001
 44
0.0000000001
 40
0.0
 40
0.0
 40
0.0
 40
0.0
 40
0.2500489869
 40
0.5000997068
 40
1.0
 40
1.0
 40
1.0
 40
1.0
 10
280.0613903162
 20
421.419869638
 30
0.0
 10
281.6486157248
 20
421.4198696378
 30
0.0
 10
284.824759627
 20
421.284414562
 30
0.0
 10
291.1287213835
 20
420.4974004631
 30
0.0
 10
295.7765659541
 20
419.397172944
 30
0.0
 10
298.8252740649
 20
418.5170867198
 30
0.0
  0
SPLINE
  5
782
100
AcDbEntity
  8
BEZUGSACHSEN
100
AcDbSpline
 62
7
  6
CONTINUOUS
 70
0
 71
3
 72
11
 73
7
 74
0
 42
0.0000001
 43
0.0000001
 44
0.0000000001
 40
0.0
 40
0.0
 40
0.0
 40
0.0
 40
0.2616428738
 40
0.5144970109
 40
0.7595947311
 40
1.0
 40
1.0
 40
1.0
 40
1.0
 10
298.8252740649
 20
418.5170867198
 30
0.0
 10
299.5752529328
 20
418.9500872211
 30
0.0
 10
301.0840592066
 20
419.745274385
 30
0.0
 10
303.4235516386
 20
420.6818878008
 30
0.0
 10
305.801581056
 20
421.2811417763
 30
0.0
 10
307.4115084128
 20
421.4198696377
 30
0.0
 10
308.2072159393
 20
421.4198696378
 30
0.0
  0
SPLINE
  5
783
100
AcDbEntity
  8
BEZUGSACHSEN
100
AcDbSpline
 62
7
  6
CONTINUOUS
 70
0
 71
3
 72
11
 73
7
 74
0
 42
0.0000001
 43
0.0000001
 44
0.0000000001
 40
0.0
 40
0.0
 40
0.0
 40
0.0
 40
0.2404052835
 40
0.4855030057
 40
0.7383571307
 40
1.0
 40
1.0
 40
1.0
 40
1.0
 10
308.2072159393
 20
421.4198696378
 30
0.0
 10
309.0029235145
 20
421.4198696378
 30
0.0
 10
310.6128509307
 20
421.281141794
 30
0.0
 10
312.9908803512
 20
420.6818877596
 30
0.0
 10
315.3303727354
 20
419.745274359
 30
0.0
 10
316.8391789581
 20
418.9500872138
 30
0.0
 10
317.5891578135
 20
418.5170867198
 30
0.0
  0
SPLINE
  5
784
100
AcDbEntity
  8
BEZUGSACHSEN
100
AcDbSpline
 62
7
  6
CONTINUOUS
 70
0
 71
3
 72
11
 73
7
 74
0
 42
0.0000001
 43
0.0000001
 44
0.0000000001
 40
0.0
 40
0.0
 40
0.0
 40
0.0
 40
0.2616428738
 40
0.5144970109
 40
0.7595947311
 40
1.0
 40
1.0
 40
1.0
 40
1.0
 10
242.5336228189
 20
418.5170867198
 30
0.0
 10
243.2836016868
 20
418.9500872211
 30
0.0
 10
244.7924079606
 20
419.745274385
 30
0.0
 10
247.1319003926
 20
420.6818878008
 30
0.0
 10
249.50992981
 20
421.2811417764
 30
0.0
 10
251.1198571668
 20
421.4198696376
 30
0.0
 10
251.9155646933
 20
421.4198696378
 30
0.0
  0
SPLINE
  5
785
100
AcDbEntity
  8
BEZUGSACHSEN
100
AcDbSpline
 62
7
  6
CONTINUOUS
 70
0
 71
3
 72
10
 73
6
 74
0
 42
0.0000001
 43
0.0000001
 44
0.0000000001
 40
0.0
 40
0.0
 40
0.0
 40
0.0
 40
0.5016032945
 40
0.7510761774
 40
1.0
 40
1.0
 40
1.0
 40
1.0
 10
530.1763463569
 20
418.5170867198
 30
0.0
 10
532.8048636224
 20
419.3932591416
 30
0.0
 10
536.8233864446
 20
420.4942154559
 30
0.0
 10
542.2964555878
 20
421.2840492802
 30
0.0
 10
545.051368638
 20
421.4198696376
 30
0.0
 10
546.4263463571
 20
421.4198696378
 30
0.0
  0
SPLINE
  5
786
100
AcDbEntity
  8
BEZUGSACHSEN
100
AcDbSpline
 62
7
  6
CONTINUOUS
 70
0
 71
3
 72
10
 73
6
 74
0
 42
0.0000001
 43
0.0000001
 44
0.0000000001
 40
0.0
 40
0.0
 40
0.0
 40
0.0
 40
0.2489238378
 40
0.4983967223
 40
1.0
 40
1.0
 40
1.0
 40
1.0
 10
546.4263463571
 20
421.4198696378
 30
0.0
 10
547.8013241606
 20
421.4198696378
 30
0.0
 10
550.5562373058
 20
421.2840492981
 30
0.0
 10
556.0293064409
 20
420.4942154028
 30
0.0
 10
560.0478291787
 20
419.3932591125
 30
0.0
 10
562.6763463569
 20
418.5170867198
 30
0.0
  0
SPLINE
  5
787
100
AcDbEntity
  8
BEZUGSACHSEN
100
AcDbSpline
 62
7
  6
CONTINUOUS
 70
0
 71
3
 72
10
 73
6
 74
0
 42
0.0000001
 43
0.0000001
 44
0.0000000001
 40
0.0
 40
0.0
 40
0.0
 40
0.0
 40
0.2489238378
 40
0.4983967223
 40
1.0
 40
1.0
 40
1.0
 40
1.0
 10
513.9263475894
 20
421.419869684
 30
0.0
 10
515.3013252911
 20
421.4198696045
 30
0.0
 10
518.0562382245
 20
421.2840491911
 30
0.0
 10
523.5293069424
 20
420.4942152767
 30
0.0
 10
527.5478293736
 20
419.3932590475
 30
0.0
 10
530.1763463569
 20
418.5170867198
 30
0.0
  0
SPLINE
  5
788
100
AcDbEntity
  8
BEZUGSACHSEN
100
AcDbSpline
 62
7
  6
CONTINUOUS
 70
0
 71
3
 72
10
 73
6
 74
0
 42
0.0000001
 43
0.0000001
 44
0.0000000001
 40
0.0
 40
0.0
 40
0.0
 40
0.0
 40
0.5015716632
 40
0.751087722
 40
1.0
 40
1.0
 40
1.0
 40
1.0
 10
497.6763463569
 20
418.5170867198
 30
0.0
 10
500.0850820895
 20
419.3199986306
 30
0.0
 10
503.7602135657
 20
420.3449099245
 30
0.0
 10
508.7607271872
 20
421.1598295721
 30
0.0
 10
511.2801654667
 20
421.3557321265
 30
0.0
 10
512.5395182578
 20
421.3970679361
 30
0.0
  0
LINE
  5
789
100
AcDbEntity
  8
BEZUGSACHSEN
100
AcDbLine
 62
7
  6
CONTINUOUS
 10
608.1763289722
 20
381.9198696378
 11
608.1763289161
 21
381.9060685481
  0
SPLINE
  5
78A
100
AcDbEntity
  8
BEZUGSACHSEN
100
AcDbSpline
 62
7
  6
CONTINUOUS
 70
0
 71
3
 72
17
 73
13
 74
0
 42
0.0000001
 43
0.0000001
 44
0.0000000001
 40
0.0
 40
0.0
 40
0.0
 40
0.0
 40
0.1249626497
 40
0.2499241471
 40
0.3748865529
 40
0.4374427861
 40
0.49999879
 40
0.6249619103
 40
0.7499251729
 40
0.8124815396
 40
0.8750366677
 40
1.0
 40
1.0
 40
1.0
 40
1.0
 10
578.2294812167
 20
333.9282440236
 30
0.0
 10
580.1832894677
 20
333.9342490225
 30
0.0
 10
584.1006365206
 20
334.3314346981
 30
0.0
 10
589.738768519
 20
336.0574521234
 30
0.0
 10
594.0733505751
 20
338.3850901972
 30
0.0
 10
597.2150265783
 20
340.7215999997
 30
0.0
 10
600.1144810722
 20
343.3529377255
 30
0.0
 10
603.2357229964
 20
347.1546111779
 30
0.0
 10
605.5590186558
 20
351.4900149204
 30
0.0
 10
606.8855617103
 20
355.1741075754
 30
0.0
 10
607.847483656
 20
358.968482642
 30
0.0
 10
608.1474558869
 20
361.9097177236
 30
0.0
 10
608.1548224437
 20
363.8635319875
 30
0.0
  0
LINE
  5
78B
100
AcDbEntity
  8
BEZUGSACHSEN
100
AcDbLine
 62
7
  6
CONTINUOUS
 10
577.6763463746
 20
333.9264576412
 11
578.2294812156
 21
333.9282440233
  0
LINE
  5
78C
100
AcDbEntity
  8
BEZUGSACHSEN
100
AcDbLine
 62
7
  6
CONTINUOUS
 10
546.0517615058
 20
528.2204234004
 11
546.1618656044
 21
528.1964904804
  0
LINE
  5
78D
100
AcDbEntity
  8
BEZUGSACHSEN
100
AcDbLine
 62
7
  6
CONTINUOUS
 10
514.3009312081
 20
528.2204234004
 11
514.1908271094
 21
528.1964904804
  0
LINE
  5
78E
100
AcDbEntity
  8
BEZUGSACHSEN
100
AcDbLine
 62
7
  6
CONTINUOUS
 10
452.1763637416
 20
381.9198696378
 11
452.1763637978
 21
381.9060685481
  0
SPLINE
  5
78F
100
AcDbEntity
  8
BEZUGSACHSEN
100
AcDbSpline
 62
7
  6
CONTINUOUS
 70
0
 71
3
 72
17
 73
13
 74
0
 42
0.0000001
 43
0.0000001
 44
0.0000000001
 40
0.0
 40
0.0
 40
0.0
 40
0.0
 40
0.1249626497
 40
0.2499241471
 40
0.3748865529
 40
0.4374427861
 40
0.49999879
 40
0.6249619103
 40
0.7499251729
 40
0.8124815396
 40
0.8750366677
 40
1.0
 40
1.0
 40
1.0
 40
1.0
 10
482.1232114972
 20
333.9282440236
 30
0.0
 10
480.1694032461
 20
333.9342490225
 30
0.0
 10
476.2520561932
 20
334.3314346981
 30
0.0
 10
470.6139241948
 20
336.0574521234
 30
0.0
 10
466.2793421387
 20
338.3850901972
 30
0.0
 10
463.1376661355
 20
340.7215999997
 30
0.0
 10
460.2382116417
 20
343.3529377255
 30
0.0
 10
457.1169697175
 20
347.1546111779
 30
0.0
 10
454.793674058
 20
351.4900149204
 30
0.0
 10
453.4671310035
 20
355.1741075754
 30
0.0
 10
452.5052090578
 20
358.968482642
 30
0.0
 10
452.205236827
 20
361.9097177236
 30
0.0
 10
452.1978702701
 20
363.8635319875
 30
0.0
  0
LINE
  5
790
100
AcDbEntity
  8
BEZUGSACHSEN
100
AcDbLine
 62
7
  6
CONTINUOUS
 10
482.6763463392
 20
333.9264576412
 11
482.1232114982
 21
333.9282440233
  0
SPLINE
  5
791
100
AcDbEntity
  8
BEZUGSACHSEN
100
AcDbSpline
 62
7
  6
CONTINUOUS
 70
0
 71
3
 72
16
 73
12
 74
0
 42
0.0000001
 43
0.0000001
 44
0.0000000001
 40
0.0
 40
0.0
 40
0.0
 40
0.0
 40
0.0624992065
 40
0.124999258
 40
0.1874993109
 40
0.2499993639
 40
0.3749994699
 40
0.4999995759
 40
0.6249996819
 40
0.749999788
 40
1.0
 40
1.0
 40
1.0
 40
1.0
 10
458.9751942671
 20
515.9393860097
 30
0.0
 10
458.9648548117
 20
515.4144016026
 30
0.0
 10
458.9649446164
 20
514.3641213335
 30
0.0
 10
458.9653957507
 20
512.7888889974
 30
0.0
 10
458.9652003977
 20
511.2135982422
 30
0.0
 10
458.9652677245
 20
509.1132284724
 30
0.0
 10
458.965235676
 20
506.4877601094
 30
0.0
 10
458.9652460389
 20
503.3372007099
 30
0.0
 10
458.9652432255
 20
500.1866406049
 30
0.0
 10
458.9652441517
 20
495.9858940458
 30
0.0
 10
458.9652438069
 20
492.8353340707
 30
0.0
 10
458.965243806
 20
490.7349607664
 30
0.0
  0
SPLINE
  5
792
100
AcDbEntity
  8
RUNDUNGEN
100
AcDbSpline
 62
7
  6
CONTINUOUS
 70
0
 71
3
 72
9
 73
5
 74
0
 42
0.0000001
 43
0.0000001
 44
0.0000000001
 40
0.0
 40
0.0
 40
0.0
 40
0.0
 40
0.2503642196
 40
1.0
 40
1.0
 40
1.0
 40
1.0
 10
598.1319140117
 20
527.1302985989
 30
0.0
 10
598.2070565267
 20
526.9531536946
 30
0.0
 10
598.513474149
 20
526.2482762315
 30
0.0
 10
598.8444927008
 20
525.5541818543
 30
0.0
 10
599.1038911035
 20
525.0397293335
 30
0.0
  0
SPLINE
  5
793
100
AcDbEntity
  8
0
100
AcDbSpline
 62
7
  6
CONTINUOUS
 70
0
 71
3
 72
16
 73
12
 74
0
 42
0.0000001
 43
0.0000001
 44
0.0000000001
 40
0.0
 40
0.0
 40
0.0
 40
0.0
 40
0.0624992065
 40
0.124999258
 40
0.1874993109
 40
0.2499993639
 40
0.3749994699
 40
0.4999995759
 40
0.6249996819
 40
0.749999788
 40
1.0
 40
1.0
 40
1.0
 40
1.0
 10
601.3774984467
 20
515.9393860097
 30
0.0
 10
601.3878379021
 20
515.4144016026
 30
0.0
 10
601.3877480974
 20
514.3641213335
 30
0.0
 10
601.3872969631
 20
512.7888889974
 30
0.0
 10
601.3874923162
 20
511.2135982422
 30
0.0
 10
601.3874249893
 20
509.1132284724
 30
0.0
 10
601.3874570379
 20
506.4877601094
 30
0.0
 10
601.387446675
 20
503.3372007099
 30
0.0
 10
601.3874494884
 20
500.1866406049
 30
0.0
 10
601.3874485622
 20
495.9858940458
 30
0.0
 10
601.3874489069
 20
492.8353340707
 30
0.0
 10
601.3874489078
 20
490.7349607664
 30
0.0
  0
SPLINE
  5
794
100
AcDbEntity
  8
RUNDUNGEN
100
AcDbSpline
 62
7
  6
CONTINUOUS
 70
0
 71
3
 72
9
 73
5
 74
0
 42
0.0000001
 43
0.0000001
 44
0.0000000001
 40
0.0
 40
0.0
 40
0.0
 40
0.0
 40
0.5001608305
 40
1.0
 40
1.0
 40
1.0
 40
1.0
 10
599.1038911035
 20
525.0397293335
 30
0.0
 10
599.8124109237
 20
523.6345556562
 30
0.0
 10
600.9247991176
 20
520.6605127844
 30
0.0
 10
601.3470465644
 20
517.5117732835
 30
0.0
 10
601.3774984467
 20
515.9393860097
 30
0.0
  0
SPLINE
  5
795
100
AcDbEntity
  8
0
100
AcDbSpline
 62
7
  6
CONTINUOUS
 70
0
 71
3
 72
9
 73
5
 74
0
 42
0.0000001
 43
0.0000001
 44
0.0000000001
 40
0.0
 40
0.0
 40
0.0
 40
0.0
 40
0.5002703613
 40
1.0
 40
1.0
 40
1.0
 40
1.0
 10
592.3470030523
 20
534.6902762452
 30
0.0
 10
593.4109762898
 20
533.7766454431
 30
0.0
 10
595.4284313897
 20
531.8126938393
 30
0.0
 10
597.0153055425
 20
529.4630409776
 30
0.0
 10
597.6370369484
 20
528.2076680999
 30
0.0
  0
SPLINE
  5
796
100
AcDbEntity
  8
0
100
AcDbSpline
 62
7
  6
CONTINUOUS
 70
0
 71
3
 72
8
 73
4
 74
0
 42
0.0000001
 43
0.0000001
 44
0.0000000001
 40
0.0
 40
0.0
 40
0.0
 40
0.0
 40
1.0
 40
1.0
 40
1.0
 40
1.0
 10
586.8741984571
 20
538.8015682122
 30
0.0
 10
588.7645478723
 20
537.523830473
 30
0.0
 10
590.6159510278
 20
536.176712766
 30
0.0
 10
592.3470030523
 20
534.6902762452
 30
0.0
  0
SPLINE
  5
797
100
AcDbEntity
  8
BEZUGSACHSEN
100
AcDbSpline
 62
7
  6
CONTINUOUS
 70
0
 71
3
 72
9
 73
5
 74
0
 42
0.0000001
 43
0.0000001
 44
0.0000000001
 40
0.0
 40
0.0
 40
0.0
 40
0.0
 40
0.2503642196
 40
1.0
 40
1.0
 40
1.0
 40
1.0
 10
462.2207787022
 20
527.1302985989
 30
0.0
 10
462.1456361871
 20
526.9531536946
 30
0.0
 10
461.8392185648
 20
526.2482762315
 30
0.0
 10
461.508200013
 20
525.5541818543
 30
0.0
 10
461.2488016103
 20
525.0397293335
 30
0.0
  0
SPLINE
  5
798
100
AcDbEntity
  8
BEZUGSACHSEN
100
AcDbSpline
 62
7
  6
CONTINUOUS
 70
0
 71
3
 72
9
 73
5
 74
0
 42
0.0000001
 43
0.0000001
 44
0.0000000001
 40
0.0
 40
0.0
 40
0.0
 40
0.0
 40
0.5001608305
 40
1.0
 40
1.0
 40
1.0
 40
1.0
 10
461.2488016103
 20
525.0397293335
 30
0.0
 10
460.5402817902
 20
523.6345556562
 30
0.0
 10
459.4278935963
 20
520.6605127844
 30
0.0
 10
459.0056461494
 20
517.5117732835
 30
0.0
 10
458.9751942671
 20
515.9393860097
 30
0.0
  0
SPLINE
  5
799
100
AcDbEntity
  8
BEZUGSACHSEN
100
AcDbSpline
 62
7
  6
CONTINUOUS
 70
0
 71
3
 72
9
 73
5
 74
0
 42
0.0000001
 43
0.0000001
 44
0.0000000001
 40
0.0
 40
0.0
 40
0.0
 40
0.0
 40
0.5002703613
 40
1.0
 40
1.0
 40
1.0
 40
1.0
 10
468.0056896616
 20
534.6902762452
 30
0.0
 10
466.941716424
 20
533.7766454431
 30
0.0
 10
464.9242613242
 20
531.8126938393
 30
0.0
 10
463.3373871713
 20
529.4630409776
 30
0.0
 10
462.7156557654
 20
528.2076680999
 30
0.0
  0
SPLINE
  5
79A
100
AcDbEntity
  8
BEZUGSACHSEN
100
AcDbSpline
 62
7
  6
CONTINUOUS
 70
0
 71
3
 72
8
 73
4
 74
0
 42
0.0000001
 43
0.0000001
 44
0.0000000001
 40
0.0
 40
0.0
 40
0.0
 40
0.0
 40
1.0
 40
1.0
 40
1.0
 40
1.0
 10
473.4784942567
 20
538.8015682122
 30
0.0
 10
471.5881448415
 20
537.523830473
 30
0.0
 10
469.736741686
 20
536.176712766
 30
0.0
 10
468.0056896616
 20
534.6902762452
 30
0.0
  0
SPLINE
  5
79B
100
AcDbEntity
  8
0
100
AcDbSpline
 62
7
  6
CONTINUOUS
 70
0
 71
3
 72
10
 73
6
 74
0
 42
0.0000001
 43
0.0000001
 44
0.0000000001
 40
0.0
 40
0.0
 40
0.0
 40
0.0
 40
0.5038559243
 40
0.7525207765
 40
1.0
 40
1.0
 40
1.0
 40
1.0
 10
314.8332651992
 20
46.0117056827
 30
0.0
 10
314.5791351937
 20
46.6929388972
 30
0.0
 10
314.3049246973
 20
47.7480704251
 30
0.0
 10
313.9990115554
 20
49.1575913657
 30
0.0
 10
313.8652608133
 20
49.8612742345
 30
0.0
 10
313.8067865264
 20
50.2135800806
 30
0.0
  0
SPLINE
  5
79C
100
AcDbEntity
  8
RUNDUNGEN
100
AcDbSpline
 62
7
  6
CONTINUOUS
 70
0
 71
3
 72
9
 73
5
 74
0
 42
0.0000001
 43
0.0000001
 44
0.0000000001
 40
0.0
 40
0.0
 40
0.0
 40
0.0
 40
0.2351283728
 40
1.0
 40
1.0
 40
1.0
 40
1.0
 10
315.5613903162
 20
44.3263753231
 30
0.0
 10
315.5613903162
 20
44.24963423
 30
0.0
 10
315.571865464
 20
43.9232579693
 30
0.0
 10
315.6200106715
 20
43.598783787
 30
0.0
 10
315.6709524088
 20
43.3543982312
 30
0.0
  0
SPLINE
  5
79D
100
AcDbEntity
  8
RUNDUNGEN
100
AcDbSpline
 62
7
  6
CONTINUOUS
 70
0
 71
3
 72
10
 73
6
 74
0
 42
0.0000001
 43
0.0000001
 44
0.0000000001
 40
0.0
 40
0.0
 40
0.0
 40
0.0
 40
0.5965685017
 40
0.8224803487
 40
1.0
 40
1.0
 40
1.0
 40
1.0
 10
315.6709524088
 20
43.3543982312
 30
0.0
 10
315.7540307073
 20
42.9558422104
 30
0.0
 10
315.8823676177
 20
42.407917184
 30
0.0
 10
316.1052921767
 20
41.7625307187
 30
0.0
 10
316.2209037295
 20
41.5114661044
 30
0.0
 10
316.2820059565
 20
41.4068571587
 30
0.0
  0
LINE
  5
79E
100
AcDbEntity
  8
BEZUGSACHSEN
100
AcDbLine
 62
7
  6
CONTINUOUS
 10
313.5613903162
 20
112.2819429778
 11
313.5613903162
 21
86.9359794135
  0
SPLINE
  5
79F
100
AcDbEntity
  8
RUNDUNGEN
100
AcDbSpline
 62
7
  6
CONTINUOUS
 70
0
 71
3
 72
9
 73
5
 74
0
 42
0.0000001
 43
0.0000001
 44
0.0000000001
 40
0.0
 40
0.0
 40
0.0
 40
0.0
 40
0.2530211238
 40
1.0
 40
1.0
 40
1.0
 40
1.0
 10
315.4269628256
 20
44.6365878976
 30
0.0
 10
315.3716594511
 20
44.7501930401
 30
0.0
 10
315.1580875509
 20
45.2015779157
 30
0.0
 10
314.9635424619
 20
45.6621764497
 30
0.0
 10
314.8332651992
 20
46.0117056827
 30
0.0
  0
SPLINE
  5
7A0
100
AcDbEntity
  8
BEZUGSACHSEN
100
AcDbSpline
 62
7
  6
CONTINUOUS
 70
0
 71
3
 72
9
 73
5
 74
0
 42
0.0000001
 43
0.0000001
 44
0.0000000001
 40
0.0
 40
0.0
 40
0.0
 40
0.0
 40
0.2530211238
 40
1.0
 40
1.0
 40
1.0
 40
1.0
 10
347.6958178069
 20
179.927298058
 30
0.0
 10
347.7511211813
 20
179.8136929155
 30
0.0
 10
347.9646930815
 20
179.36230804
 30
0.0
 10
348.1592381706
 20
178.901709506
 30
0.0
 10
348.2895154332
 20
178.552180273
 30
0.0
  0
LINE
  5
7A1
100
AcDbEntity
  8
BEZUGSACHSEN
100
AcDbLine
 62
7
  6
CONTINUOUS
 10
349.5613903162
 20
112.2819429778
 11
349.5613903162
 21
137.6279065421
  0
SPLINE
  5
7A2
100
AcDbEntity
  8
BEZUGSACHSEN
100
AcDbSpline
 62
7
  6
CONTINUOUS
 70
0
 71
3
 72
10
 73
6
 74
0
 42
0.0000001
 43
0.0000001
 44
0.0000000001
 40
0.0
 40
0.0
 40
0.0
 40
0.0
 40
0.5965685017
 40
0.8224803487
 40
1.0
 40
1.0
 40
1.0
 40
1.0
 10
347.4518282236
 20
181.2094877245
 30
0.0
 10
347.3687499252
 20
181.6080437453
 30
0.0
 10
347.2404130147
 20
182.1559687717
 30
0.0
 10
347.0174884557
 20
182.801355237
 30
0.0
 10
346.9018769029
 20
183.0524198513
 30
0.0
 10
346.8407746759
 20
183.1570287969
 30
0.0
  0
SPLINE
  5
7A3
100
AcDbEntity
  8
BEZUGSACHSEN
100
AcDbSpline
 62
7
  6
CONTINUOUS
 70
0
 71
3
 72
9
 73
5
 74
0
 42
0.0000001
 43
0.0000001
 44
0.0000000001
 40
0.0
 40
0.0
 40
0.0
 40
0.0
 40
0.2351283728
 40
1.0
 40
1.0
 40
1.0
 40
1.0
 10
347.5613903162
 20
180.2375106326
 30
0.0
 10
347.5613903162
 20
180.3142517257
 30
0.0
 10
347.5509151684
 20
180.6406279863
 30
0.0
 10
347.5027699609
 20
180.9651021687
 30
0.0
 10
347.4518282236
 20
181.2094877245
 30
0.0
  0
SPLINE
  5
7A4
100
AcDbEntity
  8
BEZUGSACHSEN
100
AcDbSpline
 62
7
  6
CONTINUOUS
 70
0
 71
3
 72
10
 73
6
 74
0
 42
0.0000001
 43
0.0000001
 44
0.0000000001
 40
0.0
 40
0.0
 40
0.0
 40
0.0
 40
0.5038559243
 40
0.7525207765
 40
1.0
 40
1.0
 40
1.0
 40
1.0
 10
348.2895154332
 20
178.552180273
 30
0.0
 10
348.5436454387
 20
177.8709470584
 30
0.0
 10
348.8178559352
 20
176.8158155305
 30
0.0
 10
349.123769077
 20
175.40629459
 30
0.0
 10
349.2575198191
 20
174.7026117212
 30
0.0
 10
349.315994106
 20
174.3503058751
 30
0.0
  0
SPLINE
  5
7A5
100
AcDbEntity
  8
BEZUGSACHSEN
100
AcDbSpline
 62
7
  6
CONTINUOUS
 70
0
 71
3
 72
10
 73
6
 74
0
 42
0.0000001
 43
0.0000001
 44
0.0000000001
 40
0.0
 40
0.0
 40
0.0
 40
0.0
 40
0.5038559243
 40
0.7525207765
 40
1.0
 40
1.0
 40
1.0
 40
1.0
 10
348.2895154332
 20
46.0117056827
 30
0.0
 10
348.5436454387
 20
46.6929388972
 30
0.0
 10
348.8178559352
 20
47.7480704251
 30
0.0
 10
349.123769077
 20
49.1575913657
 30
0.0
 10
349.2575198191
 20
49.8612742345
 30
0.0
 10
349.315994106
 20
50.2135800806
 30
0.0
  0
SPLINE
  5
7A6
100
AcDbEntity
  8
BEZUGSACHSEN
100
AcDbSpline
 62
7
  6
CONTINUOUS
 70
0
 71
3
 72
9
 73
5
 74
0
 42
0.0000001
 43
0.0000001
 44
0.0000000001
 40
0.0
 40
0.0
 40
0.0
 40
0.0
 40
0.2351283728
 40
1.0
 40
1.0
 40
1.0
 40
1.0
 10
347.5613903162
 20
44.3263753231
 30
0.0
 10
347.5613903162
 20
44.24963423
 30
0.0
 10
347.5509151684
 20
43.9232579693
 30
0.0
 10
347.5027699609
 20
43.598783787
 30
0.0
 10
347.4518282236
 20
43.3543982312
 30
0.0
  0
SPLINE
  5
7A7
100
AcDbEntity
  8
BEZUGSACHSEN
100
AcDbSpline
 62
7
  6
CONTINUOUS
 70
0
 71
3
 72
10
 73
6
 74
0
 42
0.0000001
 43
0.0000001
 44
0.0000000001
 40
0.0
 40
0.0
 40
0.0
 40
0.0
 40
0.5965685154
 40
0.8224803589
 40
1.0
 40
1.0
 40
1.0
 40
1.0
 10
347.4518282236
 20
43.3543982312
 30
0.0
 10
347.368749918
 20
42.9558421759
 30
0.0
 10
347.2404129974
 20
42.4079171075
 30
0.0
 10
347.0174884124
 20
41.7625306055
 30
0.0
 10
346.9018768456
 20
41.511465988
 30
0.0
 10
346.8407746103
 20
41.4068570463
 30
0.0
  0
LINE
  5
7A8
100
AcDbEntity
  8
BEZUGSACHSEN
100
AcDbLine
 62
7
  6
CONTINUOUS
 10
349.5613903162
 20
112.2819429778
 11
349.5613903162
 21
86.9359794135
  0
SPLINE
  5
7A9
100
AcDbEntity
  8
BEZUGSACHSEN
100
AcDbSpline
 62
7
  6
CONTINUOUS
 70
0
 71
3
 72
9
 73
5
 74
0
 42
0.0000001
 43
0.0000001
 44
0.0000000001
 40
0.0
 40
0.0
 40
0.0
 40
0.0
 40
0.2530211238
 40
1.0
 40
1.0
 40
1.0
 40
1.0
 10
347.6958178069
 20
44.6365878976
 30
0.0
 10
347.7511211813
 20
44.7501930401
 30
0.0
 10
347.9646930815
 20
45.2015779157
 30
0.0
 10
348.1592381706
 20
45.6621764497
 30
0.0
 10
348.2895154332
 20
46.0117056827
 30
0.0
  0
SPLINE
  5
7AA
100
AcDbEntity
  8
BEZUGSACHSEN
100
AcDbSpline
 62
7
  6
CONTINUOUS
 70
0
 71
3
 72
9
 73
5
 74
0
 42
0.0000001
 43
0.0000001
 44
0.0000000001
 40
0.0
 40
0.0
 40
0.0
 40
0.0
 40
0.2530211238
 40
1.0
 40
1.0
 40
1.0
 40
1.0
 10
315.4269628256
 20
179.927298058
 30
0.0
 10
315.3716594511
 20
179.8136929155
 30
0.0
 10
315.1580875509
 20
179.36230804
 30
0.0
 10
314.9635424619
 20
178.901709506
 30
0.0
 10
314.8332651992
 20
178.552180273
 30
0.0
  0
LINE
  5
7AB
100
AcDbEntity
  8
BEZUGSACHSEN
100
AcDbLine
 62
7
  6
CONTINUOUS
 10
313.5613903162
 20
112.2819429778
 11
313.5613903162
 21
137.6279065421
  0
SPLINE
  5
7AC
100
AcDbEntity
  8
BEZUGSACHSEN
100
AcDbSpline
 62
7
  6
CONTINUOUS
 70
0
 71
3
 72
10
 73
6
 74
0
 42
0.0000001
 43
0.0000001
 44
0.0000000001
 40
0.0
 40
0.0
 40
0.0
 40
0.0
 40
0.5965685154
 40
0.8224803589
 40
1.0
 40
1.0
 40
1.0
 40
1.0
 10
315.6709524088
 20
181.2094877245
 30
0.0
 10
315.7540307144
 20
181.6080437797
 30
0.0
 10
315.882367635
 20
182.1559688481
 30
0.0
 10
316.1052922201
 20
182.8013553502
 30
0.0
 10
316.2209037869
 20
183.0524199677
 30
0.0
 10
316.2820060221
 20
183.1570289093
 30
0.0
  0
SPLINE
  5
7AD
100
AcDbEntity
  8
BEZUGSACHSEN
100
AcDbSpline
 62
7
  6
CONTINUOUS
 70
0
 71
3
 72
9
 73
5
 74
0
 42
0.0000001
 43
0.0000001
 44
0.0000000001
 40
0.0
 40
0.0
 40
0.0
 40
0.0
 40
0.2351283728
 40
1.0
 40
1.0
 40
1.0
 40
1.0
 10
315.5613903162
 20
180.2375106326
 30
0.0
 10
315.5613903162
 20
180.3142517257
 30
0.0
 10
315.571865464
 20
180.6406279863
 30
0.0
 10
315.6200106715
 20
180.9651021687
 30
0.0
 10
315.6709524088
 20
181.2094877245
 30
0.0
  0
SPLINE
  5
7AE
100
AcDbEntity
  8
BEZUGSACHSEN
100
AcDbSpline
 62
7
  6
CONTINUOUS
 70
0
 71
3
 72
10
 73
6
 74
0
 42
0.0000001
 43
0.0000001
 44
0.0000000001
 40
0.0
 40
0.0
 40
0.0
 40
0.0
 40
0.5038559243
 40
0.7525207765
 40
1.0
 40
1.0
 40
1.0
 40
1.0
 10
314.8332651992
 20
178.552180273
 30
0.0
 10
314.5791351937
 20
177.8709470584
 30
0.0
 10
314.3049246973
 20
176.8158155305
 30
0.0
 10
313.9990115554
 20
175.40629459
 30
0.0
 10
313.8652608133
 20
174.7026117212
 30
0.0
 10
313.8067865264
 20
174.3503058751
 30
0.0
  0
SPLINE
  5
7AF
100
AcDbEntity
  8
BEZUGSACHSEN
100
AcDbSpline
 62
7
  6
CONTINUOUS
 70
0
 71
3
 72
9
 73
5
 74
0
 42
0.0000001
 43
0.0000001
 44
0.0000000001
 40
0.0
 40
0.0
 40
0.0
 40
0.0
 40
0.2374250006
 40
1.0
 40
1.0
 40
1.0
 40
1.0
 10
348.5943471023
 20
167.6213730174
 30
0.0
 10
348.5947611037
 20
167.5457352467
 30
0.0
 10
348.6007827247
 20
167.22718441
 30
0.0
 10
348.6222905763
 20
166.909038215
 30
0.0
 10
348.6448306954
 20
166.667144818
 30
0.0
  0
SPLINE
  5
7B0
100
AcDbEntity
  8
BEZUGSACHSEN
100
AcDbSpline
 62
7
  6
CONTINUOUS
 70
0
 71
3
 72
15
 73
11
 74
0
 42
0.0000001
 43
0.0000001
 44
0.0000000001
 40
0.0
 40
0.0
 40
0.0
 40
0.0
 40
0.1250096932
 40
0.250002637
 40
0.3749916904
 40
0.4999801273
 40
0.6249688584
 40
0.7499597732
 40
0.8749609648
 40
1.0
 40
1.0
 40
1.0
 40
1.0
 10
348.6448306954
 20
166.667144818
 30
0.0
 10
348.8553549074
 20
164.4078658657
 30
0.0
 10
349.1465899918
 20
159.8774519948
 30
0.0
 10
349.3541927524
 20
153.0736556314
 30
0.0
 10
349.4346482647
 20
146.2677477394
 30
0.0
 10
349.444775523
 20
139.4616245197
 30
0.0
 10
349.392932147
 20
132.6556259916
 30
0.0
 10
349.2394406705
 20
125.8505015645
 30
0.0
 10
348.897262263
 20
119.0508186591
 30
0.0
 10
348.4529111213
 20
114.5304914957
 30
0.0
 10
348.1445142312
 20
112.2819429778
 30
0.0
  0
SPLINE
  5
7B1
100
AcDbEntity
  8
0
100
AcDbSpline
 62
7
  6
CONTINUOUS
 70
0
 71
3
 72
9
 73
5
 74
0
 42
0.0000001
 43
0.0000001
 44
0.0000000001
 40
0.0
 40
0.0
 40
0.0
 40
0.0
 40
0.4986644911
 40
1.0
 40
1.0
 40
1.0
 40
1.0
 10
313.7039641275
 20
51.0638969659
 30
0.0
 10
313.6735330794
 20
51.4649765882
 30
0.0
 10
313.6639126482
 20
52.2741162491
 30
0.0
 10
313.7589126907
 20
53.0774563309
 30
0.0
 10
313.8297246414
 20
53.4755950462
 30
0.0
  0
SPLINE
  5
7B2
100
AcDbEntity
  8
BEZUGSACHSEN
100
AcDbSpline
 62
7
  6
CONTINUOUS
 70
0
 71
3
 72
9
 73
5
 74
0
 42
0.0000001
 43
0.0000001
 44
0.0000000001
 40
0.0
 40
0.0
 40
0.0
 40
0.0
 40
0.2473211304
 40
1.0
 40
1.0
 40
1.0
 40
1.0
 10
349.2930559911
 20
171.0882909094
 30
0.0
 10
349.26230337
 20
170.9153849872
 30
0.0
 10
349.1254953363
 20
170.2185633018
 30
0.0
 10
348.9358242907
 20
169.5319674413
 30
0.0
 10
348.7628846974
 20
169.0262530257
 30
0.0
  0
SPLINE
  5
7B3
100
AcDbEntity
  8
BEZUGSACHSEN
100
AcDbSpline
 62
7
  6
CONTINUOUS
 70
0
 71
3
 72
9
 73
5
 74
0
 42
0.0000001
 43
0.0000001
 44
0.0000000001
 40
0.0
 40
0.0
 40
0.0
 40
0.0
 40
0.426902992
 40
1.0
 40
1.0
 40
1.0
 40
1.0
 10
348.7628846974
 20
169.0262530257
 30
0.0
 10
348.6975331894
 20
168.8351504616
 30
0.0
 10
348.61185502
 20
168.3657593595
 30
0.0
 10
348.5926947305
 20
167.8925002271
 30
0.0
 10
348.5943471023
 20
167.6213730174
 30
0.0
  0
SPLINE
  5
7B4
100
AcDbEntity
  8
BEZUGSACHSEN
100
AcDbSpline
 62
7
  6
CONTINUOUS
 70
0
 71
3
 72
9
 73
5
 74
0
 42
0.0000001
 43
0.0000001
 44
0.0000000001
 40
0.0
 40
0.0
 40
0.0
 40
0.0
 40
0.4986644911
 40
1.0
 40
1.0
 40
1.0
 40
1.0
 10
349.4188165049
 20
173.4999889898
 30
0.0
 10
349.4492475531
 20
173.0989093675
 30
0.0
 10
349.4588679843
 20
172.2897697066
 30
0.0
 10
349.3638679418
 20
171.4864296247
 30
0.0
 10
349.2930559911
 20
171.0882909094
 30
0.0
  0
SPLINE
  5
7B5
100
AcDbEntity
  8
BEZUGSACHSEN
100
AcDbSpline
 62
7
  6
CONTINUOUS
 70
0
 71
3
 72
9
 73
5
 74
0
 42
0.0000001
 43
0.0000001
 44
0.0000000001
 40
0.0
 40
0.0
 40
0.0
 40
0.0
 40
0.4986644911
 40
1.0
 40
1.0
 40
1.0
 40
1.0
 10
313.7039641275
 20
173.4999889898
 30
0.0
 10
313.6735330794
 20
173.0989093675
 30
0.0
 10
313.6639126482
 20
172.2897697066
 30
0.0
 10
313.7589126907
 20
171.4864296247
 30
0.0
 10
313.8297246414
 20
171.0882909094
 30
0.0
  0
SPLINE
  5
7B6
100
AcDbEntity
  8
BEZUGSACHSEN
100
AcDbSpline
 62
7
  6
CONTINUOUS
 70
0
 71
3
 72
9
 73
5
 74
0
 42
0.0000001
 43
0.0000001
 44
0.0000000001
 40
0.0
 40
0.0
 40
0.0
 40
0.0
 40
0.4986644911
 40
1.0
 40
1.0
 40
1.0
 40
1.0
 10
349.4188165049
 20
51.0638969659
 30
0.0
 10
349.4492475531
 20
51.4649765882
 30
0.0
 10
349.4588679843
 20
52.2741162491
 30
0.0
 10
349.3638679418
 20
53.0774563309
 30
0.0
 10
349.2930559911
 20
53.4755950462
 30
0.0
  0
SPLINE
  5
7B7
100
AcDbEntity
  8
RUNDUNGEN
100
AcDbSpline
 62
7
  6
CONTINUOUS
 70
0
 71
3
 72
9
 73
5
 74
0
 42
0.0000001
 43
0.0000001
 44
0.0000000001
 40
0.0
 40
0.0
 40
0.0
 40
0.0
 40
0.426902992
 40
1.0
 40
1.0
 40
1.0
 40
1.0
 10
314.359895935
 20
55.53763293
 30
0.0
 10
314.4252474431
 20
55.7287354941
 30
0.0
 10
314.5109256124
 20
56.1981265961
 30
0.0
 10
314.5300859019
 20
56.6713857285
 30
0.0
 10
314.5284335301
 20
56.9425129382
 30
0.0
  0
SPLINE
  5
7B8
100
AcDbEntity
  8
RUNDUNGEN
100
AcDbSpline
 62
7
  6
CONTINUOUS
 70
0
 71
3
 72
9
 73
5
 74
0
 42
0.0000001
 43
0.0000001
 44
0.0000000001
 40
0.0
 40
0.0
 40
0.0
 40
0.0
 40
0.2473211304
 40
1.0
 40
1.0
 40
1.0
 40
1.0
 10
313.8297246414
 20
53.4755950462
 30
0.0
 10
313.8604772625
 20
53.6485009685
 30
0.0
 10
313.9972852961
 20
54.3453226538
 30
0.0
 10
314.1869563417
 20
55.0319185144
 30
0.0
 10
314.359895935
 20
55.53763293
 30
0.0
  0
SPLINE
  5
7B9
100
AcDbEntity
  8
BEZUGSACHSEN
100
AcDbSpline
 62
7
  6
CONTINUOUS
 70
0
 71
3
 72
9
 73
5
 74
0
 42
0.0000001
 43
0.0000001
 44
0.0000000001
 40
0.0
 40
0.0
 40
0.0
 40
0.0
 40
0.426902992
 40
1.0
 40
1.0
 40
1.0
 40
1.0
 10
348.7628846974
 20
55.53763293
 30
0.0
 10
348.6975331894
 20
55.7287354941
 30
0.0
 10
348.61185502
 20
56.1981265961
 30
0.0
 10
348.5926947305
 20
56.6713857285
 30
0.0
 10
348.5943471023
 20
56.9425129382
 30
0.0
  0
SPLINE
  5
7BA
100
AcDbEntity
  8
BEZUGSACHSEN
100
AcDbSpline
 62
7
  6
CONTINUOUS
 70
0
 71
3
 72
9
 73
5
 74
0
 42
0.0000001
 43
0.0000001
 44
0.0000000001
 40
0.0
 40
0.0
 40
0.0
 40
0.0
 40
0.2473211304
 40
1.0
 40
1.0
 40
1.0
 40
1.0
 10
349.2930559911
 20
53.4755950462
 30
0.0
 10
349.26230337
 20
53.6485009685
 30
0.0
 10
349.1254953363
 20
54.3453226538
 30
0.0
 10
348.9358242907
 20
55.0319185144
 30
0.0
 10
348.7628846974
 20
55.53763293
 30
0.0
  0
SPLINE
  5
7BB
100
AcDbEntity
  8
BEZUGSACHSEN
100
AcDbSpline
 62
7
  6
CONTINUOUS
 70
0
 71
3
 72
15
 73
11
 74
0
 42
0.0000001
 43
0.0000001
 44
0.0000000001
 40
0.0
 40
0.0
 40
0.0
 40
0.0
 40
0.1250096932
 40
0.250002637
 40
0.3749916904
 40
0.4999801273
 40
0.6249688584
 40
0.7499597732
 40
0.8749609648
 40
1.0
 40
1.0
 40
1.0
 40
1.0
 10
314.477949937
 20
57.8967411377
 30
0.0
 10
314.267425725
 20
60.15602009
 30
0.0
 10
313.9761906407
 20
64.6864339609
 30
0.0
 10
313.76858788
 20
71.4902303243
 30
0.0
 10
313.6881323678
 20
78.2961382162
 30
0.0
 10
313.6780051094
 20
85.102261436
 30
0.0
 10
313.7298484854
 20
91.908259964
 30
0.0
 10
313.8833399619
 20
98.7133843911
 30
0.0
 10
314.2255183694
 20
105.5130672966
 30
0.0
 10
314.6698695112
 20
110.0333944599
 30
0.0
 10
314.9782664012
 20
112.2819429778
 30
0.0
  0
SPLINE
  5
7BC
100
AcDbEntity
  8
BEZUGSACHSEN
100
AcDbSpline
 62
7
  6
CONTINUOUS
 70
0
 71
3
 72
9
 73
5
 74
0
 42
0.0000001
 43
0.0000001
 44
0.0000000001
 40
0.0
 40
0.0
 40
0.0
 40
0.0
 40
0.2374250006
 40
1.0
 40
1.0
 40
1.0
 40
1.0
 10
348.5943471023
 20
56.9425129382
 30
0.0
 10
348.5947611037
 20
57.018150709
 30
0.0
 10
348.6007827247
 20
57.3367015456
 30
0.0
 10
348.6222905763
 20
57.6548477407
 30
0.0
 10
348.6448306954
 20
57.8967411377
 30
0.0
  0
SPLINE
  5
7BD
100
AcDbEntity
  8
BEZUGSACHSEN
100
AcDbSpline
 62
7
  6
CONTINUOUS
 70
0
 71
3
 72
15
 73
11
 74
0
 42
0.0000001
 43
0.0000001
 44
0.0000000001
 40
0.0
 40
0.0
 40
0.0
 40
0.0
 40
0.1250096932
 40
0.250002637
 40
0.3749916904
 40
0.4999801273
 40
0.6249688584
 40
0.7499597732
 40
0.8749609648
 40
1.0
 40
1.0
 40
1.0
 40
1.0
 10
348.6448306954
 20
57.8967411377
 30
0.0
 10
348.8553549074
 20
60.15602009
 30
0.0
 10
349.1465899918
 20
64.6864339609
 30
0.0
 10
349.3541927524
 20
71.4902303243
 30
0.0
 10
349.4346482647
 20
78.2961382162
 30
0.0
 10
349.444775523
 20
85.102261436
 30
0.0
 10
349.392932147
 20
91.908259964
 30
0.0
 10
349.2394406705
 20
98.7133843911
 30
0.0
 10
348.897262263
 20
105.5130672966
 30
0.0
 10
348.4529111213
 20
110.0333944599
 30
0.0
 10
348.1445142312
 20
112.2819429778
 30
0.0
  0
SPLINE
  5
7BE
100
AcDbEntity
  8
RUNDUNGEN
100
AcDbSpline
 62
7
  6
CONTINUOUS
 70
0
 71
3
 72
9
 73
5
 74
0
 42
0.0000001
 43
0.0000001
 44
0.0000000001
 40
0.0
 40
0.0
 40
0.0
 40
0.0
 40
0.2374250006
 40
1.0
 40
1.0
 40
1.0
 40
1.0
 10
314.5284335301
 20
56.9425129382
 30
0.0
 10
314.5280195288
 20
57.018150709
 30
0.0
 10
314.5219979077
 20
57.3367015456
 30
0.0
 10
314.5004900561
 20
57.6548477407
 30
0.0
 10
314.477949937
 20
57.8967411377
 30
0.0
  0
SPLINE
  5
7BF
100
AcDbEntity
  8
BEZUGSACHSEN
100
AcDbSpline
 62
7
  6
CONTINUOUS
 70
0
 71
3
 72
15
 73
11
 74
0
 42
0.0000001
 43
0.0000001
 44
0.0000000001
 40
0.0
 40
0.0
 40
0.0
 40
0.0
 40
0.1250096932
 40
0.250002637
 40
0.3749916904
 40
0.4999801273
 40
0.6249688584
 40
0.7499597732
 40
0.8749609648
 40
1.0
 40
1.0
 40
1.0
 40
1.0
 10
314.477949937
 20
166.667144818
 30
0.0
 10
314.267425725
 20
164.4078658657
 30
0.0
 10
313.9761906407
 20
159.8774519948
 30
0.0
 10
313.76858788
 20
153.0736556314
 30
0.0
 10
313.6881323678
 20
146.2677477394
 30
0.0
 10
313.6780051094
 20
139.4616245197
 30
0.0
 10
313.7298484854
 20
132.6556259916
 30
0.0
 10
313.8833399619
 20
125.8505015645
 30
0.0
 10
314.2255183694
 20
119.0508186591
 30
0.0
 10
314.6698695112
 20
114.5304914957
 30
0.0
 10
314.9782664012
 20
112.2819429778
 30
0.0
  0
SPLINE
  5
7C0
100
AcDbEntity
  8
BEZUGSACHSEN
100
AcDbSpline
 62
7
  6
CONTINUOUS
 70
0
 71
3
 72
9
 73
5
 74
0
 42
0.0000001
 43
0.0000001
 44
0.0000000001
 40
0.0
 40
0.0
 40
0.0
 40
0.0
 40
0.2374250006
 40
1.0
 40
1.0
 40
1.0
 40
1.0
 10
314.5284335301
 20
167.6213730174
 30
0.0
 10
314.5280195288
 20
167.5457352467
 30
0.0
 10
314.5219979077
 20
167.22718441
 30
0.0
 10
314.5004900561
 20
166.909038215
 30
0.0
 10
314.477949937
 20
166.667144818
 30
0.0
  0
SPLINE
  5
7C1
100
AcDbEntity
  8
BEZUGSACHSEN
100
AcDbSpline
 62
7
  6
CONTINUOUS
 70
0
 71
3
 72
9
 73
5
 74
0
 42
0.0000001
 43
0.0000001
 44
0.0000000001
 40
0.0
 40
0.0
 40
0.0
 40
0.0
 40
0.2473211304
 40
1.0
 40
1.0
 40
1.0
 40
1.0
 10
313.8297246414
 20
171.0882909094
 30
0.0
 10
313.8604772625
 20
170.9153849872
 30
0.0
 10
313.9972852961
 20
170.2185633018
 30
0.0
 10
314.1869563417
 20
169.5319674413
 30
0.0
 10
314.359895935
 20
169.0262530257
 30
0.0
  0
SPLINE
  5
7C2
100
AcDbEntity
  8
BEZUGSACHSEN
100
AcDbSpline
 62
7
  6
CONTINUOUS
 70
0
 71
3
 72
9
 73
5
 74
0
 42
0.0000001
 43
0.0000001
 44
0.0000000001
 40
0.0
 40
0.0
 40
0.0
 40
0.0
 40
0.426902992
 40
1.0
 40
1.0
 40
1.0
 40
1.0
 10
314.359895935
 20
169.0262530257
 30
0.0
 10
314.4252474431
 20
168.8351504616
 30
0.0
 10
314.5109256124
 20
168.3657593595
 30
0.0
 10
314.5300859019
 20
167.8925002271
 30
0.0
 10
314.5284335301
 20
167.6213730174
 30
0.0
  0
ELLIPSE
  5
7C3
100
AcDbEntity
  8
BEZUGSACHSEN
100
AcDbEllipse
 62
7
  6
CONTINUOUS
 10
331.5613903162
 20
492.5887340951
 30
0.0
 11
0.0
 21
23.2999127529
 31
0.0
 40
0.600860619
 41
-2.1118958528
 42
-1.88898289
  0
ELLIPSE
  5
7C4
100
AcDbEntity
  8
0
100
AcDbEllipse
 62
7
  6
CONTINUOUS
 10
331.5613903162
 20
492.5887340951
 30
0.0
 11
0.0
 21
23.2999127529
 31
0.0
 40
0.600860619
 41
-4.3942024171
 42
-4.1712894544
  0
ELLIPSE
  5
7C5
100
AcDbEntity
  8
0
100
AcDbEllipse
 62
7
  6
CONTINUOUS
 10
272.5613903162
 20
360.001355861
 30
0.0
 11
48.0
 21
0.0
 31
0.0
 40
0.255319362
 41
2.8044797677
 42
2.8301225521
  0
ELLIPSE
  5
7C6
100
AcDbEntity
  8
0
100
AcDbEllipse
 62
7
  6
CONTINUOUS
 10
272.5613903162
 20
353.2453288516
 30
0.0
 11
48.0
 21
-0.0
 31
0.0
 40
0.6808512211
 41
2.7850962935
 42
2.8044797677
  0
ELLIPSE
  5
7C7
100
AcDbEntity
  8
0
100
AcDbEllipse
 62
7
  6
CONTINUOUS
 10
272.5613903162
 20
338.9886468498
 30
0.0
 11
0.0
 21
73.5317658772
 31
0.0
 40
0.6527791007
 41
1.2012999619
 42
1.2142999667
  0
ELLIPSE
  5
7C8
100
AcDbEntity
  8
0
100
AcDbEllipse
 62
7
  6
CONTINUOUS
 10
272.5613903162
 20
294.7287568669
 30
0.0
 11
-0.0
 21
196.0858310159
 31
0.0
 40
0.244790762
 41
1.1947755281
 42
1.2012999619
  0
ELLIPSE
  5
7C9
100
AcDbEntity
  8
0
100
AcDbEllipse
 62
7
  6
CONTINUOUS
 10
272.5613903162
 20
443.2109819914
 30
0.0
 11
-0.0
 21
196.0858310159
 31
0.0
 40
0.244790762
 41
-4.3428926155
 42
-4.3363681817
  0
ELLIPSE
  5
7CA
100
AcDbEntity
  8
0
100
AcDbEllipse
 62
7
  6
CONTINUOUS
 10
272.5613903162
 20
398.9511168064
 30
0.0
 11
-0.0
 21
73.5318345416
 31
0.0
 40
0.6527784911
 41
-4.3558926203
 42
-4.3428926155
  0
ELLIPSE
  5
7CB
100
AcDbEntity
  8
0
100
AcDbEllipse
 62
7
  6
CONTINUOUS
 10
272.5613903162
 20
384.6944068473
 30
0.0
 11
48.0
 21
0.0
 31
0.0
 40
0.6808509827
 41
-2.8044797677
 42
-2.7850962935
  0
ELLIPSE
  5
7CC
100
AcDbEntity
  8
0
100
AcDbEllipse
 62
7
  6
CONTINUOUS
 10
272.5613903162
 20
377.9383836232
 30
0.0
 11
48.0
 21
-0.0
 31
0.0
 40
0.255319362
 41
-2.8301225521
 42
-2.8044797677
  0
ELLIPSE
  5
7CD
100
AcDbEntity
  8
0
100
AcDbEllipse
 62
7
  6
CONTINUOUS
 10
272.5613903162
 20
352.9553527488
 30
0.0
 11
-0.0
 21
196.0858310159
 31
0.0
 40
0.244790762
 41
1.5004605818
 42
1.5065507399
  0
ELLIPSE
  5
7CE
100
AcDbEntity
  8
0
100
AcDbEllipse
 62
7
  6
CONTINUOUS
 10
272.5613903162
 20
360.823495365
 30
0.0
 11
-0.0
 21
73.5317658772
 31
0.0
 40
0.6527791007
 41
1.5065507399
 42
1.5187241981
  0
ELLIPSE
  5
7CF
100
AcDbEntity
  8
0
100
AcDbEllipse
 62
7
  6
CONTINUOUS
 10
272.5613903162
 20
362.9497278773
 30
0.0
 11
48.0
 21
0.0
 31
0.0
 40
0.6808512211
 41
9.3727058321
 42
9.3909520777
  0
ELLIPSE
  5
7D0
100
AcDbEntity
  8
0
100
AcDbEllipse
 62
7
  6
CONTINUOUS
 10
272.5613903162
 20
363.6405076919
 30
0.0
 11
48.0
 21
-0.0
 31
0.0
 40
0.255319362
 41
3.1077667706
 42
3.1320786096
  0
ELLIPSE
  5
7D1
100
AcDbEntity
  8
0
100
AcDbEllipse
 62
7
  6
CONTINUOUS
 10
272.5613903162
 20
363.5758271882
 30
0.0
 11
48.0
 21
-0.0
 31
0.0
 40
0.2553189968
 41
3.1024854523
 42
3.1268004475
  0
ELLIPSE
  5
7D2
100
AcDbEntity
  8
0
100
AcDbEllipse
 62
7
  6
CONTINUOUS
 10
272.5613903162
 20
362.7772448105
 30
0.0
 11
48.0
 21
0.0
 31
0.0
 40
0.6808512211
 41
3.0842348078
 42
3.1024854523
  0
ELLIPSE
  5
7D3
100
AcDbEntity
  8
0
100
AcDbEllipse
 62
7
  6
CONTINUOUS
 10
272.5613903162
 20
360.4353972806
 30
0.0
 11
0.0
 21
73.5319762535
 31
0.0
 40
0.6527772331
 41
1.5012611383
 42
1.513438481
  0
ELLIPSE
  5
7D4
100
AcDbEntity
  8
0
100
AcDbEllipse
 62
7
  6
CONTINUOUS
 10
272.5613903162
 20
351.9205355362
 30
0.0
 11
0.0
 21
196.0847090059
 31
0.0
 40
0.2447921628
 41
1.4951686877
 42
1.5012611383
  0
ELLIPSE
  5
7D5
100
AcDbEntity
  8
0
100
AcDbEllipse
 62
7
  6
CONTINUOUS
 10
272.5613903162
 20
327.0565361746
 30
0.0
 11
48.0
 21
0.0
 31
0.0
 40
0.1702127606
 41
-2.9608885946
 42
-2.9311540173
  0
ELLIPSE
  5
7D6
100
AcDbEntity
  8
0
100
AcDbEllipse
 62
7
  6
CONTINUOUS
 10
272.5613903162
 20
328.5249048467
 30
0.0
 11
48.0
 21
0.0
 31
0.0
 40
0.3404255211
 41
-2.975693831
 42
-2.9608885946
  0
ELLIPSE
  5
7D7
100
AcDbEntity
  8
0
100
AcDbEllipse
 62
7
  6
CONTINUOUS
 10
272.5613903162
 20
331.2233443261
 30
0.0
 11
48.0
 21
0.0
 31
0.0
 40
0.6808510423
 41
-2.9904624532
 42
-2.975693831
  0
ELLIPSE
  5
7D8
100
AcDbEntity
  8
0
100
AcDbEllipse
 62
7
  6
CONTINUOUS
 10
272.5613903162
 20
341.0639248614
 30
0.0
 11
0.0
 21
98.0426435877
 31
0.0
 40
0.4895828819
 41
-4.5710858934
 42
-4.56125878
  0
ELLIPSE
  5
7D9
100
AcDbEntity
  8
0
100
AcDbEllipse
 62
7
  6
CONTINUOUS
 10
272.5613903162
 20
326.4664654162
 30
0.0
 11
48.0
 21
0.0
 31
0.0
 40
0.6808509827
 41
3.117423634
 42
3.1320091736
  0
ELLIPSE
  5
7DA
100
AcDbEntity
  8
0
100
AcDbEllipse
 62
7
  6
CONTINUOUS
 10
272.5613903162
 20
325.4792293818
 30
0.0
 11
0.0
 21
73.5319934196
 31
0.0
 40
0.6527770807
 41
1.5369009572
 42
1.5466273072
  0
ELLIPSE
  5
7DB
100
AcDbEntity
  8
0
100
AcDbEllipse
 62
7
  6
CONTINUOUS
 10
272.5613903162
 20
322.9873279311
 30
0.0
 11
0.0
 21
147.0635317544
 31
0.0
 40
0.3263895503
 41
1.5320366226
 42
1.5369009572
  0
ELLIPSE
  5
7DC
100
AcDbEntity
  8
0
100
AcDbEllipse
 62
7
  6
CONTINUOUS
 10
272.5613903162
 20
334.8613499907
 30
0.0
 11
-0.0
 21
147.0636004189
 31
0.0
 40
0.3263893979
 41
-4.6784936108
 42
-4.6736292762
  0
ELLIPSE
  5
7DD
100
AcDbEntity
  8
0
100
AcDbEllipse
 62
7
  6
CONTINUOUS
 10
272.5613903162
 20
332.3694456313
 30
0.0
 11
0.0
 21
73.5319762535
 31
0.0
 40
0.6527772331
 41
-4.6882199608
 42
-4.6784936108
  0
ELLIPSE
  5
7DE
100
AcDbEntity
  8
0
100
AcDbEllipse
 62
7
  6
CONTINUOUS
 10
272.5613903162
 20
331.3822100118
 30
0.0
 11
48.0
 21
0.0
 31
0.0
 40
0.6808509827
 41
-3.1320091736
 42
-3.117423634
  0
ELLIPSE
  5
7DF
100
AcDbEntity
  8
0
100
AcDbEllipse
 62
7
  6
CONTINUOUS
 10
272.5613903162
 20
424.6561124098
 30
0.0
 11
0.0
 21
98.0417935044
 31
0.0
 40
0.4895871269
 41
-3.8718541393
 42
-3.8653236944
  0
ELLIPSE
  5
7E0
100
AcDbEntity
  8
0
100
AcDbEllipse
 62
7
  6
CONTINUOUS
 10
272.5613903162
 20
388.1359622757
 30
0.0
 11
-0.0
 21
49.021457754
 31
0.0
 40
0.9791630482
 41
-3.884774302
 42
-3.8718541393
  0
ELLIPSE
  5
7E1
100
AcDbEntity
  8
0
100
AcDbEllipse
 62
7
  6
CONTINUOUS
 10
272.5613903162
 20
364.0722802696
 30
0.0
 11
48.0
 21
-0.0
 31
0.0
 40
0.3404254913
 41
-2.3330252707
 42
-2.3139779752
  0
ELLIPSE
  5
7E2
100
AcDbEntity
  8
0
100
AcDbEllipse
 62
7
  6
CONTINUOUS
 10
272.5613903162
 20
350.2808581239
 30
0.0
 11
48.0
 21
0.0
 31
0.0
 40
0.2042556244
 41
-2.4115854539
 42
-2.3820686389
  0
ELLIPSE
  5
7E3
100
AcDbEntity
  8
0
100
AcDbEllipse
 62
7
  6
CONTINUOUS
 10
272.5613903162
 20
363.3573031949
 30
0.0
 11
48.0
 21
-0.0
 31
0.0
 40
0.6127668731
 41
-2.4403421198
 42
-2.4115854539
  0
ELLIPSE
  5
7E4
100
AcDbEntity
  8
0
100
AcDbEllipse
 62
7
  6
CONTINUOUS
 10
272.5613903162
 20
397.092997675
 30
0.0
 11
-0.0
 21
81.7021350861
 31
0.0
 40
0.5874999466
 41
-4.0280605264
 42
-4.0111384466
  0
ELLIPSE
  5
7E5
100
AcDbEntity
  8
0
100
AcDbEllipse
 62
7
  6
CONTINUOUS
 10
272.5613903162
 20
469.3995540218
 30
0.0
 11
-0.0
 21
196.0835870088
 31
0.0
 40
0.2447935635
 41
-4.0336493446
 42
-4.0280605264
  0
ELLIPSE
  5
7E6
100
AcDbEntity
  8
0
100
AcDbEllipse
 62
7
  6
CONTINUOUS
 10
272.5613903162
 20
335.9421768964
 30
0.0
 11
48.0
 21
0.0
 31
0.0
 40
0.2553200925
 41
2.3075409709
 42
2.3330252707
  0
ELLIPSE
  5
7E7
100
AcDbEntity
  8
0
100
AcDbEllipse
 62
7
  6
CONTINUOUS
 10
272.5613903162
 20
320.813836732
 30
0.0
 11
48.0
 21
0.0
 31
0.0
 40
0.6808512211
 41
2.2879484527
 42
2.3075409709
  0
ELLIPSE
  5
7E8
100
AcDbEntity
  8
0
100
AcDbEllipse
 62
7
  6
CONTINUOUS
 10
272.5613903162
 20
290.0256207124
 30
0.0
 11
0.0
 21
73.5313451283
 31
0.0
 40
0.6527828359
 41
0.7038424943
 42
0.7171521259
  0
ELLIPSE
  5
7E9
100
AcDbEntity
  8
0
100
AcDbEllipse
 62
7
  6
CONTINUOUS
 10
272.5613903162
 20
402.7788254988
 30
0.0
 11
-0.0
 21
73.5313794603
 31
0.0
 40
0.6527825311
 41
-3.8587447795
 42
-3.8454351479
  0
ELLIPSE
  5
7EA
100
AcDbEntity
  8
0
100
AcDbEllipse
 62
7
  6
CONTINUOUS
 10
272.5613903162
 20
371.9905749787
 30
0.0
 11
48.0
 21
0.0
 31
0.0
 40
0.6808509827
 41
-2.3075409709
 42
-2.2879484527
  0
ELLIPSE
  5
7EB
100
AcDbEntity
  8
0
100
AcDbEllipse
 62
7
  6
CONTINUOUS
 10
272.5613903162
 20
356.8622432904
 30
0.0
 11
48.0
 21
-0.0
 31
0.0
 40
0.2553200925
 41
-2.3330252707
 42
-2.3075409709
  0
ELLIPSE
  5
7EC
100
AcDbEntity
  8
0
100
AcDbEllipse
 62
7
  6
CONTINUOUS
 10
272.5613903162
 20
356.5430442792
 30
0.0
 11
48.0
 21
-0.0
 31
0.0
 40
0.2553186315
 41
-2.3939720785
 42
-2.3700289626
  0
ELLIPSE
  5
7ED
100
AcDbEntity
  8
0
100
AcDbEllipse
 62
7
  6
CONTINUOUS
 10
272.5613903162
 20
364.8753678188
 30
0.0
 11
48.0
 21
-0.0
 31
0.0
 40
0.510637263
 41
-2.4173949791
 42
-2.3939720785
  0
ELLIPSE
  5
7EE
100
AcDbEntity
  8
0
100
AcDbEllipse
 62
7
  6
CONTINUOUS
 10
272.5613903162
 20
381.1146688765
 30
0.0
 11
-0.0
 21
49.021457754
 31
0.0
 40
0.9791630482
 41
-4.0111384466
 42
-3.9881913059
  0
ELLIPSE
  5
7EF
100
AcDbEntity
  8
0
100
AcDbEllipse
 62
7
  6
CONTINUOUS
 10
272.5613903162
 20
475.9952787353
 30
0.0
 11
-0.0
 21
196.0835870088
 31
0.0
 40
0.2447935635
 41
-4.0168056842
 42
-4.0111384466
  0
ELLIPSE
  5
7F0
100
AcDbEntity
  8
0
100
AcDbEllipse
 62
7
  6
CONTINUOUS
 10
272.5613903162
 20
225.5325457101
 30
0.0
 11
0.0
 21
196.0835870088
 31
0.0
 40
0.2447935635
 41
0.8695457931
 42
0.8752130306
  0
ELLIPSE
  5
7F1
100
AcDbEntity
  8
0
100
AcDbEllipse
 62
7
  6
CONTINUOUS
 10
272.5613903162
 20
320.4131555688
 30
0.0
 11
0.0
 21
49.021457754
 31
0.0
 40
0.9791630482
 41
0.8465986523
 42
0.8695457931
  0
ELLIPSE
  5
7F2
100
AcDbEntity
  8
0
100
AcDbEllipse
 62
7
  6
CONTINUOUS
 10
272.5613903162
 20
336.6524566265
 30
0.0
 11
48.0
 21
0.0
 31
0.0
 40
0.510637263
 41
2.3939720785
 42
2.4173949791
  0
ELLIPSE
  5
7F3
100
AcDbEntity
  8
0
100
AcDbEllipse
 62
7
  6
CONTINUOUS
 10
272.5613903162
 20
344.9847801661
 30
0.0
 11
48.0
 21
0.0
 31
0.0
 40
0.2553186315
 41
2.3700289626
 42
2.3939720785
  0
ELLIPSE
  5
7F4
100
AcDbEntity
  8
0
100
AcDbEllipse
 62
7
  6
CONTINUOUS
 10
272.5613903162
 20
348.4936214109
 30
0.0
 11
48.0
 21
0.0
 31
0.0
 40
0.2042556244
 41
-2.635705878
 42
-2.6107216132
  0
ELLIPSE
  5
7F5
100
AcDbEntity
  8
0
100
AcDbEllipse
 62
7
  6
CONTINUOUS
 10
272.5613903162
 20
355.6200598864
 30
0.0
 11
48.0
 21
0.0
 31
0.0
 40
0.5106373301
 41
-2.6554463159
 42
-2.635705878
  0
ELLIPSE
  5
7F6
100
AcDbEntity
  8
0
100
AcDbEllipse
 62
7
  6
CONTINUOUS
 10
272.5613903162
 20
367.0720823187
 30
0.0
 11
-0.0
 21
49.0214620455
 31
0.0
 40
0.9791629624
 41
-4.2457791239
 42
-4.2262426427
  0
ELLIPSE
  5
7F7
100
AcDbEntity
  8
0
100
AcDbEllipse
 62
7
  6
CONTINUOUS
 10
272.5613903162
 20
389.1244324414
 30
0.0
 11
-0.0
 21
98.0418106704
 31
0.0
 40
0.4895870412
 41
-4.2554752667
 42
-4.2457791239
  0
ELLIPSE
  5
7F8
100
AcDbEntity
  8
0
100
AcDbEllipse
 62
7
  6
CONTINUOUS
 10
272.5613903162
 20
454.0080944461
 30
0.0
 11
-0.0
 21
245.110093843
 31
0.0
 40
0.1958303685
 41
-4.2603058798
 42
-4.2554752667
  0
ELLIPSE
  5
7F9
100
AcDbEntity
  8
0
100
AcDbEllipse
 62
7
  6
CONTINUOUS
 10
272.5613903162
 20
338.3890315761
 30
0.0
 11
48.0
 21
0.0
 31
0.0
 40
0.2553186315
 41
2.569958673
 42
2.5904678352
  0
ELLIPSE
  5
7FA
100
AcDbEntity
  8
0
100
AcDbEllipse
 62
7
  6
CONTINUOUS
 10
272.5613903162
 20
327.3386587696
 30
0.0
 11
48.0
 21
0.0
 31
0.0
 40
0.6808512211
 41
2.5543979392
 42
2.569958673
  0
ELLIPSE
  5
7FB
100
AcDbEntity
  8
0
100
AcDbEllipse
 62
7
  6
CONTINUOUS
 10
272.5613903162
 20
304.7058869353
 30
0.0
 11
0.0
 21
73.532186631
 31
0.0
 40
0.6527753654
 41
0.9731379122
 42
0.9836016124
  0
ELLIPSE
  5
7FC
100
AcDbEntity
  8
0
100
AcDbEllipse
 62
7
  6
CONTINUOUS
 10
272.5613903162
 20
235.7451926811
 30
0.0
 11
0.0
 21
196.0835870088
 31
0.0
 40
0.2447935635
 41
0.9678780247
 42
0.9731379122
  0
ELLIPSE
  5
7FD
100
AcDbEntity
  8
0
100
AcDbEllipse
 62
7
  6
CONTINUOUS
 10
272.5613903162
 20
346.6754017737
 30
0.0
 11
48.0
 21
-0.0
 31
0.0
 40
0.3404254913
 41
2.9686484911
 42
2.9818516631
  0
ELLIPSE
  5
7FE
100
AcDbEntity
  8
0
100
AcDbEllipse
 62
7
  6
CONTINUOUS
 10
272.5613903162
 20
341.051540477
 30
0.0
 11
0.0
 21
49.021457754
 31
0.0
 40
0.9791630482
 41
1.389033281
 42
1.3978521643
  0
ELLIPSE
  5
7FF
100
AcDbEntity
  8
0
100
AcDbEllipse
 62
7
  6
CONTINUOUS
 10
272.5613903162
 20
323.3292292649
 30
0.0
 11
-0.0
 21
147.0626902566
 31
0.0
 40
0.3263914179
 41
1.3846184671
 42
1.389033281
  0
ELLIPSE
  5
800
100
AcDbEntity
  8
0
100
AcDbEllipse
 62
7
  6
CONTINUOUS
 10
272.5613903162
 20
378.4113611126
 30
0.0
 11
0.0
 21
147.0626902566
 31
0.0
 40
0.3263914179
 41
-4.5306259346
 42
-4.5262111207
  0
ELLIPSE
  5
801
100
AcDbEntity
  8
0
100
AcDbEllipse
 62
7
  6
CONTINUOUS
 10
272.5613903162
 20
360.6890499004
 30
0.0
 11
-0.0
 21
49.021457754
 31
0.0
 40
0.9791630482
 41
-4.5394448179
 42
-4.5306259346
  0
ELLIPSE
  5
802
100
AcDbEntity
  8
0
100
AcDbEllipse
 62
7
  6
CONTINUOUS
 10
272.5613903162
 20
355.0651886037
 30
0.0
 11
48.0
 21
0.0
 31
0.0
 40
0.3404254913
 41
-2.9818516631
 42
-2.9686484911
  0
ELLIPSE
  5
803
100
AcDbEntity
  8
0
100
AcDbEllipse
 62
7
  6
CONTINUOUS
 10
272.5613903162
 20
332.5736987307
 30
0.0
 11
47.5
 21
0.0
 31
0.0
 40
0.6808509827
 41
-2.968946793
 42
-2.9539674385
  0
ELLIPSE
  5
804
100
AcDbEntity
  8
0
100
AcDbEllipse
 62
7
  6
CONTINUOUS
 10
272.5613903162
 20
352.0187609469
 30
0.0
 11
-0.0
 21
145.5316539399
 31
0.0
 40
0.3263894741
 41
-4.5447273942
 42
-4.5397431198
  0
ELLIPSE
  5
805
100
AcDbEntity
  8
0
100
AcDbEllipse
 62
7
  6
CONTINUOUS
 10
272.5613903162
 20
267.7907861138
 30
0.0
 11
0.0
 21
245.1072887699
 31
0.0
 40
0.1958326096
 41
1.1552601546
 42
1.1618920627
  0
ELLIPSE
  5
806
100
AcDbEntity
  8
0
100
AcDbEllipse
 62
7
  6
CONTINUOUS
 10
272.5613903162
 20
340.8597996851
 30
0.0
 11
48.0
 21
0.0
 31
0.0
 40
0.3404254913
 41
2.3700289626
 42
2.388036909
  0
ELLIPSE
  5
807
100
AcDbEntity
  8
0
100
AcDbEllipse
 62
7
  6
CONTINUOUS
 10
272.5613903162
 20
329.679091257
 30
0.0
 11
48.0
 21
-0.0
 31
0.0
 40
0.6808509827
 41
2.388036909
 42
2.4057455656
  0
ELLIPSE
  5
808
100
AcDbEntity
  8
0
100
AcDbEllipse
 62
7
  6
CONTINUOUS
 10
272.5613903162
 20
252.9041547112
 30
0.0
 11
0.0
 21
147.0628275846
 31
0.0
 40
0.3263911132
 41
0.8349492388
 42
0.8407891271
  0
ELLIPSE
  5
809
100
AcDbEntity
  8
0
100
AcDbEllipse
 62
7
  6
CONTINUOUS
 10
272.5613903162
 20
448.6235775574
 30
0.0
 11
0.0
 21
147.0626902566
 31
0.0
 40
0.3263914179
 41
-3.9823817807
 42
-3.9765418924
  0
ELLIPSE
  5
80A
100
AcDbEntity
  8
0
100
AcDbEllipse
 62
7
  6
CONTINUOUS
 10
272.5613903162
 20
371.8487331884
 30
0.0
 11
48.0
 21
0.0
 31
0.0
 40
0.6808509827
 41
-2.4057455656
 42
-2.388036909
  0
ELLIPSE
  5
80B
100
AcDbEntity
  8
0
100
AcDbEllipse
 62
7
  6
CONTINUOUS
 10
272.5613903162
 20
360.6680247602
 30
0.0
 11
48.0
 21
-0.0
 31
0.0
 40
0.3404254913
 41
-2.388036909
 42
-2.3700289626
  0
ELLIPSE
  5
80C
100
AcDbEntity
  8
0
100
AcDbEllipse
 62
7
  6
CONTINUOUS
 10
272.5613903162
 20
356.3659649553
 30
0.0
 11
48.0
 21
0.0
 31
0.0
 40
0.2042556065
 41
-2.3330252707
 42
-2.3010578125
  0
ELLIPSE
  5
80D
100
AcDbEntity
  8
0
100
AcDbEllipse
 62
7
  6
CONTINUOUS
 10
272.5613903162
 20
367.3221729942
 30
0.0
 11
48.0
 21
0.0
 31
0.0
 40
0.510637263
 41
-2.3010578125
 42
-2.2746388211
  0
ELLIPSE
  5
80E
100
AcDbEntity
  8
0
100
AcDbEllipse
 62
7
  6
CONTINUOUS
 10
272.5613903162
 20
386.0083072287
 30
0.0
 11
-0.0
 21
49.021457754
 31
0.0
 40
0.9791630482
 41
-3.8454351479
 42
-3.8181669841
  0
ELLIPSE
  5
80F
100
AcDbEntity
  8
0
100
AcDbEllipse
 62
7
  6
CONTINUOUS
 10
272.5613903162
 20
424.2305775003
 30
0.0
 11
-0.0
 21
98.0418278364
 31
0.0
 40
0.4895869555
 41
-3.8181669841
 42
-3.804180703
  0
ELLIPSE
  5
810
100
AcDbEntity
  8
0
100
AcDbEllipse
 62
7
  6
CONTINUOUS
 10
272.5613903162
 20
268.5738560713
 30
0.0
 11
0.0
 21
98.0418106704
 31
0.0
 40
0.4895870412
 41
0.6625880494
 42
0.6765743305
  0
ELLIPSE
  5
811
100
AcDbEntity
  8
0
100
AcDbEllipse
 62
7
  6
CONTINUOUS
 10
272.5613903162
 20
306.7961096119
 30
0.0
 11
0.0
 21
49.0214620455
 31
0.0
 40
0.9791629624
 41
0.6765743305
 42
0.7038424943
  0
ELLIPSE
  5
812
100
AcDbEntity
  8
0
100
AcDbEllipse
 62
7
  6
CONTINUOUS
 10
272.5613903162
 20
325.4822446644
 30
0.0
 11
48.0
 21
-0.0
 31
0.0
 40
0.5106373301
 41
2.2746388211
 42
2.3010578125
  0
ELLIPSE
  5
813
100
AcDbEntity
  8
0
100
AcDbEllipse
 62
7
  6
CONTINUOUS
 10
272.5613903162
 20
336.4384544617
 30
0.0
 11
48.0
 21
-0.0
 31
0.0
 40
0.2042556244
 41
2.3010578125
 42
2.3330252707
  0
ELLIPSE
  5
814
100
AcDbEntity
  8
0
100
AcDbEllipse
 62
7
  6
CONTINUOUS
 10
272.5613903162
 20
326.2644099236
 30
0.0
 11
-0.0
 21
98.0423716691
 31
0.0
 40
0.4895842398
 41
1.1618920627
 42
1.1750993898
  0
ELLIPSE
  5
815
100
AcDbEntity
  8
0
100
AcDbEllipse
 62
7
  6
CONTINUOUS
 10
272.5613903162
 20
345.1596405465
 30
0.0
 11
-0.0
 21
49.0213217939
 31
0.0
 40
0.9791657639
 41
1.1750993898
 42
1.2012999619
  0
ELLIPSE
  5
816
100
AcDbEntity
  8
0
100
AcDbEllipse
 62
7
  6
CONTINUOUS
 10
272.5613903162
 20
442.4533798383
 30
0.0
 11
-0.0
 21
147.0626902566
 31
0.0
 40
0.3263914179
 41
-3.9997217621
 42
-3.9939709978
  0
ELLIPSE
  5
817
100
AcDbEntity
  8
0
100
AcDbEllipse
 62
7
  6
CONTINUOUS
 10
272.5613903162
 20
377.9230664809
 30
0.0
 11
-0.0
 21
49.021282196
 31
0.0
 40
0.9791665548
 41
-3.9939709978
 42
-3.9765418924
  0
ELLIPSE
  5
818
100
AcDbEntity
  8
0
100
AcDbEllipse
 62
7
  6
CONTINUOUS
 10
272.5613903162
 20
353.245219563
 30
0.0
 11
48.0
 21
0.0
 31
0.0
 40
0.2553200925
 41
-2.4057455656
 42
-2.3820686389
  0
ELLIPSE
  5
819
100
AcDbEntity
  8
0
100
AcDbEllipse
 62
7
  6
CONTINUOUS
 10
272.5613903162
 20
354.0115632142
 30
0.0
 11
48.0
 21
0.0
 31
0.0
 40
0.510638791
 41
2.7720962887
 42
2.7980335855
  0
ELLIPSE
  5
81A
100
AcDbEntity
  8
0
100
AcDbEllipse
 62
7
  6
CONTINUOUS
 10
272.5613903162
 20
358.9652762806
 30
0.0
 11
48.0
 21
0.0
 31
0.0
 40
0.2042551568
 41
2.7980335855
 42
2.8301225521
  0
ELLIPSE
  5
81B
100
AcDbEntity
  8
0
100
AcDbEllipse
 62
7
  6
CONTINUOUS
 10
272.5613903162
 20
351.0111687539
 30
0.0
 11
47.5
 21
0.0
 31
0.0
 40
0.2553200925
 41
3.658357724
 42
3.6770335022
  0
ELLIPSE
  5
81C
100
AcDbEntity
  8
0
100
AcDbEllipse
 62
7
  6
CONTINUOUS
 10
272.5613903162
 20
360.9976758004
 30
0.0
 11
47.5
 21
-0.0
 31
0.0
 40
0.6808512211
 41
-2.6398976963
 42
-2.6248275832
  0
ELLIPSE
  5
81D
100
AcDbEntity
  8
0
100
AcDbEllipse
 62
7
  6
CONTINUOUS
 10
272.5613903162
 20
380.4385371597
 30
0.0
 11
0.0
 21
72.7653936165
 31
0.0
 40
0.6527828359
 41
-4.2206718009
 42
-4.2106940231
  0
ELLIPSE
  5
81E
100
AcDbEntity
  8
0
100
AcDbEllipse
 62
7
  6
CONTINUOUS
 10
272.5613903162
 20
361.8248483104
 30
0.0
 11
47.5
 21
0.0
 31
0.0
 40
0.2042553906
 41
3.0959276734
 42
3.1266447285
  0
ELLIPSE
  5
81F
100
AcDbEntity
  8
0
100
AcDbEllipse
 62
7
  6
CONTINUOUS
 10
272.5613903162
 20
361.1605087248
 30
0.0
 11
47.5
 21
-0.0
 31
0.0
 40
0.5106380606
 41
3.0713243149
 42
3.0959276734
  0
ELLIPSE
  5
820
100
AcDbEntity
  8
0
100
AcDbEllipse
 62
7
  6
CONTINUOUS
 10
272.5613903162
 20
359.457530942
 30
0.0
 11
0.0
 21
48.5106136301
 31
0.0
 40
0.9791671646
 41
1.498794454
 42
1.5005279881
  0
ELLIPSE
  5
821
100
AcDbEntity
  8
0
100
AcDbEllipse
 62
7
  6
CONTINUOUS
 10
272.5613903162
 20
437.6997608151
 30
0.0
 11
-0.0
 21
194.045490959
 31
0.0
 40
0.2447879606
 41
-4.2256405717
 42
-4.2206718009
  0
ELLIPSE
  5
822
100
AcDbEntity
  8
0
100
AcDbEllipse
 62
7
  6
CONTINUOUS
 10
272.5613903162
 20
358.9652762806
 30
0.0
 11
47.5
 21
0.0
 31
0.0
 40
0.2042551568
 41
2.7942652855
 42
2.8267317556
  0
ELLIPSE
  5
823
100
AcDbEntity
  8
0
100
AcDbEllipse
 62
7
  6
CONTINUOUS
 10
272.5613903162
 20
354.0115632142
 30
0.0
 11
47.5
 21
-0.0
 31
0.0
 40
0.510638791
 41
2.7680163817
 42
2.7942652855
  0
ELLIPSE
  5
824
100
AcDbEntity
  8
0
100
AcDbEllipse
 62
7
  6
CONTINUOUS
 10
272.5613903162
 20
345.1596405465
 30
0.0
 11
-0.0
 21
48.5106830252
 31
0.0
 40
0.9791657639
 41
1.1706981703
 42
1.1972200549
  0
ELLIPSE
  5
825
100
AcDbEntity
  8
0
100
AcDbEllipse
 62
7
  6
CONTINUOUS
 10
272.5613903162
 20
326.2644099236
 30
0.0
 11
0.0
 21
97.0210969642
 31
0.0
 40
0.4895842398
 41
1.157326171
 42
1.1706981703
  0
ELLIPSE
  5
826
100
AcDbEntity
  8
0
100
AcDbEllipse
 62
7
  6
CONTINUOUS
 10
272.5613903162
 20
267.7907861138
 30
0.0
 11
0.0
 21
242.5540878452
 31
0.0
 40
0.1958326096
 41
1.1506108519
 42
1.157326171
  0
ELLIPSE
  5
827
100
AcDbEntity
  8
0
100
AcDbEllipse
 62
7
  6
CONTINUOUS
 10
272.5613903162
 20
470.1490081818
 30
0.0
 11
0.0
 21
242.5542237443
 31
0.0
 40
0.1958324999
 41
-4.2989188246
 42
-4.2922035055
  0
ELLIPSE
  5
828
100
AcDbEntity
  8
0
100
AcDbEllipse
 62
7
  6
CONTINUOUS
 10
272.5613903162
 20
411.6753229439
 30
0.0
 11
-0.0
 21
97.0210799769
 31
0.0
 40
0.4895843255
 41
-4.3122908239
 42
-4.2989188246
  0
ELLIPSE
  5
829
100
AcDbEntity
  8
0
100
AcDbEllipse
 62
7
  6
CONTINUOUS
 10
272.5613903162
 20
392.7800972835
 30
0.0
 11
0.0
 21
48.5106787783
 31
0.0
 40
0.9791658496
 41
-4.3388127085
 42
-4.3122908239
  0
ELLIPSE
  5
82A
100
AcDbEntity
  8
0
100
AcDbEllipse
 62
7
  6
CONTINUOUS
 10
272.5613903162
 20
383.9281750033
 30
0.0
 11
47.5
 21
-0.0
 31
0.0
 40
0.510638724
 41
-2.7942652855
 42
-2.7680163817
  0
ELLIPSE
  5
82B
100
AcDbEntity
  8
0
100
AcDbEllipse
 62
7
  6
CONTINUOUS
 10
272.5613903162
 20
378.974462732
 30
0.0
 11
47.5
 21
-0.0
 31
0.0
 40
0.204255139
 41
-2.8267317556
 42
-2.7942652855
  0
ELLIPSE
  5
82C
100
AcDbEntity
  8
0
100
AcDbEllipse
 62
7
  6
CONTINUOUS
 10
272.5613903162
 20
325.4465504772
 30
0.0
 11
47.5
 21
-0.0
 31
0.0
 40
0.2042553906
 41
3.1269956487
 42
3.1415925961
  0
ELLIPSE
  5
82D
100
AcDbEntity
  8
0
100
AcDbEllipse
 62
7
  6
CONTINUOUS
 10
272.5613903162
 20
360.578730617
 30
0.0
 11
48.0
 21
-0.0
 31
0.0
 40
0.2042556065
 41
-2.339290185
 42
-2.3075409709
  0
ELLIPSE
  5
82E
100
AcDbEntity
  8
0
100
AcDbEllipse
 62
7
  6
CONTINUOUS
 10
272.5613903162
 20
380.5481111328
 30
0.0
 11
48.0
 21
-0.0
 31
0.0
 40
0.7659558946
 41
-2.3075409709
 42
-2.2813193726
  0
ELLIPSE
  5
82F
100
AcDbEntity
  8
0
100
AcDbEllipse
 62
7
  6
CONTINUOUS
 10
272.5613903162
 20
402.224331918
 30
0.0
 11
-0.0
 21
65.3616943359
 31
0.0
 40
0.7343750875
 41
-3.8521156994
 42
-3.8319136224
  0
ELLIPSE
  5
830
100
AcDbEntity
  8
0
100
AcDbEllipse
 62
7
  6
CONTINUOUS
 10
272.5613903162
 20
339.2805605837
 30
0.0
 11
-0.0
 21
245.1058862574
 31
0.0
 40
0.1958337302
 41
1.4585468519
 42
1.4646596676
  0
ELLIPSE
  5
831
100
AcDbEntity
  8
0
100
AcDbEllipse
 62
7
  6
CONTINUOUS
 10
272.5613903162
 20
465.219203981
 30
0.0
 11
-0.0
 21
147.0626902566
 31
0.0
 40
0.3263914179
 41
-3.8319136224
 42
-3.8250692292
  0
ELLIPSE
  5
832
100
AcDbEntity
  8
0
100
AcDbEllipse
 62
7
  6
CONTINUOUS
 10
272.5613903162
 20
338.3959045197
 30
0.0
 11
47.5
 21
-0.0
 31
0.0
 40
0.2042556244
 41
2.5579254954
 42
2.5839848318
  0
ELLIPSE
  5
833
100
AcDbEntity
  8
0
100
AcDbEllipse
 62
7
  6
CONTINUOUS
 10
272.5613903162
 20
201.5650303744
 30
0.0
 11
0.0
 21
245.104483761
 31
0.0
 40
0.1958348508
 41
0.9359046401
 42
0.941284785
  0
ELLIPSE
  5
834
100
AcDbEntity
  8
0
100
AcDbEllipse
 62
7
  6
CONTINUOUS
 10
272.5613903162
 20
288.1475185768
 30
0.0
 11
0.0
 21
98.0429326742
 31
0.0
 40
0.4895814384
 41
0.941284785
 42
0.9519823449
  0
ELLIPSE
  5
835
100
AcDbEntity
  8
0
100
AcDbEllipse
 62
7
  6
CONTINUOUS
 10
272.5613903162
 20
316.5835401444
 30
0.0
 11
-0.0
 21
49.021181543
 31
0.0
 40
0.9791685653
 41
0.9519823449
 42
0.9731379122
  0
ELLIPSE
  5
836
100
AcDbEntity
  8
0
100
AcDbEllipse
 62
7
  6
CONTINUOUS
 10
272.5613903162
 20
330.3758532228
 30
0.0
 11
48.0
 21
0.0
 31
0.0
 40
0.5106373301
 41
2.543934239
 42
2.5647893918
  0
ELLIPSE
  5
837
100
AcDbEntity
  8
0
100
AcDbEllipse
 62
7
  6
CONTINUOUS
 10
272.5613903162
 20
330.3758532228
 30
0.0
 11
47.5
 21
-0.0
 31
0.0
 40
0.5106373301
 41
2.5367513038
 42
2.5579254954
  0
ELLIPSE
  5
838
100
AcDbEntity
  8
0
100
AcDbEllipse
 62
7
  6
CONTINUOUS
 10
272.5613903162
 20
338.3959045197
 30
0.0
 11
48.0
 21
-0.0
 31
0.0
 40
0.2042556244
 41
2.5647893918
 42
2.5904678352
  0
ELLIPSE
  5
839
100
AcDbEntity
  8
0
100
AcDbEllipse
 62
7
  6
CONTINUOUS
 10
272.5613903162
 20
316.5835401444
 30
0.0
 11
0.0
 21
48.5105442353
 31
0.0
 40
0.9791685653
 41
0.944466159
 42
0.965954977
  0
ELLIPSE
  5
83A
100
AcDbEntity
  8
0
100
AcDbEllipse
 62
7
  6
CONTINUOUS
 10
272.5613903162
 20
288.1475185768
 30
0.0
 11
0.0
 21
97.0216521255
 31
0.0
 40
0.4895814384
 41
0.933596161
 42
0.944466159
  0
ELLIPSE
  5
83B
100
AcDbEntity
  8
0
100
AcDbEllipse
 62
7
  6
CONTINUOUS
 10
272.5613903162
 20
201.5650303744
 30
0.0
 11
0.0
 21
242.5513120551
 31
0.0
 40
0.1958348508
 41
0.9281282494
 42
0.933596161
  0
ELLIPSE
  5
83C
100
AcDbEntity
  8
0
100
AcDbEllipse
 62
7
  6
CONTINUOUS
 10
272.5613903162
 20
354.8600719447
 30
0.0
 11
-0.0
 21
98.0426521708
 31
0.0
 40
0.4895828391
 41
1.4646596676
 42
1.4768735642
  0
ELLIPSE
  5
83D
100
AcDbEntity
  8
0
100
AcDbEllipse
 62
7
  6
CONTINUOUS
 10
272.5613903162
 20
465.219203981
 30
0.0
 11
-0.0
 21
145.5307872331
 31
0.0
 40
0.3263914179
 41
-3.8190677269
 42
-3.8120398366
  0
ELLIPSE
  5
83E
100
AcDbEntity
  8
0
100
AcDbEllipse
 62
7
  6
CONTINUOUS
 10
272.5613903162
 20
402.224331918
 30
0.0
 11
0.0
 21
64.6808433533
 31
0.0
 40
0.7343750875
 41
-3.8397934928
 42
-3.8190677269
  0
ELLIPSE
  5
83F
100
AcDbEntity
  8
0
100
AcDbEllipse
 62
7
  6
CONTINUOUS
 10
272.5613903162
 20
380.5481111328
 30
0.0
 11
47.5
 21
0.0
 31
0.0
 40
0.7659558946
 41
-2.295861643
 42
-2.268997166
  0
ELLIPSE
  5
840
100
AcDbEntity
  8
0
100
AcDbEllipse
 62
7
  6
CONTINUOUS
 10
272.5613903162
 20
360.578730617
 30
0.0
 11
47.5
 21
0.0
 31
0.0
 40
0.2042556065
 41
-2.3283395966
 42
-2.295861643
  0
ELLIPSE
  5
841
100
AcDbEntity
  8
0
100
AcDbEllipse
 62
7
  6
CONTINUOUS
 10
272.5613903162
 20
359.457530942
 30
0.0
 11
-0.0
 21
49.0212516683
 31
0.0
 40
0.9791671646
 41
1.4768735642
 42
1.5012611383
  0
ELLIPSE
  5
842
100
AcDbEntity
  8
0
100
AcDbEllipse
 62
7
  6
CONTINUOUS
 10
272.5613903162
 20
437.6997608151
 30
0.0
 11
-0.0
 21
196.0880750744
 31
0.0
 40
0.2447879606
 41
-4.231145276
 42
-4.2262426427
  0
ELLIPSE
  5
843
100
AcDbEntity
  8
0
100
AcDbEllipse
 62
7
  6
CONTINUOUS
 10
272.5613903162
 20
380.4385371597
 30
0.0
 11
-0.0
 21
73.5313451283
 31
0.0
 40
0.6527828359
 41
-4.2262426427
 42
-4.2163987262
  0
ELLIPSE
  5
844
100
AcDbEntity
  8
0
100
AcDbEllipse
 62
7
  6
CONTINUOUS
 10
272.5613903162
 20
361.1605087248
 30
0.0
 11
48.0
 21
0.0
 31
0.0
 40
0.5106380606
 41
3.072057465
 42
3.096403676
  0
ELLIPSE
  5
845
100
AcDbEntity
  8
0
100
AcDbEllipse
 62
7
  6
CONTINUOUS
 10
272.5613903162
 20
361.8248483104
 30
0.0
 11
48.0
 21
0.0
 31
0.0
 40
0.2042553906
 41
3.096403676
 42
3.1268004475
  0
ELLIPSE
  5
846
100
AcDbEntity
  8
0
100
AcDbEllipse
 62
7
  6
CONTINUOUS
 10
272.5613903162
 20
360.9976758004
 30
0.0
 11
48.0
 21
-0.0
 31
0.0
 40
0.6808512211
 41
-2.6456023994
 42
-2.6307372188
  0
ELLIPSE
  5
847
100
AcDbEntity
  8
0
100
AcDbEllipse
 62
7
  6
CONTINUOUS
 10
272.5613903162
 20
351.0111687539
 30
0.0
 11
48.0
 21
-0.0
 31
0.0
 40
0.2553200925
 41
-2.6307372188
 42
-2.6107216132
  0
ELLIPSE
  5
848
100
AcDbEntity
  8
0
100
AcDbEllipse
 62
7
  6
CONTINUOUS
 10
272.5613903162
 20
352.0187609469
 30
0.0
 11
-0.0
 21
147.0635660866
 31
0.0
 40
0.3263894741
 41
-4.5464901578
 42
-4.5415593113
  0
ELLIPSE
  5
849
100
AcDbEntity
  8
0
100
AcDbEllipse
 62
7
  6
CONTINUOUS
 10
272.5613903162
 20
332.5736987307
 30
0.0
 11
48.0
 21
0.0
 31
0.0
 40
0.6808509827
 41
-2.9707629845
 42
-2.9559447596
  0
ELLIPSE
  5
84A
100
AcDbEntity
  8
0
100
AcDbEllipse
 62
7
  6
CONTINUOUS
 10
272.5613903162
 20
353.245219563
 30
0.0
 11
47.5
 21
0.0
 31
0.0
 40
0.2553200925
 41
-2.3961723166
 42
-2.3720253614
  0
ELLIPSE
  5
84B
100
AcDbEntity
  8
0
100
AcDbEllipse
 62
7
  6
CONTINUOUS
 10
272.5613903162
 20
377.9230664809
 30
0.0
 11
0.0
 21
48.5106438398
 31
0.0
 40
0.9791665548
 41
-3.9847306708
 42
-3.9669686434
  0
ELLIPSE
  5
84C
100
AcDbEntity
  8
0
100
AcDbEllipse
 62
7
  6
CONTINUOUS
 10
272.5613903162
 20
442.4533798383
 30
0.0
 11
-0.0
 21
145.5307872331
 31
0.0
 40
0.3263914179
 41
-3.9905889954
 42
-3.9847306708
  0
ELLIPSE
  5
84D
100
AcDbEntity
  8
0
100
AcDbEllipse
 62
7
  6
CONTINUOUS
 10
272.5613903162
 20
328.3510622603
 30
0.0
 11
48.0
 21
0.0
 31
0.0
 40
0.2042554442
 41
-2.9559447596
 42
-2.9311540173
  0
ELLIPSE
  5
84E
100
AcDbEntity
  8
0
100
AcDbEllipse
 62
7
  6
CONTINUOUS
 10
272.5613903162
 20
336.4384544617
 30
0.0
 11
47.5
 21
-0.0
 31
0.0
 40
0.2042556244
 41
2.2892231831
 42
2.321934878
  0
ELLIPSE
  5
84F
100
AcDbEntity
  8
0
100
AcDbEllipse
 62
7
  6
CONTINUOUS
 10
272.5613903162
 20
325.4822446644
 30
0.0
 11
47.5
 21
-0.0
 31
0.0
 40
0.5106373301
 41
2.2621463094
 42
2.2892231831
  0
ELLIPSE
  5
850
100
AcDbEntity
  8
0
100
AcDbEllipse
 62
7
  6
CONTINUOUS
 10
272.5613903162
 20
306.7961096119
 30
0.0
 11
0.0
 21
48.5108218159
 31
0.0
 40
0.9791629624
 41
0.6633566096
 42
0.6913499826
  0
ELLIPSE
  5
851
100
AcDbEntity
  8
0
100
AcDbEllipse
 62
7
  6
CONTINUOUS
 10
272.5613903162
 20
268.5738560713
 30
0.0
 11
0.0
 21
97.0205418092
 31
0.0
 40
0.4895870412
 41
0.6489781578
 42
0.6633566096
  0
ELLIPSE
  5
852
100
AcDbEntity
  8
0
100
AcDbEllipse
 62
7
  6
CONTINUOUS
 10
272.5613903162
 20
424.2305775003
 30
0.0
 11
0.0
 21
97.0205587964
 31
0.0
 40
0.4895869555
 41
-3.8049492632
 42
-3.7905708114
  0
ELLIPSE
  5
853
100
AcDbEntity
  8
0
100
AcDbEllipse
 62
7
  6
CONTINUOUS
 10
272.5613903162
 20
386.0083072287
 30
0.0
 11
-0.0
 21
48.510817569
 31
0.0
 40
0.9791630482
 41
-3.8329426362
 42
-3.8049492632
  0
ELLIPSE
  5
854
100
AcDbEntity
  8
0
100
AcDbEllipse
 62
7
  6
CONTINUOUS
 10
272.5613903162
 20
367.3221729942
 30
0.0
 11
47.5
 21
-0.0
 31
0.0
 40
0.510637263
 41
-2.2892231831
 42
-2.2621463094
  0
ELLIPSE
  5
855
100
AcDbEntity
  8
0
100
AcDbEllipse
 62
7
  6
CONTINUOUS
 10
272.5613903162
 20
356.3659649553
 30
0.0
 11
47.5
 21
0.0
 31
0.0
 40
0.2042556065
 41
-2.321934878
 42
-2.2892231831
  0
ELLIPSE
  5
856
100
AcDbEntity
  8
0
100
AcDbEllipse
 62
7
  6
CONTINUOUS
 10
272.5613903162
 20
378.974462732
 30
0.0
 11
48.0
 21
-0.0
 31
0.0
 40
0.204255139
 41
-2.8301225521
 42
-2.7980335855
  0
ELLIPSE
  5
857
100
AcDbEntity
  8
0
100
AcDbEllipse
 62
7
  6
CONTINUOUS
 10
272.5613903162
 20
360.6680247602
 30
0.0
 11
47.5
 21
-0.0
 31
0.0
 40
0.3404254913
 41
-2.3781141317
 42
-2.3597382573
  0
ELLIPSE
  5
858
100
AcDbEntity
  8
0
100
AcDbEllipse
 62
7
  6
CONTINUOUS
 10
272.5613903162
 20
371.8487331884
 30
0.0
 11
47.5
 21
-0.0
 31
0.0
 40
0.6808509827
 41
-2.3961723166
 42
-2.3781141317
  0
ELLIPSE
  5
859
100
AcDbEntity
  8
0
100
AcDbEllipse
 62
7
  6
CONTINUOUS
 10
272.5613903162
 20
448.6235775574
 30
0.0
 11
-0.0
 21
145.5307872331
 31
0.0
 40
0.3263914179
 41
-3.9729212702
 42
-3.9669686434
  0
ELLIPSE
  5
85A
100
AcDbEntity
  8
0
100
AcDbEllipse
 62
7
  6
CONTINUOUS
 10
272.5613903162
 20
252.9041547112
 30
0.0
 11
-0.0
 21
145.5309231306
 31
0.0
 40
0.3263911132
 41
0.8253759898
 42
0.8313286166
  0
ELLIPSE
  5
85B
100
AcDbEntity
  8
0
100
AcDbEllipse
 62
7
  6
CONTINUOUS
 10
272.5613903162
 20
329.679091257
 30
0.0
 11
47.5
 21
-0.0
 31
0.0
 40
0.6808509827
 41
2.3781141317
 42
2.3961723166
  0
ELLIPSE
  5
85C
100
AcDbEntity
  8
0
100
AcDbEllipse
 62
7
  6
CONTINUOUS
 10
272.5613903162
 20
340.8597996851
 30
0.0
 11
47.5
 21
0.0
 31
0.0
 40
0.3404254913
 41
2.3597382573
 42
2.3781141317
  0
ELLIPSE
  5
85D
100
AcDbEntity
  8
0
100
AcDbEllipse
 62
7
  6
CONTINUOUS
 10
272.5613903162
 20
332.6853585752
 30
0.0
 11
48.0
 21
0.0
 31
0.0
 40
0.6127657675
 41
-3.1271477114
 42
-3.1028329494
  0
ELLIPSE
  5
85E
100
AcDbEntity
  8
0
100
AcDbEllipse
 62
7
  6
CONTINUOUS
 10
272.5613903162
 20
334.0783799031
 30
0.0
 11
-0.0
 21
65.3616943359
 31
0.0
 40
0.7343750875
 41
-4.6736292762
 42
-4.6590303307
  0
ELLIPSE
  5
85F
100
AcDbEntity
  8
0
100
AcDbEllipse
 62
7
  6
CONTINUOUS
 10
272.5613903162
 20
337.1286003699
 30
0.0
 11
-0.0
 21
122.5533280881
 31
0.0
 40
0.3916662301
 41
-4.6590303307
 42
-4.6492915743
  0
ELLIPSE
  5
860
100
AcDbEntity
  8
0
100
AcDbEllipse
 62
7
  6
CONTINUOUS
 10
272.5613903162
 20
320.7200759736
 30
0.0
 11
0.0
 21
122.553310922
 31
0.0
 40
0.391666285
 41
1.5076989207
 42
1.5174376771
  0
ELLIPSE
  5
861
100
AcDbEntity
  8
0
100
AcDbEllipse
 62
7
  6
CONTINUOUS
 10
272.5613903162
 20
323.7702952197
 30
0.0
 11
-0.0
 21
65.361700058
 31
0.0
 40
0.7343750233
 41
1.5174376771
 42
1.5320366226
  0
ELLIPSE
  5
862
100
AcDbEntity
  8
0
100
AcDbEllipse
 62
7
  6
CONTINUOUS
 10
272.5613903162
 20
325.1633166696
 30
0.0
 11
48.0
 21
-0.0
 31
0.0
 40
0.6127658212
 41
3.1028329494
 42
3.1271477114
  0
ELLIPSE
  5
863
100
AcDbEntity
  8
0
100
AcDbEllipse
 62
7
  6
CONTINUOUS
 10
272.5613903162
 20
383.9281750033
 30
0.0
 11
48.0
 21
-0.0
 31
0.0
 40
0.510638724
 41
-2.7980335855
 42
-2.7720962887
  0
ELLIPSE
  5
864
100
AcDbEntity
  8
0
100
AcDbEllipse
 62
7
  6
CONTINUOUS
 10
272.5613903162
 20
319.286705774
 30
0.0
 11
-0.0
 21
147.0626902566
 31
0.0
 40
0.3263914179
 41
1.3580492527
 42
1.3624875617
  0
ELLIPSE
  5
865
100
AcDbEntity
  8
0
100
AcDbEllipse
 62
7
  6
CONTINUOUS
 10
272.5613903162
 20
336.1829229194
 30
0.0
 11
-0.0
 21
65.3616943359
 31
0.0
 40
0.7343750875
 41
1.3624875617
 42
1.3757778219
  0
ELLIPSE
  5
866
100
AcDbEntity
  8
0
100
AcDbEllipse
 62
7
  6
CONTINUOUS
 10
272.5613903162
 20
341.724312573
 30
0.0
 11
48.0
 21
0.0
 31
0.0
 40
0.7659602774
 41
2.9465741487
 42
2.9642407414
  0
ELLIPSE
  5
867
100
AcDbEntity
  8
0
100
AcDbEllipse
 62
7
  6
CONTINUOUS
 10
272.5613903162
 20
346.4810237721
 30
0.0
 11
48.0
 21
0.0
 31
0.0
 40
0.2042546715
 41
2.9642407414
 42
2.9862464035
  0
ELLIPSE
  5
868
100
AcDbEntity
  8
0
100
AcDbEllipse
 62
7
  6
CONTINUOUS
 10
272.5613903162
 20
392.7800972835
 30
0.0
 11
-0.0
 21
49.0213175023
 31
0.0
 40
0.9791658496
 41
-4.3428926155
 42
-4.3166920434
  0
ELLIPSE
  5
869
100
AcDbEntity
  8
0
100
AcDbEllipse
 62
7
  6
CONTINUOUS
 10
272.5613903162
 20
411.6753229439
 30
0.0
 11
0.0
 21
98.042354503
 31
0.0
 40
0.4895843255
 41
-4.3166920434
 42
-4.3034847163
  0
ELLIPSE
  5
86A
100
AcDbEntity
  8
0
100
AcDbEllipse
 62
7
  6
CONTINUOUS
 10
272.5613903162
 20
365.3449015259
 30
0.0
 11
0.0
 21
64.6808433533
 31
0.0
 40
0.7343750875
 41
-4.5152907939
 42
-4.5095951799
  0
ELLIPSE
  5
86B
100
AcDbEntity
  8
0
100
AcDbEllipse
 62
7
  6
CONTINUOUS
 10
272.5613903162
 20
355.0468006732
 30
0.0
 11
48.0
 21
-0.0
 31
0.0
 40
0.2042546715
 41
-2.9862464035
 42
-2.9642407414
  0
ELLIPSE
  5
86C
100
AcDbEntity
  8
0
100
AcDbEllipse
 62
7
  6
CONTINUOUS
 10
272.5613903162
 20
359.8035118723
 30
0.0
 11
48.0
 21
-0.0
 31
0.0
 40
0.7659602774
 41
-2.9642407414
 42
-2.9465741487
  0
ELLIPSE
  5
86D
100
AcDbEntity
  8
0
100
AcDbEllipse
 62
7
  6
CONTINUOUS
 10
272.5613903162
 20
359.8035118723
 30
0.0
 11
47.5
 21
-0.0
 31
0.0
 40
0.7659602774
 41
-2.9623537363
 42
-2.9444944671
  0
ELLIPSE
  5
86E
100
AcDbEntity
  8
0
100
AcDbEllipse
 62
7
  6
CONTINUOUS
 10
272.5613903162
 20
365.3449015259
 30
0.0
 11
0.0
 21
65.3616943359
 31
0.0
 40
0.7343750875
 41
-4.5173704755
 42
-4.5040802153
  0
ELLIPSE
  5
86F
100
AcDbEntity
  8
0
100
AcDbEllipse
 62
7
  6
CONTINUOUS
 10
272.5613903162
 20
382.2411186713
 30
0.0
 11
-0.0
 21
147.0626902566
 31
0.0
 40
0.3263914179
 41
-4.5040802153
 42
-4.4996419063
  0
ELLIPSE
  5
870
100
AcDbEntity
  8
0
100
AcDbEllipse
 62
7
  6
CONTINUOUS
 10
272.5613903162
 20
355.0468006732
 30
0.0
 11
47.5
 21
-0.0
 31
0.0
 40
0.2042546715
 41
-2.984597684
 42
-2.9623537363
  0
ELLIPSE
  5
871
100
AcDbEntity
  8
0
100
AcDbEllipse
 62
7
  6
CONTINUOUS
 10
272.5613903162
 20
470.1490081818
 30
0.0
 11
-0.0
 21
245.1074260995
 31
0.0
 40
0.1958324999
 41
-4.3034847163
 42
-4.2968528081
  0
ELLIPSE
  5
872
100
AcDbEntity
  8
0
100
AcDbEllipse
 62
7
  6
CONTINUOUS
 10
272.5613903162
 20
325.1633166696
 30
0.0
 11
47.5
 21
0.0
 31
0.0
 40
0.6127658212
 41
3.1024247449
 42
3.1269956487
  0
ELLIPSE
  5
873
100
AcDbEntity
  8
0
100
AcDbEllipse
 62
7
  6
CONTINUOUS
 10
272.5613903162
 20
323.7702952197
 30
0.0
 11
0.0
 21
64.6808490157
 31
0.0
 40
0.7343750233
 41
1.5300384801
 42
1.5316284181
  0
ELLIPSE
  5
874
100
AcDbEntity
  8
0
100
AcDbEllipse
 62
7
  6
CONTINUOUS
 10
272.5613903162
 20
346.4810237721
 30
0.0
 11
47.5
 21
0.0
 31
0.0
 40
0.2042546715
 41
2.9623537363
 42
2.984597684
  0
ELLIPSE
  5
875
100
AcDbEntity
  8
0
100
AcDbEllipse
 62
7
  6
CONTINUOUS
 10
272.5613903162
 20
341.724312573
 30
0.0
 11
47.5
 21
0.0
 31
0.0
 40
0.7659602774
 41
2.9444944671
 42
2.9623537363
  0
ELLIPSE
  5
876
100
AcDbEntity
  8
0
100
AcDbEllipse
 62
7
  6
CONTINUOUS
 10
272.5613903162
 20
336.1829229194
 30
0.0
 11
-0.0
 21
64.6808433533
 31
0.0
 40
0.7343750875
 41
1.3680025263
 42
1.3736981403
  0
ELLIPSE
  5
877
100
AcDbEntity
  8
0
100
AcDbEllipse
 62
7
  6
CONTINUOUS
 10
272.5613903162
 20
328.3510622603
 30
0.0
 11
47.5
 21
-0.0
 31
0.0
 40
0.2042554442
 41
-2.9539674385
 42
-2.9289050431
  0
ENDSEC
  0
SECTION
  2
OBJECTS
  0
DICTIONARY
  5
C
100
AcDbDictionary
280
0
281
1
  3
ACAD_GROUP
350
D
  3
ACAD_MLINESTYLE
350
17
  3
ACAD_LAYOUT
350
1A
  3
ACAD_PLOTSETTINGS
350
19
  3
ACAD_PLOTSTYLENAME
350
E
  0
DICTIONARY
  5
D
102
{ACAD_REACTORS
330
C
102
}
100
AcDbDictionary
280
0
281
1
  0
ACDBDICTIONARYWDFLT
  5
E
102
{ACAD_REACTORS
330
C
102
}
100
AcDbDictionary
281
1
  3
Normal
350
F
100
AcDbDictionaryWithDefault
340
F
  0
DICTIONARY
  5
17
102
{ACAD_REACTORS
330
C
102
}
100
AcDbDictionary
280
0
281
1
  3
Standard
350
18
  0
DICTIONARY
  5
19
102
{ACAD_REACTORS
330
C
102
}
100
AcDbDictionary
281
1
  0
DICTIONARY
  5
1A
102
{ACAD_REACTORS
330
C
102
}
100
AcDbDictionary
281
1
  3
Model
350
878
  3
Layout1
350
879
  0
ACDBPLACEHOLDER
  5
F
102
{ACAD_REACTORS
330
E
102
}
  0
MLINESTYLE
  5
18
102
{ACAD_REACTORS
330
17
102
}
100
AcDbMlineStyle
  2
STANDARD
 70
0
  3

 62
256
 51
90.0
 52
90.0
 71
2
 49
0.5
 62
256
  6
BYLAYER
 49
-0.5
 62
256
  6
BYLAYER
  0
LAYOUT
  5
878
102
{ACAD_REACTORS
330
1A
102
}
100
AcDbPlotSettings
  1

  2
none_device
  4
ISO_A1_(594.00_x_841.00_MM)
  6

 40
0.0
 41
0.0
 42
0.0
 43
0.0
 44
841.0
 45
594.0
 46
0.0
 47
0.0
 48
0.0
 49
0.0
140
0.0
141
0.0
142
1.0
143
1.0
 70
1024
 72
1
 73
0
 74
0
  7

 75
0
147
1.0
148
0.0
149
0.0
100
AcDbLayout
  1
Model
 70
0
 71
0
 10
0.0
 20
0.0
 11
841.0
 21
594.0
 12
0.0
 22
0.0
 32
0.0
 14
0.0
 24
0.0
 34
0.0
 15
0.0
 25
0.0
 35
0.0
146
0.0
 13
0.0
 23
0.0
 33
0.0
 16
1.0
 26
0.0
 36
0.0
 17
0.0
 27
1.0
 37
0.0
 76
0
330
212
345
0
346
0
  0
LAYOUT
  5
879
102
{ACAD_REACTORS
330
1A
102
}
100
AcDbPlotSettings
  1

  2
none_device
  4
ISO_A1_(594.00_x_841.00_MM)
  6

 40
0.0
 41
0.0
 42
0.0
 43
0.0
 44
841.0
 45
594.0
 46
0.0
 47
0.0
 48
0.0
 49
0.0
140
0.0
141
0.0
142
1.0
143
1.0
 70
0
 72
1
 73
0
 74
0
  7

 75
0
147
1.0
148
0.0
149
0.0
100
AcDbLayout
  1
Layout1
 70
0
 71
1
 10
0.0
 20
0.0
 11
841.0
 21
594.0
 12
0.0
 22
0.0
 32
0.0
 14
0.0
 24
0.0
 34
0.0
 15
0.0
 25
0.0
 35
0.0
146
0.0
 13
0.0
 23
0.0
 33
0.0
 16
1.0
 26
0.0
 36
0.0
 17
0.0
 27
1.0
 37
0.0
 76
0
330
213
345
0
346
0
  0
ENDSEC
  0
EOF
