999
DXF file: VLBG-PLUS-M42-10t-7983554-M31222-P-30.dxf
999
Pro/ENGINEER 2011490 by Parametric Technology Corporation
  0
SECTION
  2
HEADER
  9
$ACADVER
  1
AC1015
  9
$DWGCODEPAGE
  3
ANSI_1252
  9
$EXTMAX
 10
841.0
 20
594.0
 30
0.0
  9
$EXTMIN
 10
0.0
 20
0.0
 30
0.0
  9
$LIMMIN
 10
0.0
 20
0.0
  9
$LIMMAX
 10
841.0
 20
594.0
  9
$VIEWCTR
 10
420.5
 20
297.0
  9
$VIEWSIZE
 40
594.0
  9
$CLAYER
  8
0
  9
$LTSCALE
 40
46.255
  9
$CELTYPE
  6
BYLAYER
  9
$DIMSCALE
 40
1.0
  9
$DIMASZ
 40
3.5
  9
$DIMEXO
 40
5.25625
  9
$DIMDLI
 40
31.958
  9
$DIMEXE
 40
15.138
  9
$DIMCEN
 40
7.569
  9
$DIMLFAC
 40
1.0
  9
$DIMBLK
  1
_FILLED
  9
$DIMTXT
 40
3.5
  9
$DIMTOL
 70
1
  9
$DIMLIM
 70
0
  9
$DIMTFAC
 40
1.0
  9
$DIMTP
 40
0.005
  9
$DIMTM
 40
0.005
  9
$PDMODE
 70
3
  9
$PDSIZE
 40
0.3125
  9
$HANDSEED
  5
84F
  9
$TILEMODE
 70
1
  9
$MEASUREMENT
 70
1
  9
$INSUNITS
 70
4
  0
ENDSEC
  0
SECTION
  2
CLASSES
  0
CLASS
  1
ACDBDICTIONARYWDFLT
  2
AcDbDictionaryWithDefault
  3
AutoCAD 2000
 90
0
280
0
281
0
  0
CLASS
  1
ACDBPLACEHOLDER
  2
AcDbPlaceHolder
  3
AutoCAD 2000
 90
0
280
0
281
0
  0
CLASS
  1
LAYOUT
  2
AcDbLayout
  3
AutoCAD 2000
 90
0
280
0
281
0
  0
ENDSEC
  0
SECTION
  2
TABLES
  0
TABLE
  2
VPORT
  5
8
100
AcDbSymbolTable
 70
2
  0
VPORT
  5
1F4
100
AcDbSymbolTableRecord
100
AcDbViewportTableRecord
  2
*ACTIVE
 70
0
 10
0.0
 20
0.0
 11
1.0
 21
1.0
 12
420.5
 22
297.0
 13
0.0
 23
0.0
 14
1.0
 24
1.0
 15
0.0
 25
0.0
 16
0.0
 26
0.0
 36
1.0
 17
0.0
 27
0.0
 37
0.0
 40
594.0
 41
1.4158249158
 42
50.0
 43
0.0
 44
0.0
 50
0.0
 51
0.0
 71
0
 72
100
 73
1
 74
1
 75
0
 76
0
 77
0
 78
0
  0
ENDTAB
  0
TABLE
  2
LTYPE
  5
5
100
AcDbSymbolTable
 70
6
  0
LTYPE
  5
14
100
AcDbSymbolTableRecord
100
AcDbLinetypeTableRecord
  2
BYBLOCK
 70
0
  3

 72
65
 73
0
 40
0.0
  0
LTYPE
  5
15
100
AcDbSymbolTableRecord
100
AcDbLinetypeTableRecord
  2
BYLAYER
 70
0
  3

 72
65
 73
0
 40
0.0
  0
LTYPE
  5
16
100
AcDbSymbolTableRecord
100
AcDbLinetypeTableRecord
  2
CONTINUOUS
 70
64
  3
Solid line
 72
65
 73
0
 40
0.0
  0
LTYPE
  5
1F5
100
AcDbSymbolTableRecord
100
AcDbLinetypeTableRecord
  2
CENTER
 70
64
  3
____ _ ____ _ ____ _ ____ _ ____ _ ____ _ ____
 72
65
 73
4
 40
0.6
 49
0.375
 74
0
 49
-0.075
 74
0
 49
0.075
 74
0
 49
-0.075
 74
0
  0
LTYPE
  5
1F6
100
AcDbSymbolTableRecord
100
AcDbLinetypeTableRecord
  2
HIDDEN
 70
64
  3
- - - - - - - - - - - - - - - - - - - -
 72
65
 73
2
 40
0.2
 49
0.1
 74
0
 49
-0.1
 74
0
  0
LTYPE
  5
1F7
100
AcDbSymbolTableRecord
100
AcDbLinetypeTableRecord
  2
PHANTOM
 70
64
  3
_____ _ _ _____ _ _ _____ _ _ _____
 72
65
 73
6
 40
0.8
 49
0.45
 74
0
 49
-0.05
 74
0
 49
0.1
 74
0
 49
-0.05
 74
0
 49
0.1
 74
0
 49
-0.05
 74
0
  0
LTYPE
  5
1F8
100
AcDbSymbolTableRecord
100
AcDbLinetypeTableRecord
  2
DOT
 70
64
  3
. . . . . . . . . . . . . . . . . . . .
 72
65
 73
2
 40
0.2
 49
0.1
 74
0
 49
-0.1
 74
0
  0
LTYPE
  5
1F9
100
AcDbSymbolTableRecord
100
AcDbLinetypeTableRecord
  2
DASHED
 70
64
  3
- - - - - - - - - - - - - - - - - - - -
 72
65
 73
2
 40
0.2
 49
0.1
 74
0
 49
-0.1
 74
0
  0
ENDTAB
  0
TABLE
  2
LAYER
  5
2
100
AcDbSymbolTable
 70
36
  0
LAYER
  5
10
100
AcDbSymbolTableRecord
100
AcDbLayerTableRecord
  2
0
 70
0
 62
7
  6
CONTINUOUS
370
-3
390
F
  0
LAYER
  5
1FA
100
AcDbSymbolTableRecord
100
AcDbLayerTableRecord
  2
DEFAULT_1
 70
0
 62
7
  6
CENTER
370
-3
390
F
  0
LAYER
  5
1FB
100
AcDbSymbolTableRecord
100
AcDbLayerTableRecord
  2
DEFAULT_2
 70
0
 62
8
  6
HIDDEN
370
-3
390
F
  0
LAYER
  5
1FC
100
AcDbSymbolTableRecord
100
AcDbLayerTableRecord
  2
DEFAULT_3
 70
0
 62
7
  6
PHANTOM
370
-3
390
F
  0
LAYER
  5
1FD
100
AcDbSymbolTableRecord
100
AcDbLayerTableRecord
  2
AUSFORMSCHRAEGEN
 70
0
 62
7
  6
CONTINUOUS
370
-3
390
F
  0
LAYER
  5
1FE
100
AcDbSymbolTableRecord
100
AcDbLayerTableRecord
  2
B-ACHSEN
 70
0
 62
7
  6
CONTINUOUS
370
-3
390
F
  0
LAYER
  5
1FF
100
AcDbSymbolTableRecord
100
AcDbLayerTableRecord
  2
B-EBENEN
 70
0
 62
7
  6
CONTINUOUS
370
-3
390
F
  0
LAYER
  5
200
100
AcDbSymbolTableRecord
100
AcDbLayerTableRecord
  2
B-KOORSYS
 70
0
 62
7
  6
CONTINUOUS
370
-3
390
F
  0
LAYER
  5
201
100
AcDbSymbolTableRecord
100
AcDbLayerTableRecord
  2
BEMASSUNG
 70
0
 62
7
  6
CONTINUOUS
370
-3
390
F
  0
LAYER
  5
202
100
AcDbSymbolTableRecord
100
AcDbLayerTableRecord
  2
BEZUGSACHSEN
 70
0
 62
7
  6
CONTINUOUS
370
-3
390
F
  0
LAYER
  5
203
100
AcDbSymbolTableRecord
100
AcDbLayerTableRecord
  2
BEZUGSEBENEN
 70
0
 62
7
  6
CONTINUOUS
370
-3
390
F
  0
LAYER
  5
204
100
AcDbSymbolTableRecord
100
AcDbLayerTableRecord
  2
BG_STARTBEZUEGE
 70
0
 62
7
  6
CONTINUOUS
370
-3
390
F
  0
LAYER
  5
205
100
AcDbSymbolTableRecord
100
AcDbLayerTableRecord
  2
BOHRUNGEN
 70
0
 62
7
  6
CONTINUOUS
370
-3
390
F
  0
LAYER
  5
206
100
AcDbSymbolTableRecord
100
AcDbLayerTableRecord
  2
FASEN
 70
0
 62
7
  6
CONTINUOUS
370
-3
390
F
  0
LAYER
  5
207
100
AcDbSymbolTableRecord
100
AcDbLayerTableRecord
  2
FLAECHEN
 70
0
 62
7
  6
CONTINUOUS
370
-3
390
F
  0
LAYER
  5
208
100
AcDbSymbolTableRecord
100
AcDbLayerTableRecord
  2
GEWINDE
 70
0
 62
7
  6
CONTINUOUS
370
-3
390
F
  0
LAYER
  5
209
100
AcDbSymbolTableRecord
100
AcDbLayerTableRecord
  2
HILFEN
 70
0
 62
7
  6
CONTINUOUS
370
-3
390
F
  0
LAYER
  5
20A
100
AcDbSymbolTableRecord
100
AcDbLayerTableRecord
  2
KONSTRUKTIONSELEMENTE
 70
0
 62
7
  6
CONTINUOUS
370
-3
390
F
  0
LAYER
  5
20B
100
AcDbSymbolTableRecord
100
AcDbLayerTableRecord
  2
KURVEN
 70
0
 62
7
  6
CONTINUOUS
370
-3
390
F
  0
LAYER
  5
20C
100
AcDbSymbolTableRecord
100
AcDbLayerTableRecord
  2
NORM
 70
0
 62
7
  6
CONTINUOUS
370
-3
390
F
  0
LAYER
  5
20D
100
AcDbSymbolTableRecord
100
AcDbLayerTableRecord
  2
NOTIZEN
 70
0
 62
7
  6
CONTINUOUS
370
-3
390
F
  0
LAYER
  5
20E
100
AcDbSymbolTableRecord
100
AcDbLayerTableRecord
  2
PLATZIERUNG
 70
0
 62
7
  6
CONTINUOUS
370
-3
390
F
  0
LAYER
  5
20F
100
AcDbSymbolTableRecord
100
AcDbLayerTableRecord
  2
PLAZIERUNG
 70
0
 62
7
  6
CONTINUOUS
370
-3
390
F
  0
LAYER
  5
210
100
AcDbSymbolTableRecord
100
AcDbLayerTableRecord
  2
RUNDUNGEN
 70
0
 62
7
  6
CONTINUOUS
370
-3
390
F
  0
LAYER
  5
211
100
AcDbSymbolTableRecord
100
AcDbLayerTableRecord
  2
TEIL_STARTBEZUEGE
 70
0
 62
7
  6
CONTINUOUS
370
-3
390
F
  0
LAYER
  5
212
100
AcDbSymbolTableRecord
100
AcDbLayerTableRecord
  2
VERBUNDFLAECHEN
 70
0
 62
7
  6
CONTINUOUS
370
-3
390
F
  0
LAYER
  5
213
100
AcDbSymbolTableRecord
100
AcDbLayerTableRecord
  2
ZEICHNUNGSBEMASSUNGEN
 70
0
 62
7
  6
CONTINUOUS
370
-3
390
F
  0
ENDTAB
  0
TABLE
  2
STYLE
  5
3
100
AcDbSymbolTable
 70
1
  0
STYLE
  5
11
100
AcDbSymbolTableRecord
100
AcDbTextStyleTableRecord
  2
STANDARD
 70
0
 40
0.0
 41
0.7
 50
0.0
 71
0
 42
0.2
  3
txt
  4

  0
STYLE
  5
214
100
AcDbSymbolTableRecord
100
AcDbTextStyleTableRecord
  2
TEXTSTYLE_1
 70
0
 40
0.0
 41
0.8
 50
0.0
 71
0
 42
0.2
  3
gdt
  4

  0
ENDTAB
  0
TABLE
  2
VIEW
  5
6
100
AcDbSymbolTable
 70
0
  0
ENDTAB
  0
TABLE
  2
UCS
  5
7
100
AcDbSymbolTable
 70
0
  0
ENDTAB
  0
TABLE
  2
APPID
  5
9
100
AcDbSymbolTable
 70
1
  0
APPID
  5
215
100
AcDbSymbolTableRecord
100
AcDbRegAppTableRecord
  2
ACAD
 70
0
  0
ENDTAB
  0
TABLE
  2
BLOCK_RECORD
  5
1
100
AcDbSymbolTable
 70
0
  0
BLOCK_RECORD
  5
216
100
AcDbSymbolTableRecord
100
AcDbBlockTableRecord
  2
*Model_Space
  0
BLOCK_RECORD
  5
217
100
AcDbSymbolTableRecord
100
AcDbBlockTableRecord
  2
*Paper_Space
  0
ENDTAB
  0
TABLE
  2
DIMSTYLE
  5
A
100
AcDbSymbolTable
 70
1
100
AcDbDimStyleTable
 71
0
  0
DIMSTYLE
105
218
100
AcDbSymbolTableRecord
100
AcDbDimStyleTableRecord
  2
STANDARD
 70
0
  3

  4

 40
1.0
 41
3.5
 42
0.0625
 43
0.38
 44
0.18
 45
0.0
 46
0.0
 47
0.005
 48
0.005
140
3.5
141
0.09
142
0.0
143
25.4
144
1.0
145
0.0
146
1.0
147
0.09
 71
1.0
 72
0.0
 73
0
 74
0
 75
0
 76
0
 77
1
 78
8
170
0
171
2
172
0
173
0
174
0
175
0
176
0
177
0
178
5
270
2
271
3
272
3
273
2
274
2
275
0
280
0
281
0
282
0
283
1
284
8
285
0
286
0
287
3
288
0
340
11
  0
ENDTAB
  0
ENDSEC
  0
SECTION
  2
BLOCKS
  0
BLOCK
  5
20
100
AcDbEntity
  8
0
100
AcDbBlockBegin
  2
*Model_Space
 70
0
 10
0.0
 20
0.0
 30
0.0
  3
*Model_Space
  1

  0
ENDBLK
  5
21
100
AcDbEntity
  8
0
100
AcDbBlockEnd
  0
BLOCK
  5
1C
100
AcDbEntity
  8
0
100
AcDbBlockBegin
  2
*Paper_Space
 70
0
 10
0.0
 20
0.0
 30
0.0
  3
*Paper_Space
  1

  0
ENDBLK
  5
1D
100
AcDbEntity
  8
0
100
AcDbBlockEnd
  0
ENDSEC
  0
SECTION
  2
ENTITIES
  0
MTEXT
  5
219
100
AcDbEntity
  8
0
100
AcDbMText
 62
5
  6
CONTINUOUS
  7
STANDARD
 71
1
 72
1
 10
317.3761981973
 20
387.4896018144
 30
0.0
 11
0.0
 21
1.0
 31
0.0
 44
0.9
  1
RUD VLBG-PLUS 10t
 40
8.0
 41
103.4285714286
  0
MTEXT
  5
21A
100
AcDbEntity
  8
0
100
AcDbMText
 62
5
  6
CONTINUOUS
  7
STANDARD
 71
1
 72
1
 10
318.3472391888
 20
53.5942773294
 30
0.0
 11
0.0
 21
1.0
 31
0.0
 44
0.9
  1
RUD VLBG-PLUS 10t
 40
8.0
 41
103.4285714286
  0
LINE
  5
21B
100
AcDbEntity
  8
0
100
AcDbLine
 62
7
  6
CONTINUOUS
 10
0.0
 20
0.0
 11
0.0
 21
594.0
  0
LINE
  5
21C
100
AcDbEntity
  8
0
100
AcDbLine
 62
7
  6
CONTINUOUS
 10
0.0
 20
0.0
 11
841.0
 21
0.0
  0
LINE
  5
21D
100
AcDbEntity
  8
0
100
AcDbLine
 62
7
  6
CONTINUOUS
 10
0.0
 20
594.0
 11
841.0
 21
594.0
  0
LINE
  5
21E
100
AcDbEntity
  8
0
100
AcDbLine
 62
7
  6
CONTINUOUS
 10
841.0
 20
0.0
 11
841.0
 21
594.0
  0
LINE
  5
21F
100
AcDbEntity
  8
BEZUGSACHSEN
100
AcDbLine
 62
7
  6
CONTINUOUS
 10
258.6371248123
 20
255.7197430003
 11
292.6371248123
 21
255.7197430003
  0
LINE
  5
220
100
AcDbEntity
  8
BEZUGSACHSEN
100
AcDbLine
 62
7
  6
CONTINUOUS
 10
254.6371248123
 20
259.7197430003
 11
296.6371248123
 21
259.7197430003
  0
LINE
  5
221
100
AcDbEntity
  8
BEZUGSACHSEN
100
AcDbLine
 62
7
  6
CONTINUOUS
 10
254.6371248123
 20
259.7197430003
 11
258.6371248123
 21
255.7197430003
  0
LINE
  5
222
100
AcDbEntity
  8
0
100
AcDbLine
 62
7
  6
CONTINUOUS
 10
310.6371248123
 20
328.7197430003
 11
240.6371248123
 21
328.7197430003
  0
LINE
  5
223
100
AcDbEntity
  8
0
100
AcDbLine
 62
7
  6
CONTINUOUS
 10
310.6371248123
 20
336.9697430003
 11
240.6371248123
 21
336.9697430003
  0
LINE
  5
224
100
AcDbEntity
  8
RUNDUNGEN
100
AcDbLine
 62
7
  6
CONTINUOUS
 10
321.6371248123
 20
337.2197430003
 11
241.1375208115
 21
337.2197430003
  0
LINE
  5
225
100
AcDbEntity
  8
0
100
AcDbLine
 62
7
  6
CONTINUOUS
 10
236.1413633842
 20
344.6697430003
 11
236.6414188802
 21
344.6697430003
  0
LINE
  5
226
100
AcDbEntity
  8
0
100
AcDbLine
 62
7
  6
CONTINUOUS
 10
237.0580047985
 20
344.6697430003
 11
237.5702593451
 21
344.6697430003
  0
LINE
  5
227
100
AcDbEntity
  8
0
100
AcDbLine
 62
7
  6
CONTINUOUS
 10
236.1410032128
 20
344.861232356
 11
236.6410535867
 21
344.861232356
  0
LINE
  5
228
100
AcDbEntity
  8
0
100
AcDbLine
 62
7
  6
CONTINUOUS
 10
236.1371248123
 20
344.861232356
 11
236.1371248123
 21
345.7446364107
  0
LINE
  5
229
100
AcDbEntity
  8
0
100
AcDbLine
 62
7
  6
CONTINUOUS
 10
236.1371248123
 20
352.594849724
 11
236.1371248123
 21
353.4782536615
  0
LINE
  5
22A
100
AcDbEntity
  8
0
100
AcDbLine
 62
7
  6
CONTINUOUS
 10
236.1371248123
 20
362.5350620294
 11
236.1371248123
 21
363.492508992
  0
LINE
  5
22B
100
AcDbEntity
  8
0
100
AcDbLine
 62
7
  6
CONTINUOUS
 10
236.1371248123
 20
376.4297430003
 11
236.1371248123
 21
377.9616578901
  0
LINE
  5
22C
100
AcDbEntity
  8
0
100
AcDbLine
 62
7
  6
CONTINUOUS
 10
236.1816233555
 20
348.4995303143
 11
236.1816233555
 21
349.8399556864
  0
LINE
  5
22D
100
AcDbEntity
  8
0
100
AcDbLine
 62
7
  6
CONTINUOUS
 10
236.1905151663
 20
361.3861259962
 11
236.1905151663
 21
364.2584663475
  0
LINE
  5
22E
100
AcDbEntity
  8
0
100
AcDbLine
 62
7
  6
CONTINUOUS
 10
236.2377674654
 20
348.3080409754
 11
236.2377674654
 21
350.0314450253
  0
LINE
  5
22F
100
AcDbEntity
  8
0
100
AcDbLine
 62
7
  6
CONTINUOUS
 10
236.2421328818
 20
380.514849254
 11
236.2421328818
 21
388.4297430003
  0
LINE
  5
230
100
AcDbEntity
  8
0
100
AcDbLine
 62
7
  6
CONTINUOUS
 10
236.302246349
 20
359.2797430003
 11
236.302246349
 21
368.2797430003
  0
LINE
  5
231
100
AcDbEntity
  8
0
100
AcDbLine
 62
7
  6
CONTINUOUS
 10
236.3749009735
 20
350.0314450253
 11
236.3749009735
 21
350.7974023808
  0
LINE
  5
232
100
AcDbEntity
  8
0
100
AcDbLine
 62
7
  6
CONTINUOUS
 10
236.3816039689
 20
380.514849254
 11
236.3816039689
 21
388.4297430003
  0
LINE
  5
233
100
AcDbEntity
  8
0
100
AcDbLine
 62
7
  6
CONTINUOUS
 10
236.4225808594
 20
359.2797430003
 11
236.4225808594
 21
363.3010196531
  0
LINE
  5
234
100
AcDbEntity
  8
0
100
AcDbLine
 62
7
  6
CONTINUOUS
 10
236.4225808594
 20
364.4499556864
 11
236.4225808594
 21
367.322296306
  0
LINE
  5
235
100
AcDbEntity
  8
0
100
AcDbLine
 62
7
  6
CONTINUOUS
 10
236.570818274
 20
346.2016578454
 11
236.570818274
 21
350.0314450253
  0
LINE
  5
236
100
AcDbEntity
  8
0
100
AcDbLine
 62
7
  6
CONTINUOUS
 10
236.570818274
 20
350.7974023808
 11
236.570818274
 21
352.3293176282
  0
LINE
  5
237
100
AcDbEntity
  8
0
100
AcDbLine
 62
7
  6
CONTINUOUS
 10
236.6371248123
 20
341.7197430003
 11
236.6371248123
 21
344.7676152365
  0
LINE
  5
238
100
AcDbEntity
  8
0
100
AcDbLine
 62
7
  6
CONTINUOUS
 10
236.6371248123
 20
353.5718707727
 11
236.6371248123
 21
359.2797430003
  0
LINE
  5
239
100
AcDbEntity
  8
0
100
AcDbLine
 62
7
  6
CONTINUOUS
 10
236.6371248123
 20
368.2797430003
 11
236.6371248123
 21
376.4297430003
  0
LINE
  5
23A
100
AcDbEntity
  8
0
100
AcDbLine
 62
7
  6
CONTINUOUS
 10
236.6371248123
 20
388.4297430003
 11
236.6371248123
 21
392.7197430003
  0
LINE
  5
23B
100
AcDbEntity
  8
0
100
AcDbLine
 62
7
  6
CONTINUOUS
 10
236.6592038705
 20
376.4297430003
 11
236.6592038705
 21
388.4297430003
  0
LINE
  5
23C
100
AcDbEntity
  8
0
100
AcDbLine
 62
7
  6
CONTINUOUS
 10
236.7235061521
 20
346.5846366573
 11
236.7235061521
 21
350.0314450253
  0
LINE
  5
23D
100
AcDbEntity
  8
0
100
AcDbLine
 62
7
  6
CONTINUOUS
 10
236.7235061521
 20
350.7974023808
 11
236.7235061521
 21
352.3293176282
  0
LINE
  5
23E
100
AcDbEntity
  8
0
100
AcDbLine
 62
7
  6
CONTINUOUS
 10
236.9263159557
 20
359.2797430003
 11
236.9263159557
 21
363.3010196531
  0
LINE
  5
23F
100
AcDbEntity
  8
0
100
AcDbLine
 62
7
  6
CONTINUOUS
 10
236.9263159557
 20
364.4499556864
 11
236.9263159557
 21
367.322296306
  0
LINE
  5
240
100
AcDbEntity
  8
0
100
AcDbLine
 62
7
  6
CONTINUOUS
 10
236.9373813576
 20
377.9616578901
 11
236.9373813576
 21
386.8978282893
  0
LINE
  5
241
100
AcDbEntity
  8
0
100
AcDbLine
 62
7
  6
CONTINUOUS
 10
237.0580047985
 20
344.6697430003
 11
237.0580047985
 21
345.4357004229
  0
LINE
  5
242
100
AcDbEntity
  8
0
100
AcDbLine
 62
7
  6
CONTINUOUS
 10
237.1429148099
 20
350.0314450253
 11
237.1429148099
 21
350.7974023808
  0
LINE
  5
243
100
AcDbEntity
  8
0
100
AcDbLine
 62
7
  6
CONTINUOUS
 10
237.2312400637
 20
346.5846366573
 11
237.2312400637
 21
350.0314450253
  0
LINE
  5
244
100
AcDbEntity
  8
0
100
AcDbLine
 62
7
  6
CONTINUOUS
 10
237.2312400637
 20
350.7974023808
 11
237.2312400637
 21
352.3293176282
  0
LINE
  5
245
100
AcDbEntity
  8
0
100
AcDbLine
 62
7
  6
CONTINUOUS
 10
237.2862728569
 20
365.5988917196
 11
237.2862728569
 21
366.1733602727
  0
LINE
  5
246
100
AcDbEntity
  8
0
100
AcDbLine
 62
7
  6
CONTINUOUS
 10
237.4479964063
 20
377.9616578901
 11
237.4479964063
 21
386.8978282893
  0
LINE
  5
247
100
AcDbEntity
  8
0
100
AcDbLine
 62
7
  6
CONTINUOUS
 10
237.5702593451
 20
344.6697430003
 11
237.5702593451
 21
345.4357004229
  0
LINE
  5
248
100
AcDbEntity
  8
0
100
AcDbLine
 62
7
  6
CONTINUOUS
 10
237.5834699469
 20
365.4074023808
 11
237.5834699469
 21
366.1733602727
  0
LINE
  5
249
100
AcDbEntity
  8
0
100
AcDbLine
 62
7
  6
CONTINUOUS
 10
237.656329814
 20
350.0314450253
 11
237.656329814
 21
350.7974023808
  0
LINE
  5
24A
100
AcDbEntity
  8
0
100
AcDbLine
 62
7
  6
CONTINUOUS
 10
238.036457323
 20
359.2797430003
 11
238.036457323
 21
368.2797430003
  0
LINE
  5
24B
100
AcDbEntity
  8
BEZUGSACHSEN
100
AcDbLine
 62
7
  6
CONTINUOUS
 10
238.1093573149
 20
406.2197430003
 11
238.1093573149
 21
428.8169600823
  0
LINE
  5
24C
100
AcDbEntity
  8
0
100
AcDbLine
 62
7
  6
CONTINUOUS
 10
238.4200541044
 20
360.4286791677
 11
238.4200541044
 21
368.2797430003
  0
LINE
  5
24D
100
AcDbEntity
  8
0
100
AcDbLine
 62
7
  6
CONTINUOUS
 10
238.9515851401
 20
360.4286791677
 11
238.9515851401
 21
368.2797430003
  0
LINE
  5
24E
100
AcDbEntity
  8
0
100
AcDbLine
 62
7
  6
CONTINUOUS
 10
239.0791100535
 20
380.514849254
 11
239.0791100535
 21
384.3446363891
  0
LINE
  5
24F
100
AcDbEntity
  8
0
100
AcDbLine
 62
7
  6
CONTINUOUS
 10
239.7344352082
 20
380.514849254
 11
239.7344352082
 21
384.3446363891
  0
LINE
  5
250
100
AcDbEntity
  8
0
100
AcDbLine
 62
7
  6
CONTINUOUS
 10
240.2860067355
 20
380.514849254
 11
240.2860067355
 21
384.3446363891
  0
LWPOLYLINE
  5
251
100
AcDbEntity
  8
0
100
AcDbPolyline
 62
7
  6
CONTINUOUS
 90
5
 70
0
 10
322.9763155001
 20
353.469957034
 10
323.6835393515
 20
353.4942098198
 10
324.6985791915
 20
353.5998554489
 10
325.7146954643
 20
353.7916108059
 10
326.7214660092
 20
354.0701033636
  0
LINE
  5
252
100
AcDbEntity
  8
0
100
AcDbLine
 62
7
  6
CONTINUOUS
 10
236.165502538
 20
345.4357004229
 11
236.6290817639
 21
345.4357004229
  0
LINE
  5
253
100
AcDbEntity
  8
0
100
AcDbLine
 62
7
  6
CONTINUOUS
 10
237.0580047985
 20
345.4357004229
 11
237.5702593451
 21
345.4357004229
  0
LINE
  5
254
100
AcDbEntity
  8
0
100
AcDbLine
 62
7
  6
CONTINUOUS
 10
236.8626248972
 20
345.6271898288
 11
237.3722291584
 21
345.6271898288
  0
LINE
  5
255
100
AcDbEntity
  8
0
100
AcDbLine
 62
7
  6
CONTINUOUS
 10
236.1910403039
 20
346.0101685066
 11
236.585034067
 21
346.0101685066
  0
LINE
  5
256
100
AcDbEntity
  8
0
100
AcDbLine
 62
7
  6
CONTINUOUS
 10
236.7568645865
 20
346.0101685066
 11
237.265045717
 21
346.0101685066
  0
LINE
  5
257
100
AcDbEntity
  8
0
100
AcDbLine
 62
7
  6
CONTINUOUS
 10
236.7235061521
 20
346.5846366573
 11
237.2312400637
 21
346.5846366573
  0
LINE
  5
258
100
AcDbEntity
  8
0
100
AcDbLine
 62
7
  6
CONTINUOUS
 10
236.2125904541
 20
346.7761259962
 11
236.570818274
 21
346.7761259962
  0
LINE
  5
259
100
AcDbEntity
  8
0
100
AcDbLine
 62
7
  6
CONTINUOUS
 10
236.2247252219
 20
347.3505940128
 11
236.570818274
 21
347.3505940128
  0
LINE
  5
25A
100
AcDbEntity
  8
0
100
AcDbLine
 62
7
  6
CONTINUOUS
 10
236.2377674654
 20
348.3080409754
 11
236.570818274
 21
348.3080409754
  0
LINE
  5
25B
100
AcDbEntity
  8
0
100
AcDbLine
 62
7
  6
CONTINUOUS
 10
236.2377674654
 20
350.0314450253
 11
236.570818274
 21
350.0314450253
  0
LINE
  5
25C
100
AcDbEntity
  8
0
100
AcDbLine
 62
7
  6
CONTINUOUS
 10
236.7235061521
 20
350.0314450253
 11
237.656329814
 21
350.0314450253
  0
LINE
  5
25D
100
AcDbEntity
  8
0
100
AcDbLine
 62
7
  6
CONTINUOUS
 10
236.3749009735
 20
350.7974023808
 11
236.570818274
 21
350.7974023808
  0
LINE
  5
25E
100
AcDbEntity
  8
0
100
AcDbLine
 62
7
  6
CONTINUOUS
 10
236.7235061521
 20
350.7974023808
 11
237.656329814
 21
350.7974023808
  0
LINE
  5
25F
100
AcDbEntity
  8
0
100
AcDbLine
 62
7
  6
CONTINUOUS
 10
236.2247252219
 20
350.9888917196
 11
236.570818274
 21
350.9888917196
  0
LINE
  5
260
100
AcDbEntity
  8
0
100
AcDbLine
 62
7
  6
CONTINUOUS
 10
236.2125904541
 20
351.5633602727
 11
236.570818274
 21
351.5633602727
  0
LINE
  5
261
100
AcDbEntity
  8
0
100
AcDbLine
 62
7
  6
CONTINUOUS
 10
236.1910403039
 20
352.3293176282
 11
237.2312400637
 21
352.3293176282
  0
LINE
  5
262
100
AcDbEntity
  8
0
100
AcDbLine
 62
7
  6
CONTINUOUS
 10
236.165502538
 20
352.9037856448
 11
236.6658713535
 21
352.9037856448
  0
LINE
  5
263
100
AcDbEntity
  8
0
100
AcDbLine
 62
7
  6
CONTINUOUS
 10
321.4302419699
 20
353.4697430003
 11
322.9763155001
 21
353.469957034
  0
LINE
  5
264
100
AcDbEntity
  8
0
100
AcDbLine
 62
7
  6
CONTINUOUS
 10
236.1410028296
 20
353.4782536615
 11
236.6410535867
 21
353.4782536615
  0
LINE
  5
265
100
AcDbEntity
  8
0
100
AcDbLine
 62
7
  6
CONTINUOUS
 10
236.1413638221
 20
353.6697430003
 11
236.6414188802
 21
353.6697430003
  0
LINE
  5
266
100
AcDbEntity
  8
KONSTRUKTIONSELEMENTE
100
AcDbLine
 62
7
  6
CONTINUOUS
 10
321.4302419699
 20
353.4697430003
 11
321.2979341244
 21
353.469957034
  0
LINE
  5
267
100
AcDbEntity
  8
0
100
AcDbLine
 62
7
  6
CONTINUOUS
 10
240.6371248123
 20
405.7197430003
 11
240.6371248123
 21
397.4697430003
  0
LINE
  5
268
100
AcDbEntity
  8
0
100
AcDbLine
 62
7
  6
CONTINUOUS
 10
240.6371248123
 20
336.9697430003
 11
240.6371248123
 21
328.7197430003
  0
LINE
  5
269
100
AcDbEntity
  8
0
100
AcDbLine
 62
7
  6
CONTINUOUS
 10
240.9524309061
 20
359.2797430003
 11
240.9524309061
 21
360.4286791677
  0
LINE
  5
26A
100
AcDbEntity
  8
0
100
AcDbLine
 62
7
  6
CONTINUOUS
 10
241.5239830749
 20
359.2797430003
 11
241.5239830749
 21
360.4286791677
  0
LINE
  5
26B
100
AcDbEntity
  8
0
100
AcDbLine
 62
7
  6
CONTINUOUS
 10
241.8200768375
 20
362.3435726906
 11
241.8200768375
 21
368.2797430003
  0
LINE
  5
26C
100
AcDbEntity
  8
0
100
AcDbLine
 62
7
  6
CONTINUOUS
 10
242.5311908043
 20
362.3435726906
 11
242.5311908043
 21
368.2797430003
  0
LINE
  5
26D
100
AcDbEntity
  8
0
100
AcDbLine
 62
7
  6
CONTINUOUS
 10
243.1309233424
 20
362.3435726906
 11
243.1309233424
 21
368.2797430003
  0
LINE
  5
26E
100
AcDbEntity
  8
KONSTRUKTIONSELEMENTE
100
AcDbLine
 62
7
  6
CONTINUOUS
 10
245.6871248123
 20
405.7197430003
 11
245.6871248123
 21
406.2197430003
  0
LINE
  5
26F
100
AcDbEntity
  8
BEZUGSACHSEN
100
AcDbLine
 62
7
  6
CONTINUOUS
 10
245.6871248123
 20
405.7197430003
 11
245.6871248123
 21
406.2197430003
  0
LINE
  5
270
100
AcDbEntity
  8
0
100
AcDbLine
 62
7
  6
CONTINUOUS
 10
245.9768878507
 20
362.3435726906
 11
245.9768878507
 21
368.2797430003
  0
LINE
  5
271
100
AcDbEntity
  8
0
100
AcDbLine
 62
7
  6
CONTINUOUS
 10
247.0162354871
 20
362.3435726906
 11
247.0162354871
 21
368.2797430003
  0
LINE
  5
272
100
AcDbEntity
  8
0
100
AcDbLine
 62
7
  6
CONTINUOUS
 10
247.1371248123
 20
397.4697430003
 11
247.1371248123
 21
397.2197430003
  0
LINE
  5
273
100
AcDbEntity
  8
0
100
AcDbLine
 62
7
  6
CONTINUOUS
 10
247.1371248123
 20
337.2197430003
 11
247.1371248123
 21
336.9697430003
  0
LINE
  5
274
100
AcDbEntity
  8
0
100
AcDbLine
 62
7
  6
CONTINUOUS
 10
247.7138788987
 20
362.3435726906
 11
247.7138788987
 21
368.2797430003
  0
LINE
  5
275
100
AcDbEntity
  8
0
100
AcDbLine
 62
7
  6
CONTINUOUS
 10
249.1551546214
 20
365.4074023808
 11
249.1551546214
 21
366.1733602727
  0
LINE
  5
276
100
AcDbEntity
  8
KONSTRUKTIONSELEMENTE
100
AcDbLine
 62
7
  6
CONTINUOUS
 10
249.353642356
 20
431.7197430003
 11
249.353642356
 21
431.9197430003
  0
LINE
  5
277
100
AcDbEntity
  8
0
100
AcDbLine
 62
7
  6
CONTINUOUS
 10
250.4722530307
 20
365.5988917196
 11
250.4722530307
 21
365.9818703974
  0
LINE
  5
278
100
AcDbEntity
  8
0
100
AcDbLine
 62
7
  6
CONTINUOUS
 10
251.270706983
 20
365.5988917196
 11
251.270706983
 21
365.9818703974
  0
LINE
  5
279
100
AcDbEntity
  8
BEZUGSACHSEN
100
AcDbLine
 62
7
  6
CONTINUOUS
 10
238.1093573149
 20
428.8169600823
 11
243.1371248123
 21
431.7197430003
  0
LINE
  5
27A
100
AcDbEntity
  8
0
100
AcDbLine
 62
7
  6
CONTINUOUS
 10
236.302246349
 20
359.2797430003
 11
236.9263159557
 21
359.2797430003
  0
LINE
  5
27B
100
AcDbEntity
  8
0
100
AcDbLine
 62
7
  6
CONTINUOUS
 10
238.036457323
 20
359.2797430003
 11
241.5239830749
 21
359.2797430003
  0
LINE
  5
27C
100
AcDbEntity
  8
0
100
AcDbLine
 62
7
  6
CONTINUOUS
 10
243.8419045649
 20
359.2797430003
 11
245.0510899497
 21
359.2797430003
  0
LINE
  5
27D
100
AcDbEntity
  8
0
100
AcDbLine
 62
7
  6
CONTINUOUS
 10
251.6672860215
 20
359.2797430003
 11
254.7314724006
 21
359.2797430003
  0
LINE
  5
27E
100
AcDbEntity
  8
0
100
AcDbLine
 62
7
  6
CONTINUOUS
 10
245.1705021896
 20
359.471232356
 11
245.8241844717
 21
359.471232356
  0
LINE
  5
27F
100
AcDbEntity
  8
0
100
AcDbLine
 62
7
  6
CONTINUOUS
 10
255.3116922823
 20
359.471232356
 11
256.3143254721
 21
359.471232356
  0
LINE
  5
280
100
AcDbEntity
  8
0
100
AcDbLine
 62
7
  6
CONTINUOUS
 10
236.2509512573
 20
359.854211084
 11
236.302246349
 21
359.854211084
  0
LINE
  5
281
100
AcDbEntity
  8
0
100
AcDbLine
 62
7
  6
CONTINUOUS
 10
245.8114381195
 20
359.854211084
 11
246.4797365851
 21
359.854211084
  0
LINE
  5
282
100
AcDbEntity
  8
0
100
AcDbLine
 62
7
  6
CONTINUOUS
 10
256.6409717861
 20
359.854211084
 11
257.7199586603
 21
359.854211084
  0
LINE
  5
283
100
AcDbEntity
  8
0
100
AcDbLine
 62
7
  6
CONTINUOUS
 10
238.4200541044
 20
360.4286791677
 11
241.5239830749
 21
360.4286791677
  0
LINE
  5
284
100
AcDbEntity
  8
0
100
AcDbLine
 62
7
  6
CONTINUOUS
 10
243.8419045649
 20
360.4286791677
 11
244.4138519764
 21
360.4286791677
  0
LINE
  5
285
100
AcDbEntity
  8
0
100
AcDbLine
 62
7
  6
CONTINUOUS
 10
251.6672860215
 20
360.4286791677
 11
253.8030991644
 21
360.4286791677
  0
LINE
  5
286
100
AcDbEntity
  8
0
100
AcDbLine
 62
7
  6
CONTINUOUS
 10
236.200789076
 20
360.6201685066
 11
236.302246349
 21
360.6201685066
  0
LINE
  5
287
100
AcDbEntity
  8
0
100
AcDbLine
 62
7
  6
CONTINUOUS
 10
243.2978891224
 20
360.6201685066
 11
243.9123441195
 21
360.6201685066
  0
LINE
  5
288
100
AcDbEntity
  8
0
100
AcDbLine
 62
7
  6
CONTINUOUS
 10
246.4863250975
 20
360.6201685066
 11
247.17074635
 21
360.6201685066
  0
LINE
  5
289
100
AcDbEntity
  8
0
100
AcDbLine
 62
7
  6
CONTINUOUS
 10
250.7037069838
 20
360.6201685066
 11
251.5099813797
 21
360.6201685066
  0
LINE
  5
28A
100
AcDbEntity
  8
0
100
AcDbLine
 62
7
  6
CONTINUOUS
 10
258.1064796284
 20
360.6201685066
 11
259.2849049242
 21
360.6201685066
  0
LINE
  5
28B
100
AcDbEntity
  8
0
100
AcDbLine
 62
7
  6
CONTINUOUS
 10
242.9073507334
 20
361.0031473184
 11
243.5142163886
 21
361.0031473184
  0
LINE
  5
28C
100
AcDbEntity
  8
0
100
AcDbLine
 62
7
  6
CONTINUOUS
 10
250.0199456386
 20
361.1946366573
 11
250.8035535651
 21
361.1946366573
  0
LINE
  5
28D
100
AcDbEntity
  8
0
100
AcDbLine
 62
7
  6
CONTINUOUS
 10
236.1905151663
 20
361.3861259962
 11
236.302246349
 21
361.3861259962
  0
LINE
  5
28E
100
AcDbEntity
  8
0
100
AcDbLine
 62
7
  6
CONTINUOUS
 10
246.8372524627
 20
361.3861259962
 11
247.530372468
 21
361.3861259962
  0
LINE
  5
28F
100
AcDbEntity
  8
0
100
AcDbLine
 62
7
  6
CONTINUOUS
 10
258.9017221826
 20
361.3861259962
 11
260.1425158294
 21
361.3861259962
  0
LINE
  5
290
100
AcDbEntity
  8
0
100
AcDbLine
 62
7
  6
CONTINUOUS
 10
242.6550091676
 20
361.5776153351
 11
243.2570709109
 21
361.5776153351
  0
LINE
  5
291
100
AcDbEntity
  8
0
100
AcDbLine
 62
7
  6
CONTINUOUS
 10
248.5388731075
 20
361.7691046739
 11
250.5754525616
 21
361.7691046739
  0
LINE
  5
292
100
AcDbEntity
  8
0
100
AcDbLine
 62
7
  6
CONTINUOUS
 10
242.5311908043
 20
362.3435726906
 11
243.1309233424
 21
362.3435726906
  0
LINE
  5
293
100
AcDbEntity
  8
0
100
AcDbLine
 62
7
  6
CONTINUOUS
 10
247.0162354871
 20
362.3435726906
 11
247.7138788987
 21
362.3435726906
  0
LINE
  5
294
100
AcDbEntity
  8
0
100
AcDbLine
 62
7
  6
CONTINUOUS
 10
258.9017221826
 20
362.3435726906
 11
260.1425158294
 21
362.3435726906
  0
LINE
  5
295
100
AcDbEntity
  8
0
100
AcDbLine
 62
7
  6
CONTINUOUS
 10
236.1371249047
 20
362.5350620294
 11
236.302246349
 21
362.5350620294
  0
LINE
  5
296
100
AcDbEntity
  8
0
100
AcDbLine
 62
7
  6
CONTINUOUS
 10
258.1064796284
 20
363.1095303143
 11
259.2849049242
 21
363.1095303143
  0
LINE
  5
297
100
AcDbEntity
  8
0
100
AcDbLine
 62
7
  6
CONTINUOUS
 10
236.4225808594
 20
363.3010196531
 11
237.4956211477
 21
363.3010196531
  0
LINE
  5
298
100
AcDbEntity
  8
0
100
AcDbLine
 62
7
  6
CONTINUOUS
 10
252.1734164105
 20
363.3010196531
 11
253.8030991644
 21
363.3010196531
  0
LINE
  5
299
100
AcDbEntity
  8
0
100
AcDbLine
 62
7
  6
CONTINUOUS
 10
236.1371249047
 20
363.492508992
 11
236.302246349
 21
363.492508992
  0
LINE
  5
29A
100
AcDbEntity
  8
0
100
AcDbLine
 62
7
  6
CONTINUOUS
 10
237.1951366206
 20
363.492508992
 11
237.7092679682
 21
363.492508992
  0
LINE
  5
29B
100
AcDbEntity
  8
0
100
AcDbLine
 62
7
  6
CONTINUOUS
 10
256.6409717861
 20
363.8754876698
 11
257.7199586603
 21
363.8754876698
  0
LINE
  5
29C
100
AcDbEntity
  8
0
100
AcDbLine
 62
7
  6
CONTINUOUS
 10
237.3813534427
 20
364.0669770086
 11
237.8980556549
 21
364.0669770086
  0
LINE
  5
29D
100
AcDbEntity
  8
0
100
AcDbLine
 62
7
  6
CONTINUOUS
 10
236.1905151663
 20
364.2584663475
 11
236.302246349
 21
364.2584663475
  0
LINE
  5
29E
100
AcDbEntity
  8
0
100
AcDbLine
 62
7
  6
CONTINUOUS
 10
255.3116922823
 20
364.2584663475
 11
256.3143254721
 21
364.2584663475
  0
LINE
  5
29F
100
AcDbEntity
  8
0
100
AcDbLine
 62
7
  6
CONTINUOUS
 10
236.4225808594
 20
364.4499556864
 11
237.0245843072
 21
364.4499556864
  0
LINE
  5
2A0
100
AcDbEntity
  8
0
100
AcDbLine
 62
7
  6
CONTINUOUS
 10
252.1734164105
 20
364.4499556864
 11
254.7314724006
 21
364.4499556864
  0
LINE
  5
2A1
100
AcDbEntity
  8
0
100
AcDbLine
 62
7
  6
CONTINUOUS
 10
251.4204996008
 20
364.6414450253
 11
252.2520136825
 21
364.6414450253
  0
LINE
  5
2A2
100
AcDbEntity
  8
0
100
AcDbLine
 62
7
  6
CONTINUOUS
 10
237.531436352
 20
364.8329343641
 11
238.050229491
 21
364.8329343641
  0
LINE
  5
2A3
100
AcDbEntity
  8
0
100
AcDbLine
 62
7
  6
CONTINUOUS
 10
250.7037069838
 20
365.024423703
 11
251.5099813797
 21
365.024423703
  0
LINE
  5
2A4
100
AcDbEntity
  8
0
100
AcDbLine
 62
7
  6
CONTINUOUS
 10
237.5834699469
 20
365.4074023808
 11
238.036457323
 21
365.4074023808
  0
LINE
  5
2A5
100
AcDbEntity
  8
0
100
AcDbLine
 62
7
  6
CONTINUOUS
 10
250.4722530307
 20
365.5988917196
 11
251.270706983
 21
365.5988917196
  0
LINE
  5
2A6
100
AcDbEntity
  8
0
100
AcDbLine
 62
7
  6
CONTINUOUS
 10
236.1905151663
 20
365.9818703974
 11
236.302246349
 21
365.9818703974
  0
LINE
  5
2A7
100
AcDbEntity
  8
0
100
AcDbLine
 62
7
  6
CONTINUOUS
 10
250.4722530307
 20
365.9818703974
 11
251.270706983
 21
365.9818703974
  0
LINE
  5
2A8
100
AcDbEntity
  8
0
100
AcDbLine
 62
7
  6
CONTINUOUS
 10
237.5834699469
 20
366.1733602727
 11
238.036457323
 21
366.1733602727
  0
LINE
  5
2A9
100
AcDbEntity
  8
0
100
AcDbLine
 62
7
  6
CONTINUOUS
 10
255.632813824
 20
366.1733602727
 11
258.8763009122
 21
366.1733602727
  0
LINE
  5
2AA
100
AcDbEntity
  8
0
100
AcDbLine
 62
7
  6
CONTINUOUS
 10
250.7037069838
 20
366.5563389505
 11
251.5099813797
 21
366.5563389505
  0
LINE
  5
2AB
100
AcDbEntity
  8
0
100
AcDbLine
 62
7
  6
CONTINUOUS
 10
237.531436352
 20
366.7478282893
 11
238.050229491
 21
366.7478282893
  0
LINE
  5
2AC
100
AcDbEntity
  8
0
100
AcDbLine
 62
7
  6
CONTINUOUS
 10
257.3546643526
 20
366.7478282893
 11
258.4798171066
 21
366.7478282893
  0
LINE
  5
2AD
100
AcDbEntity
  8
0
100
AcDbLine
 62
7
  6
CONTINUOUS
 10
236.200789076
 20
366.9393176282
 11
236.302246349
 21
366.9393176282
  0
LINE
  5
2AE
100
AcDbEntity
  8
0
100
AcDbLine
 62
7
  6
CONTINUOUS
 10
251.4204996008
 20
366.9393176282
 11
252.2520136825
 21
366.9393176282
  0
LINE
  5
2AF
100
AcDbEntity
  8
0
100
AcDbLine
 62
7
  6
CONTINUOUS
 10
252.1734164105
 20
367.1308069671
 11
253.8030991644
 21
367.1308069671
  0
LINE
  5
2B0
100
AcDbEntity
  8
0
100
AcDbLine
 62
7
  6
CONTINUOUS
 10
236.4225808594
 20
367.322296306
 11
237.0245843072
 21
367.322296306
  0
LWPOLYLINE
  5
2B1
100
AcDbEntity
  8
0
100
AcDbPolyline
 62
7
  6
CONTINUOUS
 90
3
 70
0
 10
316.5662080218
 20
354.4347868598
 10
317.5527836153
 20
354.0701033636
 10
317.6514205622
 20
354.0428184418
  0
LINE
  5
2B2
100
AcDbEntity
  8
BEZUGSACHSEN
100
AcDbLine
 62
7
  6
CONTINUOUS
 10
254.6371248123
 20
328.7197430003
 11
254.6371248123
 21
259.7197430003
  0
LINE
  5
2B3
100
AcDbEntity
  8
0
100
AcDbLine
 62
7
  6
CONTINUOUS
 10
256.6409717861
 20
361.5776153351
 11
256.6409717861
 21
362.1520833517
  0
LINE
  5
2B4
100
AcDbEntity
  8
BEZUGSACHSEN
100
AcDbLine
 62
7
  6
CONTINUOUS
 10
256.8732410636
 20
406.2197430003
 11
256.8732410636
 21
428.8169600823
  0
LINE
  5
2B5
100
AcDbEntity
  8
KONSTRUKTIONSELEMENTE
100
AcDbLine
 62
7
  6
CONTINUOUS
 10
257.2958166515
 20
431.7197430003
 11
257.2958166515
 21
431.9197430003
  0
LINE
  5
2B6
100
AcDbEntity
  8
KONSTRUKTIONSELEMENTE
100
AcDbLine
 62
7
  6
CONTINUOUS
 10
257.3788484138
 20
431.7197430003
 11
257.3788484138
 21
431.9197430003
  0
LINE
  5
2B7
100
AcDbEntity
  8
KONSTRUKTIONSELEMENTE
100
AcDbLine
 62
7
  6
CONTINUOUS
 10
257.7248140769
 20
431.7197430003
 11
257.7248140769
 21
431.9197430003
  0
LINE
  5
2B8
100
AcDbEntity
  8
KONSTRUKTIONSELEMENTE
100
AcDbLine
 62
7
  6
CONTINUOUS
 10
257.8216844927
 20
431.7197430003
 11
257.8216844927
 21
431.9197430003
  0
LINE
  5
2B9
100
AcDbEntity
  8
KONSTRUKTIONSELEMENTE
100
AcDbLine
 62
7
  6
CONTINUOUS
 10
257.9327133861
 20
431.7197430003
 11
257.9327133861
 21
431.9197430003
  0
LINE
  5
2BA
100
AcDbEntity
  8
KONSTRUKTIONSELEMENTE
100
AcDbLine
 62
7
  6
CONTINUOUS
 10
258.4274002684
 20
431.7197430003
 11
258.4274002684
 21
431.9197430003
  0
LINE
  5
2BB
100
AcDbEntity
  8
KONSTRUKTIONSELEMENTE
100
AcDbLine
 62
7
  6
CONTINUOUS
 10
258.8111189836
 20
431.7197430003
 11
258.8111189836
 21
431.9197430003
  0
LINE
  5
2BC
100
AcDbEntity
  8
0
100
AcDbLine
 62
7
  6
CONTINUOUS
 10
258.9017221826
 20
361.3861259962
 11
258.9017221826
 21
362.3435726906
  0
LINE
  5
2BD
100
AcDbEntity
  8
KONSTRUKTIONSELEMENTE
100
AcDbLine
 62
7
  6
CONTINUOUS
 10
258.9929529516
 20
431.7197430003
 11
258.9929529516
 21
431.9197430003
  0
LINE
  5
2BE
100
AcDbEntity
  8
KONSTRUKTIONSELEMENTE
100
AcDbLine
 62
7
  6
CONTINUOUS
 10
259.0638187662
 20
431.7197430003
 11
259.0638187662
 21
431.9197430003
  0
LINE
  5
2BF
100
AcDbEntity
  8
0
100
AcDbLine
 62
7
  6
CONTINUOUS
 10
260.1425158294
 20
361.3861259962
 11
260.1425158294
 21
362.3435726906
  0
LINE
  5
2C0
100
AcDbEntity
  8
KONSTRUKTIONSELEMENTE
100
AcDbLine
 62
7
  6
CONTINUOUS
 10
260.1890895357
 20
431.7197430003
 11
260.1890895357
 21
431.9197430003
  0
LINE
  5
2C1
100
AcDbEntity
  8
KONSTRUKTIONSELEMENTE
100
AcDbLine
 62
7
  6
CONTINUOUS
 10
261.9644649148
 20
431.7197430003
 11
261.9644649148
 21
431.9197430003
  0
LINE
  5
2C2
100
AcDbEntity
  8
KONSTRUKTIONSELEMENTE
100
AcDbLine
 62
7
  6
CONTINUOUS
 10
262.2037679909
 20
431.7197430003
 11
262.2037679909
 21
431.9197430003
  0
LINE
  5
2C3
100
AcDbEntity
  8
KONSTRUKTIONSELEMENTE
100
AcDbLine
 62
7
  6
CONTINUOUS
 10
262.2385294404
 20
431.7197430003
 11
262.2385294404
 21
431.9197430003
  0
LINE
  5
2C4
100
AcDbEntity
  8
0
100
AcDbLine
 62
7
  6
CONTINUOUS
 10
237.3813534427
 20
367.5137856448
 11
237.8980556549
 21
367.5137856448
  0
LINE
  5
2C5
100
AcDbEntity
  8
0
100
AcDbLine
 62
7
  6
CONTINUOUS
 10
256.2970546492
 20
367.5137856448
 11
257.3551608108
 21
367.5137856448
  0
LINE
  5
2C6
100
AcDbEntity
  8
0
100
AcDbLine
 62
7
  6
CONTINUOUS
 10
236.2509512573
 20
367.7052749837
 11
236.302246349
 21
367.7052749837
  0
LINE
  5
2C7
100
AcDbEntity
  8
0
100
AcDbLine
 62
7
  6
CONTINUOUS
 10
237.1951366206
 20
368.0882536615
 11
237.7092679682
 21
368.0882536615
  0
LINE
  5
2C8
100
AcDbEntity
  8
0
100
AcDbLine
 62
7
  6
CONTINUOUS
 10
254.997435408
 20
368.0882536615
 11
255.9836110537
 21
368.0882536615
  0
LINE
  5
2C9
100
AcDbEntity
  8
0
100
AcDbLine
 62
7
  6
CONTINUOUS
 10
236.302246349
 20
368.2797430003
 11
237.4956211477
 21
368.2797430003
  0
LINE
  5
2CA
100
AcDbEntity
  8
0
100
AcDbLine
 62
7
  6
CONTINUOUS
 10
238.036457323
 20
368.2797430003
 11
238.9515851401
 21
368.2797430003
  0
LINE
  5
2CB
100
AcDbEntity
  8
0
100
AcDbLine
 62
7
  6
CONTINUOUS
 10
241.8200768375
 20
368.2797430003
 11
243.1309233424
 21
368.2797430003
  0
LINE
  5
2CC
100
AcDbEntity
  8
0
100
AcDbLine
 62
7
  6
CONTINUOUS
 10
245.9768878507
 20
368.2797430003
 11
247.7138788987
 21
368.2797430003
  0
LINE
  5
2CD
100
AcDbEntity
  8
0
100
AcDbLine
 62
7
  6
CONTINUOUS
 10
252.1734164105
 20
368.2797430003
 11
254.4345066204
 21
368.2797430003
  0
LINE
  5
2CE
100
AcDbEntity
  8
0
100
AcDbLine
 62
7
  6
CONTINUOUS
 10
236.1387863861
 20
376.4297430003
 11
236.6388079659
 21
376.4297430003
  0
LINE
  5
2CF
100
AcDbEntity
  8
0
100
AcDbLine
 62
7
  6
CONTINUOUS
 10
236.6592038705
 20
376.4297430003
 11
238.6750842769
 21
376.4297430003
  0
LINE
  5
2D0
100
AcDbEntity
  8
0
100
AcDbLine
 62
7
  6
CONTINUOUS
 10
236.1703710145
 20
376.6850621412
 11
236.670803159
 21
376.6850621412
  0
LINE
  5
2D1
100
AcDbEntity
  8
0
100
AcDbLine
 62
7
  6
CONTINUOUS
 10
238.5889665271
 20
376.6850621412
 11
239.1229904475
 21
376.6850621412
  0
LINE
  5
2D2
100
AcDbEntity
  8
0
100
AcDbLine
 62
7
  6
CONTINUOUS
 10
236.2245574336
 20
377.1957004452
 11
236.6592038705
 21
377.1957004452
  0
LINE
  5
2D3
100
AcDbEntity
  8
0
100
AcDbLine
 62
7
  6
CONTINUOUS
 10
238.9770930092
 20
377.1957004452
 11
239.5169353125
 21
377.1957004452
  0
LINE
  5
2D4
100
AcDbEntity
  8
0
100
AcDbLine
 62
7
  6
CONTINUOUS
 10
236.1371247426
 20
377.9616578901
 11
236.1387862879
 21
377.9616578901
  0
LINE
  5
2D5
100
AcDbEntity
  8
0
100
AcDbLine
 62
7
  6
CONTINUOUS
 10
236.9373813576
 20
377.9616578901
 11
238.1475262743
 21
377.9616578901
  0
LINE
  5
2D6
100
AcDbEntity
  8
0
100
AcDbLine
 62
7
  6
CONTINUOUS
 10
236.3045624894
 20
378.2169770086
 11
236.6592038705
 21
378.2169770086
  0
LINE
  5
2D7
100
AcDbEntity
  8
0
100
AcDbLine
 62
7
  6
CONTINUOUS
 10
239.3973999984
 20
378.2169770086
 11
239.9436889218
 21
378.2169770086
  0
LINE
  5
2D8
100
AcDbEntity
  8
0
100
AcDbLine
 62
7
  6
CONTINUOUS
 10
315.6084811522
 20
354.8840704023
 11
316.5662080218
 21
354.4347868598
  0
LINE
  5
2D9
100
AcDbEntity
  8
KONSTRUKTIONSELEMENTE
100
AcDbLine
 62
7
  6
CONTINUOUS
 10
266.6920838392
 20
431.7197430003
 11
266.6920838392
 21
431.9197430003
  0
LINE
  5
2DA
100
AcDbEntity
  8
KONSTRUKTIONSELEMENTE
100
AcDbLine
 62
7
  6
CONTINUOUS
 10
268.602117571
 20
431.7197430003
 11
268.602117571
 21
431.9197430003
  0
LINE
  5
2DB
100
AcDbEntity
  8
KONSTRUKTIONSELEMENTE
100
AcDbLine
 62
7
  6
CONTINUOUS
 10
269.2739408108
 20
431.7197430003
 11
269.2739408108
 21
431.9197430003
  0
LINE
  5
2DC
100
AcDbEntity
  8
KONSTRUKTIONSELEMENTE
100
AcDbLine
 62
7
  6
CONTINUOUS
 10
270.8415275161
 20
431.7197430003
 11
270.8415275161
 21
431.9197430003
  0
LINE
  5
2DD
100
AcDbEntity
  8
KONSTRUKTIONSELEMENTE
100
AcDbLine
 62
7
  6
CONTINUOUS
 10
271.7372935443
 20
431.7197430003
 11
271.7372935443
 21
431.9197430003
  0
LINE
  5
2DE
100
AcDbEntity
  8
KONSTRUKTIONSELEMENTE
100
AcDbLine
 62
7
  6
CONTINUOUS
 10
271.801236625
 20
431.7197430003
 11
271.801236625
 21
431.9197430003
  0
LINE
  5
2DF
100
AcDbEntity
  8
KONSTRUKTIONSELEMENTE
100
AcDbLine
 62
7
  6
CONTINUOUS
 10
273.3048802496
 20
431.7197430003
 11
273.3048802496
 21
431.9197430003
  0
LWPOLYLINE
  5
2E0
100
AcDbEntity
  8
KONSTRUKTIONSELEMENTE
100
AcDbPolyline
 62
7
  6
CONTINUOUS
 90
5
 70
0
 10
309.4699438687
 20
542.3627927955
 10
309.2724394678
 20
541.6585782701
 10
309.0639832375
 20
540.6583234294
 10
308.9355732694
 20
539.6467557182
 10
308.8875709924
 20
538.6298737892
  0
LINE
  5
2E1
100
AcDbEntity
  8
RUNDUNGEN
100
AcDbLine
 62
7
  6
CONTINUOUS
 10
309.4711998406
 20
542.362751174
 11
309.649556555
 21
542.8834366836
  0
LINE
  5
2E2
100
AcDbEntity
  8
0
100
AcDbLine
 62
7
  6
CONTINUOUS
 10
236.3542948485
 20
379.2382536615
 11
236.6592038705
 21
379.2382536615
  0
LINE
  5
2E3
100
AcDbEntity
  8
0
100
AcDbLine
 62
7
  6
CONTINUOUS
 10
239.6199754334
 20
379.2382536615
 11
240.1697414386
 21
379.2382536615
  0
LINE
  5
2E4
100
AcDbEntity
  8
0
100
AcDbLine
 62
7
  6
CONTINUOUS
 10
236.3816039689
 20
380.514849254
 11
236.6592038705
 21
380.514849254
  0
LINE
  5
2E5
100
AcDbEntity
  8
0
100
AcDbLine
 62
7
  6
CONTINUOUS
 10
239.7344352082
 20
380.514849254
 11
240.2860067355
 21
380.514849254
  0
LINE
  5
2E6
100
AcDbEntity
  8
0
100
AcDbLine
 62
7
  6
CONTINUOUS
 10
239.7344352082
 20
384.3446363891
 11
240.2860067355
 21
384.3446363891
  0
LINE
  5
2E7
100
AcDbEntity
  8
0
100
AcDbLine
 62
7
  6
CONTINUOUS
 10
239.6199754334
 20
385.6212326968
 11
240.1697414386
 21
385.6212326968
  0
LINE
  5
2E8
100
AcDbEntity
  8
0
100
AcDbLine
 62
7
  6
CONTINUOUS
 10
239.3973999984
 20
386.6425091708
 11
239.9436889218
 21
386.6425091708
  0
LINE
  5
2E9
100
AcDbEntity
  8
0
100
AcDbLine
 62
7
  6
CONTINUOUS
 10
236.9373813576
 20
386.8978282893
 11
238.1475262743
 21
386.8978282893
  0
LINE
  5
2EA
100
AcDbEntity
  8
0
100
AcDbLine
 62
7
  6
CONTINUOUS
 10
238.9770930092
 20
387.6637856448
 11
239.5169353125
 21
387.6637856448
  0
LINE
  5
2EB
100
AcDbEntity
  8
0
100
AcDbLine
 62
7
  6
CONTINUOUS
 10
238.5889665271
 20
388.1744238818
 11
239.1229904475
 21
388.1744238818
  0
LINE
  5
2EC
100
AcDbEntity
  8
0
100
AcDbLine
 62
7
  6
CONTINUOUS
 10
236.2421328818
 20
388.4297430003
 11
238.6750842769
 21
388.4297430003
  0
LINE
  5
2ED
100
AcDbEntity
  8
KONSTRUKTIONSELEMENTE
100
AcDbLine
 62
7
  6
CONTINUOUS
 10
273.9767034894
 20
431.7197430003
 11
273.9767034894
 21
431.9197430003
  0
LINE
  5
2EE
100
AcDbEntity
  8
KONSTRUKTIONSELEMENTE
100
AcDbLine
 62
7
  6
CONTINUOUS
 10
275.153509686
 20
431.7197430003
 11
275.153509686
 21
431.9197430003
  0
LINE
  5
2EF
100
AcDbEntity
  8
KONSTRUKTIONSELEMENTE
100
AcDbLine
 62
7
  6
CONTINUOUS
 10
277.7002237358
 20
431.7197430003
 11
277.7002237358
 21
431.9197430003
  0
LINE
  5
2F0
100
AcDbEntity
  8
KONSTRUKTIONSELEMENTE
100
AcDbLine
 62
7
  6
CONTINUOUS
 10
278.3893667331
 20
431.7197430003
 11
278.3893667331
 21
431.9197430003
  0
LINE
  5
2F1
100
AcDbEntity
  8
KONSTRUKTIONSELEMENTE
100
AcDbLine
 62
7
  6
CONTINUOUS
 10
278.5992246725
 20
431.7197430003
 11
278.5992246725
 21
431.9197430003
  0
LINE
  5
2F2
100
AcDbEntity
  8
KONSTRUKTIONSELEMENTE
100
AcDbLine
 62
7
  6
CONTINUOUS
 10
279.7477972109
 20
431.7197430003
 11
279.7477972109
 21
431.9197430003
  0
LINE
  5
2F3
100
AcDbEntity
  8
KONSTRUKTIONSELEMENTE
100
AcDbLine
 62
7
  6
CONTINUOUS
 10
279.8377363398
 20
431.7197430003
 11
279.8377363398
 21
431.9197430003
  0
LINE
  5
2F4
100
AcDbEntity
  8
KONSTRUKTIONSELEMENTE
100
AcDbLine
 62
7
  6
CONTINUOUS
 10
280.45442776
 20
431.7197430003
 11
280.45442776
 21
431.9197430003
  0
LINE
  5
2F5
100
AcDbEntity
  8
KONSTRUKTIONSELEMENTE
100
AcDbLine
 62
7
  6
CONTINUOUS
 10
284.3101474601
 20
431.7197430003
 11
284.3101474601
 21
431.9197430003
  0
LINE
  5
2F6
100
AcDbEntity
  8
0
100
AcDbLine
 62
7
  6
CONTINUOUS
 10
309.1472524611
 20
541.0578818591
 11
309.0638540896
 21
540.6573060487
  0
LINE
  5
2F7
100
AcDbEntity
  8
RUNDUNGEN
100
AcDbLine
 62
7
  6
CONTINUOUS
 10
241.1375208115
 20
397.2197430003
 11
312.1371248123
 21
397.2197430003
  0
LINE
  5
2F8
100
AcDbEntity
  8
0
100
AcDbLine
 62
7
  6
CONTINUOUS
 10
310.6371248123
 20
397.4697430003
 11
240.6371248123
 21
397.4697430003
  0
LINE
  5
2F9
100
AcDbEntity
  8
KONSTRUKTIONSELEMENTE
100
AcDbLine
 62
7
  6
CONTINUOUS
 10
284.6253898655
 20
431.7197430003
 11
284.6253898655
 21
431.9197430003
  0
LINE
  5
2FA
100
AcDbEntity
  8
KONSTRUKTIONSELEMENTE
100
AcDbLine
 62
7
  6
CONTINUOUS
 10
285.6911464126
 20
431.7197430003
 11
285.6911464126
 21
431.9197430003
  0
LINE
  5
2FB
100
AcDbEntity
  8
KONSTRUKTIONSELEMENTE
100
AcDbLine
 62
7
  6
CONTINUOUS
 10
286.0945001137
 20
431.7197430003
 11
286.0945001137
 21
431.9197430003
  0
LINE
  5
2FC
100
AcDbEntity
  8
KONSTRUKTIONSELEMENTE
100
AcDbLine
 62
7
  6
CONTINUOUS
 10
286.4537956934
 20
431.7197430003
 11
286.4537956934
 21
431.9197430003
  0
LINE
  5
2FD
100
AcDbEntity
  8
KONSTRUKTIONSELEMENTE
100
AcDbLine
 62
7
  6
CONTINUOUS
 10
286.5798928146
 20
431.7197430003
 11
286.5798928146
 21
431.9197430003
  0
LINE
  5
2FE
100
AcDbEntity
  8
KONSTRUKTIONSELEMENTE
100
AcDbLine
 62
7
  6
CONTINUOUS
 10
286.7249850128
 20
431.7197430003
 11
286.7249850128
 21
431.9197430003
  0
LINE
  5
2FF
100
AcDbEntity
  8
BEZUGSACHSEN
100
AcDbLine
 62
7
  6
CONTINUOUS
 10
294.4010085609
 20
406.2197430003
 11
294.4010085609
 21
428.8169600823
  0
LINE
  5
300
100
AcDbEntity
  8
0
100
AcDbLine
 62
7
  6
CONTINUOUS
 10
309.0638540896
 20
540.6573060487
 11
308.9783642898
 21
539.9838480426
  0
LINE
  5
301
100
AcDbEntity
  8
0
100
AcDbLine
 62
7
  6
CONTINUOUS
 10
310.6371248123
 20
405.7197430003
 11
240.6371248123
 21
405.7197430003
  0
LINE
  5
302
100
AcDbEntity
  8
KONSTRUKTIONSELEMENTE
100
AcDbLine
 62
7
  6
CONTINUOUS
 10
238.1093573149
 20
406.2197430003
 11
312.1371248123
 21
406.2197430003
  0
LINE
  5
303
100
AcDbEntity
  8
KONSTRUKTIONSELEMENTE
100
AcDbLine
 62
7
  6
CONTINUOUS
 10
308.9280526783
 20
364.9942249661
 11
308.926611238
 21
365.0120132791
  0
LINE
  5
304
100
AcDbEntity
  8
KONSTRUKTIONSELEMENTE
100
AcDbLine
 62
7
  6
CONTINUOUS
 10
308.9145434468
 20
365.1847436038
 11
308.926611238
 21
365.0120132791
  0
LINE
  5
305
100
AcDbEntity
  8
BEZUGSACHSEN
100
AcDbLine
 62
7
  6
CONTINUOUS
 10
296.6371248123
 20
259.7197430003
 11
296.6371248123
 21
328.7197430003
  0
LINE
  5
306
100
AcDbEntity
  8
0
100
AcDbLine
 62
7
  6
CONTINUOUS
 10
304.1371248123
 20
397.4697430003
 11
304.1371248123
 21
397.2197430003
  0
LINE
  5
307
100
AcDbEntity
  8
0
100
AcDbLine
 62
7
  6
CONTINUOUS
 10
304.1371248123
 20
337.2197430003
 11
304.1371248123
 21
336.9697430003
  0
LINE
  5
308
100
AcDbEntity
  8
KONSTRUKTIONSELEMENTE
100
AcDbLine
 62
7
  6
CONTINUOUS
 10
305.5871248123
 20
405.7197430003
 11
305.5871248123
 21
406.2197430003
  0
LINE
  5
309
100
AcDbEntity
  8
BEZUGSACHSEN
100
AcDbLine
 62
7
  6
CONTINUOUS
 10
305.5871248123
 20
405.7197430003
 11
305.5871248123
 21
406.2197430003
  0
LINE
  5
30A
100
AcDbEntity
  8
KONSTRUKTIONSELEMENTE
100
AcDbLine
 62
7
  6
CONTINUOUS
 10
313.1371248123
 20
416.4697430003
 11
312.1373719269
 21
416.4697430003
  0
LINE
  5
30B
100
AcDbEntity
  8
0
100
AcDbLine
 62
7
  6
CONTINUOUS
 10
331.1371248123
 20
416.4697430003
 11
332.1368776976
 21
416.4697430003
  0
LINE
  5
30C
100
AcDbEntity
  8
KONSTRUKTIONSELEMENTE
100
AcDbLine
 62
7
  6
CONTINUOUS
 10
317.1371248123
 20
418.7197430003
 11
313.1371248123
 21
418.7197430003
  0
LINE
  5
30D
100
AcDbEntity
  8
0
100
AcDbLine
 62
7
  6
CONTINUOUS
 10
327.1371248123
 20
418.7197430003
 11
331.1371248123
 21
418.7197430003
  0
LINE
  5
30E
100
AcDbEntity
  8
0
100
AcDbLine
 62
7
  6
CONTINUOUS
 10
333.7154107735
 20
375.5642334087
 11
333.3189527015
 21
376.1078868054
  0
LWPOLYLINE
  5
30F
100
AcDbEntity
  8
0
100
AcDbPolyline
 62
7
  6
CONTINUOUS
 90
13
 70
0
 10
308.9344899079
 20
364.9215901164
 10
309.0197545435
 20
364.1655352442
 10
309.2205175963
 20
363.1118164776
 10
309.511529248
 20
362.0767225588
 10
309.8908093657
 20
361.0689548901
 10
310.3556444085
 20
360.0968133397
 10
310.9024492958
 20
359.1679023349
 10
311.5271015162
 20
358.2896361056
 10
312.2242614205
 20
357.4690887666
 10
312.9881901035
 20
356.7127092415
 10
313.8119254124
 20
356.0264478444
 10
314.6878135613
 20
355.4156998105
 10
315.6084811522
 20
354.8840704023
  0
LWPOLYLINE
  5
310
100
AcDbEntity
  8
KONSTRUKTIONSELEMENTE
100
AcDbPolyline
 62
7
  6
CONTINUOUS
 90
19
 70
0
 10
308.9262198705
 20
364.9949218321
 10
309.0197545435
 20
364.1655352442
 10
309.2205175963
 20
363.1118164776
 10
309.511529248
 20
362.0767225588
 10
309.8908093657
 20
361.0689548901
 10
310.3556444085
 20
360.0968133397
 10
310.9024492958
 20
359.1679023349
 10
311.5271015162
 20
358.2896361056
 10
312.2242614205
 20
357.4690887666
 10
312.9881901035
 20
356.7127092415
 10
313.8119254124
 20
356.0264478444
 10
314.6878135613
 20
355.4156998105
 10
315.6084811522
 20
354.8840704023
 10
316.5662080218
 20
354.4347868598
 10
317.5527836153
 20
354.0701033636
 10
318.5595541602
 20
353.7916108059
 10
319.5756704331
 20
353.5998554489
 10
320.5907102731
 20
353.4942098198
 10
321.2979341244
 20
353.469957034
  0
LINE
  5
311
100
AcDbEntity
  8
KONSTRUKTIONSELEMENTE
100
AcDbLine
 62
7
  6
CONTINUOUS
 10
308.8871248123
 20
365.9834771884
 11
308.8871248123
 21
370.0279370119
  0
LINE
  5
312
100
AcDbEntity
  8
0
100
AcDbLine
 62
7
  6
CONTINUOUS
 10
310.6371248123
 20
405.7197430003
 11
310.6371248123
 21
397.4697430003
  0
LINE
  5
313
100
AcDbEntity
  8
0
100
AcDbLine
 62
7
  6
CONTINUOUS
 10
310.6371248123
 20
336.9697430003
 11
310.6371248123
 21
328.7197430003
  0
LINE
  5
314
100
AcDbEntity
  8
KONSTRUKTIONSELEMENTE
100
AcDbLine
 62
7
  6
CONTINUOUS
 10
312.1371248123
 20
503.2967864656
 11
312.1371248123
 21
494.7948147814
  0
LINE
  5
315
100
AcDbEntity
  8
KONSTRUKTIONSELEMENTE
100
AcDbLine
 62
7
  6
CONTINUOUS
 10
312.1371248123
 20
482.998010417
 11
312.1371248123
 21
470.9697430003
  0
LINE
  5
316
100
AcDbEntity
  8
0
100
AcDbLine
 62
7
  6
CONTINUOUS
 10
312.1371248123
 20
504.7402339558
 11
312.1371248123
 21
504.8814619473
  0
LINE
  5
317
100
AcDbEntity
  8
KONSTRUKTIONSELEMENTE
100
AcDbLine
 62
7
  6
CONTINUOUS
 10
312.1371248123
 20
504.7402339558
 11
312.1371248123
 21
504.8814619473
  0
LINE
  5
318
100
AcDbEntity
  8
KONSTRUKTIONSELEMENTE
100
AcDbLine
 62
7
  6
CONTINUOUS
 10
312.3871248123
 20
430.9697430003
 11
312.3871248123
 21
438.4697430003
  0
LINE
  5
319
100
AcDbEntity
  8
KONSTRUKTIONSELEMENTE
100
AcDbLine
 62
7
  6
CONTINUOUS
 10
312.3871248123
 20
439.9697430003
 11
312.3871248123
 21
447.4697430003
  0
LINE
  5
31A
100
AcDbEntity
  8
KONSTRUKTIONSELEMENTE
100
AcDbLine
 62
7
  6
CONTINUOUS
 10
312.3871248123
 20
449.7197430003
 11
312.3871248123
 21
457.2197430003
  0
LINE
  5
31B
100
AcDbEntity
  8
0
100
AcDbLine
 62
7
  6
CONTINUOUS
 10
312.6371248123
 20
448.6836913239
 11
312.6371248123
 21
454.1834037776
  0
LINE
  5
31C
100
AcDbEntity
  8
0
100
AcDbLine
 62
7
  6
CONTINUOUS
 10
312.6371248123
 20
457.1836913239
 11
312.6371248123
 21
462.6834037776
  0
LINE
  5
31D
100
AcDbEntity
  8
KONSTRUKTIONSELEMENTE
100
AcDbLine
 62
7
  6
CONTINUOUS
 10
313.1371248123
 20
470.9697430003
 11
313.1371248123
 21
416.4697430003
  0
LINE
  5
31E
100
AcDbEntity
  8
RUNDUNGEN
100
AcDbLine
 62
7
  6
CONTINUOUS
 10
314.1371248123
 20
505.6603154215
 11
314.1371248123
 21
472.6037587752
  0
LINE
  5
31F
100
AcDbEntity
  8
KONSTRUKTIONSELEMENTE
100
AcDbLine
 62
7
  6
CONTINUOUS
 10
308.8871254193
 20
538.2237537164
 11
308.8871248123
 21
538.2197430003
  0
LINE
  5
320
100
AcDbEntity
  8
0
100
AcDbLine
 62
7
  6
CONTINUOUS
 10
308.8872939277
 20
538.5903250247
 11
308.8871248123
 21
538.2197430003
  0
LWPOLYLINE
  5
321
100
AcDbEntity
  8
KONSTRUKTIONSELEMENTE
100
AcDbPolyline
 62
7
  6
CONTINUOUS
 90
24
 70
0
 10
312.1371248123
 20
416.4697430003
 10
312.1340499757
 20
389.1724358373
 10
312.119582791
 20
388.0677037121
 10
312.093818618
 20
386.9878160741
 10
312.0574542451
 20
385.9378509251
 10
312.0112513839
 20
384.9222045361
 10
311.9560435584
 20
383.9450361527
 10
311.8927122903
 20
383.0098791928
 10
311.8222110807
 20
382.1201166492
 10
311.745533868
 20
381.2785383902
 10
311.6637354477
 20
380.487657023
 10
311.5779026365
 20
379.7494308476
 10
311.4892033534
 20
379.0657152749
 10
311.3988442906
 20
378.437861393
 10
311.3081016933
 20
377.8669567064
 10
311.2183334074
 20
377.3538446519
 10
311.1309000133
 20
376.8986762241
 10
311.0472271215
 20
376.5013290812
 10
310.9691172872
 20
376.1626820771
 10
310.8983527386
 20
375.8825522304
 10
310.8376757883
 20
375.6633203212
 10
310.7899154902
 20
375.5058919231
 10
310.7584098518
 20
375.4111491576
 10
310.747491805
 20
375.3808938358
  0
LINE
  5
322
100
AcDbEntity
  8
KONSTRUKTIONSELEMENTE
100
AcDbLine
 62
7
  6
CONTINUOUS
 10
308.8871848217
 20
538.5618275798
 11
308.887010984
 21
538.4829170156
  0
LINE
  5
323
100
AcDbEntity
  8
KONSTRUKTIONSELEMENTE
100
AcDbLine
 62
7
  6
CONTINUOUS
 10
308.887571026
 20
538.6298781986
 11
308.8871794718
 21
538.5605153415
  0
LWPOLYLINE
  5
324
100
AcDbEntity
  8
0
100
AcDbPolyline
 62
7
  6
CONTINUOUS
 90
3
 70
0
 10
309.0000163991
 20
371.5265187156
 10
308.9070569356
 20
370.6590899472
 10
308.8871251951
 20
370.0279353272
  0
LINE
  5
325
100
AcDbEntity
  8
KONSTRUKTIONSELEMENTE
100
AcDbLine
 62
7
  6
CONTINUOUS
 10
313.1371248123
 20
430.9697430003
 11
312.3871248123
 21
430.9697430003
  0
LINE
  5
326
100
AcDbEntity
  8
KONSTRUKTIONSELEMENTE
100
AcDbLine
 62
7
  6
CONTINUOUS
 10
313.1371248123
 20
431.1293174634
 11
312.3871248123
 21
431.1293174634
  0
LINE
  5
327
100
AcDbEntity
  8
KONSTRUKTIONSELEMENTE
100
AcDbLine
 62
7
  6
CONTINUOUS
 10
313.1371248123
 20
431.4484664034
 11
312.3871248123
 21
431.4484664034
  0
LINE
  5
328
100
AcDbEntity
  8
BEZUGSACHSEN
100
AcDbLine
 62
7
  6
CONTINUOUS
 10
243.1371248123
 20
431.7197430003
 11
308.1371248123
 21
431.7197430003
  0
LINE
  5
329
100
AcDbEntity
  8
KONSTRUKTIONSELEMENTE
100
AcDbLine
 62
7
  6
CONTINUOUS
 10
249.353642356
 20
431.9197430003
 11
262.2385294404
 21
431.9197430003
  0
LINE
  5
32A
100
AcDbEntity
  8
KONSTRUKTIONSELEMENTE
100
AcDbLine
 62
7
  6
CONTINUOUS
 10
266.6920838392
 20
431.9197430003
 11
273.9767034894
 21
431.9197430003
  0
LINE
  5
32B
100
AcDbEntity
  8
KONSTRUKTIONSELEMENTE
100
AcDbLine
 62
7
  6
CONTINUOUS
 10
275.153509686
 20
431.9197430003
 11
279.8377363398
 21
431.9197430003
  0
LINE
  5
32C
100
AcDbEntity
  8
KONSTRUKTIONSELEMENTE
100
AcDbLine
 62
7
  6
CONTINUOUS
 10
280.45442776
 20
431.9197430003
 11
286.7249850128
 21
431.9197430003
  0
LINE
  5
32D
100
AcDbEntity
  8
KONSTRUKTIONSELEMENTE
100
AcDbLine
 62
7
  6
CONTINUOUS
 10
313.1371248123
 20
432.0867642555
 11
312.3871248123
 21
432.0867642555
  0
LINE
  5
32E
100
AcDbEntity
  8
KONSTRUKTIONSELEMENTE
100
AcDbLine
 62
7
  6
CONTINUOUS
 10
313.1371248123
 20
432.7250621635
 11
312.3871248123
 21
432.7250621635
  0
LINE
  5
32F
100
AcDbEntity
  8
0
100
AcDbLine
 62
7
  6
CONTINUOUS
 10
334.1660150355
 20
374.8173860631
 11
333.7098945805
 21
375.572526141
  0
LINE
  5
330
100
AcDbEntity
  8
0
100
AcDbLine
 62
7
  6
CONTINUOUS
 10
334.5498665492
 20
374.0340993987
 11
334.1605562486
 21
374.8273821891
  0
LWPOLYLINE
  5
331
100
AcDbEntity
  8
0
100
AcDbPolyline
 62
7
  6
CONTINUOUS
 90
8
 70
0
 10
333.4938113794
 20
375.4574035781
 10
333.5162787575
 20
375.4062506454
 10
333.5273999098
 20
375.3792022502
 10
333.5160849209
 20
375.4104498557
 10
333.484777807
 20
375.5045007832
 10
333.4371709639
 20
375.6612649288
 10
333.3765940748
 20
375.8799206002
 10
333.3058864668
 20
376.1595625335
  0
LINE
  5
332
100
AcDbEntity
  8
0
100
AcDbLine
 62
7
  6
CONTINUOUS
 10
311.2204909724
 20
515.3248438726
 11
308.9597096986
 21
536.834740862
  0
LINE
  5
333
100
AcDbEntity
  8
0
100
AcDbLine
 62
7
  6
CONTINUOUS
 10
310.1971785699
 20
544.1945554871
 11
313.6979873976
 21
510.8865844154
  0
LINE
  5
334
100
AcDbEntity
  8
RUNDUNGEN
100
AcDbLine
 62
7
  6
CONTINUOUS
 10
313.6979873976
 20
510.8865844154
 11
314.0275627196
 21
507.7508846869
  0
LINE
  5
335
100
AcDbEntity
  8
RUNDUNGEN
100
AcDbLine
 62
7
  6
CONTINUOUS
 10
330.2466869049
 20
507.7508846869
 11
330.5762622269
 21
510.8865844154
  0
LINE
  5
336
100
AcDbEntity
  8
0
100
AcDbLine
 62
7
  6
CONTINUOUS
 10
330.5762622269
 20
510.8865844154
 11
334.0770710533
 21
544.1945554745
  0
LINE
  5
337
100
AcDbEntity
  8
0
100
AcDbLine
 62
7
  6
CONTINUOUS
 10
335.3145399259
 20
536.834740862
 11
333.0537586522
 21
515.3248438726
  0
LWPOLYLINE
  5
338
100
AcDbEntity
  8
0
100
AcDbPolyline
 62
7
  6
CONTINUOUS
 90
4
 70
0
 10
311.0574291546
 20
376.5499013799
 10
311.0464520012
 20
376.4978168885
 10
310.9683631577
 20
376.1595625335
 10
310.9552969231
 20
376.1078868054
  0
LWPOLYLINE
  5
339
100
AcDbEntity
  8
0
100
AcDbPolyline
 62
7
  6
CONTINUOUS
 90
6
 70
0
 10
310.558838851
 20
375.5642334087
 10
310.108234589
 20
374.8173860631
 10
309.7243830753
 20
374.0340993987
 10
309.4102351443
 20
373.2203859273
 10
309.1681696086
 20
372.3824184474
 10
309.0000163991
 20
371.5265187156
  0
LWPOLYLINE
  5
33A
100
AcDbEntity
  8
KONSTRUKTIONSELEMENTE
100
AcDbPolyline
 62
7
  6
CONTINUOUS
 90
8
 70
0
 10
310.5643550441
 20
375.572526141
 10
310.1136933759
 20
374.8273821891
 10
309.7295249468
 20
374.0458433558
 10
309.4147927906
 20
373.2338881161
 10
309.1718720445
 20
372.397654143
 10
309.0025934198
 20
371.5434284891
 10
308.9082430603
 20
370.677579074
 10
308.8871251944
 20
370.0279354108
  0
LINE
  5
33B
100
AcDbEntity
  8
0
100
AcDbLine
 62
7
  6
CONTINUOUS
 10
310.9552637912
 20
376.1078413726
 11
310.558838851
 21
375.5642334087
  0
LINE
  5
33C
100
AcDbEntity
  8
KONSTRUKTIONSELEMENTE
100
AcDbLine
 62
7
  6
CONTINUOUS
 10
310.955143853
 20
376.107366583
 11
310.5643550441
 21
375.572526141
  0
LINE
  5
33D
100
AcDbEntity
  8
KONSTRUKTIONSELEMENTE
100
AcDbLine
 62
7
  6
CONTINUOUS
 10
313.1371248123
 20
433.5229344089
 11
312.3871248123
 21
433.5229344089
  0
LINE
  5
33E
100
AcDbEntity
  8
KONSTRUKTIONSELEMENTE
100
AcDbLine
 62
7
  6
CONTINUOUS
 10
313.1371248123
 20
435.9165513683
 11
312.3871248123
 21
435.9165513683
  0
LINE
  5
33F
100
AcDbEntity
  8
KONSTRUKTIONSELEMENTE
100
AcDbLine
 62
7
  6
CONTINUOUS
 10
313.1371248123
 20
436.7144240606
 11
312.3871248123
 21
436.7144240606
  0
LINE
  5
340
100
AcDbEntity
  8
KONSTRUKTIONSELEMENTE
100
AcDbLine
 62
7
  6
CONTINUOUS
 10
313.1371248123
 20
437.3527218569
 11
312.3871248123
 21
437.3527218569
  0
LINE
  5
341
100
AcDbEntity
  8
KONSTRUKTIONSELEMENTE
100
AcDbLine
 62
7
  6
CONTINUOUS
 10
313.1371248123
 20
437.9910196531
 11
312.3871248123
 21
437.9910196531
  0
LINE
  5
342
100
AcDbEntity
  8
KONSTRUKTIONSELEMENTE
100
AcDbLine
 62
7
  6
CONTINUOUS
 10
313.1371248123
 20
438.3101685513
 11
312.3871248123
 21
438.3101685513
  0
LINE
  5
343
100
AcDbEntity
  8
KONSTRUKTIONSELEMENTE
100
AcDbLine
 62
7
  6
CONTINUOUS
 10
313.1371248123
 20
438.4697430003
 11
312.3871248123
 21
438.4697430003
  0
LINE
  5
344
100
AcDbEntity
  8
KONSTRUKTIONSELEMENTE
100
AcDbLine
 62
7
  6
CONTINUOUS
 10
313.1371248123
 20
439.9697430003
 11
312.3871248123
 21
439.9697430003
  0
LINE
  5
345
100
AcDbEntity
  8
KONSTRUKTIONSELEMENTE
100
AcDbLine
 62
7
  6
CONTINUOUS
 10
313.1371248123
 20
440.1293174634
 11
312.3871248123
 21
440.1293174634
  0
LINE
  5
346
100
AcDbEntity
  8
KONSTRUKTIONSELEMENTE
100
AcDbLine
 62
7
  6
CONTINUOUS
 10
313.1371248123
 20
440.4484664034
 11
312.3871248123
 21
440.4484664034
  0
LINE
  5
347
100
AcDbEntity
  8
KONSTRUKTIONSELEMENTE
100
AcDbLine
 62
7
  6
CONTINUOUS
 10
313.1371248123
 20
441.0867642555
 11
312.3871248123
 21
441.0867642555
  0
LINE
  5
348
100
AcDbEntity
  8
KONSTRUKTIONSELEMENTE
100
AcDbLine
 62
7
  6
CONTINUOUS
 10
313.1371248123
 20
441.7250621635
 11
312.3871248123
 21
441.7250621635
  0
LINE
  5
349
100
AcDbEntity
  8
KONSTRUKTIONSELEMENTE
100
AcDbLine
 62
7
  6
CONTINUOUS
 10
313.1371248123
 20
442.5229344089
 11
312.3871248123
 21
442.5229344089
  0
LINE
  5
34A
100
AcDbEntity
  8
BEZUGSACHSEN
100
AcDbLine
 62
7
  6
CONTINUOUS
 10
313.1371248123
 20
428.8329916544
 11
308.1371248123
 21
431.7197430003
  0
LINE
  5
34B
100
AcDbEntity
  8
0
100
AcDbLine
 62
7
  6
CONTINUOUS
 10
334.8640144802
 20
373.2203859273
 11
334.5447246778
 21
374.0458433558
  0
LINE
  5
34C
100
AcDbEntity
  8
0
100
AcDbLine
 62
7
  6
CONTINUOUS
 10
335.1060800159
 20
372.3824184474
 11
334.8594568339
 21
373.2338881161
  0
LINE
  5
34D
100
AcDbEntity
  8
0
100
AcDbLine
 62
7
  6
CONTINUOUS
 10
333.3058864668
 20
376.1595625335
 11
333.227022503
 21
376.5013290812
  0
LWPOLYLINE
  5
34E
100
AcDbEntity
  8
0
100
AcDbPolyline
 62
7
  6
CONTINUOUS
 90
17
 70
0
 10
333.2277976233
 20
376.4978168885
 10
333.1441178008
 20
376.8948616273
 10
333.0566570853
 20
377.3498084666
 10
332.9668465469
 20
377.8627727854
 10
332.8760527403
 20
378.4335867579
 10
332.7856353388
 20
379.0614105335
 10
332.6968731274
 20
379.7451538227
 10
332.6109745046
 20
380.4834669533
 10
332.5291091775
 20
381.2744943134
 10
332.4523654416
 20
382.1162792927
 10
332.3817996393
 20
383.0063101935
 10
332.3184072595
 20
383.9417977789
 10
332.2631434139
 20
384.9193588426
 10
332.216891234
 20
385.9354596961
 10
332.1804859408
 20
386.9859394497
 10
332.1546909653
 20
388.0663997974
 10
332.1402048608
 20
389.1717607611
  0
LINE
  5
34F
100
AcDbEntity
  8
0
100
AcDbLine
 62
7
  6
CONTINUOUS
 10
335.2742332255
 20
371.5265187156
 11
335.10237758
 21
372.397654143
  0
LINE
  5
350
100
AcDbEntity
  8
0
100
AcDbLine
 62
7
  6
CONTINUOUS
 10
335.367192689
 20
370.6590899472
 11
335.2716562047
 21
371.5434284891
  0
LINE
  5
351
100
AcDbEntity
  8
0
100
AcDbLine
 62
7
  6
CONTINUOUS
 10
335.3871244301
 20
370.0279354108
 11
335.3660065642
 21
370.677579074
  0
LINE
  5
352
100
AcDbEntity
  8
0
100
AcDbLine
 62
7
  6
CONTINUOUS
 10
335.3871648812
 20
538.534798677
 11
335.3866786336
 21
538.6298736087
  0
LINE
  5
353
100
AcDbEntity
  8
RUNDUNGEN
100
AcDbLine
 62
7
  6
CONTINUOUS
 10
330.1371248123
 20
472.6037587752
 11
330.1371248123
 21
505.6603154215
  0
LINE
  5
354
100
AcDbEntity
  8
0
100
AcDbLine
 62
7
  6
CONTINUOUS
 10
331.1371248123
 20
470.9697430003
 11
331.1371248123
 21
416.4697430003
  0
LINE
  5
355
100
AcDbEntity
  8
0
100
AcDbLine
 62
7
  6
CONTINUOUS
 10
332.1402048608
 20
389.1717607611
 11
332.1371248123
 21
416.4697430003
  0
LINE
  5
356
100
AcDbEntity
  8
0
100
AcDbLine
 62
7
  6
CONTINUOUS
 10
332.1371248123
 20
470.9697430003
 11
332.1371248123
 21
482.998010417
  0
LINE
  5
357
100
AcDbEntity
  8
0
100
AcDbLine
 62
7
  6
CONTINUOUS
 10
332.1371248123
 20
494.7948147814
 11
332.1371248123
 21
503.2967864656
  0
LINE
  5
358
100
AcDbEntity
  8
0
100
AcDbLine
 62
7
  6
CONTINUOUS
 10
332.1371248123
 20
504.7402339558
 11
332.1371248123
 21
504.8814619473
  0
LINE
  5
359
100
AcDbEntity
  8
0
100
AcDbLine
 62
7
  6
CONTINUOUS
 10
335.3870695895
 20
538.5606534876
 11
335.3871248123
 21
538.2197430003
  0
LINE
  5
35A
100
AcDbEntity
  8
0
100
AcDbLine
 62
7
  6
CONTINUOUS
 10
335.3871248123
 20
370.0279370119
 11
335.3871248123
 21
365.9834771884
  0
LINE
  5
35B
100
AcDbEntity
  8
0
100
AcDbLine
 62
7
  6
CONTINUOUS
 10
335.3476383866
 20
365.0120132791
 11
335.3597061777
 21
365.1847436038
  0
LINE
  5
35C
100
AcDbEntity
  8
0
100
AcDbLine
 62
7
  6
CONTINUOUS
 10
335.3461969462
 20
364.9942249661
 11
335.3476383866
 21
365.0120132791
  0
LINE
  5
35D
100
AcDbEntity
  8
KONSTRUKTIONSELEMENTE
100
AcDbLine
 62
7
  6
CONTINUOUS
 10
313.1371248123
 20
447.4697430003
 11
312.3871248123
 21
447.4697430003
  0
LINE
  5
35E
100
AcDbEntity
  8
0
100
AcDbLine
 62
7
  6
CONTINUOUS
 10
313.1371248123
 20
448.6834037776
 11
312.6371248123
 21
448.6834037776
  0
LINE
  5
35F
100
AcDbEntity
  8
KONSTRUKTIONSELEMENTE
100
AcDbLine
 62
7
  6
CONTINUOUS
 10
312.6371248123
 20
449.7197430003
 11
312.3871248123
 21
449.7197430003
  0
LINE
  5
360
100
AcDbEntity
  8
KONSTRUKTIONSELEMENTE
100
AcDbLine
 62
7
  6
CONTINUOUS
 10
312.6371248123
 20
453.3899557758
 11
312.3871248123
 21
453.3899557758
  0
LINE
  5
361
100
AcDbEntity
  8
KONSTRUKTIONSELEMENTE
100
AcDbLine
 62
7
  6
CONTINUOUS
 10
312.6371248123
 20
453.7091046739
 11
312.3871248123
 21
453.7091046739
  0
LINE
  5
362
100
AcDbEntity
  8
0
100
AcDbLine
 62
7
  6
CONTINUOUS
 10
313.1371248123
 20
454.1834037776
 11
312.6371248123
 21
454.1834037776
  0
LINE
  5
363
100
AcDbEntity
  8
KONSTRUKTIONSELEMENTE
100
AcDbLine
 62
7
  6
CONTINUOUS
 10
313.1371248123
 20
454.3474024702
 11
312.3871248123
 21
454.3474024702
  0
LINE
  5
364
100
AcDbEntity
  8
KONSTRUKTIONSELEMENTE
100
AcDbLine
 62
7
  6
CONTINUOUS
 10
313.1371248123
 20
454.8261258174
 11
312.3871248123
 21
454.8261258174
  0
LWPOLYLINE
  5
365
100
AcDbEntity
  8
0
100
AcDbPolyline
 62
7
  6
CONTINUOUS
 90
3
 70
0
 10
335.3866786301
 20
538.6298740623
 10
335.338765187
 20
539.6457331757
 10
335.2106043814
 20
540.6563029867
  0
LINE
  5
366
100
AcDbEntity
  8
0
100
AcDbLine
 62
7
  6
CONTINUOUS
 10
335.254495081
 20
364.1655352442
 11
335.348029754
 21
364.9949218321
  0
LINE
  5
367
100
AcDbEntity
  8
KONSTRUKTIONSELEMENTE
100
AcDbLine
 62
7
  6
CONTINUOUS
 10
313.1371248123
 20
455.4644240606
 11
312.3871248123
 21
455.4644240606
  0
LINE
  5
368
100
AcDbEntity
  8
KONSTRUKTIONSELEMENTE
100
AcDbLine
 62
7
  6
CONTINUOUS
 10
313.1371248123
 20
455.9431474078
 11
312.3871248123
 21
455.9431474078
  0
LINE
  5
369
100
AcDbEntity
  8
KONSTRUKTIONSELEMENTE
100
AcDbLine
 62
7
  6
CONTINUOUS
 10
313.1371248123
 20
456.5814452041
 11
312.3871248123
 21
456.5814452041
  0
LINE
  5
36A
100
AcDbEntity
  8
KONSTRUKTIONSELEMENTE
100
AcDbLine
 62
7
  6
CONTINUOUS
 10
313.1371248123
 20
457.0601685513
 11
312.3871248123
 21
457.0601685513
  0
LINE
  5
36B
100
AcDbEntity
  8
0
100
AcDbLine
 62
7
  6
CONTINUOUS
 10
313.1371248123
 20
457.1834037776
 11
312.6371248123
 21
457.1834037776
  0
LINE
  5
36C
100
AcDbEntity
  8
KONSTRUKTIONSELEMENTE
100
AcDbLine
 62
7
  6
CONTINUOUS
 10
312.6371248123
 20
457.2197430003
 11
312.3871248123
 21
457.2197430003
  0
LINE
  5
36D
100
AcDbEntity
  8
0
100
AcDbLine
 62
7
  6
CONTINUOUS
 10
313.1371248123
 20
462.6834037776
 11
312.6371248123
 21
462.6834037776
  0
LWPOLYLINE
  5
36E
100
AcDbEntity
  8
0
100
AcDbPolyline
 62
7
  6
CONTINUOUS
 90
13
 70
0
 10
327.7080416028
 20
354.4347868598
 10
328.6657684724
 20
354.8840704023
 10
329.5864360632
 20
355.4156998105
 10
330.4623242121
 20
356.0264478444
 10
331.286059521
 20
356.7127092415
 10
332.0499882041
 20
357.4690887666
 10
332.7471481083
 20
358.2896361056
 10
333.3718003287
 20
359.1679023349
 10
333.918605216
 20
360.0968133397
 10
334.3834402588
 20
361.0689548901
 10
334.7627203766
 20
362.0767225588
 10
335.0537320283
 20
363.1118164776
 10
335.254495081
 20
364.1655352442
  0
LINE
  5
36F
100
AcDbEntity
  8
0
100
AcDbLine
 62
7
  6
CONTINUOUS
 10
326.7214660092
 20
354.0701033636
 11
327.7080416028
 21
354.4347868598
  0
LINE
  5
370
100
AcDbEntity
  8
KONSTRUKTIONSELEMENTE
100
AcDbLine
 62
7
  6
CONTINUOUS
 10
317.1371248123
 20
468.7197430003
 11
313.1371248123
 21
468.7197430003
  0
LINE
  5
371
100
AcDbEntity
  8
0
100
AcDbLine
 62
7
  6
CONTINUOUS
 10
327.1371248123
 20
468.7197430003
 11
331.1371248123
 21
468.7197430003
  0
LINE
  5
372
100
AcDbEntity
  8
KONSTRUKTIONSELEMENTE
100
AcDbLine
 62
7
  6
CONTINUOUS
 10
313.1371248123
 20
470.9697430003
 11
312.1373719269
 21
470.9697430003
  0
LINE
  5
373
100
AcDbEntity
  8
0
100
AcDbLine
 62
7
  6
CONTINUOUS
 10
331.1371248123
 20
470.9697430003
 11
332.1368776976
 21
470.9697430003
  0
LWPOLYLINE
  5
374
100
AcDbEntity
  8
0
100
AcDbPolyline
 62
7
  6
CONTINUOUS
 90
3
 70
0
 10
335.2103955933
 20
540.6573058299
 10
335.002553557
 20
541.6556045153
 10
334.8043080124
 20
542.3627855466
  0
LINE
  5
375
100
AcDbEntity
  8
0
100
AcDbLine
 62
7
  6
CONTINUOUS
 10
335.2959044677
 20
539.983697258
 11
335.2103955933
 21
540.6573058299
  0
LINE
  5
376
100
AcDbEntity
  8
RUNDUNGEN
100
AcDbLine
 62
7
  6
CONTINUOUS
 10
334.6246930695
 20
542.8834366836
 11
334.8030520488
 21
542.3627439256
  0
LINE
  5
377
100
AcDbEntity
  8
0
100
AcDbLine
 62
7
  6
CONTINUOUS
 10
334.0769689267
 20
544.1935838044
 11
333.912952203
 21
544.5176250058
  0
LINE
  5
378
100
AcDbEntity
  8
BEZUGSACHSEN
100
AcDbLine
 62
7
  6
CONTINUOUS
 10
296.6371248123
 20
259.7197430003
 11
292.6371248123
 21
255.7197430003
  0
LINE
  5
379
100
AcDbEntity
  8
0
100
AcDbLine
 62
7
  6
CONTINUOUS
 10
333.4068888734
 20
545.3976011025
 11
332.8246056114
 21
546.2469066992
  0
LINE
  5
37A
100
AcDbEntity
  8
0
100
AcDbLine
 62
7
  6
CONTINUOUS
 10
333.9157839828
 20
544.5122171566
 11
333.4031001884
 21
545.4036247419
  0
LINE
  5
37B
100
AcDbEntity
  8
0
100
AcDbLine
 62
7
  6
CONTINUOUS
 10
332.8294624622
 20
546.2403901635
 11
332.18104818
 21
547.0421815067
  0
LINE
  5
37C
100
AcDbEntity
  8
0
100
AcDbLine
 62
7
  6
CONTINUOUS
 10
330.7231342341
 20
548.4624046588
 11
329.9003835736
 21
549.0927685099
  0
LINE
  5
37D
100
AcDbEntity
  8
0
100
AcDbLine
 62
7
  6
CONTINUOUS
 10
331.4835548772
 20
547.7775086643
 11
330.7145453703
 21
548.4695409811
  0
LINE
  5
37E
100
AcDbEntity
  8
0
100
AcDbLine
 62
7
  6
CONTINUOUS
 10
332.1870705634
 20
547.0353082498
 11
331.4762835645
 21
547.7845916931
  0
LWPOLYLINE
  5
37F
100
AcDbEntity
  8
KONSTRUKTIONSELEMENTE
100
AcDbPolyline
 62
7
  6
CONTINUOUS
 90
15
 70
0
 10
321.0979824145
 20
551.4459704508
 10
320.0679423966
 20
551.3428197119
 10
319.0509761793
 20
551.1588852907
 10
318.0532720343
 20
550.8955724429
 10
317.0808910843
 20
550.5547489582
 10
316.1397588706
 20
550.1387493756
 10
315.2356153985
 20
549.6503674191
 10
314.3738664719
 20
549.0927688065
 10
313.5597047086
 20
548.4695413583
 10
312.7979665337
 20
547.7845921541
 10
312.0932019216
 20
547.0421820508
 10
311.4496444773
 20
546.2469073216
 10
310.871149871
 20
545.4036254328
 10
310.3612978126
 20
544.5176257522
 10
310.1972806979
 20
544.1935838044
  0
LWPOLYLINE
  5
380
100
AcDbEntity
  8
0
100
AcDbPolyline
 62
7
  6
CONTINUOUS
 90
16
 70
0
 10
321.8869759774
 20
551.4697429701
 10
321.0785804265
 20
551.4447855395
 10
320.049737726
 20
551.3402526435
 10
319.0340523757
 20
551.1551157207
 10
318.0376929781
 20
550.8907837084
 10
317.0667008521
 20
550.5491262599
 10
316.1269814564
 20
550.1324778146
 10
315.2242550924
 20
549.6436301356
 10
314.3639084077
 20
549.0857450392
 10
313.5511155156
 20
548.4624047628
 10
312.7906948827
 20
547.7775087963
 10
312.0871791951
 20
547.0353084028
 10
311.4447872831
 20
546.2403903255
 10
310.8673608473
 20
545.3976012556
 10
310.3584657058
 20
544.512217279
 10
310.1972806979
 20
544.1935838044
  0
LINE
  5
381
100
AcDbEntity
  8
KONSTRUKTIONSELEMENTE
100
AcDbLine
 62
7
  6
CONTINUOUS
 10
321.8869759721
 20
551.4697429701
 11
321.0979824145
 21
551.4459704508
  0
LINE
  5
382
100
AcDbEntity
  8
RUNDUNGEN
100
AcDbLine
 62
7
  6
CONTINUOUS
 10
334.5556191489
 20
543.0468809568
 11
333.9545220457
 21
543.0468809568
  0
LINE
  5
383
100
AcDbEntity
  8
RUNDUNGEN
100
AcDbLine
 62
7
  6
CONTINUOUS
 10
310.3197275788
 20
543.0468809568
 11
309.7186304732
 21
543.0468809568
  0
LINE
  5
384
100
AcDbEntity
  8
KONSTRUKTIONSELEMENTE
100
AcDbLine
 62
7
  6
CONTINUOUS
 10
322.3877443342
 20
551.4697430003
 11
321.8865052903
 21
551.4697430003
  0
LINE
  5
385
100
AcDbEntity
  8
0
100
AcDbLine
 62
7
  6
CONTINUOUS
 10
323.1956691673
 20
551.4447855414
 11
322.3872736471
 21
551.4697429701
  0
LINE
  5
386
100
AcDbEntity
  8
0
100
AcDbLine
 62
7
  6
CONTINUOUS
 10
324.224511855
 20
551.3402526497
 11
323.1762672451
 21
551.4459704487
  0
LINE
  5
387
100
AcDbEntity
  8
0
100
AcDbLine
 62
7
  6
CONTINUOUS
 10
327.207548784
 20
550.5491262554
 11
326.2209777877
 21
550.8955723824
  0
LINE
  5
388
100
AcDbEntity
  8
0
100
AcDbLine
 62
7
  6
CONTINUOUS
 10
328.1472682124
 20
550.1324777929
 11
327.1933588005
 21
550.5547488553
  0
LINE
  5
389
100
AcDbEntity
  8
0
100
AcDbLine
 62
7
  6
CONTINUOUS
 10
329.0499946088
 20
549.6436300901
 11
328.1344910747
 21
550.1387492184
  0
LINE
  5
38A
100
AcDbEntity
  8
0
100
AcDbLine
 62
7
  6
CONTINUOUS
 10
329.9103413216
 20
549.0857449653
 11
329.0386346015
 21
549.6503671967
  0
LINE
  5
38B
100
AcDbEntity
  8
0
100
AcDbLine
 62
7
  6
CONTINUOUS
 10
325.2401972119
 20
551.155115729
 11
324.2063073084
 21
551.3428197006
  0
LINE
  5
38C
100
AcDbEntity
  8
0
100
AcDbLine
 62
7
  6
CONTINUOUS
 10
326.2365566293
 20
550.8907837137
 11
325.2232735814
 21
551.1588852605
  0
LINE
  5
38D
100
AcDbEntity
  8
BEZUGSACHSEN
100
AcDbLine
 62
7
  6
CONTINUOUS
 10
491.3526764879
 20
255.7197430003
 11
525.3520822151
 21
255.7197430003
  0
LINE
  5
38E
100
AcDbEntity
  8
BEZUGSACHSEN
100
AcDbLine
 62
7
  6
CONTINUOUS
 10
487.3523793515
 20
259.7197430003
 11
529.3523793515
 21
259.7197430003
  0
LINE
  5
38F
100
AcDbEntity
  8
RUNDUNGEN
100
AcDbLine
 62
7
  6
CONTINUOUS
 10
507.3756748881
 20
542.8834366836
 11
498.5238965199
 21
539.8355249647
  0
LINE
  5
390
100
AcDbEntity
  8
0
100
AcDbLine
 62
7
  6
CONTINUOUS
 10
498.5238965199
 20
539.8355249647
 11
497.7428853171
 21
539.5666012413
  0
LINE
  5
391
100
AcDbEntity
  8
RUNDUNGEN
100
AcDbLine
 62
7
  6
CONTINUOUS
 10
497.7428853171
 20
539.5666012413
 11
469.5857488838
 21
529.8713216561
  0
LINE
  5
392
100
AcDbEntity
  8
BEZUGSACHSEN
100
AcDbLine
 62
7
  6
CONTINUOUS
 10
491.3523793515
 20
255.7197430003
 11
487.3523793515
 21
259.7197430003
  0
LINE
  5
393
100
AcDbEntity
  8
RUNDUNGEN
100
AcDbLine
 62
7
  6
CONTINUOUS
 10
467.8218169742
 20
528.2549758585
 11
466.828275071
 21
526.0234442076
  0
LINE
  5
394
100
AcDbEntity
  8
RUNDUNGEN
100
AcDbLine
 62
7
  6
CONTINUOUS
 10
455.4741073642
 20
500.5215660009
 11
457.3523793515
 21
504.7402339558
  0
LINE
  5
395
100
AcDbEntity
  8
0
100
AcDbLine
 62
7
  6
CONTINUOUS
 10
457.3523793515
 20
504.7402339558
 11
466.828275071
 21
526.0234442076
  0
LINE
  5
396
100
AcDbEntity
  8
RUNDUNGEN
100
AcDbLine
 62
7
  6
CONTINUOUS
 10
451.3523793515
 20
472.6037587752
 11
459.892417831
 21
487.3955392992
  0
LINE
  5
397
100
AcDbEntity
  8
0
100
AcDbLine
 62
7
  6
CONTINUOUS
 10
473.3523793515
 20
328.7197430003
 11
543.3523793515
 21
328.7197430003
  0
LINE
  5
398
100
AcDbEntity
  8
0
100
AcDbLine
 62
7
  6
CONTINUOUS
 10
473.3523793515
 20
336.9697430003
 11
543.3523793515
 21
336.9697430003
  0
LINE
  5
399
100
AcDbEntity
  8
RUNDUNGEN
100
AcDbLine
 62
7
  6
CONTINUOUS
 10
542.3523793515
 20
337.2197430003
 11
474.3523793515
 21
337.2197430003
  0
LINE
  5
39A
100
AcDbEntity
  8
0
100
AcDbLine
 62
7
  6
CONTINUOUS
 10
447.3523793515
 20
511.5730685616
 11
447.3523793515
 21
378.4697663517
  0
LINE
  5
39B
100
AcDbEntity
  8
0
100
AcDbLine
 62
7
  6
CONTINUOUS
 10
451.0015263904
 20
468.7197430003
 11
451.0015263904
 21
418.7197430003
  0
LINE
  5
39C
100
AcDbEntity
  8
RUNDUNGEN
100
AcDbLine
 62
7
  6
CONTINUOUS
 10
451.3523793515
 20
472.6037587752
 11
451.3523793515
 21
505.6603154215
  0
LINE
  5
39D
100
AcDbEntity
  8
KONSTRUKTIONSELEMENTE
100
AcDbLine
 62
7
  6
CONTINUOUS
 10
459.9999767798
 20
454.9857002664
 11
459.8437269288
 21
454.5069769192
  0
LINE
  5
39E
100
AcDbEntity
  8
KONSTRUKTIONSELEMENTE
100
AcDbLine
 62
7
  6
CONTINUOUS
 10
460.7812269288
 20
454.3474024702
 11
460.9374767798
 21
454.8261258174
  0
LINE
  5
39F
100
AcDbEntity
  8
KONSTRUKTIONSELEMENTE
100
AcDbLine
 62
7
  6
CONTINUOUS
 10
460.3124769288
 20
441.0867642555
 11
460.6249770778
 21
441.7250621635
  0
LINE
  5
3A0
100
AcDbEntity
  8
KONSTRUKTIONSELEMENTE
100
AcDbLine
 62
7
  6
CONTINUOUS
 10
459.6874770778
 20
441.8846366126
 11
459.3749769288
 21
441.4059132654
  0
LINE
  5
3A1
100
AcDbEntity
  8
KONSTRUKTIONSELEMENTE
100
AcDbLine
 62
7
  6
CONTINUOUS
 10
460.3124769288
 20
453.7091046739
 11
460.7812269288
 21
454.3474024702
  0
LINE
  5
3A2
100
AcDbEntity
  8
KONSTRUKTIONSELEMENTE
100
AcDbLine
 62
7
  6
CONTINUOUS
 10
459.8437269288
 20
454.5069769192
 11
459.5312267798
 21
454.1878280211
  0
LINE
  5
3A3
100
AcDbEntity
  8
KONSTRUKTIONSELEMENTE
100
AcDbLine
 62
7
  6
CONTINUOUS
 10
459.6874770778
 20
440.4484664034
 11
460.3124769288
 21
441.0867642555
  0
LINE
  5
3A4
100
AcDbEntity
  8
KONSTRUKTIONSELEMENTE
100
AcDbLine
 62
7
  6
CONTINUOUS
 10
459.6874770778
 20
453.3899557758
 11
460.3124769288
 21
453.7091046739
  0
LINE
  5
3A5
100
AcDbEntity
  8
KONSTRUKTIONSELEMENTE
100
AcDbLine
 62
7
  6
CONTINUOUS
 10
459.5312267798
 20
454.1878280211
 11
459.0624767798
 21
454.0282535721
  0
LINE
  5
3A6
100
AcDbEntity
  8
0
100
AcDbLine
 62
7
  6
CONTINUOUS
 10
540.999880782
 20
360.4286791677
 11
541.749877921
 21
360.6201685066
  0
LINE
  5
3A7
100
AcDbEntity
  8
0
100
AcDbLine
 62
7
  6
CONTINUOUS
 10
507.7773795303
 20
345.6271898288
 11
508.7148791727
 21
345.8186791677
  0
LINE
  5
3A8
100
AcDbEntity
  8
0
100
AcDbLine
 62
7
  6
CONTINUOUS
 10
540.999880782
 20
359.2797430003
 11
541.9373793515
 21
359.471232356
  0
LINE
  5
3A9
100
AcDbEntity
  8
0
100
AcDbLine
 62
7
  6
CONTINUOUS
 10
506.8398793515
 20
352.5208069671
 11
507.7773795303
 21
352.712296306
  0
LINE
  5
3AA
100
AcDbEntity
  8
0
100
AcDbLine
 62
7
  6
CONTINUOUS
 10
507.7773795303
 20
344.6697430003
 11
508.9023795303
 21
344.861232356
  0
LINE
  5
3AB
100
AcDbEntity
  8
0
100
AcDbLine
 62
7
  6
CONTINUOUS
 10
501.7773793515
 20
344.6697430003
 11
502.9023793515
 21
344.6697430003
  0
LINE
  5
3AC
100
AcDbEntity
  8
0
100
AcDbLine
 62
7
  6
CONTINUOUS
 10
512.6523797091
 20
350.0314450253
 11
514.1523793515
 21
350.0314450253
  0
LINE
  5
3AD
100
AcDbEntity
  8
0
100
AcDbLine
 62
7
  6
CONTINUOUS
 10
515.0898789939
 20
350.0314450253
 11
517.1523797091
 21
350.0314450253
  0
LINE
  5
3AE
100
AcDbEntity
  8
0
100
AcDbLine
 62
7
  6
CONTINUOUS
 10
512.6523797091
 20
350.7974023808
 11
514.1523793515
 21
350.7974023808
  0
LINE
  5
3AF
100
AcDbEntity
  8
0
100
AcDbLine
 62
7
  6
CONTINUOUS
 10
515.0898789939
 20
350.7974023808
 11
517.1523797091
 21
350.7974023808
  0
LINE
  5
3B0
100
AcDbEntity
  8
0
100
AcDbLine
 62
7
  6
CONTINUOUS
 10
514.1523793515
 20
352.3293176282
 11
515.0898789939
 21
352.3293176282
  0
LINE
  5
3B1
100
AcDbEntity
  8
0
100
AcDbLine
 62
7
  6
CONTINUOUS
 10
501.7773793515
 20
353.6697430003
 11
502.9023793515
 21
353.6697430003
  0
LINE
  5
3B2
100
AcDbEntity
  8
0
100
AcDbLine
 62
7
  6
CONTINUOUS
 10
506.6523795303
 20
344.861232356
 11
507.7773795303
 21
344.6697430003
  0
LINE
  5
3B3
100
AcDbEntity
  8
0
100
AcDbLine
 62
7
  6
CONTINUOUS
 10
515.6523789939
 20
344.861232356
 11
516.7773789939
 21
344.6697430003
  0
LINE
  5
3B4
100
AcDbEntity
  8
0
100
AcDbLine
 62
7
  6
CONTINUOUS
 10
506.8398793515
 20
345.8186791677
 11
507.7773795303
 21
345.6271898288
  0
LINE
  5
3B5
100
AcDbEntity
  8
0
100
AcDbLine
 62
7
  6
CONTINUOUS
 10
515.8398793515
 20
345.6271898288
 11
516.7773789939
 21
345.4357004229
  0
LINE
  5
3B6
100
AcDbEntity
  8
0
100
AcDbLine
 62
7
  6
CONTINUOUS
 10
507.7773795303
 20
352.712296306
 11
508.7148791727
 21
352.5208069671
  0
LINE
  5
3B7
100
AcDbEntity
  8
0
100
AcDbLine
 62
7
  6
CONTINUOUS
 10
515.0898789939
 20
345.0527217116
 11
515.6523789939
 21
344.861232356
  0
LINE
  5
3B8
100
AcDbEntity
  8
0
100
AcDbLine
 62
7
  6
CONTINUOUS
 10
505.7148793515
 20
345.4357004229
 11
506.6523795303
 21
344.861232356
  0
LINE
  5
3B9
100
AcDbEntity
  8
0
100
AcDbLine
 62
7
  6
CONTINUOUS
 10
452.9934804079
 20
470.9697430003
 11
452.9934804079
 21
468.7197430003
  0
LINE
  5
3BA
100
AcDbEntity
  8
0
100
AcDbLine
 62
7
  6
CONTINUOUS
 10
452.9934804079
 20
418.7197430003
 11
452.9934804079
 21
416.4697430003
  0
LINE
  5
3BB
100
AcDbEntity
  8
KONSTRUKTIONSELEMENTE
100
AcDbLine
 62
7
  6
CONTINUOUS
 10
455.1562269288
 20
457.2197430003
 11
455.1562269288
 21
449.7197430003
  0
LINE
  5
3BC
100
AcDbEntity
  8
KONSTRUKTIONSELEMENTE
100
AcDbLine
 62
7
  6
CONTINUOUS
 10
455.1562269288
 20
447.4697430003
 11
455.1562269288
 21
442.5229344089
  0
LINE
  5
3BD
100
AcDbEntity
  8
KONSTRUKTIONSELEMENTE
100
AcDbLine
 62
7
  6
CONTINUOUS
 10
455.1562269288
 20
438.4697430003
 11
455.1562269288
 21
430.9697430003
  0
LINE
  5
3BE
100
AcDbEntity
  8
KONSTRUKTIONSELEMENTE
100
AcDbLine
 62
7
  6
CONTINUOUS
 10
456.0937269288
 20
431.9271898065
 11
456.0937269288
 21
437.512296306
  0
LINE
  5
3BF
100
AcDbEntity
  8
KONSTRUKTIONSELEMENTE
100
AcDbLine
 62
7
  6
CONTINUOUS
 10
456.0937269288
 20
442.5229344089
 11
456.0937269288
 21
447.4697430003
  0
LINE
  5
3C0
100
AcDbEntity
  8
KONSTRUKTIONSELEMENTE
100
AcDbLine
 62
7
  6
CONTINUOUS
 10
456.0937269288
 20
449.7197430003
 11
456.0937269288
 21
453.0708068777
  0
LINE
  5
3C1
100
AcDbEntity
  8
KONSTRUKTIONSELEMENTE
100
AcDbLine
 62
7
  6
CONTINUOUS
 10
456.0937269288
 20
454.0282535721
 11
456.0937269288
 21
456.421870755
  0
LINE
  5
3C2
100
AcDbEntity
  8
KONSTRUKTIONSELEMENTE
100
AcDbLine
 62
7
  6
CONTINUOUS
 10
459.8437269288
 20
447.4697430003
 11
459.8437269288
 21
442.5229344089
  0
LINE
  5
3C3
100
AcDbEntity
  8
KONSTRUKTIONSELEMENTE
100
AcDbLine
 62
7
  6
CONTINUOUS
 10
459.9999767798
 20
455.4644240606
 11
459.9999767798
 21
454.9857002664
  0
LINE
  5
3C4
100
AcDbEntity
  8
KONSTRUKTIONSELEMENTE
100
AcDbLine
 62
7
  6
CONTINUOUS
 10
460.4687267798
 20
435.9165513683
 11
460.4687267798
 21
433.5229344089
  0
LINE
  5
3C5
100
AcDbEntity
  8
KONSTRUKTIONSELEMENTE
100
AcDbLine
 62
7
  6
CONTINUOUS
 10
460.7812269288
 20
442.5229344089
 11
460.7812269288
 21
447.4697430003
  0
LINE
  5
3C6
100
AcDbEntity
  8
KONSTRUKTIONSELEMENTE
100
AcDbLine
 62
7
  6
CONTINUOUS
 10
460.9374767798
 20
454.8261258174
 11
460.9374767798
 21
455.4644240606
  0
LINE
  5
3C7
100
AcDbEntity
  8
KONSTRUKTIONSELEMENTE
100
AcDbLine
 62
7
  6
CONTINUOUS
 10
461.4062267798
 20
433.5229344089
 11
461.4062267798
 21
435.9165513683
  0
LINE
  5
3C8
100
AcDbEntity
  8
0
100
AcDbLine
 62
7
  6
CONTINUOUS
 10
461.711278295
 20
470.9697430003
 11
461.711278295
 21
468.7197430003
  0
LINE
  5
3C9
100
AcDbEntity
  8
0
100
AcDbLine
 62
7
  6
CONTINUOUS
 10
461.711278295
 20
418.7197430003
 11
461.711278295
 21
416.4697430003
  0
LINE
  5
3CA
100
AcDbEntity
  8
0
100
AcDbLine
 62
7
  6
CONTINUOUS
 10
463.6912273192
 20
468.7197430003
 11
463.6912273192
 21
418.7197430003
  0
LINE
  5
3CB
100
AcDbEntity
  8
0
100
AcDbLine
 62
7
  6
CONTINUOUS
 10
467.3523793515
 20
503.2967864656
 11
467.399888735
 21
504.270403705
  0
LINE
  5
3CC
100
AcDbEntity
  8
KONSTRUKTIONSELEMENTE
100
AcDbLine
 62
7
  6
CONTINUOUS
 10
460.6249770778
 20
441.7250621635
 11
460.7812269288
 21
442.5229344089
  0
LINE
  5
3CD
100
AcDbEntity
  8
KONSTRUKTIONSELEMENTE
100
AcDbLine
 62
7
  6
CONTINUOUS
 10
461.2499769288
 20
432.7250621635
 11
461.4062267798
 21
433.5229344089
  0
LINE
  5
3CE
100
AcDbEntity
  8
KONSTRUKTIONSELEMENTE
100
AcDbLine
 62
7
  6
CONTINUOUS
 10
459.8437269288
 20
442.5229344089
 11
459.6874770778
 21
441.8846366126
  0
LINE
  5
3CF
100
AcDbEntity
  8
KONSTRUKTIONSELEMENTE
100
AcDbLine
 62
7
  6
CONTINUOUS
 10
460.4687267798
 20
433.5229344089
 11
460.3124769288
 21
432.8846366126
  0
LINE
  5
3D0
100
AcDbEntity
  8
KONSTRUKTIONSELEMENTE
100
AcDbLine
 62
7
  6
CONTINUOUS
 10
460.9374767798
 20
432.0867642555
 11
461.2499769288
 21
432.7250621635
  0
LINE
  5
3D1
100
AcDbEntity
  8
KONSTRUKTIONSELEMENTE
100
AcDbLine
 62
7
  6
CONTINUOUS
 10
460.3124769288
 20
432.8846366126
 11
459.9999767798
 21
432.4059132654
  0
LINE
  5
3D2
100
AcDbEntity
  8
KONSTRUKTIONSELEMENTE
100
AcDbLine
 62
7
  6
CONTINUOUS
 10
460.3124769288
 20
431.4484664034
 11
460.9374767798
 21
432.0867642555
  0
LINE
  5
3D3
100
AcDbEntity
  8
KONSTRUKTIONSELEMENTE
100
AcDbLine
 62
7
  6
CONTINUOUS
 10
459.3749769288
 20
441.4059132654
 11
458.9062269288
 21
441.0867642555
  0
LINE
  5
3D4
100
AcDbEntity
  8
KONSTRUKTIONSELEMENTE
100
AcDbLine
 62
7
  6
CONTINUOUS
 10
459.9999767798
 20
432.4059132654
 11
459.5312267798
 21
432.0867642555
  0
LINE
  5
3D5
100
AcDbEntity
  8
KONSTRUKTIONSELEMENTE
100
AcDbLine
 62
7
  6
CONTINUOUS
 10
459.0624767798
 20
440.1293174634
 11
459.6874770778
 21
440.4484664034
  0
LINE
  5
3D6
100
AcDbEntity
  8
0
100
AcDbLine
 62
7
  6
CONTINUOUS
 10
532.3748793515
 20
360.4286791677
 11
533.124880782
 21
360.6201685066
  0
LINE
  5
3D7
100
AcDbEntity
  8
0
100
AcDbLine
 62
7
  6
CONTINUOUS
 10
539.1248793515
 20
368.0882536615
 11
539.874880782
 21
368.2797430003
  0
LINE
  5
3D8
100
AcDbEntity
  8
0
100
AcDbLine
 62
7
  6
CONTINUOUS
 10
503.6873793515
 20
360.4286791677
 11
504.4373786362
 21
360.6201685066
  0
LINE
  5
3D9
100
AcDbEntity
  8
0
100
AcDbLine
 62
7
  6
CONTINUOUS
 10
532.3748793515
 20
359.2797430003
 11
533.312377921
 21
359.471232356
  0
LINE
  5
3DA
100
AcDbEntity
  8
0
100
AcDbLine
 62
7
  6
CONTINUOUS
 10
503.6873793515
 20
359.2797430003
 11
504.6248800667
 21
359.471232356
  0
LINE
  5
3DB
100
AcDbEntity
  8
0
100
AcDbLine
 62
7
  6
CONTINUOUS
 10
516.437377921
 20
363.3010196531
 11
517.374880782
 21
363.492508992
  0
LINE
  5
3DC
100
AcDbEntity
  8
0
100
AcDbLine
 62
7
  6
CONTINUOUS
 10
495.0623800667
 20
359.2797430003
 11
495.9998786362
 21
359.471232356
  0
LINE
  5
3DD
100
AcDbEntity
  8
0
100
AcDbLine
 62
7
  6
CONTINUOUS
 10
506.6523795303
 20
353.4782536615
 11
507.7773795303
 21
353.6697430003
  0
LINE
  5
3DE
100
AcDbEntity
  8
0
100
AcDbLine
 62
7
  6
CONTINUOUS
 10
476.3123794409
 20
359.2797430003
 11
477.8123793515
 21
359.2797430003
  0
LINE
  5
3DF
100
AcDbEntity
  8
0
100
AcDbLine
 62
7
  6
CONTINUOUS
 10
482.3123793515
 20
359.2797430003
 11
489.0623793515
 21
359.2797430003
  0
LINE
  5
3E0
100
AcDbEntity
  8
0
100
AcDbLine
 62
7
  6
CONTINUOUS
 10
490.5623789939
 20
359.2797430003
 11
495.0623800667
 21
359.2797430003
  0
LINE
  5
3E1
100
AcDbEntity
  8
0
100
AcDbLine
 62
7
  6
CONTINUOUS
 10
501.9998793515
 20
359.2797430003
 11
503.6873793515
 21
359.2797430003
  0
LINE
  5
3E2
100
AcDbEntity
  8
0
100
AcDbLine
 62
7
  6
CONTINUOUS
 10
511.937377921
 20
359.2797430003
 11
513.062377921
 21
359.2797430003
  0
LINE
  5
3E3
100
AcDbEntity
  8
0
100
AcDbLine
 62
7
  6
CONTINUOUS
 10
520.374877921
 20
359.2797430003
 11
527.124877921
 21
359.2797430003
  0
LINE
  5
3E4
100
AcDbEntity
  8
0
100
AcDbLine
 62
7
  6
CONTINUOUS
 10
531.624877921
 20
359.2797430003
 11
532.3748793515
 21
359.2797430003
  0
LINE
  5
3E5
100
AcDbEntity
  8
0
100
AcDbLine
 62
7
  6
CONTINUOUS
 10
539.499877921
 20
359.2797430003
 11
540.999880782
 21
359.2797430003
  0
LINE
  5
3E6
100
AcDbEntity
  8
0
100
AcDbLine
 62
7
  6
CONTINUOUS
 10
483.4373793515
 20
360.4286791677
 11
489.0623793515
 21
360.4286791677
  0
LINE
  5
3E7
100
AcDbEntity
  8
0
100
AcDbLine
 62
7
  6
CONTINUOUS
 10
491.6873800667
 20
360.4286791677
 11
495.2498793515
 21
360.4286791677
  0
LINE
  5
3E8
100
AcDbEntity
  8
0
100
AcDbLine
 62
7
  6
CONTINUOUS
 10
501.9998793515
 20
360.4286791677
 11
503.6873793515
 21
360.4286791677
  0
LINE
  5
3E9
100
AcDbEntity
  8
0
100
AcDbLine
 62
7
  6
CONTINUOUS
 10
521.499877921
 20
360.4286791677
 11
527.124877921
 21
360.4286791677
  0
LINE
  5
3EA
100
AcDbEntity
  8
0
100
AcDbLine
 62
7
  6
CONTINUOUS
 10
531.624877921
 20
360.4286791677
 11
532.3748793515
 21
360.4286791677
  0
LINE
  5
3EB
100
AcDbEntity
  8
0
100
AcDbLine
 62
7
  6
CONTINUOUS
 10
539.499877921
 20
360.4286791677
 11
540.999880782
 21
360.4286791677
  0
LINE
  5
3EC
100
AcDbEntity
  8
0
100
AcDbLine
 62
7
  6
CONTINUOUS
 10
536.8748793515
 20
361.7691046739
 11
537.9998793515
 21
361.7691046739
  0
LINE
  5
3ED
100
AcDbEntity
  8
0
100
AcDbLine
 62
7
  6
CONTINUOUS
 10
507.8123786362
 20
362.5350620294
 11
510.4373793515
 21
362.5350620294
  0
LINE
  5
3EE
100
AcDbEntity
  8
0
100
AcDbLine
 62
7
  6
CONTINUOUS
 10
503.4998800667
 20
363.1095303143
 11
505.1873800667
 21
363.1095303143
  0
LINE
  5
3EF
100
AcDbEntity
  8
0
100
AcDbLine
 62
7
  6
CONTINUOUS
 10
491.6873800667
 20
363.3010196531
 11
495.2498793515
 21
363.3010196531
  0
LINE
  5
3F0
100
AcDbEntity
  8
0
100
AcDbLine
 62
7
  6
CONTINUOUS
 10
513.062377921
 20
363.3010196531
 11
516.437377921
 21
363.3010196531
  0
LINE
  5
3F1
100
AcDbEntity
  8
0
100
AcDbLine
 62
7
  6
CONTINUOUS
 10
539.874880782
 20
363.3010196531
 11
540.999880782
 21
363.3010196531
  0
LINE
  5
3F2
100
AcDbEntity
  8
0
100
AcDbLine
 62
7
  6
CONTINUOUS
 10
510.4373793515
 20
363.492508992
 11
507.8123786362
 21
363.492508992
  0
LINE
  5
3F3
100
AcDbEntity
  8
0
100
AcDbLine
 62
7
  6
CONTINUOUS
 10
503.4998800667
 20
364.2584663475
 11
506.3123800667
 21
364.2584663475
  0
LINE
  5
3F4
100
AcDbEntity
  8
0
100
AcDbLine
 62
7
  6
CONTINUOUS
 10
491.6873800667
 20
364.4499556864
 11
495.2498793515
 21
364.4499556864
  0
LINE
  5
3F5
100
AcDbEntity
  8
0
100
AcDbLine
 62
7
  6
CONTINUOUS
 10
513.062377921
 20
364.4499556864
 11
516.6248793515
 21
364.4499556864
  0
LINE
  5
3F6
100
AcDbEntity
  8
0
100
AcDbLine
 62
7
  6
CONTINUOUS
 10
539.874880782
 20
364.4499556864
 11
540.999880782
 21
364.4499556864
  0
LINE
  5
3F7
100
AcDbEntity
  8
0
100
AcDbLine
 62
7
  6
CONTINUOUS
 10
507.7773795303
 20
353.6697430003
 11
508.9023795303
 21
353.4782536615
  0
LINE
  5
3F8
100
AcDbEntity
  8
0
100
AcDbLine
 62
7
  6
CONTINUOUS
 10
501.0623786362
 20
359.471232356
 11
501.9998793515
 21
359.2797430003
  0
LINE
  5
3F9
100
AcDbEntity
  8
0
100
AcDbLine
 62
7
  6
CONTINUOUS
 10
530.6873793515
 20
359.471232356
 11
531.624877921
 21
359.2797430003
  0
LINE
  5
3FA
100
AcDbEntity
  8
0
100
AcDbLine
 62
7
  6
CONTINUOUS
 10
501.2498800667
 20
360.6201685066
 11
501.9998793515
 21
360.4286791677
  0
LINE
  5
3FB
100
AcDbEntity
  8
0
100
AcDbLine
 62
7
  6
CONTINUOUS
 10
495.2498793515
 20
363.3010196531
 11
495.8123793515
 21
363.1095303143
  0
LINE
  5
3FC
100
AcDbEntity
  8
0
100
AcDbLine
 62
7
  6
CONTINUOUS
 10
495.2498793515
 20
367.1308069671
 11
495.8123793515
 21
366.9393176282
  0
LINE
  5
3FD
100
AcDbEntity
  8
0
100
AcDbLine
 62
7
  6
CONTINUOUS
 10
500.3123793515
 20
359.854211084
 11
501.0623786362
 21
359.471232356
  0
LINE
  5
3FE
100
AcDbEntity
  8
0
100
AcDbLine
 62
7
  6
CONTINUOUS
 10
496.3748793515
 20
363.8754876698
 11
496.7498800667
 21
363.6839983309
  0
LINE
  5
3FF
100
AcDbEntity
  8
0
100
AcDbLine
 62
7
  6
CONTINUOUS
 10
508.9023795303
 20
353.4782536615
 11
509.8398797091
 21
352.9037856448
  0
LINE
  5
400
100
AcDbEntity
  8
0
100
AcDbLine
 62
7
  6
CONTINUOUS
 10
506.2773793515
 20
346.2016578454
 11
506.8398793515
 21
345.8186791677
  0
LINE
  5
401
100
AcDbEntity
  8
0
100
AcDbLine
 62
7
  6
CONTINUOUS
 10
514.5273789939
 20
345.4357004229
 11
515.0898789939
 21
345.0527217116
  0
LINE
  5
402
100
AcDbEntity
  8
0
100
AcDbLine
 62
7
  6
CONTINUOUS
 10
515.2773793515
 20
346.0101685066
 11
515.8398793515
 21
345.6271898288
  0
LINE
  5
403
100
AcDbEntity
  8
0
100
AcDbLine
 62
7
  6
CONTINUOUS
 10
508.7148791727
 20
352.5208069671
 11
509.2773791727
 21
352.1378282893
  0
LINE
  5
404
100
AcDbEntity
  8
0
100
AcDbLine
 62
7
  6
CONTINUOUS
 10
500.6873800667
 20
361.0031473184
 11
501.2498800667
 21
360.6201685066
  0
LINE
  5
405
100
AcDbEntity
  8
0
100
AcDbLine
 62
7
  6
CONTINUOUS
 10
505.1523793515
 20
346.0101685066
 11
505.7148793515
 21
345.4357004229
  0
LINE
  5
406
100
AcDbEntity
  8
0
100
AcDbLine
 62
7
  6
CONTINUOUS
 10
474.4373793515
 20
368.2797430003
 11
477.0623792621
 21
360.4286791677
  0
LINE
  5
407
100
AcDbEntity
  8
0
100
AcDbLine
 62
7
  6
CONTINUOUS
 10
473.3123793515
 20
368.2797430003
 11
476.3123794409
 21
359.2797430003
  0
LINE
  5
408
100
AcDbEntity
  8
KONSTRUKTIONSELEMENTE
100
AcDbLine
 62
7
  6
CONTINUOUS
 10
455.1562269288
 20
442.5229344089
 11
455.3124769334
 21
441.7250621635
  0
LINE
  5
409
100
AcDbEntity
  8
0
100
AcDbLine
 62
7
  6
CONTINUOUS
 10
467.3523793515
 20
389.9697430003
 11
467.3523793515
 21
503.2967864656
  0
LINE
  5
40A
100
AcDbEntity
  8
RUNDUNGEN
100
AcDbLine
 62
7
  6
CONTINUOUS
 10
469.8523793515
 20
341.7197430003
 11
469.8523793515
 21
392.7197430003
  0
LINE
  5
40B
100
AcDbEntity
  8
0
100
AcDbLine
 62
7
  6
CONTINUOUS
 10
469.8523793515
 20
341.7197430003
 11
469.8523793515
 21
392.7197430003
  0
LINE
  5
40C
100
AcDbEntity
  8
0
100
AcDbLine
 62
7
  6
CONTINUOUS
 10
473.3523793515
 20
405.7197430003
 11
473.3523793515
 21
397.4697430003
  0
LINE
  5
40D
100
AcDbEntity
  8
0
100
AcDbLine
 62
7
  6
CONTINUOUS
 10
473.3523793515
 20
336.9697430003
 11
473.3523793515
 21
328.7197430003
  0
LINE
  5
40E
100
AcDbEntity
  8
KONSTRUKTIONSELEMENTE
100
AcDbLine
 62
7
  6
CONTINUOUS
 10
459.6874770778
 20
431.1293174634
 11
460.3124769288
 21
431.4484664034
  0
LINE
  5
40F
100
AcDbEntity
  8
0
100
AcDbLine
 62
7
  6
CONTINUOUS
 10
501.2498800667
 20
366.9393176282
 11
501.9998793515
 21
367.1308069671
  0
LINE
  5
410
100
AcDbEntity
  8
0
100
AcDbLine
 62
7
  6
CONTINUOUS
 10
520.7123793515
 20
377.9616578901
 11
521.7123783978
 21
378.2169770086
  0
LINE
  5
411
100
AcDbEntity
  8
0
100
AcDbLine
 62
7
  6
CONTINUOUS
 10
501.0623786362
 20
368.0882536615
 11
501.9998793515
 21
368.2797430003
  0
LINE
  5
412
100
AcDbEntity
  8
0
100
AcDbLine
 62
7
  6
CONTINUOUS
 10
520.7123793515
 20
376.4297430003
 11
521.9623803052
 21
376.6850621412
  0
LINE
  5
413
100
AcDbEntity
  8
0
100
AcDbLine
 62
7
  6
CONTINUOUS
 10
505.1873800667
 20
365.9818703974
 11
506.3123800667
 21
365.9818703974
  0
LINE
  5
414
100
AcDbEntity
  8
0
100
AcDbLine
 62
7
  6
CONTINUOUS
 10
542.124880782
 20
366.1733602727
 11
543.249880782
 21
366.1733602727
  0
LINE
  5
415
100
AcDbEntity
  8
0
100
AcDbLine
 62
7
  6
CONTINUOUS
 10
491.6873800667
 20
367.1308069671
 11
495.2498793515
 21
367.1308069671
  0
LINE
  5
416
100
AcDbEntity
  8
0
100
AcDbLine
 62
7
  6
CONTINUOUS
 10
501.9998793515
 20
367.1308069671
 11
503.6873793515
 21
367.1308069671
  0
LINE
  5
417
100
AcDbEntity
  8
0
100
AcDbLine
 62
7
  6
CONTINUOUS
 10
539.874880782
 20
367.1308069671
 11
540.999880782
 21
367.1308069671
  0
LINE
  5
418
100
AcDbEntity
  8
0
100
AcDbLine
 62
7
  6
CONTINUOUS
 10
513.062377921
 20
367.322296306
 11
516.6248793515
 21
367.322296306
  0
LINE
  5
419
100
AcDbEntity
  8
0
100
AcDbLine
 62
7
  6
CONTINUOUS
 10
473.3123793515
 20
368.2797430003
 11
474.4373793515
 21
368.2797430003
  0
LINE
  5
41A
100
AcDbEntity
  8
0
100
AcDbLine
 62
7
  6
CONTINUOUS
 10
479.6873791727
 20
368.2797430003
 11
480.8123791727
 21
368.2797430003
  0
LINE
  5
41B
100
AcDbEntity
  8
0
100
AcDbLine
 62
7
  6
CONTINUOUS
 10
482.3123793515
 20
368.2797430003
 11
483.4373793515
 21
368.2797430003
  0
LINE
  5
41C
100
AcDbEntity
  8
0
100
AcDbLine
 62
7
  6
CONTINUOUS
 10
490.5623789939
 20
368.2797430003
 11
495.0623800667
 21
368.2797430003
  0
LINE
  5
41D
100
AcDbEntity
  8
0
100
AcDbLine
 62
7
  6
CONTINUOUS
 10
501.9998793515
 20
368.2797430003
 11
503.6873793515
 21
368.2797430003
  0
LINE
  5
41E
100
AcDbEntity
  8
0
100
AcDbLine
 62
7
  6
CONTINUOUS
 10
511.937377921
 20
368.2797430003
 11
516.437377921
 21
368.2797430003
  0
LINE
  5
41F
100
AcDbEntity
  8
0
100
AcDbLine
 62
7
  6
CONTINUOUS
 10
520.374877921
 20
368.2797430003
 11
521.499877921
 21
368.2797430003
  0
LINE
  5
420
100
AcDbEntity
  8
0
100
AcDbLine
 62
7
  6
CONTINUOUS
 10
528.624880782
 20
368.2797430003
 11
529.749880782
 21
368.2797430003
  0
LINE
  5
421
100
AcDbEntity
  8
0
100
AcDbLine
 62
7
  6
CONTINUOUS
 10
534.249880782
 20
368.2797430003
 11
535.374880782
 21
368.2797430003
  0
LINE
  5
422
100
AcDbEntity
  8
0
100
AcDbLine
 62
7
  6
CONTINUOUS
 10
539.874880782
 20
368.2797430003
 11
540.8123793515
 21
368.2797430003
  0
LINE
  5
423
100
AcDbEntity
  8
0
100
AcDbLine
 62
7
  6
CONTINUOUS
 10
492.2123793515
 20
376.4297430003
 11
493.7123793515
 21
376.4297430003
  0
LINE
  5
424
100
AcDbEntity
  8
0
100
AcDbLine
 62
7
  6
CONTINUOUS
 10
499.9623791131
 20
376.4297430003
 11
501.7123795899
 21
376.4297430003
  0
LINE
  5
425
100
AcDbEntity
  8
0
100
AcDbLine
 62
7
  6
CONTINUOUS
 10
507.7123788746
 20
376.4297430003
 11
508.7123793515
 21
376.4297430003
  0
LINE
  5
426
100
AcDbEntity
  8
0
100
AcDbLine
 62
7
  6
CONTINUOUS
 10
514.7123793515
 20
376.4297430003
 11
520.7123793515
 21
376.4297430003
  0
LINE
  5
427
100
AcDbEntity
  8
0
100
AcDbLine
 62
7
  6
CONTINUOUS
 10
495.0623800667
 20
368.2797430003
 11
495.9998786362
 21
368.0882536615
  0
LINE
  5
428
100
AcDbEntity
  8
0
100
AcDbLine
 62
7
  6
CONTINUOUS
 10
538.5623793515
 20
359.471232356
 11
539.499877921
 21
359.2797430003
  0
LINE
  5
429
100
AcDbEntity
  8
0
100
AcDbLine
 62
7
  6
CONTINUOUS
 10
503.6873793515
 20
368.2797430003
 11
504.6248800667
 21
368.0882536615
  0
LINE
  5
42A
100
AcDbEntity
  8
0
100
AcDbLine
 62
7
  6
CONTINUOUS
 10
516.437377921
 20
368.2797430003
 11
517.374880782
 21
368.0882536615
  0
LINE
  5
42B
100
AcDbEntity
  8
0
100
AcDbLine
 62
7
  6
CONTINUOUS
 10
540.999880782
 20
364.4499556864
 11
541.9373793515
 21
364.2584663475
  0
LINE
  5
42C
100
AcDbEntity
  8
0
100
AcDbLine
 62
7
  6
CONTINUOUS
 10
540.8123793515
 20
368.2797430003
 11
541.749877921
 21
368.0882536615
  0
LINE
  5
42D
100
AcDbEntity
  8
0
100
AcDbLine
 62
7
  6
CONTINUOUS
 10
506.4623793515
 20
376.6850621412
 11
507.7123788746
 21
376.4297430003
  0
LINE
  5
42E
100
AcDbEntity
  8
0
100
AcDbLine
 62
7
  6
CONTINUOUS
 10
503.6873793515
 20
367.1308069671
 11
504.4373786362
 21
366.9393176282
  0
LINE
  5
42F
100
AcDbEntity
  8
0
100
AcDbLine
 62
7
  6
CONTINUOUS
 10
530.874880782
 20
360.6201685066
 11
531.624877921
 21
360.4286791677
  0
LINE
  5
430
100
AcDbEntity
  8
0
100
AcDbLine
 62
7
  6
CONTINUOUS
 10
538.749880782
 20
360.6201685066
 11
539.499877921
 21
360.4286791677
  0
LINE
  5
431
100
AcDbEntity
  8
0
100
AcDbLine
 62
7
  6
CONTINUOUS
 10
539.1248793515
 20
363.492508992
 11
539.874880782
 21
363.3010196531
  0
LINE
  5
432
100
AcDbEntity
  8
0
100
AcDbLine
 62
7
  6
CONTINUOUS
 10
540.999880782
 20
363.3010196531
 11
541.749877921
 21
363.1095303143
  0
LINE
  5
433
100
AcDbEntity
  8
0
100
AcDbLine
 62
7
  6
CONTINUOUS
 10
516.6248793515
 20
367.322296306
 11
517.1873793515
 21
367.1308069671
  0
LINE
  5
434
100
AcDbEntity
  8
0
100
AcDbLine
 62
7
  6
CONTINUOUS
 10
539.312380782
 20
364.6414450253
 11
539.874880782
 21
364.4499556864
  0
LINE
  5
435
100
AcDbEntity
  8
0
100
AcDbLine
 62
7
  6
CONTINUOUS
 10
504.6248800667
 20
368.0882536615
 11
505.3748793515
 21
367.7052749837
  0
LINE
  5
436
100
AcDbEntity
  8
0
100
AcDbLine
 62
7
  6
CONTINUOUS
 10
529.937377921
 20
359.854211084
 11
530.6873793515
 21
359.471232356
  0
LINE
  5
437
100
AcDbEntity
  8
0
100
AcDbLine
 62
7
  6
CONTINUOUS
 10
504.4373786362
 20
366.9393176282
 11
504.9998786362
 21
366.5563389505
  0
LINE
  5
438
100
AcDbEntity
  8
0
100
AcDbLine
 62
7
  6
CONTINUOUS
 10
495.9998786362
 20
368.0882536615
 11
496.7498800667
 21
367.5137856448
  0
LINE
  5
439
100
AcDbEntity
  8
0
100
AcDbLine
 62
7
  6
CONTINUOUS
 10
495.8123793515
 20
363.1095303143
 11
496.1873800667
 21
362.7265516365
  0
LINE
  5
43A
100
AcDbEntity
  8
0
100
AcDbLine
 62
7
  6
CONTINUOUS
 10
499.5623800667
 20
360.6201685066
 11
500.3123793515
 21
359.854211084
  0
LINE
  5
43B
100
AcDbEntity
  8
0
100
AcDbLine
 62
7
  6
CONTINUOUS
 10
495.8123793515
 20
366.9393176282
 11
496.1873800667
 21
366.5563389505
  0
LINE
  5
43C
100
AcDbEntity
  8
0
100
AcDbLine
 62
7
  6
CONTINUOUS
 10
509.8398797091
 20
352.9037856448
 11
510.4023797091
 21
352.3293176282
  0
LINE
  5
43D
100
AcDbEntity
  8
0
100
AcDbLine
 62
7
  6
CONTINUOUS
 10
496.7498800667
 20
363.6839983309
 11
497.3123800667
 21
362.9180409754
  0
LINE
  5
43E
100
AcDbEntity
  8
0
100
AcDbLine
 62
7
  6
CONTINUOUS
 10
496.7498800667
 20
367.5137856448
 11
497.3123800667
 21
366.7478282893
  0
LINE
  5
43F
100
AcDbEntity
  8
0
100
AcDbLine
 62
7
  6
CONTINUOUS
 10
505.5273795303
 20
347.3505940128
 11
506.2773793515
 21
346.2016578454
  0
LINE
  5
440
100
AcDbEntity
  8
0
100
AcDbLine
 62
7
  6
CONTINUOUS
 10
500.3123793515
 20
361.5776153351
 11
500.6873800667
 21
361.0031473184
  0
LINE
  5
441
100
AcDbEntity
  8
KONSTRUKTIONSELEMENTE
100
AcDbLine
 62
7
  6
CONTINUOUS
 10
455.3124769334
 20
441.7250621635
 11
455.6249769288
 21
441.0867642555
  0
LINE
  5
442
100
AcDbEntity
  8
KONSTRUKTIONSELEMENTE
100
AcDbLine
 62
7
  6
CONTINUOUS
 10
456.2499768915
 20
441.8846366126
 11
456.0937269288
 21
442.5229344089
  0
LINE
  5
443
100
AcDbEntity
  8
KONSTRUKTIONSELEMENTE
100
AcDbLine
 62
7
  6
CONTINUOUS
 10
460.3124769288
 20
436.5548491646
 11
460.4687267798
 21
435.9165513683
  0
LINE
  5
444
100
AcDbEntity
  8
KONSTRUKTIONSELEMENTE
100
AcDbLine
 62
7
  6
CONTINUOUS
 10
461.4062267798
 20
435.9165513683
 11
461.2499769288
 21
436.7144240606
  0
LINE
  5
445
100
AcDbEntity
  8
BEZUGSACHSEN
100
AcDbLine
 62
7
  6
CONTINUOUS
 10
475.8523793515
 20
406.2197430003
 11
475.8523793515
 21
431.7197430005
  0
LINE
  5
446
100
AcDbEntity
  8
BEZUGSACHSEN
100
AcDbLine
 62
7
  6
CONTINUOUS
 10
478.4023793515
 20
405.7197430003
 11
478.4023793515
 21
406.2197430003
  0
LINE
  5
447
100
AcDbEntity
  8
0
100
AcDbLine
 62
7
  6
CONTINUOUS
 10
479.8523793515
 20
397.4697430003
 11
479.8523793515
 21
397.2197430003
  0
LINE
  5
448
100
AcDbEntity
  8
0
100
AcDbLine
 62
7
  6
CONTINUOUS
 10
479.8523793515
 20
337.2197430003
 11
479.8523793515
 21
336.9697430003
  0
LINE
  5
449
100
AcDbEntity
  8
KONSTRUKTIONSELEMENTE
100
AcDbLine
 62
7
  6
CONTINUOUS
 10
482.239661527
 20
431.7197430003
 11
482.239661527
 21
431.9197430003
  0
LINE
  5
44A
100
AcDbEntity
  8
0
100
AcDbLine
 62
7
  6
CONTINUOUS
 10
482.3123793515
 20
359.2797430003
 11
482.3123793515
 21
368.2797430003
  0
LINE
  5
44B
100
AcDbEntity
  8
KONSTRUKTIONSELEMENTE
100
AcDbLine
 62
7
  6
CONTINUOUS
 10
482.4874278691
 20
431.7197430003
 11
482.4874278691
 21
431.9197430003
  0
LINE
  5
44C
100
AcDbEntity
  8
KONSTRUKTIONSELEMENTE
100
AcDbLine
 62
7
  6
CONTINUOUS
 10
483.3133156761
 20
431.7197430003
 11
483.3133156761
 21
431.9197430003
  0
LINE
  5
44D
100
AcDbEntity
  8
0
100
AcDbLine
 62
7
  6
CONTINUOUS
 10
483.4373793515
 20
360.4286791677
 11
483.4373793515
 21
368.2797430003
  0
LINE
  5
44E
100
AcDbEntity
  8
KONSTRUKTIONSELEMENTE
100
AcDbLine
 62
7
  6
CONTINUOUS
 10
483.5610820182
 20
431.7197430003
 11
483.5610820182
 21
431.9197430003
  0
LINE
  5
44F
100
AcDbEntity
  8
0
100
AcDbLine
 62
7
  6
CONTINUOUS
 10
508.7123793515
 20
377.9616578901
 11
509.7123798283
 21
378.2169770086
  0
LINE
  5
450
100
AcDbEntity
  8
0
100
AcDbLine
 62
7
  6
CONTINUOUS
 10
508.7123793515
 20
376.4297430003
 11
509.9623788746
 21
376.6850621412
  0
LINE
  5
451
100
AcDbEntity
  8
0
100
AcDbLine
 62
7
  6
CONTINUOUS
 10
507.7123788746
 20
377.9616578901
 11
508.7123793515
 21
377.9616578901
  0
LINE
  5
452
100
AcDbEntity
  8
0
100
AcDbLine
 62
7
  6
CONTINUOUS
 10
516.2123793515
 20
377.9616578901
 11
520.7123793515
 21
377.9616578901
  0
LINE
  5
453
100
AcDbEntity
  8
0
100
AcDbLine
 62
7
  6
CONTINUOUS
 10
493.7123793515
 20
381.7914452041
 11
497.9623792323
 21
381.7914452041
  0
LINE
  5
454
100
AcDbEntity
  8
0
100
AcDbLine
 62
7
  6
CONTINUOUS
 10
493.7123793515
 20
383.3233599151
 11
498.4623791131
 21
383.3233599151
  0
LINE
  5
455
100
AcDbEntity
  8
0
100
AcDbLine
 62
7
  6
CONTINUOUS
 10
516.2123793515
 20
386.8978282893
 11
520.7123793515
 21
386.8978282893
  0
LINE
  5
456
100
AcDbEntity
  8
0
100
AcDbLine
 62
7
  6
CONTINUOUS
 10
493.7123793515
 20
387.1531474078
 11
498.4623791131
 21
387.1531474078
  0
LINE
  5
457
100
AcDbEntity
  8
0
100
AcDbLine
 62
7
  6
CONTINUOUS
 10
492.2123793515
 20
388.4297430003
 11
498.2123793515
 21
388.4297430003
  0
LINE
  5
458
100
AcDbEntity
  8
0
100
AcDbLine
 62
7
  6
CONTINUOUS
 10
503.7123791131
 20
388.4297430003
 11
505.2123798283
 21
388.4297430003
  0
LINE
  5
459
100
AcDbEntity
  8
0
100
AcDbLine
 62
7
  6
CONTINUOUS
 10
511.2123798283
 20
388.4297430003
 11
512.7123798283
 21
388.4297430003
  0
LINE
  5
45A
100
AcDbEntity
  8
0
100
AcDbLine
 62
7
  6
CONTINUOUS
 10
514.7123793515
 20
388.4297430003
 11
520.7123793515
 21
388.4297430003
  0
LINE
  5
45B
100
AcDbEntity
  8
0
100
AcDbLine
 62
7
  6
CONTINUOUS
 10
498.2123793515
 20
388.4297430003
 11
499.4623795899
 21
388.1744238818
  0
LINE
  5
45C
100
AcDbEntity
  8
0
100
AcDbLine
 62
7
  6
CONTINUOUS
 10
506.7123798283
 20
378.2169770086
 11
507.7123788746
 21
377.9616578901
  0
LINE
  5
45D
100
AcDbEntity
  8
0
100
AcDbLine
 62
7
  6
CONTINUOUS
 10
540.999880782
 20
367.1308069671
 11
541.562380782
 21
366.9393176282
  0
LINE
  5
45E
100
AcDbEntity
  8
0
100
AcDbLine
 62
7
  6
CONTINUOUS
 10
498.4623791131
 20
387.1531474078
 11
499.2123791131
 21
386.8978282893
  0
LINE
  5
45F
100
AcDbEntity
  8
0
100
AcDbLine
 62
7
  6
CONTINUOUS
 10
505.4623788746
 20
377.1957004452
 11
506.4623793515
 21
376.6850621412
  0
LINE
  5
460
100
AcDbEntity
  8
0
100
AcDbLine
 62
7
  6
CONTINUOUS
 10
538.374877921
 20
363.8754876698
 11
539.1248793515
 21
363.492508992
  0
LINE
  5
461
100
AcDbEntity
  8
0
100
AcDbLine
 62
7
  6
CONTINUOUS
 10
541.9373793515
 20
364.2584663475
 11
542.687380782
 21
363.8754876698
  0
LINE
  5
462
100
AcDbEntity
  8
0
100
AcDbLine
 62
7
  6
CONTINUOUS
 10
537.624880782
 20
360.0457004229
 11
538.5623793515
 21
359.471232356
  0
LINE
  5
463
100
AcDbEntity
  8
0
100
AcDbLine
 62
7
  6
CONTINUOUS
 10
530.312380782
 20
361.0031473184
 11
530.874880782
 21
360.6201685066
  0
LINE
  5
464
100
AcDbEntity
  8
0
100
AcDbLine
 62
7
  6
CONTINUOUS
 10
505.9623798283
 20
378.7276154245
 11
506.7123798283
 21
378.2169770086
  0
LINE
  5
465
100
AcDbEntity
  8
0
100
AcDbLine
 62
7
  6
CONTINUOUS
 10
517.374880782
 20
368.0882536615
 11
518.124877921
 21
367.5137856448
  0
LINE
  5
466
100
AcDbEntity
  8
0
100
AcDbLine
 62
7
  6
CONTINUOUS
 10
499.4623795899
 20
388.1744238818
 11
500.4623793515
 21
387.4084665263
  0
LINE
  5
467
100
AcDbEntity
  8
0
100
AcDbLine
 62
7
  6
CONTINUOUS
 10
505.3748793515
 20
367.7052749837
 11
506.1248786362
 21
366.9393176282
  0
LINE
  5
468
100
AcDbEntity
  8
0
100
AcDbLine
 62
7
  6
CONTINUOUS
 10
504.4623798283
 20
378.2169770086
 11
505.4623788746
 21
377.1957004452
  0
LINE
  5
469
100
AcDbEntity
  8
0
100
AcDbLine
 62
7
  6
CONTINUOUS
 10
517.1873793515
 20
367.1308069671
 11
517.562377921
 21
366.7478282893
  0
LINE
  5
46A
100
AcDbEntity
  8
0
100
AcDbLine
 62
7
  6
CONTINUOUS
 10
499.2123791131
 20
386.8978282893
 11
499.7123793515
 21
386.3871900523
  0
LINE
  5
46B
100
AcDbEntity
  8
0
100
AcDbLine
 62
7
  6
CONTINUOUS
 10
509.2773791727
 20
352.1378282893
 11
510.0273789939
 21
350.9888917196
  0
LINE
  5
46C
100
AcDbEntity
  8
KONSTRUKTIONSELEMENTE
100
AcDbLine
 62
7
  6
CONTINUOUS
 10
456.5624769288
 20
441.4059132654
 11
456.2499768915
 21
441.8846366126
  0
LINE
  5
46D
100
AcDbEntity
  8
KONSTRUKTIONSELEMENTE
100
AcDbLine
 62
7
  6
CONTINUOUS
 10
459.9999767798
 20
437.0335729588
 11
460.3124769288
 21
436.5548491646
  0
LINE
  5
46E
100
AcDbEntity
  8
0
100
AcDbLine
 62
7
  6
CONTINUOUS
 10
504.7773794409
 20
346.7761259962
 11
505.1523793515
 21
346.0101685066
  0
LINE
  5
46F
100
AcDbEntity
  8
KONSTRUKTIONSELEMENTE
100
AcDbLine
 62
7
  6
CONTINUOUS
 10
461.2499769288
 20
436.7144240606
 11
460.9374767798
 21
437.3527218569
  0
LINE
  5
470
100
AcDbEntity
  8
0
100
AcDbLine
 62
7
  6
CONTINUOUS
 10
499.1873793515
 20
361.3861259962
 11
499.5623800667
 21
360.6201685066
  0
LINE
  5
471
100
AcDbEntity
  8
0
100
AcDbLine
 62
7
  6
CONTINUOUS
 10
510.4023797091
 20
352.3293176282
 11
510.7773793515
 21
351.5633602727
  0
LINE
  5
472
100
AcDbEntity
  8
0
100
AcDbLine
 62
7
  6
CONTINUOUS
 10
514.1523793515
 20
346.2016578454
 11
514.5273789939
 21
345.4357004229
  0
LINE
  5
473
100
AcDbEntity
  8
KONSTRUKTIONSELEMENTE
100
AcDbLine
 62
7
  6
CONTINUOUS
 10
461.0937270778
 20
449.7197430003
 11
459.6874770778
 21
453.3899557758
  0
LINE
  5
474
100
AcDbEntity
  8
KONSTRUKTIONSELEMENTE
100
AcDbLine
 62
7
  6
CONTINUOUS
 10
458.7499768543
 20
453.0708068777
 11
459.9999767798
 21
449.7197430003
  0
LINE
  5
475
100
AcDbEntity
  8
KONSTRUKTIONSELEMENTE
100
AcDbLine
 62
7
  6
CONTINUOUS
 10
459.8437269288
 20
455.9431474078
 11
459.9999767798
 21
455.4644240606
  0
LINE
  5
476
100
AcDbEntity
  8
KONSTRUKTIONSELEMENTE
100
AcDbLine
 62
7
  6
CONTINUOUS
 10
460.9374767798
 20
455.4644240606
 11
460.7812269288
 21
455.9431474078
  0
LINE
  5
477
100
AcDbEntity
  8
0
100
AcDbLine
 62
7
  6
CONTINUOUS
 10
496.1873800667
 20
362.7265516365
 11
496.3748793515
 21
362.1520833517
  0
LINE
  5
478
100
AcDbEntity
  8
0
100
AcDbLine
 62
7
  6
CONTINUOUS
 10
497.3123800667
 20
362.9180409754
 11
497.4998793515
 21
362.3435726906
  0
LINE
  5
479
100
AcDbEntity
  8
0
100
AcDbLine
 62
7
  6
CONTINUOUS
 10
496.1873800667
 20
366.5563389505
 11
496.3748793515
 21
365.9818703974
  0
LINE
  5
47A
100
AcDbEntity
  8
0
100
AcDbLine
 62
7
  6
CONTINUOUS
 10
497.3123800667
 20
366.7478282893
 11
497.4998793515
 21
366.1733602727
  0
LINE
  5
47B
100
AcDbEntity
  8
0
100
AcDbLine
 62
7
  6
CONTINUOUS
 10
504.5898793515
 20
347.3505940128
 11
504.7773794409
 21
346.7761259962
  0
LINE
  5
47C
100
AcDbEntity
  8
BEZUGSACHSEN
100
AcDbLine
 62
7
  6
CONTINUOUS
 10
487.3523793515
 20
259.7197430003
 11
487.3523793515
 21
328.7197430003
  0
LINE
  5
47D
100
AcDbEntity
  8
0
100
AcDbLine
 62
7
  6
CONTINUOUS
 10
489.0623793515
 20
359.2797430003
 11
489.0623793515
 21
360.4286791677
  0
LINE
  5
47E
100
AcDbEntity
  8
0
100
AcDbLine
 62
7
  6
CONTINUOUS
 10
490.5623789939
 20
359.2797430003
 11
490.5623789939
 21
368.2797430003
  0
LINE
  5
47F
100
AcDbEntity
  8
KONSTRUKTIONSELEMENTE
100
AcDbLine
 62
7
  6
CONTINUOUS
 10
490.7151352462
 20
431.7197430003
 11
490.7151352462
 21
431.9197430003
  0
LINE
  5
480
100
AcDbEntity
  8
KONSTRUKTIONSELEMENTE
100
AcDbLine
 62
7
  6
CONTINUOUS
 10
490.8505289617
 20
431.7197430003
 11
490.8505289617
 21
431.9197430003
  0
LINE
  5
481
100
AcDbEntity
  8
KONSTRUKTIONSELEMENTE
100
AcDbLine
 62
7
  6
CONTINUOUS
 10
491.1835717296
 20
431.7197430003
 11
491.1835717296
 21
431.9197430003
  0
LINE
  5
482
100
AcDbEntity
  8
0
100
AcDbLine
 62
7
  6
CONTINUOUS
 10
491.6873800667
 20
360.4286791677
 11
491.6873800667
 21
363.3010196531
  0
LINE
  5
483
100
AcDbEntity
  8
0
100
AcDbLine
 62
7
  6
CONTINUOUS
 10
491.6873800667
 20
364.4499556864
 11
491.6873800667
 21
367.1308069671
  0
LINE
  5
484
100
AcDbEntity
  8
0
100
AcDbLine
 62
7
  6
CONTINUOUS
 10
492.2123793515
 20
376.4297430003
 11
492.2123793515
 21
388.4297430003
  0
LINE
  5
485
100
AcDbEntity
  8
KONSTRUKTIONSELEMENTE
100
AcDbLine
 62
7
  6
CONTINUOUS
 10
493.3063349618
 20
431.7197430003
 11
493.3063349618
 21
431.9197430003
  0
LINE
  5
486
100
AcDbEntity
  8
0
100
AcDbLine
 62
7
  6
CONTINUOUS
 10
493.7123793515
 20
376.4297430003
 11
493.7123793515
 21
381.7914452041
  0
LINE
  5
487
100
AcDbEntity
  8
0
100
AcDbLine
 62
7
  6
CONTINUOUS
 10
493.7123793515
 20
383.3233599151
 11
493.7123793515
 21
387.1531474078
  0
LINE
  5
488
100
AcDbEntity
  8
KONSTRUKTIONSELEMENTE
100
AcDbLine
 62
7
  6
CONTINUOUS
 10
496.1118315041
 20
431.7197430003
 11
496.1118315041
 21
431.9197430003
  0
LINE
  5
489
100
AcDbEntity
  8
0
100
AcDbLine
 62
7
  6
CONTINUOUS
 10
496.3748793515
 20
361.5776153351
 11
496.3748793515
 21
362.1520833517
  0
LINE
  5
48A
100
AcDbEntity
  8
0
100
AcDbLine
 62
7
  6
CONTINUOUS
 10
496.3748793515
 20
365.5988917196
 11
496.3748793515
 21
365.9818703974
  0
LINE
  5
48B
100
AcDbEntity
  8
KONSTRUKTIONSELEMENTE
100
AcDbLine
 62
7
  6
CONTINUOUS
 10
496.7476279192
 20
431.7197430003
 11
496.7476279192
 21
431.9197430003
  0
LINE
  5
48C
100
AcDbEntity
  8
0
100
AcDbLine
 62
7
  6
CONTINUOUS
 10
497.4998793515
 20
361.3861259962
 11
497.4998793515
 21
362.3435726906
  0
LINE
  5
48D
100
AcDbEntity
  8
0
100
AcDbLine
 62
7
  6
CONTINUOUS
 10
497.4998793515
 20
365.4074023808
 11
497.4998793515
 21
366.1733602727
  0
LINE
  5
48E
100
AcDbEntity
  8
0
100
AcDbLine
 62
7
  6
CONTINUOUS
 10
477.8123793515
 20
359.2797430003
 11
480.8123791727
 21
368.2797430003
  0
LINE
  5
48F
100
AcDbEntity
  8
0
100
AcDbLine
 62
7
  6
CONTINUOUS
 10
477.0623792621
 20
360.4286791677
 11
479.6873791727
 21
368.2797430003
  0
LINE
  5
490
100
AcDbEntity
  8
RUNDUNGEN
100
AcDbLine
 62
7
  6
CONTINUOUS
 10
474.3523793515
 20
397.2197430003
 11
542.3523793515
 21
397.2197430003
  0
LINE
  5
491
100
AcDbEntity
  8
0
100
AcDbLine
 62
7
  6
CONTINUOUS
 10
473.3523793515
 20
397.4697430003
 11
543.3523793515
 21
397.4697430003
  0
LINE
  5
492
100
AcDbEntity
  8
0
100
AcDbLine
 62
7
  6
CONTINUOUS
 10
520.7123793515
 20
388.4297430003
 11
521.9623803052
 21
388.1744238818
  0
LINE
  5
493
100
AcDbEntity
  8
0
100
AcDbLine
 62
7
  6
CONTINUOUS
 10
520.7123793515
 20
386.8978282893
 11
521.7123783978
 21
386.6425091708
  0
LINE
  5
494
100
AcDbEntity
  8
0
100
AcDbLine
 62
7
  6
CONTINUOUS
 10
521.9623803052
 20
388.1744238818
 11
522.9623793515
 21
387.6637856448
  0
LINE
  5
495
100
AcDbEntity
  8
0
100
AcDbLine
 62
7
  6
CONTINUOUS
 10
538.749880782
 20
365.024423703
 11
539.312380782
 21
364.6414450253
  0
LINE
  5
496
100
AcDbEntity
  8
0
100
AcDbLine
 62
7
  6
CONTINUOUS
 10
541.749877921
 20
363.1095303143
 11
542.312377921
 21
362.7265516365
  0
LINE
  5
497
100
AcDbEntity
  8
0
100
AcDbLine
 62
7
  6
CONTINUOUS
 10
521.7123783978
 20
386.6425091708
 11
522.4623783978
 21
386.1318709338
  0
LINE
  5
498
100
AcDbEntity
  8
0
100
AcDbLine
 62
7
  6
CONTINUOUS
 10
541.749877921
 20
368.0882536615
 11
542.4998793515
 21
367.5137856448
  0
LINE
  5
499
100
AcDbEntity
  8
0
100
AcDbLine
 62
7
  6
CONTINUOUS
 10
529.187380782
 20
360.6201685066
 11
529.937377921
 21
359.854211084
  0
LINE
  5
49A
100
AcDbEntity
  8
KONSTRUKTIONSELEMENTE
100
AcDbLine
 62
7
  6
CONTINUOUS
 10
455.6249769288
 20
441.0867642555
 11
456.2499768915
 21
440.4484664034
  0
LINE
  5
49B
100
AcDbEntity
  8
KONSTRUKTIONSELEMENTE
100
AcDbLine
 62
7
  6
CONTINUOUS
 10
460.9374767798
 20
437.3527218569
 11
460.3124769288
 21
437.9910196531
  0
LINE
  5
49C
100
AcDbEntity
  8
0
100
AcDbLine
 62
7
  6
CONTINUOUS
 10
538.187380782
 20
361.1946366573
 11
538.749880782
 21
360.6201685066
  0
LINE
  5
49D
100
AcDbEntity
  8
0
100
AcDbLine
 62
7
  6
CONTINUOUS
 10
537.624880782
 20
364.6414450253
 11
538.374877921
 21
363.8754876698
  0
LINE
  5
49E
100
AcDbEntity
  8
0
100
AcDbLine
 62
7
  6
CONTINUOUS
 10
500.4623793515
 20
387.4084665263
 11
501.2123793515
 21
386.3871900523
  0
LINE
  5
49F
100
AcDbEntity
  8
0
100
AcDbLine
 62
7
  6
CONTINUOUS
 10
518.124877921
 20
367.5137856448
 11
518.687377921
 21
366.7478282893
  0
LINE
  5
4A0
100
AcDbEntity
  8
KONSTRUKTIONSELEMENTE
100
AcDbLine
 62
7
  6
CONTINUOUS
 10
460.7812269288
 20
455.9431474078
 11
460.3124769288
 21
456.5814452041
  0
LINE
  5
4A1
100
AcDbEntity
  8
0
100
AcDbLine
 62
7
  6
CONTINUOUS
 10
505.4623788746
 20
379.49357278
 11
505.9623798283
 21
378.7276154245
  0
LINE
  5
4A2
100
AcDbEntity
  8
0
100
AcDbLine
 62
7
  6
CONTINUOUS
 10
503.9623795899
 20
379.2382536615
 11
504.4623798283
 21
378.2169770086
  0
LINE
  5
4A3
100
AcDbEntity
  8
0
100
AcDbLine
 62
7
  6
CONTINUOUS
 10
499.4623795899
 20
382.3020834411
 11
501.7123795899
 21
376.4297430003
  0
LINE
  5
4A4
100
AcDbEntity
  8
0
100
AcDbLine
 62
7
  6
CONTINUOUS
 10
497.9623792323
 20
381.7914452041
 11
499.9623791131
 21
376.4297430003
  0
LINE
  5
4A5
100
AcDbEntity
  8
0
100
AcDbLine
 62
7
  6
CONTINUOUS
 10
504.9998786362
 20
366.5563389505
 11
505.1873800667
 21
365.9818703974
  0
LINE
  5
4A6
100
AcDbEntity
  8
0
100
AcDbLine
 62
7
  6
CONTINUOUS
 10
510.7773793515
 20
351.5633602727
 11
510.9648797091
 21
350.9888917196
  0
LINE
  5
4A7
100
AcDbEntity
  8
0
100
AcDbLine
 62
7
  6
CONTINUOUS
 10
499.7123793515
 20
386.3871900523
 11
499.9623791131
 21
385.6212326968
  0
LINE
  5
4A8
100
AcDbEntity
  8
0
100
AcDbLine
 62
7
  6
CONTINUOUS
 10
501.2123793515
 20
386.3871900523
 11
501.4623791131
 21
385.6212326968
  0
LINE
  5
4A9
100
AcDbEntity
  8
0
100
AcDbLine
 62
7
  6
CONTINUOUS
 10
515.0898789939
 20
346.5846366573
 11
515.2773793515
 21
346.0101685066
  0
LINE
  5
4AA
100
AcDbEntity
  8
0
100
AcDbLine
 62
7
  6
CONTINUOUS
 10
500.1248800667
 20
362.3435726906
 11
500.3123793515
 21
361.5776153351
  0
LINE
  5
4AB
100
AcDbEntity
  8
0
100
AcDbLine
 62
7
  6
CONTINUOUS
 10
505.2123798283
 20
380.514849254
 11
505.4623788746
 21
379.49357278
  0
LINE
  5
4AC
100
AcDbEntity
  8
0
100
AcDbLine
 62
7
  6
CONTINUOUS
 10
498.9998800667
 20
362.3435726906
 11
499.1873793515
 21
361.3861259962
  0
LINE
  5
4AD
100
AcDbEntity
  8
0
100
AcDbLine
 62
7
  6
CONTINUOUS
 10
504.4023792621
 20
348.3080409754
 11
504.5898793515
 21
347.3505940128
  0
LINE
  5
4AE
100
AcDbEntity
  8
0
100
AcDbLine
 62
7
  6
CONTINUOUS
 10
506.1248786362
 20
366.9393176282
 11
506.3123800667
 21
365.9818703974
  0
LINE
  5
4AF
100
AcDbEntity
  8
0
100
AcDbLine
 62
7
  6
CONTINUOUS
 10
503.7123791131
 20
380.514849254
 11
503.9623795899
 21
379.2382536615
  0
LINE
  5
4B0
100
AcDbEntity
  8
0
100
AcDbLine
 62
7
  6
CONTINUOUS
 10
505.3398791727
 20
348.4995303143
 11
505.5273795303
 21
347.3505940128
  0
LINE
  5
4B1
100
AcDbEntity
  8
KONSTRUKTIONSELEMENTE
100
AcDbLine
 62
7
  6
CONTINUOUS
 10
498.8278988387
 20
431.7197430003
 11
498.8278988387
 21
431.9197430003
  0
LINE
  5
4B2
100
AcDbEntity
  8
0
100
AcDbLine
 62
7
  6
CONTINUOUS
 10
498.9998800667
 20
362.3435726906
 11
498.9998800667
 21
365.2159130419
  0
LINE
  5
4B3
100
AcDbEntity
  8
KONSTRUKTIONSELEMENTE
100
AcDbLine
 62
7
  6
CONTINUOUS
 10
499.2022871277
 20
431.7197430003
 11
499.2022871277
 21
431.9197430003
  0
LINE
  5
4B4
100
AcDbEntity
  8
KONSTRUKTIONSELEMENTE
100
AcDbLine
 62
7
  6
CONTINUOUS
 10
499.2908135796
 20
431.7197430003
 11
499.2908135796
 21
431.9197430003
  0
LINE
  5
4B5
100
AcDbEntity
  8
KONSTRUKTIONSELEMENTE
100
AcDbLine
 62
7
  6
CONTINUOUS
 10
499.9266102978
 20
431.7197430003
 11
499.9266102978
 21
431.9197430003
  0
LINE
  5
4B6
100
AcDbEntity
  8
0
100
AcDbLine
 62
7
  6
CONTINUOUS
 10
499.9623791131
 20
384.8552746261
 11
499.9623791131
 21
385.6212326968
  0
LINE
  5
4B7
100
AcDbEntity
  8
0
100
AcDbLine
 62
7
  6
CONTINUOUS
 10
500.1248800667
 20
362.3435726906
 11
500.1248800667
 21
365.2159130419
  0
LINE
  5
4B8
100
AcDbEntity
  8
0
100
AcDbLine
 62
7
  6
CONTINUOUS
 10
500.6523793515
 20
350.7974023808
 11
500.6523793515
 21
352.3293176282
  0
LINE
  5
4B9
100
AcDbEntity
  8
0
100
AcDbLine
 62
7
  6
CONTINUOUS
 10
501.4623791131
 20
384.5999555076
 11
501.4623791131
 21
385.6212326968
  0
LINE
  5
4BA
100
AcDbEntity
  8
0
100
AcDbLine
 62
7
  6
CONTINUOUS
 10
501.7773793515
 20
344.6697430003
 11
501.7773793515
 21
352.1378282893
  0
LINE
  5
4BB
100
AcDbEntity
  8
KONSTRUKTIONSELEMENTE
100
AcDbLine
 62
7
  6
CONTINUOUS
 10
502.0068812173
 20
431.7197430003
 11
502.0068812173
 21
431.9197430003
  0
LINE
  5
4BC
100
AcDbEntity
  8
KONSTRUKTIONSELEMENTE
100
AcDbLine
 62
7
  6
CONTINUOUS
 10
502.2364424682
 20
431.7197430003
 11
502.2364424682
 21
431.9197430003
  0
LINE
  5
4BD
100
AcDbEntity
  8
KONSTRUKTIONSELEMENTE
100
AcDbLine
 62
7
  6
CONTINUOUS
 10
502.2929322935
 20
431.7197430003
 11
502.2929322935
 21
431.9197430003
  0
LINE
  5
4BE
100
AcDbEntity
  8
0
100
AcDbLine
 62
7
  6
CONTINUOUS
 10
502.9023793515
 20
344.6697430003
 11
502.9023793515
 21
353.6697430003
  0
LINE
  5
4BF
100
AcDbEntity
  8
KONSTRUKTIONSELEMENTE
100
AcDbLine
 62
7
  6
CONTINUOUS
 10
503.3709457771
 20
431.7197430003
 11
503.3709457771
 21
431.9197430003
  0
LINE
  5
4C0
100
AcDbEntity
  8
KONSTRUKTIONSELEMENTE
100
AcDbLine
 62
7
  6
CONTINUOUS
 10
503.4241319001
 20
431.7197430003
 11
503.4241319001
 21
431.9197430003
  0
LINE
  5
4C1
100
AcDbEntity
  8
0
100
AcDbLine
 62
7
  6
CONTINUOUS
 10
503.4998800667
 20
363.1095303143
 11
503.4998800667
 21
364.2584663475
  0
LINE
  5
4C2
100
AcDbEntity
  8
KONSTRUKTIONSELEMENTE
100
AcDbLine
 62
7
  6
CONTINUOUS
 10
503.6858330622
 20
431.7197430003
 11
503.6858330622
 21
431.9197430003
  0
LINE
  5
4C3
100
AcDbEntity
  8
0
100
AcDbLine
 62
7
  6
CONTINUOUS
 10
503.7123791131
 20
380.514849254
 11
503.7123791131
 21
388.4297430003
  0
LINE
  5
4C4
100
AcDbEntity
  8
KONSTRUKTIONSELEMENTE
100
AcDbLine
 62
7
  6
CONTINUOUS
 10
504.0824343198
 20
431.7197430003
 11
504.0824343198
 21
431.9197430003
  0
LINE
  5
4C5
100
AcDbEntity
  8
0
100
AcDbLine
 62
7
  6
CONTINUOUS
 10
504.4023792621
 20
348.3080409754
 11
504.4023792621
 21
350.0314450253
  0
LINE
  5
4C6
100
AcDbEntity
  8
KONSTRUKTIONSELEMENTE
100
AcDbLine
 62
7
  6
CONTINUOUS
 10
504.6343644935
 20
431.7197430003
 11
504.6343644935
 21
431.9197430003
  0
LINE
  5
4C7
100
AcDbEntity
  8
0
100
AcDbLine
 62
7
  6
CONTINUOUS
 10
505.1873800667
 20
361.5776153351
 11
505.1873800667
 21
363.1095303143
  0
LINE
  5
4C8
100
AcDbEntity
  8
0
100
AcDbLine
 62
7
  6
CONTINUOUS
 10
505.2123798283
 20
380.514849254
 11
505.2123798283
 21
388.4297430003
  0
LINE
  5
4C9
100
AcDbEntity
  8
0
100
AcDbLine
 62
7
  6
CONTINUOUS
 10
505.3398791727
 20
348.4995303143
 11
505.3398791727
 21
349.8399556864
  0
LINE
  5
4CA
100
AcDbEntity
  8
0
100
AcDbLine
 62
7
  6
CONTINUOUS
 10
506.3123800667
 20
361.3861259962
 11
506.3123800667
 21
364.2584663475
  0
LINE
  5
4CB
100
AcDbEntity
  8
KONSTRUKTIONSELEMENTE
100
AcDbLine
 62
7
  6
CONTINUOUS
 10
507.3816855706
 20
431.7197430003
 11
507.3816855706
 21
431.9197430003
  0
LINE
  5
4CC
100
AcDbEntity
  8
0
100
AcDbLine
 62
7
  6
CONTINUOUS
 10
507.8123786362
 20
362.5350620294
 11
507.8123786362
 21
363.492508992
  0
LINE
  5
4CD
100
AcDbEntity
  8
KONSTRUKTIONSELEMENTE
100
AcDbLine
 62
7
  6
CONTINUOUS
 10
508.3418248624
 20
431.7197430003
 11
508.3418248624
 21
431.9197430003
  0
LINE
  5
4CE
100
AcDbEntity
  8
BEZUGSACHSEN
100
AcDbLine
 62
7
  6
CONTINUOUS
 10
508.3523793515
 20
406.2197430003
 11
508.3523793515
 21
428.8169600823
  0
LINE
  5
4CF
100
AcDbEntity
  8
0
100
AcDbLine
 62
7
  6
CONTINUOUS
 10
498.9998800667
 20
365.2159130419
 11
499.1873793515
 21
366.1733602727
  0
LINE
  5
4D0
100
AcDbEntity
  8
0
100
AcDbLine
 62
7
  6
CONTINUOUS
 10
499.7123793515
 20
384.0893172706
 11
499.9623791131
 21
384.8552746261
  0
LINE
  5
4D1
100
AcDbEntity
  8
0
100
AcDbLine
 62
7
  6
CONTINUOUS
 10
501.2123793515
 20
383.8339981521
 11
501.4623791131
 21
384.5999555076
  0
LINE
  5
4D2
100
AcDbEntity
  8
0
100
AcDbLine
 62
7
  6
CONTINUOUS
 10
473.3523793515
 20
405.7197430003
 11
543.3523793515
 21
405.7197430003
  0
LINE
  5
4D3
100
AcDbEntity
  8
KONSTRUKTIONSELEMENTE
100
AcDbLine
 62
7
  6
CONTINUOUS
 10
475.8523793515
 20
406.2197430003
 11
540.8523793515
 21
406.2197430003
  0
LINE
  5
4D4
100
AcDbEntity
  8
KONSTRUKTIONSELEMENTE
100
AcDbLine
 62
7
  6
CONTINUOUS
 10
459.5312267798
 20
437.3527218569
 11
459.9999767798
 21
437.0335729588
  0
LINE
  5
4D5
100
AcDbEntity
  8
KONSTRUKTIONSELEMENTE
100
AcDbLine
 62
7
  6
CONTINUOUS
 10
457.0312269288
 20
441.0867642555
 11
456.5624769288
 21
441.4059132654
  0
LINE
  5
4D6
100
AcDbEntity
  8
0
100
AcDbLine
 62
7
  6
CONTINUOUS
 10
542.687380782
 20
363.8754876698
 11
543.437377921
 21
363.1095303143
  0
LINE
  5
4D7
100
AcDbEntity
  8
0
100
AcDbLine
 62
7
  6
CONTINUOUS
 10
541.562380782
 20
366.9393176282
 11
541.9373793515
 21
366.5563389505
  0
LINE
  5
4D8
100
AcDbEntity
  8
0
100
AcDbLine
 62
7
  6
CONTINUOUS
 10
522.9623793515
 20
387.6637856448
 11
523.9623783978
 21
386.6425091708
  0
LINE
  5
4D9
100
AcDbEntity
  8
KONSTRUKTIONSELEMENTE
100
AcDbLine
 62
7
  6
CONTINUOUS
 10
459.5312267798
 20
456.262296306
 11
459.8437269288
 21
455.9431474078
  0
LINE
  5
4DA
100
AcDbEntity
  8
0
100
AcDbLine
 62
7
  6
CONTINUOUS
 10
529.937377921
 20
361.5776153351
 11
530.312380782
 21
361.0031473184
  0
LINE
  5
4DB
100
AcDbEntity
  8
0
100
AcDbLine
 62
7
  6
CONTINUOUS
 10
522.4623783978
 20
386.1318709338
 11
522.9623793515
 21
385.3659128631
  0
LINE
  5
4DC
100
AcDbEntity
  8
0
100
AcDbLine
 62
7
  6
CONTINUOUS
 10
537.062380782
 20
361.0031473184
 11
537.624880782
 21
360.0457004229
  0
LINE
  5
4DD
100
AcDbEntity
  8
RUNDUNGEN
100
AcDbLine
 62
7
  6
CONTINUOUS
 10
455.6166675257
 20
497.8013560716
 11
459.8924178319
 21
490.3955393008
  0
LINE
  5
4DE
100
AcDbEntity
  8
0
100
AcDbLine
 62
7
  6
CONTINUOUS
 10
528.812377921
 20
361.3861259962
 11
529.187380782
 21
360.6201685066
  0
LINE
  5
4DF
100
AcDbEntity
  8
0
100
AcDbLine
 62
7
  6
CONTINUOUS
 10
517.562377921
 20
366.7478282893
 11
517.7498793515
 21
366.1733602727
  0
LINE
  5
4E0
100
AcDbEntity
  8
0
100
AcDbLine
 62
7
  6
CONTINUOUS
 10
518.687377921
 20
366.7478282893
 11
518.8748793515
 21
366.1733602727
  0
LINE
  5
4E1
100
AcDbEntity
  8
0
100
AcDbLine
 62
7
  6
CONTINUOUS
 10
510.9648797091
 20
350.9888917196
 11
511.1523789939
 21
350.0314450253
  0
LINE
  5
4E2
100
AcDbEntity
  8
0
100
AcDbLine
 62
7
  6
CONTINUOUS
 10
510.0273789939
 20
350.9888917196
 11
510.2148793515
 21
349.8399556864
  0
LINE
  5
4E3
100
AcDbEntity
  8
0
100
AcDbLine
 62
7
  6
CONTINUOUS
 10
510.2148793515
 20
348.4995303143
 11
510.2148793515
 21
349.8399556864
  0
LINE
  5
4E4
100
AcDbEntity
  8
0
100
AcDbLine
 62
7
  6
CONTINUOUS
 10
510.4373793515
 20
362.5350620294
 11
510.4373793515
 21
363.492508992
  0
LINE
  5
4E5
100
AcDbEntity
  8
0
100
AcDbLine
 62
7
  6
CONTINUOUS
 10
511.1523789939
 20
348.3080409754
 11
511.1523789939
 21
350.0314450253
  0
LINE
  5
4E6
100
AcDbEntity
  8
0
100
AcDbLine
 62
7
  6
CONTINUOUS
 10
511.2123798283
 20
380.514849254
 11
511.2123798283
 21
388.4297430003
  0
LINE
  5
4E7
100
AcDbEntity
  8
0
100
AcDbLine
 62
7
  6
CONTINUOUS
 10
511.937377921
 20
359.2797430003
 11
511.937377921
 21
368.2797430003
  0
LINE
  5
4E8
100
AcDbEntity
  8
0
100
AcDbLine
 62
7
  6
CONTINUOUS
 10
512.6523797091
 20
350.0314450253
 11
512.6523797091
 21
350.7974023808
  0
LINE
  5
4E9
100
AcDbEntity
  8
0
100
AcDbLine
 62
7
  6
CONTINUOUS
 10
512.7123798283
 20
380.514849254
 11
512.7123798283
 21
388.4297430003
  0
LINE
  5
4EA
100
AcDbEntity
  8
0
100
AcDbLine
 62
7
  6
CONTINUOUS
 10
513.062377921
 20
359.2797430003
 11
513.062377921
 21
363.3010196531
  0
LINE
  5
4EB
100
AcDbEntity
  8
0
100
AcDbLine
 62
7
  6
CONTINUOUS
 10
513.062377921
 20
364.4499556864
 11
513.062377921
 21
367.322296306
  0
LINE
  5
4EC
100
AcDbEntity
  8
0
100
AcDbLine
 62
7
  6
CONTINUOUS
 10
514.1523793515
 20
346.2016578454
 11
514.1523793515
 21
350.0314450253
  0
LINE
  5
4ED
100
AcDbEntity
  8
0
100
AcDbLine
 62
7
  6
CONTINUOUS
 10
514.1523793515
 20
350.7974023808
 11
514.1523793515
 21
352.3293176282
  0
LINE
  5
4EE
100
AcDbEntity
  8
0
100
AcDbLine
 62
7
  6
CONTINUOUS
 10
514.7123793515
 20
376.4297430003
 11
514.7123793515
 21
388.4297430003
  0
LINE
  5
4EF
100
AcDbEntity
  8
0
100
AcDbLine
 62
7
  6
CONTINUOUS
 10
515.0898789939
 20
346.5846366573
 11
515.0898789939
 21
350.0314450253
  0
LINE
  5
4F0
100
AcDbEntity
  8
0
100
AcDbLine
 62
7
  6
CONTINUOUS
 10
515.0898789939
 20
350.7974023808
 11
515.0898789939
 21
352.3293176282
  0
LINE
  5
4F1
100
AcDbEntity
  8
0
100
AcDbLine
 62
7
  6
CONTINUOUS
 10
516.2123793515
 20
377.9616578901
 11
516.2123793515
 21
386.8978282893
  0
LINE
  5
4F2
100
AcDbEntity
  8
0
100
AcDbLine
 62
7
  6
CONTINUOUS
 10
516.7773789939
 20
344.6697430003
 11
516.7773789939
 21
345.4357004229
  0
LINE
  5
4F3
100
AcDbEntity
  8
0
100
AcDbLine
 62
7
  6
CONTINUOUS
 10
517.1523797091
 20
350.0314450253
 11
517.1523797091
 21
350.7974023808
  0
LINE
  5
4F4
100
AcDbEntity
  8
0
100
AcDbLine
 62
7
  6
CONTINUOUS
 10
517.7498793515
 20
365.5988917196
 11
517.7498793515
 21
366.1733602727
  0
LINE
  5
4F5
100
AcDbEntity
  8
0
100
AcDbLine
 62
7
  6
CONTINUOUS
 10
518.8748793515
 20
365.4074023808
 11
518.8748793515
 21
366.1733602727
  0
LINE
  5
4F6
100
AcDbEntity
  8
0
100
AcDbLine
 62
7
  6
CONTINUOUS
 10
520.374877921
 20
359.2797430003
 11
520.374877921
 21
368.2797430003
  0
LINE
  5
4F7
100
AcDbEntity
  8
0
100
AcDbLine
 62
7
  6
CONTINUOUS
 10
505.3398791727
 20
349.8399556864
 11
505.5273795303
 21
350.9888917196
  0
LINE
  5
4F8
100
AcDbEntity
  8
0
100
AcDbLine
 62
7
  6
CONTINUOUS
 10
510.0273789939
 20
347.3505940128
 11
510.2148793515
 21
348.4995303143
  0
LINE
  5
4F9
100
AcDbEntity
  8
0
100
AcDbLine
 62
7
  6
CONTINUOUS
 10
504.4023792621
 20
350.0314450253
 11
504.5898793515
 21
350.9888917196
  0
LINE
  5
4FA
100
AcDbEntity
  8
0
100
AcDbLine
 62
7
  6
CONTINUOUS
 10
512.4623793515
 20
379.2382536615
 11
512.7123798283
 21
380.514849254
  0
LINE
  5
4FB
100
AcDbEntity
  8
0
100
AcDbLine
 62
7
  6
CONTINUOUS
 10
500.1248800667
 20
365.2159130419
 11
500.3123793515
 21
365.9818703974
  0
LINE
  5
4FC
100
AcDbEntity
  8
0
100
AcDbLine
 62
7
  6
CONTINUOUS
 10
506.1248786362
 20
360.6201685066
 11
506.3123800667
 21
361.3861259962
  0
LINE
  5
4FD
100
AcDbEntity
  8
0
100
AcDbLine
 62
7
  6
CONTINUOUS
 10
510.9623793515
 20
379.49357278
 11
511.2123798283
 21
380.514849254
  0
LINE
  5
4FE
100
AcDbEntity
  8
0
100
AcDbLine
 62
7
  6
CONTINUOUS
 10
496.1873800667
 20
365.024423703
 11
496.3748793515
 21
365.5988917196
  0
LINE
  5
4FF
100
AcDbEntity
  8
0
100
AcDbLine
 62
7
  6
CONTINUOUS
 10
497.3123800667
 20
364.8329343641
 11
497.4998793515
 21
365.4074023808
  0
LINE
  5
500
100
AcDbEntity
  8
0
100
AcDbLine
 62
7
  6
CONTINUOUS
 10
496.1873800667
 20
361.0031473184
 11
496.3748793515
 21
361.5776153351
  0
LINE
  5
501
100
AcDbEntity
  8
0
100
AcDbLine
 62
7
  6
CONTINUOUS
 10
497.3123800667
 20
360.8116578454
 11
497.4998793515
 21
361.3861259962
  0
LINE
  5
502
100
AcDbEntity
  8
0
100
AcDbLine
 62
7
  6
CONTINUOUS
 10
504.9998786362
 20
361.0031473184
 11
505.1873800667
 21
361.5776153351
  0
LINE
  5
503
100
AcDbEntity
  8
0
100
AcDbLine
 62
7
  6
CONTINUOUS
 10
499.1873793515
 20
366.1733602727
 11
499.5623800667
 21
366.9393176282
  0
LINE
  5
504
100
AcDbEntity
  8
RUNDUNGEN
100
AcDbLine
 62
7
  6
CONTINUOUS
 10
561.0880911772
 20
497.8013560716
 11
556.8123408711
 21
490.3955393008
  0
LINE
  5
505
100
AcDbEntity
  8
0
100
AcDbLine
 62
7
  6
CONTINUOUS
 10
500.4623793515
 20
382.8127216781
 11
501.2123793515
 21
383.8339981521
  0
LINE
  5
506
100
AcDbEntity
  8
0
100
AcDbLine
 62
7
  6
CONTINUOUS
 10
499.2123791131
 20
383.5786790336
 11
499.7123793515
 21
384.0893172706
  0
LINE
  5
507
100
AcDbEntity
  8
KONSTRUKTIONSELEMENTE
100
AcDbLine
 62
7
  6
CONTINUOUS
 10
563.711278295
 20
416.4697430003
 11
554.9934804079
 21
416.4697430003
  0
LINE
  5
508
100
AcDbEntity
  8
0
100
AcDbLine
 62
7
  6
CONTINUOUS
 10
452.9934804079
 20
416.4697430003
 11
461.711278295
 21
416.4697430003
  0
LINE
  5
509
100
AcDbEntity
  8
KONSTRUKTIONSELEMENTE
100
AcDbLine
 62
7
  6
CONTINUOUS
 10
568.0126333893
 20
418.7197430003
 11
563.711278295
 21
418.7197430003
  0
LINE
  5
50A
100
AcDbEntity
  8
KONSTRUKTIONSELEMENTE
100
AcDbLine
 62
7
  6
CONTINUOUS
 10
554.9934804079
 20
418.7197430003
 11
550.929067918
 21
418.7197430003
  0
LINE
  5
50B
100
AcDbEntity
  8
0
100
AcDbLine
 62
7
  6
CONTINUOUS
 10
448.6921253136
 20
418.7197430003
 11
452.9934804079
 21
418.7197430003
  0
LINE
  5
50C
100
AcDbEntity
  8
0
100
AcDbLine
 62
7
  6
CONTINUOUS
 10
461.711278295
 20
418.7197430003
 11
465.775690785
 21
418.7197430003
  0
LINE
  5
50D
100
AcDbEntity
  8
KONSTRUKTIONSELEMENTE
100
AcDbLine
 62
7
  6
CONTINUOUS
 10
460.3124769288
 20
437.9910196531
 11
459.6874770778
 21
438.3101685513
  0
LINE
  5
50E
100
AcDbEntity
  8
KONSTRUKTIONSELEMENTE
100
AcDbLine
 62
7
  6
CONTINUOUS
 10
456.2499768915
 20
440.4484664034
 11
456.874976966
 21
440.1293174634
  0
LINE
  5
50F
100
AcDbEntity
  8
KONSTRUKTIONSELEMENTE
100
AcDbLine
 62
7
  6
CONTINUOUS
 10
460.3124769288
 20
456.5814452041
 11
459.6874770778
 21
457.0601685513
  0
LINE
  5
510
100
AcDbEntity
  8
0
100
AcDbLine
 62
7
  6
CONTINUOUS
 10
542.4998793515
 20
367.5137856448
 11
543.0623793515
 21
366.7478282893
  0
LINE
  5
511
100
AcDbEntity
  8
0
100
AcDbLine
 62
7
  6
CONTINUOUS
 10
542.312377921
 20
362.7265516365
 11
542.687380782
 21
362.1520833517
  0
LINE
  5
512
100
AcDbEntity
  8
0
100
AcDbLine
 62
7
  6
CONTINUOUS
 10
523.9623783978
 20
386.6425091708
 11
524.4623793515
 21
385.6212326968
  0
LINE
  5
513
100
AcDbEntity
  8
0
100
AcDbLine
 62
7
  6
CONTINUOUS
 10
543.437377921
 20
363.1095303143
 11
543.812380782
 21
362.3435726906
  0
LINE
  5
514
100
AcDbEntity
  8
0
100
AcDbLine
 62
7
  6
CONTINUOUS
 10
541.9373793515
 20
366.5563389505
 11
542.124880782
 21
366.1733602727
  0
LINE
  5
515
100
AcDbEntity
  8
0
100
AcDbLine
 62
7
  6
CONTINUOUS
 10
522.9623793515
 20
385.3659128631
 11
523.2123783978
 21
384.3446363891
  0
LINE
  5
516
100
AcDbEntity
  8
0
100
AcDbLine
 62
7
  6
CONTINUOUS
 10
529.749880782
 20
362.3435726906
 11
529.937377921
 21
361.5776153351
  0
LINE
  5
517
100
AcDbEntity
  8
0
100
AcDbLine
 62
7
  6
CONTINUOUS
 10
528.624880782
 20
362.3435726906
 11
528.812377921
 21
361.3861259962
  0
LINE
  5
518
100
AcDbEntity
  8
0
100
AcDbLine
 62
7
  6
CONTINUOUS
 10
524.4623793515
 20
385.6212326968
 11
524.7123783978
 21
384.3446363891
  0
LINE
  5
519
100
AcDbEntity
  8
0
100
AcDbLine
 62
7
  6
CONTINUOUS
 10
521.499877921
 20
360.4286791677
 11
521.499877921
 21
368.2797430003
  0
LINE
  5
51A
100
AcDbEntity
  8
0
100
AcDbLine
 62
7
  6
CONTINUOUS
 10
523.2123783978
 20
380.514849254
 11
523.2123783978
 21
384.3446363891
  0
LINE
  5
51B
100
AcDbEntity
  8
0
100
AcDbLine
 62
7
  6
CONTINUOUS
 10
524.7123783978
 20
380.514849254
 11
524.7123783978
 21
384.3446363891
  0
LINE
  5
51C
100
AcDbEntity
  8
0
100
AcDbLine
 62
7
  6
CONTINUOUS
 10
527.124877921
 20
359.2797430003
 11
527.124877921
 21
360.4286791677
  0
LINE
  5
51D
100
AcDbEntity
  8
0
100
AcDbLine
 62
7
  6
CONTINUOUS
 10
528.624880782
 20
362.3435726906
 11
528.624880782
 21
368.2797430003
  0
LINE
  5
51E
100
AcDbEntity
  8
BEZUGSACHSEN
100
AcDbLine
 62
7
  6
CONTINUOUS
 10
529.3523793515
 20
259.7197430003
 11
529.3523793515
 21
328.7197430003
  0
LINE
  5
51F
100
AcDbEntity
  8
0
100
AcDbLine
 62
7
  6
CONTINUOUS
 10
529.749880782
 20
362.3435726906
 11
529.749880782
 21
368.2797430003
  0
LINE
  5
520
100
AcDbEntity
  8
0
100
AcDbLine
 62
7
  6
CONTINUOUS
 10
510.9648797091
 20
347.3505940128
 11
511.1523789939
 21
348.3080409754
  0
LINE
  5
521
100
AcDbEntity
  8
0
100
AcDbLine
 62
7
  6
CONTINUOUS
 10
524.4623793515
 20
379.2382536615
 11
524.7123783978
 21
380.514849254
  0
LINE
  5
522
100
AcDbEntity
  8
0
100
AcDbLine
 62
7
  6
CONTINUOUS
 10
522.9623793515
 20
379.49357278
 11
523.2123783978
 21
380.514849254
  0
LINE
  5
523
100
AcDbEntity
  8
0
100
AcDbLine
 62
7
  6
CONTINUOUS
 10
504.5898793515
 20
350.9888917196
 11
504.7773794409
 21
351.5633602727
  0
LINE
  5
524
100
AcDbEntity
  8
0
100
AcDbLine
 62
7
  6
CONTINUOUS
 10
510.7773793515
 20
346.7761259962
 11
510.9648797091
 21
347.3505940128
  0
LINE
  5
525
100
AcDbEntity
  8
0
100
AcDbLine
 62
7
  6
CONTINUOUS
 10
517.562377921
 20
365.024423703
 11
517.7498793515
 21
365.5988917196
  0
LINE
  5
526
100
AcDbEntity
  8
0
100
AcDbLine
 62
7
  6
CONTINUOUS
 10
518.687377921
 20
364.8329343641
 11
518.8748793515
 21
365.4074023808
  0
LINE
  5
527
100
AcDbEntity
  8
0
100
AcDbLine
 62
7
  6
CONTINUOUS
 10
511.9623798283
 20
378.2169770086
 11
512.4623793515
 21
379.2382536615
  0
LINE
  5
528
100
AcDbEntity
  8
0
100
AcDbLine
 62
7
  6
CONTINUOUS
 10
504.7773794409
 20
351.5633602727
 11
505.1523793515
 21
352.3293176282
  0
LINE
  5
529
100
AcDbEntity
  8
0
100
AcDbLine
 62
7
  6
CONTINUOUS
 10
500.3123793515
 20
365.9818703974
 11
500.6873800667
 21
366.5563389505
  0
LINE
  5
52A
100
AcDbEntity
  8
0
100
AcDbLine
 62
7
  6
CONTINUOUS
 10
510.4623798283
 20
378.7276154245
 11
510.9623793515
 21
379.49357278
  0
LINE
  5
52B
100
AcDbEntity
  8
0
100
AcDbLine
 62
7
  6
CONTINUOUS
 10
496.7498800667
 20
364.0669770086
 11
497.3123800667
 21
364.8329343641
  0
LINE
  5
52C
100
AcDbEntity
  8
0
100
AcDbLine
 62
7
  6
CONTINUOUS
 10
496.7498800667
 20
360.0457004229
 11
497.3123800667
 21
360.8116578454
  0
LINE
  5
52D
100
AcDbEntity
  8
0
100
AcDbLine
 62
7
  6
CONTINUOUS
 10
495.8123793515
 20
364.6414450253
 11
496.1873800667
 21
365.024423703
  0
LINE
  5
52E
100
AcDbEntity
  8
0
100
AcDbLine
 62
7
  6
CONTINUOUS
 10
499.5623800667
 20
366.9393176282
 11
500.3123793515
 21
367.7052749837
  0
LINE
  5
52F
100
AcDbEntity
  8
0
100
AcDbLine
 62
7
  6
CONTINUOUS
 10
499.4623795899
 20
382.3020834411
 11
500.4623793515
 21
382.8127216781
  0
LINE
  5
530
100
AcDbEntity
  8
0
100
AcDbLine
 62
7
  6
CONTINUOUS
 10
498.4623791131
 20
383.3233599151
 11
499.2123791131
 21
383.5786790336
  0
LINE
  5
531
100
AcDbEntity
  8
KONSTRUKTIONSELEMENTE
100
AcDbLine
 62
7
  6
CONTINUOUS
 10
455.1562269288
 20
430.9697430003
 11
458.9062269288
 21
430.9697430003
  0
LINE
  5
532
100
AcDbEntity
  8
BEZUGSACHSEN
100
AcDbLine
 62
7
  6
CONTINUOUS
 10
475.8523793515
 20
431.7197430003
 11
540.8523793515
 21
431.7197430003
  0
LINE
  5
533
100
AcDbEntity
  8
KONSTRUKTIONSELEMENTE
100
AcDbLine
 62
7
  6
CONTINUOUS
 10
482.239661527
 20
431.9197430003
 11
502.2929322935
 21
431.9197430003
  0
LINE
  5
534
100
AcDbEntity
  8
KONSTRUKTIONSELEMENTE
100
AcDbLine
 62
7
  6
CONTINUOUS
 10
503.3709457771
 20
431.9197430003
 11
508.3418248624
 21
431.9197430003
  0
LINE
  5
535
100
AcDbEntity
  8
KONSTRUKTIONSELEMENTE
100
AcDbLine
 62
7
  6
CONTINUOUS
 10
458.9062269288
 20
431.9271898065
 11
456.0937269288
 21
431.9271898065
  0
LINE
  5
536
100
AcDbEntity
  8
KONSTRUKTIONSELEMENTE
100
AcDbLine
 62
7
  6
CONTINUOUS
 10
459.6874770778
 20
438.3101685513
 11
458.9062269288
 21
438.4697430003
  0
LINE
  5
537
100
AcDbEntity
  8
KONSTRUKTIONSELEMENTE
100
AcDbLine
 62
7
  6
CONTINUOUS
 10
456.874976966
 20
440.1293174634
 11
457.6562270033
 21
439.9697430003
  0
LINE
  5
538
100
AcDbEntity
  8
KONSTRUKTIONSELEMENTE
100
AcDbLine
 62
7
  6
CONTINUOUS
 10
458.9062269288
 20
437.512296306
 11
459.5312267798
 21
437.3527218569
  0
LINE
  5
539
100
AcDbEntity
  8
KONSTRUKTIONSELEMENTE
100
AcDbLine
 62
7
  6
CONTINUOUS
 10
457.6562270033
 20
440.9271898065
 11
457.0312269288
 21
441.0867642555
  0
LINE
  5
53A
100
AcDbEntity
  8
0
100
AcDbLine
 62
7
  6
CONTINUOUS
 10
537.9998793515
 20
361.7691046739
 11
538.187380782
 21
361.1946366573
  0
LINE
  5
53B
100
AcDbEntity
  8
0
100
AcDbLine
 62
7
  6
CONTINUOUS
 10
538.5623793515
 20
365.5988917196
 11
538.749880782
 21
365.024423703
  0
LINE
  5
53C
100
AcDbEntity
  8
0
100
AcDbLine
 62
7
  6
CONTINUOUS
 10
543.0623793515
 20
366.7478282893
 11
543.249880782
 21
366.1733602727
  0
LINE
  5
53D
100
AcDbEntity
  8
0
100
AcDbLine
 62
7
  6
CONTINUOUS
 10
536.8748793515
 20
361.7691046739
 11
537.062380782
 21
361.0031473184
  0
LINE
  5
53E
100
AcDbEntity
  8
0
100
AcDbLine
 62
7
  6
CONTINUOUS
 10
537.4373793515
 20
365.4074023808
 11
537.624880782
 21
364.6414450253
  0
LINE
  5
53F
100
AcDbEntity
  8
0
100
AcDbLine
 62
7
  6
CONTINUOUS
 10
534.249880782
 20
362.3435726906
 11
534.249880782
 21
368.2797430003
  0
LINE
  5
540
100
AcDbEntity
  8
0
100
AcDbLine
 62
7
  6
CONTINUOUS
 10
535.374880782
 20
362.3435726906
 11
535.374880782
 21
368.2797430003
  0
LINE
  5
541
100
AcDbEntity
  8
0
100
AcDbLine
 62
7
  6
CONTINUOUS
 10
536.8523793515
 20
397.4697430003
 11
536.8523793515
 21
397.2197430003
  0
LINE
  5
542
100
AcDbEntity
  8
0
100
AcDbLine
 62
7
  6
CONTINUOUS
 10
536.8523793515
 20
337.2197430003
 11
536.8523793515
 21
336.9697430003
  0
LINE
  5
543
100
AcDbEntity
  8
0
100
AcDbLine
 62
7
  6
CONTINUOUS
 10
537.4373793515
 20
365.4074023808
 11
537.4373793515
 21
366.1733602727
  0
LINE
  5
544
100
AcDbEntity
  8
BEZUGSACHSEN
100
AcDbLine
 62
7
  6
CONTINUOUS
 10
538.3023793515
 20
405.7197430003
 11
538.3023793515
 21
406.2197430003
  0
LINE
  5
545
100
AcDbEntity
  8
0
100
AcDbLine
 62
7
  6
CONTINUOUS
 10
538.5623793515
 20
365.5988917196
 11
538.5623793515
 21
365.9818703974
  0
LINE
  5
546
100
AcDbEntity
  8
BEZUGSACHSEN
100
AcDbLine
 62
7
  6
CONTINUOUS
 10
540.8523793515
 20
406.2197430003
 11
540.8523793515
 21
431.7197430005
  0
LINE
  5
547
100
AcDbEntity
  8
0
100
AcDbLine
 62
7
  6
CONTINUOUS
 10
542.687380782
 20
361.5776153351
 11
542.687380782
 21
362.1520833517
  0
LINE
  5
548
100
AcDbEntity
  8
0
100
AcDbLine
 62
7
  6
CONTINUOUS
 10
543.3523793515
 20
405.7197430003
 11
543.3523793515
 21
397.4697430003
  0
LINE
  5
549
100
AcDbEntity
  8
0
100
AcDbLine
 62
7
  6
CONTINUOUS
 10
543.3523793515
 20
336.9697430003
 11
543.3523793515
 21
328.7197430003
  0
LINE
  5
54A
100
AcDbEntity
  8
0
100
AcDbLine
 62
7
  6
CONTINUOUS
 10
543.812380782
 20
361.3861259962
 11
543.812380782
 21
362.3435726906
  0
LINE
  5
54B
100
AcDbEntity
  8
0
100
AcDbLine
 62
7
  6
CONTINUOUS
 10
535.1873793515
 20
361.3861259962
 11
535.374880782
 21
362.3435726906
  0
LINE
  5
54C
100
AcDbEntity
  8
0
100
AcDbLine
 62
7
  6
CONTINUOUS
 10
523.9623783978
 20
378.2169770086
 11
524.4623793515
 21
379.2382536615
  0
LINE
  5
54D
100
AcDbEntity
  8
0
100
AcDbLine
 62
7
  6
CONTINUOUS
 10
510.4023797091
 20
346.0101685066
 11
510.7773793515
 21
346.7761259962
  0
LINE
  5
54E
100
AcDbEntity
  8
0
100
AcDbLine
 62
7
  6
CONTINUOUS
 10
522.4623783978
 20
378.7276154245
 11
522.9623793515
 21
379.49357278
  0
LINE
  5
54F
100
AcDbEntity
  8
0
100
AcDbLine
 62
7
  6
CONTINUOUS
 10
505.5273795303
 20
350.9888917196
 11
506.2773793515
 21
352.1378282893
  0
LINE
  5
550
100
AcDbEntity
  8
0
100
AcDbLine
 62
7
  6
CONTINUOUS
 10
509.2773791727
 20
346.2016578454
 11
510.0273789939
 21
347.3505940128
  0
LINE
  5
551
100
AcDbEntity
  8
0
100
AcDbLine
 62
7
  6
CONTINUOUS
 10
518.124877921
 20
364.0669770086
 11
518.687377921
 21
364.8329343641
  0
LINE
  5
552
100
AcDbEntity
  8
0
100
AcDbLine
 62
7
  6
CONTINUOUS
 10
500.6523793515
 20
352.3293176282
 11
501.7773793515
 21
353.6697430003
  0
LINE
  5
553
100
AcDbEntity
  8
0
100
AcDbLine
 62
7
  6
CONTINUOUS
 10
500.6523793515
 20
350.7974023808
 11
501.7773793515
 21
352.1378282893
  0
LINE
  5
554
100
AcDbEntity
  8
0
100
AcDbLine
 62
7
  6
CONTINUOUS
 10
510.9623793515
 20
377.1957004452
 11
511.9623798283
 21
378.2169770086
  0
LINE
  5
555
100
AcDbEntity
  8
0
100
AcDbLine
 62
7
  6
CONTINUOUS
 10
495.8123793515
 20
360.6201685066
 11
496.1873800667
 21
361.0031473184
  0
LINE
  5
556
100
AcDbEntity
  8
0
100
AcDbLine
 62
7
  6
CONTINUOUS
 10
505.3748793515
 20
359.854211084
 11
506.1248786362
 21
360.6201685066
  0
LINE
  5
557
100
AcDbEntity
  8
0
100
AcDbLine
 62
7
  6
CONTINUOUS
 10
522.9623793515
 20
377.1957004452
 11
523.9623783978
 21
378.2169770086
  0
LINE
  5
558
100
AcDbEntity
  8
0
100
AcDbLine
 62
7
  6
CONTINUOUS
 10
495.9998786362
 20
359.471232356
 11
496.7498800667
 21
360.0457004229
  0
LINE
  5
559
100
AcDbEntity
  8
0
100
AcDbLine
 62
7
  6
CONTINUOUS
 10
509.7123798283
 20
378.2169770086
 11
510.4623798283
 21
378.7276154245
  0
LINE
  5
55A
100
AcDbEntity
  8
0
100
AcDbLine
 62
7
  6
CONTINUOUS
 10
500.6873800667
 20
366.5563389505
 11
501.2498800667
 21
366.9393176282
  0
LINE
  5
55B
100
AcDbEntity
  8
0
100
AcDbLine
 62
7
  6
CONTINUOUS
 10
521.7123783978
 20
378.2169770086
 11
522.4623783978
 21
378.7276154245
  0
LINE
  5
55C
100
AcDbEntity
  8
0
100
AcDbLine
 62
7
  6
CONTINUOUS
 10
509.9623788746
 20
376.6850621412
 11
510.9623793515
 21
377.1957004452
  0
LINE
  5
55D
100
AcDbEntity
  8
0
100
AcDbLine
 62
7
  6
CONTINUOUS
 10
500.3123793515
 20
367.7052749837
 11
501.0623786362
 21
368.0882536615
  0
LINE
  5
55E
100
AcDbEntity
  8
0
100
AcDbLine
 62
7
  6
CONTINUOUS
 10
496.3748793515
 20
363.8754876698
 11
496.7498800667
 21
364.0669770086
  0
LINE
  5
55F
100
AcDbEntity
  8
0
100
AcDbLine
 62
7
  6
CONTINUOUS
 10
521.9623803052
 20
376.6850621412
 11
522.9623793515
 21
377.1957004452
  0
LINE
  5
560
100
AcDbEntity
  8
KONSTRUKTIONSELEMENTE
100
AcDbLine
 62
7
  6
CONTINUOUS
 10
459.5312267798
 20
432.0867642555
 11
458.9062269288
 21
431.9271898065
  0
LINE
  5
561
100
AcDbEntity
  8
KONSTRUKTIONSELEMENTE
100
AcDbLine
 62
7
  6
CONTINUOUS
 10
458.9062269288
 20
430.9697430003
 11
459.6874770778
 21
431.1293174634
  0
LINE
  5
562
100
AcDbEntity
  8
KONSTRUKTIONSELEMENTE
100
AcDbLine
 62
7
  6
CONTINUOUS
 10
456.0937269288
 20
437.512296306
 11
458.9062269288
 21
437.512296306
  0
LINE
  5
563
100
AcDbEntity
  8
KONSTRUKTIONSELEMENTE
100
AcDbLine
 62
7
  6
CONTINUOUS
 10
458.9062269288
 20
438.4697430003
 11
455.1562269288
 21
438.4697430003
  0
LINE
  5
564
100
AcDbEntity
  8
KONSTRUKTIONSELEMENTE
100
AcDbLine
 62
7
  6
CONTINUOUS
 10
457.6562270033
 20
439.9697430003
 11
458.2812268543
 21
439.9697430003
  0
LINE
  5
565
100
AcDbEntity
  8
KONSTRUKTIONSELEMENTE
100
AcDbLine
 62
7
  6
CONTINUOUS
 10
458.2812268543
 20
440.9271898065
 11
457.6562270033
 21
440.9271898065
  0
LINE
  5
566
100
AcDbEntity
  8
KONSTRUKTIONSELEMENTE
100
AcDbLine
 62
7
  6
CONTINUOUS
 10
459.0624767798
 20
456.421870755
 11
459.5312267798
 21
456.262296306
  0
LINE
  5
567
100
AcDbEntity
  8
KONSTRUKTIONSELEMENTE
100
AcDbLine
 62
7
  6
CONTINUOUS
 10
549.3523793515
 20
503.2967864656
 11
549.304869968
 21
504.270403705
  0
LINE
  5
568
100
AcDbEntity
  8
RUNDUNGEN
100
AcDbLine
 62
7
  6
CONTINUOUS
 10
546.8523793515
 20
341.7197430003
 11
546.8523793515
 21
392.7197430003
  0
LINE
  5
569
100
AcDbEntity
  8
0
100
AcDbLine
 62
7
  6
CONTINUOUS
 10
549.3523793515
 20
389.9697430003
 11
549.3523793515
 21
503.2967864656
  0
LINE
  5
56A
100
AcDbEntity
  8
KONSTRUKTIONSELEMENTE
100
AcDbLine
 62
7
  6
CONTINUOUS
 10
553.0135313838
 20
468.7197430003
 11
553.0135313838
 21
418.7197430003
  0
LINE
  5
56B
100
AcDbEntity
  8
KONSTRUKTIONSELEMENTE
100
AcDbLine
 62
7
  6
CONTINUOUS
 10
554.9934804079
 20
470.9697430003
 11
554.9934804079
 21
468.7197430003
  0
LINE
  5
56C
100
AcDbEntity
  8
KONSTRUKTIONSELEMENTE
100
AcDbLine
 62
7
  6
CONTINUOUS
 10
554.9934804079
 20
418.7197430003
 11
554.9934804079
 21
416.4697430003
  0
LINE
  5
56D
100
AcDbEntity
  8
0
100
AcDbLine
 62
7
  6
CONTINUOUS
 10
534.0623793515
 20
361.5776153351
 11
534.249880782
 21
362.3435726906
  0
LINE
  5
56E
100
AcDbEntity
  8
0
100
AcDbLine
 62
7
  6
CONTINUOUS
 10
537.4373793515
 20
366.1733602727
 11
537.624880782
 21
366.9393176282
  0
LINE
  5
56F
100
AcDbEntity
  8
0
100
AcDbLine
 62
7
  6
CONTINUOUS
 10
538.5623793515
 20
365.9818703974
 11
538.749880782
 21
366.5563389505
  0
LINE
  5
570
100
AcDbEntity
  8
0
100
AcDbLine
 62
7
  6
CONTINUOUS
 10
534.812380782
 20
360.6201685066
 11
535.1873793515
 21
361.3861259962
  0
LINE
  5
571
100
AcDbEntity
  8
0
100
AcDbLine
 62
7
  6
CONTINUOUS
 10
517.1873793515
 20
364.6414450253
 11
517.562377921
 21
365.024423703
  0
LINE
  5
572
100
AcDbEntity
  8
0
100
AcDbLine
 62
7
  6
CONTINUOUS
 10
505.1523793515
 20
352.3293176282
 11
505.7148793515
 21
352.9037856448
  0
LINE
  5
573
100
AcDbEntity
  8
0
100
AcDbLine
 62
7
  6
CONTINUOUS
 10
509.8398797091
 20
345.4357004229
 11
510.4023797091
 21
346.0101685066
  0
LINE
  5
574
100
AcDbEntity
  8
0
100
AcDbLine
 62
7
  6
CONTINUOUS
 10
517.374880782
 20
363.492508992
 11
518.124877921
 21
364.0669770086
  0
LINE
  5
575
100
AcDbEntity
  8
0
100
AcDbLine
 62
7
  6
CONTINUOUS
 10
504.4373786362
 20
360.6201685066
 11
504.9998786362
 21
361.0031473184
  0
LINE
  5
576
100
AcDbEntity
  8
0
100
AcDbLine
 62
7
  6
CONTINUOUS
 10
506.2773793515
 20
352.1378282893
 11
506.8398793515
 21
352.5208069671
  0
LINE
  5
577
100
AcDbEntity
  8
0
100
AcDbLine
 62
7
  6
CONTINUOUS
 10
505.7148793515
 20
352.9037856448
 11
506.6523795303
 21
353.4782536615
  0
LINE
  5
578
100
AcDbEntity
  8
0
100
AcDbLine
 62
7
  6
CONTINUOUS
 10
504.6248800667
 20
359.471232356
 11
505.3748793515
 21
359.854211084
  0
LINE
  5
579
100
AcDbEntity
  8
0
100
AcDbLine
 62
7
  6
CONTINUOUS
 10
495.2498793515
 20
364.4499556864
 11
495.8123793515
 21
364.6414450253
  0
LINE
  5
57A
100
AcDbEntity
  8
0
100
AcDbLine
 62
7
  6
CONTINUOUS
 10
495.2498793515
 20
360.4286791677
 11
495.8123793515
 21
360.6201685066
  0
LINE
  5
57B
100
AcDbEntity
  8
0
100
AcDbLine
 62
7
  6
CONTINUOUS
 10
516.6248793515
 20
364.4499556864
 11
517.1873793515
 21
364.6414450253
  0
LINE
  5
57C
100
AcDbEntity
  8
KONSTRUKTIONSELEMENTE
100
AcDbLine
 62
7
  6
CONTINUOUS
 10
458.9062269288
 20
441.0867642555
 11
458.2812268543
 21
440.9271898065
  0
LINE
  5
57D
100
AcDbEntity
  8
KONSTRUKTIONSELEMENTE
100
AcDbLine
 62
7
  6
CONTINUOUS
 10
458.2812268543
 20
439.9697430003
 11
459.0624767798
 21
440.1293174634
  0
LINE
  5
57E
100
AcDbEntity
  8
KONSTRUKTIONSELEMENTE
100
AcDbLine
 62
7
  6
CONTINUOUS
 10
460.7812269288
 20
447.4697430003
 11
459.8437269288
 21
447.4697430003
  0
LINE
  5
57F
100
AcDbEntity
  8
KONSTRUKTIONSELEMENTE
100
AcDbLine
 62
7
  6
CONTINUOUS
 10
456.0937269288
 20
447.4697430003
 11
455.1562269288
 21
447.4697430003
  0
LINE
  5
580
100
AcDbEntity
  8
KONSTRUKTIONSELEMENTE
100
AcDbLine
 62
7
  6
CONTINUOUS
 10
455.1562269288
 20
449.7197430003
 11
456.0937269288
 21
449.7197430003
  0
LINE
  5
581
100
AcDbEntity
  8
KONSTRUKTIONSELEMENTE
100
AcDbLine
 62
7
  6
CONTINUOUS
 10
459.9999767798
 20
449.7197430003
 11
461.0937270778
 21
449.7197430003
  0
LINE
  5
582
100
AcDbEntity
  8
KONSTRUKTIONSELEMENTE
100
AcDbLine
 62
7
  6
CONTINUOUS
 10
456.0937269288
 20
453.0708068777
 11
458.7499768543
 21
453.0708068777
  0
LINE
  5
583
100
AcDbEntity
  8
KONSTRUKTIONSELEMENTE
100
AcDbLine
 62
7
  6
CONTINUOUS
 10
459.0624767798
 20
454.0282535721
 11
456.0937269288
 21
454.0282535721
  0
LINE
  5
584
100
AcDbEntity
  8
0
100
AcDbLine
 62
7
  6
CONTINUOUS
 10
564.4011027826
 20
454.1834037776
 11
562.8902672122
 21
454.1834037776
  0
LINE
  5
585
100
AcDbEntity
  8
0
100
AcDbLine
 62
7
  6
CONTINUOUS
 10
555.9620639819
 20
454.1834037776
 11
554.4512284115
 21
454.1834037776
  0
LINE
  5
586
100
AcDbEntity
  8
KONSTRUKTIONSELEMENTE
100
AcDbLine
 62
7
  6
CONTINUOUS
 10
456.0937269288
 20
456.421870755
 11
459.0624767798
 21
456.421870755
  0
LINE
  5
587
100
AcDbEntity
  8
KONSTRUKTIONSELEMENTE
100
AcDbLine
 62
7
  6
CONTINUOUS
 10
459.6874770778
 20
457.0601685513
 11
458.9062269288
 21
457.2197430003
  0
LINE
  5
588
100
AcDbEntity
  8
0
100
AcDbLine
 62
7
  6
CONTINUOUS
 10
564.425524211
 20
453.6238230301
 11
564.4011027826
 21
454.1834037776
  0
LINE
  5
589
100
AcDbEntity
  8
0
100
AcDbLine
 62
7
  6
CONTINUOUS
 10
564.425524211
 20
462.1238230301
 11
564.4011027826
 21
462.6834037776
  0
LINE
  5
58A
100
AcDbEntity
  8
0
100
AcDbLine
 62
7
  6
CONTINUOUS
 10
558.6653300267
 20
461.6834037776
 11
558.6653300267
 21
458.7671003317
  0
LINE
  5
58B
100
AcDbEntity
  8
0
100
AcDbLine
 62
7
  6
CONTINUOUS
 10
560.1761655971
 20
458.7647051948
 11
560.1761655971
 21
461.6834037776
  0
LINE
  5
58C
100
AcDbEntity
  8
KONSTRUKTIONSELEMENTE
100
AcDbLine
 62
7
  6
CONTINUOUS
 10
563.711278295
 20
470.9697430003
 11
563.711278295
 21
468.7197430003
  0
LINE
  5
58D
100
AcDbEntity
  8
KONSTRUKTIONSELEMENTE
100
AcDbLine
 62
7
  6
CONTINUOUS
 10
563.711278295
 20
418.7197430003
 11
563.711278295
 21
416.4697430003
  0
LINE
  5
58E
100
AcDbEntity
  8
RUNDUNGEN
100
AcDbLine
 62
7
  6
CONTINUOUS
 10
565.3523793515
 20
505.6603154215
 11
565.3523793515
 21
472.6037587752
  0
LINE
  5
58F
100
AcDbEntity
  8
KONSTRUKTIONSELEMENTE
100
AcDbLine
 62
7
  6
CONTINUOUS
 10
565.7032323126
 20
468.7197430003
 11
565.7032323126
 21
418.7197430003
  0
LINE
  5
590
100
AcDbEntity
  8
0
100
AcDbLine
 62
7
  6
CONTINUOUS
 10
543.437377921
 20
360.6201685066
 11
543.812380782
 21
361.3861259962
  0
LINE
  5
591
100
AcDbEntity
  8
0
100
AcDbLine
 62
7
  6
CONTINUOUS
 10
533.687380782
 20
361.0031473184
 11
534.0623793515
 21
361.5776153351
  0
LINE
  5
592
100
AcDbEntity
  8
0
100
AcDbLine
 62
7
  6
CONTINUOUS
 10
542.312377921
 20
361.0031473184
 11
542.687380782
 21
361.5776153351
  0
LINE
  5
593
100
AcDbEntity
  8
0
100
AcDbLine
 62
7
  6
CONTINUOUS
 10
537.624880782
 20
366.9393176282
 11
538.374877921
 21
367.7052749837
  0
LINE
  5
594
100
AcDbEntity
  8
0
100
AcDbLine
 62
7
  6
CONTINUOUS
 10
534.0623793515
 20
359.854211084
 11
534.812380782
 21
360.6201685066
  0
LINE
  5
595
100
AcDbEntity
  8
0
100
AcDbLine
 62
7
  6
CONTINUOUS
 10
538.749880782
 20
366.5563389505
 11
539.312380782
 21
366.9393176282
  0
LINE
  5
596
100
AcDbEntity
  8
0
100
AcDbLine
 62
7
  6
CONTINUOUS
 10
508.7148791727
 20
345.8186791677
 11
509.2773791727
 21
346.2016578454
  0
LINE
  5
597
100
AcDbEntity
  8
0
100
AcDbLine
 62
7
  6
CONTINUOUS
 10
533.124880782
 20
360.6201685066
 11
533.687380782
 21
361.0031473184
  0
LINE
  5
598
100
AcDbEntity
  8
0
100
AcDbLine
 62
7
  6
CONTINUOUS
 10
508.9023795303
 20
344.861232356
 11
509.8398797091
 21
345.4357004229
  0
LINE
  5
599
100
AcDbEntity
  8
0
100
AcDbLine
 62
7
  6
CONTINUOUS
 10
538.374877921
 20
367.7052749837
 11
539.1248793515
 21
368.0882536615
  0
LINE
  5
59A
100
AcDbEntity
  8
0
100
AcDbLine
 62
7
  6
CONTINUOUS
 10
533.312377921
 20
359.471232356
 11
534.0623793515
 21
359.854211084
  0
LINE
  5
59B
100
AcDbEntity
  8
0
100
AcDbLine
 62
7
  6
CONTINUOUS
 10
539.312380782
 20
366.9393176282
 11
539.874880782
 21
367.1308069671
  0
LINE
  5
59C
100
AcDbEntity
  8
KONSTRUKTIONSELEMENTE
100
AcDbLine
 62
7
  6
CONTINUOUS
 10
458.9062269288
 20
457.2197430003
 11
455.1562269288
 21
457.2197430003
  0
LINE
  5
59D
100
AcDbEntity
  8
0
100
AcDbLine
 62
7
  6
CONTINUOUS
 10
560.1761655971
 20
461.6834037776
 11
558.6653300267
 21
461.6834037776
  0
LINE
  5
59E
100
AcDbEntity
  8
0
100
AcDbLine
 62
7
  6
CONTINUOUS
 10
564.4011027826
 20
462.6834037776
 11
562.8902672122
 21
462.6834037776
  0
LINE
  5
59F
100
AcDbEntity
  8
0
100
AcDbLine
 62
7
  6
CONTINUOUS
 10
555.9620639819
 20
462.6834037776
 11
554.4512284115
 21
462.6834037776
  0
LINE
  5
5A0
100
AcDbEntity
  8
KONSTRUKTIONSELEMENTE
100
AcDbLine
 62
7
  6
CONTINUOUS
 10
569.3523793515
 20
506.8698943421
 11
569.3523793515
 21
378.4697663517
  0
LINE
  5
5A1
100
AcDbEntity
  8
0
100
AcDbLine
 62
7
  6
CONTINUOUS
 10
569.3523793515
 20
378.4697663517
 11
569.3523793515
 21
511.5730685616
  0
LINE
  5
5A2
100
AcDbEntity
  8
0
100
AcDbLine
 62
7
  6
CONTINUOUS
 10
542.687380782
 20
359.854211084
 11
543.437377921
 21
360.6201685066
  0
LINE
  5
5A3
100
AcDbEntity
  8
0
100
AcDbLine
 62
7
  6
CONTINUOUS
 10
541.749877921
 20
360.6201685066
 11
542.312377921
 21
361.0031473184
  0
LINE
  5
5A4
100
AcDbEntity
  8
0
100
AcDbLine
 62
7
  6
CONTINUOUS
 10
541.9373793515
 20
359.471232356
 11
542.687380782
 21
359.854211084
  0
LINE
  5
5A5
100
AcDbEntity
  8
KONSTRUKTIONSELEMENTE
100
AcDbLine
 62
7
  6
CONTINUOUS
 10
568.0126333893
 20
468.7197430003
 11
563.711278295
 21
468.7197430003
  0
LINE
  5
5A6
100
AcDbEntity
  8
KONSTRUKTIONSELEMENTE
100
AcDbLine
 62
7
  6
CONTINUOUS
 10
554.9934804079
 20
468.7197430003
 11
550.929067918
 21
468.7197430003
  0
LINE
  5
5A7
100
AcDbEntity
  8
0
100
AcDbLine
 62
7
  6
CONTINUOUS
 10
448.6921253136
 20
468.7197430003
 11
452.9934804079
 21
468.7197430003
  0
LINE
  5
5A8
100
AcDbEntity
  8
0
100
AcDbLine
 62
7
  6
CONTINUOUS
 10
461.711278295
 20
468.7197430003
 11
465.775690785
 21
468.7197430003
  0
LINE
  5
5A9
100
AcDbEntity
  8
KONSTRUKTIONSELEMENTE
100
AcDbLine
 62
7
  6
CONTINUOUS
 10
563.711278295
 20
470.9697430003
 11
554.9934804079
 21
470.9697430003
  0
LINE
  5
5AA
100
AcDbEntity
  8
0
100
AcDbLine
 62
7
  6
CONTINUOUS
 10
452.9934804079
 20
470.9697430003
 11
461.711278295
 21
470.9697430003
  0
LINE
  5
5AB
100
AcDbEntity
  8
KURVEN
100
AcDbLine
 62
4
  6
CONTINUOUS
 10
569.3523793515
 20
465.6755555548
 11
570.2745379937
 21
464.0783299362
  0
LINE
  5
5AC
100
AcDbEntity
  8
RUNDUNGEN
100
AcDbLine
 62
7
  6
CONTINUOUS
 10
565.3523793515
 20
472.6037587752
 11
556.812340872
 21
487.3955392992
  0
LINE
  5
5AD
100
AcDbEntity
  8
RUNDUNGEN
100
AcDbLine
 62
7
  6
CONTINUOUS
 10
561.2306513388
 20
500.5215660009
 11
559.3523793515
 21
504.7402339558
  0
LINE
  5
5AE
100
AcDbEntity
  8
0
100
AcDbLine
 62
7
  6
CONTINUOUS
 10
559.3523793515
 20
504.7402339558
 11
549.8764836319
 21
526.0234442076
  0
LINE
  5
5AF
100
AcDbEntity
  8
RUNDUNGEN
100
AcDbLine
 62
7
  6
CONTINUOUS
 10
549.8764836319
 20
526.0234442076
 11
548.8829417288
 21
528.2549758585
  0
LINE
  5
5B0
100
AcDbEntity
  8
BEZUGSACHSEN
100
AcDbLine
 62
7
  6
CONTINUOUS
 10
525.3523793515
 20
255.7197430003
 11
529.3523793515
 21
259.7197430003
  0
LINE
  5
5B1
100
AcDbEntity
  8
RUNDUNGEN
100
AcDbLine
 62
7
  6
CONTINUOUS
 10
547.1190098192
 20
529.8713216561
 11
518.9618733854
 21
539.5666012414
  0
LINE
  5
5B2
100
AcDbEntity
  8
0
100
AcDbLine
 62
7
  6
CONTINUOUS
 10
518.9618733854
 20
539.5666012414
 11
518.1808621831
 21
539.8355249647
  0
LINE
  5
5B3
100
AcDbEntity
  8
RUNDUNGEN
100
AcDbLine
 62
7
  6
CONTINUOUS
 10
518.1808621831
 20
539.8355249647
 11
509.3290838149
 21
542.8834366836
  0
LWPOLYLINE
  5
5B4
100
AcDbEntity
  8
0
100
AcDbPolyline
 62
7
  6
CONTINUOUS
 90
15
 70
0
 10
322.4649793628
 20
46.2839315807
 10
322.6670070223
 20
46.2859274442
 10
323.4803137833
 20
46.334462712
 10
324.2917616125
 20
46.4483596346
 10
325.0930506184
 20
46.6271051176
 10
325.877359671
 20
46.8692266125
 10
326.6373179131
 20
47.1719193109
 10
327.3665061775
 20
47.5314219041
 10
328.0588065612
 20
47.9427884607
 10
328.7098510882
 20
48.400788672
 10
329.3137565271
 20
48.8975857412
 10
329.8674340658
 20
49.425582171
 10
330.3671592134
 20
49.9745227848
 10
330.8100086776
 20
50.5319958467
 10
330.879273615
 20
50.6262994036
  0
LINE
  5
5B5
100
AcDbEntity
  8
0
100
AcDbLine
 62
7
  6
CONTINUOUS
 10
322.4650256106
 20
46.2839316703
 11
321.809224014
 21
46.2839316703
  0
LINE
  5
5B6
100
AcDbEntity
  8
KONSTRUKTIONSELEMENTE
100
AcDbLine
 62
7
  6
CONTINUOUS
 10
322.4650256106
 20
46.2839316703
 11
321.809224014
 21
46.2839316703
  0
LINE
  5
5B7
100
AcDbEntity
  8
0
100
AcDbLine
 62
7
  6
CONTINUOUS
 10
313.0987102634
 20
51.2101454247
 11
312.6371248123
 21
51.2101454247
  0
LINE
  5
5B8
100
AcDbEntity
  8
0
100
AcDbLine
 62
7
  6
CONTINUOUS
 10
313.0880115877
 20
51.2352082392
 11
312.6371248123
 21
51.2352082392
  0
LINE
  5
5B9
100
AcDbEntity
  8
0
100
AcDbLine
 62
7
  6
CONTINUOUS
 10
312.6556322656
 20
52.7460438096
 11
312.6371248123
 21
52.7460438096
  0
LINE
  5
5BA
100
AcDbEntity
  8
RUNDUNGEN
100
AcDbLine
 62
7
  6
CONTINUOUS
 10
331.907946003
 20
54.1462960559
 11
331.8894575224
 21
54.1462960559
  0
LINE
  5
5BB
100
AcDbEntity
  8
RUNDUNGEN
100
AcDbLine
 62
7
  6
CONTINUOUS
 10
312.3847921021
 20
54.1462960559
 11
312.3663319434
 21
54.1462960559
  0
LINE
  5
5BC
100
AcDbEntity
  8
KONSTRUKTIONSELEMENTE
100
AcDbLine
 62
7
  6
CONTINUOUS
 10
249.6857694053
 20
111.0019465282
 11
249.353642356
 21
108.2546254512
  0
LINE
  5
5BD
100
AcDbEntity
  8
KONSTRUKTIONSELEMENTE
100
AcDbLine
 62
7
  6
CONTINUOUS
 10
250.2815861767
 20
108.8393132548
 11
250.5445200775
 21
111.0142756649
  0
LINE
  5
5BE
100
AcDbEntity
  8
BEZUGSACHSEN
100
AcDbLine
 62
7
  6
CONTINUOUS
 10
256.8732410636
 20
139.7839316703
 11
238.1093573149
 21
107.2839316703
  0
LINE
  5
5BF
100
AcDbEntity
  8
BEZUGSACHSEN
100
AcDbLine
 62
7
  6
CONTINUOUS
 10
238.1093573149
 20
107.2839316703
 11
256.8732410636
 21
74.7839316703
  0
LINE
  5
5C0
100
AcDbEntity
  8
KONSTRUKTIONSELEMENTE
100
AcDbLine
 62
7
  6
CONTINUOUS
 10
253.079256726
 20
110.7078482107
 11
252.8163228252
 21
108.5328858005
  0
LINE
  5
5C1
100
AcDbEntity
  8
KONSTRUKTIONSELEMENTE
100
AcDbLine
 62
7
  6
CONTINUOUS
 10
253.8302172953
 20
108.4103148417
 11
254.0654739485
 21
110.3563338834
  0
LINE
  5
5C2
100
AcDbEntity
  8
KONSTRUKTIONSELEMENTE
100
AcDbLine
 62
7
  6
CONTINUOUS
 10
252.3682451677
 20
119.5244795177
 11
252.0954943458
 21
118.8886831026
  0
LINE
  5
5C3
100
AcDbEntity
  8
KONSTRUKTIONSELEMENTE
100
AcDbLine
 62
7
  6
CONTINUOUS
 10
251.004491058
 20
116.3454974422
 11
250.7317401059
 21
115.7097007239
  0
LINE
  5
5C4
100
AcDbEntity
  8
KONSTRUKTIONSELEMENTE
100
AcDbLine
 62
7
  6
CONTINUOUS
 10
249.9239449654
 20
111.553876702
 11
249.6857694053
 21
111.0019465282
  0
LINE
  5
5C5
100
AcDbEntity
  8
KONSTRUKTIONSELEMENTE
100
AcDbLine
 62
7
  6
CONTINUOUS
 10
250.5445200775
 20
111.0142756649
 11
250.7550183703
 21
111.3372623064
  0
LINE
  5
5C6
100
AcDbEntity
  8
KONSTRUKTIONSELEMENTE
100
AcDbLine
 62
7
  6
CONTINUOUS
 10
255.8278121152
 20
124.4527392922
 11
254.0524367361
 21
122.3299760599
  0
LINE
  5
5C7
100
AcDbEntity
  8
KONSTRUKTIONSELEMENTE
100
AcDbLine
 62
7
  6
CONTINUOUS
 10
255.2796829725
 20
122.2054674105
 11
256.6112145069
 21
123.7975398347
  0
LINE
  5
5C8
100
AcDbEntity
  8
0
100
AcDbLine
 62
7
  6
CONTINUOUS
 10
315.0307331661
 20
165.7280599242
 11
313.1371248123
 21
164.6347846314
  0
LINE
  5
5C9
100
AcDbEntity
  8
RUNDUNGEN
100
AcDbLine
 62
7
  6
CONTINUOUS
 10
275.1371248123
 20
68.7839316703
 11
309.8287941806
 21
68.7839316703
  0
LINE
  5
5CA
100
AcDbEntity
  8
RUNDUNGEN
100
AcDbLine
 62
7
  6
CONTINUOUS
 10
334.4454554439
 20
68.7839316703
 11
347.1366816971
 21
68.7839316703
  0
LINE
  5
5CB
100
AcDbEntity
  8
KONSTRUKTIONSELEMENTE
100
AcDbLine
 62
7
  6
CONTINUOUS
 10
315.0278310265
 20
48.8414789674
 11
313.1371248123
 21
49.9330787092
  0
LINE
  5
5CC
100
AcDbEntity
  8
KONSTRUKTIONSELEMENTE
100
AcDbLine
 62
7
  6
CONTINUOUS
 10
252.9517901955
 20
111.0716918384
 11
253.079256726
 21
110.7078482107
  0
LINE
  5
5CD
100
AcDbEntity
  8
KONSTRUKTIONSELEMENTE
100
AcDbLine
 62
7
  6
CONTINUOUS
 10
261.3071786812
 20
120.922281208
 11
261.3463909808
 21
120.4385359083
  0
LINE
  5
5CE
100
AcDbEntity
  8
KONSTRUKTIONSELEMENTE
100
AcDbLine
 62
7
  6
CONTINUOUS
 10
258.079801754
 20
115.568666181
 11
258.0543942226
 21
115.0776961978
  0
LINE
  5
5CF
100
AcDbEntity
  8
KONSTRUKTIONSELEMENTE
100
AcDbLine
 62
7
  6
CONTINUOUS
 10
262.2037679909
 20
119.8717855268
 11
262.2385294404
 21
120.4439789092
  0
LINE
  5
5D0
100
AcDbEntity
  8
KONSTRUKTIONSELEMENTE
100
AcDbLine
 62
7
  6
CONTINUOUS
 10
258.9929529516
 20
114.6750631242
 11
259.0638187662
 21
115.2719987783
  0
LINE
  5
5D1
100
AcDbEntity
  8
KONSTRUKTIONSELEMENTE
100
AcDbLine
 62
7
  6
CONTINUOUS
 10
257.2958166515
 20
107.2944861594
 11
257.3788484138
 21
107.9813164286
  0
LINE
  5
5D2
100
AcDbEntity
  8
KONSTRUKTIONSELEMENTE
100
AcDbLine
 62
7
  6
CONTINUOUS
 10
257.7248140769
 20
110.843109108
 11
257.8216844927
 21
111.6444113072
  0
LINE
  5
5D3
100
AcDbEntity
  8
KONSTRUKTIONSELEMENTE
100
AcDbLine
 62
7
  6
CONTINUOUS
 10
261.3463909808
 20
120.4385359083
 11
261.1810624317
 21
119.9755424641
  0
LINE
  5
5D4
100
AcDbEntity
  8
KONSTRUKTIONSELEMENTE
100
AcDbLine
 62
7
  6
CONTINUOUS
 10
258.0543942226
 20
115.0776961978
 11
257.8725602545
 21
114.6538317189
  0
LINE
  5
5D5
100
AcDbEntity
  8
KONSTRUKTIONSELEMENTE
100
AcDbLine
 62
7
  6
CONTINUOUS
 10
258.8111189836
 20
114.2511986453
 11
258.9929529516
 21
114.6750631242
  0
LINE
  5
5D6
100
AcDbEntity
  8
KONSTRUKTIONSELEMENTE
100
AcDbLine
 62
7
  6
CONTINUOUS
 10
261.9644649148
 20
119.3203429302
 11
262.2037679909
 21
119.8717855268
  0
LINE
  5
5D7
100
AcDbEntity
  8
KONSTRUKTIONSELEMENTE
100
AcDbLine
 62
7
  6
CONTINUOUS
 10
258.4274002684
 20
113.7884740118
 11
258.8111189836
 21
114.2511986453
  0
LINE
  5
5D8
100
AcDbEntity
  8
KONSTRUKTIONSELEMENTE
100
AcDbLine
 62
7
  6
CONTINUOUS
 10
261.1810624317
 20
119.9755424641
 11
259.8495308973
 21
118.3834700399
  0
LINE
  5
5D9
100
AcDbEntity
  8
KONSTRUKTIONSELEMENTE
100
AcDbLine
 62
7
  6
CONTINUOUS
 10
260.1890895357
 20
117.1975796979
 11
261.9644649148
 21
119.3203429302
  0
LINE
  5
5DA
100
AcDbEntity
  8
KONSTRUKTIONSELEMENTE
100
AcDbLine
 62
7
  6
CONTINUOUS
 10
257.8725602545
 20
114.6538317189
 11
257.5343001101
 21
114.2970733509
  0
LINE
  5
5DB
100
AcDbEntity
  8
KONSTRUKTIONSELEMENTE
100
AcDbLine
 62
7
  6
CONTINUOUS
 10
256.3282493333
 20
124.7857820601
 11
255.8278121152
 21
124.4527392922
  0
LINE
  5
5DC
100
AcDbEntity
  8
KONSTRUKTIONSELEMENTE
100
AcDbLine
 62
7
  6
CONTINUOUS
 10
256.6112145069
 20
123.7975398347
 11
257.0376771865
 21
124.0421334598
  0
LINE
  5
5DD
100
AcDbEntity
  8
0
100
AcDbLine
 62
7
  6
CONTINUOUS
 10
258.9017221826
 20
71.8239302398
 11
260.1425158294
 21
71.8239302398
  0
LINE
  5
5DE
100
AcDbEntity
  8
0
100
AcDbLine
 62
7
  6
CONTINUOUS
 10
258.1064796284
 20
72.1989331008
 11
259.2849049242
 21
72.1989331008
  0
LINE
  5
5DF
100
AcDbEntity
  8
0
100
AcDbLine
 62
7
  6
CONTINUOUS
 10
257.7255081755
 20
72.3864302398
 11
258.8763009122
 21
72.3864302398
  0
LINE
  5
5E0
100
AcDbEntity
  8
0
100
AcDbLine
 62
7
  6
CONTINUOUS
 10
257.3546643526
 20
72.5739316703
 11
258.4798171066
 21
72.5739316703
  0
LINE
  5
5E1
100
AcDbEntity
  8
0
100
AcDbLine
 62
7
  6
CONTINUOUS
 10
256.2970546492
 20
73.1364316703
 11
257.3551608108
 21
73.1364316703
  0
LINE
  5
5E2
100
AcDbEntity
  8
0
100
AcDbLine
 62
7
  6
CONTINUOUS
 10
254.997435408
 20
73.8864331008
 11
255.9836110537
 21
73.8864331008
  0
LINE
  5
5E3
100
AcDbEntity
  8
BEZUGSACHSEN
100
AcDbLine
 62
7
  6
CONTINUOUS
 10
256.8732410636
 20
74.7839316703
 11
294.4010085609
 21
74.7839316703
  0
LINE
  5
5E4
100
AcDbEntity
  8
0
100
AcDbLine
 62
7
  6
CONTINUOUS
 10
253.5188825155
 20
74.8239316703
 11
254.4345066204
 21
74.8239316703
  0
LINE
  5
5E5
100
AcDbEntity
  8
0
100
AcDbLine
 62
7
  6
CONTINUOUS
 10
252.1734164105
 20
75.7614302398
 11
253.0332359335
 21
75.7614302398
  0
LINE
  5
5E6
100
AcDbEntity
  8
0
100
AcDbLine
 62
7
  6
CONTINUOUS
 10
251.177716561
 20
76.5114316703
 11
252.0005035432
 21
76.5114316703
  0
LINE
  5
5E7
100
AcDbEntity
  8
KONSTRUKTIONSELEMENTE
100
AcDbLine
 62
7
  6
CONTINUOUS
 10
253.8105409073
 20
111.0840213026
 11
253.527930579
 21
111.5827650259
  0
LINE
  5
5E8
100
AcDbEntity
  8
KONSTRUKTIONSELEMENTE
100
AcDbLine
 62
7
  6
CONTINUOUS
 10
259.0638187662
 20
115.2719987783
 11
258.93279982
 21
115.8300742836
  0
LINE
  5
5E9
100
AcDbEntity
  8
KONSTRUKTIONSELEMENTE
100
AcDbLine
 62
7
  6
CONTINUOUS
 10
268.708921582
 20
119.2839316703
 11
261.7807183517
 21
107.2839316703
  0
LINE
  5
5EA
100
AcDbEntity
  8
KONSTRUKTIONSELEMENTE
100
AcDbLine
 62
7
  6
CONTINUOUS
 10
278.4047468316
 20
133.3514803168
 11
275.2434488149
 21
129.0172970205
  0
LINE
  5
5EB
100
AcDbEntity
  8
KONSTRUKTIONSELEMENTE
100
AcDbLine
 62
7
  6
CONTINUOUS
 10
276.0474498547
 20
128.9462161872
 11
278.284828021
 21
131.9950689775
  0
LINE
  5
5EC
100
AcDbEntity
  8
KONSTRUKTIONSELEMENTE
100
AcDbLine
 62
7
  6
CONTINUOUS
 10
250.4862466954
 20
111.9504779596
 11
249.9239449654
 21
111.553876702
  0
LINE
  5
5ED
100
AcDbEntity
  8
KONSTRUKTIONSELEMENTE
100
AcDbLine
 62
7
  6
CONTINUOUS
 10
283.8711808425
 20
131.6677795349
 11
283.1905752878
 21
131.206198554
  0
LINE
  5
5EE
100
AcDbEntity
  8
KONSTRUKTIONSELEMENTE
100
AcDbLine
 62
7
  6
CONTINUOUS
 10
283.7701467655
 20
130.7918323231
 11
284.2175536851
 21
130.9799123237
  0
LINE
  5
5EF
100
AcDbEntity
  8
0
100
AcDbLine
 62
7
  6
CONTINUOUS
 10
250.2443632209
 20
77.2614331008
 11
251.0352663851
 21
77.2614331008
  0
LINE
  5
5F0
100
AcDbEntity
  8
0
100
AcDbLine
 62
7
  6
CONTINUOUS
 10
249.3665862071
 20
78.0114302398
 11
250.129712711
 21
78.0114302398
  0
LINE
  5
5F1
100
AcDbEntity
  8
0
100
AcDbLine
 62
7
  6
CONTINUOUS
 10
249.1551546214
 20
78.1989316703
 11
249.9118839809
 21
78.1989316703
  0
LINE
  5
5F2
100
AcDbEntity
  8
0
100
AcDbLine
 62
7
  6
CONTINUOUS
 10
248.5388731075
 20
78.7614316703
 11
249.2775619051
 21
78.7614316703
  0
LINE
  5
5F3
100
AcDbEntity
  8
0
100
AcDbLine
 62
7
  6
CONTINUOUS
 10
247.0162354871
 20
80.2614302398
 11
247.7138788987
 21
80.2614302398
  0
LINE
  5
5F4
100
AcDbEntity
  8
0
100
AcDbLine
 62
7
  6
CONTINUOUS
 10
245.9768878507
 20
81.3864302398
 11
246.6490673205
 21
81.3864302398
  0
LINE
  5
5F5
100
AcDbEntity
  8
0
100
AcDbLine
 62
7
  6
CONTINUOUS
 10
245.8114381195
 20
81.5739316703
 11
246.4797365851
 21
81.5739316703
  0
LINE
  5
5F6
100
AcDbEntity
  8
0
100
AcDbLine
 62
7
  6
CONTINUOUS
 10
245.4868684472
 20
81.9489302398
 11
246.1476835876
 21
81.9489302398
  0
LINE
  5
5F7
100
AcDbEntity
  8
0
100
AcDbLine
 62
7
  6
CONTINUOUS
 10
245.0153192078
 20
82.5114302398
 11
245.6655593147
 21
82.5114302398
  0
LINE
  5
5F8
100
AcDbEntity
  8
KONSTRUKTIONSELEMENTE
100
AcDbLine
 62
7
  6
CONTINUOUS
 10
258.93279982
 20
115.8300742836
 11
258.4889279869
 21
116.5223608037
  0
LINE
  5
5F9
100
AcDbEntity
  8
KONSTRUKTIONSELEMENTE
100
AcDbLine
 62
7
  6
CONTINUOUS
 10
261.7807183517
 20
107.2839316703
 11
268.708921582
 21
95.2839316703
  0
LINE
  5
5FA
100
AcDbEntity
  8
KONSTRUKTIONSELEMENTE
100
AcDbLine
 62
7
  6
CONTINUOUS
 10
257.9033241822
 20
116.0207754445
 11
258.079801754
 21
115.568666181
  0
LINE
  5
5FB
100
AcDbEntity
  8
KONSTRUKTIONSELEMENTE
100
AcDbLine
 62
7
  6
CONTINUOUS
 10
262.2385294404
 20
120.4439789092
 11
262.0121567479
 21
121.2345721204
  0
LINE
  5
5FC
100
AcDbEntity
  8
KONSTRUKTIONSELEMENTE
100
AcDbLine
 62
7
  6
CONTINUOUS
 10
271.0589348979
 20
133.1488831526
 11
271.0862154481
 21
125.7937501178
  0
LINE
  5
5FD
100
AcDbEntity
  8
KONSTRUKTIONSELEMENTE
100
AcDbLine
 62
7
  6
CONTINUOUS
 10
271.7372935443
 20
125.0774175957
 11
271.801236625
 21
131.5785699521
  0
LINE
  5
5FE
100
AcDbEntity
  8
KONSTRUKTIONSELEMENTE
100
AcDbLine
 62
7
  6
CONTINUOUS
 10
275.2434488149
 20
129.0172970205
 11
275.153509686
 21
127.9999882786
  0
LINE
  5
5FF
100
AcDbEntity
  8
KONSTRUKTIONSELEMENTE
100
AcDbLine
 62
7
  6
CONTINUOUS
 10
280.7696701655
 20
125.7579351354
 11
280.45442776
 21
124.9674087927
  0
LINE
  5
600
100
AcDbEntity
  8
KONSTRUKTIONSELEMENTE
100
AcDbLine
 62
7
  6
CONTINUOUS
 10
283.1905752878
 20
131.206198554
 11
282.8312772566
 21
130.6164880584
  0
LINE
  5
601
100
AcDbEntity
  8
KONSTRUKTIONSELEMENTE
100
AcDbLine
 62
7
  6
CONTINUOUS
 10
285.8111757434
 20
129.0616826902
 11
285.3447760215
 21
128.514681707
  0
LINE
  5
602
100
AcDbEntity
  8
KONSTRUKTIONSELEMENTE
100
AcDbLine
 62
7
  6
CONTINUOUS
 10
283.3667930645
 20
130.4029375639
 11
283.7701467655
 21
130.7918323231
  0
LINE
  5
603
100
AcDbEntity
  8
KONSTRUKTIONSELEMENTE
100
AcDbLine
 62
7
  6
CONTINUOUS
 10
285.6911464126
 20
127.8268154733
 11
286.0945001137
 21
128.2157102326
  0
LINE
  5
604
100
AcDbEntity
  8
KONSTRUKTIONSELEMENTE
100
AcDbLine
 62
7
  6
CONTINUOUS
 10
285.3447760215
 20
128.514681707
 11
280.7696701655
 21
125.7579351354
  0
LINE
  5
605
100
AcDbEntity
  8
KONSTRUKTIONSELEMENTE
100
AcDbLine
 62
7
  6
CONTINUOUS
 10
281.6264983997
 20
125.416253171
 11
285.6911464126
 21
127.8268154733
  0
LINE
  5
606
100
AcDbEntity
  8
KONSTRUKTIONSELEMENTE
100
AcDbLine
 62
7
  6
CONTINUOUS
 10
257.9327133861
 20
113.4988205595
 11
258.4274002684
 21
113.7884740118
  0
LINE
  5
607
100
AcDbEntity
  8
KONSTRUKTIONSELEMENTE
100
AcDbLine
 62
7
  6
CONTINUOUS
 10
250.7550183703
 20
111.3372623064
 11
251.120660461
 21
111.5253488524
  0
LINE
  5
608
100
AcDbEntity
  8
KONSTRUKTIONSELEMENTE
100
AcDbLine
 62
7
  6
CONTINUOUS
 10
257.5343001101
 20
114.2970733509
 11
257.0850717164
 21
114.1133861992
  0
LINE
  5
609
100
AcDbEntity
  8
KONSTRUKTIONSELEMENTE
100
AcDbLine
 62
7
  6
CONTINUOUS
 10
251.2036922233
 20
112.2121791217
 11
250.4862466954
 21
111.9504779596
  0
LINE
  5
60A
100
AcDbEntity
  8
0
100
AcDbLine
 62
7
  6
CONTINUOUS
 10
244.4138519764
 20
83.2614316703
 11
245.0510899497
 21
83.2614316703
  0
LINE
  5
60B
100
AcDbEntity
  8
0
100
AcDbLine
 62
7
  6
CONTINUOUS
 10
243.8419045649
 20
84.0114331008
 11
244.467256695
 21
84.0114331008
  0
LINE
  5
60C
100
AcDbEntity
  8
0
100
AcDbLine
 62
7
  6
CONTINUOUS
 10
243.2978891224
 20
84.7614302398
 11
243.9123441195
 21
84.7614302398
  0
LINE
  5
60D
100
AcDbEntity
  8
0
100
AcDbLine
 62
7
  6
CONTINUOUS
 10
242.9073507334
 20
85.3239302398
 11
243.5142163886
 21
85.3239302398
  0
LINE
  5
60E
100
AcDbEntity
  8
0
100
AcDbLine
 62
7
  6
CONTINUOUS
 10
242.6550091676
 20
85.6989331008
 11
243.2570709109
 21
85.6989331008
  0
LINE
  5
60F
100
AcDbEntity
  8
0
100
AcDbLine
 62
7
  6
CONTINUOUS
 10
242.5311908043
 20
85.8864302398
 11
243.1309233424
 21
85.8864302398
  0
LINE
  5
610
100
AcDbEntity
  8
0
100
AcDbLine
 62
7
  6
CONTINUOUS
 10
241.8200768375
 20
87.0114302398
 11
242.4067767275
 21
87.0114302398
  0
LINE
  5
611
100
AcDbEntity
  8
0
100
AcDbLine
 62
7
  6
CONTINUOUS
 10
240.9524309061
 20
88.5114331008
 11
241.5239830749
 21
88.5114331008
  0
LINE
  5
612
100
AcDbEntity
  8
KONSTRUKTIONSELEMENTE
100
AcDbLine
 62
7
  6
CONTINUOUS
 10
253.527930579
 20
111.5827650259
 11
252.8935168134
 21
112.0078941331
  0
LINE
  5
613
100
AcDbEntity
  8
KONSTRUKTIONSELEMENTE
100
AcDbLine
 62
7
  6
CONTINUOUS
 10
252.6415026394
 20
111.341492357
 11
252.9517901955
 21
111.0716918384
  0
LINE
  5
614
100
AcDbEntity
  8
KONSTRUKTIONSELEMENTE
100
AcDbLine
 62
7
  6
CONTINUOUS
 10
257.5249617264
 20
116.434023894
 11
257.9033241822
 21
116.0207754445
  0
LINE
  5
615
100
AcDbEntity
  8
KONSTRUKTIONSELEMENTE
100
AcDbLine
 62
7
  6
CONTINUOUS
 10
262.0121567479
 20
121.2345721204
 11
261.6378366258
 21
121.8482691086
  0
LINE
  5
616
100
AcDbEntity
  8
KONSTRUKTIONSELEMENTE
100
AcDbLine
 62
7
  6
CONTINUOUS
 10
261.0634257158
 20
121.4267782102
 11
261.3071786812
 21
120.922281208
  0
LINE
  5
617
100
AcDbEntity
  8
KONSTRUKTIONSELEMENTE
100
AcDbLine
 62
7
  6
CONTINUOUS
 10
266.6920838392
 20
132.0752290036
 11
268.602117571
 21
124.3065887658
  0
LINE
  5
618
100
AcDbEntity
  8
KONSTRUKTIONSELEMENTE
100
AcDbLine
 62
7
  6
CONTINUOUS
 10
269.2739408108
 20
124.4717663272
 11
267.7702971862
 21
130.5875045838
  0
LINE
  5
619
100
AcDbEntity
  8
KONSTRUKTIONSELEMENTE
100
AcDbLine
 62
7
  6
CONTINUOUS
 10
278.284828021
 20
131.9950689775
 11
278.0000208041
 21
128.7735915718
  0
LINE
  5
61A
100
AcDbEntity
  8
KONSTRUKTIONSELEMENTE
100
AcDbLine
 62
7
  6
CONTINUOUS
 10
277.9100816752
 20
127.7562828299
 11
277.7002237358
 21
125.3825627487
  0
LINE
  5
61B
100
AcDbEntity
  8
KONSTRUKTIONSELEMENTE
100
AcDbLine
 62
7
  6
CONTINUOUS
 10
278.3893667331
 20
125.3216363865
 11
278.5992246725
 21
127.6953564677
  0
LINE
  5
61C
100
AcDbEntity
  8
KONSTRUKTIONSELEMENTE
100
AcDbLine
 62
7
  6
CONTINUOUS
 10
278.6891638014
 20
128.7126652096
 11
279.0938898289
 21
133.2905539546
  0
LINE
  5
61D
100
AcDbEntity
  8
KONSTRUKTIONSELEMENTE
100
AcDbLine
 62
7
  6
CONTINUOUS
 10
279.7477972109
 20
127.5938124533
 11
279.8377363398
 21
128.6111211952
  0
LINE
  5
61E
100
AcDbEntity
  8
KONSTRUKTIONSELEMENTE
100
AcDbLine
 62
7
  6
CONTINUOUS
 10
285.9372728645
 20
129.3778936259
 11
285.8111757434
 21
129.0616826902
  0
LINE
  5
61F
100
AcDbEntity
  8
KONSTRUKTIONSELEMENTE
100
AcDbLine
 62
7
  6
CONTINUOUS
 10
284.3101474601
 20
123.4298428859
 11
284.6253898655
 21
124.2203692285
  0
LINE
  5
620
100
AcDbEntity
  8
KONSTRUKTIONSELEMENTE
100
AcDbLine
 62
7
  6
CONTINUOUS
 10
286.4537956934
 20
128.8054217058
 11
286.5798928146
 21
129.1216326414
  0
LINE
  5
621
100
AcDbEntity
  8
KONSTRUKTIONSELEMENTE
100
AcDbLine
 62
7
  6
CONTINUOUS
 10
286.0945001137
 20
128.2157102326
 11
286.4537956934
 21
128.8054217058
  0
LINE
  5
622
100
AcDbEntity
  8
0
100
AcDbLine
 62
7
  6
CONTINUOUS
 10
239.7344352082
 20
90.923932624
 11
240.2860067355
 21
90.923932624
  0
LINE
  5
623
100
AcDbEntity
  8
0
100
AcDbLine
 62
7
  6
CONTINUOUS
 10
239.6199754334
 20
91.1739316703
 11
240.1697414386
 21
91.1739316703
  0
LINE
  5
624
100
AcDbEntity
  8
0
100
AcDbLine
 62
7
  6
CONTINUOUS
 10
239.3973999984
 20
91.673932624
 11
239.9436889218
 21
91.673932624
  0
LINE
  5
625
100
AcDbEntity
  8
0
100
AcDbLine
 62
7
  6
CONTINUOUS
 10
238.9770930092
 20
92.6739316703
 11
239.5169353125
 21
92.6739316703
  0
LINE
  5
626
100
AcDbEntity
  8
0
100
AcDbLine
 62
7
  6
CONTINUOUS
 10
238.5889665271
 20
93.6739307166
 11
239.1229904475
 21
93.6739307166
  0
LINE
  5
627
100
AcDbEntity
  8
0
100
AcDbLine
 62
7
  6
CONTINUOUS
 10
238.1475262743
 20
94.9239316703
 11
238.6750842769
 21
94.9239316703
  0
LINE
  5
628
100
AcDbEntity
  8
KONSTRUKTIONSELEMENTE
100
AcDbLine
 62
7
  6
CONTINUOUS
 10
268.708921582
 20
95.2839316703
 11
282.5653280425
 21
95.2839316703
  0
LINE
  5
629
100
AcDbEntity
  8
KONSTRUKTIONSELEMENTE
100
AcDbLine
 62
7
  6
CONTINUOUS
 10
256.9447145371
 20
116.8084121831
 11
257.5249617264
 21
116.434023894
  0
LINE
  5
62A
100
AcDbEntity
  8
KONSTRUKTIONSELEMENTE
100
AcDbLine
 62
7
  6
CONTINUOUS
 10
254.0524367361
 20
122.3299760599
 11
260.1890895357
 21
117.1975796979
  0
LINE
  5
62B
100
AcDbEntity
  8
KONSTRUKTIONSELEMENTE
100
AcDbLine
 62
7
  6
CONTINUOUS
 10
259.8495308973
 20
118.3834700399
 11
255.2796829725
 21
122.2054674105
  0
LINE
  5
62C
100
AcDbEntity
  8
KONSTRUKTIONSELEMENTE
100
AcDbLine
 62
7
  6
CONTINUOUS
 10
258.4889279869
 20
116.5223608037
 11
257.954138985
 21
117.0027148047
  0
LINE
  5
62D
100
AcDbEntity
  8
KONSTRUKTIONSELEMENTE
100
AcDbLine
 62
7
  6
CONTINUOUS
 10
261.6378366258
 20
121.8482691086
 11
261.0589749914
 21
122.4827167872
  0
LINE
  5
62E
100
AcDbEntity
  8
KONSTRUKTIONSELEMENTE
100
AcDbLine
 62
7
  6
CONTINUOUS
 10
260.6151311466
 20
121.9520259791
 11
261.0634257158
 21
121.4267782102
  0
LWPOLYLINE
  5
62F
100
AcDbEntity
  8
KONSTRUKTIONSELEMENTE
100
AcDbPolyline
 62
7
  6
CONTINUOUS
 90
15
 70
0
 10
313.394976644
 20
50.6262985293
 10
313.476978354
 20
50.5148798675
 10
313.9204889134
 20
49.9587752679
 10
314.4205541812
 20
49.4115285075
 10
314.9742379036
 20
48.8854165591
 10
315.5778148786
 20
48.3905821993
 10
316.2281941152
 20
47.9345402942
 10
316.9195234829
 20
47.5250369937
 10
317.6474588325
 20
47.1672415193
 10
318.4059294628
 20
46.8660404866
 10
319.18856381
 20
46.625152916
 10
319.9880528287
 20
46.4473517588
 10
320.7976320616
 20
46.3340946453
 10
321.6090761049
 20
46.2858913707
 10
321.8092698856
 20
46.2839315804
  0
LINE
  5
630
100
AcDbEntity
  8
KONSTRUKTIONSELEMENTE
100
AcDbLine
 62
7
  6
CONTINUOUS
 10
267.7702971862
 20
130.5875045838
 11
270.8415275161
 21
124.8571804271
  0
LINE
  5
631
100
AcDbEntity
  8
KONSTRUKTIONSELEMENTE
100
AcDbLine
 62
7
  6
CONTINUOUS
 10
271.801236625
 20
131.5785699521
 11
273.3048802496
 21
125.4628316956
  0
LINE
  5
632
100
AcDbEntity
  8
KONSTRUKTIONSELEMENTE
100
AcDbLine
 62
7
  6
CONTINUOUS
 10
273.9767034894
 20
125.628009257
 11
272.0666697576
 21
133.3966494947
  0
LINE
  5
633
100
AcDbEntity
  8
KONSTRUKTIONSELEMENTE
100
AcDbLine
 62
7
  6
CONTINUOUS
 10
285.9122124484
 20
129.9376293674
 11
285.9372728645
 21
129.3778936259
  0
LINE
  5
634
100
AcDbEntity
  8
KONSTRUKTIONSELEMENTE
100
AcDbLine
 62
7
  6
CONTINUOUS
 10
286.5798928146
 20
129.1216326414
 11
286.7249850128
 21
129.7967631393
  0
LINE
  5
635
100
AcDbEntity
  8
0
100
AcDbLine
 62
7
  6
CONTINUOUS
 10
236.6592038705
 20
100.9239316703
 11
237.1660779476
 21
100.9239316703
  0
LINE
  5
636
100
AcDbEntity
  8
KONSTRUKTIONSELEMENTE
100
AcDbLine
 62
7
  6
CONTINUOUS
 10
252.1483940183
 20
111.5172494387
 11
252.6415026394
 21
111.341492357
  0
LINE
  5
637
100
AcDbEntity
  8
KONSTRUKTIONSELEMENTE
100
AcDbLine
 62
7
  6
CONTINUOUS
 10
252.8935168134
 20
112.0078941331
 11
252.4004081922
 21
112.1836512149
  0
LINE
  5
638
100
AcDbEntity
  8
KONSTRUKTIONSELEMENTE
100
AcDbLine
 62
7
  6
CONTINUOUS
 10
250.7317401059
 20
115.7097007239
 11
255.5809602973
 21
113.6294298044
  0
LINE
  5
639
100
AcDbEntity
  8
KONSTRUKTIONSELEMENTE
100
AcDbLine
 62
7
  6
CONTINUOUS
 10
255.8537112493
 20
114.2652265227
 11
251.004491058
 21
116.3454974422
  0
LINE
  5
63A
100
AcDbEntity
  8
KONSTRUKTIONSELEMENTE
100
AcDbLine
 62
7
  6
CONTINUOUS
 10
252.0954943458
 20
118.8886831026
 11
256.9447145371
 21
116.8084121831
  0
LINE
  5
63B
100
AcDbEntity
  8
KONSTRUKTIONSELEMENTE
100
AcDbLine
 62
7
  6
CONTINUOUS
 10
257.954138985
 20
117.0027148047
 11
257.2174653591
 21
117.4442085982
  0
LINE
  5
63C
100
AcDbEntity
  8
KONSTRUKTIONSELEMENTE
100
AcDbLine
 62
7
  6
CONTINUOUS
 10
258.6566249846
 20
123.5900247757
 11
260.6151311466
 21
121.9520259791
  0
LINE
  5
63D
100
AcDbEntity
  8
KONSTRUKTIONSELEMENTE
100
AcDbLine
 62
7
  6
CONTINUOUS
 10
261.0589749914
 20
122.4827167872
 11
259.1004688293
 21
124.1207155838
  0
LINE
  5
63E
100
AcDbEntity
  8
KONSTRUKTIONSELEMENTE
100
AcDbLine
 62
7
  6
CONTINUOUS
 10
271.0862154481
 20
125.7937501178
 11
267.6998186989
 21
132.3229953457
  0
LINE
  5
63F
100
AcDbEntity
  8
KONSTRUKTIONSELEMENTE
100
AcDbLine
 62
7
  6
CONTINUOUS
 10
282.5653280425
 20
95.2839316703
 11
289.4935312728
 21
107.2839316703
  0
LINE
  5
640
100
AcDbEntity
  8
0
100
AcDbLine
 62
7
  6
CONTINUOUS
 10
236.3816039689
 20
102.9239311934
 11
236.8847994471
 21
102.9239311934
  0
LINE
  5
641
100
AcDbEntity
  8
0
100
AcDbLine
 62
7
  6
CONTINUOUS
 10
236.2421328818
 20
104.4239311934
 11
236.7435003771
 21
104.4239311934
  0
LINE
  5
642
100
AcDbEntity
  8
0
100
AcDbLine
 62
7
  6
CONTINUOUS
 10
236.2245574336
 20
104.6739316703
 11
236.7256955236
 21
104.6739316703
  0
LINE
  5
643
100
AcDbEntity
  8
0
100
AcDbLine
 62
7
  6
CONTINUOUS
 10
236.1942448727
 20
105.1739311934
 11
236.6949878011
 21
105.1739311934
  0
LINE
  5
644
100
AcDbEntity
  8
0
100
AcDbLine
 62
7
  6
CONTINUOUS
 10
236.1608448628
 20
105.9239311934
 11
236.6611531065
 21
105.9239311934
  0
LINE
  5
645
100
AcDbEntity
  8
0
100
AcDbLine
 62
7
  6
CONTINUOUS
 10
236.1387862879
 20
106.9239316703
 11
236.6388079659
 21
106.9239316703
  0
LINE
  5
646
100
AcDbEntity
  8
0
100
AcDbLine
 62
7
  6
CONTINUOUS
 10
236.1423764557
 20
107.9239321471
 11
236.6424446683
 21
107.9239321471
  0
LINE
  5
647
100
AcDbEntity
  8
KONSTRUKTIONSELEMENTE
100
AcDbLine
 62
7
  6
CONTINUOUS
 10
249.353642356
 20
108.2546254512
 11
257.2958166515
 21
107.2944861594
  0
LINE
  5
648
100
AcDbEntity
  8
KONSTRUKTIONSELEMENTE
100
AcDbLine
 62
7
  6
CONTINUOUS
 10
257.3788484138
 20
107.9813164286
 11
253.8302172953
 21
108.4103148417
  0
LINE
  5
649
100
AcDbEntity
  8
KONSTRUKTIONSELEMENTE
100
AcDbLine
 62
7
  6
CONTINUOUS
 10
252.8163228252
 20
108.5328858005
 11
250.2815861767
 21
108.8393132548
  0
LINE
  5
64A
100
AcDbEntity
  8
KONSTRUKTIONSELEMENTE
100
AcDbLine
 62
7
  6
CONTINUOUS
 10
251.6414463098
 20
111.5785349754
 11
252.1483940183
 21
111.5172494387
  0
LINE
  5
64B
100
AcDbEntity
  8
KONSTRUKTIONSELEMENTE
100
AcDbLine
 62
7
  6
CONTINUOUS
 10
252.4004081922
 20
112.1836512149
 11
251.7244780722
 21
112.2653652446
  0
LINE
  5
64C
100
AcDbEntity
  8
KONSTRUKTIONSELEMENTE
100
AcDbLine
 62
7
  6
CONTINUOUS
 10
256.5248752926
 20
114.1027701699
 11
255.8537112493
 21
114.2652265227
  0
LINE
  5
64D
100
AcDbEntity
  8
KONSTRUKTIONSELEMENTE
100
AcDbLine
 62
7
  6
CONTINUOUS
 10
255.5809602973
 20
113.6294298044
 11
256.4085510372
 21
113.3998685535
  0
LINE
  5
64E
100
AcDbEntity
  8
KONSTRUKTIONSELEMENTE
100
AcDbLine
 62
7
  6
CONTINUOUS
 10
257.2174653591
 20
117.4442085982
 11
252.3682451677
 21
119.5244795177
  0
LINE
  5
64F
100
AcDbEntity
  8
KONSTRUKTIONSELEMENTE
100
AcDbLine
 62
7
  6
CONTINUOUS
 10
258.0603830315
 20
123.9383762834
 11
258.6566249846
 21
123.5900247757
  0
LINE
  5
650
100
AcDbEntity
  8
KONSTRUKTIONSELEMENTE
100
AcDbLine
 62
7
  6
CONTINUOUS
 10
259.1004688293
 20
124.1207155838
 11
258.3736594452
 21
124.578267307
  0
LINE
  5
651
100
AcDbEntity
  8
KONSTRUKTIONSELEMENTE
100
AcDbLine
 62
7
  6
CONTINUOUS
 10
289.4935312728
 20
107.2839316703
 11
282.5653280425
 21
119.2839316703
  0
LINE
  5
652
100
AcDbEntity
  8
KONSTRUKTIONSELEMENTE
100
AcDbLine
 62
7
  6
CONTINUOUS
 10
286.7249850128
 20
129.7967631393
 11
286.5487647847
 21
130.6000251071
  0
LINE
  5
653
100
AcDbEntity
  8
0
100
AcDbLine
 62
7
  6
CONTINUOUS
 10
310.0960227657
 20
148.8080359507
 11
311.2204909724
 21
153.5713597124
  0
LINE
  5
654
100
AcDbEntity
  8
0
100
AcDbLine
 62
7
  6
CONTINUOUS
 10
236.1716221007
 20
108.9239311934
 11
236.6720705219
 21
108.9239311934
  0
LINE
  5
655
100
AcDbEntity
  8
0
100
AcDbLine
 62
7
  6
CONTINUOUS
 10
236.2104257192
 20
109.6739311934
 11
236.7113795068
 21
109.6739311934
  0
LINE
  5
656
100
AcDbEntity
  8
0
100
AcDbLine
 62
7
  6
CONTINUOUS
 10
236.2443504545
 20
110.1739321471
 11
236.7457469099
 21
110.1739321471
  0
LINE
  5
657
100
AcDbEntity
  8
0
100
AcDbLine
 62
7
  6
CONTINUOUS
 10
236.263735418
 20
110.4239311934
 11
236.7653851723
 21
110.4239311934
  0
LINE
  5
658
100
AcDbEntity
  8
0
100
AcDbLine
 62
7
  6
CONTINUOUS
 10
236.414129089
 20
111.9239319087
 11
236.9177527899
 21
111.9239319087
  0
LINE
  5
659
100
AcDbEntity
  8
0
100
AcDbLine
 62
7
  6
CONTINUOUS
 10
236.417132883
 20
111.9489316703
 11
236.9207961686
 21
111.9489316703
  0
LINE
  5
65A
100
AcDbEntity
  8
0
100
AcDbLine
 62
7
  6
CONTINUOUS
 10
236.6579649494
 20
113.6364316703
 11
237.1648224887
 21
113.6364316703
  0
LINE
  5
65B
100
AcDbEntity
  8
0
100
AcDbLine
 62
7
  6
CONTINUOUS
 10
236.7065327902
 20
113.9239314319
 11
237.214039453
 21
113.9239314319
  0
LINE
  5
65C
100
AcDbEntity
  8
0
100
AcDbLine
 62
7
  6
CONTINUOUS
 10
236.7505660095
 20
114.1739319087
 11
237.2586626376
 21
114.1739319087
  0
LINE
  5
65D
100
AcDbEntity
  8
0
100
AcDbLine
 62
7
  6
CONTINUOUS
 10
236.7962797512
 20
114.4239316703
 11
237.3049903232
 21
114.4239316703
  0
LINE
  5
65E
100
AcDbEntity
  8
KONSTRUKTIONSELEMENTE
100
AcDbLine
 62
7
  6
CONTINUOUS
 10
256.4085510372
 20
113.3998685535
 11
257.1251738771
 21
113.3433787282
  0
LINE
  5
65F
100
AcDbEntity
  8
KONSTRUKTIONSELEMENTE
100
AcDbLine
 62
7
  6
CONTINUOUS
 10
257.5207332394
 20
124.0890790447
 11
258.0603830315
 21
123.9383762834
  0
LINE
  5
660
100
AcDbEntity
  8
KONSTRUKTIONSELEMENTE
100
AcDbLine
 62
7
  6
CONTINUOUS
 10
258.3736594452
 20
124.578267307
 11
257.7034429537
 21
124.8381696719
  0
LINE
  5
661
100
AcDbEntity
  8
KONSTRUKTIONSELEMENTE
100
AcDbLine
 62
7
  6
CONTINUOUS
 10
286.5487647847
 20
130.6000251071
 11
286.2464476121
 21
131.087076582
  0
LINE
  5
662
100
AcDbEntity
  8
KONSTRUKTIONSELEMENTE
100
AcDbLine
 62
7
  6
CONTINUOUS
 10
285.7169994179
 20
130.3819703524
 11
285.9122124484
 21
129.9376293674
  0
LINE
  5
663
100
AcDbEntity
  8
0
100
AcDbLine
 62
7
  6
CONTINUOUS
 10
311.2204909724
 20
60.9965036281
 11
310.0960227657
 21
65.7598273898
  0
LINE
  5
664
100
AcDbEntity
  8
0
100
AcDbLine
 62
7
  6
CONTINUOUS
 10
312.2521934729
 20
159.8114051085
 11
310.949472292
 21
152.4233061592
  0
LINE
  5
665
100
AcDbEntity
  8
0
100
AcDbLine
 62
7
  6
CONTINUOUS
 10
309.8528865671
 20
146.2042594743
 11
309.7787714346
 21
145.7839316703
  0
LINE
  5
666
100
AcDbEntity
  8
KONSTRUKTIONSELEMENTE
100
AcDbLine
 62
7
  6
CONTINUOUS
 10
257.1251738771
 20
113.3433787282
 11
257.9327133861
 21
113.4988205595
  0
LINE
  5
667
100
AcDbEntity
  8
KONSTRUKTIONSELEMENTE
100
AcDbLine
 62
7
  6
CONTINUOUS
 10
257.8216844927
 20
111.6444113072
 11
253.8105409073
 21
111.0840213026
  0
LINE
  5
668
100
AcDbEntity
  8
KONSTRUKTIONSELEMENTE
100
AcDbLine
 62
7
  6
CONTINUOUS
 10
254.0654739485
 20
110.3563338834
 11
257.7248140769
 21
110.843109108
  0
LINE
  5
669
100
AcDbEntity
  8
KONSTRUKTIONSELEMENTE
100
AcDbLine
 62
7
  6
CONTINUOUS
 10
251.120660461
 20
111.5253488524
 11
251.6414463098
 21
111.5785349754
  0
LINE
  5
66A
100
AcDbEntity
  8
KONSTRUKTIONSELEMENTE
100
AcDbLine
 62
7
  6
CONTINUOUS
 10
251.7244780722
 20
112.2653652446
 11
251.2036922233
 21
112.2121791217
  0
LINE
  5
66B
100
AcDbEntity
  8
KONSTRUKTIONSELEMENTE
100
AcDbLine
 62
7
  6
CONTINUOUS
 10
257.0850717164
 20
114.1133861992
 11
256.5248752926
 21
114.1027701699
  0
LINE
  5
66C
100
AcDbEntity
  8
0
100
AcDbLine
 62
7
  6
CONTINUOUS
 10
236.9435664549
 20
115.1739316703
 11
237.4542653136
 21
115.1739316703
  0
LINE
  5
66D
100
AcDbEntity
  8
0
100
AcDbLine
 62
7
  6
CONTINUOUS
 10
237.1638723279
 20
116.1739314319
 11
237.6775745715
 21
116.1739314319
  0
LINE
  5
66E
100
AcDbEntity
  8
0
100
AcDbLine
 62
7
  6
CONTINUOUS
 10
237.478388774
 20
117.4239316703
 11
237.9964409198
 21
117.4239316703
  0
LINE
  5
66F
100
AcDbEntity
  8
KONSTRUKTIONSELEMENTE
100
AcDbLine
 62
7
  6
CONTINUOUS
 10
282.5653280425
 20
119.2839316703
 11
268.708921582
 21
119.2839316703
  0
LINE
  5
670
100
AcDbEntity
  8
KONSTRUKTIONSELEMENTE
100
AcDbLine
 62
7
  6
CONTINUOUS
 10
280.45442776
 20
124.9674087927
 11
284.3101474601
 21
123.4298428859
  0
LINE
  5
671
100
AcDbEntity
  8
KONSTRUKTIONSELEMENTE
100
AcDbLine
 62
7
  6
CONTINUOUS
 10
284.6253898655
 20
124.2203692285
 11
281.6264983997
 21
125.416253171
  0
LINE
  5
672
100
AcDbEntity
  8
KONSTRUKTIONSELEMENTE
100
AcDbLine
 62
7
  6
CONTINUOUS
 10
285.2445320823
 20
130.7536260933
 11
285.7169994179
 21
130.3819703524
  0
LINE
  5
673
100
AcDbEntity
  8
KONSTRUKTIONSELEMENTE
100
AcDbLine
 62
7
  6
CONTINUOUS
 10
309.7787714346
 20
68.7839316703
 11
309.8528865671
 21
68.3636038663
  0
LINE
  5
674
100
AcDbEntity
  8
KONSTRUKTIONSELEMENTE
100
AcDbLine
 62
7
  6
CONTINUOUS
 10
310.949472292
 20
62.1445571814
 11
312.2627359568
 21
54.6966688347
  0
LINE
  5
675
100
AcDbEntity
  8
KONSTRUKTIONSELEMENTE
100
AcDbLine
 62
7
  6
CONTINUOUS
 10
309.948393115
 20
66.7533684213
 11
309.9494738692
 21
66.7357544499
  0
LINE
  5
676
100
AcDbEntity
  8
RUNDUNGEN
100
AcDbLine
 62
7
  6
CONTINUOUS
 10
309.9494463924
 20
66.735754174
 11
309.9484073216
 21
66.753369293
  0
LWPOLYLINE
  5
677
100
AcDbEntity
  8
KONSTRUKTIONSELEMENTE
100
AcDbPolyline
 62
7
  6
CONTINUOUS
 90
3
 70
0
 10
308.9328781401
 20
93.7194195501
 10
308.9934868556
 20
90.3881580922
 10
309.0285231145
 20
88.7951590736
  0
LINE
  5
678
100
AcDbEntity
  8
KONSTRUKTIONSELEMENTE
100
AcDbLine
 62
7
  6
CONTINUOUS
 10
308.8896806974
 20
97.030555959
 11
308.9328781401
 21
93.7194195501
  0
LINE
  5
679
100
AcDbEntity
  8
KONSTRUKTIONSELEMENTE
100
AcDbLine
 62
7
  6
CONTINUOUS
 10
308.8874111149
 20
97.4551285236
 11
308.8896806974
 21
97.030555959
  0
LINE
  5
67A
100
AcDbEntity
  8
KONSTRUKTIONSELEMENTE
100
AcDbLine
 62
7
  6
CONTINUOUS
 10
308.8874111149
 20
97.4551285236
 11
308.8871248123
 21
116.8974314773
  0
LINE
  5
67B
100
AcDbEntity
  8
0
100
AcDbLine
 62
7
  6
CONTINUOUS
 10
312.6371248123
 20
51.2104691762
 11
312.6371248123
 21
52.7460438096
  0
LINE
  5
67C
100
AcDbEntity
  8
0
100
AcDbLine
 62
7
  6
CONTINUOUS
 10
313.1371248123
 20
164.6347846314
 11
313.1371248123
 21
163.4477081856
  0
LINE
  5
67D
100
AcDbEntity
  8
KONSTRUKTIONSELEMENTE
100
AcDbLine
 62
7
  6
CONTINUOUS
 10
313.1371248123
 20
49.9330787092
 11
313.1371248123
 21
51.1201551549
  0
LINE
  5
67E
100
AcDbEntity
  8
0
100
AcDbLine
 62
7
  6
CONTINUOUS
 10
308.8882520361
 20
117.3250429481
 11
308.8871248123
 21
97.71908676
  0
LINE
  5
67F
100
AcDbEntity
  8
0
100
AcDbLine
 62
7
  6
CONTINUOUS
 10
308.8916165838
 20
117.7406528552
 11
308.8882520361
 21
117.3250429481
  0
LINE
  5
680
100
AcDbEntity
  8
0
100
AcDbLine
 62
7
  6
CONTINUOUS
 10
308.9328781401
 20
120.8484437904
 11
308.8916165828
 21
117.7406526396
  0
LWPOLYLINE
  5
681
100
AcDbEntity
  8
0
100
AcDbPolyline
 62
7
  6
CONTINUOUS
 90
3
 70
0
 10
309.0285231145
 20
125.772704267
 10
308.9934868556
 20
124.1797052484
 10
308.9328781401
 20
120.8484437904
  0
LINE
  5
682
100
AcDbEntity
  8
RUNDUNGEN
100
AcDbLine
 62
7
  6
CONTINUOUS
 10
309.9484073216
 20
147.8144940476
 11
309.9494464406
 21
147.8321091661
  0
LINE
  5
683
100
AcDbEntity
  8
0
100
AcDbLine
 62
7
  6
CONTINUOUS
 10
309.9494738692
 20
147.8321088906
 11
309.948393115
 21
147.8144949192
  0
LINE
  5
684
100
AcDbEntity
  8
BEZUGSACHSEN
100
AcDbLine
 62
7
  6
CONTINUOUS
 10
294.4010085609
 20
74.7839316703
 11
308.8871248123
 21
99.8746210219
  0
LINE
  5
685
100
AcDbEntity
  8
0
100
AcDbLine
 62
7
  6
CONTINUOUS
 10
239.6335982269
 20
123.4239316703
 11
240.1835784972
 21
123.4239316703
  0
LINE
  5
686
100
AcDbEntity
  8
0
100
AcDbLine
 62
7
  6
CONTINUOUS
 10
240.4309886506
 20
125.0739320279
 11
240.9938108654
 21
125.0739320279
  0
LINE
  5
687
100
AcDbEntity
  8
0
100
AcDbLine
 62
7
  6
CONTINUOUS
 10
241.2417578722
 20
126.5739316703
 11
241.8182727912
 21
126.5739316703
  0
LINE
  5
688
100
AcDbEntity
  8
KONSTRUKTIONSELEMENTE
100
AcDbLine
 62
7
  6
CONTINUOUS
 10
277.7002237358
 20
125.3825627487
 11
278.3893667331
 21
125.3216363865
  0
LINE
  5
689
100
AcDbEntity
  8
KONSTRUKTIONSELEMENTE
100
AcDbLine
 62
7
  6
CONTINUOUS
 10
275.153509686
 20
127.9999882786
 11
277.9100816752
 21
127.7562828299
  0
LINE
  5
68A
100
AcDbEntity
  8
KONSTRUKTIONSELEMENTE
100
AcDbLine
 62
7
  6
CONTINUOUS
 10
278.5992246725
 20
127.6953564677
 11
279.7477972109
 21
127.5938124533
  0
LINE
  5
68B
100
AcDbEntity
  8
KONSTRUKTIONSELEMENTE
100
AcDbLine
 62
7
  6
CONTINUOUS
 10
257.7034429537
 20
124.8381696719
 11
256.8852790782
 21
124.9211757756
  0
LINE
  5
68C
100
AcDbEntity
  8
KONSTRUKTIONSELEMENTE
100
AcDbLine
 62
7
  6
CONTINUOUS
 10
282.8312772566
 20
130.6164880584
 11
283.3667930645
 21
130.4029375639
  0
LINE
  5
68D
100
AcDbEntity
  8
KONSTRUKTIONSELEMENTE
100
AcDbLine
 62
7
  6
CONTINUOUS
 10
284.8161179652
 20
130.9244670755
 11
285.2445320823
 21
130.7536260933
  0
LINE
  5
68E
100
AcDbEntity
  8
KONSTRUKTIONSELEMENTE
100
AcDbLine
 62
7
  6
CONTINUOUS
 10
285.6668761343
 20
131.5014428129
 11
285.2384644686
 21
131.6722828175
  0
LINE
  5
68F
100
AcDbEntity
  8
KONSTRUKTIONSELEMENTE
100
AcDbLine
 62
7
  6
CONTINUOUS
 10
286.2464476121
 20
131.087076582
 11
285.6668761343
 21
131.5014428129
  0
LINE
  5
690
100
AcDbEntity
  8
BEZUGSACHSEN
100
AcDbLine
 62
7
  6
CONTINUOUS
 10
308.8871248123
 20
114.6932423186
 11
294.4010085609
 21
139.7839316703
  0
LINE
  5
691
100
AcDbEntity
  8
KONSTRUKTIONSELEMENTE
100
AcDbLine
 62
7
  6
CONTINUOUS
 10
268.602117571
 20
124.3065887658
 11
269.2739408108
 21
124.4717663272
  0
LINE
  5
692
100
AcDbEntity
  8
KONSTRUKTIONSELEMENTE
100
AcDbLine
 62
7
  6
CONTINUOUS
 10
270.8415275161
 20
124.8571804271
 11
271.7372935443
 21
125.0774175957
  0
LINE
  5
693
100
AcDbEntity
  8
KONSTRUKTIONSELEMENTE
100
AcDbLine
 62
7
  6
CONTINUOUS
 10
273.3048802496
 20
125.4628316956
 11
273.9767034894
 21
125.628009257
  0
LINE
  5
694
100
AcDbEntity
  8
KONSTRUKTIONSELEMENTE
100
AcDbLine
 62
7
  6
CONTINUOUS
 10
256.8852790782
 20
124.9211757756
 11
256.3282493333
 21
124.7857820601
  0
LINE
  5
695
100
AcDbEntity
  8
KONSTRUKTIONSELEMENTE
100
AcDbLine
 62
7
  6
CONTINUOUS
 10
257.0376771865
 20
124.0421334598
 11
257.5207332394
 21
124.0890790447
  0
LINE
  5
696
100
AcDbEntity
  8
0
100
AcDbLine
 62
7
  6
CONTINUOUS
 10
245.1330788351
 20
132.1989316703
 11
245.7859276476
 21
132.1989316703
  0
LINE
  5
697
100
AcDbEntity
  8
0
100
AcDbLine
 62
7
  6
CONTINUOUS
 10
246.104067791
 20
133.3239316703
 11
246.7792617052
 21
133.3239316703
  0
LINE
  5
698
100
AcDbEntity
  8
KONSTRUKTIONSELEMENTE
100
AcDbLine
 62
7
  6
CONTINUOUS
 10
279.8377363398
 20
128.6111211952
 11
278.6891638014
 21
128.7126652096
  0
LINE
  5
699
100
AcDbEntity
  8
KONSTRUKTIONSELEMENTE
100
AcDbLine
 62
7
  6
CONTINUOUS
 10
278.0000208041
 20
128.7735915718
 11
276.0474498547
 21
128.9462161872
  0
LINE
  5
69A
100
AcDbEntity
  8
KONSTRUKTIONSELEMENTE
100
AcDbLine
 62
7
  6
CONTINUOUS
 10
279.0938898289
 20
133.2905539546
 11
278.4047468316
 21
133.3514803168
  0
LINE
  5
69B
100
AcDbEntity
  8
KONSTRUKTIONSELEMENTE
100
AcDbLine
 62
7
  6
CONTINUOUS
 10
284.2175536851
 20
130.9799123237
 11
284.8161179652
 21
130.9244670755
  0
LINE
  5
69C
100
AcDbEntity
  8
KONSTRUKTIONSELEMENTE
100
AcDbLine
 62
7
  6
CONTINUOUS
 10
285.2384644686
 20
131.6722828175
 11
284.4256919042
 21
131.8131490455
  0
LINE
  5
69D
100
AcDbEntity
  8
KURVEN
100
AcDbLine
 62
4
  6
CONTINUOUS
 10
322.1371248123
 20
46.2839316703
 11
322.1371248123
 21
45.3617730281
  0
LINE
  5
69E
100
AcDbEntity
  8
KONSTRUKTIONSELEMENTE
100
AcDbLine
 62
7
  6
CONTINUOUS
 10
284.4256919042
 20
131.8131490455
 11
283.8711808425
 21
131.6677795349
  0
LINE
  5
69F
100
AcDbEntity
  8
KONSTRUKTIONSELEMENTE
100
AcDbLine
 62
7
  6
CONTINUOUS
 10
272.0666697576
 20
133.3966494947
 11
271.0589348979
 21
133.1488831526
  0
LINE
  5
6A0
100
AcDbEntity
  8
KONSTRUKTIONSELEMENTE
100
AcDbLine
 62
7
  6
CONTINUOUS
 10
267.6998186989
 20
132.3229953457
 11
266.6920838392
 21
132.0752290036
  0
LINE
  5
6A1
100
AcDbEntity
  8
0
100
AcDbLine
 62
7
  6
CONTINUOUS
 10
247.5228460755
 20
134.8239318491
 11
248.2336233645
 21
134.8239318491
  0
LINE
  5
6A2
100
AcDbEntity
  8
0
100
AcDbLine
 62
7
  6
CONTINUOUS
 10
248.692507879
 20
135.9489318491
 11
249.4356119239
 21
135.9489318491
  0
LINE
  5
6A3
100
AcDbEntity
  8
0
100
AcDbLine
 62
7
  6
CONTINUOUS
 10
251.8576081849
 20
138.5739317597
 11
252.7053193922
 21
138.5739317597
  0
LINE
  5
6A4
100
AcDbEntity
  8
0
100
AcDbLine
 62
7
  6
CONTINUOUS
 10
331.1371248123
 20
164.6347846314
 11
331.1371248123
 21
163.4477081856
  0
LINE
  5
6A5
100
AcDbEntity
  8
0
100
AcDbLine
 62
7
  6
CONTINUOUS
 10
331.1371248123
 20
49.9330787092
 11
331.1371248123
 21
51.1201551549
  0
LINE
  5
6A6
100
AcDbEntity
  8
BEZUGSACHSEN
100
AcDbLine
 62
7
  6
CONTINUOUS
 10
294.4010085609
 20
139.7839316703
 11
256.8732410636
 21
139.7839316703
  0
LINE
  5
6A7
100
AcDbEntity
  8
0
100
AcDbLine
 62
7
  6
CONTINUOUS
 10
255.8816638985
 20
141.1989316703
 11
256.9156326944
 21
141.1989316703
  0
LINE
  5
6A8
100
AcDbEntity
  8
0
100
AcDbLine
 62
7
  6
CONTINUOUS
 10
258.0140876985
 20
142.3239316703
 11
259.1856860057
 21
142.3239316703
  0
LINE
  5
6A9
100
AcDbEntity
  8
RUNDUNGEN
100
AcDbLine
 62
7
  6
CONTINUOUS
 10
347.1366816971
 20
145.7839316703
 11
334.4454554439
 21
145.7839316703
  0
LINE
  5
6AA
100
AcDbEntity
  8
RUNDUNGEN
100
AcDbLine
 62
7
  6
CONTINUOUS
 10
309.8287941806
 20
145.7839316703
 11
275.1371248123
 21
145.7839316703
  0
LINE
  5
6AB
100
AcDbEntity
  8
0
100
AcDbLine
 62
7
  6
CONTINUOUS
 10
334.3258565096
 20
147.8144949192
 11
334.3247757553
 21
147.8321088906
  0
LINE
  5
6AC
100
AcDbEntity
  8
RUNDUNGEN
100
AcDbLine
 62
7
  6
CONTINUOUS
 10
334.3248032321
 20
147.8321091666
 11
334.3258423029
 21
147.8144940476
  0
LWPOLYLINE
  5
6AD
100
AcDbEntity
  8
0
100
AcDbPolyline
 62
7
  6
CONTINUOUS
 90
3
 70
0
 10
335.3413714845
 20
120.8484437904
 10
335.2807627689
 20
124.1797052484
 10
335.24572651
 20
125.772704267
  0
LINE
  5
6AE
100
AcDbEntity
  8
0
100
AcDbLine
 62
7
  6
CONTINUOUS
 10
335.3845689272
 20
117.5373073816
 11
335.3413714845
 21
120.8484437904
  0
LINE
  5
6AF
100
AcDbEntity
  8
0
100
AcDbLine
 62
7
  6
CONTINUOUS
 10
335.3868385096
 20
117.112734817
 11
335.3845689272
 21
117.5373073816
  0
LINE
  5
6B0
100
AcDbEntity
  8
0
100
AcDbLine
 62
7
  6
CONTINUOUS
 10
335.3868385096
 20
117.112734817
 11
335.3871248123
 21
97.6704318632
  0
LINE
  5
6B1
100
AcDbEntity
  8
0
100
AcDbLine
 62
7
  6
CONTINUOUS
 10
335.3859975885
 20
97.2428203925
 11
335.3871248281
 21
97.6703908602
  0
LINE
  5
6B2
100
AcDbEntity
  8
0
100
AcDbLine
 62
7
  6
CONTINUOUS
 10
335.3826330407
 20
96.8272104853
 11
335.3859975885
 21
97.2428203925
  0
LINE
  5
6B3
100
AcDbEntity
  8
0
100
AcDbLine
 62
7
  6
CONTINUOUS
 10
335.3413714845
 20
93.7194195501
 11
335.3826330418
 21
96.827210701
  0
LWPOLYLINE
  5
6B4
100
AcDbEntity
  8
0
100
AcDbPolyline
 62
7
  6
CONTINUOUS
 90
3
 70
0
 10
335.24572651
 20
88.7951590736
 10
335.2807627689
 20
90.3881580922
 10
335.3413714845
 20
93.7194195501
  0
LINE
  5
6B5
100
AcDbEntity
  8
RUNDUNGEN
100
AcDbLine
 62
7
  6
CONTINUOUS
 10
334.3258423029
 20
66.753369293
 11
334.3248031839
 21
66.7357541744
  0
LINE
  5
6B6
100
AcDbEntity
  8
0
100
AcDbLine
 62
7
  6
CONTINUOUS
 10
334.3247757553
 20
66.7357544499
 11
334.3258565096
 21
66.7533684213
  0
LINE
  5
6B7
100
AcDbEntity
  8
0
100
AcDbLine
 62
7
  6
CONTINUOUS
 10
334.49547819
 20
68.7839316703
 11
334.4213630574
 21
68.3636038663
  0
LINE
  5
6B8
100
AcDbEntity
  8
0
100
AcDbLine
 62
7
  6
CONTINUOUS
 10
333.3247773326
 20
62.1445571814
 11
332.0115136677
 21
54.6966688347
  0
LINE
  5
6B9
100
AcDbEntity
  8
0
100
AcDbLine
 62
7
  6
CONTINUOUS
 10
334.1782268588
 20
65.7598273898
 11
333.0537586522
 21
60.9965036281
  0
LINE
  5
6BA
100
AcDbEntity
  8
0
100
AcDbLine
 62
7
  6
CONTINUOUS
 10
334.1782268588
 20
148.8080359507
 11
333.0537586522
 21
153.5713597124
  0
LINE
  5
6BB
100
AcDbEntity
  8
0
100
AcDbLine
 62
7
  6
CONTINUOUS
 10
334.4213630574
 20
146.2042594743
 11
334.49547819
 21
145.7839316703
  0
LINE
  5
6BC
100
AcDbEntity
  8
0
100
AcDbLine
 62
7
  6
CONTINUOUS
 10
333.3247773326
 20
152.4233061592
 11
332.0115136677
 21
159.8711945059
  0
LINE
  5
6BD
100
AcDbEntity
  8
RUNDUNGEN
100
AcDbLine
 62
7
  6
CONTINUOUS
 10
312.3663036216
 20
160.4215672847
 11
312.3847921021
 21
160.4215672847
  0
LINE
  5
6BE
100
AcDbEntity
  8
RUNDUNGEN
100
AcDbLine
 62
7
  6
CONTINUOUS
 10
331.8894575224
 20
160.4215672847
 11
331.9079176811
 21
160.4215672847
  0
LINE
  5
6BF
100
AcDbEntity
  8
RUNDUNGEN
100
AcDbLine
 62
7
  6
CONTINUOUS
 10
351.6371248123
 20
73.2839316703
 11
351.6371248123
 21
141.2839316703
  0
LWPOLYLINE
  5
6C0
100
AcDbEntity
  8
0
100
AcDbPolyline
 62
7
  6
CONTINUOUS
 90
15
 70
0
 10
321.8092702617
 20
168.2839317598
 10
321.6072426023
 20
168.2819358964
 10
320.7939358412
 20
168.2334006286
 10
319.982488012
 20
168.119503706
 10
319.1811990061
 20
167.940758223
 10
318.3968899535
 20
167.6986367281
 10
317.6369317115
 20
167.3959440297
 10
316.907743447
 20
167.0364414365
 10
316.2154430633
 20
166.6250748798
 10
315.5643985364
 20
166.1670746686
 10
314.9604930975
 20
165.6702775994
 10
314.4068155587
 20
165.1422811696
 10
313.9070904111
 20
164.5933405557
 10
313.464240947
 20
164.0358674939
 10
313.3949760095
 20
163.9415639369
  0
LINE
  5
6C1
100
AcDbEntity
  8
0
100
AcDbLine
 62
7
  6
CONTINUOUS
 10
322.4650256106
 20
168.2839316703
 11
321.809224014
 21
168.2839316703
  0
LWPOLYLINE
  5
6C2
100
AcDbEntity
  8
0
100
AcDbPolyline
 62
7
  6
CONTINUOUS
 90
15
 70
0
 10
330.8792729806
 20
163.9415648113
 10
330.7972712706
 20
164.0529834731
 10
330.3537607111
 20
164.6090880727
 10
329.8536954433
 20
165.1563348331
 10
329.3000117209
 20
165.6824467815
 10
328.696434746
 20
166.1772811413
 10
328.0460555093
 20
166.6333230463
 10
327.3547261416
 20
167.0428263468
 10
326.626790792
 20
167.4006218213
 10
325.8683201617
 20
167.701822854
 10
325.0856858145
 20
167.9427104245
 10
324.2861967959
 20
168.1205115818
 10
323.4766175629
 20
168.2337686952
 10
322.6651735197
 20
168.2819719698
 10
322.4649797389
 20
168.2839317602
  0
LINE
  5
6C3
100
AcDbEntity
  8
0
100
AcDbLine
 62
7
  6
CONTINUOUS
 10
329.2435164584
 20
48.8398034164
 11
331.1371248123
 21
49.9330787092
  0
LINE
  5
6C4
100
AcDbEntity
  8
0
100
AcDbLine
 62
7
  6
CONTINUOUS
 10
329.246418598
 20
165.7263843731
 11
331.1371248123
 21
164.6347846314
  0
ARC
  5
6C5
100
AcDbEntity
  8
RUNDUNGEN
100
AcDbCircle
 62
7
  6
CONTINUOUS
 10
321.6371248123
 20
367.2197430003
 40
30.0
100
AcDbArc
 50
270.0
 51
69.4965054704
  0
ARC
  5
6C6
100
AcDbEntity
  8
0
100
AcDbCircle
 62
7
  6
CONTINUOUS
 10
254.2254893485
 20
345.5717524338
 40
18.0883652611
100
AcDbArc
 50
178.0043403814
 51
179.2178232277
  0
ARC
  5
6C7
100
AcDbEntity
  8
0
100
AcDbCircle
 62
7
  6
CONTINUOUS
 10
254.2254893485
 20
352.767733701
 40
18.0883652611
100
AcDbArc
 50
180.7821767723
 51
181.9956596186
  0
ARC
  5
6C8
100
AcDbEntity
  8
0
100
AcDbCircle
 62
7
  6
CONTINUOUS
 10
321.9112576219
 20
366.0461577402
 40
13.4778511191
100
AcDbArc
 50
355.5985212894
 51
356.3334144004
  0
ARC
  5
6C9
100
AcDbEntity
  8
0
100
AcDbCircle
 62
7
  6
CONTINUOUS
 10
322.0132339621
 20
365.9949778953
 40
13.3738957951
100
AcDbArc
 50
358.8751579187
 51
359.9507292371
  0
ARC
  5
6CA
100
AcDbEntity
  8
KONSTRUKTIONSELEMENTE
100
AcDbCircle
 62
7
  6
CONTINUOUS
 10
321.4236527044
 20
366.0062708925
 40
12.5365278922
100
AcDbArc
 50
269.744668591
 51
270.0
  0
ARC
  5
6CB
100
AcDbEntity
  8
KONSTRUKTIONSELEMENTE
100
AcDbCircle
 62
7
  6
CONTINUOUS
 10
321.4236527044
 20
366.0062708925
 40
12.5365278922
100
AcDbArc
 50
244.8379985125
 51
269.4257387503
  0
ARC
  5
6CC
100
AcDbEntity
  8
KONSTRUKTIONSELEMENTE
100
AcDbCircle
 62
7
  6
CONTINUOUS
 10
321.4236527044
 20
366.0062708925
 40
12.5365278922
100
AcDbArc
 50
180.104110265
 51
184.5490616542
  0
ARC
  5
6CD
100
AcDbEntity
  8
KONSTRUKTIONSELEMENTE
100
AcDbCircle
 62
7
  6
CONTINUOUS
 10
321.3123725484
 20
365.9797858934
 40
12.425137731
100
AcDbArc
 50
181.1406757327
 51
183.6709730605
  0
ARC
  5
6CE
100
AcDbEntity
  8
RUNDUNGEN
100
AcDbCircle
 62
7
  6
CONTINUOUS
 10
241.1371248123
 20
392.7197430003
 40
4.5
100
AcDbArc
 50
90.0
 51
180.0
  0
ARC
  5
6CF
100
AcDbEntity
  8
RUNDUNGEN
100
AcDbCircle
 62
7
  6
CONTINUOUS
 10
241.1371248123
 20
341.7197430003
 40
4.5
100
AcDbArc
 50
180.0
 51
270.0
  0
ARC
  5
6D0
100
AcDbEntity
  8
0
100
AcDbCircle
 62
7
  6
CONTINUOUS
 10
237.7660257705
 20
352.5948699826
 40
1.6289009414
100
AcDbArc
 50
180.0007307761
 51
182.606028146
  0
ARC
  5
6D1
100
AcDbEntity
  8
0
100
AcDbCircle
 62
7
  6
CONTINUOUS
 10
237.7660257705
 20
345.7446161522
 40
1.6289009414
100
AcDbArc
 50
177.393971854
 51
179.9992692239
  0
ARC
  5
6D2
100
AcDbEntity
  8
0
100
AcDbCircle
 62
7
  6
CONTINUOUS
 10
237.2712931759
 20
344.7675220684
 40
1.1341683671
100
AcDbArc
 50
175.2605520577
 51
184.9541393628
  0
ARC
  5
6D3
100
AcDbEntity
  8
0
100
AcDbCircle
 62
7
  6
CONTINUOUS
 10
237.2712929781
 20
353.5719639409
 40
1.1341681693
100
AcDbArc
 50
175.045860205
 51
184.7394483558
  0
ARC
  5
6D4
100
AcDbEntity
  8
0
100
AcDbCircle
 62
7
  6
CONTINUOUS
 10
225.7461981948
 20
504.7858230264
 40
106.3909696043
100
AcDbArc
 50
0.0515053795
 51
0.8026598182
  0
ARC
  5
6D5
100
AcDbEntity
  8
RUNDUNGEN
100
AcDbCircle
 62
7
  6
CONTINUOUS
 10
280.1721419208
 20
540.6212004643
 40
55.2023216692
100
AcDbArc
 50
354.9057211609
 51
356.0721662089
  0
ARC
  5
6D6
100
AcDbEntity
  8
RUNDUNGEN
100
AcDbCircle
 62
7
  6
CONTINUOUS
 10
305.826631102
 20
529.0195457019
 40
28.5094652023
100
AcDbArc
 50
353.9675636658
 51
358.4632514994
  0
ARC
  5
6D7
100
AcDbEntity
  8
RUNDUNGEN
100
AcDbCircle
 62
7
  6
CONTINUOUS
 10
294.1371248123
 20
505.6603154215
 40
20.0
100
AcDbArc
 50
0.0
 51
6.0
  0
ARC
  5
6D8
100
AcDbEntity
  8
0
100
AcDbCircle
 62
7
  6
CONTINUOUS
 10
315.098533252
 20
539.2764906159
 40
6.1308765805
100
AcDbArc
 50
174.7683074642
 51
177.2877738287
  0
ARC
  5
6D9
100
AcDbEntity
  8
0
100
AcDbCircle
 62
7
  6
CONTINUOUS
 10
308.2894335547
 20
506.3275870133
 40
3.8584299615
100
AcDbArc
 50
359.2370748387
 51
5.665165547
  0
ARC
  5
6DA
100
AcDbEntity
  8
RUNDUNGEN
100
AcDbCircle
 62
7
  6
CONTINUOUS
 10
322.1371248123
 20
367.2197430003
 40
14.5
100
AcDbArc
 50
139.8994869032
 51
40.1002953852
  0
ARC
  5
6DB
100
AcDbEntity
  8
KONSTRUKTIONSELEMENTE
100
AcDbCircle
 62
7
  6
CONTINUOUS
 10
322.3629920026
 20
366.0461577402
 40
13.4778511191
100
AcDbArc
 50
183.6665855996
 51
184.4014787106
  0
ARC
  5
6DC
100
AcDbEntity
  8
KONSTRUKTIONSELEMENTE
100
AcDbCircle
 62
7
  6
CONTINUOUS
 10
322.261015663
 20
365.9949778953
 40
13.3738957957
100
AcDbArc
 50
180.0492707629
 51
181.1248420813
  0
ARC
  5
6DD
100
AcDbEntity
  8
0
100
AcDbCircle
 62
7
  6
CONTINUOUS
 10
322.8505969201
 20
366.0062708925
 40
12.5365278922
100
AcDbArc
 50
270.0
 51
285.1307574877
  0
ARC
  5
6DE
100
AcDbEntity
  8
0
100
AcDbCircle
 62
7
  6
CONTINUOUS
 10
322.8505969201
 20
366.0062708925
 40
12.5365278922
100
AcDbArc
 50
355.4509383458
 51
359.895889735
  0
ARC
  5
6DF
100
AcDbEntity
  8
0
100
AcDbCircle
 62
7
  6
CONTINUOUS
 10
322.961877076
 20
365.9797858934
 40
12.4251377311
100
AcDbArc
 50
356.3290269395
 51
358.8593242673
  0
ARC
  5
6E0
100
AcDbEntity
  8
0
100
AcDbCircle
 62
7
  6
CONTINUOUS
 10
418.5280514298
 20
504.7858230264
 40
106.3909696043
100
AcDbArc
 50
179.1973401818
 51
179.9484946205
  0
ARC
  5
6E1
100
AcDbEntity
  8
RUNDUNGEN
100
AcDbCircle
 62
7
  6
CONTINUOUS
 10
364.1164287595
 20
540.6223803678
 40
55.2166903198
100
AcDbArc
 50
183.9280656194
 51
185.0942060586
  0
ARC
  5
6E2
100
AcDbEntity
  8
RUNDUNGEN
100
AcDbCircle
 62
7
  6
CONTINUOUS
 10
338.4476185226
 20
529.0195457019
 40
28.5094652023
100
AcDbArc
 50
181.5367485006
 51
186.0324363342
  0
ARC
  5
6E3
100
AcDbEntity
  8
RUNDUNGEN
100
AcDbCircle
 62
7
  6
CONTINUOUS
 10
350.1371248123
 20
505.6603154215
 40
20.0
100
AcDbArc
 50
174.0
 51
180.0
  0
ARC
  5
6E4
100
AcDbEntity
  8
KONSTRUKTIONSELEMENTE
100
AcDbCircle
 62
7
  6
CONTINUOUS
 10
322.1371248123
 20
538.2197430003
 40
13.25
100
AcDbArc
 50
179.9826568223
 51
186.0
  0
ARC
  5
6E5
100
AcDbEntity
  8
0
100
AcDbCircle
 62
7
  6
CONTINUOUS
 10
322.1371248123
 20
538.2197430003
 40
13.25
100
AcDbArc
 50
179.9826568223
 51
186.0
  0
ARC
  5
6E6
100
AcDbEntity
  8
0
100
AcDbCircle
 62
7
  6
CONTINUOUS
 10
322.1371248123
 20
538.2197430003
 40
13.25
100
AcDbArc
 50
354.0
 51
0.0173431777
  0
ARC
  5
6E7
100
AcDbEntity
  8
0
100
AcDbCircle
 62
7
  6
CONTINUOUS
 10
329.1757163685
 20
539.2764906156
 40
6.1308765845
100
AcDbArc
 50
2.7122261708
 51
5.2316925354
  0
ARC
  5
6E8
100
AcDbEntity
  8
0
100
AcDbCircle
 62
7
  6
CONTINUOUS
 10
335.9848160121
 20
506.3275870158
 40
3.8584299038
100
AcDbArc
 50
174.3348344049
 51
180.7629252095
  0
ARC
  5
6E9
100
AcDbEntity
  8
BEZUGSACHSEN
100
AcDbCircle
 62
7
  6
CONTINUOUS
 10
492.1038854082
 20
389.4425152143
 40
42.2772278591
100
AcDbArc
 50
90.0020393976
 51
91.881863961
  0
ARC
  5
6EA
100
AcDbEntity
  8
0
100
AcDbCircle
 62
7
  6
CONTINUOUS
 10
472.3523793515
 20
378.4697430003
 40
25.0
100
AcDbArc
 50
180.0
 51
264.2604696174
  0
ARC
  5
6EB
100
AcDbEntity
  8
0
100
AcDbCircle
 62
7
  6
CONTINUOUS
 10
477.3523793515
 20
389.9697430003
 40
10.0
100
AcDbArc
 50
180.0
 51
221.4052790986
  0
ARC
  5
6EC
100
AcDbEntity
  8
RUNDUNGEN
100
AcDbCircle
 62
7
  6
CONTINUOUS
 10
474.3523793515
 20
341.7197430003
 40
4.5
100
AcDbArc
 50
180.0
 51
270.0
  0
ARC
  5
6ED
100
AcDbEntity
  8
RUNDUNGEN
100
AcDbCircle
 62
7
  6
CONTINUOUS
 10
474.3523793515
 20
392.7197430003
 40
4.5
100
AcDbArc
 50
90.0
 51
180.0
  0
ARC
  5
6EE
100
AcDbEntity
  8
RUNDUNGEN
100
AcDbCircle
 62
7
  6
CONTINUOUS
 10
-70.5079482187
 20
494.0346793127
 40
635.9888257453
100
AcDbArc
 50
1.2357789663
 51
1.5183538144
  0
ARC
  5
6EF
100
AcDbEntity
  8
0
100
AcDbCircle
 62
7
  6
CONTINUOUS
 10
506.0952019775
 20
451.5205689824
 40
92.6727681526
100
AcDbArc
 50
88.6043415989
 51
95.0574067842
  0
ARC
  5
6F0
100
AcDbEntity
  8
0
100
AcDbCircle
 62
7
  6
CONTINUOUS
 10
477.3523793515
 20
511.5730685616
 40
30.0
100
AcDbArc
 50
125.4111122953
 51
180.0
  0
ARC
  5
6F1
100
AcDbEntity
  8
RUNDUNGEN
100
AcDbCircle
 62
7
  6
CONTINUOUS
 10
466.2713581705
 20
505.6614260662
 40
14.9189788603
100
AcDbArc
 50
176.7240313493
 51
180.0042653895
  0
ARC
  5
6F2
100
AcDbEntity
  8
RUNDUNGEN
100
AcDbCircle
 62
7
  6
CONTINUOUS
 10
466.2252002554
 20
507.4164784241
 40
14.8571588615
100
AcDbArc
 50
178.7102725468
 51
182.2600194888
  0
ARC
  5
6F3
100
AcDbEntity
  8
0
100
AcDbCircle
 62
7
  6
CONTINUOUS
 10
477.3523793515
 20
503.2967864656
 40
10.0
100
AcDbArc
 50
131.267427381
 51
174.4127337815
  0
ARC
  5
6F4
100
AcDbEntity
  8
RUNDUNGEN
100
AcDbCircle
 62
7
  6
CONTINUOUS
 10
448.1044840409
 20
506.7016396801
 40
3.2776516134
100
AcDbArc
 50
356.7176952876
 51
2.2547815473
  0
ARC
  5
6F5
100
AcDbEntity
  8
RUNDUNGEN
100
AcDbCircle
 62
7
  6
CONTINUOUS
 10
457.2943416206
 20
488.8955393008
 40
3.0
100
AcDbArc
 50
329.9999999646
 51
30.0
  0
ARC
  5
6F6
100
AcDbEntity
  8
RUNDUNGEN
100
AcDbCircle
 62
7
  6
CONTINUOUS
 10
470.5624533471
 20
527.0347659293
 40
3.0
100
AcDbArc
 50
109.0
 51
156.0
  0
ARC
  5
6F7
100
AcDbEntity
  8
RUNDUNGEN
100
AcDbCircle
 62
7
  6
CONTINUOUS
 10
458.2147437371
 20
499.3013560716
 40
3.0
100
AcDbArc
 50
156.0
 51
210.0
  0
ARC
  5
6F8
100
AcDbEntity
  8
0
100
AcDbCircle
 62
7
  6
CONTINUOUS
 10
544.3523793515
 20
378.4697430003
 40
25.0
100
AcDbArc
 50
275.7395303826
 51
360.0
  0
ARC
  5
6F9
100
AcDbEntity
  8
0
100
AcDbCircle
 62
7
  6
CONTINUOUS
 10
539.3523793515
 20
389.9697430003
 40
10.0
100
AcDbArc
 50
318.5947209014
 51
360.0
  0
ARC
  5
6FA
100
AcDbEntity
  8
RUNDUNGEN
100
AcDbCircle
 62
7
  6
CONTINUOUS
 10
542.3523793515
 20
341.7197430003
 40
4.5
100
AcDbArc
 50
270.0
 51
360.0
  0
ARC
  5
6FB
100
AcDbEntity
  8
RUNDUNGEN
100
AcDbCircle
 62
7
  6
CONTINUOUS
 10
542.3523793515
 20
392.7197430003
 40
4.5
100
AcDbArc
 50
0.0
 51
90.0
  0
ARC
  5
6FC
100
AcDbEntity
  8
RUNDUNGEN
100
AcDbCircle
 62
7
  6
CONTINUOUS
 10
1087.2127069059
 20
494.0346793131
 40
635.9888257295
100
AcDbArc
 50
178.4816461856
 51
178.7642210337
  0
ARC
  5
6FD
100
AcDbEntity
  8
0
100
AcDbCircle
 62
7
  6
CONTINUOUS
 10
510.6095565394
 20
451.5205631626
 40
92.6727739661
100
AcDbArc
 50
84.9425934184
 51
91.3956581985
  0
ARC
  5
6FE
100
AcDbEntity
  8
KONSTRUKTIONSELEMENTE
100
AcDbCircle
 62
7
  6
CONTINUOUS
 10
508.3523793515
 20
467.9697430003
 40
83.5
100
AcDbArc
 50
54.5888877047
 51
81.6388609801
  0
ARC
  5
6FF
100
AcDbEntity
  8
0
100
AcDbCircle
 62
7
  6
CONTINUOUS
 10
508.3523793515
 20
467.9697430003
 40
83.5
100
AcDbArc
 50
81.6388609801
 51
125.4111122953
  0
ARC
  5
700
100
AcDbEntity
  8
0
100
AcDbCircle
 62
7
  6
CONTINUOUS
 10
508.3523793515
 20
467.9697430003
 40
57.0
100
AcDbArc
 50
48.732572619
 51
131.267427381
  0
ARC
  5
701
100
AcDbEntity
  8
KONSTRUKTIONSELEMENTE
100
AcDbCircle
 62
7
  6
CONTINUOUS
 10
539.3523793515
 20
511.5730685616
 40
30.0
100
AcDbArc
 50
0.0
 51
54.5888877047
  0
ARC
  5
702
100
AcDbEntity
  8
RUNDUNGEN
100
AcDbCircle
 62
7
  6
CONTINUOUS
 10
550.4334005325
 20
505.6614260662
 40
14.9189788603
100
AcDbArc
 50
359.9957346105
 51
3.2759686507
  0
ARC
  5
703
100
AcDbEntity
  8
RUNDUNGEN
100
AcDbCircle
 62
7
  6
CONTINUOUS
 10
550.4795584476
 20
507.4164784241
 40
14.8571588615
100
AcDbArc
 50
357.7399805112
 51
1.2897274532
  0
ARC
  5
704
100
AcDbEntity
  8
0
100
AcDbCircle
 62
7
  6
CONTINUOUS
 10
539.3523793515
 20
503.2967864656
 40
10.0
100
AcDbArc
 50
5.5872662185
 51
48.732572619
  0
ARC
  5
705
100
AcDbEntity
  8
0
100
AcDbCircle
 62
7
  6
CONTINUOUS
 10
559.4261655971
 20
462.1834037776
 40
5.0
100
AcDbArc
 50
174.2608295227
 51
359.3171996582
  0
ARC
  5
706
100
AcDbEntity
  8
0
100
AcDbCircle
 62
7
  6
CONTINUOUS
 10
559.4261655971
 20
453.6834037776
 40
5.0
100
AcDbArc
 50
174.2608295227
 51
359.3171996582
  0
ARC
  5
707
100
AcDbEntity
  8
0
100
AcDbCircle
 62
7
  6
CONTINUOUS
 10
559.4261655971
 20
462.1834037776
 40
3.5
100
AcDbArc
 50
282.3736251162
 51
8.2132107017
  0
ARC
  5
708
100
AcDbEntity
  8
0
100
AcDbCircle
 62
7
  6
CONTINUOUS
 10
559.4261655971
 20
462.1834037776
 40
3.5
100
AcDbArc
 50
171.7867892983
 51
257.4447123387
  0
ARC
  5
709
100
AcDbEntity
  8
0
100
AcDbCircle
 62
7
  6
CONTINUOUS
 10
559.4261655971
 20
453.6834037776
 40
3.5
100
AcDbArc
 50
171.7867892983
 51
8.2132107017
  0
ARC
  5
70A
100
AcDbEntity
  8
RUNDUNGEN
100
AcDbCircle
 62
7
  6
CONTINUOUS
 10
568.600274662
 20
506.7016396801
 40
3.2776516134
100
AcDbArc
 50
177.7452184527
 51
183.2823047124
  0
ARC
  5
70B
100
AcDbEntity
  8
RUNDUNGEN
100
AcDbCircle
 62
7
  6
CONTINUOUS
 10
546.1423053558
 20
527.0347659293
 40
3.0
100
AcDbArc
 50
24.0
 51
71.0
  0
ARC
  5
70C
100
AcDbEntity
  8
RUNDUNGEN
100
AcDbCircle
 62
7
  6
CONTINUOUS
 10
558.4900149659
 20
499.3013560716
 40
3.0
100
AcDbArc
 50
330.0
 51
24.0
  0
ARC
  5
70D
100
AcDbEntity
  8
RUNDUNGEN
100
AcDbCircle
 62
7
  6
CONTINUOUS
 10
559.4104170824
 20
488.8955393008
 40
3.0
100
AcDbArc
 50
150.0
 51
210.0000000354
  0
ARC
  5
70E
100
AcDbEntity
  8
RUNDUNGEN
100
AcDbCircle
 62
7
  6
CONTINUOUS
 10
508.3523793515
 20
540.0468809568
 40
3.0
100
AcDbArc
 50
71.0
 51
109.0
  0
ARC
  5
70F
100
AcDbEntity
  8
0
100
AcDbCircle
 62
7
  6
CONTINUOUS
 10
-543.1923499485
 20
105.0179300151
 40
877.2693299401
100
AcDbArc
 50
359.467008994
 51
0.1479961412
  0
ARC
  5
710
100
AcDbEntity
  8
0
100
AcDbCircle
 62
7
  6
CONTINUOUS
 10
16.6534576047
 20
99.9234667137
 40
317.4003755308
100
AcDbArc
 50
359.3263679997
 51
359.4464990621
  0
ARC
  5
711
100
AcDbEntity
  8
RUNDUNGEN
100
AcDbCircle
 62
7
  6
CONTINUOUS
 10
96.8151681481
 20
84.3362484553
 40
238.1288361739
100
AcDbArc
 50
356.1910246632
 51
357.124527905
  0
ARC
  5
712
100
AcDbEntity
  8
0
100
AcDbCircle
 62
7
  6
CONTINUOUS
 10
283.9327264468
 20
95.8370637257
 40
51.3738235927
100
AcDbArc
 50
0.9339409113
 51
1.805238032
  0
ARC
  5
713
100
AcDbEntity
  8
RUNDUNGEN
100
AcDbCircle
 62
7
  6
CONTINUOUS
 10
322.1371248123
 20
56.2839316703
 40
10.0
100
AcDbArc
 50
183.8281634054
 51
192.3433598786
  0
ARC
  5
714
100
AcDbEntity
  8
RUNDUNGEN
100
AcDbCircle
 62
7
  6
CONTINUOUS
 10
322.1371248123
 20
56.2839316703
 40
10.0
100
AcDbArc
 50
347.6566025411
 51
356.1718365946
  0
ARC
  5
715
100
AcDbEntity
  8
RUNDUNGEN
100
AcDbCircle
 62
7
  6
CONTINUOUS
 10
301.4202473985
 20
107.187850215
 40
8.2989396203
100
AcDbArc
 50
0.6634036549
 51
7.427285091
  0
ARC
  5
716
100
AcDbEntity
  8
0
100
AcDbCircle
 62
7
  6
CONTINUOUS
 10
-546.23113192
 20
109.5397238488
 40
880.3080755882
100
AcDbArc
 50
359.8531792263
 51
0.5318156385
  0
ARC
  5
717
100
AcDbEntity
  8
0
100
AcDbCircle
 62
7
  6
CONTINUOUS
 10
16.6534576115
 20
114.6443966269
 40
317.400375524
100
AcDbArc
 50
0.5535009379
 51
0.6736320003
  0
ARC
  5
718
100
AcDbEntity
  8
RUNDUNGEN
100
AcDbCircle
 62
7
  6
CONTINUOUS
 10
96.8116165648
 20
130.2314233759
 40
238.132392634
100
AcDbArc
 50
2.8754752489
 51
3.8089645466
  0
ARC
  5
719
100
AcDbEntity
  8
0
100
AcDbCircle
 62
7
  6
CONTINUOUS
 10
275.1371248123
 20
107.2839316703
 40
39.0
100
AcDbArc
 50
243.5069797582
 51
245.3992701006
  0
ARC
  5
71A
100
AcDbEntity
  8
0
100
AcDbCircle
 62
7
  6
CONTINUOUS
 10
275.1371248123
 20
107.2839316703
 40
39.0
100
AcDbArc
 50
226.9993659032
 51
243.4837438678
  0
ARC
  5
71B
100
AcDbEntity
  8
0
100
AcDbCircle
 62
7
  6
CONTINUOUS
 10
275.1371248123
 20
107.2839316703
 40
39.0
100
AcDbArc
 50
211.3193552227
 51
223.8588900915
  0
ARC
  5
71C
100
AcDbEntity
  8
0
100
AcDbCircle
 62
7
  6
CONTINUOUS
 10
275.1371248123
 20
107.2839316703
 40
39.0
100
AcDbArc
 50
173.1670860175
 51
208.7733560075
  0
ARC
  5
71D
100
AcDbEntity
  8
0
100
AcDbCircle
 62
7
  6
CONTINUOUS
 10
275.1371248123
 20
107.2839316703
 40
39.0
100
AcDbArc
 50
152.8608000843
 51
173.1300941394
  0
ARC
  5
71E
100
AcDbEntity
  8
0
100
AcDbCircle
 62
7
  6
CONTINUOUS
 10
275.1371248123
 20
107.2839316703
 40
39.0
100
AcDbArc
 50
138.1107951123
 51
150.3556084373
  0
ARC
  5
71F
100
AcDbEntity
  8
0
100
AcDbCircle
 62
7
  6
CONTINUOUS
 10
275.1371248123
 20
107.2839316703
 40
39.0
100
AcDbArc
 50
116.0434255464
 51
135.0771625591
  0
ARC
  5
720
100
AcDbEntity
  8
RUNDUNGEN
100
AcDbCircle
 62
7
  6
CONTINUOUS
 10
275.1371248123
 20
107.2839316703
 40
38.5
100
AcDbArc
 50
90.0
 51
270.0
  0
ARC
  5
721
100
AcDbEntity
  8
0
100
AcDbCircle
 62
7
  6
CONTINUOUS
 10
275.6371248123
 20
107.2839316703
 40
35.0
100
AcDbArc
 50
308.3215601845
 51
341.8739647875
  0
ARC
  5
722
100
AcDbEntity
  8
0
100
AcDbCircle
 62
7
  6
CONTINUOUS
 10
275.6371248123
 20
107.2839316703
 40
35.0
100
AcDbArc
 50
248.2802484313
 51
291.7197515687
  0
ARC
  5
723
100
AcDbEntity
  8
0
100
AcDbCircle
 62
7
  6
CONTINUOUS
 10
275.6371248123
 20
107.2839316703
 40
35.0
100
AcDbArc
 50
188.2736053147
 51
231.6784398155
  0
ARC
  5
724
100
AcDbEntity
  8
0
100
AcDbCircle
 62
7
  6
CONTINUOUS
 10
275.6371248123
 20
107.2839316703
 40
35.0
100
AcDbArc
 50
18.1260352125
 51
51.6784398155
  0
ARC
  5
725
100
AcDbEntity
  8
0
100
AcDbCircle
 62
7
  6
CONTINUOUS
 10
275.6371248123
 20
107.2839316703
 40
35.0
100
AcDbArc
 50
68.2802484313
 51
111.7197515687
  0
ARC
  5
726
100
AcDbEntity
  8
0
100
AcDbCircle
 62
7
  6
CONTINUOUS
 10
275.6371248123
 20
107.2839316703
 40
35.0
100
AcDbArc
 50
128.3215601845
 51
171.7263946853
  0
CIRCLE
  5
727
100
AcDbEntity
  8
BEZUGSACHSEN
100
AcDbCircle
 62
7
  6
CONTINUOUS
 10
275.6371248123
 20
107.2839316703
 40
32.5
  0
ARC
  5
728
100
AcDbEntity
  8
0
100
AcDbCircle
 62
7
  6
CONTINUOUS
 10
283.9327264803
 20
118.7307996139
 40
51.3738235592
100
AcDbArc
 50
358.1947619679
 51
359.0660590885
  0
ARC
  5
729
100
AcDbEntity
  8
RUNDUNGEN
100
AcDbCircle
 62
7
  6
CONTINUOUS
 10
301.4377788528
 20
107.3787720367
 40
8.2813948918
100
AcDbArc
 50
352.5655501487
 51
359.343865427
  0
ARC
  5
72A
100
AcDbEntity
  8
RUNDUNGEN
100
AcDbCircle
 62
7
  6
CONTINUOUS
 10
322.1371248123
 20
158.2839316703
 40
10.0
100
AcDbArc
 50
167.6566025411
 51
176.1718365946
  0
ARC
  5
72B
100
AcDbEntity
  8
RUNDUNGEN
100
AcDbCircle
 62
7
  6
CONTINUOUS
 10
322.1371248123
 20
158.2839316703
 40
10.0
100
AcDbArc
 50
3.8281634054
 51
12.3433598786
  0
ARC
  5
72C
100
AcDbEntity
  8
0
100
AcDbCircle
 62
7
  6
CONTINUOUS
 10
1190.5054358176
 20
105.0281396741
 40
880.3081298606
100
AcDbArc
 50
179.8531792472
 51
180.5318156176
  0
ARC
  5
72D
100
AcDbEntity
  8
0
100
AcDbCircle
 62
7
  6
CONTINUOUS
 10
627.6207920132
 20
99.9234667136
 40
317.4003755242
100
AcDbArc
 50
180.5535009379
 51
180.6736320003
  0
ARC
  5
72E
100
AcDbEntity
  8
RUNDUNGEN
100
AcDbCircle
 62
7
  6
CONTINUOUS
 10
547.4626330597
 20
84.3364399646
 40
238.132392634
100
AcDbArc
 50
182.8754752489
 51
183.8089645466
  0
ARC
  5
72F
100
AcDbEntity
  8
0
100
AcDbCircle
 62
7
  6
CONTINUOUS
 10
360.3415231442
 20
95.8370637267
 40
51.3738235592
100
AcDbArc
 50
178.1947619679
 51
179.0660590885
  0
ARC
  5
730
100
AcDbEntity
  8
RUNDUNGEN
100
AcDbCircle
 62
7
  6
CONTINUOUS
 10
342.8365153054
 20
107.1890869434
 40
8.2814396153
100
AcDbArc
 50
172.5655601012
 51
179.343751944
  0
ARC
  5
731
100
AcDbEntity
  8
RUNDUNGEN
100
AcDbCircle
 62
7
  6
CONTINUOUS
 10
347.1371248123
 20
73.2839316703
 40
4.5
100
AcDbArc
 50
270.0
 51
360.0
  0
ARC
  5
732
100
AcDbEntity
  8
0
100
AcDbCircle
 62
7
  6
CONTINUOUS
 10
1187.4665851385
 20
109.549933374
 40
877.2693155057
100
AcDbArc
 50
179.4670089884
 51
180.1479961468
  0
ARC
  5
733
100
AcDbEntity
  8
0
100
AcDbCircle
 62
7
  6
CONTINUOUS
 10
627.6207920202
 20
114.6443966268
 40
317.4003755312
100
AcDbArc
 50
179.3263679997
 51
179.4464990621
  0
ARC
  5
734
100
AcDbEntity
  8
RUNDUNGEN
100
AcDbCircle
 62
7
  6
CONTINUOUS
 10
547.4590814765
 20
130.2316148852
 40
238.128836174
100
AcDbArc
 50
176.1910246632
 51
177.124527905
  0
ARC
  5
735
100
AcDbEntity
  8
0
100
AcDbCircle
 62
7
  6
CONTINUOUS
 10
360.3415231777
 20
118.7307996148
 40
51.3738235928
100
AcDbArc
 50
180.9339409113
 51
181.805238032
  0
ARC
  5
736
100
AcDbEntity
  8
RUNDUNGEN
100
AcDbCircle
 62
7
  6
CONTINUOUS
 10
342.8539922209
 20
107.380011175
 40
8.298929447
100
AcDbArc
 50
180.6633043271
 51
187.4272806666
  0
ARC
  5
737
100
AcDbEntity
  8
RUNDUNGEN
100
AcDbCircle
 62
7
  6
CONTINUOUS
 10
347.1371248123
 20
141.2839316703
 40
4.5
100
AcDbArc
 50
0.0
 51
90.0
  0
SPLINE
  5
738
100
AcDbEntity
  8
RUNDUNGEN
100
AcDbSpline
 62
7
  6
CONTINUOUS
 70
0
 71
3
 72
13
 73
9
 74
0
 42
0.0000001
 43
0.0000001
 44
0.0000000001
 40
0.0
 40
0.0
 40
0.0
 40
0.0
 40
0.4278568962
 40
0.7394144154
 40
0.850138807
 40
0.9304236509
 40
0.9802043859
 40
1.0
 40
1.0
 40
1.0
 40
1.0
 10
309.649556555
 20
542.8834366836
 30
0.0
 10
309.6585495282
 20
542.9071368196
 30
0.0
 10
309.6743545407
 20
542.9479000031
 30
0.0
 10
309.6932563664
 20
542.9948602415
 30
0.0
 10
309.7051550489
 20
543.0217994965
 30
0.0
 10
309.711079631
 20
543.0353802162
 30
0.0
 10
309.7153164347
 20
543.0420825943
 30
0.0
 10
309.7174578421
 20
543.0468809569
 30
0.0
 10
309.7186306603
 20
543.0468809568
 30
0.0
  0
SPLINE
  5
739
100
AcDbEntity
  8
0
100
AcDbSpline
 62
7
  6
CONTINUOUS
 70
0
 71
3
 72
9
 73
5
 74
0
 42
0.0000001
 43
0.0000001
 44
0.0000000001
 40
0.0
 40
0.0
 40
0.0
 40
0.0
 40
0.4999544933
 40
1.0
 40
1.0
 40
1.0
 40
1.0
 10
312.1290180572
 20
506.7084710072
 30
0.0
 10
311.9862279495
 20
508.145304666
 30
0.0
 10
311.7155053285
 20
511.0208354399
 30
0.0
 10
311.3714482199
 20
513.8885816027
 30
0.0
 10
311.2204909099
 20
515.3248444669
 30
0.0
  0
SPLINE
  5
73A
100
AcDbEntity
  8
RUNDUNGEN
100
AcDbSpline
 62
7
  6
CONTINUOUS
 70
0
 71
3
 72
13
 73
9
 74
0
 42
0.0000001
 43
0.0000001
 44
0.0000000001
 40
0.0
 40
0.0
 40
0.0
 40
0.0
 40
0.0197956142
 40
0.0695763492
 40
0.1498611932
 40
0.2605855848
 40
0.5721431039
 40
1.0
 40
1.0
 40
1.0
 40
1.0
 10
334.5556189643
 20
543.0468809568
 30
0.0
 10
334.5567917824
 20
543.0468809569
 30
0.0
 10
334.5589331899
 20
543.0420825943
 30
0.0
 10
334.5631699935
 20
543.0353802162
 30
0.0
 10
334.5690945757
 20
543.0217994965
 30
0.0
 10
334.5809932581
 20
542.9948602414
 30
0.0
 10
334.5998950838
 20
542.9479000031
 30
0.0
 10
334.6157000963
 20
542.9071368196
 30
0.0
 10
334.6246930695
 20
542.8834366836
 30
0.0
  0
LINE
  5
73B
100
AcDbEntity
  8
KONSTRUKTIONSELEMENTE
100
AcDbLine
 62
7
  6
CONTINUOUS
 10
308.926264326
 20
364.9940862707
 11
308.9248901407
 21
365.0118032853
  0
SPLINE
  5
73C
100
AcDbEntity
  8
0
100
AcDbSpline
 62
7
  6
CONTINUOUS
 70
0
 71
3
 72
9
 73
5
 74
0
 42
0.0000001
 43
0.0000001
 44
0.0000000001
 40
0.0
 40
0.0
 40
0.0
 40
0.0
 40
0.5000455102
 40
1.0
 40
1.0
 40
1.0
 40
1.0
 10
333.0537587142
 20
515.3248444629
 30
0.0
 10
332.9028014033
 20
513.8885815895
 30
0.0
 10
332.5587443229
 20
511.0208354253
 30
0.0
 10
332.2880216207
 20
508.1453046608
 30
0.0
 10
332.1452315674
 20
506.7084710072
 30
0.0
  0
LINE
  5
73D
100
AcDbEntity
  8
0
100
AcDbLine
 62
7
  6
CONTINUOUS
 10
335.3479852986
 20
364.9940862707
 11
335.3493594838
 21
365.0118032853
  0
SPLINE
  5
73E
100
AcDbEntity
  8
0
100
AcDbSpline
 62
7
  6
CONTINUOUS
 70
0
 71
3
 72
15
 73
11
 74
0
 42
0.0000001
 43
0.0000001
 44
0.0000000001
 40
0.0
 40
0.0
 40
0.0
 40
0.0
 40
0.1240972261
 40
0.2489664296
 40
0.3741131399
 40
0.4993198595
 40
0.6245151425
 40
0.7496858989
 40
0.8748356689
 40
1.0
 40
1.0
 40
1.0
 40
1.0
 10
322.9762770311
 20
353.4699497563
 30
0.0
 10
323.7741531471
 20
353.4745781955
 30
0.0
 10
325.3783199093
 20
353.6395073019
 30
0.0
 10
327.6919928352
 20
354.3491953046
 30
0.0
 10
329.8307616769
 20
355.4989270235
 30
0.0
 10
331.7052466865
 20
357.0456222539
 30
0.0
 10
333.2411254386
 20
358.9292184539
 30
0.0
 10
334.3783691016
 20
361.0769336551
 30
0.0
 10
335.0737069208
 20
363.4044009889
 30
0.0
 10
335.2248796545
 20
365.018997035
 30
0.0
 10
335.2212945369
 20
365.8237395964
 30
0.0
  0
SPLINE
  5
73F
100
AcDbEntity
  8
KONSTRUKTIONSELEMENTE
100
AcDbSpline
 62
7
  6
CONTINUOUS
 70
0
 71
3
 72
15
 73
11
 74
0
 42
0.0000001
 43
0.0000001
 44
0.0000000001
 40
0.0
 40
0.0
 40
0.0
 40
0.0
 40
0.1240972261
 40
0.2489664296
 40
0.3741131399
 40
0.4993198595
 40
0.6245151425
 40
0.7496858989
 40
0.8748356689
 40
1.0
 40
1.0
 40
1.0
 40
1.0
 10
321.2979725934
 20
353.4699497563
 30
0.0
 10
320.5000964775
 20
353.4745781955
 30
0.0
 10
318.8959297153
 20
353.6395073019
 30
0.0
 10
316.5822567893
 20
354.3491953046
 30
0.0
 10
314.4434879476
 20
355.4989270235
 30
0.0
 10
312.5690029381
 20
357.0456222539
 30
0.0
 10
311.0331241859
 20
358.9292184539
 30
0.0
 10
309.8958805229
 20
361.0769336551
 30
0.0
 10
309.2005427037
 20
363.4044009889
 30
0.0
 10
309.04936997
 20
365.018997035
 30
0.0
 10
309.0529550876
 20
365.8237395964
 30
0.0
  0
SPLINE
  5
740
100
AcDbEntity
  8
RUNDUNGEN
100
AcDbSpline
 62
7
  6
CONTINUOUS
 70
0
 71
3
 72
9
 73
5
 74
0
 42
0.0000001
 43
0.0000001
 44
0.0000000001
 40
0.0
 40
0.0
 40
0.0
 40
0.0
 40
0.5000290017
 40
1.0
 40
1.0
 40
1.0
 40
1.0
 10
331.8091568903
 20
490.3955393008
 30
0.0
 10
331.73397989
 20
489.8997204303
 30
0.0
 10
331.6551670985
 20
488.8955095272
 30
0.0
 10
331.7339886108
 20
487.8913006547
 30
0.0
 10
331.8091568905
 20
487.3955392992
 30
0.0
  0
SPLINE
  5
741
100
AcDbEntity
  8
RUNDUNGEN
100
AcDbSpline
 62
7
  6
CONTINUOUS
 70
0
 71
3
 72
9
 73
5
 74
0
 42
0.0000001
 43
0.0000001
 44
0.0000000001
 40
0.0
 40
0.0
 40
0.0
 40
0.0
 40
0.500027643
 40
1.0
 40
1.0
 40
1.0
 40
1.0
 10
312.465092734
 20
487.3955392992
 30
0.0
 10
312.5402695302
 20
487.8913568235
 30
0.0
 10
312.6190826071
 20
488.8955676781
 30
0.0
 10
312.5402612184
 20
489.8997765971
 30
0.0
 10
312.4650927343
 20
490.3955393008
 30
0.0
  0
SPLINE
  5
742
100
AcDbEntity
  8
RUNDUNGEN
100
AcDbSpline
 62
7
  6
CONTINUOUS
 70
0
 71
3
 72
9
 73
5
 74
0
 42
0.0000001
 43
0.0000001
 44
0.0000000001
 40
0.0
 40
0.0
 40
0.0
 40
0.0
 40
0.2540282591
 40
1.0
 40
1.0
 40
1.0
 40
1.0
 10
334.8041883731
 20
542.3627814494
 30
0.0
 10
334.8690384647
 20
542.1546250195
 30
0.0
 10
335.0958694884
 20
541.3262532319
 30
0.0
 10
335.2217310683
 20
540.4730147077
 30
0.0
 10
335.2810524192
 20
539.8355249647
 30
0.0
  0
SPLINE
  5
743
100
AcDbEntity
  8
RUNDUNGEN
100
AcDbSpline
 62
7
  6
CONTINUOUS
 70
0
 71
3
 72
10
 73
6
 74
0
 42
0.0000001
 43
0.0000001
 44
0.0000000001
 40
0.0
 40
0.0
 40
0.0
 40
0.0
 40
0.1607554438
 40
0.3873815192
 40
1.0
 40
1.0
 40
1.0
 40
1.0
 10
334.4179954153
 20
529.8713216561
 30
0.0
 10
334.4013337611
 20
529.786121501
 30
0.0
 10
334.3768226515
 20
529.5779591194
 30
0.0
 10
334.3424773886
 20
529.0390578365
 30
0.0
 10
334.334517505
 20
528.5856993169
 30
0.0
 10
334.3258423029
 20
528.2549758585
 30
0.0
  0
SPLINE
  5
744
100
AcDbEntity
  8
RUNDUNGEN
100
AcDbSpline
 62
7
  6
CONTINUOUS
 70
0
 71
3
 72
8
 73
4
 74
0
 42
0.0000001
 43
0.0000001
 44
0.0000000001
 40
0.0
 40
0.0
 40
0.0
 40
0.0
 40
1.0
 40
1.0
 40
1.0
 40
1.0
 10
335.2997251471
 20
539.5666012413
 30
0.0
 10
335.3203570902
 20
539.1195935018
 30
0.0
 10
335.3218662394
 20
538.6715539362
 30
0.0
 10
335.3111397102
 20
538.2241988895
 30
0.0
  0
LINE
  5
745
100
AcDbEntity
  8
RUNDUNGEN
100
AcDbLine
 62
7
  6
CONTINUOUS
 10
335.3111397102
 20
538.2241988895
 11
335.3099033742
 21
538.1747016409
  0
SPLINE
  5
746
100
AcDbEntity
  8
RUNDUNGEN
100
AcDbSpline
 62
7
  6
CONTINUOUS
 70
0
 71
3
 72
8
 73
4
 74
0
 42
0.0000001
 43
0.0000001
 44
0.0000000001
 40
0.0
 40
0.0
 40
0.0
 40
0.0
 40
1.0
 40
1.0
 40
1.0
 40
1.0
 10
335.3099033742
 20
538.1747016409
 30
0.0
 10
335.2986915199
 20
537.7429960714
 30
0.0
 10
335.2763453779
 20
537.3115395754
 30
0.0
 10
335.2475465301
 20
536.8806497625
 30
0.0
  0
LINE
  5
747
100
AcDbEntity
  8
RUNDUNGEN
100
AcDbLine
 62
7
  6
CONTINUOUS
 10
335.2475465301
 20
536.8806497625
 11
335.244799954
 21
536.8398442474
  0
LINE
  5
748
100
AcDbEntity
  8
RUNDUNGEN
100
AcDbLine
 62
7
  6
CONTINUOUS
 10
335.1564109316
 20
535.719519219
 11
335.1509628494
 21
535.6580810085
  0
SPLINE
  5
749
100
AcDbEntity
  8
RUNDUNGEN
100
AcDbSpline
 62
7
  6
CONTINUOUS
 70
0
 71
3
 72
9
 73
5
 74
0
 42
0.0000001
 43
0.0000001
 44
0.0000000001
 40
0.0
 40
0.0
 40
0.0
 40
0.0
 40
0.4987540285
 40
1.0
 40
1.0
 40
1.0
 40
1.0
 10
335.1509628494
 20
535.6580810085
 30
0.0
 10
335.064894844
 20
534.6919263208
 30
0.0
 10
334.8627390806
 20
532.7580006452
 30
0.0
 10
334.6050876392
 20
530.8280265746
 30
0.0
 10
334.4179954153
 20
529.8713216561
 30
0.0
  0
SPLINE
  5
74A
100
AcDbEntity
  8
RUNDUNGEN
100
AcDbSpline
 62
7
  6
CONTINUOUS
 70
0
 71
3
 72
9
 73
5
 74
0
 42
0.0000001
 43
0.0000001
 44
0.0000000001
 40
0.0
 40
0.0
 40
0.0
 40
0.0
 40
0.5062459943
 40
1.0
 40
1.0
 40
1.0
 40
1.0
 10
331.9591457011
 20
500.5215660009
 30
0.0
 10
331.9201570275
 20
500.0636374777
 30
0.0
 10
331.8834813217
 20
499.1548227088
 30
0.0
 10
331.9399608557
 20
498.2472980165
 30
0.0
 10
331.9853380745
 20
497.8013560716
 30
0.0
  0
SPLINE
  5
74B
100
AcDbEntity
  8
RUNDUNGEN
100
AcDbSpline
 62
7
  6
CONTINUOUS
 70
0
 71
3
 72
9
 73
5
 74
0
 42
0.0000001
 43
0.0000001
 44
0.0000000001
 40
0.0
 40
0.0
 40
0.0
 40
0.0
 40
0.2473317542
 40
1.0
 40
1.0
 40
1.0
 40
1.0
 10
308.9931972054
 20
539.8355249647
 30
0.0
 10
309.0128610196
 20
540.046839773
 30
0.0
 10
309.1075613815
 20
540.8994129171
 30
0.0
 10
309.2779612351
 20
541.7461787708
 30
0.0
 10
309.4700635098
 20
542.3627886982
 30
0.0
  0
SPLINE
  5
74C
100
AcDbEntity
  8
RUNDUNGEN
100
AcDbSpline
 62
7
  6
CONTINUOUS
 70
0
 71
3
 72
9
 73
5
 74
0
 42
0.0000001
 43
0.0000001
 44
0.0000000001
 40
0.0
 40
0.0
 40
0.0
 40
0.0
 40
0.4937504324
 40
1.0
 40
1.0
 40
1.0
 40
1.0
 10
312.2889115501
 20
497.8013560716
 30
0.0
 10
312.3342884402
 20
498.2472947871
 30
0.0
 10
312.3907680099
 20
499.1548194369
 30
0.0
 10
312.354092872
 20
500.0636342478
 30
0.0
 10
312.3151039234
 20
500.5215660009
 30
0.0
  0
SPLINE
  5
74D
100
AcDbEntity
  8
RUNDUNGEN
100
AcDbSpline
 62
7
  6
CONTINUOUS
 70
0
 71
3
 72
10
 73
6
 74
0
 42
0.0000001
 43
0.0000001
 44
0.0000000001
 40
0.0
 40
0.0
 40
0.0
 40
0.0
 40
0.6126094631
 40
0.839242373
 40
1.0
 40
1.0
 40
1.0
 40
1.0
 10
309.9484073216
 20
528.2549758585
 30
0.0
 10
309.9397322473
 20
528.585694448
 30
0.0
 10
309.9317722306
 20
529.0390517731
 30
0.0
 10
309.8974275637
 20
529.5779530867
 30
0.0
 10
309.8729160896
 20
529.7861203442
 30
0.0
 10
309.8562542093
 20
529.8713216561
 30
0.0
  0
SPLINE
  5
74E
100
AcDbEntity
  8
RUNDUNGEN
100
AcDbSpline
 62
7
  6
CONTINUOUS
 70
0
 71
3
 72
9
 73
5
 74
0
 42
0.0000001
 43
0.0000001
 44
0.0000000001
 40
0.0
 40
0.0
 40
0.0
 40
0.0
 40
0.5012462553
 40
1.0
 40
1.0
 40
1.0
 40
1.0
 10
309.8562542093
 20
529.8713216561
 30
0.0
 10
309.6681448357
 20
530.8332278173
 30
0.0
 10
309.4096485391
 20
532.7737796005
 30
0.0
 10
309.2065985471
 20
534.7182384842
 30
0.0
 10
309.1204785222
 20
535.6896816379
 30
0.0
  0
LINE
  5
74F
100
AcDbEntity
  8
RUNDUNGEN
100
AcDbLine
 62
7
  6
CONTINUOUS
 10
309.1204785222
 20
535.6896816379
 11
309.1178416273
 21
535.719493123
  0
LINE
  5
750
100
AcDbEntity
  8
RUNDUNGEN
100
AcDbLine
 62
7
  6
CONTINUOUS
 10
309.0294511305
 20
536.8398170079
 11
309.0253366698
 21
536.9011697925
  0
SPLINE
  5
751
100
AcDbEntity
  8
RUNDUNGEN
100
AcDbSpline
 62
7
  6
CONTINUOUS
 70
0
 71
3
 72
8
 73
4
 74
0
 42
0.0000001
 43
0.0000001
 44
0.0000000001
 40
0.0
 40
0.0
 40
0.0
 40
0.0
 40
1.0
 40
1.0
 40
1.0
 40
1.0
 10
309.0253366698
 20
536.9011697925
 30
0.0
 10
308.9970115665
 20
537.3281017666
 30
0.0
 10
308.975083758
 20
537.7555909326
 30
0.0
 10
308.964123954
 20
538.18332111
 30
0.0
  0
LINE
  5
752
100
AcDbEntity
  8
RUNDUNGEN
100
AcDbLine
 62
7
  6
CONTINUOUS
 10
308.964123954
 20
538.18332111
 11
308.9631106902
 21
538.2241758762
  0
SPLINE
  5
753
100
AcDbEntity
  8
RUNDUNGEN
100
AcDbSpline
 62
7
  6
CONTINUOUS
 70
0
 71
3
 72
8
 73
4
 74
0
 42
0.0000001
 43
0.0000001
 44
0.0000000001
 40
0.0
 40
0.0
 40
0.0
 40
0.0
 40
1.0
 40
1.0
 40
1.0
 40
1.0
 10
308.9631106902
 20
538.2241758762
 30
0.0
 10
308.9523850527
 20
538.6715386152
 30
0.0
 10
308.9538921808
 20
539.1195858414
 30
0.0
 10
308.9745244775
 20
539.5666012414
 30
0.0
  0
SPLINE
  5
754
100
AcDbEntity
  8
BEZUGSACHSEN
100
AcDbSpline
 62
7
  6
CONTINUOUS
 70
0
 71
3
 72
11
 73
7
 74
0
 42
0.0000001
 43
0.0000001
 44
0.0000000001
 40
0.0
 40
0.0
 40
0.0
 40
0.0
 40
0.2404052835
 40
0.4855030057
 40
0.7383571307
 40
1.0
 40
1.0
 40
1.0
 40
1.0
 10
247.4912991894
 20
431.7197430004
 30
0.0
 10
248.2870067646
 20
431.7197430003
 30
0.0
 10
249.8969341808
 20
431.5810151566
 30
0.0
 10
252.2749636012
 20
430.9817611222
 30
0.0
 10
254.6144559854
 20
430.0451477216
 30
0.0
 10
256.1232622082
 20
429.2499605764
 30
0.0
 10
256.8732410636
 20
428.8169600823
 30
0.0
  0
SPLINE
  5
755
100
AcDbEntity
  8
BEZUGSACHSEN
100
AcDbSpline
 62
7
  6
CONTINUOUS
 70
0
 71
3
 72
10
 73
6
 74
0
 42
0.0000001
 43
0.0000001
 44
0.0000000001
 40
0.0
 40
0.0
 40
0.0
 40
0.0
 40
0.4999007848
 40
0.7499513947
 40
1.0
 40
1.0
 40
1.0
 40
1.0
 10
256.8732410636
 20
428.8169600823
 30
0.0
 10
259.9219521645
 20
429.6970471697
 30
0.0
 10
264.5697991623
 20
430.7972753096
 30
0.0
 10
270.8737610999
 20
431.5842876035
 30
0.0
 10
274.04990183
 20
431.7197430004
 30
0.0
 10
275.6371248123
 20
431.7197430005
 30
0.0
  0
SPLINE
  5
756
100
AcDbEntity
  8
BEZUGSACHSEN
100
AcDbSpline
 62
7
  6
CONTINUOUS
 70
0
 71
3
 72
10
 73
6
 74
0
 42
0.0000001
 43
0.0000001
 44
0.0000000001
 40
0.0
 40
0.0
 40
0.0
 40
0.0
 40
0.2500489869
 40
0.5000997068
 40
1.0
 40
1.0
 40
1.0
 40
1.0
 10
275.6371248123
 20
431.7197430005
 30
0.0
 10
277.2243502209
 20
431.7197430004
 30
0.0
 10
280.400494123
 20
431.5842879246
 30
0.0
 10
286.7044558796
 20
430.7972738256
 30
0.0
 10
291.3523004501
 20
429.6970463066
 30
0.0
 10
294.4010085609
 20
428.8169600823
 30
0.0
  0
SPLINE
  5
757
100
AcDbEntity
  8
BEZUGSACHSEN
100
AcDbSpline
 62
7
  6
CONTINUOUS
 70
0
 71
3
 72
11
 73
7
 74
0
 42
0.0000001
 43
0.0000001
 44
0.0000000001
 40
0.0
 40
0.0
 40
0.0
 40
0.0
 40
0.2616428738
 40
0.5144970109
 40
0.7595947311
 40
1.0
 40
1.0
 40
1.0
 40
1.0
 10
294.4010085609
 20
428.8169600823
 30
0.0
 10
295.1509874289
 20
429.2499605836
 30
0.0
 10
296.6597937027
 20
430.0451477476
 30
0.0
 10
298.9992861347
 20
430.9817611634
 30
0.0
 10
301.3773155521
 20
431.5810151389
 30
0.0
 10
302.9872429089
 20
431.7197430002
 30
0.0
 10
303.7829504354
 20
431.7197430004
 30
0.0
  0
SPLINE
  5
758
100
AcDbEntity
  8
BEZUGSACHSEN
100
AcDbSpline
 62
7
  6
CONTINUOUS
 70
0
 71
3
 72
11
 73
7
 74
0
 42
0.0000001
 43
0.0000001
 44
0.0000000001
 40
0.0
 40
0.0
 40
0.0
 40
0.0
 40
0.2404472986
 40
0.4855620002
 40
0.7383996272
 40
1.0
 40
1.0
 40
1.0
 40
1.0
 10
303.7829504354
 20
431.7197430004
 30
0.0
 10
304.5762399013
 20
431.7197430003
 30
0.0
 10
306.1811738166
 20
431.5818795111
 30
0.0
 10
308.5520822733
 20
430.9861930922
 30
0.0
 10
310.8847821205
 20
430.0548105138
 30
0.0
 10
312.389347396
 20
429.2637482212
 30
0.0
 10
313.1372083296
 20
428.832925762
 30
0.0
  0
SPLINE
  5
759
100
AcDbEntity
  8
BEZUGSACHSEN
100
AcDbSpline
 62
7
  6
CONTINUOUS
 70
0
 71
3
 72
11
 73
7
 74
0
 42
0.0000001
 43
0.0000001
 44
0.0000000001
 40
0.0
 40
0.0
 40
0.0
 40
0.0
 40
0.2616428738
 40
0.5144970109
 40
0.7595947311
 40
1.0
 40
1.0
 40
1.0
 40
1.0
 10
238.1093573149
 20
428.8169600823
 30
0.0
 10
238.8593361829
 20
429.2499605836
 30
0.0
 10
240.3681424567
 20
430.0451477476
 30
0.0
 10
242.7076348887
 20
430.9817611634
 30
0.0
 10
245.0856643061
 20
431.5810151389
 30
0.0
 10
246.6955916629
 20
431.7197430002
 30
0.0
 10
247.4912991894
 20
431.7197430004
 30
0.0
  0
SPLINE
  5
75A
100
AcDbEntity
  8
BEZUGSACHSEN
100
AcDbSpline
 62
7
  6
CONTINUOUS
 70
0
 71
3
 72
10
 73
6
 74
0
 42
0.0000001
 43
0.0000001
 44
0.0000000001
 40
0.0
 40
0.0
 40
0.0
 40
0.0
 40
0.5016032945
 40
0.7510761774
 40
1.0
 40
1.0
 40
1.0
 40
1.0
 10
508.3523793515
 20
428.8169600823
 30
0.0
 10
510.980896617
 20
429.6931325042
 30
0.0
 10
514.9994194392
 20
430.7940888185
 30
0.0
 10
520.4724885823
 20
431.5839226428
 30
0.0
 10
523.2274016326
 20
431.7197430002
 30
0.0
 10
524.6023793517
 20
431.7197430004
 30
0.0
  0
SPLINE
  5
75B
100
AcDbEntity
  8
BEZUGSACHSEN
100
AcDbSpline
 62
7
  6
CONTINUOUS
 70
0
 71
3
 72
10
 73
6
 74
0
 42
0.0000001
 43
0.0000001
 44
0.0000000001
 40
0.0
 40
0.0
 40
0.0
 40
0.0
 40
0.2489238378
 40
0.4983967223
 40
1.0
 40
1.0
 40
1.0
 40
1.0
 10
524.6023793517
 20
431.7197430004
 30
0.0
 10
525.9773571552
 20
431.7197430003
 30
0.0
 10
528.7322703003
 20
431.5839226606
 30
0.0
 10
534.2053394354
 20
430.7940887654
 30
0.0
 10
538.2238621732
 20
429.6931324751
 30
0.0
 10
540.8523793515
 20
428.8169600823
 30
0.0
  0
SPLINE
  5
75C
100
AcDbEntity
  8
BEZUGSACHSEN
100
AcDbSpline
 62
7
  6
CONTINUOUS
 70
0
 71
3
 72
10
 73
6
 74
0
 42
0.0000001
 43
0.0000001
 44
0.0000000001
 40
0.0
 40
0.0
 40
0.0
 40
0.0
 40
0.2489238378
 40
0.4983967223
 40
1.0
 40
1.0
 40
1.0
 40
1.0
 10
492.102380584
 20
431.7197430466
 30
0.0
 10
493.4773582857
 20
431.7197429671
 30
0.0
 10
496.2322712191
 20
431.5839225537
 30
0.0
 10
501.705339937
 20
430.7940886393
 30
0.0
 10
505.7238623682
 20
429.6931324101
 30
0.0
 10
508.3523793515
 20
428.8169600823
 30
0.0
  0
SPLINE
  5
75D
100
AcDbEntity
  8
BEZUGSACHSEN
100
AcDbSpline
 62
7
  6
CONTINUOUS
 70
0
 71
3
 72
10
 73
6
 74
0
 42
0.0000001
 43
0.0000001
 44
0.0000000001
 40
0.0
 40
0.0
 40
0.0
 40
0.0
 40
0.5015716632
 40
0.751087722
 40
1.0
 40
1.0
 40
1.0
 40
1.0
 10
475.8523793515
 20
428.8169600823
 30
0.0
 10
478.261115084
 20
429.6198719932
 30
0.0
 10
481.9362465603
 20
430.6447832871
 30
0.0
 10
486.9367601817
 20
431.4597029347
 30
0.0
 10
489.4561984613
 20
431.6556054891
 30
0.0
 10
490.7155512524
 20
431.6969412987
 30
0.0
  0
SPLINE
  5
75E
100
AcDbEntity
  8
0
100
AcDbSpline
 62
7
  6
CONTINUOUS
 70
0
 71
3
 72
8
 73
4
 74
0
 42
0.0000001
 43
0.0000001
 44
0.0000000001
 40
0.0
 40
0.0
 40
0.0
 40
0.0
 40
1.0
 40
1.0
 40
1.0
 40
1.0
 10
518.7790155777
 20
543.8325503235
 30
0.0
 10
519.0010073585
 20
543.8117410401
 30
0.0
 10
519.2229273029
 20
543.7899337024
 30
0.0
 10
519.4444651343
 20
543.7647470736
 30
0.0
  0
SPLINE
  5
75F
100
AcDbEntity
  8
0
100
AcDbSpline
 62
7
  6
CONTINUOUS
 70
0
 71
3
 72
8
 73
4
 74
0
 42
0.0000001
 43
0.0000001
 44
0.0000000001
 40
0.0
 40
0.0
 40
0.0
 40
0.0
 40
1.0
 40
1.0
 40
1.0
 40
1.0
 10
497.2602935688
 20
543.7647470736
 30
0.0
 10
497.4818314002
 20
543.7899337024
 30
0.0
 10
497.7037513445
 20
543.8117410401
 30
0.0
 10
497.9257431253
 20
543.8325503235
 30
0.0
  0
SPLINE
  5
760
100
AcDbEntity
  8
0
100
AcDbSpline
 62
7
  6
CONTINUOUS
 70
0
 71
3
 72
9
 73
5
 74
0
 42
0.0000001
 43
0.0000001
 44
0.0000000001
 40
0.0
 40
0.0
 40
0.0
 40
0.0
 40
0.4998377719
 40
1.0
 40
1.0
 40
1.0
 40
1.0
 10
462.9301827832
 20
531.27742666
 30
0.0
 10
468.060082509
 20
534.6293439977
 30
0.0
 10
479.1132312511
 20
540.2027752724
 30
0.0
 10
491.1676601227
 20
543.072067302
 30
0.0
 10
497.2602935688
 20
543.7647470736
 30
0.0
  0
SPLINE
  5
761
100
AcDbEntity
  8
0
100
AcDbSpline
 62
7
  6
CONTINUOUS
 70
0
 71
3
 72
11
 73
7
 74
0
 42
0.0000001
 43
0.0000001
 44
0.0000000001
 40
0.0
 40
0.0
 40
0.0
 40
0.0
 40
0.2496438939
 40
0.499460156
 40
0.7495636923
 40
1.0
 40
1.0
 40
1.0
 40
1.0
 10
451.4471842899
 20
510.8865844154
 30
0.0
 10
451.5025737419
 20
512.9060210054
 30
0.0
 10
452.1116428679
 20
516.9496653368
 30
0.0
 10
454.4586386521
 20
522.605379755
 30
0.0
 10
458.0920251047
 20
527.5413566067
 30
0.0
 10
461.2336336377
 20
530.168885683
 30
0.0
 10
462.9301827832
 20
531.27742666
 30
0.0
  0
SPLINE
  5
762
100
AcDbEntity
  8
0
100
AcDbSpline
 62
7
  6
CONTINUOUS
 70
0
 71
3
 72
9
 73
5
 74
0
 42
0.0000001
 43
0.0000001
 44
0.0000000001
 40
0.0
 40
0.0
 40
0.0
 40
0.0
 40
0.5001622996
 40
1.0
 40
1.0
 40
1.0
 40
1.0
 10
519.4444651343
 20
543.7647470736
 30
0.0
 10
525.5370994513
 20
543.072067203
 30
0.0
 10
537.5915283183
 20
540.2027749499
 30
0.0
 10
548.6446769281
 20
534.629343518
 30
0.0
 10
553.7745759197
 20
531.27742666
 30
0.0
  0
SPLINE
  5
763
100
AcDbEntity
  8
0
100
AcDbSpline
 62
7
  6
CONTINUOUS
 70
0
 71
3
 72
11
 73
7
 74
0
 42
0.0000001
 43
0.0000001
 44
0.0000000001
 40
0.0
 40
0.0
 40
0.0
 40
0.0
 40
0.2504363077
 40
0.500539844
 40
0.7503561061
 40
1.0
 40
1.0
 40
1.0
 40
1.0
 10
553.7745759197
 20
531.27742666
 30
0.0
 10
555.4711250652
 20
530.168885683
 30
0.0
 10
558.6127335982
 20
527.5413566067
 30
0.0
 10
562.2461200509
 20
522.605379755
 30
0.0
 10
564.593115835
 20
516.9496653368
 30
0.0
 10
565.2021849611
 20
512.9060210054
 30
0.0
 10
565.2575744131
 20
510.8865844154
 30
0.0
  0
SPLINE
  5
764
100
AcDbEntity
  8
0
100
AcDbSpline
 62
7
  6
CONTINUOUS
 70
0
 71
3
 72
9
 73
5
 74
0
 42
0.0000001
 43
0.0000001
 44
0.0000000001
 40
0.0
 40
0.0
 40
0.0
 40
0.0
 40
0.5211529301
 40
1.0
 40
1.0
 40
1.0
 40
1.0
 10
310.2423532545
 20
96.1918458875
 30
0.0
 10
310.3136705589
 20
90.223592574
 30
0.0
 10
310.5925977285
 20
78.772802118
 30
0.0
 10
311.1790788717
 20
67.3330052617
 30
0.0
 10
311.5548235171
 20
61.8617351021
 30
0.0
  0
SPLINE
  5
765
100
AcDbEntity
  8
RUNDUNGEN
100
AcDbSpline
 62
7
  6
CONTINUOUS
 70
0
 71
3
 72
9
 73
5
 74
0
 42
0.0000001
 43
0.0000001
 44
0.0000000001
 40
0.0
 40
0.0
 40
0.0
 40
0.0
 40
0.2522612347
 40
1.0
 40
1.0
 40
1.0
 40
1.0
 10
310.0960227657
 20
65.7598273898
 30
0.0
 10
310.0769445483
 20
65.8406440157
 30
0.0
 10
310.0076507204
 20
66.1624578493
 30
0.0
 10
309.9647488115
 20
66.4900923234
 30
0.0
 10
309.9494738584
 20
66.7357544565
 30
0.0
  0
SPLINE
  5
766
100
AcDbEntity
  8
0
100
AcDbSpline
 62
7
  6
CONTINUOUS
 70
0
 71
3
 72
9
 73
5
 74
0
 42
0.0000001
 43
0.0000001
 44
0.0000000001
 40
0.0
 40
0.0
 40
0.0
 40
0.0
 40
0.2679832026
 40
1.0
 40
1.0
 40
1.0
 40
1.0
 10
311.5548235171
 20
61.8617351021
 30
0.0
 10
311.5834780571
 20
61.4444931982
 30
0.0
 10
311.6972305311
 20
59.8880227899
 30
0.0
 10
311.8385017985
 20
58.3333870434
 30
0.0
 10
311.9655349649
 20
57.1980588743
 30
0.0
  0
LINE
  5
767
100
AcDbEntity
  8
0
100
AcDbLine
 62
7
  6
CONTINUOUS
 10
311.9655349649
 20
57.1980588743
 11
311.9720720998
 21
57.1398306053
  0
SPLINE
  5
768
100
AcDbEntity
  8
0
100
AcDbSpline
 62
7
  6
CONTINUOUS
 70
0
 71
3
 72
13
 73
9
 74
0
 42
0.0000001
 43
0.0000001
 44
0.0000000001
 40
0.0
 40
0.0
 40
0.0
 40
0.0
 40
0.3588536496
 40
0.6482565232
 40
0.765056619
 40
0.8625966341
 40
0.9407567919
 40
1.0
 40
1.0
 40
1.0
 40
1.0
 10
311.9720720998
 20
57.1398306053
 30
0.0
 10
312.0618405196
 20
56.3429158848
 30
0.0
 10
312.2455359994
 20
54.9056807524
 30
0.0
 10
312.5381920111
 20
53.2198506186
 30
0.0
 10
312.7978928932
 20
52.1241660122
 30
0.0
 10
312.9831383563
 20
51.496634181
 30
0.0
 10
313.1713255146
 20
51.0061578878
 30
0.0
 10
313.3172120214
 20
50.7334518901
 30
0.0
 10
313.3949766973
 20
50.6263022291
 30
0.0
  0
SPLINE
  5
769
100
AcDbEntity
  8
0
100
AcDbSpline
 62
7
  6
CONTINUOUS
 70
0
 71
3
 72
9
 73
5
 74
0
 42
0.0000001
 43
0.0000001
 44
0.0000000001
 40
0.0
 40
0.0
 40
0.0
 40
0.0
 40
0.4996141468
 40
1.0
 40
1.0
 40
1.0
 40
1.0
 10
311.8298646439
 20
58.5135304519
 30
0.0
 10
311.7350771951
 20
58.9286293456
 30
0.0
 10
311.5331670849
 20
59.7566594108
 30
0.0
 10
311.3184670576
 20
60.5814702708
 30
0.0
 10
311.2204909099
 20
60.9965038927
 30
0.0
  0
SPLINE
  5
76A
100
AcDbEntity
  8
RUNDUNGEN
100
AcDbSpline
 62
7
  6
CONTINUOUS
 70
0
 71
3
 72
9
 73
5
 74
0
 42
0.0000001
 43
0.0000001
 44
0.0000000001
 40
0.0
 40
0.0
 40
0.0
 40
0.0
 40
0.5000106048
 40
1.0
 40
1.0
 40
1.0
 40
1.0
 10
334.6441817936
 20
142.1774410507
 30
0.0
 10
334.7835022965
 20
139.4449287912
 30
0.0
 10
334.9993204123
 20
133.9769917464
 30
0.0
 10
335.182195571
 20
128.5079120067
 30
0.0
 10
335.2457269275
 20
125.7727041278
 30
0.0
  0
SPLINE
  5
76B
100
AcDbEntity
  8
0
100
AcDbSpline
 62
7
  6
CONTINUOUS
 70
0
 71
3
 72
13
 73
9
 74
0
 42
0.0000001
 43
0.0000001
 44
0.0000000001
 40
0.0
 40
0.0
 40
0.0
 40
0.0
 40
0.059243249
 40
0.1374034382
 40
0.2349434726
 40
0.3517435748
 40
0.6411464229
 40
1.0
 40
1.0
 40
1.0
 40
1.0
 10
313.3949760628
 20
163.9415602373
 30
0.0
 10
313.3172114338
 20
163.8344104556
 30
0.0
 10
313.1713250055
 20
163.5617042992
 30
0.0
 10
312.983137924
 20
163.0712278469
 30
0.0
 10
312.7978925406
 20
162.4436959706
 30
0.0
 10
312.5381917861
 20
161.3480115194
 30
0.0
 10
312.2455359019
 20
159.6621818523
 30
0.0
 10
312.0618404871
 20
158.2249471668
 30
0.0
 10
311.9720720998
 20
157.4280327353
 30
0.0
  0
LINE
  5
76C
100
AcDbEntity
  8
0
100
AcDbLine
 62
7
  6
CONTINUOUS
 10
311.9720720998
 20
157.4280327353
 11
311.9655349649
 21
157.3698044662
  0
SPLINE
  5
76D
100
AcDbEntity
  8
0
100
AcDbSpline
 62
7
  6
CONTINUOUS
 70
0
 71
3
 72
9
 73
5
 74
0
 42
0.0000001
 43
0.0000001
 44
0.0000000001
 40
0.0
 40
0.0
 40
0.0
 40
0.0
 40
0.231075458
 40
1.0
 40
1.0
 40
1.0
 40
1.0
 10
311.9655349649
 20
157.3698044662
 30
0.0
 10
311.9254342806
 20
157.0114143089
 30
0.0
 10
311.762521724
 20
155.4592609453
 30
0.0
 10
311.6370423819
 20
153.9033261563
 30
0.0
 10
311.5548235171
 20
152.7061282386
 30
0.0
  0
SPLINE
  5
76E
100
AcDbEntity
  8
RUNDUNGEN
100
AcDbSpline
 62
7
  6
CONTINUOUS
 70
0
 71
3
 72
9
 73
5
 74
0
 42
0.0000001
 43
0.0000001
 44
0.0000000001
 40
0.0
 40
0.0
 40
0.0
 40
0.0
 40
0.4999894058
 40
1.0
 40
1.0
 40
1.0
 40
1.0
 10
309.0285229865
 20
125.7727041727
 30
0.0
 10
309.0920613917
 20
128.5079119342
 30
0.0
 10
309.2749275455
 20
133.9769918462
 30
0.0
 10
309.490747738
 20
139.4449288335
 30
0.0
 10
309.6300675723
 20
142.1774410572
 30
0.0
  0
SPLINE
  5
76F
100
AcDbEntity
  8
RUNDUNGEN
100
AcDbSpline
 62
7
  6
CONTINUOUS
 70
0
 71
3
 72
9
 73
5
 74
0
 42
0.0000001
 43
0.0000001
 44
0.0000000001
 40
0.0
 40
0.0
 40
0.0
 40
0.0
 40
0.2482996326
 40
1.0
 40
1.0
 40
1.0
 40
1.0
 10
309.9494738584
 20
147.8321088841
 30
0.0
 10
309.9545463046
 20
147.9136873956
 30
0.0
 10
309.9823785599
 20
148.2417527658
 30
0.0
 10
310.0391710708
 20
148.5672083064
 30
0.0
 10
310.0960227657
 20
148.8080359507
 30
0.0
  0
SPLINE
  5
770
100
AcDbEntity
  8
0
100
AcDbSpline
 62
7
  6
CONTINUOUS
 70
0
 71
3
 72
13
 73
9
 74
0
 42
0.0000001
 43
0.0000001
 44
0.0000000001
 40
0.0
 40
0.0
 40
0.0
 40
0.0
 40
0.059243249
 40
0.1374034382
 40
0.2349434726
 40
0.3517435748
 40
0.6411464229
 40
1.0
 40
1.0
 40
1.0
 40
1.0
 10
330.8792735617
 20
50.6263031033
 30
0.0
 10
330.9570381907
 20
50.7334528849
 30
0.0
 10
331.102924619
 20
51.0061590413
 30
0.0
 10
331.2911117005
 20
51.4966354937
 30
0.0
 10
331.476357084
 20
52.12416737
 30
0.0
 10
331.7360578385
 20
53.2198518212
 30
0.0
 10
332.0287137226
 20
54.9056814882
 30
0.0
 10
332.2124091375
 20
56.3429161738
 30
0.0
 10
332.3021775247
 20
57.1398306053
 30
0.0
  0
LINE
  5
771
100
AcDbEntity
  8
0
100
AcDbLine
 62
7
  6
CONTINUOUS
 10
332.3021775247
 20
57.1398306053
 11
332.3087146596
 21
57.1980588743
  0
SPLINE
  5
772
100
AcDbEntity
  8
0
100
AcDbSpline
 62
7
  6
CONTINUOUS
 70
0
 71
3
 72
9
 73
5
 74
0
 42
0.0000001
 43
0.0000001
 44
0.0000000001
 40
0.0
 40
0.0
 40
0.0
 40
0.0
 40
0.231075458
 40
1.0
 40
1.0
 40
1.0
 40
1.0
 10
332.3087146596
 20
57.1980588743
 30
0.0
 10
332.3488153439
 20
57.5564490316
 30
0.0
 10
332.5117279006
 20
59.1086023953
 30
0.0
 10
332.6372072427
 20
60.6645371843
 30
0.0
 10
332.7194261074
 20
61.861735102
 30
0.0
  0
SPLINE
  5
773
100
AcDbEntity
  8
RUNDUNGEN
100
AcDbSpline
 62
7
  6
CONTINUOUS
 70
0
 71
3
 72
9
 73
5
 74
0
 42
0.0000001
 43
0.0000001
 44
0.0000000001
 40
0.0
 40
0.0
 40
0.0
 40
0.0
 40
0.4999894058
 40
1.0
 40
1.0
 40
1.0
 40
1.0
 10
335.245726638
 20
88.7951591679
 30
0.0
 10
335.1821882328
 20
86.0599514064
 30
0.0
 10
334.999322079
 20
80.5908714943
 30
0.0
 10
334.7835018865
 20
75.122934507
 30
0.0
 10
334.6441820522
 20
72.3904222833
 30
0.0
  0
SPLINE
  5
774
100
AcDbEntity
  8
RUNDUNGEN
100
AcDbSpline
 62
7
  6
CONTINUOUS
 70
0
 71
3
 72
9
 73
5
 74
0
 42
0.0000001
 43
0.0000001
 44
0.0000000001
 40
0.0
 40
0.0
 40
0.0
 40
0.0
 40
0.2482996326
 40
1.0
 40
1.0
 40
1.0
 40
1.0
 10
334.3247757661
 20
66.7357544565
 30
0.0
 10
334.31970332
 20
66.654175945
 30
0.0
 10
334.2918710647
 20
66.3261105748
 30
0.0
 10
334.2350785537
 20
66.0006550342
 30
0.0
 10
334.1782268588
 20
65.7598273898
 30
0.0
  0
SPLINE
  5
775
100
AcDbEntity
  8
0
100
AcDbSpline
 62
7
  6
CONTINUOUS
 70
0
 71
3
 72
9
 73
5
 74
0
 42
0.0000001
 43
0.0000001
 44
0.0000000001
 40
0.0
 40
0.0
 40
0.0
 40
0.0
 40
0.4788471423
 40
1.0
 40
1.0
 40
1.0
 40
1.0
 10
332.7194261074
 20
61.861735102
 30
0.0
 10
333.0951708097
 20
67.3330060892
 30
0.0
 10
333.6816519247
 20
78.7728029477
 30
0.0
 10
333.9605790756
 20
90.2235934035
 30
0.0
 10
334.03189637
 20
96.1918458876
 30
0.0
  0
SPLINE
  5
776
100
AcDbEntity
  8
RUNDUNGEN
100
AcDbSpline
 62
7
  6
CONTINUOUS
 70
0
 71
3
 72
9
 73
5
 74
0
 42
0.0000001
 43
0.0000001
 44
0.0000000001
 40
0.0
 40
0.0
 40
0.0
 40
0.0
 40
0.5000106048
 40
1.0
 40
1.0
 40
1.0
 40
1.0
 10
309.6300678309
 20
72.3904222898
 30
0.0
 10
309.490747328
 20
75.1229345494
 30
0.0
 10
309.2749292122
 20
80.5908715941
 30
0.0
 10
309.0920540536
 20
86.0599513338
 30
0.0
 10
309.028522697
 20
88.7951592127
 30
0.0
  0
SPLINE
  5
777
100
AcDbEntity
  8
0
100
AcDbSpline
 62
7
  6
CONTINUOUS
 70
0
 71
3
 72
9
 73
5
 74
0
 42
0.0000001
 43
0.0000001
 44
0.0000000001
 40
0.0
 40
0.0
 40
0.0
 40
0.0
 40
0.5003857738
 40
1.0
 40
1.0
 40
1.0
 40
1.0
 10
333.0537587142
 20
60.9965038909
 30
0.0
 10
332.9557868224
 20
60.5814882972
 30
0.0
 10
332.7410963755
 20
59.7567130531
 30
0.0
 10
332.5391944481
 20
58.9287189905
 30
0.0
 10
332.4444094636
 20
58.5136383665
 30
0.0
  0
SPLINE
  5
778
100
AcDbEntity
  8
0
100
AcDbSpline
 62
7
  6
CONTINUOUS
 70
0
 71
3
 72
9
 73
5
 74
0
 42
0.0000001
 43
0.0000001
 44
0.0000000001
 40
0.0
 40
0.0
 40
0.0
 40
0.0
 40
0.4788471423
 40
1.0
 40
1.0
 40
1.0
 40
1.0
 10
311.5548235171
 20
152.7061282386
 30
0.0
 10
311.1790788149
 20
147.2348572513
 30
0.0
 10
310.5925976998
 20
135.7950603929
 30
0.0
 10
310.3136705489
 20
124.344269937
 30
0.0
 10
310.2423532545
 20
118.3760174529
 30
0.0
  0
SPLINE
  5
779
100
AcDbEntity
  8
0
100
AcDbSpline
 62
7
  6
CONTINUOUS
 70
0
 71
3
 72
9
 73
5
 74
0
 42
0.0000001
 43
0.0000001
 44
0.0000000001
 40
0.0
 40
0.0
 40
0.0
 40
0.0
 40
0.5003857738
 40
1.0
 40
1.0
 40
1.0
 40
1.0
 10
311.2204909103
 20
153.5713594497
 30
0.0
 10
311.3184628022
 20
153.9863750434
 30
0.0
 10
311.533153249
 20
154.8111502875
 30
0.0
 10
311.7350551765
 20
155.6391443501
 30
0.0
 10
311.8298401609
 20
156.0542249741
 30
0.0
  0
SPLINE
  5
77A
100
AcDbEntity
  8
0
100
AcDbSpline
 62
7
  6
CONTINUOUS
 70
0
 71
3
 72
9
 73
5
 74
0
 42
0.0000001
 43
0.0000001
 44
0.0000000001
 40
0.0
 40
0.0
 40
0.0
 40
0.0
 40
0.4996141468
 40
1.0
 40
1.0
 40
1.0
 40
1.0
 10
332.4443849806
 20
156.0543328886
 30
0.0
 10
332.5391724294
 20
155.6392339949
 30
0.0
 10
332.7410825396
 20
154.8112039297
 30
0.0
 10
332.9557825669
 20
153.9863930698
 30
0.0
 10
333.0537587146
 20
153.5713594479
 30
0.0
  0
SPLINE
  5
77B
100
AcDbEntity
  8
0
100
AcDbSpline
 62
7
  6
CONTINUOUS
 70
0
 71
3
 72
9
 73
5
 74
0
 42
0.0000001
 43
0.0000001
 44
0.0000000001
 40
0.0
 40
0.0
 40
0.0
 40
0.0
 40
0.2679832026
 40
1.0
 40
1.0
 40
1.0
 40
1.0
 10
332.7194261074
 20
152.7061282385
 30
0.0
 10
332.6907715674
 20
153.1233701424
 30
0.0
 10
332.5770190935
 20
154.6798405507
 30
0.0
 10
332.435747826
 20
156.2344762972
 30
0.0
 10
332.3087146596
 20
157.3698044662
 30
0.0
  0
LINE
  5
77C
100
AcDbEntity
  8
0
100
AcDbLine
 62
7
  6
CONTINUOUS
 10
332.3087146596
 20
157.3698044662
 11
332.3021775247
 21
157.4280327353
  0
SPLINE
  5
77D
100
AcDbEntity
  8
0
100
AcDbSpline
 62
7
  6
CONTINUOUS
 70
0
 71
3
 72
13
 73
9
 74
0
 42
0.0000001
 43
0.0000001
 44
0.0000000001
 40
0.0
 40
0.0
 40
0.0
 40
0.0
 40
0.3588536496
 40
0.6482565232
 40
0.765056619
 40
0.8625966341
 40
0.9407567919
 40
1.0
 40
1.0
 40
1.0
 40
1.0
 10
332.3021775247
 20
157.4280327353
 30
0.0
 10
332.2124091049
 20
158.2249474558
 30
0.0
 10
332.0287136251
 20
159.6621825881
 30
0.0
 10
331.7360576134
 20
161.3480127219
 30
0.0
 10
331.4763567314
 20
162.4436973283
 30
0.0
 10
331.2911112682
 20
163.0712291595
 30
0.0
 10
331.1029241099
 20
163.5617054528
 30
0.0
 10
330.9570376032
 20
163.8344114504
 30
0.0
 10
330.8792729273
 20
163.9415611114
 30
0.0
  0
SPLINE
  5
77E
100
AcDbEntity
  8
RUNDUNGEN
100
AcDbSpline
 62
7
  6
CONTINUOUS
 70
0
 71
3
 72
9
 73
5
 74
0
 42
0.0000001
 43
0.0000001
 44
0.0000000001
 40
0.0
 40
0.0
 40
0.0
 40
0.0
 40
0.2522612347
 40
1.0
 40
1.0
 40
1.0
 40
1.0
 10
334.1782268588
 20
148.8080359507
 30
0.0
 10
334.1973050762
 20
148.7272193248
 30
0.0
 10
334.2665989041
 20
148.4054054913
 30
0.0
 10
334.309500813
 20
148.0777710171
 30
0.0
 10
334.3247757661
 20
147.8321088841
 30
0.0
  0
SPLINE
  5
77F
100
AcDbEntity
  8
0
100
AcDbSpline
 62
7
  6
CONTINUOUS
 70
0
 71
3
 72
9
 73
5
 74
0
 42
0.0000001
 43
0.0000001
 44
0.0000000001
 40
0.0
 40
0.0
 40
0.0
 40
0.0
 40
0.5211529301
 40
1.0
 40
1.0
 40
1.0
 40
1.0
 10
334.03189637
 20
118.3760174531
 30
0.0
 10
333.9605790657
 20
124.3442707666
 30
0.0
 10
333.6816518961
 20
135.7950612226
 30
0.0
 10
333.0951707528
 20
147.2348580789
 30
0.0
 10
332.7194261074
 20
152.7061282385
 30
0.0
  0
SPLINE
  5
780
100
AcDbEntity
  8
RUNDUNGEN
100
AcDbSpline
 62
7
  6
CONTINUOUS
 70
0
 71
3
 72
9
 73
5
 74
0
 42
0.0000001
 43
0.0000001
 44
0.0000000001
 40
0.0
 40
0.0
 40
0.0
 40
0.0
 40
0.749884304
 40
1.0
 40
1.0
 40
1.0
 40
1.0
 10
308.9931972054
 20
97.4554488387
 30
0.0
 10
309.0642680663
 20
99.6735527798
 30
0.0
 10
309.2229384566
 20
102.6317938062
 30
0.0
 10
309.5536606289
 20
105.5732613691
 30
0.0
 10
309.649556555
 20
106.3072272069
 30
0.0
  0
SPLINE
  5
781
100
AcDbEntity
  8
RUNDUNGEN
100
AcDbSpline
 62
7
  6
CONTINUOUS
 70
0
 71
3
 72
8
 73
4
 74
0
 42
0.0000001
 43
0.0000001
 44
0.0000000001
 40
0.0
 40
0.0
 40
0.0
 40
0.0
 40
1.0
 40
1.0
 40
1.0
 40
1.0
 10
335.2457269275
 20
125.7727041278
 30
0.0
 10
335.3067165661
 20
123.1469245259
 30
0.0
 10
335.341461788
 20
120.5195818889
 30
0.0
 10
335.2997251471
 20
117.8934257042
 30
0.0
  0
SPLINE
  5
782
100
AcDbEntity
  8
RUNDUNGEN
100
AcDbSpline
 62
7
  6
CONTINUOUS
 70
0
 71
3
 72
9
 73
5
 74
0
 42
0.0000001
 43
0.0000001
 44
0.0000000001
 40
0.0
 40
0.0
 40
0.0
 40
0.0
 40
0.230885533
 40
1.0
 40
1.0
 40
1.0
 40
1.0
 10
309.9484073216
 20
66.753369293
 30
0.0
 10
309.9477770894
 20
66.7640664692
 30
0.0
 10
309.9451773698
 20
66.8104052256
 30
0.0
 10
309.9429868628
 20
66.8567659375
 30
0.0
 10
309.9413932334
 20
66.8924260406
 30
0.0
  0
SPLINE
  5
783
100
AcDbEntity
  8
RUNDUNGEN
100
AcDbSpline
 62
7
  6
CONTINUOUS
 70
0
 71
3
 72
9
 73
5
 74
0
 42
0.0000001
 43
0.0000001
 44
0.0000000001
 40
0.0
 40
0.0
 40
0.0
 40
0.0
 40
0.4250950732
 40
1.0
 40
1.0
 40
1.0
 40
1.0
 10
309.9413932334
 20
66.8924260406
 30
0.0
 10
309.9310996897
 20
67.1227611642
 30
0.0
 10
309.9108717834
 20
67.6647885011
 30
0.0
 10
309.8772035611
 20
68.2061861608
 30
0.0
 10
309.8562542093
 20
68.5173012026
 30
0.0
  0
SPLINE
  5
784
100
AcDbEntity
  8
RUNDUNGEN
100
AcDbSpline
 62
7
  6
CONTINUOUS
 70
0
 71
3
 72
9
 73
5
 74
0
 42
0.0000001
 43
0.0000001
 44
0.0000000001
 40
0.0
 40
0.0
 40
0.0
 40
0.0
 40
0.250115696
 40
1.0
 40
1.0
 40
1.0
 40
1.0
 10
334.6246930695
 20
106.3072272069
 30
0.0
 10
334.7205889957
 20
105.5732613691
 30
0.0
 10
335.051311168
 20
102.6317938062
 30
0.0
 10
335.2099815583
 20
99.6735527798
 30
0.0
 10
335.2810524192
 20
97.4554488387
 30
0.0
  0
SPLINE
  5
785
100
AcDbEntity
  8
RUNDUNGEN
100
AcDbSpline
 62
7
  6
CONTINUOUS
 70
0
 71
3
 72
9
 73
5
 74
0
 42
0.0000001
 43
0.0000001
 44
0.0000000001
 40
0.0
 40
0.0
 40
0.0
 40
0.0
 40
0.5748371196
 40
1.0
 40
1.0
 40
1.0
 40
1.0
 10
334.4179954153
 20
68.5173012026
 30
0.0
 10
334.397054758
 20
68.2063152828
 30
0.0
 10
334.3633955669
 20
67.6650786149
 30
0.0
 10
334.3431641427
 20
67.1232127235
 30
0.0
 10
334.332877957
 20
66.8929090416
 30
0.0
  0
SPLINE
  5
786
100
AcDbEntity
  8
RUNDUNGEN
100
AcDbSpline
 62
7
  6
CONTINUOUS
 70
0
 71
3
 72
9
 73
5
 74
0
 42
0.0000001
 43
0.0000001
 44
0.0000000001
 40
0.0
 40
0.0
 40
0.0
 40
0.0
 40
0.2689705425
 40
1.0
 40
1.0
 40
1.0
 40
1.0
 10
334.332877957
 20
66.8929090416
 30
0.0
 10
334.3323190299
 20
66.8803948815
 30
0.0
 10
334.3301932015
 20
66.8338710472
 30
0.0
 10
334.3278446698
 20
66.787356242
 30
0.0
 10
334.3258423029
 20
66.753369293
 30
0.0
  0
SPLINE
  5
787
100
AcDbEntity
  8
RUNDUNGEN
100
AcDbSpline
 62
7
  6
CONTINUOUS
 70
0
 71
3
 72
8
 73
4
 74
0
 42
0.0000001
 43
0.0000001
 44
0.0000000001
 40
0.0
 40
0.0
 40
0.0
 40
0.0
 40
1.0
 40
1.0
 40
1.0
 40
1.0
 10
335.2997251471
 20
96.6744376359
 30
0.0
 10
335.3414617882
 20
94.0482814357
 30
0.0
 10
335.3067230427
 20
91.4209386281
 30
0.0
 10
335.245726638
 20
88.7951591679
 30
0.0
  0
SPLINE
  5
788
100
AcDbEntity
  8
RUNDUNGEN
100
AcDbSpline
 62
7
  6
CONTINUOUS
 70
0
 71
3
 72
8
 73
4
 74
0
 42
0.0000001
 43
0.0000001
 44
0.0000000001
 40
0.0
 40
0.0
 40
0.0
 40
0.0
 40
1.0
 40
1.0
 40
1.0
 40
1.0
 10
309.028522697
 20
88.7951592127
 30
0.0
 10
308.9675330585
 20
91.4209388147
 30
0.0
 10
308.9327878366
 20
94.0482814516
 30
0.0
 10
308.9745244775
 20
96.6744376364
 30
0.0
  0
SPLINE
  5
789
100
AcDbEntity
  8
RUNDUNGEN
100
AcDbSpline
 62
7
  6
CONTINUOUS
 70
0
 71
3
 72
9
 73
5
 74
0
 42
0.0000001
 43
0.0000001
 44
0.0000000001
 40
0.0
 40
0.0
 40
0.0
 40
0.0
 40
0.2501156961
 40
1.0
 40
1.0
 40
1.0
 40
1.0
 10
309.649556555
 20
108.2606361337
 30
0.0
 10
309.5536606288
 20
108.9946019715
 30
0.0
 10
309.2229384564
 20
111.9360695344
 30
0.0
 10
309.0642680663
 20
114.8943105608
 30
0.0
 10
308.9931972054
 20
117.1124145019
 30
0.0
  0
SPLINE
  5
78A
100
AcDbEntity
  8
RUNDUNGEN
100
AcDbSpline
 62
7
  6
CONTINUOUS
 70
0
 71
3
 72
9
 73
5
 74
0
 42
0.0000001
 43
0.0000001
 44
0.0000000001
 40
0.0
 40
0.0
 40
0.0
 40
0.0
 40
0.2308855314
 40
1.0
 40
1.0
 40
1.0
 40
1.0
 10
334.3258423029
 20
147.8144940476
 30
0.0
 10
334.3264725352
 20
147.8037968705
 30
0.0
 10
334.3290722551
 20
147.7574581103
 30
0.0
 10
334.3312627622
 20
147.7110973946
 30
0.0
 10
334.3328563917
 20
147.6754372884
 30
0.0
  0
SPLINE
  5
78B
100
AcDbEntity
  8
RUNDUNGEN
100
AcDbSpline
 62
7
  6
CONTINUOUS
 70
0
 71
3
 72
9
 73
5
 74
0
 42
0.0000001
 43
0.0000001
 44
0.0000000001
 40
0.0
 40
0.0
 40
0.0
 40
0.0
 40
0.4250950599
 40
1.0
 40
1.0
 40
1.0
 40
1.0
 10
334.3328563917
 20
147.6754372884
 30
0.0
 10
334.3431499351
 20
147.4451021737
 30
0.0
 10
334.3633778426
 20
146.9030748407
 30
0.0
 10
334.3970460631
 20
146.3616771848
 30
0.0
 10
334.4179954153
 20
146.050562138
 30
0.0
  0
SPLINE
  5
78C
100
AcDbEntity
  8
RUNDUNGEN
100
AcDbSpline
 62
7
  6
CONTINUOUS
 70
0
 71
3
 72
9
 73
5
 74
0
 42
0.0000001
 43
0.0000001
 44
0.0000000001
 40
0.0
 40
0.0
 40
0.0
 40
0.0
 40
0.5748527767
 40
1.0
 40
1.0
 40
1.0
 40
1.0
 10
309.8562542093
 20
146.050562138
 30
0.0
 10
309.8771969485
 20
146.3615789767
 30
0.0
 10
309.9108584482
 20
146.9028547381
 30
0.0
 10
309.9310889358
 20
147.4447598436
 30
0.0
 10
309.9413769121
 20
147.675071604
 30
0.0
  0
SPLINE
  5
78D
100
AcDbEntity
  8
RUNDUNGEN
100
AcDbSpline
 62
7
  6
CONTINUOUS
 70
0
 71
3
 72
9
 73
5
 74
0
 42
0.0000001
 43
0.0000001
 44
0.0000000001
 40
0.0
 40
0.0
 40
0.0
 40
0.0
 40
0.2689578128
 40
1.0
 40
1.0
 40
1.0
 40
1.0
 10
309.9413769121
 20
147.675071604
 30
0.0
 10
309.9419354205
 20
147.6875746517
 30
0.0
 10
309.9440597542
 20
147.7340593735
 30
0.0
 10
309.9464066028
 20
147.7805350705
 30
0.0
 10
309.9484073216
 20
147.8144940476
 30
0.0
  0
SPLINE
  5
78E
100
AcDbEntity
  8
RUNDUNGEN
100
AcDbSpline
 62
7
  6
CONTINUOUS
 70
0
 71
3
 72
8
 73
4
 74
0
 42
0.0000001
 43
0.0000001
 44
0.0000000001
 40
0.0
 40
0.0
 40
0.0
 40
0.0
 40
1.0
 40
1.0
 40
1.0
 40
1.0
 10
308.9745244775
 20
117.8934257047
 30
0.0
 10
308.9327878363
 20
120.5195819049
 30
0.0
 10
308.9675265819
 20
123.1469247125
 30
0.0
 10
309.0285229865
 20
125.7727041727
 30
0.0
  0
SPLINE
  5
78F
100
AcDbEntity
  8
RUNDUNGEN
100
AcDbSpline
 62
7
  6
CONTINUOUS
 70
0
 71
3
 72
9
 73
5
 74
0
 42
0.0000001
 43
0.0000001
 44
0.0000000001
 40
0.0
 40
0.0
 40
0.0
 40
0.0
 40
0.7498843039
 40
1.0
 40
1.0
 40
1.0
 40
1.0
 10
335.2810524192
 20
117.1124145019
 30
0.0
 10
335.2099815583
 20
114.8943105608
 30
0.0
 10
335.0513111681
 20
111.9360695344
 30
0.0
 10
334.7205889957
 20
108.9946019715
 30
0.0
 10
334.6246930695
 20
108.2606361337
 30
0.0
  0
ELLIPSE
  5
790
100
AcDbEntity
  8
RUNDUNGEN
100
AcDbEllipse
 62
7
  6
CONTINUOUS
 10
322.1371248123
 20
494.7950150021
 30
0.0
 11
0.0
 21
17.3205080757
 31
0.0
 40
0.5773502692
 41
1.3963415839
 42
1.8276139601
  0
ELLIPSE
  5
791
100
AcDbEntity
  8
RUNDUNGEN
100
AcDbEllipse
 62
7
  6
CONTINUOUS
 10
322.1371248123
 20
482.9960636058
 30
0.0
 11
0.0
 21
17.320508051
 31
0.0
 40
0.57735027
 41
1.3139786936
 42
2.2142974356
  0
ELLIPSE
  5
792
100
AcDbEntity
  8
RUNDUNGEN
100
AcDbEllipse
 62
7
  6
CONTINUOUS
 10
322.1371248123
 20
504.7402339558
 30
0.0
 11
0.0
 21
22.460367739
 31
0.0
 40
0.4452286853
 41
1.5707963268
 42
1.7597458301
  0
ELLIPSE
  5
793
100
AcDbEntity
  8
RUNDUNGEN
100
AcDbEllipse
 62
7
  6
CONTINUOUS
 10
322.1371248123
 20
504.7402339558
 30
0.0
 11
-0.0
 21
22.460367739
 31
0.0
 40
0.4452286853
 41
4.5234394771
 42
4.7123889804
  0
ELLIPSE
  5
794
100
AcDbEntity
  8
RUNDUNGEN
100
AcDbEllipse
 62
7
  6
CONTINUOUS
 10
322.1371248123
 20
482.9960636058
 30
0.0
 11
-0.0
 21
17.320508051
 31
0.0
 40
0.57735027
 41
-2.2142974356
 42
-1.3139786936
  0
ELLIPSE
  5
795
100
AcDbEntity
  8
RUNDUNGEN
100
AcDbEllipse
 62
7
  6
CONTINUOUS
 10
322.1371248123
 20
494.7950150021
 30
0.0
 11
-0.0
 21
17.3205080757
 31
0.0
 40
0.5773502692
 41
4.4555713471
 42
4.8868437233
  0
ELLIPSE
  5
796
100
AcDbEntity
  8
0
100
AcDbEllipse
 62
7
  6
CONTINUOUS
 10
275.1371248123
 20
374.8059105759
 30
0.0
 11
39.0
 21
-0.0
 31
0.0
 40
0.255319362
 41
2.7919478989
 42
2.8191090875
  0
ELLIPSE
  5
797
100
AcDbEntity
  8
0
100
AcDbEllipse
 62
7
  6
CONTINUOUS
 10
275.1371248123
 20
369.1208053443
 30
0.0
 11
39.0
 21
-0.0
 31
0.0
 40
0.6808512211
 41
2.7714002082
 42
2.7919478989
  0
ELLIPSE
  5
798
100
AcDbEntity
  8
0
100
AcDbEllipse
 62
7
  6
CONTINUOUS
 10
275.1371248123
 20
357.1123415411
 30
0.0
 11
-0.0
 21
59.7445597752
 31
0.0
 40
0.6527791007
 41
1.1868144097
 42
1.2006038814
  0
ELLIPSE
  5
799
100
AcDbEntity
  8
0
100
AcDbEllipse
 62
7
  6
CONTINUOUS
 10
275.1371248123
 20
319.8099479645
 30
0.0
 11
0.0
 21
159.3197377004
 31
0.0
 40
0.244790762
 41
1.1798909866
 42
1.1868144097
  0
ELLIPSE
  5
79A
100
AcDbEntity
  8
0
100
AcDbEllipse
 62
7
  6
CONTINUOUS
 10
275.1371248123
 20
445.0495376785
 30
0.0
 11
-0.0
 21
159.3197377004
 31
0.0
 40
0.244790762
 41
-4.3284070633
 42
-4.3214836402
  0
ELLIPSE
  5
79B
100
AcDbEntity
  8
0
100
AcDbEllipse
 62
7
  6
CONTINUOUS
 10
275.1371248123
 20
407.7471650017
 30
0.0
 11
-0.0
 21
59.7446155651
 31
0.0
 40
0.6527784911
 41
-4.342196535
 42
-4.3284070633
  0
ELLIPSE
  5
79C
100
AcDbEntity
  8
0
100
AcDbEllipse
 62
7
  6
CONTINUOUS
 10
275.1371248123
 20
395.7386776499
 30
0.0
 11
39.0
 21
0.0
 31
0.0
 40
0.6808509827
 41
-2.7919478989
 42
-2.7714002082
  0
ELLIPSE
  5
79D
100
AcDbEntity
  8
0
100
AcDbEllipse
 62
7
  6
CONTINUOUS
 10
275.1371248123
 20
390.0535756035
 30
0.0
 11
39.0
 21
-0.0
 31
0.0
 40
0.255319362
 41
-2.8191090875
 42
-2.7919478989
  0
ELLIPSE
  5
79E
100
AcDbEntity
  8
0
100
AcDbEllipse
 62
7
  6
CONTINUOUS
 10
275.1371248123
 20
377.8697430513
 30
0.0
 11
39.0
 21
-0.0
 31
0.0
 40
0.2553189968
 41
3.106713775
 42
3.1323617533
  0
ELLIPSE
  5
79F
100
AcDbEntity
  8
0
100
AcDbEllipse
 62
7
  6
CONTINUOUS
 10
275.1371248123
 20
377.2910190233
 30
0.0
 11
39.0
 21
0.0
 31
0.0
 40
0.6808512211
 41
3.0874636486
 42
3.106713775
  0
ELLIPSE
  5
7A0
100
AcDbEntity
  8
0
100
AcDbEllipse
 62
7
  6
CONTINUOUS
 10
275.1371248123
 20
375.4952715712
 30
0.0
 11
0.0
 21
59.744730706
 31
0.0
 40
0.6527772331
 41
1.5038231942
 42
1.5166673218
  0
ELLIPSE
  5
7A1
100
AcDbEntity
  8
0
100
AcDbEllipse
 62
7
  6
CONTINUOUS
 10
275.1371248123
 20
368.8314667278
 30
0.0
 11
0.0
 21
159.3188260673
 31
0.0
 40
0.2447921628
 41
1.4973970932
 42
1.5038231942
  0
ELLIPSE
  5
7A2
100
AcDbEntity
  8
0
100
AcDbEllipse
 62
7
  6
CONTINUOUS
 10
275.1371248123
 20
346.1037854472
 30
0.0
 11
39.0
 21
0.0
 31
0.0
 40
0.1702127606
 41
-2.9533025665
 42
-2.9238505105
  0
ELLIPSE
  5
7A3
100
AcDbEntity
  8
0
100
AcDbEllipse
 62
7
  6
CONTINUOUS
 10
275.1371248123
 20
347.3463385385
 30
0.0
 11
39.0
 21
-0.0
 31
0.0
 40
0.3404255211
 41
-2.9679651899
 42
-2.9533025665
  0
ELLIPSE
  5
7A4
100
AcDbEntity
  8
0
100
AcDbEllipse
 62
7
  6
CONTINUOUS
 10
275.1371248123
 20
349.6399553654
 30
0.0
 11
39.0
 21
-0.0
 31
0.0
 40
0.6808510423
 41
-2.9825901983
 42
-2.9679651899
  0
ELLIPSE
  5
7A5
100
AcDbEntity
  8
0
100
AcDbEllipse
 62
7
  6
CONTINUOUS
 10
275.1371248123
 20
358.048477279
 30
0.0
 11
0.0
 21
79.659647915
 31
0.0
 40
0.4895828819
 41
-4.5631173028
 42
-4.5533865251
  0
ELLIPSE
  5
7A6
100
AcDbEntity
  8
0
100
AcDbEllipse
 62
7
  6
CONTINUOUS
 10
275.1371248123
 20
344.7846365085
 30
0.0
 11
0.0
 21
59.7446949469
 31
0.0
 40
0.6527776238
 41
1.5278344032
 42
1.5470761584
  0
ELLIPSE
  5
7A7
100
AcDbEntity
  8
0
100
AcDbEllipse
 62
7
  6
CONTINUOUS
 10
275.1371248123
 20
337.0867848211
 30
0.0
 11
0.0
 21
238.9782948908
 31
0.0
 40
0.1631947371
 41
1.5230217451
 42
1.5278344032
  0
ELLIPSE
  5
7A8
100
AcDbEntity
  8
0
100
AcDbEllipse
 62
7
  6
CONTINUOUS
 10
275.1371248123
 20
361.2526985153
 30
0.0
 11
-0.0
 21
238.978239101
 31
0.0
 40
0.1631947752
 41
-4.6694270568
 42
-4.6646143987
  0
ELLIPSE
  5
7A9
100
AcDbEntity
  8
0
100
AcDbEllipse
 62
7
  6
CONTINUOUS
 10
275.1371248123
 20
353.5548501225
 30
0.0
 11
0.0
 21
59.7447158682
 31
0.0
 40
0.6527773952
 41
-4.688668812
 42
-4.6694270568
  0
ELLIPSE
  5
7AA
100
AcDbEntity
  8
0
100
AcDbEllipse
 62
7
  6
CONTINUOUS
 10
275.1371248123
 20
435.1549563431
 30
0.0
 11
-0.0
 21
79.6589572223
 31
0.0
 40
0.4895871269
 41
-3.6748538414
 42
-3.6653190724
  0
ELLIPSE
  5
7AB
100
AcDbEntity
  8
0
100
AcDbEllipse
 62
7
  6
CONTINUOUS
 10
275.1371248123
 20
400.8560401727
 30
0.0
 11
-0.0
 21
39.8299344251
 31
0.0
 40
0.9791630482
 41
-3.6934762124
 42
-3.6748538414
  0
ELLIPSE
  5
7AC
100
AcDbEntity
  8
0
100
AcDbEllipse
 62
7
  6
CONTINUOUS
 10
275.1371248123
 20
378.2448486824
 30
0.0
 11
39.0
 21
0.0
 31
0.0
 40
0.3404254913
 41
-2.1496041051
 42
-2.1226798856
  0
ELLIPSE
  5
7AD
100
AcDbEntity
  8
0
100
AcDbEllipse
 62
7
  6
CONTINUOUS
 10
275.1371248123
 20
365.6417947676
 30
0.0
 11
39.0
 21
-0.0
 31
0.0
 40
0.2042556244
 41
-2.2554859377
 42
-2.2165377424
  0
ELLIPSE
  5
7AE
100
AcDbEntity
  8
0
100
AcDbEllipse
 62
7
  6
CONTINUOUS
 10
275.1371248123
 20
377.9829195909
 30
0.0
 11
39.0
 21
-0.0
 31
0.0
 40
0.6127668731
 41
-2.2926578615
 42
-2.2554859377
  0
ELLIPSE
  5
7AF
100
AcDbEntity
  8
0
100
AcDbEllipse
 62
7
  6
CONTINUOUS
 10
275.1371248123
 20
409.8712393017
 30
0.0
 11
-0.0
 21
66.3829847574
 31
0.0
 40
0.5874999466
 41
-3.8850190025
 42
-3.8634541883
  0
ELLIPSE
  5
7B0
100
AcDbEntity
  8
0
100
AcDbEllipse
 62
7
  6
CONTINUOUS
 10
275.1371248123
 20
478.2856486418
 30
0.0
 11
-0.0
 21
159.3179144446
 31
0.0
 40
0.2447935635
 41
-3.892095299
 42
-3.8850190025
  0
ELLIPSE
  5
7B1
100
AcDbEntity
  8
0
100
AcDbEllipse
 62
7
  6
CONTINUOUS
 10
275.1371248123
 20
352.0931160836
 30
0.0
 11
39.0
 21
-0.0
 31
0.0
 40
0.2553200925
 41
2.113440699
 42
2.1496041051
  0
ELLIPSE
  5
7B2
100
AcDbEntity
  8
0
100
AcDbEllipse
 62
7
  6
CONTINUOUS
 10
275.1371248123
 20
337.8814408244
 30
0.0
 11
39.0
 21
0.0
 31
0.0
 40
0.6808512211
 41
2.0848281115
 42
2.113440699
  0
ELLIPSE
  5
7B3
100
AcDbEntity
  8
0
100
AcDbEllipse
 62
7
  6
CONTINUOUS
 10
275.1371248123
 20
308.9797228316
 30
0.0
 11
0.0
 21
59.7442179167
 31
0.0
 40
0.6527828359
 41
0.4941236791
 42
0.5140317847
  0
ELLIPSE
  5
7B4
100
AcDbEntity
  8
0
100
AcDbEllipse
 62
7
  6
CONTINUOUS
 10
275.1371248123
 20
414.7500004133
 30
0.0
 11
0.0
 21
59.7442458115
 31
0.0
 40
0.6527825311
 41
-3.6556244383
 42
-3.6357163327
  0
ELLIPSE
  5
7B5
100
AcDbEntity
  8
0
100
AcDbEllipse
 62
7
  6
CONTINUOUS
 10
275.1371248123
 20
385.8482500339
 30
0.0
 11
39.0
 21
0.0
 31
0.0
 40
0.6808509827
 41
-2.113440699
 42
-2.0848281115
  0
ELLIPSE
  5
7B6
100
AcDbEntity
  8
0
100
AcDbEllipse
 62
7
  6
CONTINUOUS
 10
275.1371248123
 20
371.6365827373
 30
0.0
 11
39.0
 21
-0.0
 31
0.0
 40
0.2553200925
 41
-2.1496041051
 42
-2.113440699
  0
ELLIPSE
  5
7B7
100
AcDbEntity
  8
0
100
AcDbEllipse
 62
7
  6
CONTINUOUS
 10
275.1371248123
 20
371.3493015804
 30
0.0
 11
39.0
 21
0.0
 31
0.0
 40
0.2553186315
 41
-2.2323503803
 42
-2.2003858552
  0
ELLIPSE
  5
7B8
100
AcDbEntity
  8
0
100
AcDbEllipse
 62
7
  6
CONTINUOUS
 10
275.1371248123
 20
379.2060941688
 30
0.0
 11
39.0
 21
0.0
 31
0.0
 40
0.510637263
 41
-2.2630529066
 42
-2.2323503803
  0
ELLIPSE
  5
7B9
100
AcDbEntity
  8
0
100
AcDbEllipse
 62
7
  6
CONTINUOUS
 10
275.1371248123
 20
394.5368761134
 30
0.0
 11
0.0
 21
39.8299344251
 31
0.0
 40
0.9791630482
 41
-3.8634541883
 42
-3.8338492334
  0
ELLIPSE
  5
7BA
100
AcDbEntity
  8
0
100
AcDbEllipse
 62
7
  6
CONTINUOUS
 10
275.1371248123
 20
484.2218008839
 30
0.0
 11
-0.0
 21
159.3179144446
 31
0.0
 40
0.2447935635
 41
-3.8707002374
 42
-3.8634541883
  0
ELLIPSE
  5
7BB
100
AcDbEntity
  8
0
100
AcDbEllipse
 62
7
  6
CONTINUOUS
 10
275.1371248123
 20
247.3589617696
 30
0.0
 11
0.0
 21
159.3179144446
 31
0.0
 40
0.2447935635
 41
0.7218615347
 42
0.7291075838
  0
ELLIPSE
  5
7BC
100
AcDbEntity
  8
0
100
AcDbEllipse
 62
7
  6
CONTINUOUS
 10
275.1371248123
 20
337.0438865401
 30
0.0
 11
-0.0
 21
39.8299344251
 31
0.0
 40
0.9791630482
 41
0.6922565798
 42
0.7218615347
  0
ELLIPSE
  5
7BD
100
AcDbEntity
  8
0
100
AcDbEllipse
 62
7
  6
CONTINUOUS
 10
275.1371248123
 20
352.3746684847
 30
0.0
 11
39.0
 21
0.0
 31
0.0
 40
0.510637263
 41
2.2323503803
 42
2.2630529066
  0
ELLIPSE
  5
7BE
100
AcDbEntity
  8
0
100
AcDbEllipse
 62
7
  6
CONTINUOUS
 10
275.1371248123
 20
360.2314610731
 30
0.0
 11
39.0
 21
-0.0
 31
0.0
 40
0.2553186315
 41
2.2003858552
 42
2.2323503803
  0
ELLIPSE
  5
7BF
100
AcDbEntity
  8
0
100
AcDbEllipse
 62
7
  6
CONTINUOUS
 10
275.1371248123
 20
364.0332817258
 30
0.0
 11
39.0
 21
0.0
 31
0.0
 40
0.2042556244
 41
-2.5318063299
 42
-2.502171897
  0
ELLIPSE
  5
7C0
100
AcDbEntity
  8
0
100
AcDbEllipse
 62
7
  6
CONTINUOUS
 10
275.1371248123
 20
370.8763171236
 30
0.0
 11
39.0
 21
-0.0
 31
0.0
 40
0.5106373301
 41
-2.555078038
 42
-2.5318063299
  0
ELLIPSE
  5
7C1
100
AcDbEntity
  8
0
100
AcDbEllipse
 62
7
  6
CONTINUOUS
 10
275.1371248123
 20
381.8985483367
 30
0.0
 11
0.0
 21
39.829937912
 31
0.0
 40
0.9791629624
 41
-4.1487914193
 42
-4.1258743648
  0
ELLIPSE
  5
7C2
100
AcDbEntity
  8
0
100
AcDbEllipse
 62
7
  6
CONTINUOUS
 10
275.1371248123
 20
403.1764448726
 30
0.0
 11
0.0
 21
79.6589711697
 31
0.0
 40
0.4895870412
 41
-4.1601257501
 42
-4.1487914193
  0
ELLIPSE
  5
7C3
100
AcDbEntity
  8
0
100
AcDbEllipse
 62
7
  6
CONTINUOUS
 10
275.1371248123
 20
465.8642961919
 30
0.0
 11
0.0
 21
199.1519512474
 31
0.0
 40
0.1958303685
 41
-4.1657631121
 42
-4.1601257501
  0
ELLIPSE
  5
7C4
100
AcDbEntity
  8
0
100
AcDbEllipse
 62
7
  6
CONTINUOUS
 10
275.1371248123
 20
354.2952873421
 30
0.0
 11
39.0
 21
0.0
 31
0.0
 40
0.2553186315
 41
2.4533351225
 42
2.4779866956
  0
ELLIPSE
  5
7C5
100
AcDbEntity
  8
0
100
AcDbEllipse
 62
7
  6
CONTINUOUS
 10
275.1371248123
 20
343.7537806583
 30
0.0
 11
39.0
 21
-0.0
 31
0.0
 40
0.6808512211
 41
2.4345141758
 42
2.4533351225
  0
ELLIPSE
  5
7C6
100
AcDbEntity
  8
0
100
AcDbEllipse
 62
7
  6
CONTINUOUS
 10
275.1371248123
 20
322.1919378708
 30
0.0
 11
-0.0
 21
59.7449016377
 31
0.0
 40
0.6527753654
 41
0.8510010192
 42
0.863717849
  0
ELLIPSE
  5
7C7
100
AcDbEntity
  8
0
100
AcDbEllipse
 62
7
  6
CONTINUOUS
 10
275.1371248123
 20
256.5503440435
 30
0.0
 11
0.0
 21
159.3179144446
 31
0.0
 40
0.2447935635
 41
0.844589193
 42
0.8510010192
  0
ELLIPSE
  5
7C8
100
AcDbEntity
  8
0
100
AcDbEllipse
 62
7
  6
CONTINUOUS
 10
275.1371248123
 20
361.6337858093
 30
0.0
 11
39.0
 21
-0.0
 31
0.0
 40
0.3404254913
 41
2.9130703811
 42
2.9278535586
  0
ELLIPSE
  5
7C9
100
AcDbEntity
  8
0
100
AcDbEllipse
 62
7
  6
CONTINUOUS
 10
275.1371248123
 20
355.6184329574
 30
0.0
 11
0.0
 21
39.8299344251
 31
0.0
 40
0.9791630482
 41
1.3323905356
 42
1.3422740543
  0
ELLIPSE
  5
7CA
100
AcDbEntity
  8
0
100
AcDbEllipse
 62
7
  6
CONTINUOUS
 10
275.1371248123
 20
336.8067743929
 30
0.0
 11
0.0
 21
119.4884358335
 31
0.0
 40
0.3263914179
 41
1.3274398667
 42
1.3323905356
  0
ELLIPSE
  5
7CB
100
AcDbEntity
  8
0
100
AcDbEllipse
 62
7
  6
CONTINUOUS
 10
275.1371248123
 20
394.9654775995
 30
0.0
 11
-0.0
 21
119.4884358335
 31
0.0
 40
0.3263914179
 41
-4.4739831892
 42
-4.4690325203
  0
ELLIPSE
  5
7CC
100
AcDbEntity
  8
0
100
AcDbEllipse
 62
7
  6
CONTINUOUS
 10
275.1371248123
 20
376.1538190349
 30
0.0
 11
-0.0
 21
39.8299344251
 31
0.0
 40
0.9791630482
 41
-4.4838667079
 42
-4.4739831892
  0
ELLIPSE
  5
7CD
100
AcDbEntity
  8
0
100
AcDbEllipse
 62
7
  6
CONTINUOUS
 10
275.1371248123
 20
370.138466183
 30
0.0
 11
39.0
 21
0.0
 31
0.0
 40
0.3404254913
 41
-2.9278535586
 42
-2.9130703811
  0
ELLIPSE
  5
7CE
100
AcDbEntity
  8
0
100
AcDbEllipse
 62
7
  6
CONTINUOUS
 10
275.1371248123
 20
355.5649276535
 30
0.0
 11
-0.0
 21
199.1475046348
 31
0.0
 40
0.195834741
 41
1.5136498248
 42
1.5184647703
  0
ELLIPSE
  5
7CF
100
AcDbEntity
  8
0
100
AcDbEllipse
 62
7
  6
CONTINUOUS
 10
275.1371248123
 20
364.6644213824
 30
0.0
 11
0.0
 21
39.8298204706
 31
0.0
 40
0.9791658496
 41
1.4943758108
 42
1.5136498248
  0
ELLIPSE
  5
7D0
100
AcDbEntity
  8
0
100
AcDbEllipse
 62
7
  6
CONTINUOUS
 10
275.1371248123
 20
366.1848481831
 30
0.0
 11
39.0
 21
-0.0
 31
0.0
 40
0.510638724
 41
3.0495623225
 42
3.0651721376
  0
ELLIPSE
  5
7D1
100
AcDbEntity
  8
0
100
AcDbEllipse
 62
7
  6
CONTINUOUS
 10
275.1371248123
 20
369.7196769813
 30
0.0
 11
0.0
 21
159.3179423394
 31
0.0
 40
0.2447935206
 41
-4.6600574239
 42
-4.6552424784
  0
ELLIPSE
  5
7D2
100
AcDbEntity
  8
0
100
AcDbEllipse
 62
7
  6
CONTINUOUS
 10
275.1371248123
 20
362.8950649515
 30
0.0
 11
-0.0
 21
39.8298239575
 31
0.0
 40
0.9791657639
 41
-4.6552424784
 42
-4.6359684644
  0
ELLIPSE
  5
7D3
100
AcDbEntity
  8
0
100
AcDbEllipse
 62
7
  6
CONTINUOUS
 10
275.1371248123
 20
361.3746380843
 30
0.0
 11
39.0
 21
0.0
 31
0.0
 40
0.510638791
 41
-3.0651721376
 42
-3.0495623225
  0
ELLIPSE
  5
7D4
100
AcDbEntity
  8
0
100
AcDbEllipse
 62
7
  6
CONTINUOUS
 10
275.1371248123
 20
356.5165558953
 30
0.0
 11
0.0
 21
79.6596409413
 31
0.0
 40
0.4895829248
 41
-4.6598006329
 42
-4.650169356
  0
ELLIPSE
  5
7D5
100
AcDbEntity
  8
0
100
AcDbEllipse
 62
7
  6
CONTINUOUS
 10
275.1371248123
 20
358.9931393879
 30
0.0
 11
-0.0
 21
119.4892311302
 31
0.0
 40
0.3263892456
 41
-4.650169356
 42
-4.6453515919
  0
ELLIPSE
  5
7D6
100
AcDbEntity
  8
0
100
AcDbEllipse
 62
7
  6
CONTINUOUS
 10
275.1371248123
 20
364.3293683773
 30
0.0
 11
-0.0
 21
199.1496721255
 31
0.0
 40
0.1958326096
 41
1.6378337153
 42
1.6426530107
  0
ELLIPSE
  5
7D7
100
AcDbEntity
  8
0
100
AcDbEllipse
 62
7
  6
CONTINUOUS
 10
275.1371248123
 20
334.0101136179
 30
0.0
 11
-0.0
 21
199.1497279157
 31
0.0
 40
0.1958325548
 41
1.4989396429
 42
1.5037589383
  0
ELLIPSE
  5
7D8
100
AcDbEntity
  8
0
100
AcDbEllipse
 62
7
  6
CONTINUOUS
 10
275.1371248123
 20
347.1565524676
 30
0.0
 11
38.5
 21
0.0
 31
0.0
 40
0.2042554442
 41
-2.9458648236
 42
-2.920976218
  0
ELLIPSE
  5
7D9
100
AcDbEntity
  8
0
100
AcDbEllipse
 62
7
  6
CONTINUOUS
 10
275.1371248123
 20
350.7250615615
 30
0.0
 11
38.5
 21
-0.0
 31
0.0
 40
0.6808509827
 41
-2.9607382273
 42
-2.9458648236
  0
ELLIPSE
  5
7DA
100
AcDbEntity
  8
0
100
AcDbEllipse
 62
7
  6
CONTINUOUS
 10
275.1371248123
 20
367.2271517389
 30
0.0
 11
-0.0
 21
117.9572352987
 31
0.0
 40
0.3263894741
 41
-4.5364832217
 42
-4.5315345541
  0
ELLIPSE
  5
7DB
100
AcDbEntity
  8
0
100
AcDbEllipse
 62
7
  6
CONTINUOUS
 10
275.1371248123
 20
339.346353819
 30
0.0
 11
0.0
 21
119.4891195505
 31
0.0
 40
0.3263895503
 41
1.5037589383
 42
1.5085767024
  0
ELLIPSE
  5
7DC
100
AcDbEntity
  8
0
100
AcDbEllipse
 62
7
  6
CONTINUOUS
 10
275.1371248123
 20
341.8229295063
 30
0.0
 11
0.0
 21
79.6596548888
 31
0.0
 40
0.4895828391
 41
1.5085767024
 42
1.5182079793
  0
ELLIPSE
  5
7DD
100
AcDbEntity
  8
0
100
AcDbEllipse
 62
7
  6
CONTINUOUS
 10
275.1371248123
 20
343.9165511253
 30
0.0
 11
0.0
 21
39.8297871351
 31
0.0
 40
0.9791666691
 41
1.5182079793
 42
1.5326460384
  0
ELLIPSE
  5
7DE
100
AcDbEntity
  8
0
100
AcDbEllipse
 62
7
  6
CONTINUOUS
 10
275.1371248123
 20
344.5242110448
 30
0.0
 11
39.0
 21
-0.0
 31
0.0
 40
0.6127658212
 41
3.1034423652
 42
3.1274896174
  0
ELLIPSE
  5
7DF
100
AcDbEntity
  8
0
100
AcDbEllipse
 62
7
  6
CONTINUOUS
 10
275.1371248123
 20
356.5816312934
 30
0.0
 11
38.5
 21
0.0
 31
0.0
 40
0.7659602774
 41
2.8849535891
 42
2.9050420528
  0
ELLIPSE
  5
7E0
100
AcDbEntity
  8
0
100
AcDbEllipse
 62
7
  6
CONTINUOUS
 10
275.1371248123
 20
350.7597465004
 30
0.0
 11
0.0
 21
52.4255256653
 31
0.0
 40
0.7343750875
 41
1.3003634826
 42
1.3141572623
  0
ELLIPSE
  5
7E1
100
AcDbEntity
  8
0
100
AcDbEllipse
 62
7
  6
CONTINUOUS
 10
275.1371248123
 20
390.9543365179
 30
0.0
 11
39.0
 21
-0.0
 31
0.0
 40
0.204255139
 41
-2.8191090875
 42
-2.7851161936
  0
ELLIPSE
  5
7E2
100
AcDbEntity
  8
0
100
AcDbEllipse
 62
7
  6
CONTINUOUS
 10
275.1371248123
 20
395.1242174022
 30
0.0
 11
39.0
 21
0.0
 31
0.0
 40
0.510638724
 41
-2.7851161936
 42
-2.7576107365
  0
ELLIPSE
  5
7E3
100
AcDbEntity
  8
0
100
AcDbEllipse
 62
7
  6
CONTINUOUS
 10
275.1371248123
 20
356.3997439296
 30
0.0
 11
39.0
 21
0.0
 31
0.0
 40
0.3404254913
 41
2.2003858552
 42
2.2244847736
  0
ELLIPSE
  5
7E4
100
AcDbEntity
  8
0
100
AcDbEllipse
 62
7
  6
CONTINUOUS
 10
275.1371248123
 20
345.8601702309
 30
0.0
 11
39.0
 21
0.0
 31
0.0
 40
0.6808509827
 41
2.2244847736
 42
2.2478481759
  0
ELLIPSE
  5
7E5
100
AcDbEntity
  8
0
100
AcDbEllipse
 62
7
  6
CONTINUOUS
 10
275.1371248123
 20
273.4242032863
 30
0.0
 11
0.0
 21
119.4885474125
 31
0.0
 40
0.3263911132
 41
0.6770518491
 42
0.6846896109
  0
ELLIPSE
  5
7E6
100
AcDbEntity
  8
0
100
AcDbEllipse
 62
7
  6
CONTINUOUS
 10
275.1371248123
 20
458.1564723999
 30
0.0
 11
-0.0
 21
119.4884358335
 31
0.0
 40
0.3263914179
 41
-3.8262822645
 42
-3.8186445027
  0
ELLIPSE
  5
7E7
100
AcDbEntity
  8
0
100
AcDbEllipse
 62
7
  6
CONTINUOUS
 10
275.1371248123
 20
385.7205924226
 30
0.0
 11
39.0
 21
-0.0
 31
0.0
 40
0.6808509827
 41
-2.2478481759
 42
-2.2244847736
  0
ELLIPSE
  5
7E8
100
AcDbEntity
  8
0
100
AcDbEllipse
 62
7
  6
CONTINUOUS
 10
275.1371248123
 20
375.1810187239
 30
0.0
 11
39.0
 21
-0.0
 31
0.0
 40
0.3404254913
 41
-2.2244847736
 42
-2.2003858552
  0
ELLIPSE
  5
7E9
100
AcDbEntity
  8
0
100
AcDbEllipse
 62
7
  6
CONTINUOUS
 10
275.1371248123
 20
371.1183908908
 30
0.0
 11
39.0
 21
0.0
 31
0.0
 40
0.2042556065
 41
-2.1496041051
 42
-2.1040575146
  0
ELLIPSE
  5
7EA
100
AcDbEntity
  8
0
100
AcDbEllipse
 62
7
  6
CONTINUOUS
 10
275.1371248123
 20
381.4082188266
 30
0.0
 11
39.0
 21
0.0
 31
0.0
 40
0.510637263
 41
-2.1040575146
 42
-2.0649200059
  0
ELLIPSE
  5
7EB
100
AcDbEntity
  8
0
100
AcDbEllipse
 62
7
  6
CONTINUOUS
 10
275.1371248123
 20
398.9411506304
 30
0.0
 11
0.0
 21
39.8299344251
 31
0.0
 40
0.9791630482
 41
-3.6357163327
 42
-3.5935011154
  0
ELLIPSE
  5
7EC
100
AcDbEntity
  8
0
100
AcDbEllipse
 62
7
  6
CONTINUOUS
 10
275.1371248123
 20
434.7719759266
 30
0.0
 11
-0.0
 21
79.6589851171
 31
0.0
 40
0.4895869555
 41
-3.5935011154
 42
-3.5709563887
  0
ELLIPSE
  5
7ED
100
AcDbEntity
  8
0
100
AcDbEllipse
 62
7
  6
CONTINUOUS
 10
275.1371248123
 20
288.9577354416
 30
0.0
 11
-0.0
 21
79.6589711697
 31
0.0
 40
0.4895870412
 41
0.4293637351
 42
0.4519084618
  0
ELLIPSE
  5
7EE
100
AcDbEntity
  8
0
100
AcDbEllipse
 62
7
  6
CONTINUOUS
 10
275.1371248123
 20
324.7885450536
 30
0.0
 11
-0.0
 21
39.829937912
 31
0.0
 40
0.9791629624
 41
0.4519084618
 42
0.4941236791
  0
ELLIPSE
  5
7EF
100
AcDbEntity
  8
0
100
AcDbEllipse
 62
7
  6
CONTINUOUS
 10
275.1371248123
 20
342.3214776249
 30
0.0
 11
39.0
 21
-0.0
 31
0.0
 40
0.5106373301
 41
2.0649200059
 42
2.1040575146
  0
ELLIPSE
  5
7F0
100
AcDbEntity
  8
0
100
AcDbEllipse
 62
7
  6
CONTINUOUS
 10
275.1371248123
 20
352.6113072122
 30
0.0
 11
39.0
 21
0.0
 31
0.0
 40
0.2042556244
 41
2.1040575146
 42
2.1496041051
  0
ELLIPSE
  5
7F1
100
AcDbEntity
  8
0
100
AcDbEllipse
 62
7
  6
CONTINUOUS
 10
275.1371248123
 20
402.5846491596
 30
0.0
 11
-0.0
 21
39.8298204706
 31
0.0
 40
0.9791658496
 41
-4.3284070633
 42
-4.3005923774
  0
ELLIPSE
  5
7F2
100
AcDbEntity
  8
0
100
AcDbEllipse
 62
7
  6
CONTINUOUS
 10
275.1371248123
 20
418.5266979269
 30
0.0
 11
-0.0
 21
79.6594130337
 31
0.0
 40
0.4895843255
 41
-4.3005923774
 42
-4.2865588472
  0
ELLIPSE
  5
7F3
100
AcDbEntity
  8
0
100
AcDbEllipse
 62
7
  6
CONTINUOUS
 10
275.1371248123
 20
376.3562110597
 30
0.0
 11
38.5
 21
-0.0
 31
0.0
 40
0.2042553906
 41
3.1078823335
 42
3.132241868
  0
ELLIPSE
  5
7F4
100
AcDbEntity
  8
0
100
AcDbEllipse
 62
7
  6
CONTINUOUS
 10
275.1371248123
 20
452.6032944527
 30
0.0
 11
-0.0
 21
119.4884358335
 31
0.0
 40
0.3263914179
 41
-3.8487799211
 42
-3.841347593
  0
ELLIPSE
  5
7F5
100
AcDbEntity
  8
0
100
AcDbEllipse
 62
7
  6
CONTINUOUS
 10
275.1371248123
 20
373.9051492617
 30
0.0
 11
38.5
 21
0.0
 31
0.0
 40
0.2042551568
 41
2.7802756378
 42
2.8147663387
  0
ELLIPSE
  5
7F6
100
AcDbEntity
  8
0
100
AcDbEllipse
 62
7
  6
CONTINUOUS
 10
275.1371248123
 20
369.7352677082
 30
0.0
 11
38.5
 21
0.0
 31
0.0
 40
0.510638791
 41
2.7523579011
 42
2.7802756378
  0
ELLIPSE
  5
7F7
100
AcDbEntity
  8
0
100
AcDbEllipse
 62
7
  6
CONTINUOUS
 10
275.1371248123
 20
362.2748356242
 30
0.0
 11
0.0
 21
39.3191851888
 31
0.0
 40
0.9791657639
 41
1.1533203263
 42
1.1815615743
  0
ELLIPSE
  5
7F8
100
AcDbEntity
  8
0
100
AcDbEllipse
 62
7
  6
CONTINUOUS
 10
275.1371248123
 20
346.33278267
 30
0.0
 11
0.0
 21
78.6381522762
 31
0.0
 40
0.4895842398
 41
1.1390675711
 42
1.1533203263
  0
ELLIPSE
  5
7F9
100
AcDbEntity
  8
0
100
AcDbEllipse
 62
7
  6
CONTINUOUS
 10
275.1371248123
 20
296.9741198681
 30
0.0
 11
0.0
 21
196.5964712008
 31
0.0
 40
0.1958326096
 41
1.1319062035
 42
1.1390675711
  0
ELLIPSE
  5
7FA
100
AcDbEntity
  8
0
100
AcDbEllipse
 62
7
  6
CONTINUOUS
 10
275.1371248123
 20
467.8854125815
 30
0.0
 11
-0.0
 21
196.5965813506
 31
0.0
 40
0.1958324999
 41
-4.2806602247
 42
-4.2734988571
  0
ELLIPSE
  5
7FB
100
AcDbEntity
  8
0
100
AcDbEllipse
 62
7
  6
CONTINUOUS
 10
275.1371248123
 20
418.5266979269
 30
0.0
 11
-0.0
 21
78.6381385076
 31
0.0
 40
0.4895843255
 41
-4.2949129798
 42
-4.2806602247
  0
ELLIPSE
  5
7FC
100
AcDbEntity
  8
0
100
AcDbEllipse
 62
7
  6
CONTINUOUS
 10
275.1371248123
 20
402.5846491596
 30
0.0
 11
-0.0
 21
39.3191817467
 31
0.0
 40
0.9791658496
 41
-4.3231542279
 42
-4.2949129798
  0
ELLIPSE
  5
7FD
100
AcDbEntity
  8
0
100
AcDbEllipse
 62
7
  6
CONTINUOUS
 10
275.1371248123
 20
395.1242174022
 30
0.0
 11
38.5
 21
0.0
 31
0.0
 40
0.510638724
 41
-2.7802756378
 42
-2.7523579011
  0
ELLIPSE
  5
7FE
100
AcDbEntity
  8
0
100
AcDbEllipse
 62
7
  6
CONTINUOUS
 10
275.1371248123
 20
390.9543365179
 30
0.0
 11
38.5
 21
0.0
 31
0.0
 40
0.204255139
 41
-2.8147663387
 42
-2.7802756378
  0
ELLIPSE
  5
7FF
100
AcDbEntity
  8
0
100
AcDbEllipse
 62
7
  6
CONTINUOUS
 10
275.1371248123
 20
391.6644288332
 30
0.0
 11
-0.0
 21
39.8297917843
 31
0.0
 40
0.9791665548
 41
-3.841347593
 42
-3.8186445027
  0
ELLIPSE
  5
800
100
AcDbEntity
  8
0
100
AcDbEllipse
 62
7
  6
CONTINUOUS
 10
275.1371248123
 20
368.3812613826
 30
0.0
 11
39.0
 21
-0.0
 31
0.0
 40
0.2553200925
 41
-2.2478481759
 42
-2.2165377424
  0
ELLIPSE
  5
801
100
AcDbEntity
  8
0
100
AcDbEllipse
 62
7
  6
CONTINUOUS
 10
275.1371248123
 20
467.8854125815
 30
0.0
 11
0.0
 21
199.1497837058
 31
0.0
 40
0.1958324999
 41
-4.2865588472
 42
-4.2795086899
  0
ELLIPSE
  5
802
100
AcDbEntity
  8
0
100
AcDbEllipse
 62
7
  6
CONTINUOUS
 10
275.1371248123
 20
366.3706156544
 30
0.0
 11
38.5
 21
0.0
 31
0.0
 40
0.2553200925
 41
3.7664727572
 42
3.7886391037
  0
ELLIPSE
  5
803
100
AcDbEntity
  8
0
100
AcDbEllipse
 62
7
  6
CONTINUOUS
 10
275.1371248123
 20
375.9546411074
 30
0.0
 11
38.5
 21
-0.0
 31
0.0
 40
0.6808512211
 41
-2.5346124916
 42
-2.51671255
  0
ELLIPSE
  5
804
100
AcDbEntity
  8
0
100
AcDbEllipse
 62
7
  6
CONTINUOUS
 10
275.1371248123
 20
394.643739906
 30
0.0
 11
-0.0
 21
58.978266405
 31
0.0
 40
0.6527828359
 41
-4.1172192438
 42
-4.1054088184
  0
ELLIPSE
  5
805
100
AcDbEntity
  8
0
100
AcDbEllipse
 62
7
  6
CONTINUOUS
 10
275.1371248123
 20
449.7559657512
 30
0.0
 11
0.0
 21
157.2789768826
 31
0.0
 40
0.2447879606
 41
-4.1230889446
 42
-4.1172192438
  0
ELLIPSE
  5
806
100
AcDbEntity
  8
0
100
AcDbEllipse
 62
7
  6
CONTINUOUS
 10
275.1371248123
 20
296.9741198681
 30
0.0
 11
0.0
 21
199.1496721255
 31
0.0
 40
0.1958326096
 41
1.1379160363
 42
1.1449661936
  0
ELLIPSE
  5
807
100
AcDbEntity
  8
0
100
AcDbEllipse
 62
7
  6
CONTINUOUS
 10
275.1371248123
 20
346.33278267
 30
0.0
 11
0.0
 21
79.6594269811
 31
0.0
 40
0.4895842398
 41
1.1449661936
 42
1.1589997238
  0
ELLIPSE
  5
808
100
AcDbEntity
  8
0
100
AcDbEllipse
 62
7
  6
CONTINUOUS
 10
275.1371248123
 20
354.3730122644
 30
0.0
 11
38.5
 21
-0.0
 31
0.0
 40
0.2042556244
 41
2.4362278157
 42
2.467791348
  0
ELLIPSE
  5
809
100
AcDbEntity
  8
0
100
AcDbEllipse
 62
7
  6
CONTINUOUS
 10
275.1371248123
 20
346.7257253274
 30
0.0
 11
38.5
 21
0.0
 31
0.0
 40
0.5106373301
 41
2.4103539037
 42
2.4362278157
  0
ELLIPSE
  5
80A
100
AcDbEntity
  8
0
100
AcDbEllipse
 62
7
  6
CONTINUOUS
 10
275.1371248123
 20
333.59724072
 30
0.0
 11
0.0
 21
39.319072696
 31
0.0
 40
0.9791685653
 41
0.8130684322
 42
0.8395575769
  0
ELLIPSE
  5
80B
100
AcDbEntity
  8
0
100
AcDbEllipse
 62
7
  6
CONTINUOUS
 10
275.1371248123
 20
306.573998948
 30
0.0
 11
0.0
 21
78.6386022491
 31
0.0
 40
0.4895814384
 41
0.799572958
 42
0.8130684322
  0
ELLIPSE
  5
80C
100
AcDbEntity
  8
0
100
AcDbEllipse
 62
7
  6
CONTINUOUS
 10
275.1371248123
 20
224.3574005436
 30
0.0
 11
0.0
 21
196.5942213499
 31
0.0
 40
0.1958348508
 41
0.7927584673
 42
0.799572958
  0
ELLIPSE
  5
80D
100
AcDbEntity
  8
0
100
AcDbEllipse
 62
7
  6
CONTINUOUS
 10
275.1371248123
 20
374.9098799863
 30
0.0
 11
39.0
 21
-0.0
 31
0.0
 40
0.2042556065
 41
-2.1583347379
 42
-2.113440699
  0
ELLIPSE
  5
80E
100
AcDbEntity
  8
0
100
AcDbEllipse
 62
7
  6
CONTINUOUS
 10
275.1371248123
 20
473.0925361811
 30
0.0
 11
0.0
 21
117.95653281
 31
0.0
 40
0.3263914179
 41
-3.5890308525
 42
-3.5776389908
  0
ELLIPSE
  5
80F
100
AcDbEntity
  8
0
100
AcDbEllipse
 62
7
  6
CONTINUOUS
 10
275.1371248123
 20
393.6692645541
 30
0.0
 11
39.0
 21
-0.0
 31
0.0
 40
0.7659558946
 41
-2.113440699
 42
-2.0749638635
  0
ELLIPSE
  5
810
100
AcDbEntity
  8
0
100
AcDbEllipse
 62
7
  6
CONTINUOUS
 10
275.1371248123
 20
414.012503506
 30
0.0
 11
-0.0
 21
52.4255256653
 31
0.0
 40
0.7343750875
 41
-3.6216941442
 42
-3.5890308525
  0
ELLIPSE
  5
811
100
AcDbEntity
  8
0
100
AcDbEllipse
 62
7
  6
CONTINUOUS
 10
275.1371248123
 20
414.012503506
 30
0.0
 11
-0.0
 21
53.1063766479
 31
0.0
 40
0.7343750875
 41
-3.6457601903
 42
-3.6150438109
  0
ELLIPSE
  5
812
100
AcDbEntity
  8
0
100
AcDbEllipse
 62
7
  6
CONTINUOUS
 10
275.1371248123
 20
393.6692645541
 30
0.0
 11
38.5
 21
0.0
 31
0.0
 40
0.7659558946
 41
-2.091503675
 42
-2.0508978174
  0
ELLIPSE
  5
813
100
AcDbEntity
  8
0
100
AcDbEllipse
 62
7
  6
CONTINUOUS
 10
275.1371248123
 20
473.0925361811
 30
0.0
 11
-0.0
 21
119.4884358335
 31
0.0
 40
0.3263914179
 41
-3.6150438109
 42
-3.6043886284
  0
ELLIPSE
  5
814
100
AcDbEntity
  8
0
100
AcDbEllipse
 62
7
  6
CONTINUOUS
 10
275.1371248123
 20
374.9098799863
 30
0.0
 11
38.5
 21
0.0
 31
0.0
 40
0.2042556065
 41
-2.1385391338
 42
-2.091503675
  0
ELLIPSE
  5
815
100
AcDbEntity
  8
0
100
AcDbEllipse
 62
7
  6
CONTINUOUS
 10
275.1371248123
 20
224.3574005436
 30
0.0
 11
0.0
 21
199.1473930558
 31
0.0
 40
0.1958348508
 41
0.8053142884
 42
0.8119608042
  0
ELLIPSE
  5
816
100
AcDbEntity
  8
0
100
AcDbEllipse
 62
7
  6
CONTINUOUS
 10
275.1371248123
 20
306.573998948
 30
0.0
 11
0.0
 21
79.6598827977
 31
0.0
 40
0.4895814384
 41
0.8119608042
 42
0.8251298551
  0
ELLIPSE
  5
817
100
AcDbEntity
  8
0
100
AcDbEllipse
 62
7
  6
CONTINUOUS
 10
275.1371248123
 20
362.2748356242
 30
0.0
 11
0.0
 21
39.8298239575
 31
0.0
 40
0.9791657639
 41
1.1589997238
 42
1.1868144097
  0
ELLIPSE
  5
818
100
AcDbEntity
  8
0
100
AcDbEllipse
 62
7
  6
CONTINUOUS
 10
275.1371248123
 20
369.7352677082
 30
0.0
 11
39.0
 21
0.0
 31
0.0
 40
0.510638791
 41
2.7576107365
 42
2.7851161936
  0
ELLIPSE
  5
819
100
AcDbEntity
  8
0
100
AcDbEllipse
 62
7
  6
CONTINUOUS
 10
275.1371248123
 20
333.59724072
 30
0.0
 11
0.0
 21
39.8297100037
 31
0.0
 40
0.9791685653
 41
0.8251298551
 42
0.8510010192
  0
ELLIPSE
  5
81A
100
AcDbEntity
  8
0
100
AcDbEllipse
 62
7
  6
CONTINUOUS
 10
275.1371248123
 20
373.9051492617
 30
0.0
 11
39.0
 21
0.0
 31
0.0
 40
0.2042551568
 41
2.7851161936
 42
2.8191090875
  0
ELLIPSE
  5
81B
100
AcDbEntity
  8
0
100
AcDbEllipse
 62
7
  6
CONTINUOUS
 10
275.1371248123
 20
358.2510621507
 30
0.0
 11
0.0
 21
199.1485325841
 31
0.0
 40
0.1958337302
 41
1.4587672527
 42
1.4652156646
  0
ELLIPSE
  5
81C
100
AcDbEntity
  8
0
100
AcDbEllipse
 62
7
  6
CONTINUOUS
 10
275.1371248123
 20
346.7257253274
 30
0.0
 11
39.0
 21
0.0
 31
0.0
 40
0.5106373301
 41
2.421797346
 42
2.4470944357
  0
ELLIPSE
  5
81D
100
AcDbEntity
  8
0
100
AcDbEllipse
 62
7
  6
CONTINUOUS
 10
275.1371248123
 20
370.8433515693
 30
0.0
 11
-0.0
 21
79.6596548888
 31
0.0
 40
0.4895828391
 41
1.4652156646
 42
1.4780995164
  0
ELLIPSE
  5
81E
100
AcDbEntity
  8
0
100
AcDbEllipse
 62
7
  6
CONTINUOUS
 10
275.1371248123
 20
354.3730122644
 30
0.0
 11
39.0
 21
0.0
 31
0.0
 40
0.2042556244
 41
2.4470944357
 42
2.4779866956
  0
ELLIPSE
  5
81F
100
AcDbEntity
  8
0
100
AcDbEllipse
 62
7
  6
CONTINUOUS
 10
275.1371248123
 20
374.5301698858
 30
0.0
 11
0.0
 21
39.8297669805
 31
0.0
 40
0.9791671646
 41
1.4780995164
 42
1.5038231942
  0
ELLIPSE
  5
820
100
AcDbEntity
  8
0
100
AcDbEllipse
 62
7
  6
CONTINUOUS
 10
275.1371248123
 20
375.8629351072
 30
0.0
 11
39.0
 21
-0.0
 31
0.0
 40
0.5106380606
 41
3.074619521
 42
3.10029888
  0
ELLIPSE
  5
821
100
AcDbEntity
  8
0
100
AcDbEllipse
 62
7
  6
CONTINUOUS
 10
275.1371248123
 20
368.3812613826
 30
0.0
 11
38.5
 21
-0.0
 31
0.0
 40
0.2553200925
 41
4.0516606848
 42
4.0840856637
  0
ELLIPSE
  5
822
100
AcDbEntity
  8
0
100
AcDbEllipse
 62
7
  6
CONTINUOUS
 10
275.1371248123
 20
391.6644288332
 30
0.0
 11
-0.0
 21
39.3191534281
 31
0.0
 40
0.9791665548
 41
-3.8257765718
 42
-3.8023209492
  0
ELLIPSE
  5
823
100
AcDbEntity
  8
0
100
AcDbEllipse
 62
7
  6
CONTINUOUS
 10
275.1371248123
 20
452.6032944527
 30
0.0
 11
0.0
 21
117.95653281
 31
0.0
 40
0.3263914179
 41
-3.8334460504
 42
-3.8257765718
  0
ELLIPSE
  5
824
100
AcDbEntity
  8
0
100
AcDbEllipse
 62
7
  6
CONTINUOUS
 10
275.1371248123
 20
353.571870702
 30
0.0
 11
38.5
 21
-0.0
 31
0.0
 40
0.1702127457
 41
3.141592642
 42
3.1558788585
  0
ELLIPSE
  5
825
100
AcDbEntity
  8
0
100
AcDbEllipse
 62
7
  6
CONTINUOUS
 10
275.1371248123
 20
367.2271517389
 30
0.0
 11
-0.0
 21
119.4891474454
 31
0.0
 40
0.3263894741
 41
-4.5387615167
 42
-4.5338783154
  0
ELLIPSE
  5
826
100
AcDbEntity
  8
0
100
AcDbEllipse
 62
7
  6
CONTINUOUS
 10
275.1371248123
 20
352.6113072122
 30
0.0
 11
38.5
 21
-0.0
 31
0.0
 40
0.2042556244
 41
2.0816291037
 42
2.1294168755
  0
ELLIPSE
  5
827
100
AcDbEntity
  8
0
100
AcDbEllipse
 62
7
  6
CONTINUOUS
 10
275.1371248123
 20
342.3214776249
 30
0.0
 11
38.5
 21
0.0
 31
0.0
 40
0.5106373301
 41
2.0402441646
 42
2.0816291037
  0
ELLIPSE
  5
828
100
AcDbEntity
  8
0
100
AcDbEllipse
 62
7
  6
CONTINUOUS
 10
275.1371248123
 20
324.7885450536
 30
0.0
 11
-0.0
 21
39.3192976823
 31
0.0
 40
0.9791629624
 41
0.4243691502
 42
0.4694478378
  0
ELLIPSE
  5
829
100
AcDbEntity
  8
0
100
AcDbEllipse
 62
7
  6
CONTINUOUS
 10
275.1371248123
 20
288.9577354416
 30
0.0
 11
0.0
 21
78.6377023085
 31
0.0
 40
0.4895870412
 41
0.40005648
 42
0.4243691502
  0
ELLIPSE
  5
82A
100
AcDbEntity
  8
0
100
AcDbEllipse
 62
7
  6
CONTINUOUS
 10
275.1371248123
 20
449.7559657512
 30
0.0
 11
-0.0
 21
159.3215609979
 31
0.0
 40
0.2447879606
 41
-4.1316356872
 42
-4.1258743648
  0
ELLIPSE
  5
82B
100
AcDbEntity
  8
0
100
AcDbEllipse
 62
7
  6
CONTINUOUS
 10
275.1371248123
 20
394.643739906
 30
0.0
 11
-0.0
 21
59.7442179167
 31
0.0
 40
0.6527828359
 41
-4.1258743648
 42
-4.114284573
  0
ELLIPSE
  5
82C
100
AcDbEntity
  8
0
100
AcDbEllipse
 62
7
  6
CONTINUOUS
 10
275.1371248123
 20
375.9546411074
 30
0.0
 11
39.0
 21
0.0
 31
0.0
 40
0.6808512211
 41
-2.5434882462
 42
-2.5259295061
  0
ELLIPSE
  5
82D
100
AcDbEntity
  8
0
100
AcDbEllipse
 62
7
  6
CONTINUOUS
 10
275.1371248123
 20
366.3706156544
 30
0.0
 11
39.0
 21
-0.0
 31
0.0
 40
0.2553200925
 41
-2.5259295061
 42
-2.502171897
  0
ELLIPSE
  5
82E
100
AcDbEntity
  8
0
100
AcDbEllipse
 62
7
  6
CONTINUOUS
 10
275.1371248123
 20
434.7719759266
 30
0.0
 11
0.0
 21
78.6377160771
 31
0.0
 40
0.4895869555
 41
-3.5659618038
 42
-3.5416491336
  0
ELLIPSE
  5
82F
100
AcDbEntity
  8
0
100
AcDbEllipse
 62
7
  6
CONTINUOUS
 10
275.1371248123
 20
398.9411506304
 30
0.0
 11
0.0
 21
39.3192942402
 31
0.0
 40
0.9791630482
 41
-3.6110404914
 42
-3.5659618038
  0
ELLIPSE
  5
830
100
AcDbEntity
  8
0
100
AcDbEllipse
 62
7
  6
CONTINUOUS
 10
275.1371248123
 20
381.4082188266
 30
0.0
 11
38.5
 21
-0.0
 31
0.0
 40
0.510637263
 41
-2.0816291037
 42
-2.0402441646
  0
ELLIPSE
  5
831
100
AcDbEntity
  8
0
100
AcDbEllipse
 62
7
  6
CONTINUOUS
 10
275.1371248123
 20
371.1183908908
 30
0.0
 11
38.5
 21
-0.0
 31
0.0
 40
0.2042556065
 41
-2.1294168755
 42
-2.0816291037
  0
ELLIPSE
  5
832
100
AcDbEntity
  8
0
100
AcDbEllipse
 62
7
  6
CONTINUOUS
 10
275.1371248123
 20
375.1810187239
 30
0.0
 11
38.5
 21
0.0
 31
0.0
 40
0.3404254913
 41
4.0758466798
 42
4.1008514895
  0
ELLIPSE
  5
833
100
AcDbEntity
  8
0
100
AcDbEllipse
 62
7
  6
CONTINUOUS
 10
275.1371248123
 20
385.7205924226
 30
0.0
 11
38.5
 21
-0.0
 31
0.0
 40
0.6808509827
 41
-2.2315246224
 42
-2.2073386274
  0
ELLIPSE
  5
834
100
AcDbEntity
  8
0
100
AcDbEllipse
 62
7
  6
CONTINUOUS
 10
275.1371248123
 20
458.1564723999
 30
0.0
 11
0.0
 21
117.95653281
 31
0.0
 40
0.3263914179
 41
-3.8102167756
 42
-3.8023209492
  0
ELLIPSE
  5
835
100
AcDbEntity
  8
0
100
AcDbEllipse
 62
7
  6
CONTINUOUS
 10
275.1371248123
 20
273.4242032863
 30
0.0
 11
-0.0
 21
117.9566429585
 31
0.0
 40
0.3263911132
 41
0.6607282956
 42
0.668624122
  0
ELLIPSE
  5
836
100
AcDbEntity
  8
0
100
AcDbEllipse
 62
7
  6
CONTINUOUS
 10
275.1371248123
 20
345.8601702309
 30
0.0
 11
38.5
 21
-0.0
 31
0.0
 40
0.6808509827
 41
2.2073386274
 42
2.2315246224
  0
ELLIPSE
  5
837
100
AcDbEntity
  8
0
100
AcDbEllipse
 62
7
  6
CONTINUOUS
 10
275.1371248123
 20
356.3997439296
 30
0.0
 11
38.5
 21
-0.0
 31
0.0
 40
0.3404254913
 41
2.1823338177
 42
2.2073386274
  0
ELLIPSE
  5
838
100
AcDbEntity
  8
0
100
AcDbEllipse
 62
7
  6
CONTINUOUS
 10
275.1371248123
 20
350.7250615615
 30
0.0
 11
39.0
 21
0.0
 31
0.0
 40
0.6808509827
 41
-2.9630819886
 42
-2.9484060597
  0
ELLIPSE
  5
839
100
AcDbEntity
  8
0
100
AcDbEllipse
 62
7
  6
CONTINUOUS
 10
275.1371248123
 20
347.1565524676
 30
0.0
 11
39.0
 21
-0.0
 31
0.0
 40
0.2042554442
 41
-2.9484060597
 42
-2.9238505105
  0
ELLIPSE
  5
83A
100
AcDbEntity
  8
0
100
AcDbEllipse
 62
7
  6
CONTINUOUS
 10
275.1371248123
 20
376.3562110597
 30
0.0
 11
39.0
 21
0.0
 31
0.0
 40
0.2042553906
 41
3.10029888
 42
3.1323617533
  0
ELLIPSE
  5
83B
100
AcDbEntity
  8
0
100
AcDbEllipse
 62
7
  6
CONTINUOUS
 10
275.1371248123
 20
344.7676153072
 30
0.0
 11
38.5
 21
-0.0
 31
0.0
 40
0.1702127606
 41
3.1273064487
 42
3.1415926652
  0
ELLIPSE
  5
83C
100
AcDbEntity
  8
0
100
AcDbEllipse
 62
7
  6
CONTINUOUS
 10
275.1371248123
 20
333.1685032511
 30
0.0
 11
0.0
 21
119.4884358335
 31
0.0
 40
0.3263914179
 41
1.2976030152
 42
1.3025924425
  0
ELLIPSE
  5
83D
100
AcDbEntity
  8
0
100
AcDbEllipse
 62
7
  6
CONTINUOUS
 10
275.1371248123
 20
350.7597465004
 30
0.0
 11
0.0
 21
53.1063766479
 31
0.0
 40
0.7343750875
 41
1.3025924425
 42
1.3175202201
  0
ELLIPSE
  5
83E
100
AcDbEntity
  8
0
100
AcDbEllipse
 62
7
  6
CONTINUOUS
 10
275.1371248123
 20
356.5816312934
 30
0.0
 11
39.0
 21
0.0
 31
0.0
 40
0.7659602774
 41
2.8883165469
 42
2.9081314688
  0
ELLIPSE
  5
83F
100
AcDbEntity
  8
0
100
AcDbEllipse
 62
7
  6
CONTINUOUS
 10
275.1371248123
 20
380.8210161531
 30
0.0
 11
0.0
 21
52.4255256653
 31
0.0
 40
0.7343750875
 41
-4.4557499159
 42
-4.4419561362
  0
ELLIPSE
  5
840
100
AcDbEntity
  8
0
100
AcDbEllipse
 62
7
  6
CONTINUOUS
 10
275.1371248123
 20
374.9991313601
 30
0.0
 11
38.5
 21
0.0
 31
0.0
 40
0.7659602774
 41
-2.9050420528
 42
-2.8849535891
  0
ELLIPSE
  5
841
100
AcDbEntity
  8
0
100
AcDbEllipse
 62
7
  6
CONTINUOUS
 10
275.1371248123
 20
369.9311417269
 30
0.0
 11
38.5
 21
-0.0
 31
0.0
 40
0.2042546715
 41
-2.9300177318
 42
-2.9050420528
  0
ELLIPSE
  5
842
100
AcDbEntity
  8
0
100
AcDbEllipse
 62
7
  6
CONTINUOUS
 10
275.1371248123
 20
344.5242110448
 30
0.0
 11
38.5
 21
-0.0
 31
0.0
 40
0.6127658212
 41
3.1090362279
 42
3.1273064487
  0
ELLIPSE
  5
843
100
AcDbEntity
  8
0
100
AcDbEllipse
 62
7
  6
CONTINUOUS
 10
275.1371248123
 20
361.6496209266
 30
0.0
 11
39.0
 21
0.0
 31
0.0
 40
0.2042546715
 41
2.9081314688
 42
2.9327706326
  0
ELLIPSE
  5
844
100
AcDbEntity
  8
0
100
AcDbEllipse
 62
7
  6
CONTINUOUS
 10
275.1371248123
 20
354.4229347651
 30
0.0
 11
-0.0
 21
39.319144249
 31
0.0
 40
0.9791667834
 41
-4.6737429885
 42
-4.6591170247
  0
ELLIPSE
  5
845
100
AcDbEntity
  8
0
100
AcDbEllipse
 62
7
  6
CONTINUOUS
 10
275.1371248123
 20
353.8152749432
 30
0.0
 11
38.5
 21
0.0
 31
0.0
 40
0.6127657675
 41
-3.1273064487
 42
-3.1029466617
  0
ELLIPSE
  5
846
100
AcDbEntity
  8
0
100
AcDbEllipse
 62
7
  6
CONTINUOUS
 10
275.1371248123
 20
369.9311417269
 30
0.0
 11
39.0
 21
-0.0
 31
0.0
 40
0.2042546715
 41
-2.9327706326
 42
-2.9081314688
  0
ELLIPSE
  5
847
100
AcDbEntity
  8
0
100
AcDbEllipse
 62
7
  6
CONTINUOUS
 10
275.1371248123
 20
374.9991313601
 30
0.0
 11
39.0
 21
-0.0
 31
0.0
 40
0.7659602774
 41
-2.9081314688
 42
-2.8883165469
  0
ELLIPSE
  5
848
100
AcDbEntity
  8
0
100
AcDbEllipse
 62
7
  6
CONTINUOUS
 10
275.1371248123
 20
380.8210161531
 30
0.0
 11
-0.0
 21
53.1063766479
 31
0.0
 40
0.7343750875
 41
-4.4591128737
 42
-4.4441850961
  0
ELLIPSE
  5
849
100
AcDbEntity
  8
0
100
AcDbEllipse
 62
7
  6
CONTINUOUS
 10
275.1371248123
 20
398.4122594024
 30
0.0
 11
-0.0
 21
119.4884358335
 31
0.0
 40
0.3263914179
 41
-4.4441850961
 42
-4.4391956688
  0
ELLIPSE
  5
84A
100
AcDbEntity
  8
0
100
AcDbEllipse
 62
7
  6
CONTINUOUS
 10
275.1371248123
 20
361.6496209266
 30
0.0
 11
38.5
 21
0.0
 31
0.0
 40
0.2042546715
 41
2.9050420528
 42
2.9300177318
  0
ELLIPSE
  5
84B
100
AcDbEntity
  8
0
100
AcDbEllipse
 62
7
  6
CONTINUOUS
 10
275.1371248123
 20
353.8152749432
 30
0.0
 11
39.0
 21
0.0
 31
0.0
 40
0.6127657675
 41
-3.1274896174
 42
-3.1034423652
  0
ELLIPSE
  5
84C
100
AcDbEntity
  8
0
100
AcDbEllipse
 62
7
  6
CONTINUOUS
 10
275.1371248123
 20
354.4229347651
 30
0.0
 11
0.0
 21
39.829782486
 31
0.0
 40
0.9791667834
 41
-4.674238692
 42
-4.6598006329
  0
ENDSEC
  0
SECTION
  2
OBJECTS
  0
DICTIONARY
  5
C
100
AcDbDictionary
280
0
281
1
  3
ACAD_GROUP
350
D
  3
ACAD_MLINESTYLE
350
17
  3
ACAD_LAYOUT
350
1A
  3
ACAD_PLOTSETTINGS
350
19
  3
ACAD_PLOTSTYLENAME
350
E
  0
DICTIONARY
  5
D
102
{ACAD_REACTORS
330
C
102
}
100
AcDbDictionary
280
0
281
1
  0
ACDBDICTIONARYWDFLT
  5
E
102
{ACAD_REACTORS
330
C
102
}
100
AcDbDictionary
281
1
  3
Normal
350
F
100
AcDbDictionaryWithDefault
340
F
  0
DICTIONARY
  5
17
102
{ACAD_REACTORS
330
C
102
}
100
AcDbDictionary
280
0
281
1
  3
Standard
350
18
  0
DICTIONARY
  5
19
102
{ACAD_REACTORS
330
C
102
}
100
AcDbDictionary
281
1
  0
DICTIONARY
  5
1A
102
{ACAD_REACTORS
330
C
102
}
100
AcDbDictionary
281
1
  3
Model
350
84D
  3
Layout1
350
84E
  0
ACDBPLACEHOLDER
  5
F
102
{ACAD_REACTORS
330
E
102
}
  0
MLINESTYLE
  5
18
102
{ACAD_REACTORS
330
17
102
}
100
AcDbMlineStyle
  2
STANDARD
 70
0
  3

 62
256
 51
90.0
 52
90.0
 71
2
 49
0.5
 62
256
  6
BYLAYER
 49
-0.5
 62
256
  6
BYLAYER
  0
LAYOUT
  5
84D
102
{ACAD_REACTORS
330
1A
102
}
100
AcDbPlotSettings
  1

  2
none_device
  4
ISO_A1_(594.00_x_841.00_MM)
  6

 40
0.0
 41
0.0
 42
0.0
 43
0.0
 44
841.0
 45
594.0
 46
0.0
 47
0.0
 48
0.0
 49
0.0
140
0.0
141
0.0
142
1.0
143
1.0
 70
1024
 72
1
 73
0
 74
0
  7

 75
0
147
1.0
148
0.0
149
0.0
100
AcDbLayout
  1
Model
 70
0
 71
0
 10
0.0
 20
0.0
 11
841.0
 21
594.0
 12
0.0
 22
0.0
 32
0.0
 14
0.0
 24
0.0
 34
0.0
 15
0.0
 25
0.0
 35
0.0
146
0.0
 13
0.0
 23
0.0
 33
0.0
 16
1.0
 26
0.0
 36
0.0
 17
0.0
 27
1.0
 37
0.0
 76
0
330
216
345
0
346
0
  0
LAYOUT
  5
84E
102
{ACAD_REACTORS
330
1A
102
}
100
AcDbPlotSettings
  1

  2
none_device
  4
ISO_A1_(594.00_x_841.00_MM)
  6

 40
0.0
 41
0.0
 42
0.0
 43
0.0
 44
841.0
 45
594.0
 46
0.0
 47
0.0
 48
0.0
 49
0.0
140
0.0
141
0.0
142
1.0
143
1.0
 70
0
 72
1
 73
0
 74
0
  7

 75
0
147
1.0
148
0.0
149
0.0
100
AcDbLayout
  1
Layout1
 70
0
 71
1
 10
0.0
 20
0.0
 11
841.0
 21
594.0
 12
0.0
 22
0.0
 32
0.0
 14
0.0
 24
0.0
 34
0.0
 15
0.0
 25
0.0
 35
0.0
146
0.0
 13
0.0
 23
0.0
 33
0.0
 16
1.0
 26
0.0
 36
0.0
 17
0.0
 27
1.0
 37
0.0
 76
0
330
217
345
0
346
0
  0
ENDSEC
  0
EOF
