999
DXF file: 001-m31221-p-20.dxf
999
Pro/ENGINEER 2011490 by Parametric Technology Corporation
  0
SECTION
  2
HEADER
  9
$ACADVER
  1
AC1015
  9
$DWGCODEPAGE
  3
ANSI_1252
  9
$EXTMAX
 10
841.0
 20
594.0
 30
0.0
  9
$EXTMIN
 10
0.0
 20
0.0
 30
0.0
  9
$LIMMIN
 10
0.0
 20
0.0
  9
$LIMMAX
 10
841.0
 20
594.0
  9
$VIEWCTR
 10
420.5
 20
297.0
  9
$VIEWSIZE
 40
594.0
  9
$CLAYER
  8
0
  9
$LTSCALE
 40
46.255
  9
$CELTYPE
  6
BYLAYER
  9
$DIMSCALE
 40
1.0
  9
$DIMASZ
 40
3.5
  9
$DIMEXO
 40
5.25625
  9
$DIMDLI
 40
31.958
  9
$DIMEXE
 40
15.138
  9
$DIMCEN
 40
7.569
  9
$DIMLFAC
 40
1.0
  9
$DIMBLK
  1
_FILLED
  9
$DIMTXT
 40
3.5
  9
$DIMTOL
 70
1
  9
$DIMLIM
 70
0
  9
$DIMTFAC
 40
1.0
  9
$DIMTP
 40
0.005
  9
$DIMTM
 40
0.005
  9
$PDMODE
 70
3
  9
$PDSIZE
 40
0.3125
  9
$HANDSEED
  5
8B3
  9
$TILEMODE
 70
1
  9
$MEASUREMENT
 70
1
  9
$INSUNITS
 70
4
  0
ENDSEC
  0
SECTION
  2
CLASSES
  0
CLASS
  1
ACDBDICTIONARYWDFLT
  2
AcDbDictionaryWithDefault
  3
AutoCAD 2000
 90
0
280
0
281
0
  0
CLASS
  1
ACDBPLACEHOLDER
  2
AcDbPlaceHolder
  3
AutoCAD 2000
 90
0
280
0
281
0
  0
CLASS
  1
LAYOUT
  2
AcDbLayout
  3
AutoCAD 2000
 90
0
280
0
281
0
  0
ENDSEC
  0
SECTION
  2
TABLES
  0
TABLE
  2
VPORT
  5
8
100
AcDbSymbolTable
 70
2
  0
VPORT
  5
1F4
100
AcDbSymbolTableRecord
100
AcDbViewportTableRecord
  2
*ACTIVE
 70
0
 10
0.0
 20
0.0
 11
1.0
 21
1.0
 12
420.5
 22
297.0
 13
0.0
 23
0.0
 14
1.0
 24
1.0
 15
0.0
 25
0.0
 16
0.0
 26
0.0
 36
1.0
 17
0.0
 27
0.0
 37
0.0
 40
594.0
 41
1.4158249158
 42
50.0
 43
0.0
 44
0.0
 50
0.0
 51
0.0
 71
0
 72
100
 73
1
 74
1
 75
0
 76
0
 77
0
 78
0
  0
ENDTAB
  0
TABLE
  2
LTYPE
  5
5
100
AcDbSymbolTable
 70
6
  0
LTYPE
  5
14
100
AcDbSymbolTableRecord
100
AcDbLinetypeTableRecord
  2
BYBLOCK
 70
0
  3

 72
65
 73
0
 40
0.0
  0
LTYPE
  5
15
100
AcDbSymbolTableRecord
100
AcDbLinetypeTableRecord
  2
BYLAYER
 70
0
  3

 72
65
 73
0
 40
0.0
  0
LTYPE
  5
16
100
AcDbSymbolTableRecord
100
AcDbLinetypeTableRecord
  2
CONTINUOUS
 70
64
  3
Solid line
 72
65
 73
0
 40
0.0
  0
LTYPE
  5
1F5
100
AcDbSymbolTableRecord
100
AcDbLinetypeTableRecord
  2
CENTER
 70
64
  3
____ _ ____ _ ____ _ ____ _ ____ _ ____ _ ____
 72
65
 73
4
 40
0.6
 49
0.375
 74
0
 49
-0.075
 74
0
 49
0.075
 74
0
 49
-0.075
 74
0
  0
LTYPE
  5
1F6
100
AcDbSymbolTableRecord
100
AcDbLinetypeTableRecord
  2
HIDDEN
 70
64
  3
- - - - - - - - - - - - - - - - - - - -
 72
65
 73
2
 40
0.2
 49
0.1
 74
0
 49
-0.1
 74
0
  0
LTYPE
  5
1F7
100
AcDbSymbolTableRecord
100
AcDbLinetypeTableRecord
  2
PHANTOM
 70
64
  3
_____ _ _ _____ _ _ _____ _ _ _____
 72
65
 73
6
 40
0.8
 49
0.45
 74
0
 49
-0.05
 74
0
 49
0.1
 74
0
 49
-0.05
 74
0
 49
0.1
 74
0
 49
-0.05
 74
0
  0
LTYPE
  5
1F8
100
AcDbSymbolTableRecord
100
AcDbLinetypeTableRecord
  2
DOT
 70
64
  3
. . . . . . . . . . . . . . . . . . . .
 72
65
 73
2
 40
0.2
 49
0.1
 74
0
 49
-0.1
 74
0
  0
LTYPE
  5
1F9
100
AcDbSymbolTableRecord
100
AcDbLinetypeTableRecord
  2
DASHED
 70
64
  3
- - - - - - - - - - - - - - - - - - - -
 72
65
 73
2
 40
0.2
 49
0.1
 74
0
 49
-0.1
 74
0
  0
ENDTAB
  0
TABLE
  2
LAYER
  5
2
100
AcDbSymbolTable
 70
36
  0
LAYER
  5
10
100
AcDbSymbolTableRecord
100
AcDbLayerTableRecord
  2
0
 70
0
 62
7
  6
CONTINUOUS
370
-3
390
F
  0
LAYER
  5
1FA
100
AcDbSymbolTableRecord
100
AcDbLayerTableRecord
  2
DEFAULT_1
 70
0
 62
7
  6
CENTER
370
-3
390
F
  0
LAYER
  5
1FB
100
AcDbSymbolTableRecord
100
AcDbLayerTableRecord
  2
DEFAULT_2
 70
0
 62
8
  6
HIDDEN
370
-3
390
F
  0
LAYER
  5
1FC
100
AcDbSymbolTableRecord
100
AcDbLayerTableRecord
  2
DEFAULT_3
 70
0
 62
7
  6
PHANTOM
370
-3
390
F
  0
LAYER
  5
1FD
100
AcDbSymbolTableRecord
100
AcDbLayerTableRecord
  2
AUSFORMSCHRAEGEN
 70
0
 62
7
  6
CONTINUOUS
370
-3
390
F
  0
LAYER
  5
1FE
100
AcDbSymbolTableRecord
100
AcDbLayerTableRecord
  2
BEZUGSACHSEN
 70
0
 62
7
  6
CONTINUOUS
370
-3
390
F
  0
LAYER
  5
1FF
100
AcDbSymbolTableRecord
100
AcDbLayerTableRecord
  2
BEZUGSEBENEN
 70
0
 62
7
  6
CONTINUOUS
370
-3
390
F
  0
LAYER
  5
200
100
AcDbSymbolTableRecord
100
AcDbLayerTableRecord
  2
BG_STARTBEZUEGE
 70
0
 62
7
  6
CONTINUOUS
370
-3
390
F
  0
LAYER
  5
201
100
AcDbSymbolTableRecord
100
AcDbLayerTableRecord
  2
FASEN
 70
0
 62
7
  6
CONTINUOUS
370
-3
390
F
  0
LAYER
  5
202
100
AcDbSymbolTableRecord
100
AcDbLayerTableRecord
  2
FLAECHEN
 70
0
 62
7
  6
CONTINUOUS
370
-3
390
F
  0
LAYER
  5
203
100
AcDbSymbolTableRecord
100
AcDbLayerTableRecord
  2
GEWINDE
 70
0
 62
7
  6
CONTINUOUS
370
-3
390
F
  0
LAYER
  5
204
100
AcDbSymbolTableRecord
100
AcDbLayerTableRecord
  2
HILFEN
 70
0
 62
7
  6
CONTINUOUS
370
-3
390
F
  0
LAYER
  5
205
100
AcDbSymbolTableRecord
100
AcDbLayerTableRecord
  2
KONSTRUKTIONSELEMENTE
 70
0
 62
7
  6
CONTINUOUS
370
-3
390
F
  0
LAYER
  5
206
100
AcDbSymbolTableRecord
100
AcDbLayerTableRecord
  2
KURVEN
 70
0
 62
7
  6
CONTINUOUS
370
-3
390
F
  0
LAYER
  5
207
100
AcDbSymbolTableRecord
100
AcDbLayerTableRecord
  2
PLATZIERUNG
 70
0
 62
7
  6
CONTINUOUS
370
-3
390
F
  0
LAYER
  5
208
100
AcDbSymbolTableRecord
100
AcDbLayerTableRecord
  2
PLAZIERUNG
 70
0
 62
7
  6
CONTINUOUS
370
-3
390
F
  0
LAYER
  5
209
100
AcDbSymbolTableRecord
100
AcDbLayerTableRecord
  2
RUNDUNGEN
 70
0
 62
7
  6
CONTINUOUS
370
-3
390
F
  0
LAYER
  5
20A
100
AcDbSymbolTableRecord
100
AcDbLayerTableRecord
  2
TEIL_STARTBEZUEGE
 70
0
 62
7
  6
CONTINUOUS
370
-3
390
F
  0
LAYER
  5
20B
100
AcDbSymbolTableRecord
100
AcDbLayerTableRecord
  2
ZEICHNUNGSBEMASSUNGEN
 70
0
 62
7
  6
CONTINUOUS
370
-3
390
F
  0
ENDTAB
  0
TABLE
  2
STYLE
  5
3
100
AcDbSymbolTable
 70
1
  0
STYLE
  5
11
100
AcDbSymbolTableRecord
100
AcDbTextStyleTableRecord
  2
STANDARD
 70
0
 40
0.0
 41
0.7
 50
0.0
 71
0
 42
0.2
  3
txt
  4

  0
STYLE
  5
20C
100
AcDbSymbolTableRecord
100
AcDbTextStyleTableRecord
  2
TEXTSTYLE_1
 70
0
 40
0.0
 41
0.8
 50
0.0
 71
0
 42
0.2
  3
gdt
  4

  0
ENDTAB
  0
TABLE
  2
VIEW
  5
6
100
AcDbSymbolTable
 70
0
  0
ENDTAB
  0
TABLE
  2
UCS
  5
7
100
AcDbSymbolTable
 70
0
  0
ENDTAB
  0
TABLE
  2
APPID
  5
9
100
AcDbSymbolTable
 70
1
  0
APPID
  5
20D
100
AcDbSymbolTableRecord
100
AcDbRegAppTableRecord
  2
ACAD
 70
0
  0
ENDTAB
  0
TABLE
  2
BLOCK_RECORD
  5
1
100
AcDbSymbolTable
 70
0
  0
BLOCK_RECORD
  5
20E
100
AcDbSymbolTableRecord
100
AcDbBlockTableRecord
  2
*Model_Space
  0
BLOCK_RECORD
  5
20F
100
AcDbSymbolTableRecord
100
AcDbBlockTableRecord
  2
*Paper_Space
  0
ENDTAB
  0
TABLE
  2
DIMSTYLE
  5
A
100
AcDbSymbolTable
 70
1
100
AcDbDimStyleTable
 71
0
  0
DIMSTYLE
105
210
100
AcDbSymbolTableRecord
100
AcDbDimStyleTableRecord
  2
STANDARD
 70
0
  3

  4

 40
1.0
 41
3.5
 42
0.0625
 43
0.38
 44
0.18
 45
0.0
 46
0.0
 47
0.005
 48
0.005
140
3.5
141
0.09
142
0.0
143
25.4
144
1.0
145
0.0
146
1.0
147
0.09
 71
1.0
 72
0.0
 73
0
 74
0
 75
0
 76
0
 77
1
 78
8
170
0
171
2
172
0
173
0
174
0
175
0
176
0
177
0
178
5
270
2
271
3
272
3
273
2
274
2
275
0
280
0
281
0
282
0
283
1
284
8
285
0
286
0
287
3
288
0
340
11
  0
ENDTAB
  0
ENDSEC
  0
SECTION
  2
BLOCKS
  0
BLOCK
  5
20
100
AcDbEntity
  8
0
100
AcDbBlockBegin
  2
*Model_Space
 70
0
 10
0.0
 20
0.0
 30
0.0
  3
*Model_Space
  1

  0
ENDBLK
  5
21
100
AcDbEntity
  8
0
100
AcDbBlockEnd
  0
BLOCK
  5
1C
100
AcDbEntity
  8
0
100
AcDbBlockBegin
  2
*Paper_Space
 70
0
 10
0.0
 20
0.0
 30
0.0
  3
*Paper_Space
  1

  0
ENDBLK
  5
1D
100
AcDbEntity
  8
0
100
AcDbBlockEnd
  0
ENDSEC
  0
SECTION
  2
ENTITIES
  0
MTEXT
  5
211
100
AcDbEntity
  8
0
100
AcDbMText
 62
5
  6
CONTINUOUS
  7
STANDARD
 71
1
 72
1
 10
360.545755597
 20
360.2288546109
 30
0.0
 11
0.0
 21
1.0
 31
0.0
 44
0.9
  1
RUD VLBG-PLUS 8t
 40
9.0
 41
111.2142857143
  0
MTEXT
  5
212
100
AcDbEntity
  8
0
100
AcDbMText
 62
5
  6
CONTINUOUS
  7
STANDARD
 71
1
 72
1
 10
359.154750287
 20
83.7058418625
 30
0.0
 11
0.0
 21
1.0
 31
0.0
 44
0.9
  1
RUD VLBG-PLUS 8t
 40
9.0
 41
111.2142857143
  0
LINE
  5
213
100
AcDbEntity
  8
0
100
AcDbLine
 62
7
  6
CONTINUOUS
 10
0.0
 20
0.0
 11
0.0
 21
594.0
  0
LINE
  5
214
100
AcDbEntity
  8
0
100
AcDbLine
 62
7
  6
CONTINUOUS
 10
0.0
 20
0.0
 11
841.0
 21
0.0
  0
LINE
  5
215
100
AcDbEntity
  8
0
100
AcDbLine
 62
7
  6
CONTINUOUS
 10
0.0
 20
594.0
 11
841.0
 21
594.0
  0
LINE
  5
216
100
AcDbEntity
  8
0
100
AcDbLine
 62
7
  6
CONTINUOUS
 10
841.0
 20
0.0
 11
841.0
 21
594.0
  0
LINE
  5
217
100
AcDbEntity
  8
BEZUGSACHSEN
100
AcDbLine
 62
7
  6
CONTINUOUS
 10
304.145386165
 20
259.0883983003
 11
335.145386165
 21
259.0883983003
  0
LINE
  5
218
100
AcDbEntity
  8
BEZUGSACHSEN
100
AcDbLine
 62
7
  6
CONTINUOUS
 10
301.645386165
 20
261.5883983003
 11
337.645386165
 21
261.5883983003
  0
LINE
  5
219
100
AcDbEntity
  8
BEZUGSACHSEN
100
AcDbLine
 62
7
  6
CONTINUOUS
 10
301.645386165
 20
261.5883983003
 11
304.145386165
 21
259.0883983003
  0
LINE
  5
21A
100
AcDbEntity
  8
0
100
AcDbLine
 62
7
  6
CONTINUOUS
 10
354.645386165
 20
322.0883983003
 11
284.645386165
 21
322.0883983003
  0
LINE
  5
21B
100
AcDbEntity
  8
0
100
AcDbLine
 62
7
  6
CONTINUOUS
 10
354.645386165
 20
330.3383983003
 11
284.645386165
 21
330.3383983003
  0
LINE
  5
21C
100
AcDbEntity
  8
RUNDUNGEN
100
AcDbLine
 62
7
  6
CONTINUOUS
 10
282.145386165
 20
330.5883983003
 11
362.645386165
 21
330.5883983003
  0
LINE
  5
21D
100
AcDbEntity
  8
0
100
AcDbLine
 62
7
  6
CONTINUOUS
 10
277.3176222784
 20
338.7483983003
 11
277.8871132852
 21
338.7483983003
  0
LINE
  5
21E
100
AcDbEntity
  8
0
100
AcDbLine
 62
7
  6
CONTINUOUS
 10
277.2442968455
 20
338.9292493584
 11
277.2806209528
 21
338.9292493584
  0
LINE
  5
21F
100
AcDbEntity
  8
0
100
AcDbLine
 62
7
  6
CONTINUOUS
 10
277.3839950167
 20
339.4718025327
 11
277.8871132852
 21
339.4718025327
  0
LINE
  5
220
100
AcDbEntity
  8
0
100
AcDbLine
 62
7
  6
CONTINUOUS
 10
277.2958128939
 20
339.6526536383
 11
277.7977742009
 21
339.6526536383
  0
LINE
  5
221
100
AcDbEntity
  8
0
100
AcDbLine
 62
7
  6
CONTINUOUS
 10
277.2526737283
 20
340.0143557229
 11
277.7540709924
 21
340.0143557229
  0
LINE
  5
222
100
AcDbEntity
  8
0
100
AcDbLine
 62
7
  6
CONTINUOUS
 10
277.1690771362
 20
340.0143557229
 11
277.1925225191
 21
340.0143557229
  0
LINE
  5
223
100
AcDbEntity
  8
0
100
AcDbLine
 62
7
  6
CONTINUOUS
 10
277.2399166146
 20
340.5569089763
 11
277.7411473243
 21
340.5569089763
  0
LINE
  5
224
100
AcDbEntity
  8
0
100
AcDbLine
 62
7
  6
CONTINUOUS
 10
277.1583373539
 20
340.9186110609
 11
277.1882661998
 21
340.9186110609
  0
LINE
  5
225
100
AcDbEntity
  8
0
100
AcDbLine
 62
7
  6
CONTINUOUS
 10
277.1583373539
 20
341.4611641877
 11
277.1882661998
 21
341.4611641877
  0
LINE
  5
226
100
AcDbEntity
  8
0
100
AcDbLine
 62
7
  6
CONTINUOUS
 10
277.1690771362
 20
342.3654196524
 11
277.1882661998
 21
342.3654196524
  0
LINE
  5
227
100
AcDbEntity
  8
0
100
AcDbLine
 62
7
  6
CONTINUOUS
 10
277.1475589125
 20
343.8122279905
 11
277.1882661998
 21
343.8122279905
  0
LINE
  5
228
100
AcDbEntity
  8
0
100
AcDbLine
 62
7
  6
CONTINUOUS
 10
277.2399166146
 20
343.8122279905
 11
277.9286507336
 21
343.8122279905
  0
LINE
  5
229
100
AcDbEntity
  8
0
100
AcDbLine
 62
7
  6
CONTINUOUS
 10
277.1475589125
 20
344.5356321596
 11
277.1882661998
 21
344.5356321596
  0
LINE
  5
22A
100
AcDbEntity
  8
0
100
AcDbLine
 62
7
  6
CONTINUOUS
 10
277.2399166146
 20
344.5356321596
 11
277.9286507336
 21
344.5356321596
  0
LINE
  5
22B
100
AcDbEntity
  8
0
100
AcDbLine
 62
7
  6
CONTINUOUS
 10
277.1633046481
 20
345.0781852864
 11
277.1882661998
 21
345.0781852864
  0
LINE
  5
22C
100
AcDbEntity
  8
0
100
AcDbLine
 62
7
  6
CONTINUOUS
 10
277.145386165
 20
357.5128662722
 11
277.145386165
 21
358.4171217369
  0
LINE
  5
22D
100
AcDbEntity
  8
0
100
AcDbLine
 62
7
  6
CONTINUOUS
 10
277.145386165
 20
370.1883983003
 11
277.145386165
 21
371.592653616
  0
LINE
  5
22E
100
AcDbEntity
  8
0
100
AcDbLine
 62
7
  6
CONTINUOUS
 10
277.1475589125
 20
343.8122279905
 11
277.1475589125
 21
344.5356321596
  0
LINE
  5
22F
100
AcDbEntity
  8
0
100
AcDbLine
 62
7
  6
CONTINUOUS
 10
277.1583373539
 20
340.9186110609
 11
277.1583373539
 21
341.4611641877
  0
LINE
  5
230
100
AcDbEntity
  8
0
100
AcDbLine
 62
7
  6
CONTINUOUS
 10
277.1633046481
 20
344.5356321596
 11
277.1633046481
 21
345.0781852864
  0
LINE
  5
231
100
AcDbEntity
  8
0
100
AcDbLine
 62
7
  6
CONTINUOUS
 10
277.177505882
 20
357.5128662722
 11
277.177505882
 21
358.4171217369
  0
LINE
  5
232
100
AcDbEntity
  8
0
100
AcDbLine
 62
7
  6
CONTINUOUS
 10
277.1882661998
 20
340.1952067651
 11
277.1882661998
 21
343.8122279905
  0
LINE
  5
233
100
AcDbEntity
  8
0
100
AcDbLine
 62
7
  6
CONTINUOUS
 10
277.1882661998
 20
344.5356321596
 11
277.1882661998
 21
345.9824410044
  0
LINE
  5
234
100
AcDbEntity
  8
0
100
AcDbLine
 62
7
  6
CONTINUOUS
 10
277.2140556969
 20
356.4277600186
 11
277.2140556969
 21
357.5128662722
  0
LINE
  5
235
100
AcDbEntity
  8
0
100
AcDbLine
 62
7
  6
CONTINUOUS
 10
277.2140556969
 20
358.4171217369
 11
277.2140556969
 21
359.140525906
  0
LINE
  5
236
100
AcDbEntity
  8
0
100
AcDbLine
 62
7
  6
CONTINUOUS
 10
277.2317044516
 20
373.9330790328
 11
277.2317044516
 21
381.1883983003
  0
LINE
  5
237
100
AcDbEntity
  8
0
100
AcDbLine
 62
7
  6
CONTINUOUS
 10
277.2399166146
 20
340.5569089763
 11
277.2399166146
 21
343.8122279905
  0
LINE
  5
238
100
AcDbEntity
  8
0
100
AcDbLine
 62
7
  6
CONTINUOUS
 10
277.2399166146
 20
344.5356321596
 11
277.2399166146
 21
345.9824410044
  0
LINE
  5
239
100
AcDbEntity
  8
0
100
AcDbLine
 62
7
  6
CONTINUOUS
 10
277.2538538431
 20
373.9330790328
 11
277.2538538431
 21
381.1883983003
  0
LINE
  5
23A
100
AcDbEntity
  8
0
100
AcDbLine
 62
7
  6
CONTINUOUS
 10
277.2608775863
 20
354.4383983003
 11
277.2608775863
 21
362.9383983003
  0
LINE
  5
23B
100
AcDbEntity
  8
0
100
AcDbLine
 62
7
  6
CONTINUOUS
 10
277.3574643998
 20
354.4383983003
 11
277.3574643998
 21
358.2362706946
  0
LINE
  5
23C
100
AcDbEntity
  8
0
100
AcDbLine
 62
7
  6
CONTINUOUS
 10
277.3574643998
 20
359.3213769482
 11
277.3574643998
 21
362.0341430889
  0
LINE
  5
23D
100
AcDbEntity
  8
0
100
AcDbLine
 62
7
  6
CONTINUOUS
 10
277.3811329565
 20
373.9330790328
 11
277.3811329565
 21
381.1883983003
  0
LINE
  5
23E
100
AcDbEntity
  8
0
100
AcDbLine
 62
7
  6
CONTINUOUS
 10
277.3839950167
 20
338.7483983003
 11
277.3839950167
 21
339.4718025327
  0
LINE
  5
23F
100
AcDbEntity
  8
0
100
AcDbLine
 62
7
  6
CONTINUOUS
 10
277.4249927394
 20
343.8122279905
 11
277.4249927394
 21
344.5356321596
  0
LINE
  5
240
100
AcDbEntity
  8
0
100
AcDbLine
 62
7
  6
CONTINUOUS
 10
277.6277697408
 20
370.1883983003
 11
277.6277697408
 21
381.1883983003
  0
LINE
  5
241
100
AcDbEntity
  8
0
100
AcDbLine
 62
7
  6
CONTINUOUS
 10
277.645386165
 20
335.0883983003
 11
277.645386165
 21
338.7483983003
  0
LINE
  5
242
100
AcDbEntity
  8
0
100
AcDbLine
 62
7
  6
CONTINUOUS
 10
277.645386165
 20
345.9824410044
 11
277.645386165
 21
354.4383983003
  0
LINE
  5
243
100
AcDbEntity
  8
0
100
AcDbLine
 62
7
  6
CONTINUOUS
 10
277.645386165
 20
362.9383983003
 11
277.645386165
 21
370.1883983003
  0
LINE
  5
244
100
AcDbEntity
  8
0
100
AcDbLine
 62
7
  6
CONTINUOUS
 10
277.645386165
 20
381.1883983003
 11
277.645386165
 21
386.0883983003
  0
LINE
  5
245
100
AcDbEntity
  8
0
100
AcDbLine
 62
7
  6
CONTINUOUS
 10
277.7411473243
 20
340.5569089763
 11
277.7411473243
 21
343.8122279905
  0
LINE
  5
246
100
AcDbEntity
  8
0
100
AcDbLine
 62
7
  6
CONTINUOUS
 10
277.7411473243
 20
344.5356321596
 11
277.7411473243
 21
345.9824410044
  0
LINE
  5
247
100
AcDbEntity
  8
0
100
AcDbLine
 62
7
  6
CONTINUOUS
 10
277.8602340187
 20
354.4383983003
 11
277.8602340187
 21
358.2362706946
  0
LINE
  5
248
100
AcDbEntity
  8
0
100
AcDbLine
 62
7
  6
CONTINUOUS
 10
277.8602340187
 20
359.3213769482
 11
277.8602340187
 21
362.0341430889
  0
LINE
  5
249
100
AcDbEntity
  8
0
100
AcDbLine
 62
7
  6
CONTINUOUS
 10
277.8713754005
 20
371.592653616
 11
277.8713754005
 21
379.7841431486
  0
LINE
  5
24A
100
AcDbEntity
  8
0
100
AcDbLine
 62
7
  6
CONTINUOUS
 10
277.8871132852
 20
338.7483983003
 11
277.8871132852
 21
339.4718025327
  0
LINE
  5
24B
100
AcDbEntity
  8
0
100
AcDbLine
 62
7
  6
CONTINUOUS
 10
277.9286507336
 20
343.8122279905
 11
277.9286507336
 21
344.5356321596
  0
LINE
  5
24C
100
AcDbEntity
  8
0
100
AcDbLine
 62
7
  6
CONTINUOUS
 10
278.0804269054
 20
360.4064832019
 11
278.0804269054
 21
360.9490368353
  0
LINE
  5
24D
100
AcDbEntity
  8
0
100
AcDbLine
 62
7
  6
CONTINUOUS
 10
278.3330386653
 20
360.2256321596
 11
278.3330386653
 21
360.9490368353
  0
LINE
  5
24E
100
AcDbEntity
  8
0
100
AcDbLine
 62
7
  6
CONTINUOUS
 10
278.3809862625
 20
371.592653616
 11
278.3809862625
 21
379.7841431486
  0
LINE
  5
24F
100
AcDbEntity
  8
0
100
AcDbLine
 62
7
  6
CONTINUOUS
 10
278.7193947469
 20
354.4383983003
 11
278.7193947469
 21
362.9383983003
  0
LINE
  5
250
100
AcDbEntity
  8
0
100
AcDbLine
 62
7
  6
CONTINUOUS
 10
279.0472850366
 20
355.5235046806
 11
279.0472850366
 21
362.9383983003
  0
LINE
  5
251
100
AcDbEntity
  8
0
100
AcDbLine
 62
7
  6
CONTINUOUS
 10
279.57327784
 20
355.5235046806
 11
279.57327784
 21
362.9383983003
  0
LINE
  5
252
100
AcDbEntity
  8
0
100
AcDbLine
 62
7
  6
CONTINUOUS
 10
279.7090767123
 20
373.9330790328
 11
279.7090767123
 21
377.44371724
  0
LINE
  5
253
100
AcDbEntity
  8
0
100
AcDbLine
 62
7
  6
CONTINUOUS
 10
280.2640443477
 20
373.9330790328
 11
280.2640443477
 21
377.44371724
  0
LINE
  5
254
100
AcDbEntity
  8
0
100
AcDbLine
 62
7
  6
CONTINUOUS
 10
280.8081439041
 20
373.9330790328
 11
280.8081439041
 21
377.44371724
  0
LINE
  5
255
100
AcDbEntity
  8
0
100
AcDbLine
 62
7
  6
CONTINUOUS
 10
281.2136915546
 20
354.4383983003
 11
281.2136915546
 21
355.5235046806
  0
LINE
  5
256
100
AcDbEntity
  8
0
100
AcDbLine
 62
7
  6
CONTINUOUS
 10
281.7728202388
 20
354.4383983003
 11
281.7728202388
 21
355.5235046806
  0
LINE
  5
257
100
AcDbEntity
  8
0
100
AcDbLine
 62
7
  6
CONTINUOUS
 10
281.9536037828
 20
357.3320152299
 11
281.9536037828
 21
362.9383983003
  0
LINE
  5
258
100
AcDbEntity
  8
0
100
AcDbLine
 62
7
  6
CONTINUOUS
 10
282.5584101361
 20
357.3320152299
 11
282.5584101361
 21
362.9383983003
  0
LWPOLYLINE
  5
259
100
AcDbEntity
  8
0
100
AcDbPolyline
 62
7
  6
CONTINUOUS
 90
5
 70
0
 10
363.9845768529
 20
346.8386123339
 10
364.6918007042
 20
346.8628651197
 10
365.7068405442
 20
346.9685107489
 10
366.722956817
 20
347.1602661058
 10
367.729727362
 20
347.4387586636
  0
LINE
  5
25A
100
AcDbEntity
  8
0
100
AcDbLine
 62
7
  6
CONTINUOUS
 10
277.1882661998
 20
345.9824410044
 11
277.7411473243
 21
345.9824410044
  0
LINE
  5
25B
100
AcDbEntity
  8
0
100
AcDbLine
 62
7
  6
CONTINUOUS
 10
277.2002267257
 20
346.5249941312
 11
277.645386165
 21
346.5249941312
  0
LINE
  5
25C
100
AcDbEntity
  8
0
100
AcDbLine
 62
7
  6
CONTINUOUS
 10
362.4385033227
 20
346.8383983003
 11
363.9845768529
 21
346.8386123339
  0
LINE
  5
25D
100
AcDbEntity
  8
0
100
AcDbLine
 62
7
  6
CONTINUOUS
 10
277.2573381019
 20
347.067547258
 11
277.645386165
 21
347.067547258
  0
LINE
  5
25E
100
AcDbEntity
  8
0
100
AcDbLine
 62
7
  6
CONTINUOUS
 10
277.3347278793
 20
347.2483983003
 11
277.645386165
 21
347.2483983003
  0
LINE
  5
25F
100
AcDbEntity
  8
0
100
AcDbLine
 62
7
  6
CONTINUOUS
 10
277.2608775863
 20
354.4383983003
 11
277.8602340187
 21
354.4383983003
  0
LINE
  5
260
100
AcDbEntity
  8
0
100
AcDbLine
 62
7
  6
CONTINUOUS
 10
278.7193947469
 20
354.4383983003
 11
281.7728202388
 21
354.4383983003
  0
LINE
  5
261
100
AcDbEntity
  8
0
100
AcDbLine
 62
7
  6
CONTINUOUS
 10
283.6685327434
 20
354.4383983003
 11
284.7622019984
 21
354.4383983003
  0
LINE
  5
262
100
AcDbEntity
  8
0
100
AcDbLine
 62
7
  6
CONTINUOUS
 10
290.1024411203
 20
354.4383983003
 11
292.5821725849
 21
354.4383983003
  0
LINE
  5
263
100
AcDbEntity
  8
0
100
AcDbLine
 62
7
  6
CONTINUOUS
 10
284.7865189734
 20
354.6192493584
 11
285.4105760706
 21
354.6192493584
  0
LINE
  5
264
100
AcDbEntity
  8
0
100
AcDbLine
 62
7
  6
CONTINUOUS
 10
292.9231028201
 20
354.6192493584
 11
293.7729825447
 21
354.6192493584
  0
LINE
  5
265
100
AcDbEntity
  8
0
100
AcDbLine
 62
7
  6
CONTINUOUS
 10
285.3228461172
 20
354.9809514904
 11
285.9579885461
 21
354.9809514904
  0
LINE
  5
266
100
AcDbEntity
  8
0
100
AcDbLine
 62
7
  6
CONTINUOUS
 10
293.910618059
 20
354.9809514904
 11
294.7997797616
 21
354.9809514904
  0
LINE
  5
267
100
AcDbEntity
  8
0
100
AcDbLine
 62
7
  6
CONTINUOUS
 10
279.0472850366
 20
355.5235046806
 11
281.7728202388
 21
355.5235046806
  0
LINE
  5
268
100
AcDbEntity
  8
0
100
AcDbLine
 62
7
  6
CONTINUOUS
 10
283.6685327434
 20
355.5235046806
 11
284.1507889893
 21
355.5235046806
  0
LINE
  5
269
100
AcDbEntity
  8
0
100
AcDbLine
 62
7
  6
CONTINUOUS
 10
290.1024411203
 20
355.5235046806
 11
291.7737831356
 21
355.5235046806
  0
LINE
  5
26A
100
AcDbEntity
  8
0
100
AcDbLine
 62
7
  6
CONTINUOUS
 10
277.2249824998
 20
355.7043557229
 11
277.2608775863
 21
355.7043557229
  0
LINE
  5
26B
100
AcDbEntity
  8
0
100
AcDbLine
 62
7
  6
CONTINUOUS
 10
283.2085660003
 20
355.7043557229
 11
283.8021624147
 21
355.7043557229
  0
LINE
  5
26C
100
AcDbEntity
  8
0
100
AcDbLine
 62
7
  6
CONTINUOUS
 10
285.8852486503
 20
355.7043557229
 11
286.5324511128
 21
355.7043557229
  0
LINE
  5
26D
100
AcDbEntity
  8
0
100
AcDbLine
 62
7
  6
CONTINUOUS
 10
289.3338304636
 20
355.7043557229
 11
290.0664766953
 21
355.7043557229
  0
LINE
  5
26E
100
AcDbEntity
  8
0
100
AcDbLine
 62
7
  6
CONTINUOUS
 10
294.9677524178
 20
355.7043557229
 11
295.9032970651
 21
355.7043557229
  0
LINE
  5
26F
100
AcDbEntity
  8
0
100
AcDbLine
 62
7
  6
CONTINUOUS
 10
282.8776575496
 20
356.0660579341
 11
283.4652428479
 21
356.0660579341
  0
LINE
  5
270
100
AcDbEntity
  8
0
100
AcDbLine
 62
7
  6
CONTINUOUS
 10
288.7835604301
 20
356.2469089763
 11
289.5010714329
 21
356.2469089763
  0
LINE
  5
271
100
AcDbEntity
  8
KONSTRUKTIONSELEMENTE
100
AcDbLine
 62
7
  6
CONTINUOUS
 10
362.4385033227
 20
346.8383983003
 11
362.3061954771
 21
346.8386123339
  0
LINE
  5
272
100
AcDbEntity
  8
0
100
AcDbLine
 62
7
  6
CONTINUOUS
 10
283.1403114224
 20
357.3320152299
 11
283.1403114224
 21
362.9383983003
  0
LINE
  5
273
100
AcDbEntity
  8
0
100
AcDbLine
 62
7
  6
CONTINUOUS
 10
284.645386165
 20
399.0883983003
 11
284.645386165
 21
390.8383983003
  0
LINE
  5
274
100
AcDbEntity
  8
0
100
AcDbLine
 62
7
  6
CONTINUOUS
 10
284.645386165
 20
330.3383983003
 11
284.645386165
 21
322.0883983003
  0
LINE
  5
275
100
AcDbEntity
  8
0
100
AcDbLine
 62
7
  6
CONTINUOUS
 10
285.4609481068
 20
357.3320152299
 11
285.4609481068
 21
362.9383983003
  0
LINE
  5
276
100
AcDbEntity
  8
0
100
AcDbLine
 62
7
  6
CONTINUOUS
 10
286.3250465837
 20
357.3320152299
 11
286.3250465837
 21
362.9383983003
  0
LINE
  5
277
100
AcDbEntity
  8
0
100
AcDbLine
 62
7
  6
CONTINUOUS
 10
286.9820075414
 20
357.3320152299
 11
286.9820075414
 21
362.9383983003
  0
LINE
  5
278
100
AcDbEntity
  8
BEZUGSACHSEN
100
AcDbLine
 62
7
  6
CONTINUOUS
 10
287.8911213596
 20
399.5883983003
 11
287.8911213596
 21
419.1321973697
  0
LINE
  5
279
100
AcDbEntity
  8
0
100
AcDbLine
 62
7
  6
CONTINUOUS
 10
288.0822752585
 20
360.2256321596
 11
288.0822752585
 21
360.9490368353
  0
LINE
  5
27A
100
AcDbEntity
  8
0
100
AcDbLine
 62
7
  6
CONTINUOUS
 10
289.1479978654
 20
360.4064832019
 11
289.1479978654
 21
360.7681852864
  0
LINE
  5
27B
100
AcDbEntity
  8
0
100
AcDbLine
 62
7
  6
CONTINUOUS
 10
289.8754608701
 20
360.4064832019
 11
289.8754608701
 21
360.7681852864
  0
LINE
  5
27C
100
AcDbEntity
  8
0
100
AcDbLine
 62
7
  6
CONTINUOUS
 10
277.2140556969
 20
356.4277600186
 11
277.2608775863
 21
356.4277600186
  0
LINE
  5
27D
100
AcDbEntity
  8
0
100
AcDbLine
 62
7
  6
CONTINUOUS
 10
286.1766825936
 20
356.4277600186
 11
286.8303184736
 21
356.4277600186
  0
LINE
  5
27E
100
AcDbEntity
  8
0
100
AcDbLine
 62
7
  6
CONTINUOUS
 10
295.5257539478
 20
356.4277600186
 11
296.4878371628
 21
356.4277600186
  0
LINE
  5
27F
100
AcDbEntity
  8
0
100
AcDbLine
 62
7
  6
CONTINUOUS
 10
282.6635494968
 20
356.6086110609
 11
283.2473104359
 21
356.6086110609
  0
LINE
  5
280
100
AcDbEntity
  8
0
100
AcDbLine
 62
7
  6
CONTINUOUS
 10
287.5791276869
 20
356.7894621031
 11
289.317586946
 21
356.7894621031
  0
LINE
  5
281
100
AcDbEntity
  8
0
100
AcDbLine
 62
7
  6
CONTINUOUS
 10
282.5584101361
 20
357.3320152299
 11
283.1403114224
 21
357.3320152299
  0
LINE
  5
282
100
AcDbEntity
  8
0
100
AcDbLine
 62
7
  6
CONTINUOUS
 10
286.3250465837
 20
357.3320152299
 11
286.9820075414
 21
357.3320152299
  0
LINE
  5
283
100
AcDbEntity
  8
0
100
AcDbLine
 62
7
  6
CONTINUOUS
 10
295.5257539478
 20
357.3320152299
 11
296.4878371628
 21
357.3320152299
  0
LINE
  5
284
100
AcDbEntity
  8
0
100
AcDbLine
 62
7
  6
CONTINUOUS
 10
277.1453861901
 20
357.5128662722
 11
277.2608775863
 21
357.5128662722
  0
LINE
  5
285
100
AcDbEntity
  8
0
100
AcDbLine
 62
7
  6
CONTINUOUS
 10
294.9677524178
 20
358.0554196524
 11
295.9032970651
 21
358.0554196524
  0
LINE
  5
286
100
AcDbEntity
  8
0
100
AcDbLine
 62
7
  6
CONTINUOUS
 10
277.3574643998
 20
358.2362706946
 11
278.3340174748
 21
358.2362706946
  0
LINE
  5
287
100
AcDbEntity
  8
0
100
AcDbLine
 62
7
  6
CONTINUOUS
 10
290.5027228297
 20
358.2362706946
 11
291.7737831356
 21
358.2362706946
  0
LINE
  5
288
100
AcDbEntity
  8
0
100
AcDbLine
 62
7
  6
CONTINUOUS
 10
277.1453861901
 20
358.4171217369
 11
277.2608775863
 21
358.4171217369
  0
LINE
  5
289
100
AcDbEntity
  8
0
100
AcDbLine
 62
7
  6
CONTINUOUS
 10
278.0031715988
 20
358.4171217369
 11
278.5145672527
 21
358.4171217369
  0
LINE
  5
28A
100
AcDbEntity
  8
0
100
AcDbLine
 62
7
  6
CONTINUOUS
 10
293.910618059
 20
358.7788238214
 11
294.7997797616
 21
358.7788238214
  0
LINE
  5
28B
100
AcDbEntity
  8
0
100
AcDbLine
 62
7
  6
CONTINUOUS
 10
278.1611414217
 20
358.9596748637
 11
278.6746929673
 21
358.9596748637
  0
LINE
  5
28C
100
AcDbEntity
  8
0
100
AcDbLine
 62
7
  6
CONTINUOUS
 10
277.2140556969
 20
359.140525906
 11
277.2608775863
 21
359.140525906
  0
LINE
  5
28D
100
AcDbEntity
  8
0
100
AcDbLine
 62
7
  6
CONTINUOUS
 10
292.9231028201
 20
359.140525906
 11
293.7729825447
 21
359.140525906
  0
LINE
  5
28E
100
AcDbEntity
  8
0
100
AcDbLine
 62
7
  6
CONTINUOUS
 10
277.3574643998
 20
359.3213769482
 11
277.8589550054
 21
359.3213769482
  0
LINE
  5
28F
100
AcDbEntity
  8
0
100
AcDbLine
 62
7
  6
CONTINUOUS
 10
290.5027228297
 20
359.3213769482
 11
292.5821725849
 21
359.3213769482
  0
LINE
  5
290
100
AcDbEntity
  8
0
100
AcDbLine
 62
7
  6
CONTINUOUS
 10
289.9063869922
 20
359.5022279905
 11
290.6554846824
 21
359.5022279905
  0
LINE
  5
291
100
AcDbEntity
  8
0
100
AcDbLine
 62
7
  6
CONTINUOUS
 10
278.2887483767
 20
359.6830790328
 11
278.7193947469
 21
359.6830790328
  0
LINE
  5
292
100
AcDbEntity
  8
0
100
AcDbLine
 62
7
  6
CONTINUOUS
 10
289.3338304636
 20
359.8639300751
 11
290.0664766953
 21
359.8639300751
  0
LINE
  5
293
100
AcDbEntity
  8
0
100
AcDbLine
 62
7
  6
CONTINUOUS
 10
278.3330386653
 20
360.2256321596
 11
278.7193947469
 21
360.2256321596
  0
LINE
  5
294
100
AcDbEntity
  8
0
100
AcDbLine
 62
7
  6
CONTINUOUS
 10
289.1479978654
 20
360.4064832019
 11
289.8754608701
 21
360.4064832019
  0
LINE
  5
295
100
AcDbEntity
  8
0
100
AcDbLine
 62
7
  6
CONTINUOUS
 10
277.2140556969
 20
360.7681852864
 11
277.2608775863
 21
360.7681852864
  0
LINE
  5
296
100
AcDbEntity
  8
0
100
AcDbLine
 62
7
  6
CONTINUOUS
 10
289.1479978654
 20
360.7681852864
 11
289.8754608701
 21
360.7681852864
  0
LINE
  5
297
100
AcDbEntity
  8
0
100
AcDbLine
 62
7
  6
CONTINUOUS
 10
278.3330386653
 20
360.9490368353
 11
278.7193947469
 21
360.9490368353
  0
LINE
  5
298
100
AcDbEntity
  8
0
100
AcDbLine
 62
7
  6
CONTINUOUS
 10
293.1639572926
 20
360.9490368353
 11
295.6195658571
 21
360.9490368353
  0
LINE
  5
299
100
AcDbEntity
  8
0
100
AcDbLine
 62
7
  6
CONTINUOUS
 10
289.3338304636
 20
361.3107389199
 11
290.0664766953
 21
361.3107389199
  0
LINE
  5
29A
100
AcDbEntity
  8
0
100
AcDbLine
 62
7
  6
CONTINUOUS
 10
278.2887483767
 20
361.4915899621
 11
278.7193947469
 21
361.4915899621
  0
LINE
  5
29B
100
AcDbEntity
  8
0
100
AcDbLine
 62
7
  6
CONTINUOUS
 10
294.4298623399
 20
361.4915899621
 11
295.341204494
 21
361.4915899621
  0
LINE
  5
29C
100
AcDbEntity
  8
0
100
AcDbLine
 62
7
  6
CONTINUOUS
 10
277.2249824998
 20
361.6724410044
 11
277.2608775863
 21
361.6724410044
  0
LINE
  5
29D
100
AcDbEntity
  8
0
100
AcDbLine
 62
7
  6
CONTINUOUS
 10
289.9063869922
 20
361.6724410044
 11
290.6554846824
 21
361.6724410044
  0
LINE
  5
29E
100
AcDbEntity
  8
0
100
AcDbLine
 62
7
  6
CONTINUOUS
 10
290.5027228297
 20
361.8532920467
 11
291.7737831356
 21
361.8532920467
  0
LINE
  5
29F
100
AcDbEntity
  8
0
100
AcDbLine
 62
7
  6
CONTINUOUS
 10
277.3574643998
 20
362.0341430889
 11
277.8589550054
 21
362.0341430889
  0
LINE
  5
2A0
100
AcDbEntity
  8
0
100
AcDbLine
 62
7
  6
CONTINUOUS
 10
278.1611414217
 20
362.2149941312
 11
278.6746929673
 21
362.2149941312
  0
LINE
  5
2A1
100
AcDbEntity
  8
0
100
AcDbLine
 62
7
  6
CONTINUOUS
 10
293.6575797816
 20
362.2149941312
 11
294.5363270477
 21
362.2149941312
  0
LINE
  5
2A2
100
AcDbEntity
  8
0
100
AcDbLine
 62
7
  6
CONTINUOUS
 10
278.0031715988
 20
362.757547258
 11
278.5145672527
 21
362.757547258
  0
LINE
  5
2A3
100
AcDbEntity
  8
0
100
AcDbLine
 62
7
  6
CONTINUOUS
 10
292.6860576045
 20
362.757547258
 11
293.5270286537
 21
362.757547258
  0
LINE
  5
2A4
100
AcDbEntity
  8
0
100
AcDbLine
 62
7
  6
CONTINUOUS
 10
277.2608775863
 20
362.9383983003
 11
278.3340174748
 21
362.9383983003
  0
LINE
  5
2A5
100
AcDbEntity
  8
0
100
AcDbLine
 62
7
  6
CONTINUOUS
 10
278.7193947469
 20
362.9383983003
 11
279.57327784
 21
362.9383983003
  0
LINE
  5
2A6
100
AcDbEntity
  8
0
100
AcDbLine
 62
7
  6
CONTINUOUS
 10
281.9536037828
 20
362.9383983003
 11
283.1403114224
 21
362.9383983003
  0
LINE
  5
2A7
100
AcDbEntity
  8
0
100
AcDbLine
 62
7
  6
CONTINUOUS
 10
285.4609481068
 20
362.9383983003
 11
286.9820075414
 21
362.9383983003
  0
LINE
  5
2A8
100
AcDbEntity
  8
0
100
AcDbLine
 62
7
  6
CONTINUOUS
 10
290.5027228297
 20
362.9383983003
 11
292.3551129425
 21
362.9383983003
  0
LWPOLYLINE
  5
2A9
100
AcDbEntity
  8
0
100
AcDbPolyline
 62
7
  6
CONTINUOUS
 90
3
 70
0
 10
357.5744693745
 20
347.8034421598
 10
358.561044968
 20
347.4387586636
 10
358.6596819149
 20
347.4114737418
  0
LINE
  5
2AA
100
AcDbEntity
  8
0
100
AcDbLine
 62
7
  6
CONTINUOUS
 10
356.6167425049
 20
348.2527257023
 11
357.5744693745
 21
347.8034421598
  0
LINE
  5
2AB
100
AcDbEntity
  8
0
100
AcDbLine
 62
7
  6
CONTINUOUS
 10
293.910618059
 20
356.6086110609
 11
293.910618059
 21
357.1511641877
  0
LINE
  5
2AC
100
AcDbEntity
  8
KONSTRUKTIONSELEMENTE
100
AcDbLine
 62
7
  6
CONTINUOUS
 10
294.095386165
 20
399.0883983003
 11
294.095386165
 21
399.5883983003
  0
LINE
  5
2AD
100
AcDbEntity
  8
BEZUGSACHSEN
100
AcDbLine
 62
7
  6
CONTINUOUS
 10
294.095386165
 20
399.0883983003
 11
294.095386165
 21
399.5883983003
  0
LINE
  5
2AE
100
AcDbEntity
  8
0
100
AcDbLine
 62
7
  6
CONTINUOUS
 10
294.145386165
 20
390.8383983003
 11
294.145386165
 21
390.5883983003
  0
LINE
  5
2AF
100
AcDbEntity
  8
0
100
AcDbLine
 62
7
  6
CONTINUOUS
 10
294.145386165
 20
330.5883983003
 11
294.145386165
 21
330.3383983003
  0
LINE
  5
2B0
100
AcDbEntity
  8
0
100
AcDbLine
 62
7
  6
CONTINUOUS
 10
295.5257539478
 20
356.4277600186
 11
295.5257539478
 21
357.3320152299
  0
LINE
  5
2B1
100
AcDbEntity
  8
0
100
AcDbLine
 62
7
  6
CONTINUOUS
 10
296.4878371628
 20
356.4277600186
 11
296.4878371628
 21
357.3320152299
  0
LINE
  5
2B2
100
AcDbEntity
  8
BEZUGSACHSEN
100
AcDbLine
 62
7
  6
CONTINUOUS
 10
301.645386165
 20
322.0883983003
 11
301.645386165
 21
261.5883983003
  0
LINE
  5
2B3
100
AcDbEntity
  8
BEZUGSACHSEN
100
AcDbLine
 62
7
  6
CONTINUOUS
 10
303.7682537623
 20
399.5883983003
 11
303.7682537623
 21
419.1321973697
  0
LINE
  5
2B4
100
AcDbEntity
  8
BEZUGSACHSEN
100
AcDbLine
 62
7
  6
CONTINUOUS
 10
287.8911213596
 20
419.1321973697
 11
292.145386165
 21
421.5883983003
  0
LINE
  5
2B5
100
AcDbEntity
  8
0
100
AcDbLine
 62
7
  6
CONTINUOUS
 10
277.150235505
 20
370.1883983003
 11
279.4392317083
 21
370.1883983003
  0
LINE
  5
2B6
100
AcDbEntity
  8
0
100
AcDbLine
 62
7
  6
CONTINUOUS
 10
277.1851568598
 20
370.4224408461
 11
277.6277697408
 21
370.4224408461
  0
LINE
  5
2B7
100
AcDbEntity
  8
0
100
AcDbLine
 62
7
  6
CONTINUOUS
 10
279.292148718
 20
370.4224408461
 11
279.8216871473
 21
370.4224408461
  0
LINE
  5
2B8
100
AcDbEntity
  8
0
100
AcDbLine
 62
7
  6
CONTINUOUS
 10
277.2374050589
 20
370.8905259581
 11
277.6277697408
 21
370.8905259581
  0
LINE
  5
2B9
100
AcDbEntity
  8
0
100
AcDbLine
 62
7
  6
CONTINUOUS
 10
279.6224345626
 20
370.8905259581
 11
280.156832516
 21
370.8905259581
  0
LINE
  5
2BA
100
AcDbEntity
  8
0
100
AcDbLine
 62
7
  6
CONTINUOUS
 10
277.1453860932
 20
371.592653616
 11
277.1502350558
 21
371.592653616
  0
LINE
  5
2BB
100
AcDbEntity
  8
0
100
AcDbLine
 62
7
  6
CONTINUOUS
 10
277.8713754005
 20
371.592653616
 11
278.9151326741
 21
371.592653616
  0
LINE
  5
2BC
100
AcDbEntity
  8
0
100
AcDbLine
 62
7
  6
CONTINUOUS
 10
277.3113551763
 20
371.8266961413
 11
277.6277697408
 21
371.8266961413
  0
LINE
  5
2BD
100
AcDbEntity
  8
0
100
AcDbLine
 62
7
  6
CONTINUOUS
 10
279.9789607843
 20
371.8266961413
 11
280.5187062071
 21
371.8266961413
  0
LINE
  5
2BE
100
AcDbEntity
  8
0
100
AcDbLine
 62
7
  6
CONTINUOUS
 10
277.3565057513
 20
372.7628664063
 11
277.6277697408
 21
372.7628664063
  0
LINE
  5
2BF
100
AcDbEntity
  8
0
100
AcDbLine
 62
7
  6
CONTINUOUS
 10
280.1673061197
 20
372.7628664063
 11
280.7099202622
 21
372.7628664063
  0
LINE
  5
2C0
100
AcDbEntity
  8
0
100
AcDbLine
 62
7
  6
CONTINUOUS
 10
277.217109631
 20
372.9969089316
 11
277.2374050589
 21
372.9969089316
  0
LINE
  5
2C1
100
AcDbEntity
  8
0
100
AcDbLine
 62
7
  6
CONTINUOUS
 10
277.2317044516
 20
373.9330790328
 11
277.2538538431
 21
373.9330790328
  0
LINE
  5
2C2
100
AcDbEntity
  8
0
100
AcDbLine
 62
7
  6
CONTINUOUS
 10
277.3811329565
 20
373.9330790328
 11
277.6277697408
 21
373.9330790328
  0
LINE
  5
2C3
100
AcDbEntity
  8
0
100
AcDbLine
 62
7
  6
CONTINUOUS
 10
280.2640443477
 20
373.9330790328
 11
280.8081439041
 21
373.9330790328
  0
LINE
  5
2C4
100
AcDbEntity
  8
0
100
AcDbLine
 62
7
  6
CONTINUOUS
 10
280.2640443477
 20
377.44371724
 11
280.8081439041
 21
377.44371724
  0
LINE
  5
2C5
100
AcDbEntity
  8
RUNDUNGEN
100
AcDbLine
 62
7
  6
CONTINUOUS
 10
350.4794611933
 20
535.731406474
 11
350.6578179078
 21
536.2520919835
  0
LINE
  5
2C6
100
AcDbEntity
  8
0
100
AcDbLine
 62
7
  6
CONTINUOUS
 10
280.1673061197
 20
378.6139305221
 11
280.7099202622
 21
378.6139305221
  0
LINE
  5
2C7
100
AcDbEntity
  8
0
100
AcDbLine
 62
7
  6
CONTINUOUS
 10
279.9789607843
 20
379.5501006233
 11
280.5187062071
 21
379.5501006233
  0
LINE
  5
2C8
100
AcDbEntity
  8
0
100
AcDbLine
 62
7
  6
CONTINUOUS
 10
277.8713754005
 20
379.7841431486
 11
278.9151326741
 21
379.7841431486
  0
LINE
  5
2C9
100
AcDbEntity
  8
0
100
AcDbLine
 62
7
  6
CONTINUOUS
 10
279.6224345626
 20
380.4862707244
 11
280.156832516
 21
380.4862707244
  0
LINE
  5
2CA
100
AcDbEntity
  8
0
100
AcDbLine
 62
7
  6
CONTINUOUS
 10
279.292148718
 20
380.954355775
 11
279.8216871473
 21
380.954355775
  0
LINE
  5
2CB
100
AcDbEntity
  8
0
100
AcDbLine
 62
7
  6
CONTINUOUS
 10
277.2317044516
 20
381.1883983003
 11
279.4392317083
 21
381.1883983003
  0
LINE
  5
2CC
100
AcDbEntity
  8
KONSTRUKTIONSELEMENTE
100
AcDbLine
 62
7
  6
CONTINUOUS
 10
319.6554652533
 20
421.5883983003
 11
319.6554652533
 21
421.7883983003
  0
LINE
  5
2CD
100
AcDbEntity
  8
KONSTRUKTIONSELEMENTE
100
AcDbLine
 62
7
  6
CONTINUOUS
 10
320.2756897299
 20
421.5883983003
 11
320.2756897299
 21
421.7883983003
  0
LINE
  5
2CE
100
AcDbEntity
  8
KONSTRUKTIONSELEMENTE
100
AcDbLine
 62
7
  6
CONTINUOUS
 10
320.5513319518
 20
421.5883983003
 11
320.5513319518
 21
421.7883983003
  0
LINE
  5
2CF
100
AcDbEntity
  8
KONSTRUKTIONSELEMENTE
100
AcDbLine
 62
7
  6
CONTINUOUS
 10
322.3086345863
 20
421.5883983003
 11
322.3086345863
 21
421.7883983003
  0
LINE
  5
2D0
100
AcDbEntity
  8
KONSTRUKTIONSELEMENTE
100
AcDbLine
 62
7
  6
CONTINUOUS
 10
322.8599582839
 20
421.5883983003
 11
322.8599582839
 21
421.7883983003
  0
LINE
  5
2D1
100
AcDbEntity
  8
KONSTRUKTIONSELEMENTE
100
AcDbLine
 62
7
  6
CONTINUOUS
 10
323.5835537038
 20
421.5883983003
 11
323.5835537038
 21
421.7883983003
  0
LINE
  5
2D2
100
AcDbEntity
  8
KONSTRUKTIONSELEMENTE
100
AcDbLine
 62
7
  6
CONTINUOUS
 10
323.7574608816
 20
421.5883983003
 11
323.7574608816
 21
421.7883983003
  0
LINE
  5
2D3
100
AcDbEntity
  8
KONSTRUKTIONSELEMENTE
100
AcDbLine
 62
7
  6
CONTINUOUS
 10
323.9002089842
 20
421.5883983003
 11
323.9002089842
 21
421.7883983003
  0
LINE
  5
2D4
100
AcDbEntity
  8
KONSTRUKTIONSELEMENTE
100
AcDbLine
 62
7
  6
CONTINUOUS
 10
323.9527122943
 20
421.5883983003
 11
323.9527122943
 21
421.7883983003
  0
LINE
  5
2D5
100
AcDbEntity
  8
KONSTRUKTIONSELEMENTE
100
AcDbLine
 62
7
  6
CONTINUOUS
 10
324.9750951673
 20
421.5883983003
 11
324.9750951673
 21
421.7883983003
  0
LINE
  5
2D6
100
AcDbEntity
  8
KONSTRUKTIONSELEMENTE
100
AcDbLine
 62
7
  6
CONTINUOUS
 10
324.9933852561
 20
421.5883983003
 11
324.9933852561
 21
421.7883983003
  0
LINE
  5
2D7
100
AcDbEntity
  8
KONSTRUKTIONSELEMENTE
100
AcDbLine
 62
7
  6
CONTINUOUS
 10
325.2021838776
 20
421.5883983003
 11
325.2021838776
 21
421.7883983003
  0
LINE
  5
2D8
100
AcDbEntity
  8
KONSTRUKTIONSELEMENTE
100
AcDbLine
 62
7
  6
CONTINUOUS
 10
325.4970925199
 20
421.5883983003
 11
325.4970925199
 21
421.7883983003
  0
LINE
  5
2D9
100
AcDbEntity
  8
0
100
AcDbLine
 62
7
  6
CONTINUOUS
 10
350.1555138139
 20
534.4265371591
 11
350.0721154423
 21
534.0259613487
  0
LWPOLYLINE
  5
2DA
100
AcDbEntity
  8
KONSTRUKTIONSELEMENTE
100
AcDbPolyline
 62
7
  6
CONTINUOUS
 90
5
 70
0
 10
350.4782052214
 20
535.7314480954
 10
350.2807008205
 20
535.0272335701
 10
350.0722445902
 20
534.0269787294
 10
349.9438346222
 20
533.0154110181
 10
349.8958323451
 20
531.9985290892
  0
LINE
  5
2DB
100
AcDbEntity
  8
RUNDUNGEN
100
AcDbLine
 62
7
  6
CONTINUOUS
 10
353.145386165
 20
390.5883983003
 11
282.145386165
 21
390.5883983003
  0
LINE
  5
2DC
100
AcDbEntity
  8
0
100
AcDbLine
 62
7
  6
CONTINUOUS
 10
353.145386165
 20
390.8383983003
 11
284.645386165
 21
390.8383983003
  0
LINE
  5
2DD
100
AcDbEntity
  8
KONSTRUKTIONSELEMENTE
100
AcDbLine
 62
7
  6
CONTINUOUS
 10
325.9303100284
 20
421.5883983003
 11
325.9303100284
 21
421.7883983003
  0
LINE
  5
2DE
100
AcDbEntity
  8
KONSTRUKTIONSELEMENTE
100
AcDbLine
 62
7
  6
CONTINUOUS
 10
326.3113281539
 20
421.5883983003
 11
326.3113281539
 21
421.7883983003
  0
LINE
  5
2DF
100
AcDbEntity
  8
KONSTRUKTIONSELEMENTE
100
AcDbLine
 62
7
  6
CONTINUOUS
 10
326.8306551419
 20
421.5883983003
 11
326.8306551419
 21
421.7883983003
  0
LINE
  5
2E0
100
AcDbEntity
  8
KONSTRUKTIONSELEMENTE
100
AcDbLine
 62
7
  6
CONTINUOUS
 10
327.2977827507
 20
421.5883983003
 11
327.2977827507
 21
421.7883983003
  0
LINE
  5
2E1
100
AcDbEntity
  8
KONSTRUKTIONSELEMENTE
100
AcDbLine
 62
7
  6
CONTINUOUS
 10
327.8510198352
 20
421.5883983003
 11
327.8510198352
 21
421.7883983003
  0
LINE
  5
2E2
100
AcDbEntity
  8
KONSTRUKTIONSELEMENTE
100
AcDbLine
 62
7
  6
CONTINUOUS
 10
328.2137475995
 20
421.5883983003
 11
328.2137475995
 21
421.7883983003
  0
LINE
  5
2E3
100
AcDbEntity
  8
KONSTRUKTIONSELEMENTE
100
AcDbLine
 62
7
  6
CONTINUOUS
 10
328.5242759471
 20
421.5883983003
 11
328.5242759471
 21
421.7883983003
  0
LINE
  5
2E4
100
AcDbEntity
  8
KONSTRUKTIONSELEMENTE
100
AcDbLine
 62
7
  6
CONTINUOUS
 10
328.5775564741
 20
421.5883983003
 11
328.5775564741
 21
421.7883983003
  0
LINE
  5
2E5
100
AcDbEntity
  8
KONSTRUKTIONSELEMENTE
100
AcDbLine
 62
7
  6
CONTINUOUS
 10
330.4634102879
 20
421.5883983003
 11
330.4634102879
 21
421.7883983003
  0
LINE
  5
2E6
100
AcDbEntity
  8
KONSTRUKTIONSELEMENTE
100
AcDbLine
 62
7
  6
CONTINUOUS
 10
330.9261353273
 20
421.5883983003
 11
330.9261353273
 21
421.7883983003
  0
LINE
  5
2E7
100
AcDbEntity
  8
KONSTRUKTIONSELEMENTE
100
AcDbLine
 62
7
  6
CONTINUOUS
 10
331.3801210595
 20
421.5883983003
 11
331.3801210595
 21
421.7883983003
  0
LINE
  5
2E8
100
AcDbEntity
  8
KONSTRUKTIONSELEMENTE
100
AcDbLine
 62
7
  6
CONTINUOUS
 10
331.9737838423
 20
421.5883983003
 11
331.9737838423
 21
421.7883983003
  0
LINE
  5
2E9
100
AcDbEntity
  8
KONSTRUKTIONSELEMENTE
100
AcDbLine
 62
7
  6
CONTINUOUS
 10
332.4102927646
 20
421.5883983003
 11
332.4102927646
 21
421.7883983003
  0
LINE
  5
2EA
100
AcDbEntity
  8
KONSTRUKTIONSELEMENTE
100
AcDbLine
 62
7
  6
CONTINUOUS
 10
332.8380623185
 20
421.5883983003
 11
332.8380623185
 21
421.7883983003
  0
LINE
  5
2EB
100
AcDbEntity
  8
KONSTRUKTIONSELEMENTE
100
AcDbLine
 62
7
  6
CONTINUOUS
 10
333.8856402506
 20
421.5883983003
 11
333.8856402506
 21
421.7883983003
  0
LINE
  5
2EC
100
AcDbEntity
  8
KONSTRUKTIONSELEMENTE
100
AcDbLine
 62
7
  6
CONTINUOUS
 10
334.0963998786
 20
421.5883983003
 11
334.0963998786
 21
421.7883983003
  0
LINE
  5
2ED
100
AcDbEntity
  8
KONSTRUKTIONSELEMENTE
100
AcDbLine
 62
7
  6
CONTINUOUS
 10
334.1824749049
 20
421.5883983003
 11
334.1824749049
 21
421.7883983003
  0
LINE
  5
2EE
100
AcDbEntity
  8
KONSTRUKTIONSELEMENTE
100
AcDbLine
 62
7
  6
CONTINUOUS
 10
334.4489167672
 20
421.5883983003
 11
334.4489167672
 21
421.7883983003
  0
LINE
  5
2EF
100
AcDbEntity
  8
KONSTRUKTIONSELEMENTE
100
AcDbLine
 62
7
  6
CONTINUOUS
 10
334.854359108
 20
421.5883983003
 11
334.854359108
 21
421.7883983003
  0
LINE
  5
2F0
100
AcDbEntity
  8
KONSTRUKTIONSELEMENTE
100
AcDbLine
 62
7
  6
CONTINUOUS
 10
335.3425342838
 20
421.5883983003
 11
335.3425342838
 21
421.7883983003
  0
LINE
  5
2F1
100
AcDbEntity
  8
BEZUGSACHSEN
100
AcDbLine
 62
7
  6
CONTINUOUS
 10
335.5225185677
 20
399.5883983003
 11
335.5225185677
 21
419.1321973697
  0
LINE
  5
2F2
100
AcDbEntity
  8
KONSTRUKTIONSELEMENTE
100
AcDbLine
 62
7
  6
CONTINUOUS
 10
335.9134420893
 20
421.5883983003
 11
335.9134420893
 21
421.7883983003
  0
LINE
  5
2F3
100
AcDbEntity
  8
0
100
AcDbLine
 62
7
  6
CONTINUOUS
 10
350.0721154423
 20
534.0259613487
 11
349.9866256426
 21
533.3525033426
  0
LINE
  5
2F4
100
AcDbEntity
  8
0
100
AcDbLine
 62
7
  6
CONTINUOUS
 10
353.145386165
 20
399.0883983003
 11
284.645386165
 21
399.0883983003
  0
LINE
  5
2F5
100
AcDbEntity
  8
KONSTRUKTIONSELEMENTE
100
AcDbLine
 62
7
  6
CONTINUOUS
 10
287.8911213596
 20
399.5883983003
 11
351.3996509704
 21
399.5883983003
  0
LINE
  5
2F6
100
AcDbEntity
  8
KONSTRUKTIONSELEMENTE
100
AcDbLine
 62
7
  6
CONTINUOUS
 10
349.9363140311
 20
358.3628802661
 11
349.9348725907
 21
358.3806685791
  0
LINE
  5
2F7
100
AcDbEntity
  8
KONSTRUKTIONSELEMENTE
100
AcDbLine
 62
7
  6
CONTINUOUS
 10
349.9228047995
 20
358.5533989038
 11
349.9348725907
 21
358.3806685791
  0
LINE
  5
2F8
100
AcDbEntity
  8
KONSTRUKTIONSELEMENTE
100
AcDbLine
 62
7
  6
CONTINUOUS
 10
336.3304453157
 20
421.5883983003
 11
336.3304453157
 21
421.7883983003
  0
LINE
  5
2F9
100
AcDbEntity
  8
KONSTRUKTIONSELEMENTE
100
AcDbLine
 62
7
  6
CONTINUOUS
 10
336.8301803619
 20
421.5883983003
 11
336.8301803619
 21
421.7883983003
  0
LINE
  5
2FA
100
AcDbEntity
  8
KONSTRUKTIONSELEMENTE
100
AcDbLine
 62
7
  6
CONTINUOUS
 10
337.1346453925
 20
421.5883983003
 11
337.1346453925
 21
421.7883983003
  0
LINE
  5
2FB
100
AcDbEntity
  8
KONSTRUKTIONSELEMENTE
100
AcDbLine
 62
7
  6
CONTINUOUS
 10
337.1826974642
 20
421.5883983003
 11
337.1826974642
 21
421.7883983003
  0
LINE
  5
2FC
100
AcDbEntity
  8
KONSTRUKTIONSELEMENTE
100
AcDbLine
 62
7
  6
CONTINUOUS
 10
337.516967924
 20
421.5883983003
 11
337.516967924
 21
421.7883983003
  0
LINE
  5
2FD
100
AcDbEntity
  8
BEZUGSACHSEN
100
AcDbLine
 62
7
  6
CONTINUOUS
 10
337.645386165
 20
261.5883983003
 11
337.645386165
 21
322.0883983003
  0
LINE
  5
2FE
100
AcDbEntity
  8
KONSTRUKTIONSELEMENTE
100
AcDbLine
 62
7
  6
CONTINUOUS
 10
338.0316061583
 20
421.5883983003
 11
338.0316061583
 21
421.7883983003
  0
LINE
  5
2FF
100
AcDbEntity
  8
KONSTRUKTIONSELEMENTE
100
AcDbLine
 62
7
  6
CONTINUOUS
 10
338.5313421512
 20
421.5883983003
 11
338.5313421512
 21
421.7883983003
  0
LINE
  5
300
100
AcDbEntity
  8
KONSTRUKTIONSELEMENTE
100
AcDbLine
 62
7
  6
CONTINUOUS
 10
338.8358071818
 20
421.5883983003
 11
338.8358071818
 21
421.7883983003
  0
LINE
  5
301
100
AcDbEntity
  8
KONSTRUKTIONSELEMENTE
100
AcDbLine
 62
7
  6
CONTINUOUS
 10
339.0012717681
 20
421.5883983003
 11
339.0012717681
 21
421.7883983003
  0
LINE
  5
302
100
AcDbEntity
  8
KONSTRUKTIONSELEMENTE
100
AcDbLine
 62
7
  6
CONTINUOUS
 10
339.1104667831
 20
421.5883983003
 11
339.1104667831
 21
421.7883983003
  0
LINE
  5
303
100
AcDbEntity
  8
KONSTRUKTIONSELEMENTE
100
AcDbLine
 62
7
  6
CONTINUOUS
 10
339.5476853883
 20
421.5883983003
 11
339.5476853883
 21
421.7883983003
  0
LINE
  5
304
100
AcDbEntity
  8
KONSTRUKTIONSELEMENTE
100
AcDbLine
 62
7
  6
CONTINUOUS
 10
340.0207299391
 20
421.5883983003
 11
340.0207299391
 21
421.7883983003
  0
LINE
  5
305
100
AcDbEntity
  8
KONSTRUKTIONSELEMENTE
100
AcDbLine
 62
7
  6
CONTINUOUS
 10
340.2825874301
 20
421.5883983003
 11
340.2825874301
 21
421.7883983003
  0
LINE
  5
306
100
AcDbEntity
  8
KONSTRUKTIONSELEMENTE
100
AcDbLine
 62
7
  6
CONTINUOUS
 10
340.476855012
 20
421.5883983003
 11
340.476855012
 21
421.7883983003
  0
LINE
  5
307
100
AcDbEntity
  8
KONSTRUKTIONSELEMENTE
100
AcDbLine
 62
7
  6
CONTINUOUS
 10
340.5021903725
 20
421.5883983003
 11
340.5021903725
 21
421.7883983003
  0
LINE
  5
308
100
AcDbEntity
  8
KONSTRUKTIONSELEMENTE
100
AcDbLine
 62
7
  6
CONTINUOUS
 10
340.7171063828
 20
421.5883983003
 11
340.7171063828
 21
421.7883983003
  0
LINE
  5
309
100
AcDbEntity
  8
0
100
AcDbLine
 62
7
  6
CONTINUOUS
 10
345.145386165
 20
390.8383983003
 11
345.145386165
 21
390.5883983003
  0
LINE
  5
30A
100
AcDbEntity
  8
0
100
AcDbLine
 62
7
  6
CONTINUOUS
 10
345.145386165
 20
330.5883983003
 11
345.145386165
 21
330.3383983003
  0
LINE
  5
30B
100
AcDbEntity
  8
KONSTRUKTIONSELEMENTE
100
AcDbLine
 62
7
  6
CONTINUOUS
 10
345.195386165
 20
399.0883983003
 11
345.195386165
 21
399.5883983003
  0
LINE
  5
30C
100
AcDbEntity
  8
BEZUGSACHSEN
100
AcDbLine
 62
7
  6
CONTINUOUS
 10
345.195386165
 20
399.0883983003
 11
345.195386165
 21
399.5883983003
  0
LINE
  5
30D
100
AcDbEntity
  8
KONSTRUKTIONSELEMENTE
100
AcDbLine
 62
7
  6
CONTINUOUS
 10
354.145386165
 20
409.8383983003
 11
353.1456332796
 21
409.8383983003
  0
LINE
  5
30E
100
AcDbEntity
  8
0
100
AcDbLine
 62
7
  6
CONTINUOUS
 10
372.145386165
 20
409.8383983003
 11
373.1451390504
 21
409.8383983003
  0
LINE
  5
30F
100
AcDbEntity
  8
KONSTRUKTIONSELEMENTE
100
AcDbLine
 62
7
  6
CONTINUOUS
 10
358.145386165
 20
412.0883983003
 11
354.145386165
 21
412.0883983003
  0
LINE
  5
310
100
AcDbEntity
  8
0
100
AcDbLine
 62
7
  6
CONTINUOUS
 10
368.145386165
 20
412.0883983003
 11
372.145386165
 21
412.0883983003
  0
LINE
  5
311
100
AcDbEntity
  8
0
100
AcDbLine
 62
7
  6
CONTINUOUS
 10
374.7236721262
 20
368.9328887086
 11
374.3272140542
 21
369.4765421054
  0
LWPOLYLINE
  5
312
100
AcDbEntity
  8
0
100
AcDbPolyline
 62
7
  6
CONTINUOUS
 90
13
 70
0
 10
349.9427512606
 20
358.2902454163
 10
350.0280158962
 20
357.5341905441
 10
350.228778949
 20
356.4804717775
 10
350.5197906007
 20
355.4453778588
 10
350.8990707184
 20
354.4376101901
 10
351.3639057613
 20
353.4654686397
 10
351.9107106485
 20
352.5365576349
 10
352.5353628689
 20
351.6582914055
 10
353.2325227732
 20
350.8377440665
 10
353.9964514562
 20
350.0813645414
 10
354.8201867651
 20
349.3951031443
 10
355.6960749141
 20
348.7843551105
 10
356.6167425049
 20
348.2527257023
  0
LWPOLYLINE
  5
313
100
AcDbEntity
  8
KONSTRUKTIONSELEMENTE
100
AcDbPolyline
 62
7
  6
CONTINUOUS
 90
19
 70
0
 10
349.9344812233
 20
358.3635771321
 10
350.0280158962
 20
357.5341905441
 10
350.228778949
 20
356.4804717775
 10
350.5197906007
 20
355.4453778588
 10
350.8990707184
 20
354.4376101901
 10
351.3639057613
 20
353.4654686397
 10
351.9107106485
 20
352.5365576349
 10
352.5353628689
 20
351.6582914055
 10
353.2325227732
 20
350.8377440665
 10
353.9964514562
 20
350.0813645414
 10
354.8201867651
 20
349.3951031443
 10
355.6960749141
 20
348.7843551105
 10
356.6167425049
 20
348.2527257023
 10
357.5744693745
 20
347.8034421598
 10
358.561044968
 20
347.4387586636
 10
359.567815513
 20
347.1602661058
 10
360.5839317858
 20
346.9685107489
 10
361.5989716258
 20
346.8628651197
 10
362.3061954771
 20
346.8386123339
  0
LINE
  5
314
100
AcDbEntity
  8
KONSTRUKTIONSELEMENTE
100
AcDbLine
 62
7
  6
CONTINUOUS
 10
349.895386165
 20
359.3521324884
 11
349.895386165
 21
363.3965923119
  0
LINE
  5
315
100
AcDbEntity
  8
BEZUGSACHSEN
100
AcDbLine
 62
7
  6
CONTINUOUS
 10
351.3996509704
 20
399.5883983003
 11
351.3996509704
 21
419.1321973697
  0
LINE
  5
316
100
AcDbEntity
  8
KONSTRUKTIONSELEMENTE
100
AcDbLine
 62
7
  6
CONTINUOUS
 10
353.145386165
 20
496.6654417656
 11
353.145386165
 21
488.1634700813
  0
LINE
  5
317
100
AcDbEntity
  8
KONSTRUKTIONSELEMENTE
100
AcDbLine
 62
7
  6
CONTINUOUS
 10
353.145386165
 20
476.3666657169
 11
353.145386165
 21
464.3383983003
  0
LINE
  5
318
100
AcDbEntity
  8
0
100
AcDbLine
 62
7
  6
CONTINUOUS
 10
353.145386165
 20
498.1088892558
 11
353.145386165
 21
498.2501172473
  0
LINE
  5
319
100
AcDbEntity
  8
KONSTRUKTIONSELEMENTE
100
AcDbLine
 62
7
  6
CONTINUOUS
 10
353.145386165
 20
498.1088892558
 11
353.145386165
 21
498.2501172473
  0
LINE
  5
31A
100
AcDbEntity
  8
KONSTRUKTIONSELEMENTE
100
AcDbLine
 62
7
  6
CONTINUOUS
 10
353.395386165
 20
424.3383983003
 11
353.395386165
 21
431.8383983003
  0
LINE
  5
31B
100
AcDbEntity
  8
KONSTRUKTIONSELEMENTE
100
AcDbLine
 62
7
  6
CONTINUOUS
 10
353.395386165
 20
433.3383983003
 11
353.395386165
 21
440.8383983003
  0
LINE
  5
31C
100
AcDbEntity
  8
KONSTRUKTIONSELEMENTE
100
AcDbLine
 62
7
  6
CONTINUOUS
 10
353.395386165
 20
443.0883983003
 11
353.395386165
 21
450.5883983003
  0
LINE
  5
31D
100
AcDbEntity
  8
0
100
AcDbLine
 62
7
  6
CONTINUOUS
 10
353.645386165
 20
442.0523466239
 11
353.645386165
 21
447.5520590776
  0
LINE
  5
31E
100
AcDbEntity
  8
0
100
AcDbLine
 62
7
  6
CONTINUOUS
 10
353.645386165
 20
450.5523466239
 11
353.645386165
 21
456.0520590776
  0
LINE
  5
31F
100
AcDbEntity
  8
KONSTRUKTIONSELEMENTE
100
AcDbLine
 62
7
  6
CONTINUOUS
 10
354.145386165
 20
464.3383983003
 11
354.145386165
 21
409.8383983003
  0
LINE
  5
320
100
AcDbEntity
  8
0
100
AcDbLine
 62
7
  6
CONTINUOUS
 10
354.645386165
 20
330.3383983003
 11
354.645386165
 21
322.0883983003
  0
LINE
  5
321
100
AcDbEntity
  8
RUNDUNGEN
100
AcDbLine
 62
7
  6
CONTINUOUS
 10
355.145386165
 20
499.0289707215
 11
355.145386165
 21
465.9724140752
  0
LINE
  5
322
100
AcDbEntity
  8
KONSTRUKTIONSELEMENTE
100
AcDbLine
 62
7
  6
CONTINUOUS
 10
349.895386772
 20
531.5924090163
 11
349.895386165
 21
531.5883983003
  0
LINE
  5
323
100
AcDbEntity
  8
0
100
AcDbLine
 62
7
  6
CONTINUOUS
 10
349.8955552804
 20
531.9589803247
 11
349.895386165
 21
531.5883983003
  0
LWPOLYLINE
  5
324
100
AcDbEntity
  8
KONSTRUKTIONSELEMENTE
100
AcDbPolyline
 62
7
  6
CONTINUOUS
 90
24
 70
0
 10
353.145386165
 20
409.8383983003
 10
353.1423113284
 20
382.5410911372
 10
353.1278441437
 20
381.436359012
 10
353.1020799708
 20
380.3564713741
 10
353.0657155979
 20
379.3065062251
 10
353.0195127366
 20
378.2908598361
 10
352.9643049112
 20
377.3136914526
 10
352.900973643
 20
376.3785344928
 10
352.8304724334
 20
375.4887719492
 10
352.7537952207
 20
374.6471936901
 10
352.6719968005
 20
373.856312323
 10
352.5861639892
 20
373.1180861476
 10
352.4974647062
 20
372.4343705748
 10
352.4071056433
 20
371.806516693
 10
352.3163630461
 20
371.2356120064
 10
352.2265947602
 20
370.7224999518
 10
352.139161366
 20
370.267331524
 10
352.0554884743
 20
369.8699843812
 10
351.9773786399
 20
369.531337377
 10
351.9066140914
 20
369.2512075303
 10
351.8459371411
 20
369.0319756212
 10
351.798176843
 20
368.8745472231
 10
351.7666712045
 20
368.7798044576
 10
351.7557531577
 20
368.7495491357
  0
LINE
  5
325
100
AcDbEntity
  8
KONSTRUKTIONSELEMENTE
100
AcDbLine
 62
7
  6
CONTINUOUS
 10
349.8954461744
 20
531.9304828798
 11
349.8952723368
 21
531.8515723156
  0
LINE
  5
326
100
AcDbEntity
  8
KONSTRUKTIONSELEMENTE
100
AcDbLine
 62
7
  6
CONTINUOUS
 10
349.8958323788
 20
531.9985334985
 11
349.8954408246
 21
531.9291706415
  0
LWPOLYLINE
  5
327
100
AcDbEntity
  8
0
100
AcDbPolyline
 62
7
  6
CONTINUOUS
 90
3
 70
0
 10
350.0082777518
 20
364.8951740156
 10
349.9153182883
 20
364.0277452472
 10
349.8953865479
 20
363.3965906272
  0
LINE
  5
328
100
AcDbEntity
  8
BEZUGSACHSEN
100
AcDbLine
 62
7
  6
CONTINUOUS
 10
292.1457083878
 20
421.5883983003
 11
347.1450639422
 21
421.5883983003
  0
LINE
  5
329
100
AcDbEntity
  8
KONSTRUKTIONSELEMENTE
100
AcDbLine
 62
7
  6
CONTINUOUS
 10
319.6554652533
 20
421.7883983003
 11
323.9527122943
 21
421.7883983003
  0
LINE
  5
32A
100
AcDbEntity
  8
KONSTRUKTIONSELEMENTE
100
AcDbLine
 62
7
  6
CONTINUOUS
 10
324.9750951673
 20
421.7883983003
 11
340.7171063828
 21
421.7883983003
  0
LINE
  5
32B
100
AcDbEntity
  8
KONSTRUKTIONSELEMENTE
100
AcDbLine
 62
7
  6
CONTINUOUS
 10
354.145386165
 20
424.3383983003
 11
353.395386165
 21
424.3383983003
  0
LINE
  5
32C
100
AcDbEntity
  8
KONSTRUKTIONSELEMENTE
100
AcDbLine
 62
7
  6
CONTINUOUS
 10
354.145386165
 20
424.4979727633
 11
353.395386165
 21
424.4979727633
  0
LINE
  5
32D
100
AcDbEntity
  8
KONSTRUKTIONSELEMENTE
100
AcDbLine
 62
7
  6
CONTINUOUS
 10
354.145386165
 20
424.8171217034
 11
353.395386165
 21
424.8171217034
  0
LINE
  5
32E
100
AcDbEntity
  8
KONSTRUKTIONSELEMENTE
100
AcDbLine
 62
7
  6
CONTINUOUS
 10
354.145386165
 20
425.4554195555
 11
353.395386165
 21
425.4554195555
  0
LINE
  5
32F
100
AcDbEntity
  8
KONSTRUKTIONSELEMENTE
100
AcDbLine
 62
7
  6
CONTINUOUS
 10
354.145386165
 20
426.0937174635
 11
353.395386165
 21
426.0937174635
  0
LINE
  5
330
100
AcDbEntity
  8
KONSTRUKTIONSELEMENTE
100
AcDbLine
 62
7
  6
CONTINUOUS
 10
354.145386165
 20
426.8915897088
 11
353.395386165
 21
426.8915897088
  0
LINE
  5
331
100
AcDbEntity
  8
KONSTRUKTIONSELEMENTE
100
AcDbLine
 62
7
  6
CONTINUOUS
 10
354.145386165
 20
429.2852066683
 11
353.395386165
 21
429.2852066683
  0
LINE
  5
332
100
AcDbEntity
  8
KONSTRUKTIONSELEMENTE
100
AcDbLine
 62
7
  6
CONTINUOUS
 10
354.145386165
 20
430.0830793606
 11
353.395386165
 21
430.0830793606
  0
LINE
  5
333
100
AcDbEntity
  8
KONSTRUKTIONSELEMENTE
100
AcDbLine
 62
7
  6
CONTINUOUS
 10
354.145386165
 20
430.7213771569
 11
353.395386165
 21
430.7213771569
  0
LINE
  5
334
100
AcDbEntity
  8
BEZUGSACHSEN
100
AcDbLine
 62
7
  6
CONTINUOUS
 10
351.3996509704
 20
419.1321973697
 11
347.145386165
 21
421.5883983003
  0
LINE
  5
335
100
AcDbEntity
  8
0
100
AcDbLine
 62
7
  6
CONTINUOUS
 10
375.1742763883
 20
368.1860413631
 11
374.7181559332
 21
368.941181441
  0
LINE
  5
336
100
AcDbEntity
  8
0
100
AcDbLine
 62
7
  6
CONTINUOUS
 10
375.5581279019
 20
367.4027546987
 11
375.1688176014
 21
368.1960374891
  0
LWPOLYLINE
  5
337
100
AcDbEntity
  8
0
100
AcDbPolyline
 62
7
  6
CONTINUOUS
 90
8
 70
0
 10
374.5020727321
 20
368.826058878
 10
374.5245401102
 20
368.7749059454
 10
374.5356612626
 20
368.7478575502
 10
374.5243462736
 20
368.7791051556
 10
374.4930391598
 20
368.8731560832
 10
374.4454323167
 20
369.0299202287
 10
374.3848554275
 20
369.2485759002
 10
374.3141478196
 20
369.5282178334
  0
LINE
  5
338
100
AcDbEntity
  8
0
100
AcDbLine
 62
7
  6
CONTINUOUS
 10
352.2287523251
 20
508.6934991726
 11
349.9679710514
 21
530.203396162
  0
LINE
  5
339
100
AcDbEntity
  8
0
100
AcDbLine
 62
7
  6
CONTINUOUS
 10
351.2054399226
 20
537.5632107871
 11
354.7062487504
 21
504.2552397154
  0
LINE
  5
33A
100
AcDbEntity
  8
RUNDUNGEN
100
AcDbLine
 62
7
  6
CONTINUOUS
 10
354.7062487504
 20
504.2552397154
 11
355.0358240724
 21
501.1195399868
  0
LINE
  5
33B
100
AcDbEntity
  8
RUNDUNGEN
100
AcDbLine
 62
7
  6
CONTINUOUS
 10
371.2549482576
 20
501.1195399868
 11
371.5845235796
 21
504.2552397154
  0
LINE
  5
33C
100
AcDbEntity
  8
0
100
AcDbLine
 62
7
  6
CONTINUOUS
 10
371.5845235796
 20
504.2552397154
 11
375.0853324061
 21
537.5632107744
  0
LINE
  5
33D
100
AcDbEntity
  8
0
100
AcDbLine
 62
7
  6
CONTINUOUS
 10
376.3228012786
 20
530.203396162
 11
374.0620200049
 21
508.6934991726
  0
LWPOLYLINE
  5
33E
100
AcDbEntity
  8
0
100
AcDbPolyline
 62
7
  6
CONTINUOUS
 90
4
 70
0
 10
352.0686632472
 20
369.9326617614
 10
352.054713354
 20
369.8664721885
 10
351.9766245105
 20
369.5282178334
 10
351.9635582758
 20
369.4765421054
  0
LINE
  5
33F
100
AcDbEntity
  8
KONSTRUKTIONSELEMENTE
100
AcDbLine
 62
7
  6
CONTINUOUS
 10
354.145386165
 20
431.3596749531
 11
353.395386165
 21
431.3596749531
  0
LINE
  5
340
100
AcDbEntity
  8
KONSTRUKTIONSELEMENTE
100
AcDbLine
 62
7
  6
CONTINUOUS
 10
354.145386165
 20
431.6788238512
 11
353.395386165
 21
431.6788238512
  0
LINE
  5
341
100
AcDbEntity
  8
KONSTRUKTIONSELEMENTE
100
AcDbLine
 62
7
  6
CONTINUOUS
 10
354.145386165
 20
431.8383983003
 11
353.395386165
 21
431.8383983003
  0
LINE
  5
342
100
AcDbEntity
  8
KONSTRUKTIONSELEMENTE
100
AcDbLine
 62
7
  6
CONTINUOUS
 10
354.145386165
 20
433.3383983003
 11
353.395386165
 21
433.3383983003
  0
LINE
  5
343
100
AcDbEntity
  8
KONSTRUKTIONSELEMENTE
100
AcDbLine
 62
7
  6
CONTINUOUS
 10
354.145386165
 20
433.4979727633
 11
353.395386165
 21
433.4979727633
  0
LINE
  5
344
100
AcDbEntity
  8
KONSTRUKTIONSELEMENTE
100
AcDbLine
 62
7
  6
CONTINUOUS
 10
354.145386165
 20
433.8171217034
 11
353.395386165
 21
433.8171217034
  0
LINE
  5
345
100
AcDbEntity
  8
KONSTRUKTIONSELEMENTE
100
AcDbLine
 62
7
  6
CONTINUOUS
 10
354.145386165
 20
434.4554195555
 11
353.395386165
 21
434.4554195555
  0
LINE
  5
346
100
AcDbEntity
  8
KONSTRUKTIONSELEMENTE
100
AcDbLine
 62
7
  6
CONTINUOUS
 10
354.145386165
 20
435.0937174635
 11
353.395386165
 21
435.0937174635
  0
LINE
  5
347
100
AcDbEntity
  8
KONSTRUKTIONSELEMENTE
100
AcDbLine
 62
7
  6
CONTINUOUS
 10
354.145386165
 20
435.8915897088
 11
353.395386165
 21
435.8915897088
  0
LINE
  5
348
100
AcDbEntity
  8
KONSTRUKTIONSELEMENTE
100
AcDbLine
 62
7
  6
CONTINUOUS
 10
354.145386165
 20
440.8383983003
 11
353.395386165
 21
440.8383983003
  0
LINE
  5
349
100
AcDbEntity
  8
0
100
AcDbLine
 62
7
  6
CONTINUOUS
 10
375.8722758329
 20
366.5890412273
 11
375.5529860305
 21
367.4144986558
  0
LINE
  5
34A
100
AcDbEntity
  8
0
100
AcDbLine
 62
7
  6
CONTINUOUS
 10
376.1143413687
 20
365.7510737474
 11
375.8677181867
 21
366.6025434161
  0
LINE
  5
34B
100
AcDbEntity
  8
0
100
AcDbLine
 62
7
  6
CONTINUOUS
 10
374.3141478196
 20
369.5282178334
 11
374.2352838558
 21
369.8699843812
  0
LWPOLYLINE
  5
34C
100
AcDbEntity
  8
0
100
AcDbPolyline
 62
7
  6
CONTINUOUS
 90
17
 70
0
 10
374.2360589761
 20
369.8664721885
 10
374.1523791536
 20
370.2635169272
 10
374.064918438
 20
370.7184637665
 10
373.9751078996
 20
371.2314280854
 10
373.884314093
 20
371.8022420579
 10
373.7938966915
 20
372.4300658334
 10
373.7051344801
 20
373.1138091227
 10
373.6192358573
 20
373.8521222532
 10
373.5373705303
 20
374.6431496134
 10
373.4606267944
 20
375.4849345926
 10
373.390060992
 20
376.3749654935
 10
373.3266686122
 20
377.3104530788
 10
373.2714047667
 20
378.2880141426
 10
373.2251525867
 20
379.304114996
 10
373.1887472936
 20
380.3545947497
 10
373.1629523181
 20
381.4350550973
 10
373.1484662135
 20
382.5404160611
  0
LINE
  5
34D
100
AcDbEntity
  8
0
100
AcDbLine
 62
7
  6
CONTINUOUS
 10
376.2824945782
 20
364.8951740156
 11
376.1106389328
 21
365.766309443
  0
LINE
  5
34E
100
AcDbEntity
  8
0
100
AcDbLine
 62
7
  6
CONTINUOUS
 10
376.3754540417
 20
364.0277452472
 11
376.2799175575
 21
364.912083789
  0
LINE
  5
34F
100
AcDbEntity
  8
0
100
AcDbLine
 62
7
  6
CONTINUOUS
 10
376.3953857828
 20
363.3965907107
 11
376.374267917
 21
364.046234374
  0
LINE
  5
350
100
AcDbEntity
  8
0
100
AcDbLine
 62
7
  6
CONTINUOUS
 10
376.3954262339
 20
531.903453977
 11
376.3949399863
 21
531.9985289086
  0
LINE
  5
351
100
AcDbEntity
  8
RUNDUNGEN
100
AcDbLine
 62
7
  6
CONTINUOUS
 10
371.145386165
 20
465.9724140752
 11
371.145386165
 21
499.0289707215
  0
LINE
  5
352
100
AcDbEntity
  8
0
100
AcDbLine
 62
7
  6
CONTINUOUS
 10
372.145386165
 20
464.3383983003
 11
372.145386165
 21
409.8383983003
  0
LINE
  5
353
100
AcDbEntity
  8
0
100
AcDbLine
 62
7
  6
CONTINUOUS
 10
373.1484662135
 20
382.5404160611
 11
373.145386165
 21
409.8383983003
  0
LINE
  5
354
100
AcDbEntity
  8
0
100
AcDbLine
 62
7
  6
CONTINUOUS
 10
373.145386165
 20
464.3383983003
 11
373.145386165
 21
476.3666657169
  0
LINE
  5
355
100
AcDbEntity
  8
0
100
AcDbLine
 62
7
  6
CONTINUOUS
 10
373.145386165
 20
488.1634700813
 11
373.145386165
 21
496.6654417656
  0
LINE
  5
356
100
AcDbEntity
  8
0
100
AcDbLine
 62
7
  6
CONTINUOUS
 10
373.145386165
 20
498.1088892558
 11
373.145386165
 21
498.2501172473
  0
LINE
  5
357
100
AcDbEntity
  8
0
100
AcDbLine
 62
7
  6
CONTINUOUS
 10
376.3953309423
 20
531.9293087876
 11
376.395386165
 21
531.5883983003
  0
LINE
  5
358
100
AcDbEntity
  8
0
100
AcDbLine
 62
7
  6
CONTINUOUS
 10
376.395386165
 20
363.3965923119
 11
376.395386165
 21
359.3521324884
  0
LWPOLYLINE
  5
359
100
AcDbEntity
  8
0
100
AcDbPolyline
 62
7
  6
CONTINUOUS
 90
6
 70
0
 10
351.5671002038
 20
368.9328887086
 10
351.1164959417
 20
368.1860413631
 10
350.7326444281
 20
367.4027546987
 10
350.4184964971
 20
366.5890412273
 10
350.1764309613
 20
365.7510737474
 10
350.0082777518
 20
364.8951740156
  0
LWPOLYLINE
  5
35A
100
AcDbEntity
  8
KONSTRUKTIONSELEMENTE
100
AcDbPolyline
 62
7
  6
CONTINUOUS
 90
8
 70
0
 10
351.5726163968
 20
368.941181441
 10
351.1219547287
 20
368.1960374891
 10
350.7377862995
 20
367.4144986558
 10
350.4230541434
 20
366.6025434161
 10
350.1801333973
 20
365.766309443
 10
350.0108547726
 20
364.912083789
 10
349.916504413
 20
364.046234374
 10
349.8953865472
 20
363.3965907107
  0
LINE
  5
35B
100
AcDbEntity
  8
0
100
AcDbLine
 62
7
  6
CONTINUOUS
 10
351.963525144
 20
369.4764966725
 11
351.5671002038
 21
368.9328887086
  0
LINE
  5
35C
100
AcDbEntity
  8
KONSTRUKTIONSELEMENTE
100
AcDbLine
 62
7
  6
CONTINUOUS
 10
351.9634052058
 20
369.476021883
 11
351.5726163968
 21
368.941181441
  0
LINE
  5
35D
100
AcDbEntity
  8
0
100
AcDbLine
 62
7
  6
CONTINUOUS
 10
354.145386165
 20
442.0520590776
 11
353.645386165
 21
442.0520590776
  0
LINE
  5
35E
100
AcDbEntity
  8
KONSTRUKTIONSELEMENTE
100
AcDbLine
 62
7
  6
CONTINUOUS
 10
353.645386165
 20
443.0883983003
 11
353.395386165
 21
443.0883983003
  0
LINE
  5
35F
100
AcDbEntity
  8
KONSTRUKTIONSELEMENTE
100
AcDbLine
 62
7
  6
CONTINUOUS
 10
353.645386165
 20
446.7586110758
 11
353.395386165
 21
446.7586110758
  0
LINE
  5
360
100
AcDbEntity
  8
KONSTRUKTIONSELEMENTE
100
AcDbLine
 62
7
  6
CONTINUOUS
 10
353.645386165
 20
447.0777599739
 11
353.395386165
 21
447.0777599739
  0
LINE
  5
361
100
AcDbEntity
  8
0
100
AcDbLine
 62
7
  6
CONTINUOUS
 10
354.145386165
 20
447.5520590776
 11
353.645386165
 21
447.5520590776
  0
LINE
  5
362
100
AcDbEntity
  8
KONSTRUKTIONSELEMENTE
100
AcDbLine
 62
7
  6
CONTINUOUS
 10
354.145386165
 20
447.7160577701
 11
353.395386165
 21
447.7160577701
  0
LINE
  5
363
100
AcDbEntity
  8
KONSTRUKTIONSELEMENTE
100
AcDbLine
 62
7
  6
CONTINUOUS
 10
354.145386165
 20
448.1947811173
 11
353.395386165
 21
448.1947811173
  0
LINE
  5
364
100
AcDbEntity
  8
KONSTRUKTIONSELEMENTE
100
AcDbLine
 62
7
  6
CONTINUOUS
 10
354.145386165
 20
448.8330793606
 11
353.395386165
 21
448.8330793606
  0
LINE
  5
365
100
AcDbEntity
  8
KONSTRUKTIONSELEMENTE
100
AcDbLine
 62
7
  6
CONTINUOUS
 10
354.145386165
 20
449.3118027078
 11
353.395386165
 21
449.3118027078
  0
LINE
  5
366
100
AcDbEntity
  8
KONSTRUKTIONSELEMENTE
100
AcDbLine
 62
7
  6
CONTINUOUS
 10
354.145386165
 20
449.9501005041
 11
353.395386165
 21
449.9501005041
  0
LINE
  5
367
100
AcDbEntity
  8
KONSTRUKTIONSELEMENTE
100
AcDbLine
 62
7
  6
CONTINUOUS
 10
354.145386165
 20
450.4288238512
 11
353.395386165
 21
450.4288238512
  0
LINE
  5
368
100
AcDbEntity
  8
0
100
AcDbLine
 62
7
  6
CONTINUOUS
 10
354.145386165
 20
450.5520590776
 11
353.645386165
 21
450.5520590776
  0
LINE
  5
369
100
AcDbEntity
  8
KONSTRUKTIONSELEMENTE
100
AcDbLine
 62
7
  6
CONTINUOUS
 10
353.645386165
 20
450.5883983003
 11
353.395386165
 21
450.5883983003
  0
LWPOLYLINE
  5
36A
100
AcDbEntity
  8
0
100
AcDbPolyline
 62
7
  6
CONTINUOUS
 90
3
 70
0
 10
376.3949399828
 20
531.9985293622
 10
376.3470265398
 20
533.0143884757
 10
376.2188657342
 20
534.0249582867
  0
LINE
  5
36B
100
AcDbEntity
  8
0
100
AcDbLine
 62
7
  6
CONTINUOUS
 10
376.3558997393
 20
358.3806685791
 11
376.3679675305
 21
358.5533989038
  0
LINE
  5
36C
100
AcDbEntity
  8
0
100
AcDbLine
 62
7
  6
CONTINUOUS
 10
376.3544582989
 20
358.3628802661
 11
376.3558997393
 21
358.3806685791
  0
LINE
  5
36D
100
AcDbEntity
  8
0
100
AcDbLine
 62
7
  6
CONTINUOUS
 10
376.2627564338
 20
357.5341905441
 11
376.3562911067
 21
358.3635771321
  0
LINE
  5
36E
100
AcDbEntity
  8
0
100
AcDbLine
 62
7
  6
CONTINUOUS
 10
354.145386165
 20
456.0520590776
 11
353.645386165
 21
456.0520590776
  0
LINE
  5
36F
100
AcDbEntity
  8
KONSTRUKTIONSELEMENTE
100
AcDbLine
 62
7
  6
CONTINUOUS
 10
358.145386165
 20
462.0883983003
 11
354.145386165
 21
462.0883983003
  0
LINE
  5
370
100
AcDbEntity
  8
0
100
AcDbLine
 62
7
  6
CONTINUOUS
 10
368.145386165
 20
462.0883983003
 11
372.145386165
 21
462.0883983003
  0
LINE
  5
371
100
AcDbEntity
  8
KONSTRUKTIONSELEMENTE
100
AcDbLine
 62
7
  6
CONTINUOUS
 10
354.145386165
 20
464.3383983003
 11
353.1456332796
 21
464.3383983003
  0
LINE
  5
372
100
AcDbEntity
  8
0
100
AcDbLine
 62
7
  6
CONTINUOUS
 10
372.145386165
 20
464.3383983003
 11
373.1451390504
 21
464.3383983003
  0
LINE
  5
373
100
AcDbEntity
  8
0
100
AcDbLine
 62
7
  6
CONTINUOUS
 10
376.3041658204
 20
533.352352558
 11
376.218656946
 21
534.0259611299
  0
LWPOLYLINE
  5
374
100
AcDbEntity
  8
0
100
AcDbPolyline
 62
7
  6
CONTINUOUS
 90
13
 70
0
 10
368.7163029555
 20
347.8034421598
 10
369.6740298251
 20
348.2527257023
 10
370.594697416
 20
348.7843551105
 10
371.4705855649
 20
349.3951031443
 10
372.2943208738
 20
350.0813645414
 10
373.0582495568
 20
350.8377440665
 10
373.7554094611
 20
351.6582914055
 10
374.3800616815
 20
352.5365576349
 10
374.9268665687
 20
353.4654686397
 10
375.3917016116
 20
354.4376101901
 10
375.7709817293
 20
355.4453778588
 10
376.061993381
 20
356.4804717775
 10
376.2627564338
 20
357.5341905441
  0
LINE
  5
375
100
AcDbEntity
  8
0
100
AcDbLine
 62
7
  6
CONTINUOUS
 10
367.729727362
 20
347.4387586636
 11
368.7163029555
 21
347.8034421598
  0
LWPOLYLINE
  5
376
100
AcDbEntity
  8
0
100
AcDbPolyline
 62
7
  6
CONTINUOUS
 90
3
 70
0
 10
376.218656946
 20
534.0259611299
 10
376.0108149098
 20
535.0242598152
 10
375.8125693652
 20
535.7314408466
  0
LINE
  5
377
100
AcDbEntity
  8
RUNDUNGEN
100
AcDbLine
 62
7
  6
CONTINUOUS
 10
375.6329544222
 20
536.2520919835
 11
375.8113134016
 21
535.7313992255
  0
LINE
  5
378
100
AcDbEntity
  8
0
100
AcDbLine
 62
7
  6
CONTINUOUS
 10
375.0852302794
 20
537.5622391044
 11
374.9212135558
 21
537.8862803057
  0
LINE
  5
379
100
AcDbEntity
  8
BEZUGSACHSEN
100
AcDbLine
 62
7
  6
CONTINUOUS
 10
337.645386165
 20
261.5883983003
 11
335.145386165
 21
259.0883983003
  0
LINE
  5
37A
100
AcDbEntity
  8
0
100
AcDbLine
 62
7
  6
CONTINUOUS
 10
374.4151502261
 20
538.7662564025
 11
373.8328669642
 21
539.6155619992
  0
LINE
  5
37B
100
AcDbEntity
  8
0
100
AcDbLine
 62
7
  6
CONTINUOUS
 10
374.9240453356
 20
537.8808724565
 11
374.4113615411
 21
538.7722800418
  0
LINE
  5
37C
100
AcDbEntity
  8
0
100
AcDbLine
 62
7
  6
CONTINUOUS
 10
373.8377238149
 20
539.6090454634
 11
373.1893095328
 21
540.4108368066
  0
LINE
  5
37D
100
AcDbEntity
  8
RUNDUNGEN
100
AcDbLine
 62
7
  6
CONTINUOUS
 10
375.5638805017
 20
536.4155362567
 11
374.9627833984
 21
536.4155362567
  0
LINE
  5
37E
100
AcDbEntity
  8
RUNDUNGEN
100
AcDbLine
 62
7
  6
CONTINUOUS
 10
351.3279889316
 20
536.4155362567
 11
350.7268918259
 21
536.4155362567
  0
LINE
  5
37F
100
AcDbEntity
  8
0
100
AcDbLine
 62
7
  6
CONTINUOUS
 10
371.7313955868
 20
541.8310599587
 11
370.9086449263
 21
542.4614238098
  0
LINE
  5
380
100
AcDbEntity
  8
0
100
AcDbLine
 62
7
  6
CONTINUOUS
 10
372.4918162299
 20
541.1461639643
 11
371.7228067231
 21
541.8381962811
  0
LINE
  5
381
100
AcDbEntity
  8
0
100
AcDbLine
 62
7
  6
CONTINUOUS
 10
373.1953319161
 20
540.4039635498
 11
372.4845449172
 21
541.1532469931
  0
LWPOLYLINE
  5
382
100
AcDbEntity
  8
KONSTRUKTIONSELEMENTE
100
AcDbPolyline
 62
7
  6
CONTINUOUS
 90
15
 70
0
 10
362.1062437672
 20
544.8146257508
 10
361.0762037494
 20
544.7114750119
 10
360.0592375321
 20
544.5275405907
 10
359.061533387
 20
544.2642277429
 10
358.089152437
 20
543.9234042582
 10
357.1480202234
 20
543.5074046756
 10
356.2438767512
 20
543.0190227191
 10
355.3821278246
 20
542.4614241064
 10
354.5679660614
 20
541.8381966583
 10
353.8062278864
 20
541.1532474541
 10
353.1014632743
 20
540.4108373507
 10
352.45790583
 20
539.6155626216
 10
351.8794112237
 20
538.7722807327
 10
351.3695591654
 20
537.8862810522
 10
351.2055420506
 20
537.5622391044
  0
LWPOLYLINE
  5
383
100
AcDbEntity
  8
0
100
AcDbPolyline
 62
7
  6
CONTINUOUS
 90
16
 70
0
 10
362.8952373302
 20
544.8383982701
 10
362.0868417793
 20
544.8134408394
 10
361.0579990788
 20
544.7089079435
 10
360.0423137284
 20
544.5237710207
 10
359.0459543309
 20
544.2594390084
 10
358.0749622048
 20
543.9177815599
 10
357.1352428092
 20
543.5011331146
 10
356.2325164451
 20
543.0122854356
 10
355.3721697604
 20
542.4544003392
 10
354.5593768683
 20
541.8310600628
 10
353.7989562355
 20
541.1461640962
 10
353.0954405479
 20
540.4039637028
 10
352.4530486358
 20
539.6090456255
 10
351.8756222001
 20
538.7662565555
 10
351.3667270585
 20
537.8808725789
 10
351.2055420506
 20
537.5622391044
  0
LINE
  5
384
100
AcDbEntity
  8
KONSTRUKTIONSELEMENTE
100
AcDbLine
 62
7
  6
CONTINUOUS
 10
362.8952373249
 20
544.8383982701
 11
362.1062437672
 21
544.8146257508
  0
LINE
  5
385
100
AcDbEntity
  8
KONSTRUKTIONSELEMENTE
100
AcDbLine
 62
7
  6
CONTINUOUS
 10
363.396005687
 20
544.8383983003
 11
362.894766643
 21
544.8383983003
  0
LINE
  5
386
100
AcDbEntity
  8
0
100
AcDbLine
 62
7
  6
CONTINUOUS
 10
364.20393052
 20
544.8134408413
 11
363.3955349999
 21
544.8383982701
  0
LINE
  5
387
100
AcDbEntity
  8
0
100
AcDbLine
 62
7
  6
CONTINUOUS
 10
365.2327732077
 20
544.7089079496
 11
364.1845285979
 21
544.8146257487
  0
LINE
  5
388
100
AcDbEntity
  8
0
100
AcDbLine
 62
7
  6
CONTINUOUS
 10
366.2484585646
 20
544.523771029
 11
365.2145686611
 21
544.7114750006
  0
LINE
  5
389
100
AcDbEntity
  8
0
100
AcDbLine
 62
7
  6
CONTINUOUS
 10
367.244817982
 20
544.2594390137
 11
366.2315349342
 21
544.5275405604
  0
LINE
  5
38A
100
AcDbEntity
  8
0
100
AcDbLine
 62
7
  6
CONTINUOUS
 10
368.2158101367
 20
543.9177815553
 11
367.2292391404
 21
544.2642276823
  0
LINE
  5
38B
100
AcDbEntity
  8
0
100
AcDbLine
 62
7
  6
CONTINUOUS
 10
369.1555295651
 20
543.5011330928
 11
368.2016201532
 21
543.9234041552
  0
LINE
  5
38C
100
AcDbEntity
  8
0
100
AcDbLine
 62
7
  6
CONTINUOUS
 10
370.0582559615
 20
543.0122853901
 11
369.1427524274
 21
543.5074045184
  0
LINE
  5
38D
100
AcDbEntity
  8
0
100
AcDbLine
 62
7
  6
CONTINUOUS
 10
370.9186026743
 20
542.4544002652
 11
370.0468959542
 21
543.0190224967
  0
LINE
  5
38E
100
AcDbEntity
  8
BEZUGSACHSEN
100
AcDbLine
 62
7
  6
CONTINUOUS
 10
582.063632988
 20
259.0883983003
 11
613.063632988
 21
259.0883983003
  0
LINE
  5
38F
100
AcDbEntity
  8
BEZUGSACHSEN
100
AcDbLine
 62
7
  6
CONTINUOUS
 10
579.563632988
 20
261.5883983003
 11
615.563632988
 21
261.5883983003
  0
LINE
  5
390
100
AcDbEntity
  8
RUNDUNGEN
100
AcDbLine
 62
7
  6
CONTINUOUS
 10
596.5869285246
 20
536.2520919835
 11
587.7351501564
 21
533.2041802646
  0
LINE
  5
391
100
AcDbEntity
  8
0
100
AcDbLine
 62
7
  6
CONTINUOUS
 10
587.7351501564
 20
533.2041802646
 11
586.9541389536
 21
532.9352565412
  0
LINE
  5
392
100
AcDbEntity
  8
RUNDUNGEN
100
AcDbLine
 62
7
  6
CONTINUOUS
 10
586.9541389536
 20
532.9352565412
 11
558.7970025203
 21
523.2399769561
  0
LINE
  5
393
100
AcDbEntity
  8
BEZUGSACHSEN
100
AcDbLine
 62
7
  6
CONTINUOUS
 10
582.063632988
 20
259.0883983003
 11
579.563632988
 21
261.5883983003
  0
LINE
  5
394
100
AcDbEntity
  8
RUNDUNGEN
100
AcDbLine
 62
7
  6
CONTINUOUS
 10
557.0330706107
 20
521.6236311585
 11
556.0395287076
 21
519.3920995076
  0
LINE
  5
395
100
AcDbEntity
  8
RUNDUNGEN
100
AcDbLine
 62
7
  6
CONTINUOUS
 10
544.6853610007
 20
493.8902213008
 11
546.563632988
 21
498.1088892558
  0
LINE
  5
396
100
AcDbEntity
  8
0
100
AcDbLine
 62
7
  6
CONTINUOUS
 10
546.563632988
 20
498.1088892558
 11
556.0395287076
 21
519.3920995076
  0
LINE
  5
397
100
AcDbEntity
  8
RUNDUNGEN
100
AcDbLine
 62
7
  6
CONTINUOUS
 10
540.563632988
 20
465.9724140752
 11
549.1036714675
 21
480.7641945992
  0
LINE
  5
398
100
AcDbEntity
  8
0
100
AcDbLine
 62
7
  6
CONTINUOUS
 10
562.5642447394
 20
322.0883983003
 11
632.5630212367
 21
322.0883983003
  0
LINE
  5
399
100
AcDbEntity
  8
0
100
AcDbLine
 62
7
  6
CONTINUOUS
 10
562.5642447394
 20
330.3383983003
 11
632.5630212367
 21
330.3383983003
  0
LINE
  5
39A
100
AcDbEntity
  8
RUNDUNGEN
100
AcDbLine
 62
7
  6
CONTINUOUS
 10
563.563632988
 20
330.5883983003
 11
631.563632988
 21
330.5883983003
  0
LINE
  5
39B
100
AcDbEntity
  8
0
100
AcDbLine
 62
7
  6
CONTINUOUS
 10
593.7252995702
 20
339.6526536383
 11
594.433632988
 21
339.8335046806
  0
LINE
  5
39C
100
AcDbEntity
  8
0
100
AcDbLine
 62
7
  6
CONTINUOUS
 10
593.902382988
 20
338.7483983003
 11
594.7877998236
 21
338.9292493584
  0
LINE
  5
39D
100
AcDbEntity
  8
0
100
AcDbLine
 62
7
  6
CONTINUOUS
 10
592.839882988
 20
338.7483983003
 11
593.902382988
 21
338.7483983003
  0
LINE
  5
39E
100
AcDbEntity
  8
0
100
AcDbLine
 62
7
  6
CONTINUOUS
 10
593.0169664058
 20
339.6526536383
 11
593.7252995702
 21
339.6526536383
  0
LINE
  5
39F
100
AcDbEntity
  8
0
100
AcDbLine
 62
7
  6
CONTINUOUS
 10
593.0169664058
 20
342.7271217369
 11
593.7252995702
 21
342.7271217369
  0
LINE
  5
3A0
100
AcDbEntity
  8
0
100
AcDbLine
 62
7
  6
CONTINUOUS
 10
600.808632988
 20
338.9292493584
 11
601.871132988
 21
338.7483983003
  0
LINE
  5
3A1
100
AcDbEntity
  8
0
100
AcDbLine
 62
7
  6
CONTINUOUS
 10
591.9544662791
 20
338.9292493584
 11
592.839882988
 21
338.7483983003
  0
LINE
  5
3A2
100
AcDbEntity
  8
0
100
AcDbLine
 62
7
  6
CONTINUOUS
 10
600.9857166591
 20
339.6526536383
 11
601.871132988
 21
339.4718025327
  0
LINE
  5
3A3
100
AcDbEntity
  8
0
100
AcDbLine
 62
7
  6
CONTINUOUS
 10
592.308632988
 20
339.8335046806
 11
593.0169664058
 21
339.6526536383
  0
LINE
  5
3A4
100
AcDbEntity
  8
0
100
AcDbLine
 62
7
  6
CONTINUOUS
 10
536.563632988
 20
504.9417238615
 11
536.563632988
 21
371.8384216517
  0
LINE
  5
3A5
100
AcDbEntity
  8
0
100
AcDbLine
 62
7
  6
CONTINUOUS
 10
540.2127800269
 20
462.0883983003
 11
540.2127800269
 21
412.0883983003
  0
LINE
  5
3A6
100
AcDbEntity
  8
RUNDUNGEN
100
AcDbLine
 62
7
  6
CONTINUOUS
 10
540.563632988
 20
465.9724140752
 11
540.563632988
 21
499.0289707215
  0
LINE
  5
3A7
100
AcDbEntity
  8
0
100
AcDbLine
 62
7
  6
CONTINUOUS
 10
542.2047340445
 20
464.3383983003
 11
542.2047340445
 21
462.0883983003
  0
LINE
  5
3A8
100
AcDbEntity
  8
0
100
AcDbLine
 62
7
  6
CONTINUOUS
 10
542.2047340445
 20
412.0883983003
 11
542.2047340445
 21
409.8383983003
  0
LINE
  5
3A9
100
AcDbEntity
  8
KONSTRUKTIONSELEMENTE
100
AcDbLine
 62
7
  6
CONTINUOUS
 10
549.2112304163
 20
448.3543555664
 11
549.0549805653
 21
447.8756322192
  0
LINE
  5
3AA
100
AcDbEntity
  8
KONSTRUKTIONSELEMENTE
100
AcDbLine
 62
7
  6
CONTINUOUS
 10
549.9924805653
 20
447.7160577701
 11
550.1487304163
 21
448.1947811173
  0
LINE
  5
3AB
100
AcDbEntity
  8
KONSTRUKTIONSELEMENTE
100
AcDbLine
 62
7
  6
CONTINUOUS
 10
549.5237305653
 20
434.4554195555
 11
549.8362307143
 21
435.0937174635
  0
LINE
  5
3AC
100
AcDbEntity
  8
KONSTRUKTIONSELEMENTE
100
AcDbLine
 62
7
  6
CONTINUOUS
 10
548.8987307143
 20
435.2532919126
 11
548.5862305653
 21
434.7745685654
  0
LINE
  5
3AD
100
AcDbEntity
  8
KONSTRUKTIONSELEMENTE
100
AcDbLine
 62
7
  6
CONTINUOUS
 10
549.5237305653
 20
447.0777599739
 11
549.9924805653
 21
447.7160577701
  0
LINE
  5
3AE
100
AcDbEntity
  8
KONSTRUKTIONSELEMENTE
100
AcDbLine
 62
7
  6
CONTINUOUS
 10
549.0549805653
 20
447.8756322192
 11
548.7424804163
 21
447.5564833211
  0
LINE
  5
3AF
100
AcDbEntity
  8
KONSTRUKTIONSELEMENTE
100
AcDbLine
 62
7
  6
CONTINUOUS
 10
548.8987307143
 20
446.7586110758
 11
549.5237305653
 21
447.0777599739
  0
LINE
  5
3B0
100
AcDbEntity
  8
0
100
AcDbLine
 62
7
  6
CONTINUOUS
 10
592.308632988
 20
342.5462706946
 11
593.0169664058
 21
342.7271217369
  0
LINE
  5
3B1
100
AcDbEntity
  8
0
100
AcDbLine
 62
7
  6
CONTINUOUS
 10
593.7252995702
 20
343.450525906
 11
594.433632988
 21
343.6313769482
  0
LINE
  5
3B2
100
AcDbEntity
  8
0
100
AcDbLine
 62
7
  6
CONTINUOUS
 10
592.308632988
 20
346.1632920467
 11
593.0169664058
 21
346.3441430889
  0
LINE
  5
3B3
100
AcDbEntity
  8
0
100
AcDbLine
 62
7
  6
CONTINUOUS
 10
628.0107176724
 20
355.5235046806
 11
628.7190483036
 21
355.7043557229
  0
LINE
  5
3B4
100
AcDbEntity
  8
0
100
AcDbLine
 62
7
  6
CONTINUOUS
 10
619.864882988
 20
355.5235046806
 11
620.5732176724
 21
355.7043557229
  0
LINE
  5
3B5
100
AcDbEntity
  8
0
100
AcDbLine
 62
7
  6
CONTINUOUS
 10
592.1315496969
 20
347.067547258
 11
593.0169664058
 21
347.2483983003
  0
LINE
  5
3B6
100
AcDbEntity
  8
0
100
AcDbLine
 62
7
  6
CONTINUOUS
 10
628.0107176724
 20
354.4383983003
 11
628.896132988
 21
354.6192493584
  0
LINE
  5
3B7
100
AcDbEntity
  8
0
100
AcDbLine
 62
7
  6
CONTINUOUS
 10
619.864882988
 20
354.4383983003
 11
620.7502983036
 21
354.6192493584
  0
LINE
  5
3B8
100
AcDbEntity
  8
0
100
AcDbLine
 62
7
  6
CONTINUOUS
 10
593.0169664058
 20
343.450525906
 11
593.7252995702
 21
343.450525906
  0
LINE
  5
3B9
100
AcDbEntity
  8
0
100
AcDbLine
 62
7
  6
CONTINUOUS
 10
597.9752998236
 20
343.8122279905
 11
599.3919666591
 21
343.8122279905
  0
LINE
  5
3BA
100
AcDbEntity
  8
0
100
AcDbLine
 62
7
  6
CONTINUOUS
 10
600.277382988
 20
343.8122279905
 11
602.2252993169
 21
343.8122279905
  0
LINE
  5
3BB
100
AcDbEntity
  8
0
100
AcDbLine
 62
7
  6
CONTINUOUS
 10
597.9752998236
 20
344.5356321596
 11
599.3919666591
 21
344.5356321596
  0
LINE
  5
3BC
100
AcDbEntity
  8
0
100
AcDbLine
 62
7
  6
CONTINUOUS
 10
600.277382988
 20
344.5356321596
 11
602.2252993169
 21
344.5356321596
  0
LINE
  5
3BD
100
AcDbEntity
  8
0
100
AcDbLine
 62
7
  6
CONTINUOUS
 10
599.3919666591
 20
345.9824410044
 11
600.277382988
 21
345.9824410044
  0
LINE
  5
3BE
100
AcDbEntity
  8
0
100
AcDbLine
 62
7
  6
CONTINUOUS
 10
593.0169664058
 20
346.3441430889
 11
593.7252995702
 21
346.3441430889
  0
LINE
  5
3BF
100
AcDbEntity
  8
0
100
AcDbLine
 62
7
  6
CONTINUOUS
 10
593.0169664058
 20
347.2483983003
 11
593.7252995702
 21
347.2483983003
  0
LINE
  5
3C0
100
AcDbEntity
  8
0
100
AcDbLine
 62
7
  6
CONTINUOUS
 10
593.7252995702
 20
347.2483983003
 11
594.6107161525
 21
347.067547258
  0
LINE
  5
3C1
100
AcDbEntity
  8
0
100
AcDbLine
 62
7
  6
CONTINUOUS
 10
593.7252995702
 20
342.7271217369
 11
594.433632988
 21
342.5462706946
  0
LINE
  5
3C2
100
AcDbEntity
  8
0
100
AcDbLine
 62
7
  6
CONTINUOUS
 10
592.308632988
 20
343.6313769482
 11
593.0169664058
 21
343.450525906
  0
LINE
  5
3C3
100
AcDbEntity
  8
0
100
AcDbLine
 62
7
  6
CONTINUOUS
 10
593.7252995702
 20
346.3441430889
 11
594.433632988
 21
346.1632920467
  0
LINE
  5
3C4
100
AcDbEntity
  8
0
100
AcDbLine
 62
7
  6
CONTINUOUS
 10
600.277382988
 20
339.1101004165
 11
600.808632988
 21
338.9292493584
  0
LINE
  5
3C5
100
AcDbEntity
  8
0
100
AcDbLine
 62
7
  6
CONTINUOUS
 10
591.6002996969
 20
340.1952067651
 11
592.308632988
 21
339.8335046806
  0
LINE
  5
3C6
100
AcDbEntity
  8
0
100
AcDbLine
 62
7
  6
CONTINUOUS
 10
591.246132988
 20
343.2696748637
 11
591.6002996969
 21
343.0888238214
  0
LINE
  5
3C7
100
AcDbEntity
  8
0
100
AcDbLine
 62
7
  6
CONTINUOUS
 10
594.433632988
 20
342.5462706946
 11
595.1419661525
 21
342.1845686101
  0
LINE
  5
3C8
100
AcDbEntity
  8
0
100
AcDbLine
 62
7
  6
CONTINUOUS
 10
595.1419661525
 20
343.0888238214
 11
595.496132988
 21
342.9079727792
  0
LINE
  5
3C9
100
AcDbEntity
  8
0
100
AcDbLine
 62
7
  6
CONTINUOUS
 10
591.0690496336
 20
339.4718025327
 11
591.9544662791
 21
338.9292493584
  0
LINE
  5
3CA
100
AcDbEntity
  8
0
100
AcDbLine
 62
7
  6
CONTINUOUS
 10
599.746132988
 20
339.4718025327
 11
600.277382988
 21
339.1101004165
  0
LINE
  5
3CB
100
AcDbEntity
  8
0
100
AcDbLine
 62
7
  6
CONTINUOUS
 10
600.4544666591
 20
340.0143557229
 11
600.9857166591
 21
339.6526536383
  0
LINE
  5
3CC
100
AcDbEntity
  8
0
100
AcDbLine
 62
7
  6
CONTINUOUS
 10
591.6002996969
 20
344.1739300751
 11
592.308632988
 21
343.6313769482
  0
LINE
  5
3CD
100
AcDbEntity
  8
KONSTRUKTIONSELEMENTE
100
AcDbLine
 62
7
  6
CONTINUOUS
 10
544.3674805653
 20
450.5883983003
 11
544.3674805653
 21
443.0883983003
  0
LINE
  5
3CE
100
AcDbEntity
  8
KONSTRUKTIONSELEMENTE
100
AcDbLine
 62
7
  6
CONTINUOUS
 10
544.3674805653
 20
440.8383983003
 11
544.3674805653
 21
435.8915897088
  0
LINE
  5
3CF
100
AcDbEntity
  8
KONSTRUKTIONSELEMENTE
100
AcDbLine
 62
7
  6
CONTINUOUS
 10
544.3674805653
 20
431.8383983003
 11
544.3674805653
 21
424.3383983003
  0
LINE
  5
3D0
100
AcDbEntity
  8
KONSTRUKTIONSELEMENTE
100
AcDbLine
 62
7
  6
CONTINUOUS
 10
545.3049805653
 20
425.2958451064
 11
545.3049805653
 21
430.8809516059
  0
LINE
  5
3D1
100
AcDbEntity
  8
KONSTRUKTIONSELEMENTE
100
AcDbLine
 62
7
  6
CONTINUOUS
 10
545.3049805653
 20
435.8915897088
 11
545.3049805653
 21
440.8383983003
  0
LINE
  5
3D2
100
AcDbEntity
  8
KONSTRUKTIONSELEMENTE
100
AcDbLine
 62
7
  6
CONTINUOUS
 10
545.3049805653
 20
443.0883983003
 11
545.3049805653
 21
446.4394621776
  0
LINE
  5
3D3
100
AcDbEntity
  8
KONSTRUKTIONSELEMENTE
100
AcDbLine
 62
7
  6
CONTINUOUS
 10
545.3049805653
 20
447.396908872
 11
545.3049805653
 21
449.790526055
  0
LINE
  5
3D4
100
AcDbEntity
  8
KONSTRUKTIONSELEMENTE
100
AcDbLine
 62
7
  6
CONTINUOUS
 10
549.0549805653
 20
440.8383983003
 11
549.0549805653
 21
435.8915897088
  0
LINE
  5
3D5
100
AcDbEntity
  8
KONSTRUKTIONSELEMENTE
100
AcDbLine
 62
7
  6
CONTINUOUS
 10
549.2112304163
 20
448.8330793606
 11
549.2112304163
 21
448.3543555664
  0
LINE
  5
3D6
100
AcDbEntity
  8
KONSTRUKTIONSELEMENTE
100
AcDbLine
 62
7
  6
CONTINUOUS
 10
549.6799804163
 20
429.2852066683
 11
549.6799804163
 21
426.8915897088
  0
LINE
  5
3D7
100
AcDbEntity
  8
KONSTRUKTIONSELEMENTE
100
AcDbLine
 62
7
  6
CONTINUOUS
 10
549.9924805653
 20
435.8915897088
 11
549.9924805653
 21
440.8383983003
  0
LINE
  5
3D8
100
AcDbEntity
  8
KONSTRUKTIONSELEMENTE
100
AcDbLine
 62
7
  6
CONTINUOUS
 10
550.1487304163
 20
448.1947811173
 11
550.1487304163
 21
448.8330793606
  0
LINE
  5
3D9
100
AcDbEntity
  8
KONSTRUKTIONSELEMENTE
100
AcDbLine
 62
7
  6
CONTINUOUS
 10
550.6174804163
 20
426.8915897088
 11
550.6174804163
 21
429.2852066683
  0
LINE
  5
3DA
100
AcDbEntity
  8
0
100
AcDbLine
 62
7
  6
CONTINUOUS
 10
550.9225319316
 20
464.3383983003
 11
550.9225319316
 21
462.0883983003
  0
LINE
  5
3DB
100
AcDbEntity
  8
0
100
AcDbLine
 62
7
  6
CONTINUOUS
 10
550.9225319316
 20
412.0883983003
 11
550.9225319316
 21
409.8383983003
  0
LINE
  5
3DC
100
AcDbEntity
  8
0
100
AcDbLine
 62
7
  6
CONTINUOUS
 10
552.9024809557
 20
462.0883983003
 11
552.9024809557
 21
412.0883983003
  0
LINE
  5
3DD
100
AcDbEntity
  8
0
100
AcDbLine
 62
7
  6
CONTINUOUS
 10
556.563632988
 20
496.6654417656
 11
556.6111423715
 21
497.639059005
  0
LINE
  5
3DE
100
AcDbEntity
  8
KONSTRUKTIONSELEMENTE
100
AcDbLine
 62
7
  6
CONTINUOUS
 10
549.8362307143
 20
435.0937174635
 11
549.9924805653
 21
435.8915897088
  0
LINE
  5
3DF
100
AcDbEntity
  8
KONSTRUKTIONSELEMENTE
100
AcDbLine
 62
7
  6
CONTINUOUS
 10
550.4612305653
 20
426.0937174635
 11
550.6174804163
 21
426.8915897088
  0
LINE
  5
3E0
100
AcDbEntity
  8
KONSTRUKTIONSELEMENTE
100
AcDbLine
 62
7
  6
CONTINUOUS
 10
549.0549805653
 20
435.8915897088
 11
548.8987307143
 21
435.2532919126
  0
LINE
  5
3E1
100
AcDbEntity
  8
KONSTRUKTIONSELEMENTE
100
AcDbLine
 62
7
  6
CONTINUOUS
 10
549.6799804163
 20
426.8915897088
 11
549.5237305653
 21
426.2532919126
  0
LINE
  5
3E2
100
AcDbEntity
  8
KONSTRUKTIONSELEMENTE
100
AcDbLine
 62
7
  6
CONTINUOUS
 10
550.1487304163
 20
425.4554195555
 11
550.4612305653
 21
426.0937174635
  0
LINE
  5
3E3
100
AcDbEntity
  8
KONSTRUKTIONSELEMENTE
100
AcDbLine
 62
7
  6
CONTINUOUS
 10
549.5237305653
 20
426.2532919126
 11
549.2112304163
 21
425.7745685654
  0
LINE
  5
3E4
100
AcDbEntity
  8
KONSTRUKTIONSELEMENTE
100
AcDbLine
 62
7
  6
CONTINUOUS
 10
548.8987307143
 20
433.8171217034
 11
549.5237305653
 21
434.4554195555
  0
LINE
  5
3E5
100
AcDbEntity
  8
KONSTRUKTIONSELEMENTE
100
AcDbLine
 62
7
  6
CONTINUOUS
 10
549.5237305653
 20
424.8171217034
 11
550.1487304163
 21
425.4554195555
  0
LINE
  5
3E6
100
AcDbEntity
  8
KONSTRUKTIONSELEMENTE
100
AcDbLine
 62
7
  6
CONTINUOUS
 10
548.5862305653
 20
434.7745685654
 11
548.1174805653
 21
434.4554195555
  0
LINE
  5
3E7
100
AcDbEntity
  8
KONSTRUKTIONSELEMENTE
100
AcDbLine
 62
7
  6
CONTINUOUS
 10
548.2737304163
 20
433.4979727633
 11
548.8987307143
 21
433.8171217034
  0
LINE
  5
3E8
100
AcDbEntity
  8
KONSTRUKTIONSELEMENTE
100
AcDbLine
 62
7
  6
CONTINUOUS
 10
548.7424804163
 20
447.5564833211
 11
548.2737304163
 21
447.396908872
  0
LINE
  5
3E9
100
AcDbEntity
  8
0
100
AcDbLine
 62
7
  6
CONTINUOUS
 10
626.239882988
 20
362.757547258
 11
626.9482176724
 21
362.9383983003
  0
LINE
  5
3EA
100
AcDbEntity
  8
0
100
AcDbLine
 62
7
  6
CONTINUOUS
 10
592.771132988
 20
355.5235046806
 11
593.4794656458
 21
355.7043557229
  0
LINE
  5
3EB
100
AcDbEntity
  8
0
100
AcDbLine
 62
7
  6
CONTINUOUS
 10
590.4690503302
 20
361.6724410044
 11
591.177382988
 21
361.8532920467
  0
LINE
  5
3EC
100
AcDbEntity
  8
0
100
AcDbLine
 62
7
  6
CONTINUOUS
 10
592.771132988
 20
354.4383983003
 11
593.6565503302
 21
354.6192493584
  0
LINE
  5
3ED
100
AcDbEntity
  8
0
100
AcDbLine
 62
7
  6
CONTINUOUS
 10
604.8127983036
 20
358.2362706946
 11
605.6982176724
 21
358.4171217369
  0
LINE
  5
3EE
100
AcDbEntity
  8
0
100
AcDbLine
 62
7
  6
CONTINUOUS
 10
584.6253003302
 20
354.4383983003
 11
585.5107156458
 21
354.6192493584
  0
LINE
  5
3EF
100
AcDbEntity
  8
0
100
AcDbLine
 62
7
  6
CONTINUOUS
 10
566.9169664058
 20
354.4383983003
 11
568.333632988
 21
354.4383983003
  0
LINE
  5
3F0
100
AcDbEntity
  8
0
100
AcDbLine
 62
7
  6
CONTINUOUS
 10
572.583632988
 20
354.4383983003
 11
578.958632988
 21
354.4383983003
  0
LINE
  5
3F1
100
AcDbEntity
  8
0
100
AcDbLine
 62
7
  6
CONTINUOUS
 10
580.3752993169
 20
354.4383983003
 11
584.6253003302
 21
354.4383983003
  0
LINE
  5
3F2
100
AcDbEntity
  8
0
100
AcDbLine
 62
7
  6
CONTINUOUS
 10
591.177382988
 20
354.4383983003
 11
592.771132988
 21
354.4383983003
  0
LINE
  5
3F3
100
AcDbEntity
  8
0
100
AcDbLine
 62
7
  6
CONTINUOUS
 10
600.5627983036
 20
354.4383983003
 11
601.6252983036
 21
354.4383983003
  0
LINE
  5
3F4
100
AcDbEntity
  8
0
100
AcDbLine
 62
7
  6
CONTINUOUS
 10
608.5315483036
 20
354.4383983003
 11
614.9065483036
 21
354.4383983003
  0
LINE
  5
3F5
100
AcDbEntity
  8
0
100
AcDbLine
 62
7
  6
CONTINUOUS
 10
619.1565483036
 20
354.4383983003
 11
619.864882988
 21
354.4383983003
  0
LINE
  5
3F6
100
AcDbEntity
  8
0
100
AcDbLine
 62
7
  6
CONTINUOUS
 10
626.5940483036
 20
354.4383983003
 11
628.0107176724
 21
354.4383983003
  0
LINE
  5
3F7
100
AcDbEntity
  8
0
100
AcDbLine
 62
7
  6
CONTINUOUS
 10
573.646132988
 20
355.5235046806
 11
578.958632988
 21
355.5235046806
  0
LINE
  5
3F8
100
AcDbEntity
  8
0
100
AcDbLine
 62
7
  6
CONTINUOUS
 10
581.4378003302
 20
355.5235046806
 11
584.802382988
 21
355.5235046806
  0
LINE
  5
3F9
100
AcDbEntity
  8
0
100
AcDbLine
 62
7
  6
CONTINUOUS
 10
591.177382988
 20
355.5235046806
 11
592.771132988
 21
355.5235046806
  0
LINE
  5
3FA
100
AcDbEntity
  8
0
100
AcDbLine
 62
7
  6
CONTINUOUS
 10
609.5940483036
 20
355.5235046806
 11
614.9065483036
 21
355.5235046806
  0
LINE
  5
3FB
100
AcDbEntity
  8
0
100
AcDbLine
 62
7
  6
CONTINUOUS
 10
619.1565483036
 20
355.5235046806
 11
619.864882988
 21
355.5235046806
  0
LINE
  5
3FC
100
AcDbEntity
  8
0
100
AcDbLine
 62
7
  6
CONTINUOUS
 10
626.5940483036
 20
355.5235046806
 11
628.0107176724
 21
355.5235046806
  0
LINE
  5
3FD
100
AcDbEntity
  8
0
100
AcDbLine
 62
7
  6
CONTINUOUS
 10
624.114882988
 20
356.7894621031
 11
625.177382988
 21
356.7894621031
  0
LINE
  5
3FE
100
AcDbEntity
  8
0
100
AcDbLine
 62
7
  6
CONTINUOUS
 10
596.6669656458
 20
357.5128662722
 11
599.146132988
 21
357.5128662722
  0
LINE
  5
3FF
100
AcDbEntity
  8
0
100
AcDbLine
 62
7
  6
CONTINUOUS
 10
592.5940503302
 20
358.0554196524
 11
594.1878003302
 21
358.0554196524
  0
LINE
  5
400
100
AcDbEntity
  8
0
100
AcDbLine
 62
7
  6
CONTINUOUS
 10
581.4378003302
 20
358.2362706946
 11
584.802382988
 21
358.2362706946
  0
LINE
  5
401
100
AcDbEntity
  8
0
100
AcDbLine
 62
7
  6
CONTINUOUS
 10
601.6252983036
 20
358.2362706946
 11
604.8127983036
 21
358.2362706946
  0
LINE
  5
402
100
AcDbEntity
  8
0
100
AcDbLine
 62
7
  6
CONTINUOUS
 10
626.9482176724
 20
358.2362706946
 11
628.0107176724
 21
358.2362706946
  0
LINE
  5
403
100
AcDbEntity
  8
0
100
AcDbLine
 62
7
  6
CONTINUOUS
 10
599.146132988
 20
358.4171217369
 11
596.6669656458
 21
358.4171217369
  0
LINE
  5
404
100
AcDbEntity
  8
0
100
AcDbLine
 62
7
  6
CONTINUOUS
 10
592.5940503302
 20
359.140525906
 11
595.2503003302
 21
359.140525906
  0
LINE
  5
405
100
AcDbEntity
  8
0
100
AcDbLine
 62
7
  6
CONTINUOUS
 10
581.4378003302
 20
359.3213769482
 11
584.802382988
 21
359.3213769482
  0
LINE
  5
406
100
AcDbEntity
  8
0
100
AcDbLine
 62
7
  6
CONTINUOUS
 10
601.6252983036
 20
359.3213769482
 11
604.989882988
 21
359.3213769482
  0
LINE
  5
407
100
AcDbEntity
  8
0
100
AcDbLine
 62
7
  6
CONTINUOUS
 10
626.9482176724
 20
359.3213769482
 11
628.0107176724
 21
359.3213769482
  0
LINE
  5
408
100
AcDbEntity
  8
0
100
AcDbLine
 62
7
  6
CONTINUOUS
 10
594.1878003302
 20
360.7681852864
 11
595.2503003302
 21
360.7681852864
  0
LINE
  5
409
100
AcDbEntity
  8
0
100
AcDbLine
 62
7
  6
CONTINUOUS
 10
629.0732176724
 20
360.9490368353
 11
630.1357176724
 21
360.9490368353
  0
LINE
  5
40A
100
AcDbEntity
  8
0
100
AcDbLine
 62
7
  6
CONTINUOUS
 10
581.4378003302
 20
361.8532920467
 11
584.802382988
 21
361.8532920467
  0
LINE
  5
40B
100
AcDbEntity
  8
0
100
AcDbLine
 62
7
  6
CONTINUOUS
 10
591.177382988
 20
361.8532920467
 11
592.771132988
 21
361.8532920467
  0
LINE
  5
40C
100
AcDbEntity
  8
0
100
AcDbLine
 62
7
  6
CONTINUOUS
 10
626.9482176724
 20
361.8532920467
 11
628.0107176724
 21
361.8532920467
  0
LINE
  5
40D
100
AcDbEntity
  8
0
100
AcDbLine
 62
7
  6
CONTINUOUS
 10
601.6252983036
 20
362.0341430889
 11
604.989882988
 21
362.0341430889
  0
LINE
  5
40E
100
AcDbEntity
  8
0
100
AcDbLine
 62
7
  6
CONTINUOUS
 10
564.083632988
 20
362.9383983003
 11
565.146132988
 21
362.9383983003
  0
LINE
  5
40F
100
AcDbEntity
  8
0
100
AcDbLine
 62
7
  6
CONTINUOUS
 10
570.1044661525
 20
362.9383983003
 11
571.1669661525
 21
362.9383983003
  0
LINE
  5
410
100
AcDbEntity
  8
0
100
AcDbLine
 62
7
  6
CONTINUOUS
 10
572.583632988
 20
362.9383983003
 11
573.646132988
 21
362.9383983003
  0
LINE
  5
411
100
AcDbEntity
  8
0
100
AcDbLine
 62
7
  6
CONTINUOUS
 10
580.3752993169
 20
362.9383983003
 11
584.6253003302
 21
362.9383983003
  0
LINE
  5
412
100
AcDbEntity
  8
0
100
AcDbLine
 62
7
  6
CONTINUOUS
 10
591.177382988
 20
362.9383983003
 11
592.771132988
 21
362.9383983003
  0
LINE
  5
413
100
AcDbEntity
  8
0
100
AcDbLine
 62
7
  6
CONTINUOUS
 10
600.5627983036
 20
362.9383983003
 11
604.8127983036
 21
362.9383983003
  0
LINE
  5
414
100
AcDbEntity
  8
0
100
AcDbLine
 62
7
  6
CONTINUOUS
 10
608.5315483036
 20
362.9383983003
 11
609.5940483036
 21
362.9383983003
  0
LINE
  5
415
100
AcDbEntity
  8
0
100
AcDbLine
 62
7
  6
CONTINUOUS
 10
616.3232176724
 20
362.9383983003
 11
617.3857176724
 21
362.9383983003
  0
LINE
  5
416
100
AcDbEntity
  8
0
100
AcDbLine
 62
7
  6
CONTINUOUS
 10
621.6357176724
 20
362.9383983003
 11
622.6982176724
 21
362.9383983003
  0
LINE
  5
417
100
AcDbEntity
  8
0
100
AcDbLine
 62
7
  6
CONTINUOUS
 10
626.9482176724
 20
362.9383983003
 11
627.833632988
 21
362.9383983003
  0
LINE
  5
418
100
AcDbEntity
  8
0
100
AcDbLine
 62
7
  6
CONTINUOUS
 10
590.2919656458
 20
354.6192493584
 11
591.177382988
 21
354.4383983003
  0
LINE
  5
419
100
AcDbEntity
  8
0
100
AcDbLine
 62
7
  6
CONTINUOUS
 10
618.271132988
 20
354.6192493584
 11
619.1565483036
 21
354.4383983003
  0
LINE
  5
41A
100
AcDbEntity
  8
0
100
AcDbLine
 62
7
  6
CONTINUOUS
 10
584.6253003302
 20
362.9383983003
 11
585.5107156458
 21
362.757547258
  0
LINE
  5
41B
100
AcDbEntity
  8
0
100
AcDbLine
 62
7
  6
CONTINUOUS
 10
625.708632988
 20
354.6192493584
 11
626.5940483036
 21
354.4383983003
  0
LINE
  5
41C
100
AcDbEntity
  8
0
100
AcDbLine
 62
7
  6
CONTINUOUS
 10
592.771132988
 20
362.9383983003
 11
593.6565503302
 21
362.757547258
  0
LINE
  5
41D
100
AcDbEntity
  8
0
100
AcDbLine
 62
7
  6
CONTINUOUS
 10
590.4690503302
 20
355.7043557229
 11
591.177382988
 21
355.5235046806
  0
LINE
  5
41E
100
AcDbEntity
  8
0
100
AcDbLine
 62
7
  6
CONTINUOUS
 10
592.771132988
 20
361.8532920467
 11
593.4794656458
 21
361.6724410044
  0
LINE
  5
41F
100
AcDbEntity
  8
0
100
AcDbLine
 62
7
  6
CONTINUOUS
 10
618.4482176724
 20
355.7043557229
 11
619.1565483036
 21
355.5235046806
  0
LINE
  5
420
100
AcDbEntity
  8
0
100
AcDbLine
 62
7
  6
CONTINUOUS
 10
625.8857176724
 20
355.7043557229
 11
626.5940483036
 21
355.5235046806
  0
LINE
  5
421
100
AcDbEntity
  8
0
100
AcDbLine
 62
7
  6
CONTINUOUS
 10
584.802382988
 20
358.2362706946
 11
585.333632988
 21
358.0554196524
  0
LINE
  5
422
100
AcDbEntity
  8
0
100
AcDbLine
 62
7
  6
CONTINUOUS
 10
584.802382988
 20
361.8532920467
 11
585.333632988
 21
361.6724410044
  0
LINE
  5
423
100
AcDbEntity
  8
0
100
AcDbLine
 62
7
  6
CONTINUOUS
 10
589.583632988
 20
354.9809514904
 11
590.2919656458
 21
354.6192493584
  0
LINE
  5
424
100
AcDbEntity
  8
0
100
AcDbLine
 62
7
  6
CONTINUOUS
 10
585.864882988
 20
358.7788238214
 11
586.2190503302
 21
358.5979727792
  0
LINE
  5
425
100
AcDbEntity
  8
0
100
AcDbLine
 62
7
  6
CONTINUOUS
 10
594.6107161525
 20
347.067547258
 11
595.496132988
 21
346.5249941312
  0
LINE
  5
426
100
AcDbEntity
  8
0
100
AcDbLine
 62
7
  6
CONTINUOUS
 10
589.9378003302
 20
356.0660579341
 11
590.4690503302
 21
355.7043557229
  0
LINE
  5
427
100
AcDbEntity
  8
0
100
AcDbLine
 62
7
  6
CONTINUOUS
 10
595.496132988
 20
342.9079727792
 11
596.2044661525
 21
342.3654196524
  0
LINE
  5
428
100
AcDbEntity
  8
0
100
AcDbLine
 62
7
  6
CONTINUOUS
 10
594.433632988
 20
346.1632920467
 11
595.1419661525
 21
345.6207389199
  0
LINE
  5
429
100
AcDbEntity
  8
0
100
AcDbLine
 62
7
  6
CONTINUOUS
 10
585.5107156458
 20
362.757547258
 11
586.2190503302
 21
362.2149941312
  0
LINE
  5
42A
100
AcDbEntity
  8
0
100
AcDbLine
 62
7
  6
CONTINUOUS
 10
590.5377996652
 20
340.0143557229
 11
591.0690496336
 21
339.4718025327
  0
LINE
  5
42B
100
AcDbEntity
  8
0
100
AcDbLine
 62
7
  6
CONTINUOUS
 10
590.714882988
 20
343.8122279905
 11
591.246132988
 21
343.2696748637
  0
LINE
  5
42C
100
AcDbEntity
  8
0
100
AcDbLine
 62
7
  6
CONTINUOUS
 10
595.496132988
 20
346.5249941312
 11
596.027382988
 21
345.9824410044
  0
LINE
  5
42D
100
AcDbEntity
  8
0
100
AcDbLine
 62
7
  6
CONTINUOUS
 10
585.333632988
 20
358.0554196524
 11
585.6878003302
 21
357.6937175678
  0
LINE
  5
42E
100
AcDbEntity
  8
0
100
AcDbLine
 62
7
  6
CONTINUOUS
 10
591.0690496336
 20
340.9186110609
 11
591.6002996969
 21
340.1952067651
  0
LINE
  5
42F
100
AcDbEntity
  8
0
100
AcDbLine
 62
7
  6
CONTINUOUS
 10
565.146132988
 20
362.9383983003
 11
567.6252995702
 21
355.5235046806
  0
LINE
  5
430
100
AcDbEntity
  8
0
100
AcDbLine
 62
7
  6
CONTINUOUS
 10
564.083632988
 20
362.9383983003
 11
566.9169664058
 21
354.4383983003
  0
LINE
  5
431
100
AcDbEntity
  8
KONSTRUKTIONSELEMENTE
100
AcDbLine
 62
7
  6
CONTINUOUS
 10
545.4612305281
 20
435.2532919126
 11
545.3049805653
 21
435.8915897088
  0
LINE
  5
432
100
AcDbEntity
  8
KONSTRUKTIONSELEMENTE
100
AcDbLine
 62
7
  6
CONTINUOUS
 10
544.3674805653
 20
435.8915897088
 11
544.52373057
 21
435.0937174635
  0
LINE
  5
433
100
AcDbEntity
  8
0
100
AcDbLine
 62
7
  6
CONTINUOUS
 10
556.563632988
 20
383.3383983003
 11
556.563632988
 21
496.6654417656
  0
LINE
  5
434
100
AcDbEntity
  8
RUNDUNGEN
100
AcDbLine
 62
7
  6
CONTINUOUS
 10
559.063632988
 20
335.0883983003
 11
559.063632988
 21
386.0883983003
  0
LINE
  5
435
100
AcDbEntity
  8
0
100
AcDbLine
 62
7
  6
CONTINUOUS
 10
559.063632988
 20
335.0883983003
 11
559.063632988
 21
386.0883983003
  0
LINE
  5
436
100
AcDbEntity
  8
0
100
AcDbLine
 62
7
  6
CONTINUOUS
 10
562.563632988
 20
399.0883983003
 11
562.563632988
 21
390.8383983003
  0
LINE
  5
437
100
AcDbEntity
  8
0
100
AcDbLine
 62
7
  6
CONTINUOUS
 10
562.563632988
 20
330.3383983003
 11
562.563632988
 21
322.0883983003
  0
LINE
  5
438
100
AcDbEntity
  8
KONSTRUKTIONSELEMENTE
100
AcDbLine
 62
7
  6
CONTINUOUS
 10
549.2112304163
 20
425.7745685654
 11
548.7424804163
 21
425.4554195555
  0
LINE
  5
439
100
AcDbEntity
  8
KONSTRUKTIONSELEMENTE
100
AcDbLine
 62
7
  6
CONTINUOUS
 10
548.8987307143
 20
424.4979727633
 11
549.5237305653
 21
424.8171217034
  0
LINE
  5
43A
100
AcDbEntity
  8
0
100
AcDbLine
 62
7
  6
CONTINUOUS
 10
609.178632988
 20
371.592653616
 11
610.0952987805
 21
371.8266961413
  0
LINE
  5
43B
100
AcDbEntity
  8
0
100
AcDbLine
 62
7
  6
CONTINUOUS
 10
598.178632988
 20
371.592653616
 11
599.0953000918
 21
371.8266961413
  0
LINE
  5
43C
100
AcDbEntity
  8
0
100
AcDbLine
 62
7
  6
CONTINUOUS
 10
590.2919656458
 20
362.757547258
 11
591.177382988
 21
362.9383983003
  0
LINE
  5
43D
100
AcDbEntity
  8
0
100
AcDbLine
 62
7
  6
CONTINUOUS
 10
609.178632988
 20
370.1883983003
 11
610.3244671955
 21
370.4224408461
  0
LINE
  5
43E
100
AcDbEntity
  8
0
100
AcDbLine
 62
7
  6
CONTINUOUS
 10
598.178632988
 20
370.1883983003
 11
599.3244658842
 21
370.4224408461
  0
LINE
  5
43F
100
AcDbEntity
  8
0
100
AcDbLine
 62
7
  6
CONTINUOUS
 10
583.053632988
 20
370.1883983003
 11
584.428632988
 21
370.1883983003
  0
LINE
  5
440
100
AcDbEntity
  8
0
100
AcDbLine
 62
7
  6
CONTINUOUS
 10
590.1577994361
 20
370.1883983003
 11
591.7619665399
 21
370.1883983003
  0
LINE
  5
441
100
AcDbEntity
  8
0
100
AcDbLine
 62
7
  6
CONTINUOUS
 10
597.2619658842
 20
370.1883983003
 11
598.178632988
 21
370.1883983003
  0
LINE
  5
442
100
AcDbEntity
  8
0
100
AcDbLine
 62
7
  6
CONTINUOUS
 10
603.678632988
 20
370.1883983003
 11
609.178632988
 21
370.1883983003
  0
LINE
  5
443
100
AcDbEntity
  8
0
100
AcDbLine
 62
7
  6
CONTINUOUS
 10
597.2619658842
 20
371.592653616
 11
598.178632988
 21
371.592653616
  0
LINE
  5
444
100
AcDbEntity
  8
0
100
AcDbLine
 62
7
  6
CONTINUOUS
 10
605.053632988
 20
371.592653616
 11
609.178632988
 21
371.592653616
  0
LINE
  5
445
100
AcDbEntity
  8
0
100
AcDbLine
 62
7
  6
CONTINUOUS
 10
584.428632988
 20
375.1032919871
 11
588.3244662121
 21
375.1032919871
  0
LINE
  5
446
100
AcDbEntity
  8
0
100
AcDbLine
 62
7
  6
CONTINUOUS
 10
604.8127983036
 20
362.9383983003
 11
605.6982176724
 21
362.757547258
  0
LINE
  5
447
100
AcDbEntity
  8
0
100
AcDbLine
 62
7
  6
CONTINUOUS
 10
628.0107176724
 20
359.3213769482
 11
628.896132988
 21
359.140525906
  0
LINE
  5
448
100
AcDbEntity
  8
0
100
AcDbLine
 62
7
  6
CONTINUOUS
 10
627.833632988
 20
362.9383983003
 11
628.7190483036
 21
362.757547258
  0
LINE
  5
449
100
AcDbEntity
  8
0
100
AcDbLine
 62
7
  6
CONTINUOUS
 10
596.116132988
 20
370.4224408461
 11
597.2619658842
 21
370.1883983003
  0
LINE
  5
44A
100
AcDbEntity
  8
0
100
AcDbLine
 62
7
  6
CONTINUOUS
 10
626.239882988
 20
358.4171217369
 11
626.9482176724
 21
358.2362706946
  0
LINE
  5
44B
100
AcDbEntity
  8
0
100
AcDbLine
 62
7
  6
CONTINUOUS
 10
628.0107176724
 20
358.2362706946
 11
628.7190483036
 21
358.0554196524
  0
LINE
  5
44C
100
AcDbEntity
  8
0
100
AcDbLine
 62
7
  6
CONTINUOUS
 10
596.3453000918
 20
371.8266961413
 11
597.2619658842
 21
371.592653616
  0
LINE
  5
44D
100
AcDbEntity
  8
0
100
AcDbLine
 62
7
  6
CONTINUOUS
 10
604.989882988
 20
362.0341430889
 11
605.521132988
 21
361.8532920467
  0
LINE
  5
44E
100
AcDbEntity
  8
0
100
AcDbLine
 62
7
  6
CONTINUOUS
 10
626.4169676724
 20
359.5022279905
 11
626.9482176724
 21
359.3213769482
  0
LINE
  5
44F
100
AcDbEntity
  8
0
100
AcDbLine
 62
7
  6
CONTINUOUS
 10
628.0107176724
 20
361.8532920467
 11
628.5419676724
 21
361.6724410044
  0
LINE
  5
450
100
AcDbEntity
  8
0
100
AcDbLine
 62
7
  6
CONTINUOUS
 10
593.6565503302
 20
362.757547258
 11
594.364882988
 21
362.3958451735
  0
LINE
  5
451
100
AcDbEntity
  8
0
100
AcDbLine
 62
7
  6
CONTINUOUS
 10
617.5627983036
 20
354.9809514904
 11
618.271132988
 21
354.6192493584
  0
LINE
  5
452
100
AcDbEntity
  8
0
100
AcDbLine
 62
7
  6
CONTINUOUS
 10
595.1994658842
 20
370.8905259581
 11
596.116132988
 21
370.4224408461
  0
LINE
  5
453
100
AcDbEntity
  8
0
100
AcDbLine
 62
7
  6
CONTINUOUS
 10
593.4794656458
 20
361.6724410044
 11
594.0107156458
 21
361.3107389199
  0
LINE
  5
454
100
AcDbEntity
  8
0
100
AcDbLine
 62
7
  6
CONTINUOUS
 10
588.8753003302
 20
355.7043557229
 11
589.583632988
 21
354.9809514904
  0
LINE
  5
455
100
AcDbEntity
  8
0
100
AcDbLine
 62
7
  6
CONTINUOUS
 10
585.333632988
 20
361.6724410044
 11
585.6878003302
 21
361.3107389199
  0
LINE
  5
456
100
AcDbEntity
  8
0
100
AcDbLine
 62
7
  6
CONTINUOUS
 10
594.364882988
 20
362.3958451735
 11
595.0732156458
 21
361.6724410044
  0
LINE
  5
457
100
AcDbEntity
  8
0
100
AcDbLine
 62
7
  6
CONTINUOUS
 10
595.1419661525
 20
342.1845686101
 11
595.6732161525
 21
341.4611641877
  0
LINE
  5
458
100
AcDbEntity
  8
0
100
AcDbLine
 62
7
  6
CONTINUOUS
 10
586.2190503302
 20
358.5979727792
 11
586.7503003302
 21
357.8745686101
  0
LINE
  5
459
100
AcDbEntity
  8
0
100
AcDbLine
 62
7
  6
CONTINUOUS
 10
586.2190503302
 20
362.2149941312
 11
586.7503003302
 21
361.4915899621
  0
LINE
  5
45A
100
AcDbEntity
  8
0
100
AcDbLine
 62
7
  6
CONTINUOUS
 10
591.246132988
 20
344.7164832019
 11
591.6002996969
 21
344.1739300751
  0
LINE
  5
45B
100
AcDbEntity
  8
0
100
AcDbLine
 62
7
  6
CONTINUOUS
 10
595.1419661525
 20
345.6207389199
 11
595.496132988
 21
345.0781852864
  0
LINE
  5
45C
100
AcDbEntity
  8
0
100
AcDbLine
 62
7
  6
CONTINUOUS
 10
589.583632988
 20
356.6086110609
 11
589.9378003302
 21
356.0660579341
  0
LINE
  5
45D
100
AcDbEntity
  8
KONSTRUKTIONSELEMENTE
100
AcDbLine
 62
7
  6
CONTINUOUS
 10
544.52373057
 20
435.0937174635
 11
544.8362305653
 21
434.4554195555
  0
LINE
  5
45E
100
AcDbEntity
  8
0
100
AcDbLine
 62
7
  6
CONTINUOUS
 10
590.3607163266
 20
344.5356321596
 11
590.714882988
 21
343.8122279905
  0
LINE
  5
45F
100
AcDbEntity
  8
KONSTRUKTIONSELEMENTE
100
AcDbLine
 62
7
  6
CONTINUOUS
 10
550.4612305653
 20
430.0830793606
 11
550.1487304163
 21
430.7213771569
  0
LINE
  5
460
100
AcDbEntity
  8
KONSTRUKTIONSELEMENTE
100
AcDbLine
 62
7
  6
CONTINUOUS
 10
547.9612304908
 20
446.4394621776
 11
549.2112304163
 21
443.0883983003
  0
LINE
  5
461
100
AcDbEntity
  8
KONSTRUKTIONSELEMENTE
100
AcDbLine
 62
7
  6
CONTINUOUS
 10
549.0549805653
 20
449.3118027078
 11
549.2112304163
 21
448.8330793606
  0
LINE
  5
462
100
AcDbEntity
  8
KONSTRUKTIONSELEMENTE
100
AcDbLine
 62
7
  6
CONTINUOUS
 10
550.1487304163
 20
448.8330793606
 11
549.9924805653
 21
449.3118027078
  0
LINE
  5
463
100
AcDbEntity
  8
KONSTRUKTIONSELEMENTE
100
AcDbLine
 62
7
  6
CONTINUOUS
 10
549.5237305653
 20
429.9235044645
 11
549.6799804163
 21
429.2852066683
  0
LINE
  5
464
100
AcDbEntity
  8
KONSTRUKTIONSELEMENTE
100
AcDbLine
 62
7
  6
CONTINUOUS
 10
550.6174804163
 20
429.2852066683
 11
550.4612305653
 21
430.0830793606
  0
LINE
  5
465
100
AcDbEntity
  8
BEZUGSACHSEN
100
AcDbLine
 62
7
  6
CONTINUOUS
 10
570.063632988
 20
399.5883983003
 11
570.063632988
 21
421.5883983003
  0
LINE
  5
466
100
AcDbEntity
  8
BEZUGSACHSEN
100
AcDbLine
 62
7
  6
CONTINUOUS
 10
572.013632988
 20
399.0883983003
 11
572.013632988
 21
399.5883983003
  0
LINE
  5
467
100
AcDbEntity
  8
0
100
AcDbLine
 62
7
  6
CONTINUOUS
 10
572.063632988
 20
390.8383983003
 11
572.063632988
 21
390.5883983003
  0
LINE
  5
468
100
AcDbEntity
  8
0
100
AcDbLine
 62
7
  6
CONTINUOUS
 10
572.063632988
 20
330.5883983003
 11
572.063632988
 21
330.3383983003
  0
LINE
  5
469
100
AcDbEntity
  8
0
100
AcDbLine
 62
7
  6
CONTINUOUS
 10
572.583632988
 20
354.4383983003
 11
572.583632988
 21
362.9383983003
  0
LINE
  5
46A
100
AcDbEntity
  8
0
100
AcDbLine
 62
7
  6
CONTINUOUS
 10
573.646132988
 20
355.5235046806
 11
573.646132988
 21
362.9383983003
  0
LINE
  5
46B
100
AcDbEntity
  8
KONSTRUKTIONSELEMENTE
100
AcDbLine
 62
7
  6
CONTINUOUS
 10
576.4798956262
 20
421.5883983003
 11
576.4798956262
 21
421.7883983003
  0
LINE
  5
46C
100
AcDbEntity
  8
0
100
AcDbLine
 62
7
  6
CONTINUOUS
 10
584.428632988
 20
376.5075471388
 11
588.7827994361
 21
376.5075471388
  0
LINE
  5
46D
100
AcDbEntity
  8
0
100
AcDbLine
 62
7
  6
CONTINUOUS
 10
605.053632988
 20
379.7841431486
 11
609.178632988
 21
379.7841431486
  0
LINE
  5
46E
100
AcDbEntity
  8
0
100
AcDbLine
 62
7
  6
CONTINUOUS
 10
584.428632988
 20
380.0181856738
 11
588.7827994361
 21
380.0181856738
  0
LINE
  5
46F
100
AcDbEntity
  8
0
100
AcDbLine
 62
7
  6
CONTINUOUS
 10
583.053632988
 20
381.1883983003
 11
588.553632988
 21
381.1883983003
  0
LINE
  5
470
100
AcDbEntity
  8
0
100
AcDbLine
 62
7
  6
CONTINUOUS
 10
593.5952994361
 20
381.1883983003
 11
594.9703000918
 21
381.1883983003
  0
LINE
  5
471
100
AcDbEntity
  8
0
100
AcDbLine
 62
7
  6
CONTINUOUS
 10
600.4703000918
 20
381.1883983003
 11
601.8453000918
 21
381.1883983003
  0
LINE
  5
472
100
AcDbEntity
  8
0
100
AcDbLine
 62
7
  6
CONTINUOUS
 10
603.678632988
 20
381.1883983003
 11
609.178632988
 21
381.1883983003
  0
LINE
  5
473
100
AcDbEntity
  8
0
100
AcDbLine
 62
7
  6
CONTINUOUS
 10
588.553632988
 20
381.1883983003
 11
589.6994665399
 21
380.954355775
  0
LINE
  5
474
100
AcDbEntity
  8
0
100
AcDbLine
 62
7
  6
CONTINUOUS
 10
609.178632988
 20
381.1883983003
 11
610.3244671955
 21
380.954355775
  0
LINE
  5
475
100
AcDbEntity
  8
0
100
AcDbLine
 62
7
  6
CONTINUOUS
 10
609.178632988
 20
379.7841431486
 11
610.0952987805
 21
379.5501006233
  0
LINE
  5
476
100
AcDbEntity
  8
0
100
AcDbLine
 62
7
  6
CONTINUOUS
 10
588.7827994361
 20
380.0181856738
 11
589.4702994361
 21
379.7841431486
  0
LINE
  5
477
100
AcDbEntity
  8
0
100
AcDbLine
 62
7
  6
CONTINUOUS
 10
625.5315483036
 20
358.7788238214
 11
626.239882988
 21
358.4171217369
  0
LINE
  5
478
100
AcDbEntity
  8
0
100
AcDbLine
 62
7
  6
CONTINUOUS
 10
628.896132988
 20
359.140525906
 11
629.6044676724
 21
358.7788238214
  0
LINE
  5
479
100
AcDbEntity
  8
0
100
AcDbLine
 62
7
  6
CONTINUOUS
 10
624.8232176724
 20
355.1618025327
 11
625.708632988
 21
354.6192493584
  0
LINE
  5
47A
100
AcDbEntity
  8
0
100
AcDbLine
 62
7
  6
CONTINUOUS
 10
617.9169676724
 20
356.0660579341
 11
618.4482176724
 21
355.7043557229
  0
LINE
  5
47B
100
AcDbEntity
  8
0
100
AcDbLine
 62
7
  6
CONTINUOUS
 10
595.6578000918
 20
372.2947813557
 11
596.3453000918
 21
371.8266961413
  0
LINE
  5
47C
100
AcDbEntity
  8
0
100
AcDbLine
 62
7
  6
CONTINUOUS
 10
625.8857176724
 20
359.8639300751
 11
626.4169676724
 21
359.5022279905
  0
LINE
  5
47D
100
AcDbEntity
  8
0
100
AcDbLine
 62
7
  6
CONTINUOUS
 10
628.7190483036
 20
358.0554196524
 11
629.2502983036
 21
357.6937175678
  0
LINE
  5
47E
100
AcDbEntity
  8
0
100
AcDbLine
 62
7
  6
CONTINUOUS
 10
605.6982176724
 20
362.757547258
 11
606.4065483036
 21
362.2149941312
  0
LINE
  5
47F
100
AcDbEntity
  8
0
100
AcDbLine
 62
7
  6
CONTINUOUS
 10
589.6994665399
 20
380.954355775
 11
590.616132988
 21
380.2522281991
  0
LINE
  5
480
100
AcDbEntity
  8
0
100
AcDbLine
 62
7
  6
CONTINUOUS
 10
594.2828000918
 20
371.8266961413
 11
595.1994658842
 21
370.8905259581
  0
LINE
  5
481
100
AcDbEntity
  8
0
100
AcDbLine
 62
7
  6
CONTINUOUS
 10
605.521132988
 20
361.8532920467
 11
605.8752983036
 21
361.4915899621
  0
LINE
  5
482
100
AcDbEntity
  8
0
100
AcDbLine
 62
7
  6
CONTINUOUS
 10
589.4702994361
 20
379.7841431486
 11
589.928632988
 21
379.316058098
  0
LINE
  5
483
100
AcDbEntity
  8
0
100
AcDbLine
 62
7
  6
CONTINUOUS
 10
616.8544676724
 20
355.7043557229
 11
617.5627983036
 21
354.9809514904
  0
LINE
  5
484
100
AcDbEntity
  8
0
100
AcDbLine
 62
7
  6
CONTINUOUS
 10
590.616132988
 20
380.2522281991
 11
591.303632988
 21
379.316058098
  0
LINE
  5
485
100
AcDbEntity
  8
KONSTRUKTIONSELEMENTE
100
AcDbLine
 62
7
  6
CONTINUOUS
 10
545.7737305653
 20
434.7745685654
 11
545.4612305281
 21
435.2532919126
  0
LINE
  5
486
100
AcDbEntity
  8
KONSTRUKTIONSELEMENTE
100
AcDbLine
 62
7
  6
CONTINUOUS
 10
549.2112304163
 20
430.4022282587
 11
549.5237305653
 21
429.9235044645
  0
LINE
  5
487
100
AcDbEntity
  8
0
100
AcDbLine
 62
7
  6
CONTINUOUS
 10
595.1994658842
 20
372.9969089316
 11
595.6578000918
 21
372.2947813557
  0
LINE
  5
488
100
AcDbEntity
  8
0
100
AcDbLine
 62
7
  6
CONTINUOUS
 10
588.521132988
 20
356.4277600186
 11
588.8753003302
 21
355.7043557229
  0
LINE
  5
489
100
AcDbEntity
  8
0
100
AcDbLine
 62
7
  6
CONTINUOUS
 10
599.3919666591
 20
340.1952067651
 11
599.746132988
 21
339.4718025327
  0
LINE
  5
48A
100
AcDbEntity
  8
0
100
AcDbLine
 62
7
  6
CONTINUOUS
 10
590.183632988
 20
340.9186110609
 11
590.5377996652
 21
340.0143557229
  0
LINE
  5
48B
100
AcDbEntity
  8
0
100
AcDbLine
 62
7
  6
CONTINUOUS
 10
596.2044661525
 20
342.3654196524
 11
596.558632988
 21
341.4611641877
  0
LINE
  5
48C
100
AcDbEntity
  8
0
100
AcDbLine
 62
7
  6
CONTINUOUS
 10
596.027382988
 20
345.9824410044
 11
596.3815498236
 21
345.0781852864
  0
LINE
  5
48D
100
AcDbEntity
  8
KONSTRUKTIONSELEMENTE
100
AcDbLine
 62
7
  6
CONTINUOUS
 10
550.3049807143
 20
443.0883983003
 11
548.8987307143
 21
446.7586110758
  0
LINE
  5
48E
100
AcDbEntity
  8
0
100
AcDbLine
 62
7
  6
CONTINUOUS
 10
585.6878003302
 20
357.6937175678
 11
585.864882988
 21
357.1511641877
  0
LINE
  5
48F
100
AcDbEntity
  8
0
100
AcDbLine
 62
7
  6
CONTINUOUS
 10
586.7503003302
 20
357.8745686101
 11
586.927382988
 21
357.3320152299
  0
LINE
  5
490
100
AcDbEntity
  8
0
100
AcDbLine
 62
7
  6
CONTINUOUS
 10
585.6878003302
 20
361.3107389199
 11
585.864882988
 21
360.7681852864
  0
LINE
  5
491
100
AcDbEntity
  8
0
100
AcDbLine
 62
7
  6
CONTINUOUS
 10
586.7503003302
 20
361.4915899621
 11
586.927382988
 21
360.9490368353
  0
LINE
  5
492
100
AcDbEntity
  8
0
100
AcDbLine
 62
7
  6
CONTINUOUS
 10
578.958632988
 20
354.4383983003
 11
578.958632988
 21
355.5235046806
  0
LINE
  5
493
100
AcDbEntity
  8
BEZUGSACHSEN
100
AcDbLine
 62
7
  6
CONTINUOUS
 10
579.563632988
 20
261.5883983003
 11
579.563632988
 21
322.0883983003
  0
LINE
  5
494
100
AcDbEntity
  8
0
100
AcDbLine
 62
7
  6
CONTINUOUS
 10
580.3752993169
 20
354.4383983003
 11
580.3752993169
 21
362.9383983003
  0
LINE
  5
495
100
AcDbEntity
  8
0
100
AcDbLine
 62
7
  6
CONTINUOUS
 10
581.4378003302
 20
355.5235046806
 11
581.4378003302
 21
358.2362706946
  0
LINE
  5
496
100
AcDbEntity
  8
0
100
AcDbLine
 62
7
  6
CONTINUOUS
 10
581.4378003302
 20
359.3213769482
 11
581.4378003302
 21
361.8532920467
  0
LINE
  5
497
100
AcDbEntity
  8
KONSTRUKTIONSELEMENTE
100
AcDbLine
 62
7
  6
CONTINUOUS
 10
581.4416914392
 20
421.5883983003
 11
581.4416914392
 21
421.7883983003
  0
LINE
  5
498
100
AcDbEntity
  8
KONSTRUKTIONSELEMENTE
100
AcDbLine
 62
7
  6
CONTINUOUS
 10
581.5188056311
 20
421.5883983003
 11
581.5188056311
 21
421.7883983003
  0
LINE
  5
499
100
AcDbEntity
  8
KONSTRUKTIONSELEMENTE
100
AcDbLine
 62
7
  6
CONTINUOUS
 10
581.840114752
 20
421.5883983003
 11
581.840114752
 21
421.7883983003
  0
LINE
  5
49A
100
AcDbEntity
  8
KONSTRUKTIONSELEMENTE
100
AcDbLine
 62
7
  6
CONTINUOUS
 10
581.9300813337
 20
421.5883983003
 11
581.9300813337
 21
421.7883983003
  0
LINE
  5
49B
100
AcDbEntity
  8
KONSTRUKTIONSELEMENTE
100
AcDbLine
 62
7
  6
CONTINUOUS
 10
582.1769648707
 20
421.5883983003
 11
582.1769648707
 21
421.7883983003
  0
LINE
  5
49C
100
AcDbEntity
  8
KONSTRUKTIONSELEMENTE
100
AcDbLine
 62
7
  6
CONTINUOUS
 10
582.5401583771
 20
421.5883983003
 11
582.5401583771
 21
421.7883983003
  0
LINE
  5
49D
100
AcDbEntity
  8
KONSTRUKTIONSELEMENTE
100
AcDbLine
 62
7
  6
CONTINUOUS
 10
582.8482283074
 20
421.5883983003
 11
582.8482283074
 21
421.7883983003
  0
LINE
  5
49E
100
AcDbEntity
  8
KONSTRUKTIONSELEMENTE
100
AcDbLine
 62
7
  6
CONTINUOUS
 10
583.0168594572
 20
421.5883983003
 11
583.0168594572
 21
421.7883983003
  0
LINE
  5
49F
100
AcDbEntity
  8
0
100
AcDbLine
 62
7
  6
CONTINUOUS
 10
583.053632988
 20
370.1883983003
 11
583.053632988
 21
381.1883983003
  0
LINE
  5
4A0
100
AcDbEntity
  8
KONSTRUKTIONSELEMENTE
100
AcDbLine
 62
7
  6
CONTINUOUS
 10
583.1303670394
 20
421.5883983003
 11
583.1303670394
 21
421.7883983003
  0
LINE
  5
4A1
100
AcDbEntity
  8
KONSTRUKTIONSELEMENTE
100
AcDbLine
 62
7
  6
CONTINUOUS
 10
584.1264974852
 20
421.5883983003
 11
584.1264974852
 21
421.7883983003
  0
LINE
  5
4A2
100
AcDbEntity
  8
0
100
AcDbLine
 62
7
  6
CONTINUOUS
 10
584.428632988
 20
370.1883983003
 11
584.428632988
 21
375.1032919871
  0
LINE
  5
4A3
100
AcDbEntity
  8
0
100
AcDbLine
 62
7
  6
CONTINUOUS
 10
584.428632988
 20
376.5075471388
 11
584.428632988
 21
380.0181856738
  0
LINE
  5
4A4
100
AcDbEntity
  8
KONSTRUKTIONSELEMENTE
100
AcDbLine
 62
7
  6
CONTINUOUS
 10
585.7677029546
 20
421.5883983003
 11
585.7677029546
 21
421.7883983003
  0
LINE
  5
4A5
100
AcDbEntity
  8
0
100
AcDbLine
 62
7
  6
CONTINUOUS
 10
585.864882988
 20
356.6086110609
 11
585.864882988
 21
357.1511641877
  0
LINE
  5
4A6
100
AcDbEntity
  8
0
100
AcDbLine
 62
7
  6
CONTINUOUS
 10
585.864882988
 20
360.4064832019
 11
585.864882988
 21
360.7681852864
  0
LINE
  5
4A7
100
AcDbEntity
  8
KONSTRUKTIONSELEMENTE
100
AcDbLine
 62
7
  6
CONTINUOUS
 10
586.0293719257
 20
421.5883983003
 11
586.0293719257
 21
421.7883983003
  0
LINE
  5
4A8
100
AcDbEntity
  8
KONSTRUKTIONSELEMENTE
100
AcDbLine
 62
7
  6
CONTINUOUS
 10
586.1424077109
 20
421.5883983003
 11
586.1424077109
 21
421.7883983003
  0
LINE
  5
4A9
100
AcDbEntity
  8
0
100
AcDbLine
 62
7
  6
CONTINUOUS
 10
586.927382988
 20
356.4277600186
 11
586.927382988
 21
357.3320152299
  0
LINE
  5
4AA
100
AcDbEntity
  8
0
100
AcDbLine
 62
7
  6
CONTINUOUS
 10
586.927382988
 20
360.2256321596
 11
586.927382988
 21
360.9490368353
  0
LINE
  5
4AB
100
AcDbEntity
  8
0
100
AcDbLine
 62
7
  6
CONTINUOUS
 10
568.333632988
 20
354.4383983003
 11
571.1669661525
 21
362.9383983003
  0
LINE
  5
4AC
100
AcDbEntity
  8
0
100
AcDbLine
 62
7
  6
CONTINUOUS
 10
567.6252995702
 20
355.5235046806
 11
570.1044661525
 21
362.9383983003
  0
LINE
  5
4AD
100
AcDbEntity
  8
RUNDUNGEN
100
AcDbLine
 62
7
  6
CONTINUOUS
 10
631.563632988
 20
390.5883983003
 11
563.563632988
 21
390.5883983003
  0
LINE
  5
4AE
100
AcDbEntity
  8
0
100
AcDbLine
 62
7
  6
CONTINUOUS
 10
562.5642447394
 20
390.8383983003
 11
632.5630212367
 21
390.8383983003
  0
LINE
  5
4AF
100
AcDbEntity
  8
0
100
AcDbLine
 62
7
  6
CONTINUOUS
 10
610.3244671955
 20
380.954355775
 11
611.241132988
 21
380.4862707244
  0
LINE
  5
4B0
100
AcDbEntity
  8
0
100
AcDbLine
 62
7
  6
CONTINUOUS
 10
610.0952987805
 20
379.5501006233
 11
610.7827987805
 21
379.0820155727
  0
LINE
  5
4B1
100
AcDbEntity
  8
0
100
AcDbLine
 62
7
  6
CONTINUOUS
 10
628.7190483036
 20
362.757547258
 11
629.427382988
 21
362.2149941312
  0
LINE
  5
4B2
100
AcDbEntity
  8
KONSTRUKTIONSELEMENTE
100
AcDbLine
 62
7
  6
CONTINUOUS
 10
544.8362305653
 20
434.4554195555
 11
545.4612305281
 21
433.8171217034
  0
LINE
  5
4B3
100
AcDbEntity
  8
KONSTRUKTIONSELEMENTE
100
AcDbLine
 62
7
  6
CONTINUOUS
 10
550.1487304163
 20
430.7213771569
 11
549.5237305653
 21
431.3596749531
  0
LINE
  5
4B4
100
AcDbEntity
  8
0
100
AcDbLine
 62
7
  6
CONTINUOUS
 10
625.3544676724
 20
356.2469089763
 11
625.8857176724
 21
355.7043557229
  0
LINE
  5
4B5
100
AcDbEntity
  8
0
100
AcDbLine
 62
7
  6
CONTINUOUS
 10
624.8232176724
 20
359.5022279905
 11
625.5315483036
 21
358.7788238214
  0
LINE
  5
4B6
100
AcDbEntity
  8
0
100
AcDbLine
 62
7
  6
CONTINUOUS
 10
629.6044676724
 20
358.7788238214
 11
630.3127983036
 21
358.0554196524
  0
LINE
  5
4B7
100
AcDbEntity
  8
0
100
AcDbLine
 62
7
  6
CONTINUOUS
 10
628.5419676724
 20
361.6724410044
 11
628.896132988
 21
361.3107389199
  0
LINE
  5
4B8
100
AcDbEntity
  8
0
100
AcDbLine
 62
7
  6
CONTINUOUS
 10
606.4065483036
 20
362.2149941312
 11
606.9377983036
 21
361.4915899621
  0
LINE
  5
4B9
100
AcDbEntity
  8
KONSTRUKTIONSELEMENTE
100
AcDbLine
 62
7
  6
CONTINUOUS
 10
549.9924805653
 20
449.3118027078
 11
549.5237305653
 21
449.9501005041
  0
LINE
  5
4BA
100
AcDbEntity
  8
0
100
AcDbLine
 62
7
  6
CONTINUOUS
 10
617.5627983036
 20
356.6086110609
 11
617.9169676724
 21
356.0660579341
  0
LINE
  5
4BB
100
AcDbEntity
  8
0
100
AcDbLine
 62
7
  6
CONTINUOUS
 10
593.8244665399
 20
372.7628664063
 11
594.2828000918
 21
371.8266961413
  0
LINE
  5
4BC
100
AcDbEntity
  8
0
100
AcDbLine
 62
7
  6
CONTINUOUS
 10
589.6994665399
 20
375.5713770377
 11
591.7619665399
 21
370.1883983003
  0
LINE
  5
4BD
100
AcDbEntity
  8
0
100
AcDbLine
 62
7
  6
CONTINUOUS
 10
588.3244662121
 20
375.1032919871
 11
590.1577994361
 21
370.1883983003
  0
LINE
  5
4BE
100
AcDbEntity
  8
0
100
AcDbLine
 62
7
  6
CONTINUOUS
 10
600.277382988
 20
340.5569089763
 11
600.4544666591
 21
340.0143557229
  0
LINE
  5
4BF
100
AcDbEntity
  8
0
100
AcDbLine
 62
7
  6
CONTINUOUS
 10
594.0107156458
 20
361.3107389199
 11
594.1878003302
 21
360.7681852864
  0
LINE
  5
4C0
100
AcDbEntity
  8
0
100
AcDbLine
 62
7
  6
CONTINUOUS
 10
589.928632988
 20
379.316058098
 11
590.1577994361
 21
378.6139305221
  0
LINE
  5
4C1
100
AcDbEntity
  8
0
100
AcDbLine
 62
7
  6
CONTINUOUS
 10
591.303632988
 20
379.316058098
 11
591.5327994361
 21
378.6139305221
  0
LINE
  5
4C2
100
AcDbEntity
  8
0
100
AcDbLine
 62
7
  6
CONTINUOUS
 10
589.4065503302
 20
357.3320152299
 11
589.583632988
 21
356.6086110609
  0
LINE
  5
4C3
100
AcDbEntity
  8
0
100
AcDbLine
 62
7
  6
CONTINUOUS
 10
594.9703000918
 20
373.9330790328
 11
595.1994658842
 21
372.9969089316
  0
LINE
  5
4C4
100
AcDbEntity
  8
0
100
AcDbLine
 62
7
  6
CONTINUOUS
 10
588.3440503302
 20
357.3320152299
 11
588.521132988
 21
356.4277600186
  0
LINE
  5
4C5
100
AcDbEntity
  8
0
100
AcDbLine
 62
7
  6
CONTINUOUS
 10
595.0732156458
 20
361.6724410044
 11
595.2503003302
 21
360.7681852864
  0
LINE
  5
4C6
100
AcDbEntity
  8
0
100
AcDbLine
 62
7
  6
CONTINUOUS
 10
593.5952994361
 20
373.9330790328
 11
593.8244665399
 21
372.7628664063
  0
LINE
  5
4C7
100
AcDbEntity
  8
0
100
AcDbLine
 62
7
  6
CONTINUOUS
 10
588.3440503302
 20
357.3320152299
 11
588.3440503302
 21
360.0447811173
  0
LINE
  5
4C8
100
AcDbEntity
  8
0
100
AcDbLine
 62
7
  6
CONTINUOUS
 10
589.4065503302
 20
357.3320152299
 11
589.4065503302
 21
360.0447811173
  0
LINE
  5
4C9
100
AcDbEntity
  8
0
100
AcDbLine
 62
7
  6
CONTINUOUS
 10
590.1577994361
 20
377.9118022906
 11
590.1577994361
 21
378.6139305221
  0
LINE
  5
4CA
100
AcDbEntity
  8
0
100
AcDbLine
 62
7
  6
CONTINUOUS
 10
590.183632988
 20
340.9186110609
 11
590.183632988
 21
341.4611641877
  0
LINE
  5
4CB
100
AcDbEntity
  8
0
100
AcDbLine
 62
7
  6
CONTINUOUS
 10
590.3607163266
 20
344.5356321596
 11
590.3607163266
 21
345.0781852864
  0
LINE
  5
4CC
100
AcDbEntity
  8
KONSTRUKTIONSELEMENTE
100
AcDbLine
 62
7
  6
CONTINUOUS
 10
590.8689715836
 20
421.5883983003
 11
590.8689715836
 21
421.7883983003
  0
LINE
  5
4CD
100
AcDbEntity
  8
0
100
AcDbLine
 62
7
  6
CONTINUOUS
 10
591.0690496336
 20
340.9186110609
 11
591.0690496336
 21
341.4611641877
  0
LINE
  5
4CE
100
AcDbEntity
  8
0
100
AcDbLine
 62
7
  6
CONTINUOUS
 10
591.246132988
 20
344.7164832019
 11
591.246132988
 21
345.0781852864
  0
LINE
  5
4CF
100
AcDbEntity
  8
0
100
AcDbLine
 62
7
  6
CONTINUOUS
 10
591.5327994361
 20
377.6777597653
 11
591.5327994361
 21
378.6139305221
  0
LINE
  5
4D0
100
AcDbEntity
  8
KONSTRUKTIONSELEMENTE
100
AcDbLine
 62
7
  6
CONTINUOUS
 10
591.8799961834
 20
421.5883983003
 11
591.8799961834
 21
421.7883983003
  0
LINE
  5
4D1
100
AcDbEntity
  8
KONSTRUKTIONSELEMENTE
100
AcDbLine
 62
7
  6
CONTINUOUS
 10
592.4920857047
 20
421.5883983003
 11
592.4920857047
 21
421.7883983003
  0
LINE
  5
4D2
100
AcDbEntity
  8
0
100
AcDbLine
 62
7
  6
CONTINUOUS
 10
592.5940503302
 20
358.0554196524
 11
592.5940503302
 21
359.140525906
  0
LINE
  5
4D3
100
AcDbEntity
  8
0
100
AcDbLine
 62
7
  6
CONTINUOUS
 10
593.5952994361
 20
373.9330790328
 11
593.5952994361
 21
381.1883983003
  0
LINE
  5
4D4
100
AcDbEntity
  8
KONSTRUKTIONSELEMENTE
100
AcDbLine
 62
7
  6
CONTINUOUS
 10
593.9202938096
 20
421.5883983003
 11
593.9202938096
 21
421.7883983003
  0
LINE
  5
4D5
100
AcDbEntity
  8
0
100
AcDbLine
 62
7
  6
CONTINUOUS
 10
594.1878003302
 20
356.6086110609
 11
594.1878003302
 21
358.0554196524
  0
LINE
  5
4D6
100
AcDbEntity
  8
KONSTRUKTIONSELEMENTE
100
AcDbLine
 62
7
  6
CONTINUOUS
 10
594.7364147281
 20
421.5883983003
 11
594.7364147281
 21
421.7883983003
  0
LINE
  5
4D7
100
AcDbEntity
  8
0
100
AcDbLine
 62
7
  6
CONTINUOUS
 10
594.9703000918
 20
373.9330790328
 11
594.9703000918
 21
381.1883983003
  0
LINE
  5
4D8
100
AcDbEntity
  8
0
100
AcDbLine
 62
7
  6
CONTINUOUS
 10
595.2503003302
 20
356.4277600186
 11
595.2503003302
 21
359.140525906
  0
LINE
  5
4D9
100
AcDbEntity
  8
KONSTRUKTIONSELEMENTE
100
AcDbLine
 62
7
  6
CONTINUOUS
 10
595.3687098245
 20
421.5883983003
 11
595.3687098245
 21
421.7883983003
  0
LINE
  5
4DA
100
AcDbEntity
  8
0
100
AcDbLine
 62
7
  6
CONTINUOUS
 10
595.496132988
 20
344.7164832019
 11
595.496132988
 21
345.0781852864
  0
LINE
  5
4DB
100
AcDbEntity
  8
0
100
AcDbLine
 62
7
  6
CONTINUOUS
 10
595.6732161525
 20
340.9186110609
 11
595.6732161525
 21
341.4611641877
  0
LINE
  5
4DC
100
AcDbEntity
  8
KONSTRUKTIONSELEMENTE
100
AcDbLine
 62
7
  6
CONTINUOUS
 10
596.1646228329
 20
421.5883983003
 11
596.1646228329
 21
421.7883983003
  0
LINE
  5
4DD
100
AcDbEntity
  8
0
100
AcDbLine
 62
7
  6
CONTINUOUS
 10
596.3815498236
 20
344.5356321596
 11
596.3815498236
 21
345.0781852864
  0
LINE
  5
4DE
100
AcDbEntity
  8
0
100
AcDbLine
 62
7
  6
CONTINUOUS
 10
596.558632988
 20
340.9186110609
 11
596.558632988
 21
341.4611641877
  0
LINE
  5
4DF
100
AcDbEntity
  8
0
100
AcDbLine
 62
7
  6
CONTINUOUS
 10
596.6669656458
 20
357.5128662722
 11
596.6669656458
 21
358.4171217369
  0
LINE
  5
4E0
100
AcDbEntity
  8
KONSTRUKTIONSELEMENTE
100
AcDbLine
 62
7
  6
CONTINUOUS
 10
596.7767123543
 20
421.5883983003
 11
596.7767123543
 21
421.7883983003
  0
LINE
  5
4E1
100
AcDbEntity
  8
BEZUGSACHSEN
100
AcDbLine
 62
7
  6
CONTINUOUS
 10
597.563632988
 20
399.5883983003
 11
597.563632988
 21
419.1321973697
  0
LINE
  5
4E2
100
AcDbEntity
  8
KONSTRUKTIONSELEMENTE
100
AcDbLine
 62
7
  6
CONTINUOUS
 10
597.7906222737
 20
421.5883983003
 11
597.7906222737
 21
421.7883983003
  0
LINE
  5
4E3
100
AcDbEntity
  8
KONSTRUKTIONSELEMENTE
100
AcDbLine
 62
7
  6
CONTINUOUS
 10
597.855204829
 20
421.5883983003
 11
597.855204829
 21
421.7883983003
  0
LINE
  5
4E4
100
AcDbEntity
  8
0
100
AcDbLine
 62
7
  6
CONTINUOUS
 10
597.9752998236
 20
343.8122279905
 11
597.9752998236
 21
344.5356321596
  0
LINE
  5
4E5
100
AcDbEntity
  8
KONSTRUKTIONSELEMENTE
100
AcDbLine
 62
7
  6
CONTINUOUS
 10
598.0231793507
 20
421.5883983003
 11
598.0231793507
 21
421.7883983003
  0
LINE
  5
4E6
100
AcDbEntity
  8
KONSTRUKTIONSELEMENTE
100
AcDbLine
 62
7
  6
CONTINUOUS
 10
598.307485445
 20
421.5883983003
 11
598.307485445
 21
421.7883983003
  0
LINE
  5
4E7
100
AcDbEntity
  8
KONSTRUKTIONSELEMENTE
100
AcDbLine
 62
7
  6
CONTINUOUS
 10
598.6951858644
 20
421.5883983003
 11
598.6951858644
 21
421.7883983003
  0
LINE
  5
4E8
100
AcDbEntity
  8
0
100
AcDbLine
 62
7
  6
CONTINUOUS
 10
588.3440503302
 20
360.0447811173
 11
588.521132988
 21
360.9490368353
  0
LINE
  5
4E9
100
AcDbEntity
  8
0
100
AcDbLine
 62
7
  6
CONTINUOUS
 10
562.5642447394
 20
399.0883983003
 11
632.5630212367
 21
399.0883983003
  0
LINE
  5
4EA
100
AcDbEntity
  8
KONSTRUKTIONSELEMENTE
100
AcDbLine
 62
7
  6
CONTINUOUS
 10
570.063632988
 20
399.5883983003
 11
625.063632988
 21
399.5883983003
  0
LINE
  5
4EB
100
AcDbEntity
  8
KONSTRUKTIONSELEMENTE
100
AcDbLine
 62
7
  6
CONTINUOUS
 10
549.5237305653
 20
431.3596749531
 11
548.8987307143
 21
431.6788238512
  0
LINE
  5
4EC
100
AcDbEntity
  8
KONSTRUKTIONSELEMENTE
100
AcDbLine
 62
7
  6
CONTINUOUS
 10
545.4612305281
 20
433.8171217034
 11
546.0862306026
 21
433.4979727633
  0
LINE
  5
4ED
100
AcDbEntity
  8
KONSTRUKTIONSELEMENTE
100
AcDbLine
 62
7
  6
CONTINUOUS
 10
548.7424804163
 20
430.7213771569
 11
549.2112304163
 21
430.4022282587
  0
LINE
  5
4EE
100
AcDbEntity
  8
KONSTRUKTIONSELEMENTE
100
AcDbLine
 62
7
  6
CONTINUOUS
 10
546.2424805653
 20
434.4554195555
 11
545.7737305653
 21
434.7745685654
  0
LINE
  5
4EF
100
AcDbEntity
  8
0
100
AcDbLine
 62
7
  6
CONTINUOUS
 10
611.241132988
 20
380.4862707244
 11
612.1577987805
 21
379.5501006233
  0
LINE
  5
4F0
100
AcDbEntity
  8
KONSTRUKTIONSELEMENTE
100
AcDbLine
 62
7
  6
CONTINUOUS
 10
548.7424804163
 20
449.6309516059
 11
549.0549805653
 21
449.3118027078
  0
LINE
  5
4F1
100
AcDbEntity
  8
0
100
AcDbLine
 62
7
  6
CONTINUOUS
 10
629.427382988
 20
362.2149941312
 11
629.958632988
 21
361.4915899621
  0
LINE
  5
4F2
100
AcDbEntity
  8
0
100
AcDbLine
 62
7
  6
CONTINUOUS
 10
610.7827987805
 20
379.0820155727
 11
611.241132988
 21
378.3798873412
  0
LINE
  5
4F3
100
AcDbEntity
  8
0
100
AcDbLine
 62
7
  6
CONTINUOUS
 10
629.2502983036
 20
357.6937175678
 11
629.6044676724
 21
357.1511641877
  0
LINE
  5
4F4
100
AcDbEntity
  8
0
100
AcDbLine
 62
7
  6
CONTINUOUS
 10
624.2919676724
 20
356.0660579341
 11
624.8232176724
 21
355.1618025327
  0
LINE
  5
4F5
100
AcDbEntity
  8
RUNDUNGEN
100
AcDbLine
 62
7
  6
CONTINUOUS
 10
544.8279211623
 20
491.1700113716
 11
549.1036714684
 21
483.7641946008
  0
LINE
  5
4F6
100
AcDbEntity
  8
0
100
AcDbLine
 62
7
  6
CONTINUOUS
 10
616.5002983036
 20
356.4277600186
 11
616.8544676724
 21
355.7043557229
  0
LINE
  5
4F7
100
AcDbEntity
  8
0
100
AcDbLine
 62
7
  6
CONTINUOUS
 10
612.1577987805
 20
379.5501006233
 11
612.616132988
 21
378.6139305221
  0
LINE
  5
4F8
100
AcDbEntity
  8
0
100
AcDbLine
 62
7
  6
CONTINUOUS
 10
605.8752983036
 20
361.4915899621
 11
606.052382988
 21
360.9490368353
  0
LINE
  5
4F9
100
AcDbEntity
  8
0
100
AcDbLine
 62
7
  6
CONTINUOUS
 10
606.9377983036
 20
361.4915899621
 11
607.114882988
 21
360.9490368353
  0
LINE
  5
4FA
100
AcDbEntity
  8
KONSTRUKTIONSELEMENTE
100
AcDbLine
 62
7
  6
CONTINUOUS
 10
599.0958235392
 20
421.5883983003
 11
599.0958235392
 21
421.7883983003
  0
LINE
  5
4FB
100
AcDbEntity
  8
0
100
AcDbLine
 62
7
  6
CONTINUOUS
 10
599.146132988
 20
357.5128662722
 11
599.146132988
 21
358.4171217369
  0
LINE
  5
4FC
100
AcDbEntity
  8
0
100
AcDbLine
 62
7
  6
CONTINUOUS
 10
599.3919666591
 20
340.1952067651
 11
599.3919666591
 21
343.8122279905
  0
LINE
  5
4FD
100
AcDbEntity
  8
0
100
AcDbLine
 62
7
  6
CONTINUOUS
 10
599.3919666591
 20
344.5356321596
 11
599.3919666591
 21
345.9824410044
  0
LINE
  5
4FE
100
AcDbEntity
  8
KONSTRUKTIONSELEMENTE
100
AcDbLine
 62
7
  6
CONTINUOUS
 10
599.922971031
 20
421.5883983003
 11
599.922971031
 21
421.7883983003
  0
LINE
  5
4FF
100
AcDbEntity
  8
0
100
AcDbLine
 62
7
  6
CONTINUOUS
 10
600.277382988
 20
340.5569089763
 11
600.277382988
 21
343.8122279905
  0
LINE
  5
500
100
AcDbEntity
  8
0
100
AcDbLine
 62
7
  6
CONTINUOUS
 10
600.277382988
 20
344.5356321596
 11
600.277382988
 21
345.9824410044
  0
LINE
  5
501
100
AcDbEntity
  8
KONSTRUKTIONSELEMENTE
100
AcDbLine
 62
7
  6
CONTINUOUS
 10
600.3494832145
 20
421.5883983003
 11
600.3494832145
 21
421.7883983003
  0
LINE
  5
502
100
AcDbEntity
  8
0
100
AcDbLine
 62
7
  6
CONTINUOUS
 10
600.4703000918
 20
373.9330790328
 11
600.4703000918
 21
381.1883983003
  0
LINE
  5
503
100
AcDbEntity
  8
0
100
AcDbLine
 62
7
  6
CONTINUOUS
 10
600.5627983036
 20
354.4383983003
 11
600.5627983036
 21
362.9383983003
  0
LINE
  5
504
100
AcDbEntity
  8
KONSTRUKTIONSELEMENTE
100
AcDbLine
 62
7
  6
CONTINUOUS
 10
600.7889302869
 20
421.5883983003
 11
600.7889302869
 21
421.7883983003
  0
LINE
  5
505
100
AcDbEntity
  8
KONSTRUKTIONSELEMENTE
100
AcDbLine
 62
7
  6
CONTINUOUS
 10
601.1249854031
 20
421.5883983003
 11
601.1249854031
 21
421.7883983003
  0
LINE
  5
506
100
AcDbEntity
  8
KONSTRUKTIONSELEMENTE
100
AcDbLine
 62
7
  6
CONTINUOUS
 10
601.3705858106
 20
421.5883983003
 11
601.3705858106
 21
421.7883983003
  0
LINE
  5
507
100
AcDbEntity
  8
KONSTRUKTIONSELEMENTE
100
AcDbLine
 62
7
  6
CONTINUOUS
 10
601.5127895366
 20
421.5883983003
 11
601.5127895366
 21
421.7883983003
  0
LINE
  5
508
100
AcDbEntity
  8
KONSTRUKTIONSELEMENTE
100
AcDbLine
 62
7
  6
CONTINUOUS
 10
601.5645385495
 20
421.5883983003
 11
601.5645385495
 21
421.7883983003
  0
LINE
  5
509
100
AcDbEntity
  8
0
100
AcDbLine
 62
7
  6
CONTINUOUS
 10
601.6252983036
 20
354.4383983003
 11
601.6252983036
 21
358.2362706946
  0
LINE
  5
50A
100
AcDbEntity
  8
0
100
AcDbLine
 62
7
  6
CONTINUOUS
 10
601.6252983036
 20
359.3213769482
 11
601.6252983036
 21
362.0341430889
  0
LINE
  5
50B
100
AcDbEntity
  8
KONSTRUKTIONSELEMENTE
100
AcDbLine
 62
7
  6
CONTINUOUS
 10
601.706954421
 20
421.5883983003
 11
601.706954421
 21
421.7883983003
  0
LINE
  5
50C
100
AcDbEntity
  8
KONSTRUKTIONSELEMENTE
100
AcDbLine
 62
7
  6
CONTINUOUS
 10
601.7328289637
 20
421.5883983003
 11
601.7328289637
 21
421.7883983003
  0
LINE
  5
50D
100
AcDbEntity
  8
0
100
AcDbLine
 62
7
  6
CONTINUOUS
 10
601.8453000918
 20
373.9330790328
 11
601.8453000918
 21
381.1883983003
  0
LINE
  5
50E
100
AcDbEntity
  8
0
100
AcDbLine
 62
7
  6
CONTINUOUS
 10
601.871132988
 20
338.7483983003
 11
601.871132988
 21
339.4718025327
  0
LINE
  5
50F
100
AcDbEntity
  8
0
100
AcDbLine
 62
7
  6
CONTINUOUS
 10
602.2252993169
 20
343.8122279905
 11
602.2252993169
 21
344.5356321596
  0
LINE
  5
510
100
AcDbEntity
  8
KONSTRUKTIONSELEMENTE
100
AcDbLine
 62
7
  6
CONTINUOUS
 10
602.8214161985
 20
421.5883983003
 11
602.8214161985
 21
421.7883983003
  0
LINE
  5
511
100
AcDbEntity
  8
KONSTRUKTIONSELEMENTE
100
AcDbLine
 62
7
  6
CONTINUOUS
 10
602.9392342863
 20
421.5883983003
 11
602.9392342863
 21
421.7883983003
  0
LINE
  5
512
100
AcDbEntity
  8
KONSTRUKTIONSELEMENTE
100
AcDbLine
 62
7
  6
CONTINUOUS
 10
603.2904997533
 20
421.5883983003
 11
603.2904997533
 21
421.7883983003
  0
LINE
  5
513
100
AcDbEntity
  8
0
100
AcDbLine
 62
7
  6
CONTINUOUS
 10
603.678632988
 20
370.1883983003
 11
603.678632988
 21
381.1883983003
  0
LINE
  5
514
100
AcDbEntity
  8
KONSTRUKTIONSELEMENTE
100
AcDbLine
 62
7
  6
CONTINUOUS
 10
603.7262576111
 20
421.5883983003
 11
603.7262576111
 21
421.7883983003
  0
LINE
  5
515
100
AcDbEntity
  8
KONSTRUKTIONSELEMENTE
100
AcDbLine
 62
7
  6
CONTINUOUS
 10
604.2042638525
 20
421.5883983003
 11
604.2042638525
 21
421.7883983003
  0
LINE
  5
516
100
AcDbEntity
  8
KONSTRUKTIONSELEMENTE
100
AcDbLine
 62
7
  6
CONTINUOUS
 10
604.7245141012
 20
421.5883983003
 11
604.7245141012
 21
421.7883983003
  0
LINE
  5
517
100
AcDbEntity
  8
0
100
AcDbLine
 62
7
  6
CONTINUOUS
 10
605.053632988
 20
371.592653616
 11
605.053632988
 21
379.7841431486
  0
LINE
  5
518
100
AcDbEntity
  8
KONSTRUKTIONSELEMENTE
100
AcDbLine
 62
7
  6
CONTINUOUS
 10
605.3292567408
 20
421.5883983003
 11
605.3292567408
 21
421.7883983003
  0
LINE
  5
519
100
AcDbEntity
  8
KONSTRUKTIONSELEMENTE
100
AcDbLine
 62
7
  6
CONTINUOUS
 10
605.7850443922
 20
421.5883983003
 11
605.7850443922
 21
421.7883983003
  0
LINE
  5
51A
100
AcDbEntity
  8
0
100
AcDbLine
 62
7
  6
CONTINUOUS
 10
606.052382988
 20
360.4064832019
 11
606.052382988
 21
360.9490368353
  0
LINE
  5
51B
100
AcDbEntity
  8
KONSTRUKTIONSELEMENTE
100
AcDbLine
 62
7
  6
CONTINUOUS
 10
606.1874787523
 20
421.5883983003
 11
606.1874787523
 21
421.7883983003
  0
LINE
  5
51C
100
AcDbEntity
  8
KONSTRUKTIONSELEMENTE
100
AcDbLine
 62
7
  6
CONTINUOUS
 10
606.3987097701
 20
421.5883983003
 11
606.3987097701
 21
421.7883983003
  0
LINE
  5
51D
100
AcDbEntity
  8
KONSTRUKTIONSELEMENTE
100
AcDbLine
 62
7
  6
CONTINUOUS
 10
606.418737357
 20
421.5883983003
 11
606.418737357
 21
421.7883983003
  0
LINE
  5
51E
100
AcDbEntity
  8
KONSTRUKTIONSELEMENTE
100
AcDbLine
 62
7
  6
CONTINUOUS
 10
606.4254713062
 20
421.5883983003
 11
606.4254713062
 21
421.7883983003
  0
LINE
  5
51F
100
AcDbEntity
  8
KONSTRUKTIONSELEMENTE
100
AcDbLine
 62
7
  6
CONTINUOUS
 10
606.4899339147
 20
421.5883983003
 11
606.4899339147
 21
421.7883983003
  0
LINE
  5
520
100
AcDbEntity
  8
KONSTRUKTIONSELEMENTE
100
AcDbLine
 62
7
  6
CONTINUOUS
 10
606.967937968
 20
421.5883983003
 11
606.967937968
 21
421.7883983003
  0
LINE
  5
521
100
AcDbEntity
  8
KONSTRUKTIONSELEMENTE
100
AcDbLine
 62
7
  6
CONTINUOUS
 10
606.9990770454
 20
421.5883983003
 11
606.9990770454
 21
421.7883983003
  0
LINE
  5
522
100
AcDbEntity
  8
0
100
AcDbLine
 62
7
  6
CONTINUOUS
 10
607.114882988
 20
360.2256321596
 11
607.114882988
 21
360.9490368353
  0
LINE
  5
523
100
AcDbEntity
  8
0
100
AcDbLine
 62
7
  6
CONTINUOUS
 10
608.5315483036
 20
354.4383983003
 11
608.5315483036
 21
362.9383983003
  0
LINE
  5
524
100
AcDbEntity
  8
0
100
AcDbLine
 62
7
  6
CONTINUOUS
 10
609.5940483036
 20
355.5235046806
 11
609.5940483036
 21
362.9383983003
  0
LINE
  5
525
100
AcDbEntity
  8
0
100
AcDbLine
 62
7
  6
CONTINUOUS
 10
601.616132988
 20
372.7628664063
 11
601.8453000918
 21
373.9330790328
  0
LINE
  5
526
100
AcDbEntity
  8
0
100
AcDbLine
 62
7
  6
CONTINUOUS
 10
589.4065503302
 20
360.0447811173
 11
589.583632988
 21
360.7681852864
  0
LINE
  5
527
100
AcDbEntity
  8
0
100
AcDbLine
 62
7
  6
CONTINUOUS
 10
595.0732156458
 20
355.7043557229
 11
595.2503003302
 21
356.4277600186
  0
LINE
  5
528
100
AcDbEntity
  8
0
100
AcDbLine
 62
7
  6
CONTINUOUS
 10
600.241132988
 20
372.9969089316
 11
600.4703000918
 21
373.9330790328
  0
LINE
  5
529
100
AcDbEntity
  8
0
100
AcDbLine
 62
7
  6
CONTINUOUS
 10
589.928632988
 20
377.2096747147
 11
590.1577994361
 21
377.9118022906
  0
LINE
  5
52A
100
AcDbEntity
  8
0
100
AcDbLine
 62
7
  6
CONTINUOUS
 10
585.6878003302
 20
359.8639300751
 11
585.864882988
 21
360.4064832019
  0
LINE
  5
52B
100
AcDbEntity
  8
0
100
AcDbLine
 62
7
  6
CONTINUOUS
 10
591.303632988
 20
376.9756321894
 11
591.5327994361
 21
377.6777597653
  0
LINE
  5
52C
100
AcDbEntity
  8
0
100
AcDbLine
 62
7
  6
CONTINUOUS
 10
586.7503003302
 20
359.6830790328
 11
586.927382988
 21
360.2256321596
  0
LINE
  5
52D
100
AcDbEntity
  8
0
100
AcDbLine
 62
7
  6
CONTINUOUS
 10
585.6878003302
 20
356.0660579341
 11
585.864882988
 21
356.6086110609
  0
LINE
  5
52E
100
AcDbEntity
  8
0
100
AcDbLine
 62
7
  6
CONTINUOUS
 10
586.7503003302
 20
355.8852067651
 11
586.927382988
 21
356.4277600186
  0
LINE
  5
52F
100
AcDbEntity
  8
RUNDUNGEN
100
AcDbLine
 62
7
  6
CONTINUOUS
 10
650.2993448138
 20
491.1700113716
 11
646.0235945076
 21
483.7641946008
  0
LINE
  5
530
100
AcDbEntity
  8
KONSTRUKTIONSELEMENTE
100
AcDbLine
 62
7
  6
CONTINUOUS
 10
652.9225319316
 20
409.8383983003
 11
644.2047340445
 21
409.8383983003
  0
LINE
  5
531
100
AcDbEntity
  8
0
100
AcDbLine
 62
7
  6
CONTINUOUS
 10
542.2047340445
 20
409.8383983003
 11
550.9225319316
 21
409.8383983003
  0
LINE
  5
532
100
AcDbEntity
  8
KONSTRUKTIONSELEMENTE
100
AcDbLine
 62
7
  6
CONTINUOUS
 10
657.2238870259
 20
412.0883983003
 11
652.9225319316
 21
412.0883983003
  0
LINE
  5
533
100
AcDbEntity
  8
KONSTRUKTIONSELEMENTE
100
AcDbLine
 62
7
  6
CONTINUOUS
 10
644.2047340445
 20
412.0883983003
 11
640.1403215545
 21
412.0883983003
  0
LINE
  5
534
100
AcDbEntity
  8
0
100
AcDbLine
 62
7
  6
CONTINUOUS
 10
537.9033789502
 20
412.0883983003
 11
542.2047340445
 21
412.0883983003
  0
LINE
  5
535
100
AcDbEntity
  8
0
100
AcDbLine
 62
7
  6
CONTINUOUS
 10
550.9225319316
 20
412.0883983003
 11
554.9869444215
 21
412.0883983003
  0
LINE
  5
536
100
AcDbEntity
  8
KONSTRUKTIONSELEMENTE
100
AcDbLine
 62
7
  6
CONTINUOUS
 10
548.1174805653
 20
430.8809516059
 11
548.7424804163
 21
430.7213771569
  0
LINE
  5
537
100
AcDbEntity
  8
KONSTRUKTIONSELEMENTE
100
AcDbLine
 62
7
  6
CONTINUOUS
 10
549.5237305653
 20
449.9501005041
 11
548.8987307143
 21
450.4288238512
  0
LINE
  5
538
100
AcDbEntity
  8
0
100
AcDbLine
 62
7
  6
CONTINUOUS
 10
630.3127983036
 20
358.0554196524
 11
630.6669676724
 21
357.3320152299
  0
LINE
  5
539
100
AcDbEntity
  8
0
100
AcDbLine
 62
7
  6
CONTINUOUS
 10
628.896132988
 20
361.3107389199
 11
629.0732176724
 21
360.9490368353
  0
LINE
  5
53A
100
AcDbEntity
  8
0
100
AcDbLine
 62
7
  6
CONTINUOUS
 10
625.177382988
 20
356.7894621031
 11
625.3544676724
 21
356.2469089763
  0
LINE
  5
53B
100
AcDbEntity
  8
0
100
AcDbLine
 62
7
  6
CONTINUOUS
 10
625.708632988
 20
360.4064832019
 11
625.8857176724
 21
359.8639300751
  0
LINE
  5
53C
100
AcDbEntity
  8
0
100
AcDbLine
 62
7
  6
CONTINUOUS
 10
611.241132988
 20
378.3798873412
 11
611.4702987805
 21
377.44371724
  0
LINE
  5
53D
100
AcDbEntity
  8
0
100
AcDbLine
 62
7
  6
CONTINUOUS
 10
617.3857176724
 20
357.3320152299
 11
617.5627983036
 21
356.6086110609
  0
LINE
  5
53E
100
AcDbEntity
  8
0
100
AcDbLine
 62
7
  6
CONTINUOUS
 10
616.3232176724
 20
357.3320152299
 11
616.5002983036
 21
356.4277600186
  0
LINE
  5
53F
100
AcDbEntity
  8
0
100
AcDbLine
 62
7
  6
CONTINUOUS
 10
612.616132988
 20
378.6139305221
 11
612.8452987805
 21
377.44371724
  0
LINE
  5
540
100
AcDbEntity
  8
0
100
AcDbLine
 62
7
  6
CONTINUOUS
 10
611.4702987805
 20
373.9330790328
 11
611.4702987805
 21
377.44371724
  0
LINE
  5
541
100
AcDbEntity
  8
0
100
AcDbLine
 62
7
  6
CONTINUOUS
 10
612.8452987805
 20
373.9330790328
 11
612.8452987805
 21
377.44371724
  0
LINE
  5
542
100
AcDbEntity
  8
0
100
AcDbLine
 62
7
  6
CONTINUOUS
 10
614.9065483036
 20
354.4383983003
 11
614.9065483036
 21
355.5235046806
  0
LINE
  5
543
100
AcDbEntity
  8
BEZUGSACHSEN
100
AcDbLine
 62
7
  6
CONTINUOUS
 10
615.563632988
 20
261.5883983003
 11
615.563632988
 21
322.0883983003
  0
LINE
  5
544
100
AcDbEntity
  8
0
100
AcDbLine
 62
7
  6
CONTINUOUS
 10
616.3232176724
 20
357.3320152299
 11
616.3232176724
 21
362.9383983003
  0
LINE
  5
545
100
AcDbEntity
  8
0
100
AcDbLine
 62
7
  6
CONTINUOUS
 10
617.3857176724
 20
357.3320152299
 11
617.3857176724
 21
362.9383983003
  0
LINE
  5
546
100
AcDbEntity
  8
0
100
AcDbLine
 62
7
  6
CONTINUOUS
 10
612.616132988
 20
372.7628664063
 11
612.8452987805
 21
373.9330790328
  0
LINE
  5
547
100
AcDbEntity
  8
0
100
AcDbLine
 62
7
  6
CONTINUOUS
 10
611.241132988
 20
372.9969089316
 11
611.4702987805
 21
373.9330790328
  0
LINE
  5
548
100
AcDbEntity
  8
0
100
AcDbLine
 62
7
  6
CONTINUOUS
 10
594.0107156458
 20
356.0660579341
 11
594.1878003302
 21
356.6086110609
  0
LINE
  5
549
100
AcDbEntity
  8
0
100
AcDbLine
 62
7
  6
CONTINUOUS
 10
605.8752983036
 20
359.8639300751
 11
606.052382988
 21
360.4064832019
  0
LINE
  5
54A
100
AcDbEntity
  8
0
100
AcDbLine
 62
7
  6
CONTINUOUS
 10
590.3607163266
 20
345.0781852864
 11
590.714882988
 21
345.9824410044
  0
LINE
  5
54B
100
AcDbEntity
  8
0
100
AcDbLine
 62
7
  6
CONTINUOUS
 10
590.183632988
 20
341.4611641877
 11
590.5377996652
 21
342.3654196524
  0
LINE
  5
54C
100
AcDbEntity
  8
0
100
AcDbLine
 62
7
  6
CONTINUOUS
 10
596.2044661525
 20
340.0143557229
 11
596.558632988
 21
340.9186110609
  0
LINE
  5
54D
100
AcDbEntity
  8
0
100
AcDbLine
 62
7
  6
CONTINUOUS
 10
588.521132988
 20
360.9490368353
 11
588.8753003302
 21
361.6724410044
  0
LINE
  5
54E
100
AcDbEntity
  8
0
100
AcDbLine
 62
7
  6
CONTINUOUS
 10
601.1578000918
 20
371.8266961413
 11
601.616132988
 21
372.7628664063
  0
LINE
  5
54F
100
AcDbEntity
  8
0
100
AcDbLine
 62
7
  6
CONTINUOUS
 10
589.583632988
 20
360.7681852864
 11
589.9378003302
 21
361.3107389199
  0
LINE
  5
550
100
AcDbEntity
  8
0
100
AcDbLine
 62
7
  6
CONTINUOUS
 10
599.7828000918
 20
372.2947813557
 11
600.241132988
 21
372.9969089316
  0
LINE
  5
551
100
AcDbEntity
  8
0
100
AcDbLine
 62
7
  6
CONTINUOUS
 10
590.616132988
 20
376.0394620882
 11
591.303632988
 21
376.9756321894
  0
LINE
  5
552
100
AcDbEntity
  8
0
100
AcDbLine
 62
7
  6
CONTINUOUS
 10
586.2190503302
 20
358.9596748637
 11
586.7503003302
 21
359.6830790328
  0
LINE
  5
553
100
AcDbEntity
  8
0
100
AcDbLine
 62
7
  6
CONTINUOUS
 10
586.2190503302
 20
355.1618025327
 11
586.7503003302
 21
355.8852067651
  0
LINE
  5
554
100
AcDbEntity
  8
0
100
AcDbLine
 62
7
  6
CONTINUOUS
 10
589.4702994361
 20
376.7415896641
 11
589.928632988
 21
377.2096747147
  0
LINE
  5
555
100
AcDbEntity
  8
BEZUGSACHSEN
100
AcDbLine
 62
7
  6
CONTINUOUS
 10
570.063632988
 20
421.5883983003
 11
625.0636329881
 21
421.5883983003
  0
LINE
  5
556
100
AcDbEntity
  8
KONSTRUKTIONSELEMENTE
100
AcDbLine
 62
7
  6
CONTINUOUS
 10
576.4798956262
 20
421.7883983003
 11
586.1424077109
 21
421.7883983003
  0
LINE
  5
557
100
AcDbEntity
  8
KONSTRUKTIONSELEMENTE
100
AcDbLine
 62
7
  6
CONTINUOUS
 10
590.8689715836
 20
421.7883983003
 11
596.7767123543
 21
421.7883983003
  0
LINE
  5
558
100
AcDbEntity
  8
KONSTRUKTIONSELEMENTE
100
AcDbLine
 62
7
  6
CONTINUOUS
 10
597.7906222737
 20
421.7883983003
 11
601.7328289637
 21
421.7883983003
  0
LINE
  5
559
100
AcDbEntity
  8
KONSTRUKTIONSELEMENTE
100
AcDbLine
 62
7
  6
CONTINUOUS
 10
602.8214161985
 20
421.7883983003
 11
606.9990770454
 21
421.7883983003
  0
LINE
  5
55A
100
AcDbEntity
  8
KONSTRUKTIONSELEMENTE
100
AcDbLine
 62
7
  6
CONTINUOUS
 10
544.3674805653
 20
424.3383983003
 11
548.1174805653
 21
424.3383983003
  0
LINE
  5
55B
100
AcDbEntity
  8
KONSTRUKTIONSELEMENTE
100
AcDbLine
 62
7
  6
CONTINUOUS
 10
548.1174805653
 20
425.2958451064
 11
545.3049805653
 21
425.2958451064
  0
LINE
  5
55C
100
AcDbEntity
  8
KONSTRUKTIONSELEMENTE
100
AcDbLine
 62
7
  6
CONTINUOUS
 10
545.3049805653
 20
430.8809516059
 11
548.1174805653
 21
430.8809516059
  0
LINE
  5
55D
100
AcDbEntity
  8
KONSTRUKTIONSELEMENTE
100
AcDbLine
 62
7
  6
CONTINUOUS
 10
548.1174805653
 20
431.8383983003
 11
544.3674805653
 21
431.8383983003
  0
LINE
  5
55E
100
AcDbEntity
  8
KONSTRUKTIONSELEMENTE
100
AcDbLine
 62
7
  6
CONTINUOUS
 10
548.8987307143
 20
431.6788238512
 11
548.1174805653
 21
431.8383983003
  0
LINE
  5
55F
100
AcDbEntity
  8
KONSTRUKTIONSELEMENTE
100
AcDbLine
 62
7
  6
CONTINUOUS
 10
546.0862306026
 20
433.4979727633
 11
546.8674806398
 21
433.3383983003
  0
LINE
  5
560
100
AcDbEntity
  8
KONSTRUKTIONSELEMENTE
100
AcDbLine
 62
7
  6
CONTINUOUS
 10
546.8674806398
 20
434.2958451064
 11
546.2424805653
 21
434.4554195555
  0
LINE
  5
561
100
AcDbEntity
  8
KONSTRUKTIONSELEMENTE
100
AcDbLine
 62
7
  6
CONTINUOUS
 10
548.2737304163
 20
449.790526055
 11
548.7424804163
 21
449.6309516059
  0
LINE
  5
562
100
AcDbEntity
  8
0
100
AcDbLine
 62
7
  6
CONTINUOUS
 10
629.958632988
 20
361.4915899621
 11
630.1357176724
 21
360.9490368353
  0
LINE
  5
563
100
AcDbEntity
  8
0
100
AcDbLine
 62
7
  6
CONTINUOUS
 10
624.114882988
 20
356.7894621031
 11
624.2919676724
 21
356.0660579341
  0
LINE
  5
564
100
AcDbEntity
  8
0
100
AcDbLine
 62
7
  6
CONTINUOUS
 10
624.646132988
 20
360.2256321596
 11
624.8232176724
 21
359.5022279905
  0
LINE
  5
565
100
AcDbEntity
  8
0
100
AcDbLine
 62
7
  6
CONTINUOUS
 10
621.6357176724
 20
357.3320152299
 11
621.6357176724
 21
362.9383983003
  0
LINE
  5
566
100
AcDbEntity
  8
0
100
AcDbLine
 62
7
  6
CONTINUOUS
 10
622.6982176724
 20
357.3320152299
 11
622.6982176724
 21
362.9383983003
  0
LINE
  5
567
100
AcDbEntity
  8
0
100
AcDbLine
 62
7
  6
CONTINUOUS
 10
623.063632988
 20
390.8383983003
 11
623.063632988
 21
390.5883983003
  0
LINE
  5
568
100
AcDbEntity
  8
0
100
AcDbLine
 62
7
  6
CONTINUOUS
 10
623.063632988
 20
330.5883983003
 11
623.063632988
 21
330.3383983003
  0
LINE
  5
569
100
AcDbEntity
  8
BEZUGSACHSEN
100
AcDbLine
 62
7
  6
CONTINUOUS
 10
623.113632988
 20
399.0883983003
 11
623.113632988
 21
399.5883983003
  0
LINE
  5
56A
100
AcDbEntity
  8
0
100
AcDbLine
 62
7
  6
CONTINUOUS
 10
624.646132988
 20
360.2256321596
 11
624.646132988
 21
360.9490368353
  0
LINE
  5
56B
100
AcDbEntity
  8
BEZUGSACHSEN
100
AcDbLine
 62
7
  6
CONTINUOUS
 10
625.063632988
 20
399.5883983003
 11
625.063632988
 21
421.5883983003
  0
LINE
  5
56C
100
AcDbEntity
  8
0
100
AcDbLine
 62
7
  6
CONTINUOUS
 10
625.708632988
 20
360.4064832019
 11
625.708632988
 21
360.7681852864
  0
LINE
  5
56D
100
AcDbEntity
  8
0
100
AcDbLine
 62
7
  6
CONTINUOUS
 10
629.6044676724
 20
356.6086110609
 11
629.6044676724
 21
357.1511641877
  0
LINE
  5
56E
100
AcDbEntity
  8
0
100
AcDbLine
 62
7
  6
CONTINUOUS
 10
630.6669676724
 20
356.4277600186
 11
630.6669676724
 21
357.3320152299
  0
LINE
  5
56F
100
AcDbEntity
  8
0
100
AcDbLine
 62
7
  6
CONTINUOUS
 10
622.521132988
 20
356.4277600186
 11
622.6982176724
 21
357.3320152299
  0
LINE
  5
570
100
AcDbEntity
  8
0
100
AcDbLine
 62
7
  6
CONTINUOUS
 10
606.9377983036
 20
359.6830790328
 11
607.114882988
 21
360.2256321596
  0
LINE
  5
571
100
AcDbEntity
  8
0
100
AcDbLine
 62
7
  6
CONTINUOUS
 10
596.027382988
 20
343.8122279905
 11
596.3815498236
 21
344.5356321596
  0
LINE
  5
572
100
AcDbEntity
  8
0
100
AcDbLine
 62
7
  6
CONTINUOUS
 10
612.1577987805
 20
371.8266961413
 11
612.616132988
 21
372.7628664063
  0
LINE
  5
573
100
AcDbEntity
  8
0
100
AcDbLine
 62
7
  6
CONTINUOUS
 10
591.246132988
 20
345.0781852864
 11
591.6002996969
 21
345.6207389199
  0
LINE
  5
574
100
AcDbEntity
  8
0
100
AcDbLine
 62
7
  6
CONTINUOUS
 10
610.7827987805
 20
372.2947813557
 11
611.241132988
 21
372.9969089316
  0
LINE
  5
575
100
AcDbEntity
  8
0
100
AcDbLine
 62
7
  6
CONTINUOUS
 10
595.1419661525
 20
344.1739300751
 11
595.496132988
 21
344.7164832019
  0
LINE
  5
576
100
AcDbEntity
  8
0
100
AcDbLine
 62
7
  6
CONTINUOUS
 10
591.0690496336
 20
341.4611641877
 11
591.6002996969
 21
342.1845686101
  0
LINE
  5
577
100
AcDbEntity
  8
0
100
AcDbLine
 62
7
  6
CONTINUOUS
 10
585.333632988
 20
359.5022279905
 11
585.6878003302
 21
359.8639300751
  0
LINE
  5
578
100
AcDbEntity
  8
0
100
AcDbLine
 62
7
  6
CONTINUOUS
 10
588.8753003302
 20
361.6724410044
 11
589.583632988
 21
362.3958451735
  0
LINE
  5
579
100
AcDbEntity
  8
0
100
AcDbLine
 62
7
  6
CONTINUOUS
 10
585.333632988
 20
355.7043557229
 11
585.6878003302
 21
356.0660579341
  0
LINE
  5
57A
100
AcDbEntity
  8
0
100
AcDbLine
 62
7
  6
CONTINUOUS
 10
600.241132988
 20
370.8905259581
 11
601.1578000918
 21
371.8266961413
  0
LINE
  5
57B
100
AcDbEntity
  8
0
100
AcDbLine
 62
7
  6
CONTINUOUS
 10
599.0953000918
 20
371.8266961413
 11
599.7828000918
 21
372.2947813557
  0
LINE
  5
57C
100
AcDbEntity
  8
0
100
AcDbLine
 62
7
  6
CONTINUOUS
 10
589.9378003302
 20
361.3107389199
 11
590.4690503302
 21
361.6724410044
  0
LINE
  5
57D
100
AcDbEntity
  8
0
100
AcDbLine
 62
7
  6
CONTINUOUS
 10
589.6994665399
 20
375.5713770377
 11
590.616132988
 21
376.0394620882
  0
LINE
  5
57E
100
AcDbEntity
  8
0
100
AcDbLine
 62
7
  6
CONTINUOUS
 10
599.3244658842
 20
370.4224408461
 11
600.241132988
 21
370.8905259581
  0
LINE
  5
57F
100
AcDbEntity
  8
0
100
AcDbLine
 62
7
  6
CONTINUOUS
 10
588.7827994361
 20
376.5075471388
 11
589.4702994361
 21
376.7415896641
  0
LINE
  5
580
100
AcDbEntity
  8
KONSTRUKTIONSELEMENTE
100
AcDbLine
 62
7
  6
CONTINUOUS
 10
548.7424804163
 20
425.4554195555
 11
548.1174805653
 21
425.2958451064
  0
LINE
  5
581
100
AcDbEntity
  8
KONSTRUKTIONSELEMENTE
100
AcDbLine
 62
7
  6
CONTINUOUS
 10
548.1174805653
 20
424.3383983003
 11
548.8987307143
 21
424.4979727633
  0
LINE
  5
582
100
AcDbEntity
  8
KONSTRUKTIONSELEMENTE
100
AcDbLine
 62
7
  6
CONTINUOUS
 10
547.4924804908
 20
433.3383983003
 11
548.2737304163
 21
433.4979727633
  0
LINE
  5
583
100
AcDbEntity
  8
KONSTRUKTIONSELEMENTE
100
AcDbLine
 62
7
  6
CONTINUOUS
 10
546.8674806398
 20
433.3383983003
 11
547.4924804908
 21
433.3383983003
  0
LINE
  5
584
100
AcDbEntity
  8
KONSTRUKTIONSELEMENTE
100
AcDbLine
 62
7
  6
CONTINUOUS
 10
547.4924804908
 20
434.2958451064
 11
546.8674806398
 21
434.2958451064
  0
LINE
  5
585
100
AcDbEntity
  8
KONSTRUKTIONSELEMENTE
100
AcDbLine
 62
7
  6
CONTINUOUS
 10
549.9924805653
 20
440.8383983003
 11
549.0549805653
 21
440.8383983003
  0
LINE
  5
586
100
AcDbEntity
  8
KONSTRUKTIONSELEMENTE
100
AcDbLine
 62
7
  6
CONTINUOUS
 10
545.3049805653
 20
440.8383983003
 11
544.3674805653
 21
440.8383983003
  0
LINE
  5
587
100
AcDbEntity
  8
KONSTRUKTIONSELEMENTE
100
AcDbLine
 62
7
  6
CONTINUOUS
 10
548.8987307143
 20
450.4288238512
 11
548.1174805653
 21
450.5883983003
  0
LINE
  5
588
100
AcDbEntity
  8
KONSTRUKTIONSELEMENTE
100
AcDbLine
 62
7
  6
CONTINUOUS
 10
638.563632988
 20
496.6654417656
 11
638.5161236045
 21
497.639059005
  0
LINE
  5
589
100
AcDbEntity
  8
0
100
AcDbLine
 62
7
  6
CONTINUOUS
 10
632.563632988
 20
399.0883983003
 11
632.563632988
 21
390.8383983003
  0
LINE
  5
58A
100
AcDbEntity
  8
0
100
AcDbLine
 62
7
  6
CONTINUOUS
 10
632.563632988
 20
330.3383983003
 11
632.563632988
 21
322.0883983003
  0
LINE
  5
58B
100
AcDbEntity
  8
RUNDUNGEN
100
AcDbLine
 62
7
  6
CONTINUOUS
 10
636.063632988
 20
335.0883983003
 11
636.063632988
 21
386.0883983003
  0
LINE
  5
58C
100
AcDbEntity
  8
0
100
AcDbLine
 62
7
  6
CONTINUOUS
 10
638.563632988
 20
383.3383983003
 11
638.563632988
 21
496.6654417656
  0
LINE
  5
58D
100
AcDbEntity
  8
KONSTRUKTIONSELEMENTE
100
AcDbLine
 62
7
  6
CONTINUOUS
 10
642.2247850203
 20
462.0883983003
 11
642.2247850203
 21
412.0883983003
  0
LINE
  5
58E
100
AcDbEntity
  8
0
100
AcDbLine
 62
7
  6
CONTINUOUS
 10
621.458632988
 20
356.6086110609
 11
621.6357176724
 21
357.3320152299
  0
LINE
  5
58F
100
AcDbEntity
  8
0
100
AcDbLine
 62
7
  6
CONTINUOUS
 10
624.646132988
 20
360.9490368353
 11
624.8232176724
 21
361.6724410044
  0
LINE
  5
590
100
AcDbEntity
  8
0
100
AcDbLine
 62
7
  6
CONTINUOUS
 10
625.708632988
 20
360.7681852864
 11
625.8857176724
 21
361.3107389199
  0
LINE
  5
591
100
AcDbEntity
  8
0
100
AcDbLine
 62
7
  6
CONTINUOUS
 10
622.1669676724
 20
355.7043557229
 11
622.521132988
 21
356.4277600186
  0
LINE
  5
592
100
AcDbEntity
  8
0
100
AcDbLine
 62
7
  6
CONTINUOUS
 10
606.4065483036
 20
358.9596748637
 11
606.9377983036
 21
359.6830790328
  0
LINE
  5
593
100
AcDbEntity
  8
0
100
AcDbLine
 62
7
  6
CONTINUOUS
 10
595.1419661525
 20
340.1952067651
 11
595.6732161525
 21
340.9186110609
  0
LINE
  5
594
100
AcDbEntity
  8
0
100
AcDbLine
 62
7
  6
CONTINUOUS
 10
594.364882988
 20
354.9809514904
 11
595.0732156458
 21
355.7043557229
  0
LINE
  5
595
100
AcDbEntity
  8
0
100
AcDbLine
 62
7
  6
CONTINUOUS
 10
611.241132988
 20
370.8905259581
 11
612.1577987805
 21
371.8266961413
  0
LINE
  5
596
100
AcDbEntity
  8
0
100
AcDbLine
 62
7
  6
CONTINUOUS
 10
590.714882988
 20
345.9824410044
 11
591.246132988
 21
346.5249941312
  0
LINE
  5
597
100
AcDbEntity
  8
0
100
AcDbLine
 62
7
  6
CONTINUOUS
 10
605.521132988
 20
359.5022279905
 11
605.8752983036
 21
359.8639300751
  0
LINE
  5
598
100
AcDbEntity
  8
0
100
AcDbLine
 62
7
  6
CONTINUOUS
 10
595.496132988
 20
343.2696748637
 11
596.027382988
 21
343.8122279905
  0
LINE
  5
599
100
AcDbEntity
  8
0
100
AcDbLine
 62
7
  6
CONTINUOUS
 10
585.5107156458
 20
354.6192493584
 11
586.2190503302
 21
355.1618025327
  0
LINE
  5
59A
100
AcDbEntity
  8
0
100
AcDbLine
 62
7
  6
CONTINUOUS
 10
605.6982176724
 20
358.4171217369
 11
606.4065483036
 21
358.9596748637
  0
LINE
  5
59B
100
AcDbEntity
  8
0
100
AcDbLine
 62
7
  6
CONTINUOUS
 10
610.0952987805
 20
371.8266961413
 11
610.7827987805
 21
372.2947813557
  0
LINE
  5
59C
100
AcDbEntity
  8
0
100
AcDbLine
 62
7
  6
CONTINUOUS
 10
593.4794656458
 20
355.7043557229
 11
594.0107156458
 21
356.0660579341
  0
LINE
  5
59D
100
AcDbEntity
  8
0
100
AcDbLine
 62
7
  6
CONTINUOUS
 10
589.583632988
 20
362.3958451735
 11
590.2919656458
 21
362.757547258
  0
LINE
  5
59E
100
AcDbEntity
  8
0
100
AcDbLine
 62
7
  6
CONTINUOUS
 10
585.864882988
 20
358.7788238214
 11
586.2190503302
 21
358.9596748637
  0
LINE
  5
59F
100
AcDbEntity
  8
0
100
AcDbLine
 62
7
  6
CONTINUOUS
 10
610.3244671955
 20
370.4224408461
 11
611.241132988
 21
370.8905259581
  0
LINE
  5
5A0
100
AcDbEntity
  8
0
100
AcDbLine
 62
7
  6
CONTINUOUS
 10
593.6565503302
 20
354.6192493584
 11
594.364882988
 21
354.9809514904
  0
LINE
  5
5A1
100
AcDbEntity
  8
0
100
AcDbLine
 62
7
  6
CONTINUOUS
 10
584.802382988
 20
359.3213769482
 11
585.333632988
 21
359.5022279905
  0
LINE
  5
5A2
100
AcDbEntity
  8
0
100
AcDbLine
 62
7
  6
CONTINUOUS
 10
584.802382988
 20
355.5235046806
 11
585.333632988
 21
355.7043557229
  0
LINE
  5
5A3
100
AcDbEntity
  8
KONSTRUKTIONSELEMENTE
100
AcDbLine
 62
7
  6
CONTINUOUS
 10
548.1174805653
 20
434.4554195555
 11
547.4924804908
 21
434.2958451064
  0
LINE
  5
5A4
100
AcDbEntity
  8
KONSTRUKTIONSELEMENTE
100
AcDbLine
 62
7
  6
CONTINUOUS
 10
544.3674805653
 20
443.0883983003
 11
545.3049805653
 21
443.0883983003
  0
LINE
  5
5A5
100
AcDbEntity
  8
KONSTRUKTIONSELEMENTE
100
AcDbLine
 62
7
  6
CONTINUOUS
 10
549.2112304163
 20
443.0883983003
 11
550.3049807143
 21
443.0883983003
  0
LINE
  5
5A6
100
AcDbEntity
  8
KONSTRUKTIONSELEMENTE
100
AcDbLine
 62
7
  6
CONTINUOUS
 10
545.3049805653
 20
446.4394621776
 11
547.9612304908
 21
446.4394621776
  0
LINE
  5
5A7
100
AcDbEntity
  8
KONSTRUKTIONSELEMENTE
100
AcDbLine
 62
7
  6
CONTINUOUS
 10
548.2737304163
 20
447.396908872
 11
545.3049805653
 21
447.396908872
  0
LINE
  5
5A8
100
AcDbEntity
  8
0
100
AcDbLine
 62
7
  6
CONTINUOUS
 10
653.6123564191
 20
447.5520590776
 11
652.1015208487
 21
447.5520590776
  0
LINE
  5
5A9
100
AcDbEntity
  8
0
100
AcDbLine
 62
7
  6
CONTINUOUS
 10
645.1733176185
 20
447.5520590776
 11
643.6624820481
 21
447.5520590776
  0
LINE
  5
5AA
100
AcDbEntity
  8
KONSTRUKTIONSELEMENTE
100
AcDbLine
 62
7
  6
CONTINUOUS
 10
545.3049805653
 20
449.790526055
 11
548.2737304163
 21
449.790526055
  0
LINE
  5
5AB
100
AcDbEntity
  8
KONSTRUKTIONSELEMENTE
100
AcDbLine
 62
7
  6
CONTINUOUS
 10
548.1174805653
 20
450.5883983003
 11
544.3674805653
 21
450.5883983003
  0
LINE
  5
5AC
100
AcDbEntity
  8
KONSTRUKTIONSELEMENTE
100
AcDbLine
 62
7
  6
CONTINUOUS
 10
644.2047340445
 20
464.3383983003
 11
644.2047340445
 21
462.0883983003
  0
LINE
  5
5AD
100
AcDbEntity
  8
KONSTRUKTIONSELEMENTE
100
AcDbLine
 62
7
  6
CONTINUOUS
 10
644.2047340445
 20
412.0883983003
 11
644.2047340445
 21
409.8383983003
  0
LINE
  5
5AE
100
AcDbEntity
  8
0
100
AcDbLine
 62
7
  6
CONTINUOUS
 10
647.8765836632
 20
455.0520590776
 11
647.8765836632
 21
452.1357556316
  0
LINE
  5
5AF
100
AcDbEntity
  8
0
100
AcDbLine
 62
7
  6
CONTINUOUS
 10
649.3874192336
 20
452.1333604948
 11
649.3874192336
 21
455.0520590776
  0
LINE
  5
5B0
100
AcDbEntity
  8
KONSTRUKTIONSELEMENTE
100
AcDbLine
 62
7
  6
CONTINUOUS
 10
652.9225319316
 20
464.3383983003
 11
652.9225319316
 21
462.0883983003
  0
LINE
  5
5B1
100
AcDbEntity
  8
KONSTRUKTIONSELEMENTE
100
AcDbLine
 62
7
  6
CONTINUOUS
 10
652.9225319316
 20
412.0883983003
 11
652.9225319316
 21
409.8383983003
  0
LINE
  5
5B2
100
AcDbEntity
  8
RUNDUNGEN
100
AcDbLine
 62
7
  6
CONTINUOUS
 10
654.563632988
 20
499.0289707215
 11
654.563632988
 21
465.9724140752
  0
LINE
  5
5B3
100
AcDbEntity
  8
0
100
AcDbLine
 62
7
  6
CONTINUOUS
 10
630.3127983036
 20
355.7043557229
 11
630.6669676724
 21
356.4277600186
  0
LINE
  5
5B4
100
AcDbEntity
  8
0
100
AcDbLine
 62
7
  6
CONTINUOUS
 10
621.1044676724
 20
356.0660579341
 11
621.458632988
 21
356.6086110609
  0
LINE
  5
5B5
100
AcDbEntity
  8
0
100
AcDbLine
 62
7
  6
CONTINUOUS
 10
629.2502983036
 20
356.0660579341
 11
629.6044676724
 21
356.6086110609
  0
LINE
  5
5B6
100
AcDbEntity
  8
0
100
AcDbLine
 62
7
  6
CONTINUOUS
 10
595.6732161525
 20
339.4718025327
 11
596.2044661525
 21
340.0143557229
  0
LINE
  5
5B7
100
AcDbEntity
  8
0
100
AcDbLine
 62
7
  6
CONTINUOUS
 10
624.8232176724
 20
361.6724410044
 11
625.5315483036
 21
362.3958451735
  0
LINE
  5
5B8
100
AcDbEntity
  8
0
100
AcDbLine
 62
7
  6
CONTINUOUS
 10
621.458632988
 20
354.9809514904
 11
622.1669676724
 21
355.7043557229
  0
LINE
  5
5B9
100
AcDbEntity
  8
0
100
AcDbLine
 62
7
  6
CONTINUOUS
 10
591.6002996969
 20
345.6207389199
 11
592.308632988
 21
346.1632920467
  0
LINE
  5
5BA
100
AcDbEntity
  8
0
100
AcDbLine
 62
7
  6
CONTINUOUS
 10
590.5377996652
 20
342.3654196524
 11
591.246132988
 21
342.9079727792
  0
LINE
  5
5BB
100
AcDbEntity
  8
0
100
AcDbLine
 62
7
  6
CONTINUOUS
 10
594.433632988
 20
343.6313769482
 11
595.1419661525
 21
344.1739300751
  0
LINE
  5
5BC
100
AcDbEntity
  8
0
100
AcDbLine
 62
7
  6
CONTINUOUS
 10
625.8857176724
 20
361.3107389199
 11
626.4169676724
 21
361.6724410044
  0
LINE
  5
5BD
100
AcDbEntity
  8
0
100
AcDbLine
 62
7
  6
CONTINUOUS
 10
620.5732176724
 20
355.7043557229
 11
621.1044676724
 21
356.0660579341
  0
LINE
  5
5BE
100
AcDbEntity
  8
0
100
AcDbLine
 62
7
  6
CONTINUOUS
 10
591.246132988
 20
346.5249941312
 11
592.1315496969
 21
347.067547258
  0
LINE
  5
5BF
100
AcDbEntity
  8
0
100
AcDbLine
 62
7
  6
CONTINUOUS
 10
625.5315483036
 20
362.3958451735
 11
626.239882988
 21
362.757547258
  0
LINE
  5
5C0
100
AcDbEntity
  8
0
100
AcDbLine
 62
7
  6
CONTINUOUS
 10
591.246132988
 20
342.9079727792
 11
591.6002996969
 21
343.0888238214
  0
LINE
  5
5C1
100
AcDbEntity
  8
0
100
AcDbLine
 62
7
  6
CONTINUOUS
 10
591.6002996969
 20
342.1845686101
 11
592.308632988
 21
342.5462706946
  0
LINE
  5
5C2
100
AcDbEntity
  8
0
100
AcDbLine
 62
7
  6
CONTINUOUS
 10
595.1419661525
 20
343.0888238214
 11
595.496132988
 21
343.2696748637
  0
LINE
  5
5C3
100
AcDbEntity
  8
0
100
AcDbLine
 62
7
  6
CONTINUOUS
 10
604.989882988
 20
359.3213769482
 11
605.521132988
 21
359.5022279905
  0
LINE
  5
5C4
100
AcDbEntity
  8
0
100
AcDbLine
 62
7
  6
CONTINUOUS
 10
626.4169676724
 20
361.6724410044
 11
626.9482176724
 21
361.8532920467
  0
LINE
  5
5C5
100
AcDbEntity
  8
0
100
AcDbLine
 62
7
  6
CONTINUOUS
 10
649.3874192336
 20
455.0520590776
 11
647.8765836632
 21
455.0520590776
  0
LINE
  5
5C6
100
AcDbEntity
  8
0
100
AcDbLine
 62
7
  6
CONTINUOUS
 10
653.6123564191
 20
456.0520590776
 11
652.1015208487
 21
456.0520590776
  0
LINE
  5
5C7
100
AcDbEntity
  8
0
100
AcDbLine
 62
7
  6
CONTINUOUS
 10
645.1733176185
 20
456.0520590776
 11
643.6624820481
 21
456.0520590776
  0
LINE
  5
5C8
100
AcDbEntity
  8
KONSTRUKTIONSELEMENTE
100
AcDbLine
 62
7
  6
CONTINUOUS
 10
657.2238870259
 20
462.0883983003
 11
652.9225319316
 21
462.0883983003
  0
LINE
  5
5C9
100
AcDbEntity
  8
KONSTRUKTIONSELEMENTE
100
AcDbLine
 62
7
  6
CONTINUOUS
 10
644.2047340445
 20
462.0883983003
 11
640.1403215545
 21
462.0883983003
  0
LINE
  5
5CA
100
AcDbEntity
  8
0
100
AcDbLine
 62
7
  6
CONTINUOUS
 10
537.9033789502
 20
462.0883983003
 11
542.2047340445
 21
462.0883983003
  0
LINE
  5
5CB
100
AcDbEntity
  8
0
100
AcDbLine
 62
7
  6
CONTINUOUS
 10
550.9225319316
 20
462.0883983003
 11
554.9869444215
 21
462.0883983003
  0
LINE
  5
5CC
100
AcDbEntity
  8
KONSTRUKTIONSELEMENTE
100
AcDbLine
 62
7
  6
CONTINUOUS
 10
652.9225319316
 20
464.3383983003
 11
644.2047340445
 21
464.3383983003
  0
LINE
  5
5CD
100
AcDbEntity
  8
0
100
AcDbLine
 62
7
  6
CONTINUOUS
 10
542.2047340445
 20
464.3383983003
 11
550.9225319316
 21
464.3383983003
  0
LINE
  5
5CE
100
AcDbEntity
  8
0
100
AcDbLine
 62
7
  6
CONTINUOUS
 10
653.6367778475
 20
446.99247833
 11
653.6123564191
 21
447.5520590776
  0
LINE
  5
5CF
100
AcDbEntity
  8
0
100
AcDbLine
 62
7
  6
CONTINUOUS
 10
653.6367778475
 20
455.49247833
 11
653.6123564191
 21
456.0520590776
  0
LINE
  5
5D0
100
AcDbEntity
  8
KONSTRUKTIONSELEMENTE
100
AcDbLine
 62
7
  6
CONTINUOUS
 10
654.9144859491
 20
462.0883983003
 11
654.9144859491
 21
412.0883983003
  0
LINE
  5
5D1
100
AcDbEntity
  8
KONSTRUKTIONSELEMENTE
100
AcDbLine
 62
7
  6
CONTINUOUS
 10
658.563632988
 20
500.2385496421
 11
658.563632988
 21
371.8384216517
  0
LINE
  5
5D2
100
AcDbEntity
  8
0
100
AcDbLine
 62
7
  6
CONTINUOUS
 10
658.563632988
 20
371.8384216517
 11
658.563632988
 21
504.9417238615
  0
LINE
  5
5D3
100
AcDbEntity
  8
0
100
AcDbLine
 62
7
  6
CONTINUOUS
 10
629.6044676724
 20
354.9809514904
 11
630.3127983036
 21
355.7043557229
  0
LINE
  5
5D4
100
AcDbEntity
  8
0
100
AcDbLine
 62
7
  6
CONTINUOUS
 10
628.7190483036
 20
355.7043557229
 11
629.2502983036
 21
356.0660579341
  0
LINE
  5
5D5
100
AcDbEntity
  8
0
100
AcDbLine
 62
7
  6
CONTINUOUS
 10
594.7877998236
 20
338.9292493584
 11
595.6732161525
 21
339.4718025327
  0
LINE
  5
5D6
100
AcDbEntity
  8
0
100
AcDbLine
 62
7
  6
CONTINUOUS
 10
620.7502983036
 20
354.6192493584
 11
621.458632988
 21
354.9809514904
  0
LINE
  5
5D7
100
AcDbEntity
  8
0
100
AcDbLine
 62
7
  6
CONTINUOUS
 10
594.433632988
 20
339.8335046806
 11
595.1419661525
 21
340.1952067651
  0
LINE
  5
5D8
100
AcDbEntity
  8
0
100
AcDbLine
 62
7
  6
CONTINUOUS
 10
628.896132988
 20
354.6192493584
 11
629.6044676724
 21
354.9809514904
  0
LINE
  5
5D9
100
AcDbEntity
  8
KURVEN
100
AcDbLine
 62
4
  6
CONTINUOUS
 10
658.563632988
 20
459.0442108548
 11
659.4857916302
 21
457.4469852362
  0
LINE
  5
5DA
100
AcDbEntity
  8
RUNDUNGEN
100
AcDbLine
 62
7
  6
CONTINUOUS
 10
654.563632988
 20
465.9724140752
 11
646.0235945085
 21
480.7641945992
  0
LINE
  5
5DB
100
AcDbEntity
  8
RUNDUNGEN
100
AcDbLine
 62
7
  6
CONTINUOUS
 10
650.4419049753
 20
493.8902213008
 11
648.563632988
 21
498.1088892558
  0
LINE
  5
5DC
100
AcDbEntity
  8
0
100
AcDbLine
 62
7
  6
CONTINUOUS
 10
648.563632988
 20
498.1088892558
 11
639.0877372685
 21
519.3920995076
  0
LINE
  5
5DD
100
AcDbEntity
  8
RUNDUNGEN
100
AcDbLine
 62
7
  6
CONTINUOUS
 10
639.0877372685
 20
519.3920995076
 11
638.0941953653
 21
521.6236311585
  0
LINE
  5
5DE
100
AcDbEntity
  8
BEZUGSACHSEN
100
AcDbLine
 62
7
  6
CONTINUOUS
 10
613.063632988
 20
259.0883983003
 11
615.563632988
 21
261.5883983003
  0
LINE
  5
5DF
100
AcDbEntity
  8
RUNDUNGEN
100
AcDbLine
 62
7
  6
CONTINUOUS
 10
636.3302634557
 20
523.2399769561
 11
608.1731270219
 21
532.9352565414
  0
LINE
  5
5E0
100
AcDbEntity
  8
0
100
AcDbLine
 62
7
  6
CONTINUOUS
 10
608.1731270219
 20
532.9352565414
 11
607.3921158196
 21
533.2041802646
  0
LINE
  5
5E1
100
AcDbEntity
  8
RUNDUNGEN
100
AcDbLine
 62
7
  6
CONTINUOUS
 10
607.3921158196
 20
533.2041802646
 11
598.5403374514
 21
536.2520919835
  0
LWPOLYLINE
  5
5E2
100
AcDbEntity
  8
0
100
AcDbPolyline
 62
7
  6
CONTINUOUS
 90
15
 70
0
 10
363.4732407156
 20
77.0236539616
 10
363.675268375
 20
77.025649825
 10
364.488575136
 20
77.0741850929
 10
365.3000229653
 20
77.1880820155
 10
366.1013119712
 20
77.3668274985
 10
366.8856210238
 20
77.6089489934
 10
367.6455792658
 20
77.9116416918
 10
368.3747675303
 20
78.271144285
 10
369.0670679139
 20
78.6825108416
 10
369.7181124409
 20
79.1405110529
 10
370.3220178798
 20
79.6373081221
 10
370.8756954186
 20
80.1653045519
 10
371.3754205661
 20
80.7142451657
 10
371.8182700303
 20
81.2717182276
 10
371.8875349677
 20
81.3660217845
  0
LINE
  5
5E3
100
AcDbEntity
  8
0
100
AcDbLine
 62
7
  6
CONTINUOUS
 10
363.4732869633
 20
77.0236540512
 11
362.8174853667
 21
77.0236540512
  0
LINE
  5
5E4
100
AcDbEntity
  8
KONSTRUKTIONSELEMENTE
100
AcDbLine
 62
7
  6
CONTINUOUS
 10
363.4732869633
 20
77.0236540512
 11
362.8174853667
 21
77.0236540512
  0
LINE
  5
5E5
100
AcDbEntity
  8
0
100
AcDbLine
 62
7
  6
CONTINUOUS
 10
354.1069716161
 20
81.9498678056
 11
353.645386165
 21
81.9498678056
  0
LINE
  5
5E6
100
AcDbEntity
  8
0
100
AcDbLine
 62
7
  6
CONTINUOUS
 10
354.0962729404
 20
81.9749306201
 11
353.645386165
 21
81.9749306201
  0
LINE
  5
5E7
100
AcDbEntity
  8
0
100
AcDbLine
 62
7
  6
CONTINUOUS
 10
353.6638936183
 20
83.4857661904
 11
353.645386165
 21
83.4857661904
  0
LINE
  5
5E8
100
AcDbEntity
  8
RUNDUNGEN
100
AcDbLine
 62
7
  6
CONTINUOUS
 10
372.9162073557
 20
84.8860184368
 11
372.8977188752
 21
84.8860184368
  0
LINE
  5
5E9
100
AcDbEntity
  8
RUNDUNGEN
100
AcDbLine
 62
7
  6
CONTINUOUS
 10
353.3930534549
 20
84.8860184368
 11
353.3745932962
 21
84.8860184368
  0
LINE
  5
5EA
100
AcDbEntity
  8
BEZUGSACHSEN
100
AcDbLine
 62
7
  6
CONTINUOUS
 10
303.7682537623
 20
165.5236540512
 11
287.8911213596
 21
138.0236540512
  0
LINE
  5
5EB
100
AcDbEntity
  8
0
100
AcDbLine
 62
7
  6
CONTINUOUS
 10
356.0389945188
 20
196.4677823051
 11
354.145386165
 21
195.3745070123
  0
LINE
  5
5EC
100
AcDbEntity
  8
RUNDUNGEN
100
AcDbLine
 62
7
  6
CONTINUOUS
 10
388.1449524925
 20
99.5236540512
 11
375.4537167967
 21
99.5236540512
  0
LINE
  5
5ED
100
AcDbEntity
  8
RUNDUNGEN
100
AcDbLine
 62
7
  6
CONTINUOUS
 10
350.8370555333
 20
99.5236540512
 11
316.145386165
 21
99.5236540512
  0
LINE
  5
5EE
100
AcDbEntity
  8
KONSTRUKTIONSELEMENTE
100
AcDbLine
 62
7
  6
CONTINUOUS
 10
356.0360923793
 20
79.5812013483
 11
354.145386165
 21
80.6728010901
  0
LINE
  5
5EF
100
AcDbEntity
  8
BEZUGSACHSEN
100
AcDbLine
 62
7
  6
CONTINUOUS
 10
287.8911213596
 20
138.0236540512
 11
303.7682537623
 21
110.5236540512
  0
LINE
  5
5F0
100
AcDbEntity
  8
0
100
AcDbLine
 62
7
  6
CONTINUOUS
 10
295.5257539478
 20
104.9203193668
 11
296.4878371628
 21
104.9203193668
  0
LINE
  5
5F1
100
AcDbEntity
  8
0
100
AcDbLine
 62
7
  6
CONTINUOUS
 10
294.9677524178
 20
105.2744887355
 11
295.9032970651
 21
105.2744887355
  0
LINE
  5
5F2
100
AcDbEntity
  8
0
100
AcDbLine
 62
7
  6
CONTINUOUS
 10
294.6963931976
 20
105.4515693668
 11
295.6195658571
 21
105.4515693668
  0
LINE
  5
5F3
100
AcDbEntity
  8
0
100
AcDbLine
 62
7
  6
CONTINUOUS
 10
294.4298623399
 20
105.6286540512
 11
295.341204494
 21
105.6286540512
  0
LINE
  5
5F4
100
AcDbEntity
  8
0
100
AcDbLine
 62
7
  6
CONTINUOUS
 10
293.6575797816
 20
106.1599040512
 11
294.5363270477
 21
106.1599040512
  0
LINE
  5
5F5
100
AcDbEntity
  8
0
100
AcDbLine
 62
7
  6
CONTINUOUS
 10
292.6860576045
 20
106.8682387355
 11
293.5270286537
 21
106.8682387355
  0
LINE
  5
5F6
100
AcDbEntity
  8
0
100
AcDbLine
 62
7
  6
CONTINUOUS
 10
291.5541865196
 20
107.7536540512
 11
292.3551129425
 21
107.7536540512
  0
LINE
  5
5F7
100
AcDbEntity
  8
0
100
AcDbLine
 62
7
  6
CONTINUOUS
 10
290.5027228297
 20
108.6390693668
 11
291.2697719429
 21
108.6390693668
  0
LINE
  5
5F8
100
AcDbEntity
  8
0
100
AcDbLine
 62
7
  6
CONTINUOUS
 10
289.7129688344
 20
109.3474040512
 11
290.4564257747
 21
109.3474040512
  0
LINE
  5
5F9
100
AcDbEntity
  8
0
100
AcDbLine
 62
7
  6
CONTINUOUS
 10
288.9645893978
 20
110.0557387355
 11
289.6870091759
 21
110.0557387355
  0
LINE
  5
5FA
100
AcDbEntity
  8
BEZUGSACHSEN
100
AcDbLine
 62
7
  6
CONTINUOUS
 10
303.7682537623
 20
110.5236540512
 11
335.5225185677
 21
110.5236540512
  0
LINE
  5
5FB
100
AcDbEntity
  8
0
100
AcDbLine
 62
7
  6
CONTINUOUS
 10
288.2542577756
 20
110.7640693668
 11
288.9577962969
 21
110.7640693668
  0
LINE
  5
5FC
100
AcDbEntity
  8
0
100
AcDbLine
 62
7
  6
CONTINUOUS
 10
288.0822752585
 20
110.9411540512
 11
288.7813916878
 21
110.9411540512
  0
LINE
  5
5FD
100
AcDbEntity
  8
0
100
AcDbLine
 62
7
  6
CONTINUOUS
 10
287.5791276869
 20
111.4724040512
 11
288.2656242679
 21
111.4724040512
  0
LINE
  5
5FE
100
AcDbEntity
  8
0
100
AcDbLine
 62
7
  6
CONTINUOUS
 10
286.3250465837
 20
112.8890693668
 11
286.9820075414
 21
112.8890693668
  0
LINE
  5
5FF
100
AcDbEntity
  8
KONSTRUKTIONSELEMENTE
100
AcDbLine
 62
7
  6
CONTINUOUS
 10
323.2931103259
 20
157.2309862491
 11
323.1503622234
 21
156.9271282689
  0
LINE
  5
600
100
AcDbEntity
  8
KONSTRUKTIONSELEMENTE
100
AcDbLine
 62
7
  6
CONTINUOUS
 10
313.2945332039
 20
149.0236540512
 11
306.9436802428
 21
138.0236540512
  0
LINE
  5
601
100
AcDbEntity
  8
KONSTRUKTIONSELEMENTE
100
AcDbLine
 62
7
  6
CONTINUOUS
 10
323.39484537
 20
156.3607206175
 11
323.7574608816
 21
156.7444439659
  0
LINE
  5
602
100
AcDbEntity
  8
KONSTRUKTIONSELEMENTE
100
AcDbLine
 62
7
  6
CONTINUOUS
 10
323.1503622234
 20
156.9271282689
 11
322.9173689959
 21
156.7416927896
  0
LINE
  5
603
100
AcDbEntity
  8
KONSTRUKTIONSELEMENTE
100
AcDbLine
 62
7
  6
CONTINUOUS
 10
322.9551108475
 20
156.2009898443
 11
323.39484537
 21
156.3607206175
  0
LINE
  5
604
100
AcDbEntity
  8
0
100
AcDbLine
 62
7
  6
CONTINUOUS
 10
285.4609481068
 20
113.9515693668
 11
286.0990096955
 21
113.9515693668
  0
LINE
  5
605
100
AcDbEntity
  8
0
100
AcDbLine
 62
7
  6
CONTINUOUS
 10
285.3228461172
 20
114.1286540512
 11
285.9579885461
 21
114.1286540512
  0
LINE
  5
606
100
AcDbEntity
  8
0
100
AcDbLine
 62
7
  6
CONTINUOUS
 10
285.0515105243
 20
114.4828193668
 11
285.6809954381
 21
114.4828193668
  0
LINE
  5
607
100
AcDbEntity
  8
0
100
AcDbLine
 62
7
  6
CONTINUOUS
 10
284.6563561283
 20
115.0140693668
 11
285.2777815827
 21
115.0140693668
  0
LINE
  5
608
100
AcDbEntity
  8
0
100
AcDbLine
 62
7
  6
CONTINUOUS
 10
284.1507889893
 20
115.7224040512
 11
284.7622019984
 21
115.7224040512
  0
LINE
  5
609
100
AcDbEntity
  8
0
100
AcDbLine
 62
7
  6
CONTINUOUS
 10
283.6685327434
 20
116.4307387355
 11
284.2706938814
 21
116.4307387355
  0
LINE
  5
60A
100
AcDbEntity
  8
0
100
AcDbLine
 62
7
  6
CONTINUOUS
 10
283.2085660003
 20
117.1390693668
 11
283.8021624147
 21
117.1390693668
  0
LINE
  5
60B
100
AcDbEntity
  8
0
100
AcDbLine
 62
7
  6
CONTINUOUS
 10
282.8776575496
 20
117.6703193668
 11
283.4652428479
 21
117.6703193668
  0
LINE
  5
60C
100
AcDbEntity
  8
0
100
AcDbLine
 62
7
  6
CONTINUOUS
 10
282.6635494968
 20
118.0244887355
 11
283.2473104359
 21
118.0244887355
  0
LINE
  5
60D
100
AcDbEntity
  8
0
100
AcDbLine
 62
7
  6
CONTINUOUS
 10
282.5584101361
 20
118.2015693668
 11
283.1403114224
 21
118.2015693668
  0
LINE
  5
60E
100
AcDbEntity
  8
0
100
AcDbLine
 62
7
  6
CONTINUOUS
 10
281.9536037828
 20
119.2640693668
 11
282.525035446
 21
119.2640693668
  0
LINE
  5
60F
100
AcDbEntity
  8
KONSTRUKTIONSELEMENTE
100
AcDbLine
 62
7
  6
CONTINUOUS
 10
306.9436802428
 20
138.0236540512
 11
313.2945332039
 21
127.0236540512
  0
LINE
  5
610
100
AcDbEntity
  8
KONSTRUKTIONSELEMENTE
100
AcDbLine
 62
7
  6
CONTINUOUS
 10
320.2723787888
 20
159.107391413
 11
319.6554652533
 21
154.1455956
  0
LINE
  5
611
100
AcDbEntity
  8
KONSTRUKTIONSELEMENTE
100
AcDbLine
 62
7
  6
CONTINUOUS
 10
320.2756897299
 20
154.068481408
 11
320.5513319518
 21
156.2854540368
  0
LINE
  5
612
100
AcDbEntity
  8
KONSTRUKTIONSELEMENTE
100
AcDbLine
 62
7
  6
CONTINUOUS
 10
320.6300868619
 20
156.9188747034
 11
320.8269741737
 21
158.5024266655
  0
LINE
  5
613
100
AcDbEntity
  8
KONSTRUKTIONSELEMENTE
100
AcDbLine
 62
7
  6
CONTINUOUS
 10
323.3324878177
 20
157.5476968782
 11
323.2931103259
 21
157.2309862491
  0
LINE
  5
614
100
AcDbEntity
  8
KONSTRUKTIONSELEMENTE
100
AcDbLine
 62
7
  6
CONTINUOUS
 10
323.9002089842
 20
157.0483019461
 11
323.9527122943
 21
157.4705826862
  0
LINE
  5
615
100
AcDbEntity
  8
KONSTRUKTIONSELEMENTE
100
AcDbLine
 62
7
  6
CONTINUOUS
 10
325.5896765466
 20
154.2858527608
 11
325.6666413679
 21
154.7171350296
  0
LINE
  5
616
100
AcDbEntity
  8
KONSTRUKTIONSELEMENTE
100
AcDbLine
 62
7
  6
CONTINUOUS
 10
325.0951141795
 20
154.9700817542
 11
324.9750951673
 21
154.4415180786
  0
LINE
  5
617
100
AcDbEntity
  8
KONSTRUKTIONSELEMENTE
100
AcDbLine
 62
7
  6
CONTINUOUS
 10
326.4298111756
 20
157.9857982956
 11
325.0951141795
 21
154.9700817542
  0
LINE
  5
618
100
AcDbEntity
  8
KONSTRUKTIONSELEMENTE
100
AcDbLine
 62
7
  6
CONTINUOUS
 10
325.6666413679
 20
154.7171350296
 11
327.001338364
 21
157.732851571
  0
LINE
  5
619
100
AcDbEntity
  8
KONSTRUKTIONSELEMENTE
100
AcDbLine
 62
7
  6
CONTINUOUS
 10
329.2874460273
 20
156.721065155
 11
327.9527490312
 21
153.7053486136
  0
LINE
  5
61A
100
AcDbEntity
  8
KONSTRUKTIONSELEMENTE
100
AcDbLine
 62
7
  6
CONTINUOUS
 10
328.5242759471
 20
153.4524020096
 11
329.8589729432
 21
156.468118551
  0
LINE
  5
61B
100
AcDbEntity
  8
KONSTRUKTIONSELEMENTE
100
AcDbLine
 62
7
  6
CONTINUOUS
 10
323.7574608816
 20
156.7444439659
 11
323.9002089842
 21
157.0483019461
  0
LINE
  5
61C
100
AcDbEntity
  8
KONSTRUKTIONSELEMENTE
100
AcDbLine
 62
7
  6
CONTINUOUS
 10
328.2137475995
 20
153.0081540295
 11
328.5242759471
 21
153.4524020096
  0
LINE
  5
61D
100
AcDbEntity
  8
KONSTRUKTIONSELEMENTE
100
AcDbLine
 62
7
  6
CONTINUOUS
 10
327.9527490312
 20
153.7053486136
 11
327.6852754197
 21
153.3583817991
  0
LINE
  5
61E
100
AcDbEntity
  8
KONSTRUKTIONSELEMENTE
100
AcDbLine
 62
7
  6
CONTINUOUS
 10
331.8599674129
 20
155.2324971817
 11
328.5775564741
 21
151.4607895539
  0
LINE
  5
61F
100
AcDbEntity
  8
KONSTRUKTIONSELEMENTE
100
AcDbLine
 62
7
  6
CONTINUOUS
 10
329.4680511102
 20
151.5319827762
 11
331.9123997326
 21
154.3407012809
  0
LINE
  5
620
100
AcDbEntity
  8
KONSTRUKTIONSELEMENTE
100
AcDbLine
 62
7
  6
CONTINUOUS
 10
327.8510198352
 20
152.7033447534
 11
328.2137475995
 21
153.0081540295
  0
LINE
  5
621
100
AcDbEntity
  8
KONSTRUKTIONSELEMENTE
100
AcDbLine
 62
7
  6
CONTINUOUS
 10
327.6852754197
 20
153.3583817991
 11
327.3656024215
 21
153.1508537566
  0
LINE
  5
622
100
AcDbEntity
  8
KONSTRUKTIONSELEMENTE
100
AcDbLine
 62
7
  6
CONTINUOUS
 10
327.2977827507
 20
152.4828512068
 11
327.8510198352
 21
152.7033447534
  0
LINE
  5
623
100
AcDbEntity
  8
0
100
AcDbLine
 62
7
  6
CONTINUOUS
 10
281.2136915546
 20
120.6807387355
 11
281.7728202388
 21
120.6807387355
  0
LINE
  5
624
100
AcDbEntity
  8
0
100
AcDbLine
 62
7
  6
CONTINUOUS
 10
280.2640443477
 20
122.7419882587
 11
280.8081439041
 21
122.7419882587
  0
LINE
  5
625
100
AcDbEntity
  8
0
100
AcDbLine
 62
7
  6
CONTINUOUS
 10
280.1673061197
 20
122.9711540512
 11
280.7099202622
 21
122.9711540512
  0
LINE
  5
626
100
AcDbEntity
  8
0
100
AcDbLine
 62
7
  6
CONTINUOUS
 10
279.9789607843
 20
123.4294882587
 11
280.5187062071
 21
123.4294882587
  0
LINE
  5
627
100
AcDbEntity
  8
0
100
AcDbLine
 62
7
  6
CONTINUOUS
 10
279.6224345626
 20
124.3461540512
 11
280.156832516
 21
124.3461540512
  0
LINE
  5
628
100
AcDbEntity
  8
0
100
AcDbLine
 62
7
  6
CONTINUOUS
 10
279.292148718
 20
125.2628198436
 11
279.8216871473
 21
125.2628198436
  0
LWPOLYLINE
  5
629
100
AcDbEntity
  8
KONSTRUKTIONSELEMENTE
100
AcDbPolyline
 62
7
  6
CONTINUOUS
 90
15
 70
0
 10
354.4032379967
 20
81.3660209102
 10
354.4852397067
 20
81.2546022484
 10
354.9287502661
 20
80.6984976487
 10
355.428815534
 20
80.1512508884
 10
355.9824992564
 20
79.62513894
 10
356.5860762313
 20
79.1303045802
 10
357.236455468
 20
78.6742626751
 10
357.9277848357
 20
78.2647593746
 10
358.6557201852
 20
77.9069639002
 10
359.4141908155
 20
77.6057628675
 10
360.1968251627
 20
77.3648752969
 10
360.9963141814
 20
77.1870741397
 10
361.8058934143
 20
77.0738170262
 10
362.6173374576
 20
77.0256137516
 10
362.8175312384
 20
77.0236539613
  0
LINE
  5
62A
100
AcDbEntity
  8
KONSTRUKTIONSELEMENTE
100
AcDbLine
 62
7
  6
CONTINUOUS
 10
324.9750951673
 20
154.4415180786
 11
324.9933852561
 21
153.9680777734
  0
LINE
  5
62B
100
AcDbEntity
  8
KONSTRUKTIONSELEMENTE
100
AcDbLine
 62
7
  6
CONTINUOUS
 10
333.6149539438
 20
152.0128503697
 11
333.4141767972
 21
151.6234707137
  0
LINE
  5
62C
100
AcDbEntity
  8
KONSTRUKTIONSELEMENTE
100
AcDbLine
 62
7
  6
CONTINUOUS
 10
333.8856402506
 20
151.2131693464
 11
334.1562561152
 21
151.6827983161
  0
LINE
  5
62D
100
AcDbEntity
  8
KONSTRUKTIONSELEMENTE
100
AcDbLine
 62
7
  6
CONTINUOUS
 10
333.4141767972
 20
151.6234707137
 11
332.3665988651
 21
150.4197342679
  0
LINE
  5
62E
100
AcDbEntity
  8
KONSTRUKTIONSELEMENTE
100
AcDbLine
 62
7
  6
CONTINUOUS
 10
332.8380623185
 20
150.0094329006
 11
333.8856402506
 21
151.2131693464
  0
LINE
  5
62F
100
AcDbEntity
  8
KONSTRUKTIONSELEMENTE
100
AcDbLine
 62
7
  6
CONTINUOUS
 10
332.4102927646
 20
149.6765707564
 11
332.8380623185
 21
150.0094329006
  0
LINE
  5
630
100
AcDbEntity
  8
KONSTRUKTIONSELEMENTE
100
AcDbLine
 62
7
  6
CONTINUOUS
 10
332.3665988651
 20
150.4197342679
 11
332.0086678334
 21
150.1671212127
  0
LINE
  5
631
100
AcDbEntity
  8
KONSTRUKTIONSELEMENTE
100
AcDbLine
 62
7
  6
CONTINUOUS
 10
331.9737838423
 20
149.492341728
 11
332.4102927646
 21
149.6765707564
  0
LINE
  5
632
100
AcDbEntity
  8
KONSTRUKTIONSELEMENTE
100
AcDbLine
 62
7
  6
CONTINUOUS
 10
337.516967924
 20
128.5882099938
 11
338.0316061583
 21
128.7060280964
  0
LINE
  5
633
100
AcDbEntity
  8
KONSTRUKTIONSELEMENTE
100
AcDbLine
 62
7
  6
CONTINUOUS
 10
337.7651643301
 20
129.161815733
 11
337.389527487
 21
129.0973531245
  0
LINE
  5
634
100
AcDbEntity
  8
KONSTRUKTIONSELEMENTE
100
AcDbLine
 62
7
  6
CONTINUOUS
 10
335.4830678279
 20
132.1922651015
 11
335.8587056862
 21
132.2567298685
  0
LINE
  5
635
100
AcDbEntity
  8
0
100
AcDbLine
 62
7
  6
CONTINUOUS
 10
278.9151326741
 20
126.4086540512
 11
279.4392317083
 21
126.4086540512
  0
LINE
  5
636
100
AcDbEntity
  8
KONSTRUKTIONSELEMENTE
100
AcDbLine
 62
7
  6
CONTINUOUS
 10
313.2945332039
 20
127.0236540512
 11
325.9962391261
 21
127.0236540512
  0
LINE
  5
637
100
AcDbEntity
  8
0
100
AcDbLine
 62
7
  6
CONTINUOUS
 10
277.6277697408
 20
131.9086540512
 11
278.1341144815
 21
131.9086540512
  0
LINE
  5
638
100
AcDbEntity
  8
KONSTRUKTIONSELEMENTE
100
AcDbLine
 62
7
  6
CONTINUOUS
 10
335.3425342838
 20
129.1885772691
 11
335.9134420893
 21
129.1685496822
  0
LINE
  5
639
100
AcDbEntity
  8
KONSTRUKTIONSELEMENTE
100
AcDbLine
 62
7
  6
CONTINUOUS
 10
337.1826974642
 20
128.6193490712
 11
337.516967924
 21
128.5882099938
  0
LINE
  5
63A
100
AcDbEntity
  8
KONSTRUKTIONSELEMENTE
100
AcDbLine
 62
7
  6
CONTINUOUS
 10
335.7860007054
 20
129.6776906248
 11
335.4517301088
 21
129.7088297614
  0
LINE
  5
63B
100
AcDbEntity
  8
KONSTRUKTIONSELEMENTE
100
AcDbLine
 62
7
  6
CONTINUOUS
 10
335.8587056862
 20
132.2567298685
 11
336.1929761461
 21
132.2255907911
  0
LINE
  5
63C
100
AcDbEntity
  8
KONSTRUKTIONSELEMENTE
100
AcDbLine
 62
7
  6
CONTINUOUS
 10
334.854359108
 20
129.3998082869
 11
335.3425342838
 21
129.1885772691
  0
LINE
  5
63D
100
AcDbEntity
  8
KONSTRUKTIONSELEMENTE
100
AcDbLine
 62
7
  6
CONTINUOUS
 10
335.4517301088
 20
129.7088297614
 11
335.1588250854
 21
129.8355683366
  0
LINE
  5
63E
100
AcDbEntity
  8
KONSTRUKTIONSELEMENTE
100
AcDbLine
 62
7
  6
CONTINUOUS
 10
335.1588250854
 20
129.8355683366
 11
334.9072854985
 21
130.0579064096
  0
LINE
  5
63F
100
AcDbEntity
  8
KONSTRUKTIONSELEMENTE
100
AcDbLine
 62
7
  6
CONTINUOUS
 10
334.4489167672
 20
129.802242647
 11
334.854359108
 21
129.3998082869
  0
LINE
  5
640
100
AcDbEntity
  8
KONSTRUKTIONSELEMENTE
100
AcDbLine
 62
7
  6
CONTINUOUS
 10
323.5835537038
 20
153.6572057055
 11
322.9551108475
 21
156.2009898443
  0
LINE
  5
641
100
AcDbEntity
  8
KONSTRUKTIONSELEMENTE
100
AcDbLine
 62
7
  6
CONTINUOUS
 10
322.3086345863
 20
156.0669638324
 11
322.8599582839
 21
153.7471722872
  0
LINE
  5
642
100
AcDbEntity
  8
KONSTRUKTIONSELEMENTE
100
AcDbLine
 62
7
  6
CONTINUOUS
 10
323.2684946252
 20
157.8772595645
 11
323.3324878177
 21
157.5476968782
  0
LINE
  5
643
100
AcDbEntity
  8
KONSTRUKTIONSELEMENTE
100
AcDbLine
 62
7
  6
CONTINUOUS
 10
323.9527122943
 20
157.4705826862
 11
323.8887191018
 21
157.8001453726
  0
LINE
  5
644
100
AcDbEntity
  8
KONSTRUKTIONSELEMENTE
100
AcDbLine
 62
7
  6
CONTINUOUS
 10
325.651021674
 20
153.9096935686
 11
325.5896765466
 21
154.2858527608
  0
LINE
  5
645
100
AcDbEntity
  8
KONSTRUKTIONSELEMENTE
100
AcDbLine
 62
7
  6
CONTINUOUS
 10
334.2784554201
 20
152.1405620549
 11
334.2435008401
 21
152.7350923946
  0
LINE
  5
646
100
AcDbEntity
  8
KONSTRUKTIONSELEMENTE
100
AcDbLine
 62
7
  6
CONTINUOUS
 10
334.6259413607
 20
130.7471436393
 11
334.6524045559
 21
131.0761927006
  0
LINE
  5
647
100
AcDbEntity
  8
KONSTRUKTIONSELEMENTE
100
AcDbLine
 62
7
  6
CONTINUOUS
 10
333.6673149221
 20
152.3903652445
 11
333.6149539438
 21
152.0128503697
  0
LINE
  5
648
100
AcDbEntity
  8
KONSTRUKTIONSELEMENTE
100
AcDbLine
 62
7
  6
CONTINUOUS
 10
334.2055948851
 20
131.3830231867
 11
334.0963998786
 21
130.8627729379
  0
LINE
  5
649
100
AcDbEntity
  8
KONSTRUKTIONSELEMENTE
100
AcDbLine
 62
7
  6
CONTINUOUS
 10
334.1562561152
 20
151.6827983161
 11
334.2784554201
 21
152.1405620549
  0
LINE
  5
64A
100
AcDbEntity
  8
KONSTRUKTIONSELEMENTE
100
AcDbLine
 62
7
  6
CONTINUOUS
 10
325.9962391261
 20
127.0236540512
 11
332.3470920872
 21
138.0236540512
  0
LINE
  5
64B
100
AcDbEntity
  8
KONSTRUKTIONSELEMENTE
100
AcDbLine
 62
7
  6
CONTINUOUS
 10
338.7906054778
 20
143.8911143429
 11
335.2306257013
 21
141.6669932296
  0
LINE
  5
64C
100
AcDbEntity
  8
KONSTRUKTIONSELEMENTE
100
AcDbLine
 62
7
  6
CONTINUOUS
 10
335.8358051751
 20
141.3664885811
 11
339.8956488955
 21
143.8001811735
  0
LINE
  5
64D
100
AcDbEntity
  8
KONSTRUKTIONSELEMENTE
100
AcDbLine
 62
7
  6
CONTINUOUS
 10
335.731264234
 20
132.7658708407
 11
335.2166259656
 21
132.6480527529
  0
LINE
  5
64E
100
AcDbEntity
  8
KONSTRUKTIONSELEMENTE
100
AcDbLine
 62
7
  6
CONTINUOUS
 10
335.8203902119
 20
138.8105746849
 11
340.7171063828
 21
139.8215992846
  0
LINE
  5
64F
100
AcDbEntity
  8
KONSTRUKTIONSELEMENTE
100
AcDbLine
 62
7
  6
CONTINUOUS
 10
336.9161796505
 20
137.7966647654
 11
336.5867315965
 21
137.7320822102
  0
LINE
  5
650
100
AcDbEntity
  8
KONSTRUKTIONSELEMENTE
100
AcDbLine
 62
7
  6
CONTINUOUS
 10
339.1126440233
 20
133.8544580755
 11
339.5476853883
 21
133.9061033866
  0
LINE
  5
651
100
AcDbEntity
  8
KONSTRUKTIONSELEMENTE
100
AcDbLine
 62
7
  6
CONTINUOUS
 10
336.8825149605
 20
134.0227484897
 11
337.3175561835
 21
134.0743914162
  0
LINE
  5
652
100
AcDbEntity
  8
0
100
AcDbLine
 62
7
  6
CONTINUOUS
 10
277.3811329565
 20
133.7419869474
 11
277.88421359
 21
133.7419869474
  0
LINE
  5
653
100
AcDbEntity
  8
0
100
AcDbLine
 62
7
  6
CONTINUOUS
 10
277.2538538431
 20
135.1169869474
 11
277.7552665201
 21
135.1169869474
  0
LINE
  5
654
100
AcDbEntity
  8
0
100
AcDbLine
 62
7
  6
CONTINUOUS
 10
277.2374050589
 20
135.3461540512
 11
277.7386029913
 21
135.3461540512
  0
LINE
  5
655
100
AcDbEntity
  8
0
100
AcDbLine
 62
7
  6
CONTINUOUS
 10
277.2085745677
 20
135.8044869474
 11
277.7093965542
 21
135.8044869474
  0
LINE
  5
656
100
AcDbEntity
  8
0
100
AcDbLine
 62
7
  6
CONTINUOUS
 10
277.1754747476
 20
136.4919869474
 11
277.675865816
 21
136.4919869474
  0
LINE
  5
657
100
AcDbEntity
  8
0
100
AcDbLine
 62
7
  6
CONTINUOUS
 10
277.1502350558
 20
137.4086540512
 11
277.6502984914
 21
137.4086540512
  0
LINE
  5
658
100
AcDbEntity
  8
0
100
AcDbLine
 62
7
  6
CONTINUOUS
 10
277.1465528881
 20
138.3253211549
 11
277.6465680408
 21
138.3253211549
  0
LINE
  5
659
100
AcDbEntity
  8
KONSTRUKTIONSELEMENTE
100
AcDbLine
 62
7
  6
CONTINUOUS
 10
336.3021721079
 20
132.7458432242
 11
335.731264234
 21
132.7658708407
  0
LINE
  5
65A
100
AcDbEntity
  8
KONSTRUKTIONSELEMENTE
100
AcDbLine
 62
7
  6
CONTINUOUS
 10
336.4601414207
 20
134.0744975025
 11
336.8825149605
 21
134.0227484897
  0
LINE
  5
65B
100
AcDbEntity
  8
KONSTRUKTIONSELEMENTE
100
AcDbLine
 62
7
  6
CONTINUOUS
 10
338.9014569576
 20
133.8803326182
 11
339.1126440233
 21
133.8544580755
  0
LINE
  5
65C
100
AcDbEntity
  8
KONSTRUKTIONSELEMENTE
100
AcDbLine
 62
7
  6
CONTINUOUS
 10
336.9458535069
 20
134.5397153763
 11
336.5234799671
 21
134.5914643891
  0
LINE
  5
65D
100
AcDbEntity
  8
KONSTRUKTIONSELEMENTE
100
AcDbLine
 62
7
  6
CONTINUOUS
 10
339.1759828596
 20
134.3714273286
 11
338.9647957939
 21
134.3973018712
  0
LINE
  5
65E
100
AcDbEntity
  8
KONSTRUKTIONSELEMENTE
100
AcDbLine
 62
7
  6
CONTINUOUS
 10
338.2973968182
 20
135.9483085991
 11
337.8750232784
 21
136.000057612
  0
LINE
  5
65F
100
AcDbEntity
  8
KONSTRUKTIONSELEMENTE
100
AcDbLine
 62
7
  6
CONTINUOUS
 10
337.0269827357
 20
132.5457193207
 11
336.3021721079
 21
132.7458432242
  0
LINE
  5
660
100
AcDbEntity
  8
KONSTRUKTIONSELEMENTE
100
AcDbLine
 62
7
  6
CONTINUOUS
 10
338.4917512431
 20
134.0354759549
 11
338.9014569576
 21
133.8803326182
  0
LINE
  5
661
100
AcDbEntity
  8
KONSTRUKTIONSELEMENTE
100
AcDbLine
 62
7
  6
CONTINUOUS
 10
336.1929761461
 20
132.2255907911
 11
336.4858811695
 21
132.0988522159
  0
LINE
  5
662
100
AcDbEntity
  8
KONSTRUKTIONSELEMENTE
100
AcDbLine
 62
7
  6
CONTINUOUS
 10
337.3083277519
 20
131.8564843087
 11
337.5035977675
 21
131.7719919252
  0
LINE
  5
663
100
AcDbEntity
  8
KONSTRUKTIONSELEMENTE
100
AcDbLine
 62
7
  6
CONTINUOUS
 10
337.7104277903
 20
132.2499959785
 11
337.0269827357
 21
132.5457193207
  0
LINE
  5
664
100
AcDbEntity
  8
KONSTRUKTIONSELEMENTE
100
AcDbLine
 62
7
  6
CONTINUOUS
 10
336.1560287273
 20
134.2167012286
 11
336.4601414207
 21
134.0744975025
  0
LINE
  5
665
100
AcDbEntity
  8
KONSTRUKTIONSELEMENTE
100
AcDbLine
 62
7
  6
CONTINUOUS
 10
338.3525074083
 20
131.8586731386
 11
337.7104277903
 21
132.2499959785
  0
LINE
  5
666
100
AcDbEntity
  8
KONSTRUKTIONSELEMENTE
100
AcDbLine
 62
7
  6
CONTINUOUS
 10
337.5035977675
 20
131.7719919252
 11
338.048041431
 21
131.4229130889
  0
LINE
  5
667
100
AcDbEntity
  8
KONSTRUKTIONSELEMENTE
100
AcDbLine
 62
7
  6
CONTINUOUS
 10
336.5234799671
 20
134.5914643891
 11
336.3249610225
 21
134.7207332194
  0
LINE
  5
668
100
AcDbEntity
  8
KONSTRUKTIONSELEMENTE
100
AcDbLine
 62
7
  6
CONTINUOUS
 10
338.9647957939
 20
134.3973018712
 11
338.5677576147
 21
134.6558371654
  0
LINE
  5
669
100
AcDbEntity
  8
KONSTRUKTIONSELEMENTE
100
AcDbLine
 62
7
  6
CONTINUOUS
 10
335.8645842229
 20
134.4623016361
 11
336.1560287273
 21
134.2167012286
  0
LINE
  5
66A
100
AcDbEntity
  8
KONSTRUKTIONSELEMENTE
100
AcDbLine
 62
7
  6
CONTINUOUS
 10
338.2003064488
 20
134.2810739958
 11
338.4917512431
 21
134.0354759549
  0
LINE
  5
66B
100
AcDbEntity
  8
KONSTRUKTIONSELEMENTE
100
AcDbLine
 62
7
  6
CONTINUOUS
 10
336.4858811695
 20
132.0988522159
 11
336.7374208931
 21
131.8765140837
  0
LINE
  5
66C
100
AcDbEntity
  8
KONSTRUKTIONSELEMENTE
100
AcDbLine
 62
7
  6
CONTINUOUS
 10
338.048041431
 20
131.4229130889
 11
338.2995812914
 21
131.2005748975
  0
LINE
  5
66D
100
AcDbEntity
  8
KONSTRUKTIONSELEMENTE
100
AcDbLine
 62
7
  6
CONTINUOUS
 10
338.7579499543
 20
131.4562386897
 11
338.3525074083
 21
131.8586731386
  0
LINE
  5
66E
100
AcDbEntity
  8
KONSTRUKTIONSELEMENTE
100
AcDbLine
 62
7
  6
CONTINUOUS
 10
336.3249610225
 20
134.7207332194
 11
336.1391095392
 21
134.9533940162
  0
LINE
  5
66F
100
AcDbEntity
  8
KONSTRUKTIONSELEMENTE
100
AcDbLine
 62
7
  6
CONTINUOUS
 10
338.5677576147
 20
134.6558371654
 11
338.3819062054
 21
134.8884979531
  0
LINE
  5
670
100
AcDbEntity
  8
KONSTRUKTIONSELEMENTE
100
AcDbLine
 62
7
  6
CONTINUOUS
 10
334.9072854985
 20
130.0579064096
 11
334.6971131733
 21
130.3758483862
  0
LINE
  5
671
100
AcDbEntity
  8
KONSTRUKTIONSELEMENTE
100
AcDbLine
 62
7
  6
CONTINUOUS
 10
338.2995812914
 20
131.2005748975
 11
338.5097535482
 21
130.8826329505
  0
LINE
  5
672
100
AcDbEntity
  8
KONSTRUKTIONSELEMENTE
100
AcDbLine
 62
7
  6
CONTINUOUS
 10
325.8506756298
 20
153.5886578674
 11
325.651021674
 21
153.9096935686
  0
LINE
  5
673
100
AcDbEntity
  8
KONSTRUKTIONSELEMENTE
100
AcDbLine
 62
7
  6
CONTINUOUS
 10
334.1824749049
 20
130.2580302984
 11
334.4489167672
 21
129.802242647
  0
LINE
  5
674
100
AcDbEntity
  8
KONSTRUKTIONSELEMENTE
100
AcDbLine
 62
7
  6
CONTINUOUS
 10
339.0243917825
 20
131.0004510532
 11
338.7579499543
 21
131.4562386897
  0
LINE
  5
675
100
AcDbEntity
  8
KONSTRUKTIONSELEMENTE
100
AcDbLine
 62
7
  6
CONTINUOUS
 10
332.3470920872
 20
138.0236540512
 11
325.9962391261
 21
149.0236540512
  0
LINE
  5
676
100
AcDbEntity
  8
KONSTRUKTIONSELEMENTE
100
AcDbLine
 62
7
  6
CONTINUOUS
 10
323.8887191018
 20
157.8001453726
 11
323.6311101369
 21
158.2609829129
  0
LINE
  5
677
100
AcDbEntity
  8
KONSTRUKTIONSELEMENTE
100
AcDbLine
 62
7
  6
CONTINUOUS
 10
335.6914006019
 20
134.7983567522
 11
335.8645842229
 21
134.4623016361
  0
LINE
  5
678
100
AcDbEntity
  8
KONSTRUKTIONSELEMENTE
100
AcDbLine
 62
7
  6
CONTINUOUS
 10
336.7374208931
 20
131.8765140837
 11
336.8499581422
 21
131.6008183284
  0
LINE
  5
679
100
AcDbEntity
  8
KONSTRUKTIONSELEMENTE
100
AcDbLine
 62
7
  6
CONTINUOUS
 10
324.9933852561
 20
153.9680777734
 11
325.2021838776
 21
153.4103221685
  0
LINE
  5
67A
100
AcDbEntity
  8
KONSTRUKTIONSELEMENTE
100
AcDbLine
 62
7
  6
CONTINUOUS
 10
335.5308845254
 20
135.2378038247
 11
335.6914006019
 21
134.7983567522
  0
LINE
  5
67B
100
AcDbEntity
  8
KONSTRUKTIONSELEMENTE
100
AcDbLine
 62
7
  6
CONTINUOUS
 10
336.1391095392
 20
134.9533940162
 11
336.0588515148
 21
135.1731175508
  0
LINE
  5
67C
100
AcDbEntity
  8
KONSTRUKTIONSELEMENTE
100
AcDbLine
 62
7
  6
CONTINUOUS
 10
334.6971131733
 20
130.3758483862
 11
334.6259413607
 21
130.7471436393
  0
LINE
  5
67D
100
AcDbEntity
  8
KONSTRUKTIONSELEMENTE
100
AcDbLine
 62
7
  6
CONTINUOUS
 10
336.8499581422
 20
131.6008183284
 11
336.9211299548
 21
131.2295230754
  0
LINE
  5
67E
100
AcDbEntity
  8
KONSTRUKTIONSELEMENTE
100
AcDbLine
 62
7
  6
CONTINUOUS
 10
334.0963998786
 20
130.8627729379
 11
334.1824749049
 21
130.2580302984
  0
LINE
  5
67F
100
AcDbEntity
  8
KONSTRUKTIONSELEMENTE
100
AcDbLine
 62
7
  6
CONTINUOUS
 10
335.4759621423
 20
135.6643160082
 11
335.5308845254
 21
135.2378038247
  0
LINE
  5
680
100
AcDbEntity
  8
KONSTRUKTIONSELEMENTE
100
AcDbLine
 62
7
  6
CONTINUOUS
 10
336.0588515148
 20
135.1731175508
 11
336.0165969662
 21
135.703024057
  0
LINE
  5
681
100
AcDbEntity
  8
KONSTRUKTIONSELEMENTE
100
AcDbLine
 62
7
  6
CONTINUOUS
 10
339.9446364345
 20
136.2712166514
 11
339.9868912731
 21
135.7413125116
  0
LINE
  5
682
100
AcDbEntity
  8
KONSTRUKTIONSELEMENTE
100
AcDbLine
 62
7
  6
CONTINUOUS
 10
340.5021903725
 20
135.5732319217
 11
340.4852711845
 21
136.3099247093
  0
LINE
  5
683
100
AcDbEntity
  8
KONSTRUKTIONSELEMENTE
100
AcDbLine
 62
7
  6
CONTINUOUS
 10
336.9211299548
 20
131.2295230754
 11
336.8946667595
 21
130.900474014
  0
LINE
  5
684
100
AcDbEntity
  8
KONSTRUKTIONSELEMENTE
100
AcDbLine
 62
7
  6
CONTINUOUS
 10
338.5809253608
 20
130.5113376974
 11
338.5544621656
 21
130.1822886361
  0
LINE
  5
685
100
AcDbEntity
  8
KONSTRUKTIONSELEMENTE
100
AcDbLine
 62
7
  6
CONTINUOUS
 10
335.5773038745
 20
136.4914635
 11
335.4759621423
 21
135.6643160082
  0
LINE
  5
686
100
AcDbEntity
  8
KONSTRUKTIONSELEMENTE
100
AcDbLine
 62
7
  6
CONTINUOUS
 10
336.0165969662
 20
135.703024057
 11
336.0926033378
 21
136.3233852675
  0
LINE
  5
687
100
AcDbEntity
  8
KONSTRUKTIONSELEMENTE
100
AcDbLine
 62
7
  6
CONTINUOUS
 10
336.8528408142
 20
137.2796955124
 11
336.9161796505
 21
137.7966647654
  0
LINE
  5
688
100
AcDbEntity
  8
KONSTRUKTIONSELEMENTE
100
AcDbLine
 62
7
  6
CONTINUOUS
 10
337.8750232784
 20
136.000057612
 11
337.8243522674
 21
135.5864826828
  0
LINE
  5
689
100
AcDbEntity
  8
KONSTRUKTIONSELEMENTE
100
AcDbLine
 62
7
  6
CONTINUOUS
 10
338.2467258071
 20
135.53473367
 11
338.2973968182
 21
135.9483085991
  0
LINE
  5
68A
100
AcDbEntity
  8
KONSTRUKTIONSELEMENTE
100
AcDbLine
 62
7
  6
CONTINUOUS
 10
339.5433468925
 20
137.3698390571
 11
339.4800083461
 21
136.8528721705
  0
LINE
  5
68B
100
AcDbEntity
  8
KONSTRUKTIONSELEMENTE
100
AcDbLine
 62
7
  6
CONTINUOUS
 10
339.9868912731
 20
135.7413125116
 11
339.936220262
 21
135.3277375825
  0
LINE
  5
68C
100
AcDbEntity
  8
KONSTRUKTIONSELEMENTE
100
AcDbLine
 62
7
  6
CONTINUOUS
 10
340.476855012
 20
135.3664456404
 11
340.5021903725
 21
135.5732319217
  0
LINE
  5
68D
100
AcDbEntity
  8
KONSTRUKTIONSELEMENTE
100
AcDbLine
 62
7
  6
CONTINUOUS
 10
337.341476362
 20
130.5936435576
 11
337.450671377
 21
131.1138938026
  0
LINE
  5
68E
100
AcDbEntity
  8
KONSTRUKTIONSELEMENTE
100
AcDbLine
 62
7
  6
CONTINUOUS
 10
339.0012717681
 20
129.8754581797
 11
339.1104667831
 21
130.3957084247
  0
LINE
  5
68F
100
AcDbEntity
  8
0
100
AcDbLine
 62
7
  6
CONTINUOUS
 10
351.1042841185
 20
179.5477583316
 11
352.2287523251
 21
184.3110820933
  0
LINE
  5
690
100
AcDbEntity
  8
KONSTRUKTIONSELEMENTE
100
AcDbLine
 62
7
  6
CONTINUOUS
 10
340.2825874301
 20
134.6556273592
 11
340.476855012
 21
135.3664456404
  0
LINE
  5
691
100
AcDbEntity
  8
KONSTRUKTIONSELEMENTE
100
AcDbLine
 62
7
  6
CONTINUOUS
 10
337.8243522674
 20
135.5864826828
 11
337.6427525108
 21
134.9790587255
  0
LINE
  5
692
100
AcDbEntity
  8
KONSTRUKTIONSELEMENTE
100
AcDbLine
 62
7
  6
CONTINUOUS
 10
336.0926033378
 20
136.3233852675
 11
336.2615352692
 21
136.8274149009
  0
LINE
  5
693
100
AcDbEntity
  8
KONSTRUKTIONSELEMENTE
100
AcDbLine
 62
7
  6
CONTINUOUS
 10
339.936220262
 20
135.3277375825
 11
339.7672883307
 21
134.8237079491
  0
LINE
  5
694
100
AcDbEntity
  8
KONSTRUKTIONSELEMENTE
100
AcDbLine
 62
7
  6
CONTINUOUS
 10
335.7335682797
 20
136.8921011748
 11
335.5773038745
 21
136.4914635
  0
LINE
  5
695
100
AcDbEntity
  8
KONSTRUKTIONSELEMENTE
100
AcDbLine
 62
7
  6
CONTINUOUS
 10
334.4124258546
 20
131.8610294281
 11
334.2055948851
 21
131.3830231867
  0
LINE
  5
696
100
AcDbEntity
  8
KONSTRUKTIONSELEMENTE
100
AcDbLine
 62
7
  6
CONTINUOUS
 10
334.6524045559
 20
131.0761927006
 11
334.9419663985
 21
131.7453979376
  0
LINE
  5
697
100
AcDbEntity
  8
KONSTRUKTIONSELEMENTE
100
AcDbLine
 62
7
  6
CONTINUOUS
 10
336.8946667595
 20
130.900474014
 11
336.605104917
 21
130.2312687771
  0
LINE
  5
698
100
AcDbEntity
  8
KONSTRUKTIONSELEMENTE
100
AcDbLine
 62
7
  6
CONTINUOUS
 10
337.1346453925
 20
130.1156373162
 11
337.341476362
 21
130.5936435576
  0
LINE
  5
699
100
AcDbEntity
  8
KONSTRUKTIONSELEMENTE
100
AcDbLine
 62
7
  6
CONTINUOUS
 10
337.389527487
 20
129.0973531245
 11
337.1826974642
 21
128.6193490712
  0
LINE
  5
69A
100
AcDbEntity
  8
KONSTRUKTIONSELEMENTE
100
AcDbLine
 62
7
  6
CONTINUOUS
 10
338.5544621656
 20
130.1822886361
 11
338.3062657595
 21
129.6086828969
  0
LINE
  5
69B
100
AcDbEntity
  8
KONSTRUKTIONSELEMENTE
100
AcDbLine
 62
7
  6
CONTINUOUS
 10
338.8358071818
 20
129.4930536242
 11
339.0012717681
 21
129.8754581797
  0
LINE
  5
69C
100
AcDbEntity
  8
KONSTRUKTIONSELEMENTE
100
AcDbLine
 62
7
  6
CONTINUOUS
 10
337.6596719888
 20
134.2423683044
 11
337.9341973051
 21
134.7334606846
  0
LINE
  5
69D
100
AcDbEntity
  8
KONSTRUKTIONSELEMENTE
100
AcDbLine
 62
7
  6
CONTINUOUS
 10
335.9954260884
 20
137.2798015942
 11
335.7335682797
 21
136.8921011748
  0
LINE
  5
69E
100
AcDbEntity
  8
KONSTRUKTIONSELEMENTE
100
AcDbLine
 62
7
  6
CONTINUOUS
 10
336.2615352692
 20
136.8274149009
 11
336.3924640147
 21
137.021263929
  0
LINE
  5
69F
100
AcDbEntity
  8
KONSTRUKTIONSELEMENTE
100
AcDbLine
 62
7
  6
CONTINUOUS
 10
340.0207299391
 20
134.2679293029
 11
340.2825874301
 21
134.6556273592
  0
LINE
  5
6A0
100
AcDbEntity
  8
KONSTRUKTIONSELEMENTE
100
AcDbLine
 62
7
  6
CONTINUOUS
 10
334.7168908938
 20
132.2967872859
 11
334.4124258546
 21
131.8610294281
  0
LINE
  5
6A1
100
AcDbEntity
  8
KONSTRUKTIONSELEMENTE
100
AcDbLine
 62
7
  6
CONTINUOUS
 10
336.8301803619
 20
129.6798794546
 11
337.1346453925
 21
130.1156373162
  0
LINE
  5
6A2
100
AcDbEntity
  8
KONSTRUKTIONSELEMENTE
100
AcDbLine
 62
7
  6
CONTINUOUS
 10
336.2446160811
 20
137.5641076885
 11
335.9954260884
 21
137.2798015942
  0
LINE
  5
6A3
100
AcDbEntity
  8
KONSTRUKTIONSELEMENTE
100
AcDbLine
 62
7
  6
CONTINUOUS
 10
337.6427525108
 20
134.9790587255
 11
337.3935625551
 21
134.6947526267
  0
LINE
  5
6A4
100
AcDbEntity
  8
KONSTRUKTIONSELEMENTE
100
AcDbLine
 62
7
  6
CONTINUOUS
 10
339.7672883307
 20
134.8237079491
 11
339.518098375
 21
134.5394018503
  0
LINE
  5
6A5
100
AcDbEntity
  8
KONSTRUKTIONSELEMENTE
100
AcDbLine
 62
7
  6
CONTINUOUS
 10
334.9419663985
 20
131.7453979376
 11
335.1636996093
 21
131.9899546154
  0
LINE
  5
6A6
100
AcDbEntity
  8
KONSTRUKTIONSELEMENTE
100
AcDbLine
 62
7
  6
CONTINUOUS
 10
336.605104917
 20
130.2312687771
 11
336.3833717062
 21
129.9867120992
  0
LINE
  5
6A7
100
AcDbEntity
  8
KONSTRUKTIONSELEMENTE
100
AcDbLine
 62
7
  6
CONTINUOUS
 10
336.3924640147
 20
137.021263929
 11
336.628986509
 21
137.2021780614
  0
LINE
  5
6A8
100
AcDbEntity
  8
KONSTRUKTIONSELEMENTE
100
AcDbLine
 62
7
  6
CONTINUOUS
 10
339.5476853883
 20
133.9061033866
 11
340.0207299391
 21
134.2679293029
  0
LINE
  5
6A9
100
AcDbEntity
  8
KONSTRUKTIONSELEMENTE
100
AcDbLine
 62
7
  6
CONTINUOUS
 10
335.2166259656
 20
132.6480527529
 11
334.7168908938
 21
132.2967872859
  0
LINE
  5
6AA
100
AcDbEntity
  8
KONSTRUKTIONSELEMENTE
100
AcDbLine
 62
7
  6
CONTINUOUS
 10
335.1636996093
 20
131.9899546154
 11
335.4830678279
 21
132.1922651015
  0
LINE
  5
6AB
100
AcDbEntity
  8
KONSTRUKTIONSELEMENTE
100
AcDbLine
 62
7
  6
CONTINUOUS
 10
336.5867315965
 20
137.7320822102
 11
336.2446160811
 21
137.5641076885
  0
LINE
  5
6AC
100
AcDbEntity
  8
KONSTRUKTIONSELEMENTE
100
AcDbLine
 62
7
  6
CONTINUOUS
 10
337.3175561835
 20
134.0743914162
 11
337.6596719888
 21
134.2423683044
  0
LINE
  5
6AD
100
AcDbEntity
  8
KONSTRUKTIONSELEMENTE
100
AcDbLine
 62
7
  6
CONTINUOUS
 10
339.518098375
 20
134.5394018503
 11
339.1759828596
 21
134.3714273286
  0
LINE
  5
6AE
100
AcDbEntity
  8
KONSTRUKTIONSELEMENTE
100
AcDbLine
 62
7
  6
CONTINUOUS
 10
336.628986509
 20
137.2021780614
 11
336.8528408142
 21
137.2796955124
  0
LINE
  5
6AF
100
AcDbEntity
  8
KONSTRUKTIONSELEMENTE
100
AcDbLine
 62
7
  6
CONTINUOUS
 10
337.3935625551
 20
134.6947526267
 11
336.9458535069
 21
134.5397153763
  0
LINE
  5
6B0
100
AcDbEntity
  8
KONSTRUKTIONSELEMENTE
100
AcDbLine
 62
7
  6
CONTINUOUS
 10
339.5488739276
 20
140.2185772147
 11
335.6940121369
 21
139.4226642062
  0
LINE
  5
6B1
100
AcDbEntity
  8
KONSTRUKTIONSELEMENTE
100
AcDbLine
 62
7
  6
CONTINUOUS
 10
334.9357436871
 20
143.0952013344
 11
338.7906054778
 21
143.8911143429
  0
LINE
  5
6B2
100
AcDbEntity
  8
KONSTRUKTIONSELEMENTE
100
AcDbLine
 62
7
  6
CONTINUOUS
 10
339.7060817831
 20
144.7183154556
 11
334.8093656121
 21
143.7072908558
  0
LINE
  5
6B3
100
AcDbEntity
  8
0
100
AcDbLine
 62
7
  6
CONTINUOUS
 10
277.1644207466
 20
139.2419869474
 11
277.664668072
 21
139.2419869474
  0
LINE
  5
6B4
100
AcDbEntity
  8
0
100
AcDbLine
 62
7
  6
CONTINUOUS
 10
277.1919806531
 20
139.9294869474
 11
277.6925865144
 21
139.9294869474
  0
LINE
  5
6B5
100
AcDbEntity
  8
0
100
AcDbLine
 62
7
  6
CONTINUOUS
 10
277.217109631
 20
140.3878211549
 11
277.7180428545
 21
140.3878211549
  0
LINE
  5
6B6
100
AcDbEntity
  8
0
100
AcDbLine
 62
7
  6
CONTINUOUS
 10
277.2317044516
 20
140.6169869474
 11
277.7328280038
 21
140.6169869474
  0
LINE
  5
6B7
100
AcDbEntity
  8
0
100
AcDbLine
 62
7
  6
CONTINUOUS
 10
277.3478046834
 20
141.9919876031
 11
277.8504474809
 21
141.9919876031
  0
LINE
  5
6B8
100
AcDbEntity
  8
0
100
AcDbLine
 62
7
  6
CONTINUOUS
 10
277.4409685392
 20
142.8161540512
 11
277.944837167
 21
142.8161540512
  0
LINE
  5
6B9
100
AcDbEntity
  8
0
100
AcDbLine
 62
7
  6
CONTINUOUS
 10
277.5793302813
 20
143.8253204993
 11
278.0850305909
 21
143.8253204993
  0
LINE
  5
6BA
100
AcDbEntity
  8
0
100
AcDbLine
 62
7
  6
CONTINUOUS
 10
277.6145018426
 20
144.0544876031
 11
278.1206699048
 21
144.0544876031
  0
LINE
  5
6BB
100
AcDbEntity
  8
0
100
AcDbLine
 62
7
  6
CONTINUOUS
 10
277.6510697014
 20
144.2836540512
 11
278.1577250104
 21
144.2836540512
  0
LINE
  5
6BC
100
AcDbEntity
  8
0
100
AcDbLine
 62
7
  6
CONTINUOUS
 10
277.7691924539
 20
144.9711540512
 11
278.2774281563
 21
144.9711540512
  0
LINE
  5
6BD
100
AcDbEntity
  8
KONSTRUKTIONSELEMENTE
100
AcDbLine
 62
7
  6
CONTINUOUS
 10
340.5275392704
 20
140.7397335667
 11
335.8358051751
 21
141.3664885811
  0
LINE
  5
6BE
100
AcDbEntity
  8
KONSTRUKTIONSELEMENTE
100
AcDbLine
 62
7
  6
CONTINUOUS
 10
335.3991301227
 20
140.8508723111
 11
339.5488739276
 21
140.2185772147
  0
LINE
  5
6BF
100
AcDbEntity
  8
KONSTRUKTIONSELEMENTE
100
AcDbLine
 62
7
  6
CONTINUOUS
 10
339.953052607
 20
137.2146957203
 11
339.5433468925
 21
137.3698390571
  0
LINE
  5
6C0
100
AcDbEntity
  8
KONSTRUKTIONSELEMENTE
100
AcDbLine
 62
7
  6
CONTINUOUS
 10
325.4970925199
 20
153.0471286621
 11
325.9303100284
 21
152.7390587318
  0
LINE
  5
6C1
100
AcDbEntity
  8
KONSTRUKTIONSELEMENTE
100
AcDbLine
 62
7
  6
CONTINUOUS
 10
326.1886384744
 20
153.3227457933
 11
325.8506756298
 21
153.5886578674
  0
LINE
  5
6C2
100
AcDbEntity
  8
KONSTRUKTIONSELEMENTE
100
AcDbLine
 62
7
  6
CONTINUOUS
 10
339.4800083461
 20
136.8528721705
 11
339.7714528505
 21
136.6072717631
  0
LINE
  5
6C3
100
AcDbEntity
  8
KONSTRUKTIONSELEMENTE
100
AcDbLine
 62
7
  6
CONTINUOUS
 10
328.5775564741
 20
151.4607895539
 11
330.4634102879
 21
149.8195840846
  0
LINE
  5
6C4
100
AcDbEntity
  8
KONSTRUKTIONSELEMENTE
100
AcDbLine
 62
7
  6
CONTINUOUS
 10
330.8824414706
 20
150.3010786741
 11
329.4680511102
 21
151.5319827762
  0
LINE
  5
6C5
100
AcDbEntity
  8
KONSTRUKTIONSELEMENTE
100
AcDbLine
 62
7
  6
CONTINUOUS
 10
323.6311101369
 20
158.2609829129
 11
323.257004706
 21
158.6291026953
  0
LINE
  5
6C6
100
AcDbEntity
  8
KONSTRUKTIONSELEMENTE
100
AcDbLine
 62
7
  6
CONTINUOUS
 10
325.2021838776
 20
153.4103221685
 11
325.4970925199
 21
153.0471286621
  0
LINE
  5
6C7
100
AcDbEntity
  8
KONSTRUKTIONSELEMENTE
100
AcDbLine
 62
7
  6
CONTINUOUS
 10
340.3247554257
 20
136.7493741449
 11
339.953052607
 21
137.2146957203
  0
LINE
  5
6C8
100
AcDbEntity
  8
KONSTRUKTIONSELEMENTE
100
AcDbLine
 62
7
  6
CONTINUOUS
 10
323.0880046711
 20
158.1141045296
 11
323.2684946252
 21
157.8772595645
  0
LINE
  5
6C9
100
AcDbEntity
  8
KONSTRUKTIONSELEMENTE
100
AcDbLine
 62
7
  6
CONTINUOUS
 10
337.9341973051
 20
134.7334606846
 11
338.2003064488
 21
134.2810739958
  0
LINE
  5
6CA
100
AcDbEntity
  8
KONSTRUKTIONSELEMENTE
100
AcDbLine
 62
7
  6
CONTINUOUS
 10
339.7714528505
 20
136.6072717631
 11
339.9446364345
 21
136.2712166514
  0
LINE
  5
6CB
100
AcDbEntity
  8
KONSTRUKTIONSELEMENTE
100
AcDbLine
 62
7
  6
CONTINUOUS
 10
334.2435008401
 20
152.7350923946
 11
334.0688692154
 21
153.1691245564
  0
LINE
  5
6CC
100
AcDbEntity
  8
KONSTRUKTIONSELEMENTE
100
AcDbLine
 62
7
  6
CONTINUOUS
 10
340.4852711845
 20
136.3099247093
 11
340.3247554257
 21
136.7493741449
  0
LINE
  5
6CD
100
AcDbEntity
  8
KONSTRUKTIONSELEMENTE
100
AcDbLine
 62
7
  6
CONTINUOUS
 10
333.5712602399
 20
152.756014106
 11
333.6673149221
 21
152.3903652445
  0
LINE
  5
6CE
100
AcDbEntity
  8
0
100
AcDbLine
 62
7
  6
CONTINUOUS
 10
352.2287523251
 20
91.736226009
 11
351.1042841185
 21
96.4995497707
  0
LINE
  5
6CF
100
AcDbEntity
  8
KONSTRUKTIONSELEMENTE
100
AcDbLine
 62
7
  6
CONTINUOUS
 10
338.3819062054
 20
134.8884979531
 11
338.2467258071
 21
135.53473367
  0
LINE
  5
6D0
100
AcDbEntity
  8
KONSTRUKTIONSELEMENTE
100
AcDbLine
 62
7
  6
CONTINUOUS
 10
334.8093656121
 20
143.7072908558
 11
334.9357436871
 21
143.0952013344
  0
LINE
  5
6D1
100
AcDbEntity
  8
KONSTRUKTIONSELEMENTE
100
AcDbLine
 62
7
  6
CONTINUOUS
 10
335.2306257013
 20
141.6669932296
 11
335.3991301227
 21
140.8508723111
  0
LINE
  5
6D2
100
AcDbEntity
  8
KONSTRUKTIONSELEMENTE
100
AcDbLine
 62
7
  6
CONTINUOUS
 10
335.6940121369
 20
139.4226642062
 11
335.8203902119
 21
138.8105746849
  0
LINE
  5
6D3
100
AcDbEntity
  8
KONSTRUKTIONSELEMENTE
100
AcDbLine
 62
7
  6
CONTINUOUS
 10
340.7171063828
 20
139.8215992846
 11
340.5275392704
 21
140.7397335667
  0
LINE
  5
6D4
100
AcDbEntity
  8
KONSTRUKTIONSELEMENTE
100
AcDbLine
 62
7
  6
CONTINUOUS
 10
339.8956488955
 20
143.8001811735
 11
339.7060817831
 21
144.7183154556
  0
LINE
  5
6D5
100
AcDbEntity
  8
KONSTRUKTIONSELEMENTE
100
AcDbLine
 62
7
  6
CONTINUOUS
 10
337.450671377
 20
131.1138938026
 11
337.3083277519
 21
131.8564843087
  0
LINE
  5
6D6
100
AcDbEntity
  8
KONSTRUKTIONSELEMENTE
100
AcDbLine
 62
7
  6
CONTINUOUS
 10
338.5097535482
 20
130.8826329505
 11
338.5809253608
 21
130.5113376974
  0
LINE
  5
6D7
100
AcDbEntity
  8
KONSTRUKTIONSELEMENTE
100
AcDbLine
 62
7
  6
CONTINUOUS
 10
339.1104667831
 20
130.3957084247
 11
339.0243917825
 21
131.0004510532
  0
LINE
  5
6D8
100
AcDbEntity
  8
0
100
AcDbLine
 62
7
  6
CONTINUOUS
 10
353.2604548256
 20
190.5511274894
 11
351.9577336447
 21
183.16302854
  0
LINE
  5
6D9
100
AcDbEntity
  8
0
100
AcDbLine
 62
7
  6
CONTINUOUS
 10
350.8611479199
 20
176.9439818552
 11
350.7870327873
 21
176.5236540512
  0
LINE
  5
6DA
100
AcDbEntity
  8
KONSTRUKTIONSELEMENTE
100
AcDbLine
 62
7
  6
CONTINUOUS
 10
338.5313421512
 20
129.0572957626
 11
338.8358071818
 21
129.4930536242
  0
LINE
  5
6DB
100
AcDbEntity
  8
KONSTRUKTIONSELEMENTE
100
AcDbLine
 62
7
  6
CONTINUOUS
 10
338.3062657595
 20
129.6086828969
 11
338.0845325487
 21
129.3641262191
  0
LINE
  5
6DC
100
AcDbEntity
  8
KONSTRUKTIONSELEMENTE
100
AcDbLine
 62
7
  6
CONTINUOUS
 10
336.3304453157
 20
129.3286139766
 11
336.8301803619
 21
129.6798794546
  0
LINE
  5
6DD
100
AcDbEntity
  8
KONSTRUKTIONSELEMENTE
100
AcDbLine
 62
7
  6
CONTINUOUS
 10
338.0316061583
 20
128.7060280964
 11
338.5313421512
 21
129.0572957626
  0
LINE
  5
6DE
100
AcDbEntity
  8
KONSTRUKTIONSELEMENTE
100
AcDbLine
 62
7
  6
CONTINUOUS
 10
336.3833717062
 20
129.9867120992
 11
336.0640034876
 21
129.7844016131
  0
LINE
  5
6DF
100
AcDbEntity
  8
KONSTRUKTIONSELEMENTE
100
AcDbLine
 62
7
  6
CONTINUOUS
 10
338.0845325487
 20
129.3641262191
 11
337.7651643301
 21
129.161815733
  0
LINE
  5
6E0
100
AcDbEntity
  8
KONSTRUKTIONSELEMENTE
100
AcDbLine
 62
7
  6
CONTINUOUS
 10
336.0640034876
 20
129.7844016131
 11
335.7860007054
 21
129.6776906248
  0
LINE
  5
6E1
100
AcDbEntity
  8
KONSTRUKTIONSELEMENTE
100
AcDbLine
 62
7
  6
CONTINUOUS
 10
335.9134420893
 20
129.1685496822
 11
336.3304453157
 21
129.3286139766
  0
LINE
  5
6E2
100
AcDbEntity
  8
KONSTRUKTIONSELEMENTE
100
AcDbLine
 62
7
  6
CONTINUOUS
 10
332.0086678334
 20
150.1671212127
 11
331.6419974823
 21
150.0631413293
  0
LINE
  5
6E3
100
AcDbEntity
  8
KONSTRUKTIONSELEMENTE
100
AcDbLine
 62
7
  6
CONTINUOUS
 10
331.3801210595
 20
149.4448793283
 11
331.9737838423
 21
149.492341728
  0
LINE
  5
6E4
100
AcDbEntity
  8
0
100
AcDbLine
 62
7
  6
CONTINUOUS
 10
277.9465002379
 20
145.8878204993
 11
278.4571269046
 21
145.8878204993
  0
LINE
  5
6E5
100
AcDbEntity
  8
0
100
AcDbLine
 62
7
  6
CONTINUOUS
 10
278.2004273431
 20
147.0336540512
 11
278.7145178876
 21
147.0336540512
  0
LINE
  5
6E6
100
AcDbEntity
  8
KONSTRUKTIONSELEMENTE
100
AcDbLine
 62
7
  6
CONTINUOUS
 10
325.9962391261
 20
149.0236540512
 11
313.2945332039
 21
149.0236540512
  0
LINE
  5
6E7
100
AcDbEntity
  8
KONSTRUKTIONSELEMENTE
100
AcDbLine
 62
7
  6
CONTINUOUS
 10
331.6419974823
 20
150.0631413293
 11
331.2665886621
 21
150.107793779
  0
LINE
  5
6E8
100
AcDbEntity
  8
KONSTRUKTIONSELEMENTE
100
AcDbLine
 62
7
  6
CONTINUOUS
 10
326.3113281539
 20
152.570427582
 11
326.8306551419
 21
152.4569199998
  0
LINE
  5
6E9
100
AcDbEntity
  8
KONSTRUKTIONSELEMENTE
100
AcDbLine
 62
7
  6
CONTINUOUS
 10
330.9261353273
 20
149.5579151135
 11
331.3801210595
 21
149.4448793283
  0
LINE
  5
6EA
100
AcDbEntity
  8
KONSTRUKTIONSELEMENTE
100
AcDbLine
 62
7
  6
CONTINUOUS
 10
325.9303100284
 20
152.7390587318
 11
326.3113281539
 21
152.570427582
  0
LINE
  5
6EB
100
AcDbEntity
  8
KONSTRUKTIONSELEMENTE
100
AcDbLine
 62
7
  6
CONTINUOUS
 10
326.5696565999
 20
153.1541146435
 11
326.1886384744
 21
153.3227457933
  0
LINE
  5
6EC
100
AcDbEntity
  8
KONSTRUKTIONSELEMENTE
100
AcDbLine
 62
7
  6
CONTINUOUS
 10
322.7910182511
 20
158.2582317367
 11
323.0880046711
 21
158.1141045296
  0
LINE
  5
6ED
100
AcDbEntity
  8
KONSTRUKTIONSELEMENTE
100
AcDbLine
 62
7
  6
CONTINUOUS
 10
331.2665886621
 20
150.107793779
 11
330.8824414706
 21
150.3010786741
  0
LINE
  5
6EE
100
AcDbEntity
  8
KONSTRUKTIONSELEMENTE
100
AcDbLine
 62
7
  6
CONTINUOUS
 10
330.4634102879
 20
149.8195840846
 11
330.9261353273
 21
149.5579151135
  0
LINE
  5
6EF
100
AcDbEntity
  8
KONSTRUKTIONSELEMENTE
100
AcDbLine
 62
7
  6
CONTINUOUS
 10
331.9123997326
 20
154.3407012809
 11
333.326790093
 21
153.1097971789
  0
LINE
  5
6F0
100
AcDbEntity
  8
KONSTRUKTIONSELEMENTE
100
AcDbLine
 62
7
  6
CONTINUOUS
 10
333.7458212267
 20
153.5912917123
 11
331.8599674129
 21
155.2324971817
  0
LINE
  5
6F1
100
AcDbEntity
  8
KONSTRUKTIONSELEMENTE
100
AcDbLine
 62
7
  6
CONTINUOUS
 10
334.0688692154
 20
153.1691245564
 11
333.7458212267
 21
153.5912917123
  0
LINE
  5
6F2
100
AcDbEntity
  8
KONSTRUKTIONSELEMENTE
100
AcDbLine
 62
7
  6
CONTINUOUS
 10
333.326790093
 20
153.1097971789
 11
333.5712602399
 21
152.756014106
  0
LINE
  5
6F3
100
AcDbEntity
  8
KONSTRUKTIONSELEMENTE
100
AcDbLine
 62
7
  6
CONTINUOUS
 10
350.7870327873
 20
99.5236540512
 11
350.8611479199
 21
99.1033262472
  0
LINE
  5
6F4
100
AcDbEntity
  8
KONSTRUKTIONSELEMENTE
100
AcDbLine
 62
7
  6
CONTINUOUS
 10
351.9577336447
 20
92.8842795623
 11
353.2709973096
 21
85.4363912155
  0
LINE
  5
6F5
100
AcDbEntity
  8
KONSTRUKTIONSELEMENTE
100
AcDbLine
 62
7
  6
CONTINUOUS
 10
350.9566544677
 20
97.4930908022
 11
350.9577352219
 21
97.4754768308
  0
LINE
  5
6F6
100
AcDbEntity
  8
RUNDUNGEN
100
AcDbLine
 62
7
  6
CONTINUOUS
 10
350.9577077452
 20
97.4754765549
 11
350.9566686743
 21
97.4930916739
  0
LWPOLYLINE
  5
6F7
100
AcDbEntity
  8
KONSTRUKTIONSELEMENTE
100
AcDbPolyline
 62
7
  6
CONTINUOUS
 90
3
 70
0
 10
349.9411394928
 20
124.459141931
 10
350.0017482084
 20
121.1278804731
 10
350.0367844673
 20
119.5348814545
  0
LINE
  5
6F8
100
AcDbEntity
  8
KONSTRUKTIONSELEMENTE
100
AcDbLine
 62
7
  6
CONTINUOUS
 10
349.8979420501
 20
127.7702783399
 11
349.9411394928
 21
124.459141931
  0
LINE
  5
6F9
100
AcDbEntity
  8
KONSTRUKTIONSELEMENTE
100
AcDbLine
 62
7
  6
CONTINUOUS
 10
349.8956724677
 20
128.1948509045
 11
349.8979420501
 21
127.7702783399
  0
LINE
  5
6FA
100
AcDbEntity
  8
KONSTRUKTIONSELEMENTE
100
AcDbLine
 62
7
  6
CONTINUOUS
 10
349.8956724677
 20
128.1948509045
 11
349.895386165
 21
147.6371538582
  0
LINE
  5
6FB
100
AcDbEntity
  8
0
100
AcDbLine
 62
7
  6
CONTINUOUS
 10
353.645386165
 20
81.9501915571
 11
353.645386165
 21
83.4857661904
  0
LINE
  5
6FC
100
AcDbEntity
  8
0
100
AcDbLine
 62
7
  6
CONTINUOUS
 10
354.145386165
 20
195.3745070123
 11
354.145386165
 21
194.1874305665
  0
LINE
  5
6FD
100
AcDbEntity
  8
KONSTRUKTIONSELEMENTE
100
AcDbLine
 62
7
  6
CONTINUOUS
 10
354.145386165
 20
80.6728010901
 11
354.145386165
 21
81.8598775358
  0
LINE
  5
6FE
100
AcDbEntity
  8
0
100
AcDbLine
 62
7
  6
CONTINUOUS
 10
349.8965133888
 20
148.064765329
 11
349.895386165
 21
128.4588091409
  0
LINE
  5
6FF
100
AcDbEntity
  8
0
100
AcDbLine
 62
7
  6
CONTINUOUS
 10
349.8998779365
 20
148.4803752361
 11
349.8965133888
 21
148.064765329
  0
LINE
  5
700
100
AcDbEntity
  8
0
100
AcDbLine
 62
7
  6
CONTINUOUS
 10
349.9411394928
 20
151.5881661713
 11
349.8998779355
 21
148.4803750205
  0
LWPOLYLINE
  5
701
100
AcDbEntity
  8
0
100
AcDbPolyline
 62
7
  6
CONTINUOUS
 90
3
 70
0
 10
350.0367844673
 20
156.5124266479
 10
350.0017482084
 20
154.9194276293
 10
349.9411394928
 20
151.5881661713
  0
LINE
  5
702
100
AcDbEntity
  8
RUNDUNGEN
100
AcDbLine
 62
7
  6
CONTINUOUS
 10
350.9566686743
 20
178.5542164285
 11
350.9577077934
 21
178.571831547
  0
LINE
  5
703
100
AcDbEntity
  8
0
100
AcDbLine
 62
7
  6
CONTINUOUS
 10
350.9577352219
 20
178.5718312715
 11
350.9566544677
 21
178.5542173001
  0
LINE
  5
704
100
AcDbEntity
  8
BEZUGSACHSEN
100
AcDbLine
 62
7
  6
CONTINUOUS
 10
335.5225185677
 20
110.5236540512
 11
349.895386165
 21
135.4181909801
  0
LINE
  5
705
100
AcDbEntity
  8
KONSTRUKTIONSELEMENTE
100
AcDbLine
 62
7
  6
CONTINUOUS
 10
327.3656024215
 20
153.1508537566
 11
326.9937294615
 21
153.0827646594
  0
LINE
  5
706
100
AcDbEntity
  8
KONSTRUKTIONSELEMENTE
100
AcDbLine
 62
7
  6
CONTINUOUS
 10
326.8306551419
 20
152.4569199998
 11
327.2977827507
 21
152.4828512068
  0
LINE
  5
707
100
AcDbEntity
  8
0
100
AcDbLine
 62
7
  6
CONTINUOUS
 10
279.9451113042
 20
152.5336540512
 11
280.4843443967
 21
152.5336540512
  0
LINE
  5
708
100
AcDbEntity
  8
0
100
AcDbLine
 62
7
  6
CONTINUOUS
 10
281.1373701457
 20
155.2119877223
 11
281.6952601041
 21
155.2119877223
  0
LINE
  5
709
100
AcDbEntity
  8
0
100
AcDbLine
 62
7
  6
CONTINUOUS
 10
281.8692432227
 20
156.6286540512
 11
282.4392446623
 21
156.6286540512
  0
LINE
  5
70A
100
AcDbEntity
  8
KONSTRUKTIONSELEMENTE
100
AcDbLine
 62
7
  6
CONTINUOUS
 10
319.6554652533
 20
154.1455956
 11
320.2756897299
 21
154.068481408
  0
LINE
  5
70B
100
AcDbEntity
  8
KONSTRUKTIONSELEMENTE
100
AcDbLine
 62
7
  6
CONTINUOUS
 10
322.8599582839
 20
153.7471722872
 11
323.5835537038
 21
153.6572057055
  0
LINE
  5
70C
100
AcDbEntity
  8
KONSTRUKTIONSELEMENTE
100
AcDbLine
 62
7
  6
CONTINUOUS
 10
320.5513319518
 20
156.2854540368
 11
322.3086345863
 21
156.0669638324
  0
LINE
  5
70D
100
AcDbEntity
  8
KONSTRUKTIONSELEMENTE
100
AcDbLine
 62
7
  6
CONTINUOUS
 10
322.5941309392
 20
156.6746797745
 11
320.6300868619
 21
156.9188747034
  0
LINE
  5
70E
100
AcDbEntity
  8
KONSTRUKTIONSELEMENTE
100
AcDbLine
 62
7
  6
CONTINUOUS
 10
320.8269741737
 20
158.5024266655
 11
322.7910182511
 21
158.2582317367
  0
LINE
  5
70F
100
AcDbEntity
  8
KONSTRUKTIONSELEMENTE
100
AcDbLine
 62
7
  6
CONTINUOUS
 10
322.7532766953
 20
158.7989346452
 11
320.2723787888
 21
159.107391413
  0
LINE
  5
710
100
AcDbEntity
  8
KONSTRUKTIONSELEMENTE
100
AcDbLine
 62
7
  6
CONTINUOUS
 10
326.9937294615
 20
153.0827646594
 11
326.5696565999
 21
153.1541146435
  0
LINE
  5
711
100
AcDbEntity
  8
KONSTRUKTIONSELEMENTE
100
AcDbLine
 62
7
  6
CONTINUOUS
 10
323.257004706
 20
158.6291026953
 11
322.7532766953
 21
158.7989346452
  0
LINE
  5
712
100
AcDbEntity
  8
KONSTRUKTIONSELEMENTE
100
AcDbLine
 62
7
  6
CONTINUOUS
 10
329.8589729432
 20
156.468118551
 11
329.2874460273
 21
156.721065155
  0
LINE
  5
713
100
AcDbEntity
  8
KONSTRUKTIONSELEMENTE
100
AcDbLine
 62
7
  6
CONTINUOUS
 10
327.001338364
 20
157.732851571
 11
326.4298111756
 21
157.9857982956
  0
LINE
  5
714
100
AcDbEntity
  8
BEZUGSACHSEN
100
AcDbLine
 62
7
  6
CONTINUOUS
 10
349.895386165
 20
140.6291171222
 11
335.5225185677
 21
165.5236540512
  0
LINE
  5
715
100
AcDbEntity
  8
KONSTRUKTIONSELEMENTE
100
AcDbLine
 62
7
  6
CONTINUOUS
 10
322.9173689959
 20
156.7416927896
 11
322.5941309392
 21
156.6746797745
  0
LINE
  5
716
100
AcDbEntity
  8
0
100
AcDbLine
 62
7
  6
CONTINUOUS
 10
285.3403022705
 20
161.9411540512
 11
285.9758121914
 21
161.9411540512
  0
LINE
  5
717
100
AcDbEntity
  8
0
100
AcDbLine
 62
7
  6
CONTINUOUS
 10
286.1954345791
 20
163.0036540512
 11
286.8494888413
 21
163.0036540512
  0
LINE
  5
718
100
AcDbEntity
  8
KURVEN
100
AcDbLine
 62
4
  6
CONTINUOUS
 10
363.145386165
 20
77.0236540512
 11
363.145386165
 21
76.101495409
  0
LINE
  5
719
100
AcDbEntity
  8
0
100
AcDbLine
 62
7
  6
CONTINUOUS
 10
287.4362242132
 20
164.4203208867
 11
288.1192201773
 21
164.4203208867
  0
LINE
  5
71A
100
AcDbEntity
  8
0
100
AcDbLine
 62
7
  6
CONTINUOUS
 10
288.4507268117
 20
165.4828208867
 11
289.1593868932
 21
165.4828208867
  0
LINE
  5
71B
100
AcDbEntity
  8
BEZUGSACHSEN
100
AcDbLine
 62
7
  6
CONTINUOUS
 10
335.5225185677
 20
165.5236540512
 11
303.7682537623
 21
165.5236540512
  0
LINE
  5
71C
100
AcDbEntity
  8
0
100
AcDbLine
 62
7
  6
CONTINUOUS
 10
291.1514630603
 20
167.9619874689
 11
291.9390607073
 21
167.9619874689
  0
LINE
  5
71D
100
AcDbEntity
  8
0
100
AcDbLine
 62
7
  6
CONTINUOUS
 10
372.145386165
 20
195.3745070123
 11
372.145386165
 21
194.1874305665
  0
LINE
  5
71E
100
AcDbEntity
  8
0
100
AcDbLine
 62
7
  6
CONTINUOUS
 10
372.145386165
 20
80.6728010901
 11
372.145386165
 21
81.8598775358
  0
LINE
  5
71F
100
AcDbEntity
  8
0
100
AcDbLine
 62
7
  6
CONTINUOUS
 10
294.4634652688
 20
170.4411540512
 11
295.3762818572
 21
170.4411540512
  0
LINE
  5
720
100
AcDbEntity
  8
0
100
AcDbLine
 62
7
  6
CONTINUOUS
 10
296.1431462904
 20
171.5036540512
 11
297.1364514237
 21
171.5036540512
  0
LINE
  5
721
100
AcDbEntity
  8
RUNDUNGEN
100
AcDbLine
 62
7
  6
CONTINUOUS
 10
316.145386165
 20
176.5236540512
 11
350.8370555333
 21
176.5236540512
  0
LINE
  5
722
100
AcDbEntity
  8
RUNDUNGEN
100
AcDbLine
 62
7
  6
CONTINUOUS
 10
375.4537167967
 20
176.5236540512
 11
388.145386165
 21
176.5236540512
  0
LINE
  5
723
100
AcDbEntity
  8
0
100
AcDbLine
 62
7
  6
CONTINUOUS
 10
375.3341178623
 20
178.5542173001
 11
375.3330371081
 21
178.5718312715
  0
LINE
  5
724
100
AcDbEntity
  8
RUNDUNGEN
100
AcDbLine
 62
7
  6
CONTINUOUS
 10
375.3330645848
 20
178.5718315475
 11
375.3341036557
 21
178.5542164285
  0
LWPOLYLINE
  5
725
100
AcDbEntity
  8
0
100
AcDbPolyline
 62
7
  6
CONTINUOUS
 90
3
 70
0
 10
376.3496328372
 20
151.5881661713
 10
376.2890241216
 20
154.9194276293
 10
376.2539878628
 20
156.5124266479
  0
LINE
  5
726
100
AcDbEntity
  8
0
100
AcDbLine
 62
7
  6
CONTINUOUS
 10
376.3928302799
 20
148.2770297625
 11
376.3496328372
 21
151.5881661713
  0
LINE
  5
727
100
AcDbEntity
  8
0
100
AcDbLine
 62
7
  6
CONTINUOUS
 10
376.3950998624
 20
147.8524571979
 11
376.3928302799
 21
148.2770297625
  0
LINE
  5
728
100
AcDbEntity
  8
0
100
AcDbLine
 62
7
  6
CONTINUOUS
 10
376.3950998624
 20
147.8524571979
 11
376.395386165
 21
128.4101542441
  0
LINE
  5
729
100
AcDbEntity
  8
0
100
AcDbLine
 62
7
  6
CONTINUOUS
 10
376.3942589412
 20
127.9825427734
 11
376.3953861808
 21
128.4101132411
  0
LINE
  5
72A
100
AcDbEntity
  8
0
100
AcDbLine
 62
7
  6
CONTINUOUS
 10
376.3908943935
 20
127.5669328662
 11
376.3942589412
 21
127.9825427734
  0
LINE
  5
72B
100
AcDbEntity
  8
0
100
AcDbLine
 62
7
  6
CONTINUOUS
 10
376.3496328372
 20
124.459141931
 11
376.3908943945
 21
127.5669330819
  0
LWPOLYLINE
  5
72C
100
AcDbEntity
  8
0
100
AcDbPolyline
 62
7
  6
CONTINUOUS
 90
3
 70
0
 10
376.2539878628
 20
119.5348814545
 10
376.2890241216
 20
121.1278804731
 10
376.3496328372
 20
124.459141931
  0
LINE
  5
72D
100
AcDbEntity
  8
RUNDUNGEN
100
AcDbLine
 62
7
  6
CONTINUOUS
 10
375.3341036557
 20
97.4930916739
 11
375.3330645367
 21
97.4754765553
  0
LINE
  5
72E
100
AcDbEntity
  8
0
100
AcDbLine
 62
7
  6
CONTINUOUS
 10
375.3330371081
 20
97.4754768308
 11
375.3341178623
 21
97.4930908022
  0
LINE
  5
72F
100
AcDbEntity
  8
0
100
AcDbLine
 62
7
  6
CONTINUOUS
 10
375.5037395427
 20
99.5236540512
 11
375.4296244101
 21
99.1033262472
  0
LINE
  5
730
100
AcDbEntity
  8
0
100
AcDbLine
 62
7
  6
CONTINUOUS
 10
374.3330386853
 20
92.8842795623
 11
373.0197750205
 21
85.4363912155
  0
LINE
  5
731
100
AcDbEntity
  8
0
100
AcDbLine
 62
7
  6
CONTINUOUS
 10
375.1864882115
 20
96.4995497707
 11
374.0620200049
 21
91.736226009
  0
LINE
  5
732
100
AcDbEntity
  8
0
100
AcDbLine
 62
7
  6
CONTINUOUS
 10
375.1864882115
 20
179.5477583316
 11
374.0620200049
 21
184.3110820933
  0
LINE
  5
733
100
AcDbEntity
  8
0
100
AcDbLine
 62
7
  6
CONTINUOUS
 10
375.4296244101
 20
176.9439818552
 11
375.5037395427
 21
176.5236540512
  0
LINE
  5
734
100
AcDbEntity
  8
0
100
AcDbLine
 62
7
  6
CONTINUOUS
 10
374.3330386853
 20
183.16302854
 11
373.0197750205
 21
190.6109168868
  0
LINE
  5
735
100
AcDbEntity
  8
RUNDUNGEN
100
AcDbLine
 62
7
  6
CONTINUOUS
 10
353.3745649743
 20
191.1612896656
 11
353.3930534549
 21
191.1612896656
  0
LINE
  5
736
100
AcDbEntity
  8
RUNDUNGEN
100
AcDbLine
 62
7
  6
CONTINUOUS
 10
372.8977188752
 20
191.1612896656
 11
372.9161790339
 21
191.1612896656
  0
LINE
  5
737
100
AcDbEntity
  8
RUNDUNGEN
100
AcDbLine
 62
7
  6
CONTINUOUS
 10
392.645386165
 20
104.0236540512
 11
392.645386165
 21
172.0236540512
  0
LWPOLYLINE
  5
738
100
AcDbEntity
  8
0
100
AcDbPolyline
 62
7
  6
CONTINUOUS
 90
15
 70
0
 10
362.8175316144
 20
199.0236541407
 10
362.615503955
 20
199.0216582773
 10
361.802197194
 20
198.9731230095
 10
360.9907493647
 20
198.8592260869
 10
360.1894603588
 20
198.6804806039
 10
359.4051513063
 20
198.438359109
 10
358.6451930642
 20
198.1356664106
 10
357.9160047997
 20
197.7761638174
 10
357.2237044161
 20
197.3647972607
 10
356.5726598891
 20
196.9067970495
 10
355.9687544502
 20
196.4099999803
 10
355.4150769115
 20
195.8820035505
 10
354.9153517639
 20
195.3330629366
 10
354.4725022997
 20
194.7755898748
 10
354.4032373623
 20
194.6812863178
  0
LINE
  5
739
100
AcDbEntity
  8
0
100
AcDbLine
 62
7
  6
CONTINUOUS
 10
363.4732869633
 20
199.0236540512
 11
362.8174853667
 21
199.0236540512
  0
LWPOLYLINE
  5
73A
100
AcDbEntity
  8
0
100
AcDbPolyline
 62
7
  6
CONTINUOUS
 90
15
 70
0
 10
371.8875343333
 20
194.6812871921
 10
371.8055326233
 20
194.7927058539
 10
371.3620220639
 20
195.3488104536
 10
370.8619567961
 20
195.896057214
 10
370.3082730737
 20
196.4221691623
 10
369.7046960987
 20
196.9170035222
 10
369.0543168621
 20
197.3730454272
 10
368.3629874944
 20
197.7825487277
 10
367.6350521448
 20
198.1403442022
 10
366.8765815145
 20
198.4415452349
 10
366.0939471673
 20
198.6824328054
 10
365.2944581486
 20
198.8602339627
 10
364.4848789157
 20
198.9734910761
 10
363.6734348724
 20
199.0216943507
 10
363.4732410916
 20
199.0236541411
  0
LINE
  5
73B
100
AcDbEntity
  8
0
100
AcDbLine
 62
7
  6
CONTINUOUS
 10
370.2517778112
 20
79.5795257973
 11
372.145386165
 21
80.6728010901
  0
LINE
  5
73C
100
AcDbEntity
  8
0
100
AcDbLine
 62
7
  6
CONTINUOUS
 10
370.2546799507
 20
196.466106754
 11
372.145386165
 21
195.3745070123
  0
ARC
  5
73D
100
AcDbEntity
  8
RUNDUNGEN
100
AcDbCircle
 62
7
  6
CONTINUOUS
 10
362.645386165
 20
360.5883983003
 40
30.0
100
AcDbArc
 50
270.0
 51
69.4961260562
  0
ARC
  5
73E
100
AcDbEntity
  8
0
100
AcDbCircle
 62
7
  6
CONTINUOUS
 10
362.9195189735
 20
359.4148130402
 40
13.4778511203
100
AcDbArc
 50
355.5985212895
 51
356.3334144003
  0
ARC
  5
73F
100
AcDbEntity
  8
0
100
AcDbCircle
 62
7
  6
CONTINUOUS
 10
363.0214953148
 20
359.3636331953
 40
13.3738957951
100
AcDbArc
 50
358.8751579187
 51
359.9507292371
  0
ARC
  5
740
100
AcDbEntity
  8
KONSTRUKTIONSELEMENTE
100
AcDbCircle
 62
7
  6
CONTINUOUS
 10
362.4319140572
 20
359.3749261925
 40
12.5365278922
100
AcDbArc
 50
269.744668591
 51
270.0
  0
ARC
  5
741
100
AcDbEntity
  8
KONSTRUKTIONSELEMENTE
100
AcDbCircle
 62
7
  6
CONTINUOUS
 10
362.4319140572
 20
359.3749261925
 40
12.5365278922
100
AcDbArc
 50
244.8379985125
 51
269.4257387503
  0
ARC
  5
742
100
AcDbEntity
  8
KONSTRUKTIONSELEMENTE
100
AcDbCircle
 62
7
  6
CONTINUOUS
 10
362.4319140572
 20
359.3749261925
 40
12.5365278922
100
AcDbArc
 50
180.104110265
 51
184.5490616542
  0
ARC
  5
743
100
AcDbEntity
  8
KONSTRUKTIONSELEMENTE
100
AcDbCircle
 62
7
  6
CONTINUOUS
 10
362.3206339012
 20
359.3484411934
 40
12.4251377311
100
AcDbArc
 50
181.1406757327
 51
183.6709730605
  0
ARC
  5
744
100
AcDbEntity
  8
RUNDUNGEN
100
AcDbCircle
 62
7
  6
CONTINUOUS
 10
282.145386165
 20
335.0883983003
 40
4.5
100
AcDbArc
 50
180.0
 51
270.0
  0
ARC
  5
745
100
AcDbEntity
  8
RUNDUNGEN
100
AcDbCircle
 62
7
  6
CONTINUOUS
 10
282.145386165
 20
386.0883983003
 40
4.5
100
AcDbArc
 50
90.0
 51
180.0
  0
ARC
  5
746
100
AcDbEntity
  8
0
100
AcDbCircle
 62
7
  6
CONTINUOUS
 10
266.7544595475
 20
498.1544783264
 40
106.3909696042
100
AcDbArc
 50
0.0515053795
 51
0.8026598182
  0
ARC
  5
747
100
AcDbEntity
  8
RUNDUNGEN
100
AcDbCircle
 62
7
  6
CONTINUOUS
 10
321.1804032745
 20
533.9898557642
 40
55.2023216683
100
AcDbArc
 50
354.9057211609
 51
356.0721662089
  0
ARC
  5
748
100
AcDbEntity
  8
RUNDUNGEN
100
AcDbCircle
 62
7
  6
CONTINUOUS
 10
346.8348924547
 20
522.3882010019
 40
28.5094652024
100
AcDbArc
 50
353.9675636658
 51
358.4632514994
  0
ARC
  5
749
100
AcDbEntity
  8
RUNDUNGEN
100
AcDbCircle
 62
7
  6
CONTINUOUS
 10
335.145386165
 20
499.0289707215
 40
20.0
100
AcDbArc
 50
0.0
 51
6.0
  0
ARC
  5
74A
100
AcDbEntity
  8
0
100
AcDbCircle
 62
7
  6
CONTINUOUS
 10
356.1067946048
 20
532.6451459158
 40
6.1308765805
100
AcDbArc
 50
174.7683074642
 51
177.2877738287
  0
ARC
  5
74B
100
AcDbEntity
  8
0
100
AcDbCircle
 62
7
  6
CONTINUOUS
 10
349.2976949075
 20
499.6962423133
 40
3.8584299615
100
AcDbArc
 50
359.2370748387
 51
5.665165547
  0
ARC
  5
74C
100
AcDbEntity
  8
RUNDUNGEN
100
AcDbCircle
 62
7
  6
CONTINUOUS
 10
363.145386165
 20
360.5883983003
 40
14.5
100
AcDbArc
 50
139.8482402817
 51
40.1515776346
  0
ARC
  5
74D
100
AcDbEntity
  8
KONSTRUKTIONSELEMENTE
100
AcDbCircle
 62
7
  6
CONTINUOUS
 10
363.3712533567
 20
359.4148130403
 40
13.4778511205
100
AcDbArc
 50
183.6665855997
 51
184.4014787105
  0
ARC
  5
74E
100
AcDbEntity
  8
KONSTRUKTIONSELEMENTE
100
AcDbCircle
 62
7
  6
CONTINUOUS
 10
363.2692770152
 20
359.3636331953
 40
13.3738957951
100
AcDbArc
 50
180.0492707629
 51
181.1248420813
  0
ARC
  5
74F
100
AcDbEntity
  8
0
100
AcDbCircle
 62
7
  6
CONTINUOUS
 10
363.8588582728
 20
359.3749261925
 40
12.5365278922
100
AcDbArc
 50
270.0
 51
285.1307574877
  0
ARC
  5
750
100
AcDbEntity
  8
0
100
AcDbCircle
 62
7
  6
CONTINUOUS
 10
363.8588582728
 20
359.3749261925
 40
12.5365278922
100
AcDbArc
 50
355.4509383458
 51
359.895889735
  0
ARC
  5
751
100
AcDbEntity
  8
0
100
AcDbCircle
 62
7
  6
CONTINUOUS
 10
363.9701384289
 20
359.3484411934
 40
12.4251377309
100
AcDbArc
 50
356.3290269395
 51
358.8593242673
  0
ARC
  5
752
100
AcDbEntity
  8
0
100
AcDbCircle
 62
7
  6
CONTINUOUS
 10
459.5363127826
 20
498.1544783264
 40
106.3909696043
100
AcDbArc
 50
179.1973401818
 51
179.9484946205
  0
ARC
  5
753
100
AcDbEntity
  8
RUNDUNGEN
100
AcDbCircle
 62
7
  6
CONTINUOUS
 10
405.1246901126
 20
533.9910356678
 40
55.2166903202
100
AcDbArc
 50
183.9280656194
 51
185.0942060586
  0
ARC
  5
754
100
AcDbEntity
  8
RUNDUNGEN
100
AcDbCircle
 62
7
  6
CONTINUOUS
 10
379.4558798753
 20
522.3882010019
 40
28.5094652023
100
AcDbArc
 50
181.5367485006
 51
186.0324363342
  0
ARC
  5
755
100
AcDbEntity
  8
RUNDUNGEN
100
AcDbCircle
 62
7
  6
CONTINUOUS
 10
391.145386165
 20
499.0289707215
 40
20.0
100
AcDbArc
 50
174.0
 51
180.0
  0
ARC
  5
756
100
AcDbEntity
  8
KONSTRUKTIONSELEMENTE
100
AcDbCircle
 62
7
  6
CONTINUOUS
 10
363.145386165
 20
531.5883983003
 40
13.25
100
AcDbArc
 50
179.9826568223
 51
186.0
  0
ARC
  5
757
100
AcDbEntity
  8
0
100
AcDbCircle
 62
7
  6
CONTINUOUS
 10
363.145386165
 20
531.5883983003
 40
13.25
100
AcDbArc
 50
179.9826568223
 51
186.0
  0
ARC
  5
758
100
AcDbEntity
  8
0
100
AcDbCircle
 62
7
  6
CONTINUOUS
 10
363.145386165
 20
531.5883983003
 40
13.25
100
AcDbArc
 50
354.0
 51
0.0173431777
  0
ARC
  5
759
100
AcDbEntity
  8
0
100
AcDbCircle
 62
7
  6
CONTINUOUS
 10
370.1839777213
 20
532.6451459155
 40
6.1308765845
100
AcDbArc
 50
2.7122261708
 51
5.2316925354
  0
ARC
  5
75A
100
AcDbEntity
  8
0
100
AcDbCircle
 62
7
  6
CONTINUOUS
 10
376.9930773648
 20
499.6962423157
 40
3.8584299038
100
AcDbArc
 50
174.3348344049
 51
180.7629252095
  0
ARC
  5
75B
100
AcDbEntity
  8
0
100
AcDbCircle
 62
7
  6
CONTINUOUS
 10
561.563632988
 20
371.8383983003
 40
25.0
100
AcDbArc
 50
180.0
 51
264.2604696174
  0
ARC
  5
75C
100
AcDbEntity
  8
0
100
AcDbCircle
 62
7
  6
CONTINUOUS
 10
566.563632988
 20
383.3383983003
 40
10.0
100
AcDbArc
 50
180.0
 51
221.4052790986
  0
ARC
  5
75D
100
AcDbEntity
  8
RUNDUNGEN
100
AcDbCircle
 62
7
  6
CONTINUOUS
 10
563.563632988
 20
386.0883983003
 40
4.5
100
AcDbArc
 50
90.0
 51
180.0
  0
ARC
  5
75E
100
AcDbEntity
  8
RUNDUNGEN
100
AcDbCircle
 62
7
  6
CONTINUOUS
 10
563.563632988
 20
335.0883983003
 40
4.5
100
AcDbArc
 50
180.0
 51
270.0
  0
ARC
  5
75F
100
AcDbEntity
  8
RUNDUNGEN
100
AcDbCircle
 62
7
  6
CONTINUOUS
 10
18.7033054182
 20
487.4033346127
 40
635.9888257449
100
AcDbArc
 50
1.2357789663
 51
1.5183538144
  0
ARC
  5
760
100
AcDbEntity
  8
0
100
AcDbCircle
 62
7
  6
CONTINUOUS
 10
595.306455614
 20
444.8892242824
 40
92.6727681525
100
AcDbArc
 50
88.6043415989
 51
95.0574067842
  0
ARC
  5
761
100
AcDbEntity
  8
0
100
AcDbCircle
 62
7
  6
CONTINUOUS
 10
566.563632988
 20
504.9417238615
 40
30.0
100
AcDbArc
 50
125.4111122953
 51
180.0
  0
ARC
  5
762
100
AcDbEntity
  8
RUNDUNGEN
100
AcDbCircle
 62
7
  6
CONTINUOUS
 10
555.482611807
 20
499.0300813662
 40
14.9189788603
100
AcDbArc
 50
176.7240313493
 51
180.0042653895
  0
ARC
  5
763
100
AcDbEntity
  8
RUNDUNGEN
100
AcDbCircle
 62
7
  6
CONTINUOUS
 10
555.4364538919
 20
500.7851337241
 40
14.8571588615
100
AcDbArc
 50
178.7102725468
 51
182.2600194888
  0
ARC
  5
764
100
AcDbEntity
  8
0
100
AcDbCircle
 62
7
  6
CONTINUOUS
 10
566.563632988
 20
496.6654417656
 40
10.0
100
AcDbArc
 50
131.267427381
 51
174.4127337815
  0
ARC
  5
765
100
AcDbEntity
  8
RUNDUNGEN
100
AcDbCircle
 62
7
  6
CONTINUOUS
 10
537.3157376775
 20
500.0702949801
 40
3.2776516134
100
AcDbArc
 50
356.7176952876
 51
2.2547815473
  0
ARC
  5
766
100
AcDbEntity
  8
RUNDUNGEN
100
AcDbCircle
 62
7
  6
CONTINUOUS
 10
546.5055952571
 20
482.2641946008
 40
3.0
100
AcDbArc
 50
329.9999999646
 51
30.0
  0
ARC
  5
767
100
AcDbEntity
  8
RUNDUNGEN
100
AcDbCircle
 62
7
  6
CONTINUOUS
 10
559.7737069837
 20
520.4034212293
 40
3.0
100
AcDbArc
 50
109.0
 51
156.0
  0
ARC
  5
768
100
AcDbEntity
  8
RUNDUNGEN
100
AcDbCircle
 62
7
  6
CONTINUOUS
 10
547.4259973736
 20
492.6700113716
 40
3.0
100
AcDbArc
 50
156.0
 51
210.0
  0
ARC
  5
769
100
AcDbEntity
  8
0
100
AcDbCircle
 62
7
  6
CONTINUOUS
 10
633.563632988
 20
371.8383983003
 40
25.0
100
AcDbArc
 50
275.7395303826
 51
360.0
  0
ARC
  5
76A
100
AcDbEntity
  8
0
100
AcDbCircle
 62
7
  6
CONTINUOUS
 10
628.563632988
 20
383.3383983003
 40
10.0
100
AcDbArc
 50
318.5947209014
 51
360.0
  0
ARC
  5
76B
100
AcDbEntity
  8
RUNDUNGEN
100
AcDbCircle
 62
7
  6
CONTINUOUS
 10
631.563632988
 20
386.0883983003
 40
4.5
100
AcDbArc
 50
0.0
 51
90.0
  0
ARC
  5
76C
100
AcDbEntity
  8
RUNDUNGEN
100
AcDbCircle
 62
7
  6
CONTINUOUS
 10
631.563632988
 20
335.0883983003
 40
4.5
100
AcDbArc
 50
270.0
 51
360.0
  0
ARC
  5
76D
100
AcDbEntity
  8
RUNDUNGEN
100
AcDbCircle
 62
7
  6
CONTINUOUS
 10
1176.4239605421
 20
487.403334613
 40
635.9888257292
100
AcDbArc
 50
178.4816461856
 51
178.7642210337
  0
ARC
  5
76E
100
AcDbEntity
  8
0
100
AcDbCircle
 62
7
  6
CONTINUOUS
 10
599.820810176
 20
444.8892184626
 40
92.6727739661
100
AcDbArc
 50
84.9425934184
 51
91.3956581985
  0
ARC
  5
76F
100
AcDbEntity
  8
KONSTRUKTIONSELEMENTE
100
AcDbCircle
 62
7
  6
CONTINUOUS
 10
597.563632988
 20
461.3383983003
 40
83.5
100
AcDbArc
 50
54.5888877047
 51
81.6388609801
  0
ARC
  5
770
100
AcDbEntity
  8
0
100
AcDbCircle
 62
7
  6
CONTINUOUS
 10
597.563632988
 20
461.3383983003
 40
83.5
100
AcDbArc
 50
81.6388609801
 51
125.4111122953
  0
ARC
  5
771
100
AcDbEntity
  8
0
100
AcDbCircle
 62
7
  6
CONTINUOUS
 10
597.563632988
 20
461.3383983003
 40
57.0
100
AcDbArc
 50
48.732572619
 51
131.267427381
  0
ARC
  5
772
100
AcDbEntity
  8
KONSTRUKTIONSELEMENTE
100
AcDbCircle
 62
7
  6
CONTINUOUS
 10
628.563632988
 20
504.9417238615
 40
30.0
100
AcDbArc
 50
0.0
 51
54.5888877047
  0
ARC
  5
773
100
AcDbEntity
  8
RUNDUNGEN
100
AcDbCircle
 62
7
  6
CONTINUOUS
 10
639.644654169
 20
499.0300813662
 40
14.9189788603
100
AcDbArc
 50
359.9957346105
 51
3.2759686507
  0
ARC
  5
774
100
AcDbEntity
  8
RUNDUNGEN
100
AcDbCircle
 62
7
  6
CONTINUOUS
 10
639.6908120841
 20
500.7851337241
 40
14.8571588615
100
AcDbArc
 50
357.7399805112
 51
1.2897274532
  0
ARC
  5
775
100
AcDbEntity
  8
0
100
AcDbCircle
 62
7
  6
CONTINUOUS
 10
628.563632988
 20
496.6654417656
 40
10.0
100
AcDbArc
 50
5.5872662185
 51
48.732572619
  0
ARC
  5
776
100
AcDbEntity
  8
0
100
AcDbCircle
 62
7
  6
CONTINUOUS
 10
648.6374192336
 20
455.5520590776
 40
5.0
100
AcDbArc
 50
174.2608295227
 51
359.3171996582
  0
ARC
  5
777
100
AcDbEntity
  8
0
100
AcDbCircle
 62
7
  6
CONTINUOUS
 10
648.6374192336
 20
447.0520590776
 40
5.0
100
AcDbArc
 50
174.2608295227
 51
359.3171996582
  0
ARC
  5
778
100
AcDbEntity
  8
0
100
AcDbCircle
 62
7
  6
CONTINUOUS
 10
648.6374192336
 20
455.5520590776
 40
3.5
100
AcDbArc
 50
282.3736251162
 51
8.2132107017
  0
ARC
  5
779
100
AcDbEntity
  8
0
100
AcDbCircle
 62
7
  6
CONTINUOUS
 10
648.6374192336
 20
455.5520590776
 40
3.5
100
AcDbArc
 50
171.7867892983
 51
257.4447123387
  0
ARC
  5
77A
100
AcDbEntity
  8
0
100
AcDbCircle
 62
7
  6
CONTINUOUS
 10
648.6374192336
 20
447.0520590776
 40
3.5
100
AcDbArc
 50
171.7867892983
 51
8.2132107017
  0
ARC
  5
77B
100
AcDbEntity
  8
RUNDUNGEN
100
AcDbCircle
 62
7
  6
CONTINUOUS
 10
657.8115282985
 20
500.0702949801
 40
3.2776516134
100
AcDbArc
 50
177.7452184527
 51
183.2823047124
  0
ARC
  5
77C
100
AcDbEntity
  8
RUNDUNGEN
100
AcDbCircle
 62
7
  6
CONTINUOUS
 10
635.3535589924
 20
520.4034212293
 40
3.0
100
AcDbArc
 50
24.0
 51
71.0
  0
ARC
  5
77D
100
AcDbEntity
  8
RUNDUNGEN
100
AcDbCircle
 62
7
  6
CONTINUOUS
 10
647.7012686024
 20
492.6700113716
 40
3.0
100
AcDbArc
 50
330.0
 51
24.0
  0
ARC
  5
77E
100
AcDbEntity
  8
RUNDUNGEN
100
AcDbCircle
 62
7
  6
CONTINUOUS
 10
648.6216707189
 20
482.2641946008
 40
3.0
100
AcDbArc
 50
150.0
 51
210.0000000354
  0
ARC
  5
77F
100
AcDbEntity
  8
RUNDUNGEN
100
AcDbCircle
 62
7
  6
CONTINUOUS
 10
597.563632988
 20
533.4155362567
 40
3.0
100
AcDbArc
 50
71.0
 51
109.0
  0
ARC
  5
780
100
AcDbEntity
  8
0
100
AcDbCircle
 62
7
  6
CONTINUOUS
 10
-502.1840885958
 20
135.7576523959
 40
877.2693299401
100
AcDbArc
 50
359.467008994
 51
0.1479961412
  0
ARC
  5
781
100
AcDbEntity
  8
0
100
AcDbCircle
 62
7
  6
CONTINUOUS
 10
57.6617189575
 20
130.6631890946
 40
317.4003755308
100
AcDbArc
 50
359.3263679997
 51
359.4464990621
  0
ARC
  5
782
100
AcDbEntity
  8
RUNDUNGEN
100
AcDbCircle
 62
7
  6
CONTINUOUS
 10
137.8234295008
 20
115.0759708362
 40
238.128836174
100
AcDbArc
 50
356.1910246632
 51
357.124527905
  0
ARC
  5
783
100
AcDbEntity
  8
0
100
AcDbCircle
 62
7
  6
CONTINUOUS
 10
324.9409877995
 20
126.5767861066
 40
51.3738235927
100
AcDbArc
 50
0.9339409113
 51
1.805238032
  0
ARC
  5
784
100
AcDbEntity
  8
RUNDUNGEN
100
AcDbCircle
 62
7
  6
CONTINUOUS
 10
363.145386165
 20
87.0236540512
 40
10.0
100
AcDbArc
 50
183.8281634054
 51
192.3433598786
  0
ARC
  5
785
100
AcDbEntity
  8
RUNDUNGEN
100
AcDbCircle
 62
7
  6
CONTINUOUS
 10
363.145386165
 20
87.0236540512
 40
10.0
100
AcDbArc
 50
347.6566025411
 51
356.1718365946
  0
ARC
  5
786
100
AcDbEntity
  8
RUNDUNGEN
100
AcDbCircle
 62
7
  6
CONTINUOUS
 10
342.4285087513
 20
137.9275725959
 40
8.2989396203
100
AcDbArc
 50
0.6634036549
 51
7.427285091
  0
ARC
  5
787
100
AcDbEntity
  8
0
100
AcDbCircle
 62
7
  6
CONTINUOUS
 10
-505.2228705636
 20
140.2794462297
 40
880.3080755845
100
AcDbArc
 50
359.8531792263
 51
0.5318156385
  0
ARC
  5
788
100
AcDbEntity
  8
0
100
AcDbCircle
 62
7
  6
CONTINUOUS
 10
57.6617189638
 20
145.3841190078
 40
317.4003755244
100
AcDbArc
 50
0.5535009379
 51
0.6736320003
  0
ARC
  5
789
100
AcDbEntity
  8
RUNDUNGEN
100
AcDbCircle
 62
7
  6
CONTINUOUS
 10
137.8198779177
 20
160.9711457568
 40
238.1323926339
100
AcDbArc
 50
2.8754752489
 51
3.8089645466
  0
ARC
  5
78A
100
AcDbEntity
  8
0
100
AcDbCircle
 62
7
  6
CONTINUOUS
 10
316.145386165
 20
138.0236540512
 40
39.0
100
AcDbArc
 50
236.6459749888
 51
238.0817639175
  0
ARC
  5
78B
100
AcDbEntity
  8
0
100
AcDbCircle
 62
7
  6
CONTINUOUS
 10
316.145386165
 20
138.0236540512
 40
39.0
100
AcDbArc
 50
222.9062898239
 51
236.634758465
  0
ARC
  5
78C
100
AcDbEntity
  8
0
100
AcDbCircle
 62
7
  6
CONTINUOUS
 10
316.145386165
 20
138.0236540512
 40
39.0
100
AcDbArc
 50
208.7517137367
 51
220.126438854
  0
ARC
  5
78D
100
AcDbEntity
  8
0
100
AcDbCircle
 62
7
  6
CONTINUOUS
 10
316.145386165
 20
138.0236540512
 40
39.0
100
AcDbArc
 50
153.8497558375
 51
206.403515482
  0
ARC
  5
78E
100
AcDbEntity
  8
0
100
AcDbCircle
 62
7
  6
CONTINUOUS
 10
316.145386165
 20
138.0236540512
 40
39.0
100
AcDbArc
 50
140.1699301303
 51
151.5070069679
  0
ARC
  5
78F
100
AcDbEntity
  8
0
100
AcDbCircle
 62
7
  6
CONTINUOUS
 10
316.145386165
 20
138.0236540512
 40
39.0
100
AcDbArc
 50
120.8557191042
 51
137.4029856501
  0
ARC
  5
790
100
AcDbEntity
  8
RUNDUNGEN
100
AcDbCircle
 62
7
  6
CONTINUOUS
 10
316.145386165
 20
138.0236540512
 40
38.5
100
AcDbArc
 50
90.0
 51
270.0
  0
ARC
  5
791
100
AcDbEntity
  8
0
100
AcDbCircle
 62
7
  6
CONTINUOUS
 10
319.645386165
 20
138.0236540512
 40
35.0
100
AcDbArc
 50
29.744822784
 51
330.255177216
  0
CIRCLE
  5
792
100
AcDbEntity
  8
BEZUGSACHSEN
100
AcDbCircle
 62
7
  6
CONTINUOUS
 10
319.645386165
 20
138.0236540512
 40
27.5
  0
ARC
  5
793
100
AcDbEntity
  8
0
100
AcDbCircle
 62
7
  6
CONTINUOUS
 10
324.9409878331
 20
149.4705219948
 40
51.3738235592
100
AcDbArc
 50
358.1947619679
 51
359.0660590885
  0
ARC
  5
794
100
AcDbEntity
  8
RUNDUNGEN
100
AcDbCircle
 62
7
  6
CONTINUOUS
 10
342.4460402055
 20
138.1184944176
 40
8.2813948918
100
AcDbArc
 50
352.5655501487
 51
359.343865427
  0
ARC
  5
795
100
AcDbEntity
  8
RUNDUNGEN
100
AcDbCircle
 62
7
  6
CONTINUOUS
 10
363.145386165
 20
189.0236540512
 40
10.0
100
AcDbArc
 50
167.6566025411
 51
176.1718365946
  0
ARC
  5
796
100
AcDbEntity
  8
RUNDUNGEN
100
AcDbCircle
 62
7
  6
CONTINUOUS
 10
363.145386165
 20
189.0236540512
 40
10.0
100
AcDbArc
 50
3.8281634054
 51
12.3433598786
  0
ARC
  5
797
100
AcDbEntity
  8
0
100
AcDbCircle
 62
7
  6
CONTINUOUS
 10
1231.5136971704
 20
135.767862055
 40
880.3081298606
100
AcDbArc
 50
179.8531792472
 51
180.5318156176
  0
ARC
  5
798
100
AcDbEntity
  8
0
100
AcDbCircle
 62
7
  6
CONTINUOUS
 10
668.629053366
 20
130.6631890945
 40
317.4003755242
100
AcDbArc
 50
180.5535009379
 51
180.6736320003
  0
ARC
  5
799
100
AcDbEntity
  8
RUNDUNGEN
100
AcDbCircle
 62
7
  6
CONTINUOUS
 10
588.4708944117
 20
115.0761623455
 40
238.1323926333
100
AcDbArc
 50
182.8754752489
 51
183.8089645466
  0
ARC
  5
79A
100
AcDbEntity
  8
0
100
AcDbCircle
 62
7
  6
CONTINUOUS
 10
401.3497844969
 20
126.5767861076
 40
51.3738235592
100
AcDbArc
 50
178.1947619679
 51
179.0660590885
  0
ARC
  5
79B
100
AcDbEntity
  8
RUNDUNGEN
100
AcDbCircle
 62
7
  6
CONTINUOUS
 10
383.8447766582
 20
137.9288093243
 40
8.2814396153
100
AcDbArc
 50
172.5655601012
 51
179.343751944
  0
ARC
  5
79C
100
AcDbEntity
  8
RUNDUNGEN
100
AcDbCircle
 62
7
  6
CONTINUOUS
 10
388.145386165
 20
104.0236540512
 40
4.5
100
AcDbArc
 50
270.0
 51
360.0
  0
ARC
  5
79D
100
AcDbEntity
  8
0
100
AcDbCircle
 62
7
  6
CONTINUOUS
 10
1228.4748464913
 20
140.2896557549
 40
877.2693155057
100
AcDbArc
 50
179.4670089884
 51
180.1479961468
  0
ARC
  5
79E
100
AcDbEntity
  8
0
100
AcDbCircle
 62
7
  6
CONTINUOUS
 10
668.629053373
 20
145.3841190077
 40
317.4003755312
100
AcDbArc
 50
179.3263679997
 51
179.4464990621
  0
ARC
  5
79F
100
AcDbEntity
  8
RUNDUNGEN
100
AcDbCircle
 62
7
  6
CONTINUOUS
 10
588.46734283
 20
160.9713372661
 40
238.1288361747
100
AcDbArc
 50
176.1910246632
 51
177.124527905
  0
ARC
  5
7A0
100
AcDbEntity
  8
0
100
AcDbCircle
 62
7
  6
CONTINUOUS
 10
401.3497845305
 20
149.4705219957
 40
51.3738235927
100
AcDbArc
 50
180.9339409113
 51
181.805238032
  0
ARC
  5
7A1
100
AcDbEntity
  8
RUNDUNGEN
100
AcDbCircle
 62
7
  6
CONTINUOUS
 10
383.8622535737
 20
138.1197335559
 40
8.298929447
100
AcDbArc
 50
180.6633043271
 51
187.4272806666
  0
ARC
  5
7A2
100
AcDbEntity
  8
RUNDUNGEN
100
AcDbCircle
 62
7
  6
CONTINUOUS
 10
388.145386165
 20
172.0236540512
 40
4.5
100
AcDbArc
 50
0.0
 51
90.0
  0
SPLINE
  5
7A3
100
AcDbEntity
  8
RUNDUNGEN
100
AcDbSpline
 62
7
  6
CONTINUOUS
 70
0
 71
3
 72
13
 73
9
 74
0
 42
0.0000001
 43
0.0000001
 44
0.0000000001
 40
0.0
 40
0.0
 40
0.0
 40
0.0
 40
0.4278568962
 40
0.7394144154
 40
0.850138807
 40
0.9304236509
 40
0.9802043859
 40
1.0
 40
1.0
 40
1.0
 40
1.0
 10
350.6578179078
 20
536.2520919835
 30
0.0
 10
350.6668108809
 20
536.2757921195
 30
0.0
 10
350.6826158934
 20
536.3165553031
 30
0.0
 10
350.7015177192
 20
536.3635155414
 30
0.0
 10
350.7134164016
 20
536.3904547965
 30
0.0
 10
350.7193409838
 20
536.4040355162
 30
0.0
 10
350.7235777874
 20
536.4107378943
 30
0.0
 10
350.7257191949
 20
536.4155362569
 30
0.0
 10
350.726892013
 20
536.4155362567
 30
0.0
  0
SPLINE
  5
7A4
100
AcDbEntity
  8
0
100
AcDbSpline
 62
7
  6
CONTINUOUS
 70
0
 71
3
 72
9
 73
5
 74
0
 42
0.0000001
 43
0.0000001
 44
0.0000000001
 40
0.0
 40
0.0
 40
0.0
 40
0.0
 40
0.4999544933
 40
1.0
 40
1.0
 40
1.0
 40
1.0
 10
353.1372794099
 20
500.0771263071
 30
0.0
 10
352.9944893022
 20
501.513959966
 30
0.0
 10
352.7237666812
 20
504.3894907399
 30
0.0
 10
352.3797095726
 20
507.2572369026
 30
0.0
 10
352.2287522626
 20
508.6934997669
 30
0.0
  0
SPLINE
  5
7A5
100
AcDbEntity
  8
RUNDUNGEN
100
AcDbSpline
 62
7
  6
CONTINUOUS
 70
0
 71
3
 72
13
 73
9
 74
0
 42
0.0000001
 43
0.0000001
 44
0.0000000001
 40
0.0
 40
0.0
 40
0.0
 40
0.0
 40
0.0197956142
 40
0.0695763492
 40
0.1498611932
 40
0.2605855848
 40
0.5721431039
 40
1.0
 40
1.0
 40
1.0
 40
1.0
 10
375.563880317
 20
536.4155362567
 30
0.0
 10
375.5650531352
 20
536.4155362569
 30
0.0
 10
375.5671945426
 20
536.4107378943
 30
0.0
 10
375.5714313463
 20
536.4040355162
 30
0.0
 10
375.5773559284
 20
536.3904547965
 30
0.0
 10
375.5892546109
 20
536.3635155414
 30
0.0
 10
375.6081564366
 20
536.3165553031
 30
0.0
 10
375.6239614491
 20
536.2757921195
 30
0.0
 10
375.6329544222
 20
536.2520919835
 30
0.0
  0
LINE
  5
7A6
100
AcDbEntity
  8
KONSTRUKTIONSELEMENTE
100
AcDbLine
 62
7
  6
CONTINUOUS
 10
349.9345256787
 20
358.3627415706
 11
349.9331514935
 21
358.3804585852
  0
SPLINE
  5
7A7
100
AcDbEntity
  8
0
100
AcDbSpline
 62
7
  6
CONTINUOUS
 70
0
 71
3
 72
9
 73
5
 74
0
 42
0.0000001
 43
0.0000001
 44
0.0000000001
 40
0.0
 40
0.0
 40
0.0
 40
0.0
 40
0.5000455102
 40
1.0
 40
1.0
 40
1.0
 40
1.0
 10
374.062020067
 20
508.6934997629
 30
0.0
 10
373.911062756
 20
507.2572368894
 30
0.0
 10
373.5670056756
 20
504.3894907253
 30
0.0
 10
373.2962829734
 20
501.5139599608
 30
0.0
 10
373.1534929201
 20
500.0771263071
 30
0.0
  0
LINE
  5
7A8
100
AcDbEntity
  8
0
100
AcDbLine
 62
7
  6
CONTINUOUS
 10
376.3562466513
 20
358.3627415706
 11
376.3576208366
 21
358.3804585852
  0
SPLINE
  5
7A9
100
AcDbEntity
  8
0
100
AcDbSpline
 62
7
  6
CONTINUOUS
 70
0
 71
3
 72
15
 73
11
 74
0
 42
0.0000001
 43
0.0000001
 44
0.0000000001
 40
0.0
 40
0.0
 40
0.0
 40
0.0
 40
0.1240972261
 40
0.2489664296
 40
0.3741131399
 40
0.4993198595
 40
0.6245151425
 40
0.7496858989
 40
0.8748356689
 40
1.0
 40
1.0
 40
1.0
 40
1.0
 10
363.9845383839
 20
346.8386050563
 30
0.0
 10
364.7824144998
 20
346.8432334955
 30
0.0
 10
366.386581262
 20
347.0081626019
 30
0.0
 10
368.700254188
 20
347.7178506046
 30
0.0
 10
370.8390230297
 20
348.8675823235
 30
0.0
 10
372.7135080392
 20
350.4142775538
 30
0.0
 10
374.2493867914
 20
352.2978737538
 30
0.0
 10
375.3866304543
 20
354.4455889551
 30
0.0
 10
376.0819682735
 20
356.7730562889
 30
0.0
 10
376.2331410073
 20
358.387652335
 30
0.0
 10
376.2295558896
 20
359.1923948964
 30
0.0
  0
SPLINE
  5
7AA
100
AcDbEntity
  8
KONSTRUKTIONSELEMENTE
100
AcDbSpline
 62
7
  6
CONTINUOUS
 70
0
 71
3
 72
15
 73
11
 74
0
 42
0.0000001
 43
0.0000001
 44
0.0000000001
 40
0.0
 40
0.0
 40
0.0
 40
0.0
 40
0.1240972261
 40
0.2489664296
 40
0.3741131399
 40
0.4993198595
 40
0.6245151425
 40
0.7496858989
 40
0.8748356689
 40
1.0
 40
1.0
 40
1.0
 40
1.0
 10
362.3062339462
 20
346.8386050563
 30
0.0
 10
361.5083578302
 20
346.8432334955
 30
0.0
 10
359.904191068
 20
347.0081626019
 30
0.0
 10
357.5905181421
 20
347.7178506046
 30
0.0
 10
355.4517493004
 20
348.8675823235
 30
0.0
 10
353.5772642908
 20
350.4142775538
 30
0.0
 10
352.0413855387
 20
352.2978737538
 30
0.0
 10
350.9041418757
 20
354.4455889551
 30
0.0
 10
350.2088040565
 20
356.7730562889
 30
0.0
 10
350.0576313227
 20
358.387652335
 30
0.0
 10
350.0612164404
 20
359.1923948964
 30
0.0
  0
SPLINE
  5
7AB
100
AcDbEntity
  8
RUNDUNGEN
100
AcDbSpline
 62
7
  6
CONTINUOUS
 70
0
 71
3
 72
9
 73
5
 74
0
 42
0.0000001
 43
0.0000001
 44
0.0000000001
 40
0.0
 40
0.0
 40
0.0
 40
0.0
 40
0.5000290017
 40
1.0
 40
1.0
 40
1.0
 40
1.0
 10
372.817418243
 20
483.7641946008
 30
0.0
 10
372.7422412428
 20
483.2683757303
 30
0.0
 10
372.6634284512
 20
482.2641648271
 30
0.0
 10
372.7422499635
 20
481.2599559547
 30
0.0
 10
372.8174182433
 20
480.7641945992
 30
0.0
  0
SPLINE
  5
7AC
100
AcDbEntity
  8
RUNDUNGEN
100
AcDbSpline
 62
7
  6
CONTINUOUS
 70
0
 71
3
 72
9
 73
5
 74
0
 42
0.0000001
 43
0.0000001
 44
0.0000000001
 40
0.0
 40
0.0
 40
0.0
 40
0.0
 40
0.500027643
 40
1.0
 40
1.0
 40
1.0
 40
1.0
 10
353.4733540868
 20
480.7641945992
 30
0.0
 10
353.5485308829
 20
481.2600121234
 30
0.0
 10
353.6273439599
 20
482.264222978
 30
0.0
 10
353.5485225711
 20
483.268431897
 30
0.0
 10
353.473354087
 20
483.7641946008
 30
0.0
  0
SPLINE
  5
7AD
100
AcDbEntity
  8
RUNDUNGEN
100
AcDbSpline
 62
7
  6
CONTINUOUS
 70
0
 71
3
 72
9
 73
5
 74
0
 42
0.0000001
 43
0.0000001
 44
0.0000000001
 40
0.0
 40
0.0
 40
0.0
 40
0.0
 40
0.2540282591
 40
1.0
 40
1.0
 40
1.0
 40
1.0
 10
375.8124497258
 20
535.7314367493
 30
0.0
 10
375.8772998175
 20
535.5232803195
 30
0.0
 10
376.1041308412
 20
534.6949085318
 30
0.0
 10
376.2299924211
 20
533.8416700077
 30
0.0
 10
376.2893137719
 20
533.2041802646
 30
0.0
  0
SPLINE
  5
7AE
100
AcDbEntity
  8
RUNDUNGEN
100
AcDbSpline
 62
7
  6
CONTINUOUS
 70
0
 71
3
 72
10
 73
6
 74
0
 42
0.0000001
 43
0.0000001
 44
0.0000000001
 40
0.0
 40
0.0
 40
0.0
 40
0.0
 40
0.1607554438
 40
0.3873815192
 40
1.0
 40
1.0
 40
1.0
 40
1.0
 10
375.426256768
 20
523.2399769561
 30
0.0
 10
375.4095951139
 20
523.154776801
 30
0.0
 10
375.3850840042
 20
522.9466144194
 30
0.0
 10
375.3507387414
 20
522.4077131364
 30
0.0
 10
375.3427788577
 20
521.9543546169
 30
0.0
 10
375.3341036557
 20
521.6236311585
 30
0.0
  0
SPLINE
  5
7AF
100
AcDbEntity
  8
RUNDUNGEN
100
AcDbSpline
 62
7
  6
CONTINUOUS
 70
0
 71
3
 72
8
 73
4
 74
0
 42
0.0000001
 43
0.0000001
 44
0.0000000001
 40
0.0
 40
0.0
 40
0.0
 40
0.0
 40
1.0
 40
1.0
 40
1.0
 40
1.0
 10
376.3079864998
 20
532.9352565412
 30
0.0
 10
376.3286184429
 20
532.4882488017
 30
0.0
 10
376.3301275922
 20
532.0402092362
 30
0.0
 10
376.3194010629
 20
531.5928541895
 30
0.0
  0
LINE
  5
7B0
100
AcDbEntity
  8
RUNDUNGEN
100
AcDbLine
 62
7
  6
CONTINUOUS
 10
376.3194010629
 20
531.5928541895
 11
376.318164727
 21
531.5433569409
  0
SPLINE
  5
7B1
100
AcDbEntity
  8
RUNDUNGEN
100
AcDbSpline
 62
7
  6
CONTINUOUS
 70
0
 71
3
 72
8
 73
4
 74
0
 42
0.0000001
 43
0.0000001
 44
0.0000000001
 40
0.0
 40
0.0
 40
0.0
 40
0.0
 40
1.0
 40
1.0
 40
1.0
 40
1.0
 10
376.318164727
 20
531.5433569409
 30
0.0
 10
376.3069528727
 20
531.1116513714
 30
0.0
 10
376.2846067307
 20
530.6801948753
 30
0.0
 10
376.2558078829
 20
530.2493050625
 30
0.0
  0
LINE
  5
7B2
100
AcDbEntity
  8
RUNDUNGEN
100
AcDbLine
 62
7
  6
CONTINUOUS
 10
376.2558078829
 20
530.2493050625
 11
376.2530613067
 21
530.2084995473
  0
LINE
  5
7B3
100
AcDbEntity
  8
RUNDUNGEN
100
AcDbLine
 62
7
  6
CONTINUOUS
 10
376.1646722843
 20
529.088174519
 11
376.1592242021
 21
529.0267363085
  0
SPLINE
  5
7B4
100
AcDbEntity
  8
RUNDUNGEN
100
AcDbSpline
 62
7
  6
CONTINUOUS
 70
0
 71
3
 72
9
 73
5
 74
0
 42
0.0000001
 43
0.0000001
 44
0.0000000001
 40
0.0
 40
0.0
 40
0.0
 40
0.0
 40
0.4987540285
 40
1.0
 40
1.0
 40
1.0
 40
1.0
 10
376.1592242021
 20
529.0267363085
 30
0.0
 10
376.0731561968
 20
528.0605816208
 30
0.0
 10
375.8710004334
 20
526.1266559451
 30
0.0
 10
375.6133489919
 20
524.1966818745
 30
0.0
 10
375.426256768
 20
523.2399769561
 30
0.0
  0
SPLINE
  5
7B5
100
AcDbEntity
  8
RUNDUNGEN
100
AcDbSpline
 62
7
  6
CONTINUOUS
 70
0
 71
3
 72
9
 73
5
 74
0
 42
0.0000001
 43
0.0000001
 44
0.0000000001
 40
0.0
 40
0.0
 40
0.0
 40
0.0
 40
0.5062459943
 40
1.0
 40
1.0
 40
1.0
 40
1.0
 10
372.9674070539
 20
493.8902213008
 30
0.0
 10
372.9284183803
 20
493.4322927777
 30
0.0
 10
372.8917426744
 20
492.5234780088
 30
0.0
 10
372.9482222084
 20
491.6159533164
 30
0.0
 10
372.9935994272
 20
491.1700113716
 30
0.0
  0
SPLINE
  5
7B6
100
AcDbEntity
  8
RUNDUNGEN
100
AcDbSpline
 62
7
  6
CONTINUOUS
 70
0
 71
3
 72
9
 73
5
 74
0
 42
0.0000001
 43
0.0000001
 44
0.0000000001
 40
0.0
 40
0.0
 40
0.0
 40
0.0
 40
0.2473317542
 40
1.0
 40
1.0
 40
1.0
 40
1.0
 10
350.0014585581
 20
533.2041802646
 30
0.0
 10
350.0211223723
 20
533.415495073
 30
0.0
 10
350.1158227342
 20
534.268068217
 30
0.0
 10
350.2862225878
 20
535.1148340708
 30
0.0
 10
350.4783248625
 20
535.7314439981
 30
0.0
  0
SPLINE
  5
7B7
100
AcDbEntity
  8
RUNDUNGEN
100
AcDbSpline
 62
7
  6
CONTINUOUS
 70
0
 71
3
 72
9
 73
5
 74
0
 42
0.0000001
 43
0.0000001
 44
0.0000000001
 40
0.0
 40
0.0
 40
0.0
 40
0.0
 40
0.4937504324
 40
1.0
 40
1.0
 40
1.0
 40
1.0
 10
353.2971729028
 20
491.1700113716
 30
0.0
 10
353.342549793
 20
491.615950087
 30
0.0
 10
353.3990293627
 20
492.5234747369
 30
0.0
 10
353.3623542247
 20
493.4322895478
 30
0.0
 10
353.3233652761
 20
493.8902213008
 30
0.0
  0
SPLINE
  5
7B8
100
AcDbEntity
  8
RUNDUNGEN
100
AcDbSpline
 62
7
  6
CONTINUOUS
 70
0
 71
3
 72
10
 73
6
 74
0
 42
0.0000001
 43
0.0000001
 44
0.0000000001
 40
0.0
 40
0.0
 40
0.0
 40
0.0
 40
0.6126094631
 40
0.839242373
 40
1.0
 40
1.0
 40
1.0
 40
1.0
 10
350.9566686743
 20
521.6236311585
 30
0.0
 10
350.9479936
 20
521.954349748
 30
0.0
 10
350.9400335834
 20
522.4077070731
 30
0.0
 10
350.9056889164
 20
522.9466083866
 30
0.0
 10
350.8811774424
 20
523.1547756441
 30
0.0
 10
350.864515562
 20
523.2399769561
 30
0.0
  0
SPLINE
  5
7B9
100
AcDbEntity
  8
RUNDUNGEN
100
AcDbSpline
 62
7
  6
CONTINUOUS
 70
0
 71
3
 72
9
 73
5
 74
0
 42
0.0000001
 43
0.0000001
 44
0.0000000001
 40
0.0
 40
0.0
 40
0.0
 40
0.0
 40
0.5012462553
 40
1.0
 40
1.0
 40
1.0
 40
1.0
 10
350.864515562
 20
523.2399769561
 30
0.0
 10
350.6764061885
 20
524.2018831173
 30
0.0
 10
350.4179098918
 20
526.1424349004
 30
0.0
 10
350.2148598999
 20
528.0868937842
 30
0.0
 10
350.1287398749
 20
529.0583369378
 30
0.0
  0
LINE
  5
7BA
100
AcDbEntity
  8
RUNDUNGEN
100
AcDbLine
 62
7
  6
CONTINUOUS
 10
350.1287398749
 20
529.0583369378
 11
350.12610298
 21
529.088148423
  0
LINE
  5
7BB
100
AcDbEntity
  8
RUNDUNGEN
100
AcDbLine
 62
7
  6
CONTINUOUS
 10
350.0377124832
 20
530.2084723079
 11
350.0335980226
 21
530.2698250925
  0
SPLINE
  5
7BC
100
AcDbEntity
  8
RUNDUNGEN
100
AcDbSpline
 62
7
  6
CONTINUOUS
 70
0
 71
3
 72
8
 73
4
 74
0
 42
0.0000001
 43
0.0000001
 44
0.0000000001
 40
0.0
 40
0.0
 40
0.0
 40
0.0
 40
1.0
 40
1.0
 40
1.0
 40
1.0
 10
350.0335980226
 20
530.2698250925
 30
0.0
 10
350.0052729193
 20
530.6967570665
 30
0.0
 10
349.9833451107
 20
531.1242462326
 30
0.0
 10
349.9723853067
 20
531.55197641
 30
0.0
  0
LINE
  5
7BD
100
AcDbEntity
  8
RUNDUNGEN
100
AcDbLine
 62
7
  6
CONTINUOUS
 10
349.9723853067
 20
531.55197641
 11
349.9713720429
 21
531.5928311762
  0
SPLINE
  5
7BE
100
AcDbEntity
  8
RUNDUNGEN
100
AcDbSpline
 62
7
  6
CONTINUOUS
 70
0
 71
3
 72
8
 73
4
 74
0
 42
0.0000001
 43
0.0000001
 44
0.0000000001
 40
0.0
 40
0.0
 40
0.0
 40
0.0
 40
1.0
 40
1.0
 40
1.0
 40
1.0
 10
349.9713720429
 20
531.5928311762
 30
0.0
 10
349.9606464054
 20
532.0401939151
 30
0.0
 10
349.9621535335
 20
532.4882411414
 30
0.0
 10
349.9827858302
 20
532.9352565414
 30
0.0
  0
SPLINE
  5
7BF
100
AcDbEntity
  8
BEZUGSACHSEN
100
AcDbSpline
 62
7
  6
CONTINUOUS
 70
0
 71
3
 72
11
 73
7
 74
0
 42
0.0000001
 43
0.0000001
 44
0.0000000001
 40
0.0
 40
0.0
 40
0.0
 40
0.0
 40
0.2616428633
 40
0.5144969716
 40
0.7595947227
 40
1.0
 40
1.0
 40
1.0
 40
1.0
 10
287.8911213596
 20
419.1321973697
 30
0.0
 10
288.5257188376
 20
419.4985823944
 30
0.0
 10
289.8024009633
 20
420.1714330318
 30
0.0
 10
291.7819714516
 20
420.963952095
 30
0.0
 10
293.7941502266
 20
421.471013108
 30
0.0
 10
295.1563965538
 20
421.5883983002
 30
0.0
 10
295.8296875609
 20
421.5883983003
 30
0.0
  0
SPLINE
  5
7C0
100
AcDbEntity
  8
BEZUGSACHSEN
100
AcDbSpline
 62
7
  6
CONTINUOUS
 70
0
 71
3
 72
11
 73
7
 74
0
 42
0.0000001
 43
0.0000001
 44
0.0000000001
 40
0.0
 40
0.0
 40
0.0
 40
0.0
 40
0.2404052939
 40
0.4855030487
 40
0.7383571417
 40
1.0
 40
1.0
 40
1.0
 40
1.0
 10
295.8296875609
 20
421.5883983003
 30
0.0
 10
296.5029786148
 20
421.5883983003
 30
0.0
 10
297.8652250033
 20
421.4710131243
 30
0.0
 10
299.8774037802
 20
420.9639520513
 30
0.0
 10
301.8569742243
 20
420.1714330071
 30
0.0
 10
303.1336562963
 20
419.4985823875
 30
0.0
 10
303.7682537623
 20
419.1321973697
 30
0.0
  0
SPLINE
  5
7C1
100
AcDbEntity
  8
BEZUGSACHSEN
100
AcDbSpline
 62
7
  6
CONTINUOUS
 70
0
 71
3
 72
10
 73
6
 74
0
 42
0.0000001
 43
0.0000001
 44
0.0000000001
 40
0.0
 40
0.0
 40
0.0
 40
0.0
 40
0.4999007825
 40
0.7499513916
 40
1.0
 40
1.0
 40
1.0
 40
1.0
 10
303.7682537623
 20
419.1321973697
 30
0.0
 10
306.3479323747
 20
419.8768864403
 30
0.0
 10
310.2807259725
 20
420.8078487086
 30
0.0
 10
315.6148476118
 20
421.4737822009
 30
0.0
 10
318.30235132
 20
421.5883983001
 30
0.0
 10
319.6453861679
 20
421.5883983003
 30
0.0
  0
SPLINE
  5
7C2
100
AcDbEntity
  8
BEZUGSACHSEN
100
AcDbSpline
 62
7
  6
CONTINUOUS
 70
0
 71
3
 72
10
 73
6
 74
0
 42
0.0000001
 43
0.0000001
 44
0.0000000001
 40
0.0
 40
0.0
 40
0.0
 40
0.0
 40
0.2500489967
 40
0.5000997176
 40
1.0
 40
1.0
 40
1.0
 40
1.0
 10
319.6453861679
 20
421.5883983003
 30
0.0
 10
320.9884231046
 20
421.5883983001
 30
0.0
 10
323.675929542
 20
421.4737824775
 30
0.0
 10
329.0100510236
 20
420.807847431
 30
0.0
 10
332.9428425298
 20
419.8768856971
 30
0.0
 10
335.5225185677
 20
419.1321973697
 30
0.0
  0
SPLINE
  5
7C3
100
AcDbEntity
  8
BEZUGSACHSEN
100
AcDbSpline
 62
7
  6
CONTINUOUS
 70
0
 71
3
 72
11
 73
7
 74
0
 42
0.0000001
 43
0.0000001
 44
0.0000000001
 40
0.0
 40
0.0
 40
0.0
 40
0.0
 40
0.2616428633
 40
0.5144969716
 40
0.7595947227
 40
1.0
 40
1.0
 40
1.0
 40
1.0
 10
335.5225185677
 20
419.1321973697
 30
0.0
 10
336.1571160457
 20
419.4985823944
 30
0.0
 10
337.4337981714
 20
420.1714330318
 30
0.0
 10
339.4133686597
 20
420.963952095
 30
0.0
 10
341.4255474346
 20
421.4710131079
 30
0.0
 10
342.7877937618
 20
421.5883983003
 30
0.0
 10
343.4610847688
 20
421.5883983003
 30
0.0
  0
SPLINE
  5
7C4
100
AcDbEntity
  8
BEZUGSACHSEN
100
AcDbSpline
 62
7
  6
CONTINUOUS
 70
0
 71
3
 72
11
 73
7
 74
0
 42
0.0000001
 43
0.0000001
 44
0.0000000001
 40
0.0
 40
0.0
 40
0.0
 40
0.0
 40
0.2404052939
 40
0.4855030487
 40
0.7383571417
 40
1.0
 40
1.0
 40
1.0
 40
1.0
 10
343.4610847688
 20
421.5883983003
 30
0.0
 10
344.1343758227
 20
421.5883983003
 30
0.0
 10
345.4966222113
 20
421.4710131243
 30
0.0
 10
347.5088009882
 20
420.9639520514
 30
0.0
 10
349.4883714324
 20
420.1714330072
 30
0.0
 10
350.7650535044
 20
419.4985823875
 30
0.0
 10
351.3996509704
 20
419.1321973697
 30
0.0
  0
SPLINE
  5
7C5
100
AcDbEntity
  8
BEZUGSACHSEN
100
AcDbSpline
 62
7
  6
CONTINUOUS
 70
0
 71
3
 72
10
 73
6
 74
0
 42
0.0000001
 43
0.0000001
 44
0.0000000001
 40
0.0
 40
0.0
 40
0.0
 40
0.0
 40
0.5016032546
 40
0.7510761691
 40
1.0
 40
1.0
 40
1.0
 40
1.0
 10
597.563632988
 20
419.1321973697
 30
0.0
 10
599.7877628048
 20
419.8735739753
 30
0.0
 10
603.1880512953
 20
420.8051524431
 30
0.0
 10
607.8191098091
 20
421.4734733034
 30
0.0
 10
610.1501902639
 20
421.5883983002
 30
0.0
 10
611.3136329879
 20
421.5883983003
 30
0.0
  0
SPLINE
  5
7C6
100
AcDbEntity
  8
BEZUGSACHSEN
100
AcDbSpline
 62
7
  6
CONTINUOUS
 70
0
 71
3
 72
10
 73
6
 74
0
 42
0.0000001
 43
0.0000001
 44
0.0000000001
 40
0.0
 40
0.0
 40
0.0
 40
0.0
 40
0.2489238482
 40
0.4983967658
 40
1.0
 40
1.0
 40
1.0
 40
1.0
 10
611.3136329879
 20
421.5883983003
 30
0.0
 10
612.477075793
 20
421.5883983003
 30
0.0
 10
614.808156346
 20
421.4734733197
 30
0.0
 10
619.4392148516
 20
420.8051523877
 30
0.0
 10
622.8395032615
 20
419.8735739452
 30
0.0
 10
625.063632988
 20
419.1321973697
 30
0.0
  0
SPLINE
  5
7C7
100
AcDbEntity
  8
BEZUGSACHSEN
100
AcDbSpline
 62
7
  6
CONTINUOUS
 70
0
 71
3
 72
10
 73
6
 74
0
 42
0.0000001
 43
0.0000001
 44
0.0000000001
 40
0.0
 40
0.0
 40
0.0
 40
0.0
 40
0.2489238482
 40
0.4983967658
 40
1.0
 40
1.0
 40
1.0
 40
1.0
 10
583.8136329884
 20
421.5883983004
 30
0.0
 10
584.9770757934
 20
421.5883983003
 30
0.0
 10
587.3081563463
 20
421.4734733197
 30
0.0
 10
591.9392148518
 20
420.8051523877
 30
0.0
 10
595.3395032616
 20
419.8735739452
 30
0.0
 10
597.563632988
 20
419.1321973697
 30
0.0
  0
SPLINE
  5
7C8
100
AcDbEntity
  8
BEZUGSACHSEN
100
AcDbSpline
 62
7
  6
CONTINUOUS
 70
0
 71
3
 72
10
 73
6
 74
0
 42
0.0000001
 43
0.0000001
 44
0.0000000001
 40
0.0
 40
0.0
 40
0.0
 40
0.0
 40
0.5016032546
 40
0.7510761691
 40
1.0
 40
1.0
 40
1.0
 40
1.0
 10
570.063632988
 20
419.1321973697
 30
0.0
 10
572.2877628048
 20
419.8735739753
 30
0.0
 10
575.6880512955
 20
420.8051524432
 30
0.0
 10
580.3191098094
 20
421.4734733033
 30
0.0
 10
582.6501902643
 20
421.5883983003
 30
0.0
 10
583.8136329884
 20
421.5883983004
 30
0.0
  0
SPLINE
  5
7C9
100
AcDbEntity
  8
0
100
AcDbSpline
 62
7
  6
CONTINUOUS
 70
0
 71
3
 72
8
 73
4
 74
0
 42
0.0000001
 43
0.0000001
 44
0.0000000001
 40
0.0
 40
0.0
 40
0.0
 40
0.0
 40
1.0
 40
1.0
 40
1.0
 40
1.0
 10
607.9902692142
 20
537.2012056235
 30
0.0
 10
608.212260995
 20
537.18039634
 30
0.0
 10
608.4341809394
 20
537.1585890024
 30
0.0
 10
608.6557187708
 20
537.1334023736
 30
0.0
  0
SPLINE
  5
7CA
100
AcDbEntity
  8
0
100
AcDbSpline
 62
7
  6
CONTINUOUS
 70
0
 71
3
 72
8
 73
4
 74
0
 42
0.0000001
 43
0.0000001
 44
0.0000000001
 40
0.0
 40
0.0
 40
0.0
 40
0.0
 40
1.0
 40
1.0
 40
1.0
 40
1.0
 10
586.4715472054
 20
537.1334023736
 30
0.0
 10
586.6930850367
 20
537.1585890024
 30
0.0
 10
586.9150049811
 20
537.18039634
 30
0.0
 10
587.1369967618
 20
537.2012056235
 30
0.0
  0
SPLINE
  5
7CB
100
AcDbEntity
  8
0
100
AcDbSpline
 62
7
  6
CONTINUOUS
 70
0
 71
3
 72
9
 73
5
 74
0
 42
0.0000001
 43
0.0000001
 44
0.0000000001
 40
0.0
 40
0.0
 40
0.0
 40
0.0
 40
0.4998377719
 40
1.0
 40
1.0
 40
1.0
 40
1.0
 10
552.1414364197
 20
524.64608196
 30
0.0
 10
557.2713361455
 20
527.9979992977
 30
0.0
 10
568.3244848876
 20
533.5714305724
 30
0.0
 10
580.3789137593
 20
536.440722602
 30
0.0
 10
586.4715472054
 20
537.1334023736
 30
0.0
  0
SPLINE
  5
7CC
100
AcDbEntity
  8
0
100
AcDbSpline
 62
7
  6
CONTINUOUS
 70
0
 71
3
 72
11
 73
7
 74
0
 42
0.0000001
 43
0.0000001
 44
0.0000000001
 40
0.0
 40
0.0
 40
0.0
 40
0.0
 40
0.2496438939
 40
0.499460156
 40
0.7495636923
 40
1.0
 40
1.0
 40
1.0
 40
1.0
 10
540.6584379264
 20
504.2552397154
 30
0.0
 10
540.7138273784
 20
506.2746763054
 30
0.0
 10
541.3228965045
 20
510.3183206368
 30
0.0
 10
543.6698922886
 20
515.9740350549
 30
0.0
 10
547.3032787412
 20
520.9100119066
 30
0.0
 10
550.4448872743
 20
523.5375409829
 30
0.0
 10
552.1414364197
 20
524.64608196
 30
0.0
  0
SPLINE
  5
7CD
100
AcDbEntity
  8
0
100
AcDbSpline
 62
7
  6
CONTINUOUS
 70
0
 71
3
 72
9
 73
5
 74
0
 42
0.0000001
 43
0.0000001
 44
0.0000000001
 40
0.0
 40
0.0
 40
0.0
 40
0.0
 40
0.5001622996
 40
1.0
 40
1.0
 40
1.0
 40
1.0
 10
608.6557187708
 20
537.1334023736
 30
0.0
 10
614.7483530878
 20
536.4407225029
 30
0.0
 10
626.8027819549
 20
533.5714302498
 30
0.0
 10
637.8559305646
 20
527.997998818
 30
0.0
 10
642.9858295562
 20
524.64608196
 30
0.0
  0
SPLINE
  5
7CE
100
AcDbEntity
  8
0
100
AcDbSpline
 62
7
  6
CONTINUOUS
 70
0
 71
3
 72
11
 73
7
 74
0
 42
0.0000001
 43
0.0000001
 44
0.0000000001
 40
0.0
 40
0.0
 40
0.0
 40
0.0
 40
0.2504363077
 40
0.500539844
 40
0.7503561061
 40
1.0
 40
1.0
 40
1.0
 40
1.0
 10
642.9858295562
 20
524.64608196
 30
0.0
 10
644.6823787017
 20
523.537540983
 30
0.0
 10
647.8239872347
 20
520.9100119067
 30
0.0
 10
651.4573736874
 20
515.974035055
 30
0.0
 10
653.8043694716
 20
510.3183206368
 30
0.0
 10
654.4134385976
 20
506.2746763054
 30
0.0
 10
654.4688280496
 20
504.2552397154
 30
0.0
  0
SPLINE
  5
7CF
100
AcDbEntity
  8
0
100
AcDbSpline
 62
7
  6
CONTINUOUS
 70
0
 71
3
 72
9
 73
5
 74
0
 42
0.0000001
 43
0.0000001
 44
0.0000000001
 40
0.0
 40
0.0
 40
0.0
 40
0.0
 40
0.5211529301
 40
1.0
 40
1.0
 40
1.0
 40
1.0
 10
351.2506146073
 20
126.9315682684
 30
0.0
 10
351.3219319116
 20
120.9633149549
 30
0.0
 10
351.6008590812
 20
109.5125244989
 30
0.0
 10
352.1873402244
 20
98.0727276426
 30
0.0
 10
352.5630848698
 20
92.6014574829
 30
0.0
  0
SPLINE
  5
7D0
100
AcDbEntity
  8
RUNDUNGEN
100
AcDbSpline
 62
7
  6
CONTINUOUS
 70
0
 71
3
 72
9
 73
5
 74
0
 42
0.0000001
 43
0.0000001
 44
0.0000000001
 40
0.0
 40
0.0
 40
0.0
 40
0.0
 40
0.2522612347
 40
1.0
 40
1.0
 40
1.0
 40
1.0
 10
351.1042841185
 20
96.4995497707
 30
0.0
 10
351.0852059011
 20
96.5803663966
 30
0.0
 10
351.0159120732
 20
96.9021802302
 30
0.0
 10
350.9730101643
 20
97.2298147043
 30
0.0
 10
350.9577352112
 20
97.4754768374
 30
0.0
  0
SPLINE
  5
7D1
100
AcDbEntity
  8
0
100
AcDbSpline
 62
7
  6
CONTINUOUS
 70
0
 71
3
 72
9
 73
5
 74
0
 42
0.0000001
 43
0.0000001
 44
0.0000000001
 40
0.0
 40
0.0
 40
0.0
 40
0.0
 40
0.2679832026
 40
1.0
 40
1.0
 40
1.0
 40
1.0
 10
352.5630848698
 20
92.6014574829
 30
0.0
 10
352.5917394099
 20
92.1842155791
 30
0.0
 10
352.7054918838
 20
90.6277451707
 30
0.0
 10
352.8467631512
 20
89.0731094243
 30
0.0
 10
352.9737963177
 20
87.9377812552
 30
0.0
  0
LINE
  5
7D2
100
AcDbEntity
  8
0
100
AcDbLine
 62
7
  6
CONTINUOUS
 10
352.9737963177
 20
87.9377812552
 11
352.9803334526
 21
87.8795529862
  0
SPLINE
  5
7D3
100
AcDbEntity
  8
0
100
AcDbSpline
 62
7
  6
CONTINUOUS
 70
0
 71
3
 72
13
 73
9
 74
0
 42
0.0000001
 43
0.0000001
 44
0.0000000001
 40
0.0
 40
0.0
 40
0.0
 40
0.0
 40
0.3588536496
 40
0.6482565232
 40
0.765056619
 40
0.8625966341
 40
0.9407567919
 40
1.0
 40
1.0
 40
1.0
 40
1.0
 10
352.9803334526
 20
87.8795529862
 30
0.0
 10
353.0701018723
 20
87.0826382657
 30
0.0
 10
353.2537973522
 20
85.6454031333
 30
0.0
 10
353.5464533639
 20
83.9595729995
 30
0.0
 10
353.8061542459
 20
82.8638883931
 30
0.0
 10
353.991399709
 20
82.2363565619
 30
0.0
 10
354.1795868673
 20
81.7458802687
 30
0.0
 10
354.3254733741
 20
81.473174271
 30
0.0
 10
354.40323805
 20
81.36602461
 30
0.0
  0
SPLINE
  5
7D4
100
AcDbEntity
  8
0
100
AcDbSpline
 62
7
  6
CONTINUOUS
 70
0
 71
3
 72
9
 73
5
 74
0
 42
0.0000001
 43
0.0000001
 44
0.0000000001
 40
0.0
 40
0.0
 40
0.0
 40
0.0
 40
0.4996141468
 40
1.0
 40
1.0
 40
1.0
 40
1.0
 10
352.8381259967
 20
89.2532528328
 30
0.0
 10
352.7433385478
 20
89.6683517265
 30
0.0
 10
352.5414284377
 20
90.4963817917
 30
0.0
 10
352.3267284103
 20
91.3211926517
 30
0.0
 10
352.2287522626
 20
91.7362262736
 30
0.0
  0
SPLINE
  5
7D5
100
AcDbEntity
  8
RUNDUNGEN
100
AcDbSpline
 62
7
  6
CONTINUOUS
 70
0
 71
3
 72
9
 73
5
 74
0
 42
0.0000001
 43
0.0000001
 44
0.0000000001
 40
0.0
 40
0.0
 40
0.0
 40
0.0
 40
0.5000106048
 40
1.0
 40
1.0
 40
1.0
 40
1.0
 10
375.6524431464
 20
172.9171634316
 30
0.0
 10
375.7917636493
 20
170.1846511721
 30
0.0
 10
376.007581765
 20
164.7167141273
 30
0.0
 10
376.1904569237
 20
159.2476343876
 30
0.0
 10
376.2539882802
 20
156.5124265087
 30
0.0
  0
SPLINE
  5
7D6
100
AcDbEntity
  8
0
100
AcDbSpline
 62
7
  6
CONTINUOUS
 70
0
 71
3
 72
13
 73
9
 74
0
 42
0.0000001
 43
0.0000001
 44
0.0000000001
 40
0.0
 40
0.0
 40
0.0
 40
0.0
 40
0.059243249
 40
0.1374034382
 40
0.2349434726
 40
0.3517435748
 40
0.6411464229
 40
1.0
 40
1.0
 40
1.0
 40
1.0
 10
354.4032374156
 20
194.6812826181
 30
0.0
 10
354.3254727865
 20
194.5741328365
 30
0.0
 10
354.1795863583
 20
194.3014266801
 30
0.0
 10
353.9913992768
 20
193.8109502278
 30
0.0
 10
353.8061538933
 20
193.1834183515
 30
0.0
 10
353.5464531388
 20
192.0877339003
 30
0.0
 10
353.2537972546
 20
190.4019042332
 30
0.0
 10
353.0701018398
 20
188.9646695477
 30
0.0
 10
352.9803334526
 20
188.1677551161
 30
0.0
  0
LINE
  5
7D7
100
AcDbEntity
  8
0
100
AcDbLine
 62
7
  6
CONTINUOUS
 10
352.9803334526
 20
188.1677551161
 11
352.9737963177
 21
188.1095268471
  0
SPLINE
  5
7D8
100
AcDbEntity
  8
0
100
AcDbSpline
 62
7
  6
CONTINUOUS
 70
0
 71
3
 72
9
 73
5
 74
0
 42
0.0000001
 43
0.0000001
 44
0.0000000001
 40
0.0
 40
0.0
 40
0.0
 40
0.0
 40
0.231075458
 40
1.0
 40
1.0
 40
1.0
 40
1.0
 10
352.9737963177
 20
188.1095268471
 30
0.0
 10
352.9336956334
 20
187.7511366898
 30
0.0
 10
352.7707830767
 20
186.1989833262
 30
0.0
 10
352.6453037346
 20
184.6430485372
 30
0.0
 10
352.5630848698
 20
183.4458506195
 30
0.0
  0
SPLINE
  5
7D9
100
AcDbEntity
  8
RUNDUNGEN
100
AcDbSpline
 62
7
  6
CONTINUOUS
 70
0
 71
3
 72
9
 73
5
 74
0
 42
0.0000001
 43
0.0000001
 44
0.0000000001
 40
0.0
 40
0.0
 40
0.0
 40
0.0
 40
0.4999894058
 40
1.0
 40
1.0
 40
1.0
 40
1.0
 10
350.0367843393
 20
156.5124265536
 30
0.0
 10
350.1003227445
 20
159.2476343151
 30
0.0
 10
350.2831888982
 20
164.7167142271
 30
0.0
 10
350.4990090907
 20
170.1846512144
 30
0.0
 10
350.638328925
 20
172.9171634381
 30
0.0
  0
SPLINE
  5
7DA
100
AcDbEntity
  8
RUNDUNGEN
100
AcDbSpline
 62
7
  6
CONTINUOUS
 70
0
 71
3
 72
9
 73
5
 74
0
 42
0.0000001
 43
0.0000001
 44
0.0000000001
 40
0.0
 40
0.0
 40
0.0
 40
0.0
 40
0.2482996326
 40
1.0
 40
1.0
 40
1.0
 40
1.0
 10
350.9577352112
 20
178.571831265
 30
0.0
 10
350.9628076573
 20
178.6534097764
 30
0.0
 10
350.9906399126
 20
178.9814751467
 30
0.0
 10
351.0474324236
 20
179.3069306873
 30
0.0
 10
351.1042841185
 20
179.5477583316
 30
0.0
  0
SPLINE
  5
7DB
100
AcDbEntity
  8
0
100
AcDbSpline
 62
7
  6
CONTINUOUS
 70
0
 71
3
 72
13
 73
9
 74
0
 42
0.0000001
 43
0.0000001
 44
0.0000000001
 40
0.0
 40
0.0
 40
0.0
 40
0.0
 40
0.059243249
 40
0.1374034382
 40
0.2349434726
 40
0.3517435748
 40
0.6411464229
 40
1.0
 40
1.0
 40
1.0
 40
1.0
 10
371.8875349144
 20
81.3660254842
 30
0.0
 10
371.9652995435
 20
81.4731752658
 30
0.0
 10
372.1111859717
 20
81.7458814222
 30
0.0
 10
372.2993730533
 20
82.2363578746
 30
0.0
 10
372.4846184367
 20
82.8638897508
 30
0.0
 10
372.7443191912
 20
83.9595742021
 30
0.0
 10
373.0369750754
 20
85.6454038691
 30
0.0
 10
373.2206704902
 20
87.0826385547
 30
0.0
 10
373.3104388775
 20
87.8795529862
 30
0.0
  0
LINE
  5
7DC
100
AcDbEntity
  8
0
100
AcDbLine
 62
7
  6
CONTINUOUS
 10
373.3104388775
 20
87.8795529862
 11
373.3169760124
 21
87.9377812552
  0
SPLINE
  5
7DD
100
AcDbEntity
  8
0
100
AcDbSpline
 62
7
  6
CONTINUOUS
 70
0
 71
3
 72
9
 73
5
 74
0
 42
0.0000001
 43
0.0000001
 44
0.0000000001
 40
0.0
 40
0.0
 40
0.0
 40
0.0
 40
0.231075458
 40
1.0
 40
1.0
 40
1.0
 40
1.0
 10
373.3169760124
 20
87.9377812552
 30
0.0
 10
373.3570766967
 20
88.2961714125
 30
0.0
 10
373.5199892533
 20
89.8483247762
 30
0.0
 10
373.6454685954
 20
91.4042595652
 30
0.0
 10
373.7276874602
 20
92.6014574829
 30
0.0
  0
SPLINE
  5
7DE
100
AcDbEntity
  8
RUNDUNGEN
100
AcDbSpline
 62
7
  6
CONTINUOUS
 70
0
 71
3
 72
9
 73
5
 74
0
 42
0.0000001
 43
0.0000001
 44
0.0000000001
 40
0.0
 40
0.0
 40
0.0
 40
0.0
 40
0.4999894058
 40
1.0
 40
1.0
 40
1.0
 40
1.0
 10
376.2539879908
 20
119.5348815488
 30
0.0
 10
376.1904495855
 20
116.7996737873
 30
0.0
 10
376.0075834318
 20
111.3305938752
 30
0.0
 10
375.7917632393
 20
105.8626568879
 30
0.0
 10
375.652443405
 20
103.1301446642
 30
0.0
  0
SPLINE
  5
7DF
100
AcDbEntity
  8
RUNDUNGEN
100
AcDbSpline
 62
7
  6
CONTINUOUS
 70
0
 71
3
 72
9
 73
5
 74
0
 42
0.0000001
 43
0.0000001
 44
0.0000000001
 40
0.0
 40
0.0
 40
0.0
 40
0.0
 40
0.2482996326
 40
1.0
 40
1.0
 40
1.0
 40
1.0
 10
375.3330371188
 20
97.4754768374
 30
0.0
 10
375.3279646727
 20
97.3938983259
 30
0.0
 10
375.3001324174
 20
97.0658329557
 30
0.0
 10
375.2433399065
 20
96.7403774151
 30
0.0
 10
375.1864882115
 20
96.4995497707
 30
0.0
  0
SPLINE
  5
7E0
100
AcDbEntity
  8
0
100
AcDbSpline
 62
7
  6
CONTINUOUS
 70
0
 71
3
 72
9
 73
5
 74
0
 42
0.0000001
 43
0.0000001
 44
0.0000000001
 40
0.0
 40
0.0
 40
0.0
 40
0.0
 40
0.4788471423
 40
1.0
 40
1.0
 40
1.0
 40
1.0
 10
373.7276874602
 20
92.6014574829
 30
0.0
 10
374.1034321624
 20
98.0727284701
 30
0.0
 10
374.6899132775
 20
109.5125253286
 30
0.0
 10
374.9688404283
 20
120.9633157844
 30
0.0
 10
375.0401577228
 20
126.9315682685
 30
0.0
  0
SPLINE
  5
7E1
100
AcDbEntity
  8
RUNDUNGEN
100
AcDbSpline
 62
7
  6
CONTINUOUS
 70
0
 71
3
 72
9
 73
5
 74
0
 42
0.0000001
 43
0.0000001
 44
0.0000000001
 40
0.0
 40
0.0
 40
0.0
 40
0.0
 40
0.5000106048
 40
1.0
 40
1.0
 40
1.0
 40
1.0
 10
350.6383291836
 20
103.1301446707
 30
0.0
 10
350.4990086807
 20
105.8626569303
 30
0.0
 10
350.283190565
 20
111.330593975
 30
0.0
 10
350.1003154063
 20
116.7996737147
 30
0.0
 10
350.0367840498
 20
119.5348815936
 30
0.0
  0
SPLINE
  5
7E2
100
AcDbEntity
  8
0
100
AcDbSpline
 62
7
  6
CONTINUOUS
 70
0
 71
3
 72
9
 73
5
 74
0
 42
0.0000001
 43
0.0000001
 44
0.0000000001
 40
0.0
 40
0.0
 40
0.0
 40
0.0
 40
0.5003857738
 40
1.0
 40
1.0
 40
1.0
 40
1.0
 10
374.062020067
 20
91.7362262718
 30
0.0
 10
373.9640481751
 20
91.321210678
 30
0.0
 10
373.7493577283
 20
90.496435434
 30
0.0
 10
373.5474558008
 20
89.6684413714
 30
0.0
 10
373.4526708163
 20
89.2533607474
 30
0.0
  0
SPLINE
  5
7E3
100
AcDbEntity
  8
0
100
AcDbSpline
 62
7
  6
CONTINUOUS
 70
0
 71
3
 72
9
 73
5
 74
0
 42
0.0000001
 43
0.0000001
 44
0.0000000001
 40
0.0
 40
0.0
 40
0.0
 40
0.0
 40
0.4788471423
 40
1.0
 40
1.0
 40
1.0
 40
1.0
 10
352.5630848698
 20
183.4458506195
 30
0.0
 10
352.1873401676
 20
177.9745796322
 30
0.0
 10
351.6008590526
 20
166.5347827737
 30
0.0
 10
351.3219319017
 20
155.0839923179
 30
0.0
 10
351.2506146073
 20
149.1157398338
 30
0.0
  0
SPLINE
  5
7E4
100
AcDbEntity
  8
0
100
AcDbSpline
 62
7
  6
CONTINUOUS
 70
0
 71
3
 72
9
 73
5
 74
0
 42
0.0000001
 43
0.0000001
 44
0.0000000001
 40
0.0
 40
0.0
 40
0.0
 40
0.0
 40
0.5003857738
 40
1.0
 40
1.0
 40
1.0
 40
1.0
 10
352.2287522631
 20
184.3110818306
 30
0.0
 10
352.3267241549
 20
184.7260974243
 30
0.0
 10
352.5414146018
 20
185.5508726684
 30
0.0
 10
352.7433165292
 20
186.378866731
 30
0.0
 10
352.8381015137
 20
186.793947355
 30
0.0
  0
SPLINE
  5
7E5
100
AcDbEntity
  8
0
100
AcDbSpline
 62
7
  6
CONTINUOUS
 70
0
 71
3
 72
9
 73
5
 74
0
 42
0.0000001
 43
0.0000001
 44
0.0000000001
 40
0.0
 40
0.0
 40
0.0
 40
0.0
 40
0.4996141468
 40
1.0
 40
1.0
 40
1.0
 40
1.0
 10
373.4526463334
 20
186.7940552695
 30
0.0
 10
373.5474337822
 20
186.3789563758
 30
0.0
 10
373.7493438924
 20
185.5509263106
 30
0.0
 10
373.9640439197
 20
184.7261154507
 30
0.0
 10
374.0620200674
 20
184.3110818288
 30
0.0
  0
SPLINE
  5
7E6
100
AcDbEntity
  8
0
100
AcDbSpline
 62
7
  6
CONTINUOUS
 70
0
 71
3
 72
9
 73
5
 74
0
 42
0.0000001
 43
0.0000001
 44
0.0000000001
 40
0.0
 40
0.0
 40
0.0
 40
0.0
 40
0.2679832026
 40
1.0
 40
1.0
 40
1.0
 40
1.0
 10
373.7276874602
 20
183.4458506194
 30
0.0
 10
373.6990329201
 20
183.8630925233
 30
0.0
 10
373.5852804462
 20
185.4195629316
 30
0.0
 10
373.4440091788
 20
186.974198678
 30
0.0
 10
373.3169760124
 20
188.1095268471
 30
0.0
  0
LINE
  5
7E7
100
AcDbEntity
  8
0
100
AcDbLine
 62
7
  6
CONTINUOUS
 10
373.3169760124
 20
188.1095268471
 11
373.3104388775
 21
188.1677551161
  0
SPLINE
  5
7E8
100
AcDbEntity
  8
0
100
AcDbSpline
 62
7
  6
CONTINUOUS
 70
0
 71
3
 72
13
 73
9
 74
0
 42
0.0000001
 43
0.0000001
 44
0.0000000001
 40
0.0
 40
0.0
 40
0.0
 40
0.0
 40
0.3588536496
 40
0.6482565232
 40
0.765056619
 40
0.8625966341
 40
0.9407567919
 40
1.0
 40
1.0
 40
1.0
 40
1.0
 10
373.3104388775
 20
188.1677551161
 30
0.0
 10
373.2206704577
 20
188.9646698366
 30
0.0
 10
373.0369749779
 20
190.401904969
 30
0.0
 10
372.7443189662
 20
192.0877351028
 30
0.0
 10
372.4846180841
 20
193.1834197092
 30
0.0
 10
372.299372621
 20
193.8109515404
 30
0.0
 10
372.1111854627
 20
194.3014278337
 30
0.0
 10
371.9652989559
 20
194.5741338313
 30
0.0
 10
371.88753428
 20
194.6812834923
 30
0.0
  0
SPLINE
  5
7E9
100
AcDbEntity
  8
RUNDUNGEN
100
AcDbSpline
 62
7
  6
CONTINUOUS
 70
0
 71
3
 72
9
 73
5
 74
0
 42
0.0000001
 43
0.0000001
 44
0.0000000001
 40
0.0
 40
0.0
 40
0.0
 40
0.0
 40
0.2522612347
 40
1.0
 40
1.0
 40
1.0
 40
1.0
 10
375.1864882115
 20
179.5477583316
 30
0.0
 10
375.205566429
 20
179.4669417057
 30
0.0
 10
375.2748602568
 20
179.1451278722
 30
0.0
 10
375.3177621657
 20
178.817493398
 30
0.0
 10
375.3330371188
 20
178.571831265
 30
0.0
  0
SPLINE
  5
7EA
100
AcDbEntity
  8
0
100
AcDbSpline
 62
7
  6
CONTINUOUS
 70
0
 71
3
 72
9
 73
5
 74
0
 42
0.0000001
 43
0.0000001
 44
0.0000000001
 40
0.0
 40
0.0
 40
0.0
 40
0.0
 40
0.5211529301
 40
1.0
 40
1.0
 40
1.0
 40
1.0
 10
375.0401577228
 20
149.115739834
 30
0.0
 10
374.9688404184
 20
155.0839931475
 30
0.0
 10
374.6899132488
 20
166.5347836034
 30
0.0
 10
374.1034321056
 20
177.9745804598
 30
0.0
 10
373.7276874602
 20
183.4458506194
 30
0.0
  0
SPLINE
  5
7EB
100
AcDbEntity
  8
RUNDUNGEN
100
AcDbSpline
 62
7
  6
CONTINUOUS
 70
0
 71
3
 72
9
 73
5
 74
0
 42
0.0000001
 43
0.0000001
 44
0.0000000001
 40
0.0
 40
0.0
 40
0.0
 40
0.0
 40
0.749884304
 40
1.0
 40
1.0
 40
1.0
 40
1.0
 10
350.0014585581
 20
128.1951712196
 30
0.0
 10
350.072529419
 20
130.4132751607
 30
0.0
 10
350.2311998093
 20
133.3715161871
 30
0.0
 10
350.5619219816
 20
136.31298375
 30
0.0
 10
350.6578179078
 20
137.0469495878
 30
0.0
  0
SPLINE
  5
7EC
100
AcDbEntity
  8
RUNDUNGEN
100
AcDbSpline
 62
7
  6
CONTINUOUS
 70
0
 71
3
 72
8
 73
4
 74
0
 42
0.0000001
 43
0.0000001
 44
0.0000000001
 40
0.0
 40
0.0
 40
0.0
 40
0.0
 40
1.0
 40
1.0
 40
1.0
 40
1.0
 10
376.2539882802
 20
156.5124265087
 30
0.0
 10
376.3149779188
 20
153.8866469068
 30
0.0
 10
376.3497231407
 20
151.2593042698
 30
0.0
 10
376.3079864998
 20
148.6331480851
 30
0.0
  0
SPLINE
  5
7ED
100
AcDbEntity
  8
RUNDUNGEN
100
AcDbSpline
 62
7
  6
CONTINUOUS
 70
0
 71
3
 72
9
 73
5
 74
0
 42
0.0000001
 43
0.0000001
 44
0.0000000001
 40
0.0
 40
0.0
 40
0.0
 40
0.0
 40
0.230885533
 40
1.0
 40
1.0
 40
1.0
 40
1.0
 10
350.9566686743
 20
97.4930916739
 30
0.0
 10
350.9560384421
 20
97.5037888501
 30
0.0
 10
350.9534387225
 20
97.5501276065
 30
0.0
 10
350.9512482156
 20
97.5964883184
 30
0.0
 10
350.9496545862
 20
97.6321484215
 30
0.0
  0
SPLINE
  5
7EE
100
AcDbEntity
  8
RUNDUNGEN
100
AcDbSpline
 62
7
  6
CONTINUOUS
 70
0
 71
3
 72
9
 73
5
 74
0
 42
0.0000001
 43
0.0000001
 44
0.0000000001
 40
0.0
 40
0.0
 40
0.0
 40
0.0
 40
0.4250950732
 40
1.0
 40
1.0
 40
1.0
 40
1.0
 10
350.9496545862
 20
97.6321484215
 30
0.0
 10
350.9393610425
 20
97.8624835451
 30
0.0
 10
350.9191331362
 20
98.404510882
 30
0.0
 10
350.8854649139
 20
98.9459085417
 30
0.0
 10
350.864515562
 20
99.2570235835
 30
0.0
  0
SPLINE
  5
7EF
100
AcDbEntity
  8
RUNDUNGEN
100
AcDbSpline
 62
7
  6
CONTINUOUS
 70
0
 71
3
 72
9
 73
5
 74
0
 42
0.0000001
 43
0.0000001
 44
0.0000000001
 40
0.0
 40
0.0
 40
0.0
 40
0.0
 40
0.250115696
 40
1.0
 40
1.0
 40
1.0
 40
1.0
 10
375.6329544222
 20
137.0469495878
 30
0.0
 10
375.7288503484
 20
136.3129837499
 30
0.0
 10
376.0595725207
 20
133.3715161871
 30
0.0
 10
376.218242911
 20
130.4132751607
 30
0.0
 10
376.2893137719
 20
128.1951712196
 30
0.0
  0
SPLINE
  5
7F0
100
AcDbEntity
  8
RUNDUNGEN
100
AcDbSpline
 62
7
  6
CONTINUOUS
 70
0
 71
3
 72
9
 73
5
 74
0
 42
0.0000001
 43
0.0000001
 44
0.0000000001
 40
0.0
 40
0.0
 40
0.0
 40
0.0
 40
0.5748371196
 40
1.0
 40
1.0
 40
1.0
 40
1.0
 10
375.426256768
 20
99.2570235835
 30
0.0
 10
375.4053161107
 20
98.9460376637
 30
0.0
 10
375.3716569196
 20
98.4048009958
 30
0.0
 10
375.3514254954
 20
97.8629351044
 30
0.0
 10
375.3411393097
 20
97.6326314225
 30
0.0
  0
SPLINE
  5
7F1
100
AcDbEntity
  8
RUNDUNGEN
100
AcDbSpline
 62
7
  6
CONTINUOUS
 70
0
 71
3
 72
9
 73
5
 74
0
 42
0.0000001
 43
0.0000001
 44
0.0000000001
 40
0.0
 40
0.0
 40
0.0
 40
0.0
 40
0.2689705425
 40
1.0
 40
1.0
 40
1.0
 40
1.0
 10
375.3411393097
 20
97.6326314225
 30
0.0
 10
375.3405803826
 20
97.6201172624
 30
0.0
 10
375.3384545542
 20
97.5735934281
 30
0.0
 10
375.3361060225
 20
97.5270786229
 30
0.0
 10
375.3341036557
 20
97.4930916739
 30
0.0
  0
SPLINE
  5
7F2
100
AcDbEntity
  8
RUNDUNGEN
100
AcDbSpline
 62
7
  6
CONTINUOUS
 70
0
 71
3
 72
8
 73
4
 74
0
 42
0.0000001
 43
0.0000001
 44
0.0000000001
 40
0.0
 40
0.0
 40
0.0
 40
0.0
 40
1.0
 40
1.0
 40
1.0
 40
1.0
 10
376.3079864998
 20
127.4141600168
 30
0.0
 10
376.349723141
 20
124.7880038166
 30
0.0
 10
376.3149843954
 20
122.160661009
 30
0.0
 10
376.2539879908
 20
119.5348815488
 30
0.0
  0
SPLINE
  5
7F3
100
AcDbEntity
  8
RUNDUNGEN
100
AcDbSpline
 62
7
  6
CONTINUOUS
 70
0
 71
3
 72
8
 73
4
 74
0
 42
0.0000001
 43
0.0000001
 44
0.0000000001
 40
0.0
 40
0.0
 40
0.0
 40
0.0
 40
1.0
 40
1.0
 40
1.0
 40
1.0
 10
350.0367840498
 20
119.5348815936
 30
0.0
 10
349.9757944112
 20
122.1606611955
 30
0.0
 10
349.9410491893
 20
124.7880038325
 30
0.0
 10
349.9827858302
 20
127.4141600173
 30
0.0
  0
SPLINE
  5
7F4
100
AcDbEntity
  8
RUNDUNGEN
100
AcDbSpline
 62
7
  6
CONTINUOUS
 70
0
 71
3
 72
9
 73
5
 74
0
 42
0.0000001
 43
0.0000001
 44
0.0000000001
 40
0.0
 40
0.0
 40
0.0
 40
0.0
 40
0.2501156961
 40
1.0
 40
1.0
 40
1.0
 40
1.0
 10
350.6578179078
 20
139.0003585145
 30
0.0
 10
350.5619219816
 20
139.7343243524
 30
0.0
 10
350.2311998092
 20
142.6757919153
 30
0.0
 10
350.072529419
 20
145.6340329417
 30
0.0
 10
350.0014585581
 20
147.8521368828
 30
0.0
  0
SPLINE
  5
7F5
100
AcDbEntity
  8
RUNDUNGEN
100
AcDbSpline
 62
7
  6
CONTINUOUS
 70
0
 71
3
 72
9
 73
5
 74
0
 42
0.0000001
 43
0.0000001
 44
0.0000000001
 40
0.0
 40
0.0
 40
0.0
 40
0.0
 40
0.2308855314
 40
1.0
 40
1.0
 40
1.0
 40
1.0
 10
375.3341036557
 20
178.5542164285
 30
0.0
 10
375.334733888
 20
178.5435192514
 30
0.0
 10
375.3373336078
 20
178.4971804912
 30
0.0
 10
375.3395241149
 20
178.4508197755
 30
0.0
 10
375.3411177445
 20
178.4151596693
 30
0.0
  0
SPLINE
  5
7F6
100
AcDbEntity
  8
RUNDUNGEN
100
AcDbSpline
 62
7
  6
CONTINUOUS
 70
0
 71
3
 72
9
 73
5
 74
0
 42
0.0000001
 43
0.0000001
 44
0.0000000001
 40
0.0
 40
0.0
 40
0.0
 40
0.0
 40
0.4250950599
 40
1.0
 40
1.0
 40
1.0
 40
1.0
 10
375.3411177445
 20
178.4151596693
 30
0.0
 10
375.3514112879
 20
178.1848245546
 30
0.0
 10
375.3716391954
 20
177.6427972216
 30
0.0
 10
375.4053074158
 20
177.1013995657
 30
0.0
 10
375.426256768
 20
176.7902845189
 30
0.0
  0
SPLINE
  5
7F7
100
AcDbEntity
  8
RUNDUNGEN
100
AcDbSpline
 62
7
  6
CONTINUOUS
 70
0
 71
3
 72
9
 73
5
 74
0
 42
0.0000001
 43
0.0000001
 44
0.0000000001
 40
0.0
 40
0.0
 40
0.0
 40
0.0
 40
0.5748527767
 40
1.0
 40
1.0
 40
1.0
 40
1.0
 10
350.864515562
 20
176.7902845189
 30
0.0
 10
350.8854583012
 20
177.1013013576
 30
0.0
 10
350.9191198009
 20
177.642577119
 30
0.0
 10
350.9393502886
 20
178.1844822245
 30
0.0
 10
350.9496382649
 20
178.4147939849
 30
0.0
  0
SPLINE
  5
7F8
100
AcDbEntity
  8
RUNDUNGEN
100
AcDbSpline
 62
7
  6
CONTINUOUS
 70
0
 71
3
 72
9
 73
5
 74
0
 42
0.0000001
 43
0.0000001
 44
0.0000000001
 40
0.0
 40
0.0
 40
0.0
 40
0.0
 40
0.2689578128
 40
1.0
 40
1.0
 40
1.0
 40
1.0
 10
350.9496382649
 20
178.4147939849
 30
0.0
 10
350.9501967733
 20
178.4272970326
 30
0.0
 10
350.952321107
 20
178.4737817544
 30
0.0
 10
350.9546679555
 20
178.5202574514
 30
0.0
 10
350.9566686743
 20
178.5542164285
 30
0.0
  0
SPLINE
  5
7F9
100
AcDbEntity
  8
RUNDUNGEN
100
AcDbSpline
 62
7
  6
CONTINUOUS
 70
0
 71
3
 72
8
 73
4
 74
0
 42
0.0000001
 43
0.0000001
 44
0.0000000001
 40
0.0
 40
0.0
 40
0.0
 40
0.0
 40
1.0
 40
1.0
 40
1.0
 40
1.0
 10
349.9827858302
 20
148.6331480856
 30
0.0
 10
349.9410491891
 20
151.2593042858
 30
0.0
 10
349.9757879346
 20
153.8866470934
 30
0.0
 10
350.0367843393
 20
156.5124265536
 30
0.0
  0
SPLINE
  5
7FA
100
AcDbEntity
  8
RUNDUNGEN
100
AcDbSpline
 62
7
  6
CONTINUOUS
 70
0
 71
3
 72
9
 73
5
 74
0
 42
0.0000001
 43
0.0000001
 44
0.0000000001
 40
0.0
 40
0.0
 40
0.0
 40
0.0
 40
0.7498843039
 40
1.0
 40
1.0
 40
1.0
 40
1.0
 10
376.2893137719
 20
147.8521368828
 30
0.0
 10
376.218242911
 20
145.6340329417
 30
0.0
 10
376.0595725208
 20
142.6757919153
 30
0.0
 10
375.7288503484
 20
139.7343243524
 30
0.0
 10
375.6329544222
 20
139.0003585145
 30
0.0
  0
ELLIPSE
  5
7FB
100
AcDbEntity
  8
RUNDUNGEN
100
AcDbEllipse
 62
7
  6
CONTINUOUS
 10
363.145386165
 20
488.1636703021
 30
0.0
 11
0.0
 21
17.3205080757
 31
0.0
 40
0.5773502692
 41
1.3963415839
 42
1.8276139601
  0
ELLIPSE
  5
7FC
100
AcDbEntity
  8
RUNDUNGEN
100
AcDbEllipse
 62
7
  6
CONTINUOUS
 10
363.145386165
 20
476.3647189058
 30
0.0
 11
-0.0
 21
17.320508051
 31
0.0
 40
0.57735027
 41
1.3139786936
 42
2.2142974356
  0
ELLIPSE
  5
7FD
100
AcDbEntity
  8
RUNDUNGEN
100
AcDbEllipse
 62
7
  6
CONTINUOUS
 10
363.145386165
 20
498.1088892558
 30
0.0
 11
0.0
 21
22.460367739
 31
0.0
 40
0.4452286853
 41
1.5707963268
 42
1.7597458301
  0
ELLIPSE
  5
7FE
100
AcDbEntity
  8
RUNDUNGEN
100
AcDbEllipse
 62
7
  6
CONTINUOUS
 10
363.145386165
 20
498.1088892558
 30
0.0
 11
0.0
 21
22.460367739
 31
0.0
 40
0.4452286853
 41
4.5234394771
 42
4.7123889804
  0
ELLIPSE
  5
7FF
100
AcDbEntity
  8
RUNDUNGEN
100
AcDbEllipse
 62
7
  6
CONTINUOUS
 10
363.145386165
 20
476.3647189058
 30
0.0
 11
0.0
 21
17.320508051
 31
0.0
 40
0.57735027
 41
-2.2142974356
 42
-1.3139786936
  0
ELLIPSE
  5
800
100
AcDbEntity
  8
RUNDUNGEN
100
AcDbEllipse
 62
7
  6
CONTINUOUS
 10
363.145386165
 20
488.1636703021
 30
0.0
 11
0.0
 21
17.3205080757
 31
0.0
 40
0.5773502692
 41
4.4555713471
 42
4.8868437233
  0
ELLIPSE
  5
801
100
AcDbEntity
  8
0
100
AcDbEllipse
 62
7
  6
CONTINUOUS
 10
316.145386165
 20
368.6271192264
 30
0.0
 11
39.0
 21
0.0
 31
0.0
 40
0.255319362
 41
2.8144645461
 42
2.8391839047
  0
ELLIPSE
  5
802
100
AcDbEntity
  8
0
100
AcDbEllipse
 62
7
  6
CONTINUOUS
 10
316.145386165
 20
363.2944961842
 30
0.0
 11
39.0
 21
0.0
 31
0.0
 40
0.6808512211
 41
2.7957888911
 42
2.8144645461
  0
ELLIPSE
  5
803
100
AcDbEntity
  8
0
100
AcDbEllipse
 62
7
  6
CONTINUOUS
 10
316.145386165
 20
352.0441854361
 30
0.0
 11
-0.0
 21
59.7445597752
 31
0.0
 40
0.6527791007
 41
1.212472378
 42
1.2249925643
  0
ELLIPSE
  5
804
100
AcDbEntity
  8
0
100
AcDbEllipse
 62
7
  6
CONTINUOUS
 10
316.145386165
 20
317.1226598958
 30
0.0
 11
0.0
 21
159.3197377004
 31
0.0
 40
0.244790762
 41
1.206190378
 42
1.212472378
  0
ELLIPSE
  5
805
100
AcDbEntity
  8
0
100
AcDbEllipse
 62
7
  6
CONTINUOUS
 10
316.145386165
 20
434.254136377
 30
0.0
 11
-0.0
 21
159.3197377004
 31
0.0
 40
0.244790762
 41
-4.3540650316
 42
-4.3477830316
  0
ELLIPSE
  5
806
100
AcDbEntity
  8
0
100
AcDbEllipse
 62
7
  6
CONTINUOUS
 10
316.145386165
 20
399.3326304025
 30
0.0
 11
-0.0
 21
59.7446155651
 31
0.0
 40
0.6527784911
 41
-4.3665852179
 42
-4.3540650316
  0
ELLIPSE
  5
807
100
AcDbEntity
  8
0
100
AcDbEllipse
 62
7
  6
CONTINUOUS
 10
316.145386165
 20
388.0822975925
 30
0.0
 11
39.0
 21
0.0
 31
0.0
 40
0.6808509827
 41
-2.8144645461
 42
-2.7957888911
  0
ELLIPSE
  5
808
100
AcDbEntity
  8
0
100
AcDbEllipse
 62
7
  6
CONTINUOUS
 10
316.145386165
 20
382.7496775381
 30
0.0
 11
39.0
 21
0.0
 31
0.0
 40
0.255319362
 41
-2.8391839047
 42
-2.8144645461
  0
ELLIPSE
  5
809
100
AcDbEntity
  8
0
100
AcDbEllipse
 62
7
  6
CONTINUOUS
 10
316.145386165
 20
363.3389991149
 30
0.0
 11
-0.0
 21
159.3197377004
 31
0.0
 40
0.244790762
 41
7.7874368171
 42
7.7933247762
  0
ELLIPSE
  5
80A
100
AcDbEntity
  8
0
100
AcDbEllipse
 62
7
  6
CONTINUOUS
 10
316.145386165
 20
369.3752134739
 30
0.0
 11
0.0
 21
59.7445597752
 31
0.0
 40
0.6527791007
 41
7.7933247762
 42
7.8050946533
  0
ELLIPSE
  5
80B
100
AcDbEntity
  8
0
100
AcDbEllipse
 62
7
  6
CONTINUOUS
 10
316.145386165
 20
370.9971927012
 30
0.0
 11
39.0
 21
-0.0
 31
0.0
 40
0.6808512211
 41
3.092705673
 42
3.1103482653
  0
ELLIPSE
  5
80C
100
AcDbEntity
  8
0
100
AcDbEllipse
 62
7
  6
CONTINUOUS
 10
316.145386165
 20
371.5156321635
 30
0.0
 11
39.0
 21
-0.0
 31
0.0
 40
0.255319362
 41
3.1103482653
 42
3.1338575225
  0
ELLIPSE
  5
80D
100
AcDbEntity
  8
0
100
AcDbEllipse
 62
7
  6
CONTINUOUS
 10
316.145386165
 20
371.435632433
 30
0.0
 11
39.0
 21
0.0
 31
0.0
 40
0.2553189968
 41
3.1023090351
 42
3.1258227692
  0
ELLIPSE
  5
80E
100
AcDbEntity
  8
0
100
AcDbEllipse
 62
7
  6
CONTINUOUS
 10
316.145386165
 20
370.7838587234
 30
0.0
 11
39.0
 21
-0.0
 31
0.0
 40
0.6808512211
 41
3.084660182
 42
3.1023090351
  0
ELLIPSE
  5
80F
100
AcDbEntity
  8
0
100
AcDbEllipse
 62
7
  6
CONTINUOUS
 10
316.145386165
 20
368.8952033812
 30
0.0
 11
-0.0
 21
59.744730706
 31
0.0
 40
0.6527772331
 41
1.5020884343
 42
1.5138638552
  0
ELLIPSE
  5
810
100
AcDbEntity
  8
0
100
AcDbEllipse
 62
7
  6
CONTINUOUS
 10
316.145386165
 20
362.0590587574
 30
0.0
 11
0.0
 21
159.3188260673
 31
0.0
 40
0.2447921628
 41
1.4961972293
 42
1.5020884343
  0
ELLIPSE
  5
811
100
AcDbEntity
  8
0
100
AcDbEllipse
 62
7
  6
CONTINUOUS
 10
316.145386165
 20
339.4815897664
 30
0.0
 11
39.0
 21
-0.0
 31
0.0
 40
0.1702127606
 41
-3.0582912189
 42
-3.0309181347
  0
ELLIPSE
  5
812
100
AcDbEntity
  8
0
100
AcDbEllipse
 62
7
  6
CONTINUOUS
 10
316.145386165
 20
340.0339301745
 30
0.0
 11
39.0
 21
0.0
 31
0.0
 40
0.3404255211
 41
-3.0719530457
 42
-3.0582912189
  0
ELLIPSE
  5
813
100
AcDbEntity
  8
0
100
AcDbEllipse
 62
7
  6
CONTINUOUS
 10
316.145386165
 20
340.9577599325
 30
0.0
 11
39.0
 21
-0.0
 31
0.0
 40
0.6808510423
 41
-3.0856018648
 42
-3.0719530457
  0
ELLIPSE
  5
814
100
AcDbEntity
  8
0
100
AcDbEllipse
 62
7
  6
CONTINUOUS
 10
316.145386165
 20
343.9296789833
 30
0.0
 11
-0.0
 21
79.659647915
 31
0.0
 40
0.4895828819
 41
-4.6654914408
 42
-4.6563981916
  0
ELLIPSE
  5
815
100
AcDbEntity
  8
0
100
AcDbEllipse
 62
7
  6
CONTINUOUS
 10
316.145386165
 20
346.4643983017
 30
0.0
 11
39.0
 21
0.0
 31
0.0
 40
0.2042553143
 41
3.0430142664
 42
3.065804305
  0
ELLIPSE
  5
816
100
AcDbEntity
  8
0
100
AcDbEllipse
 62
7
  6
CONTINUOUS
 10
316.145386165
 20
345.2581009069
 30
0.0
 11
39.0
 21
0.0
 31
0.0
 40
0.6127657675
 41
3.065804305
 42
3.0885549708
  0
ELLIPSE
  5
817
100
AcDbEntity
  8
0
100
AcDbEllipse
 62
7
  6
CONTINUOUS
 10
316.145386165
 20
344.4135050212
 30
0.0
 11
0.0
 21
39.829782486
 31
0.0
 40
0.9791667834
 41
1.517758644
 42
1.5313951072
  0
ELLIPSE
  5
818
100
AcDbEntity
  8
0
100
AcDbEllipse
 62
7
  6
CONTINUOUS
 10
316.145386165
 20
342.0601007191
 30
0.0
 11
-0.0
 21
99.574464524
 31
0.0
 40
0.3916666807
 41
1.5313951072
 42
1.5404818593
  0
ELLIPSE
  5
819
100
AcDbEntity
  8
0
100
AcDbEllipse
 62
7
  6
CONTINUOUS
 10
316.145386165
 20
345.3811639737
 30
0.0
 11
-0.0
 21
39.829782486
 31
0.0
 40
0.9791667834
 41
-4.6729877608
 42
-4.6655107568
  0
ELLIPSE
  5
81A
100
AcDbEntity
  8
0
100
AcDbEllipse
 62
7
  6
CONTINUOUS
 10
316.145386165
 20
341.3243555691
 30
0.0
 11
39.0
 21
-0.0
 31
0.0
 40
0.7659575381
 41
3.0947459868
 42
3.1067351634
  0
ELLIPSE
  5
81B
100
AcDbEntity
  8
0
100
AcDbEllipse
 62
7
  6
CONTINUOUS
 10
316.145386165
 20
338.8952075515
 30
0.0
 11
-0.0
 21
99.5744366291
 31
0.0
 40
0.3916667904
 41
1.5359388366
 42
1.5450242431
  0
ELLIPSE
  5
81C
100
AcDbEntity
  8
0
100
AcDbEllipse
 62
7
  6
CONTINUOUS
 10
316.145386165
 20
343.4845673377
 30
0.0
 11
0.0
 21
99.5744226816
 31
0.0
 40
0.3916668453
 41
-4.6866168967
 42
-4.6775314902
  0
ELLIPSE
  5
81D
100
AcDbEntity
  8
0
100
AcDbEllipse
 62
7
  6
CONTINUOUS
 10
316.145386165
 20
341.4024409983
 30
0.0
 11
-0.0
 21
39.8297871351
 31
0.0
 40
0.9791666691
 41
-4.6775314902
 42
-4.6638977524
  0
ELLIPSE
  5
81E
100
AcDbEntity
  8
0
100
AcDbEllipse
 62
7
  6
CONTINUOUS
 10
316.145386165
 20
340.6301860201
 30
0.0
 11
39.0
 21
0.0
 31
0.0
 40
0.6127661718
 41
-3.0931014256
 42
-3.0703572123
  0
ELLIPSE
  5
81F
100
AcDbEntity
  8
0
100
AcDbEllipse
 62
7
  6
CONTINUOUS
 10
316.145386165
 20
339.4962279212
 30
0.0
 11
39.0
 21
-0.0
 31
0.0
 40
0.2042552737
 41
-3.0703572123
 42
-3.0475760054
  0
ELLIPSE
  5
820
100
AcDbEntity
  8
0
100
AcDbEllipse
 62
7
  6
CONTINUOUS
 10
316.145386165
 20
425.3085408985
 30
0.0
 11
0.0
 21
79.6589572223
 31
0.0
 40
0.4895871269
 41
-3.7794098004
 42
-3.7717444502
  0
ELLIPSE
  5
821
100
AcDbEntity
  8
0
100
AcDbEllipse
 62
7
  6
CONTINUOUS
 10
316.145386165
 20
393.310006109
 30
0.0
 11
0.0
 21
39.8299344251
 31
0.0
 40
0.9791630482
 41
-3.7945076972
 42
-3.7794098004
  0
ELLIPSE
  5
822
100
AcDbEntity
  8
0
100
AcDbEllipse
 62
7
  6
CONTINUOUS
 10
316.145386165
 20
372.21825581
 30
0.0
 11
39.0
 21
-0.0
 31
0.0
 40
0.3404254913
 41
-2.2458162851
 42
-2.2237113704
  0
ELLIPSE
  5
823
100
AcDbEntity
  8
0
100
AcDbEllipse
 62
7
  6
CONTINUOUS
 10
316.145386165
 20
360.3680239057
 30
0.0
 11
39.0
 21
0.0
 31
0.0
 40
0.2042556244
 41
-2.3353857061
 42
-2.3020023154
  0
ELLIPSE
  5
824
100
AcDbEntity
  8
0
100
AcDbEllipse
 62
7
  6
CONTINUOUS
 10
316.145386165
 20
371.8655730004
 30
0.0
 11
39.0
 21
-0.0
 31
0.0
 40
0.6127668731
 41
-2.3676452234
 42
-2.3353857061
  0
ELLIPSE
  5
825
100
AcDbEntity
  8
0
100
AcDbEllipse
 62
7
  6
CONTINUOUS
 10
316.145386165
 20
401.5610998301
 30
0.0
 11
0.0
 21
66.3829847574
 31
0.0
 40
0.5874999466
 41
-3.9573158646
 42
-3.9384415502
  0
ELLIPSE
  5
826
100
AcDbEntity
  8
0
100
AcDbEllipse
 62
7
  6
CONTINUOUS
 10
316.145386165
 20
465.2533025108
 30
0.0
 11
-0.0
 21
159.3179144446
 31
0.0
 40
0.2447935635
 41
-3.9635329531
 42
-3.9573158646
  0
ELLIPSE
  5
827
100
AcDbEntity
  8
0
100
AcDbEllipse
 62
7
  6
CONTINUOUS
 10
316.145386165
 20
347.7497522036
 30
0.0
 11
39.0
 21
-0.0
 31
0.0
 40
0.2553200925
 41
2.2162003511
 42
2.2458162851
  0
ELLIPSE
  5
828
100
AcDbEntity
  8
0
100
AcDbEllipse
 62
7
  6
CONTINUOUS
 10
316.145386165
 20
334.4921531618
 30
0.0
 11
39.0
 21
0.0
 31
0.0
 40
0.6808512211
 41
2.1932015273
 42
2.2162003511
  0
ELLIPSE
  5
829
100
AcDbEntity
  8
0
100
AcDbEllipse
 62
7
  6
CONTINUOUS
 10
316.145386165
 20
307.5251595322
 30
0.0
 11
0.0
 21
59.7442179167
 31
0.0
 40
0.6527828359
 41
0.6066546609
 42
0.6224052005
  0
ELLIPSE
  5
82A
100
AcDbEntity
  8
0
100
AcDbEllipse
 62
7
  6
CONTINUOUS
 10
316.145386165
 20
406.2346386335
 30
0.0
 11
-0.0
 21
59.7442458115
 31
0.0
 40
0.6527825311
 41
-3.763997854
 42
-3.7482473145
  0
ELLIPSE
  5
82B
100
AcDbEntity
  8
0
100
AcDbEllipse
 62
7
  6
CONTINUOUS
 10
316.145386165
 20
379.2676147854
 30
0.0
 11
39.0
 21
0.0
 31
0.0
 40
0.6808509827
 41
-2.2162003511
 42
-2.1932015273
  0
ELLIPSE
  5
82C
100
AcDbEntity
  8
0
100
AcDbEllipse
 62
7
  6
CONTINUOUS
 10
316.145386165
 20
366.0100231716
 30
0.0
 11
39.0
 21
0.0
 31
0.0
 40
0.2553200925
 41
-2.2458162851
 42
-2.2162003511
  0
ELLIPSE
  5
82D
100
AcDbEntity
  8
0
100
AcDbEllipse
 62
7
  6
CONTINUOUS
 10
316.145386165
 20
365.738702644
 30
0.0
 11
39.0
 21
0.0
 31
0.0
 40
0.2553186315
 41
-2.3155004571
 42
-2.2882977722
  0
ELLIPSE
  5
82E
100
AcDbEntity
  8
0
100
AcDbEllipse
 62
7
  6
CONTINUOUS
 10
316.145386165
 20
373.060283551
 30
0.0
 11
39.0
 21
-0.0
 31
0.0
 40
0.510637263
 41
-2.3419228041
 42
-2.3155004571
  0
ELLIPSE
  5
82F
100
AcDbEntity
  8
0
100
AcDbEllipse
 62
7
  6
CONTINUOUS
 10
316.145386165
 20
387.3419067196
 30
0.0
 11
-0.0
 21
39.8299344251
 31
0.0
 40
0.9791630482
 41
-3.9384415502
 42
-3.9127191309
  0
ELLIPSE
  5
830
100
AcDbEntity
  8
0
100
AcDbEllipse
 62
7
  6
CONTINUOUS
 10
316.145386165
 20
470.8596685172
 30
0.0
 11
-0.0
 21
159.3179144446
 31
0.0
 40
0.2447935635
 41
-3.9447711544
 42
-3.9384415502
  0
ELLIPSE
  5
831
100
AcDbEntity
  8
0
100
AcDbEllipse
 62
7
  6
CONTINUOUS
 10
316.145386165
 20
250.3150004777
 30
0.0
 11
0.0
 21
159.3179144446
 31
0.0
 40
0.2447935635
 41
0.7968488966
 42
0.8031785008
  0
ELLIPSE
  5
832
100
AcDbEntity
  8
0
100
AcDbEllipse
 62
7
  6
CONTINUOUS
 10
316.145386165
 20
333.8327622753
 30
0.0
 11
0.0
 21
39.8299344251
 31
0.0
 40
0.9791630482
 41
0.7711264773
 42
0.7968488966
  0
ELLIPSE
  5
833
100
AcDbEntity
  8
0
100
AcDbEllipse
 62
7
  6
CONTINUOUS
 10
316.145386165
 20
348.1143854439
 30
0.0
 11
39.0
 21
0.0
 31
0.0
 40
0.510637263
 41
2.3155004571
 42
2.3419228041
  0
ELLIPSE
  5
834
100
AcDbEntity
  8
0
100
AcDbEllipse
 62
7
  6
CONTINUOUS
 10
316.145386165
 20
355.435966351
 30
0.0
 11
39.0
 21
0.0
 31
0.0
 40
0.2553186315
 41
2.2882977722
 42
2.3155004571
  0
ELLIPSE
  5
835
100
AcDbEntity
  8
0
100
AcDbEllipse
 62
7
  6
CONTINUOUS
 10
316.145386165
 20
358.8488726996
 30
0.0
 11
39.0
 21
0.0
 31
0.0
 40
0.2042556244
 41
-2.5818577931
 42
-2.5548342919
  0
ELLIPSE
  5
836
100
AcDbEntity
  8
0
100
AcDbEllipse
 62
7
  6
CONTINUOUS
 10
316.145386165
 20
365.1932718713
 30
0.0
 11
39.0
 21
-0.0
 31
0.0
 40
0.5106373301
 41
-2.6031505923
 42
-2.5818577931
  0
ELLIPSE
  5
837
100
AcDbEntity
  8
0
100
AcDbEllipse
 62
7
  6
CONTINUOUS
 10
316.145386165
 20
375.4057082292
 30
0.0
 11
0.0
 21
39.829937912
 31
0.0
 40
0.9791629624
 41
-4.1949721174
 42
-4.1739469191
  0
ELLIPSE
  5
838
100
AcDbEntity
  8
0
100
AcDbEllipse
 62
7
  6
CONTINUOUS
 10
316.145386165
 20
395.1066132603
 30
0.0
 11
0.0
 21
79.6589711697
 31
0.0
 40
0.4895870412
 41
-4.205390467
 42
-4.1949721174
  0
ELLIPSE
  5
839
100
AcDbEntity
  8
0
100
AcDbEllipse
 62
7
  6
CONTINUOUS
 10
316.145386165
 20
453.1270894475
 30
0.0
 11
-0.0
 21
199.1519512474
 31
0.0
 40
0.1958303685
 41
-4.2105769101
 42
-4.205390467
  0
ELLIPSE
  5
83A
100
AcDbEntity
  8
0
100
AcDbEllipse
 62
7
  6
CONTINUOUS
 10
316.145386165
 20
349.8295800494
 30
0.0
 11
39.0
 21
0.0
 31
0.0
 40
0.2553186315
 41
2.5105470021
 42
2.5328615838
  0
ELLIPSE
  5
83B
100
AcDbEntity
  8
0
100
AcDbEllipse
 62
7
  6
CONTINUOUS
 10
316.145386165
 20
340.0382518938
 30
0.0
 11
39.0
 21
0.0
 31
0.0
 40
0.6808512211
 41
2.4935699303
 42
2.5105470021
  0
ELLIPSE
  5
83C
100
AcDbEntity
  8
0
100
AcDbEllipse
 62
7
  6
CONTINUOUS
 10
316.145386165
 20
320.0033694036
 30
0.0
 11
0.0
 21
59.7449016377
 31
0.0
 40
0.6527753654
 41
0.9113336179
 42
0.9227736035
  0
ELLIPSE
  5
83D
100
AcDbEntity
  8
0
100
AcDbEllipse
 62
7
  6
CONTINUOUS
 10
316.145386165
 20
258.9957504031
 30
0.0
 11
-0.0
 21
159.3179144446
 31
0.0
 40
0.2447935635
 41
0.9055754356
 42
0.9113336179
  0
ELLIPSE
  5
83E
100
AcDbEntity
  8
0
100
AcDbEllipse
 62
7
  6
CONTINUOUS
 10
316.145386165
 20
356.7932921432
 30
0.0
 11
39.0
 21
0.0
 31
0.0
 40
0.3404254913
 41
2.9361112482
 42
2.9500060922
  0
ELLIPSE
  5
83F
100
AcDbEntity
  8
0
100
AcDbEllipse
 62
7
  6
CONTINUOUS
 10
316.145386165
 20
351.3753894472
 30
0.0
 11
0.0
 21
39.8299344251
 31
0.0
 40
0.9791630482
 41
1.3560294942
 42
1.3653149214
  0
ELLIPSE
  5
840
100
AcDbEntity
  8
0
100
AcDbEllipse
 62
7
  6
CONTINUOUS
 10
316.145386165
 20
334.3985996203
 30
0.0
 11
-0.0
 21
119.4884358335
 31
0.0
 40
0.3263914179
 41
1.3513797176
 42
1.3560294942
  0
ELLIPSE
  5
841
100
AcDbEntity
  8
0
100
AcDbEllipse
 62
7
  6
CONTINUOUS
 10
316.145386165
 20
386.9569204169
 30
0.0
 11
0.0
 21
119.4884358335
 31
0.0
 40
0.3263914179
 41
-4.4976221478
 42
-4.4929723712
  0
ELLIPSE
  5
842
100
AcDbEntity
  8
0
100
AcDbEllipse
 62
7
  6
CONTINUOUS
 10
316.145386165
 20
369.98013059
 30
0.0
 11
-0.0
 21
39.8299344251
 31
0.0
 40
0.9791630482
 41
-4.506907575
 42
-4.4976221478
  0
ELLIPSE
  5
843
100
AcDbEntity
  8
0
100
AcDbEllipse
 62
7
  6
CONTINUOUS
 10
316.145386165
 20
364.562227894
 30
0.0
 11
39.0
 21
-0.0
 31
0.0
 40
0.3404254913
 41
-2.9500060922
 42
-2.9361112482
  0
ELLIPSE
  5
844
100
AcDbEntity
  8
0
100
AcDbEllipse
 62
7
  6
CONTINUOUS
 10
316.145386165
 20
365.8778984542
 30
0.0
 11
0.0
 21
159.3179423394
 31
0.0
 40
0.2447935206
 41
-4.65303792
 42
-4.6484886475
  0
ELLIPSE
  5
845
100
AcDbEntity
  8
0
100
AcDbEllipse
 62
7
  6
CONTINUOUS
 10
316.145386165
 20
358.2477630131
 30
0.0
 11
0.0
 21
39.8298239575
 31
0.0
 40
0.9791657639
 41
-4.6484886475
 42
-4.6354266122
  0
ELLIPSE
  5
846
100
AcDbEntity
  8
0
100
AcDbEllipse
 62
7
  6
CONTINUOUS
 10
316.145386165
 20
359.1290339368
 30
0.0
 11
0.0
 21
39.8298204706
 31
0.0
 40
0.9791658496
 41
7.7770192658
 42
7.7900813011
  0
ELLIPSE
  5
847
100
AcDbEntity
  8
0
100
AcDbEllipse
 62
7
  6
CONTINUOUS
 10
316.145386165
 20
348.9555076917
 30
0.0
 11
-0.0
 21
199.1475046348
 31
0.0
 40
0.195834741
 41
1.5068959939
 42
1.5114452664
  0
ELLIPSE
  5
848
100
AcDbEntity
  8
0
100
AcDbEllipse
 62
7
  6
CONTINUOUS
 10
316.145386165
 20
379.1470492636
 30
0.0
 11
39.0
 21
0.0
 31
0.0
 40
0.6808509827
 41
-2.3288037503
 42
-2.308776354
  0
ELLIPSE
  5
849
100
AcDbEntity
  8
0
100
AcDbEllipse
 62
7
  6
CONTINUOUS
 10
316.145386165
 20
369.324638627
 30
0.0
 11
39.0
 21
-0.0
 31
0.0
 40
0.3404254913
 41
-2.308776354
 42
-2.2882977722
  0
ELLIPSE
  5
84A
100
AcDbEntity
  8
0
100
AcDbEllipse
 62
7
  6
CONTINUOUS
 10
316.145386165
 20
346.9182596992
 30
0.0
 11
0.0
 21
52.4255256653
 31
0.0
 40
0.7343750875
 41
1.3340456135
 42
1.3390411665
  0
ELLIPSE
  5
84B
100
AcDbEntity
  8
0
100
AcDbEllipse
 62
7
  6
CONTINUOUS
 10
316.145386165
 20
365.5403646957
 30
0.0
 11
39.0
 21
-0.0
 31
0.0
 40
0.2042556065
 41
-2.2458162851
 42
-2.2086134736
  0
ELLIPSE
  5
84C
100
AcDbEntity
  8
0
100
AcDbEllipse
 62
7
  6
CONTINUOUS
 10
316.145386165
 20
375.1400679501
 30
0.0
 11
39.0
 21
0.0
 31
0.0
 40
0.510637263
 41
-2.2086134736
 42
-2.1774509877
  0
ELLIPSE
  5
84D
100
AcDbEntity
  8
0
100
AcDbEllipse
 62
7
  6
CONTINUOUS
 10
316.145386165
 20
391.501499319
 30
0.0
 11
0.0
 21
39.8299344251
 31
0.0
 40
0.9791630482
 41
-3.7482473145
 42
-3.7156175703
  0
ELLIPSE
  5
84E
100
AcDbEntity
  8
0
100
AcDbEllipse
 62
7
  6
CONTINUOUS
 10
316.145386165
 20
424.9468368953
 30
0.0
 11
0.0
 21
79.6589851171
 31
0.0
 40
0.4895869555
 41
-3.7156175703
 42
-3.6986709647
  0
ELLIPSE
  5
84F
100
AcDbEntity
  8
0
100
AcDbEllipse
 62
7
  6
CONTINUOUS
 10
316.145386165
 20
288.8129501919
 30
0.0
 11
0.0
 21
79.6589711697
 31
0.0
 40
0.4895870412
 41
0.5570783111
 42
0.5740249168
  0
ELLIPSE
  5
850
100
AcDbEntity
  8
0
100
AcDbEllipse
 62
7
  6
CONTINUOUS
 10
316.145386165
 20
322.2582731282
 30
0.0
 11
-0.0
 21
39.829937912
 31
0.0
 40
0.9791629624
 41
0.5740249168
 42
0.6066546609
  0
ELLIPSE
  5
851
100
AcDbEntity
  8
0
100
AcDbEllipse
 62
7
  6
CONTINUOUS
 10
316.145386165
 20
338.6197052133
 30
0.0
 11
39.0
 21
-0.0
 31
0.0
 40
0.5106373301
 41
2.1774509877
 42
2.2086134736
  0
ELLIPSE
  5
852
100
AcDbEntity
  8
0
100
AcDbEllipse
 62
7
  6
CONTINUOUS
 10
316.145386165
 20
340.3516328588
 30
0.0
 11
38.5
 21
-0.0
 31
0.0
 40
0.2042554442
 41
-3.0525899042
 42
-3.0294747896
  0
ELLIPSE
  5
853
100
AcDbEntity
  8
0
100
AcDbEllipse
 62
7
  6
CONTINUOUS
 10
316.145386165
 20
341.9825826685
 30
0.0
 11
38.5
 21
0.0
 31
0.0
 40
0.6808509827
 41
-3.0664353288
 42
-3.0525899042
  0
ELLIPSE
  5
854
100
AcDbEntity
  8
0
100
AcDbEllipse
 62
7
  6
CONTINUOUS
 10
316.145386165
 20
348.8713621527
 30
0.0
 11
-0.0
 21
117.9572352987
 31
0.0
 40
0.3263894741
 41
-4.6418434683
 42
-4.6372316556
  0
ELLIPSE
  5
855
100
AcDbEntity
  8
0
100
AcDbEllipse
 62
7
  6
CONTINUOUS
 10
316.145386165
 20
348.2194100084
 30
0.0
 11
39.0
 21
-0.0
 31
0.0
 40
0.2042556244
 41
2.2086134736
 42
2.2458162851
  0
ELLIPSE
  5
856
100
AcDbEntity
  8
0
100
AcDbEllipse
 62
7
  6
CONTINUOUS
 10
316.145386165
 20
352.0692913218
 30
0.0
 11
0.0
 21
199.1485325841
 31
0.0
 40
0.1958337302
 41
1.4607882428
 42
1.4666981635
  0
ELLIPSE
  5
857
100
AcDbEntity
  8
0
100
AcDbEllipse
 62
7
  6
CONTINUOUS
 10
316.145386165
 20
364.4854112413
 30
0.0
 11
-0.0
 21
79.6596548888
 31
0.0
 40
0.4895828391
 41
1.4666981635
 42
1.4785072431
  0
ELLIPSE
  5
858
100
AcDbEntity
  8
0
100
AcDbEllipse
 62
7
  6
CONTINUOUS
 10
316.145386165
 20
368.1560592635
 30
0.0
 11
-0.0
 21
39.8297669805
 31
0.0
 40
0.9791671646
 41
1.4785072431
 42
1.5020884343
  0
ELLIPSE
  5
859
100
AcDbEntity
  8
0
100
AcDbEllipse
 62
7
  6
CONTINUOUS
 10
316.145386165
 20
441.3926363338
 30
0.0
 11
0.0
 21
119.4884358335
 31
0.0
 40
0.3263914179
 41
-3.925663275
 42
-3.9192124017
  0
ELLIPSE
  5
85A
100
AcDbEntity
  8
0
100
AcDbEllipse
 62
7
  6
CONTINUOUS
 10
316.145386165
 20
384.6290412581
 30
0.0
 11
-0.0
 21
39.8297917843
 31
0.0
 40
0.9791665548
 41
-3.9192124017
 42
-3.8996000771
  0
ELLIPSE
  5
85B
100
AcDbEntity
  8
0
100
AcDbEllipse
 62
7
  6
CONTINUOUS
 10
316.145386165
 20
362.9355530034
 30
0.0
 11
39.0
 21
-0.0
 31
0.0
 40
0.2553200925
 41
-2.3288037503
 42
-2.3020023154
  0
ELLIPSE
  5
85C
100
AcDbEntity
  8
0
100
AcDbEllipse
 62
7
  6
CONTINUOUS
 10
316.145386165
 20
369.523292551
 30
0.0
 11
39.0
 21
-0.0
 31
0.0
 40
0.5106380606
 41
3.0728847611
 42
3.0964277386
  0
ELLIPSE
  5
85D
100
AcDbEntity
  8
0
100
AcDbEllipse
 62
7
  6
CONTINUOUS
 10
316.145386165
 20
370.0627812351
 30
0.0
 11
39.0
 21
0.0
 31
0.0
 40
0.2042553906
 41
3.0964277386
 42
3.1258227692
  0
ELLIPSE
  5
85E
100
AcDbEntity
  8
0
100
AcDbEllipse
 62
7
  6
CONTINUOUS
 10
316.145386165
 20
387.4705318717
 30
0.0
 11
39.0
 21
0.0
 31
0.0
 40
0.510638724
 41
-2.8082527799
 42
-2.7832687048
  0
ELLIPSE
  5
85F
100
AcDbEntity
  8
0
100
AcDbEllipse
 62
7
  6
CONTINUOUS
 10
316.145386165
 20
394.454793019
 30
0.0
 11
-0.0
 21
39.8298204706
 31
0.0
 40
0.9791658496
 41
-4.3540650316
 42
-4.3288449171
  0
ELLIPSE
  5
860
100
AcDbEntity
  8
0
100
AcDbEllipse
 62
7
  6
CONTINUOUS
 10
316.145386165
 20
409.3594001295
 30
0.0
 11
0.0
 21
79.6594130337
 31
0.0
 40
0.4895843255
 41
-4.3288449171
 42
-4.3161390835
  0
ELLIPSE
  5
861
100
AcDbEntity
  8
0
100
AcDbEllipse
 62
7
  6
CONTINUOUS
 10
316.145386165
 20
361.0366098156
 30
0.0
 11
38.5
 21
0.0
 31
0.0
 40
0.2553200925
 41
3.7149514162
 42
3.7342791166
  0
ELLIPSE
  5
862
100
AcDbEntity
  8
0
100
AcDbEllipse
 62
7
  6
CONTINUOUS
 10
316.145386165
 20
369.9236507071
 30
0.0
 11
38.5
 21
-0.0
 31
0.0
 40
0.6808512211
 41
-2.5845738071
 42
-2.568233891
  0
ELLIPSE
  5
863
100
AcDbEntity
  8
0
100
AcDbEllipse
 62
7
  6
CONTINUOUS
 10
316.145386165
 20
387.2453928755
 30
0.0
 11
0.0
 21
58.978266405
 31
0.0
 40
0.6527828359
 41
-4.1661714618
 42
-4.1553701339
  0
ELLIPSE
  5
864
100
AcDbEntity
  8
0
100
AcDbEllipse
 62
7
  6
CONTINUOUS
 10
316.145386165
 20
369.1212155081
 30
0.0
 11
39.0
 21
-0.0
 31
0.0
 40
0.2042556065
 41
-2.253049691
 42
-2.2162003511
  0
ELLIPSE
  5
865
100
AcDbEntity
  8
0
100
AcDbEllipse
 62
7
  6
CONTINUOUS
 10
316.145386165
 20
386.6212212663
 30
0.0
 11
39.0
 21
-0.0
 31
0.0
 40
0.7659558946
 41
-2.2162003511
 42
-2.1853701991
  0
ELLIPSE
  5
866
100
AcDbEntity
  8
0
100
AcDbEllipse
 62
7
  6
CONTINUOUS
 10
316.145386165
 20
405.6039251291
 30
0.0
 11
0.0
 21
53.1063766479
 31
0.0
 40
0.7343750875
 41
-3.7561665258
 42
-3.7321310325
  0
ELLIPSE
  5
867
100
AcDbEntity
  8
0
100
AcDbEllipse
 62
7
  6
CONTINUOUS
 10
316.145386165
 20
438.3085658491
 30
0.0
 11
-0.0
 21
157.2789768826
 31
0.0
 40
0.2447879606
 41
-4.1715454145
 42
-4.1661714618
  0
ELLIPSE
  5
868
100
AcDbEntity
  8
0
100
AcDbEllipse
 62
7
  6
CONTINUOUS
 10
316.145386165
 20
460.7435868551
 30
0.0
 11
-0.0
 21
119.4884358335
 31
0.0
 40
0.3263914179
 41
-3.7321310325
 42
-3.7239259741
  0
ELLIPSE
  5
869
100
AcDbEntity
  8
0
100
AcDbEllipse
 62
7
  6
CONTINUOUS
 10
316.145386165
 20
228.9861943214
 30
0.0
 11
0.0
 21
199.1473930558
 31
0.0
 40
0.1958348508
 41
0.8704578517
 42
0.8763814844
  0
ELLIPSE
  5
86A
100
AcDbEntity
  8
0
100
AcDbEllipse
 62
7
  6
CONTINUOUS
 10
316.145386165
 20
305.4505414308
 30
0.0
 11
0.0
 21
79.6598827977
 31
0.0
 40
0.4895814384
 41
0.8763814844
 42
0.888142004
  0
ELLIPSE
  5
86B
100
AcDbEntity
  8
0
100
AcDbEllipse
 62
7
  6
CONTINUOUS
 10
316.145386165
 20
330.5775945536
 30
0.0
 11
-0.0
 21
39.8297100037
 31
0.0
 40
0.9791685653
 41
0.888142004
 42
0.9113336179
  0
ELLIPSE
  5
86C
100
AcDbEntity
  8
0
100
AcDbEllipse
 62
7
  6
CONTINUOUS
 10
316.145386165
 20
342.7792724879
 30
0.0
 11
39.0
 21
0.0
 31
0.0
 40
0.5106373301
 41
2.4821299447
 42
2.5049118044
  0
ELLIPSE
  5
86D
100
AcDbEntity
  8
0
100
AcDbEllipse
 62
7
  6
CONTINUOUS
 10
316.145386165
 20
349.8832425578
 30
0.0
 11
39.0
 21
0.0
 31
0.0
 40
0.2042556244
 41
2.5049118044
 42
2.5328615838
  0
ELLIPSE
  5
86E
100
AcDbEntity
  8
0
100
AcDbEllipse
 62
7
  6
CONTINUOUS
 10
316.145386165
 20
348.8713621527
 30
0.0
 11
-0.0
 21
119.4891474454
 31
0.0
 40
0.3263894741
 41
-4.6427493725
 42
-4.6381969945
  0
ELLIPSE
  5
86F
100
AcDbEntity
  8
0
100
AcDbEllipse
 62
7
  6
CONTINUOUS
 10
316.145386165
 20
341.9825826685
 30
0.0
 11
39.0
 21
0.0
 31
0.0
 40
0.6808509827
 41
-3.0674006677
 42
-3.0537339295
  0
ELLIPSE
  5
870
100
AcDbEntity
  8
0
100
AcDbEllipse
 62
7
  6
CONTINUOUS
 10
316.145386165
 20
349.8832425578
 30
0.0
 11
38.5
 21
0.0
 31
0.0
 40
0.2042556244
 41
2.4952747568
 42
2.5237803571
  0
ELLIPSE
  5
871
100
AcDbEntity
  8
0
100
AcDbEllipse
 62
7
  6
CONTINUOUS
 10
316.145386165
 20
342.7792724879
 30
0.0
 11
38.5
 21
0.0
 31
0.0
 40
0.5106373301
 41
2.4720220614
 42
2.4952747568
  0
ELLIPSE
  5
872
100
AcDbEntity
  8
0
100
AcDbEllipse
 62
7
  6
CONTINUOUS
 10
316.145386165
 20
367.8159746535
 30
0.0
 11
38.5
 21
0.0
 31
0.0
 40
0.2042551568
 41
2.8037523637
 42
2.8351296743
  0
ELLIPSE
  5
873
100
AcDbEntity
  8
0
100
AcDbEllipse
 62
7
  6
CONTINUOUS
 10
316.145386165
 20
363.9062638937
 30
0.0
 11
38.5
 21
0.0
 31
0.0
 40
0.510638791
 41
2.7784007349
 42
2.8037523637
  0
ELLIPSE
  5
874
100
AcDbEntity
  8
0
100
AcDbEllipse
 62
7
  6
CONTINUOUS
 10
316.145386165
 20
356.9220024407
 30
0.0
 11
-0.0
 21
39.3191851888
 31
0.0
 40
0.9791657639
 41
1.1820060629
 42
1.2076044081
  0
ELLIPSE
  5
875
100
AcDbEntity
  8
0
100
AcDbEllipse
 62
7
  6
CONTINUOUS
 10
316.145386165
 20
342.0173914157
 30
0.0
 11
0.0
 21
78.6381522762
 31
0.0
 40
0.4895842398
 41
1.1691067099
 42
1.1820060629
  0
ELLIPSE
  5
876
100
AcDbEntity
  8
0
100
AcDbEllipse
 62
7
  6
CONTINUOUS
 10
316.145386165
 20
295.8987525687
 30
0.0
 11
0.0
 21
196.5964712008
 31
0.0
 40
0.1958326096
 41
1.1626306261
 42
1.1691067099
  0
ELLIPSE
  5
877
100
AcDbEntity
  8
0
100
AcDbEllipse
 62
7
  6
CONTINUOUS
 10
316.145386165
 20
455.4780874255
 30
0.0
 11
-0.0
 21
196.5965813506
 31
0.0
 40
0.1958324999
 41
-4.3106993634
 42
-4.3042232797
  0
ELLIPSE
  5
878
100
AcDbEntity
  8
0
100
AcDbEllipse
 62
7
  6
CONTINUOUS
 10
316.145386165
 20
409.3594001295
 30
0.0
 11
0.0
 21
78.6381385076
 31
0.0
 40
0.4895843255
 41
-4.3235987164
 42
-4.3106993634
  0
ELLIPSE
  5
879
100
AcDbEntity
  8
0
100
AcDbEllipse
 62
7
  6
CONTINUOUS
 10
316.145386165
 20
394.454793019
 30
0.0
 11
0.0
 21
39.3191817467
 31
0.0
 40
0.9791658496
 41
-4.3491970617
 42
-4.3235987164
  0
ELLIPSE
  5
87A
100
AcDbEntity
  8
0
100
AcDbEllipse
 62
7
  6
CONTINUOUS
 10
316.145386165
 20
387.4705318717
 30
0.0
 11
38.5
 21
0.0
 31
0.0
 40
0.510638724
 41
-2.8037523637
 42
-2.7784007349
  0
ELLIPSE
  5
87B
100
AcDbEntity
  8
0
100
AcDbEllipse
 62
7
  6
CONTINUOUS
 10
316.145386165
 20
383.5608217394
 30
0.0
 11
38.5
 21
-0.0
 31
0.0
 40
0.204255139
 41
-2.8351296743
 42
-2.8037523637
  0
ELLIPSE
  5
87C
100
AcDbEntity
  8
0
100
AcDbEllipse
 62
7
  6
CONTINUOUS
 10
316.145386165
 20
438.3085658491
 30
0.0
 11
0.0
 21
159.3215609979
 31
0.0
 40
0.2447879606
 41
-4.1792274724
 42
-4.1739469191
  0
ELLIPSE
  5
87D
100
AcDbEntity
  8
0
100
AcDbEllipse
 62
7
  6
CONTINUOUS
 10
316.145386165
 20
387.2453928755
 30
0.0
 11
0.0
 21
59.7442179167
 31
0.0
 40
0.6527828359
 41
-4.1739469191
 42
-4.1633351333
  0
ELLIPSE
  5
87E
100
AcDbEntity
  8
0
100
AcDbEllipse
 62
7
  6
CONTINUOUS
 10
316.145386165
 20
369.9236507071
 30
0.0
 11
39.0
 21
0.0
 31
0.0
 40
0.6808512211
 41
-2.5925388065
 42
-2.5764904048
  0
ELLIPSE
  5
87F
100
AcDbEntity
  8
0
100
AcDbEllipse
 62
7
  6
CONTINUOUS
 10
316.145386165
 20
361.0366098156
 30
0.0
 11
39.0
 21
0.0
 31
0.0
 40
0.2553200925
 41
-2.5764904048
 42
-2.5548342919
  0
ELLIPSE
  5
880
100
AcDbEntity
  8
0
100
AcDbEllipse
 62
7
  6
CONTINUOUS
 10
316.145386165
 20
330.5775945536
 30
0.0
 11
0.0
 21
39.319072696
 31
0.0
 40
0.9791685653
 41
0.877536851
 42
0.9012257346
  0
ELLIPSE
  5
881
100
AcDbEntity
  8
0
100
AcDbEllipse
 62
7
  6
CONTINUOUS
 10
316.145386165
 20
305.4505414308
 30
0.0
 11
-0.0
 21
78.6386022491
 31
0.0
 40
0.4895814384
 41
0.8655167236
 42
0.877536851
  0
ELLIPSE
  5
882
100
AcDbEntity
  8
0
100
AcDbEllipse
 62
7
  6
CONTINUOUS
 10
316.145386165
 20
228.9861943214
 30
0.0
 11
0.0
 21
196.5942213499
 31
0.0
 40
0.1958348508
 41
0.8594603334
 42
0.8655167236
  0
ELLIPSE
  5
883
100
AcDbEntity
  8
0
100
AcDbEllipse
 62
7
  6
CONTINUOUS
 10
316.145386165
 20
460.7435868551
 30
0.0
 11
0.0
 21
117.95653281
 31
0.0
 40
0.3263914179
 41
-3.7124674749
 42
-3.703898223
  0
ELLIPSE
  5
884
100
AcDbEntity
  8
0
100
AcDbEllipse
 62
7
  6
CONTINUOUS
 10
316.145386165
 20
405.6039251291
 30
0.0
 11
0.0
 21
52.4255256653
 31
0.0
 40
0.7343750875
 41
-3.7375173042
 42
-3.7124674749
  0
ELLIPSE
  5
885
100
AcDbEntity
  8
0
100
AcDbEllipse
 62
7
  6
CONTINUOUS
 10
316.145386165
 20
386.6212212663
 30
0.0
 11
38.5
 21
0.0
 31
0.0
 40
0.7659558946
 41
-2.1987497136
 42
-2.1667209774
  0
ELLIPSE
  5
886
100
AcDbEntity
  8
0
100
AcDbEllipse
 62
7
  6
CONTINUOUS
 10
316.145386165
 20
369.1212155081
 30
0.0
 11
38.5
 21
0.0
 31
0.0
 40
0.2042556065
 41
-2.2369024406
 42
-2.1987497136
  0
ELLIPSE
  5
887
100
AcDbEntity
  8
0
100
AcDbEllipse
 62
7
  6
CONTINUOUS
 10
316.145386165
 20
340.3516328588
 30
0.0
 11
39.0
 21
0.0
 31
0.0
 40
0.2042554442
 41
-3.0537339295
 42
-3.0309181347
  0
ELLIPSE
  5
888
100
AcDbEntity
  8
0
100
AcDbEllipse
 62
7
  6
CONTINUOUS
 10
316.145386165
 20
455.4780874255
 30
0.0
 11
0.0
 21
199.1497837058
 31
0.0
 40
0.1958324999
 41
-4.3161390835
 42
-4.3097609354
  0
ELLIPSE
  5
889
100
AcDbEntity
  8
0
100
AcDbEllipse
 62
7
  6
CONTINUOUS
 10
316.145386165
 20
295.8987525687
 30
0.0
 11
0.0
 21
199.1496721255
 31
0.0
 40
0.1958326096
 41
1.1681682819
 42
1.1745464299
  0
ELLIPSE
  5
88A
100
AcDbEntity
  8
0
100
AcDbEllipse
 62
7
  6
CONTINUOUS
 10
316.145386165
 20
342.0173914157
 30
0.0
 11
0.0
 21
79.6594269811
 31
0.0
 40
0.4895842398
 41
1.1745464299
 42
1.1872522635
  0
ELLIPSE
  5
88B
100
AcDbEntity
  8
0
100
AcDbEllipse
 62
7
  6
CONTINUOUS
 10
316.145386165
 20
362.9355530034
 30
0.0
 11
38.5
 21
-0.0
 31
0.0
 40
0.2553200925
 41
3.9682015563
 42
3.995779045
  0
ELLIPSE
  5
88C
100
AcDbEntity
  8
0
100
AcDbEllipse
 62
7
  6
CONTINUOUS
 10
316.145386165
 20
384.6290412581
 30
0.0
 11
0.0
 21
39.3191534281
 31
0.0
 40
0.9791665548
 41
-3.9059318051
 42
-3.8857800776
  0
ELLIPSE
  5
88D
100
AcDbEntity
  8
0
100
AcDbEllipse
 62
7
  6
CONTINUOUS
 10
316.145386165
 20
441.3926363338
 30
0.0
 11
0.0
 21
117.95653281
 31
0.0
 40
0.3263914179
 41
-3.9125552214
 42
-3.9059318051
  0
ELLIPSE
  5
88E
100
AcDbEntity
  8
0
100
AcDbEllipse
 62
7
  6
CONTINUOUS
 10
316.145386165
 20
356.9220024407
 30
0.0
 11
0.0
 21
39.8298239575
 31
0.0
 40
0.9791657639
 41
1.1872522635
 42
1.212472378
  0
ELLIPSE
  5
88F
100
AcDbEntity
  8
0
100
AcDbEllipse
 62
7
  6
CONTINUOUS
 10
316.145386165
 20
330.9624546531
 30
0.0
 11
0.0
 21
119.4884358335
 31
0.0
 40
0.3263914179
 41
1.3233758095
 42
1.3280563099
  0
ELLIPSE
  5
890
100
AcDbEntity
  8
0
100
AcDbEllipse
 62
7
  6
CONTINUOUS
 10
316.145386165
 20
348.2194100084
 30
0.0
 11
38.5
 21
0.0
 31
0.0
 40
0.2042556244
 41
2.1908777076
 42
2.2294232085
  0
ELLIPSE
  5
891
100
AcDbEntity
  8
0
100
AcDbEllipse
 62
7
  6
CONTINUOUS
 10
316.145386165
 20
346.9182596992
 30
0.0
 11
0.0
 21
53.1063766479
 31
0.0
 40
0.7343750875
 41
1.3280563099
 42
1.3420656752
  0
ELLIPSE
  5
892
100
AcDbEntity
  8
0
100
AcDbEllipse
 62
7
  6
CONTINUOUS
 10
316.145386165
 20
338.6197052133
 30
0.0
 11
38.5
 21
0.0
 31
0.0
 40
0.5106373301
 41
2.1584758343
 42
2.1908777076
  0
ELLIPSE
  5
893
100
AcDbEntity
  8
0
100
AcDbEllipse
 62
7
  6
CONTINUOUS
 10
316.145386165
 20
352.1863529955
 30
0.0
 11
39.0
 21
-0.0
 31
0.0
 40
0.7659602774
 41
2.912862002
 42
2.93147078
  0
ELLIPSE
  5
894
100
AcDbEntity
  8
0
100
AcDbEllipse
 62
7
  6
CONTINUOUS
 10
316.145386165
 20
322.2582731282
 30
0.0
 11
0.0
 21
39.3192976823
 31
0.0
 40
0.9791629624
 41
0.5536183681
 42
0.5876795075
  0
ELLIPSE
  5
895
100
AcDbEntity
  8
0
100
AcDbEllipse
 62
7
  6
CONTINUOUS
 10
316.145386165
 20
288.8129501919
 30
0.0
 11
-0.0
 21
78.6377023085
 31
0.0
 40
0.4895870412
 41
0.5358658227
 42
0.5536183681
  0
ELLIPSE
  5
896
100
AcDbEntity
  8
0
100
AcDbEllipse
 62
7
  6
CONTINUOUS
 10
316.145386165
 20
424.9468368953
 30
0.0
 11
0.0
 21
78.6377160771
 31
0.0
 40
0.4895869555
 41
-3.6952110217
 42
-3.6774584763
  0
ELLIPSE
  5
897
100
AcDbEntity
  8
0
100
AcDbEllipse
 62
7
  6
CONTINUOUS
 10
316.145386165
 20
391.501499319
 30
0.0
 11
-0.0
 21
39.3192942402
 31
0.0
 40
0.9791630482
 41
-3.7292721611
 42
-3.6952110217
  0
ELLIPSE
  5
898
100
AcDbEntity
  8
0
100
AcDbEllipse
 62
7
  6
CONTINUOUS
 10
316.145386165
 20
356.7555948147
 30
0.0
 11
39.0
 21
-0.0
 31
0.0
 40
0.2042546715
 41
2.93147078
 42
2.9546292954
  0
ELLIPSE
  5
899
100
AcDbEntity
  8
0
100
AcDbEllipse
 62
7
  6
CONTINUOUS
 10
316.145386165
 20
375.1400679501
 30
0.0
 11
38.5
 21
0.0
 31
0.0
 40
0.510637263
 41
-2.1908777076
 42
-2.1584758343
  0
ELLIPSE
  5
89A
100
AcDbEntity
  8
0
100
AcDbEllipse
 62
7
  6
CONTINUOUS
 10
316.145386165
 20
365.5403646957
 30
0.0
 11
38.5
 21
-0.0
 31
0.0
 40
0.2042556065
 41
-2.2294232085
 42
-2.1908777076
  0
ELLIPSE
  5
89B
100
AcDbEntity
  8
0
100
AcDbEllipse
 62
7
  6
CONTINUOUS
 10
316.145386165
 20
363.9062638937
 30
0.0
 11
39.0
 21
0.0
 31
0.0
 40
0.510638791
 41
2.7832687048
 42
2.8082527799
  0
ELLIPSE
  5
89C
100
AcDbEntity
  8
0
100
AcDbEllipse
 62
7
  6
CONTINUOUS
 10
316.145386165
 20
369.324638627
 30
0.0
 11
38.5
 21
0.0
 31
0.0
 40
0.3404254913
 41
3.9888043664
 42
4.0098993673
  0
ELLIPSE
  5
89D
100
AcDbEntity
  8
0
100
AcDbEllipse
 62
7
  6
CONTINUOUS
 10
316.145386165
 20
379.1470492636
 30
0.0
 11
38.5
 21
0.0
 31
0.0
 40
0.6808509827
 41
-2.3149837508
 42
-2.2943809408
  0
ELLIPSE
  5
89E
100
AcDbEntity
  8
0
100
AcDbEllipse
 62
7
  6
CONTINUOUS
 10
316.145386165
 20
446.637304395
 30
0.0
 11
-0.0
 21
117.95653281
 31
0.0
 40
0.3263914179
 41
-3.8925456154
 42
-3.8857800776
  0
ELLIPSE
  5
89F
100
AcDbEntity
  8
0
100
AcDbEllipse
 62
7
  6
CONTINUOUS
 10
316.145386165
 20
274.5372835704
 30
0.0
 11
-0.0
 21
117.9566429585
 31
0.0
 40
0.3263911132
 41
0.744187424
 42
0.7509529618
  0
ELLIPSE
  5
8A0
100
AcDbEntity
  8
0
100
AcDbEllipse
 62
7
  6
CONTINUOUS
 10
316.145386165
 20
364.4190741802
 30
0.0
 11
39.0
 21
-0.0
 31
0.0
 40
0.2042546715
 41
-2.9546292954
 42
-2.93147078
  0
ELLIPSE
  5
8A1
100
AcDbEntity
  8
0
100
AcDbEllipse
 62
7
  6
CONTINUOUS
 10
316.145386165
 20
368.9883159995
 30
0.0
 11
39.0
 21
0.0
 31
0.0
 40
0.7659602774
 41
-2.93147078
 42
-2.912862002
  0
ELLIPSE
  5
8A2
100
AcDbEntity
  8
0
100
AcDbEllipse
 62
7
  6
CONTINUOUS
 10
316.145386165
 20
342.0276197314
 30
0.0
 11
38.5
 21
-0.0
 31
0.0
 40
0.6808509827
 41
2.2943809408
 42
2.3149837508
  0
ELLIPSE
  5
8A3
100
AcDbEntity
  8
0
100
AcDbEllipse
 62
7
  6
CONTINUOUS
 10
316.145386165
 20
351.8500303679
 30
0.0
 11
38.5
 21
-0.0
 31
0.0
 40
0.3404254913
 41
2.2732859399
 42
2.2943809408
  0
ELLIPSE
  5
8A4
100
AcDbEntity
  8
0
100
AcDbEllipse
 62
7
  6
CONTINUOUS
 10
316.145386165
 20
374.2564092958
 30
0.0
 11
-0.0
 21
53.1063766479
 31
0.0
 40
0.7343750875
 41
-4.4836583288
 42
-4.4696489635
  0
ELLIPSE
  5
8A5
100
AcDbEntity
  8
0
100
AcDbEllipse
 62
7
  6
CONTINUOUS
 10
316.145386165
 20
367.8159746535
 30
0.0
 11
39.0
 21
-0.0
 31
0.0
 40
0.2042551568
 41
2.8082527799
 42
2.8391839047
  0
ELLIPSE
  5
8A6
100
AcDbEntity
  8
0
100
AcDbEllipse
 62
7
  6
CONTINUOUS
 10
316.145386165
 20
390.2122143418
 30
0.0
 11
0.0
 21
119.4884358335
 31
0.0
 40
0.3263914179
 41
-4.4696489635
 42
-4.464968463
  0
ELLIPSE
  5
8A7
100
AcDbEntity
  8
0
100
AcDbEllipse
 62
7
  6
CONTINUOUS
 10
316.145386165
 20
374.2564092958
 30
0.0
 11
0.0
 21
52.4255256653
 31
0.0
 40
0.7343750875
 41
-4.4806338201
 42
-4.4756382671
  0
ELLIPSE
  5
8A8
100
AcDbEntity
  8
0
100
AcDbEllipse
 62
7
  6
CONTINUOUS
 10
316.145386165
 20
368.9883159995
 30
0.0
 11
38.5
 21
-0.0
 31
0.0
 40
0.7659602774
 41
-2.9287002195
 42
-2.9098374933
  0
ELLIPSE
  5
8A9
100
AcDbEntity
  8
0
100
AcDbEllipse
 62
7
  6
CONTINUOUS
 10
316.145386165
 20
364.4190741802
 30
0.0
 11
38.5
 21
-0.0
 31
0.0
 40
0.2042546715
 41
-2.9521719333
 42
-2.9287002195
  0
ELLIPSE
  5
8AA
100
AcDbEntity
  8
0
100
AcDbEllipse
 62
7
  6
CONTINUOUS
 10
316.145386165
 20
383.5608217394
 30
0.0
 11
39.0
 21
-0.0
 31
0.0
 40
0.204255139
 41
-2.8391839047
 42
-2.8082527799
  0
ELLIPSE
  5
8AB
100
AcDbEntity
  8
0
100
AcDbEllipse
 62
7
  6
CONTINUOUS
 10
316.145386165
 20
356.7555948147
 30
0.0
 11
38.5
 21
-0.0
 31
0.0
 40
0.2042546715
 41
2.9287002195
 42
2.9521719333
  0
ELLIPSE
  5
8AC
100
AcDbEntity
  8
0
100
AcDbEllipse
 62
7
  6
CONTINUOUS
 10
316.145386165
 20
352.1863529955
 30
0.0
 11
38.5
 21
0.0
 31
0.0
 40
0.7659602774
 41
2.9098374933
 42
2.9287002195
  0
ELLIPSE
  5
8AD
100
AcDbEntity
  8
0
100
AcDbEllipse
 62
7
  6
CONTINUOUS
 10
316.145386165
 20
351.8500303679
 30
0.0
 11
39.0
 21
0.0
 31
0.0
 40
0.3404254913
 41
2.2882977722
 42
2.308776354
  0
ELLIPSE
  5
8AE
100
AcDbEntity
  8
0
100
AcDbEllipse
 62
7
  6
CONTINUOUS
 10
316.145386165
 20
342.0276197314
 30
0.0
 11
39.0
 21
-0.0
 31
0.0
 40
0.6808509827
 41
2.308776354
 42
2.3288037503
  0
ELLIPSE
  5
8AF
100
AcDbEntity
  8
0
100
AcDbEllipse
 62
7
  6
CONTINUOUS
 10
316.145386165
 20
274.5372835704
 30
0.0
 11
0.0
 21
119.4885474125
 31
0.0
 40
0.3263911132
 41
0.7580074235
 42
0.7645893793
  0
ELLIPSE
  5
8B0
100
AcDbEntity
  8
0
100
AcDbEllipse
 62
7
  6
CONTINUOUS
 10
316.145386165
 20
446.637304395
 30
0.0
 11
-0.0
 21
119.4884358335
 31
0.0
 40
0.3263914179
 41
-3.9061820329
 42
-3.8996000771
  0
ENDSEC
  0
SECTION
  2
OBJECTS
  0
DICTIONARY
  5
C
100
AcDbDictionary
280
0
281
1
  3
ACAD_GROUP
350
D
  3
ACAD_MLINESTYLE
350
17
  3
ACAD_LAYOUT
350
1A
  3
ACAD_PLOTSETTINGS
350
19
  3
ACAD_PLOTSTYLENAME
350
E
  0
DICTIONARY
  5
D
102
{ACAD_REACTORS
330
C
102
}
100
AcDbDictionary
280
0
281
1
  0
ACDBDICTIONARYWDFLT
  5
E
102
{ACAD_REACTORS
330
C
102
}
100
AcDbDictionary
281
1
  3
Normal
350
F
100
AcDbDictionaryWithDefault
340
F
  0
DICTIONARY
  5
17
102
{ACAD_REACTORS
330
C
102
}
100
AcDbDictionary
280
0
281
1
  3
Standard
350
18
  0
DICTIONARY
  5
19
102
{ACAD_REACTORS
330
C
102
}
100
AcDbDictionary
281
1
  0
DICTIONARY
  5
1A
102
{ACAD_REACTORS
330
C
102
}
100
AcDbDictionary
281
1
  3
Model
350
8B1
  3
Layout1
350
8B2
  0
ACDBPLACEHOLDER
  5
F
102
{ACAD_REACTORS
330
E
102
}
  0
MLINESTYLE
  5
18
102
{ACAD_REACTORS
330
17
102
}
100
AcDbMlineStyle
  2
STANDARD
 70
0
  3

 62
256
 51
90.0
 52
90.0
 71
2
 49
0.5
 62
256
  6
BYLAYER
 49
-0.5
 62
256
  6
BYLAYER
  0
LAYOUT
  5
8B1
102
{ACAD_REACTORS
330
1A
102
}
100
AcDbPlotSettings
  1

  2
none_device
  4
ISO_A1_(594.00_x_841.00_MM)
  6

 40
0.0
 41
0.0
 42
0.0
 43
0.0
 44
841.0
 45
594.0
 46
0.0
 47
0.0
 48
0.0
 49
0.0
140
0.0
141
0.0
142
1.0
143
1.0
 70
1024
 72
1
 73
0
 74
0
  7

 75
0
147
1.0
148
0.0
149
0.0
100
AcDbLayout
  1
Model
 70
0
 71
0
 10
0.0
 20
0.0
 11
841.0
 21
594.0
 12
0.0
 22
0.0
 32
0.0
 14
0.0
 24
0.0
 34
0.0
 15
0.0
 25
0.0
 35
0.0
146
0.0
 13
0.0
 23
0.0
 33
0.0
 16
1.0
 26
0.0
 36
0.0
 17
0.0
 27
1.0
 37
0.0
 76
0
330
20E
345
0
346
0
  0
LAYOUT
  5
8B2
102
{ACAD_REACTORS
330
1A
102
}
100
AcDbPlotSettings
  1

  2
none_device
  4
ISO_A1_(594.00_x_841.00_MM)
  6

 40
0.0
 41
0.0
 42
0.0
 43
0.0
 44
841.0
 45
594.0
 46
0.0
 47
0.0
 48
0.0
 49
0.0
140
0.0
141
0.0
142
1.0
143
1.0
 70
0
 72
1
 73
0
 74
0
  7

 75
0
147
1.0
148
0.0
149
0.0
100
AcDbLayout
  1
Layout1
 70
0
 71
1
 10
0.0
 20
0.0
 11
841.0
 21
594.0
 12
0.0
 22
0.0
 32
0.0
 14
0.0
 24
0.0
 34
0.0
 15
0.0
 25
0.0
 35
0.0
146
0.0
 13
0.0
 23
0.0
 33
0.0
 16
1.0
 26
0.0
 36
0.0
 17
0.0
 27
1.0
 37
0.0
 76
0
330
20F
345
0
346
0
  0
ENDSEC
  0
EOF
