999
DXF file: 001-m35416-p-1.dxf
999
Pro/ENGINEER 2011490 by Parametric Technology Corporation
  0
SECTION
  2
HEADER
  9
$ACADVER
  1
AC1015
  9
$DWGCODEPAGE
  3
ANSI_1252
  9
$EXTMAX
 10
594.0
 20
420.0
 30
0.0
  9
$EXTMIN
 10
0.0
 20
0.0
 30
0.0
  9
$LIMMIN
 10
0.0
 20
0.0
  9
$LIMMAX
 10
594.0
 20
420.0
  9
$VIEWCTR
 10
297.0
 20
210.0
  9
$VIEWSIZE
 40
420.0
  9
$CLAYER
  8
0
  9
$LTSCALE
 40
32.67
  9
$CELTYPE
  6
BYLAYER
  9
$DIMSCALE
 40
1.0
  9
$DIMASZ
 40
3.5
  9
$DIMEXO
 40
3.7125
  9
$DIMDLI
 40
22.572
  9
$DIMEXE
 40
10.692
  9
$DIMCEN
 40
5.346
  9
$DIMLFAC
 40
1.0
  9
$DIMBLK
  1
_FILLED
  9
$DIMTXT
 40
3.5
  9
$DIMTOL
 70
1
  9
$DIMLIM
 70
0
  9
$DIMTFAC
 40
1.0
  9
$DIMTP
 40
0.005
  9
$DIMTM
 40
0.005
  9
$PDMODE
 70
3
  9
$PDSIZE
 40
0.3125
  9
$HANDSEED
  5
7F7
  9
$TILEMODE
 70
1
  9
$MEASUREMENT
 70
1
  9
$INSUNITS
 70
4
  0
ENDSEC
  0
SECTION
  2
CLASSES
  0
CLASS
  1
ACDBDICTIONARYWDFLT
  2
AcDbDictionaryWithDefault
  3
AutoCAD 2000
 90
0
280
0
281
0
  0
CLASS
  1
ACDBPLACEHOLDER
  2
AcDbPlaceHolder
  3
AutoCAD 2000
 90
0
280
0
281
0
  0
CLASS
  1
LAYOUT
  2
AcDbLayout
  3
AutoCAD 2000
 90
0
280
0
281
0
  0
ENDSEC
  0
SECTION
  2
TABLES
  0
TABLE
  2
VPORT
  5
8
100
AcDbSymbolTable
 70
2
  0
VPORT
  5
1F4
100
AcDbSymbolTableRecord
100
AcDbViewportTableRecord
  2
*ACTIVE
 70
0
 10
0.0
 20
0.0
 11
1.0
 21
1.0
 12
297.0
 22
210.0
 13
0.0
 23
0.0
 14
1.0
 24
1.0
 15
0.0
 25
0.0
 16
0.0
 26
0.0
 36
1.0
 17
0.0
 27
0.0
 37
0.0
 40
420.0
 41
1.4142857143
 42
50.0
 43
0.0
 44
0.0
 50
0.0
 51
0.0
 71
0
 72
100
 73
1
 74
1
 75
0
 76
0
 77
0
 78
0
  0
ENDTAB
  0
TABLE
  2
LTYPE
  5
5
100
AcDbSymbolTable
 70
6
  0
LTYPE
  5
14
100
AcDbSymbolTableRecord
100
AcDbLinetypeTableRecord
  2
BYBLOCK
 70
0
  3

 72
65
 73
0
 40
0.0
  0
LTYPE
  5
15
100
AcDbSymbolTableRecord
100
AcDbLinetypeTableRecord
  2
BYLAYER
 70
0
  3

 72
65
 73
0
 40
0.0
  0
LTYPE
  5
16
100
AcDbSymbolTableRecord
100
AcDbLinetypeTableRecord
  2
CONTINUOUS
 70
64
  3
Solid line
 72
65
 73
0
 40
0.0
  0
LTYPE
  5
1F5
100
AcDbSymbolTableRecord
100
AcDbLinetypeTableRecord
  2
CENTER
 70
64
  3
____ _ ____ _ ____ _ ____ _ ____ _ ____ _ ____
 72
65
 73
4
 40
0.6
 49
0.375
 74
0
 49
-0.075
 74
0
 49
0.075
 74
0
 49
-0.075
 74
0
  0
LTYPE
  5
1F6
100
AcDbSymbolTableRecord
100
AcDbLinetypeTableRecord
  2
HIDDEN
 70
64
  3
- - - - - - - - - - - - - - - - - - - -
 72
65
 73
2
 40
0.2
 49
0.1
 74
0
 49
-0.1
 74
0
  0
LTYPE
  5
1F7
100
AcDbSymbolTableRecord
100
AcDbLinetypeTableRecord
  2
PHANTOM
 70
64
  3
_____ _ _ _____ _ _ _____ _ _ _____
 72
65
 73
6
 40
0.8
 49
0.45
 74
0
 49
-0.05
 74
0
 49
0.1
 74
0
 49
-0.05
 74
0
 49
0.1
 74
0
 49
-0.05
 74
0
  0
LTYPE
  5
1F8
100
AcDbSymbolTableRecord
100
AcDbLinetypeTableRecord
  2
DOT
 70
64
  3
. . . . . . . . . . . . . . . . . . . .
 72
65
 73
2
 40
0.2
 49
0.1
 74
0
 49
-0.1
 74
0
  0
LTYPE
  5
1F9
100
AcDbSymbolTableRecord
100
AcDbLinetypeTableRecord
  2
DASHED
 70
64
  3
- - - - - - - - - - - - - - - - - - - -
 72
65
 73
2
 40
0.2
 49
0.1
 74
0
 49
-0.1
 74
0
  0
ENDTAB
  0
TABLE
  2
LAYER
  5
2
100
AcDbSymbolTable
 70
36
  0
LAYER
  5
10
100
AcDbSymbolTableRecord
100
AcDbLayerTableRecord
  2
0
 70
0
 62
7
  6
CONTINUOUS
370
-3
390
F
  0
LAYER
  5
1FA
100
AcDbSymbolTableRecord
100
AcDbLayerTableRecord
  2
DEFAULT_1
 70
0
 62
7
  6
CENTER
370
-3
390
F
  0
LAYER
  5
1FB
100
AcDbSymbolTableRecord
100
AcDbLayerTableRecord
  2
DEFAULT_2
 70
0
 62
8
  6
HIDDEN
370
-3
390
F
  0
LAYER
  5
1FC
100
AcDbSymbolTableRecord
100
AcDbLayerTableRecord
  2
DEFAULT_3
 70
0
 62
7
  6
PHANTOM
370
-3
390
F
  0
LAYER
  5
1FD
100
AcDbSymbolTableRecord
100
AcDbLayerTableRecord
  2
AUSFORMSCHRAEGEN
 70
0
 62
7
  6
CONTINUOUS
370
-3
390
F
  0
LAYER
  5
1FE
100
AcDbSymbolTableRecord
100
AcDbLayerTableRecord
  2
BEZUGSACHSEN
 70
0
 62
7
  6
CONTINUOUS
370
-3
390
F
  0
LAYER
  5
1FF
100
AcDbSymbolTableRecord
100
AcDbLayerTableRecord
  2
BEZUGSEBENEN
 70
0
 62
7
  6
CONTINUOUS
370
-3
390
F
  0
LAYER
  5
200
100
AcDbSymbolTableRecord
100
AcDbLayerTableRecord
  2
BG_STARTBEZUEGE
 70
0
 62
7
  6
CONTINUOUS
370
-3
390
F
  0
LAYER
  5
201
100
AcDbSymbolTableRecord
100
AcDbLayerTableRecord
  2
FASEN
 70
0
 62
7
  6
CONTINUOUS
370
-3
390
F
  0
LAYER
  5
202
100
AcDbSymbolTableRecord
100
AcDbLayerTableRecord
  2
GEWINDE
 70
0
 62
7
  6
CONTINUOUS
370
-3
390
F
  0
LAYER
  5
203
100
AcDbSymbolTableRecord
100
AcDbLayerTableRecord
  2
HILFEN
 70
0
 62
7
  6
CONTINUOUS
370
-3
390
F
  0
LAYER
  5
204
100
AcDbSymbolTableRecord
100
AcDbLayerTableRecord
  2
KONSTRUKTIONSELEMENTE
 70
0
 62
7
  6
CONTINUOUS
370
-3
390
F
  0
LAYER
  5
205
100
AcDbSymbolTableRecord
100
AcDbLayerTableRecord
  2
KURVEN
 70
0
 62
7
  6
CONTINUOUS
370
-3
390
F
  0
LAYER
  5
206
100
AcDbSymbolTableRecord
100
AcDbLayerTableRecord
  2
NORM
 70
0
 62
7
  6
CONTINUOUS
370
-3
390
F
  0
LAYER
  5
207
100
AcDbSymbolTableRecord
100
AcDbLayerTableRecord
  2
PLATZIERUNG
 70
0
 62
7
  6
CONTINUOUS
370
-3
390
F
  0
LAYER
  5
208
100
AcDbSymbolTableRecord
100
AcDbLayerTableRecord
  2
PLAZIERUNG
 70
0
 62
7
  6
CONTINUOUS
370
-3
390
F
  0
LAYER
  5
209
100
AcDbSymbolTableRecord
100
AcDbLayerTableRecord
  2
RUNDUNGEN
 70
0
 62
7
  6
CONTINUOUS
370
-3
390
F
  0
LAYER
  5
20A
100
AcDbSymbolTableRecord
100
AcDbLayerTableRecord
  2
TEIL_STARTBEZUEGE
 70
0
 62
7
  6
CONTINUOUS
370
-3
390
F
  0
LAYER
  5
20B
100
AcDbSymbolTableRecord
100
AcDbLayerTableRecord
  2
T_STARTBEZUEGE
 70
0
 62
7
  6
CONTINUOUS
370
-3
390
F
  0
LAYER
  5
20C
100
AcDbSymbolTableRecord
100
AcDbLayerTableRecord
  2
ZEICHNUNGSBEMASSUNGEN
 70
0
 62
7
  6
CONTINUOUS
370
-3
390
F
  0
ENDTAB
  0
TABLE
  2
STYLE
  5
3
100
AcDbSymbolTable
 70
1
  0
STYLE
  5
11
100
AcDbSymbolTableRecord
100
AcDbTextStyleTableRecord
  2
STANDARD
 70
0
 40
0.0
 41
0.7
 50
0.0
 71
0
 42
0.2
  3
txt
  4

  0
STYLE
  5
20D
100
AcDbSymbolTableRecord
100
AcDbTextStyleTableRecord
  2
TEXTSTYLE_1
 70
0
 40
0.0
 41
0.8
 50
0.0
 71
0
 42
0.2
  3
gdt
  4

  0
ENDTAB
  0
TABLE
  2
VIEW
  5
6
100
AcDbSymbolTable
 70
0
  0
ENDTAB
  0
TABLE
  2
UCS
  5
7
100
AcDbSymbolTable
 70
0
  0
ENDTAB
  0
TABLE
  2
APPID
  5
9
100
AcDbSymbolTable
 70
1
  0
APPID
  5
20E
100
AcDbSymbolTableRecord
100
AcDbRegAppTableRecord
  2
ACAD
 70
0
  0
ENDTAB
  0
TABLE
  2
BLOCK_RECORD
  5
1
100
AcDbSymbolTable
 70
0
  0
BLOCK_RECORD
  5
20F
100
AcDbSymbolTableRecord
100
AcDbBlockTableRecord
  2
*Model_Space
  0
BLOCK_RECORD
  5
210
100
AcDbSymbolTableRecord
100
AcDbBlockTableRecord
  2
*Paper_Space
  0
ENDTAB
  0
TABLE
  2
DIMSTYLE
  5
A
100
AcDbSymbolTable
 70
1
100
AcDbDimStyleTable
 71
0
  0
DIMSTYLE
105
211
100
AcDbSymbolTableRecord
100
AcDbDimStyleTableRecord
  2
STANDARD
 70
0
  3

  4

 40
1.0
 41
3.5
 42
0.0625
 43
0.38
 44
0.18
 45
0.0
 46
0.0
 47
0.005
 48
0.005
140
3.5
141
0.09
142
0.0
143
25.4
144
1.0
145
0.0
146
1.0
147
0.09
 71
1.0
 72
0.0
 73
0
 74
0
 75
0
 76
0
 77
1
 78
8
170
0
171
2
172
0
173
0
174
0
175
0
176
0
177
0
178
5
270
2
271
3
272
3
273
2
274
2
275
0
280
0
281
0
282
0
283
1
284
8
285
0
286
0
287
3
288
0
340
11
  0
ENDTAB
  0
ENDSEC
  0
SECTION
  2
BLOCKS
  0
BLOCK
  5
20
100
AcDbEntity
  8
0
100
AcDbBlockBegin
  2
*Model_Space
 70
0
 10
0.0
 20
0.0
 30
0.0
  3
*Model_Space
  1

  0
ENDBLK
  5
21
100
AcDbEntity
  8
0
100
AcDbBlockEnd
  0
BLOCK
  5
1C
100
AcDbEntity
  8
0
100
AcDbBlockBegin
  2
*Paper_Space
 70
0
 10
0.0
 20
0.0
 30
0.0
  3
*Paper_Space
  1

  0
ENDBLK
  5
1D
100
AcDbEntity
  8
0
100
AcDbBlockEnd
  0
ENDSEC
  0
SECTION
  2
ENTITIES
  0
MTEXT
  5
212
100
AcDbEntity
  8
0
100
AcDbMText
 62
5
  6
CONTINUOUS
  7
STANDARD
 71
1
 72
1
 10
269.8623041447
 20
267.309122922
 30
0.0
 11
0.0
 21
1.0
 31
0.0
 44
0.9
  1
RUD VLBG-PLUS 6,7t
 40
7.0
 41
96.0
  0
MTEXT
  5
213
100
AcDbEntity
  8
0
100
AcDbMText
 62
5
  6
CONTINUOUS
  7
STANDARD
 71
1
 72
1
 10
269.1199823398
 20
32.6798176382
 30
0.0
 11
0.0
 21
1.0
 31
0.0
 44
0.9
  1
VLBG-PLUS 6,7t
 40
7.0
 41
73.1666666667
  0
LINE
  5
214
100
AcDbEntity
  8
0
100
AcDbLine
 62
7
  6
CONTINUOUS
 10
0.0
 20
0.0
 11
0.0
 21
420.0
  0
LINE
  5
215
100
AcDbEntity
  8
0
100
AcDbLine
 62
7
  6
CONTINUOUS
 10
0.0
 20
0.0
 11
594.0
 21
0.0
  0
LINE
  5
216
100
AcDbEntity
  8
0
100
AcDbLine
 62
7
  6
CONTINUOUS
 10
0.0
 20
420.0
 11
594.0
 21
420.0
  0
LINE
  5
217
100
AcDbEntity
  8
0
100
AcDbLine
 62
7
  6
CONTINUOUS
 10
594.0
 20
0.0
 11
594.0
 21
420.0
  0
LINE
  5
218
100
AcDbEntity
  8
BEZUGSACHSEN
100
AcDbLine
 62
7
  6
CONTINUOUS
 10
224.977768489
 20
178.9627032936
 11
248.977768489
 21
178.9627032936
  0
LINE
  5
219
100
AcDbEntity
  8
BEZUGSACHSEN
100
AcDbLine
 62
7
  6
CONTINUOUS
 10
221.977768489
 20
181.9627032936
 11
251.977768489
 21
181.9627032936
  0
LINE
  5
21A
100
AcDbEntity
  8
BEZUGSACHSEN
100
AcDbLine
 62
7
  6
CONTINUOUS
 10
224.977768489
 20
178.9627032936
 11
221.977768489
 21
181.9627032936
  0
LINE
  5
21B
100
AcDbEntity
  8
0
100
AcDbLine
 62
7
  6
CONTINUOUS
 10
266.977768489
 20
228.1627032936
 11
206.977768489
 21
228.1627032936
  0
LINE
  5
21C
100
AcDbEntity
  8
0
100
AcDbLine
 62
7
  6
CONTINUOUS
 10
266.977768489
 20
233.3127032936
 11
206.977768489
 21
233.3127032936
  0
LINE
  5
21D
100
AcDbEntity
  8
RUNDUNGEN
100
AcDbLine
 62
7
  6
CONTINUOUS
 10
207.9779885048
 20
233.5627032936
 11
271.977768489
 21
233.5627032936
  0
LINE
  5
21E
100
AcDbEntity
  8
0
100
AcDbLine
 62
7
  6
CONTINUOUS
 10
204.5664506847
 20
239.6690862746
 11
204.977768489
 21
239.6690862746
  0
LINE
  5
21F
100
AcDbEntity
  8
0
100
AcDbLine
 62
7
  6
CONTINUOUS
 10
204.5004422395
 20
240.5627032936
 11
205.0479492196
 21
240.5627032936
  0
LINE
  5
220
100
AcDbEntity
  8
0
100
AcDbLine
 62
7
  6
CONTINUOUS
 10
205.9438625556
 20
240.5627032936
 11
206.4695645163
 21
240.5627032936
  0
LINE
  5
221
100
AcDbEntity
  8
0
100
AcDbLine
 62
7
  6
CONTINUOUS
 10
205.9438625556
 20
241.1584479556
 11
206.4695645163
 21
241.1584479556
  0
LINE
  5
222
100
AcDbEntity
  8
0
100
AcDbLine
 62
7
  6
CONTINUOUS
 10
205.719256933
 20
241.3073841602
 11
206.2408497525
 21
241.3073841602
  0
LINE
  5
223
100
AcDbEntity
  8
0
100
AcDbLine
 62
7
  6
CONTINUOUS
 10
205.5940015691
 20
241.6052564652
 11
206.1133308814
 21
241.6052564652
  0
LINE
  5
224
100
AcDbEntity
  8
0
100
AcDbLine
 62
7
  6
CONTINUOUS
 10
204.477768489
 20
268.091639461
 11
204.477768489
 21
266.9427032936
  0
LINE
  5
225
100
AcDbEntity
  8
0
100
AcDbLine
 62
7
  6
CONTINUOUS
 10
204.477768489
 20
257.329299065
 11
204.477768489
 21
256.5846180941
  0
LINE
  5
226
100
AcDbEntity
  8
0
100
AcDbLine
 62
7
  6
CONTINUOUS
 10
204.477768489
 20
247.5627032936
 11
204.477768489
 21
246.8180225314
  0
LINE
  5
227
100
AcDbEntity
  8
0
100
AcDbLine
 62
7
  6
CONTINUOUS
 10
204.5188936359
 20
257.9250436748
 11
204.5188936359
 21
255.6910011793
  0
LINE
  5
228
100
AcDbEntity
  8
0
100
AcDbLine
 62
7
  6
CONTINUOUS
 10
204.5515364107
 20
275.9427032936
 11
204.5515364107
 21
270.0065329839
  0
LINE
  5
229
100
AcDbEntity
  8
0
100
AcDbLine
 62
7
  6
CONTINUOUS
 10
204.6057978017
 20
261.0527032936
 11
204.6057978017
 21
254.0527032936
  0
LINE
  5
22A
100
AcDbEntity
  8
0
100
AcDbLine
 62
7
  6
CONTINUOUS
 10
204.6508831778
 20
275.9427032936
 11
204.6508831778
 21
270.0065329839
  0
LINE
  5
22B
100
AcDbEntity
  8
0
100
AcDbLine
 62
7
  6
CONTINUOUS
 10
204.6989712257
 20
260.3080225314
 11
204.6989712257
 21
258.0739798273
  0
LINE
  5
22C
100
AcDbEntity
  8
0
100
AcDbLine
 62
7
  6
CONTINUOUS
 10
204.6989712257
 20
257.1803629125
 11
204.6989712257
 21
254.0527032936
  0
LINE
  5
22D
100
AcDbEntity
  8
0
100
AcDbLine
 62
7
  6
CONTINUOUS
 10
204.8491280451
 20
275.9427032936
 11
204.8491280451
 21
266.9427032936
  0
LINE
  5
22E
100
AcDbEntity
  8
0
100
AcDbLine
 62
7
  6
CONTINUOUS
 10
204.8850128201
 20
247.5627032936
 11
204.8850128201
 21
246.8180225314
  0
LINE
  5
22F
100
AcDbEntity
  8
0
100
AcDbLine
 62
7
  6
CONTINUOUS
 10
204.977768489
 20
236.5627032936
 11
204.977768489
 21
240.5627032936
  0
LINE
  5
230
100
AcDbEntity
  8
0
100
AcDbLine
 62
7
  6
CONTINUOUS
 10
204.977768489
 20
247.5627032936
 11
204.977768489
 21
254.0527032936
  0
LINE
  5
231
100
AcDbEntity
  8
0
100
AcDbLine
 62
7
  6
CONTINUOUS
 10
204.977768489
 20
261.0527032936
 11
204.977768489
 21
266.9427032936
  0
LINE
  5
232
100
AcDbEntity
  8
0
100
AcDbLine
 62
7
  6
CONTINUOUS
 10
204.977768489
 20
275.9427032936
 11
204.977768489
 21
280.5627032936
  0
LINE
  5
233
100
AcDbEntity
  8
0
100
AcDbLine
 62
7
  6
CONTINUOUS
 10
205.0479656163
 20
274.7937672604
 11
205.0479656163
 21
268.091639461
  0
LINE
  5
234
100
AcDbEntity
  8
0
100
AcDbLine
 62
7
  6
CONTINUOUS
 10
205.1009883332
 20
245.3286605895
 11
205.1009883332
 21
244.7329159797
  0
LINE
  5
235
100
AcDbEntity
  8
0
100
AcDbLine
 62
7
  6
CONTINUOUS
 10
205.2026855552
 20
254.0527032936
 11
205.2026855552
 21
257.1803629125
  0
LINE
  5
236
100
AcDbEntity
  8
0
100
AcDbLine
 62
7
  6
CONTINUOUS
 10
205.2026855552
 20
258.1326842887
 11
205.2026855552
 21
260.2493180699
  0
LINE
  5
237
100
AcDbEntity
  8
0
100
AcDbLine
 62
7
  6
CONTINUOUS
 10
205.3644633584
 20
246.5201502264
 11
205.3644633584
 21
245.3286605895
  0
LINE
  5
238
100
AcDbEntity
  8
0
100
AcDbLine
 62
7
  6
CONTINUOUS
 10
205.3644633584
 20
244.7329159797
 11
205.3644633584
 21
241.7541926176
  0
LINE
  5
239
100
AcDbEntity
  8
0
100
AcDbLine
 62
7
  6
CONTINUOUS
 10
205.3673422214
 20
259.4144056166
 11
205.3673422214
 21
258.967596742
  0
LINE
  5
23A
100
AcDbEntity
  8
0
100
AcDbLine
 62
7
  6
CONTINUOUS
 10
205.3918944315
 20
246.8180225314
 11
205.3918944315
 21
247.5627032936
  0
LINE
  5
23B
100
AcDbEntity
  8
0
100
AcDbLine
 62
7
  6
CONTINUOUS
 10
205.5538139621
 20
246.5201502264
 11
205.5538139621
 21
245.3286605895
  0
LINE
  5
23C
100
AcDbEntity
  8
0
100
AcDbLine
 62
7
  6
CONTINUOUS
 10
205.5538139621
 20
244.7329159797
 11
205.5538139621
 21
242.0520650268
  0
LINE
  5
23D
100
AcDbEntity
  8
0
100
AcDbLine
 62
7
  6
CONTINUOUS
 10
205.5576546211
 20
268.091639461
 11
205.5576546211
 21
274.7937672604
  0
LINE
  5
23E
100
AcDbEntity
  8
0
100
AcDbLine
 62
7
  6
CONTINUOUS
 10
205.5972503903
 20
259.4144056166
 11
205.5972503903
 21
258.8186605895
  0
LINE
  5
23F
100
AcDbEntity
  8
0
100
AcDbLine
 62
7
  6
CONTINUOUS
 10
205.9438625556
 20
241.1584479556
 11
205.9438625556
 21
240.5627032936
  0
LINE
  5
240
100
AcDbEntity
  8
0
100
AcDbLine
 62
7
  6
CONTINUOUS
 10
205.947618872
 20
261.0527032936
 11
205.947618872
 21
254.0527032936
  0
LINE
  5
241
100
AcDbEntity
  8
0
100
AcDbLine
 62
7
  6
CONTINUOUS
 10
206.0393369158
 20
245.3286605895
 11
206.0393369158
 21
244.7329159797
  0
LINE
  5
242
100
AcDbEntity
  8
0
100
AcDbLine
 62
7
  6
CONTINUOUS
 10
206.0724212328
 20
242.0520650268
 11
206.0724212328
 21
244.7329159797
  0
LINE
  5
243
100
AcDbEntity
  8
0
100
AcDbLine
 62
7
  6
CONTINUOUS
 10
206.0724212328
 20
245.3286605895
 11
206.0724212328
 21
246.5201502264
  0
LINE
  5
244
100
AcDbEntity
  8
0
100
AcDbLine
 62
7
  6
CONTINUOUS
 10
206.244265882
 20
261.0527032936
 11
206.244265882
 21
254.9463203127
  0
LINE
  5
245
100
AcDbEntity
  8
0
100
AcDbLine
 62
7
  6
CONTINUOUS
 10
206.4695645163
 20
240.5627032936
 11
206.4695645163
 21
241.1584479556
  0
LINE
  5
246
100
AcDbEntity
  8
0
100
AcDbLine
 62
7
  6
CONTINUOUS
 10
206.5668054304
 20
244.7329159797
 11
206.5668054304
 21
245.3286605895
  0
LINE
  5
247
100
AcDbEntity
  8
0
100
AcDbLine
 62
7
  6
CONTINUOUS
 10
206.5771414553
 20
272.8788733352
 11
206.5771414553
 21
270.0065329839
  0
LINE
  5
248
100
AcDbEntity
  8
0
100
AcDbLine
 62
7
  6
CONTINUOUS
 10
206.7755669425
 20
254.9463203127
 11
206.7755669425
 21
261.0527032936
  0
LINE
  5
249
100
AcDbEntity
  8
0
100
AcDbLine
 62
7
  6
CONTINUOUS
 10
206.977768489
 20
288.9627032936
 11
206.977768489
 21
283.8127032936
  0
LINE
  5
24A
100
AcDbEntity
  8
0
100
AcDbLine
 62
7
  6
CONTINUOUS
 10
206.977768489
 20
233.3127032936
 11
206.977768489
 21
228.1627032936
  0
LINE
  5
24B
100
AcDbEntity
  8
0
100
AcDbLine
 62
7
  6
CONTINUOUS
 10
207.0437391965
 20
272.8788733352
 11
207.0437391965
 21
270.0065329839
  0
LINE
  5
24C
100
AcDbEntity
  8
0
100
AcDbLine
 62
7
  6
CONTINUOUS
 10
207.5905453272
 20
270.0065329839
 11
207.5905453272
 21
272.8788733352
  0
LINE
  5
24D
100
AcDbEntity
  8
0
100
AcDbLine
 62
7
  6
CONTINUOUS
 10
208.2015038416
 20
254.9463203127
 11
208.2015038416
 21
254.0527032936
  0
LINE
  5
24E
100
AcDbEntity
  8
0
100
AcDbLine
 62
7
  6
CONTINUOUS
 10
208.7724570337
 20
254.0527032936
 11
208.7724570337
 21
254.9463203127
  0
LINE
  5
24F
100
AcDbEntity
  8
0
100
AcDbLine
 62
7
  6
CONTINUOUS
 10
208.8716239847
 20
261.0527032936
 11
208.8716239847
 21
256.4356819416
  0
LINE
  5
250
100
AcDbEntity
  8
0
100
AcDbLine
 62
7
  6
CONTINUOUS
 10
209.4206521494
 20
261.0527032936
 11
209.4206521494
 21
256.4356819416
  0
LINE
  5
251
100
AcDbEntity
  8
0
100
AcDbLine
 62
7
  6
CONTINUOUS
 10
210.019479373
 20
256.4356819416
 11
210.019479373
 21
261.0527032936
  0
LINE
  5
252
100
AcDbEntity
  8
BEZUGSACHSEN
100
AcDbLine
 62
7
  6
CONTINUOUS
 10
210.4196561063
 20
289.4627032936
 11
210.4196561063
 21
305.6084261517
  0
LINE
  5
253
100
AcDbEntity
  8
0
100
AcDbLine
 62
7
  6
CONTINUOUS
 10
212.0780882625
 20
261.0527032936
 11
212.0780882625
 21
256.4356819416
  0
LWPOLYLINE
  5
254
100
AcDbEntity
  8
0
100
AcDbPolyline
 62
7
  6
CONTINUOUS
 90
3
 70
0
 10
274.5055710523
 20
247.3923669274
 10
275.2336148989
 20
247.5095553986
 10
275.7891095606
 20
247.6353033642
  0
LINE
  5
255
100
AcDbEntity
  8
0
100
AcDbLine
 62
7
  6
CONTINUOUS
 10
273.7701055724
 20
247.3271650983
 11
274.5055710523
 21
247.3923669274
  0
LINE
  5
256
100
AcDbEntity
  8
0
100
AcDbLine
 62
7
  6
CONTINUOUS
 10
273.2225908273
 20
247.3127036043
 11
273.7701055724
 21
247.3271650983
  0
LINE
  5
257
100
AcDbEntity
  8
0
100
AcDbLine
 62
7
  6
CONTINUOUS
 10
205.5538139621
 20
242.0520650268
 11
206.0724212328
 21
242.0520650268
  0
LINE
  5
258
100
AcDbEntity
  8
0
100
AcDbLine
 62
7
  6
CONTINUOUS
 10
205.3644633584
 20
244.7329159797
 11
205.1009883332
 21
244.7329159797
  0
LINE
  5
259
100
AcDbEntity
  8
0
100
AcDbLine
 62
7
  6
CONTINUOUS
 10
205.5538139621
 20
244.7329159797
 11
206.5668054304
 21
244.7329159797
  0
LINE
  5
25A
100
AcDbEntity
  8
0
100
AcDbLine
 62
7
  6
CONTINUOUS
 10
205.3644633584
 20
245.3286605895
 11
205.1009883332
 21
245.3286605895
  0
LINE
  5
25B
100
AcDbEntity
  8
0
100
AcDbLine
 62
7
  6
CONTINUOUS
 10
205.5538139621
 20
245.3286605895
 11
206.5668054304
 21
245.3286605895
  0
LINE
  5
25C
100
AcDbEntity
  8
0
100
AcDbLine
 62
7
  6
CONTINUOUS
 10
205.3644633584
 20
246.5201502264
 11
206.0724212328
 21
246.5201502264
  0
LINE
  5
25D
100
AcDbEntity
  8
0
100
AcDbLine
 62
7
  6
CONTINUOUS
 10
204.4777731274
 20
246.8180225314
 11
204.7535820856
 21
246.8180225314
  0
LINE
  5
25E
100
AcDbEntity
  8
0
100
AcDbLine
 62
7
  6
CONTINUOUS
 10
204.8850128201
 20
246.8180225314
 11
205.3918944315
 21
246.8180225314
  0
LINE
  5
25F
100
AcDbEntity
  8
0
100
AcDbLine
 62
7
  6
CONTINUOUS
 10
273.2225922809
 20
247.3127032936
 11
272.7329446971
 21
247.3127032936
  0
LINE
  5
260
100
AcDbEntity
  8
0
100
AcDbLine
 62
7
  6
CONTINUOUS
 10
204.4777775364
 20
247.5627032936
 11
205.3918944315
 21
247.5627032936
  0
LINE
  5
261
100
AcDbEntity
  8
0
100
AcDbLine
 62
7
  6
CONTINUOUS
 10
212.8785712367
 20
261.0527032936
 11
212.8785712367
 21
256.4356819416
  0
LINE
  5
262
100
AcDbEntity
  8
0
100
AcDbLine
 62
7
  6
CONTINUOUS
 10
213.5739249277
 20
256.4356819416
 11
213.5739249277
 21
261.0527032936
  0
LINE
  5
263
100
AcDbEntity
  8
0
100
AcDbLine
 62
7
  6
CONTINUOUS
 10
214.5239332741
 20
259.4144056166
 11
214.5239332741
 21
258.8186605895
  0
LINE
  5
264
100
AcDbEntity
  8
0
100
AcDbLine
 62
7
  6
CONTINUOUS
 10
215.5355463938
 20
259.2654690469
 11
215.5355463938
 21
258.967596742
  0
LINE
  5
265
100
AcDbEntity
  8
KONSTRUKTIONSELEMENTE
100
AcDbLine
 62
7
  6
CONTINUOUS
 10
215.627768489
 20
288.9627032936
 11
215.627768489
 21
289.4627032936
  0
LINE
  5
266
100
AcDbEntity
  8
BEZUGSACHSEN
100
AcDbLine
 62
7
  6
CONTINUOUS
 10
215.627768489
 20
288.9627032936
 11
215.627768489
 21
289.4627032936
  0
LINE
  5
267
100
AcDbEntity
  8
0
100
AcDbLine
 62
7
  6
CONTINUOUS
 10
215.727768489
 20
283.8127032936
 11
215.727768489
 21
283.5627032936
  0
LINE
  5
268
100
AcDbEntity
  8
0
100
AcDbLine
 62
7
  6
CONTINUOUS
 10
215.727768489
 20
233.5627032936
 11
215.727768489
 21
233.3127032936
  0
LINE
  5
269
100
AcDbEntity
  8
0
100
AcDbLine
 62
7
  6
CONTINUOUS
 10
216.3297122901
 20
258.967596742
 11
216.3297122901
 21
259.2654690469
  0
LINE
  5
26A
100
AcDbEntity
  8
KONSTRUKTIONSELEMENTE
100
AcDbLine
 62
7
  6
CONTINUOUS
 10
217.862479497
 20
307.6627032936
 11
217.862479497
 21
307.8627032936
  0
LINE
  5
26B
100
AcDbEntity
  8
0
100
AcDbLine
 62
7
  6
CONTINUOUS
 10
262.5544511261
 20
390.3526138574
 11
262.5536001449
 21
390.3507346975
  0
LWPOLYLINE
  5
26C
100
AcDbEntity
  8
KONSTRUKTIONSELEMENTE
100
AcDbPolyline
 62
7
  6
CONTINUOUS
 90
6
 70
0
 10
262.9039242097
 20
391.1243298229
 10
262.5551185676
 20
390.3544565993
 10
262.2508576736
 20
389.5144214009
 10
262.0147119046
 20
388.6524536333
 10
261.8483805424
 20
387.7747056942
 10
261.7529091122
 20
386.8874612814
  0
LINE
  5
26D
100
AcDbEntity
  8
BEZUGSACHSEN
100
AcDbLine
 62
7
  6
CONTINUOUS
 10
210.4196561063
 20
305.6084261517
 11
213.977768489
 21
307.6627032936
  0
LINE
  5
26E
100
AcDbEntity
  8
0
100
AcDbLine
 62
7
  6
CONTINUOUS
 10
204.6057978017
 20
254.0527032936
 11
205.2026855552
 21
254.0527032936
  0
LINE
  5
26F
100
AcDbEntity
  8
0
100
AcDbLine
 62
7
  6
CONTINUOUS
 10
205.947618872
 20
254.0527032936
 11
208.7724570337
 21
254.0527032936
  0
LINE
  5
270
100
AcDbEntity
  8
0
100
AcDbLine
 62
7
  6
CONTINUOUS
 10
210.432113281
 20
254.0527032936
 11
211.5091225172
 21
254.0527032936
  0
LINE
  5
271
100
AcDbEntity
  8
0
100
AcDbLine
 62
7
  6
CONTINUOUS
 10
216.4521770935
 20
254.0527032936
 11
219.007433715
 21
254.0527032936
  0
LINE
  5
272
100
AcDbEntity
  8
0
100
AcDbLine
 62
7
  6
CONTINUOUS
 10
211.4566482189
 20
254.2016394591
 11
212.1087261225
 21
254.2016394591
  0
LINE
  5
273
100
AcDbEntity
  8
0
100
AcDbLine
 62
7
  6
CONTINUOUS
 10
219.2381886026
 20
254.2016394591
 11
220.2304170319
 21
254.2016394591
  0
LINE
  5
274
100
AcDbEntity
  8
0
100
AcDbLine
 62
7
  6
CONTINUOUS
 10
204.5655613388
 20
254.4995118032
 11
204.6057978017
 21
254.4995118032
  0
LINE
  5
275
100
AcDbEntity
  8
0
100
AcDbLine
 62
7
  6
CONTINUOUS
 10
211.9506106097
 20
254.4995118032
 11
212.617088714
 21
254.4995118032
  0
LINE
  5
276
100
AcDbEntity
  8
0
100
AcDbLine
 62
7
  6
CONTINUOUS
 10
220.2497383722
 20
254.4995118032
 11
221.3152331781
 21
254.4995118032
  0
LINE
  5
277
100
AcDbEntity
  8
0
100
AcDbLine
 62
7
  6
CONTINUOUS
 10
218.0868954271
 20
254.9463203127
 11
216.4521770935
 21
254.9463203127
  0
LINE
  5
278
100
AcDbEntity
  8
0
100
AcDbLine
 62
7
  6
CONTINUOUS
 10
210.8732597044
 20
254.9463203127
 11
210.432113281
 21
254.9463203127
  0
LINE
  5
279
100
AcDbEntity
  8
0
100
AcDbLine
 62
7
  6
CONTINUOUS
 10
206.244265882
 20
254.9463203127
 11
208.7724570337
 21
254.9463203127
  0
LINE
  5
27A
100
AcDbEntity
  8
0
100
AcDbLine
 62
7
  6
CONTINUOUS
 10
204.5268246495
 20
255.0952564652
 11
204.6057978017
 21
255.0952564652
  0
LINE
  5
27B
100
AcDbEntity
  8
0
100
AcDbLine
 62
7
  6
CONTINUOUS
 10
210.0123852491
 20
255.0952564652
 11
210.6257591198
 21
255.0952564652
  0
LINE
  5
27C
100
AcDbEntity
  8
0
100
AcDbLine
 62
7
  6
CONTINUOUS
 10
212.4705175888
 20
255.0952564652
 11
213.1528665858
 21
255.0952564652
  0
LINE
  5
27D
100
AcDbEntity
  8
0
100
AcDbLine
 62
7
  6
CONTINUOUS
 10
215.7131762703
 20
255.0952564652
 11
216.5149812305
 21
255.0952564652
  0
LINE
  5
27E
100
AcDbEntity
  8
0
100
AcDbLine
 62
7
  6
CONTINUOUS
 10
221.3610511428
 20
255.0952564652
 11
222.477768489
 21
255.0952564652
  0
LINE
  5
27F
100
AcDbEntity
  8
0
100
AcDbLine
 62
7
  6
CONTINUOUS
 10
209.7109981333
 20
255.3931288744
 11
210.3168746648
 21
255.3931288744
  0
LINE
  5
280
100
AcDbEntity
  8
0
100
AcDbLine
 62
7
  6
CONTINUOUS
 10
215.1882962312
 20
255.5420650268
 11
215.9679496513
 21
255.5420650268
  0
LINE
  5
281
100
AcDbEntity
  8
0
100
AcDbLine
 62
7
  6
CONTINUOUS
 10
204.5188936359
 20
255.6910011793
 11
204.6057978017
 21
255.6910011793
  0
LINE
  5
282
100
AcDbEntity
  8
0
100
AcDbLine
 62
7
  6
CONTINUOUS
 10
212.7407638571
 20
255.6910011793
 11
213.4316696542
 21
255.6910011793
  0
LINE
  5
283
100
AcDbEntity
  8
0
100
AcDbLine
 62
7
  6
CONTINUOUS
 10
221.9620218396
 20
255.6910011793
 11
222.477768489
 21
255.6910011793
  0
LINE
  5
284
100
AcDbEntity
  8
0
100
AcDbLine
 62
7
  6
CONTINUOUS
 10
209.5162294955
 20
255.8399373318
 11
210.1173588399
 21
255.8399373318
  0
LINE
  5
285
100
AcDbEntity
  8
0
100
AcDbLine
 62
7
  6
CONTINUOUS
 10
214.0501588847
 20
255.9888734842
 11
215.7912864313
 21
255.9888734842
  0
LINE
  5
286
100
AcDbEntity
  8
0
100
AcDbLine
 62
7
  6
CONTINUOUS
 10
209.4206521494
 20
256.4356819416
 11
210.019479373
 21
256.4356819416
  0
LINE
  5
287
100
AcDbEntity
  8
0
100
AcDbLine
 62
7
  6
CONTINUOUS
 10
212.8785712367
 20
256.4356819416
 11
213.5739249277
 21
256.4356819416
  0
LINE
  5
288
100
AcDbEntity
  8
0
100
AcDbLine
 62
7
  6
CONTINUOUS
 10
221.9620218396
 20
256.4356819416
 11
222.477768489
 21
256.4356819416
  0
LINE
  5
289
100
AcDbEntity
  8
0
100
AcDbLine
 62
7
  6
CONTINUOUS
 10
204.4777685622
 20
256.5846180941
 11
204.6057978017
 21
256.5846180941
  0
LINE
  5
28A
100
AcDbEntity
  8
0
100
AcDbLine
 62
7
  6
CONTINUOUS
 10
221.3610511428
 20
257.03142676
 11
222.477768489
 21
257.03142676
  0
LINE
  5
28B
100
AcDbEntity
  8
0
100
AcDbLine
 62
7
  6
CONTINUOUS
 10
218.0868954271
 20
257.1803629125
 11
216.8399991092
 21
257.1803629125
  0
LINE
  5
28C
100
AcDbEntity
  8
0
100
AcDbLine
 62
7
  6
CONTINUOUS
 10
204.6989712257
 20
257.1803629125
 11
205.644937999
 21
257.1803629125
  0
LINE
  5
28D
100
AcDbEntity
  8
0
100
AcDbLine
 62
7
  6
CONTINUOUS
 10
204.4777685622
 20
257.329299065
 11
204.6057978017
 21
257.329299065
  0
LINE
  5
28E
100
AcDbEntity
  8
0
100
AcDbLine
 62
7
  6
CONTINUOUS
 10
205.2968338056
 20
257.329299065
 11
205.8108714363
 21
257.329299065
  0
LWPOLYLINE
  5
28F
100
AcDbEntity
  8
KONSTRUKTIONSELEMENTE
100
AcDbPolyline
 62
7
  6
CONTINUOUS
 90
5
 70
0
 10
270.1665483285
 20
247.6352724811
 10
270.732537816
 20
247.5074627081
 10
271.4628479614
 20
247.3907690979
 10
272.2005507326
 20
247.3263768903
 10
272.7329461493
 20
247.3127036043
  0
LINE
  5
290
100
AcDbEntity
  8
0
100
AcDbLine
 62
7
  6
CONTINUOUS
 10
220.2497383722
 20
256.2867457891
 11
220.2497383722
 21
255.8399373318
  0
LINE
  5
291
100
AcDbEntity
  8
0
100
AcDbLine
 62
7
  6
CONTINUOUS
 10
221.9620218396
 20
256.4356819416
 11
221.9620218396
 21
255.6910011793
  0
LINE
  5
292
100
AcDbEntity
  8
BEZUGSACHSEN
100
AcDbLine
 62
7
  6
CONTINUOUS
 10
221.977768489
 20
228.1627032936
 11
221.977768489
 21
181.9627032936
  0
LINE
  5
293
100
AcDbEntity
  8
0
100
AcDbLine
 62
7
  6
CONTINUOUS
 10
222.477768489
 20
255.0749480301
 11
222.477768489
 21
257.0517351933
  0
LINE
  5
294
100
AcDbEntity
  8
BEZUGSACHSEN
100
AcDbLine
 62
7
  6
CONTINUOUS
 10
223.6987122977
 20
289.4627032936
 11
223.6987122977
 21
305.6084261517
  0
LINE
  5
295
100
AcDbEntity
  8
KONSTRUKTIONSELEMENTE
100
AcDbLine
 62
7
  6
CONTINUOUS
 10
223.7626282418
 20
307.6627032936
 11
223.7626282418
 21
307.8627032936
  0
LINE
  5
296
100
AcDbEntity
  8
KONSTRUKTIONSELEMENTE
100
AcDbLine
 62
7
  6
CONTINUOUS
 10
223.8988865437
 20
307.6627032936
 11
223.8988865437
 21
307.8627032936
  0
LINE
  5
297
100
AcDbEntity
  8
KONSTRUKTIONSELEMENTE
100
AcDbLine
 62
7
  6
CONTINUOUS
 10
224.4666294465
 20
307.6627032936
 11
224.4666294465
 21
307.8627032936
  0
LINE
  5
298
100
AcDbEntity
  8
KONSTRUKTIONSELEMENTE
100
AcDbLine
 62
7
  6
CONTINUOUS
 10
224.6255975087
 20
307.6627032936
 11
224.6255975087
 21
307.8627032936
  0
LINE
  5
299
100
AcDbEntity
  8
KONSTRUKTIONSELEMENTE
100
AcDbLine
 62
7
  6
CONTINUOUS
 10
225.2561274161
 20
307.6627032936
 11
225.2561274161
 21
307.8627032936
  0
LINE
  5
29A
100
AcDbEntity
  8
KONSTRUKTIONSELEMENTE
100
AcDbLine
 62
7
  6
CONTINUOUS
 10
225.7532450979
 20
307.6627032936
 11
225.7532450979
 21
307.8627032936
  0
LINE
  5
29B
100
AcDbEntity
  8
KONSTRUKTIONSELEMENTE
100
AcDbLine
 62
7
  6
CONTINUOUS
 10
226.2182809628
 20
307.6627032936
 11
226.2182809628
 21
307.8627032936
  0
LINE
  5
29C
100
AcDbEntity
  8
KONSTRUKTIONSELEMENTE
100
AcDbLine
 62
7
  6
CONTINUOUS
 10
226.506917414
 20
307.6627032936
 11
226.506917414
 21
307.8627032936
  0
LINE
  5
29D
100
AcDbEntity
  8
KONSTRUKTIONSELEMENTE
100
AcDbLine
 62
7
  6
CONTINUOUS
 10
226.7634720574
 20
307.6627032936
 11
226.7634720574
 21
307.8627032936
  0
LINE
  5
29E
100
AcDbEntity
  8
KONSTRUKTIONSELEMENTE
100
AcDbLine
 62
7
  6
CONTINUOUS
 10
226.8436272779
 20
307.6627032936
 11
226.8436272779
 21
307.8627032936
  0
LINE
  5
29F
100
AcDbEntity
  8
0
100
AcDbLine
 62
7
  6
CONTINUOUS
 10
262.5536001449
 20
390.3507346975
 11
262.2504326809
 21
389.5128701133
  0
LINE
  5
2A0
100
AcDbEntity
  8
0
100
AcDbLine
 62
7
  6
CONTINUOUS
 10
220.2497383722
 20
257.6271713699
 11
221.3152331781
 21
257.6271713699
  0
LINE
  5
2A1
100
AcDbEntity
  8
0
100
AcDbLine
 62
7
  6
CONTINUOUS
 10
205.4408988812
 20
257.7761075223
 11
205.9574882315
 21
257.7761075223
  0
LINE
  5
2A2
100
AcDbEntity
  8
0
100
AcDbLine
 62
7
  6
CONTINUOUS
 10
204.5188936359
 20
257.9250436748
 11
204.6057978017
 21
257.9250436748
  0
LINE
  5
2A3
100
AcDbEntity
  8
0
100
AcDbLine
 62
7
  6
CONTINUOUS
 10
219.2381886026
 20
257.9250436748
 11
220.2304170319
 21
257.9250436748
  0
LINE
  5
2A4
100
AcDbEntity
  8
0
100
AcDbLine
 62
7
  6
CONTINUOUS
 10
205.1648754099
 20
258.0739798273
 11
204.6989712257
 21
258.0739798273
  0
LINE
  5
2A5
100
AcDbEntity
  8
0
100
AcDbLine
 62
7
  6
CONTINUOUS
 10
216.8399991092
 20
258.0739798273
 11
219.007433715
 21
258.0739798273
  0
LINE
  5
2A6
100
AcDbEntity
  8
0
100
AcDbLine
 62
7
  6
CONTINUOUS
 10
216.2629881814
 20
258.2229159797
 11
217.0894202711
 21
258.2229159797
  0
LINE
  5
2A7
100
AcDbEntity
  8
0
100
AcDbLine
 62
7
  6
CONTINUOUS
 10
205.5570000572
 20
258.3718521322
 11
205.947618872
 21
258.3718521322
  0
LINE
  5
2A8
100
AcDbEntity
  8
0
100
AcDbLine
 62
7
  6
CONTINUOUS
 10
215.7131762703
 20
258.5207882846
 11
216.5149812305
 21
258.5207882846
  0
LINE
  5
2A9
100
AcDbEntity
  8
0
100
AcDbLine
 62
7
  6
CONTINUOUS
 10
205.5972503903
 20
258.8186605895
 11
205.947618872
 21
258.8186605895
  0
LINE
  5
2AA
100
AcDbEntity
  8
0
100
AcDbLine
 62
7
  6
CONTINUOUS
 10
215.5355463938
 20
258.967596742
 11
216.3297122901
 21
258.967596742
  0
LINE
  5
2AB
100
AcDbEntity
  8
0
100
AcDbLine
 62
7
  6
CONTINUOUS
 10
204.5188936359
 20
259.2654690469
 11
204.6057978017
 21
259.2654690469
  0
LINE
  5
2AC
100
AcDbEntity
  8
0
100
AcDbLine
 62
7
  6
CONTINUOUS
 10
215.5355463938
 20
259.2654690469
 11
216.3297122901
 21
259.2654690469
  0
LINE
  5
2AD
100
AcDbEntity
  8
0
100
AcDbLine
 62
7
  6
CONTINUOUS
 10
205.5972503903
 20
259.4144056166
 11
205.947618872
 21
259.4144056166
  0
LINE
  5
2AE
100
AcDbEntity
  8
0
100
AcDbLine
 62
7
  6
CONTINUOUS
 10
219.4828255232
 20
259.4144056166
 11
222.2065636816
 21
259.4144056166
  0
LINE
  5
2AF
100
AcDbEntity
  8
0
100
AcDbLine
 62
7
  6
CONTINUOUS
 10
215.7131762703
 20
259.7122779215
 11
216.5149812305
 21
259.7122779215
  0
LINE
  5
2B0
100
AcDbEntity
  8
0
100
AcDbLine
 62
7
  6
CONTINUOUS
 10
205.5570000572
 20
259.861214074
 11
205.947618872
 21
259.861214074
  0
LINE
  5
2B1
100
AcDbEntity
  8
0
100
AcDbLine
 62
7
  6
CONTINUOUS
 10
220.7915075299
 20
259.861214074
 11
221.9010716584
 21
259.861214074
  0
LINE
  5
2B2
100
AcDbEntity
  8
0
100
AcDbLine
 62
7
  6
CONTINUOUS
 10
204.5268246495
 20
260.0101502264
 11
204.6057978017
 21
260.0101502264
  0
LINE
  5
2B3
100
AcDbEntity
  8
0
100
AcDbLine
 62
7
  6
CONTINUOUS
 10
216.2629881814
 20
260.0101502264
 11
217.0894202711
 21
260.0101502264
  0
LINE
  5
2B4
100
AcDbEntity
  8
0
100
AcDbLine
 62
7
  6
CONTINUOUS
 10
218.0868954271
 20
260.1590863789
 11
216.8399991092
 21
260.1590863789
  0
LINE
  5
2B5
100
AcDbEntity
  8
0
100
AcDbLine
 62
7
  6
CONTINUOUS
 10
205.1648754099
 20
260.3080225314
 11
204.6989712257
 21
260.3080225314
  0
LINE
  5
2B6
100
AcDbEntity
  8
0
100
AcDbLine
 62
7
  6
CONTINUOUS
 10
205.4408988812
 20
260.4569586838
 11
205.9574882315
 21
260.4569586838
  0
LINE
  5
2B7
100
AcDbEntity
  8
0
100
AcDbLine
 62
7
  6
CONTINUOUS
 10
219.9883190745
 20
260.4569586838
 11
221.0338237907
 21
260.4569586838
  0
LINE
  5
2B8
100
AcDbEntity
  8
0
100
AcDbLine
 62
7
  6
CONTINUOUS
 10
204.5655613388
 20
260.6058948363
 11
204.6057978017
 21
260.6058948363
  0
LINE
  5
2B9
100
AcDbEntity
  8
0
100
AcDbLine
 62
7
  6
CONTINUOUS
 10
205.2968338056
 20
260.9037671412
 11
205.8108714363
 21
260.9037671412
  0
LINE
  5
2BA
100
AcDbEntity
  8
0
100
AcDbLine
 62
7
  6
CONTINUOUS
 10
218.9986271756
 20
260.9037671412
 11
219.9750035067
 21
260.9037671412
  0
LINE
  5
2BB
100
AcDbEntity
  8
0
100
AcDbLine
 62
7
  6
CONTINUOUS
 10
204.6057978017
 20
261.0527032936
 11
205.644937999
 21
261.0527032936
  0
LINE
  5
2BC
100
AcDbEntity
  8
0
100
AcDbLine
 62
7
  6
CONTINUOUS
 10
205.947618872
 20
261.0527032936
 11
206.7755669425
 21
261.0527032936
  0
LINE
  5
2BD
100
AcDbEntity
  8
0
100
AcDbLine
 62
7
  6
CONTINUOUS
 10
208.8716239847
 20
261.0527032936
 11
210.019479373
 21
261.0527032936
  0
LINE
  5
2BE
100
AcDbEntity
  8
0
100
AcDbLine
 62
7
  6
CONTINUOUS
 10
212.0780882625
 20
261.0527032936
 11
213.5739249277
 21
261.0527032936
  0
LINE
  5
2BF
100
AcDbEntity
  8
0
100
AcDbLine
 62
7
  6
CONTINUOUS
 10
216.8399991092
 20
261.0527032936
 11
218.7778456497
 21
261.0527032936
  0
LINE
  5
2C0
100
AcDbEntity
  8
KONSTRUKTIONSELEMENTE
100
AcDbLine
 62
7
  6
CONTINUOUS
 10
228.4182152432
 20
307.6627032936
 11
228.4182152432
 21
307.8627032936
  0
LINE
  5
2C1
100
AcDbEntity
  8
KONSTRUKTIONSELEMENTE
100
AcDbLine
 62
7
  6
CONTINUOUS
 10
231.0318901987
 20
307.6627032936
 11
231.0318901987
 21
307.8627032936
  0
LINE
  5
2C2
100
AcDbEntity
  8
KONSTRUKTIONSELEMENTE
100
AcDbLine
 62
7
  6
CONTINUOUS
 10
231.5137401992
 20
307.6627032936
 11
231.5137401992
 21
307.8627032936
  0
LINE
  5
2C3
100
AcDbEntity
  8
KONSTRUKTIONSELEMENTE
100
AcDbLine
 62
7
  6
CONTINUOUS
 10
231.8240202095
 20
307.6627032936
 11
231.8240202095
 21
307.8627032936
  0
LINE
  5
2C4
100
AcDbEntity
  8
KONSTRUKTIONSELEMENTE
100
AcDbLine
 62
7
  6
CONTINUOUS
 10
232.008968164
 20
307.6627032936
 11
232.008968164
 21
307.8627032936
  0
LINE
  5
2C5
100
AcDbEntity
  8
0
100
AcDbLine
 62
7
  6
CONTINUOUS
 10
262.2498846257
 20
389.511355452
 11
262.0144870997
 21
388.651267314
  0
LINE
  5
2C6
100
AcDbEntity
  8
0
100
AcDbLine
 62
7
  6
CONTINUOUS
 10
204.4787525213
 20
266.9427032936
 11
206.4377969579
 21
266.9427032936
  0
LINE
  5
2C7
100
AcDbEntity
  8
0
100
AcDbLine
 62
7
  6
CONTINUOUS
 10
204.5007001491
 20
267.1341926493
 11
204.8491280451
 21
267.1341926493
  0
LINE
  5
2C8
100
AcDbEntity
  8
0
100
AcDbLine
 62
7
  6
CONTINUOUS
 10
206.2276958077
 20
267.1341926493
 11
206.7586848897
 21
267.1341926493
  0
LINE
  5
2C9
100
AcDbEntity
  8
0
100
AcDbLine
 62
7
  6
CONTINUOUS
 10
204.5390522916
 20
267.5171713773
 11
204.8491280451
 21
267.5171713773
  0
LINE
  5
2CA
100
AcDbEntity
  8
0
100
AcDbLine
 62
7
  6
CONTINUOUS
 10
206.5044398506
 20
267.5171713773
 11
207.0406884027
 21
267.5171713773
  0
LINE
  5
2CB
100
AcDbEntity
  8
0
100
AcDbLine
 62
7
  6
CONTINUOUS
 10
205.912669573
 20
268.091639461
 11
205.0479656163
 21
268.091639461
  0
LINE
  5
2CC
100
AcDbEntity
  8
0
100
AcDbLine
 62
7
  6
CONTINUOUS
 10
204.4787524727
 20
268.091639461
 11
204.47776842
 21
268.091639461
  0
LINE
  5
2CD
100
AcDbEntity
  8
0
100
AcDbLine
 62
7
  6
CONTINUOUS
 10
204.5959615673
 20
268.2831287999
 11
204.8491280451
 21
268.2831287999
  0
LINE
  5
2CE
100
AcDbEntity
  8
0
100
AcDbLine
 62
7
  6
CONTINUOUS
 10
206.8038583866
 20
268.2831287999
 11
207.3459171131
 21
268.2831287999
  0
LINE
  5
2CF
100
AcDbEntity
  8
0
100
AcDbLine
 62
7
  6
CONTINUOUS
 10
204.6314063718
 20
269.0490862895
 11
204.8491280451
 21
269.0490862895
  0
LINE
  5
2D0
100
AcDbEntity
  8
0
100
AcDbLine
 62
7
  6
CONTINUOUS
 10
206.9622960898
 20
269.0490862895
 11
207.5074810178
 21
269.0490862895
  0
LINE
  5
2D1
100
AcDbEntity
  8
0
100
AcDbLine
 62
7
  6
CONTINUOUS
 10
204.6508831778
 20
270.0065329839
 11
204.8491280451
 21
270.0065329839
  0
LINE
  5
2D2
100
AcDbEntity
  8
0
100
AcDbLine
 62
7
  6
CONTINUOUS
 10
207.0437391965
 20
270.0065329839
 11
207.5905453272
 21
270.0065329839
  0
LINE
  5
2D3
100
AcDbEntity
  8
0
100
AcDbLine
 62
7
  6
CONTINUOUS
 10
207.0437391965
 20
272.8788733352
 11
207.5905453272
 21
272.8788733352
  0
LINE
  5
2D4
100
AcDbEntity
  8
KONSTRUKTIONSELEMENTE
100
AcDbLine
 62
7
  6
CONTINUOUS
 10
239.9106065008
 20
307.6627032936
 11
239.9106065008
 21
307.8627032936
  0
LINE
  5
2D5
100
AcDbEntity
  8
KONSTRUKTIONSELEMENTE
100
AcDbLine
 62
7
  6
CONTINUOUS
 10
240.5864517225
 20
307.6627032936
 11
240.5864517225
 21
307.8627032936
  0
LINE
  5
2D6
100
AcDbEntity
  8
KONSTRUKTIONSELEMENTE
100
AcDbLine
 62
7
  6
CONTINUOUS
 10
242.1634230469
 20
307.6627032936
 11
242.1634230469
 21
307.8627032936
  0
LINE
  5
2D7
100
AcDbEntity
  8
KONSTRUKTIONSELEMENTE
100
AcDbLine
 62
7
  6
CONTINUOUS
 10
243.0645517278
 20
307.6627032936
 11
243.0645517278
 21
307.8627032936
  0
LINE
  5
2D8
100
AcDbEntity
  8
0
100
AcDbLine
 62
7
  6
CONTINUOUS
 10
262.0141681392
 20
388.6501019061
 11
261.8482943271
 21
387.7739044702
  0
LINE
  5
2D9
100
AcDbEntity
  8
0
100
AcDbLine
 62
7
  6
CONTINUOUS
 10
206.9622960898
 20
273.836320566
 11
207.5074810178
 21
273.836320566
  0
LINE
  5
2DA
100
AcDbEntity
  8
0
100
AcDbLine
 62
7
  6
CONTINUOUS
 10
206.8038583866
 20
274.6022779215
 11
207.3459171131
 21
274.6022779215
  0
LINE
  5
2DB
100
AcDbEntity
  8
0
100
AcDbLine
 62
7
  6
CONTINUOUS
 10
205.912669573
 20
274.7937672604
 11
205.0479656163
 21
274.7937672604
  0
LINE
  5
2DC
100
AcDbEntity
  8
0
100
AcDbLine
 62
7
  6
CONTINUOUS
 10
206.5044398506
 20
275.368235277
 11
207.0406884027
 21
275.368235277
  0
LINE
  5
2DD
100
AcDbEntity
  8
0
100
AcDbLine
 62
7
  6
CONTINUOUS
 10
206.2276958077
 20
275.7512139548
 11
206.7586848897
 21
275.7512139548
  0
LINE
  5
2DE
100
AcDbEntity
  8
0
100
AcDbLine
 62
7
  6
CONTINUOUS
 10
204.5515364107
 20
275.9427032936
 11
206.4377969579
 21
275.9427032936
  0
LINE
  5
2DF
100
AcDbEntity
  8
KONSTRUKTIONSELEMENTE
100
AcDbLine
 62
7
  6
CONTINUOUS
 10
244.6415230522
 20
307.6627032936
 11
244.6415230522
 21
307.8627032936
  0
LINE
  5
2E0
100
AcDbEntity
  8
KONSTRUKTIONSELEMENTE
100
AcDbLine
 62
7
  6
CONTINUOUS
 10
245.3173682739
 20
307.6627032936
 11
245.3173682739
 21
307.8627032936
  0
LINE
  5
2E1
100
AcDbEntity
  8
KONSTRUKTIONSELEMENTE
100
AcDbLine
 62
7
  6
CONTINUOUS
 10
246.7818677879
 20
307.6627032936
 11
246.7818677879
 21
307.8627032936
  0
LINE
  5
2E2
100
AcDbEntity
  8
KONSTRUKTIONSELEMENTE
100
AcDbLine
 62
7
  6
CONTINUOUS
 10
246.8017475576
 20
307.6627032936
 11
246.8017475576
 21
307.8627032936
  0
LINE
  5
2E3
100
AcDbEntity
  8
KONSTRUKTIONSELEMENTE
100
AcDbLine
 62
7
  6
CONTINUOUS
 10
246.8964369325
 20
307.6627032936
 11
246.8964369325
 21
307.8627032936
  0
LINE
  5
2E4
100
AcDbEntity
  8
KONSTRUKTIONSELEMENTE
100
AcDbLine
 62
7
  6
CONTINUOUS
 10
247.0933999604
 20
307.6627032936
 11
247.0933999604
 21
307.8627032936
  0
LINE
  5
2E5
100
AcDbEntity
  8
KONSTRUKTIONSELEMENTE
100
AcDbLine
 62
7
  6
CONTINUOUS
 10
247.6918715926
 20
307.6627032936
 11
247.6918715926
 21
307.8627032936
  0
LINE
  5
2E6
100
AcDbEntity
  8
KONSTRUKTIONSELEMENTE
100
AcDbLine
 62
7
  6
CONTINUOUS
 10
248.093381909
 20
307.6627032936
 11
248.093381909
 21
307.8627032936
  0
LINE
  5
2E7
100
AcDbEntity
  8
KONSTRUKTIONSELEMENTE
100
AcDbLine
 62
7
  6
CONTINUOUS
 10
248.5971641663
 20
307.6627032936
 11
248.5971641663
 21
307.8627032936
  0
LINE
  5
2E8
100
AcDbEntity
  8
KONSTRUKTIONSELEMENTE
100
AcDbLine
 62
7
  6
CONTINUOUS
 10
249.0261385487
 20
307.6627032936
 11
249.0261385487
 21
307.8627032936
  0
LINE
  5
2E9
100
AcDbEntity
  8
KONSTRUKTIONSELEMENTE
100
AcDbLine
 62
7
  6
CONTINUOUS
 10
249.4825786466
 20
307.6627032936
 11
249.4825786466
 21
307.8627032936
  0
LINE
  5
2EA
100
AcDbEntity
  8
KONSTRUKTIONSELEMENTE
100
AcDbLine
 62
7
  6
CONTINUOUS
 10
249.630670663
 20
307.6627032936
 11
249.630670663
 21
307.8627032936
  0
LINE
  5
2EB
100
AcDbEntity
  8
KONSTRUKTIONSELEMENTE
100
AcDbLine
 62
7
  6
CONTINUOUS
 10
249.6686324112
 20
307.6627032936
 11
249.6686324112
 21
307.8627032936
  0
LINE
  5
2EC
100
AcDbEntity
  8
KONSTRUKTIONSELEMENTE
100
AcDbLine
 62
7
  6
CONTINUOUS
 10
249.9558418882
 20
307.6627032936
 11
249.9558418882
 21
307.8627032936
  0
LINE
  5
2ED
100
AcDbEntity
  8
BEZUGSACHSEN
100
AcDbLine
 62
7
  6
CONTINUOUS
 10
250.2568246804
 20
289.4627032936
 11
250.2568246804
 21
305.6084261517
  0
LINE
  5
2EE
100
AcDbEntity
  8
KONSTRUKTIONSELEMENTE
100
AcDbLine
 62
7
  6
CONTINUOUS
 10
250.465201285
 20
307.6627032936
 11
250.465201285
 21
307.8627032936
  0
LINE
  5
2EF
100
AcDbEntity
  8
KONSTRUKTIONSELEMENTE
100
AcDbLine
 62
7
  6
CONTINUOUS
 10
250.9203656953
 20
307.6627032936
 11
250.9203656953
 21
307.8627032936
  0
LINE
  5
2F0
100
AcDbEntity
  8
KONSTRUKTIONSELEMENTE
100
AcDbLine
 62
7
  6
CONTINUOUS
 10
251.4730561938
 20
307.6627032936
 11
251.4730561938
 21
307.8627032936
  0
LINE
  5
2F1
100
AcDbEntity
  8
0
100
AcDbLine
 62
7
  6
CONTINUOUS
 10
261.8481444374
 20
387.7731127057
 11
261.7846906544
 21
387.1828166111
  0
LINE
  5
2F2
100
AcDbEntity
  8
RUNDUNGEN
100
AcDbLine
 62
7
  6
CONTINUOUS
 10
263.4254277821
 20
283.5627032936
 11
207.9779885048
 21
283.5627032936
  0
LINE
  5
2F3
100
AcDbEntity
  8
0
100
AcDbLine
 62
7
  6
CONTINUOUS
 10
263.4254264846
 20
283.8127032936
 11
206.977768489
 21
283.8127032936
  0
LINE
  5
2F4
100
AcDbEntity
  8
0
100
AcDbLine
 62
7
  6
CONTINUOUS
 10
263.4253997564
 20
288.9627032936
 11
206.977768489
 21
288.9627032936
  0
LINE
  5
2F5
100
AcDbEntity
  8
KONSTRUKTIONSELEMENTE
100
AcDbLine
 62
7
  6
CONTINUOUS
 10
251.874025563
 20
307.6627032936
 11
251.874025563
 21
307.8627032936
  0
LINE
  5
2F6
100
AcDbEntity
  8
BEZUGSACHSEN
100
AcDbLine
 62
7
  6
CONTINUOUS
 10
251.977768489
 20
228.1627032936
 11
251.977768489
 21
181.9627032936
  0
LINE
  5
2F7
100
AcDbEntity
  8
KONSTRUKTIONSELEMENTE
100
AcDbLine
 62
7
  6
CONTINUOUS
 10
252.5242428136
 20
307.6627032936
 11
252.5242428136
 21
307.8627032936
  0
LINE
  5
2F8
100
AcDbEntity
  8
KONSTRUKTIONSELEMENTE
100
AcDbLine
 62
7
  6
CONTINUOUS
 10
253.6458574947
 20
307.6627032936
 11
253.6458574947
 21
307.8627032936
  0
LINE
  5
2F9
100
AcDbEntity
  8
KONSTRUKTIONSELEMENTE
100
AcDbLine
 62
7
  6
CONTINUOUS
 10
254.2418789531
 20
307.6627032936
 11
254.2418789531
 21
307.8627032936
  0
LINE
  5
2FA
100
AcDbEntity
  8
KONSTRUKTIONSELEMENTE
100
AcDbLine
 62
7
  6
CONTINUOUS
 10
254.5886530537
 20
307.6627032936
 11
254.5886530537
 21
307.8627032936
  0
LINE
  5
2FB
100
AcDbEntity
  8
KONSTRUKTIONSELEMENTE
100
AcDbLine
 62
7
  6
CONTINUOUS
 10
255.03295347
 20
307.6627032936
 11
255.03295347
 21
307.8627032936
  0
LINE
  5
2FC
100
AcDbEntity
  8
KONSTRUKTIONSELEMENTE
100
AcDbLine
 62
7
  6
CONTINUOUS
 10
255.325532224
 20
307.6627032936
 11
255.325532224
 21
307.8627032936
  0
LINE
  5
2FD
100
AcDbEntity
  8
KONSTRUKTIONSELEMENTE
100
AcDbLine
 62
7
  6
CONTINUOUS
 10
255.5639159806
 20
307.6627032936
 11
255.5639159806
 21
307.8627032936
  0
LINE
  5
2FE
100
AcDbEntity
  8
0
100
AcDbLine
 62
7
  6
CONTINUOUS
 10
258.227768489
 20
283.8127032936
 11
258.227768489
 21
283.5627032936
  0
LINE
  5
2FF
100
AcDbEntity
  8
0
100
AcDbLine
 62
7
  6
CONTINUOUS
 10
258.227768489
 20
233.5627032936
 11
258.227768489
 21
233.3127032936
  0
LINE
  5
300
100
AcDbEntity
  8
KONSTRUKTIONSELEMENTE
100
AcDbLine
 62
7
  6
CONTINUOUS
 10
258.327768489
 20
288.9627032936
 11
258.327768489
 21
289.4627032936
  0
LINE
  5
301
100
AcDbEntity
  8
BEZUGSACHSEN
100
AcDbLine
 62
7
  6
CONTINUOUS
 10
258.327768489
 20
288.9627032936
 11
258.327768489
 21
289.4627032936
  0
LINE
  5
302
100
AcDbEntity
  8
KONSTRUKTIONSELEMENTE
100
AcDbLine
 62
7
  6
CONTINUOUS
 10
261.7529091122
 20
386.8874612814
 11
261.7277745776
 21
386.1393188526
  0
LINE
  5
303
100
AcDbEntity
  8
KONSTRUKTIONSELEMENTE
100
AcDbLine
 62
7
  6
CONTINUOUS
 10
210.4196561063
 20
289.4627032936
 11
263.425479587
 21
289.4627032936
  0
LINE
  5
304
100
AcDbEntity
  8
KONSTRUKTIONSELEMENTE
100
AcDbLine
 62
7
  6
CONTINUOUS
 10
263.425479587
 20
289.5627032936
 11
264.477768489
 21
289.5627032936
  0
LINE
  5
305
100
AcDbEntity
  8
0
100
AcDbLine
 62
7
  6
CONTINUOUS
 10
281.477768489
 20
289.5627032936
 11
282.5300573911
 21
289.5627032936
  0
LINE
  5
306
100
AcDbEntity
  8
0
100
AcDbLine
 62
7
  6
CONTINUOUS
 10
264.477768489
 20
295.2327032936
 11
263.727768489
 21
295.2327032936
  0
LINE
  5
307
100
AcDbEntity
  8
0
100
AcDbLine
 62
7
  6
CONTINUOUS
 10
264.477768489
 20
296.3577032936
 11
263.727768489
 21
296.3577032936
  0
LINE
  5
308
100
AcDbEntity
  8
RUNDUNGEN
100
AcDbLine
 62
7
  6
CONTINUOUS
 10
263.0758330986
 20
360.0455065974
 11
263.4668047671
 21
352.5853227497
  0
LINE
  5
309
100
AcDbEntity
  8
KONSTRUKTIONSELEMENTE
100
AcDbLine
 62
7
  6
CONTINUOUS
 10
263.0758330986
 20
360.0455065974
 11
261.743186223
 21
385.4739237859
  0
LINE
  5
30A
100
AcDbEntity
  8
0
100
AcDbLine
 62
7
  6
CONTINUOUS
 10
262.4658398286
 20
371.6848715603
 11
261.743186223
 21
385.4739237859
  0
LINE
  5
30B
100
AcDbEntity
  8
KONSTRUKTIONSELEMENTE
100
AcDbLine
 62
7
  6
CONTINUOUS
 10
261.727768489
 20
259.3340292267
 11
261.727768489
 21
258.3127032936
  0
LINE
  5
30C
100
AcDbEntity
  8
0
100
AcDbLine
 62
7
  6
CONTINUOUS
 10
263.477768489
 20
352.1666350999
 11
263.477768489
 21
346.8166378917
  0
LINE
  5
30D
100
AcDbEntity
  8
0
100
AcDbLine
 62
7
  6
CONTINUOUS
 10
263.477768489
 20
327.5627032936
 11
263.477768489
 21
339.9115639567
  0
LINE
  5
30E
100
AcDbEntity
  8
0
100
AcDbLine
 62
7
  6
CONTINUOUS
 10
263.477768489
 20
377.445312056
 11
263.477768489
 21
392.1376540508
  0
LINE
  5
30F
100
AcDbEntity
  8
BEZUGSACHSEN
100
AcDbLine
 62
7
  6
CONTINUOUS
 10
263.5358808717
 20
289.5627032936
 11
263.5358808717
 21
305.6084261517
  0
LINE
  5
310
100
AcDbEntity
  8
0
100
AcDbLine
 62
7
  6
CONTINUOUS
 10
263.727768489
 20
295.2327032936
 11
263.727768489
 21
302.3577034725
  0
LINE
  5
311
100
AcDbEntity
  8
0
100
AcDbLine
 62
7
  6
CONTINUOUS
 10
263.727768489
 20
303.8577031148
 11
263.727768489
 21
310.6077036513
  0
LINE
  5
312
100
AcDbEntity
  8
0
100
AcDbLine
 62
7
  6
CONTINUOUS
 10
263.727768489
 20
312.1077032936
 11
263.727768489
 21
319.6077025784
  0
LINE
  5
313
100
AcDbEntity
  8
0
100
AcDbLine
 62
7
  6
CONTINUOUS
 10
263.977768489
 20
310.0102831824
 11
263.977768489
 21
315.5099956361
  0
LINE
  5
314
100
AcDbEntity
  8
0
100
AcDbLine
 62
7
  6
CONTINUOUS
 10
263.977768489
 20
318.5102831824
 11
263.977768489
 21
324.0099956361
  0
LINE
  5
315
100
AcDbEntity
  8
KONSTRUKTIONSELEMENTE
100
AcDbLine
 62
7
  6
CONTINUOUS
 10
264.477768489
 20
327.5627032936
 11
264.477768489
 21
289.5627032936
  0
LINE
  5
316
100
AcDbEntity
  8
0
100
AcDbLine
 62
7
  6
CONTINUOUS
 10
264.827768489
 20
351.6857775276
 11
264.827768489
 21
333.2460143086
  0
LINE
  5
317
100
AcDbEntity
  8
0
100
AcDbLine
 62
7
  6
CONTINUOUS
 10
266.977768489
 20
233.3127032936
 11
266.977768489
 21
228.1627032936
  0
LINE
  5
318
100
AcDbEntity
  8
KONSTRUKTIONSELEMENTE
100
AcDbLine
 62
7
  6
CONTINUOUS
 10
263.4253966424
 20
289.5627031794
 11
263.4246419209
 21
280.2659442673
  0
LINE
  5
319
100
AcDbEntity
  8
0
100
AcDbLine
 62
7
  6
CONTINUOUS
 10
261.727768489
 20
386.1390412189
 11
261.727768489
 21
386.0624515344
  0
LINE
  5
31A
100
AcDbEntity
  8
KONSTRUKTIONSELEMENTE
100
AcDbLine
 62
7
  6
CONTINUOUS
 10
261.7279196746
 20
386.1727002464
 11
261.7276895669
 21
386.0810039793
  0
LINE
  5
31B
100
AcDbEntity
  8
0
100
AcDbLine
 62
7
  6
CONTINUOUS
 10
261.7279028923
 20
386.1687040888
 11
261.7279183427
 21
386.1724041817
  0
LINE
  5
31C
100
AcDbEntity
  8
KONSTRUKTIONSELEMENTE
100
AcDbLine
 62
7
  6
CONTINUOUS
 10
263.4246419209
 20
280.2659442673
 11
263.4156503839
 21
278.6890133078
  0
LINE
  5
31D
100
AcDbEntity
  8
KONSTRUKTIONSELEMENTE
100
AcDbLine
 62
7
  6
CONTINUOUS
 10
263.4156503839
 20
278.6890133078
 11
263.3965518048
 21
277.1552105405
  0
LINE
  5
31E
100
AcDbEntity
  8
KONSTRUKTIONSELEMENTE
100
AcDbLine
 62
7
  6
CONTINUOUS
 10
263.3965518048
 20
277.1552105405
 11
263.3680522708
 21
275.6721924834
  0
LINE
  5
31F
100
AcDbEntity
  8
KONSTRUKTIONSELEMENTE
100
AcDbLine
 62
7
  6
CONTINUOUS
 10
263.3680522708
 20
275.6721924834
 11
263.3308861708
 21
274.246862257
  0
LINE
  5
320
100
AcDbEntity
  8
KONSTRUKTIONSELEMENTE
100
AcDbLine
 62
7
  6
CONTINUOUS
 10
263.3308861708
 20
274.246862257
 11
263.2858093165
 21
272.8852611118
  0
LINE
  5
321
100
AcDbEntity
  8
KONSTRUKTIONSELEMENTE
100
AcDbLine
 62
7
  6
CONTINUOUS
 10
263.2858093165
 20
272.8852611118
 11
263.2335981088
 21
271.5926176259
  0
LINE
  5
322
100
AcDbEntity
  8
KONSTRUKTIONSELEMENTE
100
AcDbLine
 62
7
  6
CONTINUOUS
 10
263.2335981088
 20
271.5926176259
 11
263.1750763118
 21
270.3739195683
  0
LWPOLYLINE
  5
323
100
AcDbEntity
  8
KONSTRUKTIONSELEMENTE
100
AcDbPolyline
 62
7
  6
CONTINUOUS
 90
22
 70
0
 10
263.1750763118
 20
270.3739195683
 10
263.1111175825
 20
269.2336692736
 10
263.0773763861
 20
268.6940576202
 10
263.0426097803
 20
268.1752517481
 10
263.0069373821
 20
267.6776259377
 10
262.970480268
 20
267.2014933281
 10
262.9333718166
 20
266.7472396581
 10
262.8957476815
 20
266.3151757453
 10
262.8577641828
 20
265.9057381748
 10
262.8195804758
 20
265.5192625485
 10
262.7813922816
 20
265.156304838
 10
262.7433986778
 20
264.8172712537
 10
262.7058611239
 20
264.5029175675
 10
262.6690436826
 20
264.2137625899
 10
262.6333229816
 20
263.9509065602
 10
262.5990597697
 20
263.7149580788
 10
262.5668745493
 20
263.5078437979
 10
262.5373856766
 20
263.3308006725
 10
262.5114480559
 20
263.1857728987
 10
262.4899552956
 20
263.0740651684
 10
262.4741866258
 20
262.9980177167
 10
262.4667992771
 20
262.9647604153
  0
LWPOLYLINE
  5
324
100
AcDbEntity
  8
0
100
AcDbPolyline
 62
7
  6
CONTINUOUS
 90
7
 70
0
 10
262.7423191646
 20
264.8081404077
 10
262.7055009639
 20
264.4999980099
 10
262.668680997
 20
264.2110067499
 10
262.6329626396
 20
263.9483427694
 10
262.5987078993
 20
263.7126172463
 10
262.5665387526
 20
263.5057582443
 10
262.5426251089
 20
263.3622981261
  0
LINE
  5
325
100
AcDbEntity
  8
0
100
AcDbLine
 62
7
  6
CONTINUOUS
 10
264.477768489
 20
299.5452032042
 11
263.727768489
 21
299.5452032042
  0
LINE
  5
326
100
AcDbEntity
  8
0
100
AcDbLine
 62
7
  6
CONTINUOUS
 10
264.477768489
 20
301.0452031148
 11
263.727768489
 21
301.0452031148
  0
LINE
  5
327
100
AcDbEntity
  8
0
100
AcDbLine
 62
7
  6
CONTINUOUS
 10
264.477768489
 20
302.3577034725
 11
263.727768489
 21
302.3577034725
  0
LINE
  5
328
100
AcDbEntity
  8
0
100
AcDbLine
 62
7
  6
CONTINUOUS
 10
264.477768489
 20
303.8577031148
 11
263.727768489
 21
303.8577031148
  0
LINE
  5
329
100
AcDbEntity
  8
0
100
AcDbLine
 62
7
  6
CONTINUOUS
 10
264.477768489
 20
304.0452034725
 11
263.727768489
 21
304.0452034725
  0
LINE
  5
32A
100
AcDbEntity
  8
0
100
AcDbLine
 62
7
  6
CONTINUOUS
 10
264.477768489
 20
304.4202036513
 11
263.727768489
 21
304.4202036513
  0
LINE
  5
32B
100
AcDbEntity
  8
0
100
AcDbLine
 62
7
  6
CONTINUOUS
 10
264.827768489
 20
351.6857775276
 11
263.477768489
 21
377.445312056
  0
LINE
  5
32C
100
AcDbEntity
  8
0
100
AcDbLine
 62
7
  6
CONTINUOUS
 10
264.477768489
 20
305.170202936
 11
263.727768489
 21
305.170202936
  0
LINE
  5
32D
100
AcDbEntity
  8
0
100
AcDbLine
 62
7
  6
CONTINUOUS
 10
264.477768489
 20
305.9202032936
 11
263.727768489
 21
305.9202032936
  0
LINE
  5
32E
100
AcDbEntity
  8
0
100
AcDbLine
 62
7
  6
CONTINUOUS
 10
264.477768489
 20
306.857702936
 11
263.727768489
 21
306.857702936
  0
LINE
  5
32F
100
AcDbEntity
  8
0
100
AcDbLine
 62
7
  6
CONTINUOUS
 10
264.477768489
 20
307.6077032936
 11
263.727768489
 21
307.6077032936
  0
LINE
  5
330
100
AcDbEntity
  8
BEZUGSACHSEN
100
AcDbLine
 62
7
  6
CONTINUOUS
 10
213.9780554625
 20
307.6627032936
 11
259.9774815155
 21
307.6627032936
  0
LINE
  5
331
100
AcDbEntity
  8
KONSTRUKTIONSELEMENTE
100
AcDbLine
 62
7
  6
CONTINUOUS
 10
217.862479497
 20
307.8627032936
 11
232.008968164
 21
307.8627032936
  0
LINE
  5
332
100
AcDbEntity
  8
KONSTRUKTIONSELEMENTE
100
AcDbLine
 62
7
  6
CONTINUOUS
 10
239.9106065008
 20
307.8627032936
 11
255.5639159806
 21
307.8627032936
  0
LINE
  5
333
100
AcDbEntity
  8
0
100
AcDbLine
 62
7
  6
CONTINUOUS
 10
264.477768489
 20
308.545202936
 11
263.727768489
 21
308.545202936
  0
LINE
  5
334
100
AcDbEntity
  8
0
100
AcDbLine
 62
7
  6
CONTINUOUS
 10
264.477768489
 20
309.2952032936
 11
263.727768489
 21
309.2952032936
  0
LINE
  5
335
100
AcDbEntity
  8
0
100
AcDbLine
 62
7
  6
CONTINUOUS
 10
264.477768489
 20
310.0099956361
 11
263.977768489
 21
310.0099956361
  0
LINE
  5
336
100
AcDbEntity
  8
0
100
AcDbLine
 62
7
  6
CONTINUOUS
 10
263.977768489
 20
310.0452036513
 11
263.727768489
 21
310.0452036513
  0
LINE
  5
337
100
AcDbEntity
  8
0
100
AcDbLine
 62
7
  6
CONTINUOUS
 10
263.977768489
 20
310.4202032936
 11
263.727768489
 21
310.4202032936
  0
LINE
  5
338
100
AcDbEntity
  8
0
100
AcDbLine
 62
7
  6
CONTINUOUS
 10
263.977768489
 20
310.6077036513
 11
263.727768489
 21
310.6077036513
  0
LINE
  5
339
100
AcDbEntity
  8
0
100
AcDbLine
 62
7
  6
CONTINUOUS
 10
263.977768489
 20
312.1077032936
 11
263.727768489
 21
312.1077032936
  0
LINE
  5
33A
100
AcDbEntity
  8
BEZUGSACHSEN
100
AcDbLine
 62
7
  6
CONTINUOUS
 10
263.5358808717
 20
305.6084261517
 11
259.977768489
 21
307.6627032936
  0
LINE
  5
33B
100
AcDbEntity
  8
0
100
AcDbLine
 62
7
  6
CONTINUOUS
 10
282.8347550975
 20
269.395477057
 11
282.7688141469
 21
270.6011820972
  0
LINE
  5
33C
100
AcDbEntity
  8
0
100
AcDbLine
 62
7
  6
CONTINUOUS
 10
282.7688141469
 20
270.6011820972
 11
282.7089918972
 21
271.8917792802
  0
LINE
  5
33D
100
AcDbEntity
  8
0
100
AcDbLine
 62
7
  6
CONTINUOUS
 10
282.7089918972
 20
271.8917792802
 11
282.6562919686
 21
273.2615340239
  0
LINE
  5
33E
100
AcDbEntity
  8
0
100
AcDbLine
 62
7
  6
CONTINUOUS
 10
282.6562919686
 20
273.2615340239
 11
282.6116306329
 21
274.7047140949
  0
LINE
  5
33F
100
AcDbEntity
  8
0
100
AcDbLine
 62
7
  6
CONTINUOUS
 10
282.6116306329
 20
274.7047140949
 11
282.5758835943
 21
276.2148561564
  0
LINE
  5
340
100
AcDbEntity
  8
0
100
AcDbLine
 62
7
  6
CONTINUOUS
 10
282.5758835943
 20
276.2148561564
 11
282.5498952988
 21
277.7845415343
  0
LINE
  5
341
100
AcDbEntity
  8
0
100
AcDbLine
 62
7
  6
CONTINUOUS
 10
282.5498952988
 20
277.7845415343
 11
282.534478943
 21
279.4052847803
  0
LINE
  5
342
100
AcDbEntity
  8
0
100
AcDbLine
 62
7
  6
CONTINUOUS
 10
282.534478943
 20
279.4052847803
 11
282.5302588553
 21
280.8114506559
  0
LINE
  5
343
100
AcDbEntity
  8
0
100
AcDbLine
 62
7
  6
CONTINUOUS
 10
281.127768489
 20
351.6857775276
 11
281.127768489
 21
333.2460143086
  0
LINE
  5
344
100
AcDbEntity
  8
0
100
AcDbLine
 62
7
  6
CONTINUOUS
 10
281.477768489
 20
327.5627032936
 11
281.477768489
 21
289.5627032936
  0
LINE
  5
345
100
AcDbEntity
  8
0
100
AcDbLine
 62
7
  6
CONTINUOUS
 10
282.477768489
 20
352.1666350999
 11
282.477768489
 21
346.8166378917
  0
LINE
  5
346
100
AcDbEntity
  8
0
100
AcDbLine
 62
7
  6
CONTINUOUS
 10
282.477768489
 20
327.5627032936
 11
282.477768489
 21
339.9115639567
  0
LINE
  5
347
100
AcDbEntity
  8
0
100
AcDbLine
 62
7
  6
CONTINUOUS
 10
282.477768489
 20
377.445312056
 11
282.477768489
 21
392.1376540512
  0
LINE
  5
348
100
AcDbEntity
  8
0
100
AcDbLine
 62
7
  6
CONTINUOUS
 10
282.5301403356
 20
289.5627031794
 11
282.5300949175
 21
280.8115203596
  0
LINE
  5
349
100
AcDbEntity
  8
0
100
AcDbLine
 62
7
  6
CONTINUOUS
 10
281.127768489
 20
351.6857775276
 11
282.477768489
 21
377.445312056
  0
LINE
  5
34A
100
AcDbEntity
  8
0
100
AcDbLine
 62
7
  6
CONTINUOUS
 10
282.488732211
 20
352.5853227497
 11
284.212350755
 21
385.4739237859
  0
LINE
  5
34B
100
AcDbEntity
  8
0
100
AcDbLine
 62
7
  6
CONTINUOUS
 10
264.477768489
 20
315.5099956361
 11
263.977768489
 21
315.5099956361
  0
LINE
  5
34C
100
AcDbEntity
  8
0
100
AcDbLine
 62
7
  6
CONTINUOUS
 10
264.477768489
 20
316.6077032936
 11
263.727768489
 21
316.6077032936
  0
LINE
  5
34D
100
AcDbEntity
  8
0
100
AcDbLine
 62
7
  6
CONTINUOUS
 10
264.477768489
 20
317.5452040089
 11
263.727768489
 21
317.5452040089
  0
LINE
  5
34E
100
AcDbEntity
  8
0
100
AcDbLine
 62
7
  6
CONTINUOUS
 10
264.477768489
 20
318.2952032936
 11
263.727768489
 21
318.2952032936
  0
LINE
  5
34F
100
AcDbEntity
  8
0
100
AcDbLine
 62
7
  6
CONTINUOUS
 10
264.477768489
 20
318.5099956361
 11
263.977768489
 21
318.5099956361
  0
LINE
  5
350
100
AcDbEntity
  8
0
100
AcDbLine
 62
7
  6
CONTINUOUS
 10
263.977768489
 20
319.0452025784
 11
263.727768489
 21
319.0452025784
  0
LINE
  5
351
100
AcDbEntity
  8
0
100
AcDbLine
 62
7
  6
CONTINUOUS
 10
263.977768489
 20
319.4202032936
 11
263.727768489
 21
319.4202032936
  0
LINE
  5
352
100
AcDbEntity
  8
0
100
AcDbLine
 62
7
  6
CONTINUOUS
 10
263.977768489
 20
319.6077025784
 11
263.727768489
 21
319.6077025784
  0
LWPOLYLINE
  5
353
100
AcDbEntity
  8
0
100
AcDbPolyline
 62
7
  6
CONTINUOUS
 90
6
 70
0
 10
283.4872317718
 20
262.9698066134
 10
283.4910853959
 20
262.9547372938
 10
283.4868514091
 20
262.9730540632
 10
283.473856182
 20
263.0334361793
 10
283.4540756877
 20
263.1328354125
 10
283.4288618641
 20
263.2696478924
  0
LINE
  5
354
100
AcDbEntity
  8
0
100
AcDbLine
 62
7
  6
CONTINUOUS
 10
283.4288618641
 20
263.2696478924
 11
283.3973001183
 21
263.4546999581
  0
LINE
  5
355
100
AcDbEntity
  8
0
100
AcDbLine
 62
7
  6
CONTINUOUS
 10
283.3994947789
 20
263.4413648224
 11
283.3645188303
 21
263.6618807956
  0
LINE
  5
356
100
AcDbEntity
  8
0
100
AcDbLine
 62
7
  6
CONTINUOUS
 10
283.3668580087
 20
263.6466067101
 11
283.3293851298
 21
263.900213849
  0
LINE
  5
357
100
AcDbEntity
  8
0
100
AcDbLine
 62
7
  6
CONTINUOUS
 10
283.3318088182
 20
263.8832374593
 11
283.2924653597
 21
264.1686123843
  0
LINE
  5
358
100
AcDbEntity
  8
0
100
AcDbLine
 62
7
  6
CONTINUOUS
 10
283.2949251349
 20
264.1501569341
 11
283.2543347395
 21
264.465291206
  0
LINE
  5
359
100
AcDbEntity
  8
0
100
AcDbLine
 62
7
  6
CONTINUOUS
 10
283.2567923619
 20
264.4455647341
 11
283.2153382875
 21
264.7896870438
  0
LWPOLYLINE
  5
35A
100
AcDbEntity
  8
0
100
AcDbPolyline
 62
7
  6
CONTINUOUS
 90
11
 70
0
 10
283.2177622822
 20
264.7688906227
 10
283.1781958417
 20
265.1191263836
 10
283.1383585499
 20
265.4957531438
 10
283.0985109549
 20
265.8980339299
 10
283.0588561457
 20
266.3255640272
 10
283.0195936471
 20
266.7777891493
 10
282.9808906238
 20
267.2543501558
 10
282.9429112447
 20
267.7547845746
 10
282.905801508
 20
268.2787339301
 10
282.8697051423
 20
268.8257595132
 10
282.8347550975
 20
269.395477057
  0
LWPOLYLINE
  5
35B
100
AcDbEntity
  8
0
100
AcDbPolyline
 62
7
  6
CONTINUOUS
 90
3
 70
0
 10
284.2277624008
 20
386.1393188762
 10
284.2026819476
 20
386.8866568536
 10
284.1073925977
 20
387.7731123207
  0
LINE
  5
35C
100
AcDbEntity
  8
0
100
AcDbLine
 62
7
  6
CONTINUOUS
 10
284.2278474111
 20
386.0810035458
 11
284.2276204794
 21
386.1720666286
  0
LINE
  5
35D
100
AcDbEntity
  8
0
100
AcDbLine
 62
7
  6
CONTINUOUS
 10
284.227768489
 20
386.1390412231
 11
284.227768489
 21
386.13623292
  0
LINE
  5
35E
100
AcDbEntity
  8
0
100
AcDbLine
 62
7
  6
CONTINUOUS
 10
284.227768489
 20
386.0812170789
 11
284.227768489
 21
386.0624515344
  0
LINE
  5
35F
100
AcDbEntity
  8
0
100
AcDbLine
 62
7
  6
CONTINUOUS
 10
284.227768489
 20
259.3340292267
 11
284.227768489
 21
258.3127032936
  0
LINE
  5
360
100
AcDbEntity
  8
0
100
AcDbLine
 62
7
  6
CONTINUOUS
 10
264.477768489
 20
324.0099956361
 11
263.977768489
 21
324.0099956361
  0
LINE
  5
361
100
AcDbEntity
  8
KONSTRUKTIONSELEMENTE
100
AcDbLine
 62
7
  6
CONTINUOUS
 10
264.477768489
 20
327.5627032936
 11
263.477768489
 21
327.5627032936
  0
LINE
  5
362
100
AcDbEntity
  8
0
100
AcDbLine
 62
7
  6
CONTINUOUS
 10
281.477768489
 20
327.5627032936
 11
282.477768489
 21
327.5627032936
  0
LINE
  5
363
100
AcDbEntity
  8
0
100
AcDbLine
 62
7
  6
CONTINUOUS
 10
284.1071565252
 20
387.7747050901
 11
283.9410500025
 21
388.6512668163
  0
LINE
  5
364
100
AcDbEntity
  8
0
100
AcDbLine
 62
7
  6
CONTINUOUS
 10
283.9408252387
 20
388.6524529186
 11
283.7051044641
 21
389.5128696259
  0
LINE
  5
365
100
AcDbEntity
  8
0
100
AcDbLine
 62
7
  6
CONTINUOUS
 10
283.4019368963
 20
390.3507345426
 11
283.0516128532
 21
391.1243296531
  0
LINE
  5
366
100
AcDbEntity
  8
0
100
AcDbLine
 62
7
  6
CONTINUOUS
 10
283.704679549
 20
389.5144206307
 11
283.4010860585
 21
390.3526133859
  0
LINE
  5
367
100
AcDbEntity
  8
BEZUGSACHSEN
100
AcDbLine
 62
7
  6
CONTINUOUS
 10
251.977768489
 20
181.9627032936
 11
248.977768489
 21
178.9627032936
  0
LINE
  5
368
100
AcDbEntity
  8
0
100
AcDbLine
 62
7
  6
CONTINUOUS
 10
282.477768489
 20
392.1373135743
 11
282.0997671552
 21
392.6926592577
  0
LINE
  5
369
100
AcDbEntity
  8
0
100
AcDbLine
 62
7
  6
CONTINUOUS
 10
281.5506674701
 20
393.3894607059
 11
280.9375295363
 21
394.0509951509
  0
LINE
  5
36A
100
AcDbEntity
  8
0
100
AcDbLine
 62
7
  6
CONTINUOUS
 10
282.1035423671
 20
392.6874531586
 11
281.5459647416
 21
393.3949606269
  0
LINE
  5
36B
100
AcDbEntity
  8
0
100
AcDbLine
 62
7
  6
CONTINUOUS
 10
263.477768489
 20
391.5627032936
 11
263.1425172225
 21
391.5627032936
  0
LINE
  5
36C
100
AcDbEntity
  8
0
100
AcDbLine
 62
7
  6
CONTINUOUS
 10
282.477768489
 20
391.5627032936
 11
282.8130197556
 21
391.5627032936
  0
LINE
  5
36D
100
AcDbEntity
  8
0
100
AcDbLine
 62
7
  6
CONTINUOUS
 10
280.2850349698
 20
394.6508232473
 11
279.5723954243
 21
395.2076995353
  0
LINE
  5
36E
100
AcDbEntity
  8
0
100
AcDbLine
 62
7
  6
CONTINUOUS
 10
280.9432282258
 20
394.0453196291
 11
280.2782850076
 21
394.6565473582
  0
LWPOLYLINE
  5
36F
100
AcDbEntity
  8
0
100
AcDbPolyline
 62
7
  6
CONTINUOUS
 90
14
 70
0
 10
272.9276742819
 20
397.3127032524
 10
272.2089900684
 20
397.2897134427
 10
271.3160173449
 20
397.1965787636
 10
270.433694924
 20
397.0324999006
 10
269.5676927353
 20
396.798575163
 10
268.7235527314
 20
396.49635781
 10
267.9066660765
 20
396.1278440341
 10
267.1222651386
 20
395.6954735639
 10
266.37529918
 20
395.2020613385
 10
265.6705020427
 20
394.6508232766
 10
265.0123087856
 20
394.0453196624
 10
264.4048695436
 20
393.3894607476
 10
263.8519946519
 20
392.6874532151
 10
263.477768489
 20
392.1373135743
  0
LWPOLYLINE
  5
370
100
AcDbEntity
  8
KONSTRUKTIONSELEMENTE
100
AcDbPolyline
 62
7
  6
CONTINUOUS
 90
14
 70
0
 10
272.9276744446
 20
397.3127032524
 10
272.2243120217
 20
397.2906843082
 10
271.3304043787
 20
397.1986538232
 10
270.4470745952
 20
397.0355372941
 10
269.580009355
 20
396.8024288804
 10
268.7347674549
 20
396.5008794994
 10
267.9167568463
 20
396.1328847707
 10
267.1312266062
 20
395.7008856374
 10
266.3831419935
 20
395.2076998512
 10
265.6772524476
 20
394.6565477625
 10
265.0180079385
 20
394.0509956453
 10
264.4095727331
 20
393.3949612074
 10
263.8557702998
 20
392.6926599151
 10
263.477768489
 20
392.1373135743
  0
LINE
  5
371
100
AcDbEntity
  8
KONSTRUKTIONSELEMENTE
100
AcDbLine
 62
7
  6
CONTINUOUS
 10
273.0281638624
 20
397.3127032936
 11
272.9273731156
 21
397.3127032936
  0
LINE
  5
372
100
AcDbEntity
  8
0
100
AcDbLine
 62
7
  6
CONTINUOUS
 10
273.7465469368
 20
397.289713441
 11
273.0278626962
 21
397.3127032524
  0
LINE
  5
373
100
AcDbEntity
  8
0
100
AcDbLine
 62
7
  6
CONTINUOUS
 10
274.639519679
 20
397.196578757
 11
273.7312249797
 21
397.2906843067
  0
LINE
  5
374
100
AcDbEntity
  8
0
100
AcDbLine
 62
7
  6
CONTINUOUS
 10
275.5218421092
 20
397.032499888
 11
274.6251326622
 21
397.1986538142
  0
LINE
  5
375
100
AcDbEntity
  8
0
100
AcDbLine
 62
7
  6
CONTINUOUS
 10
276.3878443006
 20
396.7985751449
 11
275.5084625021
 21
397.0355372671
  0
LINE
  5
376
100
AcDbEntity
  8
0
100
AcDbLine
 62
7
  6
CONTINUOUS
 10
277.2319843022
 20
396.4963577876
 11
276.3755278082
 21
396.8024288226
  0
LINE
  5
377
100
AcDbEntity
  8
0
100
AcDbLine
 62
7
  6
CONTINUOUS
 10
278.0488709519
 20
396.1278440089
 11
277.2207697787
 21
396.5008793965
  0
LINE
  5
378
100
AcDbEntity
  8
0
100
AcDbLine
 62
7
  6
CONTINUOUS
 10
278.8332718835
 20
395.6954735372
 11
278.0387804565
 21
396.1328846086
  0
LINE
  5
379
100
AcDbEntity
  8
0
100
AcDbLine
 62
7
  6
CONTINUOUS
 10
279.5802378363
 20
395.2020613109
 11
278.8243107596
 21
395.7008854035
  0
LINE
  5
37A
100
AcDbEntity
  8
BEZUGSACHSEN
100
AcDbLine
 62
7
  6
CONTINUOUS
 10
376.8532231575
 20
178.9627032936
 11
400.8532231575
 21
178.9627032936
  0
LINE
  5
37B
100
AcDbEntity
  8
BEZUGSACHSEN
100
AcDbLine
 62
7
  6
CONTINUOUS
 10
373.8532231575
 20
181.9627032936
 11
403.8532231575
 21
181.9627032936
  0
LINE
  5
37C
100
AcDbEntity
  8
0
100
AcDbLine
 62
7
  6
CONTINUOUS
 10
388.8532231575
 20
391.5627032936
 11
354.6151885709
 21
380.4380914961
  0
LINE
  5
37D
100
AcDbEntity
  8
BEZUGSACHSEN
100
AcDbLine
 62
7
  6
CONTINUOUS
 10
376.8532231575
 20
178.9627032936
 11
373.8532231575
 21
181.9627032936
  0
LINE
  5
37E
100
AcDbEntity
  8
0
100
AcDbLine
 62
7
  6
CONTINUOUS
 10
343.2175387544
 20
357.0694462924
 11
354.6151885709
 21
380.4380914961
  0
LINE
  5
37F
100
AcDbEntity
  8
0
100
AcDbLine
 62
7
  6
CONTINUOUS
 10
341.75556748
 20
333.2460143086
 11
348.9514259471
 21
342.1321594684
  0
LINE
  5
380
100
AcDbEntity
  8
0
100
AcDbLine
 62
7
  6
CONTINUOUS
 10
342.9976911741
 20
318.2952032936
 11
342.6147124964
 21
317.5452040089
  0
LINE
  5
381
100
AcDbEntity
  8
0
100
AcDbLine
 62
7
  6
CONTINUOUS
 10
343.7636485296
 20
317.3577025784
 11
344.1466272074
 21
317.9202025784
  0
LINE
  5
382
100
AcDbEntity
  8
0
100
AcDbLine
 62
7
  6
CONTINUOUS
 10
358.8532231575
 20
228.1627032936
 11
418.8532231575
 21
228.1627032936
  0
LINE
  5
383
100
AcDbEntity
  8
0
100
AcDbLine
 62
7
  6
CONTINUOUS
 10
337.3532231575
 20
360.5372862851
 11
337.3532231575
 21
269.3127032936
  0
LINE
  5
384
100
AcDbEntity
  8
0
100
AcDbLine
 62
7
  6
CONTINUOUS
 10
341.75556748
 20
351.6857775276
 11
341.75556748
 21
333.2460143086
  0
LINE
  5
385
100
AcDbEntity
  8
0
100
AcDbLine
 62
7
  6
CONTINUOUS
 10
342.4232231575
 20
316.6077032936
 11
342.4232231575
 21
312.1077032936
  0
LINE
  5
386
100
AcDbEntity
  8
0
100
AcDbLine
 62
7
  6
CONTINUOUS
 10
342.4232231575
 20
310.6077036513
 11
342.4232231575
 21
309.4827036513
  0
LINE
  5
387
100
AcDbEntity
  8
0
100
AcDbLine
 62
7
  6
CONTINUOUS
 10
342.4232231575
 20
304.9827036513
 11
342.4232231575
 21
303.8577031148
  0
LINE
  5
388
100
AcDbEntity
  8
0
100
AcDbLine
 62
7
  6
CONTINUOUS
 10
342.4232231575
 20
299.7327032936
 11
342.4232231575
 21
295.2327032936
  0
LINE
  5
389
100
AcDbEntity
  8
0
100
AcDbLine
 62
7
  6
CONTINUOUS
 10
343.3806698519
 20
296.3577032936
 11
343.3806698519
 21
299.9202031148
  0
LINE
  5
38A
100
AcDbEntity
  8
0
100
AcDbLine
 62
7
  6
CONTINUOUS
 10
343.5721591908
 20
313.2327032936
 11
343.5721591908
 21
316.6077032936
  0
LINE
  5
38B
100
AcDbEntity
  8
0
100
AcDbLine
 62
7
  6
CONTINUOUS
 10
342.6147124964
 20
317.5452040089
 11
342.4232231575
 21
316.6077032936
  0
LINE
  5
38C
100
AcDbEntity
  8
0
100
AcDbLine
 62
7
  6
CONTINUOUS
 10
342.6147124964
 20
300.6702034725
 11
342.4232231575
 21
299.7327032936
  0
LINE
  5
38D
100
AcDbEntity
  8
0
100
AcDbLine
 62
7
  6
CONTINUOUS
 10
343.5721591908
 20
316.6077032936
 11
343.7636485296
 21
317.3577025784
  0
LINE
  5
38E
100
AcDbEntity
  8
0
100
AcDbLine
 62
7
  6
CONTINUOUS
 10
343.3806698519
 20
299.9202031148
 11
343.5721591908
 21
300.4827031148
  0
LINE
  5
38F
100
AcDbEntity
  8
0
100
AcDbLine
 62
7
  6
CONTINUOUS
 10
343.7636485296
 20
319.0452025784
 11
342.9976911741
 21
318.2952032936
  0
LINE
  5
390
100
AcDbEntity
  8
0
100
AcDbLine
 62
7
  6
CONTINUOUS
 10
344.1466272074
 20
317.9202025784
 11
344.7210957605
 21
318.2952032936
  0
LINE
  5
391
100
AcDbEntity
  8
0
100
AcDbLine
 62
7
  6
CONTINUOUS
 10
344.5296058851
 20
319.4202032936
 11
343.7636485296
 21
319.0452025784
  0
LINE
  5
392
100
AcDbEntity
  8
0
100
AcDbLine
 62
7
  6
CONTINUOUS
 10
358.8532231575
 20
233.3127032936
 11
418.8532231575
 21
233.3127032936
  0
LINE
  5
393
100
AcDbEntity
  8
RUNDUNGEN
100
AcDbLine
 62
7
  6
CONTINUOUS
 10
361.8532231575
 20
233.5627032936
 11
415.8532231575
 21
233.5627032936
  0
LINE
  5
394
100
AcDbEntity
  8
0
100
AcDbLine
 62
7
  6
CONTINUOUS
 10
386.529056769
 20
239.6690862746
 11
385.7998899633
 21
239.6690862746
  0
LINE
  5
395
100
AcDbEntity
  8
0
100
AcDbLine
 62
7
  6
CONTINUOUS
 10
381.7165565604
 20
240.5627032936
 11
380.987389859
 21
240.7116394591
  0
LINE
  5
396
100
AcDbEntity
  8
0
100
AcDbLine
 62
7
  6
CONTINUOUS
 10
346.2530104715
 20
299.9202031148
 11
346.2530104715
 21
296.3577032936
  0
LINE
  5
397
100
AcDbEntity
  8
0
100
AcDbLine
 62
7
  6
CONTINUOUS
 10
347.4019465047
 20
296.3577032936
 11
347.4019465047
 21
299.5452032042
  0
LINE
  5
398
100
AcDbEntity
  8
0
100
AcDbLine
 62
7
  6
CONTINUOUS
 10
350.2742869902
 20
316.6077032936
 11
350.2742869902
 21
313.2327032936
  0
LINE
  5
399
100
AcDbEntity
  8
0
100
AcDbLine
 62
7
  6
CONTINUOUS
 10
350.2742869902
 20
307.6077032936
 11
350.2742869902
 21
306.857702936
  0
LINE
  5
39A
100
AcDbEntity
  8
0
100
AcDbLine
 62
7
  6
CONTINUOUS
 10
351.4232231575
 20
295.2327032936
 11
351.4232231575
 21
296.3577032936
  0
LINE
  5
39B
100
AcDbEntity
  8
0
100
AcDbLine
 62
7
  6
CONTINUOUS
 10
351.4232231575
 20
301.0452031148
 11
351.4232231575
 21
302.3577034725
  0
LINE
  5
39C
100
AcDbEntity
  8
0
100
AcDbLine
 62
7
  6
CONTINUOUS
 10
351.4232231575
 20
306.857702936
 11
351.4232231575
 21
307.6077032936
  0
LINE
  5
39D
100
AcDbEntity
  8
0
100
AcDbLine
 62
7
  6
CONTINUOUS
 10
351.4232231575
 20
312.1077032936
 11
351.4232231575
 21
316.6077032936
  0
LINE
  5
39E
100
AcDbEntity
  8
0
100
AcDbLine
 62
7
  6
CONTINUOUS
 10
351.2317338019
 20
305.9202032936
 11
351.4232231575
 21
306.857702936
  0
LINE
  5
39F
100
AcDbEntity
  8
0
100
AcDbLine
 62
7
  6
CONTINUOUS
 10
350.2742869902
 20
306.857702936
 11
350.0827976513
 21
306.1077036513
  0
LINE
  5
3A0
100
AcDbEntity
  8
0
100
AcDbLine
 62
7
  6
CONTINUOUS
 10
350.8487550738
 20
305.170202936
 11
351.2317338019
 21
305.9202032936
  0
LINE
  5
3A1
100
AcDbEntity
  8
0
100
AcDbLine
 62
7
  6
CONTINUOUS
 10
350.0827976513
 20
306.1077036513
 11
349.6998188394
 21
305.5452036513
  0
LINE
  5
3A2
100
AcDbEntity
  8
0
100
AcDbLine
 62
7
  6
CONTINUOUS
 10
343.189180513
 20
301.4202032936
 11
342.6147124964
 21
300.6702034725
  0
LINE
  5
3A3
100
AcDbEntity
  8
0
100
AcDbLine
 62
7
  6
CONTINUOUS
 10
343.5721591908
 20
300.4827031148
 11
343.9551378685
 21
300.8577032936
  0
LINE
  5
3A4
100
AcDbEntity
  8
0
100
AcDbLine
 62
7
  6
CONTINUOUS
 10
350.0827976513
 20
304.4202036513
 11
350.8487550738
 21
305.170202936
  0
LINE
  5
3A5
100
AcDbEntity
  8
0
100
AcDbLine
 62
7
  6
CONTINUOUS
 10
383.1748899633
 20
240.7116394591
 11
382.4457231575
 21
240.5627032936
  0
LINE
  5
3A6
100
AcDbEntity
  8
0
100
AcDbLine
 62
7
  6
CONTINUOUS
 10
381.7165565604
 20
245.0307882846
 11
380.987389859
 21
244.8818521322
  0
LINE
  5
3A7
100
AcDbEntity
  8
0
100
AcDbLine
 62
7
  6
CONTINUOUS
 10
390.904056769
 20
240.5627032936
 11
390.029056769
 21
240.5627032936
  0
LINE
  5
3A8
100
AcDbEntity
  8
0
100
AcDbLine
 62
7
  6
CONTINUOUS
 10
382.4457231575
 20
240.5627032936
 11
381.7165565604
 21
240.5627032936
  0
LINE
  5
3A9
100
AcDbEntity
  8
0
100
AcDbLine
 62
7
  6
CONTINUOUS
 10
387.404056769
 20
241.3073841602
 11
386.674889546
 21
241.3073841602
  0
LINE
  5
3AA
100
AcDbEntity
  8
0
100
AcDbLine
 62
7
  6
CONTINUOUS
 10
382.5915565604
 20
241.3073841602
 11
381.5707231575
 21
241.3073841602
  0
LINE
  5
3AB
100
AcDbEntity
  8
0
100
AcDbLine
 62
7
  6
CONTINUOUS
 10
382.5915565604
 20
244.2861075223
 11
381.5707231575
 21
244.2861075223
  0
LINE
  5
3AC
100
AcDbEntity
  8
0
100
AcDbLine
 62
7
  6
CONTINUOUS
 10
398.4873903805
 20
244.7329159797
 11
396.8832231575
 21
244.7329159797
  0
LINE
  5
3AD
100
AcDbEntity
  8
0
100
AcDbLine
 62
7
  6
CONTINUOUS
 10
396.1540559345
 20
244.7329159797
 11
394.9873903805
 21
244.7329159797
  0
LINE
  5
3AE
100
AcDbEntity
  8
0
100
AcDbLine
 62
7
  6
CONTINUOUS
 10
382.4457231575
 20
245.0307882846
 11
381.7165565604
 21
245.0307882846
  0
LINE
  5
3AF
100
AcDbEntity
  8
0
100
AcDbLine
 62
7
  6
CONTINUOUS
 10
398.4873903805
 20
245.3286605895
 11
396.8832231575
 21
245.3286605895
  0
LINE
  5
3B0
100
AcDbEntity
  8
0
100
AcDbLine
 62
7
  6
CONTINUOUS
 10
396.1540559345
 20
245.3286605895
 11
394.9873903805
 21
245.3286605895
  0
LINE
  5
3B1
100
AcDbEntity
  8
0
100
AcDbLine
 62
7
  6
CONTINUOUS
 10
384.3415563518
 20
245.9244056166
 11
383.6123899633
 21
245.9244056166
  0
LINE
  5
3B2
100
AcDbEntity
  8
0
100
AcDbLine
 62
7
  6
CONTINUOUS
 10
396.8832231575
 20
246.5201502264
 11
396.1540559345
 21
246.5201502264
  0
LINE
  5
3B3
100
AcDbEntity
  8
0
100
AcDbLine
 62
7
  6
CONTINUOUS
 10
382.4457231575
 20
246.8180225314
 11
381.5707231575
 21
246.8180225314
  0
LINE
  5
3B4
100
AcDbEntity
  8
0
100
AcDbLine
 62
7
  6
CONTINUOUS
 10
388.5707231575
 20
246.8180225314
 11
392.9457231575
 21
246.8180225314
  0
LINE
  5
3B5
100
AcDbEntity
  8
0
100
AcDbLine
 62
7
  6
CONTINUOUS
 10
393.8207231575
 20
247.5627032936
 11
388.5707231575
 21
247.5627032936
  0
LINE
  5
3B6
100
AcDbEntity
  8
0
100
AcDbLine
 62
7
  6
CONTINUOUS
 10
382.2998897546
 20
247.5627032936
 11
381.7165565604
 21
247.5627032936
  0
LINE
  5
3B7
100
AcDbEntity
  8
0
100
AcDbLine
 62
7
  6
CONTINUOUS
 10
398.1957231575
 20
240.5627032936
 11
397.3207231575
 21
240.7116394591
  0
LINE
  5
3B8
100
AcDbEntity
  8
0
100
AcDbLine
 62
7
  6
CONTINUOUS
 10
398.1957231575
 20
241.1584479556
 11
397.4665559345
 21
241.3073841602
  0
LINE
  5
3B9
100
AcDbEntity
  8
0
100
AcDbLine
 62
7
  6
CONTINUOUS
 10
383.1748899633
 20
244.8818521322
 11
382.4457231575
 21
245.0307882846
  0
LINE
  5
3BA
100
AcDbEntity
  8
0
100
AcDbLine
 62
7
  6
CONTINUOUS
 10
383.0290563518
 20
247.4137671412
 11
382.2998897546
 21
247.5627032936
  0
LINE
  5
3BB
100
AcDbEntity
  8
0
100
AcDbLine
 62
7
  6
CONTINUOUS
 10
381.5707231575
 20
241.3073841602
 11
381.1332231575
 21
241.4563203127
  0
LINE
  5
3BC
100
AcDbEntity
  8
0
100
AcDbLine
 62
7
  6
CONTINUOUS
 10
383.0290563518
 20
244.1371713699
 11
382.5915565604
 21
244.2861075223
  0
LINE
  5
3BD
100
AcDbEntity
  8
0
100
AcDbLine
 62
7
  6
CONTINUOUS
 10
397.3207231575
 20
240.7116394591
 11
396.8832231575
 21
240.8605756246
  0
LINE
  5
3BE
100
AcDbEntity
  8
0
100
AcDbLine
 62
7
  6
CONTINUOUS
 10
382.8832231575
 20
246.6690863789
 11
382.4457231575
 21
246.8180225314
  0
LINE
  5
3BF
100
AcDbEntity
  8
0
100
AcDbLine
 62
7
  6
CONTINUOUS
 10
380.987389859
 20
240.7116394591
 11
380.2582231575
 21
241.1584479556
  0
LINE
  5
3C0
100
AcDbEntity
  8
0
100
AcDbLine
 62
7
  6
CONTINUOUS
 10
383.9040563518
 20
244.4350436748
 11
383.1748899633
 21
244.8818521322
  0
LINE
  5
3C1
100
AcDbEntity
  8
0
100
AcDbLine
 62
7
  6
CONTINUOUS
 10
381.1332231575
 20
241.4563203127
 11
380.6957231575
 21
241.7541926176
  0
LINE
  5
3C2
100
AcDbEntity
  8
0
100
AcDbLine
 62
7
  6
CONTINUOUS
 10
383.4665563518
 20
243.839299065
 11
383.0290563518
 21
244.1371713699
  0
LINE
  5
3C3
100
AcDbEntity
  8
0
100
AcDbLine
 62
7
  6
CONTINUOUS
 10
356.3532231575
 20
280.8127032936
 11
356.3532231575
 21
356.1518376758
  0
LINE
  5
3C4
100
AcDbEntity
  8
0
100
AcDbLine
 62
7
  6
CONTINUOUS
 10
358.8532231575
 20
288.9627032936
 11
358.8532231575
 21
283.8127032936
  0
LINE
  5
3C5
100
AcDbEntity
  8
0
100
AcDbLine
 62
7
  6
CONTINUOUS
 10
358.8532231575
 20
233.3127032936
 11
358.8532231575
 21
228.1627032936
  0
LINE
  5
3C6
100
AcDbEntity
  8
RUNDUNGEN
100
AcDbLine
 62
7
  6
CONTINUOUS
 10
358.8532231575
 20
236.5627032936
 11
358.8532231575
 21
280.5627032936
  0
LINE
  5
3C7
100
AcDbEntity
  8
0
100
AcDbLine
 62
7
  6
CONTINUOUS
 10
358.8532231575
 20
236.5627032936
 11
358.8532231575
 21
280.5627032936
  0
LINE
  5
3C8
100
AcDbEntity
  8
0
100
AcDbLine
 62
7
  6
CONTINUOUS
 10
343.9551378685
 20
301.9827032936
 11
343.189180513
 21
301.4202032936
  0
LINE
  5
3C9
100
AcDbEntity
  8
0
100
AcDbLine
 62
7
  6
CONTINUOUS
 10
349.6998188394
 20
305.5452036513
 11
349.1253508228
 21
305.170202936
  0
LINE
  5
3CA
100
AcDbEntity
  8
0
100
AcDbLine
 62
7
  6
CONTINUOUS
 10
349.3168401617
 20
304.0452034725
 11
350.0827976513
 21
304.4202036513
  0
LINE
  5
3CB
100
AcDbEntity
  8
0
100
AcDbLine
 62
7
  6
CONTINUOUS
 10
414.8323887116
 20
255.0952564652
 11
414.2490576035
 21
254.9463203127
  0
LINE
  5
3CC
100
AcDbEntity
  8
0
100
AcDbLine
 62
7
  6
CONTINUOUS
 10
408.1240576035
 20
255.0952564652
 11
407.5407231575
 21
254.9463203127
  0
LINE
  5
3CD
100
AcDbEntity
  8
0
100
AcDbLine
 62
7
  6
CONTINUOUS
 10
413.3740576035
 20
261.0527032936
 11
412.7907231575
 21
260.9037671412
  0
LINE
  5
3CE
100
AcDbEntity
  8
0
100
AcDbLine
 62
7
  6
CONTINUOUS
 10
414.9782231575
 20
254.2016394591
 11
414.2490576035
 21
254.0527032936
  0
LINE
  5
3CF
100
AcDbEntity
  8
0
100
AcDbLine
 62
7
  6
CONTINUOUS
 10
381.7165565604
 20
247.5627032936
 11
380.987389859
 21
247.4137671412
  0
LINE
  5
3D0
100
AcDbEntity
  8
0
100
AcDbLine
 62
7
  6
CONTINUOUS
 10
408.2698887116
 20
254.2016394591
 11
407.5407231575
 21
254.0527032936
  0
LINE
  5
3D1
100
AcDbEntity
  8
0
100
AcDbLine
 62
7
  6
CONTINUOUS
 10
385.9573903805
 20
254.2016394591
 11
385.2282231575
 21
254.0527032936
  0
LINE
  5
3D2
100
AcDbEntity
  8
0
100
AcDbLine
 62
7
  6
CONTINUOUS
 10
414.2490576035
 20
254.0527032936
 11
413.0823887116
 21
254.0527032936
  0
LINE
  5
3D3
100
AcDbEntity
  8
0
100
AcDbLine
 62
7
  6
CONTINUOUS
 10
407.5407231575
 20
254.0527032936
 11
406.9573887116
 21
254.0527032936
  0
LINE
  5
3D4
100
AcDbEntity
  8
0
100
AcDbLine
 62
7
  6
CONTINUOUS
 10
403.4573887116
 20
254.0527032936
 11
398.2073887116
 21
254.0527032936
  0
LINE
  5
3D5
100
AcDbEntity
  8
0
100
AcDbLine
 62
7
  6
CONTINUOUS
 10
392.5198887116
 20
254.0527032936
 11
391.6448887116
 21
254.0527032936
  0
LINE
  5
3D6
100
AcDbEntity
  8
0
100
AcDbLine
 62
7
  6
CONTINUOUS
 10
385.2282231575
 20
254.0527032936
 11
383.9157231575
 21
254.0527032936
  0
LINE
  5
3D7
100
AcDbEntity
  8
0
100
AcDbLine
 62
7
  6
CONTINUOUS
 10
378.5198903805
 20
254.0527032936
 11
375.019889546
 21
254.0527032936
  0
LINE
  5
3D8
100
AcDbEntity
  8
0
100
AcDbLine
 62
7
  6
CONTINUOUS
 10
373.8532231575
 20
254.0527032936
 11
368.6032231575
 21
254.0527032936
  0
LINE
  5
3D9
100
AcDbEntity
  8
0
100
AcDbLine
 62
7
  6
CONTINUOUS
 10
365.1032231575
 20
254.0527032936
 11
363.9365565604
 21
254.0527032936
  0
LINE
  5
3DA
100
AcDbEntity
  8
0
100
AcDbLine
 62
7
  6
CONTINUOUS
 10
414.2490576035
 20
254.9463203127
 11
413.0823887116
 21
254.9463203127
  0
LINE
  5
3DB
100
AcDbEntity
  8
0
100
AcDbLine
 62
7
  6
CONTINUOUS
 10
407.5407231575
 20
254.9463203127
 11
406.9573887116
 21
254.9463203127
  0
LINE
  5
3DC
100
AcDbEntity
  8
0
100
AcDbLine
 62
7
  6
CONTINUOUS
 10
403.4573887116
 20
254.9463203127
 11
399.0823887116
 21
254.9463203127
  0
LINE
  5
3DD
100
AcDbEntity
  8
0
100
AcDbLine
 62
7
  6
CONTINUOUS
 10
385.2282231575
 20
254.9463203127
 11
383.9157231575
 21
254.9463203127
  0
LINE
  5
3DE
100
AcDbEntity
  8
0
100
AcDbLine
 62
7
  6
CONTINUOUS
 10
378.6657231575
 20
254.9463203127
 11
375.8948903805
 21
254.9463203127
  0
LINE
  5
3DF
100
AcDbEntity
  8
0
100
AcDbLine
 62
7
  6
CONTINUOUS
 10
373.8532231575
 20
254.9463203127
 11
369.4782231575
 21
254.9463203127
  0
LINE
  5
3E0
100
AcDbEntity
  8
0
100
AcDbLine
 62
7
  6
CONTINUOUS
 10
411.9157231575
 20
255.9888734842
 11
411.0407231575
 21
255.9888734842
  0
LINE
  5
3E1
100
AcDbEntity
  8
0
100
AcDbLine
 62
7
  6
CONTINUOUS
 10
388.4365559345
 20
256.5846180941
 11
390.4782231575
 21
256.5846180941
  0
LINE
  5
3E2
100
AcDbEntity
  8
0
100
AcDbLine
 62
7
  6
CONTINUOUS
 10
383.9157231575
 20
254.0527032936
 11
383.1865559345
 21
254.2016394591
  0
LINE
  5
3E3
100
AcDbEntity
  8
0
100
AcDbLine
 62
7
  6
CONTINUOUS
 10
383.9157231575
 20
254.9463203127
 11
383.3323903805
 21
255.0952564652
  0
LINE
  5
3E4
100
AcDbEntity
  8
0
100
AcDbLine
 62
7
  6
CONTINUOUS
 10
379.1032231575
 20
257.03142676
 11
378.6657231575
 21
257.1803629125
  0
LINE
  5
3E5
100
AcDbEntity
  8
0
100
AcDbLine
 62
7
  6
CONTINUOUS
 10
383.1865559345
 20
254.2016394591
 11
382.6032231575
 21
254.4995118032
  0
LINE
  5
3E6
100
AcDbEntity
  8
0
100
AcDbLine
 62
7
  6
CONTINUOUS
 10
379.8323903805
 20
257.4782352174
 11
379.5407231575
 21
257.6271713699
  0
LINE
  5
3E7
100
AcDbEntity
  8
0
100
AcDbLine
 62
7
  6
CONTINUOUS
 10
383.7582231575
 20
246.9669586838
 11
383.0290563518
 21
247.4137671412
  0
LINE
  5
3E8
100
AcDbEntity
  8
0
100
AcDbLine
 62
7
  6
CONTINUOUS
 10
383.3207231575
 20
246.371214074
 11
382.8832231575
 21
246.6690863789
  0
LINE
  5
3E9
100
AcDbEntity
  8
0
100
AcDbLine
 62
7
  6
CONTINUOUS
 10
396.8832231575
 20
240.8605756246
 11
396.4457231575
 21
241.1584479556
  0
LINE
  5
3EA
100
AcDbEntity
  8
0
100
AcDbLine
 62
7
  6
CONTINUOUS
 10
397.4665559345
 20
241.3073841602
 11
397.0290559345
 21
241.6052564652
  0
LINE
  5
3EB
100
AcDbEntity
  8
0
100
AcDbLine
 62
7
  6
CONTINUOUS
 10
383.3323903805
 20
255.0952564652
 11
382.8948903805
 21
255.3931288744
  0
LINE
  5
3EC
100
AcDbEntity
  8
0
100
AcDbLine
 62
7
  6
CONTINUOUS
 10
383.7582231575
 20
243.54142676
 11
383.4665563518
 21
243.839299065
  0
LINE
  5
3ED
100
AcDbEntity
  8
0
100
AcDbLine
 62
7
  6
CONTINUOUS
 10
384.3415563518
 20
243.9882352174
 11
383.9040563518
 21
244.4350436748
  0
LINE
  5
3EE
100
AcDbEntity
  8
0
100
AcDbLine
 62
7
  6
CONTINUOUS
 10
380.2582231575
 20
241.1584479556
 11
379.8207231575
 21
241.7541926176
  0
LINE
  5
3EF
100
AcDbEntity
  8
0
100
AcDbLine
 62
7
  6
CONTINUOUS
 10
380.6957231575
 20
241.7541926176
 11
380.4040564561
 21
242.2010011793
  0
LINE
  5
3F0
100
AcDbEntity
  8
0
100
AcDbLine
 62
7
  6
CONTINUOUS
 10
347.018967827
 20
300.6702034725
 11
346.6359891492
 21
301.4202032936
  0
LINE
  5
3F1
100
AcDbEntity
  8
0
100
AcDbLine
 62
7
  6
CONTINUOUS
 10
346.0615211326
 20
300.4827031148
 11
346.2530104715
 21
299.9202031148
  0
LINE
  5
3F2
100
AcDbEntity
  8
0
100
AcDbLine
 62
7
  6
CONTINUOUS
 10
364.5198897546
 20
254.9463203127
 11
362.4782231575
 21
261.0527032936
  0
LINE
  5
3F3
100
AcDbEntity
  8
0
100
AcDbLine
 62
7
  6
CONTINUOUS
 10
363.9365565604
 20
254.0527032936
 11
361.6032231575
 21
261.0527032936
  0
LINE
  5
3F4
100
AcDbEntity
  8
0
100
AcDbLine
 62
7
  6
CONTINUOUS
 10
350.0827976513
 20
308.3577036513
 11
350.2742869902
 21
307.6077032936
  0
LINE
  5
3F5
100
AcDbEntity
  8
0
100
AcDbLine
 62
7
  6
CONTINUOUS
 10
350.0827976513
 20
317.3577025784
 11
350.2742869902
 21
316.6077032936
  0
LINE
  5
3F6
100
AcDbEntity
  8
0
100
AcDbLine
 62
7
  6
CONTINUOUS
 10
351.4232231575
 20
307.6077032936
 11
351.2317338019
 21
308.545202936
  0
LINE
  5
3F7
100
AcDbEntity
  8
0
100
AcDbLine
 62
7
  6
CONTINUOUS
 10
351.4232231575
 20
316.6077032936
 11
351.2317338019
 21
317.5452040089
  0
LINE
  5
3F8
100
AcDbEntity
  8
BEZUGSACHSEN
100
AcDbLine
 62
7
  6
CONTINUOUS
 10
365.8532231575
 20
289.4627032936
 11
365.8532231575
 21
307.6627032937
  0
LINE
  5
3F9
100
AcDbEntity
  8
BEZUGSACHSEN
100
AcDbLine
 62
7
  6
CONTINUOUS
 10
367.5032231575
 20
288.9627032936
 11
367.5032231575
 21
289.4627032936
  0
LINE
  5
3FA
100
AcDbEntity
  8
0
100
AcDbLine
 62
7
  6
CONTINUOUS
 10
367.6032231575
 20
283.8127032936
 11
367.6032231575
 21
283.5627032936
  0
LINE
  5
3FB
100
AcDbEntity
  8
0
100
AcDbLine
 62
7
  6
CONTINUOUS
 10
367.6032231575
 20
233.5627032936
 11
367.6032231575
 21
233.3127032936
  0
LINE
  5
3FC
100
AcDbEntity
  8
0
100
AcDbLine
 62
7
  6
CONTINUOUS
 10
351.4232231575
 20
302.3577034725
 11
347.018967827
 21
300.6702034725
  0
LINE
  5
3FD
100
AcDbEntity
  8
0
100
AcDbLine
 62
7
  6
CONTINUOUS
 10
347.4019465047
 20
299.5452032042
 11
351.4232231575
 21
301.0452031148
  0
LINE
  5
3FE
100
AcDbEntity
  8
0
100
AcDbLine
 62
7
  6
CONTINUOUS
 10
344.5296058851
 20
302.1702031148
 11
343.9551378685
 21
301.9827032936
  0
LINE
  5
3FF
100
AcDbEntity
  8
0
100
AcDbLine
 62
7
  6
CONTINUOUS
 10
343.9551378685
 20
300.8577032936
 11
344.5296058851
 21
301.0452031148
  0
LINE
  5
400
100
AcDbEntity
  8
0
100
AcDbLine
 62
7
  6
CONTINUOUS
 10
385.8115559345
 20
255.0952564652
 11
385.2282231575
 21
254.9463203127
  0
LINE
  5
401
100
AcDbEntity
  8
0
100
AcDbLine
 62
7
  6
CONTINUOUS
 10
383.9157231575
 20
260.1590863789
 11
383.3323903805
 21
260.0101502264
  0
LINE
  5
402
100
AcDbEntity
  8
0
100
AcDbLine
 62
7
  6
CONTINUOUS
 10
395.8740576035
 20
257.329299065
 11
395.1448887116
 21
257.1803629125
  0
LINE
  5
403
100
AcDbEntity
  8
0
100
AcDbLine
 62
7
  6
CONTINUOUS
 10
379.2490559345
 20
254.2016394591
 11
378.5198903805
 21
254.0527032936
  0
LINE
  5
404
100
AcDbEntity
  8
0
100
AcDbLine
 62
7
  6
CONTINUOUS
 10
383.9157231575
 20
261.0527032936
 11
383.1865559345
 21
260.9037671412
  0
LINE
  5
405
100
AcDbEntity
  8
0
100
AcDbLine
 62
7
  6
CONTINUOUS
 10
386.3948903805
 20
257.03142676
 11
385.0823903805
 21
257.03142676
  0
LINE
  5
406
100
AcDbEntity
  8
0
100
AcDbLine
 62
7
  6
CONTINUOUS
 10
414.2490576035
 20
257.1803629125
 11
413.3740576035
 21
257.1803629125
  0
LINE
  5
407
100
AcDbEntity
  8
0
100
AcDbLine
 62
7
  6
CONTINUOUS
 10
395.1448887116
 20
257.1803629125
 11
392.5198887116
 21
257.1803629125
  0
LINE
  5
408
100
AcDbEntity
  8
0
100
AcDbLine
 62
7
  6
CONTINUOUS
 10
378.6657231575
 20
257.1803629125
 11
375.8948903805
 21
257.1803629125
  0
LINE
  5
409
100
AcDbEntity
  8
0
100
AcDbLine
 62
7
  6
CONTINUOUS
 10
390.4782231575
 20
257.329299065
 11
388.4365559345
 21
257.329299065
  0
LINE
  5
40A
100
AcDbEntity
  8
0
100
AcDbLine
 62
7
  6
CONTINUOUS
 10
387.2698903805
 20
257.9250436748
 11
385.0823903805
 21
257.9250436748
  0
LINE
  5
40B
100
AcDbEntity
  8
0
100
AcDbLine
 62
7
  6
CONTINUOUS
 10
414.2490576035
 20
258.0739798273
 11
413.3740576035
 21
258.0739798273
  0
LINE
  5
40C
100
AcDbEntity
  8
0
100
AcDbLine
 62
7
  6
CONTINUOUS
 10
395.2907231575
 20
258.0739798273
 11
392.5198887116
 21
258.0739798273
  0
LINE
  5
40D
100
AcDbEntity
  8
0
100
AcDbLine
 62
7
  6
CONTINUOUS
 10
378.6657231575
 20
258.0739798273
 11
375.8948903805
 21
258.0739798273
  0
LINE
  5
40E
100
AcDbEntity
  8
0
100
AcDbLine
 62
7
  6
CONTINUOUS
 10
387.2698903805
 20
259.2654690469
 11
386.3948903805
 21
259.2654690469
  0
LINE
  5
40F
100
AcDbEntity
  8
0
100
AcDbLine
 62
7
  6
CONTINUOUS
 10
415.9990576035
 20
259.4144056166
 11
415.1240576035
 21
259.4144056166
  0
LINE
  5
410
100
AcDbEntity
  8
0
100
AcDbLine
 62
7
  6
CONTINUOUS
 10
414.2490576035
 20
260.1590863789
 11
413.3740576035
 21
260.1590863789
  0
LINE
  5
411
100
AcDbEntity
  8
0
100
AcDbLine
 62
7
  6
CONTINUOUS
 10
385.2282231575
 20
260.1590863789
 11
383.9157231575
 21
260.1590863789
  0
LINE
  5
412
100
AcDbEntity
  8
0
100
AcDbLine
 62
7
  6
CONTINUOUS
 10
378.6657231575
 20
260.1590863789
 11
375.8948903805
 21
260.1590863789
  0
LINE
  5
413
100
AcDbEntity
  8
0
100
AcDbLine
 62
7
  6
CONTINUOUS
 10
395.2907231575
 20
260.3080225314
 11
392.5198887116
 21
260.3080225314
  0
LINE
  5
414
100
AcDbEntity
  8
0
100
AcDbLine
 62
7
  6
CONTINUOUS
 10
414.1032231575
 20
261.0527032936
 11
413.3740576035
 21
261.0527032936
  0
LINE
  5
415
100
AcDbEntity
  8
0
100
AcDbLine
 62
7
  6
CONTINUOUS
 10
409.8740576035
 20
261.0527032936
 11
408.9990576035
 21
261.0527032936
  0
LINE
  5
416
100
AcDbEntity
  8
0
100
AcDbLine
 62
7
  6
CONTINUOUS
 10
405.4990576035
 20
261.0527032936
 11
404.6240576035
 21
261.0527032936
  0
LINE
  5
417
100
AcDbEntity
  8
0
100
AcDbLine
 62
7
  6
CONTINUOUS
 10
399.0823887116
 20
261.0527032936
 11
398.2073887116
 21
261.0527032936
  0
LINE
  5
418
100
AcDbEntity
  8
0
100
AcDbLine
 62
7
  6
CONTINUOUS
 10
395.1448887116
 20
261.0527032936
 11
391.6448887116
 21
261.0527032936
  0
LINE
  5
419
100
AcDbEntity
  8
0
100
AcDbLine
 62
7
  6
CONTINUOUS
 10
385.2282231575
 20
261.0527032936
 11
383.9157231575
 21
261.0527032936
  0
LINE
  5
41A
100
AcDbEntity
  8
0
100
AcDbLine
 62
7
  6
CONTINUOUS
 10
378.5198903805
 20
261.0527032936
 11
375.019889546
 21
261.0527032936
  0
LINE
  5
41B
100
AcDbEntity
  8
0
100
AcDbLine
 62
7
  6
CONTINUOUS
 10
369.4782231575
 20
261.0527032936
 11
368.6032231575
 21
261.0527032936
  0
LINE
  5
41C
100
AcDbEntity
  8
0
100
AcDbLine
 62
7
  6
CONTINUOUS
 10
367.4365563518
 20
261.0527032936
 11
366.5615563518
 21
261.0527032936
  0
LINE
  5
41D
100
AcDbEntity
  8
0
100
AcDbLine
 62
7
  6
CONTINUOUS
 10
362.4782231575
 20
261.0527032936
 11
361.6032231575
 21
261.0527032936
  0
LINE
  5
41E
100
AcDbEntity
  8
0
100
AcDbLine
 62
7
  6
CONTINUOUS
 10
406.9573887116
 20
254.0527032936
 11
406.2282231575
 21
254.2016394591
  0
LINE
  5
41F
100
AcDbEntity
  8
0
100
AcDbLine
 62
7
  6
CONTINUOUS
 10
379.2490559345
 20
260.9037671412
 11
378.5198903805
 21
261.0527032936
  0
LINE
  5
420
100
AcDbEntity
  8
0
100
AcDbLine
 62
7
  6
CONTINUOUS
 10
413.0823887116
 20
254.0527032936
 11
412.3532231575
 21
254.2016394591
  0
LINE
  5
421
100
AcDbEntity
  8
0
100
AcDbLine
 62
7
  6
CONTINUOUS
 10
385.9573903805
 20
260.9037671412
 11
385.2282231575
 21
261.0527032936
  0
LINE
  5
422
100
AcDbEntity
  8
0
100
AcDbLine
 62
7
  6
CONTINUOUS
 10
395.8740576035
 20
260.9037671412
 11
395.1448887116
 21
261.0527032936
  0
LINE
  5
423
100
AcDbEntity
  8
0
100
AcDbLine
 62
7
  6
CONTINUOUS
 10
414.9782231575
 20
257.9250436748
 11
414.2490576035
 21
258.0739798273
  0
LINE
  5
424
100
AcDbEntity
  8
0
100
AcDbLine
 62
7
  6
CONTINUOUS
 10
385.8115559345
 20
260.0101502264
 11
385.2282231575
 21
260.1590863789
  0
LINE
  5
425
100
AcDbEntity
  8
0
100
AcDbLine
 62
7
  6
CONTINUOUS
 10
406.9573887116
 20
254.9463203127
 11
406.3740576035
 21
255.0952564652
  0
LINE
  5
426
100
AcDbEntity
  8
0
100
AcDbLine
 62
7
  6
CONTINUOUS
 10
413.0823887116
 20
254.9463203127
 11
412.4990576035
 21
255.0952564652
  0
LINE
  5
427
100
AcDbEntity
  8
0
100
AcDbLine
 62
7
  6
CONTINUOUS
 10
413.3740576035
 20
257.1803629125
 11
412.7907231575
 21
257.329299065
  0
LINE
  5
428
100
AcDbEntity
  8
0
100
AcDbLine
 62
7
  6
CONTINUOUS
 10
414.8323887116
 20
257.03142676
 11
414.2490576035
 21
257.1803629125
  0
LINE
  5
429
100
AcDbEntity
  8
0
100
AcDbLine
 62
7
  6
CONTINUOUS
 10
379.1032231575
 20
260.0101502264
 11
378.6657231575
 21
260.1590863789
  0
LINE
  5
42A
100
AcDbEntity
  8
0
100
AcDbLine
 62
7
  6
CONTINUOUS
 10
395.7282231575
 20
260.1590863789
 11
395.2907231575
 21
260.3080225314
  0
LINE
  5
42B
100
AcDbEntity
  8
0
100
AcDbLine
 62
7
  6
CONTINUOUS
 10
386.5407231575
 20
260.6058948363
 11
385.9573903805
 21
260.9037671412
  0
LINE
  5
42C
100
AcDbEntity
  8
0
100
AcDbLine
 62
7
  6
CONTINUOUS
 10
406.2282231575
 20
254.2016394591
 11
405.6448887116
 21
254.4995118032
  0
LINE
  5
42D
100
AcDbEntity
  8
0
100
AcDbLine
 62
7
  6
CONTINUOUS
 10
386.2490559345
 20
259.7122779215
 11
385.8115559345
 21
260.0101502264
  0
LINE
  5
42E
100
AcDbEntity
  8
0
100
AcDbLine
 62
7
  6
CONTINUOUS
 10
379.8323903805
 20
260.4569586838
 11
379.2490559345
 21
260.9037671412
  0
LINE
  5
42F
100
AcDbEntity
  8
0
100
AcDbLine
 62
7
  6
CONTINUOUS
 10
379.3948903805
 20
256.7335544551
 11
379.1032231575
 21
257.03142676
  0
LINE
  5
430
100
AcDbEntity
  8
0
100
AcDbLine
 62
7
  6
CONTINUOUS
 10
382.6032231575
 20
254.4995118032
 11
382.0198903805
 21
255.0952564652
  0
LINE
  5
431
100
AcDbEntity
  8
0
100
AcDbLine
 62
7
  6
CONTINUOUS
 10
379.3948903805
 20
259.7122779215
 11
379.1032231575
 21
260.0101502264
  0
LINE
  5
432
100
AcDbEntity
  8
0
100
AcDbLine
 62
7
  6
CONTINUOUS
 10
384.1957231575
 20
246.371214074
 11
383.7582231575
 21
246.9669586838
  0
LINE
  5
433
100
AcDbEntity
  8
0
100
AcDbLine
 62
7
  6
CONTINUOUS
 10
380.2698903805
 20
256.8824906076
 11
379.8323903805
 21
257.4782352174
  0
LINE
  5
434
100
AcDbEntity
  8
0
100
AcDbLine
 62
7
  6
CONTINUOUS
 10
380.2698903805
 20
259.861214074
 11
379.8323903805
 21
260.4569586838
  0
LINE
  5
435
100
AcDbEntity
  8
0
100
AcDbLine
 62
7
  6
CONTINUOUS
 10
383.6123899633
 20
245.9244056166
 11
383.3207231575
 21
246.371214074
  0
LINE
  5
436
100
AcDbEntity
  8
0
100
AcDbLine
 62
7
  6
CONTINUOUS
 10
382.8948903805
 20
255.3931288744
 11
382.6032231575
 21
255.8399373318
  0
LINE
  5
437
100
AcDbEntity
  8
0
100
AcDbLine
 62
7
  6
CONTINUOUS
 10
351.2317338019
 20
308.545202936
 11
350.8487550738
 21
309.2952032936
  0
LINE
  5
438
100
AcDbEntity
  8
0
100
AcDbLine
 62
7
  6
CONTINUOUS
 10
379.8207231575
 20
241.7541926176
 11
379.5290564952
 21
242.4988734842
  0
LINE
  5
439
100
AcDbEntity
  8
0
100
AcDbLine
 62
7
  6
CONTINUOUS
 10
380.4040564561
 20
242.2010011793
 11
380.2582231575
 21
242.6478096367
  0
LINE
  5
43A
100
AcDbEntity
  8
0
100
AcDbLine
 62
7
  6
CONTINUOUS
 10
368.6032231575
 20
261.0527032936
 11
368.6032231575
 21
254.0527032936
  0
LINE
  5
43B
100
AcDbEntity
  8
0
100
AcDbLine
 62
7
  6
CONTINUOUS
 10
369.4782231575
 20
261.0527032936
 11
369.4782231575
 21
254.9463203127
  0
LINE
  5
43C
100
AcDbEntity
  8
KONSTRUKTIONSELEMENTE
100
AcDbLine
 62
7
  6
CONTINUOUS
 10
370.4311449766
 20
307.6627032936
 11
370.4311449766
 21
307.8627032936
  0
LINE
  5
43D
100
AcDbEntity
  8
KONSTRUKTIONSELEMENTE
100
AcDbLine
 62
7
  6
CONTINUOUS
 10
371.8359225414
 20
307.6627032936
 11
371.8359225414
 21
307.8627032936
  0
LINE
  5
43E
100
AcDbEntity
  8
KONSTRUKTIONSELEMENTE
100
AcDbLine
 62
7
  6
CONTINUOUS
 10
371.8589238733
 20
307.6627032936
 11
371.8589238733
 21
307.8627032936
  0
LINE
  5
43F
100
AcDbEntity
  8
KONSTRUKTIONSELEMENTE
100
AcDbLine
 62
7
  6
CONTINUOUS
 10
372.0545063612
 20
307.6627032936
 11
372.0545063612
 21
307.8627032936
  0
LINE
  5
440
100
AcDbEntity
  8
KONSTRUKTIONSELEMENTE
100
AcDbLine
 62
7
  6
CONTINUOUS
 10
373.5271581283
 20
307.6627032936
 11
373.5271581283
 21
307.8627032936
  0
LINE
  5
441
100
AcDbEntity
  8
0
100
AcDbLine
 62
7
  6
CONTINUOUS
 10
373.8532231575
 20
254.9463203127
 11
373.8532231575
 21
254.0527032936
  0
LINE
  5
442
100
AcDbEntity
  8
BEZUGSACHSEN
100
AcDbLine
 62
7
  6
CONTINUOUS
 10
373.8532231575
 20
181.9627032936
 11
373.8532231575
 21
228.1627032936
  0
LINE
  5
443
100
AcDbEntity
  8
0
100
AcDbLine
 62
7
  6
CONTINUOUS
 10
375.019889546
 20
261.0527032936
 11
375.019889546
 21
254.0527032936
  0
LINE
  5
444
100
AcDbEntity
  8
0
100
AcDbLine
 62
7
  6
CONTINUOUS
 10
375.8948903805
 20
260.1590863789
 11
375.8948903805
 21
258.0739798273
  0
LINE
  5
445
100
AcDbEntity
  8
0
100
AcDbLine
 62
7
  6
CONTINUOUS
 10
375.8948903805
 20
257.1803629125
 11
375.8948903805
 21
254.9463203127
  0
LINE
  5
446
100
AcDbEntity
  8
KONSTRUKTIONSELEMENTE
100
AcDbLine
 62
7
  6
CONTINUOUS
 10
376.0478022763
 20
307.6627032936
 11
376.0478022763
 21
307.8627032936
  0
LINE
  5
447
100
AcDbEntity
  8
0
100
AcDbLine
 62
7
  6
CONTINUOUS
 10
366.5615563518
 20
261.0527032936
 11
364.5198897546
 21
254.9463203127
  0
LINE
  5
448
100
AcDbEntity
  8
0
100
AcDbLine
 62
7
  6
CONTINUOUS
 10
398.8482224423
 20
268.2831287999
 11
398.0982231575
 21
268.091639461
  0
LINE
  5
449
100
AcDbEntity
  8
0
100
AcDbLine
 62
7
  6
CONTINUOUS
 10
389.8482235151
 20
268.2831287999
 11
389.0982231575
 21
268.091639461
  0
LINE
  5
44A
100
AcDbEntity
  8
0
100
AcDbLine
 62
7
  6
CONTINUOUS
 10
399.0357238728
 20
267.1341926493
 11
398.0982231575
 21
266.9427032936
  0
LINE
  5
44B
100
AcDbEntity
  8
0
100
AcDbLine
 62
7
  6
CONTINUOUS
 10
390.0357227999
 20
267.1341926493
 11
389.0982231575
 21
266.9427032936
  0
LINE
  5
44C
100
AcDbEntity
  8
0
100
AcDbLine
 62
7
  6
CONTINUOUS
 10
398.0982231575
 20
266.9427032936
 11
393.5982231575
 21
266.9427032936
  0
LINE
  5
44D
100
AcDbEntity
  8
0
100
AcDbLine
 62
7
  6
CONTINUOUS
 10
389.0982231575
 20
266.9427032936
 11
388.3482227999
 21
266.9427032936
  0
LINE
  5
44E
100
AcDbEntity
  8
0
100
AcDbLine
 62
7
  6
CONTINUOUS
 10
383.8482233363
 20
266.9427032936
 11
382.5357229787
 21
266.9427032936
  0
LINE
  5
44F
100
AcDbEntity
  8
0
100
AcDbLine
 62
7
  6
CONTINUOUS
 10
377.8482231575
 20
266.9427032936
 11
376.7232231575
 21
266.9427032936
  0
LINE
  5
450
100
AcDbEntity
  8
0
100
AcDbLine
 62
7
  6
CONTINUOUS
 10
398.0982231575
 20
268.091639461
 11
394.7232231575
 21
268.091639461
  0
LINE
  5
451
100
AcDbEntity
  8
0
100
AcDbLine
 62
7
  6
CONTINUOUS
 10
389.0982231575
 20
268.091639461
 11
388.3482227999
 21
268.091639461
  0
LINE
  5
452
100
AcDbEntity
  8
0
100
AcDbLine
 62
7
  6
CONTINUOUS
 10
381.0357230681
 20
270.9639799465
 11
377.8482231575
 21
270.9639799465
  0
LINE
  5
453
100
AcDbEntity
  8
0
100
AcDbLine
 62
7
  6
CONTINUOUS
 10
381.4107229787
 20
272.1129159797
 11
377.8482231575
 21
272.1129159797
  0
LINE
  5
454
100
AcDbEntity
  8
0
100
AcDbLine
 62
7
  6
CONTINUOUS
 10
414.8323887116
 20
260.9037671412
 11
414.1032231575
 21
261.0527032936
  0
LINE
  5
455
100
AcDbEntity
  8
0
100
AcDbLine
 62
7
  6
CONTINUOUS
 10
388.3482227999
 20
266.9427032936
 11
387.4107231575
 21
267.1341926493
  0
LINE
  5
456
100
AcDbEntity
  8
0
100
AcDbLine
 62
7
  6
CONTINUOUS
 10
388.3482227999
 20
268.091639461
 11
387.5982235151
 21
268.2831287999
  0
LINE
  5
457
100
AcDbEntity
  8
0
100
AcDbLine
 62
7
  6
CONTINUOUS
 10
413.3740576035
 20
258.0739798273
 11
412.9365576035
 21
258.2229159797
  0
LINE
  5
458
100
AcDbEntity
  8
0
100
AcDbLine
 62
7
  6
CONTINUOUS
 10
414.6865576035
 20
260.0101502264
 11
414.2490576035
 21
260.1590863789
  0
LINE
  5
459
100
AcDbEntity
  8
0
100
AcDbLine
 62
7
  6
CONTINUOUS
 10
381.9732229787
 20
274.7937672604
 11
381.4107229787
 21
274.9852565993
  0
LINE
  5
45A
100
AcDbEntity
  8
0
100
AcDbLine
 62
7
  6
CONTINUOUS
 10
387.4107231575
 20
267.1341926493
 11
386.6607227999
 21
267.5171713773
  0
LINE
  5
45B
100
AcDbEntity
  8
0
100
AcDbLine
 62
7
  6
CONTINUOUS
 10
412.7907231575
 20
257.329299065
 11
412.2073887116
 21
257.6271713699
  0
LINE
  5
45C
100
AcDbEntity
  8
0
100
AcDbLine
 62
7
  6
CONTINUOUS
 10
415.5615576035
 20
257.6271713699
 11
414.9782231575
 21
257.9250436748
  0
LINE
  5
45D
100
AcDbEntity
  8
0
100
AcDbLine
 62
7
  6
CONTINUOUS
 10
412.3532231575
 20
254.2016394591
 11
411.6240576035
 21
254.6484479556
  0
LINE
  5
45E
100
AcDbEntity
  8
0
100
AcDbLine
 62
7
  6
CONTINUOUS
 10
406.3740576035
 20
255.0952564652
 11
405.9365576035
 21
255.3931288744
  0
LINE
  5
45F
100
AcDbEntity
  8
0
100
AcDbLine
 62
7
  6
CONTINUOUS
 10
387.5982235151
 20
268.2831287999
 11
387.0357235151
 21
268.6661076117
  0
LINE
  5
460
100
AcDbEntity
  8
0
100
AcDbLine
 62
7
  6
CONTINUOUS
 10
346.6359891492
 20
301.4202032936
 11
345.8700317937
 21
301.9827032936
  0
LINE
  5
461
100
AcDbEntity
  8
0
100
AcDbLine
 62
7
  6
CONTINUOUS
 10
396.4573887116
 20
260.4569586838
 11
395.8740576035
 21
260.9037671412
  0
LINE
  5
462
100
AcDbEntity
  8
0
100
AcDbLine
 62
7
  6
CONTINUOUS
 10
382.9107231575
 20
275.1767459381
 11
382.1607233363
 21
275.7512139548
  0
LINE
  5
463
100
AcDbEntity
  8
0
100
AcDbLine
 62
7
  6
CONTINUOUS
 10
345.6785424548
 20
300.8577032936
 11
346.0615211326
 21
300.4827031148
  0
LINE
  5
464
100
AcDbEntity
  8
0
100
AcDbLine
 62
7
  6
CONTINUOUS
 10
387.1240559345
 20
260.0101502264
 11
386.5407231575
 21
260.6058948363
  0
LINE
  5
465
100
AcDbEntity
  8
0
100
AcDbLine
 62
7
  6
CONTINUOUS
 10
386.6607227999
 20
267.5171713773
 11
385.9107235151
 21
268.2831287999
  0
LINE
  5
466
100
AcDbEntity
  8
0
100
AcDbLine
 62
7
  6
CONTINUOUS
 10
396.0198887116
 20
259.861214074
 11
395.7282231575
 21
260.1590863789
  0
LINE
  5
467
100
AcDbEntity
  8
0
100
AcDbLine
 62
7
  6
CONTINUOUS
 10
382.3482231575
 20
274.4107885826
 11
381.9732229787
 21
274.7937672604
  0
LINE
  5
468
100
AcDbEntity
  8
0
100
AcDbLine
 62
7
  6
CONTINUOUS
 10
349.6998188394
 20
308.9202036513
 11
350.0827976513
 21
308.3577036513
  0
LINE
  5
469
100
AcDbEntity
  8
0
100
AcDbLine
 62
7
  6
CONTINUOUS
 10
349.6998188394
 20
317.9202025784
 11
350.0827976513
 21
317.3577025784
  0
LINE
  5
46A
100
AcDbEntity
  8
0
100
AcDbLine
 62
7
  6
CONTINUOUS
 10
351.2317338019
 20
317.5452040089
 11
350.8487550738
 21
318.2952032936
  0
LINE
  5
46B
100
AcDbEntity
  8
0
100
AcDbLine
 62
7
  6
CONTINUOUS
 10
382.0198903805
 20
255.0952564652
 11
381.7282231575
 21
255.6910011793
  0
LINE
  5
46C
100
AcDbEntity
  8
0
100
AcDbLine
 62
7
  6
CONTINUOUS
 10
396.4457231575
 20
241.1584479556
 11
396.1540559345
 21
241.7541926176
  0
LINE
  5
46D
100
AcDbEntity
  8
0
100
AcDbLine
 62
7
  6
CONTINUOUS
 10
384.6332231575
 20
243.2435544551
 11
384.3415563518
 21
243.9882352174
  0
LINE
  5
46E
100
AcDbEntity
  8
0
100
AcDbLine
 62
7
  6
CONTINUOUS
 10
348.9514259471
 20
342.1321594684
 11
343.2175387544
 21
357.0694462924
  0
LINE
  5
46F
100
AcDbEntity
  8
0
100
AcDbLine
 62
7
  6
CONTINUOUS
 10
382.5357229787
 20
266.9427032936
 11
381.0357230681
 21
270.9639799465
  0
LINE
  5
470
100
AcDbEntity
  8
0
100
AcDbLine
 62
7
  6
CONTINUOUS
 10
379.5407231575
 20
256.2867457891
 11
379.3948903805
 21
256.7335544551
  0
LINE
  5
471
100
AcDbEntity
  8
0
100
AcDbLine
 62
7
  6
CONTINUOUS
 10
383.9040563518
 20
243.0946180941
 11
383.7582231575
 21
243.54142676
  0
LINE
  5
472
100
AcDbEntity
  8
0
100
AcDbLine
 62
7
  6
CONTINUOUS
 10
380.4157231575
 20
256.4356819416
 11
380.2698903805
 21
256.8824906076
  0
LINE
  5
473
100
AcDbEntity
  8
0
100
AcDbLine
 62
7
  6
CONTINUOUS
 10
379.5407231575
 20
259.2654690469
 11
379.3948903805
 21
259.7122779215
  0
LINE
  5
474
100
AcDbEntity
  8
0
100
AcDbLine
 62
7
  6
CONTINUOUS
 10
384.3415563518
 20
245.9244056166
 11
384.1957231575
 21
246.371214074
  0
LINE
  5
475
100
AcDbEntity
  8
0
100
AcDbLine
 62
7
  6
CONTINUOUS
 10
380.4157231575
 20
259.4144056166
 11
380.2698903805
 21
259.861214074
  0
LINE
  5
476
100
AcDbEntity
  8
0
100
AcDbLine
 62
7
  6
CONTINUOUS
 10
382.6032231575
 20
255.8399373318
 11
382.4573903805
 21
256.4356819416
  0
LINE
  5
477
100
AcDbEntity
  8
0
100
AcDbLine
 62
7
  6
CONTINUOUS
 10
381.7282231575
 20
255.6910011793
 11
381.5823903805
 21
256.4356819416
  0
LINE
  5
478
100
AcDbEntity
  8
0
100
AcDbLine
 62
7
  6
CONTINUOUS
 10
379.5290564952
 20
242.4988734842
 11
379.3832231575
 21
243.54142676
  0
LINE
  5
479
100
AcDbEntity
  8
KONSTRUKTIONSELEMENTE
100
AcDbLine
 62
7
  6
CONTINUOUS
 10
376.6602158838
 20
307.6627032936
 11
376.6602158838
 21
307.8627032936
  0
LINE
  5
47A
100
AcDbEntity
  8
0
100
AcDbLine
 62
7
  6
CONTINUOUS
 10
376.7232231575
 20
275.9427032936
 11
376.7232231575
 21
266.9427032936
  0
LINE
  5
47B
100
AcDbEntity
  8
0
100
AcDbLine
 62
7
  6
CONTINUOUS
 10
377.8482231575
 20
274.9852565993
 11
377.8482231575
 21
272.1129159797
  0
LINE
  5
47C
100
AcDbEntity
  8
0
100
AcDbLine
 62
7
  6
CONTINUOUS
 10
377.8482231575
 20
270.9639799465
 11
377.8482231575
 21
266.9427032936
  0
LINE
  5
47D
100
AcDbEntity
  8
KONSTRUKTIONSELEMENTE
100
AcDbLine
 62
7
  6
CONTINUOUS
 10
378.9447416364
 20
307.6627032936
 11
378.9447416364
 21
307.8627032936
  0
LINE
  5
47E
100
AcDbEntity
  8
KONSTRUKTIONSELEMENTE
100
AcDbLine
 62
7
  6
CONTINUOUS
 10
379.109870314
 20
307.6627032936
 11
379.109870314
 21
307.8627032936
  0
LINE
  5
47F
100
AcDbEntity
  8
0
100
AcDbLine
 62
7
  6
CONTINUOUS
 10
379.3832231575
 20
244.5839798273
 11
379.3832231575
 21
243.54142676
  0
LINE
  5
480
100
AcDbEntity
  8
0
100
AcDbLine
 62
7
  6
CONTINUOUS
 10
379.5407231575
 20
259.2654690469
 11
379.5407231575
 21
258.967596742
  0
LINE
  5
481
100
AcDbEntity
  8
0
100
AcDbLine
 62
7
  6
CONTINUOUS
 10
379.5407231575
 20
256.2867457891
 11
379.5407231575
 21
255.8399373318
  0
LINE
  5
482
100
AcDbEntity
  8
KONSTRUKTIONSELEMENTE
100
AcDbLine
 62
7
  6
CONTINUOUS
 10
379.7222842135
 20
307.6627032936
 11
379.7222842135
 21
307.8627032936
  0
LINE
  5
483
100
AcDbEntity
  8
0
100
AcDbLine
 62
7
  6
CONTINUOUS
 10
380.1123898068
 20
244.5839798273
 11
380.1123898068
 21
244.2861075223
  0
LINE
  5
484
100
AcDbEntity
  8
0
100
AcDbLine
 62
7
  6
CONTINUOUS
 10
380.2582231575
 20
243.0946180941
 11
380.2582231575
 21
242.6478096367
  0
LINE
  5
485
100
AcDbEntity
  8
0
100
AcDbLine
 62
7
  6
CONTINUOUS
 10
380.4157231575
 20
259.4144056166
 11
380.4157231575
 21
258.8186605895
  0
LINE
  5
486
100
AcDbEntity
  8
0
100
AcDbLine
 62
7
  6
CONTINUOUS
 10
380.4157231575
 20
256.4356819416
 11
380.4157231575
 21
255.6910011793
  0
LINE
  5
487
100
AcDbEntity
  8
0
100
AcDbLine
 62
7
  6
CONTINUOUS
 10
381.5823903805
 20
258.6697244371
 11
381.5823903805
 21
256.4356819416
  0
LINE
  5
488
100
AcDbEntity
  8
KONSTRUKTIONSELEMENTE
100
AcDbLine
 62
7
  6
CONTINUOUS
 10
382.0068099661
 20
307.6627032936
 11
382.0068099661
 21
307.8627032936
  0
LINE
  5
489
100
AcDbEntity
  8
KONSTRUKTIONSELEMENTE
100
AcDbLine
 62
7
  6
CONTINUOUS
 10
382.2732126825
 20
307.6627032936
 11
382.2732126825
 21
307.8627032936
  0
LINE
  5
48A
100
AcDbEntity
  8
KONSTRUKTIONSELEMENTE
100
AcDbLine
 62
7
  6
CONTINUOUS
 10
382.3638522441
 20
307.6627032936
 11
382.3638522441
 21
307.8627032936
  0
LINE
  5
48B
100
AcDbEntity
  8
0
100
AcDbLine
 62
7
  6
CONTINUOUS
 10
382.4573903805
 20
258.6697244371
 11
382.4573903805
 21
256.4356819416
  0
LINE
  5
48C
100
AcDbEntity
  8
0
100
AcDbLine
 62
7
  6
CONTINUOUS
 10
382.5357229787
 20
273.836320566
 11
382.5357229787
 21
273.261852013
  0
LINE
  5
48D
100
AcDbEntity
  8
KONSTRUKTIONSELEMENTE
100
AcDbLine
 62
7
  6
CONTINUOUS
 10
383.047355722
 20
307.6627032936
 11
383.047355722
 21
307.8627032936
  0
LINE
  5
48E
100
AcDbEntity
  8
KONSTRUKTIONSELEMENTE
100
AcDbLine
 62
7
  6
CONTINUOUS
 10
383.0637007639
 20
307.6627032936
 11
383.0637007639
 21
307.8627032936
  0
LINE
  5
48F
100
AcDbEntity
  8
KONSTRUKTIONSELEMENTE
100
AcDbLine
 62
7
  6
CONTINUOUS
 10
383.3127680557
 20
307.6627032936
 11
383.3127680557
 21
307.8627032936
  0
LINE
  5
490
100
AcDbEntity
  8
KONSTRUKTIONSELEMENTE
100
AcDbLine
 62
7
  6
CONTINUOUS
 10
383.4439124698
 20
307.6627032936
 11
383.4439124698
 21
307.8627032936
  0
LINE
  5
491
100
AcDbEntity
  8
KONSTRUKTIONSELEMENTE
100
AcDbLine
 62
7
  6
CONTINUOUS
 10
383.4972534191
 20
307.6627032936
 11
383.4972534191
 21
307.8627032936
  0
LINE
  5
492
100
AcDbEntity
  8
0
100
AcDbLine
 62
7
  6
CONTINUOUS
 10
383.6607229787
 20
273.836320566
 11
383.6607229787
 21
273.0703626741
  0
LINE
  5
493
100
AcDbEntity
  8
KONSTRUKTIONSELEMENTE
100
AcDbLine
 62
7
  6
CONTINUOUS
 10
383.7732411169
 20
307.6627032936
 11
383.7732411169
 21
307.8627032936
  0
LINE
  5
494
100
AcDbEntity
  8
0
100
AcDbLine
 62
7
  6
CONTINUOUS
 10
383.9040563518
 20
243.0946180941
 11
383.9040563518
 21
242.6478096367
  0
LINE
  5
495
100
AcDbEntity
  8
KONSTRUKTIONSELEMENTE
100
AcDbLine
 62
7
  6
CONTINUOUS
 10
384.1953413627
 20
307.6627032936
 11
384.1953413627
 21
307.8627032936
  0
LINE
  5
496
100
AcDbEntity
  8
0
100
AcDbLine
 62
7
  6
CONTINUOUS
 10
367.4365563518
 20
261.0527032936
 11
365.1032231575
 21
254.0527032936
  0
LINE
  5
497
100
AcDbEntity
  8
0
100
AcDbLine
 62
7
  6
CONTINUOUS
 10
398.0982231575
 20
274.7937672604
 11
394.7232231575
 21
274.7937672604
  0
LINE
  5
498
100
AcDbEntity
  8
0
100
AcDbLine
 62
7
  6
CONTINUOUS
 10
381.4107229787
 20
274.9852565993
 11
377.8482231575
 21
274.9852565993
  0
LINE
  5
499
100
AcDbEntity
  8
0
100
AcDbLine
 62
7
  6
CONTINUOUS
 10
398.0982231575
 20
275.9427032936
 11
393.5982231575
 21
275.9427032936
  0
LINE
  5
49A
100
AcDbEntity
  8
0
100
AcDbLine
 62
7
  6
CONTINUOUS
 10
392.0982235151
 20
275.9427032936
 11
390.9732235151
 21
275.9427032936
  0
LINE
  5
49B
100
AcDbEntity
  8
0
100
AcDbLine
 62
7
  6
CONTINUOUS
 10
386.4732235151
 20
275.9427032936
 11
385.3482229787
 21
275.9427032936
  0
LINE
  5
49C
100
AcDbEntity
  8
0
100
AcDbLine
 62
7
  6
CONTINUOUS
 10
381.2232231575
 20
275.9427032936
 11
376.7232231575
 21
275.9427032936
  0
LINE
  5
49D
100
AcDbEntity
  8
0
100
AcDbLine
 62
7
  6
CONTINUOUS
 10
382.1607233363
 20
275.7512139548
 11
381.2232231575
 21
275.9427032936
  0
LINE
  5
49E
100
AcDbEntity
  8
0
100
AcDbLine
 62
7
  6
CONTINUOUS
 10
399.0357238728
 20
275.7512139548
 11
398.0982231575
 21
275.9427032936
  0
LINE
  5
49F
100
AcDbEntity
  8
0
100
AcDbLine
 62
7
  6
CONTINUOUS
 10
398.8482224423
 20
274.6022779215
 11
398.0982231575
 21
274.7937672604
  0
LINE
  5
4A0
100
AcDbEntity
  8
0
100
AcDbLine
 62
7
  6
CONTINUOUS
 10
399.7857231575
 20
275.368235277
 11
399.0357238728
 21
275.7512139548
  0
LINE
  5
4A1
100
AcDbEntity
  8
0
100
AcDbLine
 62
7
  6
CONTINUOUS
 10
412.9365576035
 20
258.2229159797
 11
412.4990576035
 21
258.5207882846
  0
LINE
  5
4A2
100
AcDbEntity
  8
0
100
AcDbLine
 62
7
  6
CONTINUOUS
 10
415.2698887116
 20
256.7335544551
 11
414.8323887116
 21
257.03142676
  0
LINE
  5
4A3
100
AcDbEntity
  8
0
100
AcDbLine
 62
7
  6
CONTINUOUS
 10
399.4107224423
 20
274.2192992438
 11
398.8482224423
 21
274.6022779215
  0
LINE
  5
4A4
100
AcDbEntity
  8
0
100
AcDbLine
 62
7
  6
CONTINUOUS
 10
415.4157231575
 20
260.4569586838
 11
414.8323887116
 21
260.9037671412
  0
LINE
  5
4A5
100
AcDbEntity
  8
0
100
AcDbLine
 62
7
  6
CONTINUOUS
 10
350.8487550738
 20
309.2952032936
 11
350.0827976513
 21
310.0452036513
  0
LINE
  5
4A6
100
AcDbEntity
  8
0
100
AcDbLine
 62
7
  6
CONTINUOUS
 10
405.6448887116
 20
254.4995118032
 11
405.0615576035
 21
255.0952564652
  0
LINE
  5
4A7
100
AcDbEntity
  8
0
100
AcDbLine
 62
7
  6
CONTINUOUS
 10
412.4990576035
 20
255.0952564652
 11
412.0615576035
 21
255.5420650268
  0
LINE
  5
4A8
100
AcDbEntity
  8
0
100
AcDbLine
 62
7
  6
CONTINUOUS
 10
383.4732231575
 20
274.4107885826
 11
382.9107231575
 21
275.1767459381
  0
LINE
  5
4A9
100
AcDbEntity
  8
0
100
AcDbLine
 62
7
  6
CONTINUOUS
 10
396.8948887116
 20
259.861214074
 11
396.4573887116
 21
260.4569586838
  0
LINE
  5
4AA
100
AcDbEntity
  8
0
100
AcDbLine
 62
7
  6
CONTINUOUS
 10
387.0357235151
 20
268.6661076117
 11
386.6607227999
 21
269.2405756284
  0
LINE
  5
4AB
100
AcDbEntity
  8
0
100
AcDbLine
 62
7
  6
CONTINUOUS
 10
385.9107235151
 20
268.2831287999
 11
385.5357233363
 21
269.0490862895
  0
LINE
  5
4AC
100
AcDbEntity
  8
0
100
AcDbLine
 62
7
  6
CONTINUOUS
 10
383.8482233363
 20
266.9427032936
 11
382.1607233363
 21
271.3469586242
  0
LINE
  5
4AD
100
AcDbEntity
  8
0
100
AcDbLine
 62
7
  6
CONTINUOUS
 10
386.3948903805
 20
259.2654690469
 11
386.2490559345
 21
259.7122779215
  0
LINE
  5
4AE
100
AcDbEntity
  8
0
100
AcDbLine
 62
7
  6
CONTINUOUS
 10
382.5357229787
 20
273.836320566
 11
382.3482231575
 21
274.4107885826
  0
LINE
  5
4AF
100
AcDbEntity
  8
0
100
AcDbLine
 62
7
  6
CONTINUOUS
 10
383.6607229787
 20
273.836320566
 11
383.4732231575
 21
274.4107885826
  0
LINE
  5
4B0
100
AcDbEntity
  8
0
100
AcDbLine
 62
7
  6
CONTINUOUS
 10
397.0290559345
 20
241.6052564652
 11
396.8832231575
 21
242.0520650268
  0
LINE
  5
4B1
100
AcDbEntity
  8
0
100
AcDbLine
 62
7
  6
CONTINUOUS
 10
386.6607227999
 20
269.2405756284
 11
386.4732235151
 21
270.0065329839
  0
LINE
  5
4B2
100
AcDbEntity
  8
0
100
AcDbLine
 62
7
  6
CONTINUOUS
 10
387.2698903805
 20
259.2654690469
 11
387.1240559345
 21
260.0101502264
  0
LINE
  5
4B3
100
AcDbEntity
  8
0
100
AcDbLine
 62
7
  6
CONTINUOUS
 10
385.5357233363
 20
269.0490862895
 11
385.3482229787
 21
270.0065329839
  0
LINE
  5
4B4
100
AcDbEntity
  8
0
100
AcDbLine
 62
7
  6
CONTINUOUS
 10
384.6332231575
 20
243.2435544551
 11
384.6332231575
 21
242.4988734842
  0
LINE
  5
4B5
100
AcDbEntity
  8
KONSTRUKTIONSELEMENTE
100
AcDbLine
 62
7
  6
CONTINUOUS
 10
384.7867474078
 20
307.6627032936
 11
384.7867474078
 21
307.8627032936
  0
LINE
  5
4B6
100
AcDbEntity
  8
0
100
AcDbLine
 62
7
  6
CONTINUOUS
 10
385.0823903805
 20
257.9250436748
 11
385.0823903805
 21
257.03142676
  0
LINE
  5
4B7
100
AcDbEntity
  8
0
100
AcDbLine
 62
7
  6
CONTINUOUS
 10
385.3482229787
 20
275.9427032936
 11
385.3482229787
 21
270.0065329839
  0
LINE
  5
4B8
100
AcDbEntity
  8
0
100
AcDbLine
 62
7
  6
CONTINUOUS
 10
386.3948903805
 20
257.03142676
 11
386.3948903805
 21
255.8399373318
  0
LINE
  5
4B9
100
AcDbEntity
  8
0
100
AcDbLine
 62
7
  6
CONTINUOUS
 10
386.4732235151
 20
275.9427032936
 11
386.4732235151
 21
270.0065329839
  0
LINE
  5
4BA
100
AcDbEntity
  8
0
100
AcDbLine
 62
7
  6
CONTINUOUS
 10
387.2698903805
 20
257.9250436748
 11
387.2698903805
 21
255.6910011793
  0
LINE
  5
4BB
100
AcDbEntity
  8
KONSTRUKTIONSELEMENTE
100
AcDbLine
 62
7
  6
CONTINUOUS
 10
387.7368217802
 20
307.6627032936
 11
387.7368217802
 21
307.8627032936
  0
LINE
  5
4BC
100
AcDbEntity
  8
0
100
AcDbLine
 62
7
  6
CONTINUOUS
 10
388.4365559345
 20
257.329299065
 11
388.4365559345
 21
256.5846180941
  0
LINE
  5
4BD
100
AcDbEntity
  8
0
100
AcDbLine
 62
7
  6
CONTINUOUS
 10
388.5707231575
 20
247.5627032936
 11
388.5707231575
 21
246.8180225314
  0
LINE
  5
4BE
100
AcDbEntity
  8
KONSTRUKTIONSELEMENTE
100
AcDbLine
 62
7
  6
CONTINUOUS
 10
388.8268881952
 20
307.6627032936
 11
388.8268881952
 21
307.8627032936
  0
LINE
  5
4BF
100
AcDbEntity
  8
BEZUGSACHSEN
100
AcDbLine
 62
7
  6
CONTINUOUS
 10
388.8532231575
 20
289.4627032936
 11
388.8532231575
 21
305.6084261517
  0
LINE
  5
4C0
100
AcDbEntity
  8
0
100
AcDbLine
 62
7
  6
CONTINUOUS
 10
390.4782231575
 20
257.329299065
 11
390.4782231575
 21
256.5846180941
  0
LINE
  5
4C1
100
AcDbEntity
  8
0
100
AcDbLine
 62
7
  6
CONTINUOUS
 10
390.9732235151
 20
275.9427032936
 11
390.9732235151
 21
270.0065329839
  0
LINE
  5
4C2
100
AcDbEntity
  8
0
100
AcDbLine
 62
7
  6
CONTINUOUS
 10
391.6448887116
 20
261.0527032936
 11
391.6448887116
 21
254.0527032936
  0
LINE
  5
4C3
100
AcDbEntity
  8
0
100
AcDbLine
 62
7
  6
CONTINUOUS
 10
392.0982235151
 20
275.9427032936
 11
392.0982235151
 21
270.0065329839
  0
LINE
  5
4C4
100
AcDbEntity
  8
0
100
AcDbLine
 62
7
  6
CONTINUOUS
 10
392.5198887116
 20
260.3080225314
 11
392.5198887116
 21
258.0739798273
  0
LINE
  5
4C5
100
AcDbEntity
  8
0
100
AcDbLine
 62
7
  6
CONTINUOUS
 10
392.5198887116
 20
257.1803629125
 11
392.5198887116
 21
254.0527032936
  0
LINE
  5
4C6
100
AcDbEntity
  8
0
100
AcDbLine
 62
7
  6
CONTINUOUS
 10
379.5290564952
 20
245.6265328945
 11
379.3832231575
 21
244.5839798273
  0
LINE
  5
4C7
100
AcDbEntity
  8
0
100
AcDbLine
 62
7
  6
CONTINUOUS
 10
380.2582231575
 20
245.477596742
 11
380.1123898068
 21
244.5839798273
  0
LINE
  5
4C8
100
AcDbEntity
  8
0
100
AcDbLine
 62
7
  6
CONTINUOUS
 10
381.7282231575
 20
259.4144056166
 11
381.5823903805
 21
258.6697244371
  0
LINE
  5
4C9
100
AcDbEntity
  8
0
100
AcDbLine
 62
7
  6
CONTINUOUS
 10
382.6032231575
 20
259.2654690469
 11
382.4573903805
 21
258.6697244371
  0
LINE
  5
4CA
100
AcDbEntity
  8
0
100
AcDbLine
 62
7
  6
CONTINUOUS
 10
382.5357229787
 20
273.261852013
 11
382.3482231575
 21
272.6873839963
  0
LINE
  5
4CB
100
AcDbEntity
  8
0
100
AcDbLine
 62
7
  6
CONTINUOUS
 10
383.6607229787
 20
273.0703626741
 11
383.4732231575
 21
272.4958946575
  0
LINE
  5
4CC
100
AcDbEntity
  8
0
100
AcDbLine
 62
7
  6
CONTINUOUS
 10
379.5407231575
 20
258.967596742
 11
379.3948903805
 21
258.5207882846
  0
LINE
  5
4CD
100
AcDbEntity
  8
0
100
AcDbLine
 62
7
  6
CONTINUOUS
 10
380.4157231575
 20
258.8186605895
 11
380.2698903805
 21
258.3718521322
  0
LINE
  5
4CE
100
AcDbEntity
  8
0
100
AcDbLine
 62
7
  6
CONTINUOUS
 10
379.5407231575
 20
255.8399373318
 11
379.3948903805
 21
255.3931288744
  0
LINE
  5
4CF
100
AcDbEntity
  8
0
100
AcDbLine
 62
7
  6
CONTINUOUS
 10
380.4157231575
 20
255.6910011793
 11
380.2698903805
 21
255.2441926176
  0
LINE
  5
4D0
100
AcDbEntity
  8
RUNDUNGEN
100
AcDbLine
 62
7
  6
CONTINUOUS
 10
415.8532231575
 20
283.5627032936
 11
361.8532231575
 21
283.5627032936
  0
LINE
  5
4D1
100
AcDbEntity
  8
0
100
AcDbLine
 62
7
  6
CONTINUOUS
 10
358.8532231575
 20
283.8127032936
 11
418.8532231575
 21
283.8127032936
  0
LINE
  5
4D2
100
AcDbEntity
  8
0
100
AcDbLine
 62
7
  6
CONTINUOUS
 10
358.8532231575
 20
288.9627032936
 11
418.8532231575
 21
288.9627032936
  0
LINE
  5
4D3
100
AcDbEntity
  8
0
100
AcDbLine
 62
7
  6
CONTINUOUS
 10
345.1040744382
 20
301.0452031148
 11
345.6785424548
 21
300.8577032936
  0
LINE
  5
4D4
100
AcDbEntity
  8
0
100
AcDbLine
 62
7
  6
CONTINUOUS
 10
345.8700317937
 20
301.9827032936
 11
345.2955637771
 21
302.1702031148
  0
LINE
  5
4D5
100
AcDbEntity
  8
0
100
AcDbLine
 62
7
  6
CONTINUOUS
 10
349.1253508228
 20
309.2952032936
 11
349.6998188394
 21
308.9202036513
  0
LINE
  5
4D6
100
AcDbEntity
  8
0
100
AcDbLine
 62
7
  6
CONTINUOUS
 10
350.8487550738
 20
318.2952032936
 11
350.0827976513
 21
319.0452025784
  0
LINE
  5
4D7
100
AcDbEntity
  8
0
100
AcDbLine
 62
7
  6
CONTINUOUS
 10
412.2073887116
 20
257.6271713699
 11
411.6240576035
 21
258.2229159797
  0
LINE
  5
4D8
100
AcDbEntity
  8
0
100
AcDbLine
 62
7
  6
CONTINUOUS
 10
416.1448887116
 20
257.03142676
 11
415.5615576035
 21
257.6271713699
  0
LINE
  5
4D9
100
AcDbEntity
  8
0
100
AcDbLine
 62
7
  6
CONTINUOUS
 10
414.9782231575
 20
259.7122779215
 11
414.6865576035
 21
260.0101502264
  0
LINE
  5
4DA
100
AcDbEntity
  8
0
100
AcDbLine
 62
7
  6
CONTINUOUS
 10
400.5357224423
 20
274.6022779215
 11
399.7857231575
 21
275.368235277
  0
LINE
  5
4DB
100
AcDbEntity
  8
0
100
AcDbLine
 62
7
  6
CONTINUOUS
 10
405.9365576035
 20
255.3931288744
 11
405.6448887116
 21
255.8399373318
  0
LINE
  5
4DC
100
AcDbEntity
  8
0
100
AcDbLine
 62
7
  6
CONTINUOUS
 10
399.7857231575
 20
273.6448306907
 11
399.4107224423
 21
274.2192992438
  0
LINE
  5
4DD
100
AcDbEntity
  8
0
100
AcDbLine
 62
7
  6
CONTINUOUS
 10
411.6240576035
 20
254.6484479556
 11
411.1865576035
 21
255.3931288744
  0
LINE
  5
4DE
100
AcDbEntity
  8
0
100
AcDbLine
 62
7
  6
CONTINUOUS
 10
405.0615576035
 20
255.0952564652
 11
404.7698887116
 21
255.6910011793
  0
LINE
  5
4DF
100
AcDbEntity
  8
0
100
AcDbLine
 62
7
  6
CONTINUOUS
 10
396.1657231575
 20
259.4144056166
 11
396.0198887116
 21
259.861214074
  0
LINE
  5
4E0
100
AcDbEntity
  8
0
100
AcDbLine
 62
7
  6
CONTINUOUS
 10
397.0407231575
 20
259.4144056166
 11
396.8948887116
 21
259.861214074
  0
LINE
  5
4E1
100
AcDbEntity
  8
0
100
AcDbLine
 62
7
  6
CONTINUOUS
 10
393.5982231575
 20
275.9427032936
 11
393.5982231575
 21
266.9427032936
  0
LINE
  5
4E2
100
AcDbEntity
  8
0
100
AcDbLine
 62
7
  6
CONTINUOUS
 10
393.8207231575
 20
247.5627032936
 11
393.8207231575
 21
246.8180225314
  0
LINE
  5
4E3
100
AcDbEntity
  8
0
100
AcDbLine
 62
7
  6
CONTINUOUS
 10
394.7232231575
 20
274.7937672604
 11
394.7232231575
 21
268.091639461
  0
LINE
  5
4E4
100
AcDbEntity
  8
0
100
AcDbLine
 62
7
  6
CONTINUOUS
 10
394.9873903805
 20
245.3286605895
 11
394.9873903805
 21
244.7329159797
  0
LINE
  5
4E5
100
AcDbEntity
  8
0
100
AcDbLine
 62
7
  6
CONTINUOUS
 10
396.1540559345
 20
246.5201502264
 11
396.1540559345
 21
245.3286605895
  0
LINE
  5
4E6
100
AcDbEntity
  8
0
100
AcDbLine
 62
7
  6
CONTINUOUS
 10
396.1540559345
 20
244.7329159797
 11
396.1540559345
 21
241.7541926176
  0
LINE
  5
4E7
100
AcDbEntity
  8
0
100
AcDbLine
 62
7
  6
CONTINUOUS
 10
396.1657231575
 20
259.4144056166
 11
396.1657231575
 21
258.967596742
  0
LINE
  5
4E8
100
AcDbEntity
  8
0
100
AcDbLine
 62
7
  6
CONTINUOUS
 10
396.8832231575
 20
246.5201502264
 11
396.8832231575
 21
245.3286605895
  0
LINE
  5
4E9
100
AcDbEntity
  8
0
100
AcDbLine
 62
7
  6
CONTINUOUS
 10
396.8832231575
 20
244.7329159797
 11
396.8832231575
 21
242.0520650268
  0
LINE
  5
4EA
100
AcDbEntity
  8
0
100
AcDbLine
 62
7
  6
CONTINUOUS
 10
397.0407231575
 20
259.4144056166
 11
397.0407231575
 21
258.8186605895
  0
LINE
  5
4EB
100
AcDbEntity
  8
0
100
AcDbLine
 62
7
  6
CONTINUOUS
 10
398.1957231575
 20
241.1584479556
 11
398.1957231575
 21
240.5627032936
  0
LINE
  5
4EC
100
AcDbEntity
  8
0
100
AcDbLine
 62
7
  6
CONTINUOUS
 10
398.2073887116
 20
261.0527032936
 11
398.2073887116
 21
254.0527032936
  0
LINE
  5
4ED
100
AcDbEntity
  8
0
100
AcDbLine
 62
7
  6
CONTINUOUS
 10
398.4873903805
 20
245.3286605895
 11
398.4873903805
 21
244.7329159797
  0
LINE
  5
4EE
100
AcDbEntity
  8
0
100
AcDbLine
 62
7
  6
CONTINUOUS
 10
399.0823887116
 20
261.0527032936
 11
399.0823887116
 21
254.9463203127
  0
LINE
  5
4EF
100
AcDbEntity
  8
0
100
AcDbLine
 62
7
  6
CONTINUOUS
 10
399.9732224423
 20
272.8788733352
 11
399.9732224423
 21
270.0065329839
  0
LINE
  5
4F0
100
AcDbEntity
  8
0
100
AcDbLine
 62
7
  6
CONTINUOUS
 10
392.0982235151
 20
270.0065329839
 11
391.9107231575
 21
269.0490862895
  0
LINE
  5
4F1
100
AcDbEntity
  8
0
100
AcDbLine
 62
7
  6
CONTINUOUS
 10
387.2698903805
 20
255.6910011793
 11
387.1240559345
 21
255.0952564652
  0
LINE
  5
4F2
100
AcDbEntity
  8
0
100
AcDbLine
 62
7
  6
CONTINUOUS
 10
390.9732235151
 20
270.0065329839
 11
390.7857231575
 21
269.2405756284
  0
LINE
  5
4F3
100
AcDbEntity
  8
0
100
AcDbLine
 62
7
  6
CONTINUOUS
 10
380.4040564561
 20
245.9244056166
 11
380.2582231575
 21
245.477596742
  0
LINE
  5
4F4
100
AcDbEntity
  8
0
100
AcDbLine
 62
7
  6
CONTINUOUS
 10
380.4040564561
 20
243.54142676
 11
380.2582231575
 21
243.0946180941
  0
LINE
  5
4F5
100
AcDbEntity
  8
0
100
AcDbLine
 62
7
  6
CONTINUOUS
 10
386.3948903805
 20
255.8399373318
 11
386.2490559345
 21
255.3931288744
  0
LINE
  5
4F6
100
AcDbEntity
  8
0
100
AcDbLine
 62
7
  6
CONTINUOUS
 10
383.9040563518
 20
242.6478096367
 11
383.7582231575
 21
242.2010011793
  0
LINE
  5
4F7
100
AcDbEntity
  8
0
100
AcDbLine
 62
7
  6
CONTINUOUS
 10
379.8207231575
 20
246.371214074
 11
379.5290564952
 21
245.6265328945
  0
LINE
  5
4F8
100
AcDbEntity
  8
0
100
AcDbLine
 62
7
  6
CONTINUOUS
 10
382.0198903805
 20
260.0101502264
 11
381.7282231575
 21
259.4144056166
  0
LINE
  5
4F9
100
AcDbEntity
  8
0
100
AcDbLine
 62
7
  6
CONTINUOUS
 10
391.9107231575
 20
269.0490862895
 11
391.5357235151
 21
268.2831287999
  0
LINE
  5
4FA
100
AcDbEntity
  8
0
100
AcDbLine
 62
7
  6
CONTINUOUS
 10
382.8948903805
 20
259.7122779215
 11
382.6032231575
 21
259.2654690469
  0
LINE
  5
4FB
100
AcDbEntity
  8
0
100
AcDbLine
 62
7
  6
CONTINUOUS
 10
383.4732231575
 20
272.4958946575
 11
382.9107231575
 21
271.729937302
  0
LINE
  5
4FC
100
AcDbEntity
  8
0
100
AcDbLine
 62
7
  6
CONTINUOUS
 10
380.2698903805
 20
258.3718521322
 11
379.8323903805
 21
257.7761075223
  0
LINE
  5
4FD
100
AcDbEntity
  8
0
100
AcDbLine
 62
7
  6
CONTINUOUS
 10
382.3482231575
 20
272.6873839963
 11
381.9732229787
 21
272.3044053186
  0
LINE
  5
4FE
100
AcDbEntity
  8
KONSTRUKTIONSELEMENTE
100
AcDbLine
 62
7
  6
CONTINUOUS
 10
365.8532231575
 20
289.4627032936
 11
411.8532231575
 21
289.4627032936
  0
LINE
  5
4FF
100
AcDbEntity
  8
0
100
AcDbLine
 62
7
  6
CONTINUOUS
 10
342.4232231575
 20
295.2327032936
 11
351.4232231575
 21
295.2327032936
  0
LINE
  5
500
100
AcDbEntity
  8
0
100
AcDbLine
 62
7
  6
CONTINUOUS
 10
351.4232231575
 20
296.3577032936
 11
347.4019465047
 21
296.3577032936
  0
LINE
  5
501
100
AcDbEntity
  8
0
100
AcDbLine
 62
7
  6
CONTINUOUS
 10
346.2530104715
 20
296.3577032936
 11
343.3806698519
 21
296.3577032936
  0
LINE
  5
502
100
AcDbEntity
  8
0
100
AcDbLine
 62
7
  6
CONTINUOUS
 10
350.0827976513
 20
310.0452036513
 11
349.3168401617
 21
310.4202032936
  0
LINE
  5
503
100
AcDbEntity
  8
0
100
AcDbLine
 62
7
  6
CONTINUOUS
 10
349.1253508228
 20
318.2952032936
 11
349.6998188394
 21
317.9202025784
  0
LINE
  5
504
100
AcDbEntity
  8
0
100
AcDbLine
 62
7
  6
CONTINUOUS
 10
415.8532231575
 20
259.861214074
 11
415.4157231575
 21
260.4569586838
  0
LINE
  5
505
100
AcDbEntity
  8
0
100
AcDbLine
 62
7
  6
CONTINUOUS
 10
415.5615576035
 20
256.2867457891
 11
415.2698887116
 21
256.7335544551
  0
LINE
  5
506
100
AcDbEntity
  8
0
100
AcDbLine
 62
7
  6
CONTINUOUS
 10
400.9107231575
 20
273.836320566
 11
400.5357224423
 21
274.6022779215
  0
LINE
  5
507
100
AcDbEntity
  8
0
100
AcDbLine
 62
7
  6
CONTINUOUS
 10
416.4365576035
 20
256.4356819416
 11
416.1448887116
 21
257.03142676
  0
LINE
  5
508
100
AcDbEntity
  8
0
100
AcDbLine
 62
7
  6
CONTINUOUS
 10
415.1240576035
 20
259.4144056166
 11
414.9782231575
 21
259.7122779215
  0
LINE
  5
509
100
AcDbEntity
  8
0
100
AcDbLine
 62
7
  6
CONTINUOUS
 10
399.9732224423
 20
272.8788733352
 11
399.7857231575
 21
273.6448306907
  0
LINE
  5
50A
100
AcDbEntity
  8
0
100
AcDbLine
 62
7
  6
CONTINUOUS
 10
405.6448887116
 20
255.8399373318
 11
405.4990576035
 21
256.4356819416
  0
LINE
  5
50B
100
AcDbEntity
  8
0
100
AcDbLine
 62
7
  6
CONTINUOUS
 10
401.0982224423
 20
272.8788733352
 11
400.9107231575
 21
273.836320566
  0
LINE
  5
50C
100
AcDbEntity
  8
0
100
AcDbLine
 62
7
  6
CONTINUOUS
 10
404.7698887116
 20
255.6910011793
 11
404.6240576035
 21
256.4356819416
  0
LINE
  5
50D
100
AcDbEntity
  8
0
100
AcDbLine
 62
7
  6
CONTINUOUS
 10
401.0982224423
 20
272.8788733352
 11
401.0982224423
 21
270.0065329839
  0
LINE
  5
50E
100
AcDbEntity
  8
0
100
AcDbLine
 62
7
  6
CONTINUOUS
 10
403.4573887116
 20
254.9463203127
 11
403.4573887116
 21
254.0527032936
  0
LINE
  5
50F
100
AcDbEntity
  8
BEZUGSACHSEN
100
AcDbLine
 62
7
  6
CONTINUOUS
 10
403.8532231575
 20
181.9627032936
 11
403.8532231575
 21
228.1627032936
  0
LINE
  5
510
100
AcDbEntity
  8
0
100
AcDbLine
 62
7
  6
CONTINUOUS
 10
404.6240576035
 20
261.0527032936
 11
404.6240576035
 21
256.4356819416
  0
LINE
  5
511
100
AcDbEntity
  8
0
100
AcDbLine
 62
7
  6
CONTINUOUS
 10
405.4990576035
 20
261.0527032936
 11
405.4990576035
 21
256.4356819416
  0
LINE
  5
512
100
AcDbEntity
  8
0
100
AcDbLine
 62
7
  6
CONTINUOUS
 10
408.9990576035
 20
261.0527032936
 11
408.9990576035
 21
256.4356819416
  0
LINE
  5
513
100
AcDbEntity
  8
0
100
AcDbLine
 62
7
  6
CONTINUOUS
 10
401.0982224423
 20
270.0065329839
 11
400.9107231575
 21
269.0490862895
  0
LINE
  5
514
100
AcDbEntity
  8
0
100
AcDbLine
 62
7
  6
CONTINUOUS
 10
399.9732224423
 20
270.0065329839
 11
399.7857231575
 21
269.2405756284
  0
LINE
  5
515
100
AcDbEntity
  8
0
100
AcDbLine
 62
7
  6
CONTINUOUS
 10
396.1657231575
 20
258.967596742
 11
396.0198887116
 21
258.5207882846
  0
LINE
  5
516
100
AcDbEntity
  8
0
100
AcDbLine
 62
7
  6
CONTINUOUS
 10
397.0407231575
 20
258.8186605895
 11
396.8948887116
 21
258.3718521322
  0
LINE
  5
517
100
AcDbEntity
  8
0
100
AcDbLine
 62
7
  6
CONTINUOUS
 10
428.7550203679
 20
342.1321594684
 11
434.4889075607
 21
357.0694462924
  0
LINE
  5
518
100
AcDbEntity
  8
0
100
AcDbLine
 62
7
  6
CONTINUOUS
 10
384.6332231575
 20
242.4988734842
 11
384.3415563518
 21
241.7541926176
  0
LINE
  5
519
100
AcDbEntity
  8
0
100
AcDbLine
 62
7
  6
CONTINUOUS
 10
400.9107231575
 20
269.0490862895
 11
400.5357224423
 21
268.2831287999
  0
LINE
  5
51A
100
AcDbEntity
  8
0
100
AcDbLine
 62
7
  6
CONTINUOUS
 10
390.7857231575
 20
269.2405756284
 11
390.4107235151
 21
268.6661076117
  0
LINE
  5
51B
100
AcDbEntity
  8
0
100
AcDbLine
 62
7
  6
CONTINUOUS
 10
380.6957231575
 20
246.371214074
 11
380.4040564561
 21
245.9244056166
  0
LINE
  5
51C
100
AcDbEntity
  8
0
100
AcDbLine
 62
7
  6
CONTINUOUS
 10
399.7857231575
 20
269.2405756284
 11
399.4107224423
 21
268.6661076117
  0
LINE
  5
51D
100
AcDbEntity
  8
0
100
AcDbLine
 62
7
  6
CONTINUOUS
 10
380.2698903805
 20
255.2441926176
 11
379.8323903805
 21
254.6484479556
  0
LINE
  5
51E
100
AcDbEntity
  8
0
100
AcDbLine
 62
7
  6
CONTINUOUS
 10
380.2582231575
 20
246.9669586838
 11
379.8207231575
 21
246.371214074
  0
LINE
  5
51F
100
AcDbEntity
  8
0
100
AcDbLine
 62
7
  6
CONTINUOUS
 10
379.3948903805
 20
258.5207882846
 11
379.1032231575
 21
258.2229159797
  0
LINE
  5
520
100
AcDbEntity
  8
0
100
AcDbLine
 62
7
  6
CONTINUOUS
 10
382.6032231575
 20
260.6058948363
 11
382.0198903805
 21
260.0101502264
  0
LINE
  5
521
100
AcDbEntity
  8
0
100
AcDbLine
 62
7
  6
CONTINUOUS
 10
391.5357235151
 20
268.2831287999
 11
390.7857231575
 21
267.5171713773
  0
LINE
  5
522
100
AcDbEntity
  8
0
100
AcDbLine
 62
7
  6
CONTINUOUS
 10
379.3948903805
 20
255.3931288744
 11
379.1032231575
 21
255.0952564652
  0
LINE
  5
523
100
AcDbEntity
  8
0
100
AcDbLine
 62
7
  6
CONTINUOUS
 10
390.4107235151
 20
268.6661076117
 11
389.8482235151
 21
268.2831287999
  0
LINE
  5
524
100
AcDbEntity
  8
0
100
AcDbLine
 62
7
  6
CONTINUOUS
 10
382.9107231575
 20
271.729937302
 11
382.1607233363
 21
271.3469586242
  0
LINE
  5
525
100
AcDbEntity
  8
0
100
AcDbLine
 62
7
  6
CONTINUOUS
 10
381.9732229787
 20
272.3044053186
 11
381.4107229787
 21
272.1129159797
  0
LINE
  5
526
100
AcDbEntity
  8
0
100
AcDbLine
 62
7
  6
CONTINUOUS
 10
344.5296058851
 20
301.0452031148
 11
345.1040744382
 21
301.0452031148
  0
LINE
  5
527
100
AcDbEntity
  8
0
100
AcDbLine
 62
7
  6
CONTINUOUS
 10
345.2955637771
 20
302.1702031148
 11
344.5296058851
 21
302.1702031148
  0
LINE
  5
528
100
AcDbEntity
  8
0
100
AcDbLine
 62
7
  6
CONTINUOUS
 10
342.4232231575
 20
303.8577031148
 11
348.3593934673
 21
303.8577031148
  0
LINE
  5
529
100
AcDbEntity
  8
0
100
AcDbLine
 62
7
  6
CONTINUOUS
 10
348.3593934673
 20
304.9827036513
 11
342.4232231575
 21
304.9827036513
  0
LINE
  5
52A
100
AcDbEntity
  8
0
100
AcDbLine
 62
7
  6
CONTINUOUS
 10
349.3168401617
 20
310.4202032936
 11
348.3593934673
 21
310.6077036513
  0
LINE
  5
52B
100
AcDbEntity
  8
0
100
AcDbLine
 62
7
  6
CONTINUOUS
 10
348.3593934673
 20
309.4827036513
 11
349.1253508228
 21
309.2952032936
  0
LINE
  5
52C
100
AcDbEntity
  8
0
100
AcDbLine
 62
7
  6
CONTINUOUS
 10
350.0827976513
 20
319.0452025784
 11
349.3168401617
 21
319.4202032936
  0
LINE
  5
52D
100
AcDbEntity
  8
0
100
AcDbLine
 62
7
  6
CONTINUOUS
 10
412.0615576035
 20
255.5420650268
 11
411.9157231575
 21
255.9888734842
  0
LINE
  5
52E
100
AcDbEntity
  8
0
100
AcDbLine
 62
7
  6
CONTINUOUS
 10
412.4990576035
 20
258.5207882846
 11
412.3532231575
 21
258.967596742
  0
LINE
  5
52F
100
AcDbEntity
  8
0
100
AcDbLine
 62
7
  6
CONTINUOUS
 10
415.9990576035
 20
259.4144056166
 11
415.8532231575
 21
259.861214074
  0
LINE
  5
530
100
AcDbEntity
  8
0
100
AcDbLine
 62
7
  6
CONTINUOUS
 10
411.1865576035
 20
255.3931288744
 11
411.0407231575
 21
255.9888734842
  0
LINE
  5
531
100
AcDbEntity
  8
0
100
AcDbLine
 62
7
  6
CONTINUOUS
 10
411.6240576035
 20
258.2229159797
 11
411.4782231575
 21
258.8186605895
  0
LINE
  5
532
100
AcDbEntity
  8
0
100
AcDbLine
 62
7
  6
CONTINUOUS
 10
409.8740576035
 20
261.0527032936
 11
409.8740576035
 21
256.4356819416
  0
LINE
  5
533
100
AcDbEntity
  8
0
100
AcDbLine
 62
7
  6
CONTINUOUS
 10
410.1032231575
 20
283.8127032936
 11
410.1032231575
 21
283.5627032936
  0
LINE
  5
534
100
AcDbEntity
  8
0
100
AcDbLine
 62
7
  6
CONTINUOUS
 10
410.1032231575
 20
233.5627032936
 11
410.1032231575
 21
233.3127032936
  0
LINE
  5
535
100
AcDbEntity
  8
BEZUGSACHSEN
100
AcDbLine
 62
7
  6
CONTINUOUS
 10
410.2032231575
 20
288.9627032936
 11
410.2032231575
 21
289.4627032936
  0
LINE
  5
536
100
AcDbEntity
  8
0
100
AcDbLine
 62
7
  6
CONTINUOUS
 10
411.4782231575
 20
259.4144056166
 11
411.4782231575
 21
258.8186605895
  0
LINE
  5
537
100
AcDbEntity
  8
BEZUGSACHSEN
100
AcDbLine
 62
7
  6
CONTINUOUS
 10
411.8532231575
 20
289.4627032936
 11
411.8532231575
 21
307.6627032937
  0
LINE
  5
538
100
AcDbEntity
  8
0
100
AcDbLine
 62
7
  6
CONTINUOUS
 10
412.3532231575
 20
259.2654690469
 11
412.3532231575
 21
258.967596742
  0
LINE
  5
539
100
AcDbEntity
  8
0
100
AcDbLine
 62
7
  6
CONTINUOUS
 10
415.5615576035
 20
256.2867457891
 11
415.5615576035
 21
255.8399373318
  0
LINE
  5
53A
100
AcDbEntity
  8
0
100
AcDbLine
 62
7
  6
CONTINUOUS
 10
416.4365576035
 20
256.4356819416
 11
416.4365576035
 21
255.6910011793
  0
LINE
  5
53B
100
AcDbEntity
  8
0
100
AcDbLine
 62
7
  6
CONTINUOUS
 10
409.8740576035
 20
256.4356819416
 11
409.7282231575
 21
255.6910011793
  0
LINE
  5
53C
100
AcDbEntity
  8
0
100
AcDbLine
 62
7
  6
CONTINUOUS
 10
408.9990576035
 20
256.4356819416
 11
408.8532231575
 21
255.8399373318
  0
LINE
  5
53D
100
AcDbEntity
  8
0
100
AcDbLine
 62
7
  6
CONTINUOUS
 10
392.9457231575
 20
246.8180225314
 11
390.029056769
 21
240.5627032936
  0
LINE
  5
53E
100
AcDbEntity
  8
0
100
AcDbLine
 62
7
  6
CONTINUOUS
 10
393.8207231575
 20
246.8180225314
 11
390.904056769
 21
240.5627032936
  0
LINE
  5
53F
100
AcDbEntity
  8
0
100
AcDbLine
 62
7
  6
CONTINUOUS
 10
386.674889546
 20
241.3073841602
 11
385.7998899633
 21
239.6690862746
  0
LINE
  5
540
100
AcDbEntity
  8
0
100
AcDbLine
 62
7
  6
CONTINUOUS
 10
387.404056769
 20
241.3073841602
 11
386.529056769
 21
239.6690862746
  0
LINE
  5
541
100
AcDbEntity
  8
0
100
AcDbLine
 62
7
  6
CONTINUOUS
 10
383.7582231575
 20
242.2010011793
 11
383.4665563518
 21
241.7541926176
  0
LINE
  5
542
100
AcDbEntity
  8
0
100
AcDbLine
 62
7
  6
CONTINUOUS
 10
384.3415563518
 20
241.7541926176
 11
383.9040563518
 21
241.1584479556
  0
LINE
  5
543
100
AcDbEntity
  8
0
100
AcDbLine
 62
7
  6
CONTINUOUS
 10
396.8948887116
 20
258.3718521322
 11
396.4573887116
 21
257.7761075223
  0
LINE
  5
544
100
AcDbEntity
  8
0
100
AcDbLine
 62
7
  6
CONTINUOUS
 10
387.1240559345
 20
255.0952564652
 11
386.5407231575
 21
254.4995118032
  0
LINE
  5
545
100
AcDbEntity
  8
0
100
AcDbLine
 62
7
  6
CONTINUOUS
 10
400.5357224423
 20
268.2831287999
 11
399.7857231575
 21
267.5171713773
  0
LINE
  5
546
100
AcDbEntity
  8
0
100
AcDbLine
 62
7
  6
CONTINUOUS
 10
380.6957231575
 20
243.839299065
 11
380.4040564561
 21
243.54142676
  0
LINE
  5
547
100
AcDbEntity
  8
0
100
AcDbLine
 62
7
  6
CONTINUOUS
 10
396.0198887116
 20
258.5207882846
 11
395.7282231575
 21
258.2229159797
  0
LINE
  5
548
100
AcDbEntity
  8
0
100
AcDbLine
 62
7
  6
CONTINUOUS
 10
379.8323903805
 20
254.6484479556
 11
379.2490559345
 21
254.2016394591
  0
LINE
  5
549
100
AcDbEntity
  8
0
100
AcDbLine
 62
7
  6
CONTINUOUS
 10
383.3323903805
 20
260.0101502264
 11
382.8948903805
 21
259.7122779215
  0
LINE
  5
54A
100
AcDbEntity
  8
0
100
AcDbLine
 62
7
  6
CONTINUOUS
 10
399.4107224423
 20
268.6661076117
 11
398.8482224423
 21
268.2831287999
  0
LINE
  5
54B
100
AcDbEntity
  8
0
100
AcDbLine
 62
7
  6
CONTINUOUS
 10
386.2490559345
 20
255.3931288744
 11
385.8115559345
 21
255.0952564652
  0
LINE
  5
54C
100
AcDbEntity
  8
0
100
AcDbLine
 62
7
  6
CONTINUOUS
 10
390.7857231575
 20
267.5171713773
 11
390.0357227999
 21
267.1341926493
  0
LINE
  5
54D
100
AcDbEntity
  8
0
100
AcDbLine
 62
7
  6
CONTINUOUS
 10
383.1865559345
 20
260.9037671412
 11
382.6032231575
 21
260.6058948363
  0
LINE
  5
54E
100
AcDbEntity
  8
0
100
AcDbLine
 62
7
  6
CONTINUOUS
 10
379.8323903805
 20
257.7761075223
 11
379.5407231575
 21
257.6271713699
  0
LINE
  5
54F
100
AcDbEntity
  8
0
100
AcDbLine
 62
7
  6
CONTINUOUS
 10
399.7857231575
 20
267.5171713773
 11
399.0357238728
 21
267.1341926493
  0
LINE
  5
550
100
AcDbEntity
  8
0
100
AcDbLine
 62
7
  6
CONTINUOUS
 10
379.1032231575
 20
258.2229159797
 11
378.6657231575
 21
258.0739798273
  0
LINE
  5
551
100
AcDbEntity
  8
0
100
AcDbLine
 62
7
  6
CONTINUOUS
 10
348.3593934673
 20
303.8577031148
 11
349.3168401617
 21
304.0452034725
  0
LINE
  5
552
100
AcDbEntity
  8
BEZUGSACHSEN
100
AcDbLine
 62
7
  6
CONTINUOUS
 10
365.8532231575
 20
307.6627032936
 11
411.8532231576
 21
307.6627032936
  0
LINE
  5
553
100
AcDbEntity
  8
KONSTRUKTIONSELEMENTE
100
AcDbLine
 62
7
  6
CONTINUOUS
 10
370.4311449766
 20
307.8627032936
 11
382.3638522441
 21
307.8627032936
  0
LINE
  5
554
100
AcDbEntity
  8
KONSTRUKTIONSELEMENTE
100
AcDbLine
 62
7
  6
CONTINUOUS
 10
383.047355722
 20
307.8627032936
 11
388.8268881952
 21
307.8627032936
  0
LINE
  5
555
100
AcDbEntity
  8
0
100
AcDbLine
 62
7
  6
CONTINUOUS
 10
342.4232231575
 20
309.4827036513
 11
348.3593934673
 21
309.4827036513
  0
LINE
  5
556
100
AcDbEntity
  8
0
100
AcDbLine
 62
7
  6
CONTINUOUS
 10
348.3593934673
 20
310.6077036513
 11
342.4232231575
 21
310.6077036513
  0
LINE
  5
557
100
AcDbEntity
  8
0
100
AcDbLine
 62
7
  6
CONTINUOUS
 10
342.4232231575
 20
312.1077032936
 11
351.4232231575
 21
312.1077032936
  0
LINE
  5
558
100
AcDbEntity
  8
0
100
AcDbLine
 62
7
  6
CONTINUOUS
 10
350.2742869902
 20
313.2327032936
 11
343.5721591908
 21
313.2327032936
  0
LINE
  5
559
100
AcDbEntity
  8
0
100
AcDbLine
 62
7
  6
CONTINUOUS
 10
349.3168401617
 20
319.4202032936
 11
348.3593934673
 21
319.6077025784
  0
LINE
  5
55A
100
AcDbEntity
  8
0
100
AcDbLine
 62
7
  6
CONTINUOUS
 10
348.3593934673
 20
318.4827025784
 11
349.1253508228
 21
318.2952032936
  0
LINE
  5
55B
100
AcDbEntity
  8
0
100
AcDbLine
 62
7
  6
CONTINUOUS
 10
418.8532231575
 20
288.9627032936
 11
418.8532231575
 21
283.8127032936
  0
LINE
  5
55C
100
AcDbEntity
  8
0
100
AcDbLine
 62
7
  6
CONTINUOUS
 10
418.8532231575
 20
233.3127032936
 11
418.8532231575
 21
228.1627032936
  0
LINE
  5
55D
100
AcDbEntity
  8
RUNDUNGEN
100
AcDbLine
 62
7
  6
CONTINUOUS
 10
418.8532231575
 20
236.5627032936
 11
418.8532231575
 21
280.5627032936
  0
LINE
  5
55E
100
AcDbEntity
  8
KONSTRUKTIONSELEMENTE
100
AcDbLine
 62
7
  6
CONTINUOUS
 10
421.3532231575
 20
280.8127032936
 11
421.3532231575
 21
352.6172014241
  0
LINE
  5
55F
100
AcDbEntity
  8
RUNDUNGEN
100
AcDbLine
 62
7
  6
CONTINUOUS
 10
421.3532231575
 20
318.3127032936
 11
421.3532231575
 21
356.1518376758
  0
LINE
  5
560
100
AcDbEntity
  8
0
100
AcDbLine
 62
7
  6
CONTINUOUS
 10
411.6240576035
 20
260.0101502264
 11
411.4782231575
 21
259.4144056166
  0
LINE
  5
561
100
AcDbEntity
  8
0
100
AcDbLine
 62
7
  6
CONTINUOUS
 10
412.4990576035
 20
259.7122779215
 11
412.3532231575
 21
259.2654690469
  0
LINE
  5
562
100
AcDbEntity
  8
0
100
AcDbLine
 62
7
  6
CONTINUOUS
 10
409.7282231575
 20
255.6910011793
 11
409.4365576035
 21
255.0952564652
  0
LINE
  5
563
100
AcDbEntity
  8
0
100
AcDbLine
 62
7
  6
CONTINUOUS
 10
408.8532231575
 20
255.8399373318
 11
408.5615576035
 21
255.3931288744
  0
LINE
  5
564
100
AcDbEntity
  8
0
100
AcDbLine
 62
7
  6
CONTINUOUS
 10
396.4573887116
 20
257.7761075223
 11
395.8740576035
 21
257.329299065
  0
LINE
  5
565
100
AcDbEntity
  8
0
100
AcDbLine
 62
7
  6
CONTINUOUS
 10
381.1332231575
 20
246.6690863789
 11
380.6957231575
 21
246.371214074
  0
LINE
  5
566
100
AcDbEntity
  8
0
100
AcDbLine
 62
7
  6
CONTINUOUS
 10
380.987389859
 20
244.8818521322
 11
380.1123898068
 21
244.2861075223
  0
LINE
  5
567
100
AcDbEntity
  8
0
100
AcDbLine
 62
7
  6
CONTINUOUS
 10
381.1332231575
 20
244.1371713699
 11
380.6957231575
 21
243.839299065
  0
LINE
  5
568
100
AcDbEntity
  8
0
100
AcDbLine
 62
7
  6
CONTINUOUS
 10
380.987389859
 20
247.4137671412
 11
380.2582231575
 21
246.9669586838
  0
LINE
  5
569
100
AcDbEntity
  8
0
100
AcDbLine
 62
7
  6
CONTINUOUS
 10
386.5407231575
 20
254.4995118032
 11
385.9573903805
 21
254.2016394591
  0
LINE
  5
56A
100
AcDbEntity
  8
0
100
AcDbLine
 62
7
  6
CONTINUOUS
 10
379.1032231575
 20
255.0952564652
 11
378.6657231575
 21
254.9463203127
  0
LINE
  5
56B
100
AcDbEntity
  8
0
100
AcDbLine
 62
7
  6
CONTINUOUS
 10
395.7282231575
 20
258.2229159797
 11
395.2907231575
 21
258.0739798273
  0
LINE
  5
56C
100
AcDbEntity
  8
0
100
AcDbLine
 62
7
  6
CONTINUOUS
 10
413.3740576035
 20
260.1590863789
 11
412.9365576035
 21
260.0101502264
  0
LINE
  5
56D
100
AcDbEntity
  8
0
100
AcDbLine
 62
7
  6
CONTINUOUS
 10
349.1253508228
 20
305.170202936
 11
348.3593934673
 21
304.9827036513
  0
LINE
  5
56E
100
AcDbEntity
  8
0
100
AcDbLine
 62
7
  6
CONTINUOUS
 10
436.1783145811
 20
315.5099956361
 11
434.6674790107
 21
315.5099956361
  0
LINE
  5
56F
100
AcDbEntity
  8
0
100
AcDbLine
 62
7
  6
CONTINUOUS
 10
427.7392757804
 20
315.5099956361
 11
426.22844021
 21
315.5099956361
  0
LINE
  5
570
100
AcDbEntity
  8
0
100
AcDbLine
 62
7
  6
CONTINUOUS
 10
345.487053116
 20
318.4827025784
 11
348.3593934673
 21
318.4827025784
  0
LINE
  5
571
100
AcDbEntity
  8
0
100
AcDbLine
 62
7
  6
CONTINUOUS
 10
348.3593934673
 20
319.6077025784
 11
345.487053116
 21
319.6077025784
  0
LINE
  5
572
100
AcDbEntity
  8
0
100
AcDbLine
 62
7
  6
CONTINUOUS
 10
430.4425418252
 20
323.0099956361
 11
430.4425418252
 21
320.0936921902
  0
LINE
  5
573
100
AcDbEntity
  8
0
100
AcDbLine
 62
7
  6
CONTINUOUS
 10
431.9533773956
 20
320.0912970533
 11
431.9533773956
 21
323.0099956361
  0
LINE
  5
574
100
AcDbEntity
  8
0
100
AcDbLine
 62
7
  6
CONTINUOUS
 10
416.4365576035
 20
255.6910011793
 11
416.1448887116
 21
255.0952564652
  0
LINE
  5
575
100
AcDbEntity
  8
0
100
AcDbLine
 62
7
  6
CONTINUOUS
 10
415.5615576035
 20
255.8399373318
 11
415.2698887116
 21
255.3931288744
  0
LINE
  5
576
100
AcDbEntity
  8
0
100
AcDbLine
 62
7
  6
CONTINUOUS
 10
412.2073887116
 20
260.6058948363
 11
411.6240576035
 21
260.0101502264
  0
LINE
  5
577
100
AcDbEntity
  8
0
100
AcDbLine
 62
7
  6
CONTINUOUS
 10
409.4365576035
 20
255.0952564652
 11
408.8532231575
 21
254.4995118032
  0
LINE
  5
578
100
AcDbEntity
  8
0
100
AcDbLine
 62
7
  6
CONTINUOUS
 10
416.1448887116
 20
255.0952564652
 11
415.5615576035
 21
254.4995118032
  0
LINE
  5
579
100
AcDbEntity
  8
0
100
AcDbLine
 62
7
  6
CONTINUOUS
 10
383.4665563518
 20
241.7541926176
 11
383.0290563518
 21
241.4563203127
  0
LINE
  5
57A
100
AcDbEntity
  8
0
100
AcDbLine
 62
7
  6
CONTINUOUS
 10
412.9365576035
 20
260.0101502264
 11
412.4990576035
 21
259.7122779215
  0
LINE
  5
57B
100
AcDbEntity
  8
0
100
AcDbLine
 62
7
  6
CONTINUOUS
 10
408.5615576035
 20
255.3931288744
 11
408.1240576035
 21
255.0952564652
  0
LINE
  5
57C
100
AcDbEntity
  8
0
100
AcDbLine
 62
7
  6
CONTINUOUS
 10
415.2698887116
 20
255.3931288744
 11
414.8323887116
 21
255.0952564652
  0
LINE
  5
57D
100
AcDbEntity
  8
0
100
AcDbLine
 62
7
  6
CONTINUOUS
 10
383.9040563518
 20
241.1584479556
 11
383.1748899633
 21
240.7116394591
  0
LINE
  5
57E
100
AcDbEntity
  8
0
100
AcDbLine
 62
7
  6
CONTINUOUS
 10
412.7907231575
 20
260.9037671412
 11
412.2073887116
 21
260.6058948363
  0
LINE
  5
57F
100
AcDbEntity
  8
0
100
AcDbLine
 62
7
  6
CONTINUOUS
 10
408.8532231575
 20
254.4995118032
 11
408.2698887116
 21
254.2016394591
  0
LINE
  5
580
100
AcDbEntity
  8
0
100
AcDbLine
 62
7
  6
CONTINUOUS
 10
415.5615576035
 20
254.4995118032
 11
414.9782231575
 21
254.2016394591
  0
LINE
  5
581
100
AcDbEntity
  8
0
100
AcDbLine
 62
7
  6
CONTINUOUS
 10
381.5707231575
 20
246.8180225314
 11
381.1332231575
 21
246.6690863789
  0
LINE
  5
582
100
AcDbEntity
  8
0
100
AcDbLine
 62
7
  6
CONTINUOUS
 10
381.5707231575
 20
244.2861075223
 11
381.1332231575
 21
244.1371713699
  0
LINE
  5
583
100
AcDbEntity
  8
0
100
AcDbLine
 62
7
  6
CONTINUOUS
 10
383.0290563518
 20
241.4563203127
 11
382.5915565604
 21
241.3073841602
  0
LINE
  5
584
100
AcDbEntity
  8
0
100
AcDbLine
 62
7
  6
CONTINUOUS
 10
344.7210957605
 20
318.2952032936
 11
345.487053116
 21
318.4827025784
  0
LINE
  5
585
100
AcDbEntity
  8
0
100
AcDbLine
 62
7
  6
CONTINUOUS
 10
345.487053116
 20
319.6077025784
 11
344.5296058851
 21
319.4202032936
  0
LINE
  5
586
100
AcDbEntity
  8
0
100
AcDbLine
 62
7
  6
CONTINUOUS
 10
431.9533773956
 20
323.0099956361
 11
430.4425418252
 21
323.0099956361
  0
LINE
  5
587
100
AcDbEntity
  8
0
100
AcDbLine
 62
7
  6
CONTINUOUS
 10
436.1783145811
 20
324.0099956361
 11
434.6674790107
 21
324.0099956361
  0
LINE
  5
588
100
AcDbEntity
  8
0
100
AcDbLine
 62
7
  6
CONTINUOUS
 10
427.7392757804
 20
324.0099956361
 11
426.22844021
 21
324.0099956361
  0
LINE
  5
589
100
AcDbEntity
  8
0
100
AcDbLine
 62
7
  6
CONTINUOUS
 10
436.2027360095
 20
314.9504148886
 11
436.1783145811
 21
315.5099956361
  0
LINE
  5
58A
100
AcDbEntity
  8
0
100
AcDbLine
 62
7
  6
CONTINUOUS
 10
436.2027360095
 20
323.4504148886
 11
436.1783145811
 21
324.0099956361
  0
LINE
  5
58B
100
AcDbEntity
  8
0
100
AcDbLine
 62
7
  6
CONTINUOUS
 10
435.950878835
 20
351.6857775276
 11
435.950878835
 21
333.2460143086
  0
LINE
  5
58C
100
AcDbEntity
  8
0
100
AcDbLine
 62
7
  6
CONTINUOUS
 10
440.3532231575
 20
360.5372862851
 11
440.3532231575
 21
352.4210789754
  0
LINE
  5
58D
100
AcDbEntity
  8
RUNDUNGEN
100
AcDbLine
 62
7
  6
CONTINUOUS
 10
440.3532231575
 20
360.5372862851
 11
440.3532231575
 21
269.3127032936
  0
LINE
  5
58E
100
AcDbEntity
  8
0
100
AcDbLine
 62
7
  6
CONTINUOUS
 10
435.950878835
 20
333.2460143086
 11
428.7550203679
 21
342.1321594684
  0
LINE
  5
58F
100
AcDbEntity
  8
0
100
AcDbLine
 62
7
  6
CONTINUOUS
 10
434.4889075607
 20
357.0694462924
 11
423.0912577441
 21
380.4380914961
  0
LINE
  5
590
100
AcDbEntity
  8
BEZUGSACHSEN
100
AcDbLine
 62
7
  6
CONTINUOUS
 10
400.8532231575
 20
178.9627032936
 11
403.8532231575
 21
181.9627032936
  0
LINE
  5
591
100
AcDbEntity
  8
0
100
AcDbLine
 62
7
  6
CONTINUOUS
 10
388.8532231575
 20
391.5627032936
 11
423.0912577441
 21
380.4380914961
  0
LWPOLYLINE
  5
592
100
AcDbEntity
  8
0
100
AcDbPolyline
 62
7
  6
CONTINUOUS
 90
18
 70
0
 10
273.495985873
 20
22.1950587185
 10
273.6312999962
 20
22.1960321215
 10
274.3354243341
 20
22.2325902872
 10
275.0280578244
 20
22.3206525152
 10
275.7045369381
 20
22.4579464846
 10
276.3608918953
 20
22.6417816886
 10
276.9935985171
 20
22.8691195429
 10
277.5994032081
 20
23.1365523262
 10
278.1760108158
 20
23.440676393
 10
278.7219905816
 20
23.7783129798
 10
279.2340061627
 20
24.144665686
 10
279.7099935082
 20
24.5349391904
 10
280.1485748136
 20
24.9441592195
 10
280.5489507855
 20
25.3671656502
 10
280.9113288553
 20
25.7992136168
 10
281.2365545473
 20
26.2358591701
 10
281.5253884749
 20
26.6720303045
 10
281.6607374594
 20
26.8955073227
  0
LINE
  5
593
100
AcDbEntity
  8
0
100
AcDbLine
 62
7
  6
CONTINUOUS
 10
273.495988437
 20
22.1950587814
 11
272.4595485411
 21
22.1950587814
  0
LINE
  5
594
100
AcDbEntity
  8
KONSTRUKTIONSELEMENTE
100
AcDbLine
 62
7
  6
CONTINUOUS
 10
273.495988437
 20
22.1950587814
 11
272.4595485411
 21
22.1950587814
  0
LINE
  5
595
100
AcDbEntity
  8
0
100
AcDbLine
 62
7
  6
CONTINUOUS
 10
264.477768489
 20
26.3449045433
 11
263.977768489
 21
26.3449045433
  0
LINE
  5
596
100
AcDbEntity
  8
0
100
AcDbLine
 62
7
  6
CONTINUOUS
 10
264.477768489
 20
26.3699673578
 11
263.977768489
 21
26.3699673578
  0
LINE
  5
597
100
AcDbEntity
  8
0
100
AcDbLine
 62
7
  6
CONTINUOUS
 10
264.0315886081
 20
27.8808029282
 11
263.977768489
 21
27.8808029282
  0
LINE
  5
598
100
AcDbEntity
  8
0
100
AcDbLine
 62
7
  6
CONTINUOUS
 10
264.0026355769
 20
28.0593743782
 11
263.8937464052
 21
28.0593743782
  0
LINE
  5
599
100
AcDbEntity
  8
0
100
AcDbLine
 62
7
  6
CONTINUOUS
 10
281.9529014011
 20
28.0593743782
 11
282.0617905728
 21
28.0593743782
  0
LINE
  5
59A
100
AcDbEntity
  8
KONSTRUKTIONSELEMENTE
100
AcDbLine
 62
7
  6
CONTINUOUS
 10
218.4075127045
 20
77.7615345311
 11
217.862479497
 21
74.8114601586
  0
LINE
  5
59B
100
AcDbEntity
  8
BEZUGSACHSEN
100
AcDbLine
 62
7
  6
CONTINUOUS
 10
223.6987122977
 20
96.6950587814
 11
210.4196561063
 21
73.6950587814
  0
LINE
  5
59C
100
AcDbEntity
  8
0
100
AcDbLine
 62
7
  6
CONTINUOUS
 10
266.4495164703
 20
123.0224207549
 11
264.477768489
 21
121.8840315271
  0
LINE
  5
59D
100
AcDbEntity
  8
BEZUGSACHSEN
100
AcDbLine
 62
7
  6
CONTINUOUS
 10
210.4196561063
 20
73.6950587814
 11
223.6987122977
 21
50.6950587814
  0
LINE
  5
59E
100
AcDbEntity
  8
0
100
AcDbLine
 62
7
  6
CONTINUOUS
 10
222.477768489
 20
46.1117243354
 11
222.477768489
 21
46.4232784948
  0
LINE
  5
59F
100
AcDbEntity
  8
KONSTRUKTIONSELEMENTE
100
AcDbLine
 62
7
  6
CONTINUOUS
 10
218.6264131224
 20
75.4330142533
 11
219.0578977234
 21
77.7684896809
  0
LINE
  5
5A0
100
AcDbEntity
  8
KONSTRUKTIONSELEMENTE
100
AcDbLine
 62
7
  6
CONTINUOUS
 10
220.9409240457
 20
77.4205961208
 11
220.5094394448
 21
75.0851206932
  0
LINE
  5
5A1
100
AcDbEntity
  8
KONSTRUKTIONSELEMENTE
100
AcDbLine
 62
7
  6
CONTINUOUS
 10
221.2626498331
 20
74.9459632951
 11
221.6487150109
 21
77.0355992502
  0
LINE
  5
5A2
100
AcDbEntity
  8
KONSTRUKTIONSELEMENTE
100
AcDbLine
 62
7
  6
CONTINUOUS
 10
218.6465963758
 20
78.3529405762
 11
218.4075127045
 21
77.7615345311
  0
LINE
  5
5A3
100
AcDbEntity
  8
KONSTRUKTIONSELEMENTE
100
AcDbLine
 62
7
  6
CONTINUOUS
 10
219.0578977234
 20
77.7684896809
 11
219.251561939
 21
78.1140560778
  0
LINE
  5
5A4
100
AcDbEntity
  8
KONSTRUKTIONSELEMENTE
100
AcDbLine
 62
7
  6
CONTINUOUS
 10
222.7621539452
 20
86.5004796626
 11
222.329199475
 21
85.8880660551
  0
LINE
  5
5A5
100
AcDbEntity
  8
KONSTRUKTIONSELEMENTE
100
AcDbLine
 62
7
  6
CONTINUOUS
 10
220.597381594
 20
83.4384116249
 11
220.1644269173
 21
82.8259977254
  0
LINE
  5
5A6
100
AcDbEntity
  8
KONSTRUKTIONSELEMENTE
100
AcDbLine
 62
7
  6
CONTINUOUS
 10
228.0865866645
 20
90.4937755777
 11
225.472911709
 21
89.0211238106
  0
LINE
  5
5A7
100
AcDbEntity
  8
KONSTRUKTIONSELEMENTE
100
AcDbLine
 62
7
  6
CONTINUOUS
 10
266.4492104079
 20
24.3678735131
 11
264.477768489
 21
25.5060860356
  0
LINE
  5
5A8
100
AcDbEntity
  8
KONSTRUKTIONSELEMENTE
100
AcDbLine
 62
7
  6
CONTINUOUS
 10
220.883518132
 20
77.812548317
 11
220.9409240457
 21
77.4205961208
  0
LINE
  5
5A9
100
AcDbEntity
  8
KONSTRUKTIONSELEMENTE
100
AcDbLine
 62
7
  6
CONTINUOUS
 10
226.0738655396
 20
82.7814729148
 11
226.0658695807
 21
82.3278773212
  0
LINE
  5
5AA
100
AcDbEntity
  8
KONSTRUKTIONSELEMENTE
100
AcDbLine
 62
7
  6
CONTINUOUS
 10
226.7634720574
 20
81.9877796065
 11
226.8436272779
 21
82.5434442971
  0
LINE
  5
5AB
100
AcDbEntity
  8
KONSTRUKTIONSELEMENTE
100
AcDbLine
 62
7
  6
CONTINUOUS
 10
223.7626282418
 20
73.7213937437
 11
223.8988865437
 21
74.4589123368
  0
LINE
  5
5AC
100
AcDbEntity
  8
KONSTRUKTIONSELEMENTE
100
AcDbLine
 62
7
  6
CONTINUOUS
 10
224.4666294465
 20
77.5319063575
 11
224.6255975087
 21
78.3923449506
  0
LINE
  5
5AD
100
AcDbEntity
  8
KONSTRUKTIONSELEMENTE
100
AcDbLine
 62
7
  6
CONTINUOUS
 10
226.0658695807
 20
82.3278773212
 11
225.8814737312
 21
81.845907019
  0
LINE
  5
5AE
100
AcDbEntity
  8
KONSTRUKTIONSELEMENTE
100
AcDbLine
 62
7
  6
CONTINUOUS
 10
226.506917414
 20
81.4037407526
 11
226.7634720574
 21
81.9877796065
  0
LINE
  5
5AF
100
AcDbEntity
  8
KONSTRUKTIONSELEMENTE
100
AcDbLine
 62
7
  6
CONTINUOUS
 10
231.2302173309
 20
86.696930799
 11
231.0288400557
 21
86.290408855
  0
LINE
  5
5B0
100
AcDbEntity
  8
KONSTRUKTIONSELEMENTE
100
AcDbLine
 62
7
  6
CONTINUOUS
 10
231.5137401992
 20
85.6844485596
 11
231.8240202095
 21
86.1523307111
  0
LINE
  5
5B1
100
AcDbEntity
  8
KONSTRUKTIONSELEMENTE
100
AcDbLine
 62
7
  6
CONTINUOUS
 10
225.8814737312
 20
81.845907019
 11
225.5928372801
 21
81.437631086
  0
LINE
  5
5B2
100
AcDbEntity
  8
KONSTRUKTIONSELEMENTE
100
AcDbLine
 62
7
  6
CONTINUOUS
 10
226.2182809628
 20
80.9954648196
 11
226.506917414
 21
81.4037407526
  0
LINE
  5
5B3
100
AcDbEntity
  8
KONSTRUKTIONSELEMENTE
100
AcDbLine
 62
7
  6
CONTINUOUS
 10
231.0288400557
 20
86.290408855
 11
230.6558940037
 21
85.9337469303
  0
LINE
  5
5B4
100
AcDbEntity
  8
KONSTRUKTIONSELEMENTE
100
AcDbLine
 62
7
  6
CONTINUOUS
 10
225.7532450979
 20
80.5588147169
 11
226.2182809628
 21
80.9954648196
  0
LINE
  5
5B5
100
AcDbEntity
  8
KONSTRUKTIONSELEMENTE
100
AcDbLine
 62
7
  6
CONTINUOUS
 10
219.1140404162
 20
78.775040822
 11
218.6465963758
 21
78.3529405762
  0
LINE
  5
5B6
100
AcDbEntity
  8
KONSTRUKTIONSELEMENTE
100
AcDbLine
 62
7
  6
CONTINUOUS
 10
231.0318901987
 20
85.2664256667
 11
231.5137401992
 21
85.6844485596
  0
LINE
  5
5B7
100
AcDbEntity
  8
KONSTRUKTIONSELEMENTE
100
AcDbLine
 62
7
  6
CONTINUOUS
 10
225.5928372801
 20
81.437631086
 11
225.1999606402
 21
81.1030501061
  0
LINE
  5
5B8
100
AcDbEntity
  8
KONSTRUKTIONSELEMENTE
100
AcDbLine
 62
7
  6
CONTINUOUS
 10
219.251561939
 20
78.1140560778
 11
219.5480515241
 21
78.3135099267
  0
LINE
  5
5B9
100
AcDbEntity
  8
KONSTRUKTIONSELEMENTE
100
AcDbLine
 62
7
  6
CONTINUOUS
 10
226.5023265989
 20
88.7219655667
 11
228.4625828155
 21
89.826454392
  0
LINE
  5
5BA
100
AcDbEntity
  8
KONSTRUKTIONSELEMENTE
100
AcDbLine
 62
7
  6
CONTINUOUS
 10
228.6937687208
 20
90.6893580656
 11
228.0865866645
 21
90.4937755777
  0
LINE
  5
5BB
100
AcDbEntity
  8
RUNDUNGEN
100
AcDbLine
 62
7
  6
CONTINUOUS
 10
293.977768489
 20
43.6950587814
 11
283.8399789812
 21
43.6950587814
  0
LINE
  5
5BC
100
AcDbEntity
  8
RUNDUNGEN
100
AcDbLine
 62
7
  6
CONTINUOUS
 10
262.1155579968
 20
43.6950587814
 11
234.977768489
 21
43.6950587814
  0
LINE
  5
5BD
100
AcDbEntity
  8
0
100
AcDbLine
 62
7
  6
CONTINUOUS
 10
221.9620218396
 20
46.1117243354
 11
222.477768489
 21
46.1117243354
  0
LINE
  5
5BE
100
AcDbEntity
  8
0
100
AcDbLine
 62
7
  6
CONTINUOUS
 10
221.3610511428
 20
46.4033932273
 11
222.477768489
 21
46.4033932273
  0
LINE
  5
5BF
100
AcDbEntity
  8
0
100
AcDbLine
 62
7
  6
CONTINUOUS
 10
221.0726013835
 20
46.5492243354
 11
222.2065636816
 21
46.5492243354
  0
LINE
  5
5C0
100
AcDbEntity
  8
0
100
AcDbLine
 62
7
  6
CONTINUOUS
 10
220.7915075299
 20
46.6950587814
 11
221.9010716584
 21
46.6950587814
  0
LINE
  5
5C1
100
AcDbEntity
  8
0
100
AcDbLine
 62
7
  6
CONTINUOUS
 10
219.9883190745
 20
47.1325587814
 11
221.0338237907
 21
47.1325587814
  0
LINE
  5
5C2
100
AcDbEntity
  8
0
100
AcDbLine
 62
7
  6
CONTINUOUS
 10
218.9986271756
 20
47.7158932273
 11
219.9750035067
 21
47.7158932273
  0
LINE
  5
5C3
100
AcDbEntity
  8
KONSTRUKTIONSELEMENTE
100
AcDbLine
 62
7
  6
CONTINUOUS
 10
221.5339032158
 20
77.8195038185
 11
221.3736719326
 21
78.3575685627
  0
LINE
  5
5C4
100
AcDbEntity
  8
KONSTRUKTIONSELEMENTE
100
AcDbLine
 62
7
  6
CONTINUOUS
 10
231.2600259171
 20
87.1533126065
 11
231.2302173309
 21
86.696930799
  0
LINE
  5
5C5
100
AcDbEntity
  8
KONSTRUKTIONSELEMENTE
100
AcDbLine
 62
7
  6
CONTINUOUS
 10
231.8240202095
 20
86.1523307111
 11
232.008968164
 21
86.8426532676
  0
LINE
  5
5C6
100
AcDbEntity
  8
0
100
AcDbLine
 62
7
  6
CONTINUOUS
 10
231.2608992921
 20
82.1950587814
 11
226.353422004
 21
73.6950587814
  0
LINE
  5
5C7
100
AcDbEntity
  8
KONSTRUKTIONSELEMENTE
100
AcDbLine
 62
7
  6
CONTINUOUS
 10
230.6558940037
 20
85.9337469303
 11
228.6956377871
 21
84.829258105
  0
LINE
  5
5C8
100
AcDbEntity
  8
KONSTRUKTIONSELEMENTE
100
AcDbLine
 62
7
  6
CONTINUOUS
 10
228.4182152432
 20
83.7937738996
 11
231.0318901987
 21
85.2664256667
  0
LINE
  5
5C9
100
AcDbEntity
  8
KONSTRUKTIONSELEMENTE
100
AcDbLine
 62
7
  6
CONTINUOUS
 10
225.2561274161
 20
80.2979275415
 11
225.7532450979
 21
80.5588147169
  0
LINE
  5
5CA
100
AcDbEntity
  8
KONSTRUKTIONSELEMENTE
100
AcDbLine
 62
7
  6
CONTINUOUS
 10
219.6843098259
 20
79.0510285198
 11
219.1140404162
 21
78.775040822
  0
LINE
  5
5CB
100
AcDbEntity
  8
KONSTRUKTIONSELEMENTE
100
AcDbLine
 62
7
  6
CONTINUOUS
 10
225.1999606402
 20
81.1030501061
 11
224.7750021289
 21
80.9442320922
  0
LINE
  5
5CC
100
AcDbEntity
  8
0
100
AcDbLine
 62
7
  6
CONTINUOUS
 10
217.8696563781
 20
48.4450587814
 11
218.7778456497
 21
48.4450587814
  0
LINE
  5
5CD
100
AcDbEntity
  8
0
100
AcDbLine
 62
7
  6
CONTINUOUS
 10
216.8399991092
 20
49.1742243354
 11
217.6939992799
 21
49.1742243354
  0
LINE
  5
5CE
100
AcDbEntity
  8
0
100
AcDbLine
 62
7
  6
CONTINUOUS
 10
216.076813652
 20
49.7575587814
 11
216.8947351774
 21
49.7575587814
  0
LINE
  5
5CF
100
AcDbEntity
  8
0
100
AcDbLine
 62
7
  6
CONTINUOUS
 10
215.3606088762
 20
50.3408932273
 11
216.147395384
 21
50.3408932273
  0
LINE
  5
5D0
100
AcDbEntity
  8
BEZUGSACHSEN
100
AcDbLine
 62
7
  6
CONTINUOUS
 10
223.6987122977
 20
50.6950587814
 11
250.2568246804
 21
50.6950587814
  0
LINE
  5
5D1
100
AcDbEntity
  8
0
100
AcDbLine
 62
7
  6
CONTINUOUS
 10
214.6864132205
 20
50.9242243354
 11
215.4460225703
 21
50.9242243354
  0
LINE
  5
5D2
100
AcDbEntity
  8
0
100
AcDbLine
 62
7
  6
CONTINUOUS
 10
214.5239332741
 20
51.0700587814
 11
215.2772767439
 21
51.0700587814
  0
LINE
  5
5D3
100
AcDbEntity
  8
0
100
AcDbLine
 62
7
  6
CONTINUOUS
 10
214.0501588847
 20
51.5075587814
 11
214.7858185151
 21
51.5075587814
  0
LINE
  5
5D4
100
AcDbEntity
  8
KONSTRUKTIONSELEMENTE
100
AcDbLine
 62
7
  6
CONTINUOUS
 10
220.6778674581
 20
78.1047737646
 11
220.883518132
 21
77.812548317
  0
LINE
  5
5D5
100
AcDbEntity
  8
0
100
AcDbLine
 62
7
  6
CONTINUOUS
 10
226.353422004
 20
73.6950587814
 11
231.2608992921
 21
65.1950587814
  0
LINE
  5
5D6
100
AcDbEntity
  8
KONSTRUKTIONSELEMENTE
100
AcDbLine
 62
7
  6
CONTINUOUS
 10
225.9054617538
 20
83.2066936967
 11
226.0738655396
 21
82.7814729148
  0
LINE
  5
5D7
100
AcDbEntity
  8
KONSTRUKTIONSELEMENTE
100
AcDbLine
 62
7
  6
CONTINUOUS
 10
226.8436272779
 20
82.5434442971
 11
226.7153012861
 21
83.2464977325
  0
LINE
  5
5D8
100
AcDbEntity
  8
KONSTRUKTIONSELEMENTE
100
AcDbLine
 62
7
  6
CONTINUOUS
 10
232.008968164
 20
86.8426532676
 11
231.9761106812
 21
87.4102553506
  0
LINE
  5
5D9
100
AcDbEntity
  8
KONSTRUKTIONSELEMENTE
100
AcDbLine
 62
7
  6
CONTINUOUS
 10
242.5119383001
 20
92.1171369623
 11
239.9106065008
 21
86.7103751892
  0
LINE
  5
5DA
100
AcDbEntity
  8
KONSTRUKTIONSELEMENTE
100
AcDbLine
 62
7
  6
CONTINUOUS
 10
240.5864517225
 20
86.3852087143
 11
242.6343087368
 21
90.6415957792
  0
LINE
  5
5DB
100
AcDbEntity
  8
KONSTRUKTIONSELEMENTE
100
AcDbLine
 62
7
  6
CONTINUOUS
 10
246.9049322406
 20
90.0035548754
 11
242.8907248186
 21
85.9848967243
  0
LINE
  5
5DC
100
AcDbEntity
  8
KONSTRUKTIONSELEMENTE
100
AcDbLine
 62
7
  6
CONTINUOUS
 10
243.0645517278
 20
85.1929312262
 11
246.6893800665
 21
88.6905969297
  0
LINE
  5
5DD
100
AcDbEntity
  8
KONSTRUKTIONSELEMENTE
100
AcDbLine
 62
7
  6
CONTINUOUS
 10
250.2866376392
 20
86.1335113677
 11
249.8027335021
 21
85.9280522876
  0
LINE
  5
5DE
100
AcDbEntity
  8
0
100
AcDbLine
 62
7
  6
CONTINUOUS
 10
212.8785712367
 20
52.6742243354
 11
213.5739249277
 21
52.6742243354
  0
LINE
  5
5DF
100
AcDbEntity
  8
0
100
AcDbLine
 62
7
  6
CONTINUOUS
 10
212.0780882625
 20
53.5492243354
 11
212.7483880551
 21
53.5492243354
  0
LINE
  5
5E0
100
AcDbEntity
  8
0
100
AcDbLine
 62
7
  6
CONTINUOUS
 10
211.9506106097
 20
53.6950587814
 11
212.617088714
 21
53.6950587814
  0
LINE
  5
5E1
100
AcDbEntity
  8
0
100
AcDbLine
 62
7
  6
CONTINUOUS
 10
211.7004930177
 20
53.9867243354
 11
212.3595998327
 21
53.9867243354
  0
LINE
  5
5E2
100
AcDbEntity
  8
0
100
AcDbLine
 62
7
  6
CONTINUOUS
 10
211.3370210441
 20
54.4242243354
 11
211.9857059509
 21
54.4242243354
  0
LINE
  5
5E3
100
AcDbEntity
  8
0
100
AcDbLine
 62
7
  6
CONTINUOUS
 10
210.8732597044
 20
55.0075587814
 11
211.5091225172
 21
55.0075587814
  0
LINE
  5
5E4
100
AcDbEntity
  8
0
100
AcDbLine
 62
7
  6
CONTINUOUS
 10
210.432113281
 20
55.5908932273
 11
211.0562470158
 21
55.5908932273
  0
LINE
  5
5E5
100
AcDbEntity
  8
0
100
AcDbLine
 62
7
  6
CONTINUOUS
 10
210.0123852491
 20
56.1742243354
 11
210.6257591198
 21
56.1742243354
  0
LINE
  5
5E6
100
AcDbEntity
  8
0
100
AcDbLine
 62
7
  6
CONTINUOUS
 10
209.7109981333
 20
56.6117243354
 11
210.3168746648
 21
56.6117243354
  0
LINE
  5
5E7
100
AcDbEntity
  8
0
100
AcDbLine
 62
7
  6
CONTINUOUS
 10
209.5162294955
 20
56.9033932273
 11
210.1173588399
 21
56.9033932273
  0
LINE
  5
5E8
100
AcDbEntity
  8
0
100
AcDbLine
 62
7
  6
CONTINUOUS
 10
209.4206521494
 20
57.0492243354
 11
210.019479373
 21
57.0492243354
  0
LINE
  5
5E9
100
AcDbEntity
  8
KONSTRUKTIONSELEMENTE
100
AcDbLine
 62
7
  6
CONTINUOUS
 10
221.3736719326
 20
78.3575685627
 11
220.9396608247
 21
78.819099458
  0
LINE
  5
5EA
100
AcDbEntity
  8
KONSTRUKTIONSELEMENTE
100
AcDbLine
 62
7
  6
CONTINUOUS
 10
226.7153012861
 20
83.2464977325
 11
226.4426568257
 21
83.7454129351
  0
LINE
  5
5EB
100
AcDbEntity
  8
KONSTRUKTIONSELEMENTE
100
AcDbLine
 62
7
  6
CONTINUOUS
 10
231.1182645242
 20
87.6595536532
 11
231.2600259171
 21
87.1533126065
  0
LINE
  5
5EC
100
AcDbEntity
  8
KONSTRUKTIONSELEMENTE
100
AcDbLine
 62
7
  6
CONTINUOUS
 10
242.6343087368
 20
90.6415957792
 11
242.1634230469
 21
85.626487353
  0
LINE
  5
5ED
100
AcDbEntity
  8
KONSTRUKTIONSELEMENTE
100
AcDbLine
 62
7
  6
CONTINUOUS
 10
242.8907248186
 20
85.9848967243
 11
243.5257061325
 21
91.6293872499
  0
LINE
  5
5EE
100
AcDbEntity
  8
KONSTRUKTIONSELEMENTE
100
AcDbLine
 62
7
  6
CONTINUOUS
 10
246.6893800665
 20
88.6905969297
 11
244.6415230522
 21
84.4342098649
  0
LINE
  5
5EF
100
AcDbEntity
  8
KONSTRUKTIONSELEMENTE
100
AcDbLine
 62
7
  6
CONTINUOUS
 10
245.3173682739
 20
84.10904339
 11
247.9187000731
 21
89.515805163
  0
LINE
  5
5F0
100
AcDbEntity
  8
KONSTRUKTIONSELEMENTE
100
AcDbLine
 62
7
  6
CONTINUOUS
 10
247.1710825949
 20
84.118178236
 11
246.9390712137
 21
83.7888323791
  0
LINE
  5
5F1
100
AcDbEntity
  8
KONSTRUKTIONSELEMENTE
100
AcDbLine
 62
7
  6
CONTINUOUS
 10
249.9021322435
 20
83.6619009004
 11
249.4930377025
 21
83.3562981098
  0
LINE
  5
5F2
100
AcDbEntity
  8
KONSTRUKTIONSELEMENTE
100
AcDbLine
 62
7
  6
CONTINUOUS
 10
251.9721946668
 20
83.0239076045
 11
251.7676471098
 21
82.8711059952
  0
LINE
  5
5F3
100
AcDbEntity
  8
KONSTRUKTIONSELEMENTE
100
AcDbLine
 62
7
  6
CONTINUOUS
 10
251.657789241
 20
82.1649306547
 11
252.1416933781
 21
82.3703897348
  0
LINE
  5
5F4
100
AcDbEntity
  8
KONSTRUKTIONSELEMENTE
100
AcDbLine
 62
7
  6
CONTINUOUS
 10
249.4825786466
 20
80.3839714356
 11
249.8642075079
 21
80.5130321636
  0
LINE
  5
5F5
100
AcDbEntity
  8
0
100
AcDbLine
 62
7
  6
CONTINUOUS
 10
208.8716239847
 20
57.9242243354
 11
209.4575651027
 21
57.9242243354
  0
LINE
  5
5F6
100
AcDbEntity
  8
0
100
AcDbLine
 62
7
  6
CONTINUOUS
 10
208.2015038416
 20
59.0908932273
 11
208.7724570337
 21
59.0908932273
  0
LINE
  5
5F7
100
AcDbEntity
  8
0
100
AcDbLine
 62
7
  6
CONTINUOUS
 10
207.0437391965
 20
61.4500594966
 11
207.5905453272
 21
61.4500594966
  0
LINE
  5
5F8
100
AcDbEntity
  8
0
100
AcDbLine
 62
7
  6
CONTINUOUS
 10
206.9622960898
 20
61.6375587814
 11
207.5074810178
 21
61.6375587814
  0
LINE
  5
5F9
100
AcDbEntity
  8
KONSTRUKTIONSELEMENTE
100
AcDbLine
 62
7
  6
CONTINUOUS
 10
225.5606585633
 20
83.6035403025
 11
225.9054617538
 21
83.2066936967
  0
LWPOLYLINE
  5
5FA
100
AcDbEntity
  8
KONSTRUKTIONSELEMENTE
100
AcDbPolyline
 62
7
  6
CONTINUOUS
 90
18
 70
0
 10
264.294800346
 20
26.8955059141
 10
264.4354518022
 20
26.6635426336
 10
264.7249464109
 20
26.2273706469
 10
265.0508434436
 20
25.7908220565
 10
265.4139051618
 20
25.3589538308
 10
265.8149682406
 20
24.9362117537
 10
266.2542328466
 20
24.5273394133
 10
266.7309010985
 20
24.1374877228
 10
267.2435985833
 20
23.771623799
 10
267.7902590244
 20
23.4345422536
 10
268.3675516803
 20
23.1310347218
 10
268.9740309791
 20
22.8642907626
 10
269.6073880469
 20
22.6377199746
 10
270.264364405
 20
22.4547302375
 10
270.9414284148
 20
22.3183610973
 10
271.6346019817
 20
22.2313034208
 10
272.339213598
 20
22.1958285619
 10
272.4595510953
 20
22.1950587185
  0
LINE
  5
5FB
100
AcDbEntity
  8
KONSTRUKTIONSELEMENTE
100
AcDbLine
 62
7
  6
CONTINUOUS
 10
225.472911709
 20
89.0211238106
 11
228.4182152432
 21
83.7937738996
  0
LINE
  5
5FC
100
AcDbEntity
  8
KONSTRUKTIONSELEMENTE
100
AcDbLine
 62
7
  6
CONTINUOUS
 10
228.6956377871
 20
84.829258105
 11
226.5023265989
 21
88.7219655667
  0
LINE
  5
5FD
100
AcDbEntity
  8
KONSTRUKTIONSELEMENTE
100
AcDbLine
 62
7
  6
CONTINUOUS
 10
231.9761106812
 20
87.4102553506
 11
231.771683263
 21
88.0277165949
  0
LINE
  5
5FE
100
AcDbEntity
  8
KONSTRUKTIONSELEMENTE
100
AcDbLine
 62
7
  6
CONTINUOUS
 10
247.3604613267
 20
83.0114302922
 11
247.4153894766
 21
83.364519162
  0
LINE
  5
5FF
100
AcDbEntity
  8
KONSTRUKTIONSELEMENTE
100
AcDbLine
 62
7
  6
CONTINUOUS
 10
246.9390712137
 20
83.7888323791
 11
246.7818677879
 21
83.3593451573
  0
LINE
  5
600
100
AcDbEntity
  8
KONSTRUKTIONSELEMENTE
100
AcDbLine
 62
7
  6
CONTINUOUS
 10
247.4153894766
 20
83.364519162
 11
247.5451288632
 21
83.6174619757
  0
LINE
  5
601
100
AcDbEntity
  8
KONSTRUKTIONSELEMENTE
100
AcDbLine
 62
7
  6
CONTINUOUS
 10
250.1587346971
 20
81.8252369489
 11
249.8992574928
 21
81.3193489224
  0
LINE
  5
602
100
AcDbEntity
  8
0
100
AcDbLine
 62
7
  6
CONTINUOUS
 10
241.0758538683
 20
65.1950587814
 11
245.9833311564
 21
73.6950587814
  0
LINE
  5
603
100
AcDbEntity
  8
KONSTRUKTIONSELEMENTE
100
AcDbLine
 62
7
  6
CONTINUOUS
 10
250.1616326297
 20
78.4153158139
 11
249.8690538321
 21
77.9662107605
  0
LINE
  5
604
100
AcDbEntity
  8
KONSTRUKTIONSELEMENTE
100
AcDbLine
 62
7
  6
CONTINUOUS
 10
250.2733020489
 20
80.8186349542
 11
250.6075888493
 21
81.2243792702
  0
LINE
  5
605
100
AcDbEntity
  8
KONSTRUKTIONSELEMENTE
100
AcDbLine
 62
7
  6
CONTINUOUS
 10
252.3462409351
 20
82.5231913441
 11
252.68052588
 21
82.9289378452
  0
LINE
  5
606
100
AcDbEntity
  8
KONSTRUKTIONSELEMENTE
100
AcDbLine
 62
7
  6
CONTINUOUS
 10
250.4488420958
 20
77.7108247311
 11
251.0881953088
 21
78.3649779005
  0
LINE
  5
607
100
AcDbEntity
  8
KONSTRUKTIONSELEMENTE
100
AcDbLine
 62
7
  6
CONTINUOUS
 10
250.6059331333
 20
78.7700665518
 11
250.1616326297
 21
78.4153158139
  0
LINE
  5
608
100
AcDbEntity
  8
KONSTRUKTIONSELEMENTE
100
AcDbLine
 62
7
  6
CONTINUOUS
 10
249.8992574928
 20
81.3193489224
 11
249.4901629518
 21
81.0137461319
  0
LINE
  5
609
100
AcDbEntity
  8
KONSTRUKTIONSELEMENTE
100
AcDbLine
 62
7
  6
CONTINUOUS
 10
252.1416933781
 20
82.3703897348
 11
252.3462409351
 21
82.5231913441
  0
LINE
  5
60A
100
AcDbEntity
  8
KONSTRUKTIONSELEMENTE
100
AcDbLine
 62
7
  6
CONTINUOUS
 10
249.8642075079
 20
80.5130321636
 11
250.2733020489
 21
80.8186349542
  0
LINE
  5
60B
100
AcDbEntity
  8
KONSTRUKTIONSELEMENTE
100
AcDbLine
 62
7
  6
CONTINUOUS
 10
250.9527068848
 20
78.9751174511
 11
250.6059331333
 21
78.7700665518
  0
LINE
  5
60C
100
AcDbEntity
  8
KONSTRUKTIONSELEMENTE
100
AcDbLine
 62
7
  6
CONTINUOUS
 10
251.548729138
 20
79.2355138832
 11
250.9527068848
 21
78.9751174511
  0
LINE
  5
60D
100
AcDbEntity
  8
KONSTRUKTIONSELEMENTE
100
AcDbLine
 62
7
  6
CONTINUOUS
 10
251.0881953088
 20
78.3649779005
 11
251.8088407952
 21
78.6530512692
  0
LINE
  5
60E
100
AcDbEntity
  8
0
100
AcDbLine
 62
7
  6
CONTINUOUS
 10
206.8038583866
 20
62.0125594966
 11
207.3459171131
 21
62.0125594966
  0
LINE
  5
60F
100
AcDbEntity
  8
0
100
AcDbLine
 62
7
  6
CONTINUOUS
 10
206.5044398506
 20
62.7625587814
 11
207.0406884027
 21
62.7625587814
  0
LINE
  5
610
100
AcDbEntity
  8
0
100
AcDbLine
 62
7
  6
CONTINUOUS
 10
206.2276958077
 20
63.5125580661
 11
206.7586848897
 21
63.5125580661
  0
LINE
  5
611
100
AcDbEntity
  8
0
100
AcDbLine
 62
7
  6
CONTINUOUS
 10
205.912669573
 20
64.4500587814
 11
206.4377969579
 21
64.4500587814
  0
LINE
  5
612
100
AcDbEntity
  8
0
100
AcDbLine
 62
7
  6
CONTINUOUS
 10
231.2608992921
 20
65.1950587814
 11
241.0758538683
 21
65.1950587814
  0
LINE
  5
613
100
AcDbEntity
  8
KONSTRUKTIONSELEMENTE
100
AcDbLine
 62
7
  6
CONTINUOUS
 10
220.3239719593
 20
78.2972721119
 11
220.6778674581
 21
78.1047737646
  0
LINE
  5
614
100
AcDbEntity
  8
KONSTRUKTIONSELEMENTE
100
AcDbLine
 62
7
  6
CONTINUOUS
 10
220.9396608247
 20
78.819099458
 11
220.5857653259
 21
79.0115978054
  0
LINE
  5
615
100
AcDbEntity
  8
KONSTRUKTIONSELEMENTE
100
AcDbLine
 62
7
  6
CONTINUOUS
 10
220.1644269173
 20
82.8259977254
 11
223.3958860057
 21
80.5414719727
  0
LINE
  5
616
100
AcDbEntity
  8
KONSTRUKTIONSELEMENTE
100
AcDbLine
 62
7
  6
CONTINUOUS
 10
223.8288406824
 20
81.1538858723
 11
220.597381594
 21
83.4384116249
  0
LINE
  5
617
100
AcDbEntity
  8
KONSTRUKTIONSELEMENTE
100
AcDbLine
 62
7
  6
CONTINUOUS
 10
222.329199475
 20
85.8880660551
 11
225.5606585633
 21
83.6035403025
  0
LINE
  5
618
100
AcDbEntity
  8
KONSTRUKTIONSELEMENTE
100
AcDbLine
 62
7
  6
CONTINUOUS
 10
226.4426568257
 20
83.7454129351
 11
225.9936130336
 21
84.21595391
  0
LINE
  5
619
100
AcDbEntity
  8
KONSTRUKTIONSELEMENTE
100
AcDbLine
 62
7
  6
CONTINUOUS
 10
230.1782740588
 20
89.3278567731
 11
231.1182645242
 21
87.6595536532
  0
LINE
  5
61A
100
AcDbEntity
  8
KONSTRUKTIONSELEMENTE
100
AcDbLine
 62
7
  6
CONTINUOUS
 10
231.771683263
 20
88.0277165949
 11
230.8316927977
 21
89.6960197149
  0
LINE
  5
61B
100
AcDbEntity
  8
KONSTRUKTIONSELEMENTE
100
AcDbLine
 62
7
  6
CONTINUOUS
 10
249.630670663
 20
77.2730487721
 11
249.6686324112
 21
76.5132093998
  0
LINE
  5
61C
100
AcDbEntity
  8
KONSTRUKTIONSELEMENTE
100
AcDbLine
 62
7
  6
CONTINUOUS
 10
246.7818677879
 20
83.3593451573
 11
246.8017475576
 21
82.9061148959
  0
LINE
  5
61D
100
AcDbEntity
  8
KONSTRUKTIONSELEMENTE
100
AcDbLine
 62
7
  6
CONTINUOUS
 10
250.1388548916
 20
82.2784671836
 11
250.1587346971
 21
81.8252369489
  0
LINE
  5
61E
100
AcDbEntity
  8
KONSTRUKTIONSELEMENTE
100
AcDbLine
 62
7
  6
CONTINUOUS
 10
250.2917517657
 20
76.6515801368
 11
250.2808871952
 21
77.2893938309
  0
LINE
  5
61F
100
AcDbEntity
  8
KONSTRUKTIONSELEMENTE
100
AcDbLine
 62
7
  6
CONTINUOUS
 10
252.68052588
 20
82.9289378452
 11
252.7903837488
 21
83.6351131856
  0
LINE
  5
620
100
AcDbEntity
  8
KONSTRUKTIONSELEMENTE
100
AcDbLine
 62
7
  6
CONTINUOUS
 10
249.8690538321
 20
77.9662107605
 11
249.630670663
 21
77.2730487721
  0
LINE
  5
621
100
AcDbEntity
  8
KONSTRUKTIONSELEMENTE
100
AcDbLine
 62
7
  6
CONTINUOUS
 10
250.6075888493
 20
81.2243792702
 11
250.7647905628
 21
81.6538687841
  0
LINE
  5
622
100
AcDbEntity
  8
KONSTRUKTIONSELEMENTE
100
AcDbLine
 62
7
  6
CONTINUOUS
 10
252.1293980926
 20
83.4533948263
 11
251.9721946668
 21
83.0239076045
  0
LINE
  5
623
100
AcDbEntity
  8
KONSTRUKTIONSELEMENTE
100
AcDbLine
 62
7
  6
CONTINUOUS
 10
250.2808871952
 20
77.2893938309
 11
250.4488420958
 21
77.7108247311
  0
LINE
  5
624
100
AcDbEntity
  8
KONSTRUKTIONSELEMENTE
100
AcDbLine
 62
7
  6
CONTINUOUS
 10
254.745744004
 20
76.6162817817
 11
254.1063911493
 21
75.9621257612
  0
LINE
  5
625
100
AcDbEntity
  8
KONSTRUKTIONSELEMENTE
100
AcDbLine
 62
7
  6
CONTINUOUS
 10
254.5886530537
 20
75.5570399804
 11
255.03295347
 21
75.911790699
  0
LINE
  5
626
100
AcDbEntity
  8
KONSTRUKTIONSELEMENTE
100
AcDbLine
 62
7
  6
CONTINUOUS
 10
254.2418789531
 20
75.3519890036
 11
254.5886530537
 21
75.5570399804
  0
LINE
  5
627
100
AcDbEntity
  8
KONSTRUKTIONSELEMENTE
100
AcDbLine
 62
7
  6
CONTINUOUS
 10
253.6458574947
 20
75.0915898173
 11
254.2418789531
 21
75.3519890036
  0
LINE
  5
628
100
AcDbEntity
  8
KONSTRUKTIONSELEMENTE
100
AcDbLine
 62
7
  6
CONTINUOUS
 10
254.1063911493
 20
75.9621257612
 11
253.3857452172
 21
75.6740552243
  0
LINE
  5
629
100
AcDbEntity
  8
0
100
AcDbLine
 62
7
  6
CONTINUOUS
 10
204.8491280451
 20
68.9500587814
 11
205.3553956097
 21
68.9500587814
  0
LINE
  5
62A
100
AcDbEntity
  8
0
100
AcDbLine
 62
7
  6
CONTINUOUS
 10
204.6508831778
 20
70.4500584237
 11
205.1537853097
 21
70.4500584237
  0
LINE
  5
62B
100
AcDbEntity
  8
KONSTRUKTIONSELEMENTE
100
AcDbLine
 62
7
  6
CONTINUOUS
 10
217.862479497
 20
74.8114601586
 11
223.7626282418
 21
73.7213937437
  0
LINE
  5
62C
100
AcDbEntity
  8
KONSTRUKTIONSELEMENTE
100
AcDbLine
 62
7
  6
CONTINUOUS
 10
223.8988865437
 20
74.4589123368
 11
221.2626498331
 21
74.9459632951
  0
LINE
  5
62D
100
AcDbEntity
  8
KONSTRUKTIONSELEMENTE
100
AcDbLine
 62
7
  6
CONTINUOUS
 10
220.5094394448
 20
75.0851206932
 11
218.6264131224
 21
75.4330142533
  0
LINE
  5
62E
100
AcDbEntity
  8
KONSTRUKTIONSELEMENTE
100
AcDbLine
 62
7
  6
CONTINUOUS
 10
224.317961892
 20
80.961176941
 11
223.8288406824
 21
81.1538858723
  0
LINE
  5
62F
100
AcDbEntity
  8
KONSTRUKTIONSELEMENTE
100
AcDbLine
 62
7
  6
CONTINUOUS
 10
223.3958860057
 20
80.5414719727
 11
223.9892482298
 21
80.2750692564
  0
LINE
  5
630
100
AcDbEntity
  8
KONSTRUKTIONSELEMENTE
100
AcDbLine
 62
7
  6
CONTINUOUS
 10
225.9936130336
 20
84.21595391
 11
222.7621539452
 21
86.5004796626
  0
LINE
  5
631
100
AcDbEntity
  8
KONSTRUKTIONSELEMENTE
100
AcDbLine
 62
7
  6
CONTINUOUS
 10
229.8187072504
 20
89.7113773074
 11
230.1782740588
 21
89.3278567731
  0
LINE
  5
632
100
AcDbEntity
  8
KONSTRUKTIONSELEMENTE
100
AcDbLine
 62
7
  6
CONTINUOUS
 10
230.8316927977
 20
89.6960197149
 11
230.4094597886
 21
90.1907607583
  0
LINE
  5
633
100
AcDbEntity
  8
0
100
AcDbLine
 62
7
  6
CONTINUOUS
 10
245.9833311564
 20
73.6950587814
 11
241.0758538683
 21
82.1950587814
  0
LINE
  5
634
100
AcDbEntity
  8
KONSTRUKTIONSELEMENTE
100
AcDbLine
 62
7
  6
CONTINUOUS
 10
246.8017475576
 20
82.9061148959
 11
246.8964369325
 21
82.3527409307
  0
LINE
  5
635
100
AcDbEntity
  8
KONSTRUKTIONSELEMENTE
100
AcDbLine
 62
7
  6
CONTINUOUS
 10
247.4078051714
 20
82.7347444657
 11
247.3604613267
 21
83.0114302922
  0
LINE
  5
636
100
AcDbEntity
  8
KONSTRUKTIONSELEMENTE
100
AcDbLine
 62
7
  6
CONTINUOUS
 10
255.5639159806
 20
77.0540549309
 11
255.5259542215
 21
77.8138943007
  0
LINE
  5
637
100
AcDbEntity
  8
KONSTRUKTIONSELEMENTE
100
AcDbLine
 62
7
  6
CONTINUOUS
 10
252.109518287
 20
83.9066250609
 11
252.1293980926
 21
83.4533948263
  0
LINE
  5
638
100
AcDbEntity
  8
KONSTRUKTIONSELEMENTE
100
AcDbLine
 62
7
  6
CONTINUOUS
 10
254.9028349542
 20
77.675523583
 11
254.9136989045
 21
77.0377126819
  0
LINE
  5
639
100
AcDbEntity
  8
KONSTRUKTIONSELEMENTE
100
AcDbLine
 62
7
  6
CONTINUOUS
 10
255.325532224
 20
76.3608957427
 11
255.5639159806
 21
77.0540549309
  0
LINE
  5
63A
100
AcDbEntity
  8
KONSTRUKTIONSELEMENTE
100
AcDbLine
 62
7
  6
CONTINUOUS
 10
254.9136989045
 20
77.0377126819
 11
254.745744004
 21
76.6162817817
  0
LINE
  5
63B
100
AcDbEntity
  8
KONSTRUKTIONSELEMENTE
100
AcDbLine
 62
7
  6
CONTINUOUS
 10
255.03295347
 20
75.911790699
 11
255.325532224
 21
76.3608957427
  0
LINE
  5
63C
100
AcDbEntity
  8
KONSTRUKTIONSELEMENTE
100
AcDbLine
 62
7
  6
CONTINUOUS
 10
252.5242428136
 20
74.8425225255
 11
253.6458574947
 21
75.0915898173
  0
LINE
  5
63D
100
AcDbEntity
  8
KONSTRUKTIONSELEMENTE
100
AcDbLine
 62
7
  6
CONTINUOUS
 10
253.3857452172
 20
75.6740552243
 11
252.5133782431
 21
75.4803362196
  0
LINE
  5
63E
100
AcDbEntity
  8
KONSTRUKTIONSELEMENTE
100
AcDbLine
 62
7
  6
CONTINUOUS
 10
252.5133782431
 20
75.4803362196
 11
251.7385377592
 21
75.4363169954
  0
LINE
  5
63F
100
AcDbEntity
  8
KONSTRUKTIONSELEMENTE
100
AcDbLine
 62
7
  6
CONTINUOUS
 10
251.874025563
 20
74.8261802378
 11
252.5242428136
 21
74.8425225255
  0
LINE
  5
640
100
AcDbEntity
  8
0
100
AcDbLine
 62
7
  6
CONTINUOUS
 10
204.5515364107
 20
71.5750584237
 11
205.0527689321
 21
71.5750584237
  0
LINE
  5
641
100
AcDbEntity
  8
0
100
AcDbLine
 62
7
  6
CONTINUOUS
 10
204.5390522916
 20
71.7625587814
 11
205.0400757965
 21
71.7625587814
  0
LINE
  5
642
100
AcDbEntity
  8
0
100
AcDbLine
 62
7
  6
CONTINUOUS
 10
204.517561782
 20
72.1375584237
 11
205.0182258918
 21
72.1375584237
  0
LINE
  5
643
100
AcDbEntity
  8
0
100
AcDbLine
 62
7
  6
CONTINUOUS
 10
204.4940027392
 20
72.7000584237
 11
204.9942734578
 21
72.7000584237
  0
LINE
  5
644
100
AcDbEntity
  8
0
100
AcDbLine
 62
7
  6
CONTINUOUS
 10
204.4787524727
 20
73.4500587814
 11
204.9787689224
 21
73.4500587814
  0
LINE
  5
645
100
AcDbEntity
  8
0
100
AcDbLine
 62
7
  6
CONTINUOUS
 10
204.4819495192
 20
74.200059139
 11
204.9820192129
 21
74.200059139
  0
LINE
  5
646
100
AcDbEntity
  8
0
100
AcDbLine
 62
7
  6
CONTINUOUS
 10
204.5035994946
 20
74.9500584237
 11
205.0040303855
 21
74.9500584237
  0
LINE
  5
647
100
AcDbEntity
  8
0
100
AcDbLine
 62
7
  6
CONTINUOUS
 10
204.5319691885
 20
75.5125584237
 11
205.0328741821
 21
75.5125584237
  0
LINE
  5
648
100
AcDbEntity
  8
0
100
AcDbLine
 62
7
  6
CONTINUOUS
 10
204.5566747845
 20
75.887559139
 11
205.0579933866
 21
75.887559139
  0
LINE
  5
649
100
AcDbEntity
  8
0
100
AcDbLine
 62
7
  6
CONTINUOUS
 10
204.5707692668
 20
76.0750584237
 11
205.0723241402
 21
76.0750584237
  0
LINE
  5
64A
100
AcDbEntity
  8
KONSTRUKTIONSELEMENTE
100
AcDbLine
 62
7
  6
CONTINUOUS
 10
251.4730561938
 20
74.865186276
 11
251.874025563
 21
74.8261802378
  0
LINE
  5
64B
100
AcDbEntity
  8
KONSTRUKTIONSELEMENTE
100
AcDbLine
 62
7
  6
CONTINUOUS
 10
223.9892482298
 20
80.2750692564
 11
224.5505289349
 21
80.1844296948
  0
LINE
  5
64C
100
AcDbEntity
  8
KONSTRUKTIONSELEMENTE
100
AcDbLine
 62
7
  6
CONTINUOUS
 10
219.9473664135
 20
78.366850876
 11
220.3239719593
 21
78.2972721119
  0
LINE
  5
64D
100
AcDbEntity
  8
KONSTRUKTIONSELEMENTE
100
AcDbLine
 62
7
  6
CONTINUOUS
 10
220.5857653259
 20
79.0115978054
 11
220.0836247154
 21
79.1043694691
  0
LINE
  5
64E
100
AcDbEntity
  8
KONSTRUKTIONSELEMENTE
100
AcDbLine
 62
7
  6
CONTINUOUS
 10
250.9203656953
 20
74.9985438269
 11
251.4730561938
 21
74.865186276
  0
LINE
  5
64F
100
AcDbEntity
  8
KONSTRUKTIONSELEMENTE
100
AcDbLine
 62
7
  6
CONTINUOUS
 10
251.7385377592
 20
75.4363169954
 11
250.8824039361
 21
75.7583831967
  0
LINE
  5
650
100
AcDbEntity
  8
KONSTRUKTIONSELEMENTE
100
AcDbLine
 62
7
  6
CONTINUOUS
 10
250.465201285
 20
75.2816039998
 11
250.9203656953
 21
74.9985438269
  0
LINE
  5
651
100
AcDbEntity
  8
KONSTRUKTIONSELEMENTE
100
AcDbLine
 62
7
  6
CONTINUOUS
 10
230.4094597886
 20
90.1907607583
 11
229.9409890262
 21
90.5129203341
  0
LINE
  5
652
100
AcDbEntity
  8
KONSTRUKTIONSELEMENTE
100
AcDbLine
 62
7
  6
CONTINUOUS
 10
250.8824039361
 20
75.7583831967
 11
250.5518634229
 21
76.0691175228
  0
LINE
  5
653
100
AcDbEntity
  8
KONSTRUKTIONSELEMENTE
100
AcDbLine
 62
7
  6
CONTINUOUS
 10
249.9558418882
 20
75.8087183195
 11
250.465201285
 21
75.2816039998
  0
LINE
  5
654
100
AcDbEntity
  8
KONSTRUKTIONSELEMENTE
100
AcDbLine
 62
7
  6
CONTINUOUS
 10
247.0933999604
 20
81.8757676765
 11
247.6918715926
 21
81.0746248689
  0
LINE
  5
655
100
AcDbEntity
  8
KONSTRUKTIONSELEMENTE
100
AcDbLine
 62
7
  6
CONTINUOUS
 10
248.1284302444
 20
81.5567721211
 11
247.6795760922
 21
82.1576297998
  0
LINE
  5
656
100
AcDbEntity
  8
KONSTRUKTIONSELEMENTE
100
AcDbLine
 62
7
  6
CONTINUOUS
 10
247.5451288632
 20
83.6174619757
 11
247.1710825949
 21
84.118178236
  0
LINE
  5
657
100
AcDbEntity
  8
KONSTRUKTIONSELEMENTE
100
AcDbLine
 62
7
  6
CONTINUOUS
 10
249.7922743747
 20
82.9557255599
 11
250.1388548916
 21
82.2784671836
  0
LINE
  5
658
100
AcDbEntity
  8
KONSTRUKTIONSELEMENTE
100
AcDbLine
 62
7
  6
CONTINUOUS
 10
247.6795760922
 20
82.1576297998
 11
247.4078051714
 21
82.7347444657
  0
LINE
  5
659
100
AcDbEntity
  8
KONSTRUKTIONSELEMENTE
100
AcDbLine
 62
7
  6
CONTINUOUS
 10
250.5518634229
 20
76.0691175228
 11
250.2917517657
 21
76.6515801368
  0
LINE
  5
65A
100
AcDbEntity
  8
KONSTRUKTIONSELEMENTE
100
AcDbLine
 62
7
  6
CONTINUOUS
 10
246.8964369325
 20
82.3527409307
 11
247.0933999604
 21
81.8757676765
  0
LINE
  5
65B
100
AcDbEntity
  8
KONSTRUKTIONSELEMENTE
100
AcDbLine
 62
7
  6
CONTINUOUS
 10
249.6686324112
 20
76.5132093998
 11
249.9558418882
 21
75.8087183195
  0
LINE
  5
65C
100
AcDbEntity
  8
KONSTRUKTIONSELEMENTE
100
AcDbLine
 62
7
  6
CONTINUOUS
 10
250.7647905628
 20
81.6538687841
 11
250.5952932773
 21
82.3073841476
  0
LINE
  5
65D
100
AcDbEntity
  8
KONSTRUKTIONSELEMENTE
100
AcDbLine
 62
7
  6
CONTINUOUS
 10
252.7903837488
 20
83.6351131856
 11
252.6956960594
 21
84.1884848387
  0
LINE
  5
65E
100
AcDbEntity
  8
KONSTRUKTIONSELEMENTE
100
AcDbLine
 62
7
  6
CONTINUOUS
 10
262.3758023321
 20
36.7662748625
 11
262.4302497091
 21
35.8183701399
  0
LWPOLYLINE
  5
65F
100
AcDbEntity
  8
KONSTRUKTIONSELEMENTE
100
AcDbPolyline
 62
7
  6
CONTINUOUS
 90
3
 70
0
 10
262.2898141652
 20
38.5540518044
 10
262.3175864828
 20
37.9313161062
 10
262.3758023321
 20
36.7662748625
  0
LINE
  5
660
100
AcDbEntity
  8
0
100
AcDbLine
 62
7
  6
CONTINUOUS
 10
262.2897650565
 20
108.8349208623
 11
262.2372488742
 21
107.5080618184
  0
LINE
  5
661
100
AcDbEntity
  8
0
100
AcDbLine
 62
7
  6
CONTINUOUS
 10
262.346180928
 20
110.0528370429
 11
262.2897650565
 21
108.8349208623
  0
LWPOLYLINE
  5
662
100
AcDbEntity
  8
0
100
AcDbPolyline
 62
7
  6
CONTINUOUS
 90
3
 70
0
 10
262.4302496461
 20
111.5717463942
 10
262.4060153127
 20
111.1649380806
 10
262.346180928
 20
110.0528370429
  0
LINE
  5
663
100
AcDbEntity
  8
BEZUGSACHSEN
100
AcDbLine
 62
7
  6
CONTINUOUS
 10
250.2568246804
 20
50.6950587814
 11
261.727768489
 21
70.5633162687
  0
LINE
  5
664
100
AcDbEntity
  8
KONSTRUKTIONSELEMENTE
100
AcDbLine
 62
7
  6
CONTINUOUS
 10
251.8088407952
 20
78.6530512692
 11
252.6812077694
 21
78.8467702739
  0
LINE
  5
665
100
AcDbEntity
  8
KONSTRUKTIONSELEMENTE
100
AcDbLine
 62
7
  6
CONTINUOUS
 10
252.670343819
 20
79.484581175
 11
251.548729138
 21
79.2355138832
  0
LINE
  5
666
100
AcDbEntity
  8
KONSTRUKTIONSELEMENTE
100
AcDbLine
 62
7
  6
CONTINUOUS
 10
249.0261385487
 20
80.3550567636
 11
249.4825786466
 21
80.3839714356
  0
LINE
  5
667
100
AcDbEntity
  8
KONSTRUKTIONSELEMENTE
100
AcDbLine
 62
7
  6
CONTINUOUS
 10
252.6812077694
 20
78.8467702739
 11
253.4560486989
 21
78.8907866663
  0
LINE
  5
668
100
AcDbEntity
  8
KONSTRUKTIONSELEMENTE
100
AcDbLine
 62
7
  6
CONTINUOUS
 10
253.3205602749
 20
79.5009262169
 11
252.670343819
 21
79.484581175
  0
LINE
  5
669
100
AcDbEntity
  8
0
100
AcDbLine
 62
7
  6
CONTINUOUS
 10
204.6798316988
 20
77.2000589602
 11
205.1832224487
 21
77.2000589602
  0
LINE
  5
66A
100
AcDbEntity
  8
0
100
AcDbLine
 62
7
  6
CONTINUOUS
 10
204.6939547431
 20
77.3200587814
 11
205.1975842216
 21
77.3200587814
  0
LINE
  5
66B
100
AcDbEntity
  8
0
100
AcDbLine
 62
7
  6
CONTINUOUS
 10
204.8800759903
 20
78.6325587814
 11
205.3868730354
 21
78.6325587814
  0
LINE
  5
66C
100
AcDbEntity
  8
0
100
AcDbLine
 62
7
  6
CONTINUOUS
 10
204.8912270329
 20
78.7000586026
 11
205.3982151322
 21
78.7000586026
  0
LINE
  5
66D
100
AcDbEntity
  8
0
100
AcDbLine
 62
7
  6
CONTINUOUS
 10
204.9230194152
 20
78.8875589602
 11
205.4305530214
 21
78.8875589602
  0
LINE
  5
66E
100
AcDbEntity
  8
0
100
AcDbLine
 62
7
  6
CONTINUOUS
 10
204.9560163749
 20
79.0750587814
 11
205.4641174102
 21
79.0750587814
  0
LINE
  5
66F
100
AcDbEntity
  8
0
100
AcDbLine
 62
7
  6
CONTINUOUS
 10
205.0622759517
 20
79.6375587814
 11
205.5722129978
 21
79.6375587814
  0
LINE
  5
670
100
AcDbEntity
  8
0
100
AcDbLine
 62
7
  6
CONTINUOUS
 10
205.2210810702
 20
80.3875586026
 11
205.7337871229
 21
80.3875586026
  0
LINE
  5
671
100
AcDbEntity
  8
KONSTRUKTIONSELEMENTE
100
AcDbLine
 62
7
  6
CONTINUOUS
 10
224.7750021289
 20
80.9442320922
 11
224.317961892
 21
80.961176941
  0
LINE
  5
672
100
AcDbEntity
  8
KONSTRUKTIONSELEMENTE
100
AcDbLine
 62
7
  6
CONTINUOUS
 10
253.7215299932
 20
79.4619202563
 11
253.3205602749
 21
79.5009262169
  0
LINE
  5
673
100
AcDbEntity
  8
KONSTRUKTIONSELEMENTE
100
AcDbLine
 62
7
  6
CONTINUOUS
 10
249.2108060852
 20
80.9610884471
 11
248.8566412631
 21
81.0085721272
  0
LINE
  5
674
100
AcDbEntity
  8
KONSTRUKTIONSELEMENTE
100
AcDbLine
 62
7
  6
CONTINUOUS
 10
254.2742204044
 20
79.328562686
 11
253.7215299932
 21
79.4619202563
  0
LINE
  5
675
100
AcDbEntity
  8
KONSTRUKTIONSELEMENTE
100
AcDbLine
 62
7
  6
CONTINUOUS
 10
248.5971641663
 20
80.502684181
 11
249.0261385487
 21
80.3550567636
  0
LINE
  5
676
100
AcDbEntity
  8
KONSTRUKTIONSELEMENTE
100
AcDbLine
 62
7
  6
CONTINUOUS
 10
253.4560486989
 20
78.8907866663
 11
254.3121821636
 21
78.5687233161
  0
LINE
  5
677
100
AcDbEntity
  8
KONSTRUKTIONSELEMENTE
100
AcDbLine
 62
7
  6
CONTINUOUS
 10
239.9106065008
 20
86.7103751892
 11
240.5864517225
 21
86.3852087143
  0
LINE
  5
678
100
AcDbEntity
  8
KONSTRUKTIONSELEMENTE
100
AcDbLine
 62
7
  6
CONTINUOUS
 10
242.1634230469
 20
85.626487353
 11
243.0645517278
 21
85.1929312262
  0
LINE
  5
679
100
AcDbEntity
  8
KONSTRUKTIONSELEMENTE
100
AcDbLine
 62
7
  6
CONTINUOUS
 10
244.6415230522
 20
84.4342098649
 11
245.3173682739
 21
84.10904339
  0
LINE
  5
67A
100
AcDbEntity
  8
KONSTRUKTIONSELEMENTE
100
AcDbLine
 62
7
  6
CONTINUOUS
 10
248.093381909
 20
80.7504530234
 11
248.5971641663
 21
80.502684181
  0
LINE
  5
67B
100
AcDbEntity
  8
KONSTRUKTIONSELEMENTE
100
AcDbLine
 62
7
  6
CONTINUOUS
 10
248.8566412631
 20
81.0085721272
 11
248.6047501479
 21
81.1324565584
  0
LINE
  5
67C
100
AcDbEntity
  8
KONSTRUKTIONSELEMENTE
100
AcDbLine
 62
7
  6
CONTINUOUS
 10
229.4129023376
 20
89.9223169971
 11
229.8187072504
 21
89.7113773074
  0
LINE
  5
67D
100
AcDbEntity
  8
KONSTRUKTIONSELEMENTE
100
AcDbLine
 62
7
  6
CONTINUOUS
 10
254.7293847711
 20
79.0455025034
 11
254.2742204044
 21
79.328562686
  0
LINE
  5
67E
100
AcDbEntity
  8
KONSTRUKTIONSELEMENTE
100
AcDbLine
 62
7
  6
CONTINUOUS
 10
250.8547703383
 20
82.8132720671
 11
250.2013689157
 21
83.2613283505
  0
LINE
  5
67F
100
AcDbEntity
  8
KONSTRUKTIONSELEMENTE
100
AcDbLine
 62
7
  6
CONTINUOUS
 10
247.6918715926
 20
81.0746248689
 11
248.093381909
 21
80.7504530234
  0
LINE
  5
680
100
AcDbEntity
  8
KONSTRUKTIONSELEMENTE
100
AcDbLine
 62
7
  6
CONTINUOUS
 10
248.6047501479
 20
81.1324565584
 11
248.1284302444
 21
81.5567721211
  0
LINE
  5
681
100
AcDbEntity
  8
KONSTRUKTIONSELEMENTE
100
AcDbLine
 62
7
  6
CONTINUOUS
 10
254.3121821636
 20
78.5687233161
 11
254.6427226768
 21
78.2579889901
  0
LINE
  5
682
100
AcDbEntity
  8
KONSTRUKTIONSELEMENTE
100
AcDbLine
 62
7
  6
CONTINUOUS
 10
255.2387447554
 20
78.5183853834
 11
254.7293847711
 21
79.0455025034
  0
LINE
  5
683
100
AcDbEntity
  8
KONSTRUKTIONSELEMENTE
100
AcDbLine
 62
7
  6
CONTINUOUS
 10
249.4930377025
 20
83.3562981098
 11
249.7922743747
 21
82.9557255599
  0
LINE
  5
684
100
AcDbEntity
  8
KONSTRUKTIONSELEMENTE
100
AcDbLine
 62
7
  6
CONTINUOUS
 10
250.2013689157
 20
83.2613283505
 11
249.9021322435
 21
83.6619009004
  0
LINE
  5
685
100
AcDbEntity
  8
KONSTRUKTIONSELEMENTE
100
AcDbLine
 62
7
  6
CONTINUOUS
 10
249.8027335021
 20
85.9280522876
 11
250.1767780582
 21
85.4273383194
  0
LINE
  5
686
100
AcDbEntity
  8
KONSTRUKTIONSELEMENTE
100
AcDbLine
 62
7
  6
CONTINUOUS
 10
251.538510694
 20
84.8843122767
 11
251.8377473662
 21
84.4837397268
  0
LINE
  5
687
100
AcDbEntity
  8
KONSTRUKTIONSELEMENTE
100
AcDbLine
 62
7
  6
CONTINUOUS
 10
252.2743059464
 20
84.9658869255
 11
252.1246884664
 21
85.1661720544
  0
LINE
  5
688
100
AcDbEntity
  8
KONSTRUKTIONSELEMENTE
100
AcDbLine
 62
7
  6
CONTINUOUS
 10
252.6956960594
 20
84.1884848387
 11
252.2743059464
 21
84.9658869255
  0
LINE
  5
689
100
AcDbEntity
  8
KONSTRUKTIONSELEMENTE
100
AcDbLine
 62
7
  6
CONTINUOUS
 10
251.8377473662
 20
84.4837397268
 11
252.109518287
 21
83.9066250609
  0
LINE
  5
68A
100
AcDbEntity
  8
KONSTRUKTIONSELEMENTE
100
AcDbLine
 62
7
  6
CONTINUOUS
 10
254.6427226768
 20
78.2579889901
 11
254.9028349542
 21
77.675523583
  0
LINE
  5
68B
100
AcDbEntity
  8
KONSTRUKTIONSELEMENTE
100
AcDbLine
 62
7
  6
CONTINUOUS
 10
255.5259542215
 20
77.8138943007
 11
255.2387447554
 21
78.5183853834
  0
LINE
  5
68C
100
AcDbEntity
  8
KONSTRUKTIONSELEMENTE
100
AcDbLine
 62
7
  6
CONTINUOUS
 10
262.2372641661
 20
39.8816362444
 11
262.2898141652
 21
38.5540518044
  0
LWPOLYLINE
  5
68D
100
AcDbEntity
  8
KONSTRUKTIONSELEMENTE
100
AcDbPolyline
 62
7
  6
CONTINUOUS
 90
10
 70
0
 10
261.7405078991
 20
65.9608898601
 10
261.7616764034
 20
62.9675256712
 10
261.7910703928
 20
59.9918721391
 10
261.828652676
 20
57.0420463162
 10
261.8743651237
 20
54.1260585093
 10
261.9281278563
 20
51.2518978384
 10
261.9898398723
 20
48.4274588483
 10
262.0593817409
 20
45.6604303555
 10
262.1366148727
 20
42.9583670134
 10
262.2372641661
 20
39.8816362444
  0
LINE
  5
68E
100
AcDbEntity
  8
KONSTRUKTIONSELEMENTE
100
AcDbLine
 62
7
  6
CONTINUOUS
 10
261.7277684894
 20
69.006806725
 11
261.7405078991
 21
65.9608898601
  0
LINE
  5
68F
100
AcDbEntity
  8
0
100
AcDbLine
 62
7
  6
CONTINUOUS
 10
261.727768489
 20
78.3666714194
 11
261.727768489
 21
69.0234461433
  0
LINE
  5
690
100
AcDbEntity
  8
0
100
AcDbLine
 62
7
  6
CONTINUOUS
 10
263.477768489
 20
34.2706859818
 11
263.477768489
 21
113.1194315809
  0
LINE
  5
691
100
AcDbEntity
  8
0
100
AcDbLine
 62
7
  6
CONTINUOUS
 10
263.727768489
 20
118.9758100241
 11
263.727768489
 21
120.1250587814
  0
LINE
  5
692
100
AcDbEntity
  8
0
100
AcDbLine
 62
7
  6
CONTINUOUS
 10
263.977768489
 20
27.9383395323
 11
263.977768489
 21
28.0593743782
  0
LINE
  5
693
100
AcDbEntity
  8
0
100
AcDbLine
 62
7
  6
CONTINUOUS
 10
263.977768489
 20
26.3452282948
 11
263.977768489
 21
27.8808029282
  0
LINE
  5
694
100
AcDbEntity
  8
0
100
AcDbLine
 62
7
  6
CONTINUOUS
 10
264.477768489
 20
121.8840315271
 11
264.477768489
 21
120.7899986969
  0
LINE
  5
695
100
AcDbEntity
  8
KONSTRUKTIONSELEMENTE
100
AcDbLine
 62
7
  6
CONTINUOUS
 10
264.477768489
 20
25.5060860356
 11
264.477768489
 21
26.5997854762
  0
LWPOLYLINE
  5
696
100
AcDbEntity
  8
0
100
AcDbPolyline
 62
7
  6
CONTINUOUS
 90
10
 70
0
 10
262.1366148727
 20
104.4317505493
 10
262.0593817409
 20
101.7296872072
 10
261.9898398723
 20
98.9626587145
 10
261.9281278563
 20
96.1382197244
 10
261.8743651237
 20
93.2640590534
 10
261.828652676
 20
90.3480712465
 10
261.7910703928
 20
87.3982454236
 10
261.7616764034
 20
84.4225918916
 10
261.7405078991
 20
81.4292277026
 10
261.7277684894
 20
78.3833108377
  0
LINE
  5
697
100
AcDbEntity
  8
0
100
AcDbLine
 62
7
  6
CONTINUOUS
 10
262.2372488742
 20
107.5080618184
 11
262.1366148727
 21
104.4317505493
  0
LINE
  5
698
100
AcDbEntity
  8
KONSTRUKTIONSELEMENTE
100
AcDbLine
 62
7
  6
CONTINUOUS
 10
249.4901629518
 20
81.0137461319
 11
249.2108060852
 21
80.9610884471
  0
LINE
  5
699
100
AcDbEntity
  8
KONSTRUKTIONSELEMENTE
100
AcDbLine
 62
7
  6
CONTINUOUS
 10
251.7676471098
 20
82.8711059952
 11
251.2089350888
 21
82.7657883335
  0
LINE
  5
69A
100
AcDbEntity
  8
KONSTRUKTIONSELEMENTE
100
AcDbLine
 62
7
  6
CONTINUOUS
 10
224.6255975087
 20
78.3923449506
 11
221.5339032158
 21
77.8195038185
  0
LINE
  5
69B
100
AcDbEntity
  8
KONSTRUKTIONSELEMENTE
100
AcDbLine
 62
7
  6
CONTINUOUS
 10
221.6487150109
 20
77.0355992502
 11
224.4666294465
 21
77.5319063575
  0
LINE
  5
69C
100
AcDbEntity
  8
KONSTRUKTIONSELEMENTE
100
AcDbLine
 62
7
  6
CONTINUOUS
 10
224.5505289349
 20
80.1844296948
 11
225.2561274161
 21
80.2979275415
  0
LINE
  5
69D
100
AcDbEntity
  8
KONSTRUKTIONSELEMENTE
100
AcDbLine
 62
7
  6
CONTINUOUS
 10
219.5480515241
 20
78.3135099267
 11
219.9473664135
 21
78.366850876
  0
LINE
  5
69E
100
AcDbEntity
  8
KONSTRUKTIONSELEMENTE
100
AcDbLine
 62
7
  6
CONTINUOUS
 10
220.0836247154
 20
79.1043694691
 11
219.6843098259
 21
79.0510285198
  0
LINE
  5
69F
100
AcDbEntity
  8
KONSTRUKTIONSELEMENTE
100
AcDbLine
 62
7
  6
CONTINUOUS
 10
251.2013508552
 20
82.1360136907
 11
251.657789241
 21
82.1649306547
  0
LINE
  5
6A0
100
AcDbEntity
  8
KONSTRUKTIONSELEMENTE
100
AcDbLine
 62
7
  6
CONTINUOUS
 10
250.1767780582
 20
85.4273383194
 11
250.6332181561
 21
85.4562529914
  0
LINE
  5
6A1
100
AcDbEntity
  8
0
100
AcDbLine
 62
7
  6
CONTINUOUS
 10
205.4475619202
 20
81.3250587814
 11
205.9642699065
 21
81.3250587814
  0
LINE
  5
6A2
100
AcDbEntity
  8
0
100
AcDbLine
 62
7
  6
CONTINUOUS
 10
241.0758538683
 20
82.1950587814
 11
231.2608992921
 21
82.1950587814
  0
LINE
  5
6A3
100
AcDbEntity
  8
KONSTRUKTIONSELEMENTE
100
AcDbLine
 62
7
  6
CONTINUOUS
 10
251.2089350888
 20
82.7657883335
 11
250.8547703383
 21
82.8132720671
  0
LINE
  5
6A4
100
AcDbEntity
  8
KONSTRUKTIONSELEMENTE
100
AcDbLine
 62
7
  6
CONTINUOUS
 10
250.5952932773
 20
82.3073841476
 11
251.2013508552
 21
82.1360136907
  0
LINE
  5
6A5
100
AcDbEntity
  8
KONSTRUKTIONSELEMENTE
100
AcDbLine
 62
7
  6
CONTINUOUS
 10
229.9409890262
 20
90.5129203341
 11
229.2547128483
 21
90.7123593975
  0
LINE
  5
6A6
100
AcDbEntity
  8
KONSTRUKTIONSELEMENTE
100
AcDbLine
 62
7
  6
CONTINUOUS
 10
250.6332181561
 20
85.4562529914
 11
251.0621925027
 21
85.3086255473
  0
LINE
  5
6A7
100
AcDbEntity
  8
KONSTRUKTIONSELEMENTE
100
AcDbLine
 62
7
  6
CONTINUOUS
 10
251.4987510829
 20
85.790772746
 11
250.9949671402
 21
86.0385439005
  0
LINE
  5
6A8
100
AcDbEntity
  8
KONSTRUKTIONSELEMENTE
100
AcDbLine
 62
7
  6
CONTINUOUS
 10
251.0621925027
 20
85.3086255473
 11
251.538510694
 21
84.8843122767
  0
LINE
  5
6A9
100
AcDbEntity
  8
KONSTRUKTIONSELEMENTE
100
AcDbLine
 62
7
  6
CONTINUOUS
 10
252.1246884664
 20
85.1661720544
 11
251.4987510829
 21
85.790772746
  0
LINE
  5
6AA
100
AcDbEntity
  8
BEZUGSACHSEN
100
AcDbLine
 62
7
  6
CONTINUOUS
 10
261.727768489
 20
76.826801294
 11
250.2568246804
 21
96.6950587814
  0
LINE
  5
6AB
100
AcDbEntity
  8
0
100
AcDbLine
 62
7
  6
CONTINUOUS
 10
206.9936104706
 20
85.8250587814
 11
207.5394175911
 21
85.8250587814
  0
LINE
  5
6AC
100
AcDbEntity
  8
0
100
AcDbLine
 62
7
  6
CONTINUOUS
 10
207.7952579134
 20
87.5283923929
 11
208.357496492
 21
87.5283923929
  0
LINE
  5
6AD
100
AcDbEntity
  8
0
100
AcDbLine
 62
7
  6
CONTINUOUS
 10
208.4212250392
 20
88.6950587814
 11
208.9970063755
 21
88.6950587814
  0
LINE
  5
6AE
100
AcDbEntity
  8
KONSTRUKTIONSELEMENTE
100
AcDbLine
 62
7
  6
CONTINUOUS
 10
228.9608609179
 20
89.9606759215
 11
229.4129023376
 21
89.9223169971
  0
LINE
  5
6AF
100
AcDbEntity
  8
KONSTRUKTIONSELEMENTE
100
AcDbLine
 62
7
  6
CONTINUOUS
 10
250.9949671402
 20
86.0385439005
 11
250.2866376392
 21
86.1335113677
  0
LINE
  5
6B0
100
AcDbEntity
  8
KONSTRUKTIONSELEMENTE
100
AcDbLine
 62
7
  6
CONTINUOUS
 10
247.9187000731
 20
89.515805163
 11
246.9049322406
 21
90.0035548754
  0
LINE
  5
6B1
100
AcDbEntity
  8
KONSTRUKTIONSELEMENTE
100
AcDbLine
 62
7
  6
CONTINUOUS
 10
243.5257061325
 20
91.6293872499
 11
242.5119383001
 21
92.1171369623
  0
LINE
  5
6B2
100
AcDbEntity
  8
KONSTRUKTIONSELEMENTE
100
AcDbLine
 62
7
  6
CONTINUOUS
 10
228.4625828155
 20
89.826454392
 11
228.9608609179
 21
89.9606759215
  0
LINE
  5
6B3
100
AcDbEntity
  8
KONSTRUKTIONSELEMENTE
100
AcDbLine
 62
7
  6
CONTINUOUS
 10
229.2547128483
 20
90.7123593975
 11
228.6937687208
 21
90.6893580656
  0
LINE
  5
6B4
100
AcDbEntity
  8
0
100
AcDbLine
 62
7
  6
CONTINUOUS
 10
211.4223152987
 20
93.0700587814
 11
212.0734157368
 21
93.0700587814
  0
LINE
  5
6B5
100
AcDbEntity
  8
0
100
AcDbLine
 62
7
  6
CONTINUOUS
 10
212.1701491481
 20
93.9450587814
 11
212.843236644
 21
93.9450587814
  0
LINE
  5
6B6
100
AcDbEntity
  8
0
100
AcDbLine
 62
7
  6
CONTINUOUS
 10
213.2619589731
 20
95.1117255871
 11
213.9699989041
 21
95.1117255871
  0
LINE
  5
6B7
100
AcDbEntity
  8
0
100
AcDbLine
 62
7
  6
CONTINUOUS
 10
214.1611503434
 20
95.9867255871
 11
214.9008765228
 21
95.9867255871
  0
LINE
  5
6B8
100
AcDbEntity
  8
BEZUGSACHSEN
100
AcDbLine
 62
7
  6
CONTINUOUS
 10
250.2568246804
 20
96.6950587814
 11
223.6987122977
 21
96.6950587814
  0
LINE
  5
6B9
100
AcDbEntity
  8
0
100
AcDbLine
 62
7
  6
CONTINUOUS
 10
216.5892153783
 20
98.0283921842
 11
217.4310056678
 21
98.0283921842
  0
LWPOLYLINE
  5
6BA
100
AcDbEntity
  8
0
100
AcDbPolyline
 62
7
  6
CONTINUOUS
 90
10
 70
0
 10
284.2150290789
 20
81.4292277026
 10
284.1938605747
 20
84.4225918916
 10
284.1644665852
 20
87.3982454236
 10
284.1268843021
 20
90.3480712465
 10
284.0811718544
 20
93.2640590534
 10
284.0274091217
 20
96.1382197244
 10
283.9656971057
 20
98.9626587145
 10
283.8961552371
 20
101.7296872072
 10
283.8189221053
 20
104.4317505493
 10
283.7386979571
 20
106.9280063342
  0
LINE
  5
6BB
100
AcDbEntity
  8
0
100
AcDbLine
 62
7
  6
CONTINUOUS
 10
284.2277684886
 20
78.3833108377
 11
284.2150290789
 21
81.4292277026
  0
LINE
  5
6BC
100
AcDbEntity
  8
0
100
AcDbLine
 62
7
  6
CONTINUOUS
 10
281.477768489
 20
121.8840315271
 11
281.477768489
 21
120.7903320866
  0
LINE
  5
6BD
100
AcDbEntity
  8
0
100
AcDbLine
 62
7
  6
CONTINUOUS
 10
281.477768489
 20
25.5060860356
 11
281.477768489
 21
26.6001188659
  0
LINE
  5
6BE
100
AcDbEntity
  8
0
100
AcDbLine
 62
7
  6
CONTINUOUS
 10
282.477768489
 20
34.2706859818
 11
282.477768489
 21
113.1194315809
  0
LINE
  5
6BF
100
AcDbEntity
  8
0
100
AcDbLine
 62
7
  6
CONTINUOUS
 10
284.227768489
 20
69.0234461433
 11
284.227768489
 21
78.3666714194
  0
LWPOLYLINE
  5
6C0
100
AcDbEntity
  8
0
100
AcDbPolyline
 62
7
  6
CONTINUOUS
 90
10
 70
0
 10
283.8189221053
 20
42.9583670134
 10
283.8961552371
 20
45.6604303555
 10
283.9656971057
 20
48.4274588483
 10
284.0274091217
 20
51.2518978384
 10
284.0811718544
 20
54.1260585093
 10
284.1268843021
 20
57.0420463162
 10
284.1644665852
 20
59.9918721391
 10
284.1938605747
 20
62.9675256712
 10
284.2150290789
 20
65.9608898601
 10
284.2277684886
 20
69.006806725
  0
LINE
  5
6C1
100
AcDbEntity
  8
0
100
AcDbLine
 62
7
  6
CONTINUOUS
 10
219.6608048539
 20
100.0700587814
 11
220.6823365263
 21
100.0700587814
  0
LINE
  5
6C2
100
AcDbEntity
  8
0
100
AcDbLine
 62
7
  6
CONTINUOUS
 10
221.2778597302
 20
100.9450587814
 11
222.4303583977
 21
100.9450587814
  0
LINE
  5
6C3
100
AcDbEntity
  8
RUNDUNGEN
100
AcDbLine
 62
7
  6
CONTINUOUS
 10
234.977768489
 20
103.6950587814
 11
262.1155579968
 21
103.6950587814
  0
LINE
  5
6C4
100
AcDbEntity
  8
RUNDUNGEN
100
AcDbLine
 62
7
  6
CONTINUOUS
 10
283.8399789812
 20
103.6950587814
 11
293.977768489
 21
103.6950587814
  0
LINE
  5
6C5
100
AcDbEntity
  8
0
100
AcDbLine
 62
7
  6
CONTINUOUS
 10
283.579734646
 20
110.6238427003
 11
283.5252872689
 21
111.5717474229
  0
LINE
  5
6C6
100
AcDbEntity
  8
0
100
AcDbLine
 62
7
  6
CONTINUOUS
 10
283.6379504952
 20
109.4588014565
 11
283.579734646
 21
110.6238427003
  0
LINE
  5
6C7
100
AcDbEntity
  8
0
100
AcDbLine
 62
7
  6
CONTINUOUS
 10
283.6925197504
 20
108.1860675395
 11
283.6379504952
 21
109.4588014565
  0
LINE
  5
6C8
100
AcDbEntity
  8
0
100
AcDbLine
 62
7
  6
CONTINUOUS
 10
283.7386988885
 20
106.9279788916
 11
283.6925197504
 21
108.1860675395
  0
LINE
  5
6C9
100
AcDbEntity
  8
0
100
AcDbLine
 62
7
  6
CONTINUOUS
 10
283.7182881039
 20
39.8820557443
 11
283.8189221053
 21
42.9583670134
  0
LINE
  5
6CA
100
AcDbEntity
  8
0
100
AcDbLine
 62
7
  6
CONTINUOUS
 10
283.6657719216
 20
38.5551967004
 11
283.7182881039
 21
39.8820557443
  0
LINE
  5
6CB
100
AcDbEntity
  8
0
100
AcDbLine
 62
7
  6
CONTINUOUS
 10
283.60935605
 20
37.3372805199
 11
283.6657719216
 21
38.5551967004
  0
LWPOLYLINE
  5
6CC
100
AcDbEntity
  8
0
100
AcDbPolyline
 62
7
  6
CONTINUOUS
 90
3
 70
0
 10
283.525287332
 20
35.8183711685
 10
283.5495216653
 20
36.2251794821
 10
283.60935605
 20
37.3372805199
  0
LINE
  5
6CD
100
AcDbEntity
  8
RUNDUNGEN
100
AcDbLine
 62
7
  6
CONTINUOUS
 10
296.977768489
 20
46.6950587814
 11
296.977768489
 21
100.6950587814
  0
LINE
  5
6CE
100
AcDbEntity
  8
0
100
AcDbLine
 62
7
  6
CONTINUOUS
 10
264.0026355769
 20
119.3307431845
 11
263.8937464052
 21
119.3307431845
  0
LINE
  5
6CF
100
AcDbEntity
  8
0
100
AcDbLine
 62
7
  6
CONTINUOUS
 10
281.9529014011
 20
119.3307431845
 11
282.0617905728
 21
119.3307431845
  0
LINE
  5
6D0
100
AcDbEntity
  8
0
100
AcDbLine
 62
7
  6
CONTINUOUS
 10
264.0382809941
 20
119.5505907647
 11
263.727768489
 21
119.5505907647
  0
LINE
  5
6D1
100
AcDbEntity
  8
0
100
AcDbLine
 62
7
  6
CONTINUOUS
 10
264.114399809
 20
119.9335694425
 11
263.727768489
 21
119.9335694425
  0
LINE
  5
6D2
100
AcDbEntity
  8
0
100
AcDbLine
 62
7
  6
CONTINUOUS
 10
264.1622621818
 20
120.1250587814
 11
263.727768489
 21
120.1250587814
  0
LWPOLYLINE
  5
6D3
100
AcDbEntity
  8
0
100
AcDbPolyline
 62
7
  6
CONTINUOUS
 90
18
 70
0
 10
281.660736632
 20
120.4946116487
 10
281.5200851758
 20
120.7265749291
 10
281.2305905672
 20
121.1627469158
 10
280.9046935344
 20
121.5992955062
 10
280.5416318163
 20
122.0311637319
 10
280.1405687374
 20
122.453905809
 10
279.7013041315
 20
122.8627781495
 10
279.2246358795
 20
123.2526298399
 10
278.7119383947
 20
123.6184937637
 10
278.1652779537
 20
123.9555753092
 10
277.5879852978
 20
124.2590828409
 10
276.9815059989
 20
124.5258268001
 10
276.3481489312
 20
124.7523975881
 10
275.6911725731
 20
124.9353873253
 10
275.0141085633
 20
125.0717564655
 10
274.3209349964
 20
125.158814142
 10
273.61632338
 20
125.1942890009
 10
273.4959858828
 20
125.1950588443
  0
LINE
  5
6D4
100
AcDbEntity
  8
0
100
AcDbLine
 62
7
  6
CONTINUOUS
 10
279.5060205077
 20
24.3676968079
 11
281.477768489
 21
25.5060860356
  0
LWPOLYLINE
  5
6D5
100
AcDbEntity
  8
0
100
AcDbPolyline
 62
7
  6
CONTINUOUS
 90
18
 70
0
 10
272.459551105
 20
125.1950588443
 10
272.3242369818
 20
125.1940854412
 10
271.620112644
 20
125.1575272756
 10
270.9274791537
 20
125.0694650475
 10
270.2510000399
 20
124.9321710781
 10
269.5946450827
 20
124.7483358742
 10
268.961938461
 20
124.5209980199
 10
268.3561337699
 20
124.2535652365
 10
267.7795261623
 20
123.9494411697
 10
267.2335463965
 20
123.6118045829
 10
266.7215308153
 20
123.2454518768
 10
266.2455434698
 20
122.8551783724
 10
265.8069621645
 20
122.4459583432
 10
265.4065861925
 20
122.0229519126
 10
265.0442081228
 20
121.5909039459
 10
264.7189824307
 20
121.1542583926
 10
264.4301485032
 20
120.7180872583
 10
264.2947995186
 20
120.49461024
  0
LINE
  5
6D6
100
AcDbEntity
  8
0
100
AcDbLine
 62
7
  6
CONTINUOUS
 10
273.495988437
 20
125.1950587814
 11
272.4595485411
 21
125.1950587814
  0
LINE
  5
6D7
100
AcDbEntity
  8
0
100
AcDbLine
 62
7
  6
CONTINUOUS
 10
279.5063265701
 20
123.0222440497
 11
281.477768489
 21
121.8840315271
  0
ARC
  5
6D8
100
AcDbEntity
  8
RUNDUNGEN
100
AcDbCircle
 62
7
  6
CONTINUOUS
 10
207.977768489
 20
236.5627032936
 40
3.0
100
AcDbArc
 50
180.0
 51
270.0
  0
ARC
  5
6D9
100
AcDbEntity
  8
RUNDUNGEN
100
AcDbCircle
 62
7
  6
CONTINUOUS
 10
207.977768489
 20
280.5627032936
 40
3.0
100
AcDbArc
 50
90.0
 51
180.0
  0
ARC
  5
6DA
100
AcDbEntity
  8
RUNDUNGEN
100
AcDbCircle
 62
7
  6
CONTINUOUS
 10
271.977768489
 20
258.5627032936
 40
25.0
100
AcDbArc
 50
270.0
 51
65.0265660715
  0
ARC
  5
6DB
100
AcDbEntity
  8
RUNDUNGEN
100
AcDbCircle
 62
7
  6
CONTINUOUS
 10
272.977768489
 20
258.5627032936
 40
12.0
100
AcDbArc
 50
148.609859506
 51
31.3889958654
  0
ARC
  5
6DC
100
AcDbEntity
  8
0
100
AcDbCircle
 62
7
  6
CONTINUOUS
 10
273.2224246995
 20
258.4839278194
 40
11.1714931718
100
AcDbArc
 50
273.0506723309
 51
274.5210351647
  0
ARC
  5
6DD
100
AcDbEntity
  8
KONSTRUKTIONSELEMENTE
100
AcDbCircle
 62
7
  6
CONTINUOUS
 10
272.7330486281
 20
258.4829988417
 40
11.1705620674
100
AcDbArc
 50
265.4789147009
 51
266.9931870229
  0
ARC
  5
6DE
100
AcDbEntity
  8
KONSTRUKTIONSELEMENTE
100
AcDbCircle
 62
7
  6
CONTINUOUS
 10
272.7326583042
 20
258.4790492318
 40
11.1665939797
100
AcDbArc
 50
265.2092344093
 51
265.4793137772
  0
ARC
  5
6DF
100
AcDbEntity
  8
0
100
AcDbCircle
 62
7
  6
CONTINUOUS
 10
273.2228786748
 20
258.4790492202
 40
11.1665939681
100
AcDbArc
 50
274.5206862227
 51
274.7907655908
  0
ARC
  5
6E0
100
AcDbEntity
  8
KONSTRUKTIONSELEMENTE
100
AcDbCircle
 62
7
  6
CONTINUOUS
 10
272.7290182591
 20
258.3122160464
 40
11.001179968
100
AcDbArc
 50
180.0681194395
 51
256.5263146062
  0
ARC
  5
6E1
100
AcDbEntity
  8
0
100
AcDbCircle
 62
7
  6
CONTINUOUS
 10
273.2265180889
 20
258.3122165345
 40
11.0011799677
100
AcDbArc
 50
283.4736851905
 51
359.9318780221
  0
ARC
  5
6E2
100
AcDbEntity
  8
0
100
AcDbCircle
 62
7
  6
CONTINUOUS
 10
273.2321727427
 20
258.2864688826
 40
10.9737953072
100
AcDbArc
 50
270.3623118453
 51
273.0547153903
  0
ARC
  5
6E3
100
AcDbEntity
  8
KONSTRUKTIONSELEMENTE
100
AcDbCircle
 62
7
  6
CONTINUOUS
 10
272.7230814825
 20
258.2782955614
 40
10.9656178056
100
AcDbArc
 50
266.989089413
 51
269.6809970399
  0
ARC
  5
6E4
100
AcDbEntity
  8
KONSTRUKTIONSELEMENTE
100
AcDbCircle
 62
7
  6
CONTINUOUS
 10
272.7111279986
 20
258.2427521585
 40
10.9293244335
100
AcDbArc
 50
256.5326729346
 51
265.2182524068
  0
ARC
  5
6E5
100
AcDbEntity
  8
0
100
AcDbCircle
 62
7
  6
CONTINUOUS
 10
273.2444089859
 20
258.2427521158
 40
10.9293243904
100
AcDbArc
 50
274.7817475783
 51
283.4673242643
  0
ARC
  5
6E6
100
AcDbEntity
  8
0
100
AcDbCircle
 62
7
  6
CONTINUOUS
 10
273.2383791945
 20
257.8367505055
 40
10.5240472123
100
AcDbArc
 50
270.0005533481
 51
270.3440052783
  0
ARC
  5
6E7
100
AcDbEntity
  8
KONSTRUKTIONSELEMENTE
100
AcDbCircle
 62
7
  6
CONTINUOUS
 10
272.7171439783
 20
257.8293446911
 40
10.5166413979
100
AcDbArc
 50
269.6997266644
 51
269.9995214745
  0
ARC
  5
6E8
100
AcDbEntity
  8
0
100
AcDbCircle
 62
7
  6
CONTINUOUS
 10
273.7299606204
 20
259.3323385421
 40
10.4981533726
100
AcDbArc
 50
20.4626460537
 51
22.5940640935
  0
ARC
  5
6E9
100
AcDbEntity
  8
KONSTRUKTIONSELEMENTE
100
AcDbCircle
 62
7
  6
CONTINUOUS
 10
272.2254308848
 20
259.3323974745
 40
10.4979964263
100
AcDbArc
 50
157.4032451253
 51
159.5659428511
  0
ARC
  5
6EA
100
AcDbEntity
  8
KONSTRUKTIONSELEMENTE
100
AcDbCircle
 62
7
  6
CONTINUOUS
 10
272.2218796432
 20
259.3339885181
 40
10.4941137278
100
AcDbArc
 50
159.8512012926
 51
179.999575771
  0
ARC
  5
6EB
100
AcDbEntity
  8
0
100
AcDbCircle
 62
7
  6
CONTINUOUS
 10
273.7336573348
 20
259.3339885181
 40
10.4941137278
100
AcDbArc
 50
0.000424229
 51
20.1487987074
  0
ARC
  5
6EC
100
AcDbEntity
  8
0
100
AcDbCircle
 62
7
  6
CONTINUOUS
 10
273.7470653863
 20
259.3388264313
 40
10.4798597684
100
AcDbArc
 50
20.149217992
 51
20.4621062381
  0
ARC
  5
6ED
100
AcDbEntity
  8
KONSTRUKTIONSELEMENTE
100
AcDbCircle
 62
7
  6
CONTINUOUS
 10
272.2082464173
 20
259.3389095027
 40
10.4796197596
100
AcDbArc
 50
159.5665041213
 51
159.850784317
  0
ARC
  5
6EE
100
AcDbEntity
  8
0
100
AcDbCircle
 62
7
  6
CONTINUOUS
 10
272.2082464173
 20
259.3389095027
 40
10.4796197596
100
AcDbArc
 50
159.5665041213
 51
159.850784317
  0
ARC
  5
6EF
100
AcDbEntity
  8
0
100
AcDbCircle
 62
7
  6
CONTINUOUS
 10
254.434620024
 20
352.7474397207
 40
9.1771011836
100
AcDbArc
 50
356.466866463
 51
358.8689635225
  0
ARC
  5
6F0
100
AcDbEntity
  8
RUNDUNGEN
100
AcDbCircle
 62
7
  6
CONTINUOUS
 10
255.4777896213
 20
352.1670414059
 40
7.9999901719
100
AcDbArc
 50
359.9970900398
 51
2.9996006974
  0
ARC
  5
6F1
100
AcDbEntity
  8
0
100
AcDbCircle
 62
7
  6
CONTINUOUS
 10
255.4777896213
 20
352.1670414059
 40
7.9999901719
100
AcDbArc
 50
359.9970900398
 51
2.9996006974
  0
ARC
  5
6F2
100
AcDbEntity
  8
0
100
AcDbCircle
 62
7
  6
CONTINUOUS
 10
269.2525900645
 20
387.9528746961
 40
7.0967494416
100
AcDbArc
 50
149.4254230903
 51
153.4557719785
  0
ARC
  5
6F3
100
AcDbEntity
  8
0
100
AcDbCircle
 62
7
  6
CONTINUOUS
 10
291.520916954
 20
352.7474397207
 40
9.1771011836
100
AcDbArc
 50
181.1310364775
 51
183.533133537
  0
ARC
  5
6F4
100
AcDbEntity
  8
0
100
AcDbCircle
 62
7
  6
CONTINUOUS
 10
290.4777473567
 20
352.1670414059
 40
7.9999901719
100
AcDbArc
 50
177.0003993026
 51
180.0029099602
  0
ARC
  5
6F5
100
AcDbEntity
  8
KONSTRUKTIONSELEMENTE
100
AcDbCircle
 62
7
  6
CONTINUOUS
 10
272.977768489
 20
386.0627032936
 40
11.25
100
AcDbArc
 50
180.0
 51
183.0
  0
ARC
  5
6F6
100
AcDbEntity
  8
0
100
AcDbCircle
 62
7
  6
CONTINUOUS
 10
272.977768489
 20
386.0627032936
 40
11.25
100
AcDbArc
 50
180.0
 51
183.0
  0
ARC
  5
6F7
100
AcDbEntity
  8
0
100
AcDbCircle
 62
7
  6
CONTINUOUS
 10
272.977768489
 20
386.0627032936
 40
11.25
100
AcDbArc
 50
357.0
 51
360.0
  0
ARC
  5
6F8
100
AcDbEntity
  8
0
100
AcDbCircle
 62
7
  6
CONTINUOUS
 10
276.7029469339
 20
387.9528747077
 40
7.0967494183
100
AcDbArc
 50
26.5442264786
 51
30.5745769125
  0
ARC
  5
6F9
100
AcDbEntity
  8
BEZUGSACHSEN
100
AcDbCircle
 62
7
  6
CONTINUOUS
 10
377.3551136079
 20
277.6804652815
 40
29.9822380719
100
AcDbArc
 50
90.0036126333
 51
92.4958643838
  0
ARC
  5
6FA
100
AcDbEntity
  8
0
100
AcDbCircle
 62
7
  6
CONTINUOUS
 10
359.3532231575
 20
269.3127032936
 40
22.0
100
AcDbArc
 50
180.0
 51
268.697705531
  0
ARC
  5
6FB
100
AcDbEntity
  8
0
100
AcDbCircle
 62
7
  6
CONTINUOUS
 10
367.3532231575
 20
280.8127032936
 40
11.0
100
AcDbArc
 50
180.0
 51
219.3972329273
  0
ARC
  5
6FC
100
AcDbEntity
  8
RUNDUNGEN
100
AcDbCircle
 62
7
  6
CONTINUOUS
 10
361.8532231575
 20
280.5627032936
 40
3.0
100
AcDbArc
 50
90.0
 51
180.0
  0
ARC
  5
6FD
100
AcDbEntity
  8
RUNDUNGEN
100
AcDbCircle
 62
7
  6
CONTINUOUS
 10
361.8532231575
 20
236.5627032936
 40
3.0
100
AcDbArc
 50
180.0
 51
270.0
  0
ARC
  5
6FE
100
AcDbEntity
  8
0
100
AcDbCircle
 62
7
  6
CONTINUOUS
 10
387.6387728026
 20
329.1817742352
 40
62.9553395192
100
AcDbArc
 50
88.894657758
 51
93.5795806939
  0
ARC
  5
6FF
100
AcDbEntity
  8
0
100
AcDbCircle
 62
7
  6
CONTINUOUS
 10
367.3532231575
 20
360.5372862851
 40
30.0
100
AcDbArc
 50
124.9829978692
 51
180.0
  0
ARC
  5
700
100
AcDbEntity
  8
0
100
AcDbCircle
 62
7
  6
CONTINUOUS
 10
366.9255809045
 20
359.6284299114
 40
24.971100141
100
AcDbArc
 50
134.4805733132
 51
178.6281149001
  0
ARC
  5
701
100
AcDbEntity
  8
0
100
AcDbCircle
 62
7
  6
CONTINUOUS
 10
366.9084932053
 20
361.9857021872
 40
23.3353262537
100
AcDbArc
 50
126.431939053
 51
138.5093266303
  0
ARC
  5
702
100
AcDbEntity
  8
0
100
AcDbCircle
 62
7
  6
CONTINUOUS
 10
367.3532231575
 20
356.1518376758
 40
11.0
100
AcDbArc
 50
129.2239323986
 51
180.0
  0
ARC
  5
703
100
AcDbEntity
  8
0
100
AcDbCircle
 62
7
  6
CONTINUOUS
 10
337.66796672
 20
352.5990564565
 40
4.1510162722
100
AcDbArc
 50
355.0252054543
 51
359.0199095491
  0
ARC
  5
704
100
AcDbEntity
  8
KONSTRUKTIONSELEMENTE
100
AcDbCircle
 62
7
  6
CONTINUOUS
 10
418.3532231575
 20
269.3127032936
 40
22.0
100
AcDbArc
 50
271.3022944691
 51
360.0
  0
ARC
  5
705
100
AcDbEntity
  8
0
100
AcDbCircle
 62
7
  6
CONTINUOUS
 10
418.3532231575
 20
269.3127032936
 40
22.0
100
AcDbArc
 50
271.3022944691
 51
360.0
  0
ARC
  5
706
100
AcDbEntity
  8
KONSTRUKTIONSELEMENTE
100
AcDbCircle
 62
7
  6
CONTINUOUS
 10
410.3532231575
 20
280.8127032936
 40
11.0
100
AcDbArc
 50
320.6027670727
 51
360.0
  0
ARC
  5
707
100
AcDbEntity
  8
RUNDUNGEN
100
AcDbCircle
 62
7
  6
CONTINUOUS
 10
415.8532231575
 20
280.5627032936
 40
3.0
100
AcDbArc
 50
0.0
 51
90.0
  0
ARC
  5
708
100
AcDbEntity
  8
RUNDUNGEN
100
AcDbCircle
 62
7
  6
CONTINUOUS
 10
415.8532231575
 20
236.5627032936
 40
3.0
100
AcDbArc
 50
270.0
 51
360.0
  0
ARC
  5
709
100
AcDbEntity
  8
KONSTRUKTIONSELEMENTE
100
AcDbCircle
 62
7
  6
CONTINUOUS
 10
388.8532231575
 20
329.8127032936
 40
67.5
100
AcDbArc
 50
55.0170021308
 51
85.042370559
  0
ARC
  5
70A
100
AcDbEntity
  8
0
100
AcDbCircle
 62
7
  6
CONTINUOUS
 10
388.8532231575
 20
329.8127032936
 40
67.5
100
AcDbArc
 50
55.0170021308
 51
124.9829978692
  0
ARC
  5
70B
100
AcDbEntity
  8
0
100
AcDbCircle
 62
7
  6
CONTINUOUS
 10
390.0676735124
 20
329.1817742352
 40
62.9553395192
100
AcDbArc
 50
86.4204193061
 51
91.105342242
  0
ARC
  5
70C
100
AcDbEntity
  8
0
100
AcDbCircle
 62
7
  6
CONTINUOUS
 10
388.8532231575
 20
329.8127032936
 40
45.0
100
AcDbArc
 50
50.7760676014
 51
129.2239323986
  0
ARC
  5
70D
100
AcDbEntity
  8
KONSTRUKTIONSELEMENTE
100
AcDbCircle
 62
7
  6
CONTINUOUS
 10
410.3532231575
 20
360.5372862851
 40
30.0
100
AcDbArc
 50
0.0
 51
55.0170021308
  0
ARC
  5
70E
100
AcDbEntity
  8
0
100
AcDbCircle
 62
7
  6
CONTINUOUS
 10
410.780864909
 20
359.6284296936
 40
24.971100141
100
AcDbArc
 50
1.371885572
 51
45.5194262161
  0
ARC
  5
70F
100
AcDbEntity
  8
0
100
AcDbCircle
 62
7
  6
CONTINUOUS
 10
410.7979531098
 20
361.9857021872
 40
23.3353262537
100
AcDbArc
 50
41.4906733697
 51
53.568060947
  0
ARC
  5
710
100
AcDbEntity
  8
KONSTRUKTIONSELEMENTE
100
AcDbCircle
 62
7
  6
CONTINUOUS
 10
410.3532231575
 20
356.1518376758
 40
11.0
100
AcDbArc
 50
0.0
 51
50.7760676014
  0
ARC
  5
711
100
AcDbEntity
  8
0
100
AcDbCircle
 62
7
  6
CONTINUOUS
 10
431.2033773956
 20
323.5099956361
 40
5.0
100
AcDbArc
 50
174.2608295227
 51
359.3171996582
  0
ARC
  5
712
100
AcDbEntity
  8
0
100
AcDbCircle
 62
7
  6
CONTINUOUS
 10
431.2033773956
 20
315.0099956361
 40
5.0
100
AcDbArc
 50
174.2608295227
 51
359.3171996582
  0
ARC
  5
713
100
AcDbEntity
  8
0
100
AcDbCircle
 62
7
  6
CONTINUOUS
 10
440.0384795951
 20
352.5990564565
 40
4.1510162722
100
AcDbArc
 50
180.9800904509
 51
184.9747945457
  0
ARC
  5
714
100
AcDbEntity
  8
0
100
AcDbCircle
 62
7
  6
CONTINUOUS
 10
431.2033773956
 20
323.5099956361
 40
3.5
100
AcDbArc
 50
282.3736251162
 51
8.2132107017
  0
ARC
  5
715
100
AcDbEntity
  8
0
100
AcDbCircle
 62
7
  6
CONTINUOUS
 10
431.2033773956
 20
323.5099956361
 40
3.5
100
AcDbArc
 50
171.7867892983
 51
257.4447123387
  0
ARC
  5
716
100
AcDbEntity
  8
0
100
AcDbCircle
 62
7
  6
CONTINUOUS
 10
431.2033773956
 20
315.0099956361
 40
3.5
100
AcDbArc
 50
171.7867892983
 51
8.2132107017
  0
ARC
  5
717
100
AcDbEntity
  8
0
100
AcDbCircle
 62
7
  6
CONTINUOUS
 10
234.977768489
 20
73.6950587814
 40
30.5
100
AcDbArc
 50
226.6737952628
 51
244.7387835299
  0
ARC
  5
718
100
AcDbEntity
  8
0
100
AcDbCircle
 62
7
  6
CONTINUOUS
 10
234.977768489
 20
73.6950587814
 40
30.5
100
AcDbArc
 50
211.1363550351
 51
223.5674230901
  0
ARC
  5
719
100
AcDbEntity
  8
0
100
AcDbCircle
 62
7
  6
CONTINUOUS
 10
234.977768489
 20
73.6950587814
 40
30.5
100
AcDbArc
 50
153.0281990325
 51
208.6086955344
  0
ARC
  5
71A
100
AcDbEntity
  8
0
100
AcDbCircle
 62
7
  6
CONTINUOUS
 10
234.977768489
 20
73.6950587814
 40
30.5
100
AcDbArc
 50
138.3993706782
 51
150.5408250882
  0
ARC
  5
71B
100
AcDbEntity
  8
0
100
AcDbCircle
 62
7
  6
CONTINUOUS
 10
234.977768489
 20
73.6950587814
 40
30.5
100
AcDbArc
 50
116.6909149474
 51
135.3973650814
  0
ARC
  5
71C
100
AcDbEntity
  8
RUNDUNGEN
100
AcDbCircle
 62
7
  6
CONTINUOUS
 10
234.977768489
 20
73.6950587814
 40
30.0
100
AcDbArc
 50
90.0
 51
270.0
  0
ARC
  5
71D
100
AcDbEntity
  8
0
100
AcDbCircle
 62
7
  6
CONTINUOUS
 10
236.977768489
 20
73.6950587814
 40
30.0
100
AcDbArc
 50
34.0134832788
 51
325.9865167212
  0
CIRCLE
  5
71E
100
AcDbEntity
  8
BEZUGSACHSEN
100
AcDbCircle
 62
7
  6
CONTINUOUS
 10
236.977768489
 20
73.6950587814
 40
23.0
  0
ARC
  5
71F
100
AcDbEntity
  8
0
100
AcDbCircle
 62
7
  6
CONTINUOUS
 10
273.63834307
 20
32.8274829383
 40
10.8485954574
100
AcDbArc
 50
197.6105250464
 51
206.0728705208
  0
ARC
  5
720
100
AcDbEntity
  8
0
100
AcDbCircle
 62
7
  6
CONTINUOUS
 10
272.3171939081
 20
32.8274829383
 40
10.8485954574
100
AcDbArc
 50
333.9271294792
 51
342.3894749536
  0
ARC
  5
721
100
AcDbEntity
  8
RUNDUNGEN
100
AcDbCircle
 62
7
  6
CONTINUOUS
 10
293.977768489
 20
46.6950587814
 40
3.0
100
AcDbArc
 50
270.0
 51
360.0
  0
ARC
  5
722
100
AcDbEntity
  8
0
100
AcDbCircle
 62
7
  6
CONTINUOUS
 10
272.3171939081
 20
114.5626346244
 40
10.8485954575
100
AcDbArc
 50
17.6105250464
 51
26.0728705208
  0
ARC
  5
723
100
AcDbEntity
  8
0
100
AcDbCircle
 62
7
  6
CONTINUOUS
 10
273.63834307
 20
114.5626346244
 40
10.8485954575
100
AcDbArc
 50
153.9271294792
 51
162.3894749536
  0
ARC
  5
724
100
AcDbEntity
  8
RUNDUNGEN
100
AcDbCircle
 62
7
  6
CONTINUOUS
 10
293.977768489
 20
100.6950587814
 40
3.0
100
AcDbArc
 50
0.0
 51
90.0
  0
LINE
  5
725
100
AcDbEntity
  8
KONSTRUKTIONSELEMENTE
100
AcDbLine
 62
7
  6
CONTINUOUS
 10
261.7277446579
 20
258.2987664441
 11
261.7277636371
 21
258.3104372089
  0
LINE
  5
726
100
AcDbEntity
  8
0
100
AcDbLine
 62
7
  6
CONTINUOUS
 10
284.2277923201
 20
258.2987664441
 11
284.2277733409
 21
258.3104372089
  0
SPLINE
  5
727
100
AcDbEntity
  8
0
100
AcDbSpline
 62
7
  6
CONTINUOUS
 70
0
 71
3
 72
8
 73
4
 74
0
 42
0.0000001
 43
0.0000001
 44
0.0000000001
 40
0.0
 40
0.0
 40
0.0
 40
0.0
 40
1.0
 40
1.0
 40
1.0
 40
1.0
 10
283.5184198024
 20
389.9486243039
 30
0.0
 10
283.5243110531
 20
389.9291466363
 30
0.0
 10
283.5302207141
 20
389.9096731088
 30
0.0
 10
283.5358434569
 20
389.8901162397
 30
0.0
  0
SPLINE
  5
728
100
AcDbEntity
  8
0
100
AcDbSpline
 62
7
  6
CONTINUOUS
 70
0
 71
3
 72
9
 73
5
 74
0
 42
0.0000001
 43
0.0000001
 44
0.0000000001
 40
0.0
 40
0.0
 40
0.0
 40
0.0
 40
0.2559293015
 40
1.0
 40
1.0
 40
1.0
 40
1.0
 10
262.9039113664
 20
391.1243304228
 30
0.0
 10
262.8556699546
 20
391.0277177615
 30
0.0
 10
262.6760238829
 20
390.6458269767
 30
0.0
 10
262.5293852763
 20
390.2487142183
 30
0.0
 10
262.4371171756
 20
389.9486243039
 30
0.0
  0
SPLINE
  5
729
100
AcDbEntity
  8
0
100
AcDbSpline
 62
7
  6
CONTINUOUS
 70
0
 71
3
 72
9
 73
5
 74
0
 42
0.0000001
 43
0.0000001
 44
0.0000000001
 40
0.0
 40
0.0
 40
0.0
 40
0.0
 40
0.2559293002
 40
1.0
 40
1.0
 40
1.0
 40
1.0
 10
283.0516256964
 20
391.124330253
 30
0.0
 10
283.0998670982
 20
391.0277176054
 30
0.0
 10
283.279513134
 20
390.6458268736
 30
0.0
 10
283.4261517154
 20
390.2487141739
 30
0.0
 10
283.5184198024
 20
389.9486243039
 30
0.0
  0
SPLINE
  5
72A
100
AcDbEntity
  8
0
100
AcDbSpline
 62
7
  6
CONTINUOUS
 70
0
 71
3
 72
8
 73
4
 74
0
 42
0.0000001
 43
0.0000001
 44
0.0000000001
 40
0.0
 40
0.0
 40
0.0
 40
0.0
 40
1.0
 40
1.0
 40
1.0
 40
1.0
 10
262.4371171756
 20
389.9486243039
 30
0.0
 10
262.431225925
 20
389.9291466363
 30
0.0
 10
262.425316264
 20
389.9096731088
 30
0.0
 10
262.4196935211
 20
389.8901162397
 30
0.0
  0
SPLINE
  5
72B
100
AcDbEntity
  8
BEZUGSACHSEN
100
AcDbSpline
 62
7
  6
CONTINUOUS
 70
0
 71
3
 72
11
 73
7
 74
0
 42
0.0000001
 43
0.0000001
 44
0.0000000001
 40
0.0
 40
0.0
 40
0.0
 40
0.0
 40
0.2616428782
 40
0.5144969794
 40
0.7595947265
 40
1.0
 40
1.0
 40
1.0
 40
1.0
 10
210.4196561063
 20
305.6084261517
 30
0.0
 10
210.9504103909
 20
305.9148572808
 30
0.0
 10
212.0181809173
 20
306.4776050837
 30
0.0
 10
213.6738216897
 20
307.1404392365
 30
0.0
 10
215.356734825
 20
307.5645265723
 30
0.0
 10
216.4960680955
 20
307.6627032936
 30
0.0
 10
217.0591842017
 20
307.6627032937
 30
0.0
  0
SPLINE
  5
72C
100
AcDbEntity
  8
BEZUGSACHSEN
100
AcDbSpline
 62
7
  6
CONTINUOUS
 70
0
 71
3
 72
11
 73
7
 74
0
 42
0.0000001
 43
0.0000001
 44
0.0000000001
 40
0.0
 40
0.0
 40
0.0
 40
0.0
 40
0.2404052896
 40
0.4855030392
 40
0.7383571262
 40
1.0
 40
1.0
 40
1.0
 40
1.0
 10
217.0591842017
 20
307.6627032937
 30
0.0
 10
217.622300346
 20
307.6627032937
 30
0.0
 10
218.7616336637
 20
307.5645265864
 30
0.0
 10
220.4445468003
 20
307.1404392036
 30
0.0
 10
222.1001875362
 20
306.4776050643
 30
0.0
 10
223.1679580219
 20
305.9148572757
 30
0.0
 10
223.6987122977
 20
305.6084261517
 30
0.0
  0
SPLINE
  5
72D
100
AcDbEntity
  8
BEZUGSACHSEN
100
AcDbSpline
 62
7
  6
CONTINUOUS
 70
0
 71
3
 72
10
 73
6
 74
0
 42
0.0000001
 43
0.0000001
 44
0.0000000001
 40
0.0
 40
0.0
 40
0.0
 40
0.0
 40
0.4999007783
 40
0.7499513871
 40
1.0
 40
1.0
 40
1.0
 40
1.0
 10
223.6987122977
 20
305.6084261517
 30
0.0
 10
225.8562616642
 20
306.2312570055
 30
0.0
 10
229.1455071979
 20
307.0098799865
 30
0.0
 10
233.6067725664
 20
307.5668425619
 30
0.0
 10
235.8545029596
 20
307.6627032936
 30
0.0
 10
236.977768489
 20
307.6627032937
 30
0.0
  0
SPLINE
  5
72E
100
AcDbEntity
  8
BEZUGSACHSEN
100
AcDbSpline
 62
7
  6
CONTINUOUS
 70
0
 71
3
 72
10
 73
6
 74
0
 42
0.0000001
 43
0.0000001
 44
0.0000000001
 40
0.0
 40
0.0
 40
0.0
 40
0.0
 40
0.250049011
 40
0.5000997341
 40
1.0
 40
1.0
 40
1.0
 40
1.0
 10
236.977768489
 20
307.6627032937
 30
0.0
 10
238.1010358098
 20
307.6627032936
 30
0.0
 10
240.3487685429
 20
307.5668428005
 30
0.0
 10
244.8100337778
 20
307.0098788918
 30
0.0
 10
248.0992775194
 20
306.2312563688
 30
0.0
 10
250.2568246804
 20
305.6084261517
 30
0.0
  0
SPLINE
  5
72F
100
AcDbEntity
  8
BEZUGSACHSEN
100
AcDbSpline
 62
7
  6
CONTINUOUS
 70
0
 71
3
 72
11
 73
7
 74
0
 42
0.0000001
 43
0.0000001
 44
0.0000000001
 40
0.0
 40
0.0
 40
0.0
 40
0.0
 40
0.2616428782
 40
0.5144969794
 40
0.7595947265
 40
1.0
 40
1.0
 40
1.0
 40
1.0
 10
250.2568246804
 20
305.6084261517
 30
0.0
 10
250.787578965
 20
305.9148572808
 30
0.0
 10
251.8553494914
 20
306.4776050837
 30
0.0
 10
253.5109902638
 20
307.1404392365
 30
0.0
 10
255.1939033991
 20
307.5645265723
 30
0.0
 10
256.3332366696
 20
307.6627032936
 30
0.0
 10
256.8963527758
 20
307.6627032937
 30
0.0
  0
SPLINE
  5
730
100
AcDbEntity
  8
BEZUGSACHSEN
100
AcDbSpline
 62
7
  6
CONTINUOUS
 70
0
 71
3
 72
11
 73
7
 74
0
 42
0.0000001
 43
0.0000001
 44
0.0000000001
 40
0.0
 40
0.0
 40
0.0
 40
0.0
 40
0.2404052896
 40
0.4855030392
 40
0.7383571262
 40
1.0
 40
1.0
 40
1.0
 40
1.0
 10
256.8963527758
 20
307.6627032937
 30
0.0
 10
257.45946892
 20
307.6627032937
 30
0.0
 10
258.5988022378
 20
307.5645265864
 30
0.0
 10
260.2817153744
 20
307.1404392036
 30
0.0
 10
261.9373561103
 20
306.4776050643
 30
0.0
 10
263.005126596
 20
305.9148572757
 30
0.0
 10
263.5358808717
 20
305.6084261517
 30
0.0
  0
SPLINE
  5
731
100
AcDbEntity
  8
BEZUGSACHSEN
100
AcDbSpline
 62
7
  6
CONTINUOUS
 70
0
 71
3
 72
10
 73
6
 74
0
 42
0.0000001
 43
0.0000001
 44
0.0000000001
 40
0.0
 40
0.0
 40
0.0
 40
0.0
 40
0.5016032621
 40
0.751076173
 40
1.0
 40
1.0
 40
1.0
 40
1.0
 10
388.8532231575
 20
305.6084261517
 30
0.0
 10
390.7134044866
 20
306.2284865947
 30
0.0
 10
393.557282143
 20
307.0076249838
 30
0.0
 10
397.43053109
 20
307.5665841909
 30
0.0
 10
399.380161985
 20
307.6627032936
 30
0.0
 10
400.3532231571
 20
307.6627032937
 30
0.0
  0
SPLINE
  5
732
100
AcDbEntity
  8
BEZUGSACHSEN
100
AcDbSpline
 62
7
  6
CONTINUOUS
 70
0
 71
3
 72
10
 73
6
 74
0
 42
0.0000001
 43
0.0000001
 44
0.0000000001
 40
0.0
 40
0.0
 40
0.0
 40
0.0
 40
0.2489238437
 40
0.4983967567
 40
1.0
 40
1.0
 40
1.0
 40
1.0
 10
400.3532231571
 20
307.6627032937
 30
0.0
 10
401.326284395
 20
307.6627032937
 30
0.0
 10
403.2759153656
 20
307.5665842051
 30
0.0
 10
407.1491643065
 20
307.0076249412
 30
0.0
 10
409.9930418976
 20
306.2284865716
 30
0.0
 10
411.8532231575
 20
305.6084261517
 30
0.0
  0
SPLINE
  5
733
100
AcDbEntity
  8
BEZUGSACHSEN
100
AcDbSpline
 62
7
  6
CONTINUOUS
 70
0
 71
3
 72
10
 73
6
 74
0
 42
0.0000001
 43
0.0000001
 44
0.0000000001
 40
0.0
 40
0.0
 40
0.0
 40
0.0
 40
0.2489238437
 40
0.4983967567
 40
1.0
 40
1.0
 40
1.0
 40
1.0
 10
377.3532231575
 20
307.6627032937
 30
0.0
 10
378.3262843953
 20
307.6627032938
 30
0.0
 10
380.2759153659
 20
307.566584205
 30
0.0
 10
384.1491643067
 20
307.0076249412
 30
0.0
 10
386.9930418977
 20
306.2284865716
 30
0.0
 10
388.8532231575
 20
305.6084261517
 30
0.0
  0
SPLINE
  5
734
100
AcDbEntity
  8
BEZUGSACHSEN
100
AcDbSpline
 62
7
  6
CONTINUOUS
 70
0
 71
3
 72
10
 73
6
 74
0
 42
0.0000001
 43
0.0000001
 44
0.0000000001
 40
0.0
 40
0.0
 40
0.0
 40
0.0
 40
0.5015554784
 40
0.751086757
 40
1.0
 40
1.0
 40
1.0
 40
1.0
 10
365.8532231575
 20
305.6084261517
 30
0.0
 10
367.5067331568
 20
306.1595961515
 30
0.0
 10
370.0279787143
 20
306.8667825441
 30
0.0
 10
373.4571765033
 20
307.4462774153
 30
0.0
 10
375.1852902124
 20
307.5966430054
 30
0.0
 10
376.0494688165
 20
307.6342612258
 30
0.0
  0
SPLINE
  5
735
100
AcDbEntity
  8
0
100
AcDbSpline
 62
7
  6
CONTINUOUS
 70
0
 71
3
 72
8
 73
4
 74
0
 42
0.0000001
 43
0.0000001
 44
0.0000000001
 40
0.0
 40
0.0
 40
0.0
 40
0.0
 40
1.0
 40
1.0
 40
1.0
 40
1.0
 10
394.1520736452
 20
392.0039290857
 30
0.0
 10
394.1008266785
 20
392.0076359154
 30
0.0
 10
394.0495459232
 20
392.0108599272
 30
0.0
 10
393.9982797269
 20
392.0142905684
 30
0.0
  0
SPLINE
  5
736
100
AcDbEntity
  8
0
100
AcDbSpline
 62
7
  6
CONTINUOUS
 70
0
 71
3
 72
11
 73
7
 74
0
 42
0.0000001
 43
0.0000001
 44
0.0000000001
 40
0.0
 40
0.0
 40
0.0
 40
0.0
 40
0.2499967265
 40
0.4999967081
 40
0.7499982219
 40
1.0
 40
1.0
 40
1.0
 40
1.0
 10
424.6560444065
 20
380.7604393884
 30
0.0
 10
422.4491411656
 20
382.3893694106
 30
0.0
 10
417.7950536475
 20
385.3347939806
 30
0.0
 10
410.2670507457
 20
388.7224807129
 30
0.0
 10
402.3394634591
 20
391.0245296041
 30
0.0
 10
396.8879422049
 20
391.8060346128
 30
0.0
 10
394.1520736452
 20
392.0039290857
 30
0.0
  0
SPLINE
  5
737
100
AcDbEntity
  8
0
100
AcDbSpline
 62
7
  6
CONTINUOUS
 70
0
 71
3
 72
8
 73
4
 74
0
 42
0.0000001
 43
0.0000001
 44
0.0000000001
 40
0.0
 40
0.0
 40
0.0
 40
0.0
 40
1.0
 40
1.0
 40
1.0
 40
1.0
 10
435.7444311416
 20
360.226269585
 30
0.0
 10
435.8046774786
 20
357.6604580937
 30
0.0
 10
435.8445111975
 20
355.0942024657
 30
0.0
 10
435.8880706195
 20
352.528053443
 30
0.0
  0
SPLINE
  5
738
100
AcDbEntity
  8
0
100
AcDbSpline
 62
7
  6
CONTINUOUS
 70
0
 71
3
 72
8
 73
4
 74
0
 42
0.0000001
 43
0.0000001
 44
0.0000000001
 40
0.0
 40
0.0
 40
0.0
 40
0.0
 40
1.0
 40
1.0
 40
1.0
 40
1.0
 10
341.9620151734
 20
360.226269585
 30
0.0
 10
341.9017688364
 20
357.6604580937
 30
0.0
 10
341.8619351175
 20
355.0942024657
 30
0.0
 10
341.8183756955
 20
352.528053443
 30
0.0
  0
LINE
  5
739
100
AcDbEntity
  8
0
100
AcDbLine
 62
7
  6
CONTINUOUS
 10
435.950878835
 20
351.6857775276
 11
435.9031004374
 21
352.2390907437
  0
SPLINE
  5
73A
100
AcDbEntity
  8
0
100
AcDbSpline
 62
7
  6
CONTINUOUS
 70
0
 71
3
 72
8
 73
4
 74
0
 42
0.0000001
 43
0.0000001
 44
0.0000000001
 40
0.0
 40
0.0
 40
0.0
 40
0.0
 40
1.0
 40
1.0
 40
1.0
 40
1.0
 10
383.5543726698
 20
392.0039290857
 30
0.0
 10
383.6056196365
 20
392.0076359154
 30
0.0
 10
383.6569003919
 20
392.0108599272
 30
0.0
 10
383.7081665882
 20
392.0142905684
 30
0.0
  0
SPLINE
  5
73B
100
AcDbEntity
  8
0
100
AcDbSpline
 62
7
  6
CONTINUOUS
 70
0
 71
3
 72
11
 73
7
 74
0
 42
0.0000001
 43
0.0000001
 44
0.0000000001
 40
0.0
 40
0.0
 40
0.0
 40
0.0
 40
0.2499967265
 40
0.4999967081
 40
0.7499982219
 40
1.0
 40
1.0
 40
1.0
 40
1.0
 10
353.0504019085
 20
380.7604393884
 30
0.0
 10
355.2573051494
 20
382.3893694106
 30
0.0
 10
359.9113926675
 20
385.3347939806
 30
0.0
 10
367.4393955693
 20
388.7224807129
 30
0.0
 10
375.3669828559
 20
391.0245296041
 30
0.0
 10
380.8185041102
 20
391.8060346128
 30
0.0
 10
383.5543726698
 20
392.0039290857
 30
0.0
  0
LINE
  5
73C
100
AcDbEntity
  8
0
100
AcDbLine
 62
7
  6
CONTINUOUS
 10
341.75556748
 20
351.6857775276
 11
341.8033458776
 21
352.2390907437
  0
SPLINE
  5
73D
100
AcDbEntity
  8
0
100
AcDbSpline
 62
7
  6
CONTINUOUS
 70
0
 71
3
 72
11
 73
7
 74
0
 42
0.0000001
 43
0.0000001
 44
0.0000000001
 40
0.0
 40
0.0
 40
0.0
 40
0.0
 40
0.2486075396
 40
0.4975975916
 40
0.747109867
 40
1.0
 40
1.0
 40
1.0
 40
1.0
 10
283.5252875825
 20
111.5717474511
 30
0.0
 10
283.4931324939
 20
112.0962821473
 30
0.0
 10
283.3887589705
 20
113.1433245668
 30
0.0
 10
283.2200403548
 20
114.7135569686
 30
0.0
 10
283.0361077869
 20
116.2907644777
 30
0.0
 10
282.8192255827
 20
117.3353421568
 30
0.0
 10
282.6573711041
 20
117.8448227596
 30
0.0
  0
SPLINE
  5
73E
100
AcDbEntity
  8
0
100
AcDbSpline
 62
7
  6
CONTINUOUS
 70
0
 71
3
 72
16
 73
12
 74
0
 42
0.0000001
 43
0.0000001
 44
0.0000000001
 40
0.0
 40
0.0
 40
0.0
 40
0.0
 40
0.201939794
 40
0.384235352
 40
0.545392969
 40
0.68423539
 40
0.7997300087
 40
0.8910732828
 40
0.9577702472
 40
0.9818875861
 40
1.0
 40
1.0
 40
1.0
 40
1.0
 10
263.477768489
 20
34.2706859818
 30
0.0
 10
263.5035425589
 20
33.7705354176
 30
0.0
 10
263.5566385961
 20
32.819086783
 30
0.0
 10
263.6464779859
 20
31.469463303
 30
0.0
 10
263.7418414124
 20
30.2771107789
 30
0.0
 10
263.841906511
 20
29.2515172136
 30
0.0
 10
263.9452885531
 20
28.4002605964
 30
0.0
 10
264.0513915813
 20
27.7302892179
 30
0.0
 10
264.1465277186
 20
27.287748046
 30
0.0
 10
264.2295449896
 20
27.0305729184
 30
0.0
 10
264.2720509038
 20
26.9342768106
 30
0.0
 10
264.2948005272
 20
26.8955446468
 30
0.0
  0
SPLINE
  5
73F
100
AcDbEntity
  8
0
100
AcDbSpline
 62
7
  6
CONTINUOUS
 70
0
 71
3
 72
11
 73
7
 74
0
 42
0.0000001
 43
0.0000001
 44
0.0000000001
 40
0.0
 40
0.0
 40
0.0
 40
0.0
 40
0.2486075395
 40
0.4975975918
 40
0.7471098671
 40
1.0
 40
1.0
 40
1.0
 40
1.0
 10
262.4302493325
 20
111.5717464225
 30
0.0
 10
262.4624043987
 20
112.0962812053
 30
0.0
 10
262.5667779228
 20
113.1433237976
 30
0.0
 10
262.735496569
 20
114.7135564541
 30
0.0
 10
262.919429147
 20
116.2907642214
 30
0.0
 10
263.1363113692
 20
117.3353420744
 30
0.0
 10
263.298165874
 20
117.8448227596
 30
0.0
  0
SPLINE
  5
740
100
AcDbEntity
  8
0
100
AcDbSpline
 62
7
  6
CONTINUOUS
 70
0
 71
3
 72
11
 73
7
 74
0
 42
0.0000001
 43
0.0000001
 44
0.0000000001
 40
0.0
 40
0.0
 40
0.0
 40
0.0
 40
0.2486075395
 40
0.4975975918
 40
0.7471098671
 40
1.0
 40
1.0
 40
1.0
 40
1.0
 10
283.5252876455
 20
35.8183711403
 30
0.0
 10
283.4931325793
 20
35.2938363575
 30
0.0
 10
283.3887590553
 20
34.2467937652
 30
0.0
 10
283.220040409
 20
32.6765611086
 30
0.0
 10
283.036107831
 20
31.0993533414
 30
0.0
 10
282.8192256089
 20
30.0547754884
 30
0.0
 10
282.6573711041
 20
29.5452948031
 30
0.0
  0
SPLINE
  5
741
100
AcDbEntity
  8
0
100
AcDbSpline
 62
7
  6
CONTINUOUS
 70
0
 71
3
 72
11
 73
7
 74
0
 42
0.0000001
 43
0.0000001
 44
0.0000000001
 40
0.0
 40
0.0
 40
0.0
 40
0.0
 40
0.2486075396
 40
0.4975975916
 40
0.747109867
 40
1.0
 40
1.0
 40
1.0
 40
1.0
 10
262.4302493956
 20
35.8183701116
 30
0.0
 10
262.4624044842
 20
35.2938354154
 30
0.0
 10
262.5667780076
 20
34.2467929959
 30
0.0
 10
262.7354966232
 20
32.6765605942
 30
0.0
 10
262.9194291911
 20
31.099353085
 30
0.0
 10
263.1363113953
 20
30.054775406
 30
0.0
 10
263.298165874
 20
29.5452948031
 30
0.0
  0
SPLINE
  5
742
100
AcDbEntity
  8
0
100
AcDbSpline
 62
7
  6
CONTINUOUS
 70
0
 71
3
 72
16
 73
12
 74
0
 42
0.0000001
 43
0.0000001
 44
0.0000000001
 40
0.0
 40
0.0
 40
0.0
 40
0.0
 40
0.201939665
 40
0.3842351265
 40
0.5453926828
 40
0.6842350812
 40
0.7997297177
 40
0.8910730508
 40
0.9577701145
 40
0.9818875167
 40
1.0
 40
1.0
 40
1.0
 40
1.0
 10
282.477768489
 20
34.2706859818
 30
0.0
 10
282.4519944413
 20
33.7705358466
 30
0.0
 10
282.3988984502
 20
32.8190879785
 30
0.0
 10
282.3090591474
 20
31.4694655009
 30
0.0
 10
282.2136958154
 20
30.2771136795
 30
0.0
 10
282.113630817
 20
29.2515204938
 30
0.0
 10
282.0102488731
 20
28.4002639206
 30
0.0
 10
281.9041459444
 20
27.7302922313
 30
0.0
 10
281.8090098883
 20
27.2877505922
 30
0.0
 10
281.7259927212
 20
27.0305748876
 30
0.0
 10
281.6834868624
 20
26.9342784307
 30
0.0
 10
281.6607372782
 20
26.8955460555
 30
0.0
  0
SPLINE
  5
743
100
AcDbEntity
  8
0
100
AcDbSpline
 62
7
  6
CONTINUOUS
 70
0
 71
3
 72
16
 73
12
 74
0
 42
0.0000001
 43
0.0000001
 44
0.0000000001
 40
0.0
 40
0.0
 40
0.0
 40
0.0
 40
0.201939794
 40
0.384235352
 40
0.545392969
 40
0.68423539
 40
0.7997300087
 40
0.8910732828
 40
0.9577702472
 40
0.9818875861
 40
1.0
 40
1.0
 40
1.0
 40
1.0
 10
282.477768489
 20
113.1194315809
 30
0.0
 10
282.4519944192
 20
113.6195821451
 30
0.0
 10
282.3988983819
 20
114.5710307797
 30
0.0
 10
282.3090589922
 20
115.9206542597
 30
0.0
 10
282.2136955657
 20
117.1130067838
 30
0.0
 10
282.113630467
 20
118.1386003491
 30
0.0
 10
282.0102484249
 20
118.9898569663
 30
0.0
 10
281.9041453967
 20
119.6598283449
 30
0.0
 10
281.8090092594
 20
120.1023695167
 30
0.0
 10
281.7259919884
 20
120.3595446443
 30
0.0
 10
281.6834860743
 20
120.4558407522
 30
0.0
 10
281.6607364508
 20
120.494572916
 30
0.0
  0
SPLINE
  5
744
100
AcDbEntity
  8
0
100
AcDbSpline
 62
7
  6
CONTINUOUS
 70
0
 71
3
 72
16
 73
12
 74
0
 42
0.0000001
 43
0.0000001
 44
0.0000000001
 40
0.0
 40
0.0
 40
0.0
 40
0.0
 40
0.201939665
 40
0.3842351265
 40
0.5453926828
 40
0.6842350812
 40
0.7997297177
 40
0.8910730508
 40
0.9577701145
 40
0.9818875167
 40
1.0
 40
1.0
 40
1.0
 40
1.0
 10
263.477768489
 20
113.1194315809
 30
0.0
 10
263.5035425368
 20
113.6195817161
 30
0.0
 10
263.5566385279
 20
114.5710295842
 30
0.0
 10
263.6464778307
 20
115.9206520618
 30
0.0
 10
263.7418411627
 20
117.1130038833
 30
0.0
 10
263.841906161
 20
118.138597069
 30
0.0
 10
263.945288105
 20
118.9898536422
 30
0.0
 10
264.0513910336
 20
119.6598253315
 30
0.0
 10
264.1465270897
 20
120.1023669706
 30
0.0
 10
264.2295442568
 20
120.3595426752
 30
0.0
 10
264.2720501156
 20
120.4558391321
 30
0.0
 10
264.2947996998
 20
120.4945715073
 30
0.0
  0
SPLINE
  5
745
100
AcDbEntity
  8
0
100
AcDbSpline
 62
7
  6
CONTINUOUS
 70
0
 71
3
 72
9
 73
5
 74
0
 42
0.0000001
 43
0.0000001
 44
0.0000000001
 40
0.0
 40
0.0
 40
0.0
 40
0.0
 40
0.5031893785
 40
1.0
 40
1.0
 40
1.0
 40
1.0
 10
283.256236901
 20
38.8777240525
 30
0.0
 10
283.4130896533
 20
38.3847349315
 30
0.0
 10
283.5815518303
 20
37.3580427227
 30
0.0
 10
283.5565409825
 20
36.3281963181
 30
0.0
 10
283.5252876455
 20
35.8183711403
 30
0.0
  0
SPLINE
  5
746
100
AcDbEntity
  8
0
100
AcDbSpline
 62
7
  6
CONTINUOUS
 70
0
 71
3
 72
9
 73
5
 74
0
 42
0.0000001
 43
0.0000001
 44
0.0000000001
 40
0.0
 40
0.0
 40
0.0
 40
0.0
 40
0.503189377
 40
1.0
 40
1.0
 40
1.0
 40
1.0
 10
262.6993000771
 20
38.8777240525
 30
0.0
 10
262.542447273
 20
38.3847347688
 30
0.0
 10
262.3739850898
 20
37.3580422033
 30
0.0
 10
262.3989960212
 20
36.3281954591
 30
0.0
 10
262.4302493956
 20
35.8183701116
 30
0.0
  0
SPLINE
  5
747
100
AcDbEntity
  8
0
100
AcDbSpline
 62
7
  6
CONTINUOUS
 70
0
 71
3
 72
9
 73
5
 74
0
 42
0.0000001
 43
0.0000001
 44
0.0000000001
 40
0.0
 40
0.0
 40
0.0
 40
0.0
 40
0.5031893785
 40
1.0
 40
1.0
 40
1.0
 40
1.0
 10
262.6993000771
 20
108.5123935103
 30
0.0
 10
262.5424473248
 20
109.0053826312
 30
0.0
 10
262.3739851477
 20
110.03207484
 30
0.0
 10
262.3989959955
 20
111.0619212446
 30
0.0
 10
262.4302493325
 20
111.5717464225
 30
0.0
  0
SPLINE
  5
748
100
AcDbEntity
  8
0
100
AcDbSpline
 62
7
  6
CONTINUOUS
 70
0
 71
3
 72
9
 73
5
 74
0
 42
0.0000001
 43
0.0000001
 44
0.0000000001
 40
0.0
 40
0.0
 40
0.0
 40
0.0
 40
0.503189377
 40
1.0
 40
1.0
 40
1.0
 40
1.0
 10
283.256236901
 20
108.5123935103
 30
0.0
 10
283.4130897051
 20
109.005382794
 30
0.0
 10
283.5815518883
 20
110.0320753594
 30
0.0
 10
283.5565409568
 20
111.0619221036
 30
0.0
 10
283.5252875825
 20
111.5717474511
 30
0.0
  0
ELLIPSE
  5
749
100
AcDbEntity
  8
0
100
AcDbEllipse
 62
7
  6
CONTINUOUS
 10
272.677768489
 20
346.8166378917
 30
0.0
 11
0.0
 21
23.9668193952
 31
0.0
 40
0.383864035
 41
-4.7123889804
 42
-4.5156657425
  0
ELLIPSE
  5
74A
100
AcDbEntity
  8
0
100
AcDbEllipse
 62
7
  6
CONTINUOUS
 10
272.677768489
 20
339.9115639567
 30
0.0
 11
-0.0
 21
11.3610538401
 31
0.0
 40
0.8097840332
 41
1.3740730889
 42
1.5707963268
  0
ELLIPSE
  5
74B
100
AcDbEntity
  8
0
100
AcDbEllipse
 62
7
  6
CONTINUOUS
 10
273.277768489
 20
346.8166378917
 30
0.0
 11
-0.0
 21
23.9668193952
 31
0.0
 40
0.383864035
 41
-1.7675195647
 42
-1.5707963268
  0
ELLIPSE
  5
74C
100
AcDbEntity
  8
0
100
AcDbEllipse
 62
7
  6
CONTINUOUS
 10
273.277768489
 20
339.9115639567
 30
0.0
 11
0.0
 21
11.3610538401
 31
0.0
 40
0.8097840332
 41
-1.5707963268
 42
-1.3740730889
  0
ELLIPSE
  5
74D
100
AcDbEntity
  8
0
100
AcDbEllipse
 62
7
  6
CONTINUOUS
 10
273.277768489
 20
339.1706256628
 30
0.0
 11
0.0
 21
11.3610538401
 31
0.0
 40
0.8097840332
 41
-2.1193859314
 42
-1.5707963268
  0
ELLIPSE
  5
74E
100
AcDbEntity
  8
0
100
AcDbEllipse
 62
7
  6
CONTINUOUS
 10
272.677768489
 20
339.1706256628
 30
0.0
 11
0.0
 21
11.3610538401
 31
0.0
 40
0.8097840332
 41
-4.7123889804
 42
-4.1637993758
  0
ELLIPSE
  5
74F
100
AcDbEntity
  8
0
100
AcDbEllipse
 62
7
  6
CONTINUOUS
 10
234.977768489
 20
265.7312119594
 30
0.0
 11
30.5
 21
-0.0
 31
0.0
 40
0.255319362
 41
2.8077193533
 42
2.8336331661
  0
ELLIPSE
  5
750
100
AcDbEntity
  8
0
100
AcDbEllipse
 62
7
  6
CONTINUOUS
 10
234.977768489
 20
261.4780213321
 30
0.0
 11
30.5
 21
0.0
 31
0.0
 40
0.6808512211
 41
2.7881310127
 42
2.8077193533
  0
ELLIPSE
  5
751
100
AcDbEntity
  8
0
100
AcDbEllipse
 62
7
  6
CONTINUOUS
 10
234.977768489
 20
252.4929499939
 30
0.0
 11
-0.0
 21
46.7233095678
 31
0.0
 40
0.6527791007
 41
1.2041971966
 42
1.2173346859
  0
ELLIPSE
  5
752
100
AcDbEntity
  8
0
100
AcDbEllipse
 62
7
  6
CONTINUOUS
 10
234.977768489
 20
224.5799850538
 30
0.0
 11
-0.0
 21
124.5962051247
 31
0.0
 40
0.244790762
 41
1.197603718
 42
1.2041971966
  0
ELLIPSE
  5
753
100
AcDbEntity
  8
0
100
AcDbEllipse
 62
7
  6
CONTINUOUS
 10
234.977768489
 20
318.3054212653
 30
0.0
 11
0.0
 21
124.5962051247
 31
0.0
 40
0.244790762
 41
-4.3457898502
 42
-4.3391963716
  0
ELLIPSE
  5
754
100
AcDbEntity
  8
0
100
AcDbEllipse
 62
7
  6
CONTINUOUS
 10
234.977768489
 20
290.3924719642
 30
0.0
 11
0.0
 21
46.7233531983
 31
0.0
 40
0.6527784911
 41
-4.3589273395
 42
-4.3457898502
  0
ELLIPSE
  5
755
100
AcDbEntity
  8
0
100
AcDbEllipse
 62
7
  6
CONTINUOUS
 10
234.977768489
 20
281.4073830063
 30
0.0
 11
30.5
 21
0.0
 31
0.0
 40
0.6808509827
 41
-2.8077193533
 42
-2.7881310127
  0
ELLIPSE
  5
756
100
AcDbEntity
  8
0
100
AcDbEllipse
 62
7
  6
CONTINUOUS
 10
234.977768489
 20
277.154194762
 30
0.0
 11
30.5
 21
0.0
 31
0.0
 40
0.255319362
 41
-2.8336331661
 42
-2.8077193533
  0
ELLIPSE
  5
757
100
AcDbEntity
  8
0
100
AcDbEllipse
 62
7
  6
CONTINUOUS
 10
234.977768489
 20
268.0290863068
 30
0.0
 11
30.5
 21
-0.0
 31
0.0
 40
0.2553189968
 41
3.1089639017
 42
3.1335597803
  0
ELLIPSE
  5
758
100
AcDbEntity
  8
0
100
AcDbEllipse
 62
7
  6
CONTINUOUS
 10
234.977768489
 20
267.6056815914
 30
0.0
 11
30.5
 21
0.0
 31
0.0
 40
0.6808512211
 41
3.0905048481
 42
3.1089639017
  0
ELLIPSE
  5
759
100
AcDbEntity
  8
0
100
AcDbEllipse
 62
7
  6
CONTINUOUS
 10
234.977768489
 20
266.2801476261
 30
0.0
 11
-0.0
 21
46.7234432444
 31
0.0
 40
0.6527772331
 41
1.5073932
 42
1.5197085213
  0
ELLIPSE
  5
75A
100
AcDbEntity
  8
0
100
AcDbEllipse
 62
7
  6
CONTINUOUS
 10
234.977768489
 20
261.3461235418
 30
0.0
 11
0.0
 21
124.5954921808
 31
0.0
 40
0.2447921628
 41
1.5012320261
 42
1.5073932
  0
ELLIPSE
  5
75B
100
AcDbEntity
  8
0
100
AcDbEllipse
 62
7
  6
CONTINUOUS
 10
234.977768489
 20
242.1529160093
 30
0.0
 11
30.5
 21
-0.0
 31
0.0
 40
0.1702127606
 41
-2.8602737463
 42
-2.8302768295
  0
ELLIPSE
  5
75C
100
AcDbEntity
  8
0
100
AcDbEllipse
 62
7
  6
CONTINUOUS
 10
234.977768489
 20
243.5941925594
 30
0.0
 11
30.5
 21
0.0
 31
0.0
 40
0.3404255211
 41
-2.8751734273
 42
-2.8602737463
  0
ELLIPSE
  5
75D
100
AcDbEntity
  8
0
100
AcDbEllipse
 62
7
  6
CONTINUOUS
 10
234.977768489
 20
246.3278094941
 30
0.0
 11
30.5
 21
-0.0
 31
0.0
 40
0.6808510423
 41
-2.8900127622
 42
-2.8751734273
  0
ELLIPSE
  5
75E
100
AcDbEntity
  8
0
100
AcDbEllipse
 62
7
  6
CONTINUOUS
 10
234.977768489
 20
256.6665029917
 30
0.0
 11
-0.0
 21
62.2977515442
 31
0.0
 40
0.4895842826
 41
-4.4706704314
 42
-4.460809089
  0
ELLIPSE
  5
75F
100
AcDbEntity
  8
0
100
AcDbEllipse
 62
7
  6
CONTINUOUS
 10
234.977768489
 20
238.0409151868
 30
0.0
 11
-0.0
 21
65.412773124
 31
0.0
 40
0.4662697902
 41
1.4362100629
 42
1.5322348491
  0
ELLIPSE
  5
760
100
AcDbEntity
  8
0
100
AcDbEllipse
 62
7
  6
CONTINUOUS
 10
234.977768489
 20
244.0207169948
 30
0.0
 11
-0.0
 21
57.1063834429
 31
0.0
 40
0.5340909047
 41
-4.6648574327
 42
-4.6632807446
  0
ELLIPSE
  5
761
100
AcDbEntity
  8
0
100
AcDbEllipse
 62
7
  6
CONTINUOUS
 10
234.977768489
 20
244.0207169948
 30
0.0
 11
-0.0
 21
57.1063834429
 31
0.0
 40
0.5340909047
 41
1.6313944079
 42
1.647072445
  0
ELLIPSE
  5
762
100
AcDbEntity
  8
0
100
AcDbEllipse
 62
7
  6
CONTINUOUS
 10
234.977768489
 20
313.0735665736
 30
0.0
 11
0.0
 21
62.2973896226
 31
0.0
 40
0.4895871269
 41
-3.6838277875
 42
-3.674489826
  0
ELLIPSE
  5
763
100
AcDbEntity
  8
0
100
AcDbEllipse
 62
7
  6
CONTINUOUS
 10
234.977768489
 20
286.3932275845
 30
0.0
 11
0.0
 21
31.1490512812
 31
0.0
 40
0.9791630482
 41
-3.7020829472
 42
-3.6838277875
  0
ELLIPSE
  5
764
100
AcDbEntity
  8
0
100
AcDbEllipse
 62
7
  6
CONTINUOUS
 10
234.977768489
 20
268.804475798
 30
0.0
 11
30.5
 21
-0.0
 31
0.0
 40
0.3404254913
 41
-2.1577163581
 42
-2.1312866204
  0
ELLIPSE
  5
765
100
AcDbEntity
  8
0
100
AcDbEllipse
 62
7
  6
CONTINUOUS
 10
234.977768489
 20
259.0016466314
 30
0.0
 11
30.5
 21
0.0
 31
0.0
 40
0.2042556244
 41
-2.2619803445
 42
-2.2235753977
  0
ELLIPSE
  5
766
100
AcDbEntity
  8
0
100
AcDbEllipse
 62
7
  6
CONTINUOUS
 10
234.977768489
 20
268.6016609759
 30
0.0
 11
30.5
 21
0.0
 31
0.0
 40
0.6127668731
 41
-2.2986789639
 42
-2.2619803445
  0
ELLIPSE
  5
767
100
AcDbEntity
  8
0
100
AcDbEllipse
 62
7
  6
CONTINUOUS
 10
234.977768489
 20
293.4073186208
 30
0.0
 11
0.0
 21
51.9148983359
 31
0.0
 40
0.5874999466
 41
-3.8907830685
 42
-3.8694752907
  0
ELLIPSE
  5
768
100
AcDbEntity
  8
0
100
AcDbEllipse
 62
7
  6
CONTINUOUS
 10
234.977768489
 20
346.6264690417
 30
0.0
 11
0.0
 21
124.5947792452
 31
0.0
 40
0.2447935635
 41
-3.8977775786
 42
-3.8907830685
  0
ELLIPSE
  5
769
100
AcDbEntity
  8
0
100
AcDbEllipse
 62
7
  6
CONTINUOUS
 10
234.977768489
 20
248.4622535136
 30
0.0
 11
30.5
 21
0.0
 31
0.0
 40
0.2553200925
 41
2.1222268767
 42
2.1577163581
  0
ELLIPSE
  5
76A
100
AcDbEntity
  8
0
100
AcDbEllipse
 62
7
  6
CONTINUOUS
 10
234.977768489
 20
237.4073098749
 30
0.0
 11
30.5
 21
0.0
 31
0.0
 40
0.6808512211
 41
2.0942055146
 42
2.1222268767
  0
ELLIPSE
  5
76B
100
AcDbEntity
  8
0
100
AcDbEllipse
 62
7
  6
CONTINUOUS
 10
234.977768489
 20
214.9253590412
 30
0.0
 11
0.0
 21
46.7230422169
 31
0.0
 40
0.6527828359
 41
0.5039477078
 42
0.5234091878
  0
ELLIPSE
  5
76C
100
AcDbEntity
  8
0
100
AcDbEllipse
 62
7
  6
CONTINUOUS
 10
234.977768489
 20
297.2013431828
 30
0.0
 11
-0.0
 21
46.7230640321
 31
0.0
 40
0.6527825311
 41
-3.6650018414
 42
-3.6455403614
  0
ELLIPSE
  5
76D
100
AcDbEntity
  8
0
100
AcDbEllipse
 62
7
  6
CONTINUOUS
 10
234.977768489
 20
274.7193671564
 30
0.0
 11
30.5
 21
-0.0
 31
0.0
 40
0.6808509827
 41
-2.1222268767
 42
-2.0942055146
  0
ELLIPSE
  5
76E
100
AcDbEntity
  8
0
100
AcDbEllipse
 62
7
  6
CONTINUOUS
 10
234.977768489
 20
263.6644297116
 30
0.0
 11
30.5
 21
-0.0
 31
0.0
 40
0.2553200925
 41
-2.1577163581
 42
-2.1222268767
  0
ELLIPSE
  5
76F
100
AcDbEntity
  8
0
100
AcDbEllipse
 62
7
  6
CONTINUOUS
 10
234.977768489
 20
263.4409888069
 30
0.0
 11
30.5
 21
-0.0
 31
0.0
 40
0.2553186315
 41
-2.2391611078
 42
-2.2076650865
  0
ELLIPSE
  5
770
100
AcDbEntity
  8
0
100
AcDbEllipse
 62
7
  6
CONTINUOUS
 10
234.977768489
 20
269.5526785489
 30
0.0
 11
30.5
 21
0.0
 31
0.0
 40
0.510637263
 41
-2.2694476295
 42
-2.2391611078
  0
ELLIPSE
  5
771
100
AcDbEntity
  8
0
100
AcDbEllipse
 62
7
  6
CONTINUOUS
 10
234.977768489
 20
281.478322205
 30
0.0
 11
-0.0
 21
31.1490512812
 31
0.0
 40
0.9791630482
 41
-3.8694752907
 42
-3.8402439563
  0
ELLIPSE
  5
772
100
AcDbEntity
  8
0
100
AcDbEllipse
 62
7
  6
CONTINUOUS
 10
234.977768489
 20
351.2434763411
 30
0.0
 11
0.0
 21
124.5947792452
 31
0.0
 40
0.2447935635
 41
-3.8766336238
 42
-3.8694752907
  0
ELLIPSE
  5
773
100
AcDbEntity
  8
0
100
AcDbEllipse
 62
7
  6
CONTINUOUS
 10
234.977768489
 20
166.9895898651
 30
0.0
 11
-0.0
 21
124.5947792452
 31
0.0
 40
0.2447935635
 41
0.7278826371
 42
0.7350409702
  0
ELLIPSE
  5
774
100
AcDbEntity
  8
0
100
AcDbEllipse
 62
7
  6
CONTINUOUS
 10
234.977768489
 20
236.7547440011
 30
0.0
 11
0.0
 21
31.1490512812
 31
0.0
 40
0.9791630482
 41
0.6986513027
 42
0.7278826371
  0
ELLIPSE
  5
775
100
AcDbEntity
  8
0
100
AcDbEllipse
 62
7
  6
CONTINUOUS
 10
234.977768489
 20
248.6803876573
 30
0.0
 11
30.5
 21
0.0
 31
0.0
 40
0.510637263
 41
2.2391611078
 42
2.2694476295
  0
ELLIPSE
  5
776
100
AcDbEntity
  8
0
100
AcDbEllipse
 62
7
  6
CONTINUOUS
 10
234.977768489
 20
254.7920773992
 30
0.0
 11
30.5
 21
-0.0
 31
0.0
 40
0.2553186315
 41
2.2076650865
 42
2.2391611078
  0
ELLIPSE
  5
777
100
AcDbEntity
  8
0
100
AcDbEllipse
 62
7
  6
CONTINUOUS
 10
234.977768489
 20
257.7505809322
 30
0.0
 11
30.5
 21
0.0
 31
0.0
 40
0.2042556244
 41
-2.5354857829
 42
-2.5060936198
  0
ELLIPSE
  5
778
100
AcDbEntity
  8
0
100
AcDbEllipse
 62
7
  6
CONTINUOUS
 10
234.977768489
 20
263.0739630695
 30
0.0
 11
30.5
 21
0.0
 31
0.0
 40
0.5106373301
 41
-2.5585740185
 42
-2.5354857829
  0
ELLIPSE
  5
779
100
AcDbEntity
  8
0
100
AcDbEllipse
 62
7
  6
CONTINUOUS
 10
234.977768489
 20
271.6485117123
 30
0.0
 11
-0.0
 21
31.1490540081
 31
0.0
 40
0.9791629624
 41
-4.1521120579
 42
-4.1293703453
  0
ELLIPSE
  5
77A
100
AcDbEntity
  8
0
100
AcDbEllipse
 62
7
  6
CONTINUOUS
 10
234.977768489
 20
288.2013909867
 30
0.0
 11
0.0
 21
62.2974005301
 31
0.0
 40
0.4895870412
 41
-4.1633614977
 42
-4.1521120579
  0
ELLIPSE
  5
77B
100
AcDbEntity
  8
0
100
AcDbEllipse
 62
7
  6
CONTINUOUS
 10
234.977768489
 20
336.9688217547
 30
0.0
 11
0.0
 21
155.7470387961
 31
0.0
 40
0.1958303685
 41
-4.168957068
 42
-4.1633614977
  0
ELLIPSE
  5
77C
100
AcDbEntity
  8
0
100
AcDbEllipse
 62
7
  6
CONTINUOUS
 10
234.977768489
 20
250.1750533862
 30
0.0
 11
30.5
 21
-0.0
 31
0.0
 40
0.2553186315
 41
2.4576799204
 42
2.4821139886
  0
ELLIPSE
  5
77D
100
AcDbEntity
  8
0
100
AcDbEllipse
 62
7
  6
CONTINUOUS
 10
234.977768489
 20
241.9746853013
 30
0.0
 11
30.5
 21
0.0
 31
0.0
 40
0.6808512211
 41
2.4390309112
 42
2.4576799204
  0
ELLIPSE
  5
77E
100
AcDbEntity
  8
0
100
AcDbEllipse
 62
7
  6
CONTINUOUS
 10
234.977768489
 20
225.2015262355
 30
0.0
 11
0.0
 21
46.7235769218
 31
0.0
 40
0.6527753654
 41
0.8556370133
 42
0.8682345844
  0
ELLIPSE
  5
77F
100
AcDbEntity
  8
0
100
AcDbEllipse
 62
7
  6
CONTINUOUS
 10
234.977768489
 20
174.1384427448
 30
0.0
 11
-0.0
 21
124.5947792452
 31
0.0
 40
0.2447935635
 41
0.8492863059
 42
0.8556370133
  0
ELLIPSE
  5
780
100
AcDbEntity
  8
0
100
AcDbEllipse
 62
7
  6
CONTINUOUS
 10
234.977768489
 20
255.8824907268
 30
0.0
 11
30.5
 21
0.0
 31
0.0
 40
0.3404254913
 41
2.9142289757
 42
2.9289276895
  0
ELLIPSE
  5
781
100
AcDbEntity
  8
0
100
AcDbEllipse
 62
7
  6
CONTINUOUS
 10
234.977768489
 20
251.2016134368
 30
0.0
 11
-0.0
 21
31.1490512812
 31
0.0
 40
0.9791630482
 41
1.3336059057
 42
1.3434326489
  0
ELLIPSE
  5
782
100
AcDbEntity
  8
0
100
AcDbEllipse
 62
7
  6
CONTINUOUS
 10
234.977768489
 20
236.5635150232
 30
0.0
 11
-0.0
 21
93.4460844339
 31
0.0
 40
0.3263914179
 41
1.3286837728
 42
1.3336059057
  0
ELLIPSE
  5
783
100
AcDbEntity
  8
0
100
AcDbEllipse
 62
7
  6
CONTINUOUS
 10
234.977768489
 20
281.8184873354
 30
0.0
 11
0.0
 21
93.4460844339
 31
0.0
 40
0.3263914179
 41
-4.4751985593
 42
-4.4702764264
  0
ELLIPSE
  5
784
100
AcDbEntity
  8
0
100
AcDbEllipse
 62
7
  6
CONTINUOUS
 10
234.977768489
 20
267.1803889218
 30
0.0
 11
0.0
 21
31.1490512812
 31
0.0
 40
0.9791630482
 41
-4.4850253024
 42
-4.4751985593
  0
ELLIPSE
  5
785
100
AcDbEntity
  8
0
100
AcDbEllipse
 62
7
  6
CONTINUOUS
 10
234.977768489
 20
262.4995116318
 30
0.0
 11
30.5
 21
-0.0
 31
0.0
 40
0.3404254913
 41
-2.9289276895
 42
-2.9142289757
  0
ELLIPSE
  5
786
100
AcDbEntity
  8
0
100
AcDbEllipse
 62
7
  6
CONTINUOUS
 10
234.977768489
 20
262.1590350274
 30
0.0
 11
-0.0
 21
124.5948010603
 31
0.0
 40
0.2447935206
 41
-4.6604530854
 42
-4.655664558
  0
ELLIPSE
  5
787
100
AcDbEntity
  8
0
100
AcDbEllipse
 62
7
  6
CONTINUOUS
 10
234.977768489
 20
256.8612161083
 30
0.0
 11
-0.0
 21
31.1489648899
 31
0.0
 40
0.9791657639
 41
-4.655664558
 42
-4.6364964766
  0
ELLIPSE
  5
788
100
AcDbEntity
  8
0
100
AcDbEllipse
 62
7
  6
CONTINUOUS
 10
234.977768489
 20
255.6803640075
 30
0.0
 11
30.5
 21
-0.0
 31
0.0
 40
0.510638791
 41
-3.0657001498
 42
-3.0499596107
  0
ELLIPSE
  5
789
100
AcDbEntity
  8
0
100
AcDbEllipse
 62
7
  6
CONTINUOUS
 10
234.977768489
 20
251.1804236225
 30
0.0
 11
0.0
 21
155.743561317
 31
0.0
 40
0.195834741
 41
1.5140719044
 42
1.5188604318
  0
ELLIPSE
  5
78A
100
AcDbEntity
  8
0
100
AcDbEllipse
 62
7
  6
CONTINUOUS
 10
234.977768489
 20
258.2441907379
 30
0.0
 11
-0.0
 21
31.1489621629
 31
0.0
 40
0.9791658496
 41
1.494903823
 42
1.5140719044
  0
ELLIPSE
  5
78B
100
AcDbEntity
  8
0
100
AcDbEllipse
 62
7
  6
CONTINUOUS
 10
234.977768489
 20
259.4250427871
 30
0.0
 11
30.5
 21
0.0
 31
0.0
 40
0.510638724
 41
3.0499596107
 42
3.0657001498
  0
ELLIPSE
  5
78C
100
AcDbEntity
  8
0
100
AcDbEllipse
 62
7
  6
CONTINUOUS
 10
234.977768489
 20
251.8115692647
 30
0.0
 11
30.5
 21
-0.0
 31
0.0
 40
0.3404254913
 41
2.2076650865
 42
2.2314072402
  0
ELLIPSE
  5
78D
100
AcDbEntity
  8
0
100
AcDbEllipse
 62
7
  6
CONTINUOUS
 10
234.977768489
 20
243.612988303
 30
0.0
 11
30.5
 21
-0.0
 31
0.0
 40
0.6808509827
 41
2.2314072402
 42
2.2544450431
  0
ELLIPSE
  5
78E
100
AcDbEntity
  8
0
100
AcDbEllipse
 62
7
  6
CONTINUOUS
 10
234.977768489
 20
187.2659597086
 30
0.0
 11
-0.0
 21
93.4461716944
 31
0.0
 40
0.3263911132
 41
0.6836487163
 42
0.6911840177
  0
ELLIPSE
  5
78F
100
AcDbEntity
  8
0
100
AcDbEllipse
 62
7
  6
CONTINUOUS
 10
234.977768489
 20
236.1643192365
 30
0.0
 11
0.0
 21
64.340432581
 31
0.0
 40
0.4662697902
 41
1.4373560273
 42
1.5023818494
  0
ELLIPSE
  5
790
100
AcDbEntity
  8
0
100
AcDbEllipse
 62
7
  6
CONTINUOUS
 10
234.977768489
 20
236.1643192365
 30
0.0
 11
-0.0
 21
64.340432581
 31
0.0
 40
0.4662697902
 41
1.4102537442
 42
1.4277911014
  0
ELLIPSE
  5
791
100
AcDbEntity
  8
0
100
AcDbEllipse
 62
7
  6
CONTINUOUS
 10
234.977768489
 20
236.1643192365
 30
0.0
 11
0.0
 21
64.340432581
 31
0.0
 40
0.4662697902
 41
1.4044468463
 42
1.4091447799
  0
ELLIPSE
  5
792
100
AcDbEntity
  8
0
100
AcDbEllipse
 62
7
  6
CONTINUOUS
 10
234.977768489
 20
243.0667022596
 30
0.0
 11
30.0
 21
-0.0
 31
0.0
 40
0.2042552105
 41
-2.8503830691
 42
-2.8249091857
  0
ELLIPSE
  5
793
100
AcDbEntity
  8
0
100
AcDbEllipse
 62
7
  6
CONTINUOUS
 10
234.977768489
 20
247.1717802455
 30
0.0
 11
30.0
 21
-0.0
 31
0.0
 40
0.6808509827
 41
-2.8655733915
 42
-2.8503830691
  0
ELLIPSE
  5
794
100
AcDbEntity
  8
0
100
AcDbEllipse
 62
7
  6
CONTINUOUS
 10
234.977768489
 20
266.6547148806
 30
0.0
 11
-0.0
 21
91.9152547465
 31
0.0
 40
0.3263876065
 41
-4.4414184637
 42
-4.4363697183
  0
ELLIPSE
  5
795
100
AcDbEntity
  8
0
100
AcDbEllipse
 62
7
  6
CONTINUOUS
 10
234.977768489
 20
330.9670388468
 30
0.0
 11
0.0
 21
93.4460844339
 31
0.0
 40
0.3263914179
 41
-3.8327766713
 42
-3.8252413699
  0
ELLIPSE
  5
796
100
AcDbEntity
  8
0
100
AcDbEllipse
 62
7
  6
CONTINUOUS
 10
234.977768489
 20
274.6200779031
 30
0.0
 11
30.5
 21
0.0
 31
0.0
 40
0.6808509827
 41
-2.2544450431
 42
-2.2314072402
  0
ELLIPSE
  5
797
100
AcDbEntity
  8
0
100
AcDbEllipse
 62
7
  6
CONTINUOUS
 10
234.977768489
 20
266.4214969414
 30
0.0
 11
30.5
 21
0.0
 31
0.0
 40
0.3404254913
 41
-2.2314072402
 42
-2.2076650865
  0
ELLIPSE
  5
798
100
AcDbEntity
  8
0
100
AcDbEllipse
 62
7
  6
CONTINUOUS
 10
234.977768489
 20
277.8310420534
 30
0.0
 11
30.5
 21
-0.0
 31
0.0
 40
0.204255139
 41
-2.8336331661
 42
-2.8012050497
  0
ELLIPSE
  5
799
100
AcDbEntity
  8
0
100
AcDbEllipse
 62
7
  6
CONTINUOUS
 10
234.977768489
 20
263.2612213938
 30
0.0
 11
30.5
 21
-0.0
 31
0.0
 40
0.2042556065
 41
-2.1577163581
 42
-2.1130314607
  0
ELLIPSE
  5
79A
100
AcDbEntity
  8
0
100
AcDbEllipse
 62
7
  6
CONTINUOUS
 10
234.977768489
 20
271.2654421716
 30
0.0
 11
30.5
 21
0.0
 31
0.0
 40
0.510637263
 41
-2.1130314607
 42
-2.0747440346
  0
ELLIPSE
  5
79B
100
AcDbEntity
  8
0
100
AcDbEllipse
 62
7
  6
CONTINUOUS
 10
234.977768489
 20
284.9038690516
 30
0.0
 11
0.0
 21
31.1490512812
 31
0.0
 40
0.9791630482
 41
-3.6455403614
 42
-3.6043864385
  0
ELLIPSE
  5
79C
100
AcDbEntity
  8
0
100
AcDbEllipse
 62
7
  6
CONTINUOUS
 10
234.977768489
 20
312.7756929188
 30
0.0
 11
-0.0
 21
62.2974114377
 31
0.0
 40
0.4895869555
 41
-3.6043864385
 42
-3.5824840541
  0
ELLIPSE
  5
79D
100
AcDbEntity
  8
0
100
AcDbEllipse
 62
7
  6
CONTINUOUS
 10
234.977768489
 20
199.3510000666
 30
0.0
 11
-0.0
 21
62.2974005301
 31
0.0
 40
0.4895870412
 41
0.4408914005
 42
0.4627937849
  0
ELLIPSE
  5
79E
100
AcDbEntity
  8
0
100
AcDbEllipse
 62
7
  6
CONTINUOUS
 10
234.977768489
 20
227.2228117336
 30
0.0
 11
0.0
 21
31.1490540081
 31
0.0
 40
0.9791629624
 41
0.4627937849
 42
0.5039477078
  0
ELLIPSE
  5
79F
100
AcDbEntity
  8
0
100
AcDbEllipse
 62
7
  6
CONTINUOUS
 10
234.977768489
 20
240.8612392105
 30
0.0
 11
30.5
 21
-0.0
 31
0.0
 40
0.5106373301
 41
2.0747440346
 42
2.1130314607
  0
ELLIPSE
  5
7A0
100
AcDbEntity
  8
0
100
AcDbEllipse
 62
7
  6
CONTINUOUS
 10
234.977768489
 20
248.865461273
 30
0.0
 11
30.5
 21
0.0
 31
0.0
 40
0.2042556244
 41
2.1130314607
 42
2.1577163581
  0
ELLIPSE
  5
7A1
100
AcDbEntity
  8
0
100
AcDbEllipse
 62
7
  6
CONTINUOUS
 10
234.977768489
 20
280.950793127
 30
0.0
 11
30.5
 21
0.0
 31
0.0
 40
0.510638724
 41
-2.8012050497
 42
-2.7749935234
  0
ELLIPSE
  5
7A2
100
AcDbEntity
  8
0
100
AcDbEllipse
 62
7
  6
CONTINUOUS
 10
234.977768489
 20
286.5333509769
 30
0.0
 11
0.0
 21
31.1489621629
 31
0.0
 40
0.9791658496
 41
-4.3457898502
 42
-4.3193117558
  0
ELLIPSE
  5
7A3
100
AcDbEntity
  8
0
100
AcDbEllipse
 62
7
  6
CONTINUOUS
 10
234.977768489
 20
326.6479004434
 30
0.0
 11
-0.0
 21
93.4460844339
 31
0.0
 40
0.3263914179
 41
-3.8549830588
 42
-3.8476452711
  0
ELLIPSE
  5
7A4
100
AcDbEntity
  8
0
100
AcDbEllipse
 62
7
  6
CONTINUOUS
 10
234.977768489
 20
279.2441965305
 30
0.0
 11
0.0
 21
31.1489397287
 31
0.0
 40
0.9791665548
 41
-3.8476452711
 42
-3.8252413699
  0
ELLIPSE
  5
7A5
100
AcDbEntity
  8
0
100
AcDbEllipse
 62
7
  6
CONTINUOUS
 10
234.977768489
 20
261.1325131024
 30
0.0
 11
30.5
 21
0.0
 31
0.0
 40
0.2553200925
 41
-2.2544450431
 42
-2.2235753977
  0
ELLIPSE
  5
7A6
100
AcDbEntity
  8
0
100
AcDbEllipse
 62
7
  6
CONTINUOUS
 10
234.977768489
 20
298.4643557623
 30
0.0
 11
-0.0
 21
62.2977460904
 31
0.0
 40
0.4895843255
 41
-4.3193117558
 42
-4.3059642111
  0
ELLIPSE
  5
7A7
100
AcDbEntity
  8
0
100
AcDbEllipse
 62
7
  6
CONTINUOUS
 10
234.977768489
 20
335.4067953617
 30
0.0
 11
-0.0
 21
155.7453436674
 31
0.0
 40
0.1958324999
 41
-4.3059642111
 42
-4.2992617892
  0
ELLIPSE
  5
7A8
100
AcDbEntity
  8
0
100
AcDbEllipse
 62
7
  6
CONTINUOUS
 10
234.977768489
 20
266.281447441
 30
0.0
 11
30.0
 21
0.0
 31
0.0
 40
0.7659602774
 41
-2.90537416
 42
-2.8866352895
  0
ELLIPSE
  5
7A9
100
AcDbEntity
  8
0
100
AcDbEllipse
 62
7
  6
CONTINUOUS
 10
234.977768489
 20
262.3378053744
 30
0.0
 11
30.0
 21
-0.0
 31
0.0
 40
0.2042546715
 41
-2.9303018362
 42
-2.90537416
  0
ELLIPSE
  5
7AA
100
AcDbEntity
  8
0
100
AcDbEllipse
 62
7
  6
CONTINUOUS
 10
234.977768489
 20
207.4786459907
 30
0.0
 11
-0.0
 21
155.7452564059
 31
0.0
 40
0.1958326096
 41
1.1576691356
 42
1.1643715575
  0
ELLIPSE
  5
7AB
100
AcDbEntity
  8
0
100
AcDbEllipse
 62
7
  6
CONTINUOUS
 10
234.977768489
 20
255.8952608318
 30
0.0
 11
30.0
 21
-0.0
 31
0.0
 40
0.2042546715
 41
2.90537416
 42
2.9303018362
  0
ELLIPSE
  5
7AC
100
AcDbEntity
  8
0
100
AcDbEllipse
 62
7
  6
CONTINUOUS
 10
234.977768489
 20
251.9516187651
 30
0.0
 11
30.0
 21
-0.0
 31
0.0
 40
0.7659602774
 41
2.8866352895
 42
2.90537416
  0
ELLIPSE
  5
7AD
100
AcDbEntity
  8
0
100
AcDbEllipse
 62
7
  6
CONTINUOUS
 10
234.977768489
 20
266.210157357
 30
0.0
 11
30.5
 21
-0.0
 31
0.0
 40
0.2042556065
 41
-2.1662950583
 42
-2.1222268767
  0
ELLIPSE
  5
7AE
100
AcDbEntity
  8
0
100
AcDbEllipse
 62
7
  6
CONTINUOUS
 10
234.977768489
 20
265.0543643686
 30
0.0
 11
30.0
 21
-0.0
 31
0.0
 40
0.2042551568
 41
2.7952959479
 42
2.828327346
  0
ELLIPSE
  5
7AF
100
AcDbEntity
  8
0
100
AcDbEllipse
 62
7
  6
CONTINUOUS
 10
234.977768489
 20
261.9346127943
 30
0.0
 11
30.0
 21
0.0
 31
0.0
 40
0.510638791
 41
2.768586335
 42
2.7952959479
  0
ELLIPSE
  5
7B0
100
AcDbEntity
  8
0
100
AcDbEllipse
 62
7
  6
CONTINUOUS
 10
234.977768489
 20
256.3520547
 30
0.0
 11
-0.0
 21
30.6383261212
 31
0.0
 40
0.9791657639
 41
1.1707981719
 42
1.1977900082
  0
ELLIPSE
  5
7B1
100
AcDbEntity
  8
0
100
AcDbEllipse
 62
7
  6
CONTINUOUS
 10
234.977768489
 20
244.4210467812
 30
0.0
 11
0.0
 21
61.2764822932
 31
0.0
 40
0.4895842398
 41
1.1571872692
 42
1.1707981719
  0
ELLIPSE
  5
7B2
100
AcDbEntity
  8
0
100
AcDbEllipse
 62
7
  6
CONTINUOUS
 10
234.977768489
 20
207.4786459907
 30
0.0
 11
0.0
 21
153.1920554812
 31
0.0
 40
0.1958326096
 41
1.1503514302
 42
1.1571872692
  0
ELLIPSE
  5
7B3
100
AcDbEntity
  8
0
100
AcDbEllipse
 62
7
  6
CONTINUOUS
 10
234.977768489
 20
335.4067953617
 30
0.0
 11
-0.0
 21
153.1921413122
 31
0.0
 40
0.1958324999
 41
-4.2987799228
 42
-4.2919440838
  0
ELLIPSE
  5
7B4
100
AcDbEntity
  8
0
100
AcDbEllipse
 62
7
  6
CONTINUOUS
 10
234.977768489
 20
298.4643557623
 30
0.0
 11
-0.0
 21
61.2764715643
 31
0.0
 40
0.4895843255
 41
-4.3123908255
 42
-4.2987799228
  0
ELLIPSE
  5
7B5
100
AcDbEntity
  8
0
100
AcDbEllipse
 62
7
  6
CONTINUOUS
 10
234.977768489
 20
286.5333509769
 30
0.0
 11
-0.0
 21
30.638323439
 31
0.0
 40
0.9791658496
 41
-4.3393826618
 42
-4.3123908255
  0
ELLIPSE
  5
7B6
100
AcDbEntity
  8
0
100
AcDbEllipse
 62
7
  6
CONTINUOUS
 10
234.977768489
 20
280.950793127
 30
0.0
 11
30.0
 21
0.0
 31
0.0
 40
0.510638724
 41
-2.7952959479
 42
-2.768586335
  0
ELLIPSE
  5
7B7
100
AcDbEntity
  8
0
100
AcDbEllipse
 62
7
  6
CONTINUOUS
 10
234.977768489
 20
277.8310420534
 30
0.0
 11
30.0
 21
-0.0
 31
0.0
 40
0.204255139
 41
-2.828327346
 42
-2.7952959479
  0
ELLIPSE
  5
7B8
100
AcDbEntity
  8
0
100
AcDbEllipse
 62
7
  6
CONTINUOUS
 10
234.977768489
 20
280.8026621329
 30
0.0
 11
30.5
 21
-0.0
 31
0.0
 40
0.7659558946
 41
-2.1222268767
 42
-2.0845586809
  0
ELLIPSE
  5
7B9
100
AcDbEntity
  8
0
100
AcDbEllipse
 62
7
  6
CONTINUOUS
 10
234.977768489
 20
296.6271671379
 30
0.0
 11
-0.0
 21
41.5319099426
 31
0.0
 40
0.7343750875
 41
-3.6553550077
 42
-3.6253665545
  0
ELLIPSE
  5
7BA
100
AcDbEntity
  8
0
100
AcDbEllipse
 62
7
  6
CONTINUOUS
 10
234.977768489
 20
342.5839773433
 30
0.0
 11
0.0
 21
93.4460844339
 31
0.0
 40
0.3263914179
 41
-3.6253665545
 42
-3.6149838046
  0
ELLIPSE
  5
7BB
100
AcDbEntity
  8
0
100
AcDbEllipse
 62
7
  6
CONTINUOUS
 10
234.977768489
 20
244.4210467812
 30
0.0
 11
-0.0
 21
62.297756998
 31
0.0
 40
0.4895842398
 41
1.1643715575
 42
1.1777191022
  0
ELLIPSE
  5
7BC
100
AcDbEntity
  8
0
100
AcDbEllipse
 62
7
  6
CONTINUOUS
 10
234.977768489
 20
149.0960824603
 30
0.0
 11
-0.0
 21
155.7434740564
 31
0.0
 40
0.1958348508
 41
0.8104013473
 42
0.8169798954
  0
ELLIPSE
  5
7BD
100
AcDbEntity
  8
0
100
AcDbEllipse
 62
7
  6
CONTINUOUS
 10
234.977768489
 20
213.0525382715
 30
0.0
 11
-0.0
 21
62.29811347
 31
0.0
 40
0.4895814384
 41
0.8169798954
 42
0.8300167164
  0
ELLIPSE
  5
7BE
100
AcDbEntity
  8
0
100
AcDbEllipse
 62
7
  6
CONTINUOUS
 10
234.977768489
 20
234.0740194936
 30
0.0
 11
0.0
 21
31.1488757721
 31
0.0
 40
0.9791685653
 41
0.8300167164
 42
0.8556370133
  0
ELLIPSE
  5
7BF
100
AcDbEntity
  8
0
100
AcDbEllipse
 62
7
  6
CONTINUOUS
 10
234.977768489
 20
244.2867652013
 30
0.0
 11
30.5
 21
0.0
 31
0.0
 40
0.5106373301
 41
2.4264333401
 42
2.4514956597
  0
ELLIPSE
  5
7C0
100
AcDbEntity
  8
0
100
AcDbEllipse
 62
7
  6
CONTINUOUS
 10
234.977768489
 20
256.3520547
 30
0.0
 11
-0.0
 21
31.1489648899
 31
0.0
 40
0.9791657639
 41
1.1777191022
 42
1.2041971966
  0
ELLIPSE
  5
7C1
100
AcDbEntity
  8
0
100
AcDbEllipse
 62
7
  6
CONTINUOUS
 10
234.977768489
 20
250.2356763136
 30
0.0
 11
30.5
 21
-0.0
 31
0.0
 40
0.2042556244
 41
2.4514956597
 42
2.4821139886
  0
ELLIPSE
  5
7C2
100
AcDbEntity
  8
0
100
AcDbEllipse
 62
7
  6
CONTINUOUS
 10
234.977768489
 20
261.9346127943
 30
0.0
 11
30.5
 21
0.0
 31
0.0
 40
0.510638791
 41
2.7749935234
 42
2.8012050497
  0
ELLIPSE
  5
7C3
100
AcDbEntity
  8
0
100
AcDbEllipse
 62
7
  6
CONTINUOUS
 10
234.977768489
 20
326.6479004434
 30
0.0
 11
-0.0
 21
91.9141814104
 31
0.0
 40
0.3263914179
 41
-3.8355046324
 42
-3.8278686187
  0
ELLIPSE
  5
7C4
100
AcDbEntity
  8
0
100
AcDbEllipse
 62
7
  6
CONTINUOUS
 10
234.977768489
 20
265.0543643686
 30
0.0
 11
30.5
 21
-0.0
 31
0.0
 40
0.2042551568
 41
2.8012050497
 42
2.8336331661
  0
ELLIPSE
  5
7C5
100
AcDbEntity
  8
0
100
AcDbEllipse
 62
7
  6
CONTINUOUS
 10
234.977768489
 20
187.2659597086
 30
0.0
 11
0.0
 21
91.9142672404
 31
0.0
 40
0.3263911132
 41
0.6629266351
 42
0.6707859927
  0
ELLIPSE
  5
7C6
100
AcDbEntity
  8
0
100
AcDbEllipse
 62
7
  6
CONTINUOUS
 10
234.977768489
 20
243.612988303
 30
0.0
 11
30.0
 21
-0.0
 31
0.0
 40
0.6808509827
 41
2.2096533491
 42
2.2337229619
  0
ELLIPSE
  5
7C7
100
AcDbEntity
  8
0
100
AcDbEllipse
 62
7
  6
CONTINUOUS
 10
234.977768489
 20
266.6547148806
 30
0.0
 11
0.0
 21
93.4471756589
 31
0.0
 40
0.3263876065
 41
-4.4459697541
 42
-4.4410101171
  0
ELLIPSE
  5
7C8
100
AcDbEntity
  8
0
100
AcDbEllipse
 62
7
  6
CONTINUOUS
 10
234.977768489
 20
324.436715994
 30
0.0
 11
-0.0
 21
124.5976310369
 31
0.0
 40
0.2447879606
 41
-4.1350871056
 42
-4.1293703453
  0
ELLIPSE
  5
7C9
100
AcDbEntity
  8
0
100
AcDbEllipse
 62
7
  6
CONTINUOUS
 10
234.977768489
 20
281.5631405637
 30
0.0
 11
-0.0
 21
46.7230422169
 31
0.0
 40
0.6527828359
 41
-4.1293703453
 42
-4.1178712167
  0
ELLIPSE
  5
7CA
100
AcDbEntity
  8
0
100
AcDbEllipse
 62
7
  6
CONTINUOUS
 10
234.977768489
 20
247.1717802455
 30
0.0
 11
30.5
 21
0.0
 31
0.0
 40
0.6808509827
 41
-2.8702137903
 42
-2.8552930916
  0
ELLIPSE
  5
7CB
100
AcDbEntity
  8
0
100
AcDbEllipse
 62
7
  6
CONTINUOUS
 10
234.977768489
 20
267.0243379921
 30
0.0
 11
30.5
 21
0.0
 31
0.0
 40
0.6808512211
 41
-2.5470748899
 42
-2.5296562085
  0
ELLIPSE
  5
7CC
100
AcDbEntity
  8
0
100
AcDbEllipse
 62
7
  6
CONTINUOUS
 10
234.977768489
 20
243.0667022596
 30
0.0
 11
30.5
 21
0.0
 31
0.0
 40
0.2042552105
 41
-2.8552930916
 42
-2.8302768295
  0
ELLIPSE
  5
7CD
100
AcDbEntity
  8
0
100
AcDbEllipse
 62
7
  6
CONTINUOUS
 10
234.977768489
 20
259.568677536
 30
0.0
 11
30.0
 21
0.0
 31
0.0
 40
0.2553200925
 41
-2.5179107778
 42
-2.4997840809
  0
ELLIPSE
  5
7CE
100
AcDbEntity
  8
0
100
AcDbEllipse
 62
7
  6
CONTINUOUS
 10
234.977768489
 20
259.568677536
 30
0.0
 11
30.5
 21
0.0
 31
0.0
 40
0.2553200925
 41
-2.5296562085
 42
-2.5060936198
  0
ELLIPSE
  5
7CF
100
AcDbEntity
  8
0
100
AcDbEllipse
 62
7
  6
CONTINUOUS
 10
234.977768489
 20
267.0243379921
 30
0.0
 11
30.0
 21
-0.0
 31
0.0
 40
0.6808512211
 41
-2.5357627454
 42
-2.5179107778
  0
ELLIPSE
  5
7D0
100
AcDbEntity
  8
0
100
AcDbEllipse
 62
7
  6
CONTINUOUS
 10
234.977768489
 20
281.5631405637
 30
0.0
 11
-0.0
 21
45.9570907052
 31
0.0
 40
0.6527828359
 41
-4.1183384681
 42
-4.1065590722
  0
ELLIPSE
  5
7D1
100
AcDbEntity
  8
0
100
AcDbEllipse
 62
7
  6
CONTINUOUS
 10
234.977768489
 20
324.436715994
 30
0.0
 11
0.0
 21
122.5550469215
 31
0.0
 40
0.2447879606
 41
-4.1241929242
 42
-4.1183384681
  0
ELLIPSE
  5
7D2
100
AcDbEntity
  8
0
100
AcDbEllipse
 62
7
  6
CONTINUOUS
 10
234.977768489
 20
236.1643192365
 30
0.0
 11
0.0
 21
65.412773124
 31
0.0
 40
0.4662697902
 41
7.6903839979
 42
7.7866904155
  0
ELLIPSE
  5
7D3
100
AcDbEntity
  8
0
100
AcDbEllipse
 62
7
  6
CONTINUOUS
 10
234.977768489
 20
253.4363519722
 30
0.0
 11
-0.0
 21
155.744365226
 31
0.0
 40
0.1958337302
 41
1.4642011218
 42
1.4703817621
  0
ELLIPSE
  5
7D4
100
AcDbEntity
  8
0
100
AcDbEllipse
 62
7
  6
CONTINUOUS
 10
234.977768489
 20
250.2356763136
 30
0.0
 11
30.0
 21
-0.0
 31
0.0
 40
0.2042556244
 41
2.4376578645
 42
2.4691270812
  0
ELLIPSE
  5
7D5
100
AcDbEntity
  8
0
100
AcDbEllipse
 62
7
  6
CONTINUOUS
 10
234.977768489
 20
244.2867652013
 30
0.0
 11
30.0
 21
-0.0
 31
0.0
 40
0.5106373301
 41
2.4118649974
 42
2.4376578645
  0
ELLIPSE
  5
7D6
100
AcDbEntity
  8
0
100
AcDbEllipse
 62
7
  6
CONTINUOUS
 10
234.977768489
 20
234.0740194936
 30
0.0
 11
-0.0
 21
30.6382384644
 31
0.0
 40
0.9791685653
 41
0.8146663675
 42
0.8410686706
  0
ELLIPSE
  5
7D7
100
AcDbEntity
  8
0
100
AcDbEllipse
 62
7
  6
CONTINUOUS
 10
234.977768489
 20
213.0525382715
 30
0.0
 11
0.0
 21
61.2768329213
 31
0.0
 40
0.4895814384
 41
0.8012167743
 42
0.8146663675
  0
ELLIPSE
  5
7D8
100
AcDbEntity
  8
0
100
AcDbEllipse
 62
7
  6
CONTINUOUS
 10
234.977768489
 20
149.0960824603
 30
0.0
 11
0.0
 21
153.1903023506
 31
0.0
 40
0.1958348508
 41
0.7944258974
 42
0.8012167743
  0
ELLIPSE
  5
7D9
100
AcDbEntity
  8
0
100
AcDbEllipse
 62
7
  6
CONTINUOUS
 10
234.977768489
 20
262.8039736017
 30
0.0
 11
-0.0
 21
62.2979352335
 31
0.0
 40
0.4895828391
 41
1.4703817621
 42
1.4827317105
  0
ELLIPSE
  5
7DA
100
AcDbEntity
  8
0
100
AcDbEllipse
 62
7
  6
CONTINUOUS
 10
234.977768489
 20
265.5435553596
 30
0.0
 11
-0.0
 21
31.1489203309
 31
0.0
 40
0.9791671646
 41
1.4827317105
 42
1.5073932
  0
ELLIPSE
  5
7DB
100
AcDbEntity
  8
0
100
AcDbEllipse
 62
7
  6
CONTINUOUS
 10
234.977768489
 20
266.5303633253
 30
0.0
 11
30.5
 21
0.0
 31
0.0
 40
0.5106380606
 41
3.0781895268
 42
3.102812454
  0
ELLIPSE
  5
7DC
100
AcDbEntity
  8
0
100
AcDbEllipse
 62
7
  6
CONTINUOUS
 10
234.977768489
 20
266.892660723
 30
0.0
 11
30.5
 21
0.0
 31
0.0
 40
0.2042553906
 41
3.102812454
 42
3.1335597803
  0
ELLIPSE
  5
7DD
100
AcDbEntity
  8
0
100
AcDbEllipse
 62
7
  6
CONTINUOUS
 10
234.977768489
 20
248.865461273
 30
0.0
 11
30.0
 21
0.0
 31
0.0
 40
0.2042556244
 41
2.0846976504
 42
2.1321640279
  0
ELLIPSE
  5
7DE
100
AcDbEntity
  8
0
100
AcDbEllipse
 62
7
  6
CONTINUOUS
 10
234.977768489
 20
240.8612392105
 30
0.0
 11
30.0
 21
0.0
 31
0.0
 40
0.5106373301
 41
2.0436378254
 42
2.0846976504
  0
ELLIPSE
  5
7DF
100
AcDbEntity
  8
0
100
AcDbEllipse
 62
7
  6
CONTINUOUS
 10
234.977768489
 20
227.2228117336
 30
0.0
 11
0.0
 21
30.6384137785
 31
0.0
 40
0.9791629624
 41
0.4297754313
 42
0.4728414986
  0
ELLIPSE
  5
7E0
100
AcDbEntity
  8
0
100
AcDbEllipse
 62
7
  6
CONTINUOUS
 10
234.977768489
 20
251.8115692647
 30
0.0
 11
30.0
 21
0.0
 31
0.0
 40
0.3404254913
 41
2.1847769715
 42
2.2096533491
  0
ELLIPSE
  5
7E1
100
AcDbEntity
  8
0
100
AcDbEllipse
 62
7
  6
CONTINUOUS
 10
234.977768489
 20
233.7337485796
 30
0.0
 11
0.0
 21
93.4460844339
 31
0.0
 40
0.3263914179
 41
1.299020378
 42
1.3039806146
  0
ELLIPSE
  5
7E2
100
AcDbEntity
  8
0
100
AcDbEllipse
 62
7
  6
CONTINUOUS
 10
234.977768489
 20
247.4215003427
 30
0.0
 11
0.0
 21
41.5319099426
 31
0.0
 40
0.7343750875
 41
1.3039806146
 42
1.3188215066
  0
ELLIPSE
  5
7E3
100
AcDbEntity
  8
0
100
AcDbEllipse
 62
7
  6
CONTINUOUS
 10
234.977768489
 20
251.9516187651
 30
0.0
 11
30.5
 21
-0.0
 31
0.0
 40
0.7659602774
 41
2.8896178334
 42
2.9093184031
  0
ELLIPSE
  5
7E4
100
AcDbEntity
  8
0
100
AcDbEllipse
 62
7
  6
CONTINUOUS
 10
234.977768489
 20
255.8952608318
 30
0.0
 11
30.5
 21
-0.0
 31
0.0
 40
0.2042546715
 41
2.9093184031
 42
2.9338167852
  0
ELLIPSE
  5
7E5
100
AcDbEntity
  8
0
100
AcDbEllipse
 62
7
  6
CONTINUOUS
 10
234.977768489
 20
284.9038690516
 30
0.0
 11
0.0
 21
30.6384110962
 31
0.0
 40
0.9791630482
 41
-3.6144341522
 42
-3.5713680849
  0
ELLIPSE
  5
7E6
100
AcDbEntity
  8
0
100
AcDbEllipse
 62
7
  6
CONTINUOUS
 10
234.977768489
 20
271.2654421716
 30
0.0
 11
30.0
 21
-0.0
 31
0.0
 40
0.510637263
 41
-2.0846976504
 42
-2.0436378254
  0
ELLIPSE
  5
7E7
100
AcDbEntity
  8
0
100
AcDbEllipse
 62
7
  6
CONTINUOUS
 10
234.977768489
 20
263.2612213938
 30
0.0
 11
30.0
 21
0.0
 31
0.0
 40
0.2042556065
 41
-2.1321640279
 42
-2.0846976504
  0
ELLIPSE
  5
7E8
100
AcDbEntity
  8
0
100
AcDbEllipse
 62
7
  6
CONTINUOUS
 10
234.977768489
 20
266.4214969414
 30
0.0
 11
30.0
 21
0.0
 31
0.0
 40
0.3404254913
 41
-2.2096533491
 42
-2.1847769715
  0
ELLIPSE
  5
7E9
100
AcDbEntity
  8
0
100
AcDbEllipse
 62
7
  6
CONTINUOUS
 10
234.977768489
 20
262.3378053744
 30
0.0
 11
30.5
 21
-0.0
 31
0.0
 40
0.2042546715
 41
-2.9338167852
 42
-2.9093184031
  0
ELLIPSE
  5
7EA
100
AcDbEntity
  8
0
100
AcDbEllipse
 62
7
  6
CONTINUOUS
 10
234.977768489
 20
266.281447441
 30
0.0
 11
30.5
 21
-0.0
 31
0.0
 40
0.7659602774
 41
-2.9093184031
 42
-2.8896178334
  0
ELLIPSE
  5
7EB
100
AcDbEntity
  8
0
100
AcDbEllipse
 62
7
  6
CONTINUOUS
 10
234.977768489
 20
270.8115658635
 30
0.0
 11
-0.0
 21
41.5319099426
 31
0.0
 40
0.7343750875
 41
-4.4604141602
 42
-4.4455732682
  0
ELLIPSE
  5
7EC
100
AcDbEntity
  8
0
100
AcDbEllipse
 62
7
  6
CONTINUOUS
 10
234.977768489
 20
284.4993176265
 30
0.0
 11
-0.0
 21
93.4460844339
 31
0.0
 40
0.3263914179
 41
-4.4455732682
 42
-4.4406130316
  0
ELLIPSE
  5
7ED
100
AcDbEntity
  8
0
100
AcDbEllipse
 62
7
  6
CONTINUOUS
 10
234.977768489
 20
342.5839773433
 30
0.0
 11
-0.0
 21
91.9141814104
 31
0.0
 40
0.3263914179
 41
-3.5926194654
 42
-3.5813355399
  0
ELLIPSE
  5
7EE
100
AcDbEntity
  8
0
100
AcDbEllipse
 62
7
  6
CONTINUOUS
 10
234.977768489
 20
296.6271671379
 30
0.0
 11
-0.0
 21
40.85105896
 31
0.0
 40
0.7343750875
 41
-3.6249992869
 42
-3.5926194654
  0
ELLIPSE
  5
7EF
100
AcDbEntity
  8
0
100
AcDbEllipse
 62
7
  6
CONTINUOUS
 10
234.977768489
 20
280.8026621329
 30
0.0
 11
30.0
 21
-0.0
 31
0.0
 40
0.7659558946
 41
-2.0945015299
 42
-2.0542029601
  0
ELLIPSE
  5
7F0
100
AcDbEntity
  8
0
100
AcDbEllipse
 62
7
  6
CONTINUOUS
 10
234.977768489
 20
266.210157357
 30
0.0
 11
30.0
 21
0.0
 31
0.0
 40
0.2042556065
 41
-2.1412303803
 42
-2.0945015299
  0
ELLIPSE
  5
7F1
100
AcDbEntity
  8
0
100
AcDbEllipse
 62
7
  6
CONTINUOUS
 10
234.977768489
 20
274.6200779031
 30
0.0
 11
30.0
 21
-0.0
 31
0.0
 40
0.6808509827
 41
-2.2337229619
 42
-2.2096533491
  0
ELLIPSE
  5
7F2
100
AcDbEntity
  8
0
100
AcDbEllipse
 62
7
  6
CONTINUOUS
 10
234.977768489
 20
330.9670388468
 30
0.0
 11
-0.0
 21
91.9141814104
 31
0.0
 40
0.3263914179
 41
-3.8123786463
 42
-3.8045192887
  0
ELLIPSE
  5
7F3
100
AcDbEntity
  8
0
100
AcDbEllipse
 62
7
  6
CONTINUOUS
 10
234.977768489
 20
261.1325131024
 30
0.0
 11
30.0
 21
-0.0
 31
0.0
 40
0.2553200925
 41
-2.2337229619
 42
-2.2014557248
  0
ELLIPSE
  5
7F4
100
AcDbEntity
  8
0
100
AcDbEllipse
 62
7
  6
CONTINUOUS
 10
234.977768489
 20
279.2441965305
 30
0.0
 11
0.0
 21
30.6383013725
 31
0.0
 40
0.9791665548
 41
-3.8278686187
 42
-3.8045192887
  0
ENDSEC
  0
SECTION
  2
OBJECTS
  0
DICTIONARY
  5
C
100
AcDbDictionary
280
0
281
1
  3
ACAD_GROUP
350
D
  3
ACAD_MLINESTYLE
350
17
  3
ACAD_LAYOUT
350
1A
  3
ACAD_PLOTSETTINGS
350
19
  3
ACAD_PLOTSTYLENAME
350
E
  0
DICTIONARY
  5
D
102
{ACAD_REACTORS
330
C
102
}
100
AcDbDictionary
280
0
281
1
  0
ACDBDICTIONARYWDFLT
  5
E
102
{ACAD_REACTORS
330
C
102
}
100
AcDbDictionary
281
1
  3
Normal
350
F
100
AcDbDictionaryWithDefault
340
F
  0
DICTIONARY
  5
17
102
{ACAD_REACTORS
330
C
102
}
100
AcDbDictionary
280
0
281
1
  3
Standard
350
18
  0
DICTIONARY
  5
19
102
{ACAD_REACTORS
330
C
102
}
100
AcDbDictionary
281
1
  0
DICTIONARY
  5
1A
102
{ACAD_REACTORS
330
C
102
}
100
AcDbDictionary
281
1
  3
Model
350
7F5
  3
Layout1
350
7F6
  0
ACDBPLACEHOLDER
  5
F
102
{ACAD_REACTORS
330
E
102
}
  0
MLINESTYLE
  5
18
102
{ACAD_REACTORS
330
17
102
}
100
AcDbMlineStyle
  2
STANDARD
 70
0
  3

 62
256
 51
90.0
 52
90.0
 71
2
 49
0.5
 62
256
  6
BYLAYER
 49
-0.5
 62
256
  6
BYLAYER
  0
LAYOUT
  5
7F5
102
{ACAD_REACTORS
330
1A
102
}
100
AcDbPlotSettings
  1

  2
none_device
  4
ISO_A2_(594.00_x_420.00_MM)
  6

 40
0.0
 41
0.0
 42
0.0
 43
0.0
 44
594.0
 45
420.0
 46
0.0
 47
0.0
 48
0.0
 49
0.0
140
0.0
141
0.0
142
1.0
143
1.0
 70
1024
 72
1
 73
0
 74
0
  7

 75
0
147
1.0
148
0.0
149
0.0
100
AcDbLayout
  1
Model
 70
0
 71
0
 10
0.0
 20
0.0
 11
594.0
 21
420.0
 12
0.0
 22
0.0
 32
0.0
 14
0.0
 24
0.0
 34
0.0
 15
0.0
 25
0.0
 35
0.0
146
0.0
 13
0.0
 23
0.0
 33
0.0
 16
1.0
 26
0.0
 36
0.0
 17
0.0
 27
1.0
 37
0.0
 76
0
330
20F
345
0
346
0
  0
LAYOUT
  5
7F6
102
{ACAD_REACTORS
330
1A
102
}
100
AcDbPlotSettings
  1

  2
none_device
  4
ISO_A2_(594.00_x_420.00_MM)
  6

 40
0.0
 41
0.0
 42
0.0
 43
0.0
 44
594.0
 45
420.0
 46
0.0
 47
0.0
 48
0.0
 49
0.0
140
0.0
141
0.0
142
1.0
143
1.0
 70
0
 72
1
 73
0
 74
0
  7

 75
0
147
1.0
148
0.0
149
0.0
100
AcDbLayout
  1
Layout1
 70
0
 71
1
 10
0.0
 20
0.0
 11
594.0
 21
420.0
 12
0.0
 22
0.0
 32
0.0
 14
0.0
 24
0.0
 34
0.0
 15
0.0
 25
0.0
 35
0.0
146
0.0
 13
0.0
 23
0.0
 33
0.0
 16
1.0
 26
0.0
 36
0.0
 17
0.0
 27
1.0
 37
0.0
 76
0
330
210
345
0
346
0
  0
ENDSEC
  0
EOF
