999
DXF file: 001-m35336-p-1.dxf
999
Pro/ENGINEER 2011490 by Parametric Technology Corporation
  0
SECTION
  2
HEADER
  9
$ACADVER
  1
AC1015
  9
$DWGCODEPAGE
  3
ANSI_1252
  9
$EXTMAX
 10
420.0
 20
297.0
 30
0.0
  9
$EXTMIN
 10
0.0
 20
0.0
 30
0.0
  9
$LIMMIN
 10
0.0
 20
0.0
  9
$LIMMAX
 10
420.0
 20
297.0
  9
$VIEWCTR
 10
210.0
 20
148.5
  9
$VIEWSIZE
 40
297.0
  9
$CLAYER
  8
0
  9
$LTSCALE
 40
23.1
  9
$CELTYPE
  6
BYLAYER
  9
$DIMSCALE
 40
1.0
  9
$DIMASZ
 40
3.5
  9
$DIMEXO
 40
2.625
  9
$DIMDLI
 40
15.96
  9
$DIMEXE
 40
7.56
  9
$DIMCEN
 40
3.78
  9
$DIMLFAC
 40
1.0
  9
$DIMBLK
  1
_FILLED
  9
$DIMTXT
 40
3.5
  9
$DIMTOL
 70
1
  9
$DIMLIM
 70
0
  9
$DIMTFAC
 40
1.0
  9
$DIMTP
 40
0.005
  9
$DIMTM
 40
0.005
  9
$PDMODE
 70
3
  9
$PDSIZE
 40
0.3125
  9
$HANDSEED
  5
88B
  9
$TILEMODE
 70
1
  9
$MEASUREMENT
 70
1
  9
$INSUNITS
 70
4
  0
ENDSEC
  0
SECTION
  2
CLASSES
  0
CLASS
  1
ACDBDICTIONARYWDFLT
  2
AcDbDictionaryWithDefault
  3
AutoCAD 2000
 90
0
280
0
281
0
  0
CLASS
  1
ACDBPLACEHOLDER
  2
AcDbPlaceHolder
  3
AutoCAD 2000
 90
0
280
0
281
0
  0
CLASS
  1
LAYOUT
  2
AcDbLayout
  3
AutoCAD 2000
 90
0
280
0
281
0
  0
ENDSEC
  0
SECTION
  2
TABLES
  0
TABLE
  2
VPORT
  5
8
100
AcDbSymbolTable
 70
2
  0
VPORT
  5
1F4
100
AcDbSymbolTableRecord
100
AcDbViewportTableRecord
  2
*ACTIVE
 70
0
 10
0.0
 20
0.0
 11
1.0
 21
1.0
 12
210.0
 22
148.5
 13
0.0
 23
0.0
 14
1.0
 24
1.0
 15
0.0
 25
0.0
 16
0.0
 26
0.0
 36
1.0
 17
0.0
 27
0.0
 37
0.0
 40
297.0
 41
1.4141414141
 42
50.0
 43
0.0
 44
0.0
 50
0.0
 51
0.0
 71
0
 72
100
 73
1
 74
1
 75
0
 76
0
 77
0
 78
0
  0
ENDTAB
  0
TABLE
  2
LTYPE
  5
5
100
AcDbSymbolTable
 70
6
  0
LTYPE
  5
14
100
AcDbSymbolTableRecord
100
AcDbLinetypeTableRecord
  2
BYBLOCK
 70
0
  3

 72
65
 73
0
 40
0.0
  0
LTYPE
  5
15
100
AcDbSymbolTableRecord
100
AcDbLinetypeTableRecord
  2
BYLAYER
 70
0
  3

 72
65
 73
0
 40
0.0
  0
LTYPE
  5
16
100
AcDbSymbolTableRecord
100
AcDbLinetypeTableRecord
  2
CONTINUOUS
 70
64
  3
Solid line
 72
65
 73
0
 40
0.0
  0
LTYPE
  5
1F5
100
AcDbSymbolTableRecord
100
AcDbLinetypeTableRecord
  2
CENTER
 70
64
  3
____ _ ____ _ ____ _ ____ _ ____ _ ____ _ ____
 72
65
 73
4
 40
0.6
 49
0.375
 74
0
 49
-0.075
 74
0
 49
0.075
 74
0
 49
-0.075
 74
0
  0
LTYPE
  5
1F6
100
AcDbSymbolTableRecord
100
AcDbLinetypeTableRecord
  2
HIDDEN
 70
64
  3
- - - - - - - - - - - - - - - - - - - -
 72
65
 73
2
 40
0.2
 49
0.1
 74
0
 49
-0.1
 74
0
  0
LTYPE
  5
1F7
100
AcDbSymbolTableRecord
100
AcDbLinetypeTableRecord
  2
PHANTOM
 70
64
  3
_____ _ _ _____ _ _ _____ _ _ _____
 72
65
 73
6
 40
0.8
 49
0.45
 74
0
 49
-0.05
 74
0
 49
0.1
 74
0
 49
-0.05
 74
0
 49
0.1
 74
0
 49
-0.05
 74
0
  0
LTYPE
  5
1F8
100
AcDbSymbolTableRecord
100
AcDbLinetypeTableRecord
  2
DOT
 70
64
  3
. . . . . . . . . . . . . . . . . . . .
 72
65
 73
2
 40
0.2
 49
0.1
 74
0
 49
-0.1
 74
0
  0
LTYPE
  5
1F9
100
AcDbSymbolTableRecord
100
AcDbLinetypeTableRecord
  2
DASHED
 70
64
  3
- - - - - - - - - - - - - - - - - - - -
 72
65
 73
2
 40
0.2
 49
0.1
 74
0
 49
-0.1
 74
0
  0
ENDTAB
  0
TABLE
  2
LAYER
  5
2
100
AcDbSymbolTable
 70
36
  0
LAYER
  5
10
100
AcDbSymbolTableRecord
100
AcDbLayerTableRecord
  2
0
 70
0
 62
7
  6
CONTINUOUS
370
-3
390
F
  0
LAYER
  5
1FA
100
AcDbSymbolTableRecord
100
AcDbLayerTableRecord
  2
DEFAULT_1
 70
0
 62
7
  6
CENTER
370
-3
390
F
  0
LAYER
  5
1FB
100
AcDbSymbolTableRecord
100
AcDbLayerTableRecord
  2
DEFAULT_2
 70
0
 62
8
  6
HIDDEN
370
-3
390
F
  0
LAYER
  5
1FC
100
AcDbSymbolTableRecord
100
AcDbLayerTableRecord
  2
DEFAULT_3
 70
0
 62
7
  6
PHANTOM
370
-3
390
F
  0
LAYER
  5
1FD
100
AcDbSymbolTableRecord
100
AcDbLayerTableRecord
  2
AUSFORMSCHRAEGEN
 70
0
 62
7
  6
CONTINUOUS
370
-3
390
F
  0
LAYER
  5
1FE
100
AcDbSymbolTableRecord
100
AcDbLayerTableRecord
  2
BEZUGSACHSEN
 70
0
 62
7
  6
CONTINUOUS
370
-3
390
F
  0
LAYER
  5
1FF
100
AcDbSymbolTableRecord
100
AcDbLayerTableRecord
  2
BEZUGSEBENEN
 70
0
 62
7
  6
CONTINUOUS
370
-3
390
F
  0
LAYER
  5
200
100
AcDbSymbolTableRecord
100
AcDbLayerTableRecord
  2
BG_STARTBEZUEGE
 70
0
 62
7
  6
CONTINUOUS
370
-3
390
F
  0
LAYER
  5
201
100
AcDbSymbolTableRecord
100
AcDbLayerTableRecord
  2
FASEN
 70
0
 62
7
  6
CONTINUOUS
370
-3
390
F
  0
LAYER
  5
202
100
AcDbSymbolTableRecord
100
AcDbLayerTableRecord
  2
GEWINDE
 70
0
 62
7
  6
CONTINUOUS
370
-3
390
F
  0
LAYER
  5
203
100
AcDbSymbolTableRecord
100
AcDbLayerTableRecord
  2
HILFEN
 70
0
 62
7
  6
CONTINUOUS
370
-3
390
F
  0
LAYER
  5
204
100
AcDbSymbolTableRecord
100
AcDbLayerTableRecord
  2
KONSTRUKTIONSELEMENTE
 70
0
 62
7
  6
CONTINUOUS
370
-3
390
F
  0
LAYER
  5
205
100
AcDbSymbolTableRecord
100
AcDbLayerTableRecord
  2
KURVEN
 70
0
 62
7
  6
CONTINUOUS
370
-3
390
F
  0
LAYER
  5
206
100
AcDbSymbolTableRecord
100
AcDbLayerTableRecord
  2
NORM
 70
0
 62
7
  6
CONTINUOUS
370
-3
390
F
  0
LAYER
  5
207
100
AcDbSymbolTableRecord
100
AcDbLayerTableRecord
  2
PLATZIERUNG
 70
0
 62
7
  6
CONTINUOUS
370
-3
390
F
  0
LAYER
  5
208
100
AcDbSymbolTableRecord
100
AcDbLayerTableRecord
  2
PLAZIERUNG
 70
0
 62
7
  6
CONTINUOUS
370
-3
390
F
  0
LAYER
  5
209
100
AcDbSymbolTableRecord
100
AcDbLayerTableRecord
  2
RUNDUNGEN
 70
0
 62
7
  6
CONTINUOUS
370
-3
390
F
  0
LAYER
  5
20A
100
AcDbSymbolTableRecord
100
AcDbLayerTableRecord
  2
TEIL_STARTBEZUEGE
 70
0
 62
7
  6
CONTINUOUS
370
-3
390
F
  0
LAYER
  5
20B
100
AcDbSymbolTableRecord
100
AcDbLayerTableRecord
  2
ZEICHNUNGSBEMASSUNGEN
 70
0
 62
7
  6
CONTINUOUS
370
-3
390
F
  0
ENDTAB
  0
TABLE
  2
STYLE
  5
3
100
AcDbSymbolTable
 70
1
  0
STYLE
  5
11
100
AcDbSymbolTableRecord
100
AcDbTextStyleTableRecord
  2
STANDARD
 70
0
 40
0.0
 41
0.7
 50
0.0
 71
0
 42
0.2
  3
txt
  4

  0
STYLE
  5
20C
100
AcDbSymbolTableRecord
100
AcDbTextStyleTableRecord
  2
TEXTSTYLE_1
 70
0
 40
0.0
 41
0.8
 50
0.0
 71
0
 42
0.2
  3
gdt
  4

  0
ENDTAB
  0
TABLE
  2
VIEW
  5
6
100
AcDbSymbolTable
 70
0
  0
ENDTAB
  0
TABLE
  2
UCS
  5
7
100
AcDbSymbolTable
 70
0
  0
ENDTAB
  0
TABLE
  2
APPID
  5
9
100
AcDbSymbolTable
 70
1
  0
APPID
  5
20D
100
AcDbSymbolTableRecord
100
AcDbRegAppTableRecord
  2
ACAD
 70
0
  0
ENDTAB
  0
TABLE
  2
BLOCK_RECORD
  5
1
100
AcDbSymbolTable
 70
0
  0
BLOCK_RECORD
  5
20E
100
AcDbSymbolTableRecord
100
AcDbBlockTableRecord
  2
*Model_Space
  0
BLOCK_RECORD
  5
20F
100
AcDbSymbolTableRecord
100
AcDbBlockTableRecord
  2
*Paper_Space
  0
ENDTAB
  0
TABLE
  2
DIMSTYLE
  5
A
100
AcDbSymbolTable
 70
1
100
AcDbDimStyleTable
 71
0
  0
DIMSTYLE
105
210
100
AcDbSymbolTableRecord
100
AcDbDimStyleTableRecord
  2
STANDARD
 70
0
  3

  4

 40
1.0
 41
3.5
 42
0.0625
 43
0.38
 44
0.18
 45
0.0
 46
0.0
 47
0.005
 48
0.005
140
3.5
141
0.09
142
0.0
143
25.4
144
1.0
145
0.0
146
1.0
147
0.09
 71
1.0
 72
0.0
 73
0
 74
0
 75
0
 76
0
 77
1
 78
8
170
0
171
2
172
0
173
0
174
0
175
0
176
0
177
0
178
5
270
2
271
3
272
3
273
2
274
2
275
0
280
0
281
0
282
0
283
1
284
8
285
0
286
0
287
3
288
0
340
11
  0
ENDTAB
  0
ENDSEC
  0
SECTION
  2
BLOCKS
  0
BLOCK
  5
20
100
AcDbEntity
  8
0
100
AcDbBlockBegin
  2
*Model_Space
 70
0
 10
0.0
 20
0.0
 30
0.0
  3
*Model_Space
  1

  0
ENDBLK
  5
21
100
AcDbEntity
  8
0
100
AcDbBlockEnd
  0
BLOCK
  5
1C
100
AcDbEntity
  8
0
100
AcDbBlockBegin
  2
*Paper_Space
 70
0
 10
0.0
 20
0.0
 30
0.0
  3
*Paper_Space
  1

  0
ENDBLK
  5
1D
100
AcDbEntity
  8
0
100
AcDbBlockEnd
  0
ENDSEC
  0
SECTION
  2
ENTITIES
  0
MTEXT
  5
211
100
AcDbEntity
  8
0
100
AcDbMText
 62
5
  6
CONTINUOUS
  7
STANDARD
 71
1
 72
1
 10
144.6195428839
 20
172.5283460151
 30
0.0
 11
0.0
 21
1.0
 31
0.0
 44
0.9
  1
RUD VLBG-PLUS 4,5t
 40
6.0
 41
81.8571428571
  0
MTEXT
  5
212
100
AcDbEntity
  8
0
100
AcDbMText
 62
5
  6
CONTINUOUS
  7
STANDARD
 71
1
 72
1
 10
146.021014835
 20
15.6291443116
 30
0.0
 11
0.0
 21
1.0
 31
0.0
 44
0.9
  1
VLBG-PLUS 4,5t
 40
6.0
 41
62.2857142857
  0
LINE
  5
213
100
AcDbEntity
  8
0
100
AcDbLine
 62
7
  6
CONTINUOUS
 10
0.0
 20
0.0
 11
0.0
 21
297.0
  0
LINE
  5
214
100
AcDbEntity
  8
0
100
AcDbLine
 62
7
  6
CONTINUOUS
 10
0.0
 20
0.0
 11
420.0
 21
0.0
  0
LINE
  5
215
100
AcDbEntity
  8
0
100
AcDbLine
 62
7
  6
CONTINUOUS
 10
0.0
 20
297.0
 11
420.0
 21
297.0
  0
LINE
  5
216
100
AcDbEntity
  8
0
100
AcDbLine
 62
7
  6
CONTINUOUS
 10
420.0
 20
0.0
 11
420.0
 21
297.0
  0
LINE
  5
217
100
AcDbEntity
  8
BEZUGSACHSEN
100
AcDbLine
 62
7
  6
CONTINUOUS
 10
110.8743989666
 20
103.8189456412
 11
131.8743989666
 21
103.8189456412
  0
LINE
  5
218
100
AcDbEntity
  8
BEZUGSACHSEN
100
AcDbLine
 62
7
  6
CONTINUOUS
 10
109.3743989666
 20
105.3189456412
 11
133.3743989666
 21
105.3189456412
  0
LINE
  5
219
100
AcDbEntity
  8
BEZUGSACHSEN
100
AcDbLine
 62
7
  6
CONTINUOUS
 10
109.3743989666
 20
105.3189456412
 11
110.8743989666
 21
103.8189456412
  0
LINE
  5
21A
100
AcDbEntity
  8
0
100
AcDbLine
 62
7
  6
CONTINUOUS
 10
143.8743989666
 20
141.0189456412
 11
98.8743989666
 21
141.0189456412
  0
LINE
  5
21B
100
AcDbEntity
  8
0
100
AcDbLine
 62
7
  6
CONTINUOUS
 10
143.8743989666
 20
146.1689456412
 11
98.8743989666
 21
146.1689456412
  0
LINE
  5
21C
100
AcDbEntity
  8
RUNDUNGEN
100
AcDbLine
 62
7
  6
CONTINUOUS
 10
147.5743989666
 20
146.4189456412
 11
96.5743989666
 21
146.4189456412
  0
LINE
  5
21D
100
AcDbEntity
  8
KONSTRUKTIONSELEMENTE
100
AcDbLine
 62
7
  6
CONTINUOUS
 10
141.0909054363
 20
279.2199064277
 11
140.8243989666
 21
278.8207512168
  0
LINE
  5
21E
100
AcDbEntity
  8
0
100
AcDbLine
 62
7
  6
CONTINUOUS
 10
141.0939184197
 20
279.2241421451
 11
140.8243989666
 21
278.8207512168
  0
LINE
  5
21F
100
AcDbEntity
  8
KONSTRUKTIONSELEMENTE
100
AcDbLine
 62
7
  6
CONTINUOUS
 10
141.5357998886
 20
279.7906538825
 11
141.092186074
 21
279.2215493359
  0
LWPOLYLINE
  5
220
100
AcDbEntity
  8
0
100
AcDbPolyline
 62
7
  6
CONTINUOUS
 90
3
 70
0
 10
150.1631921481
 20
154.366330043
 10
150.7654081131
 20
154.5354032664
 10
151.1215494072
 20
154.6619783464
  0
LWPOLYLINE
  5
221
100
AcDbEntity
  8
0
100
AcDbPolyline
 62
7
  6
CONTINUOUS
 90
4
 70
0
 10
150.1736278354
 20
154.3692598812
 10
150.1780283992
 20
154.370248388
 10
150.2973633127
 20
154.3993638627
 10
150.5232927105
 20
154.4600995483
  0
LINE
  5
222
100
AcDbEntity
  8
0
100
AcDbLine
 62
7
  6
CONTINUOUS
 10
149.5477324527
 20
154.2485357118
 11
150.1717685514
 21
154.3683566271
  0
LINE
  5
223
100
AcDbEntity
  8
0
100
AcDbLine
 62
7
  6
CONTINUOUS
 10
148.9235692118
 20
154.1831583021
 11
149.5581840782
 21
154.2500883746
  0
LINE
  5
224
100
AcDbEntity
  8
0
100
AcDbLine
 62
7
  6
CONTINUOUS
 10
148.464969374
 20
154.1689458966
 11
148.9358608793
 21
154.1839312082
  0
LINE
  5
225
100
AcDbEntity
  8
0
100
AcDbLine
 62
7
  6
CONTINUOUS
 10
94.1055061991
 20
150.3406477705
 11
94.5743989666
 21
150.3406477705
  0
LINE
  5
226
100
AcDbEntity
  8
0
100
AcDbLine
 62
7
  6
CONTINUOUS
 10
94.1353241042
 20
150.9789456412
 11
94.6885833024
 21
150.9789456412
  0
LINE
  5
227
100
AcDbEntity
  8
0
100
AcDbLine
 62
7
  6
CONTINUOUS
 10
95.0752934402
 20
150.9789456412
 11
95.5961552529
 21
150.9789456412
  0
LINE
  5
228
100
AcDbEntity
  8
0
100
AcDbLine
 62
7
  6
CONTINUOUS
 10
94.2406972286
 20
151.0853286166
 11
94.7440456919
 21
151.0853286166
  0
LINE
  5
229
100
AcDbEntity
  8
0
100
AcDbLine
 62
7
  6
CONTINUOUS
 10
94.3059101351
 20
151.4044775427
 11
94.7484229079
 21
151.4044775427
  0
LINE
  5
22A
100
AcDbEntity
  8
0
100
AcDbLine
 62
7
  6
CONTINUOUS
 10
95.0752934402
 20
151.4044775427
 11
95.5961552529
 21
151.4044775427
  0
LINE
  5
22B
100
AcDbEntity
  8
0
100
AcDbLine
 62
7
  6
CONTINUOUS
 10
94.1353241042
 20
151.5108605459
 11
94.186334423
 21
151.5108605459
  0
LINE
  5
22C
100
AcDbEntity
  8
0
100
AcDbLine
 62
7
  6
CONTINUOUS
 10
94.9308639724
 20
151.5108605459
 11
95.4486074353
 21
151.5108605459
  0
LINE
  5
22D
100
AcDbEntity
  8
0
100
AcDbLine
 62
7
  6
CONTINUOUS
 10
94.10989475
 20
151.617243512
 11
94.2289590743
 21
151.617243512
  0
LINE
  5
22E
100
AcDbEntity
  8
0
100
AcDbLine
 62
7
  6
CONTINUOUS
 10
94.8498768409
 20
151.723626478
 11
95.3658881833
 21
151.723626478
  0
LINE
  5
22F
100
AcDbEntity
  8
0
100
AcDbLine
 62
7
  6
CONTINUOUS
 10
94.3502802903
 20
151.8300094441
 11
94.7004686076
 21
151.8300094441
  0
LINE
  5
230
100
AcDbEntity
  8
0
100
AcDbLine
 62
7
  6
CONTINUOUS
 10
94.0953106048
 20
151.8300094441
 11
94.2654759576
 21
151.8300094441
  0
LINE
  5
231
100
AcDbEntity
  8
0
100
AcDbLine
 62
7
  6
CONTINUOUS
 10
94.8238166079
 20
152.0427754507
 11
95.3392730726
 21
152.0427754507
  0
LINE
  5
232
100
AcDbEntity
  8
0
100
AcDbLine
 62
7
  6
CONTINUOUS
 10
94.0877210941
 20
152.2555413827
 11
94.296588284
 21
152.2555413827
  0
LINE
  5
233
100
AcDbEntity
  8
0
100
AcDbLine
 62
7
  6
CONTINUOUS
 10
94.3820571585
 20
152.3619243488
 11
94.7004686076
 21
152.3619243488
  0
LINE
  5
234
100
AcDbEntity
  8
0
100
AcDbLine
 62
7
  6
CONTINUOUS
 10
94.2086644342
 20
152.4683073148
 11
94.3059101351
 21
152.4683073148
  0
LINE
  5
235
100
AcDbEntity
  8
0
100
AcDbLine
 62
7
  6
CONTINUOUS
 10
94.3820571585
 20
152.7874562129
 11
94.7004686076
 21
152.7874562129
  0
LINE
  5
236
100
AcDbEntity
  8
0
100
AcDbLine
 62
7
  6
CONTINUOUS
 10
94.2086644342
 20
153.1066052601
 11
94.2829740792
 21
153.1066052601
  0
LINE
  5
237
100
AcDbEntity
  8
0
100
AcDbLine
 62
7
  6
CONTINUOUS
 10
94.0751767715
 20
153.2129882261
 11
94.2741342534
 21
153.2129882261
  0
LINE
  5
238
100
AcDbEntity
  8
0
100
AcDbLine
 62
7
  6
CONTINUOUS
 10
94.3502802903
 20
153.3193711922
 11
94.7004686076
 21
153.3193711922
  0
LINE
  5
239
100
AcDbEntity
  8
0
100
AcDbLine
 62
7
  6
CONTINUOUS
 10
94.10989475
 20
153.5321371243
 11
94.2289590743
 21
153.5321371243
  0
LINE
  5
23A
100
AcDbEntity
  8
0
100
AcDbLine
 62
7
  6
CONTINUOUS
 10
94.1353241042
 20
153.6385200903
 11
94.186334423
 21
153.6385200903
  0
LINE
  5
23B
100
AcDbEntity
  8
0
100
AcDbLine
 62
7
  6
CONTINUOUS
 10
94.3059101351
 20
153.7449030563
 11
94.7004686076
 21
153.7449030563
  0
LINE
  5
23C
100
AcDbEntity
  8
0
100
AcDbLine
 62
7
  6
CONTINUOUS
 10
94.5268902332
 20
153.9576689884
 11
94.7004686076
 21
153.9576689884
  0
LINE
  5
23D
100
AcDbEntity
  8
0
100
AcDbLine
 62
7
  6
CONTINUOUS
 10
94.8238166079
 20
153.9576689884
 11
95.6586051527
 21
153.9576689884
  0
LINE
  5
23E
100
AcDbEntity
  8
0
100
AcDbLine
 62
7
  6
CONTINUOUS
 10
94.2406972286
 20
154.0640519545
 11
94.5268902332
 21
154.0640519545
  0
LINE
  5
23F
100
AcDbEntity
  8
0
100
AcDbLine
 62
7
  6
CONTINUOUS
 10
148.4649729421
 20
154.1689456412
 11
147.6838249912
 21
154.1689456412
  0
LINE
  5
240
100
AcDbEntity
  8
0
100
AcDbLine
 62
7
  6
CONTINUOUS
 10
94.1353241042
 20
154.1704349205
 11
94.5268902332
 21
154.1704349205
  0
LINE
  5
241
100
AcDbEntity
  8
0
100
AcDbLine
 62
7
  6
CONTINUOUS
 10
94.5268902332
 20
154.3832008526
 11
94.7004686076
 21
154.3832008526
  0
LINE
  5
242
100
AcDbEntity
  8
0
100
AcDbLine
 62
7
  6
CONTINUOUS
 10
94.8238166079
 20
154.3832008526
 11
95.6586051527
 21
154.3832008526
  0
LINE
  5
243
100
AcDbEntity
  8
0
100
AcDbLine
 62
7
  6
CONTINUOUS
 10
94.7004686076
 20
155.2342648789
 11
95.3392730726
 21
155.2342648789
  0
LINE
  5
244
100
AcDbEntity
  8
0
100
AcDbLine
 62
7
  6
CONTINUOUS
 10
94.0845656992
 20
155.447030811
 11
94.8558601142
 21
155.447030811
  0
LINE
  5
245
100
AcDbEntity
  8
0
100
AcDbLine
 62
7
  6
CONTINUOUS
 10
94.0743989666
 20
167.9666052117
 11
94.0743989666
 21
168.6049030861
  0
LINE
  5
246
100
AcDbEntity
  8
0
100
AcDbLine
 62
7
  6
CONTINUOUS
 10
94.0751767715
 20
153.2129882261
 11
94.0751767715
 21
153.7449030563
  0
LINE
  5
247
100
AcDbEntity
  8
0
100
AcDbLine
 62
7
  6
CONTINUOUS
 10
94.0751767715
 20
155.447030811
 11
94.0751767715
 21
155.9789456412
  0
LINE
  5
248
100
AcDbEntity
  8
0
100
AcDbLine
 62
7
  6
CONTINUOUS
 10
94.0794330068
 20
160.7491584167
 11
94.0794330068
 21
162.3449030563
  0
LINE
  5
249
100
AcDbEntity
  8
0
100
AcDbLine
 62
7
  6
CONTINUOUS
 10
94.0845656992
 20
153.7449030563
 11
94.0845656992
 21
155.447030811
  0
LINE
  5
24A
100
AcDbEntity
  8
0
100
AcDbLine
 62
7
  6
CONTINUOUS
 10
94.113411175
 20
169.881498768
 11
94.113411175
 21
173.8389456412
  0
LINE
  5
24B
100
AcDbEntity
  8
0
100
AcDbLine
 62
7
  6
CONTINUOUS
 10
94.1369506866
 20
161.3874562129
 11
94.1369506866
 21
161.9193711922
  0
LINE
  5
24C
100
AcDbEntity
  8
0
100
AcDbLine
 62
7
  6
CONTINUOUS
 10
94.1660460297
 20
169.881498768
 11
94.1660460297
 21
173.8389456412
  0
LINE
  5
24D
100
AcDbEntity
  8
0
100
AcDbLine
 62
7
  6
CONTINUOUS
 10
94.2086644342
 20
152.4683073148
 11
94.2086644342
 21
153.1066052601
  0
LINE
  5
24E
100
AcDbEntity
  8
0
100
AcDbLine
 62
7
  6
CONTINUOUS
 10
94.2091799706
 20
159.5789456412
 11
94.2091799706
 21
164.5789456412
  0
LINE
  5
24F
100
AcDbEntity
  8
0
100
AcDbLine
 62
7
  6
CONTINUOUS
 10
94.2709525611
 20
167.8389456412
 11
94.2709525611
 21
173.8389456412
  0
LINE
  5
250
100
AcDbEntity
  8
0
100
AcDbLine
 62
7
  6
CONTINUOUS
 10
94.2814988948
 20
159.5789456412
 11
94.2814988948
 21
161.8129882261
  0
LINE
  5
251
100
AcDbEntity
  8
0
100
AcDbLine
 62
7
  6
CONTINUOUS
 10
94.2814988948
 20
162.4512860224
 11
94.2814988948
 21
164.047030811
  0
LINE
  5
252
100
AcDbEntity
  8
0
100
AcDbLine
 62
7
  6
CONTINUOUS
 10
94.3059101351
 20
152.4683073148
 11
94.3059101351
 21
152.6810732469
  0
LINE
  5
253
100
AcDbEntity
  8
0
100
AcDbLine
 62
7
  6
CONTINUOUS
 10
94.3502802903
 20
155.447030811
 11
94.3502802903
 21
155.9789456412
  0
LINE
  5
254
100
AcDbEntity
  8
0
100
AcDbLine
 62
7
  6
CONTINUOUS
 10
94.3759486175
 20
168.6049030861
 11
94.3759486175
 21
173.0729882857
  0
LINE
  5
255
100
AcDbEntity
  8
0
100
AcDbLine
 62
7
  6
CONTINUOUS
 10
94.3820571585
 20
152.3619243488
 11
94.3820571585
 21
152.7874562129
  0
LINE
  5
256
100
AcDbEntity
  8
0
100
AcDbLine
 62
7
  6
CONTINUOUS
 10
94.5268902332
 20
153.9576689884
 11
94.5268902332
 21
154.3832008526
  0
LINE
  5
257
100
AcDbEntity
  8
0
100
AcDbLine
 62
7
  6
CONTINUOUS
 10
94.5743989666
 20
148.4189456412
 11
94.5743989666
 21
150.9789456412
  0
LINE
  5
258
100
AcDbEntity
  8
0
100
AcDbLine
 62
7
  6
CONTINUOUS
 10
94.5743989666
 20
155.9789456412
 11
94.5743989666
 21
159.5789456412
  0
LINE
  5
259
100
AcDbEntity
  8
0
100
AcDbLine
 62
7
  6
CONTINUOUS
 10
94.5743989666
 20
164.5789456412
 11
94.5743989666
 21
167.8389456412
  0
LINE
  5
25A
100
AcDbEntity
  8
0
100
AcDbLine
 62
7
  6
CONTINUOUS
 10
94.5743989666
 20
173.8389456412
 11
94.5743989666
 21
176.4189456412
  0
LINE
  5
25B
100
AcDbEntity
  8
0
100
AcDbLine
 62
7
  6
CONTINUOUS
 10
94.5847691174
 20
154.3832008526
 11
94.5847691174
 21
155.447030811
  0
LINE
  5
25C
100
AcDbEntity
  8
0
100
AcDbLine
 62
7
  6
CONTINUOUS
 10
94.7004686076
 20
151.8300094441
 11
94.7004686076
 21
153.9576689884
  0
LINE
  5
25D
100
AcDbEntity
  8
0
100
AcDbLine
 62
7
  6
CONTINUOUS
 10
94.7004686076
 20
154.3832008526
 11
94.7004686076
 21
155.2342648789
  0
LINE
  5
25E
100
AcDbEntity
  8
0
100
AcDbLine
 62
7
  6
CONTINUOUS
 10
94.7539085656
 20
163.0895838186
 11
94.7539085656
 21
163.4087330148
  0
LINE
  5
25F
100
AcDbEntity
  8
0
100
AcDbLine
 62
7
  6
CONTINUOUS
 10
94.7856758441
 20
159.5789456412
 11
94.7856758441
 21
161.8129882261
  0
LINE
  5
260
100
AcDbEntity
  8
0
100
AcDbLine
 62
7
  6
CONTINUOUS
 10
94.8238166079
 20
152.0427754507
 11
94.8238166079
 21
153.9576689884
  0
LINE
  5
261
100
AcDbEntity
  8
0
100
AcDbLine
 62
7
  6
CONTINUOUS
 10
94.8238166079
 20
154.3832008526
 11
94.8238166079
 21
155.2342648789
  0
LINE
  5
262
100
AcDbEntity
  8
0
100
AcDbLine
 62
7
  6
CONTINUOUS
 10
94.8558601142
 20
155.447030811
 11
94.8558601142
 21
155.9789456412
  0
LINE
  5
263
100
AcDbEntity
  8
0
100
AcDbLine
 62
7
  6
CONTINUOUS
 10
94.882053999
 20
168.6576663301
 11
94.882053999
 21
173.0202250417
  0
LINE
  5
264
100
AcDbEntity
  8
0
100
AcDbLine
 62
7
  6
CONTINUOUS
 10
94.9095100808
 20
162.9832008526
 11
94.9095100808
 21
163.4087330148
  0
LINE
  5
265
100
AcDbEntity
  8
0
100
AcDbLine
 62
7
  6
CONTINUOUS
 10
95.0752934402
 20
150.9789456412
 11
95.0752934402
 21
151.4044775427
  0
LINE
  5
266
100
AcDbEntity
  8
0
100
AcDbLine
 62
7
  6
CONTINUOUS
 10
95.1364122707
 20
153.9576689884
 11
95.1364122707
 21
154.3832008526
  0
LINE
  5
267
100
AcDbEntity
  8
0
100
AcDbLine
 62
7
  6
CONTINUOUS
 10
95.1433774792
 20
159.5789456412
 11
95.1433774792
 21
164.5789456412
  0
LINE
  5
268
100
AcDbEntity
  8
0
100
AcDbLine
 62
7
  6
CONTINUOUS
 10
95.1747697263
 20
169.881498768
 11
95.1747697263
 21
171.7963923356
  0
LINE
  5
269
100
AcDbEntity
  8
0
100
AcDbLine
 62
7
  6
CONTINUOUS
 10
95.33905504
 20
160.217243512
 11
95.33905504
 21
164.5789456412
  0
LINE
  5
26A
100
AcDbEntity
  8
0
100
AcDbLine
 62
7
  6
CONTINUOUS
 10
95.3392730726
 20
152.0427754507
 11
95.3392730726
 21
153.9576689884
  0
LINE
  5
26B
100
AcDbEntity
  8
0
100
AcDbLine
 62
7
  6
CONTINUOUS
 10
95.3392730726
 20
154.3832008526
 11
95.3392730726
 21
155.2342648789
  0
LINE
  5
26C
100
AcDbEntity
  8
0
100
AcDbLine
 62
7
  6
CONTINUOUS
 10
95.4152514696
 20
169.881498768
 11
95.4152514696
 21
171.7963923356
  0
LINE
  5
26D
100
AcDbEntity
  8
0
100
AcDbLine
 62
7
  6
CONTINUOUS
 10
95.5961552529
 20
150.9789456412
 11
95.5961552529
 21
151.4044775427
  0
LINE
  5
26E
100
AcDbEntity
  8
0
100
AcDbLine
 62
7
  6
CONTINUOUS
 10
95.6586051527
 20
153.9576689884
 11
95.6586051527
 21
154.3832008526
  0
LINE
  5
26F
100
AcDbEntity
  8
0
100
AcDbLine
 62
7
  6
CONTINUOUS
 10
95.8657107861
 20
160.217243512
 11
95.8657107861
 21
164.5789456412
  0
LINE
  5
270
100
AcDbEntity
  8
0
100
AcDbLine
 62
7
  6
CONTINUOUS
 10
95.9436053325
 20
169.881498768
 11
95.9436053325
 21
171.7963923356
  0
LINE
  5
271
100
AcDbEntity
  8
0
100
AcDbLine
 62
7
  6
CONTINUOUS
 10
96.5957443742
 20
159.5789456412
 11
96.5957443742
 21
160.217243512
  0
LINE
  5
272
100
AcDbEntity
  8
0
100
AcDbLine
 62
7
  6
CONTINUOUS
 10
97.0156379839
 20
161.2810732469
 11
97.0156379839
 21
164.5789456412
  0
LINE
  5
273
100
AcDbEntity
  8
0
100
AcDbLine
 62
7
  6
CONTINUOUS
 10
97.1518976147
 20
159.5789456412
 11
97.1518976147
 21
160.217243512
  0
LINE
  5
274
100
AcDbEntity
  8
0
100
AcDbLine
 62
7
  6
CONTINUOUS
 10
97.3562619442
 20
161.2810732469
 11
97.3562619442
 21
164.5789456412
  0
LINE
  5
275
100
AcDbEntity
  8
0
100
AcDbLine
 62
7
  6
CONTINUOUS
 10
94.0751767715
 20
155.9789456412
 11
94.8558601142
 21
155.9789456412
  0
LINE
  5
276
100
AcDbEntity
  8
0
100
AcDbLine
 62
7
  6
CONTINUOUS
 10
94.1502219888
 20
159.5789456412
 11
94.7856758441
 21
159.5789456412
  0
LINE
  5
277
100
AcDbEntity
  8
0
100
AcDbLine
 62
7
  6
CONTINUOUS
 10
95.1433774792
 20
159.5789456412
 11
97.1518976147
 21
159.5789456412
  0
LINE
  5
278
100
AcDbEntity
  8
0
100
AcDbLine
 62
7
  6
CONTINUOUS
 10
97.9760331908
 20
159.5789456412
 11
98.8435223873
 21
159.5789456412
  0
LINE
  5
279
100
AcDbEntity
  8
0
100
AcDbLine
 62
7
  6
CONTINUOUS
 10
101.4433415107
 20
159.5789456412
 11
103.0545315495
 21
159.5789456412
  0
LINE
  5
27A
100
AcDbEntity
  8
0
100
AcDbLine
 62
7
  6
CONTINUOUS
 10
94.1153262462
 20
159.6853286166
 11
94.2091799706
 21
159.6853286166
  0
LINE
  5
27B
100
AcDbEntity
  8
0
100
AcDbLine
 62
7
  6
CONTINUOUS
 10
98.593614617
 20
159.6853286166
 11
99.2042415808
 21
159.6853286166
  0
LINE
  5
27C
100
AcDbEntity
  8
0
100
AcDbLine
 62
7
  6
CONTINUOUS
 10
102.8909108721
 20
159.6853286166
 11
103.6656348726
 21
159.6853286166
  0
LINE
  5
27D
100
AcDbEntity
  8
0
100
AcDbLine
 62
7
  6
CONTINUOUS
 10
94.0951084791
 20
159.8980945766
 11
94.2091799706
 21
159.8980945766
  0
LINE
  5
27E
100
AcDbEntity
  8
0
100
AcDbLine
 62
7
  6
CONTINUOUS
 10
98.8876423335
 20
159.8980945766
 11
99.5072143111
 21
159.8980945766
  0
LINE
  5
27F
100
AcDbEntity
  8
0
100
AcDbLine
 62
7
  6
CONTINUOUS
 10
103.3850722592
 20
159.8980945766
 11
104.1846524047
 21
159.8980945766
  0
LINE
  5
280
100
AcDbEntity
  8
0
100
AcDbLine
 62
7
  6
CONTINUOUS
 10
95.33905504
 20
160.217243512
 11
97.1518976147
 21
160.217243512
  0
LINE
  5
281
100
AcDbEntity
  8
0
100
AcDbLine
 62
7
  6
CONTINUOUS
 10
97.9760331908
 20
160.217243512
 11
98.2432188833
 21
160.217243512
  0
LINE
  5
282
100
AcDbEntity
  8
0
100
AcDbLine
 62
7
  6
CONTINUOUS
 10
101.4433415107
 20
160.217243512
 11
102.3072040734
 21
160.217243512
  0
LINE
  5
283
100
AcDbEntity
  8
0
100
AcDbLine
 62
7
  6
CONTINUOUS
 10
94.0817160527
 20
160.323626478
 11
94.2091799706
 21
160.323626478
  0
LINE
  5
284
100
AcDbEntity
  8
0
100
AcDbLine
 62
7
  6
CONTINUOUS
 10
97.7200566425
 20
160.323626478
 11
98.3055889759
 21
160.323626478
  0
LINE
  5
285
100
AcDbEntity
  8
0
100
AcDbLine
 62
7
  6
CONTINUOUS
 10
99.1944268242
 20
160.323626478
 11
99.8236201332
 21
160.323626478
  0
LINE
  5
286
100
AcDbEntity
  8
0
100
AcDbLine
 62
7
  6
CONTINUOUS
 10
101.0405397319
 20
160.323626478
 11
101.7347258157
 21
160.323626478
  0
LINE
  5
287
100
AcDbEntity
  8
0
100
AcDbLine
 62
7
  6
CONTINUOUS
 10
103.9058733223
 20
160.323626478
 11
104.7334860612
 21
160.323626478
  0
LINE
  5
288
100
AcDbEntity
  8
0
100
AcDbLine
 62
7
  6
CONTINUOUS
 10
97.5351929502
 20
160.5363924846
 11
98.115680416
 21
160.5363924846
  0
LINE
  5
289
100
AcDbEntity
  8
0
100
AcDbLine
 62
7
  6
CONTINUOUS
 10
100.7501423665
 20
160.6427754507
 11
101.433212772
 21
160.6427754507
  0
LINE
  5
28A
100
AcDbEntity
  8
0
100
AcDbLine
 62
7
  6
CONTINUOUS
 10
94.0794330068
 20
160.7491584167
 11
94.2091799706
 21
160.7491584167
  0
LINE
  5
28B
100
AcDbEntity
  8
0
100
AcDbLine
 62
7
  6
CONTINUOUS
 10
99.3527824388
 20
160.7491584167
 11
99.9870618582
 21
160.7491584167
  0
LINE
  5
28C
100
AcDbEntity
  8
0
100
AcDbLine
 62
7
  6
CONTINUOUS
 10
104.1771073245
 20
160.7491584167
 11
105.0201353331
 21
160.7491584167
  0
LINE
  5
28D
100
AcDbEntity
  8
0
100
AcDbLine
 62
7
  6
CONTINUOUS
 10
97.4152544898
 20
160.8555413827
 11
97.9925157322
 21
160.8555413827
  0
LINE
  5
28E
100
AcDbEntity
  8
0
100
AcDbLine
 62
7
  6
CONTINUOUS
 10
100.108871906
 20
160.9619243488
 11
101.3350049594
 21
160.9619243488
  0
LINE
  5
28F
100
AcDbEntity
  8
0
100
AcDbLine
 62
7
  6
CONTINUOUS
 10
97.3562619442
 20
161.2810732469
 11
97.9319496425
 21
161.2810732469
  0
LINE
  5
290
100
AcDbEntity
  8
0
100
AcDbLine
 62
7
  6
CONTINUOUS
 10
99.4332361126
 20
161.2810732469
 11
100.0701317127
 21
161.2810732469
  0
LINE
  5
291
100
AcDbEntity
  8
0
100
AcDbLine
 62
7
  6
CONTINUOUS
 10
104.1771073245
 20
161.2810732469
 11
105.0201353331
 21
161.2810732469
  0
LINE
  5
292
100
AcDbEntity
  8
0
100
AcDbLine
 62
7
  6
CONTINUOUS
 10
94.0764914221
 20
161.3874562129
 11
94.2091799706
 21
161.3874562129
  0
LINE
  5
293
100
AcDbEntity
  8
0
100
AcDbLine
 62
7
  6
CONTINUOUS
 10
103.9058733223
 20
161.7066052601
 11
104.7334860612
 21
161.7066052601
  0
LINE
  5
294
100
AcDbEntity
  8
0
100
AcDbLine
 62
7
  6
CONTINUOUS
 10
94.2814988948
 20
161.8129882261
 11
95.1039540989
 21
161.8129882261
  0
LINE
  5
295
100
AcDbEntity
  8
0
100
AcDbLine
 62
7
  6
CONTINUOUS
 10
101.6517707049
 20
161.8129882261
 11
102.3072040734
 21
161.8129882261
  0
LINE
  5
296
100
AcDbEntity
  8
0
100
AcDbLine
 62
7
  6
CONTINUOUS
 10
94.0764914221
 20
161.9193711922
 11
94.2091799706
 21
161.9193711922
  0
LINE
  5
297
100
AcDbEntity
  8
0
100
AcDbLine
 62
7
  6
CONTINUOUS
 10
94.7057482123
 20
161.9193711922
 11
95.1433774792
 21
161.9193711922
  0
LWPOLYLINE
  5
298
100
AcDbEntity
  8
0
100
AcDbPolyline
 62
7
  6
CONTINUOUS
 90
3
 70
0
 10
146.6010654806
 20
154.2485357118
 10
147.2252287215
 20
154.1831583021
 10
147.6838286393
 20
154.1689458966
  0
LINE
  5
299
100
AcDbEntity
  8
0
100
AcDbLine
 62
7
  6
CONTINUOUS
 10
145.9856057852
 20
154.366330043
 11
146.6010654806
 21
154.2485357118
  0
LINE
  5
29A
100
AcDbEntity
  8
0
100
AcDbLine
 62
7
  6
CONTINUOUS
 10
145.6473646441
 20
154.4612918563
 11
145.9856057852
 21
154.366330043
  0
LWPOLYLINE
  5
29B
100
AcDbEntity
  8
KONSTRUKTIONSELEMENTE
100
AcDbPolyline
 62
7
  6
CONTINUOUS
 90
5
 70
0
 10
145.0842464812
 20
154.6364301358
 10
145.3627622743
 20
154.5401578181
 10
145.6255051628
 20
154.4600995654
 10
145.8514345684
 20
154.3993638759
 10
145.96741949
 20
154.3710657355
  0
LINE
  5
29C
100
AcDbEntity
  8
0
100
AcDbLine
 62
7
  6
CONTINUOUS
 10
97.9319496425
 20
161.2810732469
 11
97.9319496425
 21
164.5789456412
  0
LINE
  5
29D
100
AcDbEntity
  8
0
100
AcDbLine
 62
7
  6
CONTINUOUS
 10
98.8743989666
 20
183.8189456412
 11
98.8743989666
 21
178.6689456412
  0
LINE
  5
29E
100
AcDbEntity
  8
0
100
AcDbLine
 62
7
  6
CONTINUOUS
 10
98.8743989666
 20
146.1689456412
 11
98.8743989666
 21
141.0189456412
  0
LINE
  5
29F
100
AcDbEntity
  8
0
100
AcDbLine
 62
7
  6
CONTINUOUS
 10
98.9631210965
 20
161.2810732469
 11
98.9631210965
 21
164.5789456412
  0
LINE
  5
2A0
100
AcDbEntity
  8
0
100
AcDbLine
 62
7
  6
CONTINUOUS
 10
99.4332361126
 20
161.2810732469
 11
99.4332361126
 21
164.5789456412
  0
LINE
  5
2A1
100
AcDbEntity
  8
0
100
AcDbLine
 62
7
  6
CONTINUOUS
 10
100.0701317127
 20
161.2810732469
 11
100.0701317127
 21
164.5789456412
  0
LINE
  5
2A2
100
AcDbEntity
  8
0
100
AcDbLine
 62
7
  6
CONTINUOUS
 10
100.3776863575
 20
162.9832008526
 11
100.3776863575
 21
163.4087330148
  0
LINE
  5
2A3
100
AcDbEntity
  8
BEZUGSACHSEN
100
AcDbLine
 62
7
  6
CONTINUOUS
 10
100.5897892758
 20
184.3189456412
 11
100.5897892758
 21
197.2112504866
  0
LINE
  5
2A4
100
AcDbEntity
  8
0
100
AcDbLine
 62
7
  6
CONTINUOUS
 10
100.9426545502
 20
163.0895838186
 11
100.9426545502
 21
163.3023497507
  0
LINE
  5
2A5
100
AcDbEntity
  8
0
100
AcDbLine
 62
7
  6
CONTINUOUS
 10
101.6330528633
 20
163.0895838186
 11
101.6330528633
 21
163.3023497507
  0
LINE
  5
2A6
100
AcDbEntity
  8
0
100
AcDbLine
 62
7
  6
CONTINUOUS
 10
103.3850722592
 20
160.8555413827
 11
103.3850722592
 21
161.1746902809
  0
LINE
  5
2A7
100
AcDbEntity
  8
0
100
AcDbLine
 62
7
  6
CONTINUOUS
 10
140.3201566041
 20
277.8854703724
 11
140.3354714353
 21
277.9189456412
  0
LINE
  5
2A8
100
AcDbEntity
  8
0
100
AcDbLine
 62
7
  6
CONTINUOUS
 10
103.3850722592
 20
162.1321371243
 11
104.1846524047
 21
162.1321371243
  0
LINE
  5
2A9
100
AcDbEntity
  8
0
100
AcDbLine
 62
7
  6
CONTINUOUS
 10
94.8039146705
 20
162.2385200903
 11
95.1433774792
 21
162.2385200903
  0
LINE
  5
2AA
100
AcDbEntity
  8
0
100
AcDbLine
 62
7
  6
CONTINUOUS
 10
94.0794330068
 20
162.3449030563
 11
94.2091799706
 21
162.3449030563
  0
LINE
  5
2AB
100
AcDbEntity
  8
0
100
AcDbLine
 62
7
  6
CONTINUOUS
 10
102.8909108721
 20
162.3449030563
 11
103.6656348726
 21
162.3449030563
  0
LINE
  5
2AC
100
AcDbEntity
  8
0
100
AcDbLine
 62
7
  6
CONTINUOUS
 10
94.2814988948
 20
162.4512860224
 11
94.6149219339
 21
162.4512860224
  0
LINE
  5
2AD
100
AcDbEntity
  8
0
100
AcDbLine
 62
7
  6
CONTINUOUS
 10
101.6517707049
 20
162.4512860224
 11
103.0545315495
 21
162.4512860224
  0
LINE
  5
2AE
100
AcDbEntity
  8
0
100
AcDbLine
 62
7
  6
CONTINUOUS
 10
101.3409152836
 20
162.5576689884
 11
102.0469939328
 21
162.5576689884
  0
LINE
  5
2AF
100
AcDbEntity
  8
0
100
AcDbLine
 62
7
  6
CONTINUOUS
 10
94.8824095637
 20
162.6640519545
 11
95.1433774792
 21
162.6640519545
  0
LINE
  5
2B0
100
AcDbEntity
  8
0
100
AcDbLine
 62
7
  6
CONTINUOUS
 10
101.0405397319
 20
162.7704349205
 11
101.7347258157
 21
162.7704349205
  0
LINE
  5
2B1
100
AcDbEntity
  8
0
100
AcDbLine
 62
7
  6
CONTINUOUS
 10
94.9095100808
 20
162.9832008526
 11
95.1433774792
 21
162.9832008526
  0
LINE
  5
2B2
100
AcDbEntity
  8
0
100
AcDbLine
 62
7
  6
CONTINUOUS
 10
100.9426545502
 20
163.0895838186
 11
101.6330528633
 21
163.0895838186
  0
LINE
  5
2B3
100
AcDbEntity
  8
0
100
AcDbLine
 62
7
  6
CONTINUOUS
 10
94.0794330068
 20
163.3023497507
 11
94.2091799706
 21
163.3023497507
  0
LINE
  5
2B4
100
AcDbEntity
  8
0
100
AcDbLine
 62
7
  6
CONTINUOUS
 10
100.9426545502
 20
163.3023497507
 11
101.6330528633
 21
163.3023497507
  0
LINE
  5
2B5
100
AcDbEntity
  8
0
100
AcDbLine
 62
7
  6
CONTINUOUS
 10
94.9095100808
 20
163.4087330148
 11
95.1433774792
 21
163.4087330148
  0
LINE
  5
2B6
100
AcDbEntity
  8
0
100
AcDbLine
 62
7
  6
CONTINUOUS
 10
103.0120867744
 20
163.4087330148
 11
104.5933075235
 21
163.4087330148
  0
LINE
  5
2B7
100
AcDbEntity
  8
0
100
AcDbLine
 62
7
  6
CONTINUOUS
 10
101.0405397319
 20
163.6214989469
 11
101.7347258157
 21
163.6214989469
  0
LINE
  5
2B8
100
AcDbEntity
  8
0
100
AcDbLine
 62
7
  6
CONTINUOUS
 10
94.8824095637
 20
163.7278819129
 11
95.1433774792
 21
163.7278819129
  0
LINE
  5
2B9
100
AcDbEntity
  8
0
100
AcDbLine
 62
7
  6
CONTINUOUS
 10
103.6419823264
 20
163.7278819129
 11
104.4551430326
 21
163.7278819129
  0
LINE
  5
2BA
100
AcDbEntity
  8
0
100
AcDbLine
 62
7
  6
CONTINUOUS
 10
94.0817160527
 20
163.8342648789
 11
94.2091799706
 21
163.8342648789
  0
LINE
  5
2BB
100
AcDbEntity
  8
0
100
AcDbLine
 62
7
  6
CONTINUOUS
 10
101.3409152836
 20
163.8342648789
 11
102.0469939328
 21
163.8342648789
  0
LINE
  5
2BC
100
AcDbEntity
  8
0
100
AcDbLine
 62
7
  6
CONTINUOUS
 10
101.6517707049
 20
163.940647845
 11
102.3072040734
 21
163.940647845
  0
LINE
  5
2BD
100
AcDbEntity
  8
0
100
AcDbLine
 62
7
  6
CONTINUOUS
 10
94.2814988948
 20
164.047030811
 11
94.6149219339
 21
164.047030811
  0
LINE
  5
2BE
100
AcDbEntity
  8
0
100
AcDbLine
 62
7
  6
CONTINUOUS
 10
94.8039146705
 20
164.1534137771
 11
95.1433774792
 21
164.1534137771
  0
LINE
  5
2BF
100
AcDbEntity
  8
0
100
AcDbLine
 62
7
  6
CONTINUOUS
 10
103.2591302361
 20
164.1534137771
 11
104.0522214857
 21
164.1534137771
  0
LINE
  5
2C0
100
AcDbEntity
  8
0
100
AcDbLine
 62
7
  6
CONTINUOUS
 10
94.0951084791
 20
164.2597967431
 11
94.2091799706
 21
164.2597967431
  0
LINE
  5
2C1
100
AcDbEntity
  8
0
100
AcDbLine
 62
7
  6
CONTINUOUS
 10
94.1153262462
 20
164.4725626752
 11
94.2091799706
 21
164.4725626752
  0
LINE
  5
2C2
100
AcDbEntity
  8
0
100
AcDbLine
 62
7
  6
CONTINUOUS
 10
94.7057482123
 20
164.4725626752
 11
95.1433774792
 21
164.4725626752
  0
LINE
  5
2C3
100
AcDbEntity
  8
0
100
AcDbLine
 62
7
  6
CONTINUOUS
 10
102.771254525
 20
164.4725626752
 11
103.5401960514
 21
164.4725626752
  0
LINE
  5
2C4
100
AcDbEntity
  8
0
100
AcDbLine
 62
7
  6
CONTINUOUS
 10
94.1502219888
 20
164.5789456412
 11
95.1039540989
 21
164.5789456412
  0
LINE
  5
2C5
100
AcDbEntity
  8
0
100
AcDbLine
 62
7
  6
CONTINUOUS
 10
95.1433774792
 20
164.5789456412
 11
95.8657107861
 21
164.5789456412
  0
LINE
  5
2C6
100
AcDbEntity
  8
0
100
AcDbLine
 62
7
  6
CONTINUOUS
 10
97.0156379839
 20
164.5789456412
 11
97.9319496425
 21
164.5789456412
  0
LINE
  5
2C7
100
AcDbEntity
  8
0
100
AcDbLine
 62
7
  6
CONTINUOUS
 10
98.9631210965
 20
164.5789456412
 11
100.0701317127
 21
164.5789456412
  0
LINE
  5
2C8
100
AcDbEntity
  8
0
100
AcDbLine
 62
7
  6
CONTINUOUS
 10
101.6517707049
 20
164.5789456412
 11
102.9369592598
 21
164.5789456412
  0
LINE
  5
2C9
100
AcDbEntity
  8
0
100
AcDbLine
 62
7
  6
CONTINUOUS
 10
94.0749009324
 20
167.8389456412
 11
95.3451934493
 21
167.8389456412
  0
LINE
  5
2CA
100
AcDbEntity
  8
0
100
AcDbLine
 62
7
  6
CONTINUOUS
 10
94.0864846664
 20
167.9666052117
 11
94.2709525611
 21
167.9666052117
  0
LINE
  5
2CB
100
AcDbEntity
  8
0
100
AcDbLine
 62
7
  6
CONTINUOUS
 10
94.9936388374
 20
167.9666052117
 11
95.5127330117
 21
167.9666052117
  0
LINE
  5
2CC
100
AcDbEntity
  8
0
100
AcDbLine
 62
7
  6
CONTINUOUS
 10
94.1067965078
 20
168.2219243637
 11
94.2709525611
 21
168.2219243637
  0
LINE
  5
2CD
100
AcDbEntity
  8
0
100
AcDbLine
 62
7
  6
CONTINUOUS
 10
95.1371574079
 20
168.2219243637
 11
95.6593665602
 21
168.2219243637
  0
LWPOLYLINE
  5
2CE
100
AcDbEntity
  8
KONSTRUKTIONSELEMENTE
100
AcDbPolyline
 62
7
  6
CONTINUOUS
 90
6
 70
0
 10
145.0273828534
 20
154.6619267098
 10
145.3766849333
 20
154.5375987161
 10
145.9770293819
 20
154.3683566271
 10
146.5906138551
 20
154.2500883746
 10
147.212937054
 20
154.1839312082
 10
147.6838285593
 20
154.1689458966
  0
LINE
  5
2CF
100
AcDbEntity
  8
KONSTRUKTIONSELEMENTE
100
AcDbLine
 62
7
  6
CONTINUOUS
 10
144.7927925332
 20
154.7502264893
 11
145.0842464812
 21
154.6364301358
  0
LWPOLYLINE
  5
2D0
100
AcDbEntity
  8
0
100
AcDbPolyline
 62
7
  6
CONTINUOUS
 90
4
 70
0
 10
144.2000660723
 20
155.0254682732
 10
144.4984357518
 20
154.8793196178
 10
144.7932482823
 20
154.7500378269
 10
145.0262692008
 20
154.6590738831
  0
LINE
  5
2D1
100
AcDbEntity
  8
0
100
AcDbLine
 62
7
  6
CONTINUOUS
 10
143.9007205775
 20
155.1885171333
 11
144.2000660723
 21
155.0254682732
  0
LINE
  5
2D2
100
AcDbEntity
  8
0
100
AcDbLine
 62
7
  6
CONTINUOUS
 10
104.1771073245
 20
160.7491584167
 11
104.1771073245
 21
161.2810732469
  0
LINE
  5
2D3
100
AcDbEntity
  8
KONSTRUKTIONSELEMENTE
100
AcDbLine
 62
7
  6
CONTINUOUS
 10
104.7743989666
 20
183.8189456412
 11
104.7743989666
 21
184.3189456412
  0
LINE
  5
2D4
100
AcDbEntity
  8
BEZUGSACHSEN
100
AcDbLine
 62
7
  6
CONTINUOUS
 10
104.7743989666
 20
183.8189456412
 11
104.7743989666
 21
184.3189456412
  0
LINE
  5
2D5
100
AcDbEntity
  8
0
100
AcDbLine
 62
7
  6
CONTINUOUS
 10
104.8743989666
 20
178.6689456412
 11
104.8743989666
 21
178.4189456412
  0
LINE
  5
2D6
100
AcDbEntity
  8
0
100
AcDbLine
 62
7
  6
CONTINUOUS
 10
104.8743989666
 20
146.4189456412
 11
104.8743989666
 21
146.1689456412
  0
LINE
  5
2D7
100
AcDbEntity
  8
0
100
AcDbLine
 62
7
  6
CONTINUOUS
 10
105.0201353331
 20
160.7491584167
 11
105.0201353331
 21
161.2810732469
  0
LINE
  5
2D8
100
AcDbEntity
  8
BEZUGSACHSEN
100
AcDbLine
 62
7
  6
CONTINUOUS
 10
109.3743989666
 20
141.0189456412
 11
109.3743989666
 21
105.3189456412
  0
LINE
  5
2D9
100
AcDbEntity
  8
KONSTRUKTIONSELEMENTE
100
AcDbLine
 62
7
  6
CONTINUOUS
 10
140.0809649588
 20
277.3063175142
 11
140.0803573374
 21
277.304845341
  0
LINE
  5
2DA
100
AcDbEntity
  8
0
100
AcDbLine
 62
7
  6
CONTINUOUS
 10
94.0743989416
 20
168.6049030861
 11
94.0749009169
 21
168.6049030861
  0
LINE
  5
2DB
100
AcDbEntity
  8
0
100
AcDbLine
 62
7
  6
CONTINUOUS
 10
94.3759486175
 20
168.6049030861
 11
94.8296136574
 21
168.6049030861
  0
LINE
  5
2DC
100
AcDbEntity
  8
0
100
AcDbLine
 62
7
  6
CONTINUOUS
 10
94.1369507033
 20
168.7325626454
 11
94.2709525611
 21
168.7325626454
  0
LINE
  5
2DD
100
AcDbEntity
  8
0
100
AcDbLine
 62
7
  6
CONTINUOUS
 10
95.2918170935
 20
168.7325626454
 11
95.8174256236
 21
168.7325626454
  0
LINE
  5
2DE
100
AcDbEntity
  8
0
100
AcDbLine
 62
7
  6
CONTINUOUS
 10
94.1557291549
 20
169.2432009718
 11
94.2709525611
 21
169.2432009718
  0
LINE
  5
2DF
100
AcDbEntity
  8
0
100
AcDbLine
 62
7
  6
CONTINUOUS
 10
95.3733912397
 20
169.2432009718
 11
95.9008108356
 21
169.2432009718
  0
LINE
  5
2E0
100
AcDbEntity
  8
0
100
AcDbLine
 62
7
  6
CONTINUOUS
 10
94.1660460297
 20
169.881498768
 11
94.2709525611
 21
169.881498768
  0
LINE
  5
2E1
100
AcDbEntity
  8
0
100
AcDbLine
 62
7
  6
CONTINUOUS
 10
95.4152514696
 20
169.881498768
 11
95.9436053325
 21
169.881498768
  0
LINE
  5
2E2
100
AcDbEntity
  8
0
100
AcDbLine
 62
7
  6
CONTINUOUS
 10
95.4152514696
 20
171.7963923356
 11
95.9436053325
 21
171.7963923356
  0
LINE
  5
2E3
100
AcDbEntity
  8
0
100
AcDbLine
 62
7
  6
CONTINUOUS
 10
95.3733912397
 20
172.4346904895
 11
95.9008108356
 21
172.4346904895
  0
LINE
  5
2E4
100
AcDbEntity
  8
0
100
AcDbLine
 62
7
  6
CONTINUOUS
 10
95.2918170935
 20
172.9453287265
 11
95.8174256236
 21
172.9453287265
  0
LINE
  5
2E5
100
AcDbEntity
  8
0
100
AcDbLine
 62
7
  6
CONTINUOUS
 10
94.3759486175
 20
173.0729882857
 11
94.8296136574
 21
173.0729882857
  0
LINE
  5
2E6
100
AcDbEntity
  8
0
100
AcDbLine
 62
7
  6
CONTINUOUS
 10
95.1371574079
 20
173.4559669635
 11
95.6593665602
 21
173.4559669635
  0
LINE
  5
2E7
100
AcDbEntity
  8
0
100
AcDbLine
 62
7
  6
CONTINUOUS
 10
94.9936388374
 20
173.711286082
 11
95.5127330117
 21
173.711286082
  0
LINE
  5
2E8
100
AcDbEntity
  8
0
100
AcDbLine
 62
7
  6
CONTINUOUS
 10
94.113411175
 20
173.8389456412
 11
95.3451934493
 21
173.8389456412
  0
LINE
  5
2E9
100
AcDbEntity
  8
BEZUGSACHSEN
100
AcDbLine
 62
7
  6
CONTINUOUS
 10
110.9820941212
 20
184.3189456412
 11
110.9820941212
 21
197.2112504866
  0
LINE
  5
2EA
100
AcDbEntity
  8
0
100
AcDbLine
 62
7
  6
CONTINUOUS
 10
114.5044975963
 20
198.8189456412
 11
114.5044975963
 21
199.0189456412
  0
LINE
  5
2EB
100
AcDbEntity
  8
0
100
AcDbLine
 62
7
  6
CONTINUOUS
 10
114.9004495745
 20
198.8189456412
 11
114.9004495745
 21
199.0189456412
  0
LINE
  5
2EC
100
AcDbEntity
  8
KONSTRUKTIONSELEMENTE
100
AcDbLine
 62
7
  6
CONTINUOUS
 10
140.0803573374
 20
277.304845341
 11
139.8606386559
 21
276.6165249768
  0
LINE
  5
2ED
100
AcDbEntity
  8
0
100
AcDbLine
 62
7
  6
CONTINUOUS
 10
140.0809649588
 20
277.3063175142
 11
139.8608828564
 21
276.6176122596
  0
LINE
  5
2EE
100
AcDbEntity
  8
BEZUGSACHSEN
100
AcDbLine
 62
7
  6
CONTINUOUS
 10
100.5897892758
 20
197.2112504866
 11
103.3743989666
 21
198.8189456412
  0
LINE
  5
2EF
100
AcDbEntity
  8
RUNDUNGEN
100
AcDbLine
 62
7
  6
CONTINUOUS
 10
96.5743989666
 20
178.4189456412
 11
141.0383915822
 21
178.4189456412
  0
LINE
  5
2F0
100
AcDbEntity
  8
0
100
AcDbLine
 62
7
  6
CONTINUOUS
 10
141.0386395337
 20
178.6689456412
 11
98.8743989666
 21
178.6689456412
  0
LWPOLYLINE
  5
2F1
100
AcDbEntity
  8
KONSTRUKTIONSELEMENTE
100
AcDbPolyline
 62
7
  6
CONTINUOUS
 90
13
 70
0
 10
141.5887509376
 20
157.1970206181
 10
141.6567174194
 20
157.1114158847
 10
141.9067362462
 20
156.8153614034
 10
142.1686978089
 20
156.533428911
 10
142.4409720835
 20
156.2669354089
 10
142.7220792937
 20
156.0166817386
 10
143.0103441338
 20
155.7833615988
 10
143.3040456614
 20
155.5674330663
 10
143.6013983333
 20
155.3691569461
 10
143.9004413509
 20
155.1886772447
 10
144.1997216805
 20
155.0256462066
 10
144.4980293709
 20
154.8795080082
 10
144.7927925332
 20
154.7502264893
  0
LWPOLYLINE
  5
2F2
100
AcDbEntity
  8
0
100
AcDbPolyline
 62
7
  6
CONTINUOUS
 90
10
 70
0
 10
141.5887498247
 20
157.197022039
 10
141.6566957307
 20
157.1114428331
 10
141.9067053999
 20
156.8153962208
 10
142.1686737601
 20
156.5334535901
 10
142.4409699689
 20
156.2669373826
 10
142.7221140909
 20
156.0166522029
 10
143.0104286614
 20
155.7832963969
 10
143.3041909306
 20
155.5673313561
 10
143.6016104813
 20
155.3690223658
 10
143.9007205775
 20
155.1885171333
  0
LINE
  5
2F3
100
AcDbEntity
  8
0
100
AcDbLine
 62
7
  6
CONTINUOUS
 10
141.5371549285
 20
157.2636132328
 11
141.5866318986
 21
157.1997272942
  0
LINE
  5
2F4
100
AcDbEntity
  8
0
100
AcDbLine
 62
7
  6
CONTINUOUS
 10
117.3394646956
 20
198.8189456412
 11
117.3394646956
 21
199.0189456412
  0
LINE
  5
2F5
100
AcDbEntity
  8
0
100
AcDbLine
 62
7
  6
CONTINUOUS
 10
117.5295107665
 20
198.8189456412
 11
117.5295107665
 21
199.0189456412
  0
LINE
  5
2F6
100
AcDbEntity
  8
0
100
AcDbLine
 62
7
  6
CONTINUOUS
 10
118.1899437711
 20
198.8189456412
 11
118.1899437711
 21
199.0189456412
  0
LINE
  5
2F7
100
AcDbEntity
  8
0
100
AcDbLine
 62
7
  6
CONTINUOUS
 10
118.22144586
 20
198.8189456412
 11
118.22144586
 21
199.0189456412
  0
LINE
  5
2F8
100
AcDbEntity
  8
0
100
AcDbLine
 62
7
  6
CONTINUOUS
 10
118.4696451215
 20
198.8189456412
 11
118.4696451215
 21
199.0189456412
  0
LINE
  5
2F9
100
AcDbEntity
  8
0
100
AcDbLine
 62
7
  6
CONTINUOUS
 10
118.7382087074
 20
198.8189456412
 11
118.7382087074
 21
199.0189456412
  0
LINE
  5
2FA
100
AcDbEntity
  8
0
100
AcDbLine
 62
7
  6
CONTINUOUS
 10
119.161417584
 20
198.8189456412
 11
119.161417584
 21
199.0189456412
  0
LINE
  5
2FB
100
AcDbEntity
  8
0
100
AcDbLine
 62
7
  6
CONTINUOUS
 10
119.450343841
 20
198.8189456412
 11
119.450343841
 21
199.0189456412
  0
LINE
  5
2FC
100
AcDbEntity
  8
0
100
AcDbLine
 62
7
  6
CONTINUOUS
 10
119.9661494328
 20
198.8189456412
 11
119.9661494328
 21
199.0189456412
  0
LINE
  5
2FD
100
AcDbEntity
  8
0
100
AcDbLine
 62
7
  6
CONTINUOUS
 10
120.2754416675
 20
198.8189456412
 11
120.2754416675
 21
199.0189456412
  0
LINE
  5
2FE
100
AcDbEntity
  8
0
100
AcDbLine
 62
7
  6
CONTINUOUS
 10
120.6050965732
 20
198.8189456412
 11
120.6050965732
 21
199.0189456412
  0
LINE
  5
2FF
100
AcDbEntity
  8
0
100
AcDbLine
 62
7
  6
CONTINUOUS
 10
120.7180576128
 20
198.8189456412
 11
120.7180576128
 21
199.0189456412
  0
LINE
  5
300
100
AcDbEntity
  8
0
100
AcDbLine
 62
7
  6
CONTINUOUS
 10
121.1059370812
 20
198.8189456412
 11
121.1059370812
 21
199.0189456412
  0
LINE
  5
301
100
AcDbEntity
  8
0
100
AcDbLine
 62
7
  6
CONTINUOUS
 10
121.1568478992
 20
198.8189456412
 11
121.1568478992
 21
199.0189456412
  0
LINE
  5
302
100
AcDbEntity
  8
0
100
AcDbLine
 62
7
  6
CONTINUOUS
 10
121.7667331034
 20
198.8189456412
 11
121.7667331034
 21
199.0189456412
  0
LINE
  5
303
100
AcDbEntity
  8
0
100
AcDbLine
 62
7
  6
CONTINUOUS
 10
122.4321786954
 20
198.8189456412
 11
122.4321786954
 21
199.0189456412
  0
LINE
  5
304
100
AcDbEntity
  8
0
100
AcDbLine
 62
7
  6
CONTINUOUS
 10
123.0764583303
 20
198.8189456412
 11
123.0764583303
 21
199.0189456412
  0
LINE
  5
305
100
AcDbEntity
  8
KONSTRUKTIONSELEMENTE
100
AcDbLine
 62
7
  6
CONTINUOUS
 10
139.8602994357
 20
276.6154622899
 11
139.7020423051
 21
275.9100885804
  0
LINE
  5
306
100
AcDbEntity
  8
0
100
AcDbLine
 62
7
  6
CONTINUOUS
 10
139.8608828564
 20
276.6176122596
 11
139.7021404967
 21
275.9108249773
  0
LINE
  5
307
100
AcDbEntity
  8
0
100
AcDbLine
 62
7
  6
CONTINUOUS
 10
141.0386395337
 20
183.8189456412
 11
98.8743989666
 21
183.8189456412
  0
LINE
  5
308
100
AcDbEntity
  8
KONSTRUKTIONSELEMENTE
100
AcDbLine
 62
7
  6
CONTINUOUS
 10
100.5897892758
 20
184.3189456412
 11
141.0386395337
 21
184.3189456412
  0
LWPOLYLINE
  5
309
100
AcDbEntity
  8
0
100
AcDbPolyline
 62
7
  6
CONTINUOUS
 90
12
 70
0
 10
140.964003575
 20
158.1193789362
 10
141.0097488891
 20
158.0416908351
 10
141.05675538
 20
157.9638523616
 10
141.1050120253
 20
157.8859333073
 10
141.1545342731
 20
157.8079578804
 10
141.2053280854
 20
157.7299647105
 10
141.2574016111
 20
157.6519878805
 10
141.3107606238
 20
157.5740640594
 10
141.3654111626
 20
157.4962284786
 10
141.4213579838
 20
157.4185172238
 10
141.4786048399
 20
157.3409667496
 10
141.5371549285
 20
157.2636132328
  0
LINE
  5
30A
100
AcDbEntity
  8
0
100
AcDbLine
 62
7
  6
CONTINUOUS
 10
123.5556042156
 20
198.8189456412
 11
123.5556042156
 21
199.0189456412
  0
LINE
  5
30B
100
AcDbEntity
  8
0
100
AcDbLine
 62
7
  6
CONTINUOUS
 10
125.2240571134
 20
198.8189456412
 11
125.2240571134
 21
199.0189456412
  0
LINE
  5
30C
100
AcDbEntity
  8
0
100
AcDbLine
 62
7
  6
CONTINUOUS
 10
125.8683367483
 20
198.8189456412
 11
125.8683367483
 21
199.0189456412
  0
LINE
  5
30D
100
AcDbEntity
  8
0
100
AcDbLine
 62
7
  6
CONTINUOUS
 10
129.2410847768
 20
198.8189456412
 11
129.2410847768
 21
199.0189456412
  0
LINE
  5
30E
100
AcDbEntity
  8
0
100
AcDbLine
 62
7
  6
CONTINUOUS
 10
129.2716266631
 20
198.8189456412
 11
129.2716266631
 21
199.0189456412
  0
LINE
  5
30F
100
AcDbEntity
  8
0
100
AcDbLine
 62
7
  6
CONTINUOUS
 10
129.3986129359
 20
198.8189456412
 11
129.3986129359
 21
199.0189456412
  0
LINE
  5
310
100
AcDbEntity
  8
0
100
AcDbLine
 62
7
  6
CONTINUOUS
 10
129.629679693
 20
198.8189456412
 11
129.629679693
 21
199.0189456412
  0
LINE
  5
311
100
AcDbEntity
  8
KONSTRUKTIONSELEMENTE
100
AcDbLine
 62
7
  6
CONTINUOUS
 10
139.7018795013
 20
275.9093629412
 11
139.6063803722
 21
275.1924149948
  0
LINE
  5
312
100
AcDbEntity
  8
0
100
AcDbLine
 62
7
  6
CONTINUOUS
 10
139.7020423051
 20
275.9100885804
 11
139.6063803722
 21
275.1924149948
  0
LINE
  5
313
100
AcDbEntity
  8
0
100
AcDbLine
 62
7
  6
CONTINUOUS
 10
130.4675465929
 20
198.8189456412
 11
130.4675465929
 21
199.0189456412
  0
LINE
  5
314
100
AcDbEntity
  8
0
100
AcDbLine
 62
7
  6
CONTINUOUS
 10
130.7950578734
 20
198.8189456412
 11
130.7950578734
 21
199.0189456412
  0
LINE
  5
315
100
AcDbEntity
  8
0
100
AcDbLine
 62
7
  6
CONTINUOUS
 10
131.1149339446
 20
198.8189456412
 11
131.1149339446
 21
199.0189456412
  0
LINE
  5
316
100
AcDbEntity
  8
0
100
AcDbLine
 62
7
  6
CONTINUOUS
 10
131.5312543828
 20
198.8189456412
 11
131.5312543828
 21
199.0189456412
  0
LINE
  5
317
100
AcDbEntity
  8
BEZUGSACHSEN
100
AcDbLine
 62
7
  6
CONTINUOUS
 10
131.7667038121
 20
184.3189456412
 11
131.7667038121
 21
197.2112504866
  0
LINE
  5
318
100
AcDbEntity
  8
0
100
AcDbLine
 62
7
  6
CONTINUOUS
 10
131.8358592447
 20
198.8189456412
 11
131.8358592447
 21
199.0189456412
  0
LINE
  5
319
100
AcDbEntity
  8
0
100
AcDbLine
 62
7
  6
CONTINUOUS
 10
132.1328290538
 20
198.8189456412
 11
132.1328290538
 21
199.0189456412
  0
LINE
  5
31A
100
AcDbEntity
  8
0
100
AcDbLine
 62
7
  6
CONTINUOUS
 10
133.2901658718
 20
198.8189456412
 11
133.2901658718
 21
199.0189456412
  0
LINE
  5
31B
100
AcDbEntity
  8
BEZUGSACHSEN
100
AcDbLine
 62
7
  6
CONTINUOUS
 10
133.3743989666
 20
105.3189456412
 11
133.3743989666
 21
141.0189456412
  0
LINE
  5
31C
100
AcDbEntity
  8
0
100
AcDbLine
 62
7
  6
CONTINUOUS
 10
134.1673039707
 20
198.8189456412
 11
134.1673039707
 21
199.0189456412
  0
LINE
  5
31D
100
AcDbEntity
  8
0
100
AcDbLine
 62
7
  6
CONTINUOUS
 10
134.3458671024
 20
198.8189456412
 11
134.3458671024
 21
199.0189456412
  0
LINE
  5
31E
100
AcDbEntity
  8
0
100
AcDbLine
 62
7
  6
CONTINUOUS
 10
135.0601196294
 20
198.8189456412
 11
135.0601196294
 21
199.0189456412
  0
LINE
  5
31F
100
AcDbEntity
  8
0
100
AcDbLine
 62
7
  6
CONTINUOUS
 10
135.2386828462
 20
198.8189456412
 11
135.2386828462
 21
199.0189456412
  0
LINE
  5
320
100
AcDbEntity
  8
0
100
AcDbLine
 62
7
  6
CONTINUOUS
 10
135.4381890978
 20
198.8189456412
 11
135.4381890978
 21
199.0189456412
  0
LINE
  5
321
100
AcDbEntity
  8
0
100
AcDbLine
 62
7
  6
CONTINUOUS
 10
135.6961646164
 20
198.8189456412
 11
135.6961646164
 21
199.0189456412
  0
LINE
  5
322
100
AcDbEntity
  8
0
100
AcDbLine
 62
7
  6
CONTINUOUS
 10
135.8154398541
 20
198.8189456412
 11
135.8154398541
 21
199.0189456412
  0
LINE
  5
323
100
AcDbEntity
  8
0
100
AcDbLine
 62
7
  6
CONTINUOUS
 10
136.0332947484
 20
198.8189456412
 11
136.0332947484
 21
199.0189456412
  0
LINE
  5
324
100
AcDbEntity
  8
0
100
AcDbLine
 62
7
  6
CONTINUOUS
 10
139.6063803722
 20
275.1924149948
 11
139.5743989666
 21
274.4690997278
  0
LINE
  5
325
100
AcDbEntity
  8
KONSTRUKTIONSELEMENTE
100
AcDbLine
 62
7
  6
CONTINUOUS
 10
139.6063803722
 20
275.1924149948
 11
139.5743989666
 21
274.4690997278
  0
LINE
  5
326
100
AcDbEntity
  8
KONSTRUKTIONSELEMENTE
100
AcDbLine
 62
7
  6
CONTINUOUS
 10
141.0387702851
 20
194.1689456412
 11
142.0743989666
 21
194.1689456412
  0
LINE
  5
327
100
AcDbEntity
  8
0
100
AcDbLine
 62
7
  6
CONTINUOUS
 10
154.0743989666
 20
194.1689456412
 11
155.1100276482
 21
194.1689456412
  0
LINE
  5
328
100
AcDbEntity
  8
KONSTRUKTIONSELEMENTE
100
AcDbLine
 62
7
  6
CONTINUOUS
 10
142.0743989666
 20
197.9652933198
 11
141.5743989666
 21
197.9652933198
  0
LINE
  5
329
100
AcDbEntity
  8
BEZUGSACHSEN
100
AcDbLine
 62
7
  6
CONTINUOUS
 10
103.3743989666
 20
198.8189456412
 11
139.3743989666
 21
198.8189456412
  0
LINE
  5
32A
100
AcDbEntity
  8
0
100
AcDbLine
 62
7
  6
CONTINUOUS
 10
114.5044975963
 20
199.0189456412
 11
117.5295107665
 21
199.0189456412
  0
LINE
  5
32B
100
AcDbEntity
  8
0
100
AcDbLine
 62
7
  6
CONTINUOUS
 10
118.1899437711
 20
199.0189456412
 11
121.1568478992
 21
199.0189456412
  0
LINE
  5
32C
100
AcDbEntity
  8
0
100
AcDbLine
 62
7
  6
CONTINUOUS
 10
121.7667331034
 20
199.0189456412
 11
125.8683367483
 21
199.0189456412
  0
LINE
  5
32D
100
AcDbEntity
  8
0
100
AcDbLine
 62
7
  6
CONTINUOUS
 10
129.2410847768
 20
199.0189456412
 11
136.0332947484
 21
199.0189456412
  0
LINE
  5
32E
100
AcDbEntity
  8
KONSTRUKTIONSELEMENTE
100
AcDbLine
 62
7
  6
CONTINUOUS
 10
142.0743989666
 20
200.4444599169
 11
141.5743989666
 21
200.4444599169
  0
LWPOLYLINE
  5
32F
100
AcDbEntity
  8
0
100
AcDbPolyline
 62
7
  6
CONTINUOUS
 90
29
 70
0
 10
140.156530811
 20
160.0122588407
 10
140.1710889396
 20
159.9626750145
 10
140.1876710589
 20
159.9074775915
 10
140.205829154
 20
159.848517853
 10
140.2252054876
 20
159.7872058021
 10
140.2452733183
 20
159.7253331838
 10
140.2658337551
 20
159.6635398877
 10
140.2862634305
 20
159.6036292287
 10
140.3070861016
 20
159.5439837771
 10
140.3284060772
 20
159.484283647
 10
140.3509484556
 20
159.4225857888
 10
140.3760699819
 20
159.3554899318
 10
140.4026484661
 20
159.2863068363
 10
140.429745066
 20
159.2175718193
 10
140.4577391147
 20
159.1483493134
 10
140.486670107
 20
159.0786033636
 10
140.5165642642
 20
159.0083328181
 10
140.5474589326
 20
158.9375123634
 10
140.5793299153
 20
158.8662562175
 10
140.6121039197
 20
158.7947745655
 10
140.6459229702
 20
158.7228056655
 10
140.68090888
 20
158.6501563528
 10
140.7171606658
 20
158.5767102421
 10
140.7549032545
 20
158.5021233706
 10
140.7940360118
 20
158.4267063468
 10
140.8344868253
 20
158.3506897097
 10
140.8762964454
 20
158.2740799771
 10
140.9194914383
 20
158.1969108635
 10
140.964003575
 20
158.1193789362
  0
LWPOLYLINE
  5
330
100
AcDbEntity
  8
KONSTRUKTIONSELEMENTE
100
AcDbPolyline
 62
7
  6
CONTINUOUS
 90
41
 70
0
 10
140.1564687049
 20
160.0124726688
 10
140.1710061676
 20
159.962953917
 10
140.1875627999
 20
159.9078336722
 10
140.2057051585
 20
159.8489154227
 10
140.2250692857
 20
159.7876312626
 10
140.2451261963
 20
159.7257810409
 10
140.2656793519
 20
159.6639981963
 10
140.2861108514
 20
159.6040714314
 10
140.3069336092
 20
159.5444156445
 10
140.3282363662
 20
159.4847536398
 10
140.3507590354
 20
159.4230982473
 10
140.3758723262
 20
159.3560112398
 10
140.4024462028
 20
159.2868265922
 10
140.4295378207
 20
159.2180909275
 10
140.4575281103
 20
159.1488645541
 10
140.4864565997
 20
159.079111678
 10
140.5163499856
 20
159.0088302776
 10
140.5472460562
 20
158.9379943337
 10
140.579120805
 20
158.8667180168
 10
140.6119024546
 20
158.7952086391
 10
140.6457295116
 20
158.7232123867
 10
140.6807182148
 20
158.650547487
 10
140.7169736462
 20
158.5770845205
 10
140.7547260136
 20
158.5024693111
 10
140.7938738827
 20
158.4270149225
 10
140.8343480437
 20
158.3509472634
 10
140.8761835495
 20
158.274284256
 10
140.9194017364
 20
158.1970691101
 10
140.9639341943
 20
158.1194982693
 10
141.0096934116
 20
158.041783872
 10
141.0567115898
 20
157.9639239681
 10
141.1049816013
 20
157.8859818195
 10
141.1545172474
 20
157.8079843543
 10
141.205324227
 20
157.7299705612
 10
141.2574103207
 20
157.6519750006
 10
141.3107809493
 20
157.5740347457
 10
141.3654417137
 20
157.4961855073
 10
141.4213969388
 20
157.4184637871
 10
141.478649864
 20
157.3409065154
 10
141.5372031782
 20
157.2635502809
 10
141.5866319182
 20
157.1997272691
  0
LWPOLYLINE
  5
331
100
AcDbEntity
  8
0
100
AcDbPolyline
 62
7
  6
CONTINUOUS
 90
7
 70
0
 10
140.0674761598
 20
160.3424732756
 10
140.0812330262
 20
160.2878623663
 10
140.0936911017
 20
160.2396787295
 10
140.1064525465
 20
160.1914873232
 10
140.1209563413
 20
160.1380469391
 10
140.1350729668
 20
160.0872904586
 10
140.156530811
 20
160.0122588407
  0
LWPOLYLINE
  5
332
100
AcDbEntity
  8
KONSTRUKTIONSELEMENTE
100
AcDbPolyline
 62
7
  6
CONTINUOUS
 90
7
 70
0
 10
140.0674409701
 20
160.3426149567
 10
140.0811928384
 20
160.2880197049
 10
140.0936451118
 20
160.239854487
 10
140.1063999873
 20
160.1916834953
 10
140.1208948875
 20
160.1382705327
 10
140.1350046205
 20
160.0875333771
 10
140.1564687049
 20
160.0124726688
  0
LINE
  5
333
100
AcDbEntity
  8
0
100
AcDbLine
 62
7
  6
CONTINUOUS
 10
140.0495665256
 20
160.4159393574
 11
140.0674761598
 21
160.3424732756
  0
LINE
  5
334
100
AcDbEntity
  8
KONSTRUKTIONSELEMENTE
100
AcDbLine
 62
7
  6
CONTINUOUS
 10
140.0495431693
 20
160.4160369485
 11
140.0674409701
 21
160.3426149567
  0
LINE
  5
335
100
AcDbEntity
  8
0
100
AcDbLine
 62
7
  6
CONTINUOUS
 10
139.9702606362
 20
160.7826268359
 11
139.9995349326
 21
160.6601618202
  0
LINE
  5
336
100
AcDbEntity
  8
KONSTRUKTIONSELEMENTE
100
AcDbLine
 62
7
  6
CONTINUOUS
 10
139.961247897
 20
160.8303831167
 11
140.1040661047
 21
160.203335492
  0
LWPOLYLINE
  5
337
100
AcDbEntity
  8
0
100
AcDbPolyline
 62
7
  6
CONTINUOUS
 90
4
 70
0
 10
140.0164582615
 20
160.5598063056
 10
140.0253656616
 20
160.5199325117
 10
140.0351903062
 20
160.4769883314
 10
140.0495665256
 20
160.4159393574
  0
LINE
  5
338
100
AcDbEntity
  8
0
100
AcDbLine
 62
7
  6
CONTINUOUS
 10
139.9952051513
 20
160.6591254532
 11
140.0006531551
 21
160.6329964643
  0
LWPOLYLINE
  5
339
100
AcDbEntity
  8
KONSTRUKTIONSELEMENTE
100
AcDbPolyline
 62
7
  6
CONTINUOUS
 90
7
 70
0
 10
139.9952048805
 20
160.6591267554
 10
140.0006513489
 20
160.6330049308
 10
140.0080472773
 20
160.5983371218
 10
140.0164487193
 20
160.5598495231
 10
140.0253530271
 20
160.5199884203
 10
140.0351752502
 20
160.4770533524
 10
140.0495431693
 20
160.4160369485
  0
LINE
  5
33A
100
AcDbEntity
  8
0
100
AcDbLine
 62
7
  6
CONTINUOUS
 10
139.9952051513
 20
160.6591254532
 11
139.9754147425
 21
160.757283986
  0
LINE
  5
33B
100
AcDbEntity
  8
KONSTRUKTIONSELEMENTE
100
AcDbLine
 62
7
  6
CONTINUOUS
 10
139.9952048805
 20
160.6591267554
 11
139.9751655331
 21
160.7585610083
  0
LINE
  5
33C
100
AcDbEntity
  8
0
100
AcDbLine
 62
7
  6
CONTINUOUS
 10
139.9582650038
 20
160.8514890329
 11
139.9606613817
 21
160.8383255149
  0
LINE
  5
33D
100
AcDbEntity
  8
0
100
AcDbLine
 62
7
  6
CONTINUOUS
 10
139.9655294057
 20
160.8115850244
 11
139.9754147425
 21
160.757283986
  0
LINE
  5
33E
100
AcDbEntity
  8
0
100
AcDbLine
 62
7
  6
CONTINUOUS
 10
139.9225109856
 20
161.0672348722
 11
139.9380589551
 21
160.9626258859
  0
LINE
  5
33F
100
AcDbEntity
  8
0
100
AcDbLine
 62
7
  6
CONTINUOUS
 10
139.865511308
 20
161.4999223308
 11
139.9702606362
 21
160.7826268359
  0
LINE
  5
340
100
AcDbEntity
  8
KONSTRUKTIONSELEMENTE
100
AcDbLine
 62
7
  6
CONTINUOUS
 10
139.8628955889
 20
161.5262898879
 11
139.961247897
 21
160.8303831167
  0
LINE
  5
341
100
AcDbEntity
  8
0
100
AcDbLine
 62
7
  6
CONTINUOUS
 10
139.8249376285
 20
162.2236639135
 11
139.865511308
 21
161.4999223308
  0
LINE
  5
342
100
AcDbEntity
  8
KONSTRUKTIONSELEMENTE
100
AcDbLine
 62
7
  6
CONTINUOUS
 10
139.8245165561
 20
162.2735723887
 11
139.8628955889
 21
161.5262898879
  0
LWPOLYLINE
  5
343
100
AcDbEntity
  8
KONSTRUKTIONSELEMENTE
100
AcDbPolyline
 62
7
  6
CONTINUOUS
 90
6
 70
0
 10
139.8243988844
 20
162.3189213176
 10
139.8315263168
 20
161.9781474801
 10
139.8542134526
 20
161.6224339507
 10
139.8903468592
 20
161.2841997766
 10
139.937841717
 20
160.9638205706
 10
139.9751655331
 20
160.7585610083
  0
LINE
  5
344
100
AcDbEntity
  8
0
100
AcDbLine
 62
7
  6
CONTINUOUS
 10
137.8743989666
 20
178.6689456412
 11
137.8743989666
 21
178.4189456412
  0
LINE
  5
345
100
AcDbEntity
  8
0
100
AcDbLine
 62
7
  6
CONTINUOUS
 10
137.8743989666
 20
146.4189456412
 11
137.8743989666
 21
146.1689456412
  0
LINE
  5
346
100
AcDbEntity
  8
KONSTRUKTIONSELEMENTE
100
AcDbLine
 62
7
  6
CONTINUOUS
 10
137.9743989666
 20
183.8189456412
 11
137.9743989666
 21
184.3189456412
  0
LINE
  5
347
100
AcDbEntity
  8
BEZUGSACHSEN
100
AcDbLine
 62
7
  6
CONTINUOUS
 10
137.9743989666
 20
183.8189456412
 11
137.9743989666
 21
184.3189456412
  0
LINE
  5
348
100
AcDbEntity
  8
0
100
AcDbLine
 62
7
  6
CONTINUOUS
 10
139.5743989666
 20
274.469071398
 11
139.5743989666
 21
273.5689456412
  0
LINE
  5
349
100
AcDbEntity
  8
KONSTRUKTIONSELEMENTE
100
AcDbLine
 62
7
  6
CONTINUOUS
 10
139.8243989666
 20
162.3189318222
 11
139.8243989666
 21
162.8689456412
  0
LINE
  5
34A
100
AcDbEntity
  8
0
100
AcDbLine
 62
7
  6
CONTINUOUS
 10
140.8243989666
 20
278.8207770546
 11
140.8243989666
 21
268.091749316
  0
LINE
  5
34B
100
AcDbEntity
  8
KONSTRUKTIONSELEMENTE
100
AcDbLine
 62
7
  6
CONTINUOUS
 10
141.0743989666
 20
250.7599007644
 11
141.0743989666
 21
241.8324570607
  0
LINE
  5
34C
100
AcDbEntity
  8
0
100
AcDbLine
 62
7
  6
CONTINUOUS
 10
141.0743989666
 20
250.7598990877
 11
141.0743989666
 21
240.9148941177
  0
LINE
  5
34D
100
AcDbEntity
  8
KONSTRUKTIONSELEMENTE
100
AcDbLine
 62
7
  6
CONTINUOUS
 10
141.0743989666
 20
239.6227187483
 11
141.0743989666
 21
219.1689456412
  0
LINE
  5
34E
100
AcDbEntity
  8
0
100
AcDbLine
 62
7
  6
CONTINUOUS
 10
141.0743989666
 20
239.6227187483
 11
141.0743989666
 21
240.1443351026
  0
LINE
  5
34F
100
AcDbEntity
  8
KONSTRUKTIONSELEMENTE
100
AcDbLine
 62
7
  6
CONTINUOUS
 10
141.5743989666
 20
197.548775049
 11
141.5743989666
 21
202.6319601255
  0
LINE
  5
350
100
AcDbEntity
  8
KONSTRUKTIONSELEMENTE
100
AcDbLine
 62
7
  6
CONTINUOUS
 10
141.5743989666
 20
203.7986265141
 11
141.5743989666
 21
205.7358422091
  0
LINE
  5
351
100
AcDbEntity
  8
0
100
AcDbLine
 62
7
  6
CONTINUOUS
 10
141.5743989666
 20
205.7358422091
 11
141.5743989666
 21
210.1356121721
  0
LINE
  5
352
100
AcDbEntity
  8
KONSTRUKTIONSELEMENTE
100
AcDbLine
 62
7
  6
CONTINUOUS
 10
141.5743989666
 20
210.2152933198
 11
141.5743989666
 21
212.5358422091
  0
LINE
  5
353
100
AcDbEntity
  8
0
100
AcDbLine
 62
7
  6
CONTINUOUS
 10
141.5743989666
 20
212.5358422091
 11
141.5743989666
 21
216.9356121721
  0
LINE
  5
354
100
AcDbEntity
  8
0
100
AcDbLine
 62
7
  6
CONTINUOUS
 10
141.9631289822
 20
251.8071514077
 11
141.9631289822
 21
235.1274568731
  0
LINE
  5
355
100
AcDbEntity
  8
KONSTRUKTIONSELEMENTE
100
AcDbLine
 62
7
  6
CONTINUOUS
 10
142.0743989666
 20
219.1689456412
 11
142.0743989666
 21
194.1689456412
  0
LINE
  5
356
100
AcDbEntity
  8
KONSTRUKTIONSELEMENTE
100
AcDbLine
 62
7
  6
CONTINUOUS
 10
141.0386395337
 20
194.1689456412
 11
141.0362856922
 21
177.6981063349
  0
LINE
  5
357
100
AcDbEntity
  8
KONSTRUKTIONSELEMENTE
100
AcDbLine
 62
7
  6
CONTINUOUS
 10
141.0362856922
 20
177.6981063349
 11
141.0273529301
 21
176.5394706898
  0
LINE
  5
358
100
AcDbEntity
  8
KONSTRUKTIONSELEMENTE
100
AcDbLine
 62
7
  6
CONTINUOUS
 10
141.0273529301
 20
176.5394706898
 11
141.0119963895
 21
175.417777015
  0
LINE
  5
359
100
AcDbEntity
  8
KONSTRUKTIONSELEMENTE
100
AcDbLine
 62
7
  6
CONTINUOUS
 10
141.0119963895
 20
175.417777015
 11
140.9905246778
 21
174.3358970195
  0
LINE
  5
35A
100
AcDbEntity
  8
KONSTRUKTIONSELEMENTE
100
AcDbLine
 62
7
  6
CONTINUOUS
 10
140.9905246778
 20
174.3358970195
 11
140.9632633904
 21
173.2966587267
  0
LINE
  5
35B
100
AcDbEntity
  8
KONSTRUKTIONSELEMENTE
100
AcDbLine
 62
7
  6
CONTINUOUS
 10
140.9632633904
 20
173.2966587267
 11
140.9305842696
 21
172.3029929827
  0
LINE
  5
35C
100
AcDbEntity
  8
KONSTRUKTIONSELEMENTE
100
AcDbLine
 62
7
  6
CONTINUOUS
 10
140.9305842696
 20
172.3029929827
 11
140.8928849473
 21
171.3587400705
  0
LINE
  5
35D
100
AcDbEntity
  8
KONSTRUKTIONSELEMENTE
100
AcDbLine
 62
7
  6
CONTINUOUS
 10
140.8928849473
 20
171.3587400705
 11
140.8507113616
 21
170.4697155067
  0
LWPOLYLINE
  5
35E
100
AcDbEntity
  8
KONSTRUKTIONSELEMENTE
100
AcDbPolyline
 62
7
  6
CONTINUOUS
 90
19
 70
0
 10
140.8507113616
 20
170.4697155067
 10
140.8046246422
 20
169.639266684
 10
140.7803039673
 20
169.2470869226
 10
140.7552390228
 20
168.8708167409
 10
140.7295179289
 20
168.5108682699
 10
140.7032375996
 20
168.1676685246
 10
140.6764967928
 20
167.8415484479
 10
140.6494268555
 20
167.5330761609
 10
140.6221619162
 20
167.2427571801
 10
140.5948751534
 20
166.9713220214
 10
140.5677401798
 20
166.7193054957
 10
140.5410122179
 20
166.4877340341
 10
140.5149355809
 20
166.2772295435
 10
140.4899195318
 20
166.0893303406
 10
140.4663684992
 20
165.9249900302
 10
140.4448888065
 20
165.7859746386
 10
140.4260977359
 20
165.6734575387
 10
140.4109216079
 20
165.5895389499
 10
140.4038370825
 20
165.5529187865
  0
LINE
  5
35F
100
AcDbEntity
  8
KONSTRUKTIONSELEMENTE
100
AcDbLine
 62
7
  6
CONTINUOUS
 10
142.0743989666
 20
201.6111265141
 11
141.5743989666
 21
201.6111265141
  0
LINE
  5
360
100
AcDbEntity
  8
KONSTRUKTIONSELEMENTE
100
AcDbLine
 62
7
  6
CONTINUOUS
 10
142.0743989666
 20
202.6319601255
 11
141.5743989666
 21
202.6319601255
  0
LINE
  5
361
100
AcDbEntity
  8
KONSTRUKTIONSELEMENTE
100
AcDbLine
 62
7
  6
CONTINUOUS
 10
142.0743989666
 20
203.7986265141
 11
141.5743989666
 21
203.7986265141
  0
LINE
  5
362
100
AcDbEntity
  8
KONSTRUKTIONSELEMENTE
100
AcDbLine
 62
7
  6
CONTINUOUS
 10
142.0743989666
 20
203.9444601255
 11
141.5743989666
 21
203.9444601255
  0
LINE
  5
363
100
AcDbEntity
  8
KONSTRUKTIONSELEMENTE
100
AcDbLine
 62
7
  6
CONTINUOUS
 10
142.0743989666
 20
204.2361269313
 11
141.5743989666
 21
204.2361269313
  0
LINE
  5
364
100
AcDbEntity
  8
KONSTRUKTIONSELEMENTE
100
AcDbLine
 62
7
  6
CONTINUOUS
 10
142.0743989666
 20
204.8194597083
 11
141.5743989666
 21
204.8194597083
  0
LINE
  5
365
100
AcDbEntity
  8
KONSTRUKTIONSELEMENTE
100
AcDbLine
 62
7
  6
CONTINUOUS
 10
142.0743989666
 20
205.4027933198
 11
141.5743989666
 21
205.4027933198
  0
LINE
  5
366
100
AcDbEntity
  8
0
100
AcDbLine
 62
7
  6
CONTINUOUS
 10
142.0743989666
 20
205.7356121721
 11
141.5743989666
 21
205.7356121721
  0
LINE
  5
367
100
AcDbEntity
  8
BEZUGSACHSEN
100
AcDbLine
 62
7
  6
CONTINUOUS
 10
142.0743989666
 20
197.2600999144
 11
139.3743989666
 21
198.8189456412
  0
LINE
  5
368
100
AcDbEntity
  8
KONSTRUKTIONSELEMENTE
100
AcDbLine
 62
7
  6
CONTINUOUS
 10
139.5960789193
 20
272.9481130249
 11
139.9237586568
 21
268.2620744607
  0
LINE
  5
369
100
AcDbEntity
  8
0
100
AcDbLine
 62
7
  6
CONTINUOUS
 10
140.353550499
 20
262.1157647652
 11
139.5960789193
 21
272.9481130249
  0
LINE
  5
36A
100
AcDbEntity
  8
0
100
AcDbLine
 62
7
  6
CONTINUOUS
 10
140.8243989666
 20
268.091749316
 11
141.9631289822
 21
251.8071514077
  0
LINE
  5
36B
100
AcDbEntity
  8
0
100
AcDbLine
 62
7
  6
CONTINUOUS
 10
143.8743989666
 20
146.1689456412
 11
143.8743989666
 21
141.0189456412
  0
LWPOLYLINE
  5
36C
100
AcDbEntity
  8
0
100
AcDbPolyline
 62
7
  6
CONTINUOUS
 90
3
 70
0
 10
140.5174658024
 20
166.2976848584
 10
140.5148049732
 20
166.2762129602
 10
140.489792569
 20
166.0884116396
  0
LWPOLYLINE
  5
36D
100
AcDbEntity
  8
0
100
AcDbPolyline
 62
7
  6
CONTINUOUS
 90
6
 70
0
 10
140.489792569
 20
166.0884116396
 10
140.4662480243
 20
165.9241809738
 10
140.4447782991
 20
165.785287308
 10
140.4260012881
 20
165.6729035089
 10
140.4108451115
 20
165.5891338178
 10
140.40708097
 20
165.5696865561
  0
LINE
  5
36E
100
AcDbEntity
  8
0
100
AcDbLine
 62
7
  6
CONTINUOUS
 10
142.0743989666
 20
210.1356121721
 11
141.5743989666
 21
210.1356121721
  0
LINE
  5
36F
100
AcDbEntity
  8
KONSTRUKTIONSELEMENTE
100
AcDbLine
 62
7
  6
CONTINUOUS
 10
142.0743989666
 20
210.2152933198
 11
141.5743989666
 21
210.2152933198
  0
LINE
  5
370
100
AcDbEntity
  8
0
100
AcDbLine
 62
7
  6
CONTINUOUS
 10
142.0743989666
 20
212.5356121721
 11
141.5743989666
 21
212.5356121721
  0
LINE
  5
371
100
AcDbEntity
  8
0
100
AcDbLine
 62
7
  6
CONTINUOUS
 10
155.3627135312
 20
169.3377568852
 11
155.3159186374
 21
170.133361062
  0
LINE
  5
372
100
AcDbEntity
  8
0
100
AcDbLine
 62
7
  6
CONTINUOUS
 10
155.3159186374
 20
170.133361062
 11
155.2727158557
 21
170.9868671133
  0
LINE
  5
373
100
AcDbEntity
  8
0
100
AcDbLine
 62
7
  6
CONTINUOUS
 10
155.2727158557
 20
170.9868671133
 11
155.2336494298
 21
171.8953481524
  0
LINE
  5
374
100
AcDbEntity
  8
0
100
AcDbLine
 62
7
  6
CONTINUOUS
 10
155.2336494298
 20
171.8953481524
 11
155.1992373466
 21
172.8545674445
  0
LINE
  5
375
100
AcDbEntity
  8
0
100
AcDbLine
 62
7
  6
CONTINUOUS
 10
155.1992373466
 20
172.8545674445
 11
155.1699156713
 21
173.8600940331
  0
LINE
  5
376
100
AcDbEntity
  8
0
100
AcDbLine
 62
7
  6
CONTINUOUS
 10
155.1699156713
 20
173.8600940331
 11
155.1460528576
 21
174.9091744785
  0
LINE
  5
377
100
AcDbEntity
  8
0
100
AcDbLine
 62
7
  6
CONTINUOUS
 10
155.1460528576
 20
174.9091744785
 11
155.1279890498
 21
175.9995890782
  0
LINE
  5
378
100
AcDbEntity
  8
0
100
AcDbLine
 62
7
  6
CONTINUOUS
 10
155.1279890498
 20
175.9995890782
 11
155.116047799
 21
177.1288857697
  0
LINE
  5
379
100
AcDbEntity
  8
0
100
AcDbLine
 62
7
  6
CONTINUOUS
 10
155.116047799
 20
177.1288857697
 11
155.1105234138
 21
178.2953415674
  0
LINE
  5
37A
100
AcDbEntity
  8
0
100
AcDbLine
 62
7
  6
CONTINUOUS
 10
154.0743989666
 20
219.1689456412
 11
154.0743989666
 21
194.1689456412
  0
LINE
  5
37B
100
AcDbEntity
  8
0
100
AcDbLine
 62
7
  6
CONTINUOUS
 10
154.1856689511
 20
251.8071514077
 11
154.1856689511
 21
235.1274568731
  0
LINE
  5
37C
100
AcDbEntity
  8
0
100
AcDbLine
 62
7
  6
CONTINUOUS
 10
155.0743989666
 20
250.7598970975
 11
155.0743989666
 21
240.9148941177
  0
LINE
  5
37D
100
AcDbEntity
  8
0
100
AcDbLine
 62
7
  6
CONTINUOUS
 10
155.0743989666
 20
219.1689456412
 11
155.0743989666
 21
240.1443351026
  0
LINE
  5
37E
100
AcDbEntity
  8
0
100
AcDbLine
 62
7
  6
CONTINUOUS
 10
155.1101583996
 20
194.1689456412
 11
155.1105234138
 21
178.2953415674
  0
LINE
  5
37F
100
AcDbEntity
  8
0
100
AcDbLine
 62
7
  6
CONTINUOUS
 10
155.3243989666
 20
268.091749316
 11
154.1856689511
 21
251.8071514077
  0
LINE
  5
380
100
AcDbEntity
  8
0
100
AcDbLine
 62
7
  6
CONTINUOUS
 10
155.7952474343
 20
262.1157647652
 11
156.552719014
 21
272.9481130249
  0
LINE
  5
381
100
AcDbEntity
  8
0
100
AcDbLine
 62
7
  6
CONTINUOUS
 10
142.0743989666
 20
216.9356121721
 11
141.5743989666
 21
216.9356121721
  0
LINE
  5
382
100
AcDbEntity
  8
KONSTRUKTIONSELEMENTE
100
AcDbLine
 62
7
  6
CONTINUOUS
 10
142.0743989666
 20
219.1689456412
 11
141.0743989666
 21
219.1689456412
  0
LINE
  5
383
100
AcDbEntity
  8
0
100
AcDbLine
 62
7
  6
CONTINUOUS
 10
154.0743989666
 20
219.1689456412
 11
155.0743989666
 21
219.1689456412
  0
LWPOLYLINE
  5
384
100
AcDbEntity
  8
0
100
AcDbPolyline
 62
7
  6
CONTINUOUS
 90
19
 70
0
 10
155.7529131555
 20
165.5146117854
 10
155.7522380572
 20
165.517708507
 10
155.7455521673
 20
165.5499526299
 10
155.7333591257
 20
165.6137995906
 10
155.7169212091
 20
165.7071039108
 10
155.697150488
 20
165.8285639717
 10
155.6749019878
 20
165.9761831851
 10
155.6507929464
 20
166.14856378
 10
155.625423155
 20
166.3437100925
 10
155.599170514
 20
166.5606082344
 10
155.5724351462
 20
166.797506647
 10
155.5454220644
 20
167.0539013082
 10
155.5183503783
 20
167.3289074707
 10
155.4913814381
 20
167.6219567394
 10
155.4646736177
 20
167.9323229674
 10
155.4383470886
 20
168.2595334748
 10
155.412519715
 20
168.603067629
 10
155.3872789794
 20
168.9626119073
 10
155.3627135312
 20
169.3377568852
  0
LINE
  5
385
100
AcDbEntity
  8
0
100
AcDbLine
 62
7
  6
CONTINUOUS
 10
156.5743989666
 20
274.4690997278
 11
156.5424175611
 21
275.1924149948
  0
LINE
  5
386
100
AcDbEntity
  8
0
100
AcDbLine
 62
7
  6
CONTINUOUS
 10
155.3243989666
 20
278.8207770546
 11
155.3243989666
 21
268.091749316
  0
LINE
  5
387
100
AcDbEntity
  8
0
100
AcDbLine
 62
7
  6
CONTINUOUS
 10
156.3243989666
 20
162.8689456412
 11
156.3243989666
 21
162.3189318222
  0
LINE
  5
388
100
AcDbEntity
  8
0
100
AcDbLine
 62
7
  6
CONTINUOUS
 10
156.5743989666
 20
274.4690713981
 11
156.5743989666
 21
273.5689456412
  0
LINE
  5
389
100
AcDbEntity
  8
0
100
AcDbLine
 62
7
  6
CONTINUOUS
 10
156.2821434106
 20
161.488664261
 11
156.3240437226
 21
162.2412666895
  0
LINE
  5
38A
100
AcDbEntity
  8
0
100
AcDbLine
 62
7
  6
CONTINUOUS
 10
156.1843154393
 20
160.8130631441
 11
156.2821434106
 21
161.488664261
  0
LWPOLYLINE
  5
38B
100
AcDbEntity
  8
0
100
AcDbPolyline
 62
7
  6
CONTINUOUS
 90
6
 70
0
 10
156.1736324413
 20
160.7585612195
 10
156.210623011
 20
160.9618456441
 10
156.2579275186
 20
161.2801172058
 10
156.2940404873
 20
161.6161202383
 10
156.3169047389
 20
161.9694908491
 10
156.3243990486
 20
162.3189214311
  0
LINE
  5
38C
100
AcDbEntity
  8
0
100
AcDbLine
 62
7
  6
CONTINUOUS
 10
156.114088607
 20
160.4929085968
 11
156.217598223
 21
161.0087758784
  0
LINE
  5
38D
100
AcDbEntity
  8
0
100
AcDbLine
 62
7
  6
CONTINUOUS
 10
156.1533798707
 20
160.6581022578
 11
156.1736324413
 21
160.7585612195
  0
LWPOLYLINE
  5
38E
100
AcDbEntity
  8
0
100
AcDbPolyline
 62
7
  6
CONTINUOUS
 90
3
 70
0
 10
156.1365195813
 20
160.5788434885
 10
156.1456508585
 20
160.6212337731
 10
156.1533798707
 20
160.6581022578
  0
LWPOLYLINE
  5
38F
100
AcDbEntity
  8
0
100
AcDbPolyline
 62
7
  6
CONTINUOUS
 90
3
 70
0
 10
156.1184734187
 20
160.4981262786
 10
156.127240713
 20
160.5368681441
 10
156.1365195813
 20
160.5788434885
  0
LINE
  5
390
100
AcDbEntity
  8
0
100
AcDbLine
 62
7
  6
CONTINUOUS
 10
156.046625663
 20
160.2093419379
 11
156.1843154393
 21
160.8130631441
  0
LINE
  5
391
100
AcDbEntity
  8
0
100
AcDbLine
 62
7
  6
CONTINUOUS
 10
156.1033766206
 20
160.4333355421
 11
156.1184734187
 21
160.4981262786
  0
LINE
  5
392
100
AcDbEntity
  8
0
100
AcDbLine
 62
7
  6
CONTINUOUS
 10
156.0940316307
 20
160.3943291279
 11
156.1033766206
 21
160.4333355421
  0
LWPOLYLINE
  5
393
100
AcDbEntity
  8
0
100
AcDbPolyline
 62
7
  6
CONTINUOUS
 90
7
 70
0
 10
156.0223924651
 20
160.1183132512
 10
156.0342401738
 20
160.1614552069
 10
156.0458722558
 20
160.2046926568
 10
156.0571770668
 20
160.2476056657
 10
156.0679247718
 20
160.289271722
 10
156.0778286752
 20
160.328461035
 10
156.0940316307
 20
160.3943291279
  0
LINE
  5
394
100
AcDbEntity
  8
0
100
AcDbLine
 62
7
  6
CONTINUOUS
 10
156.5424175611
 20
275.1924149948
 11
156.4467556282
 21
275.9100885804
  0
LWPOLYLINE
  5
395
100
AcDbEntity
  8
0
100
AcDbPolyline
 62
7
  6
CONTINUOUS
 90
31
 70
0
 10
155.1872525032
 20
158.1236097246
 10
155.2316935847
 20
158.2011248229
 10
155.2748145233
 20
158.2782680355
 10
155.3165494619
 20
158.3548463752
 10
155.3569238606
 20
158.4308237131
 10
155.3959777054
 20
158.5061915737
 10
155.4336409727
 20
158.5807226703
 10
155.4698079682
 20
158.6540952062
 10
155.5047244047
 20
158.7266961677
 10
155.5385102519
 20
158.7986901415
 10
155.5712674072
 20
158.8702324157
 10
155.6031259626
 20
158.941560735
 10
155.6340198114
 20
159.012482143
 10
155.6639268757
 20
159.08288943
 10
155.692886692
 20
159.1528159278
 10
155.7209291369
 20
159.222275141
 10
155.7480910229
 20
159.2913002292
 10
155.7747728837
 20
159.3608883223
 10
155.7999719953
 20
159.4283337727
 10
155.8224500514
 20
159.4899891734
 10
155.8437610441
 20
159.5497932026
 10
155.8648460497
 20
159.6103367979
 10
155.885560151
 20
159.6712567093
 10
155.906298529
 20
159.7337913012
 10
155.9263630651
 20
159.7958755887
 10
155.9454278474
 20
159.856415134
 10
155.963040119
 20
159.9137787065
 10
155.9788885387
 20
159.9666527075
 10
155.9924632021
 20
160.0129340003
 10
156.0021163851
 20
160.0464066133
 10
156.0223924651
 20
160.1183132512
  0
LWPOLYLINE
  5
396
100
AcDbEntity
  8
0
100
AcDbPolyline
 62
7
  6
CONTINUOUS
 90
9
 70
0
 10
154.7858859017
 20
157.4997456266
 10
154.840622149
 20
157.5777942117
 10
154.8940326917
 20
157.6558890368
 10
154.946127932
 20
157.7339979752
 10
154.9969177953
 20
157.8120876176
 10
155.0464144148
 20
157.8901273619
 10
155.0946274968
 20
157.968082149
 10
155.1415752276
 20
158.0459301539
 10
155.1872525032
 20
158.1236097246
  0
LWPOLYLINE
  5
397
100
AcDbEntity
  8
0
100
AcDbPolyline
 62
7
  6
CONTINUOUS
 90
5
 70
0
 10
154.562165914
 20
157.1997271399
 10
154.6136620375
 20
157.2662486384
 10
154.6724226934
 20
157.3439510283
 10
154.7298292997
 20
157.4217965908
 10
154.785890473
 20
157.4997520636
  0
LWPOLYLINE
  5
398
100
AcDbEntity
  8
0
100
AcDbPolyline
 62
7
  6
CONTINUOUS
 90
5
 70
0
 10
153.7078279479
 20
156.2669373672
 10
153.980124161
 20
156.5334535776
 10
154.2420925256
 20
156.815396212
 10
154.4921021988
 20
157.1114428284
 10
154.5600481085
 20
157.1970220389
  0
LWPOLYLINE
  5
399
100
AcDbEntity
  8
0
100
AcDbPolyline
 62
7
  6
CONTINUOUS
 90
5
 70
0
 10
152.547399561
 20
155.3691569214
 10
152.8447522379
 20
155.5674330425
 10
153.1384537705
 20
155.7833615764
 10
153.4267186157
 20
156.0166817184
 10
153.707825831
 20
156.2669353914
  0
LINE
  5
39A
100
AcDbEntity
  8
0
100
AcDbLine
 62
7
  6
CONTINUOUS
 10
152.2480773174
 20
155.1885171113
 11
152.5471874178
 21
155.369022344
  0
LINE
  5
39B
100
AcDbEntity
  8
0
100
AcDbLine
 62
7
  6
CONTINUOUS
 10
151.9490762045
 20
155.0256461816
 11
152.2483565387
 21
155.1886772196
  0
LWPOLYLINE
  5
39C
100
AcDbEntity
  8
0
100
AcDbPolyline
 62
7
  6
CONTINUOUS
 90
4
 70
0
 10
151.0645513908
 20
154.6364301133
 10
151.355549601
 20
154.7500378062
 10
151.6503621351
 20
154.8793195963
 10
151.9487318185
 20
155.0254682512
  0
LINE
  5
39D
100
AcDbEntity
  8
0
100
AcDbLine
 62
7
  6
CONTINUOUS
 10
150.7860355957
 20
154.5401577975
 11
151.0645513908
 21
154.6364301133
  0
LINE
  5
39E
100
AcDbEntity
  8
0
100
AcDbLine
 62
7
  6
CONTINUOUS
 10
150.5228568501
 20
154.4599752323
 11
150.7855501206
 21
154.54000035
  0
LINE
  5
39F
100
AcDbEntity
  8
0
100
AcDbLine
 62
7
  6
CONTINUOUS
 10
156.4466574366
 20
275.9108249769
 11
156.2881592775
 21
276.6165249768
  0
LINE
  5
3A0
100
AcDbEntity
  8
0
100
AcDbLine
 62
7
  6
CONTINUOUS
 10
156.287915077
 20
276.6176122592
 11
156.0678329746
 21
277.3063175142
  0
LINE
  5
3A1
100
AcDbEntity
  8
0
100
AcDbLine
 62
7
  6
CONTINUOUS
 10
156.0684405958
 20
277.3048453415
 11
156.0678329746
 21
277.3063175142
  0
LINE
  5
3A2
100
AcDbEntity
  8
0
100
AcDbLine
 62
7
  6
CONTINUOUS
 10
155.8286413221
 20
277.885470388
 11
155.813326498
 21
277.9189456412
  0
LINE
  5
3A3
100
AcDbEntity
  8
BEZUGSACHSEN
100
AcDbLine
 62
7
  6
CONTINUOUS
 10
133.3743989666
 20
105.3189456412
 11
131.8743989666
 21
103.8189456412
  0
LINE
  5
3A4
100
AcDbEntity
  8
0
100
AcDbLine
 62
7
  6
CONTINUOUS
 10
155.3243989666
 20
278.8207512168
 11
155.0548795139
 21
279.2241421447
  0
LINE
  5
3A5
100
AcDbEntity
  8
0
100
AcDbLine
 62
7
  6
CONTINUOUS
 10
155.0578924967
 20
279.2199064281
 11
154.6091410371
 21
279.7951720859
  0
LINE
  5
3A6
100
AcDbEntity
  8
0
100
AcDbLine
 62
7
  6
CONTINUOUS
 10
154.1195137437
 20
280.3199552933
 11
153.5755440865
 21
280.808400536
  0
LINE
  5
3A7
100
AcDbEntity
  8
0
100
AcDbLine
 62
7
  6
CONTINUOUS
 10
154.6129980444
 20
279.7906538828
 11
154.1147431387
 21
280.3246357014
  0
LWPOLYLINE
  5
3A8
100
AcDbEntity
  8
KONSTRUKTIONSELEMENTE
100
AcDbPolyline
 62
7
  6
CONTINUOUS
 90
11
 70
0
 10
147.7743789338
 20
282.6689455837
 10
147.2007114968
 20
282.6488547978
 10
146.4817491135
 20
282.566423586
 10
145.7728524923
 20
282.4209254372
 10
145.0795444465
 20
282.2134932924
 10
144.4072260384
 20
281.9457429422
 10
143.7611338947
 20
281.6197599707
 10
143.1463008851
 20
281.2380840279
 10
142.5675150848
 20
280.8036879282
 10
142.0292841893
 20
280.319955293
 10
141.5357998886
 20
279.7906538825
  0
LWPOLYLINE
  5
3A9
100
AcDbEntity
  8
0
100
AcDbPolyline
 62
7
  6
CONTINUOUS
 90
12
 70
0
 10
147.7743789384
 20
282.6689455837
 10
147.2133051844
 20
282.6497282448
 10
146.4934832962
 20
282.5682879965
 10
145.7836562161
 20
282.4236368967
 10
145.0893653589
 20
282.216903593
 10
144.4160305467
 20
281.9497017349
 10
143.7689070807
 20
281.6241169024
 10
143.1530462084
 20
281.2426908488
 10
142.573253847
 20
280.8084005362
 10
142.0340547949
 20
280.3246357017
 10
141.5396568965
 20
279.7951720862
 10
141.0939184197
 20
279.2241421451
  0
LINE
  5
3AA
100
AcDbEntity
  8
0
100
AcDbLine
 62
7
  6
CONTINUOUS
 10
140.8243989666
 20
277.9189456412
 11
140.3354714353
 21
277.9189456412
  0
LINE
  5
3AB
100
AcDbEntity
  8
0
100
AcDbLine
 62
7
  6
CONTINUOUS
 10
155.3243989666
 20
277.9189456412
 11
155.813326498
 21
277.9189456412
  0
LINE
  5
3AC
100
AcDbEntity
  8
KONSTRUKTIONSELEMENTE
100
AcDbLine
 62
7
  6
CONTINUOUS
 10
148.3744033177
 20
282.6689456412
 11
147.7743946156
 21
282.6689456412
  0
LINE
  5
3AD
100
AcDbEntity
  8
0
100
AcDbLine
 62
7
  6
CONTINUOUS
 10
148.9480864365
 20
282.6488547978
 11
148.3744189995
 21
282.6689455837
  0
LINE
  5
3AE
100
AcDbEntity
  8
0
100
AcDbLine
 62
7
  6
CONTINUOUS
 10
149.6670488198
 20
282.566423586
 11
148.9354927489
 21
282.6497282448
  0
LINE
  5
3AF
100
AcDbEntity
  8
0
100
AcDbLine
 62
7
  6
CONTINUOUS
 10
150.3759454409
 20
282.4209254372
 11
149.6553146372
 21
282.5682879965
  0
LINE
  5
3B0
100
AcDbEntity
  8
0
100
AcDbLine
 62
7
  6
CONTINUOUS
 10
151.0692534866
 20
282.2134932925
 11
150.3651417173
 21
282.4236368967
  0
LINE
  5
3B1
100
AcDbEntity
  8
0
100
AcDbLine
 62
7
  6
CONTINUOUS
 10
151.7415718947
 20
281.9457429423
 11
151.0594325745
 21
282.216903593
  0
LINE
  5
3B2
100
AcDbEntity
  8
0
100
AcDbLine
 62
7
  6
CONTINUOUS
 10
152.3876640384
 20
281.6197599708
 11
151.7327673868
 21
281.9497017349
  0
LINE
  5
3B3
100
AcDbEntity
  8
0
100
AcDbLine
 62
7
  6
CONTINUOUS
 10
153.0024970479
 20
281.2380840281
 11
152.3798908528
 21
281.6241169023
  0
LINE
  5
3B4
100
AcDbEntity
  8
0
100
AcDbLine
 62
7
  6
CONTINUOUS
 10
153.5812828483
 20
280.8036879284
 11
152.9957517251
 21
281.2426908486
  0
LINE
  5
3B5
100
AcDbEntity
  8
BEZUGSACHSEN
100
AcDbLine
 62
7
  6
CONTINUOUS
 10
266.053023125
 20
103.8189456412
 11
287.053023125
 21
103.8189456412
  0
LINE
  5
3B6
100
AcDbEntity
  8
BEZUGSACHSEN
100
AcDbLine
 62
7
  6
CONTINUOUS
 10
264.553023125
 20
105.3189456412
 11
288.553023125
 21
105.3189456412
  0
LINE
  5
3B7
100
AcDbEntity
  8
0
100
AcDbLine
 62
7
  6
CONTINUOUS
 10
249.553023125
 20
268.091749316
 11
276.553023125
 21
277.9189456412
  0
LINE
  5
3B8
100
AcDbEntity
  8
BEZUGSACHSEN
100
AcDbLine
 62
7
  6
CONTINUOUS
 10
266.053023125
 20
103.8189456412
 11
264.553023125
 21
105.3189456412
  0
LINE
  5
3B9
100
AcDbEntity
  8
0
100
AcDbLine
 62
7
  6
CONTINUOUS
 10
240.2121105677
 20
247.1117162105
 11
249.553023125
 21
268.091749316
  0
LINE
  5
3BA
100
AcDbEntity
  8
0
100
AcDbLine
 62
7
  6
CONTINUOUS
 10
239.0656003327
 20
235.1274568731
 11
243.053023125
 21
240.4189456412
  0
LINE
  5
3BB
100
AcDbEntity
  8
0
100
AcDbLine
 62
7
  6
CONTINUOUS
 10
254.0534163937
 20
141.0189456412
 11
299.0526298563
 21
141.0189456412
  0
LINE
  5
3BC
100
AcDbEntity
  8
0
100
AcDbLine
 62
7
  6
CONTINUOUS
 10
254.0534163937
 20
146.1689456412
 11
299.0526298563
 21
146.1689456412
  0
LINE
  5
3BD
100
AcDbEntity
  8
RUNDUNGEN
100
AcDbLine
 62
7
  6
CONTINUOUS
 10
299.553023125
 20
146.4189456412
 11
253.553023125
 21
146.4189456412
  0
LINE
  5
3BE
100
AcDbEntity
  8
0
100
AcDbLine
 62
7
  6
CONTINUOUS
 10
235.553023125
 20
253.6689456412
 11
235.553023125
 21
170.1689456412
  0
LINE
  5
3BF
100
AcDbEntity
  8
KONSTRUKTIONSELEMENTE
100
AcDbLine
 62
7
  6
CONTINUOUS
 10
238.8835815251
 20
214.4444605428
 11
238.7346453727
 21
213.7152933198
  0
LINE
  5
3C0
100
AcDbEntity
  8
KONSTRUKTIONSELEMENTE
100
AcDbLine
 62
7
  6
CONTINUOUS
 10
238.8835815251
 20
201.3194601255
 11
238.7346453727
 21
200.5902933198
  0
LINE
  5
3C1
100
AcDbEntity
  8
KONSTRUKTIONSELEMENTE
100
AcDbLine
 62
7
  6
CONTINUOUS
 10
239.6282622874
 20
213.7152933198
 11
239.7771984399
 21
214.2986260968
  0
LINE
  5
3C2
100
AcDbEntity
  8
KONSTRUKTIONSELEMENTE
100
AcDbLine
 62
7
  6
CONTINUOUS
 10
239.18145383
 20
215.0277933198
 11
238.8835815251
 21
214.4444605428
  0
LINE
  5
3C3
100
AcDbEntity
  8
KONSTRUKTIONSELEMENTE
100
AcDbLine
 62
7
  6
CONTINUOUS
 10
239.7771984399
 20
214.2986260968
 11
240.0750707448
 21
214.7361260968
  0
LINE
  5
3C4
100
AcDbEntity
  8
KONSTRUKTIONSELEMENTE
100
AcDbLine
 62
7
  6
CONTINUOUS
 10
239.7771984399
 20
215.6111260968
 11
239.18145383
 21
215.0277933198
  0
LINE
  5
3C5
100
AcDbEntity
  8
0
100
AcDbLine
 62
7
  6
CONTINUOUS
 10
278.9396899903
 20
151.5108605459
 11
279.3563562596
 21
151.617243512
  0
LINE
  5
3C6
100
AcDbEntity
  8
0
100
AcDbLine
 62
7
  6
CONTINUOUS
 10
277.898023125
 20
153.5321371243
 11
278.3146899903
 21
153.6385200903
  0
LINE
  5
3C7
100
AcDbEntity
  8
0
100
AcDbLine
 62
7
  6
CONTINUOUS
 10
278.9396899903
 20
150.9789456412
 11
279.460523125
 21
151.0853286166
  0
LINE
  5
3C8
100
AcDbEntity
  8
0
100
AcDbLine
 62
7
  6
CONTINUOUS
 10
277.7938562596
 20
154.0640519545
 11
278.3146899903
 21
154.1704349205
  0
LINE
  5
3C9
100
AcDbEntity
  8
0
100
AcDbLine
 62
7
  6
CONTINUOUS
 10
274.773023125
 20
150.3406477705
 11
275.2938562596
 21
150.3406477705
  0
LINE
  5
3CA
100
AcDbEntity
  8
0
100
AcDbLine
 62
7
  6
CONTINUOUS
 10
272.273023125
 20
150.9789456412
 11
272.898023125
 21
150.9789456412
  0
LINE
  5
3CB
100
AcDbEntity
  8
0
100
AcDbLine
 62
7
  6
CONTINUOUS
 10
278.3146899903
 20
150.9789456412
 11
278.9396899903
 21
150.9789456412
  0
LINE
  5
3CC
100
AcDbEntity
  8
0
100
AcDbLine
 62
7
  6
CONTINUOUS
 10
275.398023125
 20
151.5108605459
 11
275.9188562596
 21
151.5108605459
  0
LINE
  5
3CD
100
AcDbEntity
  8
0
100
AcDbLine
 62
7
  6
CONTINUOUS
 10
278.3146899903
 20
151.5108605459
 11
278.9396899903
 21
151.5108605459
  0
LINE
  5
3CE
100
AcDbEntity
  8
0
100
AcDbLine
 62
7
  6
CONTINUOUS
 10
276.7521899903
 20
152.2555413827
 11
277.3771899903
 21
152.2555413827
  0
LINE
  5
3CF
100
AcDbEntity
  8
0
100
AcDbLine
 62
7
  6
CONTINUOUS
 10
269.773023125
 20
152.4683073148
 11
272.273023125
 21
152.4683073148
  0
LINE
  5
3D0
100
AcDbEntity
  8
0
100
AcDbLine
 62
7
  6
CONTINUOUS
 10
272.898023125
 20
152.4683073148
 11
273.9396896923
 21
152.4683073148
  0
LINE
  5
3D1
100
AcDbEntity
  8
0
100
AcDbLine
 62
7
  6
CONTINUOUS
 10
270.5021897668
 20
153.1066052601
 11
272.273023125
 21
153.1066052601
  0
LINE
  5
3D2
100
AcDbEntity
  8
0
100
AcDbLine
 62
7
  6
CONTINUOUS
 10
272.898023125
 20
153.1066052601
 11
273.9396896923
 21
153.1066052601
  0
LINE
  5
3D3
100
AcDbEntity
  8
0
100
AcDbLine
 62
7
  6
CONTINUOUS
 10
276.7521899903
 20
153.2129882261
 11
277.4813562596
 21
153.2129882261
  0
LINE
  5
3D4
100
AcDbEntity
  8
0
100
AcDbLine
 62
7
  6
CONTINUOUS
 10
278.3146899903
 20
153.6385200903
 11
278.9396899903
 21
153.6385200903
  0
LINE
  5
3D5
100
AcDbEntity
  8
0
100
AcDbLine
 62
7
  6
CONTINUOUS
 10
281.335523125
 20
153.9576689884
 11
282.1688568557
 21
153.9576689884
  0
LINE
  5
3D6
100
AcDbEntity
  8
0
100
AcDbLine
 62
7
  6
CONTINUOUS
 10
282.6896893943
 20
153.9576689884
 11
283.835523125
 21
153.9576689884
  0
LINE
  5
3D7
100
AcDbEntity
  8
0
100
AcDbLine
 62
7
  6
CONTINUOUS
 10
278.3146899903
 20
154.1704349205
 11
278.9396899903
 21
154.1704349205
  0
LINE
  5
3D8
100
AcDbEntity
  8
0
100
AcDbLine
 62
7
  6
CONTINUOUS
 10
281.335523125
 20
154.3832008526
 11
282.1688568557
 21
154.3832008526
  0
LINE
  5
3D9
100
AcDbEntity
  8
0
100
AcDbLine
 62
7
  6
CONTINUOUS
 10
282.6896893943
 20
154.3832008526
 11
283.835523125
 21
154.3832008526
  0
LINE
  5
3DA
100
AcDbEntity
  8
0
100
AcDbLine
 62
7
  6
CONTINUOUS
 10
283.0021893943
 20
151.0853286166
 11
283.6271893943
 21
150.9789456412
  0
LINE
  5
3DB
100
AcDbEntity
  8
0
100
AcDbLine
 62
7
  6
CONTINUOUS
 10
277.7938562596
 20
151.0853286166
 11
278.3146899903
 21
150.9789456412
  0
LINE
  5
3DC
100
AcDbEntity
  8
0
100
AcDbLine
 62
7
  6
CONTINUOUS
 10
283.1063568557
 20
151.5108605459
 11
283.6271893943
 21
151.4044775427
  0
LINE
  5
3DD
100
AcDbEntity
  8
0
100
AcDbLine
 62
7
  6
CONTINUOUS
 10
277.898023125
 20
151.617243512
 11
278.3146899903
 21
151.5108605459
  0
LINE
  5
3DE
100
AcDbEntity
  8
KONSTRUKTIONSELEMENTE
100
AcDbLine
 62
7
  6
CONTINUOUS
 10
238.7346453727
 20
213.7152933198
 11
238.7346453727
 21
210.2152933198
  0
LINE
  5
3DF
100
AcDbEntity
  8
KONSTRUKTIONSELEMENTE
100
AcDbLine
 62
7
  6
CONTINUOUS
 10
238.7346453727
 20
209.0486269313
 11
238.7346453727
 21
208.1736269313
  0
LINE
  5
3E0
100
AcDbEntity
  8
KONSTRUKTIONSELEMENTE
100
AcDbLine
 62
7
  6
CONTINUOUS
 10
238.7346453727
 20
204.6736269313
 11
238.7346453727
 21
203.7986265141
  0
LINE
  5
3E1
100
AcDbEntity
  8
KONSTRUKTIONSELEMENTE
100
AcDbLine
 62
7
  6
CONTINUOUS
 10
238.7346453727
 20
200.5902933198
 11
238.7346453727
 21
197.0902933198
  0
LINE
  5
3E2
100
AcDbEntity
  8
0
100
AcDbLine
 62
7
  6
CONTINUOUS
 10
239.0656002214
 20
251.1241378974
 11
239.0656003327
 21
235.1274568731
  0
LINE
  5
3E3
100
AcDbEntity
  8
KONSTRUKTIONSELEMENTE
100
AcDbLine
 62
7
  6
CONTINUOUS
 10
239.479326135
 20
197.9652933198
 11
239.479326135
 21
200.7361265141
  0
LINE
  5
3E4
100
AcDbEntity
  8
KONSTRUKTIONSELEMENTE
100
AcDbLine
 62
7
  6
CONTINUOUS
 10
239.6282622874
 20
211.0902933198
 11
239.6282622874
 21
213.7152933198
  0
LINE
  5
3E5
100
AcDbEntity
  8
KONSTRUKTIONSELEMENTE
100
AcDbLine
 62
7
  6
CONTINUOUS
 10
241.7133688391
 20
200.7361265141
 11
241.7133688391
 21
197.9652933198
  0
LINE
  5
3E6
100
AcDbEntity
  8
KONSTRUKTIONSELEMENTE
100
AcDbLine
 62
7
  6
CONTINUOUS
 10
242.6069857538
 20
197.9652933198
 11
242.6069857538
 21
200.4444599169
  0
LINE
  5
3E7
100
AcDbEntity
  8
KONSTRUKTIONSELEMENTE
100
AcDbLine
 62
7
  6
CONTINUOUS
 10
245.5857092072
 20
205.4027933198
 11
245.7346453727
 21
206.1319597083
  0
LINE
  5
3E8
100
AcDbEntity
  8
KONSTRUKTIONSELEMENTE
100
AcDbLine
 62
7
  6
CONTINUOUS
 10
244.8410283536
 20
206.1319597083
 11
244.6920922011
 21
205.5486269313
  0
LINE
  5
3E9
100
AcDbEntity
  8
KONSTRUKTIONSELEMENTE
100
AcDbLine
 62
7
  6
CONTINUOUS
 10
239.479326135
 20
200.7361265141
 11
239.6282622874
 21
201.1736265141
  0
LINE
  5
3EA
100
AcDbEntity
  8
KONSTRUKTIONSELEMENTE
100
AcDbLine
 62
7
  6
CONTINUOUS
 10
245.2878368631
 20
204.8194597083
 11
245.5857092072
 21
205.4027933198
  0
LINE
  5
3EB
100
AcDbEntity
  8
KONSTRUKTIONSELEMENTE
100
AcDbLine
 62
7
  6
CONTINUOUS
 10
244.6920922011
 20
205.5486269313
 11
244.3942197919
 21
205.1111269313
  0
LINE
  5
3EC
100
AcDbEntity
  8
KONSTRUKTIONSELEMENTE
100
AcDbLine
 62
7
  6
CONTINUOUS
 10
239.3303899825
 20
201.9027933198
 11
238.8835815251
 21
201.3194601255
  0
LINE
  5
3ED
100
AcDbEntity
  8
KONSTRUKTIONSELEMENTE
100
AcDbLine
 62
7
  6
CONTINUOUS
 10
240.0750707448
 20
214.7361260968
 11
240.5218796194
 21
215.0277933198
  0
LINE
  5
3EE
100
AcDbEntity
  8
KONSTRUKTIONSELEMENTE
100
AcDbLine
 62
7
  6
CONTINUOUS
 10
240.3729430497
 20
215.9027933198
 11
239.7771984399
 21
215.6111260968
  0
LINE
  5
3EF
100
AcDbEntity
  8
0
100
AcDbLine
 62
7
  6
CONTINUOUS
 10
295.3171905864
 20
160.217243512
 11
295.7338556636
 21
160.323626478
  0
LINE
  5
3F0
100
AcDbEntity
  8
0
100
AcDbLine
 62
7
  6
CONTINUOUS
 10
290.525523125
 20
160.217243512
 11
290.9421905864
 21
160.323626478
  0
LINE
  5
3F1
100
AcDbEntity
  8
0
100
AcDbLine
 62
7
  6
CONTINUOUS
 10
294.275523125
 20
164.4725626752
 11
294.6921905864
 21
164.5789456412
  0
LINE
  5
3F2
100
AcDbEntity
  8
0
100
AcDbLine
 62
7
  6
CONTINUOUS
 10
295.3171905864
 20
159.5789456412
 11
295.838023125
 21
159.6853286166
  0
LINE
  5
3F3
100
AcDbEntity
  8
0
100
AcDbLine
 62
7
  6
CONTINUOUS
 10
290.525523125
 20
159.5789456412
 11
291.0463556636
 21
159.6853286166
  0
LINE
  5
3F4
100
AcDbEntity
  8
0
100
AcDbLine
 62
7
  6
CONTINUOUS
 10
274.588023125
 20
159.5789456412
 11
275.1088568557
 21
159.6853286166
  0
LINE
  5
3F5
100
AcDbEntity
  8
0
100
AcDbLine
 62
7
  6
CONTINUOUS
 10
282.1688568557
 20
155.2342648789
 11
282.6896893943
 21
155.2342648789
  0
LINE
  5
3F6
100
AcDbEntity
  8
0
100
AcDbLine
 62
7
  6
CONTINUOUS
 10
277.273023125
 20
155.447030811
 11
280.2938568557
 21
155.447030811
  0
LINE
  5
3F7
100
AcDbEntity
  8
0
100
AcDbLine
 62
7
  6
CONTINUOUS
 10
272.273023125
 20
155.9789456412
 11
272.898023125
 21
155.9789456412
  0
LINE
  5
3F8
100
AcDbEntity
  8
0
100
AcDbLine
 62
7
  6
CONTINUOUS
 10
276.7521899903
 20
155.9789456412
 11
280.2938568557
 21
155.9789456412
  0
LINE
  5
3F9
100
AcDbEntity
  8
0
100
AcDbLine
 62
7
  6
CONTINUOUS
 10
259.3796898413
 20
159.5789456412
 11
260.213023125
 21
159.5789456412
  0
LINE
  5
3FA
100
AcDbEntity
  8
0
100
AcDbLine
 62
7
  6
CONTINUOUS
 10
262.713023125
 20
159.5789456412
 11
266.463023125
 21
159.5789456412
  0
LINE
  5
3FB
100
AcDbEntity
  8
0
100
AcDbLine
 62
7
  6
CONTINUOUS
 10
267.2963562596
 20
159.5789456412
 11
269.7963568557
 21
159.5789456412
  0
LINE
  5
3FC
100
AcDbEntity
  8
0
100
AcDbLine
 62
7
  6
CONTINUOUS
 10
273.650523125
 20
159.5789456412
 11
274.588023125
 21
159.5789456412
  0
LINE
  5
3FD
100
AcDbEntity
  8
0
100
AcDbLine
 62
7
  6
CONTINUOUS
 10
279.1713556636
 20
159.5789456412
 11
279.7963556636
 21
159.5789456412
  0
LINE
  5
3FE
100
AcDbEntity
  8
0
100
AcDbLine
 62
7
  6
CONTINUOUS
 10
283.8588556636
 20
159.5789456412
 11
287.6088556636
 21
159.5789456412
  0
LINE
  5
3FF
100
AcDbEntity
  8
0
100
AcDbLine
 62
7
  6
CONTINUOUS
 10
290.1088556636
 20
159.5789456412
 11
290.525523125
 21
159.5789456412
  0
LINE
  5
400
100
AcDbEntity
  8
0
100
AcDbLine
 62
7
  6
CONTINUOUS
 10
294.4838556636
 20
159.5789456412
 11
295.3171905864
 21
159.5789456412
  0
LINE
  5
401
100
AcDbEntity
  8
0
100
AcDbLine
 62
7
  6
CONTINUOUS
 10
263.338023125
 20
160.217243512
 11
266.463023125
 21
160.217243512
  0
LINE
  5
402
100
AcDbEntity
  8
0
100
AcDbLine
 62
7
  6
CONTINUOUS
 10
267.9213568557
 20
160.217243512
 11
269.900523125
 21
160.217243512
  0
LINE
  5
403
100
AcDbEntity
  8
0
100
AcDbLine
 62
7
  6
CONTINUOUS
 10
273.650523125
 20
160.217243512
 11
274.588023125
 21
160.217243512
  0
LINE
  5
404
100
AcDbEntity
  8
0
100
AcDbLine
 62
7
  6
CONTINUOUS
 10
284.4838556636
 20
160.217243512
 11
287.6088556636
 21
160.217243512
  0
LINE
  5
405
100
AcDbEntity
  8
0
100
AcDbLine
 62
7
  6
CONTINUOUS
 10
290.1088556636
 20
160.217243512
 11
290.525523125
 21
160.217243512
  0
LINE
  5
406
100
AcDbEntity
  8
0
100
AcDbLine
 62
7
  6
CONTINUOUS
 10
294.4838556636
 20
160.217243512
 11
295.3171905864
 21
160.217243512
  0
LINE
  5
407
100
AcDbEntity
  8
0
100
AcDbLine
 62
7
  6
CONTINUOUS
 10
293.025523125
 20
160.9619243488
 11
293.650523125
 21
160.9619243488
  0
LINE
  5
408
100
AcDbEntity
  8
0
100
AcDbLine
 62
7
  6
CONTINUOUS
 10
278.9396899903
 20
154.1704349205
 11
279.460523125
 21
154.0640519545
  0
LINE
  5
409
100
AcDbEntity
  8
0
100
AcDbLine
 62
7
  6
CONTINUOUS
 10
273.1296893943
 20
159.6853286166
 11
273.650523125
 21
159.5789456412
  0
LINE
  5
40A
100
AcDbEntity
  8
0
100
AcDbLine
 62
7
  6
CONTINUOUS
 10
278.9396899903
 20
153.6385200903
 11
279.3563562596
 21
153.5321371243
  0
LINE
  5
40B
100
AcDbEntity
  8
0
100
AcDbLine
 62
7
  6
CONTINUOUS
 10
273.2338568557
 20
160.323626478
 11
273.650523125
 21
160.217243512
  0
LINE
  5
40C
100
AcDbEntity
  8
0
100
AcDbLine
 62
7
  6
CONTINUOUS
 10
282.6896893943
 20
151.1917115919
 11
283.0021893943
 21
151.0853286166
  0
LINE
  5
40D
100
AcDbEntity
  8
0
100
AcDbLine
 62
7
  6
CONTINUOUS
 10
277.273023125
 20
151.4044775427
 11
277.7938562596
 21
151.0853286166
  0
LINE
  5
40E
100
AcDbEntity
  8
0
100
AcDbLine
 62
7
  6
CONTINUOUS
 10
277.585523125
 20
151.8300094441
 11
277.898023125
 21
151.617243512
  0
LINE
  5
40F
100
AcDbEntity
  8
KONSTRUKTIONSELEMENTE
100
AcDbLine
 62
7
  6
CONTINUOUS
 10
244.8410283536
 20
213.7152933198
 11
244.8410283536
 21
211.0902933198
  0
LINE
  5
410
100
AcDbEntity
  8
KONSTRUKTIONSELEMENTE
100
AcDbLine
 62
7
  6
CONTINUOUS
 10
244.8410283536
 20
206.7152933198
 11
244.8410283536
 21
206.1319597083
  0
LINE
  5
411
100
AcDbEntity
  8
KONSTRUKTIONSELEMENTE
100
AcDbLine
 62
7
  6
CONTINUOUS
 10
245.7346453727
 20
197.0902933198
 11
245.7346453727
 21
197.9652933198
  0
LINE
  5
412
100
AcDbEntity
  8
KONSTRUKTIONSELEMENTE
100
AcDbLine
 62
7
  6
CONTINUOUS
 10
245.7346453727
 20
201.6111265141
 11
245.7346453727
 21
202.6319601255
  0
LINE
  5
413
100
AcDbEntity
  8
KONSTRUKTIONSELEMENTE
100
AcDbLine
 62
7
  6
CONTINUOUS
 10
245.7346453727
 20
206.1319597083
 11
245.7346453727
 21
206.7152933198
  0
LINE
  5
414
100
AcDbEntity
  8
KONSTRUKTIONSELEMENTE
100
AcDbLine
 62
7
  6
CONTINUOUS
 10
245.7346453727
 20
210.2152933198
 11
245.7346453727
 21
213.7152933198
  0
LINE
  5
415
100
AcDbEntity
  8
0
100
AcDbLine
 62
7
  6
CONTINUOUS
 10
249.553023125
 20
178.6689456412
 11
249.553023125
 21
251.6504207677
  0
LINE
  5
416
100
AcDbEntity
  8
KONSTRUKTIONSELEMENTE
100
AcDbLine
 62
7
  6
CONTINUOUS
 10
239.6282622874
 20
201.1736265141
 11
239.9261345923
 21
201.4652933198
  0
LINE
  5
417
100
AcDbEntity
  8
KONSTRUKTIONSELEMENTE
100
AcDbLine
 62
7
  6
CONTINUOUS
 10
244.6920922011
 20
204.2361269313
 11
245.2878368631
 21
204.8194597083
  0
LINE
  5
418
100
AcDbEntity
  8
KONSTRUKTIONSELEMENTE
100
AcDbLine
 62
7
  6
CONTINUOUS
 10
239.9261345923
 20
202.3402933198
 11
239.3303899825
 21
201.9027933198
  0
LINE
  5
419
100
AcDbEntity
  8
KONSTRUKTIONSELEMENTE
100
AcDbLine
 62
7
  6
CONTINUOUS
 10
244.3942197919
 20
205.1111269313
 11
243.9474113345
 21
204.8194597083
  0
LINE
  5
41A
100
AcDbEntity
  8
0
100
AcDbLine
 62
7
  6
CONTINUOUS
 10
274.588023125
 20
160.217243512
 11
275.0046893943
 21
160.323626478
  0
LINE
  5
41B
100
AcDbEntity
  8
0
100
AcDbLine
 62
7
  6
CONTINUOUS
 10
273.2338568557
 20
163.8342648789
 11
273.650523125
 21
163.940647845
  0
LINE
  5
41C
100
AcDbEntity
  8
0
100
AcDbLine
 62
7
  6
CONTINUOUS
 10
282.713023125
 20
168.6049030861
 11
283.2130226481
 21
168.7325626454
  0
LINE
  5
41D
100
AcDbEntity
  8
0
100
AcDbLine
 62
7
  6
CONTINUOUS
 10
281.6713556636
 20
161.8129882261
 11
282.1921905864
 21
161.9193711922
  0
LINE
  5
41E
100
AcDbEntity
  8
0
100
AcDbLine
 62
7
  6
CONTINUOUS
 10
269.7963568557
 20
159.5789456412
 11
270.3171893943
 21
159.6853286166
  0
LINE
  5
41F
100
AcDbEntity
  8
0
100
AcDbLine
 62
7
  6
CONTINUOUS
 10
273.1296893943
 20
164.4725626752
 11
273.650523125
 21
164.5789456412
  0
LINE
  5
420
100
AcDbEntity
  8
0
100
AcDbLine
 62
7
  6
CONTINUOUS
 10
282.713023125
 20
167.8389456412
 11
283.3380236018
 21
167.9666052117
  0
LINE
  5
421
100
AcDbEntity
  8
0
100
AcDbLine
 62
7
  6
CONTINUOUS
 10
276.8796893943
 20
161.3874562129
 11
278.338023125
 21
161.3874562129
  0
LINE
  5
422
100
AcDbEntity
  8
0
100
AcDbLine
 62
7
  6
CONTINUOUS
 10
274.4838568557
 20
161.7066052601
 11
275.4213568557
 21
161.7066052601
  0
LINE
  5
423
100
AcDbEntity
  8
0
100
AcDbLine
 62
7
  6
CONTINUOUS
 10
267.9213568557
 20
161.8129882261
 11
269.900523125
 21
161.8129882261
  0
LINE
  5
424
100
AcDbEntity
  8
0
100
AcDbLine
 62
7
  6
CONTINUOUS
 10
279.7963556636
 20
161.8129882261
 11
281.6713556636
 21
161.8129882261
  0
LINE
  5
425
100
AcDbEntity
  8
0
100
AcDbLine
 62
7
  6
CONTINUOUS
 10
294.6921905864
 20
161.8129882261
 11
295.3171905864
 21
161.8129882261
  0
LINE
  5
426
100
AcDbEntity
  8
0
100
AcDbLine
 62
7
  6
CONTINUOUS
 10
276.8796893943
 20
161.9193711922
 11
278.338023125
 21
161.9193711922
  0
LINE
  5
427
100
AcDbEntity
  8
0
100
AcDbLine
 62
7
  6
CONTINUOUS
 10
274.4838568557
 20
162.3449030563
 11
276.0463568557
 21
162.3449030563
  0
LINE
  5
428
100
AcDbEntity
  8
0
100
AcDbLine
 62
7
  6
CONTINUOUS
 10
267.9213568557
 20
162.4512860224
 11
269.900523125
 21
162.4512860224
  0
LINE
  5
429
100
AcDbEntity
  8
0
100
AcDbLine
 62
7
  6
CONTINUOUS
 10
279.7963556636
 20
162.4512860224
 11
281.775523125
 21
162.4512860224
  0
LINE
  5
42A
100
AcDbEntity
  8
0
100
AcDbLine
 62
7
  6
CONTINUOUS
 10
294.6921905864
 20
162.4512860224
 11
295.3171905864
 21
162.4512860224
  0
LINE
  5
42B
100
AcDbEntity
  8
0
100
AcDbLine
 62
7
  6
CONTINUOUS
 10
275.4213568557
 20
163.3023497507
 11
276.0463568557
 21
163.3023497507
  0
LINE
  5
42C
100
AcDbEntity
  8
0
100
AcDbLine
 62
7
  6
CONTINUOUS
 10
295.9421905864
 20
163.4087330148
 11
296.5671905864
 21
163.4087330148
  0
LINE
  5
42D
100
AcDbEntity
  8
0
100
AcDbLine
 62
7
  6
CONTINUOUS
 10
267.9213568557
 20
163.940647845
 11
269.900523125
 21
163.940647845
  0
LINE
  5
42E
100
AcDbEntity
  8
0
100
AcDbLine
 62
7
  6
CONTINUOUS
 10
273.650523125
 20
163.940647845
 11
274.588023125
 21
163.940647845
  0
LINE
  5
42F
100
AcDbEntity
  8
0
100
AcDbLine
 62
7
  6
CONTINUOUS
 10
294.6921905864
 20
163.940647845
 11
295.3171905864
 21
163.940647845
  0
LINE
  5
430
100
AcDbEntity
  8
0
100
AcDbLine
 62
7
  6
CONTINUOUS
 10
279.7963556636
 20
164.047030811
 11
281.775523125
 21
164.047030811
  0
LINE
  5
431
100
AcDbEntity
  8
0
100
AcDbLine
 62
7
  6
CONTINUOUS
 10
257.713023125
 20
164.5789456412
 11
258.338023125
 21
164.5789456412
  0
LINE
  5
432
100
AcDbEntity
  8
0
100
AcDbLine
 62
7
  6
CONTINUOUS
 10
261.2546896923
 20
164.5789456412
 11
261.8796896923
 21
164.5789456412
  0
LINE
  5
433
100
AcDbEntity
  8
0
100
AcDbLine
 62
7
  6
CONTINUOUS
 10
262.713023125
 20
164.5789456412
 11
263.338023125
 21
164.5789456412
  0
LINE
  5
434
100
AcDbEntity
  8
0
100
AcDbLine
 62
7
  6
CONTINUOUS
 10
267.2963562596
 20
164.5789456412
 11
269.7963568557
 21
164.5789456412
  0
LINE
  5
435
100
AcDbEntity
  8
0
100
AcDbLine
 62
7
  6
CONTINUOUS
 10
273.650523125
 20
164.5789456412
 11
274.588023125
 21
164.5789456412
  0
LINE
  5
436
100
AcDbEntity
  8
0
100
AcDbLine
 62
7
  6
CONTINUOUS
 10
279.1713556636
 20
164.5789456412
 11
281.6713556636
 21
164.5789456412
  0
LINE
  5
437
100
AcDbEntity
  8
0
100
AcDbLine
 62
7
  6
CONTINUOUS
 10
283.8588556636
 20
164.5789456412
 11
284.4838556636
 21
164.5789456412
  0
LINE
  5
438
100
AcDbEntity
  8
0
100
AcDbLine
 62
7
  6
CONTINUOUS
 10
288.4421905864
 20
164.5789456412
 11
289.0671905864
 21
164.5789456412
  0
LINE
  5
439
100
AcDbEntity
  8
0
100
AcDbLine
 62
7
  6
CONTINUOUS
 10
291.5671905864
 20
164.5789456412
 11
292.1921905864
 21
164.5789456412
  0
LINE
  5
43A
100
AcDbEntity
  8
0
100
AcDbLine
 62
7
  6
CONTINUOUS
 10
294.6921905864
 20
164.5789456412
 11
295.213023125
 21
164.5789456412
  0
LINE
  5
43B
100
AcDbEntity
  8
0
100
AcDbLine
 62
7
  6
CONTINUOUS
 10
268.463023125
 20
167.8389456412
 11
269.213023125
 21
167.8389456412
  0
LINE
  5
43C
100
AcDbEntity
  8
0
100
AcDbLine
 62
7
  6
CONTINUOUS
 10
272.3380230058
 20
167.8389456412
 11
273.2130232442
 21
167.8389456412
  0
LINE
  5
43D
100
AcDbEntity
  8
0
100
AcDbLine
 62
7
  6
CONTINUOUS
 10
276.2130228866
 20
167.8389456412
 11
276.713023125
 21
167.8389456412
  0
LINE
  5
43E
100
AcDbEntity
  8
0
100
AcDbLine
 62
7
  6
CONTINUOUS
 10
279.713023125
 20
167.8389456412
 11
282.713023125
 21
167.8389456412
  0
LINE
  5
43F
100
AcDbEntity
  8
0
100
AcDbLine
 62
7
  6
CONTINUOUS
 10
289.588023125
 20
159.6853286166
 11
290.1088556636
 21
159.5789456412
  0
LINE
  5
440
100
AcDbEntity
  8
0
100
AcDbLine
 62
7
  6
CONTINUOUS
 10
269.7963568557
 20
164.5789456412
 11
270.3171893943
 21
164.4725626752
  0
LINE
  5
441
100
AcDbEntity
  8
0
100
AcDbLine
 62
7
  6
CONTINUOUS
 10
293.963023125
 20
159.6853286166
 11
294.4838556636
 21
159.5789456412
  0
LINE
  5
442
100
AcDbEntity
  8
0
100
AcDbLine
 62
7
  6
CONTINUOUS
 10
274.588023125
 20
164.5789456412
 11
275.1088568557
 21
164.4725626752
  0
LINE
  5
443
100
AcDbEntity
  8
0
100
AcDbLine
 62
7
  6
CONTINUOUS
 10
281.6713556636
 20
164.5789456412
 11
282.1921905864
 21
164.4725626752
  0
LINE
  5
444
100
AcDbEntity
  8
0
100
AcDbLine
 62
7
  6
CONTINUOUS
 10
295.3171905864
 20
162.4512860224
 11
295.838023125
 21
162.3449030563
  0
LINE
  5
445
100
AcDbEntity
  8
0
100
AcDbLine
 62
7
  6
CONTINUOUS
 10
274.588023125
 20
163.940647845
 11
275.0046893943
 21
163.8342648789
  0
LINE
  5
446
100
AcDbEntity
  8
0
100
AcDbLine
 62
7
  6
CONTINUOUS
 10
289.6921905864
 20
160.323626478
 11
290.1088556636
 21
160.217243512
  0
LINE
  5
447
100
AcDbEntity
  8
0
100
AcDbLine
 62
7
  6
CONTINUOUS
 10
294.0671905864
 20
160.323626478
 11
294.4838556636
 21
160.217243512
  0
LINE
  5
448
100
AcDbEntity
  8
0
100
AcDbLine
 62
7
  6
CONTINUOUS
 10
294.275523125
 20
161.9193711922
 11
294.6921905864
 21
161.8129882261
  0
LINE
  5
449
100
AcDbEntity
  8
0
100
AcDbLine
 62
7
  6
CONTINUOUS
 10
295.3171905864
 20
161.8129882261
 11
295.7338556636
 21
161.7066052601
  0
LINE
  5
44A
100
AcDbEntity
  8
0
100
AcDbLine
 62
7
  6
CONTINUOUS
 10
269.900523125
 20
161.8129882261
 11
270.213023125
 21
161.7066052601
  0
LINE
  5
44B
100
AcDbEntity
  8
0
100
AcDbLine
 62
7
  6
CONTINUOUS
 10
269.900523125
 20
163.940647845
 11
270.213023125
 21
163.8342648789
  0
LINE
  5
44C
100
AcDbEntity
  8
0
100
AcDbLine
 62
7
  6
CONTINUOUS
 10
281.775523125
 20
164.047030811
 11
282.088023125
 21
163.940647845
  0
LINE
  5
44D
100
AcDbEntity
  8
0
100
AcDbLine
 62
7
  6
CONTINUOUS
 10
272.713023125
 20
159.8980945766
 11
273.1296893943
 21
159.6853286166
  0
LINE
  5
44E
100
AcDbEntity
  8
0
100
AcDbLine
 62
7
  6
CONTINUOUS
 10
270.525523125
 20
162.1321371243
 11
270.7338568557
 21
162.0257541582
  0
LINE
  5
44F
100
AcDbEntity
  8
0
100
AcDbLine
 62
7
  6
CONTINUOUS
 10
275.1088568557
 20
164.4725626752
 11
275.525523125
 21
164.2597967431
  0
LINE
  5
450
100
AcDbEntity
  8
0
100
AcDbLine
 62
7
  6
CONTINUOUS
 10
279.460523125
 20
154.0640519545
 11
279.9813568557
 21
153.7449030563
  0
LINE
  5
451
100
AcDbEntity
  8
0
100
AcDbLine
 62
7
  6
CONTINUOUS
 10
282.3771893943
 20
151.4044775427
 11
282.6896893943
 21
151.1917115919
  0
LINE
  5
452
100
AcDbEntity
  8
0
100
AcDbLine
 62
7
  6
CONTINUOUS
 10
279.3563562596
 20
153.5321371243
 11
279.6688562596
 21
153.3193711922
  0
LINE
  5
453
100
AcDbEntity
  8
0
100
AcDbLine
 62
7
  6
CONTINUOUS
 10
282.7938568557
 20
151.723626478
 11
283.1063568557
 21
151.5108605459
  0
LINE
  5
454
100
AcDbEntity
  8
0
100
AcDbLine
 62
7
  6
CONTINUOUS
 10
272.9213568557
 20
160.5363924846
 11
273.2338568557
 21
160.323626478
  0
LINE
  5
455
100
AcDbEntity
  8
0
100
AcDbLine
 62
7
  6
CONTINUOUS
 10
270.3171893943
 20
164.4725626752
 11
270.7338568557
 21
164.1534137771
  0
LINE
  5
456
100
AcDbEntity
  8
0
100
AcDbLine
 62
7
  6
CONTINUOUS
 10
270.213023125
 20
161.7066052601
 11
270.4213568557
 21
161.493839328
  0
LINE
  5
457
100
AcDbEntity
  8
0
100
AcDbLine
 62
7
  6
CONTINUOUS
 10
272.2963568557
 20
160.323626478
 11
272.713023125
 21
159.8980945766
  0
LINE
  5
458
100
AcDbEntity
  8
KONSTRUKTIONSELEMENTE
100
AcDbLine
 62
7
  6
CONTINUOUS
 10
242.3091134489
 20
201.3194601255
 11
242.011241144
 21
201.9027933198
  0
LINE
  5
459
100
AcDbEntity
  8
KONSTRUKTIONSELEMENTE
100
AcDbLine
 62
7
  6
CONTINUOUS
 10
241.5644326866
 20
201.1736265141
 11
241.7133688391
 21
200.7361265141
  0
LINE
  5
45A
100
AcDbEntity
  8
0
100
AcDbLine
 62
7
  6
CONTINUOUS
 10
258.338023125
 20
164.5789456412
 11
259.7963564086
 21
160.217243512
  0
LINE
  5
45B
100
AcDbEntity
  8
0
100
AcDbLine
 62
7
  6
CONTINUOUS
 10
257.713023125
 20
164.5789456412
 11
259.3796898413
 21
159.5789456412
  0
LINE
  5
45C
100
AcDbEntity
  8
KONSTRUKTIONSELEMENTE
100
AcDbLine
 62
7
  6
CONTINUOUS
 10
244.6920922011
 20
207.2986269313
 11
244.8410283536
 21
206.7152933198
  0
LINE
  5
45D
100
AcDbEntity
  8
KONSTRUKTIONSELEMENTE
100
AcDbLine
 62
7
  6
CONTINUOUS
 10
244.6920922011
 20
214.2986260968
 11
244.8410283536
 21
213.7152933198
  0
LINE
  5
45E
100
AcDbEntity
  8
KONSTRUKTIONSELEMENTE
100
AcDbLine
 62
7
  6
CONTINUOUS
 10
245.7346453727
 20
206.7152933198
 11
245.5857092072
 21
207.4444597083
  0
LINE
  5
45F
100
AcDbEntity
  8
KONSTRUKTIONSELEMENTE
100
AcDbLine
 62
7
  6
CONTINUOUS
 10
245.7346453727
 20
213.7152933198
 11
245.5857092072
 21
214.4444605428
  0
LINE
  5
460
100
AcDbEntity
  8
RUNDUNGEN
100
AcDbLine
 62
7
  6
CONTINUOUS
 10
251.553023125
 20
148.4189456412
 11
251.553023125
 21
176.4189456412
  0
LINE
  5
461
100
AcDbEntity
  8
0
100
AcDbLine
 62
7
  6
CONTINUOUS
 10
251.553023125
 20
148.4189456412
 11
251.553023125
 21
176.4189456412
  0
LINE
  5
462
100
AcDbEntity
  8
0
100
AcDbLine
 62
7
  6
CONTINUOUS
 10
254.053023125
 20
183.8189456412
 11
254.053023125
 21
178.6689456412
  0
LINE
  5
463
100
AcDbEntity
  8
0
100
AcDbLine
 62
7
  6
CONTINUOUS
 10
254.053023125
 20
146.1689456412
 11
254.053023125
 21
141.0189456412
  0
LINE
  5
464
100
AcDbEntity
  8
KONSTRUKTIONSELEMENTE
100
AcDbLine
 62
7
  6
CONTINUOUS
 10
244.096347487
 20
203.9444601255
 11
244.6920922011
 21
204.2361269313
  0
LINE
  5
465
100
AcDbEntity
  8
KONSTRUKTIONSELEMENTE
100
AcDbLine
 62
7
  6
CONTINUOUS
 10
245.7346453727
 20
202.6319601255
 11
242.3091134489
 21
201.3194601255
  0
LINE
  5
466
100
AcDbEntity
  8
KONSTRUKTIONSELEMENTE
100
AcDbLine
 62
7
  6
CONTINUOUS
 10
240.3729430497
 20
202.4861265141
 11
239.9261345923
 21
202.3402933198
  0
LINE
  5
467
100
AcDbEntity
  8
KONSTRUKTIONSELEMENTE
100
AcDbLine
 62
7
  6
CONTINUOUS
 10
239.9261345923
 20
201.4652933198
 11
240.3729430497
 21
201.6111265141
  0
LINE
  5
468
100
AcDbEntity
  8
0
100
AcDbLine
 62
7
  6
CONTINUOUS
 10
276.713023125
 20
168.6049030861
 11
277.2130233634
 21
168.7325626454
  0
LINE
  5
469
100
AcDbEntity
  8
0
100
AcDbLine
 62
7
  6
CONTINUOUS
 10
276.713023125
 20
167.8389456412
 11
277.3380228866
 21
167.9666052117
  0
LINE
  5
46A
100
AcDbEntity
  8
0
100
AcDbLine
 62
7
  6
CONTINUOUS
 10
276.2130228866
 20
168.6049030861
 11
276.713023125
 21
168.6049030861
  0
LINE
  5
46B
100
AcDbEntity
  8
0
100
AcDbLine
 62
7
  6
CONTINUOUS
 10
280.463023125
 20
168.6049030861
 11
282.713023125
 21
168.6049030861
  0
LINE
  5
46C
100
AcDbEntity
  8
0
100
AcDbLine
 62
7
  6
CONTINUOUS
 10
269.213023125
 20
170.5197967431
 11
271.3380230654
 21
170.5197967431
  0
LINE
  5
46D
100
AcDbEntity
  8
0
100
AcDbLine
 62
7
  6
CONTINUOUS
 10
269.213023125
 20
171.2857540986
 11
271.5880230058
 21
171.2857540986
  0
LINE
  5
46E
100
AcDbEntity
  8
0
100
AcDbLine
 62
7
  6
CONTINUOUS
 10
280.463023125
 20
173.0729882857
 11
282.713023125
 21
173.0729882857
  0
LINE
  5
46F
100
AcDbEntity
  8
0
100
AcDbLine
 62
7
  6
CONTINUOUS
 10
269.213023125
 20
173.200647845
 11
271.5880230058
 21
173.200647845
  0
LINE
  5
470
100
AcDbEntity
  8
0
100
AcDbLine
 62
7
  6
CONTINUOUS
 10
268.463023125
 20
173.8389456412
 11
271.463023125
 21
173.8389456412
  0
LINE
  5
471
100
AcDbEntity
  8
0
100
AcDbLine
 62
7
  6
CONTINUOUS
 10
274.2130230058
 20
173.8389456412
 11
274.9630233634
 21
173.8389456412
  0
LINE
  5
472
100
AcDbEntity
  8
0
100
AcDbLine
 62
7
  6
CONTINUOUS
 10
277.9630233634
 20
173.8389456412
 11
278.7130233634
 21
173.8389456412
  0
LINE
  5
473
100
AcDbEntity
  8
0
100
AcDbLine
 62
7
  6
CONTINUOUS
 10
279.713023125
 20
173.8389456412
 11
282.713023125
 21
173.8389456412
  0
LINE
  5
474
100
AcDbEntity
  8
0
100
AcDbLine
 62
7
  6
CONTINUOUS
 10
275.588023125
 20
167.9666052117
 11
276.2130228866
 21
167.8389456412
  0
LINE
  5
475
100
AcDbEntity
  8
0
100
AcDbLine
 62
7
  6
CONTINUOUS
 10
295.213023125
 20
164.5789456412
 11
295.7338556636
 21
164.4725626752
  0
LINE
  5
476
100
AcDbEntity
  8
0
100
AcDbLine
 62
7
  6
CONTINUOUS
 10
271.463023125
 20
173.8389456412
 11
272.0880232442
 21
173.711286082
  0
LINE
  5
477
100
AcDbEntity
  8
0
100
AcDbLine
 62
7
  6
CONTINUOUS
 10
275.7130233634
 20
168.7325626454
 11
276.2130228866
 21
168.6049030861
  0
LINE
  5
478
100
AcDbEntity
  8
0
100
AcDbLine
 62
7
  6
CONTINUOUS
 10
294.3796905864
 20
162.5576689884
 11
294.6921905864
 21
162.4512860224
  0
LINE
  5
479
100
AcDbEntity
  8
0
100
AcDbLine
 62
7
  6
CONTINUOUS
 10
295.3171905864
 20
163.940647845
 11
295.6296905864
 21
163.8342648789
  0
LINE
  5
47A
100
AcDbEntity
  8
0
100
AcDbLine
 62
7
  6
CONTINUOUS
 10
271.5880230058
 20
173.200647845
 11
271.9630230058
 21
173.0729882857
  0
LINE
  5
47B
100
AcDbEntity
  8
0
100
AcDbLine
 62
7
  6
CONTINUOUS
 10
289.1713556636
 20
159.8980945766
 11
289.588023125
 21
159.6853286166
  0
LINE
  5
47C
100
AcDbEntity
  8
0
100
AcDbLine
 62
7
  6
CONTINUOUS
 10
275.0880228866
 20
168.2219243637
 11
275.588023125
 21
167.9666052117
  0
LINE
  5
47D
100
AcDbEntity
  8
0
100
AcDbLine
 62
7
  6
CONTINUOUS
 10
293.8588556636
 20
162.1321371243
 11
294.275523125
 21
161.9193711922
  0
LINE
  5
47E
100
AcDbEntity
  8
0
100
AcDbLine
 62
7
  6
CONTINUOUS
 10
293.4421905864
 20
160.0044775427
 11
293.963023125
 21
159.6853286166
  0
LINE
  5
47F
100
AcDbEntity
  8
0
100
AcDbLine
 62
7
  6
CONTINUOUS
 10
275.0046893943
 20
163.8342648789
 11
275.3171893943
 21
163.6214989469
  0
LINE
  5
480
100
AcDbEntity
  8
0
100
AcDbLine
 62
7
  6
CONTINUOUS
 10
275.3380233634
 20
168.9878818533
 11
275.7130233634
 21
168.7325626454
  0
LINE
  5
481
100
AcDbEntity
  8
0
100
AcDbLine
 62
7
  6
CONTINUOUS
 10
289.3796905864
 20
160.5363924846
 11
289.6921905864
 21
160.323626478
  0
LINE
  5
482
100
AcDbEntity
  8
0
100
AcDbLine
 62
7
  6
CONTINUOUS
 10
282.1921905864
 20
164.4725626752
 11
282.6088556636
 21
164.1534137771
  0
LINE
  5
483
100
AcDbEntity
  8
KONSTRUKTIONSELEMENTE
100
AcDbLine
 62
7
  6
CONTINUOUS
 10
241.2665603817
 20
201.4652933198
 11
241.5644326866
 21
201.1736265141
  0
LINE
  5
484
100
AcDbEntity
  8
0
100
AcDbLine
 62
7
  6
CONTINUOUS
 10
270.213023125
 20
163.8342648789
 11
270.4213568557
 21
163.6214989469
  0
LINE
  5
485
100
AcDbEntity
  8
0
100
AcDbLine
 62
7
  6
CONTINUOUS
 10
275.525523125
 20
164.2597967431
 11
275.9421893943
 21
163.8342648789
  0
LINE
  5
486
100
AcDbEntity
  8
0
100
AcDbLine
 62
7
  6
CONTINUOUS
 10
276.960523125
 20
151.8300094441
 11
277.273023125
 21
151.4044775427
  0
LINE
  5
487
100
AcDbEntity
  8
0
100
AcDbLine
 62
7
  6
CONTINUOUS
 10
270.7338568557
 20
162.0257541582
 11
271.0463568557
 21
161.600222294
  0
LINE
  5
488
100
AcDbEntity
  8
0
100
AcDbLine
 62
7
  6
CONTINUOUS
 10
270.7338568557
 20
164.1534137771
 11
271.0463568557
 21
163.7278819129
  0
LINE
  5
489
100
AcDbEntity
  8
0
100
AcDbLine
 62
7
  6
CONTINUOUS
 10
279.9813568557
 20
153.7449030563
 11
280.2938568557
 21
153.3193711922
  0
LINE
  5
48A
100
AcDbEntity
  8
0
100
AcDbLine
 62
7
  6
CONTINUOUS
 10
272.713023125
 20
160.8555413827
 11
272.9213568557
 21
160.5363924846
  0
LINE
  5
48B
100
AcDbEntity
  8
0
100
AcDbLine
 62
7
  6
CONTINUOUS
 10
279.6688562596
 20
153.3193711922
 11
279.8771893943
 21
153.000222294
  0
LINE
  5
48C
100
AcDbEntity
  8
KONSTRUKTIONSELEMENTE
100
AcDbLine
 62
7
  6
CONTINUOUS
 10
245.5857092072
 20
207.4444597083
 11
245.2878368631
 21
208.0277933198
  0
LINE
  5
48D
100
AcDbEntity
  8
BEZUGSACHSEN
100
AcDbLine
 62
7
  6
CONTINUOUS
 10
258.553023125
 20
184.3189456412
 11
258.553023125
 21
198.8189456412
  0
LINE
  5
48E
100
AcDbEntity
  8
BEZUGSACHSEN
100
AcDbLine
 62
7
  6
CONTINUOUS
 10
259.953023125
 20
183.8189456412
 11
259.953023125
 21
184.3189456412
  0
LINE
  5
48F
100
AcDbEntity
  8
0
100
AcDbLine
 62
7
  6
CONTINUOUS
 10
260.053023125
 20
178.6689456412
 11
260.053023125
 21
178.4189456412
  0
LINE
  5
490
100
AcDbEntity
  8
0
100
AcDbLine
 62
7
  6
CONTINUOUS
 10
260.053023125
 20
146.4189456412
 11
260.053023125
 21
146.1689456412
  0
LINE
  5
491
100
AcDbEntity
  8
0
100
AcDbLine
 62
7
  6
CONTINUOUS
 10
262.713023125
 20
159.5789456412
 11
262.713023125
 21
164.5789456412
  0
LINE
  5
492
100
AcDbEntity
  8
0
100
AcDbLine
 62
7
  6
CONTINUOUS
 10
263.338023125
 20
160.217243512
 11
263.338023125
 21
164.5789456412
  0
LINE
  5
493
100
AcDbEntity
  8
KONSTRUKTIONSELEMENTE
100
AcDbLine
 62
7
  6
CONTINUOUS
 10
242.6069857538
 20
200.4444599169
 11
245.7346453727
 21
201.6111265141
  0
LINE
  5
494
100
AcDbEntity
  8
RUNDUNGEN
100
AcDbLine
 62
7
  6
CONTINUOUS
 10
253.553023125
 20
178.4189456412
 11
299.553023125
 21
178.4189456412
  0
LINE
  5
495
100
AcDbEntity
  8
0
100
AcDbLine
 62
7
  6
CONTINUOUS
 10
254.0534163937
 20
178.6689456412
 11
299.0526298563
 21
178.6689456412
  0
LINE
  5
496
100
AcDbEntity
  8
0
100
AcDbLine
 62
7
  6
CONTINUOUS
 10
282.713023125
 20
173.8389456412
 11
283.3380236018
 21
173.711286082
  0
LINE
  5
497
100
AcDbEntity
  8
0
100
AcDbLine
 62
7
  6
CONTINUOUS
 10
282.713023125
 20
173.0729882857
 11
283.2130226481
 21
172.9453287265
  0
LINE
  5
498
100
AcDbEntity
  8
0
100
AcDbLine
 62
7
  6
CONTINUOUS
 10
295.838023125
 20
162.3449030563
 11
296.2546905864
 21
162.1321371243
  0
LINE
  5
499
100
AcDbEntity
  8
0
100
AcDbLine
 62
7
  6
CONTINUOUS
 10
283.3380236018
 20
173.711286082
 11
283.838023125
 21
173.4559669635
  0
LINE
  5
49A
100
AcDbEntity
  8
0
100
AcDbLine
 62
7
  6
CONTINUOUS
 10
294.0671905864
 20
162.7704349205
 11
294.3796905864
 21
162.5576689884
  0
LINE
  5
49B
100
AcDbEntity
  8
0
100
AcDbLine
 62
7
  6
CONTINUOUS
 10
295.7338556636
 20
161.7066052601
 11
296.0463556636
 21
161.493839328
  0
LINE
  5
49C
100
AcDbEntity
  8
0
100
AcDbLine
 62
7
  6
CONTINUOUS
 10
283.2130226481
 20
172.9453287265
 11
283.5880226481
 21
172.690009608
  0
LINE
  5
49D
100
AcDbEntity
  8
KONSTRUKTIONSELEMENTE
100
AcDbLine
 62
7
  6
CONTINUOUS
 10
242.011241144
 20
201.9027933198
 11
241.4154965341
 21
202.3402933198
  0
LINE
  5
49E
100
AcDbEntity
  8
0
100
AcDbLine
 62
7
  6
CONTINUOUS
 10
272.0880232442
 20
173.711286082
 11
272.588023125
 21
173.3283074042
  0
LINE
  5
49F
100
AcDbEntity
  8
0
100
AcDbLine
 62
7
  6
CONTINUOUS
 10
274.5880233634
 20
168.7325626454
 11
275.0880228866
 21
168.2219243637
  0
LINE
  5
4A0
100
AcDbEntity
  8
0
100
AcDbLine
 62
7
  6
CONTINUOUS
 10
271.9630230058
 20
173.0729882857
 11
272.213023125
 21
172.8176691672
  0
LINE
  5
4A1
100
AcDbEntity
  8
0
100
AcDbLine
 62
7
  6
CONTINUOUS
 10
282.088023125
 20
163.940647845
 11
282.2963556636
 21
163.7278819129
  0
LINE
  5
4A2
100
AcDbEntity
  8
0
100
AcDbLine
 62
7
  6
CONTINUOUS
 10
288.7546905864
 20
160.323626478
 11
289.1713556636
 21
159.8980945766
  0
LINE
  5
4A3
100
AcDbEntity
  8
0
100
AcDbLine
 62
7
  6
CONTINUOUS
 10
272.588023125
 20
173.3283074042
 11
272.963023125
 21
172.8176691672
  0
LINE
  5
4A4
100
AcDbEntity
  8
0
100
AcDbLine
 62
7
  6
CONTINUOUS
 10
282.6088556636
 20
164.1534137771
 11
282.9213556636
 21
163.7278819129
  0
LINE
  5
4A5
100
AcDbEntity
  8
KONSTRUKTIONSELEMENTE
100
AcDbLine
 62
7
  6
CONTINUOUS
 10
244.3942197919
 20
207.7361269313
 11
244.6920922011
 21
207.2986269313
  0
LINE
  5
4A6
100
AcDbEntity
  8
KONSTRUKTIONSELEMENTE
100
AcDbLine
 62
7
  6
CONTINUOUS
 10
244.3942197919
 20
214.7361260968
 11
244.6920922011
 21
214.2986260968
  0
LINE
  5
4A7
100
AcDbEntity
  8
0
100
AcDbLine
 62
7
  6
CONTINUOUS
 10
275.0880228866
 20
169.370860531
 11
275.3380233634
 21
168.9878818533
  0
LINE
  5
4A8
100
AcDbEntity
  8
KONSTRUKTIONSELEMENTE
100
AcDbLine
 62
7
  6
CONTINUOUS
 10
245.5857092072
 20
214.4444605428
 11
245.2878368631
 21
215.0277933198
  0
LINE
  5
4A9
100
AcDbEntity
  8
0
100
AcDbLine
 62
7
  6
CONTINUOUS
 10
272.088023125
 20
160.7491584167
 11
272.2963568557
 21
160.323626478
  0
LINE
  5
4AA
100
AcDbEntity
  8
0
100
AcDbLine
 62
7
  6
CONTINUOUS
 10
276.7521899903
 20
152.2555413827
 11
276.960523125
 21
151.8300094441
  0
LINE
  5
4AB
100
AcDbEntity
  8
0
100
AcDbLine
 62
7
  6
CONTINUOUS
 10
277.3771899903
 20
152.2555413827
 11
277.585523125
 21
151.8300094441
  0
LINE
  5
4AC
100
AcDbEntity
  8
0
100
AcDbLine
 62
7
  6
CONTINUOUS
 10
282.1688568557
 20
151.8300094441
 11
282.3771893943
 21
151.4044775427
  0
LINE
  5
4AD
100
AcDbEntity
  8
0
100
AcDbLine
 62
7
  6
CONTINUOUS
 10
274.3380232442
 20
169.2432009718
 11
274.5880233634
 21
168.7325626454
  0
LINE
  5
4AE
100
AcDbEntity
  8
0
100
AcDbLine
 62
7
  6
CONTINUOUS
 10
243.053023125
 20
240.4189456412
 11
240.2121105677
 21
247.1117162105
  0
LINE
  5
4AF
100
AcDbEntity
  8
0
100
AcDbLine
 62
7
  6
CONTINUOUS
 10
271.3380230654
 20
170.5197967431
 11
272.3380230058
 21
167.8389456412
  0
LINE
  5
4B0
100
AcDbEntity
  8
0
100
AcDbLine
 62
7
  6
CONTINUOUS
 10
270.4213568557
 20
161.493839328
 11
270.525523125
 21
161.1746902809
  0
LINE
  5
4B1
100
AcDbEntity
  8
0
100
AcDbLine
 62
7
  6
CONTINUOUS
 10
271.0463568557
 20
161.600222294
 11
271.150523125
 21
161.2810732469
  0
LINE
  5
4B2
100
AcDbEntity
  8
0
100
AcDbLine
 62
7
  6
CONTINUOUS
 10
270.4213568557
 20
163.6214989469
 11
270.525523125
 21
163.3023497507
  0
LINE
  5
4B3
100
AcDbEntity
  8
0
100
AcDbLine
 62
7
  6
CONTINUOUS
 10
271.0463568557
 20
163.7278819129
 11
271.150523125
 21
163.4087330148
  0
LINE
  5
4B4
100
AcDbEntity
  8
BEZUGSACHSEN
100
AcDbLine
 62
7
  6
CONTINUOUS
 10
264.553023125
 20
105.3189456412
 11
264.553023125
 21
141.0189456412
  0
LINE
  5
4B5
100
AcDbEntity
  8
0
100
AcDbLine
 62
7
  6
CONTINUOUS
 10
266.463023125
 20
159.5789456412
 11
266.463023125
 21
160.217243512
  0
LINE
  5
4B6
100
AcDbEntity
  8
0
100
AcDbLine
 62
7
  6
CONTINUOUS
 10
267.2963562596
 20
159.5789456412
 11
267.2963562596
 21
164.5789456412
  0
LINE
  5
4B7
100
AcDbEntity
  8
0
100
AcDbLine
 62
7
  6
CONTINUOUS
 10
267.9213568557
 20
160.217243512
 11
267.9213568557
 21
161.8129882261
  0
LINE
  5
4B8
100
AcDbEntity
  8
0
100
AcDbLine
 62
7
  6
CONTINUOUS
 10
267.9213568557
 20
162.4512860224
 11
267.9213568557
 21
163.940647845
  0
LINE
  5
4B9
100
AcDbEntity
  8
0
100
AcDbLine
 62
7
  6
CONTINUOUS
 10
268.463023125
 20
167.8389456412
 11
268.463023125
 21
173.8389456412
  0
LINE
  5
4BA
100
AcDbEntity
  8
0
100
AcDbLine
 62
7
  6
CONTINUOUS
 10
269.213023125
 20
167.8389456412
 11
269.213023125
 21
170.5197967431
  0
LINE
  5
4BB
100
AcDbEntity
  8
0
100
AcDbLine
 62
7
  6
CONTINUOUS
 10
269.213023125
 20
171.2857540986
 11
269.213023125
 21
173.200647845
  0
LINE
  5
4BC
100
AcDbEntity
  8
0
100
AcDbLine
 62
7
  6
CONTINUOUS
 10
269.773023125
 20
152.4683073148
 11
269.773023125
 21
153.1066052601
  0
LINE
  5
4BD
100
AcDbEntity
  8
0
100
AcDbLine
 62
7
  6
CONTINUOUS
 10
270.525523125
 20
160.8555413827
 11
270.525523125
 21
161.1746902809
  0
LINE
  5
4BE
100
AcDbEntity
  8
0
100
AcDbLine
 62
7
  6
CONTINUOUS
 10
270.525523125
 20
163.0895838186
 11
270.525523125
 21
163.3023497507
  0
LINE
  5
4BF
100
AcDbEntity
  8
0
100
AcDbLine
 62
7
  6
CONTINUOUS
 10
254.0534163937
 20
183.8189456412
 11
299.0526298563
 21
183.8189456412
  0
LINE
  5
4C0
100
AcDbEntity
  8
KONSTRUKTIONSELEMENTE
100
AcDbLine
 62
7
  6
CONTINUOUS
 10
258.553023125
 20
184.3189456412
 11
294.553023125
 21
184.3189456412
  0
LINE
  5
4C1
100
AcDbEntity
  8
0
100
AcDbLine
 62
7
  6
CONTINUOUS
 10
295.7338556636
 20
164.4725626752
 11
296.150523125
 21
164.1534137771
  0
LINE
  5
4C2
100
AcDbEntity
  8
KONSTRUKTIONSELEMENTE
100
AcDbLine
 62
7
  6
CONTINUOUS
 10
245.2878368631
 20
208.0277933198
 11
244.6920922011
 21
208.6111269313
  0
LINE
  5
4C3
100
AcDbEntity
  8
KONSTRUKTIONSELEMENTE
100
AcDbLine
 62
7
  6
CONTINUOUS
 10
245.2878368631
 20
215.0277933198
 11
244.6920922011
 21
215.6111260968
  0
LINE
  5
4C4
100
AcDbEntity
  8
0
100
AcDbLine
 62
7
  6
CONTINUOUS
 10
293.7546905864
 20
160.6427754507
 11
294.0671905864
 21
160.323626478
  0
LINE
  5
4C5
100
AcDbEntity
  8
0
100
AcDbLine
 62
7
  6
CONTINUOUS
 10
293.4421905864
 20
162.5576689884
 11
293.8588556636
 21
162.1321371243
  0
LINE
  5
4C6
100
AcDbEntity
  8
0
100
AcDbLine
 62
7
  6
CONTINUOUS
 10
283.838023125
 20
173.4559669635
 11
284.3380226481
 21
172.9453287265
  0
LINE
  5
4C7
100
AcDbEntity
  8
0
100
AcDbLine
 62
7
  6
CONTINUOUS
 10
296.2546905864
 20
162.1321371243
 11
296.6713556636
 21
161.7066052601
  0
LINE
  5
4C8
100
AcDbEntity
  8
0
100
AcDbLine
 62
7
  6
CONTINUOUS
 10
295.6296905864
 20
163.8342648789
 11
295.838023125
 21
163.6214989469
  0
LINE
  5
4C9
100
AcDbEntity
  8
0
100
AcDbLine
 62
7
  6
CONTINUOUS
 10
289.1713556636
 20
160.8555413827
 11
289.3796905864
 21
160.5363924846
  0
LINE
  5
4CA
100
AcDbEntity
  8
0
100
AcDbLine
 62
7
  6
CONTINUOUS
 10
280.2938568557
 20
153.3193711922
 11
280.5021893943
 21
152.7874562129
  0
LINE
  5
4CB
100
AcDbEntity
  8
0
100
AcDbLine
 62
7
  6
CONTINUOUS
 10
272.0880232442
 20
170.7751158616
 11
273.2130232442
 21
167.8389456412
  0
LINE
  5
4CC
100
AcDbEntity
  8
0
100
AcDbLine
 62
7
  6
CONTINUOUS
 10
272.213023125
 20
172.8176691672
 11
272.3380230058
 21
172.4346904895
  0
LINE
  5
4CD
100
AcDbEntity
  8
0
100
AcDbLine
 62
7
  6
CONTINUOUS
 10
275.3171893943
 20
163.6214989469
 11
275.4213568557
 21
163.3023497507
  0
LINE
  5
4CE
100
AcDbEntity
  8
0
100
AcDbLine
 62
7
  6
CONTINUOUS
 10
272.963023125
 20
172.8176691672
 11
273.0880230058
 21
172.4346904895
  0
LINE
  5
4CF
100
AcDbEntity
  8
0
100
AcDbLine
 62
7
  6
CONTINUOUS
 10
279.8771893943
 20
153.000222294
 11
279.9813568557
 21
152.6810732469
  0
LINE
  5
4D0
100
AcDbEntity
  8
0
100
AcDbLine
 62
7
  6
CONTINUOUS
 10
282.6896893943
 20
152.0427754507
 11
282.7938568557
 21
151.723626478
  0
LINE
  5
4D1
100
AcDbEntity
  8
0
100
AcDbLine
 62
7
  6
CONTINUOUS
 10
272.6088568557
 20
161.2810732469
 11
272.713023125
 21
160.8555413827
  0
LINE
  5
4D2
100
AcDbEntity
  8
0
100
AcDbLine
 62
7
  6
CONTINUOUS
 10
274.9630233634
 20
169.881498768
 11
275.0880228866
 21
169.370860531
  0
LINE
  5
4D3
100
AcDbEntity
  8
0
100
AcDbLine
 62
7
  6
CONTINUOUS
 10
271.9838568557
 20
161.2810732469
 11
272.088023125
 21
160.7491584167
  0
LINE
  5
4D4
100
AcDbEntity
  8
0
100
AcDbLine
 62
7
  6
CONTINUOUS
 10
274.2130230058
 20
169.881498768
 11
274.3380232442
 21
169.2432009718
  0
LINE
  5
4D5
100
AcDbEntity
  8
0
100
AcDbLine
 62
7
  6
CONTINUOUS
 10
275.9421893943
 20
163.8342648789
 11
276.0463568557
 21
163.3023497507
  0
LINE
  5
4D6
100
AcDbEntity
  8
0
100
AcDbLine
 62
7
  6
CONTINUOUS
 10
271.150523125
 20
160.7491584167
 11
271.150523125
 21
161.2810732469
  0
LINE
  5
4D7
100
AcDbEntity
  8
0
100
AcDbLine
 62
7
  6
CONTINUOUS
 10
271.150523125
 20
162.9832008526
 11
271.150523125
 21
163.4087330148
  0
LINE
  5
4D8
100
AcDbEntity
  8
0
100
AcDbLine
 62
7
  6
CONTINUOUS
 10
271.9838568557
 20
161.2810732469
 11
271.9838568557
 21
162.8768178865
  0
LINE
  5
4D9
100
AcDbEntity
  8
0
100
AcDbLine
 62
7
  6
CONTINUOUS
 10
272.273023125
 20
150.9789456412
 11
272.273023125
 21
152.4683073148
  0
LINE
  5
4DA
100
AcDbEntity
  8
0
100
AcDbLine
 62
7
  6
CONTINUOUS
 10
272.273023125
 20
153.1066052601
 11
272.273023125
 21
155.1278819129
  0
LINE
  5
4DB
100
AcDbEntity
  8
0
100
AcDbLine
 62
7
  6
CONTINUOUS
 10
272.3380230058
 20
172.0517114541
 11
272.3380230058
 21
172.4346904895
  0
LINE
  5
4DC
100
AcDbEntity
  8
0
100
AcDbLine
 62
7
  6
CONTINUOUS
 10
272.6088568557
 20
161.2810732469
 11
272.6088568557
 21
162.8768178865
  0
LINE
  5
4DD
100
AcDbEntity
  8
0
100
AcDbLine
 62
7
  6
CONTINUOUS
 10
272.898023125
 20
150.9789456412
 11
272.898023125
 21
152.4683073148
  0
LINE
  5
4DE
100
AcDbEntity
  8
0
100
AcDbLine
 62
7
  6
CONTINUOUS
 10
272.898023125
 20
153.1066052601
 11
272.898023125
 21
155.9789456412
  0
LINE
  5
4DF
100
AcDbEntity
  8
0
100
AcDbLine
 62
7
  6
CONTINUOUS
 10
273.0880230058
 20
171.9240518949
 11
273.0880230058
 21
172.4346904895
  0
LINE
  5
4E0
100
AcDbEntity
  8
0
100
AcDbLine
 62
7
  6
CONTINUOUS
 10
273.9396896923
 20
152.4683073148
 11
273.9396896923
 21
153.1066052601
  0
LINE
  5
4E1
100
AcDbEntity
  8
0
100
AcDbLine
 62
7
  6
CONTINUOUS
 10
274.2130230058
 20
169.881498768
 11
274.2130230058
 21
173.8389456412
  0
LINE
  5
4E2
100
AcDbEntity
  8
0
100
AcDbLine
 62
7
  6
CONTINUOUS
 10
274.4838568557
 20
161.7066052601
 11
274.4838568557
 21
162.3449030563
  0
LINE
  5
4E3
100
AcDbEntity
  8
0
100
AcDbLine
 62
7
  6
CONTINUOUS
 10
274.9630233634
 20
169.881498768
 11
274.9630233634
 21
173.8389456412
  0
LINE
  5
4E4
100
AcDbEntity
  8
0
100
AcDbLine
 62
7
  6
CONTINUOUS
 10
275.4213568557
 20
160.8555413827
 11
275.4213568557
 21
161.7066052601
  0
LINE
  5
4E5
100
AcDbEntity
  8
0
100
AcDbLine
 62
7
  6
CONTINUOUS
 10
276.0463568557
 20
160.7491584167
 11
276.0463568557
 21
162.3449030563
  0
LINE
  5
4E6
100
AcDbEntity
  8
BEZUGSACHSEN
100
AcDbLine
 62
7
  6
CONTINUOUS
 10
276.553023125
 20
184.3189456412
 11
276.553023125
 21
197.2112504866
  0
LINE
  5
4E7
100
AcDbEntity
  8
0
100
AcDbLine
 62
7
  6
CONTINUOUS
 10
276.560205984
 20
198.8189456412
 11
276.560205984
 21
199.0189456412
  0
LINE
  5
4E8
100
AcDbEntity
  8
0
100
AcDbLine
 62
7
  6
CONTINUOUS
 10
276.7521899903
 20
153.2129882261
 11
276.7521899903
 21
155.9789456412
  0
LINE
  5
4E9
100
AcDbEntity
  8
0
100
AcDbLine
 62
7
  6
CONTINUOUS
 10
276.8796893943
 20
161.3874562129
 11
276.8796893943
 21
161.9193711922
  0
LINE
  5
4EA
100
AcDbEntity
  8
0
100
AcDbLine
 62
7
  6
CONTINUOUS
 10
276.9943026931
 20
198.8189456412
 11
276.9943026931
 21
199.0189456412
  0
LINE
  5
4EB
100
AcDbEntity
  8
0
100
AcDbLine
 62
7
  6
CONTINUOUS
 10
277.1889815375
 20
198.8189456412
 11
277.1889815375
 21
199.0189456412
  0
LINE
  5
4EC
100
AcDbEntity
  8
0
100
AcDbLine
 62
7
  6
CONTINUOUS
 10
277.273023125
 20
153.7449030563
 11
277.273023125
 21
155.447030811
  0
LINE
  5
4ED
100
AcDbEntity
  8
0
100
AcDbLine
 62
7
  6
CONTINUOUS
 10
260.213023125
 20
159.5789456412
 11
261.8796896923
 21
164.5789456412
  0
LINE
  5
4EE
100
AcDbEntity
  8
0
100
AcDbLine
 62
7
  6
CONTINUOUS
 10
259.7963564086
 20
160.217243512
 11
261.2546896923
 21
164.5789456412
  0
LINE
  5
4EF
100
AcDbEntity
  8
KONSTRUKTIONSELEMENTE
100
AcDbLine
 62
7
  6
CONTINUOUS
 10
240.8197519243
 20
201.6111265141
 11
241.2665603817
 21
201.4652933198
  0
LINE
  5
4F0
100
AcDbEntity
  8
KONSTRUKTIONSELEMENTE
100
AcDbLine
 62
7
  6
CONTINUOUS
 10
241.4154965341
 20
202.3402933198
 11
240.9686880768
 21
202.4861265141
  0
LINE
  5
4F1
100
AcDbEntity
  8
KONSTRUKTIONSELEMENTE
100
AcDbLine
 62
7
  6
CONTINUOUS
 10
244.6920922011
 20
208.6111269313
 11
244.096347487
 21
208.9027933198
  0
LINE
  5
4F2
100
AcDbEntity
  8
KONSTRUKTIONSELEMENTE
100
AcDbLine
 62
7
  6
CONTINUOUS
 10
243.9474113345
 20
208.0277933198
 11
244.3942197919
 21
207.7361269313
  0
LINE
  5
4F3
100
AcDbEntity
  8
KONSTRUKTIONSELEMENTE
100
AcDbLine
 62
7
  6
CONTINUOUS
 10
243.9474113345
 20
215.0277933198
 11
244.3942197919
 21
214.7361260968
  0
LINE
  5
4F4
100
AcDbEntity
  8
0
100
AcDbLine
 62
7
  6
CONTINUOUS
 10
296.150523125
 20
164.1534137771
 11
296.463023125
 21
163.7278819129
  0
LINE
  5
4F5
100
AcDbEntity
  8
0
100
AcDbLine
 62
7
  6
CONTINUOUS
 10
283.5880226481
 20
172.690009608
 11
283.838023125
 21
172.3070305726
  0
LINE
  5
4F6
100
AcDbEntity
  8
0
100
AcDbLine
 62
7
  6
CONTINUOUS
 10
296.0463556636
 20
161.493839328
 11
296.2546905864
 21
161.1746902809
  0
LINE
  5
4F7
100
AcDbEntity
  8
0
100
AcDbLine
 62
7
  6
CONTINUOUS
 10
293.1296905864
 20
160.5363924846
 11
293.4421905864
 21
160.0044775427
  0
LINE
  5
4F8
100
AcDbEntity
  8
0
100
AcDbLine
 62
7
  6
CONTINUOUS
 10
288.5463556636
 20
160.7491584167
 11
288.7546905864
 21
160.323626478
  0
LINE
  5
4F9
100
AcDbEntity
  8
0
100
AcDbLine
 62
7
  6
CONTINUOUS
 10
284.3380226481
 20
172.9453287265
 11
284.588023125
 21
172.4346904895
  0
LINE
  5
4FA
100
AcDbEntity
  8
0
100
AcDbLine
 62
7
  6
CONTINUOUS
 10
282.2963556636
 20
163.7278819129
 11
282.400523125
 21
163.4087330148
  0
LINE
  5
4FB
100
AcDbEntity
  8
0
100
AcDbLine
 62
7
  6
CONTINUOUS
 10
282.9213556636
 20
163.7278819129
 11
283.025523125
 21
163.4087330148
  0
LINE
  5
4FC
100
AcDbEntity
  8
0
100
AcDbLine
 62
7
  6
CONTINUOUS
 10
277.9630233634
 20
169.881498768
 11
277.9630233634
 21
173.8389456412
  0
LINE
  5
4FD
100
AcDbEntity
  8
0
100
AcDbLine
 62
7
  6
CONTINUOUS
 10
278.338023125
 20
161.3874562129
 11
278.338023125
 21
161.9193711922
  0
LINE
  5
4FE
100
AcDbEntity
  8
0
100
AcDbLine
 62
7
  6
CONTINUOUS
 10
278.4189221787
 20
198.8189456412
 11
278.4189221787
 21
199.0189456412
  0
LINE
  5
4FF
100
AcDbEntity
  8
0
100
AcDbLine
 62
7
  6
CONTINUOUS
 10
278.7130233634
 20
169.881498768
 11
278.7130233634
 21
173.8389456412
  0
LINE
  5
500
100
AcDbEntity
  8
0
100
AcDbLine
 62
7
  6
CONTINUOUS
 10
278.8030389118
 20
198.8189456412
 11
278.8030389118
 21
199.0189456412
  0
LINE
  5
501
100
AcDbEntity
  8
0
100
AcDbLine
 62
7
  6
CONTINUOUS
 10
279.1713556636
 20
159.5789456412
 11
279.1713556636
 21
164.5789456412
  0
LINE
  5
502
100
AcDbEntity
  8
0
100
AcDbLine
 62
7
  6
CONTINUOUS
 10
279.3094852104
 20
198.8189456412
 11
279.3094852104
 21
199.0189456412
  0
LINE
  5
503
100
AcDbEntity
  8
0
100
AcDbLine
 62
7
  6
CONTINUOUS
 10
279.4336284423
 20
198.8189456412
 11
279.4336284423
 21
199.0189456412
  0
LINE
  5
504
100
AcDbEntity
  8
0
100
AcDbLine
 62
7
  6
CONTINUOUS
 10
279.5337890846
 20
198.8189456412
 11
279.5337890846
 21
199.0189456412
  0
LINE
  5
505
100
AcDbEntity
  8
0
100
AcDbLine
 62
7
  6
CONTINUOUS
 10
279.5708707902
 20
198.8189456412
 11
279.5708707902
 21
199.0189456412
  0
LINE
  5
506
100
AcDbEntity
  8
0
100
AcDbLine
 62
7
  6
CONTINUOUS
 10
279.713023125
 20
167.8389456412
 11
279.713023125
 21
173.8389456412
  0
LINE
  5
507
100
AcDbEntity
  8
0
100
AcDbLine
 62
7
  6
CONTINUOUS
 10
279.7963556636
 20
159.5789456412
 11
279.7963556636
 21
161.8129882261
  0
LINE
  5
508
100
AcDbEntity
  8
0
100
AcDbLine
 62
7
  6
CONTINUOUS
 10
279.7963556636
 20
162.4512860224
 11
279.7963556636
 21
164.047030811
  0
LINE
  5
509
100
AcDbEntity
  8
0
100
AcDbLine
 62
7
  6
CONTINUOUS
 10
279.9813568557
 20
152.4683073148
 11
279.9813568557
 21
152.6810732469
  0
LINE
  5
50A
100
AcDbEntity
  8
0
100
AcDbLine
 62
7
  6
CONTINUOUS
 10
280.2861186439
 20
198.8189456412
 11
280.2861186439
 21
199.0189456412
  0
LINE
  5
50B
100
AcDbEntity
  8
0
100
AcDbLine
 62
7
  6
CONTINUOUS
 10
280.2938568557
 20
155.447030811
 11
280.2938568557
 21
155.9789456412
  0
LINE
  5
50C
100
AcDbEntity
  8
0
100
AcDbLine
 62
7
  6
CONTINUOUS
 10
280.2976775939
 20
198.8189456412
 11
280.2976775939
 21
199.0189456412
  0
LINE
  5
50D
100
AcDbEntity
  8
0
100
AcDbLine
 62
7
  6
CONTINUOUS
 10
280.4423700287
 20
198.8189456412
 11
280.4423700287
 21
199.0189456412
  0
LINE
  5
50E
100
AcDbEntity
  8
0
100
AcDbLine
 62
7
  6
CONTINUOUS
 10
280.463023125
 20
168.6049030861
 11
280.463023125
 21
173.0729882857
  0
LINE
  5
50F
100
AcDbEntity
  8
0
100
AcDbLine
 62
7
  6
CONTINUOUS
 10
280.5021893943
 20
152.3619243488
 11
280.5021893943
 21
152.7874562129
  0
LINE
  5
510
100
AcDbEntity
  8
0
100
AcDbLine
 62
7
  6
CONTINUOUS
 10
280.6478502888
 20
198.8189456412
 11
280.6478502888
 21
199.0189456412
  0
LINE
  5
511
100
AcDbEntity
  8
0
100
AcDbLine
 62
7
  6
CONTINUOUS
 10
280.9502909171
 20
198.8189456412
 11
280.9502909171
 21
199.0189456412
  0
LINE
  5
512
100
AcDbEntity
  8
0
100
AcDbLine
 62
7
  6
CONTINUOUS
 10
281.216558627
 20
198.8189456412
 11
281.216558627
 21
199.0189456412
  0
LINE
  5
513
100
AcDbEntity
  8
0
100
AcDbLine
 62
7
  6
CONTINUOUS
 10
281.335523125
 20
153.9576689884
 11
281.335523125
 21
154.3832008526
  0
LINE
  5
514
100
AcDbEntity
  8
0
100
AcDbLine
 62
7
  6
CONTINUOUS
 10
281.5797867025
 20
198.8189456412
 11
281.5797867025
 21
199.0189456412
  0
LINE
  5
515
100
AcDbEntity
  8
0
100
AcDbLine
 62
7
  6
CONTINUOUS
 10
281.9068418623
 20
198.8189456412
 11
281.9068418623
 21
199.0189456412
  0
LINE
  5
516
100
AcDbEntity
  8
0
100
AcDbLine
 62
7
  6
CONTINUOUS
 10
282.1688568557
 20
151.8300094441
 11
282.1688568557
 21
153.9576689884
  0
LINE
  5
517
100
AcDbEntity
  8
0
100
AcDbLine
 62
7
  6
CONTINUOUS
 10
282.1688568557
 20
154.3832008526
 11
282.1688568557
 21
155.2342648789
  0
LINE
  5
518
100
AcDbEntity
  8
0
100
AcDbLine
 62
7
  6
CONTINUOUS
 10
282.2946844666
 20
198.8189456412
 11
282.2946844666
 21
199.0189456412
  0
LINE
  5
519
100
AcDbEntity
  8
0
100
AcDbLine
 62
7
  6
CONTINUOUS
 10
282.400523125
 20
163.0895838186
 11
282.400523125
 21
163.4087330148
  0
LINE
  5
51A
100
AcDbEntity
  8
0
100
AcDbLine
 62
7
  6
CONTINUOUS
 10
282.5493930362
 20
198.8189456412
 11
282.5493930362
 21
199.0189456412
  0
LINE
  5
51B
100
AcDbEntity
  8
0
100
AcDbLine
 62
7
  6
CONTINUOUS
 10
282.6896893943
 20
152.0427754507
 11
282.6896893943
 21
153.9576689884
  0
LINE
  5
51C
100
AcDbEntity
  8
0
100
AcDbLine
 62
7
  6
CONTINUOUS
 10
282.6896893943
 20
154.3832008526
 11
282.6896893943
 21
155.2342648789
  0
LINE
  5
51D
100
AcDbEntity
  8
0
100
AcDbLine
 62
7
  6
CONTINUOUS
 10
282.7679286635
 20
198.8189456412
 11
282.7679286635
 21
199.0189456412
  0
LINE
  5
51E
100
AcDbEntity
  8
0
100
AcDbLine
 62
7
  6
CONTINUOUS
 10
282.7999635174
 20
198.8189456412
 11
282.7999635174
 21
199.0189456412
  0
LINE
  5
51F
100
AcDbEntity
  8
0
100
AcDbLine
 62
7
  6
CONTINUOUS
 10
283.025523125
 20
162.9832008526
 11
283.025523125
 21
163.4087330148
  0
LINE
  5
520
100
AcDbEntity
  8
0
100
AcDbLine
 62
7
  6
CONTINUOUS
 10
283.6271893943
 20
150.9789456412
 11
283.6271893943
 21
151.4044775427
  0
LINE
  5
521
100
AcDbEntity
  8
0
100
AcDbLine
 62
7
  6
CONTINUOUS
 10
283.835523125
 20
153.9576689884
 11
283.835523125
 21
154.3832008526
  0
LINE
  5
522
100
AcDbEntity
  8
0
100
AcDbLine
 62
7
  6
CONTINUOUS
 10
283.8588556636
 20
159.5789456412
 11
283.8588556636
 21
164.5789456412
  0
LINE
  5
523
100
AcDbEntity
  8
0
100
AcDbLine
 62
7
  6
CONTINUOUS
 10
283.9630226481
 20
169.881498768
 11
283.9630226481
 21
171.7963923356
  0
LINE
  5
524
100
AcDbEntity
  8
0
100
AcDbLine
 62
7
  6
CONTINUOUS
 10
271.9838568557
 20
162.8768178865
 11
272.088023125
 21
163.4087330148
  0
LINE
  5
525
100
AcDbEntity
  8
0
100
AcDbLine
 62
7
  6
CONTINUOUS
 10
278.588023125
 20
169.2432009718
 11
278.7130233634
 21
169.881498768
  0
LINE
  5
526
100
AcDbEntity
  8
0
100
AcDbLine
 62
7
  6
CONTINUOUS
 10
272.6088568557
 20
162.8768178865
 11
272.713023125
 21
163.3023497507
  0
LINE
  5
527
100
AcDbEntity
  8
0
100
AcDbLine
 62
7
  6
CONTINUOUS
 10
277.838023125
 20
169.370860531
 11
277.9630233634
 21
169.881498768
  0
LINE
  5
528
100
AcDbEntity
  8
0
100
AcDbLine
 62
7
  6
CONTINUOUS
 10
275.9421893943
 20
160.323626478
 11
276.0463568557
 21
160.7491584167
  0
LINE
  5
529
100
AcDbEntity
  8
0
100
AcDbLine
 62
7
  6
CONTINUOUS
 10
272.213023125
 20
171.6687327764
 11
272.3380230058
 21
172.0517114541
  0
LINE
  5
52A
100
AcDbEntity
  8
0
100
AcDbLine
 62
7
  6
CONTINUOUS
 10
272.963023125
 20
171.5410732171
 11
273.0880230058
 21
171.9240518949
  0
LINE
  5
52B
100
AcDbEntity
  8
0
100
AcDbLine
 62
7
  6
CONTINUOUS
 10
270.4213568557
 20
162.7704349205
 11
270.525523125
 21
163.0895838186
  0
LINE
  5
52C
100
AcDbEntity
  8
0
100
AcDbLine
 62
7
  6
CONTINUOUS
 10
271.0463568557
 20
162.6640519545
 11
271.150523125
 21
162.9832008526
  0
LINE
  5
52D
100
AcDbEntity
  8
0
100
AcDbLine
 62
7
  6
CONTINUOUS
 10
270.4213568557
 20
160.5363924846
 11
270.525523125
 21
160.8555413827
  0
LINE
  5
52E
100
AcDbEntity
  8
0
100
AcDbLine
 62
7
  6
CONTINUOUS
 10
271.0463568557
 20
160.4300094441
 11
271.150523125
 21
160.7491584167
  0
LINE
  5
52F
100
AcDbEntity
  8
KONSTRUKTIONSELEMENTE
100
AcDbLine
 62
7
  6
CONTINUOUS
 10
238.7346453727
 20
197.0902933198
 11
245.7346453727
 21
197.0902933198
  0
LINE
  5
530
100
AcDbEntity
  8
KONSTRUKTIONSELEMENTE
100
AcDbLine
 62
7
  6
CONTINUOUS
 10
245.7346453727
 20
197.9652933198
 11
242.6069857538
 21
197.9652933198
  0
LINE
  5
531
100
AcDbEntity
  8
KONSTRUKTIONSELEMENTE
100
AcDbLine
 62
7
  6
CONTINUOUS
 10
241.7133688391
 20
197.9652933198
 11
239.479326135
 21
197.9652933198
  0
LINE
  5
532
100
AcDbEntity
  8
BEZUGSACHSEN
100
AcDbLine
 62
7
  6
CONTINUOUS
 10
258.553023125
 20
198.8189456412
 11
294.553023125
 21
198.8189456412
  0
LINE
  5
533
100
AcDbEntity
  8
0
100
AcDbLine
 62
7
  6
CONTINUOUS
 10
276.560205984
 20
199.0189456412
 11
279.5708707902
 21
199.0189456412
  0
LINE
  5
534
100
AcDbEntity
  8
0
100
AcDbLine
 62
7
  6
CONTINUOUS
 10
280.2861186439
 20
199.0189456412
 11
291.2194337985
 21
199.0189456412
  0
LINE
  5
535
100
AcDbEntity
  8
KONSTRUKTIONSELEMENTE
100
AcDbLine
 62
7
  6
CONTINUOUS
 10
243.3516667247
 20
208.1736269313
 11
243.9474113345
 21
208.0277933198
  0
LINE
  5
536
100
AcDbEntity
  8
KONSTRUKTIONSELEMENTE
100
AcDbLine
 62
7
  6
CONTINUOUS
 10
244.6920922011
 20
215.6111260968
 11
244.096347487
 21
215.9027933198
  0
LINE
  5
537
100
AcDbEntity
  8
0
100
AcDbLine
 62
7
  6
CONTINUOUS
 10
296.6713556636
 20
161.7066052601
 11
296.8796905864
 21
161.2810732469
  0
LINE
  5
538
100
AcDbEntity
  8
0
100
AcDbLine
 62
7
  6
CONTINUOUS
 10
295.838023125
 20
163.6214989469
 11
295.9421905864
 21
163.4087330148
  0
LINE
  5
539
100
AcDbEntity
  8
0
100
AcDbLine
 62
7
  6
CONTINUOUS
 10
293.650523125
 20
160.9619243488
 11
293.7546905864
 21
160.6427754507
  0
LINE
  5
53A
100
AcDbEntity
  8
0
100
AcDbLine
 62
7
  6
CONTINUOUS
 10
293.963023125
 20
163.0895838186
 11
294.0671905864
 21
162.7704349205
  0
LINE
  5
53B
100
AcDbEntity
  8
0
100
AcDbLine
 62
7
  6
CONTINUOUS
 10
283.838023125
 20
172.3070305726
 11
283.9630226481
 21
171.7963923356
  0
LINE
  5
53C
100
AcDbEntity
  8
0
100
AcDbLine
 62
7
  6
CONTINUOUS
 10
289.0671905864
 20
161.2810732469
 11
289.1713556636
 21
160.8555413827
  0
LINE
  5
53D
100
AcDbEntity
  8
0
100
AcDbLine
 62
7
  6
CONTINUOUS
 10
284.588023125
 20
172.4346904895
 11
284.7130226481
 21
171.7963923356
  0
LINE
  5
53E
100
AcDbEntity
  8
0
100
AcDbLine
 62
7
  6
CONTINUOUS
 10
288.4421905864
 20
161.2810732469
 11
288.5463556636
 21
160.7491584167
  0
LINE
  5
53F
100
AcDbEntity
  8
0
100
AcDbLine
 62
7
  6
CONTINUOUS
 10
284.1126216944
 20
198.8189456412
 11
284.1126216944
 21
199.0189456412
  0
LINE
  5
540
100
AcDbEntity
  8
0
100
AcDbLine
 62
7
  6
CONTINUOUS
 10
284.4353407303
 20
198.8189456412
 11
284.4353407303
 21
199.0189456412
  0
LINE
  5
541
100
AcDbEntity
  8
0
100
AcDbLine
 62
7
  6
CONTINUOUS
 10
284.4838556636
 20
160.217243512
 11
284.4838556636
 21
164.5789456412
  0
LINE
  5
542
100
AcDbEntity
  8
0
100
AcDbLine
 62
7
  6
CONTINUOUS
 10
284.7130226481
 20
169.881498768
 11
284.7130226481
 21
171.7963923356
  0
LINE
  5
543
100
AcDbEntity
  8
0
100
AcDbLine
 62
7
  6
CONTINUOUS
 10
284.7526136362
 20
198.8189456412
 11
284.7526136362
 21
199.0189456412
  0
LINE
  5
544
100
AcDbEntity
  8
0
100
AcDbLine
 62
7
  6
CONTINUOUS
 10
285.1683832851
 20
198.8189456412
 11
285.1683832851
 21
199.0189456412
  0
LINE
  5
545
100
AcDbEntity
  8
0
100
AcDbLine
 62
7
  6
CONTINUOUS
 10
285.4747651871
 20
198.8189456412
 11
285.4747651871
 21
199.0189456412
  0
LINE
  5
546
100
AcDbEntity
  8
0
100
AcDbLine
 62
7
  6
CONTINUOUS
 10
285.7757009159
 20
198.8189456412
 11
285.7757009159
 21
199.0189456412
  0
LINE
  5
547
100
AcDbEntity
  8
0
100
AcDbLine
 62
7
  6
CONTINUOUS
 10
286.2887456271
 20
198.8189456412
 11
286.2887456271
 21
199.0189456412
  0
LINE
  5
548
100
AcDbEntity
  8
0
100
AcDbLine
 62
7
  6
CONTINUOUS
 10
286.9221466276
 20
198.8189456412
 11
286.9221466276
 21
199.0189456412
  0
LINE
  5
549
100
AcDbEntity
  8
0
100
AcDbLine
 62
7
  6
CONTINUOUS
 10
287.3265231622
 20
198.8189456412
 11
287.3265231622
 21
199.0189456412
  0
LINE
  5
54A
100
AcDbEntity
  8
0
100
AcDbLine
 62
7
  6
CONTINUOUS
 10
287.6088556636
 20
159.5789456412
 11
287.6088556636
 21
160.217243512
  0
LINE
  5
54B
100
AcDbEntity
  8
0
100
AcDbLine
 62
7
  6
CONTINUOUS
 10
287.6366672831
 20
198.8189456412
 11
287.6366672831
 21
199.0189456412
  0
LINE
  5
54C
100
AcDbEntity
  8
0
100
AcDbLine
 62
7
  6
CONTINUOUS
 10
288.4421905864
 20
161.2810732469
 11
288.4421905864
 21
164.5789456412
  0
LINE
  5
54D
100
AcDbEntity
  8
BEZUGSACHSEN
100
AcDbLine
 62
7
  6
CONTINUOUS
 10
288.553023125
 20
105.3189456412
 11
288.553023125
 21
141.0189456412
  0
LINE
  5
54E
100
AcDbEntity
  8
0
100
AcDbLine
 62
7
  6
CONTINUOUS
 10
289.0671905864
 20
161.2810732469
 11
289.0671905864
 21
164.5789456412
  0
LINE
  5
54F
100
AcDbEntity
  8
0
100
AcDbLine
 62
7
  6
CONTINUOUS
 10
289.4563614528
 20
198.8189456412
 11
289.4563614528
 21
199.0189456412
  0
LINE
  5
550
100
AcDbEntity
  8
0
100
AcDbLine
 62
7
  6
CONTINUOUS
 10
289.6424482093
 20
198.8189456412
 11
289.6424482093
 21
199.0189456412
  0
LINE
  5
551
100
AcDbEntity
  8
0
100
AcDbLine
 62
7
  6
CONTINUOUS
 10
289.8774475596
 20
198.8189456412
 11
289.8774475596
 21
199.0189456412
  0
LINE
  5
552
100
AcDbEntity
  8
0
100
AcDbLine
 62
7
  6
CONTINUOUS
 10
290.0249851236
 20
198.8189456412
 11
290.0249851236
 21
199.0189456412
  0
LINE
  5
553
100
AcDbEntity
  8
0
100
AcDbLine
 62
7
  6
CONTINUOUS
 10
290.3300297211
 20
198.8189456412
 11
290.3300297211
 21
199.0189456412
  0
LINE
  5
554
100
AcDbEntity
  8
0
100
AcDbLine
 62
7
  6
CONTINUOUS
 10
284.588023125
 20
169.2432009718
 11
284.7130226481
 21
169.881498768
  0
LINE
  5
555
100
AcDbEntity
  8
0
100
AcDbLine
 62
7
  6
CONTINUOUS
 10
283.838023125
 20
169.370860531
 11
283.9630226481
 21
169.881498768
  0
LINE
  5
556
100
AcDbEntity
  8
0
100
AcDbLine
 62
7
  6
CONTINUOUS
 10
275.3171893943
 20
160.5363924846
 11
275.4213568557
 21
160.8555413827
  0
LINE
  5
557
100
AcDbEntity
  8
0
100
AcDbLine
 62
7
  6
CONTINUOUS
 10
310.053023125
 20
240.4189456412
 11
312.8939356823
 21
247.1117162105
  0
LINE
  5
558
100
AcDbEntity
  8
0
100
AcDbLine
 62
7
  6
CONTINUOUS
 10
272.088023125
 20
163.4087330148
 11
272.2963568557
 21
163.8342648789
  0
LINE
  5
559
100
AcDbEntity
  8
0
100
AcDbLine
 62
7
  6
CONTINUOUS
 10
278.3380233634
 20
168.7325626454
 11
278.588023125
 21
169.2432009718
  0
LINE
  5
55A
100
AcDbEntity
  8
0
100
AcDbLine
 62
7
  6
CONTINUOUS
 10
272.713023125
 20
163.3023497507
 11
272.9213568557
 21
163.6214989469
  0
LINE
  5
55B
100
AcDbEntity
  8
0
100
AcDbLine
 62
7
  6
CONTINUOUS
 10
272.588023125
 20
171.0304349801
 11
272.963023125
 21
171.5410732171
  0
LINE
  5
55C
100
AcDbEntity
  8
0
100
AcDbLine
 62
7
  6
CONTINUOUS
 10
270.7338568557
 20
162.2385200903
 11
271.0463568557
 21
162.6640519545
  0
LINE
  5
55D
100
AcDbEntity
  8
0
100
AcDbLine
 62
7
  6
CONTINUOUS
 10
271.9630230058
 20
171.4134136579
 11
272.213023125
 21
171.6687327764
  0
LINE
  5
55E
100
AcDbEntity
  8
KONSTRUKTIONSELEMENTE
100
AcDbLine
 62
7
  6
CONTINUOUS
 10
240.3729430497
 20
201.6111265141
 11
240.8197519243
 21
201.6111265141
  0
LINE
  5
55F
100
AcDbEntity
  8
KONSTRUKTIONSELEMENTE
100
AcDbLine
 62
7
  6
CONTINUOUS
 10
240.9686880768
 20
202.4861265141
 11
240.3729430497
 21
202.4861265141
  0
LINE
  5
560
100
AcDbEntity
  8
KONSTRUKTIONSELEMENTE
100
AcDbLine
 62
7
  6
CONTINUOUS
 10
238.7346453727
 20
203.7986265141
 11
243.3516667247
 21
203.7986265141
  0
LINE
  5
561
100
AcDbEntity
  8
KONSTRUKTIONSELEMENTE
100
AcDbLine
 62
7
  6
CONTINUOUS
 10
243.3516667247
 20
204.6736269313
 11
238.7346453727
 21
204.6736269313
  0
LINE
  5
562
100
AcDbEntity
  8
KONSTRUKTIONSELEMENTE
100
AcDbLine
 62
7
  6
CONTINUOUS
 10
244.096347487
 20
208.9027933198
 11
243.3516667247
 21
209.0486269313
  0
LINE
  5
563
100
AcDbEntity
  8
KONSTRUKTIONSELEMENTE
100
AcDbLine
 62
7
  6
CONTINUOUS
 10
243.3516667247
 20
215.1736260968
 11
243.9474113345
 21
215.0277933198
  0
LINE
  5
564
100
AcDbEntity
  8
0
100
AcDbLine
 62
7
  6
CONTINUOUS
 10
296.463023125
 20
163.7278819129
 11
296.5671905864
 21
163.4087330148
  0
LINE
  5
565
100
AcDbEntity
  8
0
100
AcDbLine
 62
7
  6
CONTINUOUS
 10
293.025523125
 20
160.9619243488
 11
293.1296905864
 21
160.5363924846
  0
LINE
  5
566
100
AcDbEntity
  8
0
100
AcDbLine
 62
7
  6
CONTINUOUS
 10
293.338023125
 20
162.9832008526
 11
293.4421905864
 21
162.5576689884
  0
LINE
  5
567
100
AcDbEntity
  8
0
100
AcDbLine
 62
7
  6
CONTINUOUS
 10
290.6649846517
 20
198.8189456412
 11
290.6649846517
 21
199.0189456412
  0
LINE
  5
568
100
AcDbEntity
  8
0
100
AcDbLine
 62
7
  6
CONTINUOUS
 10
290.8524022251
 20
198.8189456412
 11
290.8524022251
 21
199.0189456412
  0
LINE
  5
569
100
AcDbEntity
  8
0
100
AcDbLine
 62
7
  6
CONTINUOUS
 10
290.9859911137
 20
198.8189456412
 11
290.9859911137
 21
199.0189456412
  0
LINE
  5
56A
100
AcDbEntity
  8
0
100
AcDbLine
 62
7
  6
CONTINUOUS
 10
291.0258711015
 20
198.8189456412
 11
291.0258711015
 21
199.0189456412
  0
LINE
  5
56B
100
AcDbEntity
  8
0
100
AcDbLine
 62
7
  6
CONTINUOUS
 10
291.2194337985
 20
198.8189456412
 11
291.2194337985
 21
199.0189456412
  0
LINE
  5
56C
100
AcDbEntity
  8
0
100
AcDbLine
 62
7
  6
CONTINUOUS
 10
291.5671905864
 20
161.2810732469
 11
291.5671905864
 21
164.5789456412
  0
LINE
  5
56D
100
AcDbEntity
  8
0
100
AcDbLine
 62
7
  6
CONTINUOUS
 10
292.1921905864
 20
161.2810732469
 11
292.1921905864
 21
164.5789456412
  0
LINE
  5
56E
100
AcDbEntity
  8
0
100
AcDbLine
 62
7
  6
CONTINUOUS
 10
293.053023125
 20
178.6689456412
 11
293.053023125
 21
178.4189456412
  0
LINE
  5
56F
100
AcDbEntity
  8
0
100
AcDbLine
 62
7
  6
CONTINUOUS
 10
293.053023125
 20
146.4189456412
 11
293.053023125
 21
146.1689456412
  0
LINE
  5
570
100
AcDbEntity
  8
BEZUGSACHSEN
100
AcDbLine
 62
7
  6
CONTINUOUS
 10
293.153023125
 20
183.8189456412
 11
293.153023125
 21
184.3189456412
  0
LINE
  5
571
100
AcDbEntity
  8
0
100
AcDbLine
 62
7
  6
CONTINUOUS
 10
293.338023125
 20
162.9832008526
 11
293.338023125
 21
163.4087330148
  0
LINE
  5
572
100
AcDbEntity
  8
0
100
AcDbLine
 62
7
  6
CONTINUOUS
 10
293.963023125
 20
163.0895838186
 11
293.963023125
 21
163.3023497507
  0
LINE
  5
573
100
AcDbEntity
  8
BEZUGSACHSEN
100
AcDbLine
 62
7
  6
CONTINUOUS
 10
294.553023125
 20
184.3189456412
 11
294.553023125
 21
198.8189456412
  0
LINE
  5
574
100
AcDbEntity
  8
0
100
AcDbLine
 62
7
  6
CONTINUOUS
 10
296.2546905864
 20
160.8555413827
 11
296.2546905864
 21
161.1746902809
  0
LINE
  5
575
100
AcDbEntity
  8
0
100
AcDbLine
 62
7
  6
CONTINUOUS
 10
296.8796905864
 20
160.7491584167
 11
296.8796905864
 21
161.2810732469
  0
LINE
  5
576
100
AcDbEntity
  8
0
100
AcDbLine
 62
7
  6
CONTINUOUS
 10
282.2963556636
 20
162.7704349205
 11
282.400523125
 21
163.0895838186
  0
LINE
  5
577
100
AcDbEntity
  8
0
100
AcDbLine
 62
7
  6
CONTINUOUS
 10
282.9213556636
 20
162.6640519545
 11
283.025523125
 21
162.9832008526
  0
LINE
  5
578
100
AcDbEntity
  8
0
100
AcDbLine
 62
7
  6
CONTINUOUS
 10
279.8771893943
 20
152.1491584167
 11
279.9813568557
 21
152.4683073148
  0
LINE
  5
579
100
AcDbEntity
  8
0
100
AcDbLine
 62
7
  6
CONTINUOUS
 10
280.2938568557
 20
151.8300094441
 11
280.5021893943
 21
152.3619243488
  0
LINE
  5
57A
100
AcDbEntity
  8
0
100
AcDbLine
 62
7
  6
CONTINUOUS
 10
284.3380226481
 20
168.7325626454
 11
284.588023125
 21
169.2432009718
  0
LINE
  5
57B
100
AcDbEntity
  8
0
100
AcDbLine
 62
7
  6
CONTINUOUS
 10
274.773023125
 20
150.3406477705
 11
275.398023125
 21
151.5108605459
  0
LINE
  5
57C
100
AcDbEntity
  8
0
100
AcDbLine
 62
7
  6
CONTINUOUS
 10
275.2938562596
 20
150.3406477705
 11
275.9188562596
 21
151.5108605459
  0
LINE
  5
57D
100
AcDbEntity
  8
0
100
AcDbLine
 62
7
  6
CONTINUOUS
 10
277.5880233634
 20
168.9878818533
 11
277.838023125
 21
169.370860531
  0
LINE
  5
57E
100
AcDbEntity
  8
0
100
AcDbLine
 62
7
  6
CONTINUOUS
 10
283.5880226481
 20
168.9878818533
 11
283.838023125
 21
169.370860531
  0
LINE
  5
57F
100
AcDbEntity
  8
0
100
AcDbLine
 62
7
  6
CONTINUOUS
 10
270.7338568557
 20
160.0044775427
 11
271.0463568557
 21
160.4300094441
  0
LINE
  5
580
100
AcDbEntity
  8
0
100
AcDbLine
 62
7
  6
CONTINUOUS
 10
270.213023125
 20
162.5576689884
 11
270.4213568557
 21
162.7704349205
  0
LINE
  5
581
100
AcDbEntity
  8
0
100
AcDbLine
 62
7
  6
CONTINUOUS
 10
272.2963568557
 20
163.8342648789
 11
272.713023125
 21
164.2597967431
  0
LINE
  5
582
100
AcDbEntity
  8
0
100
AcDbLine
 62
7
  6
CONTINUOUS
 10
277.838023125
 20
168.2219243637
 11
278.3380233634
 21
168.7325626454
  0
LINE
  5
583
100
AcDbEntity
  8
0
100
AcDbLine
 62
7
  6
CONTINUOUS
 10
270.213023125
 20
160.323626478
 11
270.4213568557
 21
160.5363924846
  0
LINE
  5
584
100
AcDbEntity
  8
0
100
AcDbLine
 62
7
  6
CONTINUOUS
 10
272.0880232442
 20
170.7751158616
 11
272.588023125
 21
171.0304349801
  0
LINE
  5
585
100
AcDbEntity
  8
0
100
AcDbLine
 62
7
  6
CONTINUOUS
 10
271.5880230058
 20
171.2857540986
 11
271.9630230058
 21
171.4134136579
  0
LINE
  5
586
100
AcDbEntity
  8
KONSTRUKTIONSELEMENTE
100
AcDbLine
 62
7
  6
CONTINUOUS
 10
243.9474113345
 20
204.8194597083
 11
243.3516667247
 21
204.6736269313
  0
LINE
  5
587
100
AcDbEntity
  8
KONSTRUKTIONSELEMENTE
100
AcDbLine
 62
7
  6
CONTINUOUS
 10
243.3516667247
 20
203.7986265141
 11
244.096347487
 21
203.9444601255
  0
LINE
  5
588
100
AcDbEntity
  8
KONSTRUKTIONSELEMENTE
100
AcDbLine
 62
7
  6
CONTINUOUS
 10
238.7346453727
 20
208.1736269313
 11
243.3516667247
 21
208.1736269313
  0
LINE
  5
589
100
AcDbEntity
  8
KONSTRUKTIONSELEMENTE
100
AcDbLine
 62
7
  6
CONTINUOUS
 10
243.3516667247
 20
209.0486269313
 11
238.7346453727
 21
209.0486269313
  0
LINE
  5
58A
100
AcDbEntity
  8
0
100
AcDbLine
 62
7
  6
CONTINUOUS
 10
314.3645219472
 20
210.1356121721
 11
313.1558534908
 21
210.1356121721
  0
LINE
  5
58B
100
AcDbEntity
  8
0
100
AcDbLine
 62
7
  6
CONTINUOUS
 10
307.6132909066
 20
210.1356121721
 11
306.4046224503
 21
210.1356121721
  0
LINE
  5
58C
100
AcDbEntity
  8
KONSTRUKTIONSELEMENTE
100
AcDbLine
 62
7
  6
CONTINUOUS
 10
238.7346453727
 20
210.2152933198
 11
245.7346453727
 21
210.2152933198
  0
LINE
  5
58D
100
AcDbEntity
  8
KONSTRUKTIONSELEMENTE
100
AcDbLine
 62
7
  6
CONTINUOUS
 10
244.8410283536
 20
211.0902933198
 11
239.6282622874
 21
211.0902933198
  0
LINE
  5
58E
100
AcDbEntity
  8
KONSTRUKTIONSELEMENTE
100
AcDbLine
 62
7
  6
CONTINUOUS
 10
244.096347487
 20
215.9027933198
 11
243.3516667247
 21
216.0486260968
  0
LINE
  5
58F
100
AcDbEntity
  8
0
100
AcDbLine
 62
7
  6
CONTINUOUS
 10
299.053023125
 20
183.8189456412
 11
299.053023125
 21
178.6689456412
  0
LINE
  5
590
100
AcDbEntity
  8
0
100
AcDbLine
 62
7
  6
CONTINUOUS
 10
299.053023125
 20
146.1689456412
 11
299.053023125
 21
141.0189456412
  0
LINE
  5
591
100
AcDbEntity
  8
RUNDUNGEN
100
AcDbLine
 62
7
  6
CONTINUOUS
 10
301.553023125
 20
148.4189456412
 11
301.553023125
 21
176.4189456412
  0
LINE
  5
592
100
AcDbEntity
  8
0
100
AcDbLine
 62
7
  6
CONTINUOUS
 10
303.553023125
 20
199.958415103
 11
303.553023125
 21
250.7595283229
  0
LINE
  5
593
100
AcDbEntity
  8
KONSTRUKTIONSELEMENTE
100
AcDbLine
 62
7
  6
CONTINUOUS
 10
303.553023125
 20
178.6689456412
 11
303.553023125
 21
251.6504207677
  0
LINE
  5
594
100
AcDbEntity
  8
0
100
AcDbLine
 62
7
  6
CONTINUOUS
 10
292.088023125
 20
160.7491584167
 11
292.1921905864
 21
161.2810732469
  0
LINE
  5
595
100
AcDbEntity
  8
0
100
AcDbLine
 62
7
  6
CONTINUOUS
 10
291.463023125
 20
160.8555413827
 11
291.5671905864
 21
161.2810732469
  0
LINE
  5
596
100
AcDbEntity
  8
0
100
AcDbLine
 62
7
  6
CONTINUOUS
 10
293.338023125
 20
163.4087330148
 11
293.4421905864
 21
163.8342648789
  0
LINE
  5
597
100
AcDbEntity
  8
0
100
AcDbLine
 62
7
  6
CONTINUOUS
 10
293.963023125
 20
163.3023497507
 11
294.0671905864
 21
163.6214989469
  0
LINE
  5
598
100
AcDbEntity
  8
0
100
AcDbLine
 62
7
  6
CONTINUOUS
 10
279.6688562596
 20
151.8300094441
 11
279.8771893943
 21
152.1491584167
  0
LINE
  5
599
100
AcDbEntity
  8
0
100
AcDbLine
 62
7
  6
CONTINUOUS
 10
282.6088556636
 20
162.2385200903
 11
282.9213556636
 21
162.6640519545
  0
LINE
  5
59A
100
AcDbEntity
  8
0
100
AcDbLine
 62
7
  6
CONTINUOUS
 10
269.773023125
 20
153.1066052601
 11
272.273023125
 21
155.9789456412
  0
LINE
  5
59B
100
AcDbEntity
  8
0
100
AcDbLine
 62
7
  6
CONTINUOUS
 10
270.5021897668
 20
153.1066052601
 11
272.273023125
 21
155.1278819129
  0
LINE
  5
59C
100
AcDbEntity
  8
0
100
AcDbLine
 62
7
  6
CONTINUOUS
 10
275.525523125
 20
159.8980945766
 11
275.9421893943
 21
160.323626478
  0
LINE
  5
59D
100
AcDbEntity
  8
0
100
AcDbLine
 62
7
  6
CONTINUOUS
 10
283.838023125
 20
168.2219243637
 11
284.3380226481
 21
168.7325626454
  0
LINE
  5
59E
100
AcDbEntity
  8
0
100
AcDbLine
 62
7
  6
CONTINUOUS
 10
282.088023125
 20
162.5576689884
 11
282.2963556636
 21
162.7704349205
  0
LINE
  5
59F
100
AcDbEntity
  8
0
100
AcDbLine
 62
7
  6
CONTINUOUS
 10
270.3171893943
 20
159.6853286166
 11
270.7338568557
 21
160.0044775427
  0
LINE
  5
5A0
100
AcDbEntity
  8
0
100
AcDbLine
 62
7
  6
CONTINUOUS
 10
277.2130233634
 20
168.7325626454
 11
277.5880233634
 21
168.9878818533
  0
LINE
  5
5A1
100
AcDbEntity
  8
0
100
AcDbLine
 62
7
  6
CONTINUOUS
 10
272.9213568557
 20
163.6214989469
 11
273.2338568557
 21
163.8342648789
  0
LINE
  5
5A2
100
AcDbEntity
  8
0
100
AcDbLine
 62
7
  6
CONTINUOUS
 10
283.2130226481
 20
168.7325626454
 11
283.5880226481
 21
168.9878818533
  0
LINE
  5
5A3
100
AcDbEntity
  8
0
100
AcDbLine
 62
7
  6
CONTINUOUS
 10
275.0046893943
 20
160.323626478
 11
275.3171893943
 21
160.5363924846
  0
LINE
  5
5A4
100
AcDbEntity
  8
0
100
AcDbLine
 62
7
  6
CONTINUOUS
 10
277.3380228866
 20
167.9666052117
 11
277.838023125
 21
168.2219243637
  0
LINE
  5
5A5
100
AcDbEntity
  8
0
100
AcDbLine
 62
7
  6
CONTINUOUS
 10
272.713023125
 20
164.2597967431
 11
273.1296893943
 21
164.4725626752
  0
LINE
  5
5A6
100
AcDbEntity
  8
0
100
AcDbLine
 62
7
  6
CONTINUOUS
 10
270.525523125
 20
162.1321371243
 11
270.7338568557
 21
162.2385200903
  0
LINE
  5
5A7
100
AcDbEntity
  8
0
100
AcDbLine
 62
7
  6
CONTINUOUS
 10
283.3380236018
 20
167.9666052117
 11
283.838023125
 21
168.2219243637
  0
LINE
  5
5A8
100
AcDbEntity
  8
0
100
AcDbLine
 62
7
  6
CONTINUOUS
 10
269.900523125
 20
162.4512860224
 11
270.213023125
 21
162.5576689884
  0
LINE
  5
5A9
100
AcDbEntity
  8
KONSTRUKTIONSELEMENTE
100
AcDbLine
 62
7
  6
CONTINUOUS
 10
241.1176242292
 20
215.1736260968
 11
243.3516667247
 21
215.1736260968
  0
LINE
  5
5AA
100
AcDbEntity
  8
KONSTRUKTIONSELEMENTE
100
AcDbLine
 62
7
  6
CONTINUOUS
 10
243.3516667247
 20
216.0486260968
 11
241.1176242292
 21
216.0486260968
  0
LINE
  5
5AB
100
AcDbEntity
  8
0
100
AcDbLine
 62
7
  6
CONTINUOUS
 10
310.9845721987
 20
216.1356121721
 11
309.7759037424
 21
216.1356121721
  0
LINE
  5
5AC
100
AcDbEntity
  8
0
100
AcDbLine
 62
7
  6
CONTINUOUS
 10
314.3645219472
 20
216.9356121721
 11
313.1558534908
 21
216.9356121721
  0
LINE
  5
5AD
100
AcDbEntity
  8
0
100
AcDbLine
 62
7
  6
CONTINUOUS
 10
307.6132909066
 20
216.9356121721
 11
306.4046224503
 21
216.9356121721
  0
LINE
  5
5AE
100
AcDbEntity
  8
0
100
AcDbLine
 62
7
  6
CONTINUOUS
 10
309.7759037424
 20
216.1356121721
 11
309.7759037424
 21
213.8025694153
  0
LINE
  5
5AF
100
AcDbEntity
  8
0
100
AcDbLine
 62
7
  6
CONTINUOUS
 10
291.8796905864
 20
160.323626478
 11
292.088023125
 21
160.7491584167
  0
LINE
  5
5B0
100
AcDbEntity
  8
0
100
AcDbLine
 62
7
  6
CONTINUOUS
 10
296.6713556636
 20
160.323626478
 11
296.8796905864
 21
160.7491584167
  0
LINE
  5
5B1
100
AcDbEntity
  8
0
100
AcDbLine
 62
7
  6
CONTINUOUS
 10
291.2546905864
 20
160.5363924846
 11
291.463023125
 21
160.8555413827
  0
LINE
  5
5B2
100
AcDbEntity
  8
0
100
AcDbLine
 62
7
  6
CONTINUOUS
 10
279.9813568557
 20
151.4044775427
 11
280.2938568557
 21
151.8300094441
  0
LINE
  5
5B3
100
AcDbEntity
  8
0
100
AcDbLine
 62
7
  6
CONTINUOUS
 10
293.4421905864
 20
163.8342648789
 11
293.8588556636
 21
164.2597967431
  0
LINE
  5
5B4
100
AcDbEntity
  8
0
100
AcDbLine
 62
7
  6
CONTINUOUS
 10
282.1921905864
 20
161.9193711922
 11
282.6088556636
 21
162.2385200903
  0
LINE
  5
5B5
100
AcDbEntity
  8
0
100
AcDbLine
 62
7
  6
CONTINUOUS
 10
277.4813562596
 20
153.2129882261
 11
277.898023125
 21
153.5321371243
  0
LINE
  5
5B6
100
AcDbEntity
  8
0
100
AcDbLine
 62
7
  6
CONTINUOUS
 10
275.1088568557
 20
159.6853286166
 11
275.525523125
 21
159.8980945766
  0
LINE
  5
5B7
100
AcDbEntity
  8
0
100
AcDbLine
 62
7
  6
CONTINUOUS
 10
269.900523125
 20
160.217243512
 11
270.213023125
 21
160.323626478
  0
LINE
  5
5B8
100
AcDbEntity
  8
0
100
AcDbLine
 62
7
  6
CONTINUOUS
 10
281.775523125
 20
162.4512860224
 11
282.088023125
 21
162.5576689884
  0
LINE
  5
5B9
100
AcDbEntity
  8
0
100
AcDbLine
 62
7
  6
CONTINUOUS
 10
294.3796905864
 20
163.8342648789
 11
294.6921905864
 21
163.940647845
  0
LINE
  5
5BA
100
AcDbEntity
  8
KONSTRUKTIONSELEMENTE
100
AcDbLine
 62
7
  6
CONTINUOUS
 10
240.5218796194
 20
215.0277933198
 11
241.1176242292
 21
215.1736260968
  0
LINE
  5
5BB
100
AcDbEntity
  8
KONSTRUKTIONSELEMENTE
100
AcDbLine
 62
7
  6
CONTINUOUS
 10
241.1176242292
 20
216.0486260968
 11
240.3729430497
 21
215.9027933198
  0
LINE
  5
5BC
100
AcDbEntity
  8
0
100
AcDbLine
 62
7
  6
CONTINUOUS
 10
314.3840590898
 20
209.687947574
 11
314.3645219472
 21
210.1356121721
  0
LINE
  5
5BD
100
AcDbEntity
  8
0
100
AcDbLine
 62
7
  6
CONTINUOUS
 10
314.3840590898
 20
216.487947574
 11
314.3645219472
 21
216.9356121721
  0
LINE
  5
5BE
100
AcDbEntity
  8
0
100
AcDbLine
 62
7
  6
CONTINUOUS
 10
310.9845721987
 20
213.8006533058
 11
310.9845721987
 21
216.1356121721
  0
LINE
  5
5BF
100
AcDbEntity
  8
0
100
AcDbLine
 62
7
  6
CONTINUOUS
 10
314.0404460285
 20
251.1241378974
 11
314.0404459173
 21
235.1274568731
  0
LINE
  5
5C0
100
AcDbEntity
  8
0
100
AcDbLine
 62
7
  6
CONTINUOUS
 10
296.0463556636
 20
160.5363924846
 11
296.2546905864
 21
160.8555413827
  0
LINE
  5
5C1
100
AcDbEntity
  8
0
100
AcDbLine
 62
7
  6
CONTINUOUS
 10
291.463023125
 20
159.8980945766
 11
291.8796905864
 21
160.323626478
  0
LINE
  5
5C2
100
AcDbEntity
  8
0
100
AcDbLine
 62
7
  6
CONTINUOUS
 10
296.2546905864
 20
159.8980945766
 11
296.6713556636
 21
160.323626478
  0
LINE
  5
5C3
100
AcDbEntity
  8
0
100
AcDbLine
 62
7
  6
CONTINUOUS
 10
294.0671905864
 20
163.6214989469
 11
294.3796905864
 21
163.8342648789
  0
LINE
  5
5C4
100
AcDbEntity
  8
0
100
AcDbLine
 62
7
  6
CONTINUOUS
 10
290.9421905864
 20
160.323626478
 11
291.2546905864
 21
160.5363924846
  0
LINE
  5
5C5
100
AcDbEntity
  8
0
100
AcDbLine
 62
7
  6
CONTINUOUS
 10
279.3563562596
 20
151.617243512
 11
279.6688562596
 21
151.8300094441
  0
LINE
  5
5C6
100
AcDbEntity
  8
0
100
AcDbLine
 62
7
  6
CONTINUOUS
 10
295.7338556636
 20
160.323626478
 11
296.0463556636
 21
160.5363924846
  0
LINE
  5
5C7
100
AcDbEntity
  8
0
100
AcDbLine
 62
7
  6
CONTINUOUS
 10
277.273023125
 20
153.7449030563
 11
277.7938562596
 21
154.0640519545
  0
LINE
  5
5C8
100
AcDbEntity
  8
0
100
AcDbLine
 62
7
  6
CONTINUOUS
 10
279.460523125
 20
151.0853286166
 11
279.9813568557
 21
151.4044775427
  0
LINE
  5
5C9
100
AcDbEntity
  8
0
100
AcDbLine
 62
7
  6
CONTINUOUS
 10
293.8588556636
 20
164.2597967431
 11
294.275523125
 21
164.4725626752
  0
LINE
  5
5CA
100
AcDbEntity
  8
0
100
AcDbLine
 62
7
  6
CONTINUOUS
 10
291.0463556636
 20
159.6853286166
 11
291.463023125
 21
159.8980945766
  0
LINE
  5
5CB
100
AcDbEntity
  8
0
100
AcDbLine
 62
7
  6
CONTINUOUS
 10
295.838023125
 20
159.6853286166
 11
296.2546905864
 21
159.8980945766
  0
LINE
  5
5CC
100
AcDbEntity
  8
0
100
AcDbLine
 62
7
  6
CONTINUOUS
 10
317.553023125
 20
253.6689456412
 11
317.553023125
 21
251.6755809517
  0
LINE
  5
5CD
100
AcDbEntity
  8
RUNDUNGEN
100
AcDbLine
 62
7
  6
CONTINUOUS
 10
317.553023125
 20
253.6689456412
 11
317.553023125
 21
170.1689456412
  0
LINE
  5
5CE
100
AcDbEntity
  8
KONSTRUKTIONSELEMENTE
100
AcDbLine
 62
7
  6
CONTINUOUS
 10
317.553023125
 20
251.6755826522
 11
317.553023125
 21
170.1689454519
  0
LINE
  5
5CF
100
AcDbEntity
  8
0
100
AcDbLine
 62
7
  6
CONTINUOUS
 10
314.0404459173
 20
235.1274568731
 11
310.053023125
 21
240.4189456412
  0
LINE
  5
5D0
100
AcDbEntity
  8
0
100
AcDbLine
 62
7
  6
CONTINUOUS
 10
312.8939356823
 20
247.1117162105
 11
303.553023125
 21
268.091749316
  0
LINE
  5
5D1
100
AcDbEntity
  8
BEZUGSACHSEN
100
AcDbLine
 62
7
  6
CONTINUOUS
 10
287.053023125
 20
103.8189456412
 11
288.553023125
 21
105.3189456412
  0
LINE
  5
5D2
100
AcDbEntity
  8
0
100
AcDbLine
 62
7
  6
CONTINUOUS
 10
303.553023125
 20
268.091749316
 11
276.553023125
 21
277.9189456412
  0
LWPOLYLINE
  5
5D3
100
AcDbEntity
  8
0
100
AcDbPolyline
 62
7
  6
CONTINUOUS
 90
15
 70
0
 10
148.2288665316
 20
8.3489407788
 10
148.3082312547
 20
8.3493925608
 10
148.9540183884
 20
8.3867558256
 10
149.5897827884
 20
8.4830178659
 10
150.2080039325
 20
8.6355653198
 10
150.8023651333
 20
8.8407585294
 10
151.3679916537
 20
9.0944094039
 10
151.9015254346
 20
9.3923045041
 10
152.3966757673
 20
9.7274846471
 10
152.8499011549
 20
10.0928918174
 10
153.257605026
 20
10.4796327269
 10
153.6180983161
 20
10.8784322545
 10
153.9320726105
 20
11.2808821993
 10
154.2011246089
 20
11.6784363348
 10
154.4296270759
 20
12.0660191636
  0
LINE
  5
5D4
100
AcDbEntity
  8
0
100
AcDbLine
 62
7
  6
CONTINUOUS
 10
148.2288752025
 20
8.3489408397
 11
147.9199227308
 21
8.3489408397
  0
LINE
  5
5D5
100
AcDbEntity
  8
KONSTRUKTIONSELEMENTE
100
AcDbLine
 62
7
  6
CONTINUOUS
 10
148.2288752025
 20
8.3489408397
 11
147.9199227308
 21
8.3489408397
  0
LINE
  5
5D6
100
AcDbEntity
  8
KONSTRUKTIONSELEMENTE
100
AcDbLine
 62
7
  6
CONTINUOUS
 10
147.8294635832
 20
8.3495278311
 11
147.9199314942
 21
8.3489407789
  0
LINE
  5
5D7
100
AcDbEntity
  8
0
100
AcDbLine
 62
7
  6
CONTINUOUS
 10
142.056702382
 20
11.5173917659
 11
141.5743989666
 21
11.5173917659
  0
LINE
  5
5D8
100
AcDbEntity
  8
0
100
AcDbLine
 62
7
  6
CONTINUOUS
 10
142.0431574019
 20
11.5374420175
 11
141.5743989666
 21
11.5374420175
  0
LINE
  5
5D9
100
AcDbEntity
  8
0
100
AcDbLine
 62
7
  6
CONTINUOUS
 10
142.0743989666
 20
88.6443430876
 11
145.0876829553
 21
89.7410887669
  0
LINE
  5
5DA
100
AcDbEntity
  8
KONSTRUKTIONSELEMENTE
100
AcDbLine
 62
7
  6
CONTINUOUS
 10
142.0743989666
 20
10.0535385918
 11
145.0871512473
 21
8.9569864384
  0
LINE
  5
5DB
100
AcDbEntity
  8
RUNDUNGEN
100
AcDbLine
 62
7
  6
CONTINUOUS
 10
119.5743989666
 20
24.3489408397
 11
139.9330974227
 21
24.3489408397
  0
LINE
  5
5DC
100
AcDbEntity
  8
RUNDUNGEN
100
AcDbLine
 62
7
  6
CONTINUOUS
 10
156.2157009718
 20
24.3489408397
 11
161.5743989666
 21
24.3489408397
  0
LINE
  5
5DD
100
AcDbEntity
  8
BEZUGSACHSEN
100
AcDbLine
 62
7
  6
CONTINUOUS
 10
110.9820941212
 20
67.3489408397
 11
100.5897892758
 21
49.3489408397
  0
LINE
  5
5DE
100
AcDbEntity
  8
BEZUGSACHSEN
100
AcDbLine
 62
7
  6
CONTINUOUS
 10
100.5897892758
 20
49.3489408397
 11
110.9820941212
 21
31.3489408397
  0
LINE
  5
5DF
100
AcDbEntity
  8
0
100
AcDbLine
 62
7
  6
CONTINUOUS
 10
104.1771073245
 20
29.0222733783
 11
105.0201353331
 21
29.0222733783
  0
LINE
  5
5E0
100
AcDbEntity
  8
0
100
AcDbLine
 62
7
  6
CONTINUOUS
 10
103.9058733223
 20
29.2306083011
 11
104.7334860612
 21
29.2306083011
  0
LINE
  5
5E1
100
AcDbEntity
  8
0
100
AcDbLine
 62
7
  6
CONTINUOUS
 10
103.7730350753
 20
29.3347733783
 11
104.5933075235
 21
29.3347733783
  0
LINE
  5
5E2
100
AcDbEntity
  8
0
100
AcDbLine
 62
7
  6
CONTINUOUS
 10
103.6419823264
 20
29.4389408397
 11
104.4551430326
 21
29.4389408397
  0
LINE
  5
5E3
100
AcDbEntity
  8
0
100
AcDbLine
 62
7
  6
CONTINUOUS
 10
103.2591302361
 20
29.7514408397
 11
104.0522214857
 21
29.7514408397
  0
LINE
  5
5E4
100
AcDbEntity
  8
0
100
AcDbLine
 62
7
  6
CONTINUOUS
 10
102.771254525
 20
30.1681083011
 11
103.5401960514
 21
30.1681083011
  0
LINE
  5
5E5
100
AcDbEntity
  8
0
100
AcDbLine
 62
7
  6
CONTINUOUS
 10
102.194686656
 20
30.6889408397
 11
102.9369592598
 21
30.6889408397
  0
LINE
  5
5E6
100
AcDbEntity
  8
0
100
AcDbLine
 62
7
  6
CONTINUOUS
 10
101.6517707049
 20
31.2097733783
 11
102.3706027633
 21
31.2097733783
  0
LINE
  5
5E7
100
AcDbEntity
  8
BEZUGSACHSEN
100
AcDbLine
 62
7
  6
CONTINUOUS
 10
110.9820941212
 20
31.3489408397
 11
131.7667038121
 21
31.3489408397
  0
LINE
  5
5E8
100
AcDbEntity
  8
0
100
AcDbLine
 62
7
  6
CONTINUOUS
 10
101.2396507069
 20
31.6264408397
 11
101.9416738866
 21
31.6264408397
  0
LINE
  5
5E9
100
AcDbEntity
  8
0
100
AcDbLine
 62
7
  6
CONTINUOUS
 10
114.5044975963
 20
36.4456025119
 11
114.9004495745
 21
36.2595157554
  0
LINE
  5
5EA
100
AcDbEntity
  8
0
100
AcDbLine
 62
7
  6
CONTINUOUS
 10
118.4696451215
 20
35.2369793129
 11
118.7382087074
 21
35.0495617396
  0
LINE
  5
5EB
100
AcDbEntity
  8
0
100
AcDbLine
 62
7
  6
CONTINUOUS
 10
119.450343841
 20
34.8760928632
 11
119.9661494328
 21
34.8800712208
  0
LINE
  5
5EC
100
AcDbEntity
  8
0
100
AcDbLine
 62
7
  6
CONTINUOUS
 10
100.8458603118
 20
32.0431083011
 11
101.5325542676
 21
32.0431083011
  0
LINE
  5
5ED
100
AcDbEntity
  8
0
100
AcDbLine
 62
7
  6
CONTINUOUS
 10
100.4692681777
 20
32.4597733783
 11
101.1419270092
 21
32.4597733783
  0
LINE
  5
5EE
100
AcDbEntity
  8
0
100
AcDbLine
 62
7
  6
CONTINUOUS
 10
100.3776863575
 20
32.5639408397
 11
101.0470199021
 21
32.5639408397
  0
LINE
  5
5EF
100
AcDbEntity
  8
0
100
AcDbLine
 62
7
  6
CONTINUOUS
 10
100.108871906
 20
32.8764408397
 11
100.7686353887
 21
32.8764408397
  0
LINE
  5
5F0
100
AcDbEntity
  8
0
100
AcDbLine
 62
7
  6
CONTINUOUS
 10
99.4332361126
 20
33.7097733783
 11
100.0701317127
 21
33.7097733783
  0
LINE
  5
5F1
100
AcDbEntity
  8
0
100
AcDbLine
 62
7
  6
CONTINUOUS
 10
98.9631210965
 20
34.3347733783
 11
99.5850324074
 21
34.3347733783
  0
LINE
  5
5F2
100
AcDbEntity
  8
0
100
AcDbLine
 62
7
  6
CONTINUOUS
 10
98.8876423335
 20
34.4389408397
 11
99.5072143111
 21
34.4389408397
  0
LINE
  5
5F3
100
AcDbEntity
  8
0
100
AcDbLine
 62
7
  6
CONTINUOUS
 10
98.7390690231
 20
34.6472733783
 11
99.3540880429
 21
34.6472733783
  0
LINE
  5
5F4
100
AcDbEntity
  8
0
100
AcDbLine
 62
7
  6
CONTINUOUS
 10
98.5220390094
 20
34.9597733783
 11
99.1305280081
 21
34.9597733783
  0
LINE
  5
5F5
100
AcDbEntity
  8
0
100
AcDbLine
 62
7
  6
CONTINUOUS
 10
98.2432188833
 20
35.3764408397
 11
98.8435223873
 21
35.3764408397
  0
LINE
  5
5F6
100
AcDbEntity
  8
0
100
AcDbLine
 62
7
  6
CONTINUOUS
 10
119.161417584
 20
34.915972851
 11
119.450343841
 21
34.8760928632
  0
LINE
  5
5F7
100
AcDbEntity
  8
0
100
AcDbLine
 62
7
  6
CONTINUOUS
 10
119.5734870428
 20
35.2349661454
 11
119.2845591325
 21
35.2748463614
  0
LINE
  5
5F8
100
AcDbEntity
  8
0
100
AcDbLine
 62
7
  6
CONTINUOUS
 10
120.7180576128
 20
35.5280276925
 11
120.3568989649
 21
35.5778777914
  0
LINE
  5
5F9
100
AcDbEntity
  8
0
100
AcDbLine
 62
7
  6
CONTINUOUS
 10
118.7382087074
 20
35.0495617396
 11
119.161417584
 21
34.915972851
  0
LINE
  5
5FA
100
AcDbEntity
  8
0
100
AcDbLine
 62
7
  6
CONTINUOUS
 10
119.2845591325
 20
35.2748463614
 11
118.9335826468
 21
35.398465139
  0
LINE
  5
5FB
100
AcDbEntity
  8
0
100
AcDbLine
 62
7
  6
CONTINUOUS
 10
114.6997858478
 20
38.5754408025
 11
115.3597048045
 21
38.2652966815
  0
LINE
  5
5FC
100
AcDbEntity
  8
0
100
AcDbLine
 62
7
  6
CONTINUOUS
 10
115.7556567828
 20
38.079209925
 11
116.877521728
 21
37.5519636416
  0
LINE
  5
5FD
100
AcDbEntity
  8
0
100
AcDbLine
 62
7
  6
CONTINUOUS
 10
117.5295107665
 20
37.7392394335
 11
115.9457028537
 21
38.4835864596
  0
LINE
  5
5FE
100
AcDbEntity
  8
0
100
AcDbLine
 62
7
  6
CONTINUOUS
 10
115.5497508755
 20
38.6696732161
 11
114.8898319187
 21
38.9798173371
  0
LINE
  5
5FF
100
AcDbEntity
  8
0
100
AcDbLine
 62
7
  6
CONTINUOUS
 10
116.3891436267
 20
39.4271315811
 11
115.9931916484
 21
39.6132183376
  0
LINE
  5
600
100
AcDbEntity
  8
0
100
AcDbLine
 62
7
  6
CONTINUOUS
 10
118.9335826468
 20
35.398465139
 11
118.7372514518
 21
35.5759126012
  0
LINE
  5
601
100
AcDbEntity
  8
0
100
AcDbLine
 62
7
  6
CONTINUOUS
 10
118.22144586
 20
35.5719342436
 11
118.4696451215
 21
35.2369793129
  0
LINE
  5
602
100
AcDbEntity
  8
0
100
AcDbLine
 62
7
  6
CONTINUOUS
 10
118.7372514518
 20
35.5759126012
 11
118.6233348098
 21
35.8171586311
  0
LINE
  5
603
100
AcDbEntity
  8
0
100
AcDbLine
 62
7
  6
CONTINUOUS
 10
118.1899437711
 20
35.8769788411
 11
118.22144586
 21
35.5719342436
  0
LINE
  5
604
100
AcDbEntity
  8
KONSTRUKTIONSELEMENTE
100
AcDbLine
 62
7
  6
CONTINUOUS
 10
117.3329470823
 20
56.3489408397
 11
113.291495198
 21
49.3489408397
  0
LINE
  5
605
100
AcDbEntity
  8
0
100
AcDbLine
 62
7
  6
CONTINUOUS
 10
122.4321786954
 20
34.6825301661
 11
123.0764583303
 21
34.8073012146
  0
LINE
  5
606
100
AcDbEntity
  8
0
100
AcDbLine
 62
7
  6
CONTINUOUS
 10
125.2240571134
 20
35.2232047096
 11
125.8683367483
 21
35.3479757581
  0
LINE
  5
607
100
AcDbEntity
  8
0
100
AcDbLine
 62
7
  6
CONTINUOUS
 10
119.9448278529
 20
35.2588847252
 11
119.5734870428
 21
35.2349661454
  0
LINE
  5
608
100
AcDbEntity
  8
0
100
AcDbLine
 62
7
  6
CONTINUOUS
 10
131.1149339446
 20
39.1083842493
 11
131.5312543828
 21
39.1301669261
  0
LINE
  5
609
100
AcDbEntity
  8
0
100
AcDbLine
 62
7
  6
CONTINUOUS
 10
97.9760331908
 20
35.7931083011
 11
98.5686996404
 21
35.7931083011
  0
LINE
  5
60A
100
AcDbEntity
  8
0
100
AcDbLine
 62
7
  6
CONTINUOUS
 10
97.7200566425
 20
36.2097733783
 11
98.3055889759
 21
36.2097733783
  0
LINE
  5
60B
100
AcDbEntity
  8
0
100
AcDbLine
 62
7
  6
CONTINUOUS
 10
97.5351929502
 20
36.5222733783
 11
98.115680416
 21
36.5222733783
  0
LINE
  5
60C
100
AcDbEntity
  8
0
100
AcDbLine
 62
7
  6
CONTINUOUS
 10
97.4152544898
 20
36.7306083011
 11
97.9925157322
 21
36.7306083011
  0
LINE
  5
60D
100
AcDbEntity
  8
0
100
AcDbLine
 62
7
  6
CONTINUOUS
 10
97.3562619442
 20
36.8347733783
 11
97.9319496425
 21
36.8347733783
  0
LINE
  5
60E
100
AcDbEntity
  8
0
100
AcDbLine
 62
7
  6
CONTINUOUS
 10
97.0156379839
 20
37.4597733783
 11
97.5824073089
 21
37.4597733783
  0
LINE
  5
60F
100
AcDbEntity
  8
0
100
AcDbLine
 62
7
  6
CONTINUOUS
 10
96.5957443742
 20
38.2931083011
 11
97.1518976147
 21
38.2931083011
  0
LINE
  5
610
100
AcDbEntity
  8
0
100
AcDbLine
 62
7
  6
CONTINUOUS
 10
118.5055908486
 20
38.163808241
 11
120.5280812607
 21
37.8846474134
  0
LINE
  5
611
100
AcDbEntity
  8
0
100
AcDbLine
 62
7
  6
CONTINUOUS
 10
121.1568478992
 20
38.1737304263
 11
118.5565016666
 21
38.532651686
  0
LINE
  5
612
100
AcDbEntity
  8
KONSTRUKTIONSELEMENTE
100
AcDbLine
 62
7
  6
CONTINUOUS
 10
113.291495198
 20
49.3489408397
 11
117.3329470823
 21
42.3489408397
  0
LINE
  5
613
100
AcDbEntity
  8
0
100
AcDbLine
 62
7
  6
CONTINUOUS
 10
118.5565016666
 20
38.532651686
 11
118.5055908486
 21
38.163808241
  0
LINE
  5
614
100
AcDbEntity
  8
0
100
AcDbLine
 62
7
  6
CONTINUOUS
 10
118.210308124
 20
36.024516405
 11
118.1899437711
 21
35.8769788411
  0
LINE
  5
615
100
AcDbEntity
  8
0
100
AcDbLine
 62
7
  6
CONTINUOUS
 10
118.6233348098
 20
35.8171586311
 11
118.6436991627
 21
35.9646961951
  0
LINE
  5
616
100
AcDbEntity
  8
0
100
AcDbLine
 62
7
  6
CONTINUOUS
 10
114.8898319187
 20
38.9798173371
 11
114.6997858478
 21
38.5754408025
  0
LINE
  5
617
100
AcDbEntity
  8
0
100
AcDbLine
 62
7
  6
CONTINUOUS
 10
115.9931916484
 20
39.6132183376
 11
115.5497508755
 21
38.6696732161
  0
LINE
  5
618
100
AcDbEntity
  8
0
100
AcDbLine
 62
7
  6
CONTINUOUS
 10
115.3597048045
 20
38.2652966815
 11
114.5044975963
 21
36.4456025119
  0
LINE
  5
619
100
AcDbEntity
  8
0
100
AcDbLine
 62
7
  6
CONTINUOUS
 10
115.1538442766
 20
36.7986843423
 11
115.7556567828
 21
38.079209925
  0
LINE
  5
61A
100
AcDbEntity
  8
0
100
AcDbLine
 62
7
  6
CONTINUOUS
 10
115.9457028537
 20
38.4835864596
 11
116.3891436267
 21
39.4271315811
  0
LINE
  5
61B
100
AcDbEntity
  8
0
100
AcDbLine
 62
7
  6
CONTINUOUS
 10
131.5489352514
 20
39.6006310657
 11
131.2925525729
 21
39.5350455323
  0
LINE
  5
61C
100
AcDbEntity
  8
0
100
AcDbLine
 62
7
  6
CONTINUOUS
 10
125.2028911563
 20
38.784133811
 11
124.7733713997
 21
38.700953112
  0
LINE
  5
61D
100
AcDbEntity
  8
0
100
AcDbLine
 62
7
  6
CONTINUOUS
 10
123.7711591804
 20
38.5068649201
 11
123.1984650793
 21
38.3959571099
  0
LINE
  5
61E
100
AcDbEntity
  8
0
100
AcDbLine
 62
7
  6
CONTINUOUS
 10
122.19625286
 20
38.201868918
 11
121.7667331034
 21
38.118688219
  0
LINE
  5
61F
100
AcDbEntity
  8
0
100
AcDbLine
 62
7
  6
CONTINUOUS
 10
95.4152514696
 20
41.1889413165
 11
95.9436053325
 21
41.1889413165
  0
LINE
  5
620
100
AcDbEntity
  8
0
100
AcDbLine
 62
7
  6
CONTINUOUS
 10
95.3733912397
 20
41.3139408397
 11
95.9008108356
 21
41.3139408397
  0
LINE
  5
621
100
AcDbEntity
  8
0
100
AcDbLine
 62
7
  6
CONTINUOUS
 10
95.2918170935
 20
41.5639413165
 11
95.8174256236
 21
41.5639413165
  0
LINE
  5
622
100
AcDbEntity
  8
0
100
AcDbLine
 62
7
  6
CONTINUOUS
 10
95.1371574079
 20
42.0639408397
 11
95.6593665602
 21
42.0639408397
  0
LINE
  5
623
100
AcDbEntity
  8
KONSTRUKTIONSELEMENTE
100
AcDbLine
 62
7
  6
CONTINUOUS
 10
117.3329470823
 20
42.3489408397
 11
125.415850851
 21
42.3489408397
  0
LINE
  5
624
100
AcDbEntity
  8
0
100
AcDbLine
 62
7
  6
CONTINUOUS
 10
94.9936388374
 20
42.5639403629
 11
95.5127330117
 21
42.5639403629
  0
LINE
  5
625
100
AcDbEntity
  8
0
100
AcDbLine
 62
7
  6
CONTINUOUS
 10
131.2925525729
 20
39.5350455323
 11
131.0285341333
 21
39.5734023883
  0
LINE
  5
626
100
AcDbEntity
  8
0
100
AcDbLine
 62
7
  6
CONTINUOUS
 10
130.7950578734
 20
39.1959893367
 11
131.1149339446
 21
39.1083842493
  0
LINE
  5
627
100
AcDbEntity
  8
0
100
AcDbLine
 62
7
  6
CONTINUOUS
 10
131.0285341333
 20
39.5734023883
 11
130.7568807974
 21
39.7157019836
  0
LINE
  5
628
100
AcDbEntity
  8
0
100
AcDbLine
 62
7
  6
CONTINUOUS
 10
130.4675465929
 20
39.3875374394
 11
130.7950578734
 21
39.1959893367
  0
LINE
  5
629
100
AcDbEntity
  8
0
100
AcDbLine
 62
7
  6
CONTINUOUS
 10
125.29723284
 20
35.99589243
 11
123.7711591804
 21
38.5068649201
  0
LWPOLYLINE
  5
62A
100
AcDbEntity
  8
KONSTRUKTIONSELEMENTE
100
AcDbPolyline
 62
7
  6
CONTINUOUS
 90
14
 70
0
 10
141.7191707925
 20
12.0660192815
 10
141.9444207245
 20
11.6835991337
 10
142.2130598467
 20
11.2859402252
 10
142.5266334731
 20
10.88328687
 10
142.8867359604
 20
10.4842109189
 10
143.2940581349
 20
10.0971358277
 10
143.7468744644
 20
9.7313745646
 10
144.2415335861
 20
9.3958479307
 10
144.7744880897
 20
9.0975890668
 10
145.3394299387
 20
8.8435383195
 10
145.9329821224
 20
8.6378800109
 10
146.5502569364
 20
8.4847656974
 10
147.1849281178
 20
8.3877929988
 10
147.8294635832
 20
8.3495278311
  0
LINE
  5
62B
100
AcDbEntity
  8
0
100
AcDbLine
 62
7
  6
CONTINUOUS
 10
123.5556042156
 20
38.0858622783
 11
125.2240571134
 21
35.2232047096
  0
LINE
  5
62C
100
AcDbEntity
  8
0
100
AcDbLine
 62
7
  6
CONTINUOUS
 10
121.7667331034
 20
38.118688219
 11
122.4321786954
 21
34.6825301661
  0
LINE
  5
62D
100
AcDbEntity
  8
0
100
AcDbLine
 62
7
  6
CONTINUOUS
 10
122.7201143004
 20
35.496808236
 11
122.19625286
 21
38.201868918
  0
LINE
  5
62E
100
AcDbEntity
  8
0
100
AcDbLine
 62
7
  6
CONTINUOUS
 10
121.1059370812
 20
37.8048869814
 11
121.1568478992
 21
38.1737304263
  0
LINE
  5
62F
100
AcDbEntity
  8
0
100
AcDbLine
 62
7
  6
CONTINUOUS
 10
123.0764583303
 20
34.8073012146
 11
123.5556042156
 21
38.0858622783
  0
LINE
  5
630
100
AcDbEntity
  8
0
100
AcDbLine
 62
7
  6
CONTINUOUS
 10
123.1984650793
 20
38.3959571099
 11
122.7201143004
 21
35.496808236
  0
LINE
  5
631
100
AcDbEntity
  8
0
100
AcDbLine
 62
7
  6
CONTINUOUS
 10
118.3232675103
 20
36.3096212368
 11
118.210308124
 21
36.024516405
  0
LINE
  5
632
100
AcDbEntity
  8
0
100
AcDbLine
 62
7
  6
CONTINUOUS
 10
117.3394646956
 20
37.334862899
 11
117.5295107665
 21
37.7392394335
  0
LINE
  5
633
100
AcDbEntity
  8
0
100
AcDbLine
 62
7
  6
CONTINUOUS
 10
132.2155841513
 20
46.5924787543
 11
133.9967221765
 21
47.0304041336
  0
LINE
  5
634
100
AcDbEntity
  8
0
100
AcDbLine
 62
7
  6
CONTINUOUS
 10
134.8846584083
 20
46.3310931744
 11
135.1154020651
 21
46.3756312972
  0
LINE
  5
635
100
AcDbEntity
  8
0
100
AcDbLine
 62
7
  6
CONTINUOUS
 10
135.1698657887
 20
46.8097280062
 11
134.9391221319
 21
46.7651898835
  0
LINE
  5
636
100
AcDbEntity
  8
0
100
AcDbLine
 62
7
  6
CONTINUOUS
 10
132.3874760036
 20
45.1440975331
 11
132.6509467748
 21
45.1860504157
  0
LINE
  5
637
100
AcDbEntity
  8
0
100
AcDbLine
 62
7
  6
CONTINUOUS
 10
132.7615266168
 20
45.6158453208
 11
132.4300726786
 21
45.6042863708
  0
LINE
  5
638
100
AcDbEntity
  8
0
100
AcDbLine
 62
7
  6
CONTINUOUS
 10
94.8296136574
 20
43.1889408397
 11
95.3451934493
 21
43.1889408397
  0
LINE
  5
639
100
AcDbEntity
  8
0
100
AcDbLine
 62
7
  6
CONTINUOUS
 10
94.2709525611
 20
46.1889408397
 11
94.7749151011
 21
46.1889408397
  0
LINE
  5
63A
100
AcDbEntity
  8
0
100
AcDbLine
 62
7
  6
CONTINUOUS
 10
132.6509467748
 20
45.1860504157
 11
132.9526400016
 21
45.1310421738
  0
LINE
  5
63B
100
AcDbEntity
  8
0
100
AcDbLine
 62
7
  6
CONTINUOUS
 10
132.0598243429
 20
43.1340353011
 11
134.1673039707
 21
42.1918298247
  0
LINE
  5
63C
100
AcDbEntity
  8
0
100
AcDbLine
 62
7
  6
CONTINUOUS
 10
134.3458671024
 20
42.5912311992
 11
132.2383874747
 21
43.5334366757
  0
LINE
  5
63D
100
AcDbEntity
  8
0
100
AcDbLine
 62
7
  6
CONTINUOUS
 10
131.7496688987
 20
43.3525709285
 11
132.0598243429
 21
43.1340353011
  0
LINE
  5
63E
100
AcDbEntity
  8
0
100
AcDbLine
 62
7
  6
CONTINUOUS
 10
129.629679693
 20
40.1262630487
 11
130.4675465929
 21
39.3875374394
  0
LINE
  5
63F
100
AcDbEntity
  8
0
100
AcDbLine
 62
7
  6
CONTINUOUS
 10
130.7568807974
 20
39.7157019836
 11
129.9190138975
 21
40.454427593
  0
LINE
  5
640
100
AcDbEntity
  8
0
100
AcDbLine
 62
7
  6
CONTINUOUS
 10
130.7106620809
 20
42.4783456524
 11
132.6656849386
 21
40.7546524834
  0
LINE
  5
641
100
AcDbEntity
  8
0
100
AcDbLine
 62
7
  6
CONTINUOUS
 10
133.2901658718
 20
40.7873268115
 11
130.6648495176
 21
43.1020004473
  0
LINE
  5
642
100
AcDbEntity
  8
0
100
AcDbLine
 62
7
  6
CONTINUOUS
 10
129.3986129359
 20
40.4271987776
 11
129.629679693
 21
40.1262630487
  0
LINE
  5
643
100
AcDbEntity
  8
0
100
AcDbLine
 62
7
  6
CONTINUOUS
 10
129.9190138975
 20
40.454427593
 11
129.7438049285
 21
40.7061149525
  0
LINE
  5
644
100
AcDbEntity
  8
0
100
AcDbLine
 62
7
  6
CONTINUOUS
 10
124.7733713997
 20
38.700953112
 11
125.29723284
 21
35.99589243
  0
LINE
  5
645
100
AcDbEntity
  8
0
100
AcDbLine
 62
7
  6
CONTINUOUS
 10
125.8683367483
 20
35.3479757581
 11
125.2028911563
 21
38.784133811
  0
LINE
  5
646
100
AcDbEntity
  8
0
100
AcDbLine
 62
7
  6
CONTINUOUS
 10
129.2410847768
 20
41.1493503285
 11
129.2716266631
 21
40.7335806796
  0
LINE
  5
647
100
AcDbEntity
  8
0
100
AcDbLine
 62
7
  6
CONTINUOUS
 10
120.6050965732
 20
35.2429230889
 11
120.7180576128
 21
35.5280276925
  0
LINE
  5
648
100
AcDbEntity
  8
0
100
AcDbLine
 62
7
  6
CONTINUOUS
 10
118.6436991627
 20
35.9646961951
 11
118.82889094
 21
36.2398309158
  0
LINE
  5
649
100
AcDbEntity
  8
0
100
AcDbLine
 62
7
  6
CONTINUOUS
 10
133.9034083276
 20
47.483041786
 11
132.2791251795
 21
47.0989250528
  0
LINE
  5
64A
100
AcDbEntity
  8
0
100
AcDbLine
 62
7
  6
CONTINUOUS
 10
94.2091799706
 20
46.7306083011
 11
94.7118903499
 21
46.7306083011
  0
LINE
  5
64B
100
AcDbEntity
  8
0
100
AcDbLine
 62
7
  6
CONTINUOUS
 10
94.1660460297
 20
47.1889406013
 11
94.6678857829
 21
47.1889406013
  0
LINE
  5
64C
100
AcDbEntity
  8
0
100
AcDbLine
 62
7
  6
CONTINUOUS
 10
94.113411175
 20
47.9389406013
 11
94.6141926508
 21
47.9389406013
  0
LINE
  5
64D
100
AcDbEntity
  8
0
100
AcDbLine
 62
7
  6
CONTINUOUS
 10
94.1067965078
 20
48.0639408397
 11
94.6074453079
 21
48.0639408397
  0
LINE
  5
64E
100
AcDbEntity
  8
0
100
AcDbLine
 62
7
  6
CONTINUOUS
 10
94.0954120459
 20
48.3139406013
 11
94.5958326646
 21
48.3139406013
  0
LINE
  5
64F
100
AcDbEntity
  8
0
100
AcDbLine
 62
7
  6
CONTINUOUS
 10
94.0829405623
 20
48.6889406013
 11
94.5831124915
 21
48.6889406013
  0
LINE
  5
650
100
AcDbEntity
  8
0
100
AcDbLine
 62
7
  6
CONTINUOUS
 10
94.0749009169
 20
49.1889408397
 11
94.5749109719
 21
49.1889408397
  0
LINE
  5
651
100
AcDbEntity
  8
0
100
AcDbLine
 62
7
  6
CONTINUOUS
 10
140.8243989666
 20
49.3489408397
 11
140.3354714353
 21
49.3489408397
  0
LINE
  5
652
100
AcDbEntity
  8
0
100
AcDbLine
 62
7
  6
CONTINUOUS
 10
155.3243989666
 20
49.3489408397
 11
155.813326498
 21
49.3489408397
  0
LINE
  5
653
100
AcDbEntity
  8
0
100
AcDbLine
 62
7
  6
CONTINUOUS
 10
94.0766657372
 20
49.6889410781
 11
94.5767110768
 21
49.6889410781
  0
LINE
  5
654
100
AcDbEntity
  8
0
100
AcDbLine
 62
7
  6
CONTINUOUS
 10
134.5891030304
 20
46.3681748801
 11
134.8846584083
 21
46.3310931744
  0
LINE
  5
655
100
AcDbEntity
  8
0
100
AcDbLine
 62
7
  6
CONTINUOUS
 10
134.9391221319
 20
46.7651898835
 11
134.7174555467
 21
46.7930011693
  0
LINE
  5
656
100
AcDbEntity
  8
0
100
AcDbLine
 62
7
  6
CONTINUOUS
 10
132.5060573523
 20
48.9076612716
 11
134.0577222067
 21
48.7129824271
  0
LINE
  5
657
100
AcDbEntity
  8
0
100
AcDbLine
 62
7
  6
CONTINUOUS
 10
134.5010549631
 20
48.6573599076
 11
135.6093870611
 21
48.5183035827
  0
LINE
  5
658
100
AcDbEntity
  8
0
100
AcDbLine
 62
7
  6
CONTINUOUS
 10
136.0332947484
 20
48.9060481921
 11
132.5605210759
 21
49.3417579806
  0
LINE
  5
659
100
AcDbEntity
  8
0
100
AcDbLine
 62
7
  6
CONTINUOUS
 10
133.1312032185
 20
45.5304437388
 11
132.7615266168
 21
45.6158453208
  0
LINE
  5
65A
100
AcDbEntity
  8
0
100
AcDbLine
 62
7
  6
CONTINUOUS
 10
132.9526400016
 20
45.1310421738
 11
135.0601196294
 21
44.1888366974
  0
LINE
  5
65B
100
AcDbEntity
  8
0
100
AcDbLine
 62
7
  6
CONTINUOUS
 10
135.2386828462
 20
44.5882382624
 11
133.1312032185
 21
45.5304437388
  0
LINE
  5
65C
100
AcDbEntity
  8
0
100
AcDbLine
 62
7
  6
CONTINUOUS
 10
134.3765139308
 20
46.4683355224
 11
134.5891030304
 21
46.3681748801
  0
LINE
  5
65D
100
AcDbEntity
  8
0
100
AcDbLine
 62
7
  6
CONTINUOUS
 10
134.7174555467
 20
46.7930011693
 11
134.5048664471
 21
46.8931618115
  0
LINE
  5
65E
100
AcDbEntity
  8
0
100
AcDbLine
 62
7
  6
CONTINUOUS
 10
132.2383874747
 20
43.5334366757
 11
131.996215235
 21
43.7215785821
  0
LINE
  5
65F
100
AcDbEntity
  8
0
100
AcDbLine
 62
7
  6
CONTINUOUS
 10
131.5372570199
 20
43.607279498
 11
131.7496688987
 21
43.3525709285
  0
LINE
  5
660
100
AcDbEntity
  8
0
100
AcDbLine
 62
7
  6
CONTINUOUS
 10
131.996215235
 20
43.7215785821
 11
131.8517866084
 21
43.9458934094
  0
LINE
  5
661
100
AcDbEntity
  8
0
100
AcDbLine
 62
7
  6
CONTINUOUS
 10
129.2716266631
 20
40.7335806796
 11
129.3986129359
 21
40.4271987776
  0
LINE
  5
662
100
AcDbEntity
  8
0
100
AcDbLine
 62
7
  6
CONTINUOUS
 10
131.3843663224
 20
43.9951221024
 11
131.5372570199
 21
43.607279498
  0
LINE
  5
663
100
AcDbEntity
  8
0
100
AcDbLine
 62
7
  6
CONTINUOUS
 10
129.7438049285
 20
40.7061149525
 11
129.672676483
 21
40.9632484507
  0
LINE
  5
664
100
AcDbEntity
  8
0
100
AcDbLine
 62
7
  6
CONTINUOUS
 10
131.3674420399
 20
44.3221772622
 11
131.3843663224
 21
43.9951221024
  0
LINE
  5
665
100
AcDbEntity
  8
0
100
AcDbLine
 62
7
  6
CONTINUOUS
 10
132.5605210759
 20
49.3417579806
 11
132.5060573523
 21
48.9076612716
  0
LINE
  5
666
100
AcDbEntity
  8
0
100
AcDbLine
 62
7
  6
CONTINUOUS
 10
132.2791251795
 20
47.0989250528
 11
132.2155841513
 21
46.5924787543
  0
LINE
  5
667
100
AcDbEntity
  8
0
100
AcDbLine
 62
7
  6
CONTINUOUS
 10
129.672676483
 20
40.9632484507
 11
129.7056279699
 21
41.225827496
  0
LINE
  5
668
100
AcDbEntity
  8
0
100
AcDbLine
 62
7
  6
CONTINUOUS
 10
131.8051017175
 20
44.2063815599
 11
131.8561606575
 21
44.5030429908
  0
LINE
  5
669
100
AcDbEntity
  8
0
100
AcDbLine
 62
7
  6
CONTINUOUS
 10
131.4482613824
 20
44.6854053376
 11
131.3674420399
 21
44.3221772622
  0
LINE
  5
66A
100
AcDbEntity
  8
0
100
AcDbLine
 62
7
  6
CONTINUOUS
 10
129.3222584716
 20
41.4666232344
 11
129.2410847768
 21
41.1493503285
  0
LINE
  5
66B
100
AcDbEntity
  8
KONSTRUKTIONSELEMENTE
100
AcDbLine
 62
7
  6
CONTINUOUS
 10
125.415850851
 20
42.3489408397
 11
129.4573027353
 21
49.3489408397
  0
LINE
  5
66C
100
AcDbEntity
  8
0
100
AcDbLine
 62
7
  6
CONTINUOUS
 10
118.4982787786
 20
36.5109870507
 11
118.3232675103
 21
36.3096212368
  0
LINE
  5
66D
100
AcDbEntity
  8
0
100
AcDbLine
 62
7
  6
CONTINUOUS
 10
120.3568989649
 20
35.5778777914
 11
120.1818876966
 21
35.3765119775
  0
LINE
  5
66E
100
AcDbEntity
  8
0
100
AcDbLine
 62
7
  6
CONTINUOUS
 10
94.0882380082
 20
50.1889406013
 11
94.5885149439
 21
50.1889406013
  0
LINE
  5
66F
100
AcDbEntity
  8
0
100
AcDbLine
 62
7
  6
CONTINUOUS
 10
94.1033609906
 20
50.5639406013
 11
94.6039409096
 21
50.5639406013
  0
LINE
  5
670
100
AcDbEntity
  8
0
100
AcDbLine
 62
7
  6
CONTINUOUS
 10
94.1165166057
 20
50.8139410781
 11
94.6173603943
 21
50.8139410781
  0
LINE
  5
671
100
AcDbEntity
  8
0
100
AcDbLine
 62
7
  6
CONTINUOUS
 10
94.1240178151
 20
50.9389406013
 11
94.6250121854
 21
50.9389406013
  0
LINE
  5
672
100
AcDbEntity
  8
0
100
AcDbLine
 62
7
  6
CONTINUOUS
 10
94.1819906633
 20
51.6889409589
 11
94.6841518919
 21
51.6889409589
  0
LINE
  5
673
100
AcDbEntity
  8
0
100
AcDbLine
 62
7
  6
CONTINUOUS
 10
94.2401238882
 20
52.2514408397
 11
94.7434607292
 21
52.2514408397
  0
LINE
  5
674
100
AcDbEntity
  8
0
100
AcDbLine
 62
7
  6
CONTINUOUS
 10
94.2940824972
 20
52.6889407205
 11
94.7985155153
 21
52.6889407205
  0
LINE
  5
675
100
AcDbEntity
  8
0
100
AcDbLine
 62
7
  6
CONTINUOUS
 10
94.3109119909
 20
52.8139409589
 11
94.8156878901
 21
52.8139409589
  0
LINE
  5
676
100
AcDbEntity
  8
0
100
AcDbLine
 62
7
  6
CONTINUOUS
 10
94.3283715564
 20
52.9389408397
 11
94.8335036716
 21
52.9389408397
  0
LINE
  5
677
100
AcDbEntity
  8
0
100
AcDbLine
 62
7
  6
CONTINUOUS
 10
94.3845443621
 20
53.3139408397
 11
94.8908259878
 21
53.3139408397
  0
LINE
  5
678
100
AcDbEntity
  8
0
100
AcDbLine
 62
7
  6
CONTINUOUS
 10
134.1081906216
 20
46.7224655567
 11
134.3765139308
 21
46.4683355224
  0
LINE
  5
679
100
AcDbEntity
  8
0
100
AcDbLine
 62
7
  6
CONTINUOUS
 10
134.5048664471
 20
46.8931618115
 11
134.3752434448
 21
47.0564016234
  0
LINE
  5
67A
100
AcDbEntity
  8
KONSTRUKTIONSELEMENTE
100
AcDbLine
 62
7
  6
CONTINUOUS
 10
129.4573027353
 20
49.3489408397
 11
125.415850851
 21
56.3489408397
  0
LINE
  5
67B
100
AcDbEntity
  8
0
100
AcDbLine
 62
7
  6
CONTINUOUS
 10
131.8517866084
 20
43.9458934094
 11
131.8051017175
 21
44.2063815599
  0
LINE
  5
67C
100
AcDbEntity
  8
0
100
AcDbLine
 62
7
  6
CONTINUOUS
 10
134.0577222067
 20
48.7129824271
 11
133.9034083276
 21
47.483041786
  0
LINE
  5
67D
100
AcDbEntity
  8
0
100
AcDbLine
 62
7
  6
CONTINUOUS
 10
134.3285865138
 20
47.2827203979
 11
134.5010549631
 21
48.6573599076
  0
LINE
  5
67E
100
AcDbEntity
  8
0
100
AcDbLine
 62
7
  6
CONTINUOUS
 10
135.6093870611
 20
48.5183035827
 11
135.4369186118
 21
47.143664073
  0
LINE
  5
67F
100
AcDbEntity
  8
0
100
AcDbLine
 62
7
  6
CONTINUOUS
 10
135.8154398541
 20
47.1696613559
 11
136.0332947484
 21
48.9060481921
  0
LINE
  5
680
100
AcDbEntity
  8
0
100
AcDbLine
 62
7
  6
CONTINUOUS
 10
140.353550499
 20
79.0096205802
 11
140.1144416873
 21
77.4871987992
  0
LINE
  5
681
100
AcDbEntity
  8
0
100
AcDbLine
 62
7
  6
CONTINUOUS
 10
135.6961646164
 20
46.8171844492
 11
135.8154398541
 21
47.1696613559
  0
LINE
  5
682
100
AcDbEntity
  8
0
100
AcDbLine
 62
7
  6
CONTINUOUS
 10
131.567303527
 20
44.9516730476
 11
131.4482613824
 21
44.6854053376
  0
LINE
  5
683
100
AcDbEntity
  8
0
100
AcDbLine
 62
7
  6
CONTINUOUS
 10
131.8561606575
 20
44.5030429908
 11
131.9752028021
 21
44.7693107008
  0
LINE
  5
684
100
AcDbEntity
  8
0
100
AcDbLine
 62
7
  6
CONTINUOUS
 10
135.4369186118
 20
47.143664073
 11
135.3357979573
 21
46.9358861384
  0
LINE
  5
685
100
AcDbEntity
  8
0
100
AcDbLine
 62
7
  6
CONTINUOUS
 10
129.7056279699
 20
41.225827496
 11
129.8426594675
 21
41.4938520196
  0
LINE
  5
686
100
AcDbEntity
  8
0
100
AcDbLine
 62
7
  6
CONTINUOUS
 10
129.5075126997
 20
41.7893422702
 11
129.3222584716
 21
41.4666232344
  0
LINE
  5
687
100
AcDbEntity
  8
0
100
AcDbLine
 62
7
  6
CONTINUOUS
 10
131.7840892906
 20
45.2541136759
 11
131.567303527
 21
44.9516730476
  0
LINE
  5
688
100
AcDbEntity
  8
0
100
AcDbLine
 62
7
  6
CONTINUOUS
 10
131.9752028021
 20
44.7693107008
 11
132.162227981
 21
45.0051843089
  0
LINE
  5
689
100
AcDbEntity
  8
0
100
AcDbLine
 62
7
  6
CONTINUOUS
 10
130.6648495176
 20
43.1020004473
 11
129.5075126997
 21
41.7893422702
  0
LINE
  5
68A
100
AcDbEntity
  8
0
100
AcDbLine
 62
7
  6
CONTINUOUS
 10
129.8426594675
 20
41.4938520196
 11
130.7106620809
 21
42.4783456524
  0
LINE
  5
68B
100
AcDbEntity
  8
0
100
AcDbLine
 62
7
  6
CONTINUOUS
 10
135.4381890978
 20
46.555597972
 11
135.6961646164
 21
46.8171844492
  0
LINE
  5
68C
100
AcDbEntity
  8
0
100
AcDbLine
 62
7
  6
CONTINUOUS
 10
132.0390978622
 20
45.459593936
 11
131.7840892906
 21
45.2541136759
  0
LINE
  5
68D
100
AcDbEntity
  8
0
100
AcDbLine
 62
7
  6
CONTINUOUS
 10
120.2754416675
 20
34.9877283621
 11
120.6050965732
 21
35.2429230889
  0
LINE
  5
68E
100
AcDbEntity
  8
0
100
AcDbLine
 62
7
  6
CONTINUOUS
 10
135.3357979573
 20
46.9358861384
 11
135.1698657887
 21
46.8097280062
  0
LINE
  5
68F
100
AcDbEntity
  8
0
100
AcDbLine
 62
7
  6
CONTINUOUS
 10
118.82889094
 20
36.2398309158
 11
121.1059370812
 21
37.8048869814
  0
LINE
  5
690
100
AcDbEntity
  8
0
100
AcDbLine
 62
7
  6
CONTINUOUS
 10
120.5280812607
 20
37.8846474134
 11
118.4982787786
 21
36.5109870507
  0
LINE
  5
691
100
AcDbEntity
  8
0
100
AcDbLine
 62
7
  6
CONTINUOUS
 10
132.162227981
 20
45.0051843089
 11
132.3874760036
 21
45.1440975331
  0
LINE
  5
692
100
AcDbEntity
  8
0
100
AcDbLine
 62
7
  6
CONTINUOUS
 10
135.1154020651
 20
46.3756312972
 11
135.4381890978
 21
46.555597972
  0
LINE
  5
693
100
AcDbEntity
  8
0
100
AcDbLine
 62
7
  6
CONTINUOUS
 10
114.9004495745
 20
36.2595157554
 11
117.3394646956
 21
37.334862899
  0
LINE
  5
694
100
AcDbEntity
  8
0
100
AcDbLine
 62
7
  6
CONTINUOUS
 10
116.877521728
 20
37.5519636416
 11
115.1538442766
 21
36.7986843423
  0
LINE
  5
695
100
AcDbEntity
  8
0
100
AcDbLine
 62
7
  6
CONTINUOUS
 10
132.4300726786
 20
45.6042863708
 11
132.0390978622
 21
45.459593936
  0
LINE
  5
696
100
AcDbEntity
  8
0
100
AcDbLine
 62
7
  6
CONTINUOUS
 10
94.4683483799
 20
53.8139407205
 11
94.9763548154
 21
53.8139407205
  0
LINE
  5
697
100
AcDbEntity
  8
0
100
AcDbLine
 62
7
  6
CONTINUOUS
 10
94.5875644332
 20
54.4389408397
 11
95.0980450715
 21
54.4389408397
  0
LINE
  5
698
100
AcDbEntity
  8
KONSTRUKTIONSELEMENTE
100
AcDbLine
 62
7
  6
CONTINUOUS
 10
125.415850851
 20
56.3489408397
 11
117.3329470823
 21
56.3489408397
  0
LINE
  5
699
100
AcDbEntity
  8
0
100
AcDbLine
 62
7
  6
CONTINUOUS
 10
133.9967221765
 20
47.0304041336
 11
134.1081906216
 21
46.7224655567
  0
LINE
  5
69A
100
AcDbEntity
  8
0
100
AcDbLine
 62
7
  6
CONTINUOUS
 10
134.3752434448
 20
47.0564016234
 11
134.3285865138
 21
47.2827203979
  0
LINE
  5
69B
100
AcDbEntity
  8
0
100
AcDbLine
 62
7
  6
CONTINUOUS
 10
140.353550499
 20
19.6882610992
 11
140.1144416873
 21
21.2106828802
  0
LINE
  5
69C
100
AcDbEntity
  8
KONSTRUKTIONSELEMENTE
100
AcDbLine
 62
7
  6
CONTINUOUS
 10
139.9879927801
 20
23.025827527
 11
140.047198902
 21
21.8291506549
  0
LWPOLYLINE
  5
69D
100
AcDbEntity
  8
KONSTRUKTIONSELEMENTE
100
AcDbPolyline
 62
7
  6
CONTINUOUS
 90
3
 70
0
 10
139.913138044
 20
24.8980515792
 10
139.9315105027
 20
24.3891302238
 10
139.9879927801
 20
23.025827527
  0
LINE
  5
69E
100
AcDbEntity
  8
KONSTRUKTIONSELEMENTE
100
AcDbLine
 62
7
  6
CONTINUOUS
 10
139.8253708255
 20
27.5859686954
 11
139.9093613022
 21
25.0026684857
  0
LINE
  5
69F
100
AcDbEntity
  8
KONSTRUKTIONSELEMENTE
100
AcDbLine
 62
7
  6
CONTINUOUS
 10
139.5761749089
 20
39.1312574276
 11
139.5787333166
 21
38.945893028
  0
LWPOLYLINE
  5
6A0
100
AcDbEntity
  8
KONSTRUKTIONSELEMENTE
100
AcDbPolyline
 62
7
  6
CONTINUOUS
 90
3
 70
0
 10
139.5743989667
 20
39.4602173399
 10
139.5745451808
 20
39.3653067438
 10
139.5761749089
 20
39.1312574276
  0
LINE
  5
6A1
100
AcDbEntity
  8
0
100
AcDbLine
 62
7
  6
CONTINUOUS
 10
139.5745451808
 20
59.3325749355
 11
139.5743989666
 21
39.4602217997
  0
LINE
  5
6A2
100
AcDbEntity
  8
0
100
AcDbLine
 62
7
  6
CONTINUOUS
 10
139.5761749089
 20
59.5666242518
 11
139.5745451808
 21
59.3325749355
  0
LINE
  5
6A3
100
AcDbEntity
  8
0
100
AcDbLine
 62
7
  6
CONTINUOUS
 10
139.5787333166
 20
59.7519886514
 11
139.5761749089
 21
59.5666242518
  0
LINE
  5
6A4
100
AcDbEntity
  8
0
100
AcDbLine
 62
7
  6
CONTINUOUS
 10
139.9093613022
 20
73.6952131937
 11
139.8253708255
 21
71.111912984
  0
LINE
  5
6A5
100
AcDbEntity
  8
0
100
AcDbLine
 62
7
  6
CONTINUOUS
 10
139.9589527466
 20
75.0037089813
 11
139.9131381206
 21
73.7998300999
  0
LINE
  5
6A6
100
AcDbEntity
  8
0
100
AcDbLine
 62
7
  6
CONTINUOUS
 10
140.0186339654
 20
76.3159506449
 11
139.9589527466
 21
75.0037089813
  0
LINE
  5
6A7
100
AcDbEntity
  8
0
100
AcDbLine
 62
7
  6
CONTINUOUS
 10
140.0471988953
 20
76.8687308993
 11
140.0186339654
 21
76.3159506449
  0
LINE
  5
6A8
100
AcDbEntity
  8
0
100
AcDbLine
 62
7
  6
CONTINUOUS
 10
134.1673039707
 20
42.1918298247
 11
134.3458671024
 21
42.5912311992
  0
LINE
  5
6A9
100
AcDbEntity
  8
0
100
AcDbLine
 62
7
  6
CONTINUOUS
 10
135.0601196294
 20
44.1888366974
 11
135.2386828462
 21
44.5882382624
  0
LINE
  5
6AA
100
AcDbEntity
  8
0
100
AcDbLine
 62
7
  6
CONTINUOUS
 10
132.6656849386
 20
40.7546524834
 11
131.7976823252
 21
39.7701588505
  0
LINE
  5
6AB
100
AcDbEntity
  8
0
100
AcDbLine
 62
7
  6
CONTINUOUS
 10
132.1328290538
 20
39.4746686344
 11
133.2901658718
 21
40.7873268115
  0
LINE
  5
6AC
100
AcDbEntity
  8
0
100
AcDbLine
 62
7
  6
CONTINUOUS
 10
131.8358592447
 20
39.2504463415
 11
132.1328290538
 21
39.4746686344
  0
LINE
  5
6AD
100
AcDbEntity
  8
0
100
AcDbLine
 62
7
  6
CONTINUOUS
 10
131.7976823252
 20
39.7701588505
 11
131.5489352514
 21
39.6006310657
  0
LINE
  5
6AE
100
AcDbEntity
  8
0
100
AcDbLine
 62
7
  6
CONTINUOUS
 10
120.1818876966
 20
35.3765119775
 11
119.9448278529
 21
35.2588847252
  0
LINE
  5
6AF
100
AcDbEntity
  8
0
100
AcDbLine
 62
7
  6
CONTINUOUS
 10
131.5312543828
 20
39.1301669261
 11
131.8358592447
 21
39.2504463415
  0
LINE
  5
6B0
100
AcDbEntity
  8
0
100
AcDbLine
 62
7
  6
CONTINUOUS
 10
119.9661494328
 20
34.8800712208
 11
120.2754416675
 21
34.9877283621
  0
LINE
  5
6B1
100
AcDbEntity
  8
0
100
AcDbLine
 62
7
  6
CONTINUOUS
 10
95.391721282
 20
57.4389408397
 11
95.9195495695
 21
57.4389408397
  0
LINE
  5
6B2
100
AcDbEntity
  8
0
100
AcDbLine
 62
7
  6
CONTINUOUS
 10
95.813840923
 20
58.605607705
 11
96.3512613977
 21
58.605607705
  0
LINE
  5
6B3
100
AcDbEntity
  8
0
100
AcDbLine
 62
7
  6
CONTINUOUS
 10
96.155562531
 20
59.4389408397
 11
96.7010104988
 21
59.4389408397
  0
LINE
  5
6B4
100
AcDbEntity
  8
0
100
AcDbLine
 62
7
  6
CONTINUOUS
 10
140.8243989666
 20
18.6502533126
 11
140.8243989666
 21
80.0476283668
  0
LINE
  5
6B5
100
AcDbEntity
  8
0
100
AcDbLine
 62
7
  6
CONTINUOUS
 10
141.5743989666
 20
11.5176507671
 11
141.5743989666
 21
12.4380921918
  0
LINE
  5
6B6
100
AcDbEntity
  8
KONSTRUKTIONSELEMENTE
100
AcDbLine
 62
7
  6
CONTINUOUS
 10
141.5743989666
 20
86.2597894876
 11
141.5743989666
 21
87.167318592
  0
LINE
  5
6B7
100
AcDbEntity
  8
KONSTRUKTIONSELEMENTE
100
AcDbLine
 62
7
  6
CONTINUOUS
 10
142.0743989666
 20
11.4911960113
 11
142.0743989666
 21
10.0535385918
  0
LINE
  5
6B8
100
AcDbEntity
  8
0
100
AcDbLine
 62
7
  6
CONTINUOUS
 10
142.0743989666
 20
87.2066965208
 11
142.0743989666
 21
88.6443430876
  0
LINE
  5
6B9
100
AcDbEntity
  8
BEZUGSACHSEN
100
AcDbLine
 62
7
  6
CONTINUOUS
 10
131.7667038121
 20
31.3489408397
 11
139.5743989666
 21
44.8722655374
  0
LINE
  5
6BA
100
AcDbEntity
  8
0
100
AcDbLine
 62
7
  6
CONTINUOUS
 10
97.7658278305
 20
62.5639408397
 11
98.3526230042
 21
62.5639408397
  0
LINE
  5
6BB
100
AcDbEntity
  8
0
100
AcDbLine
 62
7
  6
CONTINUOUS
 10
98.1570135053
 20
63.1889408397
 11
98.7548312478
 21
63.1889408397
  0
LINE
  5
6BC
100
AcDbEntity
  8
0
100
AcDbLine
 62
7
  6
CONTINUOUS
 10
98.7191050111
 20
64.0222742724
 11
99.3335174154
 21
64.0222742724
  0
LINE
  5
6BD
100
AcDbEntity
  8
BEZUGSACHSEN
100
AcDbLine
 62
7
  6
CONTINUOUS
 10
139.5743989666
 20
53.8256161419
 11
131.7667038121
 21
67.3489408397
  0
LINE
  5
6BE
100
AcDbEntity
  8
0
100
AcDbLine
 62
7
  6
CONTINUOUS
 10
99.1731491475
 20
64.6472742724
 11
99.8016653624
 21
64.6472742724
  0
LINE
  5
6BF
100
AcDbEntity
  8
0
100
AcDbLine
 62
7
  6
CONTINUOUS
 10
100.3529494751
 20
66.105607556
 11
101.0213905702
 21
66.105607556
  0
LINE
  5
6C0
100
AcDbEntity
  8
BEZUGSACHSEN
100
AcDbLine
 62
7
  6
CONTINUOUS
 10
131.7667038121
 20
67.3489408397
 11
110.9820941212
 21
67.3489408397
  0
LINE
  5
6C1
100
AcDbEntity
  8
0
100
AcDbLine
 62
7
  6
CONTINUOUS
 10
101.7288455989
 20
67.5639408397
 11
102.4509129022
 21
67.5639408397
  0
LINE
  5
6C2
100
AcDbEntity
  8
0
100
AcDbLine
 62
7
  6
CONTINUOUS
 10
102.3899757875
 20
68.1889408397
 11
103.1410669856
 21
68.1889408397
  0
LINE
  5
6C3
100
AcDbEntity
  8
0
100
AcDbLine
 62
7
  6
CONTINUOUS
 10
154.0743989666
 20
11.4911851586
 11
154.0743989666
 21
10.0535385918
  0
LINE
  5
6C4
100
AcDbEntity
  8
0
100
AcDbLine
 62
7
  6
CONTINUOUS
 10
154.0743989666
 20
87.2066856681
 11
154.0743989666
 21
88.6443430876
  0
LINE
  5
6C5
100
AcDbEntity
  8
RUNDUNGEN
100
AcDbLine
 62
7
  6
CONTINUOUS
 10
161.5741045978
 20
74.3489408397
 11
156.2157005106
 21
74.3489408397
  0
LINE
  5
6C6
100
AcDbEntity
  8
RUNDUNGEN
100
AcDbLine
 62
7
  6
CONTINUOUS
 10
139.9330969615
 20
74.3489408397
 11
119.5743989666
 21
74.3489408397
  0
LINE
  5
6C7
100
AcDbEntity
  8
0
100
AcDbLine
 62
7
  6
CONTINUOUS
 10
156.1608051532
 20
75.6720541524
 11
156.1015990313
 21
76.8687310245
  0
LWPOLYLINE
  5
6C8
100
AcDbEntity
  8
0
100
AcDbPolyline
 62
7
  6
CONTINUOUS
 90
3
 70
0
 10
156.2356598893
 20
73.7998301002
 10
156.2172874306
 20
74.3087514556
 10
156.1608051532
 20
75.6720541524
  0
LINE
  5
6C9
100
AcDbEntity
  8
0
100
AcDbLine
 62
7
  6
CONTINUOUS
 10
156.3234271077
 20
71.111912984
 11
156.239436631
 21
73.6952131937
  0
LINE
  5
6CA
100
AcDbEntity
  8
0
100
AcDbLine
 62
7
  6
CONTINUOUS
 10
156.5726230244
 20
59.5666242518
 11
156.5700646167
 21
59.7519886514
  0
LINE
  5
6CB
100
AcDbEntity
  8
0
100
AcDbLine
 62
7
  6
CONTINUOUS
 10
156.5742527525
 20
59.3325749355
 11
156.5726230244
 21
59.5666242518
  0
LINE
  5
6CC
100
AcDbEntity
  8
0
100
AcDbLine
 62
7
  6
CONTINUOUS
 10
155.3243989666
 20
18.6502533126
 11
155.3243989666
 21
80.0476283668
  0
LINE
  5
6CD
100
AcDbEntity
  8
0
100
AcDbLine
 62
7
  6
CONTINUOUS
 10
156.5742527525
 20
39.3653067438
 11
156.5742527525
 21
59.3325749355
  0
LINE
  5
6CE
100
AcDbEntity
  8
0
100
AcDbLine
 62
7
  6
CONTINUOUS
 10
156.5726230244
 20
39.1312574276
 11
156.5742527525
 21
39.3653067438
  0
LINE
  5
6CF
100
AcDbEntity
  8
0
100
AcDbLine
 62
7
  6
CONTINUOUS
 10
156.5700646167
 20
38.945893028
 11
156.5726230244
 21
39.1312574276
  0
LINE
  5
6D0
100
AcDbEntity
  8
0
100
AcDbLine
 62
7
  6
CONTINUOUS
 10
156.239436631
 20
25.0026684857
 11
156.3234271077
 21
27.5859686954
  0
LINE
  5
6D1
100
AcDbEntity
  8
0
100
AcDbLine
 62
7
  6
CONTINUOUS
 10
156.1898451867
 20
23.6941726981
 11
156.2356598127
 21
24.8980515795
  0
LINE
  5
6D2
100
AcDbEntity
  8
0
100
AcDbLine
 62
7
  6
CONTINUOUS
 10
156.1301639679
 20
22.3819310345
 11
156.1898451867
 21
23.6941726981
  0
LINE
  5
6D3
100
AcDbEntity
  8
0
100
AcDbLine
 62
7
  6
CONTINUOUS
 10
156.101599038
 20
21.8291507801
 11
156.1301639679
 21
22.3819310345
  0
LINE
  5
6D4
100
AcDbEntity
  8
0
100
AcDbLine
 62
7
  6
CONTINUOUS
 10
156.0999571182
 20
76.3489408397
 11
155.3243989666
 21
76.3489408397
  0
LINE
  5
6D5
100
AcDbEntity
  8
0
100
AcDbLine
 62
7
  6
CONTINUOUS
 10
140.0488408151
 20
76.3489408397
 11
140.8243989666
 21
76.3489408397
  0
LINE
  5
6D6
100
AcDbEntity
  8
0
100
AcDbLine
 62
7
  6
CONTINUOUS
 10
155.7952474343
 20
19.6882610992
 11
156.034356246
 21
21.2106828802
  0
LINE
  5
6D7
100
AcDbEntity
  8
0
100
AcDbLine
 62
7
  6
CONTINUOUS
 10
155.7952474343
 20
79.0096205802
 11
156.034356246
 21
77.4871987992
  0
LINE
  5
6D8
100
AcDbEntity
  8
RUNDUNGEN
100
AcDbLine
 62
7
  6
CONTINUOUS
 10
163.5743989666
 20
26.3489408397
 11
163.5743989666
 21
72.3489408397
  0
LINE
  5
6D9
100
AcDbEntity
  8
KONSTRUKTIONSELEMENTE
100
AcDbLine
 62
7
  6
CONTINUOUS
 10
141.7714337496
 20
86.7205101346
 11
141.5743989666
 21
86.7205101346
  0
LINE
  5
6DA
100
AcDbEntity
  8
KONSTRUKTIONSELEMENTE
100
AcDbLine
 62
7
  6
CONTINUOUS
 10
141.9470466805
 20
87.0183824396
 11
141.5743989666
 21
87.0183824396
  0
LINE
  5
6DB
100
AcDbEntity
  8
KONSTRUKTIONSELEMENTE
100
AcDbLine
 62
7
  6
CONTINUOUS
 10
142.0477492365
 20
87.167318592
 11
141.5743989666
 21
87.167318592
  0
LWPOLYLINE
  5
6DC
100
AcDbEntity
  8
0
100
AcDbPolyline
 62
7
  6
CONTINUOUS
 90
15
 70
0
 10
147.9199314017
 20
90.3489409006
 10
147.8405666786
 20
90.3484891186
 10
147.1947795448
 20
90.3111258538
 10
146.5590151449
 20
90.2148638135
 10
145.9407940008
 20
90.0623163596
 10
145.3464327999
 20
89.85712315
 10
144.7808062796
 20
89.6034722755
 10
144.2472724987
 20
89.3055771752
 10
143.752122166
 20
88.9703970322
 10
143.2988967784
 20
88.604989862
 10
142.8911929073
 20
88.2182489525
 10
142.5306996172
 20
87.8194494248
 10
142.2167253227
 20
87.4169994801
 10
141.9476733244
 20
87.0194453445
 10
141.7191708574
 20
86.6318625158
  0
LINE
  5
6DD
100
AcDbEntity
  8
0
100
AcDbLine
 62
7
  6
CONTINUOUS
 10
148.2288752025
 20
90.3489408397
 11
147.9199227308
 21
90.3489408397
  0
LINE
  5
6DE
100
AcDbEntity
  8
0
100
AcDbLine
 62
7
  6
CONTINUOUS
 10
148.3193343501
 20
90.3483538483
 11
148.2288664391
 21
90.3489409005
  0
LWPOLYLINE
  5
6DF
100
AcDbEntity
  8
0
100
AcDbPolyline
 62
7
  6
CONTINUOUS
 90
14
 70
0
 10
154.4296271408
 20
86.6318623979
 10
154.2043772088
 20
87.0142825457
 10
153.9357380866
 20
87.4119414541
 10
153.6221644602
 20
87.8145948094
 10
153.2620619729
 20
88.2136707605
 10
152.8547397984
 20
88.6007458517
 10
152.4019234689
 20
88.9665071148
 10
151.9072643472
 20
89.3020337487
 10
151.3743098436
 20
89.6002926126
 10
150.8093679946
 20
89.8543433599
 10
150.2158158109
 20
90.0600016685
 10
149.5985409969
 20
90.213115982
 10
148.9638698155
 20
90.3100886806
 10
148.3193343501
 20
90.3483538483
  0
LINE
  5
6E0
100
AcDbEntity
  8
0
100
AcDbLine
 62
7
  6
CONTINUOUS
 10
154.0743989666
 20
10.0535385918
 11
151.061114978
 21
8.9567929125
  0
LINE
  5
6E1
100
AcDbEntity
  8
0
100
AcDbLine
 62
7
  6
CONTINUOUS
 10
154.0743989666
 20
88.6443430876
 11
151.061646686
 21
89.740895241
  0
ARC
  5
6E2
100
AcDbEntity
  8
RUNDUNGEN
100
AcDbCircle
 62
7
  6
CONTINUOUS
 10
147.5743989666
 20
162.4189456412
 40
16.0
100
AcDbArc
 50
270.0
 51
61.849648283
  0
ARC
  5
6E3
100
AcDbEntity
  8
0
100
AcDbCircle
 62
7
  6
CONTINUOUS
 10
147.9950928248
 20
162.320861996
 40
8.1707386305
100
AcDbArc
 50
185.3753960434
 51
186.0564434676
  0
ARC
  5
6E4
100
AcDbEntity
  8
KONSTRUKTIONSELEMENTE
100
AcDbCircle
 62
7
  6
CONTINUOUS
 10
147.9927338111
 20
162.3208765056
 40
8.1683728834
100
AcDbArc
 50
181.8126009909
 51
191.0265648428
  0
ARC
  5
6E5
100
AcDbEntity
  8
0
100
AcDbCircle
 62
7
  6
CONTINUOUS
 10
147.9758748328
 20
162.3197326419
 40
8.1514862636
100
AcDbArc
 50
182.0278790188
 51
182.7313290633
  0
ARC
  5
6E6
100
AcDbEntity
  8
0
100
AcDbCircle
 62
7
  6
CONTINUOUS
 10
147.9743989711
 20
162.3189456456
 40
8.1500000044
100
AcDbArc
 50
188.515200298
 51
192.0401989639
  0
ARC
  5
6E7
100
AcDbEntity
  8
0
100
AcDbCircle
 62
7
  6
CONTINUOUS
 10
147.9743989711
 20
162.3189456456
 40
8.1500000044
100
AcDbArc
 50
180.0000000145
 51
180.9919257422
  0
ARC
  5
6E8
100
AcDbEntity
  8
0
100
AcDbCircle
 62
7
  6
CONTINUOUS
 10
147.9665594436
 20
162.3173327523
 40
8.1420043153
100
AcDbArc
 50
191.7511245533
 51
192.0408182511
  0
ARC
  5
6E9
100
AcDbEntity
  8
KONSTRUKTIONSELEMENTE
100
AcDbCircle
 62
7
  6
CONTINUOUS
 10
147.9520761353
 20
162.3190301278
 40
8.1276771689
100
AcDbArc
 50
180.0006930047
 51
181.8086573218
  0
ARC
  5
6EA
100
AcDbEntity
  8
0
100
AcDbCircle
 62
7
  6
CONTINUOUS
 10
147.9522662302
 20
162.314552733
 40
8.1274427642
100
AcDbArc
 50
189.9967071401
 51
190.4275595827
  0
ARC
  5
6EB
100
AcDbEntity
  8
KONSTRUKTIONSELEMENTE
100
AcDbCircle
 62
7
  6
CONTINUOUS
 10
147.6243989666
 20
162.8689456412
 40
7.8
100
AcDbArc
 50
156.5965601319
 51
180.0
  0
ARC
  5
6EC
100
AcDbEntity
  8
RUNDUNGEN
100
AcDbCircle
 62
7
  6
CONTINUOUS
 10
96.5743989666
 20
176.4189456412
 40
2.0
100
AcDbArc
 50
90.0
 51
180.0
  0
ARC
  5
6ED
100
AcDbEntity
  8
RUNDUNGEN
100
AcDbCircle
 62
7
  6
CONTINUOUS
 10
96.5743989666
 20
148.4189456412
 40
2.0
100
AcDbArc
 50
180.0
 51
270.0
  0
ARC
  5
6EE
100
AcDbEntity
  8
0
100
AcDbCircle
 62
7
  6
CONTINUOUS
 10
95.7476786389
 20
168.5636395082
 40
1.6732865534
100
AcDbArc
 50
174.2059544301
 51
178.5869314794
  0
ARC
  5
6EF
100
AcDbEntity
  8
0
100
AcDbCircle
 62
7
  6
CONTINUOUS
 10
4.0405143506
 20
245.5685251974
 40
137.1597324796
100
AcDbArc
 50
2.1925987265
 51
2.4715715846
  0
ARC
  5
6F0
100
AcDbEntity
  8
0
100
AcDbCircle
 62
7
  6
CONTINUOUS
 10
5.7907982805
 20
245.6418894633
 40
135.4079126862
100
AcDbArc
 50
2.4839354601
 51
2.7737882163
  0
ARC
  5
6F1
100
AcDbEntity
  8
0
100
AcDbCircle
 62
7
  6
CONTINUOUS
 10
81.404080142
 20
248.9750082797
 40
59.7239284248
100
AcDbArc
 50
3.4487535058
 51
3.7141711518
  0
ARC
  5
6F2
100
AcDbEntity
  8
0
100
AcDbCircle
 62
7
  6
CONTINUOUS
 10
117.0382941566
 20
240.9141500606
 40
38.0361101271
100
AcDbArc
 50
359.2540266408
 51
0.001120812
  0
ARC
  5
6F3
100
AcDbEntity
  8
KONSTRUKTIONSELEMENTE
100
AcDbCircle
 62
7
  6
CONTINUOUS
 10
111.0743989666
 20
250.7595283229
 40
30.0
100
AcDbArc
 50
0.0
 51
0.2425704843
  0
ARC
  5
6F4
100
AcDbEntity
  8
0
100
AcDbCircle
 62
7
  6
CONTINUOUS
 10
111.0743989666
 20
250.7595391095
 40
29.9999993868
100
AcDbArc
 50
359.9999793992
 51
1.0637766688
  0
ARC
  5
6F5
100
AcDbEntity
  8
0
100
AcDbCircle
 62
7
  6
CONTINUOUS
 10
111.0743989666
 20
250.7595391095
 40
29.9999993868
100
AcDbArc
 50
2.7522205364
 51
3.4555380905
  0
ARC
  5
6F6
100
AcDbEntity
  8
0
100
AcDbCircle
 62
7
  6
CONTINUOUS
 10
111.0828536624
 20
250.7599015094
 40
29.9915561623
100
AcDbArc
 50
0.5403406095
 51
0.8886912408
  0
ARC
  5
6F7
100
AcDbEntity
  8
0
100
AcDbCircle
 62
7
  6
CONTINUOUS
 10
111.0829860198
 20
250.7599010284
 40
29.9914238136
100
AcDbArc
 50
0.1071330924
 51
0.4305882642
  0
ARC
  5
6F8
100
AcDbEntity
  8
0
100
AcDbCircle
 62
7
  6
CONTINUOUS
 10
134.3802869449
 20
273.3253939751
 40
22.182798724
100
AcDbArc
 50
2.447066517
 51
3.0382836796
  0
ARC
  5
6F9
100
AcDbEntity
  8
0
100
AcDbCircle
 62
7
  6
CONTINUOUS
 10
143.3981721215
 20
240.1445928253
 40
11.676232049
100
AcDbArc
 50
359.9987353433
 51
1.3463851321
  0
ARC
  5
6FA
100
AcDbEntity
  8
0
100
AcDbCircle
 62
7
  6
CONTINUOUS
 10
147.6743989666
 20
273.5689456412
 40
8.9
100
AcDbArc
 50
356.0
 51
360.0
  0
ARC
  5
6FB
100
AcDbEntity
  8
0
100
AcDbCircle
 62
7
  6
CONTINUOUS
 10
147.7892713977
 20
274.4634444352
 40
8.2158398766
100
AcDbArc
 50
159.5127880665
 51
160.692916853
  0
ARC
  5
6FC
100
AcDbEntity
  8
0
100
AcDbCircle
 62
7
  6
CONTINUOUS
 10
147.7890202898
 20
274.4678251921
 40
8.2146412352
100
AcDbArc
 50
173.8606876936
 51
175.3408111531
  0
ARC
  5
6FD
100
AcDbEntity
  8
0
100
AcDbCircle
 62
7
  6
CONTINUOUS
 10
147.7783116659
 20
274.4685058398
 40
8.2039127121
100
AcDbArc
 50
175.3394740886
 51
179.9967878861
  0
ARC
  5
6FE
100
AcDbEntity
  8
0
100
AcDbCircle
 62
7
  6
CONTINUOUS
 10
147.7754234583
 20
274.4681897944
 40
8.2012017815
100
AcDbArc
 50
160.6922176788
 51
164.2076967675
  0
ARC
  5
6FF
100
AcDbEntity
  8
0
100
AcDbCircle
 62
7
  6
CONTINUOUS
 10
147.7739699214
 20
274.46905784
 40
8.1995701649
100
AcDbArc
 50
165.851899339
 51
168.9471889806
  0
ARC
  5
700
100
AcDbEntity
  8
0
100
AcDbCircle
 62
7
  6
CONTINUOUS
 10
147.7737098038
 20
274.4690400865
 40
8.1993761487
100
AcDbArc
 50
89.9999065679
 51
147.9452582625
  0
ARC
  5
701
100
AcDbEntity
  8
0
100
AcDbCircle
 62
7
  6
CONTINUOUS
 10
147.7696961582
 20
274.4699223232
 40
8.195209943
100
AcDbArc
 50
168.9473924914
 51
173.8610903675
  0
ARC
  5
702
100
AcDbEntity
  8
0
100
AcDbCircle
 62
7
  6
CONTINUOUS
 10
147.7685724536
 20
274.4703823361
 40
8.1940126723
100
AcDbArc
 50
164.2094118315
 51
165.8516547585
  0
ARC
  5
703
100
AcDbEntity
  8
0
100
AcDbCircle
 62
7
  6
CONTINUOUS
 10
142.8842207416
 20
274.1314641202
 40
3.281313041
100
AcDbArc
 50
177.5362434182
 51
179.9788335233
  0
ARC
  5
704
100
AcDbEntity
  8
RUNDUNGEN
100
AcDbCircle
 62
7
  6
CONTINUOUS
 10
148.0743989666
 20
162.4189456412
 40
8.5
100
AcDbArc
 50
152.8307426619
 51
27.1675575617
  0
ARC
  5
705
100
AcDbEntity
  8
0
100
AcDbCircle
 62
7
  6
CONTINUOUS
 10
148.1560577822
 20
162.3208787016
 40
8.1683792898
100
AcDbArc
 50
348.9643017012
 51
358.1873850195
  0
ARC
  5
706
100
AcDbEntity
  8
0
100
AcDbCircle
 62
7
  6
CONTINUOUS
 10
148.1821953564
 20
162.317341849
 40
8.1420483974
100
AcDbArc
 50
347.9539491397
 51
348.241520106
  0
ARC
  5
707
100
AcDbEntity
  8
0
100
AcDbCircle
 62
7
  6
CONTINUOUS
 10
148.1880788488
 20
162.3159858205
 40
8.1360162271
100
AcDbArc
 50
350.4221374015
 51
350.7647097866
  0
ARC
  5
708
100
AcDbEntity
  8
0
100
AcDbCircle
 62
7
  6
CONTINUOUS
 10
148.1941111803
 20
162.3149678012
 40
8.1298985979
100
AcDbArc
 50
350.0800673856
 51
350.4221382637
  0
ARC
  5
709
100
AcDbEntity
  8
0
100
AcDbCircle
 62
7
  6
CONTINUOUS
 10
148.1959193841
 20
162.314662522
 40
8.1280648452
100
AcDbArc
 50
349.4522039192
 51
350.003279969
  0
ARC
  5
70A
100
AcDbEntity
  8
0
100
AcDbCircle
 62
7
  6
CONTINUOUS
 10
148.196721798
 20
162.3190301278
 40
8.1276771689
100
AcDbArc
 50
358.1913426782
 51
359.9993069953
  0
ARC
  5
70B
100
AcDbEntity
  8
0
100
AcDbCircle
 62
7
  6
CONTINUOUS
 10
148.5243989666
 20
162.8689456412
 40
7.8
100
AcDbArc
 50
0.0
 51
23.4066248714
  0
ARC
  5
70C
100
AcDbEntity
  8
0
100
AcDbCircle
 62
7
  6
CONTINUOUS
 10
292.1082835787
 20
245.5685251976
 40
137.1597324756
100
AcDbArc
 50
177.5284284154
 51
177.8074012735
  0
ARC
  5
70D
100
AcDbEntity
  8
0
100
AcDbCircle
 62
7
  6
CONTINUOUS
 10
290.3579996453
 20
245.6418894637
 40
135.4079126787
100
AcDbArc
 50
177.2262117837
 51
177.5160645399
  0
ARC
  5
70E
100
AcDbEntity
  8
0
100
AcDbCircle
 62
7
  6
CONTINUOUS
 10
214.7447177913
 20
248.9750082797
 40
59.7239284248
100
AcDbArc
 50
176.2858288482
 51
176.5512464942
  0
ARC
  5
70F
100
AcDbEntity
  8
0
100
AcDbCircle
 62
7
  6
CONTINUOUS
 10
179.1105037767
 20
240.9141500606
 40
38.0361101271
100
AcDbArc
 50
179.998879188
 51
180.7459733592
  0
ARC
  5
710
100
AcDbEntity
  8
0
100
AcDbCircle
 62
7
  6
CONTINUOUS
 10
185.0743989666
 20
250.7595391095
 40
29.9999993868
100
AcDbArc
 50
178.9362233312
 51
180.0000206008
  0
ARC
  5
711
100
AcDbEntity
  8
0
100
AcDbCircle
 62
7
  6
CONTINUOUS
 10
185.0743989666
 20
250.7595391095
 40
29.9999993868
100
AcDbArc
 50
176.5444619095
 51
177.2477794636
  0
ARC
  5
712
100
AcDbEntity
  8
0
100
AcDbCircle
 62
7
  6
CONTINUOUS
 10
185.0659442735
 20
250.7599015094
 40
29.9915561649
100
AcDbArc
 50
179.1113087592
 51
179.4596593904
  0
ARC
  5
713
100
AcDbEntity
  8
0
100
AcDbCircle
 62
7
  6
CONTINUOUS
 10
185.0658119135
 20
250.7599010284
 40
29.9914238136
100
AcDbArc
 50
179.5694117358
 51
179.8928669076
  0
ARC
  5
714
100
AcDbEntity
  8
0
100
AcDbCircle
 62
7
  6
CONTINUOUS
 10
161.7685109884
 20
273.3253939751
 40
22.182798724
100
AcDbArc
 50
176.9617163204
 51
177.552933483
  0
ARC
  5
715
100
AcDbEntity
  8
0
100
AcDbCircle
 62
7
  6
CONTINUOUS
 10
152.7506258118
 20
240.1445928253
 40
11.676232049
100
AcDbArc
 50
178.6536148679
 51
180.0012646567
  0
ARC
  5
716
100
AcDbEntity
  8
KONSTRUKTIONSELEMENTE
100
AcDbCircle
 62
7
  6
CONTINUOUS
 10
148.4743989666
 20
273.5689456412
 40
8.9
100
AcDbArc
 50
180.0
 51
184.0
  0
ARC
  5
717
100
AcDbEntity
  8
0
100
AcDbCircle
 62
7
  6
CONTINUOUS
 10
148.4743989666
 20
273.5689456412
 40
8.9
100
AcDbArc
 50
180.0
 51
184.0
  0
ARC
  5
718
100
AcDbEntity
  8
0
100
AcDbCircle
 62
7
  6
CONTINUOUS
 10
148.359564619
 20
274.4634583657
 40
8.2157993202
100
AcDbArc
 50
19.2700304098
 51
20.4758877671
  0
ARC
  5
719
100
AcDbEntity
  8
0
100
AcDbCircle
 62
7
  6
CONTINUOUS
 10
148.3597489624
 20
274.4678224122
 40
8.2146700134
100
AcDbArc
 50
4.6564550875
 51
6.1361892002
  0
ARC
  5
71A
100
AcDbEntity
  8
0
100
AcDbCircle
 62
7
  6
CONTINUOUS
 10
148.3705032409
 20
274.4685059996
 40
8.2038957386
100
AcDbArc
 50
0.0032110048
 51
4.6577940017
  0
ARC
  5
71B
100
AcDbEntity
  8
0
100
AcDbCircle
 62
7
  6
CONTINUOUS
 10
148.373570905
 20
274.4682510772
 40
8.2009960613
100
AcDbArc
 50
15.7834489644
 51
19.2707162709
  0
ARC
  5
71C
100
AcDbEntity
  8
0
100
AcDbCircle
 62
7
  6
CONTINUOUS
 10
148.3748417535
 20
274.4690611152
 40
8.1995560682
100
AcDbArc
 50
11.0468145707
 51
14.1347969948
  0
ARC
  5
71D
100
AcDbEntity
  8
0
100
AcDbCircle
 62
7
  6
CONTINUOUS
 10
148.3750877242
 20
274.4690398588
 40
8.1993766131
100
AcDbArc
 50
32.0547415831
 51
90.0000928468
  0
ARC
  5
71E
100
AcDbEntity
  8
0
100
AcDbCircle
 62
7
  6
CONTINUOUS
 10
148.3791390678
 20
274.4699296726
 40
8.195171954
100
AcDbArc
 50
6.1357815583
 51
11.0466114617
  0
ARC
  5
71F
100
AcDbEntity
  8
0
100
AcDbCircle
 62
7
  6
CONTINUOUS
 10
148.3801836719
 20
274.4703708039
 40
8.1940560512
100
AcDbArc
 50
14.1350381012
 51
15.7817629799
  0
ARC
  5
720
100
AcDbEntity
  8
0
100
AcDbCircle
 62
7
  6
CONTINUOUS
 10
153.2645771917
 20
274.1314641202
 40
3.281313041
100
AcDbArc
 50
0.0211664767
 51
2.4637565818
  0
ARC
  5
721
100
AcDbEntity
  8
0
100
AcDbCircle
 62
7
  6
CONTINUOUS
 10
251.553023125
 20
170.1689456412
 40
16.0
100
AcDbArc
 50
180.0
 51
270.0
  0
ARC
  5
722
100
AcDbEntity
  8
0
100
AcDbCircle
 62
7
  6
CONTINUOUS
 10
257.553023125
 20
178.6689456412
 40
8.0
100
AcDbArc
 50
180.0
 51
221.4078412113
  0
ARC
  5
723
100
AcDbEntity
  8
RUNDUNGEN
100
AcDbCircle
 62
7
  6
CONTINUOUS
 10
253.553023125
 20
148.4189456412
 40
2.0
100
AcDbArc
 50
180.0
 51
270.0
  0
ARC
  5
724
100
AcDbEntity
  8
RUNDUNGEN
100
AcDbCircle
 62
7
  6
CONTINUOUS
 10
253.553023125
 20
176.4189456412
 40
2.0
100
AcDbArc
 50
90.0
 51
180.0
  0
ARC
  5
725
100
AcDbEntity
  8
0
100
AcDbCircle
 62
7
  6
CONTINUOUS
 10
8.8955116866
 20
243.1724095728
 40
305.2658193401
100
AcDbArc
 50
1.7502944995
 51
1.9123535502
  0
ARC
  5
726
100
AcDbEntity
  8
0
100
AcDbCircle
 62
7
  6
CONTINUOUS
 10
276.5055599367
 20
221.4106116594
 40
57.4100969432
100
AcDbArc
 50
89.952631317
 51
100.6818544254
  0
ARC
  5
727
100
AcDbEntity
  8
0
100
AcDbCircle
 62
7
  6
CONTINUOUS
 10
276.20048765
 20
228.0258886424
 40
50.8654067728
100
AcDbArc
 50
102.1846369257
 51
120.1831765712
  0
ARC
  5
728
100
AcDbEntity
  8
0
100
AcDbCircle
 62
7
  6
CONTINUOUS
 10
260.553023125
 20
253.6689456412
 40
25.0
100
AcDbArc
 50
118.0724869359
 51
180.0
  0
ARC
  5
729
100
AcDbEntity
  8
0
100
AcDbCircle
 62
7
  6
CONTINUOUS
 10
268.7484017868
 20
262.4688792459
 40
15.6254792248
100
AcDbArc
 50
100.6365088046
 51
102.1311809785
  0
ARC
  5
72A
100
AcDbEntity
  8
0
100
AcDbCircle
 62
7
  6
CONTINUOUS
 10
224.0816936161
 20
252.9617512811
 40
15.0126641352
100
AcDbArc
 50
355.5891180405
 51
358.2234830982
  0
ARC
  5
72B
100
AcDbEntity
  8
0
100
AcDbCircle
 62
7
  6
CONTINUOUS
 10
224.1416548057
 20
251.1226134391
 40
14.9239454936
100
AcDbArc
 50
0.0058526765
 51
2.6289899373
  0
ARC
  5
72C
100
AcDbEntity
  8
0
100
AcDbCircle
 62
7
  6
CONTINUOUS
 10
257.553023125
 20
251.6504207677
 40
8.0
100
AcDbArc
 50
125.1527029668
 51
180.0
  0
ARC
  5
72D
100
AcDbEntity
  8
KONSTRUKTIONSELEMENTE
100
AcDbCircle
 62
7
  6
CONTINUOUS
 10
301.553023125
 20
170.1689456412
 40
16.0
100
AcDbArc
 50
270.0
 51
360.0
  0
ARC
  5
72E
100
AcDbEntity
  8
0
100
AcDbCircle
 62
7
  6
CONTINUOUS
 10
301.553023125
 20
170.1689456412
 40
16.0
100
AcDbArc
 50
270.0
 51
360.0
  0
ARC
  5
72F
100
AcDbEntity
  8
KONSTRUKTIONSELEMENTE
100
AcDbCircle
 62
7
  6
CONTINUOUS
 10
295.553023125
 20
178.6689456412
 40
8.0
100
AcDbArc
 50
318.5921587887
 51
360.0
  0
ARC
  5
730
100
AcDbEntity
  8
RUNDUNGEN
100
AcDbCircle
 62
7
  6
CONTINUOUS
 10
299.553023125
 20
176.4189456412
 40
2.0
100
AcDbArc
 50
0.0
 51
90.0
  0
ARC
  5
731
100
AcDbEntity
  8
RUNDUNGEN
100
AcDbCircle
 62
7
  6
CONTINUOUS
 10
299.553023125
 20
148.4189456412
 40
2.0
100
AcDbArc
 50
270.0
 51
360.0
  0
ARC
  5
732
100
AcDbEntity
  8
0
100
AcDbCircle
 62
7
  6
CONTINUOUS
 10
544.2105345633
 20
243.1724095728
 40
305.2658193401
100
AcDbArc
 50
178.0876464498
 51
178.2497055005
  0
ARC
  5
733
100
AcDbEntity
  8
KONSTRUKTIONSELEMENTE
100
AcDbCircle
 62
7
  6
CONTINUOUS
 10
276.553023125
 20
223.6689456412
 40
59.0
100
AcDbArc
 50
61.9275130641
 51
78.7908816319
  0
ARC
  5
734
100
AcDbEntity
  8
0
100
AcDbCircle
 62
7
  6
CONTINUOUS
 10
276.553023125
 20
223.6689456412
 40
59.0
100
AcDbArc
 50
61.9275130641
 51
78.4590063851
  0
ARC
  5
735
100
AcDbEntity
  8
0
100
AcDbCircle
 62
7
  6
CONTINUOUS
 10
276.553023125
 20
223.6689456412
 40
59.0
100
AcDbArc
 50
78.7908816319
 51
118.0724869359
  0
ARC
  5
736
100
AcDbEntity
  8
0
100
AcDbCircle
 62
7
  6
CONTINUOUS
 10
276.6004863133
 20
221.4106116594
 40
57.4100969432
100
AcDbArc
 50
79.3181455746
 51
90.047368683
  0
ARC
  5
737
100
AcDbEntity
  8
0
100
AcDbCircle
 62
7
  6
CONTINUOUS
 10
276.9055586
 20
228.0258886424
 40
50.8654067728
100
AcDbArc
 50
59.8168234288
 51
77.8153630743
  0
ARC
  5
738
100
AcDbEntity
  8
0
100
AcDbCircle
 62
7
  6
CONTINUOUS
 10
276.553023125
 20
224.6689456412
 40
41.0
100
AcDbArc
 50
54.8472970332
 51
125.1527029668
  0
ARC
  5
739
100
AcDbEntity
  8
KONSTRUKTIONSELEMENTE
100
AcDbCircle
 62
7
  6
CONTINUOUS
 10
292.553023125
 20
253.6689456412
 40
25.0
100
AcDbArc
 50
0.0
 51
61.9275130641
  0
ARC
  5
73A
100
AcDbEntity
  8
0
100
AcDbCircle
 62
7
  6
CONTINUOUS
 10
284.3576444631
 20
262.4688792459
 40
15.6254792248
100
AcDbArc
 50
77.8688190215
 51
79.3634911954
  0
ARC
  5
73B
100
AcDbEntity
  8
0
100
AcDbCircle
 62
7
  6
CONTINUOUS
 10
329.0243526339
 20
252.9617512811
 40
15.0126641352
100
AcDbArc
 50
181.7765169018
 51
184.4108819595
  0
ARC
  5
73C
100
AcDbEntity
  8
0
100
AcDbCircle
 62
7
  6
CONTINUOUS
 10
328.9643914443
 20
251.1226134391
 40
14.9239454936
100
AcDbArc
 50
177.3710100627
 51
179.9941473235
  0
ARC
  5
73D
100
AcDbEntity
  8
KONSTRUKTIONSELEMENTE
100
AcDbCircle
 62
7
  6
CONTINUOUS
 10
295.553023125
 20
251.6504207677
 40
8.0
100
AcDbArc
 50
0.0
 51
54.8472970332
  0
ARC
  5
73E
100
AcDbEntity
  8
0
100
AcDbCircle
 62
7
  6
CONTINUOUS
 10
310.3845721987
 20
216.5356121721
 40
4.0
100
AcDbArc
 50
174.2608295227
 51
359.3171996582
  0
ARC
  5
73F
100
AcDbEntity
  8
0
100
AcDbCircle
 62
7
  6
CONTINUOUS
 10
310.3845721987
 20
209.7356121721
 40
4.0
100
AcDbArc
 50
174.2608295227
 51
359.3171996582
  0
ARC
  5
740
100
AcDbEntity
  8
0
100
AcDbCircle
 62
7
  6
CONTINUOUS
 10
310.3845721987
 20
216.5356121721
 40
2.8
100
AcDbArc
 50
282.3736251162
 51
8.2132107017
  0
ARC
  5
741
100
AcDbEntity
  8
0
100
AcDbCircle
 62
7
  6
CONTINUOUS
 10
310.3845721987
 20
216.5356121721
 40
2.8
100
AcDbArc
 50
171.7867892983
 51
257.4447123387
  0
ARC
  5
742
100
AcDbEntity
  8
0
100
AcDbCircle
 62
7
  6
CONTINUOUS
 10
310.3845721987
 20
209.7356121721
 40
2.8
100
AcDbArc
 50
171.7867892983
 51
8.2132107017
  0
ARC
  5
743
100
AcDbEntity
  8
0
100
AcDbCircle
 62
7
  6
CONTINUOUS
 10
-548.5669030936
 20
48.7224848453
 40
705.2071575808
100
AcDbArc
 50
358.2824698365
 51
358.7721175057
  0
ARC
  5
744
100
AcDbEntity
  8
0
100
AcDbCircle
 62
7
  6
CONTINUOUS
 10
-187.1416741007
 20
37.8874614035
 40
343.6195556464
100
AcDbArc
 50
357.8336252073
 51
358.2820520561
  0
ARC
  5
745
100
AcDbEntity
  8
0
100
AcDbCircle
 62
7
  6
CONTINUOUS
 10
113.7858209741
 20
12.307956552
 40
27.4148583925
100
AcDbArc
 50
4.9160864063
 51
5.993298307
  0
ARC
  5
746
100
AcDbEntity
  8
0
100
AcDbCircle
 62
7
  6
CONTINUOUS
 10
131.7987817655
 20
38.9430186454
 40
24.7471084544
100
AcDbArc
 50
0.0074845729
 51
0.8970764608
  0
ARC
  5
747
100
AcDbEntity
  8
0
100
AcDbCircle
 62
7
  6
CONTINUOUS
 10
129.0081145156
 20
13.8112950077
 40
12.1212769761
100
AcDbArc
 50
7.7087334282
 51
8.2955669809
  0
ARC
  5
748
100
AcDbEntity
  8
0
100
AcDbCircle
 62
7
  6
CONTINUOUS
 10
132.1606668625
 20
14.3058563215
 40
8.9317075225
100
AcDbArc
 50
6.2040413916
 51
6.3446715676
  0
ARC
  5
749
100
AcDbEntity
  8
0
100
AcDbCircle
 62
7
  6
CONTINUOUS
 10
147.9743989666
 20
15.2489408397
 40
6.9
100
AcDbArc
 50
184.9187308409
 51
197.8683932368
  0
ARC
  5
74A
100
AcDbEntity
  8
0
100
AcDbCircle
 62
7
  6
CONTINUOUS
 10
135.0170452508
 20
14.6227412015
 40
6.0578055102
100
AcDbArc
 50
6.3514076799
 51
7.726783403
  0
ARC
  5
74B
100
AcDbEntity
  8
0
100
AcDbCircle
 62
7
  6
CONTINUOUS
 10
-548.566903091
 20
49.9753968341
 40
705.2071575782
100
AcDbArc
 50
1.2278824943
 51
1.7175301635
  0
ARC
  5
74C
100
AcDbEntity
  8
0
100
AcDbCircle
 62
7
  6
CONTINUOUS
 10
-187.1416740976
 20
60.810420276
 40
343.6195556433
100
AcDbArc
 50
1.7179479439
 51
2.1663747927
  0
ARC
  5
74D
100
AcDbEntity
  8
0
100
AcDbCircle
 62
7
  6
CONTINUOUS
 10
119.5743989666
 20
49.3489408397
 40
25.5
100
AcDbArc
 50
220.239221761
 51
232.856355926
  0
ARC
  5
74E
100
AcDbEntity
  8
0
100
AcDbCircle
 62
7
  6
CONTINUOUS
 10
119.5743989666
 20
49.3489408397
 40
25.5
100
AcDbArc
 50
207.7906228211
 51
217.8285485265
  0
ARC
  5
74F
100
AcDbEntity
  8
0
100
AcDbCircle
 62
7
  6
CONTINUOUS
 10
119.5743989666
 20
49.3489408397
 40
25.5
100
AcDbArc
 50
158.7150466155
 51
205.6938307871
  0
ARC
  5
750
100
AcDbEntity
  8
0
100
AcDbCircle
 62
7
  6
CONTINUOUS
 10
119.5743989666
 20
49.3489408397
 40
25.5
100
AcDbArc
 50
147.1292941924
 51
156.6912178818
  0
ARC
  5
751
100
AcDbEntity
  8
0
100
AcDbCircle
 62
7
  6
CONTINUOUS
 10
119.5743989666
 20
49.3489408397
 40
25.5
100
AcDbArc
 50
132.3687054709
 51
144.8706105347
  0
ARC
  5
752
100
AcDbEntity
  8
RUNDUNGEN
100
AcDbCircle
 62
7
  6
CONTINUOUS
 10
119.5743989666
 20
49.3489408397
 40
25.0
100
AcDbArc
 50
90.0
 51
270.0
  0
ARC
  5
753
100
AcDbEntity
  8
0
100
AcDbCircle
 62
7
  6
CONTINUOUS
 10
121.3743989666
 20
49.3489408397
 40
22.5
100
AcDbArc
 50
35.7453828801
 51
324.2546171199
  0
CIRCLE
  5
754
100
AcDbEntity
  8
BEZUGSACHSEN
100
AcDbCircle
 62
7
  6
CONTINUOUS
 10
121.3743989666
 20
49.3489408397
 40
18.0
  0
ARC
  5
755
100
AcDbEntity
  8
0
100
AcDbCircle
 62
7
  6
CONTINUOUS
 10
131.7987817655
 20
59.754863034
 40
24.7471084544
100
AcDbArc
 50
359.1029235392
 51
359.9925154271
  0
ARC
  5
756
100
AcDbEntity
  8
0
100
AcDbCircle
 62
7
  6
CONTINUOUS
 10
113.7858209741
 20
86.3899251274
 40
27.4148583926
100
AcDbArc
 50
354.006701693
 51
355.0839135937
  0
ARC
  5
757
100
AcDbEntity
  8
0
100
AcDbCircle
 62
7
  6
CONTINUOUS
 10
129.0081145156
 20
84.8865866716
 40
12.1212769761
100
AcDbArc
 50
351.7044330191
 51
352.2912665718
  0
ARC
  5
758
100
AcDbEntity
  8
0
100
AcDbCircle
 62
7
  6
CONTINUOUS
 10
132.1606668663
 20
84.3920253575
 40
8.9317075186
100
AcDbArc
 50
353.6553284323
 51
353.7959586085
  0
ARC
  5
759
100
AcDbEntity
  8
0
100
AcDbCircle
 62
7
  6
CONTINUOUS
 10
147.9743989666
 20
83.4489408397
 40
6.9
100
AcDbArc
 50
162.1316067632
 51
175.0812691591
  0
ARC
  5
75A
100
AcDbEntity
  8
0
100
AcDbCircle
 62
7
  6
CONTINUOUS
 10
135.0170452508
 20
84.0751404779
 40
6.0578055102
100
AcDbArc
 50
352.273216597
 51
353.6485923201
  0
ARC
  5
75B
100
AcDbEntity
  8
0
100
AcDbCircle
 62
7
  6
CONTINUOUS
 10
844.7157010256
 20
48.7224848453
 40
705.2071575796
100
AcDbArc
 50
181.2278824943
 51
181.7175301635
  0
ARC
  5
75C
100
AcDbEntity
  8
0
100
AcDbCircle
 62
7
  6
CONTINUOUS
 10
483.2904720309
 20
37.8874614034
 40
343.6195556433
100
AcDbArc
 50
181.7179479439
 51
182.1663747927
  0
ARC
  5
75D
100
AcDbEntity
  8
0
100
AcDbCircle
 62
7
  6
CONTINUOUS
 10
182.3629769589
 20
12.307956552
 40
27.4148583923
100
AcDbArc
 50
174.006701693
 51
175.0839135938
  0
ARC
  5
75E
100
AcDbEntity
  8
0
100
AcDbCircle
 62
7
  6
CONTINUOUS
 10
164.3500161678
 20
38.9430186454
 40
24.7471084544
100
AcDbArc
 50
179.1029235392
 51
179.9925154271
  0
ARC
  5
75F
100
AcDbEntity
  8
0
100
AcDbCircle
 62
7
  6
CONTINUOUS
 10
167.1406834177
 20
13.8112950077
 40
12.1212769761
100
AcDbArc
 50
171.7044330191
 51
172.2912665718
  0
ARC
  5
760
100
AcDbEntity
  8
0
100
AcDbCircle
 62
7
  6
CONTINUOUS
 10
163.9881310708
 20
14.3058563215
 40
8.9317075225
100
AcDbArc
 50
173.6553284324
 51
173.7959586084
  0
ARC
  5
761
100
AcDbEntity
  8
0
100
AcDbCircle
 62
7
  6
CONTINUOUS
 10
148.1743989666
 20
15.2489408397
 40
6.9
100
AcDbArc
 50
342.1316067632
 51
355.0812691591
  0
ARC
  5
762
100
AcDbEntity
  8
0
100
AcDbCircle
 62
7
  6
CONTINUOUS
 10
161.1317526825
 20
14.6227412015
 40
6.0578055102
100
AcDbArc
 50
172.273216597
 51
173.6485923201
  0
ARC
  5
763
100
AcDbEntity
  8
RUNDUNGEN
100
AcDbCircle
 62
7
  6
CONTINUOUS
 10
161.5743989666
 20
26.3489408397
 40
2.0
100
AcDbArc
 50
269.9999846661
 51
360.0
  0
ARC
  5
764
100
AcDbEntity
  8
0
100
AcDbCircle
 62
7
  6
CONTINUOUS
 10
844.7157010244
 20
49.9753968341
 40
705.2071575783
100
AcDbArc
 50
178.2824698365
 51
178.7721175057
  0
ARC
  5
765
100
AcDbEntity
  8
0
100
AcDbCircle
 62
7
  6
CONTINUOUS
 10
483.2904720309
 20
60.810420276
 40
343.6195556433
100
AcDbArc
 50
177.8336252073
 51
178.2820520561
  0
ARC
  5
766
100
AcDbEntity
  8
0
100
AcDbCircle
 62
7
  6
CONTINUOUS
 10
182.3629769592
 20
86.3899251274
 40
27.4148583926
100
AcDbArc
 50
184.9160864063
 51
185.993298307
  0
ARC
  5
767
100
AcDbEntity
  8
0
100
AcDbCircle
 62
7
  6
CONTINUOUS
 10
164.3500161678
 20
59.754863034
 40
24.7471084544
100
AcDbArc
 50
180.0074845729
 51
180.8970764608
  0
ARC
  5
768
100
AcDbEntity
  8
0
100
AcDbCircle
 62
7
  6
CONTINUOUS
 10
167.1406834177
 20
84.8865866716
 40
12.1212769761
100
AcDbArc
 50
187.7087334282
 51
188.2955669809
  0
ARC
  5
769
100
AcDbEntity
  8
0
100
AcDbCircle
 62
7
  6
CONTINUOUS
 10
163.988131067
 20
84.3920253575
 40
8.9317075186
100
AcDbArc
 50
186.2040413915
 51
186.3446715677
  0
ARC
  5
76A
100
AcDbEntity
  8
0
100
AcDbCircle
 62
7
  6
CONTINUOUS
 10
148.1743989666
 20
83.4489408397
 40
6.9
100
AcDbArc
 50
4.9187308409
 51
17.8683932368
  0
ARC
  5
76B
100
AcDbEntity
  8
0
100
AcDbCircle
 62
7
  6
CONTINUOUS
 10
161.1317526825
 20
84.0751404779
 40
6.0578055102
100
AcDbArc
 50
186.3514076799
 51
187.726783403
  0
ARC
  5
76C
100
AcDbEntity
  8
RUNDUNGEN
100
AcDbCircle
 62
7
  6
CONTINUOUS
 10
161.5743989666
 20
72.3489408397
 40
2.0
100
AcDbArc
 50
0.0
 51
90.0000153286
  0
LINE
  5
76D
100
AcDbEntity
  8
0
100
AcDbLine
 62
7
  6
CONTINUOUS
 10
141.0744098301
 20
250.7599032902
 11
141.0743574047
 21
250.8159797158
  0
LINE
  5
76E
100
AcDbEntity
  8
0
100
AcDbLine
 62
7
  6
CONTINUOUS
 10
141.07356291
 20
250.9852899431
 11
141.0734060667
 21
251.0052738154
  0
LINE
  5
76F
100
AcDbEntity
  8
0
100
AcDbLine
 62
7
  6
CONTINUOUS
 10
141.0734060667
 20
251.0052738154
 11
141.0730761321
 21
251.0427393669
  0
LINE
  5
770
100
AcDbEntity
  8
0
100
AcDbLine
 62
7
  6
CONTINUOUS
 10
141.0708022375
 20
251.225069534
 11
141.0704144298
 21
251.2494321026
  0
LINE
  5
771
100
AcDbEntity
  8
0
100
AcDbLine
 62
7
  6
CONTINUOUS
 10
141.0704144298
 20
251.2494321026
 11
141.0692446702
 21
251.316493789
  0
LINE
  5
772
100
AcDbEntity
  8
0
100
AcDbLine
 62
7
  6
CONTINUOUS
 10
141.0406107646
 20
252.1833527584
 11
141.0398124139
 21
252.2000563411
  0
LINE
  5
773
100
AcDbEntity
  8
0
100
AcDbLine
 62
7
  6
CONTINUOUS
 10
141.0400644439
 20
252.1946614193
 11
141.0376685451
 21
252.2436052407
  0
LINE
  5
774
100
AcDbEntity
  8
0
100
AcDbLine
 62
7
  6
CONTINUOUS
 10
156.2005814462
 20
160.9036971083
 11
156.2024633566
 21
160.9144155415
  0
SPLINE
  5
775
100
AcDbEntity
  8
0
100
AcDbSpline
 62
7
  6
CONTINUOUS
 70
0
 71
3
 72
11
 73
7
 74
0
 42
0.0000001
 43
0.0000001
 44
0.0000000001
 40
0.0
 40
0.0
 40
0.0
 40
0.0
 40
0.2499579922
 40
0.499927014
 40
0.7499602188
 40
1.0
 40
1.0
 40
1.0
 40
1.0
 10
141.002566026
 20
252.8438720448
 30
0.0
 10
140.9523092041
 20
253.6167219764
 30
0.0
 10
140.881123447
 20
255.1641541773
 30
0.0
 10
140.7478348815
 20
257.4842432947
 30
0.0
 10
140.5487691807
 20
259.7997928935
 30
0.0
 10
140.4075934718
 20
261.3429163172
 30
0.0
 10
140.353550643
 20
262.1157647753
 30
0.0
  0
LINE
  5
776
100
AcDbEntity
  8
0
100
AcDbLine
 62
7
  6
CONTINUOUS
 10
139.9482164871
 20
160.9036971083
 11
139.9462793079
 21
160.9147316042
  0
LINE
  5
777
100
AcDbEntity
  8
0
100
AcDbLine
 62
7
  6
CONTINUOUS
 10
155.0743881032
 20
250.7599032902
 11
155.0744405286
 21
250.8159797158
  0
LINE
  5
778
100
AcDbEntity
  8
0
100
AcDbLine
 62
7
  6
CONTINUOUS
 10
155.0752350233
 20
250.9852899431
 11
155.0753918666
 21
251.0052738154
  0
LINE
  5
779
100
AcDbEntity
  8
0
100
AcDbLine
 62
7
  6
CONTINUOUS
 10
155.0753918666
 20
251.0052738154
 11
155.0757218012
 21
251.0427393669
  0
LINE
  5
77A
100
AcDbEntity
  8
0
100
AcDbLine
 62
7
  6
CONTINUOUS
 10
155.0779956958
 20
251.225069534
 11
155.0783835035
 21
251.2494321026
  0
LINE
  5
77B
100
AcDbEntity
  8
0
100
AcDbLine
 62
7
  6
CONTINUOUS
 10
155.0783835035
 20
251.2494321026
 11
155.0795532631
 21
251.316493789
  0
LINE
  5
77C
100
AcDbEntity
  8
0
100
AcDbLine
 62
7
  6
CONTINUOUS
 10
155.1081871687
 20
252.1833527584
 11
155.1089855194
 21
252.2000563411
  0
LINE
  5
77D
100
AcDbEntity
  8
0
100
AcDbLine
 62
7
  6
CONTINUOUS
 10
155.1087334894
 20
252.1946614193
 11
155.1111293882
 21
252.2436052407
  0
SPLINE
  5
77E
100
AcDbEntity
  8
0
100
AcDbSpline
 62
7
  6
CONTINUOUS
 70
0
 71
3
 72
11
 73
7
 74
0
 42
0.0000001
 43
0.0000001
 44
0.0000000001
 40
0.0
 40
0.0
 40
0.0
 40
0.0
 40
0.2499579922
 40
0.499927014
 40
0.7499602188
 40
1.0
 40
1.0
 40
1.0
 40
1.0
 10
155.1462319073
 20
252.8438720448
 30
0.0
 10
155.1964887292
 20
253.6167219764
 30
0.0
 10
155.2676744863
 20
255.1641541773
 30
0.0
 10
155.4009630517
 20
257.4842432947
 30
0.0
 10
155.6000287526
 20
259.7997928935
 30
0.0
 10
155.7412044615
 20
261.3429163172
 30
0.0
 10
155.7952472903
 20
262.1157647753
 30
0.0
  0
SPLINE
  5
77F
100
AcDbEntity
  8
0
100
AcDbSpline
 62
7
  6
CONTINUOUS
 70
0
 71
3
 72
10
 73
6
 74
0
 42
0.0000001
 43
0.0000001
 44
0.0000000001
 40
0.0
 40
0.0
 40
0.0
 40
0.0
 40
0.4911377596
 40
0.7414030834
 40
1.0
 40
1.0
 40
1.0
 40
1.0
 10
156.5319042446
 20
274.5011534046
 30
0.0
 10
156.5017421522
 20
275.0680928445
 30
0.0
 10
156.4220511296
 20
275.924877049
 30
0.0
 10
156.1599400843
 20
277.0526850697
 30
0.0
 10
155.9560437201
 20
277.6069456783
 30
0.0
 10
155.8318266923
 20
277.8788457686
 30
0.0
  0
LINE
  5
780
100
AcDbEntity
  8
0
100
AcDbLine
 62
7
  6
CONTINUOUS
 10
155.8318266923
 20
277.8788457686
 11
155.8287916452
 21
277.8854784475
  0
SPLINE
  5
781
100
AcDbEntity
  8
0
100
AcDbSpline
 62
7
  6
CONTINUOUS
 70
0
 71
3
 72
9
 73
5
 74
0
 42
0.0000001
 43
0.0000001
 44
0.0000000001
 40
0.0
 40
0.0
 40
0.0
 40
0.0
 40
0.5003918111
 40
1.0
 40
1.0
 40
1.0
 40
1.0
 10
139.9165105606
 20
269.0195940626
 30
0.0
 10
139.8495540882
 20
269.6568496474
 30
0.0
 10
139.7484956594
 20
270.9336195956
 30
0.0
 10
139.6651549364
 20
272.2115281994
 30
0.0
 10
139.6359188693
 20
272.850619871
 30
0.0
  0
LINE
  5
782
100
AcDbEntity
  8
0
100
AcDbLine
 62
7
  6
CONTINUOUS
 10
139.6359188693
 20
272.850619871
 11
139.6325242603
 21
272.9262859422
  0
LINE
  5
783
100
AcDbEntity
  8
0
100
AcDbLine
 62
7
  6
CONTINUOUS
 10
139.6325242603
 20
272.9262859422
 11
139.6315056918
 21
272.9496064402
  0
SPLINE
  5
784
100
AcDbEntity
  8
0
100
AcDbSpline
 62
7
  6
CONTINUOUS
 70
0
 71
3
 72
8
 73
4
 74
0
 42
0.0000001
 43
0.0000001
 44
0.0000000001
 40
0.0
 40
0.0
 40
0.0
 40
0.0
 40
1.0
 40
1.0
 40
1.0
 40
1.0
 10
139.6315056918
 20
272.9496064402
 30
0.0
 10
139.6144055205
 20
273.3437074462
 30
0.0
 10
139.6028304236
 20
273.7382045034
 30
0.0
 10
139.6029079246
 20
274.1326763183
 30
0.0
  0
LINE
  5
785
100
AcDbEntity
  8
0
100
AcDbLine
 62
7
  6
CONTINUOUS
 10
141.0726527839
 20
251.4833582694
 11
141.0714833545
 21
251.5103700117
  0
LINE
  5
786
100
AcDbEntity
  8
0
100
AcDbLine
 62
7
  6
CONTINUOUS
 10
155.0761451494
 20
251.4833582694
 11
155.0773145788
 21
251.5103700117
  0
SPLINE
  5
787
100
AcDbEntity
  8
0
100
AcDbSpline
 62
7
  6
CONTINUOUS
 70
0
 71
3
 72
10
 73
6
 74
0
 42
0.0000001
 43
0.0000001
 44
0.0000000001
 40
0.0
 40
0.0
 40
0.0
 40
0.0
 40
0.4911382255
 40
0.7414035595
 40
1.0
 40
1.0
 40
1.0
 40
1.0
 10
139.6168936886
 20
274.5011534046
 30
0.0
 10
139.6470552237
 20
275.0680823664
 30
0.0
 10
139.7267441408
 20
275.9248503457
 30
0.0
 10
139.988844678
 20
277.0526375804
 30
0.0
 10
140.1927318696
 20
277.6068885943
 30
0.0
 10
140.3169431653
 20
277.8787843124
 30
0.0
  0
LINE
  5
788
100
AcDbEntity
  8
0
100
AcDbLine
 62
7
  6
CONTINUOUS
 10
140.3169431653
 20
277.8787843124
 11
140.3200062809
 21
277.8854784319
  0
SPLINE
  5
789
100
AcDbEntity
  8
0
100
AcDbSpline
 62
7
  6
CONTINUOUS
 70
0
 71
3
 72
9
 73
5
 74
0
 42
0.0000001
 43
0.0000001
 44
0.0000000001
 40
0.0
 40
0.0
 40
0.0
 40
0.0
 40
0.5003918111
 40
1.0
 40
1.0
 40
1.0
 40
1.0
 10
156.2322873727
 20
269.0195940626
 30
0.0
 10
156.2992438451
 20
269.6568496474
 30
0.0
 10
156.4003022739
 20
270.9336195956
 30
0.0
 10
156.4836429969
 20
272.2115281994
 30
0.0
 10
156.512879064
 20
272.850619871
 30
0.0
  0
LINE
  5
78A
100
AcDbEntity
  8
0
100
AcDbLine
 62
7
  6
CONTINUOUS
 10
156.512879064
 20
272.850619871
 11
156.516273673
 21
272.9262859422
  0
LINE
  5
78B
100
AcDbEntity
  8
0
100
AcDbLine
 62
7
  6
CONTINUOUS
 10
156.516273673
 20
272.9262859422
 11
156.5172922415
 21
272.9496064402
  0
SPLINE
  5
78C
100
AcDbEntity
  8
0
100
AcDbSpline
 62
7
  6
CONTINUOUS
 70
0
 71
3
 72
8
 73
4
 74
0
 42
0.0000001
 43
0.0000001
 44
0.0000000001
 40
0.0
 40
0.0
 40
0.0
 40
0.0
 40
1.0
 40
1.0
 40
1.0
 40
1.0
 10
156.5172922415
 20
272.9496064402
 30
0.0
 10
156.5343924128
 20
273.3437074462
 30
0.0
 10
156.5459675097
 20
273.7382045034
 30
0.0
 10
156.5458900087
 20
274.1326763183
 30
0.0
  0
SPLINE
  5
78D
100
AcDbEntity
  8
BEZUGSACHSEN
100
AcDbSpline
 62
7
  6
CONTINUOUS
 70
0
 71
3
 72
11
 73
7
 74
0
 42
0.0000001
 43
0.0000001
 44
0.0000000001
 40
0.0
 40
0.0
 40
0.0
 40
0.0
 40
0.2616355141
 40
0.5144890283
 40
0.7595899618
 40
1.0
 40
1.0
 40
1.0
 40
1.0
 10
100.5897892758
 20
197.2112504866
 30
0.0
 10
101.0051507405
 20
197.4510595401
 30
0.0
 10
101.8407825975
 20
197.8914679762
 30
0.0
 10
103.1364891804
 20
198.4102164858
 30
0.0
 10
104.4535649808
 20
198.7421214174
 30
0.0
 10
105.3452331509
 20
198.8189456413
 30
0.0
 10
105.7859416984
 20
198.8189456413
 30
0.0
  0
SPLINE
  5
78E
100
AcDbEntity
  8
BEZUGSACHSEN
100
AcDbSpline
 62
7
  6
CONTINUOUS
 70
0
 71
3
 72
11
 73
7
 74
0
 42
0.0000001
 43
0.0000001
 44
0.0000000001
 40
0.0
 40
0.0
 40
0.0
 40
0.0
 40
0.2404100669
 40
0.4855110144
 40
0.7383644905
 40
1.0
 40
1.0
 40
1.0
 40
1.0
 10
105.7859416984
 20
198.8189456413
 30
0.0
 10
106.2266502987
 20
198.8189456413
 30
0.0
 10
107.1183185472
 20
198.7421214005
 30
0.0
 10
108.4353943493
 20
198.4102164389
 30
0.0
 10
109.7311008727
 20
197.8914679283
 30
0.0
 10
110.5667326639
 20
197.4510595359
 30
0.0
 10
110.9820941212
 20
197.2112504866
 30
0.0
  0
SPLINE
  5
78F
100
AcDbEntity
  8
BEZUGSACHSEN
100
AcDbSpline
 62
7
  6
CONTINUOUS
 70
0
 71
3
 72
10
 73
6
 74
0
 42
0.0000001
 43
0.0000001
 44
0.0000000001
 40
0.0
 40
0.0
 40
0.0
 40
0.0
 40
0.4998915798
 40
0.7499458338
 40
1.0
 40
1.0
 40
1.0
 40
1.0
 10
110.9820941212
 20
197.2112504866
 30
0.0
 10
112.6705802529
 20
197.698674448
 30
0.0
 10
115.2447499893
 20
198.3080404117
 30
0.0
 10
118.7361754657
 20
198.7439332489
 30
0.0
 10
120.4953019134
 20
198.8189456411
 30
0.0
 10
121.3743989666
 20
198.8189456412
 30
0.0
  0
SPLINE
  5
790
100
AcDbEntity
  8
BEZUGSACHSEN
100
AcDbSpline
 62
7
  6
CONTINUOUS
 70
0
 71
3
 72
10
 73
6
 74
0
 42
0.0000001
 43
0.0000001
 44
0.0000000001
 40
0.0
 40
0.0
 40
0.0
 40
0.0
 40
0.2500541894
 40
0.5001084567
 40
1.0
 40
1.0
 40
1.0
 40
1.0
 10
121.3743989666
 20
198.8189456412
 30
0.0
 10
122.2534961016
 20
198.8189456411
 30
0.0
 10
124.0126226777
 20
198.7439332326
 30
0.0
 10
127.5040481499
 20
198.3080403619
 30
0.0
 10
130.0782178037
 20
197.6986744124
 30
0.0
 10
131.7667038121
 20
197.2112504866
 30
0.0
  0
SPLINE
  5
791
100
AcDbEntity
  8
BEZUGSACHSEN
100
AcDbSpline
 62
7
  6
CONTINUOUS
 70
0
 71
3
 72
11
 73
7
 74
0
 42
0.0000001
 43
0.0000001
 44
0.0000000001
 40
0.0
 40
0.0
 40
0.0
 40
0.0
 40
0.2616355141
 40
0.5144890283
 40
0.7595899618
 40
1.0
 40
1.0
 40
1.0
 40
1.0
 10
131.7667038121
 20
197.2112504866
 30
0.0
 10
132.1820652768
 20
197.4510595401
 30
0.0
 10
133.0176971338
 20
197.8914679762
 30
0.0
 10
134.3134037167
 20
198.4102164858
 30
0.0
 10
135.6304795171
 20
198.7421214175
 30
0.0
 10
136.5221476872
 20
198.8189456412
 30
0.0
 10
136.9628562347
 20
198.8189456413
 30
0.0
  0
SPLINE
  5
792
100
AcDbEntity
  8
BEZUGSACHSEN
100
AcDbSpline
 62
7
  6
CONTINUOUS
 70
0
 71
3
 72
11
 73
7
 74
0
 42
0.0000001
 43
0.0000001
 44
0.0000000001
 40
0.0
 40
0.0
 40
0.0
 40
0.0
 40
0.2406407285
 40
0.4858360648
 40
0.7385986136
 40
1.0
 40
1.0
 40
1.0
 40
1.0
 10
136.9628562347
 20
198.8189456413
 30
0.0
 10
137.3962018295
 20
198.8189456413
 30
0.0
 10
138.2726718637
 20
198.744731088
 30
0.0
 10
139.568057531
 20
198.4236242673
 30
0.0
 10
140.8430637216
 20
197.9207231106
 30
0.0
 10
141.6657742122
 20
197.4928371501
 30
0.0
 10
142.074683246
 20
197.2596389023
 30
0.0
  0
SPLINE
  5
793
100
AcDbEntity
  8
BEZUGSACHSEN
100
AcDbSpline
 62
7
  6
CONTINUOUS
 70
0
 71
3
 72
10
 73
6
 74
0
 42
0.0000001
 43
0.0000001
 44
0.0000000001
 40
0.0
 40
0.0
 40
0.0
 40
0.0
 40
0.5015949703
 40
0.7510710834
 40
1.0
 40
1.0
 40
1.0
 40
1.0
 10
276.553023125
 20
197.2112504866
 30
0.0
 10
278.0087934927
 20
197.6965072759
 30
0.0
 10
280.2344180956
 20
198.3062763811
 30
0.0
 10
283.2656568802
 20
198.7437317366
 30
0.0
 10
284.7914812368
 20
198.8189456413
 30
0.0
 10
285.5530231248
 20
198.8189456413
 30
0.0
  0
SPLINE
  5
794
100
AcDbEntity
  8
BEZUGSACHSEN
100
AcDbSpline
 62
7
  6
CONTINUOUS
 70
0
 71
3
 72
10
 73
6
 74
0
 42
0.0000001
 43
0.0000001
 44
0.0000000001
 40
0.0
 40
0.0
 40
0.0
 40
0.0
 40
0.2489289462
 40
0.4984050726
 40
1.0
 40
1.0
 40
1.0
 40
1.0
 10
285.5530231248
 20
198.8189456413
 30
0.0
 10
286.3145651035
 20
198.8189456413
 30
0.0
 10
287.8403895917
 20
198.7437317209
 30
0.0
 10
290.8716283708
 20
198.3062763238
 30
0.0
 10
293.0972528815
 20
197.6965072345
 30
0.0
 10
294.553023125
 20
197.2112504866
 30
0.0
  0
SPLINE
  5
795
100
AcDbEntity
  8
BEZUGSACHSEN
100
AcDbSpline
 62
7
  6
CONTINUOUS
 70
0
 71
3
 72
10
 73
6
 74
0
 42
0.0000001
 43
0.0000001
 44
0.0000000001
 40
0.0
 40
0.0
 40
0.0
 40
0.0
 40
0.2489289463
 40
0.4984050726
 40
1.0
 40
1.0
 40
1.0
 40
1.0
 10
267.5530238341
 20
198.8189456744
 30
0.0
 10
268.3145657542
 20
198.8189456744
 30
0.0
 10
269.8403901199
 20
198.7437316349
 30
0.0
 10
272.8716286594
 20
198.3062762668
 30
0.0
 10
275.0972529936
 20
197.6965071971
 30
0.0
 10
276.553023125
 20
197.2112504866
 30
0.0
  0
SPLINE
  5
796
100
AcDbEntity
  8
BEZUGSACHSEN
100
AcDbSpline
 62
7
  6
CONTINUOUS
 70
0
 71
3
 72
10
 73
6
 74
0
 42
0.0000001
 43
0.0000001
 44
0.0000000001
 40
0.0
 40
0.0
 40
0.0
 40
0.0
 40
0.5015949703
 40
0.7510710833
 40
1.0
 40
1.0
 40
1.0
 40
1.0
 10
258.553023125
 20
197.2112504866
 30
0.0
 10
260.0087936051
 20
197.6965073134
 30
0.0
 10
262.2344183836
 20
198.3062764601
 30
0.0
 10
265.2656574121
 20
198.7437317892
 30
0.0
 10
266.7914818869
 20
198.8189456745
 30
0.0
 10
267.5530238341
 20
198.8189456744
 30
0.0
  0
SPLINE
  5
797
100
AcDbEntity
  8
0
100
AcDbSpline
 62
7
  6
CONTINUOUS
 70
0
 71
3
 72
11
 73
7
 74
0
 42
0.0000001
 43
0.0000001
 44
0.0000000001
 40
0.0
 40
0.0
 40
0.0
 40
0.0
 40
0.2501885089
 40
0.5002071843
 40
0.7501305632
 40
1.0
 40
1.0
 40
1.0
 40
1.0
 10
245.8543355979
 20
268.091749316
 30
0.0
 10
244.8396959615
 20
267.1497097443
 30
0.0
 10
242.9905693153
 20
265.0617138352
 30
0.0
 10
240.8863966992
 20
261.4531676354
 30
0.0
 10
239.5301283314
 20
257.5040086747
 30
0.0
 10
239.1613228925
 20
254.7413166602
 30
0.0
 10
239.1147348167
 20
253.3593342488
 30
0.0
  0
SPLINE
  5
798
100
AcDbEntity
  8
0
100
AcDbSpline
 62
7
  6
CONTINUOUS
 70
0
 71
3
 72
10
 73
6
 74
0
 42
0.0000001
 43
0.0000001
 44
0.0000000001
 40
0.0
 40
0.0
 40
0.0
 40
0.0
 40
0.2501250949
 40
0.500243852
 40
1.0
 40
1.0
 40
1.0
 40
1.0
 10
250.6270827695
 20
271.9950888737
 30
0.0
 10
250.1809513903
 20
271.7358709524
 30
0.0
 10
249.3072974556
 20
271.1841498198
 30
0.0
 10
247.6561431467
 20
269.9452865987
 30
0.0
 10
246.5346293515
 20
268.8663502556
 30
0.0
 10
245.8543355979
 20
268.091749316
 30
0.0
  0
SPLINE
  5
799
100
AcDbEntity
  8
0
100
AcDbSpline
 62
7
  6
CONTINUOUS
 70
0
 71
3
 72
11
 73
7
 74
0
 42
0.0000001
 43
0.0000001
 44
0.0000000001
 40
0.0
 40
0.0
 40
0.0
 40
0.0
 40
0.2501885089
 40
0.5002071843
 40
0.7501305632
 40
1.0
 40
1.0
 40
1.0
 40
1.0
 10
307.2517106521
 20
268.091749316
 30
0.0
 10
308.2663502885
 20
267.1497097443
 30
0.0
 10
310.1154769347
 20
265.0617138352
 30
0.0
 10
312.2196495508
 20
261.4531676354
 30
0.0
 10
313.5759179186
 20
257.5040086747
 30
0.0
 10
313.9447233574
 20
254.7413166602
 30
0.0
 10
313.9913114333
 20
253.3593342488
 30
0.0
  0
SPLINE
  5
79A
100
AcDbEntity
  8
0
100
AcDbSpline
 62
7
  6
CONTINUOUS
 70
0
 71
3
 72
10
 73
6
 74
0
 42
0.0000001
 43
0.0000001
 44
0.0000000001
 40
0.0
 40
0.0
 40
0.0
 40
0.0
 40
0.2501250949
 40
0.500243852
 40
1.0
 40
1.0
 40
1.0
 40
1.0
 10
302.4789634805
 20
271.9950888737
 30
0.0
 10
302.9250948596
 20
271.7358709524
 30
0.0
 10
303.7987487944
 20
271.1841498198
 30
0.0
 10
305.4499031033
 20
269.9452865987
 30
0.0
 10
306.5714168985
 20
268.8663502556
 30
0.0
 10
307.2517106521
 20
268.091749316
 30
0.0
  0
SPLINE
  5
79B
100
AcDbEntity
  8
0
100
AcDbSpline
 62
7
  6
CONTINUOUS
 70
0
 71
3
 72
9
 73
5
 74
0
 42
0.0000001
 43
0.0000001
 44
0.0000000001
 40
0.0
 40
0.0
 40
0.0
 40
0.0
 40
0.2509382767
 40
1.0
 40
1.0
 40
1.0
 40
1.0
 10
140.1144416873
 20
21.2106828802
 30
0.0
 10
140.1063659369
 20
21.2621017224
 30
0.0
 10
140.0762614711
 20
21.4673164726
 30
0.0
 10
140.0555248015
 20
21.6740049019
 30
0.0
 10
140.0471982952
 20
21.8291506433
 30
0.0
  0
SPLINE
  5
79C
100
AcDbEntity
  8
0
100
AcDbSpline
 62
7
  6
CONTINUOUS
 70
0
 71
3
 72
9
 73
5
 74
0
 42
0.0000001
 43
0.0000001
 44
0.0000000001
 40
0.0
 40
0.0
 40
0.0
 40
0.0
 40
0.2736972145
 40
1.0
 40
1.0
 40
1.0
 40
1.0
 10
140.8243989666
 20
18.6502533126
 30
0.0
 10
140.8426944675
 20
18.3684518444
 30
0.0
 10
140.9132501501
 20
17.3391013512
 30
0.0
 10
140.9985905083
 20
16.3106504615
 30
0.0
 10
141.0749533775
 20
15.5651681518
 30
0.0
  0
LINE
  5
79D
100
AcDbEntity
  8
0
100
AcDbLine
 62
7
  6
CONTINUOUS
 10
141.0749533775
 20
15.5651681518
 11
141.0817802933
 21
15.4989201398
  0
SPLINE
  5
79E
100
AcDbEntity
  8
0
100
AcDbSpline
 62
7
  6
CONTINUOUS
 70
0
 71
3
 72
13
 73
9
 74
0
 42
0.0000001
 43
0.0000001
 44
0.0000000001
 40
0.0
 40
0.0
 40
0.0
 40
0.0
 40
0.3601219874
 40
0.6486053562
 40
0.7649156627
 40
0.8622321852
 40
0.9404986417
 40
1.0
 40
1.0
 40
1.0
 40
1.0
 10
141.0817802933
 20
15.4989201398
 30
0.0
 10
141.1251475873
 20
15.0806105843
 30
0.0
 10
141.2118567969
 20
14.3280779637
 30
0.0
 10
141.3451488846
 20
13.4443781746
 30
0.0
 10
141.4602580335
 20
12.8693258848
 30
0.0
 10
141.5413579838
 20
12.5380325799
 30
0.0
 10
141.6230463717
 20
12.275837897
 30
0.0
 10
141.685668923
 20
12.1268954859
 30
0.0
 10
141.7191707926
 20
12.0660192965
 30
0.0
  0
LINE
  5
79F
100
AcDbEntity
  8
0
100
AcDbLine
 62
7
  6
CONTINUOUS
 10
141.0508329008
 20
15.1704004941
 11
141.042767036
 21
15.2461634716
  0
LINE
  5
7A0
100
AcDbEntity
  8
0
100
AcDbLine
 62
7
  6
CONTINUOUS
 10
141.042767036
 20
15.2461634716
 11
141.0400644439
 21
15.2711012952
  0
SPLINE
  5
7A1
100
AcDbEntity
  8
0
100
AcDbSpline
 62
7
  6
CONTINUOUS
 70
0
 71
3
 72
11
 73
7
 74
0
 42
0.0000001
 43
0.0000001
 44
0.0000000001
 40
0.0
 40
0.0
 40
0.0
 40
0.0
 40
0.2489142799
 40
0.4981810158
 40
0.7490369112
 40
1.0
 40
1.0
 40
1.0
 40
1.0
 10
141.002566026
 20
15.5601484885
 30
0.0
 10
140.952436945
 20
15.9033688396
 30
0.0
 10
140.8810509795
 20
16.5940605595
 30
0.0
 10
140.7472642081
 20
17.6296726225
 30
0.0
 10
140.5486728579
 20
18.657570804
 30
0.0
 10
140.4078113836
 20
19.3427793373
 30
0.0
 10
140.353550643
 20
19.6882610992
 30
0.0
  0
SPLINE
  5
7A2
100
AcDbEntity
  8
0
100
AcDbSpline
 62
7
  6
CONTINUOUS
 70
0
 71
3
 72
9
 73
5
 74
0
 42
0.0000001
 43
0.0000001
 44
0.0000000001
 40
0.0
 40
0.0
 40
0.0
 40
0.0
 40
0.2509382769
 40
1.0
 40
1.0
 40
1.0
 40
1.0
 10
156.034356246
 20
21.2106828802
 30
0.0
 10
156.042431998
 20
21.2621017328
 30
0.0
 10
156.0725364695
 20
21.4673165243
 30
0.0
 10
156.0932731407
 20
21.6740049956
 30
0.0
 10
156.1015996448
 20
21.8291507684
 30
0.0
  0
SPLINE
  5
7A3
100
AcDbEntity
  8
0
100
AcDbSpline
 62
7
  6
CONTINUOUS
 70
0
 71
3
 72
9
 73
5
 74
0
 42
0.0000001
 43
0.0000001
 44
0.0000000001
 40
0.0
 40
0.0
 40
0.0
 40
0.0
 40
0.2736972145
 40
1.0
 40
1.0
 40
1.0
 40
1.0
 10
155.3243989666
 20
18.6502533126
 30
0.0
 10
155.3061034658
 20
18.3684518444
 30
0.0
 10
155.2355477832
 20
17.3391013512
 30
0.0
 10
155.150207425
 20
16.3106504615
 30
0.0
 10
155.0738445558
 20
15.5651681518
 30
0.0
  0
LINE
  5
7A4
100
AcDbEntity
  8
0
100
AcDbLine
 62
7
  6
CONTINUOUS
 10
155.0738445558
 20
15.5651681518
 11
155.06701764
 21
15.4989201398
  0
SPLINE
  5
7A5
100
AcDbEntity
  8
0
100
AcDbSpline
 62
7
  6
CONTINUOUS
 70
0
 71
3
 72
13
 73
9
 74
0
 42
0.0000001
 43
0.0000001
 44
0.0000000001
 40
0.0
 40
0.0
 40
0.0
 40
0.0
 40
0.3601220045
 40
0.6486053792
 40
0.7649156842
 40
0.8622322022
 40
0.9404986515
 40
1.0
 40
1.0
 40
1.0
 40
1.0
 10
155.06701764
 20
15.4989201398
 30
0.0
 10
155.0236503423
 20
15.0806105484
 30
0.0
 10
154.9369411256
 20
14.3280778724
 30
0.0
 10
154.8036490245
 20
13.4443780251
 30
0.0
 10
154.6885398628
 20
12.8693257149
 30
0.0
 10
154.6074399046
 20
12.5380324142
 30
0.0
 10
154.5257515091
 20
12.275837749
 30
0.0
 10
154.4631289503
 20
12.1268953553
 30
0.0
 10
154.4296270758
 20
12.0660191786
 30
0.0
  0
LINE
  5
7A6
100
AcDbEntity
  8
0
100
AcDbLine
 62
7
  6
CONTINUOUS
 10
155.0979650325
 20
15.1704004941
 11
155.1060308973
 21
15.2461634716
  0
LINE
  5
7A7
100
AcDbEntity
  8
0
100
AcDbLine
 62
7
  6
CONTINUOUS
 10
155.1060308973
 20
15.2461634716
 11
155.1087334894
 21
15.2711012952
  0
SPLINE
  5
7A8
100
AcDbEntity
  8
0
100
AcDbSpline
 62
7
  6
CONTINUOUS
 70
0
 71
3
 72
11
 73
7
 74
0
 42
0.0000001
 43
0.0000001
 44
0.0000000001
 40
0.0
 40
0.0
 40
0.0
 40
0.0
 40
0.2489142799
 40
0.4981810158
 40
0.7490369112
 40
1.0
 40
1.0
 40
1.0
 40
1.0
 10
155.1462319073
 20
15.5601484885
 30
0.0
 10
155.1963609883
 20
15.9033688396
 30
0.0
 10
155.2677469538
 20
16.5940605595
 30
0.0
 10
155.4015337252
 20
17.6296726225
 30
0.0
 10
155.6001250754
 20
18.657570804
 30
0.0
 10
155.7409865497
 20
19.3427793373
 30
0.0
 10
155.7952472903
 20
19.6882610992
 30
0.0
  0
SPLINE
  5
7A9
100
AcDbEntity
  8
0
100
AcDbSpline
 62
7
  6
CONTINUOUS
 70
0
 71
3
 72
9
 73
5
 74
0
 42
0.0000001
 43
0.0000001
 44
0.0000000001
 40
0.0
 40
0.0
 40
0.0
 40
0.0
 40
0.2509382769
 40
1.0
 40
1.0
 40
1.0
 40
1.0
 10
140.1144416873
 20
77.4871987992
 30
0.0
 10
140.1063659353
 20
77.4357799466
 30
0.0
 10
140.0762614638
 20
77.2305651551
 30
0.0
 10
140.0555247926
 20
77.0238766838
 30
0.0
 10
140.0471982885
 20
76.868730911
 30
0.0
  0
SPLINE
  5
7AA
100
AcDbEntity
  8
0
100
AcDbSpline
 62
7
  6
CONTINUOUS
 70
0
 71
3
 72
9
 73
5
 74
0
 42
0.0000001
 43
0.0000001
 44
0.0000000001
 40
0.0
 40
0.0
 40
0.0
 40
0.0
 40
0.2736972145
 40
1.0
 40
1.0
 40
1.0
 40
1.0
 10
140.8243989666
 20
80.0476283668
 30
0.0
 10
140.8426944675
 20
80.329429835
 30
0.0
 10
140.9132501501
 20
81.3587803282
 30
0.0
 10
140.9985905083
 20
82.3872312179
 30
0.0
 10
141.0749533775
 20
83.1327135276
 30
0.0
  0
LINE
  5
7AB
100
AcDbEntity
  8
0
100
AcDbLine
 62
7
  6
CONTINUOUS
 10
141.0749533775
 20
83.1327135276
 11
141.0817802933
 21
83.1989615396
  0
SPLINE
  5
7AC
100
AcDbEntity
  8
0
100
AcDbSpline
 62
7
  6
CONTINUOUS
 70
0
 71
3
 72
13
 73
9
 74
0
 42
0.0000001
 43
0.0000001
 44
0.0000000001
 40
0.0
 40
0.0
 40
0.0
 40
0.0
 40
0.3601220045
 40
0.6486053792
 40
0.7649156842
 40
0.8622322022
 40
0.9404986515
 40
1.0
 40
1.0
 40
1.0
 40
1.0
 10
141.0817802933
 20
83.1989615396
 30
0.0
 10
141.125147591
 20
83.617271131
 30
0.0
 10
141.2118568077
 20
84.369803807
 30
0.0
 10
141.3451489088
 20
85.2535036543
 30
0.0
 10
141.4602580705
 20
85.8285559645
 30
0.0
 10
141.5413580287
 20
86.1598492652
 30
0.0
 10
141.6230464241
 20
86.4220439304
 30
0.0
 10
141.685668983
 20
86.5709863241
 30
0.0
 10
141.7191708575
 20
86.6318625008
 30
0.0
  0
LINE
  5
7AD
100
AcDbEntity
  8
0
100
AcDbLine
 62
7
  6
CONTINUOUS
 10
141.0508329008
 20
83.5274811853
 11
141.042767036
 21
83.4517182078
  0
LINE
  5
7AE
100
AcDbEntity
  8
0
100
AcDbLine
 62
7
  6
CONTINUOUS
 10
141.042767036
 20
83.4517182078
 11
141.0400644439
 21
83.4267803842
  0
SPLINE
  5
7AF
100
AcDbEntity
  8
0
100
AcDbSpline
 62
7
  6
CONTINUOUS
 70
0
 71
3
 72
11
 73
7
 74
0
 42
0.0000001
 43
0.0000001
 44
0.0000000001
 40
0.0
 40
0.0
 40
0.0
 40
0.0
 40
0.2489142799
 40
0.4981810158
 40
0.7490369112
 40
1.0
 40
1.0
 40
1.0
 40
1.0
 10
141.002566026
 20
83.1377331909
 30
0.0
 10
140.952436945
 20
82.7945128398
 30
0.0
 10
140.8810509795
 20
82.1038211199
 30
0.0
 10
140.7472642081
 20
81.0682090569
 30
0.0
 10
140.5486728579
 20
80.0403108754
 30
0.0
 10
140.4078113836
 20
79.3551023421
 30
0.0
 10
140.353550643
 20
79.0096205802
 30
0.0
  0
SPLINE
  5
7B0
100
AcDbEntity
  8
0
100
AcDbSpline
 62
7
  6
CONTINUOUS
 70
0
 71
3
 72
11
 73
7
 74
0
 42
0.0000001
 43
0.0000001
 44
0.0000000001
 40
0.0
 40
0.0
 40
0.0
 40
0.0
 40
0.2489142799
 40
0.4981810158
 40
0.7490369112
 40
1.0
 40
1.0
 40
1.0
 40
1.0
 10
155.1462319073
 20
83.1377331909
 30
0.0
 10
155.1963609883
 20
82.7945128398
 30
0.0
 10
155.2677469538
 20
82.1038211199
 30
0.0
 10
155.4015337252
 20
81.0682090569
 30
0.0
 10
155.6001250754
 20
80.0403108754
 30
0.0
 10
155.7409865497
 20
79.3551023421
 30
0.0
 10
155.7952472903
 20
79.0096205802
 30
0.0
  0
LINE
  5
7B1
100
AcDbEntity
  8
0
100
AcDbLine
 62
7
  6
CONTINUOUS
 10
155.0979650325
 20
83.5274811853
 11
155.1060308973
 21
83.4517182078
  0
LINE
  5
7B2
100
AcDbEntity
  8
0
100
AcDbLine
 62
7
  6
CONTINUOUS
 10
155.1060308973
 20
83.4517182078
 11
155.1087334894
 21
83.4267803842
  0
SPLINE
  5
7B3
100
AcDbEntity
  8
0
100
AcDbSpline
 62
7
  6
CONTINUOUS
 70
0
 71
3
 72
9
 73
5
 74
0
 42
0.0000001
 43
0.0000001
 44
0.0000000001
 40
0.0
 40
0.0
 40
0.0
 40
0.0
 40
0.2509382767
 40
1.0
 40
1.0
 40
1.0
 40
1.0
 10
156.034356246
 20
77.4871987992
 30
0.0
 10
156.0424319964
 20
77.435779957
 30
0.0
 10
156.0725364622
 20
77.2305652068
 30
0.0
 10
156.0932731318
 20
77.0238767775
 30
0.0
 10
156.1015996381
 20
76.8687310361
 30
0.0
  0
SPLINE
  5
7B4
100
AcDbEntity
  8
0
100
AcDbSpline
 62
7
  6
CONTINUOUS
 70
0
 71
3
 72
9
 73
5
 74
0
 42
0.0000001
 43
0.0000001
 44
0.0000000001
 40
0.0
 40
0.0
 40
0.0
 40
0.0
 40
0.2736972145
 40
1.0
 40
1.0
 40
1.0
 40
1.0
 10
155.3243989666
 20
80.0476283668
 30
0.0
 10
155.3061034658
 20
80.329429835
 30
0.0
 10
155.2355477832
 20
81.3587803282
 30
0.0
 10
155.150207425
 20
82.3872312179
 30
0.0
 10
155.0738445558
 20
83.1327135276
 30
0.0
  0
LINE
  5
7B5
100
AcDbEntity
  8
0
100
AcDbLine
 62
7
  6
CONTINUOUS
 10
155.0738445558
 20
83.1327135276
 11
155.06701764
 21
83.1989615396
  0
SPLINE
  5
7B6
100
AcDbEntity
  8
0
100
AcDbSpline
 62
7
  6
CONTINUOUS
 70
0
 71
3
 72
13
 73
9
 74
0
 42
0.0000001
 43
0.0000001
 44
0.0000000001
 40
0.0
 40
0.0
 40
0.0
 40
0.0
 40
0.3601219874
 40
0.6486053562
 40
0.7649156627
 40
0.8622321852
 40
0.9404986417
 40
1.0
 40
1.0
 40
1.0
 40
1.0
 10
155.06701764
 20
83.1989615396
 30
0.0
 10
155.023650346
 20
83.6172710951
 30
0.0
 10
154.9369411364
 20
84.3698037156
 30
0.0
 10
154.8036490487
 20
85.2535035047
 30
0.0
 10
154.6885398998
 20
85.8285557946
 30
0.0
 10
154.6074399495
 20
86.1598490995
 30
0.0
 10
154.5257515616
 20
86.4220437824
 30
0.0
 10
154.4631290103
 20
86.5709861935
 30
0.0
 10
154.4296271407
 20
86.6318623828
 30
0.0
  0
SPLINE
  5
7B7
100
AcDbEntity
  8
0
100
AcDbSpline
 62
7
  6
CONTINUOUS
 70
0
 71
3
 72
8
 73
4
 74
0
 42
0.0000001
 43
0.0000001
 44
0.0000000001
 40
0.0
 40
0.0
 40
0.0
 40
0.0
 40
1.0
 40
1.0
 40
1.0
 40
1.0
 10
140.0488408151
 20
76.3489408397
 30
0.0
 10
139.989086497
 20
75.5001533138
 30
0.0
 10
139.9490255214
 20
74.6499751431
 30
0.0
 10
139.9165105606
 20
73.7997083497
 30
0.0
  0
LINE
  5
7B8
100
AcDbEntity
  8
0
100
AcDbLine
 62
7
  6
CONTINUOUS
 10
156.5428570324
 20
39.3304667549
 11
156.54079506
 21
39.4596449231
  0
SPLINE
  5
7B9
100
AcDbEntity
  8
0
100
AcDbSpline
 62
7
  6
CONTINUOUS
 70
0
 71
3
 72
10
 73
6
 74
0
 42
0.0000001
 43
0.0000001
 44
0.0000000001
 40
0.0
 40
0.0
 40
0.0
 40
0.0
 40
0.4998329316
 40
0.7498405678
 40
1.0
 40
1.0
 40
1.0
 40
1.0
 10
156.54079506
 20
39.4596449231
 30
0.0
 10
156.5137987255
 20
41.1129272494
 30
0.0
 10
156.4403730424
 20
43.5938053999
 30
0.0
 10
156.1703220269
 20
46.8916672132
 30
0.0
 10
155.9516776058
 20
48.5330324816
 30
0.0
 10
155.813326498
 20
49.3489408397
 30
0.0
  0
SPLINE
  5
7BA
100
AcDbEntity
  8
0
100
AcDbSpline
 62
7
  6
CONTINUOUS
 70
0
 71
3
 72
8
 73
4
 74
0
 42
0.0000001
 43
0.0000001
 44
0.0000000001
 40
0.0
 40
0.0
 40
0.0
 40
0.0
 40
1.0
 40
1.0
 40
1.0
 40
1.0
 10
156.4783203376
 20
33.6106345256
 30
0.0
 10
156.5158979681
 20
35.3889190947
 30
0.0
 10
156.5460171993
 20
37.167569817
 30
0.0
 10
156.5458900087
 20
38.946251371
 30
0.0
  0
SPLINE
  5
7BB
100
AcDbEntity
  8
0
100
AcDbSpline
 62
7
  6
CONTINUOUS
 70
0
 71
3
 72
8
 73
4
 74
0
 42
0.0000001
 43
0.0000001
 44
0.0000000001
 40
0.0
 40
0.0
 40
0.0
 40
0.0
 40
1.0
 40
1.0
 40
1.0
 40
1.0
 10
139.6704775957
 20
65.0872471538
 30
0.0
 10
139.6328999652
 20
63.3089625847
 30
0.0
 10
139.602780734
 20
61.5303118624
 30
0.0
 10
139.6029079246
 20
59.7516303084
 30
0.0
  0
SPLINE
  5
7BC
100
AcDbEntity
  8
0
100
AcDbSpline
 62
7
  6
CONTINUOUS
 70
0
 71
3
 72
8
 73
4
 74
0
 42
0.0000001
 43
0.0000001
 44
0.0000000001
 40
0.0
 40
0.0
 40
0.0
 40
0.0
 40
1.0
 40
1.0
 40
1.0
 40
1.0
 10
156.1015996448
 20
21.8291507684
 30
0.0
 10
156.1108851831
 20
22.0021659974
 30
0.0
 10
156.1111818837
 20
22.176040593
 30
0.0
 10
156.0999571182
 20
22.3489408397
 30
0.0
  0
LINE
  5
7BD
100
AcDbEntity
  8
0
100
AcDbLine
 62
7
  6
CONTINUOUS
 10
139.6059409009
 20
59.3674149244
 11
139.6080028733
 21
59.2382367563
  0
SPLINE
  5
7BE
100
AcDbEntity
  8
0
100
AcDbSpline
 62
7
  6
CONTINUOUS
 70
0
 71
3
 72
10
 73
6
 74
0
 42
0.0000001
 43
0.0000001
 44
0.0000000001
 40
0.0
 40
0.0
 40
0.0
 40
0.0
 40
0.4998329316
 40
0.7498405678
 40
1.0
 40
1.0
 40
1.0
 40
1.0
 10
139.6080028733
 20
59.2382367563
 30
0.0
 10
139.6349992078
 20
57.58495443
 30
0.0
 10
139.7084248909
 20
55.1040762795
 30
0.0
 10
139.9784759064
 20
51.8062144662
 30
0.0
 10
140.1971203275
 20
50.1648491978
 30
0.0
 10
140.3354714353
 20
49.3489408397
 30
0.0
  0
LINE
  5
7BF
100
AcDbEntity
  8
0
100
AcDbLine
 62
7
  6
CONTINUOUS
 10
139.6059409009
 20
39.3304667549
 11
139.6080028733
 21
39.4596449231
  0
SPLINE
  5
7C0
100
AcDbEntity
  8
0
100
AcDbSpline
 62
7
  6
CONTINUOUS
 70
0
 71
3
 72
10
 73
6
 74
0
 42
0.0000001
 43
0.0000001
 44
0.0000000001
 40
0.0
 40
0.0
 40
0.0
 40
0.0
 40
0.4998329316
 40
0.7498405678
 40
1.0
 40
1.0
 40
1.0
 40
1.0
 10
139.6080028733
 20
39.4596449231
 30
0.0
 10
139.6349992078
 20
41.1129272494
 30
0.0
 10
139.7084248909
 20
43.5938053999
 30
0.0
 10
139.9784759064
 20
46.8916672132
 30
0.0
 10
140.1971203275
 20
48.5330324816
 30
0.0
 10
140.3354714353
 20
49.3489408397
 30
0.0
  0
SPLINE
  5
7C1
100
AcDbEntity
  8
0
100
AcDbSpline
 62
7
  6
CONTINUOUS
 70
0
 71
3
 72
8
 73
4
 74
0
 42
0.0000001
 43
0.0000001
 44
0.0000000001
 40
0.0
 40
0.0
 40
0.0
 40
0.0
 40
1.0
 40
1.0
 40
1.0
 40
1.0
 10
139.6704775957
 20
33.6106345256
 30
0.0
 10
139.6328999652
 20
35.3889190947
 30
0.0
 10
139.602780734
 20
37.167569817
 30
0.0
 10
139.6029079246
 20
38.946251371
 30
0.0
  0
SPLINE
  5
7C2
100
AcDbEntity
  8
0
100
AcDbSpline
 62
7
  6
CONTINUOUS
 70
0
 71
3
 72
8
 73
4
 74
0
 42
0.0000001
 43
0.0000001
 44
0.0000000001
 40
0.0
 40
0.0
 40
0.0
 40
0.0
 40
1.0
 40
1.0
 40
1.0
 40
1.0
 10
140.0471982952
 20
21.8291506433
 30
0.0
 10
140.0379127504
 20
22.0021659137
 30
0.0
 10
140.0376160469
 20
22.1760405514
 30
0.0
 10
140.0488408151
 20
22.3489408397
 30
0.0
  0
SPLINE
  5
7C3
100
AcDbEntity
  8
0
100
AcDbSpline
 62
7
  6
CONTINUOUS
 70
0
 71
3
 72
8
 73
4
 74
0
 42
0.0000001
 43
0.0000001
 44
0.0000000001
 40
0.0
 40
0.0
 40
0.0
 40
0.0
 40
1.0
 40
1.0
 40
1.0
 40
1.0
 10
140.0471982885
 20
76.868730911
 30
0.0
 10
140.0379127502
 20
76.695715682
 30
0.0
 10
140.0376160496
 20
76.5218410864
 30
0.0
 10
140.0488408151
 20
76.3489408397
 30
0.0
  0
SPLINE
  5
7C4
100
AcDbEntity
  8
0
100
AcDbSpline
 62
7
  6
CONTINUOUS
 70
0
 71
3
 72
8
 73
4
 74
0
 42
0.0000001
 43
0.0000001
 44
0.0000000001
 40
0.0
 40
0.0
 40
0.0
 40
0.0
 40
1.0
 40
1.0
 40
1.0
 40
1.0
 10
156.4783203376
 20
65.0872471538
 30
0.0
 10
156.5158979681
 20
63.3089625847
 30
0.0
 10
156.5460171993
 20
61.5303118624
 30
0.0
 10
156.5458900087
 20
59.7516303084
 30
0.0
  0
SPLINE
  5
7C5
100
AcDbEntity
  8
0
100
AcDbSpline
 62
7
  6
CONTINUOUS
 70
0
 71
3
 72
8
 73
4
 74
0
 42
0.0000001
 43
0.0000001
 44
0.0000000001
 40
0.0
 40
0.0
 40
0.0
 40
0.0
 40
1.0
 40
1.0
 40
1.0
 40
1.0
 10
156.1015996381
 20
76.8687310361
 30
0.0
 10
156.1108851829
 20
76.6957157657
 30
0.0
 10
156.1111818864
 20
76.521841128
 30
0.0
 10
156.0999571182
 20
76.3489408397
 30
0.0
  0
SPLINE
  5
7C6
100
AcDbEntity
  8
0
100
AcDbSpline
 62
7
  6
CONTINUOUS
 70
0
 71
3
 72
8
 73
4
 74
0
 42
0.0000001
 43
0.0000001
 44
0.0000000001
 40
0.0
 40
0.0
 40
0.0
 40
0.0
 40
1.0
 40
1.0
 40
1.0
 40
1.0
 10
156.0999571182
 20
76.3489408397
 30
0.0
 10
156.1597114363
 20
75.5001533138
 30
0.0
 10
156.1997724119
 20
74.6499751431
 30
0.0
 10
156.2322873727
 20
73.7997083497
 30
0.0
  0
LINE
  5
7C7
100
AcDbEntity
  8
0
100
AcDbLine
 62
7
  6
CONTINUOUS
 10
156.5428570324
 20
59.3674149244
 11
156.54079506
 21
59.2382367563
  0
SPLINE
  5
7C8
100
AcDbEntity
  8
0
100
AcDbSpline
 62
7
  6
CONTINUOUS
 70
0
 71
3
 72
10
 73
6
 74
0
 42
0.0000001
 43
0.0000001
 44
0.0000000001
 40
0.0
 40
0.0
 40
0.0
 40
0.0
 40
0.4998329316
 40
0.7498405678
 40
1.0
 40
1.0
 40
1.0
 40
1.0
 10
156.54079506
 20
59.2382367563
 30
0.0
 10
156.5137987255
 20
57.58495443
 30
0.0
 10
156.4403730424
 20
55.1040762795
 30
0.0
 10
156.1703220269
 20
51.8062144662
 30
0.0
 10
155.9516776058
 20
50.1648491978
 30
0.0
 10
155.813326498
 20
49.3489408397
 30
0.0
  0
ELLIPSE
  5
7C9
100
AcDbEntity
  8
0
100
AcDbEllipse
 62
7
  6
CONTINUOUS
 10
147.9743989666
 20
239.6227187483
 30
0.0
 11
-0.0
 21
9.1566092692
 31
0.0
 40
0.7535540501
 41
1.5707963268
 42
2.0839542169
  0
ELLIPSE
  5
7CA
100
AcDbEntity
  8
0
100
AcDbEllipse
 62
7
  6
CONTINUOUS
 10
148.1743989666
 20
239.6227187483
 30
0.0
 11
0.0
 21
9.1566092692
 31
0.0
 40
0.7535540501
 41
-2.0839542169
 42
-1.5707963268
  0
ELLIPSE
  5
7CB
100
AcDbEntity
  8
0
100
AcDbEllipse
 62
7
  6
CONTINUOUS
 10
119.5743989666
 20
167.0321358163
 30
0.0
 11
25.5
 21
0.0
 31
0.0
 40
0.255319362
 41
2.8773518977
 42
2.8976106248
  0
ELLIPSE
  5
7CC
100
AcDbEntity
  8
0
100
AcDbEllipse
 62
7
  6
CONTINUOUS
 10
119.5743989666
 20
164.1980938376
 30
0.0
 11
25.5
 21
0.0
 31
0.0
 40
0.6808512211
 41
2.862085113
 42
2.8773518977
  0
ELLIPSE
  5
7CD
100
AcDbEntity
  8
0
100
AcDbEllipse
 62
7
  6
CONTINUOUS
 10
119.5743989666
 20
158.2108831474
 30
0.0
 11
-0.0
 21
39.0637506223
 31
0.0
 40
0.6527791007
 41
1.2810738549
 42
1.2912887862
  0
ELLIPSE
  5
7CE
100
AcDbEntity
  8
0
100
AcDbEllipse
 62
7
  6
CONTINUOUS
 10
119.5743989666
 20
139.6107505529
 30
0.0
 11
0.0
 21
104.1705977272
 31
0.0
 40
0.244790762
 41
1.2759548025
 42
1.2810738549
  0
ELLIPSE
  5
7CF
100
AcDbEntity
  8
0
100
AcDbEllipse
 62
7
  6
CONTINUOUS
 10
119.5743989666
 20
202.0671405507
 30
0.0
 11
-0.0
 21
104.1705977272
 31
0.0
 40
0.244790762
 41
-4.4226665085
 42
-4.4175474561
  0
ELLIPSE
  5
7D0
100
AcDbEntity
  8
0
100
AcDbEllipse
 62
7
  6
CONTINUOUS
 10
119.5743989666
 20
183.4670183775
 30
0.0
 11
-0.0
 21
39.0637871002
 31
0.0
 40
0.6527784911
 41
-4.4328814398
 42
-4.4226665085
  0
ELLIPSE
  5
7D1
100
AcDbEntity
  8
0
100
AcDbEllipse
 62
7
  6
CONTINUOUS
 10
119.5743989666
 20
177.4797959464
 30
0.0
 11
25.5
 21
0.0
 31
0.0
 40
0.6808509827
 41
-2.8773518977
 42
-2.862085113
  0
ELLIPSE
  5
7D2
100
AcDbEntity
  8
0
100
AcDbEllipse
 62
7
  6
CONTINUOUS
 10
119.5743989666
 20
174.6457555556
 30
0.0
 11
25.5
 21
-0.0
 31
0.0
 40
0.255319362
 41
-2.8976106248
 42
-2.8773518977
  0
ELLIPSE
  5
7D3
100
AcDbEntity
  8
0
100
AcDbEllipse
 62
7
  6
CONTINUOUS
 10
119.5743989666
 20
168.2832006771
 30
0.0
 11
25.5
 21
-0.0
 31
0.0
 40
0.6808512211
 41
3.1009932565
 42
3.1157074007
  0
ELLIPSE
  5
7D4
100
AcDbEntity
  8
0
100
AcDbEllipse
 62
7
  6
CONTINUOUS
 10
119.5743989666
 20
167.4023482501
 30
0.0
 11
0.0
 21
39.0638623847
 31
0.0
 40
0.6527772331
 41
1.5203828181
 42
1.5301969297
  0
ELLIPSE
  5
7D5
100
AcDbEntity
  8
0
100
AcDbEllipse
 62
7
  6
CONTINUOUS
 10
119.5743989666
 20
164.121509467
 30
0.0
 11
0.0
 21
104.1700016594
 31
0.0
 40
0.2447921628
 41
1.5154739845
 42
1.5203828181
  0
ELLIPSE
  5
7D6
100
AcDbEntity
  8
0
100
AcDbEllipse
 62
7
  6
CONTINUOUS
 10
119.5743989666
 20
152.1830590106
 30
0.0
 11
25.5
 21
-0.0
 31
0.0
 40
0.1702127606
 41
-2.8859073617
 42
-2.8604867801
  0
ELLIPSE
  5
7D7
100
AcDbEntity
  8
0
100
AcDbEllipse
 62
7
  6
CONTINUOUS
 10
119.5743989666
 20
153.2807894047
 30
0.0
 11
25.5
 21
-0.0
 31
0.0
 40
0.3404255211
 41
-2.8985534899
 42
-2.8859073617
  0
ELLIPSE
  5
7D8
100
AcDbEntity
  8
0
100
AcDbEllipse
 62
7
  6
CONTINUOUS
 10
119.5743989666
 20
155.3698672175
 30
0.0
 11
25.5
 21
0.0
 31
0.0
 40
0.6808510423
 41
-2.9111600875
 42
-2.8985534899
  0
ELLIPSE
  5
7D9
100
AcDbEntity
  8
0
100
AcDbEllipse
 62
7
  6
CONTINUOUS
 10
119.5743989666
 20
163.3006919475
 30
0.0
 11
0.0
 21
52.0853034234
 31
0.0
 40
0.4895814812
 41
-4.4903399842
 42
-4.4819564143
  0
ELLIPSE
  5
7DA
100
AcDbEntity
  8
0
100
AcDbEllipse
 62
7
  6
CONTINUOUS
 10
119.5743989666
 20
153.3037114513
 30
0.0
 11
25.5
 21
-0.0
 31
0.0
 40
0.6127661182
 41
3.0929133072
 42
3.1133536064
  0
ELLIPSE
  5
7DB
100
AcDbEntity
  8
0
100
AcDbEllipse
 62
7
  6
CONTINUOUS
 10
119.5743989666
 20
153.8106054101
 30
0.0
 11
25.5
 21
0.0
 31
0.0
 40
0.204255139
 41
3.0724526061
 42
3.0929133072
  0
ELLIPSE
  5
7DC
100
AcDbEntity
  8
0
100
AcDbEllipse
 62
7
  6
CONTINUOUS
 10
119.5743989666
 20
151.3387751831
 30
0.0
 11
25.5
 21
0.0
 31
0.0
 40
0.2042551568
 41
-3.0929133072
 42
-3.0724526061
  0
ELLIPSE
  5
7DD
100
AcDbEntity
  8
0
100
AcDbEllipse
 62
7
  6
CONTINUOUS
 10
119.5743989666
 20
151.8456691863
 30
0.0
 11
25.5
 21
0.0
 31
0.0
 40
0.6127661718
 41
-3.1133536064
 42
-3.0929133072
  0
ELLIPSE
  5
7DE
100
AcDbEntity
  8
0
100
AcDbEllipse
 62
7
  6
CONTINUOUS
 10
119.5743989666
 20
152.3849030435
 30
0.0
 11
-0.0
 21
34.7234031558
 31
0.0
 40
0.7343750233
 41
1.5867773992
 42
1.5990353739
  0
ELLIPSE
  5
7DF
100
AcDbEntity
  8
0
100
AcDbEllipse
 62
7
  6
CONTINUOUS
 10
119.5743989666
 20
152.6623507099
 30
0.0
 11
-0.0
 21
52.0851589657
 31
0.0
 40
0.4895828391
 41
-4.7045784357
 42
-4.696407908
  0
ELLIPSE
  5
7E0
100
AcDbEntity
  8
0
100
AcDbEllipse
 62
7
  6
CONTINUOUS
 10
119.5743989666
 20
150.9014982846
 30
0.0
 11
25.5
 21
-0.0
 31
0.0
 40
0.255319362
 41
3.0314353697
 42
3.047860685
  0
ELLIPSE
  5
7E1
100
AcDbEntity
  8
0
100
AcDbEllipse
 62
7
  6
CONTINUOUS
 10
119.5743989666
 20
149.7085913925
 30
0.0
 11
25.5
 21
0.0
 31
0.0
 40
0.6808509827
 41
3.0190970037
 42
3.0314353697
  0
ELLIPSE
  5
7E2
100
AcDbEntity
  8
0
100
AcDbEllipse
 62
7
  6
CONTINUOUS
 10
119.5743989666
 20
147.0568131617
 30
0.0
 11
0.0
 21
39.0638715042
 31
0.0
 40
0.6527770807
 41
1.4400648004
 42
1.4483006769
  0
ELLIPSE
  5
7E3
100
AcDbEntity
  8
0
100
AcDbEllipse
 62
7
  6
CONTINUOUS
 10
119.5743989666
 20
141.9645576995
 30
0.0
 11
0.0
 21
78.1270541988
 31
0.0
 40
0.3263914179
 41
1.4359435155
 42
1.4400648004
  0
ELLIPSE
  5
7E4
100
AcDbEntity
  8
0
100
AcDbEllipse
 62
7
  6
CONTINUOUS
 10
119.5743989666
 20
163.1848277664
 30
0.0
 11
0.0
 21
78.1270906766
 31
0.0
 40
0.3263912656
 41
-4.581657454
 42
-4.5775361691
  0
ELLIPSE
  5
7E5
100
AcDbEntity
  8
0
100
AcDbEllipse
 62
7
  6
CONTINUOUS
 10
119.5743989666
 20
158.0925663602
 30
0.0
 11
-0.0
 21
39.0638623847
 31
0.0
 40
0.6527772331
 41
1.6932919767
 42
1.7015278532
  0
ELLIPSE
  5
7E6
100
AcDbEntity
  8
0
100
AcDbEllipse
 62
7
  6
CONTINUOUS
 10
119.5743989666
 20
155.4407892437
 30
0.0
 11
25.5
 21
-0.0
 31
0.0
 40
0.6808509827
 41
-3.0314353697
 42
-3.0190970037
  0
ELLIPSE
  5
7E7
100
AcDbEntity
  8
0
100
AcDbEllipse
 62
7
  6
CONTINUOUS
 10
119.5743989666
 20
154.2478823516
 30
0.0
 11
25.5
 21
0.0
 31
0.0
 40
0.255319362
 41
-3.047860685
 42
-3.0314353697
  0
ELLIPSE
  5
7E8
100
AcDbEntity
  8
0
100
AcDbEllipse
 62
7
  6
CONTINUOUS
 10
119.5743989666
 20
152.6982368141
 30
0.0
 11
-0.0
 21
47.7446812391
 31
0.0
 40
0.5340909047
 41
-4.6875171273
 42
-4.6629897988
  0
ELLIPSE
  5
7E9
100
AcDbEntity
  8
0
100
AcDbEllipse
 62
7
  6
CONTINUOUS
 10
119.5743989666
 20
203.0118320246
 30
0.0
 11
0.0
 21
52.0847027992
 31
0.0
 40
0.4895871269
 41
-3.8547890141
 42
-3.8485225312
  0
ELLIPSE
  5
7EA
100
AcDbEntity
  8
0
100
AcDbEllipse
 62
7
  6
CONTINUOUS
 10
119.5743989666
 20
183.3168908799
 30
0.0
 11
0.0
 21
26.0426494318
 31
0.0
 40
0.9791630482
 41
-3.8671878308
 42
-3.8547890141
  0
ELLIPSE
  5
7EB
100
AcDbEntity
  8
0
100
AcDbEllipse
 62
7
  6
CONTINUOUS
 10
119.5743989666
 20
170.3284487725
 30
0.0
 11
25.5
 21
0.0
 31
0.0
 40
0.3404254913
 41
-2.3146719928
 42
-2.296391504
  0
ELLIPSE
  5
7EC
100
AcDbEntity
  8
0
100
AcDbEllipse
 62
7
  6
CONTINUOUS
 10
119.5743989666
 20
163.2414190365
 30
0.0
 11
25.5
 21
-0.0
 31
0.0
 40
0.2042556244
 41
-2.3900795532
 42
-2.3617466911
  0
ELLIPSE
  5
7ED
100
AcDbEntity
  8
0
100
AcDbEllipse
 62
7
  6
CONTINUOUS
 10
119.5743989666
 20
170.3535998764
 30
0.0
 11
25.5
 21
-0.0
 31
0.0
 40
0.6127668731
 41
-2.4176811746
 42
-2.3900795532
  0
ELLIPSE
  5
7EE
100
AcDbEntity
  8
0
100
AcDbEllipse
 62
7
  6
CONTINUOUS
 10
119.5743989666
 20
188.7519992389
 30
0.0
 11
0.0
 21
43.4042592645
 31
0.0
 40
0.5874999466
 41
-4.0047184927
 42
-3.9884775014
  0
ELLIPSE
  5
7EF
100
AcDbEntity
  8
0
100
AcDbEllipse
 62
7
  6
CONTINUOUS
 10
119.5743989666
 20
228.253317828
 30
0.0
 11
-0.0
 21
104.1694055984
 31
0.0
 40
0.2447935635
 41
-4.0100820722
 42
-4.0047184927
  0
ELLIPSE
  5
7F0
100
AcDbEntity
  8
0
100
AcDbEllipse
 62
7
  6
CONTINUOUS
 10
119.5743989666
 20
155.4263745406
 30
0.0
 11
25.5
 21
0.0
 31
0.0
 40
0.2553200925
 41
2.2902141027
 42
2.3146719928
  0
ELLIPSE
  5
7F1
100
AcDbEntity
  8
0
100
AcDbEllipse
 62
7
  6
CONTINUOUS
 10
119.5743989666
 20
147.2643332227
 30
0.0
 11
25.5
 21
-0.0
 31
0.0
 40
0.6808512211
 41
2.2714135535
 42
2.2902141027
  0
ELLIPSE
  5
7F2
100
AcDbEntity
  8
0
100
AcDbEllipse
 62
7
  6
CONTINUOUS
 10
119.5743989666
 20
130.6744974305
 30
0.0
 11
-0.0
 21
39.0635270994
 31
0.0
 40
0.6527828359
 41
0.6878474422
 42
0.7006172267
  0
ELLIPSE
  5
7F3
100
AcDbEntity
  8
0
100
AcDbEllipse
 62
7
  6
CONTINUOUS
 10
119.5743989666
 20
191.3557483247
 30
0.0
 11
-0.0
 21
39.0635453383
 31
0.0
 40
0.6527825311
 41
-3.8422098803
 42
-3.8294400958
  0
ELLIPSE
  5
7F4
100
AcDbEntity
  8
0
100
AcDbEllipse
 62
7
  6
CONTINUOUS
 10
119.5743989666
 20
174.7658939423
 30
0.0
 11
25.5
 21
0.0
 31
0.0
 40
0.6808509827
 41
-2.2902141027
 42
-2.2714135535
  0
ELLIPSE
  5
7F5
100
AcDbEntity
  8
0
100
AcDbEllipse
 62
7
  6
CONTINUOUS
 10
119.5743989666
 20
166.6038571975
 30
0.0
 11
25.5
 21
-0.0
 31
0.0
 40
0.2553200925
 41
-2.3146719928
 42
-2.2902141027
  0
ELLIPSE
  5
7F6
100
AcDbEntity
  8
0
100
AcDbEllipse
 62
7
  6
CONTINUOUS
 10
119.5743989666
 20
166.4442556392
 30
0.0
 11
25.5
 21
0.0
 31
0.0
 40
0.2553186315
 41
-2.3731727528
 42
-2.3501898919
  0
ELLIPSE
  5
7F7
100
AcDbEntity
  8
0
100
AcDbEllipse
 62
7
  6
CONTINUOUS
 10
119.5743989666
 20
170.9691400863
 30
0.0
 11
25.5
 21
0.0
 31
0.0
 40
0.510637263
 41
-2.395655913
 42
-2.3731727528
  0
ELLIPSE
  5
7F8
100
AcDbEntity
  8
0
100
AcDbEllipse
 62
7
  6
CONTINUOUS
 10
119.5743989666
 20
179.8062441803
 30
0.0
 11
-0.0
 21
26.0426494318
 31
0.0
 40
0.9791630482
 41
-3.9884775014
 42
-3.9664522398
  0
ELLIPSE
  5
7F9
100
AcDbEntity
  8
0
100
AcDbEllipse
 62
7
  6
CONTINUOUS
 10
119.5743989666
 20
231.5511801847
 30
0.0
 11
-0.0
 21
104.1694055984
 31
0.0
 40
0.2447935635
 41
-3.9939167803
 42
-3.9884775014
  0
ELLIPSE
  5
7FA
100
AcDbEntity
  8
0
100
AcDbEllipse
 62
7
  6
CONTINUOUS
 10
119.5743989666
 20
94.8407536826
 30
0.0
 11
-0.0
 21
104.1694055984
 31
0.0
 40
0.2447935635
 41
0.8468848478
 42
0.8523241267
  0
ELLIPSE
  5
7FB
100
AcDbEntity
  8
0
100
AcDbEllipse
 62
7
  6
CONTINUOUS
 10
119.5743989666
 20
146.5856896871
 30
0.0
 11
0.0
 21
26.0426494318
 31
0.0
 40
0.9791630482
 41
0.8248595862
 42
0.8468848478
  0
ELLIPSE
  5
7FC
100
AcDbEntity
  8
0
100
AcDbEllipse
 62
7
  6
CONTINUOUS
 10
119.5743989666
 20
155.422793781
 30
0.0
 11
25.5
 21
0.0
 31
0.0
 40
0.510637263
 41
2.3731727528
 42
2.395655913
  0
ELLIPSE
  5
7FD
100
AcDbEntity
  8
0
100
AcDbEllipse
 62
7
  6
CONTINUOUS
 10
119.5743989666
 20
159.9476782281
 30
0.0
 11
25.5
 21
0.0
 31
0.0
 40
0.2553186315
 41
2.3501898919
 42
2.3731727528
  0
ELLIPSE
  5
7FE
100
AcDbEntity
  8
0
100
AcDbEllipse
 62
7
  6
CONTINUOUS
 10
119.5743989666
 20
162.34780068
 30
0.0
 11
25.5
 21
0.0
 31
0.0
 40
0.2042556244
 41
-2.6050395962
 42
-2.5811026691
  0
ELLIPSE
  5
7FF
100
AcDbEntity
  8
0
100
AcDbEllipse
 62
7
  6
CONTINUOUS
 10
119.5743989666
 20
166.3414862143
 30
0.0
 11
25.5
 21
-0.0
 31
0.0
 40
0.5106373301
 41
-2.6239459016
 42
-2.6050395962
  0
ELLIPSE
  5
800
100
AcDbEntity
  8
0
100
AcDbEllipse
 62
7
  6
CONTINUOUS
 10
119.5743989666
 20
172.784951027
 30
0.0
 11
0.0
 21
26.0426517117
 31
0.0
 40
0.9791629624
 41
-4.2134470088
 42
-4.1947422284
  0
ELLIPSE
  5
801
100
AcDbEntity
  8
0
100
AcDbEllipse
 62
7
  6
CONTINUOUS
 10
119.5743989666
 20
185.2459925429
 30
0.0
 11
-0.0
 21
52.0847119186
 31
0.0
 40
0.4895870412
 41
-4.2227279623
 42
-4.2134470088
  0
ELLIPSE
  5
802
100
AcDbEntity
  8
0
100
AcDbEllipse
 62
7
  6
CONTINUOUS
 10
119.5743989666
 20
221.9926347506
 30
0.0
 11
-0.0
 21
130.2147373541
 31
0.0
 40
0.1958303685
 41
-4.227351111
 42
-4.2227279623
  0
ELLIPSE
  5
803
100
AcDbEntity
  8
0
100
AcDbEllipse
 62
7
  6
CONTINUOUS
 10
119.5743989666
 20
156.6498039331
 30
0.0
 11
25.5
 21
0.0
 31
0.0
 40
0.2553186315
 41
2.5420304662
 42
2.5616915912
  0
ELLIPSE
  5
804
100
AcDbEntity
  8
0
100
AcDbEllipse
 62
7
  6
CONTINUOUS
 10
119.5743989666
 20
150.5267442415
 30
0.0
 11
25.5
 21
-0.0
 31
0.0
 40
0.6808512211
 41
2.5271098916
 42
2.5420304662
  0
ELLIPSE
  5
805
100
AcDbEntity
  8
0
100
AcDbEllipse
 62
7
  6
CONTINUOUS
 10
119.5743989666
 20
138.0146059105
 30
0.0
 11
0.0
 21
39.0639741477
 31
0.0
 40
0.6527753654
 41
0.9462788672
 42
0.9563135648
  0
ELLIPSE
  5
806
100
AcDbEntity
  8
0
100
AcDbEllipse
 62
7
  6
CONTINUOUS
 10
119.5743989666
 20
99.9470771681
 30
0.0
 11
0.0
 21
104.1694055984
 31
0.0
 40
0.2447935635
 41
0.9412342087
 42
0.9462788672
  0
ELLIPSE
  5
807
100
AcDbEntity
  8
0
100
AcDbEllipse
 62
7
  6
CONTINUOUS
 10
119.5743989666
 20
160.6734138939
 30
0.0
 11
25.5
 21
0.0
 31
0.0
 40
0.3404254913
 41
2.9227922088
 42
2.9353292752
  0
ELLIPSE
  5
808
100
AcDbEntity
  8
0
100
AcDbEllipse
 62
7
  6
CONTINUOUS
 10
119.5743989666
 20
156.9048821412
 30
0.0
 11
0.0
 21
26.0426494318
 31
0.0
 40
0.9791630482
 41
1.3436185381
 42
1.351995882
  0
ELLIPSE
  5
809
100
AcDbEntity
  8
0
100
AcDbEllipse
 62
7
  6
CONTINUOUS
 10
119.5743989666
 20
145.1739779587
 30
0.0
 11
0.0
 21
78.1270541988
 31
0.0
 40
0.3263914179
 41
1.3394237652
 42
1.3436185381
  0
ELLIPSE
  5
80A
100
AcDbEntity
  8
0
100
AcDbEllipse
 62
7
  6
CONTINUOUS
 10
119.5743989666
 20
181.3243388747
 30
0.0
 11
-0.0
 21
78.1270541988
 31
0.0
 40
0.3263914179
 41
-4.4852111917
 42
-4.4810164188
  0
ELLIPSE
  5
80B
100
AcDbEntity
  8
0
100
AcDbEllipse
 62
7
  6
CONTINUOUS
 10
119.5743989666
 20
169.5934346922
 30
0.0
 11
0.0
 21
26.0426494318
 31
0.0
 40
0.9791630482
 41
-4.4935885355
 42
-4.4852111917
  0
ELLIPSE
  5
80C
100
AcDbEntity
  8
0
100
AcDbEllipse
 62
7
  6
CONTINUOUS
 10
119.5743989666
 20
165.8249029395
 30
0.0
 11
25.5
 21
0.0
 31
0.0
 40
0.3404254913
 41
-2.9353292752
 42
-2.9227922088
  0
ELLIPSE
  5
80D
100
AcDbEntity
  8
0
100
AcDbEllipse
 62
7
  6
CONTINUOUS
 10
119.5743989666
 20
162.818928352
 30
0.0
 11
0.0
 21
104.1694238373
 31
0.0
 40
0.2447935206
 41
-4.6925184073
 42
-4.688432425
  0
ELLIPSE
  5
80E
100
AcDbEntity
  8
0
100
AcDbEllipse
 62
7
  6
CONTINUOUS
 10
119.5743989666
 20
160.9474572463
 30
0.0
 11
0.0
 21
26.042577203
 31
0.0
 40
0.9791657639
 41
-4.688432425
 42
-4.6720839511
  0
ELLIPSE
  5
80F
100
AcDbEntity
  8
0
100
AcDbEllipse
 62
7
  6
CONTINUOUS
 10
119.5743989666
 20
160.4227759344
 30
0.0
 11
25.5
 21
0.0
 31
0.0
 40
0.510638791
 41
-3.1012876243
 42
-3.0849283638
  0
ELLIPSE
  5
810
100
AcDbEntity
  8
0
100
AcDbEllipse
 62
7
  6
CONTINUOUS
 10
119.5743989666
 20
159.9803070244
 30
0.0
 11
25.5
 21
-0.0
 31
0.0
 40
0.2042551568
 41
-3.0849283638
 42
-3.0644573622
  0
ELLIPSE
  5
811
100
AcDbEntity
  8
0
100
AcDbEllipse
 62
7
  6
CONTINUOUS
 10
119.5743989666
 20
164.1775842932
 30
0.0
 11
25.5
 21
0.0
 31
0.0
 40
0.204255139
 41
9.3476426694
 42
9.3681136709
  0
ELLIPSE
  5
812
100
AcDbEntity
  8
0
100
AcDbEllipse
 62
7
  6
CONTINUOUS
 10
119.5743989666
 20
163.7351154542
 30
0.0
 11
25.5
 21
0.0
 31
0.0
 40
0.510638724
 41
3.0849283638
 42
3.1012876243
  0
ELLIPSE
  5
813
100
AcDbEntity
  8
0
100
AcDbEllipse
 62
7
  6
CONTINUOUS
 10
119.5743989666
 20
163.2104341653
 30
0.0
 11
0.0
 21
26.0425749231
 31
0.0
 40
0.9791658496
 41
1.5304912975
 42
1.5468397714
  0
ELLIPSE
  5
814
100
AcDbEntity
  8
0
100
AcDbEllipse
 62
7
  6
CONTINUOUS
 10
119.5743989666
 20
160.715136335
 30
0.0
 11
0.0
 21
130.2118299535
 31
0.0
 40
0.195834741
 41
1.5468397714
 42
1.5509257537
  0
ELLIPSE
  5
815
100
AcDbEntity
  8
0
100
AcDbEllipse
 62
7
  6
CONTINUOUS
 10
119.5743989666
 20
166.5807338751
 30
0.0
 11
25.5
 21
0.0
 31
0.0
 40
0.2042551568
 41
2.8722701232
 42
2.8976106248
  0
ELLIPSE
  5
816
100
AcDbEntity
  8
0
100
AcDbEllipse
 62
7
  6
CONTINUOUS
 10
119.5743989666
 20
152.8494161702
 30
0.0
 11
25.0
 21
-0.0
 31
0.0
 40
0.204255678
 41
-2.8763604602
 42
-2.8547068843
  0
ELLIPSE
  5
817
100
AcDbEntity
  8
0
100
AcDbEllipse
 62
7
  6
CONTINUOUS
 10
119.5743989666
 20
155.9727042562
 30
0.0
 11
25.0
 21
-0.0
 31
0.0
 40
0.6808509827
 41
-2.8892910552
 42
-2.8763604602
  0
ELLIPSE
  5
818
100
AcDbEntity
  8
0
100
AcDbEllipse
 62
7
  6
CONTINUOUS
 10
119.5743989666
 20
170.8443350643
 30
0.0
 11
-0.0
 21
76.5951690566
 31
0.0
 40
0.3263913418
 41
-4.4643879386
 42
-4.460087382
  0
ELLIPSE
  5
819
100
AcDbEntity
  8
0
100
AcDbEllipse
 62
7
  6
CONTINUOUS
 10
119.5743989666
 20
157.7656128496
 30
0.0
 11
25.5
 21
-0.0
 31
0.0
 40
0.3404254913
 41
2.3501898919
 42
2.3674756122
  0
ELLIPSE
  5
81A
100
AcDbEntity
  8
0
100
AcDbEllipse
 62
7
  6
CONTINUOUS
 10
119.5743989666
 20
151.6969608202
 30
0.0
 11
25.5
 21
-0.0
 31
0.0
 40
0.6808509827
 41
2.3674756122
 42
2.3844739836
  0
ELLIPSE
  5
81B
100
AcDbEntity
  8
0
100
AcDbEllipse
 62
7
  6
CONTINUOUS
 10
119.5743989666
 20
109.9614366622
 30
0.0
 11
0.0
 21
78.1271271543
 31
0.0
 40
0.3263911132
 41
0.8136776568
 42
0.8192832264
  0
ELLIPSE
  5
81C
100
AcDbEntity
  8
0
100
AcDbEllipse
 62
7
  6
CONTINUOUS
 10
119.5743989666
 20
216.4304470971
 30
0.0
 11
-0.0
 21
78.1270541988
 31
0.0
 40
0.3263914179
 41
-3.96087588
 42
-3.9552703104
  0
ELLIPSE
  5
81D
100
AcDbEntity
  8
0
100
AcDbEllipse
 62
7
  6
CONTINUOUS
 10
119.5743989666
 20
174.6949730472
 30
0.0
 11
25.5
 21
-0.0
 31
0.0
 40
0.6808509827
 41
-2.3844739836
 42
-2.3674756122
  0
ELLIPSE
  5
81E
100
AcDbEntity
  8
0
100
AcDbEllipse
 62
7
  6
CONTINUOUS
 10
119.5743989666
 20
168.6263210178
 30
0.0
 11
25.5
 21
-0.0
 31
0.0
 40
0.3404254913
 41
-2.3674756122
 42
-2.3501898919
  0
ELLIPSE
  5
81F
100
AcDbEntity
  8
0
100
AcDbEllipse
 62
7
  6
CONTINUOUS
 10
119.5743989666
 20
166.2839724271
 30
0.0
 11
25.5
 21
0.0
 31
0.0
 40
0.2042556065
 41
-2.3146719928
 42
-2.2839926873
  0
ELLIPSE
  5
820
100
AcDbEntity
  8
0
100
AcDbEllipse
 62
7
  6
CONTINUOUS
 10
119.5743989666
 20
172.192542674
 30
0.0
 11
25.5
 21
0.0
 31
0.0
 40
0.510637263
 41
-2.2839926873
 42
-2.258643769
  0
ELLIPSE
  5
821
100
AcDbEntity
  8
0
100
AcDbEllipse
 62
7
  6
CONTINUOUS
 10
119.5743989666
 20
182.2530633564
 30
0.0
 11
0.0
 21
26.0426494318
 31
0.0
 40
0.9791630482
 41
-3.8294400958
 42
-3.803283824
  0
ELLIPSE
  5
822
100
AcDbEntity
  8
0
100
AcDbEllipse
 62
7
  6
CONTINUOUS
 10
119.5743989666
 20
202.7990655748
 30
0.0
 11
-0.0
 21
52.0847210381
 31
0.0
 40
0.4895869555
 41
-3.803283824
 42
-3.7898715389
  0
ELLIPSE
  5
823
100
AcDbEntity
  8
0
100
AcDbEllipse
 62
7
  6
CONTINUOUS
 10
119.5743989666
 20
119.2311733582
 30
0.0
 11
0.0
 21
52.0847119186
 31
0.0
 40
0.4895870412
 41
0.6482788853
 42
0.6616911704
  0
ELLIPSE
  5
824
100
AcDbEntity
  8
0
100
AcDbEllipse
 62
7
  6
CONTINUOUS
 10
119.5743989666
 20
139.777166583
 30
0.0
 11
-0.0
 21
26.0426517117
 31
0.0
 40
0.9791629624
 41
0.6616911704
 42
0.6878474422
  0
ELLIPSE
  5
825
100
AcDbEntity
  8
0
100
AcDbEllipse
 62
7
  6
CONTINUOUS
 10
119.5743989666
 20
149.8376877058
 30
0.0
 11
25.5
 21
0.0
 31
0.0
 40
0.5106373301
 41
2.258643769
 42
2.2839926873
  0
ELLIPSE
  5
826
100
AcDbEntity
  8
0
100
AcDbEllipse
 62
7
  6
CONTINUOUS
 10
119.5743989666
 20
155.746258901
 30
0.0
 11
25.5
 21
-0.0
 31
0.0
 40
0.2042556244
 41
2.2839926873
 42
2.3146719928
  0
ELLIPSE
  5
827
100
AcDbEntity
  8
0
100
AcDbEllipse
 62
7
  6
CONTINUOUS
 10
119.5743989666
 20
158.851732669
 30
0.0
 11
0.0
 21
130.2125020742
 31
0.0
 40
0.1958337302
 41
1.4859888113
 42
1.4909074541
  0
ELLIPSE
  5
828
100
AcDbEntity
  8
0
100
AcDbEllipse
 62
7
  6
CONTINUOUS
 10
119.5743989666
 20
165.0866010308
 30
0.0
 11
-0.0
 21
52.0851589657
 31
0.0
 40
0.4895828391
 41
1.4909074541
 42
1.5007390243
  0
ELLIPSE
  5
829
100
AcDbEntity
  8
0
100
AcDbEllipse
 62
7
  6
CONTINUOUS
 10
119.5743989666
 20
213.3453482376
 30
0.0
 11
-0.0
 21
78.1270541988
 31
0.0
 40
0.3263914179
 41
-3.9775196757
 42
-3.971999886
  0
ELLIPSE
  5
82A
100
AcDbEntity
  8
0
100
AcDbEllipse
 62
7
  6
CONTINUOUS
 10
119.5743989666
 20
178.2104378437
 30
0.0
 11
-0.0
 21
26.0425561666
 31
0.0
 40
0.9791665548
 41
-3.971999886
 42
-3.9552703104
  0
ELLIPSE
  5
82B
100
AcDbEntity
  8
0
100
AcDbEllipse
 62
7
  6
CONTINUOUS
 10
119.5743989666
 20
164.7953453338
 30
0.0
 11
25.5
 21
0.0
 31
0.0
 40
0.2553200925
 41
-2.3844739836
 42
-2.3617466911
  0
ELLIPSE
  5
82C
100
AcDbEntity
  8
0
100
AcDbEllipse
 62
7
  6
CONTINUOUS
 10
119.5743989666
 20
166.9095846055
 30
0.0
 11
0.0
 21
26.0425399488
 31
0.0
 40
0.9791671646
 41
1.5007390243
 42
1.5203828181
  0
ELLIPSE
  5
82D
100
AcDbEntity
  8
0
100
AcDbEllipse
 62
7
  6
CONTINUOUS
 10
119.5743989666
 20
167.5657544559
 30
0.0
 11
25.5
 21
-0.0
 31
0.0
 40
0.5106380606
 41
3.0911791449
 42
3.1108034849
  0
ELLIPSE
  5
82E
100
AcDbEntity
  8
0
100
AcDbEllipse
 62
7
  6
CONTINUOUS
 10
119.5743989666
 20
167.8062647787
 30
0.0
 11
25.5
 21
-0.0
 31
0.0
 40
0.2042553906
 41
3.1108034849
 42
3.1353181026
  0
ELLIPSE
  5
82F
100
AcDbEntity
  8
0
100
AcDbEllipse
 62
7
  6
CONTINUOUS
 10
119.5743989666
 20
163.6783199292
 30
0.0
 11
25.0
 21
0.0
 31
0.0
 40
0.2553200925
 41
3.6949737442
 42
3.7028174317
  0
ELLIPSE
  5
830
100
AcDbEntity
  8
0
100
AcDbEllipse
 62
7
  6
CONTINUOUS
 10
119.5743989666
 20
169.2694446882
 30
0.0
 11
25.0
 21
0.0
 31
0.0
 40
0.6808512211
 41
-2.6028388742
 42
-2.588211563
  0
ELLIPSE
  5
831
100
AcDbEntity
  8
0
100
AcDbEllipse
 62
7
  6
CONTINUOUS
 10
119.5743989666
 20
180.1856031502
 30
0.0
 11
-0.0
 21
38.2975755876
 31
0.0
 40
0.6527828359
 41
-4.1833159809
 42
-4.173635201
  0
ELLIPSE
  5
832
100
AcDbEntity
  8
0
100
AcDbEllipse
 62
7
  6
CONTINUOUS
 10
119.5743989666
 20
166.5807338751
 30
0.0
 11
25.0
 21
0.0
 31
0.0
 40
0.2042551568
 41
2.8667453041
 42
2.892628688
  0
ELLIPSE
  5
833
100
AcDbEntity
  8
0
100
AcDbEllipse
 62
7
  6
CONTINUOUS
 10
119.5743989666
 20
164.501920771
 30
0.0
 11
25.0
 21
-0.0
 31
0.0
 40
0.510638791
 41
2.8459026268
 42
2.8667453041
  0
ELLIPSE
  5
834
100
AcDbEntity
  8
0
100
AcDbEllipse
 62
7
  6
CONTINUOUS
 10
119.5743989666
 20
160.7819175039
 30
0.0
 11
-0.0
 21
25.5319384343
 31
0.0
 40
0.9791657639
 41
1.2541304177
 42
1.2751063
  0
ELLIPSE
  5
835
100
AcDbEntity
  8
0
100
AcDbEllipse
 62
7
  6
CONTINUOUS
 10
119.5743989666
 20
152.8313164643
 30
0.0
 11
0.0
 21
51.0637352443
 31
0.0
 40
0.4895842398
 41
1.2435887689
 42
1.2541304177
  0
ELLIPSE
  5
836
100
AcDbEntity
  8
0
100
AcDbEllipse
 62
7
  6
CONTINUOUS
 10
119.5743989666
 20
128.2132621121
 30
0.0
 11
0.0
 21
127.6600462343
 31
0.0
 40
0.1958326096
 41
1.2383038786
 42
1.2435887689
  0
ELLIPSE
  5
837
100
AcDbEntity
  8
0
100
AcDbEllipse
 62
7
  6
CONTINUOUS
 10
119.5743989666
 20
213.4646523376
 30
0.0
 11
-0.0
 21
127.6601177602
 31
0.0
 40
0.1958324999
 41
-4.3851814224
 42
-4.3798965322
  0
ELLIPSE
  5
838
100
AcDbEntity
  8
0
100
AcDbEllipse
 62
7
  6
CONTINUOUS
 10
119.5743989666
 20
188.8465721235
 30
0.0
 11
-0.0
 21
51.0637263036
 31
0.0
 40
0.4895843255
 41
-4.3957230713
 42
-4.3851814224
  0
ELLIPSE
  5
839
100
AcDbEntity
  8
0
100
AcDbEllipse
 62
7
  6
CONTINUOUS
 10
119.5743989666
 20
180.8959731719
 30
0.0
 11
-0.0
 21
25.5319361991
 31
0.0
 40
0.9791658496
 41
-4.4166989536
 42
-4.3957230713
  0
ELLIPSE
  5
83A
100
AcDbEntity
  8
0
100
AcDbEllipse
 62
7
  6
CONTINUOUS
 10
119.5743989666
 20
177.1759700677
 30
0.0
 11
25.0
 21
0.0
 31
0.0
 40
0.510638724
 41
-2.8667453041
 42
-2.8459026268
  0
ELLIPSE
  5
83B
100
AcDbEntity
  8
0
100
AcDbEllipse
 62
7
  6
CONTINUOUS
 10
119.5743989666
 20
175.0971572973
 30
0.0
 11
25.0
 21
-0.0
 31
0.0
 40
0.204255139
 41
-2.892628688
 42
-2.8667453041
  0
ELLIPSE
  5
83C
100
AcDbEntity
  8
0
100
AcDbEllipse
 62
7
  6
CONTINUOUS
 10
119.5743989666
 20
212.4035525941
 30
0.0
 11
0.0
 21
102.1292057679
 31
0.0
 40
0.2447879606
 41
-4.1881357141
 42
-4.1833159809
  0
ELLIPSE
  5
83D
100
AcDbEntity
  8
0
100
AcDbEllipse
 62
7
  6
CONTINUOUS
 10
119.5743989666
 20
175.0971572973
 30
0.0
 11
25.5
 21
-0.0
 31
0.0
 40
0.204255139
 41
-2.8976106248
 42
-2.8722701232
  0
ELLIPSE
  5
83E
100
AcDbEntity
  8
0
100
AcDbEllipse
 62
7
  6
CONTINUOUS
 10
119.5743989666
 20
168.3903552579
 30
0.0
 11
25.5
 21
0.0
 31
0.0
 40
0.2042556065
 41
-2.3206850633
 42
-2.2902141027
  0
ELLIPSE
  5
83F
100
AcDbEntity
  8
0
100
AcDbEllipse
 62
7
  6
CONTINUOUS
 10
119.5743989666
 20
179.1642344206
 30
0.0
 11
25.5
 21
-0.0
 31
0.0
 40
0.7659558946
 41
-2.2902141027
 42
-2.2650531461
  0
ELLIPSE
  5
840
100
AcDbEntity
  8
0
100
AcDbEllipse
 62
7
  6
CONTINUOUS
 10
119.5743989666
 20
190.8393680427
 30
0.0
 11
0.0
 21
34.723400116
 31
0.0
 40
0.7343750875
 41
-3.8358494729
 42
-3.8164688435
  0
ELLIPSE
  5
841
100
AcDbEntity
  8
0
100
AcDbEllipse
 62
7
  6
CONTINUOUS
 10
119.5743989666
 20
156.72498393
 30
0.0
 11
25.0
 21
-0.0
 31
0.0
 40
0.2042556244
 41
2.5231913162
 42
2.5485339713
  0
ELLIPSE
  5
842
100
AcDbEntity
  8
0
100
AcDbEllipse
 62
7
  6
CONTINUOUS
 10
119.5743989666
 20
224.7282603089
 30
0.0
 11
-0.0
 21
78.1270541988
 31
0.0
 40
0.3263914179
 41
-3.8164688435
 42
-3.8099037835
  0
ELLIPSE
  5
843
100
AcDbEntity
  8
0
100
AcDbEllipse
 62
7
  6
CONTINUOUS
 10
119.5743989666
 20
152.2844919849
 30
0.0
 11
25.0
 21
0.0
 31
0.0
 40
0.5106373301
 41
2.5025839916
 42
2.5231913162
  0
ELLIPSE
  5
844
100
AcDbEntity
  8
0
100
AcDbEllipse
 62
7
  6
CONTINUOUS
 10
119.5743989666
 20
81.4221135161
 30
0.0
 11
0.0
 21
130.211756998
 31
0.0
 40
0.1958348508
 41
0.9105636038
 42
0.9157251527
  0
ELLIPSE
  5
845
100
AcDbEntity
  8
0
100
AcDbEllipse
 62
7
  6
CONTINUOUS
 10
119.5743989666
 20
129.0179717689
 30
0.0
 11
0.0
 21
52.0853079831
 31
0.0
 40
0.4895814384
 41
0.9157251527
 42
0.9259873477
  0
ELLIPSE
  5
846
100
AcDbEntity
  8
0
100
AcDbEllipse
 62
7
  6
CONTINUOUS
 10
119.5743989666
 20
144.6708900598
 30
0.0
 11
0.0
 21
26.0425026947
 31
0.0
 40
0.9791685653
 41
0.9259873477
 42
0.9462788672
  0
ELLIPSE
  5
847
100
AcDbEntity
  8
0
100
AcDbEllipse
 62
7
  6
CONTINUOUS
 10
119.5743989666
 20
152.2844919849
 30
0.0
 11
25.5
 21
0.0
 31
0.0
 40
0.5106373301
 41
2.517075194
 42
2.5370741459
  0
ELLIPSE
  5
848
100
AcDbEntity
  8
0
100
AcDbEllipse
 62
7
  6
CONTINUOUS
 10
119.5743989666
 20
144.6708900598
 30
0.0
 11
-0.0
 21
25.531865387
 31
0.0
 40
0.9791685653
 41
0.9108598113
 42
0.9317876648
  0
ELLIPSE
  5
849
100
AcDbEntity
  8
0
100
AcDbEllipse
 62
7
  6
CONTINUOUS
 10
119.5743989666
 20
129.0179717689
 30
0.0
 11
-0.0
 21
51.0640274345
 31
0.0
 40
0.4895814384
 41
0.9002680183
 42
0.9108598113
  0
ELLIPSE
  5
84A
100
AcDbEntity
  8
0
100
AcDbEllipse
 62
7
  6
CONTINUOUS
 10
119.5743989666
 20
156.72498393
 30
0.0
 11
25.5
 21
-0.0
 31
0.0
 40
0.2042556244
 41
2.5370741459
 42
2.5616915912
  0
ELLIPSE
  5
84B
100
AcDbEntity
  8
0
100
AcDbEllipse
 62
7
  6
CONTINUOUS
 10
119.5743989666
 20
81.4221135161
 30
0.0
 11
0.0
 21
127.6585852922
 31
0.0
 40
0.1958348508
 41
0.8949386277
 42
0.9002680183
  0
ELLIPSE
  5
84C
100
AcDbEntity
  8
0
100
AcDbEllipse
 62
7
  6
CONTINUOUS
 10
119.5743989666
 20
224.7282603089
 30
0.0
 11
0.0
 21
76.5951511753
 31
0.0
 40
0.3263914179
 41
-3.7910699878
 42
-3.7841486693
  0
ELLIPSE
  5
84D
100
AcDbEntity
  8
0
100
AcDbEllipse
 62
7
  6
CONTINUOUS
 10
119.5743989666
 20
190.8393680427
 30
0.0
 11
-0.0
 21
34.0425491333
 31
0.0
 40
0.7343750875
 41
-3.8114664988
 42
-3.7910699878
  0
ELLIPSE
  5
84E
100
AcDbEntity
  8
0
100
AcDbEllipse
 62
7
  6
CONTINUOUS
 10
119.5743989666
 20
179.1642344206
 30
0.0
 11
25.0
 21
-0.0
 31
0.0
 40
0.7659558946
 41
-2.2670764483
 42
-2.240670172
  0
ELLIPSE
  5
84F
100
AcDbEntity
  8
0
100
AcDbEllipse
 62
7
  6
CONTINUOUS
 10
119.5743989666
 20
168.3903552579
 30
0.0
 11
25.0
 21
-0.0
 31
0.0
 40
0.2042556065
 41
-2.2989565978
 42
-2.2670764483
  0
ELLIPSE
  5
850
100
AcDbEntity
  8
0
100
AcDbEllipse
 62
7
  6
CONTINUOUS
 10
119.5743989666
 20
170.8443350643
 30
0.0
 11
-0.0
 21
78.1270724377
 31
0.0
 40
0.3263913418
 41
-4.4693498167
 42
-4.4651389188
  0
ELLIPSE
  5
851
100
AcDbEntity
  8
0
100
AcDbEllipse
 62
7
  6
CONTINUOUS
 10
119.5743989666
 20
155.9727042562
 30
0.0
 11
25.5
 21
0.0
 31
0.0
 40
0.6808509827
 41
-2.894342592
 42
-2.881682753
  0
ELLIPSE
  5
852
100
AcDbEntity
  8
0
100
AcDbEllipse
 62
7
  6
CONTINUOUS
 10
119.5743989666
 20
212.4035525941
 30
0.0
 11
-0.0
 21
104.1717898833
 31
0.0
 40
0.2447879606
 41
-4.1994367425
 42
-4.1947422284
  0
ELLIPSE
  5
853
100
AcDbEntity
  8
0
100
AcDbEllipse
 62
7
  6
CONTINUOUS
 10
119.5743989666
 20
152.8494161702
 30
0.0
 11
25.5
 21
-0.0
 31
0.0
 40
0.204255678
 41
-2.881682753
 42
-2.8604867801
  0
ELLIPSE
  5
854
100
AcDbEntity
  8
0
100
AcDbEllipse
 62
7
  6
CONTINUOUS
 10
119.5743989666
 20
177.1759700677
 30
0.0
 11
25.5
 21
0.0
 31
0.0
 40
0.510638724
 41
-2.8722701232
 42
-2.8518701817
  0
ELLIPSE
  5
855
100
AcDbEntity
  8
0
100
AcDbEllipse
 62
7
  6
CONTINUOUS
 10
119.5743989666
 20
180.8959731719
 30
0.0
 11
-0.0
 21
26.0425749231
 31
0.0
 40
0.9791658496
 41
-4.4226665085
 42
-4.4021417227
  0
ELLIPSE
  5
856
100
AcDbEntity
  8
0
100
AcDbEllipse
 62
7
  6
CONTINUOUS
 10
119.5743989666
 20
180.1856031502
 30
0.0
 11
-0.0
 21
39.0635270994
 31
0.0
 40
0.6527828359
 41
-4.1947422284
 42
-4.1853150268
  0
ELLIPSE
  5
857
100
AcDbEntity
  8
0
100
AcDbEllipse
 62
7
  6
CONTINUOUS
 10
119.5743989666
 20
188.8465721235
 30
0.0
 11
0.0
 21
52.0850008297
 31
0.0
 40
0.4895843255
 41
-4.4021417227
 42
-4.3918290266
  0
ELLIPSE
  5
858
100
AcDbEntity
  8
0
100
AcDbEllipse
 62
7
  6
CONTINUOUS
 10
119.5743989666
 20
169.2694446882
 30
0.0
 11
25.5
 21
-0.0
 31
0.0
 40
0.6808512211
 41
-2.6145187
 42
-2.600279946
  0
ELLIPSE
  5
859
100
AcDbEntity
  8
0
100
AcDbEllipse
 62
7
  6
CONTINUOUS
 10
119.5743989666
 20
163.6783199292
 30
0.0
 11
25.5
 21
-0.0
 31
0.0
 40
0.2553200925
 41
-2.600279946
 42
-2.5811026691
  0
ELLIPSE
  5
85A
100
AcDbEntity
  8
0
100
AcDbEllipse
 62
7
  6
CONTINUOUS
 10
119.5743989666
 20
213.4646523376
 30
0.0
 11
-0.0
 21
130.2133201154
 31
0.0
 40
0.1958324999
 41
-4.3918290266
 42
-4.3866595128
  0
ELLIPSE
  5
85B
100
AcDbEntity
  8
0
100
AcDbEllipse
 62
7
  6
CONTINUOUS
 10
119.5743989666
 20
154.6579244506
 30
0.0
 11
25.5
 21
-0.0
 31
0.0
 40
0.2042553727
 41
-3.047860685
 42
-3.0273245377
  0
ELLIPSE
  5
85C
100
AcDbEntity
  8
0
100
AcDbEllipse
 62
7
  6
CONTINUOUS
 10
119.5743989666
 20
164.7953453338
 30
0.0
 11
25.0
 21
-0.0
 31
0.0
 40
0.2553200925
 41
-2.3654013115
 42
-2.3417688801
  0
ELLIPSE
  5
85D
100
AcDbEntity
  8
0
100
AcDbEllipse
 62
7
  6
CONTINUOUS
 10
119.5743989666
 20
178.2104378437
 30
0.0
 11
-0.0
 21
25.5319178104
 31
0.0
 40
0.9791665548
 41
-3.9535675482
 42
-3.9361976383
  0
ELLIPSE
  5
85E
100
AcDbEntity
  8
0
100
AcDbEllipse
 62
7
  6
CONTINUOUS
 10
119.5743989666
 20
213.3453482376
 30
0.0
 11
0.0
 21
76.5951511753
 31
0.0
 40
0.3263914179
 41
-3.9592940746
 42
-3.9535675482
  0
ELLIPSE
  5
85F
100
AcDbEntity
  8
0
100
AcDbEllipse
 62
7
  6
CONTINUOUS
 10
119.5743989666
 20
155.8456674041
 30
0.0
 11
25.5
 21
-0.0
 31
0.0
 40
0.6127654169
 41
-3.0273245377
 42
-3.0067398423
  0
ELLIPSE
  5
860
100
AcDbEntity
  8
0
100
AcDbEllipse
 62
7
  6
CONTINUOUS
 10
119.5743989666
 20
158.4132718352
 30
0.0
 11
-0.0
 21
34.723400116
 31
0.0
 40
0.7343750875
 41
1.7056491381
 42
1.7180270296
  0
ELLIPSE
  5
861
100
AcDbEntity
  8
0
100
AcDbEllipse
 62
7
  6
CONTINUOUS
 10
119.5743989666
 20
162.8704740081
 30
0.0
 11
-0.0
 21
65.1066418186
 31
0.0
 40
0.3916651095
 41
-4.5651582776
 42
-4.5568938595
  0
ELLIPSE
  5
862
100
AcDbEntity
  8
0
100
AcDbEllipse
 62
7
  6
CONTINUOUS
 10
119.5743989666
 20
155.746258901
 30
0.0
 11
25.0
 21
-0.0
 31
0.0
 40
0.2042556244
 41
2.2605543809
 42
2.2926733904
  0
ELLIPSE
  5
863
100
AcDbEntity
  8
0
100
AcDbEllipse
 62
7
  6
CONTINUOUS
 10
119.5743989666
 20
149.8376877058
 30
0.0
 11
25.0
 21
0.0
 31
0.0
 40
0.5106373301
 41
2.2339305678
 42
2.2605543809
  0
ELLIPSE
  5
864
100
AcDbEntity
  8
0
100
AcDbEllipse
 62
7
  6
CONTINUOUS
 10
119.5743989666
 20
139.777166583
 30
0.0
 11
0.0
 21
25.532011482
 31
0.0
 40
0.9791629624
 41
0.6355702577
 42
0.663134241
  0
ELLIPSE
  5
865
100
AcDbEntity
  8
0
100
AcDbEllipse
 62
7
  6
CONTINUOUS
 10
119.5743989666
 20
119.2311733582
 30
0.0
 11
-0.0
 21
51.0634430575
 31
0.0
 40
0.4895870412
 41
0.6213957257
 42
0.6355702577
  0
ELLIPSE
  5
866
100
AcDbEntity
  8
0
100
AcDbEllipse
 62
7
  6
CONTINUOUS
 10
119.5743989666
 20
202.7990655748
 30
0.0
 11
-0.0
 21
51.0634519981
 31
0.0
 40
0.4895869555
 41
-3.7771629113
 42
-3.7629883793
  0
ELLIPSE
  5
867
100
AcDbEntity
  8
0
100
AcDbEllipse
 62
7
  6
CONTINUOUS
 10
119.5743989666
 20
182.2530633564
 30
0.0
 11
0.0
 21
25.5320092469
 31
0.0
 40
0.9791630482
 41
-3.8047268946
 42
-3.7771629113
  0
ELLIPSE
  5
868
100
AcDbEntity
  8
0
100
AcDbEllipse
 62
7
  6
CONTINUOUS
 10
119.5743989666
 20
172.192542674
 30
0.0
 11
25.0
 21
-0.0
 31
0.0
 40
0.510637263
 41
-2.2605543809
 42
-2.2339305678
  0
ELLIPSE
  5
869
100
AcDbEntity
  8
0
100
AcDbEllipse
 62
7
  6
CONTINUOUS
 10
119.5743989666
 20
166.2839724271
 30
0.0
 11
25.0
 21
0.0
 31
0.0
 40
0.2042556065
 41
-2.2926733904
 42
-2.2605543809
  0
ELLIPSE
  5
86A
100
AcDbEntity
  8
0
100
AcDbEllipse
 62
7
  6
CONTINUOUS
 10
119.5743989666
 20
168.6263210178
 30
0.0
 11
25.0
 21
-0.0
 31
0.0
 40
0.3404254913
 41
3.9354553377
 42
3.9534501986
  0
ELLIPSE
  5
86B
100
AcDbEntity
  8
0
100
AcDbEllipse
 62
7
  6
CONTINUOUS
 10
119.5743989666
 20
174.6949730472
 30
0.0
 11
25.0
 21
0.0
 31
0.0
 40
0.6808509827
 41
-2.3654013115
 42
-2.3477299694
  0
ELLIPSE
  5
86C
100
AcDbEntity
  8
0
100
AcDbEllipse
 62
7
  6
CONTINUOUS
 10
119.5743989666
 20
216.4304470971
 30
0.0
 11
-0.0
 21
76.5951511753
 31
0.0
 40
0.3263914179
 41
-3.9420201201
 42
-3.9361976383
  0
ELLIPSE
  5
86D
100
AcDbEntity
  8
0
100
AcDbEllipse
 62
7
  6
CONTINUOUS
 10
119.5743989666
 20
109.9614366622
 30
0.0
 11
-0.0
 21
76.5952227003
 31
0.0
 40
0.3263911132
 41
0.7946049847
 42
0.8004274665
  0
ELLIPSE
  5
86E
100
AcDbEntity
  8
0
100
AcDbEllipse
 62
7
  6
CONTINUOUS
 10
119.5743989666
 20
151.6969608202
 30
0.0
 11
25.0
 21
-0.0
 31
0.0
 40
0.6808509827
 41
2.3477299694
 42
2.3654013115
  0
ELLIPSE
  5
86F
100
AcDbEntity
  8
0
100
AcDbEllipse
 62
7
  6
CONTINUOUS
 10
119.5743989666
 20
157.7656128496
 30
0.0
 11
25.0
 21
-0.0
 31
0.0
 40
0.3404254913
 41
2.3314521404
 42
2.3477299694
  0
ELLIPSE
  5
870
100
AcDbEntity
  8
0
100
AcDbEllipse
 62
7
  6
CONTINUOUS
 10
119.5743989666
 20
142.2789079659
 30
0.0
 11
-0.0
 21
65.106632699
 31
0.0
 40
0.3916651644
 41
1.4153012059
 42
1.423565624
  0
ELLIPSE
  5
871
100
AcDbEntity
  8
0
100
AcDbEllipse
 62
7
  6
CONTINUOUS
 10
119.5743989666
 20
146.7361083551
 30
0.0
 11
0.0
 21
34.7234031558
 31
0.0
 40
0.7343750233
 41
1.423565624
 42
1.4359435155
  0
ELLIPSE
  5
872
100
AcDbEntity
  8
0
100
AcDbEllipse
 62
7
  6
CONTINUOUS
 10
119.5743989666
 20
149.303713011
 30
0.0
 11
25.5
 21
0.0
 31
0.0
 40
0.6127654705
 41
3.0067398423
 42
3.0273245377
  0
ELLIPSE
  5
873
100
AcDbEntity
  8
0
100
AcDbEllipse
 62
7
  6
CONTINUOUS
 10
119.5743989666
 20
150.4914560684
 30
0.0
 11
25.5
 21
0.0
 31
0.0
 40
0.2042553906
 41
3.0273245377
 42
3.047860685
  0
ELLIPSE
  5
874
100
AcDbEntity
  8
0
100
AcDbEllipse
 62
7
  6
CONTINUOUS
 10
119.5743989666
 20
128.2132621121
 30
0.0
 11
0.0
 21
130.213247159
 31
0.0
 40
0.1958326096
 41
1.2450668592
 42
1.250236373
  0
ELLIPSE
  5
875
100
AcDbEntity
  8
0
100
AcDbEllipse
 62
7
  6
CONTINUOUS
 10
119.5743989666
 20
152.8313164643
 30
0.0
 11
0.0
 21
52.0850099492
 31
0.0
 40
0.4895842398
 41
1.250236373
 42
1.2605490691
  0
ELLIPSE
  5
876
100
AcDbEntity
  8
0
100
AcDbEllipse
 62
7
  6
CONTINUOUS
 10
119.5743989666
 20
153.9389477434
 30
0.0
 11
0.0
 21
52.0851589657
 31
0.0
 40
0.4895828391
 41
-4.6800630816
 42
-4.6718877125
  0
ELLIPSE
  5
877
100
AcDbEntity
  8
0
100
AcDbEllipse
 62
7
  6
CONTINUOUS
 10
119.5743989666
 20
143.1527162133
 30
0.0
 11
0.0
 21
78.1270541988
 31
0.0
 40
0.3263914179
 41
1.3141651219
 42
1.3183861063
  0
ELLIPSE
  5
878
100
AcDbEntity
  8
0
100
AcDbEllipse
 62
7
  6
CONTINUOUS
 10
119.5743989666
 20
153.9922810208
 30
0.0
 11
0.0
 21
34.723400116
 31
0.0
 40
0.7343750875
 41
1.3183861063
 42
1.3310217802
  0
ELLIPSE
  5
879
100
AcDbEntity
  8
0
100
AcDbEllipse
 62
7
  6
CONTINUOUS
 10
119.5743989666
 20
157.5999929191
 30
0.0
 11
25.5
 21
0.0
 31
0.0
 40
0.7659602774
 41
2.901818107
 42
2.9186054781
  0
ELLIPSE
  5
87A
100
AcDbEntity
  8
0
100
AcDbEllipse
 62
7
  6
CONTINUOUS
 10
119.5743989666
 20
152.5329880837
 30
0.0
 11
25.5
 21
0.0
 31
0.0
 40
0.6808509827
 41
-3.1010913857
 42
-3.0888230683
  0
ELLIPSE
  5
87B
100
AcDbEntity
  8
0
100
AcDbEllipse
 62
7
  6
CONTINUOUS
 10
119.5743989666
 20
151.9606475626
 30
0.0
 11
25.5
 21
-0.0
 31
0.0
 40
0.2553189968
 41
3.1943622388
 42
3.2107327011
  0
ELLIPSE
  5
87C
100
AcDbEntity
  8
0
100
AcDbEllipse
 62
7
  6
CONTINUOUS
 10
119.5743989666
 20
160.767544895
 30
0.0
 11
25.5
 21
0.0
 31
0.0
 40
0.2042546715
 41
2.9186054781
 42
2.93950093
  0
ELLIPSE
  5
87D
100
AcDbEntity
  8
0
100
AcDbEllipse
 62
7
  6
CONTINUOUS
 10
119.5743989666
 20
160.7819175039
 30
0.0
 11
0.0
 21
26.042577203
 31
0.0
 40
0.9791657639
 41
1.2605490691
 42
1.2810738549
  0
ELLIPSE
  5
87E
100
AcDbEntity
  8
0
100
AcDbEllipse
 62
7
  6
CONTINUOUS
 10
119.5743989666
 20
165.6243889723
 30
0.0
 11
25.5
 21
0.0
 31
0.0
 40
0.2042546715
 41
-2.93950093
 42
-2.9186054781
  0
ELLIPSE
  5
87F
100
AcDbEntity
  8
0
100
AcDbEllipse
 62
7
  6
CONTINUOUS
 10
119.5743989666
 20
168.7919409483
 30
0.0
 11
25.5
 21
0.0
 31
0.0
 40
0.7659602774
 41
-2.9186054781
 42
-2.901818107
  0
ELLIPSE
  5
880
100
AcDbEntity
  8
0
100
AcDbEllipse
 62
7
  6
CONTINUOUS
 10
119.5743989666
 20
172.3996528466
 30
0.0
 11
-0.0
 21
34.723400116
 31
0.0
 40
0.7343750875
 41
-4.4726144338
 42
-4.4599787599
  0
ELLIPSE
  5
881
100
AcDbEntity
  8
0
100
AcDbEllipse
 62
7
  6
CONTINUOUS
 10
119.5743989666
 20
183.2392176541
 30
0.0
 11
-0.0
 21
78.1270541988
 31
0.0
 40
0.3263914179
 41
-4.4599787599
 42
-4.4557577755
  0
ELLIPSE
  5
882
100
AcDbEntity
  8
0
100
AcDbEllipse
 62
7
  6
CONTINUOUS
 10
119.5743989666
 20
165.6243889723
 30
0.0
 11
25.0
 21
-0.0
 31
0.0
 40
0.2042546715
 41
-2.9354014241
 42
-2.9278517394
  0
ELLIPSE
  5
883
100
AcDbEntity
  8
0
100
AcDbEllipse
 62
7
  6
CONTINUOUS
 10
119.5743989666
 20
153.1887330736
 30
0.0
 11
25.5
 21
0.0
 31
0.0
 40
0.2553189968
 41
3.0724526061
 42
3.0888230683
  0
ELLIPSE
  5
884
100
AcDbEntity
  8
0
100
AcDbEllipse
 62
7
  6
CONTINUOUS
 10
119.5743989666
 20
164.501920771
 30
0.0
 11
25.5
 21
0.0
 31
0.0
 40
0.510638791
 41
2.8518701817
 42
2.8722701232
  0
ELLIPSE
  5
885
100
AcDbEntity
  8
0
100
AcDbEllipse
 62
7
  6
CONTINUOUS
 10
119.5743989666
 20
152.5019249723
 30
0.0
 11
25.5
 21
0.0
 31
0.0
 40
0.7659569903
 41
3.0888230683
 42
3.1051793863
  0
ELLIPSE
  5
886
100
AcDbEntity
  8
0
100
AcDbEllipse
 62
7
  6
CONTINUOUS
 10
119.5743989666
 20
150.4914560684
 30
0.0
 11
25.0
 21
-0.0
 31
0.0
 40
0.2042553906
 41
3.0250288719
 42
3.0459803689
  0
ELLIPSE
  5
887
100
AcDbEntity
  8
0
100
AcDbEllipse
 62
7
  6
CONTINUOUS
 10
119.5743989666
 20
149.303713011
 30
0.0
 11
25.0
 21
0.0
 31
0.0
 40
0.6127654705
 41
3.0112232742
 42
3.0250288719
  0
ELLIPSE
  5
888
100
AcDbEntity
  8
0
100
AcDbEllipse
 62
7
  6
CONTINUOUS
 10
119.5743989666
 20
160.767544895
 30
0.0
 11
25.0
 21
0.0
 31
0.0
 40
0.2042546715
 41
2.9278517394
 42
2.9354014241
  0
ENDSEC
  0
SECTION
  2
OBJECTS
  0
DICTIONARY
  5
C
100
AcDbDictionary
280
0
281
1
  3
ACAD_GROUP
350
D
  3
ACAD_MLINESTYLE
350
17
  3
ACAD_LAYOUT
350
1A
  3
ACAD_PLOTSETTINGS
350
19
  3
ACAD_PLOTSTYLENAME
350
E
  0
DICTIONARY
  5
D
102
{ACAD_REACTORS
330
C
102
}
100
AcDbDictionary
280
0
281
1
  0
ACDBDICTIONARYWDFLT
  5
E
102
{ACAD_REACTORS
330
C
102
}
100
AcDbDictionary
281
1
  3
Normal
350
F
100
AcDbDictionaryWithDefault
340
F
  0
DICTIONARY
  5
17
102
{ACAD_REACTORS
330
C
102
}
100
AcDbDictionary
280
0
281
1
  3
Standard
350
18
  0
DICTIONARY
  5
19
102
{ACAD_REACTORS
330
C
102
}
100
AcDbDictionary
281
1
  0
DICTIONARY
  5
1A
102
{ACAD_REACTORS
330
C
102
}
100
AcDbDictionary
281
1
  3
Model
350
889
  3
Layout1
350
88A
  0
ACDBPLACEHOLDER
  5
F
102
{ACAD_REACTORS
330
E
102
}
  0
MLINESTYLE
  5
18
102
{ACAD_REACTORS
330
17
102
}
100
AcDbMlineStyle
  2
STANDARD
 70
0
  3

 62
256
 51
90.0
 52
90.0
 71
2
 49
0.5
 62
256
  6
BYLAYER
 49
-0.5
 62
256
  6
BYLAYER
  0
LAYOUT
  5
889
102
{ACAD_REACTORS
330
1A
102
}
100
AcDbPlotSettings
  1

  2
none_device
  4
ISO_A3_(420.00_x_297.00_MM)
  6

 40
0.0
 41
0.0
 42
0.0
 43
0.0
 44
420.0
 45
297.0
 46
0.0
 47
0.0
 48
0.0
 49
0.0
140
0.0
141
0.0
142
1.0
143
1.0
 70
1024
 72
1
 73
0
 74
0
  7

 75
0
147
1.0
148
0.0
149
0.0
100
AcDbLayout
  1
Model
 70
0
 71
0
 10
0.0
 20
0.0
 11
420.0
 21
297.0
 12
0.0
 22
0.0
 32
0.0
 14
0.0
 24
0.0
 34
0.0
 15
0.0
 25
0.0
 35
0.0
146
0.0
 13
0.0
 23
0.0
 33
0.0
 16
1.0
 26
0.0
 36
0.0
 17
0.0
 27
1.0
 37
0.0
 76
0
330
20E
345
0
346
0
  0
LAYOUT
  5
88A
102
{ACAD_REACTORS
330
1A
102
}
100
AcDbPlotSettings
  1

  2
none_device
  4
ISO_A3_(420.00_x_297.00_MM)
  6

 40
0.0
 41
0.0
 42
0.0
 43
0.0
 44
420.0
 45
297.0
 46
0.0
 47
0.0
 48
0.0
 49
0.0
140
0.0
141
0.0
142
1.0
143
1.0
 70
0
 72
1
 73
0
 74
0
  7

 75
0
147
1.0
148
0.0
149
0.0
100
AcDbLayout
  1
Layout1
 70
0
 71
1
 10
0.0
 20
0.0
 11
420.0
 21
297.0
 12
0.0
 22
0.0
 32
0.0
 14
0.0
 24
0.0
 34
0.0
 15
0.0
 25
0.0
 35
0.0
146
0.0
 13
0.0
 23
0.0
 33
0.0
 16
1.0
 26
0.0
 36
0.0
 17
0.0
 27
1.0
 37
0.0
 76
0
330
20F
345
0
346
0
  0
ENDSEC
  0
EOF
