999
DXF file: 001-m35334-p-1.dxf
999
Pro/ENGINEER 2011490 by Parametric Technology Corporation
  0
SECTION
  2
HEADER
  9
$ACADVER
  1
AC1015
  9
$DWGCODEPAGE
  3
ANSI_1252
  9
$EXTMAX
 10
420.0
 20
297.0
 30
0.0
  9
$EXTMIN
 10
0.0
 20
0.0
 30
0.0
  9
$LIMMIN
 10
0.0
 20
0.0
  9
$LIMMAX
 10
420.0
 20
297.0
  9
$VIEWCTR
 10
210.0
 20
148.5
  9
$VIEWSIZE
 40
297.0
  9
$CLAYER
  8
0
  9
$LTSCALE
 40
23.1
  9
$CELTYPE
  6
BYLAYER
  9
$DIMSCALE
 40
1.0
  9
$DIMASZ
 40
3.5
  9
$DIMEXO
 40
2.625
  9
$DIMDLI
 40
15.96
  9
$DIMEXE
 40
7.56
  9
$DIMCEN
 40
3.78
  9
$DIMLFAC
 40
1.0
  9
$DIMBLK
  1
_FILLED
  9
$DIMTXT
 40
3.5
  9
$DIMTOL
 70
1
  9
$DIMLIM
 70
0
  9
$DIMTFAC
 40
1.0
  9
$DIMTP
 40
0.005
  9
$DIMTM
 40
0.005
  9
$PDMODE
 70
3
  9
$PDSIZE
 40
0.3125
  9
$HANDSEED
  5
8AC
  9
$TILEMODE
 70
1
  9
$MEASUREMENT
 70
1
  9
$INSUNITS
 70
4
  0
ENDSEC
  0
SECTION
  2
CLASSES
  0
CLASS
  1
ACDBDICTIONARYWDFLT
  2
AcDbDictionaryWithDefault
  3
AutoCAD 2000
 90
0
280
0
281
0
  0
CLASS
  1
ACDBPLACEHOLDER
  2
AcDbPlaceHolder
  3
AutoCAD 2000
 90
0
280
0
281
0
  0
CLASS
  1
LAYOUT
  2
AcDbLayout
  3
AutoCAD 2000
 90
0
280
0
281
0
  0
ENDSEC
  0
SECTION
  2
TABLES
  0
TABLE
  2
VPORT
  5
8
100
AcDbSymbolTable
 70
2
  0
VPORT
  5
1F4
100
AcDbSymbolTableRecord
100
AcDbViewportTableRecord
  2
*ACTIVE
 70
0
 10
0.0
 20
0.0
 11
1.0
 21
1.0
 12
210.0
 22
148.5
 13
0.0
 23
0.0
 14
1.0
 24
1.0
 15
0.0
 25
0.0
 16
0.0
 26
0.0
 36
1.0
 17
0.0
 27
0.0
 37
0.0
 40
297.0
 41
1.4141414141
 42
50.0
 43
0.0
 44
0.0
 50
0.0
 51
0.0
 71
0
 72
100
 73
1
 74
1
 75
0
 76
0
 77
0
 78
0
  0
ENDTAB
  0
TABLE
  2
LTYPE
  5
5
100
AcDbSymbolTable
 70
6
  0
LTYPE
  5
14
100
AcDbSymbolTableRecord
100
AcDbLinetypeTableRecord
  2
BYBLOCK
 70
0
  3

 72
65
 73
0
 40
0.0
  0
LTYPE
  5
15
100
AcDbSymbolTableRecord
100
AcDbLinetypeTableRecord
  2
BYLAYER
 70
0
  3

 72
65
 73
0
 40
0.0
  0
LTYPE
  5
16
100
AcDbSymbolTableRecord
100
AcDbLinetypeTableRecord
  2
CONTINUOUS
 70
64
  3
Solid line
 72
65
 73
0
 40
0.0
  0
LTYPE
  5
1F5
100
AcDbSymbolTableRecord
100
AcDbLinetypeTableRecord
  2
CENTER
 70
64
  3
____ _ ____ _ ____ _ ____ _ ____ _ ____ _ ____
 72
65
 73
4
 40
0.6
 49
0.375
 74
0
 49
-0.075
 74
0
 49
0.075
 74
0
 49
-0.075
 74
0
  0
LTYPE
  5
1F6
100
AcDbSymbolTableRecord
100
AcDbLinetypeTableRecord
  2
HIDDEN
 70
64
  3
- - - - - - - - - - - - - - - - - - - -
 72
65
 73
2
 40
0.2
 49
0.1
 74
0
 49
-0.1
 74
0
  0
LTYPE
  5
1F7
100
AcDbSymbolTableRecord
100
AcDbLinetypeTableRecord
  2
PHANTOM
 70
64
  3
_____ _ _ _____ _ _ _____ _ _ _____
 72
65
 73
6
 40
0.8
 49
0.45
 74
0
 49
-0.05
 74
0
 49
0.1
 74
0
 49
-0.05
 74
0
 49
0.1
 74
0
 49
-0.05
 74
0
  0
LTYPE
  5
1F8
100
AcDbSymbolTableRecord
100
AcDbLinetypeTableRecord
  2
DOT
 70
64
  3
. . . . . . . . . . . . . . . . . . . .
 72
65
 73
2
 40
0.2
 49
0.1
 74
0
 49
-0.1
 74
0
  0
LTYPE
  5
1F9
100
AcDbSymbolTableRecord
100
AcDbLinetypeTableRecord
  2
DASHED
 70
64
  3
- - - - - - - - - - - - - - - - - - - -
 72
65
 73
2
 40
0.2
 49
0.1
 74
0
 49
-0.1
 74
0
  0
ENDTAB
  0
TABLE
  2
LAYER
  5
2
100
AcDbSymbolTable
 70
36
  0
LAYER
  5
10
100
AcDbSymbolTableRecord
100
AcDbLayerTableRecord
  2
0
 70
0
 62
7
  6
CONTINUOUS
370
-3
390
F
  0
LAYER
  5
1FA
100
AcDbSymbolTableRecord
100
AcDbLayerTableRecord
  2
DEFAULT_1
 70
0
 62
7
  6
CENTER
370
-3
390
F
  0
LAYER
  5
1FB
100
AcDbSymbolTableRecord
100
AcDbLayerTableRecord
  2
DEFAULT_2
 70
0
 62
8
  6
HIDDEN
370
-3
390
F
  0
LAYER
  5
1FC
100
AcDbSymbolTableRecord
100
AcDbLayerTableRecord
  2
DEFAULT_3
 70
0
 62
7
  6
PHANTOM
370
-3
390
F
  0
LAYER
  5
1FD
100
AcDbSymbolTableRecord
100
AcDbLayerTableRecord
  2
AUSFORMSCHRAEGEN
 70
0
 62
7
  6
CONTINUOUS
370
-3
390
F
  0
LAYER
  5
1FE
100
AcDbSymbolTableRecord
100
AcDbLayerTableRecord
  2
BEZUGSACHSEN
 70
0
 62
7
  6
CONTINUOUS
370
-3
390
F
  0
LAYER
  5
1FF
100
AcDbSymbolTableRecord
100
AcDbLayerTableRecord
  2
BEZUGSEBENEN
 70
0
 62
7
  6
CONTINUOUS
370
-3
390
F
  0
LAYER
  5
200
100
AcDbSymbolTableRecord
100
AcDbLayerTableRecord
  2
BG_STARTBEZUEGE
 70
0
 62
7
  6
CONTINUOUS
370
-3
390
F
  0
LAYER
  5
201
100
AcDbSymbolTableRecord
100
AcDbLayerTableRecord
  2
BOHRUNGEN
 70
0
 62
7
  6
CONTINUOUS
370
-3
390
F
  0
LAYER
  5
202
100
AcDbSymbolTableRecord
100
AcDbLayerTableRecord
  2
FASEN
 70
0
 62
7
  6
CONTINUOUS
370
-3
390
F
  0
LAYER
  5
203
100
AcDbSymbolTableRecord
100
AcDbLayerTableRecord
  2
GEWINDE
 70
0
 62
7
  6
CONTINUOUS
370
-3
390
F
  0
LAYER
  5
204
100
AcDbSymbolTableRecord
100
AcDbLayerTableRecord
  2
HILFEN
 70
0
 62
7
  6
CONTINUOUS
370
-3
390
F
  0
LAYER
  5
205
100
AcDbSymbolTableRecord
100
AcDbLayerTableRecord
  2
KONSTRUKTIONSELEMENTE
 70
0
 62
7
  6
CONTINUOUS
370
-3
390
F
  0
LAYER
  5
206
100
AcDbSymbolTableRecord
100
AcDbLayerTableRecord
  2
KURVEN
 70
0
 62
7
  6
CONTINUOUS
370
-3
390
F
  0
LAYER
  5
207
100
AcDbSymbolTableRecord
100
AcDbLayerTableRecord
  2
NORM
 70
0
 62
7
  6
CONTINUOUS
370
-3
390
F
  0
LAYER
  5
208
100
AcDbSymbolTableRecord
100
AcDbLayerTableRecord
  2
PLATZIERUNG
 70
0
 62
7
  6
CONTINUOUS
370
-3
390
F
  0
LAYER
  5
209
100
AcDbSymbolTableRecord
100
AcDbLayerTableRecord
  2
PLAZIERUNG
 70
0
 62
7
  6
CONTINUOUS
370
-3
390
F
  0
LAYER
  5
20A
100
AcDbSymbolTableRecord
100
AcDbLayerTableRecord
  2
RUNDUNGEN
 70
0
 62
7
  6
CONTINUOUS
370
-3
390
F
  0
LAYER
  5
20B
100
AcDbSymbolTableRecord
100
AcDbLayerTableRecord
  2
TEIL_STARTBEZUEGE
 70
0
 62
7
  6
CONTINUOUS
370
-3
390
F
  0
LAYER
  5
20C
100
AcDbSymbolTableRecord
100
AcDbLayerTableRecord
  2
XSEC_DATUMS
 70
0
 62
7
  6
CONTINUOUS
370
-3
390
F
  0
LAYER
  5
20D
100
AcDbSymbolTableRecord
100
AcDbLayerTableRecord
  2
ZEICHNUNGSBEMASSUNGEN
 70
0
 62
7
  6
CONTINUOUS
370
-3
390
F
  0
ENDTAB
  0
TABLE
  2
STYLE
  5
3
100
AcDbSymbolTable
 70
1
  0
STYLE
  5
11
100
AcDbSymbolTableRecord
100
AcDbTextStyleTableRecord
  2
STANDARD
 70
0
 40
0.0
 41
0.7
 50
0.0
 71
0
 42
0.2
  3
txt
  4

  0
STYLE
  5
20E
100
AcDbSymbolTableRecord
100
AcDbTextStyleTableRecord
  2
TEXTSTYLE_1
 70
0
 40
0.0
 41
0.8
 50
0.0
 71
0
 42
0.2
  3
gdt
  4

  0
ENDTAB
  0
TABLE
  2
VIEW
  5
6
100
AcDbSymbolTable
 70
0
  0
ENDTAB
  0
TABLE
  2
UCS
  5
7
100
AcDbSymbolTable
 70
0
  0
ENDTAB
  0
TABLE
  2
APPID
  5
9
100
AcDbSymbolTable
 70
1
  0
APPID
  5
20F
100
AcDbSymbolTableRecord
100
AcDbRegAppTableRecord
  2
ACAD
 70
0
  0
ENDTAB
  0
TABLE
  2
BLOCK_RECORD
  5
1
100
AcDbSymbolTable
 70
0
  0
BLOCK_RECORD
  5
210
100
AcDbSymbolTableRecord
100
AcDbBlockTableRecord
  2
*Model_Space
  0
BLOCK_RECORD
  5
211
100
AcDbSymbolTableRecord
100
AcDbBlockTableRecord
  2
*Paper_Space
  0
ENDTAB
  0
TABLE
  2
DIMSTYLE
  5
A
100
AcDbSymbolTable
 70
1
100
AcDbDimStyleTable
 71
0
  0
DIMSTYLE
105
212
100
AcDbSymbolTableRecord
100
AcDbDimStyleTableRecord
  2
STANDARD
 70
0
  3

  4

 40
1.0
 41
3.5
 42
0.0625
 43
0.38
 44
0.18
 45
0.0
 46
0.0
 47
0.005
 48
0.005
140
3.5
141
0.09
142
0.0
143
25.4
144
1.0
145
0.0
146
1.0
147
0.09
 71
1.0
 72
0.0
 73
0
 74
0
 75
0
 76
0
 77
1
 78
8
170
0
171
2
172
0
173
0
174
0
175
0
176
0
177
0
178
5
270
2
271
3
272
3
273
2
274
2
275
0
280
0
281
0
282
0
283
1
284
8
285
0
286
0
287
3
288
0
340
11
  0
ENDTAB
  0
ENDSEC
  0
SECTION
  2
BLOCKS
  0
BLOCK
  5
20
100
AcDbEntity
  8
0
100
AcDbBlockBegin
  2
*Model_Space
 70
0
 10
0.0
 20
0.0
 30
0.0
  3
*Model_Space
  1

  0
ENDBLK
  5
21
100
AcDbEntity
  8
0
100
AcDbBlockEnd
  0
BLOCK
  5
1C
100
AcDbEntity
  8
0
100
AcDbBlockBegin
  2
*Paper_Space
 70
0
 10
0.0
 20
0.0
 30
0.0
  3
*Paper_Space
  1

  0
ENDBLK
  5
1D
100
AcDbEntity
  8
0
100
AcDbBlockEnd
  0
ENDSEC
  0
SECTION
  2
ENTITIES
  0
MTEXT
  5
213
100
AcDbEntity
  8
0
100
AcDbMText
 62
5
  6
CONTINUOUS
  7
STANDARD
 71
1
 72
1
 10
149.6230020424
 20
174.4605923582
 30
0.0
 11
0.0
 21
1.0
 31
0.0
 44
0.9
  1
RUD VLBG-PLUS 3,5t
 40
5.0
 41
67.8571428571
  0
MTEXT
  5
214
100
AcDbEntity
  8
0
100
AcDbMText
 62
5
  6
CONTINUOUS
  7
STANDARD
 71
1
 72
1
 10
150.1421218566
 20
21.1790166763
 30
0.0
 11
0.0
 21
1.0
 31
0.0
 44
0.9
  1
VLBG-PLUS 3,5t
 40
5.0
 41
51.5476190476
  0
LINE
  5
215
100
AcDbEntity
  8
0
100
AcDbLine
 62
7
  6
CONTINUOUS
 10
0.0
 20
0.0
 11
0.0
 21
297.0
  0
LINE
  5
216
100
AcDbEntity
  8
0
100
AcDbLine
 62
7
  6
CONTINUOUS
 10
0.0
 20
0.0
 11
420.0
 21
0.0
  0
LINE
  5
217
100
AcDbEntity
  8
0
100
AcDbLine
 62
7
  6
CONTINUOUS
 10
0.0
 20
297.0
 11
420.0
 21
297.0
  0
LINE
  5
218
100
AcDbEntity
  8
0
100
AcDbLine
 62
7
  6
CONTINUOUS
 10
420.0
 20
0.0
 11
420.0
 21
297.0
  0
LINE
  5
219
100
AcDbEntity
  8
BEZUGSACHSEN
100
AcDbLine
 62
7
  6
CONTINUOUS
 10
118.1428544345
 20
109.0199722607
 11
135.1428544345
 21
109.0199722607
  0
LINE
  5
21A
100
AcDbEntity
  8
BEZUGSACHSEN
100
AcDbLine
 62
7
  6
CONTINUOUS
 10
116.6428544345
 20
110.5199722607
 11
136.6428544345
 21
110.5199722607
  0
LINE
  5
21B
100
AcDbEntity
  8
BEZUGSACHSEN
100
AcDbLine
 62
7
  6
CONTINUOUS
 10
116.6428544345
 20
110.5199722607
 11
118.1428544345
 21
109.0199722607
  0
LINE
  5
21C
100
AcDbEntity
  8
0
100
AcDbLine
 62
7
  6
CONTINUOUS
 10
149.1428544345
 20
141.2199722607
 11
104.1428544345
 21
141.2199722607
  0
LINE
  5
21D
100
AcDbEntity
  8
0
100
AcDbLine
 62
7
  6
CONTINUOUS
 10
149.1428544345
 20
146.4199722607
 11
104.1428544345
 21
146.4199722607
  0
LINE
  5
21E
100
AcDbEntity
  8
RUNDUNGEN
100
AcDbLine
 62
7
  6
CONTINUOUS
 10
151.6428544345
 20
146.6199722607
 11
100.6431240705
 21
146.6199722607
  0
LINE
  5
21F
100
AcDbEntity
  8
0
100
AcDbLine
 62
7
  6
CONTINUOUS
 10
98.1428544345
 20
162.2484828324
 11
98.1428544345
 21
162.7803978116
  0
LINE
  5
220
100
AcDbEntity
  8
0
100
AcDbLine
 62
7
  6
CONTINUOUS
 10
98.1428544345
 20
169.3057169385
 11
98.1428544345
 21
169.7844403443
  0
LINE
  5
221
100
AcDbEntity
  8
0
100
AcDbLine
 62
7
  6
CONTINUOUS
 10
98.1428544345
 20
154.4340148456
 11
98.1428544345
 21
157.1999722607
  0
LINE
  5
222
100
AcDbEntity
  8
0
100
AcDbLine
 62
7
  6
CONTINUOUS
 10
98.1537396009
 20
162.2484828324
 11
98.1537396009
 21
162.7803978116
  0
LINE
  5
223
100
AcDbEntity
  8
0
100
AcDbLine
 62
7
  6
CONTINUOUS
 10
98.1638675114
 20
170.7418871058
 11
98.1638675114
 21
173.7099722607
  0
LINE
  5
224
100
AcDbEntity
  8
0
100
AcDbLine
 62
7
  6
CONTINUOUS
 10
98.1917470638
 20
160.4399722607
 11
98.1917470638
 21
165.4399722607
  0
LINE
  5
225
100
AcDbEntity
  8
0
100
AcDbLine
 62
7
  6
CONTINUOUS
 10
98.1929429774
 20
170.7418871058
 11
98.1929429774
 21
173.7099722607
  0
LINE
  5
226
100
AcDbEntity
  8
0
100
AcDbLine
 62
7
  6
CONTINUOUS
 10
98.2382224607
 20
160.4399722607
 11
98.2382224607
 21
162.6740148456
  0
LINE
  5
227
100
AcDbEntity
  8
0
100
AcDbLine
 62
7
  6
CONTINUOUS
 10
98.2382224607
 20
163.3123126418
 11
98.2382224607
 21
164.9080574305
  0
LINE
  5
228
100
AcDbEntity
  8
0
100
AcDbLine
 62
7
  6
CONTINUOUS
 10
98.2511383887
 20
169.2099722607
 11
98.2511383887
 21
173.7099722607
  0
LINE
  5
229
100
AcDbEntity
  8
0
100
AcDbLine
 62
7
  6
CONTINUOUS
 10
98.3094397417
 20
169.7844403443
 11
98.3094397417
 21
173.135504244
  0
LINE
  5
22A
100
AcDbEntity
  8
0
100
AcDbLine
 62
7
  6
CONTINUOUS
 10
98.3117451023
 20
153.4765680022
 11
98.3117451023
 21
153.7957169003
  0
LINE
  5
22B
100
AcDbEntity
  8
0
100
AcDbLine
 62
7
  6
CONTINUOUS
 10
98.3334188557
 20
153.6893339343
 11
98.3334188557
 21
153.9020998663
  0
LINE
  5
22C
100
AcDbEntity
  8
0
100
AcDbLine
 62
7
  6
CONTINUOUS
 10
98.3738005274
 20
156.6680574305
 11
98.3738005274
 21
157.1999722607
  0
LINE
  5
22D
100
AcDbEntity
  8
0
100
AcDbLine
 62
7
  6
CONTINUOUS
 10
98.4029070544
 20
153.5829509682
 11
98.4029070544
 21
154.0084828324
  0
LINE
  5
22E
100
AcDbEntity
  8
0
100
AcDbLine
 62
7
  6
CONTINUOUS
 10
98.5369521586
 20
155.1786956079
 11
98.5369521586
 21
155.604227472
  0
LINE
  5
22F
100
AcDbEntity
  8
0
100
AcDbLine
 62
7
  6
CONTINUOUS
 10
98.6001320636
 20
163.9506104381
 11
98.6001320636
 21
164.2697596342
  0
LINE
  5
230
100
AcDbEntity
  8
0
100
AcDbLine
 62
7
  6
CONTINUOUS
 10
98.6428544345
 20
148.6199722607
 11
98.6428544345
 21
152.1999722607
  0
LINE
  5
231
100
AcDbEntity
  8
0
100
AcDbLine
 62
7
  6
CONTINUOUS
 10
98.6428544345
 20
157.1999722607
 11
98.6428544345
 21
160.4399722607
  0
LINE
  5
232
100
AcDbEntity
  8
0
100
AcDbLine
 62
7
  6
CONTINUOUS
 10
98.6428544345
 20
165.4399722607
 11
98.6428544345
 21
169.2099722607
  0
LINE
  5
233
100
AcDbEntity
  8
0
100
AcDbLine
 62
7
  6
CONTINUOUS
 10
98.6428544345
 20
173.7099722607
 11
98.6428544345
 21
176.6199722607
  0
LINE
  5
234
100
AcDbEntity
  8
0
100
AcDbLine
 62
7
  6
CONTINUOUS
 10
98.6461081986
 20
155.604227472
 11
98.6461081986
 21
156.6680574305
  0
LINE
  5
235
100
AcDbEntity
  8
0
100
AcDbLine
 62
7
  6
CONTINUOUS
 10
98.6995419671
 20
153.0510360635
 11
98.6995419671
 21
155.1786956079
  0
LINE
  5
236
100
AcDbEntity
  8
0
100
AcDbLine
 62
7
  6
CONTINUOUS
 10
98.6995419671
 20
155.604227472
 11
98.6995419671
 21
156.4552914984
  0
LINE
  5
237
100
AcDbEntity
  8
0
100
AcDbLine
 62
7
  6
CONTINUOUS
 10
98.7282413781
 20
163.844227472
 11
98.7282413781
 21
164.2697596342
  0
LINE
  5
238
100
AcDbEntity
  8
0
100
AcDbLine
 62
7
  6
CONTINUOUS
 10
98.7401371988
 20
160.4399722607
 11
98.7401371988
 21
162.6740148456
  0
LINE
  5
239
100
AcDbEntity
  8
0
100
AcDbLine
 62
7
  6
CONTINUOUS
 10
98.7508119519
 20
170.7418871058
 11
98.7508119519
 21
172.1780572814
  0
LINE
  5
23A
100
AcDbEntity
  8
0
100
AcDbLine
 62
7
  6
CONTINUOUS
 10
98.8159013392
 20
153.2638020701
 11
98.8159013392
 21
155.1786956079
  0
LINE
  5
23B
100
AcDbEntity
  8
0
100
AcDbLine
 62
7
  6
CONTINUOUS
 10
98.8159013392
 20
155.604227472
 11
98.8159013392
 21
156.4552914984
  0
LINE
  5
23C
100
AcDbEntity
  8
0
100
AcDbLine
 62
7
  6
CONTINUOUS
 10
98.8784629548
 20
156.6680574305
 11
98.8784629548
 21
157.1999722607
  0
LINE
  5
23D
100
AcDbEntity
  8
0
100
AcDbLine
 62
7
  6
CONTINUOUS
 10
98.8825939732
 20
170.7418871058
 11
98.8825939732
 21
172.1780572814
  0
LINE
  5
23E
100
AcDbEntity
  8
0
100
AcDbLine
 62
7
  6
CONTINUOUS
 10
98.924655823
 20
160.4399722607
 11
98.924655823
 21
165.4399722607
  0
LINE
  5
23F
100
AcDbEntity
  8
0
100
AcDbLine
 62
7
  6
CONTINUOUS
 10
98.1915921882
 20
151.5616743899
 11
98.6428544345
 21
151.5616743899
  0
LINE
  5
240
100
AcDbEntity
  8
0
100
AcDbLine
 62
7
  6
CONTINUOUS
 10
98.1838290211
 20
152.1999722607
 11
98.7286998232
 21
152.1999722607
  0
LINE
  5
241
100
AcDbEntity
  8
0
100
AcDbLine
 62
7
  6
CONTINUOUS
 10
99.0545199291
 20
152.1999722607
 11
99.5734507496
 21
152.1999722607
  0
LINE
  5
242
100
AcDbEntity
  8
0
100
AcDbLine
 62
7
  6
CONTINUOUS
 10
98.2748118678
 20
152.306355236
 11
98.7774651621
 21
152.306355236
  0
LINE
  5
243
100
AcDbEntity
  8
0
100
AcDbLine
 62
7
  6
CONTINUOUS
 10
98.3334188557
 20
152.6255041621
 11
98.7447130631
 21
152.6255041621
  0
LINE
  5
244
100
AcDbEntity
  8
0
100
AcDbLine
 62
7
  6
CONTINUOUS
 10
99.0545199291
 20
152.6255041621
 11
99.5734507496
 21
152.6255041621
  0
LINE
  5
245
100
AcDbEntity
  8
0
100
AcDbLine
 62
7
  6
CONTINUOUS
 10
98.1838290211
 20
152.7318871654
 11
98.2270109506
 21
152.7318871654
  0
LINE
  5
246
100
AcDbEntity
  8
0
100
AcDbLine
 62
7
  6
CONTINUOUS
 10
98.9172807537
 20
152.7318871654
 11
99.4332696829
 21
152.7318871654
  0
LINE
  5
247
100
AcDbEntity
  8
0
100
AcDbLine
 62
7
  6
CONTINUOUS
 10
98.1635975583
 20
152.8382701314
 11
98.2643893923
 21
152.8382701314
  0
LINE
  5
248
100
AcDbEntity
  8
0
100
AcDbLine
 62
7
  6
CONTINUOUS
 10
98.8405510332
 20
152.9446530975
 11
99.3549098115
 21
152.9446530975
  0
LINE
  5
249
100
AcDbEntity
  8
0
100
AcDbLine
 62
7
  6
CONTINUOUS
 10
98.1529038084
 20
153.0510360635
 11
98.2969540785
 21
153.0510360635
  0
LINE
  5
24A
100
AcDbEntity
  8
0
100
AcDbLine
 62
7
  6
CONTINUOUS
 10
98.3738005274
 20
153.0510360635
 11
98.6995419671
 21
153.0510360635
  0
LINE
  5
24B
100
AcDbEntity
  8
0
100
AcDbLine
 62
7
  6
CONTINUOUS
 10
98.8159013392
 20
153.2638020701
 11
99.3297386326
 21
153.2638020701
  0
LINE
  5
24C
100
AcDbEntity
  8
0
100
AcDbLine
 62
7
  6
CONTINUOUS
 10
98.1479050573
 20
153.4765680022
 11
98.3249806963
 21
153.4765680022
  0
LINE
  5
24D
100
AcDbEntity
  8
0
100
AcDbLine
 62
7
  6
CONTINUOUS
 10
98.4029070544
 20
153.5829509682
 11
98.6995419671
 21
153.5829509682
  0
LINE
  5
24E
100
AcDbEntity
  8
0
100
AcDbLine
 62
7
  6
CONTINUOUS
 10
98.3117451023
 20
153.7957169003
 11
98.3334188557
 21
153.7957169003
  0
LINE
  5
24F
100
AcDbEntity
  8
0
100
AcDbLine
 62
7
  6
CONTINUOUS
 10
98.4029070544
 20
154.0084828324
 11
98.6995419671
 21
154.0084828324
  0
LINE
  5
250
100
AcDbEntity
  8
0
100
AcDbLine
 62
7
  6
CONTINUOUS
 10
152.2214849193
 20
154.3699722607
 11
152.0642239498
 21
154.3699722607
  0
LINE
  5
251
100
AcDbEntity
  8
0
100
AcDbLine
 62
7
  6
CONTINUOUS
 10
98.150191497
 20
154.4340148456
 11
98.3047317973
 21
154.4340148456
  0
LINE
  5
252
100
AcDbEntity
  8
0
100
AcDbLine
 62
7
  6
CONTINUOUS
 10
98.3738005274
 20
154.5403978116
 11
98.6995419671
 21
154.5403978116
  0
LINE
  5
253
100
AcDbEntity
  8
0
100
AcDbLine
 62
7
  6
CONTINUOUS
 10
99.0545199291
 20
152.1999722607
 11
99.0545199291
 21
152.6255041621
  0
LINE
  5
254
100
AcDbEntity
  8
0
100
AcDbLine
 62
7
  6
CONTINUOUS
 10
99.091552495
 20
161.0782701314
 11
99.091552495
 21
165.4399722607
  0
LINE
  5
255
100
AcDbEntity
  8
0
100
AcDbLine
 62
7
  6
CONTINUOUS
 10
99.1127268271
 20
155.1786956079
 11
99.1127268271
 21
155.604227472
  0
LINE
  5
256
100
AcDbEntity
  8
0
100
AcDbLine
 62
7
  6
CONTINUOUS
 10
99.3297386326
 20
153.2638020701
 11
99.3297386326
 21
155.1786956079
  0
LINE
  5
257
100
AcDbEntity
  8
0
100
AcDbLine
 62
7
  6
CONTINUOUS
 10
99.3297386326
 20
155.604227472
 11
99.3297386326
 21
156.4552914984
  0
LINE
  5
258
100
AcDbEntity
  8
0
100
AcDbLine
 62
7
  6
CONTINUOUS
 10
99.3978446777
 20
170.7418871058
 11
99.3978446777
 21
172.1780572814
  0
LINE
  5
259
100
AcDbEntity
  8
0
100
AcDbLine
 62
7
  6
CONTINUOUS
 10
99.5734507496
 20
152.1999722607
 11
99.5734507496
 21
152.6255041621
  0
LINE
  5
25A
100
AcDbEntity
  8
0
100
AcDbLine
 62
7
  6
CONTINUOUS
 10
99.6112829727
 20
161.0782701314
 11
99.6112829727
 21
165.4399722607
  0
LINE
  5
25B
100
AcDbEntity
  8
0
100
AcDbLine
 62
7
  6
CONTINUOUS
 10
99.63291565
 20
155.1786956079
 11
99.63291565
 21
155.604227472
  0
LINE
  5
25C
100
AcDbEntity
  8
0
100
AcDbLine
 62
7
  6
CONTINUOUS
 10
100.1922020223
 20
160.4399722607
 11
100.1922020223
 21
161.0782701314
  0
LINE
  5
25D
100
AcDbEntity
  8
0
100
AcDbLine
 62
7
  6
CONTINUOUS
 10
100.5659056459
 20
162.1420998663
 11
100.5659056459
 21
165.4399722607
  0
LINE
  5
25E
100
AcDbEntity
  8
0
100
AcDbLine
 62
7
  6
CONTINUOUS
 10
100.73689236
 20
160.4399722607
 11
100.73689236
 21
161.0782701314
  0
LINE
  5
25F
100
AcDbEntity
  8
0
100
AcDbLine
 62
7
  6
CONTINUOUS
 10
100.8702067829
 20
162.1420998663
 11
100.8702067829
 21
165.4399722607
  0
LINE
  5
260
100
AcDbEntity
  8
0
100
AcDbLine
 62
7
  6
CONTINUOUS
 10
101.4315176655
 20
162.1420998663
 11
101.4315176655
 21
165.4399722607
  0
LINE
  5
261
100
AcDbEntity
  8
0
100
AcDbLine
 62
7
  6
CONTINUOUS
 10
102.3127666766
 20
162.1420998663
 11
102.3127666766
 21
165.4399722607
  0
LINE
  5
262
100
AcDbEntity
  8
0
100
AcDbLine
 62
7
  6
CONTINUOUS
 10
102.735575572
 20
162.1420998663
 11
102.735575572
 21
165.4399722607
  0
LINE
  5
263
100
AcDbEntity
  8
0
100
AcDbLine
 62
7
  6
CONTINUOUS
 10
103.3484140768
 20
162.1420998663
 11
103.3484140768
 21
165.4399722607
  0
LINE
  5
264
100
AcDbEntity
  8
0
100
AcDbLine
 62
7
  6
CONTINUOUS
 10
103.584315729
 20
163.844227472
 11
103.584315729
 21
164.2697596342
  0
LINE
  5
265
100
AcDbEntity
  8
0
100
AcDbLine
 62
7
  6
CONTINUOUS
 10
104.0910488913
 20
163.9506104381
 11
104.0910488913
 21
164.1633763701
  0
LINE
  5
266
100
AcDbEntity
  8
0
100
AcDbLine
 62
7
  6
CONTINUOUS
 10
104.1428544345
 20
184.0199722607
 11
104.1428544345
 21
178.8199722607
  0
LINE
  5
267
100
AcDbEntity
  8
0
100
AcDbLine
 62
7
  6
CONTINUOUS
 10
104.1428544345
 20
146.4199722607
 11
104.1428544345
 21
141.2199722607
  0
LINE
  5
268
100
AcDbEntity
  8
0
100
AcDbLine
 62
7
  6
CONTINUOUS
 10
98.1635975583
 20
154.7531637437
 11
98.2643893923
 21
154.7531637437
  0
LINE
  5
269
100
AcDbEntity
  8
0
100
AcDbLine
 62
7
  6
CONTINUOUS
 10
98.1838290211
 20
154.8595467097
 11
98.2270109506
 21
154.8595467097
  0
LINE
  5
26A
100
AcDbEntity
  8
0
100
AcDbLine
 62
7
  6
CONTINUOUS
 10
98.3334188557
 20
154.9659296758
 11
98.6995419671
 21
154.9659296758
  0
LINE
  5
26B
100
AcDbEntity
  8
0
100
AcDbLine
 62
7
  6
CONTINUOUS
 10
98.5369521586
 20
155.1786956079
 11
98.6995419671
 21
155.1786956079
  0
LINE
  5
26C
100
AcDbEntity
  8
0
100
AcDbLine
 62
7
  6
CONTINUOUS
 10
98.8159013392
 20
155.1786956079
 11
99.63291565
 21
155.1786956079
  0
LINE
  5
26D
100
AcDbEntity
  8
0
100
AcDbLine
 62
7
  6
CONTINUOUS
 10
98.2748118678
 20
155.2850785739
 11
98.5369521586
 21
155.2850785739
  0
LINE
  5
26E
100
AcDbEntity
  8
0
100
AcDbLine
 62
7
  6
CONTINUOUS
 10
98.1838290211
 20
155.3914615399
 11
98.5369521586
 21
155.3914615399
  0
LINE
  5
26F
100
AcDbEntity
  8
0
100
AcDbLine
 62
7
  6
CONTINUOUS
 10
98.5369521586
 20
155.604227472
 11
98.6995419671
 21
155.604227472
  0
LINE
  5
270
100
AcDbEntity
  8
0
100
AcDbLine
 62
7
  6
CONTINUOUS
 10
98.8159013392
 20
155.604227472
 11
99.63291565
 21
155.604227472
  0
LINE
  5
271
100
AcDbEntity
  8
0
100
AcDbLine
 62
7
  6
CONTINUOUS
 10
98.6995419671
 20
156.4552914984
 11
99.3297386326
 21
156.4552914984
  0
LINE
  5
272
100
AcDbEntity
  8
0
100
AcDbLine
 62
7
  6
CONTINUOUS
 10
98.1460443913
 20
156.6680574305
 11
98.8784629548
 21
156.6680574305
  0
LINE
  5
273
100
AcDbEntity
  8
0
100
AcDbLine
 62
7
  6
CONTINUOUS
 10
98.1428568635
 20
157.1999722607
 11
98.8784629548
 21
157.1999722607
  0
LINE
  5
274
100
AcDbEntity
  8
0
100
AcDbLine
 62
7
  6
CONTINUOUS
 10
104.7477995259
 20
163.9506104381
 11
104.7477995259
 21
164.1633763701
  0
LINE
  5
275
100
AcDbEntity
  8
0
100
AcDbLine
 62
7
  6
CONTINUOUS
 10
106.2649325921
 20
161.7165680022
 11
106.2649325921
 21
162.0357169003
  0
LINE
  5
276
100
AcDbEntity
  8
0
100
AcDbLine
 62
7
  6
CONTINUOUS
 10
106.9612940089
 20
161.6101850361
 11
106.9612940089
 21
162.1420998663
  0
LINE
  5
277
100
AcDbEntity
  8
0
100
AcDbLine
 62
7
  6
CONTINUOUS
 10
107.7361118945
 20
161.6101850361
 11
107.7361118945
 21
162.1420998663
  0
LINE
  5
278
100
AcDbEntity
  8
BEZUGSACHSEN
100
AcDbLine
 62
7
  6
CONTINUOUS
 10
109.3223463589
 20
184.5199722607
 11
109.3223463589
 21
195.1802262985
  0
LINE
  5
279
100
AcDbEntity
  8
0
100
AcDbLine
 62
7
  6
CONTINUOUS
 10
98.1917470638
 20
160.4399722607
 11
98.7401371988
 21
160.4399722607
  0
LINE
  5
27A
100
AcDbEntity
  8
0
100
AcDbLine
 62
7
  6
CONTINUOUS
 10
98.924655823
 20
160.4399722607
 11
100.73689236
 21
160.4399722607
  0
LINE
  5
27B
100
AcDbEntity
  8
0
100
AcDbLine
 62
7
  6
CONTINUOUS
 10
101.4256553342
 20
160.4399722607
 11
102.2477511688
 21
160.4399722607
  0
LINE
  5
27C
100
AcDbEntity
  8
0
100
AcDbLine
 62
7
  6
CONTINUOUS
 10
104.5391957234
 20
160.4399722607
 11
106.011805464
 21
160.4399722607
  0
LINE
  5
27D
100
AcDbEntity
  8
0
100
AcDbLine
 62
7
  6
CONTINUOUS
 10
101.9804943691
 20
160.546355236
 11
102.5713608091
 21
160.546355236
  0
LINE
  5
27E
100
AcDbEntity
  8
0
100
AcDbLine
 62
7
  6
CONTINUOUS
 10
105.8279737164
 20
160.546355236
 11
106.5513368015
 21
160.546355236
  0
LINE
  5
27F
100
AcDbEntity
  8
0
100
AcDbLine
 62
7
  6
CONTINUOUS
 10
102.2448849047
 20
160.759121196
 11
102.8432606885
 21
160.759121196
  0
LINE
  5
280
100
AcDbEntity
  8
0
100
AcDbLine
 62
7
  6
CONTINUOUS
 10
106.2649325921
 20
160.759121196
 11
107.0072850857
 21
160.759121196
  0
LINE
  5
281
100
AcDbEntity
  8
0
100
AcDbLine
 62
7
  6
CONTINUOUS
 10
99.091552495
 20
161.0782701314
 11
100.73689236
 21
161.0782701314
  0
LINE
  5
282
100
AcDbEntity
  8
0
100
AcDbLine
 62
7
  6
CONTINUOUS
 10
101.4256553342
 20
161.0782701314
 11
101.665583363
 21
161.0782701314
  0
LINE
  5
283
100
AcDbEntity
  8
0
100
AcDbLine
 62
7
  6
CONTINUOUS
 10
104.5391957234
 20
161.0782701314
 11
105.3097181016
 21
161.0782701314
  0
LINE
  5
284
100
AcDbEntity
  8
0
100
AcDbLine
 62
7
  6
CONTINUOUS
 10
101.1960251096
 20
161.1846530975
 11
101.7656940443
 21
161.1846530975
  0
LINE
  5
285
100
AcDbEntity
  8
0
100
AcDbLine
 62
7
  6
CONTINUOUS
 10
102.5208011999
 20
161.1846530975
 11
103.1272230076
 21
161.1846530975
  0
LINE
  5
286
100
AcDbEntity
  8
0
100
AcDbLine
 62
7
  6
CONTINUOUS
 10
104.1787385683
 20
161.1846530975
 11
104.8385515638
 21
161.1846530975
  0
LINE
  5
287
100
AcDbEntity
  8
0
100
AcDbLine
 62
7
  6
CONTINUOUS
 10
106.7234210059
 20
161.1846530975
 11
107.4868268428
 21
161.1846530975
  0
LINE
  5
288
100
AcDbEntity
  8
0
100
AcDbLine
 62
7
  6
CONTINUOUS
 10
101.0303696053
 20
161.3974191041
 11
101.5957577968
 21
161.3974191041
  0
LINE
  5
289
100
AcDbEntity
  8
0
100
AcDbLine
 62
7
  6
CONTINUOUS
 10
103.9184912036
 20
161.5038020701
 11
104.5692993158
 21
161.5038020701
  0
LINE
  5
28A
100
AcDbEntity
  8
0
100
AcDbLine
 62
7
  6
CONTINUOUS
 10
102.6632220498
 20
161.6101850361
 11
103.2738835474
 21
161.6101850361
  0
LINE
  5
28B
100
AcDbEntity
  8
0
100
AcDbLine
 62
7
  6
CONTINUOUS
 10
106.9612940089
 20
161.6101850361
 11
107.7361118945
 21
161.6101850361
  0
LINE
  5
28C
100
AcDbEntity
  8
0
100
AcDbLine
 62
7
  6
CONTINUOUS
 10
100.9229905347
 20
161.7165680022
 11
101.4856385529
 21
161.7165680022
  0
LINE
  5
28D
100
AcDbEntity
  8
0
100
AcDbLine
 62
7
  6
CONTINUOUS
 10
103.3429050812
 20
161.8229509682
 11
104.4815211367
 21
161.8229509682
  0
LINE
  5
28E
100
AcDbEntity
  8
0
100
AcDbLine
 62
7
  6
CONTINUOUS
 10
100.8702067829
 20
162.1420998663
 11
101.4315176655
 21
162.1420998663
  0
LINE
  5
28F
100
AcDbEntity
  8
0
100
AcDbLine
 62
7
  6
CONTINUOUS
 10
102.735575572
 20
162.1420998663
 11
103.3484140768
 21
162.1420998663
  0
LINE
  5
290
100
AcDbEntity
  8
0
100
AcDbLine
 62
7
  6
CONTINUOUS
 10
106.9612940089
 20
162.1420998663
 11
107.7361118945
 21
162.1420998663
  0
LINE
  5
291
100
AcDbEntity
  8
0
100
AcDbLine
 62
7
  6
CONTINUOUS
 10
98.1537396009
 20
162.2484828324
 11
98.1917470638
 21
162.2484828324
  0
LINE
  5
292
100
AcDbEntity
  8
0
100
AcDbLine
 62
7
  6
CONTINUOUS
 10
106.7234210059
 20
162.5676318795
 11
107.4868268428
 21
162.5676318795
  0
LINE
  5
293
100
AcDbEntity
  8
0
100
AcDbLine
 62
7
  6
CONTINUOUS
 10
98.2382224607
 20
162.6740148456
 11
98.924655823
 21
162.6740148456
  0
LINE
  5
294
100
AcDbEntity
  8
0
100
AcDbLine
 62
7
  6
CONTINUOUS
 10
104.7254425575
 20
162.6740148456
 11
105.3097181016
 21
162.6740148456
  0
LINE
  5
295
100
AcDbEntity
  8
0
100
AcDbLine
 62
7
  6
CONTINUOUS
 10
98.1537396009
 20
162.7803978116
 11
98.1917470638
 21
162.7803978116
  0
LINE
  5
296
100
AcDbEntity
  8
0
100
AcDbLine
 62
7
  6
CONTINUOUS
 10
98.5610351492
 20
162.7803978116
 11
98.924655823
 21
162.7803978116
  0
LINE
  5
297
100
AcDbEntity
  8
0
100
AcDbLine
 62
7
  6
CONTINUOUS
 10
106.2649325921
 20
162.9931637437
 11
107.0072850857
 21
162.9931637437
  0
LINE
  5
298
100
AcDbEntity
  8
0
100
AcDbLine
 62
7
  6
CONTINUOUS
 10
98.6410260225
 20
163.0995467097
 11
98.924655823
 21
163.0995467097
  0
LINE
  5
299
100
AcDbEntity
  8
0
100
AcDbLine
 62
7
  6
CONTINUOUS
 10
105.8279737164
 20
163.2059296758
 11
106.5513368015
 21
163.2059296758
  0
LINE
  5
29A
100
AcDbEntity
  8
0
100
AcDbLine
 62
7
  6
CONTINUOUS
 10
98.2382224607
 20
163.3123126418
 11
98.4881989261
 21
163.3123126418
  0
LINE
  5
29B
100
AcDbEntity
  8
0
100
AcDbLine
 62
7
  6
CONTINUOUS
 10
104.7254425575
 20
163.3123126418
 11
106.011805464
 21
163.3123126418
  0
LINE
  5
29C
100
AcDbEntity
  8
0
100
AcDbLine
 62
7
  6
CONTINUOUS
 10
104.4475999288
 20
163.4186956079
 11
105.1169861542
 21
163.4186956079
  0
LINE
  5
29D
100
AcDbEntity
  8
0
100
AcDbLine
 62
7
  6
CONTINUOUS
 10
98.7057561198
 20
163.5250785739
 11
98.924655823
 21
163.5250785739
  0
LINE
  5
29E
100
AcDbEntity
  8
0
100
AcDbLine
 62
7
  6
CONTINUOUS
 10
104.1787385683
 20
163.6314615399
 11
104.8385515638
 21
163.6314615399
  0
LINE
  5
29F
100
AcDbEntity
  8
0
100
AcDbLine
 62
7
  6
CONTINUOUS
 10
98.7282413781
 20
163.844227472
 11
98.924655823
 21
163.844227472
  0
LINE
  5
2A0
100
AcDbEntity
  8
0
100
AcDbLine
 62
7
  6
CONTINUOUS
 10
104.0910488913
 20
163.9506104381
 11
104.7477995259
 21
163.9506104381
  0
LINE
  5
2A1
100
AcDbEntity
  8
0
100
AcDbLine
 62
7
  6
CONTINUOUS
 10
104.0910488913
 20
164.1633763701
 11
104.7477995259
 21
164.1633763701
  0
LINE
  5
2A2
100
AcDbEntity
  8
0
100
AcDbLine
 62
7
  6
CONTINUOUS
 10
98.7282413781
 20
164.2697596342
 11
98.924655823
 21
164.2697596342
  0
LINE
  5
2A3
100
AcDbEntity
  8
0
100
AcDbLine
 62
7
  6
CONTINUOUS
 10
105.9352839215
 20
164.2697596342
 11
107.3646183769
 21
164.2697596342
  0
LINE
  5
2A4
100
AcDbEntity
  8
0
100
AcDbLine
 62
7
  6
CONTINUOUS
 10
104.1787385683
 20
164.4825255663
 11
104.8385515638
 21
164.4825255663
  0
LINE
  5
2A5
100
AcDbEntity
  8
0
100
AcDbLine
 62
7
  6
CONTINUOUS
 10
98.7057561198
 20
164.5889085323
 11
98.924655823
 21
164.5889085323
  0
LINE
  5
2A6
100
AcDbEntity
  8
0
100
AcDbLine
 62
7
  6
CONTINUOUS
 10
106.4913792793
 20
164.5889085323
 11
107.2439794731
 21
164.5889085323
  0
LINE
  5
2A7
100
AcDbEntity
  8
0
100
AcDbLine
 62
7
  6
CONTINUOUS
 10
104.4475999288
 20
164.6952914984
 11
105.1169861542
 21
164.6952914984
  0
LINE
  5
2A8
100
AcDbEntity
  8
0
100
AcDbLine
 62
7
  6
CONTINUOUS
 10
104.7254425575
 20
164.8016744644
 11
105.3097181016
 21
164.8016744644
  0
LINE
  5
2A9
100
AcDbEntity
  8
0
100
AcDbLine
 62
7
  6
CONTINUOUS
 10
98.2382224607
 20
164.9080574305
 11
98.4881989261
 21
164.9080574305
  0
LINE
  5
2AA
100
AcDbEntity
  8
0
100
AcDbLine
 62
7
  6
CONTINUOUS
 10
98.6410260225
 20
165.0144403965
 11
98.924655823
 21
165.0144403965
  0
LINE
  5
2AB
100
AcDbEntity
  8
0
100
AcDbLine
 62
7
  6
CONTINUOUS
 10
106.1537379975
 20
165.0144403965
 11
106.8911621693
 21
165.0144403965
  0
LINE
  5
2AC
100
AcDbEntity
  8
0
100
AcDbLine
 62
7
  6
CONTINUOUS
 10
98.5610351492
 20
165.3335892946
 11
98.924655823
 21
165.3335892946
  0
LINE
  5
2AD
100
AcDbEntity
  8
0
100
AcDbLine
 62
7
  6
CONTINUOUS
 10
105.7219115239
 20
165.3335892946
 11
106.4408140089
 21
165.3335892946
  0
LINE
  5
2AE
100
AcDbEntity
  8
0
100
AcDbLine
 62
7
  6
CONTINUOUS
 10
98.1917470638
 20
165.4399722607
 11
99.6112829727
 21
165.4399722607
  0
LINE
  5
2AF
100
AcDbEntity
  8
0
100
AcDbLine
 62
7
  6
CONTINUOUS
 10
100.5659056459
 20
165.4399722607
 11
101.4315176655
 21
165.4399722607
  0
LINE
  5
2B0
100
AcDbEntity
  8
0
100
AcDbLine
 62
7
  6
CONTINUOUS
 10
102.3127666766
 20
165.4399722607
 11
103.3484140768
 21
165.4399722607
  0
LINE
  5
2B1
100
AcDbEntity
  8
0
100
AcDbLine
 62
7
  6
CONTINUOUS
 10
104.7254425575
 20
165.4399722607
 11
105.9077028987
 21
165.4399722607
  0
LINE
  5
2B2
100
AcDbEntity
  8
0
100
AcDbLine
 62
7
  6
CONTINUOUS
 10
111.3928544345
 20
178.8199722607
 11
111.3928544345
 21
178.6199722607
  0
LINE
  5
2B3
100
AcDbEntity
  8
0
100
AcDbLine
 62
7
  6
CONTINUOUS
 10
111.3928544345
 20
146.6199722607
 11
111.3928544345
 21
146.4199722607
  0
LINE
  5
2B4
100
AcDbEntity
  8
KONSTRUKTIONSELEMENTE
100
AcDbLine
 62
7
  6
CONTINUOUS
 10
112.6428544345
 20
184.0199722607
 11
112.6428544345
 21
184.5199722607
  0
LINE
  5
2B5
100
AcDbEntity
  8
BEZUGSACHSEN
100
AcDbLine
 62
7
  6
CONTINUOUS
 10
112.6428544345
 20
184.0199722607
 11
112.6428544345
 21
184.5199722607
  0
LINE
  5
2B6
100
AcDbEntity
  8
BEZUGSACHSEN
100
AcDbLine
 62
7
  6
CONTINUOUS
 10
109.3223463589
 20
195.1802262985
 11
111.6428544345
 21
196.5199722607
  0
LINE
  5
2B7
100
AcDbEntity
  8
0
100
AcDbLine
 62
7
  6
CONTINUOUS
 10
98.1430408354
 20
169.2099722607
 11
99.0692304904
 21
169.2099722607
  0
LINE
  5
2B8
100
AcDbEntity
  8
0
100
AcDbLine
 62
7
  6
CONTINUOUS
 10
98.1491422462
 20
169.3057169385
 11
98.2511383887
 21
169.3057169385
  0
LINE
  5
2B9
100
AcDbEntity
  8
0
100
AcDbLine
 62
7
  6
CONTINUOUS
 10
98.6511936791
 20
169.3057169385
 11
99.1615736814
 21
169.3057169385
  0
LINE
  5
2BA
100
AcDbEntity
  8
0
100
AcDbLine
 62
7
  6
CONTINUOUS
 10
98.1602319549
 20
169.4972063025
 11
98.2511383887
 21
169.4972063025
  0
LINE
  5
2BB
100
AcDbEntity
  8
0
100
AcDbLine
 62
7
  6
CONTINUOUS
 10
98.7301508792
 20
169.4972063025
 11
99.2421823447
 21
169.4972063025
  0
LINE
  5
2BC
100
AcDbEntity
  8
0
100
AcDbLine
 62
7
  6
CONTINUOUS
 10
98.1428544214
 20
169.7844403443
 11
98.1430408297
 21
169.7844403443
  0
LINE
  5
2BD
100
AcDbEntity
  8
0
100
AcDbLine
 62
7
  6
CONTINUOUS
 10
98.3094397417
 20
169.7844403443
 11
98.5607294498
 21
169.7844403443
  0
LINE
  5
2BE
100
AcDbEntity
  8
0
100
AcDbLine
 62
7
  6
CONTINUOUS
 10
98.1768479658
 20
169.8801850138
 11
98.2511383887
 21
169.8801850138
  0
LINE
  5
2BF
100
AcDbEntity
  8
0
100
AcDbLine
 62
7
  6
CONTINUOUS
 10
98.8150224692
 20
169.8801850138
 11
99.3288411891
 21
169.8801850138
  0
LINE
  5
2C0
100
AcDbEntity
  8
0
100
AcDbLine
 62
7
  6
CONTINUOUS
 10
98.1872315599
 20
170.2631637586
 11
98.2511383887
 21
170.2631637586
  0
LINE
  5
2C1
100
AcDbEntity
  8
0
100
AcDbLine
 62
7
  6
CONTINUOUS
 10
98.8596951134
 20
170.2631637586
 11
99.3744596393
 21
170.2631637586
  0
LINE
  5
2C2
100
AcDbEntity
  8
0
100
AcDbLine
 62
7
  6
CONTINUOUS
 10
98.1929429774
 20
170.7418871058
 11
98.2511383887
 21
170.7418871058
  0
LINE
  5
2C3
100
AcDbEntity
  8
0
100
AcDbLine
 62
7
  6
CONTINUOUS
 10
98.8825939732
 20
170.7418871058
 11
99.3978446777
 21
170.7418871058
  0
LINE
  5
2C4
100
AcDbEntity
  8
BEZUGSACHSEN
100
AcDbLine
 62
7
  6
CONTINUOUS
 10
116.6428544345
 20
141.2199722607
 11
116.6428544345
 21
110.5199722607
  0
LINE
  5
2C5
100
AcDbEntity
  8
BEZUGSACHSEN
100
AcDbLine
 62
7
  6
CONTINUOUS
 10
117.9826003967
 20
184.5199722607
 11
117.9826003967
 21
195.1802262985
  0
LINE
  5
2C6
100
AcDbEntity
  8
0
100
AcDbLine
 62
7
  6
CONTINUOUS
 10
120.5611640779
 20
196.5199722607
 11
120.5611640779
 21
196.7199722607
  0
LINE
  5
2C7
100
AcDbEntity
  8
0
100
AcDbLine
 62
7
  6
CONTINUOUS
 10
120.6438339809
 20
196.5199722607
 11
120.6438339809
 21
196.7199722607
  0
LINE
  5
2C8
100
AcDbEntity
  8
0
100
AcDbLine
 62
7
  6
CONTINUOUS
 10
120.838438379
 20
196.5199722607
 11
120.838438379
 21
196.7199722607
  0
LINE
  5
2C9
100
AcDbEntity
  8
0
100
AcDbLine
 62
7
  6
CONTINUOUS
 10
121.1458323186
 20
196.5199722607
 11
121.1458323186
 21
196.7199722607
  0
LINE
  5
2CA
100
AcDbEntity
  8
0
100
AcDbLine
 62
7
  6
CONTINUOUS
 10
121.5100479117
 20
196.5199722607
 11
121.5100479117
 21
196.7199722607
  0
LINE
  5
2CB
100
AcDbEntity
  8
0
100
AcDbLine
 62
7
  6
CONTINUOUS
 10
121.8751185512
 20
196.5199722607
 11
121.8751185512
 21
196.7199722607
  0
LINE
  5
2CC
100
AcDbEntity
  8
0
100
AcDbLine
 62
7
  6
CONTINUOUS
 10
144.02355608
 20
262.1648700175
 11
143.9296886934
 21
261.872208484
  0
LWPOLYLINE
  5
2CD
100
AcDbEntity
  8
KONSTRUKTIONSELEMENTE
100
AcDbPolyline
 62
7
  6
CONTINUOUS
 90
6
 70
0
 10
144.2317080548
 20
262.7696251194
 10
144.1492462378
 20
262.5563133138
 10
143.929937742
 20
261.8733096321
 10
143.7716872127
 20
261.173617863
 10
143.6757063296
 20
260.4622585337
 10
143.6428734184
 20
259.7448851639
  0
LINE
  5
2CE
100
AcDbEntity
  8
0
100
AcDbLine
 62
7
  6
CONTINUOUS
 10
98.8825939732
 20
172.1780572814
 11
99.3978446777
 21
172.1780572814
  0
LINE
  5
2CF
100
AcDbEntity
  8
0
100
AcDbLine
 62
7
  6
CONTINUOUS
 10
98.8596951134
 20
172.6567808969
 11
99.3744596393
 21
172.6567808969
  0
LINE
  5
2D0
100
AcDbEntity
  8
0
100
AcDbLine
 62
7
  6
CONTINUOUS
 10
98.8150224692
 20
173.0397595746
 11
99.3288411891
 21
173.0397595746
  0
LINE
  5
2D1
100
AcDbEntity
  8
0
100
AcDbLine
 62
7
  6
CONTINUOUS
 10
98.3094397417
 20
173.135504244
 11
98.5607294498
 21
173.135504244
  0
LINE
  5
2D2
100
AcDbEntity
  8
0
100
AcDbLine
 62
7
  6
CONTINUOUS
 10
98.7301508792
 20
173.4227382524
 11
99.2421823447
 21
173.4227382524
  0
LINE
  5
2D3
100
AcDbEntity
  8
0
100
AcDbLine
 62
7
  6
CONTINUOUS
 10
98.6511936791
 20
173.6142275912
 11
99.1615736814
 21
173.6142275912
  0
LINE
  5
2D4
100
AcDbEntity
  8
0
100
AcDbLine
 62
7
  6
CONTINUOUS
 10
98.1638675114
 20
173.7099722607
 11
99.0692304904
 21
173.7099722607
  0
LINE
  5
2D5
100
AcDbEntity
  8
0
100
AcDbLine
 62
7
  6
CONTINUOUS
 10
122.1282534147
 20
196.5199722607
 11
122.1282534147
 21
196.7199722607
  0
LINE
  5
2D6
100
AcDbEntity
  8
0
100
AcDbLine
 62
7
  6
CONTINUOUS
 10
122.3538312167
 20
196.5199722607
 11
122.3538312167
 21
196.7199722607
  0
LINE
  5
2D7
100
AcDbEntity
  8
0
100
AcDbLine
 62
7
  6
CONTINUOUS
 10
122.4950316646
 20
196.5199722607
 11
122.4950316646
 21
196.7199722607
  0
LINE
  5
2D8
100
AcDbEntity
  8
0
100
AcDbLine
 62
7
  6
CONTINUOUS
 10
122.6930524054
 20
196.5199722607
 11
122.6930524054
 21
196.7199722607
  0
LINE
  5
2D9
100
AcDbEntity
  8
0
100
AcDbLine
 62
7
  6
CONTINUOUS
 10
122.9487498461
 20
196.5199722607
 11
122.9487498461
 21
196.7199722607
  0
LINE
  5
2DA
100
AcDbEntity
  8
0
100
AcDbLine
 62
7
  6
CONTINUOUS
 10
123.0348374125
 20
196.5199722607
 11
123.0348374125
 21
196.7199722607
  0
LINE
  5
2DB
100
AcDbEntity
  8
0
100
AcDbLine
 62
7
  6
CONTINUOUS
 10
123.0641020047
 20
196.5199722607
 11
123.0641020047
 21
196.7199722607
  0
LINE
  5
2DC
100
AcDbEntity
  8
0
100
AcDbLine
 62
7
  6
CONTINUOUS
 10
123.595401749
 20
196.5199722607
 11
123.595401749
 21
196.7199722607
  0
LINE
  5
2DD
100
AcDbEntity
  8
0
100
AcDbLine
 62
7
  6
CONTINUOUS
 10
123.6145459523
 20
196.5199722607
 11
123.6145459523
 21
196.7199722607
  0
LINE
  5
2DE
100
AcDbEntity
  8
0
100
AcDbLine
 62
7
  6
CONTINUOUS
 10
123.8185776942
 20
196.5199722607
 11
123.8185776942
 21
196.7199722607
  0
LINE
  5
2DF
100
AcDbEntity
  8
0
100
AcDbLine
 62
7
  6
CONTINUOUS
 10
124.043851219
 20
196.5199722607
 11
124.043851219
 21
196.7199722607
  0
LINE
  5
2E0
100
AcDbEntity
  8
0
100
AcDbLine
 62
7
  6
CONTINUOUS
 10
124.4030025838
 20
196.5199722607
 11
124.4030025838
 21
196.7199722607
  0
LINE
  5
2E1
100
AcDbEntity
  8
0
100
AcDbLine
 62
7
  6
CONTINUOUS
 10
124.6495164809
 20
196.5199722607
 11
124.6495164809
 21
196.7199722607
  0
LINE
  5
2E2
100
AcDbEntity
  8
0
100
AcDbLine
 62
7
  6
CONTINUOUS
 10
125.0915388081
 20
196.5199722607
 11
125.0915388081
 21
196.7199722607
  0
LINE
  5
2E3
100
AcDbEntity
  8
0
100
AcDbLine
 62
7
  6
CONTINUOUS
 10
125.3592958986
 20
196.5199722607
 11
125.3592958986
 21
196.7199722607
  0
LINE
  5
2E4
100
AcDbEntity
  8
0
100
AcDbLine
 62
7
  6
CONTINUOUS
 10
125.6482933614
 20
196.5199722607
 11
125.6482933614
 21
196.7199722607
  0
LINE
  5
2E5
100
AcDbEntity
  8
0
100
AcDbLine
 62
7
  6
CONTINUOUS
 10
125.7524061067
 20
196.5199722607
 11
125.7524061067
 21
196.7199722607
  0
LINE
  5
2E6
100
AcDbEntity
  8
0
100
AcDbLine
 62
7
  6
CONTINUOUS
 10
126.1432829728
 20
196.5199722607
 11
126.1432829728
 21
196.7199722607
  0
LINE
  5
2E7
100
AcDbEntity
  8
0
100
AcDbLine
 62
7
  6
CONTINUOUS
 10
126.1963874374
 20
196.5199722607
 11
126.1963874374
 21
196.7199722607
  0
LINE
  5
2E8
100
AcDbEntity
  8
0
100
AcDbLine
 62
7
  6
CONTINUOUS
 10
126.7184268291
 20
196.5199722607
 11
126.7184268291
 21
196.7199722607
  0
LINE
  5
2E9
100
AcDbEntity
  8
0
100
AcDbLine
 62
7
  6
CONTINUOUS
 10
127.2172581634
 20
196.5199722607
 11
127.2172581634
 21
196.7199722607
  0
LINE
  5
2EA
100
AcDbEntity
  8
0
100
AcDbLine
 62
7
  6
CONTINUOUS
 10
127.7719276374
 20
196.5199722607
 11
127.7719276374
 21
196.7199722607
  0
LINE
  5
2EB
100
AcDbEntity
  8
0
100
AcDbLine
 62
7
  6
CONTINUOUS
 10
143.9293434744
 20
261.8711321537
 11
143.7715865743
 21
261.1728719848
  0
LINE
  5
2EC
100
AcDbEntity
  8
RUNDUNGEN
100
AcDbLine
 62
7
  6
CONTINUOUS
 10
100.6431240707
 20
178.6199722607
 11
145.1250535958
 21
178.6199722607
  0
LINE
  5
2ED
100
AcDbEntity
  8
0
100
AcDbLine
 62
7
  6
CONTINUOUS
 10
145.1253567018
 20
178.8199722607
 11
104.1428544345
 21
178.8199722607
  0
LINE
  5
2EE
100
AcDbEntity
  8
0
100
AcDbLine
 62
7
  6
CONTINUOUS
 10
128.2506125908
 20
196.5199722607
 11
128.2506125908
 21
196.7199722607
  0
LINE
  5
2EF
100
AcDbEntity
  8
0
100
AcDbLine
 62
7
  6
CONTINUOUS
 10
129.6208258841
 20
196.5199722607
 11
129.6208258841
 21
196.7199722607
  0
LINE
  5
2F0
100
AcDbEntity
  8
0
100
AcDbLine
 62
7
  6
CONTINUOUS
 10
130.1754953581
 20
196.5199722607
 11
130.1754953581
 21
196.7199722607
  0
LINE
  5
2F1
100
AcDbEntity
  8
0
100
AcDbLine
 62
7
  6
CONTINUOUS
 10
133.1741131806
 20
196.5199722607
 11
133.1741131806
 21
196.7199722607
  0
LINE
  5
2F2
100
AcDbEntity
  8
0
100
AcDbLine
 62
7
  6
CONTINUOUS
 10
133.1957652425
 20
196.5199722607
 11
133.1957652425
 21
196.7199722607
  0
LINE
  5
2F3
100
AcDbEntity
  8
0
100
AcDbLine
 62
7
  6
CONTINUOUS
 10
133.3012676639
 20
196.5199722607
 11
133.3012676639
 21
196.7199722607
  0
LINE
  5
2F4
100
AcDbEntity
  8
0
100
AcDbLine
 62
7
  6
CONTINUOUS
 10
133.4960340063
 20
196.5199722607
 11
133.4960340063
 21
196.7199722607
  0
LINE
  5
2F5
100
AcDbEntity
  8
0
100
AcDbLine
 62
7
  6
CONTINUOUS
 10
145.1253567018
 20
184.0199722607
 11
104.1428544345
 21
184.0199722607
  0
LINE
  5
2F6
100
AcDbEntity
  8
KONSTRUKTIONSELEMENTE
100
AcDbLine
 62
7
  6
CONTINUOUS
 10
109.3223463589
 20
184.5199722607
 11
143.9633625102
 21
184.5199722607
  0
LINE
  5
2F7
100
AcDbEntity
  8
KONSTRUKTIONSELEMENTE
100
AcDbLine
 62
7
  6
CONTINUOUS
 10
145.1254606546
 20
188.3699722607
 11
146.0428544345
 21
188.3699722607
  0
LINE
  5
2F8
100
AcDbEntity
  8
0
100
AcDbLine
 62
7
  6
CONTINUOUS
 10
158.2428544345
 20
188.3699722607
 11
159.1602482145
 21
188.3699722607
  0
LINE
  5
2F9
100
AcDbEntity
  8
0
100
AcDbLine
 62
7
  6
CONTINUOUS
 10
134.206108614
 20
196.5199722607
 11
134.206108614
 21
196.7199722607
  0
LINE
  5
2FA
100
AcDbEntity
  8
0
100
AcDbLine
 62
7
  6
CONTINUOUS
 10
134.4847254319
 20
196.5199722607
 11
134.4847254319
 21
196.7199722607
  0
LINE
  5
2FB
100
AcDbEntity
  8
0
100
AcDbLine
 62
7
  6
CONTINUOUS
 10
134.7579294657
 20
196.5199722607
 11
134.7579294657
 21
196.7199722607
  0
LINE
  5
2FC
100
AcDbEntity
  8
0
100
AcDbLine
 62
7
  6
CONTINUOUS
 10
135.1149838425
 20
196.5199722607
 11
135.1149838425
 21
196.7199722607
  0
LINE
  5
2FD
100
AcDbEntity
  8
BEZUGSACHSEN
100
AcDbLine
 62
7
  6
CONTINUOUS
 10
135.3031084724
 20
184.5199722607
 11
135.3031084724
 21
195.1802262985
  0
LINE
  5
2FE
100
AcDbEntity
  8
0
100
AcDbLine
 62
7
  6
CONTINUOUS
 10
135.3773616138
 20
196.5199722607
 11
135.3773616138
 21
196.7199722607
  0
LINE
  5
2FF
100
AcDbEntity
  8
0
100
AcDbLine
 62
7
  6
CONTINUOUS
 10
135.6343267336
 20
196.5199722607
 11
135.6343267336
 21
196.7199722607
  0
LINE
  5
300
100
AcDbEntity
  8
0
100
AcDbLine
 62
7
  6
CONTINUOUS
 10
136.6405346876
 20
196.5199722607
 11
136.6405346876
 21
196.7199722607
  0
LINE
  5
301
100
AcDbEntity
  8
BEZUGSACHSEN
100
AcDbLine
 62
7
  6
CONTINUOUS
 10
136.6428544345
 20
110.5199722607
 11
136.6428544345
 21
141.2199722607
  0
LINE
  5
302
100
AcDbEntity
  8
0
100
AcDbLine
 62
7
  6
CONTINUOUS
 10
137.4131057387
 20
196.5199722607
 11
137.4131057387
 21
196.7199722607
  0
LINE
  5
303
100
AcDbEntity
  8
0
100
AcDbLine
 62
7
  6
CONTINUOUS
 10
137.5686845707
 20
196.5199722607
 11
137.5686845707
 21
196.7199722607
  0
LINE
  5
304
100
AcDbEntity
  8
0
100
AcDbLine
 62
7
  6
CONTINUOUS
 10
138.1909998988
 20
196.5199722607
 11
138.1909998988
 21
196.7199722607
  0
LINE
  5
305
100
AcDbEntity
  8
0
100
AcDbLine
 62
7
  6
CONTINUOUS
 10
138.346578805
 20
196.5199722607
 11
138.346578805
 21
196.7199722607
  0
LINE
  5
306
100
AcDbEntity
  8
0
100
AcDbLine
 62
7
  6
CONTINUOUS
 10
138.5292894344
 20
196.5199722607
 11
138.5292894344
 21
196.7199722607
  0
LINE
  5
307
100
AcDbEntity
  8
0
100
AcDbLine
 62
7
  6
CONTINUOUS
 10
138.7509024912
 20
196.5199722607
 11
138.7509024912
 21
196.7199722607
  0
LINE
  5
308
100
AcDbEntity
  8
0
100
AcDbLine
 62
7
  6
CONTINUOUS
 10
138.8538007294
 20
196.5199722607
 11
138.8538007294
 21
196.7199722607
  0
LINE
  5
309
100
AcDbEntity
  8
0
100
AcDbLine
 62
7
  6
CONTINUOUS
 10
139.043797008
 20
196.5199722607
 11
139.043797008
 21
196.7199722607
  0
LINE
  5
30A
100
AcDbEntity
  8
0
100
AcDbLine
 62
7
  6
CONTINUOUS
 10
143.7714204112
 20
261.1721365175
 11
143.6756891171
 21
260.461882455
  0
LINE
  5
30B
100
AcDbEntity
  8
0
100
AcDbLine
 62
7
  6
CONTINUOUS
 10
146.0428544345
 20
193.0384672305
 11
145.5428544345
 21
193.0384672305
  0
LINE
  5
30C
100
AcDbEntity
  8
0
100
AcDbLine
 62
7
  6
CONTINUOUS
 10
146.0428544345
 20
193.7884672305
 11
145.5428544345
 21
193.7884672305
  0
LINE
  5
30D
100
AcDbEntity
  8
KONSTRUKTIONSELEMENTE
100
AcDbLine
 62
7
  6
CONTINUOUS
 10
140.6428544345
 20
184.0199722607
 11
140.6428544345
 21
184.5199722607
  0
LINE
  5
30E
100
AcDbEntity
  8
BEZUGSACHSEN
100
AcDbLine
 62
7
  6
CONTINUOUS
 10
140.6428544345
 20
184.0199722607
 11
140.6428544345
 21
184.5199722607
  0
LINE
  5
30F
100
AcDbEntity
  8
0
100
AcDbLine
 62
7
  6
CONTINUOUS
 10
141.8928544345
 20
178.8199722607
 11
141.8928544345
 21
178.6199722607
  0
LINE
  5
310
100
AcDbEntity
  8
0
100
AcDbLine
 62
7
  6
CONTINUOUS
 10
141.8928544345
 20
146.6199722607
 11
141.8928544345
 21
146.4199722607
  0
LINE
  5
311
100
AcDbEntity
  8
0
100
AcDbLine
 62
7
  6
CONTINUOUS
 10
143.6428544345
 20
259.731680705
 11
143.6428544345
 21
259.0199722607
  0
LINE
  5
312
100
AcDbEntity
  8
KONSTRUKTIONSELEMENTE
100
AcDbLine
 62
7
  6
CONTINUOUS
 10
143.8928544345
 20
162.5199722607
 11
143.8928544345
 21
162.7384528419
  0
LINE
  5
313
100
AcDbEntity
  8
BEZUGSACHSEN
100
AcDbLine
 62
7
  6
CONTINUOUS
 10
143.9633625102
 20
184.5199722607
 11
143.9633625102
 21
195.1802262985
  0
LINE
  5
314
100
AcDbEntity
  8
0
100
AcDbLine
 62
7
  6
CONTINUOUS
 10
145.1428544345
 20
264.4371090991
 11
145.1428544345
 21
257.3847327886
  0
LINE
  5
315
100
AcDbEntity
  8
RUNDUNGEN
100
AcDbLine
 62
7
  6
CONTINUOUS
 10
145.1428544345
 20
257.3847327886
 11
145.1428544345
 21
253.0874297286
  0
LINE
  5
316
100
AcDbEntity
  8
KONSTRUKTIONSELEMENTE
100
AcDbLine
 62
7
  6
CONTINUOUS
 10
145.1428544345
 20
230.0539252571
 11
145.1428544345
 21
224.948725067
  0
LINE
  5
317
100
AcDbEntity
  8
0
100
AcDbLine
 62
7
  6
CONTINUOUS
 10
145.1428544345
 20
230.0539223604
 11
145.1428544345
 21
224.5198236829
  0
LINE
  5
318
100
AcDbEntity
  8
KONSTRUKTIONSELEMENTE
100
AcDbLine
 62
7
  6
CONTINUOUS
 10
145.1428544345
 20
221.1290276866
 11
145.1428544345
 21
214.3699722607
  0
LINE
  5
319
100
AcDbEntity
  8
RUNDUNGEN
100
AcDbLine
 62
7
  6
CONTINUOUS
 10
145.1428544345
 20
221.2564330588
 11
145.1428544345
 21
221.4382831434
  0
LINE
  5
31A
100
AcDbEntity
  8
KONSTRUKTIONSELEMENTE
100
AcDbLine
 62
7
  6
CONTINUOUS
 10
145.1428544345
 20
221.4988574944
 11
145.1428544345
 21
221.5934145493
  0
LINE
  5
31B
100
AcDbEntity
  8
0
100
AcDbLine
 62
7
  6
CONTINUOUS
 10
143.6428711424
 20
259.7421374229
 11
143.642863488
 21
259.7384709267
  0
LINE
  5
31C
100
AcDbEntity
  8
KONSTRUKTIONSELEMENTE
100
AcDbLine
 62
7
  6
CONTINUOUS
 10
143.6429200367
 20
259.7583622402
 11
143.6428460667
 21
259.7206504507
  0
LINE
  5
31D
100
AcDbEntity
  8
0
100
AcDbLine
 62
7
  6
CONTINUOUS
 10
143.6429126722
 20
259.7563494076
 11
143.6429052271
 21
259.7542311125
  0
LINE
  5
31E
100
AcDbEntity
  8
KONSTRUKTIONSELEMENTE
100
AcDbLine
 62
7
  6
CONTINUOUS
 10
145.1253567018
 20
188.3699722607
 11
145.1221229117
 21
177.7907591302
  0
LINE
  5
31F
100
AcDbEntity
  8
KONSTRUKTIONSELEMENTE
100
AcDbLine
 62
7
  6
CONTINUOUS
 10
143.893126277
 20
162.7949110109
 11
143.8928544345
 21
162.7357637191
  0
LINE
  5
320
100
AcDbEntity
  8
0
100
AcDbLine
 62
7
  6
CONTINUOUS
 10
143.9017037896
 20
163.1183735468
 11
143.9003180881
 21
163.0588814036
  0
LINE
  5
321
100
AcDbEntity
  8
KONSTRUKTIONSELEMENTE
100
AcDbLine
 62
7
  6
CONTINUOUS
 10
143.9022753325
 20
163.1304434766
 11
143.8928544652
 21
162.7384469891
  0
LINE
  5
322
100
AcDbEntity
  8
0
100
AcDbLine
 62
7
  6
CONTINUOUS
 10
143.6756891171
 20
260.461882455
 11
143.6434906474
 21
259.7583848163
  0
LINE
  5
323
100
AcDbEntity
  8
0
100
AcDbLine
 62
7
  6
CONTINUOUS
 10
146.0428544345
 20
195.9134671709
 11
145.5428544345
 21
195.9134671709
  0
LINE
  5
324
100
AcDbEntity
  8
BEZUGSACHSEN
100
AcDbLine
 62
7
  6
CONTINUOUS
 10
111.6428544345
 20
196.5199722607
 11
141.6428544345
 21
196.5199722607
  0
LINE
  5
325
100
AcDbEntity
  8
0
100
AcDbLine
 62
7
  6
CONTINUOUS
 10
120.5611640779
 20
196.7199722607
 11
123.0641020047
 21
196.7199722607
  0
LINE
  5
326
100
AcDbEntity
  8
0
100
AcDbLine
 62
7
  6
CONTINUOUS
 10
123.595401749
 20
196.7199722607
 11
126.1963874374
 21
196.7199722607
  0
LINE
  5
327
100
AcDbEntity
  8
0
100
AcDbLine
 62
7
  6
CONTINUOUS
 10
126.7184268291
 20
196.7199722607
 11
130.1754953581
 21
196.7199722607
  0
LINE
  5
328
100
AcDbEntity
  8
0
100
AcDbLine
 62
7
  6
CONTINUOUS
 10
133.1741131806
 20
196.7199722607
 11
139.043797008
 21
196.7199722607
  0
LINE
  5
329
100
AcDbEntity
  8
0
100
AcDbLine
 62
7
  6
CONTINUOUS
 10
146.0428544345
 20
196.9134671113
 11
145.5428544345
 21
196.9134671113
  0
LINE
  5
32A
100
AcDbEntity
  8
0
100
AcDbLine
 62
7
  6
CONTINUOUS
 10
146.0428544345
 20
197.7884673497
 11
145.5428544345
 21
197.7884673497
  0
LINE
  5
32B
100
AcDbEntity
  8
0
100
AcDbLine
 62
7
  6
CONTINUOUS
 10
146.0428544345
 20
198.7884671113
 11
145.5428544345
 21
198.7884671113
  0
LINE
  5
32C
100
AcDbEntity
  8
0
100
AcDbLine
 62
7
  6
CONTINUOUS
 10
146.0428544345
 20
198.9134673497
 11
145.5428544345
 21
198.9134673497
  0
LINE
  5
32D
100
AcDbEntity
  8
0
100
AcDbLine
 62
7
  6
CONTINUOUS
 10
146.0428544345
 20
199.1634674689
 11
145.5428544345
 21
199.1634674689
  0
LINE
  5
32E
100
AcDbEntity
  8
0
100
AcDbLine
 62
7
  6
CONTINUOUS
 10
146.0428544345
 20
199.6634669921
 11
145.5428544345
 21
199.6634669921
  0
LINE
  5
32F
100
AcDbEntity
  8
0
100
AcDbLine
 62
7
  6
CONTINUOUS
 10
146.0428544345
 20
200.1634672305
 11
145.5428544345
 21
200.1634672305
  0
LINE
  5
330
100
AcDbEntity
  8
BEZUGSACHSEN
100
AcDbLine
 62
7
  6
CONTINUOUS
 10
143.9633625102
 20
195.1802262985
 11
141.6428544345
 21
196.5199722607
  0
LINE
  5
331
100
AcDbEntity
  8
0
100
AcDbLine
 62
7
  6
CONTINUOUS
 10
143.6540057936
 20
258.5937763929
 11
143.6540237263
 21
258.5934342173
  0
LINE
  5
332
100
AcDbEntity
  8
0
100
AcDbLine
 62
7
  6
CONTINUOUS
 10
143.7273099771
 20
257.1950492491
 11
143.8676918839
 21
254.516402897
  0
LINE
  5
333
100
AcDbEntity
  8
RUNDUNGEN
100
AcDbLine
 62
7
  6
CONTINUOUS
 10
144.933197079
 20
234.1853526267
 11
145.1360021083
 21
230.3156021416
  0
LINE
  5
334
100
AcDbEntity
  8
0
100
AcDbLine
 62
7
  6
CONTINUOUS
 10
144.2300094806
 20
247.6029713085
 11
144.0568088619
 21
250.9078359891
  0
LINE
  5
335
100
AcDbEntity
  8
0
100
AcDbLine
 62
7
  6
CONTINUOUS
 10
144.03291389
 20
251.3637792131
 11
143.9245825659
 21
253.4308640159
  0
LINE
  5
336
100
AcDbEntity
  8
RUNDUNGEN
100
AcDbLine
 62
7
  6
CONTINUOUS
 10
145.1702637394
 20
252.0407106037
 11
146.2882714499
 21
230.7078526618
  0
LINE
  5
337
100
AcDbEntity
  8
0
100
AcDbLine
 62
7
  6
CONTINUOUS
 10
145.5428544345
 20
193.0384672305
 11
145.5428544345
 21
197.7884673497
  0
LINE
  5
338
100
AcDbEntity
  8
0
100
AcDbLine
 62
7
  6
CONTINUOUS
 10
145.5428544345
 20
198.7884671113
 11
145.5428544345
 21
212.3900123327
  0
LINE
  5
339
100
AcDbEntity
  8
KONSTRUKTIONSELEMENTE
100
AcDbLine
 62
7
  6
CONTINUOUS
 10
146.0428544345
 20
214.3699722607
 11
146.0428544345
 21
188.3699722607
  0
LINE
  5
33A
100
AcDbEntity
  8
RUNDUNGEN
100
AcDbLine
 62
7
  6
CONTINUOUS
 10
146.3156807549
 20
229.6611335369
 11
146.3156807549
 21
216.5918124542
  0
LINE
  5
33B
100
AcDbEntity
  8
0
100
AcDbLine
 62
7
  6
CONTINUOUS
 10
149.1428544345
 20
146.4199722607
 11
149.1428544345
 21
141.2199722607
  0
LINE
  5
33C
100
AcDbEntity
  8
KONSTRUKTIONSELEMENTE
100
AcDbLine
 62
7
  6
CONTINUOUS
 10
145.1221229117
 20
177.7907591302
 11
145.1100947585
 21
176.5324092279
  0
LINE
  5
33D
100
AcDbEntity
  8
KONSTRUKTIONSELEMENTE
100
AcDbLine
 62
7
  6
CONTINUOUS
 10
145.1100947585
 20
176.5324092279
 11
145.0897450691
 21
175.3153263237
  0
LINE
  5
33E
100
AcDbEntity
  8
KONSTRUKTIONSELEMENTE
100
AcDbLine
 62
7
  6
CONTINUOUS
 10
145.0897450691
 20
175.3153263237
 11
145.0617197146
 21
174.1466304957
  0
LINE
  5
33F
100
AcDbEntity
  8
KONSTRUKTIONSELEMENTE
100
AcDbLine
 62
7
  6
CONTINUOUS
 10
145.0617197146
 20
174.1466304957
 11
145.026707016
 21
173.0325474463
  0
LINE
  5
340
100
AcDbEntity
  8
KONSTRUKTIONSELEMENTE
100
AcDbLine
 62
7
  6
CONTINUOUS
 10
145.026707016
 20
173.0325474463
 11
144.9854353881
 21
171.978487118
  0
LWPOLYLINE
  5
341
100
AcDbEntity
  8
KONSTRUKTIONSELEMENTE
100
AcDbPolyline
 62
7
  6
CONTINUOUS
 90
21
 70
0
 10
144.9854353881
 20
171.978487118
 10
144.9386805728
 20
170.98929136
 10
144.9134999839
 20
170.5203320186
 10
144.8872518946
 20
170.0690030892
 10
144.8600398826
 20
169.6356494378
 10
144.831973696
 20
169.2206519823
 10
144.8031638452
 20
168.824325677
 10
144.7737340762
 20
168.4470672142
 10
144.7438095974
 20
168.0892039079
 10
144.7135339743
 20
167.7511487102
 10
144.6830510876
 20
167.4332012605
 10
144.6525473382
 20
167.1359202417
 10
144.6222090617
 20
166.8596963099
 10
144.5922851561
 20
166.6052677265
 10
144.5630198356
 20
166.3730670758
 10
144.534800884
 20
166.1643444887
 10
144.5080121711
 20
165.979870308
 10
144.4832222163
 20
165.8211839022
 10
144.461014283
 20
165.6892775751
 10
144.4422413755
 20
165.5860218121
 10
144.4324656591
 20
165.5356747019
  0
LINE
  5
342
100
AcDbEntity
  8
0
100
AcDbLine
 62
7
  6
CONTINUOUS
 10
143.9554255167
 20
163.7470294908
 11
143.9017037896
 21
163.1183735468
  0
LWPOLYLINE
  5
343
100
AcDbEntity
  8
0
100
AcDbPolyline
 62
7
  6
CONTINUOUS
 90
6
 70
0
 10
144.5762886263
 20
166.4783449634
 10
144.563066946
 20
166.3734279143
 10
144.5348462109
 20
166.1646679086
 10
144.5080549666
 20
165.9801543386
 10
144.4832617132
 20
165.8214273196
 10
144.469226837
 20
165.7380550078
  0
LINE
  5
344
100
AcDbEntity
  8
0
100
AcDbLine
 62
7
  6
CONTINUOUS
 10
144.057579647
 20
164.3697705598
 11
143.9554255167
 21
163.7470294908
  0
LINE
  5
345
100
AcDbEntity
  8
0
100
AcDbLine
 62
7
  6
CONTINUOUS
 10
144.2075682016
 20
164.9828600159
 11
144.057579647
 21
164.3697705598
  0
LINE
  5
346
100
AcDbEntity
  8
0
100
AcDbLine
 62
7
  6
CONTINUOUS
 10
144.4044657496
 20
165.5825306972
 11
144.2075682016
 21
164.9828600159
  0
LWPOLYLINE
  5
347
100
AcDbEntity
  8
KONSTRUKTIONSELEMENTE
100
AcDbPolyline
 62
7
  6
CONTINUOUS
 90
5
 70
0
 10
144.4068039016
 20
165.5888125192
 10
144.2097820953
 20
164.9905856151
 10
144.0594588281
 20
164.3789542007
 10
143.9567575352
 20
163.7576666526
 10
143.9022753325
 20
163.1304434766
  0
LINE
  5
348
100
AcDbEntity
  8
0
100
AcDbLine
 62
7
  6
CONTINUOUS
 10
146.0428544345
 20
200.7884669921
 11
145.5428544345
 21
200.7884669921
  0
LINE
  5
349
100
AcDbEntity
  8
0
100
AcDbLine
 62
7
  6
CONTINUOUS
 10
146.0428544345
 20
201.2884672305
 11
145.5428544345
 21
201.2884672305
  0
LINE
  5
34A
100
AcDbEntity
  8
0
100
AcDbLine
 62
7
  6
CONTINUOUS
 10
146.0428544345
 20
201.9134669921
 11
145.5428544345
 21
201.9134669921
  0
LINE
  5
34B
100
AcDbEntity
  8
0
100
AcDbLine
 62
7
  6
CONTINUOUS
 10
146.0428544345
 20
202.4134672305
 11
145.5428544345
 21
202.4134672305
  0
LINE
  5
34C
100
AcDbEntity
  8
0
100
AcDbLine
 62
7
  6
CONTINUOUS
 10
146.0428544345
 20
202.5900123327
 11
145.5428544345
 21
202.5900123327
  0
LINE
  5
34D
100
AcDbEntity
  8
0
100
AcDbLine
 62
7
  6
CONTINUOUS
 10
146.0428544345
 20
206.4400123327
 11
145.5428544345
 21
206.4400123327
  0
LINE
  5
34E
100
AcDbEntity
  8
0
100
AcDbLine
 62
7
  6
CONTINUOUS
 10
159.8812431195
 20
165.5825306972
 11
159.8164700745
 21
165.7380837239
  0
LINE
  5
34F
100
AcDbEntity
  8
0
100
AcDbLine
 62
7
  6
CONTINUOUS
 10
159.1154451296
 20
252.0407106037
 11
157.9974374191
 21
230.7078526618
  0
LINE
  5
350
100
AcDbEntity
  8
0
100
AcDbLine
 62
7
  6
CONTINUOUS
 10
144.4692263042
 20
165.7380537282
 11
144.4044657496
 21
165.5825306972
  0
LINE
  5
351
100
AcDbEntity
  8
KONSTRUKTIONSELEMENTE
100
AcDbLine
 62
7
  6
CONTINUOUS
 10
144.4693264891
 20
165.7386487871
 11
144.4068039016
 21
165.5888125192
  0
LINE
  5
352
100
AcDbEntity
  8
0
100
AcDbLine
 62
7
  6
CONTINUOUS
 10
146.0428544345
 20
207.2884672305
 11
145.5428544345
 21
207.2884672305
  0
LINE
  5
353
100
AcDbEntity
  8
0
100
AcDbLine
 62
7
  6
CONTINUOUS
 10
146.0428544345
 20
207.9134677073
 11
145.5428544345
 21
207.9134677073
  0
LINE
  5
354
100
AcDbEntity
  8
0
100
AcDbLine
 62
7
  6
CONTINUOUS
 10
146.0428544345
 20
208.4134672305
 11
145.5428544345
 21
208.4134672305
  0
LINE
  5
355
100
AcDbEntity
  8
0
100
AcDbLine
 62
7
  6
CONTINUOUS
 10
146.0428544345
 20
208.5400123327
 11
145.5428544345
 21
208.5400123327
  0
LINE
  5
356
100
AcDbEntity
  8
0
100
AcDbLine
 62
7
  6
CONTINUOUS
 10
160.0781406675
 20
164.9828600159
 11
159.8789049675
 21
165.5888125192
  0
LINE
  5
357
100
AcDbEntity
  8
0
100
AcDbLine
 62
7
  6
CONTINUOUS
 10
160.2281292221
 20
164.3697705598
 11
160.0759267738
 21
164.9905856151
  0
LWPOLYLINE
  5
358
100
AcDbEntity
  8
0
100
AcDbPolyline
 62
7
  6
CONTINUOUS
 90
21
 70
0
 10
159.8684837918
 20
165.4635277868
 10
159.8665059988
 20
165.472241987
 10
159.8574927226
 20
165.514646186
 10
159.8428669587
 20
165.5891965915
 10
159.8239707831
 20
165.6934161489
 10
159.8016845626
 20
165.8261331343
 10
159.7768548913
 20
165.9854636353
 10
159.7500557742
 20
166.1704316241
 10
159.7218476928
 20
166.3795174993
 10
159.6926072619
 20
166.6119789208
 10
159.6627142185
 20
166.8666131362
 10
159.6324116637
 20
167.1429885791
 10
159.6019458833
 20
167.4403830932
 10
159.5715024572
 20
167.7584094742
 10
159.5412667918
 20
168.0965159092
 10
159.511382533
 20
168.4544035749
 10
159.481992816
 20
168.8316613078
 10
159.4532227713
 20
169.2279621124
 10
159.4251959738
 20
169.6429094911
 10
159.3980229003
 20
170.076187024
 10
159.3718132591
 20
170.5274122596
  0
LINE
  5
359
100
AcDbEntity
  8
0
100
AcDbLine
 62
7
  6
CONTINUOUS
 10
160.3302833524
 20
163.7470294908
 11
160.226250041
 21
164.3789542007
  0
LINE
  5
35A
100
AcDbEntity
  8
0
100
AcDbLine
 62
7
  6
CONTINUOUS
 10
160.3840050795
 20
163.1183735468
 11
160.3289513339
 21
163.7576666526
  0
LINE
  5
35B
100
AcDbEntity
  8
0
100
AcDbLine
 62
7
  6
CONTINUOUS
 10
159.3718132591
 20
170.5274122596
 11
159.3226949444
 21
171.482291956
  0
LINE
  5
35C
100
AcDbEntity
  8
0
100
AcDbLine
 62
7
  6
CONTINUOUS
 10
159.3226949444
 20
171.482291956
 11
159.2786550121
 21
172.5040250202
  0
LINE
  5
35D
100
AcDbEntity
  8
0
100
AcDbLine
 62
7
  6
CONTINUOUS
 10
159.2786550121
 20
172.5040250202
 11
159.2404874231
 21
173.588111801
  0
LINE
  5
35E
100
AcDbEntity
  8
0
100
AcDbLine
 62
7
  6
CONTINUOUS
 10
159.2404874231
 20
173.588111801
 11
159.2089420873
 21
174.7293982297
  0
LINE
  5
35F
100
AcDbEntity
  8
0
100
AcDbLine
 62
7
  6
CONTINUOUS
 10
160.392854403
 20
162.73844669
 11
160.3834335366
 21
163.1304434766
  0
LINE
  5
360
100
AcDbEntity
  8
0
100
AcDbLine
 62
7
  6
CONTINUOUS
 10
159.2089420873
 20
174.7293982297
 11
159.1847243267
 21
175.9220578696
  0
LINE
  5
361
100
AcDbEntity
  8
0
100
AcDbLine
 62
7
  6
CONTINUOUS
 10
159.1847243267
 20
175.9220578696
 11
159.1684979724
 21
177.1594016631
  0
LINE
  5
362
100
AcDbEntity
  8
0
100
AcDbLine
 62
7
  6
CONTINUOUS
 10
159.1684979724
 20
177.1594016631
 11
159.160879826
 21
178.4338654943
  0
LINE
  5
363
100
AcDbEntity
  8
0
100
AcDbLine
 62
7
  6
CONTINUOUS
 10
157.9700281142
 20
229.6611335369
 11
157.9700281142
 21
216.5918124542
  0
LINE
  5
364
100
AcDbEntity
  8
0
100
AcDbLine
 62
7
  6
CONTINUOUS
 10
158.2428544345
 20
214.3699722607
 11
158.2428544345
 21
188.3699722607
  0
LINE
  5
365
100
AcDbEntity
  8
0
100
AcDbLine
 62
7
  6
CONTINUOUS
 10
159.1428544345
 20
264.4371090987
 11
159.1428544345
 21
253.0874297286
  0
LINE
  5
366
100
AcDbEntity
  8
0
100
AcDbLine
 62
7
  6
CONTINUOUS
 10
159.1428544345
 20
230.0539223604
 11
159.1428544345
 21
224.5198236829
  0
LINE
  5
367
100
AcDbEntity
  8
0
100
AcDbLine
 62
7
  6
CONTINUOUS
 10
159.1428544345
 20
221.5934145493
 11
159.1428544345
 21
221.4988574944
  0
LINE
  5
368
100
AcDbEntity
  8
0
100
AcDbLine
 62
7
  6
CONTINUOUS
 10
159.1428544345
 20
221.1290276866
 11
159.1428544345
 21
214.3699722607
  0
LINE
  5
369
100
AcDbEntity
  8
0
100
AcDbLine
 62
7
  6
CONTINUOUS
 10
159.1428544345
 20
221.2564330588
 11
159.1428544345
 21
221.4382831434
  0
LINE
  5
36A
100
AcDbEntity
  8
0
100
AcDbLine
 62
7
  6
CONTINUOUS
 10
159.1603521672
 20
188.3699722607
 11
159.160879826
 21
178.4338654943
  0
LINE
  5
36B
100
AcDbEntity
  8
0
100
AcDbLine
 62
7
  6
CONTINUOUS
 10
160.3928544345
 20
162.5199722607
 11
160.3927491196
 21
162.779213314
  0
LINE
  5
36C
100
AcDbEntity
  8
0
100
AcDbLine
 62
7
  6
CONTINUOUS
 10
160.6428314068
 20
259.744973536
 11
160.6428544345
 21
259.0199722607
  0
LINE
  5
36D
100
AcDbEntity
  8
0
100
AcDbLine
 62
7
  6
CONTINUOUS
 10
160.6317030755
 20
258.5937763929
 11
160.6316851428
 21
258.5934342173
  0
LINE
  5
36E
100
AcDbEntity
  8
0
100
AcDbLine
 62
7
  6
CONTINUOUS
 10
160.558398892
 20
257.1950492491
 11
160.4180169852
 21
254.516402897
  0
LINE
  5
36F
100
AcDbEntity
  8
0
100
AcDbLine
 62
7
  6
CONTINUOUS
 10
159.3525117901
 20
234.1853526267
 11
159.1497067608
 21
230.3156021416
  0
LINE
  5
370
100
AcDbEntity
  8
0
100
AcDbLine
 62
7
  6
CONTINUOUS
 10
160.0556993884
 20
247.6029713085
 11
160.2289000072
 21
250.9078359891
  0
LINE
  5
371
100
AcDbEntity
  8
0
100
AcDbLine
 62
7
  6
CONTINUOUS
 10
160.252794979
 20
251.3637792131
 11
160.3611263031
 21
253.4308640159
  0
LINE
  5
372
100
AcDbEntity
  8
0
100
AcDbLine
 62
7
  6
CONTINUOUS
 10
146.0428544345
 20
212.3900123327
 11
145.5428544345
 21
212.3900123327
  0
LINE
  5
373
100
AcDbEntity
  8
KONSTRUKTIONSELEMENTE
100
AcDbLine
 62
7
  6
CONTINUOUS
 10
146.0428544345
 20
214.3699722607
 11
145.1428544345
 21
214.3699722607
  0
LINE
  5
374
100
AcDbEntity
  8
0
100
AcDbLine
 62
7
  6
CONTINUOUS
 10
158.2428544345
 20
214.3699722607
 11
159.1428544345
 21
214.3699722607
  0
LINE
  5
375
100
AcDbEntity
  8
0
100
AcDbLine
 62
7
  6
CONTINUOUS
 10
160.6428354508
 20
259.7448850885
 11
160.6100701282
 21
260.4615086845
  0
LINE
  5
376
100
AcDbEntity
  8
0
100
AcDbLine
 62
7
  6
CONTINUOUS
 10
160.6100197529
 20
260.4618824307
 11
160.5141222965
 21
261.1728719686
  0
LINE
  5
377
100
AcDbEntity
  8
0
100
AcDbLine
 62
7
  6
CONTINUOUS
 10
160.5140216546
 20
261.1736178731
 11
160.356020178
 21
261.8722084713
  0
LWPOLYLINE
  5
378
100
AcDbEntity
  8
0
100
AcDbPolyline
 62
7
  6
CONTINUOUS
 90
3
 70
0
 10
160.3557711237
 20
261.8733096445
 10
160.1375073183
 20
262.5534920554
 10
160.0540006319
 20
262.7696255719
  0
LINE
  5
379
100
AcDbEntity
  8
BEZUGSACHSEN
100
AcDbLine
 62
7
  6
CONTINUOUS
 10
136.6428544345
 20
110.5199722607
 11
135.1428544345
 21
109.0199722607
  0
LINE
  5
37A
100
AcDbEntity
  8
0
100
AcDbLine
 62
7
  6
CONTINUOUS
 10
159.1428544345
 20
264.437349041
 11
158.6896885345
 21
265.0181842036
  0
LINE
  5
37B
100
AcDbEntity
  8
0
100
AcDbLine
 62
7
  6
CONTINUOUS
 10
145.1428544345
 20
263.1199722607
 11
144.3857005759
 21
263.1199722607
  0
LINE
  5
37C
100
AcDbEntity
  8
0
100
AcDbLine
 62
7
  6
CONTINUOUS
 10
159.1428544345
 20
263.1199722607
 11
159.9000082932
 21
263.1199722607
  0
LINE
  5
37D
100
AcDbEntity
  8
0
100
AcDbLine
 62
7
  6
CONTINUOUS
 10
158.2016775345
 20
265.5405844578
 11
157.6612819949
 21
266.0249140169
  0
LINE
  5
37E
100
AcDbEntity
  8
0
100
AcDbLine
 62
7
  6
CONTINUOUS
 10
158.6917726141
 20
265.0159532626
 11
158.1968477555
 21
265.5453138614
  0
LWPOLYLINE
  5
37F
100
AcDbEntity
  8
0
100
AcDbPolyline
 62
7
  6
CONTINUOUS
 90
12
 70
0
 10
151.7928093624
 20
267.8699722063
 10
151.2237073217
 20
267.8501306979
 10
150.5088931732
 20
267.7684555819
 10
149.8040772873
 20
267.6241745931
 10
149.1148218584
 20
267.4184143206
 10
148.4465443416
 20
267.1528039205
 10
147.8044521408
 20
266.8294406595
 10
147.1935743624
 20
266.4509003356
 10
146.6186179846
 20
266.0201525376
 10
146.0840313503
 20
265.5405844732
 10
145.5939362708
 20
265.0159532812
 10
145.1428544345
 20
264.437349041
  0
LWPOLYLINE
  5
380
100
AcDbEntity
  8
KONSTRUKTIONSELEMENTE
100
AcDbPolyline
 62
7
  6
CONTINUOUS
 90
12
 70
0
 10
151.7928096041
 20
267.8699722063
 10
151.2364685791
 20
267.8510116516
 10
150.5207804674
 20
267.7703385753
 10
149.8150190429
 20
267.6269139547
 10
149.1247657341
 20
267.4218599609
 10
148.4554573543
 20
267.1568037211
 10
147.8123200679
 20
266.833842606
 10
147.2004016691
 20
266.4555547467
 10
146.6244268657
 20
266.0249140099
 10
146.0888611046
 20
265.5453138526
 10
145.5978423276
 20
265.020519503
 10
145.1428544345
 20
264.437349041
  0
LINE
  5
381
100
AcDbEntity
  8
KONSTRUKTIONSELEMENTE
100
AcDbLine
 62
7
  6
CONTINUOUS
 10
152.4930516048
 20
267.8699722607
 11
151.7926572642
 21
267.8699722607
  0
LINE
  5
382
100
AcDbEntity
  8
0
100
AcDbLine
 62
7
  6
CONTINUOUS
 10
153.0620015501
 20
267.8501306977
 11
152.4928995066
 21
267.8699722063
  0
LINE
  5
383
100
AcDbEntity
  8
0
100
AcDbLine
 62
7
  6
CONTINUOUS
 10
153.7768157011
 20
267.7684555811
 11
153.0492402895
 21
267.8510116517
  0
LINE
  5
384
100
AcDbEntity
  8
0
100
AcDbLine
 62
7
  6
CONTINUOUS
 10
154.4816315894
 20
267.6241745912
 11
153.7649284004
 21
267.7703385755
  0
LINE
  5
385
100
AcDbEntity
  8
0
100
AcDbLine
 62
7
  6
CONTINUOUS
 10
155.1708870203
 20
267.4184143172
 11
154.4706898237
 21
267.6269139554
  0
LINE
  5
386
100
AcDbEntity
  8
0
100
AcDbLine
 62
7
  6
CONTINUOUS
 10
155.839164539
 20
267.1528039154
 11
155.1609431311
 21
267.4218599622
  0
LINE
  5
387
100
AcDbEntity
  8
0
100
AcDbLine
 62
7
  6
CONTINUOUS
 10
156.4812567413
 20
266.8294406522
 11
155.8302515095
 21
267.1568037235
  0
LINE
  5
388
100
AcDbEntity
  8
0
100
AcDbLine
 62
7
  6
CONTINUOUS
 10
157.092134521
 20
266.4509003258
 11
156.4733887946
 21
266.8338426097
  0
LINE
  5
389
100
AcDbEntity
  8
0
100
AcDbLine
 62
7
  6
CONTINUOUS
 10
157.6670908996
 20
266.0201525252
 11
157.0853071923
 21
266.4555547519
  0
LINE
  5
38A
100
AcDbEntity
  8
BEZUGSACHSEN
100
AcDbLine
 62
7
  6
CONTINUOUS
 10
268.2291247279
 20
109.0199722607
 11
285.2277724293
 21
109.0199722607
  0
LINE
  5
38B
100
AcDbEntity
  8
BEZUGSACHSEN
100
AcDbLine
 62
7
  6
CONTINUOUS
 10
266.7284485786
 20
110.5199722607
 11
286.7284485786
 21
110.5199722607
  0
LINE
  5
38C
100
AcDbEntity
  8
0
100
AcDbLine
 62
7
  6
CONTINUOUS
 10
250.446245546
 20
253.0311797549
 11
276.7284485786
 21
263.1199722607
  0
LINE
  5
38D
100
AcDbEntity
  8
BEZUGSACHSEN
100
AcDbLine
 62
7
  6
CONTINUOUS
 10
268.2284485786
 20
109.0199722607
 11
266.7284485786
 21
110.5199722607
  0
LINE
  5
38E
100
AcDbEntity
  8
0
100
AcDbLine
 62
7
  6
CONTINUOUS
 10
240.3981085017
 20
230.7078526618
 11
248.7397978309
 21
251.3542582557
  0
LINE
  5
38F
100
AcDbEntity
  8
0
100
AcDbLine
 62
7
  6
CONTINUOUS
 10
238.7801396457
 20
216.5918124542
 11
242.5233392302
 21
221.1290276866
  0
LINE
  5
390
100
AcDbEntity
  8
0
100
AcDbLine
 62
7
  6
CONTINUOUS
 10
254.2288418473
 20
141.2199722607
 11
299.2280553098
 21
141.2199722607
  0
LINE
  5
391
100
AcDbEntity
  8
0
100
AcDbLine
 62
7
  6
CONTINUOUS
 10
235.7284485786
 20
238.6586625803
 11
235.7284485786
 21
170.3699722607
  0
LINE
  5
392
100
AcDbEntity
  8
0
100
AcDbLine
 62
7
  6
CONTINUOUS
 10
240.1114272563
 20
208.4134672305
 11
239.8561081378
 21
207.9134677073
  0
LINE
  5
393
100
AcDbEntity
  8
0
100
AcDbLine
 62
7
  6
CONTINUOUS
 10
254.2288418473
 20
146.4199722607
 11
299.2280553098
 21
146.4199722607
  0
LINE
  5
394
100
AcDbEntity
  8
RUNDUNGEN
100
AcDbLine
 62
7
  6
CONTINUOUS
 10
299.7284485786
 20
146.6199722607
 11
253.7284485786
 21
146.6199722607
  0
LINE
  5
395
100
AcDbEntity
  8
0
100
AcDbLine
 62
7
  6
CONTINUOUS
 10
238.7801396457
 20
229.6611335369
 11
238.7801396457
 21
216.5918124542
  0
LINE
  5
396
100
AcDbEntity
  8
0
100
AcDbLine
 62
7
  6
CONTINUOUS
 10
239.7284485786
 20
207.2884672305
 11
239.7284485786
 21
204.2884672305
  0
LINE
  5
397
100
AcDbEntity
  8
0
100
AcDbLine
 62
7
  6
CONTINUOUS
 10
239.7284485786
 20
203.2884674689
 11
239.7284485786
 21
202.5384674689
  0
LINE
  5
398
100
AcDbEntity
  8
0
100
AcDbLine
 62
7
  6
CONTINUOUS
 10
239.7284485786
 20
199.5384674689
 11
239.7284485786
 21
198.7884671113
  0
LINE
  5
399
100
AcDbEntity
  8
0
100
AcDbLine
 62
7
  6
CONTINUOUS
 10
239.7284485786
 20
196.0384672305
 11
239.7284485786
 21
193.0384672305
  0
LINE
  5
39A
100
AcDbEntity
  8
0
100
AcDbLine
 62
7
  6
CONTINUOUS
 10
240.3667463748
 20
193.7884672305
 11
240.3667463748
 21
196.1634671113
  0
LINE
  5
39B
100
AcDbEntity
  8
0
100
AcDbLine
 62
7
  6
CONTINUOUS
 10
240.4944059341
 20
205.0384672305
 11
240.4944059341
 21
207.2884672305
  0
LINE
  5
39C
100
AcDbEntity
  8
0
100
AcDbLine
 62
7
  6
CONTINUOUS
 10
239.8561081378
 20
207.9134677073
 11
239.7284485786
 21
207.2884672305
  0
LINE
  5
39D
100
AcDbEntity
  8
0
100
AcDbLine
 62
7
  6
CONTINUOUS
 10
239.8561081378
 20
196.6634673497
 11
239.7284485786
 21
196.0384672305
  0
LINE
  5
39E
100
AcDbEntity
  8
0
100
AcDbLine
 62
7
  6
CONTINUOUS
 10
240.4944059341
 20
207.2884672305
 11
240.6220654933
 21
207.7884667537
  0
LINE
  5
39F
100
AcDbEntity
  8
0
100
AcDbLine
 62
7
  6
CONTINUOUS
 10
240.3667463748
 20
196.1634671113
 11
240.4944059341
 21
196.5384671113
  0
LINE
  5
3A0
100
AcDbEntity
  8
0
100
AcDbLine
 62
7
  6
CONTINUOUS
 10
240.6220654933
 20
207.7884667537
 11
240.8773846118
 21
208.1634667537
  0
LINE
  5
3A1
100
AcDbEntity
  8
0
100
AcDbLine
 62
7
  6
CONTINUOUS
 10
240.6220654933
 20
208.9134667537
 11
240.1114272563
 21
208.4134672305
  0
LINE
  5
3A2
100
AcDbEntity
  8
0
100
AcDbLine
 62
7
  6
CONTINUOUS
 10
240.8773846118
 20
208.1634667537
 11
241.2603636472
 21
208.4134672305
  0
LINE
  5
3A3
100
AcDbEntity
  8
0
100
AcDbLine
 62
7
  6
CONTINUOUS
 10
278.7984485786
 20
152.7318871654
 11
279.2151154439
 21
152.8382701314
  0
LINE
  5
3A4
100
AcDbEntity
  8
0
100
AcDbLine
 62
7
  6
CONTINUOUS
 10
278.7984485786
 20
152.1999722607
 11
279.3192817132
 21
152.306355236
  0
LINE
  5
3A5
100
AcDbEntity
  8
0
100
AcDbLine
 62
7
  6
CONTINUOUS
 10
274.6317820112
 20
151.5616743899
 11
275.1526154439
 21
151.5616743899
  0
LINE
  5
3A6
100
AcDbEntity
  8
0
100
AcDbLine
 62
7
  6
CONTINUOUS
 10
271.5067818622
 20
152.1999722607
 11
272.3401152949
 21
152.1999722607
  0
LINE
  5
3A7
100
AcDbEntity
  8
0
100
AcDbLine
 62
7
  6
CONTINUOUS
 10
278.1734485786
 20
152.1999722607
 11
278.7984485786
 21
152.1999722607
  0
LINE
  5
3A8
100
AcDbEntity
  8
0
100
AcDbLine
 62
7
  6
CONTINUOUS
 10
271.6109485786
 20
152.7318871654
 11
272.2359485786
 21
152.7318871654
  0
LINE
  5
3A9
100
AcDbEntity
  8
0
100
AcDbLine
 62
7
  6
CONTINUOUS
 10
275.2567817132
 20
152.7318871654
 11
275.7776154439
 21
152.7318871654
  0
LINE
  5
3AA
100
AcDbEntity
  8
0
100
AcDbLine
 62
7
  6
CONTINUOUS
 10
278.1734485786
 20
152.7318871654
 11
278.7984485786
 21
152.7318871654
  0
LINE
  5
3AB
100
AcDbEntity
  8
0
100
AcDbLine
 62
7
  6
CONTINUOUS
 10
270.0484485786
 20
153.3701850361
 11
270.5692818995
 21
153.3701850361
  0
LINE
  5
3AC
100
AcDbEntity
  8
0
100
AcDbLine
 62
7
  6
CONTINUOUS
 10
276.6109485786
 20
153.4765680022
 11
277.2359485786
 21
153.4765680022
  0
LINE
  5
3AD
100
AcDbEntity
  8
0
100
AcDbLine
 62
7
  6
CONTINUOUS
 10
271.0901152204
 20
152.8382701314
 11
271.6109485786
 21
152.7318871654
  0
LINE
  5
3AE
100
AcDbEntity
  8
0
100
AcDbLine
 62
7
  6
CONTINUOUS
 10
277.6526154439
 20
152.306355236
 11
278.1734485786
 21
152.1999722607
  0
LINE
  5
3AF
100
AcDbEntity
  8
0
100
AcDbLine
 62
7
  6
CONTINUOUS
 10
271.0901152204
 20
152.306355236
 11
271.5067818622
 21
152.1999722607
  0
LINE
  5
3B0
100
AcDbEntity
  8
0
100
AcDbLine
 62
7
  6
CONTINUOUS
 10
242.2816401212
 20
196.1634671113
 11
242.2816401212
 21
193.7884672305
  0
LINE
  5
3B1
100
AcDbEntity
  8
0
100
AcDbLine
 62
7
  6
CONTINUOUS
 10
243.0475974767
 20
193.7884672305
 11
243.0475974767
 21
195.9134671709
  0
LINE
  5
3B2
100
AcDbEntity
  8
0
100
AcDbLine
 62
7
  6
CONTINUOUS
 10
244.9624911337
 20
207.2884672305
 11
244.9624911337
 21
205.0384672305
  0
LINE
  5
3B3
100
AcDbEntity
  8
0
100
AcDbLine
 62
7
  6
CONTINUOUS
 10
244.9624911337
 20
201.2884672305
 11
244.9624911337
 21
200.7884669921
  0
LINE
  5
3B4
100
AcDbEntity
  8
0
100
AcDbLine
 62
7
  6
CONTINUOUS
 10
245.7284485786
 20
193.0384672305
 11
245.7284485786
 21
193.7884672305
  0
LINE
  5
3B5
100
AcDbEntity
  8
0
100
AcDbLine
 62
7
  6
CONTINUOUS
 10
245.7284485786
 20
196.9134671113
 11
245.7284485786
 21
197.7884673497
  0
LINE
  5
3B6
100
AcDbEntity
  8
0
100
AcDbLine
 62
7
  6
CONTINUOUS
 10
245.7284485786
 20
200.7884669921
 11
245.7284485786
 21
201.2884672305
  0
LINE
  5
3B7
100
AcDbEntity
  8
0
100
AcDbLine
 62
7
  6
CONTINUOUS
 10
245.7284485786
 20
204.2884672305
 11
245.7284485786
 21
207.2884672305
  0
LINE
  5
3B8
100
AcDbEntity
  8
0
100
AcDbLine
 62
7
  6
CONTINUOUS
 10
245.6007890081
 20
200.1634672305
 11
245.7284485786
 21
200.7884669921
  0
LINE
  5
3B9
100
AcDbEntity
  8
0
100
AcDbLine
 62
7
  6
CONTINUOUS
 10
244.9624911337
 20
200.7884669921
 11
244.8348315744
 21
200.2884674689
  0
LINE
  5
3BA
100
AcDbEntity
  8
0
100
AcDbLine
 62
7
  6
CONTINUOUS
 10
245.3454698561
 20
199.6634669921
 11
245.6007890081
 21
200.1634672305
  0
LINE
  5
3BB
100
AcDbEntity
  8
0
100
AcDbLine
 62
7
  6
CONTINUOUS
 10
244.8348315744
 20
200.2884674689
 11
244.5795123665
 21
199.9134674689
  0
LINE
  5
3BC
100
AcDbEntity
  8
0
100
AcDbLine
 62
7
  6
CONTINUOUS
 10
240.2390868156
 20
197.1634672305
 11
239.8561081378
 21
196.6634673497
  0
LINE
  5
3BD
100
AcDbEntity
  8
0
100
AcDbLine
 62
7
  6
CONTINUOUS
 10
240.4944059341
 20
196.5384671113
 11
240.7497250526
 21
196.7884672305
  0
LINE
  5
3BE
100
AcDbEntity
  8
0
100
AcDbLine
 62
7
  6
CONTINUOUS
 10
244.8348315744
 20
199.1634674689
 11
245.3454698561
 21
199.6634669921
  0
LINE
  5
3BF
100
AcDbEntity
  8
0
100
AcDbLine
 62
7
  6
CONTINUOUS
 10
241.1327037303
 20
209.1634672305
 11
240.6220654933
 21
208.9134667537
  0
LINE
  5
3C0
100
AcDbEntity
  8
0
100
AcDbLine
 62
7
  6
CONTINUOUS
 10
272.3401152949
 20
152.1999722607
 11
272.7567820112
 21
152.306355236
  0
LINE
  5
3C1
100
AcDbEntity
  8
0
100
AcDbLine
 62
7
  6
CONTINUOUS
 10
277.7567817132
 20
154.7531637437
 11
278.1734485786
 21
154.8595467097
  0
LINE
  5
3C2
100
AcDbEntity
  8
0
100
AcDbLine
 62
7
  6
CONTINUOUS
 10
294.45261604
 20
161.0782701314
 11
294.8692811172
 21
161.1846530975
  0
LINE
  5
3C3
100
AcDbEntity
  8
0
100
AcDbLine
 62
7
  6
CONTINUOUS
 10
289.6609485786
 20
161.0782701314
 11
290.07761604
 21
161.1846530975
  0
LINE
  5
3C4
100
AcDbEntity
  8
0
100
AcDbLine
 62
7
  6
CONTINUOUS
 10
272.2359485786
 20
152.7318871654
 11
272.7567820112
 21
152.8382701314
  0
LINE
  5
3C5
100
AcDbEntity
  8
0
100
AcDbLine
 62
7
  6
CONTINUOUS
 10
277.6526154439
 20
155.2850785739
 11
278.1734485786
 21
155.3914615399
  0
LINE
  5
3C6
100
AcDbEntity
  8
0
100
AcDbLine
 62
7
  6
CONTINUOUS
 10
294.45261604
 20
160.4399722607
 11
294.9734485786
 21
160.546355236
  0
LINE
  5
3C7
100
AcDbEntity
  8
0
100
AcDbLine
 62
7
  6
CONTINUOUS
 10
271.1942819367
 20
156.5616744644
 11
271.7151152949
 21
156.6680574305
  0
LINE
  5
3C8
100
AcDbEntity
  8
0
100
AcDbLine
 62
7
  6
CONTINUOUS
 10
289.6609485786
 20
160.4399722607
 11
290.1817811172
 21
160.546355236
  0
LINE
  5
3C9
100
AcDbEntity
  8
0
100
AcDbLine
 62
7
  6
CONTINUOUS
 10
271.0901152204
 20
157.0935892946
 11
271.8192818622
 21
157.1999722607
  0
LINE
  5
3CA
100
AcDbEntity
  8
0
100
AcDbLine
 62
7
  6
CONTINUOUS
 10
276.6109485786
 20
154.4340148456
 11
277.3401154439
 21
154.4340148456
  0
LINE
  5
3CB
100
AcDbEntity
  8
0
100
AcDbLine
 62
7
  6
CONTINUOUS
 10
271.7151152949
 20
154.5403978116
 11
272.1317818622
 21
154.5403978116
  0
LINE
  5
3CC
100
AcDbEntity
  8
0
100
AcDbLine
 62
7
  6
CONTINUOUS
 10
278.1734485786
 20
154.8595467097
 11
278.7984485786
 21
154.8595467097
  0
LINE
  5
3CD
100
AcDbEntity
  8
0
100
AcDbLine
 62
7
  6
CONTINUOUS
 10
271.7151152949
 20
154.9659296758
 11
272.1317818622
 21
154.9659296758
  0
LINE
  5
3CE
100
AcDbEntity
  8
0
100
AcDbLine
 62
7
  6
CONTINUOUS
 10
281.1942823093
 20
155.1786956079
 11
282.0276148479
 21
155.1786956079
  0
LINE
  5
3CF
100
AcDbEntity
  8
0
100
AcDbLine
 62
7
  6
CONTINUOUS
 10
282.5484485786
 20
155.1786956079
 11
283.6942823093
 21
155.1786956079
  0
LINE
  5
3D0
100
AcDbEntity
  8
0
100
AcDbLine
 62
7
  6
CONTINUOUS
 10
278.1734485786
 20
155.3914615399
 11
278.7984485786
 21
155.3914615399
  0
LINE
  5
3D1
100
AcDbEntity
  8
0
100
AcDbLine
 62
7
  6
CONTINUOUS
 10
281.1942823093
 20
155.604227472
 11
282.0276148479
 21
155.604227472
  0
LINE
  5
3D2
100
AcDbEntity
  8
0
100
AcDbLine
 62
7
  6
CONTINUOUS
 10
282.5484485786
 20
155.604227472
 11
283.6942823093
 21
155.604227472
  0
LINE
  5
3D3
100
AcDbEntity
  8
0
100
AcDbLine
 62
7
  6
CONTINUOUS
 10
270.1526152483
 20
156.0297596342
 11
270.6734485786
 21
156.0297596342
  0
LINE
  5
3D4
100
AcDbEntity
  8
0
100
AcDbLine
 62
7
  6
CONTINUOUS
 10
282.0276148479
 20
156.4552914984
 11
282.5484485786
 21
156.4552914984
  0
LINE
  5
3D5
100
AcDbEntity
  8
0
100
AcDbLine
 62
7
  6
CONTINUOUS
 10
271.7151152949
 20
156.6680574305
 11
272.1317818622
 21
156.6680574305
  0
LINE
  5
3D6
100
AcDbEntity
  8
0
100
AcDbLine
 62
7
  6
CONTINUOUS
 10
277.1317817132
 20
156.6680574305
 11
280.1526148479
 21
156.6680574305
  0
LINE
  5
3D7
100
AcDbEntity
  8
0
100
AcDbLine
 62
7
  6
CONTINUOUS
 10
280.1526148479
 20
157.1999722607
 11
276.6109485786
 21
157.1999722607
  0
LINE
  5
3D8
100
AcDbEntity
  8
0
100
AcDbLine
 62
7
  6
CONTINUOUS
 10
271.8192818622
 20
157.1999722607
 11
272.0276152949
 21
157.1999722607
  0
LINE
  5
3D9
100
AcDbEntity
  8
0
100
AcDbLine
 62
7
  6
CONTINUOUS
 10
272.0276152949
 20
157.1999722607
 11
272.7567820112
 21
157.0935892946
  0
LINE
  5
3DA
100
AcDbEntity
  8
0
100
AcDbLine
 62
7
  6
CONTINUOUS
 10
282.8609485786
 20
152.306355236
 11
283.4859485786
 21
152.1999722607
  0
LINE
  5
3DB
100
AcDbEntity
  8
0
100
AcDbLine
 62
7
  6
CONTINUOUS
 10
272.1317818622
 20
154.5403978116
 11
272.7567820112
 21
154.4340148456
  0
LINE
  5
3DC
100
AcDbEntity
  8
0
100
AcDbLine
 62
7
  6
CONTINUOUS
 10
282.9651148479
 20
152.7318871654
 11
283.4859485786
 21
152.6255041621
  0
LINE
  5
3DD
100
AcDbEntity
  8
0
100
AcDbLine
 62
7
  6
CONTINUOUS
 10
272.1317818622
 20
156.6680574305
 11
272.6526151459
 21
156.5616744644
  0
LINE
  5
3DE
100
AcDbEntity
  8
0
100
AcDbLine
 62
7
  6
CONTINUOUS
 10
278.7984485786
 20
155.3914615399
 11
279.3192817132
 21
155.2850785739
  0
LINE
  5
3DF
100
AcDbEntity
  8
0
100
AcDbLine
 62
7
  6
CONTINUOUS
 10
277.7567817132
 20
152.8382701314
 11
278.1734485786
 21
152.7318871654
  0
LINE
  5
3E0
100
AcDbEntity
  8
0
100
AcDbLine
 62
7
  6
CONTINUOUS
 10
278.7984485786
 20
154.8595467097
 11
279.2151154439
 21
154.7531637437
  0
LINE
  5
3E1
100
AcDbEntity
  8
0
100
AcDbLine
 62
7
  6
CONTINUOUS
 10
282.5484485786
 20
152.4127382114
 11
282.8609485786
 21
152.306355236
  0
LINE
  5
3E2
100
AcDbEntity
  8
0
100
AcDbLine
 62
7
  6
CONTINUOUS
 10
272.9651151459
 20
154.7531637437
 11
273.4859485786
 21
154.5403978116
  0
LINE
  5
3E3
100
AcDbEntity
  8
0
100
AcDbLine
 62
7
  6
CONTINUOUS
 10
270.6734485786
 20
152.519121196
 11
271.0901152204
 21
152.306355236
  0
LINE
  5
3E4
100
AcDbEntity
  8
0
100
AcDbLine
 62
7
  6
CONTINUOUS
 10
270.8817819367
 20
152.9446530975
 11
271.0901152204
 21
152.8382701314
  0
LINE
  5
3E5
100
AcDbEntity
  8
0
100
AcDbLine
 62
7
  6
CONTINUOUS
 10
272.7567820112
 20
157.0935892946
 11
273.1734485786
 21
156.8808233625
  0
LINE
  5
3E6
100
AcDbEntity
  8
0
100
AcDbLine
 62
7
  6
CONTINUOUS
 10
277.1317817132
 20
152.6255041621
 11
277.6526154439
 21
152.306355236
  0
LINE
  5
3E7
100
AcDbEntity
  8
0
100
AcDbLine
 62
7
  6
CONTINUOUS
 10
270.3609485786
 20
152.7318871654
 11
270.6734485786
 21
152.519121196
  0
LINE
  5
3E8
100
AcDbEntity
  8
0
100
AcDbLine
 62
7
  6
CONTINUOUS
 10
272.7567820112
 20
154.4340148456
 11
273.0692820112
 21
154.2212489135
  0
LINE
  5
3E9
100
AcDbEntity
  8
0
100
AcDbLine
 62
7
  6
CONTINUOUS
 10
270.6734485786
 20
153.1574191041
 11
270.8817819367
 21
152.9446530975
  0
LINE
  5
3EA
100
AcDbEntity
  8
0
100
AcDbLine
 62
7
  6
CONTINUOUS
 10
242.1539805619
 20
196.5384671113
 11
242.2816401212
 21
196.1634671113
  0
LINE
  5
3EB
100
AcDbEntity
  8
0
100
AcDbLine
 62
7
  6
CONTINUOUS
 10
249.7284485786
 20
178.8699722607
 11
249.7284485786
 21
236.8514473871
  0
LINE
  5
3EC
100
AcDbEntity
  8
RUNDUNGEN
100
AcDbLine
 62
7
  6
CONTINUOUS
 10
251.7284485786
 20
148.6199722607
 11
251.7284485786
 21
176.6199722607
  0
LINE
  5
3ED
100
AcDbEntity
  8
0
100
AcDbLine
 62
7
  6
CONTINUOUS
 10
251.7284485786
 20
148.6199722607
 11
251.7284485786
 21
176.6199722607
  0
LINE
  5
3EE
100
AcDbEntity
  8
0
100
AcDbLine
 62
7
  6
CONTINUOUS
 10
240.7497250526
 20
197.5384672305
 11
240.2390868156
 21
197.1634672305
  0
LINE
  5
3EF
100
AcDbEntity
  8
0
100
AcDbLine
 62
7
  6
CONTINUOUS
 10
244.5795123665
 20
199.9134674689
 11
244.1965336888
 21
199.6634669921
  0
LINE
  5
3F0
100
AcDbEntity
  8
0
100
AcDbLine
 62
7
  6
CONTINUOUS
 10
244.324193248
 20
198.9134673497
 11
244.8348315744
 21
199.1634674689
  0
LINE
  5
3F1
100
AcDbEntity
  8
0
100
AcDbLine
 62
7
  6
CONTINUOUS
 10
293.4109485786
 20
165.3335892946
 11
293.82761604
 21
165.4399722607
  0
LINE
  5
3F2
100
AcDbEntity
  8
0
100
AcDbLine
 62
7
  6
CONTINUOUS
 10
273.7234485786
 20
161.0782701314
 11
274.1401148479
 21
161.1846530975
  0
LINE
  5
3F3
100
AcDbEntity
  8
0
100
AcDbLine
 62
7
  6
CONTINUOUS
 10
273.7234485786
 20
160.4399722607
 11
274.2442823093
 21
160.546355236
  0
LINE
  5
3F4
100
AcDbEntity
  8
0
100
AcDbLine
 62
7
  6
CONTINUOUS
 10
280.8067811172
 20
162.6740148456
 11
281.32761604
 21
162.7803978116
  0
LINE
  5
3F5
100
AcDbEntity
  8
0
100
AcDbLine
 62
7
  6
CONTINUOUS
 10
268.9317823093
 20
160.4399722607
 11
269.4526148479
 21
160.546355236
  0
LINE
  5
3F6
100
AcDbEntity
  8
0
100
AcDbLine
 62
7
  6
CONTINUOUS
 10
258.5151152949
 20
160.4399722607
 11
259.3484485786
 21
160.4399722607
  0
LINE
  5
3F7
100
AcDbEntity
  8
0
100
AcDbLine
 62
7
  6
CONTINUOUS
 10
261.8484485786
 20
160.4399722607
 11
265.5984485786
 21
160.4399722607
  0
LINE
  5
3F8
100
AcDbEntity
  8
0
100
AcDbLine
 62
7
  6
CONTINUOUS
 10
266.4317817132
 20
160.4399722607
 11
268.9317823093
 21
160.4399722607
  0
LINE
  5
3F9
100
AcDbEntity
  8
0
100
AcDbLine
 62
7
  6
CONTINUOUS
 10
272.7859485786
 20
160.4399722607
 11
273.7234485786
 21
160.4399722607
  0
LINE
  5
3FA
100
AcDbEntity
  8
0
100
AcDbLine
 62
7
  6
CONTINUOUS
 10
278.3067811172
 20
160.4399722607
 11
278.9317811172
 21
160.4399722607
  0
LINE
  5
3FB
100
AcDbEntity
  8
0
100
AcDbLine
 62
7
  6
CONTINUOUS
 10
282.9942811172
 20
160.4399722607
 11
286.7442811172
 21
160.4399722607
  0
LINE
  5
3FC
100
AcDbEntity
  8
0
100
AcDbLine
 62
7
  6
CONTINUOUS
 10
289.2442811172
 20
160.4399722607
 11
289.6609485786
 21
160.4399722607
  0
LINE
  5
3FD
100
AcDbEntity
  8
0
100
AcDbLine
 62
7
  6
CONTINUOUS
 10
293.6192811172
 20
160.4399722607
 11
294.45261604
 21
160.4399722607
  0
LINE
  5
3FE
100
AcDbEntity
  8
0
100
AcDbLine
 62
7
  6
CONTINUOUS
 10
262.4734485786
 20
161.0782701314
 11
265.5984485786
 21
161.0782701314
  0
LINE
  5
3FF
100
AcDbEntity
  8
0
100
AcDbLine
 62
7
  6
CONTINUOUS
 10
267.0567823093
 20
161.0782701314
 11
269.0359485786
 21
161.0782701314
  0
LINE
  5
400
100
AcDbEntity
  8
0
100
AcDbLine
 62
7
  6
CONTINUOUS
 10
272.7859485786
 20
161.0782701314
 11
273.7234485786
 21
161.0782701314
  0
LINE
  5
401
100
AcDbEntity
  8
0
100
AcDbLine
 62
7
  6
CONTINUOUS
 10
283.6192811172
 20
161.0782701314
 11
286.7442811172
 21
161.0782701314
  0
LINE
  5
402
100
AcDbEntity
  8
0
100
AcDbLine
 62
7
  6
CONTINUOUS
 10
289.2442811172
 20
161.0782701314
 11
289.6609485786
 21
161.0782701314
  0
LINE
  5
403
100
AcDbEntity
  8
0
100
AcDbLine
 62
7
  6
CONTINUOUS
 10
293.6192811172
 20
161.0782701314
 11
294.45261604
 21
161.0782701314
  0
LINE
  5
404
100
AcDbEntity
  8
0
100
AcDbLine
 62
7
  6
CONTINUOUS
 10
292.1609485786
 20
161.8229509682
 11
292.7859485786
 21
161.8229509682
  0
LINE
  5
405
100
AcDbEntity
  8
0
100
AcDbLine
 62
7
  6
CONTINUOUS
 10
276.0151148479
 20
162.2484828324
 11
277.4734485786
 21
162.2484828324
  0
LINE
  5
406
100
AcDbEntity
  8
0
100
AcDbLine
 62
7
  6
CONTINUOUS
 10
273.6192823093
 20
162.5676318795
 11
274.5567823093
 21
162.5676318795
  0
LINE
  5
407
100
AcDbEntity
  8
0
100
AcDbLine
 62
7
  6
CONTINUOUS
 10
267.0567823093
 20
162.6740148456
 11
269.0359485786
 21
162.6740148456
  0
LINE
  5
408
100
AcDbEntity
  8
0
100
AcDbLine
 62
7
  6
CONTINUOUS
 10
278.9317811172
 20
162.6740148456
 11
280.8067811172
 21
162.6740148456
  0
LINE
  5
409
100
AcDbEntity
  8
0
100
AcDbLine
 62
7
  6
CONTINUOUS
 10
293.82761604
 20
162.6740148456
 11
294.45261604
 21
162.6740148456
  0
LINE
  5
40A
100
AcDbEntity
  8
0
100
AcDbLine
 62
7
  6
CONTINUOUS
 10
277.4734485786
 20
162.7803978116
 11
276.0151148479
 21
162.7803978116
  0
LINE
  5
40B
100
AcDbEntity
  8
0
100
AcDbLine
 62
7
  6
CONTINUOUS
 10
273.6192823093
 20
163.2059296758
 11
275.1817823093
 21
163.2059296758
  0
LINE
  5
40C
100
AcDbEntity
  8
0
100
AcDbLine
 62
7
  6
CONTINUOUS
 10
267.0567823093
 20
163.3123126418
 11
269.0359485786
 21
163.3123126418
  0
LINE
  5
40D
100
AcDbEntity
  8
0
100
AcDbLine
 62
7
  6
CONTINUOUS
 10
278.9317811172
 20
163.3123126418
 11
280.9109485786
 21
163.3123126418
  0
LINE
  5
40E
100
AcDbEntity
  8
0
100
AcDbLine
 62
7
  6
CONTINUOUS
 10
293.82761604
 20
163.3123126418
 11
294.45261604
 21
163.3123126418
  0
LINE
  5
40F
100
AcDbEntity
  8
0
100
AcDbLine
 62
7
  6
CONTINUOUS
 10
274.5567823093
 20
164.1633763701
 11
275.1817823093
 21
164.1633763701
  0
LINE
  5
410
100
AcDbEntity
  8
0
100
AcDbLine
 62
7
  6
CONTINUOUS
 10
295.07761604
 20
164.2697596342
 11
295.70261604
 21
164.2697596342
  0
LINE
  5
411
100
AcDbEntity
  8
0
100
AcDbLine
 62
7
  6
CONTINUOUS
 10
267.0567823093
 20
164.8016744644
 11
269.0359485786
 21
164.8016744644
  0
LINE
  5
412
100
AcDbEntity
  8
0
100
AcDbLine
 62
7
  6
CONTINUOUS
 10
272.7859485786
 20
164.8016744644
 11
273.7234485786
 21
164.8016744644
  0
LINE
  5
413
100
AcDbEntity
  8
0
100
AcDbLine
 62
7
  6
CONTINUOUS
 10
293.82761604
 20
164.8016744644
 11
294.45261604
 21
164.8016744644
  0
LINE
  5
414
100
AcDbEntity
  8
0
100
AcDbLine
 62
7
  6
CONTINUOUS
 10
278.9317811172
 20
164.9080574305
 11
280.9109485786
 21
164.9080574305
  0
LINE
  5
415
100
AcDbEntity
  8
0
100
AcDbLine
 62
7
  6
CONTINUOUS
 10
272.2651148479
 20
160.546355236
 11
272.7859485786
 21
160.4399722607
  0
LINE
  5
416
100
AcDbEntity
  8
0
100
AcDbLine
 62
7
  6
CONTINUOUS
 10
288.7234485786
 20
160.546355236
 11
289.2442811172
 21
160.4399722607
  0
LINE
  5
417
100
AcDbEntity
  8
0
100
AcDbLine
 62
7
  6
CONTINUOUS
 10
268.9317823093
 20
165.4399722607
 11
269.4526148479
 21
165.3335892946
  0
LINE
  5
418
100
AcDbEntity
  8
0
100
AcDbLine
 62
7
  6
CONTINUOUS
 10
293.0984485786
 20
160.546355236
 11
293.6192811172
 21
160.4399722607
  0
LINE
  5
419
100
AcDbEntity
  8
0
100
AcDbLine
 62
7
  6
CONTINUOUS
 10
273.7234485786
 20
165.4399722607
 11
274.2442823093
 21
165.3335892946
  0
LINE
  5
41A
100
AcDbEntity
  8
0
100
AcDbLine
 62
7
  6
CONTINUOUS
 10
272.3692823093
 20
161.1846530975
 11
272.7859485786
 21
161.0782701314
  0
LINE
  5
41B
100
AcDbEntity
  8
0
100
AcDbLine
 62
7
  6
CONTINUOUS
 10
273.7234485786
 20
164.8016744644
 11
274.1401148479
 21
164.6952914984
  0
LINE
  5
41C
100
AcDbEntity
  8
0
100
AcDbLine
 62
7
  6
CONTINUOUS
 10
288.82761604
 20
161.1846530975
 11
289.2442811172
 21
161.0782701314
  0
LINE
  5
41D
100
AcDbEntity
  8
0
100
AcDbLine
 62
7
  6
CONTINUOUS
 10
269.0359485786
 20
162.6740148456
 11
269.3484485786
 21
162.5676318795
  0
LINE
  5
41E
100
AcDbEntity
  8
0
100
AcDbLine
 62
7
  6
CONTINUOUS
 10
269.0359485786
 20
164.8016744644
 11
269.3484485786
 21
164.6952914984
  0
LINE
  5
41F
100
AcDbEntity
  8
0
100
AcDbLine
 62
7
  6
CONTINUOUS
 10
271.8484485786
 20
160.759121196
 11
272.2651148479
 21
160.546355236
  0
LINE
  5
420
100
AcDbEntity
  8
0
100
AcDbLine
 62
7
  6
CONTINUOUS
 10
269.6609485786
 20
162.9931637437
 11
269.8692823093
 21
162.8867807776
  0
LINE
  5
421
100
AcDbEntity
  8
0
100
AcDbLine
 62
7
  6
CONTINUOUS
 10
279.3192817132
 20
155.2850785739
 11
279.8401154439
 21
154.9659296758
  0
LINE
  5
422
100
AcDbEntity
  8
0
100
AcDbLine
 62
7
  6
CONTINUOUS
 10
277.4442817132
 20
153.0510360635
 11
277.7567817132
 21
152.8382701314
  0
LINE
  5
423
100
AcDbEntity
  8
0
100
AcDbLine
 62
7
  6
CONTINUOUS
 10
272.6526151459
 20
156.5616744644
 11
272.9651151459
 21
156.3489085323
  0
LINE
  5
424
100
AcDbEntity
  8
0
100
AcDbLine
 62
7
  6
CONTINUOUS
 10
282.2359485786
 20
152.6255041621
 11
282.5484485786
 21
152.4127382114
  0
LINE
  5
425
100
AcDbEntity
  8
0
100
AcDbLine
 62
7
  6
CONTINUOUS
 10
279.2151154439
 20
154.7531637437
 11
279.5276154439
 21
154.5403978116
  0
LINE
  5
426
100
AcDbEntity
  8
0
100
AcDbLine
 62
7
  6
CONTINUOUS
 10
282.6526148479
 20
152.9446530975
 11
282.9651148479
 21
152.7318871654
  0
LINE
  5
427
100
AcDbEntity
  8
0
100
AcDbLine
 62
7
  6
CONTINUOUS
 10
272.0567823093
 20
161.3974191041
 11
272.3692823093
 21
161.1846530975
  0
LINE
  5
428
100
AcDbEntity
  8
0
100
AcDbLine
 62
7
  6
CONTINUOUS
 10
273.1734485786
 20
156.8808233625
 11
273.5901151459
 21
156.4552914984
  0
LINE
  5
429
100
AcDbEntity
  8
0
100
AcDbLine
 62
7
  6
CONTINUOUS
 10
269.3484485786
 20
162.5676318795
 11
269.5567823093
 21
162.3548659474
  0
LINE
  5
42A
100
AcDbEntity
  8
0
100
AcDbLine
 62
7
  6
CONTINUOUS
 10
270.1526152483
 20
153.0510360635
 11
270.3609485786
 21
152.7318871654
  0
LINE
  5
42B
100
AcDbEntity
  8
0
100
AcDbLine
 62
7
  6
CONTINUOUS
 10
242.7922783582
 20
196.6634673497
 11
242.5369592397
 21
197.1634672305
  0
LINE
  5
42C
100
AcDbEntity
  8
0
100
AcDbLine
 62
7
  6
CONTINUOUS
 10
257.4734485786
 20
165.4399722607
 11
258.9317818622
 21
161.0782701314
  0
LINE
  5
42D
100
AcDbEntity
  8
0
100
AcDbLine
 62
7
  6
CONTINUOUS
 10
256.8484485786
 20
165.4399722607
 11
258.5151152949
 21
160.4399722607
  0
LINE
  5
42E
100
AcDbEntity
  8
0
100
AcDbLine
 62
7
  6
CONTINUOUS
 10
244.8348315744
 20
201.7884674689
 11
244.9624911337
 21
201.2884672305
  0
LINE
  5
42F
100
AcDbEntity
  8
0
100
AcDbLine
 62
7
  6
CONTINUOUS
 10
244.8348315744
 20
207.7884667537
 11
244.9624911337
 21
207.2884672305
  0
LINE
  5
430
100
AcDbEntity
  8
0
100
AcDbLine
 62
7
  6
CONTINUOUS
 10
245.7284485786
 20
201.2884672305
 11
245.6007890081
 21
201.9134669921
  0
LINE
  5
431
100
AcDbEntity
  8
0
100
AcDbLine
 62
7
  6
CONTINUOUS
 10
245.7284485786
 20
207.2884672305
 11
245.6007890081
 21
207.9134677073
  0
LINE
  5
432
100
AcDbEntity
  8
0
100
AcDbLine
 62
7
  6
CONTINUOUS
 10
254.2284485786
 20
184.0199722607
 11
254.2284485786
 21
178.8199722607
  0
LINE
  5
433
100
AcDbEntity
  8
0
100
AcDbLine
 62
7
  6
CONTINUOUS
 10
254.2284485786
 20
146.4199722607
 11
254.2284485786
 21
141.2199722607
  0
LINE
  5
434
100
AcDbEntity
  8
0
100
AcDbLine
 62
7
  6
CONTINUOUS
 10
245.7284485786
 20
197.7884673497
 11
242.7922783582
 21
196.6634673497
  0
LINE
  5
435
100
AcDbEntity
  8
0
100
AcDbLine
 62
7
  6
CONTINUOUS
 10
243.0475974767
 20
195.9134671709
 11
245.7284485786
 21
196.9134671113
  0
LINE
  5
436
100
AcDbEntity
  8
0
100
AcDbLine
 62
7
  6
CONTINUOUS
 10
241.1327037303
 20
197.6634671113
 11
240.7497250526
 21
197.5384672305
  0
LINE
  5
437
100
AcDbEntity
  8
0
100
AcDbLine
 62
7
  6
CONTINUOUS
 10
240.7497250526
 20
196.7884672305
 11
241.1327037303
 21
196.9134671113
  0
LINE
  5
438
100
AcDbEntity
  8
0
100
AcDbLine
 62
7
  6
CONTINUOUS
 10
272.3692823093
 20
164.6952914984
 11
272.7859485786
 21
164.8016744644
  0
LINE
  5
439
100
AcDbEntity
  8
0
100
AcDbLine
 62
7
  6
CONTINUOUS
 10
281.3259485786
 20
169.7844403443
 11
281.7009482209
 21
169.8801850138
  0
LINE
  5
43A
100
AcDbEntity
  8
0
100
AcDbLine
 62
7
  6
CONTINUOUS
 10
276.8259485786
 20
169.7844403443
 11
277.2009487574
 21
169.8801850138
  0
LINE
  5
43B
100
AcDbEntity
  8
0
100
AcDbLine
 62
7
  6
CONTINUOUS
 10
272.2651148479
 20
165.3335892946
 11
272.7859485786
 21
165.4399722607
  0
LINE
  5
43C
100
AcDbEntity
  8
0
100
AcDbLine
 62
7
  6
CONTINUOUS
 10
281.3259485786
 20
169.2099722607
 11
281.7946989362
 21
169.3057169385
  0
LINE
  5
43D
100
AcDbEntity
  8
0
100
AcDbLine
 62
7
  6
CONTINUOUS
 10
276.8259485786
 20
169.2099722607
 11
277.2946983998
 21
169.3057169385
  0
LINE
  5
43E
100
AcDbEntity
  8
0
100
AcDbLine
 62
7
  6
CONTINUOUS
 10
256.8484485786
 20
165.4399722607
 11
257.4734485786
 21
165.4399722607
  0
LINE
  5
43F
100
AcDbEntity
  8
0
100
AcDbLine
 62
7
  6
CONTINUOUS
 10
260.3901151459
 20
165.4399722607
 11
261.0151151459
 21
165.4399722607
  0
LINE
  5
440
100
AcDbEntity
  8
0
100
AcDbLine
 62
7
  6
CONTINUOUS
 10
261.8484485786
 20
165.4399722607
 11
262.4734485786
 21
165.4399722607
  0
LINE
  5
441
100
AcDbEntity
  8
0
100
AcDbLine
 62
7
  6
CONTINUOUS
 10
266.4317817132
 20
165.4399722607
 11
268.9317823093
 21
165.4399722607
  0
LINE
  5
442
100
AcDbEntity
  8
0
100
AcDbLine
 62
7
  6
CONTINUOUS
 10
272.7859485786
 20
165.4399722607
 11
273.7234485786
 21
165.4399722607
  0
LINE
  5
443
100
AcDbEntity
  8
0
100
AcDbLine
 62
7
  6
CONTINUOUS
 10
278.3067811172
 20
165.4399722607
 11
280.8067811172
 21
165.4399722607
  0
LINE
  5
444
100
AcDbEntity
  8
0
100
AcDbLine
 62
7
  6
CONTINUOUS
 10
282.9942811172
 20
165.4399722607
 11
283.6192811172
 21
165.4399722607
  0
LINE
  5
445
100
AcDbEntity
  8
0
100
AcDbLine
 62
7
  6
CONTINUOUS
 10
287.57761604
 20
165.4399722607
 11
288.20261604
 21
165.4399722607
  0
LINE
  5
446
100
AcDbEntity
  8
0
100
AcDbLine
 62
7
  6
CONTINUOUS
 10
290.70261604
 20
165.4399722607
 11
291.32761604
 21
165.4399722607
  0
LINE
  5
447
100
AcDbEntity
  8
0
100
AcDbLine
 62
7
  6
CONTINUOUS
 10
293.82761604
 20
165.4399722607
 11
294.3484485786
 21
165.4399722607
  0
LINE
  5
448
100
AcDbEntity
  8
0
100
AcDbLine
 62
7
  6
CONTINUOUS
 10
270.6384485786
 20
169.2099722607
 11
271.2009485786
 21
169.2099722607
  0
LINE
  5
449
100
AcDbEntity
  8
0
100
AcDbLine
 62
7
  6
CONTINUOUS
 10
273.5446984892
 20
169.2099722607
 11
274.200948668
 21
169.2099722607
  0
LINE
  5
44A
100
AcDbEntity
  8
0
100
AcDbLine
 62
7
  6
CONTINUOUS
 10
276.4509483998
 20
169.2099722607
 11
276.8259485786
 21
169.2099722607
  0
LINE
  5
44B
100
AcDbEntity
  8
0
100
AcDbLine
 62
7
  6
CONTINUOUS
 10
279.0759485786
 20
169.2099722607
 11
281.3259485786
 21
169.2099722607
  0
LINE
  5
44C
100
AcDbEntity
  8
0
100
AcDbLine
 62
7
  6
CONTINUOUS
 10
276.4509483998
 20
169.7844403443
 11
276.8259485786
 21
169.7844403443
  0
LINE
  5
44D
100
AcDbEntity
  8
0
100
AcDbLine
 62
7
  6
CONTINUOUS
 10
279.6384485786
 20
169.7844403443
 11
281.3259485786
 21
169.7844403443
  0
LINE
  5
44E
100
AcDbEntity
  8
0
100
AcDbLine
 62
7
  6
CONTINUOUS
 10
271.2009485786
 20
171.2206105871
 11
272.7946985339
 21
171.2206105871
  0
LINE
  5
44F
100
AcDbEntity
  8
0
100
AcDbLine
 62
7
  6
CONTINUOUS
 10
280.8067811172
 20
165.4399722607
 11
281.32761604
 21
165.3335892946
  0
LINE
  5
450
100
AcDbEntity
  8
0
100
AcDbLine
 62
7
  6
CONTINUOUS
 10
294.45261604
 20
163.3123126418
 11
294.9734485786
 21
163.2059296758
  0
LINE
  5
451
100
AcDbEntity
  8
0
100
AcDbLine
 62
7
  6
CONTINUOUS
 10
294.3484485786
 20
165.4399722607
 11
294.8692811172
 21
165.3335892946
  0
LINE
  5
452
100
AcDbEntity
  8
0
100
AcDbLine
 62
7
  6
CONTINUOUS
 10
275.9821985786
 20
169.3057169385
 11
276.4509483998
 21
169.2099722607
  0
LINE
  5
453
100
AcDbEntity
  8
0
100
AcDbLine
 62
7
  6
CONTINUOUS
 10
293.20261604
 20
161.1846530975
 11
293.6192811172
 21
161.0782701314
  0
LINE
  5
454
100
AcDbEntity
  8
0
100
AcDbLine
 62
7
  6
CONTINUOUS
 10
293.4109485786
 20
162.7803978116
 11
293.82761604
 21
162.6740148456
  0
LINE
  5
455
100
AcDbEntity
  8
0
100
AcDbLine
 62
7
  6
CONTINUOUS
 10
294.45261604
 20
162.6740148456
 11
294.8692811172
 21
162.5676318795
  0
LINE
  5
456
100
AcDbEntity
  8
0
100
AcDbLine
 62
7
  6
CONTINUOUS
 10
276.0759487574
 20
169.8801850138
 11
276.4509483998
 21
169.7844403443
  0
LINE
  5
457
100
AcDbEntity
  8
0
100
AcDbLine
 62
7
  6
CONTINUOUS
 10
280.9109485786
 20
164.9080574305
 11
281.2234485786
 21
164.8016744644
  0
LINE
  5
458
100
AcDbEntity
  8
0
100
AcDbLine
 62
7
  6
CONTINUOUS
 10
293.51511604
 20
163.4186956079
 11
293.82761604
 21
163.3123126418
  0
LINE
  5
459
100
AcDbEntity
  8
0
100
AcDbLine
 62
7
  6
CONTINUOUS
 10
274.2442823093
 20
165.3335892946
 11
274.6609485786
 21
165.1208233625
  0
LINE
  5
45A
100
AcDbEntity
  8
0
100
AcDbLine
 62
7
  6
CONTINUOUS
 10
288.3067811172
 20
160.759121196
 11
288.7234485786
 21
160.546355236
  0
LINE
  5
45B
100
AcDbEntity
  8
0
100
AcDbLine
 62
7
  6
CONTINUOUS
 10
275.6071983998
 20
169.4972063025
 11
275.9821985786
 21
169.3057169385
  0
LINE
  5
45C
100
AcDbEntity
  8
0
100
AcDbLine
 62
7
  6
CONTINUOUS
 10
274.1401148479
 20
164.6952914984
 11
274.4526148479
 21
164.4825255663
  0
LINE
  5
45D
100
AcDbEntity
  8
0
100
AcDbLine
 62
7
  6
CONTINUOUS
 10
269.4526148479
 20
165.3335892946
 11
269.8692823093
 21
165.0144403965
  0
LINE
  5
45E
100
AcDbEntity
  8
0
100
AcDbLine
 62
7
  6
CONTINUOUS
 10
241.8986614434
 20
196.7884672305
 11
242.1539805619
 21
196.5384671113
  0
LINE
  5
45F
100
AcDbEntity
  8
0
100
AcDbLine
 62
7
  6
CONTINUOUS
 10
271.4317823093
 20
161.1846530975
 11
271.8484485786
 21
160.759121196
  0
LINE
  5
460
100
AcDbEntity
  8
0
100
AcDbLine
 62
7
  6
CONTINUOUS
 10
269.3484485786
 20
164.6952914984
 11
269.5567823093
 21
164.4825255663
  0
LINE
  5
461
100
AcDbEntity
  8
0
100
AcDbLine
 62
7
  6
CONTINUOUS
 10
274.6609485786
 20
165.1208233625
 11
275.0776148479
 21
164.6952914984
  0
LINE
  5
462
100
AcDbEntity
  8
0
100
AcDbLine
 62
7
  6
CONTINUOUS
 10
276.8192817132
 20
153.0510360635
 11
277.1317817132
 21
152.6255041621
  0
LINE
  5
463
100
AcDbEntity
  8
0
100
AcDbLine
 62
7
  6
CONTINUOUS
 10
269.8692823093
 20
162.8867807776
 11
270.1817823093
 21
162.4612489135
  0
LINE
  5
464
100
AcDbEntity
  8
0
100
AcDbLine
 62
7
  6
CONTINUOUS
 10
269.8692823093
 20
165.0144403965
 11
270.1817823093
 21
164.5889085323
  0
LINE
  5
465
100
AcDbEntity
  8
0
100
AcDbLine
 62
7
  6
CONTINUOUS
 10
279.8401154439
 20
154.9659296758
 11
280.1526148479
 21
154.5403978116
  0
LINE
  5
466
100
AcDbEntity
  8
0
100
AcDbLine
 62
7
  6
CONTINUOUS
 10
244.5795123665
 20
202.1634674689
 11
244.8348315744
 21
201.7884674689
  0
LINE
  5
467
100
AcDbEntity
  8
0
100
AcDbLine
 62
7
  6
CONTINUOUS
 10
273.4859485786
 20
154.5403978116
 11
273.6942820112
 21
154.2212489135
  0
LINE
  5
468
100
AcDbEntity
  8
0
100
AcDbLine
 62
7
  6
CONTINUOUS
 10
272.9651151459
 20
156.3489085323
 11
273.1734485786
 21
156.0297596342
  0
LINE
  5
469
100
AcDbEntity
  8
0
100
AcDbLine
 62
7
  6
CONTINUOUS
 10
271.8484485786
 20
161.7165680022
 11
272.0567823093
 21
161.3974191041
  0
LINE
  5
46A
100
AcDbEntity
  8
0
100
AcDbLine
 62
7
  6
CONTINUOUS
 10
245.6007890081
 20
201.9134669921
 11
245.3454698561
 21
202.4134672305
  0
LINE
  5
46B
100
AcDbEntity
  8
0
100
AcDbLine
 62
7
  6
CONTINUOUS
 10
245.6007890081
 20
207.9134677073
 11
245.3454698561
 21
208.4134672305
  0
LINE
  5
46C
100
AcDbEntity
  8
0
100
AcDbLine
 62
7
  6
CONTINUOUS
 10
270.5692818995
 20
153.3701850361
 11
270.6734485786
 21
153.1574191041
  0
LINE
  5
46D
100
AcDbEntity
  8
0
100
AcDbLine
 62
7
  6
CONTINUOUS
 10
273.0692820112
 20
154.2212489135
 11
273.2776151459
 21
153.7957169003
  0
LINE
  5
46E
100
AcDbEntity
  8
0
100
AcDbLine
 62
7
  6
CONTINUOUS
 10
270.0484485786
 20
153.3701850361
 11
270.1526152483
 21
153.0510360635
  0
LINE
  5
46F
100
AcDbEntity
  8
0
100
AcDbLine
 62
7
  6
CONTINUOUS
 10
261.4784485786
 20
178.8199722607
 11
261.4784485786
 21
178.6199722607
  0
LINE
  5
470
100
AcDbEntity
  8
0
100
AcDbLine
 62
7
  6
CONTINUOUS
 10
261.4784485786
 20
146.6199722607
 11
261.4784485786
 21
146.4199722607
  0
LINE
  5
471
100
AcDbEntity
  8
BEZUGSACHSEN
100
AcDbLine
 62
7
  6
CONTINUOUS
 10
261.7284485786
 20
184.5199722607
 11
261.7284485786
 21
196.5199722607
  0
LINE
  5
472
100
AcDbEntity
  8
0
100
AcDbLine
 62
7
  6
CONTINUOUS
 10
261.8484485786
 20
160.4399722607
 11
261.8484485786
 21
165.4399722607
  0
LINE
  5
473
100
AcDbEntity
  8
0
100
AcDbLine
 62
7
  6
CONTINUOUS
 10
262.4734485786
 20
161.0782701314
 11
262.4734485786
 21
165.4399722607
  0
LINE
  5
474
100
AcDbEntity
  8
BEZUGSACHSEN
100
AcDbLine
 62
7
  6
CONTINUOUS
 10
262.7284485786
 20
184.0199722607
 11
262.7284485786
 21
184.5199722607
  0
LINE
  5
475
100
AcDbEntity
  8
0
100
AcDbLine
 62
7
  6
CONTINUOUS
 10
265.5984485786
 20
160.4399722607
 11
265.5984485786
 21
161.0782701314
  0
LINE
  5
476
100
AcDbEntity
  8
0
100
AcDbLine
 62
7
  6
CONTINUOUS
 10
271.2009485786
 20
171.7950786037
 11
272.9821984892
 21
171.7950786037
  0
LINE
  5
477
100
AcDbEntity
  8
0
100
AcDbLine
 62
7
  6
CONTINUOUS
 10
279.6384485786
 20
173.135504244
 11
281.3259485786
 21
173.135504244
  0
LINE
  5
478
100
AcDbEntity
  8
0
100
AcDbLine
 62
7
  6
CONTINUOUS
 10
271.2009485786
 20
173.2312489135
 11
272.9821984892
 21
173.2312489135
  0
LINE
  5
479
100
AcDbEntity
  8
0
100
AcDbLine
 62
7
  6
CONTINUOUS
 10
270.6384485786
 20
173.7099722607
 11
272.8884485786
 21
173.7099722607
  0
LINE
  5
47A
100
AcDbEntity
  8
0
100
AcDbLine
 62
7
  6
CONTINUOUS
 10
274.9509484892
 20
173.7099722607
 11
275.5134487574
 21
173.7099722607
  0
LINE
  5
47B
100
AcDbEntity
  8
0
100
AcDbLine
 62
7
  6
CONTINUOUS
 10
277.7634487574
 20
173.7099722607
 11
278.3259487574
 21
173.7099722607
  0
LINE
  5
47C
100
AcDbEntity
  8
0
100
AcDbLine
 62
7
  6
CONTINUOUS
 10
279.0759485786
 20
173.7099722607
 11
281.3259485786
 21
173.7099722607
  0
LINE
  5
47D
100
AcDbEntity
  8
0
100
AcDbLine
 62
7
  6
CONTINUOUS
 10
272.8884485786
 20
173.7099722607
 11
273.357198668
 21
173.6142275912
  0
LINE
  5
47E
100
AcDbEntity
  8
0
100
AcDbLine
 62
7
  6
CONTINUOUS
 10
281.3259485786
 20
173.7099722607
 11
281.7946989362
 21
173.6142275912
  0
LINE
  5
47F
100
AcDbEntity
  8
0
100
AcDbLine
 62
7
  6
CONTINUOUS
 10
281.3259485786
 20
173.135504244
 11
281.7009482209
 21
173.0397595746
  0
LINE
  5
480
100
AcDbEntity
  8
0
100
AcDbLine
 62
7
  6
CONTINUOUS
 10
294.45261604
 20
164.8016744644
 11
294.76511604
 21
164.6952914984
  0
LINE
  5
481
100
AcDbEntity
  8
0
100
AcDbLine
 62
7
  6
CONTINUOUS
 10
272.9821984892
 20
173.2312489135
 11
273.2634484892
 21
173.135504244
  0
LINE
  5
482
100
AcDbEntity
  8
0
100
AcDbLine
 62
7
  6
CONTINUOUS
 10
292.9942811172
 20
162.9931637437
 11
293.4109485786
 21
162.7803978116
  0
LINE
  5
483
100
AcDbEntity
  8
0
100
AcDbLine
 62
7
  6
CONTINUOUS
 10
294.9734485786
 20
163.2059296758
 11
295.39011604
 21
162.9931637437
  0
LINE
  5
484
100
AcDbEntity
  8
0
100
AcDbLine
 62
7
  6
CONTINUOUS
 10
292.57761604
 20
160.8655041621
 11
293.0984485786
 21
160.546355236
  0
LINE
  5
485
100
AcDbEntity
  8
0
100
AcDbLine
 62
7
  6
CONTINUOUS
 10
288.51511604
 20
161.3974191041
 11
288.82761604
 21
161.1846530975
  0
LINE
  5
486
100
AcDbEntity
  8
0
100
AcDbLine
 62
7
  6
CONTINUOUS
 10
275.7946987574
 20
170.0716744197
 11
276.0759487574
 21
169.8801850138
  0
LINE
  5
487
100
AcDbEntity
  8
0
100
AcDbLine
 62
7
  6
CONTINUOUS
 10
293.20261604
 20
163.6314615399
 11
293.51511604
 21
163.4186956079
  0
LINE
  5
488
100
AcDbEntity
  8
0
100
AcDbLine
 62
7
  6
CONTINUOUS
 10
294.8692811172
 20
162.5676318795
 11
295.1817811172
 21
162.3548659474
  0
LINE
  5
489
100
AcDbEntity
  8
0
100
AcDbLine
 62
7
  6
CONTINUOUS
 10
242.5369592397
 20
197.1634672305
 11
242.0263210027
 21
197.5384672305
  0
LINE
  5
48A
100
AcDbEntity
  8
0
100
AcDbLine
 62
7
  6
CONTINUOUS
 10
281.32761604
 20
165.3335892946
 11
281.7442811172
 21
165.0144403965
  0
LINE
  5
48B
100
AcDbEntity
  8
0
100
AcDbLine
 62
7
  6
CONTINUOUS
 10
273.357198668
 20
173.6142275912
 11
273.7321985786
 21
173.3269935829
  0
LINE
  5
48C
100
AcDbEntity
  8
0
100
AcDbLine
 62
7
  6
CONTINUOUS
 10
245.3454698561
 20
202.4134672305
 11
244.8348315744
 21
202.9134674689
  0
LINE
  5
48D
100
AcDbEntity
  8
0
100
AcDbLine
 62
7
  6
CONTINUOUS
 10
275.2321987574
 20
169.8801850138
 11
275.6071983998
 21
169.4972063025
  0
LINE
  5
48E
100
AcDbEntity
  8
0
100
AcDbLine
 62
7
  6
CONTINUOUS
 10
281.2234485786
 20
164.8016744644
 11
281.4317811172
 21
164.5889085323
  0
LINE
  5
48F
100
AcDbEntity
  8
0
100
AcDbLine
 62
7
  6
CONTINUOUS
 10
273.2634484892
 20
173.135504244
 11
273.4509485786
 21
172.9440149052
  0
LINE
  5
490
100
AcDbEntity
  8
0
100
AcDbLine
 62
7
  6
CONTINUOUS
 10
273.7321985786
 20
173.3269935829
 11
274.0134485786
 21
172.9440149052
  0
LINE
  5
491
100
AcDbEntity
  8
0
100
AcDbLine
 62
7
  6
CONTINUOUS
 10
244.5795123665
 20
208.1634667537
 11
244.8348315744
 21
207.7884667537
  0
LINE
  5
492
100
AcDbEntity
  8
0
100
AcDbLine
 62
7
  6
CONTINUOUS
 10
279.5276154439
 20
154.5403978116
 11
279.7359485786
 21
154.2212489135
  0
LINE
  5
493
100
AcDbEntity
  8
0
100
AcDbLine
 62
7
  6
CONTINUOUS
 10
271.2234485786
 20
161.6101850361
 11
271.4317823093
 21
161.1846530975
  0
LINE
  5
494
100
AcDbEntity
  8
0
100
AcDbLine
 62
7
  6
CONTINUOUS
 10
276.6109485786
 20
153.4765680022
 11
276.8192817132
 21
153.0510360635
  0
LINE
  5
495
100
AcDbEntity
  8
0
100
AcDbLine
 62
7
  6
CONTINUOUS
 10
277.2359485786
 20
153.4765680022
 11
277.4442817132
 21
153.0510360635
  0
LINE
  5
496
100
AcDbEntity
  8
0
100
AcDbLine
 62
7
  6
CONTINUOUS
 10
242.9281420091
 20
224.3060304312
 11
240.7380814557
 21
229.0026304443
  0
LINE
  5
497
100
AcDbEntity
  8
0
100
AcDbLine
 62
7
  6
CONTINUOUS
 10
269.5567823093
 20
162.3548659474
 11
269.6609485786
 21
162.0357169003
  0
LINE
  5
498
100
AcDbEntity
  8
0
100
AcDbLine
 62
7
  6
CONTINUOUS
 10
270.1817823093
 20
162.4612489135
 11
270.2859485786
 21
162.1420998663
  0
LINE
  5
499
100
AcDbEntity
  8
0
100
AcDbLine
 62
7
  6
CONTINUOUS
 10
269.5567823093
 20
164.4825255663
 11
269.6609485786
 21
164.1633763701
  0
LINE
  5
49A
100
AcDbEntity
  8
0
100
AcDbLine
 62
7
  6
CONTINUOUS
 10
270.1817823093
 20
164.5889085323
 11
270.2859485786
 21
164.2697596342
  0
LINE
  5
49B
100
AcDbEntity
  8
0
100
AcDbLine
 62
7
  6
CONTINUOUS
 10
266.4317817132
 20
160.4399722607
 11
266.4317817132
 21
165.4399722607
  0
LINE
  5
49C
100
AcDbEntity
  8
BEZUGSACHSEN
100
AcDbLine
 62
7
  6
CONTINUOUS
 10
266.7284485786
 20
110.5199722607
 11
266.7284485786
 21
141.2199722607
  0
LINE
  5
49D
100
AcDbEntity
  8
0
100
AcDbLine
 62
7
  6
CONTINUOUS
 10
267.0567823093
 20
161.0782701314
 11
267.0567823093
 21
162.6740148456
  0
LINE
  5
49E
100
AcDbEntity
  8
0
100
AcDbLine
 62
7
  6
CONTINUOUS
 10
267.0567823093
 20
163.3123126418
 11
267.0567823093
 21
164.8016744644
  0
LINE
  5
49F
100
AcDbEntity
  8
0
100
AcDbLine
 62
7
  6
CONTINUOUS
 10
269.6609485786
 20
161.7165680022
 11
269.6609485786
 21
162.0357169003
  0
LINE
  5
4A0
100
AcDbEntity
  8
0
100
AcDbLine
 62
7
  6
CONTINUOUS
 10
269.6609485786
 20
163.9506104381
 11
269.6609485786
 21
164.1633763701
  0
LINE
  5
4A1
100
AcDbEntity
  8
0
100
AcDbLine
 62
7
  6
CONTINUOUS
 10
270.2859485786
 20
161.6101850361
 11
270.2859485786
 21
162.1420998663
  0
LINE
  5
4A2
100
AcDbEntity
  8
0
100
AcDbLine
 62
7
  6
CONTINUOUS
 10
270.2859485786
 20
163.844227472
 11
270.2859485786
 21
164.2697596342
  0
LINE
  5
4A3
100
AcDbEntity
  8
0
100
AcDbLine
 62
7
  6
CONTINUOUS
 10
270.6384485786
 20
169.2099722607
 11
270.6384485786
 21
173.7099722607
  0
LINE
  5
4A4
100
AcDbEntity
  8
0
100
AcDbLine
 62
7
  6
CONTINUOUS
 10
271.1192823093
 20
162.1420998663
 11
271.1192823093
 21
163.737844506
  0
LINE
  5
4A5
100
AcDbEntity
  8
0
100
AcDbLine
 62
7
  6
CONTINUOUS
 10
271.2009485786
 20
169.2099722607
 11
271.2009485786
 21
171.2206105871
  0
LINE
  5
4A6
100
AcDbEntity
  8
0
100
AcDbLine
 62
7
  6
CONTINUOUS
 10
271.2009485786
 20
171.7950786037
 11
271.2009485786
 21
173.2312489135
  0
LINE
  5
4A7
100
AcDbEntity
  8
0
100
AcDbLine
 62
7
  6
CONTINUOUS
 10
259.3484485786
 20
160.4399722607
 11
261.0151151459
 21
165.4399722607
  0
LINE
  5
4A8
100
AcDbEntity
  8
0
100
AcDbLine
 62
7
  6
CONTINUOUS
 10
258.9317818622
 20
161.0782701314
 11
260.3901151459
 21
165.4399722607
  0
LINE
  5
4A9
100
AcDbEntity
  8
RUNDUNGEN
100
AcDbLine
 62
7
  6
CONTINUOUS
 10
253.7284485786
 20
178.6199722607
 11
299.7284485786
 21
178.6199722607
  0
LINE
  5
4AA
100
AcDbEntity
  8
0
100
AcDbLine
 62
7
  6
CONTINUOUS
 10
254.2288418473
 20
178.8199722607
 11
299.2280553098
 21
178.8199722607
  0
LINE
  5
4AB
100
AcDbEntity
  8
0
100
AcDbLine
 62
7
  6
CONTINUOUS
 10
281.7946989362
 20
173.6142275912
 11
282.1696985786
 21
173.4227382524
  0
LINE
  5
4AC
100
AcDbEntity
  8
0
100
AcDbLine
 62
7
  6
CONTINUOUS
 10
244.1965336888
 20
202.4134672305
 11
244.5795123665
 21
202.1634674689
  0
LINE
  5
4AD
100
AcDbEntity
  8
0
100
AcDbLine
 62
7
  6
CONTINUOUS
 10
281.7009482209
 20
173.0397595746
 11
281.9821982209
 21
172.8482702357
  0
LINE
  5
4AE
100
AcDbEntity
  8
0
100
AcDbLine
 62
7
  6
CONTINUOUS
 10
294.8692811172
 20
165.3335892946
 11
295.2859485786
 21
165.0144403965
  0
LINE
  5
4AF
100
AcDbEntity
  8
0
100
AcDbLine
 62
7
  6
CONTINUOUS
 10
245.3454698561
 20
208.4134672305
 11
244.8348315744
 21
208.9134667537
  0
LINE
  5
4B0
100
AcDbEntity
  8
0
100
AcDbLine
 62
7
  6
CONTINUOUS
 10
287.89011604
 20
161.1846530975
 11
288.3067811172
 21
160.759121196
  0
LINE
  5
4B1
100
AcDbEntity
  8
0
100
AcDbLine
 62
7
  6
CONTINUOUS
 10
292.89011604
 20
161.5038020701
 11
293.20261604
 21
161.1846530975
  0
LINE
  5
4B2
100
AcDbEntity
  8
0
100
AcDbLine
 62
7
  6
CONTINUOUS
 10
282.1696985786
 20
173.4227382524
 11
282.5446982209
 21
173.0397595746
  0
LINE
  5
4B3
100
AcDbEntity
  8
0
100
AcDbLine
 62
7
  6
CONTINUOUS
 10
292.57761604
 20
163.4186956079
 11
292.9942811172
 21
162.9931637437
  0
LINE
  5
4B4
100
AcDbEntity
  8
0
100
AcDbLine
 62
7
  6
CONTINUOUS
 10
281.7442811172
 20
165.0144403965
 11
282.0567811172
 21
164.5889085323
  0
LINE
  5
4B5
100
AcDbEntity
  8
0
100
AcDbLine
 62
7
  6
CONTINUOUS
 10
275.6071983998
 20
170.358908428
 11
275.7946987574
 21
170.0716744197
  0
LINE
  5
4B6
100
AcDbEntity
  8
0
100
AcDbLine
 62
7
  6
CONTINUOUS
 10
282.0276148479
 20
153.0510360635
 11
282.2359485786
 21
152.6255041621
  0
LINE
  5
4B7
100
AcDbEntity
  8
0
100
AcDbLine
 62
7
  6
CONTINUOUS
 10
275.044698668
 20
170.2631637586
 11
275.2321987574
 21
169.8801850138
  0
LINE
  5
4B8
100
AcDbEntity
  8
0
100
AcDbLine
 62
7
  6
CONTINUOUS
 10
280.1526148479
 20
154.5403978116
 11
280.3609485786
 21
154.0084828324
  0
LINE
  5
4B9
100
AcDbEntity
  8
0
100
AcDbLine
 62
7
  6
CONTINUOUS
 10
273.357198668
 20
171.4120999259
 11
274.200948668
 21
169.2099722607
  0
LINE
  5
4BA
100
AcDbEntity
  8
0
100
AcDbLine
 62
7
  6
CONTINUOUS
 10
272.7946985339
 20
171.2206105871
 11
273.5446984892
 21
169.2099722607
  0
LINE
  5
4BB
100
AcDbEntity
  8
0
100
AcDbLine
 62
7
  6
CONTINUOUS
 10
274.4526148479
 20
164.4825255663
 11
274.5567823093
 21
164.1633763701
  0
LINE
  5
4BC
100
AcDbEntity
  8
0
100
AcDbLine
 62
7
  6
CONTINUOUS
 10
273.4509485786
 20
172.9440149052
 11
273.5446984892
 21
172.6567808969
  0
LINE
  5
4BD
100
AcDbEntity
  8
0
100
AcDbLine
 62
7
  6
CONTINUOUS
 10
279.7359485786
 20
154.2212489135
 11
279.8401154439
 21
153.9020998663
  0
LINE
  5
4BE
100
AcDbEntity
  8
0
100
AcDbLine
 62
7
  6
CONTINUOUS
 10
274.0134485786
 20
172.9440149052
 11
274.1071984892
 21
172.6567808969
  0
LINE
  5
4BF
100
AcDbEntity
  8
0
100
AcDbLine
 62
7
  6
CONTINUOUS
 10
282.5484485786
 20
153.2638020701
 11
282.6526148479
 21
152.9446530975
  0
LINE
  5
4C0
100
AcDbEntity
  8
0
100
AcDbLine
 62
7
  6
CONTINUOUS
 10
271.7442823093
 20
162.1420998663
 11
271.8484485786
 21
161.7165680022
  0
LINE
  5
4C1
100
AcDbEntity
  8
0
100
AcDbLine
 62
7
  6
CONTINUOUS
 10
273.6942820112
 20
154.2212489135
 11
273.7984485786
 21
153.7957169003
  0
LINE
  5
4C2
100
AcDbEntity
  8
0
100
AcDbLine
 62
7
  6
CONTINUOUS
 10
273.5901151459
 20
156.4552914984
 11
273.6942820112
 21
156.0297596342
  0
LINE
  5
4C3
100
AcDbEntity
  8
0
100
AcDbLine
 62
7
  6
CONTINUOUS
 10
275.5134487574
 20
170.7418871058
 11
275.6071983998
 21
170.358908428
  0
LINE
  5
4C4
100
AcDbEntity
  8
0
100
AcDbLine
 62
7
  6
CONTINUOUS
 10
271.1192823093
 20
162.1420998663
 11
271.2234485786
 21
161.6101850361
  0
LINE
  5
4C5
100
AcDbEntity
  8
0
100
AcDbLine
 62
7
  6
CONTINUOUS
 10
275.0776148479
 20
164.6952914984
 11
275.1817823093
 21
164.1633763701
  0
LINE
  5
4C6
100
AcDbEntity
  8
0
100
AcDbLine
 62
7
  6
CONTINUOUS
 10
271.7151152949
 20
154.5403978116
 11
271.7151152949
 21
154.9659296758
  0
LINE
  5
4C7
100
AcDbEntity
  8
0
100
AcDbLine
 62
7
  6
CONTINUOUS
 10
271.7442823093
 20
162.1420998663
 11
271.7442823093
 21
163.737844506
  0
LINE
  5
4C8
100
AcDbEntity
  8
0
100
AcDbLine
 62
7
  6
CONTINUOUS
 10
273.1734485786
 20
155.8169934041
 11
273.1734485786
 21
156.0297596342
  0
LINE
  5
4C9
100
AcDbEntity
  8
0
100
AcDbLine
 62
7
  6
CONTINUOUS
 10
273.2776151459
 20
153.3701850361
 11
273.2776151459
 21
153.7957169003
  0
LINE
  5
4CA
100
AcDbEntity
  8
0
100
AcDbLine
 62
7
  6
CONTINUOUS
 10
273.5446984892
 20
172.3695466203
 11
273.5446984892
 21
172.6567808969
  0
LINE
  5
4CB
100
AcDbEntity
  8
0
100
AcDbLine
 62
7
  6
CONTINUOUS
 10
273.6192823093
 20
162.5676318795
 11
273.6192823093
 21
163.2059296758
  0
LINE
  5
4CC
100
AcDbEntity
  8
0
100
AcDbLine
 62
7
  6
CONTINUOUS
 10
273.6942820112
 20
155.8169934041
 11
273.6942820112
 21
156.0297596342
  0
LINE
  5
4CD
100
AcDbEntity
  8
0
100
AcDbLine
 62
7
  6
CONTINUOUS
 10
273.7984485786
 20
153.3701850361
 11
273.7984485786
 21
153.7957169003
  0
LINE
  5
4CE
100
AcDbEntity
  8
0
100
AcDbLine
 62
7
  6
CONTINUOUS
 10
274.1071984892
 20
172.2738019509
 11
274.1071984892
 21
172.6567808969
  0
LINE
  5
4CF
100
AcDbEntity
  8
0
100
AcDbLine
 62
7
  6
CONTINUOUS
 10
274.5567823093
 20
161.7165680022
 11
274.5567823093
 21
162.5676318795
  0
LINE
  5
4D0
100
AcDbEntity
  8
0
100
AcDbLine
 62
7
  6
CONTINUOUS
 10
274.9509484892
 20
170.7418871058
 11
274.9509484892
 21
173.7099722607
  0
LINE
  5
4D1
100
AcDbEntity
  8
0
100
AcDbLine
 62
7
  6
CONTINUOUS
 10
275.1817823093
 20
161.6101850361
 11
275.1817823093
 21
163.2059296758
  0
LINE
  5
4D2
100
AcDbEntity
  8
0
100
AcDbLine
 62
7
  6
CONTINUOUS
 10
275.5134487574
 20
170.7418871058
 11
275.5134487574
 21
173.7099722607
  0
LINE
  5
4D3
100
AcDbEntity
  8
0
100
AcDbLine
 62
7
  6
CONTINUOUS
 10
276.0151148479
 20
162.2484828324
 11
276.0151148479
 21
162.7803978116
  0
LINE
  5
4D4
100
AcDbEntity
  8
0
100
AcDbLine
 62
7
  6
CONTINUOUS
 10
276.6109485786
 20
154.4340148456
 11
276.6109485786
 21
157.1999722607
  0
LINE
  5
4D5
100
AcDbEntity
  8
BEZUGSACHSEN
100
AcDbLine
 62
7
  6
CONTINUOUS
 10
276.7284485786
 20
184.5199722607
 11
276.7284485786
 21
195.1802262985
  0
LINE
  5
4D6
100
AcDbEntity
  8
0
100
AcDbLine
 62
7
  6
CONTINUOUS
 10
276.7348232194
 20
196.5199722607
 11
276.7348232194
 21
196.7199722607
  0
LINE
  5
4D7
100
AcDbEntity
  8
0
100
AcDbLine
 62
7
  6
CONTINUOUS
 10
277.1068028403
 20
196.5199722607
 11
277.1068028403
 21
196.7199722607
  0
LINE
  5
4D8
100
AcDbEntity
  8
0
100
AcDbLine
 62
7
  6
CONTINUOUS
 10
277.1317817132
 20
154.9659296758
 11
277.1317817132
 21
156.6680574305
  0
LINE
  5
4D9
100
AcDbEntity
  8
0
100
AcDbLine
 62
7
  6
CONTINUOUS
 10
277.2765867512
 20
196.5199722607
 11
277.2765867512
 21
196.7199722607
  0
LINE
  5
4DA
100
AcDbEntity
  8
0
100
AcDbLine
 62
7
  6
CONTINUOUS
 10
277.4734485786
 20
162.2484828324
 11
277.4734485786
 21
162.7803978116
  0
LINE
  5
4DB
100
AcDbEntity
  8
0
100
AcDbLine
 62
7
  6
CONTINUOUS
 10
271.1192823093
 20
163.737844506
 11
271.2234485786
 21
164.2697596342
  0
LINE
  5
4DC
100
AcDbEntity
  8
0
100
AcDbLine
 62
7
  6
CONTINUOUS
 10
254.2288418473
 20
184.0199722607
 11
299.2280553098
 21
184.0199722607
  0
LINE
  5
4DD
100
AcDbEntity
  8
KONSTRUKTIONSELEMENTE
100
AcDbLine
 62
7
  6
CONTINUOUS
 10
261.7284485786
 20
184.5199722607
 11
291.7284485786
 21
184.5199722607
  0
LINE
  5
4DE
100
AcDbEntity
  8
0
100
AcDbLine
 62
7
  6
CONTINUOUS
 10
241.5156827657
 20
196.9134671113
 11
241.8986614434
 21
196.7884672305
  0
LINE
  5
4DF
100
AcDbEntity
  8
0
100
AcDbLine
 62
7
  6
CONTINUOUS
 10
242.0263210027
 20
197.5384672305
 11
241.6433423249
 21
197.6634671113
  0
LINE
  5
4E0
100
AcDbEntity
  8
0
100
AcDbLine
 62
7
  6
CONTINUOUS
 10
244.8348315744
 20
202.9134674689
 11
244.324193248
 21
203.1634672305
  0
LINE
  5
4E1
100
AcDbEntity
  8
0
100
AcDbLine
 62
7
  6
CONTINUOUS
 10
244.1965336888
 20
208.4134672305
 11
244.5795123665
 21
208.1634667537
  0
LINE
  5
4E2
100
AcDbEntity
  8
0
100
AcDbLine
 62
7
  6
CONTINUOUS
 10
295.39011604
 20
162.9931637437
 11
295.8067811172
 21
162.5676318795
  0
LINE
  5
4E3
100
AcDbEntity
  8
0
100
AcDbLine
 62
7
  6
CONTINUOUS
 10
294.76511604
 20
164.6952914984
 11
294.9734485786
 21
164.4825255663
  0
LINE
  5
4E4
100
AcDbEntity
  8
0
100
AcDbLine
 62
7
  6
CONTINUOUS
 10
288.3067811172
 20
161.7165680022
 11
288.51511604
 21
161.3974191041
  0
LINE
  5
4E5
100
AcDbEntity
  8
0
100
AcDbLine
 62
7
  6
CONTINUOUS
 10
281.9821982209
 20
172.8482702357
 11
282.1696985786
 21
172.5610359592
  0
LINE
  5
4E6
100
AcDbEntity
  8
0
100
AcDbLine
 62
7
  6
CONTINUOUS
 10
292.26511604
 20
161.3974191041
 11
292.57761604
 21
160.8655041621
  0
LINE
  5
4E7
100
AcDbEntity
  8
0
100
AcDbLine
 62
7
  6
CONTINUOUS
 10
287.6817811172
 20
161.6101850361
 11
287.89011604
 21
161.1846530975
  0
LINE
  5
4E8
100
AcDbEntity
  8
0
100
AcDbLine
 62
7
  6
CONTINUOUS
 10
282.5446982209
 20
173.0397595746
 11
282.7321985786
 21
172.6567808969
  0
LINE
  5
4E9
100
AcDbEntity
  8
0
100
AcDbLine
 62
7
  6
CONTINUOUS
 10
281.4317811172
 20
164.5889085323
 11
281.5359485786
 21
164.2697596342
  0
LINE
  5
4EA
100
AcDbEntity
  8
0
100
AcDbLine
 62
7
  6
CONTINUOUS
 10
282.0567811172
 20
164.5889085323
 11
282.1609485786
 21
164.2697596342
  0
LINE
  5
4EB
100
AcDbEntity
  8
0
100
AcDbLine
 62
7
  6
CONTINUOUS
 10
274.9509484892
 20
170.7418871058
 11
275.044698668
 21
170.2631637586
  0
LINE
  5
4EC
100
AcDbEntity
  8
0
100
AcDbLine
 62
7
  6
CONTINUOUS
 10
277.7634487574
 20
170.7418871058
 11
277.7634487574
 21
173.7099722607
  0
LINE
  5
4ED
100
AcDbEntity
  8
0
100
AcDbLine
 62
7
  6
CONTINUOUS
 10
278.3067811172
 20
160.4399722607
 11
278.3067811172
 21
165.4399722607
  0
LINE
  5
4EE
100
AcDbEntity
  8
0
100
AcDbLine
 62
7
  6
CONTINUOUS
 10
278.3259487574
 20
170.7418871058
 11
278.3259487574
 21
173.7099722607
  0
LINE
  5
4EF
100
AcDbEntity
  8
0
100
AcDbLine
 62
7
  6
CONTINUOUS
 10
278.3305289809
 20
196.5199722607
 11
278.3305289809
 21
196.7199722607
  0
LINE
  5
4F0
100
AcDbEntity
  8
0
100
AcDbLine
 62
7
  6
CONTINUOUS
 10
278.6567178683
 20
196.5199722607
 11
278.6567178683
 21
196.7199722607
  0
LINE
  5
4F1
100
AcDbEntity
  8
0
100
AcDbLine
 62
7
  6
CONTINUOUS
 10
278.9317811172
 20
160.4399722607
 11
278.9317811172
 21
162.6740148456
  0
LINE
  5
4F2
100
AcDbEntity
  8
0
100
AcDbLine
 62
7
  6
CONTINUOUS
 10
278.9317811172
 20
163.3123126418
 11
278.9317811172
 21
164.9080574305
  0
LINE
  5
4F3
100
AcDbEntity
  8
0
100
AcDbLine
 62
7
  6
CONTINUOUS
 10
279.0759485786
 20
169.2099722607
 11
279.0759485786
 21
173.7099722607
  0
LINE
  5
4F4
100
AcDbEntity
  8
0
100
AcDbLine
 62
7
  6
CONTINUOUS
 10
279.090694211
 20
196.5199722607
 11
279.090694211
 21
196.7199722607
  0
LINE
  5
4F5
100
AcDbEntity
  8
0
100
AcDbLine
 62
7
  6
CONTINUOUS
 10
279.2011644323
 20
196.5199722607
 11
279.2011644323
 21
196.7199722607
  0
LINE
  5
4F6
100
AcDbEntity
  8
0
100
AcDbLine
 62
7
  6
CONTINUOUS
 10
279.2874158179
 20
196.5199722607
 11
279.2874158179
 21
196.7199722607
  0
LINE
  5
4F7
100
AcDbEntity
  8
0
100
AcDbLine
 62
7
  6
CONTINUOUS
 10
279.3197556288
 20
196.5199722607
 11
279.3197556288
 21
196.7199722607
  0
LINE
  5
4F8
100
AcDbEntity
  8
0
100
AcDbLine
 62
7
  6
CONTINUOUS
 10
279.6384485786
 20
169.7844403443
 11
279.6384485786
 21
173.135504244
  0
LINE
  5
4F9
100
AcDbEntity
  8
0
100
AcDbLine
 62
7
  6
CONTINUOUS
 10
279.8401154439
 20
153.6893339343
 11
279.8401154439
 21
153.9020998663
  0
LINE
  5
4FA
100
AcDbEntity
  8
0
100
AcDbLine
 62
7
  6
CONTINUOUS
 10
279.932099118
 20
196.5199722607
 11
279.932099118
 21
196.7199722607
  0
LINE
  5
4FB
100
AcDbEntity
  8
0
100
AcDbLine
 62
7
  6
CONTINUOUS
 10
279.9399078478
 20
196.5199722607
 11
279.9399078478
 21
196.7199722607
  0
LINE
  5
4FC
100
AcDbEntity
  8
0
100
AcDbLine
 62
7
  6
CONTINUOUS
 10
280.0614510103
 20
196.5199722607
 11
280.0614510103
 21
196.7199722607
  0
LINE
  5
4FD
100
AcDbEntity
  8
0
100
AcDbLine
 62
7
  6
CONTINUOUS
 10
280.1526148479
 20
156.6680574305
 11
280.1526148479
 21
157.1999722607
  0
LINE
  5
4FE
100
AcDbEntity
  8
0
100
AcDbLine
 62
7
  6
CONTINUOUS
 10
280.2359575009
 20
196.5199722607
 11
280.2359575009
 21
196.7199722607
  0
LINE
  5
4FF
100
AcDbEntity
  8
0
100
AcDbLine
 62
7
  6
CONTINUOUS
 10
280.3609485786
 20
153.5829509682
 11
280.3609485786
 21
154.0084828324
  0
LINE
  5
500
100
AcDbEntity
  8
0
100
AcDbLine
 62
7
  6
CONTINUOUS
 10
280.4938126267
 20
196.5199722607
 11
280.4938126267
 21
196.7199722607
  0
LINE
  5
501
100
AcDbEntity
  8
0
100
AcDbLine
 62
7
  6
CONTINUOUS
 10
280.7212821246
 20
196.5199722607
 11
280.7212821246
 21
196.7199722607
  0
LINE
  5
502
100
AcDbEntity
  8
0
100
AcDbLine
 62
7
  6
CONTINUOUS
 10
281.0321002554
 20
196.5199722607
 11
281.0321002554
 21
196.7199722607
  0
LINE
  5
503
100
AcDbEntity
  8
0
100
AcDbLine
 62
7
  6
CONTINUOUS
 10
281.1942823093
 20
155.1786956079
 11
281.1942823093
 21
155.604227472
  0
LINE
  5
504
100
AcDbEntity
  8
0
100
AcDbLine
 62
7
  6
CONTINUOUS
 10
281.3125327606
 20
196.5199722607
 11
281.3125327606
 21
196.7199722607
  0
LINE
  5
505
100
AcDbEntity
  8
0
100
AcDbLine
 62
7
  6
CONTINUOUS
 10
281.5359485786
 20
163.9506104381
 11
281.5359485786
 21
164.2697596342
  0
LINE
  5
506
100
AcDbEntity
  8
0
100
AcDbLine
 62
7
  6
CONTINUOUS
 10
281.6459282684
 20
196.5199722607
 11
281.6459282684
 21
196.7199722607
  0
LINE
  5
507
100
AcDbEntity
  8
0
100
AcDbLine
 62
7
  6
CONTINUOUS
 10
281.8655888739
 20
196.5199722607
 11
281.8655888739
 21
196.7199722607
  0
LINE
  5
508
100
AcDbEntity
  8
0
100
AcDbLine
 62
7
  6
CONTINUOUS
 10
282.0276148479
 20
153.0510360635
 11
282.0276148479
 21
155.1786956079
  0
LINE
  5
509
100
AcDbEntity
  8
0
100
AcDbLine
 62
7
  6
CONTINUOUS
 10
282.0276148479
 20
155.604227472
 11
282.0276148479
 21
156.4552914984
  0
LINE
  5
50A
100
AcDbEntity
  8
0
100
AcDbLine
 62
7
  6
CONTINUOUS
 10
282.0548638305
 20
196.5199722607
 11
282.0548638305
 21
196.7199722607
  0
LINE
  5
50B
100
AcDbEntity
  8
0
100
AcDbLine
 62
7
  6
CONTINUOUS
 10
282.0734363742
 20
196.5199722607
 11
282.0734363742
 21
196.7199722607
  0
LINE
  5
50C
100
AcDbEntity
  8
0
100
AcDbLine
 62
7
  6
CONTINUOUS
 10
282.1609485786
 20
163.844227472
 11
282.1609485786
 21
164.2697596342
  0
LINE
  5
50D
100
AcDbEntity
  8
0
100
AcDbLine
 62
7
  6
CONTINUOUS
 10
282.2634482209
 20
170.7418871058
 11
282.2634482209
 21
172.1780572814
  0
LINE
  5
50E
100
AcDbEntity
  8
0
100
AcDbLine
 62
7
  6
CONTINUOUS
 10
282.5484485786
 20
153.2638020701
 11
282.5484485786
 21
155.1786956079
  0
LINE
  5
50F
100
AcDbEntity
  8
0
100
AcDbLine
 62
7
  6
CONTINUOUS
 10
282.5484485786
 20
155.604227472
 11
282.5484485786
 21
156.4552914984
  0
LINE
  5
510
100
AcDbEntity
  8
0
100
AcDbLine
 62
7
  6
CONTINUOUS
 10
282.8259482209
 20
170.7418871058
 11
282.8259482209
 21
172.1780572814
  0
LINE
  5
511
100
AcDbEntity
  8
0
100
AcDbLine
 62
7
  6
CONTINUOUS
 10
282.9942811172
 20
160.4399722607
 11
282.9942811172
 21
165.4399722607
  0
LINE
  5
512
100
AcDbEntity
  8
0
100
AcDbLine
 62
7
  6
CONTINUOUS
 10
283.1858866217
 20
196.5199722607
 11
283.1858866217
 21
196.7199722607
  0
LINE
  5
513
100
AcDbEntity
  8
0
100
AcDbLine
 62
7
  6
CONTINUOUS
 10
283.4604646252
 20
196.5199722607
 11
283.4604646252
 21
196.7199722607
  0
LINE
  5
514
100
AcDbEntity
  8
0
100
AcDbLine
 62
7
  6
CONTINUOUS
 10
283.4859485786
 20
152.1999722607
 11
283.4859485786
 21
152.6255041621
  0
LINE
  5
515
100
AcDbEntity
  8
0
100
AcDbLine
 62
7
  6
CONTINUOUS
 10
278.2321985786
 20
170.2631637586
 11
278.3259487574
 21
170.7418871058
  0
LINE
  5
516
100
AcDbEntity
  8
0
100
AcDbLine
 62
7
  6
CONTINUOUS
 10
271.7442823093
 20
163.737844506
 11
271.8484485786
 21
164.1633763701
  0
LINE
  5
517
100
AcDbEntity
  8
0
100
AcDbLine
 62
7
  6
CONTINUOUS
 10
270.1526152483
 20
156.0297596342
 11
270.2567819181
 21
156.4552914984
  0
LINE
  5
518
100
AcDbEntity
  8
0
100
AcDbLine
 62
7
  6
CONTINUOUS
 10
273.5901151459
 20
155.3914615399
 11
273.6942820112
 21
155.8169934041
  0
LINE
  5
519
100
AcDbEntity
  8
0
100
AcDbLine
 62
7
  6
CONTINUOUS
 10
275.0776148479
 20
161.1846530975
 11
275.1817823093
 21
161.6101850361
  0
LINE
  5
51A
100
AcDbEntity
  8
0
100
AcDbLine
 62
7
  6
CONTINUOUS
 10
277.6696985786
 20
170.358908428
 11
277.7634487574
 21
170.7418871058
  0
LINE
  5
51B
100
AcDbEntity
  8
0
100
AcDbLine
 62
7
  6
CONTINUOUS
 10
269.5567823093
 20
163.6314615399
 11
269.6609485786
 21
163.9506104381
  0
LINE
  5
51C
100
AcDbEntity
  8
0
100
AcDbLine
 62
7
  6
CONTINUOUS
 10
270.1817823093
 20
163.5250785739
 11
270.2859485786
 21
163.844227472
  0
LINE
  5
51D
100
AcDbEntity
  8
0
100
AcDbLine
 62
7
  6
CONTINUOUS
 10
269.5567823093
 20
161.3974191041
 11
269.6609485786
 21
161.7165680022
  0
LINE
  5
51E
100
AcDbEntity
  8
0
100
AcDbLine
 62
7
  6
CONTINUOUS
 10
273.4509485786
 20
172.082312612
 11
273.5446984892
 21
172.3695466203
  0
LINE
  5
51F
100
AcDbEntity
  8
0
100
AcDbLine
 62
7
  6
CONTINUOUS
 10
270.1817823093
 20
161.2910360635
 11
270.2859485786
 21
161.6101850361
  0
LINE
  5
520
100
AcDbEntity
  8
0
100
AcDbLine
 62
7
  6
CONTINUOUS
 10
274.0134485786
 20
171.9865679426
 11
274.1071984892
 21
172.2738019509
  0
LINE
  5
521
100
AcDbEntity
  8
0
100
AcDbLine
 62
7
  6
CONTINUOUS
 10
274.4526148479
 20
161.3974191041
 11
274.5567823093
 21
161.7165680022
  0
LINE
  5
522
100
AcDbEntity
  8
0
100
AcDbLine
 62
7
  6
CONTINUOUS
 10
271.2234485786
 20
164.2697596342
 11
271.4317823093
 21
164.6952914984
  0
LINE
  5
523
100
AcDbEntity
  8
0
100
AcDbLine
 62
7
  6
CONTINUOUS
 10
239.7284485786
 20
193.0384672305
 11
245.7284485786
 21
193.0384672305
  0
LINE
  5
524
100
AcDbEntity
  8
0
100
AcDbLine
 62
7
  6
CONTINUOUS
 10
245.7284485786
 20
193.7884672305
 11
243.0475974767
 21
193.7884672305
  0
LINE
  5
525
100
AcDbEntity
  8
0
100
AcDbLine
 62
7
  6
CONTINUOUS
 10
242.2816401212
 20
193.7884672305
 11
240.3667463748
 21
193.7884672305
  0
LINE
  5
526
100
AcDbEntity
  8
0
100
AcDbLine
 62
7
  6
CONTINUOUS
 10
243.6858954518
 20
202.5384674689
 11
244.1965336888
 21
202.4134672305
  0
LINE
  5
527
100
AcDbEntity
  8
0
100
AcDbLine
 62
7
  6
CONTINUOUS
 10
244.8348315744
 20
208.9134667537
 11
244.324193248
 21
209.1634672305
  0
LINE
  5
528
100
AcDbEntity
  8
0
100
AcDbLine
 62
7
  6
CONTINUOUS
 10
295.2859485786
 20
165.0144403965
 11
295.5984485786
 21
164.5889085323
  0
LINE
  5
529
100
AcDbEntity
  8
0
100
AcDbLine
 62
7
  6
CONTINUOUS
 10
295.1817811172
 20
162.3548659474
 11
295.39011604
 21
162.0357169003
  0
LINE
  5
52A
100
AcDbEntity
  8
0
100
AcDbLine
 62
7
  6
CONTINUOUS
 10
295.8067811172
 20
162.5676318795
 11
296.01511604
 21
162.1420998663
  0
LINE
  5
52B
100
AcDbEntity
  8
0
100
AcDbLine
 62
7
  6
CONTINUOUS
 10
294.9734485786
 20
164.4825255663
 11
295.07761604
 21
164.2697596342
  0
LINE
  5
52C
100
AcDbEntity
  8
0
100
AcDbLine
 62
7
  6
CONTINUOUS
 10
282.1696985786
 20
172.5610359592
 11
282.2634482209
 21
172.1780572814
  0
LINE
  5
52D
100
AcDbEntity
  8
0
100
AcDbLine
 62
7
  6
CONTINUOUS
 10
288.20261604
 20
162.1420998663
 11
288.3067811172
 21
161.7165680022
  0
LINE
  5
52E
100
AcDbEntity
  8
0
100
AcDbLine
 62
7
  6
CONTINUOUS
 10
282.7321985786
 20
172.6567808969
 11
282.8259482209
 21
172.1780572814
  0
LINE
  5
52F
100
AcDbEntity
  8
0
100
AcDbLine
 62
7
  6
CONTINUOUS
 10
287.57761604
 20
162.1420998663
 11
287.6817811172
 21
161.6101850361
  0
LINE
  5
530
100
AcDbEntity
  8
0
100
AcDbLine
 62
7
  6
CONTINUOUS
 10
283.6192811172
 20
161.0782701314
 11
283.6192811172
 21
165.4399722607
  0
LINE
  5
531
100
AcDbEntity
  8
0
100
AcDbLine
 62
7
  6
CONTINUOUS
 10
283.6942823093
 20
155.1786956079
 11
283.6942823093
 21
155.604227472
  0
LINE
  5
532
100
AcDbEntity
  8
0
100
AcDbLine
 62
7
  6
CONTINUOUS
 10
283.7315075435
 20
196.5199722607
 11
283.7315075435
 21
196.7199722607
  0
LINE
  5
533
100
AcDbEntity
  8
0
100
AcDbLine
 62
7
  6
CONTINUOUS
 10
284.0881851748
 20
196.5199722607
 11
284.0881851748
 21
196.7199722607
  0
LINE
  5
534
100
AcDbEntity
  8
0
100
AcDbLine
 62
7
  6
CONTINUOUS
 10
284.3521589875
 20
196.5199722607
 11
284.3521589875
 21
196.7199722607
  0
LINE
  5
535
100
AcDbEntity
  8
0
100
AcDbLine
 62
7
  6
CONTINUOUS
 10
284.6125976775
 20
196.5199722607
 11
284.6125976775
 21
196.7199722607
  0
LINE
  5
536
100
AcDbEntity
  8
0
100
AcDbLine
 62
7
  6
CONTINUOUS
 10
284.9914253828
 20
196.5199722607
 11
284.9914253828
 21
196.7199722607
  0
LINE
  5
537
100
AcDbEntity
  8
0
100
AcDbLine
 62
7
  6
CONTINUOUS
 10
285.0238056748
 20
196.5199722607
 11
285.0238056748
 21
196.7199722607
  0
LINE
  5
538
100
AcDbEntity
  8
0
100
AcDbLine
 62
7
  6
CONTINUOUS
 10
285.1118236352
 20
196.5199722607
 11
285.1118236352
 21
196.7199722607
  0
LINE
  5
539
100
AcDbEntity
  8
0
100
AcDbLine
 62
7
  6
CONTINUOUS
 10
285.284819017
 20
196.5199722607
 11
285.284819017
 21
196.7199722607
  0
LINE
  5
53A
100
AcDbEntity
  8
0
100
AcDbLine
 62
7
  6
CONTINUOUS
 10
285.4284746208
 20
196.5199722607
 11
285.4284746208
 21
196.7199722607
  0
LINE
  5
53B
100
AcDbEntity
  8
0
100
AcDbLine
 62
7
  6
CONTINUOUS
 10
285.6864468072
 20
196.5199722607
 11
285.6864468072
 21
196.7199722607
  0
LINE
  5
53C
100
AcDbEntity
  8
0
100
AcDbLine
 62
7
  6
CONTINUOUS
 10
286.2008710689
 20
196.5199722607
 11
286.2008710689
 21
196.7199722607
  0
LINE
  5
53D
100
AcDbEntity
  8
0
100
AcDbLine
 62
7
  6
CONTINUOUS
 10
286.5144814754
 20
196.5199722607
 11
286.5144814754
 21
196.7199722607
  0
LINE
  5
53E
100
AcDbEntity
  8
0
100
AcDbLine
 62
7
  6
CONTINUOUS
 10
286.7137755395
 20
196.5199722607
 11
286.7137755395
 21
196.7199722607
  0
LINE
  5
53F
100
AcDbEntity
  8
BEZUGSACHSEN
100
AcDbLine
 62
7
  6
CONTINUOUS
 10
286.7284485786
 20
110.5199722607
 11
286.7284485786
 21
141.2199722607
  0
LINE
  5
540
100
AcDbEntity
  8
0
100
AcDbLine
 62
7
  6
CONTINUOUS
 10
286.7442811172
 20
160.4399722607
 11
286.7442811172
 21
161.0782701314
  0
LINE
  5
541
100
AcDbEntity
  8
0
100
AcDbLine
 62
7
  6
CONTINUOUS
 10
286.9980462081
 20
196.5199722607
 11
286.9980462081
 21
196.7199722607
  0
LINE
  5
542
100
AcDbEntity
  8
0
100
AcDbLine
 62
7
  6
CONTINUOUS
 10
287.2529777755
 20
196.5199722607
 11
287.2529777755
 21
196.7199722607
  0
LINE
  5
543
100
AcDbEntity
  8
0
100
AcDbLine
 62
7
  6
CONTINUOUS
 10
287.5635470063
 20
196.5199722607
 11
287.5635470063
 21
196.7199722607
  0
LINE
  5
544
100
AcDbEntity
  8
0
100
AcDbLine
 62
7
  6
CONTINUOUS
 10
287.57761604
 20
162.1420998663
 11
287.57761604
 21
165.4399722607
  0
LINE
  5
545
100
AcDbEntity
  8
0
100
AcDbLine
 62
7
  6
CONTINUOUS
 10
287.7876188846
 20
196.5199722607
 11
287.7876188846
 21
196.7199722607
  0
LINE
  5
546
100
AcDbEntity
  8
0
100
AcDbLine
 62
7
  6
CONTINUOUS
 10
287.8973742603
 20
196.5199722607
 11
287.8973742603
 21
196.7199722607
  0
LINE
  5
547
100
AcDbEntity
  8
0
100
AcDbLine
 62
7
  6
CONTINUOUS
 10
287.9008687768
 20
196.5199722607
 11
287.9008687768
 21
196.7199722607
  0
LINE
  5
548
100
AcDbEntity
  8
0
100
AcDbLine
 62
7
  6
CONTINUOUS
 10
288.0267488551
 20
196.5199722607
 11
288.0267488551
 21
196.7199722607
  0
LINE
  5
549
100
AcDbEntity
  8
0
100
AcDbLine
 62
7
  6
CONTINUOUS
 10
288.20261604
 20
162.1420998663
 11
288.20261604
 21
165.4399722607
  0
LINE
  5
54A
100
AcDbEntity
  8
0
100
AcDbLine
 62
7
  6
CONTINUOUS
 10
288.2889081245
 20
196.5199722607
 11
288.2889081245
 21
196.7199722607
  0
LINE
  5
54B
100
AcDbEntity
  8
0
100
AcDbLine
 62
7
  6
CONTINUOUS
 10
288.5822665043
 20
196.5199722607
 11
288.5822665043
 21
196.7199722607
  0
LINE
  5
54C
100
AcDbEntity
  8
0
100
AcDbLine
 62
7
  6
CONTINUOUS
 10
288.749744982
 20
196.5199722607
 11
288.749744982
 21
196.7199722607
  0
LINE
  5
54D
100
AcDbEntity
  8
0
100
AcDbLine
 62
7
  6
CONTINUOUS
 10
288.8750826776
 20
196.5199722607
 11
288.8750826776
 21
196.7199722607
  0
LINE
  5
54E
100
AcDbEntity
  8
0
100
AcDbLine
 62
7
  6
CONTINUOUS
 10
288.9166810154
 20
196.5199722607
 11
288.9166810154
 21
196.7199722607
  0
LINE
  5
54F
100
AcDbEntity
  8
0
100
AcDbLine
 62
7
  6
CONTINUOUS
 10
288.9265385124
 20
196.5199722607
 11
288.9265385124
 21
196.7199722607
  0
LINE
  5
550
100
AcDbEntity
  8
0
100
AcDbLine
 62
7
  6
CONTINUOUS
 10
289.1559406971
 20
196.5199722607
 11
289.1559406971
 21
196.7199722607
  0
LINE
  5
551
100
AcDbEntity
  8
0
100
AcDbLine
 62
7
  6
CONTINUOUS
 10
282.7321985786
 20
170.2631637586
 11
282.8259482209
 21
170.7418871058
  0
LINE
  5
552
100
AcDbEntity
  8
0
100
AcDbLine
 62
7
  6
CONTINUOUS
 10
282.1696985786
 20
170.358908428
 11
282.2634482209
 21
170.7418871058
  0
LINE
  5
553
100
AcDbEntity
  8
0
100
AcDbLine
 62
7
  6
CONTINUOUS
 10
273.6942820112
 20
153.0510360635
 11
273.7984485786
 21
153.3701850361
  0
LINE
  5
554
100
AcDbEntity
  8
0
100
AcDbLine
 62
7
  6
CONTINUOUS
 10
281.4317811172
 20
163.6314615399
 11
281.5359485786
 21
163.9506104381
  0
LINE
  5
555
100
AcDbEntity
  8
0
100
AcDbLine
 62
7
  6
CONTINUOUS
 10
278.0446987574
 20
169.8801850138
 11
278.2321985786
 21
170.2631637586
  0
LINE
  5
556
100
AcDbEntity
  8
0
100
AcDbLine
 62
7
  6
CONTINUOUS
 10
272.9651151459
 20
155.3914615399
 11
273.1734485786
 21
155.8169934041
  0
LINE
  5
557
100
AcDbEntity
  8
0
100
AcDbLine
 62
7
  6
CONTINUOUS
 10
273.1734485786
 20
153.1574191041
 11
273.2776151459
 21
153.3701850361
  0
LINE
  5
558
100
AcDbEntity
  8
0
100
AcDbLine
 62
7
  6
CONTINUOUS
 10
271.8484485786
 20
164.1633763701
 11
272.0567823093
 21
164.4825255663
  0
LINE
  5
559
100
AcDbEntity
  8
0
100
AcDbLine
 62
7
  6
CONTINUOUS
 10
277.4821987574
 20
170.0716744197
 11
277.6696985786
 21
170.358908428
  0
LINE
  5
55A
100
AcDbEntity
  8
0
100
AcDbLine
 62
7
  6
CONTINUOUS
 10
270.6734485786
 20
156.0297596342
 11
270.8817819367
 21
156.3489085323
  0
LINE
  5
55B
100
AcDbEntity
  8
0
100
AcDbLine
 62
7
  6
CONTINUOUS
 10
273.7321985786
 20
171.6035892648
 11
274.0134485786
 21
171.9865679426
  0
LINE
  5
55C
100
AcDbEntity
  8
0
100
AcDbLine
 62
7
  6
CONTINUOUS
 10
269.8692823093
 20
163.0995467097
 11
270.1817823093
 21
163.5250785739
  0
LINE
  5
55D
100
AcDbEntity
  8
0
100
AcDbLine
 62
7
  6
CONTINUOUS
 10
269.8692823093
 20
160.8655041621
 11
270.1817823093
 21
161.2910360635
  0
LINE
  5
55E
100
AcDbEntity
  8
0
100
AcDbLine
 62
7
  6
CONTINUOUS
 10
273.2634484892
 20
171.8908232731
 11
273.4509485786
 21
172.082312612
  0
LINE
  5
55F
100
AcDbEntity
  8
0
100
AcDbLine
 62
7
  6
CONTINUOUS
 10
269.3484485786
 20
163.4186956079
 11
269.5567823093
 21
163.6314615399
  0
LINE
  5
560
100
AcDbEntity
  8
BEZUGSACHSEN
100
AcDbLine
 62
7
  6
CONTINUOUS
 10
261.7284485786
 20
196.5199722607
 11
291.7284485786
 21
196.5199722607
  0
LINE
  5
561
100
AcDbEntity
  8
0
100
AcDbLine
 62
7
  6
CONTINUOUS
 10
276.7348232194
 20
196.7199722607
 11
279.3197556288
 21
196.7199722607
  0
LINE
  5
562
100
AcDbEntity
  8
0
100
AcDbLine
 62
7
  6
CONTINUOUS
 10
279.932099118
 20
196.7199722607
 11
287.8973742603
 21
196.7199722607
  0
LINE
  5
563
100
AcDbEntity
  8
0
100
AcDbLine
 62
7
  6
CONTINUOUS
 10
287.9008687768
 20
196.7199722607
 11
289.1559406971
 21
196.7199722607
  0
LINE
  5
564
100
AcDbEntity
  8
0
100
AcDbLine
 62
7
  6
CONTINUOUS
 10
241.1327037303
 20
196.9134671113
 11
241.5156827657
 21
196.9134671113
  0
LINE
  5
565
100
AcDbEntity
  8
0
100
AcDbLine
 62
7
  6
CONTINUOUS
 10
241.6433423249
 20
197.6634671113
 11
241.1327037303
 21
197.6634671113
  0
LINE
  5
566
100
AcDbEntity
  8
0
100
AcDbLine
 62
7
  6
CONTINUOUS
 10
239.7284485786
 20
198.7884671113
 11
243.6858954518
 21
198.7884671113
  0
LINE
  5
567
100
AcDbEntity
  8
0
100
AcDbLine
 62
7
  6
CONTINUOUS
 10
243.6858954518
 20
199.5384674689
 11
239.7284485786
 21
199.5384674689
  0
LINE
  5
568
100
AcDbEntity
  8
0
100
AcDbLine
 62
7
  6
CONTINUOUS
 10
244.324193248
 20
203.1634672305
 11
243.6858954518
 21
203.2884674689
  0
LINE
  5
569
100
AcDbEntity
  8
0
100
AcDbLine
 62
7
  6
CONTINUOUS
 10
243.6858954518
 20
208.5384667537
 11
244.1965336888
 21
208.4134672305
  0
LINE
  5
56A
100
AcDbEntity
  8
0
100
AcDbLine
 62
7
  6
CONTINUOUS
 10
292.7859485786
 20
161.8229509682
 11
292.89011604
 21
161.5038020701
  0
LINE
  5
56B
100
AcDbEntity
  8
0
100
AcDbLine
 62
7
  6
CONTINUOUS
 10
293.0984485786
 20
163.9506104381
 11
293.20261604
 21
163.6314615399
  0
LINE
  5
56C
100
AcDbEntity
  8
0
100
AcDbLine
 62
7
  6
CONTINUOUS
 10
295.5984485786
 20
164.5889085323
 11
295.70261604
 21
164.2697596342
  0
LINE
  5
56D
100
AcDbEntity
  8
0
100
AcDbLine
 62
7
  6
CONTINUOUS
 10
292.1609485786
 20
161.8229509682
 11
292.26511604
 21
161.3974191041
  0
LINE
  5
56E
100
AcDbEntity
  8
0
100
AcDbLine
 62
7
  6
CONTINUOUS
 10
292.4734485786
 20
163.844227472
 11
292.57761604
 21
163.4186956079
  0
LINE
  5
56F
100
AcDbEntity
  8
0
100
AcDbLine
 62
7
  6
CONTINUOUS
 10
290.70261604
 20
162.1420998663
 11
290.70261604
 21
165.4399722607
  0
LINE
  5
570
100
AcDbEntity
  8
BEZUGSACHSEN
100
AcDbLine
 62
7
  6
CONTINUOUS
 10
290.7284485786
 20
184.0199722607
 11
290.7284485786
 21
184.5199722607
  0
LINE
  5
571
100
AcDbEntity
  8
0
100
AcDbLine
 62
7
  6
CONTINUOUS
 10
291.32761604
 20
162.1420998663
 11
291.32761604
 21
165.4399722607
  0
LINE
  5
572
100
AcDbEntity
  8
BEZUGSACHSEN
100
AcDbLine
 62
7
  6
CONTINUOUS
 10
291.7284485786
 20
184.5199722607
 11
291.7284485786
 21
196.5199722607
  0
LINE
  5
573
100
AcDbEntity
  8
0
100
AcDbLine
 62
7
  6
CONTINUOUS
 10
291.9784485786
 20
178.8199722607
 11
291.9784485786
 21
178.6199722607
  0
LINE
  5
574
100
AcDbEntity
  8
0
100
AcDbLine
 62
7
  6
CONTINUOUS
 10
291.9784485786
 20
146.6199722607
 11
291.9784485786
 21
146.4199722607
  0
LINE
  5
575
100
AcDbEntity
  8
0
100
AcDbLine
 62
7
  6
CONTINUOUS
 10
292.4734485786
 20
163.844227472
 11
292.4734485786
 21
164.2697596342
  0
LINE
  5
576
100
AcDbEntity
  8
0
100
AcDbLine
 62
7
  6
CONTINUOUS
 10
293.0984485786
 20
163.9506104381
 11
293.0984485786
 21
164.1633763701
  0
LINE
  5
577
100
AcDbEntity
  8
0
100
AcDbLine
 62
7
  6
CONTINUOUS
 10
295.39011604
 20
161.7165680022
 11
295.39011604
 21
162.0357169003
  0
LINE
  5
578
100
AcDbEntity
  8
0
100
AcDbLine
 62
7
  6
CONTINUOUS
 10
282.0567811172
 20
163.5250785739
 11
282.1609485786
 21
163.844227472
  0
LINE
  5
579
100
AcDbEntity
  8
0
100
AcDbLine
 62
7
  6
CONTINUOUS
 10
279.7359485786
 20
153.3701850361
 11
279.8401154439
 21
153.6893339343
  0
LINE
  5
57A
100
AcDbEntity
  8
0
100
AcDbLine
 62
7
  6
CONTINUOUS
 10
280.1526148479
 20
153.0510360635
 11
280.3609485786
 21
153.5829509682
  0
LINE
  5
57B
100
AcDbEntity
  8
RUNDUNGEN
100
AcDbLine
 62
7
  6
CONTINUOUS
 10
312.7188157015
 20
229.0026304443
 11
310.8284485786
 21
224.948725067
  0
LINE
  5
57C
100
AcDbEntity
  8
0
100
AcDbLine
 62
7
  6
CONTINUOUS
 10
310.8284485786
 20
224.948725067
 11
310.6284485786
 21
224.5198236829
  0
LINE
  5
57D
100
AcDbEntity
  8
RUNDUNGEN
100
AcDbLine
 62
7
  6
CONTINUOUS
 10
310.5287551481
 20
224.3060304312
 11
310.6284485786
 21
224.5198236829
  0
LINE
  5
57E
100
AcDbEntity
  8
0
100
AcDbLine
 62
7
  6
CONTINUOUS
 10
282.5446982209
 20
169.8801850138
 11
282.7321985786
 21
170.2631637586
  0
LINE
  5
57F
100
AcDbEntity
  8
0
100
AcDbLine
 62
7
  6
CONTINUOUS
 10
274.6317820112
 20
151.5616743899
 11
275.2567817132
 21
152.7318871654
  0
LINE
  5
580
100
AcDbEntity
  8
0
100
AcDbLine
 62
7
  6
CONTINUOUS
 10
275.1526154439
 20
151.5616743899
 11
275.7776154439
 21
152.7318871654
  0
LINE
  5
581
100
AcDbEntity
  8
0
100
AcDbLine
 62
7
  6
CONTINUOUS
 10
281.9821982209
 20
170.0716744197
 11
282.1696985786
 21
170.358908428
  0
LINE
  5
582
100
AcDbEntity
  8
0
100
AcDbLine
 62
7
  6
CONTINUOUS
 10
273.3817820112
 20
155.0723126418
 11
273.5901151459
 21
155.3914615399
  0
LINE
  5
583
100
AcDbEntity
  8
0
100
AcDbLine
 62
7
  6
CONTINUOUS
 10
273.4859485786
 20
152.7318871654
 11
273.6942820112
 21
153.0510360635
  0
LINE
  5
584
100
AcDbEntity
  8
0
100
AcDbLine
 62
7
  6
CONTINUOUS
 10
271.4317823093
 20
164.6952914984
 11
271.8484485786
 21
165.1208233625
  0
LINE
  5
585
100
AcDbEntity
  8
0
100
AcDbLine
 62
7
  6
CONTINUOUS
 10
269.3484485786
 20
161.1846530975
 11
269.5567823093
 21
161.3974191041
  0
LINE
  5
586
100
AcDbEntity
  8
0
100
AcDbLine
 62
7
  6
CONTINUOUS
 10
277.6696985786
 20
169.4972063025
 11
278.0446987574
 21
169.8801850138
  0
LINE
  5
587
100
AcDbEntity
  8
0
100
AcDbLine
 62
7
  6
CONTINUOUS
 10
282.1696985786
 20
169.4972063025
 11
282.5446982209
 21
169.8801850138
  0
LINE
  5
588
100
AcDbEntity
  8
0
100
AcDbLine
 62
7
  6
CONTINUOUS
 10
270.2567819181
 20
156.4552914984
 11
270.6734485786
 21
156.8808233625
  0
LINE
  5
589
100
AcDbEntity
  8
0
100
AcDbLine
 62
7
  6
CONTINUOUS
 10
274.6609485786
 20
160.759121196
 11
275.0776148479
 21
161.1846530975
  0
LINE
  5
58A
100
AcDbEntity
  8
0
100
AcDbLine
 62
7
  6
CONTINUOUS
 10
269.4526148479
 20
160.546355236
 11
269.8692823093
 21
160.8655041621
  0
LINE
  5
58B
100
AcDbEntity
  8
0
100
AcDbLine
 62
7
  6
CONTINUOUS
 10
277.2009487574
 20
169.8801850138
 11
277.4821987574
 21
170.0716744197
  0
LINE
  5
58C
100
AcDbEntity
  8
0
100
AcDbLine
 62
7
  6
CONTINUOUS
 10
272.0567823093
 20
164.4825255663
 11
272.3692823093
 21
164.6952914984
  0
LINE
  5
58D
100
AcDbEntity
  8
0
100
AcDbLine
 62
7
  6
CONTINUOUS
 10
281.7009482209
 20
169.8801850138
 11
281.9821982209
 21
170.0716744197
  0
LINE
  5
58E
100
AcDbEntity
  8
0
100
AcDbLine
 62
7
  6
CONTINUOUS
 10
273.357198668
 20
171.4120999259
 11
273.7321985786
 21
171.6035892648
  0
LINE
  5
58F
100
AcDbEntity
  8
0
100
AcDbLine
 62
7
  6
CONTINUOUS
 10
277.2946983998
 20
169.3057169385
 11
277.6696985786
 21
169.4972063025
  0
LINE
  5
590
100
AcDbEntity
  8
0
100
AcDbLine
 62
7
  6
CONTINUOUS
 10
271.8484485786
 20
165.1208233625
 11
272.2651148479
 21
165.3335892946
  0
LINE
  5
591
100
AcDbEntity
  8
0
100
AcDbLine
 62
7
  6
CONTINUOUS
 10
272.9821984892
 20
171.7950786037
 11
273.2634484892
 21
171.8908232731
  0
LINE
  5
592
100
AcDbEntity
  8
0
100
AcDbLine
 62
7
  6
CONTINUOUS
 10
244.1965336888
 20
199.6634669921
 11
243.6858954518
 21
199.5384674689
  0
LINE
  5
593
100
AcDbEntity
  8
0
100
AcDbLine
 62
7
  6
CONTINUOUS
 10
243.6858954518
 20
198.7884671113
 11
244.324193248
 21
198.9134673497
  0
LINE
  5
594
100
AcDbEntity
  8
0
100
AcDbLine
 62
7
  6
CONTINUOUS
 10
239.7284485786
 20
202.5384674689
 11
243.6858954518
 21
202.5384674689
  0
LINE
  5
595
100
AcDbEntity
  8
0
100
AcDbLine
 62
7
  6
CONTINUOUS
 10
243.6858954518
 20
203.2884674689
 11
239.7284485786
 21
203.2884674689
  0
LINE
  5
596
100
AcDbEntity
  8
0
100
AcDbLine
 62
7
  6
CONTINUOUS
 10
239.7284485786
 20
204.2884672305
 11
245.7284485786
 21
204.2884672305
  0
LINE
  5
597
100
AcDbEntity
  8
0
100
AcDbLine
 62
7
  6
CONTINUOUS
 10
244.9624911337
 20
205.0384672305
 11
240.4944059341
 21
205.0384672305
  0
LINE
  5
598
100
AcDbEntity
  8
0
100
AcDbLine
 62
7
  6
CONTINUOUS
 10
314.5194810242
 20
206.4400123327
 11
313.461896125
 21
206.4400123327
  0
LINE
  5
599
100
AcDbEntity
  8
0
100
AcDbLine
 62
7
  6
CONTINUOUS
 10
308.6121538638
 20
206.4400123327
 11
307.5545689645
 21
206.4400123327
  0
LINE
  5
59A
100
AcDbEntity
  8
0
100
AcDbLine
 62
7
  6
CONTINUOUS
 10
244.324193248
 20
209.1634672305
 11
243.6858954518
 21
209.2884667537
  0
LINE
  5
59B
100
AcDbEntity
  8
0
100
AcDbLine
 62
7
  6
CONTINUOUS
 10
296.01511604
 20
161.6101850361
 11
296.01511604
 21
162.1420998663
  0
LINE
  5
59C
100
AcDbEntity
  8
0
100
AcDbLine
 62
7
  6
CONTINUOUS
 10
299.2284485786
 20
184.0199722607
 11
299.2284485786
 21
178.8199722607
  0
LINE
  5
59D
100
AcDbEntity
  8
0
100
AcDbLine
 62
7
  6
CONTINUOUS
 10
299.2284485786
 20
146.4199722607
 11
299.2284485786
 21
141.2199722607
  0
LINE
  5
59E
100
AcDbEntity
  8
0
100
AcDbLine
 62
7
  6
CONTINUOUS
 10
291.2234485786
 20
161.6101850361
 11
291.32761604
 21
162.1420998663
  0
LINE
  5
59F
100
AcDbEntity
  8
0
100
AcDbLine
 62
7
  6
CONTINUOUS
 10
290.5984485786
 20
161.7165680022
 11
290.70261604
 21
162.1420998663
  0
LINE
  5
5A0
100
AcDbEntity
  8
0
100
AcDbLine
 62
7
  6
CONTINUOUS
 10
292.4734485786
 20
164.2697596342
 11
292.57761604
 21
164.6952914984
  0
LINE
  5
5A1
100
AcDbEntity
  8
0
100
AcDbLine
 62
7
  6
CONTINUOUS
 10
293.0984485786
 20
164.1633763701
 11
293.20261604
 21
164.4825255663
  0
LINE
  5
5A2
100
AcDbEntity
  8
0
100
AcDbLine
 62
7
  6
CONTINUOUS
 10
279.5276154439
 20
153.0510360635
 11
279.7359485786
 21
153.3701850361
  0
LINE
  5
5A3
100
AcDbEntity
  8
0
100
AcDbLine
 62
7
  6
CONTINUOUS
 10
281.7442811172
 20
163.0995467097
 11
282.0567811172
 21
163.5250785739
  0
LINE
  5
5A4
100
AcDbEntity
  8
0
100
AcDbLine
 62
7
  6
CONTINUOUS
 10
279.8401154439
 20
152.6255041621
 11
280.1526148479
 21
153.0510360635
  0
LINE
  5
5A5
100
AcDbEntity
  8
0
100
AcDbLine
 62
7
  6
CONTINUOUS
 10
272.7567820112
 20
155.1786956079
 11
272.9651151459
 21
155.3914615399
  0
LINE
  5
5A6
100
AcDbEntity
  8
0
100
AcDbLine
 62
7
  6
CONTINUOUS
 10
281.2234485786
 20
163.4186956079
 11
281.4317811172
 21
163.6314615399
  0
LINE
  5
5A7
100
AcDbEntity
  8
0
100
AcDbLine
 62
7
  6
CONTINUOUS
 10
272.9651151459
 20
152.9446530975
 11
273.1734485786
 21
153.1574191041
  0
LINE
  5
5A8
100
AcDbEntity
  8
0
100
AcDbLine
 62
7
  6
CONTINUOUS
 10
281.32761604
 20
162.7803978116
 11
281.7442811172
 21
163.0995467097
  0
LINE
  5
5A9
100
AcDbEntity
  8
0
100
AcDbLine
 62
7
  6
CONTINUOUS
 10
272.9651151459
 20
154.7531637437
 11
273.3817820112
 21
155.0723126418
  0
LINE
  5
5AA
100
AcDbEntity
  8
0
100
AcDbLine
 62
7
  6
CONTINUOUS
 10
274.1401148479
 20
161.1846530975
 11
274.4526148479
 21
161.3974191041
  0
LINE
  5
5AB
100
AcDbEntity
  8
0
100
AcDbLine
 62
7
  6
CONTINUOUS
 10
270.8817819367
 20
156.3489085323
 11
271.1942819367
 21
156.5616744644
  0
LINE
  5
5AC
100
AcDbEntity
  8
0
100
AcDbLine
 62
7
  6
CONTINUOUS
 10
281.7946989362
 20
169.3057169385
 11
282.1696985786
 21
169.4972063025
  0
LINE
  5
5AD
100
AcDbEntity
  8
0
100
AcDbLine
 62
7
  6
CONTINUOUS
 10
269.6609485786
 20
162.9931637437
 11
269.8692823093
 21
163.0995467097
  0
LINE
  5
5AE
100
AcDbEntity
  8
0
100
AcDbLine
 62
7
  6
CONTINUOUS
 10
274.2442823093
 20
160.546355236
 11
274.6609485786
 21
160.759121196
  0
LINE
  5
5AF
100
AcDbEntity
  8
0
100
AcDbLine
 62
7
  6
CONTINUOUS
 10
269.0359485786
 20
163.3123126418
 11
269.3484485786
 21
163.4186956079
  0
LINE
  5
5B0
100
AcDbEntity
  8
0
100
AcDbLine
 62
7
  6
CONTINUOUS
 10
269.0359485786
 20
161.0782701314
 11
269.3484485786
 21
161.1846530975
  0
LINE
  5
5B1
100
AcDbEntity
  8
0
100
AcDbLine
 62
7
  6
CONTINUOUS
 10
241.7710018842
 20
208.5384667537
 11
243.6858954518
 21
208.5384667537
  0
LINE
  5
5B2
100
AcDbEntity
  8
0
100
AcDbLine
 62
7
  6
CONTINUOUS
 10
243.6858954518
 20
209.2884667537
 11
241.7710018842
 21
209.2884667537
  0
LINE
  5
5B3
100
AcDbEntity
  8
0
100
AcDbLine
 62
7
  6
CONTINUOUS
 10
311.5670249944
 20
211.6900123327
 11
310.5094400951
 21
211.6900123327
  0
LINE
  5
5B4
100
AcDbEntity
  8
0
100
AcDbLine
 62
7
  6
CONTINUOUS
 10
314.5194810242
 20
212.3900123327
 11
313.461896125
 21
212.3900123327
  0
LINE
  5
5B5
100
AcDbEntity
  8
0
100
AcDbLine
 62
7
  6
CONTINUOUS
 10
308.6121538638
 20
212.3900123327
 11
307.5545689645
 21
212.3900123327
  0
LINE
  5
5B6
100
AcDbEntity
  8
RUNDUNGEN
100
AcDbLine
 62
7
  6
CONTINUOUS
 10
301.7284485786
 20
148.6199722607
 11
301.7284485786
 21
176.6199722607
  0
LINE
  5
5B7
100
AcDbEntity
  8
KONSTRUKTIONSELEMENTE
100
AcDbLine
 62
7
  6
CONTINUOUS
 10
303.7284485786
 20
178.8699722607
 11
303.7284485786
 21
230.0895655233
  0
LINE
  5
5B8
100
AcDbEntity
  8
RUNDUNGEN
100
AcDbLine
 62
7
  6
CONTINUOUS
 10
303.7284485786
 20
207.3699722607
 11
303.7284485786
 21
236.8514473871
  0
LINE
  5
5B9
100
AcDbEntity
  8
0
100
AcDbLine
 62
7
  6
CONTINUOUS
 10
291.01511604
 20
161.1846530975
 11
291.2234485786
 21
161.6101850361
  0
LINE
  5
5BA
100
AcDbEntity
  8
0
100
AcDbLine
 62
7
  6
CONTINUOUS
 10
295.8067811172
 20
161.1846530975
 11
296.01511604
 21
161.6101850361
  0
LINE
  5
5BB
100
AcDbEntity
  8
0
100
AcDbLine
 62
7
  6
CONTINUOUS
 10
290.39011604
 20
161.3974191041
 11
290.5984485786
 21
161.7165680022
  0
LINE
  5
5BC
100
AcDbEntity
  8
0
100
AcDbLine
 62
7
  6
CONTINUOUS
 10
295.1817811172
 20
161.3974191041
 11
295.39011604
 21
161.7165680022
  0
LINE
  5
5BD
100
AcDbEntity
  8
0
100
AcDbLine
 62
7
  6
CONTINUOUS
 10
292.57761604
 20
164.6952914984
 11
292.9942811172
 21
165.1208233625
  0
LINE
  5
5BE
100
AcDbEntity
  8
0
100
AcDbLine
 62
7
  6
CONTINUOUS
 10
290.5984485786
 20
160.759121196
 11
291.01511604
 21
161.1846530975
  0
LINE
  5
5BF
100
AcDbEntity
  8
0
100
AcDbLine
 62
7
  6
CONTINUOUS
 10
277.3401154439
 20
154.4340148456
 11
277.7567817132
 21
154.7531637437
  0
LINE
  5
5C0
100
AcDbEntity
  8
0
100
AcDbLine
 62
7
  6
CONTINUOUS
 10
273.1734485786
 20
152.519121196
 11
273.4859485786
 21
152.7318871654
  0
LINE
  5
5C1
100
AcDbEntity
  8
0
100
AcDbLine
 62
7
  6
CONTINUOUS
 10
293.20261604
 20
164.4825255663
 11
293.51511604
 21
164.6952914984
  0
LINE
  5
5C2
100
AcDbEntity
  8
0
100
AcDbLine
 62
7
  6
CONTINUOUS
 10
290.07761604
 20
161.1846530975
 11
290.39011604
 21
161.3974191041
  0
LINE
  5
5C3
100
AcDbEntity
  8
0
100
AcDbLine
 62
7
  6
CONTINUOUS
 10
277.1317817132
 20
154.9659296758
 11
277.6526154439
 21
155.2850785739
  0
LINE
  5
5C4
100
AcDbEntity
  8
0
100
AcDbLine
 62
7
  6
CONTINUOUS
 10
270.6734485786
 20
156.8808233625
 11
271.0901152204
 21
157.0935892946
  0
LINE
  5
5C5
100
AcDbEntity
  8
0
100
AcDbLine
 62
7
  6
CONTINUOUS
 10
292.9942811172
 20
165.1208233625
 11
293.4109485786
 21
165.3335892946
  0
LINE
  5
5C6
100
AcDbEntity
  8
0
100
AcDbLine
 62
7
  6
CONTINUOUS
 10
272.7567820112
 20
152.8382701314
 11
272.9651151459
 21
152.9446530975
  0
LINE
  5
5C7
100
AcDbEntity
  8
0
100
AcDbLine
 62
7
  6
CONTINUOUS
 10
272.7567820112
 20
152.306355236
 11
273.1734485786
 21
152.519121196
  0
LINE
  5
5C8
100
AcDbEntity
  8
0
100
AcDbLine
 62
7
  6
CONTINUOUS
 10
280.9109485786
 20
163.3123126418
 11
281.2234485786
 21
163.4186956079
  0
LINE
  5
5C9
100
AcDbEntity
  8
0
100
AcDbLine
 62
7
  6
CONTINUOUS
 10
293.51511604
 20
164.6952914984
 11
293.82761604
 21
164.8016744644
  0
LINE
  5
5CA
100
AcDbEntity
  8
0
100
AcDbLine
 62
7
  6
CONTINUOUS
 10
272.1317818622
 20
154.9659296758
 11
272.7567820112
 21
155.1786956079
  0
LINE
  5
5CB
100
AcDbEntity
  8
0
100
AcDbLine
 62
7
  6
CONTINUOUS
 10
241.2603636472
 20
208.4134672305
 11
241.7710018842
 21
208.5384667537
  0
LINE
  5
5CC
100
AcDbEntity
  8
0
100
AcDbLine
 62
7
  6
CONTINUOUS
 10
241.7710018842
 20
209.2884667537
 11
241.1327037303
 21
209.1634672305
  0
LINE
  5
5CD
100
AcDbEntity
  8
0
100
AcDbLine
 62
7
  6
CONTINUOUS
 10
310.5094400951
 20
211.6900123327
 11
310.5094400951
 21
209.6474918679
  0
LINE
  5
5CE
100
AcDbEntity
  8
0
100
AcDbLine
 62
7
  6
CONTINUOUS
 10
311.5670249944
 20
209.6480257106
 11
311.5670249944
 21
211.6900123327
  0
LINE
  5
5CF
100
AcDbEntity
  8
0
100
AcDbLine
 62
7
  6
CONTINUOUS
 10
295.39011604
 20
160.759121196
 11
295.8067811172
 21
161.1846530975
  0
LINE
  5
5D0
100
AcDbEntity
  8
0
100
AcDbLine
 62
7
  6
CONTINUOUS
 10
279.2151154439
 20
152.8382701314
 11
279.5276154439
 21
153.0510360635
  0
LINE
  5
5D1
100
AcDbEntity
  8
0
100
AcDbLine
 62
7
  6
CONTINUOUS
 10
294.8692811172
 20
161.1846530975
 11
295.1817811172
 21
161.3974191041
  0
LINE
  5
5D2
100
AcDbEntity
  8
0
100
AcDbLine
 62
7
  6
CONTINUOUS
 10
279.3192817132
 20
152.306355236
 11
279.8401154439
 21
152.6255041621
  0
LINE
  5
5D3
100
AcDbEntity
  8
0
100
AcDbLine
 62
7
  6
CONTINUOUS
 10
290.1817811172
 20
160.546355236
 11
290.5984485786
 21
160.759121196
  0
LINE
  5
5D4
100
AcDbEntity
  8
0
100
AcDbLine
 62
7
  6
CONTINUOUS
 10
294.9734485786
 20
160.546355236
 11
295.39011604
 21
160.759121196
  0
LINE
  5
5D5
100
AcDbEntity
  8
0
100
AcDbLine
 62
7
  6
CONTINUOUS
 10
314.5360590358
 20
206.0199127819
 11
314.5194810242
 21
206.4400123327
  0
LINE
  5
5D6
100
AcDbEntity
  8
0
100
AcDbLine
 62
7
  6
CONTINUOUS
 10
314.5360590358
 20
211.9699127819
 11
314.5194810242
 21
212.3900123327
  0
LINE
  5
5D7
100
AcDbEntity
  8
RUNDUNGEN
100
AcDbLine
 62
7
  6
CONTINUOUS
 10
314.6767575114
 20
229.6611335369
 11
314.6767575114
 21
216.5918124542
  0
LINE
  5
5D8
100
AcDbEntity
  8
RUNDUNGEN
100
AcDbLine
 62
7
  6
CONTINUOUS
 10
317.7284485786
 20
238.6586625803
 11
317.7284485786
 21
170.3699722607
  0
LINE
  5
5D9
100
AcDbEntity
  8
RUNDUNGEN
100
AcDbLine
 62
7
  6
CONTINUOUS
 10
314.6767575114
 20
216.5918124542
 11
310.9335579269
 21
221.1290276866
  0
LINE
  5
5DA
100
AcDbEntity
  8
RUNDUNGEN
100
AcDbLine
 62
7
  6
CONTINUOUS
 10
313.0587886554
 20
230.7078526618
 11
310.767978843
 21
236.3778059123
  0
LINE
  5
5DB
100
AcDbEntity
  8
0
100
AcDbLine
 62
7
  6
CONTINUOUS
 10
310.767978843
 20
236.3778059123
 11
304.8974656297
 21
250.9078359891
  0
LINE
  5
5DC
100
AcDbEntity
  8
RUNDUNGEN
100
AcDbLine
 62
7
  6
CONTINUOUS
 10
304.8974656297
 20
250.9078359891
 11
304.7170993262
 21
251.3542582557
  0
LINE
  5
5DD
100
AcDbEntity
  8
BEZUGSACHSEN
100
AcDbLine
 62
7
  6
CONTINUOUS
 10
285.2284485786
 20
109.0199722607
 11
286.7284485786
 21
110.5199722607
  0
LINE
  5
5DE
100
AcDbEntity
  8
RUNDUNGEN
100
AcDbLine
 62
7
  6
CONTINUOUS
 10
303.0106516112
 20
253.0311797549
 11
301.4201380053
 21
253.6417207255
  0
LINE
  5
5DF
100
AcDbEntity
  8
0
100
AcDbLine
 62
7
  6
CONTINUOUS
 10
276.7284485786
 20
263.1199722607
 11
301.4201380053
 21
253.6417207255
  0
LWPOLYLINE
  5
5E0
100
AcDbEntity
  8
0
100
AcDbPolyline
 62
7
  6
CONTINUOUS
 90
15
 70
0
 10
152.5198388318
 20
7.1027170159
 10
152.6731863443
 20
7.1043793026
 10
153.2834604433
 20
7.1440507803
 10
153.8803410626
 20
7.2347490978
 10
154.4587724082
 20
7.37351639
 10
155.0144611639
 20
7.5568847471
 10
155.5440648931
 20
7.7811396731
 10
156.0449809511
 20
8.0424633658
 10
156.514012378
 20
8.3362036838
 10
156.9494367037
 20
8.6579503207
 10
157.3483637292
 20
9.0016586856
 10
157.7092240532
 20
9.3611625744
 10
158.0319739159
 20
9.7308344007
 10
158.317427823
 20
10.1053647632
 10
158.472732156
 20
10.3323742205
  0
LINE
  5
5E1
100
AcDbEntity
  8
0
100
AcDbLine
 62
7
  6
CONTINUOUS
 10
152.5198481523
 20
7.1027170516
 11
151.7658607168
 21
7.1027170516
  0
LINE
  5
5E2
100
AcDbEntity
  8
KONSTRUKTIONSELEMENTE
100
AcDbLine
 62
7
  6
CONTINUOUS
 10
152.5198481523
 20
7.1027170516
 11
151.7658607168
 21
7.1027170516
  0
LINE
  5
5E3
100
AcDbEntity
  8
0
100
AcDbLine
 62
7
  6
CONTINUOUS
 10
145.8391685306
 20
10.2941406358
 11
145.5428544345
 21
10.2941406358
  0
LINE
  5
5E4
100
AcDbEntity
  8
0
100
AcDbLine
 62
7
  6
CONTINUOUS
 10
145.8271500806
 20
10.3116846059
 11
145.5428544345
 21
10.3116846059
  0
LINE
  5
5E5
100
AcDbEntity
  8
0
100
AcDbLine
 62
7
  6
CONTINUOUS
 10
147.0031653065
 20
87.2604848917
 11
146.0428544345
 21
86.7060491513
  0
LINE
  5
5E6
100
AcDbEntity
  8
RUNDUNGEN
100
AcDbLine
 62
7
  6
CONTINUOUS
 10
123.6428544345
 20
23.1027170516
 11
143.9249844177
 21
23.1027170516
  0
LINE
  5
5E7
100
AcDbEntity
  8
RUNDUNGEN
100
AcDbLine
 62
7
  6
CONTINUOUS
 10
160.3607244513
 20
23.1027170516
 11
165.6428544345
 21
23.1027170516
  0
LINE
  5
5E8
100
AcDbEntity
  8
KONSTRUKTIONSELEMENTE
100
AcDbLine
 62
7
  6
CONTINUOUS
 10
147.0019901672
 20
8.9456276785
 11
146.0428544345
 21
9.4993849519
  0
LINE
  5
5E9
100
AcDbEntity
  8
BEZUGSACHSEN
100
AcDbLine
 62
7
  6
CONTINUOUS
 10
117.9826003967
 20
63.1027170516
 11
109.3223463589
 21
48.1027170516
  0
LINE
  5
5EA
100
AcDbEntity
  8
0
100
AcDbLine
 62
7
  6
CONTINUOUS
 10
106.9612940089
 20
28.8160495902
 11
107.7361118945
 21
28.8160495902
  0
LINE
  5
5EB
100
AcDbEntity
  8
0
100
AcDbLine
 62
7
  6
CONTINUOUS
 10
106.7234210059
 20
29.024384513
 11
107.4868268428
 21
29.024384513
  0
LINE
  5
5EC
100
AcDbEntity
  8
0
100
AcDbLine
 62
7
  6
CONTINUOUS
 10
106.6066879307
 20
29.1285495902
 11
107.3646183769
 21
29.1285495902
  0
LINE
  5
5ED
100
AcDbEntity
  8
0
100
AcDbLine
 62
7
  6
CONTINUOUS
 10
106.4913792793
 20
29.2327170516
 11
107.2439794731
 21
29.2327170516
  0
LINE
  5
5EE
100
AcDbEntity
  8
0
100
AcDbLine
 62
7
  6
CONTINUOUS
 10
106.1537379975
 20
29.5452170516
 11
106.8911621693
 21
29.5452170516
  0
LINE
  5
5EF
100
AcDbEntity
  8
0
100
AcDbLine
 62
7
  6
CONTINUOUS
 10
105.7219115239
 20
29.961884513
 11
106.4408140089
 21
29.961884513
  0
LINE
  5
5F0
100
AcDbEntity
  8
0
100
AcDbLine
 62
7
  6
CONTINUOUS
 10
105.209580173
 20
30.4827170516
 11
105.9077028987
 21
30.4827170516
  0
LINE
  5
5F1
100
AcDbEntity
  8
BEZUGSACHSEN
100
AcDbLine
 62
7
  6
CONTINUOUS
 10
109.3223463589
 20
48.1027170516
 11
117.9826003967
 21
33.1027170516
  0
LINE
  5
5F2
100
AcDbEntity
  8
0
100
AcDbLine
 62
7
  6
CONTINUOUS
 10
104.7254425575
 20
31.0035495902
 11
105.405023639
 21
31.0035495902
  0
LINE
  5
5F3
100
AcDbEntity
  8
0
100
AcDbLine
 62
7
  6
CONTINUOUS
 10
104.3569996765
 20
31.4202170516
 11
105.0231285034
 21
31.4202170516
  0
LINE
  5
5F4
100
AcDbEntity
  8
0
100
AcDbLine
 62
7
  6
CONTINUOUS
 10
104.0043032704
 20
31.836884513
 11
104.6580528336
 21
31.836884513
  0
LINE
  5
5F5
100
AcDbEntity
  8
0
100
AcDbLine
 62
7
  6
CONTINUOUS
 10
103.6665211679
 20
32.2535495902
 11
104.3088457767
 21
32.2535495902
  0
LINE
  5
5F6
100
AcDbEntity
  8
0
100
AcDbLine
 62
7
  6
CONTINUOUS
 10
103.584315729
 20
32.3577170516
 11
104.2239210189
 21
32.3577170516
  0
LINE
  5
5F7
100
AcDbEntity
  8
0
100
AcDbLine
 62
7
  6
CONTINUOUS
 10
103.3429050812
 20
32.6702170516
 11
103.974658184
 21
32.6702170516
  0
LINE
  5
5F8
100
AcDbEntity
  8
BEZUGSACHSEN
100
AcDbLine
 62
7
  6
CONTINUOUS
 10
117.9826003967
 20
33.1027170516
 11
135.3031084724
 21
33.1027170516
  0
LINE
  5
5F9
100
AcDbEntity
  8
0
100
AcDbLine
 62
7
  6
CONTINUOUS
 10
102.735575572
 20
33.5035495902
 11
103.3484140768
 21
33.5035495902
  0
LINE
  5
5FA
100
AcDbEntity
  8
0
100
AcDbLine
 62
7
  6
CONTINUOUS
 10
102.3127666766
 20
34.1285495902
 11
102.9131018127
 21
34.1285495902
  0
LINE
  5
5FB
100
AcDbEntity
  8
0
100
AcDbLine
 62
7
  6
CONTINUOUS
 10
102.2448849047
 20
34.2327170516
 11
102.8432606885
 21
34.2327170516
  0
LINE
  5
5FC
100
AcDbEntity
  8
0
100
AcDbLine
 62
7
  6
CONTINUOUS
 10
121.1458323186
 20
37.0435467456
 11
121.5100479117
 21
36.9337913699
  0
LINE
  5
5FD
100
AcDbEntity
  8
0
100
AcDbLine
 62
7
  6
CONTINUOUS
 10
124.043851219
 20
36.0814206481
 11
124.4030025838
 21
35.9560829525
  0
LINE
  5
5FE
100
AcDbEntity
  8
0
100
AcDbLine
 62
7
  6
CONTINUOUS
 10
124.5177348099
 20
36.2603832421
 11
124.2202126247
 21
36.3753212343
  0
LINE
  5
5FF
100
AcDbEntity
  8
0
100
AcDbLine
 62
7
  6
CONTINUOUS
 10
120.838438379
 20
37.2676186239
 11
121.1458323186
 21
37.0435467456
  0
LINE
  5
600
100
AcDbEntity
  8
0
100
AcDbLine
 62
7
  6
CONTINUOUS
 10
123.8185776942
 20
36.2488991259
 11
124.043851219
 21
36.0814206481
  0
LINE
  5
601
100
AcDbEntity
  8
0
100
AcDbLine
 62
7
  6
CONTINUOUS
 10
121.2878864523
 20
37.3293380021
 11
121.0364604007
 21
37.5255907303
  0
LINE
  5
602
100
AcDbEntity
  8
0
100
AcDbLine
 62
7
  6
CONTINUOUS
 10
124.2202126247
 20
36.3753212343
 11
124.0565682795
 21
36.5324000086
  0
LINE
  5
603
100
AcDbEntity
  8
0
100
AcDbLine
 62
7
  6
CONTINUOUS
 10
123.6145459523
 20
36.5422575057
 11
123.8185776942
 21
36.2488991259
  0
LINE
  5
604
100
AcDbEntity
  8
0
100
AcDbLine
 62
7
  6
CONTINUOUS
 10
120.6438339809
 20
37.5781878547
 11
120.838438379
 21
37.2676186239
  0
LINE
  5
605
100
AcDbEntity
  8
0
100
AcDbLine
 62
7
  6
CONTINUOUS
 10
121.0364604007
 20
37.5255907303
 11
120.925379671
 21
37.7233640464
  0
LINE
  5
606
100
AcDbEntity
  8
0
100
AcDbLine
 62
7
  6
CONTINUOUS
 10
120.5611640779
 20
37.8331194221
 11
120.6438339809
 21
37.5781878547
  0
LINE
  5
607
100
AcDbEntity
  8
0
100
AcDbLine
 62
7
  6
CONTINUOUS
 10
120.5628728897
 20
38.1173900907
 11
120.5611640779
 21
37.8331194221
  0
LINE
  5
608
100
AcDbEntity
  8
0
100
AcDbLine
 62
7
  6
CONTINUOUS
 10
120.5921375615
 20
38.3166841548
 11
120.5628728897
 21
38.1173900907
  0
LINE
  5
609
100
AcDbEntity
  8
KONSTRUKTIONSELEMENTE
100
AcDbLine
 62
7
  6
CONTINUOUS
 10
123.1787528194
 20
54.1027170516
 11
119.7146512043
 21
48.1027170516
  0
LINE
  5
60A
100
AcDbEntity
  8
0
100
AcDbLine
 62
7
  6
CONTINUOUS
 10
127.2172581634
 20
35.6752249331
 11
127.7719276374
 21
35.7687558082
  0
LINE
  5
60B
100
AcDbEntity
  8
0
100
AcDbLine
 62
7
  6
CONTINUOUS
 10
129.6208258841
 20
36.0805253922
 11
130.1754953581
 21
36.1740562674
  0
LINE
  5
60C
100
AcDbEntity
  8
0
100
AcDbLine
 62
7
  6
CONTINUOUS
 10
125.0830140857
 20
36.2297265762
 11
124.7642501176
 21
36.2187846664
  0
LINE
  5
60D
100
AcDbEntity
  8
0
100
AcDbLine
 62
7
  6
CONTINUOUS
 10
102.1112766434
 20
34.4410495902
 11
102.7058335821
 21
34.4410495902
  0
LINE
  5
60E
100
AcDbEntity
  8
0
100
AcDbLine
 62
7
  6
CONTINUOUS
 10
101.9161490219
 20
34.7535495902
 11
102.5052167215
 21
34.7535495902
  0
LINE
  5
60F
100
AcDbEntity
  8
0
100
AcDbLine
 62
7
  6
CONTINUOUS
 10
101.665583363
 20
35.1702170516
 11
102.2477511688
 21
35.1702170516
  0
LINE
  5
610
100
AcDbEntity
  8
0
100
AcDbLine
 62
7
  6
CONTINUOUS
 10
101.4256553342
 20
35.586884513
 11
102.0013679822
 21
35.586884513
  0
LINE
  5
611
100
AcDbEntity
  8
0
100
AcDbLine
 62
7
  6
CONTINUOUS
 10
101.1960251096
 20
36.0035495902
 11
101.7656940443
 21
36.0035495902
  0
LINE
  5
612
100
AcDbEntity
  8
0
100
AcDbLine
 62
7
  6
CONTINUOUS
 10
101.0303696053
 20
36.3160495902
 11
101.5957577968
 21
36.3160495902
  0
LINE
  5
613
100
AcDbEntity
  8
0
100
AcDbLine
 62
7
  6
CONTINUOUS
 10
100.9229905347
 20
36.524384513
 11
101.4856385529
 21
36.524384513
  0
LINE
  5
614
100
AcDbEntity
  8
0
100
AcDbLine
 62
7
  6
CONTINUOUS
 10
100.8702067829
 20
36.6285495902
 11
101.4315176655
 21
36.6285495902
  0
LINE
  5
615
100
AcDbEntity
  8
0
100
AcDbLine
 62
7
  6
CONTINUOUS
 10
100.5659056459
 20
37.2535495902
 11
101.1196316324
 21
37.2535495902
  0
LINE
  5
616
100
AcDbEntity
  8
0
100
AcDbLine
 62
7
  6
CONTINUOUS
 10
124.6495164809
 20
35.9144846148
 11
125.0915388081
 21
35.9046271177
  0
LINE
  5
617
100
AcDbEntity
  8
0
100
AcDbLine
 62
7
  6
CONTINUOUS
 10
124.4030025838
 20
35.9560829525
 11
124.6495164809
 21
35.9144846148
  0
LINE
  5
618
100
AcDbEntity
  8
0
100
AcDbLine
 62
7
  6
CONTINUOUS
 10
124.7642501176
 20
36.2187846664
 11
124.5177348099
 21
36.2603832421
  0
LINE
  5
619
100
AcDbEntity
  8
0
100
AcDbLine
 62
7
  6
CONTINUOUS
 10
125.7524061067
 20
36.4404300108
 11
125.4442630301
 21
36.492428052
  0
LINE
  5
61A
100
AcDbEntity
  8
0
100
AcDbLine
 62
7
  6
CONTINUOUS
 10
123.9246494355
 20
38.7555555647
 11
125.6502523575
 21
38.4643662485
  0
LINE
  5
61B
100
AcDbEntity
  8
0
100
AcDbLine
 62
7
  6
CONTINUOUS
 10
126.1963874374
 20
38.6958688961
 11
123.9777539001
 21
39.0702553638
  0
LINE
  5
61C
100
AcDbEntity
  8
0
100
AcDbLine
 62
7
  6
CONTINUOUS
 10
121.5961354383
 20
37.2474011397
 11
121.2878864523
 21
37.3293380021
  0
LINE
  5
61D
100
AcDbEntity
  8
0
100
AcDbLine
 62
7
  6
CONTINUOUS
 10
122.030839476
 20
39.5261298058
 11
122.339087181
 21
39.4441935801
  0
LINE
  5
61E
100
AcDbEntity
  8
0
100
AcDbLine
 62
7
  6
CONTINUOUS
 10
122.4811413346
 20
39.7299848766
 11
122.116925739
 21
39.8397402473
  0
LINE
  5
61F
100
AcDbEntity
  8
0
100
AcDbLine
 62
7
  6
CONTINUOUS
 10
122.7885352718
 20
39.5059129933
 11
122.4811413346
 21
39.7299848766
  0
LINE
  5
620
100
AcDbEntity
  8
0
100
AcDbLine
 62
7
  6
CONTINUOUS
 10
122.339087181
 20
39.4441935801
 11
122.5905145136
 21
39.2479402152
  0
LWPOLYLINE
  5
621
100
AcDbEntity
  8
KONSTRUKTIONSELEMENTE
100
AcDbPolyline
 62
7
  6
CONTINUOUS
 90
15
 70
0
 10
145.8129766632
 20
10.3323742964
 10
145.9735670546
 20
10.0979519688
 10
146.2596944088
 20
9.7235305731
 10
146.5831193688
 20
9.3540761943
 10
146.9446485068
 20
8.9948916931
 10
147.3442305337
 20
8.6515982712
 10
147.7802991986
 20
8.3303477351
 10
148.249976492
 20
8.0371697144
 10
148.7515253763
 20
7.7764840364
 10
149.2817409357
 20
7.5529444336
 10
149.838010452
 20
7.3703723366
 10
150.4169801857
 20
7.2324843061
 10
151.0143480369
 20
7.1427477029
 10
151.6250491503
 20
7.1041187804
 10
151.7658700625
 20
7.1027170159
  0
LINE
  5
622
100
AcDbEntity
  8
0
100
AcDbLine
 62
7
  6
CONTINUOUS
 10
122.9831409434
 20
39.1953431108
 11
122.7885352718
 21
39.5059129933
  0
LINE
  5
623
100
AcDbEntity
  8
KONSTRUKTIONSELEMENTE
100
AcDbLine
 62
7
  6
CONTINUOUS
 10
119.7146512043
 20
48.1027170516
 11
123.1787528194
 21
42.1027170516
  0
LINE
  5
624
100
AcDbEntity
  8
0
100
AcDbLine
 62
7
  6
CONTINUOUS
 10
122.5905145136
 20
39.2479402152
 11
122.7015952433
 21
39.0501668991
  0
LINE
  5
625
100
AcDbEntity
  8
0
100
AcDbLine
 62
7
  6
CONTINUOUS
 10
124.0565682795
 20
36.5324000086
 11
123.9651740052
 21
36.7420190305
  0
LINE
  5
626
100
AcDbEntity
  8
0
100
AcDbLine
 62
7
  6
CONTINUOUS
 10
123.0658108364
 20
38.9404115234
 11
122.9831409434
 21
39.1953431108
  0
LINE
  5
627
100
AcDbEntity
  8
0
100
AcDbLine
 62
7
  6
CONTINUOUS
 10
120.925379671
 20
37.7233640464
 11
120.8719744398
 21
38.1775896778
  0
LINE
  5
628
100
AcDbEntity
  8
0
100
AcDbLine
 62
7
  6
CONTINUOUS
 10
122.7015952433
 20
39.0501668991
 11
122.7549992532
 21
38.5959420245
  0
LINE
  5
629
100
AcDbEntity
  8
0
100
AcDbLine
 62
7
  6
CONTINUOUS
 10
123.595401749
 20
36.8044167751
 11
123.6145459523
 21
36.5422575057
  0
LINE
  5
62A
100
AcDbEntity
  8
0
100
AcDbLine
 62
7
  6
CONTINUOUS
 10
123.0641020047
 20
38.6561408148
 11
123.0658108364
 21
38.9404115234
  0
LINE
  5
62B
100
AcDbEntity
  8
0
100
AcDbLine
 62
7
  6
CONTINUOUS
 10
123.0348374125
 20
38.4568469108
 11
123.0641020047
 21
38.6561408148
  0
LINE
  5
62C
100
AcDbEntity
  8
0
100
AcDbLine
 62
7
  6
CONTINUOUS
 10
123.9777539001
 20
39.0702553638
 11
123.9246494355
 21
38.7555555647
  0
LINE
  5
62D
100
AcDbEntity
  8
0
100
AcDbLine
 62
7
  6
CONTINUOUS
 10
123.6166435616
 20
36.9302968534
 11
123.595401749
 21
36.8044167751
  0
LINE
  5
62E
100
AcDbEntity
  8
0
100
AcDbLine
 62
7
  6
CONTINUOUS
 10
123.9651740052
 20
36.7420190305
 11
123.9864158178
 21
36.8678991088
  0
LINE
  5
62F
100
AcDbEntity
  8
0
100
AcDbLine
 62
7
  6
CONTINUOUS
 10
120.6782238071
 20
38.6302945613
 11
120.5921375615
 21
38.3166841548
  0
LINE
  5
630
100
AcDbEntity
  8
0
100
AcDbLine
 62
7
  6
CONTINUOUS
 10
122.9487498461
 20
38.1432370609
 11
123.0348374125
 21
38.4568469108
  0
LINE
  5
631
100
AcDbEntity
  8
0
100
AcDbLine
 62
7
  6
CONTINUOUS
 10
120.8719744398
 20
38.1775896778
 11
120.9864727932
 21
38.5483576989
  0
LINE
  5
632
100
AcDbEntity
  8
0
100
AcDbLine
 62
7
  6
CONTINUOUS
 10
122.7549992532
 20
38.5959420245
 11
122.640502141
 21
38.2251732866
  0
LINE
  5
633
100
AcDbEntity
  8
0
100
AcDbLine
 62
7
  6
CONTINUOUS
 10
120.9339212478
 20
39.1447188229
 11
120.6782238071
 21
38.6302945613
  0
LINE
  5
634
100
AcDbEntity
  8
0
100
AcDbLine
 62
7
  6
CONTINUOUS
 10
135.1352574485
 20
39.7471763851
 11
134.9148048487
 21
39.6937548134
  0
LINE
  5
635
100
AcDbEntity
  8
0
100
AcDbLine
 62
7
  6
CONTINUOUS
 10
129.6766640238
 20
39.132293462
 11
129.3068843745
 21
39.0699395452
  0
LINE
  5
636
100
AcDbEntity
  8
0
100
AcDbLine
 62
7
  6
CONTINUOUS
 10
128.4440656629
 20
38.924447152
 11
127.95102519
 21
38.8413084377
  0
LINE
  5
637
100
AcDbEntity
  8
0
100
AcDbLine
 62
7
  6
CONTINUOUS
 10
127.0882064785
 20
38.6958160445
 11
126.7184268291
 21
38.6334621277
  0
LINE
  5
638
100
AcDbEntity
  8
0
100
AcDbLine
 62
7
  6
CONTINUOUS
 10
121.820859475
 20
37.2782608288
 11
121.5961354383
 21
37.2474011397
  0
LINE
  5
639
100
AcDbEntity
  8
0
100
AcDbLine
 62
7
  6
CONTINUOUS
 10
121.8061154393
 20
39.4952701167
 11
122.030839476
 21
39.5261298058
  0
LINE
  5
63A
100
AcDbEntity
  8
0
100
AcDbLine
 62
7
  6
CONTINUOUS
 10
121.5100479117
 20
36.9337913699
 11
121.8751185512
 21
36.9661710101
  0
LINE
  5
63B
100
AcDbEntity
  8
0
100
AcDbLine
 62
7
  6
CONTINUOUS
 10
122.116925739
 20
39.8397402473
 11
121.751856373
 21
39.8073599554
  0
LINE
  5
63C
100
AcDbEntity
  8
0
100
AcDbLine
 62
7
  6
CONTINUOUS
 10
134.7579294657
 20
39.3300075423
 11
135.1149838425
 21
39.3441463215
  0
LINE
  5
63D
100
AcDbEntity
  8
0
100
AcDbLine
 62
7
  6
CONTINUOUS
 10
100.1922020223
 20
38.086884513
 11
100.73689236
 21
38.086884513
  0
LINE
  5
63E
100
AcDbEntity
  8
0
100
AcDbLine
 62
7
  6
CONTINUOUS
 10
99.091552495
 20
41.211884513
 11
99.6112829727
 21
41.211884513
  0
LINE
  5
63F
100
AcDbEntity
  8
0
100
AcDbLine
 62
7
  6
CONTINUOUS
 10
134.9148048487
 20
39.6937548134
 11
134.6889389851
 21
39.7295026332
  0
LINE
  5
640
100
AcDbEntity
  8
0
100
AcDbLine
 62
7
  6
CONTINUOUS
 10
134.4847254319
 20
39.4085725967
 11
134.7579294657
 21
39.3300075423
  0
LINE
  5
641
100
AcDbEntity
  8
0
100
AcDbLine
 62
7
  6
CONTINUOUS
 10
129.699581395
 20
36.7411144446
 11
128.4440656629
 21
38.924447152
  0
LINE
  5
642
100
AcDbEntity
  8
0
100
AcDbLine
 62
7
  6
CONTINUOUS
 10
128.2506125908
 20
38.5681717038
 11
129.6208258841
 21
36.0805253922
  0
LINE
  5
643
100
AcDbEntity
  8
0
100
AcDbLine
 62
7
  6
CONTINUOUS
 10
126.7184268291
 20
38.6334621277
 11
127.2172581634
 21
35.6752249331
  0
LINE
  5
644
100
AcDbEntity
  8
0
100
AcDbLine
 62
7
  6
CONTINUOUS
 10
127.480903499
 20
36.3669909439
 11
127.0882064785
 21
38.6958160445
  0
LINE
  5
645
100
AcDbEntity
  8
0
100
AcDbLine
 62
7
  6
CONTINUOUS
 10
126.1432829728
 20
38.381169097
 11
126.1963874374
 21
38.6958688961
  0
LINE
  5
646
100
AcDbEntity
  8
0
100
AcDbLine
 62
7
  6
CONTINUOUS
 10
123.7207548964
 20
37.171657192
 11
123.6166435616
 21
36.9302968534
  0
LINE
  5
647
100
AcDbEntity
  8
0
100
AcDbLine
 62
7
  6
CONTINUOUS
 10
120.9864727932
 20
38.5483576989
 11
121.1853485804
 21
38.948465458
  0
LINE
  5
648
100
AcDbEntity
  8
0
100
AcDbLine
 62
7
  6
CONTINUOUS
 10
122.640502141
 20
38.2251732866
 11
122.4416263538
 21
37.8250655275
  0
LINE
  5
649
100
AcDbEntity
  8
0
100
AcDbLine
 62
7
  6
CONTINUOUS
 10
122.6930524054
 20
37.6288127993
 11
122.9487498461
 21
38.1432370609
  0
LINE
  5
64A
100
AcDbEntity
  8
0
100
AcDbLine
 62
7
  6
CONTINUOUS
 10
121.1853485804
 20
38.948465458
 11
121.4117801877
 21
39.2635965325
  0
LINE
  5
64B
100
AcDbEntity
  8
0
100
AcDbLine
 62
7
  6
CONTINUOUS
 10
121.1319433094
 20
39.4026910094
 11
120.9339212478
 21
39.1447188229
  0
LINE
  5
64C
100
AcDbEntity
  8
0
100
AcDbLine
 62
7
  6
CONTINUOUS
 10
138.0544136873
 20
45.5114100014
 11
138.2522772092
 21
45.5491517046
  0
LINE
  5
64D
100
AcDbEntity
  8
0
100
AcDbLine
 62
7
  6
CONTINUOUS
 10
138.2997762788
 20
45.9211313255
 11
138.1019127569
 21
45.8833896223
  0
LINE
  5
64E
100
AcDbEntity
  8
0
100
AcDbLine
 62
7
  6
CONTINUOUS
 10
135.906273447
 20
44.4970906794
 11
136.1323650086
 21
44.5313810905
  0
LINE
  5
64F
100
AcDbEntity
  8
0
100
AcDbLine
 62
7
  6
CONTINUOUS
 10
136.2298664825
 20
44.8990665121
 11
135.9456976704
 21
44.8912577824
  0
LINE
  5
650
100
AcDbEntity
  8
0
100
AcDbLine
 62
7
  6
CONTINUOUS
 10
98.924655823
 20
41.836884513
 11
99.4408019886
 21
41.836884513
  0
LINE
  5
651
100
AcDbEntity
  8
0
100
AcDbLine
 62
7
  6
CONTINUOUS
 10
98.8825939732
 20
42.0052174092
 11
99.3978446777
 21
42.0052174092
  0
LINE
  5
652
100
AcDbEntity
  8
0
100
AcDbLine
 62
7
  6
CONTINUOUS
 10
98.8596951134
 20
42.0989670516
 11
99.3744596393
 21
42.0989670516
  0
LINE
  5
653
100
AcDbEntity
  8
KONSTRUKTIONSELEMENTE
100
AcDbLine
 62
7
  6
CONTINUOUS
 10
123.1787528194
 20
42.1027170516
 11
130.1069560497
 21
42.1027170516
  0
LINE
  5
654
100
AcDbEntity
  8
0
100
AcDbLine
 62
7
  6
CONTINUOUS
 10
98.8150224692
 20
42.2864674092
 11
99.3288411891
 21
42.2864674092
  0
LINE
  5
655
100
AcDbEntity
  8
0
100
AcDbLine
 62
7
  6
CONTINUOUS
 10
98.7301508792
 20
42.6614670516
 11
99.2421823447
 21
42.6614670516
  0
LINE
  5
656
100
AcDbEntity
  8
0
100
AcDbLine
 62
7
  6
CONTINUOUS
 10
98.6511936791
 20
43.036466694
 11
99.1615736814
 21
43.036466694
  0
LINE
  5
657
100
AcDbEntity
  8
0
100
AcDbLine
 62
7
  6
CONTINUOUS
 10
98.5607294498
 20
43.5052170516
 11
99.0692304904
 21
43.5052170516
  0
LINE
  5
658
100
AcDbEntity
  8
0
100
AcDbLine
 62
7
  6
CONTINUOUS
 10
135.6127096909
 20
42.7763017997
 11
137.4131057387
 21
41.9553751832
  0
LINE
  5
659
100
AcDbEntity
  8
0
100
AcDbLine
 62
7
  6
CONTINUOUS
 10
137.5686845707
 20
42.2965792674
 11
135.7682885229
 21
43.1175058838
  0
LINE
  5
65A
100
AcDbEntity
  8
0
100
AcDbLine
 62
7
  6
CONTINUOUS
 10
134.6889389851
 20
39.7295026332
 11
134.4576606025
 21
39.8544201349
  0
LINE
  5
65B
100
AcDbEntity
  8
0
100
AcDbLine
 62
7
  6
CONTINUOUS
 10
134.206108614
 20
39.5763075731
 11
134.4847254319
 21
39.4085725967
  0
LINE
  5
65C
100
AcDbEntity
  8
0
100
AcDbLine
 62
7
  6
CONTINUOUS
 10
133.4960340063
 20
40.2185679527
 11
134.206108614
 21
39.5763075731
  0
LINE
  5
65D
100
AcDbEntity
  8
0
100
AcDbLine
 62
7
  6
CONTINUOUS
 10
134.4576606025
 20
39.8544201349
 11
133.7475859948
 21
40.4966805145
  0
LINE
  5
65E
100
AcDbEntity
  8
0
100
AcDbLine
 62
7
  6
CONTINUOUS
 10
134.4481120538
 20
42.2227125363
 11
136.1049528825
 21
40.7241049139
  0
LINE
  5
65F
100
AcDbEntity
  8
0
100
AcDbLine
 62
7
  6
CONTINUOUS
 10
133.3012676639
 20
40.4790066427
 11
133.4960340063
 21
40.2185679527
  0
LINE
  5
660
100
AcDbEntity
  8
0
100
AcDbLine
 62
7
  6
CONTINUOUS
 10
133.7475859948
 20
40.4966805145
 11
133.6001579552
 21
40.7143018499
  0
LINE
  5
661
100
AcDbEntity
  8
0
100
AcDbLine
 62
7
  6
CONTINUOUS
 10
129.3068843745
 20
39.0699395452
 11
129.699581395
 21
36.7411144446
  0
LINE
  5
662
100
AcDbEntity
  8
0
100
AcDbLine
 62
7
  6
CONTINUOUS
 10
130.1754953581
 20
36.1740562674
 11
129.6766640238
 21
39.132293462
  0
LINE
  5
663
100
AcDbEntity
  8
0
100
AcDbLine
 62
7
  6
CONTINUOUS
 10
133.1741131806
 20
41.0996580867
 11
133.1957652425
 21
40.7429804554
  0
LINE
  5
664
100
AcDbEntity
  8
0
100
AcDbLine
 62
7
  6
CONTINUOUS
 10
127.7719276374
 20
35.7687558082
 11
128.2506125908
 21
38.5681717038
  0
LINE
  5
665
100
AcDbEntity
  8
0
100
AcDbLine
 62
7
  6
CONTINUOUS
 10
127.95102519
 20
38.8413084377
 11
127.480903499
 21
36.3669909439
  0
LINE
  5
666
100
AcDbEntity
  8
0
100
AcDbLine
 62
7
  6
CONTINUOUS
 10
125.6482933614
 20
36.1990699103
 11
125.7524061067
 21
36.4404300108
  0
LINE
  5
667
100
AcDbEntity
  8
0
100
AcDbLine
 62
7
  6
CONTINUOUS
 10
123.9864158178
 20
36.8678991088
 11
124.1521563321
 21
37.0988597439
  0
LINE
  5
668
100
AcDbEntity
  8
0
100
AcDbLine
 62
7
  6
CONTINUOUS
 10
122.4416263538
 20
37.8250655275
 11
122.2151935053
 21
37.5099351698
  0
LINE
  5
669
100
AcDbEntity
  8
0
100
AcDbLine
 62
7
  6
CONTINUOUS
 10
122.4950316646
 20
37.3708400562
 11
122.6930524054
 21
37.6288127993
  0
LINE
  5
66A
100
AcDbEntity
  8
0
100
AcDbLine
 62
7
  6
CONTINUOUS
 10
121.2731436777
 20
39.5463466132
 11
121.1319433094
 21
39.4026910094
  0
LINE
  5
66B
100
AcDbEntity
  8
0
100
AcDbLine
 62
7
  6
CONTINUOUS
 10
122.3538312167
 20
37.2271842923
 11
122.4950316646
 21
37.3708400562
  0
LINE
  5
66C
100
AcDbEntity
  8
0
100
AcDbLine
 62
7
  6
CONTINUOUS
 10
121.4987214996
 20
39.719341995
 11
121.2731436777
 21
39.5463466132
  0
LINE
  5
66D
100
AcDbEntity
  8
0
100
AcDbLine
 62
7
  6
CONTINUOUS
 10
135.7671325919
 20
45.7404714192
 11
137.2946418438
 21
46.1124870455
  0
LINE
  5
66E
100
AcDbEntity
  8
0
100
AcDbLine
 62
7
  6
CONTINUOUS
 10
137.2155095795
 20
46.5006366492
 11
135.8225481883
 21
46.1744477618
  0
LINE
  5
66F
100
AcDbEntity
  8
0
100
AcDbLine
 62
7
  6
CONTINUOUS
 10
98.2511383887
 20
45.7552170516
 11
98.753313584
 21
45.7552170516
  0
LINE
  5
670
100
AcDbEntity
  8
0
100
AcDbLine
 62
7
  6
CONTINUOUS
 10
98.1929429774
 20
46.5052168728
 11
98.6939467795
 21
46.5052168728
  0
LINE
  5
671
100
AcDbEntity
  8
0
100
AcDbLine
 62
7
  6
CONTINUOUS
 10
98.1638675114
 20
47.0677168728
 11
98.66428813
 21
47.0677168728
  0
LINE
  5
672
100
AcDbEntity
  8
0
100
AcDbLine
 62
7
  6
CONTINUOUS
 10
98.1602319549
 20
47.1614670516
 11
98.6605797495
 21
47.1614670516
  0
LINE
  5
673
100
AcDbEntity
  8
0
100
AcDbLine
 62
7
  6
CONTINUOUS
 10
98.1539968558
 20
47.3489668728
 11
98.6542198046
 21
47.3489668728
  0
LINE
  5
674
100
AcDbEntity
  8
0
100
AcDbLine
 62
7
  6
CONTINUOUS
 10
98.1472321072
 20
47.6302168728
 11
98.6473199617
 21
47.6302168728
  0
LINE
  5
675
100
AcDbEntity
  8
0
100
AcDbLine
 62
7
  6
CONTINUOUS
 10
98.1430408297
 20
48.0052170516
 11
98.6430445603
 21
48.0052170516
  0
LINE
  5
676
100
AcDbEntity
  8
0
100
AcDbLine
 62
7
  6
CONTINUOUS
 10
145.1428544345
 20
48.1027170516
 11
144.3857005759
 21
48.1027170516
  0
LINE
  5
677
100
AcDbEntity
  8
0
100
AcDbLine
 62
7
  6
CONTINUOUS
 10
159.1428544345
 20
48.1027170516
 11
159.9000082932
 21
48.1027170516
  0
LINE
  5
678
100
AcDbEntity
  8
0
100
AcDbLine
 62
7
  6
CONTINUOUS
 10
98.1443644644
 20
48.3802172304
 11
98.644394609
 21
48.3802172304
  0
LINE
  5
679
100
AcDbEntity
  8
0
100
AcDbLine
 62
7
  6
CONTINUOUS
 10
137.8011508195
 20
45.5437498123
 11
138.0544136873
 21
45.5114100014
  0
LINE
  5
67A
100
AcDbEntity
  8
0
100
AcDbLine
 62
7
  6
CONTINUOUS
 10
138.1019127569
 20
45.8833896223
 11
137.9119655617
 21
45.9076444861
  0
LINE
  5
67B
100
AcDbEntity
  8
0
100
AcDbLine
 62
7
  6
CONTINUOUS
 10
136.0204609709
 20
47.7243627899
 11
137.3500902731
 21
47.5545788789
  0
LINE
  5
67C
100
AcDbEntity
  8
0
100
AcDbLine
 62
7
  6
CONTINUOUS
 10
137.7299843087
 20
47.5060691966
 11
138.6797195753
 21
47.384794968
  0
LINE
  5
67D
100
AcDbEntity
  8
0
100
AcDbLine
 62
7
  6
CONTINUOUS
 10
139.043797008
 20
47.7163498536
 11
136.0679600406
 21
48.0963424108
  0
LINE
  5
67E
100
AcDbEntity
  8
0
100
AcDbLine
 62
7
  6
CONTINUOUS
 10
136.1323650086
 20
44.5313810905
 11
136.390603851
 21
44.4823222203
  0
LINE
  5
67F
100
AcDbEntity
  8
0
100
AcDbLine
 62
7
  6
CONTINUOUS
 10
136.5461827572
 20
44.8235264671
 11
136.2298664825
 21
44.8990665121
  0
LINE
  5
680
100
AcDbEntity
  8
0
100
AcDbLine
 62
7
  6
CONTINUOUS
 10
136.390603851
 20
44.4823222203
 11
138.1909998988
 21
43.6613956039
  0
LINE
  5
681
100
AcDbEntity
  8
0
100
AcDbLine
 62
7
  6
CONTINUOUS
 10
138.346578805
 20
44.0025998507
 11
136.5461827572
 21
44.8235264671
  0
LINE
  5
682
100
AcDbEntity
  8
0
100
AcDbLine
 62
7
  6
CONTINUOUS
 10
137.6191203057
 20
45.6300011978
 11
137.8011508195
 21
45.5437498123
  0
LINE
  5
683
100
AcDbEntity
  8
0
100
AcDbLine
 62
7
  6
CONTINUOUS
 10
137.9119655617
 20
45.9076444861
 11
137.729935048
 21
45.9938958717
  0
LINE
  5
684
100
AcDbEntity
  8
0
100
AcDbLine
 62
7
  6
CONTINUOUS
 10
135.3482531257
 20
42.9655767563
 11
135.6127096909
 21
42.7763017997
  0
LINE
  5
685
100
AcDbEntity
  8
0
100
AcDbLine
 62
7
  6
CONTINUOUS
 10
135.7682885229
 20
43.1175058838
 11
135.5619092417
 21
43.2802993403
  0
LINE
  5
686
100
AcDbEntity
  8
0
100
AcDbLine
 62
7
  6
CONTINUOUS
 10
136.6405346876
 20
40.7453133479
 11
134.4156341926
 21
42.757729256
  0
LINE
  5
687
100
AcDbEntity
  8
0
100
AcDbLine
 62
7
  6
CONTINUOUS
 10
135.1678035103
 20
43.1852373618
 11
135.3482531257
 21
42.9655767563
  0
LINE
  5
688
100
AcDbEntity
  8
0
100
AcDbLine
 62
7
  6
CONTINUOUS
 10
135.5619092417
 20
43.2802993403
 11
135.439536951
 21
43.473478427
  0
LINE
  5
689
100
AcDbEntity
  8
0
100
AcDbLine
 62
7
  6
CONTINUOUS
 10
133.1957652425
 20
40.7429804554
 11
133.3012676639
 21
40.4790066427
  0
LINE
  5
68A
100
AcDbEntity
  8
0
100
AcDbLine
 62
7
  6
CONTINUOUS
 10
135.0392136248
 20
43.5186328696
 11
135.1678035103
 21
43.1852373618
  0
LINE
  5
68B
100
AcDbEntity
  8
0
100
AcDbLine
 62
7
  6
CONTINUOUS
 10
133.6001579552
 20
40.7143018499
 11
133.5419938697
 21
40.935458278
  0
LINE
  5
68C
100
AcDbEntity
  8
0
100
AcDbLine
 62
7
  6
CONTINUOUS
 10
135.0267783124
 20
43.7990653748
 11
135.0392136248
 21
43.5186328696
  0
LINE
  5
68D
100
AcDbEntity
  8
0
100
AcDbLine
 62
7
  6
CONTINUOUS
 10
136.0679600406
 20
48.0963424108
 11
136.0204609709
 21
47.7243627899
  0
LINE
  5
68E
100
AcDbEntity
  8
0
100
AcDbLine
 62
7
  6
CONTINUOUS
 10
135.8225481883
 20
46.1744477618
 11
135.7671325919
 21
45.7404714192
  0
LINE
  5
68F
100
AcDbEntity
  8
0
100
AcDbLine
 62
7
  6
CONTINUOUS
 10
133.5419938697
 20
40.935458278
 11
133.5730932253
 21
41.1601492982
  0
LINE
  5
690
100
AcDbEntity
  8
0
100
AcDbLine
 62
7
  6
CONTINUOUS
 10
135.4011717583
 20
43.697043488
 11
135.4468137451
 21
43.950994486
  0
LINE
  5
691
100
AcDbEntity
  8
0
100
AcDbLine
 62
7
  6
CONTINUOUS
 10
135.0983500005
 20
44.1098835056
 11
135.0267783124
 21
43.7990653748
  0
LINE
  5
692
100
AcDbEntity
  8
0
100
AcDbLine
 62
7
  6
CONTINUOUS
 10
133.2471377284
 20
41.370701005
 11
133.1741131806
 21
41.0996580867
  0
LINE
  5
693
100
AcDbEntity
  8
0
100
AcDbLine
 62
7
  6
CONTINUOUS
 10
135.2020692713
 20
44.3373530034
 11
135.0983500005
 21
44.1098835056
  0
LINE
  5
694
100
AcDbEntity
  8
0
100
AcDbLine
 62
7
  6
CONTINUOUS
 10
133.5730932253
 20
41.1601492982
 11
133.6934560883
 21
41.3883748506
  0
LINE
  5
695
100
AcDbEntity
  8
KONSTRUKTIONSELEMENTE
100
AcDbLine
 62
7
  6
CONTINUOUS
 10
130.1069560497
 20
42.1027170516
 11
133.5710576648
 21
48.1027170516
  0
LINE
  5
696
100
AcDbEntity
  8
0
100
AcDbLine
 62
7
  6
CONTINUOUS
 10
133.4094262385
 20
41.6452790084
 11
133.2471377284
 21
41.370701005
  0
LINE
  5
697
100
AcDbEntity
  8
0
100
AcDbLine
 62
7
  6
CONTINUOUS
 10
123.8758759298
 20
37.3396776381
 11
123.7207548964
 21
37.171657192
  0
LINE
  5
698
100
AcDbEntity
  8
0
100
AcDbLine
 62
7
  6
CONTINUOUS
 10
125.4442630301
 20
36.492428052
 11
125.2891419967
 21
36.3244076059
  0
LINE
  5
699
100
AcDbEntity
  8
0
100
AcDbLine
 62
7
  6
CONTINUOUS
 10
122.1282534147
 20
37.0541889505
 11
122.3538312167
 21
37.2271842923
  0
LINE
  5
69A
100
AcDbEntity
  8
0
100
AcDbLine
 62
7
  6
CONTINUOUS
 10
121.4117801877
 20
39.2635965325
 11
121.8061154393
 21
39.4952701167
  0
LINE
  5
69B
100
AcDbEntity
  8
0
100
AcDbLine
 62
7
  6
CONTINUOUS
 10
122.2151935053
 20
37.5099351698
 11
121.820859475
 21
37.2782608288
  0
LINE
  5
69C
100
AcDbEntity
  8
0
100
AcDbLine
 62
7
  6
CONTINUOUS
 10
98.1512039587
 20
48.7552168728
 11
98.6513710055
 21
48.7552168728
  0
LINE
  5
69D
100
AcDbEntity
  8
0
100
AcDbLine
 62
7
  6
CONTINUOUS
 10
98.1599560266
 20
49.0364668728
 11
98.6602982949
 21
49.0364668728
  0
LINE
  5
69E
100
AcDbEntity
  8
0
100
AcDbLine
 62
7
  6
CONTINUOUS
 10
98.1675173801
 20
49.2239672304
 11
98.668011131
 21
49.2239672304
  0
LINE
  5
69F
100
AcDbEntity
  8
0
100
AcDbLine
 62
7
  6
CONTINUOUS
 10
98.1718164613
 20
49.3177168728
 11
98.6723963804
 21
49.3177168728
  0
LINE
  5
6A0
100
AcDbEntity
  8
0
100
AcDbLine
 62
7
  6
CONTINUOUS
 10
98.2048809808
 20
49.880217141
 11
98.7061246282
 21
49.880217141
  0
LINE
  5
6A1
100
AcDbEntity
  8
0
100
AcDbLine
 62
7
  6
CONTINUOUS
 10
98.2268074612
 20
50.1702170516
 11
98.7284922362
 21
50.1702170516
  0
LINE
  5
6A2
100
AcDbEntity
  8
0
100
AcDbLine
 62
7
  6
CONTINUOUS
 10
98.2641444999
 20
50.5868833209
 11
98.766582247
 21
50.5868833209
  0
LINE
  5
6A3
100
AcDbEntity
  8
0
100
AcDbLine
 62
7
  6
CONTINUOUS
 10
98.2684235207
 20
50.6302169622
 11
98.7709477082
 21
50.6302169622
  0
LINE
  5
6A4
100
AcDbEntity
  8
0
100
AcDbLine
 62
7
  6
CONTINUOUS
 10
98.2779367732
 20
50.723967141
 11
98.7806532454
 21
50.723967141
  0
LINE
  5
6A5
100
AcDbEntity
  8
0
100
AcDbLine
 62
7
  6
CONTINUOUS
 10
98.2878002047
 20
50.8177170516
 11
98.7907161966
 21
50.8177170516
  0
LINE
  5
6A6
100
AcDbEntity
  8
0
100
AcDbLine
 62
7
  6
CONTINUOUS
 10
98.3194959302
 20
51.0989670516
 11
98.8230541546
 21
51.0989670516
  0
LINE
  5
6A7
100
AcDbEntity
  8
0
100
AcDbLine
 62
7
  6
CONTINUOUS
 10
98.3666863302
 20
51.4739669622
 11
98.8712038226
 21
51.4739669622
  0
LINE
  5
6A8
100
AcDbEntity
  8
0
100
AcDbLine
 62
7
  6
CONTINUOUS
 10
98.4336418328
 20
51.9427170516
 11
98.9395267235
 21
51.9427170516
  0
LINE
  5
6A9
100
AcDbEntity
  8
0
100
AcDbLine
 62
7
  6
CONTINUOUS
 10
137.3896071501
 20
45.8483307965
 11
137.6191203057
 21
45.6300011978
  0
LINE
  5
6AA
100
AcDbEntity
  8
0
100
AcDbLine
 62
7
  6
CONTINUOUS
 10
137.729935048
 20
45.9938958717
 11
137.6191367335
 21
46.1340590319
  0
LINE
  5
6AB
100
AcDbEntity
  8
KONSTRUKTIONSELEMENTE
100
AcDbLine
 62
7
  6
CONTINUOUS
 10
133.5710576648
 20
48.1027170516
 11
130.1069560497
 21
54.1027170516
  0
LINE
  5
6AC
100
AcDbEntity
  8
0
100
AcDbLine
 62
7
  6
CONTINUOUS
 10
137.2946418438
 20
46.1124870455
 11
137.3896071501
 21
45.8483307965
  0
LINE
  5
6AD
100
AcDbEntity
  8
0
100
AcDbLine
 62
7
  6
CONTINUOUS
 10
135.439536951
 20
43.473478427
 11
135.4011717583
 21
43.697043488
  0
LINE
  5
6AE
100
AcDbEntity
  8
0
100
AcDbLine
 62
7
  6
CONTINUOUS
 10
137.3500902731
 20
47.5545788789
 11
137.2155095795
 21
46.5006366492
  0
LINE
  5
6AF
100
AcDbEntity
  8
0
100
AcDbLine
 62
7
  6
CONTINUOUS
 10
137.5795705957
 20
46.3281337894
 11
137.7299843087
 21
47.5060691966
  0
LINE
  5
6B0
100
AcDbEntity
  8
0
100
AcDbLine
 62
7
  6
CONTINUOUS
 10
138.6797195753
 20
47.384794968
 11
138.5293058622
 21
46.2068595609
  0
LINE
  5
6B1
100
AcDbEntity
  8
0
100
AcDbLine
 62
7
  6
CONTINUOUS
 10
138.8538007294
 20
46.2284313699
 11
139.043797008
 21
47.7163498536
  0
LINE
  5
6B2
100
AcDbEntity
  8
0
100
AcDbLine
 62
7
  6
CONTINUOUS
 10
144.2300094806
 20
77.6069861062
 11
144.0568088619
 21
76.2717341028
  0
LINE
  5
6B3
100
AcDbEntity
  8
0
100
AcDbLine
 62
7
  6
CONTINUOUS
 10
138.7509024912
 20
45.9265332404
 11
138.8538007294
 21
46.2284313699
  0
LINE
  5
6B4
100
AcDbEntity
  8
0
100
AcDbLine
 62
7
  6
CONTINUOUS
 10
135.4468137451
 20
43.950994486
 11
135.5505330159
 21
44.1784639839
  0
LINE
  5
6B5
100
AcDbEntity
  8
0
100
AcDbLine
 62
7
  6
CONTINUOUS
 10
137.4131057387
 20
41.9553751832
 11
137.5686845707
 21
42.2965792674
  0
LINE
  5
6B6
100
AcDbEntity
  8
0
100
AcDbLine
 62
7
  6
CONTINUOUS
 10
138.1909998988
 20
43.6613956039
 11
138.346578805
 21
44.0025998507
  0
LINE
  5
6B7
100
AcDbEntity
  8
0
100
AcDbLine
 62
7
  6
CONTINUOUS
 10
138.5293058622
 20
46.2068595609
 11
138.4422406548
 21
46.0289546975
  0
LINE
  5
6B8
100
AcDbEntity
  8
0
100
AcDbLine
 62
7
  6
CONTINUOUS
 10
135.3897955376
 20
44.5952081293
 11
135.2020692713
 21
44.3373530034
  0
LINE
  5
6B9
100
AcDbEntity
  8
0
100
AcDbLine
 62
7
  6
CONTINUOUS
 10
135.5505330159
 20
44.1784639839
 11
135.7123294224
 21
44.3794516562
  0
LINE
  5
6BA
100
AcDbEntity
  8
0
100
AcDbLine
 62
7
  6
CONTINUOUS
 10
134.4156341926
 20
42.757729256
 11
133.4094262385
 21
41.6452790084
  0
LINE
  5
6BB
100
AcDbEntity
  8
0
100
AcDbLine
 62
7
  6
CONTINUOUS
 10
133.6934560883
 20
41.3883748506
 11
134.4481120538
 21
42.2227125363
  0
LINE
  5
6BC
100
AcDbEntity
  8
0
100
AcDbLine
 62
7
  6
CONTINUOUS
 10
136.1049528825
 20
40.7241049139
 11
135.350296917
 21
39.8897672282
  0
LINE
  5
6BD
100
AcDbEntity
  8
0
100
AcDbLine
 62
7
  6
CONTINUOUS
 10
138.5292894344
 20
45.7028017268
 11
138.7509024912
 21
45.9265332404
  0
LINE
  5
6BE
100
AcDbEntity
  8
0
100
AcDbLine
 62
7
  6
CONTINUOUS
 10
135.6096693917
 20
44.7697146199
 11
135.3897955376
 21
44.5952081293
  0
LINE
  5
6BF
100
AcDbEntity
  8
0
100
AcDbLine
 62
7
  6
CONTINUOUS
 10
138.4422406548
 20
46.0289546975
 11
138.2997762788
 21
45.9211313255
  0
LINE
  5
6C0
100
AcDbEntity
  8
0
100
AcDbLine
 62
7
  6
CONTINUOUS
 10
125.3592958986
 20
35.988908444
 11
125.6482933614
 21
36.1990699103
  0
LINE
  5
6C1
100
AcDbEntity
  8
0
100
AcDbLine
 62
7
  6
CONTINUOUS
 10
124.1521563321
 20
37.0988597439
 11
126.1432829728
 21
38.381169097
  0
LINE
  5
6C2
100
AcDbEntity
  8
0
100
AcDbLine
 62
7
  6
CONTINUOUS
 10
125.6502523575
 20
38.4643662485
 11
123.8758759298
 21
37.3396776381
  0
LINE
  5
6C3
100
AcDbEntity
  8
0
100
AcDbLine
 62
7
  6
CONTINUOUS
 10
135.7123294224
 20
44.3794516562
 11
135.906273447
 21
44.4970906794
  0
LINE
  5
6C4
100
AcDbEntity
  8
0
100
AcDbLine
 62
7
  6
CONTINUOUS
 10
138.2522772092
 20
45.5491517046
 11
138.5292894344
 21
45.7028017268
  0
LINE
  5
6C5
100
AcDbEntity
  8
0
100
AcDbLine
 62
7
  6
CONTINUOUS
 10
125.2891419967
 20
36.3244076059
 11
125.0830140857
 21
36.2297265762
  0
LINE
  5
6C6
100
AcDbEntity
  8
0
100
AcDbLine
 62
7
  6
CONTINUOUS
 10
135.9456976704
 20
44.8912577824
 11
135.6096693917
 21
44.7697146199
  0
LINE
  5
6C7
100
AcDbEntity
  8
0
100
AcDbLine
 62
7
  6
CONTINUOUS
 10
121.751856373
 20
39.8073599554
 11
121.4987214996
 21
39.719341995
  0
LINE
  5
6C8
100
AcDbEntity
  8
0
100
AcDbLine
 62
7
  6
CONTINUOUS
 10
121.8751185512
 20
36.9661710101
 11
122.1282534147
 21
37.0541889505
  0
LINE
  5
6C9
100
AcDbEntity
  8
KONSTRUKTIONSELEMENTE
100
AcDbLine
 62
7
  6
CONTINUOUS
 10
130.1069560497
 20
54.1027170516
 11
123.1787528194
 21
54.1027170516
  0
LINE
  5
6CA
100
AcDbEntity
  8
0
100
AcDbLine
 62
7
  6
CONTINUOUS
 10
98.8807483044
 20
54.1927170516
 11
99.395959788
 21
54.1927170516
  0
LINE
  5
6CB
100
AcDbEntity
  8
0
100
AcDbLine
 62
7
  6
CONTINUOUS
 10
98.9701125166
 20
54.5452170516
 11
99.4872299601
 21
54.5452170516
  0
LINE
  5
6CC
100
AcDbEntity
  8
0
100
AcDbLine
 62
7
  6
CONTINUOUS
 10
98.9975473608
 20
54.6493833209
 11
99.5152527974
 21
54.6493833209
  0
LINE
  5
6CD
100
AcDbEntity
  8
0
100
AcDbLine
 62
7
  6
CONTINUOUS
 10
99.0826867216
 20
54.9618833209
 11
99.6022255307
 21
54.9618833209
  0
LINE
  5
6CE
100
AcDbEntity
  8
0
100
AcDbLine
 62
7
  6
CONTINUOUS
 10
99.2028821857
 20
55.3785507823
 11
99.7250317175
 21
55.3785507823
  0
LINE
  5
6CF
100
AcDbEntity
  8
0
100
AcDbLine
 62
7
  6
CONTINUOUS
 10
137.6191367335
 20
46.1340590319
 11
137.5795705957
 21
46.3281337894
  0
LINE
  5
6D0
100
AcDbEntity
  8
0
100
AcDbLine
 62
7
  6
CONTINUOUS
 10
144.2300094806
 20
18.598447997
 11
144.0568088619
 21
19.9337000004
  0
LINE
  5
6D1
100
AcDbEntity
  8
KONSTRUKTIONSELEMENTE
100
AcDbLine
 62
7
  6
CONTINUOUS
 10
143.9548755309
 20
22.0788049802
 11
143.9638232667
 21
21.8205133237
  0
LINE
  5
6D2
100
AcDbEntity
  8
RUNDUNGEN
100
AcDbLine
 62
7
  6
CONTINUOUS
 10
143.9638433368
 20
21.820514019
 11
143.9550041444
 21
22.078808706
  0
LINE
  5
6D3
100
AcDbEntity
  8
0
100
AcDbLine
 62
7
  6
CONTINUOUS
 10
143.7273099771
 20
32.667764905
 11
143.8676918839
 21
25.689652585
  0
LINE
  5
6D4
100
AcDbEntity
  8
KONSTRUKTIONSELEMENTE
100
AcDbLine
 62
7
  6
CONTINUOUS
 10
143.6431238894
 20
38.5297101136
 11
143.6442140448
 21
38.412326329
  0
LINE
  5
6D5
100
AcDbEntity
  8
KONSTRUKTIONSELEMENTE
100
AcDbLine
 62
7
  6
CONTINUOUS
 10
143.6428544463
 20
38.619506536
 11
143.6431238894
 21
38.5297101136
  0
LINE
  5
6D6
100
AcDbEntity
  8
0
100
AcDbLine
 62
7
  6
CONTINUOUS
 10
143.6428544345
 20
57.579147214
 11
143.6428544345
 21
38.6262868891
  0
LINE
  5
6D7
100
AcDbEntity
  8
0
100
AcDbLine
 62
7
  6
CONTINUOUS
 10
143.6431235258
 20
57.6756634463
 11
143.6428544463
 21
57.5859275687
  0
LINE
  5
6D8
100
AcDbEntity
  8
0
100
AcDbLine
 62
7
  6
CONTINUOUS
 10
143.6442140448
 20
57.7931077742
 11
143.6431235258
 21
57.6756634463
  0
LINE
  5
6D9
100
AcDbEntity
  8
0
100
AcDbLine
 62
7
  6
CONTINUOUS
 10
143.7273099771
 20
63.5376691982
 11
143.8676918839
 21
70.5157815182
  0
LINE
  5
6DA
100
AcDbEntity
  8
0
100
AcDbLine
 62
7
  6
CONTINUOUS
 10
143.9638433368
 20
74.3849200842
 11
143.9550041491
 21
74.12662554
  0
LINE
  5
6DB
100
AcDbEntity
  8
BEZUGSACHSEN
100
AcDbLine
 62
7
  6
CONTINUOUS
 10
135.3031084724
 20
33.1027170516
 11
143.6428544345
 21
47.5475807803
  0
LINE
  5
6DC
100
AcDbEntity
  8
0
100
AcDbLine
 62
7
  6
CONTINUOUS
 10
135.6343267336
 20
39.6328631004
 11
136.6405346876
 21
40.7453133479
  0
LINE
  5
6DD
100
AcDbEntity
  8
0
100
AcDbLine
 62
7
  6
CONTINUOUS
 10
135.3773616138
 20
39.44391981
 11
135.6343267336
 21
39.6328631004
  0
LINE
  5
6DE
100
AcDbEntity
  8
0
100
AcDbLine
 62
7
  6
CONTINUOUS
 10
135.350296917
 20
39.8897672282
 11
135.1352574485
 21
39.7471763851
  0
LINE
  5
6DF
100
AcDbEntity
  8
0
100
AcDbLine
 62
7
  6
CONTINUOUS
 10
135.1149838425
 20
39.3441463215
 11
135.3773616138
 21
39.44391981
  0
LINE
  5
6E0
100
AcDbEntity
  8
0
100
AcDbLine
 62
7
  6
CONTINUOUS
 10
125.0915388081
 20
35.9046271177
 11
125.3592958986
 21
35.988908444
  0
LINE
  5
6E1
100
AcDbEntity
  8
0
100
AcDbLine
 62
7
  6
CONTINUOUS
 10
99.3640160133
 20
55.8993833209
 11
99.8897073781
 21
55.8993833209
  0
LINE
  5
6E2
100
AcDbEntity
  8
0
100
AcDbLine
 62
7
  6
CONTINUOUS
 10
100.3141456948
 20
58.3993839169
 11
100.8617514879
 21
58.3993839169
  0
LINE
  5
6E3
100
AcDbEntity
  8
0
100
AcDbLine
 62
7
  6
CONTINUOUS
 10
100.7000320275
 20
59.2327170516
 11
101.2570754666
 21
59.2327170516
  0
LINE
  5
6E4
100
AcDbEntity
  8
BEZUGSACHSEN
100
AcDbLine
 62
7
  6
CONTINUOUS
 10
143.6428544345
 20
48.6578533229
 11
135.3031084724
 21
63.1027170516
  0
LINE
  5
6E5
100
AcDbEntity
  8
RUNDUNGEN
100
AcDbLine
 62
7
  6
CONTINUOUS
 10
145.1428544345
 20
21.4152411332
 11
145.1428544345
 21
16.3055115425
  0
LINE
  5
6E6
100
AcDbEntity
  8
0
100
AcDbLine
 62
7
  6
CONTINUOUS
 10
145.1428544345
 20
21.4152411332
 11
145.1428544345
 21
79.8999225607
  0
LINE
  5
6E7
100
AcDbEntity
  8
0
100
AcDbLine
 62
7
  6
CONTINUOUS
 10
145.5428544345
 20
10.2944562775
 11
145.5428544345
 21
11.3692695052
  0
LINE
  5
6E8
100
AcDbEntity
  8
0
100
AcDbLine
 62
7
  6
CONTINUOUS
 10
145.5428544345
 20
84.8122284025
 11
145.5428544345
 21
85.1027170516
  0
LINE
  5
6E9
100
AcDbEntity
  8
0
100
AcDbLine
 62
7
  6
CONTINUOUS
 10
146.0428544345
 20
86.7060491513
 11
146.0428544345
 21
86.1979135016
  0
LINE
  5
6EA
100
AcDbEntity
  8
KONSTRUKTIONSELEMENTE
100
AcDbLine
 62
7
  6
CONTINUOUS
 10
146.0428544345
 20
9.4993849519
 11
146.0428544345
 21
10.0072836803
  0
LINE
  5
6EB
100
AcDbEntity
  8
0
100
AcDbLine
 62
7
  6
CONTINUOUS
 10
102.4994163272
 20
62.3577170516
 11
103.105206687
 21
62.3577170516
  0
LINE
  5
6EC
100
AcDbEntity
  8
0
100
AcDbLine
 62
7
  6
CONTINUOUS
 10
102.934508291
 20
62.9827170516
 11
103.5534144224
 21
62.9827170516
  0
LINE
  5
6ED
100
AcDbEntity
  8
BEZUGSACHSEN
100
AcDbLine
 62
7
  6
CONTINUOUS
 10
135.3031084724
 20
63.1027170516
 11
117.9826003967
 21
63.1027170516
  0
LINE
  5
6EE
100
AcDbEntity
  8
0
100
AcDbLine
 62
7
  6
CONTINUOUS
 10
103.5594993256
 20
63.8160504843
 11
104.198288293
 21
63.8160504843
  0
LINE
  5
6EF
100
AcDbEntity
  8
0
100
AcDbLine
 62
7
  6
CONTINUOUS
 10
104.0645792132
 20
64.4410504843
 11
104.7204111292
 21
64.4410504843
  0
LINE
  5
6F0
100
AcDbEntity
  8
0
100
AcDbLine
 62
7
  6
CONTINUOUS
 10
105.3800875635
 20
65.8993837679
 11
106.084988568
 21
65.8993837679
  0
LINE
  5
6F1
100
AcDbEntity
  8
0
100
AcDbLine
 62
7
  6
CONTINUOUS
 10
106.9247512228
 20
67.3577170516
 11
107.697793287
 21
67.3577170516
  0
LINE
  5
6F2
100
AcDbEntity
  8
0
100
AcDbLine
 62
7
  6
CONTINUOUS
 10
107.6730203715
 20
67.9827170516
 11
108.4841737532
 21
67.9827170516
  0
LINE
  5
6F3
100
AcDbEntity
  8
0
100
AcDbLine
 62
7
  6
CONTINUOUS
 10
158.2428544345
 20
86.7060491513
 11
158.2428544345
 21
86.1981504229
  0
LINE
  5
6F4
100
AcDbEntity
  8
0
100
AcDbLine
 62
7
  6
CONTINUOUS
 10
158.2428544345
 20
9.4993849519
 11
158.2428544345
 21
10.0075206016
  0
LINE
  5
6F5
100
AcDbEntity
  8
RUNDUNGEN
100
AcDbLine
 62
7
  6
CONTINUOUS
 10
165.6425600667
 20
73.1027170516
 11
160.3607244513
 21
73.1027170516
  0
LINE
  5
6F6
100
AcDbEntity
  8
RUNDUNGEN
100
AcDbLine
 62
7
  6
CONTINUOUS
 10
143.9249844177
 20
73.1027170516
 11
123.6428544345
 21
73.1027170516
  0
LINE
  5
6F7
100
AcDbEntity
  8
0
100
AcDbLine
 62
7
  6
CONTINUOUS
 10
160.3308333382
 20
74.126629123
 11
160.3218856023
 21
74.3849207795
  0
LINE
  5
6F8
100
AcDbEntity
  8
0
100
AcDbLine
 62
7
  6
CONTINUOUS
 10
160.558398892
 20
63.5376691982
 11
160.4180169852
 21
70.5157815182
  0
LINE
  5
6F9
100
AcDbEntity
  8
0
100
AcDbLine
 62
7
  6
CONTINUOUS
 10
160.6425849797
 20
57.6757239896
 11
160.6414948243
 21
57.7931077742
  0
LINE
  5
6FA
100
AcDbEntity
  8
0
100
AcDbLine
 62
7
  6
CONTINUOUS
 10
160.6428544227
 20
57.5859275672
 11
160.6425849797
 21
57.6757239896
  0
LINE
  5
6FB
100
AcDbEntity
  8
0
100
AcDbLine
 62
7
  6
CONTINUOUS
 10
159.1428544345
 20
16.3055115425
 11
159.1428544345
 21
79.8999225607
  0
LINE
  5
6FC
100
AcDbEntity
  8
0
100
AcDbLine
 62
7
  6
CONTINUOUS
 10
160.6428544345
 20
38.6262868891
 11
160.6428544345
 21
57.579147214
  0
LINE
  5
6FD
100
AcDbEntity
  8
0
100
AcDbLine
 62
7
  6
CONTINUOUS
 10
160.6425853433
 20
38.5297706569
 11
160.6428544227
 21
38.6195065345
  0
LINE
  5
6FE
100
AcDbEntity
  8
0
100
AcDbLine
 62
7
  6
CONTINUOUS
 10
160.6414948243
 20
38.412326329
 11
160.6425853433
 21
38.5297706569
  0
LINE
  5
6FF
100
AcDbEntity
  8
0
100
AcDbLine
 62
7
  6
CONTINUOUS
 10
160.558398892
 20
32.667764905
 11
160.4180169852
 21
25.689652585
  0
LINE
  5
700
100
AcDbEntity
  8
0
100
AcDbLine
 62
7
  6
CONTINUOUS
 10
160.3218655323
 20
21.820514019
 11
160.33070472
 21
22.0788085632
  0
LINE
  5
701
100
AcDbEntity
  8
0
100
AcDbLine
 62
7
  6
CONTINUOUS
 10
160.0556993884
 20
18.598447997
 11
160.2289000072
 21
19.9337000004
  0
LINE
  5
702
100
AcDbEntity
  8
0
100
AcDbLine
 62
7
  6
CONTINUOUS
 10
160.0556993884
 20
77.6069861062
 11
160.2289000072
 21
76.2717341028
  0
LINE
  5
703
100
AcDbEntity
  8
RUNDUNGEN
100
AcDbLine
 62
7
  6
CONTINUOUS
 10
167.6428544345
 20
25.1027170516
 11
167.6428544345
 21
71.1027170516
  0
LINE
  5
704
100
AcDbEntity
  8
0
100
AcDbLine
 62
7
  6
CONTINUOUS
 10
145.5690655333
 20
84.9750574923
 11
145.5428544345
 21
84.9750574923
  0
LINE
  5
705
100
AcDbEntity
  8
0
100
AcDbLine
 62
7
  6
CONTINUOUS
 10
145.5916281403
 20
85.1027170516
 11
145.5428544345
 21
85.1027170516
  0
LWPOLYLINE
  5
706
100
AcDbEntity
  8
0
100
AcDbPolyline
 62
7
  6
CONTINUOUS
 90
15
 70
0
 10
151.7658700373
 20
89.1027170873
 10
151.6125225248
 20
89.1010548006
 10
151.0022484258
 20
89.0613833229
 10
150.4053678065
 20
88.9706850054
 10
149.8269364609
 20
88.8319177132
 10
149.2712477052
 20
88.6485493561
 10
148.741643976
 20
88.4242944301
 10
148.240727918
 20
88.1629707374
 10
147.7716964911
 20
87.8692304194
 10
147.3362721654
 20
87.5474837825
 10
146.9373451399
 20
87.2037754176
 10
146.5764848159
 20
86.8442715288
 10
146.2537349531
 20
86.4745997025
 10
145.9682810461
 20
86.10006934
 10
145.8129767131
 20
85.8730598827
  0
LINE
  5
707
100
AcDbEntity
  8
0
100
AcDbLine
 62
7
  6
CONTINUOUS
 10
152.5198481523
 20
89.1027170516
 11
151.7658607168
 21
89.1027170516
  0
LWPOLYLINE
  5
708
100
AcDbEntity
  8
0
100
AcDbPolyline
 62
7
  6
CONTINUOUS
 90
15
 70
0
 10
158.4727322059
 20
85.8730598068
 10
158.3121418144
 20
86.1074821344
 10
158.0260144603
 20
86.4819035301
 10
157.7025895003
 20
86.8513579089
 10
157.3410603622
 20
87.2105424101
 10
156.9414783354
 20
87.553835832
 10
156.5054096705
 20
87.8750863681
 10
156.0357323771
 20
88.1682643888
 10
155.5341834927
 20
88.4289500668
 10
155.0039679334
 20
88.6524896696
 10
154.4476984171
 20
88.8350617666
 10
153.8687286834
 20
88.9729497971
 10
153.2713608321
 20
89.0626864003
 10
152.6606597188
 20
89.1013153227
 10
152.5198388065
 20
89.1027170873
  0
LINE
  5
709
100
AcDbEntity
  8
0
100
AcDbLine
 62
7
  6
CONTINUOUS
 10
157.2825435626
 20
8.9449492115
 11
158.2428544345
 21
9.4993849519
  0
LINE
  5
70A
100
AcDbEntity
  8
0
100
AcDbLine
 62
7
  6
CONTINUOUS
 10
157.2837187019
 20
87.2598064247
 11
158.2428544345
 21
86.7060491513
  0
ARC
  5
70B
100
AcDbEntity
  8
0
100
AcDbCircle
 62
7
  6
CONTINUOUS
 10
145.426337
 20
153.1747291054
 40
47.2834825768
100
AcDbArc
 50
180.1498852654
 51
180.4077031346
  0
ARC
  5
70C
100
AcDbEntity
  8
RUNDUNGEN
100
AcDbCircle
 62
7
  6
CONTINUOUS
 10
151.6428544345
 20
162.6199722607
 40
16.0
100
AcDbArc
 50
270.0
 51
61.9165728033
  0
ARC
  5
70D
100
AcDbEntity
  8
KONSTRUKTIONSELEMENTE
100
AcDbCircle
 62
7
  6
CONTINUOUS
 10
152.0428544345
 20
162.5199722607
 40
8.15
100
AcDbArc
 50
180.0
 51
270.0
  0
ARC
  5
70E
100
AcDbEntity
  8
0
100
AcDbCircle
 62
7
  6
CONTINUOUS
 10
152.0428544345
 20
162.5199722607
 40
8.15
100
AcDbArc
 50
180.0
 51
260.4602758537
  0
ARC
  5
70F
100
AcDbEntity
  8
KONSTRUKTIONSELEMENTE
100
AcDbCircle
 62
7
  6
CONTINUOUS
 10
152.0428544335
 20
162.7199722618
 40
8.1499999988
100
AcDbArc
 50
176.623814312
 51
179.8700018243
  0
ARC
  5
710
100
AcDbEntity
  8
KONSTRUKTIONSELEMENTE
100
AcDbCircle
 62
7
  6
CONTINUOUS
 10
152.023687205
 20
162.7312849615
 40
8.131424864
100
AcDbArc
 50
159.9656202882
 51
172.2734140877
  0
ARC
  5
711
100
AcDbEntity
  8
KONSTRUKTIONSELEMENTE
100
AcDbCircle
 62
7
  6
CONTINUOUS
 10
152.010428909
 20
162.7338808272
 40
8.1180800499
100
AcDbArc
 50
158.4746780484
 51
159.6988500411
  0
ARC
  5
712
100
AcDbEntity
  8
KONSTRUKTIONSELEMENTE
100
AcDbCircle
 62
7
  6
CONTINUOUS
 10
152.0030488157
 20
162.73706103
 40
8.1101978191
100
AcDbArc
 50
172.2942469067
 51
179.844651945
  0
ARC
  5
713
100
AcDbEntity
  8
KONSTRUKTIONSELEMENTE
100
AcDbCircle
 62
7
  6
CONTINUOUS
 10
152.0013535058
 20
162.7372674919
 40
8.1083933743
100
AcDbArc
 50
159.6990446454
 51
159.9512712069
  0
ARC
  5
714
100
AcDbEntity
  8
KONSTRUKTIONSELEMENTE
100
AcDbCircle
 62
7
  6
CONTINUOUS
 10
152.0659923861
 20
162.1029029169
 40
7.7329308585
100
AcDbArc
 50
258.9471583783
 51
269.9868970845
  0
ARC
  5
715
100
AcDbEntity
  8
0
100
AcDbCircle
 62
7
  6
CONTINUOUS
 10
152.0639469383
 20
162.0826649136
 40
7.7126763399
100
AcDbArc
 50
254.9800652229
 51
258.933248925
  0
ARC
  5
716
100
AcDbEntity
  8
RUNDUNGEN
100
AcDbCircle
 62
7
  6
CONTINUOUS
 10
100.6428544345
 20
176.6199722607
 40
2.0
100
AcDbArc
 50
90.0
 51
180.0
  0
ARC
  5
717
100
AcDbEntity
  8
RUNDUNGEN
100
AcDbCircle
 62
7
  6
CONTINUOUS
 10
100.6428544345
 20
148.6199722607
 40
2.0
100
AcDbArc
 50
180.0
 51
270.0
  0
ARC
  5
718
100
AcDbEntity
  8
0
100
AcDbCircle
 62
7
  6
CONTINUOUS
 10
99.8105956675
 20
169.7594063409
 40
1.6677427324
100
AcDbArc
 50
175.8469784316
 51
179.1399173364
  0
ARC
  5
719
100
AcDbEntity
  8
0
100
AcDbCircle
 62
7
  6
CONTINUOUS
 10
99.2144903386
 20
169.1897668347
 40
1.0716400035
100
AcDbArc
 50
173.7885084789
 51
178.9196425747
  0
ARC
  5
71A
100
AcDbEntity
  8
0
100
AcDbCircle
 62
7
  6
CONTINUOUS
 10
112.6859691917
 20
238.9632561695
 40
46.852601932
100
AcDbArc
 50
354.1541988389
 51
356.7436703586
  0
ARC
  5
71B
100
AcDbEntity
  8
0
100
AcDbCircle
 62
7
  6
CONTINUOUS
 10
78.943056032
 20
258.6994966515
 40
81.5822746415
100
AcDbArc
 50
356.4456106209
 51
357.0608963397
  0
ARC
  5
71C
100
AcDbEntity
  8
0
100
AcDbCircle
 62
7
  6
CONTINUOUS
 10
115.6579528246
 20
238.6433123835
 40
43.8634897725
100
AcDbArc
 50
350.4874929992
 51
354.1745483293
  0
ARC
  5
71D
100
AcDbEntity
  8
0
100
AcDbCircle
 62
7
  6
CONTINUOUS
 10
139.0205231386
 20
221.4856543681
 40
20.1230383167
100
AcDbArc
 50
359.9827769963
 51
0.2997985678
  0
ARC
  5
71E
100
AcDbEntity
  8
RUNDUNGEN
100
AcDbCircle
 62
7
  6
CONTINUOUS
 10
126.3156807549
 20
229.6611335369
 40
20.0
100
AcDbArc
 50
0.0
 51
3.0
  0
ARC
  5
71F
100
AcDbEntity
  8
RUNDUNGEN
100
AcDbCircle
 62
7
  6
CONTINUOUS
 10
140.1428544345
 20
230.0539223604
 40
5.0
100
AcDbArc
 50
0.0
 51
3.0
  0
ARC
  5
720
100
AcDbEntity
  8
0
100
AcDbCircle
 62
7
  6
CONTINUOUS
 10
140.1428544345
 20
230.0539223604
 40
5.0
100
AcDbArc
 50
0.0
 51
3.0
  0
ARC
  5
721
100
AcDbEntity
  8
RUNDUNGEN
100
AcDbCircle
 62
7
  6
CONTINUOUS
 10
142.3755599975
 20
230.1432667633
 40
3.1165168676
100
AcDbArc
 50
358.773491025
 51
2.8964645385
  0
ARC
  5
722
100
AcDbEntity
  8
0
100
AcDbCircle
 62
7
  6
CONTINUOUS
 10
128.6694250088
 20
252.5669019614
 40
31.6030530499
100
AcDbArc
 50
356.9907592695
 51
357.8009584347
  0
ARC
  5
723
100
AcDbEntity
  8
0
100
AcDbCircle
 62
7
  6
CONTINUOUS
 10
130.0894824037
 20
259.4971323235
 40
30.5435261091
100
AcDbArc
 50
358.3057574228
 51
358.7793360986
  0
ARC
  5
724
100
AcDbEntity
  8
0
100
AcDbCircle
 62
7
  6
CONTINUOUS
 10
137.3197645134
 20
259.35600663
 40
23.3118819877
100
AcDbArc
 50
358.7475495132
 51
0.1086673885
  0
ARC
  5
725
100
AcDbEntity
  8
0
100
AcDbCircle
 62
7
  6
CONTINUOUS
 10
139.9980925782
 20
258.8307091609
 40
20.6419968172
100
AcDbArc
 50
1.7111921486
 51
2.2973435359
  0
ARC
  5
726
100
AcDbEntity
  8
0
100
AcDbCircle
 62
7
  6
CONTINUOUS
 10
139.1428544345
 20
253.0874297286
 40
20.0
100
AcDbArc
 50
357.0
 51
360.0
  0
ARC
  5
727
100
AcDbEntity
  8
0
100
AcDbCircle
 62
7
  6
CONTINUOUS
 10
144.2248266353
 20
254.5347637682
 40
16.1671093933
100
AcDbArc
 50
354.6636289285
 51
355.742377157
  0
ARC
  5
728
100
AcDbEntity
  8
KONSTRUKTIONSELEMENTE
100
AcDbCircle
 62
7
  6
CONTINUOUS
 10
151.7928544345
 20
259.0199722607
 40
8.15
100
AcDbArc
 50
180.0
 51
183.0
  0
ARC
  5
729
100
AcDbEntity
  8
0
100
AcDbCircle
 62
7
  6
CONTINUOUS
 10
149.888149396
 20
260.4921331969
 40
6.0977439404
100
AcDbArc
 50
154.4719654951
 51
158.0685145425
  0
ARC
  5
72A
100
AcDbEntity
  8
0
100
AcDbCircle
 62
7
  6
CONTINUOUS
 10
145.4481566348
 20
259.3961014534
 40
1.7940570667
100
AcDbArc
 50
178.3707464891
 51
179.8684680271
  0
ARC
  5
72B
100
AcDbEntity
  8
RUNDUNGEN
100
AcDbCircle
 62
7
  6
CONTINUOUS
 10
152.1428544345
 20
162.6199722607
 40
8.5
100
AcDbArc
 50
152.9827504036
 51
27.0173313458
  0
ARC
  5
72C
100
AcDbEntity
  8
0
100
AcDbCircle
 62
7
  6
CONTINUOUS
 10
152.2428544345
 20
162.5199722607
 40
8.15
100
AcDbArc
 50
270.0
 51
360.0
  0
ARC
  5
72D
100
AcDbEntity
  8
0
100
AcDbCircle
 62
7
  6
CONTINUOUS
 10
152.2428544356
 20
162.7199722618
 40
8.1499999988
100
AcDbArc
 50
0.1761709674
 51
1.1176415158
  0
ARC
  5
72E
100
AcDbEntity
  8
0
100
AcDbCircle
 62
7
  6
CONTINUOUS
 10
152.2751831657
 20
162.7340377014
 40
8.1181140227
100
AcDbArc
 50
14.3043596836
 51
19.7574637591
  0
ARC
  5
72F
100
AcDbEntity
  8
0
100
AcDbCircle
 62
7
  6
CONTINUOUS
 10
152.2766867243
 20
162.7344237891
 40
8.1165721806
100
AcDbArc
 50
20.0490282527
 51
21.5260086903
  0
ARC
  5
730
100
AcDbEntity
  8
0
100
AcDbCircle
 62
7
  6
CONTINUOUS
 10
152.2763752429
 20
162.7363149038
 40
8.1165259216
100
AcDbArc
 50
4.0150900554
 51
7.7050211319
  0
ARC
  5
731
100
AcDbEntity
  8
0
100
AcDbCircle
 62
7
  6
CONTINUOUS
 10
152.2850345995
 20
162.7375177256
 40
8.107669514
100
AcDbArc
 50
19.7588065484
 51
20.0487131426
  0
ARC
  5
732
100
AcDbEntity
  8
0
100
AcDbCircle
 62
7
  6
CONTINUOUS
 10
152.2866411339
 20
162.7368760914
 40
8.1063099983
100
AcDbArc
 50
10.6089131535
 51
14.3049290887
  0
ARC
  5
733
100
AcDbEntity
  8
0
100
AcDbCircle
 62
7
  6
CONTINUOUS
 10
152.2879579232
 20
162.7378766687
 40
8.1048384255
100
AcDbArc
 50
7.7050583213
 51
8.9847688734
  0
ARC
  5
734
100
AcDbEntity
  8
0
100
AcDbCircle
 62
7
  6
CONTINUOUS
 10
152.2970888447
 20
162.7375996128
 40
8.0957743735
100
AcDbArc
 50
0.9995042866
 51
4.0159394131
  0
ARC
  5
735
100
AcDbEntity
  8
0
100
AcDbCircle
 62
7
  6
CONTINUOUS
 10
152.3046629075
 20
162.74051362
 40
8.0879265955
100
AcDbArc
 50
8.9847990051
 51
10.6070892348
  0
ARC
  5
736
100
AcDbEntity
  8
0
100
AcDbCircle
 62
7
  6
CONTINUOUS
 10
152.3300419119
 20
162.7383796658
 40
8.0628127157
100
AcDbArc
 50
0.2897460234
 51
0.9980467456
  0
ARC
  5
737
100
AcDbEntity
  8
0
100
AcDbCircle
 62
7
  6
CONTINUOUS
 10
152.219716483
 20
162.1029029165
 40
7.732930858
100
AcDbArc
 50
270.0131029149
 51
281.0528413762
  0
ARC
  5
738
100
AcDbEntity
  8
0
100
AcDbCircle
 62
7
  6
CONTINUOUS
 10
152.2217619307
 20
162.082664914
 40
7.7126763403
100
AcDbArc
 50
281.0667513215
 51
285.0199347771
  0
ARC
  5
739
100
AcDbEntity
  8
RUNDUNGEN
100
AcDbCircle
 62
7
  6
CONTINUOUS
 10
188.6277560445
 20
238.6433123835
 40
43.8634897725
100
AcDbArc
 50
185.8254516707
 51
189.5125070008
  0
ARC
  5
73A
100
AcDbEntity
  8
RUNDUNGEN
100
AcDbCircle
 62
7
  6
CONTINUOUS
 10
165.2651857305
 20
221.4856543681
 40
20.1230383167
100
AcDbArc
 50
179.7002014322
 51
180.0172230037
  0
ARC
  5
73B
100
AcDbEntity
  8
0
100
AcDbCircle
 62
7
  6
CONTINUOUS
 10
177.9700281142
 20
229.6611335369
 40
20.0
100
AcDbArc
 50
177.0
 51
180.0
  0
ARC
  5
73C
100
AcDbEntity
  8
0
100
AcDbCircle
 62
7
  6
CONTINUOUS
 10
164.1428544345
 20
230.0539223604
 40
5.0
100
AcDbArc
 50
177.0000000001
 51
180.0
  0
ARC
  5
73D
100
AcDbEntity
  8
0
100
AcDbCircle
 62
7
  6
CONTINUOUS
 10
161.9101488716
 20
230.1432667633
 40
3.1165168676
100
AcDbArc
 50
177.1035354615
 51
181.226508975
  0
ARC
  5
73E
100
AcDbEntity
  8
RUNDUNGEN
100
AcDbCircle
 62
7
  6
CONTINUOUS
 10
175.6162838603
 20
252.5669019614
 40
31.6030530499
100
AcDbArc
 50
182.1990415653
 51
183.0092407305
  0
ARC
  5
73F
100
AcDbEntity
  8
0
100
AcDbCircle
 62
7
  6
CONTINUOUS
 10
174.1962264654
 20
259.4971323235
 40
30.5435261091
100
AcDbArc
 50
181.2206639014
 51
181.6942425772
  0
ARC
  5
740
100
AcDbEntity
  8
0
100
AcDbCircle
 62
7
  6
CONTINUOUS
 10
166.9659443553
 20
259.35600663
 40
23.3118819874
100
AcDbArc
 50
179.8913326115
 51
181.2524504868
  0
ARC
  5
741
100
AcDbEntity
  8
0
100
AcDbCircle
 62
7
  6
CONTINUOUS
 10
164.2876162284
 20
258.830709163
 40
20.6419967546
100
AcDbArc
 50
177.7026564355
 51
178.288807852
  0
ARC
  5
742
100
AcDbEntity
  8
RUNDUNGEN
100
AcDbCircle
 62
7
  6
CONTINUOUS
 10
165.1428544345
 20
253.0874297286
 40
20.0
100
AcDbArc
 50
180.0
 51
183.0
  0
ARC
  5
743
100
AcDbEntity
  8
RUNDUNGEN
100
AcDbCircle
 62
7
  6
CONTINUOUS
 10
160.0608822337
 20
254.5347637682
 40
16.1671093933
100
AcDbArc
 50
184.257622843
 51
185.3363710715
  0
ARC
  5
744
100
AcDbEntity
  8
0
100
AcDbCircle
 62
7
  6
CONTINUOUS
 10
152.4928544345
 20
259.0199722607
 40
8.15
100
AcDbArc
 50
357.0
 51
360.0
  0
ARC
  5
745
100
AcDbEntity
  8
0
100
AcDbCircle
 62
7
  6
CONTINUOUS
 10
154.3975596045
 20
260.4921332554
 40
6.0977437966
100
AcDbArc
 50
21.9314899935
 51
25.5280345412
  0
ARC
  5
746
100
AcDbEntity
  8
0
100
AcDbCircle
 62
7
  6
CONTINUOUS
 10
158.8375522343
 20
259.3961014534
 40
1.7940570667
100
AcDbArc
 50
0.1315319729
 51
1.6292535109
  0
ARC
  5
747
100
AcDbEntity
  8
RUNDUNGEN
100
AcDbCircle
 62
7
  6
CONTINUOUS
 10
191.5997396773
 20
238.9632561695
 40
46.852601932
100
AcDbArc
 50
183.2563296414
 51
185.8458011611
  0
ARC
  5
748
100
AcDbEntity
  8
0
100
AcDbCircle
 62
7
  6
CONTINUOUS
 10
225.3426528371
 20
258.6994966515
 40
81.5822746415
100
AcDbArc
 50
182.9391036603
 51
183.5543893791
  0
ARC
  5
749
100
AcDbEntity
  8
0
100
AcDbCircle
 62
7
  6
CONTINUOUS
 10
251.7284485786
 20
170.3699722607
 40
16.0
100
AcDbArc
 50
180.0
 51
270.0
  0
ARC
  5
74A
100
AcDbEntity
  8
0
100
AcDbCircle
 62
7
  6
CONTINUOUS
 10
257.7284485786
 20
178.8699722607
 40
8.0
100
AcDbArc
 50
180.0
 51
221.408207415
  0
ARC
  5
74B
100
AcDbEntity
  8
RUNDUNGEN
100
AcDbCircle
 62
7
  6
CONTINUOUS
 10
253.7284485786
 20
148.6199722607
 40
2.0
100
AcDbArc
 50
180.0
 51
270.0
  0
ARC
  5
74C
100
AcDbEntity
  8
RUNDUNGEN
100
AcDbCircle
 62
7
  6
CONTINUOUS
 10
253.7284485786
 20
176.6199722607
 40
2.0
100
AcDbArc
 50
90.0
 51
180.0
  0
ARC
  5
74D
100
AcDbEntity
  8
RUNDUNGEN
100
AcDbCircle
 62
7
  6
CONTINUOUS
 10
-2002.2076239203
 20
203.0006611012
 40
2317.042342067
100
AcDbArc
 50
0.6851592421
 51
0.8757145925
  0
ARC
  5
74E
100
AcDbEntity
  8
0
100
AcDbCircle
 62
7
  6
CONTINUOUS
 10
275.970497583
 20
210.3199656408
 40
54.117508821
100
AcDbArc
 50
89.1975090138
 51
100.2230690193
  0
ARC
  5
74F
100
AcDbEntity
  8
0
100
AcDbCircle
 62
7
  6
CONTINUOUS
 10
276.0991836332
 20
213.316447022
 40
51.196134322
100
AcDbArc
 50
101.048693808
 51
120.5964352582
  0
ARC
  5
750
100
AcDbEntity
  8
0
100
AcDbCircle
 62
7
  6
CONTINUOUS
 10
260.7284485786
 20
238.6586625803
 40
25.0
100
AcDbArc
 50
119.4923726751
 51
180.0
  0
ARC
  5
751
100
AcDbEntity
  8
0
100
AcDbCircle
 62
7
  6
CONTINUOUS
 10
260.4413327024
 20
238.060313348
 40
21.5515622935
100
AcDbArc
 50
139.5570558749
 51
179.0617974797
  0
ARC
  5
752
100
AcDbEntity
  8
0
100
AcDbCircle
 62
7
  6
CONTINUOUS
 10
260.4064938977
 20
239.8730319428
 40
20.3495380055
100
AcDbArc
 50
120.6221270071
 51
139.5058128794
  0
ARC
  5
753
100
AcDbEntity
  8
0
100
AcDbCircle
 62
7
  6
CONTINUOUS
 10
252.1858541702
 20
229.661401487
 40
13.4057145272
100
AcDbArc
 50
178.0855937392
 51
180.0011452139
  0
ARC
  5
754
100
AcDbEntity
  8
0
100
AcDbCircle
 62
7
  6
CONTINUOUS
 10
252.1827765651
 20
230.5364027896
 40
13.3960275391
100
AcDbArc
 50
179.2666764645
 51
181.0497474085
  0
ARC
  5
755
100
AcDbEntity
  8
0
100
AcDbCircle
 62
7
  6
CONTINUOUS
 10
257.7284485786
 20
236.8514473871
 40
8.0
100
AcDbArc
 50
125.1527029668
 51
180.0
  0
ARC
  5
756
100
AcDbEntity
  8
0
100
AcDbCircle
 62
7
  6
CONTINUOUS
 10
235.2776902664
 20
230.2266767659
 40
3.5118958396
100
AcDbArc
 50
358.0838057102
 51
1.0491602173
  0
ARC
  5
757
100
AcDbEntity
  8
0
100
AcDbCircle
 62
7
  6
CONTINUOUS
 10
240.209218648
 20
223.038175646
 40
3.0
100
AcDbArc
 50
320.4773911366
 51
25.0
  0
ARC
  5
758
100
AcDbEntity
  8
0
100
AcDbCircle
 62
7
  6
CONTINUOUS
 10
251.5213493946
 20
250.2304384755
 40
3.0
100
AcDbArc
 50
111.0
 51
158.0
  0
ARC
  5
759
100
AcDbEntity
  8
0
100
AcDbCircle
 62
7
  6
CONTINUOUS
 10
243.4570048168
 20
230.2704852295
 40
3.0
100
AcDbArc
 50
158.0
 51
205.0
  0
ARC
  5
75A
100
AcDbEntity
  8
KONSTRUKTIONSELEMENTE
100
AcDbCircle
 62
7
  6
CONTINUOUS
 10
301.7284485786
 20
170.3699722607
 40
16.0
100
AcDbArc
 50
270.0
 51
360.0
  0
ARC
  5
75B
100
AcDbEntity
  8
0
100
AcDbCircle
 62
7
  6
CONTINUOUS
 10
301.7284485786
 20
170.3699722607
 40
16.0
100
AcDbArc
 50
270.0
 51
360.0
  0
ARC
  5
75C
100
AcDbEntity
  8
KONSTRUKTIONSELEMENTE
100
AcDbCircle
 62
7
  6
CONTINUOUS
 10
295.7284485786
 20
178.8699722607
 40
8.0
100
AcDbArc
 50
318.591792585
 51
360.0
  0
ARC
  5
75D
100
AcDbEntity
  8
RUNDUNGEN
100
AcDbCircle
 62
7
  6
CONTINUOUS
 10
299.7284485786
 20
148.6199722607
 40
2.0
100
AcDbArc
 50
270.0
 51
360.0
  0
ARC
  5
75E
100
AcDbEntity
  8
RUNDUNGEN
100
AcDbCircle
 62
7
  6
CONTINUOUS
 10
299.7284485786
 20
176.6199722607
 40
2.0
100
AcDbArc
 50
0.0
 51
90.0
  0
ARC
  5
75F
100
AcDbEntity
  8
0
100
AcDbCircle
 62
7
  6
CONTINUOUS
 10
2555.6645210774
 20
203.0006611012
 40
2317.042342067
100
AcDbArc
 50
179.1242854075
 51
179.3148407579
  0
ARC
  5
760
100
AcDbEntity
  8
KONSTRUKTIONSELEMENTE
100
AcDbCircle
 62
7
  6
CONTINUOUS
 10
276.7284485786
 20
210.3699722607
 40
57.5
100
AcDbArc
 50
60.5076273249
 51
78.8840634424
  0
ARC
  5
761
100
AcDbEntity
  8
0
100
AcDbCircle
 62
7
  6
CONTINUOUS
 10
276.7284485786
 20
210.3699722607
 40
57.5
100
AcDbArc
 50
60.5076273249
 51
119.4923726751
  0
ARC
  5
762
100
AcDbEntity
  8
0
100
AcDbCircle
 62
7
  6
CONTINUOUS
 10
277.4863995741
 20
210.3199656408
 40
54.117508821
100
AcDbArc
 50
79.7769309807
 51
90.8024909862
  0
ARC
  5
763
100
AcDbEntity
  8
0
100
AcDbCircle
 62
7
  6
CONTINUOUS
 10
277.3577135239
 20
213.316447022
 40
51.196134322
100
AcDbArc
 50
59.4035647418
 51
78.951306192
  0
ARC
  5
764
100
AcDbEntity
  8
0
100
AcDbCircle
 62
7
  6
CONTINUOUS
 10
276.7284485786
 20
209.8699722607
 40
41.0
100
AcDbArc
 50
54.8472970332
 51
125.1527029668
  0
ARC
  5
765
100
AcDbEntity
  8
KONSTRUKTIONSELEMENTE
100
AcDbCircle
 62
7
  6
CONTINUOUS
 10
292.7284485786
 20
238.6586625803
 40
25.0
100
AcDbArc
 50
0.0
 51
60.5076273249
  0
ARC
  5
766
100
AcDbEntity
  8
RUNDUNGEN
100
AcDbCircle
 62
7
  6
CONTINUOUS
 10
293.0155643508
 20
238.0603133078
 40
21.5515622935
100
AcDbArc
 50
0.9382026227
 51
40.4429440272
  0
ARC
  5
767
100
AcDbEntity
  8
RUNDUNGEN
100
AcDbCircle
 62
7
  6
CONTINUOUS
 10
293.0504032595
 20
239.8730319428
 40
20.3495380055
100
AcDbArc
 50
40.4941871206
 51
59.3778729929
  0
ARC
  5
768
100
AcDbEntity
  8
RUNDUNGEN
100
AcDbCircle
 62
7
  6
CONTINUOUS
 10
301.2710429869
 20
229.661401487
 40
13.4057145272
100
AcDbArc
 50
359.9988547861
 51
1.9144062608
  0
ARC
  5
769
100
AcDbEntity
  8
RUNDUNGEN
100
AcDbCircle
 62
7
  6
CONTINUOUS
 10
301.274120592
 20
230.5364027896
 40
13.3960275391
100
AcDbArc
 50
358.9502525915
 51
0.7333235355
  0
ARC
  5
76A
100
AcDbEntity
  8
KONSTRUKTIONSELEMENTE
100
AcDbCircle
 62
7
  6
CONTINUOUS
 10
295.7284485786
 20
236.8514473871
 40
8.0
100
AcDbArc
 50
0.0
 51
54.8472970332
  0
ARC
  5
76B
100
AcDbEntity
  8
RUNDUNGEN
100
AcDbCircle
 62
7
  6
CONTINUOUS
 10
318.1792068907
 20
230.2266767659
 40
3.5118958396
100
AcDbArc
 50
178.9508397827
 51
181.9161942898
  0
ARC
  5
76C
100
AcDbEntity
  8
0
100
AcDbCircle
 62
7
  6
CONTINUOUS
 10
311.0370249944
 20
212.0400123327
 40
3.5
100
AcDbArc
 50
174.2608295227
 51
358.8522914773
  0
ARC
  5
76D
100
AcDbEntity
  8
0
100
AcDbCircle
 62
7
  6
CONTINUOUS
 10
311.0370249944
 20
206.0900123327
 40
3.5
100
AcDbArc
 50
174.2608295227
 51
358.8522914773
  0
ARC
  5
76E
100
AcDbEntity
  8
RUNDUNGEN
100
AcDbCircle
 62
7
  6
CONTINUOUS
 10
301.9355477625
 20
250.2304384755
 40
3.0
100
AcDbArc
 50
22.0
 51
69.0
  0
ARC
  5
76F
100
AcDbEntity
  8
RUNDUNGEN
100
AcDbCircle
 62
7
  6
CONTINUOUS
 10
309.9998923403
 20
230.2704852295
 40
3.0
100
AcDbArc
 50
335.0
 51
22.0
  0
ARC
  5
770
100
AcDbEntity
  8
RUNDUNGEN
100
AcDbCircle
 62
7
  6
CONTINUOUS
 10
313.2476785092
 20
223.038175646
 40
3.0
100
AcDbArc
 50
155.0
 51
219.5226088634
  0
ARC
  5
771
100
AcDbEntity
  8
0
100
AcDbCircle
 62
7
  6
CONTINUOUS
 10
311.0370249944
 20
212.0400123327
 40
2.45
100
AcDbArc
 50
282.4933635761
 51
8.2132107017
  0
ARC
  5
772
100
AcDbEntity
  8
0
100
AcDbCircle
 62
7
  6
CONTINUOUS
 10
311.0370249944
 20
212.0400123327
 40
2.45
100
AcDbArc
 50
171.7867892983
 51
257.5644794009
  0
ARC
  5
773
100
AcDbEntity
  8
0
100
AcDbCircle
 62
7
  6
CONTINUOUS
 10
311.0370249944
 20
206.0900123327
 40
2.45
100
AcDbArc
 50
171.7867892983
 51
8.2132107017
  0
ARC
  5
774
100
AcDbEntity
  8
0
100
AcDbCircle
 62
7
  6
CONTINUOUS
 10
-390.7946878147
 20
36.5527387592
 40
551.3197371527
100
AcDbArc
 50
358.634121262
 51
358.8709831532
  0
ARC
  5
775
100
AcDbEntity
  8
0
100
AcDbCircle
 62
7
  6
CONTINUOUS
 10
-261.0221912472
 20
41.5869101877
 40
421.6749282738
100
AcDbArc
 50
358.7880059726
 51
359.2721826244
  0
ARC
  5
776
100
AcDbEntity
  8
0
100
AcDbCircle
 62
7
  6
CONTINUOUS
 10
-11.8307877111
 20
38.3402136308
 40
172.4624074049
100
AcDbArc
 50
359.2991220967
 51
0.0239922312
  0
ARC
  5
777
100
AcDbEntity
  8
0
100
AcDbCircle
 62
7
  6
CONTINUOUS
 10
14.4365432793
 20
26.8592003545
 40
145.9725876293
100
AcDbArc
 50
358.1233087947
 51
358.6464299501
  0
ARC
  5
778
100
AcDbEntity
  8
0
100
AcDbCircle
 62
7
  6
CONTINUOUS
 10
144.6155390288
 20
16.3055864716
 40
14.5273154059
100
AcDbArc
 50
356.4798411071
 51
359.9997044794
  0
ARC
  5
779
100
AcDbEntity
  8
0
100
AcDbCircle
 62
7
  6
CONTINUOUS
 10
148.461355559
 20
38.4017195281
 40
12.1702537284
100
AcDbArc
 50
0.0504286593
 51
0.6255189213
  0
ARC
  5
77A
100
AcDbEntity
  8
0
100
AcDbCircle
 62
7
  6
CONTINUOUS
 10
151.4061760311
 20
15.1791617199
 40
8.1378989521
100
AcDbArc
 50
337.3841099127
 51
352.1180178148
  0
ARC
  5
77B
100
AcDbEntity
  8
RUNDUNGEN
100
AcDbCircle
 62
7
  6
CONTINUOUS
 10
149.2544524296
 20
20.6101366747
 40
5.2414754823
100
AcDbArc
 50
185.4307880856
 51
187.4149663742
  0
ARC
  5
77C
100
AcDbEntity
  8
0
100
AcDbCircle
 62
7
  6
CONTINUOUS
 10
-390.7946878148
 20
59.652695344
 40
551.3197371528
100
AcDbArc
 50
1.1290168468
 51
1.365878738
  0
ARC
  5
77D
100
AcDbEntity
  8
0
100
AcDbCircle
 62
7
  6
CONTINUOUS
 10
-261.0221912472
 20
54.6185239155
 40
421.6749282738
100
AcDbArc
 50
0.7278173756
 51
1.2119940274
  0
ARC
  5
77E
100
AcDbEntity
  8
0
100
AcDbCircle
 62
7
  6
CONTINUOUS
 10
-11.8307877111
 20
57.8652204724
 40
172.4624074049
100
AcDbArc
 50
359.9760077688
 51
0.7008779033
  0
ARC
  5
77F
100
AcDbEntity
  8
0
100
AcDbCircle
 62
7
  6
CONTINUOUS
 10
123.6428544345
 20
48.1027170516
 40
25.5
100
AcDbArc
 50
217.2429528504
 51
229.1425854375
  0
ARC
  5
780
100
AcDbEntity
  8
0
100
AcDbCircle
 62
7
  6
CONTINUOUS
 10
123.6428544345
 20
48.1027170516
 40
25.5
100
AcDbArc
 50
205.1796281124
 51
214.9258870284
  0
ARC
  5
781
100
AcDbEntity
  8
0
100
AcDbCircle
 62
7
  6
CONTINUOUS
 10
123.6428544345
 20
48.1027170516
 40
25.5
100
AcDbArc
 50
156.184621783
 51
203.1274496961
  0
ARC
  5
782
100
AcDbEntity
  8
0
100
AcDbCircle
 62
7
  6
CONTINUOUS
 10
123.6428544345
 20
48.1027170516
 40
25.5
100
AcDbArc
 50
144.3008325046
 51
154.1210933357
  0
ARC
  5
783
100
AcDbEntity
  8
0
100
AcDbCircle
 62
7
  6
CONTINUOUS
 10
123.6428544345
 20
48.1027170516
 40
25.5
100
AcDbArc
 50
128.775316099
 51
141.960167782
  0
ARC
  5
784
100
AcDbEntity
  8
RUNDUNGEN
100
AcDbCircle
 62
7
  6
CONTINUOUS
 10
123.6428544345
 20
48.1027170516
 40
25.0
100
AcDbArc
 50
90.0
 51
270.0
  0
ARC
  5
785
100
AcDbEntity
  8
0
100
AcDbCircle
 62
7
  6
CONTINUOUS
 10
126.6428544345
 20
48.1027170516
 40
22.5
100
AcDbArc
 50
40.5985649567
 51
319.4014350433
  0
CIRCLE
  5
786
100
AcDbEntity
  8
BEZUGSACHSEN
100
AcDbCircle
 62
7
  6
CONTINUOUS
 10
126.6428544345
 20
48.1027170516
 40
15.0
  0
ARC
  5
787
100
AcDbEntity
  8
0
100
AcDbCircle
 62
7
  6
CONTINUOUS
 10
148.461355559
 20
57.8037145751
 40
12.1702537284
100
AcDbArc
 50
359.3744810787
 51
359.9495713407
  0
ARC
  5
788
100
AcDbEntity
  8
0
100
AcDbCircle
 62
7
  6
CONTINUOUS
 10
14.4365363792
 20
69.3462335639
 40
145.9725945319
100
AcDbArc
 50
1.3535700584
 51
1.8766911331
  0
ARC
  5
789
100
AcDbEntity
  8
0
100
AcDbCircle
 62
7
  6
CONTINUOUS
 10
144.6155390288
 20
79.8998476316
 40
14.5273154059
100
AcDbArc
 50
0.0002955206
 51
3.5201588929
  0
ARC
  5
78A
100
AcDbEntity
  8
0
100
AcDbCircle
 62
7
  6
CONTINUOUS
 10
151.4061760311
 20
81.0262723833
 40
8.1378989521
100
AcDbArc
 50
7.8819821852
 51
22.6158900873
  0
ARC
  5
78B
100
AcDbEntity
  8
0
100
AcDbCircle
 62
7
  6
CONTINUOUS
 10
149.2544524296
 20
75.5952974285
 40
5.2414754823
100
AcDbArc
 50
172.5850336258
 51
174.5692119144
  0
ARC
  5
78C
100
AcDbEntity
  8
0
100
AcDbCircle
 62
7
  6
CONTINUOUS
 10
695.0803966838
 20
36.5527387592
 40
551.3197371527
100
AcDbArc
 50
181.1290168468
 51
181.365878738
  0
ARC
  5
78D
100
AcDbEntity
  8
0
100
AcDbCircle
 62
7
  6
CONTINUOUS
 10
565.3079001163
 20
41.5869101877
 40
421.6749282738
100
AcDbArc
 50
180.7278173756
 51
181.2119940274
  0
ARC
  5
78E
100
AcDbEntity
  8
0
100
AcDbCircle
 62
7
  6
CONTINUOUS
 10
316.1164965802
 20
38.3402136308
 40
172.4624074049
100
AcDbArc
 50
179.9760077688
 51
180.7008779033
  0
ARC
  5
78F
100
AcDbEntity
  8
RUNDUNGEN
100
AcDbCircle
 62
7
  6
CONTINUOUS
 10
289.8491724899
 20
26.8592005393
 40
145.9725945319
100
AcDbArc
 50
181.3535700584
 51
181.8766911331
  0
ARC
  5
790
100
AcDbEntity
  8
RUNDUNGEN
100
AcDbCircle
 62
7
  6
CONTINUOUS
 10
159.6701698403
 20
16.3055864716
 40
14.5273154059
100
AcDbArc
 50
180.0002955206
 51
183.5201588929
  0
ARC
  5
791
100
AcDbEntity
  8
0
100
AcDbCircle
 62
7
  6
CONTINUOUS
 10
155.8243533101
 20
38.4017195281
 40
12.1702537284
100
AcDbArc
 50
179.3744810787
 51
179.9495713407
  0
ARC
  5
792
100
AcDbEntity
  8
RUNDUNGEN
100
AcDbCircle
 62
7
  6
CONTINUOUS
 10
152.8795328379
 20
15.1791617199
 40
8.1378989521
100
AcDbArc
 50
187.8819821851
 51
202.6158900873
  0
ARC
  5
793
100
AcDbEntity
  8
0
100
AcDbCircle
 62
7
  6
CONTINUOUS
 10
155.0312564395
 20
20.6101366747
 40
5.2414754823
100
AcDbArc
 50
352.5850336258
 51
354.5692119144
  0
ARC
  5
794
100
AcDbEntity
  8
RUNDUNGEN
100
AcDbCircle
 62
7
  6
CONTINUOUS
 10
165.6428544345
 20
25.1027170516
 40
2.0
100
AcDbArc
 50
269.9999846661
 51
360.0
  0
ARC
  5
795
100
AcDbEntity
  8
0
100
AcDbCircle
 62
7
  6
CONTINUOUS
 10
695.0803966839
 20
59.652695344
 40
551.3197371528
100
AcDbArc
 50
178.634121262
 51
178.8709831532
  0
ARC
  5
796
100
AcDbEntity
  8
0
100
AcDbCircle
 62
7
  6
CONTINUOUS
 10
565.3079001163
 20
54.6185239155
 40
421.6749282738
100
AcDbArc
 50
178.7880059726
 51
179.2721826244
  0
ARC
  5
797
100
AcDbEntity
  8
0
100
AcDbCircle
 62
7
  6
CONTINUOUS
 10
316.1164965802
 20
57.8652204724
 40
172.4624074049
100
AcDbArc
 50
179.2991220967
 51
180.0239922312
  0
ARC
  5
798
100
AcDbEntity
  8
0
100
AcDbCircle
 62
7
  6
CONTINUOUS
 10
289.8491655897
 20
69.3462337487
 40
145.9725876293
100
AcDbArc
 50
178.1233087947
 51
178.6464299501
  0
ARC
  5
799
100
AcDbEntity
  8
0
100
AcDbCircle
 62
7
  6
CONTINUOUS
 10
159.6701698403
 20
79.8998476316
 40
14.5273154059
100
AcDbArc
 50
176.4798411071
 51
179.9997044794
  0
ARC
  5
79A
100
AcDbEntity
  8
0
100
AcDbCircle
 62
7
  6
CONTINUOUS
 10
155.8243533101
 20
57.8037145751
 40
12.1702537284
100
AcDbArc
 50
180.0504286593
 51
180.6255189213
  0
ARC
  5
79B
100
AcDbEntity
  8
0
100
AcDbCircle
 62
7
  6
CONTINUOUS
 10
152.8795328379
 20
81.0262723833
 40
8.1378989521
100
AcDbArc
 50
157.3841099127
 51
172.1180178149
  0
ARC
  5
79C
100
AcDbEntity
  8
0
100
AcDbCircle
 62
7
  6
CONTINUOUS
 10
155.0312564395
 20
75.5952974285
 40
5.2414754823
100
AcDbArc
 50
5.4307880856
 51
7.4149663742
  0
ARC
  5
79D
100
AcDbEntity
  8
RUNDUNGEN
100
AcDbCircle
 62
7
  6
CONTINUOUS
 10
165.6428544345
 20
71.1027170516
 40
2.0
100
AcDbArc
 50
0.0
 51
90.0000153285
  0
LINE
  5
79E
100
AcDbEntity
  8
0
100
AcDbLine
 62
7
  6
CONTINUOUS
 10
144.8224822503
 20
236.301853414
 11
144.8185155756
 21
236.3778059123
  0
SPLINE
  5
79F
100
AcDbEntity
  8
0
100
AcDbSpline
 62
7
  6
CONTINUOUS
 70
0
 71
3
 72
13
 73
9
 74
0
 42
0.0000001
 43
0.0000001
 44
0.0000000001
 40
0.0
 40
0.0
 40
0.0
 40
0.0
 40
0.2499551887
 40
0.3749346825
 40
0.4999239344
 40
0.624932946
 40
0.7499619324
 40
1.0
 40
1.0
 40
1.0
 40
1.0
 10
144.8185155756
 20
236.3778059123
 30
0.0
 10
144.7726382829
 20
237.3134483577
 30
0.0
 10
144.7518055497
 20
238.7188215117
 30
0.0
 10
144.7058053972
 20
240.5918073689
 30
0.0
 10
144.6457281896
 20
241.9959630256
 30
0.0
 10
144.5544393962
 20
243.3986146813
 30
0.0
 10
144.4017409565
 20
245.2664751688
 30
0.0
 10
144.2790521766
 20
246.6671809233
 30
0.0
 10
144.230009349
 20
247.6029738196
 30
0.0
  0
LINE
  5
7A0
100
AcDbEntity
  8
KONSTRUKTIONSELEMENTE
100
AcDbLine
 62
7
  6
CONTINUOUS
 10
144.8224839183
 20
236.301853501
 11
144.9332015966
 21
234.1852664252
  0
LINE
  5
7A1
100
AcDbEntity
  8
KONSTRUKTIONSELEMENTE
100
AcDbLine
 62
7
  6
CONTINUOUS
 10
143.892880807
 20
162.7590504666
 11
143.892854453
 21
162.7384528791
  0
SPLINE
  5
7A2
100
AcDbEntity
  8
0
100
AcDbSpline
 62
7
  6
CONTINUOUS
 70
0
 71
3
 72
10
 73
6
 74
0
 42
0.0000001
 43
0.0000001
 44
0.0000000001
 40
0.0
 40
0.0
 40
0.0
 40
0.0
 40
0.4959978241
 40
0.7540583537
 40
1.0
 40
1.0
 40
1.0
 40
1.0
 10
159.143285984
 20
221.5909471242
 30
0.0
 10
159.1410527776
 20
222.0398472334
 30
0.0
 10
159.1294638489
 20
222.7222618445
 30
0.0
 10
159.1343886467
 20
223.6273362864
 30
0.0
 10
159.1406343972
 20
224.0834445921
 30
0.0
 10
159.1421341955
 20
224.3060304312
 30
0.0
  0
SPLINE
  5
7A3
100
AcDbEntity
  8
0
100
AcDbSpline
 62
7
  6
CONTINUOUS
 70
0
 71
3
 72
15
 73
11
 74
0
 42
0.0000001
 43
0.0000001
 44
0.0000000001
 40
0.0
 40
0.0
 40
0.0
 40
0.0
 40
0.1252702935
 40
0.2504943658
 40
0.3756392733
 40
0.5006894384
 40
0.6256390815
 40
0.750493751
 40
0.875272748
 40
1.0
 40
1.0
 40
1.0
 40
1.0
 10
153.7022293345
 20
154.513411807
 30
0.0
 10
154.1368255944
 20
154.5984042714
 30
0.0
 10
154.9930024145
 20
154.8439618478
 30
0.0
 10
156.1932280198
 20
155.4266236344
 30
0.0
 10
157.2751978818
 20
156.2066106525
 30
0.0
 10
158.2060068724
 20
157.1604655154
 30
0.0
 10
158.9578893523
 20
158.2596601729
 30
0.0
 10
159.508279905
 20
159.4714210126
 30
0.0
 10
159.8406583549
 20
160.758943721
 30
0.0
 10
159.910258035
 20
161.6434839661
 30
0.0
 10
159.9065347343
 20
162.0843777175
 30
0.0
  0
LINE
  5
7A4
100
AcDbEntity
  8
0
100
AcDbLine
 62
7
  6
CONTINUOUS
 10
159.4632266188
 20
236.301853414
 11
159.4671932935
 21
236.3778059123
  0
SPLINE
  5
7A5
100
AcDbEntity
  8
0
100
AcDbSpline
 62
7
  6
CONTINUOUS
 70
0
 71
3
 72
13
 73
9
 74
0
 42
0.0000001
 43
0.0000001
 44
0.0000000001
 40
0.0
 40
0.0
 40
0.0
 40
0.0
 40
0.2499551887
 40
0.3749346825
 40
0.4999239344
 40
0.624932946
 40
0.7499619324
 40
1.0
 40
1.0
 40
1.0
 40
1.0
 10
159.4671932935
 20
236.3778059123
 30
0.0
 10
159.5130705862
 20
237.3134483577
 30
0.0
 10
159.5339033193
 20
238.7188215117
 30
0.0
 10
159.5799034718
 20
240.5918073689
 30
0.0
 10
159.6399806795
 20
241.9959630256
 30
0.0
 10
159.7312694729
 20
243.3986146813
 30
0.0
 10
159.8839679125
 20
245.2664751688
 30
0.0
 10
160.0066566925
 20
246.6671809233
 30
0.0
 10
160.05569952
 20
247.6029738196
 30
0.0
  0
SPLINE
  5
7A6
100
AcDbEntity
  8
RUNDUNGEN
100
AcDbSpline
 62
7
  6
CONTINUOUS
 70
0
 71
3
 72
10
 73
6
 74
0
 42
0.0000001
 43
0.0000001
 44
0.0000000001
 40
0.0
 40
0.0
 40
0.0
 40
0.0
 40
0.4959978241
 40
0.7540583537
 40
1.0
 40
1.0
 40
1.0
 40
1.0
 10
145.1424228851
 20
221.5909471242
 30
0.0
 10
145.1446560915
 20
222.0398472334
 30
0.0
 10
145.1562450202
 20
222.7222618445
 30
0.0
 10
145.1513202223
 20
223.6273362864
 30
0.0
 10
145.1450744719
 20
224.0834445921
 30
0.0
 10
145.1435746736
 20
224.3060304312
 30
0.0
  0
SPLINE
  5
7A7
100
AcDbEntity
  8
KONSTRUKTIONSELEMENTE
100
AcDbSpline
 62
7
  6
CONTINUOUS
 70
0
 71
3
 72
15
 73
11
 74
0
 42
0.0000001
 43
0.0000001
 44
0.0000000001
 40
0.0
 40
0.0
 40
0.0
 40
0.0
 40
0.1252702935
 40
0.2504943658
 40
0.3756392733
 40
0.5006894384
 40
0.6256390815
 40
0.750493751
 40
0.875272748
 40
1.0
 40
1.0
 40
1.0
 40
1.0
 10
150.583479502
 20
154.5134118134
 30
0.0
 10
150.1488832439
 20
154.5984042793
 30
0.0
 10
149.2927064274
 20
154.8439618584
 30
0.0
 10
148.092480828
 20
155.4266236474
 30
0.0
 10
147.0105109716
 20
156.2066106663
 30
0.0
 10
146.0797019863
 20
157.1604655284
 30
0.0
 10
145.3278195109
 20
158.2596601839
 30
0.0
 10
144.7774289616
 20
159.4714210205
 30
0.0
 10
144.4450505137
 20
160.7589437252
 30
0.0
 10
144.3754508341
 20
161.6434839675
 30
0.0
 10
144.3791741348
 20
162.0843777175
 30
0.0
  0
LINE
  5
7A8
100
AcDbEntity
  8
0
100
AcDbLine
 62
7
  6
CONTINUOUS
 10
160.3927515308
 20
162.7791533141
 11
160.3928279912
 21
162.7590781451
  0
LINE
  5
7A9
100
AcDbEntity
  8
0
100
AcDbLine
 62
7
  6
CONTINUOUS
 10
160.3928279912
 20
162.7590781451
 11
160.392851734
 21
162.7450234864
  0
LINE
  5
7AA
100
AcDbEntity
  8
0
100
AcDbLine
 62
7
  6
CONTINUOUS
 10
144.8224839183
 20
236.301853501
 11
144.9332015966
 21
234.1852664252
  0
LINE
  5
7AB
100
AcDbEntity
  8
0
100
AcDbLine
 62
7
  6
CONTINUOUS
 10
159.4632249507
 20
236.301853501
 11
159.3525072724
 21
234.1852664252
  0
SPLINE
  5
7AC
100
AcDbEntity
  8
0
100
AcDbSpline
 62
7
  6
CONTINUOUS
 70
0
 71
3
 72
9
 73
5
 74
0
 42
0.0000001
 43
0.0000001
 44
0.0000000001
 40
0.0
 40
0.0
 40
0.0
 40
0.0
 40
0.2442287407
 40
1.0
 40
1.0
 40
1.0
 40
1.0
 10
159.1413513262
 20
221.2591703935
 30
0.0
 10
159.1417487546
 20
221.2771126329
 30
0.0
 10
159.1431051401
 20
221.3505835983
 30
0.0
 10
159.1435295413
 20
221.4240691522
 30
0.0
 10
159.1435605462
 20
221.4796054207
 30
0.0
  0
SPLINE
  5
7AD
100
AcDbEntity
  8
0
100
AcDbSpline
 62
7
  6
CONTINUOUS
 70
0
 71
3
 72
9
 73
5
 74
0
 42
0.0000001
 43
0.0000001
 44
0.0000000001
 40
0.0
 40
0.0
 40
0.0
 40
0.0
 40
0.4946233017
 40
1.0
 40
1.0
 40
1.0
 40
1.0
 10
159.1420536658
 20
221.1290276866
 30
0.0
 10
159.142323442
 20
221.1504857468
 30
0.0
 10
159.1434446537
 20
221.1938764862
 30
0.0
 10
159.1413513262
 20
221.23724409
 30
0.0
 10
159.1413513262
 20
221.2591703935
 30
0.0
  0
SPLINE
  5
7AE
100
AcDbEntity
  8
0
100
AcDbSpline
 62
7
  6
CONTINUOUS
 70
0
 71
3
 72
9
 73
5
 74
0
 42
0.0000001
 43
0.0000001
 44
0.0000000001
 40
0.0
 40
0.0
 40
0.0
 40
0.0
 40
0.2557186808
 40
1.0
 40
1.0
 40
1.0
 40
1.0
 10
158.7976134255
 20
230.3007484543
 30
0.0
 10
158.8023561697
 20
230.3944395712
 30
0.0
 10
158.8266269709
 20
230.7605234661
 30
0.0
 10
158.8730344804
 20
231.1250416548
 30
0.0
 10
158.9182998772
 20
231.3943050098
 30
0.0
  0
SPLINE
  5
7AF
100
AcDbEntity
  8
0
100
AcDbSpline
 62
7
  6
CONTINUOUS
 70
0
 71
3
 72
8
 73
4
 74
0
 42
0.0000001
 43
0.0000001
 44
0.0000000001
 40
0.0
 40
0.0
 40
0.0
 40
0.0
 40
1.0
 40
1.0
 40
1.0
 40
1.0
 10
143.7273099771
 20
257.1950492491
 30
0.0
 10
143.7032939174
 20
257.6533029653
 30
0.0
 10
143.6805950334
 20
258.1116908062
 30
0.0
 10
143.6667601317
 20
258.5703648027
 30
0.0
  0
LINE
  5
7B0
100
AcDbEntity
  8
0
100
AcDbLine
 62
7
  6
CONTINUOUS
 10
143.6667601317
 20
258.5703648027
 11
143.6660528828
 21
258.5940884728
  0
SPLINE
  5
7B1
100
AcDbEntity
  8
0
100
AcDbSpline
 62
7
  6
CONTINUOUS
 70
0
 71
3
 72
9
 73
5
 74
0
 42
0.0000001
 43
0.0000001
 44
0.0000000001
 40
0.0
 40
0.0
 40
0.0
 40
0.0
 40
0.2400636513
 40
1.0
 40
1.0
 40
1.0
 40
1.0
 10
158.8788556507
 20
229.0026304443
 30
0.0
 10
158.8675015478
 20
229.0881057337
 30
0.0
 10
158.8243519092
 20
229.4446840615
 30
0.0
 10
158.8001881395
 20
229.8036662282
 30
0.0
 10
158.7943460383
 20
230.076557766
 30
0.0
  0
SPLINE
  5
7B2
100
AcDbEntity
  8
RUNDUNGEN
100
AcDbSpline
 62
7
  6
CONTINUOUS
 70
0
 71
3
 72
10
 73
6
 74
0
 42
0.0000001
 43
0.0000001
 44
0.0000000001
 40
0.0
 40
0.0
 40
0.0
 40
0.0
 40
0.6055652404
 40
0.8341893431
 40
1.0
 40
1.0
 40
1.0
 40
1.0
 10
144.0365046128
 20
251.3542582557
 30
0.0
 10
144.0235572669
 20
251.6928600451
 30
0.0
 10
144.0124683442
 20
252.1595401304
 30
0.0
 10
143.9877569487
 20
252.7185683924
 30
0.0
 10
143.9725330355
 20
252.9388068041
 30
0.0
 10
143.9638433368
 20
253.0311797549
 30
0.0
  0
LINE
  5
7B3
100
AcDbEntity
  8
RUNDUNGEN
100
AcDbLine
 62
7
  6
CONTINUOUS
 10
143.9383889438
 20
253.3344986933
 11
143.9274248235
 21
253.4876228959
  0
LINE
  5
7B4
100
AcDbEntity
  8
RUNDUNGEN
100
AcDbLine
 62
7
  6
CONTINUOUS
 10
143.9274248235
 20
253.4876228959
 11
143.9173101091
 21
253.6417207255
  0
SPLINE
  5
7B5
100
AcDbEntity
  8
RUNDUNGEN
100
AcDbSpline
 62
7
  6
CONTINUOUS
 70
0
 71
3
 72
9
 73
5
 74
0
 42
0.0000001
 43
0.0000001
 44
0.0000000001
 40
0.0
 40
0.0
 40
0.0
 40
0.0
 40
0.4946233017
 40
1.0
 40
1.0
 40
1.0
 40
1.0
 10
145.1436552033
 20
221.1290276866
 30
0.0
 10
145.1433854271
 20
221.1504857468
 30
0.0
 10
145.1422642153
 20
221.1938764862
 30
0.0
 10
145.1443575429
 20
221.23724409
 30
0.0
 10
145.1443575429
 20
221.2591703935
 30
0.0
  0
SPLINE
  5
7B6
100
AcDbEntity
  8
RUNDUNGEN
100
AcDbSpline
 62
7
  6
CONTINUOUS
 70
0
 71
3
 72
9
 73
5
 74
0
 42
0.0000001
 43
0.0000001
 44
0.0000000001
 40
0.0
 40
0.0
 40
0.0
 40
0.0
 40
0.2442287407
 40
1.0
 40
1.0
 40
1.0
 40
1.0
 10
145.1443575429
 20
221.2591703935
 30
0.0
 10
145.1439601145
 20
221.2771126329
 30
0.0
 10
145.1426037289
 20
221.3505835983
 30
0.0
 10
145.1421793278
 20
221.4240691522
 30
0.0
 10
145.1421483229
 20
221.4796054207
 30
0.0
  0
SPLINE
  5
7B7
100
AcDbEntity
  8
RUNDUNGEN
100
AcDbSpline
 62
7
  6
CONTINUOUS
 70
0
 71
3
 72
9
 73
5
 74
0
 42
0.0000001
 43
0.0000001
 44
0.0000000001
 40
0.0
 40
0.0
 40
0.0
 40
0.0
 40
0.2557186808
 40
1.0
 40
1.0
 40
1.0
 40
1.0
 10
145.4880954436
 20
230.3007484543
 30
0.0
 10
145.4833526994
 20
230.3944395712
 30
0.0
 10
145.4590818982
 20
230.7605234661
 30
0.0
 10
145.4126743887
 20
231.1250416548
 30
0.0
 10
145.3674089918
 20
231.3943050098
 30
0.0
  0
SPLINE
  5
7B8
100
AcDbEntity
  8
0
100
AcDbSpline
 62
7
  6
CONTINUOUS
 70
0
 71
3
 72
8
 73
4
 74
0
 42
0.0000001
 43
0.0000001
 44
0.0000000001
 40
0.0
 40
0.0
 40
0.0
 40
0.0
 40
1.0
 40
1.0
 40
1.0
 40
1.0
 10
160.558398892
 20
257.1950492491
 30
0.0
 10
160.5824149516
 20
257.6533029653
 30
0.0
 10
160.6051138357
 20
258.1116908062
 30
0.0
 10
160.6189487374
 20
258.5703648027
 30
0.0
  0
LINE
  5
7B9
100
AcDbEntity
  8
0
100
AcDbLine
 62
7
  6
CONTINUOUS
 10
160.6189487374
 20
258.5703648027
 11
160.6196559863
 21
258.5940884728
  0
SPLINE
  5
7BA
100
AcDbEntity
  8
RUNDUNGEN
100
AcDbSpline
 62
7
  6
CONTINUOUS
 70
0
 71
3
 72
9
 73
5
 74
0
 42
0.0000001
 43
0.0000001
 44
0.0000000001
 40
0.0
 40
0.0
 40
0.0
 40
0.0
 40
0.2400636513
 40
1.0
 40
1.0
 40
1.0
 40
1.0
 10
145.4068532184
 20
229.0026304443
 30
0.0
 10
145.4182073213
 20
229.0881057337
 30
0.0
 10
145.4613569599
 20
229.4446840615
 30
0.0
 10
145.4855207296
 20
229.8036662282
 30
0.0
 10
145.4913628307
 20
230.076557766
 30
0.0
  0
LINE
  5
7BB
100
AcDbEntity
  8
RUNDUNGEN
100
AcDbLine
 62
7
  6
CONTINUOUS
 10
144.8227858891
 20
236.3018839509
 11
144.8185155756
 21
236.3778059123
  0
LINE
  5
7BC
100
AcDbEntity
  8
0
100
AcDbLine
 62
7
  6
CONTINUOUS
 10
143.6622103818
 20
259.6581532281
 11
143.6630688476
 21
259.6792066895
  0
SPLINE
  5
7BD
100
AcDbEntity
  8
0
100
AcDbSpline
 62
7
  6
CONTINUOUS
 70
0
 71
3
 72
9
 73
5
 74
0
 42
0.0000001
 43
0.0000001
 44
0.0000000001
 40
0.0
 40
0.0
 40
0.0
 40
0.0
 40
0.4932732792
 40
1.0
 40
1.0
 40
1.0
 40
1.0
 10
143.6630688476
 20
259.6792066895
 30
0.0
 10
143.6844795254
 20
260.1973187546
 30
0.0
 10
143.769001317
 20
261.2471053782
 30
0.0
 10
144.0326897355
 20
262.2754960022
 30
0.0
 10
144.2316921859
 20
262.7696258957
 30
0.0
  0
LINE
  5
7BE
100
AcDbEntity
  8
0
100
AcDbLine
 62
7
  6
CONTINUOUS
 10
160.6234984877
 20
259.6581532182
 11
160.6226400215
 21
259.6792066895
  0
SPLINE
  5
7BF
100
AcDbEntity
  8
0
100
AcDbSpline
 62
7
  6
CONTINUOUS
 70
0
 71
3
 72
9
 73
5
 74
0
 42
0.0000001
 43
0.0000001
 44
0.0000000001
 40
0.0
 40
0.0
 40
0.0
 40
0.0
 40
0.4932732765
 40
1.0
 40
1.0
 40
1.0
 40
1.0
 10
160.6226400215
 20
259.6792066895
 30
0.0
 10
160.6012293405
 20
260.1973188315
 30
0.0
 10
160.5167075305
 20
261.2471056169
 30
0.0
 10
160.253019022
 20
262.2754963918
 30
0.0
 10
160.0540165009
 20
262.7696263483
 30
0.0
  0
LINE
  5
7C0
100
AcDbEntity
  8
0
100
AcDbLine
 62
7
  6
CONTINUOUS
 10
159.46292298
 20
236.3018839509
 11
159.4671932935
 21
236.3778059123
  0
SPLINE
  5
7C1
100
AcDbEntity
  8
0
100
AcDbSpline
 62
7
  6
CONTINUOUS
 70
0
 71
3
 72
10
 73
6
 74
0
 42
0.0000001
 43
0.0000001
 44
0.0000000001
 40
0.0
 40
0.0
 40
0.0
 40
0.0
 40
0.6055652404
 40
0.8341893431
 40
1.0
 40
1.0
 40
1.0
 40
1.0
 10
160.2492042562
 20
251.3542582557
 30
0.0
 10
160.2621516022
 20
251.6928600451
 30
0.0
 10
160.2732405249
 20
252.1595401304
 30
0.0
 10
160.2979519204
 20
252.7185683924
 30
0.0
 10
160.3131758336
 20
252.9388068041
 30
0.0
 10
160.3218655323
 20
253.0311797549
 30
0.0
  0
LINE
  5
7C2
100
AcDbEntity
  8
0
100
AcDbLine
 62
7
  6
CONTINUOUS
 10
160.3473199253
 20
253.3344986933
 11
160.3582840456
 21
253.4876228959
  0
LINE
  5
7C3
100
AcDbEntity
  8
0
100
AcDbLine
 62
7
  6
CONTINUOUS
 10
160.3582840456
 20
253.4876228959
 11
160.36839876
 21
253.6417207255
  0
SPLINE
  5
7C4
100
AcDbEntity
  8
BEZUGSACHSEN
100
AcDbSpline
 62
7
  6
CONTINUOUS
 70
0
 71
3
 72
11
 73
7
 74
0
 42
0.0000001
 43
0.0000001
 44
0.0000000001
 40
0.0
 40
0.0
 40
0.0
 40
0.0
 40
0.2616356616
 40
0.5144890271
 40
0.7595900246
 40
1.0
 40
1.0
 40
1.0
 40
1.0
 10
109.3223463589
 20
195.1802262985
 30
0.0
 10
109.6684811085
 20
195.3800672894
 30
0.0
 10
110.3648409615
 20
195.747074377
 30
0.0
 10
111.4445965773
 20
196.1793647441
 30
0.0
 10
112.5421595418
 20
196.4559520668
 30
0.0
 10
113.2852163495
 20
196.5199722606
 30
0.0
 10
113.6524733771
 20
196.5199722607
 30
0.0
  0
SPLINE
  5
7C5
100
AcDbEntity
  8
BEZUGSACHSEN
100
AcDbSpline
 62
7
  6
CONTINUOUS
 70
0
 71
3
 72
11
 73
7
 74
0
 42
0.0000001
 43
0.0000001
 44
0.0000000001
 40
0.0
 40
0.0
 40
0.0
 40
0.0
 40
0.2404100005
 40
0.4855110066
 40
0.7383643424
 40
1.0
 40
1.0
 40
1.0
 40
1.0
 10
113.6524733771
 20
196.5199722607
 30
0.0
 10
114.0197304431
 20
196.5199722607
 30
0.0
 10
114.7627873029
 20
196.4559520566
 30
0.0
 10
115.8603502683
 20
196.1793647104
 30
0.0
 10
116.9401058425
 20
195.7470743458
 30
0.0
 10
117.6364656523
 20
195.3800672863
 30
0.0
 10
117.9826003967
 20
195.1802262985
 30
0.0
  0
SPLINE
  5
7C6
100
AcDbEntity
  8
BEZUGSACHSEN
100
AcDbSpline
 62
7
  6
CONTINUOUS
 70
0
 71
3
 72
10
 73
6
 74
0
 42
0.0000001
 43
0.0000001
 44
0.0000000001
 40
0.0
 40
0.0
 40
0.0
 40
0.0
 40
0.4998915617
 40
0.7499458185
 40
1.0
 40
1.0
 40
1.0
 40
1.0
 10
117.9826003967
 20
195.1802262985
 30
0.0
 10
119.3896721219
 20
195.5864129182
 30
0.0
 10
121.5348135243
 20
196.0942178776
 30
0.0
 10
124.4443347522
 20
196.4574619264
 30
0.0
 10
125.910273512
 20
196.5199722607
 30
0.0
 10
126.6428544345
 20
196.5199722607
 30
0.0
  0
SPLINE
  5
7C7
100
AcDbEntity
  8
BEZUGSACHSEN
100
AcDbSpline
 62
7
  6
CONTINUOUS
 70
0
 71
3
 72
10
 73
6
 74
0
 42
0.0000001
 43
0.0000001
 44
0.0000000001
 40
0.0
 40
0.0
 40
0.0
 40
0.0
 40
0.2500542058
 40
0.5001084765
 40
1.0
 40
1.0
 40
1.0
 40
1.0
 10
126.6428544345
 20
196.5199722607
 30
0.0
 10
127.3754354283
 20
196.5199722607
 30
0.0
 10
128.8413743001
 20
196.4574619121
 30
0.0
 10
131.7508955243
 20
196.0942178342
 30
0.0
 10
133.8960368547
 20
195.5864128871
 30
0.0
 10
135.3031084724
 20
195.1802262985
 30
0.0
  0
SPLINE
  5
7C8
100
AcDbEntity
  8
BEZUGSACHSEN
100
AcDbSpline
 62
7
  6
CONTINUOUS
 70
0
 71
3
 72
11
 73
7
 74
0
 42
0.0000001
 43
0.0000001
 44
0.0000000001
 40
0.0
 40
0.0
 40
0.0
 40
0.0
 40
0.2616356616
 40
0.5144890271
 40
0.7595900246
 40
1.0
 40
1.0
 40
1.0
 40
1.0
 10
135.3031084724
 20
195.1802262985
 30
0.0
 10
135.649243222
 20
195.3800672894
 30
0.0
 10
136.3456030751
 20
195.747074377
 30
0.0
 10
137.4253586909
 20
196.1793647441
 30
0.0
 10
138.5229216553
 20
196.4559520668
 30
0.0
 10
139.265978463
 20
196.5199722606
 30
0.0
 10
139.6332354906
 20
196.5199722607
 30
0.0
  0
SPLINE
  5
7C9
100
AcDbEntity
  8
BEZUGSACHSEN
100
AcDbSpline
 62
7
  6
CONTINUOUS
 70
0
 71
3
 72
11
 73
7
 74
0
 42
0.0000001
 43
0.0000001
 44
0.0000000001
 40
0.0
 40
0.0
 40
0.0
 40
0.0
 40
0.2404100005
 40
0.4855110066
 40
0.7383643424
 40
1.0
 40
1.0
 40
1.0
 40
1.0
 10
139.6332354906
 20
196.5199722607
 30
0.0
 10
140.0004925566
 20
196.5199722607
 30
0.0
 10
140.7435494164
 20
196.4559520566
 30
0.0
 10
141.8411123818
 20
196.1793647104
 30
0.0
 10
142.9208679561
 20
195.7470743458
 30
0.0
 10
143.6172277659
 20
195.3800672863
 30
0.0
 10
143.9633625102
 20
195.1802262985
 30
0.0
  0
LINE
  5
7CA
100
AcDbEntity
  8
0
100
AcDbLine
 62
7
  6
CONTINUOUS
 10
98.1440514958
 20
152.8382739329
 11
98.1449320421
 21
152.7314790914
  0
LINE
  5
7CB
100
AcDbEntity
  8
0
100
AcDbLine
 62
7
  6
CONTINUOUS
 10
98.1449320421
 20
152.7314790914
 11
98.1460443371
 21
152.6255041621
  0
SPLINE
  5
7CC
100
AcDbEntity
  8
BEZUGSACHSEN
100
AcDbSpline
 62
7
  6
CONTINUOUS
 70
0
 71
3
 72
10
 73
6
 74
0
 42
0.0000001
 43
0.0000001
 44
0.0000000001
 40
0.0
 40
0.0
 40
0.0
 40
0.0
 40
0.5015949673
 40
0.7510711479
 40
1.0
 40
1.0
 40
1.0
 40
1.0
 10
276.7284485786
 20
195.1802262985
 30
0.0
 10
277.9415905446
 20
195.5846069539
 30
0.0
 10
279.7962778602
 20
196.0927479813
 30
0.0
 10
282.3223102002
 20
196.4572939937
 30
0.0
 10
283.5938305017
 20
196.5199722606
 30
0.0
 10
284.2284485773
 20
196.5199722607
 30
0.0
  0
SPLINE
  5
7CD
100
AcDbEntity
  8
BEZUGSACHSEN
100
AcDbSpline
 62
7
  6
CONTINUOUS
 70
0
 71
3
 72
10
 73
6
 74
0
 42
0.0000001
 43
0.0000001
 44
0.0000000001
 40
0.0
 40
0.0
 40
0.0
 40
0.0
 40
0.248928878
 40
0.4984050664
 40
1.0
 40
1.0
 40
1.0
 40
1.0
 10
284.2284485773
 20
196.5199722607
 30
0.0
 10
284.8630667192
 20
196.5199722607
 30
0.0
 10
286.1345871076
 20
196.4572939843
 30
0.0
 10
288.660619444
 20
196.0927479401
 30
0.0
 10
290.5153066937
 20
195.5846069268
 30
0.0
 10
291.7284485786
 20
195.1802262985
 30
0.0
  0
SPLINE
  5
7CE
100
AcDbEntity
  8
BEZUGSACHSEN
100
AcDbSpline
 62
7
  6
CONTINUOUS
 70
0
 71
3
 72
10
 73
6
 74
0
 42
0.0000001
 43
0.0000001
 44
0.0000000001
 40
0.0
 40
0.0
 40
0.0
 40
0.0
 40
0.5015949673
 40
0.7510711478
 40
1.0
 40
1.0
 40
1.0
 40
1.0
 10
261.7284485786
 20
195.1802262985
 30
0.0
 10
262.9415906381
 20
195.584606985
 30
0.0
 10
264.7962780997
 20
196.092748047
 30
0.0
 10
267.3223106425
 20
196.4572940374
 30
0.0
 10
268.5938310422
 20
196.5199722883
 30
0.0
 10
269.2284491671
 20
196.5199722883
 30
0.0
  0
SPLINE
  5
7CF
100
AcDbEntity
  8
BEZUGSACHSEN
100
AcDbSpline
 62
7
  6
CONTINUOUS
 70
0
 71
3
 72
10
 73
6
 74
0
 42
0.0000001
 43
0.0000001
 44
0.0000000001
 40
0.0
 40
0.0
 40
0.0
 40
0.0
 40
0.248928878
 40
0.4984050665
 40
1.0
 40
1.0
 40
1.0
 40
1.0
 10
269.2284491671
 20
196.5199722883
 30
0.0
 10
269.8630672602
 20
196.5199722883
 30
0.0
 10
271.1345875468
 20
196.4572939127
 30
0.0
 10
273.660619684
 20
196.0927478927
 30
0.0
 10
275.5153067869
 20
195.5846068957
 30
0.0
 10
276.7284485786
 20
195.1802262985
 30
0.0
  0
LINE
  5
7D0
100
AcDbEntity
  8
0
100
AcDbLine
 62
7
  6
CONTINUOUS
 10
287.0912287767
 20
263.5783172579
 11
287.1691034675
 21
263.5636439278
  0
LINE
  5
7D1
100
AcDbEntity
  8
RUNDUNGEN
100
AcDbLine
 62
7
  6
CONTINUOUS
 10
310.8284485786
 20
221.2564330588
 11
310.6284485786
 21
221.4988574944
  0
SPLINE
  5
7D2
100
AcDbEntity
  8
RUNDUNGEN
100
AcDbSpline
 62
7
  6
CONTINUOUS
 70
0
 71
3
 72
8
 73
4
 74
0
 42
0.0000001
 43
0.0000001
 44
0.0000000001
 40
0.0
 40
0.0
 40
0.0
 40
0.0
 40
1.0
 40
1.0
 40
1.0
 40
1.0
 10
308.5256540877
 20
253.0874297286
 30
0.0
 10
308.8231242662
 20
252.7386689591
 30
0.0
 10
309.1203092062
 20
252.3896649887
 30
0.0
 10
309.4175522359
 20
252.0407106037
 30
0.0
  0
LINE
  5
7D3
100
AcDbEntity
  8
0
100
AcDbLine
 62
7
  6
CONTINUOUS
 10
242.6284485786
 20
221.2564330588
 11
242.8284485786
 21
221.4988574944
  0
LINE
  5
7D4
100
AcDbEntity
  8
0
100
AcDbLine
 62
7
  6
CONTINUOUS
 10
266.3656683805
 20
263.5783172579
 11
266.2877936896
 21
263.5636439278
  0
SPLINE
  5
7D5
100
AcDbEntity
  8
0
100
AcDbSpline
 62
7
  6
CONTINUOUS
 70
0
 71
3
 72
8
 73
4
 74
0
 42
0.0000001
 43
0.0000001
 44
0.0000000001
 40
0.0
 40
0.0
 40
0.0
 40
0.0
 40
1.0
 40
1.0
 40
1.0
 40
1.0
 10
244.9312430694
 20
253.0874297286
 30
0.0
 10
244.6337728909
 20
252.7386689591
 30
0.0
 10
244.3365879509
 20
252.3896649887
 30
0.0
 10
244.0393449213
 20
252.0407106037
 30
0.0
  0
SPLINE
  5
7D6
100
AcDbEntity
  8
RUNDUNGEN
100
AcDbSpline
 62
7
  6
CONTINUOUS
 70
0
 71
3
 72
16
 73
12
 74
0
 42
0.0000001
 43
0.0000001
 44
0.0000000001
 40
0.0
 40
0.0
 40
0.0
 40
0.0
 40
0.2034189358
 40
0.3861787907
 40
0.5471553962
 40
0.6854380873
 40
0.8002477618
 40
0.8910141927
 40
0.9574539255
 40
0.981635954
 40
1.0
 40
1.0
 40
1.0
 40
1.0
 10
145.1702637394
 20
15.4136133943
 30
0.0
 10
145.1916590649
 20
15.0658641793
 30
0.0
 10
145.2352893504
 20
14.4058600987
 30
0.0
 10
145.307977037
 20
13.4715185501
 30
0.0
 10
145.3840056288
 20
12.6493979881
 30
0.0
 10
145.4628466881
 20
11.9445687103
 30
0.0
 10
145.5435836162
 20
11.3610036535
 30
0.0
 10
145.6258478966
 20
10.9024560444
 30
0.0
 10
145.6993648432
 20
10.599853681
 30
0.0
 10
145.7631140279
 20
10.424302917
 30
0.0
 10
145.7957026311
 20
10.3586631258
 30
0.0
 10
145.8129766726
 20
10.3323780437
 30
0.0
  0
SPLINE
  5
7D7
100
AcDbEntity
  8
RUNDUNGEN
100
AcDbSpline
 62
7
  6
CONTINUOUS
 70
0
 71
3
 72
9
 73
5
 74
0
 42
0.0000001
 43
0.0000001
 44
0.0000000001
 40
0.0
 40
0.0
 40
0.0
 40
0.0
 40
0.2049817066
 40
1.0
 40
1.0
 40
1.0
 40
1.0
 10
144.0365046128
 20
20.1140663039
 30
0.0
 10
144.0339002741
 20
20.141584219
 30
0.0
 10
144.0233675379
 20
20.2760328574
 30
0.0
 10
144.0176540037
 20
20.4107901718
 30
0.0
 10
144.0131868525
 20
20.5179017725
 30
0.0
  0
SPLINE
  5
7D8
100
AcDbEntity
  8
RUNDUNGEN
100
AcDbSpline
 62
7
  6
CONTINUOUS
 70
0
 71
3
 72
11
 73
7
 74
0
 42
0.0000001
 43
0.0000001
 44
0.0000000001
 40
0.0
 40
0.0
 40
0.0
 40
0.0
 40
0.1257307581
 40
0.3351380721
 40
0.6277098687
 40
1.0
 40
1.0
 40
1.0
 40
1.0
 10
145.4805948422
 20
11.8355447145
 30
0.0
 10
145.472718308
 20
11.8420143659
 30
0.0
 10
145.4567731804
 20
11.86463693
 30
0.0
 10
145.4315088782
 20
11.9085387334
 30
0.0
 10
145.4005003837
 20
11.9724577413
 30
0.0
 10
145.3790033633
 20
12.0218561718
 30
0.0
 10
145.3674089918
 20
12.0497217261
 30
0.0
  0
SPLINE
  5
7D9
100
AcDbEntity
  8
0
100
AcDbSpline
 62
7
  6
CONTINUOUS
 70
0
 71
3
 72
13
 73
9
 74
0
 42
0.0000001
 43
0.0000001
 44
0.0000000001
 40
0.0
 40
0.0
 40
0.0
 40
0.0
 40
0.2484410684
 40
0.3726310222
 40
0.4972051907
 40
0.6224965757
 40
0.7484989225
 40
1.0
 40
1.0
 40
1.0
 40
1.0
 10
144.8185155756
 20
14.0631867872
 30
0.0
 10
144.7728237659
 20
14.4396825129
 30
0.0
 10
144.7517869833
 20
15.0090380826
 30
0.0
 10
144.7057523014
 20
15.7665702675
 30
0.0
 10
144.6455189125
 20
16.3347011364
 30
0.0
 10
144.5541147626
 20
16.9014342823
 30
0.0
 10
144.4019505559
 20
17.6535869608
 30
0.0
 10
144.2793965459
 20
18.2177092999
 30
0.0
 10
144.230009349
 20
18.5984490112
 30
0.0
  0
SPLINE
  5
7DA
100
AcDbEntity
  8
0
100
AcDbSpline
 62
7
  6
CONTINUOUS
 70
0
 71
3
 72
16
 73
12
 74
0
 42
0.0000001
 43
0.0000001
 44
0.0000000001
 40
0.0
 40
0.0
 40
0.0
 40
0.0
 40
0.2034189459
 40
0.3861788082
 40
0.5471554184
 40
0.6854381111
 40
0.8002477841
 40
0.8910142104
 40
0.9574539356
 40
0.9816359593
 40
1.0
 40
1.0
 40
1.0
 40
1.0
 10
159.1154451296
 20
15.4136133943
 30
0.0
 10
159.0940498028
 20
15.0658641559
 30
0.0
 10
159.0504195143
 20
14.4058600337
 30
0.0
 10
158.9777318223
 20
13.4715184309
 30
0.0
 10
158.9017032247
 20
12.6493978313
 30
0.0
 10
158.8228621594
 20
11.9445685334
 30
0.0
 10
158.7421252255
 20
11.3610034746
 30
0.0
 10
158.6598609391
 20
10.9024558823
 30
0.0
 10
158.5863439876
 20
10.5998535439
 30
0.0
 10
158.5225947968
 20
10.4243028109
 30
0.0
 10
158.4900061902
 20
10.3586630384
 30
0.0
 10
158.4727321466
 20
10.3323779678
 30
0.0
  0
SPLINE
  5
7DB
100
AcDbEntity
  8
0
100
AcDbSpline
 62
7
  6
CONTINUOUS
 70
0
 71
3
 72
9
 73
5
 74
0
 42
0.0000001
 43
0.0000001
 44
0.0000000001
 40
0.0
 40
0.0
 40
0.0
 40
0.0
 40
0.2049817217
 40
1.0
 40
1.0
 40
1.0
 40
1.0
 10
160.2492042562
 20
20.1140663039
 30
0.0
 10
160.2518085937
 20
20.1415842049
 30
0.0
 10
160.2623413247
 20
20.2760327643
 30
0.0
 10
160.2680548574
 20
20.4107899994
 30
0.0
 10
160.2725220067
 20
20.5179015352
 30
0.0
  0
SPLINE
  5
7DC
100
AcDbEntity
  8
0
100
AcDbSpline
 62
7
  6
CONTINUOUS
 70
0
 71
3
 72
11
 73
7
 74
0
 42
0.0000001
 43
0.0000001
 44
0.0000000001
 40
0.0
 40
0.0
 40
0.0
 40
0.0
 40
0.1257307581
 40
0.3351380721
 40
0.6277098687
 40
1.0
 40
1.0
 40
1.0
 40
1.0
 10
158.8051140269
 20
11.8355447145
 30
0.0
 10
158.812990561
 20
11.8420143659
 30
0.0
 10
158.8289356886
 20
11.86463693
 30
0.0
 10
158.8541999909
 20
11.9085387334
 30
0.0
 10
158.8852084854
 20
11.9724577413
 30
0.0
 10
158.9067055058
 20
12.0218561718
 30
0.0
 10
158.9182998772
 20
12.0497217261
 30
0.0
  0
SPLINE
  5
7DD
100
AcDbEntity
  8
0
100
AcDbSpline
 62
7
  6
CONTINUOUS
 70
0
 71
3
 72
13
 73
9
 74
0
 42
0.0000001
 43
0.0000001
 44
0.0000000001
 40
0.0
 40
0.0
 40
0.0
 40
0.0
 40
0.2484410684
 40
0.3726310222
 40
0.4972051907
 40
0.6224965757
 40
0.7484989225
 40
1.0
 40
1.0
 40
1.0
 40
1.0
 10
159.4671932935
 20
14.0631867872
 30
0.0
 10
159.5128851032
 20
14.4396825129
 30
0.0
 10
159.5339218857
 20
15.0090380826
 30
0.0
 10
159.5799565677
 20
15.7665702675
 30
0.0
 10
159.6401899566
 20
16.3347011364
 30
0.0
 10
159.7315941065
 20
16.9014342823
 30
0.0
 10
159.8837583131
 20
17.6535869608
 30
0.0
 10
160.0063123232
 20
18.2177092999
 30
0.0
 10
160.05569952
 20
18.5984490112
 30
0.0
  0
SPLINE
  5
7DE
100
AcDbEntity
  8
0
100
AcDbSpline
 62
7
  6
CONTINUOUS
 70
0
 71
3
 72
16
 73
12
 74
0
 42
0.0000001
 43
0.0000001
 44
0.0000000001
 40
0.0
 40
0.0
 40
0.0
 40
0.0
 40
0.2034189459
 40
0.3861788082
 40
0.5471554184
 40
0.6854381111
 40
0.8002477841
 40
0.8910142104
 40
0.9574539356
 40
0.9816359593
 40
1.0
 40
1.0
 40
1.0
 40
1.0
 10
145.1702637394
 20
80.7918207089
 30
0.0
 10
145.1916590663
 20
81.1395699473
 30
0.0
 10
145.2352893548
 20
81.7995740695
 30
0.0
 10
145.3079770468
 20
82.7339156723
 30
0.0
 10
145.3840056444
 20
83.5560362719
 30
0.0
 10
145.4628467096
 20
84.2608655698
 30
0.0
 10
145.5435836436
 20
84.8444306286
 30
0.0
 10
145.6258479299
 20
85.3029782209
 30
0.0
 10
145.6993648815
 20
85.6055805593
 30
0.0
 10
145.7631140723
 20
85.7811312923
 30
0.0
 10
145.7957026789
 20
85.8467710648
 30
0.0
 10
145.8129767225
 20
85.8730561354
 30
0.0
  0
SPLINE
  5
7DF
100
AcDbEntity
  8
0
100
AcDbSpline
 62
7
  6
CONTINUOUS
 70
0
 71
3
 72
9
 73
5
 74
0
 42
0.0000001
 43
0.0000001
 44
0.0000000001
 40
0.0
 40
0.0
 40
0.0
 40
0.0
 40
0.2049817217
 40
1.0
 40
1.0
 40
1.0
 40
1.0
 10
144.0365046128
 20
76.0913677993
 30
0.0
 10
144.0339002754
 20
76.0638498983
 30
0.0
 10
144.0233675443
 20
75.9294013389
 30
0.0
 10
144.0176540117
 20
75.7946441038
 30
0.0
 10
144.0131868624
 20
75.687532568
 30
0.0
  0
SPLINE
  5
7E0
100
AcDbEntity
  8
0
100
AcDbSpline
 62
7
  6
CONTINUOUS
 70
0
 71
3
 72
11
 73
7
 74
0
 42
0.0000001
 43
0.0000001
 44
0.0000000001
 40
0.0
 40
0.0
 40
0.0
 40
0.0
 40
0.1257307581
 40
0.3351380721
 40
0.6277098687
 40
1.0
 40
1.0
 40
1.0
 40
1.0
 10
145.4805948422
 20
84.3698893887
 30
0.0
 10
145.472718308
 20
84.3634197373
 30
0.0
 10
145.4567731804
 20
84.3407971732
 30
0.0
 10
145.4315088782
 20
84.2968953698
 30
0.0
 10
145.4005003837
 20
84.2329763619
 30
0.0
 10
145.3790033633
 20
84.1835779313
 30
0.0
 10
145.3674089918
 20
84.1557123771
 30
0.0
  0
SPLINE
  5
7E1
100
AcDbEntity
  8
0
100
AcDbSpline
 62
7
  6
CONTINUOUS
 70
0
 71
3
 72
13
 73
9
 74
0
 42
0.0000001
 43
0.0000001
 44
0.0000000001
 40
0.0
 40
0.0
 40
0.0
 40
0.0
 40
0.2484410684
 40
0.3726310222
 40
0.4972051907
 40
0.6224965757
 40
0.7484989225
 40
1.0
 40
1.0
 40
1.0
 40
1.0
 10
144.8185155756
 20
82.142247316
 30
0.0
 10
144.7728237659
 20
81.7657515903
 30
0.0
 10
144.7517869833
 20
81.1963960206
 30
0.0
 10
144.7057523014
 20
80.4388638357
 30
0.0
 10
144.6455189125
 20
79.8707329668
 30
0.0
 10
144.5541147626
 20
79.3039998209
 30
0.0
 10
144.4019505559
 20
78.5518471424
 30
0.0
 10
144.2793965459
 20
77.9877248033
 30
0.0
 10
144.230009349
 20
77.606985092
 30
0.0
  0
SPLINE
  5
7E2
100
AcDbEntity
  8
0
100
AcDbSpline
 62
7
  6
CONTINUOUS
 70
0
 71
3
 72
13
 73
9
 74
0
 42
0.0000001
 43
0.0000001
 44
0.0000000001
 40
0.0
 40
0.0
 40
0.0
 40
0.0
 40
0.2484410684
 40
0.3726310222
 40
0.4972051907
 40
0.6224965757
 40
0.7484989225
 40
1.0
 40
1.0
 40
1.0
 40
1.0
 10
159.4671932935
 20
82.142247316
 30
0.0
 10
159.5128851032
 20
81.7657515903
 30
0.0
 10
159.5339218857
 20
81.1963960206
 30
0.0
 10
159.5799565677
 20
80.4388638357
 30
0.0
 10
159.6401899566
 20
79.8707329668
 30
0.0
 10
159.7315941065
 20
79.3039998209
 30
0.0
 10
159.8837583131
 20
78.5518471424
 30
0.0
 10
160.0063123232
 20
77.9877248033
 30
0.0
 10
160.05569952
 20
77.606985092
 30
0.0
  0
SPLINE
  5
7E3
100
AcDbEntity
  8
0
100
AcDbSpline
 62
7
  6
CONTINUOUS
 70
0
 71
3
 72
11
 73
7
 74
0
 42
0.0000001
 43
0.0000001
 44
0.0000000001
 40
0.0
 40
0.0
 40
0.0
 40
0.0
 40
0.1257307581
 40
0.3351380721
 40
0.6277098687
 40
1.0
 40
1.0
 40
1.0
 40
1.0
 10
158.8051140269
 20
84.3698893887
 30
0.0
 10
158.812990561
 20
84.3634197373
 30
0.0
 10
158.8289356886
 20
84.3407971732
 30
0.0
 10
158.8541999909
 20
84.2968953698
 30
0.0
 10
158.8852084854
 20
84.2329763619
 30
0.0
 10
158.9067055058
 20
84.1835779313
 30
0.0
 10
158.9182998772
 20
84.1557123771
 30
0.0
  0
SPLINE
  5
7E4
100
AcDbEntity
  8
0
100
AcDbSpline
 62
7
  6
CONTINUOUS
 70
0
 71
3
 72
9
 73
5
 74
0
 42
0.0000001
 43
0.0000001
 44
0.0000000001
 40
0.0
 40
0.0
 40
0.0
 40
0.0
 40
0.2049817066
 40
1.0
 40
1.0
 40
1.0
 40
1.0
 10
160.2492042562
 20
76.0913677993
 30
0.0
 10
160.251808595
 20
76.0638498842
 30
0.0
 10
160.2623413312
 20
75.9294012458
 30
0.0
 10
160.2680548654
 20
75.7946439314
 30
0.0
 10
160.2725220166
 20
75.6875323307
 30
0.0
  0
SPLINE
  5
7E5
100
AcDbEntity
  8
0
100
AcDbSpline
 62
7
  6
CONTINUOUS
 70
0
 71
3
 72
16
 73
12
 74
0
 42
0.0000001
 43
0.0000001
 44
0.0000000001
 40
0.0
 40
0.0
 40
0.0
 40
0.0
 40
0.2034189358
 40
0.3861787907
 40
0.5471553962
 40
0.6854380873
 40
0.8002477618
 40
0.8910141927
 40
0.9574539255
 40
0.981635954
 40
1.0
 40
1.0
 40
1.0
 40
1.0
 10
159.1154451296
 20
80.7918207089
 30
0.0
 10
159.0940498042
 20
81.1395699239
 30
0.0
 10
159.0504195187
 20
81.7995740045
 30
0.0
 10
158.9777318321
 20
82.7339155531
 30
0.0
 10
158.9017032403
 20
83.5560361151
 30
0.0
 10
158.822862181
 20
84.2608653929
 30
0.0
 10
158.7421252529
 20
84.8444304497
 30
0.0
 10
158.6598609724
 20
85.3029780588
 30
0.0
 10
158.5863440259
 20
85.6055804222
 30
0.0
 10
158.5225948412
 20
85.7811311862
 30
0.0
 10
158.4900062379
 20
85.8467709774
 30
0.0
 10
158.4727321965
 20
85.8730560595
 30
0.0
  0
LINE
  5
7E6
100
AcDbEntity
  8
0
100
AcDbLine
 62
7
  6
CONTINUOUS
 10
143.6548248538
 20
57.6708501159
 11
143.6559066003
 21
57.5793216169
  0
SPLINE
  5
7E7
100
AcDbEntity
  8
0
100
AcDbSpline
 62
7
  6
CONTINUOUS
 70
0
 71
3
 72
9
 73
5
 74
0
 42
0.0000001
 43
0.0000001
 44
0.0000000001
 40
0.0
 40
0.0
 40
0.0
 40
0.0
 40
0.4998831609
 40
1.0
 40
1.0
 40
1.0
 40
1.0
 10
143.6559066003
 20
57.5793216169
 30
0.0
 10
143.6751312211
 20
55.9943451446
 30
0.0
 10
143.7624266417
 20
52.8241718263
 30
0.0
 10
144.0995963812
 20
49.6625292122
 30
0.0
 10
144.3857005759
 20
48.1027170516
 30
0.0
  0
SPLINE
  5
7E8
100
AcDbEntity
  8
0
100
AcDbSpline
 62
7
  6
CONTINUOUS
 70
0
 71
3
 72
9
 73
5
 74
0
 42
0.0000001
 43
0.0000001
 44
0.0000000001
 40
0.0
 40
0.0
 40
0.0
 40
0.0
 40
0.4485502249
 40
1.0
 40
1.0
 40
1.0
 40
1.0
 10
144.0131868624
 20
75.687532568
 30
0.0
 10
144.0050654172
 20
75.4927997759
 30
0.0
 10
143.9894901182
 20
75.0585604536
 30
0.0
 10
143.9724903415
 20
74.6243775436
 30
0.0
 10
143.9638433368
 20
74.3849200842
 30
0.0
  0
LINE
  5
7E9
100
AcDbEntity
  8
0
100
AcDbLine
 62
7
  6
CONTINUOUS
 10
160.6308840153
 20
38.5345839873
 11
160.6298022688
 21
38.6261124863
  0
SPLINE
  5
7EA
100
AcDbEntity
  8
0
100
AcDbSpline
 62
7
  6
CONTINUOUS
 70
0
 71
3
 72
9
 73
5
 74
0
 42
0.0000001
 43
0.0000001
 44
0.0000000001
 40
0.0
 40
0.0
 40
0.0
 40
0.0
 40
0.4998831609
 40
1.0
 40
1.0
 40
1.0
 40
1.0
 10
160.6298022688
 20
38.6261124863
 30
0.0
 10
160.610577648
 20
40.2110889586
 30
0.0
 10
160.5232822274
 20
43.3812622769
 30
0.0
 10
160.1861124879
 20
46.542904891
 30
0.0
 10
159.9000082932
 20
48.1027170516
 30
0.0
  0
SPLINE
  5
7EB
100
AcDbEntity
  8
RUNDUNGEN
100
AcDbSpline
 62
7
  6
CONTINUOUS
 70
0
 71
3
 72
9
 73
5
 74
0
 42
0.0000001
 43
0.0000001
 44
0.0000000001
 40
0.0
 40
0.0
 40
0.0
 40
0.0
 40
0.4485502442
 40
1.0
 40
1.0
 40
1.0
 40
1.0
 10
144.0131868525
 20
20.5179017725
 30
0.0
 10
144.0050654099
 20
20.7126345375
 30
0.0
 10
143.9894901129
 20
21.1468737806
 30
0.0
 10
143.9724903396
 20
21.5810566116
 30
0.0
 10
143.9638433368
 20
21.820514019
 30
0.0
  0
SPLINE
  5
7EC
100
AcDbEntity
  8
0
100
AcDbSpline
 62
7
  6
CONTINUOUS
 70
0
 71
3
 72
9
 73
5
 74
0
 42
0.0000001
 43
0.0000001
 44
0.0000000001
 40
0.0
 40
0.0
 40
0.0
 40
0.0
 40
0.4485502442
 40
1.0
 40
1.0
 40
1.0
 40
1.0
 10
160.2725220166
 20
75.6875323307
 30
0.0
 10
160.2806434592
 20
75.4927995657
 30
0.0
 10
160.2962187562
 20
75.0585603226
 30
0.0
 10
160.3132185294
 20
74.6243774916
 30
0.0
 10
160.3218655323
 20
74.3849200842
 30
0.0
  0
LINE
  5
7ED
100
AcDbEntity
  8
0
100
AcDbLine
 62
7
  6
CONTINUOUS
 10
143.6548248538
 20
38.5345839873
 11
143.6559066003
 21
38.6261124863
  0
SPLINE
  5
7EE
100
AcDbEntity
  8
0
100
AcDbSpline
 62
7
  6
CONTINUOUS
 70
0
 71
3
 72
9
 73
5
 74
0
 42
0.0000001
 43
0.0000001
 44
0.0000000001
 40
0.0
 40
0.0
 40
0.0
 40
0.0
 40
0.4998831609
 40
1.0
 40
1.0
 40
1.0
 40
1.0
 10
143.6559066003
 20
38.6261124863
 30
0.0
 10
143.6751312211
 20
40.2110889586
 30
0.0
 10
143.7624266417
 20
43.3812622769
 30
0.0
 10
144.0995963812
 20
46.542904891
 30
0.0
 10
144.3857005759
 20
48.1027170516
 30
0.0
  0
LINE
  5
7EF
100
AcDbEntity
  8
0
100
AcDbLine
 62
7
  6
CONTINUOUS
 10
160.6308840153
 20
57.6708501159
 11
160.6298022688
 21
57.5793216169
  0
SPLINE
  5
7F0
100
AcDbEntity
  8
0
100
AcDbSpline
 62
7
  6
CONTINUOUS
 70
0
 71
3
 72
9
 73
5
 74
0
 42
0.0000001
 43
0.0000001
 44
0.0000000001
 40
0.0
 40
0.0
 40
0.0
 40
0.0
 40
0.4998831609
 40
1.0
 40
1.0
 40
1.0
 40
1.0
 10
160.6298022688
 20
57.5793216169
 30
0.0
 10
160.610577648
 20
55.9943451446
 30
0.0
 10
160.5232822274
 20
52.8241718263
 30
0.0
 10
160.1861124879
 20
49.6625292122
 30
0.0
 10
159.9000082932
 20
48.1027170516
 30
0.0
  0
SPLINE
  5
7F1
100
AcDbEntity
  8
0
100
AcDbSpline
 62
7
  6
CONTINUOUS
 70
0
 71
3
 72
9
 73
5
 74
0
 42
0.0000001
 43
0.0000001
 44
0.0000000001
 40
0.0
 40
0.0
 40
0.0
 40
0.0
 40
0.4485502249
 40
1.0
 40
1.0
 40
1.0
 40
1.0
 10
160.2725220067
 20
20.5179015352
 30
0.0
 10
160.2806434519
 20
20.7126343273
 30
0.0
 10
160.2962187509
 20
21.1468736496
 30
0.0
 10
160.3132185276
 20
21.5810565596
 30
0.0
 10
160.3218655323
 20
21.820514019
 30
0.0
  0
ELLIPSE
  5
7F2
100
AcDbEntity
  8
RUNDUNGEN
100
AcDbEllipse
 62
7
  6
CONTINUOUS
 10
152.0428544345
 20
224.5198236829
 30
0.0
 11
-0.0
 21
14.7970977515
 31
0.0
 40
0.4663076582
 41
-4.7123889804
 42
-4.6979401544
  0
ELLIPSE
  5
7F3
100
AcDbEntity
  8
0
100
AcDbEllipse
 62
7
  6
CONTINUOUS
 10
152.2428544345
 20
224.5198236829
 30
0.0
 11
0.0
 21
14.7970977515
 31
0.0
 40
0.4663076582
 41
-1.5852451528
 42
-1.5707963268
  0
ELLIPSE
  5
7F4
100
AcDbEntity
  8
0
100
AcDbEllipse
 62
7
  6
CONTINUOUS
 10
152.2428544345
 20
224.948725067
 30
0.0
 11
-0.0
 21
14.7970977515
 31
0.0
 40
0.4663076582
 41
-1.5707963268
 42
-1.293281665
  0
ELLIPSE
  5
7F5
100
AcDbEntity
  8
0
100
AcDbEllipse
 62
7
  6
CONTINUOUS
 10
152.2428544345
 20
221.2564330588
 30
0.0
 11
0.0
 21
8.3636430269
 31
0.0
 40
0.8249993427
 41
-2.1624398393
 42
-1.5860301549
  0
ELLIPSE
  5
7F6
100
AcDbEntity
  8
RUNDUNGEN
100
AcDbEllipse
 62
7
  6
CONTINUOUS
 10
152.0428544345
 20
224.948725067
 30
0.0
 11
0.0
 21
14.7970977515
 31
0.0
 40
0.4663076582
 41
1.293281665
 42
1.5707963268
  0
ELLIPSE
  5
7F7
100
AcDbEntity
  8
RUNDUNGEN
100
AcDbEllipse
 62
7
  6
CONTINUOUS
 10
152.0428544345
 20
221.2564330588
 30
0.0
 11
0.0
 21
8.3636430269
 31
0.0
 40
0.8249993427
 41
-4.6971551523
 42
-4.1207454679
  0
ELLIPSE
  5
7F8
100
AcDbEntity
  8
0
100
AcDbEllipse
 62
7
  6
CONTINUOUS
 10
123.6428544345
 20
168.6106095776
 30
0.0
 11
25.5
 21
0.0
 31
0.0
 40
0.255319362
 41
2.9453352177
 42
2.9603071928
  0
ELLIPSE
  5
7F9
100
AcDbEntity
  8
0
100
AcDbEllipse
 62
7
  6
CONTINUOUS
 10
123.6428544345
 20
166.4946525604
 30
0.0
 11
25.5
 21
-0.0
 31
0.0
 40
0.6808512211
 41
2.9340770958
 42
2.9453352177
  0
ELLIPSE
  5
7FA
100
AcDbEntity
  8
0
100
AcDbEllipse
 62
7
  6
CONTINUOUS
 10
123.6428544345
 20
162.0233934055
 30
0.0
 11
0.0
 21
39.0637506223
 31
0.0
 40
0.6527791007
 41
1.355760579
 42
1.363280769
  0
ELLIPSE
  5
7FB
100
AcDbEntity
  8
0
100
AcDbEllipse
 62
7
  6
CONTINUOUS
 10
123.6428544345
 20
148.1307411777
 30
0.0
 11
0.0
 21
104.1705977272
 31
0.0
 40
0.244790762
 41
1.3519958963
 42
1.355760579
  0
ELLIPSE
  5
7FC
100
AcDbEntity
  8
0
100
AcDbEllipse
 62
7
  6
CONTINUOUS
 10
123.6428544345
 20
194.7892032095
 30
0.0
 11
-0.0
 21
104.1705977272
 31
0.0
 40
0.244790762
 41
-4.4973532326
 42
-4.4935885499
  0
ELLIPSE
  5
7FD
100
AcDbEntity
  8
0
100
AcDbEllipse
 62
7
  6
CONTINUOUS
 10
123.6428544345
 20
180.8965587654
 30
0.0
 11
-0.0
 21
39.0637871002
 31
0.0
 40
0.6527784911
 41
-4.5048734226
 42
-4.4973532326
  0
ELLIPSE
  5
7FE
100
AcDbEntity
  8
0
100
AcDbEllipse
 62
7
  6
CONTINUOUS
 10
123.6428544345
 20
176.4252908424
 30
0.0
 11
25.5
 21
-0.0
 31
0.0
 40
0.6808509827
 41
-2.9453352177
 42
-2.9340770958
  0
ELLIPSE
  5
7FF
100
AcDbEntity
  8
0
100
AcDbEllipse
 62
7
  6
CONTINUOUS
 10
123.6428544345
 20
174.3093350108
 30
0.0
 11
25.5
 21
-0.0
 31
0.0
 40
0.255319362
 41
-2.9603071928
 42
-2.9453352177
  0
ELLIPSE
  5
800
100
AcDbEntity
  8
0
100
AcDbEllipse
 62
7
  6
CONTINUOUS
 10
123.6428544345
 20
169.5584826901
 30
0.0
 11
25.5
 21
0.0
 31
0.0
 40
0.6808512211
 41
3.112029517
 42
3.1230621743
  0
ELLIPSE
  5
801
100
AcDbEntity
  8
0
100
AcDbEllipse
 62
7
  6
CONTINUOUS
 10
123.6428544345
 20
168.9169923312
 30
0.0
 11
0.0
 21
39.0638623847
 31
0.0
 40
0.6527772331
 41
1.533876175
 42
1.5412331902
  0
ELLIPSE
  5
802
100
AcDbEntity
  8
0
100
AcDbEllipse
 62
7
  6
CONTINUOUS
 10
123.6428544345
 20
166.5138098374
 30
0.0
 11
0.0
 21
104.1700016594
 31
0.0
 40
0.2447921628
 41
1.530196932
 42
1.533876175
  0
ELLIPSE
  5
803
100
AcDbEntity
  8
0
100
AcDbEllipse
 62
7
  6
CONTINUOUS
 10
123.6428544345
 20
153.3501849902
 30
0.0
 11
25.5
 21
0.0
 31
0.0
 40
0.1702127606
 41
-2.8987218166
 42
-2.8733887313
  0
ELLIPSE
  5
804
100
AcDbEntity
  8
0
100
AcDbEllipse
 62
7
  6
CONTINUOUS
 10
123.6428544345
 20
154.3940147444
 30
0.0
 11
25.5
 21
0.0
 31
0.0
 40
0.3404255211
 41
-2.9113279032
 42
-2.8987218166
  0
ELLIPSE
  5
805
100
AcDbEntity
  8
0
100
AcDbEllipse
 62
7
  6
CONTINUOUS
 10
123.6428544345
 20
156.3752912774
 30
0.0
 11
25.5
 21
-0.0
 31
0.0
 40
0.6808510423
 41
-2.923896844
 42
-2.9113279032
  0
ELLIPSE
  5
806
100
AcDbEntity
  8
0
100
AcDbEllipse
 62
7
  6
CONTINUOUS
 10
123.6428544345
 20
163.8748440516
 30
0.0
 11
0.0
 21
52.0850053894
 31
0.0
 40
0.4895842826
 41
-4.5030529799
 42
-4.4946931708
  0
ELLIPSE
  5
807
100
AcDbEntity
  8
0
100
AcDbEllipse
 62
7
  6
CONTINUOUS
 10
123.6428544345
 20
154.7187810794
 30
0.0
 11
25.5
 21
0.0
 31
0.0
 40
0.6127654169
 41
3.1053428773
 42
3.1257750083
  0
ELLIPSE
  5
808
100
AcDbEntity
  8
0
100
AcDbEllipse
 62
7
  6
CONTINUOUS
 10
123.6428544345
 20
155.0963125264
 30
0.0
 11
25.5
 21
0.0
 31
0.0
 40
0.2042553727
 41
3.0848956159
 42
3.1053428773
  0
ELLIPSE
  5
809
100
AcDbEntity
  8
0
100
AcDbEllipse
 62
7
  6
CONTINUOUS
 10
123.6428544345
 20
152.4951213001
 30
0.0
 11
25.5
 21
-0.0
 31
0.0
 40
0.2042553906
 41
-3.1053428773
 42
-3.0848956159
  0
ELLIPSE
  5
80A
100
AcDbEntity
  8
0
100
AcDbEllipse
 62
7
  6
CONTINUOUS
 10
123.6428544345
 20
152.8726527801
 30
0.0
 11
25.5
 21
0.0
 31
0.0
 40
0.6127654705
 41
-3.1257750083
 42
-3.1053428773
  0
ELLIPSE
  5
80B
100
AcDbEntity
  8
0
100
AcDbEllipse
 62
7
  6
CONTINUOUS
 10
123.6428544345
 20
152.2033768421
 30
0.0
 11
25.5
 21
-0.0
 31
0.0
 40
0.2553189968
 41
3.0439210865
 42
3.0603267639
  0
ELLIPSE
  5
80C
100
AcDbEntity
  8
0
100
AcDbEllipse
 62
7
  6
CONTINUOUS
 10
123.6428544345
 20
151.1452205526
 30
0.0
 11
25.5
 21
0.0
 31
0.0
 40
0.6808509827
 41
3.0315997477
 42
3.0439210865
  0
ELLIPSE
  5
80D
100
AcDbEntity
  8
0
100
AcDbEllipse
 62
7
  6
CONTINUOUS
 10
123.6428544345
 20
148.7629460734
 30
0.0
 11
0.0
 21
39.0638715042
 31
0.0
 40
0.6527770807
 41
1.4525799951
 42
1.4608034209
  0
ELLIPSE
  5
80E
100
AcDbEntity
  8
0
100
AcDbEllipse
 62
7
  6
CONTINUOUS
 10
123.6428544345
 20
144.1557356246
 30
0.0
 11
0.0
 21
78.1275012445
 31
0.0
 40
0.3263895503
 41
1.4484652918
 42
1.4525799951
  0
ELLIPSE
  5
80F
100
AcDbEntity
  8
0
100
AcDbEllipse
 62
7
  6
CONTINUOUS
 10
123.6428544345
 20
163.4357026272
 30
0.0
 11
0.0
 21
78.1275377225
 31
0.0
 40
0.3263893979
 41
-4.5941726487
 42
-4.5900579454
  0
ELLIPSE
  5
810
100
AcDbEntity
  8
0
100
AcDbEllipse
 62
7
  6
CONTINUOUS
 10
123.6428544345
 20
158.8284868006
 30
0.0
 11
-0.0
 21
39.0638623847
 31
0.0
 40
0.6527772331
 41
1.6807892327
 42
1.6890126585
  0
ELLIPSE
  5
811
100
AcDbEntity
  8
0
100
AcDbEllipse
 62
7
  6
CONTINUOUS
 10
123.6428544345
 20
156.4462133225
 30
0.0
 11
25.5
 21
0.0
 31
0.0
 40
0.6808509827
 41
-3.0439210865
 42
-3.0315997477
  0
ELLIPSE
  5
812
100
AcDbEntity
  8
0
100
AcDbEllipse
 62
7
  6
CONTINUOUS
 10
123.6428544345
 20
155.388057033
 30
0.0
 11
25.5
 21
0.0
 31
0.0
 40
0.2553189968
 41
-3.0603267639
 42
-3.0439210865
  0
ELLIPSE
  5
813
100
AcDbEntity
  8
0
100
AcDbEllipse
 62
7
  6
CONTINUOUS
 10
123.6428544345
 20
154.5121704958
 30
0.0
 11
-0.0
 21
47.7446812391
 31
0.0
 40
0.5340909047
 41
-4.6649458802
 42
-4.6505522016
  0
ELLIPSE
  5
814
100
AcDbEntity
  8
0
100
AcDbEllipse
 62
7
  6
CONTINUOUS
 10
123.6428544345
 20
141.8263410187
 30
0.0
 11
-0.0
 21
104.1703361705
 31
0.0
 40
0.2447913767
 41
7.7351635149
 42
7.7388253277
  0
ELLIPSE
  5
815
100
AcDbEntity
  8
0
100
AcDbEllipse
 62
7
  6
CONTINUOUS
 10
123.6428544345
 20
201.7486197848
 30
0.0
 11
0.0
 21
52.0847027992
 31
0.0
 40
0.4895871269
 41
-3.9150634651
 42
-3.9091986017
  0
ELLIPSE
  5
816
100
AcDbEntity
  8
0
100
AcDbEllipse
 62
7
  6
CONTINUOUS
 10
123.6428544345
 20
183.1157859147
 30
0.0
 11
0.0
 21
26.0426494318
 31
0.0
 40
0.9791630482
 41
-3.9266888206
 42
-3.9150634651
  0
ELLIPSE
  5
817
100
AcDbEntity
  8
0
100
AcDbEllipse
 62
7
  6
CONTINUOUS
 10
123.6428544345
 20
170.8354328809
 30
0.0
 11
25.5
 21
0.0
 31
0.0
 40
0.3404254913
 41
-2.3730818034
 42
-2.3558924938
  0
ELLIPSE
  5
818
100
AcDbEntity
  8
0
100
AcDbEllipse
 62
7
  6
CONTINUOUS
 10
123.6428544345
 20
163.8900198066
 30
0.0
 11
25.5
 21
0.0
 31
0.0
 40
0.2042556244
 41
-2.4445398085
 42
-2.4175940178
  0
ELLIPSE
  5
819
100
AcDbEntity
  8
0
100
AcDbEllipse
 62
7
  6
CONTINUOUS
 10
123.6428544345
 20
170.5773489479
 30
0.0
 11
25.5
 21
-0.0
 31
0.0
 40
0.6127668731
 41
-2.4708907786
 42
-2.4445398085
  0
ELLIPSE
  5
81A
100
AcDbEntity
  8
0
100
AcDbEllipse
 62
7
  6
CONTINUOUS
 10
123.6428544345
 20
187.8428129315
 30
0.0
 11
0.0
 21
43.4042592645
 31
0.0
 40
0.5874999466
 41
-4.0572353443
 42
-4.0416871054
  0
ELLIPSE
  5
81B
100
AcDbEntity
  8
0
100
AcDbEllipse
 62
7
  6
CONTINUOUS
 10
123.6428544345
 20
224.8658667289
 30
0.0
 11
0.0
 21
104.1694055984
 31
0.0
 40
0.2447935635
 41
-4.06237683
 42
-4.0572353443
  0
ELLIPSE
  5
81C
100
AcDbEntity
  8
0
100
AcDbEllipse
 62
7
  6
CONTINUOUS
 10
123.6428544345
 20
156.5529340562
 30
0.0
 11
25.5
 21
0.0
 31
0.0
 40
0.2553200925
 41
2.3500969839
 42
2.3730818034
  0
ELLIPSE
  5
81D
100
AcDbEntity
  8
0
100
AcDbEllipse
 62
7
  6
CONTINUOUS
 10
123.6428544345
 20
148.8334451121
 30
0.0
 11
25.5
 21
0.0
 31
0.0
 40
0.6808512211
 41
2.3325016849
 42
2.3500969839
  0
ELLIPSE
  5
81E
100
AcDbEntity
  8
0
100
AcDbEllipse
 62
7
  6
CONTINUOUS
 10
123.6428544345
 20
133.1287031944
 30
0.0
 11
0.0
 21
39.0635270994
 31
0.0
 40
0.6527828359
 41
0.7497927885
 42
0.7617053581
  0
ELLIPSE
  5
81F
100
AcDbEntity
  8
0
100
AcDbEllipse
 62
7
  6
CONTINUOUS
 10
123.6428544345
 20
190.6235950558
 30
0.0
 11
-0.0
 21
39.0635453383
 31
0.0
 40
0.6527825311
 41
-3.9032980117
 42
-3.8913854421
  0
ELLIPSE
  5
820
100
AcDbEntity
  8
0
100
AcDbEllipse
 62
7
  6
CONTINUOUS
 10
123.6428544345
 20
174.9188355398
 30
0.0
 11
25.5
 21
0.0
 31
0.0
 40
0.6808509827
 41
-2.3500969839
 42
-2.3325016849
  0
ELLIPSE
  5
821
100
AcDbEntity
  8
0
100
AcDbEllipse
 62
7
  6
CONTINUOUS
 10
123.6428544345
 20
167.1993509207
 30
0.0
 11
25.5
 21
-0.0
 31
0.0
 40
0.2553200925
 41
-2.3730818034
 42
-2.3500969839
  0
ELLIPSE
  5
822
100
AcDbEntity
  8
0
100
AcDbEllipse
 62
7
  6
CONTINUOUS
 10
123.6428544345
 20
167.0397508819
 30
0.0
 11
25.5
 21
-0.0
 31
0.0
 40
0.2553186315
 41
-2.4284475283
 42
-2.4066352082
  0
ELLIPSE
  5
823
100
AcDbEntity
  8
0
100
AcDbEllipse
 62
7
  6
CONTINUOUS
 10
123.6428544345
 20
171.2991039522
 30
0.0
 11
25.5
 21
-0.0
 31
0.0
 40
0.510637263
 41
-2.4498557702
 42
-2.4284475283
  0
ELLIPSE
  5
824
100
AcDbEntity
  8
0
100
AcDbEllipse
 62
7
  6
CONTINUOUS
 10
123.6428544345
 20
179.605139215
 30
0.0
 11
0.0
 21
26.0426494318
 31
0.0
 40
0.9791630482
 41
-4.0416871054
 42
-4.020652097
  0
ELLIPSE
  5
825
100
AcDbEntity
  8
0
100
AcDbEllipse
 62
7
  6
CONTINUOUS
 10
123.6428544345
 20
228.1637290856
 30
0.0
 11
-0.0
 21
104.1694055984
 31
0.0
 40
0.2447935635
 41
-4.04689093
 42
-4.0416871054
  0
ELLIPSE
  5
826
100
AcDbEntity
  8
0
100
AcDbEllipse
 62
7
  6
CONTINUOUS
 10
123.6428544345
 20
99.9502580206
 30
0.0
 11
0.0
 21
104.1694055984
 31
0.0
 40
0.2447935635
 41
0.9000944518
 42
0.9052982764
  0
ELLIPSE
  5
827
100
AcDbEntity
  8
0
100
AcDbEllipse
 62
7
  6
CONTINUOUS
 10
123.6428544345
 20
148.5088478912
 30
0.0
 11
-0.0
 21
26.0426494318
 31
0.0
 40
0.9791630482
 41
0.8790594434
 42
0.9000944518
  0
ELLIPSE
  5
828
100
AcDbEntity
  8
0
100
AcDbEllipse
 62
7
  6
CONTINUOUS
 10
123.6428544345
 20
156.814883154
 30
0.0
 11
25.5
 21
0.0
 31
0.0
 40
0.510637263
 41
2.4284475283
 42
2.4498557702
  0
ELLIPSE
  5
829
100
AcDbEntity
  8
0
100
AcDbEllipse
 62
7
  6
CONTINUOUS
 10
123.6428544345
 20
161.0742362243
 30
0.0
 11
25.5
 21
-0.0
 31
0.0
 40
0.2553186315
 41
2.4066352082
 42
2.4284475283
  0
ELLIPSE
  5
82A
100
AcDbEntity
  8
0
100
AcDbEllipse
 62
7
  6
CONTINUOUS
 10
123.6428544345
 20
162.9964014501
 30
0.0
 11
25.5
 21
-0.0
 31
0.0
 40
0.2042556244
 41
-2.6518575364
 42
-2.6285654719
  0
ELLIPSE
  5
82B
100
AcDbEntity
  8
0
100
AcDbEllipse
 62
7
  6
CONTINUOUS
 10
123.6428544345
 20
166.6714500105
 30
0.0
 11
25.5
 21
0.0
 31
0.0
 40
0.5106373301
 41
-2.6702844432
 42
-2.6518575364
  0
ELLIPSE
  5
82C
100
AcDbEntity
  8
0
100
AcDbEllipse
 62
7
  6
CONTINUOUS
 10
123.6428544345
 20
172.5838459688
 30
0.0
 11
0.0
 21
26.0426517117
 31
0.0
 40
0.9791629624
 41
-4.2593361119
 42
-4.24108077
  0
ELLIPSE
  5
82D
100
AcDbEntity
  8
0
100
AcDbEllipse
 62
7
  6
CONTINUOUS
 10
123.6428544345
 20
183.9827799311
 30
0.0
 11
-0.0
 21
52.0847119186
 31
0.0
 40
0.4895870412
 41
-4.2684029355
 42
-4.2593361119
  0
ELLIPSE
  5
82E
100
AcDbEntity
  8
0
100
AcDbEllipse
 62
7
  6
CONTINUOUS
 10
123.6428544345
 20
217.5429426701
 30
0.0
 11
-0.0
 21
130.2147373541
 31
0.0
 40
0.1958303685
 41
-4.2729215654
 42
-4.2684029355
  0
ELLIPSE
  5
82F
100
AcDbEntity
  8
0
100
AcDbEllipse
 62
7
  6
CONTINUOUS
 10
123.6428544345
 20
157.7763619293
 30
0.0
 11
25.5
 21
0.0
 31
0.0
 40
0.2553186315
 41
2.5906428039
 42
2.6097099402
  0
ELLIPSE
  5
830
100
AcDbEntity
  8
0
100
AcDbEllipse
 62
7
  6
CONTINUOUS
 10
123.6428544345
 20
152.0958561309
 30
0.0
 11
25.5
 21
0.0
 31
0.0
 40
0.6808512211
 41
2.5761949552
 42
2.5906428039
  0
ELLIPSE
  5
831
100
AcDbEntity
  8
0
100
AcDbEllipse
 62
7
  6
CONTINUOUS
 10
123.6428544345
 20
140.4688299069
 30
0.0
 11
0.0
 21
39.0639741477
 31
0.0
 40
0.6527753654
 41
0.9956929168
 42
1.0053986284
  0
ELLIPSE
  5
832
100
AcDbEntity
  8
0
100
AcDbEllipse
 62
7
  6
CONTINUOUS
 10
123.6428544345
 20
105.0565815061
 30
0.0
 11
0.0
 21
104.1694055984
 31
0.0
 40
0.2447935635
 41
0.9908170923
 42
0.9956929168
  0
ELLIPSE
  5
833
100
AcDbEntity
  8
0
100
AcDbEllipse
 62
7
  6
CONTINUOUS
 10
123.6428544345
 20
161.8884830243
 30
0.0
 11
25.5
 21
-0.0
 31
0.0
 40
0.3404254913
 41
2.9643922504
 42
2.9768285764
  0
ELLIPSE
  5
834
100
AcDbEntity
  8
0
100
AcDbEllipse
 62
7
  6
CONTINUOUS
 10
123.6428544345
 20
158.8280403453
 30
0.0
 11
-0.0
 21
26.0426494318
 31
0.0
 40
0.9791630482
 41
1.3852897798
 42
1.3935959236
  0
ELLIPSE
  5
835
100
AcDbEntity
  8
0
100
AcDbEllipse
 62
7
  6
CONTINUOUS
 10
123.6428544345
 20
149.2213628671
 30
0.0
 11
-0.0
 21
78.1270541988
 31
0.0
 40
0.3263914179
 41
1.3811318371
 42
1.3852897798
  0
ELLIPSE
  5
836
100
AcDbEntity
  8
0
100
AcDbEllipse
 62
7
  6
CONTINUOUS
 10
123.6428544345
 20
178.9990072052
 30
0.0
 11
0.0
 21
78.1270541988
 31
0.0
 40
0.3263914179
 41
-4.5268824334
 42
-4.5227244907
  0
ELLIPSE
  5
837
100
AcDbEntity
  8
0
100
AcDbEllipse
 62
7
  6
CONTINUOUS
 10
123.6428544345
 20
169.392329727
 30
0.0
 11
0.0
 21
26.0426494318
 31
0.0
 40
0.9791630482
 41
-4.5351885772
 42
-4.5268824334
  0
ELLIPSE
  5
838
100
AcDbEntity
  8
0
100
AcDbEllipse
 62
7
  6
CONTINUOUS
 10
123.6428544345
 20
166.331887048
 30
0.0
 11
25.5
 21
0.0
 31
0.0
 40
0.3404254913
 41
-2.9768285764
 42
-2.9643922504
  0
ELLIPSE
  5
839
100
AcDbEntity
  8
0
100
AcDbEllipse
 62
7
  6
CONTINUOUS
 10
123.6428544345
 20
151.7771636021
 30
0.0
 11
25.0
 21
-0.0
 31
0.0
 40
0.2042553906
 41
3.0377729246
 42
3.0586977499
  0
ELLIPSE
  5
83A
100
AcDbEntity
  8
0
100
AcDbEllipse
 62
7
  6
CONTINUOUS
 10
123.6428544345
 20
150.7187821512
 30
0.0
 11
25.0
 21
0.0
 31
0.0
 40
0.6127654705
 41
3.0283281006
 42
3.0377729246
  0
ELLIPSE
  5
83B
100
AcDbEntity
  8
0
100
AcDbEllipse
 62
7
  6
CONTINUOUS
 10
123.6428544345
 20
162.5844559157
 30
0.0
 11
0.0
 21
130.2125020742
 31
0.0
 40
0.1958337302
 41
1.5081082104
 42
1.5117915063
  0
ELLIPSE
  5
83C
100
AcDbEntity
  8
0
100
AcDbEllipse
 62
7
  6
CONTINUOUS
 10
123.6428544345
 20
164.2738136525
 30
0.0
 11
25.0
 21
-0.0
 31
0.0
 40
0.2553200925
 41
-2.6364106714
 42
-2.6305079547
  0
ELLIPSE
  5
83D
100
AcDbEntity
  8
0
100
AcDbEllipse
 62
7
  6
CONTINUOUS
 10
123.6428544345
 20
154.005758747
 30
0.0
 11
25.0
 21
0.0
 31
0.0
 40
0.2042552105
 41
-2.8894632
 42
-2.8678880368
  0
ELLIPSE
  5
83E
100
AcDbEntity
  8
0
100
AcDbEllipse
 62
7
  6
CONTINUOUS
 10
123.6428544345
 20
156.9781275234
 30
0.0
 11
25.0
 21
-0.0
 31
0.0
 40
0.6808509827
 41
-2.9023502761
 42
-2.8894632
  0
ELLIPSE
  5
83F
100
AcDbEntity
  8
0
100
AcDbEllipse
 62
7
  6
CONTINUOUS
 10
123.6428544345
 20
171.0953614909
 30
0.0
 11
-0.0
 21
76.596045622
 31
0.0
 40
0.3263876065
 41
-4.4774331805
 42
-4.4731466029
  0
ELLIPSE
  5
840
100
AcDbEntity
  8
0
100
AcDbEllipse
 62
7
  6
CONTINUOUS
 10
123.6428544345
 20
169.4223860377
 30
0.0
 11
25.0
 21
-0.0
 31
0.0
 40
0.6808512211
 41
-2.6506394711
 42
-2.6364106714
  0
ELLIPSE
  5
841
100
AcDbEntity
  8
0
100
AcDbEllipse
 62
7
  6
CONTINUOUS
 10
123.6428544345
 20
179.4534506252
 30
0.0
 11
0.0
 21
38.2975755876
 31
0.0
 40
0.6527828359
 41
-4.230861728
 42
-4.2214357979
  0
ELLIPSE
  5
842
100
AcDbEntity
  8
0
100
AcDbEllipse
 62
7
  6
CONTINUOUS
 10
123.6428544345
 20
209.0160042536
 30
0.0
 11
-0.0
 21
102.1292057679
 31
0.0
 40
0.2447879606
 41
-4.2355571657
 42
-4.230861728
  0
ELLIPSE
  5
843
100
AcDbEntity
  8
0
100
AcDbEllipse
 62
7
  6
CONTINUOUS
 10
123.6428544345
 20
167.191671296
 30
0.0
 11
0.0
 21
52.0851589657
 31
0.0
 40
0.4895828391
 41
1.5117915063
 42
1.5191557237
  0
ELLIPSE
  5
844
100
AcDbEntity
  8
0
100
AcDbEllipse
 62
7
  6
CONTINUOUS
 10
123.6428544345
 20
158.98068198
 30
0.0
 11
25.5
 21
-0.0
 31
0.0
 40
0.3404254913
 41
2.4066352082
 42
2.4230335884
  0
ELLIPSE
  5
845
100
AcDbEntity
  8
0
100
AcDbEllipse
 62
7
  6
CONTINUOUS
 10
123.6428544345
 20
153.2660724616
 30
0.0
 11
25.5
 21
-0.0
 31
0.0
 40
0.6808509827
 41
2.4230335884
 42
2.43920008
  0
ELLIPSE
  5
846
100
AcDbEntity
  8
0
100
AcDbEllipse
 62
7
  6
CONTINUOUS
 10
123.6428544345
 20
114.008824546
 30
0.0
 11
0.0
 21
78.1271271543
 31
0.0
 40
0.3263911132
 41
0.8684037532
 42
0.8737434817
  0
ELLIPSE
  5
847
100
AcDbEntity
  8
0
100
AcDbEllipse
 62
7
  6
CONTINUOUS
 10
123.6428544345
 20
214.1051154276
 30
0.0
 11
-0.0
 21
78.1270541988
 31
0.0
 40
0.3263914179
 41
-4.0153361353
 42
-4.0099964068
  0
ELLIPSE
  5
848
100
AcDbEntity
  8
0
100
AcDbEllipse
 62
7
  6
CONTINUOUS
 10
123.6428544345
 20
174.8479146446
 30
0.0
 11
25.5
 21
0.0
 31
0.0
 40
0.6808509827
 41
-2.43920008
 42
-2.4230335884
  0
ELLIPSE
  5
849
100
AcDbEntity
  8
0
100
AcDbEllipse
 62
7
  6
CONTINUOUS
 10
123.6428544345
 20
169.1333051262
 30
0.0
 11
25.5
 21
-0.0
 31
0.0
 40
0.3404254913
 41
-2.4230335884
 42
-2.4066352082
  0
ELLIPSE
  5
84A
100
AcDbEntity
  8
0
100
AcDbEllipse
 62
7
  6
CONTINUOUS
 10
123.6428544345
 20
168.5359301956
 30
0.0
 11
-0.0
 21
26.0425399488
 31
0.0
 40
0.9791671646
 41
1.5191557237
 42
1.533876175
  0
ELLIPSE
  5
84B
100
AcDbEntity
  8
0
100
AcDbEllipse
 62
7
  6
CONTINUOUS
 10
123.6428544345
 20
166.9325732158
 30
0.0
 11
25.5
 21
-0.0
 31
0.0
 40
0.2042556065
 41
-2.3730818034
 42
-2.3442671383
  0
ELLIPSE
  5
84C
100
AcDbEntity
  8
0
100
AcDbEllipse
 62
7
  6
CONTINUOUS
 10
123.6428544345
 20
172.5225065399
 30
0.0
 11
25.5
 21
0.0
 31
0.0
 40
0.510637263
 41
-2.3442671383
 42
-2.3205891153
  0
ELLIPSE
  5
84D
100
AcDbEntity
  8
0
100
AcDbEllipse
 62
7
  6
CONTINUOUS
 10
123.6428544345
 20
182.0519583911
 30
0.0
 11
-0.0
 21
26.0426494318
 31
0.0
 40
0.9791630482
 41
-3.8913854421
 42
-3.8670894241
  0
ELLIPSE
  5
84E
100
AcDbEntity
  8
0
100
AcDbEllipse
 62
7
  6
CONTINUOUS
 10
123.6428544345
 20
201.5358525911
 30
0.0
 11
-0.0
 21
52.0847210381
 31
0.0
 40
0.4895869555
 41
-3.8670894241
 42
-3.8546890616
  0
ELLIPSE
  5
84F
100
AcDbEntity
  8
0
100
AcDbEllipse
 62
7
  6
CONTINUOUS
 10
123.6428544345
 20
122.2164392088
 30
0.0
 11
0.0
 21
52.0847119186
 31
0.0
 40
0.4895870412
 41
0.713096408
 42
0.7254967705
  0
ELLIPSE
  5
850
100
AcDbEntity
  8
0
100
AcDbEllipse
 62
7
  6
CONTINUOUS
 10
123.6428544345
 20
141.7003248801
 30
0.0
 11
-0.0
 21
26.0426517117
 31
0.0
 40
0.9791629624
 41
0.7254967705
 42
0.7497927885
  0
ELLIPSE
  5
851
100
AcDbEntity
  8
0
100
AcDbEllipse
 62
7
  6
CONTINUOUS
 10
123.6428544345
 20
151.2297771485
 30
0.0
 11
25.5
 21
-0.0
 31
0.0
 40
0.5106373301
 41
2.3205891153
 42
2.3442671383
  0
ELLIPSE
  5
852
100
AcDbEntity
  8
0
100
AcDbEllipse
 62
7
  6
CONTINUOUS
 10
123.6428544345
 20
169.016568228
 30
0.0
 11
25.5
 21
-0.0
 31
0.0
 40
0.5106380606
 41
3.1046725018
 42
3.1193849529
  0
ELLIPSE
  5
853
100
AcDbEntity
  8
0
100
AcDbEllipse
 62
7
  6
CONTINUOUS
 10
123.6428544345
 20
156.8197113697
 30
0.0
 11
25.5
 21
-0.0
 31
0.0
 40
0.2042556244
 41
2.3442671383
 42
2.3730818034
  0
ELLIPSE
  5
854
100
AcDbEntity
  8
0
100
AcDbEllipse
 62
7
  6
CONTINUOUS
 10
123.6428544345
 20
157.7984363988
 30
0.0
 11
25.0
 21
-0.0
 31
0.0
 40
0.2042556244
 41
2.5733718342
 42
2.5978996497
  0
ELLIPSE
  5
855
100
AcDbEntity
  8
0
100
AcDbEllipse
 62
7
  6
CONTINUOUS
 10
123.6428544345
 20
153.6765814277
 30
0.0
 11
25.0
 21
-0.0
 31
0.0
 40
0.5106373301
 41
2.553470096
 42
2.5733718342
  0
ELLIPSE
  5
856
100
AcDbEntity
  8
0
100
AcDbEllipse
 62
7
  6
CONTINUOUS
 10
123.6428544345
 20
146.5940422793
 30
0.0
 11
-0.0
 21
25.531865387
 31
0.0
 40
0.9791685653
 41
0.9625042877
 42
0.9826737692
  0
ELLIPSE
  5
857
100
AcDbEntity
  8
0
100
AcDbEllipse
 62
7
  6
CONTINUOUS
 10
123.6428544345
 20
132.0032619296
 30
0.0
 11
-0.0
 21
51.0640274345
 31
0.0
 40
0.4895814384
 41
0.952313129
 42
0.9625042877
  0
ELLIPSE
  5
858
100
AcDbEntity
  8
0
100
AcDbEllipse
 62
7
  6
CONTINUOUS
 10
123.6428544345
 20
87.5937372837
 30
0.0
 11
0.0
 21
127.6585852922
 31
0.0
 40
0.1958348508
 41
0.9471897401
 42
0.952313129
  0
ELLIPSE
  5
859
100
AcDbEntity
  8
0
100
AcDbEllipse
 62
7
  6
CONTINUOUS
 10
123.6428544345
 20
211.0200165681
 30
0.0
 11
-0.0
 21
78.1270541988
 31
0.0
 40
0.3263914179
 41
-4.0312144378
 42
-4.0259446336
  0
ELLIPSE
  5
85A
100
AcDbEntity
  8
0
100
AcDbEllipse
 62
7
  6
CONTINUOUS
 10
123.6428544345
 20
178.0093366823
 30
0.0
 11
-0.0
 21
26.0425561666
 31
0.0
 40
0.9791665548
 41
-4.0259446336
 42
-4.0099964068
  0
ELLIPSE
  5
85B
100
AcDbEntity
  8
0
100
AcDbEllipse
 62
7
  6
CONTINUOUS
 10
123.6428544345
 20
165.390839057
 30
0.0
 11
25.5
 21
0.0
 31
0.0
 40
0.2553200925
 41
-2.43920008
 42
-2.4175940178
  0
ELLIPSE
  5
85C
100
AcDbEntity
  8
0
100
AcDbEllipse
 62
7
  6
CONTINUOUS
 10
123.6428544345
 20
222.4029286394
 30
0.0
 11
0.0
 21
76.5951511753
 31
0.0
 40
0.3263914179
 41
-3.8570398134
 42
-3.8506642737
  0
ELLIPSE
  5
85D
100
AcDbEntity
  8
0
100
AcDbEllipse
 62
7
  6
CONTINUOUS
 10
123.6428544345
 20
190.2842246181
 30
0.0
 11
0.0
 21
34.0425491333
 31
0.0
 40
0.7343750875
 41
-3.8758926277
 42
-3.8570398134
  0
ELLIPSE
  5
85E
100
AcDbEntity
  8
0
100
AcDbEllipse
 62
7
  6
CONTINUOUS
 10
123.6428544345
 20
179.2286669097
 30
0.0
 11
25.0
 21
0.0
 31
0.0
 40
0.7659558946
 41
-2.3296383182
 42
-2.3050963009
  0
ELLIPSE
  5
85F
100
AcDbEntity
  8
0
100
AcDbEllipse
 62
7
  6
CONTINUOUS
 10
123.6428544345
 20
169.0389560467
 30
0.0
 11
25.0
 21
-0.0
 31
0.0
 40
0.2042556065
 41
-2.3594514732
 42
-2.3296383182
  0
ELLIPSE
  5
860
100
AcDbEntity
  8
0
100
AcDbEllipse
 62
7
  6
CONTINUOUS
 10
123.6428544345
 20
168.2709091771
 30
0.0
 11
25.0
 21
-0.0
 31
0.0
 40
0.2042551568
 41
2.937529323
 42
2.9566399947
  0
ELLIPSE
  5
861
100
AcDbEntity
  8
0
100
AcDbEllipse
 62
7
  6
CONTINUOUS
 10
123.6428544345
 20
166.7186929808
 30
0.0
 11
25.0
 21
-0.0
 31
0.0
 40
0.510638791
 41
2.9221865527
 42
2.937529323
  0
ELLIPSE
  5
862
100
AcDbEntity
  8
0
100
AcDbEllipse
 62
7
  6
CONTINUOUS
 10
123.6428544345
 20
163.9401799023
 30
0.0
 11
0.0
 21
25.5319384343
 31
0.0
 40
0.9791657639
 41
1.3359947766
 42
1.3513902259
  0
ELLIPSE
  5
863
100
AcDbEntity
  8
0
100
AcDbEllipse
 62
7
  6
CONTINUOUS
 10
123.6428544345
 20
158.0002077397
 30
0.0
 11
-0.0
 21
51.0637352443
 31
0.0
 40
0.4895842398
 41
1.3282759567
 42
1.3359947766
  0
ELLIPSE
  5
864
100
AcDbEntity
  8
0
100
AcDbEllipse
 62
7
  6
CONTINUOUS
 10
123.6428544345
 20
139.6056036554
 30
0.0
 11
-0.0
 21
127.6600462343
 31
0.0
 40
0.1958326096
 41
1.3244110651
 42
1.3282759567
  0
ELLIPSE
  5
865
100
AcDbEntity
  8
0
100
AcDbEllipse
 62
7
  6
CONTINUOUS
 10
123.6428544345
 20
203.314358177
 30
0.0
 11
-0.0
 21
127.6601177602
 31
0.0
 40
0.1958324999
 41
-4.4698686103
 42
-4.4660037187
  0
ELLIPSE
  5
866
100
AcDbEntity
  8
0
100
AcDbEllipse
 62
7
  6
CONTINUOUS
 10
123.6428544345
 20
184.9197347687
 30
0.0
 11
-0.0
 21
51.0637263036
 31
0.0
 40
0.4895843255
 41
-4.4775874301
 42
-4.4698686103
  0
ELLIPSE
  5
867
100
AcDbEntity
  8
0
100
AcDbEllipse
 62
7
  6
CONTINUOUS
 10
123.6428544345
 20
178.9797641661
 30
0.0
 11
-0.0
 21
25.5319361991
 31
0.0
 40
0.9791658496
 41
-4.4929828795
 42
-4.4775874301
  0
ELLIPSE
  5
868
100
AcDbEntity
  8
0
100
AcDbEllipse
 62
7
  6
CONTINUOUS
 10
123.6428544345
 20
176.2012512092
 30
0.0
 11
25.0
 21
-0.0
 31
0.0
 40
0.510638724
 41
-2.937529323
 42
-2.9221865527
  0
ELLIPSE
  5
869
100
AcDbEntity
  8
0
100
AcDbEllipse
 62
7
  6
CONTINUOUS
 10
123.6428544345
 20
174.6490352621
 30
0.0
 11
25.0
 21
-0.0
 31
0.0
 40
0.204255139
 41
-2.9566399947
 42
-2.937529323
  0
ELLIPSE
  5
86A
100
AcDbEntity
  8
0
100
AcDbEllipse
 62
7
  6
CONTINUOUS
 10
123.6428544345
 20
174.6490352621
 30
0.0
 11
25.5
 21
0.0
 31
0.0
 40
0.204255139
 41
-2.9603071928
 42
-2.9415853543
  0
ELLIPSE
  5
86B
100
AcDbEntity
  8
0
100
AcDbEllipse
 62
7
  6
CONTINUOUS
 10
123.6428544345
 20
171.0953614909
 30
0.0
 11
-0.0
 21
78.1279665345
 31
0.0
 40
0.3263876065
 41
-4.48212423
 42
-4.4779264594
  0
ELLIPSE
  5
86C
100
AcDbEntity
  8
0
100
AcDbEllipse
 62
7
  6
CONTINUOUS
 10
123.6428544345
 20
156.9781275234
 30
0.0
 11
25.5
 21
0.0
 31
0.0
 40
0.6808509827
 41
-2.9071301326
 42
-2.8945111442
  0
ELLIPSE
  5
86D
100
AcDbEntity
  8
0
100
AcDbEllipse
 62
7
  6
CONTINUOUS
 10
123.6428544345
 20
154.005758747
 30
0.0
 11
25.5
 21
-0.0
 31
0.0
 40
0.2042552105
 41
-2.8945111442
 42
-2.8733887313
  0
ELLIPSE
  5
86E
100
AcDbEntity
  8
0
100
AcDbEllipse
 62
7
  6
CONTINUOUS
 10
123.6428544345
 20
169.0389560467
 30
0.0
 11
25.5
 21
-0.0
 31
0.0
 40
0.2042556065
 41
-2.3787482354
 42
-2.3500969839
  0
ELLIPSE
  5
86F
100
AcDbEntity
  8
0
100
AcDbEllipse
 62
7
  6
CONTINUOUS
 10
123.6428544345
 20
179.2286669097
 30
0.0
 11
25.5
 21
-0.0
 31
0.0
 40
0.7659558946
 41
-2.3500969839
 42
-2.3265642229
  0
ELLIPSE
  5
870
100
AcDbEntity
  8
0
100
AcDbEllipse
 62
7
  6
CONTINUOUS
 10
123.6428544345
 20
190.2842246181
 30
0.0
 11
-0.0
 21
34.723400116
 31
0.0
 40
0.7343750875
 41
-3.8973605497
 42
-3.879318622
  0
ELLIPSE
  5
871
100
AcDbEntity
  8
0
100
AcDbEllipse
 62
7
  6
CONTINUOUS
 10
123.6428544345
 20
222.4029286394
 30
0.0
 11
0.0
 21
78.1270541988
 31
0.0
 40
0.3263914179
 41
-3.879318622
 42
-3.8732247744
  0
ELLIPSE
  5
872
100
AcDbEntity
  8
0
100
AcDbEllipse
 62
7
  6
CONTINUOUS
 10
123.6428544345
 20
176.2012512092
 30
0.0
 11
25.5
 21
-0.0
 31
0.0
 40
0.510638724
 41
-2.9415853543
 42
-2.9265569058
  0
ELLIPSE
  5
873
100
AcDbEntity
  8
0
100
AcDbEllipse
 62
7
  6
CONTINUOUS
 10
123.6428544345
 20
87.5937372837
 30
0.0
 11
0.0
 21
130.211756998
 31
0.0
 40
0.1958348508
 41
0.961224604
 42
0.9661983413
  0
ELLIPSE
  5
874
100
AcDbEntity
  8
0
100
AcDbEllipse
 62
7
  6
CONTINUOUS
 10
123.6428544345
 20
132.0032619296
 30
0.0
 11
0.0
 21
52.0853079831
 31
0.0
 40
0.4895814384
 41
0.9661983413
 42
0.976094897
  0
ELLIPSE
  5
875
100
AcDbEntity
  8
0
100
AcDbEllipse
 62
7
  6
CONTINUOUS
 10
123.6428544345
 20
165.390839057
 30
0.0
 11
25.0
 21
0.0
 31
0.0
 40
0.2553200925
 41
3.8610368296
 42
3.8834160373
  0
ELLIPSE
  5
876
100
AcDbEntity
  8
0
100
AcDbEllipse
 62
7
  6
CONTINUOUS
 10
123.6428544345
 20
178.0093366823
 30
0.0
 11
-0.0
 21
25.5319178104
 31
0.0
 40
0.9791665548
 41
-4.0094448351
 42
-3.9929448044
  0
ELLIPSE
  5
877
100
AcDbEntity
  8
0
100
AcDbEllipse
 62
7
  6
CONTINUOUS
 10
123.6428544345
 20
211.0200165681
 30
0.0
 11
-0.0
 21
76.5951511753
 31
0.0
 40
0.3263914179
 41
-4.014893639
 42
-4.0094448351
  0
ELLIPSE
  5
878
100
AcDbEntity
  8
0
100
AcDbEllipse
 62
7
  6
CONTINUOUS
 10
123.6428544345
 20
146.5940422793
 30
0.0
 11
0.0
 21
26.0425026947
 31
0.0
 40
0.9791685653
 41
0.976094897
 42
0.9956929168
  0
ELLIPSE
  5
879
100
AcDbEntity
  8
0
100
AcDbEllipse
 62
7
  6
CONTINUOUS
 10
123.6428544345
 20
178.9797641661
 30
0.0
 11
0.0
 21
26.0425749231
 31
0.0
 40
0.9791658496
 41
-4.4973532326
 42
-4.4822752872
  0
ELLIPSE
  5
87A
100
AcDbEntity
  8
0
100
AcDbEllipse
 62
7
  6
CONTINUOUS
 10
123.6428544345
 20
153.6765814277
 30
0.0
 11
25.5
 21
-0.0
 31
0.0
 40
0.5106373301
 41
2.5664892436
 42
2.5858413694
  0
ELLIPSE
  5
87B
100
AcDbEntity
  8
0
100
AcDbEllipse
 62
7
  6
CONTINUOUS
 10
123.6428544345
 20
184.9197347687
 30
0.0
 11
0.0
 21
52.0850008297
 31
0.0
 40
0.4895843255
 41
-4.4822752872
 42
-4.4747164999
  0
ELLIPSE
  5
87C
100
AcDbEntity
  8
0
100
AcDbEllipse
 62
7
  6
CONTINUOUS
 10
123.6428544345
 20
157.7984363988
 30
0.0
 11
25.5
 21
-0.0
 31
0.0
 40
0.2042556244
 41
2.5858413694
 42
2.6097099402
  0
ELLIPSE
  5
87D
100
AcDbEntity
  8
0
100
AcDbEllipse
 62
7
  6
CONTINUOUS
 10
123.6428544345
 20
156.8197113697
 30
0.0
 11
25.0
 21
-0.0
 31
0.0
 40
0.2042556244
 41
2.3235632914
 42
2.3535606985
  0
ELLIPSE
  5
87E
100
AcDbEntity
  8
0
100
AcDbEllipse
 62
7
  6
CONTINUOUS
 10
123.6428544345
 20
151.2297771485
 30
0.0
 11
25.0
 21
0.0
 31
0.0
 40
0.5106373301
 41
2.2988563687
 42
2.3235632914
  0
ELLIPSE
  5
87F
100
AcDbEntity
  8
0
100
AcDbEllipse
 62
7
  6
CONTINUOUS
 10
123.6428544345
 20
141.7003248801
 30
0.0
 11
-0.0
 21
25.532011482
 31
0.0
 40
0.9791629624
 41
0.7026484918
 42
0.7280600419
  0
ELLIPSE
  5
880
100
AcDbEntity
  8
0
100
AcDbEllipse
 62
7
  6
CONTINUOUS
 10
123.6428544345
 20
122.2164392088
 30
0.0
 11
0.0
 21
51.0634430575
 31
0.0
 40
0.4895870412
 41
0.6896532334
 42
0.7026484918
  0
ELLIPSE
  5
881
100
AcDbEntity
  8
0
100
AcDbEllipse
 62
7
  6
CONTINUOUS
 10
123.6428544345
 20
201.5358525911
 30
0.0
 11
0.0
 21
51.0634519981
 31
0.0
 40
0.4895869555
 41
-3.8442411454
 42
-3.831245887
  0
ELLIPSE
  5
882
100
AcDbEntity
  8
0
100
AcDbEllipse
 62
7
  6
CONTINUOUS
 10
123.6428544345
 20
182.0519583911
 30
0.0
 11
0.0
 21
25.5320092469
 31
0.0
 40
0.9791630482
 41
-3.8696526955
 42
-3.8442411454
  0
ELLIPSE
  5
883
100
AcDbEntity
  8
0
100
AcDbEllipse
 62
7
  6
CONTINUOUS
 10
123.6428544345
 20
172.5225065399
 30
0.0
 11
25.0
 21
-0.0
 31
0.0
 40
0.510637263
 41
-2.3235632914
 42
-2.2988563687
  0
ELLIPSE
  5
884
100
AcDbEntity
  8
0
100
AcDbEllipse
 62
7
  6
CONTINUOUS
 10
123.6428544345
 20
166.9325732158
 30
0.0
 11
25.0
 21
0.0
 31
0.0
 40
0.2042556065
 41
-2.3535606985
 42
-2.3235632914
  0
ELLIPSE
  5
885
100
AcDbEntity
  8
0
100
AcDbEllipse
 62
7
  6
CONTINUOUS
 10
123.6428544345
 20
169.1333051262
 30
0.0
 11
25.0
 21
0.0
 31
0.0
 40
0.3404254913
 41
3.877778928
 42
3.8947789842
  0
ELLIPSE
  5
886
100
AcDbEntity
  8
0
100
AcDbEllipse
 62
7
  6
CONTINUOUS
 10
123.6428544345
 20
174.8479146446
 30
0.0
 11
25.0
 21
0.0
 31
0.0
 40
0.6808509827
 41
-2.4221484776
 42
-2.4054063791
  0
ELLIPSE
  5
887
100
AcDbEntity
  8
0
100
AcDbEllipse
 62
7
  6
CONTINUOUS
 10
123.6428544345
 20
214.1051154276
 30
0.0
 11
0.0
 21
76.5951511753
 31
0.0
 40
0.3263914179
 41
-3.9984710098
 42
-3.9929448044
  0
ELLIPSE
  5
888
100
AcDbEntity
  8
0
100
AcDbEllipse
 62
7
  6
CONTINUOUS
 10
123.6428544345
 20
209.0160042536
 30
0.0
 11
-0.0
 21
104.1717898833
 31
0.0
 40
0.2447879606
 41
-4.2456602004
 42
-4.24108077
  0
ELLIPSE
  5
889
100
AcDbEntity
  8
0
100
AcDbEllipse
 62
7
  6
CONTINUOUS
 10
123.6428544345
 20
179.4534506252
 30
0.0
 11
-0.0
 21
39.0635270994
 31
0.0
 40
0.6527828359
 41
-4.24108077
 42
-4.2318893885
  0
ELLIPSE
  5
88A
100
AcDbEntity
  8
0
100
AcDbEllipse
 62
7
  6
CONTINUOUS
 10
123.6428544345
 20
114.008824546
 30
0.0
 11
0.0
 21
76.5952227003
 31
0.0
 40
0.3263911132
 41
0.8513521508
 42
0.8568783562
  0
ELLIPSE
  5
88B
100
AcDbEntity
  8
0
100
AcDbEllipse
 62
7
  6
CONTINUOUS
 10
123.6428544345
 20
169.4223860377
 30
0.0
 11
25.5
 21
0.0
 31
0.0
 40
0.6808512211
 41
-2.6610930617
 42
-2.6472226779
  0
ELLIPSE
  5
88C
100
AcDbEntity
  8
0
100
AcDbEllipse
 62
7
  6
CONTINUOUS
 10
123.6428544345
 20
164.2738136525
 30
0.0
 11
25.5
 21
0.0
 31
0.0
 40
0.2553200925
 41
-2.6472226779
 42
-2.6285654719
  0
ELLIPSE
  5
88D
100
AcDbEntity
  8
0
100
AcDbEllipse
 62
7
  6
CONTINUOUS
 10
123.6428544345
 20
153.2660724616
 30
0.0
 11
25.0
 21
0.0
 31
0.0
 40
0.6808509827
 41
2.4054063791
 42
2.4221484776
  0
ELLIPSE
  5
88E
100
AcDbEntity
  8
0
100
AcDbEllipse
 62
7
  6
CONTINUOUS
 10
123.6428544345
 20
158.98068198
 30
0.0
 11
25.0
 21
-0.0
 31
0.0
 40
0.3404254913
 41
2.391144811
 42
2.4054063791
  0
ELLIPSE
  5
88F
100
AcDbEntity
  8
0
100
AcDbEllipse
 62
7
  6
CONTINUOUS
 10
123.6428544345
 20
155.8142701615
 30
0.0
 11
25.5
 21
0.0
 31
0.0
 40
0.2042553727
 41
-3.0603267639
 42
-3.0398157351
  0
ELLIPSE
  5
890
100
AcDbEntity
  8
0
100
AcDbEllipse
 62
7
  6
CONTINUOUS
 10
123.6428544345
 20
156.8726515198
 30
0.0
 11
25.5
 21
-0.0
 31
0.0
 40
0.6127654169
 41
-3.0398157351
 42
-3.0192616186
  0
ELLIPSE
  5
891
100
AcDbEntity
  8
0
100
AcDbEllipse
 62
7
  6
CONTINUOUS
 10
123.6428544345
 20
159.2031006435
 30
0.0
 11
-0.0
 21
34.7234663457
 31
0.0
 40
0.7343736868
 41
-4.5900579454
 42
-4.5777010945
  0
ELLIPSE
  5
892
100
AcDbEntity
  8
0
100
AcDbEllipse
 62
7
  6
CONTINUOUS
 10
123.6428544345
 20
163.2829347204
 30
0.0
 11
0.0
 21
65.1062692761
 31
0.0
 40
0.3916673507
 41
-4.5777010945
 42
-4.5694517709
  0
ELLIPSE
  5
893
100
AcDbEntity
  8
0
100
AcDbEllipse
 62
7
  6
CONTINUOUS
 10
123.6428544345
 20
144.3085003792
 30
0.0
 11
0.0
 21
65.1062601566
 31
0.0
 40
0.3916674055
 41
1.4278591173
 42
1.4361084409
  0
ELLIPSE
  5
894
100
AcDbEntity
  8
0
100
AcDbEllipse
 62
7
  6
CONTINUOUS
 10
123.6428544345
 20
148.3883328234
 30
0.0
 11
0.0
 21
34.7234693856
 31
0.0
 40
0.7343736225
 41
1.4361084409
 42
1.4484652918
  0
ELLIPSE
  5
895
100
AcDbEntity
  8
0
100
AcDbEllipse
 62
7
  6
CONTINUOUS
 10
123.6428544345
 20
150.7187821512
 30
0.0
 11
25.5
 21
0.0
 31
0.0
 40
0.6127654705
 41
3.0192616186
 42
3.0398157351
  0
ELLIPSE
  5
896
100
AcDbEntity
  8
0
100
AcDbEllipse
 62
7
  6
CONTINUOUS
 10
123.6428544345
 20
203.314358177
 30
0.0
 11
0.0
 21
130.2133201154
 31
0.0
 40
0.1958324999
 41
-4.4747164999
 42
-4.4709319598
  0
ELLIPSE
  5
897
100
AcDbEntity
  8
0
100
AcDbEllipse
 62
7
  6
CONTINUOUS
 10
123.6428544345
 20
151.7771636021
 30
0.0
 11
25.5
 21
0.0
 31
0.0
 40
0.2042553906
 41
3.0398157351
 42
3.0603267639
  0
ELLIPSE
  5
898
100
AcDbEntity
  8
0
100
AcDbEllipse
 62
7
  6
CONTINUOUS
 10
123.6428544345
 20
154.5131647934
 30
0.0
 11
-0.0
 21
52.0851589657
 31
0.0
 40
0.4895828391
 41
-4.6924857055
 42
-4.6843134045
  0
ELLIPSE
  5
899
100
AcDbEntity
  8
0
100
AcDbEllipse
 62
7
  6
CONTINUOUS
 10
123.6428544345
 20
153.5384117567
 30
0.0
 11
25.5
 21
-0.0
 31
0.0
 40
0.6808509827
 41
-3.1135170777
 42
-3.1012549257
  0
ELLIPSE
  5
89A
100
AcDbEntity
  8
0
100
AcDbEllipse
 62
7
  6
CONTINUOUS
 10
123.6428544345
 20
153.1008231157
 30
0.0
 11
25.5
 21
0.0
 31
0.0
 40
0.2553189968
 41
3.1819303814
 42
3.1982896913
  0
ELLIPSE
  5
89B
100
AcDbEntity
  8
0
100
AcDbEllipse
 62
7
  6
CONTINUOUS
 10
123.6428544345
 20
139.6056036554
 30
0.0
 11
-0.0
 21
130.213247159
 31
0.0
 40
0.1958326096
 41
1.3293393062
 42
1.3331238464
  0
ELLIPSE
  5
89C
100
AcDbEntity
  8
0
100
AcDbEllipse
 62
7
  6
CONTINUOUS
 10
123.6428544345
 20
158.0002077397
 30
0.0
 11
-0.0
 21
52.0850099492
 31
0.0
 40
0.4895842398
 41
1.3331238464
 42
1.3406826336
  0
ELLIPSE
  5
89D
100
AcDbEntity
  8
0
100
AcDbEllipse
 62
7
  6
CONTINUOUS
 10
123.6428544345
 20
154.4906107594
 30
0.0
 11
25.5
 21
-0.0
 31
0.0
 40
0.2553189968
 41
3.0848956159
 42
3.1012549257
  0
ELLIPSE
  5
89E
100
AcDbEntity
  8
0
100
AcDbEllipse
 62
7
  6
CONTINUOUS
 10
123.6428544345
 20
153.9655036641
 30
0.0
 11
25.5
 21
-0.0
 31
0.0
 40
0.765958086
 41
3.1012549257
 42
3.1176034169
  0
ELLIPSE
  5
89F
100
AcDbEntity
  8
0
100
AcDbEllipse
 62
7
  6
CONTINUOUS
 10
123.6428544345
 20
147.2001011216
 30
0.0
 11
0.0
 21
78.1270541988
 31
0.0
 40
0.3263914179
 41
1.3561117919
 42
1.3602908786
  0
ELLIPSE
  5
8A0
100
AcDbEntity
  8
0
100
AcDbEllipse
 62
7
  6
CONTINUOUS
 10
123.6428544345
 20
156.2694776841
 30
0.0
 11
0.0
 21
34.723400116
 31
0.0
 40
0.7343750875
 41
1.3602908786
 42
1.3728060022
  0
ELLIPSE
  5
8A1
100
AcDbEntity
  8
0
100
AcDbEllipse
 62
7
  6
CONTINUOUS
 10
123.6428544345
 20
159.257618227
 30
0.0
 11
25.5
 21
0.0
 31
0.0
 40
0.7659602774
 41
2.943602329
 42
2.9602407123
  0
ELLIPSE
  5
8A2
100
AcDbEntity
  8
0
100
AcDbEllipse
 62
7
  6
CONTINUOUS
 10
123.6428544345
 20
161.8409963728
 30
0.0
 11
25.5
 21
0.0
 31
0.0
 40
0.2042546715
 41
2.9602407123
 42
2.9809682443
  0
ELLIPSE
  5
8A3
100
AcDbEntity
  8
0
100
AcDbEllipse
 62
7
  6
CONTINUOUS
 10
123.6428544345
 20
163.9401799023
 30
0.0
 11
-0.0
 21
26.042577203
 31
0.0
 40
0.9791657639
 41
1.3406826336
 42
1.355760579
  0
ELLIPSE
  5
8A4
100
AcDbEntity
  8
0
100
AcDbEllipse
 62
7
  6
CONTINUOUS
 10
123.6428544345
 20
166.2729907335
 30
0.0
 11
25.5
 21
-0.0
 31
0.0
 40
0.2042546715
 41
-2.9809682443
 42
-2.9602407123
  0
ELLIPSE
  5
8A5
100
AcDbEntity
  8
0
100
AcDbEllipse
 62
7
  6
CONTINUOUS
 10
123.6428544345
 20
168.8563688792
 30
0.0
 11
25.5
 21
0.0
 31
0.0
 40
0.7659602774
 41
-2.9602407123
 42
-2.943602329
  0
ELLIPSE
  5
8A6
100
AcDbEntity
  8
0
100
AcDbEllipse
 62
7
  6
CONTINUOUS
 10
123.6428544345
 20
171.8445094221
 30
0.0
 11
0.0
 21
34.723400116
 31
0.0
 40
0.7343750875
 41
-4.5143986558
 42
-4.5018835321
  0
ELLIPSE
  5
8A7
100
AcDbEntity
  8
0
100
AcDbEllipse
 62
7
  6
CONTINUOUS
 10
123.6428544345
 20
180.9138859846
 30
0.0
 11
-0.0
 21
78.1270541988
 31
0.0
 40
0.3263914179
 41
-4.5018835321
 42
-4.4977044455
  0
ELLIPSE
  5
8A8
100
AcDbEntity
  8
0
100
AcDbEllipse
 62
7
  6
CONTINUOUS
 10
123.6428544345
 20
166.7186929808
 30
0.0
 11
25.5
 21
-0.0
 31
0.0
 40
0.510638791
 41
2.9265569058
 42
2.9415853543
  0
ELLIPSE
  5
8A9
100
AcDbEntity
  8
0
100
AcDbEllipse
 62
7
  6
CONTINUOUS
 10
123.6428544345
 20
168.2709091771
 30
0.0
 11
25.5
 21
0.0
 31
0.0
 40
0.2042551568
 41
2.9415853543
 42
2.9603071928
  0
ENDSEC
  0
SECTION
  2
OBJECTS
  0
DICTIONARY
  5
C
100
AcDbDictionary
280
0
281
1
  3
ACAD_GROUP
350
D
  3
ACAD_MLINESTYLE
350
17
  3
ACAD_LAYOUT
350
1A
  3
ACAD_PLOTSETTINGS
350
19
  3
ACAD_PLOTSTYLENAME
350
E
  0
DICTIONARY
  5
D
102
{ACAD_REACTORS
330
C
102
}
100
AcDbDictionary
280
0
281
1
  0
ACDBDICTIONARYWDFLT
  5
E
102
{ACAD_REACTORS
330
C
102
}
100
AcDbDictionary
281
1
  3
Normal
350
F
100
AcDbDictionaryWithDefault
340
F
  0
DICTIONARY
  5
17
102
{ACAD_REACTORS
330
C
102
}
100
AcDbDictionary
280
0
281
1
  3
Standard
350
18
  0
DICTIONARY
  5
19
102
{ACAD_REACTORS
330
C
102
}
100
AcDbDictionary
281
1
  0
DICTIONARY
  5
1A
102
{ACAD_REACTORS
330
C
102
}
100
AcDbDictionary
281
1
  3
Model
350
8AA
  3
Layout1
350
8AB
  0
ACDBPLACEHOLDER
  5
F
102
{ACAD_REACTORS
330
E
102
}
  0
MLINESTYLE
  5
18
102
{ACAD_REACTORS
330
17
102
}
100
AcDbMlineStyle
  2
STANDARD
 70
0
  3

 62
256
 51
90.0
 52
90.0
 71
2
 49
0.5
 62
256
  6
BYLAYER
 49
-0.5
 62
256
  6
BYLAYER
  0
LAYOUT
  5
8AA
102
{ACAD_REACTORS
330
1A
102
}
100
AcDbPlotSettings
  1

  2
none_device
  4
ISO_A3_(420.00_x_297.00_MM)
  6

 40
0.0
 41
0.0
 42
0.0
 43
0.0
 44
420.0
 45
297.0
 46
0.0
 47
0.0
 48
0.0
 49
0.0
140
0.0
141
0.0
142
1.0
143
1.0
 70
1024
 72
1
 73
0
 74
0
  7

 75
0
147
1.0
148
0.0
149
0.0
100
AcDbLayout
  1
Model
 70
0
 71
0
 10
0.0
 20
0.0
 11
420.0
 21
297.0
 12
0.0
 22
0.0
 32
0.0
 14
0.0
 24
0.0
 34
0.0
 15
0.0
 25
0.0
 35
0.0
146
0.0
 13
0.0
 23
0.0
 33
0.0
 16
1.0
 26
0.0
 36
0.0
 17
0.0
 27
1.0
 37
0.0
 76
0
330
210
345
0
346
0
  0
LAYOUT
  5
8AB
102
{ACAD_REACTORS
330
1A
102
}
100
AcDbPlotSettings
  1

  2
none_device
  4
ISO_A3_(420.00_x_297.00_MM)
  6

 40
0.0
 41
0.0
 42
0.0
 43
0.0
 44
420.0
 45
297.0
 46
0.0
 47
0.0
 48
0.0
 49
0.0
140
0.0
141
0.0
142
1.0
143
1.0
 70
0
 72
1
 73
0
 74
0
  7

 75
0
147
1.0
148
0.0
149
0.0
100
AcDbLayout
  1
Layout1
 70
0
 71
1
 10
0.0
 20
0.0
 11
420.0
 21
297.0
 12
0.0
 22
0.0
 32
0.0
 14
0.0
 24
0.0
 34
0.0
 15
0.0
 25
0.0
 35
0.0
146
0.0
 13
0.0
 23
0.0
 33
0.0
 16
1.0
 26
0.0
 36
0.0
 17
0.0
 27
1.0
 37
0.0
 76
0
330
211
345
0
346
0
  0
ENDSEC
  0
EOF
