999
DXF file: 001-m35333-p-1.dxf
999
Pro/ENGINEER 2011490 by Parametric Technology Corporation
  0
SECTION
  2
HEADER
  9
$ACADVER
  1
AC1015
  9
$DWGCODEPAGE
  3
ANSI_1252
  9
$EXTMAX
 10
420.0
 20
297.0
 30
0.0
  9
$EXTMIN
 10
0.0
 20
0.0
 30
0.0
  9
$LIMMIN
 10
0.0
 20
0.0
  9
$LIMMAX
 10
420.0
 20
297.0
  9
$VIEWCTR
 10
210.0
 20
148.5
  9
$VIEWSIZE
 40
297.0
  9
$CLAYER
  8
0
  9
$LTSCALE
 40
23.1
  9
$CELTYPE
  6
BYLAYER
  9
$DIMSCALE
 40
1.0
  9
$DIMASZ
 40
3.5
  9
$DIMEXO
 40
2.625
  9
$DIMDLI
 40
15.96
  9
$DIMEXE
 40
7.56
  9
$DIMCEN
 40
3.78
  9
$DIMLFAC
 40
1.0
  9
$DIMBLK
  1
_FILLED
  9
$DIMTXT
 40
3.5
  9
$DIMTOL
 70
1
  9
$DIMLIM
 70
0
  9
$DIMTFAC
 40
1.0
  9
$DIMTP
 40
0.005
  9
$DIMTM
 40
0.005
  9
$PDMODE
 70
3
  9
$PDSIZE
 40
0.3125
  9
$HANDSEED
  5
792
  9
$TILEMODE
 70
1
  9
$MEASUREMENT
 70
1
  9
$INSUNITS
 70
4
  0
ENDSEC
  0
SECTION
  2
CLASSES
  0
CLASS
  1
ACDBDICTIONARYWDFLT
  2
AcDbDictionaryWithDefault
  3
AutoCAD 2000
 90
0
280
0
281
0
  0
CLASS
  1
ACDBPLACEHOLDER
  2
AcDbPlaceHolder
  3
AutoCAD 2000
 90
0
280
0
281
0
  0
CLASS
  1
LAYOUT
  2
AcDbLayout
  3
AutoCAD 2000
 90
0
280
0
281
0
  0
ENDSEC
  0
SECTION
  2
TABLES
  0
TABLE
  2
VPORT
  5
8
100
AcDbSymbolTable
 70
2
  0
VPORT
  5
1F4
100
AcDbSymbolTableRecord
100
AcDbViewportTableRecord
  2
*ACTIVE
 70
0
 10
0.0
 20
0.0
 11
1.0
 21
1.0
 12
210.0
 22
148.5
 13
0.0
 23
0.0
 14
1.0
 24
1.0
 15
0.0
 25
0.0
 16
0.0
 26
0.0
 36
1.0
 17
0.0
 27
0.0
 37
0.0
 40
297.0
 41
1.4141414141
 42
50.0
 43
0.0
 44
0.0
 50
0.0
 51
0.0
 71
0
 72
100
 73
1
 74
1
 75
0
 76
0
 77
0
 78
0
  0
ENDTAB
  0
TABLE
  2
LTYPE
  5
5
100
AcDbSymbolTable
 70
6
  0
LTYPE
  5
14
100
AcDbSymbolTableRecord
100
AcDbLinetypeTableRecord
  2
BYBLOCK
 70
0
  3

 72
65
 73
0
 40
0.0
  0
LTYPE
  5
15
100
AcDbSymbolTableRecord
100
AcDbLinetypeTableRecord
  2
BYLAYER
 70
0
  3

 72
65
 73
0
 40
0.0
  0
LTYPE
  5
16
100
AcDbSymbolTableRecord
100
AcDbLinetypeTableRecord
  2
CONTINUOUS
 70
64
  3
Solid line
 72
65
 73
0
 40
0.0
  0
LTYPE
  5
1F5
100
AcDbSymbolTableRecord
100
AcDbLinetypeTableRecord
  2
CENTER
 70
64
  3
____ _ ____ _ ____ _ ____ _ ____ _ ____ _ ____
 72
65
 73
4
 40
0.6
 49
0.375
 74
0
 49
-0.075
 74
0
 49
0.075
 74
0
 49
-0.075
 74
0
  0
LTYPE
  5
1F6
100
AcDbSymbolTableRecord
100
AcDbLinetypeTableRecord
  2
HIDDEN
 70
64
  3
- - - - - - - - - - - - - - - - - - - -
 72
65
 73
2
 40
0.2
 49
0.1
 74
0
 49
-0.1
 74
0
  0
LTYPE
  5
1F7
100
AcDbSymbolTableRecord
100
AcDbLinetypeTableRecord
  2
PHANTOM
 70
64
  3
_____ _ _ _____ _ _ _____ _ _ _____
 72
65
 73
6
 40
0.8
 49
0.45
 74
0
 49
-0.05
 74
0
 49
0.1
 74
0
 49
-0.05
 74
0
 49
0.1
 74
0
 49
-0.05
 74
0
  0
LTYPE
  5
1F8
100
AcDbSymbolTableRecord
100
AcDbLinetypeTableRecord
  2
DOT
 70
64
  3
. . . . . . . . . . . . . . . . . . . .
 72
65
 73
2
 40
0.2
 49
0.1
 74
0
 49
-0.1
 74
0
  0
LTYPE
  5
1F9
100
AcDbSymbolTableRecord
100
AcDbLinetypeTableRecord
  2
DASHED
 70
64
  3
- - - - - - - - - - - - - - - - - - - -
 72
65
 73
2
 40
0.2
 49
0.1
 74
0
 49
-0.1
 74
0
  0
ENDTAB
  0
TABLE
  2
LAYER
  5
2
100
AcDbSymbolTable
 70
36
  0
LAYER
  5
10
100
AcDbSymbolTableRecord
100
AcDbLayerTableRecord
  2
0
 70
0
 62
7
  6
CONTINUOUS
370
-3
390
F
  0
LAYER
  5
1FA
100
AcDbSymbolTableRecord
100
AcDbLayerTableRecord
  2
DEFAULT_1
 70
0
 62
7
  6
CENTER
370
-3
390
F
  0
LAYER
  5
1FB
100
AcDbSymbolTableRecord
100
AcDbLayerTableRecord
  2
DEFAULT_2
 70
0
 62
8
  6
HIDDEN
370
-3
390
F
  0
LAYER
  5
1FC
100
AcDbSymbolTableRecord
100
AcDbLayerTableRecord
  2
DEFAULT_3
 70
0
 62
7
  6
PHANTOM
370
-3
390
F
  0
LAYER
  5
1FD
100
AcDbSymbolTableRecord
100
AcDbLayerTableRecord
  2
AUSFORMSCHRAEGEN
 70
0
 62
7
  6
CONTINUOUS
370
-3
390
F
  0
LAYER
  5
1FE
100
AcDbSymbolTableRecord
100
AcDbLayerTableRecord
  2
BEZUGSACHSEN
 70
0
 62
7
  6
CONTINUOUS
370
-3
390
F
  0
LAYER
  5
1FF
100
AcDbSymbolTableRecord
100
AcDbLayerTableRecord
  2
BEZUGSEBENEN
 70
0
 62
7
  6
CONTINUOUS
370
-3
390
F
  0
LAYER
  5
200
100
AcDbSymbolTableRecord
100
AcDbLayerTableRecord
  2
BG_STARTBEZUEGE
 70
0
 62
7
  6
CONTINUOUS
370
-3
390
F
  0
LAYER
  5
201
100
AcDbSymbolTableRecord
100
AcDbLayerTableRecord
  2
BOHRUNGEN
 70
0
 62
7
  6
CONTINUOUS
370
-3
390
F
  0
LAYER
  5
202
100
AcDbSymbolTableRecord
100
AcDbLayerTableRecord
  2
FASEN
 70
0
 62
7
  6
CONTINUOUS
370
-3
390
F
  0
LAYER
  5
203
100
AcDbSymbolTableRecord
100
AcDbLayerTableRecord
  2
GEWINDE
 70
0
 62
7
  6
CONTINUOUS
370
-3
390
F
  0
LAYER
  5
204
100
AcDbSymbolTableRecord
100
AcDbLayerTableRecord
  2
HILFEN
 70
0
 62
7
  6
CONTINUOUS
370
-3
390
F
  0
LAYER
  5
205
100
AcDbSymbolTableRecord
100
AcDbLayerTableRecord
  2
KONSTRUKTIONSELEMENTE
 70
0
 62
7
  6
CONTINUOUS
370
-3
390
F
  0
LAYER
  5
206
100
AcDbSymbolTableRecord
100
AcDbLayerTableRecord
  2
KURVEN
 70
0
 62
7
  6
CONTINUOUS
370
-3
390
F
  0
LAYER
  5
207
100
AcDbSymbolTableRecord
100
AcDbLayerTableRecord
  2
NORM
 70
0
 62
7
  6
CONTINUOUS
370
-3
390
F
  0
LAYER
  5
208
100
AcDbSymbolTableRecord
100
AcDbLayerTableRecord
  2
PLATZIERUNG
 70
0
 62
7
  6
CONTINUOUS
370
-3
390
F
  0
LAYER
  5
209
100
AcDbSymbolTableRecord
100
AcDbLayerTableRecord
  2
PLAZIERUNG
 70
0
 62
7
  6
CONTINUOUS
370
-3
390
F
  0
LAYER
  5
20A
100
AcDbSymbolTableRecord
100
AcDbLayerTableRecord
  2
RUNDUNGEN
 70
0
 62
7
  6
CONTINUOUS
370
-3
390
F
  0
LAYER
  5
20B
100
AcDbSymbolTableRecord
100
AcDbLayerTableRecord
  2
TEIL_STARTBEZUEGE
 70
0
 62
7
  6
CONTINUOUS
370
-3
390
F
  0
LAYER
  5
20C
100
AcDbSymbolTableRecord
100
AcDbLayerTableRecord
  2
XSEC_DATUMS
 70
0
 62
7
  6
CONTINUOUS
370
-3
390
F
  0
LAYER
  5
20D
100
AcDbSymbolTableRecord
100
AcDbLayerTableRecord
  2
ZEICHNUNGSBEMASSUNGEN
 70
0
 62
7
  6
CONTINUOUS
370
-3
390
F
  0
ENDTAB
  0
TABLE
  2
STYLE
  5
3
100
AcDbSymbolTable
 70
1
  0
STYLE
  5
11
100
AcDbSymbolTableRecord
100
AcDbTextStyleTableRecord
  2
STANDARD
 70
0
 40
0.0
 41
0.7
 50
0.0
 71
0
 42
0.2
  3
txt
  4

  0
STYLE
  5
20E
100
AcDbSymbolTableRecord
100
AcDbTextStyleTableRecord
  2
TEXTSTYLE_1
 70
0
 40
0.0
 41
0.8
 50
0.0
 71
0
 42
0.2
  3
gdt
  4

  0
ENDTAB
  0
TABLE
  2
VIEW
  5
6
100
AcDbSymbolTable
 70
0
  0
ENDTAB
  0
TABLE
  2
UCS
  5
7
100
AcDbSymbolTable
 70
0
  0
ENDTAB
  0
TABLE
  2
APPID
  5
9
100
AcDbSymbolTable
 70
1
  0
APPID
  5
20F
100
AcDbSymbolTableRecord
100
AcDbRegAppTableRecord
  2
ACAD
 70
0
  0
ENDTAB
  0
TABLE
  2
BLOCK_RECORD
  5
1
100
AcDbSymbolTable
 70
0
  0
BLOCK_RECORD
  5
210
100
AcDbSymbolTableRecord
100
AcDbBlockTableRecord
  2
*Model_Space
  0
BLOCK_RECORD
  5
211
100
AcDbSymbolTableRecord
100
AcDbBlockTableRecord
  2
*Paper_Space
  0
ENDTAB
  0
TABLE
  2
DIMSTYLE
  5
A
100
AcDbSymbolTable
 70
1
100
AcDbDimStyleTable
 71
0
  0
DIMSTYLE
105
212
100
AcDbSymbolTableRecord
100
AcDbDimStyleTableRecord
  2
STANDARD
 70
0
  3

  4

 40
1.0
 41
3.5
 42
0.0625
 43
0.38
 44
0.18
 45
0.0
 46
0.0
 47
0.005
 48
0.005
140
3.5
141
0.09
142
0.0
143
25.4
144
1.0
145
0.0
146
1.0
147
0.09
 71
1.0
 72
0.0
 73
0
 74
0
 75
0
 76
0
 77
1
 78
8
170
0
171
2
172
0
173
0
174
0
175
0
176
0
177
0
178
5
270
2
271
3
272
3
273
2
274
2
275
0
280
0
281
0
282
0
283
1
284
8
285
0
286
0
287
3
288
0
340
11
  0
ENDTAB
  0
ENDSEC
  0
SECTION
  2
BLOCKS
  0
BLOCK
  5
20
100
AcDbEntity
  8
0
100
AcDbBlockBegin
  2
*Model_Space
 70
0
 10
0.0
 20
0.0
 30
0.0
  3
*Model_Space
  1

  0
ENDBLK
  5
21
100
AcDbEntity
  8
0
100
AcDbBlockEnd
  0
BLOCK
  5
1C
100
AcDbEntity
  8
0
100
AcDbBlockBegin
  2
*Paper_Space
 70
0
 10
0.0
 20
0.0
 30
0.0
  3
*Paper_Space
  1

  0
ENDBLK
  5
1D
100
AcDbEntity
  8
0
100
AcDbBlockEnd
  0
ENDSEC
  0
SECTION
  2
ENTITIES
  0
MTEXT
  5
213
100
AcDbEntity
  8
0
100
AcDbMText
 62
5
  6
CONTINUOUS
  7
STANDARD
 71
1
 72
1
 10
149.62300033
 20
174.0991073124
 30
0.0
 11
0.0
 21
1.0
 31
0.0
 44
0.9
  1
RUD VLBG-PLUS 2t
 40
5.0
 41
61.7857142857
  0
MTEXT
  5
214
100
AcDbEntity
  8
0
100
AcDbMText
 62
5
  6
CONTINUOUS
  7
STANDARD
 71
1
 72
1
 10
150.1421201034
 20
21.1790166763
 30
0.0
 11
0.0
 21
1.0
 31
0.0
 44
0.9
  1
VLBG-PLUS 2t
 40
5.0
 41
45.4761904762
  0
LINE
  5
215
100
AcDbEntity
  8
0
100
AcDbLine
 62
7
  6
CONTINUOUS
 10
0.0
 20
0.0
 11
0.0
 21
297.0
  0
LINE
  5
216
100
AcDbEntity
  8
0
100
AcDbLine
 62
7
  6
CONTINUOUS
 10
0.0
 20
0.0
 11
420.0
 21
0.0
  0
LINE
  5
217
100
AcDbEntity
  8
0
100
AcDbLine
 62
7
  6
CONTINUOUS
 10
0.0
 20
297.0
 11
420.0
 21
297.0
  0
LINE
  5
218
100
AcDbEntity
  8
0
100
AcDbLine
 62
7
  6
CONTINUOUS
 10
420.0
 20
0.0
 11
420.0
 21
297.0
  0
LINE
  5
219
100
AcDbEntity
  8
BEZUGSACHSEN
100
AcDbLine
 62
7
  6
CONTINUOUS
 10
118.6428517018
 20
106.5199722607
 11
134.6428517018
 21
106.5199722607
  0
LINE
  5
21A
100
AcDbEntity
  8
BEZUGSACHSEN
100
AcDbLine
 62
7
  6
CONTINUOUS
 10
117.6428517018
 20
107.5199722607
 11
135.6428517018
 21
107.5199722607
  0
LINE
  5
21B
100
AcDbEntity
  8
BEZUGSACHSEN
100
AcDbLine
 62
7
  6
CONTINUOUS
 10
117.6428517018
 20
107.5199722607
 11
118.6428517018
 21
106.5199722607
  0
LINE
  5
21C
100
AcDbEntity
  8
0
100
AcDbLine
 62
7
  6
CONTINUOUS
 10
150.1428517018
 20
143.7199722607
 11
103.1428517018
 21
143.7199722607
  0
LINE
  5
21D
100
AcDbEntity
  8
0
100
AcDbLine
 62
7
  6
CONTINUOUS
 10
98.1429486302
 20
171.7599722607
 11
98.1429227577
 21
171.7603216886
  0
LINE
  5
21E
100
AcDbEntity
  8
0
100
AcDbLine
 62
7
  6
CONTINUOUS
 10
150.1428517018
 20
148.9199722607
 11
103.1428517018
 21
148.9199722607
  0
LINE
  5
21F
100
AcDbEntity
  8
RUNDUNGEN
100
AcDbLine
 62
7
  6
CONTINUOUS
 10
151.6428517018
 20
149.1199722607
 11
100.6431213378
 21
149.1199722607
  0
LINE
  5
220
100
AcDbEntity
  8
0
100
AcDbLine
 62
7
  6
CONTINUOUS
 10
98.1428517018
 20
164.7484828324
 11
98.1428517018
 21
165.2803978116
  0
LINE
  5
221
100
AcDbEntity
  8
0
100
AcDbLine
 62
7
  6
CONTINUOUS
 10
98.1428517018
 20
171.7779135347
 11
98.1428517018
 21
172.6599722607
  0
LINE
  5
222
100
AcDbEntity
  8
0
100
AcDbLine
 62
7
  6
CONTINUOUS
 10
98.1435973009
 20
154.6999722607
 11
98.1435973009
 21
155.1255041621
  0
LINE
  5
223
100
AcDbEntity
  8
0
100
AcDbLine
 62
7
  6
CONTINUOUS
 10
98.1460416585
 20
157.6786956079
 11
98.1460416585
 21
158.104227472
  0
LINE
  5
224
100
AcDbEntity
  8
0
100
AcDbLine
 62
7
  6
CONTINUOUS
 10
98.1536639205
 20
155.7638020701
 11
98.1536639205
 21
157.6786956079
  0
LINE
  5
225
100
AcDbEntity
  8
0
100
AcDbLine
 62
7
  6
CONTINUOUS
 10
98.1536639205
 20
158.104227472
 11
98.1536639205
 21
158.9552914984
  0
LINE
  5
226
100
AcDbEntity
  8
0
100
AcDbLine
 62
7
  6
CONTINUOUS
 10
98.1537368682
 20
164.7484828324
 11
98.1537368682
 21
165.2803978116
  0
LINE
  5
227
100
AcDbEntity
  8
0
100
AcDbLine
 62
7
  6
CONTINUOUS
 10
98.1563631245
 20
173.5249722607
 11
98.1563631245
 21
176.1699722607
  0
LINE
  5
228
100
AcDbEntity
  8
0
100
AcDbLine
 62
7
  6
CONTINUOUS
 10
98.191744331
 20
162.9399722607
 11
98.191744331
 21
167.9399722607
  0
LINE
  5
229
100
AcDbEntity
  8
0
100
AcDbLine
 62
7
  6
CONTINUOUS
 10
98.2016036978
 20
173.5249722607
 11
98.2016036978
 21
176.1699722607
  0
LINE
  5
22A
100
AcDbEntity
  8
0
100
AcDbLine
 62
7
  6
CONTINUOUS
 10
98.238219728
 20
162.9399722607
 11
98.238219728
 21
165.1740148456
  0
LINE
  5
22B
100
AcDbEntity
  8
0
100
AcDbLine
 62
7
  6
CONTINUOUS
 10
98.238219728
 20
165.8123126418
 11
98.238219728
 21
167.4080574305
  0
LINE
  5
22C
100
AcDbEntity
  8
0
100
AcDbLine
 62
7
  6
CONTINUOUS
 10
98.2788397951
 20
171.7599722607
 11
98.2788397951
 21
175.1199722607
  0
LINE
  5
22D
100
AcDbEntity
  8
0
100
AcDbLine
 62
7
  6
CONTINUOUS
 10
98.2788397951
 20
175.4199722607
 11
98.2788397951
 21
176.1699722607
  0
LINE
  5
22E
100
AcDbEntity
  8
0
100
AcDbLine
 62
7
  6
CONTINUOUS
 10
98.3883649717
 20
172.5099722607
 11
98.3883649717
 21
175.1199722607
  0
LINE
  5
22F
100
AcDbEntity
  8
0
100
AcDbLine
 62
7
  6
CONTINUOUS
 10
98.6001293308
 20
166.4506104381
 11
98.6001293308
 21
166.7697596342
  0
LINE
  5
230
100
AcDbEntity
  8
0
100
AcDbLine
 62
7
  6
CONTINUOUS
 10
98.6428517018
 20
167.9399722607
 11
98.6428517018
 21
171.7645386358
  0
LINE
  5
231
100
AcDbEntity
  8
0
100
AcDbLine
 62
7
  6
CONTINUOUS
 10
98.6428517018
 20
176.1699722607
 11
98.6428517018
 21
179.1199722607
  0
LINE
  5
232
100
AcDbEntity
  8
0
100
AcDbLine
 62
7
  6
CONTINUOUS
 10
98.6428517018
 20
151.1199722607
 11
98.6436122133
 21
155.1255041621
  0
LINE
  5
233
100
AcDbEntity
  8
0
100
AcDbLine
 62
7
  6
CONTINUOUS
 10
98.6428517018
 20
155.1653340638
 11
98.6428517018
 21
162.9399722607
  0
LINE
  5
234
100
AcDbEntity
  8
0
100
AcDbLine
 62
7
  6
CONTINUOUS
 10
98.7061097333
 20
173.4099722607
 11
98.7061097333
 21
174.5199722607
  0
LINE
  5
235
100
AcDbEntity
  8
0
100
AcDbLine
 62
7
  6
CONTINUOUS
 10
98.7282386454
 20
166.344227472
 11
98.7282386454
 21
166.7697596342
  0
LINE
  5
236
100
AcDbEntity
  8
0
100
AcDbLine
 62
7
  6
CONTINUOUS
 10
98.740134466
 20
162.9399722607
 11
98.740134466
 21
165.1740148456
  0
LINE
  5
237
100
AcDbEntity
  8
0
100
AcDbLine
 62
7
  6
CONTINUOUS
 10
98.9246530902
 20
162.9399722607
 11
98.9246530902
 21
167.9399722607
  0
LINE
  5
238
100
AcDbEntity
  8
0
100
AcDbLine
 62
7
  6
CONTINUOUS
 10
99.0915497622
 20
163.5782701314
 11
99.0915497622
 21
167.9399722607
  0
LINE
  5
239
100
AcDbEntity
  8
0
100
AcDbLine
 62
7
  6
CONTINUOUS
 10
99.6112802399
 20
163.5782701314
 11
99.6112802399
 21
167.9399722607
  0
LINE
  5
23A
100
AcDbEntity
  8
0
100
AcDbLine
 62
7
  6
CONTINUOUS
 10
100.1921992895
 20
162.9399722607
 11
100.1921992895
 21
163.5782701314
  0
LINE
  5
23B
100
AcDbEntity
  8
0
100
AcDbLine
 62
7
  6
CONTINUOUS
 10
100.5659029131
 20
164.6420998663
 11
100.5659029131
 21
167.9399722607
  0
LINE
  5
23C
100
AcDbEntity
  8
0
100
AcDbLine
 62
7
  6
CONTINUOUS
 10
100.7368896273
 20
162.9399722607
 11
100.7368896273
 21
163.5782701314
  0
LINE
  5
23D
100
AcDbEntity
  8
0
100
AcDbLine
 62
7
  6
CONTINUOUS
 10
100.8702040501
 20
164.6420998663
 11
100.8702040501
 21
167.9399722607
  0
LINE
  5
23E
100
AcDbEntity
  8
0
100
AcDbLine
 62
7
  6
CONTINUOUS
 10
101.4315149327
 20
164.6420998663
 11
101.4315149327
 21
167.9399722607
  0
LINE
  5
23F
100
AcDbEntity
  8
0
100
AcDbLine
 62
7
  6
CONTINUOUS
 10
102.3127639438
 20
164.6420998663
 11
102.3127639438
 21
167.9399722607
  0
LINE
  5
240
100
AcDbEntity
  8
0
100
AcDbLine
 62
7
  6
CONTINUOUS
 10
102.7355728393
 20
164.6420998663
 11
102.7355728393
 21
167.9399722607
  0
LINE
  5
241
100
AcDbEntity
  8
0
100
AcDbLine
 62
7
  6
CONTINUOUS
 10
103.1428517018
 20
148.9199722607
 11
103.1428517018
 21
143.7199722607
  0
LINE
  5
242
100
AcDbEntity
  8
0
100
AcDbLine
 62
7
  6
CONTINUOUS
 10
103.348411344
 20
164.6420998663
 11
103.348411344
 21
167.9399722607
  0
LINE
  5
243
100
AcDbEntity
  8
0
100
AcDbLine
 62
7
  6
CONTINUOUS
 10
103.5843129963
 20
166.344227472
 11
103.5843129963
 21
166.7697596342
  0
LINE
  5
244
100
AcDbEntity
  8
0
100
AcDbLine
 62
7
  6
CONTINUOUS
 10
98.1435973009
 20
154.6999722607
 11
98.6436122133
 21
154.6999722607
  0
LINE
  5
245
100
AcDbEntity
  8
0
100
AcDbLine
 62
7
  6
CONTINUOUS
 10
98.1435973009
 20
155.1255041621
 11
98.6436122133
 21
155.1255041621
  0
LINE
  5
246
100
AcDbEntity
  8
0
100
AcDbLine
 62
7
  6
CONTINUOUS
 10
98.1449335529
 20
155.2318871654
 11
98.6449751366
 21
155.2318871654
  0
LINE
  5
247
100
AcDbEntity
  8
0
100
AcDbLine
 62
7
  6
CONTINUOUS
 10
98.1508425458
 20
155.4446530975
 11
98.6510024143
 21
155.4446530975
  0
LINE
  5
248
100
AcDbEntity
  8
0
100
AcDbLine
 62
7
  6
CONTINUOUS
 10
98.1536639205
 20
155.7638020701
 11
98.6428517018
 21
155.7638020701
  0
LINE
  5
249
100
AcDbEntity
  8
0
100
AcDbLine
 62
7
  6
CONTINUOUS
 10
152.2214821865
 20
156.8699722607
 11
152.064221217
 21
156.8699722607
  0
LINE
  5
24A
100
AcDbEntity
  8
0
100
AcDbLine
 62
7
  6
CONTINUOUS
 10
98.1460416585
 20
157.6786956079
 11
98.6461054658
 21
157.6786956079
  0
LINE
  5
24B
100
AcDbEntity
  8
0
100
AcDbLine
 62
7
  6
CONTINUOUS
 10
98.1460416585
 20
158.104227472
 11
98.6461054658
 21
158.104227472
  0
LINE
  5
24C
100
AcDbEntity
  8
0
100
AcDbLine
 62
7
  6
CONTINUOUS
 10
98.1536639205
 20
158.9552914984
 11
98.6428517018
 21
158.9552914984
  0
LINE
  5
24D
100
AcDbEntity
  8
0
100
AcDbLine
 62
7
  6
CONTINUOUS
 10
98.3774257481
 20
159.3808233625
 11
98.6428517018
 21
159.3808233625
  0
LINE
  5
24E
100
AcDbEntity
  8
0
100
AcDbLine
 62
7
  6
CONTINUOUS
 10
104.0910461585
 20
166.4506104381
 11
104.0910461585
 21
166.6633763701
  0
LINE
  5
24F
100
AcDbEntity
  8
0
100
AcDbLine
 62
7
  6
CONTINUOUS
 10
104.1428517018
 20
186.5199722607
 11
104.1428517018
 21
181.3199722607
  0
LINE
  5
250
100
AcDbEntity
  8
0
100
AcDbLine
 62
7
  6
CONTINUOUS
 10
104.7477967931
 20
166.4506104381
 11
104.7477967931
 21
166.6633763701
  0
LINE
  5
251
100
AcDbEntity
  8
0
100
AcDbLine
 62
7
  6
CONTINUOUS
 10
106.2649298594
 20
164.2165680022
 11
106.2649298594
 21
164.5357169003
  0
LINE
  5
252
100
AcDbEntity
  8
0
100
AcDbLine
 62
7
  6
CONTINUOUS
 10
106.9612912761
 20
164.1101850361
 11
106.9612912761
 21
164.6420998663
  0
LINE
  5
253
100
AcDbEntity
  8
0
100
AcDbLine
 62
7
  6
CONTINUOUS
 10
107.7361091618
 20
164.1101850361
 11
107.7361091618
 21
164.6420998663
  0
LINE
  5
254
100
AcDbEntity
  8
BEZUGSACHSEN
100
AcDbLine
 62
7
  6
CONTINUOUS
 10
109.3223436261
 20
187.0199722607
 11
109.3223436261
 21
197.6802262985
  0
LINE
  5
255
100
AcDbEntity
  8
0
100
AcDbLine
 62
7
  6
CONTINUOUS
 10
98.4378433949
 20
159.5935892946
 11
98.6428517018
 21
159.5935892946
  0
LINE
  5
256
100
AcDbEntity
  8
0
100
AcDbLine
 62
7
  6
CONTINUOUS
 10
98.54170743
 20
159.6999722607
 11
98.6428517018
 21
159.6999722607
  0
LINE
  5
257
100
AcDbEntity
  8
0
100
AcDbLine
 62
7
  6
CONTINUOUS
 10
98.191744331
 20
162.9399722607
 11
98.740134466
 21
162.9399722607
  0
LINE
  5
258
100
AcDbEntity
  8
0
100
AcDbLine
 62
7
  6
CONTINUOUS
 10
98.9246530902
 20
162.9399722607
 11
100.7368896273
 21
162.9399722607
  0
LINE
  5
259
100
AcDbEntity
  8
0
100
AcDbLine
 62
7
  6
CONTINUOUS
 10
101.4256526014
 20
162.9399722607
 11
102.2477484361
 21
162.9399722607
  0
LINE
  5
25A
100
AcDbEntity
  8
0
100
AcDbLine
 62
7
  6
CONTINUOUS
 10
104.5391929906
 20
162.9399722607
 11
106.0118027312
 21
162.9399722607
  0
LINE
  5
25B
100
AcDbEntity
  8
0
100
AcDbLine
 62
7
  6
CONTINUOUS
 10
101.9804916363
 20
163.046355236
 11
102.5713580763
 21
163.046355236
  0
LINE
  5
25C
100
AcDbEntity
  8
0
100
AcDbLine
 62
7
  6
CONTINUOUS
 10
105.8279709837
 20
163.046355236
 11
106.5513340687
 21
163.046355236
  0
LINE
  5
25D
100
AcDbEntity
  8
0
100
AcDbLine
 62
7
  6
CONTINUOUS
 10
102.2448821719
 20
163.259121196
 11
102.8432579557
 21
163.259121196
  0
LINE
  5
25E
100
AcDbEntity
  8
0
100
AcDbLine
 62
7
  6
CONTINUOUS
 10
106.2649298594
 20
163.259121196
 11
107.0072823529
 21
163.259121196
  0
LINE
  5
25F
100
AcDbEntity
  8
0
100
AcDbLine
 62
7
  6
CONTINUOUS
 10
99.0915497622
 20
163.5782701314
 11
100.7368896273
 21
163.5782701314
  0
LINE
  5
260
100
AcDbEntity
  8
0
100
AcDbLine
 62
7
  6
CONTINUOUS
 10
101.4256526014
 20
163.5782701314
 11
101.6655806303
 21
163.5782701314
  0
LINE
  5
261
100
AcDbEntity
  8
0
100
AcDbLine
 62
7
  6
CONTINUOUS
 10
104.5391929906
 20
163.5782701314
 11
105.3097153689
 21
163.5782701314
  0
LINE
  5
262
100
AcDbEntity
  8
0
100
AcDbLine
 62
7
  6
CONTINUOUS
 10
101.1960223769
 20
163.6846530975
 11
101.7656913115
 21
163.6846530975
  0
LINE
  5
263
100
AcDbEntity
  8
0
100
AcDbLine
 62
7
  6
CONTINUOUS
 10
102.5207984671
 20
163.6846530975
 11
103.1272202748
 21
163.6846530975
  0
LINE
  5
264
100
AcDbEntity
  8
0
100
AcDbLine
 62
7
  6
CONTINUOUS
 10
104.1787358355
 20
163.6846530975
 11
104.838548831
 21
163.6846530975
  0
LINE
  5
265
100
AcDbEntity
  8
0
100
AcDbLine
 62
7
  6
CONTINUOUS
 10
106.7234182731
 20
163.6846530975
 11
107.48682411
 21
163.6846530975
  0
LINE
  5
266
100
AcDbEntity
  8
0
100
AcDbLine
 62
7
  6
CONTINUOUS
 10
101.0303668725
 20
163.8974191041
 11
101.595755064
 21
163.8974191041
  0
LINE
  5
267
100
AcDbEntity
  8
0
100
AcDbLine
 62
7
  6
CONTINUOUS
 10
103.9184884708
 20
164.0038020701
 11
104.569296583
 21
164.0038020701
  0
LINE
  5
268
100
AcDbEntity
  8
0
100
AcDbLine
 62
7
  6
CONTINUOUS
 10
102.663219317
 20
164.1101850361
 11
103.2738808146
 21
164.1101850361
  0
LINE
  5
269
100
AcDbEntity
  8
0
100
AcDbLine
 62
7
  6
CONTINUOUS
 10
106.9612912761
 20
164.1101850361
 11
107.7361091618
 21
164.1101850361
  0
LINE
  5
26A
100
AcDbEntity
  8
0
100
AcDbLine
 62
7
  6
CONTINUOUS
 10
100.922987802
 20
164.2165680022
 11
101.4856358201
 21
164.2165680022
  0
LINE
  5
26B
100
AcDbEntity
  8
0
100
AcDbLine
 62
7
  6
CONTINUOUS
 10
103.3429023484
 20
164.3229509682
 11
104.4815184039
 21
164.3229509682
  0
LINE
  5
26C
100
AcDbEntity
  8
0
100
AcDbLine
 62
7
  6
CONTINUOUS
 10
100.8702040501
 20
164.6420998663
 11
101.4315149327
 21
164.6420998663
  0
LINE
  5
26D
100
AcDbEntity
  8
0
100
AcDbLine
 62
7
  6
CONTINUOUS
 10
102.7355728393
 20
164.6420998663
 11
103.348411344
 21
164.6420998663
  0
LINE
  5
26E
100
AcDbEntity
  8
0
100
AcDbLine
 62
7
  6
CONTINUOUS
 10
106.9612912761
 20
164.6420998663
 11
107.7361091618
 21
164.6420998663
  0
LINE
  5
26F
100
AcDbEntity
  8
0
100
AcDbLine
 62
7
  6
CONTINUOUS
 10
98.1537368682
 20
164.7484828324
 11
98.191744331
 21
164.7484828324
  0
LINE
  5
270
100
AcDbEntity
  8
0
100
AcDbLine
 62
7
  6
CONTINUOUS
 10
106.7234182731
 20
165.0676318795
 11
107.48682411
 21
165.0676318795
  0
LINE
  5
271
100
AcDbEntity
  8
0
100
AcDbLine
 62
7
  6
CONTINUOUS
 10
98.238219728
 20
165.1740148456
 11
98.9246530902
 21
165.1740148456
  0
LINE
  5
272
100
AcDbEntity
  8
0
100
AcDbLine
 62
7
  6
CONTINUOUS
 10
104.7254398247
 20
165.1740148456
 11
105.3097153689
 21
165.1740148456
  0
LINE
  5
273
100
AcDbEntity
  8
0
100
AcDbLine
 62
7
  6
CONTINUOUS
 10
98.1537368682
 20
165.2803978116
 11
98.191744331
 21
165.2803978116
  0
LINE
  5
274
100
AcDbEntity
  8
0
100
AcDbLine
 62
7
  6
CONTINUOUS
 10
98.5610324164
 20
165.2803978116
 11
98.9246530902
 21
165.2803978116
  0
LINE
  5
275
100
AcDbEntity
  8
0
100
AcDbLine
 62
7
  6
CONTINUOUS
 10
106.2649298594
 20
165.4931637437
 11
107.0072823529
 21
165.4931637437
  0
LINE
  5
276
100
AcDbEntity
  8
0
100
AcDbLine
 62
7
  6
CONTINUOUS
 10
110.3928517018
 20
149.1199722607
 11
110.3928517018
 21
148.9199722607
  0
LINE
  5
277
100
AcDbEntity
  8
0
100
AcDbLine
 62
7
  6
CONTINUOUS
 10
111.3928517018
 20
181.3199722607
 11
111.3928517018
 21
181.1199722607
  0
LINE
  5
278
100
AcDbEntity
  8
KONSTRUKTIONSELEMENTE
100
AcDbLine
 62
7
  6
CONTINUOUS
 10
112.6428517018
 20
186.5199722607
 11
112.6428517018
 21
187.0199722607
  0
LINE
  5
279
100
AcDbEntity
  8
BEZUGSACHSEN
100
AcDbLine
 62
7
  6
CONTINUOUS
 10
112.6428517018
 20
186.5199722607
 11
112.6428517018
 21
187.0199722607
  0
LINE
  5
27A
100
AcDbEntity
  8
KONSTRUKTIONSELEMENTE
100
AcDbLine
 62
7
  6
CONTINUOUS
 10
114.0658570835
 20
199.0199722607
 11
114.0658570835
 21
199.2199722607
  0
LWPOLYLINE
  5
27B
100
AcDbEntity
  8
KONSTRUKTIONSELEMENTE
100
AcDbPolyline
 62
7
  6
CONTINUOUS
 90
6
 70
0
 10
144.231705322
 20
265.2696251193
 10
144.1492435467
 20
265.0563134262
 10
143.9299350347
 20
264.3733097254
 10
143.7716844917
 20
263.6736179288
 10
143.6757035997
 20
262.9622585653
 10
143.6428706856
 20
262.2448851549
  0
LINE
  5
27C
100
AcDbEntity
  8
BEZUGSACHSEN
100
AcDbLine
 62
7
  6
CONTINUOUS
 10
109.3223436261
 20
197.6802262985
 11
111.6428517018
 21
199.0199722607
  0
LINE
  5
27D
100
AcDbEntity
  8
0
100
AcDbLine
 62
7
  6
CONTINUOUS
 10
98.6410232897
 20
165.5995467097
 11
98.9246530902
 21
165.5995467097
  0
LINE
  5
27E
100
AcDbEntity
  8
0
100
AcDbLine
 62
7
  6
CONTINUOUS
 10
105.8279709837
 20
165.7059296758
 11
106.5513340687
 21
165.7059296758
  0
LINE
  5
27F
100
AcDbEntity
  8
0
100
AcDbLine
 62
7
  6
CONTINUOUS
 10
98.238219728
 20
165.8123126418
 11
98.4881961933
 21
165.8123126418
  0
LINE
  5
280
100
AcDbEntity
  8
0
100
AcDbLine
 62
7
  6
CONTINUOUS
 10
104.7254398247
 20
165.8123126418
 11
106.0118027312
 21
165.8123126418
  0
LINE
  5
281
100
AcDbEntity
  8
0
100
AcDbLine
 62
7
  6
CONTINUOUS
 10
104.447597196
 20
165.9186956079
 11
105.1169834214
 21
165.9186956079
  0
LINE
  5
282
100
AcDbEntity
  8
0
100
AcDbLine
 62
7
  6
CONTINUOUS
 10
98.705753387
 20
166.0250785739
 11
98.9246530902
 21
166.0250785739
  0
LINE
  5
283
100
AcDbEntity
  8
0
100
AcDbLine
 62
7
  6
CONTINUOUS
 10
104.1787358355
 20
166.1314615399
 11
104.838548831
 21
166.1314615399
  0
LINE
  5
284
100
AcDbEntity
  8
0
100
AcDbLine
 62
7
  6
CONTINUOUS
 10
98.7282386454
 20
166.344227472
 11
98.9246530902
 21
166.344227472
  0
LINE
  5
285
100
AcDbEntity
  8
0
100
AcDbLine
 62
7
  6
CONTINUOUS
 10
104.0910461585
 20
166.4506104381
 11
104.7477967931
 21
166.4506104381
  0
LINE
  5
286
100
AcDbEntity
  8
0
100
AcDbLine
 62
7
  6
CONTINUOUS
 10
104.0910461585
 20
166.6633763701
 11
104.7477967931
 21
166.6633763701
  0
LINE
  5
287
100
AcDbEntity
  8
0
100
AcDbLine
 62
7
  6
CONTINUOUS
 10
98.7282386454
 20
166.7697596342
 11
98.9246530902
 21
166.7697596342
  0
LINE
  5
288
100
AcDbEntity
  8
0
100
AcDbLine
 62
7
  6
CONTINUOUS
 10
105.9352811887
 20
166.7697596342
 11
107.3646156442
 21
166.7697596342
  0
LINE
  5
289
100
AcDbEntity
  8
0
100
AcDbLine
 62
7
  6
CONTINUOUS
 10
104.1787358355
 20
166.9825255663
 11
104.838548831
 21
166.9825255663
  0
LINE
  5
28A
100
AcDbEntity
  8
0
100
AcDbLine
 62
7
  6
CONTINUOUS
 10
98.705753387
 20
167.0889085323
 11
98.9246530902
 21
167.0889085323
  0
LINE
  5
28B
100
AcDbEntity
  8
0
100
AcDbLine
 62
7
  6
CONTINUOUS
 10
106.4913765465
 20
167.0889085323
 11
107.2439767403
 21
167.0889085323
  0
LINE
  5
28C
100
AcDbEntity
  8
0
100
AcDbLine
 62
7
  6
CONTINUOUS
 10
104.447597196
 20
167.1952914984
 11
105.1169834214
 21
167.1952914984
  0
LINE
  5
28D
100
AcDbEntity
  8
0
100
AcDbLine
 62
7
  6
CONTINUOUS
 10
104.7254398247
 20
167.3016744644
 11
105.3097153689
 21
167.3016744644
  0
LINE
  5
28E
100
AcDbEntity
  8
0
100
AcDbLine
 62
7
  6
CONTINUOUS
 10
98.238219728
 20
167.4080574305
 11
98.4881961933
 21
167.4080574305
  0
LINE
  5
28F
100
AcDbEntity
  8
0
100
AcDbLine
 62
7
  6
CONTINUOUS
 10
98.6410232897
 20
167.5144403965
 11
98.9246530902
 21
167.5144403965
  0
LINE
  5
290
100
AcDbEntity
  8
0
100
AcDbLine
 62
7
  6
CONTINUOUS
 10
106.1537352647
 20
167.5144403965
 11
106.8911594365
 21
167.5144403965
  0
LINE
  5
291
100
AcDbEntity
  8
0
100
AcDbLine
 62
7
  6
CONTINUOUS
 10
98.5610324164
 20
167.8335892946
 11
98.9246530902
 21
167.8335892946
  0
LINE
  5
292
100
AcDbEntity
  8
0
100
AcDbLine
 62
7
  6
CONTINUOUS
 10
105.7219087911
 20
167.8335892946
 11
106.4408112761
 21
167.8335892946
  0
LINE
  5
293
100
AcDbEntity
  8
0
100
AcDbLine
 62
7
  6
CONTINUOUS
 10
98.191744331
 20
167.9399722607
 11
99.6112802399
 21
167.9399722607
  0
LINE
  5
294
100
AcDbEntity
  8
0
100
AcDbLine
 62
7
  6
CONTINUOUS
 10
100.5659029131
 20
167.9399722607
 11
101.4315149327
 21
167.9399722607
  0
LINE
  5
295
100
AcDbEntity
  8
0
100
AcDbLine
 62
7
  6
CONTINUOUS
 10
102.3127639438
 20
167.9399722607
 11
103.348411344
 21
167.9399722607
  0
LINE
  5
296
100
AcDbEntity
  8
0
100
AcDbLine
 62
7
  6
CONTINUOUS
 10
104.7254398247
 20
167.9399722607
 11
105.9077001659
 21
167.9399722607
  0
LINE
  5
297
100
AcDbEntity
  8
BEZUGSACHSEN
100
AcDbLine
 62
7
  6
CONTINUOUS
 10
117.6428517018
 20
143.7199722607
 11
117.6428517018
 21
107.5199722607
  0
LINE
  5
298
100
AcDbEntity
  8
BEZUGSACHSEN
100
AcDbLine
 62
7
  6
CONTINUOUS
 10
117.9825976639
 20
187.0199722607
 11
117.9825976639
 21
197.6802262985
  0
LINE
  5
299
100
AcDbEntity
  8
KONSTRUKTIONSELEMENTE
100
AcDbLine
 62
7
  6
CONTINUOUS
 10
117.9966611228
 20
199.0199722607
 11
117.9966611228
 21
199.2199722607
  0
LINE
  5
29A
100
AcDbEntity
  8
KONSTRUKTIONSELEMENTE
100
AcDbLine
 62
7
  6
CONTINUOUS
 10
118.089260698
 20
199.0199722607
 11
118.089260698
 21
199.2199722607
  0
LINE
  5
29B
100
AcDbEntity
  8
KONSTRUKTIONSELEMENTE
100
AcDbLine
 62
7
  6
CONTINUOUS
 10
118.4750922463
 20
199.0199722607
 11
118.4750922463
 21
199.2199722607
  0
LINE
  5
29C
100
AcDbEntity
  8
KONSTRUKTIONSELEMENTE
100
AcDbLine
 62
7
  6
CONTINUOUS
 10
118.5831251134
 20
199.0199722607
 11
118.5831251134
 21
199.2199722607
  0
LINE
  5
29D
100
AcDbEntity
  8
KONSTRUKTIONSELEMENTE
100
AcDbLine
 62
7
  6
CONTINUOUS
 10
119.0170280901
 20
199.0199722607
 11
119.0170280901
 21
199.2199722607
  0
LINE
  5
29E
100
AcDbEntity
  8
KONSTRUKTIONSELEMENTE
100
AcDbLine
 62
7
  6
CONTINUOUS
 10
119.3505143409
 20
199.0199722607
 11
119.3505143409
 21
199.2199722607
  0
LINE
  5
29F
100
AcDbEntity
  8
KONSTRUKTIONSELEMENTE
100
AcDbLine
 62
7
  6
CONTINUOUS
 10
119.6640281164
 20
199.0199722607
 11
119.6640281164
 21
199.2199722607
  0
LINE
  5
2A0
100
AcDbEntity
  8
KONSTRUKTIONSELEMENTE
100
AcDbLine
 62
7
  6
CONTINUOUS
 10
119.8597226003
 20
199.0199722607
 11
119.8597226003
 21
199.2199722607
  0
LINE
  5
2A1
100
AcDbEntity
  8
KONSTRUKTIONSELEMENTE
100
AcDbLine
 62
7
  6
CONTINUOUS
 10
120.035444615
 20
199.0199722607
 11
120.035444615
 21
199.2199722607
  0
LINE
  5
2A2
100
AcDbEntity
  8
KONSTRUKTIONSELEMENTE
100
AcDbLine
 62
7
  6
CONTINUOUS
 10
120.0933473321
 20
199.0199722607
 11
120.0933473321
 21
199.2199722607
  0
LINE
  5
2A3
100
AcDbEntity
  8
KONSTRUKTIONSELEMENTE
100
AcDbLine
 62
7
  6
CONTINUOUS
 10
121.1561104782
 20
199.0199722607
 11
121.1561104782
 21
199.2199722607
  0
LINE
  5
2A4
100
AcDbEntity
  8
0
100
AcDbLine
 62
7
  6
CONTINUOUS
 10
144.023553442
 20
264.6648703132
 11
143.929685979
 21
264.3722085461
  0
LINE
  5
2A5
100
AcDbEntity
  8
0
100
AcDbLine
 62
7
  6
CONTINUOUS
 10
98.1441111016
 20
171.7599722607
 11
99.0943873913
 21
171.7599722607
  0
LINE
  5
2A6
100
AcDbEntity
  8
0
100
AcDbLine
 62
7
  6
CONTINUOUS
 10
98.3883649717
 20
172.5099722607
 11
98.530601703
 21
172.5099722607
  0
LINE
  5
2A7
100
AcDbEntity
  8
0
100
AcDbLine
 62
7
  6
CONTINUOUS
 10
98.2788397951
 20
175.1199722607
 11
98.6578583594
 21
175.1199722607
  0
LINE
  5
2A8
100
AcDbEntity
  8
0
100
AcDbLine
 62
7
  6
CONTINUOUS
 10
98.2788397951
 20
175.4199722607
 11
98.530601703
 21
175.4199722607
  0
LINE
  5
2A9
100
AcDbEntity
  8
0
100
AcDbLine
 62
7
  6
CONTINUOUS
 10
98.1563631245
 20
176.1699722607
 11
99.0943873913
 21
176.1699722607
  0
LINE
  5
2AA
100
AcDbEntity
  8
KONSTRUKTIONSELEMENTE
100
AcDbLine
 62
7
  6
CONTINUOUS
 10
122.9185452275
 20
199.0199722607
 11
122.9185452275
 21
199.2199722607
  0
LINE
  5
2AB
100
AcDbEntity
  8
KONSTRUKTIONSELEMENTE
100
AcDbLine
 62
7
  6
CONTINUOUS
 10
123.2454886692
 20
199.0199722607
 11
123.2454886692
 21
199.2199722607
  0
LINE
  5
2AC
100
AcDbEntity
  8
KONSTRUKTIONSELEMENTE
100
AcDbLine
 62
7
  6
CONTINUOUS
 10
123.4587660213
 20
199.0199722607
 11
123.4587660213
 21
199.2199722607
  0
LINE
  5
2AD
100
AcDbEntity
  8
KONSTRUKTIONSELEMENTE
100
AcDbLine
 62
7
  6
CONTINUOUS
 10
123.5915818879
 20
199.0199722607
 11
123.5915818879
 21
199.2199722607
  0
LINE
  5
2AE
100
AcDbEntity
  8
0
100
AcDbLine
 62
7
  6
CONTINUOUS
 10
143.9293407502
 20
264.3711321852
 11
143.7715838505
 21
263.6728720297
  0
LINE
  5
2AF
100
AcDbEntity
  8
RUNDUNGEN
100
AcDbLine
 62
7
  6
CONTINUOUS
 10
100.6431213379
 20
181.1199722607
 11
145.125050863
 21
181.1199722607
  0
LINE
  5
2B0
100
AcDbEntity
  8
0
100
AcDbLine
 62
7
  6
CONTINUOUS
 10
145.1253539691
 20
181.3199722607
 11
104.1428517018
 21
181.3199722607
  0
LINE
  5
2B1
100
AcDbEntity
  8
KONSTRUKTIONSELEMENTE
100
AcDbLine
 62
7
  6
CONTINUOUS
 10
128.8618491516
 20
199.0199722607
 11
128.8618491516
 21
199.2199722607
  0
LINE
  5
2B2
100
AcDbEntity
  8
KONSTRUKTIONSELEMENTE
100
AcDbLine
 62
7
  6
CONTINUOUS
 10
129.3034789469
 20
199.0199722607
 11
129.3034789469
 21
199.2199722607
  0
LINE
  5
2B3
100
AcDbEntity
  8
KONSTRUKTIONSELEMENTE
100
AcDbLine
 62
7
  6
CONTINUOUS
 10
130.3339479076
 20
199.0199722607
 11
130.3339479076
 21
199.2199722607
  0
LINE
  5
2B4
100
AcDbEntity
  8
KONSTRUKTIONSELEMENTE
100
AcDbLine
 62
7
  6
CONTINUOUS
 10
130.9227887578
 20
199.0199722607
 11
130.9227887578
 21
199.2199722607
  0
LINE
  5
2B5
100
AcDbEntity
  8
KONSTRUKTIONSELEMENTE
100
AcDbLine
 62
7
  6
CONTINUOUS
 10
131.9532577185
 20
199.0199722607
 11
131.9532577185
 21
199.2199722607
  0
LINE
  5
2B6
100
AcDbEntity
  8
KONSTRUKTIONSELEMENTE
100
AcDbLine
 62
7
  6
CONTINUOUS
 10
132.3948875138
 20
199.0199722607
 11
132.3948875138
 21
199.2199722607
  0
LINE
  5
2B7
100
AcDbEntity
  8
KONSTRUKTIONSELEMENTE
100
AcDbLine
 62
7
  6
CONTINUOUS
 10
133.0877075685
 20
199.0199722607
 11
133.0877075685
 21
199.2199722607
  0
LINE
  5
2B8
100
AcDbEntity
  8
KONSTRUKTIONSELEMENTE
100
AcDbLine
 62
7
  6
CONTINUOUS
 10
133.4137079339
 20
199.0199722607
 11
133.4137079339
 21
199.2199722607
  0
LINE
  5
2B9
100
AcDbEntity
  8
0
100
AcDbLine
 62
7
  6
CONTINUOUS
 10
143.7714176828
 20
263.6721365418
 11
143.6756863868
 21
262.9618824782
  0
LINE
  5
2BA
100
AcDbEntity
  8
0
100
AcDbLine
 62
7
  6
CONTINUOUS
 10
145.1253539691
 20
186.5199722607
 11
104.1428517018
 21
186.5199722607
  0
LINE
  5
2BB
100
AcDbEntity
  8
KONSTRUKTIONSELEMENTE
100
AcDbLine
 62
7
  6
CONTINUOUS
 10
109.3223436261
 20
187.0199722607
 11
143.9633597774
 21
187.0199722607
  0
LINE
  5
2BC
100
AcDbEntity
  8
KONSTRUKTIONSELEMENTE
100
AcDbLine
 62
7
  6
CONTINUOUS
 10
134.3044705245
 20
199.0199722607
 11
134.3044705245
 21
199.2199722607
  0
LINE
  5
2BD
100
AcDbEntity
  8
KONSTRUKTIONSELEMENTE
100
AcDbLine
 62
7
  6
CONTINUOUS
 10
134.3868784912
 20
199.0199722607
 11
134.3868784912
 21
199.2199722607
  0
LINE
  5
2BE
100
AcDbEntity
  8
KONSTRUKTIONSELEMENTE
100
AcDbLine
 62
7
  6
CONTINUOUS
 10
134.5799720979
 20
199.0199722607
 11
134.5799720979
 21
199.2199722607
  0
LINE
  5
2BF
100
AcDbEntity
  8
KONSTRUKTIONSELEMENTE
100
AcDbLine
 62
7
  6
CONTINUOUS
 10
134.8193870546
 20
199.0199722607
 11
134.8193870546
 21
199.2199722607
  0
LINE
  5
2C0
100
AcDbEntity
  8
KONSTRUKTIONSELEMENTE
100
AcDbLine
 62
7
  6
CONTINUOUS
 10
135.2158097378
 20
199.0199722607
 11
135.2158097378
 21
199.2199722607
  0
LINE
  5
2C1
100
AcDbEntity
  8
BEZUGSACHSEN
100
AcDbLine
 62
7
  6
CONTINUOUS
 10
135.3031057396
 20
187.0199722607
 11
135.3031057396
 21
197.6802262985
  0
LINE
  5
2C2
100
AcDbEntity
  8
KONSTRUKTIONSELEMENTE
100
AcDbLine
 62
7
  6
CONTINUOUS
 10
135.5478681379
 20
199.0199722607
 11
135.5478681379
 21
199.2199722607
  0
LINE
  5
2C3
100
AcDbEntity
  8
BEZUGSACHSEN
100
AcDbLine
 62
7
  6
CONTINUOUS
 10
135.6428517018
 20
143.7199722607
 11
135.6428517018
 21
107.5199722607
  0
LINE
  5
2C4
100
AcDbEntity
  8
KONSTRUKTIONSELEMENTE
100
AcDbLine
 62
7
  6
CONTINUOUS
 10
136.0047525015
 20
199.0199722607
 11
136.0047525015
 21
199.2199722607
  0
LINE
  5
2C5
100
AcDbEntity
  8
KONSTRUKTIONSELEMENTE
100
AcDbLine
 62
7
  6
CONTINUOUS
 10
136.2402640707
 20
199.0199722607
 11
136.2402640707
 21
199.2199722607
  0
LINE
  5
2C6
100
AcDbEntity
  8
KONSTRUKTIONSELEMENTE
100
AcDbLine
 62
7
  6
CONTINUOUS
 10
136.568418436
 20
199.0199722607
 11
136.568418436
 21
199.2199722607
  0
LINE
  5
2C7
100
AcDbEntity
  8
KONSTRUKTIONSELEMENTE
100
AcDbLine
 62
7
  6
CONTINUOUS
 10
136.6752014252
 20
199.0199722607
 11
136.6752014252
 21
199.2199722607
  0
LINE
  5
2C8
100
AcDbEntity
  8
KONSTRUKTIONSELEMENTE
100
AcDbLine
 62
7
  6
CONTINUOUS
 10
136.6893402549
 20
199.0199722607
 11
136.6893402549
 21
199.2199722607
  0
LINE
  5
2C9
100
AcDbEntity
  8
KONSTRUKTIONSELEMENTE
100
AcDbLine
 62
7
  6
CONTINUOUS
 10
136.832209138
 20
199.0199722607
 11
136.832209138
 21
199.2199722607
  0
LINE
  5
2CA
100
AcDbEntity
  8
KONSTRUKTIONSELEMENTE
100
AcDbLine
 62
7
  6
CONTINUOUS
 10
137.1642675105
 20
199.0199722607
 11
137.1642675105
 21
199.2199722607
  0
LINE
  5
2CB
100
AcDbEntity
  8
KONSTRUKTIONSELEMENTE
100
AcDbLine
 62
7
  6
CONTINUOUS
 10
137.5426472262
 20
199.0199722607
 11
137.5426472262
 21
199.2199722607
  0
LINE
  5
2CC
100
AcDbEntity
  8
KONSTRUKTIONSELEMENTE
100
AcDbLine
 62
7
  6
CONTINUOUS
 10
137.7781587954
 20
199.0199722607
 11
137.7781587954
 21
199.2199722607
  0
LINE
  5
2CD
100
AcDbEntity
  8
KONSTRUKTIONSELEMENTE
100
AcDbLine
 62
7
  6
CONTINUOUS
 10
138.1063140073
 20
199.0199722607
 11
138.1063140073
 21
199.2199722607
  0
LINE
  5
2CE
100
AcDbEntity
  8
KONSTRUKTIONSELEMENTE
100
AcDbLine
 62
7
  6
CONTINUOUS
 10
138.2452787731
 20
199.0199722607
 11
138.2452787731
 21
199.2199722607
  0
LINE
  5
2CF
100
AcDbEntity
  8
KONSTRUKTIONSELEMENTE
100
AcDbLine
 62
7
  6
CONTINUOUS
 10
138.3198785124
 20
199.0199722607
 11
138.3198785124
 21
199.2199722607
  0
LINE
  5
2D0
100
AcDbEntity
  8
KONSTRUKTIONSELEMENTE
100
AcDbLine
 62
7
  6
CONTINUOUS
 10
145.1254579218
 20
190.8699722607
 11
146.0428517018
 21
190.8699722607
  0
LINE
  5
2D1
100
AcDbEntity
  8
0
100
AcDbLine
 62
7
  6
CONTINUOUS
 10
158.2428517018
 20
190.8699722607
 11
159.1602454817
 21
190.8699722607
  0
LINE
  5
2D2
100
AcDbEntity
  8
KONSTRUKTIONSELEMENTE
100
AcDbLine
 62
7
  6
CONTINUOUS
 10
140.6428517018
 20
186.5199722607
 11
140.6428517018
 21
187.0199722607
  0
LINE
  5
2D3
100
AcDbEntity
  8
BEZUGSACHSEN
100
AcDbLine
 62
7
  6
CONTINUOUS
 10
140.6428517018
 20
186.5199722607
 11
140.6428517018
 21
187.0199722607
  0
LINE
  5
2D4
100
AcDbEntity
  8
0
100
AcDbLine
 62
7
  6
CONTINUOUS
 10
141.8928517018
 20
181.3199722607
 11
141.8928517018
 21
181.1199722607
  0
LINE
  5
2D5
100
AcDbEntity
  8
0
100
AcDbLine
 62
7
  6
CONTINUOUS
 10
142.8928517018
 20
149.1199722607
 11
142.8928517018
 21
148.9199722607
  0
LINE
  5
2D6
100
AcDbEntity
  8
0
100
AcDbLine
 62
7
  6
CONTINUOUS
 10
143.6428517018
 20
262.231680705
 11
143.6428517018
 21
261.5199722607
  0
LINE
  5
2D7
100
AcDbEntity
  8
KONSTRUKTIONSELEMENTE
100
AcDbLine
 62
7
  6
CONTINUOUS
 10
143.8928517018
 20
165.0199722607
 11
143.8928517018
 21
165.2384528419
  0
LINE
  5
2D8
100
AcDbEntity
  8
BEZUGSACHSEN
100
AcDbLine
 62
7
  6
CONTINUOUS
 10
143.9633597774
 20
187.0199722607
 11
143.9633597774
 21
197.6802262985
  0
LINE
  5
2D9
100
AcDbEntity
  8
0
100
AcDbLine
 62
7
  6
CONTINUOUS
 10
145.1428517018
 20
266.9371090991
 11
145.1428517018
 21
259.8847327886
  0
LINE
  5
2DA
100
AcDbEntity
  8
RUNDUNGEN
100
AcDbLine
 62
7
  6
CONTINUOUS
 10
145.1428517018
 20
259.8847327886
 11
145.1428517018
 21
255.5874297286
  0
LINE
  5
2DB
100
AcDbEntity
  8
KONSTRUKTIONSELEMENTE
100
AcDbLine
 62
7
  6
CONTINUOUS
 10
145.1428517018
 20
232.5539252571
 11
145.1428517018
 21
227.448725067
  0
LINE
  5
2DC
100
AcDbEntity
  8
0
100
AcDbLine
 62
7
  6
CONTINUOUS
 10
145.1428517018
 20
232.5539223604
 11
145.1428517018
 21
227.0198236829
  0
LINE
  5
2DD
100
AcDbEntity
  8
KONSTRUKTIONSELEMENTE
100
AcDbLine
 62
7
  6
CONTINUOUS
 10
145.1428517018
 20
223.6290276866
 11
145.1428517018
 21
216.8699722607
  0
LINE
  5
2DE
100
AcDbEntity
  8
RUNDUNGEN
100
AcDbLine
 62
7
  6
CONTINUOUS
 10
145.1428517018
 20
223.7564330588
 11
145.1428517018
 21
223.9382831434
  0
LINE
  5
2DF
100
AcDbEntity
  8
KONSTRUKTIONSELEMENTE
100
AcDbLine
 62
7
  6
CONTINUOUS
 10
145.1428517018
 20
223.9988574944
 11
145.1428517018
 21
224.0934145493
  0
LINE
  5
2E0
100
AcDbEntity
  8
0
100
AcDbLine
 62
7
  6
CONTINUOUS
 10
143.6428684096
 20
262.2421374228
 11
143.6428607553
 21
262.2384709267
  0
LINE
  5
2E1
100
AcDbEntity
  8
KONSTRUKTIONSELEMENTE
100
AcDbLine
 62
7
  6
CONTINUOUS
 10
143.6429173039
 20
262.2583622402
 11
143.6428433339
 21
262.2206504507
  0
LINE
  5
2E2
100
AcDbEntity
  8
0
100
AcDbLine
 62
7
  6
CONTINUOUS
 10
143.6429099394
 20
262.2563494076
 11
143.6429024943
 21
262.2542311124
  0
LINE
  5
2E3
100
AcDbEntity
  8
KONSTRUKTIONSELEMENTE
100
AcDbLine
 62
7
  6
CONTINUOUS
 10
145.1253539691
 20
190.8699722607
 11
145.1221201789
 21
180.2907591302
  0
LINE
  5
2E4
100
AcDbEntity
  8
KONSTRUKTIONSELEMENTE
100
AcDbLine
 62
7
  6
CONTINUOUS
 10
143.8931235442
 20
165.2949110109
 11
143.8928517018
 21
165.2357637191
  0
LINE
  5
2E5
100
AcDbEntity
  8
KONSTRUKTIONSELEMENTE
100
AcDbLine
 62
7
  6
CONTINUOUS
 10
145.1221201789
 20
180.2907591302
 11
145.1100920257
 21
179.0324092279
  0
LINE
  5
2E6
100
AcDbEntity
  8
KONSTRUKTIONSELEMENTE
100
AcDbLine
 62
7
  6
CONTINUOUS
 10
145.1100920257
 20
179.0324092279
 11
145.0897423363
 21
177.8153263237
  0
LINE
  5
2E7
100
AcDbEntity
  8
0
100
AcDbLine
 62
7
  6
CONTINUOUS
 10
143.9017010568
 20
165.6183735468
 11
143.9003153553
 21
165.5588814036
  0
LINE
  5
2E8
100
AcDbEntity
  8
KONSTRUKTIONSELEMENTE
100
AcDbLine
 62
7
  6
CONTINUOUS
 10
143.9022725997
 20
165.6304434766
 11
143.8928517324
 21
165.2384469891
  0
LINE
  5
2E9
100
AcDbEntity
  8
KONSTRUKTIONSELEMENTE
100
AcDbLine
 62
7
  6
CONTINUOUS
 10
145.0897423363
 20
177.8153263237
 11
145.0617169818
 21
176.6466304957
  0
LWPOLYLINE
  5
2EA
100
AcDbEntity
  8
KONSTRUKTIONSELEMENTE
100
AcDbPolyline
 62
7
  6
CONTINUOUS
 90
3
 70
0
 10
145.0617169818
 20
176.6466304957
 10
145.0267042832
 20
175.5325474463
 10
145.0068031855
 20
174.9976925787
  0
LINE
  5
2EB
100
AcDbEntity
  8
0
100
AcDbLine
 62
7
  6
CONTINUOUS
 10
143.6756863868
 20
262.9618824782
 11
143.6434879145
 21
262.2583848163
  0
LINE
  5
2EC
100
AcDbEntity
  8
0
100
AcDbLine
 62
7
  6
CONTINUOUS
 10
146.0428517018
 20
195.5384672305
 11
145.5428517018
 21
195.5384672305
  0
LINE
  5
2ED
100
AcDbEntity
  8
0
100
AcDbLine
 62
7
  6
CONTINUOUS
 10
146.0428517018
 20
196.2884672305
 11
145.5428517018
 21
196.2884672305
  0
LINE
  5
2EE
100
AcDbEntity
  8
0
100
AcDbLine
 62
7
  6
CONTINUOUS
 10
146.0428517018
 20
198.4134671709
 11
145.5428517018
 21
198.4134671709
  0
LINE
  5
2EF
100
AcDbEntity
  8
BEZUGSACHSEN
100
AcDbLine
 62
7
  6
CONTINUOUS
 10
111.6428517018
 20
199.0199722607
 11
141.6428517018
 21
199.0199722607
  0
LINE
  5
2F0
100
AcDbEntity
  8
KONSTRUKTIONSELEMENTE
100
AcDbLine
 62
7
  6
CONTINUOUS
 10
114.0658570835
 20
199.2199722607
 11
123.5915818879
 21
199.2199722607
  0
LINE
  5
2F1
100
AcDbEntity
  8
KONSTRUKTIONSELEMENTE
100
AcDbLine
 62
7
  6
CONTINUOUS
 10
128.8618491516
 20
199.2199722607
 11
138.3198785124
 21
199.2199722607
  0
LINE
  5
2F2
100
AcDbEntity
  8
0
100
AcDbLine
 62
7
  6
CONTINUOUS
 10
146.0428517018
 20
199.4134671113
 11
145.5428517018
 21
199.4134671113
  0
LINE
  5
2F3
100
AcDbEntity
  8
0
100
AcDbLine
 62
7
  6
CONTINUOUS
 10
146.0428517018
 20
200.2884673497
 11
145.5428517018
 21
200.2884673497
  0
LINE
  5
2F4
100
AcDbEntity
  8
0
100
AcDbLine
 62
7
  6
CONTINUOUS
 10
143.6540030608
 20
261.0937763929
 11
143.6540209935
 21
261.0934342173
  0
LINE
  5
2F5
100
AcDbEntity
  8
0
100
AcDbLine
 62
7
  6
CONTINUOUS
 10
143.7273072443
 20
259.6950492491
 11
143.8676891511
 21
257.016402897
  0
LINE
  5
2F6
100
AcDbEntity
  8
RUNDUNGEN
100
AcDbLine
 62
7
  6
CONTINUOUS
 10
144.9331943462
 20
236.6853526267
 11
145.1359993755
 21
232.8156021416
  0
LINE
  5
2F7
100
AcDbEntity
  8
0
100
AcDbLine
 62
7
  6
CONTINUOUS
 10
144.2300067479
 20
250.1029713085
 11
144.0568061291
 21
253.4078359891
  0
LINE
  5
2F8
100
AcDbEntity
  8
0
100
AcDbLine
 62
7
  6
CONTINUOUS
 10
144.0329111573
 20
253.8637792131
 11
143.9245798332
 21
255.9308640159
  0
LINE
  5
2F9
100
AcDbEntity
  8
RUNDUNGEN
100
AcDbLine
 62
7
  6
CONTINUOUS
 10
145.1702610067
 20
254.5407106037
 11
146.2882687172
 21
233.2078526618
  0
LINE
  5
2FA
100
AcDbEntity
  8
0
100
AcDbLine
 62
7
  6
CONTINUOUS
 10
145.5428517018
 20
195.5384672305
 11
145.5428517018
 21
200.2884673497
  0
LINE
  5
2FB
100
AcDbEntity
  8
0
100
AcDbLine
 62
7
  6
CONTINUOUS
 10
145.5428517018
 20
201.2884671113
 11
145.5428517018
 21
214.8900123327
  0
LINE
  5
2FC
100
AcDbEntity
  8
KONSTRUKTIONSELEMENTE
100
AcDbLine
 62
7
  6
CONTINUOUS
 10
146.0428517018
 20
216.8699722607
 11
146.0428517018
 21
190.8699722607
  0
LINE
  5
2FD
100
AcDbEntity
  8
RUNDUNGEN
100
AcDbLine
 62
7
  6
CONTINUOUS
 10
146.3156780221
 20
232.1611335369
 11
146.3156780221
 21
219.0918124542
  0
LINE
  5
2FE
100
AcDbEntity
  8
0
100
AcDbLine
 62
7
  6
CONTINUOUS
 10
150.1428517018
 20
148.9199722607
 11
150.1428517018
 21
143.7199722607
  0
LINE
  5
2FF
100
AcDbEntity
  8
KONSTRUKTIONSELEMENTE
100
AcDbLine
 62
7
  6
CONTINUOUS
 10
145.0068031855
 20
174.9976925787
 11
144.9626907465
 21
173.9755118655
  0
LWPOLYLINE
  5
300
100
AcDbEntity
  8
KONSTRUKTIONSELEMENTE
100
AcDbPolyline
 62
7
  6
CONTINUOUS
 90
20
 70
0
 10
144.9626907465
 20
173.9755118655
 10
144.9134972511
 20
173.0203320186
 10
144.8872491619
 20
172.5690030892
 10
144.8600371498
 20
172.1356494378
 10
144.8319709632
 20
171.7206519823
 10
144.8031611124
 20
171.324325677
 10
144.7737313434
 20
170.9470672142
 10
144.7438068646
 20
170.5892039079
 10
144.7135312416
 20
170.2511487102
 10
144.6830483548
 20
169.9332012605
 10
144.6525446054
 20
169.6359202417
 10
144.6222063289
 20
169.3596963099
 10
144.5922824233
 20
169.1052677265
 10
144.5630171028
 20
168.8730670758
 10
144.5347981512
 20
168.6643444887
 10
144.5080094383
 20
168.479870308
 10
144.4832194835
 20
168.3211839022
 10
144.4610115502
 20
168.1892775751
 10
144.4422386427
 20
168.0860218121
 10
144.4324629264
 20
168.0356747019
  0
LINE
  5
301
100
AcDbEntity
  8
0
100
AcDbLine
 62
7
  6
CONTINUOUS
 10
143.9554227839
 20
166.2470294908
 11
143.9017010568
 21
165.6183735468
  0
LWPOLYLINE
  5
302
100
AcDbEntity
  8
0
100
AcDbPolyline
 62
7
  6
CONTINUOUS
 90
6
 70
0
 10
144.5762858935
 20
168.9783449634
 10
144.5630642133
 20
168.8734279143
 10
144.5348434781
 20
168.6646679086
 10
144.5080522338
 20
168.4801543386
 10
144.4832589804
 20
168.3214273196
 10
144.4692241042
 20
168.2380550078
  0
LINE
  5
303
100
AcDbEntity
  8
0
100
AcDbLine
 62
7
  6
CONTINUOUS
 10
144.0575769142
 20
166.8697705598
 11
143.9554227839
 21
166.2470294908
  0
LINE
  5
304
100
AcDbEntity
  8
0
100
AcDbLine
 62
7
  6
CONTINUOUS
 10
144.2075654688
 20
167.4828600159
 11
144.0575769142
 21
166.8697705598
  0
LINE
  5
305
100
AcDbEntity
  8
0
100
AcDbLine
 62
7
  6
CONTINUOUS
 10
144.4044630168
 20
168.0825306972
 11
144.2075654688
 21
167.4828600159
  0
LWPOLYLINE
  5
306
100
AcDbEntity
  8
KONSTRUKTIONSELEMENTE
100
AcDbPolyline
 62
7
  6
CONTINUOUS
 90
5
 70
0
 10
144.4068011688
 20
168.0888125192
 10
144.2097793625
 20
167.4905856151
 10
144.0594560953
 20
166.8789542007
 10
143.9567548024
 20
166.2576666526
 10
143.9022725997
 20
165.6304434766
  0
LINE
  5
307
100
AcDbEntity
  8
0
100
AcDbLine
 62
7
  6
CONTINUOUS
 10
144.4692235714
 20
168.2380537282
 11
144.4044630168
 21
168.0825306972
  0
LINE
  5
308
100
AcDbEntity
  8
KONSTRUKTIONSELEMENTE
100
AcDbLine
 62
7
  6
CONTINUOUS
 10
144.4693237564
 20
168.2386487871
 11
144.4068011688
 21
168.0888125192
  0
LINE
  5
309
100
AcDbEntity
  8
0
100
AcDbLine
 62
7
  6
CONTINUOUS
 10
146.0428517018
 20
201.2884671113
 11
145.5428517018
 21
201.2884671113
  0
LINE
  5
30A
100
AcDbEntity
  8
0
100
AcDbLine
 62
7
  6
CONTINUOUS
 10
146.0428517018
 20
201.4134673497
 11
145.5428517018
 21
201.4134673497
  0
LINE
  5
30B
100
AcDbEntity
  8
0
100
AcDbLine
 62
7
  6
CONTINUOUS
 10
146.0428517018
 20
201.6634674689
 11
145.5428517018
 21
201.6634674689
  0
LINE
  5
30C
100
AcDbEntity
  8
0
100
AcDbLine
 62
7
  6
CONTINUOUS
 10
146.0428517018
 20
202.1634669921
 11
145.5428517018
 21
202.1634669921
  0
LINE
  5
30D
100
AcDbEntity
  8
0
100
AcDbLine
 62
7
  6
CONTINUOUS
 10
146.0428517018
 20
202.6634672305
 11
145.5428517018
 21
202.6634672305
  0
LINE
  5
30E
100
AcDbEntity
  8
0
100
AcDbLine
 62
7
  6
CONTINUOUS
 10
146.0428517018
 20
203.2884669921
 11
145.5428517018
 21
203.2884669921
  0
LINE
  5
30F
100
AcDbEntity
  8
0
100
AcDbLine
 62
7
  6
CONTINUOUS
 10
146.0428517018
 20
203.7884672305
 11
145.5428517018
 21
203.7884672305
  0
LINE
  5
310
100
AcDbEntity
  8
0
100
AcDbLine
 62
7
  6
CONTINUOUS
 10
146.0428517018
 20
204.4134669921
 11
145.5428517018
 21
204.4134669921
  0
LINE
  5
311
100
AcDbEntity
  8
0
100
AcDbLine
 62
7
  6
CONTINUOUS
 10
146.0428517018
 20
204.9134672305
 11
145.5428517018
 21
204.9134672305
  0
LINE
  5
312
100
AcDbEntity
  8
0
100
AcDbLine
 62
7
  6
CONTINUOUS
 10
146.0428517018
 20
205.0900123327
 11
145.5428517018
 21
205.0900123327
  0
LINE
  5
313
100
AcDbEntity
  8
BEZUGSACHSEN
100
AcDbLine
 62
7
  6
CONTINUOUS
 10
143.9633597774
 20
197.6802262985
 11
141.6428517018
 21
199.0199722607
  0
LINE
  5
314
100
AcDbEntity
  8
0
100
AcDbLine
 62
7
  6
CONTINUOUS
 10
159.8812403867
 20
168.0825306972
 11
159.8164673418
 21
168.2380837239
  0
LINE
  5
315
100
AcDbEntity
  8
0
100
AcDbLine
 62
7
  6
CONTINUOUS
 10
159.1154423968
 20
254.5407106037
 11
157.9974346863
 21
233.2078526618
  0
LINE
  5
316
100
AcDbEntity
  8
0
100
AcDbLine
 62
7
  6
CONTINUOUS
 10
160.6317003427
 20
261.0937763929
 11
160.63168241
 21
261.0934342173
  0
LINE
  5
317
100
AcDbEntity
  8
0
100
AcDbLine
 62
7
  6
CONTINUOUS
 10
160.5583961592
 20
259.6950492491
 11
160.4180142524
 21
257.016402897
  0
LINE
  5
318
100
AcDbEntity
  8
0
100
AcDbLine
 62
7
  6
CONTINUOUS
 10
159.3525090573
 20
236.6853526267
 11
159.149704028
 21
232.8156021416
  0
LINE
  5
319
100
AcDbEntity
  8
0
100
AcDbLine
 62
7
  6
CONTINUOUS
 10
160.0556966557
 20
250.1029713085
 11
160.2288972744
 21
253.4078359891
  0
LINE
  5
31A
100
AcDbEntity
  8
0
100
AcDbLine
 62
7
  6
CONTINUOUS
 10
160.2527922463
 20
253.8637792131
 11
160.3611235704
 21
255.9308640159
  0
LINE
  5
31B
100
AcDbEntity
  8
0
100
AcDbLine
 62
7
  6
CONTINUOUS
 10
146.0428517018
 20
208.9400123327
 11
145.5428517018
 21
208.9400123327
  0
LINE
  5
31C
100
AcDbEntity
  8
0
100
AcDbLine
 62
7
  6
CONTINUOUS
 10
146.0428517018
 20
209.7884672305
 11
145.5428517018
 21
209.7884672305
  0
LINE
  5
31D
100
AcDbEntity
  8
0
100
AcDbLine
 62
7
  6
CONTINUOUS
 10
146.0428517018
 20
210.4134677073
 11
145.5428517018
 21
210.4134677073
  0
LINE
  5
31E
100
AcDbEntity
  8
0
100
AcDbLine
 62
7
  6
CONTINUOUS
 10
146.0428517018
 20
210.9134672305
 11
145.5428517018
 21
210.9134672305
  0
LINE
  5
31F
100
AcDbEntity
  8
0
100
AcDbLine
 62
7
  6
CONTINUOUS
 10
146.0428517018
 20
211.0400123327
 11
145.5428517018
 21
211.0400123327
  0
LINE
  5
320
100
AcDbEntity
  8
0
100
AcDbLine
 62
7
  6
CONTINUOUS
 10
160.0781379347
 20
167.4828600159
 11
159.8789022347
 21
168.0888125192
  0
LINE
  5
321
100
AcDbEntity
  8
0
100
AcDbLine
 62
7
  6
CONTINUOUS
 10
160.2281264893
 20
166.8697705598
 11
160.075924041
 21
167.4905856151
  0
LWPOLYLINE
  5
322
100
AcDbEntity
  8
0
100
AcDbPolyline
 62
7
  6
CONTINUOUS
 90
21
 70
0
 10
159.8684810591
 20
167.9635277868
 10
159.8665032661
 20
167.972241987
 10
159.8574899898
 20
168.014646186
 10
159.8428642259
 20
168.0891965915
 10
159.8239680503
 20
168.1934161489
 10
159.8016818298
 20
168.3261331343
 10
159.7768521585
 20
168.4854636353
 10
159.7500530415
 20
168.6704316241
 10
159.7218449601
 20
168.8795174993
 10
159.6926045292
 20
169.1119789208
 10
159.6627114858
 20
169.3666131362
 10
159.6324089309
 20
169.6429885791
 10
159.6019431506
 20
169.9403830932
 10
159.5714997244
 20
170.2584094742
 10
159.541264059
 20
170.5965159092
 10
159.5113798002
 20
170.9544035749
 10
159.4819900832
 20
171.3316613078
 10
159.4532200386
 20
171.7279621124
 10
159.425193241
 20
172.1429094911
 10
159.3980201675
 20
172.576187024
 10
159.3718105263
 20
173.0274122596
  0
LINE
  5
323
100
AcDbEntity
  8
0
100
AcDbLine
 62
7
  6
CONTINUOUS
 10
160.3302806196
 20
166.2470294908
 11
160.2262473082
 21
166.8789542007
  0
LINE
  5
324
100
AcDbEntity
  8
0
100
AcDbLine
 62
7
  6
CONTINUOUS
 10
160.3840023467
 20
165.6183735468
 11
160.3289486011
 21
166.2576666526
  0
LINE
  5
325
100
AcDbEntity
  8
0
100
AcDbLine
 62
7
  6
CONTINUOUS
 10
159.3718105263
 20
173.0274122596
 11
159.3226922116
 21
173.982291956
  0
LINE
  5
326
100
AcDbEntity
  8
0
100
AcDbLine
 62
7
  6
CONTINUOUS
 10
159.3226922116
 20
173.982291956
 11
159.2786522793
 21
175.0040250202
  0
LINE
  5
327
100
AcDbEntity
  8
0
100
AcDbLine
 62
7
  6
CONTINUOUS
 10
159.2786522793
 20
175.0040250202
 11
159.2404846903
 21
176.088111801
  0
LINE
  5
328
100
AcDbEntity
  8
0
100
AcDbLine
 62
7
  6
CONTINUOUS
 10
159.2404846903
 20
176.088111801
 11
159.2089393545
 21
177.2293982297
  0
LINE
  5
329
100
AcDbEntity
  8
0
100
AcDbLine
 62
7
  6
CONTINUOUS
 10
160.3928516702
 20
165.23844669
 11
160.3834308038
 21
165.6304434766
  0
LINE
  5
32A
100
AcDbEntity
  8
0
100
AcDbLine
 62
7
  6
CONTINUOUS
 10
159.2089393545
 20
177.2293982297
 11
159.184721594
 21
178.4220578696
  0
LINE
  5
32B
100
AcDbEntity
  8
0
100
AcDbLine
 62
7
  6
CONTINUOUS
 10
159.184721594
 20
178.4220578696
 11
159.1684952396
 21
179.6594016631
  0
LINE
  5
32C
100
AcDbEntity
  8
0
100
AcDbLine
 62
7
  6
CONTINUOUS
 10
159.1684952396
 20
179.6594016631
 11
159.1608770932
 21
180.9338654943
  0
LINE
  5
32D
100
AcDbEntity
  8
0
100
AcDbLine
 62
7
  6
CONTINUOUS
 10
157.9700253814
 20
232.1611335369
 11
157.9700253814
 21
219.0918124542
  0
LINE
  5
32E
100
AcDbEntity
  8
0
100
AcDbLine
 62
7
  6
CONTINUOUS
 10
158.2428517018
 20
216.8699722607
 11
158.2428517018
 21
190.8699722607
  0
LINE
  5
32F
100
AcDbEntity
  8
0
100
AcDbLine
 62
7
  6
CONTINUOUS
 10
159.1428517018
 20
266.9371090987
 11
159.1428517018
 21
255.5874297286
  0
LINE
  5
330
100
AcDbEntity
  8
0
100
AcDbLine
 62
7
  6
CONTINUOUS
 10
159.1428517018
 20
232.5539223604
 11
159.1428517018
 21
227.0198236829
  0
LINE
  5
331
100
AcDbEntity
  8
0
100
AcDbLine
 62
7
  6
CONTINUOUS
 10
159.1428517018
 20
224.0934145493
 11
159.1428517018
 21
223.9988574944
  0
LINE
  5
332
100
AcDbEntity
  8
0
100
AcDbLine
 62
7
  6
CONTINUOUS
 10
159.1428517018
 20
223.6290276866
 11
159.1428517018
 21
216.8699722607
  0
LINE
  5
333
100
AcDbEntity
  8
0
100
AcDbLine
 62
7
  6
CONTINUOUS
 10
159.1428517018
 20
223.7564330588
 11
159.1428517018
 21
223.9382831434
  0
LINE
  5
334
100
AcDbEntity
  8
0
100
AcDbLine
 62
7
  6
CONTINUOUS
 10
159.1603494345
 20
190.8699722607
 11
159.1608770932
 21
180.9338654943
  0
LINE
  5
335
100
AcDbEntity
  8
0
100
AcDbLine
 62
7
  6
CONTINUOUS
 10
160.3928517018
 20
165.0199722607
 11
160.3927463868
 21
165.279213314
  0
LINE
  5
336
100
AcDbEntity
  8
0
100
AcDbLine
 62
7
  6
CONTINUOUS
 10
160.6428286734
 20
262.2449737771
 11
160.6428517018
 21
261.5199722607
  0
LINE
  5
337
100
AcDbEntity
  8
0
100
AcDbLine
 62
7
  6
CONTINUOUS
 10
146.0428517018
 20
214.8900123327
 11
145.5428517018
 21
214.8900123327
  0
LINE
  5
338
100
AcDbEntity
  8
KONSTRUKTIONSELEMENTE
100
AcDbLine
 62
7
  6
CONTINUOUS
 10
146.0428517018
 20
216.8699722607
 11
145.1428517018
 21
216.8699722607
  0
LINE
  5
339
100
AcDbEntity
  8
0
100
AcDbLine
 62
7
  6
CONTINUOUS
 10
158.2428517018
 20
216.8699722607
 11
159.1428517018
 21
216.8699722607
  0
LINE
  5
33A
100
AcDbEntity
  8
0
100
AcDbLine
 62
7
  6
CONTINUOUS
 10
160.6428327176
 20
262.2448853229
 11
160.6100673753
 21
262.9615089074
  0
LINE
  5
33B
100
AcDbEntity
  8
0
100
AcDbLine
 62
7
  6
CONTINUOUS
 10
160.6100170136
 20
262.9618825535
 11
160.5141195473
 21
263.6728720839
  0
LINE
  5
33C
100
AcDbEntity
  8
0
100
AcDbLine
 62
7
  6
CONTINUOUS
 10
160.5140189181
 20
263.6736178936
 11
160.3560174203
 21
264.3722085775
  0
LWPOLYLINE
  5
33D
100
AcDbEntity
  8
0
100
AcDbPolyline
 62
7
  6
CONTINUOUS
 90
3
 70
0
 10
160.3557683858
 20
264.3733096633
 10
160.1375045214
 20
265.0534922289
 10
160.0539978992
 20
265.2696255719
  0
LINE
  5
33E
100
AcDbEntity
  8
BEZUGSACHSEN
100
AcDbLine
 62
7
  6
CONTINUOUS
 10
135.6428517018
 20
107.5199722607
 11
134.6428517018
 21
106.5199722607
  0
LINE
  5
33F
100
AcDbEntity
  8
0
100
AcDbLine
 62
7
  6
CONTINUOUS
 10
159.1428517018
 20
266.937349041
 11
158.6896857573
 21
267.5181842596
  0
LINE
  5
340
100
AcDbEntity
  8
0
100
AcDbLine
 62
7
  6
CONTINUOUS
 10
145.1428517018
 20
265.6199722607
 11
144.3856978431
 21
265.6199722607
  0
LINE
  5
341
100
AcDbEntity
  8
0
100
AcDbLine
 62
7
  6
CONTINUOUS
 10
159.1428517018
 20
265.6199722607
 11
159.9000055604
 21
265.6199722607
  0
LINE
  5
342
100
AcDbEntity
  8
0
100
AcDbLine
 62
7
  6
CONTINUOUS
 10
158.2016747168
 20
268.040584541
 11
157.6612792543
 21
268.5249140233
  0
LINE
  5
343
100
AcDbEntity
  8
0
100
AcDbLine
 62
7
  6
CONTINUOUS
 10
158.6917697956
 20
267.5159533629
 11
158.1968450145
 21
268.0453138693
  0
LWPOLYLINE
  5
344
100
AcDbEntity
  8
0
100
AcDbPolyline
 62
7
  6
CONTINUOUS
 90
12
 70
0
 10
151.7928066296
 20
270.3699722063
 10
151.2237045899
 20
270.3501306979
 10
150.5088904436
 20
270.2684555824
 10
149.804074561
 20
270.1241745947
 10
149.1148191363
 20
269.9184143243
 10
148.4465416237
 20
269.6528039272
 10
147.804449427
 20
269.3294406701
 10
147.193571652
 20
268.9509003509
 10
146.6186152768
 20
268.5201525581
 10
146.0840286439
 20
268.040584499
 10
145.5939335645
 20
267.5159533121
 10
145.1428517018
 20
266.937349041
  0
LWPOLYLINE
  5
345
100
AcDbEntity
  8
KONSTRUKTIONSELEMENTE
100
AcDbPolyline
 62
7
  6
CONTINUOUS
 90
12
 70
0
 10
151.7928068713
 20
270.3699722063
 10
151.2364658485
 20
270.3510116518
 10
150.5207777433
 20
270.2703385767
 10
149.8150163298
 20
270.1269139597
 10
149.1247630344
 20
269.9218599723
 10
148.4554546689
 20
269.6568037424
 10
147.8123173963
 20
269.3338426401
 10
147.2003990092
 20
268.9555547963
 10
146.6244242144
 20
268.5249140766
 10
146.088858458
 20
268.0453139369
 10
145.5978396809
 20
267.5205196036
 10
145.1428517018
 20
266.937349041
  0
LINE
  5
346
100
AcDbEntity
  8
KONSTRUKTIONSELEMENTE
100
AcDbLine
 62
7
  6
CONTINUOUS
 10
152.493048872
 20
270.3699722607
 11
151.7926545315
 21
270.3699722607
  0
LINE
  5
347
100
AcDbEntity
  8
0
100
AcDbLine
 62
7
  6
CONTINUOUS
 10
153.061998804
 20
270.3501306986
 11
152.4928967739
 21
270.3699722063
  0
LINE
  5
348
100
AcDbEntity
  8
0
100
AcDbLine
 62
7
  6
CONTINUOUS
 10
153.776812942
 20
270.2684555852
 11
153.0492375554
 21
270.3510116517
  0
LINE
  5
349
100
AcDbEntity
  8
0
100
AcDbLine
 62
7
  6
CONTINUOUS
 10
154.4816288179
 20
270.1241746009
 11
153.764925665
 21
270.270338576
  0
LINE
  5
34A
100
AcDbEntity
  8
0
100
AcDbLine
 62
7
  6
CONTINUOUS
 10
155.1708842374
 20
269.9184143346
 11
154.4706870871
 21
270.1269139563
  0
LINE
  5
34B
100
AcDbEntity
  8
0
100
AcDbLine
 62
7
  6
CONTINUOUS
 10
155.8391617457
 20
269.6528039425
 11
155.1609403935
 21
269.9218599639
  0
LINE
  5
34C
100
AcDbEntity
  8
0
100
AcDbLine
 62
7
  6
CONTINUOUS
 10
156.4812539393
 20
269.329440691
 11
155.8302487709
 21
269.6568037261
  0
LINE
  5
34D
100
AcDbEntity
  8
0
100
AcDbLine
 62
7
  6
CONTINUOUS
 10
157.0921317117
 20
268.950900378
 11
156.4733860551
 21
269.3338426134
  0
LINE
  5
34E
100
AcDbEntity
  8
0
100
AcDbLine
 62
7
  6
CONTINUOUS
 10
157.6670880852
 20
268.5201525922
 11
157.0853044522
 21
268.9555547569
  0
LINE
  5
34F
100
AcDbEntity
  8
BEZUGSACHSEN
100
AcDbLine
 62
7
  6
CONTINUOUS
 10
268.7290849544
 20
106.5199722607
 11
284.7278122028
 21
106.5199722607
  0
LINE
  5
350
100
AcDbEntity
  8
BEZUGSACHSEN
100
AcDbLine
 62
7
  6
CONTINUOUS
 10
267.7284485786
 20
107.5199722607
 11
285.7284485786
 21
107.5199722607
  0
LINE
  5
351
100
AcDbEntity
  8
0
100
AcDbLine
 62
7
  6
CONTINUOUS
 10
250.446245546
 20
255.5311797549
 11
276.7284485786
 21
265.6199722607
  0
LINE
  5
352
100
AcDbEntity
  8
BEZUGSACHSEN
100
AcDbLine
 62
7
  6
CONTINUOUS
 10
268.7284485786
 20
106.5199722607
 11
267.7284485786
 21
107.5199722607
  0
LINE
  5
353
100
AcDbEntity
  8
0
100
AcDbLine
 62
7
  6
CONTINUOUS
 10
240.3981085017
 20
233.2078526618
 11
248.7397978309
 21
253.8542582557
  0
LINE
  5
354
100
AcDbEntity
  8
0
100
AcDbLine
 62
7
  6
CONTINUOUS
 10
238.7801396457
 20
219.0918124542
 11
242.5233392302
 21
223.6290276866
  0
LINE
  5
355
100
AcDbEntity
  8
0
100
AcDbLine
 62
7
  6
CONTINUOUS
 10
240.1114272563
 20
210.9134672305
 11
239.8561081378
 21
210.4134677073
  0
LINE
  5
356
100
AcDbEntity
  8
0
100
AcDbLine
 62
7
  6
CONTINUOUS
 10
240.6220654933
 20
210.2884667537
 11
240.8773846118
 21
210.6634667537
  0
LINE
  5
357
100
AcDbEntity
  8
0
100
AcDbLine
 62
7
  6
CONTINUOUS
 10
253.2284485786
 20
143.7199722607
 11
300.2284485786
 21
143.7199722607
  0
LINE
  5
358
100
AcDbEntity
  8
0
100
AcDbLine
 62
7
  6
CONTINUOUS
 10
235.7284485786
 20
241.1586625803
 11
235.7284485786
 21
172.8699722607
  0
LINE
  5
359
100
AcDbEntity
  8
0
100
AcDbLine
 62
7
  6
CONTINUOUS
 10
238.7801396457
 20
232.1611335369
 11
238.7801396457
 21
219.0918124542
  0
LINE
  5
35A
100
AcDbEntity
  8
0
100
AcDbLine
 62
7
  6
CONTINUOUS
 10
239.7284485786
 20
209.7884672305
 11
239.7284485786
 21
206.7884672305
  0
LINE
  5
35B
100
AcDbEntity
  8
0
100
AcDbLine
 62
7
  6
CONTINUOUS
 10
239.7284485786
 20
205.7884674689
 11
239.7284485786
 21
205.0384674689
  0
LINE
  5
35C
100
AcDbEntity
  8
0
100
AcDbLine
 62
7
  6
CONTINUOUS
 10
239.7284485786
 20
202.0384674689
 11
239.7284485786
 21
201.2884671113
  0
LINE
  5
35D
100
AcDbEntity
  8
0
100
AcDbLine
 62
7
  6
CONTINUOUS
 10
239.7284485786
 20
198.5384672305
 11
239.7284485786
 21
195.5384672305
  0
LINE
  5
35E
100
AcDbEntity
  8
0
100
AcDbLine
 62
7
  6
CONTINUOUS
 10
240.3667463748
 20
196.2884672305
 11
240.3667463748
 21
198.6634671113
  0
LINE
  5
35F
100
AcDbEntity
  8
0
100
AcDbLine
 62
7
  6
CONTINUOUS
 10
240.4944059341
 20
207.5384672305
 11
240.4944059341
 21
209.7884672305
  0
LINE
  5
360
100
AcDbEntity
  8
0
100
AcDbLine
 62
7
  6
CONTINUOUS
 10
239.8561081378
 20
210.4134677073
 11
239.7284485786
 21
209.7884672305
  0
LINE
  5
361
100
AcDbEntity
  8
0
100
AcDbLine
 62
7
  6
CONTINUOUS
 10
239.8561081378
 20
199.1634673497
 11
239.7284485786
 21
198.5384672305
  0
LINE
  5
362
100
AcDbEntity
  8
0
100
AcDbLine
 62
7
  6
CONTINUOUS
 10
240.4944059341
 20
209.7884672305
 11
240.6220654933
 21
210.2884667537
  0
LINE
  5
363
100
AcDbEntity
  8
0
100
AcDbLine
 62
7
  6
CONTINUOUS
 10
240.3667463748
 20
198.6634671113
 11
240.4944059341
 21
199.0384671113
  0
LINE
  5
364
100
AcDbEntity
  8
0
100
AcDbLine
 62
7
  6
CONTINUOUS
 10
240.6220654933
 20
211.4134667537
 11
240.1114272563
 21
210.9134672305
  0
LINE
  5
365
100
AcDbEntity
  8
0
100
AcDbLine
 62
7
  6
CONTINUOUS
 10
240.8773846118
 20
210.6634667537
 11
241.2603636472
 21
210.9134672305
  0
LINE
  5
366
100
AcDbEntity
  8
0
100
AcDbLine
 62
7
  6
CONTINUOUS
 10
241.1327037303
 20
211.6634672305
 11
240.6220654933
 21
211.4134667537
  0
LINE
  5
367
100
AcDbEntity
  8
0
100
AcDbLine
 62
7
  6
CONTINUOUS
 10
253.2284485786
 20
148.9199722607
 11
300.2284485786
 21
148.9199722607
  0
LINE
  5
368
100
AcDbEntity
  8
RUNDUNGEN
100
AcDbLine
 62
7
  6
CONTINUOUS
 10
299.7284485786
 20
149.1199722607
 11
253.7284485786
 21
149.1199722607
  0
LINE
  5
369
100
AcDbEntity
  8
0
100
AcDbLine
 62
7
  6
CONTINUOUS
 10
242.2816401212
 20
198.6634671113
 11
242.2816401212
 21
196.2884672305
  0
LINE
  5
36A
100
AcDbEntity
  8
0
100
AcDbLine
 62
7
  6
CONTINUOUS
 10
243.0475974767
 20
196.2884672305
 11
243.0475974767
 21
198.4134671709
  0
LINE
  5
36B
100
AcDbEntity
  8
0
100
AcDbLine
 62
7
  6
CONTINUOUS
 10
244.9624911337
 20
209.7884672305
 11
244.9624911337
 21
207.5384672305
  0
LINE
  5
36C
100
AcDbEntity
  8
0
100
AcDbLine
 62
7
  6
CONTINUOUS
 10
244.9624911337
 20
203.7884672305
 11
244.9624911337
 21
203.2884669921
  0
LINE
  5
36D
100
AcDbEntity
  8
0
100
AcDbLine
 62
7
  6
CONTINUOUS
 10
245.7284485786
 20
195.5384672305
 11
245.7284485786
 21
196.2884672305
  0
LINE
  5
36E
100
AcDbEntity
  8
0
100
AcDbLine
 62
7
  6
CONTINUOUS
 10
245.7284485786
 20
199.4134671113
 11
245.7284485786
 21
200.2884673497
  0
LINE
  5
36F
100
AcDbEntity
  8
0
100
AcDbLine
 62
7
  6
CONTINUOUS
 10
245.7284485786
 20
203.2884669921
 11
245.7284485786
 21
203.7884672305
  0
LINE
  5
370
100
AcDbEntity
  8
0
100
AcDbLine
 62
7
  6
CONTINUOUS
 10
245.7284485786
 20
206.7884672305
 11
245.7284485786
 21
209.7884672305
  0
LINE
  5
371
100
AcDbEntity
  8
0
100
AcDbLine
 62
7
  6
CONTINUOUS
 10
245.6007890081
 20
202.6634672305
 11
245.7284485786
 21
203.2884669921
  0
LINE
  5
372
100
AcDbEntity
  8
0
100
AcDbLine
 62
7
  6
CONTINUOUS
 10
244.9624911337
 20
203.2884669921
 11
244.8348315744
 21
202.7884674689
  0
LINE
  5
373
100
AcDbEntity
  8
0
100
AcDbLine
 62
7
  6
CONTINUOUS
 10
245.3454698561
 20
202.1634669921
 11
245.6007890081
 21
202.6634672305
  0
LINE
  5
374
100
AcDbEntity
  8
0
100
AcDbLine
 62
7
  6
CONTINUOUS
 10
244.8348315744
 20
202.7884674689
 11
244.5795123665
 21
202.4134674689
  0
LINE
  5
375
100
AcDbEntity
  8
0
100
AcDbLine
 62
7
  6
CONTINUOUS
 10
240.2390868156
 20
199.6634672305
 11
239.8561081378
 21
199.1634673497
  0
LINE
  5
376
100
AcDbEntity
  8
0
100
AcDbLine
 62
7
  6
CONTINUOUS
 10
240.4944059341
 20
199.0384671113
 11
240.7497250526
 21
199.2884672305
  0
LINE
  5
377
100
AcDbEntity
  8
0
100
AcDbLine
 62
7
  6
CONTINUOUS
 10
244.8348315744
 20
201.6634674689
 11
245.3454698561
 21
202.1634669921
  0
LINE
  5
378
100
AcDbEntity
  8
0
100
AcDbLine
 62
7
  6
CONTINUOUS
 10
240.7497250526
 20
200.0384672305
 11
240.2390868156
 21
199.6634672305
  0
LINE
  5
379
100
AcDbEntity
  8
0
100
AcDbLine
 62
7
  6
CONTINUOUS
 10
270.0484485786
 20
154.6999722607
 11
273.7984485786
 21
154.6999722607
  0
LINE
  5
37A
100
AcDbEntity
  8
0
100
AcDbLine
 62
7
  6
CONTINUOUS
 10
270.8817819367
 20
155.2318871654
 11
273.7984485786
 21
155.2318871654
  0
LINE
  5
37B
100
AcDbEntity
  8
0
100
AcDbLine
 62
7
  6
CONTINUOUS
 10
274.6317820112
 20
157.6786956079
 11
275.4651154439
 21
157.6786956079
  0
LINE
  5
37C
100
AcDbEntity
  8
0
100
AcDbLine
 62
7
  6
CONTINUOUS
 10
275.9859485786
 20
157.6786956079
 11
277.1317817132
 21
157.6786956079
  0
LINE
  5
37D
100
AcDbEntity
  8
0
100
AcDbLine
 62
7
  6
CONTINUOUS
 10
277.1317817132
 20
158.104227472
 11
275.9859485786
 21
158.104227472
  0
LINE
  5
37E
100
AcDbEntity
  8
0
100
AcDbLine
 62
7
  6
CONTINUOUS
 10
274.6317820112
 20
158.104227472
 11
275.4651154439
 21
158.104227472
  0
LINE
  5
37F
100
AcDbEntity
  8
0
100
AcDbLine
 62
7
  6
CONTINUOUS
 10
270.6734485786
 20
158.5297596342
 11
270.1526152483
 21
158.5297596342
  0
LINE
  5
380
100
AcDbEntity
  8
0
100
AcDbLine
 62
7
  6
CONTINUOUS
 10
276.2984485786
 20
154.806355236
 11
276.9234485786
 21
154.6999722607
  0
LINE
  5
381
100
AcDbEntity
  8
0
100
AcDbLine
 62
7
  6
CONTINUOUS
 10
276.4026154439
 20
155.2318871654
 11
276.9234485786
 21
155.1255041621
  0
LINE
  5
382
100
AcDbEntity
  8
0
100
AcDbLine
 62
7
  6
CONTINUOUS
 10
275.9859485786
 20
154.9127382114
 11
276.2984485786
 21
154.806355236
  0
LINE
  5
383
100
AcDbEntity
  8
0
100
AcDbLine
 62
7
  6
CONTINUOUS
 10
249.7284485786
 20
181.3699722607
 11
249.7284485786
 21
239.3514473871
  0
LINE
  5
384
100
AcDbEntity
  8
RUNDUNGEN
100
AcDbLine
 62
7
  6
CONTINUOUS
 10
251.7284485786
 20
151.1199722607
 11
251.7284485786
 21
179.1199722607
  0
LINE
  5
385
100
AcDbEntity
  8
0
100
AcDbLine
 62
7
  6
CONTINUOUS
 10
251.7284485786
 20
151.1199722607
 11
251.7284485786
 21
179.1199722607
  0
LINE
  5
386
100
AcDbEntity
  8
0
100
AcDbLine
 62
7
  6
CONTINUOUS
 10
244.5795123665
 20
202.4134674689
 11
244.1965336888
 21
202.1634669921
  0
LINE
  5
387
100
AcDbEntity
  8
0
100
AcDbLine
 62
7
  6
CONTINUOUS
 10
244.324193248
 20
201.4134673497
 11
244.8348315744
 21
201.6634674689
  0
LINE
  5
388
100
AcDbEntity
  8
0
100
AcDbLine
 62
7
  6
CONTINUOUS
 10
294.45261604
 20
163.5782701314
 11
294.8692811172
 21
163.6846530975
  0
LINE
  5
389
100
AcDbEntity
  8
0
100
AcDbLine
 62
7
  6
CONTINUOUS
 10
289.6609485786
 20
163.5782701314
 11
290.07761604
 21
163.6846530975
  0
LINE
  5
38A
100
AcDbEntity
  8
0
100
AcDbLine
 62
7
  6
CONTINUOUS
 10
293.4109485786
 20
167.8335892946
 11
293.82761604
 21
167.9399722607
  0
LINE
  5
38B
100
AcDbEntity
  8
0
100
AcDbLine
 62
7
  6
CONTINUOUS
 10
294.45261604
 20
162.9399722607
 11
294.9734485786
 21
163.046355236
  0
LINE
  5
38C
100
AcDbEntity
  8
0
100
AcDbLine
 62
7
  6
CONTINUOUS
 10
271.1942819367
 20
159.0616744644
 11
271.7151152949
 21
159.1680574305
  0
LINE
  5
38D
100
AcDbEntity
  8
0
100
AcDbLine
 62
7
  6
CONTINUOUS
 10
289.6609485786
 20
162.9399722607
 11
290.1817811172
 21
163.046355236
  0
LINE
  5
38E
100
AcDbEntity
  8
0
100
AcDbLine
 62
7
  6
CONTINUOUS
 10
273.7234485786
 20
162.9399722607
 11
274.2442823093
 21
163.046355236
  0
LINE
  5
38F
100
AcDbEntity
  8
0
100
AcDbLine
 62
7
  6
CONTINUOUS
 10
280.8067811172
 20
165.1740148456
 11
281.32761604
 21
165.2803978116
  0
LINE
  5
390
100
AcDbEntity
  8
0
100
AcDbLine
 62
7
  6
CONTINUOUS
 10
271.0901152204
 20
159.5935892946
 11
271.8192818622
 21
159.6999722607
  0
LINE
  5
391
100
AcDbEntity
  8
0
100
AcDbLine
 62
7
  6
CONTINUOUS
 10
275.4651154439
 20
158.9552914984
 11
275.9859485786
 21
158.9552914984
  0
LINE
  5
392
100
AcDbEntity
  8
0
100
AcDbLine
 62
7
  6
CONTINUOUS
 10
271.7151152949
 20
159.1680574305
 11
272.1317818622
 21
159.1680574305
  0
LINE
  5
393
100
AcDbEntity
  8
0
100
AcDbLine
 62
7
  6
CONTINUOUS
 10
271.8192818622
 20
159.6999722607
 11
272.2359485786
 21
159.6999722607
  0
LINE
  5
394
100
AcDbEntity
  8
0
100
AcDbLine
 62
7
  6
CONTINUOUS
 10
258.5151152949
 20
162.9399722607
 11
259.3484485786
 21
162.9399722607
  0
LINE
  5
395
100
AcDbEntity
  8
0
100
AcDbLine
 62
7
  6
CONTINUOUS
 10
261.8484485786
 20
162.9399722607
 11
265.5984485786
 21
162.9399722607
  0
LINE
  5
396
100
AcDbEntity
  8
0
100
AcDbLine
 62
7
  6
CONTINUOUS
 10
266.4317817132
 20
162.9399722607
 11
268.9317823093
 21
162.9399722607
  0
LINE
  5
397
100
AcDbEntity
  8
0
100
AcDbLine
 62
7
  6
CONTINUOUS
 10
272.7859485786
 20
162.9399722607
 11
273.7234485786
 21
162.9399722607
  0
LINE
  5
398
100
AcDbEntity
  8
0
100
AcDbLine
 62
7
  6
CONTINUOUS
 10
278.3067811172
 20
162.9399722607
 11
278.9317811172
 21
162.9399722607
  0
LINE
  5
399
100
AcDbEntity
  8
0
100
AcDbLine
 62
7
  6
CONTINUOUS
 10
282.9942811172
 20
162.9399722607
 11
286.7442811172
 21
162.9399722607
  0
LINE
  5
39A
100
AcDbEntity
  8
0
100
AcDbLine
 62
7
  6
CONTINUOUS
 10
289.2442811172
 20
162.9399722607
 11
289.6609485786
 21
162.9399722607
  0
LINE
  5
39B
100
AcDbEntity
  8
0
100
AcDbLine
 62
7
  6
CONTINUOUS
 10
293.6192811172
 20
162.9399722607
 11
294.45261604
 21
162.9399722607
  0
LINE
  5
39C
100
AcDbEntity
  8
0
100
AcDbLine
 62
7
  6
CONTINUOUS
 10
262.4734485786
 20
163.5782701314
 11
265.5984485786
 21
163.5782701314
  0
LINE
  5
39D
100
AcDbEntity
  8
0
100
AcDbLine
 62
7
  6
CONTINUOUS
 10
267.0567823093
 20
163.5782701314
 11
269.0359485786
 21
163.5782701314
  0
LINE
  5
39E
100
AcDbEntity
  8
0
100
AcDbLine
 62
7
  6
CONTINUOUS
 10
272.7859485786
 20
163.5782701314
 11
273.7234485786
 21
163.5782701314
  0
LINE
  5
39F
100
AcDbEntity
  8
0
100
AcDbLine
 62
7
  6
CONTINUOUS
 10
283.6192811172
 20
163.5782701314
 11
286.7442811172
 21
163.5782701314
  0
LINE
  5
3A0
100
AcDbEntity
  8
0
100
AcDbLine
 62
7
  6
CONTINUOUS
 10
289.2442811172
 20
163.5782701314
 11
289.6609485786
 21
163.5782701314
  0
LINE
  5
3A1
100
AcDbEntity
  8
0
100
AcDbLine
 62
7
  6
CONTINUOUS
 10
293.6192811172
 20
163.5782701314
 11
294.45261604
 21
163.5782701314
  0
LINE
  5
3A2
100
AcDbEntity
  8
0
100
AcDbLine
 62
7
  6
CONTINUOUS
 10
292.1609485786
 20
164.3229509682
 11
292.7859485786
 21
164.3229509682
  0
LINE
  5
3A3
100
AcDbEntity
  8
0
100
AcDbLine
 62
7
  6
CONTINUOUS
 10
276.0151148479
 20
164.7484828324
 11
277.4734485786
 21
164.7484828324
  0
LINE
  5
3A4
100
AcDbEntity
  8
0
100
AcDbLine
 62
7
  6
CONTINUOUS
 10
272.2359485786
 20
159.6999722607
 11
272.8609485786
 21
159.5935892946
  0
LINE
  5
3A5
100
AcDbEntity
  8
0
100
AcDbLine
 62
7
  6
CONTINUOUS
 10
272.1317818622
 20
159.1680574305
 11
272.6526151459
 21
159.0616744644
  0
LINE
  5
3A6
100
AcDbEntity
  8
0
100
AcDbLine
 62
7
  6
CONTINUOUS
 10
272.2651148479
 20
163.046355236
 11
272.7859485786
 21
162.9399722607
  0
LINE
  5
3A7
100
AcDbEntity
  8
0
100
AcDbLine
 62
7
  6
CONTINUOUS
 10
272.3692823093
 20
163.6846530975
 11
272.7859485786
 21
163.5782701314
  0
LINE
  5
3A8
100
AcDbEntity
  8
0
100
AcDbLine
 62
7
  6
CONTINUOUS
 10
269.0359485786
 20
165.1740148456
 11
269.3484485786
 21
165.0676318795
  0
LINE
  5
3A9
100
AcDbEntity
  8
0
100
AcDbLine
 62
7
  6
CONTINUOUS
 10
272.8609485786
 20
159.5935892946
 11
273.2776151459
 21
159.3808233625
  0
LINE
  5
3AA
100
AcDbEntity
  8
0
100
AcDbLine
 62
7
  6
CONTINUOUS
 10
271.8484485786
 20
163.259121196
 11
272.2651148479
 21
163.046355236
  0
LINE
  5
3AB
100
AcDbEntity
  8
0
100
AcDbLine
 62
7
  6
CONTINUOUS
 10
269.6609485786
 20
165.4931637437
 11
269.8692823093
 21
165.3867807776
  0
LINE
  5
3AC
100
AcDbEntity
  8
0
100
AcDbLine
 62
7
  6
CONTINUOUS
 10
275.6734485786
 20
155.1255041621
 11
275.9859485786
 21
154.9127382114
  0
LINE
  5
3AD
100
AcDbEntity
  8
0
100
AcDbLine
 62
7
  6
CONTINUOUS
 10
276.0901154439
 20
155.4446530975
 11
276.4026154439
 21
155.2318871654
  0
LINE
  5
3AE
100
AcDbEntity
  8
0
100
AcDbLine
 62
7
  6
CONTINUOUS
 10
272.6526151459
 20
159.0616744644
 11
272.9651151459
 21
158.8489085323
  0
LINE
  5
3AF
100
AcDbEntity
  8
0
100
AcDbLine
 62
7
  6
CONTINUOUS
 10
242.7922783582
 20
199.1634673497
 11
242.5369592397
 21
199.6634672305
  0
LINE
  5
3B0
100
AcDbEntity
  8
0
100
AcDbLine
 62
7
  6
CONTINUOUS
 10
242.1539805619
 20
199.0384671113
 11
242.2816401212
 21
198.6634671113
  0
LINE
  5
3B1
100
AcDbEntity
  8
0
100
AcDbLine
 62
7
  6
CONTINUOUS
 10
257.4734485786
 20
167.9399722607
 11
258.9317818622
 21
163.5782701314
  0
LINE
  5
3B2
100
AcDbEntity
  8
0
100
AcDbLine
 62
7
  6
CONTINUOUS
 10
256.8484485786
 20
167.9399722607
 11
258.5151152949
 21
162.9399722607
  0
LINE
  5
3B3
100
AcDbEntity
  8
0
100
AcDbLine
 62
7
  6
CONTINUOUS
 10
244.8348315744
 20
204.2884674689
 11
244.9624911337
 21
203.7884672305
  0
LINE
  5
3B4
100
AcDbEntity
  8
0
100
AcDbLine
 62
7
  6
CONTINUOUS
 10
244.8348315744
 20
210.2884667537
 11
244.9624911337
 21
209.7884672305
  0
LINE
  5
3B5
100
AcDbEntity
  8
0
100
AcDbLine
 62
7
  6
CONTINUOUS
 10
245.7284485786
 20
203.7884672305
 11
245.6007890081
 21
204.4134669921
  0
LINE
  5
3B6
100
AcDbEntity
  8
0
100
AcDbLine
 62
7
  6
CONTINUOUS
 10
245.7284485786
 20
209.7884672305
 11
245.6007890081
 21
210.4134677073
  0
LINE
  5
3B7
100
AcDbEntity
  8
0
100
AcDbLine
 62
7
  6
CONTINUOUS
 10
253.2284485786
 20
148.9199722607
 11
253.2284485786
 21
143.7199722607
  0
LINE
  5
3B8
100
AcDbEntity
  8
0
100
AcDbLine
 62
7
  6
CONTINUOUS
 10
254.2284485786
 20
186.5199722607
 11
254.2284485786
 21
181.3199722607
  0
LINE
  5
3B9
100
AcDbEntity
  8
0
100
AcDbLine
 62
7
  6
CONTINUOUS
 10
245.7284485786
 20
200.2884673497
 11
242.7922783582
 21
199.1634673497
  0
LINE
  5
3BA
100
AcDbEntity
  8
0
100
AcDbLine
 62
7
  6
CONTINUOUS
 10
243.0475974767
 20
198.4134671709
 11
245.7284485786
 21
199.4134671113
  0
LINE
  5
3BB
100
AcDbEntity
  8
0
100
AcDbLine
 62
7
  6
CONTINUOUS
 10
241.1327037303
 20
200.1634671113
 11
240.7497250526
 21
200.0384672305
  0
LINE
  5
3BC
100
AcDbEntity
  8
0
100
AcDbLine
 62
7
  6
CONTINUOUS
 10
240.7497250526
 20
199.2884672305
 11
241.1327037303
 21
199.4134671113
  0
LINE
  5
3BD
100
AcDbEntity
  8
0
100
AcDbLine
 62
7
  6
CONTINUOUS
 10
273.7234485786
 20
163.5782701314
 11
274.1401148479
 21
163.6846530975
  0
LINE
  5
3BE
100
AcDbEntity
  8
0
100
AcDbLine
 62
7
  6
CONTINUOUS
 10
272.3692823093
 20
167.1952914984
 11
272.7859485786
 21
167.3016744644
  0
LINE
  5
3BF
100
AcDbEntity
  8
0
100
AcDbLine
 62
7
  6
CONTINUOUS
 10
268.9317823093
 20
162.9399722607
 11
269.4526148479
 21
163.046355236
  0
LINE
  5
3C0
100
AcDbEntity
  8
0
100
AcDbLine
 62
7
  6
CONTINUOUS
 10
272.2651148479
 20
167.8335892946
 11
272.7859485786
 21
167.9399722607
  0
LINE
  5
3C1
100
AcDbEntity
  8
0
100
AcDbLine
 62
7
  6
CONTINUOUS
 10
273.6192823093
 20
165.0676318795
 11
274.5567823093
 21
165.0676318795
  0
LINE
  5
3C2
100
AcDbEntity
  8
0
100
AcDbLine
 62
7
  6
CONTINUOUS
 10
267.0567823093
 20
165.1740148456
 11
269.0359485786
 21
165.1740148456
  0
LINE
  5
3C3
100
AcDbEntity
  8
0
100
AcDbLine
 62
7
  6
CONTINUOUS
 10
278.9317811172
 20
165.1740148456
 11
280.8067811172
 21
165.1740148456
  0
LINE
  5
3C4
100
AcDbEntity
  8
0
100
AcDbLine
 62
7
  6
CONTINUOUS
 10
293.82761604
 20
165.1740148456
 11
294.45261604
 21
165.1740148456
  0
LINE
  5
3C5
100
AcDbEntity
  8
0
100
AcDbLine
 62
7
  6
CONTINUOUS
 10
277.4734485786
 20
165.2803978116
 11
276.0151148479
 21
165.2803978116
  0
LINE
  5
3C6
100
AcDbEntity
  8
0
100
AcDbLine
 62
7
  6
CONTINUOUS
 10
273.6192823093
 20
165.7059296758
 11
275.1817823093
 21
165.7059296758
  0
LINE
  5
3C7
100
AcDbEntity
  8
0
100
AcDbLine
 62
7
  6
CONTINUOUS
 10
267.0567823093
 20
165.8123126418
 11
269.0359485786
 21
165.8123126418
  0
LINE
  5
3C8
100
AcDbEntity
  8
0
100
AcDbLine
 62
7
  6
CONTINUOUS
 10
278.9317811172
 20
165.8123126418
 11
280.9109485786
 21
165.8123126418
  0
LINE
  5
3C9
100
AcDbEntity
  8
0
100
AcDbLine
 62
7
  6
CONTINUOUS
 10
293.82761604
 20
165.8123126418
 11
294.45261604
 21
165.8123126418
  0
LINE
  5
3CA
100
AcDbEntity
  8
0
100
AcDbLine
 62
7
  6
CONTINUOUS
 10
274.5567823093
 20
166.6633763701
 11
275.1817823093
 21
166.6633763701
  0
LINE
  5
3CB
100
AcDbEntity
  8
0
100
AcDbLine
 62
7
  6
CONTINUOUS
 10
295.07761604
 20
166.7697596342
 11
295.70261604
 21
166.7697596342
  0
LINE
  5
3CC
100
AcDbEntity
  8
0
100
AcDbLine
 62
7
  6
CONTINUOUS
 10
267.0567823093
 20
167.3016744644
 11
269.0359485786
 21
167.3016744644
  0
LINE
  5
3CD
100
AcDbEntity
  8
0
100
AcDbLine
 62
7
  6
CONTINUOUS
 10
272.7859485786
 20
167.3016744644
 11
273.7234485786
 21
167.3016744644
  0
LINE
  5
3CE
100
AcDbEntity
  8
0
100
AcDbLine
 62
7
  6
CONTINUOUS
 10
293.82761604
 20
167.3016744644
 11
294.45261604
 21
167.3016744644
  0
LINE
  5
3CF
100
AcDbEntity
  8
0
100
AcDbLine
 62
7
  6
CONTINUOUS
 10
278.9317811172
 20
167.4080574305
 11
280.9109485786
 21
167.4080574305
  0
LINE
  5
3D0
100
AcDbEntity
  8
0
100
AcDbLine
 62
7
  6
CONTINUOUS
 10
256.8484485786
 20
167.9399722607
 11
257.4734485786
 21
167.9399722607
  0
LINE
  5
3D1
100
AcDbEntity
  8
0
100
AcDbLine
 62
7
  6
CONTINUOUS
 10
260.3901151459
 20
167.9399722607
 11
261.0151151459
 21
167.9399722607
  0
LINE
  5
3D2
100
AcDbEntity
  8
0
100
AcDbLine
 62
7
  6
CONTINUOUS
 10
261.8484485786
 20
167.9399722607
 11
262.4734485786
 21
167.9399722607
  0
LINE
  5
3D3
100
AcDbEntity
  8
0
100
AcDbLine
 62
7
  6
CONTINUOUS
 10
266.4317817132
 20
167.9399722607
 11
268.9317823093
 21
167.9399722607
  0
LINE
  5
3D4
100
AcDbEntity
  8
0
100
AcDbLine
 62
7
  6
CONTINUOUS
 10
272.7859485786
 20
167.9399722607
 11
273.7234485786
 21
167.9399722607
  0
LINE
  5
3D5
100
AcDbEntity
  8
0
100
AcDbLine
 62
7
  6
CONTINUOUS
 10
278.3067811172
 20
167.9399722607
 11
280.8067811172
 21
167.9399722607
  0
LINE
  5
3D6
100
AcDbEntity
  8
0
100
AcDbLine
 62
7
  6
CONTINUOUS
 10
282.9942811172
 20
167.9399722607
 11
283.6192811172
 21
167.9399722607
  0
LINE
  5
3D7
100
AcDbEntity
  8
0
100
AcDbLine
 62
7
  6
CONTINUOUS
 10
287.57761604
 20
167.9399722607
 11
288.20261604
 21
167.9399722607
  0
LINE
  5
3D8
100
AcDbEntity
  8
0
100
AcDbLine
 62
7
  6
CONTINUOUS
 10
290.70261604
 20
167.9399722607
 11
291.32761604
 21
167.9399722607
  0
LINE
  5
3D9
100
AcDbEntity
  8
0
100
AcDbLine
 62
7
  6
CONTINUOUS
 10
293.82761604
 20
167.9399722607
 11
294.3484485786
 21
167.9399722607
  0
LINE
  5
3DA
100
AcDbEntity
  8
0
100
AcDbLine
 62
7
  6
CONTINUOUS
 10
288.7234485786
 20
163.046355236
 11
289.2442811172
 21
162.9399722607
  0
LINE
  5
3DB
100
AcDbEntity
  8
0
100
AcDbLine
 62
7
  6
CONTINUOUS
 10
268.9317823093
 20
167.9399722607
 11
269.4526148479
 21
167.8335892946
  0
LINE
  5
3DC
100
AcDbEntity
  8
0
100
AcDbLine
 62
7
  6
CONTINUOUS
 10
293.0984485786
 20
163.046355236
 11
293.6192811172
 21
162.9399722607
  0
LINE
  5
3DD
100
AcDbEntity
  8
0
100
AcDbLine
 62
7
  6
CONTINUOUS
 10
273.7234485786
 20
167.9399722607
 11
274.2442823093
 21
167.8335892946
  0
LINE
  5
3DE
100
AcDbEntity
  8
0
100
AcDbLine
 62
7
  6
CONTINUOUS
 10
280.8067811172
 20
167.9399722607
 11
281.32761604
 21
167.8335892946
  0
LINE
  5
3DF
100
AcDbEntity
  8
0
100
AcDbLine
 62
7
  6
CONTINUOUS
 10
294.45261604
 20
165.8123126418
 11
294.9734485786
 21
165.7059296758
  0
LINE
  5
3E0
100
AcDbEntity
  8
0
100
AcDbLine
 62
7
  6
CONTINUOUS
 10
273.7234485786
 20
167.3016744644
 11
274.1401148479
 21
167.1952914984
  0
LINE
  5
3E1
100
AcDbEntity
  8
0
100
AcDbLine
 62
7
  6
CONTINUOUS
 10
288.82761604
 20
163.6846530975
 11
289.2442811172
 21
163.5782701314
  0
LINE
  5
3E2
100
AcDbEntity
  8
0
100
AcDbLine
 62
7
  6
CONTINUOUS
 10
293.20261604
 20
163.6846530975
 11
293.6192811172
 21
163.5782701314
  0
LINE
  5
3E3
100
AcDbEntity
  8
0
100
AcDbLine
 62
7
  6
CONTINUOUS
 10
293.4109485786
 20
165.2803978116
 11
293.82761604
 21
165.1740148456
  0
LINE
  5
3E4
100
AcDbEntity
  8
0
100
AcDbLine
 62
7
  6
CONTINUOUS
 10
294.45261604
 20
165.1740148456
 11
294.8692811172
 21
165.0676318795
  0
LINE
  5
3E5
100
AcDbEntity
  8
0
100
AcDbLine
 62
7
  6
CONTINUOUS
 10
269.0359485786
 20
167.3016744644
 11
269.3484485786
 21
167.1952914984
  0
LINE
  5
3E6
100
AcDbEntity
  8
0
100
AcDbLine
 62
7
  6
CONTINUOUS
 10
280.9109485786
 20
167.4080574305
 11
281.2234485786
 21
167.3016744644
  0
LINE
  5
3E7
100
AcDbEntity
  8
0
100
AcDbLine
 62
7
  6
CONTINUOUS
 10
274.2442823093
 20
167.8335892946
 11
274.6609485786
 21
167.6208233625
  0
LINE
  5
3E8
100
AcDbEntity
  8
0
100
AcDbLine
 62
7
  6
CONTINUOUS
 10
272.0567823093
 20
163.8974191041
 11
272.3692823093
 21
163.6846530975
  0
LINE
  5
3E9
100
AcDbEntity
  8
0
100
AcDbLine
 62
7
  6
CONTINUOUS
 10
274.1401148479
 20
167.1952914984
 11
274.4526148479
 21
166.9825255663
  0
LINE
  5
3EA
100
AcDbEntity
  8
0
100
AcDbLine
 62
7
  6
CONTINUOUS
 10
269.4526148479
 20
167.8335892946
 11
269.8692823093
 21
167.5144403965
  0
LINE
  5
3EB
100
AcDbEntity
  8
0
100
AcDbLine
 62
7
  6
CONTINUOUS
 10
273.2776151459
 20
159.3808233625
 11
273.6942820112
 21
158.9552914984
  0
LINE
  5
3EC
100
AcDbEntity
  8
0
100
AcDbLine
 62
7
  6
CONTINUOUS
 10
269.3484485786
 20
165.0676318795
 11
269.5567823093
 21
164.8548659474
  0
LINE
  5
3ED
100
AcDbEntity
  8
0
100
AcDbLine
 62
7
  6
CONTINUOUS
 10
271.4317823093
 20
163.6846530975
 11
271.8484485786
 21
163.259121196
  0
LINE
  5
3EE
100
AcDbEntity
  8
0
100
AcDbLine
 62
7
  6
CONTINUOUS
 10
269.3484485786
 20
167.1952914984
 11
269.5567823093
 21
166.9825255663
  0
LINE
  5
3EF
100
AcDbEntity
  8
0
100
AcDbLine
 62
7
  6
CONTINUOUS
 10
269.8692823093
 20
165.3867807776
 11
270.1817823093
 21
164.9612489135
  0
LINE
  5
3F0
100
AcDbEntity
  8
0
100
AcDbLine
 62
7
  6
CONTINUOUS
 10
269.8692823093
 20
167.5144403965
 11
270.1817823093
 21
167.0889085323
  0
LINE
  5
3F1
100
AcDbEntity
  8
0
100
AcDbLine
 62
7
  6
CONTINUOUS
 10
272.9651151459
 20
158.8489085323
 11
273.1734485786
 21
158.5297596342
  0
LINE
  5
3F2
100
AcDbEntity
  8
0
100
AcDbLine
 62
7
  6
CONTINUOUS
 10
245.6007890081
 20
204.4134669921
 11
245.3454698561
 21
204.9134672305
  0
LINE
  5
3F3
100
AcDbEntity
  8
0
100
AcDbLine
 62
7
  6
CONTINUOUS
 10
245.6007890081
 20
210.4134677073
 11
245.3454698561
 21
210.9134672305
  0
LINE
  5
3F4
100
AcDbEntity
  8
0
100
AcDbLine
 62
7
  6
CONTINUOUS
 10
260.4784485786
 20
149.1199722607
 11
260.4784485786
 21
148.9199722607
  0
LINE
  5
3F5
100
AcDbEntity
  8
0
100
AcDbLine
 62
7
  6
CONTINUOUS
 10
261.4784485786
 20
181.3199722607
 11
261.4784485786
 21
181.1199722607
  0
LINE
  5
3F6
100
AcDbEntity
  8
BEZUGSACHSEN
100
AcDbLine
 62
7
  6
CONTINUOUS
 10
261.7284485786
 20
187.0199722607
 11
261.7284485786
 21
199.0199722675
  0
LINE
  5
3F7
100
AcDbEntity
  8
0
100
AcDbLine
 62
7
  6
CONTINUOUS
 10
261.8484485786
 20
162.9399722607
 11
261.8484485786
 21
167.9399722607
  0
LINE
  5
3F8
100
AcDbEntity
  8
0
100
AcDbLine
 62
7
  6
CONTINUOUS
 10
262.4734485786
 20
163.5782701314
 11
262.4734485786
 21
167.9399722607
  0
LINE
  5
3F9
100
AcDbEntity
  8
BEZUGSACHSEN
100
AcDbLine
 62
7
  6
CONTINUOUS
 10
262.7284485786
 20
186.5199722607
 11
262.7284485786
 21
187.0199722607
  0
LINE
  5
3FA
100
AcDbEntity
  8
KONSTRUKTIONSELEMENTE
100
AcDbLine
 62
7
  6
CONTINUOUS
 10
264.7499350778
 20
199.0199722607
 11
264.7499350778
 21
199.2199722607
  0
LINE
  5
3FB
100
AcDbEntity
  8
0
100
AcDbLine
 62
7
  6
CONTINUOUS
 10
270.4984485786
 20
171.7599722607
 11
271.3984485786
 21
171.7599722607
  0
LINE
  5
3FC
100
AcDbEntity
  8
0
100
AcDbLine
 62
7
  6
CONTINUOUS
 10
273.2059654521
 20
171.7599722607
 11
274.4859654521
 21
171.7599722607
  0
LINE
  5
3FD
100
AcDbEntity
  8
0
100
AcDbLine
 62
7
  6
CONTINUOUS
 10
279.3584485786
 20
171.7599722607
 11
281.4584485786
 21
171.7599722607
  0
LINE
  5
3FE
100
AcDbEntity
  8
0
100
AcDbLine
 62
7
  6
CONTINUOUS
 10
280.2584485786
 20
172.5099722607
 11
281.1584485786
 21
172.5099722607
  0
LINE
  5
3FF
100
AcDbEntity
  8
0
100
AcDbLine
 62
7
  6
CONTINUOUS
 10
271.3984485786
 20
173.5599722607
 11
271.8607393248
 21
173.5599722607
  0
LINE
  5
400
100
AcDbEntity
  8
0
100
AcDbLine
 62
7
  6
CONTINUOUS
 10
271.3984485786
 20
174.2899722607
 11
272.5634485786
 21
174.2899722607
  0
LINE
  5
401
100
AcDbEntity
  8
0
100
AcDbLine
 62
7
  6
CONTINUOUS
 10
270.4984485786
 20
175.1199722607
 11
271.3984485786
 21
175.1199722607
  0
LINE
  5
402
100
AcDbEntity
  8
0
100
AcDbLine
 62
7
  6
CONTINUOUS
 10
279.3584485786
 20
175.1199722607
 11
280.2584485786
 21
175.1199722607
  0
LINE
  5
403
100
AcDbEntity
  8
0
100
AcDbLine
 62
7
  6
CONTINUOUS
 10
270.4984485786
 20
175.4199722607
 11
272.5634485786
 21
175.4199722607
  0
LINE
  5
404
100
AcDbEntity
  8
0
100
AcDbLine
 62
7
  6
CONTINUOUS
 10
279.3584485786
 20
175.4199722607
 11
281.1584485786
 21
175.4199722607
  0
LINE
  5
405
100
AcDbEntity
  8
0
100
AcDbLine
 62
7
  6
CONTINUOUS
 10
270.4984485786
 20
176.1699722607
 11
272.7134485786
 21
176.1699722607
  0
LINE
  5
406
100
AcDbEntity
  8
0
100
AcDbLine
 62
7
  6
CONTINUOUS
 10
274.9284485786
 20
176.1699722607
 11
275.8284485786
 21
176.1699722607
  0
LINE
  5
407
100
AcDbEntity
  8
0
100
AcDbLine
 62
7
  6
CONTINUOUS
 10
277.5584485786
 20
176.1699722607
 11
278.4584485786
 21
176.1699722607
  0
LINE
  5
408
100
AcDbEntity
  8
0
100
AcDbLine
 62
7
  6
CONTINUOUS
 10
279.3584485786
 20
176.1699722607
 11
281.4584485786
 21
176.1699722607
  0
LINE
  5
409
100
AcDbEntity
  8
0
100
AcDbLine
 62
7
  6
CONTINUOUS
 10
294.3484485786
 20
167.9399722607
 11
294.8692811172
 21
167.8335892946
  0
LINE
  5
40A
100
AcDbEntity
  8
0
100
AcDbLine
 62
7
  6
CONTINUOUS
 10
293.51511604
 20
165.9186956079
 11
293.82761604
 21
165.8123126418
  0
LINE
  5
40B
100
AcDbEntity
  8
0
100
AcDbLine
 62
7
  6
CONTINUOUS
 10
294.45261604
 20
167.3016744644
 11
294.76511604
 21
167.1952914984
  0
LINE
  5
40C
100
AcDbEntity
  8
0
100
AcDbLine
 62
7
  6
CONTINUOUS
 10
288.3067811172
 20
163.259121196
 11
288.7234485786
 21
163.046355236
  0
LINE
  5
40D
100
AcDbEntity
  8
0
100
AcDbLine
 62
7
  6
CONTINUOUS
 10
292.9942811172
 20
165.4931637437
 11
293.4109485786
 21
165.2803978116
  0
LINE
  5
40E
100
AcDbEntity
  8
0
100
AcDbLine
 62
7
  6
CONTINUOUS
 10
294.9734485786
 20
165.7059296758
 11
295.39011604
 21
165.4931637437
  0
LINE
  5
40F
100
AcDbEntity
  8
0
100
AcDbLine
 62
7
  6
CONTINUOUS
 10
292.57761604
 20
163.3655041621
 11
293.0984485786
 21
163.046355236
  0
LINE
  5
410
100
AcDbEntity
  8
0
100
AcDbLine
 62
7
  6
CONTINUOUS
 10
288.51511604
 20
163.8974191041
 11
288.82761604
 21
163.6846530975
  0
LINE
  5
411
100
AcDbEntity
  8
0
100
AcDbLine
 62
7
  6
CONTINUOUS
 10
281.32761604
 20
167.8335892946
 11
281.7442811172
 21
167.5144403965
  0
LINE
  5
412
100
AcDbEntity
  8
0
100
AcDbLine
 62
7
  6
CONTINUOUS
 10
241.8986614434
 20
199.2884672305
 11
242.1539805619
 21
199.0384671113
  0
LINE
  5
413
100
AcDbEntity
  8
0
100
AcDbLine
 62
7
  6
CONTINUOUS
 10
274.6609485786
 20
167.6208233625
 11
275.0776148479
 21
167.1952914984
  0
LINE
  5
414
100
AcDbEntity
  8
0
100
AcDbLine
 62
7
  6
CONTINUOUS
 10
281.2234485786
 20
167.3016744644
 11
281.4317811172
 21
167.0889085323
  0
LINE
  5
415
100
AcDbEntity
  8
0
100
AcDbLine
 62
7
  6
CONTINUOUS
 10
244.5795123665
 20
204.6634674689
 11
244.8348315744
 21
204.2884674689
  0
LINE
  5
416
100
AcDbEntity
  8
0
100
AcDbLine
 62
7
  6
CONTINUOUS
 10
244.5795123665
 20
210.6634667537
 11
244.8348315744
 21
210.2884667537
  0
LINE
  5
417
100
AcDbEntity
  8
0
100
AcDbLine
 62
7
  6
CONTINUOUS
 10
271.8484485786
 20
164.2165680022
 11
272.0567823093
 21
163.8974191041
  0
LINE
  5
418
100
AcDbEntity
  8
0
100
AcDbLine
 62
7
  6
CONTINUOUS
 10
271.2234485786
 20
164.1101850361
 11
271.4317823093
 21
163.6846530975
  0
LINE
  5
419
100
AcDbEntity
  8
0
100
AcDbLine
 62
7
  6
CONTINUOUS
 10
275.4651154439
 20
155.5510360635
 11
275.6734485786
 21
155.1255041621
  0
LINE
  5
41A
100
AcDbEntity
  8
0
100
AcDbLine
 62
7
  6
CONTINUOUS
 10
242.9281420091
 20
226.8060304312
 11
240.7380814557
 21
231.5026304443
  0
LINE
  5
41B
100
AcDbEntity
  8
0
100
AcDbLine
 62
7
  6
CONTINUOUS
 10
269.5567823093
 20
164.8548659474
 11
269.6609485786
 21
164.5357169003
  0
LINE
  5
41C
100
AcDbEntity
  8
0
100
AcDbLine
 62
7
  6
CONTINUOUS
 10
270.1817823093
 20
164.9612489135
 11
270.2859485786
 21
164.6420998663
  0
LINE
  5
41D
100
AcDbEntity
  8
0
100
AcDbLine
 62
7
  6
CONTINUOUS
 10
269.5567823093
 20
166.9825255663
 11
269.6609485786
 21
166.6633763701
  0
LINE
  5
41E
100
AcDbEntity
  8
0
100
AcDbLine
 62
7
  6
CONTINUOUS
 10
270.1817823093
 20
167.0889085323
 11
270.2859485786
 21
166.7697596342
  0
LINE
  5
41F
100
AcDbEntity
  8
KONSTRUKTIONSELEMENTE
100
AcDbLine
 62
7
  6
CONTINUOUS
 10
265.4261190947
 20
199.0199722607
 11
265.4261190947
 21
199.2199722607
  0
LINE
  5
420
100
AcDbEntity
  8
KONSTRUKTIONSELEMENTE
100
AcDbLine
 62
7
  6
CONTINUOUS
 10
265.4336949367
 20
199.0199722607
 11
265.4336949367
 21
199.2199722607
  0
LINE
  5
421
100
AcDbEntity
  8
KONSTRUKTIONSELEMENTE
100
AcDbLine
 62
7
  6
CONTINUOUS
 10
265.5556608989
 20
199.0199722607
 11
265.5556608989
 21
199.2199722607
  0
LINE
  5
422
100
AcDbEntity
  8
0
100
AcDbLine
 62
7
  6
CONTINUOUS
 10
265.5984485786
 20
162.9399722607
 11
265.5984485786
 21
163.5782701314
  0
LINE
  5
423
100
AcDbEntity
  8
0
100
AcDbLine
 62
7
  6
CONTINUOUS
 10
266.4317817132
 20
162.9399722607
 11
266.4317817132
 21
167.9399722607
  0
LINE
  5
424
100
AcDbEntity
  8
KONSTRUKTIONSELEMENTE
100
AcDbLine
 62
7
  6
CONTINUOUS
 10
266.5010834258
 20
199.0199722607
 11
266.5010834258
 21
199.2199722607
  0
LINE
  5
425
100
AcDbEntity
  8
0
100
AcDbLine
 62
7
  6
CONTINUOUS
 10
267.0567823093
 20
163.5782701314
 11
267.0567823093
 21
165.1740148456
  0
LINE
  5
426
100
AcDbEntity
  8
0
100
AcDbLine
 62
7
  6
CONTINUOUS
 10
267.0567823093
 20
165.8123126418
 11
267.0567823093
 21
167.3016744644
  0
LINE
  5
427
100
AcDbEntity
  8
BEZUGSACHSEN
100
AcDbLine
 62
7
  6
CONTINUOUS
 10
267.7284485786
 20
107.5199722607
 11
267.7284485786
 21
143.7199722607
  0
LINE
  5
428
100
AcDbEntity
  8
KONSTRUKTIONSELEMENTE
100
AcDbLine
 62
7
  6
CONTINUOUS
 10
268.1756189013
 20
199.0199722607
 11
268.1756189013
 21
199.2199722607
  0
LINE
  5
429
100
AcDbEntity
  8
KONSTRUKTIONSELEMENTE
100
AcDbLine
 62
7
  6
CONTINUOUS
 10
268.5803822115
 20
199.0199722607
 11
268.5803822115
 21
199.2199722607
  0
LINE
  5
42A
100
AcDbEntity
  8
0
100
AcDbLine
 62
7
  6
CONTINUOUS
 10
269.6609485786
 20
164.2165680022
 11
269.6609485786
 21
164.5357169003
  0
LINE
  5
42B
100
AcDbEntity
  8
0
100
AcDbLine
 62
7
  6
CONTINUOUS
 10
269.6609485786
 20
166.4506104381
 11
269.6609485786
 21
166.6633763701
  0
LINE
  5
42C
100
AcDbEntity
  8
0
100
AcDbLine
 62
7
  6
CONTINUOUS
 10
270.0484485786
 20
154.6999722607
 11
270.0484485786
 21
155.2318871654
  0
LINE
  5
42D
100
AcDbEntity
  8
KONSTRUKTIONSELEMENTE
100
AcDbLine
 62
7
  6
CONTINUOUS
 10
270.1292825204
 20
199.0199722607
 11
270.1292825204
 21
199.2199722607
  0
LINE
  5
42E
100
AcDbEntity
  8
KONSTRUKTIONSELEMENTE
100
AcDbLine
 62
7
  6
CONTINUOUS
 10
270.1994354523
 20
199.0199722607
 11
270.1994354523
 21
199.2199722607
  0
LINE
  5
42F
100
AcDbEntity
  8
0
100
AcDbLine
 62
7
  6
CONTINUOUS
 10
270.2859485786
 20
164.1101850361
 11
270.2859485786
 21
164.6420998663
  0
LINE
  5
430
100
AcDbEntity
  8
0
100
AcDbLine
 62
7
  6
CONTINUOUS
 10
270.2859485786
 20
166.344227472
 11
270.2859485786
 21
166.7697596342
  0
LINE
  5
431
100
AcDbEntity
  8
0
100
AcDbLine
 62
7
  6
CONTINUOUS
 10
270.4984485786
 20
171.7599722607
 11
270.4984485786
 21
175.1199722607
  0
LINE
  5
432
100
AcDbEntity
  8
0
100
AcDbLine
 62
7
  6
CONTINUOUS
 10
270.4984485786
 20
175.4199722607
 11
270.4984485786
 21
176.1699722607
  0
LINE
  5
433
100
AcDbEntity
  8
KONSTRUKTIONSELEMENTE
100
AcDbLine
 62
7
  6
CONTINUOUS
 10
270.6041989555
 20
199.0199722607
 11
270.6041989555
 21
199.2199722607
  0
LINE
  5
434
100
AcDbEntity
  8
0
100
AcDbLine
 62
7
  6
CONTINUOUS
 10
271.1192823093
 20
164.6420998663
 11
271.1192823093
 21
166.237844506
  0
LINE
  5
435
100
AcDbEntity
  8
0
100
AcDbLine
 62
7
  6
CONTINUOUS
 10
271.3984485786
 20
171.7599722607
 11
271.3984485786
 21
173.5599722607
  0
LINE
  5
436
100
AcDbEntity
  8
0
100
AcDbLine
 62
7
  6
CONTINUOUS
 10
271.3984485786
 20
174.2899722607
 11
271.3984485786
 21
175.1199722607
  0
LINE
  5
437
100
AcDbEntity
  8
0
100
AcDbLine
 62
7
  6
CONTINUOUS
 10
259.3484485786
 20
162.9399722607
 11
261.0151151459
 21
167.9399722607
  0
LINE
  5
438
100
AcDbEntity
  8
0
100
AcDbLine
 62
7
  6
CONTINUOUS
 10
258.9317818622
 20
163.5782701314
 11
260.3901151459
 21
167.9399722607
  0
LINE
  5
439
100
AcDbEntity
  8
RUNDUNGEN
100
AcDbLine
 62
7
  6
CONTINUOUS
 10
253.7284485786
 20
181.1199722607
 11
299.7284485786
 21
181.1199722607
  0
LINE
  5
43A
100
AcDbEntity
  8
0
100
AcDbLine
 62
7
  6
CONTINUOUS
 10
254.2288418473
 20
181.3199722607
 11
299.2280553098
 21
181.3199722607
  0
LINE
  5
43B
100
AcDbEntity
  8
0
100
AcDbLine
 62
7
  6
CONTINUOUS
 10
293.20261604
 20
166.1314615399
 11
293.51511604
 21
165.9186956079
  0
LINE
  5
43C
100
AcDbEntity
  8
0
100
AcDbLine
 62
7
  6
CONTINUOUS
 10
294.8692811172
 20
165.0676318795
 11
295.1817811172
 21
164.8548659474
  0
LINE
  5
43D
100
AcDbEntity
  8
0
100
AcDbLine
 62
7
  6
CONTINUOUS
 10
242.5369592397
 20
199.6634672305
 11
242.0263210027
 21
200.0384672305
  0
LINE
  5
43E
100
AcDbEntity
  8
0
100
AcDbLine
 62
7
  6
CONTINUOUS
 10
294.8692811172
 20
167.8335892946
 11
295.2859485786
 21
167.5144403965
  0
LINE
  5
43F
100
AcDbEntity
  8
0
100
AcDbLine
 62
7
  6
CONTINUOUS
 10
245.3454698561
 20
204.9134672305
 11
244.8348315744
 21
205.4134674689
  0
LINE
  5
440
100
AcDbEntity
  8
0
100
AcDbLine
 62
7
  6
CONTINUOUS
 10
245.3454698561
 20
210.9134672305
 11
244.8348315744
 21
211.4134667537
  0
LINE
  5
441
100
AcDbEntity
  8
0
100
AcDbLine
 62
7
  6
CONTINUOUS
 10
287.89011604
 20
163.6846530975
 11
288.3067811172
 21
163.259121196
  0
LINE
  5
442
100
AcDbEntity
  8
0
100
AcDbLine
 62
7
  6
CONTINUOUS
 10
292.89011604
 20
164.0038020701
 11
293.20261604
 21
163.6846530975
  0
LINE
  5
443
100
AcDbEntity
  8
0
100
AcDbLine
 62
7
  6
CONTINUOUS
 10
281.7442811172
 20
167.5144403965
 11
282.0567811172
 21
167.0889085323
  0
LINE
  5
444
100
AcDbEntity
  8
0
100
AcDbLine
 62
7
  6
CONTINUOUS
 10
272.3197327889
 20
173.2949722607
 11
273.2059654521
 21
171.7599722607
  0
LINE
  5
445
100
AcDbEntity
  8
0
100
AcDbLine
 62
7
  6
CONTINUOUS
 10
273.3601324271
 20
173.7099722607
 11
274.4859654521
 21
171.7599722607
  0
LINE
  5
446
100
AcDbEntity
  8
0
100
AcDbLine
 62
7
  6
CONTINUOUS
 10
275.9859485786
 20
155.7638020701
 11
276.0901154439
 21
155.4446530975
  0
LINE
  5
447
100
AcDbEntity
  8
0
100
AcDbLine
 62
7
  6
CONTINUOUS
 10
274.4526148479
 20
166.9825255663
 11
274.5567823093
 21
166.6633763701
  0
LINE
  5
448
100
AcDbEntity
  8
0
100
AcDbLine
 62
7
  6
CONTINUOUS
 10
271.7442823093
 20
164.6420998663
 11
271.8484485786
 21
164.2165680022
  0
LINE
  5
449
100
AcDbEntity
  8
0
100
AcDbLine
 62
7
  6
CONTINUOUS
 10
273.6942820112
 20
158.9552914984
 11
273.7984485786
 21
158.5297596342
  0
LINE
  5
44A
100
AcDbEntity
  8
0
100
AcDbLine
 62
7
  6
CONTINUOUS
 10
271.1192823093
 20
164.6420998663
 11
271.2234485786
 21
164.1101850361
  0
LINE
  5
44B
100
AcDbEntity
  8
0
100
AcDbLine
 62
7
  6
CONTINUOUS
 10
275.0776148479
 20
167.1952914984
 11
275.1817823093
 21
166.6633763701
  0
LINE
  5
44C
100
AcDbEntity
  8
0
100
AcDbLine
 62
7
  6
CONTINUOUS
 10
271.7442823093
 20
164.6420998663
 11
271.7442823093
 21
166.237844506
  0
LINE
  5
44D
100
AcDbEntity
  8
KONSTRUKTIONSELEMENTE
100
AcDbLine
 62
7
  6
CONTINUOUS
 10
272.1530992645
 20
199.0199722607
 11
272.1530992645
 21
199.2199722607
  0
LINE
  5
44E
100
AcDbEntity
  8
KONSTRUKTIONSELEMENTE
100
AcDbLine
 62
7
  6
CONTINUOUS
 10
272.3354611807
 20
199.0199722607
 11
272.3354611807
 21
199.2199722607
  0
LINE
  5
44F
100
AcDbEntity
  8
KONSTRUKTIONSELEMENTE
100
AcDbLine
 62
7
  6
CONTINUOUS
 10
272.4003981252
 20
199.0199722607
 11
272.4003981252
 21
199.2199722607
  0
LINE
  5
450
100
AcDbEntity
  8
KONSTRUKTIONSELEMENTE
100
AcDbLine
 62
7
  6
CONTINUOUS
 10
272.7980421472
 20
199.0199722607
 11
272.7980421472
 21
199.2199722607
  0
LINE
  5
451
100
AcDbEntity
  8
KONSTRUKTIONSELEMENTE
100
AcDbLine
 62
7
  6
CONTINUOUS
 10
273.1127857098
 20
199.0199722607
 11
273.1127857098
 21
199.2199722607
  0
LINE
  5
452
100
AcDbEntity
  8
KONSTRUKTIONSELEMENTE
100
AcDbLine
 62
7
  6
CONTINUOUS
 10
273.1473924987
 20
199.0199722607
 11
273.1473924987
 21
199.2199722607
  0
LINE
  5
453
100
AcDbEntity
  8
0
100
AcDbLine
 62
7
  6
CONTINUOUS
 10
273.1734485786
 20
158.5297596342
 11
273.1734485786
 21
158.3169934041
  0
LINE
  5
454
100
AcDbEntity
  8
KONSTRUKTIONSELEMENTE
100
AcDbLine
 62
7
  6
CONTINUOUS
 10
273.3300212395
 20
199.0199722607
 11
273.3300212395
 21
199.2199722607
  0
LINE
  5
455
100
AcDbEntity
  8
KONSTRUKTIONSELEMENTE
100
AcDbLine
 62
7
  6
CONTINUOUS
 10
273.6103032809
 20
199.0199722607
 11
273.6103032809
 21
199.2199722607
  0
LINE
  5
456
100
AcDbEntity
  8
0
100
AcDbLine
 62
7
  6
CONTINUOUS
 10
273.6192823093
 20
165.0676318795
 11
273.6192823093
 21
165.7059296758
  0
LINE
  5
457
100
AcDbEntity
  8
0
100
AcDbLine
 62
7
  6
CONTINUOUS
 10
273.7984485786
 20
154.6999722607
 11
273.7984485786
 21
155.2318871654
  0
LINE
  5
458
100
AcDbEntity
  8
0
100
AcDbLine
 62
7
  6
CONTINUOUS
 10
273.7984485786
 20
158.3169934041
 11
273.7984485786
 21
158.5297596342
  0
LINE
  5
459
100
AcDbEntity
  8
KONSTRUKTIONSELEMENTE
100
AcDbLine
 62
7
  6
CONTINUOUS
 10
274.0040004851
 20
199.0199722607
 11
274.0040004851
 21
199.2199722607
  0
LINE
  5
45A
100
AcDbEntity
  8
0
100
AcDbLine
 62
7
  6
CONTINUOUS
 10
274.5567823093
 20
164.2165680022
 11
274.5567823093
 21
165.0676318795
  0
LINE
  5
45B
100
AcDbEntity
  8
0
100
AcDbLine
 62
7
  6
CONTINUOUS
 10
274.6317820112
 20
157.6786956079
 11
274.6317820112
 21
158.104227472
  0
LINE
  5
45C
100
AcDbEntity
  8
0
100
AcDbLine
 62
7
  6
CONTINUOUS
 10
274.9284485786
 20
173.5249722607
 11
274.9284485786
 21
176.1699722607
  0
LINE
  5
45D
100
AcDbEntity
  8
0
100
AcDbLine
 62
7
  6
CONTINUOUS
 10
275.1817823093
 20
164.1101850361
 11
275.1817823093
 21
165.7059296758
  0
LINE
  5
45E
100
AcDbEntity
  8
0
100
AcDbLine
 62
7
  6
CONTINUOUS
 10
275.4651154439
 20
155.5510360635
 11
275.4651154439
 21
157.6786956079
  0
LINE
  5
45F
100
AcDbEntity
  8
0
100
AcDbLine
 62
7
  6
CONTINUOUS
 10
275.4651154439
 20
158.104227472
 11
275.4651154439
 21
158.9552914984
  0
LINE
  5
460
100
AcDbEntity
  8
0
100
AcDbLine
 62
7
  6
CONTINUOUS
 10
275.8284485786
 20
173.5249722607
 11
275.8284485786
 21
176.1699722607
  0
LINE
  5
461
100
AcDbEntity
  8
KONSTRUKTIONSELEMENTE
100
AcDbLine
 62
7
  6
CONTINUOUS
 10
275.9694025048
 20
199.0199722607
 11
275.9694025048
 21
199.2199722607
  0
LINE
  5
462
100
AcDbEntity
  8
0
100
AcDbLine
 62
7
  6
CONTINUOUS
 10
275.9859485786
 20
155.7638020701
 11
275.9859485786
 21
157.6786956079
  0
LINE
  5
463
100
AcDbEntity
  8
0
100
AcDbLine
 62
7
  6
CONTINUOUS
 10
275.9859485786
 20
158.104227472
 11
275.9859485786
 21
158.9552914984
  0
LINE
  5
464
100
AcDbEntity
  8
0
100
AcDbLine
 62
7
  6
CONTINUOUS
 10
276.0151148479
 20
164.7484828324
 11
276.0151148479
 21
165.2803978116
  0
LINE
  5
465
100
AcDbEntity
  8
KONSTRUKTIONSELEMENTE
100
AcDbLine
 62
7
  6
CONTINUOUS
 10
276.7101991059
 20
199.0199722607
 11
276.7101991059
 21
199.2199722607
  0
LINE
  5
466
100
AcDbEntity
  8
BEZUGSACHSEN
100
AcDbLine
 62
7
  6
CONTINUOUS
 10
276.7284485786
 20
187.0199722607
 11
276.7284485786
 21
197.6802262985
  0
LINE
  5
467
100
AcDbEntity
  8
0
100
AcDbLine
 62
7
  6
CONTINUOUS
 10
276.9234485786
 20
154.6999722607
 11
276.9234485786
 21
155.1255041621
  0
LINE
  5
468
100
AcDbEntity
  8
0
100
AcDbLine
 62
7
  6
CONTINUOUS
 10
277.1317817132
 20
157.6786956079
 11
277.1317817132
 21
158.104227472
  0
LINE
  5
469
100
AcDbEntity
  8
0
100
AcDbLine
 62
7
  6
CONTINUOUS
 10
277.4734485786
 20
164.7484828324
 11
277.4734485786
 21
165.2803978116
  0
LINE
  5
46A
100
AcDbEntity
  8
0
100
AcDbLine
 62
7
  6
CONTINUOUS
 10
271.1192823093
 20
166.237844506
 11
271.2234485786
 21
166.7697596342
  0
LINE
  5
46B
100
AcDbEntity
  8
0
100
AcDbLine
 62
7
  6
CONTINUOUS
 10
271.7442823093
 20
166.237844506
 11
271.8484485786
 21
166.6633763701
  0
LINE
  5
46C
100
AcDbEntity
  8
0
100
AcDbLine
 62
7
  6
CONTINUOUS
 10
270.1526152483
 20
158.5297596342
 11
270.2567819181
 21
158.9552914984
  0
LINE
  5
46D
100
AcDbEntity
  8
0
100
AcDbLine
 62
7
  6
CONTINUOUS
 10
269.5567823093
 20
166.1314615399
 11
269.6609485786
 21
166.4506104381
  0
LINE
  5
46E
100
AcDbEntity
  8
0
100
AcDbLine
 62
7
  6
CONTINUOUS
 10
270.1817823093
 20
166.0250785739
 11
270.2859485786
 21
166.344227472
  0
LINE
  5
46F
100
AcDbEntity
  8
0
100
AcDbLine
 62
7
  6
CONTINUOUS
 10
269.5567823093
 20
163.8974191041
 11
269.6609485786
 21
164.2165680022
  0
LINE
  5
470
100
AcDbEntity
  8
0
100
AcDbLine
 62
7
  6
CONTINUOUS
 10
254.2288418473
 20
186.5199722607
 11
299.2280553098
 21
186.5199722607
  0
LINE
  5
471
100
AcDbEntity
  8
KONSTRUKTIONSELEMENTE
100
AcDbLine
 62
7
  6
CONTINUOUS
 10
261.7284485786
 20
187.0199722607
 11
291.7284485786
 21
187.0199722607
  0
LINE
  5
472
100
AcDbEntity
  8
0
100
AcDbLine
 62
7
  6
CONTINUOUS
 10
241.5156827657
 20
199.4134671113
 11
241.8986614434
 21
199.2884672305
  0
LINE
  5
473
100
AcDbEntity
  8
0
100
AcDbLine
 62
7
  6
CONTINUOUS
 10
242.0263210027
 20
200.0384672305
 11
241.6433423249
 21
200.1634671113
  0
LINE
  5
474
100
AcDbEntity
  8
0
100
AcDbLine
 62
7
  6
CONTINUOUS
 10
244.1965336888
 20
204.9134672305
 11
244.5795123665
 21
204.6634674689
  0
LINE
  5
475
100
AcDbEntity
  8
0
100
AcDbLine
 62
7
  6
CONTINUOUS
 10
292.57761604
 20
165.9186956079
 11
292.9942811172
 21
165.4931637437
  0
LINE
  5
476
100
AcDbEntity
  8
0
100
AcDbLine
 62
7
  6
CONTINUOUS
 10
295.39011604
 20
165.4931637437
 11
295.8067811172
 21
165.0676318795
  0
LINE
  5
477
100
AcDbEntity
  8
0
100
AcDbLine
 62
7
  6
CONTINUOUS
 10
294.76511604
 20
167.1952914984
 11
294.9734485786
 21
166.9825255663
  0
LINE
  5
478
100
AcDbEntity
  8
0
100
AcDbLine
 62
7
  6
CONTINUOUS
 10
288.3067811172
 20
164.2165680022
 11
288.51511604
 21
163.8974191041
  0
LINE
  5
479
100
AcDbEntity
  8
0
100
AcDbLine
 62
7
  6
CONTINUOUS
 10
287.6817811172
 20
164.1101850361
 11
287.89011604
 21
163.6846530975
  0
LINE
  5
47A
100
AcDbEntity
  8
0
100
AcDbLine
 62
7
  6
CONTINUOUS
 10
281.4317811172
 20
167.0889085323
 11
281.5359485786
 21
166.7697596342
  0
LINE
  5
47B
100
AcDbEntity
  8
0
100
AcDbLine
 62
7
  6
CONTINUOUS
 10
282.0567811172
 20
167.0889085323
 11
282.1609485786
 21
166.7697596342
  0
LINE
  5
47C
100
AcDbEntity
  8
0
100
AcDbLine
 62
7
  6
CONTINUOUS
 10
277.5584485786
 20
173.5249722607
 11
277.5584485786
 21
176.1699722607
  0
LINE
  5
47D
100
AcDbEntity
  8
0
100
AcDbLine
 62
7
  6
CONTINUOUS
 10
278.3067811172
 20
162.9399722607
 11
278.3067811172
 21
167.9399722607
  0
LINE
  5
47E
100
AcDbEntity
  8
0
100
AcDbLine
 62
7
  6
CONTINUOUS
 10
278.4584485786
 20
173.5249722607
 11
278.4584485786
 21
176.1699722607
  0
LINE
  5
47F
100
AcDbEntity
  8
0
100
AcDbLine
 62
7
  6
CONTINUOUS
 10
278.9317811172
 20
162.9399722607
 11
278.9317811172
 21
165.1740148456
  0
LINE
  5
480
100
AcDbEntity
  8
0
100
AcDbLine
 62
7
  6
CONTINUOUS
 10
278.9317811172
 20
165.8123126418
 11
278.9317811172
 21
167.4080574305
  0
LINE
  5
481
100
AcDbEntity
  8
0
100
AcDbLine
 62
7
  6
CONTINUOUS
 10
279.3584485786
 20
171.7599722607
 11
279.3584485786
 21
175.1199722607
  0
LINE
  5
482
100
AcDbEntity
  8
0
100
AcDbLine
 62
7
  6
CONTINUOUS
 10
279.3584485786
 20
175.4199722607
 11
279.3584485786
 21
176.1699722607
  0
LINE
  5
483
100
AcDbEntity
  8
0
100
AcDbLine
 62
7
  6
CONTINUOUS
 10
280.2584485786
 20
172.5099722607
 11
280.2584485786
 21
175.1199722607
  0
LINE
  5
484
100
AcDbEntity
  8
0
100
AcDbLine
 62
7
  6
CONTINUOUS
 10
281.5359485786
 20
166.4506104381
 11
281.5359485786
 21
166.7697596342
  0
LINE
  5
485
100
AcDbEntity
  8
0
100
AcDbLine
 62
7
  6
CONTINUOUS
 10
282.0584485786
 20
173.4099722607
 11
282.0584485786
 21
174.5199722607
  0
LINE
  5
486
100
AcDbEntity
  8
0
100
AcDbLine
 62
7
  6
CONTINUOUS
 10
282.1609485786
 20
166.344227472
 11
282.1609485786
 21
166.7697596342
  0
LINE
  5
487
100
AcDbEntity
  8
0
100
AcDbLine
 62
7
  6
CONTINUOUS
 10
282.9942811172
 20
162.9399722607
 11
282.9942811172
 21
167.9399722607
  0
LINE
  5
488
100
AcDbEntity
  8
0
100
AcDbLine
 62
7
  6
CONTINUOUS
 10
283.6192811172
 20
163.5782701314
 11
283.6192811172
 21
167.9399722607
  0
LINE
  5
489
100
AcDbEntity
  8
0
100
AcDbLine
 62
7
  6
CONTINUOUS
 10
275.0776148479
 20
163.6846530975
 11
275.1817823093
 21
164.1101850361
  0
LINE
  5
48A
100
AcDbEntity
  8
0
100
AcDbLine
 62
7
  6
CONTINUOUS
 10
273.6942820112
 20
157.8914615399
 11
273.7984485786
 21
158.3169934041
  0
LINE
  5
48B
100
AcDbEntity
  8
0
100
AcDbLine
 62
7
  6
CONTINUOUS
 10
270.1817823093
 20
163.7910360635
 11
270.2859485786
 21
164.1101850361
  0
LINE
  5
48C
100
AcDbEntity
  8
0
100
AcDbLine
 62
7
  6
CONTINUOUS
 10
274.4526148479
 20
163.8974191041
 11
274.5567823093
 21
164.2165680022
  0
LINE
  5
48D
100
AcDbEntity
  8
0
100
AcDbLine
 62
7
  6
CONTINUOUS
 10
271.2234485786
 20
166.7697596342
 11
271.4317823093
 21
167.1952914984
  0
LINE
  5
48E
100
AcDbEntity
  8
0
100
AcDbLine
 62
7
  6
CONTINUOUS
 10
244.8348315744
 20
205.4134674689
 11
244.324193248
 21
205.6634672305
  0
LINE
  5
48F
100
AcDbEntity
  8
0
100
AcDbLine
 62
7
  6
CONTINUOUS
 10
244.8348315744
 20
211.4134667537
 11
244.324193248
 21
211.6634672305
  0
LINE
  5
490
100
AcDbEntity
  8
0
100
AcDbLine
 62
7
  6
CONTINUOUS
 10
244.1965336888
 20
210.9134672305
 11
244.5795123665
 21
210.6634667537
  0
LINE
  5
491
100
AcDbEntity
  8
0
100
AcDbLine
 62
7
  6
CONTINUOUS
 10
295.2859485786
 20
167.5144403965
 11
295.5984485786
 21
167.0889085323
  0
LINE
  5
492
100
AcDbEntity
  8
0
100
AcDbLine
 62
7
  6
CONTINUOUS
 10
295.1817811172
 20
164.8548659474
 11
295.39011604
 21
164.5357169003
  0
LINE
  5
493
100
AcDbEntity
  8
0
100
AcDbLine
 62
7
  6
CONTINUOUS
 10
292.26511604
 20
163.8974191041
 11
292.57761604
 21
163.3655041621
  0
LINE
  5
494
100
AcDbEntity
  8
0
100
AcDbLine
 62
7
  6
CONTINUOUS
 10
295.8067811172
 20
165.0676318795
 11
296.01511604
 21
164.6420998663
  0
LINE
  5
495
100
AcDbEntity
  8
0
100
AcDbLine
 62
7
  6
CONTINUOUS
 10
288.20261604
 20
164.6420998663
 11
288.3067811172
 21
164.2165680022
  0
LINE
  5
496
100
AcDbEntity
  8
0
100
AcDbLine
 62
7
  6
CONTINUOUS
 10
287.57761604
 20
164.6420998663
 11
287.6817811172
 21
164.1101850361
  0
LINE
  5
497
100
AcDbEntity
  8
BEZUGSACHSEN
100
AcDbLine
 62
7
  6
CONTINUOUS
 10
285.7284485786
 20
107.5199722607
 11
285.7284485786
 21
143.7199722607
  0
LINE
  5
498
100
AcDbEntity
  8
0
100
AcDbLine
 62
7
  6
CONTINUOUS
 10
286.7442811172
 20
162.9399722607
 11
286.7442811172
 21
163.5782701314
  0
LINE
  5
499
100
AcDbEntity
  8
0
100
AcDbLine
 62
7
  6
CONTINUOUS
 10
287.57761604
 20
164.6420998663
 11
287.57761604
 21
167.9399722607
  0
LINE
  5
49A
100
AcDbEntity
  8
0
100
AcDbLine
 62
7
  6
CONTINUOUS
 10
288.20261604
 20
164.6420998663
 11
288.20261604
 21
167.9399722607
  0
LINE
  5
49B
100
AcDbEntity
  8
0
100
AcDbLine
 62
7
  6
CONTINUOUS
 10
281.4317811172
 20
166.1314615399
 11
281.5359485786
 21
166.4506104381
  0
LINE
  5
49C
100
AcDbEntity
  8
0
100
AcDbLine
 62
7
  6
CONTINUOUS
 10
282.0567811172
 20
166.0250785739
 11
282.1609485786
 21
166.344227472
  0
LINE
  5
49D
100
AcDbEntity
  8
0
100
AcDbLine
 62
7
  6
CONTINUOUS
 10
273.1734485786
 20
158.3169934041
 11
272.9651151459
 21
157.8914615399
  0
LINE
  5
49E
100
AcDbEntity
  8
0
100
AcDbLine
 62
7
  6
CONTINUOUS
 10
271.8484485786
 20
166.6633763701
 11
272.0567823093
 21
166.9825255663
  0
LINE
  5
49F
100
AcDbEntity
  8
0
100
AcDbLine
 62
7
  6
CONTINUOUS
 10
270.8817819367
 20
158.8489085323
 11
270.6734485786
 21
158.5297596342
  0
LINE
  5
4A0
100
AcDbEntity
  8
0
100
AcDbLine
 62
7
  6
CONTINUOUS
 10
269.8692823093
 20
165.5995467097
 11
270.1817823093
 21
166.0250785739
  0
LINE
  5
4A1
100
AcDbEntity
  8
0
100
AcDbLine
 62
7
  6
CONTINUOUS
 10
269.8692823093
 20
163.3655041621
 11
270.1817823093
 21
163.7910360635
  0
LINE
  5
4A2
100
AcDbEntity
  8
0
100
AcDbLine
 62
7
  6
CONTINUOUS
 10
269.3484485786
 20
165.9186956079
 11
269.5567823093
 21
166.1314615399
  0
LINE
  5
4A3
100
AcDbEntity
  8
0
100
AcDbLine
 62
7
  6
CONTINUOUS
 10
271.4317823093
 20
167.1952914984
 11
271.8484485786
 21
167.6208233625
  0
LINE
  5
4A4
100
AcDbEntity
  8
0
100
AcDbLine
 62
7
  6
CONTINUOUS
 10
269.3484485786
 20
163.6846530975
 11
269.5567823093
 21
163.8974191041
  0
LINE
  5
4A5
100
AcDbEntity
  8
0
100
AcDbLine
 62
7
  6
CONTINUOUS
 10
239.7284485786
 20
195.5384672305
 11
245.7284485786
 21
195.5384672305
  0
LINE
  5
4A6
100
AcDbEntity
  8
0
100
AcDbLine
 62
7
  6
CONTINUOUS
 10
245.7284485786
 20
196.2884672305
 11
243.0475974767
 21
196.2884672305
  0
LINE
  5
4A7
100
AcDbEntity
  8
0
100
AcDbLine
 62
7
  6
CONTINUOUS
 10
242.2816401212
 20
196.2884672305
 11
240.3667463748
 21
196.2884672305
  0
LINE
  5
4A8
100
AcDbEntity
  8
BEZUGSACHSEN
100
AcDbLine
 62
7
  6
CONTINUOUS
 10
261.7284485634
 20
199.0199722607
 11
291.7284485938
 21
199.0199722607
  0
LINE
  5
4A9
100
AcDbEntity
  8
KONSTRUKTIONSELEMENTE
100
AcDbLine
 62
7
  6
CONTINUOUS
 10
264.7499350778
 20
199.2199722607
 11
276.7101991059
 21
199.2199722607
  0
LINE
  5
4AA
100
AcDbEntity
  8
0
100
AcDbLine
 62
7
  6
CONTINUOUS
 10
241.1327037303
 20
199.4134671113
 11
241.5156827657
 21
199.4134671113
  0
LINE
  5
4AB
100
AcDbEntity
  8
0
100
AcDbLine
 62
7
  6
CONTINUOUS
 10
241.6433423249
 20
200.1634671113
 11
241.1327037303
 21
200.1634671113
  0
LINE
  5
4AC
100
AcDbEntity
  8
0
100
AcDbLine
 62
7
  6
CONTINUOUS
 10
239.7284485786
 20
201.2884671113
 11
243.6858954518
 21
201.2884671113
  0
LINE
  5
4AD
100
AcDbEntity
  8
0
100
AcDbLine
 62
7
  6
CONTINUOUS
 10
244.324193248
 20
205.6634672305
 11
243.6858954518
 21
205.7884674689
  0
LINE
  5
4AE
100
AcDbEntity
  8
0
100
AcDbLine
 62
7
  6
CONTINUOUS
 10
243.6858954518
 20
205.0384674689
 11
244.1965336888
 21
204.9134672305
  0
LINE
  5
4AF
100
AcDbEntity
  8
0
100
AcDbLine
 62
7
  6
CONTINUOUS
 10
294.9734485786
 20
166.9825255663
 11
295.07761604
 21
166.7697596342
  0
LINE
  5
4B0
100
AcDbEntity
  8
0
100
AcDbLine
 62
7
  6
CONTINUOUS
 10
292.7859485786
 20
164.3229509682
 11
292.89011604
 21
164.0038020701
  0
LINE
  5
4B1
100
AcDbEntity
  8
0
100
AcDbLine
 62
7
  6
CONTINUOUS
 10
293.0984485786
 20
166.4506104381
 11
293.20261604
 21
166.1314615399
  0
LINE
  5
4B2
100
AcDbEntity
  8
0
100
AcDbLine
 62
7
  6
CONTINUOUS
 10
295.5984485786
 20
167.0889085323
 11
295.70261604
 21
166.7697596342
  0
LINE
  5
4B3
100
AcDbEntity
  8
0
100
AcDbLine
 62
7
  6
CONTINUOUS
 10
292.1609485786
 20
164.3229509682
 11
292.26511604
 21
163.8974191041
  0
LINE
  5
4B4
100
AcDbEntity
  8
0
100
AcDbLine
 62
7
  6
CONTINUOUS
 10
292.4734485786
 20
166.344227472
 11
292.57761604
 21
165.9186956079
  0
LINE
  5
4B5
100
AcDbEntity
  8
0
100
AcDbLine
 62
7
  6
CONTINUOUS
 10
290.70261604
 20
164.6420998663
 11
290.70261604
 21
167.9399722607
  0
LINE
  5
4B6
100
AcDbEntity
  8
BEZUGSACHSEN
100
AcDbLine
 62
7
  6
CONTINUOUS
 10
290.7284485786
 20
186.5199722607
 11
290.7284485786
 21
187.0199722607
  0
LINE
  5
4B7
100
AcDbEntity
  8
0
100
AcDbLine
 62
7
  6
CONTINUOUS
 10
291.32761604
 20
164.6420998663
 11
291.32761604
 21
167.9399722607
  0
LINE
  5
4B8
100
AcDbEntity
  8
BEZUGSACHSEN
100
AcDbLine
 62
7
  6
CONTINUOUS
 10
291.7284485786
 20
187.0199722607
 11
291.7284485786
 21
199.0199722675
  0
LINE
  5
4B9
100
AcDbEntity
  8
0
100
AcDbLine
 62
7
  6
CONTINUOUS
 10
291.9784485786
 20
181.3199722607
 11
291.9784485786
 21
181.1199722607
  0
LINE
  5
4BA
100
AcDbEntity
  8
0
100
AcDbLine
 62
7
  6
CONTINUOUS
 10
292.4734485786
 20
166.344227472
 11
292.4734485786
 21
166.7697596342
  0
LINE
  5
4BB
100
AcDbEntity
  8
0
100
AcDbLine
 62
7
  6
CONTINUOUS
 10
292.9784485786
 20
149.1199722607
 11
292.9784485786
 21
148.9199722607
  0
LINE
  5
4BC
100
AcDbEntity
  8
0
100
AcDbLine
 62
7
  6
CONTINUOUS
 10
293.0984485786
 20
166.4506104381
 11
293.0984485786
 21
166.6633763701
  0
LINE
  5
4BD
100
AcDbEntity
  8
0
100
AcDbLine
 62
7
  6
CONTINUOUS
 10
295.39011604
 20
164.2165680022
 11
295.39011604
 21
164.5357169003
  0
LINE
  5
4BE
100
AcDbEntity
  8
0
100
AcDbLine
 62
7
  6
CONTINUOUS
 10
291.2234485786
 20
164.1101850361
 11
291.32761604
 21
164.6420998663
  0
LINE
  5
4BF
100
AcDbEntity
  8
RUNDUNGEN
100
AcDbLine
 62
7
  6
CONTINUOUS
 10
312.7188157015
 20
231.5026304443
 11
310.8284485786
 21
227.448725067
  0
LINE
  5
4C0
100
AcDbEntity
  8
0
100
AcDbLine
 62
7
  6
CONTINUOUS
 10
310.8284485786
 20
227.448725067
 11
310.6284485786
 21
227.0198236829
  0
LINE
  5
4C1
100
AcDbEntity
  8
RUNDUNGEN
100
AcDbLine
 62
7
  6
CONTINUOUS
 10
310.5287551481
 20
226.8060304312
 11
310.6284485786
 21
227.0198236829
  0
LINE
  5
4C2
100
AcDbEntity
  8
0
100
AcDbLine
 62
7
  6
CONTINUOUS
 10
273.4859485786
 20
157.5723126418
 11
273.6942820112
 21
157.8914615399
  0
LINE
  5
4C3
100
AcDbEntity
  8
0
100
AcDbLine
 62
7
  6
CONTINUOUS
 10
281.7442811172
 20
165.5995467097
 11
282.0567811172
 21
166.0250785739
  0
LINE
  5
4C4
100
AcDbEntity
  8
0
100
AcDbLine
 62
7
  6
CONTINUOUS
 10
270.2567819181
 20
158.9552914984
 11
270.6734485786
 21
159.3808233625
  0
LINE
  5
4C5
100
AcDbEntity
  8
0
100
AcDbLine
 62
7
  6
CONTINUOUS
 10
274.6609485786
 20
163.259121196
 11
275.0776148479
 21
163.6846530975
  0
LINE
  5
4C6
100
AcDbEntity
  8
0
100
AcDbLine
 62
7
  6
CONTINUOUS
 10
281.2234485786
 20
165.9186956079
 11
281.4317811172
 21
166.1314615399
  0
LINE
  5
4C7
100
AcDbEntity
  8
0
100
AcDbLine
 62
7
  6
CONTINUOUS
 10
269.4526148479
 20
163.046355236
 11
269.8692823093
 21
163.3655041621
  0
LINE
  5
4C8
100
AcDbEntity
  8
0
100
AcDbLine
 62
7
  6
CONTINUOUS
 10
272.0567823093
 20
166.9825255663
 11
272.3692823093
 21
167.1952914984
  0
LINE
  5
4C9
100
AcDbEntity
  8
0
100
AcDbLine
 62
7
  6
CONTINUOUS
 10
274.1401148479
 20
163.6846530975
 11
274.4526148479
 21
163.8974191041
  0
LINE
  5
4CA
100
AcDbEntity
  8
0
100
AcDbLine
 62
7
  6
CONTINUOUS
 10
271.8484485786
 20
167.6208233625
 11
272.2651148479
 21
167.8335892946
  0
LINE
  5
4CB
100
AcDbEntity
  8
0
100
AcDbLine
 62
7
  6
CONTINUOUS
 10
269.6609485786
 20
165.4931637437
 11
269.8692823093
 21
165.5995467097
  0
LINE
  5
4CC
100
AcDbEntity
  8
0
100
AcDbLine
 62
7
  6
CONTINUOUS
 10
269.0359485786
 20
165.8123126418
 11
269.3484485786
 21
165.9186956079
  0
LINE
  5
4CD
100
AcDbEntity
  8
0
100
AcDbLine
 62
7
  6
CONTINUOUS
 10
243.6858954518
 20
201.2884671113
 11
244.324193248
 21
201.4134673497
  0
LINE
  5
4CE
100
AcDbEntity
  8
0
100
AcDbLine
 62
7
  6
CONTINUOUS
 10
243.6858954518
 20
202.0384674689
 11
239.7284485786
 21
202.0384674689
  0
LINE
  5
4CF
100
AcDbEntity
  8
0
100
AcDbLine
 62
7
  6
CONTINUOUS
 10
239.7284485786
 20
205.0384674689
 11
243.6858954518
 21
205.0384674689
  0
LINE
  5
4D0
100
AcDbEntity
  8
0
100
AcDbLine
 62
7
  6
CONTINUOUS
 10
243.6858954518
 20
205.7884674689
 11
239.7284485786
 21
205.7884674689
  0
LINE
  5
4D1
100
AcDbEntity
  8
0
100
AcDbLine
 62
7
  6
CONTINUOUS
 10
239.7284485786
 20
206.7884672305
 11
245.7284485786
 21
206.7884672305
  0
LINE
  5
4D2
100
AcDbEntity
  8
0
100
AcDbLine
 62
7
  6
CONTINUOUS
 10
244.9624911337
 20
207.5384672305
 11
240.4944059341
 21
207.5384672305
  0
LINE
  5
4D3
100
AcDbEntity
  8
0
100
AcDbLine
 62
7
  6
CONTINUOUS
 10
244.324193248
 20
211.6634672305
 11
243.6858954518
 21
211.7884667537
  0
LINE
  5
4D4
100
AcDbEntity
  8
0
100
AcDbLine
 62
7
  6
CONTINUOUS
 10
243.6858954518
 20
211.0384667537
 11
244.1965336888
 21
210.9134672305
  0
LINE
  5
4D5
100
AcDbEntity
  8
0
100
AcDbLine
 62
7
  6
CONTINUOUS
 10
296.01511604
 20
164.1101850361
 11
296.01511604
 21
164.6420998663
  0
LINE
  5
4D6
100
AcDbEntity
  8
0
100
AcDbLine
 62
7
  6
CONTINUOUS
 10
299.2284485786
 20
186.5199722607
 11
299.2284485786
 21
181.3199722607
  0
LINE
  5
4D7
100
AcDbEntity
  8
0
100
AcDbLine
 62
7
  6
CONTINUOUS
 10
300.2284485786
 20
148.9199722607
 11
300.2284485786
 21
143.7199722607
  0
LINE
  5
4D8
100
AcDbEntity
  8
RUNDUNGEN
100
AcDbLine
 62
7
  6
CONTINUOUS
 10
301.7284485786
 20
151.1199722607
 11
301.7284485786
 21
179.1199722607
  0
LINE
  5
4D9
100
AcDbEntity
  8
0
100
AcDbLine
 62
7
  6
CONTINUOUS
 10
290.5984485786
 20
164.2165680022
 11
290.70261604
 21
164.6420998663
  0
LINE
  5
4DA
100
AcDbEntity
  8
0
100
AcDbLine
 62
7
  6
CONTINUOUS
 10
292.4734485786
 20
166.7697596342
 11
292.57761604
 21
167.1952914984
  0
LINE
  5
4DB
100
AcDbEntity
  8
0
100
AcDbLine
 62
7
  6
CONTINUOUS
 10
293.0984485786
 20
166.6633763701
 11
293.20261604
 21
166.9825255663
  0
LINE
  5
4DC
100
AcDbEntity
  8
0
100
AcDbLine
 62
7
  6
CONTINUOUS
 10
291.01511604
 20
163.6846530975
 11
291.2234485786
 21
164.1101850361
  0
LINE
  5
4DD
100
AcDbEntity
  8
0
100
AcDbLine
 62
7
  6
CONTINUOUS
 10
290.39011604
 20
163.8974191041
 11
290.5984485786
 21
164.2165680022
  0
LINE
  5
4DE
100
AcDbEntity
  8
0
100
AcDbLine
 62
7
  6
CONTINUOUS
 10
272.9651151459
 20
157.8914615399
 11
270.0484485786
 21
155.2318871654
  0
LINE
  5
4DF
100
AcDbEntity
  8
0
100
AcDbLine
 62
7
  6
CONTINUOUS
 10
270.8817819367
 20
155.2318871654
 11
273.4859485786
 21
157.5723126418
  0
LINE
  5
4E0
100
AcDbEntity
  8
0
100
AcDbLine
 62
7
  6
CONTINUOUS
 10
281.32761604
 20
165.2803978116
 11
281.7442811172
 21
165.5995467097
  0
LINE
  5
4E1
100
AcDbEntity
  8
0
100
AcDbLine
 62
7
  6
CONTINUOUS
 10
270.8817819367
 20
158.8489085323
 11
271.1942819367
 21
159.0616744644
  0
LINE
  5
4E2
100
AcDbEntity
  8
0
100
AcDbLine
 62
7
  6
CONTINUOUS
 10
274.2442823093
 20
163.046355236
 11
274.6609485786
 21
163.259121196
  0
LINE
  5
4E3
100
AcDbEntity
  8
0
100
AcDbLine
 62
7
  6
CONTINUOUS
 10
270.6734485786
 20
159.3808233625
 11
271.0901152204
 21
159.5935892946
  0
LINE
  5
4E4
100
AcDbEntity
  8
0
100
AcDbLine
 62
7
  6
CONTINUOUS
 10
269.0359485786
 20
163.5782701314
 11
269.3484485786
 21
163.6846530975
  0
LINE
  5
4E5
100
AcDbEntity
  8
0
100
AcDbLine
 62
7
  6
CONTINUOUS
 10
280.9109485786
 20
165.8123126418
 11
281.2234485786
 21
165.9186956079
  0
LINE
  5
4E6
100
AcDbEntity
  8
0
100
AcDbLine
 62
7
  6
CONTINUOUS
 10
244.1965336888
 20
202.1634669921
 11
243.6858954518
 21
202.0384674689
  0
LINE
  5
4E7
100
AcDbEntity
  8
0
100
AcDbLine
 62
7
  6
CONTINUOUS
 10
314.5194810242
 20
208.9400123327
 11
313.461896125
 21
208.9400123327
  0
LINE
  5
4E8
100
AcDbEntity
  8
0
100
AcDbLine
 62
7
  6
CONTINUOUS
 10
308.6121538638
 20
208.9400123327
 11
307.5545689645
 21
208.9400123327
  0
LINE
  5
4E9
100
AcDbEntity
  8
0
100
AcDbLine
 62
7
  6
CONTINUOUS
 10
241.7710018842
 20
211.0384667537
 11
243.6858954518
 21
211.0384667537
  0
LINE
  5
4EA
100
AcDbEntity
  8
0
100
AcDbLine
 62
7
  6
CONTINUOUS
 10
243.6858954518
 20
211.7884667537
 11
241.7710018842
 21
211.7884667537
  0
LINE
  5
4EB
100
AcDbEntity
  8
KONSTRUKTIONSELEMENTE
100
AcDbLine
 62
7
  6
CONTINUOUS
 10
303.7284485786
 20
181.3699722607
 11
303.7284485786
 21
232.5895655233
  0
LINE
  5
4EC
100
AcDbEntity
  8
RUNDUNGEN
100
AcDbLine
 62
7
  6
CONTINUOUS
 10
303.7284485786
 20
209.8699722607
 11
303.7284485786
 21
239.3514473871
  0
LINE
  5
4ED
100
AcDbEntity
  8
0
100
AcDbLine
 62
7
  6
CONTINUOUS
 10
295.8067811172
 20
163.6846530975
 11
296.01511604
 21
164.1101850361
  0
LINE
  5
4EE
100
AcDbEntity
  8
0
100
AcDbLine
 62
7
  6
CONTINUOUS
 10
295.1817811172
 20
163.8974191041
 11
295.39011604
 21
164.2165680022
  0
LINE
  5
4EF
100
AcDbEntity
  8
0
100
AcDbLine
 62
7
  6
CONTINUOUS
 10
292.57761604
 20
167.1952914984
 11
292.9942811172
 21
167.6208233625
  0
LINE
  5
4F0
100
AcDbEntity
  8
0
100
AcDbLine
 62
7
  6
CONTINUOUS
 10
290.5984485786
 20
163.259121196
 11
291.01511604
 21
163.6846530975
  0
LINE
  5
4F1
100
AcDbEntity
  8
0
100
AcDbLine
 62
7
  6
CONTINUOUS
 10
295.39011604
 20
163.259121196
 11
295.8067811172
 21
163.6846530975
  0
LINE
  5
4F2
100
AcDbEntity
  8
0
100
AcDbLine
 62
7
  6
CONTINUOUS
 10
293.20261604
 20
166.9825255663
 11
293.51511604
 21
167.1952914984
  0
LINE
  5
4F3
100
AcDbEntity
  8
0
100
AcDbLine
 62
7
  6
CONTINUOUS
 10
290.07761604
 20
163.6846530975
 11
290.39011604
 21
163.8974191041
  0
LINE
  5
4F4
100
AcDbEntity
  8
0
100
AcDbLine
 62
7
  6
CONTINUOUS
 10
294.8692811172
 20
163.6846530975
 11
295.1817811172
 21
163.8974191041
  0
LINE
  5
4F5
100
AcDbEntity
  8
0
100
AcDbLine
 62
7
  6
CONTINUOUS
 10
292.9942811172
 20
167.6208233625
 11
293.4109485786
 21
167.8335892946
  0
LINE
  5
4F6
100
AcDbEntity
  8
0
100
AcDbLine
 62
7
  6
CONTINUOUS
 10
290.1817811172
 20
163.046355236
 11
290.5984485786
 21
163.259121196
  0
LINE
  5
4F7
100
AcDbEntity
  8
0
100
AcDbLine
 62
7
  6
CONTINUOUS
 10
294.9734485786
 20
163.046355236
 11
295.39011604
 21
163.259121196
  0
LINE
  5
4F8
100
AcDbEntity
  8
0
100
AcDbLine
 62
7
  6
CONTINUOUS
 10
293.51511604
 20
167.1952914984
 11
293.82761604
 21
167.3016744644
  0
LINE
  5
4F9
100
AcDbEntity
  8
0
100
AcDbLine
 62
7
  6
CONTINUOUS
 10
241.2603636472
 20
210.9134672305
 11
241.7710018842
 21
211.0384667537
  0
LINE
  5
4FA
100
AcDbEntity
  8
0
100
AcDbLine
 62
7
  6
CONTINUOUS
 10
241.7710018842
 20
211.7884667537
 11
241.1327037303
 21
211.6634672305
  0
LINE
  5
4FB
100
AcDbEntity
  8
0
100
AcDbLine
 62
7
  6
CONTINUOUS
 10
311.5670249944
 20
214.1900123327
 11
310.5094400951
 21
214.1900123327
  0
LINE
  5
4FC
100
AcDbEntity
  8
0
100
AcDbLine
 62
7
  6
CONTINUOUS
 10
314.5194810242
 20
214.8900123327
 11
313.461896125
 21
214.8900123327
  0
LINE
  5
4FD
100
AcDbEntity
  8
0
100
AcDbLine
 62
7
  6
CONTINUOUS
 10
308.6121538638
 20
214.8900123327
 11
307.5545689645
 21
214.8900123327
  0
LINE
  5
4FE
100
AcDbEntity
  8
0
100
AcDbLine
 62
7
  6
CONTINUOUS
 10
310.5094400951
 20
214.1900123327
 11
310.5094400951
 21
212.1474918679
  0
LINE
  5
4FF
100
AcDbEntity
  8
0
100
AcDbLine
 62
7
  6
CONTINUOUS
 10
311.5670249944
 20
212.1480257106
 11
311.5670249944
 21
214.1900123327
  0
LINE
  5
500
100
AcDbEntity
  8
0
100
AcDbLine
 62
7
  6
CONTINUOUS
 10
314.5360590358
 20
208.5199127819
 11
314.5194810242
 21
208.9400123327
  0
LINE
  5
501
100
AcDbEntity
  8
0
100
AcDbLine
 62
7
  6
CONTINUOUS
 10
314.5360590358
 20
214.4699127819
 11
314.5194810242
 21
214.8900123327
  0
LINE
  5
502
100
AcDbEntity
  8
RUNDUNGEN
100
AcDbLine
 62
7
  6
CONTINUOUS
 10
314.6767575114
 20
232.1611335369
 11
314.6767575114
 21
219.0918124542
  0
LINE
  5
503
100
AcDbEntity
  8
RUNDUNGEN
100
AcDbLine
 62
7
  6
CONTINUOUS
 10
317.7284485786
 20
241.1586625803
 11
317.7284485786
 21
172.8699722607
  0
LINE
  5
504
100
AcDbEntity
  8
RUNDUNGEN
100
AcDbLine
 62
7
  6
CONTINUOUS
 10
314.6767575114
 20
219.0918124542
 11
310.9335579269
 21
223.6290276866
  0
LINE
  5
505
100
AcDbEntity
  8
RUNDUNGEN
100
AcDbLine
 62
7
  6
CONTINUOUS
 10
313.0587886554
 20
233.2078526618
 11
310.767978843
 21
238.8778059123
  0
LINE
  5
506
100
AcDbEntity
  8
0
100
AcDbLine
 62
7
  6
CONTINUOUS
 10
310.767978843
 20
238.8778059123
 11
304.8974656297
 21
253.4078359891
  0
LINE
  5
507
100
AcDbEntity
  8
RUNDUNGEN
100
AcDbLine
 62
7
  6
CONTINUOUS
 10
304.8974656297
 20
253.4078359891
 11
304.7170993262
 21
253.8542582557
  0
LINE
  5
508
100
AcDbEntity
  8
BEZUGSACHSEN
100
AcDbLine
 62
7
  6
CONTINUOUS
 10
284.7284485786
 20
106.5199722607
 11
285.7284485786
 21
107.5199722607
  0
LINE
  5
509
100
AcDbEntity
  8
RUNDUNGEN
100
AcDbLine
 62
7
  6
CONTINUOUS
 10
303.0106516112
 20
255.5311797549
 11
301.4201380053
 21
256.1417207255
  0
LINE
  5
50A
100
AcDbEntity
  8
0
100
AcDbLine
 62
7
  6
CONTINUOUS
 10
276.7284485786
 20
265.6199722607
 11
301.4201380053
 21
256.1417207255
  0
LWPOLYLINE
  5
50B
100
AcDbEntity
  8
0
100
AcDbPolyline
 62
7
  6
CONTINUOUS
 90
15
 70
0
 10
152.519836099
 20
7.1027170159
 10
152.6731836115
 20
7.1043793026
 10
153.2834577105
 20
7.1440507803
 10
153.8803383298
 20
7.2347490978
 10
154.4587696754
 20
7.37351639
 10
155.0144584311
 20
7.5568847471
 10
155.5440621603
 20
7.7811396731
 10
156.0449782183
 20
8.0424633658
 10
156.5140096452
 20
8.3362036838
 10
156.9494339709
 20
8.6579503207
 10
157.3483609964
 20
9.0016586856
 10
157.7092213204
 20
9.3611625744
 10
158.0319711831
 20
9.7308344007
 10
158.3174250902
 20
10.1053647632
 10
158.4727294232
 20
10.3323742205
  0
LINE
  5
50C
100
AcDbEntity
  8
0
100
AcDbLine
 62
7
  6
CONTINUOUS
 10
152.5198454195
 20
7.1027170516
 11
151.765857984
 21
7.1027170516
  0
LINE
  5
50D
100
AcDbEntity
  8
KONSTRUKTIONSELEMENTE
100
AcDbLine
 62
7
  6
CONTINUOUS
 10
152.5198454195
 20
7.1027170516
 11
151.765857984
 21
7.1027170516
  0
LINE
  5
50E
100
AcDbEntity
  8
0
100
AcDbLine
 62
7
  6
CONTINUOUS
 10
145.8391657978
 20
10.2941406358
 11
145.5428517018
 21
10.2941406358
  0
LINE
  5
50F
100
AcDbEntity
  8
0
100
AcDbLine
 62
7
  6
CONTINUOUS
 10
145.8271473478
 20
10.3116846059
 11
145.5428517018
 21
10.3116846059
  0
LINE
  5
510
100
AcDbEntity
  8
0
100
AcDbLine
 62
7
  6
CONTINUOUS
 10
147.0031625737
 20
87.2604848917
 11
146.0428517018
 21
86.7060491513
  0
LINE
  5
511
100
AcDbEntity
  8
RUNDUNGEN
100
AcDbLine
 62
7
  6
CONTINUOUS
 10
123.6428517018
 20
23.1027170516
 11
143.9249816849
 21
23.1027170516
  0
LINE
  5
512
100
AcDbEntity
  8
RUNDUNGEN
100
AcDbLine
 62
7
  6
CONTINUOUS
 10
160.3607217186
 20
23.1027170516
 11
165.6428517018
 21
23.1027170516
  0
LINE
  5
513
100
AcDbEntity
  8
KONSTRUKTIONSELEMENTE
100
AcDbLine
 62
7
  6
CONTINUOUS
 10
147.0019874344
 20
8.9456276785
 11
146.0428517018
 21
9.4993849519
  0
LINE
  5
514
100
AcDbEntity
  8
KONSTRUKTIONSELEMENTE
100
AcDbLine
 62
7
  6
CONTINUOUS
 10
114.436255384
 20
50.827165145
 11
114.0658570835
 21
48.8617631254
  0
LINE
  5
515
100
AcDbEntity
  8
KONSTRUKTIONSELEMENTE
100
AcDbLine
 62
7
  6
CONTINUOUS
 10
114.5766272513
 20
49.2743054906
 11
114.8698592245
 21
50.8302486781
  0
LINE
  5
516
100
AcDbEntity
  8
KONSTRUKTIONSELEMENTE
100
AcDbLine
 62
7
  6
CONTINUOUS
 10
114.5970558299
 20
51.2208623493
 11
114.436255384
 21
50.827165145
  0
LINE
  5
517
100
AcDbEntity
  8
BEZUGSACHSEN
100
AcDbLine
 62
7
  6
CONTINUOUS
 10
117.9825976639
 20
63.1027170516
 11
109.3223436261
 21
48.1027170516
  0
LINE
  5
518
100
AcDbEntity
  8
KONSTRUKTIONSELEMENTE
100
AcDbLine
 62
7
  6
CONTINUOUS
 10
117.4043937747
 20
56.6555467288
 11
117.1108521887
 21
56.2507834186
  0
LINE
  5
519
100
AcDbEntity
  8
KONSTRUKTIONSELEMENTE
100
AcDbLine
 62
7
  6
CONTINUOUS
 10
115.9366858447
 20
54.6317301778
 11
115.6431441187
 21
54.2269666746
  0
LINE
  5
51A
100
AcDbEntity
  8
0
100
AcDbLine
 62
7
  6
CONTINUOUS
 10
106.9612912761
 20
28.8160495902
 11
107.7361091618
 21
28.8160495902
  0
LINE
  5
51B
100
AcDbEntity
  8
0
100
AcDbLine
 62
7
  6
CONTINUOUS
 10
106.7234182731
 20
29.024384513
 11
107.48682411
 21
29.024384513
  0
LINE
  5
51C
100
AcDbEntity
  8
0
100
AcDbLine
 62
7
  6
CONTINUOUS
 10
106.6066851979
 20
29.1285495902
 11
107.3646156442
 21
29.1285495902
  0
LINE
  5
51D
100
AcDbEntity
  8
0
100
AcDbLine
 62
7
  6
CONTINUOUS
 10
106.4913765465
 20
29.2327170516
 11
107.2439767403
 21
29.2327170516
  0
LINE
  5
51E
100
AcDbEntity
  8
0
100
AcDbLine
 62
7
  6
CONTINUOUS
 10
106.1537352647
 20
29.5452170516
 11
106.8911594365
 21
29.5452170516
  0
LINE
  5
51F
100
AcDbEntity
  8
0
100
AcDbLine
 62
7
  6
CONTINUOUS
 10
105.7219087911
 20
29.961884513
 11
106.4408112761
 21
29.961884513
  0
LINE
  5
520
100
AcDbEntity
  8
0
100
AcDbLine
 62
7
  6
CONTINUOUS
 10
105.2095774402
 20
30.4827170516
 11
105.9077001659
 21
30.4827170516
  0
LINE
  5
521
100
AcDbEntity
  8
BEZUGSACHSEN
100
AcDbLine
 62
7
  6
CONTINUOUS
 10
109.3223436261
 20
48.1027170516
 11
117.9825976639
 21
33.1027170516
  0
LINE
  5
522
100
AcDbEntity
  8
KONSTRUKTIONSELEMENTE
100
AcDbLine
 62
7
  6
CONTINUOUS
 10
116.1243712367
 20
50.593824215
 11
115.8311392634
 21
49.0378810275
  0
LINE
  5
523
100
AcDbEntity
  8
KONSTRUKTIONSELEMENTE
100
AcDbLine
 62
7
  6
CONTINUOUS
 10
116.3329439746
 20
48.9433112599
 11
116.5953094301
 21
50.3354709848
  0
LINE
  5
524
100
AcDbEntity
  8
KONSTRUKTIONSELEMENTE
100
AcDbLine
 62
7
  6
CONTINUOUS
 10
117.9966611228
 20
48.1209665243
 11
118.089260698
 21
48.6123170292
  0
LINE
  5
525
100
AcDbEntity
  8
KONSTRUKTIONSELEMENTE
100
AcDbLine
 62
7
  6
CONTINUOUS
 10
118.4750922463
 20
50.6596107216
 11
118.5831251134
 21
51.2328531335
  0
LINE
  5
526
100
AcDbEntity
  8
KONSTRUKTIONSELEMENTE
100
AcDbLine
 62
7
  6
CONTINUOUS
 10
119.5731459155
 20
53.8474390906
 11
119.4463473058
 21
53.5276322358
  0
LINE
  5
527
100
AcDbEntity
  8
KONSTRUKTIONSELEMENTE
100
AcDbLine
 62
7
  6
CONTINUOUS
 10
119.8597226003
 20
53.2278450849
 11
120.035444615
 21
53.6151122385
  0
LINE
  5
528
100
AcDbEntity
  8
KONSTRUKTIONSELEMENTE
100
AcDbLine
 62
7
  6
CONTINUOUS
 10
114.8698592245
 20
50.8302486781
 11
114.9997931306
 21
51.0601623026
  0
LINE
  5
529
100
AcDbEntity
  8
KONSTRUKTIONSELEMENTE
100
AcDbLine
 62
7
  6
CONTINUOUS
 10
119.4463473058
 20
53.5276322358
 11
119.2506528219
 21
53.2577899004
  0
LINE
  5
52A
100
AcDbEntity
  8
KONSTRUKTIONSELEMENTE
100
AcDbLine
 62
7
  6
CONTINUOUS
 10
114.9096912208
 20
51.5011443907
 11
114.5970558299
 21
51.2208623493
  0
LINE
  5
52B
100
AcDbEntity
  8
KONSTRUKTIONSELEMENTE
100
AcDbLine
 62
7
  6
CONTINUOUS
 10
121.0277001737
 20
59.2755047312
 11
119.2652654244
 21
58.3300822044
  0
LINE
  5
52C
100
AcDbEntity
  8
KONSTRUKTIONSELEMENTE
100
AcDbLine
 62
7
  6
CONTINUOUS
 10
119.9472585579
 20
58.1164545495
 11
121.2690846199
 21
58.8255214446
  0
LINE
  5
52D
100
AcDbEntity
  8
KONSTRUKTIONSELEMENTE
100
AcDbLine
 62
7
  6
CONTINUOUS
 10
121.435105101
 20
59.3974706935
 11
121.0277001737
 21
59.2755047312
  0
LINE
  5
52E
100
AcDbEntity
  8
0
100
AcDbLine
 62
7
  6
CONTINUOUS
 10
104.7254398247
 20
31.0035495902
 11
105.4050209062
 21
31.0035495902
  0
LINE
  5
52F
100
AcDbEntity
  8
0
100
AcDbLine
 62
7
  6
CONTINUOUS
 10
104.3569969437
 20
31.4202170516
 11
105.0231257706
 21
31.4202170516
  0
LINE
  5
530
100
AcDbEntity
  8
0
100
AcDbLine
 62
7
  6
CONTINUOUS
 10
104.0043005376
 20
31.836884513
 11
104.6580501008
 21
31.836884513
  0
LINE
  5
531
100
AcDbEntity
  8
0
100
AcDbLine
 62
7
  6
CONTINUOUS
 10
103.6665184351
 20
32.2535495902
 11
104.3088430439
 21
32.2535495902
  0
LINE
  5
532
100
AcDbEntity
  8
0
100
AcDbLine
 62
7
  6
CONTINUOUS
 10
103.5843129963
 20
32.3577170516
 11
104.2239182861
 21
32.3577170516
  0
LINE
  5
533
100
AcDbEntity
  8
0
100
AcDbLine
 62
7
  6
CONTINUOUS
 10
103.3429023484
 20
32.6702170516
 11
103.9746554512
 21
32.6702170516
  0
LINE
  5
534
100
AcDbEntity
  8
BEZUGSACHSEN
100
AcDbLine
 62
7
  6
CONTINUOUS
 10
117.9825976639
 20
33.1027170516
 11
135.3031057396
 21
33.1027170516
  0
LINE
  5
535
100
AcDbEntity
  8
0
100
AcDbLine
 62
7
  6
CONTINUOUS
 10
102.7355728393
 20
33.5035495902
 11
103.348411344
 21
33.5035495902
  0
LINE
  5
536
100
AcDbEntity
  8
0
100
AcDbLine
 62
7
  6
CONTINUOUS
 10
102.3127639438
 20
34.1285495902
 11
102.91309908
 21
34.1285495902
  0
LINE
  5
537
100
AcDbEntity
  8
0
100
AcDbLine
 62
7
  6
CONTINUOUS
 10
102.2448821719
 20
34.2327170516
 11
102.8432579557
 21
34.2327170516
  0
LINE
  5
538
100
AcDbEntity
  8
KONSTRUKTIONSELEMENTE
100
AcDbLine
 62
7
  6
CONTINUOUS
 10
116.5206407903
 20
50.8583448627
 11
116.4151055886
 21
51.2174350438
  0
LINE
  5
539
100
AcDbEntity
  8
KONSTRUKTIONSELEMENTE
100
AcDbLine
 62
7
  6
CONTINUOUS
 10
116.0870369057
 20
50.8552610954
 11
116.1243712367
 21
50.593824215
  0
LINE
  5
53A
100
AcDbEntity
  8
KONSTRUKTIONSELEMENTE
100
AcDbLine
 62
7
  6
CONTINUOUS
 10
119.5821249115
 20
54.1497498194
 11
119.5731459155
 21
53.8474390906
  0
LINE
  5
53B
100
AcDbEntity
  8
KONSTRUKTIONSELEMENTE
100
AcDbLine
 62
7
  6
CONTINUOUS
 10
123.0966893098
 20
57.0051353584
 11
123.0705116903
 21
56.7013583543
  0
LINE
  5
53C
100
AcDbEntity
  8
KONSTRUKTIONSELEMENTE
100
AcDbLine
 62
7
  6
CONTINUOUS
 10
120.035444615
 20
53.6151122385
 11
120.0933473321
 21
53.9848836257
  0
LINE
  5
53D
100
AcDbEntity
  8
KONSTRUKTIONSELEMENTE
100
AcDbLine
 62
7
  6
CONTINUOUS
 10
123.4587660213
 20
56.3301603497
 11
123.5915818879
 21
56.7877195046
  0
LINE
  5
53E
100
AcDbEntity
  8
KONSTRUKTIONSELEMENTE
100
AcDbLine
 62
7
  6
CONTINUOUS
 10
123.0705116903
 20
56.7013583543
 11
122.9306688569
 21
56.433186057
  0
LINE
  5
53F
100
AcDbEntity
  8
0
100
AcDbLine
 62
7
  6
CONTINUOUS
 10
123.1778517018
 20
54.1027170516
 11
119.7137500866
 21
48.1027170516
  0
LINE
  5
540
100
AcDbEntity
  8
KONSTRUKTIONSELEMENTE
100
AcDbLine
 62
7
  6
CONTINUOUS
 10
123.2454886692
 20
56.0225956303
 11
123.4587660213
 21
56.3301603497
  0
LINE
  5
541
100
AcDbEntity
  8
KONSTRUKTIONSELEMENTE
100
AcDbLine
 62
7
  6
CONTINUOUS
 10
119.6640281164
 20
52.9580027495
 11
119.8597226003
 21
53.2278450849
  0
LINE
  5
542
100
AcDbEntity
  8
KONSTRUKTIONSELEMENTE
100
AcDbLine
 62
7
  6
CONTINUOUS
 10
122.9306688569
 20
56.433186057
 11
122.6771607531
 21
56.2006185717
  0
LINE
  5
543
100
AcDbEntity
  8
KONSTRUKTIONSELEMENTE
100
AcDbLine
 62
7
  6
CONTINUOUS
 10
119.3505143409
 20
52.6706646433
 11
119.6640281164
 21
52.9580027495
  0
LINE
  5
544
100
AcDbEntity
  8
KONSTRUKTIONSELEMENTE
100
AcDbLine
 62
7
  6
CONTINUOUS
 10
122.9185452275
 20
55.7506352326
 11
123.2454886692
 21
56.0225956303
  0
LINE
  5
545
100
AcDbEntity
  8
KONSTRUKTIONSELEMENTE
100
AcDbLine
 62
7
  6
CONTINUOUS
 10
119.2506528219
 20
53.2577899004
 11
118.9860627434
 21
53.0379124702
  0
LINE
  5
546
100
AcDbEntity
  8
KONSTRUKTIONSELEMENTE
100
AcDbLine
 62
7
  6
CONTINUOUS
 10
114.9997931306
 20
51.0601623026
 11
115.1979279074
 21
51.1924226265
  0
LINE
  5
547
100
AcDbEntity
  8
KONSTRUKTIONSELEMENTE
100
AcDbLine
 62
7
  6
CONTINUOUS
 10
122.6771607531
 20
56.2006185717
 11
121.3553346911
 21
55.4915516765
  0
LINE
  5
548
100
AcDbEntity
  8
KONSTRUKTIONSELEMENTE
100
AcDbLine
 62
7
  6
CONTINUOUS
 10
121.1561104782
 20
54.8052127057
 11
122.9185452275
 21
55.7506352326
  0
LINE
  5
549
100
AcDbEntity
  8
KONSTRUKTIONSELEMENTE
100
AcDbLine
 62
7
  6
CONTINUOUS
 10
115.2905274825
 20
51.6837731314
 11
114.9096912208
 21
51.5011443907
  0
LINE
  5
54A
100
AcDbEntity
  8
0
100
AcDbLine
 62
7
  6
CONTINUOUS
 10
102.1112739107
 20
34.4410495902
 11
102.7058308493
 21
34.4410495902
  0
LINE
  5
54B
100
AcDbEntity
  8
0
100
AcDbLine
 62
7
  6
CONTINUOUS
 10
101.9161462891
 20
34.7535495902
 11
102.5052139887
 21
34.7535495902
  0
LINE
  5
54C
100
AcDbEntity
  8
0
100
AcDbLine
 62
7
  6
CONTINUOUS
 10
101.6655806303
 20
35.1702170516
 11
102.2477484361
 21
35.1702170516
  0
LINE
  5
54D
100
AcDbEntity
  8
0
100
AcDbLine
 62
7
  6
CONTINUOUS
 10
101.4256526014
 20
35.586884513
 11
102.0013652494
 21
35.586884513
  0
LINE
  5
54E
100
AcDbEntity
  8
0
100
AcDbLine
 62
7
  6
CONTINUOUS
 10
101.1960223769
 20
36.0035495902
 11
101.7656913115
 21
36.0035495902
  0
LINE
  5
54F
100
AcDbEntity
  8
0
100
AcDbLine
 62
7
  6
CONTINUOUS
 10
101.0303668725
 20
36.3160495902
 11
101.595755064
 21
36.3160495902
  0
LINE
  5
550
100
AcDbEntity
  8
0
100
AcDbLine
 62
7
  6
CONTINUOUS
 10
100.922987802
 20
36.524384513
 11
101.4856358201
 21
36.524384513
  0
LINE
  5
551
100
AcDbEntity
  8
0
100
AcDbLine
 62
7
  6
CONTINUOUS
 10
100.8702040501
 20
36.6285495902
 11
101.4315149327
 21
36.6285495902
  0
LINE
  5
552
100
AcDbEntity
  8
0
100
AcDbLine
 62
7
  6
CONTINUOUS
 10
100.5659029131
 20
37.2535495902
 11
101.1196288996
 21
37.2535495902
  0
LINE
  5
553
100
AcDbEntity
  8
KONSTRUKTIONSELEMENTE
100
AcDbLine
 62
7
  6
CONTINUOUS
 10
115.9506352084
 20
51.050567931
 11
116.0870369057
 21
50.8552610954
  0
LWPOLYLINE
  5
554
100
AcDbEntity
  8
KONSTRUKTIONSELEMENTE
100
AcDbPolyline
 62
7
  6
CONTINUOUS
 90
15
 70
0
 10
145.8129739304
 20
10.3323742964
 10
145.9735643219
 20
10.0979519688
 10
146.259691676
 20
9.7235305731
 10
146.583116636
 20
9.3540761943
 10
146.9446457741
 20
8.9948916931
 10
147.3442278009
 20
8.6515982712
 10
147.7802964658
 20
8.3303477351
 10
148.2499737592
 20
8.0371697144
 10
148.7515226436
 20
7.7764840364
 10
149.2817382029
 20
7.5529444336
 10
149.8380077192
 20
7.3703723366
 10
150.4169774529
 20
7.2324843061
 10
151.0143453042
 20
7.1427477029
 10
151.6250464175
 20
7.1041187804
 10
151.7658673298
 20
7.1027170159
  0
LINE
  5
555
100
AcDbEntity
  8
0
100
AcDbLine
 62
7
  6
CONTINUOUS
 10
119.7137500866
 20
48.1027170516
 11
123.1778517018
 21
42.1027170516
  0
LINE
  5
556
100
AcDbEntity
  8
KONSTRUKTIONSELEMENTE
100
AcDbLine
 62
7
  6
CONTINUOUS
 10
120.0933473321
 20
53.9848836257
 11
120.0134582945
 21
54.4545840559
  0
LINE
  5
557
100
AcDbEntity
  8
KONSTRUKTIONSELEMENTE
100
AcDbLine
 62
7
  6
CONTINUOUS
 10
123.5915818879
 20
56.7877195046
 11
123.5775287382
 21
57.1664937757
  0
LINE
  5
558
100
AcDbEntity
  8
KONSTRUKTIONSELEMENTE
100
AcDbLine
 62
7
  6
CONTINUOUS
 10
130.7373863897
 20
60.0812305524
 11
128.8618491516
 21
56.5481921902
  0
LINE
  5
559
100
AcDbEntity
  8
KONSTRUKTIONSELEMENTE
100
AcDbLine
 62
7
  6
CONTINUOUS
 10
129.3034789469
 20
56.3137500355
 11
130.7799657564
 21
59.0950781974
  0
LINE
  5
55A
100
AcDbEntity
  8
KONSTRUKTIONSELEMENTE
100
AcDbLine
 62
7
  6
CONTINUOUS
 10
133.607980059
 20
58.5573565464
 11
130.827893575
 21
55.9862787239
  0
LINE
  5
55B
100
AcDbEntity
  8
KONSTRUKTIONSELEMENTE
100
AcDbLine
 62
7
  6
CONTINUOUS
 10
130.9227887578
 20
55.4541285032
 11
133.429744528
 21
57.6884252689
  0
LINE
  5
55C
100
AcDbEntity
  8
KONSTRUKTIONSELEMENTE
100
AcDbLine
 62
7
  6
CONTINUOUS
 10
119.0170280901
 20
52.5007513596
 11
119.3505143409
 21
52.6706646433
  0
LINE
  5
55D
100
AcDbEntity
  8
KONSTRUKTIONSELEMENTE
100
AcDbLine
 62
7
  6
CONTINUOUS
 10
118.9860627434
 20
53.0379124702
 11
118.7015001534
 21
52.9354598888
  0
LINE
  5
55E
100
AcDbEntity
  8
0
100
AcDbLine
 62
7
  6
CONTINUOUS
 10
100.1921992895
 20
38.086884513
 11
100.7368896273
 21
38.086884513
  0
LINE
  5
55F
100
AcDbEntity
  8
0
100
AcDbLine
 62
7
  6
CONTINUOUS
 10
99.0915497622
 20
41.211884513
 11
99.6112802399
 21
41.211884513
  0
LINE
  5
560
100
AcDbEntity
  8
KONSTRUKTIONSELEMENTE
100
AcDbLine
 62
7
  6
CONTINUOUS
 10
116.4151055886
 20
51.2174350438
 11
116.1268689021
 21
51.526156808
  0
LINE
  5
561
100
AcDbEntity
  8
KONSTRUKTIONSELEMENTE
100
AcDbLine
 62
7
  6
CONTINUOUS
 10
119.2652654244
 20
58.3300822044
 11
121.1561104782
 21
54.8052127057
  0
LINE
  5
562
100
AcDbEntity
  8
KONSTRUKTIONSELEMENTE
100
AcDbLine
 62
7
  6
CONTINUOUS
 10
120.0134582945
 20
54.4545840559
 11
119.8357218507
 21
54.789363143
  0
LINE
  5
563
100
AcDbEntity
  8
KONSTRUKTIONSELEMENTE
100
AcDbLine
 62
7
  6
CONTINUOUS
 10
119.4732843904
 20
54.4345643521
 11
119.5821249115
 21
54.1497498194
  0
LINE
  5
564
100
AcDbEntity
  8
KONSTRUKTIONSELEMENTE
100
AcDbLine
 62
7
  6
CONTINUOUS
 10
123.0092008468
 20
57.3445166712
 11
123.0966893098
 21
57.0051353584
  0
LINE
  5
565
100
AcDbEntity
  8
KONSTRUKTIONSELEMENTE
100
AcDbLine
 62
7
  6
CONTINUOUS
 10
130.7799657564
 20
59.0950781974
 11
130.3339479076
 21
55.7667186391
  0
LINE
  5
566
100
AcDbEntity
  8
KONSTRUKTIONSELEMENTE
100
AcDbLine
 62
7
  6
CONTINUOUS
 10
130.827893575
 20
55.9862787239
 11
131.3998310826
 21
59.7295673203
  0
LINE
  5
567
100
AcDbEntity
  8
KONSTRUKTIONSELEMENTE
100
AcDbLine
 62
7
  6
CONTINUOUS
 10
133.429744528
 20
57.6884252689
 11
131.9532577185
 21
54.9070971069
  0
LINE
  5
568
100
AcDbEntity
  8
KONSTRUKTIONSELEMENTE
100
AcDbLine
 62
7
  6
CONTINUOUS
 10
132.3948875138
 20
54.6726549521
 11
134.2704247519
 21
58.2056933143
  0
LINE
  5
569
100
AcDbEntity
  8
KONSTRUKTIONSELEMENTE
100
AcDbLine
 62
7
  6
CONTINUOUS
 10
135.3428760646
 20
56.2434094349
 11
134.8266421838
 21
55.7994939412
  0
LINE
  5
56A
100
AcDbEntity
  8
KONSTRUKTIONSELEMENTE
100
AcDbLine
 62
7
  6
CONTINUOUS
 10
135.6043472175
 20
55.808810849
 11
133.0877075685
 21
53.6447232639
  0
LINE
  5
56B
100
AcDbEntity
  8
KONSTRUKTIONSELEMENTE
100
AcDbLine
 62
7
  6
CONTINUOUS
 10
133.4137079339
 20
53.2656140953
 11
136.446581283
 21
55.8736170187
  0
LINE
  5
56C
100
AcDbEntity
  8
KONSTRUKTIONSELEMENTE
100
AcDbLine
 62
7
  6
CONTINUOUS
 10
135.0817024304
 20
53.2619439403
 11
134.8461908612
 21
53.1633429614
  0
LINE
  5
56D
100
AcDbEntity
  8
KONSTRUKTIONSELEMENTE
100
AcDbLine
 62
7
  6
CONTINUOUS
 10
136.6839614452
 20
53.8424166501
 11
136.448449876
 21
53.7438156712
  0
LINE
  5
56E
100
AcDbEntity
  8
KONSTRUKTIONSELEMENTE
100
AcDbLine
 62
7
  6
CONTINUOUS
 10
135.0071019546
 20
52.7790017051
 11
135.2426135238
 21
52.877602684
  0
LINE
  5
56F
100
AcDbEntity
  8
KONSTRUKTIONSELEMENTE
100
AcDbLine
 62
7
  6
CONTINUOUS
 10
136.6878655623
 20
53.3923396485
 11
136.8448732751
 21
53.4580736344
  0
LINE
  5
570
100
AcDbEntity
  8
0
100
AcDbLine
 62
7
  6
CONTINUOUS
 10
98.9246530902
 20
41.836884513
 11
99.4407992558
 21
41.836884513
  0
LINE
  5
571
100
AcDbEntity
  8
0
100
AcDbLine
 62
7
  6
CONTINUOUS
 10
98.9155975072
 20
41.8727170516
 11
99.4315506215
 21
41.8727170516
  0
LINE
  5
572
100
AcDbEntity
  8
0
100
AcDbLine
 62
7
  6
CONTINUOUS
 10
123.1778517018
 20
42.1027170516
 11
130.106054932
 21
42.1027170516
  0
LINE
  5
573
100
AcDbEntity
  8
KONSTRUKTIONSELEMENTE
100
AcDbLine
 62
7
  6
CONTINUOUS
 10
115.7151661006
 20
51.1797444875
 11
115.9506352084
 21
51.050567931
  0
LINE
  5
574
100
AcDbEntity
  8
KONSTRUKTIONSELEMENTE
100
AcDbLine
 62
7
  6
CONTINUOUS
 10
116.1268689021
 20
51.526156808
 11
115.8913997943
 21
51.6553333645
  0
LINE
  5
575
100
AcDbEntity
  8
KONSTRUKTIONSELEMENTE
100
AcDbLine
 62
7
  6
CONTINUOUS
 10
115.6431441187
 20
54.2269666746
 11
117.7789165138
 21
52.6780663657
  0
LINE
  5
576
100
AcDbEntity
  8
KONSTRUKTIONSELEMENTE
100
AcDbLine
 62
7
  6
CONTINUOUS
 10
118.0724582398
 20
53.0828298689
 11
115.9366858447
 21
54.6317301778
  0
LINE
  5
577
100
AcDbEntity
  8
KONSTRUKTIONSELEMENTE
100
AcDbLine
 62
7
  6
CONTINUOUS
 10
119.8357218507
 20
54.789363143
 11
119.5401661698
 21
55.1066464199
  0
LINE
  5
578
100
AcDbEntity
  8
KONSTRUKTIONSELEMENTE
100
AcDbLine
 62
7
  6
CONTINUOUS
 10
119.2466245838
 20
54.7018831097
 11
119.4732843904
 21
54.4345643521
  0
LINE
  5
579
100
AcDbEntity
  8
KONSTRUKTIONSELEMENTE
100
AcDbLine
 62
7
  6
CONTINUOUS
 10
121.3553346911
 20
55.4915516765
 11
119.9472585579
 21
58.1164545495
  0
LINE
  5
57A
100
AcDbEntity
  8
KONSTRUKTIONSELEMENTE
100
AcDbLine
 62
7
  6
CONTINUOUS
 10
122.405739675
 20
58.4694749928
 11
123.0092008468
 21
57.3445166712
  0
LINE
  5
57B
100
AcDbEntity
  8
KONSTRUKTIONSELEMENTE
100
AcDbLine
 62
7
  6
CONTINUOUS
 10
123.4498095341
 20
57.5808723029
 11
122.8463483623
 21
58.7058306245
  0
LINE
  5
57C
100
AcDbEntity
  8
KONSTRUKTIONSELEMENTE
100
AcDbLine
 62
7
  6
CONTINUOUS
 10
123.5775287382
 20
57.1664937757
 11
123.4498095341
 21
57.5808723029
  0
LINE
  5
57D
100
AcDbEntity
  8
KONSTRUKTIONSELEMENTE
100
AcDbLine
 62
7
  6
CONTINUOUS
 10
134.5180358143
 20
52.8452718229
 11
134.3790710209
 21
52.5160657268
  0
LINE
  5
57E
100
AcDbEntity
  8
KONSTRUKTIONSELEMENTE
100
AcDbLine
 62
7
  6
CONTINUOUS
 10
134.7896332774
 20
52.4169286045
 11
135.0071019546
 21
52.7790017051
  0
LINE
  5
57F
100
AcDbEntity
  8
KONSTRUKTIONSELEMENTE
100
AcDbLine
 62
7
  6
CONTINUOUS
 10
136.5167182832
 20
53.1400025189
 11
136.6878655623
 21
53.3923396485
  0
LINE
  5
580
100
AcDbEntity
  8
KONSTRUKTIONSELEMENTE
100
AcDbLine
 62
7
  6
CONTINUOUS
 10
136.448449876
 20
53.7438156712
 11
136.198799477
 21
53.4586097893
  0
LINE
  5
581
100
AcDbEntity
  8
KONSTRUKTIONSELEMENTE
100
AcDbLine
 62
7
  6
CONTINUOUS
 10
134.8461908612
 20
53.1633429614
 11
134.5180358143
 21
52.8452718229
  0
LINE
  5
582
100
AcDbEntity
  8
KONSTRUKTIONSELEMENTE
100
AcDbLine
 62
7
  6
CONTINUOUS
 10
137.617247702
 20
51.613232789
 11
137.4602399892
 21
51.5474988031
  0
LINE
  5
583
100
AcDbEntity
  8
KONSTRUKTIONSELEMENTE
100
AcDbLine
 62
7
  6
CONTINUOUS
 10
136.0793522407
 20
50.879025688
 11
135.8438406715
 21
50.7804247091
  0
LINE
  5
584
100
AcDbEntity
  8
KONSTRUKTIONSELEMENTE
100
AcDbLine
 62
7
  6
CONTINUOUS
 10
137.5426472262
 20
51.1302905538
 11
137.7781587954
 21
51.2288915327
  0
LINE
  5
585
100
AcDbEntity
  8
KONSTRUKTIONSELEMENTE
100
AcDbLine
 62
7
  6
CONTINUOUS
 10
136.0047525015
 20
50.3960816934
 11
136.2402640707
 21
50.4946826723
  0
LINE
  5
586
100
AcDbEntity
  8
0
100
AcDbLine
 62
7
  6
CONTINUOUS
 10
98.2788397951
 20
45.4727170516
 11
98.7815745825
 21
45.4727170516
  0
LINE
  5
587
100
AcDbEntity
  8
0
100
AcDbLine
 62
7
  6
CONTINUOUS
 10
98.2016036978
 20
46.3727170516
 11
98.7027815335
 21
46.3727170516
  0
LINE
  5
588
100
AcDbEntity
  8
0
100
AcDbLine
 62
7
  6
CONTINUOUS
 10
98.1563631245
 20
47.2727170516
 11
98.6566335005
 21
47.2727170516
  0
LINE
  5
589
100
AcDbEntity
  8
0
100
AcDbLine
 62
7
  6
CONTINUOUS
 10
145.1428517018
 20
48.1027170516
 11
144.3856978431
 21
48.1027170516
  0
LINE
  5
58A
100
AcDbEntity
  8
0
100
AcDbLine
 62
7
  6
CONTINUOUS
 10
159.1428517018
 20
48.1027170516
 11
159.9000055604
 21
48.1027170516
  0
LINE
  5
58B
100
AcDbEntity
  8
KONSTRUKTIONSELEMENTE
100
AcDbLine
 62
7
  6
CONTINUOUS
 10
114.0658570835
 20
48.8617631254
 11
117.9966611228
 21
48.1209665243
  0
LINE
  5
58C
100
AcDbEntity
  8
KONSTRUKTIONSELEMENTE
100
AcDbLine
 62
7
  6
CONTINUOUS
 10
118.089260698
 20
48.6123170292
 11
116.3329439746
 21
48.9433112599
  0
LINE
  5
58D
100
AcDbEntity
  8
KONSTRUKTIONSELEMENTE
100
AcDbLine
 62
7
  6
CONTINUOUS
 10
115.8311392634
 20
49.0378810275
 11
114.5766272513
 21
49.2743054906
  0
LINE
  5
58E
100
AcDbEntity
  8
KONSTRUKTIONSELEMENTE
100
AcDbLine
 62
7
  6
CONTINUOUS
 10
115.4642635108
 20
51.2270294154
 11
115.7151661006
 21
51.1797444875
  0
LINE
  5
58F
100
AcDbEntity
  8
KONSTRUKTIONSELEMENTE
100
AcDbLine
 62
7
  6
CONTINUOUS
 10
115.8913997943
 20
51.6553333645
 11
115.5568630859
 21
51.7183799204
  0
LINE
  5
590
100
AcDbEntity
  8
KONSTRUKTIONSELEMENTE
100
AcDbLine
 62
7
  6
CONTINUOUS
 10
118.3969651483
 20
52.950432086
 11
118.0724582398
 21
53.0828298689
  0
LINE
  5
591
100
AcDbEntity
  8
KONSTRUKTIONSELEMENTE
100
AcDbLine
 62
7
  6
CONTINUOUS
 10
117.7789165138
 20
52.6780663657
 11
118.1723195767
 21
52.4957044495
  0
LINE
  5
592
100
AcDbEntity
  8
KONSTRUKTIONSELEMENTE
100
AcDbLine
 62
7
  6
CONTINUOUS
 10
117.1108521887
 20
56.2507834186
 11
119.2466245838
 21
54.7018831097
  0
LINE
  5
593
100
AcDbEntity
  8
KONSTRUKTIONSELEMENTE
100
AcDbLine
 62
7
  6
CONTINUOUS
 10
119.5401661698
 20
55.1066464199
 11
117.4043937747
 21
56.6555467288
  0
LINE
  5
594
100
AcDbEntity
  8
KONSTRUKTIONSELEMENTE
100
AcDbLine
 62
7
  6
CONTINUOUS
 10
122.1713822098
 20
58.7300713955
 11
122.405739675
 21
58.4694749928
  0
LINE
  5
595
100
AcDbEntity
  8
KONSTRUKTIONSELEMENTE
100
AcDbLine
 62
7
  6
CONTINUOUS
 10
122.8463483623
 20
58.7058306245
 11
122.5717600434
 21
59.0414244517
  0
LINE
  5
596
100
AcDbEntity
  8
KONSTRUKTIONSELEMENTE
100
AcDbLine
 62
7
  6
CONTINUOUS
 10
134.7613548813
 20
52.0437205579
 11
134.7896332774
 21
52.4169286045
  0
LINE
  5
597
100
AcDbEntity
  8
KONSTRUKTIONSELEMENTE
100
AcDbLine
 62
7
  6
CONTINUOUS
 10
136.0598347111
 20
53.1294037047
 11
136.0456951448
 21
52.9428005611
  0
LINE
  5
598
100
AcDbEntity
  8
KONSTRUKTIONSELEMENTE
100
AcDbLine
 62
7
  6
CONTINUOUS
 10
136.3251001057
 20
51.6143050988
 11
136.2968209729
 21
51.2410988116
  0
LINE
  5
599
100
AcDbEntity
  8
KONSTRUKTIONSELEMENTE
100
AcDbLine
 62
7
  6
CONTINUOUS
 10
136.6752014252
 20
51.2188288734
 11
136.6893402549
 21
51.4054337764
  0
LINE
  5
59A
100
AcDbEntity
  8
KONSTRUKTIONSELEMENTE
100
AcDbLine
 62
7
  6
CONTINUOUS
 10
134.3790710209
 20
52.5160657268
 11
134.3044705245
 21
52.0331234829
  0
LINE
  5
59B
100
AcDbEntity
  8
KONSTRUKTIONSELEMENTE
100
AcDbLine
 62
7
  6
CONTINUOUS
 10
136.4099360306
 20
52.7339274793
 11
136.5167182832
 21
53.1400025189
  0
LINE
  5
59C
100
AcDbEntity
  8
KONSTRUKTIONSELEMENTE
100
AcDbLine
 62
7
  6
CONTINUOUS
 10
136.568418436
 20
50.8127555932
 11
136.6752014252
 21
51.2188288734
  0
LINE
  5
59D
100
AcDbEntity
  8
KONSTRUKTIONSELEMENTE
100
AcDbLine
 62
7
  6
CONTINUOUS
 10
137.8951774536
 20
52.2716450503
 11
137.7883944645
 21
51.86557177
  0
LINE
  5
59E
100
AcDbEntity
  8
KONSTRUKTIONSELEMENTE
100
AcDbLine
 62
7
  6
CONTINUOUS
 10
136.198799477
 20
53.4586097893
 11
136.0598347111
 21
53.1294037047
  0
LINE
  5
59F
100
AcDbEntity
  8
KONSTRUKTIONSELEMENTE
100
AcDbLine
 62
7
  6
CONTINUOUS
 10
138.1063140073
 20
51.5469627403
 11
138.2452787731
 21
51.8761688249
  0
LINE
  5
5A0
100
AcDbEntity
  8
0
100
AcDbLine
 62
7
  6
CONTINUOUS
 10
130.106054932
 20
42.1027170516
 11
133.5701565472
 21
48.1027170516
  0
LINE
  5
5A1
100
AcDbEntity
  8
KONSTRUKTIONSELEMENTE
100
AcDbLine
 62
7
  6
CONTINUOUS
 10
136.2968209729
 20
51.2410988116
 11
136.0793522407
 21
50.879025688
  0
LINE
  5
5A2
100
AcDbEntity
  8
KONSTRUKTIONSELEMENTE
100
AcDbLine
 62
7
  6
CONTINUOUS
 10
137.7883944645
 20
51.86557177
 11
137.617247702
 21
51.613232789
  0
LINE
  5
5A3
100
AcDbEntity
  8
KONSTRUKTIONSELEMENTE
100
AcDbLine
 62
7
  6
CONTINUOUS
 10
136.2402640707
 20
50.4946826723
 11
136.568418436
 21
50.8127555932
  0
LINE
  5
5A4
100
AcDbEntity
  8
KONSTRUKTIONSELEMENTE
100
AcDbLine
 62
7
  6
CONTINUOUS
 10
137.7781587954
 20
51.2288915327
 11
138.1063140073
 21
51.5469627403
  0
LINE
  5
5A5
100
AcDbEntity
  8
KONSTRUKTIONSELEMENTE
100
AcDbLine
 62
7
  6
CONTINUOUS
 10
135.5478681379
 20
50.3854846155
 11
136.0047525015
 21
50.3960816934
  0
LINE
  5
5A6
100
AcDbEntity
  8
0
100
AcDbLine
 62
7
  6
CONTINUOUS
 10
98.1587390038
 20
49.0027170516
 11
98.659056954
 21
49.0027170516
  0
LINE
  5
5A7
100
AcDbEntity
  8
0
100
AcDbLine
 62
7
  6
CONTINUOUS
 10
98.2064604483
 20
49.9027170516
 11
98.7077359009
 21
49.9027170516
  0
LINE
  5
5A8
100
AcDbEntity
  8
0
100
AcDbLine
 62
7
  6
CONTINUOUS
 10
98.2268047284
 20
50.1702170516
 11
98.7284895034
 21
50.1702170516
  0
LINE
  5
5A9
100
AcDbEntity
  8
0
100
AcDbLine
 62
7
  6
CONTINUOUS
 10
98.2416456393
 20
50.3452001781
 11
98.7436294362
 21
50.3452001781
  0
LINE
  5
5AA
100
AcDbEntity
  8
0
100
AcDbLine
 62
7
  6
CONTINUOUS
 10
98.7900770244
 20
50.8027170516
 11
98.2866819842
 21
50.8027170516
  0
LINE
  5
5AB
100
AcDbEntity
  8
KONSTRUKTIONSELEMENTE
100
AcDbLine
 62
7
  6
CONTINUOUS
 10
137.1642675105
 20
51.1525587326
 11
137.5426472262
 21
51.1302905538
  0
LINE
  5
5AC
100
AcDbEntity
  8
KONSTRUKTIONSELEMENTE
100
AcDbLine
 62
7
  6
CONTINUOUS
 10
118.1723195767
 20
52.4957044495
 11
118.5457503644
 21
52.4307675049
  0
LINE
  5
5AD
100
AcDbEntity
  8
KONSTRUKTIONSELEMENTE
100
AcDbLine
 62
7
  6
CONTINUOUS
 10
135.8438406715
 20
50.7804247091
 11
135.4332783876
 21
50.8795618198
  0
LINE
  5
5AE
100
AcDbEntity
  8
KONSTRUKTIONSELEMENTE
100
AcDbLine
 62
7
  6
CONTINUOUS
 10
135.2158097378
 20
50.5174887308
 11
135.5478681379
 21
50.3854846155
  0
LINE
  5
5AF
100
AcDbEntity
  8
KONSTRUKTIONSELEMENTE
100
AcDbLine
 62
7
  6
CONTINUOUS
 10
122.5717600434
 20
59.0414244517
 11
122.2639672367
 21
59.2626279486
  0
LINE
  5
5B0
100
AcDbEntity
  8
KONSTRUKTIONSELEMENTE
100
AcDbLine
 62
7
  6
CONTINUOUS
 10
134.8193870546
 20
50.8032289996
 11
135.2158097378
 21
50.5174887308
  0
LINE
  5
5B1
100
AcDbEntity
  8
KONSTRUKTIONSELEMENTE
100
AcDbLine
 62
7
  6
CONTINUOUS
 10
135.4332783876
 20
50.8795618198
 11
135.1475420947
 21
51.1213001352
  0
LINE
  5
5B2
100
AcDbEntity
  8
KONSTRUKTIONSELEMENTE
100
AcDbLine
 62
7
  6
CONTINUOUS
 10
133.0877075685
 20
53.6447232639
 11
133.4137079339
 21
53.2656140953
  0
LINE
  5
5B3
100
AcDbEntity
  8
KONSTRUKTIONSELEMENTE
100
AcDbLine
 62
7
  6
CONTINUOUS
 10
135.1475420947
 20
51.1213001352
 11
134.9403089216
 21
51.3959072029
  0
LINE
  5
5B4
100
AcDbEntity
  8
KONSTRUKTIONSELEMENTE
100
AcDbLine
 62
7
  6
CONTINUOUS
 10
134.5799720979
 20
51.15470326
 11
134.8193870546
 21
50.8032289996
  0
LINE
  5
5B5
100
AcDbEntity
  8
0
100
AcDbLine
 62
7
  6
CONTINUOUS
 10
133.5701565472
 20
48.1027170516
 11
130.106054932
 21
54.1027170516
  0
LINE
  5
5B6
100
AcDbEntity
  8
KONSTRUKTIONSELEMENTE
100
AcDbLine
 62
7
  6
CONTINUOUS
 10
134.3868784912
 20
51.6159134714
 11
134.5799720979
 21
51.15470326
  0
LINE
  5
5B7
100
AcDbEntity
  8
KONSTRUKTIONSELEMENTE
100
AcDbLine
 62
7
  6
CONTINUOUS
 10
134.9403089216
 20
51.3959072029
 11
134.8115796049
 21
51.7033812636
  0
LINE
  5
5B8
100
AcDbEntity
  8
KONSTRUKTIONSELEMENTE
100
AcDbLine
 62
7
  6
CONTINUOUS
 10
134.3044705245
 20
52.0331234829
 11
134.3868784912
 21
51.6159134714
  0
LINE
  5
5B9
100
AcDbEntity
  8
KONSTRUKTIONSELEMENTE
100
AcDbLine
 62
7
  6
CONTINUOUS
 10
134.8115796049
 20
51.7033812636
 11
134.7613548813
 21
52.0437205579
  0
LINE
  5
5BA
100
AcDbEntity
  8
KONSTRUKTIONSELEMENTE
100
AcDbLine
 62
7
  6
CONTINUOUS
 10
136.2748746454
 20
51.9546461525
 11
136.3251001057
 21
51.6143050988
  0
LINE
  5
5BB
100
AcDbEntity
  8
0
100
AcDbLine
 62
7
  6
CONTINUOUS
 10
144.2300067479
 20
77.6069861062
 11
144.0568061291
 21
76.2717341028
  0
LINE
  5
5BC
100
AcDbEntity
  8
KONSTRUKTIONSELEMENTE
100
AcDbLine
 62
7
  6
CONTINUOUS
 10
138.2452787731
 20
51.8761688249
 11
138.3198785124
 21
52.3591128195
  0
LINE
  5
5BD
100
AcDbEntity
  8
KONSTRUKTIONSELEMENTE
100
AcDbLine
 62
7
  6
CONTINUOUS
 10
118.5831251134
 20
51.2328531335
 11
116.5206407903
 21
50.8583448627
  0
LINE
  5
5BE
100
AcDbEntity
  8
KONSTRUKTIONSELEMENTE
100
AcDbLine
 62
7
  6
CONTINUOUS
 10
116.5953094301
 20
50.3354709848
 11
118.4750922463
 21
50.6596107216
  0
LINE
  5
5BF
100
AcDbEntity
  8
KONSTRUKTIONSELEMENTE
100
AcDbLine
 62
7
  6
CONTINUOUS
 10
118.5457503644
 20
52.4307675049
 11
119.0170280901
 21
52.5007513596
  0
LINE
  5
5C0
100
AcDbEntity
  8
KONSTRUKTIONSELEMENTE
100
AcDbLine
 62
7
  6
CONTINUOUS
 10
115.1979279074
 20
51.1924226265
 11
115.4642635108
 21
51.2270294154
  0
LINE
  5
5C1
100
AcDbEntity
  8
KONSTRUKTIONSELEMENTE
100
AcDbLine
 62
7
  6
CONTINUOUS
 10
115.5568630859
 20
51.7183799204
 11
115.2905274825
 21
51.6837731314
  0
LINE
  5
5C2
100
AcDbEntity
  8
KONSTRUKTIONSELEMENTE
100
AcDbLine
 62
7
  6
CONTINUOUS
 10
135.5385861124
 20
53.2725428005
 11
135.0817024304
 21
53.2619439403
  0
LINE
  5
5C3
100
AcDbEntity
  8
KONSTRUKTIONSELEMENTE
100
AcDbLine
 62
7
  6
CONTINUOUS
 10
137.1408459737
 20
53.853013797
 11
136.6839614452
 21
53.8424166501
  0
LINE
  5
5C4
100
AcDbEntity
  8
0
100
AcDbLine
 62
7
  6
CONTINUOUS
 10
130.106054932
 20
54.1027170516
 11
123.1778517018
 21
54.1027170516
  0
LINE
  5
5C5
100
AcDbEntity
  8
0
100
AcDbLine
 62
7
  6
CONTINUOUS
 10
98.9155975072
 20
54.3327170516
 11
99.4315506215
 21
54.3327170516
  0
LINE
  5
5C6
100
AcDbEntity
  8
0
100
AcDbLine
 62
7
  6
CONTINUOUS
 10
98.9701097838
 20
54.5452170516
 11
99.4872272273
 21
54.5452170516
  0
LINE
  5
5C7
100
AcDbEntity
  8
0
100
AcDbLine
 62
7
  6
CONTINUOUS
 10
98.997544628
 20
54.6493833209
 11
99.5152500647
 21
54.6493833209
  0
LINE
  5
5C8
100
AcDbEntity
  8
0
100
AcDbLine
 62
7
  6
CONTINUOUS
 10
99.0826839888
 20
54.9618833209
 11
99.602222798
 21
54.9618833209
  0
LINE
  5
5C9
100
AcDbEntity
  8
0
100
AcDbLine
 62
7
  6
CONTINUOUS
 10
99.2028794529
 20
55.3785507823
 11
99.7250289847
 21
55.3785507823
  0
LINE
  5
5CA
100
AcDbEntity
  8
KONSTRUKTIONSELEMENTE
100
AcDbLine
 62
7
  6
CONTINUOUS
 10
118.7015001534
 20
52.9354598888
 11
118.3969651483
 21
52.950432086
  0
LINE
  5
5CB
100
AcDbEntity
  8
KONSTRUKTIONSELEMENTE
100
AcDbLine
 62
7
  6
CONTINUOUS
 10
137.4602399892
 20
51.5474988031
 11
137.1603633934
 21
51.6026357342
  0
LINE
  5
5CC
100
AcDbEntity
  8
KONSTRUKTIONSELEMENTE
100
AcDbLine
 62
7
  6
CONTINUOUS
 10
136.8448732751
 20
53.4580736344
 11
137.1447493543
 21
53.4029385547
  0
LINE
  5
5CD
100
AcDbEntity
  8
KONSTRUKTIONSELEMENTE
100
AcDbLine
 62
7
  6
CONTINUOUS
 10
135.2426135238
 20
52.877602684
 11
135.6531758628
 21
52.7784655962
  0
LINE
  5
5CE
100
AcDbEntity
  8
KONSTRUKTIONSELEMENTE
100
AcDbLine
 62
7
  6
CONTINUOUS
 10
122.2639672367
 20
59.2626279486
 11
121.8093054278
 21
59.4050465355
  0
LINE
  5
5CF
100
AcDbEntity
  8
KONSTRUKTIONSELEMENTE
100
AcDbLine
 62
7
  6
CONTINUOUS
 10
136.832209138
 20
51.2845628593
 11
137.1642675105
 21
51.1525587326
  0
LINE
  5
5D0
100
AcDbEntity
  8
KONSTRUKTIONSELEMENTE
100
AcDbLine
 62
7
  6
CONTINUOUS
 10
137.4729043463
 20
53.7210096702
 11
137.1408459737
 21
53.853013797
  0
LINE
  5
5D1
100
AcDbEntity
  8
KONSTRUKTIONSELEMENTE
100
AcDbLine
 62
7
  6
CONTINUOUS
 10
128.8618491516
 20
56.5481921902
 11
129.3034789469
 21
56.3137500355
  0
LINE
  5
5D2
100
AcDbEntity
  8
KONSTRUKTIONSELEMENTE
100
AcDbLine
 62
7
  6
CONTINUOUS
 10
130.3339479076
 20
55.7667186391
 11
130.9227887578
 21
55.4541285032
  0
LINE
  5
5D3
100
AcDbEntity
  8
KONSTRUKTIONSELEMENTE
100
AcDbLine
 62
7
  6
CONTINUOUS
 10
131.9532577185
 20
54.9070971069
 11
132.3948875138
 21
54.6726549521
  0
LINE
  5
5D4
100
AcDbEntity
  8
KONSTRUKTIONSELEMENTE
100
AcDbLine
 62
7
  6
CONTINUOUS
 10
121.9038200314
 20
58.8762778881
 11
122.1713822098
 21
58.7300713955
  0
LINE
  5
5D5
100
AcDbEntity
  8
KONSTRUKTIONSELEMENTE
100
AcDbLine
 62
7
  6
CONTINUOUS
 10
137.1603633934
 20
51.6026357342
 11
136.7961232441
 21
51.8115070566
  0
LINE
  5
5D6
100
AcDbEntity
  8
KONSTRUKTIONSELEMENTE
100
AcDbLine
 62
7
  6
CONTINUOUS
 10
135.9028269983
 20
53.0636697188
 11
135.5385861124
 21
53.2725428005
  0
LINE
  5
5D7
100
AcDbEntity
  8
KONSTRUKTIONSELEMENTE
100
AcDbLine
 62
7
  6
CONTINUOUS
 10
137.1447493543
 20
53.4029385547
 11
137.5089902402
 21
53.1940654729
  0
LINE
  5
5D8
100
AcDbEntity
  8
KONSTRUKTIONSELEMENTE
100
AcDbLine
 62
7
  6
CONTINUOUS
 10
137.8693270089
 20
53.4352693928
 11
137.4729043463
 21
53.7210096702
  0
LINE
  5
5D9
100
AcDbEntity
  8
KONSTRUKTIONSELEMENTE
100
AcDbLine
 62
7
  6
CONTINUOUS
 10
136.6893402549
 20
51.4054337764
 11
136.832209138
 21
51.2845628593
  0
LINE
  5
5DA
100
AcDbEntity
  8
KONSTRUKTIONSELEMENTE
100
AcDbLine
 62
7
  6
CONTINUOUS
 10
135.6531758628
 20
52.7784655962
 11
135.9389128922
 21
52.5367255215
  0
LINE
  5
5DB
100
AcDbEntity
  8
KONSTRUKTIONSELEMENTE
100
AcDbLine
 62
7
  6
CONTINUOUS
 10
136.0456951448
 20
52.9428005611
 11
135.9028269983
 21
53.0636697188
  0
LINE
  5
5DC
100
AcDbEntity
  8
KONSTRUKTIONSELEMENTE
100
AcDbLine
 62
7
  6
CONTINUOUS
 10
135.9389128922
 20
52.5367255215
 11
136.1461453287
 21
52.2621202131
  0
LINE
  5
5DD
100
AcDbEntity
  8
KONSTRUKTIONSELEMENTE
100
AcDbLine
 62
7
  6
CONTINUOUS
 10
136.7961232441
 20
51.8115070566
 11
136.588890071
 21
52.0861141243
  0
LINE
  5
5DE
100
AcDbEntity
  8
KONSTRUKTIONSELEMENTE
100
AcDbLine
 62
7
  6
CONTINUOUS
 10
137.5089902402
 20
53.1940654729
 11
137.7162226767
 21
52.9194601646
  0
LINE
  5
5DF
100
AcDbEntity
  8
KONSTRUKTIONSELEMENTE
100
AcDbLine
 62
7
  6
CONTINUOUS
 10
138.1087419587
 20
53.0837951295
 11
137.8693270089
 21
53.4352693928
  0
LINE
  5
5E0
100
AcDbEntity
  8
KONSTRUKTIONSELEMENTE
100
AcDbLine
 62
7
  6
CONTINUOUS
 10
136.1461453287
 20
52.2621202131
 11
136.2748746454
 21
51.9546461525
  0
LINE
  5
5E1
100
AcDbEntity
  8
KONSTRUKTIONSELEMENTE
100
AcDbLine
 62
7
  6
CONTINUOUS
 10
136.588890071
 20
52.0861141243
 11
136.4601607543
 21
52.393588185
  0
LINE
  5
5E2
100
AcDbEntity
  8
KONSTRUKTIONSELEMENTE
100
AcDbLine
 62
7
  6
CONTINUOUS
 10
137.7162226767
 20
52.9194601646
 11
137.8449519933
 21
52.6119861039
  0
LINE
  5
5E3
100
AcDbEntity
  8
KONSTRUKTIONSELEMENTE
100
AcDbLine
 62
7
  6
CONTINUOUS
 10
138.2374712754
 20
52.7763210688
 11
138.1087419587
 21
53.0837951295
  0
LINE
  5
5E4
100
AcDbEntity
  8
KONSTRUKTIONSELEMENTE
100
AcDbLine
 62
7
  6
CONTINUOUS
 10
138.3198785124
 20
52.3591128195
 11
138.2374712754
 21
52.7763210688
  0
LINE
  5
5E5
100
AcDbEntity
  8
KONSTRUKTIONSELEMENTE
100
AcDbLine
 62
7
  6
CONTINUOUS
 10
136.4601607543
 20
52.393588185
 11
136.4099360306
 21
52.7339274793
  0
LINE
  5
5E6
100
AcDbEntity
  8
KONSTRUKTIONSELEMENTE
100
AcDbLine
 62
7
  6
CONTINUOUS
 10
137.8449519933
 20
52.6119861039
 11
137.8951774536
 21
52.2716450503
  0
LINE
  5
5E7
100
AcDbEntity
  8
0
100
AcDbLine
 62
7
  6
CONTINUOUS
 10
144.2300067479
 20
18.598447997
 11
144.0568061291
 21
19.9337000004
  0
LINE
  5
5E8
100
AcDbEntity
  8
KONSTRUKTIONSELEMENTE
100
AcDbLine
 62
7
  6
CONTINUOUS
 10
143.9548727981
 20
22.0788049802
 11
143.963820534
 21
21.8205133237
  0
LINE
  5
5E9
100
AcDbEntity
  8
RUNDUNGEN
100
AcDbLine
 62
7
  6
CONTINUOUS
 10
143.963840604
 20
21.820514019
 11
143.9550014116
 21
22.078808706
  0
LINE
  5
5EA
100
AcDbEntity
  8
0
100
AcDbLine
 62
7
  6
CONTINUOUS
 10
143.7273072443
 20
32.667764905
 11
143.8676891511
 21
25.689652585
  0
LINE
  5
5EB
100
AcDbEntity
  8
KONSTRUKTIONSELEMENTE
100
AcDbLine
 62
7
  6
CONTINUOUS
 10
143.6431211566
 20
38.5297101136
 11
143.644211312
 21
38.412326329
  0
LINE
  5
5EC
100
AcDbEntity
  8
KONSTRUKTIONSELEMENTE
100
AcDbLine
 62
7
  6
CONTINUOUS
 10
143.6428517136
 20
38.619506536
 11
143.6431211566
 21
38.5297101136
  0
LINE
  5
5ED
100
AcDbEntity
  8
0
100
AcDbLine
 62
7
  6
CONTINUOUS
 10
143.6428517018
 20
57.579147214
 11
143.6428517018
 21
38.6262868891
  0
LINE
  5
5EE
100
AcDbEntity
  8
0
100
AcDbLine
 62
7
  6
CONTINUOUS
 10
143.643120793
 20
57.6756634463
 11
143.6428517136
 21
57.5859275687
  0
LINE
  5
5EF
100
AcDbEntity
  8
0
100
AcDbLine
 62
7
  6
CONTINUOUS
 10
143.644211312
 20
57.7931077742
 11
143.643120793
 21
57.6756634463
  0
LINE
  5
5F0
100
AcDbEntity
  8
0
100
AcDbLine
 62
7
  6
CONTINUOUS
 10
143.7273072443
 20
63.5376691982
 11
143.8676891511
 21
70.5157815182
  0
LINE
  5
5F1
100
AcDbEntity
  8
0
100
AcDbLine
 62
7
  6
CONTINUOUS
 10
143.963840604
 20
74.3849200842
 11
143.9550014163
 21
74.12662554
  0
LINE
  5
5F2
100
AcDbEntity
  8
BEZUGSACHSEN
100
AcDbLine
 62
7
  6
CONTINUOUS
 10
135.3031057396
 20
33.1027170516
 11
143.6428517018
 21
47.5475807803
  0
LINE
  5
5F3
100
AcDbEntity
  8
KONSTRUKTIONSELEMENTE
100
AcDbLine
 62
7
  6
CONTINUOUS
 10
134.8266421838
 20
55.7994939412
 11
135.6043472175
 21
55.808810849
  0
LINE
  5
5F4
100
AcDbEntity
  8
KONSTRUKTIONSELEMENTE
100
AcDbLine
 62
7
  6
CONTINUOUS
 10
136.1205809175
 20
56.2527261873
 11
135.3428760646
 21
56.2434094349
  0
LINE
  5
5F5
100
AcDbEntity
  8
0
100
AcDbLine
 62
7
  6
CONTINUOUS
 10
99.3640132805
 20
55.8993833209
 11
99.8897046453
 21
55.8993833209
  0
LINE
  5
5F6
100
AcDbEntity
  8
0
100
AcDbLine
 62
7
  6
CONTINUOUS
 10
100.314142962
 20
58.3993839169
 11
100.8617487551
 21
58.3993839169
  0
LINE
  5
5F7
100
AcDbEntity
  8
0
100
AcDbLine
 62
7
  6
CONTINUOUS
 10
100.7000292947
 20
59.2327170516
 11
101.2570727338
 21
59.2327170516
  0
LINE
  5
5F8
100
AcDbEntity
  8
KONSTRUKTIONSELEMENTE
100
AcDbLine
 62
7
  6
CONTINUOUS
 10
121.6030542057
 20
58.9080945011
 11
121.9038200314
 21
58.8762778881
  0
LINE
  5
5F9
100
AcDbEntity
  8
KONSTRUKTIONSELEMENTE
100
AcDbLine
 62
7
  6
CONTINUOUS
 10
134.2704247519
 20
58.2056933143
 11
133.607980059
 21
58.5573565464
  0
LINE
  5
5FA
100
AcDbEntity
  8
KONSTRUKTIONSELEMENTE
100
AcDbLine
 62
7
  6
CONTINUOUS
 10
131.3998310826
 20
59.7295673203
 11
130.7373863897
 21
60.0812305524
  0
LINE
  5
5FB
100
AcDbEntity
  8
KONSTRUKTIONSELEMENTE
100
AcDbLine
 62
7
  6
CONTINUOUS
 10
136.446581283
 20
55.8736170187
 11
136.1205809175
 21
56.2527261873
  0
LINE
  5
5FC
100
AcDbEntity
  8
BEZUGSACHSEN
100
AcDbLine
 62
7
  6
CONTINUOUS
 10
143.6428517018
 20
48.6578533229
 11
135.3031057396
 21
63.1027170516
  0
LINE
  5
5FD
100
AcDbEntity
  8
RUNDUNGEN
100
AcDbLine
 62
7
  6
CONTINUOUS
 10
145.1428517018
 20
21.4152411332
 11
145.1428517018
 21
16.3055115425
  0
LINE
  5
5FE
100
AcDbEntity
  8
0
100
AcDbLine
 62
7
  6
CONTINUOUS
 10
145.1428517018
 20
21.4152411332
 11
145.1428517018
 21
79.8999225607
  0
LINE
  5
5FF
100
AcDbEntity
  8
0
100
AcDbLine
 62
7
  6
CONTINUOUS
 10
145.5428517018
 20
10.2944562775
 11
145.5428517018
 21
11.3692695052
  0
LINE
  5
600
100
AcDbEntity
  8
0
100
AcDbLine
 62
7
  6
CONTINUOUS
 10
145.5428517018
 20
84.8122284025
 11
145.5428517018
 21
85.1027170516
  0
LINE
  5
601
100
AcDbEntity
  8
0
100
AcDbLine
 62
7
  6
CONTINUOUS
 10
146.0428517018
 20
86.7060491513
 11
146.0428517018
 21
86.1979135016
  0
LINE
  5
602
100
AcDbEntity
  8
KONSTRUKTIONSELEMENTE
100
AcDbLine
 62
7
  6
CONTINUOUS
 10
146.0428517018
 20
9.4993849519
 11
146.0428517018
 21
10.0072836803
  0
LINE
  5
603
100
AcDbEntity
  8
KONSTRUKTIONSELEMENTE
100
AcDbLine
 62
7
  6
CONTINUOUS
 10
121.2690846199
 20
58.8255214446
 11
121.6030542057
 21
58.9080945011
  0
LINE
  5
604
100
AcDbEntity
  8
KONSTRUKTIONSELEMENTE
100
AcDbLine
 62
7
  6
CONTINUOUS
 10
121.8093054278
 20
59.4050465355
 11
121.435105101
 21
59.3974706935
  0
LINE
  5
605
100
AcDbEntity
  8
0
100
AcDbLine
 62
7
  6
CONTINUOUS
 10
102.4994135944
 20
62.3577170516
 11
103.1052039543
 21
62.3577170516
  0
LINE
  5
606
100
AcDbEntity
  8
0
100
AcDbLine
 62
7
  6
CONTINUOUS
 10
102.9345055582
 20
62.9827170516
 11
103.5534116897
 21
62.9827170516
  0
LINE
  5
607
100
AcDbEntity
  8
BEZUGSACHSEN
100
AcDbLine
 62
7
  6
CONTINUOUS
 10
135.3031057396
 20
63.1027170516
 11
117.9825976639
 21
63.1027170516
  0
LINE
  5
608
100
AcDbEntity
  8
0
100
AcDbLine
 62
7
  6
CONTINUOUS
 10
103.5594965928
 20
63.8160504843
 11
104.1982855602
 21
63.8160504843
  0
LINE
  5
609
100
AcDbEntity
  8
0
100
AcDbLine
 62
7
  6
CONTINUOUS
 10
104.0645764804
 20
64.4410504843
 11
104.7204083964
 21
64.4410504843
  0
LINE
  5
60A
100
AcDbEntity
  8
0
100
AcDbLine
 62
7
  6
CONTINUOUS
 10
105.3800848307
 20
65.8993837679
 11
106.0849858352
 21
65.8993837679
  0
LINE
  5
60B
100
AcDbEntity
  8
0
100
AcDbLine
 62
7
  6
CONTINUOUS
 10
106.92474849
 20
67.3577170516
 11
107.6977905542
 21
67.3577170516
  0
LINE
  5
60C
100
AcDbEntity
  8
0
100
AcDbLine
 62
7
  6
CONTINUOUS
 10
107.6730176387
 20
67.9827170516
 11
108.4841710204
 21
67.9827170516
  0
LINE
  5
60D
100
AcDbEntity
  8
0
100
AcDbLine
 62
7
  6
CONTINUOUS
 10
158.2428517018
 20
86.7060491513
 11
158.2428517018
 21
86.1981504229
  0
LINE
  5
60E
100
AcDbEntity
  8
0
100
AcDbLine
 62
7
  6
CONTINUOUS
 10
158.2428517018
 20
9.4993849519
 11
158.2428517018
 21
10.0075206016
  0
LINE
  5
60F
100
AcDbEntity
  8
RUNDUNGEN
100
AcDbLine
 62
7
  6
CONTINUOUS
 10
165.6425573339
 20
73.1027170516
 11
160.3607217186
 21
73.1027170516
  0
LINE
  5
610
100
AcDbEntity
  8
RUNDUNGEN
100
AcDbLine
 62
7
  6
CONTINUOUS
 10
143.9249816849
 20
73.1027170516
 11
123.6428517018
 21
73.1027170516
  0
LINE
  5
611
100
AcDbEntity
  8
0
100
AcDbLine
 62
7
  6
CONTINUOUS
 10
160.3308306054
 20
74.126629123
 11
160.3218828696
 21
74.3849207795
  0
LINE
  5
612
100
AcDbEntity
  8
0
100
AcDbLine
 62
7
  6
CONTINUOUS
 10
160.5583961592
 20
63.5376691982
 11
160.4180142524
 21
70.5157815182
  0
LINE
  5
613
100
AcDbEntity
  8
0
100
AcDbLine
 62
7
  6
CONTINUOUS
 10
160.6425822469
 20
57.6757239896
 11
160.6414920915
 21
57.7931077742
  0
LINE
  5
614
100
AcDbEntity
  8
0
100
AcDbLine
 62
7
  6
CONTINUOUS
 10
160.64285169
 20
57.5859275672
 11
160.6425822469
 21
57.6757239896
  0
LINE
  5
615
100
AcDbEntity
  8
0
100
AcDbLine
 62
7
  6
CONTINUOUS
 10
159.1428517018
 20
16.3055115425
 11
159.1428517018
 21
79.8999225607
  0
LINE
  5
616
100
AcDbEntity
  8
0
100
AcDbLine
 62
7
  6
CONTINUOUS
 10
160.6428517018
 20
38.6262868891
 11
160.6428517018
 21
57.579147214
  0
LINE
  5
617
100
AcDbEntity
  8
0
100
AcDbLine
 62
7
  6
CONTINUOUS
 10
160.6425826105
 20
38.5297706569
 11
160.64285169
 21
38.6195065345
  0
LINE
  5
618
100
AcDbEntity
  8
0
100
AcDbLine
 62
7
  6
CONTINUOUS
 10
160.6414920915
 20
38.412326329
 11
160.6425826105
 21
38.5297706569
  0
LINE
  5
619
100
AcDbEntity
  8
0
100
AcDbLine
 62
7
  6
CONTINUOUS
 10
160.5583961592
 20
32.667764905
 11
160.4180142524
 21
25.689652585
  0
LINE
  5
61A
100
AcDbEntity
  8
0
100
AcDbLine
 62
7
  6
CONTINUOUS
 10
160.3218627995
 20
21.820514019
 11
160.3307019872
 21
22.0788085632
  0
LINE
  5
61B
100
AcDbEntity
  8
0
100
AcDbLine
 62
7
  6
CONTINUOUS
 10
160.0556966557
 20
18.598447997
 11
160.2288972744
 21
19.9337000004
  0
LINE
  5
61C
100
AcDbEntity
  8
0
100
AcDbLine
 62
7
  6
CONTINUOUS
 10
160.0556966557
 20
77.6069861062
 11
160.2288972744
 21
76.2717341028
  0
LINE
  5
61D
100
AcDbEntity
  8
RUNDUNGEN
100
AcDbLine
 62
7
  6
CONTINUOUS
 10
167.6428517018
 20
25.1027170516
 11
167.6428517018
 21
71.1027170516
  0
LINE
  5
61E
100
AcDbEntity
  8
0
100
AcDbLine
 62
7
  6
CONTINUOUS
 10
145.5690628006
 20
84.9750574923
 11
145.5428517018
 21
84.9750574923
  0
LINE
  5
61F
100
AcDbEntity
  8
0
100
AcDbLine
 62
7
  6
CONTINUOUS
 10
145.5916254075
 20
85.1027170516
 11
145.5428517018
 21
85.1027170516
  0
LWPOLYLINE
  5
620
100
AcDbEntity
  8
0
100
AcDbPolyline
 62
7
  6
CONTINUOUS
 90
15
 70
0
 10
151.7658673045
 20
89.1027170873
 10
151.612519792
 20
89.1010548006
 10
151.002245693
 20
89.0613833229
 10
150.4053650737
 20
88.9706850054
 10
149.8269337281
 20
88.8319177132
 10
149.2712449724
 20
88.6485493561
 10
148.7416412432
 20
88.4242944301
 10
148.2407251852
 20
88.1629707374
 10
147.7716937583
 20
87.8692304194
 10
147.3362694326
 20
87.5474837825
 10
146.9373424071
 20
87.2037754176
 10
146.5764820831
 20
86.8442715288
 10
146.2537322204
 20
86.4745997025
 10
145.9682783133
 20
86.10006934
 10
145.8129739803
 20
85.8730598827
  0
LINE
  5
621
100
AcDbEntity
  8
0
100
AcDbLine
 62
7
  6
CONTINUOUS
 10
152.5198454195
 20
89.1027170516
 11
151.765857984
 21
89.1027170516
  0
LWPOLYLINE
  5
622
100
AcDbEntity
  8
0
100
AcDbPolyline
 62
7
  6
CONTINUOUS
 90
15
 70
0
 10
158.4727294731
 20
85.8730598068
 10
158.3121390817
 20
86.1074821344
 10
158.0260117275
 20
86.4819035301
 10
157.7025867675
 20
86.8513579089
 10
157.3410576295
 20
87.2105424101
 10
156.9414756026
 20
87.553835832
 10
156.5054069377
 20
87.8750863681
 10
156.0357296443
 20
88.1682643888
 10
155.5341807599
 20
88.4289500668
 10
155.0039652006
 20
88.6524896696
 10
154.4476956843
 20
88.8350617666
 10
153.8687259506
 20
88.9729497971
 10
153.2713580993
 20
89.0626864003
 10
152.660656986
 20
89.1013153227
 10
152.5198360737
 20
89.1027170873
  0
LINE
  5
623
100
AcDbEntity
  8
0
100
AcDbLine
 62
7
  6
CONTINUOUS
 10
157.2825408298
 20
8.9449492115
 11
158.2428517018
 21
9.4993849519
  0
LINE
  5
624
100
AcDbEntity
  8
0
100
AcDbLine
 62
7
  6
CONTINUOUS
 10
157.2837159691
 20
87.2598064247
 11
158.2428517018
 21
86.7060491513
  0
ARC
  5
625
100
AcDbEntity
  8
0
100
AcDbCircle
 62
7
  6
CONTINUOUS
 10
71.6084978063
 20
173.5259949656
 40
26.5478653378
100
AcDbArc
 50
359.6738907238
 51
359.9977927914
  0
ARC
  5
626
100
AcDbEntity
  8
0
100
AcDbCircle
 62
7
  6
CONTINUOUS
 10
71.8494608591
 20
173.5339571165
 40
26.3522484479
100
AcDbArc
 50
357.9061208275
 51
358.3871146275
  0
ARC
  5
627
100
AcDbEntity
  8
0
100
AcDbCircle
 62
7
  6
CONTINUOUS
 10
72.2093106116
 20
173.5251385751
 40
25.9922930867
100
AcDbArc
 50
358.3842193568
 51
359.999633387
  0
ARC
  5
628
100
AcDbEntity
  8
0
100
AcDbCircle
 62
7
  6
CONTINUOUS
 10
109.9714114119
 20
155.0099040484
 40
11.8285609883
100
AcDbArc
 50
177.8936662459
 51
178.9246838712
  0
ARC
  5
629
100
AcDbEntity
  8
RUNDUNGEN
100
AcDbCircle
 62
7
  6
CONTINUOUS
 10
100.6428517018
 20
179.1199722607
 40
2.0
100
AcDbArc
 50
90.0
 51
180.0
  0
ARC
  5
62A
100
AcDbEntity
  8
RUNDUNGEN
100
AcDbCircle
 62
7
  6
CONTINUOUS
 10
100.6428517018
 20
151.1199722607
 40
2.0
100
AcDbArc
 50
180.0
 51
270.0
  0
ARC
  5
62B
100
AcDbEntity
  8
0
100
AcDbCircle
 62
7
  6
CONTINUOUS
 10
99.2075377246
 20
155.1653422299
 40
1.0646860086
100
AcDbArc
 50
176.418949877
 51
182.1443750488
  0
ARC
  5
62C
100
AcDbEntity
  8
0
100
AcDbCircle
 62
7
  6
CONTINUOUS
 10
78.9430532992
 20
261.1994966515
 40
81.5822746415
100
AcDbArc
 50
356.4456106209
 51
357.0608963397
  0
ARC
  5
62D
100
AcDbEntity
  8
0
100
AcDbCircle
 62
7
  6
CONTINUOUS
 10
112.6859664589
 20
241.4632561695
 40
46.852601932
100
AcDbArc
 50
354.1541988389
 51
356.7436703586
  0
ARC
  5
62E
100
AcDbEntity
  8
0
100
AcDbCircle
 62
7
  6
CONTINUOUS
 10
115.6579500918
 20
241.1433123835
 40
43.8634897725
100
AcDbArc
 50
350.4874929992
 51
354.1745483293
  0
ARC
  5
62F
100
AcDbEntity
  8
0
100
AcDbCircle
 62
7
  6
CONTINUOUS
 10
139.0205204089
 20
223.9856543681
 40
20.1230383136
100
AcDbArc
 50
359.9827769963
 51
0.2997985678
  0
ARC
  5
630
100
AcDbEntity
  8
RUNDUNGEN
100
AcDbCircle
 62
7
  6
CONTINUOUS
 10
126.3156780221
 20
232.1611335369
 40
20.0
100
AcDbArc
 50
0.0
 51
3.0
  0
ARC
  5
631
100
AcDbEntity
  8
RUNDUNGEN
100
AcDbCircle
 62
7
  6
CONTINUOUS
 10
140.1428517018
 20
232.5539223604
 40
5.0
100
AcDbArc
 50
0.0
 51
3.0
  0
ARC
  5
632
100
AcDbEntity
  8
0
100
AcDbCircle
 62
7
  6
CONTINUOUS
 10
140.1428517018
 20
232.5539223604
 40
5.0
100
AcDbArc
 50
0.0
 51
3.0
  0
ARC
  5
633
100
AcDbEntity
  8
RUNDUNGEN
100
AcDbCircle
 62
7
  6
CONTINUOUS
 10
142.3755572647
 20
232.6432667633
 40
3.1165168676
100
AcDbArc
 50
358.773491025
 51
2.8964645385
  0
ARC
  5
634
100
AcDbEntity
  8
0
100
AcDbCircle
 62
7
  6
CONTINUOUS
 10
128.669422276
 20
255.0669019614
 40
31.6030530499
100
AcDbArc
 50
356.9907592695
 51
357.8009584347
  0
ARC
  5
635
100
AcDbEntity
  8
0
100
AcDbCircle
 62
7
  6
CONTINUOUS
 10
130.0894796681
 20
261.9971323236
 40
30.5435261119
100
AcDbArc
 50
358.3057574229
 51
358.7793360986
  0
ARC
  5
636
100
AcDbEntity
  8
0
100
AcDbCircle
 62
7
  6
CONTINUOUS
 10
137.3197617807
 20
261.85600663
 40
23.3118819877
100
AcDbArc
 50
358.7475495132
 51
0.1086673885
  0
ARC
  5
637
100
AcDbEntity
  8
0
100
AcDbCircle
 62
7
  6
CONTINUOUS
 10
139.998089845
 20
261.3307091609
 40
20.6419968176
100
AcDbArc
 50
1.7111921486
 51
2.2973435363
  0
ARC
  5
638
100
AcDbEntity
  8
0
100
AcDbCircle
 62
7
  6
CONTINUOUS
 10
139.1428517018
 20
255.5874297286
 40
20.0
100
AcDbArc
 50
357.0
 51
360.0
  0
ARC
  5
639
100
AcDbEntity
  8
0
100
AcDbCircle
 62
7
  6
CONTINUOUS
 10
144.2248239026
 20
257.0347637682
 40
16.1671093933
100
AcDbArc
 50
354.6636289285
 51
355.742377157
  0
ARC
  5
63A
100
AcDbEntity
  8
0
100
AcDbCircle
 62
7
  6
CONTINUOUS
 10
145.448153902
 20
261.8961014534
 40
1.7940570667
100
AcDbArc
 50
178.3707464891
 51
179.8684680271
  0
ARC
  5
63B
100
AcDbEntity
  8
RUNDUNGEN
100
AcDbCircle
 62
7
  6
CONTINUOUS
 10
151.6428517018
 20
165.1199722607
 40
16.0
100
AcDbArc
 50
270.0
 51
61.9165728033
  0
ARC
  5
63C
100
AcDbEntity
  8
RUNDUNGEN
100
AcDbCircle
 62
7
  6
CONTINUOUS
 10
152.1428517018
 20
165.1199722607
 40
8.5
100
AcDbArc
 50
152.9827504036
 51
27.0173313458
  0
ARC
  5
63D
100
AcDbEntity
  8
KONSTRUKTIONSELEMENTE
100
AcDbCircle
 62
7
  6
CONTINUOUS
 10
152.0428517018
 20
165.0199722607
 40
8.15
100
AcDbArc
 50
180.0
 51
270.0
  0
ARC
  5
63E
100
AcDbEntity
  8
0
100
AcDbCircle
 62
7
  6
CONTINUOUS
 10
152.0428517018
 20
165.0199722607
 40
8.15
100
AcDbArc
 50
180.0
 51
260.4602758537
  0
ARC
  5
63F
100
AcDbEntity
  8
0
100
AcDbCircle
 62
7
  6
CONTINUOUS
 10
152.2428517018
 20
165.0199722607
 40
8.15
100
AcDbArc
 50
270.0
 51
360.0
  0
ARC
  5
640
100
AcDbEntity
  8
0
100
AcDbCircle
 62
7
  6
CONTINUOUS
 10
152.2428517028
 20
165.2199722618
 40
8.1499999988
100
AcDbArc
 50
0.1761709674
 51
1.1176415158
  0
ARC
  5
641
100
AcDbEntity
  8
KONSTRUKTIONSELEMENTE
100
AcDbCircle
 62
7
  6
CONTINUOUS
 10
152.0428517007
 20
165.2199722618
 40
8.1499999988
100
AcDbArc
 50
176.623814312
 51
179.8700018243
  0
ARC
  5
642
100
AcDbEntity
  8
KONSTRUKTIONSELEMENTE
100
AcDbCircle
 62
7
  6
CONTINUOUS
 10
152.0236844722
 20
165.2312849615
 40
8.131424864
100
AcDbArc
 50
159.9656202882
 51
172.2734140877
  0
ARC
  5
643
100
AcDbEntity
  8
0
100
AcDbCircle
 62
7
  6
CONTINUOUS
 10
152.2751804333
 20
165.2340377015
 40
8.1181140224
100
AcDbArc
 50
14.3043596836
 51
19.7574637591
  0
ARC
  5
644
100
AcDbEntity
  8
KONSTRUKTIONSELEMENTE
100
AcDbCircle
 62
7
  6
CONTINUOUS
 10
152.0104261759
 20
165.2338808273
 40
8.1180800495
100
AcDbArc
 50
158.4746780484
 51
159.6988500412
  0
ARC
  5
645
100
AcDbEntity
  8
0
100
AcDbCircle
 62
7
  6
CONTINUOUS
 10
152.2766839914
 20
165.234423789
 40
8.1165721807
100
AcDbArc
 50
20.0490282527
 51
21.5260086903
  0
ARC
  5
646
100
AcDbEntity
  8
0
100
AcDbCircle
 62
7
  6
CONTINUOUS
 10
152.2763725101
 20
165.2363149038
 40
8.1165259216
100
AcDbArc
 50
4.0150900554
 51
7.7050211319
  0
ARC
  5
647
100
AcDbEntity
  8
KONSTRUKTIONSELEMENTE
100
AcDbCircle
 62
7
  6
CONTINUOUS
 10
152.0030460829
 20
165.23706103
 40
8.1101978191
100
AcDbArc
 50
172.2942469067
 51
179.844651945
  0
ARC
  5
648
100
AcDbEntity
  8
KONSTRUKTIONSELEMENTE
100
AcDbCircle
 62
7
  6
CONTINUOUS
 10
152.0013507789
 20
165.2372674898
 40
8.1083933807
100
AcDbArc
 50
159.6990446455
 51
159.9512712068
  0
ARC
  5
649
100
AcDbEntity
  8
0
100
AcDbCircle
 62
7
  6
CONTINUOUS
 10
152.2850318712
 20
165.2375177272
 40
8.1076695093
100
AcDbArc
 50
19.7588065483
 51
20.0487131427
  0
ARC
  5
64A
100
AcDbEntity
  8
0
100
AcDbCircle
 62
7
  6
CONTINUOUS
 10
152.2866384012
 20
165.2368760914
 40
8.1063099982
100
AcDbArc
 50
10.6089131535
 51
14.3049290887
  0
ARC
  5
64B
100
AcDbEntity
  8
0
100
AcDbCircle
 62
7
  6
CONTINUOUS
 10
152.2879551904
 20
165.2378766687
 40
8.1048384255
100
AcDbArc
 50
7.7050583213
 51
8.9847688734
  0
ARC
  5
64C
100
AcDbEntity
  8
0
100
AcDbCircle
 62
7
  6
CONTINUOUS
 10
152.2970861119
 20
165.2375996128
 40
8.0957743735
100
AcDbArc
 50
0.9995042866
 51
4.0159394131
  0
ARC
  5
64D
100
AcDbEntity
  8
0
100
AcDbCircle
 62
7
  6
CONTINUOUS
 10
152.3046601746
 20
165.24051362
 40
8.0879265956
100
AcDbArc
 50
8.9847990051
 51
10.6070892348
  0
ARC
  5
64E
100
AcDbEntity
  8
0
100
AcDbCircle
 62
7
  6
CONTINUOUS
 10
152.3300391798
 20
165.2383796658
 40
8.0628127151
100
AcDbArc
 50
0.2897460234
 51
0.9980467456
  0
ARC
  5
64F
100
AcDbEntity
  8
KONSTRUKTIONSELEMENTE
100
AcDbCircle
 62
7
  6
CONTINUOUS
 10
152.0659896533
 20
164.6029029169
 40
7.7329308585
100
AcDbArc
 50
258.9471583783
 51
269.9868970845
  0
ARC
  5
650
100
AcDbEntity
  8
0
100
AcDbCircle
 62
7
  6
CONTINUOUS
 10
152.2197137502
 20
164.6029029165
 40
7.732930858
100
AcDbArc
 50
270.0131029149
 51
281.0528413762
  0
ARC
  5
651
100
AcDbEntity
  8
0
100
AcDbCircle
 62
7
  6
CONTINUOUS
 10
152.2217591979
 20
164.582664914
 40
7.7126763403
100
AcDbArc
 50
281.0667513215
 51
285.0199347771
  0
ARC
  5
652
100
AcDbEntity
  8
0
100
AcDbCircle
 62
7
  6
CONTINUOUS
 10
152.0639442055
 20
164.5826649136
 40
7.7126763399
100
AcDbArc
 50
254.9800652229
 51
258.9332489249
  0
ARC
  5
653
100
AcDbEntity
  8
RUNDUNGEN
100
AcDbCircle
 62
7
  6
CONTINUOUS
 10
165.2651829977
 20
223.9856543681
 40
20.1230383167
100
AcDbArc
 50
179.7002014322
 51
180.0172230037
  0
ARC
  5
654
100
AcDbEntity
  8
0
100
AcDbCircle
 62
7
  6
CONTINUOUS
 10
177.9700253814
 20
232.1611335369
 40
20.0
100
AcDbArc
 50
177.0
 51
180.0
  0
ARC
  5
655
100
AcDbEntity
  8
0
100
AcDbCircle
 62
7
  6
CONTINUOUS
 10
164.1428517018
 20
232.5539223604
 40
5.0
100
AcDbArc
 50
177.0000000001
 51
180.0
  0
ARC
  5
656
100
AcDbEntity
  8
0
100
AcDbCircle
 62
7
  6
CONTINUOUS
 10
161.9101461388
 20
232.6432667633
 40
3.1165168676
100
AcDbArc
 50
177.1035354615
 51
181.226508975
  0
ARC
  5
657
100
AcDbEntity
  8
RUNDUNGEN
100
AcDbCircle
 62
7
  6
CONTINUOUS
 10
175.6162811275
 20
255.0669019614
 40
31.6030530499
100
AcDbArc
 50
182.1990415653
 51
183.0092407305
  0
ARC
  5
658
100
AcDbEntity
  8
0
100
AcDbCircle
 62
7
  6
CONTINUOUS
 10
174.196223734
 20
261.9971323236
 40
30.5435261105
100
AcDbArc
 50
181.2206639014
 51
181.6942425771
  0
ARC
  5
659
100
AcDbEntity
  8
0
100
AcDbCircle
 62
7
  6
CONTINUOUS
 10
166.9659416229
 20
261.85600663
 40
23.3118819877
100
AcDbArc
 50
179.8913326115
 51
181.2524504868
  0
ARC
  5
65A
100
AcDbEntity
  8
0
100
AcDbCircle
 62
7
  6
CONTINUOUS
 10
164.2876134922
 20
261.3307091631
 40
20.6419967512
100
AcDbArc
 50
177.7026564339
 51
178.288807852
  0
ARC
  5
65B
100
AcDbEntity
  8
RUNDUNGEN
100
AcDbCircle
 62
7
  6
CONTINUOUS
 10
165.1428517018
 20
255.5874297286
 40
20.0
100
AcDbArc
 50
180.0
 51
183.0
  0
ARC
  5
65C
100
AcDbEntity
  8
RUNDUNGEN
100
AcDbCircle
 62
7
  6
CONTINUOUS
 10
160.060879501
 20
257.0347637682
 40
16.1671093933
100
AcDbArc
 50
184.257622843
 51
185.3363710715
  0
ARC
  5
65D
100
AcDbEntity
  8
KONSTRUKTIONSELEMENTE
100
AcDbCircle
 62
7
  6
CONTINUOUS
 10
151.7928517018
 20
261.5199722607
 40
8.15
100
AcDbArc
 50
180.0
 51
183.0
  0
ARC
  5
65E
100
AcDbEntity
  8
0
100
AcDbCircle
 62
7
  6
CONTINUOUS
 10
152.4928517018
 20
261.5199722607
 40
8.15
100
AcDbArc
 50
357.0
 51
360.0
  0
ARC
  5
65F
100
AcDbEntity
  8
0
100
AcDbCircle
 62
7
  6
CONTINUOUS
 10
149.8881466631
 20
262.9921331969
 40
6.0977439403
100
AcDbArc
 50
154.471965495
 51
158.0685145427
  0
ARC
  5
660
100
AcDbEntity
  8
0
100
AcDbCircle
 62
7
  6
CONTINUOUS
 10
154.3975568717
 20
262.9921332553
 40
6.0977437967
100
AcDbArc
 50
21.9314899931
 51
25.5280345412
  0
ARC
  5
661
100
AcDbEntity
  8
0
100
AcDbCircle
 62
7
  6
CONTINUOUS
 10
158.8375495015
 20
261.8961014534
 40
1.7940570667
100
AcDbArc
 50
0.1315319729
 51
1.6292535109
  0
ARC
  5
662
100
AcDbEntity
  8
RUNDUNGEN
100
AcDbCircle
 62
7
  6
CONTINUOUS
 10
191.5997369446
 20
241.4632561695
 40
46.852601932
100
AcDbArc
 50
183.2563296414
 51
185.8458011611
  0
ARC
  5
663
100
AcDbEntity
  8
RUNDUNGEN
100
AcDbCircle
 62
7
  6
CONTINUOUS
 10
188.6277533118
 20
241.1433123835
 40
43.8634897725
100
AcDbArc
 50
185.8254516707
 51
189.5125070008
  0
ARC
  5
664
100
AcDbEntity
  8
0
100
AcDbCircle
 62
7
  6
CONTINUOUS
 10
225.3426501043
 20
261.1994966515
 40
81.5822746415
100
AcDbArc
 50
182.9391036603
 51
183.5543893791
  0
ARC
  5
665
100
AcDbEntity
  8
BEZUGSACHSEN
100
AcDbCircle
 62
7
  6
CONTINUOUS
 10
269.2308003831
 20
179.4313740936
 40
19.5885983391
100
AcDbArc
 50
90.0068769922
 51
93.0818119681
  0
ARC
  5
666
100
AcDbEntity
  8
0
100
AcDbCircle
 62
7
  6
CONTINUOUS
 10
251.7284485786
 20
172.8699722607
 40
16.0
100
AcDbArc
 50
180.0
 51
270.0
  0
ARC
  5
667
100
AcDbEntity
  8
0
100
AcDbCircle
 62
7
  6
CONTINUOUS
 10
257.7284485786
 20
181.3699722607
 40
8.0
100
AcDbArc
 50
180.0
 51
221.408207415
  0
ARC
  5
668
100
AcDbEntity
  8
RUNDUNGEN
100
AcDbCircle
 62
7
  6
CONTINUOUS
 10
253.7284485786
 20
151.1199722607
 40
2.0
100
AcDbArc
 50
180.0
 51
270.0
  0
ARC
  5
669
100
AcDbEntity
  8
RUNDUNGEN
100
AcDbCircle
 62
7
  6
CONTINUOUS
 10
253.7284485786
 20
179.1199722607
 40
2.0
100
AcDbArc
 50
90.0
 51
180.0
  0
ARC
  5
66A
100
AcDbEntity
  8
0
100
AcDbCircle
 62
7
  6
CONTINUOUS
 10
276.6934485786
 20
173.5249722607
 40
1.765
100
AcDbArc
 50
180.0
 51
360.0
  0
ARC
  5
66B
100
AcDbEntity
  8
0
100
AcDbCircle
 62
7
  6
CONTINUOUS
 10
272.7134485786
 20
174.8549722607
 40
1.315
100
AcDbArc
 50
299.4573002513
 51
90.0
  0
ARC
  5
66C
100
AcDbEntity
  8
0
100
AcDbCircle
 62
7
  6
CONTINUOUS
 10
276.6934485786
 20
173.5249722607
 40
0.865
100
AcDbArc
 50
180.0
 51
360.0
  0
ARC
  5
66D
100
AcDbEntity
  8
0
100
AcDbCircle
 62
7
  6
CONTINUOUS
 10
272.5634485786
 20
174.8549722607
 40
0.565
100
AcDbArc
 50
270.0
 51
90.0
  0
ARC
  5
66E
100
AcDbEntity
  8
0
100
AcDbCircle
 62
7
  6
CONTINUOUS
 10
271.8607393248
 20
173.0299722607
 40
0.53
100
AcDbArc
 50
30.0
 51
90.0
  0
ARC
  5
66F
100
AcDbEntity
  8
RUNDUNGEN
100
AcDbCircle
 62
7
  6
CONTINUOUS
 10
-2002.2076239203
 20
205.5006611012
 40
2317.042342067
100
AcDbArc
 50
0.6851592421
 51
0.8757145925
  0
ARC
  5
670
100
AcDbEntity
  8
0
100
AcDbCircle
 62
7
  6
CONTINUOUS
 10
275.970497583
 20
212.8199656408
 40
54.117508821
100
AcDbArc
 50
89.1975090138
 51
100.2230690193
  0
ARC
  5
671
100
AcDbEntity
  8
0
100
AcDbCircle
 62
7
  6
CONTINUOUS
 10
276.0991836332
 20
215.816447022
 40
51.196134322
100
AcDbArc
 50
101.048693808
 51
120.5964352582
  0
ARC
  5
672
100
AcDbEntity
  8
0
100
AcDbCircle
 62
7
  6
CONTINUOUS
 10
260.7284485786
 20
241.1586625803
 40
25.0
100
AcDbArc
 50
119.4923726751
 51
180.0
  0
ARC
  5
673
100
AcDbEntity
  8
0
100
AcDbCircle
 62
7
  6
CONTINUOUS
 10
260.4413327023
 20
240.560313348
 40
21.5515622935
100
AcDbArc
 50
139.5570558748
 51
179.0617974798
  0
ARC
  5
674
100
AcDbEntity
  8
0
100
AcDbCircle
 62
7
  6
CONTINUOUS
 10
260.4064938977
 20
242.3730319428
 40
20.3495380055
100
AcDbArc
 50
120.6221270071
 51
139.5058128794
  0
ARC
  5
675
100
AcDbEntity
  8
0
100
AcDbCircle
 62
7
  6
CONTINUOUS
 10
252.1858541702
 20
232.161401487
 40
13.4057145272
100
AcDbArc
 50
178.0855937392
 51
180.0011452139
  0
ARC
  5
676
100
AcDbEntity
  8
0
100
AcDbCircle
 62
7
  6
CONTINUOUS
 10
252.1827765651
 20
233.0364027896
 40
13.3960275391
100
AcDbArc
 50
179.2666764645
 51
181.0497474085
  0
ARC
  5
677
100
AcDbEntity
  8
0
100
AcDbCircle
 62
7
  6
CONTINUOUS
 10
257.7284485786
 20
239.3514473871
 40
8.0
100
AcDbArc
 50
125.1527029668
 51
180.0
  0
ARC
  5
678
100
AcDbEntity
  8
0
100
AcDbCircle
 62
7
  6
CONTINUOUS
 10
235.2776902664
 20
232.7266767659
 40
3.5118958396
100
AcDbArc
 50
358.0838057102
 51
1.0491602173
  0
ARC
  5
679
100
AcDbEntity
  8
0
100
AcDbCircle
 62
7
  6
CONTINUOUS
 10
240.209218648
 20
225.538175646
 40
3.0
100
AcDbArc
 50
320.4773911366
 51
25.0
  0
ARC
  5
67A
100
AcDbEntity
  8
0
100
AcDbCircle
 62
7
  6
CONTINUOUS
 10
251.5213493946
 20
252.7304384755
 40
3.0
100
AcDbArc
 50
111.0
 51
158.0
  0
ARC
  5
67B
100
AcDbEntity
  8
0
100
AcDbCircle
 62
7
  6
CONTINUOUS
 10
243.4570048168
 20
232.7704852295
 40
3.0
100
AcDbArc
 50
158.0
 51
205.0
  0
ARC
  5
67C
100
AcDbEntity
  8
KONSTRUKTIONSELEMENTE
100
AcDbCircle
 62
7
  6
CONTINUOUS
 10
301.7284485786
 20
172.8699722607
 40
16.0
100
AcDbArc
 50
270.0
 51
360.0
  0
ARC
  5
67D
100
AcDbEntity
  8
0
100
AcDbCircle
 62
7
  6
CONTINUOUS
 10
301.7284485786
 20
172.8699722607
 40
16.0
100
AcDbArc
 50
270.0
 51
360.0
  0
ARC
  5
67E
100
AcDbEntity
  8
KONSTRUKTIONSELEMENTE
100
AcDbCircle
 62
7
  6
CONTINUOUS
 10
295.7284485786
 20
181.3699722607
 40
8.0
100
AcDbArc
 50
318.591792585
 51
360.0
  0
ARC
  5
67F
100
AcDbEntity
  8
RUNDUNGEN
100
AcDbCircle
 62
7
  6
CONTINUOUS
 10
299.7284485786
 20
151.1199722607
 40
2.0
100
AcDbArc
 50
270.0
 51
360.0
  0
ARC
  5
680
100
AcDbEntity
  8
RUNDUNGEN
100
AcDbCircle
 62
7
  6
CONTINUOUS
 10
299.7284485786
 20
179.1199722607
 40
2.0
100
AcDbArc
 50
0.0
 51
90.0
  0
ARC
  5
681
100
AcDbEntity
  8
0
100
AcDbCircle
 62
7
  6
CONTINUOUS
 10
281.1584485786
 20
173.4099722607
 40
0.9
100
AcDbArc
 50
270.0
 51
360.0
  0
ARC
  5
682
100
AcDbEntity
  8
0
100
AcDbCircle
 62
7
  6
CONTINUOUS
 10
281.1584485786
 20
174.5199722607
 40
0.9
100
AcDbArc
 50
0.0
 51
90.0
  0
ARC
  5
683
100
AcDbEntity
  8
0
100
AcDbCircle
 62
7
  6
CONTINUOUS
 10
2555.6645210774
 20
205.5006611012
 40
2317.042342067
100
AcDbArc
 50
179.1242854075
 51
179.3148407579
  0
ARC
  5
684
100
AcDbEntity
  8
KONSTRUKTIONSELEMENTE
100
AcDbCircle
 62
7
  6
CONTINUOUS
 10
276.7284485786
 20
212.8699722607
 40
57.5
100
AcDbArc
 50
60.5076273249
 51
78.8840634424
  0
ARC
  5
685
100
AcDbEntity
  8
0
100
AcDbCircle
 62
7
  6
CONTINUOUS
 10
276.7284485786
 20
212.8699722607
 40
57.5
100
AcDbArc
 50
60.5076273249
 51
119.4923726751
  0
ARC
  5
686
100
AcDbEntity
  8
0
100
AcDbCircle
 62
7
  6
CONTINUOUS
 10
277.4863995741
 20
212.8199656408
 40
54.117508821
100
AcDbArc
 50
79.7769309807
 51
90.8024909862
  0
ARC
  5
687
100
AcDbEntity
  8
0
100
AcDbCircle
 62
7
  6
CONTINUOUS
 10
277.3577135239
 20
215.816447022
 40
51.196134322
100
AcDbArc
 50
59.4035647418
 51
78.951306192
  0
ARC
  5
688
100
AcDbEntity
  8
0
100
AcDbCircle
 62
7
  6
CONTINUOUS
 10
276.7284485786
 20
212.3699722607
 40
41.0
100
AcDbArc
 50
54.8472970332
 51
125.1527029668
  0
ARC
  5
689
100
AcDbEntity
  8
KONSTRUKTIONSELEMENTE
100
AcDbCircle
 62
7
  6
CONTINUOUS
 10
292.7284485786
 20
241.1586625803
 40
25.0
100
AcDbArc
 50
0.0
 51
60.5076273249
  0
ARC
  5
68A
100
AcDbEntity
  8
RUNDUNGEN
100
AcDbCircle
 62
7
  6
CONTINUOUS
 10
293.0155643508
 20
240.5603133078
 40
21.5515622935
100
AcDbArc
 50
0.9382026227
 51
40.4429440272
  0
ARC
  5
68B
100
AcDbEntity
  8
RUNDUNGEN
100
AcDbCircle
 62
7
  6
CONTINUOUS
 10
293.0504032595
 20
242.3730319428
 40
20.3495380055
100
AcDbArc
 50
40.4941871206
 51
59.3778729929
  0
ARC
  5
68C
100
AcDbEntity
  8
RUNDUNGEN
100
AcDbCircle
 62
7
  6
CONTINUOUS
 10
301.2710429869
 20
232.161401487
 40
13.4057145272
100
AcDbArc
 50
359.9988547861
 51
1.9144062608
  0
ARC
  5
68D
100
AcDbEntity
  8
RUNDUNGEN
100
AcDbCircle
 62
7
  6
CONTINUOUS
 10
301.274120592
 20
233.0364027896
 40
13.3960275391
100
AcDbArc
 50
358.9502525915
 51
0.7333235355
  0
ARC
  5
68E
100
AcDbEntity
  8
KONSTRUKTIONSELEMENTE
100
AcDbCircle
 62
7
  6
CONTINUOUS
 10
295.7284485786
 20
239.3514473871
 40
8.0
100
AcDbArc
 50
0.0
 51
54.8472970332
  0
ARC
  5
68F
100
AcDbEntity
  8
RUNDUNGEN
100
AcDbCircle
 62
7
  6
CONTINUOUS
 10
318.1792068907
 20
232.7266767659
 40
3.5118958396
100
AcDbArc
 50
178.9508397827
 51
181.9161942898
  0
ARC
  5
690
100
AcDbEntity
  8
0
100
AcDbCircle
 62
7
  6
CONTINUOUS
 10
311.0370249944
 20
214.5400123327
 40
3.5
100
AcDbArc
 50
174.2608295227
 51
358.8522914773
  0
ARC
  5
691
100
AcDbEntity
  8
0
100
AcDbCircle
 62
7
  6
CONTINUOUS
 10
311.0370249944
 20
208.5900123327
 40
3.5
100
AcDbArc
 50
174.2608295227
 51
358.8522914773
  0
ARC
  5
692
100
AcDbEntity
  8
RUNDUNGEN
100
AcDbCircle
 62
7
  6
CONTINUOUS
 10
301.9355477625
 20
252.7304384755
 40
3.0
100
AcDbArc
 50
22.0
 51
69.0
  0
ARC
  5
693
100
AcDbEntity
  8
RUNDUNGEN
100
AcDbCircle
 62
7
  6
CONTINUOUS
 10
309.9998923403
 20
232.7704852295
 40
3.0
100
AcDbArc
 50
335.0
 51
22.0
  0
ARC
  5
694
100
AcDbEntity
  8
RUNDUNGEN
100
AcDbCircle
 62
7
  6
CONTINUOUS
 10
313.2476785092
 20
225.538175646
 40
3.0
100
AcDbArc
 50
155.0
 51
219.5226088634
  0
ARC
  5
695
100
AcDbEntity
  8
0
100
AcDbCircle
 62
7
  6
CONTINUOUS
 10
311.0370249944
 20
214.5400123327
 40
2.45
100
AcDbArc
 50
282.4933635761
 51
8.2132107017
  0
ARC
  5
696
100
AcDbEntity
  8
0
100
AcDbCircle
 62
7
  6
CONTINUOUS
 10
311.0370249944
 20
214.5400123327
 40
2.45
100
AcDbArc
 50
171.7867892983
 51
257.5644794009
  0
ARC
  5
697
100
AcDbEntity
  8
0
100
AcDbCircle
 62
7
  6
CONTINUOUS
 10
311.0370249944
 20
208.5900123327
 40
2.45
100
AcDbArc
 50
171.7867892983
 51
8.2132107017
  0
ARC
  5
698
100
AcDbEntity
  8
0
100
AcDbCircle
 62
7
  6
CONTINUOUS
 10
-390.7946905475
 20
36.5527387592
 40
551.3197371527
100
AcDbArc
 50
358.634121262
 51
358.8709831532
  0
ARC
  5
699
100
AcDbEntity
  8
0
100
AcDbCircle
 62
7
  6
CONTINUOUS
 10
-261.02219398
 20
41.5869101877
 40
421.6749282738
100
AcDbArc
 50
358.7880059726
 51
359.2721826244
  0
ARC
  5
69A
100
AcDbEntity
  8
0
100
AcDbCircle
 62
7
  6
CONTINUOUS
 10
-11.8307904439
 20
38.3402136308
 40
172.4624074049
100
AcDbArc
 50
359.2991220967
 51
0.0239922312
  0
ARC
  5
69B
100
AcDbEntity
  8
0
100
AcDbCircle
 62
7
  6
CONTINUOUS
 10
14.4365405465
 20
26.8592003545
 40
145.9725876293
100
AcDbArc
 50
358.1233087947
 51
358.6464299501
  0
ARC
  5
69C
100
AcDbEntity
  8
0
100
AcDbCircle
 62
7
  6
CONTINUOUS
 10
144.615536296
 20
16.3055864716
 40
14.5273154059
100
AcDbArc
 50
356.4798411071
 51
359.9997044794
  0
ARC
  5
69D
100
AcDbEntity
  8
0
100
AcDbCircle
 62
7
  6
CONTINUOUS
 10
148.4613528262
 20
38.4017195281
 40
12.1702537284
100
AcDbArc
 50
0.0504286593
 51
0.6255189213
  0
ARC
  5
69E
100
AcDbEntity
  8
0
100
AcDbCircle
 62
7
  6
CONTINUOUS
 10
151.4061732984
 20
15.1791617199
 40
8.1378989521
100
AcDbArc
 50
337.3841099127
 51
352.1180178149
  0
ARC
  5
69F
100
AcDbEntity
  8
RUNDUNGEN
100
AcDbCircle
 62
7
  6
CONTINUOUS
 10
149.2544496968
 20
20.6101366747
 40
5.2414754823
100
AcDbArc
 50
185.4307880856
 51
187.4149663742
  0
ARC
  5
6A0
100
AcDbEntity
  8
0
100
AcDbCircle
 62
7
  6
CONTINUOUS
 10
-390.7946905476
 20
59.652695344
 40
551.3197371528
100
AcDbArc
 50
1.1290168468
 51
1.365878738
  0
ARC
  5
6A1
100
AcDbEntity
  8
0
100
AcDbCircle
 62
7
  6
CONTINUOUS
 10
-261.02219398
 20
54.6185239155
 40
421.6749282738
100
AcDbArc
 50
0.7278173756
 51
1.2119940274
  0
ARC
  5
6A2
100
AcDbEntity
  8
0
100
AcDbCircle
 62
7
  6
CONTINUOUS
 10
-11.8307904439
 20
57.8652204724
 40
172.4624074049
100
AcDbArc
 50
359.9760077688
 51
0.7008779033
  0
ARC
  5
6A3
100
AcDbEntity
  8
0
100
AcDbCircle
 62
7
  6
CONTINUOUS
 10
123.6428517018
 20
48.1027170516
 40
25.5
100
AcDbArc
 50
217.2429528504
 51
229.1425854375
  0
ARC
  5
6A4
100
AcDbEntity
  8
0
100
AcDbCircle
 62
7
  6
CONTINUOUS
 10
123.6428517018
 20
48.1027170516
 40
25.5
100
AcDbArc
 50
205.1796281124
 51
214.9258870284
  0
ARC
  5
6A5
100
AcDbEntity
  8
0
100
AcDbCircle
 62
7
  6
CONTINUOUS
 10
123.6428517018
 20
48.1027170516
 40
25.5
100
AcDbArc
 50
194.2243238179
 51
203.1274496961
  0
ARC
  5
6A6
100
AcDbEntity
  8
0
100
AcDbCircle
 62
7
  6
CONTINUOUS
 10
123.6428517018
 20
48.1027170516
 40
25.5
100
AcDbArc
 50
144.3008325046
 51
154.1210933357
  0
ARC
  5
6A7
100
AcDbEntity
  8
0
100
AcDbCircle
 62
7
  6
CONTINUOUS
 10
123.6428517018
 20
48.1027170516
 40
25.5
100
AcDbArc
 50
128.775316099
 51
141.960167782
  0
ARC
  5
6A8
100
AcDbEntity
  8
0
100
AcDbCircle
 62
7
  6
CONTINUOUS
 10
123.6428517018
 20
48.1027170516
 40
25.5
100
AcDbArc
 50
156.184621783
 51
194.1415671203
  0
ARC
  5
6A9
100
AcDbEntity
  8
RUNDUNGEN
100
AcDbCircle
 62
7
  6
CONTINUOUS
 10
123.6428517018
 20
48.1027170516
 40
25.0
100
AcDbArc
 50
90.0
 51
270.0
  0
ARC
  5
6AA
100
AcDbEntity
  8
0
100
AcDbCircle
 62
7
  6
CONTINUOUS
 10
126.6428517018
 20
48.1027170516
 40
22.5
100
AcDbArc
 50
40.5985649567
 51
319.4014350433
  0
CIRCLE
  5
6AB
100
AcDbEntity
  8
BEZUGSACHSEN
100
AcDbCircle
 62
7
  6
CONTINUOUS
 10
126.6428517018
 20
48.1027170516
 40
15.0
  0
ARC
  5
6AC
100
AcDbEntity
  8
0
100
AcDbCircle
 62
7
  6
CONTINUOUS
 10
148.4613528262
 20
57.8037145751
 40
12.1702537284
100
AcDbArc
 50
359.3744810787
 51
359.9495713407
  0
ARC
  5
6AD
100
AcDbEntity
  8
0
100
AcDbCircle
 62
7
  6
CONTINUOUS
 10
14.4365336453
 20
69.3462335638
 40
145.972594533
100
AcDbArc
 50
1.3535700585
 51
1.8766911331
  0
ARC
  5
6AE
100
AcDbEntity
  8
0
100
AcDbCircle
 62
7
  6
CONTINUOUS
 10
144.615536296
 20
79.8998476316
 40
14.5273154059
100
AcDbArc
 50
0.0002955206
 51
3.5201588929
  0
ARC
  5
6AF
100
AcDbEntity
  8
0
100
AcDbCircle
 62
7
  6
CONTINUOUS
 10
151.4061732984
 20
81.0262723833
 40
8.1378989521
100
AcDbArc
 50
7.8819821851
 51
22.6158900873
  0
ARC
  5
6B0
100
AcDbEntity
  8
0
100
AcDbCircle
 62
7
  6
CONTINUOUS
 10
149.2544496968
 20
75.5952974285
 40
5.2414754823
100
AcDbArc
 50
172.5850336258
 51
174.5692119144
  0
ARC
  5
6B1
100
AcDbEntity
  8
0
100
AcDbCircle
 62
7
  6
CONTINUOUS
 10
695.080393951
 20
36.5527387592
 40
551.3197371527
100
AcDbArc
 50
181.1290168468
 51
181.365878738
  0
ARC
  5
6B2
100
AcDbEntity
  8
0
100
AcDbCircle
 62
7
  6
CONTINUOUS
 10
565.3078973835
 20
41.5869101877
 40
421.6749282738
100
AcDbArc
 50
180.7278173756
 51
181.2119940274
  0
ARC
  5
6B3
100
AcDbEntity
  8
0
100
AcDbCircle
 62
7
  6
CONTINUOUS
 10
316.1164938474
 20
38.3402136308
 40
172.4624074049
100
AcDbArc
 50
179.9760077688
 51
180.7008779033
  0
ARC
  5
6B4
100
AcDbEntity
  8
RUNDUNGEN
100
AcDbCircle
 62
7
  6
CONTINUOUS
 10
289.849169756
 20
26.8592005393
 40
145.9725945308
100
AcDbArc
 50
181.3535700584
 51
181.8766911331
  0
ARC
  5
6B5
100
AcDbEntity
  8
RUNDUNGEN
100
AcDbCircle
 62
7
  6
CONTINUOUS
 10
159.6701671075
 20
16.3055864716
 40
14.5273154059
100
AcDbArc
 50
180.0002955206
 51
183.5201588929
  0
ARC
  5
6B6
100
AcDbEntity
  8
0
100
AcDbCircle
 62
7
  6
CONTINUOUS
 10
155.8243505773
 20
38.4017195281
 40
12.1702537284
100
AcDbArc
 50
179.3744810787
 51
179.9495713407
  0
ARC
  5
6B7
100
AcDbEntity
  8
RUNDUNGEN
100
AcDbCircle
 62
7
  6
CONTINUOUS
 10
152.8795301052
 20
15.1791617199
 40
8.1378989521
100
AcDbArc
 50
187.8819821851
 51
202.6158900873
  0
ARC
  5
6B8
100
AcDbEntity
  8
0
100
AcDbCircle
 62
7
  6
CONTINUOUS
 10
155.0312537067
 20
20.6101366747
 40
5.2414754823
100
AcDbArc
 50
352.5850336258
 51
354.5692119144
  0
ARC
  5
6B9
100
AcDbEntity
  8
RUNDUNGEN
100
AcDbCircle
 62
7
  6
CONTINUOUS
 10
165.6428517018
 20
25.1027170516
 40
2.0
100
AcDbArc
 50
269.9999846661
 51
360.0
  0
ARC
  5
6BA
100
AcDbEntity
  8
0
100
AcDbCircle
 62
7
  6
CONTINUOUS
 10
695.0803939511
 20
59.652695344
 40
551.3197371528
100
AcDbArc
 50
178.634121262
 51
178.8709831532
  0
ARC
  5
6BB
100
AcDbEntity
  8
0
100
AcDbCircle
 62
7
  6
CONTINUOUS
 10
565.3078973835
 20
54.6185239155
 40
421.6749282738
100
AcDbArc
 50
178.7880059726
 51
179.2721826244
  0
ARC
  5
6BC
100
AcDbEntity
  8
0
100
AcDbCircle
 62
7
  6
CONTINUOUS
 10
316.1164938474
 20
57.8652204724
 40
172.4624074049
100
AcDbArc
 50
179.2991220967
 51
180.0239922312
  0
ARC
  5
6BD
100
AcDbEntity
  8
0
100
AcDbCircle
 62
7
  6
CONTINUOUS
 10
289.8491628592
 20
69.3462337486
 40
145.9725876316
100
AcDbArc
 50
178.1233087947
 51
178.6464299501
  0
ARC
  5
6BE
100
AcDbEntity
  8
0
100
AcDbCircle
 62
7
  6
CONTINUOUS
 10
159.6701671075
 20
79.8998476316
 40
14.5273154059
100
AcDbArc
 50
176.4798411071
 51
179.9997044794
  0
ARC
  5
6BF
100
AcDbEntity
  8
0
100
AcDbCircle
 62
7
  6
CONTINUOUS
 10
155.8243505773
 20
57.8037145751
 40
12.1702537284
100
AcDbArc
 50
180.0504286593
 51
180.6255189213
  0
ARC
  5
6C0
100
AcDbEntity
  8
0
100
AcDbCircle
 62
7
  6
CONTINUOUS
 10
152.8795301052
 20
81.0262723833
 40
8.1378989521
100
AcDbArc
 50
157.3841099127
 51
172.1180178149
  0
ARC
  5
6C1
100
AcDbEntity
  8
0
100
AcDbCircle
 62
7
  6
CONTINUOUS
 10
155.0312537067
 20
75.5952974285
 40
5.2414754823
100
AcDbArc
 50
5.4307880856
 51
7.4149663742
  0
ARC
  5
6C2
100
AcDbEntity
  8
RUNDUNGEN
100
AcDbCircle
 62
7
  6
CONTINUOUS
 10
165.6428517018
 20
71.1027170516
 40
2.0
100
AcDbArc
 50
0.0
 51
90.0000153285
  0
LINE
  5
6C3
100
AcDbEntity
  8
0
100
AcDbLine
 62
7
  6
CONTINUOUS
 10
144.8224795175
 20
238.801853414
 11
144.8185128428
 21
238.8778059123
  0
SPLINE
  5
6C4
100
AcDbEntity
  8
0
100
AcDbSpline
 62
7
  6
CONTINUOUS
 70
0
 71
3
 72
13
 73
9
 74
0
 42
0.0000001
 43
0.0000001
 44
0.0000000001
 40
0.0
 40
0.0
 40
0.0
 40
0.0
 40
0.2499551887
 40
0.3749346825
 40
0.4999239344
 40
0.624932946
 40
0.7499619324
 40
1.0
 40
1.0
 40
1.0
 40
1.0
 10
144.8185128428
 20
238.8778059123
 30
0.0
 10
144.7726355501
 20
239.8134483577
 30
0.0
 10
144.751802817
 20
241.2188215117
 30
0.0
 10
144.7058026645
 20
243.0918073689
 30
0.0
 10
144.6457254568
 20
244.4959630256
 30
0.0
 10
144.5544366634
 20
245.8986146813
 30
0.0
 10
144.4017382238
 20
247.7664751688
 30
0.0
 10
144.2790494438
 20
249.1671809233
 30
0.0
 10
144.2300066163
 20
250.1029738196
 30
0.0
  0
LINE
  5
6C5
100
AcDbEntity
  8
KONSTRUKTIONSELEMENTE
100
AcDbLine
 62
7
  6
CONTINUOUS
 10
144.8224811856
 20
238.801853501
 11
144.9331988639
 21
236.6852664252
  0
LINE
  5
6C6
100
AcDbEntity
  8
KONSTRUKTIONSELEMENTE
100
AcDbLine
 62
7
  6
CONTINUOUS
 10
143.8928780742
 20
165.2590504666
 11
143.8928517202
 21
165.2384528791
  0
SPLINE
  5
6C7
100
AcDbEntity
  8
0
100
AcDbSpline
 62
7
  6
CONTINUOUS
 70
0
 71
3
 72
10
 73
6
 74
0
 42
0.0000001
 43
0.0000001
 44
0.0000000001
 40
0.0
 40
0.0
 40
0.0
 40
0.0
 40
0.4959978241
 40
0.7540583537
 40
1.0
 40
1.0
 40
1.0
 40
1.0
 10
159.1432832512
 20
224.0909471242
 30
0.0
 10
159.1410500448
 20
224.5398472334
 30
0.0
 10
159.1294611161
 20
225.2222618445
 30
0.0
 10
159.134385914
 20
226.1273362864
 30
0.0
 10
159.1406316644
 20
226.5834445921
 30
0.0
 10
159.1421314627
 20
226.8060304312
 30
0.0
  0
SPLINE
  5
6C8
100
AcDbEntity
  8
0
100
AcDbSpline
 62
7
  6
CONTINUOUS
 70
0
 71
3
 72
15
 73
11
 74
0
 42
0.0000001
 43
0.0000001
 44
0.0000000001
 40
0.0
 40
0.0
 40
0.0
 40
0.0
 40
0.1252702935
 40
0.2504943658
 40
0.3756392733
 40
0.5006894384
 40
0.6256390815
 40
0.750493751
 40
0.875272748
 40
1.0
 40
1.0
 40
1.0
 40
1.0
 10
153.7022266017
 20
157.013411807
 30
0.0
 10
154.1368228616
 20
157.0984042714
 30
0.0
 10
154.9929996817
 20
157.3439618478
 30
0.0
 10
156.193225287
 20
157.9266236344
 30
0.0
 10
157.2751951491
 20
158.7066106525
 30
0.0
 10
158.2060041396
 20
159.6604655154
 30
0.0
 10
158.9578866195
 20
160.7596601729
 30
0.0
 10
159.5082771722
 20
161.9714210126
 30
0.0
 10
159.8406556221
 20
163.258943721
 30
0.0
 10
159.9102553022
 20
164.1434839661
 30
0.0
 10
159.9065320015
 20
164.5843777175
 30
0.0
  0
LINE
  5
6C9
100
AcDbEntity
  8
0
100
AcDbLine
 62
7
  6
CONTINUOUS
 10
159.463223886
 20
238.801853414
 11
159.4671905607
 21
238.8778059123
  0
SPLINE
  5
6CA
100
AcDbEntity
  8
0
100
AcDbSpline
 62
7
  6
CONTINUOUS
 70
0
 71
3
 72
13
 73
9
 74
0
 42
0.0000001
 43
0.0000001
 44
0.0000000001
 40
0.0
 40
0.0
 40
0.0
 40
0.0
 40
0.2499551887
 40
0.3749346825
 40
0.4999239344
 40
0.624932946
 40
0.7499619324
 40
1.0
 40
1.0
 40
1.0
 40
1.0
 10
159.4671905607
 20
238.8778059123
 30
0.0
 10
159.5130678534
 20
239.8134483577
 30
0.0
 10
159.5339005865
 20
241.2188215117
 30
0.0
 10
159.5799007391
 20
243.0918073689
 30
0.0
 10
159.6399779467
 20
244.4959630256
 30
0.0
 10
159.7312667401
 20
245.8986146813
 30
0.0
 10
159.8839651797
 20
247.7664751688
 30
0.0
 10
160.0066539597
 20
249.1671809233
 30
0.0
 10
160.0556967873
 20
250.1029738196
 30
0.0
  0
SPLINE
  5
6CB
100
AcDbEntity
  8
RUNDUNGEN
100
AcDbSpline
 62
7
  6
CONTINUOUS
 70
0
 71
3
 72
10
 73
6
 74
0
 42
0.0000001
 43
0.0000001
 44
0.0000000001
 40
0.0
 40
0.0
 40
0.0
 40
0.0
 40
0.4959978241
 40
0.7540583537
 40
1.0
 40
1.0
 40
1.0
 40
1.0
 10
145.1424201523
 20
224.0909471242
 30
0.0
 10
145.1446533587
 20
224.5398472334
 30
0.0
 10
145.1562422874
 20
225.2222618445
 30
0.0
 10
145.1513174896
 20
226.1273362864
 30
0.0
 10
145.1450717391
 20
226.5834445921
 30
0.0
 10
145.1435719408
 20
226.8060304312
 30
0.0
  0
SPLINE
  5
6CC
100
AcDbEntity
  8
KONSTRUKTIONSELEMENTE
100
AcDbSpline
 62
7
  6
CONTINUOUS
 70
0
 71
3
 72
15
 73
11
 74
0
 42
0.0000001
 43
0.0000001
 44
0.0000000001
 40
0.0
 40
0.0
 40
0.0
 40
0.0
 40
0.1252702935
 40
0.2504943658
 40
0.3756392733
 40
0.5006894384
 40
0.6256390815
 40
0.750493751
 40
0.875272748
 40
1.0
 40
1.0
 40
1.0
 40
1.0
 10
150.5834767692
 20
157.0134118134
 30
0.0
 10
150.1488805111
 20
157.0984042793
 30
0.0
 10
149.2927036946
 20
157.3439618584
 30
0.0
 10
148.0924780952
 20
157.9266236474
 30
0.0
 10
147.0105082389
 20
158.7066106663
 30
0.0
 10
146.0796992535
 20
159.6604655284
 30
0.0
 10
145.3278167781
 20
160.7596601839
 30
0.0
 10
144.7774262288
 20
161.9714210205
 30
0.0
 10
144.445047781
 20
163.2589437252
 30
0.0
 10
144.3754481013
 20
164.1434839675
 30
0.0
 10
144.379171402
 20
164.5843777175
 30
0.0
  0
LINE
  5
6CD
100
AcDbEntity
  8
0
100
AcDbLine
 62
7
  6
CONTINUOUS
 10
160.392748798
 20
165.2791533141
 11
160.3928252584
 21
165.2590781451
  0
LINE
  5
6CE
100
AcDbEntity
  8
0
100
AcDbLine
 62
7
  6
CONTINUOUS
 10
160.3928252584
 20
165.2590781451
 11
160.3928490012
 21
165.2450234864
  0
LINE
  5
6CF
100
AcDbEntity
  8
0
100
AcDbLine
 62
7
  6
CONTINUOUS
 10
144.8224811856
 20
238.801853501
 11
144.9331988639
 21
236.6852664252
  0
LINE
  5
6D0
100
AcDbEntity
  8
0
100
AcDbLine
 62
7
  6
CONTINUOUS
 10
159.4632222179
 20
238.801853501
 11
159.3525045397
 21
236.6852664252
  0
SPLINE
  5
6D1
100
AcDbEntity
  8
0
100
AcDbSpline
 62
7
  6
CONTINUOUS
 70
0
 71
3
 72
9
 73
5
 74
0
 42
0.0000001
 43
0.0000001
 44
0.0000000001
 40
0.0
 40
0.0
 40
0.0
 40
0.0
 40
0.2442287407
 40
1.0
 40
1.0
 40
1.0
 40
1.0
 10
159.1413485934
 20
223.7591703935
 30
0.0
 10
159.1417460218
 20
223.7771126329
 30
0.0
 10
159.1431024074
 20
223.8505835983
 30
0.0
 10
159.1435268085
 20
223.9240691522
 30
0.0
 10
159.1435578134
 20
223.9796054207
 30
0.0
  0
SPLINE
  5
6D2
100
AcDbEntity
  8
0
100
AcDbSpline
 62
7
  6
CONTINUOUS
 70
0
 71
3
 72
9
 73
5
 74
0
 42
0.0000001
 43
0.0000001
 44
0.0000000001
 40
0.0
 40
0.0
 40
0.0
 40
0.0
 40
0.4946233017
 40
1.0
 40
1.0
 40
1.0
 40
1.0
 10
159.142050933
 20
223.6290276866
 30
0.0
 10
159.1423207092
 20
223.6504857468
 30
0.0
 10
159.1434419209
 20
223.6938764862
 30
0.0
 10
159.1413485934
 20
223.73724409
 30
0.0
 10
159.1413485934
 20
223.7591703935
 30
0.0
  0
SPLINE
  5
6D3
100
AcDbEntity
  8
0
100
AcDbSpline
 62
7
  6
CONTINUOUS
 70
0
 71
3
 72
9
 73
5
 74
0
 42
0.0000001
 43
0.0000001
 44
0.0000000001
 40
0.0
 40
0.0
 40
0.0
 40
0.0
 40
0.2557186808
 40
1.0
 40
1.0
 40
1.0
 40
1.0
 10
158.7976106927
 20
232.8007484543
 30
0.0
 10
158.8023534369
 20
232.8944395712
 30
0.0
 10
158.8266242381
 20
233.2605234661
 30
0.0
 10
158.8730317476
 20
233.6250416548
 30
0.0
 10
158.9182971445
 20
233.8943050098
 30
0.0
  0
SPLINE
  5
6D4
100
AcDbEntity
  8
0
100
AcDbSpline
 62
7
  6
CONTINUOUS
 70
0
 71
3
 72
8
 73
4
 74
0
 42
0.0000001
 43
0.0000001
 44
0.0000000001
 40
0.0
 40
0.0
 40
0.0
 40
0.0
 40
1.0
 40
1.0
 40
1.0
 40
1.0
 10
143.7273072443
 20
259.6950492491
 30
0.0
 10
143.7032911847
 20
260.1533029653
 30
0.0
 10
143.6805923006
 20
260.6116908062
 30
0.0
 10
143.6667573989
 20
261.0703648027
 30
0.0
  0
LINE
  5
6D5
100
AcDbEntity
  8
0
100
AcDbLine
 62
7
  6
CONTINUOUS
 10
143.6667573989
 20
261.0703648027
 11
143.66605015
 21
261.0940884728
  0
SPLINE
  5
6D6
100
AcDbEntity
  8
0
100
AcDbSpline
 62
7
  6
CONTINUOUS
 70
0
 71
3
 72
9
 73
5
 74
0
 42
0.0000001
 43
0.0000001
 44
0.0000000001
 40
0.0
 40
0.0
 40
0.0
 40
0.0
 40
0.2400636513
 40
1.0
 40
1.0
 40
1.0
 40
1.0
 10
158.8788529179
 20
231.5026304443
 30
0.0
 10
158.867498815
 20
231.5881057337
 30
0.0
 10
158.8243491764
 20
231.9446840615
 30
0.0
 10
158.8001854067
 20
232.3036662282
 30
0.0
 10
158.7943433056
 20
232.576557766
 30
0.0
  0
SPLINE
  5
6D7
100
AcDbEntity
  8
RUNDUNGEN
100
AcDbSpline
 62
7
  6
CONTINUOUS
 70
0
 71
3
 72
10
 73
6
 74
0
 42
0.0000001
 43
0.0000001
 44
0.0000000001
 40
0.0
 40
0.0
 40
0.0
 40
0.0
 40
0.6055652404
 40
0.8341893431
 40
1.0
 40
1.0
 40
1.0
 40
1.0
 10
144.0365018801
 20
253.8542582557
 30
0.0
 10
144.0235545341
 20
254.1928600451
 30
0.0
 10
144.0124656114
 20
254.6595401304
 30
0.0
 10
143.9877542159
 20
255.2185683924
 30
0.0
 10
143.9725303027
 20
255.4388068041
 30
0.0
 10
143.963840604
 20
255.5311797549
 30
0.0
  0
LINE
  5
6D8
100
AcDbEntity
  8
RUNDUNGEN
100
AcDbLine
 62
7
  6
CONTINUOUS
 10
143.938386211
 20
255.8344986933
 11
143.9274220907
 21
255.9876228959
  0
LINE
  5
6D9
100
AcDbEntity
  8
RUNDUNGEN
100
AcDbLine
 62
7
  6
CONTINUOUS
 10
143.9274220907
 20
255.9876228959
 11
143.9173073763
 21
256.1417207255
  0
SPLINE
  5
6DA
100
AcDbEntity
  8
RUNDUNGEN
100
AcDbSpline
 62
7
  6
CONTINUOUS
 70
0
 71
3
 72
9
 73
5
 74
0
 42
0.0000001
 43
0.0000001
 44
0.0000000001
 40
0.0
 40
0.0
 40
0.0
 40
0.0
 40
0.4946233017
 40
1.0
 40
1.0
 40
1.0
 40
1.0
 10
145.1436524705
 20
223.6290276866
 30
0.0
 10
145.1433826943
 20
223.6504857468
 30
0.0
 10
145.1422614826
 20
223.6938764862
 30
0.0
 10
145.1443548101
 20
223.73724409
 30
0.0
 10
145.1443548101
 20
223.7591703935
 30
0.0
  0
SPLINE
  5
6DB
100
AcDbEntity
  8
RUNDUNGEN
100
AcDbSpline
 62
7
  6
CONTINUOUS
 70
0
 71
3
 72
9
 73
5
 74
0
 42
0.0000001
 43
0.0000001
 44
0.0000000001
 40
0.0
 40
0.0
 40
0.0
 40
0.0
 40
0.2442287407
 40
1.0
 40
1.0
 40
1.0
 40
1.0
 10
145.1443548101
 20
223.7591703935
 30
0.0
 10
145.1439573817
 20
223.7771126329
 30
0.0
 10
145.1426009961
 20
223.8505835983
 30
0.0
 10
145.142176595
 20
223.9240691522
 30
0.0
 10
145.1421455901
 20
223.9796054207
 30
0.0
  0
SPLINE
  5
6DC
100
AcDbEntity
  8
RUNDUNGEN
100
AcDbSpline
 62
7
  6
CONTINUOUS
 70
0
 71
3
 72
9
 73
5
 74
0
 42
0.0000001
 43
0.0000001
 44
0.0000000001
 40
0.0
 40
0.0
 40
0.0
 40
0.0
 40
0.2557186808
 40
1.0
 40
1.0
 40
1.0
 40
1.0
 10
145.4880927108
 20
232.8007484543
 30
0.0
 10
145.4833499666
 20
232.8944395712
 30
0.0
 10
145.4590791654
 20
233.2605234661
 30
0.0
 10
145.4126716559
 20
233.6250416548
 30
0.0
 10
145.3674062591
 20
233.8943050098
 30
0.0
  0
SPLINE
  5
6DD
100
AcDbEntity
  8
0
100
AcDbSpline
 62
7
  6
CONTINUOUS
 70
0
 71
3
 72
8
 73
4
 74
0
 42
0.0000001
 43
0.0000001
 44
0.0000000001
 40
0.0
 40
0.0
 40
0.0
 40
0.0
 40
1.0
 40
1.0
 40
1.0
 40
1.0
 10
160.5583961592
 20
259.6950492491
 30
0.0
 10
160.5824122189
 20
260.1533029653
 30
0.0
 10
160.6051111029
 20
260.6116908062
 30
0.0
 10
160.6189460046
 20
261.0703648027
 30
0.0
  0
LINE
  5
6DE
100
AcDbEntity
  8
0
100
AcDbLine
 62
7
  6
CONTINUOUS
 10
160.6189460046
 20
261.0703648027
 11
160.6196532535
 21
261.0940884728
  0
SPLINE
  5
6DF
100
AcDbEntity
  8
RUNDUNGEN
100
AcDbSpline
 62
7
  6
CONTINUOUS
 70
0
 71
3
 72
9
 73
5
 74
0
 42
0.0000001
 43
0.0000001
 44
0.0000000001
 40
0.0
 40
0.0
 40
0.0
 40
0.0
 40
0.2400636513
 40
1.0
 40
1.0
 40
1.0
 40
1.0
 10
145.4068504856
 20
231.5026304443
 30
0.0
 10
145.4182045885
 20
231.5881057337
 30
0.0
 10
145.4613542271
 20
231.9446840615
 30
0.0
 10
145.4855179968
 20
232.3036662282
 30
0.0
 10
145.491360098
 20
232.576557766
 30
0.0
  0
LINE
  5
6E0
100
AcDbEntity
  8
RUNDUNGEN
100
AcDbLine
 62
7
  6
CONTINUOUS
 10
144.8227831563
 20
238.8018839509
 11
144.8185128428
 21
238.8778059123
  0
LINE
  5
6E1
100
AcDbEntity
  8
0
100
AcDbLine
 62
7
  6
CONTINUOUS
 10
143.662207649
 20
262.1581532287
 11
143.6630661148
 21
262.1792066895
  0
SPLINE
  5
6E2
100
AcDbEntity
  8
0
100
AcDbSpline
 62
7
  6
CONTINUOUS
 70
0
 71
3
 72
9
 73
5
 74
0
 42
0.0000001
 43
0.0000001
 44
0.0000000001
 40
0.0
 40
0.0
 40
0.0
 40
0.0
 40
0.4932732792
 40
1.0
 40
1.0
 40
1.0
 40
1.0
 10
143.6630661148
 20
262.1792066895
 30
0.0
 10
143.6844767926
 20
262.6973187546
 30
0.0
 10
143.7689985842
 20
263.7471053781
 30
0.0
 10
144.0326870027
 20
264.7754960021
 30
0.0
 10
144.2316894531
 20
265.2696258957
 30
0.0
  0
LINE
  5
6E3
100
AcDbEntity
  8
0
100
AcDbLine
 62
7
  6
CONTINUOUS
 10
160.6234957549
 20
262.1581532184
 11
160.6226372887
 21
262.1792066895
  0
SPLINE
  5
6E4
100
AcDbEntity
  8
0
100
AcDbSpline
 62
7
  6
CONTINUOUS
 70
0
 71
3
 72
9
 73
5
 74
0
 42
0.0000001
 43
0.0000001
 44
0.0000000001
 40
0.0
 40
0.0
 40
0.0
 40
0.0
 40
0.4932732765
 40
1.0
 40
1.0
 40
1.0
 40
1.0
 10
160.6226372887
 20
262.1792066895
 30
0.0
 10
160.6012266077
 20
262.6973188315
 30
0.0
 10
160.5167047977
 20
263.7471056168
 30
0.0
 10
160.2530162892
 20
264.7754963917
 30
0.0
 10
160.0540137682
 20
265.2696263483
 30
0.0
  0
LINE
  5
6E5
100
AcDbEntity
  8
0
100
AcDbLine
 62
7
  6
CONTINUOUS
 10
159.4629202472
 20
238.8018839509
 11
159.4671905607
 21
238.8778059123
  0
SPLINE
  5
6E6
100
AcDbEntity
  8
0
100
AcDbSpline
 62
7
  6
CONTINUOUS
 70
0
 71
3
 72
10
 73
6
 74
0
 42
0.0000001
 43
0.0000001
 44
0.0000000001
 40
0.0
 40
0.0
 40
0.0
 40
0.0
 40
0.6055652404
 40
0.8341893431
 40
1.0
 40
1.0
 40
1.0
 40
1.0
 10
160.2492015235
 20
253.8542582557
 30
0.0
 10
160.2621488694
 20
254.1928600451
 30
0.0
 10
160.2732377921
 20
254.6595401304
 30
0.0
 10
160.2979491876
 20
255.2185683924
 30
0.0
 10
160.3131731008
 20
255.4388068041
 30
0.0
 10
160.3218627995
 20
255.5311797549
 30
0.0
  0
LINE
  5
6E7
100
AcDbEntity
  8
0
100
AcDbLine
 62
7
  6
CONTINUOUS
 10
160.3473171925
 20
255.8344986933
 11
160.3582813128
 21
255.9876228959
  0
LINE
  5
6E8
100
AcDbEntity
  8
0
100
AcDbLine
 62
7
  6
CONTINUOUS
 10
160.3582813128
 20
255.9876228959
 11
160.3683960272
 21
256.1417207255
  0
SPLINE
  5
6E9
100
AcDbEntity
  8
BEZUGSACHSEN
100
AcDbSpline
 62
7
  6
CONTINUOUS
 70
0
 71
3
 72
11
 73
7
 74
0
 42
0.0000001
 43
0.0000001
 44
0.0000000001
 40
0.0
 40
0.0
 40
0.0
 40
0.0
 40
0.2616356618
 40
0.5144890272
 40
0.7595900245
 40
1.0
 40
1.0
 40
1.0
 40
1.0
 10
109.3223436261
 20
197.6802262985
 30
0.0
 10
109.6684783848
 20
197.8800672946
 30
0.0
 10
110.3648382562
 20
198.2470743909
 30
0.0
 10
111.4445939015
 20
198.6793647648
 30
0.0
 10
112.5421568974
 20
198.9559520821
 30
0.0
 10
113.2852137242
 20
199.0199722701
 30
0.0
 10
113.6524707614
 20
199.0199722701
 30
0.0
  0
SPLINE
  5
6EA
100
AcDbEntity
  8
BEZUGSACHSEN
100
AcDbSpline
 62
7
  6
CONTINUOUS
 70
0
 71
3
 72
11
 73
7
 74
0
 42
0.0000001
 43
0.0000001
 44
0.0000000001
 40
0.0
 40
0.0
 40
0.0
 40
0.0
 40
0.2404100006
 40
0.4855110068
 40
0.7383643426
 40
1.0
 40
1.0
 40
1.0
 40
1.0
 10
113.6524707614
 20
199.0199722701
 30
0.0
 10
114.0197278183
 20
199.0199722569
 30
0.0
 10
114.7627846571
 20
198.9559520385
 30
0.0
 10
115.8603475926
 20
198.6793646907
 30
0.0
 10
116.9401031371
 20
198.2470743317
 30
0.0
 10
117.6364629286
 20
197.8800672811
 30
0.0
 10
117.9825976639
 20
197.6802262985
 30
0.0
  0
SPLINE
  5
6EB
100
AcDbEntity
  8
BEZUGSACHSEN
100
AcDbSpline
 62
7
  6
CONTINUOUS
 70
0
 71
3
 72
10
 73
6
 74
0
 42
0.0000001
 43
0.0000001
 44
0.0000000001
 40
0.0
 40
0.0
 40
0.0
 40
0.0
 40
0.4998915616
 40
0.7499458185
 40
1.0
 40
1.0
 40
1.0
 40
1.0
 10
117.9825976639
 20
197.6802262985
 30
0.0
 10
119.3896694157
 20
198.0864129259
 30
0.0
 10
121.5348108596
 20
198.5942178906
 30
0.0
 10
124.4443321443
 20
198.9574619419
 30
0.0
 10
125.9102709319
 20
199.0199722578
 30
0.0
 10
126.6428518684
 20
199.0199722675
 30
0.0
  0
SPLINE
  5
6EC
100
AcDbEntity
  8
BEZUGSACHSEN
100
AcDbSpline
 62
7
  6
CONTINUOUS
 70
0
 71
3
 72
10
 73
6
 74
0
 42
0.0000001
 43
0.0000001
 44
0.0000000001
 40
0.0
 40
0.0
 40
0.0
 40
0.0
 40
0.2500542058
 40
0.5001084765
 40
1.0
 40
1.0
 40
1.0
 40
1.0
 10
126.6428518684
 20
199.0199722675
 30
0.0
 10
127.3754328483
 20
199.0199722675
 30
0.0
 10
128.8413716915
 20
198.9574618947
 30
0.0
 10
131.7508928596
 20
198.5942178224
 30
0.0
 10
133.8960341485
 20
198.0864128795
 30
0.0
 10
135.3031057396
 20
197.6802262985
 30
0.0
  0
SPLINE
  5
6ED
100
AcDbEntity
  8
BEZUGSACHSEN
100
AcDbSpline
 62
7
  6
CONTINUOUS
 70
0
 71
3
 72
11
 73
7
 74
0
 42
0.0000001
 43
0.0000001
 44
0.0000000001
 40
0.0
 40
0.0
 40
0.0
 40
0.0
 40
0.2616356616
 40
0.5144890271
 40
0.7595900246
 40
1.0
 40
1.0
 40
1.0
 40
1.0
 10
135.3031057396
 20
197.6802262985
 30
0.0
 10
135.6492404892
 20
197.8800672894
 30
0.0
 10
136.3456003423
 20
198.247074377
 30
0.0
 10
137.4253559581
 20
198.6793647441
 30
0.0
 10
138.5229189226
 20
198.9559520668
 30
0.0
 10
139.2659757303
 20
199.0199722606
 30
0.0
 10
139.6332327578
 20
199.0199722607
 30
0.0
  0
SPLINE
  5
6EE
100
AcDbEntity
  8
BEZUGSACHSEN
100
AcDbSpline
 62
7
  6
CONTINUOUS
 70
0
 71
3
 72
11
 73
7
 74
0
 42
0.0000001
 43
0.0000001
 44
0.0000000001
 40
0.0
 40
0.0
 40
0.0
 40
0.0
 40
0.2404100005
 40
0.4855110066
 40
0.7383643424
 40
1.0
 40
1.0
 40
1.0
 40
1.0
 10
139.6332327578
 20
199.0199722607
 30
0.0
 10
140.0004898238
 20
199.0199722607
 30
0.0
 10
140.7435466836
 20
198.9559520566
 30
0.0
 10
141.8411096491
 20
198.6793647104
 30
0.0
 10
142.9208652233
 20
198.2470743458
 30
0.0
 10
143.6172250331
 20
197.8800672863
 30
0.0
 10
143.9633597774
 20
197.6802262985
 30
0.0
  0
SPLINE
  5
6EF
100
AcDbEntity
  8
0
100
AcDbSpline
 62
7
  6
CONTINUOUS
 70
0
 71
3
 72
15
 73
11
 74
0
 42
0.0000001
 43
0.0000001
 44
0.0000000001
 40
0.0
 40
0.0
 40
0.0
 40
0.0
 40
0.0380280954
 40
0.0661370012
 40
0.1015370328
 40
0.1947214329
 40
0.3164542169
 40
0.4632782204
 40
0.630288925
 40
1.0
 40
1.0
 40
1.0
 40
1.0
 10
98.530601703
 20
172.5099722607
 30
0.0
 10
98.5425126523
 20
172.5099722607
 30
0.0
 10
98.5616048488
 20
172.524056638
 30
0.0
 10
98.5794333929
 20
172.5497187256
 30
0.0
 10
98.6022364528
 20
172.593606958
 30
0.0
 10
98.6274261332
 20
172.6680082705
 30
0.0
 10
98.6536934086
 20
172.7783495832
 30
0.0
 10
98.6759213516
 20
172.9130399194
 30
0.0
 10
98.6994536965
 20
173.1259044349
 30
0.0
 10
98.7061097333
 20
173.2941734068
 30
0.0
 10
98.7061097333
 20
173.4099722607
 30
0.0
  0
SPLINE
  5
6F0
100
AcDbEntity
  8
0
100
AcDbSpline
 62
7
  6
CONTINUOUS
 70
0
 71
3
 72
13
 73
9
 74
0
 42
0.0000001
 43
0.0000001
 44
0.0000000001
 40
0.0
 40
0.0
 40
0.0
 40
0.0
 40
0.0157581977
 40
0.0628941755
 40
0.1414246568
 40
0.2513521021
 40
0.564768942
 40
1.0
 40
1.0
 40
1.0
 40
1.0
 10
98.142880837
 20
172.6600095529
 30
0.0
 10
98.1431547734
 20
172.6600080471
 30
0.0
 10
98.1426677711
 20
172.6617620208
 30
0.0
 10
98.1433335958
 20
172.6635781962
 30
0.0
 10
98.1432125451
 20
172.6680313543
 30
0.0
 10
98.1437641929
 20
172.67652815
 30
0.0
 10
98.1442040734
 20
172.6916093436
 30
0.0
 10
98.1447305035
 20
172.7045554642
 30
0.0
 10
98.1450002235
 20
172.7121167119
 30
0.0
  0
SPLINE
  5
6F1
100
AcDbEntity
  8
0
100
AcDbSpline
 62
7
  6
CONTINUOUS
 70
0
 71
3
 72
11
 73
7
 74
0
 42
0.0000001
 43
0.0000001
 44
0.0000000001
 40
0.0
 40
0.0
 40
0.0
 40
0.0
 40
0.3848871955
 40
0.701597351
 40
0.9147982647
 40
1.0
 40
1.0
 40
1.0
 40
1.0
 10
98.1559331333
 20
173.3748938116
 30
0.0
 10
98.1554150652
 20
173.2832527225
 30
0.0
 10
98.1537348649
 20
173.1162056639
 30
0.0
 10
98.1489444618
 20
172.8984357768
 30
0.0
 10
98.1458833392
 20
172.7520190269
 30
0.0
 10
98.1428456094
 20
172.6810079955
 30
0.0
 10
98.1428563193
 20
172.6607212632
 30
0.0
  0
SPLINE
  5
6F2
100
AcDbEntity
  8
0
100
AcDbSpline
 62
7
  6
CONTINUOUS
 70
0
 71
3
 72
15
 73
11
 74
0
 42
0.0000001
 43
0.0000001
 44
0.0000000001
 40
0.0
 40
0.0
 40
0.0
 40
0.0
 40
0.3697167936
 40
0.536728598
 40
0.6835523014
 40
0.8052833071
 40
0.8984654061
 40
0.933864252
 40
0.9619723772
 40
1.0
 40
1.0
 40
1.0
 40
1.0
 10
98.7061097333
 20
174.5199722607
 30
0.0
 10
98.7061097333
 20
174.6357729128
 30
0.0
 10
98.6994534859
 20
174.80404404
 30
0.0
 10
98.6759204943
 20
175.0169105514
 30
0.0
 10
98.6536923056
 20
175.1516005484
 30
0.0
 10
98.6274250019
 20
175.2619404472
 30
0.0
 10
98.6022354071
 20
175.336340078
 30
0.0
 10
98.5794326596
 20
175.3802269298
 30
0.0
 10
98.5616044769
 20
175.405888402
 30
0.0
 10
98.542512505
 20
175.4199722607
 30
0.0
 10
98.530601703
 20
175.4199722607
 30
0.0
  0
SPLINE
  5
6F3
100
AcDbEntity
  8
0
100
AcDbSpline
 62
7
  6
CONTINUOUS
 70
0
 71
3
 72
13
 73
9
 74
0
 42
0.0000001
 43
0.0000001
 44
0.0000000001
 40
0.0
 40
0.0
 40
0.0
 40
0.0
 40
0.0215768002
 40
0.0755672496
 40
0.1610032152
 40
0.2766694724
 40
0.5911195071
 40
1.0
 40
1.0
 40
1.0
 40
1.0
 10
98.1428605458
 20
171.7603518193
 30
0.0
 10
98.1428562851
 20
171.7661908193
 30
0.0
 10
98.1445291061
 20
171.7865990485
 30
0.0
 10
98.1468161932
 20
171.8300908965
 30
0.0
 10
98.1512714397
 20
171.898989552
 30
0.0
 10
98.159443096
 20
172.038260628
 30
0.0
 10
98.1717083412
 20
172.2649804616
 30
0.0
 10
98.1800700296
 20
172.4605510981
 30
0.0
 10
98.1841139811
 20
172.571126289
 30
0.0
  0
SPLINE
  5
6F4
100
AcDbEntity
  8
0
100
AcDbSpline
 62
7
  6
CONTINUOUS
 70
0
 71
3
 72
27
 73
23
 74
0
 42
0.0000001
 43
0.0000001
 44
0.0000000001
 40
0.0
 40
0.0
 40
0.0
 40
0.0
 40
0.0086137947
 40
0.0216487479
 40
0.039859313
 40
0.0627512634
 40
0.0895736924
 40
0.1196052838
 40
0.1868184029
 40
0.2605984017
 40
0.3384543443
 40
0.4999955279
 40
0.6615375706
 40
0.7393943284
 40
0.8131747226
 40
0.8803878965
 40
0.9104210153
 40
0.9372440583
 40
0.9601382885
 40
0.9783501857
 40
0.9913858495
 40
1.0
 40
1.0
 40
1.0
 40
1.0
 10
99.0943873913
 20
171.7599722607
 30
0.0
 10
99.1074122693
 20
171.7599722607
 30
0.0
 10
99.1383219681
 20
171.7785941008
 30
0.0
 10
99.1711461409
 20
171.8291258358
 30
0.0
 10
99.2049950199
 20
171.9040633756
 30
0.0
 10
99.2370563343
 20
172.0017026254
 30
0.0
 10
99.2676470495
 20
172.118407475
 30
0.0
 10
99.3068711966
 20
172.3019059255
 30
0.0
 10
99.3477353374
 20
172.557423383
 30
0.0
 10
99.3851463862
 20
172.8862980139
 30
0.0
 10
99.4212829939
 20
173.3585594559
 30
0.0
 10
99.4384790162
 20
173.9649528093
 30
0.0
 10
99.4212849616
 20
174.5713474664
 30
0.0
 10
99.3851496044
 20
175.0436121271
 30
0.0
 10
99.3477399616
 20
175.3724888681
 30
0.0
 10
99.3068756547
 20
175.6280092912
 30
0.0
 10
99.2676536006
 20
175.8115115435
 30
0.0
 10
99.2370619419
 20
175.9282231773
 30
0.0
 10
99.2049997585
 20
176.025868526
 30
0.0
 10
99.1711499672
 20
176.1008136509
 30
0.0
 10
99.1383224041
 20
176.1513460834
 30
0.0
 10
99.1074128073
 20
176.1699722607
 30
0.0
 10
99.0943873913
 20
176.1699722607
 30
0.0
  0
SPLINE
  5
6F5
100
AcDbEntity
  8
0
100
AcDbSpline
 62
7
  6
CONTINUOUS
 70
0
 71
3
 72
27
 73
23
 74
0
 42
0.0000001
 43
0.0000001
 44
0.0000000001
 40
0.0
 40
0.0
 40
0.0
 40
0.0
 40
0.008481827
 40
0.0214414864
 40
0.0396165846
 40
0.0624978968
 40
0.0893230658
 40
0.1193674748
 40
0.1866191343
 40
0.2604467781
 40
0.3383536202
 40
0.4999989546
 40
0.6616445438
 40
0.739551612
 40
0.8133793931
 40
0.8806311426
 40
0.9106758755
 40
0.9375011785
 40
0.9603829405
 40
0.9785582884
 40
0.9915180936
 40
1.0
 40
1.0
 40
1.0
 40
1.0
 10
98.5853757714
 20
176.1699722607
 30
0.0
 10
98.5981885436
 20
176.1699722607
 30
0.0
 10
98.628629197
 20
176.151131516
 30
0.0
 10
98.660626866
 20
176.1006601543
 30
0.0
 10
98.6938070285
 20
176.0256949238
 30
0.0
 10
98.7251895935
 20
175.9280220595
 30
0.0
 10
98.7551557099
 20
175.8112689121
 30
0.0
 10
98.7935653717
 20
175.6277052093
 30
0.0
 10
98.833572966
 20
175.372162978
 30
0.0
 10
98.8701891846
 20
175.0433198683
 30
0.0
 10
98.9055525905
 20
174.571161433
 30
0.0
 10
98.9223761222
 20
173.964976715
 30
0.0
 10
98.9055530324
 20
173.3587916398
 30
0.0
 10
98.870189887
 20
172.8866322514
 30
0.0
 10
98.8335739295
 20
172.5577884188
 30
0.0
 10
98.7935662872
 20
172.3022453583
 30
0.0
 10
98.7551569966
 20
172.1186807406
 30
0.0
 10
98.725190674
 20
172.0019262055
 30
0.0
 10
98.6938079861
 20
171.9042521326
 30
0.0
 10
98.6606276463
 20
171.8292854004
 30
0.0
 10
98.6286292715
 20
171.7788139591
 30
0.0
 10
98.5981886635
 20
171.7599722607
 30
0.0
 10
98.5853757714
 20
171.7599722607
 30
0.0
  0
SPLINE
  5
6F6
100
AcDbEntity
  8
0
100
AcDbSpline
 62
7
  6
CONTINUOUS
 70
0
 71
3
 72
15
 73
11
 74
0
 42
0.0000001
 43
0.0000001
 44
0.0000000001
 40
0.0
 40
0.0
 40
0.0
 40
0.0
 40
0.125
 40
0.25
 40
0.375
 40
0.5
 40
0.625
 40
0.75
 40
0.875
 40
1.0
 40
1.0
 40
1.0
 40
1.0
 10
281.4584485786
 20
176.1699722607
 30
0.0
 10
281.6547716973
 20
176.1699722607
 30
0.0
 10
282.0474179347
 20
176.0551620375
 30
0.0
 10
282.5467220454
 20
175.5647342569
 30
0.0
 10
282.8803463859
 20
174.8307572142
 30
0.0
 10
282.9974996749
 20
173.9649722607
 30
0.0
 10
282.8803463859
 20
173.0991873072
 30
0.0
 10
282.5467220454
 20
172.3652102645
 30
0.0
 10
282.0474179347
 20
171.8747824838
 30
0.0
 10
281.6547716973
 20
171.7599722607
 30
0.0
 10
281.4584485786
 20
171.7599722607
 30
0.0
  0
SPLINE
  5
6F7
100
AcDbEntity
  8
BEZUGSACHSEN
100
AcDbSpline
 62
7
  6
CONTINUOUS
 70
0
 71
3
 72
10
 73
6
 74
0
 42
0.0000001
 43
0.0000001
 44
0.0000000001
 40
0.0
 40
0.0
 40
0.0
 40
0.0
 40
0.5015949673
 40
0.7510711478
 40
1.0
 40
1.0
 40
1.0
 40
1.0
 10
276.7284485786
 20
197.6802262985
 30
0.0
 10
277.9415905768
 20
198.0846069646
 30
0.0
 10
279.7962779426
 20
198.5927480039
 30
0.0
 10
282.3223103524
 20
198.9572940088
 30
0.0
 10
283.5938306877
 20
199.0199722701
 30
0.0
 10
284.2284487802
 20
199.0199722701
 30
0.0
  0
SPLINE
  5
6F8
100
AcDbEntity
  8
BEZUGSACHSEN
100
AcDbSpline
 62
7
  6
CONTINUOUS
 70
0
 71
3
 72
10
 73
6
 74
0
 42
0.0000001
 43
0.0000001
 44
0.0000000001
 40
0.0
 40
0.0
 40
0.0
 40
0.0
 40
0.248928878
 40
0.4984050665
 40
1.0
 40
1.0
 40
1.0
 40
1.0
 10
284.2284487802
 20
199.0199722701
 30
0.0
 10
284.8630669054
 20
199.019972257
 30
0.0
 10
286.1345872588
 20
198.9572939664
 30
0.0
 10
288.6606195265
 20
198.5927479195
 30
0.0
 10
290.5153067258
 20
198.0846069161
 30
0.0
 10
291.7284485786
 20
197.6802262985
 30
0.0
  0
SPLINE
  5
6F9
100
AcDbEntity
  8
BEZUGSACHSEN
100
AcDbSpline
 62
7
  6
CONTINUOUS
 70
0
 71
3
 72
10
 73
6
 74
0
 42
0.0000001
 43
0.0000001
 44
0.0000000001
 40
0.0
 40
0.0
 40
0.0
 40
0.0
 40
0.248928878
 40
0.4984050665
 40
1.0
 40
1.0
 40
1.0
 40
1.0
 10
269.2284492389
 20
199.0199722916
 30
0.0
 10
269.8630673261
 20
199.0199722916
 30
0.0
 10
271.1345876003
 20
198.957293904
 30
0.0
 10
273.6606197132
 20
198.5927478869
 30
0.0
 10
275.5153067982
 20
198.084606892
 30
0.0
 10
276.7284485786
 20
197.6802262985
 30
0.0
  0
SPLINE
  5
6FA
100
AcDbEntity
  8
BEZUGSACHSEN
100
AcDbSpline
 62
7
  6
CONTINUOUS
 70
0
 71
3
 72
10
 73
6
 74
0
 42
0.0000001
 43
0.0000001
 44
0.0000000001
 40
0.0
 40
0.0
 40
0.0
 40
0.0
 40
0.5015301879
 40
0.7510711074
 40
1.0
 40
1.0
 40
1.0
 40
1.0
 10
261.7284485786
 20
197.6802262985
 30
0.0
 10
262.7749795796
 20
198.0290699655
 30
0.0
 10
264.369761012
 20
198.4788505449
 30
0.0
 10
266.5380596056
 20
198.8576107611
 30
0.0
 10
267.6309385663
 20
198.9622671884
 30
0.0
 10
268.1776814159
 20
198.9916431442
 30
0.0
  0
LINE
  5
6FB
100
AcDbEntity
  8
0
100
AcDbLine
 62
7
  6
CONTINUOUS
 10
287.0912287767
 20
266.0783172579
 11
287.1691034675
 21
266.0636439278
  0
LINE
  5
6FC
100
AcDbEntity
  8
RUNDUNGEN
100
AcDbLine
 62
7
  6
CONTINUOUS
 10
310.8284485786
 20
223.7564330588
 11
310.6284485786
 21
223.9988574944
  0
SPLINE
  5
6FD
100
AcDbEntity
  8
RUNDUNGEN
100
AcDbSpline
 62
7
  6
CONTINUOUS
 70
0
 71
3
 72
8
 73
4
 74
0
 42
0.0000001
 43
0.0000001
 44
0.0000000001
 40
0.0
 40
0.0
 40
0.0
 40
0.0
 40
1.0
 40
1.0
 40
1.0
 40
1.0
 10
308.5256540877
 20
255.5874297286
 30
0.0
 10
308.8231242662
 20
255.2386689591
 30
0.0
 10
309.1203092062
 20
254.8896649887
 30
0.0
 10
309.4175522359
 20
254.5407106037
 30
0.0
  0
LINE
  5
6FE
100
AcDbEntity
  8
0
100
AcDbLine
 62
7
  6
CONTINUOUS
 10
242.6284485786
 20
223.7564330588
 11
242.8284485786
 21
223.9988574944
  0
LINE
  5
6FF
100
AcDbEntity
  8
0
100
AcDbLine
 62
7
  6
CONTINUOUS
 10
266.3656683805
 20
266.0783172579
 11
266.2877936896
 21
266.0636439278
  0
SPLINE
  5
700
100
AcDbEntity
  8
0
100
AcDbSpline
 62
7
  6
CONTINUOUS
 70
0
 71
3
 72
8
 73
4
 74
0
 42
0.0000001
 43
0.0000001
 44
0.0000000001
 40
0.0
 40
0.0
 40
0.0
 40
0.0
 40
1.0
 40
1.0
 40
1.0
 40
1.0
 10
244.9312430694
 20
255.5874297286
 30
0.0
 10
244.6337728909
 20
255.2386689591
 30
0.0
 10
244.3365879509
 20
254.8896649887
 30
0.0
 10
244.0393449213
 20
254.5407106037
 30
0.0
  0
SPLINE
  5
701
100
AcDbEntity
  8
RUNDUNGEN
100
AcDbSpline
 62
7
  6
CONTINUOUS
 70
0
 71
3
 72
16
 73
12
 74
0
 42
0.0000001
 43
0.0000001
 44
0.0000000001
 40
0.0
 40
0.0
 40
0.0
 40
0.0
 40
0.2034189358
 40
0.3861787907
 40
0.5471553962
 40
0.6854380873
 40
0.8002477618
 40
0.8910141927
 40
0.9574539255
 40
0.981635954
 40
1.0
 40
1.0
 40
1.0
 40
1.0
 10
145.1702610067
 20
15.4136133943
 30
0.0
 10
145.1916563321
 20
15.0658641793
 30
0.0
 10
145.2352866176
 20
14.4058600987
 30
0.0
 10
145.3079743042
 20
13.4715185501
 30
0.0
 10
145.384002896
 20
12.6493979881
 30
0.0
 10
145.4628439553
 20
11.9445687103
 30
0.0
 10
145.5435808834
 20
11.3610036535
 30
0.0
 10
145.6258451639
 20
10.9024560444
 30
0.0
 10
145.6993621104
 20
10.599853681
 30
0.0
 10
145.7631112951
 20
10.424302917
 30
0.0
 10
145.7956998984
 20
10.3586631258
 30
0.0
 10
145.8129739398
 20
10.3323780437
 30
0.0
  0
SPLINE
  5
702
100
AcDbEntity
  8
RUNDUNGEN
100
AcDbSpline
 62
7
  6
CONTINUOUS
 70
0
 71
3
 72
9
 73
5
 74
0
 42
0.0000001
 43
0.0000001
 44
0.0000000001
 40
0.0
 40
0.0
 40
0.0
 40
0.0
 40
0.2049817066
 40
1.0
 40
1.0
 40
1.0
 40
1.0
 10
144.0365018801
 20
20.1140663039
 30
0.0
 10
144.0338975413
 20
20.141584219
 30
0.0
 10
144.0233648051
 20
20.2760328574
 30
0.0
 10
144.0176512709
 20
20.4107901718
 30
0.0
 10
144.0131841197
 20
20.5179017725
 30
0.0
  0
SPLINE
  5
703
100
AcDbEntity
  8
RUNDUNGEN
100
AcDbSpline
 62
7
  6
CONTINUOUS
 70
0
 71
3
 72
11
 73
7
 74
0
 42
0.0000001
 43
0.0000001
 44
0.0000000001
 40
0.0
 40
0.0
 40
0.0
 40
0.0
 40
0.1257307581
 40
0.3351380721
 40
0.6277098687
 40
1.0
 40
1.0
 40
1.0
 40
1.0
 10
145.4805921094
 20
11.8355447145
 30
0.0
 10
145.4727155753
 20
11.8420143659
 30
0.0
 10
145.4567704477
 20
11.86463693
 30
0.0
 10
145.4315061454
 20
11.9085387334
 30
0.0
 10
145.4004976509
 20
11.9724577413
 30
0.0
 10
145.3790006305
 20
12.0218561718
 30
0.0
 10
145.3674062591
 20
12.0497217261
 30
0.0
  0
SPLINE
  5
704
100
AcDbEntity
  8
0
100
AcDbSpline
 62
7
  6
CONTINUOUS
 70
0
 71
3
 72
13
 73
9
 74
0
 42
0.0000001
 43
0.0000001
 44
0.0000000001
 40
0.0
 40
0.0
 40
0.0
 40
0.0
 40
0.2484410684
 40
0.3726310222
 40
0.4972051907
 40
0.6224965757
 40
0.7484989225
 40
1.0
 40
1.0
 40
1.0
 40
1.0
 10
144.8185128428
 20
14.0631867872
 30
0.0
 10
144.7728210331
 20
14.4396825129
 30
0.0
 10
144.7517842505
 20
15.0090380826
 30
0.0
 10
144.7057495686
 20
15.7665702675
 30
0.0
 10
144.6455161797
 20
16.3347011364
 30
0.0
 10
144.5541120298
 20
16.9014342823
 30
0.0
 10
144.4019478232
 20
17.6535869608
 30
0.0
 10
144.2793938131
 20
18.2177092999
 30
0.0
 10
144.2300066163
 20
18.5984490112
 30
0.0
  0
SPLINE
  5
705
100
AcDbEntity
  8
0
100
AcDbSpline
 62
7
  6
CONTINUOUS
 70
0
 71
3
 72
16
 73
12
 74
0
 42
0.0000001
 43
0.0000001
 44
0.0000000001
 40
0.0
 40
0.0
 40
0.0
 40
0.0
 40
0.2034189459
 40
0.3861788082
 40
0.5471554184
 40
0.6854381111
 40
0.8002477841
 40
0.8910142104
 40
0.9574539356
 40
0.9816359593
 40
1.0
 40
1.0
 40
1.0
 40
1.0
 10
159.1154423968
 20
15.4136133943
 30
0.0
 10
159.09404707
 20
15.0658641559
 30
0.0
 10
159.0504167815
 20
14.4058600337
 30
0.0
 10
158.9777290895
 20
13.4715184309
 30
0.0
 10
158.9017004919
 20
12.6493978313
 30
0.0
 10
158.8228594267
 20
11.9445685334
 30
0.0
 10
158.7421224927
 20
11.3610034746
 30
0.0
 10
158.6598582064
 20
10.9024558823
 30
0.0
 10
158.5863412548
 20
10.5998535439
 30
0.0
 10
158.522592064
 20
10.4243028109
 30
0.0
 10
158.4900034574
 20
10.3586630384
 30
0.0
 10
158.4727294138
 20
10.3323779678
 30
0.0
  0
SPLINE
  5
706
100
AcDbEntity
  8
0
100
AcDbSpline
 62
7
  6
CONTINUOUS
 70
0
 71
3
 72
9
 73
5
 74
0
 42
0.0000001
 43
0.0000001
 44
0.0000000001
 40
0.0
 40
0.0
 40
0.0
 40
0.0
 40
0.2049817217
 40
1.0
 40
1.0
 40
1.0
 40
1.0
 10
160.2492015235
 20
20.1140663039
 30
0.0
 10
160.2518058609
 20
20.1415842049
 30
0.0
 10
160.262338592
 20
20.2760327643
 30
0.0
 10
160.2680521246
 20
20.4107899994
 30
0.0
 10
160.2725192739
 20
20.5179015352
 30
0.0
  0
SPLINE
  5
707
100
AcDbEntity
  8
0
100
AcDbSpline
 62
7
  6
CONTINUOUS
 70
0
 71
3
 72
11
 73
7
 74
0
 42
0.0000001
 43
0.0000001
 44
0.0000000001
 40
0.0
 40
0.0
 40
0.0
 40
0.0
 40
0.1257307581
 40
0.3351380721
 40
0.6277098687
 40
1.0
 40
1.0
 40
1.0
 40
1.0
 10
158.8051112941
 20
11.8355447145
 30
0.0
 10
158.8129878283
 20
11.8420143659
 30
0.0
 10
158.8289329559
 20
11.86463693
 30
0.0
 10
158.8541972581
 20
11.9085387334
 30
0.0
 10
158.8852057526
 20
11.9724577413
 30
0.0
 10
158.906702773
 20
12.0218561718
 30
0.0
 10
158.9182971445
 20
12.0497217261
 30
0.0
  0
SPLINE
  5
708
100
AcDbEntity
  8
0
100
AcDbSpline
 62
7
  6
CONTINUOUS
 70
0
 71
3
 72
13
 73
9
 74
0
 42
0.0000001
 43
0.0000001
 44
0.0000000001
 40
0.0
 40
0.0
 40
0.0
 40
0.0
 40
0.2484410684
 40
0.3726310222
 40
0.4972051907
 40
0.6224965757
 40
0.7484989225
 40
1.0
 40
1.0
 40
1.0
 40
1.0
 10
159.4671905607
 20
14.0631867872
 30
0.0
 10
159.5128823704
 20
14.4396825129
 30
0.0
 10
159.533919153
 20
15.0090380826
 30
0.0
 10
159.5799538349
 20
15.7665702675
 30
0.0
 10
159.6401872238
 20
16.3347011364
 30
0.0
 10
159.7315913737
 20
16.9014342823
 30
0.0
 10
159.8837555804
 20
17.6535869608
 30
0.0
 10
160.0063095904
 20
18.2177092999
 30
0.0
 10
160.0556967873
 20
18.5984490112
 30
0.0
  0
SPLINE
  5
709
100
AcDbEntity
  8
0
100
AcDbSpline
 62
7
  6
CONTINUOUS
 70
0
 71
3
 72
16
 73
12
 74
0
 42
0.0000001
 43
0.0000001
 44
0.0000000001
 40
0.0
 40
0.0
 40
0.0
 40
0.0
 40
0.2034189459
 40
0.3861788082
 40
0.5471554184
 40
0.6854381111
 40
0.8002477841
 40
0.8910142104
 40
0.9574539356
 40
0.9816359593
 40
1.0
 40
1.0
 40
1.0
 40
1.0
 10
145.1702610067
 20
80.7918207089
 30
0.0
 10
145.1916563335
 20
81.1395699473
 30
0.0
 10
145.235286622
 20
81.7995740695
 30
0.0
 10
145.307974314
 20
82.7339156723
 30
0.0
 10
145.3840029116
 20
83.5560362719
 30
0.0
 10
145.4628439768
 20
84.2608655698
 30
0.0
 10
145.5435809108
 20
84.8444306286
 30
0.0
 10
145.6258451972
 20
85.3029782209
 30
0.0
 10
145.6993621487
 20
85.6055805593
 30
0.0
 10
145.7631113395
 20
85.7811312923
 30
0.0
 10
145.7956999461
 20
85.8467710648
 30
0.0
 10
145.8129739897
 20
85.8730561354
 30
0.0
  0
SPLINE
  5
70A
100
AcDbEntity
  8
0
100
AcDbSpline
 62
7
  6
CONTINUOUS
 70
0
 71
3
 72
9
 73
5
 74
0
 42
0.0000001
 43
0.0000001
 44
0.0000000001
 40
0.0
 40
0.0
 40
0.0
 40
0.0
 40
0.2049817217
 40
1.0
 40
1.0
 40
1.0
 40
1.0
 10
144.0365018801
 20
76.0913677993
 30
0.0
 10
144.0338975426
 20
76.0638498983
 30
0.0
 10
144.0233648115
 20
75.9294013389
 30
0.0
 10
144.0176512789
 20
75.7946441038
 30
0.0
 10
144.0131841296
 20
75.687532568
 30
0.0
  0
SPLINE
  5
70B
100
AcDbEntity
  8
0
100
AcDbSpline
 62
7
  6
CONTINUOUS
 70
0
 71
3
 72
11
 73
7
 74
0
 42
0.0000001
 43
0.0000001
 44
0.0000000001
 40
0.0
 40
0.0
 40
0.0
 40
0.0
 40
0.1257307581
 40
0.3351380721
 40
0.6277098687
 40
1.0
 40
1.0
 40
1.0
 40
1.0
 10
145.4805921094
 20
84.3698893887
 30
0.0
 10
145.4727155753
 20
84.3634197373
 30
0.0
 10
145.4567704477
 20
84.3407971732
 30
0.0
 10
145.4315061454
 20
84.2968953698
 30
0.0
 10
145.4004976509
 20
84.2329763619
 30
0.0
 10
145.3790006305
 20
84.1835779313
 30
0.0
 10
145.3674062591
 20
84.1557123771
 30
0.0
  0
SPLINE
  5
70C
100
AcDbEntity
  8
0
100
AcDbSpline
 62
7
  6
CONTINUOUS
 70
0
 71
3
 72
13
 73
9
 74
0
 42
0.0000001
 43
0.0000001
 44
0.0000000001
 40
0.0
 40
0.0
 40
0.0
 40
0.0
 40
0.2484410684
 40
0.3726310222
 40
0.4972051907
 40
0.6224965757
 40
0.7484989225
 40
1.0
 40
1.0
 40
1.0
 40
1.0
 10
144.8185128428
 20
82.142247316
 30
0.0
 10
144.7728210331
 20
81.7657515903
 30
0.0
 10
144.7517842505
 20
81.1963960206
 30
0.0
 10
144.7057495686
 20
80.4388638357
 30
0.0
 10
144.6455161797
 20
79.8707329668
 30
0.0
 10
144.5541120298
 20
79.3039998209
 30
0.0
 10
144.4019478232
 20
78.5518471424
 30
0.0
 10
144.2793938131
 20
77.9877248033
 30
0.0
 10
144.2300066163
 20
77.606985092
 30
0.0
  0
SPLINE
  5
70D
100
AcDbEntity
  8
0
100
AcDbSpline
 62
7
  6
CONTINUOUS
 70
0
 71
3
 72
13
 73
9
 74
0
 42
0.0000001
 43
0.0000001
 44
0.0000000001
 40
0.0
 40
0.0
 40
0.0
 40
0.0
 40
0.2484410684
 40
0.3726310222
 40
0.4972051907
 40
0.6224965757
 40
0.7484989225
 40
1.0
 40
1.0
 40
1.0
 40
1.0
 10
159.4671905607
 20
82.142247316
 30
0.0
 10
159.5128823704
 20
81.7657515903
 30
0.0
 10
159.533919153
 20
81.1963960206
 30
0.0
 10
159.5799538349
 20
80.4388638357
 30
0.0
 10
159.6401872238
 20
79.8707329668
 30
0.0
 10
159.7315913737
 20
79.3039998209
 30
0.0
 10
159.8837555804
 20
78.5518471424
 30
0.0
 10
160.0063095904
 20
77.9877248033
 30
0.0
 10
160.0556967873
 20
77.606985092
 30
0.0
  0
SPLINE
  5
70E
100
AcDbEntity
  8
0
100
AcDbSpline
 62
7
  6
CONTINUOUS
 70
0
 71
3
 72
11
 73
7
 74
0
 42
0.0000001
 43
0.0000001
 44
0.0000000001
 40
0.0
 40
0.0
 40
0.0
 40
0.0
 40
0.1257307581
 40
0.3351380721
 40
0.6277098687
 40
1.0
 40
1.0
 40
1.0
 40
1.0
 10
158.8051112941
 20
84.3698893887
 30
0.0
 10
158.8129878283
 20
84.3634197373
 30
0.0
 10
158.8289329559
 20
84.3407971732
 30
0.0
 10
158.8541972581
 20
84.2968953698
 30
0.0
 10
158.8852057526
 20
84.2329763619
 30
0.0
 10
158.906702773
 20
84.1835779313
 30
0.0
 10
158.9182971445
 20
84.1557123771
 30
0.0
  0
SPLINE
  5
70F
100
AcDbEntity
  8
0
100
AcDbSpline
 62
7
  6
CONTINUOUS
 70
0
 71
3
 72
9
 73
5
 74
0
 42
0.0000001
 43
0.0000001
 44
0.0000000001
 40
0.0
 40
0.0
 40
0.0
 40
0.0
 40
0.2049817066
 40
1.0
 40
1.0
 40
1.0
 40
1.0
 10
160.2492015235
 20
76.0913677993
 30
0.0
 10
160.2518058622
 20
76.0638498842
 30
0.0
 10
160.2623385984
 20
75.9294012458
 30
0.0
 10
160.2680521326
 20
75.7946439314
 30
0.0
 10
160.2725192838
 20
75.6875323307
 30
0.0
  0
SPLINE
  5
710
100
AcDbEntity
  8
0
100
AcDbSpline
 62
7
  6
CONTINUOUS
 70
0
 71
3
 72
16
 73
12
 74
0
 42
0.0000001
 43
0.0000001
 44
0.0000000001
 40
0.0
 40
0.0
 40
0.0
 40
0.0
 40
0.2034189358
 40
0.3861787907
 40
0.5471553962
 40
0.6854380873
 40
0.8002477618
 40
0.8910141927
 40
0.9574539255
 40
0.981635954
 40
1.0
 40
1.0
 40
1.0
 40
1.0
 10
159.1154423968
 20
80.7918207089
 30
0.0
 10
159.0940470714
 20
81.1395699239
 30
0.0
 10
159.0504167859
 20
81.7995740045
 30
0.0
 10
158.9777290993
 20
82.7339155531
 30
0.0
 10
158.9017005075
 20
83.5560361151
 30
0.0
 10
158.8228594482
 20
84.2608653929
 30
0.0
 10
158.7421225201
 20
84.8444304497
 30
0.0
 10
158.6598582397
 20
85.3029780588
 30
0.0
 10
158.5863412931
 20
85.6055804222
 30
0.0
 10
158.5225921084
 20
85.7811311862
 30
0.0
 10
158.4900035052
 20
85.8467709774
 30
0.0
 10
158.4727294637
 20
85.8730560595
 30
0.0
  0
LINE
  5
711
100
AcDbEntity
  8
0
100
AcDbLine
 62
7
  6
CONTINUOUS
 10
143.654822121
 20
57.6708501159
 11
143.6559038675
 21
57.5793216169
  0
SPLINE
  5
712
100
AcDbEntity
  8
0
100
AcDbSpline
 62
7
  6
CONTINUOUS
 70
0
 71
3
 72
9
 73
5
 74
0
 42
0.0000001
 43
0.0000001
 44
0.0000000001
 40
0.0
 40
0.0
 40
0.0
 40
0.0
 40
0.4998831609
 40
1.0
 40
1.0
 40
1.0
 40
1.0
 10
143.6559038675
 20
57.5793216169
 30
0.0
 10
143.6751284883
 20
55.9943451446
 30
0.0
 10
143.7624239089
 20
52.8241718263
 30
0.0
 10
144.0995936484
 20
49.6625292122
 30
0.0
 10
144.3856978431
 20
48.1027170516
 30
0.0
  0
SPLINE
  5
713
100
AcDbEntity
  8
0
100
AcDbSpline
 62
7
  6
CONTINUOUS
 70
0
 71
3
 72
9
 73
5
 74
0
 42
0.0000001
 43
0.0000001
 44
0.0000000001
 40
0.0
 40
0.0
 40
0.0
 40
0.0
 40
0.4485502249
 40
1.0
 40
1.0
 40
1.0
 40
1.0
 10
144.0131841296
 20
75.687532568
 30
0.0
 10
144.0050626844
 20
75.4927997759
 30
0.0
 10
143.9894873854
 20
75.0585604536
 30
0.0
 10
143.9724876087
 20
74.6243775436
 30
0.0
 10
143.963840604
 20
74.3849200842
 30
0.0
  0
LINE
  5
714
100
AcDbEntity
  8
0
100
AcDbLine
 62
7
  6
CONTINUOUS
 10
160.6308812825
 20
38.5345839873
 11
160.629799536
 21
38.6261124863
  0
SPLINE
  5
715
100
AcDbEntity
  8
0
100
AcDbSpline
 62
7
  6
CONTINUOUS
 70
0
 71
3
 72
9
 73
5
 74
0
 42
0.0000001
 43
0.0000001
 44
0.0000000001
 40
0.0
 40
0.0
 40
0.0
 40
0.0
 40
0.4998831609
 40
1.0
 40
1.0
 40
1.0
 40
1.0
 10
160.629799536
 20
38.6261124863
 30
0.0
 10
160.6105749152
 20
40.2110889586
 30
0.0
 10
160.5232794946
 20
43.3812622769
 30
0.0
 10
160.1861097551
 20
46.542904891
 30
0.0
 10
159.9000055604
 20
48.1027170516
 30
0.0
  0
SPLINE
  5
716
100
AcDbEntity
  8
RUNDUNGEN
100
AcDbSpline
 62
7
  6
CONTINUOUS
 70
0
 71
3
 72
9
 73
5
 74
0
 42
0.0000001
 43
0.0000001
 44
0.0000000001
 40
0.0
 40
0.0
 40
0.0
 40
0.0
 40
0.4485502442
 40
1.0
 40
1.0
 40
1.0
 40
1.0
 10
144.0131841197
 20
20.5179017725
 30
0.0
 10
144.0050626771
 20
20.7126345375
 30
0.0
 10
143.9894873801
 20
21.1468737806
 30
0.0
 10
143.9724876069
 20
21.5810566116
 30
0.0
 10
143.963840604
 20
21.820514019
 30
0.0
  0
SPLINE
  5
717
100
AcDbEntity
  8
0
100
AcDbSpline
 62
7
  6
CONTINUOUS
 70
0
 71
3
 72
9
 73
5
 74
0
 42
0.0000001
 43
0.0000001
 44
0.0000000001
 40
0.0
 40
0.0
 40
0.0
 40
0.0
 40
0.4485502442
 40
1.0
 40
1.0
 40
1.0
 40
1.0
 10
160.2725192838
 20
75.6875323307
 30
0.0
 10
160.2806407264
 20
75.4927995657
 30
0.0
 10
160.2962160234
 20
75.0585603226
 30
0.0
 10
160.3132157967
 20
74.6243774916
 30
0.0
 10
160.3218627995
 20
74.3849200842
 30
0.0
  0
LINE
  5
718
100
AcDbEntity
  8
0
100
AcDbLine
 62
7
  6
CONTINUOUS
 10
143.654822121
 20
38.5345839873
 11
143.6559038675
 21
38.6261124863
  0
SPLINE
  5
719
100
AcDbEntity
  8
0
100
AcDbSpline
 62
7
  6
CONTINUOUS
 70
0
 71
3
 72
9
 73
5
 74
0
 42
0.0000001
 43
0.0000001
 44
0.0000000001
 40
0.0
 40
0.0
 40
0.0
 40
0.0
 40
0.4998831609
 40
1.0
 40
1.0
 40
1.0
 40
1.0
 10
143.6559038675
 20
38.6261124863
 30
0.0
 10
143.6751284883
 20
40.2110889586
 30
0.0
 10
143.7624239089
 20
43.3812622769
 30
0.0
 10
144.0995936484
 20
46.542904891
 30
0.0
 10
144.3856978431
 20
48.1027170516
 30
0.0
  0
LINE
  5
71A
100
AcDbEntity
  8
0
100
AcDbLine
 62
7
  6
CONTINUOUS
 10
160.6308812825
 20
57.6708501159
 11
160.629799536
 21
57.5793216169
  0
SPLINE
  5
71B
100
AcDbEntity
  8
0
100
AcDbSpline
 62
7
  6
CONTINUOUS
 70
0
 71
3
 72
9
 73
5
 74
0
 42
0.0000001
 43
0.0000001
 44
0.0000000001
 40
0.0
 40
0.0
 40
0.0
 40
0.0
 40
0.4998831609
 40
1.0
 40
1.0
 40
1.0
 40
1.0
 10
160.629799536
 20
57.5793216169
 30
0.0
 10
160.6105749152
 20
55.9943451446
 30
0.0
 10
160.5232794946
 20
52.8241718263
 30
0.0
 10
160.1861097551
 20
49.6625292122
 30
0.0
 10
159.9000055604
 20
48.1027170516
 30
0.0
  0
SPLINE
  5
71C
100
AcDbEntity
  8
0
100
AcDbSpline
 62
7
  6
CONTINUOUS
 70
0
 71
3
 72
9
 73
5
 74
0
 42
0.0000001
 43
0.0000001
 44
0.0000000001
 40
0.0
 40
0.0
 40
0.0
 40
0.0
 40
0.4485502249
 40
1.0
 40
1.0
 40
1.0
 40
1.0
 10
160.2725192739
 20
20.5179015352
 30
0.0
 10
160.2806407191
 20
20.7126343273
 30
0.0
 10
160.2962160181
 20
21.1468736496
 30
0.0
 10
160.3132157948
 20
21.5810565596
 30
0.0
 10
160.3218627995
 20
21.820514019
 30
0.0
  0
ELLIPSE
  5
71D
100
AcDbEntity
  8
RUNDUNGEN
100
AcDbEllipse
 62
7
  6
CONTINUOUS
 10
152.0428517018
 20
227.0198236829
 30
0.0
 11
-0.0
 21
14.7970977515
 31
0.0
 40
0.4663076582
 41
-4.7123889804
 42
-4.6979401544
  0
ELLIPSE
  5
71E
100
AcDbEntity
  8
0
100
AcDbEllipse
 62
7
  6
CONTINUOUS
 10
152.2428517018
 20
227.0198236829
 30
0.0
 11
0.0
 21
14.7970977515
 31
0.0
 40
0.4663076582
 41
-1.5852451528
 42
-1.5707963268
  0
ELLIPSE
  5
71F
100
AcDbEntity
  8
0
100
AcDbEllipse
 62
7
  6
CONTINUOUS
 10
152.2428517018
 20
227.448725067
 30
0.0
 11
-0.0
 21
14.7970977515
 31
0.0
 40
0.4663076582
 41
-1.5707963268
 42
-1.293281665
  0
ELLIPSE
  5
720
100
AcDbEntity
  8
0
100
AcDbEllipse
 62
7
  6
CONTINUOUS
 10
152.2428517018
 20
223.7564330588
 30
0.0
 11
-0.0
 21
8.3636430269
 31
0.0
 40
0.8249993427
 41
-2.1624398393
 42
-1.5860301549
  0
ELLIPSE
  5
721
100
AcDbEntity
  8
RUNDUNGEN
100
AcDbEllipse
 62
7
  6
CONTINUOUS
 10
152.0428517018
 20
227.448725067
 30
0.0
 11
0.0
 21
14.7970977515
 31
0.0
 40
0.4663076582
 41
1.293281665
 42
1.5707963268
  0
ELLIPSE
  5
722
100
AcDbEntity
  8
RUNDUNGEN
100
AcDbEllipse
 62
7
  6
CONTINUOUS
 10
152.0428517018
 20
223.7564330588
 30
0.0
 11
0.0
 21
8.3636430269
 31
0.0
 40
0.8249993427
 41
-4.6971551523
 42
-4.1207454679
  0
ELLIPSE
  5
723
100
AcDbEntity
  8
0
100
AcDbEllipse
 62
7
  6
CONTINUOUS
 10
123.6428517018
 20
153.4889125322
 30
0.0
 11
0.0
 21
78.1275194835
 31
0.0
 40
0.3263894741
 41
1.5416745637
 42
1.5457610397
  0
ELLIPSE
  5
724
100
AcDbEntity
  8
0
100
AcDbEllipse
 62
7
  6
CONTINUOUS
 10
123.6428517018
 20
158.9352915008
 30
0.0
 11
25.5
 21
-0.0
 31
0.0
 40
0.1702127457
 41
2.9644918483
 42
2.9893384253
  0
ELLIPSE
  5
725
100
AcDbEntity
  8
0
100
AcDbEllipse
 62
7
  6
CONTINUOUS
 10
123.6428517018
 20
157.6186954422
 30
0.0
 11
25.5
 21
0.0
 31
0.0
 40
0.5106383587
 41
2.9893384253
 42
3.0058493631
  0
ELLIPSE
  5
726
100
AcDbEntity
  8
0
100
AcDbEllipse
 62
7
  6
CONTINUOUS
 10
123.6428517018
 20
155.8565700426
 30
0.0
 11
0.0
 21
26.0425376689
 31
0.0
 40
0.9791672503
 41
1.4350530363
 42
1.4515268313
  0
ELLIPSE
  5
727
100
AcDbEntity
  8
0
100
AcDbEllipse
 62
7
  6
CONTINUOUS
 10
123.6428517018
 20
204.2486197848
 30
0.0
 11
0.0
 21
52.0847027992
 31
0.0
 40
0.4895871269
 41
-3.9150634651
 42
-3.9091986017
  0
ELLIPSE
  5
728
100
AcDbEntity
  8
0
100
AcDbEllipse
 62
7
  6
CONTINUOUS
 10
123.6428517018
 20
185.6157859147
 30
0.0
 11
0.0
 21
26.0426494318
 31
0.0
 40
0.9791630482
 41
-3.9266888206
 42
-3.9150634651
  0
ELLIPSE
  5
729
100
AcDbEntity
  8
0
100
AcDbEllipse
 62
7
  6
CONTINUOUS
 10
123.6428517018
 20
173.3354328809
 30
0.0
 11
25.5
 21
0.0
 31
0.0
 40
0.3404254913
 41
-2.3730818034
 42
-2.3558924938
  0
ELLIPSE
  5
72A
100
AcDbEntity
  8
0
100
AcDbEllipse
 62
7
  6
CONTINUOUS
 10
123.6428517018
 20
166.3900198066
 30
0.0
 11
25.5
 21
0.0
 31
0.0
 40
0.2042556244
 41
-2.4445398085
 42
-2.4175940178
  0
ELLIPSE
  5
72B
100
AcDbEntity
  8
0
100
AcDbEllipse
 62
7
  6
CONTINUOUS
 10
123.6428517018
 20
173.0773489479
 30
0.0
 11
25.5
 21
0.0
 31
0.0
 40
0.6127668731
 41
-2.4708907786
 42
-2.4445398085
  0
ELLIPSE
  5
72C
100
AcDbEntity
  8
0
100
AcDbEllipse
 62
7
  6
CONTINUOUS
 10
123.6428517018
 20
190.3428129315
 30
0.0
 11
0.0
 21
43.4042592645
 31
0.0
 40
0.5874999466
 41
-4.0572353443
 42
-4.0416871054
  0
ELLIPSE
  5
72D
100
AcDbEntity
  8
0
100
AcDbEllipse
 62
7
  6
CONTINUOUS
 10
123.6428517018
 20
227.3658667289
 30
0.0
 11
0.0
 21
104.1694055984
 31
0.0
 40
0.2447935635
 41
-4.06237683
 42
-4.0572353443
  0
ELLIPSE
  5
72E
100
AcDbEntity
  8
0
100
AcDbEllipse
 62
7
  6
CONTINUOUS
 10
123.6428517018
 20
159.0529340562
 30
0.0
 11
25.5
 21
-0.0
 31
0.0
 40
0.2553200925
 41
2.3500969839
 42
2.3730818034
  0
ELLIPSE
  5
72F
100
AcDbEntity
  8
0
100
AcDbEllipse
 62
7
  6
CONTINUOUS
 10
123.6428517018
 20
151.3334451121
 30
0.0
 11
25.5
 21
0.0
 31
0.0
 40
0.6808512211
 41
2.3325016849
 42
2.3500969839
  0
ELLIPSE
  5
730
100
AcDbEntity
  8
0
100
AcDbEllipse
 62
7
  6
CONTINUOUS
 10
123.6428517018
 20
135.6287031944
 30
0.0
 11
0.0
 21
39.0635270994
 31
0.0
 40
0.6527828359
 41
0.7497927885
 42
0.7617053581
  0
ELLIPSE
  5
731
100
AcDbEntity
  8
0
100
AcDbEllipse
 62
7
  6
CONTINUOUS
 10
123.6428517018
 20
193.1235950558
 30
0.0
 11
-0.0
 21
39.0635453383
 31
0.0
 40
0.6527825311
 41
-3.9032980117
 42
-3.8913854421
  0
ELLIPSE
  5
732
100
AcDbEntity
  8
0
100
AcDbEllipse
 62
7
  6
CONTINUOUS
 10
123.6428517018
 20
177.4188355398
 30
0.0
 11
25.5
 21
0.0
 31
0.0
 40
0.6808509827
 41
-2.3500969839
 42
-2.3325016849
  0
ELLIPSE
  5
733
100
AcDbEntity
  8
0
100
AcDbEllipse
 62
7
  6
CONTINUOUS
 10
123.6428517018
 20
169.6993509207
 30
0.0
 11
25.5
 21
0.0
 31
0.0
 40
0.2553200925
 41
-2.3730818034
 42
-2.3500969839
  0
ELLIPSE
  5
734
100
AcDbEntity
  8
0
100
AcDbEllipse
 62
7
  6
CONTINUOUS
 10
123.6428517018
 20
169.5397508819
 30
0.0
 11
25.5
 21
0.0
 31
0.0
 40
0.2553186315
 41
-2.4284475283
 42
-2.4066352082
  0
ELLIPSE
  5
735
100
AcDbEntity
  8
0
100
AcDbEllipse
 62
7
  6
CONTINUOUS
 10
123.6428517018
 20
173.7991039522
 30
0.0
 11
25.5
 21
-0.0
 31
0.0
 40
0.510637263
 41
-2.4498557702
 42
-2.4284475283
  0
ELLIPSE
  5
736
100
AcDbEntity
  8
0
100
AcDbEllipse
 62
7
  6
CONTINUOUS
 10
123.6428517018
 20
182.105139215
 30
0.0
 11
0.0
 21
26.0426494318
 31
0.0
 40
0.9791630482
 41
-4.0416871054
 42
-4.020652097
  0
ELLIPSE
  5
737
100
AcDbEntity
  8
0
100
AcDbEllipse
 62
7
  6
CONTINUOUS
 10
123.6428517018
 20
230.6637290856
 30
0.0
 11
0.0
 21
104.1694055984
 31
0.0
 40
0.2447935635
 41
-4.04689093
 42
-4.0416871054
  0
ELLIPSE
  5
738
100
AcDbEntity
  8
0
100
AcDbEllipse
 62
7
  6
CONTINUOUS
 10
123.6428517018
 20
102.4502580206
 30
0.0
 11
0.0
 21
104.1694055984
 31
0.0
 40
0.2447935635
 41
0.9000944518
 42
0.9052982764
  0
ELLIPSE
  5
739
100
AcDbEntity
  8
0
100
AcDbEllipse
 62
7
  6
CONTINUOUS
 10
123.6428517018
 20
151.0088478912
 30
0.0
 11
-0.0
 21
26.0426494318
 31
0.0
 40
0.9791630482
 41
0.8790594434
 42
0.9000944518
  0
ELLIPSE
  5
73A
100
AcDbEntity
  8
0
100
AcDbEllipse
 62
7
  6
CONTINUOUS
 10
123.6428517018
 20
159.314883154
 30
0.0
 11
25.5
 21
0.0
 31
0.0
 40
0.510637263
 41
2.4284475283
 42
2.4498557702
  0
ELLIPSE
  5
73B
100
AcDbEntity
  8
0
100
AcDbEllipse
 62
7
  6
CONTINUOUS
 10
123.6428517018
 20
163.5742362243
 30
0.0
 11
25.5
 21
0.0
 31
0.0
 40
0.2553186315
 41
2.4066352082
 42
2.4284475283
  0
ELLIPSE
  5
73C
100
AcDbEntity
  8
0
100
AcDbEllipse
 62
7
  6
CONTINUOUS
 10
123.6428517018
 20
165.4964014501
 30
0.0
 11
25.5
 21
0.0
 31
0.0
 40
0.2042556244
 41
-2.6518575364
 42
-2.6285654719
  0
ELLIPSE
  5
73D
100
AcDbEntity
  8
0
100
AcDbEllipse
 62
7
  6
CONTINUOUS
 10
123.6428517018
 20
169.1714500105
 30
0.0
 11
25.5
 21
0.0
 31
0.0
 40
0.5106373301
 41
-2.6702844432
 42
-2.6518575364
  0
ELLIPSE
  5
73E
100
AcDbEntity
  8
0
100
AcDbEllipse
 62
7
  6
CONTINUOUS
 10
123.6428517018
 20
175.0838459688
 30
0.0
 11
0.0
 21
26.0426517117
 31
0.0
 40
0.9791629624
 41
-4.2593361119
 42
-4.24108077
  0
ELLIPSE
  5
73F
100
AcDbEntity
  8
0
100
AcDbEllipse
 62
7
  6
CONTINUOUS
 10
123.6428517018
 20
186.4827799311
 30
0.0
 11
-0.0
 21
52.0847119186
 31
0.0
 40
0.4895870412
 41
-4.2684029355
 42
-4.2593361119
  0
ELLIPSE
  5
740
100
AcDbEntity
  8
0
100
AcDbEllipse
 62
7
  6
CONTINUOUS
 10
123.6428517018
 20
220.0429426701
 30
0.0
 11
-0.0
 21
130.2147373541
 31
0.0
 40
0.1958303685
 41
-4.2729215654
 42
-4.2684029355
  0
ELLIPSE
  5
741
100
AcDbEntity
  8
0
100
AcDbEllipse
 62
7
  6
CONTINUOUS
 10
123.6428517018
 20
160.2763619293
 30
0.0
 11
25.5
 21
-0.0
 31
0.0
 40
0.2553186315
 41
2.5906428039
 42
2.6097099402
  0
ELLIPSE
  5
742
100
AcDbEntity
  8
0
100
AcDbEllipse
 62
7
  6
CONTINUOUS
 10
123.6428517018
 20
154.5958561309
 30
0.0
 11
25.5
 21
-0.0
 31
0.0
 40
0.6808512211
 41
2.5761949552
 42
2.5906428039
  0
ELLIPSE
  5
743
100
AcDbEntity
  8
0
100
AcDbEllipse
 62
7
  6
CONTINUOUS
 10
123.6428517018
 20
142.9688299069
 30
0.0
 11
0.0
 21
39.0639741477
 31
0.0
 40
0.6527753654
 41
0.9956929168
 42
1.0053986284
  0
ELLIPSE
  5
744
100
AcDbEntity
  8
0
100
AcDbEllipse
 62
7
  6
CONTINUOUS
 10
123.6428517018
 20
107.5565815061
 30
0.0
 11
0.0
 21
104.1694055984
 31
0.0
 40
0.2447935635
 41
0.9908170923
 42
0.9956929168
  0
ELLIPSE
  5
745
100
AcDbEntity
  8
0
100
AcDbEllipse
 62
7
  6
CONTINUOUS
 10
123.6428517018
 20
164.3884830243
 30
0.0
 11
25.5
 21
0.0
 31
0.0
 40
0.3404254913
 41
2.9643922504
 42
2.9768285764
  0
ELLIPSE
  5
746
100
AcDbEntity
  8
0
100
AcDbEllipse
 62
7
  6
CONTINUOUS
 10
123.6428517018
 20
161.3280403453
 30
0.0
 11
-0.0
 21
26.0426494318
 31
0.0
 40
0.9791630482
 41
1.3852897798
 42
1.3935959236
  0
ELLIPSE
  5
747
100
AcDbEntity
  8
0
100
AcDbEllipse
 62
7
  6
CONTINUOUS
 10
123.6428517018
 20
151.7213628671
 30
0.0
 11
-0.0
 21
78.1270541988
 31
0.0
 40
0.3263914179
 41
1.3811318371
 42
1.3852897798
  0
ELLIPSE
  5
748
100
AcDbEntity
  8
0
100
AcDbEllipse
 62
7
  6
CONTINUOUS
 10
123.6428517018
 20
181.4990072052
 30
0.0
 11
0.0
 21
78.1270541988
 31
0.0
 40
0.3263914179
 41
-4.5268824334
 42
-4.5227244907
  0
ELLIPSE
  5
749
100
AcDbEntity
  8
0
100
AcDbEllipse
 62
7
  6
CONTINUOUS
 10
123.6428517018
 20
171.892329727
 30
0.0
 11
0.0
 21
26.0426494318
 31
0.0
 40
0.9791630482
 41
-4.5351885772
 42
-4.5268824334
  0
ELLIPSE
  5
74A
100
AcDbEntity
  8
0
100
AcDbEllipse
 62
7
  6
CONTINUOUS
 10
123.6428517018
 20
168.831887048
 30
0.0
 11
25.5
 21
0.0
 31
0.0
 40
0.3404254913
 41
-2.9768285764
 42
-2.9643922504
  0
ELLIPSE
  5
74B
100
AcDbEntity
  8
0
100
AcDbEllipse
 62
7
  6
CONTINUOUS
 10
123.6428517018
 20
204.0358525911
 30
0.0
 11
-0.0
 21
52.0847210381
 31
0.0
 40
0.4895869555
 41
-3.8670894241
 42
-3.8546890616
  0
ELLIPSE
  5
74C
100
AcDbEntity
  8
0
100
AcDbEllipse
 62
7
  6
CONTINUOUS
 10
123.6428517018
 20
159.3197113697
 30
0.0
 11
25.0
 21
-0.0
 31
0.0
 40
0.2042556244
 41
2.3235632914
 42
2.3535606985
  0
ELLIPSE
  5
74D
100
AcDbEntity
  8
0
100
AcDbEllipse
 62
7
  6
CONTINUOUS
 10
123.6428517018
 20
153.7297771485
 30
0.0
 11
25.0
 21
0.0
 31
0.0
 40
0.5106373301
 41
2.2988563687
 42
2.3235632914
  0
ELLIPSE
  5
74E
100
AcDbEntity
  8
0
100
AcDbEllipse
 62
7
  6
CONTINUOUS
 10
123.6428517018
 20
144.2003248801
 30
0.0
 11
0.0
 21
25.532011482
 31
0.0
 40
0.9791629624
 41
0.7026484918
 42
0.7280600419
  0
ELLIPSE
  5
74F
100
AcDbEntity
  8
0
100
AcDbEllipse
 62
7
  6
CONTINUOUS
 10
123.6428517018
 20
124.7164392088
 30
0.0
 11
-0.0
 21
51.0634430575
 31
0.0
 40
0.4895870412
 41
0.6896532334
 42
0.7026484918
  0
ELLIPSE
  5
750
100
AcDbEntity
  8
0
100
AcDbEllipse
 62
7
  6
CONTINUOUS
 10
123.6428517018
 20
204.0358525911
 30
0.0
 11
-0.0
 21
51.0634519981
 31
0.0
 40
0.4895869555
 41
-3.8442411454
 42
-3.831245887
  0
ELLIPSE
  5
751
100
AcDbEntity
  8
0
100
AcDbEllipse
 62
7
  6
CONTINUOUS
 10
123.6428517018
 20
184.5519583911
 30
0.0
 11
-0.0
 21
25.5320092469
 31
0.0
 40
0.9791630482
 41
-3.8696526955
 42
-3.8442411454
  0
ELLIPSE
  5
752
100
AcDbEntity
  8
0
100
AcDbEllipse
 62
7
  6
CONTINUOUS
 10
123.6428517018
 20
175.0225065399
 30
0.0
 11
25.0
 21
0.0
 31
0.0
 40
0.510637263
 41
-2.3235632914
 42
-2.2988563687
  0
ELLIPSE
  5
753
100
AcDbEntity
  8
0
100
AcDbEllipse
 62
7
  6
CONTINUOUS
 10
123.6428517018
 20
169.4325732158
 30
0.0
 11
25.0
 21
0.0
 31
0.0
 40
0.2042556065
 41
-2.3535606985
 42
-2.3235632914
  0
ELLIPSE
  5
754
100
AcDbEntity
  8
0
100
AcDbEllipse
 62
7
  6
CONTINUOUS
 10
123.6428517018
 20
171.6333051262
 30
0.0
 11
25.0
 21
-0.0
 31
0.0
 40
0.3404254913
 41
3.877778928
 42
3.8947789842
  0
ELLIPSE
  5
755
100
AcDbEntity
  8
0
100
AcDbEllipse
 62
7
  6
CONTINUOUS
 10
123.6428517018
 20
177.3479146446
 30
0.0
 11
25.0
 21
0.0
 31
0.0
 40
0.6808509827
 41
-2.4221484776
 42
-2.4054063791
  0
ELLIPSE
  5
756
100
AcDbEntity
  8
0
100
AcDbEllipse
 62
7
  6
CONTINUOUS
 10
123.6428517018
 20
216.6051154276
 30
0.0
 11
0.0
 21
76.5951511753
 31
0.0
 40
0.3263914179
 41
-3.9984710098
 42
-3.9929448044
  0
ELLIPSE
  5
757
100
AcDbEntity
  8
0
100
AcDbEllipse
 62
7
  6
CONTINUOUS
 10
123.6428517018
 20
116.508824546
 30
0.0
 11
0.0
 21
76.5952227003
 31
0.0
 40
0.3263911132
 41
0.8513521508
 42
0.8568783562
  0
ELLIPSE
  5
758
100
AcDbEntity
  8
0
100
AcDbEllipse
 62
7
  6
CONTINUOUS
 10
123.6428517018
 20
155.7660724616
 30
0.0
 11
25.0
 21
-0.0
 31
0.0
 40
0.6808509827
 41
2.4054063791
 42
2.4221484776
  0
ELLIPSE
  5
759
100
AcDbEntity
  8
0
100
AcDbEllipse
 62
7
  6
CONTINUOUS
 10
123.6428517018
 20
161.48068198
 30
0.0
 11
25.0
 21
0.0
 31
0.0
 40
0.3404254913
 41
2.391144811
 42
2.4054063791
  0
ELLIPSE
  5
75A
100
AcDbEntity
  8
0
100
AcDbEllipse
 62
7
  6
CONTINUOUS
 10
123.6428517018
 20
124.7164392088
 30
0.0
 11
0.0
 21
52.0847119186
 31
0.0
 40
0.4895870412
 41
0.713096408
 42
0.7254967705
  0
ELLIPSE
  5
75B
100
AcDbEntity
  8
0
100
AcDbEllipse
 62
7
  6
CONTINUOUS
 10
123.6428517018
 20
144.2003248801
 30
0.0
 11
-0.0
 21
26.0426517117
 31
0.0
 40
0.9791629624
 41
0.7254967705
 42
0.7497927885
  0
ELLIPSE
  5
75C
100
AcDbEntity
  8
0
100
AcDbEllipse
 62
7
  6
CONTINUOUS
 10
123.6428517018
 20
153.7297771485
 30
0.0
 11
25.5
 21
0.0
 31
0.0
 40
0.5106373301
 41
2.3205891153
 42
2.3442671383
  0
ELLIPSE
  5
75D
100
AcDbEntity
  8
0
100
AcDbEllipse
 62
7
  6
CONTINUOUS
 10
123.6428517018
 20
159.3197113697
 30
0.0
 11
25.5
 21
0.0
 31
0.0
 40
0.2042556244
 41
2.3442671383
 42
2.3730818034
  0
ELLIPSE
  5
75E
100
AcDbEntity
  8
0
100
AcDbEllipse
 62
7
  6
CONTINUOUS
 10
123.6428517018
 20
149.7001011216
 30
0.0
 11
0.0
 21
78.1270541988
 31
0.0
 40
0.3263914179
 41
1.3561117919
 42
1.3602908786
  0
ELLIPSE
  5
75F
100
AcDbEntity
  8
0
100
AcDbEllipse
 62
7
  6
CONTINUOUS
 10
123.6428517018
 20
158.7694776841
 30
0.0
 11
0.0
 21
34.723400116
 31
0.0
 40
0.7343750875
 41
1.3602908786
 42
1.3728060022
  0
ELLIPSE
  5
760
100
AcDbEntity
  8
0
100
AcDbEllipse
 62
7
  6
CONTINUOUS
 10
123.6428517018
 20
161.757618227
 30
0.0
 11
25.5
 21
-0.0
 31
0.0
 40
0.7659602774
 41
2.943602329
 42
2.9602407123
  0
ELLIPSE
  5
761
100
AcDbEntity
  8
0
100
AcDbEllipse
 62
7
  6
CONTINUOUS
 10
123.6428517018
 20
164.3409963728
 30
0.0
 11
25.5
 21
0.0
 31
0.0
 40
0.2042546715
 41
2.9602407123
 42
2.9809682443
  0
ELLIPSE
  5
762
100
AcDbEntity
  8
0
100
AcDbEllipse
 62
7
  6
CONTINUOUS
 10
123.6428517018
 20
213.5200165681
 30
0.0
 11
-0.0
 21
78.1270541988
 31
0.0
 40
0.3263914179
 41
-4.0312144378
 42
-4.0259446336
  0
ELLIPSE
  5
763
100
AcDbEntity
  8
0
100
AcDbEllipse
 62
7
  6
CONTINUOUS
 10
123.6428517018
 20
180.5093366823
 30
0.0
 11
-0.0
 21
26.0425561666
 31
0.0
 40
0.9791665548
 41
-4.0259446336
 42
-4.0099964068
  0
ELLIPSE
  5
764
100
AcDbEntity
  8
0
100
AcDbEllipse
 62
7
  6
CONTINUOUS
 10
123.6428517018
 20
167.890839057
 30
0.0
 11
25.5
 21
0.0
 31
0.0
 40
0.2553200925
 41
-2.43920008
 42
-2.4175940178
  0
ELLIPSE
  5
765
100
AcDbEntity
  8
0
100
AcDbEllipse
 62
7
  6
CONTINUOUS
 10
123.6428517018
 20
168.7729907335
 30
0.0
 11
25.5
 21
-0.0
 31
0.0
 40
0.2042546715
 41
-2.9809682443
 42
-2.9602407123
  0
ELLIPSE
  5
766
100
AcDbEntity
  8
0
100
AcDbEllipse
 62
7
  6
CONTINUOUS
 10
123.6428517018
 20
171.3563688792
 30
0.0
 11
25.5
 21
-0.0
 31
0.0
 40
0.7659602774
 41
-2.9602407123
 42
-2.943602329
  0
ELLIPSE
  5
767
100
AcDbEntity
  8
0
100
AcDbEllipse
 62
7
  6
CONTINUOUS
 10
123.6428517018
 20
174.3445094221
 30
0.0
 11
-0.0
 21
34.723400116
 31
0.0
 40
0.7343750875
 41
-4.5143986558
 42
-4.5018835321
  0
ELLIPSE
  5
768
100
AcDbEntity
  8
0
100
AcDbEllipse
 62
7
  6
CONTINUOUS
 10
123.6428517018
 20
183.4138859846
 30
0.0
 11
-0.0
 21
78.1270541988
 31
0.0
 40
0.3263914179
 41
-4.5018835321
 42
-4.4977044455
  0
ELLIPSE
  5
769
100
AcDbEntity
  8
0
100
AcDbEllipse
 62
7
  6
CONTINUOUS
 10
123.6428517018
 20
155.1653339737
 30
0.0
 11
25.0
 21
0.0
 31
0.0
 40
0.2042554442
 41
3.141592608
 42
3.1493927327
  0
ELLIPSE
  5
76A
100
AcDbEntity
  8
0
100
AcDbEllipse
 62
7
  6
CONTINUOUS
 10
123.6428517018
 20
161.48068198
 30
0.0
 11
25.5
 21
-0.0
 31
0.0
 40
0.3404254913
 41
2.4066352082
 42
2.4230335884
  0
ELLIPSE
  5
76B
100
AcDbEntity
  8
0
100
AcDbEllipse
 62
7
  6
CONTINUOUS
 10
123.6428517018
 20
171.5389560467
 30
0.0
 11
25.5
 21
-0.0
 31
0.0
 40
0.2042556065
 41
-2.3787482354
 42
-2.3500969839
  0
ELLIPSE
  5
76C
100
AcDbEntity
  8
0
100
AcDbEllipse
 62
7
  6
CONTINUOUS
 10
123.6428517018
 20
181.7286669097
 30
0.0
 11
25.5
 21
-0.0
 31
0.0
 40
0.7659558946
 41
-2.3500969839
 42
-2.3265642229
  0
ELLIPSE
  5
76D
100
AcDbEntity
  8
0
100
AcDbEllipse
 62
7
  6
CONTINUOUS
 10
123.6428517018
 20
192.7842246181
 30
0.0
 11
-0.0
 21
34.723400116
 31
0.0
 40
0.7343750875
 41
-3.8973605497
 42
-3.879318622
  0
ELLIPSE
  5
76E
100
AcDbEntity
  8
0
100
AcDbEllipse
 62
7
  6
CONTINUOUS
 10
123.6428517018
 20
224.9029286394
 30
0.0
 11
0.0
 21
78.1270541988
 31
0.0
 40
0.3263914179
 41
-3.879318622
 42
-3.8732247744
  0
ELLIPSE
  5
76F
100
AcDbEntity
  8
0
100
AcDbEllipse
 62
7
  6
CONTINUOUS
 10
123.6428517018
 20
155.7660724616
 30
0.0
 11
25.5
 21
0.0
 31
0.0
 40
0.6808509827
 41
2.4230335884
 42
2.43920008
  0
ELLIPSE
  5
770
100
AcDbEntity
  8
0
100
AcDbEllipse
 62
7
  6
CONTINUOUS
 10
123.6428517018
 20
90.0937372837
 30
0.0
 11
0.0
 21
130.211756998
 31
0.0
 40
0.1958348508
 41
0.961224604
 42
0.9661983413
  0
ELLIPSE
  5
771
100
AcDbEntity
  8
0
100
AcDbEllipse
 62
7
  6
CONTINUOUS
 10
123.6428517018
 20
134.5032619296
 30
0.0
 11
0.0
 21
52.0853079831
 31
0.0
 40
0.4895814384
 41
0.9661983413
 42
0.976094897
  0
ELLIPSE
  5
772
100
AcDbEntity
  8
0
100
AcDbEllipse
 62
7
  6
CONTINUOUS
 10
123.6428517018
 20
149.0940422793
 30
0.0
 11
0.0
 21
26.0425026947
 31
0.0
 40
0.9791685653
 41
0.976094897
 42
0.9956929168
  0
ELLIPSE
  5
773
100
AcDbEntity
  8
0
100
AcDbEllipse
 62
7
  6
CONTINUOUS
 10
123.6428517018
 20
166.7738136525
 30
0.0
 11
25.0
 21
-0.0
 31
0.0
 40
0.2553200925
 41
-2.6364106714
 42
-2.6305079547
  0
ELLIPSE
  5
774
100
AcDbEntity
  8
0
100
AcDbEllipse
 62
7
  6
CONTINUOUS
 10
123.6428517018
 20
171.9223860377
 30
0.0
 11
25.0
 21
0.0
 31
0.0
 40
0.6808512211
 41
-2.6506394711
 42
-2.6364106714
  0
ELLIPSE
  5
775
100
AcDbEntity
  8
0
100
AcDbEllipse
 62
7
  6
CONTINUOUS
 10
123.6428517018
 20
181.9534506252
 30
0.0
 11
0.0
 21
38.2975755876
 31
0.0
 40
0.6527828359
 41
-4.230861728
 42
-4.2214357979
  0
ELLIPSE
  5
776
100
AcDbEntity
  8
0
100
AcDbEllipse
 62
7
  6
CONTINUOUS
 10
123.6428517018
 20
211.5160042536
 30
0.0
 11
-0.0
 21
102.1292057679
 31
0.0
 40
0.2447879606
 41
-4.2355571657
 42
-4.230861728
  0
ELLIPSE
  5
777
100
AcDbEntity
  8
0
100
AcDbEllipse
 62
7
  6
CONTINUOUS
 10
123.6428517018
 20
156.1765814277
 30
0.0
 11
25.5
 21
0.0
 31
0.0
 40
0.5106373301
 41
2.5664892436
 42
2.5858413694
  0
ELLIPSE
  5
778
100
AcDbEntity
  8
0
100
AcDbEllipse
 62
7
  6
CONTINUOUS
 10
123.6428517018
 20
160.2984363988
 30
0.0
 11
25.5
 21
-0.0
 31
0.0
 40
0.2042556244
 41
2.5858413694
 42
2.6097099402
  0
ELLIPSE
  5
779
100
AcDbEntity
  8
0
100
AcDbEllipse
 62
7
  6
CONTINUOUS
 10
123.6428517018
 20
116.508824546
 30
0.0
 11
0.0
 21
78.1271271543
 31
0.0
 40
0.3263911132
 41
0.8684037532
 42
0.8737434817
  0
ELLIPSE
  5
77A
100
AcDbEntity
  8
0
100
AcDbEllipse
 62
7
  6
CONTINUOUS
 10
123.6428517018
 20
160.2984363988
 30
0.0
 11
25.0
 21
0.0
 31
0.0
 40
0.2042556244
 41
2.5733718342
 42
2.5978996497
  0
ELLIPSE
  5
77B
100
AcDbEntity
  8
0
100
AcDbEllipse
 62
7
  6
CONTINUOUS
 10
123.6428517018
 20
156.1765814277
 30
0.0
 11
25.0
 21
0.0
 31
0.0
 40
0.5106373301
 41
2.553470096
 42
2.5733718342
  0
ELLIPSE
  5
77C
100
AcDbEntity
  8
0
100
AcDbEllipse
 62
7
  6
CONTINUOUS
 10
123.6428517018
 20
149.0940422793
 30
0.0
 11
-0.0
 21
25.531865387
 31
0.0
 40
0.9791685653
 41
0.9625042877
 42
0.9826737692
  0
ELLIPSE
  5
77D
100
AcDbEntity
  8
0
100
AcDbEllipse
 62
7
  6
CONTINUOUS
 10
123.6428517018
 20
134.5032619296
 30
0.0
 11
0.0
 21
51.0640274345
 31
0.0
 40
0.4895814384
 41
0.952313129
 42
0.9625042877
  0
ELLIPSE
  5
77E
100
AcDbEntity
  8
0
100
AcDbEllipse
 62
7
  6
CONTINUOUS
 10
123.6428517018
 20
90.0937372837
 30
0.0
 11
0.0
 21
127.6585852922
 31
0.0
 40
0.1958348508
 41
0.9471897401
 42
0.952313129
  0
ELLIPSE
  5
77F
100
AcDbEntity
  8
0
100
AcDbEllipse
 62
7
  6
CONTINUOUS
 10
123.6428517018
 20
216.6051154276
 30
0.0
 11
-0.0
 21
78.1270541988
 31
0.0
 40
0.3263914179
 41
-4.0153361353
 42
-4.0099964068
  0
ELLIPSE
  5
780
100
AcDbEntity
  8
0
100
AcDbEllipse
 62
7
  6
CONTINUOUS
 10
123.6428517018
 20
224.9029286394
 30
0.0
 11
0.0
 21
76.5951511753
 31
0.0
 40
0.3263914179
 41
-3.8570398134
 42
-3.8506642737
  0
ELLIPSE
  5
781
100
AcDbEntity
  8
0
100
AcDbEllipse
 62
7
  6
CONTINUOUS
 10
123.6428517018
 20
192.7842246181
 30
0.0
 11
0.0
 21
34.0425491333
 31
0.0
 40
0.7343750875
 41
-3.8758926277
 42
-3.8570398134
  0
ELLIPSE
  5
782
100
AcDbEntity
  8
0
100
AcDbEllipse
 62
7
  6
CONTINUOUS
 10
123.6428517018
 20
181.7286669097
 30
0.0
 11
25.0
 21
0.0
 31
0.0
 40
0.7659558946
 41
-2.3296383182
 42
-2.3050963009
  0
ELLIPSE
  5
783
100
AcDbEntity
  8
0
100
AcDbEllipse
 62
7
  6
CONTINUOUS
 10
123.6428517018
 20
171.5389560467
 30
0.0
 11
25.0
 21
0.0
 31
0.0
 40
0.2042556065
 41
-2.3594514732
 42
-2.3296383182
  0
ELLIPSE
  5
784
100
AcDbEntity
  8
0
100
AcDbEllipse
 62
7
  6
CONTINUOUS
 10
123.6428517018
 20
177.3479146446
 30
0.0
 11
25.5
 21
0.0
 31
0.0
 40
0.6808509827
 41
-2.43920008
 42
-2.4230335884
  0
ELLIPSE
  5
785
100
AcDbEntity
  8
0
100
AcDbEllipse
 62
7
  6
CONTINUOUS
 10
123.6428517018
 20
171.6333051262
 30
0.0
 11
25.5
 21
0.0
 31
0.0
 40
0.3404254913
 41
-2.4230335884
 42
-2.4066352082
  0
ELLIPSE
  5
786
100
AcDbEntity
  8
0
100
AcDbEllipse
 62
7
  6
CONTINUOUS
 10
123.6428517018
 20
211.5160042536
 30
0.0
 11
-0.0
 21
104.1717898833
 31
0.0
 40
0.2447879606
 41
-4.2456602004
 42
-4.24108077
  0
ELLIPSE
  5
787
100
AcDbEntity
  8
0
100
AcDbEllipse
 62
7
  6
CONTINUOUS
 10
123.6428517018
 20
181.9534506252
 30
0.0
 11
-0.0
 21
39.0635270994
 31
0.0
 40
0.6527828359
 41
-4.24108077
 42
-4.2318893885
  0
ELLIPSE
  5
788
100
AcDbEntity
  8
0
100
AcDbEllipse
 62
7
  6
CONTINUOUS
 10
123.6428517018
 20
171.9223860377
 30
0.0
 11
25.5
 21
0.0
 31
0.0
 40
0.6808512211
 41
-2.6610930617
 42
-2.6472226779
  0
ELLIPSE
  5
789
100
AcDbEntity
  8
0
100
AcDbEllipse
 62
7
  6
CONTINUOUS
 10
123.6428517018
 20
166.7738136525
 30
0.0
 11
25.5
 21
0.0
 31
0.0
 40
0.2553200925
 41
-2.6472226779
 42
-2.6285654719
  0
ELLIPSE
  5
78A
100
AcDbEntity
  8
0
100
AcDbEllipse
 62
7
  6
CONTINUOUS
 10
123.6428517018
 20
169.4325732158
 30
0.0
 11
25.5
 21
-0.0
 31
0.0
 40
0.2042556065
 41
-2.3730818034
 42
-2.3442671383
  0
ELLIPSE
  5
78B
100
AcDbEntity
  8
0
100
AcDbEllipse
 62
7
  6
CONTINUOUS
 10
123.6428517018
 20
175.0225065399
 30
0.0
 11
25.5
 21
0.0
 31
0.0
 40
0.510637263
 41
-2.3442671383
 42
-2.3205891153
  0
ELLIPSE
  5
78C
100
AcDbEntity
  8
0
100
AcDbEllipse
 62
7
  6
CONTINUOUS
 10
123.6428517018
 20
167.890839057
 30
0.0
 11
25.0
 21
0.0
 31
0.0
 40
0.2553200925
 41
3.8610368296
 42
3.8834160373
  0
ELLIPSE
  5
78D
100
AcDbEntity
  8
0
100
AcDbEllipse
 62
7
  6
CONTINUOUS
 10
123.6428517018
 20
180.5093366823
 30
0.0
 11
-0.0
 21
25.5319178104
 31
0.0
 40
0.9791665548
 41
-4.0094448351
 42
-3.9929448044
  0
ELLIPSE
  5
78E
100
AcDbEntity
  8
0
100
AcDbEllipse
 62
7
  6
CONTINUOUS
 10
123.6428517018
 20
213.5200165681
 30
0.0
 11
-0.0
 21
76.5951511753
 31
0.0
 40
0.3263914179
 41
-4.014893639
 42
-4.0094448351
  0
ELLIPSE
  5
78F
100
AcDbEntity
  8
0
100
AcDbEllipse
 62
7
  6
CONTINUOUS
 10
123.6428517018
 20
184.5519583911
 30
0.0
 11
-0.0
 21
26.0426494318
 31
0.0
 40
0.9791630482
 41
-3.8913854421
 42
-3.8670894241
  0
ENDSEC
  0
SECTION
  2
OBJECTS
  0
DICTIONARY
  5
C
100
AcDbDictionary
280
0
281
1
  3
ACAD_GROUP
350
D
  3
ACAD_MLINESTYLE
350
17
  3
ACAD_LAYOUT
350
1A
  3
ACAD_PLOTSETTINGS
350
19
  3
ACAD_PLOTSTYLENAME
350
E
  0
DICTIONARY
  5
D
102
{ACAD_REACTORS
330
C
102
}
100
AcDbDictionary
280
0
281
1
  0
ACDBDICTIONARYWDFLT
  5
E
102
{ACAD_REACTORS
330
C
102
}
100
AcDbDictionary
281
1
  3
Normal
350
F
100
AcDbDictionaryWithDefault
340
F
  0
DICTIONARY
  5
17
102
{ACAD_REACTORS
330
C
102
}
100
AcDbDictionary
280
0
281
1
  3
Standard
350
18
  0
DICTIONARY
  5
19
102
{ACAD_REACTORS
330
C
102
}
100
AcDbDictionary
281
1
  0
DICTIONARY
  5
1A
102
{ACAD_REACTORS
330
C
102
}
100
AcDbDictionary
281
1
  3
Model
350
790
  3
Layout1
350
791
  0
ACDBPLACEHOLDER
  5
F
102
{ACAD_REACTORS
330
E
102
}
  0
MLINESTYLE
  5
18
102
{ACAD_REACTORS
330
17
102
}
100
AcDbMlineStyle
  2
STANDARD
 70
0
  3

 62
256
 51
90.0
 52
90.0
 71
2
 49
0.5
 62
256
  6
BYLAYER
 49
-0.5
 62
256
  6
BYLAYER
  0
LAYOUT
  5
790
102
{ACAD_REACTORS
330
1A
102
}
100
AcDbPlotSettings
  1

  2
none_device
  4
ISO_A3_(420.00_x_297.00_MM)
  6

 40
0.0
 41
0.0
 42
0.0
 43
0.0
 44
420.0
 45
297.0
 46
0.0
 47
0.0
 48
0.0
 49
0.0
140
0.0
141
0.0
142
1.0
143
1.0
 70
1024
 72
1
 73
0
 74
0
  7

 75
0
147
1.0
148
0.0
149
0.0
100
AcDbLayout
  1
Model
 70
0
 71
0
 10
0.0
 20
0.0
 11
420.0
 21
297.0
 12
0.0
 22
0.0
 32
0.0
 14
0.0
 24
0.0
 34
0.0
 15
0.0
 25
0.0
 35
0.0
146
0.0
 13
0.0
 23
0.0
 33
0.0
 16
1.0
 26
0.0
 36
0.0
 17
0.0
 27
1.0
 37
0.0
 76
0
330
210
345
0
346
0
  0
LAYOUT
  5
791
102
{ACAD_REACTORS
330
1A
102
}
100
AcDbPlotSettings
  1

  2
none_device
  4
ISO_A3_(420.00_x_297.00_MM)
  6

 40
0.0
 41
0.0
 42
0.0
 43
0.0
 44
420.0
 45
297.0
 46
0.0
 47
0.0
 48
0.0
 49
0.0
140
0.0
141
0.0
142
1.0
143
1.0
 70
0
 72
1
 73
0
 74
0
  7

 75
0
147
1.0
148
0.0
149
0.0
100
AcDbLayout
  1
Layout1
 70
0
 71
1
 10
0.0
 20
0.0
 11
420.0
 21
297.0
 12
0.0
 22
0.0
 32
0.0
 14
0.0
 24
0.0
 34
0.0
 15
0.0
 25
0.0
 35
0.0
146
0.0
 13
0.0
 23
0.0
 33
0.0
 16
1.0
 26
0.0
 36
0.0
 17
0.0
 27
1.0
 37
0.0
 76
0
330
211
345
0
346
0
  0
ENDSEC
  0
EOF
