999
DXF file: 001-m35332-p-1.dxf
999
Pro/ENGINEER 2011490 by Parametric Technology Corporation
  0
SECTION
  2
HEADER
  9
$ACADVER
  1
AC1015
  9
$DWGCODEPAGE
  3
ANSI_1252
  9
$EXTMAX
 10
420.0
 20
297.0
 30
0.0
  9
$EXTMIN
 10
0.0
 20
0.0
 30
0.0
  9
$LIMMIN
 10
0.0
 20
0.0
  9
$LIMMAX
 10
420.0
 20
297.0
  9
$VIEWCTR
 10
210.0
 20
148.5
  9
$VIEWSIZE
 40
297.0
  9
$CLAYER
  8
0
  9
$LTSCALE
 40
23.1
  9
$CELTYPE
  6
BYLAYER
  9
$DIMSCALE
 40
1.0
  9
$DIMASZ
 40
3.5
  9
$DIMEXO
 40
2.625
  9
$DIMDLI
 40
15.96
  9
$DIMEXE
 40
7.56
  9
$DIMCEN
 40
3.78
  9
$DIMLFAC
 40
1.0
  9
$DIMBLK
  1
_FILLED
  9
$DIMTXT
 40
3.5
  9
$DIMTOL
 70
1
  9
$DIMLIM
 70
0
  9
$DIMTFAC
 40
1.0
  9
$DIMTP
 40
0.005
  9
$DIMTM
 40
0.005
  9
$PDMODE
 70
3
  9
$PDSIZE
 40
0.3125
  9
$HANDSEED
  5
853
  9
$TILEMODE
 70
1
  9
$MEASUREMENT
 70
1
  9
$INSUNITS
 70
4
  0
ENDSEC
  0
SECTION
  2
CLASSES
  0
CLASS
  1
ACDBDICTIONARYWDFLT
  2
AcDbDictionaryWithDefault
  3
AutoCAD 2000
 90
0
280
0
281
0
  0
CLASS
  1
ACDBPLACEHOLDER
  2
AcDbPlaceHolder
  3
AutoCAD 2000
 90
0
280
0
281
0
  0
CLASS
  1
LAYOUT
  2
AcDbLayout
  3
AutoCAD 2000
 90
0
280
0
281
0
  0
ENDSEC
  0
SECTION
  2
TABLES
  0
TABLE
  2
VPORT
  5
8
100
AcDbSymbolTable
 70
2
  0
VPORT
  5
1F4
100
AcDbSymbolTableRecord
100
AcDbViewportTableRecord
  2
*ACTIVE
 70
0
 10
0.0
 20
0.0
 11
1.0
 21
1.0
 12
210.0
 22
148.5
 13
0.0
 23
0.0
 14
1.0
 24
1.0
 15
0.0
 25
0.0
 16
0.0
 26
0.0
 36
1.0
 17
0.0
 27
0.0
 37
0.0
 40
297.0
 41
1.4141414141
 42
50.0
 43
0.0
 44
0.0
 50
0.0
 51
0.0
 71
0
 72
100
 73
1
 74
1
 75
0
 76
0
 77
0
 78
0
  0
ENDTAB
  0
TABLE
  2
LTYPE
  5
5
100
AcDbSymbolTable
 70
6
  0
LTYPE
  5
14
100
AcDbSymbolTableRecord
100
AcDbLinetypeTableRecord
  2
BYBLOCK
 70
0
  3

 72
65
 73
0
 40
0.0
  0
LTYPE
  5
15
100
AcDbSymbolTableRecord
100
AcDbLinetypeTableRecord
  2
BYLAYER
 70
0
  3

 72
65
 73
0
 40
0.0
  0
LTYPE
  5
16
100
AcDbSymbolTableRecord
100
AcDbLinetypeTableRecord
  2
CONTINUOUS
 70
64
  3
Solid line
 72
65
 73
0
 40
0.0
  0
LTYPE
  5
1F5
100
AcDbSymbolTableRecord
100
AcDbLinetypeTableRecord
  2
CENTER
 70
64
  3
____ _ ____ _ ____ _ ____ _ ____ _ ____ _ ____
 72
65
 73
4
 40
0.6
 49
0.375
 74
0
 49
-0.075
 74
0
 49
0.075
 74
0
 49
-0.075
 74
0
  0
LTYPE
  5
1F6
100
AcDbSymbolTableRecord
100
AcDbLinetypeTableRecord
  2
HIDDEN
 70
64
  3
- - - - - - - - - - - - - - - - - - - -
 72
65
 73
2
 40
0.2
 49
0.1
 74
0
 49
-0.1
 74
0
  0
LTYPE
  5
1F7
100
AcDbSymbolTableRecord
100
AcDbLinetypeTableRecord
  2
PHANTOM
 70
64
  3
_____ _ _ _____ _ _ _____ _ _ _____
 72
65
 73
6
 40
0.8
 49
0.45
 74
0
 49
-0.05
 74
0
 49
0.1
 74
0
 49
-0.05
 74
0
 49
0.1
 74
0
 49
-0.05
 74
0
  0
LTYPE
  5
1F8
100
AcDbSymbolTableRecord
100
AcDbLinetypeTableRecord
  2
DOT
 70
64
  3
. . . . . . . . . . . . . . . . . . . .
 72
65
 73
2
 40
0.2
 49
0.1
 74
0
 49
-0.1
 74
0
  0
LTYPE
  5
1F9
100
AcDbSymbolTableRecord
100
AcDbLinetypeTableRecord
  2
DASHED
 70
64
  3
- - - - - - - - - - - - - - - - - - - -
 72
65
 73
2
 40
0.2
 49
0.1
 74
0
 49
-0.1
 74
0
  0
ENDTAB
  0
TABLE
  2
LAYER
  5
2
100
AcDbSymbolTable
 70
36
  0
LAYER
  5
10
100
AcDbSymbolTableRecord
100
AcDbLayerTableRecord
  2
0
 70
0
 62
7
  6
CONTINUOUS
370
-3
390
F
  0
LAYER
  5
1FA
100
AcDbSymbolTableRecord
100
AcDbLayerTableRecord
  2
DEFAULT_1
 70
0
 62
7
  6
CENTER
370
-3
390
F
  0
LAYER
  5
1FB
100
AcDbSymbolTableRecord
100
AcDbLayerTableRecord
  2
DEFAULT_2
 70
0
 62
8
  6
HIDDEN
370
-3
390
F
  0
LAYER
  5
1FC
100
AcDbSymbolTableRecord
100
AcDbLayerTableRecord
  2
DEFAULT_3
 70
0
 62
7
  6
PHANTOM
370
-3
390
F
  0
LAYER
  5
1FD
100
AcDbSymbolTableRecord
100
AcDbLayerTableRecord
  2
AUSFORMSCHRAEGEN
 70
0
 62
7
  6
CONTINUOUS
370
-3
390
F
  0
LAYER
  5
1FE
100
AcDbSymbolTableRecord
100
AcDbLayerTableRecord
  2
BEZUGSACHSEN
 70
0
 62
7
  6
CONTINUOUS
370
-3
390
F
  0
LAYER
  5
1FF
100
AcDbSymbolTableRecord
100
AcDbLayerTableRecord
  2
BEZUGSEBENEN
 70
0
 62
7
  6
CONTINUOUS
370
-3
390
F
  0
LAYER
  5
200
100
AcDbSymbolTableRecord
100
AcDbLayerTableRecord
  2
BG_STARTBEZUEGE
 70
0
 62
7
  6
CONTINUOUS
370
-3
390
F
  0
LAYER
  5
201
100
AcDbSymbolTableRecord
100
AcDbLayerTableRecord
  2
GEWINDE
 70
0
 62
7
  6
CONTINUOUS
370
-3
390
F
  0
LAYER
  5
202
100
AcDbSymbolTableRecord
100
AcDbLayerTableRecord
  2
HILFEN
 70
0
 62
7
  6
CONTINUOUS
370
-3
390
F
  0
LAYER
  5
203
100
AcDbSymbolTableRecord
100
AcDbLayerTableRecord
  2
KONSTRUKTIONSELEMENTE
 70
0
 62
7
  6
CONTINUOUS
370
-3
390
F
  0
LAYER
  5
204
100
AcDbSymbolTableRecord
100
AcDbLayerTableRecord
  2
KURVEN
 70
0
 62
7
  6
CONTINUOUS
370
-3
390
F
  0
LAYER
  5
205
100
AcDbSymbolTableRecord
100
AcDbLayerTableRecord
  2
NORM
 70
0
 62
7
  6
CONTINUOUS
370
-3
390
F
  0
LAYER
  5
206
100
AcDbSymbolTableRecord
100
AcDbLayerTableRecord
  2
PLATZIERUNG
 70
0
 62
7
  6
CONTINUOUS
370
-3
390
F
  0
LAYER
  5
207
100
AcDbSymbolTableRecord
100
AcDbLayerTableRecord
  2
PLAZIERUNG
 70
0
 62
7
  6
CONTINUOUS
370
-3
390
F
  0
LAYER
  5
208
100
AcDbSymbolTableRecord
100
AcDbLayerTableRecord
  2
RUNDUNGEN
 70
0
 62
7
  6
CONTINUOUS
370
-3
390
F
  0
LAYER
  5
209
100
AcDbSymbolTableRecord
100
AcDbLayerTableRecord
  2
TEIL_STARTBEZUEGE
 70
0
 62
7
  6
CONTINUOUS
370
-3
390
F
  0
LAYER
  5
20A
100
AcDbSymbolTableRecord
100
AcDbLayerTableRecord
  2
T_STARTBEZUEGE
 70
0
 62
7
  6
CONTINUOUS
370
-3
390
F
  0
LAYER
  5
20B
100
AcDbSymbolTableRecord
100
AcDbLayerTableRecord
  2
ZEICHNUNGSBEMASSUNGEN
 70
0
 62
7
  6
CONTINUOUS
370
-3
390
F
  0
ENDTAB
  0
TABLE
  2
STYLE
  5
3
100
AcDbSymbolTable
 70
1
  0
STYLE
  5
11
100
AcDbSymbolTableRecord
100
AcDbTextStyleTableRecord
  2
STANDARD
 70
0
 40
0.0
 41
0.7
 50
0.0
 71
0
 42
0.2
  3
txt
  4

  0
STYLE
  5
20C
100
AcDbSymbolTableRecord
100
AcDbTextStyleTableRecord
  2
TEXTSTYLE_1
 70
0
 40
0.0
 41
0.8
 50
0.0
 71
0
 42
0.2
  3
gdt
  4

  0
ENDTAB
  0
TABLE
  2
VIEW
  5
6
100
AcDbSymbolTable
 70
0
  0
ENDTAB
  0
TABLE
  2
UCS
  5
7
100
AcDbSymbolTable
 70
0
  0
ENDTAB
  0
TABLE
  2
APPID
  5
9
100
AcDbSymbolTable
 70
1
  0
APPID
  5
20D
100
AcDbSymbolTableRecord
100
AcDbRegAppTableRecord
  2
ACAD
 70
0
  0
ENDTAB
  0
TABLE
  2
BLOCK_RECORD
  5
1
100
AcDbSymbolTable
 70
0
  0
BLOCK_RECORD
  5
20E
100
AcDbSymbolTableRecord
100
AcDbBlockTableRecord
  2
*Model_Space
  0
BLOCK_RECORD
  5
20F
100
AcDbSymbolTableRecord
100
AcDbBlockTableRecord
  2
*Paper_Space
  0
ENDTAB
  0
TABLE
  2
DIMSTYLE
  5
A
100
AcDbSymbolTable
 70
1
100
AcDbDimStyleTable
 71
0
  0
DIMSTYLE
105
210
100
AcDbSymbolTableRecord
100
AcDbDimStyleTableRecord
  2
STANDARD
 70
0
  3

  4

 40
1.0
 41
3.5
 42
0.0625
 43
0.38
 44
0.18
 45
0.0
 46
0.0
 47
0.005
 48
0.005
140
3.5
141
0.09
142
0.0
143
25.4
144
1.0
145
0.0
146
1.0
147
0.09
 71
1.0
 72
0.0
 73
0
 74
0
 75
0
 76
0
 77
1
 78
8
170
0
171
2
172
0
173
0
174
0
175
0
176
0
177
0
178
5
270
2
271
3
272
3
273
2
274
2
275
0
280
0
281
0
282
0
283
1
284
8
285
0
286
0
287
3
288
0
340
11
  0
ENDTAB
  0
ENDSEC
  0
SECTION
  2
BLOCKS
  0
BLOCK
  5
20
100
AcDbEntity
  8
0
100
AcDbBlockBegin
  2
*Model_Space
 70
0
 10
0.0
 20
0.0
 30
0.0
  3
*Model_Space
  1

  0
ENDBLK
  5
21
100
AcDbEntity
  8
0
100
AcDbBlockEnd
  0
BLOCK
  5
1C
100
AcDbEntity
  8
0
100
AcDbBlockBegin
  2
*Paper_Space
 70
0
 10
0.0
 20
0.0
 30
0.0
  3
*Paper_Space
  1

  0
ENDBLK
  5
1D
100
AcDbEntity
  8
0
100
AcDbBlockEnd
  0
ENDSEC
  0
SECTION
  2
ENTITIES
  0
MTEXT
  5
211
100
AcDbEntity
  8
0
100
AcDbMText
 62
5
  6
CONTINUOUS
  7
STANDARD
 71
1
 72
1
 10
143.2329002609
 20
208.8616132884
 30
0.0
 11
0.0
 21
1.0
 31
0.0
 44
0.9
  1
RUD VLBG-PLUS 2t
 40
4.0
 41
49.4285714286
  0
MTEXT
  5
212
100
AcDbEntity
  8
0
100
AcDbMText
 62
5
  6
CONTINUOUS
  7
STANDARD
 71
1
 72
1
 10
143.2580055806
 20
63.7424631759
 30
0.0
 11
0.0
 21
1.0
 31
0.0
 44
0.9
  1
VLBG-PLUS 2t
 40
4.0
 41
36.380952381
  0
LINE
  5
213
100
AcDbEntity
  8
0
100
AcDbLine
 62
7
  6
CONTINUOUS
 10
0.0
 20
0.0
 11
0.0
 21
297.0
  0
LINE
  5
214
100
AcDbEntity
  8
0
100
AcDbLine
 62
7
  6
CONTINUOUS
 10
0.0
 20
0.0
 11
420.0
 21
0.0
  0
LINE
  5
215
100
AcDbEntity
  8
0
100
AcDbLine
 62
7
  6
CONTINUOUS
 10
0.0
 20
297.0
 11
420.0
 21
297.0
  0
LINE
  5
216
100
AcDbEntity
  8
0
100
AcDbLine
 62
7
  6
CONTINUOUS
 10
420.0
 20
0.0
 11
420.0
 21
297.0
  0
LINE
  5
217
100
AcDbEntity
  8
BEZUGSACHSEN
100
AcDbLine
 62
7
  6
CONTINUOUS
 10
118.2935807355
 20
150.0794656489
 11
131.8935807355
 21
150.0794656489
  0
LINE
  5
218
100
AcDbEntity
  8
BEZUGSACHSEN
100
AcDbLine
 62
7
  6
CONTINUOUS
 10
117.0935807355
 20
151.2794656489
 11
133.0935807355
 21
151.2794656489
  0
LINE
  5
219
100
AcDbEntity
  8
BEZUGSACHSEN
100
AcDbLine
 62
7
  6
CONTINUOUS
 10
117.0935807355
 20
151.2794656489
 11
118.2935807355
 21
150.0794656489
  0
LINE
  5
21A
100
AcDbEntity
  8
0
100
AcDbLine
 62
7
  6
CONTINUOUS
 10
140.0935807355
 20
172.2794656489
 11
110.0935807355
 21
172.2794656489
  0
LINE
  5
21B
100
AcDbEntity
  8
0
100
AcDbLine
 62
7
  6
CONTINUOUS
 10
140.0935807355
 20
177.4794656489
 11
110.0935807355
 21
177.4794656489
  0
LINE
  5
21C
100
AcDbEntity
  8
RUNDUNGEN
100
AcDbLine
 62
7
  6
CONTINUOUS
 10
144.5935807355
 20
177.6794656489
 11
106.5940102048
 21
177.6794656489
  0
LINE
  5
21D
100
AcDbEntity
  8
0
100
AcDbLine
 62
7
  6
CONTINUOUS
 10
104.5935807355
 20
194.7845720291
 11
104.5935807355
 21
195.2101039455
  0
LINE
  5
21E
100
AcDbEntity
  8
0
100
AcDbLine
 62
7
  6
CONTINUOUS
 10
104.5959227534
 20
184.0945719919
 11
104.5959227534
 21
184.3924442968
  0
LINE
  5
21F
100
AcDbEntity
  8
0
100
AcDbLine
 62
7
  6
CONTINUOUS
 10
104.5960323132
 20
182.0094656489
 11
104.5960323132
 21
182.3818060822
  0
LINE
  5
220
100
AcDbEntity
  8
0
100
AcDbLine
 62
7
  6
CONTINUOUS
 10
104.5960323132
 20
184.5413804493
 11
104.5960323132
 21
184.6903168103
  0
LINE
  5
221
100
AcDbEntity
  8
0
100
AcDbLine
 62
7
  6
CONTINUOUS
 10
104.6033061111
 20
189.2754230491
 11
104.6033061111
 21
189.6477635345
  0
LINE
  5
222
100
AcDbEntity
  8
0
100
AcDbLine
 62
7
  6
CONTINUOUS
 10
104.6149965568
 20
182.6052103108
 11
104.6149965568
 21
184.0945719919
  0
LINE
  5
223
100
AcDbEntity
  8
0
100
AcDbLine
 62
7
  6
CONTINUOUS
 10
104.6149965568
 20
184.3924442968
 11
104.6149965568
 21
184.9881891153
  0
LINE
  5
224
100
AcDbEntity
  8
0
100
AcDbLine
 62
7
  6
CONTINUOUS
 10
104.6186654487
 20
196.0611677334
 11
104.6186654487
 21
198.6994656489
  0
LINE
  5
225
100
AcDbEntity
  8
0
100
AcDbLine
 62
7
  6
CONTINUOUS
 10
104.6227204445
 20
188.8286145917
 11
104.6227204445
 21
189.2754230491
  0
LINE
  5
226
100
AcDbEntity
  8
0
100
AcDbLine
 62
7
  6
CONTINUOUS
 10
104.6227204445
 20
189.6477635345
 11
104.6227204445
 21
189.9456358394
  0
LINE
  5
227
100
AcDbEntity
  8
0
100
AcDbLine
 62
7
  6
CONTINUOUS
 10
104.6322383073
 20
188.0094656489
 11
104.6322383073
 21
191.5094656489
  0
LINE
  5
228
100
AcDbEntity
  8
0
100
AcDbLine
 62
7
  6
CONTINUOUS
 10
104.6366841712
 20
182.7541465155
 11
104.6366841712
 21
184.0945719919
  0
LINE
  5
229
100
AcDbEntity
  8
0
100
AcDbLine
 62
7
  6
CONTINUOUS
 10
104.6366841712
 20
184.3924442968
 11
104.6366841712
 21
184.9881891153
  0
LINE
  5
22A
100
AcDbEntity
  8
0
100
AcDbLine
 62
7
  6
CONTINUOUS
 10
104.6523600758
 20
196.0611677334
 11
104.6523600758
 21
198.6994656489
  0
LINE
  5
22B
100
AcDbEntity
  8
0
100
AcDbLine
 62
7
  6
CONTINUOUS
 10
104.6665966692
 20
188.0094656489
 11
104.6665966692
 21
189.5732954583
  0
LINE
  5
22C
100
AcDbEntity
  8
0
100
AcDbLine
 62
7
  6
CONTINUOUS
 10
104.6665966692
 20
190.0201039157
 11
104.6665966692
 21
191.1371252677
  0
LINE
  5
22D
100
AcDbEntity
  8
0
100
AcDbLine
 62
7
  6
CONTINUOUS
 10
104.6947580056
 20
182.0094656489
 11
104.6947580056
 21
182.3073379798
  0
LINE
  5
22E
100
AcDbEntity
  8
0
100
AcDbLine
 62
7
  6
CONTINUOUS
 10
104.7110058302
 20
184.0945719919
 11
104.7110058302
 21
184.3924442968
  0
LINE
  5
22F
100
AcDbEntity
  8
0
100
AcDbLine
 62
7
  6
CONTINUOUS
 10
104.7194382032
 20
194.6994656489
 11
104.7194382032
 21
198.6994656489
  0
LINE
  5
230
100
AcDbEntity
  8
0
100
AcDbLine
 62
7
  6
CONTINUOUS
 10
104.786519478
 20
195.2101039455
 11
104.786519478
 21
198.1888274119
  0
LINE
  5
231
100
AcDbEntity
  8
0
100
AcDbLine
 62
7
  6
CONTINUOUS
 10
104.9283855475
 20
190.466912373
 11
104.9283855475
 21
190.6903168103
  0
LINE
  5
232
100
AcDbEntity
  8
0
100
AcDbLine
 62
7
  6
CONTINUOUS
 10
105.0203225709
 20
190.3924442968
 11
105.0203225709
 21
190.6903168103
  0
LINE
  5
233
100
AcDbEntity
  8
0
100
AcDbLine
 62
7
  6
CONTINUOUS
 10
105.0935807355
 20
179.1794656489
 11
105.0935807355
 21
182.0094656489
  0
LINE
  5
234
100
AcDbEntity
  8
0
100
AcDbLine
 62
7
  6
CONTINUOUS
 10
105.0935807355
 20
184.9881891153
 11
105.0935807355
 21
188.0094656489
  0
LINE
  5
235
100
AcDbEntity
  8
0
100
AcDbLine
 62
7
  6
CONTINUOUS
 10
105.0935807355
 20
191.5094656489
 11
105.0935807355
 21
194.6994656489
  0
LINE
  5
236
100
AcDbEntity
  8
0
100
AcDbLine
 62
7
  6
CONTINUOUS
 10
105.0935807355
 20
198.6994656489
 11
105.0935807355
 21
201.1794656489
  0
LINE
  5
237
100
AcDbEntity
  8
0
100
AcDbLine
 62
7
  6
CONTINUOUS
 10
104.5960323132
 20
182.0094656489
 11
105.1977082365
 21
182.0094656489
  0
LINE
  5
238
100
AcDbEntity
  8
0
100
AcDbLine
 62
7
  6
CONTINUOUS
 10
104.6947580056
 20
182.3073379798
 11
105.1977082365
 21
182.3073379798
  0
LINE
  5
239
100
AcDbEntity
  8
0
100
AcDbLine
 62
7
  6
CONTINUOUS
 10
104.5960323132
 20
182.3818060822
 11
104.6227682894
 21
182.3818060822
  0
LINE
  5
23A
100
AcDbEntity
  8
0
100
AcDbLine
 62
7
  6
CONTINUOUS
 10
104.6594644094
 20
182.3818060822
 11
105.1613815097
 21
182.3818060822
  0
LINE
  5
23B
100
AcDbEntity
  8
0
100
AcDbLine
 62
7
  6
CONTINUOUS
 10
104.6419259463
 20
182.5307422346
 11
105.1433312526
 21
182.5307422346
  0
LINE
  5
23C
100
AcDbEntity
  8
0
100
AcDbLine
 62
7
  6
CONTINUOUS
 10
104.6366841712
 20
182.7541465155
 11
105.1379367215
 21
182.7541465155
  0
LINE
  5
23D
100
AcDbEntity
  8
0
100
AcDbLine
 62
7
  6
CONTINUOUS
 10
145.8435807355
 20
183.6794656489
 11
144.3435807355
 21
183.6794656489
  0
LINE
  5
23E
100
AcDbEntity
  8
0
100
AcDbLine
 62
7
  6
CONTINUOUS
 10
104.6010170641
 20
184.0201039157
 11
104.6149965568
 21
184.0201039157
  0
LINE
  5
23F
100
AcDbEntity
  8
0
100
AcDbLine
 62
7
  6
CONTINUOUS
 10
104.5959227534
 20
184.0945719919
 11
104.6149965568
 21
184.0945719919
  0
LINE
  5
240
100
AcDbEntity
  8
0
100
AcDbLine
 62
7
  6
CONTINUOUS
 10
104.6366841712
 20
184.0945719919
 11
105.2144331271
 21
184.0945719919
  0
LINE
  5
241
100
AcDbEntity
  8
0
100
AcDbLine
 62
7
  6
CONTINUOUS
 10
104.5959227534
 20
184.3924442968
 11
104.6149965568
 21
184.3924442968
  0
LINE
  5
242
100
AcDbEntity
  8
0
100
AcDbLine
 62
7
  6
CONTINUOUS
 10
104.6366841712
 20
184.3924442968
 11
105.2144331271
 21
184.3924442968
  0
LINE
  5
243
100
AcDbEntity
  8
0
100
AcDbLine
 62
7
  6
CONTINUOUS
 10
104.5960323132
 20
184.5413804493
 11
104.6149965568
 21
184.5413804493
  0
LINE
  5
244
100
AcDbEntity
  8
0
100
AcDbLine
 62
7
  6
CONTINUOUS
 10
105.1379367215
 20
182.7541465155
 11
105.1379367215
 21
184.0945719919
  0
LINE
  5
245
100
AcDbEntity
  8
0
100
AcDbLine
 62
7
  6
CONTINUOUS
 10
105.1379367215
 20
184.3924442968
 11
105.1379367215
 21
184.9881891153
  0
LINE
  5
246
100
AcDbEntity
  8
0
100
AcDbLine
 62
7
  6
CONTINUOUS
 10
105.1609889942
 20
188.0094656489
 11
105.1609889942
 21
191.5094656489
  0
LINE
  5
247
100
AcDbEntity
  8
0
100
AcDbLine
 62
7
  6
CONTINUOUS
 10
105.1977082365
 20
182.0094656489
 11
105.1977082365
 21
182.3073379798
  0
LINE
  5
248
100
AcDbEntity
  8
0
100
AcDbLine
 62
7
  6
CONTINUOUS
 10
105.2144331271
 20
184.0945719919
 11
105.2144331271
 21
184.3924442968
  0
LINE
  5
249
100
AcDbEntity
  8
0
100
AcDbLine
 62
7
  6
CONTINUOUS
 10
105.2803313302
 20
188.4562741584
 11
105.2803313302
 21
191.5094656489
  0
LINE
  5
24A
100
AcDbEntity
  8
0
100
AcDbLine
 62
7
  6
CONTINUOUS
 10
105.2921761013
 20
196.0611677334
 11
105.2921761013
 21
197.3377634451
  0
LINE
  5
24B
100
AcDbEntity
  8
0
100
AcDbLine
 62
7
  6
CONTINUOUS
 10
105.2958254962
 20
196.0611677334
 11
105.2958254962
 21
197.3377634451
  0
LINE
  5
24C
100
AcDbEntity
  8
0
100
AcDbLine
 62
7
  6
CONTINUOUS
 10
105.4488293114
 20
196.0611677334
 11
105.4488293114
 21
197.3377634451
  0
LINE
  5
24D
100
AcDbEntity
  8
0
100
AcDbLine
 62
7
  6
CONTINUOUS
 10
105.8010754758
 20
188.4562741584
 11
105.8010754758
 21
191.5094656489
  0
LINE
  5
24E
100
AcDbEntity
  8
0
100
AcDbLine
 62
7
  6
CONTINUOUS
 10
105.9749330918
 20
196.0611677334
 11
105.9749330918
 21
197.3377634451
  0
LINE
  5
24F
100
AcDbEntity
  8
0
100
AcDbLine
 62
7
  6
CONTINUOUS
 10
106.0654543271
 20
188.0094656489
 11
106.0654543271
 21
188.4562741584
  0
LINE
  5
250
100
AcDbEntity
  8
0
100
AcDbLine
 62
7
  6
CONTINUOUS
 10
106.3316942767
 20
189.2009549728
 11
106.3316942767
 21
191.5094656489
  0
LINE
  5
251
100
AcDbEntity
  8
0
100
AcDbLine
 62
7
  6
CONTINUOUS
 10
106.5484474138
 20
189.2009549728
 11
106.5484474138
 21
191.5094656489
  0
LINE
  5
252
100
AcDbEntity
  8
0
100
AcDbLine
 62
7
  6
CONTINUOUS
 10
106.6121663246
 20
188.0094656489
 11
106.6121663246
 21
188.2072906074
  0
LINE
  5
253
100
AcDbEntity
  8
0
100
AcDbLine
 62
7
  6
CONTINUOUS
 10
107.1124863346
 20
189.2009549728
 11
107.1124863346
 21
191.5094656489
  0
LINE
  5
254
100
AcDbEntity
  8
0
100
AcDbLine
 62
7
  6
CONTINUOUS
 10
107.5760140311
 20
189.2009549728
 11
107.5760140311
 21
191.5094656489
  0
LINE
  5
255
100
AcDbEntity
  8
0
100
AcDbLine
 62
7
  6
CONTINUOUS
 10
107.877320246
 20
189.2009549728
 11
107.877320246
 21
191.5094656489
  0
LINE
  5
256
100
AcDbEntity
  8
0
100
AcDbLine
 62
7
  6
CONTINUOUS
 10
108.4824897341
 20
190.3924442968
 11
108.4824897341
 21
190.6903168103
  0
LINE
  5
257
100
AcDbEntity
  8
0
100
AcDbLine
 62
7
  6
CONTINUOUS
 10
108.4953789551
 20
189.2009549728
 11
108.4953789551
 21
190.3267082402
  0
LINE
  5
258
100
AcDbEntity
  8
0
100
AcDbLine
 62
7
  6
CONTINUOUS
 10
108.4953789551
 20
190.7560528669
 11
108.4953789551
 21
191.5094656489
  0
LINE
  5
259
100
AcDbEntity
  8
0
100
AcDbLine
 62
7
  6
CONTINUOUS
 10
108.8440668554
 20
190.466912373
 11
108.8440668554
 21
190.6158485255
  0
LINE
  5
25A
100
AcDbEntity
  8
0
100
AcDbLine
 62
7
  6
CONTINUOUS
 10
109.5085943701
 20
190.466912373
 11
109.5085943701
 21
190.6158485255
  0
LINE
  5
25B
100
AcDbEntity
  8
0
100
AcDbLine
 62
7
  6
CONTINUOUS
 10
104.5960323156
 20
184.6903168103
 11
104.6149965568
 21
184.6903168103
  0
LINE
  5
25C
100
AcDbEntity
  8
0
100
AcDbLine
 62
7
  6
CONTINUOUS
 10
104.5973941768
 20
184.9881891153
 11
105.1379367215
 21
184.9881891153
  0
LINE
  5
25D
100
AcDbEntity
  8
0
100
AcDbLine
 62
7
  6
CONTINUOUS
 10
104.605839906
 20
185.2860614202
 11
105.0935807355
 21
185.2860614202
  0
LINE
  5
25E
100
AcDbEntity
  8
0
100
AcDbLine
 62
7
  6
CONTINUOUS
 10
104.6190885442
 20
185.4349975726
 11
105.0935807355
 21
185.4349975726
  0
LINE
  5
25F
100
AcDbEntity
  8
0
100
AcDbLine
 62
7
  6
CONTINUOUS
 10
104.64799164
 20
185.5094656489
 11
105.0935807355
 21
185.5094656489
  0
LINE
  5
260
100
AcDbEntity
  8
0
100
AcDbLine
 62
7
  6
CONTINUOUS
 10
104.6322383073
 20
188.0094656489
 11
106.6121663246
 21
188.0094656489
  0
LINE
  5
261
100
AcDbEntity
  8
0
100
AcDbLine
 62
7
  6
CONTINUOUS
 10
106.9440641961
 20
188.0094656489
 11
107.7008044128
 21
188.0094656489
  0
LINE
  5
262
100
AcDbEntity
  8
0
100
AcDbLine
 62
7
  6
CONTINUOUS
 10
109.1640389609
 20
188.0094656489
 11
110.4276738901
 21
188.0094656489
  0
LINE
  5
263
100
AcDbEntity
  8
0
100
AcDbLine
 62
7
  6
CONTINUOUS
 10
107.3392847027
 20
188.0839337316
 11
107.9342469743
 21
188.0839337316
  0
LINE
  5
264
100
AcDbEntity
  8
0
100
AcDbLine
 62
7
  6
CONTINUOUS
 10
110.0854775482
 20
188.0839337316
 11
110.821380696
 21
188.0839337316
  0
LINE
  5
265
100
AcDbEntity
  8
0
100
AcDbLine
 62
7
  6
CONTINUOUS
 10
107.527647589
 20
188.2328699036
 11
108.130492577
 21
188.2328699036
  0
LINE
  5
266
100
AcDbEntity
  8
0
100
AcDbLine
 62
7
  6
CONTINUOUS
 10
110.3983947582
 20
188.2328699036
 11
111.1548601638
 21
188.2328699036
  0
LINE
  5
267
100
AcDbEntity
  8
0
100
AcDbLine
 62
7
  6
CONTINUOUS
 10
105.2803313302
 20
188.4562741584
 11
106.474528964
 21
188.4562741584
  0
LINE
  5
268
100
AcDbEntity
  8
0
100
AcDbLine
 62
7
  6
CONTINUOUS
 10
106.9440641961
 20
188.4562741584
 11
107.1149597067
 21
188.4562741584
  0
LINE
  5
269
100
AcDbEntity
  8
0
100
AcDbLine
 62
7
  6
CONTINUOUS
 10
109.1640389609
 20
188.4562741584
 11
109.7146917919
 21
188.4562741584
  0
LINE
  5
26A
100
AcDbEntity
  8
0
100
AcDbLine
 62
7
  6
CONTINUOUS
 10
106.7805105747
 20
188.5307422346
 11
107.2934462614
 21
188.5307422346
  0
LINE
  5
26B
100
AcDbEntity
  8
0
100
AcDbLine
 62
7
  6
CONTINUOUS
 10
107.7242541087
 20
188.5307422346
 11
108.3355576408
 21
188.5307422346
  0
LINE
  5
26C
100
AcDbEntity
  8
0
100
AcDbLine
 62
7
  6
CONTINUOUS
 10
108.906660847
 20
188.5307422346
 11
109.5744454441
 21
188.5307422346
  0
LINE
  5
26D
100
AcDbEntity
  8
0
100
AcDbLine
 62
7
  6
CONTINUOUS
 10
110.7270516682
 20
188.5307422346
 11
111.5064340828
 21
188.5307422346
  0
LINE
  5
26E
100
AcDbEntity
  8
0
100
AcDbLine
 62
7
  6
CONTINUOUS
 10
106.6625238099
 20
188.6796784392
 11
107.2308196938
 21
188.6796784392
  0
LINE
  5
26F
100
AcDbEntity
  8
0
100
AcDbLine
 62
7
  6
CONTINUOUS
 10
108.7209138412
 20
188.7541465155
 11
109.3791272834
 21
188.7541465155
  0
LINE
  5
270
100
AcDbEntity
  8
0
100
AcDbLine
 62
7
  6
CONTINUOUS
 10
107.8257522563
 20
188.8286145917
 11
108.3386200445
 21
188.8286145917
  0
LINE
  5
271
100
AcDbEntity
  8
0
100
AcDbLine
 62
7
  6
CONTINUOUS
 10
110.8977063495
 20
188.8286145917
 11
111.6895655083
 21
188.8286145917
  0
LINE
  5
272
100
AcDbEntity
  8
0
100
AcDbLine
 62
7
  6
CONTINUOUS
 10
106.5860431192
 20
188.9030826679
 11
107.1514777958
 21
188.9030826679
  0
LINE
  5
273
100
AcDbEntity
  8
0
100
AcDbLine
 62
7
  6
CONTINUOUS
 10
108.3103069393
 20
188.9775507441
 11
109.3154875927
 21
188.9775507441
  0
LINE
  5
274
100
AcDbEntity
  8
0
100
AcDbLine
 62
7
  6
CONTINUOUS
 10
110.0935807355
 20
208.0794656489
 11
110.0935807355
 21
202.8794656489
  0
LINE
  5
275
100
AcDbEntity
  8
0
100
AcDbLine
 62
7
  6
CONTINUOUS
 10
110.0935807355
 20
177.4794656489
 11
110.0935807355
 21
172.2794656489
  0
LINE
  5
276
100
AcDbEntity
  8
0
100
AcDbLine
 62
7
  6
CONTINUOUS
 10
110.3983947582
 20
188.9030826679
 11
110.3983947582
 21
189.1264868966
  0
LINE
  5
277
100
AcDbEntity
  8
0
100
AcDbLine
 62
7
  6
CONTINUOUS
 10
110.8977063495
 20
188.8286145917
 11
110.8977063495
 21
189.2009549728
  0
LINE
  5
278
100
AcDbEntity
  8
BEZUGSACHSEN
100
AcDbLine
 62
7
  6
CONTINUOUS
 10
111.2371742749
 20
208.5794656489
 11
111.2371742749
 21
217.0076688791
  0
LINE
  5
279
100
AcDbEntity
  8
0
100
AcDbLine
 62
7
  6
CONTINUOUS
 10
111.6895655083
 20
188.8286145917
 11
111.6895655083
 21
189.2009549728
  0
LINE
  5
27A
100
AcDbEntity
  8
0
100
AcDbLine
 62
7
  6
CONTINUOUS
 10
112.8435807355
 20
202.8794656489
 11
112.8435807355
 21
202.6794656489
  0
LINE
  5
27B
100
AcDbEntity
  8
0
100
AcDbLine
 62
7
  6
CONTINUOUS
 10
112.8435807355
 20
177.6794656489
 11
112.8435807355
 21
177.4794656489
  0
LINE
  5
27C
100
AcDbEntity
  8
0
100
AcDbLine
 62
7
  6
CONTINUOUS
 10
106.5484474138
 20
189.2009549728
 11
107.1124863346
 21
189.2009549728
  0
LINE
  5
27D
100
AcDbEntity
  8
0
100
AcDbLine
 62
7
  6
CONTINUOUS
 10
107.877320246
 20
189.2009549728
 11
108.4953789551
 21
189.2009549728
  0
LINE
  5
27E
100
AcDbEntity
  8
0
100
AcDbLine
 62
7
  6
CONTINUOUS
 10
110.8977063495
 20
189.2009549728
 11
111.6895655083
 21
189.2009549728
  0
LINE
  5
27F
100
AcDbEntity
  8
0
100
AcDbLine
 62
7
  6
CONTINUOUS
 10
104.6033061111
 20
189.2754230491
 11
104.6322383073
 21
189.2754230491
  0
LINE
  5
280
100
AcDbEntity
  8
0
100
AcDbLine
 62
7
  6
CONTINUOUS
 10
110.7270516682
 20
189.4988273821
 11
111.5064340828
 21
189.4988273821
  0
LINE
  5
281
100
AcDbEntity
  8
0
100
AcDbLine
 62
7
  6
CONTINUOUS
 10
104.6665966692
 20
189.5732954583
 11
105.1609889942
 21
189.5732954583
  0
LINE
  5
282
100
AcDbEntity
  8
0
100
AcDbLine
 62
7
  6
CONTINUOUS
 10
109.2970780521
 20
189.5732954583
 11
109.7146917919
 21
189.5732954583
  0
LINE
  5
283
100
AcDbEntity
  8
0
100
AcDbLine
 62
7
  6
CONTINUOUS
 10
104.6033061111
 20
189.6477635345
 11
104.6322383073
 21
189.6477635345
  0
LINE
  5
284
100
AcDbEntity
  8
0
100
AcDbLine
 62
7
  6
CONTINUOUS
 10
104.90028593
 20
189.6477635345
 11
105.1609889942
 21
189.6477635345
  0
LINE
  5
285
100
AcDbEntity
  8
0
100
AcDbLine
 62
7
  6
CONTINUOUS
 10
110.3983947582
 20
189.796699687
 11
111.1548601638
 21
189.796699687
  0
LINE
  5
286
100
AcDbEntity
  8
0
100
AcDbLine
 62
7
  6
CONTINUOUS
 10
104.9577537835
 20
189.8711677632
 11
105.1609889942
 21
189.8711677632
  0
LINE
  5
287
100
AcDbEntity
  8
0
100
AcDbLine
 62
7
  6
CONTINUOUS
 10
110.0854775482
 20
189.9456358394
 11
110.821380696
 21
189.9456358394
  0
LINE
  5
288
100
AcDbEntity
  8
0
100
AcDbLine
 62
7
  6
CONTINUOUS
 10
104.6665966692
 20
190.0201039157
 11
104.847868091
 21
190.0201039157
  0
LINE
  5
289
100
AcDbEntity
  8
0
100
AcDbLine
 62
7
  6
CONTINUOUS
 10
109.2970780521
 20
190.0201039157
 11
110.4276738901
 21
190.0201039157
  0
LINE
  5
28A
100
AcDbEntity
  8
0
100
AcDbLine
 62
7
  6
CONTINUOUS
 10
109.0986241202
 20
190.0945719919
 11
109.7766051351
 21
190.0945719919
  0
LINE
  5
28B
100
AcDbEntity
  8
0
100
AcDbLine
 62
7
  6
CONTINUOUS
 10
105.0041991569
 20
190.1690400681
 11
105.1609889942
 21
190.1690400681
  0
LINE
  5
28C
100
AcDbEntity
  8
0
100
AcDbLine
 62
7
  6
CONTINUOUS
 10
108.906660847
 20
190.2435081443
 11
109.5744454441
 21
190.2435081443
  0
LINE
  5
28D
100
AcDbEntity
  8
0
100
AcDbLine
 62
7
  6
CONTINUOUS
 10
105.0203225709
 20
190.3924442968
 11
105.1609889942
 21
190.3924442968
  0
LINE
  5
28E
100
AcDbEntity
  8
0
100
AcDbLine
 62
7
  6
CONTINUOUS
 10
108.8440668554
 20
190.466912373
 11
109.5085943701
 21
190.466912373
  0
LINE
  5
28F
100
AcDbEntity
  8
0
100
AcDbLine
 62
7
  6
CONTINUOUS
 10
108.8440668554
 20
190.6158485255
 11
109.5085943701
 21
190.6158485255
  0
LINE
  5
290
100
AcDbEntity
  8
0
100
AcDbLine
 62
7
  6
CONTINUOUS
 10
105.0203225709
 20
190.6903168103
 11
105.1609889942
 21
190.6903168103
  0
LINE
  5
291
100
AcDbEntity
  8
0
100
AcDbLine
 62
7
  6
CONTINUOUS
 10
110.1622989011
 20
190.6903168103
 11
111.4167511034
 21
190.6903168103
  0
LINE
  5
292
100
AcDbEntity
  8
0
100
AcDbLine
 62
7
  6
CONTINUOUS
 10
108.906660847
 20
190.8392529628
 11
109.5744454441
 21
190.8392529628
  0
LINE
  5
293
100
AcDbEntity
  8
0
100
AcDbLine
 62
7
  6
CONTINUOUS
 10
105.0041991569
 20
190.913721039
 11
105.1609889942
 21
190.913721039
  0
LINE
  5
294
100
AcDbEntity
  8
0
100
AcDbLine
 62
7
  6
CONTINUOUS
 10
110.5606746848
 20
190.913721039
 11
111.3282788785
 21
190.913721039
  0
LINE
  5
295
100
AcDbEntity
  8
0
100
AcDbLine
 62
7
  6
CONTINUOUS
 10
109.0986241202
 20
190.9881891153
 11
109.7766051351
 21
190.9881891153
  0
LINE
  5
296
100
AcDbEntity
  8
0
100
AcDbLine
 62
7
  6
CONTINUOUS
 10
109.2970780521
 20
191.0626571915
 11
109.7146917919
 21
191.0626571915
  0
LINE
  5
297
100
AcDbEntity
  8
0
100
AcDbLine
 62
7
  6
CONTINUOUS
 10
104.6665966692
 20
191.1371252677
 11
104.847868091
 21
191.1371252677
  0
LINE
  5
298
100
AcDbEntity
  8
0
100
AcDbLine
 62
7
  6
CONTINUOUS
 10
104.9577537835
 20
191.2115933439
 11
105.1609889942
 21
191.2115933439
  0
LINE
  5
299
100
AcDbEntity
  8
0
100
AcDbLine
 62
7
  6
CONTINUOUS
 10
110.3187382859
 20
191.2115933439
 11
111.0698574846
 21
191.2115933439
  0
LINE
  5
29A
100
AcDbEntity
  8
0
100
AcDbLine
 62
7
  6
CONTINUOUS
 10
104.90028593
 20
191.4349975726
 11
105.1609889942
 21
191.4349975726
  0
LINE
  5
29B
100
AcDbEntity
  8
0
100
AcDbLine
 62
7
  6
CONTINUOUS
 10
110.0095657149
 20
191.4349975726
 11
110.7406532373
 21
191.4349975726
  0
LINE
  5
29C
100
AcDbEntity
  8
0
100
AcDbLine
 62
7
  6
CONTINUOUS
 10
104.6322383073
 20
191.5094656489
 11
105.8010754758
 21
191.5094656489
  0
LINE
  5
29D
100
AcDbEntity
  8
0
100
AcDbLine
 62
7
  6
CONTINUOUS
 10
106.3316942767
 20
191.5094656489
 11
107.1124863346
 21
191.5094656489
  0
LINE
  5
29E
100
AcDbEntity
  8
0
100
AcDbLine
 62
7
  6
CONTINUOUS
 10
107.5760140311
 20
191.5094656489
 11
108.4953789551
 21
191.5094656489
  0
LINE
  5
29F
100
AcDbEntity
  8
0
100
AcDbLine
 62
7
  6
CONTINUOUS
 10
109.2970780521
 20
191.5094656489
 11
110.3518127257
 21
191.5094656489
  0
LINE
  5
2A0
100
AcDbEntity
  8
KONSTRUKTIONSELEMENTE
100
AcDbLine
 62
7
  6
CONTINUOUS
 10
114.0935807355
 20
208.0794656489
 11
114.0935807355
 21
208.5794656489
  0
LINE
  5
2A1
100
AcDbEntity
  8
BEZUGSACHSEN
100
AcDbLine
 62
7
  6
CONTINUOUS
 10
114.0935807355
 20
208.0794656489
 11
114.0935807355
 21
208.5794656489
  0
LINE
  5
2A2
100
AcDbEntity
  8
BEZUGSACHSEN
100
AcDbLine
 62
7
  6
CONTINUOUS
 10
117.0935807355
 20
172.2794656489
 11
117.0935807355
 21
151.2794656489
  0
LINE
  5
2A3
100
AcDbEntity
  8
BEZUGSACHSEN
100
AcDbLine
 62
7
  6
CONTINUOUS
 10
118.1653775052
 20
208.5794656489
 11
118.1653775052
 21
217.0076688791
  0
LINE
  5
2A4
100
AcDbEntity
  8
BEZUGSACHSEN
100
AcDbLine
 62
7
  6
CONTINUOUS
 10
111.2371742749
 20
217.0076688791
 11
113.0935807355
 21
218.0794656489
  0
LINE
  5
2A5
100
AcDbEntity
  8
0
100
AcDbLine
 62
7
  6
CONTINUOUS
 10
104.5939215958
 20
194.6994656489
 11
105.5903601496
 21
194.6994656489
  0
LINE
  5
2A6
100
AcDbEntity
  8
0
100
AcDbLine
 62
7
  6
CONTINUOUS
 10
104.6013959098
 20
194.7845720291
 11
104.7194382032
 21
194.7845720291
  0
LINE
  5
2A7
100
AcDbEntity
  8
0
100
AcDbLine
 62
7
  6
CONTINUOUS
 10
105.1804870164
 20
194.7845720291
 11
105.6981072964
 21
194.7845720291
  0
LINE
  5
2A8
100
AcDbEntity
  8
0
100
AcDbLine
 62
7
  6
CONTINUOUS
 10
104.6144267794
 20
194.9547847972
 11
104.7194382032
 21
194.9547847972
  0
LINE
  5
2A9
100
AcDbEntity
  8
0
100
AcDbLine
 62
7
  6
CONTINUOUS
 10
105.2718819331
 20
194.9547847972
 11
105.7923602367
 21
194.9547847972
  0
LINE
  5
2AA
100
AcDbEntity
  8
0
100
AcDbLine
 62
7
  6
CONTINUOUS
 10
104.5935807223
 20
195.2101039455
 11
104.5939215739
 21
195.2101039455
  0
LINE
  5
2AB
100
AcDbEntity
  8
0
100
AcDbLine
 62
7
  6
CONTINUOUS
 10
104.786519478
 20
195.2101039455
 11
105.0759694357
 21
195.2101039455
  0
LINE
  5
2AC
100
AcDbEntity
  8
0
100
AcDbLine
 62
7
  6
CONTINUOUS
 10
104.6337401045
 20
195.2952103183
 11
104.7194382032
 21
195.2952103183
  0
LINE
  5
2AD
100
AcDbEntity
  8
0
100
AcDbLine
 62
7
  6
CONTINUOUS
 10
105.3703137491
 20
195.2952103183
 11
105.893906204
 21
195.2952103183
  0
LINE
  5
2AE
100
AcDbEntity
  8
0
100
AcDbLine
 62
7
  6
CONTINUOUS
 10
104.6457588356
 20
195.6356358692
 11
104.7194382032
 21
195.6356358692
  0
LINE
  5
2AF
100
AcDbEntity
  8
0
100
AcDbLine
 62
7
  6
CONTINUOUS
 10
105.4222066778
 20
195.6356358692
 11
105.9474561934
 21
195.6356358692
  0
LINE
  5
2B0
100
AcDbEntity
  8
0
100
AcDbLine
 62
7
  6
CONTINUOUS
 10
104.6523600758
 20
196.0611677334
 11
104.7194382032
 21
196.0611677334
  0
LINE
  5
2B1
100
AcDbEntity
  8
0
100
AcDbLine
 62
7
  6
CONTINUOUS
 10
105.4488293114
 20
196.0611677334
 11
105.9749330918
 21
196.0611677334
  0
LINE
  5
2B2
100
AcDbEntity
  8
0
100
AcDbLine
 62
7
  6
CONTINUOUS
 10
105.4488293114
 20
197.3377634451
 11
105.9749330918
 21
197.3377634451
  0
LINE
  5
2B3
100
AcDbEntity
  8
0
100
AcDbLine
 62
7
  6
CONTINUOUS
 10
105.4222066778
 20
197.7632955477
 11
105.9474561934
 21
197.7632955477
  0
LINE
  5
2B4
100
AcDbEntity
  8
0
100
AcDbLine
 62
7
  6
CONTINUOUS
 10
105.3703137491
 20
198.103721039
 11
105.893906204
 21
198.103721039
  0
LINE
  5
2B5
100
AcDbEntity
  8
0
100
AcDbLine
 62
7
  6
CONTINUOUS
 10
104.786519478
 20
198.1888274119
 11
105.0759694357
 21
198.1888274119
  0
LINE
  5
2B6
100
AcDbEntity
  8
0
100
AcDbLine
 62
7
  6
CONTINUOUS
 10
105.2718819331
 20
198.4441465304
 11
105.7923602367
 21
198.4441465304
  0
LINE
  5
2B7
100
AcDbEntity
  8
0
100
AcDbLine
 62
7
  6
CONTINUOUS
 10
105.1804870164
 20
198.614359276
 11
105.6981072964
 21
198.614359276
  0
LINE
  5
2B8
100
AcDbEntity
  8
0
100
AcDbLine
 62
7
  6
CONTINUOUS
 10
104.6186654487
 20
198.6994656489
 11
105.5903601496
 21
198.6994656489
  0
LINE
  5
2B9
100
AcDbEntity
  8
0
100
AcDbLine
 62
7
  6
CONTINUOUS
 10
125.0991637945
 20
218.0794656489
 11
125.0991637945
 21
218.2794656489
  0
LINE
  5
2BA
100
AcDbEntity
  8
0
100
AcDbLine
 62
7
  6
CONTINUOUS
 10
125.4090184397
 20
218.0794656489
 11
125.4090184397
 21
218.2794656489
  0
LINE
  5
2BB
100
AcDbEntity
  8
0
100
AcDbLine
 62
7
  6
CONTINUOUS
 10
125.5540532869
 20
218.0794656489
 11
125.5540532869
 21
218.2794656489
  0
LINE
  5
2BC
100
AcDbEntity
  8
0
100
AcDbLine
 62
7
  6
CONTINUOUS
 10
126.431974757
 20
218.0794656489
 11
126.431974757
 21
218.2794656489
  0
LINE
  5
2BD
100
AcDbEntity
  8
0
100
AcDbLine
 62
7
  6
CONTINUOUS
 10
126.7000794122
 20
218.0794656489
 11
126.7000794122
 21
218.2794656489
  0
LINE
  5
2BE
100
AcDbEntity
  8
RUNDUNGEN
100
AcDbLine
 62
7
  6
CONTINUOUS
 10
106.5940102047
 20
202.6794656489
 11
139.1969485093
 21
202.6794656489
  0
LINE
  5
2BF
100
AcDbEntity
  8
0
100
AcDbLine
 62
7
  6
CONTINUOUS
 10
139.1842855411
 20
202.8794656489
 11
110.0935807355
 21
202.8794656489
  0
LINE
  5
2C0
100
AcDbEntity
  8
KONSTRUKTIONSELEMENTE
100
AcDbLine
 62
7
  6
CONTINUOUS
 10
140.0935807355
 20
205.6794656489
 11
139.1688847825
 21
205.6794656489
  0
LINE
  5
2C1
100
AcDbEntity
  8
0
100
AcDbLine
 62
7
  6
CONTINUOUS
 10
150.0935807355
 20
205.6794656489
 11
151.0182766885
 21
205.6794656489
  0
LINE
  5
2C2
100
AcDbEntity
  8
0
100
AcDbLine
 62
7
  6
CONTINUOUS
 10
127.0615765967
 20
218.0794656489
 11
127.0615765967
 21
218.2794656489
  0
LINE
  5
2C3
100
AcDbEntity
  8
0
100
AcDbLine
 62
7
  6
CONTINUOUS
 10
127.1585778758
 20
218.0794656489
 11
127.1585778758
 21
218.2794656489
  0
LINE
  5
2C4
100
AcDbEntity
  8
0
100
AcDbLine
 62
7
  6
CONTINUOUS
 10
127.2309395286
 20
218.0794656489
 11
127.2309395286
 21
218.2794656489
  0
LINE
  5
2C5
100
AcDbEntity
  8
0
100
AcDbLine
 62
7
  6
CONTINUOUS
 10
127.2585652294
 20
218.0794656489
 11
127.2585652294
 21
218.2794656489
  0
LINE
  5
2C6
100
AcDbEntity
  8
0
100
AcDbLine
 62
7
  6
CONTINUOUS
 10
127.7679327977
 20
218.0794656489
 11
127.7679327977
 21
218.2794656489
  0
LINE
  5
2C7
100
AcDbEntity
  8
0
100
AcDbLine
 62
7
  6
CONTINUOUS
 10
127.7718848278
 20
218.0794656489
 11
127.7718848278
 21
218.2794656489
  0
LINE
  5
2C8
100
AcDbEntity
  8
0
100
AcDbLine
 62
7
  6
CONTINUOUS
 10
127.8701437847
 20
218.0794656489
 11
127.8701437847
 21
218.2794656489
  0
LINE
  5
2C9
100
AcDbEntity
  8
0
100
AcDbLine
 62
7
  6
CONTINUOUS
 10
128.0135805849
 20
218.0794656489
 11
128.0135805849
 21
218.2794656489
  0
LINE
  5
2CA
100
AcDbEntity
  8
0
100
AcDbLine
 62
7
  6
CONTINUOUS
 10
128.2267595667
 20
218.0794656489
 11
128.2267595667
 21
218.2794656489
  0
LINE
  5
2CB
100
AcDbEntity
  8
0
100
AcDbLine
 62
7
  6
CONTINUOUS
 10
128.4153739442
 20
218.0794656489
 11
128.4153739442
 21
218.2794656489
  0
LINE
  5
2CC
100
AcDbEntity
  8
0
100
AcDbLine
 62
7
  6
CONTINUOUS
 10
128.6737305014
 20
218.0794656489
 11
128.6737305014
 21
218.2794656489
  0
LINE
  5
2CD
100
AcDbEntity
  8
0
100
AcDbLine
 62
7
  6
CONTINUOUS
 10
128.9075224563
 20
218.0794656489
 11
128.9075224563
 21
218.2794656489
  0
LINE
  5
2CE
100
AcDbEntity
  8
0
100
AcDbLine
 62
7
  6
CONTINUOUS
 10
129.1864919845
 20
218.0794656489
 11
129.1864919845
 21
218.2794656489
  0
LINE
  5
2CF
100
AcDbEntity
  8
0
100
AcDbLine
 62
7
  6
CONTINUOUS
 10
129.3711541971
 20
218.0794656489
 11
129.3711541971
 21
218.2794656489
  0
LINE
  5
2D0
100
AcDbEntity
  8
0
100
AcDbLine
 62
7
  6
CONTINUOUS
 10
129.5358926628
 20
218.0794656489
 11
129.5358926628
 21
218.2794656489
  0
LINE
  5
2D1
100
AcDbEntity
  8
0
100
AcDbLine
 62
7
  6
CONTINUOUS
 10
130.4472271101
 20
218.0794656489
 11
130.4472271101
 21
218.2794656489
  0
LINE
  5
2D2
100
AcDbEntity
  8
0
100
AcDbLine
 62
7
  6
CONTINUOUS
 10
130.6734950726
 20
218.0794656489
 11
130.6734950726
 21
218.2794656489
  0
LINE
  5
2D3
100
AcDbEntity
  8
0
100
AcDbLine
 62
7
  6
CONTINUOUS
 10
130.8981969543
 20
218.0794656489
 11
130.8981969543
 21
218.2794656489
  0
LINE
  5
2D4
100
AcDbEntity
  8
0
100
AcDbLine
 62
7
  6
CONTINUOUS
 10
131.1957117816
 20
218.0794656489
 11
131.1957117816
 21
218.2794656489
  0
LINE
  5
2D5
100
AcDbEntity
  8
0
100
AcDbLine
 62
7
  6
CONTINUOUS
 10
131.4172823741
 20
218.0794656489
 11
131.4172823741
 21
218.2794656489
  0
LINE
  5
2D6
100
AcDbEntity
  8
0
100
AcDbLine
 62
7
  6
CONTINUOUS
 10
140.0935807355
 20
208.0794656489
 11
110.0935807355
 21
208.0794656489
  0
LINE
  5
2D7
100
AcDbEntity
  8
KONSTRUKTIONSELEMENTE
100
AcDbLine
 62
7
  6
CONTINUOUS
 10
111.2371742749
 20
208.5794656489
 11
138.949987196
 21
208.5794656489
  0
LINE
  5
2D8
100
AcDbEntity
  8
0
100
AcDbLine
 62
7
  6
CONTINUOUS
 10
131.6372868539
 20
218.0794656489
 11
131.6372868539
 21
218.2794656489
  0
LINE
  5
2D9
100
AcDbEntity
  8
BEZUGSACHSEN
100
AcDbLine
 62
7
  6
CONTINUOUS
 10
132.0217839658
 20
208.5794656489
 11
132.0217839658
 21
217.0076688791
  0
LINE
  5
2DA
100
AcDbEntity
  8
0
100
AcDbLine
 62
7
  6
CONTINUOUS
 10
132.1457330359
 20
218.0794656489
 11
132.1457330359
 21
218.2794656489
  0
LINE
  5
2DB
100
AcDbEntity
  8
0
100
AcDbLine
 62
7
  6
CONTINUOUS
 10
132.2069163708
 20
218.0794656489
 11
132.2069163708
 21
218.2794656489
  0
LINE
  5
2DC
100
AcDbEntity
  8
0
100
AcDbLine
 62
7
  6
CONTINUOUS
 10
132.3536303845
 20
218.0794656489
 11
132.3536303845
 21
218.2794656489
  0
LINE
  5
2DD
100
AcDbEntity
  8
0
100
AcDbLine
 62
7
  6
CONTINUOUS
 10
132.5681104779
 20
218.0794656489
 11
132.5681104779
 21
218.2794656489
  0
LINE
  5
2DE
100
AcDbEntity
  8
0
100
AcDbLine
 62
7
  6
CONTINUOUS
 10
132.8181198308
 20
218.0794656489
 11
132.8181198308
 21
218.2794656489
  0
LINE
  5
2DF
100
AcDbEntity
  8
BEZUGSACHSEN
100
AcDbLine
 62
7
  6
CONTINUOUS
 10
133.0935807355
 20
151.2794656489
 11
133.0935807355
 21
172.2794656489
  0
LINE
  5
2E0
100
AcDbEntity
  8
0
100
AcDbLine
 62
7
  6
CONTINUOUS
 10
133.103658338
 20
218.0794656489
 11
133.103658338
 21
218.2794656489
  0
LINE
  5
2E1
100
AcDbEntity
  8
0
100
AcDbLine
 62
7
  6
CONTINUOUS
 10
133.3069573378
 20
218.0794656489
 11
133.3069573378
 21
218.2794656489
  0
LINE
  5
2E2
100
AcDbEntity
  8
0
100
AcDbLine
 62
7
  6
CONTINUOUS
 10
133.5457851554
 20
218.0794656489
 11
133.5457851554
 21
218.2794656489
  0
LINE
  5
2E3
100
AcDbEntity
  8
0
100
AcDbLine
 62
7
  6
CONTINUOUS
 10
133.6846092599
 20
218.0794656489
 11
133.6846092599
 21
218.2794656489
  0
LINE
  5
2E4
100
AcDbEntity
  8
0
100
AcDbLine
 62
7
  6
CONTINUOUS
 10
133.7536826134
 20
218.0794656489
 11
133.7536826134
 21
218.2794656489
  0
LINE
  5
2E5
100
AcDbEntity
  8
0
100
AcDbLine
 62
7
  6
CONTINUOUS
 10
133.9214523888
 20
218.0794656489
 11
133.9214523888
 21
218.2794656489
  0
LINE
  5
2E6
100
AcDbEntity
  8
0
100
AcDbLine
 62
7
  6
CONTINUOUS
 10
134.1747532451
 20
218.0794656489
 11
134.1747532451
 21
218.2794656489
  0
LINE
  5
2E7
100
AcDbEntity
  8
0
100
AcDbLine
 62
7
  6
CONTINUOUS
 10
134.4135814693
 20
218.0794656489
 11
134.4135814693
 21
218.2794656489
  0
LINE
  5
2E8
100
AcDbEntity
  8
0
100
AcDbLine
 62
7
  6
CONTINUOUS
 10
134.5524055738
 20
218.0794656489
 11
134.5524055738
 21
218.2794656489
  0
LINE
  5
2E9
100
AcDbEntity
  8
0
100
AcDbLine
 62
7
  6
CONTINUOUS
 10
134.6234636161
 20
218.0794656489
 11
134.6234636161
 21
218.2794656489
  0
LINE
  5
2EA
100
AcDbEntity
  8
0
100
AcDbLine
 62
7
  6
CONTINUOUS
 10
134.6622840075
 20
218.0794656489
 11
134.6622840075
 21
218.2794656489
  0
LINE
  5
2EB
100
AcDbEntity
  8
0
100
AcDbLine
 62
7
  6
CONTINUOUS
 10
135.0698372186
 20
218.0794656489
 11
135.0698372186
 21
218.2794656489
  0
LINE
  5
2EC
100
AcDbEntity
  8
0
100
AcDbLine
 62
7
  6
CONTINUOUS
 10
135.109965184
 20
218.0794656489
 11
135.109965184
 21
218.2794656489
  0
LINE
  5
2ED
100
AcDbEntity
  8
0
100
AcDbLine
 62
7
  6
CONTINUOUS
 10
135.2702692928
 20
218.0794656489
 11
135.2702692928
 21
218.2794656489
  0
LINE
  5
2EE
100
AcDbEntity
  8
0
100
AcDbLine
 62
7
  6
CONTINUOUS
 10
139.1856988002
 20
202.8794656489
 11
139.1899704646
 21
202.8049326053
  0
LWPOLYLINE
  5
2EF
100
AcDbEntity
  8
RUNDUNGEN
100
AcDbPolyline
 62
7
  6
CONTINUOUS
 90
7
 70
0
 10
139.1842855189
 20
202.9042561801
 10
139.2360783595
 20
201.9758506385
 10
139.2789626569
 20
201.0478160147
 10
139.3055845441
 20
200.1605899522
 10
139.3143640677
 20
199.3178223003
 10
139.3076838733
 20
198.5218098029
 10
139.2945691402
 20
197.9106776783
  0
LINE
  5
2F0
100
AcDbEntity
  8
RUNDUNGEN
100
AcDbLine
 62
7
  6
CONTINUOUS
 10
139.1793817366
 20
202.9987262121
 11
139.1842855709
 21
202.9042553149
  0
LWPOLYLINE
  5
2F1
100
AcDbEntity
  8
RUNDUNGEN
100
AcDbPolyline
 62
7
  6
CONTINUOUS
 90
4
 70
0
 10
139.1688892837
 20
203.4536167992
 10
139.1702688906
 20
203.2869523851
 10
139.173829529
 20
203.1397422827
 10
139.1793817366
 20
202.9987262121
  0
LINE
  5
2F2
100
AcDbEntity
  8
KONSTRUKTIONSELEMENTE
100
AcDbLine
 62
7
  6
CONTINUOUS
 10
136.0935807355
 20
208.0794656489
 11
136.0935807355
 21
208.5794656489
  0
LINE
  5
2F3
100
AcDbEntity
  8
BEZUGSACHSEN
100
AcDbLine
 62
7
  6
CONTINUOUS
 10
136.0935807355
 20
208.0794656489
 11
136.0935807355
 21
208.5794656489
  0
LINE
  5
2F4
100
AcDbEntity
  8
0
100
AcDbLine
 62
7
  6
CONTINUOUS
 10
137.3435807355
 20
202.8794656489
 11
137.3435807355
 21
202.6794656489
  0
LINE
  5
2F5
100
AcDbEntity
  8
0
100
AcDbLine
 62
7
  6
CONTINUOUS
 10
137.3435807355
 20
177.6794656489
 11
137.3435807355
 21
177.4794656489
  0
LINE
  5
2F6
100
AcDbEntity
  8
0
100
AcDbLine
 62
7
  6
CONTINUOUS
 10
138.3435807355
 20
189.6794656489
 11
138.3435807355
 21
189.7213339292
  0
LINE
  5
2F7
100
AcDbEntity
  8
RUNDUNGEN
100
AcDbLine
 62
7
  6
CONTINUOUS
 10
138.3435807355
 20
189.6794656489
 11
138.3435807355
 21
190.9283775098
  0
LINE
  5
2F8
100
AcDbEntity
  8
0
100
AcDbLine
 62
7
  6
CONTINUOUS
 10
138.3435807355
 20
263.9294656489
 11
138.3435807355
 21
264.6794656489
  0
LINE
  5
2F9
100
AcDbEntity
  8
BEZUGSACHSEN
100
AcDbLine
 62
7
  6
CONTINUOUS
 10
138.949987196
 20
208.5794656489
 11
138.949987196
 21
217.0076688791
  0
LINE
  5
2FA
100
AcDbEntity
  8
0
100
AcDbLine
 62
7
  6
CONTINUOUS
 10
139.1688897264
 20
236.0465804023
 11
139.1688892543
 21
232.6794656489
  0
LINE
  5
2FB
100
AcDbEntity
  8
RUNDUNGEN
100
AcDbLine
 62
7
  6
CONTINUOUS
 10
139.1688897264
 20
236.0465804023
 11
139.1688892543
 21
232.6794656489
  0
LINE
  5
2FC
100
AcDbEntity
  8
RUNDUNGEN
100
AcDbLine
 62
7
  6
CONTINUOUS
 10
139.1688892748
 20
205.6794656489
 11
139.1688892748
 21
203.4536167336
  0
LINE
  5
2FD
100
AcDbEntity
  8
0
100
AcDbLine
 62
7
  6
CONTINUOUS
 10
139.1688398905
 20
246.7870166116
 11
139.1688720631
 21
242.4911940786
  0
LINE
  5
2FE
100
AcDbEntity
  8
RUNDUNGEN
100
AcDbLine
 62
7
  6
CONTINUOUS
 10
139.1688720631
 20
242.4911940786
 11
139.1688809072
 21
246.80400763
  0
LINE
  5
2FF
100
AcDbEntity
  8
0
100
AcDbLine
 62
7
  6
CONTINUOUS
 10
139.5935807355
 20
268.3451852155
 11
139.5935807355
 21
265.1677145219
  0
LINE
  5
300
100
AcDbEntity
  8
RUNDUNGEN
100
AcDbLine
 62
7
  6
CONTINUOUS
 10
139.5935807355
 20
265.1677145219
 11
139.5935807355
 21
261.5167875347
  0
LINE
  5
301
100
AcDbEntity
  8
KONSTRUKTIONSELEMENTE
100
AcDbLine
 62
7
  6
CONTINUOUS
 10
139.5935807355
 20
216.9094656489
 11
139.5935807355
 21
220.076132395
  0
LINE
  5
302
100
AcDbEntity
  8
KONSTRUKTIONSELEMENTE
100
AcDbLine
 62
7
  6
CONTINUOUS
 10
139.5935807355
 20
220.7427989027
 11
139.5935807355
 21
223.7427991411
  0
LINE
  5
303
100
AcDbEntity
  8
0
100
AcDbLine
 62
7
  6
CONTINUOUS
 10
139.5935807355
 20
223.9130986524
 11
139.5935807355
 21
226.1127023581
  0
LINE
  5
304
100
AcDbEntity
  8
KONSTRUKTIONSELEMENTE
100
AcDbLine
 62
7
  6
CONTINUOUS
 10
139.5935807355
 20
226.1127023581
 11
139.5935807355
 21
227.3130986524
  0
LINE
  5
305
100
AcDbEntity
  8
0
100
AcDbLine
 62
7
  6
CONTINUOUS
 10
139.5935807355
 20
227.3130986524
 11
139.5935807355
 21
229.5127023581
  0
LINE
  5
306
100
AcDbEntity
  8
0
100
AcDbLine
 62
7
  6
CONTINUOUS
 10
140.0935807355
 20
232.6794656489
 11
140.0935807355
 21
205.6794656489
  0
LINE
  5
307
100
AcDbEntity
  8
0
100
AcDbLine
 62
7
  6
CONTINUOUS
 10
140.0935807355
 20
177.4794656489
 11
140.0935807355
 21
172.2794656489
  0
LINE
  5
308
100
AcDbEntity
  8
0
100
AcDbLine
 62
7
  6
CONTINUOUS
 10
138.3435807355
 20
190.9283775098
 11
138.3435812417
 21
190.9308889343
  0
LINE
  5
309
100
AcDbEntity
  8
RUNDUNGEN
100
AcDbLine
 62
7
  6
CONTINUOUS
 10
139.2945758616
 20
197.9109540458
 11
139.2912014484
 21
197.798536796
  0
LINE
  5
30A
100
AcDbEntity
  8
RUNDUNGEN
100
AcDbLine
 62
7
  6
CONTINUOUS
 10
139.2912014484
 20
197.798536796
 11
139.2878898872
 21
197.7098358693
  0
LWPOLYLINE
  5
30B
100
AcDbEntity
  8
RUNDUNGEN
100
AcDbPolyline
 62
7
  6
CONTINUOUS
 90
4
 70
0
 10
139.2878738789
 20
197.7094547373
 10
139.2868753364
 20
197.6859021497
 10
139.2807938683
 20
197.5739376864
 10
139.2760447269
 20
197.5064227389
  0
LWPOLYLINE
  5
30C
100
AcDbEntity
  8
RUNDUNGEN
100
AcDbPolyline
 62
7
  6
CONTINUOUS
 90
3
 70
0
 10
138.3922918104
 20
191.8205118059
 10
138.3524600404
 20
191.3070878532
 10
138.3435812383
 20
190.9308889343
  0
LINE
  5
30D
100
AcDbEntity
  8
KONSTRUKTIONSELEMENTE
100
AcDbLine
 62
7
  6
CONTINUOUS
 10
140.0935807355
 20
216.9094656489
 11
139.5935807355
 21
216.9094656489
  0
LINE
  5
30E
100
AcDbEntity
  8
KONSTRUKTIONSELEMENTE
100
AcDbLine
 62
7
  6
CONTINUOUS
 10
140.0935807355
 20
217.4094656489
 11
139.5935807355
 21
217.4094656489
  0
LINE
  5
30F
100
AcDbEntity
  8
BEZUGSACHSEN
100
AcDbLine
 62
7
  6
CONTINUOUS
 10
113.0941182998
 20
218.0794656489
 11
137.093043171
 21
218.0794656489
  0
LINE
  5
310
100
AcDbEntity
  8
0
100
AcDbLine
 62
7
  6
CONTINUOUS
 10
125.0991637945
 20
218.2794656489
 11
127.2585652294
 21
218.2794656489
  0
LINE
  5
311
100
AcDbEntity
  8
0
100
AcDbLine
 62
7
  6
CONTINUOUS
 10
127.7718848278
 20
218.2794656489
 11
129.5312517875
 21
218.2794656489
  0
LINE
  5
312
100
AcDbEntity
  8
0
100
AcDbLine
 62
7
  6
CONTINUOUS
 10
129.5358926628
 20
218.2794656489
 11
135.2702692928
 21
218.2794656489
  0
LINE
  5
313
100
AcDbEntity
  8
KONSTRUKTIONSELEMENTE
100
AcDbLine
 62
7
  6
CONTINUOUS
 10
140.0935807355
 20
218.8261322758
 11
139.5935807355
 21
218.8261322758
  0
LINE
  5
314
100
AcDbEntity
  8
KONSTRUKTIONSELEMENTE
100
AcDbLine
 62
7
  6
CONTINUOUS
 10
140.0935807355
 20
219.4927989027
 11
139.5935807355
 21
219.4927989027
  0
LINE
  5
315
100
AcDbEntity
  8
0
100
AcDbLine
 62
7
  6
CONTINUOUS
 10
138.3692665234
 20
263.3411643853
 11
138.3980052536
 21
263.0126791953
  0
LINE
  5
316
100
AcDbEntity
  8
0
100
AcDbLine
 62
7
  6
CONTINUOUS
 10
138.9369904356
 20
256.8520503755
 11
138.5237541611
 21
261.5753626054
  0
LINE
  5
317
100
AcDbEntity
  8
RUNDUNGEN
100
AcDbLine
 62
7
  6
CONTINUOUS
 10
138.5287793489
 20
261.5179244468
 11
138.3692355961
 21
263.3415178855
  0
LINE
  5
318
100
AcDbEntity
  8
RUNDUNGEN
100
AcDbLine
 62
7
  6
CONTINUOUS
 10
139.6011913393
 20
261.3424760492
 11
139.9879995192
 21
256.9212383222
  0
LINE
  5
319
100
AcDbEntity
  8
0
100
AcDbLine
 62
7
  6
CONTINUOUS
 10
139.9879995192
 20
256.9212383222
 11
140.1284441805
 21
255.3159484977
  0
LINE
  5
31A
100
AcDbEntity
  8
RUNDUNGEN
100
AcDbLine
 62
7
  6
CONTINUOUS
 10
140.1284441805
 20
255.3159484977
 11
140.3859701317
 21
252.3724134063
  0
LINE
  5
31B
100
AcDbEntity
  8
RUNDUNGEN
100
AcDbLine
 62
7
  6
CONTINUOUS
 10
140.3935807355
 20
252.1981019208
 11
140.3935807355
 21
249.1258321833
  0
LINE
  5
31C
100
AcDbEntity
  8
0
100
AcDbLine
 62
7
  6
CONTINUOUS
 10
140.3935807355
 20
249.1258321833
 11
140.3935807355
 21
242.1369873787
  0
LINE
  5
31D
100
AcDbEntity
  8
0
100
AcDbLine
 62
7
  6
CONTINUOUS
 10
140.3935807355
 20
241.8291234318
 11
140.3935807355
 21
231.0882869496
  0
LINE
  5
31E
100
AcDbEntity
  8
0
100
AcDbLine
 62
7
  6
CONTINUOUS
 10
139.2760323285
 20
197.5062595436
 11
139.2760447074
 21
197.5064215519
  0
LWPOLYLINE
  5
31F
100
AcDbEntity
  8
RUNDUNGEN
100
AcDbPolyline
 62
7
  6
CONTINUOUS
 90
3
 70
0
 10
139.2760323285
 20
197.5062595436
 10
139.2440391771
 20
197.107202594
 10
139.1937337971
 20
196.5465045394
  0
LINE
  5
320
100
AcDbEntity
  8
RUNDUNGEN
100
AcDbLine
 62
7
  6
CONTINUOUS
 10
139.1937337971
 20
196.5465045394
 11
139.1408380153
 21
196.0270151269
  0
LINE
  5
321
100
AcDbEntity
  8
RUNDUNGEN
100
AcDbLine
 62
7
  6
CONTINUOUS
 10
139.1408380153
 20
196.0270151269
 11
139.0861622931
 21
195.5507065258
  0
LWPOLYLINE
  5
322
100
AcDbEntity
  8
RUNDUNGEN
100
AcDbPolyline
 62
7
  6
CONTINUOUS
 90
9
 70
0
 10
139.0861622931
 20
195.5507065258
 10
139.0305364939
 20
195.1188721798
 10
138.9750054056
 20
194.7335564565
 10
138.9206291173
 20
194.3958229014
 10
138.8690701788
 20
194.1090843503
 10
138.8220523668
 20
193.8751222192
 10
138.7821956611
 20
193.6979376826
 10
138.7531223562
 20
193.5825104808
 10
138.6627596159
 20
193.2563534509
  0
LWPOLYLINE
  5
323
100
AcDbEntity
  8
0
100
AcDbPolyline
 62
7
  6
CONTINUOUS
 90
5
 70
0
 10
138.4997910332
 20
192.5237546305
 10
138.4605371124
 20
192.3189513182
 10
138.3922918104
 20
191.8205118059
 10
138.3524600404
 20
191.3070878531
 10
138.3435812383
 20
190.9308889343
  0
LWPOLYLINE
  5
324
100
AcDbEntity
  8
RUNDUNGEN
100
AcDbPolyline
 62
7
  6
CONTINUOUS
 90
4
 70
0
 10
138.6627596159
 20
193.2563534509
 10
138.5524461589
 20
192.7984773569
 10
138.4605371124
 20
192.3189513182
 10
138.3922918104
 20
191.8205118059
  0
LINE
  5
325
100
AcDbEntity
  8
0
100
AcDbLine
 62
7
  6
CONTINUOUS
 10
138.7409629428
 20
193.5387199323
 11
138.7415027581
 21
193.5405806809
  0
LINE
  5
326
100
AcDbEntity
  8
KONSTRUKTIONSELEMENTE
100
AcDbLine
 62
7
  6
CONTINUOUS
 10
140.0935807355
 20
220.076132395
 11
139.5935807355
 21
220.076132395
  0
LINE
  5
327
100
AcDbEntity
  8
KONSTRUKTIONSELEMENTE
100
AcDbLine
 62
7
  6
CONTINUOUS
 10
140.0935807355
 20
220.7427989027
 11
139.5935807355
 21
220.7427989027
  0
LINE
  5
328
100
AcDbEntity
  8
KONSTRUKTIONSELEMENTE
100
AcDbLine
 62
7
  6
CONTINUOUS
 10
140.0935807355
 20
220.826132395
 11
139.5935807355
 21
220.826132395
  0
LINE
  5
329
100
AcDbEntity
  8
KONSTRUKTIONSELEMENTE
100
AcDbLine
 62
7
  6
CONTINUOUS
 10
140.0935807355
 20
220.9927991411
 11
139.5935807355
 21
220.9927991411
  0
LINE
  5
32A
100
AcDbEntity
  8
KONSTRUKTIONSELEMENTE
100
AcDbLine
 62
7
  6
CONTINUOUS
 10
140.0935807355
 20
221.3261321566
 11
139.5935807355
 21
221.3261321566
  0
LINE
  5
32B
100
AcDbEntity
  8
KONSTRUKTIONSELEMENTE
100
AcDbLine
 62
7
  6
CONTINUOUS
 10
140.0935807355
 20
221.6594656489
 11
139.5935807355
 21
221.6594656489
  0
LINE
  5
32C
100
AcDbEntity
  8
KONSTRUKTIONSELEMENTE
100
AcDbLine
 62
7
  6
CONTINUOUS
 10
140.0935807355
 20
222.0761321566
 11
139.5935807355
 21
222.0761321566
  0
LINE
  5
32D
100
AcDbEntity
  8
KONSTRUKTIONSELEMENTE
100
AcDbLine
 62
7
  6
CONTINUOUS
 10
140.0935807355
 20
222.4094656489
 11
139.5935807355
 21
222.4094656489
  0
LINE
  5
32E
100
AcDbEntity
  8
KONSTRUKTIONSELEMENTE
100
AcDbLine
 62
7
  6
CONTINUOUS
 10
140.0935807355
 20
222.8261321566
 11
139.5935807355
 21
222.8261321566
  0
LINE
  5
32F
100
AcDbEntity
  8
KONSTRUKTIONSELEMENTE
100
AcDbLine
 62
7
  6
CONTINUOUS
 10
140.0935807355
 20
223.1594656489
 11
139.5935807355
 21
223.1594656489
  0
LINE
  5
330
100
AcDbEntity
  8
KONSTRUKTIONSELEMENTE
100
AcDbLine
 62
7
  6
CONTINUOUS
 10
140.0935807355
 20
223.4927991411
 11
139.5935807355
 21
223.4927991411
  0
LINE
  5
331
100
AcDbEntity
  8
KONSTRUKTIONSELEMENTE
100
AcDbLine
 62
7
  6
CONTINUOUS
 10
140.0935807355
 20
223.6594656489
 11
139.5935807355
 21
223.6594656489
  0
LINE
  5
332
100
AcDbEntity
  8
KONSTRUKTIONSELEMENTE
100
AcDbLine
 62
7
  6
CONTINUOUS
 10
140.0935807355
 20
223.7427991411
 11
139.5935807355
 21
223.7427991411
  0
LINE
  5
333
100
AcDbEntity
  8
0
100
AcDbLine
 62
7
  6
CONTINUOUS
 10
140.0935807355
 20
223.9127023581
 11
139.5935807355
 21
223.9127023581
  0
LINE
  5
334
100
AcDbEntity
  8
BEZUGSACHSEN
100
AcDbLine
 62
7
  6
CONTINUOUS
 10
138.949987196
 20
217.0076688791
 11
137.0935807355
 21
218.0794656489
  0
LINE
  5
335
100
AcDbEntity
  8
0
100
AcDbLine
 62
7
  6
CONTINUOUS
 10
150.5859701317
 20
261.3424760492
 11
149.8011913393
 21
252.3724134063
  0
LINE
  5
336
100
AcDbEntity
  8
0
100
AcDbLine
 62
7
  6
CONTINUOUS
 10
151.2501710354
 20
256.8520503755
 11
151.8178949476
 21
263.3411643853
  0
LINE
  5
337
100
AcDbEntity
  8
0
100
AcDbLine
 62
7
  6
CONTINUOUS
 10
140.0935807355
 20
226.1127023581
 11
139.5935807355
 21
226.1127023581
  0
LINE
  5
338
100
AcDbEntity
  8
KONSTRUKTIONSELEMENTE
100
AcDbLine
 62
7
  6
CONTINUOUS
 10
140.0935807355
 20
226.4094656489
 11
139.5935807355
 21
226.4094656489
  0
LINE
  5
339
100
AcDbEntity
  8
KONSTRUKTIONSELEMENTE
100
AcDbLine
 62
7
  6
CONTINUOUS
 10
140.0935807355
 20
226.8261326334
 11
139.5935807355
 21
226.8261326334
  0
LINE
  5
33A
100
AcDbEntity
  8
KONSTRUKTIONSELEMENTE
100
AcDbLine
 62
7
  6
CONTINUOUS
 10
140.0935807355
 20
227.1594656489
 11
139.5935807355
 21
227.1594656489
  0
LINE
  5
33B
100
AcDbEntity
  8
0
100
AcDbLine
 62
7
  6
CONTINUOUS
 10
140.0935807355
 20
227.3127023581
 11
139.5935807355
 21
227.3127023581
  0
LINE
  5
33C
100
AcDbEntity
  8
0
100
AcDbLine
 62
7
  6
CONTINUOUS
 10
151.4461985282
 20
193.5387199323
 11
151.4456587128
 21
193.5405806809
  0
LWPOLYLINE
  5
33D
100
AcDbEntity
  8
0
100
AcDbPolyline
 62
7
  6
CONTINUOUS
 90
8
 70
0
 10
151.4340391148
 20
193.5825104808
 10
151.4049658099
 20
193.6979376826
 10
151.3651091042
 20
193.8751222192
 10
151.3180912922
 20
194.1090843503
 10
151.2665323537
 20
194.3958229014
 10
151.2121560654
 20
194.7335564565
 10
151.1566249771
 20
195.1188721798
 10
151.1009991779
 20
195.5507065258
  0
LWPOLYLINE
  5
33E
100
AcDbEntity
  8
0
100
AcDbPolyline
 62
7
  6
CONTINUOUS
 90
4
 70
0
 10
151.7266243586
 20
192.3189513182
 10
151.6347153121
 20
192.7984773569
 10
151.5244018551
 20
193.2563534509
 10
151.4340391148
 20
193.5825104808
  0
LWPOLYLINE
  5
33F
100
AcDbEntity
  8
0
100
AcDbPolyline
 62
7
  6
CONTINUOUS
 90
4
 70
0
 10
151.0463234557
 20
196.0270151269
 10
150.9934276739
 20
196.5465045394
 10
150.9431222939
 20
197.107202594
 10
150.9111291425
 20
197.5062595436
  0
LWPOLYLINE
  5
340
100
AcDbEntity
  8
0
100
AcDbPolyline
 62
7
  6
CONTINUOUS
 90
3
 70
0
 10
150.9111167441
 20
197.5064227389
 10
150.9063676027
 20
197.5739376864
 10
150.9002861346
 20
197.6859021497
  0
LWPOLYLINE
  5
341
100
AcDbEntity
  8
0
100
AcDbPolyline
 62
7
  6
CONTINUOUS
 90
3
 70
0
 10
150.9002861346
 20
197.6859021497
 10
150.8981409923
 20
197.7385599358
 10
150.8958906737
 20
197.8005650818
  0
LINE
  5
342
100
AcDbEntity
  8
0
100
AcDbLine
 62
7
  6
CONTINUOUS
 10
150.8958906737
 20
197.8005650818
 11
150.8925856127
 21
197.9109539125
  0
LWPOLYLINE
  5
343
100
AcDbEntity
  8
0
100
AcDbPolyline
 62
7
  6
CONTINUOUS
 90
4
 70
0
 10
151.8435802327
 20
190.9308889343
 10
151.8347014305
 20
191.3070878532
 10
151.7948696606
 20
191.8205118059
 10
151.7266243586
 20
192.3189513182
  0
LWPOLYLINE
  5
344
100
AcDbEntity
  8
0
100
AcDbPolyline
 62
7
  6
CONTINUOUS
 90
6
 70
0
 10
150.8925923308
 20
197.9106776783
 10
150.8794775977
 20
198.5218098029
 10
150.8727974033
 20
199.3178223003
 10
150.8815769269
 20
200.1605899522
 10
150.9081988141
 20
201.0478160147
 10
150.9510831115
 20
201.9758506385
  0
LINE
  5
345
100
AcDbEntity
  8
0
100
AcDbLine
 62
7
  6
CONTINUOUS
 10
149.7935807355
 20
252.1981019208
 11
149.7935807355
 21
242.1369873787
  0
LINE
  5
346
100
AcDbEntity
  8
0
100
AcDbLine
 62
7
  6
CONTINUOUS
 10
149.7935807355
 20
241.8291234318
 11
149.7935807355
 21
231.0882869496
  0
LINE
  5
347
100
AcDbEntity
  8
0
100
AcDbLine
 62
7
  6
CONTINUOUS
 10
150.0935807355
 20
232.6794656489
 11
150.0935807355
 21
205.6794656489
  0
LINE
  5
348
100
AcDbEntity
  8
0
100
AcDbLine
 62
7
  6
CONTINUOUS
 10
150.5935807355
 20
268.3451852155
 11
150.5935807355
 21
261.5167875347
  0
LINE
  5
349
100
AcDbEntity
  8
0
100
AcDbLine
 62
7
  6
CONTINUOUS
 10
151.0182721962
 20
203.4536167336
 11
151.0182721962
 21
205.6794656489
  0
LINE
  5
34A
100
AcDbEntity
  8
0
100
AcDbLine
 62
7
  6
CONTINUOUS
 10
151.0182722167
 20
232.6794656489
 11
151.0182717445
 21
236.0465804023
  0
LINE
  5
34B
100
AcDbEntity
  8
0
100
AcDbLine
 62
7
  6
CONTINUOUS
 10
151.8435807355
 20
189.6794656489
 11
151.8435807355
 21
190.9283775098
  0
LINE
  5
34C
100
AcDbEntity
  8
0
100
AcDbLine
 62
7
  6
CONTINUOUS
 10
151.8435807355
 20
263.9294656489
 11
151.8435807355
 21
264.6794656489
  0
LINE
  5
34D
100
AcDbEntity
  8
0
100
AcDbLine
 62
7
  6
CONTINUOUS
 10
151.0182894079
 20
242.4911940786
 11
151.0182805638
 21
246.80400763
  0
LWPOLYLINE
  5
34E
100
AcDbEntity
  8
0
100
AcDbPolyline
 62
7
  6
CONTINUOUS
 90
4
 70
0
 10
151.0077797344
 20
202.9987262121
 10
151.013331942
 20
203.1397422827
 10
151.0168925803
 20
203.2869523851
 10
151.0182721872
 20
203.4536167992
  0
LINE
  5
34F
100
AcDbEntity
  8
0
100
AcDbLine
 62
7
  6
CONTINUOUS
 10
151.0028759
 20
202.9042553149
 11
151.0077797344
 21
202.9987262121
  0
LINE
  5
350
100
AcDbEntity
  8
0
100
AcDbLine
 62
7
  6
CONTINUOUS
 10
150.9510831115
 20
201.9758506385
 11
151.0028759521
 21
202.9042561801
  0
LINE
  5
351
100
AcDbEntity
  8
0
100
AcDbLine
 62
7
  6
CONTINUOUS
 10
140.0935807355
 20
229.5127023581
 11
139.5935807355
 21
229.5127023581
  0
LINE
  5
352
100
AcDbEntity
  8
0
100
AcDbLine
 62
7
  6
CONTINUOUS
 10
151.0182566372
 20
232.6794656489
 11
150.0935807355
 21
232.6794656489
  0
LINE
  5
353
100
AcDbEntity
  8
0
100
AcDbLine
 62
7
  6
CONTINUOUS
 10
139.1689048338
 20
232.6794656489
 11
140.0935807355
 21
232.6794656489
  0
LINE
  5
354
100
AcDbEntity
  8
0
100
AcDbLine
 62
7
  6
CONTINUOUS
 10
151.1009991779
 20
195.5507065258
 11
151.0463234557
 21
196.0270151269
  0
LINE
  5
355
100
AcDbEntity
  8
0
100
AcDbLine
 62
7
  6
CONTINUOUS
 10
140.3935807355
 20
242.1369873787
 11
140.2053420674
 21
242.1369873787
  0
LINE
  5
356
100
AcDbEntity
  8
0
100
AcDbLine
 62
7
  6
CONTINUOUS
 10
149.7935807355
 20
242.1369873787
 11
149.9818194036
 21
242.1369873787
  0
LINE
  5
357
100
AcDbEntity
  8
BEZUGSACHSEN
100
AcDbLine
 62
7
  6
CONTINUOUS
 10
133.0935807355
 20
151.2794656489
 11
131.8935807355
 21
150.0794656489
  0
LINE
  5
358
100
AcDbEntity
  8
0
100
AcDbLine
 62
7
  6
CONTINUOUS
 10
139.5935807355
 20
267.9294656489
 11
139.3000204901
 21
267.9294656489
  0
LINE
  5
359
100
AcDbEntity
  8
0
100
AcDbLine
 62
7
  6
CONTINUOUS
 10
150.5935807355
 20
267.9294656489
 11
150.8871409809
 21
267.9294656489
  0
LINE
  5
35A
100
AcDbEntity
  8
KONSTRUKTIONSELEMENTE
100
AcDbLine
 62
7
  6
CONTINUOUS
 10
145.8435807355
 20
270.6794656489
 11
144.3435807355
 21
270.6794656489
  0
LINE
  5
35B
100
AcDbEntity
  8
BEZUGSACHSEN
100
AcDbLine
 62
7
  6
CONTINUOUS
 10
255.6636862929
 20
150.0794656489
 11
269.2636862929
 21
150.0794656489
  0
LINE
  5
35C
100
AcDbEntity
  8
BEZUGSACHSEN
100
AcDbLine
 62
7
  6
CONTINUOUS
 10
254.4636862929
 20
151.2794656489
 11
270.4636862929
 21
151.2794656489
  0
LINE
  5
35D
100
AcDbEntity
  8
0
100
AcDbLine
 62
7
  6
CONTINUOUS
 10
245.3644039925
 20
261.7058358642
 11
262.4636862929
 21
267.9294656489
  0
LINE
  5
35E
100
AcDbEntity
  8
BEZUGSACHSEN
100
AcDbLine
 62
7
  6
CONTINUOUS
 10
255.6636862929
 20
150.0794656489
 11
254.4636862929
 21
151.2794656489
  0
LINE
  5
35F
100
AcDbEntity
  8
0
100
AcDbLine
 62
7
  6
CONTINUOUS
 10
235.1955126999
 20
242.1369873787
 11
235.0453574201
 21
241.8291234318
  0
LINE
  5
360
100
AcDbEntity
  8
0
100
AcDbLine
 62
7
  6
CONTINUOUS
 10
236.8725179386
 20
245.575357662
 11
244.2508561866
 21
260.7031929162
  0
LINE
  5
361
100
AcDbEntity
  8
0
100
AcDbLine
 62
7
  6
CONTINUOUS
 10
247.4636862929
 20
172.2794656489
 11
277.4636862929
 21
172.2794656489
  0
LINE
  5
362
100
AcDbEntity
  8
0
100
AcDbLine
 62
7
  6
CONTINUOUS
 10
235.0453647637
 20
231.0882869496
 11
238.5548546472
 21
238.2838075397
  0
LINE
  5
363
100
AcDbEntity
  8
KONSTRUKTIONSELEMENTE
100
AcDbLine
 62
7
  6
CONTINUOUS
 10
236.0690054114
 20
227.1594656489
 11
235.8987926658
 21
226.8261326334
  0
LINE
  5
364
100
AcDbEntity
  8
KONSTRUKTIONSELEMENTE
100
AcDbLine
 62
7
  6
CONTINUOUS
 10
236.4094309028
 20
226.7427986643
 11
236.5796436484
 21
226.9927986643
  0
LINE
  5
365
100
AcDbEntity
  8
KONSTRUKTIONSELEMENTE
100
AcDbLine
 62
7
  6
CONTINUOUS
 10
236.4094309028
 20
227.4927986643
 11
236.0690054114
 21
227.1594656489
  0
LINE
  5
366
100
AcDbEntity
  8
0
100
AcDbLine
 62
7
  6
CONTINUOUS
 10
247.4636862929
 20
177.4794656489
 11
277.4636862929
 21
177.4794656489
  0
LINE
  5
367
100
AcDbEntity
  8
RUNDUNGEN
100
AcDbLine
 62
7
  6
CONTINUOUS
 10
278.2136862929
 20
177.6794656489
 11
246.7136862929
 21
177.6794656489
  0
LINE
  5
368
100
AcDbEntity
  8
0
100
AcDbLine
 62
7
  6
CONTINUOUS
 10
234.4636862929
 20
195.6793966026
 11
234.4636862929
 21
249.0959303455
  0
LINE
  5
369
100
AcDbEntity
  8
KONSTRUKTIONSELEMENTE
100
AcDbLine
 62
7
  6
CONTINUOUS
 10
235.8136862929
 20
226.4094656489
 11
235.8136862929
 21
224.4094656489
  0
LINE
  5
36A
100
AcDbEntity
  8
KONSTRUKTIONSELEMENTE
100
AcDbLine
 62
7
  6
CONTINUOUS
 10
235.8136862929
 20
223.7427991411
 11
235.8136862929
 21
223.2427991411
  0
LINE
  5
36B
100
AcDbEntity
  8
KONSTRUKTIONSELEMENTE
100
AcDbLine
 62
7
  6
CONTINUOUS
 10
235.8136862929
 20
221.2427991411
 11
235.8136862929
 21
220.7427989027
  0
LINE
  5
36C
100
AcDbEntity
  8
KONSTRUKTIONSELEMENTE
100
AcDbLine
 62
7
  6
CONTINUOUS
 10
235.8136862929
 20
218.9094656489
 11
235.8136862929
 21
216.9094656489
  0
LINE
  5
36D
100
AcDbEntity
  8
KONSTRUKTIONSELEMENTE
100
AcDbLine
 62
7
  6
CONTINUOUS
 10
236.2392181571
 20
217.4094656489
 11
236.2392181571
 21
218.9927989027
  0
LINE
  5
36E
100
AcDbEntity
  8
KONSTRUKTIONSELEMENTE
100
AcDbLine
 62
7
  6
CONTINUOUS
 10
236.3243245299
 20
224.9094656489
 11
236.3243245299
 21
226.4094656489
  0
LINE
  5
36F
100
AcDbEntity
  8
KONSTRUKTIONSELEMENTE
100
AcDbLine
 62
7
  6
CONTINUOUS
 10
235.8987926658
 20
226.8261326334
 11
235.8136862929
 21
226.4094656489
  0
LINE
  5
370
100
AcDbEntity
  8
KONSTRUKTIONSELEMENTE
100
AcDbLine
 62
7
  6
CONTINUOUS
 10
235.8987926658
 20
219.326132395
 11
235.8136862929
 21
218.9094656489
  0
LINE
  5
371
100
AcDbEntity
  8
KONSTRUKTIONSELEMENTE
100
AcDbLine
 62
7
  6
CONTINUOUS
 10
236.3243245299
 20
226.4094656489
 11
236.4094309028
 21
226.7427986643
  0
LINE
  5
372
100
AcDbEntity
  8
KONSTRUKTIONSELEMENTE
100
AcDbLine
 62
7
  6
CONTINUOUS
 10
236.2392181571
 20
218.9927989027
 11
236.3243245299
 21
219.2427989027
  0
LINE
  5
373
100
AcDbEntity
  8
KONSTRUKTIONSELEMENTE
100
AcDbLine
 62
7
  6
CONTINUOUS
 10
236.1541117843
 20
219.6594656489
 11
235.8987926658
 21
219.326132395
  0
LINE
  5
374
100
AcDbEntity
  8
KONSTRUKTIONSELEMENTE
100
AcDbLine
 62
7
  6
CONTINUOUS
 10
236.5796436484
 20
226.9927986643
 11
236.8349630053
 21
227.1594656489
  0
LINE
  5
375
100
AcDbEntity
  8
KONSTRUKTIONSELEMENTE
100
AcDbLine
 62
7
  6
CONTINUOUS
 10
236.7498563941
 20
227.6594656489
 11
236.4094309028
 21
227.4927986643
  0
LINE
  5
376
100
AcDbEntity
  8
0
100
AcDbLine
 62
7
  6
CONTINUOUS
 10
259.5436862929
 20
182.0094656489
 11
262.1686862929
 21
182.0094656489
  0
LINE
  5
377
100
AcDbEntity
  8
0
100
AcDbLine
 62
7
  6
CONTINUOUS
 10
260.1270196436
 20
182.3818060822
 11
262.1686862929
 21
182.3818060822
  0
LINE
  5
378
100
AcDbEntity
  8
0
100
AcDbLine
 62
7
  6
CONTINUOUS
 10
262.7520196958
 20
184.0945719919
 11
263.3353530987
 21
184.0945719919
  0
LINE
  5
379
100
AcDbEntity
  8
0
100
AcDbLine
 62
7
  6
CONTINUOUS
 10
263.6999362929
 20
184.0945719919
 11
264.5020194872
 21
184.0945719919
  0
LINE
  5
37A
100
AcDbEntity
  8
0
100
AcDbLine
 62
7
  6
CONTINUOUS
 10
263.9186862929
 20
182.0839337316
 11
264.3561862929
 21
182.0094656489
  0
LINE
  5
37B
100
AcDbEntity
  8
0
100
AcDbLine
 62
7
  6
CONTINUOUS
 10
263.9916030987
 20
182.3818060822
 11
264.3561862929
 21
182.3073379798
  0
LINE
  5
37C
100
AcDbEntity
  8
0
100
AcDbLine
 62
7
  6
CONTINUOUS
 10
263.6999362929
 20
182.1584018144
 11
263.9186862929
 21
182.0839337316
  0
LINE
  5
37D
100
AcDbEntity
  8
KONSTRUKTIONSELEMENTE
100
AcDbLine
 62
7
  6
CONTINUOUS
 10
237.515813988
 20
218.9927989027
 11
237.515813988
 21
217.4094656489
  0
LINE
  5
37E
100
AcDbEntity
  8
KONSTRUKTIONSELEMENTE
100
AcDbLine
 62
7
  6
CONTINUOUS
 10
238.026452225
 20
217.4094656489
 11
238.026452225
 21
218.8261322758
  0
LINE
  5
37F
100
AcDbEntity
  8
KONSTRUKTIONSELEMENTE
100
AcDbLine
 62
7
  6
CONTINUOUS
 10
239.3030479963
 20
226.4094656489
 11
239.3030479963
 21
224.9094656489
  0
LINE
  5
380
100
AcDbEntity
  8
KONSTRUKTIONSELEMENTE
100
AcDbLine
 62
7
  6
CONTINUOUS
 10
239.3030479963
 20
222.4094656489
 11
239.3030479963
 21
222.0761321566
  0
LINE
  5
381
100
AcDbEntity
  8
KONSTRUKTIONSELEMENTE
100
AcDbLine
 62
7
  6
CONTINUOUS
 10
239.8136862929
 20
216.9094656489
 11
239.8136862929
 21
217.4094656489
  0
LINE
  5
382
100
AcDbEntity
  8
KONSTRUKTIONSELEMENTE
100
AcDbLine
 62
7
  6
CONTINUOUS
 10
239.8136862929
 20
219.4927989027
 11
239.8136862929
 21
220.076132395
  0
LINE
  5
383
100
AcDbEntity
  8
KONSTRUKTIONSELEMENTE
100
AcDbLine
 62
7
  6
CONTINUOUS
 10
239.8136862929
 20
222.0761321566
 11
239.8136862929
 21
222.4094656489
  0
LINE
  5
384
100
AcDbEntity
  8
KONSTRUKTIONSELEMENTE
100
AcDbLine
 62
7
  6
CONTINUOUS
 10
239.8136862929
 20
224.4094656489
 11
239.8136862929
 21
226.4094656489
  0
LINE
  5
385
100
AcDbEntity
  8
0
100
AcDbLine
 62
7
  6
CONTINUOUS
 10
240.2605569563
 20
205.6794656489
 11
240.2605569563
 21
232.6794656489
  0
LINE
  5
386
100
AcDbEntity
  8
KONSTRUKTIONSELEMENTE
100
AcDbLine
 62
7
  6
CONTINUOUS
 10
239.7285799126
 20
221.6594656489
 11
239.8136862929
 21
222.0761321566
  0
LINE
  5
387
100
AcDbEntity
  8
KONSTRUKTIONSELEMENTE
100
AcDbLine
 62
7
  6
CONTINUOUS
 10
239.3030479963
 20
222.0761321566
 11
239.2179416235
 21
221.7427991411
  0
LINE
  5
388
100
AcDbEntity
  8
KONSTRUKTIONSELEMENTE
100
AcDbLine
 62
7
  6
CONTINUOUS
 10
239.5583671446
 20
221.3261321566
 11
239.7285799126
 21
221.6594656489
  0
LINE
  5
389
100
AcDbEntity
  8
KONSTRUKTIONSELEMENTE
100
AcDbLine
 62
7
  6
CONTINUOUS
 10
239.2179416235
 20
221.7427991411
 11
239.0477288182
 21
221.4927991411
  0
LINE
  5
38A
100
AcDbEntity
  8
KONSTRUKTIONSELEMENTE
100
AcDbLine
 62
7
  6
CONTINUOUS
 10
236.3243245299
 20
219.2427989027
 11
236.4945372756
 21
219.4094656489
  0
LINE
  5
38B
100
AcDbEntity
  8
KONSTRUKTIONSELEMENTE
100
AcDbLine
 62
7
  6
CONTINUOUS
 10
239.2179416235
 20
220.9927991411
 11
239.5583671446
 21
221.3261321566
  0
LINE
  5
38C
100
AcDbEntity
  8
KONSTRUKTIONSELEMENTE
100
AcDbLine
 62
7
  6
CONTINUOUS
 10
236.4945372756
 20
219.9094656489
 11
236.1541117843
 21
219.6594656489
  0
LINE
  5
38D
100
AcDbEntity
  8
KONSTRUKTIONSELEMENTE
100
AcDbLine
 62
7
  6
CONTINUOUS
 10
239.0477288182
 20
221.4927991411
 11
238.7924096997
 21
221.3261321566
  0
LINE
  5
38E
100
AcDbEntity
  8
0
100
AcDbLine
 62
7
  6
CONTINUOUS
 10
274.9366035159
 20
188.4562741584
 11
275.2282690699
 21
188.5307422346
  0
LINE
  5
38F
100
AcDbEntity
  8
0
100
AcDbLine
 62
7
  6
CONTINUOUS
 10
271.5824362929
 20
188.4562741584
 11
271.8741035159
 21
188.5307422346
  0
LINE
  5
390
100
AcDbEntity
  8
0
100
AcDbLine
 62
7
  6
CONTINUOUS
 10
274.9366035159
 20
188.0094656489
 11
275.3011862929
 21
188.0839337316
  0
LINE
  5
391
100
AcDbEntity
  8
0
100
AcDbLine
 62
7
  6
CONTINUOUS
 10
260.3457696436
 20
185.0626571915
 11
260.7103529944
 21
185.1371252677
  0
LINE
  5
392
100
AcDbEntity
  8
0
100
AcDbLine
 62
7
  6
CONTINUOUS
 10
271.5824362929
 20
188.0094656489
 11
271.9470190699
 21
188.0839337316
  0
LINE
  5
393
100
AcDbEntity
  8
0
100
AcDbLine
 62
7
  6
CONTINUOUS
 10
260.2728529422
 20
185.4349975726
 11
260.7832695915
 21
185.5094656489
  0
LINE
  5
394
100
AcDbEntity
  8
0
100
AcDbLine
 62
7
  6
CONTINUOUS
 10
262.7520196958
 20
184.3924442968
 11
263.3353530987
 21
184.3924442968
  0
LINE
  5
395
100
AcDbEntity
  8
0
100
AcDbLine
 62
7
  6
CONTINUOUS
 10
263.6999362929
 20
184.3924442968
 11
264.5020194872
 21
184.3924442968
  0
LINE
  5
396
100
AcDbEntity
  8
0
100
AcDbLine
 62
7
  6
CONTINUOUS
 10
259.6166029618
 20
184.6903168103
 11
259.9811862929
 21
184.6903168103
  0
LINE
  5
397
100
AcDbEntity
  8
0
100
AcDbLine
 62
7
  6
CONTINUOUS
 10
263.3353530987
 20
184.9881891153
 11
263.6999362929
 21
184.9881891153
  0
LINE
  5
398
100
AcDbEntity
  8
0
100
AcDbLine
 62
7
  6
CONTINUOUS
 10
260.7103529944
 20
185.1371252677
 11
261.0020195915
 21
185.1371252677
  0
LINE
  5
399
100
AcDbEntity
  8
0
100
AcDbLine
 62
7
  6
CONTINUOUS
 10
260.7832695915
 20
185.5094656489
 11
261.0749362929
 21
185.5094656489
  0
LINE
  5
39A
100
AcDbEntity
  8
0
100
AcDbLine
 62
7
  6
CONTINUOUS
 10
249.7803529944
 20
188.0094656489
 11
250.3636862929
 21
188.0094656489
  0
LINE
  5
39B
100
AcDbEntity
  8
0
100
AcDbLine
 62
7
  6
CONTINUOUS
 10
252.1136862929
 20
188.0094656489
 11
254.7386862929
 21
188.0094656489
  0
LINE
  5
39C
100
AcDbEntity
  8
0
100
AcDbLine
 62
7
  6
CONTINUOUS
 10
255.3220194872
 20
188.0094656489
 11
257.0720199044
 21
188.0094656489
  0
LINE
  5
39D
100
AcDbEntity
  8
0
100
AcDbLine
 62
7
  6
CONTINUOUS
 10
259.7699362929
 20
188.0094656489
 11
260.4261862929
 21
188.0094656489
  0
LINE
  5
39E
100
AcDbEntity
  8
0
100
AcDbLine
 62
7
  6
CONTINUOUS
 10
263.6345190699
 20
188.0094656489
 11
264.0720190699
 21
188.0094656489
  0
LINE
  5
39F
100
AcDbEntity
  8
0
100
AcDbLine
 62
7
  6
CONTINUOUS
 10
266.9157690699
 20
188.0094656489
 11
269.5407690699
 21
188.0094656489
  0
LINE
  5
3A0
100
AcDbEntity
  8
0
100
AcDbLine
 62
7
  6
CONTINUOUS
 10
271.2907690699
 20
188.0094656489
 11
271.5824362929
 21
188.0094656489
  0
LINE
  5
3A1
100
AcDbEntity
  8
0
100
AcDbLine
 62
7
  6
CONTINUOUS
 10
274.3532690699
 20
188.0094656489
 11
274.9366035159
 21
188.0094656489
  0
LINE
  5
3A2
100
AcDbEntity
  8
0
100
AcDbLine
 62
7
  6
CONTINUOUS
 10
252.5511862929
 20
188.4562741584
 11
254.7386862929
 21
188.4562741584
  0
LINE
  5
3A3
100
AcDbEntity
  8
0
100
AcDbLine
 62
7
  6
CONTINUOUS
 10
255.7595199044
 20
188.4562741584
 11
257.1449362929
 21
188.4562741584
  0
LINE
  5
3A4
100
AcDbEntity
  8
0
100
AcDbLine
 62
7
  6
CONTINUOUS
 10
259.7699362929
 20
188.4562741584
 11
260.4261862929
 21
188.4562741584
  0
LINE
  5
3A5
100
AcDbEntity
  8
0
100
AcDbLine
 62
7
  6
CONTINUOUS
 10
267.3532690699
 20
188.4562741584
 11
269.5407690699
 21
188.4562741584
  0
LINE
  5
3A6
100
AcDbEntity
  8
0
100
AcDbLine
 62
7
  6
CONTINUOUS
 10
271.2907690699
 20
188.4562741584
 11
271.5824362929
 21
188.4562741584
  0
LINE
  5
3A7
100
AcDbEntity
  8
0
100
AcDbLine
 62
7
  6
CONTINUOUS
 10
274.3532690699
 20
188.4562741584
 11
274.9366035159
 21
188.4562741584
  0
LINE
  5
3A8
100
AcDbEntity
  8
0
100
AcDbLine
 62
7
  6
CONTINUOUS
 10
261.0749362929
 20
185.5094656489
 11
261.5124362929
 21
185.4349975726
  0
LINE
  5
3A9
100
AcDbEntity
  8
0
100
AcDbLine
 62
7
  6
CONTINUOUS
 10
261.0020195915
 20
185.1371252677
 11
261.36660289
 21
185.0626571915
  0
LINE
  5
3AA
100
AcDbEntity
  8
0
100
AcDbLine
 62
7
  6
CONTINUOUS
 10
259.4053526814
 20
188.0839337316
 11
259.7699362929
 21
188.0094656489
  0
LINE
  5
3AB
100
AcDbEntity
  8
0
100
AcDbLine
 62
7
  6
CONTINUOUS
 10
259.4782699044
 20
188.5307422346
 11
259.7699362929
 21
188.4562741584
  0
LINE
  5
3AC
100
AcDbEntity
  8
0
100
AcDbLine
 62
7
  6
CONTINUOUS
 10
261.5124362929
 20
185.4349975726
 11
261.80410289
 21
185.2860614202
  0
LINE
  5
3AD
100
AcDbEntity
  8
0
100
AcDbLine
 62
7
  6
CONTINUOUS
 10
263.4811862929
 20
182.3073379798
 11
263.6999362929
 21
182.1584018144
  0
LINE
  5
3AE
100
AcDbEntity
  8
0
100
AcDbLine
 62
7
  6
CONTINUOUS
 10
263.7728530987
 20
182.5307422346
 11
263.9916030987
 21
182.3818060822
  0
LINE
  5
3AF
100
AcDbEntity
  8
0
100
AcDbLine
 62
7
  6
CONTINUOUS
 10
243.4636862929
 20
246.8040094384
 11
243.4636862929
 21
203.4536179044
  0
LINE
  5
3B0
100
AcDbEntity
  8
0
100
AcDbLine
 62
7
  6
CONTINUOUS
 10
243.4636862929
 20
203.2749093595
 11
243.4636862929
 21
203.1794656489
  0
LINE
  5
3B1
100
AcDbEntity
  8
RUNDUNGEN
100
AcDbLine
 62
7
  6
CONTINUOUS
 10
245.2136862929
 20
179.1794656489
 11
245.2136862929
 21
201.1794656489
  0
LINE
  5
3B2
100
AcDbEntity
  8
0
100
AcDbLine
 62
7
  6
CONTINUOUS
 10
245.2136862929
 20
179.1794656489
 11
245.2136862929
 21
201.1794656489
  0
LINE
  5
3B3
100
AcDbEntity
  8
KONSTRUKTIONSELEMENTE
100
AcDbLine
 62
7
  6
CONTINUOUS
 10
238.8775160725
 20
220.826132395
 11
239.2179416235
 21
220.9927991411
  0
LINE
  5
3B4
100
AcDbEntity
  8
KONSTRUKTIONSELEMENTE
100
AcDbLine
 62
7
  6
CONTINUOUS
 10
239.8136862929
 20
220.076132395
 11
237.8562394793
 21
219.326132395
  0
LINE
  5
3B5
100
AcDbEntity
  8
0
100
AcDbLine
 62
7
  6
CONTINUOUS
 10
274.2074362929
 20
191.4349975726
 11
274.4991035159
 21
191.5094656489
  0
LINE
  5
3B6
100
AcDbEntity
  8
0
100
AcDbLine
 62
7
  6
CONTINUOUS
 10
260.4261862929
 20
188.4562741584
 11
260.7178526814
 21
188.5307422346
  0
LINE
  5
3B7
100
AcDbEntity
  8
0
100
AcDbLine
 62
7
  6
CONTINUOUS
 10
259.4782699044
 20
190.9881891153
 11
259.7699362929
 21
191.0626571915
  0
LINE
  5
3B8
100
AcDbEntity
  8
0
100
AcDbLine
 62
7
  6
CONTINUOUS
 10
260.4261862929
 20
188.0094656489
 11
260.7907699044
 21
188.0839337316
  0
LINE
  5
3B9
100
AcDbEntity
  8
0
100
AcDbLine
 62
7
  6
CONTINUOUS
 10
265.3845190699
 20
189.5732954583
 11
265.7491035159
 21
189.6477635345
  0
LINE
  5
3BA
100
AcDbEntity
  8
0
100
AcDbLine
 62
7
  6
CONTINUOUS
 10
257.0720199044
 20
188.0094656489
 11
257.4366026814
 21
188.0839337316
  0
LINE
  5
3BB
100
AcDbEntity
  8
0
100
AcDbLine
 62
7
  6
CONTINUOUS
 10
259.4053526814
 20
191.4349975726
 11
259.7699362929
 21
191.5094656489
  0
LINE
  5
3BC
100
AcDbEntity
  8
0
100
AcDbLine
 62
7
  6
CONTINUOUS
 10
273.3324362929
 20
188.9775507441
 11
273.7699362929
 21
188.9775507441
  0
LINE
  5
3BD
100
AcDbEntity
  8
0
100
AcDbLine
 62
7
  6
CONTINUOUS
 10
262.0303526814
 20
189.2754230491
 11
263.0511862929
 21
189.2754230491
  0
LINE
  5
3BE
100
AcDbEntity
  8
0
100
AcDbLine
 62
7
  6
CONTINUOUS
 10
260.3532699044
 20
189.4988273821
 11
261.0095199044
 21
189.4988273821
  0
LINE
  5
3BF
100
AcDbEntity
  8
0
100
AcDbLine
 62
7
  6
CONTINUOUS
 10
255.7595199044
 20
189.5732954583
 11
257.1449362929
 21
189.5732954583
  0
LINE
  5
3C0
100
AcDbEntity
  8
0
100
AcDbLine
 62
7
  6
CONTINUOUS
 10
264.0720190699
 20
189.5732954583
 11
265.3845190699
 21
189.5732954583
  0
LINE
  5
3C1
100
AcDbEntity
  8
0
100
AcDbLine
 62
7
  6
CONTINUOUS
 10
274.4991035159
 20
189.5732954583
 11
274.9366035159
 21
189.5732954583
  0
LINE
  5
3C2
100
AcDbEntity
  8
0
100
AcDbLine
 62
7
  6
CONTINUOUS
 10
262.0303526814
 20
189.6477635345
 11
263.0511862929
 21
189.6477635345
  0
LINE
  5
3C3
100
AcDbEntity
  8
0
100
AcDbLine
 62
7
  6
CONTINUOUS
 10
260.3532699044
 20
189.9456358394
 11
261.4470199044
 21
189.9456358394
  0
LINE
  5
3C4
100
AcDbEntity
  8
0
100
AcDbLine
 62
7
  6
CONTINUOUS
 10
255.7595199044
 20
190.0201039157
 11
257.1449362929
 21
190.0201039157
  0
LINE
  5
3C5
100
AcDbEntity
  8
0
100
AcDbLine
 62
7
  6
CONTINUOUS
 10
264.0720190699
 20
190.0201039157
 11
265.4574362929
 21
190.0201039157
  0
LINE
  5
3C6
100
AcDbEntity
  8
0
100
AcDbLine
 62
7
  6
CONTINUOUS
 10
274.4991035159
 20
190.0201039157
 11
274.9366035159
 21
190.0201039157
  0
LINE
  5
3C7
100
AcDbEntity
  8
0
100
AcDbLine
 62
7
  6
CONTINUOUS
 10
261.0095199044
 20
190.6158485255
 11
261.4470199044
 21
190.6158485255
  0
LINE
  5
3C8
100
AcDbEntity
  8
0
100
AcDbLine
 62
7
  6
CONTINUOUS
 10
275.3741035159
 20
190.6903168103
 11
275.8116035159
 21
190.6903168103
  0
LINE
  5
3C9
100
AcDbEntity
  8
0
100
AcDbLine
 62
7
  6
CONTINUOUS
 10
255.7595199044
 20
191.0626571915
 11
257.1449362929
 21
191.0626571915
  0
LINE
  5
3CA
100
AcDbEntity
  8
0
100
AcDbLine
 62
7
  6
CONTINUOUS
 10
259.7699362929
 20
191.0626571915
 11
260.4261862929
 21
191.0626571915
  0
LINE
  5
3CB
100
AcDbEntity
  8
0
100
AcDbLine
 62
7
  6
CONTINUOUS
 10
274.4991035159
 20
191.0626571915
 11
274.9366035159
 21
191.0626571915
  0
LINE
  5
3CC
100
AcDbEntity
  8
0
100
AcDbLine
 62
7
  6
CONTINUOUS
 10
264.0720190699
 20
191.1371252677
 11
265.4574362929
 21
191.1371252677
  0
LINE
  5
3CD
100
AcDbEntity
  8
0
100
AcDbLine
 62
7
  6
CONTINUOUS
 10
248.6136862929
 20
191.5094656489
 11
249.0511862929
 21
191.5094656489
  0
LINE
  5
3CE
100
AcDbEntity
  8
0
100
AcDbLine
 62
7
  6
CONTINUOUS
 10
251.09285289
 20
191.5094656489
 11
251.53035289
 21
191.5094656489
  0
LINE
  5
3CF
100
AcDbEntity
  8
0
100
AcDbLine
 62
7
  6
CONTINUOUS
 10
252.1136862929
 20
191.5094656489
 11
252.5511862929
 21
191.5094656489
  0
LINE
  5
3D0
100
AcDbEntity
  8
0
100
AcDbLine
 62
7
  6
CONTINUOUS
 10
255.3220194872
 20
191.5094656489
 11
257.0720199044
 21
191.5094656489
  0
LINE
  5
3D1
100
AcDbEntity
  8
0
100
AcDbLine
 62
7
  6
CONTINUOUS
 10
259.7699362929
 20
191.5094656489
 11
260.4261862929
 21
191.5094656489
  0
LINE
  5
3D2
100
AcDbEntity
  8
0
100
AcDbLine
 62
7
  6
CONTINUOUS
 10
263.6345190699
 20
191.5094656489
 11
265.3845190699
 21
191.5094656489
  0
LINE
  5
3D3
100
AcDbEntity
  8
0
100
AcDbLine
 62
7
  6
CONTINUOUS
 10
266.9157690699
 20
191.5094656489
 11
267.3532690699
 21
191.5094656489
  0
LINE
  5
3D4
100
AcDbEntity
  8
0
100
AcDbLine
 62
7
  6
CONTINUOUS
 10
270.1241035159
 20
191.5094656489
 11
270.5616035159
 21
191.5094656489
  0
LINE
  5
3D5
100
AcDbEntity
  8
0
100
AcDbLine
 62
7
  6
CONTINUOUS
 10
272.3116035159
 20
191.5094656489
 11
272.7491035159
 21
191.5094656489
  0
LINE
  5
3D6
100
AcDbEntity
  8
0
100
AcDbLine
 62
7
  6
CONTINUOUS
 10
274.4991035159
 20
191.5094656489
 11
274.8636862929
 21
191.5094656489
  0
LINE
  5
3D7
100
AcDbEntity
  8
0
100
AcDbLine
 62
7
  6
CONTINUOUS
 10
270.9261862929
 20
188.0839337316
 11
271.2907690699
 21
188.0094656489
  0
LINE
  5
3D8
100
AcDbEntity
  8
0
100
AcDbLine
 62
7
  6
CONTINUOUS
 10
257.0720199044
 20
191.5094656489
 11
257.4366026814
 21
191.4349975726
  0
LINE
  5
3D9
100
AcDbEntity
  8
0
100
AcDbLine
 62
7
  6
CONTINUOUS
 10
273.9886862929
 20
188.0839337316
 11
274.3532690699
 21
188.0094656489
  0
LINE
  5
3DA
100
AcDbEntity
  8
0
100
AcDbLine
 62
7
  6
CONTINUOUS
 10
260.4261862929
 20
191.5094656489
 11
260.7907699044
 21
191.4349975726
  0
LINE
  5
3DB
100
AcDbEntity
  8
0
100
AcDbLine
 62
7
  6
CONTINUOUS
 10
265.3845190699
 20
191.5094656489
 11
265.7491035159
 21
191.4349975726
  0
LINE
  5
3DC
100
AcDbEntity
  8
0
100
AcDbLine
 62
7
  6
CONTINUOUS
 10
274.9366035159
 20
190.0201039157
 11
275.3011862929
 21
189.9456358394
  0
LINE
  5
3DD
100
AcDbEntity
  8
0
100
AcDbLine
 62
7
  6
CONTINUOUS
 10
260.4261862929
 20
191.0626571915
 11
260.7178526814
 21
190.9881891153
  0
LINE
  5
3DE
100
AcDbEntity
  8
0
100
AcDbLine
 62
7
  6
CONTINUOUS
 10
270.9991035159
 20
188.5307422346
 11
271.2907690699
 21
188.4562741584
  0
LINE
  5
3DF
100
AcDbEntity
  8
0
100
AcDbLine
 62
7
  6
CONTINUOUS
 10
274.0616035159
 20
188.5307422346
 11
274.3532690699
 21
188.4562741584
  0
LINE
  5
3E0
100
AcDbEntity
  8
0
100
AcDbLine
 62
7
  6
CONTINUOUS
 10
274.2074362929
 20
189.6477635345
 11
274.4991035159
 21
189.5732954583
  0
LINE
  5
3E1
100
AcDbEntity
  8
0
100
AcDbLine
 62
7
  6
CONTINUOUS
 10
257.1449362929
 20
189.5732954583
 11
257.3636862929
 21
189.4988273821
  0
LINE
  5
3E2
100
AcDbEntity
  8
0
100
AcDbLine
 62
7
  6
CONTINUOUS
 10
257.1449362929
 20
191.0626571915
 11
257.3636862929
 21
190.9881891153
  0
LINE
  5
3E3
100
AcDbEntity
  8
0
100
AcDbLine
 62
7
  6
CONTINUOUS
 10
265.4574362929
 20
191.1371252677
 11
265.6761862929
 21
191.0626571915
  0
LINE
  5
3E4
100
AcDbEntity
  8
0
100
AcDbLine
 62
7
  6
CONTINUOUS
 10
259.1136862929
 20
188.2328699036
 11
259.4053526814
 21
188.0839337316
  0
LINE
  5
3E5
100
AcDbEntity
  8
0
100
AcDbLine
 62
7
  6
CONTINUOUS
 10
257.5824362929
 20
189.796699687
 11
257.7282699044
 21
189.7222316107
  0
LINE
  5
3E6
100
AcDbEntity
  8
0
100
AcDbLine
 62
7
  6
CONTINUOUS
 10
260.7907699044
 20
191.4349975726
 11
261.0824362929
 21
191.2860614202
  0
LINE
  5
3E7
100
AcDbEntity
  8
0
100
AcDbLine
 62
7
  6
CONTINUOUS
 10
261.36660289
 20
185.0626571915
 11
261.58535289
 21
184.913721039
  0
LINE
  5
3E8
100
AcDbEntity
  8
0
100
AcDbLine
 62
7
  6
CONTINUOUS
 10
259.2595199044
 20
188.6796784392
 11
259.4782699044
 21
188.5307422346
  0
LINE
  5
3E9
100
AcDbEntity
  8
0
100
AcDbLine
 62
7
  6
CONTINUOUS
 10
257.4366026814
 20
191.4349975726
 11
257.7282699044
 21
191.2115933439
  0
LINE
  5
3EA
100
AcDbEntity
  8
0
100
AcDbLine
 62
7
  6
CONTINUOUS
 10
257.3636862929
 20
189.4988273821
 11
257.5095199044
 21
189.3498912296
  0
LINE
  5
3EB
100
AcDbEntity
  8
0
100
AcDbLine
 62
7
  6
CONTINUOUS
 10
261.80410289
 20
185.2860614202
 11
262.0957696958
 21
184.9881891153
  0
LINE
  5
3EC
100
AcDbEntity
  8
0
100
AcDbLine
 62
7
  6
CONTINUOUS
 10
258.8220199044
 20
188.5307422346
 11
259.1136862929
 21
188.2328699036
  0
LINE
  5
3ED
100
AcDbEntity
  8
0
100
AcDbLine
 62
7
  6
CONTINUOUS
 10
257.3636862929
 20
190.9881891153
 11
257.5095199044
 21
190.8392529628
  0
LINE
  5
3EE
100
AcDbEntity
  8
KONSTRUKTIONSELEMENTE
100
AcDbLine
 62
7
  6
CONTINUOUS
 10
237.8562394793
 20
219.326132395
 11
237.6860267337
 21
219.6594656489
  0
LINE
  5
3EF
100
AcDbEntity
  8
KONSTRUKTIONSELEMENTE
100
AcDbLine
 62
7
  6
CONTINUOUS
 10
237.4307076152
 20
219.2427989027
 11
237.515813988
 21
218.9927989027
  0
LINE
  5
3F0
100
AcDbEntity
  8
0
100
AcDbLine
 62
7
  6
CONTINUOUS
 10
249.0511862929
 20
191.5094656489
 11
250.0720195915
 21
188.4562741584
  0
LINE
  5
3F1
100
AcDbEntity
  8
0
100
AcDbLine
 62
7
  6
CONTINUOUS
 10
248.6136862929
 20
191.5094656489
 11
249.7803529944
 21
188.0094656489
  0
LINE
  5
3F2
100
AcDbEntity
  8
KONSTRUKTIONSELEMENTE
100
AcDbLine
 62
7
  6
CONTINUOUS
 10
239.2179416235
 20
222.7427991411
 11
239.3030479963
 21
222.4094656489
  0
LINE
  5
3F3
100
AcDbEntity
  8
KONSTRUKTIONSELEMENTE
100
AcDbLine
 62
7
  6
CONTINUOUS
 10
239.2179416235
 20
226.7427986643
 11
239.3030479963
 21
226.4094656489
  0
LINE
  5
3F4
100
AcDbEntity
  8
KONSTRUKTIONSELEMENTE
100
AcDbLine
 62
7
  6
CONTINUOUS
 10
239.8136862929
 20
222.4094656489
 11
239.7285799126
 21
222.8261321566
  0
LINE
  5
3F5
100
AcDbEntity
  8
KONSTRUKTIONSELEMENTE
100
AcDbLine
 62
7
  6
CONTINUOUS
 10
239.8136862929
 20
226.4094656489
 11
239.7285799126
 21
226.8261326334
  0
LINE
  5
3F6
100
AcDbEntity
  8
0
100
AcDbLine
 62
7
  6
CONTINUOUS
 10
247.4636862929
 20
208.0794656489
 11
247.4636862929
 21
202.8794656489
  0
LINE
  5
3F7
100
AcDbEntity
  8
0
100
AcDbLine
 62
7
  6
CONTINUOUS
 10
247.4636862929
 20
177.4794656489
 11
247.4636862929
 21
172.2794656489
  0
LINE
  5
3F8
100
AcDbEntity
  8
KONSTRUKTIONSELEMENTE
100
AcDbLine
 62
7
  6
CONTINUOUS
 10
238.026452225
 20
218.8261322758
 11
239.8136862929
 21
219.4927989027
  0
LINE
  5
3F9
100
AcDbEntity
  8
KONSTRUKTIONSELEMENTE
100
AcDbLine
 62
7
  6
CONTINUOUS
 10
236.7498563941
 20
219.9927989027
 11
236.4945372756
 21
219.9094656489
  0
LINE
  5
3FA
100
AcDbEntity
  8
KONSTRUKTIONSELEMENTE
100
AcDbLine
 62
7
  6
CONTINUOUS
 10
236.4945372756
 20
219.4094656489
 11
236.7498563941
 21
219.4927989027
  0
LINE
  5
3FB
100
AcDbEntity
  8
0
100
AcDbLine
 62
7
  6
CONTINUOUS
 10
266.5736862929
 20
195.2101039455
 11
266.9070193084
 21
195.2952103183
  0
LINE
  5
3FC
100
AcDbEntity
  8
0
100
AcDbLine
 62
7
  6
CONTINUOUS
 10
262.5736862929
 20
195.2101039455
 11
262.9070197852
 21
195.2952103183
  0
LINE
  5
3FD
100
AcDbEntity
  8
0
100
AcDbLine
 62
7
  6
CONTINUOUS
 10
266.5736862929
 20
194.6994656489
 11
266.9903532775
 21
194.7845720291
  0
LINE
  5
3FE
100
AcDbEntity
  8
0
100
AcDbLine
 62
7
  6
CONTINUOUS
 10
262.5736862929
 20
194.6994656489
 11
262.9903528006
 21
194.7845720291
  0
LINE
  5
3FF
100
AcDbEntity
  8
0
100
AcDbLine
 62
7
  6
CONTINUOUS
 10
257.0736862929
 20
194.6994656489
 11
257.5736862929
 21
194.6994656489
  0
LINE
  5
400
100
AcDbEntity
  8
0
100
AcDbLine
 62
7
  6
CONTINUOUS
 10
259.6570195468
 20
194.6994656489
 11
260.2403530391
 21
194.6994656489
  0
LINE
  5
401
100
AcDbEntity
  8
0
100
AcDbLine
 62
7
  6
CONTINUOUS
 10
262.2403528006
 20
194.6994656489
 11
262.5736862929
 21
194.6994656489
  0
LINE
  5
402
100
AcDbEntity
  8
0
100
AcDbLine
 62
7
  6
CONTINUOUS
 10
264.5736862929
 20
194.6994656489
 11
266.5736862929
 21
194.6994656489
  0
LINE
  5
403
100
AcDbEntity
  8
0
100
AcDbLine
 62
7
  6
CONTINUOUS
 10
262.2403528006
 20
195.2101039455
 11
262.5736862929
 21
195.2101039455
  0
LINE
  5
404
100
AcDbEntity
  8
0
100
AcDbLine
 62
7
  6
CONTINUOUS
 10
265.0736862929
 20
195.2101039455
 11
266.5736862929
 21
195.2101039455
  0
LINE
  5
405
100
AcDbEntity
  8
0
100
AcDbLine
 62
7
  6
CONTINUOUS
 10
257.5736862929
 20
196.4866997168
 11
258.9903529198
 21
196.4866997168
  0
LINE
  5
406
100
AcDbEntity
  8
0
100
AcDbLine
 62
7
  6
CONTINUOUS
 10
257.5736862929
 20
196.9973379538
 11
259.1570195468
 21
196.9973379538
  0
LINE
  5
407
100
AcDbEntity
  8
0
100
AcDbLine
 62
7
  6
CONTINUOUS
 10
274.8636862929
 20
191.5094656489
 11
275.2282690699
 21
191.4349975726
  0
LINE
  5
408
100
AcDbEntity
  8
0
100
AcDbLine
 62
7
  6
CONTINUOUS
 10
261.8236862929
 20
194.7845720291
 11
262.2403528006
 21
194.6994656489
  0
LINE
  5
409
100
AcDbEntity
  8
0
100
AcDbLine
 62
7
  6
CONTINUOUS
 10
274.9366035159
 20
189.5732954583
 11
275.2282690699
 21
189.4988273821
  0
LINE
  5
40A
100
AcDbEntity
  8
0
100
AcDbLine
 62
7
  6
CONTINUOUS
 10
261.9070197852
 20
195.2952103183
 11
262.2403528006
 21
195.2101039455
  0
LINE
  5
40B
100
AcDbEntity
  8
0
100
AcDbLine
 62
7
  6
CONTINUOUS
 10
274.2803535159
 20
190.0945719919
 11
274.4991035159
 21
190.0201039157
  0
LINE
  5
40C
100
AcDbEntity
  8
0
100
AcDbLine
 62
7
  6
CONTINUOUS
 10
274.9366035159
 20
191.0626571915
 11
275.1553535159
 21
190.9881891153
  0
LINE
  5
40D
100
AcDbEntity
  8
0
100
AcDbLine
 62
7
  6
CONTINUOUS
 10
270.6345190699
 20
188.2328699036
 11
270.9261862929
 21
188.0839337316
  0
LINE
  5
40E
100
AcDbEntity
  8
0
100
AcDbLine
 62
7
  6
CONTINUOUS
 10
261.4903528006
 20
194.9547847972
 11
261.8236862929
 21
194.7845720291
  0
LINE
  5
40F
100
AcDbEntity
  8
0
100
AcDbLine
 62
7
  6
CONTINUOUS
 10
273.9157690699
 20
189.796699687
 11
274.2074362929
 21
189.6477635345
  0
LINE
  5
410
100
AcDbEntity
  8
0
100
AcDbLine
 62
7
  6
CONTINUOUS
 10
273.6241035159
 20
188.3073379798
 11
273.9886862929
 21
188.0839337316
  0
LINE
  5
411
100
AcDbEntity
  8
0
100
AcDbLine
 62
7
  6
CONTINUOUS
 10
260.7178526814
 20
190.9881891153
 11
260.9366026814
 21
190.8392529628
  0
LINE
  5
412
100
AcDbEntity
  8
0
100
AcDbLine
 62
7
  6
CONTINUOUS
 10
270.7803535159
 20
188.6796784392
 11
270.9991035159
 21
188.5307422346
  0
LINE
  5
413
100
AcDbEntity
  8
0
100
AcDbLine
 62
7
  6
CONTINUOUS
 10
261.6570197852
 20
195.4654231236
 11
261.9070197852
 21
195.2952103183
  0
LINE
  5
414
100
AcDbEntity
  8
0
100
AcDbLine
 62
7
  6
CONTINUOUS
 10
265.7491035159
 20
191.4349975726
 11
266.0407690699
 21
191.2115933439
  0
LINE
  5
415
100
AcDbEntity
  8
0
100
AcDbLine
 62
7
  6
CONTINUOUS
 10
261.0824362929
 20
191.2860614202
 11
261.3741026814
 21
190.9881891153
  0
LINE
  5
416
100
AcDbEntity
  8
0
100
AcDbLine
 62
7
  6
CONTINUOUS
 10
257.7282699044
 20
189.7222316107
 11
257.9470199044
 21
189.4243593058
  0
LINE
  5
417
100
AcDbEntity
  8
0
100
AcDbLine
 62
7
  6
CONTINUOUS
 10
257.7282699044
 20
191.2115933439
 11
257.9470199044
 21
190.913721039
  0
LINE
  5
418
100
AcDbEntity
  8
0
100
AcDbLine
 62
7
  6
CONTINUOUS
 10
261.58535289
 20
184.913721039
 11
261.7311862929
 21
184.6903168103
  0
LINE
  5
419
100
AcDbEntity
  8
0
100
AcDbLine
 62
7
  6
CONTINUOUS
 10
259.1136862929
 20
188.9030826679
 11
259.2595199044
 21
188.6796784392
  0
LINE
  5
41A
100
AcDbEntity
  8
KONSTRUKTIONSELEMENTE
100
AcDbLine
 62
7
  6
CONTINUOUS
 10
239.7285799126
 20
222.8261321566
 11
239.5583671446
 21
223.1594656489
  0
LINE
  5
41B
100
AcDbEntity
  8
KONSTRUKTIONSELEMENTE
100
AcDbLine
 62
7
  6
CONTINUOUS
 10
239.7285799126
 20
226.8261326334
 11
239.5583671446
 21
227.1594656489
  0
LINE
  5
41C
100
AcDbEntity
  8
0
100
AcDbLine
 62
7
  6
CONTINUOUS
 10
258.6761862929
 20
188.8286145917
 11
258.8220199044
 21
188.5307422346
  0
LINE
  5
41D
100
AcDbEntity
  8
0
100
AcDbLine
 62
7
  6
CONTINUOUS
 10
250.2136862929
 20
202.8794656489
 11
250.2136862929
 21
202.6794656489
  0
LINE
  5
41E
100
AcDbEntity
  8
0
100
AcDbLine
 62
7
  6
CONTINUOUS
 10
250.2136862929
 20
177.6794656489
 11
250.2136862929
 21
177.4794656489
  0
LINE
  5
41F
100
AcDbEntity
  8
BEZUGSACHSEN
100
AcDbLine
 62
7
  6
CONTINUOUS
 10
250.4636862929
 20
208.5794656489
 11
250.4636862929
 21
218.0794656489
  0
LINE
  5
420
100
AcDbEntity
  8
BEZUGSACHSEN
100
AcDbLine
 62
7
  6
CONTINUOUS
 10
251.4636862929
 20
208.0794656489
 11
251.4636862929
 21
208.5794656489
  0
LINE
  5
421
100
AcDbEntity
  8
0
100
AcDbLine
 62
7
  6
CONTINUOUS
 10
252.1136862929
 20
188.0094656489
 11
252.1136862929
 21
191.5094656489
  0
LINE
  5
422
100
AcDbEntity
  8
0
100
AcDbLine
 62
7
  6
CONTINUOUS
 10
252.3206959457
 20
218.0794656489
 11
252.3206959457
 21
218.2794656489
  0
LINE
  5
423
100
AcDbEntity
  8
0
100
AcDbLine
 62
7
  6
CONTINUOUS
 10
252.5511862929
 20
188.4562741584
 11
252.5511862929
 21
191.5094656489
  0
LINE
  5
424
100
AcDbEntity
  8
0
100
AcDbLine
 62
7
  6
CONTINUOUS
 10
265.0736862929
 20
198.1888274119
 11
266.5736862929
 21
198.1888274119
  0
LINE
  5
425
100
AcDbEntity
  8
0
100
AcDbLine
 62
7
  6
CONTINUOUS
 10
257.5736862929
 20
198.2739337847
 11
259.1570195468
 21
198.2739337847
  0
LINE
  5
426
100
AcDbEntity
  8
0
100
AcDbLine
 62
7
  6
CONTINUOUS
 10
257.0736862929
 20
198.6994656489
 11
259.0736862929
 21
198.6994656489
  0
LINE
  5
427
100
AcDbEntity
  8
0
100
AcDbLine
 62
7
  6
CONTINUOUS
 10
260.9070195468
 20
198.6994656489
 11
261.4070197852
 21
198.6994656489
  0
LINE
  5
428
100
AcDbEntity
  8
0
100
AcDbLine
 62
7
  6
CONTINUOUS
 10
263.4070197852
 20
198.6994656489
 11
263.9070197852
 21
198.6994656489
  0
LINE
  5
429
100
AcDbEntity
  8
0
100
AcDbLine
 62
7
  6
CONTINUOUS
 10
264.5736862929
 20
198.6994656489
 11
266.5736862929
 21
198.6994656489
  0
LINE
  5
42A
100
AcDbEntity
  8
0
100
AcDbLine
 62
7
  6
CONTINUOUS
 10
259.0736862929
 20
198.6994656489
 11
259.4903530391
 21
198.614359276
  0
LINE
  5
42B
100
AcDbEntity
  8
0
100
AcDbLine
 62
7
  6
CONTINUOUS
 10
266.5736862929
 20
198.6994656489
 11
266.9903532775
 21
198.614359276
  0
LINE
  5
42C
100
AcDbEntity
  8
0
100
AcDbLine
 62
7
  6
CONTINUOUS
 10
266.5736862929
 20
198.1888274119
 11
266.9070193084
 21
198.103721039
  0
LINE
  5
42D
100
AcDbEntity
  8
0
100
AcDbLine
 62
7
  6
CONTINUOUS
 10
259.1570195468
 20
198.2739337847
 11
259.4070195468
 21
198.1888274119
  0
LINE
  5
42E
100
AcDbEntity
  8
0
100
AcDbLine
 62
7
  6
CONTINUOUS
 10
275.3011862929
 20
189.9456358394
 11
275.5928535159
 21
189.796699687
  0
LINE
  5
42F
100
AcDbEntity
  8
0
100
AcDbLine
 62
7
  6
CONTINUOUS
 10
266.9903532775
 20
198.614359276
 11
267.3236862929
 21
198.4441465304
  0
LINE
  5
430
100
AcDbEntity
  8
0
100
AcDbLine
 62
7
  6
CONTINUOUS
 10
274.0616035159
 20
190.2435081443
 11
274.2803535159
 21
190.0945719919
  0
LINE
  5
431
100
AcDbEntity
  8
0
100
AcDbLine
 62
7
  6
CONTINUOUS
 10
275.2282690699
 20
189.4988273821
 11
275.4470190699
 21
189.3498912296
  0
LINE
  5
432
100
AcDbEntity
  8
0
100
AcDbLine
 62
7
  6
CONTINUOUS
 10
259.4903530391
 20
198.614359276
 11
259.8236862929
 21
198.3590401575
  0
LINE
  5
433
100
AcDbEntity
  8
KONSTRUKTIONSELEMENTE
100
AcDbLine
 62
7
  6
CONTINUOUS
 10
237.2604948695
 20
219.4094656489
 11
237.4307076152
 21
219.2427989027
  0
LINE
  5
434
100
AcDbEntity
  8
0
100
AcDbLine
 62
7
  6
CONTINUOUS
 10
261.1570197852
 20
195.2952103183
 11
261.4903528006
 21
194.9547847972
  0
LINE
  5
435
100
AcDbEntity
  8
0
100
AcDbLine
 62
7
  6
CONTINUOUS
 10
265.6761862929
 20
191.0626571915
 11
265.8220190699
 21
190.913721039
  0
LINE
  5
436
100
AcDbEntity
  8
0
100
AcDbLine
 62
7
  6
CONTINUOUS
 10
259.4070195468
 20
198.1888274119
 11
259.5736862929
 21
198.0186146662
  0
LINE
  5
437
100
AcDbEntity
  8
0
100
AcDbLine
 62
7
  6
CONTINUOUS
 10
270.3428535159
 20
188.5307422346
 11
270.6345190699
 21
188.2328699036
  0
LINE
  5
438
100
AcDbEntity
  8
0
100
AcDbLine
 62
7
  6
CONTINUOUS
 10
259.8236862929
 20
198.3590401575
 11
260.0736862929
 21
198.0186146662
  0
LINE
  5
439
100
AcDbEntity
  8
0
100
AcDbLine
 62
7
  6
CONTINUOUS
 10
266.0407690699
 20
191.2115933439
 11
266.2595190699
 21
190.913721039
  0
LINE
  5
43A
100
AcDbEntity
  8
KONSTRUKTIONSELEMENTE
100
AcDbLine
 62
7
  6
CONTINUOUS
 10
239.0477288182
 20
222.9927991411
 11
239.2179416235
 21
222.7427991411
  0
LINE
  5
43B
100
AcDbEntity
  8
KONSTRUKTIONSELEMENTE
100
AcDbLine
 62
7
  6
CONTINUOUS
 10
239.0477288182
 20
226.9927986643
 11
239.2179416235
 21
226.7427986643
  0
LINE
  5
43C
100
AcDbEntity
  8
0
100
AcDbLine
 62
7
  6
CONTINUOUS
 10
261.4903528006
 20
195.7207422421
 11
261.6570197852
 21
195.4654231236
  0
LINE
  5
43D
100
AcDbEntity
  8
0
100
AcDbLine
 62
7
  6
CONTINUOUS
 10
263.3353530987
 20
182.6052103108
 11
263.4811862929
 21
182.3073379798
  0
LINE
  5
43E
100
AcDbEntity
  8
0
100
AcDbLine
 62
7
  6
CONTINUOUS
 10
238.5843574699
 20
239.9740231194
 11
236.843015116
 21
243.8851420823
  0
LINE
  5
43F
100
AcDbEntity
  8
0
100
AcDbLine
 62
7
  6
CONTINUOUS
 10
257.5095199044
 20
189.3498912296
 11
257.5824362929
 21
189.1264868966
  0
LINE
  5
440
100
AcDbEntity
  8
0
100
AcDbLine
 62
7
  6
CONTINUOUS
 10
257.9470199044
 20
189.4243593058
 11
258.0199362929
 21
189.2009549728
  0
LINE
  5
441
100
AcDbEntity
  8
0
100
AcDbLine
 62
7
  6
CONTINUOUS
 10
257.5095199044
 20
190.8392529628
 11
257.5824362929
 21
190.6158485255
  0
LINE
  5
442
100
AcDbEntity
  8
0
100
AcDbLine
 62
7
  6
CONTINUOUS
 10
257.9470199044
 20
190.913721039
 11
258.0199362929
 21
190.6903168103
  0
LINE
  5
443
100
AcDbEntity
  8
0
100
AcDbLine
 62
7
  6
CONTINUOUS
 10
259.0407699044
 20
189.2009549728
 11
259.1136862929
 21
188.9030826679
  0
LINE
  5
444
100
AcDbEntity
  8
BEZUGSACHSEN
100
AcDbLine
 62
7
  6
CONTINUOUS
 10
254.4636862929
 20
151.2794656489
 11
254.4636862929
 21
172.2794656489
  0
LINE
  5
445
100
AcDbEntity
  8
0
100
AcDbLine
 62
7
  6
CONTINUOUS
 10
254.7386862929
 20
188.0094656489
 11
254.7386862929
 21
188.4562741584
  0
LINE
  5
446
100
AcDbEntity
  8
0
100
AcDbLine
 62
7
  6
CONTINUOUS
 10
254.7995331073
 20
218.0794656489
 11
254.7995331073
 21
218.2794656489
  0
LINE
  5
447
100
AcDbEntity
  8
0
100
AcDbLine
 62
7
  6
CONTINUOUS
 10
254.8401083318
 20
218.0794656489
 11
254.8401083318
 21
218.2794656489
  0
LINE
  5
448
100
AcDbEntity
  8
0
100
AcDbLine
 62
7
  6
CONTINUOUS
 10
255.0091717609
 20
218.0794656489
 11
255.0091717609
 21
218.2794656489
  0
LINE
  5
449
100
AcDbEntity
  8
0
100
AcDbLine
 62
7
  6
CONTINUOUS
 10
255.0565095357
 20
218.0794656489
 11
255.0565095357
 21
218.2794656489
  0
LINE
  5
44A
100
AcDbEntity
  8
0
100
AcDbLine
 62
7
  6
CONTINUOUS
 10
255.195266437
 20
218.0794656489
 11
255.195266437
 21
218.2794656489
  0
LINE
  5
44B
100
AcDbEntity
  8
0
100
AcDbLine
 62
7
  6
CONTINUOUS
 10
255.3220194872
 20
188.0094656489
 11
255.3220194872
 21
191.5094656489
  0
LINE
  5
44C
100
AcDbEntity
  8
0
100
AcDbLine
 62
7
  6
CONTINUOUS
 10
255.3800529137
 20
218.0794656489
 11
255.3800529137
 21
218.2794656489
  0
LINE
  5
44D
100
AcDbEntity
  8
0
100
AcDbLine
 62
7
  6
CONTINUOUS
 10
255.5388006526
 20
218.0794656489
 11
255.5388006526
 21
218.2794656489
  0
LINE
  5
44E
100
AcDbEntity
  8
0
100
AcDbLine
 62
7
  6
CONTINUOUS
 10
255.6272734493
 20
218.0794656489
 11
255.6272734493
 21
218.2794656489
  0
LINE
  5
44F
100
AcDbEntity
  8
0
100
AcDbLine
 62
7
  6
CONTINUOUS
 10
255.6897075125
 20
218.0794656489
 11
255.6897075125
 21
218.2794656489
  0
LINE
  5
450
100
AcDbEntity
  8
0
100
AcDbLine
 62
7
  6
CONTINUOUS
 10
255.7595199044
 20
188.4562741584
 11
255.7595199044
 21
189.5732954583
  0
LINE
  5
451
100
AcDbEntity
  8
0
100
AcDbLine
 62
7
  6
CONTINUOUS
 10
255.7595199044
 20
190.0201039157
 11
255.7595199044
 21
191.0626571915
  0
LINE
  5
452
100
AcDbEntity
  8
0
100
AcDbLine
 62
7
  6
CONTINUOUS
 10
256.209812775
 20
218.0794656489
 11
256.209812775
 21
218.2794656489
  0
LINE
  5
453
100
AcDbEntity
  8
0
100
AcDbLine
 62
7
  6
CONTINUOUS
 10
257.0653649506
 20
218.0794656489
 11
257.0653649506
 21
218.2794656489
  0
LINE
  5
454
100
AcDbEntity
  8
0
100
AcDbLine
 62
7
  6
CONTINUOUS
 10
257.0736862929
 20
194.6994656489
 11
257.0736862929
 21
198.6994656489
  0
LINE
  5
455
100
AcDbEntity
  8
0
100
AcDbLine
 62
7
  6
CONTINUOUS
 10
257.2048249352
 20
218.0794656489
 11
257.2048249352
 21
218.2794656489
  0
LINE
  5
456
100
AcDbEntity
  8
0
100
AcDbLine
 62
7
  6
CONTINUOUS
 10
257.269856449
 20
218.0794656489
 11
257.269856449
 21
218.2794656489
  0
LINE
  5
457
100
AcDbEntity
  8
0
100
AcDbLine
 62
7
  6
CONTINUOUS
 10
257.5736862929
 20
194.6994656489
 11
257.5736862929
 21
196.4866997168
  0
LINE
  5
458
100
AcDbEntity
  8
0
100
AcDbLine
 62
7
  6
CONTINUOUS
 10
257.5736862929
 20
196.9973379538
 11
257.5736862929
 21
198.2739337847
  0
LINE
  5
459
100
AcDbEntity
  8
0
100
AcDbLine
 62
7
  6
CONTINUOUS
 10
257.5824362929
 20
188.9030826679
 11
257.5824362929
 21
189.1264868966
  0
LINE
  5
45A
100
AcDbEntity
  8
0
100
AcDbLine
 62
7
  6
CONTINUOUS
 10
257.5824362929
 20
190.466912373
 11
257.5824362929
 21
190.6158485255
  0
LINE
  5
45B
100
AcDbEntity
  8
0
100
AcDbLine
 62
7
  6
CONTINUOUS
 10
258.0199362929
 20
188.8286145917
 11
258.0199362929
 21
189.2009549728
  0
LINE
  5
45C
100
AcDbEntity
  8
0
100
AcDbLine
 62
7
  6
CONTINUOUS
 10
258.0199362929
 20
190.3924442968
 11
258.0199362929
 21
190.6903168103
  0
LINE
  5
45D
100
AcDbEntity
  8
0
100
AcDbLine
 62
7
  6
CONTINUOUS
 10
258.6032699044
 20
189.2009549728
 11
258.6032699044
 21
190.3179762206
  0
LINE
  5
45E
100
AcDbEntity
  8
0
100
AcDbLine
 62
7
  6
CONTINUOUS
 10
250.3636862929
 20
188.0094656489
 11
251.53035289
 21
191.5094656489
  0
LINE
  5
45F
100
AcDbEntity
  8
0
100
AcDbLine
 62
7
  6
CONTINUOUS
 10
250.0720195915
 20
188.4562741584
 11
251.09285289
 21
191.5094656489
  0
LINE
  5
460
100
AcDbEntity
  8
RUNDUNGEN
100
AcDbLine
 62
7
  6
CONTINUOUS
 10
246.7136862929
 20
202.6794656489
 11
278.2136862929
 21
202.6794656489
  0
LINE
  5
461
100
AcDbEntity
  8
0
100
AcDbLine
 62
7
  6
CONTINUOUS
 10
247.4636862929
 20
202.8794656489
 11
277.4636862929
 21
202.8794656489
  0
LINE
  5
462
100
AcDbEntity
  8
KONSTRUKTIONSELEMENTE
100
AcDbLine
 62
7
  6
CONTINUOUS
 10
289.6300414038
 20
205.6794656489
 11
284.6668156295
 21
205.6794656489
  0
LINE
  5
463
100
AcDbEntity
  8
0
100
AcDbLine
 62
7
  6
CONTINUOUS
 10
235.297331182
 20
205.6794656489
 11
240.2605569563
 21
205.6794656489
  0
LINE
  5
464
100
AcDbEntity
  8
0
100
AcDbLine
 62
7
  6
CONTINUOUS
 10
266.9070193084
 20
198.103721039
 11
267.1570193084
 21
197.9335082934
  0
LINE
  5
465
100
AcDbEntity
  8
KONSTRUKTIONSELEMENTE
100
AcDbLine
 62
7
  6
CONTINUOUS
 10
237.6860267337
 20
219.6594656489
 11
237.3456012423
 21
219.9094656489
  0
LINE
  5
466
100
AcDbEntity
  8
0
100
AcDbLine
 62
7
  6
CONTINUOUS
 10
275.2282690699
 20
191.4349975726
 11
275.5199362929
 21
191.2115933439
  0
LINE
  5
467
100
AcDbEntity
  8
KONSTRUKTIONSELEMENTE
100
AcDbLine
 62
7
  6
CONTINUOUS
 10
239.5583671446
 20
223.1594656489
 11
239.2179416235
 21
223.4927991411
  0
LINE
  5
468
100
AcDbEntity
  8
KONSTRUKTIONSELEMENTE
100
AcDbLine
 62
7
  6
CONTINUOUS
 10
239.5583671446
 20
227.1594656489
 11
239.2179416235
 21
227.4927986643
  0
LINE
  5
469
100
AcDbEntity
  8
0
100
AcDbLine
 62
7
  6
CONTINUOUS
 10
273.8428535159
 20
188.7541465155
 11
274.0616035159
 21
188.5307422346
  0
LINE
  5
46A
100
AcDbEntity
  8
0
100
AcDbLine
 62
7
  6
CONTINUOUS
 10
273.6241035159
 20
190.0945719919
 11
273.9157690699
 21
189.796699687
  0
LINE
  5
46B
100
AcDbEntity
  8
0
100
AcDbLine
 62
7
  6
CONTINUOUS
 10
275.5928535159
 20
189.796699687
 11
275.8845190699
 21
189.4988273821
  0
LINE
  5
46C
100
AcDbEntity
  8
0
100
AcDbLine
 62
7
  6
CONTINUOUS
 10
267.3236862929
 20
198.4441465304
 11
267.6570193084
 21
198.103721039
  0
LINE
  5
46D
100
AcDbEntity
  8
0
100
AcDbLine
 62
7
  6
CONTINUOUS
 10
275.1553535159
 20
190.9881891153
 11
275.3011862929
 21
190.8392529628
  0
LINE
  5
46E
100
AcDbEntity
  8
0
100
AcDbLine
 62
7
  6
CONTINUOUS
 10
270.6345190699
 20
188.9030826679
 11
270.7803535159
 21
188.6796784392
  0
LINE
  5
46F
100
AcDbEntity
  8
0
100
AcDbLine
 62
7
  6
CONTINUOUS
 10
260.9903530391
 20
195.6356358692
 11
261.1570197852
 21
195.2952103183
  0
LINE
  5
470
100
AcDbEntity
  8
0
100
AcDbLine
 62
7
  6
CONTINUOUS
 10
259.4903530391
 20
196.6569124624
 11
260.2403530391
 21
194.6994656489
  0
LINE
  5
471
100
AcDbEntity
  8
0
100
AcDbLine
 62
7
  6
CONTINUOUS
 10
258.9903529198
 20
196.4866997168
 11
259.6570195468
 21
194.6994656489
  0
LINE
  5
472
100
AcDbEntity
  8
0
100
AcDbLine
 62
7
  6
CONTINUOUS
 10
260.9366026814
 20
190.8392529628
 11
261.0095199044
 21
190.6158485255
  0
LINE
  5
473
100
AcDbEntity
  8
0
100
AcDbLine
 62
7
  6
CONTINUOUS
 10
263.6999362929
 20
182.7541465155
 11
263.7728530987
 21
182.5307422346
  0
LINE
  5
474
100
AcDbEntity
  8
0
100
AcDbLine
 62
7
  6
CONTINUOUS
 10
259.5736862929
 20
198.0186146662
 11
259.6570195468
 21
197.7632955477
  0
LINE
  5
475
100
AcDbEntity
  8
0
100
AcDbLine
 62
7
  6
CONTINUOUS
 10
260.0736862929
 20
198.0186146662
 11
260.1570195468
 21
197.7632955477
  0
LINE
  5
476
100
AcDbEntity
  8
0
100
AcDbLine
 62
7
  6
CONTINUOUS
 10
262.0957696958
 20
184.9881891153
 11
262.1686862929
 21
184.6903168103
  0
LINE
  5
477
100
AcDbEntity
  8
0
100
AcDbLine
 62
7
  6
CONTINUOUS
 10
261.4070197852
 20
196.0611677334
 11
261.4903528006
 21
195.7207422421
  0
LINE
  5
478
100
AcDbEntity
  8
0
100
AcDbLine
 62
7
  6
CONTINUOUS
 10
258.6032699044
 20
189.2009549728
 11
258.6761862929
 21
188.8286145917
  0
LINE
  5
479
100
AcDbEntity
  8
0
100
AcDbLine
 62
7
  6
CONTINUOUS
 10
261.3741026814
 20
190.9881891153
 11
261.4470199044
 21
190.6158485255
  0
LINE
  5
47A
100
AcDbEntity
  8
0
100
AcDbLine
 62
7
  6
CONTINUOUS
 10
260.9070195468
 20
196.0611677334
 11
260.9903530391
 21
195.6356358692
  0
LINE
  5
47B
100
AcDbEntity
  8
0
100
AcDbLine
 62
7
  6
CONTINUOUS
 10
259.0407699044
 20
189.2009549728
 11
259.0407699044
 21
190.3179762206
  0
LINE
  5
47C
100
AcDbEntity
  8
0
100
AcDbLine
 62
7
  6
CONTINUOUS
 10
259.5436862929
 20
182.0094656489
 11
259.5436862929
 21
182.3818060822
  0
LINE
  5
47D
100
AcDbEntity
  8
0
100
AcDbLine
 62
7
  6
CONTINUOUS
 10
259.6570195468
 20
197.5079761908
 11
259.6570195468
 21
197.7632955477
  0
LINE
  5
47E
100
AcDbEntity
  8
0
100
AcDbLine
 62
7
  6
CONTINUOUS
 10
259.898659895
 20
218.0794656489
 11
259.898659895
 21
218.2794656489
  0
LINE
  5
47F
100
AcDbEntity
  8
0
100
AcDbLine
 62
7
  6
CONTINUOUS
 10
260.1570195468
 20
197.4228698179
 11
260.1570195468
 21
197.7632955477
  0
LINE
  5
480
100
AcDbEntity
  8
0
100
AcDbLine
 62
7
  6
CONTINUOUS
 10
260.2268389418
 20
218.0794656489
 11
260.2268389418
 21
218.2794656489
  0
LINE
  5
481
100
AcDbEntity
  8
0
100
AcDbLine
 62
7
  6
CONTINUOUS
 10
260.3532699044
 20
189.4988273821
 11
260.3532699044
 21
189.9456358394
  0
LINE
  5
482
100
AcDbEntity
  8
0
100
AcDbLine
 62
7
  6
CONTINUOUS
 10
260.536634704
 20
218.0794656489
 11
260.536634704
 21
218.2794656489
  0
LINE
  5
483
100
AcDbEntity
  8
0
100
AcDbLine
 62
7
  6
CONTINUOUS
 10
260.9070195468
 20
196.0611677334
 11
260.9070195468
 21
198.6994656489
  0
LINE
  5
484
100
AcDbEntity
  8
0
100
AcDbLine
 62
7
  6
CONTINUOUS
 10
261.0095199044
 20
188.9030826679
 11
261.0095199044
 21
189.4988273821
  0
LINE
  5
485
100
AcDbEntity
  8
0
100
AcDbLine
 62
7
  6
CONTINUOUS
 10
261.2594910885
 20
218.0794656489
 11
261.2594910885
 21
218.2794656489
  0
LINE
  5
486
100
AcDbEntity
  8
0
100
AcDbLine
 62
7
  6
CONTINUOUS
 10
261.4070197852
 20
196.0611677334
 11
261.4070197852
 21
198.6994656489
  0
LINE
  5
487
100
AcDbEntity
  8
0
100
AcDbLine
 62
7
  6
CONTINUOUS
 10
261.4470199044
 20
188.8286145917
 11
261.4470199044
 21
189.9456358394
  0
LINE
  5
488
100
AcDbEntity
  8
0
100
AcDbLine
 62
7
  6
CONTINUOUS
 10
261.6725528926
 20
218.0794656489
 11
261.6725528926
 21
218.2794656489
  0
LINE
  5
489
100
AcDbEntity
  8
0
100
AcDbLine
 62
7
  6
CONTINUOUS
 10
261.7311862929
 20
184.5413804493
 11
261.7311862929
 21
184.6903168103
  0
LINE
  5
48A
100
AcDbEntity
  8
0
100
AcDbLine
 62
7
  6
CONTINUOUS
 10
262.0303526814
 20
189.2754230491
 11
262.0303526814
 21
189.6477635345
  0
LINE
  5
48B
100
AcDbEntity
  8
0
100
AcDbLine
 62
7
  6
CONTINUOUS
 10
262.1370555511
 20
218.0794656489
 11
262.1370555511
 21
218.2794656489
  0
LINE
  5
48C
100
AcDbEntity
  8
0
100
AcDbLine
 62
7
  6
CONTINUOUS
 10
262.1686862929
 20
182.0094656489
 11
262.1686862929
 21
182.3818060822
  0
LINE
  5
48D
100
AcDbEntity
  8
0
100
AcDbLine
 62
7
  6
CONTINUOUS
 10
262.1686862929
 20
184.5413804493
 11
262.1686862929
 21
184.6903168103
  0
LINE
  5
48E
100
AcDbEntity
  8
0
100
AcDbLine
 62
7
  6
CONTINUOUS
 10
262.3954092771
 20
218.0794656489
 11
262.3954092771
 21
218.2794656489
  0
LINE
  5
48F
100
AcDbEntity
  8
BEZUGSACHSEN
100
AcDbLine
 62
7
  6
CONTINUOUS
 10
262.4636862929
 20
208.5794656489
 11
262.4636862929
 21
217.0076688791
  0
LINE
  5
490
100
AcDbEntity
  8
0
100
AcDbLine
 62
7
  6
CONTINUOUS
 10
262.7052050393
 20
218.0794656489
 11
262.7052050393
 21
218.2794656489
  0
LINE
  5
491
100
AcDbEntity
  8
0
100
AcDbLine
 62
7
  6
CONTINUOUS
 10
262.7520196958
 20
184.0945719919
 11
262.7520196958
 21
184.3924442968
  0
LINE
  5
492
100
AcDbEntity
  8
0
100
AcDbLine
 62
7
  6
CONTINUOUS
 10
263.0511862929
 20
189.2754230491
 11
263.0511862929
 21
189.6477635345
  0
LINE
  5
493
100
AcDbEntity
  8
0
100
AcDbLine
 62
7
  6
CONTINUOUS
 10
258.6032699044
 20
190.3179762206
 11
258.6761862929
 21
190.6903168103
  0
LINE
  5
494
100
AcDbEntity
  8
0
100
AcDbLine
 62
7
  6
CONTINUOUS
 10
247.4636862929
 20
208.0794656489
 11
277.4636862929
 21
208.0794656489
  0
LINE
  5
495
100
AcDbEntity
  8
KONSTRUKTIONSELEMENTE
100
AcDbLine
 62
7
  6
CONTINUOUS
 10
250.4636862929
 20
208.5794656489
 11
274.4636862929
 21
208.5794656489
  0
LINE
  5
496
100
AcDbEntity
  8
KONSTRUKTIONSELEMENTE
100
AcDbLine
 62
7
  6
CONTINUOUS
 10
238.7924096997
 20
223.1594656489
 11
239.0477288182
 21
222.9927991411
  0
LINE
  5
497
100
AcDbEntity
  8
0
100
AcDbLine
 62
7
  6
CONTINUOUS
 10
275.5199362929
 20
191.2115933439
 11
275.7386862929
 21
190.913721039
  0
LINE
  5
498
100
AcDbEntity
  8
0
100
AcDbLine
 62
7
  6
CONTINUOUS
 10
267.1570193084
 20
197.9335082934
 11
267.3236862929
 21
197.6781889364
  0
LINE
  5
499
100
AcDbEntity
  8
0
100
AcDbLine
 62
7
  6
CONTINUOUS
 10
275.4470190699
 20
189.3498912296
 11
275.5928535159
 21
189.1264868966
  0
LINE
  5
49A
100
AcDbEntity
  8
0
100
AcDbLine
 62
7
  6
CONTINUOUS
 10
273.4053535159
 20
188.6796784392
 11
273.6241035159
 21
188.3073379798
  0
LINE
  5
49B
100
AcDbEntity
  8
0
100
AcDbLine
 62
7
  6
CONTINUOUS
 10
270.1970190699
 20
188.8286145917
 11
270.3428535159
 21
188.5307422346
  0
LINE
  5
49C
100
AcDbEntity
  8
0
100
AcDbLine
 62
7
  6
CONTINUOUS
 10
267.6570193084
 20
198.103721039
 11
267.8236862929
 21
197.7632955477
  0
LINE
  5
49D
100
AcDbEntity
  8
0
100
AcDbLine
 62
7
  6
CONTINUOUS
 10
265.8220190699
 20
190.913721039
 11
265.8949362929
 21
190.6903168103
  0
LINE
  5
49E
100
AcDbEntity
  8
0
100
AcDbLine
 62
7
  6
CONTINUOUS
 10
266.2595190699
 20
190.913721039
 11
266.3324362929
 21
190.6903168103
  0
LINE
  5
49F
100
AcDbEntity
  8
0
100
AcDbLine
 62
7
  6
CONTINUOUS
 10
263.3353530987
 20
182.6052103108
 11
263.3353530987
 21
184.0945719919
  0
LINE
  5
4A0
100
AcDbEntity
  8
0
100
AcDbLine
 62
7
  6
CONTINUOUS
 10
263.3353530987
 20
184.3924442968
 11
263.3353530987
 21
184.9881891153
  0
LINE
  5
4A1
100
AcDbEntity
  8
0
100
AcDbLine
 62
7
  6
CONTINUOUS
 10
263.3482548635
 20
218.0794656489
 11
263.3482548635
 21
218.2794656489
  0
LINE
  5
4A2
100
AcDbEntity
  8
0
100
AcDbLine
 62
7
  6
CONTINUOUS
 10
263.4070197852
 20
196.0611677334
 11
263.4070197852
 21
198.6994656489
  0
LINE
  5
4A3
100
AcDbEntity
  8
0
100
AcDbLine
 62
7
  6
CONTINUOUS
 10
263.439598412
 20
218.0794656489
 11
263.439598412
 21
218.2794656489
  0
LINE
  5
4A4
100
AcDbEntity
  8
0
100
AcDbLine
 62
7
  6
CONTINUOUS
 10
263.6345190699
 20
188.0094656489
 11
263.6345190699
 21
191.5094656489
  0
LINE
  5
4A5
100
AcDbEntity
  8
0
100
AcDbLine
 62
7
  6
CONTINUOUS
 10
263.6999362929
 20
182.7541465155
 11
263.6999362929
 21
184.0945719919
  0
LINE
  5
4A6
100
AcDbEntity
  8
0
100
AcDbLine
 62
7
  6
CONTINUOUS
 10
263.6999362929
 20
184.3924442968
 11
263.6999362929
 21
184.9881891153
  0
LINE
  5
4A7
100
AcDbEntity
  8
0
100
AcDbLine
 62
7
  6
CONTINUOUS
 10
263.7495112972
 20
218.0794656489
 11
263.7495112972
 21
218.2794656489
  0
LINE
  5
4A8
100
AcDbEntity
  8
0
100
AcDbLine
 62
7
  6
CONTINUOUS
 10
263.9070197852
 20
196.0611677334
 11
263.9070197852
 21
198.6994656489
  0
LINE
  5
4A9
100
AcDbEntity
  8
0
100
AcDbLine
 62
7
  6
CONTINUOUS
 10
264.0705350206
 20
218.0794656489
 11
264.0705350206
 21
218.2794656489
  0
LINE
  5
4AA
100
AcDbEntity
  8
0
100
AcDbLine
 62
7
  6
CONTINUOUS
 10
264.0720190699
 20
188.0094656489
 11
264.0720190699
 21
189.5732954583
  0
LINE
  5
4AB
100
AcDbEntity
  8
0
100
AcDbLine
 62
7
  6
CONTINUOUS
 10
264.0720190699
 20
190.0201039157
 11
264.0720190699
 21
191.1371252677
  0
LINE
  5
4AC
100
AcDbEntity
  8
0
100
AcDbLine
 62
7
  6
CONTINUOUS
 10
264.3561862929
 20
182.0094656489
 11
264.3561862929
 21
182.3073379798
  0
LINE
  5
4AD
100
AcDbEntity
  8
0
100
AcDbLine
 62
7
  6
CONTINUOUS
 10
264.4594070881
 20
218.0794656489
 11
264.4594070881
 21
218.2794656489
  0
LINE
  5
4AE
100
AcDbEntity
  8
0
100
AcDbLine
 62
7
  6
CONTINUOUS
 10
264.466615926
 20
218.0794656489
 11
264.466615926
 21
218.2794656489
  0
LINE
  5
4AF
100
AcDbEntity
  8
0
100
AcDbLine
 62
7
  6
CONTINUOUS
 10
264.5020194872
 20
184.0945719919
 11
264.5020194872
 21
184.3924442968
  0
LINE
  5
4B0
100
AcDbEntity
  8
0
100
AcDbLine
 62
7
  6
CONTINUOUS
 10
264.5409266223
 20
218.0794656489
 11
264.5409266223
 21
218.2794656489
  0
LINE
  5
4B1
100
AcDbEntity
  8
0
100
AcDbLine
 62
7
  6
CONTINUOUS
 10
264.5736862929
 20
194.6994656489
 11
264.5736862929
 21
198.6994656489
  0
LINE
  5
4B2
100
AcDbEntity
  8
0
100
AcDbLine
 62
7
  6
CONTINUOUS
 10
264.7312997029
 20
218.0794656489
 11
264.7312997029
 21
218.2794656489
  0
LINE
  5
4B3
100
AcDbEntity
  8
0
100
AcDbLine
 62
7
  6
CONTINUOUS
 10
264.9579576709
 20
218.0794656489
 11
264.9579576709
 21
218.2794656489
  0
LINE
  5
4B4
100
AcDbEntity
  8
0
100
AcDbLine
 62
7
  6
CONTINUOUS
 10
265.0736862929
 20
195.2101039455
 11
265.0736862929
 21
198.1888274119
  0
LINE
  5
4B5
100
AcDbEntity
  8
0
100
AcDbLine
 62
7
  6
CONTINUOUS
 10
265.2027592033
 20
218.0794656489
 11
265.2027592033
 21
218.2794656489
  0
LINE
  5
4B6
100
AcDbEntity
  8
0
100
AcDbLine
 62
7
  6
CONTINUOUS
 10
265.4657020587
 20
218.0794656489
 11
265.4657020587
 21
218.2794656489
  0
LINE
  5
4B7
100
AcDbEntity
  8
0
100
AcDbLine
 62
7
  6
CONTINUOUS
 10
265.7649298016
 20
218.0794656489
 11
265.7649298016
 21
218.2794656489
  0
LINE
  5
4B8
100
AcDbEntity
  8
0
100
AcDbLine
 62
7
  6
CONTINUOUS
 10
265.8949362929
 20
190.466912373
 11
265.8949362929
 21
190.6903168103
  0
LINE
  5
4B9
100
AcDbEntity
  8
0
100
AcDbLine
 62
7
  6
CONTINUOUS
 10
265.9843800476
 20
218.0794656489
 11
265.9843800476
 21
218.2794656489
  0
LINE
  5
4BA
100
AcDbEntity
  8
0
100
AcDbLine
 62
7
  6
CONTINUOUS
 10
266.1730133321
 20
218.0794656489
 11
266.1730133321
 21
218.2794656489
  0
LINE
  5
4BB
100
AcDbEntity
  8
0
100
AcDbLine
 62
7
  6
CONTINUOUS
 10
266.2637255681
 20
218.0794656489
 11
266.2637255681
 21
218.2794656489
  0
LINE
  5
4BC
100
AcDbEntity
  8
0
100
AcDbLine
 62
7
  6
CONTINUOUS
 10
266.3324362929
 20
190.3924442968
 11
266.3324362929
 21
190.6903168103
  0
LINE
  5
4BD
100
AcDbEntity
  8
0
100
AcDbLine
 62
7
  6
CONTINUOUS
 10
266.4923685159
 20
218.0794656489
 11
266.4923685159
 21
218.2794656489
  0
LINE
  5
4BE
100
AcDbEntity
  8
0
100
AcDbLine
 62
7
  6
CONTINUOUS
 10
266.9157690699
 20
188.0094656489
 11
266.9157690699
 21
191.5094656489
  0
LINE
  5
4BF
100
AcDbEntity
  8
0
100
AcDbLine
 62
7
  6
CONTINUOUS
 10
267.3532690699
 20
188.4562741584
 11
267.3532690699
 21
191.5094656489
  0
LINE
  5
4C0
100
AcDbEntity
  8
0
100
AcDbLine
 62
7
  6
CONTINUOUS
 10
267.4070193084
 20
196.0611677334
 11
267.4070193084
 21
197.3377634451
  0
LINE
  5
4C1
100
AcDbEntity
  8
0
100
AcDbLine
 62
7
  6
CONTINUOUS
 10
263.8236862929
 20
195.6356358692
 11
263.9070197852
 21
196.0611677334
  0
LINE
  5
4C2
100
AcDbEntity
  8
0
100
AcDbLine
 62
7
  6
CONTINUOUS
 10
259.0407699044
 20
190.3179762206
 11
259.1136862929
 21
190.6158485255
  0
LINE
  5
4C3
100
AcDbEntity
  8
0
100
AcDbLine
 62
7
  6
CONTINUOUS
 10
259.6166029618
 20
184.6903168103
 11
259.6895196306
 21
184.9881891153
  0
LINE
  5
4C4
100
AcDbEntity
  8
0
100
AcDbLine
 62
7
  6
CONTINUOUS
 10
261.3741026814
 20
188.5307422346
 11
261.4470199044
 21
188.8286145917
  0
LINE
  5
4C5
100
AcDbEntity
  8
0
100
AcDbLine
 62
7
  6
CONTINUOUS
 10
263.3236862929
 20
195.7207422421
 11
263.4070197852
 21
196.0611677334
  0
LINE
  5
4C6
100
AcDbEntity
  8
0
100
AcDbLine
 62
7
  6
CONTINUOUS
 10
259.5736862929
 20
197.2526570723
 11
259.6570195468
 21
197.5079761908
  0
LINE
  5
4C7
100
AcDbEntity
  8
0
100
AcDbLine
 62
7
  6
CONTINUOUS
 10
257.5095199044
 20
190.2435081443
 11
257.5824362929
 21
190.466912373
  0
LINE
  5
4C8
100
AcDbEntity
  8
0
100
AcDbLine
 62
7
  6
CONTINUOUS
 10
260.0736862929
 20
197.1675506994
 11
260.1570195468
 21
197.4228698179
  0
LINE
  5
4C9
100
AcDbEntity
  8
0
100
AcDbLine
 62
7
  6
CONTINUOUS
 10
257.9470199044
 20
190.1690400681
 11
258.0199362929
 21
190.3924442968
  0
LINE
  5
4CA
100
AcDbEntity
  8
0
100
AcDbLine
 62
7
  6
CONTINUOUS
 10
257.5095199044
 20
188.6796784392
 11
257.5824362929
 21
188.9030826679
  0
LINE
  5
4CB
100
AcDbEntity
  8
0
100
AcDbLine
 62
7
  6
CONTINUOUS
 10
257.9470199044
 20
188.6052103108
 11
258.0199362929
 21
188.8286145917
  0
LINE
  5
4CC
100
AcDbEntity
  8
KONSTRUKTIONSELEMENTE
100
AcDbLine
 62
7
  6
CONTINUOUS
 10
237.005175751
 20
219.4927989027
 11
237.2604948695
 21
219.4094656489
  0
LINE
  5
4CD
100
AcDbEntity
  8
KONSTRUKTIONSELEMENTE
100
AcDbLine
 62
7
  6
CONTINUOUS
 10
237.3456012423
 20
219.9094656489
 11
237.0902821238
 21
219.9927989027
  0
LINE
  5
4CE
100
AcDbEntity
  8
KONSTRUKTIONSELEMENTE
100
AcDbLine
 62
7
  6
CONTINUOUS
 10
239.2179416235
 20
223.4927991411
 11
238.8775160725
 21
223.6594656489
  0
LINE
  5
4CF
100
AcDbEntity
  8
KONSTRUKTIONSELEMENTE
100
AcDbLine
 62
7
  6
CONTINUOUS
 10
238.7924096997
 20
227.1594656489
 11
239.0477288182
 21
226.9927986643
  0
LINE
  5
4D0
100
AcDbEntity
  8
0
100
AcDbLine
 62
7
  6
CONTINUOUS
 10
275.8845190699
 20
189.4988273821
 11
276.0303535159
 21
189.2009549728
  0
LINE
  5
4D1
100
AcDbEntity
  8
0
100
AcDbLine
 62
7
  6
CONTINUOUS
 10
275.3011862929
 20
190.8392529628
 11
275.3741035159
 21
190.6903168103
  0
LINE
  5
4D2
100
AcDbEntity
  8
0
100
AcDbLine
 62
7
  6
CONTINUOUS
 10
273.7699362929
 20
188.9775507441
 11
273.8428535159
 21
188.7541465155
  0
LINE
  5
4D3
100
AcDbEntity
  8
0
100
AcDbLine
 62
7
  6
CONTINUOUS
 10
273.9886862929
 20
190.466912373
 11
274.0616035159
 21
190.2435081443
  0
LINE
  5
4D4
100
AcDbEntity
  8
0
100
AcDbLine
 62
7
  6
CONTINUOUS
 10
267.3236862929
 20
197.6781889364
 11
267.4070193084
 21
197.3377634451
  0
LINE
  5
4D5
100
AcDbEntity
  8
0
100
AcDbLine
 62
7
  6
CONTINUOUS
 10
270.5616035159
 20
189.2009549728
 11
270.6345190699
 21
188.9030826679
  0
LINE
  5
4D6
100
AcDbEntity
  8
0
100
AcDbLine
 62
7
  6
CONTINUOUS
 10
267.8236862929
 20
197.7632955477
 11
267.9070193084
 21
197.3377634451
  0
LINE
  5
4D7
100
AcDbEntity
  8
0
100
AcDbLine
 62
7
  6
CONTINUOUS
 10
270.1241035159
 20
189.2009549728
 11
270.1970190699
 21
188.8286145917
  0
LINE
  5
4D8
100
AcDbEntity
  8
0
100
AcDbLine
 62
7
  6
CONTINUOUS
 10
267.9070193084
 20
196.0611677334
 11
267.9070193084
 21
197.3377634451
  0
LINE
  5
4D9
100
AcDbEntity
  8
0
100
AcDbLine
 62
7
  6
CONTINUOUS
 10
269.5407690699
 20
188.0094656489
 11
269.5407690699
 21
188.4562741584
  0
LINE
  5
4DA
100
AcDbEntity
  8
0
100
AcDbLine
 62
7
  6
CONTINUOUS
 10
270.1241035159
 20
189.2009549728
 11
270.1241035159
 21
191.5094656489
  0
LINE
  5
4DB
100
AcDbEntity
  8
BEZUGSACHSEN
100
AcDbLine
 62
7
  6
CONTINUOUS
 10
270.4636862929
 20
151.2794656489
 11
270.4636862929
 21
172.2794656489
  0
LINE
  5
4DC
100
AcDbEntity
  8
0
100
AcDbLine
 62
7
  6
CONTINUOUS
 10
270.5616035159
 20
189.2009549728
 11
270.5616035159
 21
191.5094656489
  0
LINE
  5
4DD
100
AcDbEntity
  8
0
100
AcDbLine
 62
7
  6
CONTINUOUS
 10
267.8236862929
 20
195.6356358692
 11
267.9070193084
 21
196.0611677334
  0
LINE
  5
4DE
100
AcDbEntity
  8
0
100
AcDbLine
 62
7
  6
CONTINUOUS
 10
262.0957696958
 20
184.2435081443
 11
262.1686862929
 21
184.5413804493
  0
LINE
  5
4DF
100
AcDbEntity
  8
0
100
AcDbLine
 62
7
  6
CONTINUOUS
 10
267.3236862929
 20
195.7207422421
 11
267.4070193084
 21
196.0611677334
  0
LINE
  5
4E0
100
AcDbEntity
  8
0
100
AcDbLine
 62
7
  6
CONTINUOUS
 10
260.9366026814
 20
188.6796784392
 11
261.0095199044
 21
188.9030826679
  0
LINE
  5
4E1
100
AcDbEntity
  8
0
100
AcDbLine
 62
7
  6
CONTINUOUS
 10
265.8220190699
 20
190.2435081443
 11
265.8949362929
 21
190.466912373
  0
LINE
  5
4E2
100
AcDbEntity
  8
0
100
AcDbLine
 62
7
  6
CONTINUOUS
 10
258.6761862929
 20
190.6903168103
 11
258.8220199044
 21
190.9881891153
  0
LINE
  5
4E3
100
AcDbEntity
  8
0
100
AcDbLine
 62
7
  6
CONTINUOUS
 10
263.6570197852
 20
195.2952103183
 11
263.8236862929
 21
195.6356358692
  0
LINE
  5
4E4
100
AcDbEntity
  8
0
100
AcDbLine
 62
7
  6
CONTINUOUS
 10
259.1136862929
 20
190.6158485255
 11
259.2595199044
 21
190.8392529628
  0
LINE
  5
4E5
100
AcDbEntity
  8
0
100
AcDbLine
 62
7
  6
CONTINUOUS
 10
263.1570197852
 20
195.4654231236
 11
263.3236862929
 21
195.7207422421
  0
LINE
  5
4E6
100
AcDbEntity
  8
0
100
AcDbLine
 62
7
  6
CONTINUOUS
 10
259.8236862929
 20
196.8271252081
 11
260.0736862929
 21
197.1675506994
  0
LINE
  5
4E7
100
AcDbEntity
  8
0
100
AcDbLine
 62
7
  6
CONTINUOUS
 10
257.7282699044
 20
189.8711677632
 11
257.9470199044
 21
190.1690400681
  0
LINE
  5
4E8
100
AcDbEntity
  8
0
100
AcDbLine
 62
7
  6
CONTINUOUS
 10
257.7282699044
 20
188.3073379798
 11
257.9470199044
 21
188.6052103108
  0
LINE
  5
4E9
100
AcDbEntity
  8
0
100
AcDbLine
 62
7
  6
CONTINUOUS
 10
259.4070195468
 20
197.0824443266
 11
259.5736862929
 21
197.2526570723
  0
LINE
  5
4EA
100
AcDbEntity
  8
KONSTRUKTIONSELEMENTE
100
AcDbLine
 62
7
  6
CONTINUOUS
 10
235.8136862929
 20
216.9094656489
 11
239.8136862929
 21
216.9094656489
  0
LINE
  5
4EB
100
AcDbEntity
  8
KONSTRUKTIONSELEMENTE
100
AcDbLine
 62
7
  6
CONTINUOUS
 10
239.8136862929
 20
217.4094656489
 11
238.026452225
 21
217.4094656489
  0
LINE
  5
4EC
100
AcDbEntity
  8
KONSTRUKTIONSELEMENTE
100
AcDbLine
 62
7
  6
CONTINUOUS
 10
237.515813988
 20
217.4094656489
 11
236.2392181571
 21
217.4094656489
  0
LINE
  5
4ED
100
AcDbEntity
  8
BEZUGSACHSEN
100
AcDbLine
 62
7
  6
CONTINUOUS
 10
250.4636862929
 20
218.0794656489
 11
274.4636862929
 21
218.0794656489
  0
LINE
  5
4EE
100
AcDbEntity
  8
0
100
AcDbLine
 62
7
  6
CONTINUOUS
 10
252.3206959457
 20
218.2794656489
 11
257.269856449
 21
218.2794656489
  0
LINE
  5
4EF
100
AcDbEntity
  8
0
100
AcDbLine
 62
7
  6
CONTINUOUS
 10
259.898659895
 20
218.2794656489
 11
262.7052050393
 21
218.2794656489
  0
LINE
  5
4F0
100
AcDbEntity
  8
0
100
AcDbLine
 62
7
  6
CONTINUOUS
 10
263.3482548635
 20
218.2794656489
 11
264.0705350206
 21
218.2794656489
  0
LINE
  5
4F1
100
AcDbEntity
  8
0
100
AcDbLine
 62
7
  6
CONTINUOUS
 10
264.4594070881
 20
218.2794656489
 11
266.4923685159
 21
218.2794656489
  0
LINE
  5
4F2
100
AcDbEntity
  8
KONSTRUKTIONSELEMENTE
100
AcDbLine
 62
7
  6
CONTINUOUS
 10
236.7498563941
 20
219.4927989027
 11
237.005175751
 21
219.4927989027
  0
LINE
  5
4F3
100
AcDbEntity
  8
KONSTRUKTIONSELEMENTE
100
AcDbLine
 62
7
  6
CONTINUOUS
 10
238.8775160725
 20
223.6594656489
 11
238.4519842084
 21
223.7427991411
  0
LINE
  5
4F4
100
AcDbEntity
  8
KONSTRUKTIONSELEMENTE
100
AcDbLine
 62
7
  6
CONTINUOUS
 10
238.4519842084
 20
223.2427991411
 11
238.7924096997
 21
223.1594656489
  0
LINE
  5
4F5
100
AcDbEntity
  8
KONSTRUKTIONSELEMENTE
100
AcDbLine
 62
7
  6
CONTINUOUS
 10
239.2179416235
 20
227.4927986643
 11
238.8775160725
 21
227.6594656489
  0
LINE
  5
4F6
100
AcDbEntity
  8
0
100
AcDbLine
 62
7
  6
CONTINUOUS
 10
275.7386862929
 20
190.913721039
 11
275.8116035159
 21
190.6903168103
  0
LINE
  5
4F7
100
AcDbEntity
  8
0
100
AcDbLine
 62
7
  6
CONTINUOUS
 10
273.3324362929
 20
188.9775507441
 11
273.4053535159
 21
188.6796784392
  0
LINE
  5
4F8
100
AcDbEntity
  8
0
100
AcDbLine
 62
7
  6
CONTINUOUS
 10
273.5511862929
 20
190.3924442968
 11
273.6241035159
 21
190.0945719919
  0
LINE
  5
4F9
100
AcDbEntity
  8
0
100
AcDbLine
 62
7
  6
CONTINUOUS
 10
272.3116035159
 20
189.2009549728
 11
272.3116035159
 21
191.5094656489
  0
LINE
  5
4FA
100
AcDbEntity
  8
0
100
AcDbLine
 62
7
  6
CONTINUOUS
 10
272.7491035159
 20
189.2009549728
 11
272.7491035159
 21
191.5094656489
  0
LINE
  5
4FB
100
AcDbEntity
  8
BEZUGSACHSEN
100
AcDbLine
 62
7
  6
CONTINUOUS
 10
273.4636862929
 20
208.0794656489
 11
273.4636862929
 21
208.5794656489
  0
LINE
  5
4FC
100
AcDbEntity
  8
0
100
AcDbLine
 62
7
  6
CONTINUOUS
 10
273.5511862929
 20
190.3924442968
 11
273.5511862929
 21
190.6903168103
  0
LINE
  5
4FD
100
AcDbEntity
  8
0
100
AcDbLine
 62
7
  6
CONTINUOUS
 10
273.9886862929
 20
190.466912373
 11
273.9886862929
 21
190.6158485255
  0
LINE
  5
4FE
100
AcDbEntity
  8
BEZUGSACHSEN
100
AcDbLine
 62
7
  6
CONTINUOUS
 10
274.4636862929
 20
208.5794656489
 11
274.4636862929
 21
218.0794656489
  0
LINE
  5
4FF
100
AcDbEntity
  8
0
100
AcDbLine
 62
7
  6
CONTINUOUS
 10
274.7136862929
 20
202.8794656489
 11
274.7136862929
 21
202.6794656489
  0
LINE
  5
500
100
AcDbEntity
  8
0
100
AcDbLine
 62
7
  6
CONTINUOUS
 10
274.7136862929
 20
177.6794656489
 11
274.7136862929
 21
177.4794656489
  0
LINE
  5
501
100
AcDbEntity
  8
0
100
AcDbLine
 62
7
  6
CONTINUOUS
 10
275.5928535159
 20
188.9030826679
 11
275.5928535159
 21
189.1264868966
  0
LINE
  5
502
100
AcDbEntity
  8
0
100
AcDbLine
 62
7
  6
CONTINUOUS
 10
276.0303535159
 20
188.8286145917
 11
276.0303535159
 21
189.2009549728
  0
LINE
  5
503
100
AcDbEntity
  8
0
100
AcDbLine
 62
7
  6
CONTINUOUS
 10
266.2595190699
 20
190.1690400681
 11
266.3324362929
 21
190.3924442968
  0
LINE
  5
504
100
AcDbEntity
  8
RUNDUNGEN
100
AcDbLine
 62
7
  6
CONTINUOUS
 10
286.343015116
 20
239.9740231194
 11
288.0843574699
 21
243.8851420823
  0
LINE
  5
505
100
AcDbEntity
  8
0
100
AcDbLine
 62
7
  6
CONTINUOUS
 10
261.58535289
 20
184.2435081443
 11
261.7311862929
 21
184.5413804493
  0
LINE
  5
506
100
AcDbEntity
  8
0
100
AcDbLine
 62
7
  6
CONTINUOUS
 10
267.6570193084
 20
195.2952103183
 11
267.8236862929
 21
195.6356358692
  0
LINE
  5
507
100
AcDbEntity
  8
0
100
AcDbLine
 62
7
  6
CONTINUOUS
 10
259.9811862929
 20
184.6903168103
 11
260.1270196436
 21
184.913721039
  0
LINE
  5
508
100
AcDbEntity
  8
0
100
AcDbLine
 62
7
  6
CONTINUOUS
 10
267.1570193084
 20
195.4654231236
 11
267.3236862929
 21
195.7207422421
  0
LINE
  5
509
100
AcDbEntity
  8
0
100
AcDbLine
 62
7
  6
CONTINUOUS
 10
257.3636862929
 20
190.0945719919
 11
257.5095199044
 21
190.2435081443
  0
LINE
  5
50A
100
AcDbEntity
  8
0
100
AcDbLine
 62
7
  6
CONTINUOUS
 10
258.8220199044
 20
190.9881891153
 11
259.1136862929
 21
191.2860614202
  0
LINE
  5
50B
100
AcDbEntity
  8
0
100
AcDbLine
 62
7
  6
CONTINUOUS
 10
263.3236862929
 20
194.9547847972
 11
263.6570197852
 21
195.2952103183
  0
LINE
  5
50C
100
AcDbEntity
  8
0
100
AcDbLine
 62
7
  6
CONTINUOUS
 10
257.3636862929
 20
188.5307422346
 11
257.5095199044
 21
188.6796784392
  0
LINE
  5
50D
100
AcDbEntity
  8
0
100
AcDbLine
 62
7
  6
CONTINUOUS
 10
262.9070197852
 20
195.2952103183
 11
263.1570197852
 21
195.4654231236
  0
LINE
  5
50E
100
AcDbEntity
  8
0
100
AcDbLine
 62
7
  6
CONTINUOUS
 10
259.4903530391
 20
196.6569124624
 11
259.8236862929
 21
196.8271252081
  0
LINE
  5
50F
100
AcDbEntity
  8
0
100
AcDbLine
 62
7
  6
CONTINUOUS
 10
259.1570195468
 20
196.9973379538
 11
259.4070195468
 21
197.0824443266
  0
LINE
  5
510
100
AcDbEntity
  8
KONSTRUKTIONSELEMENTE
100
AcDbLine
 62
7
  6
CONTINUOUS
 10
237.0902821238
 20
219.9927989027
 11
236.7498563941
 21
219.9927989027
  0
LINE
  5
511
100
AcDbEntity
  8
KONSTRUKTIONSELEMENTE
100
AcDbLine
 62
7
  6
CONTINUOUS
 10
235.8136862929
 20
220.7427989027
 11
238.4519842084
 21
220.7427989027
  0
LINE
  5
512
100
AcDbEntity
  8
KONSTRUKTIONSELEMENTE
100
AcDbLine
 62
7
  6
CONTINUOUS
 10
238.4519842084
 20
221.2427991411
 11
235.8136862929
 21
221.2427991411
  0
LINE
  5
513
100
AcDbEntity
  8
KONSTRUKTIONSELEMENTE
100
AcDbLine
 62
7
  6
CONTINUOUS
 10
235.8136862929
 20
223.2427991411
 11
238.4519842084
 21
223.2427991411
  0
LINE
  5
514
100
AcDbEntity
  8
KONSTRUKTIONSELEMENTE
100
AcDbLine
 62
7
  6
CONTINUOUS
 10
238.4519842084
 20
223.7427991411
 11
235.8136862929
 21
223.7427991411
  0
LINE
  5
515
100
AcDbEntity
  8
KONSTRUKTIONSELEMENTE
100
AcDbLine
 62
7
  6
CONTINUOUS
 10
238.8775160725
 20
227.6594656489
 11
238.4519842084
 21
227.7427986643
  0
LINE
  5
516
100
AcDbEntity
  8
KONSTRUKTIONSELEMENTE
100
AcDbLine
 62
7
  6
CONTINUOUS
 10
238.4519842084
 20
227.2427986643
 11
238.7924096997
 21
227.1594656489
  0
LINE
  5
517
100
AcDbEntity
  8
0
100
AcDbLine
 62
7
  6
CONTINUOUS
 10
277.4636862929
 20
208.0794656489
 11
277.4636862929
 21
202.8794656489
  0
LINE
  5
518
100
AcDbEntity
  8
0
100
AcDbLine
 62
7
  6
CONTINUOUS
 10
277.4636862929
 20
177.4794656489
 11
277.4636862929
 21
172.2794656489
  0
LINE
  5
519
100
AcDbEntity
  8
RUNDUNGEN
100
AcDbLine
 62
7
  6
CONTINUOUS
 10
279.7136862929
 20
179.1794656489
 11
279.7136862929
 21
201.1794656489
  0
LINE
  5
51A
100
AcDbEntity
  8
0
100
AcDbLine
 62
7
  6
CONTINUOUS
 10
272.6761862929
 20
188.8286145917
 11
272.7491035159
 21
189.2009549728
  0
LINE
  5
51B
100
AcDbEntity
  8
0
100
AcDbLine
 62
7
  6
CONTINUOUS
 10
272.2386862929
 20
188.9030826679
 11
272.3116035159
 21
189.2009549728
  0
LINE
  5
51C
100
AcDbEntity
  8
0
100
AcDbLine
 62
7
  6
CONTINUOUS
 10
273.5511862929
 20
190.6903168103
 11
273.6241035159
 21
190.9881891153
  0
LINE
  5
51D
100
AcDbEntity
  8
0
100
AcDbLine
 62
7
  6
CONTINUOUS
 10
273.9886862929
 20
190.6158485255
 11
274.0616035159
 21
190.8392529628
  0
LINE
  5
51E
100
AcDbEntity
  8
0
100
AcDbLine
 62
7
  6
CONTINUOUS
 10
261.9499362929
 20
184.0201039157
 11
262.0957696958
 21
184.2435081443
  0
LINE
  5
51F
100
AcDbEntity
  8
0
100
AcDbLine
 62
7
  6
CONTINUOUS
 10
266.0407690699
 20
189.8711677632
 11
266.2595190699
 21
190.1690400681
  0
LINE
  5
520
100
AcDbEntity
  8
0
100
AcDbLine
 62
7
  6
CONTINUOUS
 10
267.3236862929
 20
194.9547847972
 11
267.6570193084
 21
195.2952103183
  0
LINE
  5
521
100
AcDbEntity
  8
0
100
AcDbLine
 62
7
  6
CONTINUOUS
 10
261.0824362929
 20
188.2328699036
 11
261.3741026814
 21
188.5307422346
  0
LINE
  5
522
100
AcDbEntity
  8
0
100
AcDbLine
 62
7
  6
CONTINUOUS
 10
259.6895196306
 20
184.9881891153
 11
259.9811862929
 21
185.2860614202
  0
LINE
  5
523
100
AcDbEntity
  8
0
100
AcDbLine
 62
7
  6
CONTINUOUS
 10
265.6761862929
 20
190.0945719919
 11
265.8220190699
 21
190.2435081443
  0
LINE
  5
524
100
AcDbEntity
  8
0
100
AcDbLine
 62
7
  6
CONTINUOUS
 10
257.4366026814
 20
188.0839337316
 11
257.7282699044
 21
188.3073379798
  0
LINE
  5
525
100
AcDbEntity
  8
0
100
AcDbLine
 62
7
  6
CONTINUOUS
 10
259.2595199044
 20
190.8392529628
 11
259.4782699044
 21
190.9881891153
  0
LINE
  5
526
100
AcDbEntity
  8
0
100
AcDbLine
 62
7
  6
CONTINUOUS
 10
266.9070193084
 20
195.2952103183
 11
267.1570193084
 21
195.4654231236
  0
LINE
  5
527
100
AcDbEntity
  8
0
100
AcDbLine
 62
7
  6
CONTINUOUS
 10
260.7178526814
 20
188.5307422346
 11
260.9366026814
 21
188.6796784392
  0
LINE
  5
528
100
AcDbEntity
  8
0
100
AcDbLine
 62
7
  6
CONTINUOUS
 10
262.9903528006
 20
194.7845720291
 11
263.3236862929
 21
194.9547847972
  0
LINE
  5
529
100
AcDbEntity
  8
0
100
AcDbLine
 62
7
  6
CONTINUOUS
 10
259.1136862929
 20
191.2860614202
 11
259.4053526814
 21
191.4349975726
  0
LINE
  5
52A
100
AcDbEntity
  8
0
100
AcDbLine
 62
7
  6
CONTINUOUS
 10
266.9903532775
 20
194.7845720291
 11
267.3236862929
 21
194.9547847972
  0
LINE
  5
52B
100
AcDbEntity
  8
0
100
AcDbLine
 62
7
  6
CONTINUOUS
 10
257.5824362929
 20
189.796699687
 11
257.7282699044
 21
189.8711677632
  0
LINE
  5
52C
100
AcDbEntity
  8
0
100
AcDbLine
 62
7
  6
CONTINUOUS
 10
257.1449362929
 20
190.0201039157
 11
257.3636862929
 21
190.0945719919
  0
LINE
  5
52D
100
AcDbEntity
  8
KONSTRUKTIONSELEMENTE
100
AcDbLine
 62
7
  6
CONTINUOUS
 10
238.7924096997
 20
221.3261321566
 11
238.4519842084
 21
221.2427991411
  0
LINE
  5
52E
100
AcDbEntity
  8
KONSTRUKTIONSELEMENTE
100
AcDbLine
 62
7
  6
CONTINUOUS
 10
238.4519842084
 20
220.7427989027
 11
238.8775160725
 21
220.826132395
  0
LINE
  5
52F
100
AcDbEntity
  8
KONSTRUKTIONSELEMENTE
100
AcDbLine
 62
7
  6
CONTINUOUS
 10
235.8136862929
 20
224.4094656489
 11
239.8136862929
 21
224.4094656489
  0
LINE
  5
530
100
AcDbEntity
  8
KONSTRUKTIONSELEMENTE
100
AcDbLine
 62
7
  6
CONTINUOUS
 10
239.3030479963
 20
224.9094656489
 11
236.3243245299
 21
224.9094656489
  0
LINE
  5
531
100
AcDbEntity
  8
0
100
AcDbLine
 62
7
  6
CONTINUOUS
 10
289.0579953953
 20
226.1127023581
 11
288.4536611671
 21
226.1127023581
  0
LINE
  5
532
100
AcDbEntity
  8
0
100
AcDbLine
 62
7
  6
CONTINUOUS
 10
285.682379875
 20
226.1127023581
 11
285.0780456469
 21
226.1127023581
  0
LINE
  5
533
100
AcDbEntity
  8
KONSTRUKTIONSELEMENTE
100
AcDbLine
 62
7
  6
CONTINUOUS
 10
237.1753884967
 20
227.2427986643
 11
238.4519842084
 21
227.2427986643
  0
LINE
  5
534
100
AcDbEntity
  8
KONSTRUKTIONSELEMENTE
100
AcDbLine
 62
7
  6
CONTINUOUS
 10
238.4519842084
 20
227.7427986643
 11
237.1753884967
 21
227.7427986643
  0
LINE
  5
535
100
AcDbEntity
  8
0
100
AcDbLine
 62
7
  6
CONTINUOUS
 10
281.4636862929
 20
203.1794656489
 11
281.4636862929
 21
203.2749093595
  0
LINE
  5
536
100
AcDbEntity
  8
0
100
AcDbLine
 62
7
  6
CONTINUOUS
 10
281.4636862929
 20
203.4536179044
 11
281.4636862929
 21
246.8040094384
  0
LINE
  5
537
100
AcDbEntity
  8
KONSTRUKTIONSELEMENTE
100
AcDbLine
 62
7
  6
CONTINUOUS
 10
284.6668156295
 20
205.6794656489
 11
284.6668156295
 21
232.6794656489
  0
LINE
  5
538
100
AcDbEntity
  8
0
100
AcDbLine
 62
7
  6
CONTINUOUS
 10
285.6684693405
 20
225.8926127933
 11
285.682379875
 21
226.1127023581
  0
LINE
  5
539
100
AcDbEntity
  8
0
100
AcDbLine
 62
7
  6
CONTINUOUS
 10
272.5303535159
 20
188.5307422346
 11
272.6761862929
 21
188.8286145917
  0
LINE
  5
53A
100
AcDbEntity
  8
0
100
AcDbLine
 62
7
  6
CONTINUOUS
 10
275.8845190699
 20
188.5307422346
 11
276.0303535159
 21
188.8286145917
  0
LINE
  5
53B
100
AcDbEntity
  8
0
100
AcDbLine
 62
7
  6
CONTINUOUS
 10
272.0928535159
 20
188.6796784392
 11
272.2386862929
 21
188.9030826679
  0
LINE
  5
53C
100
AcDbEntity
  8
0
100
AcDbLine
 62
7
  6
CONTINUOUS
 10
275.4470190699
 20
188.6796784392
 11
275.5928535159
 21
188.9030826679
  0
LINE
  5
53D
100
AcDbEntity
  8
0
100
AcDbLine
 62
7
  6
CONTINUOUS
 10
273.6241035159
 20
190.9881891153
 11
273.9157690699
 21
191.2860614202
  0
LINE
  5
53E
100
AcDbEntity
  8
0
100
AcDbLine
 62
7
  6
CONTINUOUS
 10
272.2386862929
 20
188.2328699036
 11
272.5303535159
 21
188.5307422346
  0
LINE
  5
53F
100
AcDbEntity
  8
0
100
AcDbLine
 62
7
  6
CONTINUOUS
 10
259.5436862929
 20
182.3818060822
 11
261.58535289
 21
184.2435081443
  0
LINE
  5
540
100
AcDbEntity
  8
0
100
AcDbLine
 62
7
  6
CONTINUOUS
 10
260.1270196436
 20
182.3818060822
 11
261.9499362929
 21
184.0201039157
  0
LINE
  5
541
100
AcDbEntity
  8
0
100
AcDbLine
 62
7
  6
CONTINUOUS
 10
265.7491035159
 20
189.6477635345
 11
266.0407690699
 21
189.8711677632
  0
LINE
  5
542
100
AcDbEntity
  8
0
100
AcDbLine
 62
7
  6
CONTINUOUS
 10
260.1270196436
 20
184.913721039
 11
260.3457696436
 21
185.0626571915
  0
LINE
  5
543
100
AcDbEntity
  8
0
100
AcDbLine
 62
7
  6
CONTINUOUS
 10
274.0616035159
 20
190.8392529628
 11
274.2803535159
 21
190.9881891153
  0
LINE
  5
544
100
AcDbEntity
  8
0
100
AcDbLine
 62
7
  6
CONTINUOUS
 10
260.7907699044
 20
188.0839337316
 11
261.0824362929
 21
188.2328699036
  0
LINE
  5
545
100
AcDbEntity
  8
0
100
AcDbLine
 62
7
  6
CONTINUOUS
 10
259.9811862929
 20
185.2860614202
 11
260.2728529422
 21
185.4349975726
  0
LINE
  5
546
100
AcDbEntity
  8
0
100
AcDbLine
 62
7
  6
CONTINUOUS
 10
273.9157690699
 20
191.2860614202
 11
274.2074362929
 21
191.4349975726
  0
LINE
  5
547
100
AcDbEntity
  8
0
100
AcDbLine
 62
7
  6
CONTINUOUS
 10
257.1449362929
 20
188.4562741584
 11
257.3636862929
 21
188.5307422346
  0
LINE
  5
548
100
AcDbEntity
  8
0
100
AcDbLine
 62
7
  6
CONTINUOUS
 10
265.4574362929
 20
190.0201039157
 11
265.6761862929
 21
190.0945719919
  0
LINE
  5
549
100
AcDbEntity
  8
0
100
AcDbLine
 62
7
  6
CONTINUOUS
 10
274.2803535159
 20
190.9881891153
 11
274.4991035159
 21
191.0626571915
  0
LINE
  5
54A
100
AcDbEntity
  8
KONSTRUKTIONSELEMENTE
100
AcDbLine
 62
7
  6
CONTINUOUS
 10
236.8349630053
 20
227.1594656489
 11
237.1753884967
 21
227.2427986643
  0
LINE
  5
54B
100
AcDbEntity
  8
KONSTRUKTIONSELEMENTE
100
AcDbLine
 62
7
  6
CONTINUOUS
 10
237.1753884967
 20
227.7427986643
 11
236.7498563941
 21
227.6594656489
  0
LINE
  5
54C
100
AcDbEntity
  8
0
100
AcDbLine
 62
7
  6
CONTINUOUS
 10
287.3680205211
 20
229.1127023581
 11
286.7636862929
 21
229.1127023581
  0
LINE
  5
54D
100
AcDbEntity
  8
0
100
AcDbLine
 62
7
  6
CONTINUOUS
 10
289.0579953953
 20
229.5127023581
 11
288.4536611671
 21
229.5127023581
  0
LINE
  5
54E
100
AcDbEntity
  8
0
100
AcDbLine
 62
7
  6
CONTINUOUS
 10
285.682379875
 20
229.5127023581
 11
285.0780456469
 21
229.5127023581
  0
LINE
  5
54F
100
AcDbEntity
  8
KONSTRUKTIONSELEMENTE
100
AcDbLine
 62
7
  6
CONTINUOUS
 10
286.8693886838
 20
232.6794656489
 11
284.6668156295
 21
232.6794656489
  0
LINE
  5
550
100
AcDbEntity
  8
0
100
AcDbLine
 62
7
  6
CONTINUOUS
 10
235.8214344696
 20
232.6794656489
 11
240.2605569563
 21
232.6794656489
  0
LINE
  5
551
100
AcDbEntity
  8
0
100
AcDbLine
 62
7
  6
CONTINUOUS
 10
286.8693886838
 20
232.6794656489
 11
289.1059381163
 21
232.6794656489
  0
LINE
  5
552
100
AcDbEntity
  8
0
100
AcDbLine
 62
7
  6
CONTINUOUS
 10
289.0647692992
 20
225.805831859
 11
289.0579953953
 21
226.1127023581
  0
LINE
  5
553
100
AcDbEntity
  8
0
100
AcDbLine
 62
7
  6
CONTINUOUS
 10
289.0647692992
 20
229.205831859
 11
289.0579953953
 21
229.5127023581
  0
LINE
  5
554
100
AcDbEntity
  8
0
100
AcDbLine
 62
7
  6
CONTINUOUS
 10
286.7636862929
 20
229.1127023581
 11
286.7636862929
 21
227.9461809797
  0
LINE
  5
555
100
AcDbEntity
  8
0
100
AcDbLine
 62
7
  6
CONTINUOUS
 10
287.3680205211
 20
227.945222925
 11
287.3680205211
 21
229.1127023581
  0
LINE
  5
556
100
AcDbEntity
  8
0
100
AcDbLine
 62
7
  6
CONTINUOUS
 10
275.5928535159
 20
188.2328699036
 11
275.8845190699
 21
188.5307422346
  0
LINE
  5
557
100
AcDbEntity
  8
0
100
AcDbLine
 62
7
  6
CONTINUOUS
 10
271.8741035159
 20
188.5307422346
 11
272.0928535159
 21
188.6796784392
  0
LINE
  5
558
100
AcDbEntity
  8
0
100
AcDbLine
 62
7
  6
CONTINUOUS
 10
275.2282690699
 20
188.5307422346
 11
275.4470190699
 21
188.6796784392
  0
LINE
  5
559
100
AcDbEntity
  8
0
100
AcDbLine
 62
7
  6
CONTINUOUS
 10
271.9470190699
 20
188.0839337316
 11
272.2386862929
 21
188.2328699036
  0
LINE
  5
55A
100
AcDbEntity
  8
0
100
AcDbLine
 62
7
  6
CONTINUOUS
 10
275.3011862929
 20
188.0839337316
 11
275.5928535159
 21
188.2328699036
  0
LINE
  5
55B
100
AcDbEntity
  8
0
100
AcDbLine
 62
7
  6
CONTINUOUS
 10
290.4636862929
 20
196.122952322
 11
290.4636862929
 21
197.1421311313
  0
LINE
  5
55C
100
AcDbEntity
  8
0
100
AcDbLine
 62
7
  6
CONTINUOUS
 10
290.4636862929
 20
202.9785295885
 11
290.4636862929
 21
203.0750515149
  0
LINE
  5
55D
100
AcDbEntity
  8
RUNDUNGEN
100
AcDbLine
 62
7
  6
CONTINUOUS
 10
290.4636862929
 20
195.6793966026
 11
290.4636862929
 21
249.0959303455
  0
LINE
  5
55E
100
AcDbEntity
  8
0
100
AcDbLine
 62
7
  6
CONTINUOUS
 10
289.8820332493
 20
242.1369873787
 11
289.7318598859
 21
242.1369873787
  0
LINE
  5
55F
100
AcDbEntity
  8
0
100
AcDbLine
 62
7
  6
CONTINUOUS
 10
235.0453393366
 20
242.1369873787
 11
235.1955126999
 21
242.1369873787
  0
LINE
  5
560
100
AcDbEntity
  8
0
100
AcDbLine
 62
7
  6
CONTINUOUS
 10
289.8820078221
 20
231.0882869496
 11
286.8693849379
 21
237.2650792224
  0
LINE
  5
561
100
AcDbEntity
  8
RUNDUNGEN
100
AcDbLine
 62
7
  6
CONTINUOUS
 10
286.8693849379
 20
237.2650792224
 11
286.3725179386
 21
238.2838075397
  0
LINE
  5
562
100
AcDbEntity
  8
0
100
AcDbLine
 62
7
  6
CONTINUOUS
 10
289.7318598859
 20
242.1369873787
 11
289.8820151657
 21
241.8291234318
  0
LINE
  5
563
100
AcDbEntity
  8
RUNDUNGEN
100
AcDbLine
 62
7
  6
CONTINUOUS
 10
288.0548546472
 20
245.575357662
 11
287.4556020179
 21
246.80400763
  0
LINE
  5
564
100
AcDbEntity
  8
0
100
AcDbLine
 62
7
  6
CONTINUOUS
 10
287.4556020179
 20
246.80400763
 11
281.7470052584
 21
258.5083654959
  0
LINE
  5
565
100
AcDbEntity
  8
RUNDUNGEN
100
AcDbLine
 62
7
  6
CONTINUOUS
 10
281.7470052584
 20
258.5083654959
 11
280.6765163993
 21
260.7031929162
  0
LINE
  5
566
100
AcDbEntity
  8
BEZUGSACHSEN
100
AcDbLine
 62
7
  6
CONTINUOUS
 10
269.2636862929
 20
150.0794656489
 11
270.4636862929
 21
151.2794656489
  0
LINE
  5
567
100
AcDbEntity
  8
RUNDUNGEN
100
AcDbLine
 62
7
  6
CONTINUOUS
 10
279.5629685933
 20
261.7058358642
 11
276.3450433497
 21
262.877064869
  0
LINE
  5
568
100
AcDbEntity
  8
0
100
AcDbLine
 62
7
  6
CONTINUOUS
 10
276.3450433497
 20
262.877064869
 11
262.4636862929
 21
267.9294656489
  0
LINE
  5
569
100
AcDbEntity
  8
0
100
AcDbLine
 62
7
  6
CONTINUOUS
 10
148.0581238641
 20
54.4873257753
 11
148.0182720214
 21
54.4870610687
  0
LINE
  5
56A
100
AcDbEntity
  8
KONSTRUKTIONSELEMENTE
100
AcDbLine
 62
7
  6
CONTINUOUS
 10
147.9852866177
 20
54.4870610687
 11
142.2018748533
 21
54.4870610687
  0
LINE
  5
56B
100
AcDbEntity
  8
0
100
AcDbLine
 62
7
  6
CONTINUOUS
 10
142.2018741744
 20
54.4870610687
 11
148.0317330552
 21
54.4870938628
  0
LINE
  5
56C
100
AcDbEntity
  8
0
100
AcDbLine
 62
7
  6
CONTINUOUS
 10
142.1290061411
 20
54.4873261935
 11
142.1688894496
 21
54.4870610687
  0
LWPOLYLINE
  5
56D
100
AcDbEntity
  8
RUNDUNGEN
100
AcDbPolyline
 62
7
  6
CONTINUOUS
 90
3
 70
0
 10
142.1290379996
 20
54.4873257701
 10
142.1554283188
 20
54.4870938656
 10
142.2018741744
 20
54.4870610687
  0
LINE
  5
56E
100
AcDbEntity
  8
0
100
AcDbLine
 62
7
  6
CONTINUOUS
 10
140.3935807355
 20
55.2188874757
 11
140.2053420674
 21
55.2188874757
  0
LINE
  5
56F
100
AcDbEntity
  8
0
100
AcDbLine
 62
7
  6
CONTINUOUS
 10
149.7935807355
 20
55.2188874757
 11
149.9818194036
 21
55.2188874757
  0
LINE
  5
570
100
AcDbEntity
  8
0
100
AcDbLine
 62
7
  6
CONTINUOUS
 10
150.5288516573
 20
55.8448092454
 11
150.0935807355
 21
55.8448092454
  0
LINE
  5
571
100
AcDbEntity
  8
0
100
AcDbLine
 62
7
  6
CONTINUOUS
 10
139.6583098137
 20
55.8448092454
 11
140.0935807355
 21
55.8448092454
  0
LINE
  5
572
100
AcDbEntity
  8
0
100
AcDbLine
 62
7
  6
CONTINUOUS
 10
139.6342966141
 20
55.8827268405
 11
139.5935807355
 21
55.8827268405
  0
LINE
  5
573
100
AcDbEntity
  8
0
100
AcDbLine
 62
7
  6
CONTINUOUS
 10
139.6279477055
 20
55.8927519663
 11
139.5935807355
 21
55.8927519663
  0
LINE
  5
574
100
AcDbEntity
  8
RUNDUNGEN
100
AcDbLine
 62
7
  6
CONTINUOUS
 10
139.2749399931
 20
56.693480807
 11
140.1284441805
 21
56.693480807
  0
LINE
  5
575
100
AcDbEntity
  8
0
100
AcDbLine
 62
7
  6
CONTINUOUS
 10
150.0587172905
 20
56.693480807
 11
150.9122214779
 21
56.693480807
  0
LINE
  5
576
100
AcDbEntity
  8
0
100
AcDbLine
 62
7
  6
CONTINUOUS
 10
141.0347958191
 20
110.2644426939
 11
140.9988309151
 21
110.2488819313
  0
LINE
  5
577
100
AcDbEntity
  8
0
100
AcDbLine
 62
7
  6
CONTINUOUS
 10
141.1481022898
 20
110.3080554118
 11
141.0347958191
 21
110.2644426939
  0
LWPOLYLINE
  5
578
100
AcDbEntity
  8
RUNDUNGEN
100
AcDbPolyline
 62
7
  6
CONTINUOUS
 90
3
 70
0
 10
140.9206759545
 20
54.7590615249
 10
141.0346729409
 20
54.7097296215
 10
141.1481097034
 20
54.666064043
  0
LWPOLYLINE
  5
579
100
AcDbEntity
  8
0
100
AcDbPolyline
 62
7
  6
CONTINUOUS
 90
3
 70
0
 10
140.586676798
 20
110.0357005524
 10
140.5792887182
 20
110.0313078243
 10
140.46663616
 20
109.9573559468
  0
LWPOLYLINE
  5
57A
100
AcDbEntity
  8
0
100
AcDbPolyline
 62
7
  6
CONTINUOUS
 90
3
 70
0
 10
140.8004298473
 20
110.1566019057
 10
140.6928655814
 20
110.0988371823
 10
140.6005310201
 20
110.0439378527
  0
LWPOLYLINE
  5
57B
100
AcDbEntity
  8
RUNDUNGEN
100
AcDbPolyline
 62
7
  6
CONTINUOUS
 90
3
 70
0
 10
140.6923332158
 20
54.8755858877
 10
140.8064356084
 20
54.814283626
 10
140.9206759545
 20
54.7590615249
  0
LINE
  5
57C
100
AcDbEntity
  8
RUNDUNGEN
100
AcDbLine
 62
7
  6
CONTINUOUS
 10
140.5787591596
 20
54.9431452477
 11
140.6923332158
 21
54.8755858877
  0
LINE
  5
57D
100
AcDbEntity
  8
RUNDUNGEN
100
AcDbLine
 62
7
  6
CONTINUOUS
 10
140.4661387878
 20
55.0171089973
 11
140.5787591596
 21
54.9431452477
  0
LINE
  5
57E
100
AcDbEntity
  8
BEZUGSACHSEN
100
AcDbLine
 62
7
  6
CONTINUOUS
 10
118.1653775052
 20
94.4870610687
 11
111.2371742749
 21
82.4870610687
  0
LINE
  5
57F
100
AcDbEntity
  8
0
100
AcDbLine
 62
7
  6
CONTINUOUS
 10
140.4121966824
 20
109.9189915063
 11
140.3935807355
 21
109.9054356658
  0
LINE
  5
580
100
AcDbEntity
  8
0
100
AcDbLine
 62
7
  6
CONTINUOUS
 10
140.46663616
 20
109.9573559468
 11
140.3935807355
 21
109.9053874769
  0
LINE
  5
581
100
AcDbEntity
  8
0
100
AcDbLine
 62
7
  6
CONTINUOUS
 10
140.5022550047
 20
109.9815703618
 11
140.456894537
 21
109.9506609955
  0
LINE
  5
582
100
AcDbEntity
  8
RUNDUNGEN
100
AcDbLine
 62
7
  6
CONTINUOUS
 10
122.3435807355
 20
65.2370610687
 11
138.6569613948
 21
65.2370610687
  0
LINE
  5
583
100
AcDbEntity
  8
RUNDUNGEN
100
AcDbLine
 62
7
  6
CONTINUOUS
 10
151.5302000762
 20
65.2370610687
 11
155.5935807355
 21
65.2370610687
  0
LINE
  5
584
100
AcDbEntity
  8
RUNDUNGEN
100
AcDbLine
 62
7
  6
CONTINUOUS
 10
140.3935807355
 20
55.0687346605
 11
140.4661387878
 21
55.0171089973
  0
LWPOLYLINE
  5
585
100
AcDbEntity
  8
RUNDUNGEN
100
AcDbPolyline
 62
7
  6
CONTINUOUS
 90
3
 70
0
 10
140.3935807355
 20
55.0686864716
 10
140.4356144224
 20
55.0383857606
 10
140.4859292723
 20
55.003536646
  0
LINE
  5
586
100
AcDbEntity
  8
BEZUGSACHSEN
100
AcDbLine
 62
7
  6
CONTINUOUS
 10
111.2371742749
 20
82.4870610687
 11
118.1653775052
 21
70.4870610687
  0
LINE
  5
587
100
AcDbEntity
  8
0
100
AcDbLine
 62
7
  6
CONTINUOUS
 10
110.8977063495
 20
68.9203938457
 11
111.6895655083
 21
68.9203938457
  0
LINE
  5
588
100
AcDbEntity
  8
0
100
AcDbLine
 62
7
  6
CONTINUOUS
 10
110.7270516682
 20
69.0662282917
 11
111.5064340828
 21
69.0662282917
  0
LINE
  5
589
100
AcDbEntity
  8
0
100
AcDbLine
 62
7
  6
CONTINUOUS
 10
110.6433411735
 20
69.1391438457
 11
111.4167511034
 21
69.1391438457
  0
LINE
  5
58A
100
AcDbEntity
  8
0
100
AcDbLine
 62
7
  6
CONTINUOUS
 10
110.5606746848
 20
69.2120610687
 11
111.3282788785
 21
69.2120610687
  0
LINE
  5
58B
100
AcDbEntity
  8
0
100
AcDbLine
 62
7
  6
CONTINUOUS
 10
110.3187382859
 20
69.4308110687
 11
111.0698574846
 21
69.4308110687
  0
LINE
  5
58C
100
AcDbEntity
  8
0
100
AcDbLine
 62
7
  6
CONTINUOUS
 10
110.0095657149
 20
69.7224782917
 11
110.7406532373
 21
69.7224782917
  0
LINE
  5
58D
100
AcDbEntity
  8
KONSTRUKTIONSELEMENTE
100
AcDbLine
 62
7
  6
CONTINUOUS
 10
122.2068293895
 20
87.4870610687
 11
119.3200780436
 21
82.4870610687
  0
LINE
  5
58E
100
AcDbEntity
  8
0
100
AcDbLine
 62
7
  6
CONTINUOUS
 10
109.643088619
 20
70.0870610687
 11
110.3518127257
 21
70.0870610687
  0
LINE
  5
58F
100
AcDbEntity
  8
0
100
AcDbLine
 62
7
  6
CONTINUOUS
 10
109.2970780521
 20
70.4516438457
 11
109.9859421152
 21
70.4516438457
  0
LINE
  5
590
100
AcDbEntity
  8
BEZUGSACHSEN
100
AcDbLine
 62
7
  6
CONTINUOUS
 10
118.1653775052
 20
70.4870610687
 11
132.0217839658
 21
70.4870610687
  0
LINE
  5
591
100
AcDbEntity
  8
0
100
AcDbLine
 62
7
  6
CONTINUOUS
 10
109.0339287514
 20
70.7433110687
 11
109.7084378421
 21
70.7433110687
  0
LINE
  5
592
100
AcDbEntity
  8
0
100
AcDbLine
 62
7
  6
CONTINUOUS
 10
108.7821538169
 20
71.0349782917
 11
109.4434915859
 21
71.0349782917
  0
LINE
  5
593
100
AcDbEntity
  8
0
100
AcDbLine
 62
7
  6
CONTINUOUS
 10
108.5411321336
 20
71.3266438457
 11
109.1903458707
 21
71.3266438457
  0
LINE
  5
594
100
AcDbEntity
  8
0
100
AcDbLine
 62
7
  6
CONTINUOUS
 10
108.4824897341
 20
71.3995610687
 11
109.1288221773
 21
71.3995610687
  0
LINE
  5
595
100
AcDbEntity
  8
0
100
AcDbLine
 62
7
  6
CONTINUOUS
 10
108.3103069393
 20
71.6183110687
 11
108.9483288365
 21
71.6183110687
  0
LINE
  5
596
100
AcDbEntity
  8
0
100
AcDbLine
 62
7
  6
CONTINUOUS
 10
107.877320246
 20
72.2016438457
 11
108.4953789551
 21
72.2016438457
  0
LINE
  5
597
100
AcDbEntity
  8
KONSTRUKTIONSELEMENTE
100
AcDbLine
 62
7
  6
CONTINUOUS
 10
119.3200780436
 20
82.4870610687
 11
122.2068293895
 21
77.4870610687
  0
LINE
  5
598
100
AcDbEntity
  8
0
100
AcDbLine
 62
7
  6
CONTINUOUS
 10
126.9279913037
 20
91.6820356758
 11
126.855629651
 21
91.530574577
  0
LINE
  5
599
100
AcDbEntity
  8
0
100
AcDbLine
 62
7
  6
CONTINUOUS
 10
126.9760248718
 20
91.2465809152
 11
127.1585778758
 21
91.4372581426
  0
LINE
  5
59A
100
AcDbEntity
  8
0
100
AcDbLine
 62
7
  6
CONTINUOUS
 10
126.855629651
 20
91.530574577
 11
126.7385318793
 21
91.4386172385
  0
LINE
  5
59B
100
AcDbEntity
  8
0
100
AcDbLine
 62
7
  6
CONTINUOUS
 10
126.7556423168
 20
91.1681486386
 11
126.9760248718
 21
91.2465809152
  0
LINE
  5
59C
100
AcDbEntity
  8
0
100
AcDbLine
 62
7
  6
CONTINUOUS
 10
107.5760140311
 20
72.6391438457
 11
108.1809176254
 21
72.6391438457
  0
LINE
  5
59D
100
AcDbEntity
  8
0
100
AcDbLine
 62
7
  6
CONTINUOUS
 10
107.527647589
 20
72.7120610687
 11
108.130492577
 21
72.7120610687
  0
LINE
  5
59E
100
AcDbEntity
  8
0
100
AcDbLine
 62
7
  6
CONTINUOUS
 10
107.4324560766
 20
72.8578938457
 11
108.0312909609
 21
72.8578938457
  0
LINE
  5
59F
100
AcDbEntity
  8
0
100
AcDbLine
 62
7
  6
CONTINUOUS
 10
107.2934462614
 20
73.0766438457
 11
107.8865219859
 21
73.0766438457
  0
LINE
  5
5A0
100
AcDbEntity
  8
0
100
AcDbLine
 62
7
  6
CONTINUOUS
 10
107.1149597067
 20
73.3683110687
 11
107.7008044128
 21
73.3683110687
  0
LINE
  5
5A1
100
AcDbEntity
  8
0
100
AcDbLine
 62
7
  6
CONTINUOUS
 10
106.9440641961
 20
73.6599782917
 11
107.5231519412
 21
73.6599782917
  0
LINE
  5
5A2
100
AcDbEntity
  8
0
100
AcDbLine
 62
7
  6
CONTINUOUS
 10
106.7805105747
 20
73.9516438457
 11
107.3532787762
 21
73.9516438457
  0
LINE
  5
5A3
100
AcDbEntity
  8
0
100
AcDbLine
 62
7
  6
CONTINUOUS
 10
106.6625238099
 20
74.1703938457
 11
107.2308196938
 21
74.1703938457
  0
LINE
  5
5A4
100
AcDbEntity
  8
0
100
AcDbLine
 62
7
  6
CONTINUOUS
 10
106.5860431192
 20
74.3162282917
 11
107.1514777958
 21
74.3162282917
  0
LINE
  5
5A5
100
AcDbEntity
  8
0
100
AcDbLine
 62
7
  6
CONTINUOUS
 10
106.5484474138
 20
74.3891438457
 11
107.1124863346
 21
74.3891438457
  0
LINE
  5
5A6
100
AcDbEntity
  8
0
100
AcDbLine
 62
7
  6
CONTINUOUS
 10
106.3316942767
 20
74.8266438457
 11
106.8878210334
 21
74.8266438457
  0
LINE
  5
5A7
100
AcDbEntity
  8
0
100
AcDbLine
 62
7
  6
CONTINUOUS
 10
125.4237655906
 20
92.6300514159
 11
125.0991637945
 21
90.1512142543
  0
LINE
  5
5A8
100
AcDbEntity
  8
0
100
AcDbLine
 62
7
  6
CONTINUOUS
 10
125.4090184397
 20
90.1106390298
 11
125.5540532869
 21
91.2182045858
  0
LINE
  5
5A9
100
AcDbEntity
  8
0
100
AcDbLine
 62
7
  6
CONTINUOUS
 10
125.5954918091
 20
91.5346518453
 11
125.699088134
 21
92.3257701418
  0
LINE
  5
5AA
100
AcDbEntity
  8
0
100
AcDbLine
 62
7
  6
CONTINUOUS
 10
126.9487105842
 20
91.8402594533
 11
126.9279913037
 21
91.6820356758
  0
LINE
  5
5AB
100
AcDbEntity
  8
0
100
AcDbLine
 62
7
  6
CONTINUOUS
 10
127.8337230645
 20
90.536347112
 11
127.7679327977
 21
90.2734447129
  0
LINE
  5
5AC
100
AcDbEntity
  8
0
100
AcDbLine
 62
7
  6
CONTINUOUS
 10
128.5339755165
 20
92.0292091571
 11
127.8337230645
 21
90.536347112
  0
LINE
  5
5AD
100
AcDbEntity
  8
0
100
AcDbLine
 62
7
  6
CONTINUOUS
 10
128.1166446307
 20
90.4036379168
 11
128.8168970828
 21
91.8964999619
  0
LINE
  5
5AE
100
AcDbEntity
  8
0
100
AcDbLine
 62
7
  6
CONTINUOUS
 10
127.1585778758
 20
91.4372581426
 11
127.2309395286
 21
91.5887192414
  0
LINE
  5
5AF
100
AcDbEntity
  8
0
100
AcDbLine
 62
7
  6
CONTINUOUS
 10
129.3711541971
 20
89.52142632
 11
129.5312517875
 21
89.7400922574
  0
LINE
  5
5B0
100
AcDbEntity
  8
0
100
AcDbLine
 62
7
  6
CONTINUOUS
 10
129.2483303561
 20
89.8728013893
 11
129.1108215514
 21
89.7022922855
  0
LINE
  5
5B1
100
AcDbEntity
  8
0
100
AcDbLine
 62
7
  6
CONTINUOUS
 10
131.246997014
 20
90.5636034812
 11
129.5358926628
 21
88.7409345866
  0
LINE
  5
5B2
100
AcDbEntity
  8
0
100
AcDbLine
 62
7
  6
CONTINUOUS
 10
129.9821651275
 20
88.7597276776
 11
131.2563917985
 21
90.1170343295
  0
LINE
  5
5B3
100
AcDbEntity
  8
0
100
AcDbLine
 62
7
  6
CONTINUOUS
 10
129.1864919845
 20
89.3730352869
 11
129.3711541971
 21
89.52142632
  0
LINE
  5
5B4
100
AcDbEntity
  8
0
100
AcDbLine
 62
7
  6
CONTINUOUS
 10
129.1108215514
 20
89.7022922855
 11
128.9487481404
 21
89.6020581197
  0
LINE
  5
5B5
100
AcDbEntity
  8
0
100
AcDbLine
 62
7
  6
CONTINUOUS
 10
128.9075224563
 20
89.2688807322
 11
129.1864919845
 21
89.3730352869
  0
LINE
  5
5B6
100
AcDbEntity
  8
0
100
AcDbLine
 62
7
  6
CONTINUOUS
 10
106.0654543271
 20
75.4099782917
 11
106.6121663246
 21
75.4099782917
  0
LINE
  5
5B7
100
AcDbEntity
  8
0
100
AcDbLine
 62
7
  6
CONTINUOUS
 10
105.4488293114
 20
77.0437280533
 11
105.9749330918
 21
77.0437280533
  0
LINE
  5
5B8
100
AcDbEntity
  8
0
100
AcDbLine
 62
7
  6
CONTINUOUS
 10
105.4222066778
 20
77.1270610687
 11
105.9474561934
 21
77.1270610687
  0
LINE
  5
5B9
100
AcDbEntity
  8
0
100
AcDbLine
 62
7
  6
CONTINUOUS
 10
105.3703137491
 20
77.2937280533
 11
105.893906204
 21
77.2937280533
  0
LINE
  5
5BA
100
AcDbEntity
  8
KONSTRUKTIONSELEMENTE
100
AcDbLine
 62
7
  6
CONTINUOUS
 10
122.2068293895
 20
77.4870610687
 11
127.9803320814
 21
77.4870610687
  0
LINE
  5
5BB
100
AcDbEntity
  8
0
100
AcDbLine
 62
7
  6
CONTINUOUS
 10
105.2718819331
 20
77.6270610687
 11
105.7923602367
 21
77.6270610687
  0
LINE
  5
5BC
100
AcDbEntity
  8
0
100
AcDbLine
 62
7
  6
CONTINUOUS
 10
127.7679327977
 20
90.2734447129
 11
127.7718848278
 21
90.0365809463
  0
LINE
  5
5BD
100
AcDbEntity
  8
0
100
AcDbLine
 62
7
  6
CONTINUOUS
 10
127.2309395286
 20
91.5887192414
 11
127.2585652294
 21
91.7996842288
  0
LINE
  5
5BE
100
AcDbEntity
  8
0
100
AcDbLine
 62
7
  6
CONTINUOUS
 10
128.0734428799
 20
90.188892478
 11
128.1166446307
 21
90.4036379168
  0
LINE
  5
5BF
100
AcDbEntity
  8
0
100
AcDbLine
 62
7
  6
CONTINUOUS
 10
129.9485828081
 20
91.3656634344
 11
129.2483303561
 21
89.8728013893
  0
LINE
  5
5C0
100
AcDbEntity
  8
0
100
AcDbLine
 62
7
  6
CONTINUOUS
 10
129.5312517875
 20
89.7400922574
 11
130.2315042395
 21
91.2329543025
  0
LINE
  5
5C1
100
AcDbEntity
  8
0
100
AcDbLine
 62
7
  6
CONTINUOUS
 10
131.9555503614
 20
88.7310883058
 11
131.4094532421
 21
88.1493854821
  0
LINE
  5
5C2
100
AcDbEntity
  8
0
100
AcDbLine
 62
7
  6
CONTINUOUS
 10
131.6372868539
 20
87.9354974382
 11
132.1833839732
 21
88.5172002619
  0
LINE
  5
5C3
100
AcDbEntity
  8
0
100
AcDbLine
 62
7
  6
CONTINUOUS
 10
131.4172823741
 20
87.7772443864
 11
131.6372868539
 21
87.9354974382
  0
LINE
  5
5C4
100
AcDbEntity
  8
0
100
AcDbLine
 62
7
  6
CONTINUOUS
 10
131.4094532421
 20
88.1493854821
 11
131.2258552335
 21
88.0299126149
  0
LINE
  5
5C5
100
AcDbEntity
  8
0
100
AcDbLine
 62
7
  6
CONTINUOUS
 10
131.1957117816
 20
87.6934197714
 11
131.4172823741
 21
87.7772443864
  0
LINE
  5
5C6
100
AcDbEntity
  8
0
100
AcDbLine
 62
7
  6
CONTINUOUS
 10
134.0280392489
 20
78.7466718716
 11
133.8425048614
 21
78.7031792574
  0
LINE
  5
5C7
100
AcDbEntity
  8
0
100
AcDbLine
 62
7
  6
CONTINUOUS
 10
132.7977420308
 20
80.1903704933
 11
132.98327686
 21
80.2338642154
  0
LINE
  5
5C8
100
AcDbEntity
  8
0
100
AcDbLine
 62
7
  6
CONTINUOUS
 10
132.8181198308
 20
78.6870217935
 11
133.103658338
 21
78.6942306441
  0
LINE
  5
5C9
100
AcDbEntity
  8
0
100
AcDbLine
 62
7
  6
CONTINUOUS
 10
105.1804870164
 20
77.9603940841
 11
105.6981072964
 21
77.9603940841
  0
LINE
  5
5CA
100
AcDbEntity
  8
0
100
AcDbLine
 62
7
  6
CONTINUOUS
 10
105.0759694357
 20
78.3770610687
 11
105.5903601496
 21
78.3770610687
  0
LINE
  5
5CB
100
AcDbEntity
  8
0
100
AcDbLine
 62
7
  6
CONTINUOUS
 10
133.7536826134
 20
78.4583788457
 11
133.9214523888
 21
78.4529109293
  0
LINE
  5
5CC
100
AcDbEntity
  8
0
100
AcDbLine
 62
7
  6
CONTINUOUS
 10
133.0247104041
 20
78.9444978516
 11
132.8569405587
 21
78.9499657934
  0
LINE
  5
5CD
100
AcDbEntity
  8
0
100
AcDbLine
 62
7
  6
CONTINUOUS
 10
132.5681104779
 20
78.7777340295
 11
132.8181198308
 21
78.6870217935
  0
LINE
  5
5CE
100
AcDbEntity
  8
0
100
AcDbLine
 62
7
  6
CONTINUOUS
 10
132.8569405587
 20
78.9499657934
 11
132.706934989
 21
79.0043931197
  0
LINE
  5
5CF
100
AcDbEntity
  8
0
100
AcDbLine
 62
7
  6
CONTINUOUS
 10
126.431974757
 20
91.1032414529
 11
126.7000794122
 21
89.9415756008
  0
LINE
  5
5D0
100
AcDbEntity
  8
0
100
AcDbLine
 62
7
  6
CONTINUOUS
 10
132.096478956
 20
89.1094937287
 11
132.0632041225
 21
88.9218569156
  0
LINE
  5
5D1
100
AcDbEntity
  8
0
100
AcDbLine
 62
7
  6
CONTINUOUS
 10
132.3274443075
 20
88.746749165
 11
132.3971255102
 21
88.9731660541
  0
LINE
  5
5D2
100
AcDbEntity
  8
0
100
AcDbLine
 62
7
  6
CONTINUOUS
 10
132.0632041225
 20
88.9218569156
 11
131.9555503614
 21
88.7310883058
  0
LINE
  5
5D3
100
AcDbEntity
  8
KONSTRUKTIONSELEMENTE
100
AcDbLine
 62
7
  6
CONTINUOUS
 10
127.9803320814
 20
77.4870610687
 11
130.8670834274
 21
82.4870610687
  0
LINE
  5
5D4
100
AcDbEntity
  8
0
100
AcDbLine
 62
7
  6
CONTINUOUS
 10
132.1833839732
 20
88.5172002619
 11
132.3274443075
 21
88.746749165
  0
LINE
  5
5D5
100
AcDbEntity
  8
0
100
AcDbLine
 62
7
  6
CONTINUOUS
 10
134.455800754
 20
84.6724663837
 11
132.6004653658
 21
83.6912562731
  0
LINE
  5
5D6
100
AcDbEntity
  8
0
100
AcDbLine
 62
7
  6
CONTINUOUS
 10
132.8914696452
 20
83.5196380363
 11
135.0036238172
 21
84.5873938234
  0
LINE
  5
5D7
100
AcDbEntity
  8
0
100
AcDbLine
 62
7
  6
CONTINUOUS
 10
132.7919031953
 20
82.2455423223
 11
135.2702692928
 21
82.5737213691
  0
LINE
  5
5D8
100
AcDbEntity
  8
0
100
AcDbLine
 62
7
  6
CONTINUOUS
 10
134.7019350392
 20
82.8136918105
 11
132.7508808144
 21
82.5553380845
  0
LINE
  5
5D9
100
AcDbEntity
  8
0
100
AcDbLine
 62
7
  6
CONTINUOUS
 10
133.1898674333
 20
80.4913402735
 11
132.904328891
 21
80.4841314357
  0
LINE
  5
5DA
100
AcDbEntity
  8
0
100
AcDbLine
 62
7
  6
CONTINUOUS
 10
104.7194382032
 20
80.3770610687
 11
105.2231134521
 21
80.3770610687
  0
LINE
  5
5DB
100
AcDbEntity
  8
0
100
AcDbLine
 62
7
  6
CONTINUOUS
 10
104.6523600758
 20
81.0437275764
 11
105.1540697352
 21
81.0437275764
  0
LINE
  5
5DC
100
AcDbEntity
  8
0
100
AcDbLine
 62
7
  6
CONTINUOUS
 10
104.6186654487
 20
81.5437275764
 11
105.1193936161
 21
81.5437275764
  0
LINE
  5
5DD
100
AcDbEntity
  8
0
100
AcDbLine
 62
7
  6
CONTINUOUS
 10
104.6144267794
 20
81.6270610687
 11
105.1150317542
 21
81.6270610687
  0
LINE
  5
5DE
100
AcDbEntity
  8
0
100
AcDbLine
 62
7
  6
CONTINUOUS
 10
104.6071270689
 20
81.7937275764
 11
105.1075200293
 21
81.7937275764
  0
LINE
  5
5DF
100
AcDbEntity
  8
0
100
AcDbLine
 62
7
  6
CONTINUOUS
 10
104.5991174568
 20
82.0437275764
 11
105.099278621
 21
82.0437275764
  0
LINE
  5
5E0
100
AcDbEntity
  8
0
100
AcDbLine
 62
7
  6
CONTINUOUS
 10
104.5939215739
 20
82.3770610687
 11
105.0939314637
 21
82.3770610687
  0
LINE
  5
5E1
100
AcDbEntity
  8
0
100
AcDbLine
 62
7
  6
CONTINUOUS
 10
150.5935807355
 20
82.4870610687
 11
150.8871409809
 21
82.4870610687
  0
LINE
  5
5E2
100
AcDbEntity
  8
0
100
AcDbLine
 62
7
  6
CONTINUOUS
 10
104.5949858789
 20
82.710394561
 11
105.0950265308
 21
82.710394561
  0
LINE
  5
5E3
100
AcDbEntity
  8
0
100
AcDbLine
 62
7
  6
CONTINUOUS
 10
132.98327686
 20
80.2338642154
 11
133.1510466353
 21
80.2283962991
  0
LINE
  5
5E4
100
AcDbEntity
  8
0
100
AcDbLine
 62
7
  6
CONTINUOUS
 10
132.5905341373
 20
81.2012360644
 11
135.0698372186
 21
80.880212341
  0
LINE
  5
5E5
100
AcDbEntity
  8
0
100
AcDbLine
 62
7
  6
CONTINUOUS
 10
134.6879561992
 20
81.2447675556
 11
132.6306621027
 21
81.5111489496
  0
LINE
  5
5E6
100
AcDbEntity
  8
0
100
AcDbLine
 62
7
  6
CONTINUOUS
 10
134.7808352877
 20
81.5478501496
 11
134.3588261551
 21
81.6024924981
  0
LINE
  5
5E7
100
AcDbEntity
  8
0
100
AcDbLine
 62
7
  6
CONTINUOUS
 10
133.5576447049
 20
80.4133025633
 11
133.1898674333
 21
80.4913402735
  0
LINE
  5
5E8
100
AcDbEntity
  8
0
100
AcDbLine
 62
7
  6
CONTINUOUS
 10
133.1510466353
 20
80.2283962991
 11
133.301052205
 21
80.1739689727
  0
LINE
  5
5E9
100
AcDbEntity
  8
0
100
AcDbLine
 62
7
  6
CONTINUOUS
 10
133.7188317398
 20
80.0777899409
 11
133.8188354529
 21
80.0415050567
  0
LINE
  5
5EA
100
AcDbEntity
  8
0
100
AcDbLine
 62
7
  6
CONTINUOUS
 10
133.9076577008
 20
80.2863054684
 11
133.5576447049
 21
80.4133025633
  0
LINE
  5
5EB
100
AcDbEntity
  8
0
100
AcDbLine
 62
7
  6
CONTINUOUS
 10
134.2399064911
 20
80.1103489636
 11
133.9076577008
 21
80.2863054684
  0
LINE
  5
5EC
100
AcDbEntity
  8
0
100
AcDbLine
 62
7
  6
CONTINUOUS
 10
133.8188354529
 20
80.0415050567
 11
134.10108198
 21
79.8836898734
  0
LINE
  5
5ED
100
AcDbEntity
  8
0
100
AcDbLine
 62
7
  6
CONTINUOUS
 10
132.706934989
 20
79.0043931197
 11
132.5746936249
 21
79.1077798561
  0
LINE
  5
5EE
100
AcDbEntity
  8
0
100
AcDbLine
 62
7
  6
CONTINUOUS
 10
133.301052205
 20
80.1739689727
 11
133.4332936391
 21
80.0705822109
  0
LINE
  5
5EF
100
AcDbEntity
  8
0
100
AcDbLine
 62
7
  6
CONTINUOUS
 10
134.10108198
 20
79.8836898734
 11
134.2333234842
 21
79.7803030862
  0
LINE
  5
5F0
100
AcDbEntity
  8
0
100
AcDbLine
 62
7
  6
CONTINUOUS
 10
132.3536303845
 20
78.966367314
 11
132.5681104779
 21
78.7777340295
  0
LINE
  5
5F1
100
AcDbEntity
  8
0
100
AcDbLine
 62
7
  6
CONTINUOUS
 10
132.5746936249
 20
79.1077798561
 11
132.4602172447
 21
79.2601282563
  0
LINE
  5
5F2
100
AcDbEntity
  8
0
100
AcDbLine
 62
7
  6
CONTINUOUS
 10
132.2069163708
 20
79.18581756
 11
132.3536303845
 21
78.966367314
  0
LINE
  5
5F3
100
AcDbEntity
  8
KONSTRUKTIONSELEMENTE
100
AcDbLine
 62
7
  6
CONTINUOUS
 10
130.8670834274
 20
82.4870610687
 11
127.9803320814
 21
87.4870610687
  0
LINE
  5
5F4
100
AcDbEntity
  8
0
100
AcDbLine
 62
7
  6
CONTINUOUS
 10
127.7718848278
 20
90.0365809463
 11
127.8701437847
 21
89.7554809247
  0
LINE
  5
5F5
100
AcDbEntity
  8
0
100
AcDbLine
 62
7
  6
CONTINUOUS
 10
127.0615765967
 20
89.8942378259
 11
126.7556423168
 21
91.1681486386
  0
LINE
  5
5F6
100
AcDbEntity
  8
0
100
AcDbLine
 62
7
  6
CONTINUOUS
 10
126.9177874537
 20
92.005245614
 11
126.9487105842
 21
91.8402594533
  0
LINE
  5
5F7
100
AcDbEntity
  8
0
100
AcDbLine
 62
7
  6
CONTINUOUS
 10
127.2585652294
 20
91.7996842288
 11
127.2276420989
 21
91.9646703895
  0
LINE
  5
5F8
100
AcDbEntity
  8
0
100
AcDbLine
 62
7
  6
CONTINUOUS
 10
128.0999838464
 20
90.0001855154
 11
128.0734428799
 21
90.188892478
  0
LINE
  5
5F9
100
AcDbEntity
  8
0
100
AcDbLine
 62
7
  6
CONTINUOUS
 10
132.3971255102
 20
88.9731660541
 11
132.3908624654
 21
89.2708786859
  0
LINE
  5
5FA
100
AcDbEntity
  8
0
100
AcDbLine
 62
7
  6
CONTINUOUS
 10
132.4135069616
 20
79.4432936118
 11
132.4167985352
 21
79.608316525
  0
LINE
  5
5FB
100
AcDbEntity
  8
0
100
AcDbLine
 62
7
  6
CONTINUOUS
 10
133.5444784108
 20
79.7532109101
 11
133.5411868373
 21
79.5881879968
  0
LINE
  5
5FC
100
AcDbEntity
  8
0
100
AcDbLine
 62
7
  6
CONTINUOUS
 10
132.6306621027
 20
81.5111489496
 11
132.5905341373
 21
81.2012360644
  0
LINE
  5
5FD
100
AcDbEntity
  8
0
100
AcDbLine
 62
7
  6
CONTINUOUS
 10
132.1845534229
 20
79.7479881583
 11
132.1457330359
 21
79.4850453029
  0
LINE
  5
5FE
100
AcDbEntity
  8
0
100
AcDbLine
 62
7
  6
CONTINUOUS
 10
132.2733760775
 20
79.9927896907
 11
132.1845534229
 21
79.7479881583
  0
LINE
  5
5FF
100
AcDbEntity
  8
0
100
AcDbLine
 62
7
  6
CONTINUOUS
 10
132.4167985352
 20
79.608316525
 11
132.5411496009
 21
79.9510368774
  0
LINE
  5
600
100
AcDbEntity
  8
0
100
AcDbLine
 62
7
  6
CONTINUOUS
 10
132.4122001864
 20
80.2194476587
 11
132.2733760775
 21
79.9927896907
  0
LINE
  5
601
100
AcDbEntity
  8
0
100
AcDbLine
 62
7
  6
CONTINUOUS
 10
132.6510280171
 20
80.4098207393
 11
132.4122001864
 21
80.2194476587
  0
LINE
  5
602
100
AcDbEntity
  8
0
100
AcDbLine
 62
7
  6
CONTINUOUS
 10
132.904328891
 20
80.4841314357
 11
132.6510280171
 21
80.4098207393
  0
LINE
  5
603
100
AcDbEntity
  8
0
100
AcDbLine
 62
7
  6
CONTINUOUS
 10
132.5047465293
 20
84.4141126576
 11
134.455800754
 21
84.6724663837
  0
LINE
  5
604
100
AcDbEntity
  8
0
100
AcDbLine
 62
7
  6
CONTINUOUS
 10
134.942090246
 20
85.0520874666
 11
132.4637241485
 21
84.7239084198
  0
LINE
  5
605
100
AcDbEntity
  8
0
100
AcDbLine
 62
7
  6
CONTINUOUS
 10
104.6023118294
 20
83.0437275764
 11
105.1025650346
 21
83.0437275764
  0
LINE
  5
606
100
AcDbEntity
  8
0
100
AcDbLine
 62
7
  6
CONTINUOUS
 10
104.6119200929
 20
83.2937275764
 11
105.1124522424
 21
83.2937275764
  0
LINE
  5
607
100
AcDbEntity
  8
0
100
AcDbLine
 62
7
  6
CONTINUOUS
 10
104.6202875338
 20
83.460394561
 11
105.1210628617
 21
83.460394561
  0
LINE
  5
608
100
AcDbEntity
  8
0
100
AcDbLine
 62
7
  6
CONTINUOUS
 10
104.6250605972
 20
83.5437275764
 11
105.1259747494
 21
83.5437275764
  0
LINE
  5
609
100
AcDbEntity
  8
0
100
AcDbLine
 62
7
  6
CONTINUOUS
 10
104.661971967
 20
84.0437278148
 11
105.1639623276
 21
84.0437278148
  0
LINE
  5
60A
100
AcDbEntity
  8
0
100
AcDbLine
 62
7
  6
CONTINUOUS
 10
104.6725917774
 20
84.1599774572
 11
105.1748926448
 21
84.1599774572
  0
LINE
  5
60B
100
AcDbEntity
  8
0
100
AcDbLine
 62
7
  6
CONTINUOUS
 10
104.7109095326
 20
84.5245610687
 11
105.2143339993
 21
84.5245610687
  0
LINE
  5
60C
100
AcDbEntity
  8
0
100
AcDbLine
 62
7
  6
CONTINUOUS
 10
104.7333766128
 20
84.7103943226
 11
105.2374622616
 21
84.7103943226
  0
LINE
  5
60D
100
AcDbEntity
  8
0
100
AcDbLine
 62
7
  6
CONTINUOUS
 10
104.7440981146
 20
84.7937278148
 11
105.2484999073
 21
84.7937278148
  0
LINE
  5
60E
100
AcDbEntity
  8
0
100
AcDbLine
 62
7
  6
CONTINUOUS
 10
104.7552209484
 20
84.8770610687
 11
105.2599511446
 21
84.8770610687
  0
LINE
  5
60F
100
AcDbEntity
  8
0
100
AcDbLine
 62
7
  6
CONTINUOUS
 10
104.7910054259
 20
85.1270610687
 11
105.2967951147
 21
85.1270610687
  0
LINE
  5
610
100
AcDbEntity
  8
0
100
AcDbLine
 62
7
  6
CONTINUOUS
 10
135.2087357215
 20
83.0384150124
 11
132.8914696452
 21
83.5196380363
  0
LINE
  5
611
100
AcDbEntity
  8
0
100
AcDbLine
 62
7
  6
CONTINUOUS
 10
132.6551619779
 20
83.278194469
 11
134.7019350392
 21
82.8136918105
  0
LINE
  5
612
100
AcDbEntity
  8
0
100
AcDbLine
 62
7
  6
CONTINUOUS
 10
134.4543866896
 20
79.921715641
 11
134.2399064911
 21
80.1103489636
  0
LINE
  5
613
100
AcDbEntity
  8
0
100
AcDbLine
 62
7
  6
CONTINUOUS
 10
134.3588261551
 20
81.6024924981
 11
134.6879561992
 21
81.2447675556
  0
LINE
  5
614
100
AcDbEntity
  8
0
100
AcDbLine
 62
7
  6
CONTINUOUS
 10
135.109965184
 20
81.1901252262
 11
134.7808352877
 21
81.5478501496
  0
LINE
  5
615
100
AcDbEntity
  8
0
100
AcDbLine
 62
7
  6
CONTINUOUS
 10
127.8701437847
 20
89.7554809247
 11
128.0135805849
 21
89.570694448
  0
LINE
  5
616
100
AcDbEntity
  8
0
100
AcDbLine
 62
7
  6
CONTINUOUS
 10
126.8283153634
 20
92.1242531152
 11
126.9177874537
 21
92.005245614
  0
LINE
  5
617
100
AcDbEntity
  8
0
100
AcDbLine
 62
7
  6
CONTINUOUS
 10
134.2333234842
 20
79.7803030862
 11
134.3477998294
 21
79.6279546986
  0
LINE
  5
618
100
AcDbEntity
  8
0
100
AcDbLine
 62
7
  6
CONTINUOUS
 10
134.6011006858
 20
79.7022654013
 11
134.4543866896
 21
79.921715641
  0
LINE
  5
619
100
AcDbEntity
  8
0
100
AcDbLine
 62
7
  6
CONTINUOUS
 10
128.1962669748
 20
89.8375172485
 11
128.0999838464
 21
90.0001855154
  0
LINE
  5
61A
100
AcDbEntity
  8
0
100
AcDbLine
 62
7
  6
CONTINUOUS
 10
127.2276420989
 20
91.9646703895
 11
127.1003404578
 21
92.1959228415
  0
LINE
  5
61B
100
AcDbEntity
  8
0
100
AcDbLine
 62
7
  6
CONTINUOUS
 10
133.4332936391
 20
80.0705822109
 11
133.4977681278
 21
79.9363762655
  0
LINE
  5
61C
100
AcDbEntity
  8
0
100
AcDbLine
 62
7
  6
CONTINUOUS
 10
132.4602172447
 20
79.2601282563
 11
132.4135069616
 21
79.4432936118
  0
LINE
  5
61D
100
AcDbEntity
  8
0
100
AcDbLine
 62
7
  6
CONTINUOUS
 10
133.4977681278
 20
79.9363762655
 11
133.5444784108
 21
79.7532109101
  0
LINE
  5
61E
100
AcDbEntity
  8
0
100
AcDbLine
 62
7
  6
CONTINUOUS
 10
133.8122523058
 20
79.7114592301
 11
133.7188317398
 21
80.0777899409
  0
LINE
  5
61F
100
AcDbEntity
  8
0
100
AcDbLine
 62
7
  6
CONTINUOUS
 10
134.3477998294
 20
79.6279546986
 11
134.3945101125
 21
79.4447893432
  0
LINE
  5
620
100
AcDbEntity
  8
0
100
AcDbLine
 62
7
  6
CONTINUOUS
 10
132.0553750925
 20
89.2939981199
 11
132.096478956
 21
89.1094937287
  0
LINE
  5
621
100
AcDbEntity
  8
0
100
AcDbLine
 62
7
  6
CONTINUOUS
 10
132.1457330359
 20
79.4850453029
 11
132.2069163708
 21
79.18581756
  0
LINE
  5
622
100
AcDbEntity
  8
0
100
AcDbLine
 62
7
  6
CONTINUOUS
 10
132.4637241485
 20
84.7239084198
 11
132.5047465293
 21
84.4141126576
  0
LINE
  5
623
100
AcDbEntity
  8
0
100
AcDbLine
 62
7
  6
CONTINUOUS
 10
132.6004653658
 20
83.6912562731
 11
132.6551619779
 21
83.278194469
  0
LINE
  5
624
100
AcDbEntity
  8
0
100
AcDbLine
 62
7
  6
CONTINUOUS
 10
132.7508808144
 20
82.5553380845
 11
132.7919031953
 21
82.2455423223
  0
LINE
  5
625
100
AcDbEntity
  8
0
100
AcDbLine
 62
7
  6
CONTINUOUS
 10
134.3945101125
 20
79.4447893432
 11
134.3912185389
 21
79.27976643
  0
LINE
  5
626
100
AcDbEntity
  8
0
100
AcDbLine
 62
7
  6
CONTINUOUS
 10
135.0698372186
 20
80.880212341
 11
135.109965184
 21
81.1901252262
  0
LINE
  5
627
100
AcDbEntity
  8
0
100
AcDbLine
 62
7
  6
CONTINUOUS
 10
139.2227237295
 20
106.8486025967
 11
138.5382199254
 21
101.9781049541
  0
LINE
  5
628
100
AcDbEntity
  8
0
100
AcDbLine
 62
7
  6
CONTINUOUS
 10
133.7734319145
 20
79.4485163762
 11
133.8122523058
 21
79.7114592301
  0
LINE
  5
629
100
AcDbEntity
  8
0
100
AcDbLine
 62
7
  6
CONTINUOUS
 10
134.6234636161
 20
79.1400948094
 11
134.6622840075
 21
79.4030376632
  0
LINE
  5
62A
100
AcDbEntity
  8
0
100
AcDbLine
 62
7
  6
CONTINUOUS
 10
133.5411868373
 20
79.5881879968
 11
133.4168357715
 21
79.2454676445
  0
LINE
  5
62B
100
AcDbEntity
  8
0
100
AcDbLine
 62
7
  6
CONTINUOUS
 10
133.6846092599
 20
79.2037148439
 11
133.7734319145
 21
79.4485163762
  0
LINE
  5
62C
100
AcDbEntity
  8
0
100
AcDbLine
 62
7
  6
CONTINUOUS
 10
133.8425048614
 20
78.7031792574
 11
133.7536826134
 21
78.4583788457
  0
LINE
  5
62D
100
AcDbEntity
  8
0
100
AcDbLine
 62
7
  6
CONTINUOUS
 10
134.3912185389
 20
79.27976643
 11
134.2846316788
 21
78.9860054876
  0
LINE
  5
62E
100
AcDbEntity
  8
0
100
AcDbLine
 62
7
  6
CONTINUOUS
 10
134.5524055738
 20
78.9442538076
 11
134.6234636161
 21
79.1400948094
  0
LINE
  5
62F
100
AcDbEntity
  8
0
100
AcDbLine
 62
7
  6
CONTINUOUS
 10
133.5457851554
 20
78.9770568743
 11
133.6846092599
 21
79.2037148439
  0
LINE
  5
630
100
AcDbEntity
  8
0
100
AcDbLine
 62
7
  6
CONTINUOUS
 10
134.4135814693
 20
78.717595838
 11
134.5524055738
 21
78.9442538076
  0
LINE
  5
631
100
AcDbEntity
  8
0
100
AcDbLine
 62
7
  6
CONTINUOUS
 10
132.5411496009
 20
79.9510368774
 11
132.6444448876
 21
80.0797749064
  0
LINE
  5
632
100
AcDbEntity
  8
0
100
AcDbLine
 62
7
  6
CONTINUOUS
 10
133.4168357715
 20
79.2454676445
 11
133.3135404848
 21
79.1167296155
  0
LINE
  5
633
100
AcDbEntity
  8
0
100
AcDbLine
 62
7
  6
CONTINUOUS
 10
134.2846316788
 20
78.9860054876
 11
134.1813363921
 21
78.8572674586
  0
LINE
  5
634
100
AcDbEntity
  8
0
100
AcDbLine
 62
7
  6
CONTINUOUS
 10
133.3069573378
 20
78.7866837889
 11
133.5457851554
 21
78.9770568743
  0
LINE
  5
635
100
AcDbEntity
  8
0
100
AcDbLine
 62
7
  6
CONTINUOUS
 10
134.1747532451
 20
78.527221632
 11
134.4135814693
 21
78.717595838
  0
LINE
  5
636
100
AcDbEntity
  8
0
100
AcDbLine
 62
7
  6
CONTINUOUS
 10
132.6444448876
 20
80.0797749064
 11
132.7977420308
 21
80.1903704933
  0
LINE
  5
637
100
AcDbEntity
  8
0
100
AcDbLine
 62
7
  6
CONTINUOUS
 10
133.3135404848
 20
79.1167296155
 11
133.1602433416
 21
79.0061340285
  0
LINE
  5
638
100
AcDbEntity
  8
0
100
AcDbLine
 62
7
  6
CONTINUOUS
 10
134.1813363921
 20
78.8572674586
 11
134.0280392489
 21
78.7466718716
  0
LINE
  5
639
100
AcDbEntity
  8
0
100
AcDbLine
 62
7
  6
CONTINUOUS
 10
133.1602433416
 20
79.0061340285
 11
133.0247104041
 21
78.9444978516
  0
LINE
  5
63A
100
AcDbEntity
  8
0
100
AcDbLine
 62
7
  6
CONTINUOUS
 10
133.103658338
 20
78.6942306441
 11
133.3069573378
 21
78.7866837889
  0
LINE
  5
63B
100
AcDbEntity
  8
0
100
AcDbLine
 62
7
  6
CONTINUOUS
 10
133.9214523888
 20
78.4529109293
 11
134.1747532451
 21
78.527221632
  0
LINE
  5
63C
100
AcDbEntity
  8
0
100
AcDbLine
 62
7
  6
CONTINUOUS
 10
131.2258552335
 20
88.0299126149
 11
131.0406911377
 21
87.9848682117
  0
LINE
  5
63D
100
AcDbEntity
  8
0
100
AcDbLine
 62
7
  6
CONTINUOUS
 10
130.8981969543
 20
87.6808909126
 11
131.1957117816
 21
87.6934197714
  0
LINE
  5
63E
100
AcDbEntity
  8
0
100
AcDbLine
 62
7
  6
CONTINUOUS
 10
104.8443867723
 20
85.4603943226
 11
105.3517653716
 21
85.4603943226
  0
LINE
  5
63F
100
AcDbEntity
  8
0
100
AcDbLine
 62
7
  6
CONTINUOUS
 10
104.9203089417
 20
85.8770610687
 11
105.4299649186
 21
85.8770610687
  0
LINE
  5
640
100
AcDbEntity
  8
KONSTRUKTIONSELEMENTE
100
AcDbLine
 62
7
  6
CONTINUOUS
 10
127.9803320814
 20
87.4870610687
 11
122.2068293895
 21
87.4870610687
  0
LINE
  5
641
100
AcDbEntity
  8
0
100
AcDbLine
 62
7
  6
CONTINUOUS
 10
105.4317387306
 20
87.8770610687
 11
105.9572937857
 21
87.8770610687
  0
LINE
  5
642
100
AcDbEntity
  8
0
100
AcDbLine
 62
7
  6
CONTINUOUS
 10
130.6734950726
 20
87.7459224264
 11
130.8981969543
 21
87.6808909126
  0
LINE
  5
643
100
AcDbEntity
  8
0
100
AcDbLine
 62
7
  6
CONTINUOUS
 10
128.2267595667
 20
89.411946709
 11
128.4153739442
 21
89.3234739123
  0
LINE
  5
644
100
AcDbEntity
  8
0
100
AcDbLine
 62
7
  6
CONTINUOUS
 10
130.8539613638
 20
88.0142518372
 11
130.6656659629
 21
88.1180635459
  0
LINE
  5
645
100
AcDbEntity
  8
0
100
AcDbLine
 62
7
  6
CONTINUOUS
 10
130.4472271101
 20
87.885382411
 11
130.6734950726
 21
87.7459224264
  0
LINE
  5
646
100
AcDbEntity
  8
0
100
AcDbLine
 62
7
  6
CONTINUOUS
 10
128.0135805849
 20
89.570694448
 11
128.2267595667
 21
89.411946709
  0
LINE
  5
647
100
AcDbEntity
  8
0
100
AcDbLine
 62
7
  6
CONTINUOUS
 10
128.3622922968
 20
89.7008877446
 11
128.1962669748
 21
89.8375172485
  0
LINE
  5
648
100
AcDbEntity
  8
0
100
AcDbLine
 62
7
  6
CONTINUOUS
 10
129.5358926628
 20
88.7409345866
 11
130.4472271101
 21
87.885382411
  0
LINE
  5
649
100
AcDbEntity
  8
0
100
AcDbLine
 62
7
  6
CONTINUOUS
 10
130.6656659629
 20
88.1180635459
 11
129.9821651275
 21
88.7597276776
  0
LINE
  5
64A
100
AcDbEntity
  8
0
100
AcDbLine
 62
7
  6
CONTINUOUS
 10
127.1003404578
 20
92.1959228415
 11
126.9144900047
 21
92.3811966144
  0
LINE
  5
64B
100
AcDbEntity
  8
0
100
AcDbLine
 62
7
  6
CONTINUOUS
 10
132.3117864781
 20
89.4910309484
 11
132.1583314613
 21
89.7080513056
  0
LINE
  5
64C
100
AcDbEntity
  8
0
100
AcDbLine
 62
7
  6
CONTINUOUS
 10
131.939892634
 20
89.4753701978
 11
132.0553750925
 21
89.2939981199
  0
LINE
  5
64D
100
AcDbEntity
  8
0
100
AcDbLine
 62
7
  6
CONTINUOUS
 10
132.3908624654
 20
89.2708786859
 11
132.3117864781
 21
89.4910309484
  0
LINE
  5
64E
100
AcDbEntity
  8
0
100
AcDbLine
 62
7
  6
CONTINUOUS
 10
134.6622840075
 20
79.4030376632
 11
134.6011006858
 21
79.7022654013
  0
LINE
  5
64F
100
AcDbEntity
  8
0
100
AcDbLine
 62
7
  6
CONTINUOUS
 10
138.9369904356
 20
62.3959032427
 11
138.7920816393
 21
63.2037421032
  0
LINE
  5
650
100
AcDbEntity
  8
RUNDUNGEN
100
AcDbLine
 62
7
  6
CONTINUOUS
 10
139.2227237295
 20
58.1255195407
 11
138.5382199254
 21
62.9960171833
  0
LINE
  5
651
100
AcDbEntity
  8
0
100
AcDbLine
 62
7
  6
CONTINUOUS
 10
135.2702692928
 20
82.5737213691
 11
135.2087357215
 21
83.0384150124
  0
LINE
  5
652
100
AcDbEntity
  8
0
100
AcDbLine
 62
7
  6
CONTINUOUS
 10
135.0036238172
 20
84.5873938234
 11
134.942090246
 21
85.0520874666
  0
LINE
  5
653
100
AcDbEntity
  8
RUNDUNGEN
100
AcDbLine
 62
7
  6
CONTINUOUS
 10
138.6900052113
 20
64.5268958116
 11
138.7354680045
 21
63.6769967495
  0
LINE
  5
654
100
AcDbEntity
  8
RUNDUNGEN
100
AcDbLine
 62
7
  6
CONTINUOUS
 10
138.6256075206
 20
65.9109067216
 11
138.6900052113
 21
64.5268958116
  0
LINE
  5
655
100
AcDbEntity
  8
RUNDUNGEN
100
AcDbLine
 62
7
  6
CONTINUOUS
 10
138.5647837502
 20
67.4252545191
 11
138.6256075206
 21
65.9109067216
  0
LINE
  5
656
100
AcDbEntity
  8
0
100
AcDbLine
 62
7
  6
CONTINUOUS
 10
138.5096881192
 20
68.9417492485
 11
138.5096954593
 21
68.9415410054
  0
LINE
  5
657
100
AcDbEntity
  8
RUNDUNGEN
100
AcDbLine
 62
7
  6
CONTINUOUS
 10
138.4756123698
 20
69.9302096678
 11
138.5647837502
 21
67.4252545191
  0
LINE
  5
658
100
AcDbEntity
  8
RUNDUNGEN
100
AcDbLine
 62
7
  6
CONTINUOUS
 10
138.4115289325
 20
72.075566597
 11
138.4756123698
 21
69.9302096678
  0
LINE
  5
659
100
AcDbEntity
  8
RUNDUNGEN
100
AcDbLine
 62
7
  6
CONTINUOUS
 10
138.3637627345
 20
74.0614090425
 11
138.4115289325
 21
72.075566597
  0
LWPOLYLINE
  5
65A
100
AcDbEntity
  8
RUNDUNGEN
100
AcDbPolyline
 62
7
  6
CONTINUOUS
 90
5
 70
0
 10
138.3435806985
 20
75.2803273979
 10
138.3438337329
 20
75.1730006199
 10
138.3447415439
 20
75.0515943635
 10
138.3462885433
 20
74.9326876492
 10
138.3637627345
 20
74.0614090425
  0
LWPOLYLINE
  5
65B
100
AcDbEntity
  8
0
100
AcDbPolyline
 62
7
  6
CONTINUOUS
 90
4
 70
0
 10
138.3462885433
 20
90.0414344882
 10
138.3447415439
 20
89.9225277739
 10
138.3438337329
 20
89.8011215175
 10
138.3435807355
 20
75.280293416
  0
LINE
  5
65C
100
AcDbEntity
  8
0
100
AcDbLine
 62
7
  6
CONTINUOUS
 10
138.3858057798
 20
91.8855603798
 11
138.3462885433
 21
90.0414344882
  0
LINE
  5
65D
100
AcDbEntity
  8
0
100
AcDbLine
 62
7
  6
CONTINUOUS
 10
138.4413114119
 20
93.9510643427
 11
138.3858057798
 21
91.8855603798
  0
LINE
  5
65E
100
AcDbEntity
  8
0
100
AcDbLine
 62
7
  6
CONTINUOUS
 10
138.5096881192
 20
96.0323728889
 11
138.4413114119
 21
93.9510643427
  0
LINE
  5
65F
100
AcDbEntity
  8
0
100
AcDbLine
 62
7
  6
CONTINUOUS
 10
138.5647837502
 20
97.5488676183
 11
138.509695464
 21
96.0325814119
  0
LWPOLYLINE
  5
660
100
AcDbEntity
  8
0
100
AcDbPolyline
 62
7
  6
CONTINUOUS
 90
3
 70
0
 10
138.6900052113
 20
100.4472263258
 10
138.6256075206
 20
99.0632154158
 10
138.5647837502
 20
97.5488676183
  0
LINE
  5
661
100
AcDbEntity
  8
0
100
AcDbLine
 62
7
  6
CONTINUOUS
 10
138.7354680045
 20
101.2971253879
 11
138.6900052113
 21
100.4472263258
  0
LINE
  5
662
100
AcDbEntity
  8
BEZUGSACHSEN
100
AcDbLine
 62
7
  6
CONTINUOUS
 10
132.0217839658
 20
70.4870610687
 11
138.3435807355
 21
81.436734269
  0
LINE
  5
663
100
AcDbEntity
  8
0
100
AcDbLine
 62
7
  6
CONTINUOUS
 10
128.9487481404
 20
89.6020581197
 11
128.7621098375
 21
89.5720989847
  0
LINE
  5
664
100
AcDbEntity
  8
0
100
AcDbLine
 62
7
  6
CONTINUOUS
 10
128.6737305014
 20
89.2610398491
 11
128.9075224563
 21
89.2688807322
  0
LINE
  5
665
100
AcDbEntity
  8
0
100
AcDbLine
 62
7
  6
CONTINUOUS
 10
106.0936854978
 20
89.6287278744
 11
106.6413804045
 21
89.6287278744
  0
LINE
  5
666
100
AcDbEntity
  8
0
100
AcDbLine
 62
7
  6
CONTINUOUS
 10
106.3627523777
 20
90.2120610687
 11
106.919998953
 21
90.2120610687
  0
LINE
  5
667
100
AcDbEntity
  8
0
100
AcDbLine
 62
7
  6
CONTINUOUS
 10
125.0991637945
 20
90.1512142543
 11
125.4090184397
 21
90.1106390298
  0
LINE
  5
668
100
AcDbEntity
  8
0
100
AcDbLine
 62
7
  6
CONTINUOUS
 10
126.7000794122
 20
89.9415756008
 11
127.0615765967
 21
89.8942378259
  0
LINE
  5
669
100
AcDbEntity
  8
0
100
AcDbLine
 62
7
  6
CONTINUOUS
 10
125.5540532869
 20
91.2182045858
 11
126.431974757
 21
91.1032414529
  0
LINE
  5
66A
100
AcDbEntity
  8
0
100
AcDbLine
 62
7
  6
CONTINUOUS
 10
131.0406911377
 20
87.9848682117
 11
130.8539613638
 21
88.0142518372
  0
LINE
  5
66B
100
AcDbEntity
  8
0
100
AcDbLine
 62
7
  6
CONTINUOUS
 10
128.7621098375
 20
89.5720989847
 11
128.5509066743
 21
89.6124149478
  0
LINE
  5
66C
100
AcDbEntity
  8
0
100
AcDbLine
 62
7
  6
CONTINUOUS
 10
128.4153739442
 20
89.3234739123
 11
128.6737305014
 21
89.2610398491
  0
LINE
  5
66D
100
AcDbEntity
  8
0
100
AcDbLine
 62
7
  6
CONTINUOUS
 10
128.5509066743
 20
89.6124149478
 11
128.3622922968
 21
89.7008877446
  0
LINE
  5
66E
100
AcDbEntity
  8
0
100
AcDbLine
 62
7
  6
CONTINUOUS
 10
130.2315042395
 20
91.2329543025
 11
129.9485828081
 21
91.3656634344
  0
LINE
  5
66F
100
AcDbEntity
  8
0
100
AcDbLine
 62
7
  6
CONTINUOUS
 10
128.8168970828
 20
91.8964999619
 11
128.5339755165
 21
92.0292091571
  0
LINE
  5
670
100
AcDbEntity
  8
0
100
AcDbLine
 62
7
  6
CONTINUOUS
 10
126.6802944612
 20
92.1972819373
 11
126.8283153634
 21
92.1242531152
  0
LINE
  5
671
100
AcDbEntity
  8
0
100
AcDbLine
 62
7
  6
CONTINUOUS
 10
131.2563917985
 20
90.1170343295
 11
131.939892634
 21
89.4753701978
  0
LINE
  5
672
100
AcDbEntity
  8
0
100
AcDbLine
 62
7
  6
CONTINUOUS
 10
132.1583314613
 20
89.7080513056
 11
131.246997014
 21
90.5636034812
  0
LINE
  5
673
100
AcDbEntity
  8
BEZUGSACHSEN
100
AcDbLine
 62
7
  6
CONTINUOUS
 10
138.3435807355
 20
83.5373878684
 11
132.0217839658
 21
94.4870610687
  0
LINE
  5
674
100
AcDbEntity
  8
RUNDUNGEN
100
AcDbLine
 62
7
  6
CONTINUOUS
 10
139.5935807355
 20
67.7078796147
 11
139.5935807355
 21
61.9267160499
  0
LINE
  5
675
100
AcDbEntity
  8
0
100
AcDbLine
 62
7
  6
CONTINUOUS
 10
139.5935807355
 20
55.8927519663
 11
139.5935807355
 21
55.9487657234
  0
LINE
  5
676
100
AcDbEntity
  8
0
100
AcDbLine
 62
7
  6
CONTINUOUS
 10
139.5935807355
 20
67.7078796147
 11
139.5935807355
 21
103.0474060875
  0
LINE
  5
677
100
AcDbEntity
  8
KONSTRUKTIONSELEMENTE
100
AcDbLine
 62
7
  6
CONTINUOUS
 10
139.5935807355
 20
109.0519546959
 11
139.5935807355
 21
109.1370610687
  0
LINE
  5
678
100
AcDbEntity
  8
0
100
AcDbLine
 62
7
  6
CONTINUOUS
 10
140.0935807355
 20
55.8448092454
 11
140.0935807355
 21
55.3207061095
  0
LINE
  5
679
100
AcDbEntity
  8
0
100
AcDbLine
 62
7
  6
CONTINUOUS
 10
140.0935807355
 20
109.129312892
 11
140.0935807355
 21
109.6534160279
  0
LINE
  5
67A
100
AcDbEntity
  8
RUNDUNGEN
100
AcDbLine
 62
7
  6
CONTINUOUS
 10
140.3935807355
 20
55.4369449063
 11
140.3935807355
 21
55.0785632602
  0
LINE
  5
67B
100
AcDbEntity
  8
0
100
AcDbLine
 62
7
  6
CONTINUOUS
 10
140.3935807355
 20
55.0785632602
 11
140.3935807355
 21
55.0686800329
  0
LINE
  5
67C
100
AcDbEntity
  8
0
100
AcDbLine
 62
7
  6
CONTINUOUS
 10
140.3935807355
 20
109.5371772311
 11
140.3935807355
 21
109.9054421045
  0
LINE
  5
67D
100
AcDbEntity
  8
0
100
AcDbLine
 62
7
  6
CONTINUOUS
 10
126.7385318793
 20
91.4386172385
 11
126.5766981363
 21
91.4061636408
  0
LINE
  5
67E
100
AcDbEntity
  8
0
100
AcDbLine
 62
7
  6
CONTINUOUS
 10
107.6192863976
 20
92.3995610687
 11
108.2260439904
 21
92.3995610687
  0
LINE
  5
67F
100
AcDbEntity
  8
0
100
AcDbLine
 62
7
  6
CONTINUOUS
 10
107.9234559094
 20
92.8370610687
 11
108.5435807355
 21
92.8370610687
  0
LINE
  5
680
100
AcDbEntity
  8
0
100
AcDbLine
 62
7
  6
CONTINUOUS
 10
126.5766981363
 20
91.4061636408
 11
125.5954918091
 21
91.5346518453
  0
LINE
  5
681
100
AcDbEntity
  8
0
100
AcDbLine
 62
7
  6
CONTINUOUS
 10
125.699088134
 20
92.3257701418
 11
126.6802944612
 21
92.1972819373
  0
LINE
  5
682
100
AcDbEntity
  8
0
100
AcDbLine
 62
7
  6
CONTINUOUS
 10
126.6631841714
 20
92.4677505179
 11
125.4237655906
 21
92.6300514159
  0
LINE
  5
683
100
AcDbEntity
  8
0
100
AcDbLine
 62
7
  6
CONTINUOUS
 10
126.9144900047
 20
92.3811966144
 11
126.6631841714
 21
92.4677505179
  0
LINE
  5
684
100
AcDbEntity
  8
0
100
AcDbLine
 62
7
  6
CONTINUOUS
 10
108.3605652988
 20
93.4203944716
 11
109.0009902561
 21
93.4203944716
  0
LINE
  5
685
100
AcDbEntity
  8
0
100
AcDbLine
 62
7
  6
CONTINUOUS
 10
108.713956833
 20
93.8578944716
 11
109.3718172577
 21
93.8578944716
  0
LINE
  5
686
100
AcDbEntity
  8
BEZUGSACHSEN
100
AcDbLine
 62
7
  6
CONTINUOUS
 10
132.0217839658
 20
94.4870610687
 11
118.1653775052
 21
94.4870610687
  0
LINE
  5
687
100
AcDbEntity
  8
0
100
AcDbLine
 62
7
  6
CONTINUOUS
 10
109.6349578219
 20
94.8787277701
 11
110.3432017265
 21
94.8787277701
  0
LINE
  5
688
100
AcDbEntity
  8
0
100
AcDbLine
 62
7
  6
CONTINUOUS
 10
110.7174315987
 20
95.8995610687
 11
111.496122796
 21
95.8995610687
  0
LINE
  5
689
100
AcDbEntity
  8
0
100
AcDbLine
 62
7
  6
CONTINUOUS
 10
111.2422294664
 20
96.3370610687
 11
112.060585063
 21
96.3370610687
  0
LINE
  5
68A
100
AcDbEntity
  8
RUNDUNGEN
100
AcDbLine
 62
7
  6
CONTINUOUS
 10
155.5935807355
 20
99.7370610687
 11
151.5302000762
 21
99.7370610687
  0
LINE
  5
68B
100
AcDbEntity
  8
RUNDUNGEN
100
AcDbLine
 62
7
  6
CONTINUOUS
 10
138.6569613948
 20
99.7370610687
 11
122.3435807355
 21
99.7370610687
  0
LINE
  5
68C
100
AcDbEntity
  8
0
100
AcDbLine
 62
7
  6
CONTINUOUS
 10
149.7935807355
 20
55.4369449063
 11
149.7935807355
 21
55.0686800329
  0
LINE
  5
68D
100
AcDbEntity
  8
0
100
AcDbLine
 62
7
  6
CONTINUOUS
 10
149.7935807355
 20
109.5371772311
 11
149.7935807355
 21
109.9054421045
  0
LINE
  5
68E
100
AcDbEntity
  8
0
100
AcDbLine
 62
7
  6
CONTINUOUS
 10
150.0935807355
 20
55.8448092454
 11
150.0935807355
 21
55.3207061095
  0
LINE
  5
68F
100
AcDbEntity
  8
0
100
AcDbLine
 62
7
  6
CONTINUOUS
 10
150.0935807355
 20
109.129312892
 11
150.0935807355
 21
109.6534160279
  0
LINE
  5
690
100
AcDbEntity
  8
0
100
AcDbLine
 62
7
  6
CONTINUOUS
 10
150.5935807355
 20
61.9267160499
 11
150.5935807355
 21
103.0474060875
  0
LINE
  5
691
100
AcDbEntity
  8
0
100
AcDbLine
 62
7
  6
CONTINUOUS
 10
151.4971562597
 20
100.4472263258
 11
151.4516934665
 21
101.2971253879
  0
LINE
  5
692
100
AcDbEntity
  8
0
100
AcDbLine
 62
7
  6
CONTINUOUS
 10
151.5615539504
 20
99.0632154158
 11
151.4971562597
 21
100.4472263258
  0
LINE
  5
693
100
AcDbEntity
  8
0
100
AcDbLine
 62
7
  6
CONTINUOUS
 10
151.6223777208
 20
97.5488676183
 11
151.5615539504
 21
99.0632154158
  0
LINE
  5
694
100
AcDbEntity
  8
0
100
AcDbLine
 62
7
  6
CONTINUOUS
 10
151.7115491012
 20
95.0439124696
 11
151.6223777208
 21
97.5488676183
  0
LINE
  5
695
100
AcDbEntity
  8
0
100
AcDbLine
 62
7
  6
CONTINUOUS
 10
151.7756325385
 20
92.8985555404
 11
151.7115491012
 21
95.0439124696
  0
LINE
  5
696
100
AcDbEntity
  8
0
100
AcDbLine
 62
7
  6
CONTINUOUS
 10
151.8233987365
 20
90.9127130949
 11
151.7756325385
 21
92.8985555404
  0
LWPOLYLINE
  5
697
100
AcDbEntity
  8
0
100
AcDbPolyline
 62
7
  6
CONTINUOUS
 90
4
 70
0
 10
151.8433277381
 20
89.8011215175
 10
151.8424199271
 20
89.9225277739
 10
151.8408729277
 20
90.0414344882
 10
151.8233987365
 20
90.9127130949
  0
LINE
  5
698
100
AcDbEntity
  8
0
100
AcDbLine
 62
7
  6
CONTINUOUS
 10
151.8433277381
 20
89.8011215175
 11
151.8435807355
 21
75.280293416
  0
LWPOLYLINE
  5
699
100
AcDbEntity
  8
0
100
AcDbPolyline
 62
7
  6
CONTINUOUS
 90
4
 70
0
 10
151.8408729277
 20
74.9326876492
 10
151.8424199271
 20
75.0515943635
 10
151.8433277381
 20
75.1730006199
 10
151.8435807725
 20
75.2803273979
  0
LINE
  5
69A
100
AcDbEntity
  8
0
100
AcDbLine
 62
7
  6
CONTINUOUS
 10
151.8013556911
 20
73.0885617576
 11
151.8408729277
 21
74.9326876492
  0
LINE
  5
69B
100
AcDbEntity
  8
0
100
AcDbLine
 62
7
  6
CONTINUOUS
 10
151.7458500591
 20
71.0230577947
 11
151.8013556911
 21
73.0885617576
  0
LINE
  5
69C
100
AcDbEntity
  8
0
100
AcDbLine
 62
7
  6
CONTINUOUS
 10
151.6774733518
 20
68.9417492485
 11
151.7458500591
 21
71.0230577947
  0
LINE
  5
69D
100
AcDbEntity
  8
0
100
AcDbLine
 62
7
  6
CONTINUOUS
 10
151.6223777208
 20
67.4252545191
 11
151.677466007
 21
68.9415407255
  0
LWPOLYLINE
  5
69E
100
AcDbEntity
  8
0
100
AcDbPolyline
 62
7
  6
CONTINUOUS
 90
3
 70
0
 10
151.4971562597
 20
64.5268958116
 10
151.5615539504
 20
65.9109067216
 10
151.6223777208
 20
67.4252545191
  0
LINE
  5
69F
100
AcDbEntity
  8
0
100
AcDbLine
 62
7
  6
CONTINUOUS
 10
151.4516934665
 20
63.6769967495
 11
151.4971562597
 21
64.5268958116
  0
LINE
  5
6A0
100
AcDbEntity
  8
0
100
AcDbLine
 62
7
  6
CONTINUOUS
 10
150.9644377415
 20
58.1255195407
 11
151.6489415456
 21
62.9960171833
  0
LINE
  5
6A1
100
AcDbEntity
  8
0
100
AcDbLine
 62
7
  6
CONTINUOUS
 10
150.9644377415
 20
106.8486025967
 11
151.6489415456
 21
101.9781049541
  0
LINE
  5
6A2
100
AcDbEntity
  8
0
100
AcDbLine
 62
7
  6
CONTINUOUS
 10
151.2501710354
 20
62.3959032427
 11
151.3950798317
 21
63.2037421032
  0
LINE
  5
6A3
100
AcDbEntity
  8
0
100
AcDbLine
 62
7
  6
CONTINUOUS
 10
150.9122214779
 20
108.2806413304
 11
150.0587172905
 21
108.2806413304
  0
LINE
  5
6A4
100
AcDbEntity
  8
0
100
AcDbLine
 62
7
  6
CONTINUOUS
 10
140.1284441805
 20
108.2806413304
 11
139.2749399931
 21
108.2806413304
  0
LINE
  5
6A5
100
AcDbEntity
  8
RUNDUNGEN
100
AcDbLine
 62
7
  6
CONTINUOUS
 10
157.0935807355
 20
66.7370610687
 11
157.0935807355
 21
98.2370610687
  0
LINE
  5
6A6
100
AcDbEntity
  8
0
100
AcDbLine
 62
7
  6
CONTINUOUS
 10
142.1290376069
 20
110.4867963621
 11
142.1688894496
 21
110.4870610687
  0
LINE
  5
6A7
100
AcDbEntity
  8
0
100
AcDbLine
 62
7
  6
CONTINUOUS
 10
150.5288516573
 20
109.129312892
 11
150.0935807355
 21
109.129312892
  0
LINE
  5
6A8
100
AcDbEntity
  8
0
100
AcDbLine
 62
7
  6
CONTINUOUS
 10
139.6583098137
 20
109.129312892
 11
140.0935807355
 21
109.129312892
  0
LINE
  5
6A9
100
AcDbEntity
  8
KONSTRUKTIONSELEMENTE
100
AcDbLine
 62
7
  6
CONTINUOUS
 10
140.0935807355
 20
109.1370610687
 11
139.5935807355
 21
109.1370610687
  0
LINE
  5
6AA
100
AcDbEntity
  8
0
100
AcDbLine
 62
7
  6
CONTINUOUS
 10
140.3935807355
 20
109.7552346617
 11
140.2053420674
 21
109.7552346617
  0
LINE
  5
6AB
100
AcDbEntity
  8
0
100
AcDbLine
 62
7
  6
CONTINUOUS
 10
149.7935807355
 20
109.7552346617
 11
149.9818194036
 21
109.7552346617
  0
LINE
  5
6AC
100
AcDbEntity
  8
0
100
AcDbLine
 62
7
  6
CONTINUOUS
 10
142.1554283656
 20
110.4870282742
 11
148.0158921627
 21
110.4870610687
  0
LINE
  5
6AD
100
AcDbEntity
  8
0
100
AcDbLine
 62
7
  6
CONTINUOUS
 10
148.0317328291
 20
110.4870282743
 11
148.0159989744
 21
110.4870613994
  0
LINE
  5
6AE
100
AcDbEntity
  8
0
100
AcDbLine
 62
7
  6
CONTINUOUS
 10
148.0581553389
 20
110.4867959438
 11
148.0182720214
 21
110.4870610687
  0
LINE
  5
6AF
100
AcDbEntity
  8
0
100
AcDbLine
 62
7
  6
CONTINUOUS
 10
149.7749647886
 20
55.0551306311
 11
149.7935807355
 21
55.0686864716
  0
LINE
  5
6B0
100
AcDbEntity
  8
0
100
AcDbLine
 62
7
  6
CONTINUOUS
 10
149.7205253024
 20
55.0167661847
 11
149.7935807355
 21
55.0687346605
  0
LINE
  5
6B1
100
AcDbEntity
  8
0
100
AcDbLine
 62
7
  6
CONTINUOUS
 10
149.6849064663
 20
54.9925517756
 11
149.730266934
 21
55.0234611419
  0
LWPOLYLINE
  5
6B2
100
AcDbEntity
  8
0
100
AcDbPolyline
 62
7
  6
CONTINUOUS
 90
3
 70
0
 10
149.6004846742
 20
54.9384215858
 10
149.6078727576
 20
54.9428143161
 10
149.7205253024
 20
55.0167661847
  0
LWPOLYLINE
  5
6B3
100
AcDbEntity
  8
0
100
AcDbPolyline
 62
7
  6
CONTINUOUS
 90
3
 70
0
 10
149.386731634
 20
54.8175202365
 10
149.4942959061
 20
54.8752849645
 10
149.58663045
 20
54.9301842842
  0
LINE
  5
6B4
100
AcDbEntity
  8
0
100
AcDbLine
 62
7
  6
CONTINUOUS
 10
149.1523656768
 20
54.7096794536
 11
149.1883305516
 21
54.7252402041
  0
LINE
  5
6B5
100
AcDbEntity
  8
0
100
AcDbLine
 62
7
  6
CONTINUOUS
 10
149.0390591814
 20
54.6660667257
 11
149.1523656768
 21
54.7096794536
  0
LWPOLYLINE
  5
6B6
100
AcDbEntity
  8
0
100
AcDbPolyline
 62
7
  6
CONTINUOUS
 90
3
 70
0
 10
149.2664850384
 20
110.2150608313
 10
149.1524881353
 20
110.2643926772
 10
149.0390514613
 20
110.3080582052
  0
LWPOLYLINE
  5
6B7
100
AcDbEntity
  8
0
100
AcDbPolyline
 62
7
  6
CONTINUOUS
 90
3
 70
0
 10
149.4948276284
 20
110.0985366041
 10
149.380725301
 20
110.1598387976
 10
149.2664850384
 20
110.2150608313
  0
LINE
  5
6B8
100
AcDbEntity
  8
0
100
AcDbLine
 62
7
  6
CONTINUOUS
 10
149.6084016605
 20
110.0309772965
 11
149.4948276284
 21
110.0985366041
  0
LINE
  5
6B9
100
AcDbEntity
  8
0
100
AcDbLine
 62
7
  6
CONTINUOUS
 10
149.7210220229
 20
109.9570135953
 11
149.6084016605
 21
110.0309772965
  0
LINE
  5
6BA
100
AcDbEntity
  8
0
100
AcDbLine
 62
7
  6
CONTINUOUS
 10
149.7935807355
 20
109.9053874769
 11
149.7210220229
 21
109.9570135953
  0
LWPOLYLINE
  5
6BB
100
AcDbEntity
  8
0
100
AcDbPolyline
 62
7
  6
CONTINUOUS
 90
3
 70
0
 10
149.7935807355
 20
109.9054356658
 10
149.7515538665
 20
109.9357315509
 10
149.7012337888
 20
109.9705844139
  0
ARC
  5
6BC
100
AcDbEntity
  8
RUNDUNGEN
100
AcDbCircle
 62
7
  6
CONTINUOUS
 10
106.5935807355
 20
201.1794656489
 40
1.5
100
AcDbArc
 50
90.0
 51
180.0
  0
ARC
  5
6BD
100
AcDbEntity
  8
RUNDUNGEN
100
AcDbCircle
 62
7
  6
CONTINUOUS
 10
106.5935807355
 20
179.1794656489
 40
1.5
100
AcDbArc
 50
180.0
 51
270.0
  0
ARC
  5
6BE
100
AcDbEntity
  8
0
100
AcDbCircle
 62
7
  6
CONTINUOUS
 10
105.7578269939
 20
195.1817576798
 40
1.1642505283
100
AcDbArc
 50
174.407827861
 51
178.6048690974
  0
ARC
  5
6BF
100
AcDbEntity
  8
0
100
AcDbCircle
 62
7
  6
CONTINUOUS
 10
105.3440828781
 20
194.6764768919
 40
0.7505134459
100
AcDbArc
 50
171.7189887248
 51
178.244715255
  0
ARC
  5
6C0
100
AcDbEntity
  8
0
100
AcDbCircle
 62
7
  6
CONTINUOUS
 10
119.0935766947
 20
244.0190366326
 40
31.9935772664
100
AcDbArc
 50
352.7365377036
 51
354.8661704772
  0
ARC
  5
6C1
100
AcDbEntity
  8
0
100
AcDbCircle
 62
7
  6
CONTINUOUS
 10
124.4138102729
 20
259.2087073388
 40
26.9396379142
100
AcDbArc
 50
353.2985177402
 51
354.9814069965
  0
ARC
  5
6C2
100
AcDbEntity
  8
0
100
AcDbCircle
 62
7
  6
CONTINUOUS
 10
124.297584602
 20
234.6404671963
 40
26.7901086257
100
AcDbArc
 50
5.6222539408
 51
7.8162019836
  0
ARC
  5
6C3
100
AcDbEntity
  8
0
100
AcDbCircle
 62
7
  6
CONTINUOUS
 10
134.6819208474
 20
246.7659779082
 40
16.3364039814
100
AcDbArc
 50
0.1333796914
 51
4.2293635224
  0
ARC
  5
6C4
100
AcDbEntity
  8
0
100
AcDbCircle
 62
7
  6
CONTINUOUS
 10
136.1106681681
 20
242.4866387929
 40
14.9076292755
100
AcDbArc
 50
354.8797016122
 51
0.0175077562
  0
ARC
  5
6C5
100
AcDbEntity
  8
0
100
AcDbCircle
 62
7
  6
CONTINUOUS
 10
136.1679896645
 20
242.4975071435
 40
14.8503084249
100
AcDbArc
 50
359.9756428295
 51
5.3616247053
  0
ARC
  5
6C6
100
AcDbEntity
  8
RUNDUNGEN
100
AcDbCircle
 62
7
  6
CONTINUOUS
 10
133.022040089
 20
239.1603148716
 40
6.3867547912
100
AcDbArc
 50
352.1119304257
 51
7.3196967487
  0
ARC
  5
6C7
100
AcDbEntity
  8
RUNDUNGEN
100
AcDbCircle
 62
7
  6
CONTINUOUS
 10
144.5935807355
 20
190.1794656489
 40
12.5
100
AcDbArc
 50
270.0
 51
59.6334389829
  0
ARC
  5
6C8
100
AcDbEntity
  8
RUNDUNGEN
100
AcDbCircle
 62
7
  6
CONTINUOUS
 10
145.0935807355
 20
190.1794656489
 40
7.0
100
AcDbArc
 50
160.4276590571
 51
19.5723412736
  0
ARC
  5
6C9
100
AcDbEntity
  8
RUNDUNGEN
100
AcDbCircle
 62
7
  6
CONTINUOUS
 10
144.3435807355
 20
189.6794658728
 40
6.0
100
AcDbArc
 50
180.0000021385
 51
269.9999999997
  0
ARC
  5
6CA
100
AcDbEntity
  8
0
100
AcDbCircle
 62
7
  6
CONTINUOUS
 10
144.3435807355
 20
189.6794658728
 40
6.0
100
AcDbArc
 50
180.0000021385
 51
269.9999999997
  0
ARC
  5
6CB
100
AcDbEntity
  8
0
100
AcDbCircle
 62
7
  6
CONTINUOUS
 10
145.8435807355
 20
189.6794658728
 40
6.0
100
AcDbArc
 50
270.0000000003
 51
359.9999978615
  0
ARC
  5
6CC
100
AcDbEntity
  8
RUNDUNGEN
100
AcDbCircle
 62
7
  6
CONTINUOUS
 10
171.0935847761
 20
244.0190366326
 40
31.9935772663
100
AcDbArc
 50
185.1338295228
 51
187.2634622964
  0
ARC
  5
6CD
100
AcDbEntity
  8
0
100
AcDbCircle
 62
7
  6
CONTINUOUS
 10
165.7733511983
 20
259.2087073388
 40
26.9396379144
100
AcDbArc
 50
185.0185930035
 51
186.7014822598
  0
ARC
  5
6CE
100
AcDbEntity
  8
RUNDUNGEN
100
AcDbCircle
 62
7
  6
CONTINUOUS
 10
165.889576869
 20
234.6404671963
 40
26.7901086257
100
AcDbArc
 50
172.1837980164
 51
174.3777460592
  0
ARC
  5
6CF
100
AcDbEntity
  8
0
100
AcDbCircle
 62
7
  6
CONTINUOUS
 10
155.5052406236
 20
246.7659779082
 40
16.3364039814
100
AcDbArc
 50
175.7706364776
 51
179.8666203086
  0
ARC
  5
6D0
100
AcDbEntity
  8
RUNDUNGEN
100
AcDbCircle
 62
7
  6
CONTINUOUS
 10
154.0764933029
 20
242.4866387929
 40
14.9076292755
100
AcDbArc
 50
179.9824922438
 51
185.1202983878
  0
ARC
  5
6D1
100
AcDbEntity
  8
RUNDUNGEN
100
AcDbCircle
 62
7
  6
CONTINUOUS
 10
154.0191718065
 20
242.4975071435
 40
14.8503084249
100
AcDbArc
 50
174.6383752947
 51
180.0243571705
  0
ARC
  5
6D2
100
AcDbEntity
  8
0
100
AcDbCircle
 62
7
  6
CONTINUOUS
 10
138.5908399021
 20
236.0509031521
 40
12.4274329528
100
AcDbArc
 50
359.9800701631
 51
5.606815086
  0
ARC
  5
6D3
100
AcDbEntity
  8
0
100
AcDbCircle
 62
7
  6
CONTINUOUS
 10
151.5963215689
 20
236.0509031521
 40
12.4274329528
100
AcDbArc
 50
174.393184914
 51
180.0199298369
  0
ARC
  5
6D4
100
AcDbEntity
  8
0
100
AcDbCircle
 62
7
  6
CONTINUOUS
 10
138.72466654
 20
246.775809293
 40
12.2936408804
100
AcDbArc
 50
354.3962418935
 51
0.052233044
  0
ARC
  5
6D5
100
AcDbEntity
  8
RUNDUNGEN
100
AcDbCircle
 62
7
  6
CONTINUOUS
 10
151.462494931
 20
246.775809293
 40
12.2936408804
100
AcDbArc
 50
179.947766956
 51
185.6037581065
  0
ARC
  5
6D6
100
AcDbEntity
  8
RUNDUNGEN
100
AcDbCircle
 62
7
  6
CONTINUOUS
 10
145.0935807355
 20
263.9294656489
 40
6.75
100
AcDbArc
 50
180.0
 51
184.9969872603
  0
ARC
  5
6D7
100
AcDbEntity
  8
0
100
AcDbCircle
 62
7
  6
CONTINUOUS
 10
145.0935807355
 20
263.9294656489
 40
6.75
100
AcDbArc
 50
355.0030127397
 51
360.0
  0
ARC
  5
6D8
100
AcDbEntity
  8
0
100
AcDbCircle
 62
7
  6
CONTINUOUS
 10
157.1651213819
 20
239.1603148716
 40
6.3867547912
100
AcDbArc
 50
172.6803032513
 51
187.8880695743
  0
ARC
  5
6D9
100
AcDbEntity
  8
0
100
AcDbCircle
 62
7
  6
CONTINUOUS
 10
144.343580735
 20
264.6794656418
 40
5.9999999995
100
AcDbArc
 50
147.2028316185
 51
179.9999999325
  0
ARC
  5
6DA
100
AcDbEntity
  8
0
100
AcDbCircle
 62
7
  6
CONTINUOUS
 10
144.343580735
 20
264.6794656418
 40
5.9999999995
100
AcDbArc
 50
89.9999999952
 51
142.3415379981
  0
ARC
  5
6DB
100
AcDbEntity
  8
0
100
AcDbCircle
 62
7
  6
CONTINUOUS
 10
145.843580736
 20
264.6794656418
 40
5.9999999995
100
AcDbArc
 50
37.6584620019
 51
90.0000000048
  0
ARC
  5
6DC
100
AcDbEntity
  8
0
100
AcDbCircle
 62
7
  6
CONTINUOUS
 10
145.843580736
 20
264.6794656418
 40
5.9999999995
100
AcDbArc
 50
0.0000000675
 51
32.7971683815
  0
ARC
  5
6DD
100
AcDbEntity
  8
0
100
AcDbCircle
 62
7
  6
CONTINUOUS
 10
144.4965965522
 20
244.5493290424
 40
4.9228302181
100
AcDbArc
 50
209.3426491647
 51
213.5434675181
  0
ARC
  5
6DE
100
AcDbEntity
  8
0
100
AcDbCircle
 62
7
  6
CONTINUOUS
 10
145.6905649188
 20
244.5493290424
 40
4.9228302181
100
AcDbArc
 50
326.4565324819
 51
330.6573508353
  0
ARC
  5
6DF
100
AcDbEntity
  8
0
100
AcDbCircle
 62
7
  6
CONTINUOUS
 10
140.8166643798
 20
264.992868443
 40
2.3389556038
100
AcDbArc
 50
174.7111932029
 51
178.3756407032
  0
ARC
  5
6E0
100
AcDbEntity
  8
0
100
AcDbCircle
 62
7
  6
CONTINUOUS
 10
149.3704970912
 20
264.992868443
 40
2.3389556039
100
AcDbArc
 50
1.6243592968
 51
5.2888067971
  0
ARC
  5
6E1
100
AcDbEntity
  8
RUNDUNGEN
100
AcDbCircle
 62
7
  6
CONTINUOUS
 10
141.5935807355
 20
261.5167875347
 40
2.0
100
AcDbArc
 50
180.0
 51
185.0
  0
ARC
  5
6E2
100
AcDbEntity
  8
RUNDUNGEN
100
AcDbCircle
 62
7
  6
CONTINUOUS
 10
138.3935807355
 20
252.1981019208
 40
2.0
100
AcDbArc
 50
0.0
 51
5.0
  0
ARC
  5
6E3
100
AcDbEntity
  8
0
100
AcDbCircle
 62
7
  6
CONTINUOUS
 10
151.7935807355
 20
252.1981019208
 40
2.0
100
AcDbArc
 50
175.0
 51
180.0
  0
ARC
  5
6E4
100
AcDbEntity
  8
0
100
AcDbCircle
 62
7
  6
CONTINUOUS
 10
148.5935807355
 20
261.5167875347
 40
2.0
100
AcDbArc
 50
355.0
 51
360.0
  0
ARC
  5
6E5
100
AcDbEntity
  8
0
100
AcDbCircle
 62
7
  6
CONTINUOUS
 10
246.4636862929
 20
195.6794656489
 40
12.0
100
AcDbArc
 50
180.0003296723
 51
264.0205928817
  0
ARC
  5
6E6
100
AcDbEntity
  8
0
100
AcDbCircle
 62
7
  6
CONTINUOUS
 10
249.4633985375
 20
203.1794008595
 40
5.9997122443
100
AcDbArc
 50
179.9993812772
 51
224.8948532676
  0
ARC
  5
6E7
100
AcDbEntity
  8
RUNDUNGEN
100
AcDbCircle
 62
7
  6
CONTINUOUS
 10
246.7136862929
 20
179.1794656489
 40
1.5
100
AcDbArc
 50
180.0
 51
270.0
  0
ARC
  5
6E8
100
AcDbEntity
  8
RUNDUNGEN
100
AcDbCircle
 62
7
  6
CONTINUOUS
 10
246.7136862929
 20
201.1794656489
 40
1.5
100
AcDbArc
 50
90.0
 51
180.0
  0
ARC
  5
6E9
100
AcDbEntity
  8
0
100
AcDbCircle
 62
7
  6
CONTINUOUS
 10
262.4636521634
 20
229.6798310733
 40
38.6653541422
100
AcDbArc
 50
89.9999494257
 51
101.8826990427
  0
ARC
  5
6EA
100
AcDbEntity
  8
0
100
AcDbCircle
 62
7
  6
CONTINUOUS
 10
262.4636862466
 20
229.6794656257
 40
27.4999999901
100
AcDbArc
 50
89.9999999034
 51
127.2037438846
  0
ARC
  5
6EB
100
AcDbEntity
  8
0
100
AcDbCircle
 62
7
  6
CONTINUOUS
 10
254.4636862929
 20
249.0959534878
 40
20.0
100
AcDbArc
 50
112.3927853684
 51
180.0000662979
  0
ARC
  5
6EC
100
AcDbEntity
  8
0
100
AcDbCircle
 62
7
  6
CONTINUOUS
 10
249.2546379575
 20
248.1789860209
 40
14.418722642
100
AcDbArc
 50
150.3316455654
 51
163.0922208017
  0
ARC
  5
6ED
100
AcDbEntity
  8
0
100
AcDbCircle
 62
7
  6
CONTINUOUS
 10
257.1794775477
 20
254.7797980091
 40
13.0151919428
100
AcDbArc
 50
101.871079842
 51
103.7759959526
  0
ARC
  5
6EE
100
AcDbEntity
  8
0
100
AcDbCircle
 62
7
  6
CONTINUOUS
 10
249.4669880347
 20
246.8001484299
 40
6.0050716648
100
AcDbArc
 50
127.206560967
 51
141.6667761026
  0
ARC
  5
6EF
100
AcDbEntity
  8
0
100
AcDbCircle
 62
7
  6
CONTINUOUS
 10
249.4636862929
 20
246.8040094384
 40
6.0
100
AcDbArc
 50
141.671288453
 51
180.0
  0
ARC
  5
6F0
100
AcDbEntity
  8
0
100
AcDbCircle
 62
7
  6
CONTINUOUS
 10
237.6937426374
 20
251.6946331212
 40
2.3350947504
100
AcDbArc
 50
163.1265882133
 51
167.5487074987
  0
ARC
  5
6F1
100
AcDbEntity
  8
0
100
AcDbCircle
 62
7
  6
CONTINUOUS
 10
246.0484442792
 20
259.8264506226
 40
2.0
100
AcDbArc
 50
110.0
 51
154.0
  0
ARC
  5
6F2
100
AcDbEntity
  8
0
100
AcDbCircle
 62
7
  6
CONTINUOUS
 10
238.6701060312
 20
244.6986153684
 40
2.0
100
AcDbArc
 50
154.0
 51
204.0
  0
ARC
  5
6F3
100
AcDbEntity
  8
0
100
AcDbCircle
 62
7
  6
CONTINUOUS
 10
236.7572665546
 20
239.1605498333
 40
2.0
100
AcDbArc
 50
334.0
 51
24.0
  0
ARC
  5
6F4
100
AcDbEntity
  8
0
100
AcDbCircle
 62
7
  6
CONTINUOUS
 10
278.4636862929
 20
195.6794656489
 40
12.0
100
AcDbArc
 50
276.7726313132
 51
296.2741625738
  0
ARC
  5
6F5
100
AcDbEntity
  8
RUNDUNGEN
100
AcDbCircle
 62
7
  6
CONTINUOUS
 10
278.4636862929
 20
195.6794656489
 40
12.0
100
AcDbArc
 50
275.9794071183
 51
359.9996703277
  0
ARC
  5
6F6
100
AcDbEntity
  8
0
100
AcDbCircle
 62
7
  6
CONTINUOUS
 10
275.4639740483
 20
203.1794008595
 40
5.9997122443
100
AcDbArc
 50
315.1053857307
 51
0.0006187228
  0
ARC
  5
6F7
100
AcDbEntity
  8
RUNDUNGEN
100
AcDbCircle
 62
7
  6
CONTINUOUS
 10
278.2136862929
 20
201.1794656489
 40
1.5
100
AcDbArc
 50
0.0
 51
90.0
  0
ARC
  5
6F8
100
AcDbEntity
  8
RUNDUNGEN
100
AcDbCircle
 62
7
  6
CONTINUOUS
 10
278.2136862929
 20
179.1794656489
 40
1.5
100
AcDbArc
 50
270.0
 51
360.0
  0
ARC
  5
6F9
100
AcDbEntity
  8
RUNDUNGEN
100
AcDbCircle
 62
7
  6
CONTINUOUS
 10
262.4636862929
 20
229.6794656489
 40
41.0
100
AcDbArc
 50
67.607264603
 51
78.1173629921
  0
ARC
  5
6FA
100
AcDbEntity
  8
0
100
AcDbCircle
 62
7
  6
CONTINUOUS
 10
262.4636862929
 20
229.6794656489
 40
41.0
100
AcDbArc
 50
78.1173629921
 51
112.392735397
  0
ARC
  5
6FB
100
AcDbEntity
  8
0
100
AcDbCircle
 62
7
  6
CONTINUOUS
 10
262.463720424
 20
229.6798310888
 40
38.6653541267
100
AcDbArc
 50
78.117300955
 51
90.0000505767
  0
ARC
  5
6FC
100
AcDbEntity
  8
0
100
AcDbCircle
 62
7
  6
CONTINUOUS
 10
262.4636863387
 20
229.679465624
 40
27.4999999918
100
AcDbArc
 50
52.7962561166
 51
90.0000000954
  0
ARC
  5
6FD
100
AcDbEntity
  8
0
100
AcDbCircle
 62
7
  6
CONTINUOUS
 10
270.4636862929
 20
249.0959534878
 40
20.0
100
AcDbArc
 50
24.8114837902
 51
67.6072146316
  0
ARC
  5
6FE
100
AcDbEntity
  8
0
100
AcDbCircle
 62
7
  6
CONTINUOUS
 10
270.4636862929
 20
249.0959534878
 40
20.0
100
AcDbArc
 50
359.9999337021
 51
18.4079297812
  0
ARC
  5
6FF
100
AcDbEntity
  8
RUNDUNGEN
100
AcDbCircle
 62
7
  6
CONTINUOUS
 10
270.4636862929
 20
249.0959534878
 40
20.0
100
AcDbArc
 50
359.9999337021
 51
67.6072146316
  0
ARC
  5
700
100
AcDbEntity
  8
RUNDUNGEN
100
AcDbCircle
 62
7
  6
CONTINUOUS
 10
275.6727346283
 20
248.1789860209
 40
14.418722642
100
AcDbArc
 50
16.9077791983
 51
29.6683544346
  0
ARC
  5
701
100
AcDbEntity
  8
0
100
AcDbCircle
 62
7
  6
CONTINUOUS
 10
267.7478950381
 20
254.779798009
 40
13.0151919429
100
AcDbArc
 50
76.2240040474
 51
78.128920158
  0
ARC
  5
702
100
AcDbEntity
  8
0
100
AcDbCircle
 62
7
  6
CONTINUOUS
 10
275.4603845511
 20
246.8001484299
 40
6.0050716648
100
AcDbArc
 50
38.3332238974
 51
52.793439033
  0
ARC
  5
703
100
AcDbEntity
  8
0
100
AcDbCircle
 62
7
  6
CONTINUOUS
 10
275.4636862929
 20
246.8040094384
 40
6.0
100
AcDbArc
 50
0.0
 51
38.328711547
  0
ARC
  5
704
100
AcDbEntity
  8
RUNDUNGEN
100
AcDbCircle
 62
7
  6
CONTINUOUS
 10
287.2336299484
 20
251.6946331212
 40
2.3350947504
100
AcDbArc
 50
12.4512925013
 51
16.8734117867
  0
ARC
  5
705
100
AcDbEntity
  8
RUNDUNGEN
100
AcDbCircle
 62
7
  6
CONTINUOUS
 10
278.8789283067
 20
259.8264506226
 40
2.0
100
AcDbArc
 50
26.0
 51
70.0
  0
ARC
  5
706
100
AcDbEntity
  8
RUNDUNGEN
100
AcDbCircle
 62
7
  6
CONTINUOUS
 10
286.2572665546
 20
244.6986153684
 40
2.0
100
AcDbArc
 50
336.0
 51
26.0
  0
ARC
  5
707
100
AcDbEntity
  8
0
100
AcDbCircle
 62
7
  6
CONTINUOUS
 10
287.0680205211
 20
229.3127023581
 40
2.0
100
AcDbArc
 50
174.2608295227
 51
356.9363238298
  0
ARC
  5
708
100
AcDbEntity
  8
0
100
AcDbCircle
 62
7
  6
CONTINUOUS
 10
287.0680205211
 20
225.9127023581
 40
2.0
100
AcDbArc
 50
174.2608295227
 51
356.9363238298
  0
ARC
  5
709
100
AcDbEntity
  8
RUNDUNGEN
100
AcDbCircle
 62
7
  6
CONTINUOUS
 10
288.1701060312
 20
239.1605498333
 40
2.0
100
AcDbArc
 50
156.0
 51
206.0
  0
ARC
  5
70A
100
AcDbEntity
  8
0
100
AcDbCircle
 62
7
  6
CONTINUOUS
 10
287.0680205211
 20
229.3127023581
 40
1.4
100
AcDbArc
 50
282.3736251162
 51
8.2132107017
  0
ARC
  5
70B
100
AcDbEntity
  8
0
100
AcDbCircle
 62
7
  6
CONTINUOUS
 10
287.0680205211
 20
229.3127023581
 40
1.4
100
AcDbArc
 50
171.7867892983
 51
257.4447123387
  0
ARC
  5
70C
100
AcDbEntity
  8
0
100
AcDbCircle
 62
7
  6
CONTINUOUS
 10
287.0680205211
 20
225.9127023581
 40
1.4
100
AcDbArc
 50
180.8223838046
 51
8.2132107017
  0
ARC
  5
70D
100
AcDbEntity
  8
0
100
AcDbCircle
 62
7
  6
CONTINUOUS
 10
131.8435807355
 20
65.7794832208
 40
20.0
100
AcDbArc
 50
351.9999883752
 51
358.4458432903
  0
ARC
  5
70E
100
AcDbEntity
  8
0
100
AcDbCircle
 62
7
  6
CONTINUOUS
 10
134.1479186689
 20
74.4201170419
 40
17.5615255743
100
AcDbArc
 50
0.5901166279
 51
1.9287213588
  0
ARC
  5
70F
100
AcDbEntity
  8
0
100
AcDbCircle
 62
7
  6
CONTINUOUS
 10
122.3435807355
 20
82.4870610687
 40
17.75
100
AcDbArc
 50
217.7577295757
 51
229.8464701281
  0
ARC
  5
710
100
AcDbEntity
  8
0
100
AcDbCircle
 62
7
  6
CONTINUOUS
 10
122.3435807355
 20
82.4870610687
 40
17.75
100
AcDbArc
 50
205.5674155405
 51
215.4125796786
  0
ARC
  5
711
100
AcDbEntity
  8
0
100
AcDbCircle
 62
7
  6
CONTINUOUS
 10
122.3435807355
 20
82.4870610687
 40
17.75
100
AcDbArc
 50
156.2749903545
 51
203.4974896661
  0
ARC
  5
712
100
AcDbEntity
  8
0
100
AcDbCircle
 62
7
  6
CONTINUOUS
 10
122.3435807355
 20
82.4870610687
 40
17.75
100
AcDbArc
 50
144.3312225073
 51
154.2012620757
  0
ARC
  5
713
100
AcDbEntity
  8
0
100
AcDbCircle
 62
7
  6
CONTINUOUS
 10
122.3435807355
 20
82.4870610687
 40
17.75
100
AcDbArc
 50
128.713626075
 51
141.9781133958
  0
ARC
  5
714
100
AcDbEntity
  8
RUNDUNGEN
100
AcDbCircle
 62
7
  6
CONTINUOUS
 10
122.3435807355
 20
82.4870610687
 40
17.25
100
AcDbArc
 50
90.0
 51
270.0
  0
ARC
  5
715
100
AcDbEntity
  8
0
100
AcDbCircle
 62
7
  6
CONTINUOUS
 10
125.0935807355
 20
82.4870610687
 40
15.0
100
AcDbArc
 50
27.931108454
 51
332.068891546
  0
CIRCLE
  5
716
100
AcDbEntity
  8
BEZUGSACHSEN
100
AcDbCircle
 62
7
  6
CONTINUOUS
 10
125.0935807355
 20
82.4870610687
 40
12.0
  0
ARC
  5
717
100
AcDbEntity
  8
0
100
AcDbCircle
 62
7
  6
CONTINUOUS
 10
134.1479186689
 20
90.5540050955
 40
17.5615255743
100
AcDbArc
 50
358.0712786412
 51
359.4098833721
  0
ARC
  5
718
100
AcDbEntity
  8
0
100
AcDbCircle
 62
7
  6
CONTINUOUS
 10
131.8435807355
 20
99.1946389166
 40
20.0
100
AcDbArc
 50
1.5541567097
 51
8.0000116248
  0
ARC
  5
719
100
AcDbEntity
  8
RUNDUNGEN
100
AcDbCircle
 62
7
  6
CONTINUOUS
 10
158.3435807355
 20
65.7794832208
 40
20.0
100
AcDbArc
 50
181.5541567097
 51
188.0000116248
  0
ARC
  5
71A
100
AcDbEntity
  8
0
100
AcDbCircle
 62
7
  6
CONTINUOUS
 10
156.0392428017
 20
74.4201170419
 40
17.5615255739
100
AcDbArc
 50
178.0712786411
 51
179.4098833721
  0
ARC
  5
71B
100
AcDbEntity
  8
0
100
AcDbCircle
 62
7
  6
CONTINUOUS
 10
145.564132967
 20
63.5900266772
 40
6.7338658206
100
AcDbArc
 50
190.2143218692
 51
193.5527642969
  0
ARC
  5
71C
100
AcDbEntity
  8
0
100
AcDbCircle
 62
7
  6
CONTINUOUS
 10
144.623028504
 20
63.5900266772
 40
6.7338658205
100
AcDbArc
 50
346.4472357031
 51
349.7856781309
  0
ARC
  5
71D
100
AcDbEntity
  8
RUNDUNGEN
100
AcDbCircle
 62
7
  6
CONTINUOUS
 10
142.1688892748
 20
57.4870610687
 40
3.0
100
AcDbArc
 50
233.8702720557
 51
241.6153083432
  0
ARC
  5
71E
100
AcDbEntity
  8
RUNDUNGEN
100
AcDbCircle
 62
7
  6
CONTINUOUS
 10
142.1688892748
 20
57.4870610687
 40
3.0
100
AcDbArc
 50
248.2658933531
 51
250.1064091945
  0
ARC
  5
71F
100
AcDbEntity
  8
KONSTRUKTIONSELEMENTE
100
AcDbCircle
 62
7
  6
CONTINUOUS
 10
142.1688892748
 20
57.4870610687
 40
3.0
100
AcDbArc
 50
213.245417655
 51
226.2296551032
  0
ARC
  5
720
100
AcDbEntity
  8
0
100
AcDbCircle
 62
7
  6
CONTINUOUS
 10
142.1688655696
 20
57.4870546265
 40
2.9999766825
100
AcDbArc
 50
195.3394404513
 51
213.1901512841
  0
ARC
  5
721
100
AcDbEntity
  8
0
100
AcDbCircle
 62
7
  6
CONTINUOUS
 10
142.1673408253
 20
57.4853549996
 40
2.9976968959
100
AcDbArc
 50
226.2290979797
 51
269.2382625127
  0
ARC
  5
722
100
AcDbEntity
  8
0
100
AcDbCircle
 62
7
  6
CONTINUOUS
 10
148.0198206461
 20
57.4853549991
 40
2.9976968953
100
AcDbArc
 50
270.7609450499
 51
344.6605595487
  0
ARC
  5
723
100
AcDbEntity
  8
RUNDUNGEN
100
AcDbCircle
 62
7
  6
CONTINUOUS
 10
142.1318110232
 20
57.4829975649
 40
2.9629550183
100
AcDbArc
 50
179.7650931586
 51
191.428704422
  0
ARC
  5
724
100
AcDbEntity
  8
0
100
AcDbCircle
 62
7
  6
CONTINUOUS
 10
148.0553504478
 20
57.4829975649
 40
2.9629550183
100
AcDbArc
 50
348.571295578
 51
0.2349068414
  0
ARC
  5
725
100
AcDbEntity
  8
RUNDUNGEN
100
AcDbCircle
 62
7
  6
CONTINUOUS
 10
155.5935807355
 20
66.7370610687
 40
1.5
100
AcDbArc
 50
270.0
 51
360.0
  0
ARC
  5
726
100
AcDbEntity
  8
0
100
AcDbCircle
 62
7
  6
CONTINUOUS
 10
158.3435807355
 20
99.1946389166
 40
20.0
100
AcDbArc
 50
171.9999883752
 51
178.4458432903
  0
ARC
  5
727
100
AcDbEntity
  8
0
100
AcDbCircle
 62
7
  6
CONTINUOUS
 10
156.0392428017
 20
90.5540050955
 40
17.5615255739
100
AcDbArc
 50
180.5901166279
 51
181.9287213589
  0
ARC
  5
728
100
AcDbEntity
  8
0
100
AcDbCircle
 62
7
  6
CONTINUOUS
 10
145.564132967
 20
101.3840954602
 40
6.7338658206
100
AcDbArc
 50
166.4472357031
 51
169.7856781308
  0
ARC
  5
729
100
AcDbEntity
  8
0
100
AcDbCircle
 62
7
  6
CONTINUOUS
 10
144.623028504
 20
101.3840954602
 40
6.7338658205
100
AcDbArc
 50
10.2143218691
 51
13.5527642969
  0
ARC
  5
72A
100
AcDbEntity
  8
0
100
AcDbCircle
 62
7
  6
CONTINUOUS
 10
142.1673408255
 20
107.4887671377
 40
2.9976968961
100
AcDbArc
 50
90.7616657299
 51
164.6605595487
  0
ARC
  5
72B
100
AcDbEntity
  8
0
100
AcDbCircle
 62
7
  6
CONTINUOUS
 10
148.0198206457
 20
107.488767138
 40
2.9976968958
100
AcDbArc
 50
15.3394404513
 51
89.2382623419
  0
ARC
  5
72C
100
AcDbEntity
  8
0
100
AcDbCircle
 62
7
  6
CONTINUOUS
 10
142.1318110232
 20
107.4911245725
 40
2.9629550183
100
AcDbArc
 50
168.571295578
 51
180.2349068414
  0
ARC
  5
72D
100
AcDbEntity
  8
0
100
AcDbCircle
 62
7
  6
CONTINUOUS
 10
148.0553504478
 20
107.4911245725
 40
2.9629550183
100
AcDbArc
 50
359.7650931586
 51
11.428704422
  0
ARC
  5
72E
100
AcDbEntity
  8
RUNDUNGEN
100
AcDbCircle
 62
7
  6
CONTINUOUS
 10
155.5935807355
 20
98.2370610687
 40
1.5
100
AcDbArc
 50
0.0
 51
90.0
  0
SPLINE
  5
72F
100
AcDbEntity
  8
0
100
AcDbSpline
 62
7
  6
CONTINUOUS
 70
0
 71
3
 72
11
 73
7
 74
0
 42
0.0000001
 43
0.0000001
 44
0.0000000001
 40
0.0
 40
0.0
 40
0.0
 40
0.0
 40
0.2500722326
 40
0.5000669498
 40
0.7500067199
 40
1.0
 40
1.0
 40
1.0
 40
1.0
 10
139.2133237349
 20
247.970776288
 30
0.0
 10
139.247784879
 20
248.4431403167
 30
0.0
 10
139.3196603063
 20
249.3875084192
 30
0.0
 10
139.3890170366
 20
250.8066468197
 30
0.0
 10
139.3896222932
 20
252.2275937534
 30
0.0
 10
139.344080153
 20
253.1736170191
 30
0.0
 10
139.3147283426
 20
253.64617622
 30
0.0
  0
SPLINE
  5
730
100
AcDbEntity
  8
0
100
AcDbSpline
 62
7
  6
CONTINUOUS
 70
0
 71
3
 72
8
 73
4
 74
0
 42
0.0000001
 43
0.0000001
 44
0.0000000001
 40
0.0
 40
0.0
 40
0.0
 40
0.0
 40
1.0
 40
1.0
 40
1.0
 40
1.0
 10
139.3147283426
 20
253.64617622
 30
0.0
 10
139.2927896552
 20
253.999396292
 30
0.0
 10
139.2505251298
 20
254.3513885286
 30
0.0
 10
139.1999253751
 20
254.7016532715
 30
0.0
  0
SPLINE
  5
731
100
AcDbEntity
  8
0
100
AcDbSpline
 62
7
  6
CONTINUOUS
 70
0
 71
3
 72
8
 73
4
 74
0
 42
0.0000001
 43
0.0000001
 44
0.0000000001
 40
0.0
 40
0.0
 40
0.0
 40
0.0
 40
1.0
 40
1.0
 40
1.0
 40
1.0
 10
139.1999253751
 20
254.7016532715
 30
0.0
 10
139.1343741545
 20
255.1554126292
 30
0.0
 10
139.071129658
 20
255.6095931849
 30
0.0
 10
139.0177748336
 20
256.0649477499
 30
0.0
  0
SPLINE
  5
732
100
AcDbEntity
  8
0
100
AcDbSpline
 62
7
  6
CONTINUOUS
 70
0
 71
3
 72
8
 73
4
 74
0
 42
0.0000001
 43
0.0000001
 44
0.0000000001
 40
0.0
 40
0.0
 40
0.0
 40
0.0
 40
1.0
 40
1.0
 40
1.0
 40
1.0
 10
150.9872360958
 20
254.7016532715
 30
0.0
 10
151.0527873164
 20
255.1554126292
 30
0.0
 10
151.116031813
 20
255.6095931849
 30
0.0
 10
151.1693866374
 20
256.0649477499
 30
0.0
  0
SPLINE
  5
733
100
AcDbEntity
  8
0
100
AcDbSpline
 62
7
  6
CONTINUOUS
 70
0
 71
3
 72
8
 73
4
 74
0
 42
0.0000001
 43
0.0000001
 44
0.0000000001
 40
0.0
 40
0.0
 40
0.0
 40
0.0
 40
1.0
 40
1.0
 40
1.0
 40
1.0
 10
150.8724331284
 20
253.64617622
 30
0.0
 10
150.8943718158
 20
253.999396292
 30
0.0
 10
150.9366363412
 20
254.3513885286
 30
0.0
 10
150.9872360958
 20
254.7016532715
 30
0.0
  0
SPLINE
  5
734
100
AcDbEntity
  8
0
100
AcDbSpline
 62
7
  6
CONTINUOUS
 70
0
 71
3
 72
11
 73
7
 74
0
 42
0.0000001
 43
0.0000001
 44
0.0000000001
 40
0.0
 40
0.0
 40
0.0
 40
0.0
 40
0.2500722326
 40
0.5000669498
 40
0.7500067199
 40
1.0
 40
1.0
 40
1.0
 40
1.0
 10
150.9738377361
 20
247.970776288
 30
0.0
 10
150.939376592
 20
248.4431403167
 30
0.0
 10
150.8675011646
 20
249.3875084192
 30
0.0
 10
150.7981444344
 20
250.8066468197
 30
0.0
 10
150.7975391778
 20
252.2275937534
 30
0.0
 10
150.843081318
 20
253.1736170191
 30
0.0
 10
150.8724331284
 20
253.64617622
 30
0.0
  0
SPLINE
  5
735
100
AcDbEntity
  8
0
100
AcDbSpline
 62
7
  6
CONTINUOUS
 70
0
 71
3
 72
11
 73
7
 74
0
 42
0.0000001
 43
0.0000001
 44
0.0000000001
 40
0.0
 40
0.0
 40
0.0
 40
0.0
 40
0.2405206921
 40
0.4840232546
 40
0.7345143579
 40
1.0
 40
1.0
 40
1.0
 40
1.0
 10
138.4876663542
 20
265.2084641613
 30
0.0
 10
138.5087496951
 20
265.437281063
 30
0.0
 10
138.5639021143
 20
265.8967837901
 30
0.0
 10
138.7049803597
 20
266.5853622581
 30
0.0
 10
138.9339383792
 20
267.2760674504
 30
0.0
 10
139.1626338807
 20
267.7162600978
 30
0.0
 10
139.3000204901
 20
267.9294656489
 30
0.0
  0
SPLINE
  5
736
100
AcDbEntity
  8
0
100
AcDbSpline
 62
7
  6
CONTINUOUS
 70
0
 71
3
 72
10
 73
6
 74
0
 42
0.0000001
 43
0.0000001
 44
0.0000000001
 40
0.0
 40
0.0
 40
0.0
 40
0.0
 40
0.2506804252
 40
0.6256555879
 40
1.0
 40
1.0
 40
1.0
 40
1.0
 10
138.5898285756
 20
262.877064869
 30
0.0
 10
138.5693104495
 20
263.0586116173
 30
0.0
 10
138.5225282476
 20
263.5122618694
 30
0.0
 10
138.4766726376
 20
264.2399047899
 30
0.0
 10
138.4710161978
 20
264.7864445889
 30
0.0
 10
138.4786486763
 20
265.0591699295
 30
0.0
  0
SPLINE
  5
737
100
AcDbEntity
  8
RUNDUNGEN
100
AcDbSpline
 62
7
  6
CONTINUOUS
 70
0
 71
3
 72
11
 73
7
 74
0
 42
0.0000001
 43
0.0000001
 44
0.0000000001
 40
0.0
 40
0.0
 40
0.0
 40
0.0
 40
0.3258268283
 40
0.607522583
 40
0.8347299297
 40
1.0
 40
1.0
 40
1.0
 40
1.0
 10
138.7539045262
 20
260.7031929162
 30
0.0
 10
138.7604476867
 20
260.81208139
 30
0.0
 10
138.7725038943
 20
261.0151048696
 30
0.0
 10
138.7832264433
 20
261.2944654532
 30
0.0
 10
138.7813079523
 20
261.520150828
 30
0.0
 10
138.769652292
 20
261.6515357764
 30
0.0
 10
138.7590189235
 20
261.7058358642
 30
0.0
  0
SPLINE
  5
738
100
AcDbEntity
  8
RUNDUNGEN
100
AcDbSpline
 62
7
  6
CONTINUOUS
 70
0
 71
3
 72
8
 73
4
 74
0
 42
0.0000001
 43
0.0000001
 44
0.0000000001
 40
0.0
 40
0.0
 40
0.0
 40
0.0
 40
1.0
 40
1.0
 40
1.0
 40
1.0
 10
138.7920816393
 20
258.5083654959
 30
0.0
 10
138.7283080559
 20
259.2373008891
 30
0.0
 10
138.7100143019
 20
259.9727906122
 30
0.0
 10
138.7539045262
 20
260.7031929162
 30
0.0
  0
SPLINE
  5
739
100
AcDbEntity
  8
RUNDUNGEN
100
AcDbSpline
 62
7
  6
CONTINUOUS
 70
0
 71
3
 72
9
 73
5
 74
0
 42
0.0000001
 43
0.0000001
 44
0.0000000001
 40
0.0
 40
0.0
 40
0.0
 40
0.0
 40
0.2511490004
 40
1.0
 40
1.0
 40
1.0
 40
1.0
 10
138.7590189235
 20
261.7058358642
 30
0.0
 10
138.7399767493
 20
261.8030761449
 30
0.0
 10
138.6712290625
 20
262.1916558441
 30
0.0
 10
138.6229358717
 20
262.5834773296
 30
0.0
 10
138.5898285756
 20
262.877064869
 30
0.0
  0
SPLINE
  5
73A
100
AcDbEntity
  8
0
100
AcDbSpline
 62
7
  6
CONTINUOUS
 70
0
 71
3
 72
9
 73
5
 74
0
 42
0.0000001
 43
0.0000001
 44
0.0000000001
 40
0.0
 40
0.0
 40
0.0
 40
0.0
 40
0.5019166458
 40
1.0
 40
1.0
 40
1.0
 40
1.0
 10
150.9533246148
 20
243.8851420823
 30
0.0
 10
150.9267363563
 20
244.1670777239
 30
0.0
 10
150.89332971
 20
244.7316211077
 30
0.0
 10
150.9320116495
 20
245.295686996
 30
0.0
 10
150.9595560768
 20
245.575357662
 30
0.0
  0
SPLINE
  5
73B
100
AcDbEntity
  8
0
100
AcDbSpline
 62
7
  6
CONTINUOUS
 70
0
 71
3
 72
9
 73
5
 74
0
 42
0.0000001
 43
0.0000001
 44
0.0000000001
 40
0.0
 40
0.0
 40
0.0
 40
0.0
 40
0.5009472825
 40
1.0
 40
1.0
 40
1.0
 40
1.0
 10
139.6583098137
 20
232.6794656489
 30
0.0
 10
139.4851247498
 20
233.2222938695
 30
0.0
 10
139.2447671518
 20
234.3404866893
 30
0.0
 10
139.168894295
 20
235.4789497628
 30
0.0
 10
139.1688893679
 20
236.0465803781
 30
0.0
  0
SPLINE
  5
73C
100
AcDbEntity
  8
0
100
AcDbSpline
 62
7
  6
CONTINUOUS
 70
0
 71
3
 72
9
 73
5
 74
0
 42
0.0000001
 43
0.0000001
 44
0.0000000001
 40
0.0
 40
0.0
 40
0.0
 40
0.0
 40
0.2510196237
 40
1.0
 40
1.0
 40
1.0
 40
1.0
 10
149.7935807355
 20
231.0882869496
 30
0.0
 10
149.8212513941
 20
231.1299352795
 30
0.0
 10
149.9287338418
 20
231.2976744782
 30
0.0
 10
150.0258893442
 20
231.4719399677
 30
0.0
 10
150.0935807355
 20
231.6048949761
 30
0.0
  0
SPLINE
  5
73D
100
AcDbEntity
  8
0
100
AcDbSpline
 62
7
  6
CONTINUOUS
 70
0
 71
3
 72
9
 73
5
 74
0
 42
0.0000001
 43
0.0000001
 44
0.0000000001
 40
0.0
 40
0.0
 40
0.0
 40
0.0
 40
0.2510196237
 40
1.0
 40
1.0
 40
1.0
 40
1.0
 10
140.3935807355
 20
231.0882869496
 30
0.0
 10
140.3659100769
 20
231.1299352795
 30
0.0
 10
140.2584276292
 20
231.2976744782
 30
0.0
 10
140.1612721268
 20
231.4719399677
 30
0.0
 10
140.0935807355
 20
231.6048949761
 30
0.0
  0
SPLINE
  5
73E
100
AcDbEntity
  8
0
100
AcDbSpline
 62
7
  6
CONTINUOUS
 70
0
 71
3
 72
9
 73
5
 74
0
 42
0.0000001
 43
0.0000001
 44
0.0000000001
 40
0.0
 40
0.0
 40
0.0
 40
0.0
 40
0.5009472825
 40
1.0
 40
1.0
 40
1.0
 40
1.0
 10
150.5288516573
 20
232.6794656489
 30
0.0
 10
150.7020367211
 20
233.2222938695
 30
0.0
 10
150.9423943192
 20
234.3404866893
 30
0.0
 10
151.018267176
 20
235.4789497628
 30
0.0
 10
151.0182721031
 20
236.0465803781
 30
0.0
  0
SPLINE
  5
73F
100
AcDbEntity
  8
RUNDUNGEN
100
AcDbSpline
 62
7
  6
CONTINUOUS
 70
0
 71
3
 72
9
 73
5
 74
0
 42
0.0000001
 43
0.0000001
 44
0.0000000001
 40
0.0
 40
0.0
 40
0.0
 40
0.0
 40
0.5019166458
 40
1.0
 40
1.0
 40
1.0
 40
1.0
 10
139.2338368562
 20
243.8851420823
 30
0.0
 10
139.2604251147
 20
244.1670777239
 30
0.0
 10
139.293831761
 20
244.7316211077
 30
0.0
 10
139.2551498215
 20
245.295686996
 30
0.0
 10
139.2276053942
 20
245.575357662
 30
0.0
  0
SPLINE
  5
740
100
AcDbEntity
  8
0
100
AcDbSpline
 62
7
  6
CONTINUOUS
 70
0
 71
3
 72
8
 73
4
 74
0
 42
0.0000001
 43
0.0000001
 44
0.0000000001
 40
0.0
 40
0.0
 40
0.0
 40
0.0
 40
1.0
 40
1.0
 40
1.0
 40
1.0
 10
151.3950798317
 20
258.5083654959
 30
0.0
 10
151.458853415
 20
259.2373008891
 30
0.0
 10
151.4771471691
 20
259.9727906122
 30
0.0
 10
151.4332569448
 20
260.7031929162
 30
0.0
  0
SPLINE
  5
741
100
AcDbEntity
  8
0
100
AcDbSpline
 62
7
  6
CONTINUOUS
 70
0
 71
3
 72
9
 73
5
 74
0
 42
0.0000001
 43
0.0000001
 44
0.0000000001
 40
0.0
 40
0.0
 40
0.0
 40
0.0
 40
0.2511490004
 40
1.0
 40
1.0
 40
1.0
 40
1.0
 10
151.4281425475
 20
261.7058358642
 30
0.0
 10
151.4471847217
 20
261.8030761449
 30
0.0
 10
151.5159324085
 20
262.1916558441
 30
0.0
 10
151.5642255993
 20
262.5834773296
 30
0.0
 10
151.5973328954
 20
262.877064869
 30
0.0
  0
SPLINE
  5
742
100
AcDbEntity
  8
0
100
AcDbSpline
 62
7
  6
CONTINUOUS
 70
0
 71
3
 72
11
 73
7
 74
0
 42
0.0000001
 43
0.0000001
 44
0.0000000001
 40
0.0
 40
0.0
 40
0.0
 40
0.0
 40
0.3258268283
 40
0.607522583
 40
0.8347299297
 40
1.0
 40
1.0
 40
1.0
 40
1.0
 10
151.4332569448
 20
260.7031929162
 30
0.0
 10
151.4267137843
 20
260.81208139
 30
0.0
 10
151.4146575766
 20
261.0151048696
 30
0.0
 10
151.4039350277
 20
261.2944654532
 30
0.0
 10
151.4058535187
 20
261.520150828
 30
0.0
 10
151.417509179
 20
261.6515357764
 30
0.0
 10
151.4281425475
 20
261.7058358642
 30
0.0
  0
SPLINE
  5
743
100
AcDbEntity
  8
0
100
AcDbSpline
 62
7
  6
CONTINUOUS
 70
0
 71
3
 72
10
 73
6
 74
0
 42
0.0000001
 43
0.0000001
 44
0.0000000001
 40
0.0
 40
0.0
 40
0.0
 40
0.0
 40
0.2506804252
 40
0.6256555879
 40
1.0
 40
1.0
 40
1.0
 40
1.0
 10
151.5973328954
 20
262.877064869
 30
0.0
 10
151.6178510215
 20
263.0586116173
 30
0.0
 10
151.6646332234
 20
263.5122618694
 30
0.0
 10
151.7104888334
 20
264.2399047899
 30
0.0
 10
151.7161452732
 20
264.7864445889
 30
0.0
 10
151.7085127947
 20
265.0591699295
 30
0.0
  0
SPLINE
  5
744
100
AcDbEntity
  8
0
100
AcDbSpline
 62
7
  6
CONTINUOUS
 70
0
 71
3
 72
11
 73
7
 74
0
 42
0.0000001
 43
0.0000001
 44
0.0000000001
 40
0.0
 40
0.0
 40
0.0
 40
0.0
 40
0.2405206921
 40
0.4840232546
 40
0.7345143579
 40
1.0
 40
1.0
 40
1.0
 40
1.0
 10
151.6994951168
 20
265.2084641613
 30
0.0
 10
151.6784117758
 20
265.437281063
 30
0.0
 10
151.6232593567
 20
265.8967837901
 30
0.0
 10
151.4821811113
 20
266.5853622581
 30
0.0
 10
151.2532230918
 20
267.2760674504
 30
0.0
 10
151.0245275902
 20
267.7162600978
 30
0.0
 10
150.8871409809
 20
267.9294656489
 30
0.0
  0
SPLINE
  5
745
100
AcDbEntity
  8
BEZUGSACHSEN
100
AcDbSpline
 62
7
  6
CONTINUOUS
 70
0
 71
3
 72
11
 73
7
 74
0
 42
0.0000001
 43
0.0000001
 44
0.0000000001
 40
0.0
 40
0.0
 40
0.0
 40
0.0
 40
0.261635636
 40
0.5144889974
 40
0.7595899979
 40
1.0
 40
1.0
 40
1.0
 40
1.0
 10
111.2371742749
 20
217.0076688791
 30
0.0
 10
111.5140820475
 20
217.1675416561
 30
0.0
 10
112.0711699028
 20
217.4611472983
 30
0.0
 10
112.9349743546
 20
217.8069796023
 30
0.0
 10
113.8130247521
 20
218.0282494869
 30
0.0
 10
114.4074702348
 20
218.0794656488
 30
0.0
 10
114.7012758894
 20
218.0794656489
 30
0.0
  0
SPLINE
  5
746
100
AcDbEntity
  8
BEZUGSACHSEN
100
AcDbSpline
 62
7
  6
CONTINUOUS
 70
0
 71
3
 72
11
 73
7
 74
0
 42
0.0000001
 43
0.0000001
 44
0.0000000001
 40
0.0
 40
0.0
 40
0.0
 40
0.0
 40
0.2404100398
 40
0.4855110518
 40
0.7383643655
 40
1.0
 40
1.0
 40
1.0
 40
1.0
 10
114.7012758894
 20
218.0794656489
 30
0.0
 10
114.9950815901
 20
218.0794656489
 30
0.0
 10
115.5895271337
 20
218.0282494748
 30
0.0
 10
116.4675775267
 20
217.8069795631
 30
0.0
 10
117.3313819305
 20
217.4611472665
 30
0.0
 10
117.8884697343
 20
217.1675416552
 30
0.0
 10
118.1653775052
 20
217.0076688791
 30
0.0
  0
SPLINE
  5
747
100
AcDbEntity
  8
BEZUGSACHSEN
100
AcDbSpline
 62
7
  6
CONTINUOUS
 70
0
 71
3
 72
10
 73
6
 74
0
 42
0.0000001
 43
0.0000001
 44
0.0000000001
 40
0.0
 40
0.0
 40
0.0
 40
0.0
 40
0.4998915143
 40
0.7499457876
 40
1.0
 40
1.0
 40
1.0
 40
1.0
 10
118.1653775052
 20
217.0076688791
 30
0.0
 10
119.2910347787
 20
217.3326181441
 30
0.0
 10
121.007147828
 20
217.7388620969
 30
0.0
 10
123.3347648062
 20
218.0294573676
 30
0.0
 10
124.5075159252
 20
218.0794656489
 30
0.0
 10
125.0935807355
 20
218.0794656489
 30
0.0
  0
SPLINE
  5
748
100
AcDbEntity
  8
BEZUGSACHSEN
100
AcDbSpline
 62
7
  6
CONTINUOUS
 70
0
 71
3
 72
10
 73
6
 74
0
 42
0.0000001
 43
0.0000001
 44
0.0000000001
 40
0.0
 40
0.0
 40
0.0
 40
0.0
 40
0.2500542352
 40
0.5001085202
 40
1.0
 40
1.0
 40
1.0
 40
1.0
 10
125.0935807355
 20
218.0794656489
 30
0.0
 10
125.6796455994
 20
218.0794656489
 30
0.0
 10
126.8523967993
 20
218.029457357
 30
0.0
 10
129.1800137748
 20
217.7388620647
 30
0.0
 10
130.89612677
 20
217.3326181216
 30
0.0
 10
132.0217839658
 20
217.0076688791
 30
0.0
  0
SPLINE
  5
749
100
AcDbEntity
  8
BEZUGSACHSEN
100
AcDbSpline
 62
7
  6
CONTINUOUS
 70
0
 71
3
 72
11
 73
7
 74
0
 42
0.0000001
 43
0.0000001
 44
0.0000000001
 40
0.0
 40
0.0
 40
0.0
 40
0.0
 40
0.261635636
 40
0.5144889974
 40
0.7595899979
 40
1.0
 40
1.0
 40
1.0
 40
1.0
 10
132.0217839658
 20
217.0076688791
 30
0.0
 10
132.2986917383
 20
217.1675416561
 30
0.0
 10
132.8557795936
 20
217.4611472983
 30
0.0
 10
133.7195840454
 20
217.8069796023
 30
0.0
 10
134.5976344429
 20
218.0282494869
 30
0.0
 10
135.1920799256
 20
218.0794656488
 30
0.0
 10
135.4858855802
 20
218.0794656489
 30
0.0
  0
SPLINE
  5
74A
100
AcDbEntity
  8
BEZUGSACHSEN
100
AcDbSpline
 62
7
  6
CONTINUOUS
 70
0
 71
3
 72
9
 73
5
 74
0
 42
0.0000001
 43
0.0000001
 44
0.0000000001
 40
0.0
 40
0.0
 40
0.0
 40
0.0
 40
0.4961584454
 40
1.0
 40
1.0
 40
1.0
 40
1.0
 10
135.4858855802
 20
218.0794656489
 30
0.0
 10
135.74465609
 20
218.0794656489
 30
0.0
 10
136.2669074691
 20
218.0399855797
 30
0.0
 10
136.777679671
 20
217.9263121889
 30
0.0
 10
137.0302101216
 20
217.8536454866
 30
0.0
  0
SPLINE
  5
74B
100
AcDbEntity
  8
BEZUGSACHSEN
100
AcDbSpline
 62
7
  6
CONTINUOUS
 70
0
 71
3
 72
9
 73
5
 74
0
 42
0.0000001
 43
0.0000001
 44
0.0000000001
 40
0.0
 40
0.0
 40
0.0
 40
0.0
 40
0.2431746274
 40
1.0
 40
1.0
 40
1.0
 40
1.0
 10
137.0302101216
 20
217.8536454866
 30
0.0
 10
137.1938780701
 20
217.8065493441
 30
0.0
 10
137.8592615449
 20
217.5860352657
 30
0.0
 10
138.4909516494
 20
217.2726931755
 30
0.0
 10
138.949987196
 20
217.0076688791
 30
0.0
  0
LINE
  5
74C
100
AcDbEntity
  8
0
100
AcDbLine
 62
7
  6
CONTINUOUS
 10
104.6010170641
 20
184.0201039157
 11
104.5996762129
 21
184.0945718913
  0
SPLINE
  5
74D
100
AcDbEntity
  8
BEZUGSACHSEN
100
AcDbSpline
 62
7
  6
CONTINUOUS
 70
0
 71
3
 72
10
 73
6
 74
0
 42
0.0000001
 43
0.0000001
 44
0.0000000001
 40
0.0
 40
0.0
 40
0.0
 40
0.0
 40
0.5015949378
 40
0.7510711204
 40
1.0
 40
1.0
 40
1.0
 40
1.0
 10
262.4636862929
 20
217.0076688791
 30
0.0
 10
263.4341998086
 20
217.3311733843
 30
0.0
 10
264.9179496059
 20
217.7376861888
 30
0.0
 10
266.9387754732
 20
218.0293230297
 30
0.0
 10
267.9559917751
 20
218.0794656488
 30
0.0
 10
268.4636862917
 20
218.0794656489
 30
0.0
  0
SPLINE
  5
74E
100
AcDbEntity
  8
BEZUGSACHSEN
100
AcDbSpline
 62
7
  6
CONTINUOUS
 70
0
 71
3
 72
10
 73
6
 74
0
 42
0.0000001
 43
0.0000001
 44
0.0000000001
 40
0.0
 40
0.0
 40
0.0
 40
0.0
 40
0.2489289184
 40
0.4984051116
 40
1.0
 40
1.0
 40
1.0
 40
1.0
 10
268.4636862917
 20
218.0794656489
 30
0.0
 10
268.9713808876
 20
218.0794656489
 30
0.0
 10
269.9885972911
 20
218.0293230183
 30
0.0
 10
272.0094231541
 20
217.7376861401
 30
0.0
 10
273.4931728723
 20
217.3311733527
 30
0.0
 10
274.4636862929
 20
217.0076688791
 30
0.0
  0
SPLINE
  5
74F
100
AcDbEntity
  8
BEZUGSACHSEN
100
AcDbSpline
 62
7
  6
CONTINUOUS
 70
0
 71
3
 72
10
 73
6
 74
0
 42
0.0000001
 43
0.0000001
 44
0.0000000001
 40
0.0
 40
0.0
 40
0.0
 40
0.0
 40
0.2489289185
 40
0.4984051116
 40
1.0
 40
1.0
 40
1.0
 40
1.0
 10
256.4636867719
 20
218.0794656714
 30
0.0
 10
256.9713813282
 20
218.0794656403
 30
0.0
 10
257.988597649
 20
218.0293229758
 30
0.0
 10
260.0094233493
 20
217.7376860913
 30
0.0
 10
261.4931729482
 20
217.3311733274
 30
0.0
 10
262.4636862929
 20
217.0076688791
 30
0.0
  0
SPLINE
  5
750
100
AcDbEntity
  8
BEZUGSACHSEN
100
AcDbSpline
 62
7
  6
CONTINUOUS
 70
0
 71
3
 72
10
 73
6
 74
0
 42
0.0000001
 43
0.0000001
 44
0.0000000001
 40
0.0
 40
0.0
 40
0.0
 40
0.0
 40
0.5015949377
 40
0.7510711203
 40
1.0
 40
1.0
 40
1.0
 40
1.0
 10
250.4636862929
 20
217.0076688791
 30
0.0
 10
251.4341998847
 20
217.3311734097
 30
0.0
 10
252.9179498009
 20
217.7376862423
 30
0.0
 10
254.9387758334
 20
218.0293230653
 30
0.0
 10
255.9559922153
 20
218.0794656713
 30
0.0
 10
256.4636867719
 20
218.0794656714
 30
0.0
  0
LINE
  5
751
100
AcDbEntity
  8
0
100
AcDbLine
 62
7
  6
CONTINUOUS
 10
281.4636862929
 20
203.2749093595
 11
281.4636862929
 21
203.364150332
  0
LINE
  5
752
100
AcDbEntity
  8
0
100
AcDbLine
 62
7
  6
CONTINUOUS
 10
281.4636862929
 20
203.364150332
 11
281.4636862929
 21
203.4536179044
  0
LINE
  5
753
100
AcDbEntity
  8
0
100
AcDbLine
 62
7
  6
CONTINUOUS
 10
243.4636862929
 20
203.4536179044
 11
243.4636862929
 21
203.3641462937
  0
LINE
  5
754
100
AcDbEntity
  8
0
100
AcDbLine
 62
7
  6
CONTINUOUS
 10
243.4636862929
 20
203.3641462937
 11
243.4636862929
 21
203.2749093595
  0
LINE
  5
755
100
AcDbEntity
  8
0
100
AcDbLine
 62
7
  6
CONTINUOUS
 10
289.6300412521
 20
231.6048949761
 11
289.6300414038
 21
205.6794656489
  0
SPLINE
  5
756
100
AcDbEntity
  8
0
100
AcDbSpline
 62
7
  6
CONTINUOUS
 70
0
 71
3
 72
13
 73
9
 74
0
 42
0.0000001
 43
0.0000001
 44
0.0000000001
 40
0.0
 40
0.0
 40
0.0
 40
0.0
 40
0.2499931616
 40
0.4999836117
 40
0.6249878063
 40
0.7499917387
 40
0.8749952241
 40
1.0
 40
1.0
 40
1.0
 40
1.0
 10
254.0802143987
 20
267.420596609
 30
0.0
 10
253.5305800942
 20
267.285740956
 30
0.0
 10
252.4377245208
 20
266.9891677348
 30
0.0
 10
251.0914153144
 20
266.5521920318
 30
0.0
 10
250.0284376473
 20
266.162976176
 30
0.0
 10
249.238350155
 20
265.8521136698
 30
0.0
 10
248.4566227949
 20
265.520745929
 30
0.0
 10
247.9413787604
 20
265.2864464345
 30
0.0
 10
247.6845048389
 20
265.1677145219
 30
0.0
  0
SPLINE
  5
757
100
AcDbEntity
  8
0
100
AcDbSpline
 62
7
  6
CONTINUOUS
 70
0
 71
3
 72
8
 73
4
 74
0
 42
0.0000001
 43
0.0000001
 44
0.0000000001
 40
0.0
 40
0.0
 40
0.0
 40
0.0
 40
1.0
 40
1.0
 40
1.0
 40
1.0
 10
241.6928269976
 20
261.3424760492
 30
0.0
 10
241.7647834533
 20
261.3983540621
 30
0.0
 10
241.8352160743
 20
261.4562975273
 30
0.0
 10
241.9033412742
 20
261.5167875347
 30
0.0
  0
SPLINE
  5
758
100
AcDbEntity
  8
0
100
AcDbSpline
 62
7
  6
CONTINUOUS
 70
0
 71
3
 72
9
 73
5
 74
0
 42
0.0000001
 43
0.0000001
 44
0.0000000001
 40
0.0
 40
0.0
 40
0.0
 40
0.0
 40
0.5002440717
 40
1.0
 40
1.0
 40
1.0
 40
1.0
 10
241.6928269976
 20
261.3424760492
 30
0.0
 10
240.9038745465
 20
260.7298125314
 30
0.0
 10
239.4209806391
 20
259.3767454943
 30
0.0
 10
238.2071232218
 20
257.7732165123
 30
0.0
 10
237.6875182397
 20
256.9212383222
 30
0.0
  0
SPLINE
  5
759
100
AcDbEntity
  8
0
100
AcDbSpline
 62
7
  6
CONTINUOUS
 70
0
 71
3
 72
9
 73
5
 74
0
 42
0.0000001
 43
0.0000001
 44
0.0000000001
 40
0.0
 40
0.0
 40
0.0
 40
0.0
 40
0.5001254902
 40
1.0
 40
1.0
 40
1.0
 40
1.0
 10
247.6845048389
 20
265.1677145219
 30
0.0
 10
246.646883829
 20
264.6884005856
 30
0.0
 10
244.6151436937
 20
263.6298448479
 30
0.0
 10
242.7575942599
 20
262.2752993552
 30
0.0
 10
241.9033412742
 20
261.5167875347
 30
0.0
  0
SPLINE
  5
75A
100
AcDbEntity
  8
0
100
AcDbSpline
 62
7
  6
CONTINUOUS
 70
0
 71
3
 72
8
 73
4
 74
0
 42
0.0000001
 43
0.0000001
 44
0.0000000001
 40
0.0
 40
0.0
 40
0.0
 40
0.0
 40
1.0
 40
1.0
 40
1.0
 40
1.0
 10
237.6875182397
 20
256.9212383222
 30
0.0
 10
237.4746855118
 20
256.5722376967
 30
0.0
 10
237.2691500378
 20
256.2188255965
 30
0.0
 10
237.0567548111
 20
255.8695585435
 30
0.0
  0
SPLINE
  5
75B
100
AcDbEntity
  8
0
100
AcDbSpline
 62
7
  6
CONTINUOUS
 70
0
 71
3
 72
8
 73
4
 74
0
 42
0.0000001
 43
0.0000001
 44
0.0000000001
 40
0.0
 40
0.0
 40
0.0
 40
0.0
 40
1.0
 40
1.0
 40
1.0
 40
1.0
 10
237.0567548111
 20
255.8695585435
 30
0.0
 10
236.9450660452
 20
255.6859155895
 30
0.0
 10
236.83248839
 20
255.5027332838
 30
0.0
 10
236.7261372798
 20
255.3159484977
 30
0.0
  0
SPLINE
  5
75C
100
AcDbEntity
  8
0
100
AcDbSpline
 62
7
  6
CONTINUOUS
 70
0
 71
3
 72
9
 73
5
 74
0
 42
0.0000001
 43
0.0000001
 44
0.0000000001
 40
0.0
 40
0.0
 40
0.0
 40
0.0
 40
0.2501634381
 40
1.0
 40
1.0
 40
1.0
 40
1.0
 10
235.4135701305
 20
252.1981019208
 30
0.0
 10
235.3579311748
 20
251.9459910408
 30
0.0
 10
235.1603806654
 20
250.9329306589
 30
0.0
 10
235.0645509749
 20
249.8996331622
 30
0.0
 10
235.0551884845
 20
249.1258321833
 30
0.0
  0
SPLINE
  5
75D
100
AcDbEntity
  8
0
100
AcDbSpline
 62
7
  6
CONTINUOUS
 70
0
 71
3
 72
9
 73
5
 74
0
 42
0.0000001
 43
0.0000001
 44
0.0000000001
 40
0.0
 40
0.0
 40
0.0
 40
0.0
 40
0.5000000216
 40
1.0
 40
1.0
 40
1.0
 40
1.0
 10
235.0453052571
 20
246.8040096395
 30
0.0
 10
235.0439227077
 20
246.026173788
 30
0.0
 10
235.0464462213
 20
244.4704978647
 30
0.0
 10
235.045292734
 20
242.9148243901
 30
0.0
 10
235.0453393366
 20
242.1369873787
 30
0.0
  0
LINE
  5
75E
100
AcDbEntity
  8
0
100
AcDbLine
 62
7
  6
CONTINUOUS
 10
235.0453574201
 20
241.8291234318
 11
235.0453647637
 21
231.0882869496
  0
SPLINE
  5
75F
100
AcDbEntity
  8
0
100
AcDbSpline
 62
7
  6
CONTINUOUS
 70
0
 71
3
 72
8
 73
4
 74
0
 42
0.0000001
 43
0.0000001
 44
0.0000000001
 40
0.0
 40
0.0
 40
0.0
 40
0.0
 40
1.0
 40
1.0
 40
1.0
 40
1.0
 10
289.8721841014
 20
249.1258321833
 30
0.0
 10
289.881547895
 20
248.3519409709
 30
0.0
 10
289.8820672655
 20
247.577957499
 30
0.0
 10
289.8820673287
 20
246.8040096395
 30
0.0
  0
LINE
  5
760
100
AcDbEntity
  8
0
100
AcDbLine
 62
7
  6
CONTINUOUS
 10
235.2973313337
 20
231.6048949761
 11
235.297331182
 21
205.6794656489
  0
SPLINE
  5
761
100
AcDbEntity
  8
0
100
AcDbSpline
 62
7
  6
CONTINUOUS
 70
0
 71
3
 72
13
 73
9
 74
0
 42
0.0000001
 43
0.0000001
 44
0.0000000001
 40
0.0
 40
0.0
 40
0.0
 40
0.0
 40
0.2499931616
 40
0.4999836117
 40
0.6249878063
 40
0.7499917387
 40
0.8749952241
 40
1.0
 40
1.0
 40
1.0
 40
1.0
 10
270.8471581872
 20
267.420596609
 30
0.0
 10
271.3967924917
 20
267.285740956
 30
0.0
 10
272.4896480651
 20
266.9891677348
 30
0.0
 10
273.8359572714
 20
266.5521920318
 30
0.0
 10
274.8989349385
 20
266.162976176
 30
0.0
 10
275.6890224308
 20
265.8521136698
 30
0.0
 10
276.4707497909
 20
265.520745929
 30
0.0
 10
276.9859938255
 20
265.2864464345
 30
0.0
 10
277.242867747
 20
265.1677145219
 30
0.0
  0
SPLINE
  5
762
100
AcDbEntity
  8
RUNDUNGEN
100
AcDbSpline
 62
7
  6
CONTINUOUS
 70
0
 71
3
 72
8
 73
4
 74
0
 42
0.0000001
 43
0.0000001
 44
0.0000000001
 40
0.0
 40
0.0
 40
0.0
 40
0.0
 40
1.0
 40
1.0
 40
1.0
 40
1.0
 10
283.2345455883
 20
261.3424760492
 30
0.0
 10
283.1625891326
 20
261.3983540621
 30
0.0
 10
283.0921565116
 20
261.4562975273
 30
0.0
 10
283.0240313117
 20
261.5167875347
 30
0.0
  0
SPLINE
  5
763
100
AcDbEntity
  8
RUNDUNGEN
100
AcDbSpline
 62
7
  6
CONTINUOUS
 70
0
 71
3
 72
9
 73
5
 74
0
 42
0.0000001
 43
0.0000001
 44
0.0000000001
 40
0.0
 40
0.0
 40
0.0
 40
0.0
 40
0.5001254902
 40
1.0
 40
1.0
 40
1.0
 40
1.0
 10
277.242867747
 20
265.1677145219
 30
0.0
 10
278.2804887569
 20
264.6884005856
 30
0.0
 10
280.3122288921
 20
263.6298448479
 30
0.0
 10
282.1697783259
 20
262.2752993552
 30
0.0
 10
283.0240313117
 20
261.5167875347
 30
0.0
  0
SPLINE
  5
764
100
AcDbEntity
  8
RUNDUNGEN
100
AcDbSpline
 62
7
  6
CONTINUOUS
 70
0
 71
3
 72
9
 73
5
 74
0
 42
0.0000001
 43
0.0000001
 44
0.0000000001
 40
0.0
 40
0.0
 40
0.0
 40
0.0
 40
0.5002440717
 40
1.0
 40
1.0
 40
1.0
 40
1.0
 10
283.2345455883
 20
261.3424760492
 30
0.0
 10
284.0234980393
 20
260.7298125314
 30
0.0
 10
285.5063919467
 20
259.3767454943
 30
0.0
 10
286.720249364
 20
257.7732165123
 30
0.0
 10
287.2398543461
 20
256.9212383222
 30
0.0
  0
SPLINE
  5
765
100
AcDbEntity
  8
0
100
AcDbSpline
 62
7
  6
CONTINUOUS
 70
0
 71
3
 72
8
 73
4
 74
0
 42
0.0000001
 43
0.0000001
 44
0.0000000001
 40
0.0
 40
0.0
 40
0.0
 40
0.0
 40
1.0
 40
1.0
 40
1.0
 40
1.0
 10
287.2398543461
 20
256.9212383222
 30
0.0
 10
287.452687074
 20
256.5722376967
 30
0.0
 10
287.658222548
 20
256.2188255965
 30
0.0
 10
287.8706177748
 20
255.8695585435
 30
0.0
  0
SPLINE
  5
766
100
AcDbEntity
  8
0
100
AcDbSpline
 62
7
  6
CONTINUOUS
 70
0
 71
3
 72
8
 73
4
 74
0
 42
0.0000001
 43
0.0000001
 44
0.0000000001
 40
0.0
 40
0.0
 40
0.0
 40
0.0
 40
1.0
 40
1.0
 40
1.0
 40
1.0
 10
287.8706177748
 20
255.8695585435
 30
0.0
 10
287.9823065407
 20
255.6859155895
 30
0.0
 10
288.0948841958
 20
255.5027332838
 30
0.0
 10
288.2012353061
 20
255.3159484977
 30
0.0
  0
SPLINE
  5
767
100
AcDbEntity
  8
RUNDUNGEN
100
AcDbSpline
 62
7
  6
CONTINUOUS
 70
0
 71
3
 72
9
 73
5
 74
0
 42
0.0000001
 43
0.0000001
 44
0.0000000001
 40
0.0
 40
0.0
 40
0.0
 40
0.0
 40
0.2501634381
 40
1.0
 40
1.0
 40
1.0
 40
1.0
 10
289.5138024554
 20
252.1981019208
 30
0.0
 10
289.569441411
 20
251.9459910408
 30
0.0
 10
289.7669919205
 20
250.9329306589
 30
0.0
 10
289.862821611
 20
249.8996331622
 30
0.0
 10
289.8721841014
 20
249.1258321833
 30
0.0
  0
SPLINE
  5
768
100
AcDbEntity
  8
0
100
AcDbSpline
 62
7
  6
CONTINUOUS
 70
0
 71
3
 72
9
 73
5
 74
0
 42
0.0000001
 43
0.0000001
 44
0.0000000001
 40
0.0
 40
0.0
 40
0.0
 40
0.0
 40
0.5000000216
 40
1.0
 40
1.0
 40
1.0
 40
1.0
 10
289.8820673287
 20
246.8040096395
 30
0.0
 10
289.8834498782
 20
246.026173788
 30
0.0
 10
289.8809263645
 20
244.4704978647
 30
0.0
 10
289.8820798519
 20
242.9148243901
 30
0.0
 10
289.8820332493
 20
242.1369873787
 30
0.0
  0
SPLINE
  5
769
100
AcDbEntity
  8
0
100
AcDbSpline
 62
7
  6
CONTINUOUS
 70
0
 71
3
 72
8
 73
4
 74
0
 42
0.0000001
 43
0.0000001
 44
0.0000000001
 40
0.0
 40
0.0
 40
0.0
 40
0.0
 40
1.0
 40
1.0
 40
1.0
 40
1.0
 10
235.0551884845
 20
249.1258321833
 30
0.0
 10
235.0458246908
 20
248.3519409709
 30
0.0
 10
235.0453053203
 20
247.577957499
 30
0.0
 10
235.0453052571
 20
246.8040096395
 30
0.0
  0
LINE
  5
76A
100
AcDbEntity
  8
0
100
AcDbLine
 62
7
  6
CONTINUOUS
 10
289.8820151657
 20
241.8291234318
 11
289.8820078221
 21
231.0882869496
  0
SPLINE
  5
76B
100
AcDbEntity
  8
0
100
AcDbSpline
 62
7
  6
CONTINUOUS
 70
0
 71
3
 72
16
 73
12
 74
0
 42
0.0000001
 43
0.0000001
 44
0.0000000001
 40
0.0
 40
0.0
 40
0.0
 40
0.0
 40
0.0040173258
 40
0.0161031071
 40
0.0362128514
 40
0.0642989894
 40
0.1442116516
 40
0.2554671786
 40
0.3976219354
 40
0.5697851126
 40
1.0
 40
1.0
 40
1.0
 40
1.0
 10
150.9112800994
 20
108.2806401216
 30
0.0
 10
150.9110191021
 20
108.2807378795
 30
0.0
 10
150.9121296393
 20
108.2787660594
 30
0.0
 10
150.9120206559
 20
108.2772114706
 30
0.0
 10
150.9135768274
 20
108.2726910077
 30
0.0
 10
150.9156487375
 20
108.2644133582
 30
0.0
 10
150.9197717194
 20
108.2494978215
 30
0.0
 10
150.9254849279
 20
108.2272196429
 30
0.0
 10
150.9327289883
 20
108.1985475852
 30
0.0
 10
150.9447683272
 20
108.1483404916
 30
0.0
 10
150.9536483734
 20
108.1074853338
 30
0.0
 10
150.9595560768
 20
108.078229423
 30
0.0
  0
SPLINE
  5
76C
100
AcDbEntity
  8
0
100
AcDbSpline
 62
7
  6
CONTINUOUS
 70
0
 71
3
 72
11
 73
7
 74
0
 42
0.0000001
 43
0.0000001
 44
0.0000000001
 40
0.0
 40
0.0
 40
0.0
 40
0.0
 40
0.2511445537
 40
0.5010613481
 40
0.7501070698
 40
1.0
 40
1.0
 40
1.0
 40
1.0
 10
139.2133237349
 20
58.0642164416
 30
0.0
 10
139.247766037
 20
58.2944778055
 30
0.0
 10
139.3194064436
 20
58.7534390688
 30
0.0
 10
139.3889915729
 20
59.4460942325
 30
0.0
 10
139.3896047624
 20
60.1416271128
 30
0.0
 10
139.3439940915
 20
60.6024872096
 30
0.0
 10
139.3147283426
 20
60.8322939416
 30
0.0
  0
SPLINE
  5
76D
100
AcDbEntity
  8
0
100
AcDbSpline
 62
7
  6
CONTINUOUS
 70
0
 71
3
 72
9
 73
5
 74
0
 42
0.0000001
 43
0.0000001
 44
0.0000000001
 40
0.0
 40
0.0
 40
0.0
 40
0.0
 40
0.2474291342
 40
1.0
 40
1.0
 40
1.0
 40
1.0
 10
139.3147283426
 20
60.8322939416
 30
0.0
 10
139.3092292552
 20
60.8754763765
 30
0.0
 10
139.2818171346
 20
61.049354722
 30
0.0
 10
139.2375270217
 20
61.2201333428
 30
0.0
 10
139.1999253751
 20
61.3470844961
 30
0.0
  0
SPLINE
  5
76E
100
AcDbEntity
  8
0
100
AcDbSpline
 62
7
  6
CONTINUOUS
 70
0
 71
3
 72
9
 73
5
 74
0
 42
0.0000001
 43
0.0000001
 44
0.0000000001
 40
0.0
 40
0.0
 40
0.0
 40
0.0
 40
0.2509770573
 40
1.0
 40
1.0
 40
1.0
 40
1.0
 10
139.1999253751
 20
61.3470844961
 30
0.0
 10
139.1835446761
 20
61.4023888109
 30
0.0
 10
139.1188322208
 20
61.6228976379
 30
0.0
 10
139.057985255
 20
61.8446304022
 30
0.0
 10
139.0177748336
 20
62.012007641
 30
0.0
  0
SPLINE
  5
76F
100
AcDbEntity
  8
RUNDUNGEN
100
AcDbSpline
 62
7
  6
CONTINUOUS
 70
0
 71
3
 72
9
 73
5
 74
0
 42
0.0000001
 43
0.0000001
 44
0.0000000001
 40
0.0
 40
0.0
 40
0.0
 40
0.0
 40
0.2550613115
 40
1.0
 40
1.0
 40
1.0
 40
1.0
 10
139.6011913393
 20
61.7162017733
 30
0.0
 10
139.5999772363
 20
61.734072103
 30
0.0
 10
139.5957206258
 20
61.8041665287
 30
0.0
 10
139.5935807355
 20
61.8744031848
 30
0.0
 10
139.5935807355
 20
61.9267160499
 30
0.0
  0
SPLINE
  5
770
100
AcDbEntity
  8
RUNDUNGEN
100
AcDbSpline
 62
7
  6
CONTINUOUS
 70
0
 71
3
 72
9
 73
5
 74
0
 42
0.0000001
 43
0.0000001
 44
0.0000000001
 40
0.0
 40
0.0
 40
0.0
 40
0.0
 40
0.5497183648
 40
1.0
 40
1.0
 40
1.0
 40
1.0
 10
139.6011913393
 20
61.7162017733
 30
0.0
 10
139.6511788197
 20
60.9804382145
 30
0.0
 10
139.7555501758
 20
59.6429145536
 30
0.0
 10
139.9022234765
 20
58.3088350063
 30
0.0
 10
139.9879995192
 20
57.7108930155
 30
0.0
  0
SPLINE
  5
771
100
AcDbEntity
  8
RUNDUNGEN
100
AcDbSpline
 62
7
  6
CONTINUOUS
 70
0
 71
3
 72
9
 73
5
 74
0
 42
0.0000001
 43
0.0000001
 44
0.0000000001
 40
0.0
 40
0.0
 40
0.0
 40
0.0
 40
0.2512132149
 40
1.0
 40
1.0
 40
1.0
 40
1.0
 10
138.7920816393
 20
63.2037421032
 30
0.0
 10
138.7850324557
 20
63.2430399553
 30
0.0
 10
138.75910995
 20
63.3998422725
 30
0.0
 10
138.7422151559
 20
63.5581841847
 30
0.0
 10
138.7354680923
 20
63.6769967501
 30
0.0
  0
SPLINE
  5
772
100
AcDbEntity
  8
0
100
AcDbSpline
 62
7
  6
CONTINUOUS
 70
0
 71
3
 72
9
 73
5
 74
0
 42
0.0000001
 43
0.0000001
 44
0.0000000001
 40
0.0
 40
0.0
 40
0.0
 40
0.0
 40
0.2512003088
 40
1.0
 40
1.0
 40
1.0
 40
1.0
 10
139.9879995192
 20
57.7108930155
 30
0.0
 10
139.9955792408
 20
57.6580589929
 30
0.0
 10
140.0261061849
 20
57.4477834707
 30
0.0
 10
140.057352753
 20
57.237612845
 30
0.0
 10
140.0800095775
 20
57.0801295868
 30
0.0
  0
SPLINE
  5
773
100
AcDbEntity
  8
0
100
AcDbSpline
 62
7
  6
CONTINUOUS
 70
0
 71
3
 72
9
 73
5
 74
0
 42
0.0000001
 43
0.0000001
 44
0.0000000001
 40
0.0
 40
0.0
 40
0.0
 40
0.0
 40
0.2536747968
 40
1.0
 40
1.0
 40
1.0
 40
1.0
 10
140.0800095775
 20
57.0801295868
 30
0.0
 10
140.0840326925
 20
57.052162586
 30
0.0
 10
140.0998128766
 20
56.9419041366
 30
0.0
 10
140.1158192712
 20
56.8316751927
 30
0.0
 10
140.1284441805
 20
56.7495120555
 30
0.0
  0
SPLINE
  5
774
100
AcDbEntity
  8
RUNDUNGEN
100
AcDbSpline
 62
7
  6
CONTINUOUS
 70
0
 71
3
 72
9
 73
5
 74
0
 42
0.0000001
 43
0.0000001
 44
0.0000000001
 40
0.0
 40
0.0
 40
0.0
 40
0.0
 40
0.2193081084
 40
1.0
 40
1.0
 40
1.0
 40
1.0
 10
140.3935807355
 20
55.4369449063
 30
0.0
 10
140.3935807355
 20
55.4403316179
 30
0.0
 10
140.3927699362
 20
55.4557756631
 30
0.0
 10
140.3893122039
 20
55.470968762
 30
0.0
 10
140.3859701317
 20
55.4825522701
 30
0.0
  0
SPLINE
  5
775
100
AcDbEntity
  8
RUNDUNGEN
100
AcDbSpline
 62
7
  6
CONTINUOUS
 70
0
 71
3
 72
9
 73
5
 74
0
 42
0.0000001
 43
0.0000001
 44
0.0000000001
 40
0.0
 40
0.0
 40
0.0
 40
0.0
 40
0.5618565954
 40
1.0
 40
1.0
 40
1.0
 40
1.0
 10
140.1284441805
 20
56.7495120555
 30
0.0
 10
140.1652360076
 20
56.510076081
 30
0.0
 10
140.2378383914
 20
56.085016022
 30
0.0
 10
140.3336028033
 20
55.6640556392
 30
0.0
 10
140.3859701317
 20
55.4825522701
 30
0.0
  0
SPLINE
  5
776
100
AcDbEntity
  8
0
100
AcDbSpline
 62
7
  6
CONTINUOUS
 70
0
 71
3
 72
9
 73
5
 74
0
 42
0.0000001
 43
0.0000001
 44
0.0000000001
 40
0.0
 40
0.0
 40
0.0
 40
0.0
 40
0.7489407268
 40
1.0
 40
1.0
 40
1.0
 40
1.0
 10
139.1688809072
 20
57.4951453437
 30
0.0
 10
139.169265094
 20
57.6377131031
 30
0.0
 10
139.1812144834
 20
57.8282420702
 30
0.0
 10
139.206253759
 20
58.0169506606
 30
0.0
 10
139.2133237349
 20
58.0642164416
 30
0.0
  0
SPLINE
  5
777
100
AcDbEntity
  8
0
100
AcDbSpline
 62
7
  6
CONTINUOUS
 70
0
 71
3
 72
16
 73
12
 74
0
 42
0.0000001
 43
0.0000001
 44
0.0000000001
 40
0.0
 40
0.0
 40
0.0
 40
0.0
 40
0.0040173258
 40
0.0161031071
 40
0.0362128514
 40
0.0642989894
 40
0.1442116516
 40
0.2554671786
 40
0.3976219354
 40
0.5697851126
 40
1.0
 40
1.0
 40
1.0
 40
1.0
 10
150.9112800994
 20
56.6934820158
 30
0.0
 10
150.9110191021
 20
56.6933842579
 30
0.0
 10
150.9121296393
 20
56.695356078
 30
0.0
 10
150.9120206559
 20
56.6969106668
 30
0.0
 10
150.9135768274
 20
56.7014311297
 30
0.0
 10
150.9156487375
 20
56.7097087792
 30
0.0
 10
150.9197717194
 20
56.7246243159
 30
0.0
 10
150.9254849279
 20
56.7469024945
 30
0.0
 10
150.9327289883
 20
56.7755745522
 30
0.0
 10
150.9447683272
 20
56.8257816458
 30
0.0
 10
150.9536483734
 20
56.8666368037
 30
0.0
 10
150.9595560768
 20
56.8958927144
 30
0.0
  0
SPLINE
  5
778
100
AcDbEntity
  8
0
100
AcDbSpline
 62
7
  6
CONTINUOUS
 70
0
 71
3
 72
16
 73
12
 74
0
 42
0.0000001
 43
0.0000001
 44
0.0000000001
 40
0.0
 40
0.0
 40
0.0
 40
0.0
 40
0.0040173258
 40
0.0161031071
 40
0.0362128514
 40
0.0642989894
 40
0.1442116516
 40
0.2554671786
 40
0.3976219354
 40
0.5697851126
 40
1.0
 40
1.0
 40
1.0
 40
1.0
 10
139.2758813716
 20
108.2806401216
 30
0.0
 10
139.2761423689
 20
108.2807378795
 30
0.0
 10
139.2750318317
 20
108.2787660594
 30
0.0
 10
139.2751408151
 20
108.2772114706
 30
0.0
 10
139.2735846436
 20
108.2726910077
 30
0.0
 10
139.2715127335
 20
108.2644133582
 30
0.0
 10
139.2673897516
 20
108.2494978215
 30
0.0
 10
139.2616765431
 20
108.2272196429
 30
0.0
 10
139.2544324827
 20
108.1985475852
 30
0.0
 10
139.2423931437
 20
108.1483404916
 30
0.0
 10
139.2335130976
 20
108.1074853338
 30
0.0
 10
139.2276053942
 20
108.078229423
 30
0.0
  0
SPLINE
  5
779
100
AcDbEntity
  8
0
100
AcDbSpline
 62
7
  6
CONTINUOUS
 70
0
 71
3
 72
11
 73
7
 74
0
 42
0.0000001
 43
0.0000001
 44
0.0000000001
 40
0.0
 40
0.0
 40
0.0
 40
0.0
 40
0.2511445537
 40
0.5010613481
 40
0.7501070698
 40
1.0
 40
1.0
 40
1.0
 40
1.0
 10
139.2133237349
 20
106.9099056958
 30
0.0
 10
139.247766037
 20
106.6796443319
 30
0.0
 10
139.3194064436
 20
106.2206830686
 30
0.0
 10
139.3889915729
 20
105.5280279049
 30
0.0
 10
139.3896047624
 20
104.8324950246
 30
0.0
 10
139.3439940915
 20
104.3716349278
 30
0.0
 10
139.3147283426
 20
104.1418281958
 30
0.0
  0
SPLINE
  5
77A
100
AcDbEntity
  8
0
100
AcDbSpline
 62
7
  6
CONTINUOUS
 70
0
 71
3
 72
9
 73
5
 74
0
 42
0.0000001
 43
0.0000001
 44
0.0000000001
 40
0.0
 40
0.0
 40
0.0
 40
0.0
 40
0.2474291342
 40
1.0
 40
1.0
 40
1.0
 40
1.0
 10
139.3147283426
 20
104.1418281958
 30
0.0
 10
139.3092292552
 20
104.0986457609
 30
0.0
 10
139.2818171346
 20
103.9247674154
 30
0.0
 10
139.2375270217
 20
103.7539887946
 30
0.0
 10
139.1999253751
 20
103.6270376414
 30
0.0
  0
SPLINE
  5
77B
100
AcDbEntity
  8
0
100
AcDbSpline
 62
7
  6
CONTINUOUS
 70
0
 71
3
 72
9
 73
5
 74
0
 42
0.0000001
 43
0.0000001
 44
0.0000000001
 40
0.0
 40
0.0
 40
0.0
 40
0.0
 40
0.2509770573
 40
1.0
 40
1.0
 40
1.0
 40
1.0
 10
139.1999253751
 20
103.6270376414
 30
0.0
 10
139.1835446761
 20
103.5717333265
 30
0.0
 10
139.1188322208
 20
103.3512244995
 30
0.0
 10
139.057985255
 20
103.1294917352
 30
0.0
 10
139.0177748336
 20
102.9621144964
 30
0.0
  0
SPLINE
  5
77C
100
AcDbEntity
  8
0
100
AcDbSpline
 62
7
  6
CONTINUOUS
 70
0
 71
3
 72
9
 73
5
 74
0
 42
0.0000001
 43
0.0000001
 44
0.0000000001
 40
0.0
 40
0.0
 40
0.0
 40
0.0
 40
0.2550613115
 40
1.0
 40
1.0
 40
1.0
 40
1.0
 10
139.6011913393
 20
103.2579203641
 30
0.0
 10
139.5999772363
 20
103.2400500344
 30
0.0
 10
139.5957206258
 20
103.1699556087
 30
0.0
 10
139.5935807355
 20
103.0997189526
 30
0.0
 10
139.5935807355
 20
103.0474060875
 30
0.0
  0
SPLINE
  5
77D
100
AcDbEntity
  8
0
100
AcDbSpline
 62
7
  6
CONTINUOUS
 70
0
 71
3
 72
9
 73
5
 74
0
 42
0.0000001
 43
0.0000001
 44
0.0000000001
 40
0.0
 40
0.0
 40
0.0
 40
0.0
 40
0.5497183648
 40
1.0
 40
1.0
 40
1.0
 40
1.0
 10
139.6011913393
 20
103.2579203641
 30
0.0
 10
139.6511788197
 20
103.9936839229
 30
0.0
 10
139.7555501758
 20
105.3312075838
 30
0.0
 10
139.9022234765
 20
106.6652871311
 30
0.0
 10
139.9879995192
 20
107.2632291219
 30
0.0
  0
SPLINE
  5
77E
100
AcDbEntity
  8
0
100
AcDbSpline
 62
7
  6
CONTINUOUS
 70
0
 71
3
 72
9
 73
5
 74
0
 42
0.0000001
 43
0.0000001
 44
0.0000000001
 40
0.0
 40
0.0
 40
0.0
 40
0.0
 40
0.2512132149
 40
1.0
 40
1.0
 40
1.0
 40
1.0
 10
138.7920816393
 20
101.7703800342
 30
0.0
 10
138.7850324557
 20
101.7310821821
 30
0.0
 10
138.75910995
 20
101.5742798649
 30
0.0
 10
138.7422151559
 20
101.4159379527
 30
0.0
 10
138.7354680923
 20
101.2971253873
 30
0.0
  0
SPLINE
  5
77F
100
AcDbEntity
  8
0
100
AcDbSpline
 62
7
  6
CONTINUOUS
 70
0
 71
3
 72
9
 73
5
 74
0
 42
0.0000001
 43
0.0000001
 44
0.0000000001
 40
0.0
 40
0.0
 40
0.0
 40
0.0
 40
0.2512003088
 40
1.0
 40
1.0
 40
1.0
 40
1.0
 10
139.9879995192
 20
107.2632291219
 30
0.0
 10
139.9955792408
 20
107.3160631445
 30
0.0
 10
140.0261061849
 20
107.5263386667
 30
0.0
 10
140.057352753
 20
107.7365092924
 30
0.0
 10
140.0800095775
 20
107.8939925506
 30
0.0
  0
SPLINE
  5
780
100
AcDbEntity
  8
0
100
AcDbSpline
 62
7
  6
CONTINUOUS
 70
0
 71
3
 72
9
 73
5
 74
0
 42
0.0000001
 43
0.0000001
 44
0.0000000001
 40
0.0
 40
0.0
 40
0.0
 40
0.0
 40
0.2536747968
 40
1.0
 40
1.0
 40
1.0
 40
1.0
 10
140.0800095775
 20
107.8939925506
 30
0.0
 10
140.0840326925
 20
107.9219595514
 30
0.0
 10
140.0998128766
 20
108.0322180008
 30
0.0
 10
140.1158192712
 20
108.1424469447
 30
0.0
 10
140.1284441805
 20
108.2246100819
 30
0.0
  0
SPLINE
  5
781
100
AcDbEntity
  8
0
100
AcDbSpline
 62
7
  6
CONTINUOUS
 70
0
 71
3
 72
9
 73
5
 74
0
 42
0.0000001
 43
0.0000001
 44
0.0000000001
 40
0.0
 40
0.0
 40
0.0
 40
0.0
 40
0.2193081084
 40
1.0
 40
1.0
 40
1.0
 40
1.0
 10
140.3935807355
 20
109.5371772311
 30
0.0
 10
140.3935807355
 20
109.5337905195
 30
0.0
 10
140.3927699362
 20
109.5183464743
 30
0.0
 10
140.3893122039
 20
109.5031533754
 30
0.0
 10
140.3859701317
 20
109.4915698673
 30
0.0
  0
SPLINE
  5
782
100
AcDbEntity
  8
0
100
AcDbSpline
 62
7
  6
CONTINUOUS
 70
0
 71
3
 72
9
 73
5
 74
0
 42
0.0000001
 43
0.0000001
 44
0.0000000001
 40
0.0
 40
0.0
 40
0.0
 40
0.0
 40
0.5618565954
 40
1.0
 40
1.0
 40
1.0
 40
1.0
 10
140.1284441805
 20
108.2246100819
 30
0.0
 10
140.1652360076
 20
108.4640460564
 30
0.0
 10
140.2378383914
 20
108.8891061154
 30
0.0
 10
140.3336028033
 20
109.3100664982
 30
0.0
 10
140.3859701317
 20
109.4915698673
 30
0.0
  0
SPLINE
  5
783
100
AcDbEntity
  8
0
100
AcDbSpline
 62
7
  6
CONTINUOUS
 70
0
 71
3
 72
9
 73
5
 74
0
 42
0.0000001
 43
0.0000001
 44
0.0000000001
 40
0.0
 40
0.0
 40
0.0
 40
0.0
 40
0.7489407268
 40
1.0
 40
1.0
 40
1.0
 40
1.0
 10
139.1688809072
 20
107.4789767937
 30
0.0
 10
139.169265094
 20
107.3364090343
 30
0.0
 10
139.1812144834
 20
107.1458800672
 30
0.0
 10
139.206253759
 20
106.9571714768
 30
0.0
 10
139.2133237349
 20
106.9099056958
 30
0.0
  0
SPLINE
  5
784
100
AcDbEntity
  8
RUNDUNGEN
100
AcDbSpline
 62
7
  6
CONTINUOUS
 70
0
 71
3
 72
16
 73
12
 74
0
 42
0.0000001
 43
0.0000001
 44
0.0000000001
 40
0.0
 40
0.0
 40
0.0
 40
0.0
 40
0.0040173258
 40
0.0161031071
 40
0.0362128514
 40
0.0642989894
 40
0.1442116516
 40
0.2554671786
 40
0.3976219354
 40
0.5697851126
 40
1.0
 40
1.0
 40
1.0
 40
1.0
 10
139.2758813716
 20
56.6934820158
 30
0.0
 10
139.2761423689
 20
56.6933842579
 30
0.0
 10
139.2750318317
 20
56.695356078
 30
0.0
 10
139.2751408151
 20
56.6969106668
 30
0.0
 10
139.2735846436
 20
56.7014311297
 30
0.0
 10
139.2715127335
 20
56.7097087792
 30
0.0
 10
139.2673897516
 20
56.7246243159
 30
0.0
 10
139.2616765431
 20
56.7469024945
 30
0.0
 10
139.2544324827
 20
56.7755745522
 30
0.0
 10
139.2423931437
 20
56.8257816458
 30
0.0
 10
139.2335130976
 20
56.8666368037
 30
0.0
 10
139.2276053942
 20
56.8958927144
 30
0.0
  0
SPLINE
  5
785
100
AcDbEntity
  8
0
100
AcDbSpline
 62
7
  6
CONTINUOUS
 70
0
 71
3
 72
11
 73
7
 74
0
 42
0.0000001
 43
0.0000001
 44
0.0000000001
 40
0.0
 40
0.0
 40
0.0
 40
0.0
 40
0.2511445537
 40
0.5010613481
 40
0.7501070698
 40
1.0
 40
1.0
 40
1.0
 40
1.0
 10
150.9738377361
 20
58.0642164416
 30
0.0
 10
150.939395434
 20
58.2944778055
 30
0.0
 10
150.8677550274
 20
58.7534390688
 30
0.0
 10
150.7981698981
 20
59.4460942325
 30
0.0
 10
150.7975567086
 20
60.1416271128
 30
0.0
 10
150.8431673795
 20
60.6024872096
 30
0.0
 10
150.8724331284
 20
60.8322939416
 30
0.0
  0
SPLINE
  5
786
100
AcDbEntity
  8
0
100
AcDbSpline
 62
7
  6
CONTINUOUS
 70
0
 71
3
 72
9
 73
5
 74
0
 42
0.0000001
 43
0.0000001
 44
0.0000000001
 40
0.0
 40
0.0
 40
0.0
 40
0.0
 40
0.2474291342
 40
1.0
 40
1.0
 40
1.0
 40
1.0
 10
150.8724331284
 20
60.8322939416
 30
0.0
 10
150.8779322157
 20
60.8754763765
 30
0.0
 10
150.9053443364
 20
61.049354722
 30
0.0
 10
150.9496344493
 20
61.2201333428
 30
0.0
 10
150.9872360958
 20
61.3470844961
 30
0.0
  0
SPLINE
  5
787
100
AcDbEntity
  8
0
100
AcDbSpline
 62
7
  6
CONTINUOUS
 70
0
 71
3
 72
9
 73
5
 74
0
 42
0.0000001
 43
0.0000001
 44
0.0000000001
 40
0.0
 40
0.0
 40
0.0
 40
0.0
 40
0.2509770573
 40
1.0
 40
1.0
 40
1.0
 40
1.0
 10
150.9872360958
 20
61.3470844961
 30
0.0
 10
151.0036167949
 20
61.4023888109
 30
0.0
 10
151.0683292502
 20
61.6228976379
 30
0.0
 10
151.129176216
 20
61.8446304022
 30
0.0
 10
151.1693866374
 20
62.012007641
 30
0.0
  0
SPLINE
  5
788
100
AcDbEntity
  8
0
100
AcDbSpline
 62
7
  6
CONTINUOUS
 70
0
 71
3
 72
9
 73
5
 74
0
 42
0.0000001
 43
0.0000001
 44
0.0000000001
 40
0.0
 40
0.0
 40
0.0
 40
0.0
 40
0.2550613115
 40
1.0
 40
1.0
 40
1.0
 40
1.0
 10
150.5859701317
 20
61.7162017733
 30
0.0
 10
150.5871842347
 20
61.734072103
 30
0.0
 10
150.5914408452
 20
61.8041665287
 30
0.0
 10
150.5935807355
 20
61.8744031848
 30
0.0
 10
150.5935807355
 20
61.9267160499
 30
0.0
  0
SPLINE
  5
789
100
AcDbEntity
  8
0
100
AcDbSpline
 62
7
  6
CONTINUOUS
 70
0
 71
3
 72
9
 73
5
 74
0
 42
0.0000001
 43
0.0000001
 44
0.0000000001
 40
0.0
 40
0.0
 40
0.0
 40
0.0
 40
0.5497183648
 40
1.0
 40
1.0
 40
1.0
 40
1.0
 10
150.5859701317
 20
61.7162017733
 30
0.0
 10
150.5359826513
 20
60.9804382145
 30
0.0
 10
150.4316112952
 20
59.6429145536
 30
0.0
 10
150.2849379945
 20
58.3088350063
 30
0.0
 10
150.1991619518
 20
57.7108930155
 30
0.0
  0
SPLINE
  5
78A
100
AcDbEntity
  8
0
100
AcDbSpline
 62
7
  6
CONTINUOUS
 70
0
 71
3
 72
9
 73
5
 74
0
 42
0.0000001
 43
0.0000001
 44
0.0000000001
 40
0.0
 40
0.0
 40
0.0
 40
0.0
 40
0.2512132149
 40
1.0
 40
1.0
 40
1.0
 40
1.0
 10
151.3950798317
 20
63.2037421032
 30
0.0
 10
151.4021290153
 20
63.2430399553
 30
0.0
 10
151.428051521
 20
63.3998422725
 30
0.0
 10
151.4449463151
 20
63.5581841847
 30
0.0
 10
151.4516933786
 20
63.6769967501
 30
0.0
  0
SPLINE
  5
78B
100
AcDbEntity
  8
0
100
AcDbSpline
 62
7
  6
CONTINUOUS
 70
0
 71
3
 72
9
 73
5
 74
0
 42
0.0000001
 43
0.0000001
 44
0.0000000001
 40
0.0
 40
0.0
 40
0.0
 40
0.0
 40
0.2512003088
 40
1.0
 40
1.0
 40
1.0
 40
1.0
 10
150.1991619518
 20
57.7108930155
 30
0.0
 10
150.1915822302
 20
57.6580589929
 30
0.0
 10
150.1610552861
 20
57.4477834707
 30
0.0
 10
150.129808718
 20
57.237612845
 30
0.0
 10
150.1071518935
 20
57.0801295868
 30
0.0
  0
SPLINE
  5
78C
100
AcDbEntity
  8
0
100
AcDbSpline
 62
7
  6
CONTINUOUS
 70
0
 71
3
 72
9
 73
5
 74
0
 42
0.0000001
 43
0.0000001
 44
0.0000000001
 40
0.0
 40
0.0
 40
0.0
 40
0.0
 40
0.2536747968
 40
1.0
 40
1.0
 40
1.0
 40
1.0
 10
150.1071518935
 20
57.0801295868
 30
0.0
 10
150.1031287784
 20
57.052162586
 30
0.0
 10
150.0873485944
 20
56.9419041366
 30
0.0
 10
150.0713421998
 20
56.8316751927
 30
0.0
 10
150.0587172905
 20
56.7495120555
 30
0.0
  0
SPLINE
  5
78D
100
AcDbEntity
  8
0
100
AcDbSpline
 62
7
  6
CONTINUOUS
 70
0
 71
3
 72
9
 73
5
 74
0
 42
0.0000001
 43
0.0000001
 44
0.0000000001
 40
0.0
 40
0.0
 40
0.0
 40
0.0
 40
0.2193081084
 40
1.0
 40
1.0
 40
1.0
 40
1.0
 10
149.7935807355
 20
55.4369449063
 30
0.0
 10
149.7935807355
 20
55.4403316179
 30
0.0
 10
149.7943915348
 20
55.4557756631
 30
0.0
 10
149.797849267
 20
55.470968762
 30
0.0
 10
149.8011913393
 20
55.4825522701
 30
0.0
  0
SPLINE
  5
78E
100
AcDbEntity
  8
0
100
AcDbSpline
 62
7
  6
CONTINUOUS
 70
0
 71
3
 72
9
 73
5
 74
0
 42
0.0000001
 43
0.0000001
 44
0.0000000001
 40
0.0
 40
0.0
 40
0.0
 40
0.0
 40
0.5618565954
 40
1.0
 40
1.0
 40
1.0
 40
1.0
 10
150.0587172905
 20
56.7495120555
 30
0.0
 10
150.0219254634
 20
56.510076081
 30
0.0
 10
149.9493230796
 20
56.085016022
 30
0.0
 10
149.8535586677
 20
55.6640556392
 30
0.0
 10
149.8011913393
 20
55.4825522701
 30
0.0
  0
SPLINE
  5
78F
100
AcDbEntity
  8
0
100
AcDbSpline
 62
7
  6
CONTINUOUS
 70
0
 71
3
 72
9
 73
5
 74
0
 42
0.0000001
 43
0.0000001
 44
0.0000000001
 40
0.0
 40
0.0
 40
0.0
 40
0.0
 40
0.7489407268
 40
1.0
 40
1.0
 40
1.0
 40
1.0
 10
151.0182805638
 20
57.4951453437
 30
0.0
 10
151.017896377
 20
57.6377131031
 30
0.0
 10
151.0059469876
 20
57.8282420702
 30
0.0
 10
150.980907712
 20
58.0169506606
 30
0.0
 10
150.9738377361
 20
58.0642164416
 30
0.0
  0
SPLINE
  5
790
100
AcDbEntity
  8
0
100
AcDbSpline
 62
7
  6
CONTINUOUS
 70
0
 71
3
 72
11
 73
7
 74
0
 42
0.0000001
 43
0.0000001
 44
0.0000000001
 40
0.0
 40
0.0
 40
0.0
 40
0.0
 40
0.2511445537
 40
0.5010613481
 40
0.7501070698
 40
1.0
 40
1.0
 40
1.0
 40
1.0
 10
150.9738377361
 20
106.9099056958
 30
0.0
 10
150.939395434
 20
106.6796443319
 30
0.0
 10
150.8677550274
 20
106.2206830686
 30
0.0
 10
150.7981698981
 20
105.5280279049
 30
0.0
 10
150.7975567086
 20
104.8324950246
 30
0.0
 10
150.8431673795
 20
104.3716349278
 30
0.0
 10
150.8724331284
 20
104.1418281958
 30
0.0
  0
SPLINE
  5
791
100
AcDbEntity
  8
0
100
AcDbSpline
 62
7
  6
CONTINUOUS
 70
0
 71
3
 72
9
 73
5
 74
0
 42
0.0000001
 43
0.0000001
 44
0.0000000001
 40
0.0
 40
0.0
 40
0.0
 40
0.0
 40
0.2474291342
 40
1.0
 40
1.0
 40
1.0
 40
1.0
 10
150.8724331284
 20
104.1418281958
 30
0.0
 10
150.8779322157
 20
104.0986457609
 30
0.0
 10
150.9053443364
 20
103.9247674154
 30
0.0
 10
150.9496344493
 20
103.7539887946
 30
0.0
 10
150.9872360958
 20
103.6270376414
 30
0.0
  0
SPLINE
  5
792
100
AcDbEntity
  8
0
100
AcDbSpline
 62
7
  6
CONTINUOUS
 70
0
 71
3
 72
9
 73
5
 74
0
 42
0.0000001
 43
0.0000001
 44
0.0000000001
 40
0.0
 40
0.0
 40
0.0
 40
0.0
 40
0.2509770573
 40
1.0
 40
1.0
 40
1.0
 40
1.0
 10
150.9872360958
 20
103.6270376414
 30
0.0
 10
151.0036167949
 20
103.5717333265
 30
0.0
 10
151.0683292502
 20
103.3512244995
 30
0.0
 10
151.129176216
 20
103.1294917352
 30
0.0
 10
151.1693866374
 20
102.9621144964
 30
0.0
  0
SPLINE
  5
793
100
AcDbEntity
  8
0
100
AcDbSpline
 62
7
  6
CONTINUOUS
 70
0
 71
3
 72
9
 73
5
 74
0
 42
0.0000001
 43
0.0000001
 44
0.0000000001
 40
0.0
 40
0.0
 40
0.0
 40
0.0
 40
0.2550613115
 40
1.0
 40
1.0
 40
1.0
 40
1.0
 10
150.5859701317
 20
103.2579203641
 30
0.0
 10
150.5871842347
 20
103.2400500344
 30
0.0
 10
150.5914408452
 20
103.1699556087
 30
0.0
 10
150.5935807355
 20
103.0997189526
 30
0.0
 10
150.5935807355
 20
103.0474060875
 30
0.0
  0
SPLINE
  5
794
100
AcDbEntity
  8
0
100
AcDbSpline
 62
7
  6
CONTINUOUS
 70
0
 71
3
 72
9
 73
5
 74
0
 42
0.0000001
 43
0.0000001
 44
0.0000000001
 40
0.0
 40
0.0
 40
0.0
 40
0.0
 40
0.5497183648
 40
1.0
 40
1.0
 40
1.0
 40
1.0
 10
150.5859701317
 20
103.2579203641
 30
0.0
 10
150.5359826513
 20
103.9936839229
 30
0.0
 10
150.4316112952
 20
105.3312075838
 30
0.0
 10
150.2849379945
 20
106.6652871311
 30
0.0
 10
150.1991619518
 20
107.2632291219
 30
0.0
  0
SPLINE
  5
795
100
AcDbEntity
  8
0
100
AcDbSpline
 62
7
  6
CONTINUOUS
 70
0
 71
3
 72
9
 73
5
 74
0
 42
0.0000001
 43
0.0000001
 44
0.0000000001
 40
0.0
 40
0.0
 40
0.0
 40
0.0
 40
0.2512132149
 40
1.0
 40
1.0
 40
1.0
 40
1.0
 10
151.3950798317
 20
101.7703800342
 30
0.0
 10
151.4021290153
 20
101.7310821821
 30
0.0
 10
151.428051521
 20
101.5742798649
 30
0.0
 10
151.4449463151
 20
101.4159379527
 30
0.0
 10
151.4516933786
 20
101.2971253873
 30
0.0
  0
SPLINE
  5
796
100
AcDbEntity
  8
0
100
AcDbSpline
 62
7
  6
CONTINUOUS
 70
0
 71
3
 72
9
 73
5
 74
0
 42
0.0000001
 43
0.0000001
 44
0.0000000001
 40
0.0
 40
0.0
 40
0.0
 40
0.0
 40
0.2512003088
 40
1.0
 40
1.0
 40
1.0
 40
1.0
 10
150.1991619518
 20
107.2632291219
 30
0.0
 10
150.1915822302
 20
107.3160631445
 30
0.0
 10
150.1610552861
 20
107.5263386667
 30
0.0
 10
150.129808718
 20
107.7365092924
 30
0.0
 10
150.1071518935
 20
107.8939925506
 30
0.0
  0
SPLINE
  5
797
100
AcDbEntity
  8
0
100
AcDbSpline
 62
7
  6
CONTINUOUS
 70
0
 71
3
 72
9
 73
5
 74
0
 42
0.0000001
 43
0.0000001
 44
0.0000000001
 40
0.0
 40
0.0
 40
0.0
 40
0.0
 40
0.2536747968
 40
1.0
 40
1.0
 40
1.0
 40
1.0
 10
150.1071518935
 20
107.8939925506
 30
0.0
 10
150.1031287784
 20
107.9219595514
 30
0.0
 10
150.0873485944
 20
108.0322180008
 30
0.0
 10
150.0713421998
 20
108.1424469447
 30
0.0
 10
150.0587172905
 20
108.2246100819
 30
0.0
  0
SPLINE
  5
798
100
AcDbEntity
  8
0
100
AcDbSpline
 62
7
  6
CONTINUOUS
 70
0
 71
3
 72
9
 73
5
 74
0
 42
0.0000001
 43
0.0000001
 44
0.0000000001
 40
0.0
 40
0.0
 40
0.0
 40
0.0
 40
0.2193081084
 40
1.0
 40
1.0
 40
1.0
 40
1.0
 10
149.7935807355
 20
109.5371772311
 30
0.0
 10
149.7935807355
 20
109.5337905195
 30
0.0
 10
149.7943915348
 20
109.5183464743
 30
0.0
 10
149.797849267
 20
109.5031533754
 30
0.0
 10
149.8011913393
 20
109.4915698673
 30
0.0
  0
SPLINE
  5
799
100
AcDbEntity
  8
0
100
AcDbSpline
 62
7
  6
CONTINUOUS
 70
0
 71
3
 72
9
 73
5
 74
0
 42
0.0000001
 43
0.0000001
 44
0.0000000001
 40
0.0
 40
0.0
 40
0.0
 40
0.0
 40
0.5618565954
 40
1.0
 40
1.0
 40
1.0
 40
1.0
 10
150.0587172905
 20
108.2246100819
 30
0.0
 10
150.0219254634
 20
108.4640460564
 30
0.0
 10
149.9493230796
 20
108.8891061154
 30
0.0
 10
149.8535586677
 20
109.3100664982
 30
0.0
 10
149.8011913393
 20
109.4915698673
 30
0.0
  0
SPLINE
  5
79A
100
AcDbEntity
  8
0
100
AcDbSpline
 62
7
  6
CONTINUOUS
 70
0
 71
3
 72
9
 73
5
 74
0
 42
0.0000001
 43
0.0000001
 44
0.0000000001
 40
0.0
 40
0.0
 40
0.0
 40
0.0
 40
0.7489407268
 40
1.0
 40
1.0
 40
1.0
 40
1.0
 10
151.0182805638
 20
107.4789767937
 30
0.0
 10
151.017896377
 20
107.3364090343
 30
0.0
 10
151.0059469876
 20
107.1458800672
 30
0.0
 10
150.980907712
 20
106.9571714768
 30
0.0
 10
150.9738377361
 20
106.9099056958
 30
0.0
  0
LINE
  5
79B
100
AcDbEntity
  8
0
100
AcDbLine
 62
7
  6
CONTINUOUS
 10
138.5898285756
 20
68.6057040119
 11
138.5761919298
 21
68.9443925401
  0
SPLINE
  5
79C
100
AcDbEntity
  8
0
100
AcDbSpline
 62
7
  6
CONTINUOUS
 70
0
 71
3
 72
9
 73
5
 74
0
 42
0.0000001
 43
0.0000001
 44
0.0000000001
 40
0.0
 40
0.0
 40
0.0
 40
0.0
 40
0.5000120736
 40
1.0
 40
1.0
 40
1.0
 40
1.0
 10
138.5761919298
 20
68.9443925401
 30
0.0
 10
138.5391062664
 20
69.8866619618
 30
0.0
 10
138.4818182221
 20
71.7718646178
 30
0.0
 10
138.4690442004
 20
73.658083903
 30
0.0
 10
138.4786486763
 20
74.6009883926
 30
0.0
  0
SPLINE
  5
79D
100
AcDbEntity
  8
RUNDUNGEN
100
AcDbSpline
 62
7
  6
CONTINUOUS
 70
0
 71
3
 72
9
 73
5
 74
0
 42
0.0000001
 43
0.0000001
 44
0.0000000001
 40
0.0
 40
0.0
 40
0.0
 40
0.0
 40
0.4127574039
 40
1.0
 40
1.0
 40
1.0
 40
1.0
 10
138.7539045262
 20
64.2742309623
 30
0.0
 10
138.7726591191
 20
64.4264551798
 30
0.0
 10
138.7901957671
 20
64.7985377175
 30
0.0
 10
138.7745325609
 20
65.1701193633
 30
0.0
 10
138.7590189235
 20
65.3877787683
 30
0.0
  0
SPLINE
  5
79E
100
AcDbEntity
  8
0
100
AcDbSpline
 62
7
  6
CONTINUOUS
 70
0
 71
3
 72
9
 73
5
 74
0
 42
0.0000001
 43
0.0000001
 44
0.0000000001
 40
0.0
 40
0.0
 40
0.0
 40
0.0
 40
0.7492479538
 40
1.0
 40
1.0
 40
1.0
 40
1.0
 10
138.7354680923
 20
101.2971253873
 30
0.0
 10
138.7270007791
 20
101.1480200456
 30
0.0
 10
138.7281285061
 20
100.9478947786
 30
0.0
 10
138.7477928013
 20
100.7494978261
 30
0.0
 10
138.7539045262
 20
100.6998911751
 30
0.0
  0
SPLINE
  5
79F
100
AcDbEntity
  8
0
100
AcDbSpline
 62
7
  6
CONTINUOUS
 70
0
 71
3
 72
10
 73
6
 74
0
 42
0.0000001
 43
0.0000001
 44
0.0000000001
 40
0.0
 40
0.0
 40
0.0
 40
0.0
 40
0.4996746288
 40
0.7496938966
 40
1.0
 40
1.0
 40
1.0
 40
1.0
 10
151.6994951168
 20
75.0111709232
 30
0.0
 10
151.6574557728
 20
76.2647124655
 30
0.0
 10
151.5586656228
 20
78.1457745758
 30
0.0
 10
151.260618298
 20
80.639093334
 30
0.0
 10
151.0306076148
 20
81.8753601355
 30
0.0
 10
150.8871409809
 20
82.4870610687
 30
0.0
  0
LINE
  5
7A0
100
AcDbEntity
  8
0
100
AcDbLine
 62
7
  6
CONTINUOUS
 10
151.5973328954
 20
68.6057040119
 11
151.6109695412
 21
68.9443925401
  0
SPLINE
  5
7A1
100
AcDbEntity
  8
0
100
AcDbSpline
 62
7
  6
CONTINUOUS
 70
0
 71
3
 72
9
 73
5
 74
0
 42
0.0000001
 43
0.0000001
 44
0.0000000001
 40
0.0
 40
0.0
 40
0.0
 40
0.0
 40
0.5000120736
 40
1.0
 40
1.0
 40
1.0
 40
1.0
 10
151.6109695412
 20
68.9443925401
 30
0.0
 10
151.6480552046
 20
69.8866619618
 30
0.0
 10
151.7053432489
 20
71.7718646178
 30
0.0
 10
151.7181172705
 20
73.658083903
 30
0.0
 10
151.7085127947
 20
74.6009883926
 30
0.0
  0
SPLINE
  5
7A2
100
AcDbEntity
  8
0
100
AcDbSpline
 62
7
  6
CONTINUOUS
 70
0
 71
3
 72
9
 73
5
 74
0
 42
0.0000001
 43
0.0000001
 44
0.0000000001
 40
0.0
 40
0.0
 40
0.0
 40
0.0
 40
0.4127574039
 40
1.0
 40
1.0
 40
1.0
 40
1.0
 10
151.4332569448
 20
64.2742309623
 30
0.0
 10
151.4145023519
 20
64.4264551798
 30
0.0
 10
151.3969657039
 20
64.7985377175
 30
0.0
 10
151.41262891
 20
65.1701193633
 30
0.0
 10
151.4281425475
 20
65.3877787683
 30
0.0
  0
SPLINE
  5
7A3
100
AcDbEntity
  8
0
100
AcDbSpline
 62
7
  6
CONTINUOUS
 70
0
 71
3
 72
8
 73
4
 74
0
 42
0.0000001
 43
0.0000001
 44
0.0000000001
 40
0.0
 40
0.0
 40
0.0
 40
0.0
 40
1.0
 40
1.0
 40
1.0
 40
1.0
 10
151.4281425475
 20
65.3877787683
 30
0.0
 10
151.5045067832
 20
66.4591841164
 30
0.0
 10
151.5532834338
 20
67.5324842948
 30
0.0
 10
151.5973328954
 20
68.6057040119
 30
0.0
  0
SPLINE
  5
7A4
100
AcDbEntity
  8
RUNDUNGEN
100
AcDbSpline
 62
7
  6
CONTINUOUS
 70
0
 71
3
 72
8
 73
4
 74
0
 42
0.0000001
 43
0.0000001
 44
0.0000000001
 40
0.0
 40
0.0
 40
0.0
 40
0.0
 40
1.0
 40
1.0
 40
1.0
 40
1.0
 10
138.7590189235
 20
65.3877787683
 30
0.0
 10
138.6826546878
 20
66.4591841164
 30
0.0
 10
138.6338780372
 20
67.5324842948
 30
0.0
 10
138.5898285756
 20
68.6057040119
 30
0.0
  0
SPLINE
  5
7A5
100
AcDbEntity
  8
0
100
AcDbSpline
 62
7
  6
CONTINUOUS
 70
0
 71
3
 72
9
 73
5
 74
0
 42
0.0000001
 43
0.0000001
 44
0.0000000001
 40
0.0
 40
0.0
 40
0.0
 40
0.0
 40
0.7492479538
 40
1.0
 40
1.0
 40
1.0
 40
1.0
 10
151.4516933786
 20
101.2971253873
 30
0.0
 10
151.4601606919
 20
101.1480200456
 30
0.0
 10
151.4590329649
 20
100.9478947786
 30
0.0
 10
151.4393686697
 20
100.7494978261
 30
0.0
 10
151.4332569448
 20
100.6998911751
 30
0.0
  0
SPLINE
  5
7A6
100
AcDbEntity
  8
RUNDUNGEN
100
AcDbSpline
 62
7
  6
CONTINUOUS
 70
0
 71
3
 72
9
 73
5
 74
0
 42
0.0000001
 43
0.0000001
 44
0.0000000001
 40
0.0
 40
0.0
 40
0.0
 40
0.0
 40
0.7492479538
 40
1.0
 40
1.0
 40
1.0
 40
1.0
 10
138.7354680923
 20
63.6769967501
 30
0.0
 10
138.7270007791
 20
63.8261020918
 30
0.0
 10
138.7281285061
 20
64.0262273588
 30
0.0
 10
138.7477928013
 20
64.2246243113
 30
0.0
 10
138.7539045262
 20
64.2742309623
 30
0.0
  0
SPLINE
  5
7A7
100
AcDbEntity
  8
0
100
AcDbSpline
 62
7
  6
CONTINUOUS
 70
0
 71
3
 72
10
 73
6
 74
0
 42
0.0000001
 43
0.0000001
 44
0.0000000001
 40
0.0
 40
0.0
 40
0.0
 40
0.0
 40
0.4996746288
 40
0.7496938966
 40
1.0
 40
1.0
 40
1.0
 40
1.0
 10
138.4876663542
 20
89.9629512142
 30
0.0
 10
138.5297056981
 20
88.7094096719
 30
0.0
 10
138.6284958481
 20
86.8283475616
 30
0.0
 10
138.9265431729
 20
84.3350288034
 30
0.0
 10
139.1565538561
 20
83.0987620019
 30
0.0
 10
139.3000204901
 20
82.4870610687
 30
0.0
  0
LINE
  5
7A8
100
AcDbEntity
  8
0
100
AcDbLine
 62
7
  6
CONTINUOUS
 10
138.5898285756
 20
96.3684181255
 11
138.5761919298
 21
96.0297295973
  0
SPLINE
  5
7A9
100
AcDbEntity
  8
0
100
AcDbSpline
 62
7
  6
CONTINUOUS
 70
0
 71
3
 72
9
 73
5
 74
0
 42
0.0000001
 43
0.0000001
 44
0.0000000001
 40
0.0
 40
0.0
 40
0.0
 40
0.0
 40
0.5000120736
 40
1.0
 40
1.0
 40
1.0
 40
1.0
 10
138.5761919298
 20
96.0297295973
 30
0.0
 10
138.5391062664
 20
95.0874601756
 30
0.0
 10
138.4818182221
 20
93.2022575196
 30
0.0
 10
138.4690442004
 20
91.3160382344
 30
0.0
 10
138.4786486763
 20
90.3731337448
 30
0.0
  0
SPLINE
  5
7AA
100
AcDbEntity
  8
0
100
AcDbSpline
 62
7
  6
CONTINUOUS
 70
0
 71
3
 72
9
 73
5
 74
0
 42
0.0000001
 43
0.0000001
 44
0.0000000001
 40
0.0
 40
0.0
 40
0.0
 40
0.0
 40
0.4127574039
 40
1.0
 40
1.0
 40
1.0
 40
1.0
 10
138.7539045262
 20
100.6998911751
 30
0.0
 10
138.7726591191
 20
100.5476669576
 30
0.0
 10
138.7901957671
 20
100.1755844199
 30
0.0
 10
138.7745325609
 20
99.8040027741
 30
0.0
 10
138.7590189235
 20
99.5863433691
 30
0.0
  0
SPLINE
  5
7AB
100
AcDbEntity
  8
0
100
AcDbSpline
 62
7
  6
CONTINUOUS
 70
0
 71
3
 72
8
 73
4
 74
0
 42
0.0000001
 43
0.0000001
 44
0.0000000001
 40
0.0
 40
0.0
 40
0.0
 40
0.0
 40
1.0
 40
1.0
 40
1.0
 40
1.0
 10
138.7590189235
 20
99.5863433691
 30
0.0
 10
138.6826546878
 20
98.514938021
 30
0.0
 10
138.6338780372
 20
97.4416378426
 30
0.0
 10
138.5898285756
 20
96.3684181255
 30
0.0
  0
SPLINE
  5
7AC
100
AcDbEntity
  8
0
100
AcDbSpline
 62
7
  6
CONTINUOUS
 70
0
 71
3
 72
10
 73
6
 74
0
 42
0.0000001
 43
0.0000001
 44
0.0000000001
 40
0.0
 40
0.0
 40
0.0
 40
0.0
 40
0.4996746288
 40
0.7496938966
 40
1.0
 40
1.0
 40
1.0
 40
1.0
 10
151.6994951168
 20
89.9629512142
 30
0.0
 10
151.6574557728
 20
88.7094096719
 30
0.0
 10
151.5586656228
 20
86.8283475616
 30
0.0
 10
151.260618298
 20
84.3350288034
 30
0.0
 10
151.0306076148
 20
83.0987620019
 30
0.0
 10
150.8871409809
 20
82.4870610687
 30
0.0
  0
LINE
  5
7AD
100
AcDbEntity
  8
0
100
AcDbLine
 62
7
  6
CONTINUOUS
 10
151.5973328954
 20
96.3684181255
 11
151.6109695412
 21
96.0297295973
  0
SPLINE
  5
7AE
100
AcDbEntity
  8
0
100
AcDbSpline
 62
7
  6
CONTINUOUS
 70
0
 71
3
 72
9
 73
5
 74
0
 42
0.0000001
 43
0.0000001
 44
0.0000000001
 40
0.0
 40
0.0
 40
0.0
 40
0.0
 40
0.5000120736
 40
1.0
 40
1.0
 40
1.0
 40
1.0
 10
151.6109695412
 20
96.0297295973
 30
0.0
 10
151.6480552046
 20
95.0874601756
 30
0.0
 10
151.7053432489
 20
93.2022575196
 30
0.0
 10
151.7181172705
 20
91.3160382344
 30
0.0
 10
151.7085127947
 20
90.3731337448
 30
0.0
  0
SPLINE
  5
7AF
100
AcDbEntity
  8
0
100
AcDbSpline
 62
7
  6
CONTINUOUS
 70
0
 71
3
 72
9
 73
5
 74
0
 42
0.0000001
 43
0.0000001
 44
0.0000000001
 40
0.0
 40
0.0
 40
0.0
 40
0.0
 40
0.4127574039
 40
1.0
 40
1.0
 40
1.0
 40
1.0
 10
151.4332569448
 20
100.6998911751
 30
0.0
 10
151.4145023519
 20
100.5476669576
 30
0.0
 10
151.3969657039
 20
100.1755844199
 30
0.0
 10
151.41262891
 20
99.8040027741
 30
0.0
 10
151.4281425475
 20
99.5863433691
 30
0.0
  0
SPLINE
  5
7B0
100
AcDbEntity
  8
0
100
AcDbSpline
 62
7
  6
CONTINUOUS
 70
0
 71
3
 72
8
 73
4
 74
0
 42
0.0000001
 43
0.0000001
 44
0.0000000001
 40
0.0
 40
0.0
 40
0.0
 40
0.0
 40
1.0
 40
1.0
 40
1.0
 40
1.0
 10
151.4281425475
 20
99.5863433691
 30
0.0
 10
151.5045067832
 20
98.514938021
 30
0.0
 10
151.5532834338
 20
97.4416378426
 30
0.0
 10
151.5973328954
 20
96.3684181255
 30
0.0
  0
SPLINE
  5
7B1
100
AcDbEntity
  8
0
100
AcDbSpline
 62
7
  6
CONTINUOUS
 70
0
 71
3
 72
10
 73
6
 74
0
 42
0.0000001
 43
0.0000001
 44
0.0000000001
 40
0.0
 40
0.0
 40
0.0
 40
0.0
 40
0.4996746288
 40
0.7496938966
 40
1.0
 40
1.0
 40
1.0
 40
1.0
 10
138.4876663542
 20
75.0111709232
 30
0.0
 10
138.5297056981
 20
76.2647124655
 30
0.0
 10
138.6284958481
 20
78.1457745758
 30
0.0
 10
138.9265431729
 20
80.639093334
 30
0.0
 10
139.1565538561
 20
81.8753601355
 30
0.0
 10
139.3000204901
 20
82.4870610687
 30
0.0
  0
SPLINE
  5
7B2
100
AcDbEntity
  8
0
100
AcDbSpline
 62
7
  6
CONTINUOUS
 70
0
 71
3
 72
9
 73
5
 74
0
 42
0.0000001
 43
0.0000001
 44
0.0000000001
 40
0.0
 40
0.0
 40
0.0
 40
0.0
 40
0.7492479538
 40
1.0
 40
1.0
 40
1.0
 40
1.0
 10
151.4516933786
 20
63.6769967501
 30
0.0
 10
151.4601606919
 20
63.8261020918
 30
0.0
 10
151.4590329649
 20
64.0262273588
 30
0.0
 10
151.4393686697
 20
64.2246243113
 30
0.0
 10
151.4332569448
 20
64.2742309623
 30
0.0
  0
ELLIPSE
  5
7B3
100
AcDbEntity
  8
0
100
AcDbEllipse
 62
7
  6
CONTINUOUS
 10
122.3435807355
 20
194.1607413677
 30
0.0
 11
17.75
 21
0.0
 31
0.0
 40
0.255319362
 41
2.8885729857
 42
2.9079226948
  0
ELLIPSE
  5
7B4
100
AcDbEntity
  8
0
100
AcDbEllipse
 62
7
  6
CONTINUOUS
 10
122.3435807355
 20
192.269961609
 30
0.0
 11
17.75
 21
0.0
 31
0.0
 40
0.6808512211
 41
2.8739973123
 42
2.8885729857
  0
ELLIPSE
  5
7B5
100
AcDbEntity
  8
0
100
AcDbEllipse
 62
7
  6
CONTINUOUS
 10
122.3435807355
 20
188.275650947
 30
0.0
 11
-0.0
 21
27.1914342567
 31
0.0
 40
0.6527791007
 41
1.2934515955
 42
1.3032009855
  0
ELLIPSE
  5
7B6
100
AcDbEntity
  8
0
100
AcDbEllipse
 62
7
  6
CONTINUOUS
 10
122.3435807355
 20
175.8670518517
 30
0.0
 11
-0.0
 21
72.5109062611
 31
0.0
 40
0.244790762
 41
1.2885668251
 42
1.2934515955
  0
ELLIPSE
  5
7B7
100
AcDbEntity
  8
0
100
AcDbEllipse
 62
7
  6
CONTINUOUS
 10
122.3435807355
 20
217.5318793268
 30
0.0
 11
-0.0
 21
72.5109062611
 31
0.0
 40
0.244790762
 41
-4.4350442491
 42
-4.4301594787
  0
ELLIPSE
  5
7B8
100
AcDbEntity
  8
0
100
AcDbEllipse
 62
7
  6
CONTINUOUS
 10
122.3435807355
 20
205.1232871838
 30
0.0
 11
-0.0
 21
27.1914596482
 31
0.0
 40
0.6527784911
 41
-4.4447936391
 42
-4.4350442491
  0
ELLIPSE
  5
7B9
100
AcDbEntity
  8
0
100
AcDbEllipse
 62
7
  6
CONTINUOUS
 10
122.3435807355
 20
201.1289686889
 30
0.0
 11
17.75
 21
-0.0
 31
0.0
 40
0.6808509827
 41
-2.8885729857
 42
-2.8739973123
  0
ELLIPSE
  5
7BA
100
AcDbEntity
  8
0
100
AcDbEllipse
 62
7
  6
CONTINUOUS
 10
122.3435807355
 20
199.2381899896
 30
0.0
 11
17.75
 21
0.0
 31
0.0
 40
0.255319362
 41
-2.9079226948
 42
-2.8885729857
  0
ELLIPSE
  5
7BB
100
AcDbEntity
  8
0
100
AcDbEllipse
 62
7
  6
CONTINUOUS
 10
122.3435807355
 20
194.9933661687
 30
0.0
 11
17.75
 21
0.0
 31
0.0
 40
0.6808512211
 41
3.102521672
 42
3.1166135212
  0
ELLIPSE
  5
7BC
100
AcDbEntity
  8
0
100
AcDbEllipse
 62
7
  6
CONTINUOUS
 10
122.3435807355
 20
194.4032943342
 30
0.0
 11
-0.0
 21
27.1915120521
 31
0.0
 40
0.6527772331
 41
1.5223266464
 42
1.5317253452
  0
ELLIPSE
  5
7BD
100
AcDbEntity
  8
0
100
AcDbEllipse
 62
7
  6
CONTINUOUS
 10
122.3435807355
 20
192.2075578724
 30
0.0
 11
-0.0
 21
72.5104913511
 31
0.0
 40
0.2447921628
 41
1.5176257283
 42
1.5223266464
  0
ELLIPSE
  5
7BE
100
AcDbEntity
  8
0
100
AcDbEllipse
 62
7
  6
CONTINUOUS
 10
122.3435807355
 20
182.3315932982
 30
0.0
 11
17.75
 21
0.0
 31
0.0
 40
0.1702127606
 41
-3.0595287439
 42
-3.0347698902
  0
ELLIPSE
  5
7BF
100
AcDbEntity
  8
0
100
AcDbEllipse
 62
7
  6
CONTINUOUS
 10
122.3435807355
 20
182.5792528649
 30
0.0
 11
17.75
 21
-0.0
 31
0.0
 40
0.3404255211
 41
-3.0718883347
 42
-3.0595287439
  0
ELLIPSE
  5
7C0
100
AcDbEntity
  8
0
100
AcDbEllipse
 62
7
  6
CONTINUOUS
 10
122.3435807355
 20
183.0001039154
 30
0.0
 11
17.75
 21
0.0
 31
0.0
 40
0.6808510423
 41
-3.0842372687
 42
-3.0718883347
  0
ELLIPSE
  5
7C1
100
AcDbEntity
  8
0
100
AcDbEllipse
 62
7
  6
CONTINUOUS
 10
122.3435807355
 20
184.3856377684
 30
0.0
 11
-0.0
 21
36.2553525767
 31
0.0
 40
0.4895828819
 41
-4.6632612318
 42
-4.6550335955
  0
ELLIPSE
  5
7C2
100
AcDbEntity
  8
0
100
AcDbEllipse
 62
7
  6
CONTINUOUS
 10
122.3435807355
 20
185.2730826983
 30
0.0
 11
17.75
 21
-0.0
 31
0.0
 40
0.1702127457
 41
3.0632731737
 42
3.0879754181
  0
ELLIPSE
  5
7C3
100
AcDbEntity
  8
0
100
AcDbEllipse
 62
7
  6
CONTINUOUS
 10
122.3435807355
 20
184.9492528339
 30
0.0
 11
17.75
 21
0.0
 31
0.0
 40
0.5106383587
 41
3.0879754181
 42
3.104424468
  0
ELLIPSE
  5
7C4
100
AcDbEntity
  8
0
100
AcDbEllipse
 62
7
  6
CONTINUOUS
 10
122.3435807355
 20
184.6124447294
 30
0.0
 11
-0.0
 21
18.1276487695
 31
0.0
 40
0.9791672503
 41
1.5336281412
 42
1.5500671467
  0
ELLIPSE
  5
7C5
100
AcDbEntity
  8
0
100
AcDbEllipse
 62
7
  6
CONTINUOUS
 10
122.3435807355
 20
183.4852094217
 30
0.0
 11
-0.0
 21
72.5106988055
 31
0.0
 40
0.2447914624
 41
7.8332524538
 42
7.8373611505
  0
ELLIPSE
  5
7C6
100
AcDbEntity
  8
0
100
AcDbEllipse
 62
7
  6
CONTINUOUS
 10
122.3435807355
 20
185.7464878379
 30
0.0
 11
-0.0
 21
72.5106988055
 31
0.0
 40
0.2447914624
 41
-4.6957684969
 42
-4.693714188
  0
ELLIPSE
  5
7C7
100
AcDbEntity
  8
0
100
AcDbEllipse
 62
7
  6
CONTINUOUS
 10
122.3435807355
 20
184.4818230581
 30
0.0
 11
17.75
 21
0.0
 31
0.0
 40
0.8987233915
 41
-3.1126449489
 42
-3.0938476227
  0
ELLIPSE
  5
7C8
100
AcDbEntity
  8
0
100
AcDbEllipse
 62
7
  6
CONTINUOUS
 10
122.3435807355
 20
217.0603263818
 30
0.0
 11
-0.0
 21
36.255038223
 31
0.0
 40
0.4895871269
 41
-3.9039073352
 42
-3.8979401632
  0
ELLIPSE
  5
7C9
100
AcDbEntity
  8
0
100
AcDbEllipse
 62
7
  6
CONTINUOUS
 10
122.3435807355
 20
203.9499397111
 30
0.0
 11
-0.0
 21
18.1277265653
 31
0.0
 40
0.9791630482
 41
-3.9157312519
 42
-3.9039073352
  0
ELLIPSE
  5
7CA
100
AcDbEntity
  8
0
100
AcDbEllipse
 62
7
  6
CONTINUOUS
 10
122.3435807355
 20
195.3087561655
 30
0.0
 11
17.75
 21
-0.0
 31
0.0
 40
0.3404254913
 41
-2.3624079759
 42
-2.3449349251
  0
ELLIPSE
  5
7CB
100
AcDbEntity
  8
0
100
AcDbEllipse
 62
7
  6
CONTINUOUS
 10
122.3435807355
 20
190.4379798022
 30
0.0
 11
17.75
 21
0.0
 31
0.0
 40
0.2042556244
 41
-2.4349345426
 42
-2.407605233
  0
ELLIPSE
  5
7CC
100
AcDbEntity
  8
0
100
AcDbEllipse
 62
7
  6
CONTINUOUS
 10
122.3435807355
 20
195.1460719435
 30
0.0
 11
17.75
 21
-0.0
 31
0.0
 40
0.6127668731
 41
-2.4616403963
 42
-2.4349345426
  0
ELLIPSE
  5
7CD
100
AcDbEntity
  8
0
100
AcDbEllipse
 62
7
  6
CONTINUOUS
 10
122.3435807355
 20
207.3037945542
 30
0.0
 11
0.0
 21
30.2127687037
 31
0.0
 40
0.5874999466
 41
-4.0481857364
 42
-4.0324367231
  0
ELLIPSE
  5
7CE
100
AcDbEntity
  8
0
100
AcDbEllipse
 62
7
  6
CONTINUOUS
 10
122.3435807355
 20
233.3772067088
 30
0.0
 11
-0.0
 21
72.5100764459
 31
0.0
 40
0.2447935635
 41
-4.0533922812
 42
-4.0481857364
  0
ELLIPSE
  5
7CF
100
AcDbEntity
  8
0
100
AcDbEllipse
 62
7
  6
CONTINUOUS
 10
122.3435807355
 20
185.2716877797
 30
0.0
 11
17.75
 21
0.0
 31
0.0
 40
0.2553200925
 41
2.3390411205
 42
2.3624079759
  0
ELLIPSE
  5
7D0
100
AcDbEntity
  8
0
100
AcDbEllipse
 62
7
  6
CONTINUOUS
 10
122.3435807355
 20
179.8399604642
 30
0.0
 11
17.75
 21
0.0
 31
0.0
 40
0.6808512211
 41
2.3211388223
 42
2.3390411205
  0
ELLIPSE
  5
7D1
100
AcDbEntity
  8
0
100
AcDbEllipse
 62
7
  6
CONTINUOUS
 10
122.3435807355
 20
168.7904717029
 30
0.0
 11
-0.0
 21
27.1912786672
 31
0.0
 40
0.6527828359
 41
0.7382143948
 42
0.7503424956
  0
ELLIPSE
  5
7D2
100
AcDbEntity
  8
0
100
AcDbEllipse
 62
7
  6
CONTINUOUS
 10
122.3435807355
 20
209.2391072522
 30
0.0
 11
-0.0
 21
27.1912913629
 31
0.0
 40
0.6527825311
 41
-3.8919351491
 42
-3.8798070484
  0
ELLIPSE
  5
7D3
100
AcDbEntity
  8
0
100
AcDbEllipse
 62
7
  6
CONTINUOUS
 10
122.3435807355
 20
198.1896061091
 30
0.0
 11
17.75
 21
0.0
 31
0.0
 40
0.6808509827
 41
-2.3390411205
 42
-2.3211388223
  0
ELLIPSE
  5
7D4
100
AcDbEntity
  8
0
100
AcDbEllipse
 62
7
  6
CONTINUOUS
 10
122.3435807355
 20
192.757881837
 30
0.0
 11
17.75
 21
0.0
 31
0.0
 40
0.2553200925
 41
-2.3624079759
 42
-2.3390411205
  0
ELLIPSE
  5
7D5
100
AcDbEntity
  8
0
100
AcDbEllipse
 62
7
  6
CONTINUOUS
 10
122.3435807355
 20
192.6461617134
 30
0.0
 11
17.75
 21
0.0
 31
0.0
 40
0.2553186315
 41
-2.4186158591
 42
-2.3964840025
  0
ELLIPSE
  5
7D6
100
AcDbEntity
  8
0
100
AcDbEllipse
 62
7
  6
CONTINUOUS
 10
122.3435807355
 20
195.6445598923
 30
0.0
 11
17.75
 21
0.0
 31
0.0
 40
0.510637263
 41
-2.4403236417
 42
-2.4186158591
  0
ELLIPSE
  5
7D7
100
AcDbEntity
  8
0
100
AcDbEllipse
 62
7
  6
CONTINUOUS
 10
122.3435807355
 20
201.4924870213
 30
0.0
 11
-0.0
 21
18.1277265653
 31
0.0
 40
0.9791630482
 41
-4.0324367231
 42
-4.0111199685
  0
ELLIPSE
  5
7D8
100
AcDbEntity
  8
0
100
AcDbEllipse
 62
7
  6
CONTINUOUS
 10
122.3435807355
 20
235.6857103585
 30
0.0
 11
-0.0
 21
72.5100764459
 31
0.0
 40
0.2447935635
 41
-4.0377084313
 42
-4.0324367231
  0
ELLIPSE
  5
7D9
100
AcDbEntity
  8
0
100
AcDbEllipse
 62
7
  6
CONTINUOUS
 10
122.3435807355
 20
145.3970507487
 30
0.0
 11
-0.0
 21
72.5100764459
 31
0.0
 40
0.2447935635
 41
0.8908440695
 42
0.8961157777
  0
ELLIPSE
  5
7DA
100
AcDbEntity
  8
0
100
AcDbEllipse
 62
7
  6
CONTINUOUS
 10
122.3435807355
 20
179.5902740858
 30
0.0
 11
0.0
 21
18.1277265653
 31
0.0
 40
0.9791630482
 41
0.8695273149
 42
0.8908440695
  0
ELLIPSE
  5
7DB
100
AcDbEntity
  8
0
100
AcDbEllipse
 62
7
  6
CONTINUOUS
 10
122.3435807355
 20
185.4382012148
 30
0.0
 11
17.75
 21
0.0
 31
0.0
 40
0.510637263
 41
2.4186158591
 42
2.4403236417
  0
ELLIPSE
  5
7DC
100
AcDbEntity
  8
0
100
AcDbEllipse
 62
7
  6
CONTINUOUS
 10
122.3435807355
 20
188.4365993937
 30
0.0
 11
17.75
 21
0.0
 31
0.0
 40
0.2553186315
 41
2.3964840025
 42
2.4186158591
  0
ELLIPSE
  5
7DD
100
AcDbEntity
  8
0
100
AcDbEllipse
 62
7
  6
CONTINUOUS
 10
122.3435807355
 20
189.8124469527
 30
0.0
 11
17.75
 21
0.0
 31
0.0
 40
0.2042556244
 41
-2.6446268666
 42
-2.6211082686
  0
ELLIPSE
  5
7DE
100
AcDbEntity
  8
0
100
AcDbEllipse
 62
7
  6
CONTINUOUS
 10
122.3435807355
 20
192.4052021375
 30
0.0
 11
17.75
 21
-0.0
 31
0.0
 40
0.5106373301
 41
-2.6632273327
 42
-2.6446268666
  0
ELLIPSE
  5
7DF
100
AcDbEntity
  8
0
100
AcDbEllipse
 62
7
  6
CONTINUOUS
 10
122.3435807355
 20
196.5775817549
 30
0.0
 11
-0.0
 21
18.1277281523
 31
0.0
 40
0.9791629624
 41
-4.2524462999
 42
-4.2340236595
  0
ELLIPSE
  5
7E0
100
AcDbEntity
  8
0
100
AcDbEllipse
 62
7
  6
CONTINUOUS
 10
122.3435807355
 20
204.6242385079
 30
0.0
 11
-0.0
 21
36.2550445708
 31
0.0
 40
0.4895870412
 41
-4.2615945716
 42
-4.2524462999
  0
ELLIPSE
  5
7E1
100
AcDbEntity
  8
0
100
AcDbEllipse
 62
7
  6
CONTINUOUS
 10
122.3435807355
 20
228.3185713145
 30
0.0
 11
-0.0
 21
90.639670119
 31
0.0
 40
0.1958303685
 41
-4.266153398
 42
-4.2615945716
  0
ELLIPSE
  5
7E2
100
AcDbEntity
  8
0
100
AcDbEllipse
 62
7
  6
CONTINUOUS
 10
122.3435807355
 20
186.1280873872
 30
0.0
 11
17.75
 21
0.0
 31
0.0
 40
0.2553186315
 41
2.5827982663
 42
2.6020631401
  0
ELLIPSE
  5
7E3
100
AcDbEntity
  8
0
100
AcDbEllipse
 62
7
  6
CONTINUOUS
 10
122.3435807355
 20
182.1236481774
 30
0.0
 11
17.75
 21
-0.0
 31
0.0
 40
0.6808512211
 41
2.5681963357
 42
2.5827982663
  0
ELLIPSE
  5
7E4
100
AcDbEntity
  8
0
100
AcDbEllipse
 62
7
  6
CONTINUOUS
 10
122.3435807355
 20
173.9285592446
 30
0.0
 11
-0.0
 21
27.1915898479
 31
0.0
 40
0.6527753654
 41
0.9875886372
 42
0.9974000089
  0
ELLIPSE
  5
7E5
100
AcDbEntity
  8
0
100
AcDbEllipse
 62
7
  6
CONTINUOUS
 10
122.3435807355
 20
148.9714771885
 30
0.0
 11
-0.0
 21
72.5100764459
 31
0.0
 40
0.2447935635
 41
0.9826590599
 42
0.9875886372
  0
ELLIPSE
  5
7E6
100
AcDbEntity
  8
0
100
AcDbEllipse
 62
7
  6
CONTINUOUS
 10
122.3435807355
 20
189.000955101
 30
0.0
 11
17.75
 21
0.0
 31
0.0
 40
0.3404254913
 41
2.959603824
 42
2.972120618
  0
ELLIPSE
  5
7E7
100
AcDbEntity
  8
0
100
AcDbEllipse
 62
7
  6
CONTINUOUS
 10
122.3435807355
 20
186.8137088037
 30
0.0
 11
0.0
 21
18.1277265653
 31
0.0
 40
0.9791630482
 41
1.3804470787
 42
1.3888074972
  0
ELLIPSE
  5
7E8
100
AcDbEntity
  8
0
100
AcDbEllipse
 62
7
  6
CONTINUOUS
 10
122.3435807355
 20
179.9542278742
 30
0.0
 11
-0.0
 21
54.3825573345
 31
0.0
 40
0.3263914179
 41
1.3762618035
 42
1.3804470787
  0
ELLIPSE
  5
7E9
100
AcDbEntity
  8
0
100
AcDbEllipse
 62
7
  6
CONTINUOUS
 10
122.3435807355
 20
201.2030013091
 30
0.0
 11
-0.0
 21
54.3825573345
 31
0.0
 40
0.3263914179
 41
1.7611455749
 42
1.7653308501
  0
ELLIPSE
  5
7EA
100
AcDbEntity
  8
0
100
AcDbEllipse
 62
7
  6
CONTINUOUS
 10
122.3435807355
 20
194.3435203797
 30
0.0
 11
0.0
 21
18.1277265653
 31
0.0
 40
0.9791630482
 41
-4.5304001508
 42
-4.5220397323
  0
ELLIPSE
  5
7EB
100
AcDbEntity
  8
0
100
AcDbEllipse
 62
7
  6
CONTINUOUS
 10
122.3435807355
 20
192.1562740824
 30
0.0
 11
17.75
 21
-0.0
 31
0.0
 40
0.3404254913
 41
3.3110646892
 42
3.3235814832
  0
ELLIPSE
  5
7EC
100
AcDbEntity
  8
0
100
AcDbEllipse
 62
7
  6
CONTINUOUS
 10
122.3435807355
 20
192.9817734907
 30
0.0
 11
-0.0
 21
72.5100891416
 31
0.0
 40
0.2447935206
 41
-4.6550806368
 42
-4.6509653717
  0
ELLIPSE
  5
7ED
100
AcDbEntity
  8
0
100
AcDbEllipse
 62
7
  6
CONTINUOUS
 10
122.3435807355
 20
189.6435095021
 30
0.0
 11
-0.0
 21
18.1276762884
 31
0.0
 40
0.9791657639
 41
-4.6509653717
 42
-4.6463913342
  0
ELLIPSE
  5
7EE
100
AcDbEntity
  8
0
100
AcDbEllipse
 62
7
  6
CONTINUOUS
 10
122.3435807355
 20
189.8754219452
 30
0.0
 11
0.0
 21
18.1276747014
 31
0.0
 40
0.9791658496
 41
1.5052537317
 42
1.5093727181
  0
ELLIPSE
  5
7EF
100
AcDbEntity
  8
0
100
AcDbEllipse
 62
7
  6
CONTINUOUS
 10
122.3435807355
 20
185.4243979019
 30
0.0
 11
-0.0
 21
90.6376463402
 31
0.0
 40
0.195834741
 41
1.5093727181
 42
1.5134879832
  0
ELLIPSE
  5
7F0
100
AcDbEntity
  8
0
100
AcDbEllipse
 62
7
  6
CONTINUOUS
 10
122.3435807355
 20
182.6938914081
 30
0.0
 11
17.25
 21
-0.0
 31
0.0
 40
0.2042554442
 41
-3.0529015363
 42
-3.0316612237
  0
ELLIPSE
  5
7F1
100
AcDbEntity
  8
0
100
AcDbEllipse
 62
7
  6
CONTINUOUS
 10
122.3435807355
 20
183.4220897408
 30
0.0
 11
17.25
 21
-0.0
 31
0.0
 40
0.6808509827
 41
-3.0656258801
 42
-3.0529015363
  0
ELLIPSE
  5
7F2
100
AcDbEntity
  8
0
100
AcDbEllipse
 62
7
  6
CONTINUOUS
 10
122.3435807355
 20
186.5417992983
 30
0.0
 11
-0.0
 21
52.8509690624
 31
0.0
 40
0.3263894741
 41
-4.6406608235
 42
-4.6364222068
  0
ELLIPSE
  5
7F3
100
AcDbEntity
  8
0
100
AcDbEllipse
 62
7
  6
CONTINUOUS
 10
122.3435807355
 20
203.2052604446
 30
0.0
 11
-0.0
 21
18.1277265653
 31
0.0
 40
0.9791630482
 41
-3.8798070484
 42
-3.8550507302
  0
ELLIPSE
  5
7F4
100
AcDbEntity
  8
0
100
AcDbEllipse
 62
7
  6
CONTINUOUS
 10
122.3435807355
 20
216.9113893934
 30
0.0
 11
-0.0
 21
36.2550509187
 31
0.0
 40
0.4895869555
 41
-3.8550507302
 42
-3.8424039562
  0
ELLIPSE
  5
7F5
100
AcDbEntity
  8
0
100
AcDbEllipse
 62
7
  6
CONTINUOUS
 10
122.3435807355
 20
161.1181850229
 30
0.0
 11
-0.0
 21
36.2550445708
 31
0.0
 40
0.4895870412
 41
0.7008113026
 42
0.7134580766
  0
ELLIPSE
  5
7F6
100
AcDbEntity
  8
0
100
AcDbEllipse
 62
7
  6
CONTINUOUS
 10
122.3435807355
 20
174.8243079722
 30
0.0
 11
0.0
 21
18.1277281523
 31
0.0
 40
0.9791629624
 41
0.7134580766
 42
0.7382143948
  0
ELLIPSE
  5
7F7
100
AcDbEntity
  8
0
100
AcDbEllipse
 62
7
  6
CONTINUOUS
 10
122.3435807355
 20
181.5286270066
 30
0.0
 11
17.75
 21
-0.0
 31
0.0
 40
0.5106373301
 41
2.3090107216
 42
2.3331110084
  0
ELLIPSE
  5
7F8
100
AcDbEntity
  8
0
100
AcDbEllipse
 62
7
  6
CONTINUOUS
 10
122.3435807355
 20
185.461802154
 30
0.0
 11
17.75
 21
0.0
 31
0.0
 40
0.2042556244
 41
2.3331110084
 42
2.3624079759
  0
ELLIPSE
  5
7F9
100
AcDbEntity
  8
0
100
AcDbEllipse
 62
7
  6
CONTINUOUS
 10
122.3435807355
 20
189.9913759655
 30
0.0
 11
0.0
 21
18.1276762884
 31
0.0
 40
0.9791657639
 41
1.2738702943
 42
1.2934515955
  0
ELLIPSE
  5
7FA
100
AcDbEntity
  8
0
100
AcDbEllipse
 62
7
  6
CONTINUOUS
 10
122.3435807355
 20
223.6177078632
 30
0.0
 11
-0.0
 21
54.3825573345
 31
0.0
 40
0.3263914179
 41
-4.0218252823
 42
-4.0164845306
  0
ELLIPSE
  5
7FB
100
AcDbEntity
  8
0
100
AcDbEllipse
 62
7
  6
CONTINUOUS
 10
122.3435807355
 20
200.375425007
 30
0.0
 11
-0.0
 21
18.1276616454
 31
0.0
 40
0.9791665548
 41
-4.0164845306
 42
-4.0003168605
  0
ELLIPSE
  5
7FC
100
AcDbEntity
  8
0
100
AcDbEllipse
 62
7
  6
CONTINUOUS
 10
122.3435807355
 20
191.4919235324
 30
0.0
 11
17.75
 21
0.0
 31
0.0
 40
0.2553200925
 41
-2.4295205337
 42
-2.407605233
  0
ELLIPSE
  5
7FD
100
AcDbEntity
  8
0
100
AcDbEllipse
 62
7
  6
CONTINUOUS
 10
122.3435807355
 20
192.4730802727
 30
0.0
 11
17.75
 21
0.0
 31
0.0
 40
0.510638791
 41
2.8642479223
 42
2.883720655
  0
ELLIPSE
  5
7FE
100
AcDbEntity
  8
0
100
AcDbEllipse
 62
7
  6
CONTINUOUS
 10
122.3435807355
 20
193.8599769542
 30
0.0
 11
17.75
 21
-0.0
 31
0.0
 40
0.2042551568
 41
2.883720655
 42
2.9079226948
  0
ELLIPSE
  5
7FF
100
AcDbEntity
  8
0
100
AcDbEllipse
 62
7
  6
CONTINUOUS
 10
122.3435807355
 20
194.0422351691
 30
0.0
 11
17.75
 21
0.0
 31
0.0
 40
0.2042556065
 41
-2.3681654811
 42
-2.3390411205
  0
ELLIPSE
  5
800
100
AcDbEntity
  8
0
100
AcDbEllipse
 62
7
  6
CONTINUOUS
 10
122.3435807355
 20
201.2121049922
 30
0.0
 11
17.75
 21
0.0
 31
0.0
 40
0.7659558946
 41
-2.3390411205
 42
-2.3150947359
  0
ELLIPSE
  5
801
100
AcDbEntity
  8
0
100
AcDbEllipse
 62
7
  6
CONTINUOUS
 10
122.3435807355
 20
208.9903146288
 30
0.0
 11
-0.0
 21
24.1702098846
 31
0.0
 40
0.7343750875
 41
-3.8858910627
 42
-3.8675152096
  0
ELLIPSE
  5
802
100
AcDbEntity
  8
0
100
AcDbEllipse
 62
7
  6
CONTINUOUS
 10
122.3435807355
 20
231.5857463131
 30
0.0
 11
-0.0
 21
54.3825573345
 31
0.0
 40
0.3263914179
 41
-3.8675152096
 42
-3.8613050545
  0
ELLIPSE
  5
803
100
AcDbEntity
  8
0
100
AcDbEllipse
 62
7
  6
CONTINUOUS
 10
122.3435807355
 20
136.6800824998
 30
0.0
 11
-0.0
 21
90.6375955574
 31
0.0
 40
0.1958348508
 41
0.9527302148
 42
0.9577617387
  0
ELLIPSE
  5
804
100
AcDbEntity
  8
0
100
AcDbEllipse
 62
7
  6
CONTINUOUS
 10
122.3435807355
 20
167.9689593847
 30
0.0
 11
-0.0
 21
36.2554594785
 31
0.0
 40
0.4895814384
 41
0.9577617387
 42
0.9677717455
  0
ELLIPSE
  5
805
100
AcDbEntity
  8
0
100
AcDbEllipse
 62
7
  6
CONTINUOUS
 10
122.3435807355
 20
178.2499105373
 30
0.0
 11
-0.0
 21
18.1276244248
 31
0.0
 40
0.9791685653
 41
0.9677717455
 42
0.9875886372
  0
ELLIPSE
  5
806
100
AcDbEntity
  8
0
100
AcDbEllipse
 62
7
  6
CONTINUOUS
 10
122.3435807355
 20
193.8599769542
 30
0.0
 11
17.25
 21
0.0
 31
0.0
 40
0.2042551568
 41
2.8760680974
 42
2.9010178975
  0
ELLIPSE
  5
807
100
AcDbEntity
  8
0
100
AcDbEllipse
 62
7
  6
CONTINUOUS
 10
122.3435807355
 20
192.4730802727
 30
0.0
 11
17.25
 21
-0.0
 31
0.0
 40
0.510638791
 41
2.8559864703
 42
2.8760680974
  0
ELLIPSE
  5
808
100
AcDbEntity
  8
0
100
AcDbEllipse
 62
7
  6
CONTINUOUS
 10
122.3435807355
 20
189.9913759655
 30
0.0
 11
0.0
 21
17.6170375197
 31
0.0
 40
0.9791657639
 41
1.2649893775
 42
1.2851901435
  0
ELLIPSE
  5
809
100
AcDbEntity
  8
0
100
AcDbEllipse
 62
7
  6
CONTINUOUS
 10
122.3435807355
 20
184.6875710329
 30
0.0
 11
-0.0
 21
35.2339773186
 31
0.0
 40
0.4895842398
 41
1.254841014
 42
1.2649893775
  0
ELLIPSE
  5
80A
100
AcDbEntity
  8
0
100
AcDbEllipse
 62
7
  6
CONTINUOUS
 10
122.3435807355
 20
168.2653219566
 30
0.0
 11
-0.0
 21
88.0854319017
 31
0.0
 40
0.1958326096
 41
1.2497542803
 42
1.254841014
  0
ELLIPSE
  5
80B
100
AcDbEntity
  8
0
100
AcDbEllipse
 62
7
  6
CONTINUOUS
 10
122.3435807355
 20
225.1336247955
 30
0.0
 11
-0.0
 21
88.0854812545
 31
0.0
 40
0.1958324999
 41
-4.3964336676
 42
-4.3913469339
  0
ELLIPSE
  5
80C
100
AcDbEntity
  8
0
100
AcDbEllipse
 62
7
  6
CONTINUOUS
 10
122.3435807355
 20
208.7113584672
 30
0.0
 11
-0.0
 21
35.2339711495
 31
0.0
 40
0.4895843255
 41
-4.4065820311
 42
-4.3964336676
  0
ELLIPSE
  5
80D
100
AcDbEntity
  8
0
100
AcDbEllipse
 62
7
  6
CONTINUOUS
 10
122.3435807355
 20
203.4075549275
 30
0.0
 11
0.0
 21
17.6170359774
 31
0.0
 40
0.9791658496
 41
-4.4267827971
 42
-4.4065820311
  0
ELLIPSE
  5
80E
100
AcDbEntity
  8
0
100
AcDbEllipse
 62
7
  6
CONTINUOUS
 10
122.3435807355
 20
200.9258507289
 30
0.0
 11
17.25
 21
-0.0
 31
0.0
 40
0.510638724
 41
-2.8760680974
 42
-2.8559864703
  0
ELLIPSE
  5
80F
100
AcDbEntity
  8
0
100
AcDbEllipse
 62
7
  6
CONTINUOUS
 10
122.3435807355
 20
199.53895427
 30
0.0
 11
17.25
 21
-0.0
 31
0.0
 40
0.204255139
 41
-2.9010178975
 42
-2.8760680974
  0
ELLIPSE
  5
810
100
AcDbEntity
  8
0
100
AcDbEllipse
 62
7
  6
CONTINUOUS
 10
122.3435807355
 20
183.241390002
 30
0.0
 11
17.75
 21
0.0
 31
0.0
 40
0.5106373301
 41
2.558384964
 42
2.5779460425
  0
ELLIPSE
  5
811
100
AcDbEntity
  8
0
100
AcDbEllipse
 62
7
  6
CONTINUOUS
 10
122.3435807355
 20
188.6909690919
 30
0.0
 11
-0.0
 21
90.6381141889
 31
0.0
 40
0.1958337302
 41
1.4893918867
 42
1.4941014427
  0
ELLIPSE
  5
812
100
AcDbEntity
  8
0
100
AcDbEllipse
 62
7
  6
CONTINUOUS
 10
122.3435807355
 20
186.1469096743
 30
0.0
 11
17.75
 21
0.0
 31
0.0
 40
0.2042556244
 41
2.5779460425
 42
2.6020631401
  0
ELLIPSE
  5
813
100
AcDbEntity
  8
0
100
AcDbEllipse
 62
7
  6
CONTINUOUS
 10
122.3435807355
 20
192.8577607244
 30
0.0
 11
-0.0
 21
36.2553557507
 31
0.0
 40
0.4895828391
 41
1.4941014427
 42
1.5035155223
  0
ELLIPSE
  5
814
100
AcDbEntity
  8
0
100
AcDbEllipse
 62
7
  6
CONTINUOUS
 10
122.3435807355
 20
194.0764873714
 30
0.0
 11
-0.0
 21
18.1276503565
 31
0.0
 40
0.9791671646
 41
1.5035155223
 42
1.5223266464
  0
ELLIPSE
  5
815
100
AcDbEntity
  8
0
100
AcDbEllipse
 62
7
  6
CONTINUOUS
 10
122.3435807355
 20
194.5156360651
 30
0.0
 11
17.75
 21
-0.0
 31
0.0
 40
0.5106380606
 41
3.0931229732
 42
3.1119169456
  0
ELLIPSE
  5
816
100
AcDbEntity
  8
0
100
AcDbEllipse
 62
7
  6
CONTINUOUS
 10
122.3435807355
 20
194.3420914733
 30
0.0
 11
17.25
 21
0.0
 31
0.0
 40
0.6808512211
 41
3.6446719933
 42
3.6563251515
  0
ELLIPSE
  5
817
100
AcDbEntity
  8
0
100
AcDbEllipse
 62
7
  6
CONTINUOUS
 10
122.3435807355
 20
201.4200061036
 30
0.0
 11
0.0
 21
26.4253271555
 31
0.0
 40
0.6527828359
 41
-4.2189340574
 42
-4.2093096407
  0
ELLIPSE
  5
818
100
AcDbEntity
  8
0
100
AcDbEllipse
 62
7
  6
CONTINUOUS
 10
122.3435807355
 20
222.2823091471
 30
0.0
 11
-0.0
 21
70.4691519799
 31
0.0
 40
0.2447879606
 41
-4.2237274665
 42
-4.2189340574
  0
ELLIPSE
  5
819
100
AcDbEntity
  8
0
100
AcDbEllipse
 62
7
  6
CONTINUOUS
 10
122.3435807355
 20
222.2823091471
 30
0.0
 11
-0.0
 21
72.5117360952
 31
0.0
 40
0.2447879606
 41
-4.2386454821
 42
-4.2340236595
  0
ELLIPSE
  5
81A
100
AcDbEntity
  8
0
100
AcDbEllipse
 62
7
  6
CONTINUOUS
 10
122.3435807355
 20
201.4200061036
 30
0.0
 11
-0.0
 21
27.1912786672
 31
0.0
 40
0.6527828359
 41
-4.2340236595
 42
-4.2247463109
  0
ELLIPSE
  5
81B
100
AcDbEntity
  8
0
100
AcDbEllipse
 62
7
  6
CONTINUOUS
 10
122.3435807355
 20
194.3420914733
 30
0.0
 11
17.75
 21
-0.0
 31
0.0
 40
0.6808512211
 41
-2.6539499841
 42
-2.6399475813
  0
ELLIPSE
  5
81C
100
AcDbEntity
  8
0
100
AcDbEllipse
 62
7
  6
CONTINUOUS
 10
122.3435807355
 20
190.7100057492
 30
0.0
 11
17.75
 21
0.0
 31
0.0
 40
0.2553200925
 41
-2.6399475813
 42
-2.6211082686
  0
ELLIPSE
  5
81D
100
AcDbEntity
  8
0
100
AcDbEllipse
 62
7
  6
CONTINUOUS
 10
122.3435807355
 20
199.53895427
 30
0.0
 11
17.75
 21
0.0
 31
0.0
 40
0.204255139
 41
-2.9079226948
 42
-2.883720655
  0
ELLIPSE
  5
81E
100
AcDbEntity
  8
0
100
AcDbEllipse
 62
7
  6
CONTINUOUS
 10
122.3435807355
 20
186.1469096743
 30
0.0
 11
17.25
 21
0.0
 31
0.0
 40
0.2042556244
 41
2.5595176463
 42
2.5846148691
  0
ELLIPSE
  5
81F
100
AcDbEntity
  8
0
100
AcDbEllipse
 62
7
  6
CONTINUOUS
 10
122.3435807355
 20
183.241390002
 30
0.0
 11
17.25
 21
0.0
 31
0.0
 40
0.5106373301
 41
2.5391380202
 42
2.5595176463
  0
ELLIPSE
  5
820
100
AcDbEntity
  8
0
100
AcDbEllipse
 62
7
  6
CONTINUOUS
 10
122.3435807355
 20
178.2499105373
 30
0.0
 11
0.0
 21
17.616987117
 31
0.0
 40
0.9791685653
 41
0.9476722849
 42
0.9683416934
  0
ELLIPSE
  5
821
100
AcDbEntity
  8
0
100
AcDbEllipse
 62
7
  6
CONTINUOUS
 10
122.3435807355
 20
167.9689593847
 30
0.0
 11
-0.0
 21
35.2341789298
 31
0.0
 40
0.4895814384
 41
0.9433658828
 42
0.9476722849
  0
ELLIPSE
  5
822
100
AcDbEntity
  8
0
100
AcDbEllipse
 62
7
  6
CONTINUOUS
 10
122.3435807355
 20
136.6800824998
 30
0.0
 11
-0.0
 21
88.0844238516
 31
0.0
 40
0.1958348508
 41
0.9319669619
 42
0.9351225397
  0
ELLIPSE
  5
823
100
AcDbEntity
  8
0
100
AcDbEllipse
 62
7
  6
CONTINUOUS
 10
122.3435807355
 20
231.5857463131
 30
0.0
 11
-0.0
 21
52.850654311
 31
0.0
 40
0.3263914179
 41
-3.8342289794
 42
-3.827582683
  0
ELLIPSE
  5
824
100
AcDbEntity
  8
0
100
AcDbEllipse
 62
7
  6
CONTINUOUS
 10
122.3435807355
 20
208.9903146288
 30
0.0
 11
-0.0
 21
23.489358902
 31
0.0
 40
0.7343750875
 41
-3.8538568434
 42
-3.8342289794
  0
ELLIPSE
  5
825
100
AcDbEntity
  8
0
100
AcDbEllipse
 62
7
  6
CONTINUOUS
 10
122.3435807355
 20
201.2121049922
 30
0.0
 11
17.25
 21
0.0
 31
0.0
 40
0.7659558946
 41
-2.3085582544
 42
-2.2830605166
  0
ELLIPSE
  5
826
100
AcDbEntity
  8
0
100
AcDbEllipse
 62
7
  6
CONTINUOUS
 10
122.3435807355
 20
194.0422351691
 30
0.0
 11
17.25
 21
0.0
 31
0.0
 40
0.2042556065
 41
-2.3394595868
 42
-2.3085582544
  0
ELLIPSE
  5
827
100
AcDbEntity
  8
0
100
AcDbEllipse
 62
7
  6
CONTINUOUS
 10
122.3435807355
 20
186.5417992983
 30
0.0
 11
-0.0
 21
54.3828812091
 31
0.0
 40
0.3263894741
 41
-4.6426846615
 42
-4.6385660686
  0
ELLIPSE
  5
828
100
AcDbEntity
  8
0
100
AcDbEllipse
 62
7
  6
CONTINUOUS
 10
122.3435807355
 20
183.4220897408
 30
0.0
 11
17.75
 21
0.0
 31
0.0
 40
0.6808509827
 41
-3.0677697419
 42
-3.0554061727
  0
ELLIPSE
  5
829
100
AcDbEntity
  8
0
100
AcDbEllipse
 62
7
  6
CONTINUOUS
 10
122.3435807355
 20
182.6938914081
 30
0.0
 11
17.75
 21
-0.0
 31
0.0
 40
0.2042554442
 41
-3.0554061727
 42
-3.0347698902
  0
ELLIPSE
  5
82A
100
AcDbEntity
  8
0
100
AcDbEllipse
 62
7
  6
CONTINUOUS
 10
122.3435807355
 20
200.9258507289
 30
0.0
 11
17.75
 21
-0.0
 31
0.0
 40
0.510638724
 41
-2.883720655
 42
-2.8642479223
  0
ELLIPSE
  5
82B
100
AcDbEntity
  8
0
100
AcDbEllipse
 62
7
  6
CONTINUOUS
 10
122.3435807355
 20
203.4075549275
 30
0.0
 11
-0.0
 21
18.1276747014
 31
0.0
 40
0.9791658496
 41
-4.4350442491
 42
-4.4154629479
  0
ELLIPSE
  5
82C
100
AcDbEntity
  8
0
100
AcDbEllipse
 62
7
  6
CONTINUOUS
 10
122.3435807355
 20
191.4919235324
 30
0.0
 11
17.25
 21
-0.0
 31
0.0
 40
0.2553200925
 41
-2.4042231698
 42
-2.3869077213
  0
ELLIPSE
  5
82D
100
AcDbEntity
  8
0
100
AcDbEllipse
 62
7
  6
CONTINUOUS
 10
122.3435807355
 20
200.375425007
 30
0.0
 11
0.0
 21
17.6170232892
 31
0.0
 40
0.9791665548
 41
-3.9920202138
 42
-3.9750194966
  0
ELLIPSE
  5
82E
100
AcDbEntity
  8
0
100
AcDbEllipse
 62
7
  6
CONTINUOUS
 10
122.3435807355
 20
178.5393446524
 30
0.0
 11
-0.0
 21
54.3825573345
 31
0.0
 40
0.3263914179
 41
1.3510749095
 42
1.3552821549
  0
ELLIPSE
  5
82F
100
AcDbEntity
  8
0
100
AcDbEllipse
 62
7
  6
CONTINUOUS
 10
122.3435807355
 20
223.6177078632
 30
0.0
 11
-0.0
 21
52.850654311
 31
0.0
 40
0.3263914179
 41
-3.9976308246
 42
-3.9920202138
  0
ELLIPSE
  5
830
100
AcDbEntity
  8
0
100
AcDbEllipse
 62
7
  6
CONTINUOUS
 10
122.3435807355
 20
208.7113584672
 30
0.0
 11
-0.0
 21
36.2552456756
 31
0.0
 40
0.4895843255
 41
-4.4154629479
 42
-4.4056286121
  0
ELLIPSE
  5
831
100
AcDbEntity
  8
0
100
AcDbEllipse
 62
7
  6
CONTINUOUS
 10
122.3435807355
 20
185.0002471156
 30
0.0
 11
0.0
 21
24.1702098846
 31
0.0
 40
0.7343750875
 41
1.3552821549
 42
1.3678809046
  0
ELLIPSE
  5
832
100
AcDbEntity
  8
0
100
AcDbEllipse
 62
7
  6
CONTINUOUS
 10
122.3435807355
 20
225.1336247955
 30
0.0
 11
-0.0
 21
90.6386836097
 31
0.0
 40
0.1958324999
 41
-4.4056286121
 42
-4.4007000258
  0
ELLIPSE
  5
833
100
AcDbEntity
  8
0
100
AcDbEllipse
 62
7
  6
CONTINUOUS
 10
122.3435807355
 20
185.461802154
 30
0.0
 11
17.25
 21
0.0
 31
0.0
 40
0.2042556244
 41
2.3022519556
 42
2.3333597049
  0
ELLIPSE
  5
834
100
AcDbEntity
  8
0
100
AcDbEllipse
 62
7
  6
CONTINUOUS
 10
122.3435807355
 20
181.5286270066
 30
0.0
 11
17.25
 21
0.0
 31
0.0
 40
0.5106373301
 41
2.2765681717
 42
2.3022519556
  0
ELLIPSE
  5
835
100
AcDbEntity
  8
0
100
AcDbEllipse
 62
7
  6
CONTINUOUS
 10
122.3435807355
 20
174.8243079722
 30
0.0
 11
0.0
 21
17.6170879226
 31
0.0
 40
0.9791629624
 41
0.6792894817
 42
0.7057718449
  0
ELLIPSE
  5
836
100
AcDbEntity
  8
0
100
AcDbEllipse
 62
7
  6
CONTINUOUS
 10
122.3435807355
 20
161.1181850229
 30
0.0
 11
-0.0
 21
35.2337757097
 31
0.0
 40
0.4895870412
 41
0.665718116
 42
0.6792894817
  0
ELLIPSE
  5
837
100
AcDbEntity
  8
0
100
AcDbEllipse
 62
7
  6
CONTINUOUS
 10
122.3435807355
 20
216.9113893934
 30
0.0
 11
-0.0
 21
35.2337818787
 31
0.0
 40
0.4895869555
 41
-3.8208821352
 42
-3.8073107696
  0
ELLIPSE
  5
838
100
AcDbEntity
  8
0
100
AcDbEllipse
 62
7
  6
CONTINUOUS
 10
122.3435807355
 20
187.131264447
 30
0.0
 11
17.75
 21
-0.0
 31
0.0
 40
0.7659602774
 41
2.9386772314
 42
2.9554252125
  0
ELLIPSE
  5
839
100
AcDbEntity
  8
0
100
AcDbEllipse
 62
7
  6
CONTINUOUS
 10
122.3435807355
 20
203.2052604446
 30
0.0
 11
-0.0
 21
17.6170863803
 31
0.0
 40
0.9791630482
 41
-3.8473644985
 42
-3.8208821352
  0
ELLIPSE
  5
83A
100
AcDbEntity
  8
0
100
AcDbEllipse
 62
7
  6
CONTINUOUS
 10
122.3435807355
 20
196.5009417037
 30
0.0
 11
17.25
 21
0.0
 31
0.0
 40
0.510637263
 41
-2.3022519556
 42
-2.2765681717
  0
ELLIPSE
  5
83B
100
AcDbEntity
  8
0
100
AcDbEllipse
 62
7
  6
CONTINUOUS
 10
122.3435807355
 20
188.976701719
 30
0.0
 11
17.75
 21
-0.0
 31
0.0
 40
0.2042546715
 41
2.9554252125
 42
2.9762868645
  0
ELLIPSE
  5
83C
100
AcDbEntity
  8
0
100
AcDbEllipse
 62
7
  6
CONTINUOUS
 10
122.3435807355
 20
192.5677671875
 30
0.0
 11
17.25
 21
0.0
 31
0.0
 40
0.2042556065
 41
-2.3333597049
 42
-2.3022519556
  0
ELLIPSE
  5
83D
100
AcDbEntity
  8
0
100
AcDbEllipse
 62
7
  6
CONTINUOUS
 10
122.3435807355
 20
194.1172667372
 30
0.0
 11
17.25
 21
-0.0
 31
0.0
 40
0.3404254913
 41
3.8962295519
 42
3.9137820309
  0
ELLIPSE
  5
83E
100
AcDbEntity
  8
0
100
AcDbEllipse
 62
7
  6
CONTINUOUS
 10
122.3435807355
 20
198.1399614825
 30
0.0
 11
17.25
 21
0.0
 31
0.0
 40
0.6808509827
 41
-2.4042231698
 42
-2.3869557553
  0
ELLIPSE
  5
83F
100
AcDbEntity
  8
0
100
AcDbEllipse
 62
7
  6
CONTINUOUS
 10
122.3435807355
 20
225.7772770648
 30
0.0
 11
-0.0
 21
52.850654311
 31
0.0
 40
0.3263914179
 41
-3.9807152223
 42
-3.9750194966
  0
ELLIPSE
  5
840
100
AcDbEntity
  8
0
100
AcDbEllipse
 62
7
  6
CONTINUOUS
 10
122.3435807355
 20
155.3054508606
 30
0.0
 11
0.0
 21
52.8507036632
 31
0.0
 40
0.3263911132
 41
0.833426843
 42
0.8391225687
  0
ELLIPSE
  5
841
100
AcDbEntity
  8
0
100
AcDbEllipse
 62
7
  6
CONTINUOUS
 10
122.3435807355
 20
182.9427996247
 30
0.0
 11
17.25
 21
-0.0
 31
0.0
 40
0.6808509827
 41
2.3869557553
 42
2.4042231698
  0
ELLIPSE
  5
842
100
AcDbEntity
  8
0
100
AcDbEllipse
 62
7
  6
CONTINUOUS
 10
122.3435807355
 20
186.96549437
 30
0.0
 11
17.25
 21
0.0
 31
0.0
 40
0.3404254913
 41
2.3805300694
 42
2.3869557553
  0
ELLIPSE
  5
843
100
AcDbEntity
  8
0
100
AcDbEllipse
 62
7
  6
CONTINUOUS
 10
122.3435807355
 20
192.1060593881
 30
0.0
 11
17.75
 21
0.0
 31
0.0
 40
0.2042546715
 41
-2.9762868645
 42
-2.9554252125
  0
ELLIPSE
  5
844
100
AcDbEntity
  8
0
100
AcDbEllipse
 62
7
  6
CONTINUOUS
 10
122.3435807355
 20
193.9514966601
 30
0.0
 11
17.75
 21
-0.0
 31
0.0
 40
0.7659602774
 41
-2.9554252125
 42
-2.9386772314
  0
ELLIPSE
  5
845
100
AcDbEntity
  8
0
100
AcDbEllipse
 62
7
  6
CONTINUOUS
 10
122.3435807355
 20
196.0825139916
 30
0.0
 11
0.0
 21
24.1702098846
 31
0.0
 40
0.7343750875
 41
1.773711749
 42
1.7863104987
  0
ELLIPSE
  5
846
100
AcDbEntity
  8
0
100
AcDbEllipse
 62
7
  6
CONTINUOUS
 10
122.3435807355
 20
202.5434164547
 30
0.0
 11
-0.0
 21
54.3825573345
 31
0.0
 40
0.3263914179
 41
-4.4968748085
 42
-4.4926675631
  0
ELLIPSE
  5
847
100
AcDbEntity
  8
0
100
AcDbEllipse
 62
7
  6
CONTINUOUS
 10
122.3435807355
 20
168.2653219566
 30
0.0
 11
-0.0
 21
90.6386328264
 31
0.0
 40
0.1958326096
 41
1.2591073722
 42
1.2640359585
  0
ELLIPSE
  5
848
100
AcDbEntity
  8
0
100
AcDbEllipse
 62
7
  6
CONTINUOUS
 10
122.3435807355
 20
184.6875710329
 30
0.0
 11
0.0
 21
36.2552520235
 31
0.0
 40
0.4895842398
 41
1.2640359585
 42
1.2738702943
  0
ELLIPSE
  5
849
100
AcDbEntity
  8
0
100
AcDbEllipse
 62
7
  6
CONTINUOUS
 10
122.3435807355
 20
186.96549437
 30
0.0
 11
17.75
 21
0.0
 31
0.0
 40
0.3404254913
 41
2.3964840025
 42
2.4131240034
  0
ELLIPSE
  5
84A
100
AcDbEntity
  8
0
100
AcDbEllipse
 62
7
  6
CONTINUOUS
 10
122.3435807355
 20
182.9427996247
 30
0.0
 11
17.75
 21
-0.0
 31
0.0
 40
0.6808509827
 41
2.4131240034
 42
2.4295205337
  0
ELLIPSE
  5
84B
100
AcDbEntity
  8
0
100
AcDbEllipse
 62
7
  6
CONTINUOUS
 10
122.3435807355
 20
155.3054508606
 30
0.0
 11
-0.0
 21
54.3826081172
 31
0.0
 40
0.3263911132
 41
0.8587242069
 42
0.8641382158
  0
ELLIPSE
  5
84C
100
AcDbEntity
  8
0
100
AcDbEllipse
 62
7
  6
CONTINUOUS
 10
122.3435807355
 20
225.7772770648
 30
0.0
 11
-0.0
 21
54.3825573345
 31
0.0
 40
0.3263914179
 41
-4.0057308693
 42
-4.0003168605
  0
ELLIPSE
  5
84D
100
AcDbEntity
  8
0
100
AcDbEllipse
 62
7
  6
CONTINUOUS
 10
122.3435807355
 20
198.1399614825
 30
0.0
 11
17.75
 21
0.0
 31
0.0
 40
0.6808509827
 41
-2.4295205337
 42
-2.4131240034
  0
ELLIPSE
  5
84E
100
AcDbEntity
  8
0
100
AcDbEllipse
 62
7
  6
CONTINUOUS
 10
122.3435807355
 20
194.1172667372
 30
0.0
 11
17.75
 21
0.0
 31
0.0
 40
0.3404254913
 41
-2.4131240034
 42
-2.3964840025
  0
ELLIPSE
  5
84F
100
AcDbEntity
  8
0
100
AcDbEllipse
 62
7
  6
CONTINUOUS
 10
122.3435807355
 20
192.5677671875
 30
0.0
 11
17.75
 21
-0.0
 31
0.0
 40
0.2042556065
 41
-2.3624079759
 42
-2.3331110084
  0
ELLIPSE
  5
850
100
AcDbEntity
  8
0
100
AcDbEllipse
 62
7
  6
CONTINUOUS
 10
122.3435807355
 20
196.5009417037
 30
0.0
 11
17.75
 21
0.0
 31
0.0
 40
0.510637263
 41
-2.3331110084
 42
-2.3090107216
  0
ENDSEC
  0
SECTION
  2
OBJECTS
  0
DICTIONARY
  5
C
100
AcDbDictionary
280
0
281
1
  3
ACAD_GROUP
350
D
  3
ACAD_MLINESTYLE
350
17
  3
ACAD_LAYOUT
350
1A
  3
ACAD_PLOTSETTINGS
350
19
  3
ACAD_PLOTSTYLENAME
350
E
  0
DICTIONARY
  5
D
102
{ACAD_REACTORS
330
C
102
}
100
AcDbDictionary
280
0
281
1
  0
ACDBDICTIONARYWDFLT
  5
E
102
{ACAD_REACTORS
330
C
102
}
100
AcDbDictionary
281
1
  3
Normal
350
F
100
AcDbDictionaryWithDefault
340
F
  0
DICTIONARY
  5
17
102
{ACAD_REACTORS
330
C
102
}
100
AcDbDictionary
280
0
281
1
  3
Standard
350
18
  0
DICTIONARY
  5
19
102
{ACAD_REACTORS
330
C
102
}
100
AcDbDictionary
281
1
  0
DICTIONARY
  5
1A
102
{ACAD_REACTORS
330
C
102
}
100
AcDbDictionary
281
1
  3
Model
350
851
  3
Layout1
350
852
  0
ACDBPLACEHOLDER
  5
F
102
{ACAD_REACTORS
330
E
102
}
  0
MLINESTYLE
  5
18
102
{ACAD_REACTORS
330
17
102
}
100
AcDbMlineStyle
  2
STANDARD
 70
0
  3

 62
256
 51
90.0
 52
90.0
 71
2
 49
0.5
 62
256
  6
BYLAYER
 49
-0.5
 62
256
  6
BYLAYER
  0
LAYOUT
  5
851
102
{ACAD_REACTORS
330
1A
102
}
100
AcDbPlotSettings
  1

  2
none_device
  4
ISO_A3_(420.00_x_297.00_MM)
  6

 40
0.0
 41
0.0
 42
0.0
 43
0.0
 44
420.0
 45
297.0
 46
0.0
 47
0.0
 48
0.0
 49
0.0
140
0.0
141
0.0
142
1.0
143
1.0
 70
1024
 72
1
 73
0
 74
0
  7

 75
0
147
1.0
148
0.0
149
0.0
100
AcDbLayout
  1
Model
 70
0
 71
0
 10
0.0
 20
0.0
 11
420.0
 21
297.0
 12
0.0
 22
0.0
 32
0.0
 14
0.0
 24
0.0
 34
0.0
 15
0.0
 25
0.0
 35
0.0
146
0.0
 13
0.0
 23
0.0
 33
0.0
 16
1.0
 26
0.0
 36
0.0
 17
0.0
 27
1.0
 37
0.0
 76
0
330
20E
345
0
346
0
  0
LAYOUT
  5
852
102
{ACAD_REACTORS
330
1A
102
}
100
AcDbPlotSettings
  1

  2
none_device
  4
ISO_A3_(420.00_x_297.00_MM)
  6

 40
0.0
 41
0.0
 42
0.0
 43
0.0
 44
420.0
 45
297.0
 46
0.0
 47
0.0
 48
0.0
 49
0.0
140
0.0
141
0.0
142
1.0
143
1.0
 70
0
 72
1
 73
0
 74
0
  7

 75
0
147
1.0
148
0.0
149
0.0
100
AcDbLayout
  1
Layout1
 70
0
 71
1
 10
0.0
 20
0.0
 11
420.0
 21
297.0
 12
0.0
 22
0.0
 32
0.0
 14
0.0
 24
0.0
 34
0.0
 15
0.0
 25
0.0
 35
0.0
146
0.0
 13
0.0
 23
0.0
 33
0.0
 16
1.0
 26
0.0
 36
0.0
 17
0.0
 27
1.0
 37
0.0
 76
0
330
20F
345
0
346
0
  0
ENDSEC
  0
EOF
