999
DXF file: 001-m35331-p-1.dxf
999
Pro/ENGINEER 2011490 by Parametric Technology Corporation
  0
SECTION
  2
HEADER
  9
$ACADVER
  1
AC1015
  9
$DWGCODEPAGE
  3
ANSI_1252
  9
$EXTMAX
 10
420.0
 20
297.0
 30
0.0
  9
$EXTMIN
 10
0.0
 20
0.0
 30
0.0
  9
$LIMMIN
 10
0.0
 20
0.0
  9
$LIMMAX
 10
420.0
 20
297.0
  9
$VIEWCTR
 10
210.0
 20
148.5
  9
$VIEWSIZE
 40
297.0
  9
$CLAYER
  8
0
  9
$LTSCALE
 40
23.1
  9
$CELTYPE
  6
BYLAYER
  9
$DIMSCALE
 40
1.0
  9
$DIMASZ
 40
3.5
  9
$DIMEXO
 40
2.625
  9
$DIMDLI
 40
15.96
  9
$DIMEXE
 40
7.56
  9
$DIMCEN
 40
3.78
  9
$DIMLFAC
 40
1.0
  9
$DIMBLK
  1
_FILLED
  9
$DIMTXT
 40
3.5
  9
$DIMTOL
 70
1
  9
$DIMLIM
 70
0
  9
$DIMTFAC
 40
1.0
  9
$DIMTP
 40
0.005
  9
$DIMTM
 40
0.005
  9
$PDMODE
 70
3
  9
$PDSIZE
 40
0.3125
  9
$HANDSEED
  5
787
  9
$TILEMODE
 70
1
  9
$MEASUREMENT
 70
1
  9
$INSUNITS
 70
4
  0
ENDSEC
  0
SECTION
  2
CLASSES
  0
CLASS
  1
ACDBDICTIONARYWDFLT
  2
AcDbDictionaryWithDefault
  3
AutoCAD 2000
 90
0
280
0
281
0
  0
CLASS
  1
ACDBPLACEHOLDER
  2
AcDbPlaceHolder
  3
AutoCAD 2000
 90
0
280
0
281
0
  0
CLASS
  1
LAYOUT
  2
AcDbLayout
  3
AutoCAD 2000
 90
0
280
0
281
0
  0
ENDSEC
  0
SECTION
  2
TABLES
  0
TABLE
  2
VPORT
  5
8
100
AcDbSymbolTable
 70
2
  0
VPORT
  5
1F4
100
AcDbSymbolTableRecord
100
AcDbViewportTableRecord
  2
*ACTIVE
 70
0
 10
0.0
 20
0.0
 11
1.0
 21
1.0
 12
210.0
 22
148.5
 13
0.0
 23
0.0
 14
1.0
 24
1.0
 15
0.0
 25
0.0
 16
0.0
 26
0.0
 36
1.0
 17
0.0
 27
0.0
 37
0.0
 40
297.0
 41
1.4141414141
 42
50.0
 43
0.0
 44
0.0
 50
0.0
 51
0.0
 71
0
 72
100
 73
1
 74
1
 75
0
 76
0
 77
0
 78
0
  0
ENDTAB
  0
TABLE
  2
LTYPE
  5
5
100
AcDbSymbolTable
 70
6
  0
LTYPE
  5
14
100
AcDbSymbolTableRecord
100
AcDbLinetypeTableRecord
  2
BYBLOCK
 70
0
  3

 72
65
 73
0
 40
0.0
  0
LTYPE
  5
15
100
AcDbSymbolTableRecord
100
AcDbLinetypeTableRecord
  2
BYLAYER
 70
0
  3

 72
65
 73
0
 40
0.0
  0
LTYPE
  5
16
100
AcDbSymbolTableRecord
100
AcDbLinetypeTableRecord
  2
CONTINUOUS
 70
64
  3
Solid line
 72
65
 73
0
 40
0.0
  0
LTYPE
  5
1F5
100
AcDbSymbolTableRecord
100
AcDbLinetypeTableRecord
  2
CENTER
 70
64
  3
____ _ ____ _ ____ _ ____ _ ____ _ ____ _ ____
 72
65
 73
4
 40
0.6
 49
0.375
 74
0
 49
-0.075
 74
0
 49
0.075
 74
0
 49
-0.075
 74
0
  0
LTYPE
  5
1F6
100
AcDbSymbolTableRecord
100
AcDbLinetypeTableRecord
  2
HIDDEN
 70
64
  3
- - - - - - - - - - - - - - - - - - - -
 72
65
 73
2
 40
0.2
 49
0.1
 74
0
 49
-0.1
 74
0
  0
LTYPE
  5
1F7
100
AcDbSymbolTableRecord
100
AcDbLinetypeTableRecord
  2
PHANTOM
 70
64
  3
_____ _ _ _____ _ _ _____ _ _ _____
 72
65
 73
6
 40
0.8
 49
0.45
 74
0
 49
-0.05
 74
0
 49
0.1
 74
0
 49
-0.05
 74
0
 49
0.1
 74
0
 49
-0.05
 74
0
  0
LTYPE
  5
1F8
100
AcDbSymbolTableRecord
100
AcDbLinetypeTableRecord
  2
DOT
 70
64
  3
. . . . . . . . . . . . . . . . . . . .
 72
65
 73
2
 40
0.2
 49
0.1
 74
0
 49
-0.1
 74
0
  0
LTYPE
  5
1F9
100
AcDbSymbolTableRecord
100
AcDbLinetypeTableRecord
  2
DASHED
 70
64
  3
- - - - - - - - - - - - - - - - - - - -
 72
65
 73
2
 40
0.2
 49
0.1
 74
0
 49
-0.1
 74
0
  0
ENDTAB
  0
TABLE
  2
LAYER
  5
2
100
AcDbSymbolTable
 70
36
  0
LAYER
  5
10
100
AcDbSymbolTableRecord
100
AcDbLayerTableRecord
  2
0
 70
0
 62
7
  6
CONTINUOUS
370
-3
390
F
  0
LAYER
  5
1FA
100
AcDbSymbolTableRecord
100
AcDbLayerTableRecord
  2
DEFAULT_1
 70
0
 62
7
  6
CENTER
370
-3
390
F
  0
LAYER
  5
1FB
100
AcDbSymbolTableRecord
100
AcDbLayerTableRecord
  2
DEFAULT_2
 70
0
 62
8
  6
HIDDEN
370
-3
390
F
  0
LAYER
  5
1FC
100
AcDbSymbolTableRecord
100
AcDbLayerTableRecord
  2
DEFAULT_3
 70
0
 62
7
  6
PHANTOM
370
-3
390
F
  0
LAYER
  5
1FD
100
AcDbSymbolTableRecord
100
AcDbLayerTableRecord
  2
AUSFORMSCHRAEGEN
 70
0
 62
7
  6
CONTINUOUS
370
-3
390
F
  0
LAYER
  5
1FE
100
AcDbSymbolTableRecord
100
AcDbLayerTableRecord
  2
BEZUGSACHSEN
 70
0
 62
7
  6
CONTINUOUS
370
-3
390
F
  0
LAYER
  5
1FF
100
AcDbSymbolTableRecord
100
AcDbLayerTableRecord
  2
BEZUGSEBENEN
 70
0
 62
7
  6
CONTINUOUS
370
-3
390
F
  0
LAYER
  5
200
100
AcDbSymbolTableRecord
100
AcDbLayerTableRecord
  2
BG_STARTBEZUEGE
 70
0
 62
7
  6
CONTINUOUS
370
-3
390
F
  0
LAYER
  5
201
100
AcDbSymbolTableRecord
100
AcDbLayerTableRecord
  2
GEWINDE
 70
0
 62
7
  6
CONTINUOUS
370
-3
390
F
  0
LAYER
  5
202
100
AcDbSymbolTableRecord
100
AcDbLayerTableRecord
  2
HILFEN
 70
0
 62
7
  6
CONTINUOUS
370
-3
390
F
  0
LAYER
  5
203
100
AcDbSymbolTableRecord
100
AcDbLayerTableRecord
  2
KONSTRUKTIONSELEMENTE
 70
0
 62
7
  6
CONTINUOUS
370
-3
390
F
  0
LAYER
  5
204
100
AcDbSymbolTableRecord
100
AcDbLayerTableRecord
  2
KURVEN
 70
0
 62
7
  6
CONTINUOUS
370
-3
390
F
  0
LAYER
  5
205
100
AcDbSymbolTableRecord
100
AcDbLayerTableRecord
  2
NORM
 70
0
 62
7
  6
CONTINUOUS
370
-3
390
F
  0
LAYER
  5
206
100
AcDbSymbolTableRecord
100
AcDbLayerTableRecord
  2
PLATZIERUNG
 70
0
 62
7
  6
CONTINUOUS
370
-3
390
F
  0
LAYER
  5
207
100
AcDbSymbolTableRecord
100
AcDbLayerTableRecord
  2
PLAZIERUNG
 70
0
 62
7
  6
CONTINUOUS
370
-3
390
F
  0
LAYER
  5
208
100
AcDbSymbolTableRecord
100
AcDbLayerTableRecord
  2
RUNDUNGEN
 70
0
 62
7
  6
CONTINUOUS
370
-3
390
F
  0
LAYER
  5
209
100
AcDbSymbolTableRecord
100
AcDbLayerTableRecord
  2
TEIL_STARTBEZUEGE
 70
0
 62
7
  6
CONTINUOUS
370
-3
390
F
  0
LAYER
  5
20A
100
AcDbSymbolTableRecord
100
AcDbLayerTableRecord
  2
T_STARTBEZUEGE
 70
0
 62
7
  6
CONTINUOUS
370
-3
390
F
  0
LAYER
  5
20B
100
AcDbSymbolTableRecord
100
AcDbLayerTableRecord
  2
ZEICHNUNGSBEMASSUNGEN
 70
0
 62
7
  6
CONTINUOUS
370
-3
390
F
  0
ENDTAB
  0
TABLE
  2
STYLE
  5
3
100
AcDbSymbolTable
 70
1
  0
STYLE
  5
11
100
AcDbSymbolTableRecord
100
AcDbTextStyleTableRecord
  2
STANDARD
 70
0
 40
0.0
 41
0.7
 50
0.0
 71
0
 42
0.2
  3
txt
  4

  0
STYLE
  5
20C
100
AcDbSymbolTableRecord
100
AcDbTextStyleTableRecord
  2
TEXTSTYLE_1
 70
0
 40
0.0
 41
0.8
 50
0.0
 71
0
 42
0.2
  3
gdt
  4

  0
ENDTAB
  0
TABLE
  2
VIEW
  5
6
100
AcDbSymbolTable
 70
0
  0
ENDTAB
  0
TABLE
  2
UCS
  5
7
100
AcDbSymbolTable
 70
0
  0
ENDTAB
  0
TABLE
  2
APPID
  5
9
100
AcDbSymbolTable
 70
1
  0
APPID
  5
20D
100
AcDbSymbolTableRecord
100
AcDbRegAppTableRecord
  2
ACAD
 70
0
  0
ENDTAB
  0
TABLE
  2
BLOCK_RECORD
  5
1
100
AcDbSymbolTable
 70
0
  0
BLOCK_RECORD
  5
20E
100
AcDbSymbolTableRecord
100
AcDbBlockTableRecord
  2
*Model_Space
  0
BLOCK_RECORD
  5
20F
100
AcDbSymbolTableRecord
100
AcDbBlockTableRecord
  2
*Paper_Space
  0
ENDTAB
  0
TABLE
  2
DIMSTYLE
  5
A
100
AcDbSymbolTable
 70
1
100
AcDbDimStyleTable
 71
0
  0
DIMSTYLE
105
210
100
AcDbSymbolTableRecord
100
AcDbDimStyleTableRecord
  2
STANDARD
 70
0
  3

  4

 40
1.0
 41
3.5
 42
0.0625
 43
0.38
 44
0.18
 45
0.0
 46
0.0
 47
0.005
 48
0.005
140
3.5
141
0.09
142
0.0
143
25.4
144
1.0
145
0.0
146
1.0
147
0.09
 71
1.0
 72
0.0
 73
0
 74
0
 75
0
 76
0
 77
1
 78
8
170
0
171
2
172
0
173
0
174
0
175
0
176
0
177
0
178
5
270
2
271
3
272
3
273
2
274
2
275
0
280
0
281
0
282
0
283
1
284
8
285
0
286
0
287
3
288
0
340
11
  0
ENDTAB
  0
ENDSEC
  0
SECTION
  2
BLOCKS
  0
BLOCK
  5
20
100
AcDbEntity
  8
0
100
AcDbBlockBegin
  2
*Model_Space
 70
0
 10
0.0
 20
0.0
 30
0.0
  3
*Model_Space
  1

  0
ENDBLK
  5
21
100
AcDbEntity
  8
0
100
AcDbBlockEnd
  0
BLOCK
  5
1C
100
AcDbEntity
  8
0
100
AcDbBlockBegin
  2
*Paper_Space
 70
0
 10
0.0
 20
0.0
 30
0.0
  3
*Paper_Space
  1

  0
ENDBLK
  5
1D
100
AcDbEntity
  8
0
100
AcDbBlockEnd
  0
ENDSEC
  0
SECTION
  2
ENTITIES
  0
MTEXT
  5
211
100
AcDbEntity
  8
0
100
AcDbMText
 62
5
  6
CONTINUOUS
  7
STANDARD
 71
1
 72
1
 10
143.2329002609
 20
208.8616132884
 30
0.0
 11
0.0
 21
1.0
 31
0.0
 44
0.9
  1
RUD VLBG-PLUS 1,2t
 40
4.0
 41
54.0
  0
MTEXT
  5
212
100
AcDbEntity
  8
0
100
AcDbMText
 62
5
  6
CONTINUOUS
  7
STANDARD
 71
1
 72
1
 10
143.2580055806
 20
63.7424631759
 30
0.0
 11
0.0
 21
1.0
 31
0.0
 44
0.9
  1
VLBG-PLUS 1,2t
 40
4.0
 41
40.9523809524
  0
LINE
  5
213
100
AcDbEntity
  8
0
100
AcDbLine
 62
7
  6
CONTINUOUS
 10
0.0
 20
0.0
 11
0.0
 21
297.0
  0
LINE
  5
214
100
AcDbEntity
  8
0
100
AcDbLine
 62
7
  6
CONTINUOUS
 10
0.0
 20
0.0
 11
420.0
 21
0.0
  0
LINE
  5
215
100
AcDbEntity
  8
0
100
AcDbLine
 62
7
  6
CONTINUOUS
 10
0.0
 20
297.0
 11
420.0
 21
297.0
  0
LINE
  5
216
100
AcDbEntity
  8
0
100
AcDbLine
 62
7
  6
CONTINUOUS
 10
420.0
 20
0.0
 11
420.0
 21
297.0
  0
LINE
  5
217
100
AcDbEntity
  8
BEZUGSACHSEN
100
AcDbLine
 62
7
  6
CONTINUOUS
 10
119.0936258387
 20
149.0794656489
 11
131.0936258387
 21
149.0794656489
  0
LINE
  5
218
100
AcDbEntity
  8
BEZUGSACHSEN
100
AcDbLine
 62
7
  6
CONTINUOUS
 10
118.0936258387
 20
150.0794656489
 11
132.0936258387
 21
150.0794656489
  0
LINE
  5
219
100
AcDbEntity
  8
BEZUGSACHSEN
100
AcDbLine
 62
7
  6
CONTINUOUS
 10
118.0936258387
 20
150.0794656489
 11
119.0936258387
 21
149.0794656489
  0
LINE
  5
21A
100
AcDbEntity
  8
0
100
AcDbLine
 62
7
  6
CONTINUOUS
 10
140.0936258387
 20
173.2794656489
 11
110.0936258387
 21
173.2794656489
  0
LINE
  5
21B
100
AcDbEntity
  8
0
100
AcDbLine
 62
7
  6
CONTINUOUS
 10
140.0936258387
 20
178.4794656489
 11
110.0936258387
 21
178.4794656489
  0
LINE
  5
21C
100
AcDbEntity
  8
RUNDUNGEN
100
AcDbLine
 62
7
  6
CONTINUOUS
 10
144.5936258387
 20
178.6794656489
 11
106.594055308
 21
178.6794656489
  0
LINE
  5
21D
100
AcDbEntity
  8
0
100
AcDbLine
 62
7
  6
CONTINUOUS
 10
104.5936603402
 20
195.6994656489
 11
104.593631294
 21
195.6998242013
  0
LINE
  5
21E
100
AcDbEntity
  8
0
100
AcDbLine
 62
7
  6
CONTINUOUS
 10
104.5936258387
 20
183.0094656489
 11
104.5936258387
 21
183.3818060822
  0
LINE
  5
21F
100
AcDbEntity
  8
0
100
AcDbLine
 62
7
  6
CONTINUOUS
 10
104.5936258387
 20
195.7049642592
 11
104.5936258387
 21
196.5994656489
  0
LINE
  5
220
100
AcDbEntity
  8
0
100
AcDbLine
 62
7
  6
CONTINUOUS
 10
104.6033512143
 20
190.2754230491
 11
104.6033512143
 21
190.6477635345
  0
LINE
  5
221
100
AcDbEntity
  8
0
100
AcDbLine
 62
7
  6
CONTINUOUS
 10
104.613042092
 20
197.4644656489
 11
104.613042092
 21
200.1094656489
  0
LINE
  5
222
100
AcDbEntity
  8
0
100
AcDbLine
 62
7
  6
CONTINUOUS
 10
104.6227655477
 20
189.8286145917
 11
104.6227655477
 21
190.2754230491
  0
LINE
  5
223
100
AcDbEntity
  8
0
100
AcDbLine
 62
7
  6
CONTINUOUS
 10
104.6227655477
 20
190.6477635345
 11
104.6227655477
 21
190.9456358394
  0
LINE
  5
224
100
AcDbEntity
  8
0
100
AcDbLine
 62
7
  6
CONTINUOUS
 10
104.6322834105
 20
189.0094656489
 11
104.6322834105
 21
192.5094656489
  0
LINE
  5
225
100
AcDbEntity
  8
0
100
AcDbLine
 62
7
  6
CONTINUOUS
 10
104.6666417725
 20
189.0094656489
 11
104.6666417725
 21
190.5732954583
  0
LINE
  5
226
100
AcDbEntity
  8
0
100
AcDbLine
 62
7
  6
CONTINUOUS
 10
104.6666417725
 20
191.0201039157
 11
104.6666417725
 21
192.1371252677
  0
LINE
  5
227
100
AcDbEntity
  8
0
100
AcDbLine
 62
7
  6
CONTINUOUS
 10
104.6781340539
 20
197.4644656489
 11
104.6781340539
 21
200.1094656489
  0
LINE
  5
228
100
AcDbEntity
  8
0
100
AcDbLine
 62
7
  6
CONTINUOUS
 10
104.7118228963
 20
185.4059615647
 11
104.7118228963
 21
185.6903168103
  0
LINE
  5
229
100
AcDbEntity
  8
0
100
AcDbLine
 62
7
  6
CONTINUOUS
 10
104.719633004
 20
185.5413804493
 11
104.719633004
 21
185.6903168103
  0
LINE
  5
22A
100
AcDbEntity
  8
0
100
AcDbLine
 62
7
  6
CONTINUOUS
 10
104.6275622803
 20
182.5626571393
 11
105.0936258387
 21
182.5626571393
  0
LINE
  5
22B
100
AcDbEntity
  8
0
100
AcDbLine
 62
7
  6
CONTINUOUS
 10
104.5936278226
 20
183.0094656489
 11
105.7565695617
 21
183.0094656489
  0
LINE
  5
22C
100
AcDbEntity
  8
0
100
AcDbLine
 62
7
  6
CONTINUOUS
 10
105.2371815578
 20
183.3073379798
 11
105.7565695617
 21
183.3073379798
  0
LINE
  5
22D
100
AcDbEntity
  8
0
100
AcDbLine
 62
7
  6
CONTINUOUS
 10
104.6008705165
 20
183.3818060822
 11
105.0186944265
 21
183.3818060822
  0
LINE
  5
22E
100
AcDbEntity
  8
0
100
AcDbLine
 62
7
  6
CONTINUOUS
 10
105.1403984384
 20
183.3818060822
 11
105.6567737393
 21
183.3818060822
  0
LINE
  5
22F
100
AcDbEntity
  8
0
100
AcDbLine
 62
7
  6
CONTINUOUS
 10
105.0862857925
 20
183.5307422346
 11
105.6009920713
 21
183.5307422346
  0
LINE
  5
230
100
AcDbEntity
  8
0
100
AcDbLine
 62
7
  6
CONTINUOUS
 10
105.0689015283
 20
183.7541465155
 11
105.5830739385
 21
183.7541465155
  0
LINE
  5
231
100
AcDbEntity
  8
0
100
AcDbLine
 62
7
  6
CONTINUOUS
 10
104.7775684143
 20
183.0094656489
 11
104.7775684143
 21
183.3818060822
  0
LINE
  5
232
100
AcDbEntity
  8
0
100
AcDbLine
 62
7
  6
CONTINUOUS
 10
104.7775684143
 20
185.5413804493
 11
104.7775684143
 21
185.6903168103
  0
LINE
  5
233
100
AcDbEntity
  8
0
100
AcDbLine
 62
7
  6
CONTINUOUS
 10
104.7895493891
 20
195.6994656489
 11
104.7895493891
 21
199.0594656489
  0
LINE
  5
234
100
AcDbEntity
  8
0
100
AcDbLine
 62
7
  6
CONTINUOUS
 10
104.7895493891
 20
199.3594656489
 11
104.7895493891
 21
200.1094656489
  0
LINE
  5
235
100
AcDbEntity
  8
0
100
AcDbLine
 62
7
  6
CONTINUOUS
 10
104.8721475136
 20
185.0945719919
 11
104.8721475136
 21
185.3924442968
  0
LINE
  5
236
100
AcDbEntity
  8
0
100
AcDbLine
 62
7
  6
CONTINUOUS
 10
104.9284306507
 20
191.466912373
 11
104.9284306507
 21
191.6903168103
  0
LINE
  5
237
100
AcDbEntity
  8
0
100
AcDbLine
 62
7
  6
CONTINUOUS
 10
104.9481781584
 20
196.4494656489
 11
104.9481781584
 21
199.0594656489
  0
LINE
  5
238
100
AcDbEntity
  8
0
100
AcDbLine
 62
7
  6
CONTINUOUS
 10
104.9868352955
 20
183.6052103108
 11
104.9868352955
 21
185.0945719919
  0
LINE
  5
239
100
AcDbEntity
  8
0
100
AcDbLine
 62
7
  6
CONTINUOUS
 10
104.9868352955
 20
185.3924442968
 11
104.9868352955
 21
185.9881891153
  0
LINE
  5
23A
100
AcDbEntity
  8
0
100
AcDbLine
 62
7
  6
CONTINUOUS
 10
105.0203676741
 20
191.3924442968
 11
105.0203676741
 21
191.6903168103
  0
LINE
  5
23B
100
AcDbEntity
  8
0
100
AcDbLine
 62
7
  6
CONTINUOUS
 10
105.0689015283
 20
183.7541465155
 11
105.0689015283
 21
185.0945719919
  0
LINE
  5
23C
100
AcDbEntity
  8
0
100
AcDbLine
 62
7
  6
CONTINUOUS
 10
105.0689015283
 20
185.3924442968
 11
105.0689015283
 21
185.9881891153
  0
LINE
  5
23D
100
AcDbEntity
  8
0
100
AcDbLine
 62
7
  6
CONTINUOUS
 10
105.0936258387
 20
180.1794656489
 11
105.0936258387
 21
183.0094656489
  0
LINE
  5
23E
100
AcDbEntity
  8
0
100
AcDbLine
 62
7
  6
CONTINUOUS
 10
105.0936258387
 20
186.5094656489
 11
105.0936258387
 21
189.0094656489
  0
LINE
  5
23F
100
AcDbEntity
  8
0
100
AcDbLine
 62
7
  6
CONTINUOUS
 10
105.0936258387
 20
192.5094656489
 11
105.0936258387
 21
195.6994656489
  0
LINE
  5
240
100
AcDbEntity
  8
0
100
AcDbLine
 62
7
  6
CONTINUOUS
 10
105.0936258387
 20
200.1094656489
 11
105.0936258387
 21
202.1794656489
  0
LINE
  5
241
100
AcDbEntity
  8
0
100
AcDbLine
 62
7
  6
CONTINUOUS
 10
105.1610340975
 20
189.0094656489
 11
105.1610340975
 21
192.5094656489
  0
LINE
  5
242
100
AcDbEntity
  8
0
100
AcDbLine
 62
7
  6
CONTINUOUS
 10
105.1805958032
 20
199.0594656489
 11
105.1805958032
 21
199.3594656489
  0
LINE
  5
243
100
AcDbEntity
  8
0
100
AcDbLine
 62
7
  6
CONTINUOUS
 10
105.2371815578
 20
183.0094656489
 11
105.2371815578
 21
183.3073379798
  0
LINE
  5
244
100
AcDbEntity
  8
0
100
AcDbLine
 62
7
  6
CONTINUOUS
 10
105.2782292828
 20
185.0945719919
 11
105.2782292828
 21
185.3924442968
  0
LINE
  5
245
100
AcDbEntity
  8
0
100
AcDbLine
 62
7
  6
CONTINUOUS
 10
105.2803764334
 20
189.4562741584
 11
105.2803764334
 21
192.5094656489
  0
LINE
  5
246
100
AcDbEntity
  8
0
100
AcDbLine
 62
7
  6
CONTINUOUS
 10
105.4127782521
 20
197.3494656489
 11
105.4127782521
 21
198.4594656489
  0
LINE
  5
247
100
AcDbEntity
  8
0
100
AcDbLine
 62
7
  6
CONTINUOUS
 10
105.5830739385
 20
183.7541465155
 11
105.5830739385
 21
185.0945719919
  0
LINE
  5
248
100
AcDbEntity
  8
0
100
AcDbLine
 62
7
  6
CONTINUOUS
 10
105.5830739385
 20
185.3924442968
 11
105.5830739385
 21
185.9881891153
  0
LINE
  5
249
100
AcDbEntity
  8
0
100
AcDbLine
 62
7
  6
CONTINUOUS
 10
105.7565695617
 20
183.0094656489
 11
105.7565695617
 21
183.3073379798
  0
LINE
  5
24A
100
AcDbEntity
  8
0
100
AcDbLine
 62
7
  6
CONTINUOUS
 10
105.7989058468
 20
185.0945719919
 11
105.7989058468
 21
185.3924442968
  0
LINE
  5
24B
100
AcDbEntity
  8
0
100
AcDbLine
 62
7
  6
CONTINUOUS
 10
105.801120579
 20
189.4562741584
 11
105.801120579
 21
192.5094656489
  0
LINE
  5
24C
100
AcDbEntity
  8
0
100
AcDbLine
 62
7
  6
CONTINUOUS
 10
106.0654994303
 20
189.0094656489
 11
106.0654994303
 21
189.4562741584
  0
LINE
  5
24D
100
AcDbEntity
  8
0
100
AcDbLine
 62
7
  6
CONTINUOUS
 10
106.3317393799
 20
190.2009549728
 11
106.3317393799
 21
192.5094656489
  0
LINE
  5
24E
100
AcDbEntity
  8
0
100
AcDbLine
 62
7
  6
CONTINUOUS
 10
106.548492517
 20
190.2009549728
 11
106.548492517
 21
192.5094656489
  0
LINE
  5
24F
100
AcDbEntity
  8
0
100
AcDbLine
 62
7
  6
CONTINUOUS
 10
106.6122114278
 20
189.0094656489
 11
106.6122114278
 21
189.2072906074
  0
LINE
  5
250
100
AcDbEntity
  8
0
100
AcDbLine
 62
7
  6
CONTINUOUS
 10
107.1125314378
 20
190.2009549728
 11
107.1125314378
 21
192.5094656489
  0
LINE
  5
251
100
AcDbEntity
  8
0
100
AcDbLine
 62
7
  6
CONTINUOUS
 10
107.5760591343
 20
190.2009549728
 11
107.5760591343
 21
192.5094656489
  0
LINE
  5
252
100
AcDbEntity
  8
0
100
AcDbLine
 62
7
  6
CONTINUOUS
 10
107.8773653492
 20
190.2009549728
 11
107.8773653492
 21
192.5094656489
  0
LINE
  5
253
100
AcDbEntity
  8
0
100
AcDbLine
 62
7
  6
CONTINUOUS
 10
108.4825348373
 20
191.3924442968
 11
108.4825348373
 21
191.6903168103
  0
LINE
  5
254
100
AcDbEntity
  8
0
100
AcDbLine
 62
7
  6
CONTINUOUS
 10
108.4954240584
 20
190.2009549728
 11
108.4954240584
 21
191.3267082402
  0
LINE
  5
255
100
AcDbEntity
  8
0
100
AcDbLine
 62
7
  6
CONTINUOUS
 10
108.4954240584
 20
191.7560528669
 11
108.4954240584
 21
192.5094656489
  0
LINE
  5
256
100
AcDbEntity
  8
0
100
AcDbLine
 62
7
  6
CONTINUOUS
 10
108.8441119586
 20
191.466912373
 11
108.8441119586
 21
191.6158485255
  0
LINE
  5
257
100
AcDbEntity
  8
0
100
AcDbLine
 62
7
  6
CONTINUOUS
 10
145.8436258387
 20
184.6794656489
 11
144.3436258387
 21
184.6794656489
  0
LINE
  5
258
100
AcDbEntity
  8
0
100
AcDbLine
 62
7
  6
CONTINUOUS
 10
104.7472171142
 20
185.0201039157
 11
104.9868352955
 21
185.0201039157
  0
LINE
  5
259
100
AcDbEntity
  8
0
100
AcDbLine
 62
7
  6
CONTINUOUS
 10
104.8721475136
 20
185.0945719919
 11
104.9868352955
 21
185.0945719919
  0
LINE
  5
25A
100
AcDbEntity
  8
0
100
AcDbLine
 62
7
  6
CONTINUOUS
 10
105.0689015283
 20
185.0945719919
 11
105.7989058468
 21
185.0945719919
  0
LINE
  5
25B
100
AcDbEntity
  8
0
100
AcDbLine
 62
7
  6
CONTINUOUS
 10
104.7671429711
 20
185.2435081443
 11
104.8721475136
 21
185.2435081443
  0
LINE
  5
25C
100
AcDbEntity
  8
0
100
AcDbLine
 62
7
  6
CONTINUOUS
 10
104.8721475136
 20
185.3924442968
 11
104.9868352955
 21
185.3924442968
  0
LINE
  5
25D
100
AcDbEntity
  8
0
100
AcDbLine
 62
7
  6
CONTINUOUS
 10
105.0689015283
 20
185.3924442968
 11
105.7989058468
 21
185.3924442968
  0
LINE
  5
25E
100
AcDbEntity
  8
0
100
AcDbLine
 62
7
  6
CONTINUOUS
 10
104.7775684143
 20
185.5413804493
 11
104.9868352955
 21
185.5413804493
  0
LINE
  5
25F
100
AcDbEntity
  8
0
100
AcDbLine
 62
7
  6
CONTINUOUS
 10
104.5973023198
 20
185.6903168103
 11
104.719633004
 21
185.6903168103
  0
LINE
  5
260
100
AcDbEntity
  8
0
100
AcDbLine
 62
7
  6
CONTINUOUS
 10
104.7775684143
 20
185.6903168103
 11
104.9868352955
 21
185.6903168103
  0
LINE
  5
261
100
AcDbEntity
  8
0
100
AcDbLine
 62
7
  6
CONTINUOUS
 10
104.6008705165
 20
185.913721039
 11
104.7027744766
 21
185.913721039
  0
LINE
  5
262
100
AcDbEntity
  8
0
100
AcDbLine
 62
7
  6
CONTINUOUS
 10
104.7671429711
 20
185.9881891153
 11
105.5830739385
 21
185.9881891153
  0
LINE
  5
263
100
AcDbEntity
  8
0
100
AcDbLine
 62
7
  6
CONTINUOUS
 10
104.6084724372
 20
186.0626571915
 11
104.67977419
 21
186.0626571915
  0
LINE
  5
264
100
AcDbEntity
  8
0
100
AcDbLine
 62
7
  6
CONTINUOUS
 10
104.6271507043
 20
186.1371252677
 11
104.6475147958
 21
186.1371252677
  0
LINE
  5
265
100
AcDbEntity
  8
0
100
AcDbLine
 62
7
  6
CONTINUOUS
 10
104.7285210884
 20
186.2860614202
 11
105.2324623667
 21
186.2860614202
  0
LINE
  5
266
100
AcDbEntity
  8
0
100
AcDbLine
 62
7
  6
CONTINUOUS
 10
104.6948031089
 20
186.4349975726
 11
105.1977533398
 21
186.4349975726
  0
LINE
  5
267
100
AcDbEntity
  8
0
100
AcDbLine
 62
7
  6
CONTINUOUS
 10
104.6317892349
 20
186.5094656489
 11
105.1550984149
 21
186.5094656489
  0
LINE
  5
268
100
AcDbEntity
  8
0
100
AcDbLine
 62
7
  6
CONTINUOUS
 10
109.5086394733
 20
191.466912373
 11
109.5086394733
 21
191.6158485255
  0
LINE
  5
269
100
AcDbEntity
  8
0
100
AcDbLine
 62
7
  6
CONTINUOUS
 10
110.0936258387
 20
209.0794656489
 11
110.0936258387
 21
203.8794656489
  0
LINE
  5
26A
100
AcDbEntity
  8
0
100
AcDbLine
 62
7
  6
CONTINUOUS
 10
110.0936258387
 20
178.4794656489
 11
110.0936258387
 21
173.2794656489
  0
LINE
  5
26B
100
AcDbEntity
  8
0
100
AcDbLine
 62
7
  6
CONTINUOUS
 10
110.3984398615
 20
189.9030826679
 11
110.3984398615
 21
190.1264868966
  0
LINE
  5
26C
100
AcDbEntity
  8
0
100
AcDbLine
 62
7
  6
CONTINUOUS
 10
110.8977514527
 20
189.8286145917
 11
110.8977514527
 21
190.2009549728
  0
LINE
  5
26D
100
AcDbEntity
  8
BEZUGSACHSEN
100
AcDbLine
 62
7
  6
CONTINUOUS
 10
111.2372193782
 20
209.5794656489
 11
111.2372193782
 21
218.0076688791
  0
LINE
  5
26E
100
AcDbEntity
  8
0
100
AcDbLine
 62
7
  6
CONTINUOUS
 10
111.6896106115
 20
189.8286145917
 11
111.6896106115
 21
190.2009549728
  0
LINE
  5
26F
100
AcDbEntity
  8
0
100
AcDbLine
 62
7
  6
CONTINUOUS
 10
112.8436258387
 20
203.8794656489
 11
112.8436258387
 21
203.6794656489
  0
LINE
  5
270
100
AcDbEntity
  8
0
100
AcDbLine
 62
7
  6
CONTINUOUS
 10
112.8436258387
 20
178.6794656489
 11
112.8436258387
 21
178.4794656489
  0
LINE
  5
271
100
AcDbEntity
  8
0
100
AcDbLine
 62
7
  6
CONTINUOUS
 10
104.6322834105
 20
189.0094656489
 11
106.6122114278
 21
189.0094656489
  0
LINE
  5
272
100
AcDbEntity
  8
0
100
AcDbLine
 62
7
  6
CONTINUOUS
 10
106.9441092993
 20
189.0094656489
 11
107.700849516
 21
189.0094656489
  0
LINE
  5
273
100
AcDbEntity
  8
0
100
AcDbLine
 62
7
  6
CONTINUOUS
 10
109.1640840641
 20
189.0094656489
 11
110.4277189933
 21
189.0094656489
  0
LINE
  5
274
100
AcDbEntity
  8
0
100
AcDbLine
 62
7
  6
CONTINUOUS
 10
107.3393298059
 20
189.0839337316
 11
107.9342920776
 21
189.0839337316
  0
LINE
  5
275
100
AcDbEntity
  8
0
100
AcDbLine
 62
7
  6
CONTINUOUS
 10
110.0855226514
 20
189.0839337316
 11
110.8214257992
 21
189.0839337316
  0
LINE
  5
276
100
AcDbEntity
  8
0
100
AcDbLine
 62
7
  6
CONTINUOUS
 10
107.5276926923
 20
189.2328699036
 11
108.1305376803
 21
189.2328699036
  0
LINE
  5
277
100
AcDbEntity
  8
0
100
AcDbLine
 62
7
  6
CONTINUOUS
 10
110.3984398615
 20
189.2328699036
 11
111.154905267
 21
189.2328699036
  0
LINE
  5
278
100
AcDbEntity
  8
0
100
AcDbLine
 62
7
  6
CONTINUOUS
 10
105.2803764334
 20
189.4562741584
 11
106.4745740672
 21
189.4562741584
  0
LINE
  5
279
100
AcDbEntity
  8
0
100
AcDbLine
 62
7
  6
CONTINUOUS
 10
106.9441092993
 20
189.4562741584
 11
107.11500481
 21
189.4562741584
  0
LINE
  5
27A
100
AcDbEntity
  8
0
100
AcDbLine
 62
7
  6
CONTINUOUS
 10
109.1640840641
 20
189.4562741584
 11
109.7147368952
 21
189.4562741584
  0
LINE
  5
27B
100
AcDbEntity
  8
0
100
AcDbLine
 62
7
  6
CONTINUOUS
 10
106.7805556779
 20
189.5307422346
 11
107.2934913646
 21
189.5307422346
  0
LINE
  5
27C
100
AcDbEntity
  8
0
100
AcDbLine
 62
7
  6
CONTINUOUS
 10
107.7242992119
 20
189.5307422346
 11
108.335602744
 21
189.5307422346
  0
LINE
  5
27D
100
AcDbEntity
  8
0
100
AcDbLine
 62
7
  6
CONTINUOUS
 10
108.9067059503
 20
189.5307422346
 11
109.5744905474
 21
189.5307422346
  0
LINE
  5
27E
100
AcDbEntity
  8
0
100
AcDbLine
 62
7
  6
CONTINUOUS
 10
110.7270967714
 20
189.5307422346
 11
111.5064791861
 21
189.5307422346
  0
LINE
  5
27F
100
AcDbEntity
  8
0
100
AcDbLine
 62
7
  6
CONTINUOUS
 10
106.6625689132
 20
189.6796784392
 11
107.2308647971
 21
189.6796784392
  0
LINE
  5
280
100
AcDbEntity
  8
0
100
AcDbLine
 62
7
  6
CONTINUOUS
 10
108.7209589445
 20
189.7541465155
 11
109.3791723866
 21
189.7541465155
  0
LINE
  5
281
100
AcDbEntity
  8
0
100
AcDbLine
 62
7
  6
CONTINUOUS
 10
107.8257973596
 20
189.8286145917
 11
108.3386651478
 21
189.8286145917
  0
LINE
  5
282
100
AcDbEntity
  8
0
100
AcDbLine
 62
7
  6
CONTINUOUS
 10
110.8977514527
 20
189.8286145917
 11
111.6896106115
 21
189.8286145917
  0
LINE
  5
283
100
AcDbEntity
  8
0
100
AcDbLine
 62
7
  6
CONTINUOUS
 10
106.5860882224
 20
189.9030826679
 11
107.151522899
 21
189.9030826679
  0
LINE
  5
284
100
AcDbEntity
  8
0
100
AcDbLine
 62
7
  6
CONTINUOUS
 10
108.3103520426
 20
189.9775507441
 11
109.3155326959
 21
189.9775507441
  0
LINE
  5
285
100
AcDbEntity
  8
0
100
AcDbLine
 62
7
  6
CONTINUOUS
 10
106.548492517
 20
190.2009549728
 11
107.1125314378
 21
190.2009549728
  0
LINE
  5
286
100
AcDbEntity
  8
0
100
AcDbLine
 62
7
  6
CONTINUOUS
 10
107.8773653492
 20
190.2009549728
 11
108.4954240584
 21
190.2009549728
  0
LINE
  5
287
100
AcDbEntity
  8
0
100
AcDbLine
 62
7
  6
CONTINUOUS
 10
110.8977514527
 20
190.2009549728
 11
111.6896106115
 21
190.2009549728
  0
LINE
  5
288
100
AcDbEntity
  8
0
100
AcDbLine
 62
7
  6
CONTINUOUS
 10
104.6033512143
 20
190.2754230491
 11
104.6322834105
 21
190.2754230491
  0
LINE
  5
289
100
AcDbEntity
  8
0
100
AcDbLine
 62
7
  6
CONTINUOUS
 10
110.7270967714
 20
190.4988273821
 11
111.5064791861
 21
190.4988273821
  0
LINE
  5
28A
100
AcDbEntity
  8
0
100
AcDbLine
 62
7
  6
CONTINUOUS
 10
104.6666417725
 20
190.5732954583
 11
105.1610340975
 21
190.5732954583
  0
LINE
  5
28B
100
AcDbEntity
  8
0
100
AcDbLine
 62
7
  6
CONTINUOUS
 10
109.2971231553
 20
190.5732954583
 11
109.7147368952
 21
190.5732954583
  0
LINE
  5
28C
100
AcDbEntity
  8
0
100
AcDbLine
 62
7
  6
CONTINUOUS
 10
104.6033512143
 20
190.6477635345
 11
104.6322834105
 21
190.6477635345
  0
LINE
  5
28D
100
AcDbEntity
  8
0
100
AcDbLine
 62
7
  6
CONTINUOUS
 10
104.9003310332
 20
190.6477635345
 11
105.1610340975
 21
190.6477635345
  0
LINE
  5
28E
100
AcDbEntity
  8
0
100
AcDbLine
 62
7
  6
CONTINUOUS
 10
110.3984398615
 20
190.796699687
 11
111.154905267
 21
190.796699687
  0
LINE
  5
28F
100
AcDbEntity
  8
0
100
AcDbLine
 62
7
  6
CONTINUOUS
 10
104.9577988867
 20
190.8711677632
 11
105.1610340975
 21
190.8711677632
  0
LINE
  5
290
100
AcDbEntity
  8
0
100
AcDbLine
 62
7
  6
CONTINUOUS
 10
110.0855226514
 20
190.9456358394
 11
110.8214257992
 21
190.9456358394
  0
LINE
  5
291
100
AcDbEntity
  8
0
100
AcDbLine
 62
7
  6
CONTINUOUS
 10
104.6666417725
 20
191.0201039157
 11
104.8479131943
 21
191.0201039157
  0
LINE
  5
292
100
AcDbEntity
  8
0
100
AcDbLine
 62
7
  6
CONTINUOUS
 10
109.2971231553
 20
191.0201039157
 11
110.4277189933
 21
191.0201039157
  0
LINE
  5
293
100
AcDbEntity
  8
0
100
AcDbLine
 62
7
  6
CONTINUOUS
 10
109.0986692234
 20
191.0945719919
 11
109.7766502383
 21
191.0945719919
  0
LINE
  5
294
100
AcDbEntity
  8
0
100
AcDbLine
 62
7
  6
CONTINUOUS
 10
105.0042442601
 20
191.1690400681
 11
105.1610340975
 21
191.1690400681
  0
LINE
  5
295
100
AcDbEntity
  8
0
100
AcDbLine
 62
7
  6
CONTINUOUS
 10
108.9067059503
 20
191.2435081443
 11
109.5744905474
 21
191.2435081443
  0
LINE
  5
296
100
AcDbEntity
  8
0
100
AcDbLine
 62
7
  6
CONTINUOUS
 10
105.0203676741
 20
191.3924442968
 11
105.1610340975
 21
191.3924442968
  0
LINE
  5
297
100
AcDbEntity
  8
0
100
AcDbLine
 62
7
  6
CONTINUOUS
 10
108.8441119586
 20
191.466912373
 11
109.5086394733
 21
191.466912373
  0
LINE
  5
298
100
AcDbEntity
  8
0
100
AcDbLine
 62
7
  6
CONTINUOUS
 10
108.8441119586
 20
191.6158485255
 11
109.5086394733
 21
191.6158485255
  0
LINE
  5
299
100
AcDbEntity
  8
0
100
AcDbLine
 62
7
  6
CONTINUOUS
 10
105.0203676741
 20
191.6903168103
 11
105.1610340975
 21
191.6903168103
  0
LINE
  5
29A
100
AcDbEntity
  8
0
100
AcDbLine
 62
7
  6
CONTINUOUS
 10
110.1623440043
 20
191.6903168103
 11
111.4167962066
 21
191.6903168103
  0
LINE
  5
29B
100
AcDbEntity
  8
0
100
AcDbLine
 62
7
  6
CONTINUOUS
 10
108.9067059503
 20
191.8392529628
 11
109.5744905474
 21
191.8392529628
  0
LINE
  5
29C
100
AcDbEntity
  8
0
100
AcDbLine
 62
7
  6
CONTINUOUS
 10
105.0042442601
 20
191.913721039
 11
105.1610340975
 21
191.913721039
  0
LINE
  5
29D
100
AcDbEntity
  8
0
100
AcDbLine
 62
7
  6
CONTINUOUS
 10
110.560719788
 20
191.913721039
 11
111.3283239818
 21
191.913721039
  0
LINE
  5
29E
100
AcDbEntity
  8
0
100
AcDbLine
 62
7
  6
CONTINUOUS
 10
109.0986692234
 20
191.9881891153
 11
109.7766502383
 21
191.9881891153
  0
LINE
  5
29F
100
AcDbEntity
  8
0
100
AcDbLine
 62
7
  6
CONTINUOUS
 10
109.2971231553
 20
192.0626571915
 11
109.7147368952
 21
192.0626571915
  0
LINE
  5
2A0
100
AcDbEntity
  8
0
100
AcDbLine
 62
7
  6
CONTINUOUS
 10
104.6666417725
 20
192.1371252677
 11
104.8479131943
 21
192.1371252677
  0
LINE
  5
2A1
100
AcDbEntity
  8
0
100
AcDbLine
 62
7
  6
CONTINUOUS
 10
104.9577988867
 20
192.2115933439
 11
105.1610340975
 21
192.2115933439
  0
LINE
  5
2A2
100
AcDbEntity
  8
0
100
AcDbLine
 62
7
  6
CONTINUOUS
 10
110.3187833891
 20
192.2115933439
 11
111.0699025878
 21
192.2115933439
  0
LINE
  5
2A3
100
AcDbEntity
  8
0
100
AcDbLine
 62
7
  6
CONTINUOUS
 10
104.9003310332
 20
192.4349975726
 11
105.1610340975
 21
192.4349975726
  0
LINE
  5
2A4
100
AcDbEntity
  8
0
100
AcDbLine
 62
7
  6
CONTINUOUS
 10
110.0096108181
 20
192.4349975726
 11
110.7406983405
 21
192.4349975726
  0
LINE
  5
2A5
100
AcDbEntity
  8
0
100
AcDbLine
 62
7
  6
CONTINUOUS
 10
104.6322834105
 20
192.5094656489
 11
105.801120579
 21
192.5094656489
  0
LINE
  5
2A6
100
AcDbEntity
  8
0
100
AcDbLine
 62
7
  6
CONTINUOUS
 10
106.3317393799
 20
192.5094656489
 11
107.1125314378
 21
192.5094656489
  0
LINE
  5
2A7
100
AcDbEntity
  8
0
100
AcDbLine
 62
7
  6
CONTINUOUS
 10
107.5760591343
 20
192.5094656489
 11
108.4954240584
 21
192.5094656489
  0
LINE
  5
2A8
100
AcDbEntity
  8
0
100
AcDbLine
 62
7
  6
CONTINUOUS
 10
109.2971231553
 20
192.5094656489
 11
110.351857829
 21
192.5094656489
  0
LINE
  5
2A9
100
AcDbEntity
  8
KONSTRUKTIONSELEMENTE
100
AcDbLine
 62
7
  6
CONTINUOUS
 10
114.0936258387
 20
209.0794656489
 11
114.0936258387
 21
209.5794656489
  0
LINE
  5
2AA
100
AcDbEntity
  8
BEZUGSACHSEN
100
AcDbLine
 62
7
  6
CONTINUOUS
 10
114.0936258387
 20
209.0794656489
 11
114.0936258387
 21
209.5794656489
  0
LINE
  5
2AB
100
AcDbEntity
  8
KONSTRUKTIONSELEMENTE
100
AcDbLine
 62
7
  6
CONTINUOUS
 10
114.7764060079
 20
219.0794656489
 11
114.7764060079
 21
219.2794656489
  0
LINE
  5
2AC
100
AcDbEntity
  8
BEZUGSACHSEN
100
AcDbLine
 62
7
  6
CONTINUOUS
 10
118.0936258387
 20
173.2794656489
 11
118.0936258387
 21
150.0794656489
  0
LINE
  5
2AD
100
AcDbEntity
  8
BEZUGSACHSEN
100
AcDbLine
 62
7
  6
CONTINUOUS
 10
111.2372193782
 20
218.0076688791
 11
113.0936258387
 21
219.0794656489
  0
LINE
  5
2AE
100
AcDbEntity
  8
0
100
AcDbLine
 62
7
  6
CONTINUOUS
 10
104.5936640238
 20
195.6994656489
 11
105.7547862169
 21
195.6994656489
  0
LINE
  5
2AF
100
AcDbEntity
  8
0
100
AcDbLine
 62
7
  6
CONTINUOUS
 10
104.9481781584
 20
196.4494656489
 11
105.1553274936
 21
196.4494656489
  0
LINE
  5
2B0
100
AcDbEntity
  8
BEZUGSACHSEN
100
AcDbLine
 62
7
  6
CONTINUOUS
 10
118.1654226084
 20
209.5794656489
 11
118.1654226084
 21
218.0076688791
  0
LINE
  5
2B1
100
AcDbEntity
  8
KONSTRUKTIONSELEMENTE
100
AcDbLine
 62
7
  6
CONTINUOUS
 10
118.2029434233
 20
219.0794656489
 11
118.2029434233
 21
219.2794656489
  0
LINE
  5
2B2
100
AcDbEntity
  8
KONSTRUKTIONSELEMENTE
100
AcDbLine
 62
7
  6
CONTINUOUS
 10
118.2921098181
 20
219.0794656489
 11
118.2921098181
 21
219.2794656489
  0
LINE
  5
2B3
100
AcDbEntity
  8
KONSTRUKTIONSELEMENTE
100
AcDbLine
 62
7
  6
CONTINUOUS
 10
118.6636364485
 20
219.0794656489
 11
118.6636364485
 21
219.2794656489
  0
LINE
  5
2B4
100
AcDbEntity
  8
KONSTRUKTIONSELEMENTE
100
AcDbLine
 62
7
  6
CONTINUOUS
 10
118.7676639373
 20
219.0794656489
 11
118.7676639373
 21
219.2794656489
  0
LINE
  5
2B5
100
AcDbEntity
  8
KONSTRUKTIONSELEMENTE
100
AcDbLine
 62
7
  6
CONTINUOUS
 10
118.7946160734
 20
219.0794656489
 11
118.7946160734
 21
219.2794656489
  0
LINE
  5
2B6
100
AcDbEntity
  8
KONSTRUKTIONSELEMENTE
100
AcDbLine
 62
7
  6
CONTINUOUS
 10
119.2100530321
 20
219.0794656489
 11
119.2100530321
 21
219.2794656489
  0
LINE
  5
2B7
100
AcDbEntity
  8
KONSTRUKTIONSELEMENTE
100
AcDbLine
 62
7
  6
CONTINUOUS
 10
119.5107526894
 20
219.0794656489
 11
119.5107526894
 21
219.2794656489
  0
LINE
  5
2B8
100
AcDbEntity
  8
KONSTRUKTIONSELEMENTE
100
AcDbLine
 62
7
  6
CONTINUOUS
 10
119.800573876
 20
219.0794656489
 11
119.800573876
 21
219.2794656489
  0
LINE
  5
2B9
100
AcDbEntity
  8
KONSTRUKTIONSELEMENTE
100
AcDbLine
 62
7
  6
CONTINUOUS
 10
119.9865359559
 20
219.0794656489
 11
119.9865359559
 21
219.2794656489
  0
LINE
  5
2BA
100
AcDbEntity
  8
KONSTRUKTIONSELEMENTE
100
AcDbLine
 62
7
  6
CONTINUOUS
 10
120.1616195702
 20
219.0794656489
 11
120.1616195702
 21
219.2794656489
  0
LINE
  5
2BB
100
AcDbEntity
  8
KONSTRUKTIONSELEMENTE
100
AcDbLine
 62
7
  6
CONTINUOUS
 10
120.2328440727
 20
219.0794656489
 11
120.2328440727
 21
219.2794656489
  0
LINE
  5
2BC
100
AcDbEntity
  8
KONSTRUKTIONSELEMENTE
100
AcDbLine
 62
7
  6
CONTINUOUS
 10
121.2211619017
 20
219.0794656489
 11
121.2211619017
 21
219.2794656489
  0
LINE
  5
2BD
100
AcDbEntity
  8
0
100
AcDbLine
 62
7
  6
CONTINUOUS
 10
104.7895493891
 20
199.0594656489
 11
105.3418017683
 21
199.0594656489
  0
LINE
  5
2BE
100
AcDbEntity
  8
0
100
AcDbLine
 62
7
  6
CONTINUOUS
 10
104.7895493891
 20
199.3594656489
 11
105.1553274936
 21
199.3594656489
  0
LINE
  5
2BF
100
AcDbEntity
  8
0
100
AcDbLine
 62
7
  6
CONTINUOUS
 10
104.613042092
 20
200.1094656489
 11
105.7547862169
 21
200.1094656489
  0
LINE
  5
2C0
100
AcDbEntity
  8
KONSTRUKTIONSELEMENTE
100
AcDbLine
 62
7
  6
CONTINUOUS
 10
122.8446809984
 20
219.0794656489
 11
122.8446809984
 21
219.2794656489
  0
LINE
  5
2C1
100
AcDbEntity
  8
KONSTRUKTIONSELEMENTE
100
AcDbLine
 62
7
  6
CONTINUOUS
 10
123.1551181528
 20
219.0794656489
 11
123.1551181528
 21
219.2794656489
  0
LINE
  5
2C2
100
AcDbEntity
  8
KONSTRUKTIONSELEMENTE
100
AcDbLine
 62
7
  6
CONTINUOUS
 10
123.3701119109
 20
219.0794656489
 11
123.3701119109
 21
219.2794656489
  0
LINE
  5
2C3
100
AcDbEntity
  8
KONSTRUKTIONSELEMENTE
100
AcDbLine
 62
7
  6
CONTINUOUS
 10
123.5295131739
 20
219.0794656489
 11
123.5295131739
 21
219.2794656489
  0
LINE
  5
2C4
100
AcDbEntity
  8
KONSTRUKTIONSELEMENTE
100
AcDbLine
 62
7
  6
CONTINUOUS
 10
123.5536216852
 20
219.0794656489
 11
123.5536216852
 21
219.2794656489
  0
LINE
  5
2C5
100
AcDbEntity
  8
RUNDUNGEN
100
AcDbLine
 62
7
  6
CONTINUOUS
 10
106.5940553079
 20
203.6794656489
 11
139.1969936125
 21
203.6794656489
  0
LINE
  5
2C6
100
AcDbEntity
  8
0
100
AcDbLine
 62
7
  6
CONTINUOUS
 10
139.1843306443
 20
203.8794656489
 11
110.0936258387
 21
203.8794656489
  0
LINE
  5
2C7
100
AcDbEntity
  8
KONSTRUKTIONSELEMENTE
100
AcDbLine
 62
7
  6
CONTINUOUS
 10
128.0892860399
 20
219.0794656489
 11
128.0892860399
 21
219.2794656489
  0
LINE
  5
2C8
100
AcDbEntity
  8
KONSTRUKTIONSELEMENTE
100
AcDbLine
 62
7
  6
CONTINUOUS
 10
128.4245456177
 20
219.0794656489
 11
128.4245456177
 21
219.2794656489
  0
LINE
  5
2C9
100
AcDbEntity
  8
KONSTRUKTIONSELEMENTE
100
AcDbLine
 62
7
  6
CONTINUOUS
 10
129.2068175394
 20
219.0794656489
 11
129.2068175394
 21
219.2794656489
  0
LINE
  5
2CA
100
AcDbEntity
  8
KONSTRUKTIONSELEMENTE
100
AcDbLine
 62
7
  6
CONTINUOUS
 10
129.6538311623
 20
219.0794656489
 11
129.6538311623
 21
219.2794656489
  0
LINE
  5
2CB
100
AcDbEntity
  8
KONSTRUKTIONSELEMENTE
100
AcDbLine
 62
7
  6
CONTINUOUS
 10
130.436103084
 20
219.0794656489
 11
130.436103084
 21
219.2794656489
  0
LINE
  5
2CC
100
AcDbEntity
  8
KONSTRUKTIONSELEMENTE
100
AcDbLine
 62
7
  6
CONTINUOUS
 10
130.7713626618
 20
219.0794656489
 11
130.7713626618
 21
219.2794656489
  0
LINE
  5
2CD
100
AcDbEntity
  8
KONSTRUKTIONSELEMENTE
100
AcDbLine
 62
7
  6
CONTINUOUS
 10
131.1342275434
 20
219.0794656489
 11
131.1342275434
 21
219.2794656489
  0
LINE
  5
2CE
100
AcDbEntity
  8
KONSTRUKTIONSELEMENTE
100
AcDbLine
 62
7
  6
CONTINUOUS
 10
131.3294657648
 20
219.0794656489
 11
131.3294657648
 21
219.2794656489
  0
LINE
  5
2CF
100
AcDbEntity
  8
KONSTRUKTIONSELEMENTE
100
AcDbLine
 62
7
  6
CONTINUOUS
 10
140.0936258387
 20
206.6794656489
 11
139.1689298857
 21
206.6794656489
  0
LINE
  5
2D0
100
AcDbEntity
  8
0
100
AcDbLine
 62
7
  6
CONTINUOUS
 10
150.0936258387
 20
206.6794656489
 11
151.0183217918
 21
206.6794656489
  0
LINE
  5
2D1
100
AcDbEntity
  8
0
100
AcDbLine
 62
7
  6
CONTINUOUS
 10
140.0936258387
 20
209.0794656489
 11
110.0936258387
 21
209.0794656489
  0
LINE
  5
2D2
100
AcDbEntity
  8
KONSTRUKTIONSELEMENTE
100
AcDbLine
 62
7
  6
CONTINUOUS
 10
111.2372193782
 20
209.5794656489
 11
138.9500322993
 21
209.5794656489
  0
LINE
  5
2D3
100
AcDbEntity
  8
KONSTRUKTIONSELEMENTE
100
AcDbLine
 62
7
  6
CONTINUOUS
 10
131.84075209
 20
219.0794656489
 11
131.84075209
 21
219.2794656489
  0
LINE
  5
2D4
100
AcDbEntity
  8
KONSTRUKTIONSELEMENTE
100
AcDbLine
 62
7
  6
CONTINUOUS
 10
131.8823811712
 20
219.0794656489
 11
131.8823811712
 21
219.2794656489
  0
LINE
  5
2D5
100
AcDbEntity
  8
BEZUGSACHSEN
100
AcDbLine
 62
7
  6
CONTINUOUS
 10
132.021829069
 20
209.5794656489
 11
132.021829069
 21
218.0076688791
  0
LINE
  5
2D6
100
AcDbEntity
  8
BEZUGSACHSEN
100
AcDbLine
 62
7
  6
CONTINUOUS
 10
132.0936258387
 20
173.2794656489
 11
132.0936258387
 21
150.0794656489
  0
LINE
  5
2D7
100
AcDbEntity
  8
KONSTRUKTIONSELEMENTE
100
AcDbLine
 62
7
  6
CONTINUOUS
 10
132.9202040052
 20
219.0794656489
 11
132.9202040052
 21
219.2794656489
  0
LINE
  5
2D8
100
AcDbEntity
  8
KONSTRUKTIONSELEMENTE
100
AcDbLine
 62
7
  6
CONTINUOUS
 10
132.9895857012
 20
219.0794656489
 11
132.9895857012
 21
219.2794656489
  0
LINE
  5
2D9
100
AcDbEntity
  8
KONSTRUKTIONSELEMENTE
100
AcDbLine
 62
7
  6
CONTINUOUS
 10
133.4343669751
 20
219.0794656489
 11
133.4343669751
 21
219.2794656489
  0
LINE
  5
2DA
100
AcDbEntity
  8
KONSTRUKTIONSELEMENTE
100
AcDbLine
 62
7
  6
CONTINUOUS
 10
135.3665007522
 20
219.0794656489
 11
135.3665007522
 21
219.2794656489
  0
LINE
  5
2DB
100
AcDbEntity
  8
0
100
AcDbLine
 62
7
  6
CONTINUOUS
 10
139.1857439034
 20
203.8794656489
 11
139.1900155678
 21
203.8049326053
  0
LWPOLYLINE
  5
2DC
100
AcDbEntity
  8
RUNDUNGEN
100
AcDbPolyline
 62
7
  6
CONTINUOUS
 90
7
 70
0
 10
139.1843306221
 20
203.9042561801
 10
139.2361234628
 20
202.9758506385
 10
139.2790077601
 20
202.0478160147
 10
139.3056296473
 20
201.1605899522
 10
139.3144091709
 20
200.3178223003
 10
139.3077289766
 20
199.5218098029
 10
139.2946142434
 20
198.9106776783
  0
LINE
  5
2DD
100
AcDbEntity
  8
RUNDUNGEN
100
AcDbLine
 62
7
  6
CONTINUOUS
 10
139.1794268398
 20
203.9987262121
 11
139.1843306742
 21
203.9042553149
  0
LWPOLYLINE
  5
2DE
100
AcDbEntity
  8
RUNDUNGEN
100
AcDbPolyline
 62
7
  6
CONTINUOUS
 90
4
 70
0
 10
139.168934387
 20
204.4536167992
 10
139.1703139939
 20
204.2869523851
 10
139.1738746323
 20
204.1397422827
 10
139.1794268398
 20
203.9987262121
  0
LINE
  5
2DF
100
AcDbEntity
  8
KONSTRUKTIONSELEMENTE
100
AcDbLine
 62
7
  6
CONTINUOUS
 10
136.0936258387
 20
209.0794656489
 11
136.0936258387
 21
209.5794656489
  0
LINE
  5
2E0
100
AcDbEntity
  8
BEZUGSACHSEN
100
AcDbLine
 62
7
  6
CONTINUOUS
 10
136.0936258387
 20
209.0794656489
 11
136.0936258387
 21
209.5794656489
  0
LINE
  5
2E1
100
AcDbEntity
  8
0
100
AcDbLine
 62
7
  6
CONTINUOUS
 10
137.3436258387
 20
203.8794656489
 11
137.3436258387
 21
203.6794656489
  0
LINE
  5
2E2
100
AcDbEntity
  8
0
100
AcDbLine
 62
7
  6
CONTINUOUS
 10
137.3436258387
 20
178.6794656489
 11
137.3436258387
 21
178.4794656489
  0
LINE
  5
2E3
100
AcDbEntity
  8
0
100
AcDbLine
 62
7
  6
CONTINUOUS
 10
138.3436258387
 20
190.6794656489
 11
138.3436258387
 21
190.7213339292
  0
LINE
  5
2E4
100
AcDbEntity
  8
RUNDUNGEN
100
AcDbLine
 62
7
  6
CONTINUOUS
 10
138.3436258387
 20
190.6794656489
 11
138.3436258387
 21
191.9283775098
  0
LINE
  5
2E5
100
AcDbEntity
  8
0
100
AcDbLine
 62
7
  6
CONTINUOUS
 10
138.3436258387
 20
264.9294656489
 11
138.3436258387
 21
265.6794656489
  0
LINE
  5
2E6
100
AcDbEntity
  8
BEZUGSACHSEN
100
AcDbLine
 62
7
  6
CONTINUOUS
 10
138.9500322993
 20
209.5794656489
 11
138.9500322993
 21
218.0076688791
  0
LINE
  5
2E7
100
AcDbEntity
  8
0
100
AcDbLine
 62
7
  6
CONTINUOUS
 10
139.1689348297
 20
237.0465804023
 11
139.1689343575
 21
233.6794656489
  0
LINE
  5
2E8
100
AcDbEntity
  8
RUNDUNGEN
100
AcDbLine
 62
7
  6
CONTINUOUS
 10
139.1689348297
 20
237.0465804023
 11
139.1689343575
 21
233.6794656489
  0
LINE
  5
2E9
100
AcDbEntity
  8
RUNDUNGEN
100
AcDbLine
 62
7
  6
CONTINUOUS
 10
139.168934378
 20
206.6794656489
 11
139.168934378
 21
204.4536167336
  0
LINE
  5
2EA
100
AcDbEntity
  8
0
100
AcDbLine
 62
7
  6
CONTINUOUS
 10
139.1688849937
 20
247.7870166116
 11
139.1689171663
 21
243.4911940786
  0
LINE
  5
2EB
100
AcDbEntity
  8
RUNDUNGEN
100
AcDbLine
 62
7
  6
CONTINUOUS
 10
139.1689171663
 20
243.4911940786
 11
139.1689260104
 21
247.80400763
  0
LINE
  5
2EC
100
AcDbEntity
  8
0
100
AcDbLine
 62
7
  6
CONTINUOUS
 10
139.5936258387
 20
269.3451852155
 11
139.5936258387
 21
266.1677145219
  0
LINE
  5
2ED
100
AcDbEntity
  8
RUNDUNGEN
100
AcDbLine
 62
7
  6
CONTINUOUS
 10
139.5936258387
 20
266.1677145219
 11
139.5936258387
 21
262.5167875347
  0
LINE
  5
2EE
100
AcDbEntity
  8
KONSTRUKTIONSELEMENTE
100
AcDbLine
 62
7
  6
CONTINUOUS
 10
139.5936258387
 20
216.6362264763
 11
139.5936258387
 21
219.8129561334
  0
LINE
  5
2EF
100
AcDbEntity
  8
KONSTRUKTIONSELEMENTE
100
AcDbLine
 62
7
  6
CONTINUOUS
 10
139.5936258387
 20
220.1762264763
 11
139.5936258387
 21
222.9962264763
  0
LINE
  5
2F0
100
AcDbEntity
  8
KONSTRUKTIONSELEMENTE
100
AcDbLine
 62
7
  6
CONTINUOUS
 10
139.5936258387
 20
223.7162264763
 11
139.5936258387
 21
224.9130986524
  0
LINE
  5
2F1
100
AcDbEntity
  8
0
100
AcDbLine
 62
7
  6
CONTINUOUS
 10
139.5936258387
 20
224.9130986524
 11
139.5936258387
 21
227.1127023581
  0
LINE
  5
2F2
100
AcDbEntity
  8
0
100
AcDbLine
 62
7
  6
CONTINUOUS
 10
139.5936258387
 20
228.3130986524
 11
139.5936258387
 21
230.5127023581
  0
LINE
  5
2F3
100
AcDbEntity
  8
0
100
AcDbLine
 62
7
  6
CONTINUOUS
 10
140.0936258387
 20
233.6794656489
 11
140.0936258387
 21
206.6794656489
  0
LINE
  5
2F4
100
AcDbEntity
  8
0
100
AcDbLine
 62
7
  6
CONTINUOUS
 10
140.0936258387
 20
178.4794656489
 11
140.0936258387
 21
173.2794656489
  0
LINE
  5
2F5
100
AcDbEntity
  8
0
100
AcDbLine
 62
7
  6
CONTINUOUS
 10
138.3436258387
 20
191.9283775098
 11
138.343626345
 21
191.9308889343
  0
LINE
  5
2F6
100
AcDbEntity
  8
RUNDUNGEN
100
AcDbLine
 62
7
  6
CONTINUOUS
 10
139.2946209649
 20
198.9109540458
 11
139.2912465517
 21
198.798536796
  0
LINE
  5
2F7
100
AcDbEntity
  8
RUNDUNGEN
100
AcDbLine
 62
7
  6
CONTINUOUS
 10
139.2912465517
 20
198.798536796
 11
139.2879349904
 21
198.7098358693
  0
LWPOLYLINE
  5
2F8
100
AcDbEntity
  8
RUNDUNGEN
100
AcDbPolyline
 62
7
  6
CONTINUOUS
 90
4
 70
0
 10
139.2879189821
 20
198.7094547373
 10
139.2869204396
 20
198.6859021497
 10
139.2808389715
 20
198.5739376864
 10
139.2760898301
 20
198.5064227389
  0
LINE
  5
2F9
100
AcDbEntity
  8
0
100
AcDbLine
 62
7
  6
CONTINUOUS
 10
139.2760774317
 20
198.5062595436
 11
139.2760898106
 21
198.5064215519
  0
LWPOLYLINE
  5
2FA
100
AcDbEntity
  8
RUNDUNGEN
100
AcDbPolyline
 62
7
  6
CONTINUOUS
 90
3
 70
0
 10
138.3923369136
 20
192.8205118059
 10
138.3525051437
 20
192.3070878532
 10
138.3436263415
 20
191.9308889343
  0
LWPOLYLINE
  5
2FB
100
AcDbEntity
  8
RUNDUNGEN
100
AcDbPolyline
 62
7
  6
CONTINUOUS
 90
3
 70
0
 10
139.2760774317
 20
198.5062595436
 10
139.2440842803
 20
198.107202594
 10
139.1937789003
 20
197.5465045394
  0
LINE
  5
2FC
100
AcDbEntity
  8
KONSTRUKTIONSELEMENTE
100
AcDbLine
 62
7
  6
CONTINUOUS
 10
140.0936258387
 20
216.6362264763
 11
139.5936258387
 21
216.6362264763
  0
LINE
  5
2FD
100
AcDbEntity
  8
KONSTRUKTIONSELEMENTE
100
AcDbLine
 62
7
  6
CONTINUOUS
 10
140.0936258387
 20
217.3562264763
 11
139.5936258387
 21
217.3562264763
  0
LINE
  5
2FE
100
AcDbEntity
  8
KONSTRUKTIONSELEMENTE
100
AcDbLine
 62
7
  6
CONTINUOUS
 10
140.0936258387
 20
218.7929561334
 11
139.5936258387
 21
218.7929561334
  0
LINE
  5
2FF
100
AcDbEntity
  8
BEZUGSACHSEN
100
AcDbLine
 62
7
  6
CONTINUOUS
 10
113.094163403
 20
219.0794656489
 11
137.0930882742
 21
219.0794656489
  0
LINE
  5
300
100
AcDbEntity
  8
KONSTRUKTIONSELEMENTE
100
AcDbLine
 62
7
  6
CONTINUOUS
 10
114.7764060079
 20
219.2794656489
 11
123.5536216852
 21
219.2794656489
  0
LINE
  5
301
100
AcDbEntity
  8
KONSTRUKTIONSELEMENTE
100
AcDbLine
 62
7
  6
CONTINUOUS
 10
128.0892860399
 20
219.2794656489
 11
135.3665007522
 21
219.2794656489
  0
LINE
  5
302
100
AcDbEntity
  8
KONSTRUKTIONSELEMENTE
100
AcDbLine
 62
7
  6
CONTINUOUS
 10
140.0936258387
 20
219.8129561334
 11
139.5936258387
 21
219.8129561334
  0
LINE
  5
303
100
AcDbEntity
  8
0
100
AcDbLine
 62
7
  6
CONTINUOUS
 10
138.3693116266
 20
264.3411643853
 11
138.3980503569
 21
264.0126791953
  0
LINE
  5
304
100
AcDbEntity
  8
0
100
AcDbLine
 62
7
  6
CONTINUOUS
 10
138.9370355388
 20
257.8520503755
 11
138.5237992644
 21
262.5753626054
  0
LINE
  5
305
100
AcDbEntity
  8
RUNDUNGEN
100
AcDbLine
 62
7
  6
CONTINUOUS
 10
138.5288244521
 20
262.5179244468
 11
138.3692806993
 21
264.3415178855
  0
LINE
  5
306
100
AcDbEntity
  8
RUNDUNGEN
100
AcDbLine
 62
7
  6
CONTINUOUS
 10
139.6012364425
 20
262.3424760492
 11
139.9880446224
 21
257.9212383222
  0
LINE
  5
307
100
AcDbEntity
  8
0
100
AcDbLine
 62
7
  6
CONTINUOUS
 10
139.9880446224
 20
257.9212383222
 11
140.1284892837
 21
256.3159484977
  0
LINE
  5
308
100
AcDbEntity
  8
RUNDUNGEN
100
AcDbLine
 62
7
  6
CONTINUOUS
 10
140.1284892837
 20
256.3159484977
 11
140.3860152349
 21
253.3724134063
  0
LINE
  5
309
100
AcDbEntity
  8
RUNDUNGEN
100
AcDbLine
 62
7
  6
CONTINUOUS
 10
140.3936258387
 20
253.1981019208
 11
140.3936258387
 21
250.1258321833
  0
LINE
  5
30A
100
AcDbEntity
  8
0
100
AcDbLine
 62
7
  6
CONTINUOUS
 10
140.3936258387
 20
250.1258321833
 11
140.3936258387
 21
243.1369873787
  0
LINE
  5
30B
100
AcDbEntity
  8
0
100
AcDbLine
 62
7
  6
CONTINUOUS
 10
140.3936258387
 20
242.8291234318
 11
140.3936258387
 21
232.0882869496
  0
LINE
  5
30C
100
AcDbEntity
  8
RUNDUNGEN
100
AcDbLine
 62
7
  6
CONTINUOUS
 10
139.1937789003
 20
197.5465045394
 11
139.1408831185
 21
197.0270151269
  0
LINE
  5
30D
100
AcDbEntity
  8
RUNDUNGEN
100
AcDbLine
 62
7
  6
CONTINUOUS
 10
139.1408831185
 20
197.0270151269
 11
139.0862073963
 21
196.5507065258
  0
LWPOLYLINE
  5
30E
100
AcDbEntity
  8
RUNDUNGEN
100
AcDbPolyline
 62
7
  6
CONTINUOUS
 90
9
 70
0
 10
139.0862073963
 20
196.5507065258
 10
139.0305815971
 20
196.1188721798
 10
138.9750505088
 20
195.7335564565
 10
138.9206742205
 20
195.3958229014
 10
138.869115282
 20
195.1090843503
 10
138.8220974701
 20
194.8751222192
 10
138.7822407643
 20
194.6979376826
 10
138.7531674594
 20
194.5825104808
 10
138.6628047191
 20
194.2563534509
  0
LWPOLYLINE
  5
30F
100
AcDbEntity
  8
0
100
AcDbPolyline
 62
7
  6
CONTINUOUS
 90
5
 70
0
 10
138.4998361364
 20
193.5237546305
 10
138.4605822156
 20
193.3189513182
 10
138.3923369136
 20
192.8205118059
 10
138.3525051437
 20
192.3070878531
 10
138.3436263415
 20
191.9308889343
  0
LWPOLYLINE
  5
310
100
AcDbEntity
  8
RUNDUNGEN
100
AcDbPolyline
 62
7
  6
CONTINUOUS
 90
4
 70
0
 10
138.6628047191
 20
194.2563534509
 10
138.5524912621
 20
193.7984773569
 10
138.4605822156
 20
193.3189513182
 10
138.3923369136
 20
192.8205118059
  0
LINE
  5
311
100
AcDbEntity
  8
0
100
AcDbLine
 62
7
  6
CONTINUOUS
 10
138.741008046
 20
194.5387199323
 11
138.7415478614
 21
194.5405806809
  0
LINE
  5
312
100
AcDbEntity
  8
KONSTRUKTIONSELEMENTE
100
AcDbLine
 62
7
  6
CONTINUOUS
 10
140.0936258387
 20
220.1762264763
 11
139.5936258387
 21
220.1762264763
  0
LINE
  5
313
100
AcDbEntity
  8
KONSTRUKTIONSELEMENTE
100
AcDbLine
 62
7
  6
CONTINUOUS
 10
140.0936258387
 20
222.9962264763
 11
139.5936258387
 21
222.9962264763
  0
LINE
  5
314
100
AcDbEntity
  8
KONSTRUKTIONSELEMENTE
100
AcDbLine
 62
7
  6
CONTINUOUS
 10
140.0936258387
 20
223.7162264763
 11
139.5936258387
 21
223.7162264763
  0
LINE
  5
315
100
AcDbEntity
  8
BEZUGSACHSEN
100
AcDbLine
 62
7
  6
CONTINUOUS
 10
138.9500322993
 20
218.0076688791
 11
137.0936258387
 21
219.0794656489
  0
LINE
  5
316
100
AcDbEntity
  8
0
100
AcDbLine
 62
7
  6
CONTINUOUS
 10
150.5860152349
 20
262.3424760492
 11
149.8012364425
 21
253.3724134063
  0
LINE
  5
317
100
AcDbEntity
  8
0
100
AcDbLine
 62
7
  6
CONTINUOUS
 10
151.2502161387
 20
257.8520503755
 11
151.8179400508
 21
264.3411643853
  0
LINE
  5
318
100
AcDbEntity
  8
0
100
AcDbLine
 62
7
  6
CONTINUOUS
 10
140.0936258387
 20
224.9127023581
 11
139.5936258387
 21
224.9127023581
  0
LINE
  5
319
100
AcDbEntity
  8
0
100
AcDbLine
 62
7
  6
CONTINUOUS
 10
140.0936258387
 20
227.1127023581
 11
139.5936258387
 21
227.1127023581
  0
LINE
  5
31A
100
AcDbEntity
  8
0
100
AcDbLine
 62
7
  6
CONTINUOUS
 10
140.0936258387
 20
228.3127023581
 11
139.5936258387
 21
228.3127023581
  0
LINE
  5
31B
100
AcDbEntity
  8
0
100
AcDbLine
 62
7
  6
CONTINUOUS
 10
151.4462436314
 20
194.5387199323
 11
151.4457038161
 21
194.5405806809
  0
LWPOLYLINE
  5
31C
100
AcDbEntity
  8
0
100
AcDbPolyline
 62
7
  6
CONTINUOUS
 90
8
 70
0
 10
151.434084218
 20
194.5825104808
 10
151.4050109131
 20
194.6979376826
 10
151.3651542074
 20
194.8751222192
 10
151.3181363954
 20
195.1090843503
 10
151.2665774569
 20
195.3958229014
 10
151.2122011686
 20
195.7335564565
 10
151.1566700804
 20
196.1188721798
 10
151.1010442811
 20
196.5507065258
  0
LWPOLYLINE
  5
31D
100
AcDbEntity
  8
0
100
AcDbPolyline
 62
7
  6
CONTINUOUS
 90
4
 70
0
 10
151.7266694619
 20
193.3189513182
 10
151.6347604153
 20
193.7984773569
 10
151.5244469583
 20
194.2563534509
 10
151.434084218
 20
194.5825104808
  0
LWPOLYLINE
  5
31E
100
AcDbEntity
  8
0
100
AcDbPolyline
 62
7
  6
CONTINUOUS
 90
4
 70
0
 10
151.0463685589
 20
197.0270151269
 10
150.9934727771
 20
197.5465045394
 10
150.9431673972
 20
198.107202594
 10
150.9111742458
 20
198.5062595436
  0
LWPOLYLINE
  5
31F
100
AcDbEntity
  8
0
100
AcDbPolyline
 62
7
  6
CONTINUOUS
 90
3
 70
0
 10
150.9111618473
 20
198.5064227389
 10
150.906412706
 20
198.5739376864
 10
150.9003312378
 20
198.6859021497
  0
LWPOLYLINE
  5
320
100
AcDbEntity
  8
0
100
AcDbPolyline
 62
7
  6
CONTINUOUS
 90
3
 70
0
 10
150.9003312378
 20
198.6859021497
 10
150.8981860955
 20
198.7385599358
 10
150.8959357769
 20
198.8005650818
  0
LINE
  5
321
100
AcDbEntity
  8
0
100
AcDbLine
 62
7
  6
CONTINUOUS
 10
150.8959357769
 20
198.8005650818
 11
150.892630716
 21
198.9109539125
  0
LWPOLYLINE
  5
322
100
AcDbEntity
  8
0
100
AcDbPolyline
 62
7
  6
CONTINUOUS
 90
4
 70
0
 10
151.8436253359
 20
191.9308889343
 10
151.8347465338
 20
192.3070878532
 10
151.7949147638
 20
192.8205118059
 10
151.7266694619
 20
193.3189513182
  0
LWPOLYLINE
  5
323
100
AcDbEntity
  8
0
100
AcDbPolyline
 62
7
  6
CONTINUOUS
 90
6
 70
0
 10
150.892637434
 20
198.9106776783
 10
150.8795227009
 20
199.5218098029
 10
150.8728425065
 20
200.3178223003
 10
150.8816220301
 20
201.1605899522
 10
150.9082439173
 20
202.0478160147
 10
150.9511282147
 20
202.9758506385
  0
LINE
  5
324
100
AcDbEntity
  8
0
100
AcDbLine
 62
7
  6
CONTINUOUS
 10
149.7936258387
 20
253.1981019208
 11
149.7936258387
 21
243.1369873787
  0
LINE
  5
325
100
AcDbEntity
  8
0
100
AcDbLine
 62
7
  6
CONTINUOUS
 10
149.7936258387
 20
242.8291234318
 11
149.7936258387
 21
232.0882869496
  0
LINE
  5
326
100
AcDbEntity
  8
0
100
AcDbLine
 62
7
  6
CONTINUOUS
 10
150.0936258387
 20
233.6794656489
 11
150.0936258387
 21
206.6794656489
  0
LINE
  5
327
100
AcDbEntity
  8
0
100
AcDbLine
 62
7
  6
CONTINUOUS
 10
150.5936258387
 20
269.3451852155
 11
150.5936258387
 21
262.5167875347
  0
LINE
  5
328
100
AcDbEntity
  8
0
100
AcDbLine
 62
7
  6
CONTINUOUS
 10
151.0183172994
 20
204.4536167336
 11
151.0183172994
 21
206.6794656489
  0
LINE
  5
329
100
AcDbEntity
  8
0
100
AcDbLine
 62
7
  6
CONTINUOUS
 10
151.0183173199
 20
233.6794656489
 11
151.0183168478
 21
237.0465804023
  0
LINE
  5
32A
100
AcDbEntity
  8
0
100
AcDbLine
 62
7
  6
CONTINUOUS
 10
151.8436258387
 20
190.6794656489
 11
151.8436258387
 21
191.9283775098
  0
LINE
  5
32B
100
AcDbEntity
  8
0
100
AcDbLine
 62
7
  6
CONTINUOUS
 10
151.8436258387
 20
264.9294656489
 11
151.8436258387
 21
265.6794656489
  0
LINE
  5
32C
100
AcDbEntity
  8
0
100
AcDbLine
 62
7
  6
CONTINUOUS
 10
151.0183345111
 20
243.4911940786
 11
151.018325667
 21
247.80400763
  0
LWPOLYLINE
  5
32D
100
AcDbEntity
  8
0
100
AcDbPolyline
 62
7
  6
CONTINUOUS
 90
4
 70
0
 10
151.0078248377
 20
203.9987262121
 10
151.0133770452
 20
204.1397422827
 10
151.0169376836
 20
204.2869523851
 10
151.0183172905
 20
204.4536167992
  0
LINE
  5
32E
100
AcDbEntity
  8
0
100
AcDbLine
 62
7
  6
CONTINUOUS
 10
151.0029210033
 20
203.9042553149
 11
151.0078248377
 21
203.9987262121
  0
LINE
  5
32F
100
AcDbEntity
  8
0
100
AcDbLine
 62
7
  6
CONTINUOUS
 10
150.9511282147
 20
202.9758506385
 11
151.0029210553
 21
203.9042561801
  0
LINE
  5
330
100
AcDbEntity
  8
0
100
AcDbLine
 62
7
  6
CONTINUOUS
 10
140.0936258387
 20
230.5127023581
 11
139.5936258387
 21
230.5127023581
  0
LINE
  5
331
100
AcDbEntity
  8
0
100
AcDbLine
 62
7
  6
CONTINUOUS
 10
151.1010442811
 20
196.5507065258
 11
151.0463685589
 21
197.0270151269
  0
LINE
  5
332
100
AcDbEntity
  8
0
100
AcDbLine
 62
7
  6
CONTINUOUS
 10
151.0183017404
 20
233.6794656489
 11
150.0936258387
 21
233.6794656489
  0
LINE
  5
333
100
AcDbEntity
  8
0
100
AcDbLine
 62
7
  6
CONTINUOUS
 10
139.1689499371
 20
233.6794656489
 11
140.0936258387
 21
233.6794656489
  0
LINE
  5
334
100
AcDbEntity
  8
0
100
AcDbLine
 62
7
  6
CONTINUOUS
 10
140.3936258387
 20
243.1369873787
 11
140.2053871706
 21
243.1369873787
  0
LINE
  5
335
100
AcDbEntity
  8
0
100
AcDbLine
 62
7
  6
CONTINUOUS
 10
149.7936258387
 20
243.1369873787
 11
149.9818645068
 21
243.1369873787
  0
LINE
  5
336
100
AcDbEntity
  8
BEZUGSACHSEN
100
AcDbLine
 62
7
  6
CONTINUOUS
 10
132.0936258387
 20
150.0794656489
 11
131.0936258387
 21
149.0794656489
  0
LINE
  5
337
100
AcDbEntity
  8
0
100
AcDbLine
 62
7
  6
CONTINUOUS
 10
139.5936258387
 20
268.9294656489
 11
139.3000655934
 21
268.9294656489
  0
LINE
  5
338
100
AcDbEntity
  8
0
100
AcDbLine
 62
7
  6
CONTINUOUS
 10
150.5936258387
 20
268.9294656489
 11
150.8871860841
 21
268.9294656489
  0
LINE
  5
339
100
AcDbEntity
  8
KONSTRUKTIONSELEMENTE
100
AcDbLine
 62
7
  6
CONTINUOUS
 10
145.8436258387
 20
271.6794656489
 11
144.3436258387
 21
271.6794656489
  0
LINE
  5
33A
100
AcDbEntity
  8
BEZUGSACHSEN
100
AcDbLine
 62
7
  6
CONTINUOUS
 10
256.4646155567
 20
149.0794656489
 11
268.4627570291
 21
149.0794656489
  0
LINE
  5
33B
100
AcDbEntity
  8
BEZUGSACHSEN
100
AcDbLine
 62
7
  6
CONTINUOUS
 10
255.4636862929
 20
150.0794656489
 11
269.4636862929
 21
150.0794656489
  0
LINE
  5
33C
100
AcDbEntity
  8
0
100
AcDbLine
 62
7
  6
CONTINUOUS
 10
245.3644039925
 20
262.7058358642
 11
262.4636862929
 21
268.9294656489
  0
LINE
  5
33D
100
AcDbEntity
  8
BEZUGSACHSEN
100
AcDbLine
 62
7
  6
CONTINUOUS
 10
256.4636862929
 20
149.0794656489
 11
255.4636862929
 21
150.0794656489
  0
LINE
  5
33E
100
AcDbEntity
  8
0
100
AcDbLine
 62
7
  6
CONTINUOUS
 10
235.1955126999
 20
243.1369873787
 11
235.0453574201
 21
242.8291234318
  0
LINE
  5
33F
100
AcDbEntity
  8
0
100
AcDbLine
 62
7
  6
CONTINUOUS
 10
236.8725179386
 20
246.575357662
 11
244.2508561866
 21
261.7031929162
  0
LINE
  5
340
100
AcDbEntity
  8
0
100
AcDbLine
 62
7
  6
CONTINUOUS
 10
247.4636862929
 20
173.2794656489
 11
277.4636862929
 21
173.2794656489
  0
LINE
  5
341
100
AcDbEntity
  8
0
100
AcDbLine
 62
7
  6
CONTINUOUS
 10
235.0453647637
 20
232.0882869496
 11
238.5548546472
 21
239.2838075397
  0
LINE
  5
342
100
AcDbEntity
  8
0
100
AcDbLine
 62
7
  6
CONTINUOUS
 10
247.4636862929
 20
178.4794656489
 11
277.4636862929
 21
178.4794656489
  0
LINE
  5
343
100
AcDbEntity
  8
RUNDUNGEN
100
AcDbLine
 62
7
  6
CONTINUOUS
 10
278.2136862929
 20
178.6794656489
 11
246.7136862929
 21
178.6794656489
  0
LINE
  5
344
100
AcDbEntity
  8
0
100
AcDbLine
 62
7
  6
CONTINUOUS
 10
234.4636862929
 20
196.6793966026
 11
234.4636862929
 21
250.0959303455
  0
LINE
  5
345
100
AcDbEntity
  8
KONSTRUKTIONSELEMENTE
100
AcDbLine
 62
7
  6
CONTINUOUS
 10
236.1007313146
 20
225.3962264763
 11
236.1007313146
 21
223.7162264763
  0
LINE
  5
346
100
AcDbEntity
  8
KONSTRUKTIONSELEMENTE
100
AcDbLine
 62
7
  6
CONTINUOUS
 10
236.1007313146
 20
222.9962264763
 11
236.1007313146
 21
222.2762264763
  0
LINE
  5
347
100
AcDbEntity
  8
KONSTRUKTIONSELEMENTE
100
AcDbLine
 62
7
  6
CONTINUOUS
 10
236.1007313146
 20
220.8962264763
 11
236.1007313146
 21
220.1762264763
  0
LINE
  5
348
100
AcDbEntity
  8
KONSTRUKTIONSELEMENTE
100
AcDbLine
 62
7
  6
CONTINUOUS
 10
236.1007313146
 20
218.4062264763
 11
236.1007313146
 21
216.6362264763
  0
LINE
  5
349
100
AcDbEntity
  8
0
100
AcDbLine
 62
7
  6
CONTINUOUS
 10
261.0020195915
 20
182.5626571393
 11
261.36660289
 21
182.5626571393
  0
LINE
  5
34A
100
AcDbEntity
  8
0
100
AcDbLine
 62
7
  6
CONTINUOUS
 10
260.4186862929
 20
183.0094656489
 11
259.9811862929
 21
183.0094656489
  0
LINE
  5
34B
100
AcDbEntity
  8
0
100
AcDbLine
 62
7
  6
CONTINUOUS
 10
262.3874362929
 20
183.0094656489
 11
265.0124362929
 21
183.0094656489
  0
LINE
  5
34C
100
AcDbEntity
  8
0
100
AcDbLine
 62
7
  6
CONTINUOUS
 10
261.80410289
 20
183.3818060822
 11
261.4395196958
 21
183.3818060822
  0
LINE
  5
34D
100
AcDbEntity
  8
0
100
AcDbLine
 62
7
  6
CONTINUOUS
 10
262.9707696958
 20
183.3818060822
 11
265.0124362929
 21
183.3818060822
  0
LINE
  5
34E
100
AcDbEntity
  8
KONSTRUKTIONSELEMENTE
100
AcDbLine
 62
7
  6
CONTINUOUS
 10
236.7007313146
 20
216.6362264763
 11
236.7007313146
 21
218.2862264763
  0
LINE
  5
34F
100
AcDbEntity
  8
KONSTRUKTIONSELEMENTE
100
AcDbLine
 62
7
  6
CONTINUOUS
 10
236.7007313146
 20
223.7162264763
 11
236.7007313146
 21
225.1562264763
  0
LINE
  5
350
100
AcDbEntity
  8
KONSTRUKTIONSELEMENTE
100
AcDbLine
 62
7
  6
CONTINUOUS
 10
236.9407313146
 20
224.4362264763
 11
236.9407313146
 21
223.7162264763
  0
LINE
  5
351
100
AcDbEntity
  8
KONSTRUKTIONSELEMENTE
100
AcDbLine
 62
7
  6
CONTINUOUS
 10
236.9407313146
 20
217.3562264763
 11
236.9407313146
 21
216.6362264763
  0
LINE
  5
352
100
AcDbEntity
  8
KONSTRUKTIONSELEMENTE
100
AcDbLine
 62
7
  6
CONTINUOUS
 10
237.6007313146
 20
218.2862264763
 11
237.6007313146
 21
217.3562264763
  0
LINE
  5
353
100
AcDbEntity
  8
KONSTRUKTIONSELEMENTE
100
AcDbLine
 62
7
  6
CONTINUOUS
 10
238.1907313146
 20
217.3562264763
 11
238.1907313146
 21
217.7190846327
  0
LINE
  5
354
100
AcDbEntity
  8
KONSTRUKTIONSELEMENTE
100
AcDbLine
 62
7
  6
CONTINUOUS
 10
239.0307313146
 20
225.1562264763
 11
239.0307313146
 21
224.4362264763
  0
LINE
  5
355
100
AcDbEntity
  8
KONSTRUKTIONSELEMENTE
100
AcDbLine
 62
7
  6
CONTINUOUS
 10
239.6307313146
 20
216.6362264763
 11
239.6307313146
 21
217.3562264763
  0
LINE
  5
356
100
AcDbEntity
  8
KONSTRUKTIONSELEMENTE
100
AcDbLine
 62
7
  6
CONTINUOUS
 10
239.6307313146
 20
218.7929561334
 11
239.6307313146
 21
219.8129561334
  0
LINE
  5
357
100
AcDbEntity
  8
KONSTRUKTIONSELEMENTE
100
AcDbLine
 62
7
  6
CONTINUOUS
 10
239.6307313146
 20
223.7162264763
 11
239.6307313146
 21
225.3962264763
  0
LINE
  5
358
100
AcDbEntity
  8
0
100
AcDbLine
 62
7
  6
CONTINUOUS
 10
240.2605569563
 20
206.6794656489
 11
240.2605569563
 21
233.6794656489
  0
LINE
  5
359
100
AcDbEntity
  8
0
100
AcDbLine
 62
7
  6
CONTINUOUS
 10
274.9366035159
 20
189.4562741584
 11
275.2282690699
 21
189.5307422346
  0
LINE
  5
35A
100
AcDbEntity
  8
0
100
AcDbLine
 62
7
  6
CONTINUOUS
 10
271.5824362929
 20
189.4562741584
 11
271.8741035159
 21
189.5307422346
  0
LINE
  5
35B
100
AcDbEntity
  8
0
100
AcDbLine
 62
7
  6
CONTINUOUS
 10
263.1895194872
 20
186.0626571915
 11
263.5541030987
 21
186.1371252677
  0
LINE
  5
35C
100
AcDbEntity
  8
0
100
AcDbLine
 62
7
  6
CONTINUOUS
 10
274.9366035159
 20
189.0094656489
 11
275.3011862929
 21
189.0839337316
  0
LINE
  5
35D
100
AcDbEntity
  8
0
100
AcDbLine
 62
7
  6
CONTINUOUS
 10
271.5824362929
 20
189.0094656489
 11
271.9470190699
 21
189.0839337316
  0
LINE
  5
35E
100
AcDbEntity
  8
0
100
AcDbLine
 62
7
  6
CONTINUOUS
 10
263.1166030987
 20
186.4349975726
 11
263.6270194872
 21
186.5094656489
  0
LINE
  5
35F
100
AcDbEntity
  8
0
100
AcDbLine
 62
7
  6
CONTINUOUS
 10
265.5957694872
 20
185.0945719919
 11
266.1791030987
 21
185.0945719919
  0
LINE
  5
360
100
AcDbEntity
  8
0
100
AcDbLine
 62
7
  6
CONTINUOUS
 10
266.5436862929
 20
185.0945719919
 11
267.3457699044
 21
185.0945719919
  0
LINE
  5
361
100
AcDbEntity
  8
0
100
AcDbLine
 62
7
  6
CONTINUOUS
 10
265.5957694872
 20
185.3924442968
 11
266.1791030987
 21
185.3924442968
  0
LINE
  5
362
100
AcDbEntity
  8
0
100
AcDbLine
 62
7
  6
CONTINUOUS
 10
266.5436862929
 20
185.3924442968
 11
267.3457699044
 21
185.3924442968
  0
LINE
  5
363
100
AcDbEntity
  8
0
100
AcDbLine
 62
7
  6
CONTINUOUS
 10
262.4604471176
 20
185.6903168103
 11
262.8249362929
 21
185.6903168103
  0
LINE
  5
364
100
AcDbEntity
  8
0
100
AcDbLine
 62
7
  6
CONTINUOUS
 10
266.1791030987
 20
185.9881891153
 11
266.5436862929
 21
185.9881891153
  0
LINE
  5
365
100
AcDbEntity
  8
0
100
AcDbLine
 62
7
  6
CONTINUOUS
 10
263.5541030987
 20
186.1371252677
 11
263.8457694872
 21
186.1371252677
  0
LINE
  5
366
100
AcDbEntity
  8
0
100
AcDbLine
 62
7
  6
CONTINUOUS
 10
260.4186862929
 20
186.5094656489
 11
259.9811862929
 21
186.5094656489
  0
LINE
  5
367
100
AcDbEntity
  8
0
100
AcDbLine
 62
7
  6
CONTINUOUS
 10
263.6270194872
 20
186.5094656489
 11
263.9186862929
 21
186.5094656489
  0
LINE
  5
368
100
AcDbEntity
  8
0
100
AcDbLine
 62
7
  6
CONTINUOUS
 10
266.7624362929
 20
183.0839337316
 11
267.1999362929
 21
183.0094656489
  0
LINE
  5
369
100
AcDbEntity
  8
0
100
AcDbLine
 62
7
  6
CONTINUOUS
 10
263.9186862929
 20
186.5094656489
 11
264.3561862929
 21
186.4349975726
  0
LINE
  5
36A
100
AcDbEntity
  8
0
100
AcDbLine
 62
7
  6
CONTINUOUS
 10
266.8353526814
 20
183.3818060822
 11
267.1999362929
 21
183.3073379798
  0
LINE
  5
36B
100
AcDbEntity
  8
0
100
AcDbLine
 62
7
  6
CONTINUOUS
 10
263.8457694872
 20
186.1371252677
 11
264.2103530987
 21
186.0626571915
  0
LINE
  5
36C
100
AcDbEntity
  8
0
100
AcDbLine
 62
7
  6
CONTINUOUS
 10
266.5436862929
 20
183.1584018144
 11
266.7624362929
 21
183.0839337316
  0
LINE
  5
36D
100
AcDbEntity
  8
0
100
AcDbLine
 62
7
  6
CONTINUOUS
 10
243.4636862929
 20
247.8040094384
 11
243.4636862929
 21
204.4536179044
  0
LINE
  5
36E
100
AcDbEntity
  8
0
100
AcDbLine
 62
7
  6
CONTINUOUS
 10
243.4636862929
 20
204.2749093595
 11
243.4636862929
 21
204.1794656489
  0
LINE
  5
36F
100
AcDbEntity
  8
KONSTRUKTIONSELEMENTE
100
AcDbLine
 62
7
  6
CONTINUOUS
 10
239.6307313146
 20
219.8129561334
 11
238.0707313146
 21
218.9122897135
  0
LINE
  5
370
100
AcDbEntity
  8
KONSTRUKTIONSELEMENTE
100
AcDbLine
 62
7
  6
CONTINUOUS
 10
238.4007313146
 20
218.0828153023
 11
239.6307313146
 21
218.7929561334
  0
LINE
  5
371
100
AcDbEntity
  8
0
100
AcDbLine
 62
7
  6
CONTINUOUS
 10
274.2074362929
 20
192.4349975726
 11
274.4991035159
 21
192.5094656489
  0
LINE
  5
372
100
AcDbEntity
  8
0
100
AcDbLine
 62
7
  6
CONTINUOUS
 10
260.4261862929
 20
189.4562741584
 11
260.7178526814
 21
189.5307422346
  0
LINE
  5
373
100
AcDbEntity
  8
0
100
AcDbLine
 62
7
  6
CONTINUOUS
 10
260.4261862929
 20
189.0094656489
 11
260.7907699044
 21
189.0839337316
  0
LINE
  5
374
100
AcDbEntity
  8
0
100
AcDbLine
 62
7
  6
CONTINUOUS
 10
265.3845190699
 20
190.5732954583
 11
265.7491035159
 21
190.6477635345
  0
LINE
  5
375
100
AcDbEntity
  8
0
100
AcDbLine
 62
7
  6
CONTINUOUS
 10
257.0720199044
 20
189.0094656489
 11
257.4366026814
 21
189.0839337316
  0
LINE
  5
376
100
AcDbEntity
  8
0
100
AcDbLine
 62
7
  6
CONTINUOUS
 10
249.7803529944
 20
189.0094656489
 11
250.3636862929
 21
189.0094656489
  0
LINE
  5
377
100
AcDbEntity
  8
0
100
AcDbLine
 62
7
  6
CONTINUOUS
 10
252.1136862929
 20
189.0094656489
 11
254.7386862929
 21
189.0094656489
  0
LINE
  5
378
100
AcDbEntity
  8
0
100
AcDbLine
 62
7
  6
CONTINUOUS
 10
255.3220194872
 20
189.0094656489
 11
257.0720199044
 21
189.0094656489
  0
LINE
  5
379
100
AcDbEntity
  8
0
100
AcDbLine
 62
7
  6
CONTINUOUS
 10
259.7699362929
 20
189.0094656489
 11
260.4261862929
 21
189.0094656489
  0
LINE
  5
37A
100
AcDbEntity
  8
0
100
AcDbLine
 62
7
  6
CONTINUOUS
 10
263.6345190699
 20
189.0094656489
 11
264.0720190699
 21
189.0094656489
  0
LINE
  5
37B
100
AcDbEntity
  8
0
100
AcDbLine
 62
7
  6
CONTINUOUS
 10
266.9157690699
 20
189.0094656489
 11
269.5407690699
 21
189.0094656489
  0
LINE
  5
37C
100
AcDbEntity
  8
0
100
AcDbLine
 62
7
  6
CONTINUOUS
 10
271.2907690699
 20
189.0094656489
 11
271.5824362929
 21
189.0094656489
  0
LINE
  5
37D
100
AcDbEntity
  8
0
100
AcDbLine
 62
7
  6
CONTINUOUS
 10
274.3532690699
 20
189.0094656489
 11
274.9366035159
 21
189.0094656489
  0
LINE
  5
37E
100
AcDbEntity
  8
0
100
AcDbLine
 62
7
  6
CONTINUOUS
 10
252.5511862929
 20
189.4562741584
 11
254.7386862929
 21
189.4562741584
  0
LINE
  5
37F
100
AcDbEntity
  8
0
100
AcDbLine
 62
7
  6
CONTINUOUS
 10
255.7595199044
 20
189.4562741584
 11
257.1449362929
 21
189.4562741584
  0
LINE
  5
380
100
AcDbEntity
  8
0
100
AcDbLine
 62
7
  6
CONTINUOUS
 10
259.7699362929
 20
189.4562741584
 11
260.4261862929
 21
189.4562741584
  0
LINE
  5
381
100
AcDbEntity
  8
0
100
AcDbLine
 62
7
  6
CONTINUOUS
 10
267.3532690699
 20
189.4562741584
 11
269.5407690699
 21
189.4562741584
  0
LINE
  5
382
100
AcDbEntity
  8
0
100
AcDbLine
 62
7
  6
CONTINUOUS
 10
271.2907690699
 20
189.4562741584
 11
271.5824362929
 21
189.4562741584
  0
LINE
  5
383
100
AcDbEntity
  8
0
100
AcDbLine
 62
7
  6
CONTINUOUS
 10
274.3532690699
 20
189.4562741584
 11
274.9366035159
 21
189.4562741584
  0
LINE
  5
384
100
AcDbEntity
  8
0
100
AcDbLine
 62
7
  6
CONTINUOUS
 10
273.3324362929
 20
189.9775507441
 11
273.7699362929
 21
189.9775507441
  0
LINE
  5
385
100
AcDbEntity
  8
0
100
AcDbLine
 62
7
  6
CONTINUOUS
 10
262.0303526814
 20
190.2754230491
 11
263.0511862929
 21
190.2754230491
  0
LINE
  5
386
100
AcDbEntity
  8
0
100
AcDbLine
 62
7
  6
CONTINUOUS
 10
260.3532699044
 20
190.4988273821
 11
261.0095199044
 21
190.4988273821
  0
LINE
  5
387
100
AcDbEntity
  8
0
100
AcDbLine
 62
7
  6
CONTINUOUS
 10
255.7595199044
 20
190.5732954583
 11
257.1449362929
 21
190.5732954583
  0
LINE
  5
388
100
AcDbEntity
  8
0
100
AcDbLine
 62
7
  6
CONTINUOUS
 10
264.0720190699
 20
190.5732954583
 11
265.3845190699
 21
190.5732954583
  0
LINE
  5
389
100
AcDbEntity
  8
0
100
AcDbLine
 62
7
  6
CONTINUOUS
 10
274.4991035159
 20
190.5732954583
 11
274.9366035159
 21
190.5732954583
  0
LINE
  5
38A
100
AcDbEntity
  8
0
100
AcDbLine
 62
7
  6
CONTINUOUS
 10
262.0303526814
 20
190.6477635345
 11
263.0511862929
 21
190.6477635345
  0
LINE
  5
38B
100
AcDbEntity
  8
0
100
AcDbLine
 62
7
  6
CONTINUOUS
 10
260.3532699044
 20
190.9456358394
 11
261.4470199044
 21
190.9456358394
  0
LINE
  5
38C
100
AcDbEntity
  8
0
100
AcDbLine
 62
7
  6
CONTINUOUS
 10
255.7595199044
 20
191.0201039157
 11
257.1449362929
 21
191.0201039157
  0
LINE
  5
38D
100
AcDbEntity
  8
0
100
AcDbLine
 62
7
  6
CONTINUOUS
 10
264.0720190699
 20
191.0201039157
 11
265.4574362929
 21
191.0201039157
  0
LINE
  5
38E
100
AcDbEntity
  8
0
100
AcDbLine
 62
7
  6
CONTINUOUS
 10
274.4991035159
 20
191.0201039157
 11
274.9366035159
 21
191.0201039157
  0
LINE
  5
38F
100
AcDbEntity
  8
0
100
AcDbLine
 62
7
  6
CONTINUOUS
 10
261.0095199044
 20
191.6158485255
 11
261.4470199044
 21
191.6158485255
  0
LINE
  5
390
100
AcDbEntity
  8
0
100
AcDbLine
 62
7
  6
CONTINUOUS
 10
275.3741035159
 20
191.6903168103
 11
275.8116035159
 21
191.6903168103
  0
LINE
  5
391
100
AcDbEntity
  8
0
100
AcDbLine
 62
7
  6
CONTINUOUS
 10
255.7595199044
 20
192.0626571915
 11
257.1449362929
 21
192.0626571915
  0
LINE
  5
392
100
AcDbEntity
  8
0
100
AcDbLine
 62
7
  6
CONTINUOUS
 10
259.7699362929
 20
192.0626571915
 11
260.4261862929
 21
192.0626571915
  0
LINE
  5
393
100
AcDbEntity
  8
0
100
AcDbLine
 62
7
  6
CONTINUOUS
 10
274.4991035159
 20
192.0626571915
 11
274.9366035159
 21
192.0626571915
  0
LINE
  5
394
100
AcDbEntity
  8
0
100
AcDbLine
 62
7
  6
CONTINUOUS
 10
264.0720190699
 20
192.1371252677
 11
265.4574362929
 21
192.1371252677
  0
LINE
  5
395
100
AcDbEntity
  8
0
100
AcDbLine
 62
7
  6
CONTINUOUS
 10
248.6136862929
 20
192.5094656489
 11
249.0511862929
 21
192.5094656489
  0
LINE
  5
396
100
AcDbEntity
  8
0
100
AcDbLine
 62
7
  6
CONTINUOUS
 10
251.09285289
 20
192.5094656489
 11
251.53035289
 21
192.5094656489
  0
LINE
  5
397
100
AcDbEntity
  8
0
100
AcDbLine
 62
7
  6
CONTINUOUS
 10
252.1136862929
 20
192.5094656489
 11
252.5511862929
 21
192.5094656489
  0
LINE
  5
398
100
AcDbEntity
  8
0
100
AcDbLine
 62
7
  6
CONTINUOUS
 10
255.3220194872
 20
192.5094656489
 11
257.0720199044
 21
192.5094656489
  0
LINE
  5
399
100
AcDbEntity
  8
0
100
AcDbLine
 62
7
  6
CONTINUOUS
 10
259.7699362929
 20
192.5094656489
 11
260.4261862929
 21
192.5094656489
  0
LINE
  5
39A
100
AcDbEntity
  8
0
100
AcDbLine
 62
7
  6
CONTINUOUS
 10
263.6345190699
 20
192.5094656489
 11
265.3845190699
 21
192.5094656489
  0
LINE
  5
39B
100
AcDbEntity
  8
0
100
AcDbLine
 62
7
  6
CONTINUOUS
 10
266.9157690699
 20
192.5094656489
 11
267.3532690699
 21
192.5094656489
  0
LINE
  5
39C
100
AcDbEntity
  8
0
100
AcDbLine
 62
7
  6
CONTINUOUS
 10
270.1241035159
 20
192.5094656489
 11
270.5616035159
 21
192.5094656489
  0
LINE
  5
39D
100
AcDbEntity
  8
0
100
AcDbLine
 62
7
  6
CONTINUOUS
 10
272.3116035159
 20
192.5094656489
 11
272.7491035159
 21
192.5094656489
  0
LINE
  5
39E
100
AcDbEntity
  8
0
100
AcDbLine
 62
7
  6
CONTINUOUS
 10
274.4991035159
 20
192.5094656489
 11
274.8636862929
 21
192.5094656489
  0
LINE
  5
39F
100
AcDbEntity
  8
0
100
AcDbLine
 62
7
  6
CONTINUOUS
 10
259.4053526814
 20
189.0839337316
 11
259.7699362929
 21
189.0094656489
  0
LINE
  5
3A0
100
AcDbEntity
  8
0
100
AcDbLine
 62
7
  6
CONTINUOUS
 10
270.9261862929
 20
189.0839337316
 11
271.2907690699
 21
189.0094656489
  0
LINE
  5
3A1
100
AcDbEntity
  8
0
100
AcDbLine
 62
7
  6
CONTINUOUS
 10
257.0720199044
 20
192.5094656489
 11
257.4366026814
 21
192.4349975726
  0
LINE
  5
3A2
100
AcDbEntity
  8
0
100
AcDbLine
 62
7
  6
CONTINUOUS
 10
273.9886862929
 20
189.0839337316
 11
274.3532690699
 21
189.0094656489
  0
LINE
  5
3A3
100
AcDbEntity
  8
0
100
AcDbLine
 62
7
  6
CONTINUOUS
 10
260.4261862929
 20
192.5094656489
 11
260.7907699044
 21
192.4349975726
  0
LINE
  5
3A4
100
AcDbEntity
  8
0
100
AcDbLine
 62
7
  6
CONTINUOUS
 10
259.4782699044
 20
189.5307422346
 11
259.7699362929
 21
189.4562741584
  0
LINE
  5
3A5
100
AcDbEntity
  8
0
100
AcDbLine
 62
7
  6
CONTINUOUS
 10
260.4261862929
 20
192.0626571915
 11
260.7178526814
 21
191.9881891153
  0
LINE
  5
3A6
100
AcDbEntity
  8
0
100
AcDbLine
 62
7
  6
CONTINUOUS
 10
270.9991035159
 20
189.5307422346
 11
271.2907690699
 21
189.4562741584
  0
LINE
  5
3A7
100
AcDbEntity
  8
0
100
AcDbLine
 62
7
  6
CONTINUOUS
 10
257.1449362929
 20
190.5732954583
 11
257.3636862929
 21
190.4988273821
  0
LINE
  5
3A8
100
AcDbEntity
  8
0
100
AcDbLine
 62
7
  6
CONTINUOUS
 10
257.1449362929
 20
192.0626571915
 11
257.3636862929
 21
191.9881891153
  0
LINE
  5
3A9
100
AcDbEntity
  8
0
100
AcDbLine
 62
7
  6
CONTINUOUS
 10
264.3561862929
 20
186.4349975726
 11
264.6478530987
 21
186.2860614202
  0
LINE
  5
3AA
100
AcDbEntity
  8
0
100
AcDbLine
 62
7
  6
CONTINUOUS
 10
259.1136862929
 20
189.2328699036
 11
259.4053526814
 21
189.0839337316
  0
LINE
  5
3AB
100
AcDbEntity
  8
0
100
AcDbLine
 62
7
  6
CONTINUOUS
 10
257.5824362929
 20
190.796699687
 11
257.7282699044
 21
190.7222316107
  0
LINE
  5
3AC
100
AcDbEntity
  8
0
100
AcDbLine
 62
7
  6
CONTINUOUS
 10
266.3249362929
 20
183.3073379798
 11
266.5436862929
 21
183.1584018144
  0
LINE
  5
3AD
100
AcDbEntity
  8
0
100
AcDbLine
 62
7
  6
CONTINUOUS
 10
266.6166026814
 20
183.5307422346
 11
266.8353526814
 21
183.3818060822
  0
LINE
  5
3AE
100
AcDbEntity
  8
0
100
AcDbLine
 62
7
  6
CONTINUOUS
 10
264.2103530987
 20
186.0626571915
 11
264.4291030987
 21
185.913721039
  0
LINE
  5
3AF
100
AcDbEntity
  8
0
100
AcDbLine
 62
7
  6
CONTINUOUS
 10
259.2595199044
 20
189.6796784392
 11
259.4782699044
 21
189.5307422346
  0
LINE
  5
3B0
100
AcDbEntity
  8
0
100
AcDbLine
 62
7
  6
CONTINUOUS
 10
257.3636862929
 20
190.4988273821
 11
257.5095199044
 21
190.3498912296
  0
LINE
  5
3B1
100
AcDbEntity
  8
0
100
AcDbLine
 62
7
  6
CONTINUOUS
 10
249.0511862929
 20
192.5094656489
 11
250.0720195915
 21
189.4562741584
  0
LINE
  5
3B2
100
AcDbEntity
  8
0
100
AcDbLine
 62
7
  6
CONTINUOUS
 10
248.6136862929
 20
192.5094656489
 11
249.7803529944
 21
189.0094656489
  0
LINE
  5
3B3
100
AcDbEntity
  8
RUNDUNGEN
100
AcDbLine
 62
7
  6
CONTINUOUS
 10
245.2136862929
 20
180.1794656489
 11
245.2136862929
 21
202.1794656489
  0
LINE
  5
3B4
100
AcDbEntity
  8
0
100
AcDbLine
 62
7
  6
CONTINUOUS
 10
245.2136862929
 20
180.1794656489
 11
245.2136862929
 21
202.1794656489
  0
LINE
  5
3B5
100
AcDbEntity
  8
0
100
AcDbLine
 62
7
  6
CONTINUOUS
 10
247.4636862929
 20
209.0794656489
 11
247.4636862929
 21
203.8794656489
  0
LINE
  5
3B6
100
AcDbEntity
  8
0
100
AcDbLine
 62
7
  6
CONTINUOUS
 10
247.4636862929
 20
178.4794656489
 11
247.4636862929
 21
173.2794656489
  0
LINE
  5
3B7
100
AcDbEntity
  8
0
100
AcDbLine
 62
7
  6
CONTINUOUS
 10
259.4782699044
 20
191.9881891153
 11
259.7699362929
 21
192.0626571915
  0
LINE
  5
3B8
100
AcDbEntity
  8
0
100
AcDbLine
 62
7
  6
CONTINUOUS
 10
259.4053526814
 20
192.4349975726
 11
259.7699362929
 21
192.5094656489
  0
LINE
  5
3B9
100
AcDbEntity
  8
0
100
AcDbLine
 62
7
  6
CONTINUOUS
 10
256.2336862929
 20
195.6994656489
 11
257.1336862929
 21
195.6994656489
  0
LINE
  5
3BA
100
AcDbEntity
  8
0
100
AcDbLine
 62
7
  6
CONTINUOUS
 10
258.9412031664
 20
195.6994656489
 11
260.2212031664
 21
195.6994656489
  0
LINE
  5
3BB
100
AcDbEntity
  8
0
100
AcDbLine
 62
7
  6
CONTINUOUS
 10
265.0936862929
 20
195.6994656489
 11
267.1936862929
 21
195.6994656489
  0
LINE
  5
3BC
100
AcDbEntity
  8
0
100
AcDbLine
 62
7
  6
CONTINUOUS
 10
265.9936862929
 20
196.4494656489
 11
266.8936862929
 21
196.4494656489
  0
LINE
  5
3BD
100
AcDbEntity
  8
0
100
AcDbLine
 62
7
  6
CONTINUOUS
 10
257.1336862929
 20
197.4994656489
 11
257.5959770392
 21
197.4994656489
  0
LINE
  5
3BE
100
AcDbEntity
  8
0
100
AcDbLine
 62
7
  6
CONTINUOUS
 10
265.3845190699
 20
192.5094656489
 11
265.7491035159
 21
192.4349975726
  0
LINE
  5
3BF
100
AcDbEntity
  8
0
100
AcDbLine
 62
7
  6
CONTINUOUS
 10
274.9366035159
 20
191.0201039157
 11
275.3011862929
 21
190.9456358394
  0
LINE
  5
3C0
100
AcDbEntity
  8
0
100
AcDbLine
 62
7
  6
CONTINUOUS
 10
274.8636862929
 20
192.5094656489
 11
275.2282690699
 21
192.4349975726
  0
LINE
  5
3C1
100
AcDbEntity
  8
0
100
AcDbLine
 62
7
  6
CONTINUOUS
 10
274.0616035159
 20
189.5307422346
 11
274.3532690699
 21
189.4562741584
  0
LINE
  5
3C2
100
AcDbEntity
  8
0
100
AcDbLine
 62
7
  6
CONTINUOUS
 10
274.2074362929
 20
190.6477635345
 11
274.4991035159
 21
190.5732954583
  0
LINE
  5
3C3
100
AcDbEntity
  8
0
100
AcDbLine
 62
7
  6
CONTINUOUS
 10
274.9366035159
 20
190.5732954583
 11
275.2282690699
 21
190.4988273821
  0
LINE
  5
3C4
100
AcDbEntity
  8
0
100
AcDbLine
 62
7
  6
CONTINUOUS
 10
265.4574362929
 20
192.1371252677
 11
265.6761862929
 21
192.0626571915
  0
LINE
  5
3C5
100
AcDbEntity
  8
0
100
AcDbLine
 62
7
  6
CONTINUOUS
 10
274.2803535159
 20
191.0945719919
 11
274.4991035159
 21
191.0201039157
  0
LINE
  5
3C6
100
AcDbEntity
  8
0
100
AcDbLine
 62
7
  6
CONTINUOUS
 10
274.9366035159
 20
192.0626571915
 11
275.1553535159
 21
191.9881891153
  0
LINE
  5
3C7
100
AcDbEntity
  8
0
100
AcDbLine
 62
7
  6
CONTINUOUS
 10
260.7907699044
 20
192.4349975726
 11
261.0824362929
 21
192.2860614202
  0
LINE
  5
3C8
100
AcDbEntity
  8
0
100
AcDbLine
 62
7
  6
CONTINUOUS
 10
270.6345190699
 20
189.2328699036
 11
270.9261862929
 21
189.0839337316
  0
LINE
  5
3C9
100
AcDbEntity
  8
0
100
AcDbLine
 62
7
  6
CONTINUOUS
 10
260.7178526814
 20
191.9881891153
 11
260.9366026814
 21
191.8392529628
  0
LINE
  5
3CA
100
AcDbEntity
  8
0
100
AcDbLine
 62
7
  6
CONTINUOUS
 10
257.4366026814
 20
192.4349975726
 11
257.7282699044
 21
192.2115933439
  0
LINE
  5
3CB
100
AcDbEntity
  8
0
100
AcDbLine
 62
7
  6
CONTINUOUS
 10
258.8220199044
 20
189.5307422346
 11
259.1136862929
 21
189.2328699036
  0
LINE
  5
3CC
100
AcDbEntity
  8
0
100
AcDbLine
 62
7
  6
CONTINUOUS
 10
257.3636862929
 20
191.9881891153
 11
257.5095199044
 21
191.8392529628
  0
LINE
  5
3CD
100
AcDbEntity
  8
0
100
AcDbLine
 62
7
  6
CONTINUOUS
 10
264.6478530987
 20
186.2860614202
 11
264.9395194872
 21
185.9881891153
  0
LINE
  5
3CE
100
AcDbEntity
  8
0
100
AcDbLine
 62
7
  6
CONTINUOUS
 10
261.0824362929
 20
192.2860614202
 11
261.3741026814
 21
191.9881891153
  0
LINE
  5
3CF
100
AcDbEntity
  8
0
100
AcDbLine
 62
7
  6
CONTINUOUS
 10
257.7282699044
 20
190.7222316107
 11
257.9470199044
 21
190.4243593058
  0
LINE
  5
3D0
100
AcDbEntity
  8
0
100
AcDbLine
 62
7
  6
CONTINUOUS
 10
257.7282699044
 20
192.2115933439
 11
257.9470199044
 21
191.913721039
  0
LINE
  5
3D1
100
AcDbEntity
  8
0
100
AcDbLine
 62
7
  6
CONTINUOUS
 10
259.1136862929
 20
189.9030826679
 11
259.2595199044
 21
189.6796784392
  0
LINE
  5
3D2
100
AcDbEntity
  8
0
100
AcDbLine
 62
7
  6
CONTINUOUS
 10
250.2136862929
 20
203.8794656489
 11
250.2136862929
 21
203.6794656489
  0
LINE
  5
3D3
100
AcDbEntity
  8
0
100
AcDbLine
 62
7
  6
CONTINUOUS
 10
250.2136862929
 20
178.6794656489
 11
250.2136862929
 21
178.4794656489
  0
LINE
  5
3D4
100
AcDbEntity
  8
BEZUGSACHSEN
100
AcDbLine
 62
7
  6
CONTINUOUS
 10
250.4636862929
 20
209.5794656489
 11
250.4636862929
 21
219.0794656489
  0
LINE
  5
3D5
100
AcDbEntity
  8
BEZUGSACHSEN
100
AcDbLine
 62
7
  6
CONTINUOUS
 10
251.4636862929
 20
209.0794656489
 11
251.4636862929
 21
209.5794656489
  0
LINE
  5
3D6
100
AcDbEntity
  8
0
100
AcDbLine
 62
7
  6
CONTINUOUS
 10
252.1136862929
 20
189.0094656489
 11
252.1136862929
 21
192.5094656489
  0
LINE
  5
3D7
100
AcDbEntity
  8
0
100
AcDbLine
 62
7
  6
CONTINUOUS
 10
252.5511862929
 20
189.4562741584
 11
252.5511862929
 21
192.5094656489
  0
LINE
  5
3D8
100
AcDbEntity
  8
KONSTRUKTIONSELEMENTE
100
AcDbLine
 62
7
  6
CONTINUOUS
 10
252.7786343174
 20
219.0794656489
 11
252.7786343174
 21
219.2794656489
  0
LINE
  5
3D9
100
AcDbEntity
  8
KONSTRUKTIONSELEMENTE
100
AcDbLine
 62
7
  6
CONTINUOUS
 10
252.8456343159
 20
219.0794656489
 11
252.8456343159
 21
219.2794656489
  0
LINE
  5
3DA
100
AcDbEntity
  8
KONSTRUKTIONSELEMENTE
100
AcDbLine
 62
7
  6
CONTINUOUS
 10
253.4988461826
 20
219.0794656489
 11
253.4988461826
 21
219.2794656489
  0
LINE
  5
3DB
100
AcDbEntity
  8
0
100
AcDbLine
 62
7
  6
CONTINUOUS
 10
257.1336862929
 20
198.2294656489
 11
258.2986862929
 21
198.2294656489
  0
LINE
  5
3DC
100
AcDbEntity
  8
0
100
AcDbLine
 62
7
  6
CONTINUOUS
 10
256.2336862929
 20
199.0594656489
 11
257.1336862929
 21
199.0594656489
  0
LINE
  5
3DD
100
AcDbEntity
  8
0
100
AcDbLine
 62
7
  6
CONTINUOUS
 10
265.0936862929
 20
199.0594656489
 11
265.9936862929
 21
199.0594656489
  0
LINE
  5
3DE
100
AcDbEntity
  8
0
100
AcDbLine
 62
7
  6
CONTINUOUS
 10
256.2336862929
 20
199.3594656489
 11
258.2986862929
 21
199.3594656489
  0
LINE
  5
3DF
100
AcDbEntity
  8
0
100
AcDbLine
 62
7
  6
CONTINUOUS
 10
265.0936862929
 20
199.3594656489
 11
266.8936862929
 21
199.3594656489
  0
LINE
  5
3E0
100
AcDbEntity
  8
0
100
AcDbLine
 62
7
  6
CONTINUOUS
 10
256.2336862929
 20
200.1094656489
 11
258.4486862929
 21
200.1094656489
  0
LINE
  5
3E1
100
AcDbEntity
  8
0
100
AcDbLine
 62
7
  6
CONTINUOUS
 10
260.6636862929
 20
200.1094656489
 11
261.5636862929
 21
200.1094656489
  0
LINE
  5
3E2
100
AcDbEntity
  8
0
100
AcDbLine
 62
7
  6
CONTINUOUS
 10
263.2936862929
 20
200.1094656489
 11
264.1936862929
 21
200.1094656489
  0
LINE
  5
3E3
100
AcDbEntity
  8
0
100
AcDbLine
 62
7
  6
CONTINUOUS
 10
265.0936862929
 20
200.1094656489
 11
267.1936862929
 21
200.1094656489
  0
LINE
  5
3E4
100
AcDbEntity
  8
0
100
AcDbLine
 62
7
  6
CONTINUOUS
 10
273.9157690699
 20
190.796699687
 11
274.2074362929
 21
190.6477635345
  0
LINE
  5
3E5
100
AcDbEntity
  8
0
100
AcDbLine
 62
7
  6
CONTINUOUS
 10
275.3011862929
 20
190.9456358394
 11
275.5928535159
 21
190.796699687
  0
LINE
  5
3E6
100
AcDbEntity
  8
0
100
AcDbLine
 62
7
  6
CONTINUOUS
 10
273.6241035159
 20
189.3073379798
 11
273.9886862929
 21
189.0839337316
  0
LINE
  5
3E7
100
AcDbEntity
  8
0
100
AcDbLine
 62
7
  6
CONTINUOUS
 10
270.7803535159
 20
189.6796784392
 11
270.9991035159
 21
189.5307422346
  0
LINE
  5
3E8
100
AcDbEntity
  8
0
100
AcDbLine
 62
7
  6
CONTINUOUS
 10
274.0616035159
 20
191.2435081443
 11
274.2803535159
 21
191.0945719919
  0
LINE
  5
3E9
100
AcDbEntity
  8
0
100
AcDbLine
 62
7
  6
CONTINUOUS
 10
275.2282690699
 20
190.4988273821
 11
275.4470190699
 21
190.3498912296
  0
LINE
  5
3EA
100
AcDbEntity
  8
0
100
AcDbLine
 62
7
  6
CONTINUOUS
 10
265.7491035159
 20
192.4349975726
 11
266.0407690699
 21
192.2115933439
  0
LINE
  5
3EB
100
AcDbEntity
  8
0
100
AcDbLine
 62
7
  6
CONTINUOUS
 10
265.6761862929
 20
192.0626571915
 11
265.8220190699
 21
191.913721039
  0
LINE
  5
3EC
100
AcDbEntity
  8
0
100
AcDbLine
 62
7
  6
CONTINUOUS
 10
270.3428535159
 20
189.5307422346
 11
270.6345190699
 21
189.2328699036
  0
LINE
  5
3ED
100
AcDbEntity
  8
0
100
AcDbLine
 62
7
  6
CONTINUOUS
 10
264.4291030987
 20
185.913721039
 11
264.5749362929
 21
185.6903168103
  0
LINE
  5
3EE
100
AcDbEntity
  8
0
100
AcDbLine
 62
7
  6
CONTINUOUS
 10
258.0549705032
 20
197.2344656489
 11
258.9412031664
 21
195.6994656489
  0
LINE
  5
3EF
100
AcDbEntity
  8
0
100
AcDbLine
 62
7
  6
CONTINUOUS
 10
259.0953701415
 20
197.6494656489
 11
260.2212031664
 21
195.6994656489
  0
LINE
  5
3F0
100
AcDbEntity
  8
0
100
AcDbLine
 62
7
  6
CONTINUOUS
 10
258.6761862929
 20
189.8286145917
 11
258.8220199044
 21
189.5307422346
  0
LINE
  5
3F1
100
AcDbEntity
  8
0
100
AcDbLine
 62
7
  6
CONTINUOUS
 10
266.1791030987
 20
183.6052103108
 11
266.3249362929
 21
183.3073379798
  0
LINE
  5
3F2
100
AcDbEntity
  8
0
100
AcDbLine
 62
7
  6
CONTINUOUS
 10
238.5843574699
 20
240.9740231194
 11
236.843015116
 21
244.8851420823
  0
LINE
  5
3F3
100
AcDbEntity
  8
0
100
AcDbLine
 62
7
  6
CONTINUOUS
 10
257.5095199044
 20
190.3498912296
 11
257.5824362929
 21
190.1264868966
  0
LINE
  5
3F4
100
AcDbEntity
  8
0
100
AcDbLine
 62
7
  6
CONTINUOUS
 10
257.9470199044
 20
190.4243593058
 11
258.0199362929
 21
190.2009549728
  0
LINE
  5
3F5
100
AcDbEntity
  8
0
100
AcDbLine
 62
7
  6
CONTINUOUS
 10
257.5095199044
 20
191.8392529628
 11
257.5824362929
 21
191.6158485255
  0
LINE
  5
3F6
100
AcDbEntity
  8
0
100
AcDbLine
 62
7
  6
CONTINUOUS
 10
257.9470199044
 20
191.913721039
 11
258.0199362929
 21
191.6903168103
  0
LINE
  5
3F7
100
AcDbEntity
  8
0
100
AcDbLine
 62
7
  6
CONTINUOUS
 10
254.7386862929
 20
189.0094656489
 11
254.7386862929
 21
189.4562741584
  0
LINE
  5
3F8
100
AcDbEntity
  8
KONSTRUKTIONSELEMENTE
100
AcDbLine
 62
7
  6
CONTINUOUS
 10
254.9173256309
 20
219.0794656489
 11
254.9173256309
 21
219.2794656489
  0
LINE
  5
3F9
100
AcDbEntity
  8
KONSTRUKTIONSELEMENTE
100
AcDbLine
 62
7
  6
CONTINUOUS
 10
255.2543672605
 20
219.0794656489
 11
255.2543672605
 21
219.2794656489
  0
LINE
  5
3FA
100
AcDbEntity
  8
0
100
AcDbLine
 62
7
  6
CONTINUOUS
 10
255.3220194872
 20
189.0094656489
 11
255.3220194872
 21
192.5094656489
  0
LINE
  5
3FB
100
AcDbEntity
  8
BEZUGSACHSEN
100
AcDbLine
 62
7
  6
CONTINUOUS
 10
255.4636862929
 20
150.0794656489
 11
255.4636862929
 21
173.2794656489
  0
LINE
  5
3FC
100
AcDbEntity
  8
0
100
AcDbLine
 62
7
  6
CONTINUOUS
 10
255.7595199044
 20
189.4562741584
 11
255.7595199044
 21
190.5732954583
  0
LINE
  5
3FD
100
AcDbEntity
  8
0
100
AcDbLine
 62
7
  6
CONTINUOUS
 10
255.7595199044
 20
191.0201039157
 11
255.7595199044
 21
192.0626571915
  0
LINE
  5
3FE
100
AcDbEntity
  8
0
100
AcDbLine
 62
7
  6
CONTINUOUS
 10
256.2336862929
 20
195.6994656489
 11
256.2336862929
 21
199.0594656489
  0
LINE
  5
3FF
100
AcDbEntity
  8
0
100
AcDbLine
 62
7
  6
CONTINUOUS
 10
256.2336862929
 20
199.3594656489
 11
256.2336862929
 21
200.1094656489
  0
LINE
  5
400
100
AcDbEntity
  8
KONSTRUKTIONSELEMENTE
100
AcDbLine
 62
7
  6
CONTINUOUS
 10
256.6025337788
 20
219.0794656489
 11
256.6025337788
 21
219.2794656489
  0
LINE
  5
401
100
AcDbEntity
  8
KONSTRUKTIONSELEMENTE
100
AcDbLine
 62
7
  6
CONTINUOUS
 10
256.9395755691
 20
219.0794656489
 11
256.9395755691
 21
219.2794656489
  0
LINE
  5
402
100
AcDbEntity
  8
0
100
AcDbLine
 62
7
  6
CONTINUOUS
 10
257.1336862929
 20
195.6994656489
 11
257.1336862929
 21
197.4994656489
  0
LINE
  5
403
100
AcDbEntity
  8
0
100
AcDbLine
 62
7
  6
CONTINUOUS
 10
257.1336862929
 20
198.2294656489
 11
257.1336862929
 21
199.0594656489
  0
LINE
  5
404
100
AcDbEntity
  8
0
100
AcDbLine
 62
7
  6
CONTINUOUS
 10
257.5824362929
 20
189.9030826679
 11
257.5824362929
 21
190.1264868966
  0
LINE
  5
405
100
AcDbEntity
  8
0
100
AcDbLine
 62
7
  6
CONTINUOUS
 10
257.5824362929
 20
191.466912373
 11
257.5824362929
 21
191.6158485255
  0
LINE
  5
406
100
AcDbEntity
  8
0
100
AcDbLine
 62
7
  6
CONTINUOUS
 10
258.0199362929
 20
189.8286145917
 11
258.0199362929
 21
190.2009549728
  0
LINE
  5
407
100
AcDbEntity
  8
0
100
AcDbLine
 62
7
  6
CONTINUOUS
 10
258.0199362929
 20
191.3924442968
 11
258.0199362929
 21
191.6903168103
  0
LINE
  5
408
100
AcDbEntity
  8
KONSTRUKTIONSELEMENTE
100
AcDbLine
 62
7
  6
CONTINUOUS
 10
258.4114449708
 20
219.0794656489
 11
258.4114449708
 21
219.2794656489
  0
LINE
  5
409
100
AcDbEntity
  8
0
100
AcDbLine
 62
7
  6
CONTINUOUS
 10
250.3636862929
 20
189.0094656489
 11
251.53035289
 21
192.5094656489
  0
LINE
  5
40A
100
AcDbEntity
  8
0
100
AcDbLine
 62
7
  6
CONTINUOUS
 10
250.0720195915
 20
189.4562741584
 11
251.09285289
 21
192.5094656489
  0
LINE
  5
40B
100
AcDbEntity
  8
RUNDUNGEN
100
AcDbLine
 62
7
  6
CONTINUOUS
 10
246.7136862929
 20
203.6794656489
 11
278.2136862929
 21
203.6794656489
  0
LINE
  5
40C
100
AcDbEntity
  8
0
100
AcDbLine
 62
7
  6
CONTINUOUS
 10
247.4636862929
 20
203.8794656489
 11
277.4636862929
 21
203.8794656489
  0
LINE
  5
40D
100
AcDbEntity
  8
0
100
AcDbLine
 62
7
  6
CONTINUOUS
 10
275.2282690699
 20
192.4349975726
 11
275.5199362929
 21
192.2115933439
  0
LINE
  5
40E
100
AcDbEntity
  8
0
100
AcDbLine
 62
7
  6
CONTINUOUS
 10
273.8428535159
 20
189.7541465155
 11
274.0616035159
 21
189.5307422346
  0
LINE
  5
40F
100
AcDbEntity
  8
0
100
AcDbLine
 62
7
  6
CONTINUOUS
 10
273.6241035159
 20
191.0945719919
 11
273.9157690699
 21
190.796699687
  0
LINE
  5
410
100
AcDbEntity
  8
0
100
AcDbLine
 62
7
  6
CONTINUOUS
 10
275.5928535159
 20
190.796699687
 11
275.8845190699
 21
190.4988273821
  0
LINE
  5
411
100
AcDbEntity
  8
0
100
AcDbLine
 62
7
  6
CONTINUOUS
 10
266.0407690699
 20
192.2115933439
 11
266.2595190699
 21
191.913721039
  0
LINE
  5
412
100
AcDbEntity
  8
0
100
AcDbLine
 62
7
  6
CONTINUOUS
 10
270.6345190699
 20
189.9030826679
 11
270.7803535159
 21
189.6796784392
  0
LINE
  5
413
100
AcDbEntity
  8
0
100
AcDbLine
 62
7
  6
CONTINUOUS
 10
260.9366026814
 20
191.8392529628
 11
261.0095199044
 21
191.6158485255
  0
LINE
  5
414
100
AcDbEntity
  8
0
100
AcDbLine
 62
7
  6
CONTINUOUS
 10
266.5436862929
 20
183.7541465155
 11
266.6166026814
 21
183.5307422346
  0
LINE
  5
415
100
AcDbEntity
  8
0
100
AcDbLine
 62
7
  6
CONTINUOUS
 10
259.0407699044
 20
190.2009549728
 11
259.1136862929
 21
189.9030826679
  0
LINE
  5
416
100
AcDbEntity
  8
0
100
AcDbLine
 62
7
  6
CONTINUOUS
 10
258.6032699044
 20
190.2009549728
 11
258.6761862929
 21
189.8286145917
  0
LINE
  5
417
100
AcDbEntity
  8
0
100
AcDbLine
 62
7
  6
CONTINUOUS
 10
261.3741026814
 20
191.9881891153
 11
261.4470199044
 21
191.6158485255
  0
LINE
  5
418
100
AcDbEntity
  8
KONSTRUKTIONSELEMENTE
100
AcDbLine
 62
7
  6
CONTINUOUS
 10
258.5926695171
 20
219.0794656489
 11
258.5926695171
 21
219.2794656489
  0
LINE
  5
419
100
AcDbEntity
  8
0
100
AcDbLine
 62
7
  6
CONTINUOUS
 10
258.6032699044
 20
190.2009549728
 11
258.6032699044
 21
191.3179762206
  0
LINE
  5
41A
100
AcDbEntity
  8
KONSTRUKTIONSELEMENTE
100
AcDbLine
 62
7
  6
CONTINUOUS
 10
258.6702408937
 20
219.0794656489
 11
258.6702408937
 21
219.2794656489
  0
LINE
  5
41B
100
AcDbEntity
  8
0
100
AcDbLine
 62
7
  6
CONTINUOUS
 10
259.0407699044
 20
190.2009549728
 11
259.0407699044
 21
191.3179762206
  0
LINE
  5
41C
100
AcDbEntity
  8
KONSTRUKTIONSELEMENTE
100
AcDbLine
 62
7
  6
CONTINUOUS
 10
259.2566434423
 20
219.0794656489
 11
259.2566434423
 21
219.2794656489
  0
LINE
  5
41D
100
AcDbEntity
  8
KONSTRUKTIONSELEMENTE
100
AcDbLine
 62
7
  6
CONTINUOUS
 10
259.2824977998
 20
219.0794656489
 11
259.2824977998
 21
219.2794656489
  0
LINE
  5
41E
100
AcDbEntity
  8
KONSTRUKTIONSELEMENTE
100
AcDbLine
 62
7
  6
CONTINUOUS
 10
259.4359473608
 20
219.0794656489
 11
259.4359473608
 21
219.2794656489
  0
LINE
  5
41F
100
AcDbEntity
  8
0
100
AcDbLine
 62
7
  6
CONTINUOUS
 10
259.5436862929
 20
185.9881891153
 11
259.5436862929
 21
185.3924442968
  0
LINE
  5
420
100
AcDbEntity
  8
KONSTRUKTIONSELEMENTE
100
AcDbLine
 62
7
  6
CONTINUOUS
 10
259.6759603067
 20
219.0794656489
 11
259.6759603067
 21
219.2794656489
  0
LINE
  5
421
100
AcDbEntity
  8
0
100
AcDbLine
 62
7
  6
CONTINUOUS
 10
259.9811862929
 20
183.0094656489
 11
259.9811862929
 21
185.913721039
  0
LINE
  5
422
100
AcDbEntity
  8
KONSTRUKTIONSELEMENTE
100
AcDbLine
 62
7
  6
CONTINUOUS
 10
260.0177140987
 20
219.0794656489
 11
260.0177140987
 21
219.2794656489
  0
LINE
  5
423
100
AcDbEntity
  8
0
100
AcDbLine
 62
7
  6
CONTINUOUS
 10
260.3532699044
 20
190.4988273821
 11
260.3532699044
 21
190.9456358394
  0
LINE
  5
424
100
AcDbEntity
  8
0
100
AcDbLine
 62
7
  6
CONTINUOUS
 10
260.4186862929
 20
183.0094656489
 11
260.4186862929
 21
186.5094656489
  0
LINE
  5
425
100
AcDbEntity
  8
0
100
AcDbLine
 62
7
  6
CONTINUOUS
 10
260.6636862929
 20
197.4644656489
 11
260.6636862929
 21
200.1094656489
  0
LINE
  5
426
100
AcDbEntity
  8
0
100
AcDbLine
 62
7
  6
CONTINUOUS
 10
261.0095199044
 20
189.9030826679
 11
261.0095199044
 21
190.4988273821
  0
LINE
  5
427
100
AcDbEntity
  8
0
100
AcDbLine
 62
7
  6
CONTINUOUS
 10
261.4470199044
 20
189.8286145917
 11
261.4470199044
 21
190.9456358394
  0
LINE
  5
428
100
AcDbEntity
  8
0
100
AcDbLine
 62
7
  6
CONTINUOUS
 10
261.5636862929
 20
197.4644656489
 11
261.5636862929
 21
200.1094656489
  0
LINE
  5
429
100
AcDbEntity
  8
KONSTRUKTIONSELEMENTE
100
AcDbLine
 62
7
  6
CONTINUOUS
 10
261.7309828064
 20
219.0794656489
 11
261.7309828064
 21
219.2794656489
  0
LINE
  5
42A
100
AcDbEntity
  8
0
100
AcDbLine
 62
7
  6
CONTINUOUS
 10
262.0303526814
 20
190.2754230491
 11
262.0303526814
 21
190.6477635345
  0
LINE
  5
42B
100
AcDbEntity
  8
0
100
AcDbLine
 62
7
  6
CONTINUOUS
 10
262.3874362929
 20
183.0094656489
 11
262.3874362929
 21
183.3818060822
  0
LINE
  5
42C
100
AcDbEntity
  8
KONSTRUKTIONSELEMENTE
100
AcDbLine
 62
7
  6
CONTINUOUS
 10
262.4443139641
 20
219.0794656489
 11
262.4443139641
 21
219.2794656489
  0
LINE
  5
42D
100
AcDbEntity
  8
BEZUGSACHSEN
100
AcDbLine
 62
7
  6
CONTINUOUS
 10
262.4636862929
 20
209.5794656489
 11
262.4636862929
 21
218.0076688791
  0
LINE
  5
42E
100
AcDbEntity
  8
KONSTRUKTIONSELEMENTE
100
AcDbLine
 62
7
  6
CONTINUOUS
 10
262.5472678409
 20
219.0794656489
 11
262.5472678409
 21
219.2794656489
  0
LINE
  5
42F
100
AcDbEntity
  8
0
100
AcDbLine
 62
7
  6
CONTINUOUS
 10
263.0511862929
 20
190.2754230491
 11
263.0511862929
 21
190.6477635345
  0
LINE
  5
430
100
AcDbEntity
  8
0
100
AcDbLine
 62
7
  6
CONTINUOUS
 10
258.6032699044
 20
191.3179762206
 11
258.6761862929
 21
191.6903168103
  0
LINE
  5
431
100
AcDbEntity
  8
KONSTRUKTIONSELEMENTE
100
AcDbLine
 62
7
  6
CONTINUOUS
 10
289.6300414038
 20
206.6794656489
 11
284.6668156295
 21
206.6794656489
  0
LINE
  5
432
100
AcDbEntity
  8
0
100
AcDbLine
 62
7
  6
CONTINUOUS
 10
235.297331182
 20
206.6794656489
 11
240.2605569563
 21
206.6794656489
  0
LINE
  5
433
100
AcDbEntity
  8
0
100
AcDbLine
 62
7
  6
CONTINUOUS
 10
247.4636862929
 20
209.0794656489
 11
277.4636862929
 21
209.0794656489
  0
LINE
  5
434
100
AcDbEntity
  8
KONSTRUKTIONSELEMENTE
100
AcDbLine
 62
7
  6
CONTINUOUS
 10
250.4636862929
 20
209.5794656489
 11
274.4636862929
 21
209.5794656489
  0
LINE
  5
435
100
AcDbEntity
  8
0
100
AcDbLine
 62
7
  6
CONTINUOUS
 10
275.1553535159
 20
191.9881891153
 11
275.3011862929
 21
191.8392529628
  0
LINE
  5
436
100
AcDbEntity
  8
0
100
AcDbLine
 62
7
  6
CONTINUOUS
 10
275.5199362929
 20
192.2115933439
 11
275.7386862929
 21
191.913721039
  0
LINE
  5
437
100
AcDbEntity
  8
0
100
AcDbLine
 62
7
  6
CONTINUOUS
 10
275.4470190699
 20
190.3498912296
 11
275.5928535159
 21
190.1264868966
  0
LINE
  5
438
100
AcDbEntity
  8
0
100
AcDbLine
 62
7
  6
CONTINUOUS
 10
273.4053535159
 20
189.6796784392
 11
273.6241035159
 21
189.3073379798
  0
LINE
  5
439
100
AcDbEntity
  8
0
100
AcDbLine
 62
7
  6
CONTINUOUS
 10
270.1970190699
 20
189.8286145917
 11
270.3428535159
 21
189.5307422346
  0
LINE
  5
43A
100
AcDbEntity
  8
0
100
AcDbLine
 62
7
  6
CONTINUOUS
 10
265.8220190699
 20
191.913721039
 11
265.8949362929
 21
191.6903168103
  0
LINE
  5
43B
100
AcDbEntity
  8
0
100
AcDbLine
 62
7
  6
CONTINUOUS
 10
266.2595190699
 20
191.913721039
 11
266.3324362929
 21
191.6903168103
  0
LINE
  5
43C
100
AcDbEntity
  8
0
100
AcDbLine
 62
7
  6
CONTINUOUS
 10
264.9395194872
 20
185.9881891153
 11
265.0124362929
 21
185.6903168103
  0
LINE
  5
43D
100
AcDbEntity
  8
KONSTRUKTIONSELEMENTE
100
AcDbLine
 62
7
  6
CONTINUOUS
 10
263.1739237667
 20
219.0794656489
 11
263.1739237667
 21
219.2794656489
  0
LINE
  5
43E
100
AcDbEntity
  8
0
100
AcDbLine
 62
7
  6
CONTINUOUS
 10
263.2936862929
 20
197.4644656489
 11
263.2936862929
 21
200.1094656489
  0
LINE
  5
43F
100
AcDbEntity
  8
0
100
AcDbLine
 62
7
  6
CONTINUOUS
 10
263.6345190699
 20
189.0094656489
 11
263.6345190699
 21
192.5094656489
  0
LINE
  5
440
100
AcDbEntity
  8
0
100
AcDbLine
 62
7
  6
CONTINUOUS
 10
264.0720190699
 20
189.0094656489
 11
264.0720190699
 21
190.5732954583
  0
LINE
  5
441
100
AcDbEntity
  8
0
100
AcDbLine
 62
7
  6
CONTINUOUS
 10
264.0720190699
 20
191.0201039157
 11
264.0720190699
 21
192.1371252677
  0
LINE
  5
442
100
AcDbEntity
  8
0
100
AcDbLine
 62
7
  6
CONTINUOUS
 10
264.1936862929
 20
197.4644656489
 11
264.1936862929
 21
200.1094656489
  0
LINE
  5
443
100
AcDbEntity
  8
0
100
AcDbLine
 62
7
  6
CONTINUOUS
 10
264.5749362929
 20
185.5413804493
 11
264.5749362929
 21
185.6903168103
  0
LINE
  5
444
100
AcDbEntity
  8
0
100
AcDbLine
 62
7
  6
CONTINUOUS
 10
265.0124362929
 20
183.0094656489
 11
265.0124362929
 21
183.3818060822
  0
LINE
  5
445
100
AcDbEntity
  8
0
100
AcDbLine
 62
7
  6
CONTINUOUS
 10
265.0124362929
 20
185.5413804493
 11
265.0124362929
 21
185.6903168103
  0
LINE
  5
446
100
AcDbEntity
  8
0
100
AcDbLine
 62
7
  6
CONTINUOUS
 10
265.0936862929
 20
195.6994656489
 11
265.0936862929
 21
199.0594656489
  0
LINE
  5
447
100
AcDbEntity
  8
0
100
AcDbLine
 62
7
  6
CONTINUOUS
 10
265.0936862929
 20
199.3594656489
 11
265.0936862929
 21
200.1094656489
  0
LINE
  5
448
100
AcDbEntity
  8
0
100
AcDbLine
 62
7
  6
CONTINUOUS
 10
265.5957694872
 20
185.0945719919
 11
265.5957694872
 21
185.3924442968
  0
LINE
  5
449
100
AcDbEntity
  8
0
100
AcDbLine
 62
7
  6
CONTINUOUS
 10
265.8949362929
 20
191.466912373
 11
265.8949362929
 21
191.6903168103
  0
LINE
  5
44A
100
AcDbEntity
  8
0
100
AcDbLine
 62
7
  6
CONTINUOUS
 10
265.9936862929
 20
196.4494656489
 11
265.9936862929
 21
199.0594656489
  0
LINE
  5
44B
100
AcDbEntity
  8
0
100
AcDbLine
 62
7
  6
CONTINUOUS
 10
266.1791030987
 20
183.6052103108
 11
266.1791030987
 21
185.0945719919
  0
LINE
  5
44C
100
AcDbEntity
  8
0
100
AcDbLine
 62
7
  6
CONTINUOUS
 10
266.1791030987
 20
185.3924442968
 11
266.1791030987
 21
185.9881891153
  0
LINE
  5
44D
100
AcDbEntity
  8
0
100
AcDbLine
 62
7
  6
CONTINUOUS
 10
266.3324362929
 20
191.3924442968
 11
266.3324362929
 21
191.6903168103
  0
LINE
  5
44E
100
AcDbEntity
  8
0
100
AcDbLine
 62
7
  6
CONTINUOUS
 10
266.5436862929
 20
183.7541465155
 11
266.5436862929
 21
185.0945719919
  0
LINE
  5
44F
100
AcDbEntity
  8
0
100
AcDbLine
 62
7
  6
CONTINUOUS
 10
266.5436862929
 20
185.3924442968
 11
266.5436862929
 21
185.9881891153
  0
LINE
  5
450
100
AcDbEntity
  8
0
100
AcDbLine
 62
7
  6
CONTINUOUS
 10
266.9157690699
 20
189.0094656489
 11
266.9157690699
 21
192.5094656489
  0
LINE
  5
451
100
AcDbEntity
  8
0
100
AcDbLine
 62
7
  6
CONTINUOUS
 10
267.1999362929
 20
183.0094656489
 11
267.1999362929
 21
183.3073379798
  0
LINE
  5
452
100
AcDbEntity
  8
0
100
AcDbLine
 62
7
  6
CONTINUOUS
 10
267.3457699044
 20
185.0945719919
 11
267.3457699044
 21
185.3924442968
  0
LINE
  5
453
100
AcDbEntity
  8
0
100
AcDbLine
 62
7
  6
CONTINUOUS
 10
267.3532690699
 20
189.4562741584
 11
267.3532690699
 21
192.5094656489
  0
LINE
  5
454
100
AcDbEntity
  8
0
100
AcDbLine
 62
7
  6
CONTINUOUS
 10
259.0407699044
 20
191.3179762206
 11
259.1136862929
 21
191.6158485255
  0
LINE
  5
455
100
AcDbEntity
  8
0
100
AcDbLine
 62
7
  6
CONTINUOUS
 10
261.3741026814
 20
189.5307422346
 11
261.4470199044
 21
189.8286145917
  0
LINE
  5
456
100
AcDbEntity
  8
0
100
AcDbLine
 62
7
  6
CONTINUOUS
 10
257.5095199044
 20
191.2435081443
 11
257.5824362929
 21
191.466912373
  0
LINE
  5
457
100
AcDbEntity
  8
0
100
AcDbLine
 62
7
  6
CONTINUOUS
 10
257.9470199044
 20
191.1690400681
 11
258.0199362929
 21
191.3924442968
  0
LINE
  5
458
100
AcDbEntity
  8
0
100
AcDbLine
 62
7
  6
CONTINUOUS
 10
257.5095199044
 20
189.6796784392
 11
257.5824362929
 21
189.9030826679
  0
LINE
  5
459
100
AcDbEntity
  8
0
100
AcDbLine
 62
7
  6
CONTINUOUS
 10
257.9470199044
 20
189.6052103108
 11
258.0199362929
 21
189.8286145917
  0
LINE
  5
45A
100
AcDbEntity
  8
0
100
AcDbLine
 62
7
  6
CONTINUOUS
 10
260.9366026814
 20
189.6796784392
 11
261.0095199044
 21
189.9030826679
  0
LINE
  5
45B
100
AcDbEntity
  8
0
100
AcDbLine
 62
7
  6
CONTINUOUS
 10
258.6761862929
 20
191.6903168103
 11
258.8220199044
 21
191.9881891153
  0
LINE
  5
45C
100
AcDbEntity
  8
0
100
AcDbLine
 62
7
  6
CONTINUOUS
 10
275.8845190699
 20
190.4988273821
 11
276.0303535159
 21
190.2009549728
  0
LINE
  5
45D
100
AcDbEntity
  8
0
100
AcDbLine
 62
7
  6
CONTINUOUS
 10
275.3011862929
 20
191.8392529628
 11
275.3741035159
 21
191.6903168103
  0
LINE
  5
45E
100
AcDbEntity
  8
0
100
AcDbLine
 62
7
  6
CONTINUOUS
 10
273.7699362929
 20
189.9775507441
 11
273.8428535159
 21
189.7541465155
  0
LINE
  5
45F
100
AcDbEntity
  8
0
100
AcDbLine
 62
7
  6
CONTINUOUS
 10
273.9886862929
 20
191.466912373
 11
274.0616035159
 21
191.2435081443
  0
LINE
  5
460
100
AcDbEntity
  8
0
100
AcDbLine
 62
7
  6
CONTINUOUS
 10
270.5616035159
 20
190.2009549728
 11
270.6345190699
 21
189.9030826679
  0
LINE
  5
461
100
AcDbEntity
  8
0
100
AcDbLine
 62
7
  6
CONTINUOUS
 10
270.1241035159
 20
190.2009549728
 11
270.1970190699
 21
189.8286145917
  0
LINE
  5
462
100
AcDbEntity
  8
0
100
AcDbLine
 62
7
  6
CONTINUOUS
 10
267.7936862929
 20
197.3494656489
 11
267.7936862929
 21
198.4594656489
  0
LINE
  5
463
100
AcDbEntity
  8
BEZUGSACHSEN
100
AcDbLine
 62
7
  6
CONTINUOUS
 10
269.4636862929
 20
150.0794656489
 11
269.4636862929
 21
173.2794656489
  0
LINE
  5
464
100
AcDbEntity
  8
0
100
AcDbLine
 62
7
  6
CONTINUOUS
 10
269.5407690699
 20
189.0094656489
 11
269.5407690699
 21
189.4562741584
  0
LINE
  5
465
100
AcDbEntity
  8
0
100
AcDbLine
 62
7
  6
CONTINUOUS
 10
270.1241035159
 20
190.2009549728
 11
270.1241035159
 21
192.5094656489
  0
LINE
  5
466
100
AcDbEntity
  8
0
100
AcDbLine
 62
7
  6
CONTINUOUS
 10
270.5616035159
 20
190.2009549728
 11
270.5616035159
 21
192.5094656489
  0
LINE
  5
467
100
AcDbEntity
  8
0
100
AcDbLine
 62
7
  6
CONTINUOUS
 10
262.5332696958
 20
185.9881891153
 11
262.4604471177
 21
185.6907017395
  0
LINE
  5
468
100
AcDbEntity
  8
0
100
AcDbLine
 62
7
  6
CONTINUOUS
 10
264.9395194872
 20
185.2435081443
 11
265.0124362929
 21
185.5413804493
  0
LINE
  5
469
100
AcDbEntity
  8
0
100
AcDbLine
 62
7
  6
CONTINUOUS
 10
265.8220190699
 20
191.2435081443
 11
265.8949362929
 21
191.466912373
  0
LINE
  5
46A
100
AcDbEntity
  8
0
100
AcDbLine
 62
7
  6
CONTINUOUS
 10
266.2595190699
 20
191.1690400681
 11
266.3324362929
 21
191.3924442968
  0
LINE
  5
46B
100
AcDbEntity
  8
RUNDUNGEN
100
AcDbLine
 62
7
  6
CONTINUOUS
 10
286.343015116
 20
240.9740231194
 11
288.0843574699
 21
244.8851420823
  0
LINE
  5
46C
100
AcDbEntity
  8
0
100
AcDbLine
 62
7
  6
CONTINUOUS
 10
259.1136862929
 20
191.6158485255
 11
259.2595199044
 21
191.8392529628
  0
LINE
  5
46D
100
AcDbEntity
  8
0
100
AcDbLine
 62
7
  6
CONTINUOUS
 10
257.7282699044
 20
190.8711677632
 11
257.9470199044
 21
191.1690400681
  0
LINE
  5
46E
100
AcDbEntity
  8
0
100
AcDbLine
 62
7
  6
CONTINUOUS
 10
257.7282699044
 20
189.3073379798
 11
257.9470199044
 21
189.6052103108
  0
LINE
  5
46F
100
AcDbEntity
  8
KONSTRUKTIONSELEMENTE
100
AcDbLine
 62
7
  6
CONTINUOUS
 10
236.1007313146
 20
216.6362264763
 11
236.7007313146
 21
216.6362264763
  0
LINE
  5
470
100
AcDbEntity
  8
KONSTRUKTIONSELEMENTE
100
AcDbLine
 62
7
  6
CONTINUOUS
 10
236.9407313146
 20
216.6362264763
 11
239.6307313146
 21
216.6362264763
  0
LINE
  5
471
100
AcDbEntity
  8
KONSTRUKTIONSELEMENTE
100
AcDbLine
 62
7
  6
CONTINUOUS
 10
239.6307313146
 20
217.3562264763
 11
238.1907313146
 21
217.3562264763
  0
LINE
  5
472
100
AcDbEntity
  8
KONSTRUKTIONSELEMENTE
100
AcDbLine
 62
7
  6
CONTINUOUS
 10
237.6007313146
 20
217.3562264763
 11
236.9407313146
 21
217.3562264763
  0
LINE
  5
473
100
AcDbEntity
  8
BEZUGSACHSEN
100
AcDbLine
 62
7
  6
CONTINUOUS
 10
250.4636862929
 20
219.0794656489
 11
274.4636862929
 21
219.0794656489
  0
LINE
  5
474
100
AcDbEntity
  8
KONSTRUKTIONSELEMENTE
100
AcDbLine
 62
7
  6
CONTINUOUS
 10
252.7786343174
 20
219.2794656489
 11
263.1739237667
 21
219.2794656489
  0
LINE
  5
475
100
AcDbEntity
  8
0
100
AcDbLine
 62
7
  6
CONTINUOUS
 10
275.7386862929
 20
191.913721039
 11
275.8116035159
 21
191.6903168103
  0
LINE
  5
476
100
AcDbEntity
  8
0
100
AcDbLine
 62
7
  6
CONTINUOUS
 10
273.3324362929
 20
189.9775507441
 11
273.4053535159
 21
189.6796784392
  0
LINE
  5
477
100
AcDbEntity
  8
0
100
AcDbLine
 62
7
  6
CONTINUOUS
 10
273.5511862929
 20
191.3924442968
 11
273.6241035159
 21
191.0945719919
  0
LINE
  5
478
100
AcDbEntity
  8
0
100
AcDbLine
 62
7
  6
CONTINUOUS
 10
272.3116035159
 20
190.2009549728
 11
272.3116035159
 21
192.5094656489
  0
LINE
  5
479
100
AcDbEntity
  8
0
100
AcDbLine
 62
7
  6
CONTINUOUS
 10
272.7491035159
 20
190.2009549728
 11
272.7491035159
 21
192.5094656489
  0
LINE
  5
47A
100
AcDbEntity
  8
BEZUGSACHSEN
100
AcDbLine
 62
7
  6
CONTINUOUS
 10
273.4636862929
 20
209.0794656489
 11
273.4636862929
 21
209.5794656489
  0
LINE
  5
47B
100
AcDbEntity
  8
0
100
AcDbLine
 62
7
  6
CONTINUOUS
 10
273.5511862929
 20
191.3924442968
 11
273.5511862929
 21
191.6903168103
  0
LINE
  5
47C
100
AcDbEntity
  8
0
100
AcDbLine
 62
7
  6
CONTINUOUS
 10
273.9886862929
 20
191.466912373
 11
273.9886862929
 21
191.6158485255
  0
LINE
  5
47D
100
AcDbEntity
  8
BEZUGSACHSEN
100
AcDbLine
 62
7
  6
CONTINUOUS
 10
274.4636862929
 20
209.5794656489
 11
274.4636862929
 21
219.0794656489
  0
LINE
  5
47E
100
AcDbEntity
  8
0
100
AcDbLine
 62
7
  6
CONTINUOUS
 10
274.7136862929
 20
203.8794656489
 11
274.7136862929
 21
203.6794656489
  0
LINE
  5
47F
100
AcDbEntity
  8
0
100
AcDbLine
 62
7
  6
CONTINUOUS
 10
274.7136862929
 20
178.6794656489
 11
274.7136862929
 21
178.4794656489
  0
LINE
  5
480
100
AcDbEntity
  8
0
100
AcDbLine
 62
7
  6
CONTINUOUS
 10
275.5928535159
 20
189.9030826679
 11
275.5928535159
 21
190.1264868966
  0
LINE
  5
481
100
AcDbEntity
  8
0
100
AcDbLine
 62
7
  6
CONTINUOUS
 10
276.0303535159
 20
189.8286145917
 11
276.0303535159
 21
190.2009549728
  0
LINE
  5
482
100
AcDbEntity
  8
0
100
AcDbLine
 62
7
  6
CONTINUOUS
 10
272.6761862929
 20
189.8286145917
 11
272.7491035159
 21
190.2009549728
  0
LINE
  5
483
100
AcDbEntity
  8
0
100
AcDbLine
 62
7
  6
CONTINUOUS
 10
264.4291030987
 20
185.2435081443
 11
264.5749362929
 21
185.5413804493
  0
LINE
  5
484
100
AcDbEntity
  8
0
100
AcDbLine
 62
7
  6
CONTINUOUS
 10
261.4395196958
 20
183.3818060822
 11
261.0020195915
 21
182.5626571393
  0
LINE
  5
485
100
AcDbEntity
  8
0
100
AcDbLine
 62
7
  6
CONTINUOUS
 10
261.36660289
 20
182.5626571393
 11
261.80410289
 21
183.3818060822
  0
LINE
  5
486
100
AcDbEntity
  8
0
100
AcDbLine
 62
7
  6
CONTINUOUS
 10
262.8249362929
 20
185.6903168103
 11
262.9707696958
 21
185.913721039
  0
LINE
  5
487
100
AcDbEntity
  8
0
100
AcDbLine
 62
7
  6
CONTINUOUS
 10
259.9811862929
 20
186.5094656489
 11
259.5436862929
 21
185.9881891153
  0
LINE
  5
488
100
AcDbEntity
  8
0
100
AcDbLine
 62
7
  6
CONTINUOUS
 10
259.9811862929
 20
185.913721039
 11
259.5436862929
 21
185.3924442968
  0
LINE
  5
489
100
AcDbEntity
  8
0
100
AcDbLine
 62
7
  6
CONTINUOUS
 10
257.3636862929
 20
191.0945719919
 11
257.5095199044
 21
191.2435081443
  0
LINE
  5
48A
100
AcDbEntity
  8
0
100
AcDbLine
 62
7
  6
CONTINUOUS
 10
258.8220199044
 20
191.9881891153
 11
259.1136862929
 21
192.2860614202
  0
LINE
  5
48B
100
AcDbEntity
  8
0
100
AcDbLine
 62
7
  6
CONTINUOUS
 10
257.3636862929
 20
189.5307422346
 11
257.5095199044
 21
189.6796784392
  0
LINE
  5
48C
100
AcDbEntity
  8
0
100
AcDbLine
 62
7
  6
CONTINUOUS
 10
261.0824362929
 20
189.2328699036
 11
261.3741026814
 21
189.5307422346
  0
LINE
  5
48D
100
AcDbEntity
  8
0
100
AcDbLine
 62
7
  6
CONTINUOUS
 10
257.4366026814
 20
189.0839337316
 11
257.7282699044
 21
189.3073379798
  0
LINE
  5
48E
100
AcDbEntity
  8
0
100
AcDbLine
 62
7
  6
CONTINUOUS
 10
259.2595199044
 20
191.8392529628
 11
259.4782699044
 21
191.9881891153
  0
LINE
  5
48F
100
AcDbEntity
  8
KONSTRUKTIONSELEMENTE
100
AcDbLine
 62
7
  6
CONTINUOUS
 10
236.1007313146
 20
220.1762264763
 11
238.2207313146
 21
220.1762264763
  0
LINE
  5
490
100
AcDbEntity
  8
KONSTRUKTIONSELEMENTE
100
AcDbLine
 62
7
  6
CONTINUOUS
 10
238.2207313146
 20
220.8962264763
 11
236.1007313146
 21
220.8962264763
  0
LINE
  5
491
100
AcDbEntity
  8
KONSTRUKTIONSELEMENTE
100
AcDbLine
 62
7
  6
CONTINUOUS
 10
236.1007313146
 20
222.2762264763
 11
238.2207313146
 21
222.2762264763
  0
LINE
  5
492
100
AcDbEntity
  8
KONSTRUKTIONSELEMENTE
100
AcDbLine
 62
7
  6
CONTINUOUS
 10
238.2207313146
 20
222.9962264763
 11
236.1007313146
 21
222.9962264763
  0
LINE
  5
493
100
AcDbEntity
  8
KONSTRUKTIONSELEMENTE
100
AcDbLine
 62
7
  6
CONTINUOUS
 10
236.1007313146
 20
223.7162264763
 11
236.7007313146
 21
223.7162264763
  0
LINE
  5
494
100
AcDbEntity
  8
KONSTRUKTIONSELEMENTE
100
AcDbLine
 62
7
  6
CONTINUOUS
 10
236.9407313146
 20
223.7162264763
 11
239.6307313146
 21
223.7162264763
  0
LINE
  5
495
100
AcDbEntity
  8
KONSTRUKTIONSELEMENTE
100
AcDbLine
 62
7
  6
CONTINUOUS
 10
239.0307313146
 20
224.4362264763
 11
236.9407313146
 21
224.4362264763
  0
LINE
  5
496
100
AcDbEntity
  8
0
100
AcDbLine
 62
7
  6
CONTINUOUS
 10
277.4636862929
 20
209.0794656489
 11
277.4636862929
 21
203.8794656489
  0
LINE
  5
497
100
AcDbEntity
  8
0
100
AcDbLine
 62
7
  6
CONTINUOUS
 10
277.4636862929
 20
178.4794656489
 11
277.4636862929
 21
173.2794656489
  0
LINE
  5
498
100
AcDbEntity
  8
RUNDUNGEN
100
AcDbLine
 62
7
  6
CONTINUOUS
 10
279.7136862929
 20
180.1794656489
 11
279.7136862929
 21
202.1794656489
  0
LINE
  5
499
100
AcDbEntity
  8
0
100
AcDbLine
 62
7
  6
CONTINUOUS
 10
272.2386862929
 20
189.9030826679
 11
272.3116035159
 21
190.2009549728
  0
LINE
  5
49A
100
AcDbEntity
  8
0
100
AcDbLine
 62
7
  6
CONTINUOUS
 10
273.5511862929
 20
191.6903168103
 11
273.6241035159
 21
191.9881891153
  0
LINE
  5
49B
100
AcDbEntity
  8
0
100
AcDbLine
 62
7
  6
CONTINUOUS
 10
273.9886862929
 20
191.6158485255
 11
274.0616035159
 21
191.8392529628
  0
LINE
  5
49C
100
AcDbEntity
  8
0
100
AcDbLine
 62
7
  6
CONTINUOUS
 10
272.5303535159
 20
189.5307422346
 11
272.6761862929
 21
189.8286145917
  0
LINE
  5
49D
100
AcDbEntity
  8
0
100
AcDbLine
 62
7
  6
CONTINUOUS
 10
264.7936862929
 20
185.0201039157
 11
264.9395194872
 21
185.2435081443
  0
LINE
  5
49E
100
AcDbEntity
  8
0
100
AcDbLine
 62
7
  6
CONTINUOUS
 10
266.0407690699
 20
190.8711677632
 11
266.2595190699
 21
191.1690400681
  0
LINE
  5
49F
100
AcDbEntity
  8
0
100
AcDbLine
 62
7
  6
CONTINUOUS
 10
265.6761862929
 20
191.0945719919
 11
265.8220190699
 21
191.2435081443
  0
LINE
  5
4A0
100
AcDbEntity
  8
0
100
AcDbLine
 62
7
  6
CONTINUOUS
 10
262.5332696958
 20
185.9881891153
 11
262.8249362929
 21
186.2860614202
  0
LINE
  5
4A1
100
AcDbEntity
  8
0
100
AcDbLine
 62
7
  6
CONTINUOUS
 10
265.7491035159
 20
190.6477635345
 11
266.0407690699
 21
190.8711677632
  0
LINE
  5
4A2
100
AcDbEntity
  8
0
100
AcDbLine
 62
7
  6
CONTINUOUS
 10
260.7178526814
 20
189.5307422346
 11
260.9366026814
 21
189.6796784392
  0
LINE
  5
4A3
100
AcDbEntity
  8
0
100
AcDbLine
 62
7
  6
CONTINUOUS
 10
259.1136862929
 20
192.2860614202
 11
259.4053526814
 21
192.4349975726
  0
LINE
  5
4A4
100
AcDbEntity
  8
0
100
AcDbLine
 62
7
  6
CONTINUOUS
 10
257.5824362929
 20
190.796699687
 11
257.7282699044
 21
190.8711677632
  0
LINE
  5
4A5
100
AcDbEntity
  8
0
100
AcDbLine
 62
7
  6
CONTINUOUS
 10
260.7907699044
 20
189.0839337316
 11
261.0824362929
 21
189.2328699036
  0
LINE
  5
4A6
100
AcDbEntity
  8
0
100
AcDbLine
 62
7
  6
CONTINUOUS
 10
257.1449362929
 20
191.0201039157
 11
257.3636862929
 21
191.0945719919
  0
LINE
  5
4A7
100
AcDbEntity
  8
0
100
AcDbLine
 62
7
  6
CONTINUOUS
 10
257.1449362929
 20
189.4562741584
 11
257.3636862929
 21
189.5307422346
  0
LINE
  5
4A8
100
AcDbEntity
  8
KONSTRUKTIONSELEMENTE
100
AcDbLine
 62
7
  6
CONTINUOUS
 10
237.4207313146
 20
225.8762264763
 11
238.3107313146
 21
225.8762264763
  0
LINE
  5
4A9
100
AcDbEntity
  8
0
100
AcDbLine
 62
7
  6
CONTINUOUS
 10
289.0579953953
 20
227.1127023581
 11
288.4536611671
 21
227.1127023581
  0
LINE
  5
4AA
100
AcDbEntity
  8
0
100
AcDbLine
 62
7
  6
CONTINUOUS
 10
285.682379875
 20
227.1127023581
 11
285.0780456469
 21
227.1127023581
  0
LINE
  5
4AB
100
AcDbEntity
  8
0
100
AcDbLine
 62
7
  6
CONTINUOUS
 10
281.4636862929
 20
204.1794656489
 11
281.4636862929
 21
204.2749093595
  0
LINE
  5
4AC
100
AcDbEntity
  8
0
100
AcDbLine
 62
7
  6
CONTINUOUS
 10
281.4636862929
 20
204.4536179044
 11
281.4636862929
 21
247.8040094384
  0
LINE
  5
4AD
100
AcDbEntity
  8
KONSTRUKTIONSELEMENTE
100
AcDbLine
 62
7
  6
CONTINUOUS
 10
284.6668156295
 20
206.6794656489
 11
284.6668156295
 21
233.6794656489
  0
LINE
  5
4AE
100
AcDbEntity
  8
0
100
AcDbLine
 62
7
  6
CONTINUOUS
 10
285.6684693405
 20
226.8926127933
 11
285.682379875
 21
227.1127023581
  0
LINE
  5
4AF
100
AcDbEntity
  8
0
100
AcDbLine
 62
7
  6
CONTINUOUS
 10
275.8845190699
 20
189.5307422346
 11
276.0303535159
 21
189.8286145917
  0
LINE
  5
4B0
100
AcDbEntity
  8
0
100
AcDbLine
 62
7
  6
CONTINUOUS
 10
272.0928535159
 20
189.6796784392
 11
272.2386862929
 21
189.9030826679
  0
LINE
  5
4B1
100
AcDbEntity
  8
0
100
AcDbLine
 62
7
  6
CONTINUOUS
 10
275.4470190699
 20
189.6796784392
 11
275.5928535159
 21
189.9030826679
  0
LINE
  5
4B2
100
AcDbEntity
  8
0
100
AcDbLine
 62
7
  6
CONTINUOUS
 10
273.6241035159
 20
191.9881891153
 11
273.9157690699
 21
192.2860614202
  0
LINE
  5
4B3
100
AcDbEntity
  8
0
100
AcDbLine
 62
7
  6
CONTINUOUS
 10
272.2386862929
 20
189.2328699036
 11
272.5303535159
 21
189.5307422346
  0
LINE
  5
4B4
100
AcDbEntity
  8
0
100
AcDbLine
 62
7
  6
CONTINUOUS
 10
264.4291030987
 20
185.2435081443
 11
262.3874362929
 21
183.3818060822
  0
LINE
  5
4B5
100
AcDbEntity
  8
0
100
AcDbLine
 62
7
  6
CONTINUOUS
 10
262.9707696958
 20
183.3818060822
 11
264.7936862929
 21
185.0201039157
  0
LINE
  5
4B6
100
AcDbEntity
  8
0
100
AcDbLine
 62
7
  6
CONTINUOUS
 10
262.9707696958
 20
185.913721039
 11
263.1895194872
 21
186.0626571915
  0
LINE
  5
4B7
100
AcDbEntity
  8
0
100
AcDbLine
 62
7
  6
CONTINUOUS
 10
274.0616035159
 20
191.8392529628
 11
274.2803535159
 21
191.9881891153
  0
LINE
  5
4B8
100
AcDbEntity
  8
0
100
AcDbLine
 62
7
  6
CONTINUOUS
 10
271.8741035159
 20
189.5307422346
 11
272.0928535159
 21
189.6796784392
  0
LINE
  5
4B9
100
AcDbEntity
  8
0
100
AcDbLine
 62
7
  6
CONTINUOUS
 10
273.9157690699
 20
192.2860614202
 11
274.2074362929
 21
192.4349975726
  0
LINE
  5
4BA
100
AcDbEntity
  8
0
100
AcDbLine
 62
7
  6
CONTINUOUS
 10
262.8249362929
 20
186.2860614202
 11
263.1166030987
 21
186.4349975726
  0
LINE
  5
4BB
100
AcDbEntity
  8
0
100
AcDbLine
 62
7
  6
CONTINUOUS
 10
265.4574362929
 20
191.0201039157
 11
265.6761862929
 21
191.0945719919
  0
LINE
  5
4BC
100
AcDbEntity
  8
0
100
AcDbLine
 62
7
  6
CONTINUOUS
 10
274.2803535159
 20
191.9881891153
 11
274.4991035159
 21
192.0626571915
  0
LINE
  5
4BD
100
AcDbEntity
  8
0
100
AcDbLine
 62
7
  6
CONTINUOUS
 10
287.3680205211
 20
230.1127023581
 11
286.7636862929
 21
230.1127023581
  0
LINE
  5
4BE
100
AcDbEntity
  8
0
100
AcDbLine
 62
7
  6
CONTINUOUS
 10
289.0579953953
 20
230.5127023581
 11
288.4536611671
 21
230.5127023581
  0
LINE
  5
4BF
100
AcDbEntity
  8
0
100
AcDbLine
 62
7
  6
CONTINUOUS
 10
285.682379875
 20
230.5127023581
 11
285.0780456469
 21
230.5127023581
  0
LINE
  5
4C0
100
AcDbEntity
  8
0
100
AcDbLine
 62
7
  6
CONTINUOUS
 10
289.0647692992
 20
226.805831859
 11
289.0579953953
 21
227.1127023581
  0
LINE
  5
4C1
100
AcDbEntity
  8
0
100
AcDbLine
 62
7
  6
CONTINUOUS
 10
289.0647692992
 20
230.205831859
 11
289.0579953953
 21
230.5127023581
  0
LINE
  5
4C2
100
AcDbEntity
  8
0
100
AcDbLine
 62
7
  6
CONTINUOUS
 10
286.7636862929
 20
230.1127023581
 11
286.7636862929
 21
228.9461809797
  0
LINE
  5
4C3
100
AcDbEntity
  8
0
100
AcDbLine
 62
7
  6
CONTINUOUS
 10
287.3680205211
 20
228.945222925
 11
287.3680205211
 21
230.1127023581
  0
LINE
  5
4C4
100
AcDbEntity
  8
0
100
AcDbLine
 62
7
  6
CONTINUOUS
 10
275.5928535159
 20
189.2328699036
 11
275.8845190699
 21
189.5307422346
  0
LINE
  5
4C5
100
AcDbEntity
  8
0
100
AcDbLine
 62
7
  6
CONTINUOUS
 10
275.2282690699
 20
189.5307422346
 11
275.4470190699
 21
189.6796784392
  0
LINE
  5
4C6
100
AcDbEntity
  8
0
100
AcDbLine
 62
7
  6
CONTINUOUS
 10
271.9470190699
 20
189.0839337316
 11
272.2386862929
 21
189.2328699036
  0
LINE
  5
4C7
100
AcDbEntity
  8
0
100
AcDbLine
 62
7
  6
CONTINUOUS
 10
275.3011862929
 20
189.0839337316
 11
275.5928535159
 21
189.2328699036
  0
LINE
  5
4C8
100
AcDbEntity
  8
KONSTRUKTIONSELEMENTE
100
AcDbLine
 62
7
  6
CONTINUOUS
 10
286.8693886838
 20
233.6794656489
 11
284.6668156295
 21
233.6794656489
  0
LINE
  5
4C9
100
AcDbEntity
  8
0
100
AcDbLine
 62
7
  6
CONTINUOUS
 10
235.8214344696
 20
233.6794656489
 11
240.2605569563
 21
233.6794656489
  0
LINE
  5
4CA
100
AcDbEntity
  8
0
100
AcDbLine
 62
7
  6
CONTINUOUS
 10
286.8693886838
 20
233.6794656489
 11
289.1059381163
 21
233.6794656489
  0
LINE
  5
4CB
100
AcDbEntity
  8
0
100
AcDbLine
 62
7
  6
CONTINUOUS
 10
290.4636862929
 20
197.122952322
 11
290.4636862929
 21
198.1421311313
  0
LINE
  5
4CC
100
AcDbEntity
  8
0
100
AcDbLine
 62
7
  6
CONTINUOUS
 10
290.4636862929
 20
203.9785295885
 11
290.4636862929
 21
204.0750515149
  0
LINE
  5
4CD
100
AcDbEntity
  8
RUNDUNGEN
100
AcDbLine
 62
7
  6
CONTINUOUS
 10
290.4636862929
 20
196.6793966026
 11
290.4636862929
 21
250.0959303455
  0
LINE
  5
4CE
100
AcDbEntity
  8
0
100
AcDbLine
 62
7
  6
CONTINUOUS
 10
289.8820332493
 20
243.1369873787
 11
289.7318598859
 21
243.1369873787
  0
LINE
  5
4CF
100
AcDbEntity
  8
0
100
AcDbLine
 62
7
  6
CONTINUOUS
 10
235.0453393366
 20
243.1369873787
 11
235.1955126999
 21
243.1369873787
  0
LINE
  5
4D0
100
AcDbEntity
  8
0
100
AcDbLine
 62
7
  6
CONTINUOUS
 10
289.8820078221
 20
232.0882869496
 11
286.8693849379
 21
238.2650792224
  0
LINE
  5
4D1
100
AcDbEntity
  8
RUNDUNGEN
100
AcDbLine
 62
7
  6
CONTINUOUS
 10
286.8693849379
 20
238.2650792224
 11
286.3725179386
 21
239.2838075397
  0
LINE
  5
4D2
100
AcDbEntity
  8
0
100
AcDbLine
 62
7
  6
CONTINUOUS
 10
289.7318598859
 20
243.1369873787
 11
289.8820151657
 21
242.8291234318
  0
LINE
  5
4D3
100
AcDbEntity
  8
RUNDUNGEN
100
AcDbLine
 62
7
  6
CONTINUOUS
 10
288.0548546472
 20
246.575357662
 11
287.4556020179
 21
247.80400763
  0
LINE
  5
4D4
100
AcDbEntity
  8
0
100
AcDbLine
 62
7
  6
CONTINUOUS
 10
287.4556020179
 20
247.80400763
 11
281.7470052584
 21
259.5083654959
  0
LINE
  5
4D5
100
AcDbEntity
  8
RUNDUNGEN
100
AcDbLine
 62
7
  6
CONTINUOUS
 10
281.7470052584
 20
259.5083654959
 11
280.6765163993
 21
261.7031929162
  0
LINE
  5
4D6
100
AcDbEntity
  8
BEZUGSACHSEN
100
AcDbLine
 62
7
  6
CONTINUOUS
 10
268.4636862929
 20
149.0794656489
 11
269.4636862929
 21
150.0794656489
  0
LINE
  5
4D7
100
AcDbEntity
  8
RUNDUNGEN
100
AcDbLine
 62
7
  6
CONTINUOUS
 10
279.5629685933
 20
262.7058358642
 11
276.3450433497
 21
263.877064869
  0
LINE
  5
4D8
100
AcDbEntity
  8
0
100
AcDbLine
 62
7
  6
CONTINUOUS
 10
276.3450433497
 20
263.877064869
 11
262.4636862929
 21
268.9294656489
  0
LINE
  5
4D9
100
AcDbEntity
  8
0
100
AcDbLine
 62
7
  6
CONTINUOUS
 10
148.0581689673
 20
54.4873257753
 11
148.0183171246
 21
54.4870610687
  0
LINE
  5
4DA
100
AcDbEntity
  8
KONSTRUKTIONSELEMENTE
100
AcDbLine
 62
7
  6
CONTINUOUS
 10
147.9853317209
 20
54.4870610687
 11
142.2019199565
 21
54.4870610687
  0
LINE
  5
4DB
100
AcDbEntity
  8
0
100
AcDbLine
 62
7
  6
CONTINUOUS
 10
142.2019192776
 20
54.4870610687
 11
148.0317781584
 21
54.4870938628
  0
LINE
  5
4DC
100
AcDbEntity
  8
0
100
AcDbLine
 62
7
  6
CONTINUOUS
 10
142.1290512443
 20
54.4873261935
 11
142.1689345528
 21
54.4870610687
  0
LWPOLYLINE
  5
4DD
100
AcDbEntity
  8
RUNDUNGEN
100
AcDbPolyline
 62
7
  6
CONTINUOUS
 90
3
 70
0
 10
142.1290831029
 20
54.4873257701
 10
142.155473422
 20
54.4870938656
 10
142.2019192776
 20
54.4870610687
  0
LINE
  5
4DE
100
AcDbEntity
  8
0
100
AcDbLine
 62
7
  6
CONTINUOUS
 10
140.3936258387
 20
55.2188874757
 11
140.2053871706
 21
55.2188874757
  0
LINE
  5
4DF
100
AcDbEntity
  8
0
100
AcDbLine
 62
7
  6
CONTINUOUS
 10
149.7936258387
 20
55.2188874757
 11
149.9818645068
 21
55.2188874757
  0
LINE
  5
4E0
100
AcDbEntity
  8
0
100
AcDbLine
 62
7
  6
CONTINUOUS
 10
150.5288967605
 20
55.8448092454
 11
150.0936258387
 21
55.8448092454
  0
LINE
  5
4E1
100
AcDbEntity
  8
0
100
AcDbLine
 62
7
  6
CONTINUOUS
 10
139.6583549169
 20
55.8448092454
 11
140.0936258387
 21
55.8448092454
  0
LINE
  5
4E2
100
AcDbEntity
  8
0
100
AcDbLine
 62
7
  6
CONTINUOUS
 10
139.6343417173
 20
55.8827268405
 11
139.5936258387
 21
55.8827268405
  0
LINE
  5
4E3
100
AcDbEntity
  8
0
100
AcDbLine
 62
7
  6
CONTINUOUS
 10
139.6279928087
 20
55.8927519663
 11
139.5936258387
 21
55.8927519663
  0
LINE
  5
4E4
100
AcDbEntity
  8
RUNDUNGEN
100
AcDbLine
 62
7
  6
CONTINUOUS
 10
139.2749850963
 20
56.693480807
 11
140.1284892837
 21
56.693480807
  0
LINE
  5
4E5
100
AcDbEntity
  8
0
100
AcDbLine
 62
7
  6
CONTINUOUS
 10
150.0587623937
 20
56.693480807
 11
150.9122665811
 21
56.693480807
  0
LINE
  5
4E6
100
AcDbEntity
  8
0
100
AcDbLine
 62
7
  6
CONTINUOUS
 10
141.0348409223
 20
110.2644426939
 11
140.9988760183
 21
110.2488819313
  0
LINE
  5
4E7
100
AcDbEntity
  8
0
100
AcDbLine
 62
7
  6
CONTINUOUS
 10
141.148147393
 20
110.3080554118
 11
141.0348409223
 21
110.2644426939
  0
LWPOLYLINE
  5
4E8
100
AcDbEntity
  8
RUNDUNGEN
100
AcDbPolyline
 62
7
  6
CONTINUOUS
 90
3
 70
0
 10
140.9207210577
 20
54.7590615249
 10
141.0347180441
 20
54.7097296215
 10
141.1481548066
 20
54.666064043
  0
LWPOLYLINE
  5
4E9
100
AcDbEntity
  8
0
100
AcDbPolyline
 62
7
  6
CONTINUOUS
 90
3
 70
0
 10
140.5867219013
 20
110.0357005524
 10
140.5793338214
 20
110.0313078243
 10
140.4666812632
 20
109.9573559468
  0
LWPOLYLINE
  5
4EA
100
AcDbEntity
  8
0
100
AcDbPolyline
 62
7
  6
CONTINUOUS
 90
3
 70
0
 10
140.8004749506
 20
110.1566019057
 10
140.6929106846
 20
110.0988371823
 10
140.6005761233
 20
110.0439378527
  0
LWPOLYLINE
  5
4EB
100
AcDbEntity
  8
RUNDUNGEN
100
AcDbPolyline
 62
7
  6
CONTINUOUS
 90
3
 70
0
 10
140.692378319
 20
54.8755858877
 10
140.8064807116
 20
54.814283626
 10
140.9207210577
 20
54.7590615249
  0
LINE
  5
4EC
100
AcDbEntity
  8
RUNDUNGEN
100
AcDbLine
 62
7
  6
CONTINUOUS
 10
140.5788042628
 20
54.9431452477
 11
140.692378319
 21
54.8755858877
  0
LINE
  5
4ED
100
AcDbEntity
  8
RUNDUNGEN
100
AcDbLine
 62
7
  6
CONTINUOUS
 10
140.466183891
 20
55.0171089973
 11
140.5788042628
 21
54.9431452477
  0
LINE
  5
4EE
100
AcDbEntity
  8
KONSTRUKTIONSELEMENTE
100
AcDbLine
 62
7
  6
CONTINUOUS
 10
115.1330715867
 20
84.9330332629
 11
114.7764060079
 21
83.2197645552
  0
LINE
  5
4EF
100
AcDbEntity
  8
KONSTRUKTIONSELEMENTE
100
AcDbLine
 62
7
  6
CONTINUOUS
 10
115.2300976161
 20
83.5721954478
 11
115.5124578519
 21
84.9285331067
  0
LINE
  5
4F0
100
AcDbEntity
  8
KONSTRUKTIONSELEMENTE
100
AcDbLine
 62
7
  6
CONTINUOUS
 10
115.2802819725
 20
85.2747870549
 11
115.1330715867
 21
84.9330332629
  0
LINE
  5
4F1
100
AcDbEntity
  8
BEZUGSACHSEN
100
AcDbLine
 62
7
  6
CONTINUOUS
 10
118.1654226084
 20
94.4870610687
 11
111.2372193782
 21
82.4870610687
  0
LINE
  5
4F2
100
AcDbEntity
  8
0
100
AcDbLine
 62
7
  6
CONTINUOUS
 10
140.4122417856
 20
109.9189915063
 11
140.3936258387
 21
109.9054356658
  0
LINE
  5
4F3
100
AcDbEntity
  8
0
100
AcDbLine
 62
7
  6
CONTINUOUS
 10
140.4666812632
 20
109.9573559468
 11
140.3936258387
 21
109.9053874769
  0
LINE
  5
4F4
100
AcDbEntity
  8
0
100
AcDbLine
 62
7
  6
CONTINUOUS
 10
140.5023001079
 20
109.9815703618
 11
140.4569396402
 21
109.9506609955
  0
LINE
  5
4F5
100
AcDbEntity
  8
RUNDUNGEN
100
AcDbLine
 62
7
  6
CONTINUOUS
 10
122.3436258387
 20
65.2370610687
 11
138.657006498
 21
65.2370610687
  0
LINE
  5
4F6
100
AcDbEntity
  8
RUNDUNGEN
100
AcDbLine
 62
7
  6
CONTINUOUS
 10
151.5302451794
 20
65.2370610687
 11
155.5936258387
 21
65.2370610687
  0
LINE
  5
4F7
100
AcDbEntity
  8
RUNDUNGEN
100
AcDbLine
 62
7
  6
CONTINUOUS
 10
140.3936258387
 20
55.0687346605
 11
140.466183891
 21
55.0171089973
  0
LWPOLYLINE
  5
4F8
100
AcDbEntity
  8
RUNDUNGEN
100
AcDbPolyline
 62
7
  6
CONTINUOUS
 90
3
 70
0
 10
140.3936258387
 20
55.0686864716
 10
140.4356595257
 20
55.0383857606
 10
140.4859743755
 20
55.003536646
  0
LINE
  5
4F9
100
AcDbEntity
  8
BEZUGSACHSEN
100
AcDbLine
 62
7
  6
CONTINUOUS
 10
111.2372193782
 20
82.4870610687
 11
118.1654226084
 21
70.4870610687
  0
LINE
  5
4FA
100
AcDbEntity
  8
KONSTRUKTIONSELEMENTE
100
AcDbLine
 62
7
  6
CONTINUOUS
 10
116.6060336966
 20
84.7008742112
 11
116.3236734609
 21
83.3445365523
  0
LINE
  5
4FB
100
AcDbEntity
  8
KONSTRUKTIONSELEMENTE
100
AcDbLine
 62
7
  6
CONTINUOUS
 10
116.7611037171
 20
83.2534730111
 11
117.0137418283
 21
84.4670383117
  0
LINE
  5
4FC
100
AcDbEntity
  8
KONSTRUKTIONSELEMENTE
100
AcDbLine
 62
7
  6
CONTINUOUS
 10
115.5124578519
 20
84.9285331067
 11
115.6299460919
 21
85.1275144383
  0
LINE
  5
4FD
100
AcDbEntity
  8
KONSTRUKTIONSELEMENTE
100
AcDbLine
 62
7
  6
CONTINUOUS
 10
118.0340509731
 20
90.0334217307
 11
117.7551079862
 21
89.6963801011
  0
LINE
  5
4FE
100
AcDbEntity
  8
KONSTRUKTIONSELEMENTE
100
AcDbLine
 62
7
  6
CONTINUOUS
 10
116.6393360386
 20
88.3482135828
 11
116.3603929187
 21
88.0111717925
  0
LINE
  5
4FF
100
AcDbEntity
  8
0
100
AcDbLine
 62
7
  6
CONTINUOUS
 10
110.8977514527
 20
68.9203938457
 11
111.6896106115
 21
68.9203938457
  0
LINE
  5
500
100
AcDbEntity
  8
0
100
AcDbLine
 62
7
  6
CONTINUOUS
 10
110.7270967714
 20
69.0662282917
 11
111.5064791861
 21
69.0662282917
  0
LINE
  5
501
100
AcDbEntity
  8
0
100
AcDbLine
 62
7
  6
CONTINUOUS
 10
110.6433862767
 20
69.1391438457
 11
111.4167962066
 21
69.1391438457
  0
LINE
  5
502
100
AcDbEntity
  8
0
100
AcDbLine
 62
7
  6
CONTINUOUS
 10
110.560719788
 20
69.2120610687
 11
111.3283239818
 21
69.2120610687
  0
LINE
  5
503
100
AcDbEntity
  8
0
100
AcDbLine
 62
7
  6
CONTINUOUS
 10
110.3187833891
 20
69.4308110687
 11
111.0699025878
 21
69.4308110687
  0
LINE
  5
504
100
AcDbEntity
  8
0
100
AcDbLine
 62
7
  6
CONTINUOUS
 10
110.0096108181
 20
69.7224782917
 11
110.7406983405
 21
69.7224782917
  0
LINE
  5
505
100
AcDbEntity
  8
KONSTRUKTIONSELEMENTE
100
AcDbLine
 62
7
  6
CONTINUOUS
 10
116.9570981589
 20
84.9257101045
 11
116.8707323225
 21
85.2416093348
  0
LINE
  5
506
100
AcDbEntity
  8
KONSTRUKTIONSELEMENTE
100
AcDbLine
 62
7
  6
CONTINUOUS
 10
116.5777118513
 20
84.9302100565
 11
116.6060336966
 21
84.7008742112
  0
LINE
  5
507
100
AcDbEntity
  8
KONSTRUKTIONSELEMENTE
100
AcDbLine
 62
7
  6
CONTINUOUS
 10
120.2328440727
 20
87.5511014656
 11
120.1893310078
 21
87.9657146158
  0
LINE
  5
508
100
AcDbEntity
  8
KONSTRUKTIONSELEMENTE
100
AcDbLine
 62
7
  6
CONTINUOUS
 10
119.7956504184
 20
87.7236323228
 11
119.7709165275
 21
87.4601521714
  0
LINE
  5
509
100
AcDbEntity
  8
KONSTRUKTIONSELEMENTE
100
AcDbLine
 62
7
  6
CONTINUOUS
 10
118.2029434233
 20
82.5064333975
 11
118.2921098181
 21
82.9347505744
  0
LINE
  5
50A
100
AcDbEntity
  8
KONSTRUKTIONSELEMENTE
100
AcDbLine
 62
7
  6
CONTINUOUS
 10
118.6636364485
 20
84.7194054102
 11
118.7676639373
 21
85.2191089195
  0
LINE
  5
50B
100
AcDbEntity
  8
KONSTRUKTIONSELEMENTE
100
AcDbLine
 62
7
  6
CONTINUOUS
 10
120.1616195702
 20
87.2314476229
 11
120.2328440727
 21
87.5511014656
  0
LINE
  5
50C
100
AcDbEntity
  8
KONSTRUKTIONSELEMENTE
100
AcDbLine
 62
7
  6
CONTINUOUS
 10
119.7709165275
 20
87.4601521714
 11
119.6423232287
 21
87.1879779929
  0
LINE
  5
50D
100
AcDbEntity
  8
KONSTRUKTIONSELEMENTE
100
AcDbLine
 62
7
  6
CONTINUOUS
 10
119.9865359559
 20
86.9031000495
 11
120.1616195702
 21
87.2314476229
  0
LINE
  5
50E
100
AcDbEntity
  8
0
100
AcDbLine
 62
7
  6
CONTINUOUS
 10
122.2068744928
 20
87.4870610687
 11
119.3201231468
 21
82.4870610687
  0
LINE
  5
50F
100
AcDbEntity
  8
KONSTRUKTIONSELEMENTE
100
AcDbLine
 62
7
  6
CONTINUOUS
 10
123.0680408876
 20
89.6703681699
 11
122.9206935127
 21
89.4505448167
  0
LINE
  5
510
100
AcDbEntity
  8
KONSTRUKTIONSELEMENTE
100
AcDbLine
 62
7
  6
CONTINUOUS
 10
119.6423232287
 20
87.1879779929
 11
119.4563611488
 21
86.963283466
  0
LINE
  5
511
100
AcDbEntity
  8
KONSTRUKTIONSELEMENTE
100
AcDbLine
 62
7
  6
CONTINUOUS
 10
119.800573876
 20
86.6784055227
 11
119.9865359559
 21
86.9031000495
  0
LINE
  5
512
100
AcDbEntity
  8
KONSTRUKTIONSELEMENTE
100
AcDbLine
 62
7
  6
CONTINUOUS
 10
123.1551181528
 20
89.0632466785
 11
123.3701119109
 21
89.3102870588
  0
LINE
  5
513
100
AcDbEntity
  8
KONSTRUKTIONSELEMENTE
100
AcDbLine
 62
7
  6
CONTINUOUS
 10
115.5584413496
 20
85.5148000009
 11
115.2802819725
 21
85.2747870549
  0
LINE
  5
514
100
AcDbEntity
  8
KONSTRUKTIONSELEMENTE
100
AcDbLine
 62
7
  6
CONTINUOUS
 10
119.5107526894
 20
86.445017261
 11
119.800573876
 21
86.6784055227
  0
LINE
  5
515
100
AcDbEntity
  8
KONSTRUKTIONSELEMENTE
100
AcDbLine
 62
7
  6
CONTINUOUS
 10
122.9206935127
 20
89.4505448167
 11
122.6779035009
 21
89.2725903653
  0
LINE
  5
516
100
AcDbEntity
  8
KONSTRUKTIONSELEMENTE
100
AcDbLine
 62
7
  6
CONTINUOUS
 10
119.4563611488
 20
86.963283466
 11
119.2130305537
 21
86.7860689123
  0
LINE
  5
517
100
AcDbEntity
  8
KONSTRUKTIONSELEMENTE
100
AcDbLine
 62
7
  6
CONTINUOUS
 10
115.6299460919
 20
85.1275144383
 11
115.8054783231
 21
85.2399323849
  0
LINE
  5
518
100
AcDbEntity
  8
KONSTRUKTIONSELEMENTE
100
AcDbLine
 62
7
  6
CONTINUOUS
 10
121.5382572652
 20
92.1051130457
 11
119.9147381685
 21
91.4519011791
  0
LINE
  5
519
100
AcDbEntity
  8
KONSTRUKTIONSELEMENTE
100
AcDbLine
 62
7
  6
CONTINUOUS
 10
120.4873954206
 20
91.2006886811
 11
121.7050347431
 21
91.690597581
  0
LINE
  5
51A
100
AcDbEntity
  8
0
100
AcDbLine
 62
7
  6
CONTINUOUS
 10
109.6431337223
 20
70.0870610687
 11
110.351857829
 21
70.0870610687
  0
LINE
  5
51B
100
AcDbEntity
  8
0
100
AcDbLine
 62
7
  6
CONTINUOUS
 10
109.2971231553
 20
70.4516438457
 11
109.9859872185
 21
70.4516438457
  0
LINE
  5
51C
100
AcDbEntity
  8
BEZUGSACHSEN
100
AcDbLine
 62
7
  6
CONTINUOUS
 10
118.1654226084
 20
70.4870610687
 11
132.021829069
 21
70.4870610687
  0
LINE
  5
51D
100
AcDbEntity
  8
0
100
AcDbLine
 62
7
  6
CONTINUOUS
 10
109.0339738546
 20
70.7433110687
 11
109.7084829453
 21
70.7433110687
  0
LINE
  5
51E
100
AcDbEntity
  8
0
100
AcDbLine
 62
7
  6
CONTINUOUS
 10
108.7821989201
 20
71.0349782917
 11
109.4435366891
 21
71.0349782917
  0
LINE
  5
51F
100
AcDbEntity
  8
0
100
AcDbLine
 62
7
  6
CONTINUOUS
 10
108.5411772368
 20
71.3266438457
 11
109.1903909739
 21
71.3266438457
  0
LINE
  5
520
100
AcDbEntity
  8
0
100
AcDbLine
 62
7
  6
CONTINUOUS
 10
108.4825348373
 20
71.3995610687
 11
109.1288672806
 21
71.3995610687
  0
LINE
  5
521
100
AcDbEntity
  8
0
100
AcDbLine
 62
7
  6
CONTINUOUS
 10
108.3103520426
 20
71.6183110687
 11
108.9483739397
 21
71.6183110687
  0
LINE
  5
522
100
AcDbEntity
  8
0
100
AcDbLine
 62
7
  6
CONTINUOUS
 10
107.8773653492
 20
72.2016438457
 11
108.4954240584
 21
72.2016438457
  0
LINE
  5
523
100
AcDbEntity
  8
KONSTRUKTIONSELEMENTE
100
AcDbLine
 62
7
  6
CONTINUOUS
 10
116.4616239116
 20
85.1033370306
 11
116.5777118513
 21
84.9302100565
  0
LINE
  5
524
100
AcDbEntity
  8
0
100
AcDbLine
 62
7
  6
CONTINUOUS
 10
119.3201231468
 20
82.4870610687
 11
122.2068744928
 21
77.4870610687
  0
LINE
  5
525
100
AcDbEntity
  8
KONSTRUKTIONSELEMENTE
100
AcDbLine
 62
7
  6
CONTINUOUS
 10
123.5295131739
 20
89.6954992667
 11
123.5536216852
 21
90.0262773842
  0
LINE
  5
526
100
AcDbEntity
  8
KONSTRUKTIONSELEMENTE
100
AcDbLine
 62
7
  6
CONTINUOUS
 10
123.1199456647
 20
89.9320603283
 11
123.0680408876
 21
89.6703681699
  0
LINE
  5
527
100
AcDbEntity
  8
KONSTRUKTIONSELEMENTE
100
AcDbLine
 62
7
  6
CONTINUOUS
 10
123.3701119109
 20
89.3102870588
 11
123.5295131739
 21
89.6954992667
  0
LINE
  5
528
100
AcDbEntity
  8
KONSTRUKTIONSELEMENTE
100
AcDbLine
 62
7
  6
CONTINUOUS
 10
122.8446809984
 20
88.8580748523
 11
123.1551181528
 21
89.0632466785
  0
LINE
  5
529
100
AcDbEntity
  8
KONSTRUKTIONSELEMENTE
100
AcDbLine
 62
7
  6
CONTINUOUS
 10
115.8946447178
 20
85.6682495619
 11
115.5584413496
 21
85.5148000009
  0
LINE
  5
52A
100
AcDbEntity
  8
KONSTRUKTIONSELEMENTE
100
AcDbLine
 62
7
  6
CONTINUOUS
 10
119.2100530321
 20
86.31528205
 11
119.5107526894
 21
86.445017261
  0
LINE
  5
52B
100
AcDbEntity
  8
KONSTRUKTIONSELEMENTE
100
AcDbLine
 62
7
  6
CONTINUOUS
 10
122.6779035009
 20
89.2725903653
 11
121.4602641784
 21
88.7826814654
  0
LINE
  5
52C
100
AcDbEntity
  8
KONSTRUKTIONSELEMENTE
100
AcDbLine
 62
7
  6
CONTINUOUS
 10
121.2211619017
 20
88.2048629857
 11
122.8446809984
 21
88.8580748523
  0
LINE
  5
52D
100
AcDbEntity
  8
KONSTRUKTIONSELEMENTE
100
AcDbLine
 62
7
  6
CONTINUOUS
 10
119.2130305537
 20
86.7860689123
 11
118.9588214577
 21
86.7125074341
  0
LINE
  5
52E
100
AcDbEntity
  8
0
100
AcDbLine
 62
7
  6
CONTINUOUS
 10
107.5760591343
 20
72.6391438457
 11
108.1809627286
 21
72.6391438457
  0
LINE
  5
52F
100
AcDbEntity
  8
0
100
AcDbLine
 62
7
  6
CONTINUOUS
 10
107.5276926923
 20
72.7120610687
 11
108.1305376803
 21
72.7120610687
  0
LINE
  5
530
100
AcDbEntity
  8
0
100
AcDbLine
 62
7
  6
CONTINUOUS
 10
107.4325011799
 20
72.8578938457
 11
108.0313360641
 21
72.8578938457
  0
LINE
  5
531
100
AcDbEntity
  8
0
100
AcDbLine
 62
7
  6
CONTINUOUS
 10
107.2934913646
 20
73.0766438457
 11
107.8865670891
 21
73.0766438457
  0
LINE
  5
532
100
AcDbEntity
  8
0
100
AcDbLine
 62
7
  6
CONTINUOUS
 10
107.11500481
 20
73.3683110687
 11
107.700849516
 21
73.3683110687
  0
LINE
  5
533
100
AcDbEntity
  8
0
100
AcDbLine
 62
7
  6
CONTINUOUS
 10
106.9441092993
 20
73.6599782917
 11
107.5231970444
 21
73.6599782917
  0
LINE
  5
534
100
AcDbEntity
  8
0
100
AcDbLine
 62
7
  6
CONTINUOUS
 10
106.7805556779
 20
73.9516438457
 11
107.3533238795
 21
73.9516438457
  0
LINE
  5
535
100
AcDbEntity
  8
0
100
AcDbLine
 62
7
  6
CONTINUOUS
 10
106.6625689132
 20
74.1703938457
 11
107.2308647971
 21
74.1703938457
  0
LINE
  5
536
100
AcDbEntity
  8
0
100
AcDbLine
 62
7
  6
CONTINUOUS
 10
106.5860882224
 20
74.3162282917
 11
107.151522899
 21
74.3162282917
  0
LINE
  5
537
100
AcDbEntity
  8
0
100
AcDbLine
 62
7
  6
CONTINUOUS
 10
106.548492517
 20
74.3891438457
 11
107.1125314378
 21
74.3891438457
  0
LINE
  5
538
100
AcDbEntity
  8
0
100
AcDbLine
 62
7
  6
CONTINUOUS
 10
106.3317393799
 20
74.8266438457
 11
106.8878661366
 21
74.8266438457
  0
LINE
  5
539
100
AcDbEntity
  8
KONSTRUKTIONSELEMENTE
100
AcDbLine
 62
7
  6
CONTINUOUS
 10
116.8707323225
 20
85.2416093348
 11
116.623695349
 21
85.5164769507
  0
LINE
  5
53A
100
AcDbEntity
  8
KONSTRUKTIONSELEMENTE
100
AcDbLine
 62
7
  6
CONTINUOUS
 10
120.1893310078
 20
87.9657146158
 11
120.0528367499
 21
88.2679803585
  0
LINE
  5
53B
100
AcDbEntity
  8
KONSTRUKTIONSELEMENTE
100
AcDbLine
 62
7
  6
CONTINUOUS
 10
119.7165249818
 20
87.9784183806
 11
119.7956504184
 21
87.7236323228
  0
LINE
  5
53C
100
AcDbEntity
  8
KONSTRUKTIONSELEMENTE
100
AcDbLine
 62
7
  6
CONTINUOUS
 10
130.3379445277
 20
91.4660432765
 11
128.0892860399
 21
88.7839666547
  0
LINE
  5
53D
100
AcDbEntity
  8
KONSTRUKTIONSELEMENTE
100
AcDbLine
 62
7
  6
CONTINUOUS
 10
128.4245456177
 20
88.5028843437
 11
130.1947661863
 21
90.6143064332
  0
LINE
  5
53E
100
AcDbEntity
  8
KONSTRUKTIONSELEMENTE
100
AcDbLine
 62
7
  6
CONTINUOUS
 10
132.5171317829
 20
89.6390082552
 11
129.6695433439
 21
87.944964717
  0
LINE
  5
53F
100
AcDbEntity
  8
KONSTRUKTIONSELEMENTE
100
AcDbLine
 62
7
  6
CONTINUOUS
 10
129.6538311623
 20
87.4722488461
 11
132.2063236527
 21
88.9278125674
  0
LINE
  5
540
100
AcDbEntity
  8
0
100
AcDbLine
 62
7
  6
CONTINUOUS
 10
106.0654994303
 20
75.4099782917
 11
106.6122114278
 21
75.4099782917
  0
LINE
  5
541
100
AcDbEntity
  8
0
100
AcDbLine
 62
7
  6
CONTINUOUS
 10
105.7228677333
 20
76.2570610687
 11
106.25793033
 21
76.2570610687
  0
LINE
  5
542
100
AcDbEntity
  8
0
100
AcDbLine
 62
7
  6
CONTINUOUS
 10
122.2068744928
 20
77.4870610687
 11
127.9803771847
 21
77.4870610687
  0
LINE
  5
543
100
AcDbEntity
  8
KONSTRUKTIONSELEMENTE
100
AcDbLine
 62
7
  6
CONTINUOUS
 10
116.2577698351
 20
85.2202549293
 11
116.4616239116
 21
85.1033370306
  0
LINE
  5
544
100
AcDbEntity
  8
KONSTRUKTIONSELEMENTE
100
AcDbLine
 62
7
  6
CONTINUOUS
 10
116.3603929187
 20
88.0111717925
 11
118.1388253762
 21
86.5393023908
  0
LINE
  5
545
100
AcDbEntity
  8
KONSTRUKTIONSELEMENTE
100
AcDbLine
 62
7
  6
CONTINUOUS
 10
119.5335404436
 20
88.2245106994
 11
119.7165249818
 21
87.9784183806
  0
LINE
  5
546
100
AcDbEntity
  8
KONSTRUKTIONSELEMENTE
100
AcDbLine
 62
7
  6
CONTINUOUS
 10
119.9147381685
 20
91.4519011791
 11
121.2211619017
 21
88.2048629857
  0
LINE
  5
547
100
AcDbEntity
  8
KONSTRUKTIONSELEMENTE
100
AcDbLine
 62
7
  6
CONTINUOUS
 10
121.4602641784
 20
88.7826814654
 11
120.4873954206
 21
91.2006886811
  0
LINE
  5
548
100
AcDbEntity
  8
KONSTRUKTIONSELEMENTE
100
AcDbLine
 62
7
  6
CONTINUOUS
 10
123.5536216852
 20
90.0262773842
 11
123.4822868246
 21
90.3989239953
  0
LINE
  5
549
100
AcDbEntity
  8
KONSTRUKTIONSELEMENTE
100
AcDbLine
 62
7
  6
CONTINUOUS
 10
123.0764070504
 20
90.2356210287
 11
123.1199456647
 21
89.9320603283
  0
LINE
  5
54A
100
AcDbEntity
  8
KONSTRUKTIONSELEMENTE
100
AcDbLine
 62
7
  6
CONTINUOUS
 10
130.1947661863
 20
90.6143064332
 11
129.2068175394
 21
87.8470259755
  0
LINE
  5
54B
100
AcDbEntity
  8
KONSTRUKTIONSELEMENTE
100
AcDbLine
 62
7
  6
CONTINUOUS
 10
129.6695433439
 20
87.944964717
 11
130.8408338943
 21
91.0444198101
  0
LINE
  5
54C
100
AcDbEntity
  8
KONSTRUKTIONSELEMENTE
100
AcDbLine
 62
7
  6
CONTINUOUS
 10
132.2063236527
 20
88.9278125674
 11
130.436103084
 21
86.8163904779
  0
LINE
  5
54D
100
AcDbEntity
  8
KONSTRUKTIONSELEMENTE
100
AcDbLine
 62
7
  6
CONTINUOUS
 10
130.7713626618
 20
86.5353081669
 11
133.0200211495
 21
89.2173847888
  0
LINE
  5
54E
100
AcDbEntity
  8
KONSTRUKTIONSELEMENTE
100
AcDbLine
 62
7
  6
CONTINUOUS
 10
133.6046607368
 20
87.2201099275
 11
133.0715263418
 21
86.9542535647
  0
LINE
  5
54F
100
AcDbEntity
  8
KONSTRUKTIONSELEMENTE
100
AcDbLine
 62
7
  6
CONTINUOUS
 10
133.7332571821
 20
86.7953574129
 11
131.1342275434
 21
85.499307912
  0
LINE
  5
550
100
AcDbEntity
  8
0
100
AcDbLine
 62
7
  6
CONTINUOUS
 10
104.7895493891
 20
79.8570610687
 11
105.2952945421
 21
79.8570610687
  0
LINE
  5
551
100
AcDbEntity
  8
KONSTRUKTIONSELEMENTE
100
AcDbLine
 62
7
  6
CONTINUOUS
 10
114.7764060079
 20
83.2197645552
 11
118.2029434233
 21
82.5064333975
  0
LINE
  5
552
100
AcDbEntity
  8
KONSTRUKTIONSELEMENTE
100
AcDbLine
 62
7
  6
CONTINUOUS
 10
118.1388253762
 20
86.5393023908
 11
118.4721598685
 21
86.3580778445
  0
LINE
  5
553
100
AcDbEntity
  8
KONSTRUKTIONSELEMENTE
100
AcDbLine
 62
7
  6
CONTINUOUS
 10
116.623695349
 20
85.5164769507
 11
116.4198412725
 21
85.6333948494
  0
LINE
  5
554
100
AcDbEntity
  8
KONSTRUKTIONSELEMENTE
100
AcDbLine
 62
7
  6
CONTINUOUS
 10
118.4177684961
 20
86.8763441811
 11
116.6393360386
 21
88.3482135828
  0
LINE
  5
555
100
AcDbEntity
  8
KONSTRUKTIONSELEMENTE
100
AcDbLine
 62
7
  6
CONTINUOUS
 10
117.7551079862
 20
89.6963801011
 11
119.5335404436
 21
88.2245106994
  0
LINE
  5
556
100
AcDbEntity
  8
KONSTRUKTIONSELEMENTE
100
AcDbLine
 62
7
  6
CONTINUOUS
 10
119.8124834305
 20
88.561552329
 11
118.0340509731
 21
90.0334217307
  0
LINE
  5
557
100
AcDbEntity
  8
KONSTRUKTIONSELEMENTE
100
AcDbLine
 62
7
  6
CONTINUOUS
 10
120.0528367499
 20
88.2679803585
 11
119.8124834305
 21
88.561552329
  0
LINE
  5
558
100
AcDbEntity
  8
KONSTRUKTIONSELEMENTE
100
AcDbLine
 62
7
  6
CONTINUOUS
 10
122.6594633165
 20
91.271909787
 11
123.0764070504
 21
90.2356210287
  0
LINE
  5
559
100
AcDbEntity
  8
KONSTRUKTIONSELEMENTE
100
AcDbLine
 62
7
  6
CONTINUOUS
 10
123.4822868246
 20
90.3989239953
 11
123.0653430907
 21
91.4352127537
  0
LINE
  5
55A
100
AcDbEntity
  8
0
100
AcDbLine
 62
7
  6
CONTINUOUS
 10
127.9803771847
 20
77.4870610687
 11
130.8671285306
 21
82.4870610687
  0
LINE
  5
55B
100
AcDbEntity
  8
KONSTRUKTIONSELEMENTE
100
AcDbLine
 62
7
  6
CONTINUOUS
 10
131.3294657648
 20
85.1077874312
 11
134.4616296116
 21
86.6696932018
  0
LINE
  5
55C
100
AcDbEntity
  8
KONSTRUKTIONSELEMENTE
100
AcDbLine
 62
7
  6
CONTINUOUS
 10
132.9895857012
 20
81.7768235949
 11
133.4343669751
 21
81.819338406
  0
LINE
  5
55D
100
AcDbEntity
  8
KONSTRUKTIONSELEMENTE
100
AcDbLine
 62
7
  6
CONTINUOUS
 10
131.8823811712
 20
82.4034795207
 11
132.9202040052
 21
82.5026807334
  0
LINE
  5
55E
100
AcDbEntity
  8
KONSTRUKTIONSELEMENTE
100
AcDbLine
 62
7
  6
CONTINUOUS
 10
133.3649852791
 20
82.5451955445
 11
135.3665007522
 21
82.7365121698
  0
LINE
  5
55F
100
AcDbEntity
  8
KONSTRUKTIONSELEMENTE
100
AcDbLine
 62
7
  6
CONTINUOUS
 10
134.7318301109
 20
83.1153407158
 11
133.323356198
 21
82.9807104921
  0
LINE
  5
560
100
AcDbEntity
  8
KONSTRUKTIONSELEMENTE
100
AcDbLine
 62
7
  6
CONTINUOUS
 10
132.8785749241
 20
82.938195681
 11
131.84075209
 21
82.8389944683
  0
LINE
  5
561
100
AcDbEntity
  8
0
100
AcDbLine
 62
7
  6
CONTINUOUS
 10
104.6781340539
 20
80.7570610687
 11
105.1805958032
 21
80.7570610687
  0
LINE
  5
562
100
AcDbEntity
  8
0
100
AcDbLine
 62
7
  6
CONTINUOUS
 10
104.613042092
 20
81.6570610687
 11
105.1136055253
 21
81.6570610687
  0
LINE
  5
563
100
AcDbEntity
  8
0
100
AcDbLine
 62
7
  6
CONTINUOUS
 10
150.5936258387
 20
82.4870610687
 11
150.8871860841
 21
82.4870610687
  0
LINE
  5
564
100
AcDbEntity
  8
KONSTRUKTIONSELEMENTE
100
AcDbLine
 62
7
  6
CONTINUOUS
 10
118.2921098181
 20
82.9347505744
 11
116.7611037171
 21
83.2534730111
  0
LINE
  5
565
100
AcDbEntity
  8
KONSTRUKTIONSELEMENTE
100
AcDbLine
 62
7
  6
CONTINUOUS
 10
116.3236734609
 20
83.3445365523
 11
115.2300976161
 21
83.5721954478
  0
LINE
  5
566
100
AcDbEntity
  8
KONSTRUKTIONSELEMENTE
100
AcDbLine
 62
7
  6
CONTINUOUS
 10
116.0390545028
 20
85.2657867424
 11
116.2577698351
 21
85.2202549293
  0
LINE
  5
567
100
AcDbEntity
  8
KONSTRUKTIONSELEMENTE
100
AcDbLine
 62
7
  6
CONTINUOUS
 10
116.4198412725
 20
85.6333948494
 11
116.1282208975
 21
85.6941039193
  0
LINE
  5
568
100
AcDbEntity
  8
KONSTRUKTIONSELEMENTE
100
AcDbLine
 62
7
  6
CONTINUOUS
 10
118.6937339412
 20
86.742598965
 11
118.4177684961
 21
86.8763441811
  0
LINE
  5
569
100
AcDbEntity
  8
KONSTRUKTIONSELEMENTE
100
AcDbLine
 62
7
  6
CONTINUOUS
 10
122.4806319602
 20
91.5210363728
 11
122.6594633165
 21
91.271909787
  0
LINE
  5
56A
100
AcDbEntity
  8
KONSTRUKTIONSELEMENTE
100
AcDbLine
 62
7
  6
CONTINUOUS
 10
123.0653430907
 20
91.4352127537
 11
122.8587154102
 21
91.7534254438
  0
LINE
  5
56B
100
AcDbEntity
  8
0
100
AcDbLine
 62
7
  6
CONTINUOUS
 10
130.8671285306
 20
82.4870610687
 11
127.9803771847
 21
87.4870610687
  0
LINE
  5
56C
100
AcDbEntity
  8
KONSTRUKTIONSELEMENTE
100
AcDbLine
 62
7
  6
CONTINUOUS
 10
131.84075209
 20
82.8389944683
 11
131.8823811712
 21
82.4034795207
  0
LINE
  5
56D
100
AcDbEntity
  8
KONSTRUKTIONSELEMENTE
100
AcDbLine
 62
7
  6
CONTINUOUS
 10
132.7120585995
 20
84.6802554715
 11
132.8785749241
 21
82.938195681
  0
LINE
  5
56E
100
AcDbEntity
  8
KONSTRUKTIONSELEMENTE
100
AcDbLine
 62
7
  6
CONTINUOUS
 10
132.9202040052
 20
82.5026807334
 11
132.9895857012
 21
81.7768235949
  0
LINE
  5
56F
100
AcDbEntity
  8
KONSTRUKTIONSELEMENTE
100
AcDbLine
 62
7
  6
CONTINUOUS
 10
133.4343669751
 20
81.819338406
 11
133.3649852791
 21
82.5451955445
  0
LINE
  5
570
100
AcDbEntity
  8
KONSTRUKTIONSELEMENTE
100
AcDbLine
 62
7
  6
CONTINUOUS
 10
133.323356198
 20
82.9807104921
 11
133.2054070289
 21
84.214670618
  0
LINE
  5
571
100
AcDbEntity
  8
KONSTRUKTIONSELEMENTE
100
AcDbLine
 62
7
  6
CONTINUOUS
 10
133.1568398734
 20
84.7227702826
 11
132.7120585995
 21
84.6802554715
  0
LINE
  5
572
100
AcDbEntity
  8
0
100
AcDbLine
 62
7
  6
CONTINUOUS
 10
104.6164574241
 20
83.3870610687
 11
105.117120099
 21
83.3870610687
  0
LINE
  5
573
100
AcDbEntity
  8
0
100
AcDbLine
 62
7
  6
CONTINUOUS
 10
104.6851293002
 20
84.2870610687
 11
105.1877959258
 21
84.2870610687
  0
LINE
  5
574
100
AcDbEntity
  8
0
100
AcDbLine
 62
7
  6
CONTINUOUS
 10
104.7109546358
 20
84.5245610687
 11
105.2143791025
 21
84.5245610687
  0
LINE
  5
575
100
AcDbEntity
  8
0
100
AcDbLine
 62
7
  6
CONTINUOUS
 10
104.7358500159
 20
84.7295441952
 11
105.2400072325
 21
84.7295441952
  0
LINE
  5
576
100
AcDbEntity
  8
0
100
AcDbLine
 62
7
  6
CONTINUOUS
 10
105.3076950625
 20
85.1870610687
 11
104.8008893242
 21
85.1870610687
  0
LINE
  5
577
100
AcDbEntity
  8
KONSTRUKTIONSELEMENTE
100
AcDbLine
 62
7
  6
CONTINUOUS
 10
118.9588214577
 20
86.7125074341
 11
118.6937339412
 21
86.742598965
  0
LINE
  5
578
100
AcDbEntity
  8
KONSTRUKTIONSELEMENTE
100
AcDbLine
 62
7
  6
CONTINUOUS
 10
118.4721598685
 20
86.3580778445
 11
118.7946160734
 21
86.2805064679
  0
LINE
  5
579
100
AcDbEntity
  8
KONSTRUKTIONSELEMENTE
100
AcDbLine
 62
7
  6
CONTINUOUS
 10
122.2619496273
 20
91.6738598727
 11
122.4806319602
 21
91.5210363728
  0
LINE
  5
57A
100
AcDbEntity
  8
KONSTRUKTIONSELEMENTE
100
AcDbLine
 62
7
  6
CONTINUOUS
 10
133.2054070289
 20
84.214670618
 11
134.7318301109
 21
83.1153407158
  0
LINE
  5
57B
100
AcDbEntity
  8
KONSTRUKTIONSELEMENTE
100
AcDbLine
 62
7
  6
CONTINUOUS
 10
122.8587154102
 20
91.7534254438
 11
122.6122369088
 21
91.9753346609
  0
LINE
  5
57C
100
AcDbEntity
  8
KONSTRUKTIONSELEMENTE
100
AcDbLine
 62
7
  6
CONTINUOUS
 10
131.1342275434
 20
85.499307912
 11
131.3294657648
 21
85.1077874312
  0
LINE
  5
57D
100
AcDbEntity
  8
KONSTRUKTIONSELEMENTE
100
AcDbLine
 62
7
  6
CONTINUOUS
 10
135.3665007522
 20
82.7365121698
 11
135.324871671
 21
83.1720271174
  0
LINE
  5
57E
100
AcDbEntity
  8
0
100
AcDbLine
 62
7
  6
CONTINUOUS
 10
139.2227688327
 20
106.8486025967
 11
138.5382650286
 21
101.9781049541
  0
LINE
  5
57F
100
AcDbEntity
  8
KONSTRUKTIONSELEMENTE
100
AcDbLine
 62
7
  6
CONTINUOUS
 10
118.7676639373
 20
85.2191089195
 11
116.9570981589
 21
84.9257101045
  0
LINE
  5
580
100
AcDbEntity
  8
KONSTRUKTIONSELEMENTE
100
AcDbLine
 62
7
  6
CONTINUOUS
 10
117.0137418283
 20
84.4670383117
 11
118.6636364485
 21
84.7194054102
  0
LINE
  5
581
100
AcDbEntity
  8
KONSTRUKTIONSELEMENTE
100
AcDbLine
 62
7
  6
CONTINUOUS
 10
115.8054783231
 20
85.2399323849
 11
116.0390545028
 21
85.2657867424
  0
LINE
  5
582
100
AcDbEntity
  8
KONSTRUKTIONSELEMENTE
100
AcDbLine
 62
7
  6
CONTINUOUS
 10
116.1282208975
 20
85.6941039193
 11
115.8946447178
 21
85.6682495619
  0
LINE
  5
583
100
AcDbEntity
  8
KONSTRUKTIONSELEMENTE
100
AcDbLine
 62
7
  6
CONTINUOUS
 10
118.7946160734
 20
86.2805064679
 11
119.2100530321
 21
86.31528205
  0
LINE
  5
584
100
AcDbEntity
  8
0
100
AcDbLine
 62
7
  6
CONTINUOUS
 10
127.9803771847
 20
87.4870610687
 11
122.2068744928
 21
87.4870610687
  0
LINE
  5
585
100
AcDbEntity
  8
KONSTRUKTIONSELEMENTE
100
AcDbLine
 62
7
  6
CONTINUOUS
 10
133.0715263418
 20
86.9542535647
 11
133.7332571821
 21
86.7953574129
  0
LINE
  5
586
100
AcDbEntity
  8
KONSTRUKTIONSELEMENTE
100
AcDbLine
 62
7
  6
CONTINUOUS
 10
134.2663913903
 20
87.0612136826
 11
133.6046607368
 21
87.2201099275
  0
LINE
  5
587
100
AcDbEntity
  8
KONSTRUKTIONSELEMENTE
100
AcDbLine
 62
7
  6
CONTINUOUS
 10
122.6122369088
 20
91.9753346609
 11
122.2304656654
 21
92.1428097633
  0
LINE
  5
588
100
AcDbEntity
  8
KONSTRUKTIONSELEMENTE
100
AcDbLine
 62
7
  6
CONTINUOUS
 10
135.324871671
 20
83.1720271174
 11
133.1568398734
 21
84.7227702826
  0
LINE
  5
589
100
AcDbEntity
  8
KONSTRUKTIONSELEMENTE
100
AcDbLine
 62
7
  6
CONTINUOUS
 10
128.0892860399
 20
88.7839666547
 11
128.4245456177
 21
88.5028843437
  0
LINE
  5
58A
100
AcDbEntity
  8
KONSTRUKTIONSELEMENTE
100
AcDbLine
 62
7
  6
CONTINUOUS
 10
129.2068175394
 20
87.8470259755
 11
129.6538311623
 21
87.4722488461
  0
LINE
  5
58B
100
AcDbEntity
  8
KONSTRUKTIONSELEMENTE
100
AcDbLine
 62
7
  6
CONTINUOUS
 10
130.436103084
 20
86.8163904779
 11
130.7713626618
 21
86.5353081669
  0
LINE
  5
58C
100
AcDbEntity
  8
KONSTRUKTIONSELEMENTE
100
AcDbLine
 62
7
  6
CONTINUOUS
 10
134.4616296116
 20
86.6696932018
 11
134.2663913903
 21
87.0612136826
  0
LINE
  5
58D
100
AcDbEntity
  8
0
100
AcDbLine
 62
7
  6
CONTINUOUS
 10
138.9370355388
 20
62.3959032427
 11
138.7921267425
 21
63.2037421032
  0
LINE
  5
58E
100
AcDbEntity
  8
RUNDUNGEN
100
AcDbLine
 62
7
  6
CONTINUOUS
 10
139.2227688327
 20
58.1255195407
 11
138.5382650286
 21
62.9960171833
  0
LINE
  5
58F
100
AcDbEntity
  8
RUNDUNGEN
100
AcDbLine
 62
7
  6
CONTINUOUS
 10
138.6900503145
 20
64.5268958116
 11
138.7355131077
 21
63.6769967495
  0
LINE
  5
590
100
AcDbEntity
  8
RUNDUNGEN
100
AcDbLine
 62
7
  6
CONTINUOUS
 10
138.6256526238
 20
65.9109067216
 11
138.6900503145
 21
64.5268958116
  0
LINE
  5
591
100
AcDbEntity
  8
RUNDUNGEN
100
AcDbLine
 62
7
  6
CONTINUOUS
 10
138.5648288535
 20
67.4252545191
 11
138.6256526238
 21
65.9109067216
  0
LINE
  5
592
100
AcDbEntity
  8
0
100
AcDbLine
 62
7
  6
CONTINUOUS
 10
138.5097332224
 20
68.9417492485
 11
138.5097405626
 21
68.9415410054
  0
LINE
  5
593
100
AcDbEntity
  8
RUNDUNGEN
100
AcDbLine
 62
7
  6
CONTINUOUS
 10
138.475657473
 20
69.9302096678
 11
138.5648288535
 21
67.4252545191
  0
LINE
  5
594
100
AcDbEntity
  8
RUNDUNGEN
100
AcDbLine
 62
7
  6
CONTINUOUS
 10
138.4115740357
 20
72.075566597
 11
138.475657473
 21
69.9302096678
  0
LINE
  5
595
100
AcDbEntity
  8
RUNDUNGEN
100
AcDbLine
 62
7
  6
CONTINUOUS
 10
138.3638078377
 20
74.0614090425
 11
138.4115740357
 21
72.075566597
  0
LWPOLYLINE
  5
596
100
AcDbEntity
  8
RUNDUNGEN
100
AcDbPolyline
 62
7
  6
CONTINUOUS
 90
5
 70
0
 10
138.3436258018
 20
75.2803273979
 10
138.3438788362
 20
75.1730006199
 10
138.3447866471
 20
75.0515943635
 10
138.3463336466
 20
74.9326876492
 10
138.3638078377
 20
74.0614090425
  0
LWPOLYLINE
  5
597
100
AcDbEntity
  8
0
100
AcDbPolyline
 62
7
  6
CONTINUOUS
 90
4
 70
0
 10
138.3463336466
 20
90.0414344882
 10
138.3447866471
 20
89.9225277739
 10
138.3438788362
 20
89.8011215175
 10
138.3436258387
 20
75.280293416
  0
LINE
  5
598
100
AcDbEntity
  8
0
100
AcDbLine
 62
7
  6
CONTINUOUS
 10
138.3858508831
 20
91.8855603798
 11
138.3463336466
 21
90.0414344882
  0
LINE
  5
599
100
AcDbEntity
  8
0
100
AcDbLine
 62
7
  6
CONTINUOUS
 10
138.4413565151
 20
93.9510643427
 11
138.3858508831
 21
91.8855603798
  0
LINE
  5
59A
100
AcDbEntity
  8
0
100
AcDbLine
 62
7
  6
CONTINUOUS
 10
138.5097332224
 20
96.0323728889
 11
138.4413565151
 21
93.9510643427
  0
LINE
  5
59B
100
AcDbEntity
  8
0
100
AcDbLine
 62
7
  6
CONTINUOUS
 10
138.5648288535
 20
97.5488676183
 11
138.5097405672
 21
96.0325814119
  0
LWPOLYLINE
  5
59C
100
AcDbEntity
  8
0
100
AcDbPolyline
 62
7
  6
CONTINUOUS
 90
3
 70
0
 10
138.6900503145
 20
100.4472263258
 10
138.6256526238
 20
99.0632154158
 10
138.5648288535
 20
97.5488676183
  0
LINE
  5
59D
100
AcDbEntity
  8
0
100
AcDbLine
 62
7
  6
CONTINUOUS
 10
138.7355131077
 20
101.2971253879
 11
138.6900503145
 21
100.4472263258
  0
LINE
  5
59E
100
AcDbEntity
  8
BEZUGSACHSEN
100
AcDbLine
 62
7
  6
CONTINUOUS
 10
132.021829069
 20
70.4870610687
 11
138.3436258387
 21
81.436734269
  0
LINE
  5
59F
100
AcDbEntity
  8
0
100
AcDbLine
 62
7
  6
CONTINUOUS
 10
105.7228677333
 20
88.7170610687
 11
106.25793033
 21
88.7170610687
  0
LINE
  5
5A0
100
AcDbEntity
  8
0
100
AcDbLine
 62
7
  6
CONTINUOUS
 10
106.093730601
 20
89.6287278744
 11
106.6414255077
 21
89.6287278744
  0
LINE
  5
5A1
100
AcDbEntity
  8
0
100
AcDbLine
 62
7
  6
CONTINUOUS
 10
106.362797481
 20
90.2120610687
 11
106.9200440563
 21
90.2120610687
  0
LINE
  5
5A2
100
AcDbEntity
  8
KONSTRUKTIONSELEMENTE
100
AcDbLine
 62
7
  6
CONTINUOUS
 10
122.0034172475
 20
91.7303802109
 11
122.2619496273
 21
91.6738598727
  0
LINE
  5
5A3
100
AcDbEntity
  8
KONSTRUKTIONSELEMENTE
100
AcDbLine
 62
7
  6
CONTINUOUS
 10
133.0200211495
 20
89.2173847888
 11
132.5171317829
 21
89.6390082552
  0
LINE
  5
5A4
100
AcDbEntity
  8
KONSTRUKTIONSELEMENTE
100
AcDbLine
 62
7
  6
CONTINUOUS
 10
130.8408338943
 20
91.0444198101
 11
130.3379445277
 21
91.4660432765
  0
LINE
  5
5A5
100
AcDbEntity
  8
BEZUGSACHSEN
100
AcDbLine
 62
7
  6
CONTINUOUS
 10
138.3436258387
 20
83.5373878684
 11
132.021829069
 21
94.4870610687
  0
LINE
  5
5A6
100
AcDbEntity
  8
RUNDUNGEN
100
AcDbLine
 62
7
  6
CONTINUOUS
 10
139.5936258387
 20
67.7078796147
 11
139.5936258387
 21
61.9267160499
  0
LINE
  5
5A7
100
AcDbEntity
  8
0
100
AcDbLine
 62
7
  6
CONTINUOUS
 10
139.5936258387
 20
55.8927519663
 11
139.5936258387
 21
55.9487657234
  0
LINE
  5
5A8
100
AcDbEntity
  8
0
100
AcDbLine
 62
7
  6
CONTINUOUS
 10
139.5936258387
 20
67.7078796147
 11
139.5936258387
 21
103.0474060875
  0
LINE
  5
5A9
100
AcDbEntity
  8
0
100
AcDbLine
 62
7
  6
CONTINUOUS
 10
140.0936258387
 20
55.8448092454
 11
140.0936258387
 21
55.3207061095
  0
LINE
  5
5AA
100
AcDbEntity
  8
0
100
AcDbLine
 62
7
  6
CONTINUOUS
 10
140.0936258387
 20
109.129312892
 11
140.0936258387
 21
109.6534160279
  0
LINE
  5
5AB
100
AcDbEntity
  8
RUNDUNGEN
100
AcDbLine
 62
7
  6
CONTINUOUS
 10
140.3936258387
 20
55.4369449063
 11
140.3936258387
 21
55.0785632602
  0
LINE
  5
5AC
100
AcDbEntity
  8
0
100
AcDbLine
 62
7
  6
CONTINUOUS
 10
140.3936258387
 20
55.0785632602
 11
140.3936258387
 21
55.0686800329
  0
LINE
  5
5AD
100
AcDbEntity
  8
0
100
AcDbLine
 62
7
  6
CONTINUOUS
 10
140.3936258387
 20
109.5371772311
 11
140.3936258387
 21
109.9054421045
  0
LINE
  5
5AE
100
AcDbEntity
  8
KONSTRUKTIONSELEMENTE
100
AcDbLine
 62
7
  6
CONTINUOUS
 10
121.7050347431
 20
91.690597581
 11
122.0034172475
 21
91.7303802109
  0
LINE
  5
5AF
100
AcDbEntity
  8
0
100
AcDbLine
 62
7
  6
CONTINUOUS
 10
107.6193315008
 20
92.3995610687
 11
108.2260890936
 21
92.3995610687
  0
LINE
  5
5B0
100
AcDbEntity
  8
0
100
AcDbLine
 62
7
  6
CONTINUOUS
 10
107.9235010126
 20
92.8370610687
 11
108.5436258387
 21
92.8370610687
  0
LINE
  5
5B1
100
AcDbEntity
  8
KONSTRUKTIONSELEMENTE
100
AcDbLine
 62
7
  6
CONTINUOUS
 10
122.2304656654
 20
92.1428097633
 11
121.9042869147
 21
92.1721130443
  0
LINE
  5
5B2
100
AcDbEntity
  8
KONSTRUKTIONSELEMENTE
100
AcDbLine
 62
7
  6
CONTINUOUS
 10
121.9042869147
 20
92.1721130443
 11
121.5382572652
 21
92.1051130457
  0
LINE
  5
5B3
100
AcDbEntity
  8
0
100
AcDbLine
 62
7
  6
CONTINUOUS
 10
108.3606104021
 20
93.4203944716
 11
109.0010353593
 21
93.4203944716
  0
LINE
  5
5B4
100
AcDbEntity
  8
0
100
AcDbLine
 62
7
  6
CONTINUOUS
 10
108.7140019362
 20
93.8578944716
 11
109.3718623609
 21
93.8578944716
  0
LINE
  5
5B5
100
AcDbEntity
  8
BEZUGSACHSEN
100
AcDbLine
 62
7
  6
CONTINUOUS
 10
132.021829069
 20
94.4870610687
 11
118.1654226084
 21
94.4870610687
  0
LINE
  5
5B6
100
AcDbEntity
  8
0
100
AcDbLine
 62
7
  6
CONTINUOUS
 10
109.6350029251
 20
94.8787277701
 11
110.3432468297
 21
94.8787277701
  0
LINE
  5
5B7
100
AcDbEntity
  8
0
100
AcDbLine
 62
7
  6
CONTINUOUS
 10
110.717476702
 20
95.8995610687
 11
111.4961678992
 21
95.8995610687
  0
LINE
  5
5B8
100
AcDbEntity
  8
0
100
AcDbLine
 62
7
  6
CONTINUOUS
 10
111.2422745696
 20
96.3370610687
 11
112.0606301663
 21
96.3370610687
  0
LINE
  5
5B9
100
AcDbEntity
  8
RUNDUNGEN
100
AcDbLine
 62
7
  6
CONTINUOUS
 10
155.5936258387
 20
99.7370610687
 11
151.5302451794
 21
99.7370610687
  0
LINE
  5
5BA
100
AcDbEntity
  8
RUNDUNGEN
100
AcDbLine
 62
7
  6
CONTINUOUS
 10
138.657006498
 20
99.7370610687
 11
122.3436258387
 21
99.7370610687
  0
LINE
  5
5BB
100
AcDbEntity
  8
0
100
AcDbLine
 62
7
  6
CONTINUOUS
 10
149.7936258387
 20
55.4369449063
 11
149.7936258387
 21
55.0686800329
  0
LINE
  5
5BC
100
AcDbEntity
  8
0
100
AcDbLine
 62
7
  6
CONTINUOUS
 10
149.7936258387
 20
109.5371772311
 11
149.7936258387
 21
109.9054421045
  0
LINE
  5
5BD
100
AcDbEntity
  8
0
100
AcDbLine
 62
7
  6
CONTINUOUS
 10
150.0936258387
 20
55.8448092454
 11
150.0936258387
 21
55.3207061095
  0
LINE
  5
5BE
100
AcDbEntity
  8
0
100
AcDbLine
 62
7
  6
CONTINUOUS
 10
150.0936258387
 20
109.129312892
 11
150.0936258387
 21
109.6534160279
  0
LINE
  5
5BF
100
AcDbEntity
  8
0
100
AcDbLine
 62
7
  6
CONTINUOUS
 10
150.5936258387
 20
61.9267160499
 11
150.5936258387
 21
103.0474060875
  0
LINE
  5
5C0
100
AcDbEntity
  8
0
100
AcDbLine
 62
7
  6
CONTINUOUS
 10
151.4972013629
 20
100.4472263258
 11
151.4517385697
 21
101.2971253879
  0
LINE
  5
5C1
100
AcDbEntity
  8
0
100
AcDbLine
 62
7
  6
CONTINUOUS
 10
151.5615990536
 20
99.0632154158
 11
151.4972013629
 21
100.4472263258
  0
LINE
  5
5C2
100
AcDbEntity
  8
0
100
AcDbLine
 62
7
  6
CONTINUOUS
 10
151.622422824
 20
97.5488676183
 11
151.5615990536
 21
99.0632154158
  0
LINE
  5
5C3
100
AcDbEntity
  8
0
100
AcDbLine
 62
7
  6
CONTINUOUS
 10
151.7115942044
 20
95.0439124696
 11
151.622422824
 21
97.5488676183
  0
LINE
  5
5C4
100
AcDbEntity
  8
0
100
AcDbLine
 62
7
  6
CONTINUOUS
 10
151.7756776418
 20
92.8985555404
 11
151.7115942044
 21
95.0439124696
  0
LINE
  5
5C5
100
AcDbEntity
  8
0
100
AcDbLine
 62
7
  6
CONTINUOUS
 10
151.8234438398
 20
90.9127130949
 11
151.7756776418
 21
92.8985555404
  0
LWPOLYLINE
  5
5C6
100
AcDbEntity
  8
0
100
AcDbPolyline
 62
7
  6
CONTINUOUS
 90
4
 70
0
 10
151.8433728413
 20
89.8011215175
 10
151.8424650303
 20
89.9225277739
 10
151.8409180309
 20
90.0414344882
 10
151.8234438398
 20
90.9127130949
  0
LINE
  5
5C7
100
AcDbEntity
  8
0
100
AcDbLine
 62
7
  6
CONTINUOUS
 10
151.8433728413
 20
89.8011215175
 11
151.8436258387
 21
75.280293416
  0
LWPOLYLINE
  5
5C8
100
AcDbEntity
  8
0
100
AcDbPolyline
 62
7
  6
CONTINUOUS
 90
4
 70
0
 10
151.8409180309
 20
74.9326876492
 10
151.8424650303
 20
75.0515943635
 10
151.8433728413
 20
75.1730006199
 10
151.8436258757
 20
75.2803273979
  0
LINE
  5
5C9
100
AcDbEntity
  8
0
100
AcDbLine
 62
7
  6
CONTINUOUS
 10
151.8014007944
 20
73.0885617576
 11
151.8409180309
 21
74.9326876492
  0
LINE
  5
5CA
100
AcDbEntity
  8
0
100
AcDbLine
 62
7
  6
CONTINUOUS
 10
151.7458951623
 20
71.0230577947
 11
151.8014007944
 21
73.0885617576
  0
LINE
  5
5CB
100
AcDbEntity
  8
0
100
AcDbLine
 62
7
  6
CONTINUOUS
 10
151.6775184551
 20
68.9417492485
 11
151.7458951623
 21
71.0230577947
  0
LINE
  5
5CC
100
AcDbEntity
  8
0
100
AcDbLine
 62
7
  6
CONTINUOUS
 10
151.622422824
 20
67.4252545191
 11
151.6775111103
 21
68.9415407255
  0
LWPOLYLINE
  5
5CD
100
AcDbEntity
  8
0
100
AcDbPolyline
 62
7
  6
CONTINUOUS
 90
3
 70
0
 10
151.4972013629
 20
64.5268958116
 10
151.5615990536
 20
65.9109067216
 10
151.622422824
 20
67.4252545191
  0
LINE
  5
5CE
100
AcDbEntity
  8
0
100
AcDbLine
 62
7
  6
CONTINUOUS
 10
151.4517385697
 20
63.6769967495
 11
151.4972013629
 21
64.5268958116
  0
LINE
  5
5CF
100
AcDbEntity
  8
0
100
AcDbLine
 62
7
  6
CONTINUOUS
 10
150.9644828447
 20
58.1255195407
 11
151.6489866488
 21
62.9960171833
  0
LINE
  5
5D0
100
AcDbEntity
  8
0
100
AcDbLine
 62
7
  6
CONTINUOUS
 10
150.9644828447
 20
106.8486025967
 11
151.6489866488
 21
101.9781049541
  0
LINE
  5
5D1
100
AcDbEntity
  8
0
100
AcDbLine
 62
7
  6
CONTINUOUS
 10
151.2502161387
 20
62.3959032427
 11
151.3951249349
 21
63.2037421032
  0
LINE
  5
5D2
100
AcDbEntity
  8
0
100
AcDbLine
 62
7
  6
CONTINUOUS
 10
150.9122665811
 20
108.2806413304
 11
150.0587623937
 21
108.2806413304
  0
LINE
  5
5D3
100
AcDbEntity
  8
0
100
AcDbLine
 62
7
  6
CONTINUOUS
 10
140.1284892837
 20
108.2806413304
 11
139.2749850963
 21
108.2806413304
  0
LINE
  5
5D4
100
AcDbEntity
  8
RUNDUNGEN
100
AcDbLine
 62
7
  6
CONTINUOUS
 10
157.0936258387
 20
66.7370610687
 11
157.0936258387
 21
98.2370610687
  0
LINE
  5
5D5
100
AcDbEntity
  8
0
100
AcDbLine
 62
7
  6
CONTINUOUS
 10
142.1290827101
 20
110.4867963621
 11
142.1689345528
 21
110.4870610687
  0
LINE
  5
5D6
100
AcDbEntity
  8
0
100
AcDbLine
 62
7
  6
CONTINUOUS
 10
150.5288967605
 20
109.129312892
 11
150.0936258387
 21
109.129312892
  0
LINE
  5
5D7
100
AcDbEntity
  8
0
100
AcDbLine
 62
7
  6
CONTINUOUS
 10
139.6583549169
 20
109.129312892
 11
140.0936258387
 21
109.129312892
  0
LINE
  5
5D8
100
AcDbEntity
  8
0
100
AcDbLine
 62
7
  6
CONTINUOUS
 10
140.3936258387
 20
109.7552346617
 11
140.2053871706
 21
109.7552346617
  0
LINE
  5
5D9
100
AcDbEntity
  8
0
100
AcDbLine
 62
7
  6
CONTINUOUS
 10
149.7936258387
 20
109.7552346617
 11
149.9818645068
 21
109.7552346617
  0
LINE
  5
5DA
100
AcDbEntity
  8
0
100
AcDbLine
 62
7
  6
CONTINUOUS
 10
142.1554734689
 20
110.4870282742
 11
148.0159372659
 21
110.4870610687
  0
LINE
  5
5DB
100
AcDbEntity
  8
0
100
AcDbLine
 62
7
  6
CONTINUOUS
 10
148.0317779323
 20
110.4870282743
 11
148.0160440776
 21
110.4870613994
  0
LINE
  5
5DC
100
AcDbEntity
  8
0
100
AcDbLine
 62
7
  6
CONTINUOUS
 10
148.0582004421
 20
110.4867959438
 11
148.0183171246
 21
110.4870610687
  0
LINE
  5
5DD
100
AcDbEntity
  8
0
100
AcDbLine
 62
7
  6
CONTINUOUS
 10
149.7750098918
 20
55.0551306311
 11
149.7936258387
 21
55.0686864716
  0
LINE
  5
5DE
100
AcDbEntity
  8
0
100
AcDbLine
 62
7
  6
CONTINUOUS
 10
149.7205704057
 20
55.0167661847
 11
149.7936258387
 21
55.0687346605
  0
LINE
  5
5DF
100
AcDbEntity
  8
0
100
AcDbLine
 62
7
  6
CONTINUOUS
 10
149.6849515695
 20
54.9925517756
 11
149.7303120372
 21
55.0234611419
  0
LWPOLYLINE
  5
5E0
100
AcDbEntity
  8
0
100
AcDbPolyline
 62
7
  6
CONTINUOUS
 90
3
 70
0
 10
149.6005297775
 20
54.9384215858
 10
149.6079178608
 20
54.9428143161
 10
149.7205704057
 20
55.0167661847
  0
LWPOLYLINE
  5
5E1
100
AcDbEntity
  8
0
100
AcDbPolyline
 62
7
  6
CONTINUOUS
 90
3
 70
0
 10
149.3867767372
 20
54.8175202365
 10
149.4943410094
 20
54.8752849645
 10
149.5866755532
 20
54.9301842842
  0
LINE
  5
5E2
100
AcDbEntity
  8
0
100
AcDbLine
 62
7
  6
CONTINUOUS
 10
149.15241078
 20
54.7096794536
 11
149.1883756549
 21
54.7252402041
  0
LINE
  5
5E3
100
AcDbEntity
  8
0
100
AcDbLine
 62
7
  6
CONTINUOUS
 10
149.0391042846
 20
54.6660667257
 11
149.15241078
 21
54.7096794536
  0
LWPOLYLINE
  5
5E4
100
AcDbEntity
  8
0
100
AcDbPolyline
 62
7
  6
CONTINUOUS
 90
3
 70
0
 10
149.2665301416
 20
110.2150608313
 10
149.1525332385
 20
110.2643926772
 10
149.0390965645
 20
110.3080582052
  0
LWPOLYLINE
  5
5E5
100
AcDbEntity
  8
0
100
AcDbPolyline
 62
7
  6
CONTINUOUS
 90
3
 70
0
 10
149.4948727316
 20
110.0985366041
 10
149.3807704042
 20
110.1598387976
 10
149.2665301416
 20
110.2150608313
  0
LINE
  5
5E6
100
AcDbEntity
  8
0
100
AcDbLine
 62
7
  6
CONTINUOUS
 10
149.6084467638
 20
110.0309772965
 11
149.4948727316
 21
110.0985366041
  0
LINE
  5
5E7
100
AcDbEntity
  8
0
100
AcDbLine
 62
7
  6
CONTINUOUS
 10
149.7210671261
 20
109.9570135953
 11
149.6084467638
 21
110.0309772965
  0
LINE
  5
5E8
100
AcDbEntity
  8
0
100
AcDbLine
 62
7
  6
CONTINUOUS
 10
149.7936258387
 20
109.9053874769
 11
149.7210671261
 21
109.9570135953
  0
LWPOLYLINE
  5
5E9
100
AcDbEntity
  8
0
100
AcDbPolyline
 62
7
  6
CONTINUOUS
 90
3
 70
0
 10
149.7936258387
 20
109.9054356658
 10
149.7515989698
 20
109.9357315509
 10
149.7012788921
 20
109.9705844139
  0
ARC
  5
5EA
100
AcDbEntity
  8
0
100
AcDbCircle
 62
7
  6
CONTINUOUS
 10
123.1060893398
 20
185.9171268907
 40
18.5124635012
100
AcDbArc
 50
179.0887329606
 51
179.7800630075
  0
ARC
  5
5EB
100
AcDbEntity
  8
0
100
AcDbCircle
 62
7
  6
CONTINUOUS
 10
123.1005231827
 20
185.9172538239
 40
18.5068961988
100
AcDbArc
 50
178.8581274043
 51
179.0887325081
  0
ARC
  5
5EC
100
AcDbEntity
  8
0
100
AcDbCircle
 62
7
  6
CONTINUOUS
 10
86.1435542046
 20
197.4654911242
 40
18.4694879159
100
AcDbArc
 50
359.5313253064
 51
359.9968187853
  0
ARC
  5
5ED
100
AcDbEntity
  8
0
100
AcDbCircle
 62
7
  6
CONTINUOUS
 10
86.6010928662
 20
197.4649808962
 40
18.077041195
100
AcDbArc
 50
357.460146152
 51
359.9983669066
  0
ARC
  5
5EE
100
AcDbEntity
  8
RUNDUNGEN
100
AcDbCircle
 62
7
  6
CONTINUOUS
 10
106.5936258387
 20
202.1794656489
 40
1.5
100
AcDbArc
 50
90.0
 51
180.0
  0
ARC
  5
5EF
100
AcDbEntity
  8
RUNDUNGEN
100
AcDbCircle
 62
7
  6
CONTINUOUS
 10
106.5936258387
 20
180.1794656489
 40
1.5
100
AcDbArc
 50
180.0
 51
270.0
  0
ARC
  5
5F0
100
AcDbEntity
  8
0
100
AcDbCircle
 62
7
  6
CONTINUOUS
 10
119.093621798
 20
245.0190366326
 40
31.9935772664
100
AcDbArc
 50
352.7365377036
 51
354.8661704772
  0
ARC
  5
5F1
100
AcDbEntity
  8
0
100
AcDbCircle
 62
7
  6
CONTINUOUS
 10
124.4138553761
 20
260.2087073388
 40
26.9396379142
100
AcDbArc
 50
353.2985177402
 51
354.9814069965
  0
ARC
  5
5F2
100
AcDbEntity
  8
0
100
AcDbCircle
 62
7
  6
CONTINUOUS
 10
124.2976297052
 20
235.6404671963
 40
26.7901086257
100
AcDbArc
 50
5.6222539408
 51
7.8162019836
  0
ARC
  5
5F3
100
AcDbEntity
  8
0
100
AcDbCircle
 62
7
  6
CONTINUOUS
 10
146.2270480213
 20
185.1371637373
 40
41.6334205356
100
AcDbArc
 50
178.9312423601
 51
179.2387301206
  0
ARC
  5
5F4
100
AcDbEntity
  8
RUNDUNGEN
100
AcDbCircle
 62
7
  6
CONTINUOUS
 10
144.5936258387
 20
191.1794656489
 40
12.5
100
AcDbArc
 50
270.0
 51
59.6334389829
  0
ARC
  5
5F5
100
AcDbEntity
  8
RUNDUNGEN
100
AcDbCircle
 62
7
  6
CONTINUOUS
 10
145.0936258387
 20
191.1794656489
 40
7.0
100
AcDbArc
 50
160.4276590571
 51
19.5723412736
  0
ARC
  5
5F6
100
AcDbEntity
  8
RUNDUNGEN
100
AcDbCircle
 62
7
  6
CONTINUOUS
 10
144.3436258387
 20
190.6794658728
 40
6.0
100
AcDbArc
 50
180.0000021385
 51
269.9999999997
  0
ARC
  5
5F7
100
AcDbEntity
  8
0
100
AcDbCircle
 62
7
  6
CONTINUOUS
 10
144.3436258387
 20
190.6794658728
 40
6.0
100
AcDbArc
 50
180.0000021385
 51
269.9999999997
  0
ARC
  5
5F8
100
AcDbEntity
  8
0
100
AcDbCircle
 62
7
  6
CONTINUOUS
 10
145.8436258387
 20
190.6794658728
 40
6.0
100
AcDbArc
 50
270.0000000003
 51
359.9999978615
  0
ARC
  5
5F9
100
AcDbEntity
  8
RUNDUNGEN
100
AcDbCircle
 62
7
  6
CONTINUOUS
 10
171.0936298793
 20
245.0190366326
 40
31.9935772663
100
AcDbArc
 50
185.1338295228
 51
187.2634622964
  0
ARC
  5
5FA
100
AcDbEntity
  8
0
100
AcDbCircle
 62
7
  6
CONTINUOUS
 10
165.7733963015
 20
260.2087073388
 40
26.9396379144
100
AcDbArc
 50
185.0185930035
 51
186.7014822598
  0
ARC
  5
5FB
100
AcDbEntity
  8
RUNDUNGEN
100
AcDbCircle
 62
7
  6
CONTINUOUS
 10
165.8896219722
 20
235.6404671963
 40
26.7901086257
100
AcDbArc
 50
172.1837980164
 51
174.3777460592
  0
ARC
  5
5FC
100
AcDbEntity
  8
0
100
AcDbCircle
 62
7
  6
CONTINUOUS
 10
155.5052857268
 20
247.7659779082
 40
16.3364039814
100
AcDbArc
 50
175.7706364776
 51
179.8666203086
  0
ARC
  5
5FD
100
AcDbEntity
  8
0
100
AcDbCircle
 62
7
  6
CONTINUOUS
 10
134.6819659506
 20
247.7659779082
 40
16.3364039814
100
AcDbArc
 50
0.1333796914
 51
4.2293635224
  0
ARC
  5
5FE
100
AcDbEntity
  8
RUNDUNGEN
100
AcDbCircle
 62
7
  6
CONTINUOUS
 10
154.0765384061
 20
243.4866387929
 40
14.9076292755
100
AcDbArc
 50
179.9824922438
 51
185.1202983878
  0
ARC
  5
5FF
100
AcDbEntity
  8
0
100
AcDbCircle
 62
7
  6
CONTINUOUS
 10
136.1107132713
 20
243.4866387929
 40
14.9076292755
100
AcDbArc
 50
354.8797016122
 51
0.0175077562
  0
ARC
  5
600
100
AcDbEntity
  8
0
100
AcDbCircle
 62
7
  6
CONTINUOUS
 10
136.1680347677
 20
243.4975071435
 40
14.8503084249
100
AcDbArc
 50
359.9756428295
 51
5.3616247053
  0
ARC
  5
601
100
AcDbEntity
  8
RUNDUNGEN
100
AcDbCircle
 62
7
  6
CONTINUOUS
 10
154.0192169097
 20
243.4975071435
 40
14.8503084249
100
AcDbArc
 50
174.6383752947
 51
180.0243571705
  0
ARC
  5
602
100
AcDbEntity
  8
0
100
AcDbCircle
 62
7
  6
CONTINUOUS
 10
138.5908850053
 20
237.0509031521
 40
12.4274329528
100
AcDbArc
 50
359.9800701631
 51
5.606815086
  0
ARC
  5
603
100
AcDbEntity
  8
0
100
AcDbCircle
 62
7
  6
CONTINUOUS
 10
151.5963666721
 20
237.0509031521
 40
12.4274329528
100
AcDbArc
 50
174.393184914
 51
180.0199298369
  0
ARC
  5
604
100
AcDbEntity
  8
0
100
AcDbCircle
 62
7
  6
CONTINUOUS
 10
138.7247116432
 20
247.775809293
 40
12.2936408804
100
AcDbArc
 50
354.3962418935
 51
0.052233044
  0
ARC
  5
605
100
AcDbEntity
  8
RUNDUNGEN
100
AcDbCircle
 62
7
  6
CONTINUOUS
 10
151.4625400342
 20
247.775809293
 40
12.2936408803
100
AcDbArc
 50
179.947766956
 51
185.6037581065
  0
ARC
  5
606
100
AcDbEntity
  8
RUNDUNGEN
100
AcDbCircle
 62
7
  6
CONTINUOUS
 10
145.0936258387
 20
264.9294656489
 40
6.75
100
AcDbArc
 50
180.0
 51
184.9969872603
  0
ARC
  5
607
100
AcDbEntity
  8
0
100
AcDbCircle
 62
7
  6
CONTINUOUS
 10
145.0936258387
 20
264.9294656489
 40
6.75
100
AcDbArc
 50
355.0030127397
 51
360.0
  0
ARC
  5
608
100
AcDbEntity
  8
RUNDUNGEN
100
AcDbCircle
 62
7
  6
CONTINUOUS
 10
133.0220851923
 20
240.1603148716
 40
6.3867547912
100
AcDbArc
 50
352.1119304257
 51
7.3196967487
  0
ARC
  5
609
100
AcDbEntity
  8
0
100
AcDbCircle
 62
7
  6
CONTINUOUS
 10
157.1651664852
 20
240.1603148716
 40
6.3867547912
100
AcDbArc
 50
172.6803032513
 51
187.8880695743
  0
ARC
  5
60A
100
AcDbEntity
  8
0
100
AcDbCircle
 62
7
  6
CONTINUOUS
 10
144.3436258382
 20
265.6794656418
 40
5.9999999995
100
AcDbArc
 50
147.2028316185
 51
179.9999999325
  0
ARC
  5
60B
100
AcDbEntity
  8
0
100
AcDbCircle
 62
7
  6
CONTINUOUS
 10
144.3436258382
 20
265.6794656418
 40
5.9999999995
100
AcDbArc
 50
89.9999999952
 51
142.3415379981
  0
ARC
  5
60C
100
AcDbEntity
  8
0
100
AcDbCircle
 62
7
  6
CONTINUOUS
 10
145.8436258392
 20
265.6794656418
 40
5.9999999995
100
AcDbArc
 50
37.6584620019
 51
90.0000000048
  0
ARC
  5
60D
100
AcDbEntity
  8
0
100
AcDbCircle
 62
7
  6
CONTINUOUS
 10
145.8436258392
 20
265.6794656418
 40
5.9999999995
100
AcDbArc
 50
0.0000000675
 51
32.7971683815
  0
ARC
  5
60E
100
AcDbEntity
  8
0
100
AcDbCircle
 62
7
  6
CONTINUOUS
 10
144.4966416555
 20
245.5493290424
 40
4.9228302181
100
AcDbArc
 50
209.3426491648
 51
213.5434675181
  0
ARC
  5
60F
100
AcDbEntity
  8
0
100
AcDbCircle
 62
7
  6
CONTINUOUS
 10
145.690610022
 20
245.5493290424
 40
4.9228302181
100
AcDbArc
 50
326.4565324819
 51
330.6573508352
  0
ARC
  5
610
100
AcDbEntity
  8
0
100
AcDbCircle
 62
7
  6
CONTINUOUS
 10
140.816709483
 20
265.992868443
 40
2.3389556038
100
AcDbArc
 50
174.7111932029
 51
178.3756407032
  0
ARC
  5
611
100
AcDbEntity
  8
0
100
AcDbCircle
 62
7
  6
CONTINUOUS
 10
149.3705421944
 20
265.992868443
 40
2.3389556039
100
AcDbArc
 50
1.6243592968
 51
5.2888067971
  0
ARC
  5
612
100
AcDbEntity
  8
RUNDUNGEN
100
AcDbCircle
 62
7
  6
CONTINUOUS
 10
141.5936258387
 20
262.5167875347
 40
2.0
100
AcDbArc
 50
180.0
 51
185.0
  0
ARC
  5
613
100
AcDbEntity
  8
RUNDUNGEN
100
AcDbCircle
 62
7
  6
CONTINUOUS
 10
138.3936258387
 20
253.1981019208
 40
2.0
100
AcDbArc
 50
0.0
 51
5.0
  0
ARC
  5
614
100
AcDbEntity
  8
0
100
AcDbCircle
 62
7
  6
CONTINUOUS
 10
151.7936258387
 20
253.1981019208
 40
2.0
100
AcDbArc
 50
175.0
 51
180.0
  0
ARC
  5
615
100
AcDbEntity
  8
0
100
AcDbCircle
 62
7
  6
CONTINUOUS
 10
148.5936258387
 20
262.5167875347
 40
2.0
100
AcDbArc
 50
355.0
 51
360.0
  0
ARC
  5
616
100
AcDbEntity
  8
BEZUGSACHSEN
100
AcDbCircle
 62
7
  6
CONTINUOUS
 10
256.5003060003
 20
202.8708631851
 40
16.2098031011
100
AcDbArc
 50
95.328312032
 51
95.5729146396
  0
ARC
  5
617
100
AcDbEntity
  8
BEZUGSACHSEN
100
AcDbCircle
 62
7
  6
CONTINUOUS
 10
256.469511401
 20
203.2548732119
 40
15.8245935302
100
AcDbArc
 50
90.0210892034
 51
95.3464104923
  0
ARC
  5
618
100
AcDbEntity
  8
0
100
AcDbCircle
 62
7
  6
CONTINUOUS
 10
246.4636862929
 20
196.6794656489
 40
12.0
100
AcDbArc
 50
180.0003296723
 51
264.0205928817
  0
ARC
  5
619
100
AcDbEntity
  8
0
100
AcDbCircle
 62
7
  6
CONTINUOUS
 10
249.4633985375
 20
204.1794008595
 40
5.9997122443
100
AcDbArc
 50
179.9993812772
 51
224.8948532676
  0
ARC
  5
61A
100
AcDbEntity
  8
0
100
AcDbCircle
 62
7
  6
CONTINUOUS
 10
262.4286862929
 20
197.4644656489
 40
1.765
100
AcDbArc
 50
180.0
 51
360.0
  0
ARC
  5
61B
100
AcDbEntity
  8
RUNDUNGEN
100
AcDbCircle
 62
7
  6
CONTINUOUS
 10
246.7136862929
 20
180.1794656489
 40
1.5
100
AcDbArc
 50
180.0
 51
270.0
  0
ARC
  5
61C
100
AcDbEntity
  8
RUNDUNGEN
100
AcDbCircle
 62
7
  6
CONTINUOUS
 10
246.7136862929
 20
202.1794656489
 40
1.5
100
AcDbArc
 50
90.0
 51
180.0
  0
ARC
  5
61D
100
AcDbEntity
  8
0
100
AcDbCircle
 62
7
  6
CONTINUOUS
 10
258.4486862929
 20
198.7944656489
 40
1.315
100
AcDbArc
 50
299.4573002513
 51
90.0
  0
ARC
  5
61E
100
AcDbEntity
  8
KONSTRUKTIONSELEMENTE
100
AcDbCircle
 62
7
  6
CONTINUOUS
 10
237.1507313146
 20
218.4062264763
 40
1.05
100
AcDbArc
 50
28.8138172904
 51
180.0
  0
ARC
  5
61F
100
AcDbEntity
  8
0
100
AcDbCircle
 62
7
  6
CONTINUOUS
 10
262.4286862929
 20
197.4644656489
 40
0.865
100
AcDbArc
 50
180.0
 51
360.0
  0
ARC
  5
620
100
AcDbEntity
  8
0
100
AcDbCircle
 62
7
  6
CONTINUOUS
 10
258.2986862929
 20
198.7944656489
 40
0.565
100
AcDbArc
 50
270.0
 51
90.0
  0
ARC
  5
621
100
AcDbEntity
  8
0
100
AcDbCircle
 62
7
  6
CONTINUOUS
 10
257.5959770392
 20
196.9694656489
 40
0.53
100
AcDbArc
 50
30.0
 51
90.0
  0
ARC
  5
622
100
AcDbEntity
  8
KONSTRUKTIONSELEMENTE
100
AcDbCircle
 62
7
  6
CONTINUOUS
 10
237.1507313146
 20
218.2862264763
 40
0.45
100
AcDbArc
 50
0.0
 51
180.0
  0
ARC
  5
623
100
AcDbEntity
  8
KONSTRUKTIONSELEMENTE
100
AcDbCircle
 62
7
  6
CONTINUOUS
 10
238.6107313146
 20
217.7190846327
 40
0.42
100
AcDbArc
 50
120.0
 51
180.0
  0
ARC
  5
624
100
AcDbEntity
  8
0
100
AcDbCircle
 62
7
  6
CONTINUOUS
 10
262.4636521635
 20
230.6798310733
 40
38.6653541422
100
AcDbArc
 50
89.9999494257
 51
101.8826990427
  0
ARC
  5
625
100
AcDbEntity
  8
0
100
AcDbCircle
 62
7
  6
CONTINUOUS
 10
262.4636862466
 20
230.6794656257
 40
27.4999999901
100
AcDbArc
 50
89.9999999034
 51
127.2037438846
  0
ARC
  5
626
100
AcDbEntity
  8
0
100
AcDbCircle
 62
7
  6
CONTINUOUS
 10
254.4636862929
 20
250.0959534878
 40
20.0
100
AcDbArc
 50
112.3927853684
 51
180.0000662979
  0
ARC
  5
627
100
AcDbEntity
  8
0
100
AcDbCircle
 62
7
  6
CONTINUOUS
 10
249.2546379575
 20
249.1789860209
 40
14.418722642
100
AcDbArc
 50
150.3316455653
 51
163.0922208017
  0
ARC
  5
628
100
AcDbEntity
  8
0
100
AcDbCircle
 62
7
  6
CONTINUOUS
 10
257.1794775477
 20
255.7797980093
 40
13.0151919427
100
AcDbArc
 50
101.871079842
 51
103.7759959526
  0
ARC
  5
629
100
AcDbEntity
  8
0
100
AcDbCircle
 62
7
  6
CONTINUOUS
 10
249.4669880347
 20
247.8001484299
 40
6.0050716648
100
AcDbArc
 50
127.206560967
 51
141.6667761026
  0
ARC
  5
62A
100
AcDbEntity
  8
0
100
AcDbCircle
 62
7
  6
CONTINUOUS
 10
249.4636862929
 20
247.8040094384
 40
6.0
100
AcDbArc
 50
141.671288453
 51
180.0
  0
ARC
  5
62B
100
AcDbEntity
  8
0
100
AcDbCircle
 62
7
  6
CONTINUOUS
 10
237.6937426374
 20
252.6946331212
 40
2.3350947505
100
AcDbArc
 50
163.1265882133
 51
167.5487074987
  0
ARC
  5
62C
100
AcDbEntity
  8
0
100
AcDbCircle
 62
7
  6
CONTINUOUS
 10
246.0484442792
 20
260.8264506226
 40
2.0
100
AcDbArc
 50
110.0
 51
154.0
  0
ARC
  5
62D
100
AcDbEntity
  8
0
100
AcDbCircle
 62
7
  6
CONTINUOUS
 10
238.6701060312
 20
245.6986153684
 40
2.0
100
AcDbArc
 50
154.0
 51
204.0
  0
ARC
  5
62E
100
AcDbEntity
  8
0
100
AcDbCircle
 62
7
  6
CONTINUOUS
 10
236.7572665546
 20
240.1605498333
 40
2.0
100
AcDbArc
 50
334.0
 51
24.0
  0
ARC
  5
62F
100
AcDbEntity
  8
KONSTRUKTIONSELEMENTE
100
AcDbCircle
 62
7
  6
CONTINUOUS
 10
238.2207313146
 20
221.5862264763
 40
1.41
100
AcDbArc
 50
270.0
 51
90.0
  0
ARC
  5
630
100
AcDbEntity
  8
KONSTRUKTIONSELEMENTE
100
AcDbCircle
 62
7
  6
CONTINUOUS
 10
237.4207313146
 20
225.1562264763
 40
0.72
100
AcDbArc
 50
90.0
 51
180.0
  0
ARC
  5
631
100
AcDbEntity
  8
KONSTRUKTIONSELEMENTE
100
AcDbCircle
 62
7
  6
CONTINUOUS
 10
238.3107313146
 20
225.1562264763
 40
0.72
100
AcDbArc
 50
0.0
 51
90.0
  0
ARC
  5
632
100
AcDbEntity
  8
KONSTRUKTIONSELEMENTE
100
AcDbCircle
 62
7
  6
CONTINUOUS
 10
238.2207313146
 20
221.5862264763
 40
0.69
100
AcDbArc
 50
270.0
 51
90.0
  0
ARC
  5
633
100
AcDbEntity
  8
0
100
AcDbCircle
 62
7
  6
CONTINUOUS
 10
278.4636862929
 20
196.6794656489
 40
12.0
100
AcDbArc
 50
276.7726313132
 51
296.2741625738
  0
ARC
  5
634
100
AcDbEntity
  8
RUNDUNGEN
100
AcDbCircle
 62
7
  6
CONTINUOUS
 10
278.4636862929
 20
196.6794656489
 40
12.0
100
AcDbArc
 50
275.9794071183
 51
359.9996703277
  0
ARC
  5
635
100
AcDbEntity
  8
0
100
AcDbCircle
 62
7
  6
CONTINUOUS
 10
275.4639740483
 20
204.1794008595
 40
5.9997122443
100
AcDbArc
 50
315.1053857307
 51
0.0006187228
  0
ARC
  5
636
100
AcDbEntity
  8
RUNDUNGEN
100
AcDbCircle
 62
7
  6
CONTINUOUS
 10
278.2136862929
 20
202.1794656489
 40
1.5
100
AcDbArc
 50
0.0
 51
90.0
  0
ARC
  5
637
100
AcDbEntity
  8
RUNDUNGEN
100
AcDbCircle
 62
7
  6
CONTINUOUS
 10
278.2136862929
 20
180.1794656489
 40
1.5
100
AcDbArc
 50
270.0
 51
360.0
  0
ARC
  5
638
100
AcDbEntity
  8
0
100
AcDbCircle
 62
7
  6
CONTINUOUS
 10
266.8936862929
 20
197.3494656489
 40
0.9
100
AcDbArc
 50
270.0
 51
360.0
  0
ARC
  5
639
100
AcDbEntity
  8
0
100
AcDbCircle
 62
7
  6
CONTINUOUS
 10
266.8936862929
 20
198.4594656489
 40
0.9
100
AcDbArc
 50
0.0
 51
90.0
  0
ARC
  5
63A
100
AcDbEntity
  8
RUNDUNGEN
100
AcDbCircle
 62
7
  6
CONTINUOUS
 10
262.4636862929
 20
230.6794656489
 40
41.0
100
AcDbArc
 50
67.607264603
 51
78.1173629921
  0
ARC
  5
63B
100
AcDbEntity
  8
0
100
AcDbCircle
 62
7
  6
CONTINUOUS
 10
262.4636862929
 20
230.6794656489
 40
41.0
100
AcDbArc
 50
78.1173629921
 51
112.392735397
  0
ARC
  5
63C
100
AcDbEntity
  8
0
100
AcDbCircle
 62
7
  6
CONTINUOUS
 10
262.463720424
 20
230.6798310888
 40
38.6653541267
100
AcDbArc
 50
78.117300955
 51
90.0000505767
  0
ARC
  5
63D
100
AcDbEntity
  8
0
100
AcDbCircle
 62
7
  6
CONTINUOUS
 10
262.4636863387
 20
230.679465624
 40
27.4999999918
100
AcDbArc
 50
52.7962561166
 51
90.0000000954
  0
ARC
  5
63E
100
AcDbEntity
  8
0
100
AcDbCircle
 62
7
  6
CONTINUOUS
 10
270.4636862929
 20
250.0959534878
 40
20.0
100
AcDbArc
 50
24.8114837902
 51
67.6072146316
  0
ARC
  5
63F
100
AcDbEntity
  8
0
100
AcDbCircle
 62
7
  6
CONTINUOUS
 10
270.4636862929
 20
250.0959534878
 40
20.0
100
AcDbArc
 50
359.9999337021
 51
18.4079297812
  0
ARC
  5
640
100
AcDbEntity
  8
RUNDUNGEN
100
AcDbCircle
 62
7
  6
CONTINUOUS
 10
270.4636862929
 20
250.0959534878
 40
20.0
100
AcDbArc
 50
359.9999337021
 51
67.6072146316
  0
ARC
  5
641
100
AcDbEntity
  8
RUNDUNGEN
100
AcDbCircle
 62
7
  6
CONTINUOUS
 10
275.6727346283
 20
249.1789860209
 40
14.418722642
100
AcDbArc
 50
16.9077791983
 51
29.6683544347
  0
ARC
  5
642
100
AcDbEntity
  8
0
100
AcDbCircle
 62
7
  6
CONTINUOUS
 10
267.7478950382
 20
255.7797980092
 40
13.0151919428
100
AcDbArc
 50
76.2240040474
 51
78.128920158
  0
ARC
  5
643
100
AcDbEntity
  8
0
100
AcDbCircle
 62
7
  6
CONTINUOUS
 10
275.4603845511
 20
247.8001484299
 40
6.0050716648
100
AcDbArc
 50
38.3332238974
 51
52.793439033
  0
ARC
  5
644
100
AcDbEntity
  8
0
100
AcDbCircle
 62
7
  6
CONTINUOUS
 10
275.4636862929
 20
247.8040094384
 40
6.0
100
AcDbArc
 50
0.0
 51
38.328711547
  0
ARC
  5
645
100
AcDbEntity
  8
RUNDUNGEN
100
AcDbCircle
 62
7
  6
CONTINUOUS
 10
287.2336299484
 20
252.6946331212
 40
2.3350947505
100
AcDbArc
 50
12.4512925013
 51
16.8734117867
  0
ARC
  5
646
100
AcDbEntity
  8
RUNDUNGEN
100
AcDbCircle
 62
7
  6
CONTINUOUS
 10
278.8789283067
 20
260.8264506226
 40
2.0
100
AcDbArc
 50
26.0
 51
70.0
  0
ARC
  5
647
100
AcDbEntity
  8
RUNDUNGEN
100
AcDbCircle
 62
7
  6
CONTINUOUS
 10
286.2572665546
 20
245.6986153684
 40
2.0
100
AcDbArc
 50
336.0
 51
26.0
  0
ARC
  5
648
100
AcDbEntity
  8
0
100
AcDbCircle
 62
7
  6
CONTINUOUS
 10
287.0680205211
 20
230.3127023581
 40
2.0
100
AcDbArc
 50
174.2608295227
 51
356.9363238298
  0
ARC
  5
649
100
AcDbEntity
  8
0
100
AcDbCircle
 62
7
  6
CONTINUOUS
 10
287.0680205211
 20
226.9127023581
 40
2.0
100
AcDbArc
 50
174.2608295227
 51
356.9363238298
  0
ARC
  5
64A
100
AcDbEntity
  8
RUNDUNGEN
100
AcDbCircle
 62
7
  6
CONTINUOUS
 10
288.1701060312
 20
240.1605498333
 40
2.0
100
AcDbArc
 50
156.0
 51
206.0
  0
ARC
  5
64B
100
AcDbEntity
  8
0
100
AcDbCircle
 62
7
  6
CONTINUOUS
 10
287.0680205211
 20
230.3127023581
 40
1.4
100
AcDbArc
 50
282.3736251162
 51
8.2132107017
  0
ARC
  5
64C
100
AcDbEntity
  8
0
100
AcDbCircle
 62
7
  6
CONTINUOUS
 10
287.0680205211
 20
230.3127023581
 40
1.4
100
AcDbArc
 50
171.7867892983
 51
257.4447123387
  0
ARC
  5
64D
100
AcDbEntity
  8
0
100
AcDbCircle
 62
7
  6
CONTINUOUS
 10
287.0680205211
 20
226.9127023581
 40
1.4
100
AcDbArc
 50
180.8223838046
 51
8.2132107017
  0
ARC
  5
64E
100
AcDbEntity
  8
0
100
AcDbCircle
 62
7
  6
CONTINUOUS
 10
131.8436258387
 20
65.7794832208
 40
20.0
100
AcDbArc
 50
351.9999883752
 51
358.4458432903
  0
ARC
  5
64F
100
AcDbEntity
  8
0
100
AcDbCircle
 62
7
  6
CONTINUOUS
 10
134.1479637721
 20
74.4201170419
 40
17.5615255743
100
AcDbArc
 50
0.5901166279
 51
1.9287213588
  0
ARC
  5
650
100
AcDbEntity
  8
0
100
AcDbCircle
 62
7
  6
CONTINUOUS
 10
122.3436258387
 20
82.4870610687
 40
17.75
100
AcDbArc
 50
217.7577295757
 51
229.8464701281
  0
ARC
  5
651
100
AcDbEntity
  8
0
100
AcDbCircle
 62
7
  6
CONTINUOUS
 10
122.3436258387
 20
82.4870610687
 40
17.75
100
AcDbArc
 50
205.5674155405
 51
215.4125796786
  0
ARC
  5
652
100
AcDbEntity
  8
0
100
AcDbCircle
 62
7
  6
CONTINUOUS
 10
122.3436258387
 20
82.4870610687
 40
17.75
100
AcDbArc
 50
144.3312225073
 51
154.2012620757
  0
ARC
  5
653
100
AcDbEntity
  8
0
100
AcDbCircle
 62
7
  6
CONTINUOUS
 10
122.3436258387
 20
82.4870610687
 40
17.75
100
AcDbArc
 50
128.713626075
 51
141.9781133958
  0
ARC
  5
654
100
AcDbEntity
  8
0
100
AcDbCircle
 62
7
  6
CONTINUOUS
 10
122.3436258387
 20
82.4870610687
 40
17.75
100
AcDbArc
 50
156.2749903545
 51
203.4974896661
  0
ARC
  5
655
100
AcDbEntity
  8
RUNDUNGEN
100
AcDbCircle
 62
7
  6
CONTINUOUS
 10
122.3436258387
 20
82.4870610687
 40
17.25
100
AcDbArc
 50
90.0
 51
270.0
  0
ARC
  5
656
100
AcDbEntity
  8
0
100
AcDbCircle
 62
7
  6
CONTINUOUS
 10
125.0936258387
 20
82.4870610687
 40
15.0
100
AcDbArc
 50
27.931108454
 51
332.068891546
  0
CIRCLE
  5
657
100
AcDbEntity
  8
BEZUGSACHSEN
100
AcDbCircle
 62
7
  6
CONTINUOUS
 10
125.0936258387
 20
82.4870610687
 40
12.0
  0
ARC
  5
658
100
AcDbEntity
  8
0
100
AcDbCircle
 62
7
  6
CONTINUOUS
 10
134.1479637721
 20
90.5540050955
 40
17.5615255743
100
AcDbArc
 50
358.0712786412
 51
359.4098833721
  0
ARC
  5
659
100
AcDbEntity
  8
0
100
AcDbCircle
 62
7
  6
CONTINUOUS
 10
131.8436258387
 20
99.1946389166
 40
20.0
100
AcDbArc
 50
1.5541567097
 51
8.0000116248
  0
ARC
  5
65A
100
AcDbEntity
  8
RUNDUNGEN
100
AcDbCircle
 62
7
  6
CONTINUOUS
 10
158.3436258387
 20
65.7794832208
 40
20.0
100
AcDbArc
 50
181.5541567097
 51
188.0000116248
  0
ARC
  5
65B
100
AcDbEntity
  8
0
100
AcDbCircle
 62
7
  6
CONTINUOUS
 10
156.039287905
 20
74.4201170419
 40
17.5615255739
100
AcDbArc
 50
178.0712786411
 51
179.4098833721
  0
ARC
  5
65C
100
AcDbEntity
  8
0
100
AcDbCircle
 62
7
  6
CONTINUOUS
 10
145.5641780703
 20
63.5900266772
 40
6.7338658206
100
AcDbArc
 50
190.2143218692
 51
193.5527642969
  0
ARC
  5
65D
100
AcDbEntity
  8
0
100
AcDbCircle
 62
7
  6
CONTINUOUS
 10
144.6230736072
 20
63.5900266772
 40
6.7338658205
100
AcDbArc
 50
346.4472357031
 51
349.7856781309
  0
ARC
  5
65E
100
AcDbEntity
  8
RUNDUNGEN
100
AcDbCircle
 62
7
  6
CONTINUOUS
 10
142.168934378
 20
57.4870610687
 40
3.0
100
AcDbArc
 50
233.8702720557
 51
241.6153083432
  0
ARC
  5
65F
100
AcDbEntity
  8
RUNDUNGEN
100
AcDbCircle
 62
7
  6
CONTINUOUS
 10
142.168934378
 20
57.4870610687
 40
3.0
100
AcDbArc
 50
248.2658933531
 51
250.1064091945
  0
ARC
  5
660
100
AcDbEntity
  8
KONSTRUKTIONSELEMENTE
100
AcDbCircle
 62
7
  6
CONTINUOUS
 10
142.168934378
 20
57.4870610687
 40
3.0
100
AcDbArc
 50
213.245417655
 51
226.2296551032
  0
ARC
  5
661
100
AcDbEntity
  8
0
100
AcDbCircle
 62
7
  6
CONTINUOUS
 10
142.1689106728
 20
57.4870546265
 40
2.9999766825
100
AcDbArc
 50
195.3394404513
 51
213.1901512841
  0
ARC
  5
662
100
AcDbEntity
  8
0
100
AcDbCircle
 62
7
  6
CONTINUOUS
 10
142.1673859283
 20
57.4853549992
 40
2.9976968955
100
AcDbArc
 50
226.2290979797
 51
269.2382625127
  0
ARC
  5
663
100
AcDbEntity
  8
0
100
AcDbCircle
 62
7
  6
CONTINUOUS
 10
148.019865749
 20
57.4853549994
 40
2.9976968958
100
AcDbArc
 50
270.7609450499
 51
344.6605595487
  0
ARC
  5
664
100
AcDbEntity
  8
RUNDUNGEN
100
AcDbCircle
 62
7
  6
CONTINUOUS
 10
142.1318561264
 20
57.4829975649
 40
2.9629550183
100
AcDbArc
 50
179.7650931586
 51
191.428704422
  0
ARC
  5
665
100
AcDbEntity
  8
0
100
AcDbCircle
 62
7
  6
CONTINUOUS
 10
148.055395551
 20
57.4829975649
 40
2.9629550183
100
AcDbArc
 50
348.571295578
 51
0.2349068414
  0
ARC
  5
666
100
AcDbEntity
  8
RUNDUNGEN
100
AcDbCircle
 62
7
  6
CONTINUOUS
 10
155.5936258387
 20
66.7370610687
 40
1.5
100
AcDbArc
 50
270.0
 51
360.0
  0
ARC
  5
667
100
AcDbEntity
  8
0
100
AcDbCircle
 62
7
  6
CONTINUOUS
 10
158.3436258387
 20
99.1946389166
 40
20.0
100
AcDbArc
 50
171.9999883752
 51
178.4458432903
  0
ARC
  5
668
100
AcDbEntity
  8
0
100
AcDbCircle
 62
7
  6
CONTINUOUS
 10
156.039287905
 20
90.5540050955
 40
17.5615255739
100
AcDbArc
 50
180.5901166279
 51
181.9287213589
  0
ARC
  5
669
100
AcDbEntity
  8
0
100
AcDbCircle
 62
7
  6
CONTINUOUS
 10
145.5641780703
 20
101.3840954602
 40
6.7338658206
100
AcDbArc
 50
166.4472357031
 51
169.7856781308
  0
ARC
  5
66A
100
AcDbEntity
  8
0
100
AcDbCircle
 62
7
  6
CONTINUOUS
 10
144.6230736072
 20
101.3840954602
 40
6.7338658205
100
AcDbArc
 50
10.2143218691
 51
13.5527642969
  0
ARC
  5
66B
100
AcDbEntity
  8
0
100
AcDbCircle
 62
7
  6
CONTINUOUS
 10
142.1673859287
 20
107.4887671377
 40
2.9976968961
100
AcDbArc
 50
90.7616657299
 51
164.6605595487
  0
ARC
  5
66C
100
AcDbEntity
  8
0
100
AcDbCircle
 62
7
  6
CONTINUOUS
 10
148.0198657489
 20
107.4887671378
 40
2.9976968959
100
AcDbArc
 50
15.3394404513
 51
89.2382623419
  0
ARC
  5
66D
100
AcDbEntity
  8
0
100
AcDbCircle
 62
7
  6
CONTINUOUS
 10
142.1318561264
 20
107.4911245725
 40
2.9629550183
100
AcDbArc
 50
168.571295578
 51
180.2349068414
  0
ARC
  5
66E
100
AcDbEntity
  8
0
100
AcDbCircle
 62
7
  6
CONTINUOUS
 10
148.055395551
 20
107.4911245725
 40
2.9629550183
100
AcDbArc
 50
359.7650931586
 51
11.428704422
  0
ARC
  5
66F
100
AcDbEntity
  8
RUNDUNGEN
100
AcDbCircle
 62
7
  6
CONTINUOUS
 10
155.5936258387
 20
98.2370610687
 40
1.5
100
AcDbArc
 50
0.0
 51
90.0
  0
SPLINE
  5
670
100
AcDbEntity
  8
0
100
AcDbSpline
 62
7
  6
CONTINUOUS
 70
0
 71
3
 72
11
 73
7
 74
0
 42
0.0000001
 43
0.0000001
 44
0.0000000001
 40
0.0
 40
0.0
 40
0.0
 40
0.0
 40
0.2500722326
 40
0.5000669498
 40
0.7500067199
 40
1.0
 40
1.0
 40
1.0
 40
1.0
 10
139.2133688382
 20
248.970776288
 30
0.0
 10
139.2478299822
 20
249.4431403167
 30
0.0
 10
139.3197054096
 20
250.3875084192
 30
0.0
 10
139.3890621398
 20
251.8066468197
 30
0.0
 10
139.3896673964
 20
253.2275937534
 30
0.0
 10
139.3441252562
 20
254.1736170191
 30
0.0
 10
139.3147734458
 20
254.64617622
 30
0.0
  0
SPLINE
  5
671
100
AcDbEntity
  8
0
100
AcDbSpline
 62
7
  6
CONTINUOUS
 70
0
 71
3
 72
8
 73
4
 74
0
 42
0.0000001
 43
0.0000001
 44
0.0000000001
 40
0.0
 40
0.0
 40
0.0
 40
0.0
 40
1.0
 40
1.0
 40
1.0
 40
1.0
 10
139.3147734458
 20
254.64617622
 30
0.0
 10
139.2928347584
 20
254.999396292
 30
0.0
 10
139.250570233
 20
255.3513885286
 30
0.0
 10
139.1999704784
 20
255.7016532715
 30
0.0
  0
SPLINE
  5
672
100
AcDbEntity
  8
0
100
AcDbSpline
 62
7
  6
CONTINUOUS
 70
0
 71
3
 72
8
 73
4
 74
0
 42
0.0000001
 43
0.0000001
 44
0.0000000001
 40
0.0
 40
0.0
 40
0.0
 40
0.0
 40
1.0
 40
1.0
 40
1.0
 40
1.0
 10
139.1999704784
 20
255.7016532715
 30
0.0
 10
139.1344192578
 20
256.1554126292
 30
0.0
 10
139.0711747612
 20
256.6095931849
 30
0.0
 10
139.0178199369
 20
257.0649477499
 30
0.0
  0
SPLINE
  5
673
100
AcDbEntity
  8
0
100
AcDbSpline
 62
7
  6
CONTINUOUS
 70
0
 71
3
 72
11
 73
7
 74
0
 42
0.0000001
 43
0.0000001
 44
0.0000000001
 40
0.0
 40
0.0
 40
0.0
 40
0.0
 40
0.2500722326
 40
0.5000669498
 40
0.7500067199
 40
1.0
 40
1.0
 40
1.0
 40
1.0
 10
150.9738828393
 20
248.970776288
 30
0.0
 10
150.9394216952
 20
249.4431403167
 30
0.0
 10
150.8675462679
 20
250.3875084192
 30
0.0
 10
150.7981895377
 20
251.8066468197
 30
0.0
 10
150.797584281
 20
253.2275937534
 30
0.0
 10
150.8431264212
 20
254.1736170191
 30
0.0
 10
150.8724782316
 20
254.64617622
 30
0.0
  0
SPLINE
  5
674
100
AcDbEntity
  8
0
100
AcDbSpline
 62
7
  6
CONTINUOUS
 70
0
 71
3
 72
8
 73
4
 74
0
 42
0.0000001
 43
0.0000001
 44
0.0000000001
 40
0.0
 40
0.0
 40
0.0
 40
0.0
 40
1.0
 40
1.0
 40
1.0
 40
1.0
 10
150.8724782316
 20
254.64617622
 30
0.0
 10
150.8944169191
 20
254.999396292
 30
0.0
 10
150.9366814444
 20
255.3513885286
 30
0.0
 10
150.9872811991
 20
255.7016532715
 30
0.0
  0
SPLINE
  5
675
100
AcDbEntity
  8
0
100
AcDbSpline
 62
7
  6
CONTINUOUS
 70
0
 71
3
 72
8
 73
4
 74
0
 42
0.0000001
 43
0.0000001
 44
0.0000000001
 40
0.0
 40
0.0
 40
0.0
 40
0.0
 40
1.0
 40
1.0
 40
1.0
 40
1.0
 10
150.9872811991
 20
255.7016532715
 30
0.0
 10
151.0528324197
 20
256.1554126292
 30
0.0
 10
151.1160769162
 20
256.6095931849
 30
0.0
 10
151.1694317406
 20
257.0649477499
 30
0.0
  0
SPLINE
  5
676
100
AcDbEntity
  8
0
100
AcDbSpline
 62
7
  6
CONTINUOUS
 70
0
 71
3
 72
11
 73
7
 74
0
 42
0.0000001
 43
0.0000001
 44
0.0000000001
 40
0.0
 40
0.0
 40
0.0
 40
0.0
 40
0.2405206921
 40
0.4840232546
 40
0.7345143579
 40
1.0
 40
1.0
 40
1.0
 40
1.0
 10
138.4877114574
 20
266.2084641613
 30
0.0
 10
138.5087947984
 20
266.437281063
 30
0.0
 10
138.5639472176
 20
266.8967837901
 30
0.0
 10
138.7050254629
 20
267.5853622581
 30
0.0
 10
138.9339834824
 20
268.2760674504
 30
0.0
 10
139.162678984
 20
268.7162600978
 30
0.0
 10
139.3000655934
 20
268.9294656489
 30
0.0
  0
SPLINE
  5
677
100
AcDbEntity
  8
0
100
AcDbSpline
 62
7
  6
CONTINUOUS
 70
0
 71
3
 72
10
 73
6
 74
0
 42
0.0000001
 43
0.0000001
 44
0.0000000001
 40
0.0
 40
0.0
 40
0.0
 40
0.0
 40
0.2506804252
 40
0.6256555879
 40
1.0
 40
1.0
 40
1.0
 40
1.0
 10
138.5898736788
 20
263.877064869
 30
0.0
 10
138.5693555527
 20
264.0586116173
 30
0.0
 10
138.5225733508
 20
264.5122618694
 30
0.0
 10
138.4767177409
 20
265.2399047899
 30
0.0
 10
138.471061301
 20
265.7864445889
 30
0.0
 10
138.4786937795
 20
266.0591699295
 30
0.0
  0
SPLINE
  5
678
100
AcDbEntity
  8
RUNDUNGEN
100
AcDbSpline
 62
7
  6
CONTINUOUS
 70
0
 71
3
 72
11
 73
7
 74
0
 42
0.0000001
 43
0.0000001
 44
0.0000000001
 40
0.0
 40
0.0
 40
0.0
 40
0.0
 40
0.3258268283
 40
0.607522583
 40
0.8347299297
 40
1.0
 40
1.0
 40
1.0
 40
1.0
 10
138.7539496294
 20
261.7031929162
 30
0.0
 10
138.76049279
 20
261.81208139
 30
0.0
 10
138.7725489976
 20
262.0151048696
 30
0.0
 10
138.7832715465
 20
262.2944654532
 30
0.0
 10
138.7813530555
 20
262.520150828
 30
0.0
 10
138.7696973952
 20
262.6515357764
 30
0.0
 10
138.7590640267
 20
262.7058358642
 30
0.0
  0
SPLINE
  5
679
100
AcDbEntity
  8
RUNDUNGEN
100
AcDbSpline
 62
7
  6
CONTINUOUS
 70
0
 71
3
 72
8
 73
4
 74
0
 42
0.0000001
 43
0.0000001
 44
0.0000000001
 40
0.0
 40
0.0
 40
0.0
 40
0.0
 40
1.0
 40
1.0
 40
1.0
 40
1.0
 10
138.7921267425
 20
259.5083654959
 30
0.0
 10
138.7283531592
 20
260.2373008891
 30
0.0
 10
138.7100594051
 20
260.9727906122
 30
0.0
 10
138.7539496294
 20
261.7031929162
 30
0.0
  0
SPLINE
  5
67A
100
AcDbEntity
  8
RUNDUNGEN
100
AcDbSpline
 62
7
  6
CONTINUOUS
 70
0
 71
3
 72
9
 73
5
 74
0
 42
0.0000001
 43
0.0000001
 44
0.0000000001
 40
0.0
 40
0.0
 40
0.0
 40
0.0
 40
0.2511490004
 40
1.0
 40
1.0
 40
1.0
 40
1.0
 10
138.7590640267
 20
262.7058358642
 30
0.0
 10
138.7400218525
 20
262.8030761449
 30
0.0
 10
138.6712741657
 20
263.1916558441
 30
0.0
 10
138.6229809749
 20
263.5834773296
 30
0.0
 10
138.5898736788
 20
263.877064869
 30
0.0
  0
SPLINE
  5
67B
100
AcDbEntity
  8
0
100
AcDbSpline
 62
7
  6
CONTINUOUS
 70
0
 71
3
 72
9
 73
5
 74
0
 42
0.0000001
 43
0.0000001
 44
0.0000000001
 40
0.0
 40
0.0
 40
0.0
 40
0.0
 40
0.5019166458
 40
1.0
 40
1.0
 40
1.0
 40
1.0
 10
150.953369718
 20
244.8851420823
 30
0.0
 10
150.9267814595
 20
245.1670777239
 30
0.0
 10
150.8933748132
 20
245.7316211077
 30
0.0
 10
150.9320567527
 20
246.295686996
 30
0.0
 10
150.95960118
 20
246.575357662
 30
0.0
  0
SPLINE
  5
67C
100
AcDbEntity
  8
0
100
AcDbSpline
 62
7
  6
CONTINUOUS
 70
0
 71
3
 72
9
 73
5
 74
0
 42
0.0000001
 43
0.0000001
 44
0.0000000001
 40
0.0
 40
0.0
 40
0.0
 40
0.0
 40
0.2510196237
 40
1.0
 40
1.0
 40
1.0
 40
1.0
 10
149.7936258387
 20
232.0882869496
 30
0.0
 10
149.8212964973
 20
232.1299352795
 30
0.0
 10
149.9287789451
 20
232.2976744782
 30
0.0
 10
150.0259344474
 20
232.4719399677
 30
0.0
 10
150.0936258387
 20
232.6048949761
 30
0.0
  0
SPLINE
  5
67D
100
AcDbEntity
  8
0
100
AcDbSpline
 62
7
  6
CONTINUOUS
 70
0
 71
3
 72
9
 73
5
 74
0
 42
0.0000001
 43
0.0000001
 44
0.0000000001
 40
0.0
 40
0.0
 40
0.0
 40
0.0
 40
0.5009472825
 40
1.0
 40
1.0
 40
1.0
 40
1.0
 10
150.5288967605
 20
233.6794656489
 30
0.0
 10
150.7020818244
 20
234.2222938695
 30
0.0
 10
150.9424394224
 20
235.3404866893
 30
0.0
 10
151.0183122792
 20
236.4789497628
 30
0.0
 10
151.0183172063
 20
237.0465803781
 30
0.0
  0
SPLINE
  5
67E
100
AcDbEntity
  8
0
100
AcDbSpline
 62
7
  6
CONTINUOUS
 70
0
 71
3
 72
9
 73
5
 74
0
 42
0.0000001
 43
0.0000001
 44
0.0000000001
 40
0.0
 40
0.0
 40
0.0
 40
0.0
 40
0.5009472825
 40
1.0
 40
1.0
 40
1.0
 40
1.0
 10
139.6583549169
 20
233.6794656489
 30
0.0
 10
139.4851698531
 20
234.2222938695
 30
0.0
 10
139.244812255
 20
235.3404866893
 30
0.0
 10
139.1689393982
 20
236.4789497628
 30
0.0
 10
139.1689344711
 20
237.0465803781
 30
0.0
  0
SPLINE
  5
67F
100
AcDbEntity
  8
0
100
AcDbSpline
 62
7
  6
CONTINUOUS
 70
0
 71
3
 72
8
 73
4
 74
0
 42
0.0000001
 43
0.0000001
 44
0.0000000001
 40
0.0
 40
0.0
 40
0.0
 40
0.0
 40
1.0
 40
1.0
 40
1.0
 40
1.0
 10
151.3951249349
 20
259.5083654959
 30
0.0
 10
151.4588985183
 20
260.2373008891
 30
0.0
 10
151.4771922723
 20
260.9727906122
 30
0.0
 10
151.433302048
 20
261.7031929162
 30
0.0
  0
SPLINE
  5
680
100
AcDbEntity
  8
0
100
AcDbSpline
 62
7
  6
CONTINUOUS
 70
0
 71
3
 72
9
 73
5
 74
0
 42
0.0000001
 43
0.0000001
 44
0.0000000001
 40
0.0
 40
0.0
 40
0.0
 40
0.0
 40
0.2511490004
 40
1.0
 40
1.0
 40
1.0
 40
1.0
 10
151.4281876507
 20
262.7058358642
 30
0.0
 10
151.447229825
 20
262.8030761449
 30
0.0
 10
151.5159775117
 20
263.1916558441
 30
0.0
 10
151.5642707026
 20
263.5834773296
 30
0.0
 10
151.5973779986
 20
263.877064869
 30
0.0
  0
SPLINE
  5
681
100
AcDbEntity
  8
0
100
AcDbSpline
 62
7
  6
CONTINUOUS
 70
0
 71
3
 72
11
 73
7
 74
0
 42
0.0000001
 43
0.0000001
 44
0.0000000001
 40
0.0
 40
0.0
 40
0.0
 40
0.0
 40
0.3258268283
 40
0.607522583
 40
0.8347299297
 40
1.0
 40
1.0
 40
1.0
 40
1.0
 10
151.433302048
 20
261.7031929162
 30
0.0
 10
151.4267588875
 20
261.81208139
 30
0.0
 10
151.4147026799
 20
262.0151048696
 30
0.0
 10
151.4039801309
 20
262.2944654532
 30
0.0
 10
151.4058986219
 20
262.520150828
 30
0.0
 10
151.4175542822
 20
262.6515357764
 30
0.0
 10
151.4281876507
 20
262.7058358642
 30
0.0
  0
SPLINE
  5
682
100
AcDbEntity
  8
0
100
AcDbSpline
 62
7
  6
CONTINUOUS
 70
0
 71
3
 72
9
 73
5
 74
0
 42
0.0000001
 43
0.0000001
 44
0.0000000001
 40
0.0
 40
0.0
 40
0.0
 40
0.0
 40
0.2510196237
 40
1.0
 40
1.0
 40
1.0
 40
1.0
 10
140.3936258387
 20
232.0882869496
 30
0.0
 10
140.3659551801
 20
232.1299352795
 30
0.0
 10
140.2584727324
 20
232.2976744782
 30
0.0
 10
140.16131723
 20
232.4719399677
 30
0.0
 10
140.0936258387
 20
232.6048949761
 30
0.0
  0
SPLINE
  5
683
100
AcDbEntity
  8
RUNDUNGEN
100
AcDbSpline
 62
7
  6
CONTINUOUS
 70
0
 71
3
 72
9
 73
5
 74
0
 42
0.0000001
 43
0.0000001
 44
0.0000000001
 40
0.0
 40
0.0
 40
0.0
 40
0.0
 40
0.5019166458
 40
1.0
 40
1.0
 40
1.0
 40
1.0
 10
139.2338819594
 20
244.8851420823
 30
0.0
 10
139.2604702179
 20
245.1670777239
 30
0.0
 10
139.2938768642
 20
245.7316211077
 30
0.0
 10
139.2551949247
 20
246.295686996
 30
0.0
 10
139.2276504975
 20
246.575357662
 30
0.0
  0
SPLINE
  5
684
100
AcDbEntity
  8
0
100
AcDbSpline
 62
7
  6
CONTINUOUS
 70
0
 71
3
 72
10
 73
6
 74
0
 42
0.0000001
 43
0.0000001
 44
0.0000000001
 40
0.0
 40
0.0
 40
0.0
 40
0.0
 40
0.2506804252
 40
0.6256555879
 40
1.0
 40
1.0
 40
1.0
 40
1.0
 10
151.5973779986
 20
263.877064869
 30
0.0
 10
151.6178961247
 20
264.0586116173
 30
0.0
 10
151.6646783266
 20
264.5122618694
 30
0.0
 10
151.7105339366
 20
265.2399047899
 30
0.0
 10
151.7161903764
 20
265.7864445889
 30
0.0
 10
151.7085578979
 20
266.0591699295
 30
0.0
  0
SPLINE
  5
685
100
AcDbEntity
  8
0
100
AcDbSpline
 62
7
  6
CONTINUOUS
 70
0
 71
3
 72
11
 73
7
 74
0
 42
0.0000001
 43
0.0000001
 44
0.0000000001
 40
0.0
 40
0.0
 40
0.0
 40
0.0
 40
0.2405206921
 40
0.4840232546
 40
0.7345143579
 40
1.0
 40
1.0
 40
1.0
 40
1.0
 10
151.69954022
 20
266.2084641613
 30
0.0
 10
151.6784568791
 20
266.437281063
 30
0.0
 10
151.6233044599
 20
266.8967837901
 30
0.0
 10
151.4822262146
 20
267.5853622581
 30
0.0
 10
151.253268195
 20
268.2760674504
 30
0.0
 10
151.0245726935
 20
268.7162600978
 30
0.0
 10
150.8871860841
 20
268.9294656489
 30
0.0
  0
SPLINE
  5
686
100
AcDbEntity
  8
BEZUGSACHSEN
100
AcDbSpline
 62
7
  6
CONTINUOUS
 70
0
 71
3
 72
11
 73
7
 74
0
 42
0.0000001
 43
0.0000001
 44
0.0000000001
 40
0.0
 40
0.0
 40
0.0
 40
0.0
 40
0.261635636
 40
0.5144889974
 40
0.7595899979
 40
1.0
 40
1.0
 40
1.0
 40
1.0
 10
111.2372193782
 20
218.0076688791
 30
0.0
 10
111.5141271507
 20
218.1675416561
 30
0.0
 10
112.071215006
 20
218.4611472983
 30
0.0
 10
112.9350194578
 20
218.8069796023
 30
0.0
 10
113.8130698553
 20
219.0282494869
 30
0.0
 10
114.407515338
 20
219.0794656488
 30
0.0
 10
114.7013209926
 20
219.0794656489
 30
0.0
  0
SPLINE
  5
687
100
AcDbEntity
  8
BEZUGSACHSEN
100
AcDbSpline
 62
7
  6
CONTINUOUS
 70
0
 71
3
 72
11
 73
7
 74
0
 42
0.0000001
 43
0.0000001
 44
0.0000000001
 40
0.0
 40
0.0
 40
0.0
 40
0.0
 40
0.2404100398
 40
0.4855110518
 40
0.7383643655
 40
1.0
 40
1.0
 40
1.0
 40
1.0
 10
114.7013209926
 20
219.0794656489
 30
0.0
 10
114.9951266933
 20
219.0794656489
 30
0.0
 10
115.5895722369
 20
219.0282494748
 30
0.0
 10
116.46762263
 20
218.8069795631
 30
0.0
 10
117.3314270337
 20
218.4611472665
 30
0.0
 10
117.8885148375
 20
218.1675416552
 30
0.0
 10
118.1654226084
 20
218.0076688791
 30
0.0
  0
SPLINE
  5
688
100
AcDbEntity
  8
BEZUGSACHSEN
100
AcDbSpline
 62
7
  6
CONTINUOUS
 70
0
 71
3
 72
10
 73
6
 74
0
 42
0.0000001
 43
0.0000001
 44
0.0000000001
 40
0.0
 40
0.0
 40
0.0
 40
0.0
 40
0.4998915143
 40
0.7499457876
 40
1.0
 40
1.0
 40
1.0
 40
1.0
 10
118.1654226084
 20
218.0076688791
 30
0.0
 10
119.2910798819
 20
218.3326181441
 30
0.0
 10
121.0071929312
 20
218.7388620969
 30
0.0
 10
123.3348099094
 20
219.0294573676
 30
0.0
 10
124.5075610284
 20
219.0794656489
 30
0.0
 10
125.0936258387
 20
219.0794656489
 30
0.0
  0
SPLINE
  5
689
100
AcDbEntity
  8
BEZUGSACHSEN
100
AcDbSpline
 62
7
  6
CONTINUOUS
 70
0
 71
3
 72
10
 73
6
 74
0
 42
0.0000001
 43
0.0000001
 44
0.0000000001
 40
0.0
 40
0.0
 40
0.0
 40
0.0
 40
0.2500542352
 40
0.5001085202
 40
1.0
 40
1.0
 40
1.0
 40
1.0
 10
125.0936258387
 20
219.0794656489
 30
0.0
 10
125.6796907026
 20
219.0794656489
 30
0.0
 10
126.8524419025
 20
219.029457357
 30
0.0
 10
129.180058878
 20
218.7388620647
 30
0.0
 10
130.8961718733
 20
218.3326181216
 30
0.0
 10
132.021829069
 20
218.0076688791
 30
0.0
  0
SPLINE
  5
68A
100
AcDbEntity
  8
BEZUGSACHSEN
100
AcDbSpline
 62
7
  6
CONTINUOUS
 70
0
 71
3
 72
11
 73
7
 74
0
 42
0.0000001
 43
0.0000001
 44
0.0000000001
 40
0.0
 40
0.0
 40
0.0
 40
0.0
 40
0.261635636
 40
0.5144889974
 40
0.7595899979
 40
1.0
 40
1.0
 40
1.0
 40
1.0
 10
132.021829069
 20
218.0076688791
 30
0.0
 10
132.2987368415
 20
218.1675416561
 30
0.0
 10
132.8558246968
 20
218.4611472983
 30
0.0
 10
133.7196291487
 20
218.8069796023
 30
0.0
 10
134.5976795461
 20
219.0282494869
 30
0.0
 10
135.1921250288
 20
219.0794656488
 30
0.0
 10
135.4859306834
 20
219.0794656489
 30
0.0
  0
SPLINE
  5
68B
100
AcDbEntity
  8
BEZUGSACHSEN
100
AcDbSpline
 62
7
  6
CONTINUOUS
 70
0
 71
3
 72
9
 73
5
 74
0
 42
0.0000001
 43
0.0000001
 44
0.0000000001
 40
0.0
 40
0.0
 40
0.0
 40
0.0
 40
0.4961584454
 40
1.0
 40
1.0
 40
1.0
 40
1.0
 10
135.4859306834
 20
219.0794656489
 30
0.0
 10
135.7447011932
 20
219.0794656489
 30
0.0
 10
136.2669525724
 20
219.0399855797
 30
0.0
 10
136.7777247742
 20
218.9263121889
 30
0.0
 10
137.0302552248
 20
218.8536454866
 30
0.0
  0
SPLINE
  5
68C
100
AcDbEntity
  8
BEZUGSACHSEN
100
AcDbSpline
 62
7
  6
CONTINUOUS
 70
0
 71
3
 72
9
 73
5
 74
0
 42
0.0000001
 43
0.0000001
 44
0.0000000001
 40
0.0
 40
0.0
 40
0.0
 40
0.0
 40
0.2431746274
 40
1.0
 40
1.0
 40
1.0
 40
1.0
 10
137.0302552248
 20
218.8536454866
 30
0.0
 10
137.1939231733
 20
218.8065493441
 30
0.0
 10
137.8593066481
 20
218.5860352657
 30
0.0
 10
138.4909967526
 20
218.2726931755
 30
0.0
 10
138.9500322993
 20
218.0076688791
 30
0.0
  0
SPLINE
  5
68D
100
AcDbEntity
  8
0
100
AcDbSpline
 62
7
  6
CONTINUOUS
 70
0
 71
3
 72
13
 73
9
 74
0
 42
0.0000001
 43
0.0000001
 44
0.0000000001
 40
0.0
 40
0.0
 40
0.0
 40
0.0
 40
0.1162949953
 40
0.2113148767
 40
0.331942336
 40
0.4758317082
 40
0.6389533111
 40
1.0
 40
1.0
 40
1.0
 40
1.0
 10
105.1553274936
 20
196.4494656489
 30
0.0
 10
105.1929883412
 20
196.4494656489
 30
0.0
 10
105.248956614
 20
196.5106481235
 30
0.0
 10
105.2951412832
 20
196.6032509867
 30
0.0
 10
105.3347928825
 20
196.7144755304
 30
0.0
 10
105.3675467617
 20
196.8487304434
 30
0.0
 10
105.4027747944
 20
197.0625218753
 30
0.0
 10
105.4127782521
 20
197.232544673
 30
0.0
 10
105.4127782521
 20
197.3494656489
 30
0.0
  0
SPLINE
  5
68E
100
AcDbEntity
  8
0
100
AcDbSpline
 62
7
  6
CONTINUOUS
 70
0
 71
3
 72
13
 73
9
 74
0
 42
0.0000001
 43
0.0000001
 44
0.0000000001
 40
0.0
 40
0.0
 40
0.0
 40
0.0
 40
0.0158213264
 40
0.062989236
 40
0.1415376082
 40
0.2514711258
 40
0.5648622336
 40
1.0
 40
1.0
 40
1.0
 40
1.0
 10
104.5936676979
 20
196.5995032585
 30
0.0
 10
104.5939429204
 20
196.5995021398
 30
0.0
 10
104.5935315756
 20
196.6012499624
 30
0.0
 10
104.5942093333
 20
196.6030733643
 30
0.0
 10
104.5941934209
 20
196.60752164
 30
0.0
 10
104.5948896113
 20
196.6160188355
 30
0.0
 10
104.5955944015
 20
196.6310941818
 30
0.0
 10
104.5963245218
 20
196.6440385574
 30
0.0
 10
104.596711969
 20
196.6515982098
 30
0.0
  0
SPLINE
  5
68F
100
AcDbEntity
  8
0
100
AcDbSpline
 62
7
  6
CONTINUOUS
 70
0
 71
3
 72
11
 73
7
 74
0
 42
0.0000001
 43
0.0000001
 44
0.0000000001
 40
0.0
 40
0.0
 40
0.0
 40
0.0
 40
0.3848392811
 40
0.7015387564
 40
0.9147757871
 40
1.0
 40
1.0
 40
1.0
 40
1.0
 10
104.6124242176
 20
197.3144139396
 30
0.0
 10
104.6116795984
 20
197.2227640474
 30
0.0
 10
104.6092641514
 20
197.0556965161
 30
0.0
 10
104.6023796854
 20
196.8379289645
 30
0.0
 10
104.5979816581
 20
196.6915118306
 30
0.0
 10
104.5936170507
 20
196.6205118182
 30
0.0
 10
104.5936324754
 20
196.6002149155
 30
0.0
  0
SPLINE
  5
690
100
AcDbEntity
  8
0
100
AcDbSpline
 62
7
  6
CONTINUOUS
 70
0
 71
3
 72
13
 73
9
 74
0
 42
0.0000001
 43
0.0000001
 44
0.0000000001
 40
0.0
 40
0.0
 40
0.0
 40
0.0
 40
0.3610576335
 40
0.5241812624
 40
0.6680701978
 40
0.7886941268
 40
0.883709684
 40
1.0
 40
1.0
 40
1.0
 40
1.0
 10
105.4127782521
 20
198.4594656489
 30
0.0
 10
105.4127782521
 20
198.5763901968
 30
0.0
 10
105.4027741723
 20
198.746417275
 30
0.0
 10
105.3675442482
 20
198.9602125631
 30
0.0
 10
105.3347897131
 20
199.0944667253
 30
0.0
 10
105.2951380403
 20
199.2056883379
 30
0.0
 10
105.2489535369
 20
199.298287224
 30
0.0
 10
105.1929868349
 20
199.3594656489
 30
0.0
 10
105.1553274936
 20
199.3594656489
 30
0.0
  0
SPLINE
  5
691
100
AcDbEntity
  8
0
100
AcDbSpline
 62
7
  6
CONTINUOUS
 70
0
 71
3
 72
23
 73
19
 74
0
 42
0.0000001
 43
0.0000001
 44
0.0000000001
 40
0.0
 40
0.0
 40
0.0
 40
0.0
 40
0.0261185012
 40
0.0453630099
 40
0.0686889635
 40
0.1252919526
 40
0.1916119015
 40
0.2642733037
 40
0.340920144
 40
0.5000060926
 40
0.6590920644
 40
0.7357395212
 40
0.8083990825
 40
0.8747163443
 40
0.9313174709
 40
0.9546412889
 40
0.9738849878
 40
1.0
 40
1.0
 40
1.0
 40
1.0
 10
105.7547862169
 20
195.6994656489
 30
0.0
 10
105.7952883915
 20
195.6994656489
 30
0.0
 10
105.85816828
 20
195.7516488068
 30
0.0
 10
105.9155052752
 20
195.8384591449
 30
0.0
 10
105.9850921846
 20
195.9771177836
 30
0.0
 10
106.0582052795
 20
196.1919492167
 30
0.0
 10
106.1301642396
 20
196.4869975081
 30
0.0
 10
106.186864418
 20
196.8167121048
 30
0.0
 10
106.2421516635
 20
197.2919299081
 30
0.0
 10
106.2685802729
 20
197.9044948937
 30
0.0
 10
106.2421468885
 20
198.5170606813
 30
0.0
 10
106.1868565783
 20
198.9922761436
 30
0.0
 10
106.1301540798
 20
199.3219845392
 30
0.0
 10
106.0581917746
 20
199.6170208694
 30
0.0
 10
105.9850844509
 20
199.8318451869
 30
0.0
 10
105.9154880942
 20
199.9704893496
 30
0.0
 10
105.8581637364
 20
200.0572980162
 30
0.0
 10
105.7952829811
 20
200.1094656489
 30
0.0
 10
105.7547862169
 20
200.1094656489
 30
0.0
  0
SPLINE
  5
692
100
AcDbEntity
  8
0
100
AcDbSpline
 62
7
  6
CONTINUOUS
 70
0
 71
3
 72
14
 73
10
 74
0
 42
0.0000001
 43
0.0000001
 44
0.0000000001
 40
0.0
 40
0.0
 40
0.0
 40
0.0
 40
0.0217022987
 40
0.0763190874
 40
0.1629662284
 40
0.2798948041
 40
0.424977078
 40
0.5955343787
 40
1.0
 40
1.0
 40
1.0
 40
1.0
 10
104.5936268756
 20
195.6998269421
 30
0.0
 10
104.5936567553
 20
195.7068184264
 30
0.0
 10
104.5965964601
 20
195.7312924859
 30
0.0
 10
104.6005001826
 20
195.7836084714
 30
0.0
 10
104.6082067535
 20
195.8664537646
 30
0.0
 10
104.6174336391
 20
195.9783882551
 30
0.0
 10
104.628286077
 20
196.1173242405
 30
0.0
 10
104.644437783
 20
196.3487486449
 30
0.0
 10
104.654610975
 20
196.533735695
 30
0.0
 10
104.6603758825
 20
196.6639095493
 30
0.0
  0
SPLINE
  5
693
100
AcDbEntity
  8
0
100
AcDbSpline
 62
7
  6
CONTINUOUS
 70
0
 71
3
 72
23
 73
19
 74
0
 42
0.0000001
 43
0.0000001
 44
0.0000000001
 40
0.0
 40
0.0
 40
0.0
 40
0.0
 40
0.0256503648
 40
0.044787963
 40
0.0680844667
 40
0.0949502162
 40
0.1247570239
 40
0.1911974095
 40
0.340679378
 40
0.5000052426
 40
0.6593306389
 40
0.8088107306
 40
0.8752483242
 40
0.9050544446
 40
0.9319181246
 40
0.9552137682
 40
0.9743510022
 40
1.0
 40
1.0
 40
1.0
 40
1.0
 10
105.2354523535
 20
200.1094656489
 30
0.0
 10
105.2751175446
 20
200.1094656489
 30
0.0
 10
105.3362459009
 20
200.0564142125
 30
0.0
 10
105.3915334655
 20
199.9700050045
 30
0.0
 10
105.4388660852
 20
199.872649367
 30
0.0
 10
105.4828054596
 20
199.7572560308
 30
0.0
 10
105.5397092642
 20
199.5753681831
 30
0.0
 10
105.6262420832
 20
199.2049968274
 30
0.0
 10
105.7026754735
 20
198.6285026437
 30
0.0
 10
105.7332898635
 20
197.9044414737
 30
0.0
 10
105.7026712601
 20
197.1803835326
 30
0.0
 10
105.6262368563
 20
196.6038973074
 30
0.0
 10
105.5397008388
 20
196.2335352206
 30
0.0
 10
105.4827992119
 20
196.0516557792
 30
0.0
 10
105.4388600679
 20
195.9362680494
 30
0.0
 10
105.3915263114
 20
195.8389192546
 30
0.0
 10
105.3362451
 20
195.7525096665
 30
0.0
 10
105.2751154306
 20
195.6994656489
 30
0.0
 10
105.2354523535
 20
195.6994656489
 30
0.0
  0
SPLINE
  5
694
100
AcDbEntity
  8
0
100
AcDbSpline
 62
7
  6
CONTINUOUS
 70
0
 71
3
 72
15
 73
11
 74
0
 42
0.0000001
 43
0.0000001
 44
0.0000000001
 40
0.0
 40
0.0
 40
0.0
 40
0.0
 40
0.125
 40
0.25
 40
0.375
 40
0.5
 40
0.625
 40
0.75
 40
0.875
 40
1.0
 40
1.0
 40
1.0
 40
1.0
 10
267.1936862929
 20
200.1094656489
 30
0.0
 10
267.3900094116
 20
200.1094656489
 30
0.0
 10
267.782655649
 20
199.9946554257
 30
0.0
 10
268.2819597597
 20
199.504227645
 30
0.0
 10
268.6155841003
 20
198.7702506024
 30
0.0
 10
268.7327373892
 20
197.9044656489
 30
0.0
 10
268.6155841003
 20
197.0386806954
 30
0.0
 10
268.2819597597
 20
196.3047036527
 30
0.0
 10
267.782655649
 20
195.814275872
 30
0.0
 10
267.3900094116
 20
195.6994656489
 30
0.0
 10
267.1936862929
 20
195.6994656489
 30
0.0
  0
SPLINE
  5
695
100
AcDbEntity
  8
BEZUGSACHSEN
100
AcDbSpline
 62
7
  6
CONTINUOUS
 70
0
 71
3
 72
10
 73
6
 74
0
 42
0.0000001
 43
0.0000001
 44
0.0000000001
 40
0.0
 40
0.0
 40
0.0
 40
0.0
 40
0.5015949378
 40
0.7510711204
 40
1.0
 40
1.0
 40
1.0
 40
1.0
 10
262.4636862929
 20
218.0076688791
 30
0.0
 10
263.4341998086
 20
218.3311733843
 30
0.0
 10
264.9179496059
 20
218.7376861888
 30
0.0
 10
266.9387754732
 20
219.0293230297
 30
0.0
 10
267.9559917751
 20
219.0794656488
 30
0.0
 10
268.4636862917
 20
219.0794656489
 30
0.0
  0
SPLINE
  5
696
100
AcDbEntity
  8
BEZUGSACHSEN
100
AcDbSpline
 62
7
  6
CONTINUOUS
 70
0
 71
3
 72
10
 73
6
 74
0
 42
0.0000001
 43
0.0000001
 44
0.0000000001
 40
0.0
 40
0.0
 40
0.0
 40
0.0
 40
0.2489289184
 40
0.4984051116
 40
1.0
 40
1.0
 40
1.0
 40
1.0
 10
268.4636862917
 20
219.0794656489
 30
0.0
 10
268.9713808876
 20
219.0794656489
 30
0.0
 10
269.9885972911
 20
219.0293230183
 30
0.0
 10
272.0094231541
 20
218.7376861401
 30
0.0
 10
273.4931728723
 20
218.3311733527
 30
0.0
 10
274.4636862929
 20
218.0076688791
 30
0.0
  0
SPLINE
  5
697
100
AcDbEntity
  8
BEZUGSACHSEN
100
AcDbSpline
 62
7
  6
CONTINUOUS
 70
0
 71
3
 72
10
 73
6
 74
0
 42
0.0000001
 43
0.0000001
 44
0.0000000001
 40
0.0
 40
0.0
 40
0.0
 40
0.0
 40
0.2489289185
 40
0.4984051116
 40
1.0
 40
1.0
 40
1.0
 40
1.0
 10
256.4636867475
 20
219.0794656702
 30
0.0
 10
256.9713813058
 20
219.0794656404
 30
0.0
 10
257.9885976308
 20
219.0293229781
 30
0.0
 10
260.0094233394
 20
218.7376860937
 30
0.0
 10
261.4931729444
 20
218.3311733286
 30
0.0
 10
262.4636862929
 20
218.0076688791
 30
0.0
  0
SPLINE
  5
698
100
AcDbEntity
  8
BEZUGSACHSEN
100
AcDbSpline
 62
7
  6
CONTINUOUS
 70
0
 71
3
 72
9
 73
5
 74
0
 42
0.0000001
 43
0.0000001
 44
0.0000000001
 40
0.0
 40
0.0
 40
0.0
 40
0.0
 40
0.5015507634
 40
1.0
 40
1.0
 40
1.0
 40
1.0
 10
250.4636862929
 20
218.0076688791
 30
0.0
 10
251.1900277019
 20
218.2497826821
 30
0.0
 10
252.6588924543
 20
218.6741783932
 30
0.0
 10
254.168832644
 20
218.9301583188
 30
0.0
 10
254.9261328534
 20
219.0040493391
 30
0.0
  0
LINE
  5
699
100
AcDbEntity
  8
0
100
AcDbLine
 62
7
  6
CONTINUOUS
 10
281.4636862929
 20
204.2749093595
 11
281.4636862929
 21
204.364150332
  0
LINE
  5
69A
100
AcDbEntity
  8
0
100
AcDbLine
 62
7
  6
CONTINUOUS
 10
281.4636862929
 20
204.364150332
 11
281.4636862929
 21
204.4536179044
  0
LINE
  5
69B
100
AcDbEntity
  8
0
100
AcDbLine
 62
7
  6
CONTINUOUS
 10
243.4636862929
 20
204.4536179044
 11
243.4636862929
 21
204.3641462937
  0
LINE
  5
69C
100
AcDbEntity
  8
0
100
AcDbLine
 62
7
  6
CONTINUOUS
 10
243.4636862929
 20
204.3641462937
 11
243.4636862929
 21
204.2749093595
  0
SPLINE
  5
69D
100
AcDbEntity
  8
0
100
AcDbSpline
 62
7
  6
CONTINUOUS
 70
0
 71
3
 72
13
 73
9
 74
0
 42
0.0000001
 43
0.0000001
 44
0.0000000001
 40
0.0
 40
0.0
 40
0.0
 40
0.0
 40
0.2499931616
 40
0.4999836117
 40
0.6249878063
 40
0.7499917387
 40
0.8749952241
 40
1.0
 40
1.0
 40
1.0
 40
1.0
 10
270.8471581872
 20
268.420596609
 30
0.0
 10
271.3967924917
 20
268.285740956
 30
0.0
 10
272.4896480651
 20
267.9891677348
 30
0.0
 10
273.8359572714
 20
267.5521920318
 30
0.0
 10
274.8989349385
 20
267.162976176
 30
0.0
 10
275.6890224308
 20
266.8521136698
 30
0.0
 10
276.4707497909
 20
266.520745929
 30
0.0
 10
276.9859938255
 20
266.2864464345
 30
0.0
 10
277.242867747
 20
266.1677145219
 30
0.0
  0
SPLINE
  5
69E
100
AcDbEntity
  8
RUNDUNGEN
100
AcDbSpline
 62
7
  6
CONTINUOUS
 70
0
 71
3
 72
8
 73
4
 74
0
 42
0.0000001
 43
0.0000001
 44
0.0000000001
 40
0.0
 40
0.0
 40
0.0
 40
0.0
 40
1.0
 40
1.0
 40
1.0
 40
1.0
 10
283.2345455883
 20
262.3424760492
 30
0.0
 10
283.1625891326
 20
262.3983540621
 30
0.0
 10
283.0921565116
 20
262.4562975273
 30
0.0
 10
283.0240313117
 20
262.5167875347
 30
0.0
  0
SPLINE
  5
69F
100
AcDbEntity
  8
RUNDUNGEN
100
AcDbSpline
 62
7
  6
CONTINUOUS
 70
0
 71
3
 72
9
 73
5
 74
0
 42
0.0000001
 43
0.0000001
 44
0.0000000001
 40
0.0
 40
0.0
 40
0.0
 40
0.0
 40
0.5001254902
 40
1.0
 40
1.0
 40
1.0
 40
1.0
 10
277.242867747
 20
266.1677145219
 30
0.0
 10
278.2804887569
 20
265.6884005856
 30
0.0
 10
280.3122288921
 20
264.6298448479
 30
0.0
 10
282.1697783259
 20
263.2752993552
 30
0.0
 10
283.0240313117
 20
262.5167875347
 30
0.0
  0
SPLINE
  5
6A0
100
AcDbEntity
  8
RUNDUNGEN
100
AcDbSpline
 62
7
  6
CONTINUOUS
 70
0
 71
3
 72
9
 73
5
 74
0
 42
0.0000001
 43
0.0000001
 44
0.0000000001
 40
0.0
 40
0.0
 40
0.0
 40
0.0
 40
0.5002440717
 40
1.0
 40
1.0
 40
1.0
 40
1.0
 10
283.2345455883
 20
262.3424760492
 30
0.0
 10
284.0234980393
 20
261.7298125314
 30
0.0
 10
285.5063919467
 20
260.3767454943
 30
0.0
 10
286.720249364
 20
258.7732165123
 30
0.0
 10
287.2398543461
 20
257.9212383222
 30
0.0
  0
SPLINE
  5
6A1
100
AcDbEntity
  8
0
100
AcDbSpline
 62
7
  6
CONTINUOUS
 70
0
 71
3
 72
8
 73
4
 74
0
 42
0.0000001
 43
0.0000001
 44
0.0000000001
 40
0.0
 40
0.0
 40
0.0
 40
0.0
 40
1.0
 40
1.0
 40
1.0
 40
1.0
 10
287.2398543461
 20
257.9212383222
 30
0.0
 10
287.452687074
 20
257.5722376967
 30
0.0
 10
287.658222548
 20
257.2188255965
 30
0.0
 10
287.8706177748
 20
256.8695585435
 30
0.0
  0
SPLINE
  5
6A2
100
AcDbEntity
  8
0
100
AcDbSpline
 62
7
  6
CONTINUOUS
 70
0
 71
3
 72
8
 73
4
 74
0
 42
0.0000001
 43
0.0000001
 44
0.0000000001
 40
0.0
 40
0.0
 40
0.0
 40
0.0
 40
1.0
 40
1.0
 40
1.0
 40
1.0
 10
287.8706177748
 20
256.8695585435
 30
0.0
 10
287.9823065407
 20
256.6859155895
 30
0.0
 10
288.0948841958
 20
256.5027332838
 30
0.0
 10
288.2012353061
 20
256.3159484977
 30
0.0
  0
SPLINE
  5
6A3
100
AcDbEntity
  8
RUNDUNGEN
100
AcDbSpline
 62
7
  6
CONTINUOUS
 70
0
 71
3
 72
9
 73
5
 74
0
 42
0.0000001
 43
0.0000001
 44
0.0000000001
 40
0.0
 40
0.0
 40
0.0
 40
0.0
 40
0.2501634381
 40
1.0
 40
1.0
 40
1.0
 40
1.0
 10
289.5138024554
 20
253.1981019208
 30
0.0
 10
289.569441411
 20
252.9459910408
 30
0.0
 10
289.7669919205
 20
251.9329306589
 30
0.0
 10
289.862821611
 20
250.8996331622
 30
0.0
 10
289.8721841014
 20
250.1258321833
 30
0.0
  0
SPLINE
  5
6A4
100
AcDbEntity
  8
0
100
AcDbSpline
 62
7
  6
CONTINUOUS
 70
0
 71
3
 72
9
 73
5
 74
0
 42
0.0000001
 43
0.0000001
 44
0.0000000001
 40
0.0
 40
0.0
 40
0.0
 40
0.0
 40
0.5000000216
 40
1.0
 40
1.0
 40
1.0
 40
1.0
 10
289.8820673287
 20
247.8040096395
 30
0.0
 10
289.8834498782
 20
247.026173788
 30
0.0
 10
289.8809263645
 20
245.4704978647
 30
0.0
 10
289.8820798519
 20
243.9148243901
 30
0.0
 10
289.8820332493
 20
243.1369873787
 30
0.0
  0
LINE
  5
6A5
100
AcDbEntity
  8
0
100
AcDbLine
 62
7
  6
CONTINUOUS
 10
289.8820151657
 20
242.8291234318
 11
289.8820078221
 21
232.0882869496
  0
LINE
  5
6A6
100
AcDbEntity
  8
0
100
AcDbLine
 62
7
  6
CONTINUOUS
 10
289.6300412521
 20
232.6048949761
 11
289.6300414038
 21
206.6794656489
  0
SPLINE
  5
6A7
100
AcDbEntity
  8
0
100
AcDbSpline
 62
7
  6
CONTINUOUS
 70
0
 71
3
 72
13
 73
9
 74
0
 42
0.0000001
 43
0.0000001
 44
0.0000000001
 40
0.0
 40
0.0
 40
0.0
 40
0.0
 40
0.2499931616
 40
0.4999836117
 40
0.6249878063
 40
0.7499917387
 40
0.8749952241
 40
1.0
 40
1.0
 40
1.0
 40
1.0
 10
254.0802143987
 20
268.420596609
 30
0.0
 10
253.5305800942
 20
268.285740956
 30
0.0
 10
252.4377245208
 20
267.9891677348
 30
0.0
 10
251.0914153144
 20
267.5521920318
 30
0.0
 10
250.0284376473
 20
267.162976176
 30
0.0
 10
249.238350155
 20
266.8521136698
 30
0.0
 10
248.4566227949
 20
266.520745929
 30
0.0
 10
247.9413787604
 20
266.2864464345
 30
0.0
 10
247.6845048389
 20
266.1677145219
 30
0.0
  0
SPLINE
  5
6A8
100
AcDbEntity
  8
0
100
AcDbSpline
 62
7
  6
CONTINUOUS
 70
0
 71
3
 72
8
 73
4
 74
0
 42
0.0000001
 43
0.0000001
 44
0.0000000001
 40
0.0
 40
0.0
 40
0.0
 40
0.0
 40
1.0
 40
1.0
 40
1.0
 40
1.0
 10
241.6928269976
 20
262.3424760492
 30
0.0
 10
241.7647834533
 20
262.3983540621
 30
0.0
 10
241.8352160743
 20
262.4562975273
 30
0.0
 10
241.9033412742
 20
262.5167875347
 30
0.0
  0
SPLINE
  5
6A9
100
AcDbEntity
  8
0
100
AcDbSpline
 62
7
  6
CONTINUOUS
 70
0
 71
3
 72
9
 73
5
 74
0
 42
0.0000001
 43
0.0000001
 44
0.0000000001
 40
0.0
 40
0.0
 40
0.0
 40
0.0
 40
0.5002440717
 40
1.0
 40
1.0
 40
1.0
 40
1.0
 10
241.6928269976
 20
262.3424760492
 30
0.0
 10
240.9038745465
 20
261.7298125314
 30
0.0
 10
239.4209806391
 20
260.3767454943
 30
0.0
 10
238.2071232218
 20
258.7732165123
 30
0.0
 10
237.6875182397
 20
257.9212383222
 30
0.0
  0
SPLINE
  5
6AA
100
AcDbEntity
  8
0
100
AcDbSpline
 62
7
  6
CONTINUOUS
 70
0
 71
3
 72
9
 73
5
 74
0
 42
0.0000001
 43
0.0000001
 44
0.0000000001
 40
0.0
 40
0.0
 40
0.0
 40
0.0
 40
0.5001254902
 40
1.0
 40
1.0
 40
1.0
 40
1.0
 10
247.6845048389
 20
266.1677145219
 30
0.0
 10
246.646883829
 20
265.6884005856
 30
0.0
 10
244.6151436937
 20
264.6298448479
 30
0.0
 10
242.7575942599
 20
263.2752993552
 30
0.0
 10
241.9033412742
 20
262.5167875347
 30
0.0
  0
SPLINE
  5
6AB
100
AcDbEntity
  8
0
100
AcDbSpline
 62
7
  6
CONTINUOUS
 70
0
 71
3
 72
8
 73
4
 74
0
 42
0.0000001
 43
0.0000001
 44
0.0000000001
 40
0.0
 40
0.0
 40
0.0
 40
0.0
 40
1.0
 40
1.0
 40
1.0
 40
1.0
 10
237.6875182397
 20
257.9212383222
 30
0.0
 10
237.4746855118
 20
257.5722376967
 30
0.0
 10
237.2691500378
 20
257.2188255965
 30
0.0
 10
237.0567548111
 20
256.8695585435
 30
0.0
  0
SPLINE
  5
6AC
100
AcDbEntity
  8
0
100
AcDbSpline
 62
7
  6
CONTINUOUS
 70
0
 71
3
 72
8
 73
4
 74
0
 42
0.0000001
 43
0.0000001
 44
0.0000000001
 40
0.0
 40
0.0
 40
0.0
 40
0.0
 40
1.0
 40
1.0
 40
1.0
 40
1.0
 10
237.0567548111
 20
256.8695585435
 30
0.0
 10
236.9450660452
 20
256.6859155895
 30
0.0
 10
236.83248839
 20
256.5027332838
 30
0.0
 10
236.7261372798
 20
256.3159484977
 30
0.0
  0
SPLINE
  5
6AD
100
AcDbEntity
  8
0
100
AcDbSpline
 62
7
  6
CONTINUOUS
 70
0
 71
3
 72
9
 73
5
 74
0
 42
0.0000001
 43
0.0000001
 44
0.0000000001
 40
0.0
 40
0.0
 40
0.0
 40
0.0
 40
0.2501634381
 40
1.0
 40
1.0
 40
1.0
 40
1.0
 10
235.4135701305
 20
253.1981019208
 30
0.0
 10
235.3579311748
 20
252.9459910408
 30
0.0
 10
235.1603806654
 20
251.9329306589
 30
0.0
 10
235.0645509749
 20
250.8996331622
 30
0.0
 10
235.0551884845
 20
250.1258321833
 30
0.0
  0
SPLINE
  5
6AE
100
AcDbEntity
  8
0
100
AcDbSpline
 62
7
  6
CONTINUOUS
 70
0
 71
3
 72
9
 73
5
 74
0
 42
0.0000001
 43
0.0000001
 44
0.0000000001
 40
0.0
 40
0.0
 40
0.0
 40
0.0
 40
0.5000000216
 40
1.0
 40
1.0
 40
1.0
 40
1.0
 10
235.0453052571
 20
247.8040096395
 30
0.0
 10
235.0439227077
 20
247.026173788
 30
0.0
 10
235.0464462213
 20
245.4704978647
 30
0.0
 10
235.045292734
 20
243.9148243901
 30
0.0
 10
235.0453393366
 20
243.1369873787
 30
0.0
  0
LINE
  5
6AF
100
AcDbEntity
  8
0
100
AcDbLine
 62
7
  6
CONTINUOUS
 10
235.0453574201
 20
242.8291234318
 11
235.0453647637
 21
232.0882869496
  0
SPLINE
  5
6B0
100
AcDbEntity
  8
0
100
AcDbSpline
 62
7
  6
CONTINUOUS
 70
0
 71
3
 72
8
 73
4
 74
0
 42
0.0000001
 43
0.0000001
 44
0.0000000001
 40
0.0
 40
0.0
 40
0.0
 40
0.0
 40
1.0
 40
1.0
 40
1.0
 40
1.0
 10
289.8721841014
 20
250.1258321833
 30
0.0
 10
289.881547895
 20
249.3519409709
 30
0.0
 10
289.8820672655
 20
248.577957499
 30
0.0
 10
289.8820673287
 20
247.8040096395
 30
0.0
  0
LINE
  5
6B1
100
AcDbEntity
  8
0
100
AcDbLine
 62
7
  6
CONTINUOUS
 10
235.2973313337
 20
232.6048949761
 11
235.297331182
 21
206.6794656489
  0
SPLINE
  5
6B2
100
AcDbEntity
  8
0
100
AcDbSpline
 62
7
  6
CONTINUOUS
 70
0
 71
3
 72
8
 73
4
 74
0
 42
0.0000001
 43
0.0000001
 44
0.0000000001
 40
0.0
 40
0.0
 40
0.0
 40
0.0
 40
1.0
 40
1.0
 40
1.0
 40
1.0
 10
235.0551884845
 20
250.1258321833
 30
0.0
 10
235.0458246908
 20
249.3519409709
 30
0.0
 10
235.0453053203
 20
248.577957499
 30
0.0
 10
235.0453052571
 20
247.8040096395
 30
0.0
  0
SPLINE
  5
6B3
100
AcDbEntity
  8
0
100
AcDbSpline
 62
7
  6
CONTINUOUS
 70
0
 71
3
 72
16
 73
12
 74
0
 42
0.0000001
 43
0.0000001
 44
0.0000000001
 40
0.0
 40
0.0
 40
0.0
 40
0.0
 40
0.0040173258
 40
0.0161031071
 40
0.0362128514
 40
0.0642989894
 40
0.1442116516
 40
0.2554671786
 40
0.3976219354
 40
0.5697851126
 40
1.0
 40
1.0
 40
1.0
 40
1.0
 10
150.9113252026
 20
108.2806401216
 30
0.0
 10
150.9110642053
 20
108.2807378795
 30
0.0
 10
150.9121747425
 20
108.2787660594
 30
0.0
 10
150.9120657591
 20
108.2772114706
 30
0.0
 10
150.9136219306
 20
108.2726910077
 30
0.0
 10
150.9156938407
 20
108.2644133582
 30
0.0
 10
150.9198168226
 20
108.2494978215
 30
0.0
 10
150.9255300312
 20
108.2272196429
 30
0.0
 10
150.9327740915
 20
108.1985475852
 30
0.0
 10
150.9448134305
 20
108.1483404916
 30
0.0
 10
150.9536934766
 20
108.1074853338
 30
0.0
 10
150.95960118
 20
108.078229423
 30
0.0
  0
SPLINE
  5
6B4
100
AcDbEntity
  8
0
100
AcDbSpline
 62
7
  6
CONTINUOUS
 70
0
 71
3
 72
11
 73
7
 74
0
 42
0.0000001
 43
0.0000001
 44
0.0000000001
 40
0.0
 40
0.0
 40
0.0
 40
0.0
 40
0.2511445537
 40
0.5010613481
 40
0.7501070698
 40
1.0
 40
1.0
 40
1.0
 40
1.0
 10
139.2133688382
 20
58.0642164416
 30
0.0
 10
139.2478111402
 20
58.2944778055
 30
0.0
 10
139.3194515468
 20
58.7534390688
 30
0.0
 10
139.3890366761
 20
59.4460942325
 30
0.0
 10
139.3896498656
 20
60.1416271128
 30
0.0
 10
139.3440391947
 20
60.6024872096
 30
0.0
 10
139.3147734458
 20
60.8322939416
 30
0.0
  0
SPLINE
  5
6B5
100
AcDbEntity
  8
0
100
AcDbSpline
 62
7
  6
CONTINUOUS
 70
0
 71
3
 72
9
 73
5
 74
0
 42
0.0000001
 43
0.0000001
 44
0.0000000001
 40
0.0
 40
0.0
 40
0.0
 40
0.0
 40
0.2474291342
 40
1.0
 40
1.0
 40
1.0
 40
1.0
 10
139.3147734458
 20
60.8322939416
 30
0.0
 10
139.3092743585
 20
60.8754763765
 30
0.0
 10
139.2818622379
 20
61.049354722
 30
0.0
 10
139.2375721249
 20
61.2201333428
 30
0.0
 10
139.1999704784
 20
61.3470844961
 30
0.0
  0
SPLINE
  5
6B6
100
AcDbEntity
  8
0
100
AcDbSpline
 62
7
  6
CONTINUOUS
 70
0
 71
3
 72
9
 73
5
 74
0
 42
0.0000001
 43
0.0000001
 44
0.0000000001
 40
0.0
 40
0.0
 40
0.0
 40
0.0
 40
0.2509770573
 40
1.0
 40
1.0
 40
1.0
 40
1.0
 10
139.1999704784
 20
61.3470844961
 30
0.0
 10
139.1835897793
 20
61.4023888109
 30
0.0
 10
139.118877324
 20
61.6228976379
 30
0.0
 10
139.0580303583
 20
61.8446304022
 30
0.0
 10
139.0178199369
 20
62.012007641
 30
0.0
  0
SPLINE
  5
6B7
100
AcDbEntity
  8
RUNDUNGEN
100
AcDbSpline
 62
7
  6
CONTINUOUS
 70
0
 71
3
 72
9
 73
5
 74
0
 42
0.0000001
 43
0.0000001
 44
0.0000000001
 40
0.0
 40
0.0
 40
0.0
 40
0.0
 40
0.2550613115
 40
1.0
 40
1.0
 40
1.0
 40
1.0
 10
139.6012364425
 20
61.7162017733
 30
0.0
 10
139.6000223395
 20
61.734072103
 30
0.0
 10
139.595765729
 20
61.8041665287
 30
0.0
 10
139.5936258387
 20
61.8744031848
 30
0.0
 10
139.5936258387
 20
61.9267160499
 30
0.0
  0
SPLINE
  5
6B8
100
AcDbEntity
  8
RUNDUNGEN
100
AcDbSpline
 62
7
  6
CONTINUOUS
 70
0
 71
3
 72
9
 73
5
 74
0
 42
0.0000001
 43
0.0000001
 44
0.0000000001
 40
0.0
 40
0.0
 40
0.0
 40
0.0
 40
0.5497183648
 40
1.0
 40
1.0
 40
1.0
 40
1.0
 10
139.6012364425
 20
61.7162017733
 30
0.0
 10
139.6512239229
 20
60.9804382145
 30
0.0
 10
139.755595279
 20
59.6429145536
 30
0.0
 10
139.9022685797
 20
58.3088350063
 30
0.0
 10
139.9880446224
 20
57.7108930155
 30
0.0
  0
SPLINE
  5
6B9
100
AcDbEntity
  8
RUNDUNGEN
100
AcDbSpline
 62
7
  6
CONTINUOUS
 70
0
 71
3
 72
9
 73
5
 74
0
 42
0.0000001
 43
0.0000001
 44
0.0000000001
 40
0.0
 40
0.0
 40
0.0
 40
0.0
 40
0.2512132149
 40
1.0
 40
1.0
 40
1.0
 40
1.0
 10
138.7921267425
 20
63.2037421032
 30
0.0
 10
138.7850775589
 20
63.2430399553
 30
0.0
 10
138.7591550532
 20
63.3998422725
 30
0.0
 10
138.7422602591
 20
63.5581841847
 30
0.0
 10
138.7355131956
 20
63.6769967501
 30
0.0
  0
SPLINE
  5
6BA
100
AcDbEntity
  8
0
100
AcDbSpline
 62
7
  6
CONTINUOUS
 70
0
 71
3
 72
9
 73
5
 74
0
 42
0.0000001
 43
0.0000001
 44
0.0000000001
 40
0.0
 40
0.0
 40
0.0
 40
0.0
 40
0.2512003088
 40
1.0
 40
1.0
 40
1.0
 40
1.0
 10
139.9880446224
 20
57.7108930155
 30
0.0
 10
139.995624344
 20
57.6580589929
 30
0.0
 10
140.0261512881
 20
57.4477834707
 30
0.0
 10
140.0573978562
 20
57.237612845
 30
0.0
 10
140.0800546807
 20
57.0801295868
 30
0.0
  0
SPLINE
  5
6BB
100
AcDbEntity
  8
0
100
AcDbSpline
 62
7
  6
CONTINUOUS
 70
0
 71
3
 72
9
 73
5
 74
0
 42
0.0000001
 43
0.0000001
 44
0.0000000001
 40
0.0
 40
0.0
 40
0.0
 40
0.0
 40
0.2536747968
 40
1.0
 40
1.0
 40
1.0
 40
1.0
 10
140.0800546807
 20
57.0801295868
 30
0.0
 10
140.0840777958
 20
57.052162586
 30
0.0
 10
140.0998579798
 20
56.9419041366
 30
0.0
 10
140.1158643744
 20
56.8316751927
 30
0.0
 10
140.1284892837
 20
56.7495120555
 30
0.0
  0
SPLINE
  5
6BC
100
AcDbEntity
  8
RUNDUNGEN
100
AcDbSpline
 62
7
  6
CONTINUOUS
 70
0
 71
3
 72
9
 73
5
 74
0
 42
0.0000001
 43
0.0000001
 44
0.0000000001
 40
0.0
 40
0.0
 40
0.0
 40
0.0
 40
0.2193081084
 40
1.0
 40
1.0
 40
1.0
 40
1.0
 10
140.3936258387
 20
55.4369449063
 30
0.0
 10
140.3936258387
 20
55.4403316179
 30
0.0
 10
140.3928150394
 20
55.4557756631
 30
0.0
 10
140.3893573072
 20
55.470968762
 30
0.0
 10
140.3860152349
 20
55.4825522701
 30
0.0
  0
SPLINE
  5
6BD
100
AcDbEntity
  8
RUNDUNGEN
100
AcDbSpline
 62
7
  6
CONTINUOUS
 70
0
 71
3
 72
9
 73
5
 74
0
 42
0.0000001
 43
0.0000001
 44
0.0000000001
 40
0.0
 40
0.0
 40
0.0
 40
0.0
 40
0.5618565954
 40
1.0
 40
1.0
 40
1.0
 40
1.0
 10
140.1284892837
 20
56.7495120555
 30
0.0
 10
140.1652811108
 20
56.510076081
 30
0.0
 10
140.2378834946
 20
56.085016022
 30
0.0
 10
140.3336479065
 20
55.6640556392
 30
0.0
 10
140.3860152349
 20
55.4825522701
 30
0.0
  0
SPLINE
  5
6BE
100
AcDbEntity
  8
0
100
AcDbSpline
 62
7
  6
CONTINUOUS
 70
0
 71
3
 72
9
 73
5
 74
0
 42
0.0000001
 43
0.0000001
 44
0.0000000001
 40
0.0
 40
0.0
 40
0.0
 40
0.0
 40
0.7489407268
 40
1.0
 40
1.0
 40
1.0
 40
1.0
 10
139.1689260104
 20
57.4951453437
 30
0.0
 10
139.1693101972
 20
57.6377131031
 30
0.0
 10
139.1812595866
 20
57.8282420702
 30
0.0
 10
139.2062988622
 20
58.0169506606
 30
0.0
 10
139.2133688382
 20
58.0642164416
 30
0.0
  0
SPLINE
  5
6BF
100
AcDbEntity
  8
0
100
AcDbSpline
 62
7
  6
CONTINUOUS
 70
0
 71
3
 72
16
 73
12
 74
0
 42
0.0000001
 43
0.0000001
 44
0.0000000001
 40
0.0
 40
0.0
 40
0.0
 40
0.0
 40
0.0040173258
 40
0.0161031071
 40
0.0362128514
 40
0.0642989894
 40
0.1442116516
 40
0.2554671786
 40
0.3976219354
 40
0.5697851126
 40
1.0
 40
1.0
 40
1.0
 40
1.0
 10
150.9113252026
 20
56.6934820158
 30
0.0
 10
150.9110642053
 20
56.6933842579
 30
0.0
 10
150.9121747425
 20
56.695356078
 30
0.0
 10
150.9120657591
 20
56.6969106668
 30
0.0
 10
150.9136219306
 20
56.7014311297
 30
0.0
 10
150.9156938407
 20
56.7097087792
 30
0.0
 10
150.9198168226
 20
56.7246243159
 30
0.0
 10
150.9255300312
 20
56.7469024945
 30
0.0
 10
150.9327740915
 20
56.7755745522
 30
0.0
 10
150.9448134305
 20
56.8257816458
 30
0.0
 10
150.9536934766
 20
56.8666368037
 30
0.0
 10
150.95960118
 20
56.8958927144
 30
0.0
  0
SPLINE
  5
6C0
100
AcDbEntity
  8
0
100
AcDbSpline
 62
7
  6
CONTINUOUS
 70
0
 71
3
 72
16
 73
12
 74
0
 42
0.0000001
 43
0.0000001
 44
0.0000000001
 40
0.0
 40
0.0
 40
0.0
 40
0.0
 40
0.0040173258
 40
0.0161031071
 40
0.0362128514
 40
0.0642989894
 40
0.1442116516
 40
0.2554671786
 40
0.3976219354
 40
0.5697851126
 40
1.0
 40
1.0
 40
1.0
 40
1.0
 10
139.2759264748
 20
108.2806401216
 30
0.0
 10
139.2761874721
 20
108.2807378795
 30
0.0
 10
139.2750769349
 20
108.2787660594
 30
0.0
 10
139.2751859183
 20
108.2772114706
 30
0.0
 10
139.2736297469
 20
108.2726910077
 30
0.0
 10
139.2715578367
 20
108.2644133582
 30
0.0
 10
139.2674348549
 20
108.2494978215
 30
0.0
 10
139.2617216463
 20
108.2272196429
 30
0.0
 10
139.2544775859
 20
108.1985475852
 30
0.0
 10
139.242438247
 20
108.1483404916
 30
0.0
 10
139.2335582008
 20
108.1074853338
 30
0.0
 10
139.2276504975
 20
108.078229423
 30
0.0
  0
SPLINE
  5
6C1
100
AcDbEntity
  8
0
100
AcDbSpline
 62
7
  6
CONTINUOUS
 70
0
 71
3
 72
11
 73
7
 74
0
 42
0.0000001
 43
0.0000001
 44
0.0000000001
 40
0.0
 40
0.0
 40
0.0
 40
0.0
 40
0.2511445537
 40
0.5010613481
 40
0.7501070698
 40
1.0
 40
1.0
 40
1.0
 40
1.0
 10
139.2133688382
 20
106.9099056958
 30
0.0
 10
139.2478111402
 20
106.6796443319
 30
0.0
 10
139.3194515468
 20
106.2206830686
 30
0.0
 10
139.3890366761
 20
105.5280279049
 30
0.0
 10
139.3896498656
 20
104.8324950246
 30
0.0
 10
139.3440391947
 20
104.3716349278
 30
0.0
 10
139.3147734458
 20
104.1418281958
 30
0.0
  0
SPLINE
  5
6C2
100
AcDbEntity
  8
0
100
AcDbSpline
 62
7
  6
CONTINUOUS
 70
0
 71
3
 72
9
 73
5
 74
0
 42
0.0000001
 43
0.0000001
 44
0.0000000001
 40
0.0
 40
0.0
 40
0.0
 40
0.0
 40
0.2474291342
 40
1.0
 40
1.0
 40
1.0
 40
1.0
 10
139.3147734458
 20
104.1418281958
 30
0.0
 10
139.3092743585
 20
104.0986457609
 30
0.0
 10
139.2818622379
 20
103.9247674154
 30
0.0
 10
139.2375721249
 20
103.7539887946
 30
0.0
 10
139.1999704784
 20
103.6270376414
 30
0.0
  0
SPLINE
  5
6C3
100
AcDbEntity
  8
0
100
AcDbSpline
 62
7
  6
CONTINUOUS
 70
0
 71
3
 72
9
 73
5
 74
0
 42
0.0000001
 43
0.0000001
 44
0.0000000001
 40
0.0
 40
0.0
 40
0.0
 40
0.0
 40
0.2509770573
 40
1.0
 40
1.0
 40
1.0
 40
1.0
 10
139.1999704784
 20
103.6270376414
 30
0.0
 10
139.1835897793
 20
103.5717333265
 30
0.0
 10
139.118877324
 20
103.3512244995
 30
0.0
 10
139.0580303583
 20
103.1294917352
 30
0.0
 10
139.0178199369
 20
102.9621144964
 30
0.0
  0
SPLINE
  5
6C4
100
AcDbEntity
  8
0
100
AcDbSpline
 62
7
  6
CONTINUOUS
 70
0
 71
3
 72
9
 73
5
 74
0
 42
0.0000001
 43
0.0000001
 44
0.0000000001
 40
0.0
 40
0.0
 40
0.0
 40
0.0
 40
0.2550613115
 40
1.0
 40
1.0
 40
1.0
 40
1.0
 10
139.6012364425
 20
103.2579203641
 30
0.0
 10
139.6000223395
 20
103.2400500344
 30
0.0
 10
139.595765729
 20
103.1699556087
 30
0.0
 10
139.5936258387
 20
103.0997189526
 30
0.0
 10
139.5936258387
 20
103.0474060875
 30
0.0
  0
SPLINE
  5
6C5
100
AcDbEntity
  8
0
100
AcDbSpline
 62
7
  6
CONTINUOUS
 70
0
 71
3
 72
9
 73
5
 74
0
 42
0.0000001
 43
0.0000001
 44
0.0000000001
 40
0.0
 40
0.0
 40
0.0
 40
0.0
 40
0.5497183648
 40
1.0
 40
1.0
 40
1.0
 40
1.0
 10
139.6012364425
 20
103.2579203641
 30
0.0
 10
139.6512239229
 20
103.9936839229
 30
0.0
 10
139.755595279
 20
105.3312075838
 30
0.0
 10
139.9022685797
 20
106.6652871311
 30
0.0
 10
139.9880446224
 20
107.2632291219
 30
0.0
  0
SPLINE
  5
6C6
100
AcDbEntity
  8
0
100
AcDbSpline
 62
7
  6
CONTINUOUS
 70
0
 71
3
 72
9
 73
5
 74
0
 42
0.0000001
 43
0.0000001
 44
0.0000000001
 40
0.0
 40
0.0
 40
0.0
 40
0.0
 40
0.2512132149
 40
1.0
 40
1.0
 40
1.0
 40
1.0
 10
138.7921267425
 20
101.7703800342
 30
0.0
 10
138.7850775589
 20
101.7310821821
 30
0.0
 10
138.7591550532
 20
101.5742798649
 30
0.0
 10
138.7422602591
 20
101.4159379527
 30
0.0
 10
138.7355131956
 20
101.2971253873
 30
0.0
  0
SPLINE
  5
6C7
100
AcDbEntity
  8
0
100
AcDbSpline
 62
7
  6
CONTINUOUS
 70
0
 71
3
 72
9
 73
5
 74
0
 42
0.0000001
 43
0.0000001
 44
0.0000000001
 40
0.0
 40
0.0
 40
0.0
 40
0.0
 40
0.2512003088
 40
1.0
 40
1.0
 40
1.0
 40
1.0
 10
139.9880446224
 20
107.2632291219
 30
0.0
 10
139.995624344
 20
107.3160631445
 30
0.0
 10
140.0261512881
 20
107.5263386667
 30
0.0
 10
140.0573978562
 20
107.7365092924
 30
0.0
 10
140.0800546807
 20
107.8939925506
 30
0.0
  0
SPLINE
  5
6C8
100
AcDbEntity
  8
0
100
AcDbSpline
 62
7
  6
CONTINUOUS
 70
0
 71
3
 72
9
 73
5
 74
0
 42
0.0000001
 43
0.0000001
 44
0.0000000001
 40
0.0
 40
0.0
 40
0.0
 40
0.0
 40
0.2536747968
 40
1.0
 40
1.0
 40
1.0
 40
1.0
 10
140.0800546807
 20
107.8939925506
 30
0.0
 10
140.0840777958
 20
107.9219595514
 30
0.0
 10
140.0998579798
 20
108.0322180008
 30
0.0
 10
140.1158643744
 20
108.1424469447
 30
0.0
 10
140.1284892837
 20
108.2246100819
 30
0.0
  0
SPLINE
  5
6C9
100
AcDbEntity
  8
0
100
AcDbSpline
 62
7
  6
CONTINUOUS
 70
0
 71
3
 72
9
 73
5
 74
0
 42
0.0000001
 43
0.0000001
 44
0.0000000001
 40
0.0
 40
0.0
 40
0.0
 40
0.0
 40
0.2193081084
 40
1.0
 40
1.0
 40
1.0
 40
1.0
 10
140.3936258387
 20
109.5371772311
 30
0.0
 10
140.3936258387
 20
109.5337905195
 30
0.0
 10
140.3928150394
 20
109.5183464743
 30
0.0
 10
140.3893573072
 20
109.5031533754
 30
0.0
 10
140.3860152349
 20
109.4915698673
 30
0.0
  0
SPLINE
  5
6CA
100
AcDbEntity
  8
0
100
AcDbSpline
 62
7
  6
CONTINUOUS
 70
0
 71
3
 72
9
 73
5
 74
0
 42
0.0000001
 43
0.0000001
 44
0.0000000001
 40
0.0
 40
0.0
 40
0.0
 40
0.0
 40
0.5618565954
 40
1.0
 40
1.0
 40
1.0
 40
1.0
 10
140.1284892837
 20
108.2246100819
 30
0.0
 10
140.1652811108
 20
108.4640460564
 30
0.0
 10
140.2378834946
 20
108.8891061154
 30
0.0
 10
140.3336479065
 20
109.3100664982
 30
0.0
 10
140.3860152349
 20
109.4915698673
 30
0.0
  0
SPLINE
  5
6CB
100
AcDbEntity
  8
0
100
AcDbSpline
 62
7
  6
CONTINUOUS
 70
0
 71
3
 72
9
 73
5
 74
0
 42
0.0000001
 43
0.0000001
 44
0.0000000001
 40
0.0
 40
0.0
 40
0.0
 40
0.0
 40
0.7489407268
 40
1.0
 40
1.0
 40
1.0
 40
1.0
 10
139.1689260104
 20
107.4789767937
 30
0.0
 10
139.1693101972
 20
107.3364090343
 30
0.0
 10
139.1812595866
 20
107.1458800672
 30
0.0
 10
139.2062988622
 20
106.9571714768
 30
0.0
 10
139.2133688382
 20
106.9099056958
 30
0.0
  0
SPLINE
  5
6CC
100
AcDbEntity
  8
RUNDUNGEN
100
AcDbSpline
 62
7
  6
CONTINUOUS
 70
0
 71
3
 72
16
 73
12
 74
0
 42
0.0000001
 43
0.0000001
 44
0.0000000001
 40
0.0
 40
0.0
 40
0.0
 40
0.0
 40
0.0040173258
 40
0.0161031071
 40
0.0362128514
 40
0.0642989894
 40
0.1442116516
 40
0.2554671786
 40
0.3976219354
 40
0.5697851126
 40
1.0
 40
1.0
 40
1.0
 40
1.0
 10
139.2759264748
 20
56.6934820158
 30
0.0
 10
139.2761874721
 20
56.6933842579
 30
0.0
 10
139.2750769349
 20
56.695356078
 30
0.0
 10
139.2751859183
 20
56.6969106668
 30
0.0
 10
139.2736297469
 20
56.7014311297
 30
0.0
 10
139.2715578367
 20
56.7097087792
 30
0.0
 10
139.2674348549
 20
56.7246243159
 30
0.0
 10
139.2617216463
 20
56.7469024945
 30
0.0
 10
139.2544775859
 20
56.7755745522
 30
0.0
 10
139.242438247
 20
56.8257816458
 30
0.0
 10
139.2335582008
 20
56.8666368037
 30
0.0
 10
139.2276504975
 20
56.8958927144
 30
0.0
  0
SPLINE
  5
6CD
100
AcDbEntity
  8
0
100
AcDbSpline
 62
7
  6
CONTINUOUS
 70
0
 71
3
 72
11
 73
7
 74
0
 42
0.0000001
 43
0.0000001
 44
0.0000000001
 40
0.0
 40
0.0
 40
0.0
 40
0.0
 40
0.2511445537
 40
0.5010613481
 40
0.7501070698
 40
1.0
 40
1.0
 40
1.0
 40
1.0
 10
150.9738828393
 20
58.0642164416
 30
0.0
 10
150.9394405372
 20
58.2944778055
 30
0.0
 10
150.8678001306
 20
58.7534390688
 30
0.0
 10
150.7982150013
 20
59.4460942325
 30
0.0
 10
150.7976018118
 20
60.1416271128
 30
0.0
 10
150.8432124827
 20
60.6024872096
 30
0.0
 10
150.8724782316
 20
60.8322939416
 30
0.0
  0
SPLINE
  5
6CE
100
AcDbEntity
  8
0
100
AcDbSpline
 62
7
  6
CONTINUOUS
 70
0
 71
3
 72
9
 73
5
 74
0
 42
0.0000001
 43
0.0000001
 44
0.0000000001
 40
0.0
 40
0.0
 40
0.0
 40
0.0
 40
0.2474291342
 40
1.0
 40
1.0
 40
1.0
 40
1.0
 10
150.8724782316
 20
60.8322939416
 30
0.0
 10
150.877977319
 20
60.8754763765
 30
0.0
 10
150.9053894396
 20
61.049354722
 30
0.0
 10
150.9496795525
 20
61.2201333428
 30
0.0
 10
150.9872811991
 20
61.3470844961
 30
0.0
  0
SPLINE
  5
6CF
100
AcDbEntity
  8
0
100
AcDbSpline
 62
7
  6
CONTINUOUS
 70
0
 71
3
 72
9
 73
5
 74
0
 42
0.0000001
 43
0.0000001
 44
0.0000000001
 40
0.0
 40
0.0
 40
0.0
 40
0.0
 40
0.2509770573
 40
1.0
 40
1.0
 40
1.0
 40
1.0
 10
150.9872811991
 20
61.3470844961
 30
0.0
 10
151.0036618981
 20
61.4023888109
 30
0.0
 10
151.0683743535
 20
61.6228976379
 30
0.0
 10
151.1292213192
 20
61.8446304022
 30
0.0
 10
151.1694317406
 20
62.012007641
 30
0.0
  0
SPLINE
  5
6D0
100
AcDbEntity
  8
0
100
AcDbSpline
 62
7
  6
CONTINUOUS
 70
0
 71
3
 72
9
 73
5
 74
0
 42
0.0000001
 43
0.0000001
 44
0.0000000001
 40
0.0
 40
0.0
 40
0.0
 40
0.0
 40
0.2550613115
 40
1.0
 40
1.0
 40
1.0
 40
1.0
 10
150.5860152349
 20
61.7162017733
 30
0.0
 10
150.5872293379
 20
61.734072103
 30
0.0
 10
150.5914859484
 20
61.8041665287
 30
0.0
 10
150.5936258387
 20
61.8744031848
 30
0.0
 10
150.5936258387
 20
61.9267160499
 30
0.0
  0
SPLINE
  5
6D1
100
AcDbEntity
  8
0
100
AcDbSpline
 62
7
  6
CONTINUOUS
 70
0
 71
3
 72
9
 73
5
 74
0
 42
0.0000001
 43
0.0000001
 44
0.0000000001
 40
0.0
 40
0.0
 40
0.0
 40
0.0
 40
0.5497183648
 40
1.0
 40
1.0
 40
1.0
 40
1.0
 10
150.5860152349
 20
61.7162017733
 30
0.0
 10
150.5360277545
 20
60.9804382145
 30
0.0
 10
150.4316563984
 20
59.6429145536
 30
0.0
 10
150.2849830978
 20
58.3088350063
 30
0.0
 10
150.199207055
 20
57.7108930155
 30
0.0
  0
SPLINE
  5
6D2
100
AcDbEntity
  8
0
100
AcDbSpline
 62
7
  6
CONTINUOUS
 70
0
 71
3
 72
9
 73
5
 74
0
 42
0.0000001
 43
0.0000001
 44
0.0000000001
 40
0.0
 40
0.0
 40
0.0
 40
0.0
 40
0.2512132149
 40
1.0
 40
1.0
 40
1.0
 40
1.0
 10
151.3951249349
 20
63.2037421032
 30
0.0
 10
151.4021741185
 20
63.2430399553
 30
0.0
 10
151.4280966242
 20
63.3998422725
 30
0.0
 10
151.4449914184
 20
63.5581841847
 30
0.0
 10
151.4517384819
 20
63.6769967501
 30
0.0
  0
SPLINE
  5
6D3
100
AcDbEntity
  8
0
100
AcDbSpline
 62
7
  6
CONTINUOUS
 70
0
 71
3
 72
9
 73
5
 74
0
 42
0.0000001
 43
0.0000001
 44
0.0000000001
 40
0.0
 40
0.0
 40
0.0
 40
0.0
 40
0.2512003088
 40
1.0
 40
1.0
 40
1.0
 40
1.0
 10
150.199207055
 20
57.7108930155
 30
0.0
 10
150.1916273335
 20
57.6580589929
 30
0.0
 10
150.1611003893
 20
57.4477834707
 30
0.0
 10
150.1298538213
 20
57.237612845
 30
0.0
 10
150.1071969967
 20
57.0801295868
 30
0.0
  0
SPLINE
  5
6D4
100
AcDbEntity
  8
0
100
AcDbSpline
 62
7
  6
CONTINUOUS
 70
0
 71
3
 72
9
 73
5
 74
0
 42
0.0000001
 43
0.0000001
 44
0.0000000001
 40
0.0
 40
0.0
 40
0.0
 40
0.0
 40
0.2536747968
 40
1.0
 40
1.0
 40
1.0
 40
1.0
 10
150.1071969967
 20
57.0801295868
 30
0.0
 10
150.1031738817
 20
57.052162586
 30
0.0
 10
150.0873936976
 20
56.9419041366
 30
0.0
 10
150.071387303
 20
56.8316751927
 30
0.0
 10
150.0587623937
 20
56.7495120555
 30
0.0
  0
SPLINE
  5
6D5
100
AcDbEntity
  8
0
100
AcDbSpline
 62
7
  6
CONTINUOUS
 70
0
 71
3
 72
9
 73
5
 74
0
 42
0.0000001
 43
0.0000001
 44
0.0000000001
 40
0.0
 40
0.0
 40
0.0
 40
0.0
 40
0.2193081084
 40
1.0
 40
1.0
 40
1.0
 40
1.0
 10
149.7936258387
 20
55.4369449063
 30
0.0
 10
149.7936258387
 20
55.4403316179
 30
0.0
 10
149.7944366381
 20
55.4557756631
 30
0.0
 10
149.7978943703
 20
55.470968762
 30
0.0
 10
149.8012364425
 20
55.4825522701
 30
0.0
  0
SPLINE
  5
6D6
100
AcDbEntity
  8
0
100
AcDbSpline
 62
7
  6
CONTINUOUS
 70
0
 71
3
 72
9
 73
5
 74
0
 42
0.0000001
 43
0.0000001
 44
0.0000000001
 40
0.0
 40
0.0
 40
0.0
 40
0.0
 40
0.5618565954
 40
1.0
 40
1.0
 40
1.0
 40
1.0
 10
150.0587623937
 20
56.7495120555
 30
0.0
 10
150.0219705666
 20
56.510076081
 30
0.0
 10
149.9493681828
 20
56.085016022
 30
0.0
 10
149.8536037709
 20
55.6640556392
 30
0.0
 10
149.8012364425
 20
55.4825522701
 30
0.0
  0
SPLINE
  5
6D7
100
AcDbEntity
  8
0
100
AcDbSpline
 62
7
  6
CONTINUOUS
 70
0
 71
3
 72
9
 73
5
 74
0
 42
0.0000001
 43
0.0000001
 44
0.0000000001
 40
0.0
 40
0.0
 40
0.0
 40
0.0
 40
0.7489407268
 40
1.0
 40
1.0
 40
1.0
 40
1.0
 10
151.018325667
 20
57.4951453437
 30
0.0
 10
151.0179414802
 20
57.6377131031
 30
0.0
 10
151.0059920908
 20
57.8282420702
 30
0.0
 10
150.9809528152
 20
58.0169506606
 30
0.0
 10
150.9738828393
 20
58.0642164416
 30
0.0
  0
SPLINE
  5
6D8
100
AcDbEntity
  8
0
100
AcDbSpline
 62
7
  6
CONTINUOUS
 70
0
 71
3
 72
11
 73
7
 74
0
 42
0.0000001
 43
0.0000001
 44
0.0000000001
 40
0.0
 40
0.0
 40
0.0
 40
0.0
 40
0.2511445537
 40
0.5010613481
 40
0.7501070698
 40
1.0
 40
1.0
 40
1.0
 40
1.0
 10
150.9738828393
 20
106.9099056958
 30
0.0
 10
150.9394405372
 20
106.6796443319
 30
0.0
 10
150.8678001306
 20
106.2206830686
 30
0.0
 10
150.7982150013
 20
105.5280279049
 30
0.0
 10
150.7976018118
 20
104.8324950246
 30
0.0
 10
150.8432124827
 20
104.3716349278
 30
0.0
 10
150.8724782316
 20
104.1418281958
 30
0.0
  0
SPLINE
  5
6D9
100
AcDbEntity
  8
0
100
AcDbSpline
 62
7
  6
CONTINUOUS
 70
0
 71
3
 72
9
 73
5
 74
0
 42
0.0000001
 43
0.0000001
 44
0.0000000001
 40
0.0
 40
0.0
 40
0.0
 40
0.0
 40
0.2474291342
 40
1.0
 40
1.0
 40
1.0
 40
1.0
 10
150.8724782316
 20
104.1418281958
 30
0.0
 10
150.877977319
 20
104.0986457609
 30
0.0
 10
150.9053894396
 20
103.9247674154
 30
0.0
 10
150.9496795525
 20
103.7539887946
 30
0.0
 10
150.9872811991
 20
103.6270376414
 30
0.0
  0
SPLINE
  5
6DA
100
AcDbEntity
  8
0
100
AcDbSpline
 62
7
  6
CONTINUOUS
 70
0
 71
3
 72
9
 73
5
 74
0
 42
0.0000001
 43
0.0000001
 44
0.0000000001
 40
0.0
 40
0.0
 40
0.0
 40
0.0
 40
0.2509770573
 40
1.0
 40
1.0
 40
1.0
 40
1.0
 10
150.9872811991
 20
103.6270376414
 30
0.0
 10
151.0036618981
 20
103.5717333265
 30
0.0
 10
151.0683743535
 20
103.3512244995
 30
0.0
 10
151.1292213192
 20
103.1294917352
 30
0.0
 10
151.1694317406
 20
102.9621144964
 30
0.0
  0
SPLINE
  5
6DB
100
AcDbEntity
  8
0
100
AcDbSpline
 62
7
  6
CONTINUOUS
 70
0
 71
3
 72
9
 73
5
 74
0
 42
0.0000001
 43
0.0000001
 44
0.0000000001
 40
0.0
 40
0.0
 40
0.0
 40
0.0
 40
0.2550613115
 40
1.0
 40
1.0
 40
1.0
 40
1.0
 10
150.5860152349
 20
103.2579203641
 30
0.0
 10
150.5872293379
 20
103.2400500344
 30
0.0
 10
150.5914859484
 20
103.1699556087
 30
0.0
 10
150.5936258387
 20
103.0997189526
 30
0.0
 10
150.5936258387
 20
103.0474060875
 30
0.0
  0
SPLINE
  5
6DC
100
AcDbEntity
  8
0
100
AcDbSpline
 62
7
  6
CONTINUOUS
 70
0
 71
3
 72
9
 73
5
 74
0
 42
0.0000001
 43
0.0000001
 44
0.0000000001
 40
0.0
 40
0.0
 40
0.0
 40
0.0
 40
0.5497183648
 40
1.0
 40
1.0
 40
1.0
 40
1.0
 10
150.5860152349
 20
103.2579203641
 30
0.0
 10
150.5360277545
 20
103.9936839229
 30
0.0
 10
150.4316563984
 20
105.3312075838
 30
0.0
 10
150.2849830978
 20
106.6652871311
 30
0.0
 10
150.199207055
 20
107.2632291219
 30
0.0
  0
SPLINE
  5
6DD
100
AcDbEntity
  8
0
100
AcDbSpline
 62
7
  6
CONTINUOUS
 70
0
 71
3
 72
9
 73
5
 74
0
 42
0.0000001
 43
0.0000001
 44
0.0000000001
 40
0.0
 40
0.0
 40
0.0
 40
0.0
 40
0.2512132149
 40
1.0
 40
1.0
 40
1.0
 40
1.0
 10
151.3951249349
 20
101.7703800342
 30
0.0
 10
151.4021741185
 20
101.7310821821
 30
0.0
 10
151.4280966242
 20
101.5742798649
 30
0.0
 10
151.4449914184
 20
101.4159379527
 30
0.0
 10
151.4517384819
 20
101.2971253873
 30
0.0
  0
SPLINE
  5
6DE
100
AcDbEntity
  8
0
100
AcDbSpline
 62
7
  6
CONTINUOUS
 70
0
 71
3
 72
9
 73
5
 74
0
 42
0.0000001
 43
0.0000001
 44
0.0000000001
 40
0.0
 40
0.0
 40
0.0
 40
0.0
 40
0.2512003088
 40
1.0
 40
1.0
 40
1.0
 40
1.0
 10
150.199207055
 20
107.2632291219
 30
0.0
 10
150.1916273335
 20
107.3160631445
 30
0.0
 10
150.1611003893
 20
107.5263386667
 30
0.0
 10
150.1298538213
 20
107.7365092924
 30
0.0
 10
150.1071969967
 20
107.8939925506
 30
0.0
  0
SPLINE
  5
6DF
100
AcDbEntity
  8
0
100
AcDbSpline
 62
7
  6
CONTINUOUS
 70
0
 71
3
 72
9
 73
5
 74
0
 42
0.0000001
 43
0.0000001
 44
0.0000000001
 40
0.0
 40
0.0
 40
0.0
 40
0.0
 40
0.2536747968
 40
1.0
 40
1.0
 40
1.0
 40
1.0
 10
150.1071969967
 20
107.8939925506
 30
0.0
 10
150.1031738817
 20
107.9219595514
 30
0.0
 10
150.0873936976
 20
108.0322180008
 30
0.0
 10
150.071387303
 20
108.1424469447
 30
0.0
 10
150.0587623937
 20
108.2246100819
 30
0.0
  0
SPLINE
  5
6E0
100
AcDbEntity
  8
0
100
AcDbSpline
 62
7
  6
CONTINUOUS
 70
0
 71
3
 72
9
 73
5
 74
0
 42
0.0000001
 43
0.0000001
 44
0.0000000001
 40
0.0
 40
0.0
 40
0.0
 40
0.0
 40
0.2193081084
 40
1.0
 40
1.0
 40
1.0
 40
1.0
 10
149.7936258387
 20
109.5371772311
 30
0.0
 10
149.7936258387
 20
109.5337905195
 30
0.0
 10
149.7944366381
 20
109.5183464743
 30
0.0
 10
149.7978943703
 20
109.5031533754
 30
0.0
 10
149.8012364425
 20
109.4915698673
 30
0.0
  0
SPLINE
  5
6E1
100
AcDbEntity
  8
0
100
AcDbSpline
 62
7
  6
CONTINUOUS
 70
0
 71
3
 72
9
 73
5
 74
0
 42
0.0000001
 43
0.0000001
 44
0.0000000001
 40
0.0
 40
0.0
 40
0.0
 40
0.0
 40
0.5618565954
 40
1.0
 40
1.0
 40
1.0
 40
1.0
 10
150.0587623937
 20
108.2246100819
 30
0.0
 10
150.0219705666
 20
108.4640460564
 30
0.0
 10
149.9493681828
 20
108.8891061154
 30
0.0
 10
149.8536037709
 20
109.3100664982
 30
0.0
 10
149.8012364425
 20
109.4915698673
 30
0.0
  0
SPLINE
  5
6E2
100
AcDbEntity
  8
0
100
AcDbSpline
 62
7
  6
CONTINUOUS
 70
0
 71
3
 72
9
 73
5
 74
0
 42
0.0000001
 43
0.0000001
 44
0.0000000001
 40
0.0
 40
0.0
 40
0.0
 40
0.0
 40
0.7489407268
 40
1.0
 40
1.0
 40
1.0
 40
1.0
 10
151.018325667
 20
107.4789767937
 30
0.0
 10
151.0179414802
 20
107.3364090343
 30
0.0
 10
151.0059920908
 20
107.1458800672
 30
0.0
 10
150.9809528152
 20
106.9571714768
 30
0.0
 10
150.9738828393
 20
106.9099056958
 30
0.0
  0
LINE
  5
6E3
100
AcDbEntity
  8
0
100
AcDbLine
 62
7
  6
CONTINUOUS
 10
138.5898736788
 20
68.6057040119
 11
138.576237033
 21
68.9443925401
  0
SPLINE
  5
6E4
100
AcDbEntity
  8
0
100
AcDbSpline
 62
7
  6
CONTINUOUS
 70
0
 71
3
 72
9
 73
5
 74
0
 42
0.0000001
 43
0.0000001
 44
0.0000000001
 40
0.0
 40
0.0
 40
0.0
 40
0.0
 40
0.5000120736
 40
1.0
 40
1.0
 40
1.0
 40
1.0
 10
138.576237033
 20
68.9443925401
 30
0.0
 10
138.5391513696
 20
69.8866619618
 30
0.0
 10
138.4818633253
 20
71.7718646178
 30
0.0
 10
138.4690893037
 20
73.658083903
 30
0.0
 10
138.4786937795
 20
74.6009883926
 30
0.0
  0
SPLINE
  5
6E5
100
AcDbEntity
  8
0
100
AcDbSpline
 62
7
  6
CONTINUOUS
 70
0
 71
3
 72
9
 73
5
 74
0
 42
0.0000001
 43
0.0000001
 44
0.0000000001
 40
0.0
 40
0.0
 40
0.0
 40
0.0
 40
0.7492479538
 40
1.0
 40
1.0
 40
1.0
 40
1.0
 10
151.4517384819
 20
63.6769967501
 30
0.0
 10
151.4602057952
 20
63.8261020918
 30
0.0
 10
151.4590780681
 20
64.0262273588
 30
0.0
 10
151.4394137729
 20
64.2246243113
 30
0.0
 10
151.433302048
 20
64.2742309623
 30
0.0
  0
SPLINE
  5
6E6
100
AcDbEntity
  8
0
100
AcDbSpline
 62
7
  6
CONTINUOUS
 70
0
 71
3
 72
10
 73
6
 74
0
 42
0.0000001
 43
0.0000001
 44
0.0000000001
 40
0.0
 40
0.0
 40
0.0
 40
0.0
 40
0.4996746288
 40
0.7496938966
 40
1.0
 40
1.0
 40
1.0
 40
1.0
 10
151.69954022
 20
75.0111709232
 30
0.0
 10
151.6575008761
 20
76.2647124655
 30
0.0
 10
151.5587107261
 20
78.1457745758
 30
0.0
 10
151.2606634013
 20
80.639093334
 30
0.0
 10
151.0306527181
 20
81.8753601355
 30
0.0
 10
150.8871860841
 20
82.4870610687
 30
0.0
  0
SPLINE
  5
6E7
100
AcDbEntity
  8
RUNDUNGEN
100
AcDbSpline
 62
7
  6
CONTINUOUS
 70
0
 71
3
 72
9
 73
5
 74
0
 42
0.0000001
 43
0.0000001
 44
0.0000000001
 40
0.0
 40
0.0
 40
0.0
 40
0.0
 40
0.4127574039
 40
1.0
 40
1.0
 40
1.0
 40
1.0
 10
138.7539496294
 20
64.2742309623
 30
0.0
 10
138.7727042223
 20
64.4264551798
 30
0.0
 10
138.7902408704
 20
64.7985377175
 30
0.0
 10
138.7745776642
 20
65.1701193633
 30
0.0
 10
138.7590640267
 20
65.3877787683
 30
0.0
  0
LINE
  5
6E8
100
AcDbEntity
  8
0
100
AcDbLine
 62
7
  6
CONTINUOUS
 10
151.5973779986
 20
68.6057040119
 11
151.6110146444
 21
68.9443925401
  0
SPLINE
  5
6E9
100
AcDbEntity
  8
0
100
AcDbSpline
 62
7
  6
CONTINUOUS
 70
0
 71
3
 72
9
 73
5
 74
0
 42
0.0000001
 43
0.0000001
 44
0.0000000001
 40
0.0
 40
0.0
 40
0.0
 40
0.0
 40
0.5000120736
 40
1.0
 40
1.0
 40
1.0
 40
1.0
 10
151.6110146444
 20
68.9443925401
 30
0.0
 10
151.6481003078
 20
69.8866619618
 30
0.0
 10
151.7053883522
 20
71.7718646178
 30
0.0
 10
151.7181623738
 20
73.658083903
 30
0.0
 10
151.7085578979
 20
74.6009883926
 30
0.0
  0
SPLINE
  5
6EA
100
AcDbEntity
  8
0
100
AcDbSpline
 62
7
  6
CONTINUOUS
 70
0
 71
3
 72
9
 73
5
 74
0
 42
0.0000001
 43
0.0000001
 44
0.0000000001
 40
0.0
 40
0.0
 40
0.0
 40
0.0
 40
0.4127574039
 40
1.0
 40
1.0
 40
1.0
 40
1.0
 10
151.433302048
 20
64.2742309623
 30
0.0
 10
151.4145474551
 20
64.4264551798
 30
0.0
 10
151.3970108071
 20
64.7985377175
 30
0.0
 10
151.4126740133
 20
65.1701193633
 30
0.0
 10
151.4281876507
 20
65.3877787683
 30
0.0
  0
SPLINE
  5
6EB
100
AcDbEntity
  8
0
100
AcDbSpline
 62
7
  6
CONTINUOUS
 70
0
 71
3
 72
8
 73
4
 74
0
 42
0.0000001
 43
0.0000001
 44
0.0000000001
 40
0.0
 40
0.0
 40
0.0
 40
0.0
 40
1.0
 40
1.0
 40
1.0
 40
1.0
 10
151.4281876507
 20
65.3877787683
 30
0.0
 10
151.5045518864
 20
66.4591841164
 30
0.0
 10
151.553328537
 20
67.5324842948
 30
0.0
 10
151.5973779986
 20
68.6057040119
 30
0.0
  0
SPLINE
  5
6EC
100
AcDbEntity
  8
0
100
AcDbSpline
 62
7
  6
CONTINUOUS
 70
0
 71
3
 72
9
 73
5
 74
0
 42
0.0000001
 43
0.0000001
 44
0.0000000001
 40
0.0
 40
0.0
 40
0.0
 40
0.0
 40
0.7492479538
 40
1.0
 40
1.0
 40
1.0
 40
1.0
 10
138.7355131956
 20
101.2971253873
 30
0.0
 10
138.7270458823
 20
101.1480200456
 30
0.0
 10
138.7281736093
 20
100.9478947786
 30
0.0
 10
138.7478379045
 20
100.7494978261
 30
0.0
 10
138.7539496294
 20
100.6998911751
 30
0.0
  0
SPLINE
  5
6ED
100
AcDbEntity
  8
RUNDUNGEN
100
AcDbSpline
 62
7
  6
CONTINUOUS
 70
0
 71
3
 72
8
 73
4
 74
0
 42
0.0000001
 43
0.0000001
 44
0.0000000001
 40
0.0
 40
0.0
 40
0.0
 40
0.0
 40
1.0
 40
1.0
 40
1.0
 40
1.0
 10
138.7590640267
 20
65.3877787683
 30
0.0
 10
138.682699791
 20
66.4591841164
 30
0.0
 10
138.6339231404
 20
67.5324842948
 30
0.0
 10
138.5898736788
 20
68.6057040119
 30
0.0
  0
SPLINE
  5
6EE
100
AcDbEntity
  8
0
100
AcDbSpline
 62
7
  6
CONTINUOUS
 70
0
 71
3
 72
9
 73
5
 74
0
 42
0.0000001
 43
0.0000001
 44
0.0000000001
 40
0.0
 40
0.0
 40
0.0
 40
0.0
 40
0.7492479538
 40
1.0
 40
1.0
 40
1.0
 40
1.0
 10
151.4517384819
 20
101.2971253873
 30
0.0
 10
151.4602057952
 20
101.1480200456
 30
0.0
 10
151.4590780681
 20
100.9478947786
 30
0.0
 10
151.4394137729
 20
100.7494978261
 30
0.0
 10
151.433302048
 20
100.6998911751
 30
0.0
  0
SPLINE
  5
6EF
100
AcDbEntity
  8
0
100
AcDbSpline
 62
7
  6
CONTINUOUS
 70
0
 71
3
 72
10
 73
6
 74
0
 42
0.0000001
 43
0.0000001
 44
0.0000000001
 40
0.0
 40
0.0
 40
0.0
 40
0.0
 40
0.4996746288
 40
0.7496938966
 40
1.0
 40
1.0
 40
1.0
 40
1.0
 10
138.4877114574
 20
89.9629512142
 30
0.0
 10
138.5297508014
 20
88.7094096719
 30
0.0
 10
138.6285409514
 20
86.8283475616
 30
0.0
 10
138.9265882762
 20
84.3350288034
 30
0.0
 10
139.1565989594
 20
83.0987620019
 30
0.0
 10
139.3000655934
 20
82.4870610687
 30
0.0
  0
SPLINE
  5
6F0
100
AcDbEntity
  8
RUNDUNGEN
100
AcDbSpline
 62
7
  6
CONTINUOUS
 70
0
 71
3
 72
9
 73
5
 74
0
 42
0.0000001
 43
0.0000001
 44
0.0000000001
 40
0.0
 40
0.0
 40
0.0
 40
0.0
 40
0.7492479538
 40
1.0
 40
1.0
 40
1.0
 40
1.0
 10
138.7355131956
 20
63.6769967501
 30
0.0
 10
138.7270458823
 20
63.8261020918
 30
0.0
 10
138.7281736093
 20
64.0262273588
 30
0.0
 10
138.7478379045
 20
64.2246243113
 30
0.0
 10
138.7539496294
 20
64.2742309623
 30
0.0
  0
LINE
  5
6F1
100
AcDbEntity
  8
0
100
AcDbLine
 62
7
  6
CONTINUOUS
 10
138.5898736788
 20
96.3684181255
 11
138.576237033
 21
96.0297295973
  0
SPLINE
  5
6F2
100
AcDbEntity
  8
0
100
AcDbSpline
 62
7
  6
CONTINUOUS
 70
0
 71
3
 72
9
 73
5
 74
0
 42
0.0000001
 43
0.0000001
 44
0.0000000001
 40
0.0
 40
0.0
 40
0.0
 40
0.0
 40
0.5000120736
 40
1.0
 40
1.0
 40
1.0
 40
1.0
 10
138.576237033
 20
96.0297295973
 30
0.0
 10
138.5391513696
 20
95.0874601756
 30
0.0
 10
138.4818633253
 20
93.2022575196
 30
0.0
 10
138.4690893037
 20
91.3160382344
 30
0.0
 10
138.4786937795
 20
90.3731337448
 30
0.0
  0
SPLINE
  5
6F3
100
AcDbEntity
  8
0
100
AcDbSpline
 62
7
  6
CONTINUOUS
 70
0
 71
3
 72
9
 73
5
 74
0
 42
0.0000001
 43
0.0000001
 44
0.0000000001
 40
0.0
 40
0.0
 40
0.0
 40
0.0
 40
0.4127574039
 40
1.0
 40
1.0
 40
1.0
 40
1.0
 10
138.7539496294
 20
100.6998911751
 30
0.0
 10
138.7727042223
 20
100.5476669576
 30
0.0
 10
138.7902408704
 20
100.1755844199
 30
0.0
 10
138.7745776642
 20
99.8040027741
 30
0.0
 10
138.7590640267
 20
99.5863433691
 30
0.0
  0
SPLINE
  5
6F4
100
AcDbEntity
  8
0
100
AcDbSpline
 62
7
  6
CONTINUOUS
 70
0
 71
3
 72
8
 73
4
 74
0
 42
0.0000001
 43
0.0000001
 44
0.0000000001
 40
0.0
 40
0.0
 40
0.0
 40
0.0
 40
1.0
 40
1.0
 40
1.0
 40
1.0
 10
138.7590640267
 20
99.5863433691
 30
0.0
 10
138.682699791
 20
98.514938021
 30
0.0
 10
138.6339231404
 20
97.4416378426
 30
0.0
 10
138.5898736788
 20
96.3684181255
 30
0.0
  0
SPLINE
  5
6F5
100
AcDbEntity
  8
0
100
AcDbSpline
 62
7
  6
CONTINUOUS
 70
0
 71
3
 72
10
 73
6
 74
0
 42
0.0000001
 43
0.0000001
 44
0.0000000001
 40
0.0
 40
0.0
 40
0.0
 40
0.0
 40
0.4996746288
 40
0.7496938966
 40
1.0
 40
1.0
 40
1.0
 40
1.0
 10
151.69954022
 20
89.9629512142
 30
0.0
 10
151.6575008761
 20
88.7094096719
 30
0.0
 10
151.5587107261
 20
86.8283475616
 30
0.0
 10
151.2606634013
 20
84.3350288034
 30
0.0
 10
151.0306527181
 20
83.0987620019
 30
0.0
 10
150.8871860841
 20
82.4870610687
 30
0.0
  0
LINE
  5
6F6
100
AcDbEntity
  8
0
100
AcDbLine
 62
7
  6
CONTINUOUS
 10
151.5973779986
 20
96.3684181255
 11
151.6110146444
 21
96.0297295973
  0
SPLINE
  5
6F7
100
AcDbEntity
  8
0
100
AcDbSpline
 62
7
  6
CONTINUOUS
 70
0
 71
3
 72
9
 73
5
 74
0
 42
0.0000001
 43
0.0000001
 44
0.0000000001
 40
0.0
 40
0.0
 40
0.0
 40
0.0
 40
0.5000120736
 40
1.0
 40
1.0
 40
1.0
 40
1.0
 10
151.6110146444
 20
96.0297295973
 30
0.0
 10
151.6481003078
 20
95.0874601756
 30
0.0
 10
151.7053883522
 20
93.2022575196
 30
0.0
 10
151.7181623738
 20
91.3160382344
 30
0.0
 10
151.7085578979
 20
90.3731337448
 30
0.0
  0
SPLINE
  5
6F8
100
AcDbEntity
  8
0
100
AcDbSpline
 62
7
  6
CONTINUOUS
 70
0
 71
3
 72
10
 73
6
 74
0
 42
0.0000001
 43
0.0000001
 44
0.0000000001
 40
0.0
 40
0.0
 40
0.0
 40
0.0
 40
0.4996746288
 40
0.7496938966
 40
1.0
 40
1.0
 40
1.0
 40
1.0
 10
138.4877114574
 20
75.0111709232
 30
0.0
 10
138.5297508014
 20
76.2647124655
 30
0.0
 10
138.6285409514
 20
78.1457745758
 30
0.0
 10
138.9265882762
 20
80.639093334
 30
0.0
 10
139.1565989594
 20
81.8753601355
 30
0.0
 10
139.3000655934
 20
82.4870610687
 30
0.0
  0
SPLINE
  5
6F9
100
AcDbEntity
  8
0
100
AcDbSpline
 62
7
  6
CONTINUOUS
 70
0
 71
3
 72
9
 73
5
 74
0
 42
0.0000001
 43
0.0000001
 44
0.0000000001
 40
0.0
 40
0.0
 40
0.0
 40
0.0
 40
0.4127574039
 40
1.0
 40
1.0
 40
1.0
 40
1.0
 10
151.433302048
 20
100.6998911751
 30
0.0
 10
151.4145474551
 20
100.5476669576
 30
0.0
 10
151.3970108071
 20
100.1755844199
 30
0.0
 10
151.4126740133
 20
99.8040027741
 30
0.0
 10
151.4281876507
 20
99.5863433691
 30
0.0
  0
SPLINE
  5
6FA
100
AcDbEntity
  8
0
100
AcDbSpline
 62
7
  6
CONTINUOUS
 70
0
 71
3
 72
8
 73
4
 74
0
 42
0.0000001
 43
0.0000001
 44
0.0000000001
 40
0.0
 40
0.0
 40
0.0
 40
0.0
 40
1.0
 40
1.0
 40
1.0
 40
1.0
 10
151.4281876507
 20
99.5863433691
 30
0.0
 10
151.5045518864
 20
98.514938021
 30
0.0
 10
151.553328537
 20
97.4416378426
 30
0.0
 10
151.5973779986
 20
96.3684181255
 30
0.0
  0
ELLIPSE
  5
6FB
100
AcDbEntity
  8
0
100
AcDbEllipse
 62
7
  6
CONTINUOUS
 10
122.3436258387
 20
183.8156358361
 30
0.0
 11
17.75
 21
0.0
 31
0.0
 40
0.1702127606
 41
-2.8969773499
 42
-2.8714893607
  0
ELLIPSE
  5
6FC
100
AcDbEntity
  8
0
100
AcDbEllipse
 62
7
  6
CONTINUOUS
 10
122.3436258387
 20
184.5473379406
 30
0.0
 11
17.75
 21
0.0
 31
0.0
 40
0.3404255211
 41
-2.9096596933
 42
-2.8969773499
  0
ELLIPSE
  5
6FD
100
AcDbEntity
  8
0
100
AcDbEllipse
 62
7
  6
CONTINUOUS
 10
122.3436258387
 20
185.9362740668
 30
0.0
 11
17.75
 21
0.0
 31
0.0
 40
0.6808510423
 41
-2.9223041593
 42
-2.9096596933
  0
ELLIPSE
  5
6FE
100
AcDbEntity
  8
0
100
AcDbEllipse
 62
7
  6
CONTINUOUS
 10
122.3436258387
 20
191.1941537622
 30
0.0
 11
-0.0
 21
36.2553525767
 31
0.0
 40
0.4895828819
 41
-4.5015102378
 42
-4.4931004861
  0
ELLIPSE
  5
6FF
100
AcDbEntity
  8
0
100
AcDbEllipse
 62
7
  6
CONTINUOUS
 10
122.3436258387
 20
183.4513349504
 30
0.0
 11
17.75
 21
0.0
 31
0.0
 40
0.9118540092
 41
9.3138227307
 42
9.424774371
  0
ELLIPSE
  5
700
100
AcDbEntity
  8
0
100
AcDbEllipse
 62
7
  6
CONTINUOUS
 10
122.3436258387
 20
181.2290364252
 30
0.0
 11
-0.0
 21
36.2553494028
 31
0.0
 40
0.4895829248
 41
1.451570403
 42
1.4598410967
  0
ELLIPSE
  5
701
100
AcDbEntity
  8
0
100
AcDbEllipse
 62
7
  6
CONTINUOUS
 10
122.3436258387
 20
188.9245748284
 30
0.0
 11
-0.0
 21
27.1915120521
 31
0.0
 40
0.6527772331
 41
-4.6014337503
 42
-4.5931630566
  0
ELLIPSE
  5
702
100
AcDbEntity
  8
0
100
AcDbEllipse
 62
7
  6
CONTINUOUS
 10
122.3436258387
 20
187.2518770026
 30
0.0
 11
17.75
 21
0.0
 31
0.0
 40
0.6808509827
 41
-3.0430293816
 42
-3.0306374235
  0
ELLIPSE
  5
703
100
AcDbEntity
  8
0
100
AcDbEllipse
 62
7
  6
CONTINUOUS
 10
122.3436258387
 20
186.4194228626
 30
0.0
 11
17.75
 21
0.0
 31
0.0
 40
0.204255139
 41
-3.0636499177
 42
-3.0430293816
  0
ELLIPSE
  5
704
100
AcDbEntity
  8
0
100
AcDbEllipse
 62
7
  6
CONTINUOUS
 10
122.3436258387
 20
186.101593445
 30
0.0
 11
17.75
 21
-0.0
 31
0.0
 40
0.5106379935
 41
3.1048003079
 42
3.1212391356
  0
ELLIPSE
  5
705
100
AcDbEntity
  8
0
100
AcDbEllipse
 62
7
  6
CONTINUOUS
 10
122.3436258387
 20
186.3397391531
 30
0.0
 11
17.75
 21
-0.0
 31
0.0
 40
0.1458967187
 41
3.0760057435
 42
3.1048003079
  0
ELLIPSE
  5
706
100
AcDbEntity
  8
0
100
AcDbEllipse
 62
7
  6
CONTINUOUS
 10
122.3436258387
 20
184.6167707614
 30
0.0
 11
0.0
 21
33.2340428233
 31
0.0
 40
0.5340909047
 41
-4.6640068627
 42
-4.6505420444
  0
ELLIPSE
  5
707
100
AcDbEntity
  8
0
100
AcDbEllipse
 62
7
  6
CONTINUOUS
 10
122.3436258387
 20
218.0603263818
 30
0.0
 11
0.0
 21
36.255038223
 31
0.0
 40
0.4895871269
 41
-3.9039073352
 42
-3.8979401632
  0
ELLIPSE
  5
708
100
AcDbEntity
  8
0
100
AcDbEllipse
 62
7
  6
CONTINUOUS
 10
122.3436258387
 20
204.9499397111
 30
0.0
 11
0.0
 21
18.1277265653
 31
0.0
 40
0.9791630482
 41
-3.9157312519
 42
-3.9039073352
  0
ELLIPSE
  5
709
100
AcDbEntity
  8
0
100
AcDbEllipse
 62
7
  6
CONTINUOUS
 10
122.3436258387
 20
196.3087561655
 30
0.0
 11
17.75
 21
-0.0
 31
0.0
 40
0.3404254913
 41
-2.3624079759
 42
-2.3449349251
  0
ELLIPSE
  5
70A
100
AcDbEntity
  8
0
100
AcDbEllipse
 62
7
  6
CONTINUOUS
 10
122.3436258387
 20
191.4379798022
 30
0.0
 11
17.75
 21
-0.0
 31
0.0
 40
0.2042556244
 41
-2.4349345426
 42
-2.407605233
  0
ELLIPSE
  5
70B
100
AcDbEntity
  8
0
100
AcDbEllipse
 62
7
  6
CONTINUOUS
 10
122.3436258387
 20
196.1460719435
 30
0.0
 11
17.75
 21
0.0
 31
0.0
 40
0.6127668731
 41
-2.4616403963
 42
-2.4349345426
  0
ELLIPSE
  5
70C
100
AcDbEntity
  8
0
100
AcDbEllipse
 62
7
  6
CONTINUOUS
 10
122.3436258387
 20
208.3037945542
 30
0.0
 11
0.0
 21
30.2127687037
 31
0.0
 40
0.5874999466
 41
-4.0481857364
 42
-4.0324367231
  0
ELLIPSE
  5
70D
100
AcDbEntity
  8
0
100
AcDbEllipse
 62
7
  6
CONTINUOUS
 10
122.3436258387
 20
234.3772067088
 30
0.0
 11
-0.0
 21
72.5100764459
 31
0.0
 40
0.2447935635
 41
-4.0533922812
 42
-4.0481857364
  0
ELLIPSE
  5
70E
100
AcDbEntity
  8
0
100
AcDbEllipse
 62
7
  6
CONTINUOUS
 10
122.3436258387
 20
186.2716877797
 30
0.0
 11
17.75
 21
0.0
 31
0.0
 40
0.2553200925
 41
2.3390411205
 42
2.3624079759
  0
ELLIPSE
  5
70F
100
AcDbEntity
  8
0
100
AcDbEllipse
 62
7
  6
CONTINUOUS
 10
122.3436258387
 20
180.8399604642
 30
0.0
 11
17.75
 21
0.0
 31
0.0
 40
0.6808512211
 41
2.3211388223
 42
2.3390411205
  0
ELLIPSE
  5
710
100
AcDbEntity
  8
0
100
AcDbEllipse
 62
7
  6
CONTINUOUS
 10
122.3436258387
 20
169.7904717029
 30
0.0
 11
-0.0
 21
27.1912786672
 31
0.0
 40
0.6527828359
 41
0.7382143948
 42
0.7503424956
  0
ELLIPSE
  5
711
100
AcDbEntity
  8
0
100
AcDbEllipse
 62
7
  6
CONTINUOUS
 10
122.3436258387
 20
210.2391072522
 30
0.0
 11
-0.0
 21
27.1912913629
 31
0.0
 40
0.6527825311
 41
-3.8919351491
 42
-3.8798070484
  0
ELLIPSE
  5
712
100
AcDbEntity
  8
0
100
AcDbEllipse
 62
7
  6
CONTINUOUS
 10
122.3436258387
 20
199.1896061091
 30
0.0
 11
17.75
 21
-0.0
 31
0.0
 40
0.6808509827
 41
-2.3390411205
 42
-2.3211388223
  0
ELLIPSE
  5
713
100
AcDbEntity
  8
0
100
AcDbEllipse
 62
7
  6
CONTINUOUS
 10
122.3436258387
 20
193.757881837
 30
0.0
 11
17.75
 21
0.0
 31
0.0
 40
0.2553200925
 41
-2.3624079759
 42
-2.3390411205
  0
ELLIPSE
  5
714
100
AcDbEntity
  8
0
100
AcDbEllipse
 62
7
  6
CONTINUOUS
 10
122.3436258387
 20
193.6461617134
 30
0.0
 11
17.75
 21
0.0
 31
0.0
 40
0.2553186315
 41
-2.4186158591
 42
-2.3964840025
  0
ELLIPSE
  5
715
100
AcDbEntity
  8
0
100
AcDbEllipse
 62
7
  6
CONTINUOUS
 10
122.3436258387
 20
196.6445598923
 30
0.0
 11
17.75
 21
-0.0
 31
0.0
 40
0.510637263
 41
-2.4403236417
 42
-2.4186158591
  0
ELLIPSE
  5
716
100
AcDbEntity
  8
0
100
AcDbEllipse
 62
7
  6
CONTINUOUS
 10
122.3436258387
 20
202.4924870213
 30
0.0
 11
0.0
 21
18.1277265653
 31
0.0
 40
0.9791630482
 41
-4.0324367231
 42
-4.0111199685
  0
ELLIPSE
  5
717
100
AcDbEntity
  8
0
100
AcDbEllipse
 62
7
  6
CONTINUOUS
 10
122.3436258387
 20
236.6857103585
 30
0.0
 11
-0.0
 21
72.5100764459
 31
0.0
 40
0.2447935635
 41
-4.0377084313
 42
-4.0324367231
  0
ELLIPSE
  5
718
100
AcDbEntity
  8
0
100
AcDbEllipse
 62
7
  6
CONTINUOUS
 10
122.3436258387
 20
146.3970507487
 30
0.0
 11
-0.0
 21
72.5100764459
 31
0.0
 40
0.2447935635
 41
0.8908440695
 42
0.8961157777
  0
ELLIPSE
  5
719
100
AcDbEntity
  8
0
100
AcDbEllipse
 62
7
  6
CONTINUOUS
 10
122.3436258387
 20
180.5902740858
 30
0.0
 11
0.0
 21
18.1277265653
 31
0.0
 40
0.9791630482
 41
0.8695273149
 42
0.8908440695
  0
ELLIPSE
  5
71A
100
AcDbEntity
  8
0
100
AcDbEllipse
 62
7
  6
CONTINUOUS
 10
122.3436258387
 20
186.4382012148
 30
0.0
 11
17.75
 21
-0.0
 31
0.0
 40
0.510637263
 41
2.4186158591
 42
2.4403236417
  0
ELLIPSE
  5
71B
100
AcDbEntity
  8
0
100
AcDbEllipse
 62
7
  6
CONTINUOUS
 10
122.3436258387
 20
189.4365993937
 30
0.0
 11
17.75
 21
0.0
 31
0.0
 40
0.2553186315
 41
2.3964840025
 42
2.4186158591
  0
ELLIPSE
  5
71C
100
AcDbEntity
  8
0
100
AcDbEllipse
 62
7
  6
CONTINUOUS
 10
122.3436258387
 20
190.8124469527
 30
0.0
 11
17.75
 21
0.0
 31
0.0
 40
0.2042556244
 41
-2.6446268666
 42
-2.6211082686
  0
ELLIPSE
  5
71D
100
AcDbEntity
  8
0
100
AcDbEllipse
 62
7
  6
CONTINUOUS
 10
122.3436258387
 20
193.4052021375
 30
0.0
 11
17.75
 21
-0.0
 31
0.0
 40
0.5106373301
 41
-2.6632273327
 42
-2.6446268666
  0
ELLIPSE
  5
71E
100
AcDbEntity
  8
0
100
AcDbEllipse
 62
7
  6
CONTINUOUS
 10
122.3436258387
 20
197.5775817549
 30
0.0
 11
-0.0
 21
18.1277281523
 31
0.0
 40
0.9791629624
 41
-4.2524462999
 42
-4.2340236595
  0
ELLIPSE
  5
71F
100
AcDbEntity
  8
0
100
AcDbEllipse
 62
7
  6
CONTINUOUS
 10
122.3436258387
 20
205.6242385079
 30
0.0
 11
-0.0
 21
36.2550445708
 31
0.0
 40
0.4895870412
 41
-4.2615945716
 42
-4.2524462999
  0
ELLIPSE
  5
720
100
AcDbEntity
  8
0
100
AcDbEllipse
 62
7
  6
CONTINUOUS
 10
122.3436258387
 20
229.3185713145
 30
0.0
 11
-0.0
 21
90.639670119
 31
0.0
 40
0.1958303685
 41
-4.266153398
 42
-4.2615945716
  0
ELLIPSE
  5
721
100
AcDbEntity
  8
0
100
AcDbEllipse
 62
7
  6
CONTINUOUS
 10
122.3436258387
 20
187.1280873872
 30
0.0
 11
17.75
 21
-0.0
 31
0.0
 40
0.2553186315
 41
2.5827982663
 42
2.6020631401
  0
ELLIPSE
  5
722
100
AcDbEntity
  8
0
100
AcDbEllipse
 62
7
  6
CONTINUOUS
 10
122.3436258387
 20
183.1236481774
 30
0.0
 11
17.75
 21
-0.0
 31
0.0
 40
0.6808512211
 41
2.5681963357
 42
2.5827982663
  0
ELLIPSE
  5
723
100
AcDbEntity
  8
0
100
AcDbEllipse
 62
7
  6
CONTINUOUS
 10
122.3436258387
 20
174.9285592446
 30
0.0
 11
-0.0
 21
27.1915898479
 31
0.0
 40
0.6527753654
 41
0.9875886372
 42
0.9974000089
  0
ELLIPSE
  5
724
100
AcDbEntity
  8
0
100
AcDbEllipse
 62
7
  6
CONTINUOUS
 10
122.3436258387
 20
149.9714771885
 30
0.0
 11
-0.0
 21
72.5100764459
 31
0.0
 40
0.2447935635
 41
0.9826590599
 42
0.9875886372
  0
ELLIPSE
  5
725
100
AcDbEntity
  8
0
100
AcDbEllipse
 62
7
  6
CONTINUOUS
 10
122.3436258387
 20
190.000955101
 30
0.0
 11
17.75
 21
0.0
 31
0.0
 40
0.3404254913
 41
2.959603824
 42
2.972120618
  0
ELLIPSE
  5
726
100
AcDbEntity
  8
0
100
AcDbEllipse
 62
7
  6
CONTINUOUS
 10
122.3436258387
 20
187.8137088037
 30
0.0
 11
0.0
 21
18.1277265653
 31
0.0
 40
0.9791630482
 41
1.3804470787
 42
1.3888074972
  0
ELLIPSE
  5
727
100
AcDbEntity
  8
0
100
AcDbEllipse
 62
7
  6
CONTINUOUS
 10
122.3436258387
 20
180.9542278742
 30
0.0
 11
-0.0
 21
54.3825573345
 31
0.0
 40
0.3263914179
 41
1.3762618035
 42
1.3804470787
  0
ELLIPSE
  5
728
100
AcDbEntity
  8
0
100
AcDbEllipse
 62
7
  6
CONTINUOUS
 10
122.3436258387
 20
202.2030013091
 30
0.0
 11
-0.0
 21
54.3825573345
 31
0.0
 40
0.3263914179
 41
1.7611455749
 42
1.7653308501
  0
ELLIPSE
  5
729
100
AcDbEntity
  8
0
100
AcDbEllipse
 62
7
  6
CONTINUOUS
 10
122.3436258387
 20
195.3435203797
 30
0.0
 11
-0.0
 21
18.1277265653
 31
0.0
 40
0.9791630482
 41
-4.5304001508
 42
-4.5220397323
  0
ELLIPSE
  5
72A
100
AcDbEntity
  8
0
100
AcDbEllipse
 62
7
  6
CONTINUOUS
 10
122.3436258387
 20
193.1562740824
 30
0.0
 11
17.75
 21
0.0
 31
0.0
 40
0.3404254913
 41
3.3110646892
 42
3.3235814832
  0
ELLIPSE
  5
72B
100
AcDbEntity
  8
0
100
AcDbEllipse
 62
7
  6
CONTINUOUS
 10
122.3436258387
 20
193.9817734907
 30
0.0
 11
-0.0
 21
72.5100891416
 31
0.0
 40
0.2447935206
 41
-4.6550806368
 42
-4.6509653717
  0
ELLIPSE
  5
72C
100
AcDbEntity
  8
0
100
AcDbEllipse
 62
7
  6
CONTINUOUS
 10
122.3436258387
 20
190.6435095021
 30
0.0
 11
-0.0
 21
18.1276762884
 31
0.0
 40
0.9791657639
 41
-4.6509653717
 42
-4.6463913342
  0
ELLIPSE
  5
72D
100
AcDbEntity
  8
0
100
AcDbEllipse
 62
7
  6
CONTINUOUS
 10
122.3436258387
 20
190.8754219452
 30
0.0
 11
-0.0
 21
18.1276747014
 31
0.0
 40
0.9791658496
 41
1.5052537317
 42
1.5093727181
  0
ELLIPSE
  5
72E
100
AcDbEntity
  8
0
100
AcDbEllipse
 62
7
  6
CONTINUOUS
 10
122.3436258387
 20
186.4243979019
 30
0.0
 11
-0.0
 21
90.6376463402
 31
0.0
 40
0.195834741
 41
1.5093727181
 42
1.5134879832
  0
ELLIPSE
  5
72F
100
AcDbEntity
  8
0
100
AcDbEllipse
 62
7
  6
CONTINUOUS
 10
122.3436258387
 20
184.241390002
 30
0.0
 11
17.75
 21
-0.0
 31
0.0
 40
0.5106373301
 41
2.558384964
 42
2.5779460425
  0
ELLIPSE
  5
730
100
AcDbEntity
  8
0
100
AcDbEllipse
 62
7
  6
CONTINUOUS
 10
122.3436258387
 20
186.3582594387
 30
0.0
 11
17.75
 21
0.0
 31
0.0
 40
0.6808509827
 41
-2.9054365875
 42
-2.8927410878
  0
ELLIPSE
  5
731
100
AcDbEntity
  8
0
100
AcDbEllipse
 62
7
  6
CONTINUOUS
 10
122.3436258387
 20
187.1469096743
 30
0.0
 11
17.75
 21
0.0
 31
0.0
 40
0.2042556244
 41
2.5779460425
 42
2.6020631401
  0
ELLIPSE
  5
732
100
AcDbEntity
  8
0
100
AcDbEllipse
 62
7
  6
CONTINUOUS
 10
122.3436258387
 20
184.2747417205
 30
0.0
 11
17.75
 21
0.0
 31
0.0
 40
0.2042552105
 41
-2.8927410878
 42
-2.8714893607
  0
ELLIPSE
  5
733
100
AcDbEntity
  8
0
100
AcDbEllipse
 62
7
  6
CONTINUOUS
 10
122.3436258387
 20
188.5167017215
 30
0.0
 11
-0.0
 21
17.6170359774
 31
0.0
 40
0.9791658496
 41
-4.5854298217
 42
-4.5683650221
  0
ELLIPSE
  5
734
100
AcDbEntity
  8
0
100
AcDbEllipse
 62
7
  6
CONTINUOUS
 10
122.3436258387
 20
187.4013799753
 30
0.0
 11
17.25
 21
-0.0
 31
0.0
 40
0.5106379935
 41
-3.0316612237
 42
-3.0146334949
  0
ELLIPSE
  5
735
100
AcDbEntity
  8
0
100
AcDbEllipse
 62
7
  6
CONTINUOUS
 10
122.3436258387
 20
186.7571251938
 30
0.0
 11
17.25
 21
-0.0
 31
0.0
 40
0.1702127457
 41
-3.0571444897
 42
-3.0316612237
  0
ELLIPSE
  5
736
100
AcDbEntity
  8
0
100
AcDbEllipse
 62
7
  6
CONTINUOUS
 10
122.3436258387
 20
223.2823091471
 30
0.0
 11
-0.0
 21
72.5117360952
 31
0.0
 40
0.2447879606
 41
-4.2386454821
 42
-4.2340236595
  0
ELLIPSE
  5
737
100
AcDbEntity
  8
0
100
AcDbEllipse
 62
7
  6
CONTINUOUS
 10
122.3436258387
 20
202.4200061036
 30
0.0
 11
-0.0
 21
27.1912786672
 31
0.0
 40
0.6527828359
 41
-4.2340236595
 42
-4.2247463109
  0
ELLIPSE
  5
738
100
AcDbEntity
  8
0
100
AcDbEllipse
 62
7
  6
CONTINUOUS
 10
122.3436258387
 20
195.3420914733
 30
0.0
 11
17.75
 21
-0.0
 31
0.0
 40
0.6808512211
 41
-2.6539499841
 42
-2.6399475813
  0
ELLIPSE
  5
739
100
AcDbEntity
  8
0
100
AcDbEllipse
 62
7
  6
CONTINUOUS
 10
122.3436258387
 20
191.7100057492
 30
0.0
 11
17.75
 21
-0.0
 31
0.0
 40
0.2553200925
 41
-2.6399475813
 42
-2.6211082686
  0
ELLIPSE
  5
73A
100
AcDbEntity
  8
0
100
AcDbEllipse
 62
7
  6
CONTINUOUS
 10
122.3436258387
 20
187.96549437
 30
0.0
 11
17.75
 21
0.0
 31
0.0
 40
0.3404254913
 41
2.3964840025
 42
2.4131240034
  0
ELLIPSE
  5
73B
100
AcDbEntity
  8
0
100
AcDbEllipse
 62
7
  6
CONTINUOUS
 10
122.3436258387
 20
183.9427996247
 30
0.0
 11
17.75
 21
0.0
 31
0.0
 40
0.6808509827
 41
2.4131240034
 42
2.4295205337
  0
ELLIPSE
  5
73C
100
AcDbEntity
  8
0
100
AcDbEllipse
 62
7
  6
CONTINUOUS
 10
122.3436258387
 20
156.3054508606
 30
0.0
 11
-0.0
 21
54.3826081172
 31
0.0
 40
0.3263911132
 41
0.8587242069
 42
0.8641382158
  0
ELLIPSE
  5
73D
100
AcDbEntity
  8
0
100
AcDbEllipse
 62
7
  6
CONTINUOUS
 10
122.3436258387
 20
184.2747417205
 30
0.0
 11
17.25
 21
0.0
 31
0.0
 40
0.2042552105
 41
-2.8853683473
 42
-2.8634551402
  0
ELLIPSE
  5
73E
100
AcDbEntity
  8
0
100
AcDbEllipse
 62
7
  6
CONTINUOUS
 10
122.3436258387
 20
186.3582594387
 30
0.0
 11
17.25
 21
0.0
 31
0.0
 40
0.6808509827
 41
-2.8984554093
 42
-2.8853683473
  0
ELLIPSE
  5
73F
100
AcDbEntity
  8
0
100
AcDbEllipse
 62
7
  6
CONTINUOUS
 10
122.3436258387
 20
196.254621161
 30
0.0
 11
-0.0
 21
52.8512714792
 31
0.0
 40
0.3263876065
 41
-4.4736045325
 42
-4.4692517361
  0
ELLIPSE
  5
740
100
AcDbEntity
  8
0
100
AcDbEllipse
 62
7
  6
CONTINUOUS
 10
122.3436258387
 20
226.7772770648
 30
0.0
 11
-0.0
 21
54.3825573345
 31
0.0
 40
0.3263914179
 41
-4.0057308693
 42
-4.0003168605
  0
ELLIPSE
  5
741
100
AcDbEntity
  8
0
100
AcDbEllipse
 62
7
  6
CONTINUOUS
 10
122.3436258387
 20
199.1399614825
 30
0.0
 11
17.75
 21
0.0
 31
0.0
 40
0.6808509827
 41
-2.4295205337
 42
-2.4131240034
  0
ELLIPSE
  5
742
100
AcDbEntity
  8
0
100
AcDbEllipse
 62
7
  6
CONTINUOUS
 10
122.3436258387
 20
195.1172667372
 30
0.0
 11
17.75
 21
-0.0
 31
0.0
 40
0.3404254913
 41
-2.4131240034
 42
-2.3964840025
  0
ELLIPSE
  5
743
100
AcDbEntity
  8
0
100
AcDbEllipse
 62
7
  6
CONTINUOUS
 10
122.3436258387
 20
185.9144020315
 30
0.0
 11
17.75
 21
-0.0
 31
0.0
 40
0.204255139
 41
3.0801220156
 42
3.1006892378
  0
ELLIPSE
  5
744
100
AcDbEntity
  8
0
100
AcDbEllipse
 62
7
  6
CONTINUOUS
 10
122.3436258387
 20
193.5677671875
 30
0.0
 11
17.75
 21
-0.0
 31
0.0
 40
0.2042556065
 41
-2.3624079759
 42
-2.3331110084
  0
ELLIPSE
  5
745
100
AcDbEntity
  8
0
100
AcDbEllipse
 62
7
  6
CONTINUOUS
 10
122.3436258387
 20
197.5009417037
 30
0.0
 11
17.75
 21
0.0
 31
0.0
 40
0.510637263
 41
-2.3331110084
 42
-2.3090107216
  0
ELLIPSE
  5
746
100
AcDbEntity
  8
0
100
AcDbEllipse
 62
7
  6
CONTINUOUS
 10
122.3436258387
 20
204.2052604446
 30
0.0
 11
-0.0
 21
18.1277265653
 31
0.0
 40
0.9791630482
 41
-3.8798070484
 42
-3.8550507302
  0
ELLIPSE
  5
747
100
AcDbEntity
  8
0
100
AcDbEllipse
 62
7
  6
CONTINUOUS
 10
122.3436258387
 20
179.5393446524
 30
0.0
 11
-0.0
 21
54.3825573345
 31
0.0
 40
0.3263914179
 41
1.3510749095
 42
1.3552821549
  0
ELLIPSE
  5
748
100
AcDbEntity
  8
0
100
AcDbEllipse
 62
7
  6
CONTINUOUS
 10
122.3436258387
 20
186.0002471156
 30
0.0
 11
0.0
 21
24.1702098846
 31
0.0
 40
0.7343750875
 41
1.3552821549
 42
1.3678809046
  0
ELLIPSE
  5
749
100
AcDbEntity
  8
0
100
AcDbEllipse
 62
7
  6
CONTINUOUS
 10
122.3436258387
 20
188.131264447
 30
0.0
 11
17.75
 21
-0.0
 31
0.0
 40
0.7659602774
 41
2.9386772314
 42
2.9554252125
  0
ELLIPSE
  5
74A
100
AcDbEntity
  8
0
100
AcDbEllipse
 62
7
  6
CONTINUOUS
 10
122.3436258387
 20
217.9113893934
 30
0.0
 11
-0.0
 21
36.2550509187
 31
0.0
 40
0.4895869555
 41
-3.8550507302
 42
-3.8424039562
  0
ELLIPSE
  5
74B
100
AcDbEntity
  8
0
100
AcDbEllipse
 62
7
  6
CONTINUOUS
 10
122.3436258387
 20
189.976701719
 30
0.0
 11
17.75
 21
0.0
 31
0.0
 40
0.2042546715
 41
2.9554252125
 42
2.9762868645
  0
ELLIPSE
  5
74C
100
AcDbEntity
  8
0
100
AcDbEllipse
 62
7
  6
CONTINUOUS
 10
122.3436258387
 20
162.1181850229
 30
0.0
 11
-0.0
 21
36.2550445708
 31
0.0
 40
0.4895870412
 41
0.7008113026
 42
0.7134580766
  0
ELLIPSE
  5
74D
100
AcDbEntity
  8
0
100
AcDbEllipse
 62
7
  6
CONTINUOUS
 10
122.3436258387
 20
175.8243079722
 30
0.0
 11
0.0
 21
18.1277281523
 31
0.0
 40
0.9791629624
 41
0.7134580766
 42
0.7382143948
  0
ELLIPSE
  5
74E
100
AcDbEntity
  8
0
100
AcDbEllipse
 62
7
  6
CONTINUOUS
 10
122.3436258387
 20
193.1060593881
 30
0.0
 11
17.75
 21
0.0
 31
0.0
 40
0.2042546715
 41
-2.9762868645
 42
-2.9554252125
  0
ELLIPSE
  5
74F
100
AcDbEntity
  8
0
100
AcDbEllipse
 62
7
  6
CONTINUOUS
 10
122.3436258387
 20
182.5286270066
 30
0.0
 11
17.75
 21
-0.0
 31
0.0
 40
0.5106373301
 41
2.3090107216
 42
2.3331110084
  0
ELLIPSE
  5
750
100
AcDbEntity
  8
0
100
AcDbEllipse
 62
7
  6
CONTINUOUS
 10
122.3436258387
 20
194.9514966601
 30
0.0
 11
17.75
 21
-0.0
 31
0.0
 40
0.7659602774
 41
-2.9554252125
 42
-2.9386772314
  0
ELLIPSE
  5
751
100
AcDbEntity
  8
0
100
AcDbEllipse
 62
7
  6
CONTINUOUS
 10
122.3436258387
 20
197.0825139916
 30
0.0
 11
0.0
 21
24.1702098846
 31
0.0
 40
0.7343750875
 41
1.773711749
 42
1.7863104987
  0
ELLIPSE
  5
752
100
AcDbEntity
  8
0
100
AcDbEllipse
 62
7
  6
CONTINUOUS
 10
122.3436258387
 20
185.5684724766
 30
0.0
 11
17.75
 21
0.0
 31
0.0
 40
0.680851632
 41
3.1006892378
 42
3.1130206872
  0
ELLIPSE
  5
753
100
AcDbEntity
  8
0
100
AcDbEllipse
 62
7
  6
CONTINUOUS
 10
122.3436258387
 20
203.5434164547
 30
0.0
 11
-0.0
 21
54.3825573345
 31
0.0
 40
0.3263914179
 41
-4.4968748085
 42
-4.4926675631
  0
ELLIPSE
  5
754
100
AcDbEntity
  8
0
100
AcDbEllipse
 62
7
  6
CONTINUOUS
 10
122.3436258387
 20
186.461802154
 30
0.0
 11
17.75
 21
-0.0
 31
0.0
 40
0.2042556244
 41
2.3331110084
 42
2.3624079759
  0
ELLIPSE
  5
755
100
AcDbEntity
  8
0
100
AcDbEllipse
 62
7
  6
CONTINUOUS
 10
122.3436258387
 20
224.6177078632
 30
0.0
 11
-0.0
 21
54.3825573345
 31
0.0
 40
0.3263914179
 41
-4.0218252823
 42
-4.0164845306
  0
ELLIPSE
  5
756
100
AcDbEntity
  8
0
100
AcDbEllipse
 62
7
  6
CONTINUOUS
 10
122.3436258387
 20
195.3420914733
 30
0.0
 11
17.25
 21
0.0
 31
0.0
 40
0.6808512211
 41
3.6446719933
 42
3.6563251515
  0
ELLIPSE
  5
757
100
AcDbEntity
  8
0
100
AcDbEllipse
 62
7
  6
CONTINUOUS
 10
122.3436258387
 20
202.4200061036
 30
0.0
 11
-0.0
 21
26.4253271555
 31
0.0
 40
0.6527828359
 41
-4.2189340574
 42
-4.2093096407
  0
ELLIPSE
  5
758
100
AcDbEntity
  8
0
100
AcDbEllipse
 62
7
  6
CONTINUOUS
 10
122.3436258387
 20
223.2823091471
 30
0.0
 11
-0.0
 21
70.4691519799
 31
0.0
 40
0.2447879606
 41
-4.2237274665
 42
-4.2189340574
  0
ELLIPSE
  5
759
100
AcDbEntity
  8
0
100
AcDbEllipse
 62
7
  6
CONTINUOUS
 10
122.3436258387
 20
201.375425007
 30
0.0
 11
0.0
 21
18.1276616454
 31
0.0
 40
0.9791665548
 41
-4.0164845306
 42
-4.0003168605
  0
ELLIPSE
  5
75A
100
AcDbEntity
  8
0
100
AcDbEllipse
 62
7
  6
CONTINUOUS
 10
122.3436258387
 20
192.4919235324
 30
0.0
 11
17.75
 21
-0.0
 31
0.0
 40
0.2553200925
 41
-2.4295205337
 42
-2.407605233
  0
ELLIPSE
  5
75B
100
AcDbEntity
  8
0
100
AcDbEllipse
 62
7
  6
CONTINUOUS
 10
122.3436258387
 20
186.7571251938
 30
0.0
 11
17.75
 21
0.0
 31
0.0
 40
0.1702127457
 41
-3.0595287439
 42
-3.0347698902
  0
ELLIPSE
  5
75C
100
AcDbEntity
  8
0
100
AcDbEllipse
 62
7
  6
CONTINUOUS
 10
122.3436258387
 20
187.4013799753
 30
0.0
 11
17.75
 21
0.0
 31
0.0
 40
0.5106379935
 41
-3.0347698902
 42
-3.018228332
  0
ELLIPSE
  5
75D
100
AcDbEntity
  8
0
100
AcDbEllipse
 62
7
  6
CONTINUOUS
 10
122.3436258387
 20
187.1469096743
 30
0.0
 11
17.25
 21
0.0
 31
0.0
 40
0.2042556244
 41
2.5595176463
 42
2.5846148691
  0
ELLIPSE
  5
75E
100
AcDbEntity
  8
0
100
AcDbEllipse
 62
7
  6
CONTINUOUS
 10
122.3436258387
 20
184.241390002
 30
0.0
 11
17.25
 21
0.0
 31
0.0
 40
0.5106373301
 41
2.5391380202
 42
2.5595176463
  0
ELLIPSE
  5
75F
100
AcDbEntity
  8
0
100
AcDbEllipse
 62
7
  6
CONTINUOUS
 10
122.3436258387
 20
179.2499105373
 30
0.0
 11
0.0
 21
17.616987117
 31
0.0
 40
0.9791685653
 41
0.9476722849
 42
0.9683416934
  0
ELLIPSE
  5
760
100
AcDbEntity
  8
0
100
AcDbEllipse
 62
7
  6
CONTINUOUS
 10
122.3436258387
 20
168.9689593847
 30
0.0
 11
-0.0
 21
35.2341789298
 31
0.0
 40
0.4895814384
 41
0.9433658828
 42
0.9476722849
  0
ELLIPSE
  5
761
100
AcDbEntity
  8
0
100
AcDbEllipse
 62
7
  6
CONTINUOUS
 10
122.3436258387
 20
137.6800824998
 30
0.0
 11
-0.0
 21
88.0844238516
 31
0.0
 40
0.1958348508
 41
0.9319669619
 42
0.9351225397
  0
ELLIPSE
  5
762
100
AcDbEntity
  8
0
100
AcDbEllipse
 62
7
  6
CONTINUOUS
 10
122.3436258387
 20
232.5857463131
 30
0.0
 11
-0.0
 21
52.850654311
 31
0.0
 40
0.3263914179
 41
-3.8342289794
 42
-3.827582683
  0
ELLIPSE
  5
763
100
AcDbEntity
  8
0
100
AcDbEllipse
 62
7
  6
CONTINUOUS
 10
122.3436258387
 20
209.9903146288
 30
0.0
 11
-0.0
 21
23.489358902
 31
0.0
 40
0.7343750875
 41
-3.8538568434
 42
-3.8342289794
  0
ELLIPSE
  5
764
100
AcDbEntity
  8
0
100
AcDbEllipse
 62
7
  6
CONTINUOUS
 10
122.3436258387
 20
202.2121049922
 30
0.0
 11
17.25
 21
-0.0
 31
0.0
 40
0.7659558946
 41
-2.3085582544
 42
-2.2830605166
  0
ELLIPSE
  5
765
100
AcDbEntity
  8
0
100
AcDbEllipse
 62
7
  6
CONTINUOUS
 10
122.3436258387
 20
195.0422351691
 30
0.0
 11
17.25
 21
0.0
 31
0.0
 40
0.2042556065
 41
-2.3394595868
 42
-2.3085582544
  0
ELLIPSE
  5
766
100
AcDbEntity
  8
0
100
AcDbEllipse
 62
7
  6
CONTINUOUS
 10
122.3436258387
 20
188.5167017215
 30
0.0
 11
0.0
 21
18.1276747014
 31
0.0
 40
0.9791658496
 41
-4.5890246588
 42
-4.572449123
  0
ELLIPSE
  5
767
100
AcDbEntity
  8
0
100
AcDbEllipse
 62
7
  6
CONTINUOUS
 10
122.3436258387
 20
196.1022106036
 30
0.0
 11
-0.0
 21
72.5104913511
 31
0.0
 40
0.2447921628
 41
-4.572449123
 42
-4.5682993546
  0
ELLIPSE
  5
768
100
AcDbEntity
  8
0
100
AcDbEllipse
 62
7
  6
CONTINUOUS
 10
122.3436258387
 20
175.129486656
 30
0.0
 11
-0.0
 21
72.5104913511
 31
0.0
 40
0.2447921628
 41
1.426706701
 42
1.4308564694
  0
ELLIPSE
  5
769
100
AcDbEntity
  8
0
100
AcDbEllipse
 62
7
  6
CONTINUOUS
 10
122.3436258387
 20
181.450739235
 30
0.0
 11
0.0
 21
27.1915120521
 31
0.0
 40
0.6527772331
 41
1.4308564694
 42
1.439148785
  0
ELLIPSE
  5
76A
100
AcDbEntity
  8
0
100
AcDbEllipse
 62
7
  6
CONTINUOUS
 10
122.3436258387
 20
182.9260783535
 30
0.0
 11
17.75
 21
-0.0
 31
0.0
 40
0.8987234172
 41
3.0099451118
 42
3.1130206872
  0
ELLIPSE
  5
76B
100
AcDbEntity
  8
0
100
AcDbEllipse
 62
7
  6
CONTINUOUS
 10
122.3436258387
 20
196.254621161
 30
0.0
 11
-0.0
 21
54.3831923917
 31
0.0
 40
0.3263876065
 41
-4.4804560201
 42
-4.4762329143
  0
ELLIPSE
  5
76C
100
AcDbEntity
  8
0
100
AcDbEllipse
 62
7
  6
CONTINUOUS
 10
122.3436258387
 20
195.0422351691
 30
0.0
 11
17.75
 21
0.0
 31
0.0
 40
0.2042556065
 41
-2.3681654811
 42
-2.3390411205
  0
ELLIPSE
  5
76D
100
AcDbEntity
  8
0
100
AcDbEllipse
 62
7
  6
CONTINUOUS
 10
122.3436258387
 20
202.2121049922
 30
0.0
 11
17.75
 21
-0.0
 31
0.0
 40
0.7659558946
 41
-2.3390411205
 42
-2.3150947359
  0
ELLIPSE
  5
76E
100
AcDbEntity
  8
0
100
AcDbEllipse
 62
7
  6
CONTINUOUS
 10
122.3436258387
 20
209.9903146288
 30
0.0
 11
-0.0
 21
24.1702098846
 31
0.0
 40
0.7343750875
 41
-3.8858910627
 42
-3.8675152096
  0
ELLIPSE
  5
76F
100
AcDbEntity
  8
0
100
AcDbEllipse
 62
7
  6
CONTINUOUS
 10
122.3436258387
 20
192.4919235324
 30
0.0
 11
17.25
 21
-0.0
 31
0.0
 40
0.2553200925
 41
-2.4042231698
 42
-2.3869077213
  0
ELLIPSE
  5
770
100
AcDbEntity
  8
0
100
AcDbEllipse
 62
7
  6
CONTINUOUS
 10
122.3436258387
 20
201.375425007
 30
0.0
 11
-0.0
 21
17.6170232892
 31
0.0
 40
0.9791665548
 41
-3.9920202138
 42
-3.9750194966
  0
ELLIPSE
  5
771
100
AcDbEntity
  8
0
100
AcDbEllipse
 62
7
  6
CONTINUOUS
 10
122.3436258387
 20
224.6177078632
 30
0.0
 11
-0.0
 21
52.850654311
 31
0.0
 40
0.3263914179
 41
-3.9976308246
 42
-3.9920202138
  0
ELLIPSE
  5
772
100
AcDbEntity
  8
0
100
AcDbEllipse
 62
7
  6
CONTINUOUS
 10
122.3436258387
 20
232.5857463131
 30
0.0
 11
-0.0
 21
54.3825573345
 31
0.0
 40
0.3263914179
 41
-3.8675152096
 42
-3.8613050545
  0
ELLIPSE
  5
773
100
AcDbEntity
  8
0
100
AcDbEllipse
 62
7
  6
CONTINUOUS
 10
122.3436258387
 20
137.6800824998
 30
0.0
 11
-0.0
 21
90.6375955574
 31
0.0
 40
0.1958348508
 41
0.9527302148
 42
0.9577617387
  0
ELLIPSE
  5
774
100
AcDbEntity
  8
0
100
AcDbEllipse
 62
7
  6
CONTINUOUS
 10
122.3436258387
 20
186.461802154
 30
0.0
 11
17.25
 21
0.0
 31
0.0
 40
0.2042556244
 41
2.3022519556
 42
2.3333597049
  0
ELLIPSE
  5
775
100
AcDbEntity
  8
0
100
AcDbEllipse
 62
7
  6
CONTINUOUS
 10
122.3436258387
 20
182.5286270066
 30
0.0
 11
17.25
 21
0.0
 31
0.0
 40
0.5106373301
 41
2.2765681717
 42
2.3022519556
  0
ELLIPSE
  5
776
100
AcDbEntity
  8
0
100
AcDbEllipse
 62
7
  6
CONTINUOUS
 10
122.3436258387
 20
175.8243079722
 30
0.0
 11
0.0
 21
17.6170879226
 31
0.0
 40
0.9791629624
 41
0.6792894817
 42
0.7057718449
  0
ELLIPSE
  5
777
100
AcDbEntity
  8
0
100
AcDbEllipse
 62
7
  6
CONTINUOUS
 10
122.3436258387
 20
162.1181850229
 30
0.0
 11
-0.0
 21
35.2337757097
 31
0.0
 40
0.4895870412
 41
0.665718116
 42
0.6792894817
  0
ELLIPSE
  5
778
100
AcDbEntity
  8
0
100
AcDbEllipse
 62
7
  6
CONTINUOUS
 10
122.3436258387
 20
217.9113893934
 30
0.0
 11
-0.0
 21
35.2337818787
 31
0.0
 40
0.4895869555
 41
-3.8208821352
 42
-3.8073107696
  0
ELLIPSE
  5
779
100
AcDbEntity
  8
0
100
AcDbEllipse
 62
7
  6
CONTINUOUS
 10
122.3436258387
 20
204.2052604446
 30
0.0
 11
0.0
 21
17.6170863803
 31
0.0
 40
0.9791630482
 41
-3.8473644985
 42
-3.8208821352
  0
ELLIPSE
  5
77A
100
AcDbEntity
  8
0
100
AcDbEllipse
 62
7
  6
CONTINUOUS
 10
122.3436258387
 20
197.5009417037
 30
0.0
 11
17.25
 21
-0.0
 31
0.0
 40
0.510637263
 41
-2.3022519556
 42
-2.2765681717
  0
ELLIPSE
  5
77B
100
AcDbEntity
  8
0
100
AcDbEllipse
 62
7
  6
CONTINUOUS
 10
122.3436258387
 20
193.5677671875
 30
0.0
 11
17.25
 21
0.0
 31
0.0
 40
0.2042556065
 41
-2.3333597049
 42
-2.3022519556
  0
ELLIPSE
  5
77C
100
AcDbEntity
  8
0
100
AcDbEllipse
 62
7
  6
CONTINUOUS
 10
122.3436258387
 20
168.9689593847
 30
0.0
 11
-0.0
 21
36.2554594785
 31
0.0
 40
0.4895814384
 41
0.9577617387
 42
0.9677717455
  0
ELLIPSE
  5
77D
100
AcDbEntity
  8
0
100
AcDbEllipse
 62
7
  6
CONTINUOUS
 10
122.3436258387
 20
195.1172667372
 30
0.0
 11
17.25
 21
0.0
 31
0.0
 40
0.3404254913
 41
3.8962295519
 42
3.9137820309
  0
ELLIPSE
  5
77E
100
AcDbEntity
  8
0
100
AcDbEllipse
 62
7
  6
CONTINUOUS
 10
122.3436258387
 20
199.1399614825
 30
0.0
 11
17.25
 21
0.0
 31
0.0
 40
0.6808509827
 41
-2.4042231698
 42
-2.3869557553
  0
ELLIPSE
  5
77F
100
AcDbEntity
  8
0
100
AcDbEllipse
 62
7
  6
CONTINUOUS
 10
122.3436258387
 20
226.7772770648
 30
0.0
 11
-0.0
 21
52.850654311
 31
0.0
 40
0.3263914179
 41
-3.9807152223
 42
-3.9750194966
  0
ELLIPSE
  5
780
100
AcDbEntity
  8
0
100
AcDbEllipse
 62
7
  6
CONTINUOUS
 10
122.3436258387
 20
156.3054508606
 30
0.0
 11
-0.0
 21
52.8507036632
 31
0.0
 40
0.3263911132
 41
0.833426843
 42
0.8391225687
  0
ELLIPSE
  5
781
100
AcDbEntity
  8
0
100
AcDbEllipse
 62
7
  6
CONTINUOUS
 10
122.3436258387
 20
183.9427996247
 30
0.0
 11
17.25
 21
-0.0
 31
0.0
 40
0.6808509827
 41
2.3869557553
 42
2.4042231698
  0
ELLIPSE
  5
782
100
AcDbEntity
  8
0
100
AcDbEllipse
 62
7
  6
CONTINUOUS
 10
122.3436258387
 20
187.96549437
 30
0.0
 11
17.25
 21
0.0
 31
0.0
 40
0.3404254913
 41
2.3805300694
 42
2.3869557553
  0
ELLIPSE
  5
783
100
AcDbEntity
  8
0
100
AcDbEllipse
 62
7
  6
CONTINUOUS
 10
122.3436258387
 20
179.2499105373
 30
0.0
 11
0.0
 21
18.1276244248
 31
0.0
 40
0.9791685653
 41
0.9677717455
 42
0.9875886372
  0
ELLIPSE
  5
784
100
AcDbEntity
  8
KONSTRUKTIONSELEMENTE
100
AcDbEllipse
 62
7
  6
CONTINUOUS
 10
237.8657313146
 20
225.3962264763
 30
0.0
 11
1.765
 21
-0.0
 31
0.0
 40
0.6798866856
 41
0.0
 42
3.1415926536
  0
ENDSEC
  0
SECTION
  2
OBJECTS
  0
DICTIONARY
  5
C
100
AcDbDictionary
280
0
281
1
  3
ACAD_GROUP
350
D
  3
ACAD_MLINESTYLE
350
17
  3
ACAD_LAYOUT
350
1A
  3
ACAD_PLOTSETTINGS
350
19
  3
ACAD_PLOTSTYLENAME
350
E
  0
DICTIONARY
  5
D
102
{ACAD_REACTORS
330
C
102
}
100
AcDbDictionary
280
0
281
1
  0
ACDBDICTIONARYWDFLT
  5
E
102
{ACAD_REACTORS
330
C
102
}
100
AcDbDictionary
281
1
  3
Normal
350
F
100
AcDbDictionaryWithDefault
340
F
  0
DICTIONARY
  5
17
102
{ACAD_REACTORS
330
C
102
}
100
AcDbDictionary
280
0
281
1
  3
Standard
350
18
  0
DICTIONARY
  5
19
102
{ACAD_REACTORS
330
C
102
}
100
AcDbDictionary
281
1
  0
DICTIONARY
  5
1A
102
{ACAD_REACTORS
330
C
102
}
100
AcDbDictionary
281
1
  3
Model
350
785
  3
Layout1
350
786
  0
ACDBPLACEHOLDER
  5
F
102
{ACAD_REACTORS
330
E
102
}
  0
MLINESTYLE
  5
18
102
{ACAD_REACTORS
330
17
102
}
100
AcDbMlineStyle
  2
STANDARD
 70
0
  3

 62
256
 51
90.0
 52
90.0
 71
2
 49
0.5
 62
256
  6
BYLAYER
 49
-0.5
 62
256
  6
BYLAYER
  0
LAYOUT
  5
785
102
{ACAD_REACTORS
330
1A
102
}
100
AcDbPlotSettings
  1

  2
none_device
  4
ISO_A3_(420.00_x_297.00_MM)
  6

 40
0.0
 41
0.0
 42
0.0
 43
0.0
 44
420.0
 45
297.0
 46
0.0
 47
0.0
 48
0.0
 49
0.0
140
0.0
141
0.0
142
1.0
143
1.0
 70
1024
 72
1
 73
0
 74
0
  7

 75
0
147
1.0
148
0.0
149
0.0
100
AcDbLayout
  1
Model
 70
0
 71
0
 10
0.0
 20
0.0
 11
420.0
 21
297.0
 12
0.0
 22
0.0
 32
0.0
 14
0.0
 24
0.0
 34
0.0
 15
0.0
 25
0.0
 35
0.0
146
0.0
 13
0.0
 23
0.0
 33
0.0
 16
1.0
 26
0.0
 36
0.0
 17
0.0
 27
1.0
 37
0.0
 76
0
330
20E
345
0
346
0
  0
LAYOUT
  5
786
102
{ACAD_REACTORS
330
1A
102
}
100
AcDbPlotSettings
  1

  2
none_device
  4
ISO_A3_(420.00_x_297.00_MM)
  6

 40
0.0
 41
0.0
 42
0.0
 43
0.0
 44
420.0
 45
297.0
 46
0.0
 47
0.0
 48
0.0
 49
0.0
140
0.0
141
0.0
142
1.0
143
1.0
 70
0
 72
1
 73
0
 74
0
  7

 75
0
147
1.0
148
0.0
149
0.0
100
AcDbLayout
  1
Layout1
 70
0
 71
1
 10
0.0
 20
0.0
 11
420.0
 21
297.0
 12
0.0
 22
0.0
 32
0.0
 14
0.0
 24
0.0
 34
0.0
 15
0.0
 25
0.0
 35
0.0
146
0.0
 13
0.0
 23
0.0
 33
0.0
 16
1.0
 26
0.0
 36
0.0
 17
0.0
 27
1.0
 37
0.0
 76
0
330
20F
345
0
346
0
  0
ENDSEC
  0
EOF
