999
DXF file: 001-m35330-p-1.dxf
999
Pro/ENGINEER 2011490 by Parametric Technology Corporation
  0
SECTION
  2
HEADER
  9
$ACADVER
  1
AC1015
  9
$DWGCODEPAGE
  3
ANSI_1252
  9
$EXTMAX
 10
297.0
 20
210.0
 30
0.0
  9
$EXTMIN
 10
0.0
 20
0.0
 30
0.0
  9
$LIMMIN
 10
0.0
 20
0.0
  9
$LIMMAX
 10
297.0
 20
210.0
  9
$VIEWCTR
 10
148.5
 20
105.0
  9
$VIEWSIZE
 40
210.0
  9
$CLAYER
  8
0
  9
$LTSCALE
 40
16.335
  9
$CELTYPE
  6
BYLAYER
  9
$DIMSCALE
 40
1.0
  9
$DIMASZ
 40
3.5
  9
$DIMEXO
 40
1.85625
  9
$DIMDLI
 40
11.286
  9
$DIMEXE
 40
5.346
  9
$DIMCEN
 40
2.673
  9
$DIMLFAC
 40
1.0
  9
$DIMBLK
  1
_FILLED
  9
$DIMTXT
 40
3.5
  9
$DIMTOL
 70
1
  9
$DIMLIM
 70
0
  9
$DIMTFAC
 40
1.0
  9
$DIMTP
 40
0.005
  9
$DIMTM
 40
0.005
  9
$PDMODE
 70
3
  9
$PDSIZE
 40
0.3125
  9
$HANDSEED
  5
782
  9
$TILEMODE
 70
1
  9
$MEASUREMENT
 70
1
  9
$INSUNITS
 70
4
  0
ENDSEC
  0
SECTION
  2
CLASSES
  0
CLASS
  1
ACDBDICTIONARYWDFLT
  2
AcDbDictionaryWithDefault
  3
AutoCAD 2000
 90
0
280
0
281
0
  0
CLASS
  1
ACDBPLACEHOLDER
  2
AcDbPlaceHolder
  3
AutoCAD 2000
 90
0
280
0
281
0
  0
CLASS
  1
LAYOUT
  2
AcDbLayout
  3
AutoCAD 2000
 90
0
280
0
281
0
  0
ENDSEC
  0
SECTION
  2
TABLES
  0
TABLE
  2
VPORT
  5
8
100
AcDbSymbolTable
 70
2
  0
VPORT
  5
1F4
100
AcDbSymbolTableRecord
100
AcDbViewportTableRecord
  2
*ACTIVE
 70
0
 10
0.0
 20
0.0
 11
1.0
 21
1.0
 12
148.5
 22
105.0
 13
0.0
 23
0.0
 14
1.0
 24
1.0
 15
0.0
 25
0.0
 16
0.0
 26
0.0
 36
1.0
 17
0.0
 27
0.0
 37
0.0
 40
210.0
 41
1.4142857143
 42
50.0
 43
0.0
 44
0.0
 50
0.0
 51
0.0
 71
0
 72
100
 73
1
 74
1
 75
0
 76
0
 77
0
 78
0
  0
ENDTAB
  0
TABLE
  2
LTYPE
  5
5
100
AcDbSymbolTable
 70
6
  0
LTYPE
  5
14
100
AcDbSymbolTableRecord
100
AcDbLinetypeTableRecord
  2
BYBLOCK
 70
0
  3

 72
65
 73
0
 40
0.0
  0
LTYPE
  5
15
100
AcDbSymbolTableRecord
100
AcDbLinetypeTableRecord
  2
BYLAYER
 70
0
  3

 72
65
 73
0
 40
0.0
  0
LTYPE
  5
16
100
AcDbSymbolTableRecord
100
AcDbLinetypeTableRecord
  2
CONTINUOUS
 70
64
  3
Solid line
 72
65
 73
0
 40
0.0
  0
LTYPE
  5
1F5
100
AcDbSymbolTableRecord
100
AcDbLinetypeTableRecord
  2
CENTER
 70
64
  3
____ _ ____ _ ____ _ ____ _ ____ _ ____ _ ____
 72
65
 73
4
 40
0.6
 49
0.375
 74
0
 49
-0.075
 74
0
 49
0.075
 74
0
 49
-0.075
 74
0
  0
LTYPE
  5
1F6
100
AcDbSymbolTableRecord
100
AcDbLinetypeTableRecord
  2
HIDDEN
 70
64
  3
- - - - - - - - - - - - - - - - - - - -
 72
65
 73
2
 40
0.2
 49
0.1
 74
0
 49
-0.1
 74
0
  0
LTYPE
  5
1F7
100
AcDbSymbolTableRecord
100
AcDbLinetypeTableRecord
  2
PHANTOM
 70
64
  3
_____ _ _ _____ _ _ _____ _ _ _____
 72
65
 73
6
 40
0.8
 49
0.45
 74
0
 49
-0.05
 74
0
 49
0.1
 74
0
 49
-0.05
 74
0
 49
0.1
 74
0
 49
-0.05
 74
0
  0
LTYPE
  5
1F8
100
AcDbSymbolTableRecord
100
AcDbLinetypeTableRecord
  2
DOT
 70
64
  3
. . . . . . . . . . . . . . . . . . . .
 72
65
 73
2
 40
0.2
 49
0.1
 74
0
 49
-0.1
 74
0
  0
LTYPE
  5
1F9
100
AcDbSymbolTableRecord
100
AcDbLinetypeTableRecord
  2
DASHED
 70
64
  3
- - - - - - - - - - - - - - - - - - - -
 72
65
 73
2
 40
0.2
 49
0.1
 74
0
 49
-0.1
 74
0
  0
ENDTAB
  0
TABLE
  2
LAYER
  5
2
100
AcDbSymbolTable
 70
36
  0
LAYER
  5
10
100
AcDbSymbolTableRecord
100
AcDbLayerTableRecord
  2
0
 70
0
 62
7
  6
CONTINUOUS
370
-3
390
F
  0
LAYER
  5
1FA
100
AcDbSymbolTableRecord
100
AcDbLayerTableRecord
  2
DEFAULT_1
 70
0
 62
7
  6
CENTER
370
-3
390
F
  0
LAYER
  5
1FB
100
AcDbSymbolTableRecord
100
AcDbLayerTableRecord
  2
DEFAULT_2
 70
0
 62
8
  6
HIDDEN
370
-3
390
F
  0
LAYER
  5
1FC
100
AcDbSymbolTableRecord
100
AcDbLayerTableRecord
  2
DEFAULT_3
 70
0
 62
7
  6
PHANTOM
370
-3
390
F
  0
LAYER
  5
1FD
100
AcDbSymbolTableRecord
100
AcDbLayerTableRecord
  2
AUSFORMSCHRAEGEN
 70
0
 62
7
  6
CONTINUOUS
370
-3
390
F
  0
LAYER
  5
1FE
100
AcDbSymbolTableRecord
100
AcDbLayerTableRecord
  2
BEZUGSACHSEN
 70
0
 62
7
  6
CONTINUOUS
370
-3
390
F
  0
LAYER
  5
1FF
100
AcDbSymbolTableRecord
100
AcDbLayerTableRecord
  2
BEZUGSEBENEN
 70
0
 62
7
  6
CONTINUOUS
370
-3
390
F
  0
LAYER
  5
200
100
AcDbSymbolTableRecord
100
AcDbLayerTableRecord
  2
BG_STARTBEZUEGE
 70
0
 62
7
  6
CONTINUOUS
370
-3
390
F
  0
LAYER
  5
201
100
AcDbSymbolTableRecord
100
AcDbLayerTableRecord
  2
FASEN
 70
0
 62
7
  6
CONTINUOUS
370
-3
390
F
  0
LAYER
  5
202
100
AcDbSymbolTableRecord
100
AcDbLayerTableRecord
  2
GEWINDE
 70
0
 62
7
  6
CONTINUOUS
370
-3
390
F
  0
LAYER
  5
203
100
AcDbSymbolTableRecord
100
AcDbLayerTableRecord
  2
HILFEN
 70
0
 62
7
  6
CONTINUOUS
370
-3
390
F
  0
LAYER
  5
204
100
AcDbSymbolTableRecord
100
AcDbLayerTableRecord
  2
KONSTRUKTIONSELEMENTE
 70
0
 62
7
  6
CONTINUOUS
370
-3
390
F
  0
LAYER
  5
205
100
AcDbSymbolTableRecord
100
AcDbLayerTableRecord
  2
KURVEN
 70
0
 62
7
  6
CONTINUOUS
370
-3
390
F
  0
LAYER
  5
206
100
AcDbSymbolTableRecord
100
AcDbLayerTableRecord
  2
NORM
 70
0
 62
7
  6
CONTINUOUS
370
-3
390
F
  0
LAYER
  5
207
100
AcDbSymbolTableRecord
100
AcDbLayerTableRecord
  2
PLATZIERUNG
 70
0
 62
7
  6
CONTINUOUS
370
-3
390
F
  0
LAYER
  5
208
100
AcDbSymbolTableRecord
100
AcDbLayerTableRecord
  2
PLAZIERUNG
 70
0
 62
7
  6
CONTINUOUS
370
-3
390
F
  0
LAYER
  5
209
100
AcDbSymbolTableRecord
100
AcDbLayerTableRecord
  2
RUNDUNGEN
 70
0
 62
7
  6
CONTINUOUS
370
-3
390
F
  0
LAYER
  5
20A
100
AcDbSymbolTableRecord
100
AcDbLayerTableRecord
  2
TEIL_STARTBEZUEGE
 70
0
 62
7
  6
CONTINUOUS
370
-3
390
F
  0
LAYER
  5
20B
100
AcDbSymbolTableRecord
100
AcDbLayerTableRecord
  2
T_STARTBEZUEGE
 70
0
 62
7
  6
CONTINUOUS
370
-3
390
F
  0
LAYER
  5
20C
100
AcDbSymbolTableRecord
100
AcDbLayerTableRecord
  2
ZEICHNUNGSBEMASSUNGEN
 70
0
 62
7
  6
CONTINUOUS
370
-3
390
F
  0
ENDTAB
  0
TABLE
  2
STYLE
  5
3
100
AcDbSymbolTable
 70
1
  0
STYLE
  5
11
100
AcDbSymbolTableRecord
100
AcDbTextStyleTableRecord
  2
STANDARD
 70
0
 40
0.0
 41
0.7
 50
0.0
 71
0
 42
0.2
  3
txt
  4

  0
STYLE
  5
20D
100
AcDbSymbolTableRecord
100
AcDbTextStyleTableRecord
  2
TEXTSTYLE_1
 70
0
 40
0.0
 41
0.8
 50
0.0
 71
0
 42
0.2
  3
gdt
  4

  0
ENDTAB
  0
TABLE
  2
VIEW
  5
6
100
AcDbSymbolTable
 70
0
  0
ENDTAB
  0
TABLE
  2
UCS
  5
7
100
AcDbSymbolTable
 70
0
  0
ENDTAB
  0
TABLE
  2
APPID
  5
9
100
AcDbSymbolTable
 70
1
  0
APPID
  5
20E
100
AcDbSymbolTableRecord
100
AcDbRegAppTableRecord
  2
ACAD
 70
0
  0
ENDTAB
  0
TABLE
  2
BLOCK_RECORD
  5
1
100
AcDbSymbolTable
 70
0
  0
BLOCK_RECORD
  5
20F
100
AcDbSymbolTableRecord
100
AcDbBlockTableRecord
  2
*Model_Space
  0
BLOCK_RECORD
  5
210
100
AcDbSymbolTableRecord
100
AcDbBlockTableRecord
  2
*Paper_Space
  0
ENDTAB
  0
TABLE
  2
DIMSTYLE
  5
A
100
AcDbSymbolTable
 70
1
100
AcDbDimStyleTable
 71
0
  0
DIMSTYLE
105
211
100
AcDbSymbolTableRecord
100
AcDbDimStyleTableRecord
  2
STANDARD
 70
0
  3

  4

 40
1.0
 41
3.5
 42
0.0625
 43
0.38
 44
0.18
 45
0.0
 46
0.0
 47
0.005
 48
0.005
140
3.5
141
0.09
142
0.0
143
25.4
144
1.0
145
0.0
146
1.0
147
0.09
 71
1.0
 72
0.0
 73
0
 74
0
 75
0
 76
0
 77
1
 78
8
170
0
171
2
172
0
173
0
174
0
175
0
176
0
177
0
178
5
270
2
271
3
272
3
273
2
274
2
275
0
280
0
281
0
282
0
283
1
284
8
285
0
286
0
287
3
288
0
340
11
  0
ENDTAB
  0
ENDSEC
  0
SECTION
  2
BLOCKS
  0
BLOCK
  5
20
100
AcDbEntity
  8
0
100
AcDbBlockBegin
  2
*Model_Space
 70
0
 10
0.0
 20
0.0
 30
0.0
  3
*Model_Space
  1

  0
ENDBLK
  5
21
100
AcDbEntity
  8
0
100
AcDbBlockEnd
  0
BLOCK
  5
1C
100
AcDbEntity
  8
0
100
AcDbBlockBegin
  2
*Paper_Space
 70
0
 10
0.0
 20
0.0
 30
0.0
  3
*Paper_Space
  1

  0
ENDBLK
  5
1D
100
AcDbEntity
  8
0
100
AcDbBlockEnd
  0
ENDSEC
  0
SECTION
  2
ENTITIES
  0
MTEXT
  5
212
100
AcDbEntity
  8
0
100
AcDbMText
 62
5
  6
CONTINUOUS
  7
STANDARD
 71
1
 72
1
 10
113.2053935666
 20
135.8190278318
 30
0.0
 11
0.0
 21
1.0
 31
0.0
 44
0.9
  1
RUD VLBG-PLUS 1,35t
 40
3.5
 41
49.5
  0
MTEXT
  5
213
100
AcDbEntity
  8
0
100
AcDbMText
 62
5
  6
CONTINUOUS
  7
STANDARD
 71
1
 72
1
 10
113.3090166258
 20
23.2663181977
 30
0.0
 11
0.0
 21
1.0
 31
0.0
 44
0.9
  1
VLBG-PLUS 1,35t
 40
3.5
 41
38.0833333333
  0
LINE
  5
214
100
AcDbEntity
  8
0
100
AcDbLine
 62
7
  6
CONTINUOUS
 10
0.0
 20
0.0
 11
0.0
 21
210.0
  0
LINE
  5
215
100
AcDbEntity
  8
0
100
AcDbLine
 62
7
  6
CONTINUOUS
 10
0.0
 20
0.0
 11
297.0
 21
0.0
  0
LINE
  5
216
100
AcDbEntity
  8
0
100
AcDbLine
 62
7
  6
CONTINUOUS
 10
0.0
 20
210.0
 11
297.0
 21
210.0
  0
LINE
  5
217
100
AcDbEntity
  8
0
100
AcDbLine
 62
7
  6
CONTINUOUS
 10
297.0
 20
0.0
 11
297.0
 21
210.0
  0
LINE
  5
218
100
AcDbEntity
  8
BEZUGSACHSEN
100
AcDbLine
 62
7
  6
CONTINUOUS
 10
92.3279777687
 20
93.9949620601
 11
101.9279777687
 21
93.9949620601
  0
LINE
  5
219
100
AcDbEntity
  8
BEZUGSACHSEN
100
AcDbLine
 62
7
  6
CONTINUOUS
 10
91.1279777687
 20
95.1949620601
 11
103.1279777687
 21
95.1949620601
  0
LINE
  5
21A
100
AcDbEntity
  8
BEZUGSACHSEN
100
AcDbLine
 62
7
  6
CONTINUOUS
 10
91.1279777687
 20
95.1949620601
 11
92.3279777687
 21
93.9949620601
  0
LINE
  5
21B
100
AcDbEntity
  8
0
100
AcDbLine
 62
7
  6
CONTINUOUS
 10
110.1279777687
 20
111.9949620601
 11
84.1279777687
 21
111.9949620601
  0
LINE
  5
21C
100
AcDbEntity
  8
0
100
AcDbLine
 62
7
  6
CONTINUOUS
 10
110.1279777687
 20
116.2949620601
 11
84.1279777687
 21
116.2949620601
  0
LINE
  5
21D
100
AcDbEntity
  8
RUNDUNGEN
100
AcDbLine
 62
7
  6
CONTINUOUS
 10
113.6279777687
 20
116.4949620601
 11
81.128373193
 21
116.4949620601
  0
LINE
  5
21E
100
AcDbEntity
  8
0
100
AcDbLine
 62
7
  6
CONTINUOUS
 10
79.1279777348
 20
122.3878124693
 11
79.1281262542
 21
122.3592173906
  0
LINE
  5
21F
100
AcDbEntity
  8
0
100
AcDbLine
 62
7
  6
CONTINUOUS
 10
79.1279777687
 20
130.9064514213
 11
79.1279777687
 21
131.0979407825
  0
LINE
  5
220
100
AcDbEntity
  8
0
100
AcDbLine
 62
7
  6
CONTINUOUS
 10
79.1281262532
 20
126.6170897253
 11
79.1281262532
 21
127.5745365091
  0
LINE
  5
221
100
AcDbEntity
  8
0
100
AcDbLine
 62
7
  6
CONTINUOUS
 10
79.1291300803
 20
123.1251747461
 11
79.1291300803
 21
123.2528344842
  0
LINE
  5
222
100
AcDbEntity
  8
0
100
AcDbLine
 62
7
  6
CONTINUOUS
 10
79.1299871714
 20
121.6570897253
 11
79.1299871714
 21
121.9124088438
  0
LINE
  5
223
100
AcDbEntity
  8
0
100
AcDbLine
 62
7
  6
CONTINUOUS
 10
79.1335817445
 20
127.0000684031
 11
79.1335817445
 21
127.3192173906
  0
LINE
  5
224
100
AcDbEntity
  8
0
100
AcDbLine
 62
7
  6
CONTINUOUS
 10
79.14369435
 20
131.7362386235
 11
79.14369435
 21
133.7149620601
  0
LINE
  5
225
100
AcDbEntity
  8
0
100
AcDbLine
 62
7
  6
CONTINUOUS
 10
79.1453750031
 20
122.295387611
 11
79.1453750031
 21
123.9549620601
  0
LINE
  5
226
100
AcDbEntity
  8
0
100
AcDbLine
 62
7
  6
CONTINUOUS
 10
79.1627082676
 20
122.6145365091
 11
79.1627082676
 21
123.6358131619
  0
LINE
  5
227
100
AcDbEntity
  8
0
100
AcDbLine
 62
7
  6
CONTINUOUS
 10
79.1643519609
 20
131.7362386235
 11
79.1643519609
 21
133.7149620601
  0
LINE
  5
228
100
AcDbEntity
  8
0
100
AcDbLine
 62
7
  6
CONTINUOUS
 10
79.1796655453
 20
127.0000684031
 11
79.1796655453
 21
127.3192173906
  0
LINE
  5
229
100
AcDbEntity
  8
0
100
AcDbLine
 62
7
  6
CONTINUOUS
 10
79.2052503765
 20
130.7149620601
 11
79.2052503765
 21
133.7149620601
  0
LINE
  5
22A
100
AcDbEntity
  8
0
100
AcDbLine
 62
7
  6
CONTINUOUS
 10
79.2270028976
 20
125.9149620601
 11
79.2270028976
 21
128.9149620601
  0
LINE
  5
22B
100
AcDbEntity
  8
0
100
AcDbLine
 62
7
  6
CONTINUOUS
 10
79.2460029183
 20
131.0979407825
 11
79.2460029183
 21
133.3319833823
  0
LINE
  5
22C
100
AcDbEntity
  8
0
100
AcDbLine
 62
7
  6
CONTINUOUS
 10
79.2726238417
 20
125.9149620601
 11
79.2726238417
 21
127.255387611
  0
LINE
  5
22D
100
AcDbEntity
  8
0
100
AcDbLine
 62
7
  6
CONTINUOUS
 10
79.2726238417
 20
127.6383662887
 11
79.2726238417
 21
128.5958131619
  0
LINE
  5
22E
100
AcDbEntity
  8
0
100
AcDbLine
 62
7
  6
CONTINUOUS
 10
79.3495572372
 20
121.8485790642
 11
79.3495572372
 21
121.9762386235
  0
LINE
  5
22F
100
AcDbEntity
  8
0
100
AcDbLine
 62
7
  6
CONTINUOUS
 10
79.3817106975
 20
123.6358131619
 11
79.3817106975
 21
123.9549620601
  0
LINE
  5
230
100
AcDbEntity
  8
0
100
AcDbLine
 62
7
  6
CONTINUOUS
 10
79.4043856167
 20
121.7847492846
 11
79.4043856167
 21
122.0400684031
  0
LINE
  5
231
100
AcDbEntity
  8
0
100
AcDbLine
 62
7
  6
CONTINUOUS
 10
79.5050920027
 20
122.7421960684
 11
79.5050920027
 21
122.9975151869
  0
LINE
  5
232
100
AcDbEntity
  8
0
100
AcDbLine
 62
7
  6
CONTINUOUS
 10
79.1279777638
 20
122.672621885
 11
79.1279794732
 21
122.6783662887
  0
LINE
  5
233
100
AcDbEntity
  8
0
100
AcDbLine
 62
7
  6
CONTINUOUS
 10
79.3790564689
 20
120.5719833376
 11
79.6279777687
 21
120.5719833376
  0
LINE
  5
234
100
AcDbEntity
  8
0
100
AcDbLine
 62
7
  6
CONTINUOUS
 10
79.1395365477
 20
120.9549620601
 11
79.7624459777
 21
120.9549620601
  0
LINE
  5
235
100
AcDbEntity
  8
0
100
AcDbLine
 62
7
  6
CONTINUOUS
 10
79.866912087
 20
120.9549620601
 11
80.3911411081
 21
120.9549620601
  0
LINE
  5
236
100
AcDbEntity
  8
0
100
AcDbLine
 62
7
  6
CONTINUOUS
 10
79.1320706188
 20
121.0187918453
 11
79.185998151
 21
121.0187918453
  0
LINE
  5
237
100
AcDbEntity
  8
0
100
AcDbLine
 62
7
  6
CONTINUOUS
 10
79.3008930661
 20
121.0187918453
 11
79.7555979345
 21
121.0187918453
  0
LINE
  5
238
100
AcDbEntity
  8
0
100
AcDbLine
 62
7
  6
CONTINUOUS
 10
79.1283961395
 20
121.1464514213
 11
79.1627082676
 21
121.1464514213
  0
LINE
  5
239
100
AcDbEntity
  8
0
100
AcDbLine
 62
7
  6
CONTINUOUS
 10
79.3495572372
 20
121.2102812009
 11
79.653859897
 21
121.2102812009
  0
LINE
  5
23A
100
AcDbEntity
  8
0
100
AcDbLine
 62
7
  6
CONTINUOUS
 10
79.866912087
 20
121.2102812009
 11
80.3911411081
 21
121.2102812009
  0
LINE
  5
23B
100
AcDbEntity
  8
0
100
AcDbLine
 62
7
  6
CONTINUOUS
 10
79.2152700643
 20
121.2741110029
 11
79.2583382182
 21
121.2741110029
  0
LINE
  5
23C
100
AcDbEntity
  8
0
100
AcDbLine
 62
7
  6
CONTINUOUS
 10
79.1281262546
 20
121.2741110029
 11
79.1627082676
 21
121.2741110029
  0
LINE
  5
23D
100
AcDbEntity
  8
0
100
AcDbLine
 62
7
  6
CONTINUOUS
 10
79.7734799842
 20
121.2741110029
 11
80.2945143635
 21
121.2741110029
  0
LINE
  5
23E
100
AcDbEntity
  8
0
100
AcDbLine
 62
7
  6
CONTINUOUS
 10
79.1913730507
 20
121.3379407825
 11
79.2918950069
 21
121.3379407825
  0
LINE
  5
23F
100
AcDbEntity
  8
0
100
AcDbLine
 62
7
  6
CONTINUOUS
 10
79.7206306062
 20
121.4017705621
 11
80.2398754247
 21
121.4017705621
  0
LINE
  5
240
100
AcDbEntity
  8
0
100
AcDbLine
 62
7
  6
CONTINUOUS
 10
79.1291300815
 20
121.4656003418
 11
79.1515948665
 21
121.4656003418
  0
LINE
  5
241
100
AcDbEntity
  8
0
100
AcDbLine
 62
7
  6
CONTINUOUS
 10
79.1759659328
 20
121.4656003418
 11
79.3196227398
 21
121.4656003418
  0
LINE
  5
242
100
AcDbEntity
  8
0
100
AcDbLine
 62
7
  6
CONTINUOUS
 10
79.3817106975
 20
121.4656003418
 11
79.6220431272
 21
121.4656003418
  0
LINE
  5
243
100
AcDbEntity
  8
0
100
AcDbLine
 62
7
  6
CONTINUOUS
 10
79.7035437775
 20
121.5932599457
 11
80.2222126809
 21
121.5932599457
  0
LINE
  5
244
100
AcDbEntity
  8
0
100
AcDbLine
 62
7
  6
CONTINUOUS
 10
79.1299871714
 20
121.6570897253
 11
79.1453750031
 21
121.6570897253
  0
LINE
  5
245
100
AcDbEntity
  8
0
100
AcDbLine
 62
7
  6
CONTINUOUS
 10
79.1453750031
 20
121.720919505
 11
79.3393331813
 21
121.720919505
  0
LINE
  5
246
100
AcDbEntity
  8
0
100
AcDbLine
 62
7
  6
CONTINUOUS
 10
79.4043856167
 20
121.7847492846
 11
79.6220431272
 21
121.7847492846
  0
LINE
  5
247
100
AcDbEntity
  8
0
100
AcDbLine
 62
7
  6
CONTINUOUS
 10
79.1299871697
 20
121.9124088438
 11
79.3495572372
 21
121.9124088438
  0
LINE
  5
248
100
AcDbEntity
  8
0
100
AcDbLine
 62
7
  6
CONTINUOUS
 10
79.4043856167
 20
122.0400684031
 11
79.6220431272
 21
122.0400684031
  0
LINE
  5
249
100
AcDbEntity
  8
0
100
AcDbLine
 62
7
  6
CONTINUOUS
 10
79.1291300726
 20
122.1677280517
 11
79.3393331813
 21
122.1677280517
  0
LINE
  5
24A
100
AcDbEntity
  8
0
100
AcDbLine
 62
7
  6
CONTINUOUS
 10
79.1453750031
 20
122.295387611
 11
79.3196227398
 21
122.295387611
  0
LINE
  5
24B
100
AcDbEntity
  8
0
100
AcDbLine
 62
7
  6
CONTINUOUS
 10
79.1281262542
 20
122.3592173906
 11
79.1453750031
 21
122.3592173906
  0
LINE
  5
24C
100
AcDbEntity
  8
0
100
AcDbLine
 62
7
  6
CONTINUOUS
 10
79.3817106975
 20
122.3592173906
 11
79.6220431272
 21
122.3592173906
  0
LINE
  5
24D
100
AcDbEntity
  8
0
100
AcDbLine
 62
7
  6
CONTINUOUS
 10
79.1297598708
 20
122.4868769499
 11
79.1453750031
 21
122.4868769499
  0
LINE
  5
24E
100
AcDbEntity
  8
0
100
AcDbLine
 62
7
  6
CONTINUOUS
 10
79.1913730507
 20
122.4868769499
 11
79.2918950069
 21
122.4868769499
  0
LINE
  5
24F
100
AcDbEntity
  8
0
100
AcDbLine
 62
7
  6
CONTINUOUS
 10
79.2152700643
 20
122.5507067295
 11
79.2583382182
 21
122.5507067295
  0
LINE
  5
250
100
AcDbEntity
  8
0
100
AcDbLine
 62
7
  6
CONTINUOUS
 10
79.3495572372
 20
122.6145365091
 11
79.6220431272
 21
122.6145365091
  0
LINE
  5
251
100
AcDbEntity
  8
0
100
AcDbLine
 62
7
  6
CONTINUOUS
 10
79.1279794732
 20
122.6783662887
 11
79.1453750031
 21
122.6783662887
  0
LINE
  5
252
100
AcDbEntity
  8
0
100
AcDbLine
 62
7
  6
CONTINUOUS
 10
79.5050920027
 20
122.7421960684
 11
79.6220431272
 21
122.7421960684
  0
LINE
  5
253
100
AcDbEntity
  8
0
100
AcDbLine
 62
7
  6
CONTINUOUS
 10
79.7035437775
 20
122.7421960684
 11
80.4317629065
 21
122.7421960684
  0
LINE
  5
254
100
AcDbEntity
  8
0
100
AcDbLine
 62
7
  6
CONTINUOUS
 10
79.3008930661
 20
122.806025848
 11
79.5050920027
 21
122.806025848
  0
LINE
  5
255
100
AcDbEntity
  8
0
100
AcDbLine
 62
7
  6
CONTINUOUS
 10
79.2152700643
 20
122.8698556276
 11
79.5050920027
 21
122.8698556276
  0
LINE
  5
256
100
AcDbEntity
  8
0
100
AcDbLine
 62
7
  6
CONTINUOUS
 10
79.1285097861
 20
122.8698556276
 11
79.1453750031
 21
122.8698556276
  0
LINE
  5
257
100
AcDbEntity
  8
0
100
AcDbLine
 62
7
  6
CONTINUOUS
 10
79.5050920027
 20
122.9975151869
 11
79.6220431272
 21
122.9975151869
  0
LINE
  5
258
100
AcDbEntity
  8
0
100
AcDbLine
 62
7
  6
CONTINUOUS
 10
79.7035437775
 20
122.9975151869
 11
80.4317629065
 21
122.9975151869
  0
LINE
  5
259
100
AcDbEntity
  8
0
100
AcDbLine
 62
7
  6
CONTINUOUS
 10
79.1291300803
 20
123.1251747461
 11
79.1453750031
 21
123.1251747461
  0
LINE
  5
25A
100
AcDbEntity
  8
0
100
AcDbLine
 62
7
  6
CONTINUOUS
 10
79.1291300795
 20
123.2528344842
 11
79.1453750031
 21
123.2528344842
  0
LINE
  5
25B
100
AcDbEntity
  8
0
100
AcDbLine
 62
7
  6
CONTINUOUS
 10
79.552791867
 20
131.7362386235
 11
79.552791867
 21
132.6936854072
  0
LINE
  5
25C
100
AcDbEntity
  8
0
100
AcDbLine
 62
7
  6
CONTINUOUS
 10
79.5580152999
 20
128.0213449665
 11
79.5580152999
 21
128.2128344842
  0
LINE
  5
25D
100
AcDbEntity
  8
0
100
AcDbLine
 62
7
  6
CONTINUOUS
 10
79.6220431272
 20
121.4656003418
 11
79.6220431272
 21
122.7421960684
  0
LINE
  5
25E
100
AcDbEntity
  8
0
100
AcDbLine
 62
7
  6
CONTINUOUS
 10
79.6220431272
 20
122.9975151869
 11
79.6220431272
 21
123.5081536027
  0
LINE
  5
25F
100
AcDbEntity
  8
0
100
AcDbLine
 62
7
  6
CONTINUOUS
 10
79.6279777687
 20
117.9949620601
 11
79.6279777687
 21
120.9549620601
  0
LINE
  5
260
100
AcDbEntity
  8
0
100
AcDbLine
 62
7
  6
CONTINUOUS
 10
79.6279777687
 20
123.9549620601
 11
79.6279777687
 21
125.9149620601
  0
LINE
  5
261
100
AcDbEntity
  8
0
100
AcDbLine
 62
7
  6
CONTINUOUS
 10
79.6279777687
 20
128.9149620601
 11
79.6279777687
 21
130.7149620601
  0
LINE
  5
262
100
AcDbEntity
  8
0
100
AcDbLine
 62
7
  6
CONTINUOUS
 10
79.6279777687
 20
133.7149620601
 11
79.6279777687
 21
134.9949620601
  0
LINE
  5
263
100
AcDbEntity
  8
0
100
AcDbLine
 62
7
  6
CONTINUOUS
 10
79.6442054683
 20
131.7362386235
 11
79.6442054683
 21
132.6936854072
  0
LINE
  5
264
100
AcDbEntity
  8
0
100
AcDbLine
 62
7
  6
CONTINUOUS
 10
79.6499868515
 20
127.9575151869
 11
79.6499868515
 21
128.2128344842
  0
LINE
  5
265
100
AcDbEntity
  8
0
100
AcDbLine
 62
7
  6
CONTINUOUS
 10
79.6637959937
 20
123.5081536027
 11
79.6637959937
 21
123.6358131619
  0
LINE
  5
266
100
AcDbEntity
  8
0
100
AcDbLine
 62
7
  6
CONTINUOUS
 10
79.7035437775
 20
121.5932599457
 11
79.7035437775
 21
122.7421960684
  0
LINE
  5
267
100
AcDbEntity
  8
0
100
AcDbLine
 62
7
  6
CONTINUOUS
 10
79.7035437775
 20
122.9975151869
 11
79.7035437775
 21
123.5081536027
  0
LINE
  5
268
100
AcDbEntity
  8
0
100
AcDbLine
 62
7
  6
CONTINUOUS
 10
79.7771859248
 20
125.9149620601
 11
79.7771859248
 21
127.255387611
  0
LINE
  5
269
100
AcDbEntity
  8
0
100
AcDbLine
 62
7
  6
CONTINUOUS
 10
79.7872486771
 20
125.9149620601
 11
79.7872486771
 21
128.9149620601
  0
LINE
  5
26A
100
AcDbEntity
  8
0
100
AcDbLine
 62
7
  6
CONTINUOUS
 10
79.866912087
 20
120.9549620601
 11
79.866912087
 21
121.2102812009
  0
LINE
  5
26B
100
AcDbEntity
  8
0
100
AcDbLine
 62
7
  6
CONTINUOUS
 10
79.889769683
 20
123.6358131619
 11
79.889769683
 21
123.9549620601
  0
LINE
  5
26C
100
AcDbEntity
  8
0
100
AcDbLine
 62
7
  6
CONTINUOUS
 10
79.9014095318
 20
126.2979407825
 11
79.9014095318
 21
128.9149620601
  0
LINE
  5
26D
100
AcDbEntity
  8
0
100
AcDbLine
 62
7
  6
CONTINUOUS
 10
79.9061793303
 20
122.7421960684
 11
79.9061793303
 21
122.9975151869
  0
LINE
  5
26E
100
AcDbEntity
  8
0
100
AcDbLine
 62
7
  6
CONTINUOUS
 10
80.1608844105
 20
131.7362386235
 11
80.1608844105
 21
132.6936854072
  0
LINE
  5
26F
100
AcDbEntity
  8
0
100
AcDbLine
 62
7
  6
CONTINUOUS
 10
80.2222126809
 20
121.5932599457
 11
80.2222126809
 21
122.7421960684
  0
LINE
  5
270
100
AcDbEntity
  8
0
100
AcDbLine
 62
7
  6
CONTINUOUS
 10
80.2222126809
 20
122.9975151869
 11
80.2222126809
 21
123.5081536027
  0
LINE
  5
271
100
AcDbEntity
  8
0
100
AcDbLine
 62
7
  6
CONTINUOUS
 10
80.3911411081
 20
120.9549620601
 11
80.3911411081
 21
121.2102812009
  0
LINE
  5
272
100
AcDbEntity
  8
0
100
AcDbLine
 62
7
  6
CONTINUOUS
 10
80.4268281901
 20
126.2979407825
 11
80.4268281901
 21
128.9149620601
  0
LINE
  5
273
100
AcDbEntity
  8
0
100
AcDbLine
 62
7
  6
CONTINUOUS
 10
80.4317629065
 20
122.7421960684
 11
80.4317629065
 21
122.9975151869
  0
LINE
  5
274
100
AcDbEntity
  8
0
100
AcDbLine
 62
7
  6
CONTINUOUS
 10
80.6250630419
 20
125.9149620601
 11
80.6250630419
 21
126.2979407825
  0
LINE
  5
275
100
AcDbEntity
  8
0
100
AcDbLine
 62
7
  6
CONTINUOUS
 10
80.8641728146
 20
126.9362386235
 11
80.8641728146
 21
128.9149620601
  0
LINE
  5
276
100
AcDbEntity
  8
0
100
AcDbLine
 62
7
  6
CONTINUOUS
 10
81.0573330896
 20
126.9362386235
 11
81.0573330896
 21
128.9149620601
  0
LINE
  5
277
100
AcDbEntity
  8
0
100
AcDbLine
 62
7
  6
CONTINUOUS
 10
81.1767684664
 20
125.9149620601
 11
81.1767684664
 21
126.025708975
  0
LINE
  5
278
100
AcDbEntity
  8
0
100
AcDbLine
 62
7
  6
CONTINUOUS
 10
81.6260605298
 20
126.9362386235
 11
81.6260605298
 21
128.9149620601
  0
LINE
  5
279
100
AcDbEntity
  8
0
100
AcDbLine
 62
7
  6
CONTINUOUS
 10
81.9595402232
 20
126.9362386235
 11
81.9595402232
 21
128.9149620601
  0
LINE
  5
27A
100
AcDbEntity
  8
0
100
AcDbLine
 62
7
  6
CONTINUOUS
 10
82.2207526801
 20
126.9362386235
 11
82.2207526801
 21
128.9149620601
  0
LINE
  5
27B
100
AcDbEntity
  8
0
100
AcDbLine
 62
7
  6
CONTINUOUS
 10
82.7416681729
 20
127.9575151869
 11
82.7416681729
 21
128.2128344842
  0
LINE
  5
27C
100
AcDbEntity
  8
0
100
AcDbLine
 62
7
  6
CONTINUOUS
 10
82.8411218386
 20
126.9362386235
 11
82.8411218386
 21
127.6402694429
  0
LINE
  5
27D
100
AcDbEntity
  8
0
100
AcDbLine
 62
7
  6
CONTINUOUS
 10
82.8411218386
 20
128.5300802281
 11
82.8411218386
 21
128.9149620601
  0
LINE
  5
27E
100
AcDbEntity
  8
0
100
AcDbLine
 62
7
  6
CONTINUOUS
 10
83.0507125652
 20
128.0213449665
 11
83.0507125652
 21
128.1490045257
  0
LINE
  5
27F
100
AcDbEntity
  8
0
100
AcDbLine
 62
7
  6
CONTINUOUS
 10
79.1285097858
 20
123.5081536027
 11
79.1453750031
 21
123.5081536027
  0
LINE
  5
280
100
AcDbEntity
  8
0
100
AcDbLine
 62
7
  6
CONTINUOUS
 10
79.6220431272
 20
123.5081536027
 11
80.2222126809
 21
123.5081536027
  0
LINE
  5
281
100
AcDbEntity
  8
0
100
AcDbLine
 62
7
  6
CONTINUOUS
 10
79.1627082676
 20
123.6358131619
 11
79.889769683
 21
123.6358131619
  0
LINE
  5
282
100
AcDbEntity
  8
0
100
AcDbLine
 62
7
  6
CONTINUOUS
 10
79.1283961542
 20
123.7634727212
 11
79.1453750031
 21
123.7634727212
  0
LINE
  5
283
100
AcDbEntity
  8
0
100
AcDbLine
 62
7
  6
CONTINUOUS
 10
79.1320708927
 20
123.8911322804
 11
79.1453750031
 21
123.8911322804
  0
LINE
  5
284
100
AcDbEntity
  8
0
100
AcDbLine
 62
7
  6
CONTINUOUS
 10
79.1453750031
 20
123.9549620601
 11
79.889769683
 21
123.9549620601
  0
LINE
  5
285
100
AcDbEntity
  8
0
100
AcDbLine
 62
7
  6
CONTINUOUS
 10
79.1550613603
 20
125.9149620601
 11
79.7771859248
 21
125.9149620601
  0
LINE
  5
286
100
AcDbEntity
  8
0
100
AcDbLine
 62
7
  6
CONTINUOUS
 10
79.7872486771
 20
125.9149620601
 11
81.1767684664
 21
125.9149620601
  0
LINE
  5
287
100
AcDbEntity
  8
0
100
AcDbLine
 62
7
  6
CONTINUOUS
 10
81.4070441942
 20
125.9149620601
 11
82.1469283381
 21
125.9149620601
  0
LINE
  5
288
100
AcDbEntity
  8
0
100
AcDbLine
 62
7
  6
CONTINUOUS
 10
83.3228993767
 20
125.9149620601
 11
84.4959324584
 21
125.9149620601
  0
LINE
  5
289
100
AcDbEntity
  8
0
100
AcDbLine
 62
7
  6
CONTINUOUS
 10
79.140105133
 20
125.9787918453
 11
79.2270028976
 21
125.9787918453
  0
LINE
  5
28A
100
AcDbEntity
  8
0
100
AcDbLine
 62
7
  6
CONTINUOUS
 10
81.7533567463
 20
125.9787918453
 11
82.3518673249
 21
125.9787918453
  0
LINE
  5
28B
100
AcDbEntity
  8
0
100
AcDbLine
 62
7
  6
CONTINUOUS
 10
84.1000996032
 20
125.9787918453
 11
84.8278863339
 21
125.9787918453
  0
LINE
  5
28C
100
AcDbEntity
  8
0
100
AcDbLine
 62
7
  6
CONTINUOUS
 10
79.1324116966
 20
126.1064514213
 11
79.2270028976
 21
126.1064514213
  0
LINE
  5
28D
100
AcDbEntity
  8
0
100
AcDbLine
 62
7
  6
CONTINUOUS
 10
81.9174854362
 20
126.1064514213
 11
82.5234899878
 21
126.1064514213
  0
LINE
  5
28E
100
AcDbEntity
  8
0
100
AcDbLine
 62
7
  6
CONTINUOUS
 10
84.3617910357
 20
126.1064514213
 11
85.1076658198
 21
126.1064514213
  0
LINE
  5
28F
100
AcDbEntity
  8
0
100
AcDbLine
 62
7
  6
CONTINUOUS
 10
79.9014095318
 20
126.2979407825
 11
80.9915968724
 21
126.2979407825
  0
LINE
  5
290
100
AcDbEntity
  8
0
100
AcDbLine
 62
7
  6
CONTINUOUS
 10
81.4070441942
 20
126.2979407825
 11
81.5571322451
 21
126.2979407825
  0
LINE
  5
291
100
AcDbEntity
  8
0
100
AcDbLine
 62
7
  6
CONTINUOUS
 10
83.3228993767
 20
126.2979407825
 11
83.7885338295
 21
126.2979407825
  0
LINE
  5
292
100
AcDbEntity
  8
0
100
AcDbLine
 62
7
  6
CONTINUOUS
 10
79.1285097868
 20
126.3617705621
 11
79.2270028976
 21
126.3617705621
  0
LINE
  5
293
100
AcDbEntity
  8
0
100
AcDbLine
 62
7
  6
CONTINUOUS
 10
81.2628747058
 20
126.3617705621
 11
81.7133295413
 21
126.3617705621
  0
LINE
  5
294
100
AcDbEntity
  8
0
100
AcDbLine
 62
7
  6
CONTINUOUS
 10
82.0882181325
 20
126.3617705621
 11
82.7022247536
 21
126.3617705621
  0
LINE
  5
295
100
AcDbEntity
  8
0
100
AcDbLine
 62
7
  6
CONTINUOUS
 10
83.1040533237
 20
126.3617705621
 11
83.7705461959
 21
126.3617705621
  0
LINE
  5
296
100
AcDbEntity
  8
0
100
AcDbLine
 62
7
  6
CONTINUOUS
 10
84.6353899599
 20
126.3617705621
 11
85.1279777687
 21
126.3617705621
  0
LINE
  5
297
100
AcDbEntity
  8
0
100
AcDbLine
 62
7
  6
CONTINUOUS
 10
81.1585239975
 20
126.4894301661
 11
81.7313921292
 21
126.4894301661
  0
LINE
  5
298
100
AcDbEntity
  8
0
100
AcDbLine
 62
7
  6
CONTINUOUS
 10
82.9456292112
 20
126.5532599457
 11
83.60333786
 21
126.5532599457
  0
LINE
  5
299
100
AcDbEntity
  8
0
100
AcDbLine
 62
7
  6
CONTINUOUS
 10
79.1281262532
 20
126.6170897253
 11
79.2270028976
 21
126.6170897253
  0
LINE
  5
29A
100
AcDbEntity
  8
0
100
AcDbLine
 62
7
  6
CONTINUOUS
 10
82.1761386751
 20
126.6170897253
 11
82.6182557187
 21
126.6170897253
  0
LINE
  5
29B
100
AcDbEntity
  8
0
100
AcDbLine
 62
7
  6
CONTINUOUS
 10
84.7769368903
 20
126.6170897253
 11
85.1279777687
 21
126.6170897253
  0
LINE
  5
29C
100
AcDbEntity
  8
0
100
AcDbLine
 62
7
  6
CONTINUOUS
 10
81.0907159067
 20
126.680919505
 11
81.6608025911
 21
126.680919505
  0
LINE
  5
29D
100
AcDbEntity
  8
0
100
AcDbLine
 62
7
  6
CONTINUOUS
 10
82.5939379594
 20
126.7447492846
 11
83.5487624072
 21
126.7447492846
  0
LINE
  5
29E
100
AcDbEntity
  8
0
100
AcDbLine
 62
7
  6
CONTINUOUS
 10
81.0573330896
 20
126.9362386235
 11
81.6260605298
 21
126.9362386235
  0
LINE
  5
29F
100
AcDbEntity
  8
0
100
AcDbLine
 62
7
  6
CONTINUOUS
 10
82.2207526801
 20
126.9362386235
 11
82.8411218386
 21
126.9362386235
  0
LINE
  5
2A0
100
AcDbEntity
  8
0
100
AcDbLine
 62
7
  6
CONTINUOUS
 10
84.7769368903
 20
126.9362386235
 11
85.1279777687
 21
126.9362386235
  0
LINE
  5
2A1
100
AcDbEntity
  8
0
100
AcDbLine
 62
7
  6
CONTINUOUS
 10
79.1335817445
 20
127.0000684031
 11
79.2270028976
 21
127.0000684031
  0
LINE
  5
2A2
100
AcDbEntity
  8
0
100
AcDbLine
 62
7
  6
CONTINUOUS
 10
83.7142210144
 20
128.0213449665
 11
83.7142210144
 21
128.1490045257
  0
LINE
  5
2A3
100
AcDbEntity
  8
0
100
AcDbLine
 62
7
  6
CONTINUOUS
 10
84.1279777687
 20
140.9949620601
 11
84.1279777687
 21
136.6949620601
  0
LINE
  5
2A4
100
AcDbEntity
  8
0
100
AcDbLine
 62
7
  6
CONTINUOUS
 10
84.1279777687
 20
116.2949620601
 11
84.1279777687
 21
111.9949620601
  0
LINE
  5
2A5
100
AcDbEntity
  8
0
100
AcDbLine
 62
7
  6
CONTINUOUS
 10
84.3617910357
 20
126.680919505
 11
84.3617910357
 21
126.8724088438
  0
LINE
  5
2A6
100
AcDbEntity
  8
0
100
AcDbLine
 62
7
  6
CONTINUOUS
 10
84.7769368903
 20
126.6170897253
 11
84.7769368903
 21
126.9362386235
  0
LINE
  5
2A7
100
AcDbEntity
  8
0
100
AcDbLine
 62
7
  6
CONTINUOUS
 10
85.1279777687
 20
126.1245239909
 11
85.1279777687
 21
127.4288043818
  0
LINE
  5
2A8
100
AcDbEntity
  8
0
100
AcDbLine
 62
7
  6
CONTINUOUS
 10
85.1279777687
 20
128.2128344842
 11
85.1279777687
 21
128.5504392539
  0
LINE
  5
2A9
100
AcDbEntity
  8
BEZUGSACHSEN
100
AcDbLine
 62
7
  6
CONTINUOUS
 10
86.1583226541
 20
141.4949620601
 11
86.1583226541
 21
147.646456284
  0
LINE
  5
2AA
100
AcDbEntity
  8
0
100
AcDbLine
 62
7
  6
CONTINUOUS
 10
86.8779777687
 20
136.6949620601
 11
86.8779777687
 21
136.4949620601
  0
LINE
  5
2AB
100
AcDbEntity
  8
0
100
AcDbLine
 62
7
  6
CONTINUOUS
 10
86.8779777687
 20
116.4949620601
 11
86.8779777687
 21
116.2949620601
  0
LINE
  5
2AC
100
AcDbEntity
  8
0
100
AcDbLine
 62
7
  6
CONTINUOUS
 10
84.6353899599
 20
127.1915578314
 11
85.1279777687
 21
127.1915578314
  0
LINE
  5
2AD
100
AcDbEntity
  8
0
100
AcDbLine
 62
7
  6
CONTINUOUS
 10
79.2726238417
 20
127.255387611
 11
79.7872486771
 21
127.255387611
  0
LINE
  5
2AE
100
AcDbEntity
  8
0
100
AcDbLine
 62
7
  6
CONTINUOUS
 10
83.4357186201
 20
127.255387611
 11
83.7885338295
 21
127.255387611
  0
LINE
  5
2AF
100
AcDbEntity
  8
0
100
AcDbLine
 62
7
  6
CONTINUOUS
 10
79.1335817445
 20
127.3192173906
 11
79.2270028976
 21
127.3192173906
  0
LINE
  5
2B0
100
AcDbEntity
  8
0
100
AcDbLine
 62
7
  6
CONTINUOUS
 10
79.5294160224
 20
127.3192173906
 11
79.7872486771
 21
127.3192173906
  0
LINE
  5
2B1
100
AcDbEntity
  8
0
100
AcDbLine
 62
7
  6
CONTINUOUS
 10
84.3617910357
 20
127.4468769499
 11
85.1076658198
 21
127.4468769499
  0
LINE
  5
2B2
100
AcDbEntity
  8
0
100
AcDbLine
 62
7
  6
CONTINUOUS
 10
79.5876396352
 20
127.5107067295
 11
79.7872486771
 21
127.5107067295
  0
LINE
  5
2B3
100
AcDbEntity
  8
0
100
AcDbLine
 62
7
  6
CONTINUOUS
 10
79.1281262532
 20
127.5745365091
 11
79.2270028976
 21
127.5745365091
  0
LINE
  5
2B4
100
AcDbEntity
  8
0
100
AcDbLine
 62
7
  6
CONTINUOUS
 10
84.1000996032
 20
127.5745365091
 11
84.8278863339
 21
127.5745365091
  0
LINE
  5
2B5
100
AcDbEntity
  8
0
100
AcDbLine
 62
7
  6
CONTINUOUS
 10
79.2726238417
 20
127.6383662887
 11
79.4752707587
 21
127.6383662887
  0
LINE
  5
2B6
100
AcDbEntity
  8
0
100
AcDbLine
 62
7
  6
CONTINUOUS
 10
83.4357186201
 20
127.6383662887
 11
84.4959324584
 21
127.6383662887
  0
LINE
  5
2B7
100
AcDbEntity
  8
0
100
AcDbLine
 62
7
  6
CONTINUOUS
 10
83.2673511836
 20
127.7021960684
 11
83.9431547244
 21
127.7021960684
  0
LINE
  5
2B8
100
AcDbEntity
  8
0
100
AcDbLine
 62
7
  6
CONTINUOUS
 10
79.6340108165
 20
127.766025848
 11
79.7872486771
 21
127.766025848
  0
LINE
  5
2B9
100
AcDbEntity
  8
0
100
AcDbLine
 62
7
  6
CONTINUOUS
 10
83.1040533237
 20
127.8298556276
 11
83.7705461959
 21
127.8298556276
  0
LINE
  5
2BA
100
AcDbEntity
  8
0
100
AcDbLine
 62
7
  6
CONTINUOUS
 10
79.6499868515
 20
127.9575151869
 11
79.7872486771
 21
127.9575151869
  0
LINE
  5
2BB
100
AcDbEntity
  8
0
100
AcDbLine
 62
7
  6
CONTINUOUS
 10
83.0507125652
 20
128.0213449665
 11
83.7142210144
 21
128.0213449665
  0
LINE
  5
2BC
100
AcDbEntity
  8
0
100
AcDbLine
 62
7
  6
CONTINUOUS
 10
79.1281262532
 20
128.1490045257
 11
79.2270028976
 21
128.1490045257
  0
LINE
  5
2BD
100
AcDbEntity
  8
0
100
AcDbLine
 62
7
  6
CONTINUOUS
 10
83.0507125652
 20
128.1490045257
 11
83.7142210144
 21
128.1490045257
  0
LINE
  5
2BE
100
AcDbEntity
  8
0
100
AcDbLine
 62
7
  6
CONTINUOUS
 10
79.6499868515
 20
128.2128344842
 11
79.7872486771
 21
128.2128344842
  0
LINE
  5
2BF
100
AcDbEntity
  8
0
100
AcDbLine
 62
7
  6
CONTINUOUS
 10
84.1644515908
 20
128.2128344842
 11
85.1279777687
 21
128.2128344842
  0
LINE
  5
2C0
100
AcDbEntity
  8
0
100
AcDbLine
 62
7
  6
CONTINUOUS
 10
83.1040533237
 20
128.3404940434
 11
83.7705461959
 21
128.3404940434
  0
LINE
  5
2C1
100
AcDbEntity
  8
0
100
AcDbLine
 62
7
  6
CONTINUOUS
 10
79.6340108165
 20
128.4043238231
 11
79.7872486771
 21
128.4043238231
  0
LINE
  5
2C2
100
AcDbEntity
  8
0
100
AcDbLine
 62
7
  6
CONTINUOUS
 10
84.4970478884
 20
128.4043238231
 11
85.1279777687
 21
128.4043238231
  0
LINE
  5
2C3
100
AcDbEntity
  8
0
100
AcDbLine
 62
7
  6
CONTINUOUS
 10
79.1285097868
 20
128.4681536027
 11
79.2270028976
 21
128.4681536027
  0
LINE
  5
2C4
100
AcDbEntity
  8
0
100
AcDbLine
 62
7
  6
CONTINUOUS
 10
83.2673511836
 20
128.4681536027
 11
83.9431547244
 21
128.4681536027
  0
LINE
  5
2C5
100
AcDbEntity
  8
0
100
AcDbLine
 62
7
  6
CONTINUOUS
 10
83.4357186201
 20
128.5319833823
 11
83.7885338295
 21
128.5319833823
  0
LINE
  5
2C6
100
AcDbEntity
  8
0
100
AcDbLine
 62
7
  6
CONTINUOUS
 10
79.2726238417
 20
128.5958131619
 11
79.4752707587
 21
128.5958131619
  0
LINE
  5
2C7
100
AcDbEntity
  8
0
100
AcDbLine
 62
7
  6
CONTINUOUS
 10
79.5876396352
 20
128.6596429416
 11
79.7872486771
 21
128.6596429416
  0
LINE
  5
2C8
100
AcDbEntity
  8
0
100
AcDbLine
 62
7
  6
CONTINUOUS
 10
84.29528419
 20
128.6596429416
 11
85.0364743934
 21
128.6596429416
  0
LINE
  5
2C9
100
AcDbEntity
  8
0
100
AcDbLine
 62
7
  6
CONTINUOUS
 10
79.1324118872
 20
128.7234727212
 11
79.2270028976
 21
128.7234727212
  0
LINE
  5
2CA
100
AcDbEntity
  8
0
100
AcDbLine
 62
7
  6
CONTINUOUS
 10
79.140105133
 20
128.8511322804
 11
79.2270028976
 21
128.8511322804
  0
LINE
  5
2CB
100
AcDbEntity
  8
0
100
AcDbLine
 62
7
  6
CONTINUOUS
 10
79.5294160224
 20
128.8511322804
 11
79.7872486771
 21
128.8511322804
  0
LINE
  5
2CC
100
AcDbEntity
  8
0
100
AcDbLine
 62
7
  6
CONTINUOUS
 10
84.0364418503
 20
128.8511322804
 11
84.7599648432
 21
128.8511322804
  0
LINE
  5
2CD
100
AcDbEntity
  8
0
100
AcDbLine
 62
7
  6
CONTINUOUS
 10
79.1550613603
 20
128.9149620601
 11
80.4268281901
 21
128.9149620601
  0
LINE
  5
2CE
100
AcDbEntity
  8
0
100
AcDbLine
 62
7
  6
CONTINUOUS
 10
80.8641728146
 20
128.9149620601
 11
81.6260605298
 21
128.9149620601
  0
LINE
  5
2CF
100
AcDbEntity
  8
0
100
AcDbLine
 62
7
  6
CONTINUOUS
 10
81.9595402232
 20
128.9149620601
 11
82.8411218386
 21
128.9149620601
  0
LINE
  5
2D0
100
AcDbEntity
  8
0
100
AcDbLine
 62
7
  6
CONTINUOUS
 10
83.4357186201
 20
128.9149620601
 11
84.4317685888
 21
128.9149620601
  0
LINE
  5
2D1
100
AcDbEntity
  8
0
100
AcDbLine
 62
7
  6
CONTINUOUS
 10
79.128251263
 20
130.7149620601
 11
79.930176171
 21
130.7149620601
  0
LINE
  5
2D2
100
AcDbEntity
  8
0
100
AcDbLine
 62
7
  6
CONTINUOUS
 10
79.1330105409
 20
130.7787918453
 11
79.2052503765
 21
130.7787918453
  0
LINE
  5
2D3
100
AcDbEntity
  8
0
100
AcDbLine
 62
7
  6
CONTINUOUS
 10
79.4836616753
 20
130.7787918453
 11
79.9950336402
 21
130.7787918453
  0
LINE
  5
2D4
100
AcDbEntity
  8
KONSTRUKTIONSELEMENTE
100
AcDbLine
 62
7
  6
CONTINUOUS
 10
88.5279777687
 20
140.9949620601
 11
88.5279777687
 21
141.4949620601
  0
LINE
  5
2D5
100
AcDbEntity
  8
BEZUGSACHSEN
100
AcDbLine
 62
7
  6
CONTINUOUS
 10
88.5279777687
 20
140.9949620601
 11
88.5279777687
 21
141.4949620601
  0
LINE
  5
2D6
100
AcDbEntity
  8
KONSTRUKTIONSELEMENTE
100
AcDbLine
 62
7
  6
CONTINUOUS
 10
89.1008564929
 20
148.4949620601
 11
89.1008564929
 21
148.6949620601
  0
LINE
  5
2D7
100
AcDbEntity
  8
0
100
AcDbLine
 62
7
  6
CONTINUOUS
 10
79.1410831627
 20
130.9064514213
 11
79.2052503765
 21
130.9064514213
  0
LINE
  5
2D8
100
AcDbEntity
  8
0
100
AcDbLine
 62
7
  6
CONTINUOUS
 10
79.5384565282
 20
130.9064514213
 11
80.0516273056
 21
130.9064514213
  0
LINE
  5
2D9
100
AcDbEntity
  8
0
100
AcDbLine
 62
7
  6
CONTINUOUS
 10
79.127977766
 20
131.0979407825
 11
79.1282512499
 21
131.0979407825
  0
LINE
  5
2DA
100
AcDbEntity
  8
0
100
AcDbLine
 62
7
  6
CONTINUOUS
 10
79.2460029183
 20
131.0979407825
 11
79.4208504785
 21
131.0979407825
  0
LINE
  5
2DB
100
AcDbEntity
  8
0
100
AcDbLine
 62
7
  6
CONTINUOUS
 10
79.152952927
 20
131.1617705621
 11
79.2052503765
 21
131.1617705621
  0
LINE
  5
2DC
100
AcDbEntity
  8
0
100
AcDbLine
 62
7
  6
CONTINUOUS
 10
79.5973369327
 20
131.1617705621
 11
80.1124550378
 21
131.1617705621
  0
LINE
  5
2DD
100
AcDbEntity
  8
0
100
AcDbLine
 62
7
  6
CONTINUOUS
 10
79.1603141897
 20
131.4170897253
 11
79.2052503765
 21
131.4170897253
  0
LINE
  5
2DE
100
AcDbEntity
  8
0
100
AcDbLine
 62
7
  6
CONTINUOUS
 10
79.6283232803
 20
131.4170897253
 11
80.1444722306
 21
131.4170897253
  0
LINE
  5
2DF
100
AcDbEntity
  8
0
100
AcDbLine
 62
7
  6
CONTINUOUS
 10
79.1643519609
 20
131.7362386235
 11
79.2052503765
 21
131.7362386235
  0
LINE
  5
2E0
100
AcDbEntity
  8
0
100
AcDbLine
 62
7
  6
CONTINUOUS
 10
79.6442054683
 20
131.7362386235
 11
80.1608844105
 21
131.7362386235
  0
LINE
  5
2E1
100
AcDbEntity
  8
0
100
AcDbLine
 62
7
  6
CONTINUOUS
 10
79.6442054683
 20
132.6936854072
 11
80.1608844105
 21
132.6936854072
  0
LINE
  5
2E2
100
AcDbEntity
  8
0
100
AcDbLine
 62
7
  6
CONTINUOUS
 10
79.6283232803
 20
133.0128344842
 11
80.1444722306
 21
133.0128344842
  0
LINE
  5
2E3
100
AcDbEntity
  8
0
100
AcDbLine
 62
7
  6
CONTINUOUS
 10
79.5973369327
 20
133.2681536027
 11
80.1124550378
 21
133.2681536027
  0
LINE
  5
2E4
100
AcDbEntity
  8
0
100
AcDbLine
 62
7
  6
CONTINUOUS
 10
79.2460029183
 20
133.3319833823
 11
79.4208504785
 21
133.3319833823
  0
LINE
  5
2E5
100
AcDbEntity
  8
0
100
AcDbLine
 62
7
  6
CONTINUOUS
 10
79.5384565282
 20
133.5234727212
 11
80.0516273056
 21
133.5234727212
  0
LINE
  5
2E6
100
AcDbEntity
  8
0
100
AcDbLine
 62
7
  6
CONTINUOUS
 10
79.4836616753
 20
133.6511322804
 11
79.9950336402
 21
133.6511322804
  0
LINE
  5
2E7
100
AcDbEntity
  8
0
100
AcDbLine
 62
7
  6
CONTINUOUS
 10
79.14369435
 20
133.7149620601
 11
79.930176171
 21
133.7149620601
  0
LINE
  5
2E8
100
AcDbEntity
  8
BEZUGSACHSEN
100
AcDbLine
 62
7
  6
CONTINUOUS
 10
91.1279777687
 20
111.9949620601
 11
91.1279777687
 21
95.1949620601
  0
LINE
  5
2E9
100
AcDbEntity
  8
KONSTRUKTIONSELEMENTE
100
AcDbLine
 62
7
  6
CONTINUOUS
 10
91.5781289337
 20
148.4949620601
 11
91.5781289337
 21
148.6949620601
  0
LINE
  5
2EA
100
AcDbEntity
  8
KONSTRUKTIONSELEMENTE
100
AcDbLine
 62
7
  6
CONTINUOUS
 10
91.609660343
 20
148.4949620601
 11
91.609660343
 21
148.6949620601
  0
LINE
  5
2EB
100
AcDbEntity
  8
BEZUGSACHSEN
100
AcDbLine
 62
7
  6
CONTINUOUS
 10
91.6431502114
 20
141.4949620601
 11
91.6431502114
 21
147.646456284
  0
LINE
  5
2EC
100
AcDbEntity
  8
KONSTRUKTIONSELEMENTE
100
AcDbLine
 62
7
  6
CONTINUOUS
 10
91.74104121
 20
148.4949620601
 11
91.74104121
 21
148.6949620601
  0
LINE
  5
2ED
100
AcDbEntity
  8
KONSTRUKTIONSELEMENTE
100
AcDbLine
 62
7
  6
CONTINUOUS
 10
91.7778278642
 20
148.4949620601
 11
91.7778278642
 21
148.6949620601
  0
LINE
  5
2EE
100
AcDbEntity
  8
KONSTRUKTIONSELEMENTE
100
AcDbLine
 62
7
  6
CONTINUOUS
 10
91.8544165462
 20
148.4949620601
 11
91.8544165462
 21
148.6949620601
  0
LINE
  5
2EF
100
AcDbEntity
  8
KONSTRUKTIONSELEMENTE
100
AcDbLine
 62
7
  6
CONTINUOUS
 10
92.0185996875
 20
148.4949620601
 11
92.0185996875
 21
148.6949620601
  0
LINE
  5
2F0
100
AcDbEntity
  8
KONSTRUKTIONSELEMENTE
100
AcDbLine
 62
7
  6
CONTINUOUS
 10
92.1521428442
 20
148.4949620601
 11
92.1521428442
 21
148.6949620601
  0
LINE
  5
2F1
100
AcDbEntity
  8
KONSTRUKTIONSELEMENTE
100
AcDbLine
 62
7
  6
CONTINUOUS
 10
92.2207450598
 20
148.4949620601
 11
92.2207450598
 21
148.6949620601
  0
LINE
  5
2F2
100
AcDbEntity
  8
KONSTRUKTIONSELEMENTE
100
AcDbLine
 62
7
  6
CONTINUOUS
 10
92.2587072952
 20
148.4949620601
 11
92.2587072952
 21
148.6949620601
  0
LINE
  5
2F3
100
AcDbEntity
  8
KONSTRUKTIONSELEMENTE
100
AcDbLine
 62
7
  6
CONTINUOUS
 10
92.6726605483
 20
148.4949620601
 11
92.6726605483
 21
148.6949620601
  0
LINE
  5
2F4
100
AcDbEntity
  8
KONSTRUKTIONSELEMENTE
100
AcDbLine
 62
7
  6
CONTINUOUS
 10
93.3328175813
 20
148.4949620601
 11
93.3328175813
 21
148.6949620601
  0
LINE
  5
2F5
100
AcDbEntity
  8
KONSTRUKTIONSELEMENTE
100
AcDbLine
 62
7
  6
CONTINUOUS
 10
93.4325826423
 20
148.4949620601
 11
93.4325826423
 21
148.6949620601
  0
LINE
  5
2F6
100
AcDbEntity
  8
KONSTRUKTIONSELEMENTE
100
AcDbLine
 62
7
  6
CONTINUOUS
 10
93.4670731881
 20
148.4949620601
 11
93.4670731881
 21
148.6949620601
  0
LINE
  5
2F7
100
AcDbEntity
  8
BEZUGSACHSEN
100
AcDbLine
 62
7
  6
CONTINUOUS
 10
86.1583226541
 20
147.646456284
 11
87.6279777687
 21
148.4949620601
  0
LINE
  5
2F8
100
AcDbEntity
  8
RUNDUNGEN
100
AcDbLine
 62
7
  6
CONTINUOUS
 10
81.1283731929
 20
136.4949620601
 11
109.6279777687
 21
136.4949620601
  0
LINE
  5
2F9
100
AcDbEntity
  8
0
100
AcDbLine
 62
7
  6
CONTINUOUS
 10
109.6279777687
 20
136.6949620601
 11
84.1279777687
 21
136.6949620601
  0
LINE
  5
2FA
100
AcDbEntity
  8
KONSTRUKTIONSELEMENTE
100
AcDbLine
 62
7
  6
CONTINUOUS
 10
95.5595381098
 20
148.4949620601
 11
95.5595381098
 21
148.6949620601
  0
LINE
  5
2FB
100
AcDbEntity
  8
KONSTRUKTIONSELEMENTE
100
AcDbLine
 62
7
  6
CONTINUOUS
 10
95.7576278784
 20
148.4949620601
 11
95.7576278784
 21
148.6949620601
  0
LINE
  5
2FC
100
AcDbEntity
  8
KONSTRUKTIONSELEMENTE
100
AcDbLine
 62
7
  6
CONTINUOUS
 10
95.9912659783
 20
148.4949620601
 11
95.9912659783
 21
148.6949620601
  0
LINE
  5
2FD
100
AcDbEntity
  8
KONSTRUKTIONSELEMENTE
100
AcDbLine
 62
7
  6
CONTINUOUS
 10
96.5364212475
 20
148.4949620601
 11
96.5364212475
 21
148.6949620601
  0
LINE
  5
2FE
100
AcDbEntity
  8
KONSTRUKTIONSELEMENTE
100
AcDbLine
 62
7
  6
CONTINUOUS
 10
96.8479393082
 20
148.4949620601
 11
96.8479393082
 21
148.6949620601
  0
LINE
  5
2FF
100
AcDbEntity
  8
KONSTRUKTIONSELEMENTE
100
AcDbLine
 62
7
  6
CONTINUOUS
 10
97.2371515632
 20
148.4949620601
 11
97.2371515632
 21
148.6949620601
  0
LINE
  5
300
100
AcDbEntity
  8
KONSTRUKTIONSELEMENTE
100
AcDbLine
 62
7
  6
CONTINUOUS
 10
97.3930945775
 20
148.4949620601
 11
97.3930945775
 21
148.6949620601
  0
LINE
  5
301
100
AcDbEntity
  8
KONSTRUKTIONSELEMENTE
100
AcDbLine
 62
7
  6
CONTINUOUS
 10
97.6267326774
 20
148.4949620601
 11
97.6267326774
 21
148.6949620601
  0
LINE
  5
302
100
AcDbEntity
  8
0
100
AcDbLine
 62
7
  6
CONTINUOUS
 10
109.6279777687
 20
139.4949620601
 11
110.6279777687
 21
139.4949620601
  0
LINE
  5
303
100
AcDbEntity
  8
0
100
AcDbLine
 62
7
  6
CONTINUOUS
 10
118.6279777687
 20
139.4949620601
 11
119.6279777687
 21
139.4949620601
  0
LINE
  5
304
100
AcDbEntity
  8
0
100
AcDbLine
 62
7
  6
CONTINUOUS
 10
110.1279777687
 20
140.9949620601
 11
84.1279777687
 21
140.9949620601
  0
LINE
  5
305
100
AcDbEntity
  8
KONSTRUKTIONSELEMENTE
100
AcDbLine
 62
7
  6
CONTINUOUS
 10
86.1583226541
 20
141.4949620601
 11
108.0976328833
 21
141.4949620601
  0
LINE
  5
306
100
AcDbEntity
  8
KONSTRUKTIONSELEMENTE
100
AcDbLine
 62
7
  6
CONTINUOUS
 10
98.1697652833
 20
148.4949620601
 11
98.1697652833
 21
148.6949620601
  0
LINE
  5
307
100
AcDbEntity
  8
KONSTRUKTIONSELEMENTE
100
AcDbLine
 62
7
  6
CONTINUOUS
 10
98.39989738
 20
148.4949620601
 11
98.39989738
 21
148.6949620601
  0
LINE
  5
308
100
AcDbEntity
  8
KONSTRUKTIONSELEMENTE
100
AcDbLine
 62
7
  6
CONTINUOUS
 10
98.717174575
 20
148.4949620601
 11
98.717174575
 21
148.6949620601
  0
LINE
  5
309
100
AcDbEntity
  8
KONSTRUKTIONSELEMENTE
100
AcDbLine
 62
7
  6
CONTINUOUS
 10
100.0024414214
 20
148.4949620601
 11
100.0024414214
 21
148.6949620601
  0
LINE
  5
30A
100
AcDbEntity
  8
KONSTRUKTIONSELEMENTE
100
AcDbLine
 62
7
  6
CONTINUOUS
 10
100.1103635818
 20
148.4949620601
 11
100.1103635818
 21
148.6949620601
  0
LINE
  5
30B
100
AcDbEntity
  8
KONSTRUKTIONSELEMENTE
100
AcDbLine
 62
7
  6
CONTINUOUS
 10
100.4781154956
 20
148.4949620601
 11
100.4781154956
 21
148.6949620601
  0
LINE
  5
30C
100
AcDbEntity
  8
KONSTRUKTIONSELEMENTE
100
AcDbLine
 62
7
  6
CONTINUOUS
 10
100.6142722241
 20
148.4949620601
 11
100.6142722241
 21
148.6949620601
  0
LINE
  5
30D
100
AcDbEntity
  8
KONSTRUKTIONSELEMENTE
100
AcDbLine
 62
7
  6
CONTINUOUS
 10
100.7363120695
 20
148.4949620601
 11
100.7363120695
 21
148.6949620601
  0
LINE
  5
30E
100
AcDbEntity
  8
KONSTRUKTIONSELEMENTE
100
AcDbLine
 62
7
  6
CONTINUOUS
 10
100.779480988
 20
148.4949620601
 11
100.779480988
 21
148.6949620601
  0
LINE
  5
30F
100
AcDbEntity
  8
KONSTRUKTIONSELEMENTE
100
AcDbLine
 62
7
  6
CONTINUOUS
 10
100.830116575
 20
148.4949620601
 11
100.830116575
 21
148.6949620601
  0
LINE
  5
310
100
AcDbEntity
  8
BEZUGSACHSEN
100
AcDbLine
 62
7
  6
CONTINUOUS
 10
102.612805326
 20
141.4949620601
 11
102.612805326
 21
147.646456284
  0
LINE
  5
311
100
AcDbEntity
  8
BEZUGSACHSEN
100
AcDbLine
 62
7
  6
CONTINUOUS
 10
103.1279777687
 20
95.1949620601
 11
103.1279777687
 21
111.9949620601
  0
LINE
  5
312
100
AcDbEntity
  8
0
100
AcDbLine
 62
7
  6
CONTINUOUS
 10
110.6279777687
 20
145.8949620601
 11
109.8779777687
 21
145.8949620601
  0
LINE
  5
313
100
AcDbEntity
  8
0
100
AcDbLine
 62
7
  6
CONTINUOUS
 10
110.6279777687
 20
146.4574620601
 11
109.8779777687
 21
146.4574620601
  0
LINE
  5
314
100
AcDbEntity
  8
0
100
AcDbLine
 62
7
  6
CONTINUOUS
 10
110.6279777687
 20
148.0512120154
 11
109.8779777687
 21
148.0512120154
  0
LINE
  5
315
100
AcDbEntity
  8
BEZUGSACHSEN
100
AcDbLine
 62
7
  6
CONTINUOUS
 10
87.6284628282
 20
148.4949620601
 11
106.6274927092
 21
148.4949620601
  0
LINE
  5
316
100
AcDbEntity
  8
KONSTRUKTIONSELEMENTE
100
AcDbLine
 62
7
  6
CONTINUOUS
 10
89.1008564929
 20
148.6949620601
 11
93.4670731881
 21
148.6949620601
  0
LINE
  5
317
100
AcDbEntity
  8
KONSTRUKTIONSELEMENTE
100
AcDbLine
 62
7
  6
CONTINUOUS
 10
95.5595381098
 20
148.6949620601
 11
97.6267326774
 21
148.6949620601
  0
LINE
  5
318
100
AcDbEntity
  8
KONSTRUKTIONSELEMENTE
100
AcDbLine
 62
7
  6
CONTINUOUS
 10
98.1697652833
 20
148.6949620601
 11
100.830116575
 21
148.6949620601
  0
LINE
  5
319
100
AcDbEntity
  8
0
100
AcDbLine
 62
7
  6
CONTINUOUS
 10
110.6279777687
 20
148.8012119706
 11
109.8779777687
 21
148.8012119706
  0
LINE
  5
31A
100
AcDbEntity
  8
0
100
AcDbLine
 62
7
  6
CONTINUOUS
 10
110.6279777687
 20
149.4574621495
 11
109.8779777687
 21
149.4574621495
  0
LINE
  5
31B
100
AcDbEntity
  8
KONSTRUKTIONSELEMENTE
100
AcDbLine
 62
7
  6
CONTINUOUS
 10
105.7279777687
 20
140.9949620601
 11
105.7279777687
 21
141.4949620601
  0
LINE
  5
31C
100
AcDbEntity
  8
BEZUGSACHSEN
100
AcDbLine
 62
7
  6
CONTINUOUS
 10
105.7279777687
 20
140.9949620601
 11
105.7279777687
 21
141.4949620601
  0
LINE
  5
31D
100
AcDbEntity
  8
0
100
AcDbLine
 62
7
  6
CONTINUOUS
 10
107.3779777687
 20
136.6949620601
 11
107.3779777687
 21
136.4949620601
  0
LINE
  5
31E
100
AcDbEntity
  8
0
100
AcDbLine
 62
7
  6
CONTINUOUS
 10
107.3779777687
 20
116.4949620601
 11
107.3779777687
 21
116.2949620601
  0
LINE
  5
31F
100
AcDbEntity
  8
BEZUGSACHSEN
100
AcDbLine
 62
7
  6
CONTINUOUS
 10
108.0976328833
 20
141.4949620601
 11
108.0976328833
 21
147.646456284
  0
LINE
  5
320
100
AcDbEntity
  8
0
100
AcDbLine
 62
7
  6
CONTINUOUS
 10
110.6279777687
 20
150.2074619706
 11
109.8779777687
 21
150.2074619706
  0
LINE
  5
321
100
AcDbEntity
  8
0
100
AcDbLine
 62
7
  6
CONTINUOUS
 10
110.6279777687
 20
150.3012121495
 11
109.8779777687
 21
150.3012121495
  0
LINE
  5
322
100
AcDbEntity
  8
0
100
AcDbLine
 62
7
  6
CONTINUOUS
 10
110.6279777687
 20
150.4887122389
 11
109.8779777687
 21
150.4887122389
  0
LINE
  5
323
100
AcDbEntity
  8
0
100
AcDbLine
 62
7
  6
CONTINUOUS
 10
110.6279777687
 20
150.8637118812
 11
109.8779777687
 21
150.8637118812
  0
LINE
  5
324
100
AcDbEntity
  8
0
100
AcDbLine
 62
7
  6
CONTINUOUS
 10
110.6279777687
 20
151.2387120601
 11
109.8779777687
 21
151.2387120601
  0
LINE
  5
325
100
AcDbEntity
  8
0
100
AcDbLine
 62
7
  6
CONTINUOUS
 10
110.6279777687
 20
151.7074618812
 11
109.8779777687
 21
151.7074618812
  0
LINE
  5
326
100
AcDbEntity
  8
0
100
AcDbLine
 62
7
  6
CONTINUOUS
 10
110.6279777687
 20
152.0824620601
 11
109.8779777687
 21
152.0824620601
  0
LINE
  5
327
100
AcDbEntity
  8
0
100
AcDbLine
 62
7
  6
CONTINUOUS
 10
110.6279777687
 20
152.5512118812
 11
109.8779777687
 21
152.5512118812
  0
LINE
  5
328
100
AcDbEntity
  8
0
100
AcDbLine
 62
7
  6
CONTINUOUS
 10
110.6279777687
 20
152.9262120601
 11
109.8779777687
 21
152.9262120601
  0
LINE
  5
329
100
AcDbEntity
  8
BEZUGSACHSEN
100
AcDbLine
 62
7
  6
CONTINUOUS
 10
108.0976328833
 20
147.646456284
 11
106.6279777687
 21
148.4949620601
  0
LINE
  5
32A
100
AcDbEntity
  8
0
100
AcDbLine
 62
7
  6
CONTINUOUS
 10
109.6279777687
 20
139.4949620601
 11
109.6279777687
 21
136.4448364311
  0
LINE
  5
32B
100
AcDbEntity
  8
RUNDUNGEN
100
AcDbLine
 62
7
  6
CONTINUOUS
 10
109.6279777687
 20
126.4949620601
 11
109.6279777687
 21
139.4949620601
  0
LINE
  5
32C
100
AcDbEntity
  8
RUNDUNGEN
100
AcDbLine
 62
7
  6
CONTINUOUS
 10
109.6279777687
 20
164.4949620601
 11
109.6279777687
 21
170.4949620601
  0
LINE
  5
32D
100
AcDbEntity
  8
0
100
AcDbLine
 62
7
  6
CONTINUOUS
 10
109.6279777687
 20
164.4949620601
 11
109.6279777687
 21
191.4949620601
  0
LINE
  5
32E
100
AcDbEntity
  8
0
100
AcDbLine
 62
7
  6
CONTINUOUS
 10
109.8779777687
 20
145.8949620601
 11
109.8779777687
 21
149.4574621495
  0
LINE
  5
32F
100
AcDbEntity
  8
0
100
AcDbLine
 62
7
  6
CONTINUOUS
 10
109.8779777687
 20
150.2074619706
 11
109.8779777687
 21
153.5824622389
  0
LINE
  5
330
100
AcDbEntity
  8
0
100
AcDbLine
 62
7
  6
CONTINUOUS
 10
109.8779777687
 20
154.3324620601
 11
109.8779777687
 21
158.0824617024
  0
LINE
  5
331
100
AcDbEntity
  8
0
100
AcDbLine
 62
7
  6
CONTINUOUS
 10
110.1279777687
 20
140.9949620601
 11
110.1279777687
 21
139.4949620601
  0
LINE
  5
332
100
AcDbEntity
  8
0
100
AcDbLine
 62
7
  6
CONTINUOUS
 10
110.1279777687
 20
116.2949620601
 11
110.1279777687
 21
111.9949620601
  0
LINE
  5
333
100
AcDbEntity
  8
0
100
AcDbLine
 62
7
  6
CONTINUOUS
 10
110.1279777687
 20
154.151292118
 11
110.1279777687
 21
156.3508958238
  0
LINE
  5
334
100
AcDbEntity
  8
0
100
AcDbLine
 62
7
  6
CONTINUOUS
 10
110.1279777687
 20
157.551292118
 11
110.1279777687
 21
159.7508958238
  0
LINE
  5
335
100
AcDbEntity
  8
0
100
AcDbLine
 62
7
  6
CONTINUOUS
 10
110.6279777687
 20
139.4949620601
 11
110.6279777687
 21
164.4949620601
  0
LINE
  5
336
100
AcDbEntity
  8
0
100
AcDbLine
 62
7
  6
CONTINUOUS
 10
110.9279777687
 20
170.8442546738
 11
110.9279777687
 21
194.8579964042
  0
LINE
  5
337
100
AcDbEntity
  8
0
100
AcDbLine
 62
7
  6
CONTINUOUS
 10
110.6279777687
 20
153.3012122389
 11
109.8779777687
 21
153.3012122389
  0
LINE
  5
338
100
AcDbEntity
  8
0
100
AcDbLine
 62
7
  6
CONTINUOUS
 10
110.6279777687
 20
153.4887120601
 11
109.8779777687
 21
153.4887120601
  0
LINE
  5
339
100
AcDbEntity
  8
0
100
AcDbLine
 62
7
  6
CONTINUOUS
 10
110.6279777687
 20
153.5824622389
 11
109.8779777687
 21
153.5824622389
  0
LINE
  5
33A
100
AcDbEntity
  8
0
100
AcDbLine
 62
7
  6
CONTINUOUS
 10
110.6279777687
 20
154.1508958238
 11
110.1279777687
 21
154.1508958238
  0
LINE
  5
33B
100
AcDbEntity
  8
0
100
AcDbLine
 62
7
  6
CONTINUOUS
 10
110.1279777687
 20
154.3324620601
 11
109.8779777687
 21
154.3324620601
  0
LINE
  5
33C
100
AcDbEntity
  8
0
100
AcDbLine
 62
7
  6
CONTINUOUS
 10
110.6279777687
 20
156.3508958238
 11
110.1279777687
 21
156.3508958238
  0
LINE
  5
33D
100
AcDbEntity
  8
0
100
AcDbLine
 62
7
  6
CONTINUOUS
 10
110.6279777687
 20
156.5824620601
 11
109.8779777687
 21
156.5824620601
  0
LINE
  5
33E
100
AcDbEntity
  8
0
100
AcDbLine
 62
7
  6
CONTINUOUS
 10
110.6279777687
 20
157.0512124177
 11
109.8779777687
 21
157.0512124177
  0
LINE
  5
33F
100
AcDbEntity
  8
0
100
AcDbLine
 62
7
  6
CONTINUOUS
 10
110.6279777687
 20
157.4262120601
 11
109.8779777687
 21
157.4262120601
  0
LINE
  5
340
100
AcDbEntity
  8
0
100
AcDbLine
 62
7
  6
CONTINUOUS
 10
110.6279777687
 20
157.5508958238
 11
110.1279777687
 21
157.5508958238
  0
LINE
  5
341
100
AcDbEntity
  8
0
100
AcDbLine
 62
7
  6
CONTINUOUS
 10
110.1279777687
 20
157.8012117024
 11
109.8779777687
 21
157.8012117024
  0
LINE
  5
342
100
AcDbEntity
  8
0
100
AcDbLine
 62
7
  6
CONTINUOUS
 10
110.1279777687
 20
157.9887120601
 11
109.8779777687
 21
157.9887120601
  0
LINE
  5
343
100
AcDbEntity
  8
0
100
AcDbLine
 62
7
  6
CONTINUOUS
 10
110.1279777687
 20
158.0824617024
 11
109.8779777687
 21
158.0824617024
  0
LINE
  5
344
100
AcDbEntity
  8
0
100
AcDbLine
 62
7
  6
CONTINUOUS
 10
110.6279777687
 20
159.7508958238
 11
110.1279777687
 21
159.7508958238
  0
LINE
  5
345
100
AcDbEntity
  8
0
100
AcDbLine
 62
7
  6
CONTINUOUS
 10
118.3279777687
 20
194.8579964042
 11
118.3279777687
 21
170.8442546738
  0
LINE
  5
346
100
AcDbEntity
  8
0
100
AcDbLine
 62
7
  6
CONTINUOUS
 10
118.6279777687
 20
139.4949620601
 11
118.6279777687
 21
164.4949620601
  0
LINE
  5
347
100
AcDbEntity
  8
0
100
AcDbLine
 62
7
  6
CONTINUOUS
 10
119.6279777687
 20
191.4949620601
 11
119.6279777687
 21
164.4949620601
  0
LINE
  5
348
100
AcDbEntity
  8
0
100
AcDbLine
 62
7
  6
CONTINUOUS
 10
119.6279777687
 20
139.4949620601
 11
119.6279777687
 21
136.4448364311
  0
LINE
  5
349
100
AcDbEntity
  8
RUNDUNGEN
100
AcDbLine
 62
7
  6
CONTINUOUS
 10
119.6279777687
 20
126.4949620601
 11
119.6279777687
 21
139.4949620601
  0
LINE
  5
34A
100
AcDbEntity
  8
RUNDUNGEN
100
AcDbLine
 62
7
  6
CONTINUOUS
 10
119.6279777687
 20
164.4949620601
 11
119.6279777687
 21
170.4949620601
  0
LINE
  5
34B
100
AcDbEntity
  8
0
100
AcDbLine
 62
7
  6
CONTINUOUS
 10
109.6279777687
 20
164.4949620601
 11
110.6279777687
 21
164.4949620601
  0
LINE
  5
34C
100
AcDbEntity
  8
0
100
AcDbLine
 62
7
  6
CONTINUOUS
 10
118.6279777687
 20
164.4949620601
 11
119.6279777687
 21
164.4949620601
  0
LINE
  5
34D
100
AcDbEntity
  8
BEZUGSACHSEN
100
AcDbLine
 62
7
  6
CONTINUOUS
 10
103.1279777687
 20
95.1949620601
 11
101.9279777687
 21
93.9949620601
  0
LINE
  5
34E
100
AcDbEntity
  8
0
100
AcDbLine
 62
7
  6
CONTINUOUS
 10
110.9279777687
 20
194.4949620601
 11
110.6279777687
 21
194.4949620601
  0
LINE
  5
34F
100
AcDbEntity
  8
0
100
AcDbLine
 62
7
  6
CONTINUOUS
 10
118.3279777687
 20
194.4949620601
 11
118.6279777687
 21
194.4949620601
  0
LINE
  5
350
100
AcDbEntity
  8
BEZUGSACHSEN
100
AcDbLine
 62
7
  6
CONTINUOUS
 10
186.3146894608
 20
93.9949620601
 11
195.9146894608
 21
93.9949620601
  0
LINE
  5
351
100
AcDbEntity
  8
BEZUGSACHSEN
100
AcDbLine
 62
7
  6
CONTINUOUS
 10
185.1146894608
 20
95.1949620601
 11
197.1146894608
 21
95.1949620601
  0
LINE
  5
352
100
AcDbEntity
  8
0
100
AcDbLine
 62
7
  6
CONTINUOUS
 10
173.8646894608
 20
186.8147672385
 11
191.1146894608
 21
194.4949620601
  0
LINE
  5
353
100
AcDbEntity
  8
BEZUGSACHSEN
100
AcDbLine
 62
7
  6
CONTINUOUS
 10
186.3146894608
 20
93.9949620601
 11
185.1146894608
 21
95.1949620601
  0
LINE
  5
354
100
AcDbEntity
  8
0
100
AcDbLine
 62
7
  6
CONTINUOUS
 10
166.7541591479
 20
170.8442546738
 11
173.8646894608
 21
186.8147672385
  0
LINE
  5
355
100
AcDbEntity
  8
0
100
AcDbLine
 62
7
  6
CONTINUOUS
 10
178.11527358
 20
111.9949620601
 11
204.1141053416
 21
111.9949620601
  0
LINE
  5
356
100
AcDbEntity
  8
0
100
AcDbLine
 62
7
  6
CONTINUOUS
 10
178.11527358
 20
116.2949620601
 11
204.1141053416
 21
116.2949620601
  0
LINE
  5
357
100
AcDbEntity
  8
RUNDUNGEN
100
AcDbLine
 62
7
  6
CONTINUOUS
 10
205.6146894608
 20
116.4949620601
 11
176.6146894608
 21
116.4949620601
  0
LINE
  5
358
100
AcDbEntity
  8
0
100
AcDbLine
 62
7
  6
CONTINUOUS
 10
165.1146894608
 20
170.4949620601
 11
165.1146894608
 21
130.4949620601
  0
LINE
  5
359
100
AcDbEntity
  8
0
100
AcDbLine
 62
7
  6
CONTINUOUS
 10
167.1146894608
 20
139.4949620601
 11
167.1146894608
 21
164.4949620601
  0
LINE
  5
35A
100
AcDbEntity
  8
0
100
AcDbLine
 62
7
  6
CONTINUOUS
 10
167.6646894608
 20
156.5824620601
 11
167.6646894608
 21
154.3324620601
  0
LINE
  5
35B
100
AcDbEntity
  8
0
100
AcDbLine
 62
7
  6
CONTINUOUS
 10
167.6646894608
 20
153.5824622389
 11
167.6646894608
 21
153.0199622389
  0
LINE
  5
35C
100
AcDbEntity
  8
0
100
AcDbLine
 62
7
  6
CONTINUOUS
 10
167.6646894608
 20
150.7699622389
 11
167.6646894608
 21
150.2074619706
  0
LINE
  5
35D
100
AcDbEntity
  8
0
100
AcDbLine
 62
7
  6
CONTINUOUS
 10
167.6646894608
 20
148.1449620601
 11
167.6646894608
 21
145.8949620601
  0
LINE
  5
35E
100
AcDbEntity
  8
0
100
AcDbLine
 62
7
  6
CONTINUOUS
 10
168.143412808
 20
146.4574620601
 11
168.143412808
 21
148.2387119706
  0
LINE
  5
35F
100
AcDbEntity
  8
0
100
AcDbLine
 62
7
  6
CONTINUOUS
 10
168.2391574774
 20
154.8949620601
 11
168.2391574774
 21
156.5824620601
  0
LINE
  5
360
100
AcDbEntity
  8
0
100
AcDbLine
 62
7
  6
CONTINUOUS
 10
167.7604341303
 20
157.0512124177
 11
167.6646894608
 21
156.5824620601
  0
LINE
  5
361
100
AcDbEntity
  8
0
100
AcDbLine
 62
7
  6
CONTINUOUS
 10
167.7604341303
 20
148.6137121495
 11
167.6646894608
 21
148.1449620601
  0
LINE
  5
362
100
AcDbEntity
  8
0
100
AcDbLine
 62
7
  6
CONTINUOUS
 10
168.2391574774
 20
156.5824620601
 11
168.3349021469
 21
156.9574617024
  0
LINE
  5
363
100
AcDbEntity
  8
0
100
AcDbLine
 62
7
  6
CONTINUOUS
 10
168.143412808
 20
148.2387119706
 11
168.2391574774
 21
148.5199619706
  0
LINE
  5
364
100
AcDbEntity
  8
0
100
AcDbLine
 62
7
  6
CONTINUOUS
 10
167.9519234691
 20
157.4262120601
 11
167.7604341303
 21
157.0512124177
  0
LINE
  5
365
100
AcDbEntity
  8
0
100
AcDbLine
 62
7
  6
CONTINUOUS
 10
168.3349021469
 20
156.9574617024
 11
168.5263914858
 21
157.2387117024
  0
LINE
  5
366
100
AcDbEntity
  8
0
100
AcDbLine
 62
7
  6
CONTINUOUS
 10
168.3349021469
 20
157.8012117024
 11
167.9519234691
 21
157.4262120601
  0
LINE
  5
367
100
AcDbEntity
  8
0
100
AcDbLine
 62
7
  6
CONTINUOUS
 10
193.1846896992
 20
121.2741110029
 11
193.4346894608
 21
121.3379407825
  0
LINE
  5
368
100
AcDbEntity
  8
0
100
AcDbLine
 62
7
  6
CONTINUOUS
 10
190.49718958
 20
120.9549620601
 11
190.7471893416
 21
121.0187918453
  0
LINE
  5
369
100
AcDbEntity
  8
0
100
AcDbLine
 62
7
  6
CONTINUOUS
 10
193.1846896992
 20
120.9549620601
 11
193.4971892224
 21
121.0187918453
  0
LINE
  5
36A
100
AcDbEntity
  8
0
100
AcDbLine
 62
7
  6
CONTINUOUS
 10
190.4346894608
 20
121.2741110029
 11
190.7471893416
 21
121.3379407825
  0
LINE
  5
36B
100
AcDbEntity
  8
0
100
AcDbLine
 62
7
  6
CONTINUOUS
 10
187.934689431
 20
120.5719833376
 11
188.2471894012
 21
120.5719833376
  0
LINE
  5
36C
100
AcDbEntity
  8
0
100
AcDbLine
 62
7
  6
CONTINUOUS
 10
187.0596894608
 20
120.9549620601
 11
187.4346894608
 21
120.9549620601
  0
LINE
  5
36D
100
AcDbEntity
  8
0
100
AcDbLine
 62
7
  6
CONTINUOUS
 10
189.9971893416
 20
120.9549620601
 11
190.49718958
 21
120.9549620601
  0
LINE
  5
36E
100
AcDbEntity
  8
0
100
AcDbLine
 62
7
  6
CONTINUOUS
 10
192.8096896992
 20
120.9549620601
 11
193.1846896992
 21
120.9549620601
  0
LINE
  5
36F
100
AcDbEntity
  8
0
100
AcDbLine
 62
7
  6
CONTINUOUS
 10
188.3096895204
 20
121.2741110029
 11
188.6221894012
 21
121.2741110029
  0
LINE
  5
370
100
AcDbEntity
  8
0
100
AcDbLine
 62
7
  6
CONTINUOUS
 10
190.0596894608
 20
121.2741110029
 11
190.4346894608
 21
121.2741110029
  0
LINE
  5
371
100
AcDbEntity
  8
0
100
AcDbLine
 62
7
  6
CONTINUOUS
 10
192.8096896992
 20
121.2741110029
 11
193.1846896992
 21
121.2741110029
  0
LINE
  5
372
100
AcDbEntity
  8
0
100
AcDbLine
 62
7
  6
CONTINUOUS
 10
174.1146894608
 20
121.4949620601
 11
175.1146894608
 21
121.4949620601
  0
LINE
  5
373
100
AcDbEntity
  8
KONSTRUKTIONSELEMENTE
100
AcDbLine
 62
7
  6
CONTINUOUS
 10
174.1146894608
 20
121.4949620601
 11
175.1146894608
 21
121.4949620601
  0
LINE
  5
374
100
AcDbEntity
  8
0
100
AcDbLine
 62
7
  6
CONTINUOUS
 10
207.1146894608
 20
121.4949620601
 11
208.1146894608
 21
121.4949620601
  0
LINE
  5
375
100
AcDbEntity
  8
KONSTRUKTIONSELEMENTE
100
AcDbLine
 62
7
  6
CONTINUOUS
 10
207.1146894608
 20
121.4949620601
 11
208.1146894608
 21
121.4949620601
  0
LINE
  5
376
100
AcDbEntity
  8
0
100
AcDbLine
 62
7
  6
CONTINUOUS
 10
189.1221894608
 20
121.6570897253
 11
189.4346895204
 21
121.6570897253
  0
LINE
  5
377
100
AcDbEntity
  8
0
100
AcDbLine
 62
7
  6
CONTINUOUS
 10
191.8721893416
 20
121.720919505
 11
192.2471893416
 21
121.720919505
  0
LINE
  5
378
100
AcDbEntity
  8
0
100
AcDbLine
 62
7
  6
CONTINUOUS
 10
191.8721893416
 20
122.295387611
 11
192.3096894608
 21
122.295387611
  0
LINE
  5
379
100
AcDbEntity
  8
0
100
AcDbLine
 62
7
  6
CONTINUOUS
 10
190.12218958
 20
122.3592173906
 11
190.3721893416
 21
122.3592173906
  0
LINE
  5
37A
100
AcDbEntity
  8
0
100
AcDbLine
 62
7
  6
CONTINUOUS
 10
192.8096896992
 20
122.5507067295
 11
193.1846896992
 21
122.5507067295
  0
LINE
  5
37B
100
AcDbEntity
  8
0
100
AcDbLine
 62
7
  6
CONTINUOUS
 10
190.12218958
 20
122.6145365091
 11
190.3721893416
 21
122.6145365091
  0
LINE
  5
37C
100
AcDbEntity
  8
0
100
AcDbLine
 62
7
  6
CONTINUOUS
 10
194.6221892224
 20
122.7421960684
 11
195.1221894608
 21
122.7421960684
  0
LINE
  5
37D
100
AcDbEntity
  8
0
100
AcDbLine
 62
7
  6
CONTINUOUS
 10
195.4346896992
 20
122.7421960684
 11
196.1221892224
 21
122.7421960684
  0
LINE
  5
37E
100
AcDbEntity
  8
0
100
AcDbLine
 62
7
  6
CONTINUOUS
 10
195.6221896992
 20
121.0187918453
 11
195.9971896992
 21
120.9549620601
  0
LINE
  5
37F
100
AcDbEntity
  8
0
100
AcDbLine
 62
7
  6
CONTINUOUS
 10
190.3721893416
 20
122.3592173906
 11
190.7471893416
 21
122.295387611
  0
LINE
  5
380
100
AcDbEntity
  8
0
100
AcDbLine
 62
7
  6
CONTINUOUS
 10
189.74718958
 20
121.3379407825
 11
190.0596894608
 21
121.2741110029
  0
LINE
  5
381
100
AcDbEntity
  8
0
100
AcDbLine
 62
7
  6
CONTINUOUS
 10
192.4971894608
 20
121.0187918453
 11
192.8096896992
 21
120.9549620601
  0
LINE
  5
382
100
AcDbEntity
  8
0
100
AcDbLine
 62
7
  6
CONTINUOUS
 10
195.6846894608
 20
121.2741110029
 11
195.9971896992
 21
121.2102812009
  0
LINE
  5
383
100
AcDbEntity
  8
0
100
AcDbLine
 62
7
  6
CONTINUOUS
 10
189.74718958
 20
121.0187918453
 11
189.9971893416
 21
120.9549620601
  0
LINE
  5
384
100
AcDbEntity
  8
0
100
AcDbLine
 62
7
  6
CONTINUOUS
 10
192.55968958
 20
121.3379407825
 11
192.8096896992
 21
121.2741110029
  0
LINE
  5
385
100
AcDbEntity
  8
0
100
AcDbLine
 62
7
  6
CONTINUOUS
 10
169.5795831178
 20
148.2387119706
 11
169.5795831178
 21
146.4574620601
  0
LINE
  5
386
100
AcDbEntity
  8
0
100
AcDbLine
 62
7
  6
CONTINUOUS
 10
170.1540511344
 20
146.4574620601
 11
170.1540511344
 21
148.0512120154
  0
LINE
  5
387
100
AcDbEntity
  8
0
100
AcDbLine
 62
7
  6
CONTINUOUS
 10
171.5902213771
 20
156.5824620601
 11
171.5902213771
 21
154.8949620601
  0
LINE
  5
388
100
AcDbEntity
  8
0
100
AcDbLine
 62
7
  6
CONTINUOUS
 10
171.5902213771
 20
152.0824620601
 11
171.5902213771
 21
151.7074618812
  0
LINE
  5
389
100
AcDbEntity
  8
0
100
AcDbLine
 62
7
  6
CONTINUOUS
 10
172.1646894608
 20
145.8949620601
 11
172.1646894608
 21
146.4574620601
  0
LINE
  5
38A
100
AcDbEntity
  8
0
100
AcDbLine
 62
7
  6
CONTINUOUS
 10
172.1646894608
 20
148.8012119706
 11
172.1646894608
 21
149.4574621495
  0
LINE
  5
38B
100
AcDbEntity
  8
0
100
AcDbLine
 62
7
  6
CONTINUOUS
 10
172.1646894608
 20
151.7074618812
 11
172.1646894608
 21
152.0824620601
  0
LINE
  5
38C
100
AcDbEntity
  8
0
100
AcDbLine
 62
7
  6
CONTINUOUS
 10
172.1646894608
 20
154.3324620601
 11
172.1646894608
 21
156.5824620601
  0
LINE
  5
38D
100
AcDbEntity
  8
0
100
AcDbLine
 62
7
  6
CONTINUOUS
 10
172.068944783
 20
151.2387120601
 11
172.1646894608
 21
151.7074618812
  0
LINE
  5
38E
100
AcDbEntity
  8
0
100
AcDbLine
 62
7
  6
CONTINUOUS
 10
171.5902213771
 20
151.7074618812
 11
171.4944767077
 21
151.3324622389
  0
LINE
  5
38F
100
AcDbEntity
  8
0
100
AcDbLine
 62
7
  6
CONTINUOUS
 10
171.877455419
 20
150.8637118812
 11
172.068944783
 21
151.2387120601
  0
LINE
  5
390
100
AcDbEntity
  8
0
100
AcDbLine
 62
7
  6
CONTINUOUS
 10
171.4944767077
 20
151.3324622389
 11
171.3029873018
 21
151.0512122389
  0
LINE
  5
391
100
AcDbEntity
  8
0
100
AcDbLine
 62
7
  6
CONTINUOUS
 10
168.0476681386
 20
148.9887120601
 11
167.7604341303
 21
148.6137121495
  0
LINE
  5
392
100
AcDbEntity
  8
0
100
AcDbLine
 62
7
  6
CONTINUOUS
 10
168.5263914858
 20
157.2387117024
 11
168.8136257623
 21
157.4262120601
  0
LINE
  5
393
100
AcDbEntity
  8
0
100
AcDbLine
 62
7
  6
CONTINUOUS
 10
168.7178808246
 20
157.9887120601
 11
168.3349021469
 21
157.8012117024
  0
LINE
  5
394
100
AcDbEntity
  8
0
100
AcDbLine
 62
7
  6
CONTINUOUS
 10
192.55968958
 20
122.4868769499
 11
192.8096896992
 21
122.5507067295
  0
LINE
  5
395
100
AcDbEntity
  8
0
100
AcDbLine
 62
7
  6
CONTINUOUS
 10
202.6071899377
 20
126.2979407825
 11
202.857188984
 21
126.3617705621
  0
LINE
  5
396
100
AcDbEntity
  8
0
100
AcDbLine
 62
7
  6
CONTINUOUS
 10
199.7321894608
 20
126.2979407825
 11
199.9821899377
 21
126.3617705621
  0
LINE
  5
397
100
AcDbEntity
  8
0
100
AcDbLine
 62
7
  6
CONTINUOUS
 10
192.4971894608
 20
122.806025848
 11
192.8096896992
 21
122.8698556276
  0
LINE
  5
398
100
AcDbEntity
  8
0
100
AcDbLine
 62
7
  6
CONTINUOUS
 10
202.6071899377
 20
125.9149620601
 11
202.9196894608
 21
125.9787918453
  0
LINE
  5
399
100
AcDbEntity
  8
0
100
AcDbLine
 62
7
  6
CONTINUOUS
 10
189.8096893416
 20
123.5719833823
 11
190.12218958
 21
123.6358131619
  0
LINE
  5
39A
100
AcDbEntity
  8
0
100
AcDbLine
 62
7
  6
CONTINUOUS
 10
199.7321894608
 20
125.9149620601
 11
200.044688984
 21
125.9787918453
  0
LINE
  5
39B
100
AcDbEntity
  8
0
100
AcDbLine
 62
7
  6
CONTINUOUS
 10
190.1696894608
 20
125.9149620601
 11
190.4821896992
 21
125.9787918453
  0
LINE
  5
39C
100
AcDbEntity
  8
0
100
AcDbLine
 62
7
  6
CONTINUOUS
 10
189.74718958
 20
123.8911322804
 11
190.1846893416
 21
123.9549620601
  0
LINE
  5
39D
100
AcDbEntity
  8
0
100
AcDbLine
 62
7
  6
CONTINUOUS
 10
192.8096896992
 20
122.8698556276
 11
193.1846896992
 21
122.8698556276
  0
LINE
  5
39E
100
AcDbEntity
  8
0
100
AcDbLine
 62
7
  6
CONTINUOUS
 10
194.6221892224
 20
122.9975151869
 11
195.1221894608
 21
122.9975151869
  0
LINE
  5
39F
100
AcDbEntity
  8
0
100
AcDbLine
 62
7
  6
CONTINUOUS
 10
195.4346896992
 20
122.9975151869
 11
196.1221892224
 21
122.9975151869
  0
LINE
  5
3A0
100
AcDbEntity
  8
0
100
AcDbLine
 62
7
  6
CONTINUOUS
 10
189.1846894012
 20
123.2528344842
 11
189.4971894608
 21
123.2528344842
  0
LINE
  5
3A1
100
AcDbEntity
  8
0
100
AcDbLine
 62
7
  6
CONTINUOUS
 10
195.1221894608
 20
123.5081536027
 11
195.4346896992
 21
123.5081536027
  0
LINE
  5
3A2
100
AcDbEntity
  8
0
100
AcDbLine
 62
7
  6
CONTINUOUS
 10
190.12218958
 20
123.6358131619
 11
190.3721893416
 21
123.6358131619
  0
LINE
  5
3A3
100
AcDbEntity
  8
0
100
AcDbLine
 62
7
  6
CONTINUOUS
 10
192.18468958
 20
123.6358131619
 11
193.9971894608
 21
123.6358131619
  0
LINE
  5
3A4
100
AcDbEntity
  8
0
100
AcDbLine
 62
7
  6
CONTINUOUS
 10
187.0596894608
 20
123.9549620601
 11
187.4346894608
 21
123.9549620601
  0
LINE
  5
3A5
100
AcDbEntity
  8
0
100
AcDbLine
 62
7
  6
CONTINUOUS
 10
190.1846893416
 20
123.9549620601
 11
190.30968958
 21
123.9549620601
  0
LINE
  5
3A6
100
AcDbEntity
  8
0
100
AcDbLine
 62
7
  6
CONTINUOUS
 10
191.8721893416
 20
123.9549620601
 11
193.9971894608
 21
123.9549620601
  0
LINE
  5
3A7
100
AcDbEntity
  8
0
100
AcDbLine
 62
7
  6
CONTINUOUS
 10
181.0446894906
 20
125.9149620601
 11
181.5446894608
 21
125.9149620601
  0
LINE
  5
3A8
100
AcDbEntity
  8
0
100
AcDbLine
 62
7
  6
CONTINUOUS
 10
183.0446894608
 20
125.9149620601
 11
185.2946894608
 21
125.9149620601
  0
LINE
  5
3A9
100
AcDbEntity
  8
0
100
AcDbLine
 62
7
  6
CONTINUOUS
 10
185.7946893416
 20
125.9149620601
 11
187.2946896992
 21
125.9149620601
  0
LINE
  5
3AA
100
AcDbEntity
  8
0
100
AcDbLine
 62
7
  6
CONTINUOUS
 10
189.6071894608
 20
125.9149620601
 11
190.1696894608
 21
125.9149620601
  0
LINE
  5
3AB
100
AcDbEntity
  8
0
100
AcDbLine
 62
7
  6
CONTINUOUS
 10
192.919688984
 20
125.9149620601
 11
193.294688984
 21
125.9149620601
  0
LINE
  5
3AC
100
AcDbEntity
  8
0
100
AcDbLine
 62
7
  6
CONTINUOUS
 10
195.732188984
 20
125.9149620601
 11
197.982188984
 21
125.9149620601
  0
LINE
  5
3AD
100
AcDbEntity
  8
0
100
AcDbLine
 62
7
  6
CONTINUOUS
 10
199.482188984
 20
125.9149620601
 11
199.7321894608
 21
125.9149620601
  0
LINE
  5
3AE
100
AcDbEntity
  8
0
100
AcDbLine
 62
7
  6
CONTINUOUS
 10
202.107188984
 20
125.9149620601
 11
202.6071899377
 21
125.9149620601
  0
LINE
  5
3AF
100
AcDbEntity
  8
0
100
AcDbLine
 62
7
  6
CONTINUOUS
 10
183.4196894608
 20
126.2979407825
 11
185.2946894608
 21
126.2979407825
  0
LINE
  5
3B0
100
AcDbEntity
  8
0
100
AcDbLine
 62
7
  6
CONTINUOUS
 10
186.1696896992
 20
126.2979407825
 11
187.3571894608
 21
126.2979407825
  0
LINE
  5
3B1
100
AcDbEntity
  8
0
100
AcDbLine
 62
7
  6
CONTINUOUS
 10
189.6071894608
 20
126.2979407825
 11
190.1696894608
 21
126.2979407825
  0
LINE
  5
3B2
100
AcDbEntity
  8
0
100
AcDbLine
 62
7
  6
CONTINUOUS
 10
196.107188984
 20
126.2979407825
 11
197.982188984
 21
126.2979407825
  0
LINE
  5
3B3
100
AcDbEntity
  8
0
100
AcDbLine
 62
7
  6
CONTINUOUS
 10
199.482188984
 20
126.2979407825
 11
199.7321894608
 21
126.2979407825
  0
LINE
  5
3B4
100
AcDbEntity
  8
0
100
AcDbLine
 62
7
  6
CONTINUOUS
 10
202.107188984
 20
126.2979407825
 11
202.6071899377
 21
126.2979407825
  0
LINE
  5
3B5
100
AcDbEntity
  8
0
100
AcDbLine
 62
7
  6
CONTINUOUS
 10
190.30968958
 20
123.9549620601
 11
190.7471893416
 21
123.8911322804
  0
LINE
  5
3B6
100
AcDbEntity
  8
0
100
AcDbLine
 62
7
  6
CONTINUOUS
 10
193.1846896992
 20
122.8698556276
 11
193.4971892224
 21
122.806025848
  0
LINE
  5
3B7
100
AcDbEntity
  8
0
100
AcDbLine
 62
7
  6
CONTINUOUS
 10
190.3721893416
 20
123.6358131619
 11
190.68468958
 21
123.5719833823
  0
LINE
  5
3B8
100
AcDbEntity
  8
0
100
AcDbLine
 62
7
  6
CONTINUOUS
 10
189.2946892224
 20
125.9787918453
 11
189.6071894608
 21
125.9149620601
  0
LINE
  5
3B9
100
AcDbEntity
  8
0
100
AcDbLine
 62
7
  6
CONTINUOUS
 10
193.1846896992
 20
122.5507067295
 11
193.4346894608
 21
122.4868769499
  0
LINE
  5
3BA
100
AcDbEntity
  8
0
100
AcDbLine
 62
7
  6
CONTINUOUS
 10
189.3571896992
 20
126.3617705621
 11
189.6071894608
 21
126.2979407825
  0
LINE
  5
3BB
100
AcDbEntity
  8
0
100
AcDbLine
 62
7
  6
CONTINUOUS
 10
195.4346896992
 20
121.0826216305
 11
195.6221896992
 21
121.0187918453
  0
LINE
  5
3BC
100
AcDbEntity
  8
0
100
AcDbLine
 62
7
  6
CONTINUOUS
 10
190.87218958
 20
122.4868769499
 11
191.1846894608
 21
122.3592173906
  0
LINE
  5
3BD
100
AcDbEntity
  8
0
100
AcDbLine
 62
7
  6
CONTINUOUS
 10
189.4971894608
 20
121.1464514213
 11
189.74718958
 21
121.0187918453
  0
LINE
  5
3BE
100
AcDbEntity
  8
0
100
AcDbLine
 62
7
  6
CONTINUOUS
 10
189.6221895204
 20
121.4017705621
 11
189.74718958
 21
121.3379407825
  0
LINE
  5
3BF
100
AcDbEntity
  8
0
100
AcDbLine
 62
7
  6
CONTINUOUS
 10
190.7471893416
 20
123.8911322804
 11
190.9971894608
 21
123.7634727212
  0
LINE
  5
3C0
100
AcDbEntity
  8
0
100
AcDbLine
 62
7
  6
CONTINUOUS
 10
192.18468958
 20
121.2102812009
 11
192.4971894608
 21
121.0187918453
  0
LINE
  5
3C1
100
AcDbEntity
  8
0
100
AcDbLine
 62
7
  6
CONTINUOUS
 10
189.3096894608
 20
121.2741110029
 11
189.4971894608
 21
121.1464514213
  0
LINE
  5
3C2
100
AcDbEntity
  8
0
100
AcDbLine
 62
7
  6
CONTINUOUS
 10
190.7471893416
 20
122.295387611
 11
190.9346893416
 21
122.1677280517
  0
LINE
  5
3C3
100
AcDbEntity
  8
0
100
AcDbLine
 62
7
  6
CONTINUOUS
 10
192.37218958
 20
121.4656003418
 11
192.55968958
 21
121.3379407825
  0
LINE
  5
3C4
100
AcDbEntity
  8
0
100
AcDbLine
 62
7
  6
CONTINUOUS
 10
169.4838384483
 20
148.5199619706
 11
169.5795831178
 21
148.2387119706
  0
LINE
  5
3C5
100
AcDbEntity
  8
0
100
AcDbLine
 62
7
  6
CONTINUOUS
 10
172.7604407719
 20
164.4949620601
 11
172.7604407719
 21
139.4949620601
  0
LINE
  5
3C6
100
AcDbEntity
  8
0
100
AcDbLine
 62
7
  6
CONTINUOUS
 10
174.1146894608
 20
169.4949620601
 11
174.1146894608
 21
136.4450670411
  0
LINE
  5
3C7
100
AcDbEntity
  8
0
100
AcDbLine
 62
7
  6
CONTINUOUS
 10
175.1146894608
 20
117.9949620601
 11
175.1146894608
 21
134.9949620601
  0
LINE
  5
3C8
100
AcDbEntity
  8
RUNDUNGEN
100
AcDbLine
 62
7
  6
CONTINUOUS
 10
175.1146894608
 20
117.9949620601
 11
175.1146894608
 21
134.9949620601
  0
LINE
  5
3C9
100
AcDbEntity
  8
0
100
AcDbLine
 62
7
  6
CONTINUOUS
 10
168.2391574774
 20
148.5199619706
 11
168.4306468163
 21
148.7074620601
  0
LINE
  5
3CA
100
AcDbEntity
  8
0
100
AcDbLine
 62
7
  6
CONTINUOUS
 10
171.4944767077
 20
150.4887122389
 11
171.877455419
 21
150.8637118812
  0
LINE
  5
3CB
100
AcDbEntity
  8
0
100
AcDbLine
 62
7
  6
CONTINUOUS
 10
168.4306468163
 20
149.2699620601
 11
168.0476681386
 21
148.9887120601
  0
LINE
  5
3CC
100
AcDbEntity
  8
0
100
AcDbLine
 62
7
  6
CONTINUOUS
 10
171.3029873018
 20
151.0512122389
 11
171.0157532935
 21
150.8637118812
  0
LINE
  5
3CD
100
AcDbEntity
  8
0
100
AcDbLine
 62
7
  6
CONTINUOUS
 10
201.9821894608
 20
128.8511322804
 11
202.2321899377
 21
128.9149620601
  0
LINE
  5
3CE
100
AcDbEntity
  8
0
100
AcDbLine
 62
7
  6
CONTINUOUS
 10
190.1696894608
 20
126.2979407825
 11
190.4196892224
 21
126.3617705621
  0
LINE
  5
3CF
100
AcDbEntity
  8
0
100
AcDbLine
 62
7
  6
CONTINUOUS
 10
189.3571896992
 20
128.4681536027
 11
189.6071894608
 21
128.5319833823
  0
LINE
  5
3D0
100
AcDbEntity
  8
0
100
AcDbLine
 62
7
  6
CONTINUOUS
 10
194.419688984
 20
127.255387611
 11
194.7321899377
 21
127.3192173906
  0
LINE
  5
3D1
100
AcDbEntity
  8
0
100
AcDbLine
 62
7
  6
CONTINUOUS
 10
187.2946896992
 20
125.9149620601
 11
187.6071892224
 21
125.9787918453
  0
LINE
  5
3D2
100
AcDbEntity
  8
0
100
AcDbLine
 62
7
  6
CONTINUOUS
 10
189.2946892224
 20
128.8511322804
 11
189.6071894608
 21
128.9149620601
  0
LINE
  5
3D3
100
AcDbEntity
  8
0
100
AcDbLine
 62
7
  6
CONTINUOUS
 10
194.2096894608
 20
130.7149620601
 11
194.5221896992
 21
130.7787918453
  0
LINE
  5
3D4
100
AcDbEntity
  8
0
100
AcDbLine
 62
7
  6
CONTINUOUS
 10
201.2321894608
 20
126.7447492846
 11
201.6071894608
 21
126.7447492846
  0
LINE
  5
3D5
100
AcDbEntity
  8
0
100
AcDbLine
 62
7
  6
CONTINUOUS
 10
191.5446892224
 20
127.0000684031
 11
192.4196894608
 21
127.0000684031
  0
LINE
  5
3D6
100
AcDbEntity
  8
0
100
AcDbLine
 62
7
  6
CONTINUOUS
 10
190.1071896992
 20
127.1915578314
 11
190.6696896992
 21
127.1915578314
  0
LINE
  5
3D7
100
AcDbEntity
  8
0
100
AcDbLine
 62
7
  6
CONTINUOUS
 10
186.1696896992
 20
127.255387611
 11
187.3571894608
 21
127.255387611
  0
LINE
  5
3D8
100
AcDbEntity
  8
0
100
AcDbLine
 62
7
  6
CONTINUOUS
 10
193.294688984
 20
127.255387611
 11
194.419688984
 21
127.255387611
  0
LINE
  5
3D9
100
AcDbEntity
  8
0
100
AcDbLine
 62
7
  6
CONTINUOUS
 10
202.2321899377
 20
127.255387611
 11
202.6071899377
 21
127.255387611
  0
LINE
  5
3DA
100
AcDbEntity
  8
0
100
AcDbLine
 62
7
  6
CONTINUOUS
 10
191.5446892224
 20
127.3192173906
 11
192.4196894608
 21
127.3192173906
  0
LINE
  5
3DB
100
AcDbEntity
  8
0
100
AcDbLine
 62
7
  6
CONTINUOUS
 10
190.1071896992
 20
127.5745365091
 11
191.0446896992
 21
127.5745365091
  0
LINE
  5
3DC
100
AcDbEntity
  8
0
100
AcDbLine
 62
7
  6
CONTINUOUS
 10
186.1696896992
 20
127.6383662887
 11
187.3571894608
 21
127.6383662887
  0
LINE
  5
3DD
100
AcDbEntity
  8
0
100
AcDbLine
 62
7
  6
CONTINUOUS
 10
193.294688984
 20
127.6383662887
 11
194.4821894608
 21
127.6383662887
  0
LINE
  5
3DE
100
AcDbEntity
  8
0
100
AcDbLine
 62
7
  6
CONTINUOUS
 10
202.2321899377
 20
127.6383662887
 11
202.6071899377
 21
127.6383662887
  0
LINE
  5
3DF
100
AcDbEntity
  8
0
100
AcDbLine
 62
7
  6
CONTINUOUS
 10
190.6696896992
 20
128.1490045257
 11
191.0446896992
 21
128.1490045257
  0
LINE
  5
3E0
100
AcDbEntity
  8
0
100
AcDbLine
 62
7
  6
CONTINUOUS
 10
202.9821899377
 20
128.2128344842
 11
203.3571899377
 21
128.2128344842
  0
LINE
  5
3E1
100
AcDbEntity
  8
0
100
AcDbLine
 62
7
  6
CONTINUOUS
 10
186.1696896992
 20
128.5319833823
 11
187.3571894608
 21
128.5319833823
  0
LINE
  5
3E2
100
AcDbEntity
  8
0
100
AcDbLine
 62
7
  6
CONTINUOUS
 10
189.6071894608
 20
128.5319833823
 11
190.1696894608
 21
128.5319833823
  0
LINE
  5
3E3
100
AcDbEntity
  8
0
100
AcDbLine
 62
7
  6
CONTINUOUS
 10
202.2321899377
 20
128.5319833823
 11
202.6071899377
 21
128.5319833823
  0
LINE
  5
3E4
100
AcDbEntity
  8
0
100
AcDbLine
 62
7
  6
CONTINUOUS
 10
193.294688984
 20
128.5958131619
 11
194.4821894608
 21
128.5958131619
  0
LINE
  5
3E5
100
AcDbEntity
  8
0
100
AcDbLine
 62
7
  6
CONTINUOUS
 10
180.0446894608
 20
128.9149620601
 11
180.4196894608
 21
128.9149620601
  0
LINE
  5
3E6
100
AcDbEntity
  8
0
100
AcDbLine
 62
7
  6
CONTINUOUS
 10
182.1696894012
 20
128.9149620601
 11
182.5446894012
 21
128.9149620601
  0
LINE
  5
3E7
100
AcDbEntity
  8
0
100
AcDbLine
 62
7
  6
CONTINUOUS
 10
183.0446894608
 20
128.9149620601
 11
183.4196894608
 21
128.9149620601
  0
LINE
  5
3E8
100
AcDbEntity
  8
0
100
AcDbLine
 62
7
  6
CONTINUOUS
 10
185.7946893416
 20
128.9149620601
 11
187.2946896992
 21
128.9149620601
  0
LINE
  5
3E9
100
AcDbEntity
  8
0
100
AcDbLine
 62
7
  6
CONTINUOUS
 10
189.6071894608
 20
128.9149620601
 11
190.1696894608
 21
128.9149620601
  0
LINE
  5
3EA
100
AcDbEntity
  8
0
100
AcDbLine
 62
7
  6
CONTINUOUS
 10
192.919688984
 20
128.9149620601
 11
194.419688984
 21
128.9149620601
  0
LINE
  5
3EB
100
AcDbEntity
  8
0
100
AcDbLine
 62
7
  6
CONTINUOUS
 10
195.732188984
 20
128.9149620601
 11
196.107188984
 21
128.9149620601
  0
LINE
  5
3EC
100
AcDbEntity
  8
0
100
AcDbLine
 62
7
  6
CONTINUOUS
 10
198.4821899377
 20
128.9149620601
 11
198.8571899377
 21
128.9149620601
  0
LINE
  5
3ED
100
AcDbEntity
  8
0
100
AcDbLine
 62
7
  6
CONTINUOUS
 10
200.3571899377
 20
128.9149620601
 11
200.7321899377
 21
128.9149620601
  0
LINE
  5
3EE
100
AcDbEntity
  8
0
100
AcDbLine
 62
7
  6
CONTINUOUS
 10
202.2321899377
 20
128.9149620601
 11
202.5446894608
 21
128.9149620601
  0
LINE
  5
3EF
100
AcDbEntity
  8
0
100
AcDbLine
 62
7
  6
CONTINUOUS
 10
199.1696894608
 20
125.9787918453
 11
199.482188984
 21
125.9149620601
  0
LINE
  5
3F0
100
AcDbEntity
  8
0
100
AcDbLine
 62
7
  6
CONTINUOUS
 10
187.2946896992
 20
128.9149620601
 11
187.6071892224
 21
128.8511322804
  0
LINE
  5
3F1
100
AcDbEntity
  8
0
100
AcDbLine
 62
7
  6
CONTINUOUS
 10
201.7946894608
 20
125.9787918453
 11
202.107188984
 21
125.9149620601
  0
LINE
  5
3F2
100
AcDbEntity
  8
0
100
AcDbLine
 62
7
  6
CONTINUOUS
 10
190.1696894608
 20
128.9149620601
 11
190.4821896992
 21
128.8511322804
  0
LINE
  5
3F3
100
AcDbEntity
  8
0
100
AcDbLine
 62
7
  6
CONTINUOUS
 10
194.419688984
 20
128.9149620601
 11
194.7321899377
 21
128.8511322804
  0
LINE
  5
3F4
100
AcDbEntity
  8
0
100
AcDbLine
 62
7
  6
CONTINUOUS
 10
202.6071899377
 20
127.6383662887
 11
202.9196894608
 21
127.5745365091
  0
LINE
  5
3F5
100
AcDbEntity
  8
0
100
AcDbLine
 62
7
  6
CONTINUOUS
 10
190.1696894608
 20
128.5319833823
 11
190.4196892224
 21
128.4681536027
  0
LINE
  5
3F6
100
AcDbEntity
  8
0
100
AcDbLine
 62
7
  6
CONTINUOUS
 10
199.2321899377
 20
126.3617705621
 11
199.482188984
 21
126.2979407825
  0
LINE
  5
3F7
100
AcDbEntity
  8
0
100
AcDbLine
 62
7
  6
CONTINUOUS
 10
201.8571899377
 20
126.3617705621
 11
202.107188984
 21
126.2979407825
  0
LINE
  5
3F8
100
AcDbEntity
  8
0
100
AcDbLine
 62
7
  6
CONTINUOUS
 10
187.3571894608
 20
127.255387611
 11
187.5446894608
 21
127.1915578314
  0
LINE
  5
3F9
100
AcDbEntity
  8
0
100
AcDbLine
 62
7
  6
CONTINUOUS
 10
187.3571894608
 20
128.5319833823
 11
187.5446894608
 21
128.4681536027
  0
LINE
  5
3FA
100
AcDbEntity
  8
0
100
AcDbLine
 62
7
  6
CONTINUOUS
 10
189.0446894608
 20
126.1064514213
 11
189.2946892224
 21
125.9787918453
  0
LINE
  5
3FB
100
AcDbEntity
  8
0
100
AcDbLine
 62
7
  6
CONTINUOUS
 10
187.7321894608
 20
127.4468769499
 11
187.8571896992
 21
127.3830471702
  0
LINE
  5
3FC
100
AcDbEntity
  8
0
100
AcDbLine
 62
7
  6
CONTINUOUS
 10
190.4821896992
 20
128.8511322804
 11
190.7321894608
 21
128.7234727212
  0
LINE
  5
3FD
100
AcDbEntity
  8
0
100
AcDbLine
 62
7
  6
CONTINUOUS
 10
193.4971892224
 20
122.806025848
 11
193.8096894608
 21
122.6145365091
  0
LINE
  5
3FE
100
AcDbEntity
  8
0
100
AcDbLine
 62
7
  6
CONTINUOUS
 10
190.68468958
 20
123.5719833823
 11
190.87218958
 21
123.4443238231
  0
LINE
  5
3FF
100
AcDbEntity
  8
0
100
AcDbLine
 62
7
  6
CONTINUOUS
 10
195.2471896992
 20
121.2102812009
 11
195.4346896992
 21
121.0826216305
  0
LINE
  5
400
100
AcDbEntity
  8
0
100
AcDbLine
 62
7
  6
CONTINUOUS
 10
193.4346894608
 20
122.4868769499
 11
193.6221894608
 21
122.3592173906
  0
LINE
  5
401
100
AcDbEntity
  8
0
100
AcDbLine
 62
7
  6
CONTINUOUS
 10
195.4971894608
 20
121.4017705621
 11
195.6846894608
 21
121.2741110029
  0
LINE
  5
402
100
AcDbEntity
  8
0
100
AcDbLine
 62
7
  6
CONTINUOUS
 10
189.1696896992
 20
126.4894301661
 11
189.3571896992
 21
126.3617705621
  0
LINE
  5
403
100
AcDbEntity
  8
0
100
AcDbLine
 62
7
  6
CONTINUOUS
 10
187.6071892224
 20
128.8511322804
 11
187.8571896992
 21
128.6596429416
  0
LINE
  5
404
100
AcDbEntity
  8
0
100
AcDbLine
 62
7
  6
CONTINUOUS
 10
189.4971894608
 20
121.5294301661
 11
189.6221895204
 21
121.4017705621
  0
LINE
  5
405
100
AcDbEntity
  8
0
100
AcDbLine
 62
7
  6
CONTINUOUS
 10
187.5446894608
 20
127.1915578314
 11
187.6696896992
 21
127.0638982721
  0
LINE
  5
406
100
AcDbEntity
  8
0
100
AcDbLine
 62
7
  6
CONTINUOUS
 10
190.9971894608
 20
123.7634727212
 11
191.24718958
 21
123.5081536027
  0
LINE
  5
407
100
AcDbEntity
  8
0
100
AcDbLine
 62
7
  6
CONTINUOUS
 10
188.7946896992
 20
126.3617705621
 11
189.0446894608
 21
126.1064514213
  0
LINE
  5
408
100
AcDbEntity
  8
0
100
AcDbLine
 62
7
  6
CONTINUOUS
 10
169.9625617955
 20
148.6137121495
 11
169.7710724567
 21
148.9887120601
  0
LINE
  5
409
100
AcDbEntity
  8
0
100
AcDbLine
 62
7
  6
CONTINUOUS
 10
180.4196894608
 20
128.9149620601
 11
181.294689431
 21
126.2979407825
  0
LINE
  5
40A
100
AcDbEntity
  8
0
100
AcDbLine
 62
7
  6
CONTINUOUS
 10
180.0446894608
 20
128.9149620601
 11
181.0446894906
 21
125.9149620601
  0
LINE
  5
40B
100
AcDbEntity
  8
0
100
AcDbLine
 62
7
  6
CONTINUOUS
 10
171.4944767077
 20
152.4574622389
 11
171.5902213771
 21
152.0824620601
  0
LINE
  5
40C
100
AcDbEntity
  8
0
100
AcDbLine
 62
7
  6
CONTINUOUS
 10
171.4944767077
 20
156.9574617024
 11
171.5902213771
 21
156.5824620601
  0
LINE
  5
40D
100
AcDbEntity
  8
0
100
AcDbLine
 62
7
  6
CONTINUOUS
 10
172.1646894608
 20
152.0824620601
 11
172.068944783
 21
152.5512118812
  0
LINE
  5
40E
100
AcDbEntity
  8
0
100
AcDbLine
 62
7
  6
CONTINUOUS
 10
172.1646894608
 20
156.5824620601
 11
172.068944783
 21
157.0512124177
  0
LINE
  5
40F
100
AcDbEntity
  8
0
100
AcDbLine
 62
7
  6
CONTINUOUS
 10
178.1146894608
 20
140.9949620601
 11
178.1146894608
 21
136.6949620601
  0
LINE
  5
410
100
AcDbEntity
  8
0
100
AcDbLine
 62
7
  6
CONTINUOUS
 10
178.1146894608
 20
116.2949620601
 11
178.1146894608
 21
111.9949620601
  0
LINE
  5
411
100
AcDbEntity
  8
0
100
AcDbLine
 62
7
  6
CONTINUOUS
 10
171.1114979629
 20
150.3012121495
 11
171.4944767077
 21
150.4887122389
  0
LINE
  5
412
100
AcDbEntity
  8
0
100
AcDbLine
 62
7
  6
CONTINUOUS
 10
194.2096894608
 20
131.0979407825
 11
194.4596892224
 21
131.1617705621
  0
LINE
  5
413
100
AcDbEntity
  8
0
100
AcDbLine
 62
7
  6
CONTINUOUS
 10
191.2096894608
 20
131.0979407825
 11
191.45968958
 21
131.1617705621
  0
LINE
  5
414
100
AcDbEntity
  8
0
100
AcDbLine
 62
7
  6
CONTINUOUS
 10
191.2096894608
 20
130.7149620601
 11
191.5221893416
 21
130.7787918453
  0
LINE
  5
415
100
AcDbEntity
  8
0
100
AcDbLine
 62
7
  6
CONTINUOUS
 10
187.0846894608
 20
130.7149620601
 11
187.4596894608
 21
130.7149620601
  0
LINE
  5
416
100
AcDbEntity
  8
0
100
AcDbLine
 62
7
  6
CONTINUOUS
 10
189.0221894012
 20
130.7149620601
 11
189.4596895204
 21
130.7149620601
  0
LINE
  5
417
100
AcDbEntity
  8
0
100
AcDbLine
 62
7
  6
CONTINUOUS
 10
190.9596893416
 20
130.7149620601
 11
191.2096894608
 21
130.7149620601
  0
LINE
  5
418
100
AcDbEntity
  8
0
100
AcDbLine
 62
7
  6
CONTINUOUS
 10
192.7096894608
 20
130.7149620601
 11
194.2096894608
 21
130.7149620601
  0
LINE
  5
419
100
AcDbEntity
  8
0
100
AcDbLine
 62
7
  6
CONTINUOUS
 10
190.9596893416
 20
131.0979407825
 11
191.2096894608
 21
131.0979407825
  0
LINE
  5
41A
100
AcDbEntity
  8
0
100
AcDbLine
 62
7
  6
CONTINUOUS
 10
193.0846894608
 20
131.0979407825
 11
194.2096894608
 21
131.0979407825
  0
LINE
  5
41B
100
AcDbEntity
  8
0
100
AcDbLine
 62
7
  6
CONTINUOUS
 10
187.4596894608
 20
132.055387611
 11
188.522189431
 21
132.055387611
  0
LINE
  5
41C
100
AcDbEntity
  8
0
100
AcDbLine
 62
7
  6
CONTINUOUS
 10
187.4596894608
 20
132.4383662887
 11
188.6471894012
 21
132.4383662887
  0
LINE
  5
41D
100
AcDbEntity
  8
0
100
AcDbLine
 62
7
  6
CONTINUOUS
 10
193.0846894608
 20
133.3319833823
 11
194.2096894608
 21
133.3319833823
  0
LINE
  5
41E
100
AcDbEntity
  8
0
100
AcDbLine
 62
7
  6
CONTINUOUS
 10
187.4596894608
 20
133.3958131619
 11
188.6471894012
 21
133.3958131619
  0
LINE
  5
41F
100
AcDbEntity
  8
0
100
AcDbLine
 62
7
  6
CONTINUOUS
 10
187.0846894608
 20
133.7149620601
 11
188.5846894608
 21
133.7149620601
  0
LINE
  5
420
100
AcDbEntity
  8
0
100
AcDbLine
 62
7
  6
CONTINUOUS
 10
189.9596894012
 20
133.7149620601
 11
190.33468958
 21
133.7149620601
  0
LINE
  5
421
100
AcDbEntity
  8
0
100
AcDbLine
 62
7
  6
CONTINUOUS
 10
191.83468958
 20
133.7149620601
 11
192.20968958
 21
133.7149620601
  0
LINE
  5
422
100
AcDbEntity
  8
0
100
AcDbLine
 62
7
  6
CONTINUOUS
 10
192.7096894608
 20
133.7149620601
 11
194.2096894608
 21
133.7149620601
  0
LINE
  5
423
100
AcDbEntity
  8
0
100
AcDbLine
 62
7
  6
CONTINUOUS
 10
190.6471894608
 20
130.7787918453
 11
190.9596893416
 21
130.7149620601
  0
LINE
  5
424
100
AcDbEntity
  8
0
100
AcDbLine
 62
7
  6
CONTINUOUS
 10
202.5446894608
 20
128.9149620601
 11
202.857188984
 21
128.8511322804
  0
LINE
  5
425
100
AcDbEntity
  8
0
100
AcDbLine
 62
7
  6
CONTINUOUS
 10
188.5846894608
 20
133.7149620601
 11
188.8971895204
 21
133.6511322804
  0
LINE
  5
426
100
AcDbEntity
  8
0
100
AcDbLine
 62
7
  6
CONTINUOUS
 10
201.9821894608
 20
127.3192173906
 11
202.2321899377
 21
127.255387611
  0
LINE
  5
427
100
AcDbEntity
  8
0
100
AcDbLine
 62
7
  6
CONTINUOUS
 10
202.6071899377
 20
127.255387611
 11
202.857188984
 21
127.1915578314
  0
LINE
  5
428
100
AcDbEntity
  8
0
100
AcDbLine
 62
7
  6
CONTINUOUS
 10
190.70968958
 20
131.1617705621
 11
190.9596893416
 21
131.0979407825
  0
LINE
  5
429
100
AcDbEntity
  8
0
100
AcDbLine
 62
7
  6
CONTINUOUS
 10
194.4821894608
 20
128.5958131619
 11
194.6696894608
 21
128.5319833823
  0
LINE
  5
42A
100
AcDbEntity
  8
0
100
AcDbLine
 62
7
  6
CONTINUOUS
 10
202.0446899377
 20
127.7021960684
 11
202.2321899377
 21
127.6383662887
  0
LINE
  5
42B
100
AcDbEntity
  8
0
100
AcDbLine
 62
7
  6
CONTINUOUS
 10
202.6071899377
 20
128.5319833823
 11
202.7946899377
 21
128.4681536027
  0
LINE
  5
42C
100
AcDbEntity
  8
0
100
AcDbLine
 62
7
  6
CONTINUOUS
 10
188.6471894012
 20
133.3958131619
 11
188.8346894012
 21
133.3319833823
  0
LINE
  5
42D
100
AcDbEntity
  8
0
100
AcDbLine
 62
7
  6
CONTINUOUS
 10
198.919688984
 20
126.1064514213
 11
199.1696894608
 21
125.9787918453
  0
LINE
  5
42E
100
AcDbEntity
  8
0
100
AcDbLine
 62
7
  6
CONTINUOUS
 10
190.3971893416
 20
130.9064514213
 11
190.6471894608
 21
130.7787918453
  0
LINE
  5
42F
100
AcDbEntity
  8
0
100
AcDbLine
 62
7
  6
CONTINUOUS
 10
201.732188984
 20
127.4468769499
 11
201.9821894608
 21
127.3192173906
  0
LINE
  5
430
100
AcDbEntity
  8
0
100
AcDbLine
 62
7
  6
CONTINUOUS
 10
190.4196892224
 20
128.4681536027
 11
190.6071892224
 21
128.3404940434
  0
LINE
  5
431
100
AcDbEntity
  8
0
100
AcDbLine
 62
7
  6
CONTINUOUS
 10
190.52218958
 20
131.2894301661
 11
190.70968958
 21
131.1617705621
  0
LINE
  5
432
100
AcDbEntity
  8
0
100
AcDbLine
 62
7
  6
CONTINUOUS
 10
199.0446899377
 20
126.4894301661
 11
199.2321899377
 21
126.3617705621
  0
LINE
  5
433
100
AcDbEntity
  8
0
100
AcDbLine
 62
7
  6
CONTINUOUS
 10
169.2923491095
 20
148.7074620601
 11
169.4838384483
 21
148.5199619706
  0
LINE
  5
434
100
AcDbEntity
  8
0
100
AcDbLine
 62
7
  6
CONTINUOUS
 10
187.5446894608
 20
128.4681536027
 11
187.6696896992
 21
128.3404940434
  0
LINE
  5
435
100
AcDbEntity
  8
0
100
AcDbLine
 62
7
  6
CONTINUOUS
 10
190.7321894608
 20
128.7234727212
 11
190.9821892224
 21
128.4681536027
  0
LINE
  5
436
100
AcDbEntity
  8
0
100
AcDbLine
 62
7
  6
CONTINUOUS
 10
191.99718958
 20
121.4656003418
 11
192.18468958
 21
121.2102812009
  0
LINE
  5
437
100
AcDbEntity
  8
0
100
AcDbLine
 62
7
  6
CONTINUOUS
 10
187.8571896992
 20
127.3830471702
 11
188.0446896992
 21
127.1277280517
  0
LINE
  5
438
100
AcDbEntity
  8
0
100
AcDbLine
 62
7
  6
CONTINUOUS
 10
187.8571896992
 20
128.6596429416
 11
188.0446896992
 21
128.4043238231
  0
LINE
  5
439
100
AcDbEntity
  8
0
100
AcDbLine
 62
7
  6
CONTINUOUS
 10
193.8096894608
 20
122.6145365091
 11
193.9971894608
 21
122.3592173906
  0
LINE
  5
43A
100
AcDbEntity
  8
0
100
AcDbLine
 62
7
  6
CONTINUOUS
 10
171.3029873018
 20
152.7387122389
 11
171.4944767077
 21
152.4574622389
  0
LINE
  5
43B
100
AcDbEntity
  8
0
100
AcDbLine
 62
7
  6
CONTINUOUS
 10
189.1846894012
 20
121.4656003418
 11
189.3096894608
 21
121.2741110029
  0
LINE
  5
43C
100
AcDbEntity
  8
0
100
AcDbLine
 62
7
  6
CONTINUOUS
 10
191.1846894608
 20
122.3592173906
 11
191.3096893416
 21
122.1677280517
  0
LINE
  5
43D
100
AcDbEntity
  8
0
100
AcDbLine
 62
7
  6
CONTINUOUS
 10
190.87218958
 20
123.4443238231
 11
190.9971894608
 21
123.2528344842
  0
LINE
  5
43E
100
AcDbEntity
  8
0
100
AcDbLine
 62
7
  6
CONTINUOUS
 10
189.0446894608
 20
126.680919505
 11
189.1696896992
 21
126.4894301661
  0
LINE
  5
43F
100
AcDbEntity
  8
0
100
AcDbLine
 62
7
  6
CONTINUOUS
 10
172.068944783
 20
152.5512118812
 11
171.877455419
 21
152.9262120601
  0
LINE
  5
440
100
AcDbEntity
  8
0
100
AcDbLine
 62
7
  6
CONTINUOUS
 10
172.068944783
 20
157.0512124177
 11
171.877455419
 21
157.4262120601
  0
LINE
  5
441
100
AcDbEntity
  8
0
100
AcDbLine
 62
7
  6
CONTINUOUS
 10
189.4346895204
 20
121.6570897253
 11
189.4971894608
 21
121.5294301661
  0
LINE
  5
442
100
AcDbEntity
  8
0
100
AcDbLine
 62
7
  6
CONTINUOUS
 10
180.8646894608
 20
136.6949620601
 11
180.8646894608
 21
136.4949620601
  0
LINE
  5
443
100
AcDbEntity
  8
0
100
AcDbLine
 62
7
  6
CONTINUOUS
 10
180.8646894608
 20
116.4949620601
 11
180.8646894608
 21
116.2949620601
  0
LINE
  5
444
100
AcDbEntity
  8
BEZUGSACHSEN
100
AcDbLine
 62
7
  6
CONTINUOUS
 10
181.6146894608
 20
141.4949620601
 11
181.6146894608
 21
148.4949620637
  0
LINE
  5
445
100
AcDbEntity
  8
BEZUGSACHSEN
100
AcDbLine
 62
7
  6
CONTINUOUS
 10
182.5146894608
 20
140.9949620601
 11
182.5146894608
 21
141.4949620601
  0
LINE
  5
446
100
AcDbEntity
  8
0
100
AcDbLine
 62
7
  6
CONTINUOUS
 10
183.0446894608
 20
125.9149620601
 11
183.0446894608
 21
128.9149620601
  0
LINE
  5
447
100
AcDbEntity
  8
KONSTRUKTIONSELEMENTE
100
AcDbLine
 62
7
  6
CONTINUOUS
 10
183.0655586553
 20
148.4949620601
 11
183.0655586553
 21
148.6949620601
  0
LINE
  5
448
100
AcDbEntity
  8
KONSTRUKTIONSELEMENTE
100
AcDbLine
 62
7
  6
CONTINUOUS
 10
183.0934150291
 20
148.4949620601
 11
183.0934150291
 21
148.6949620601
  0
LINE
  5
449
100
AcDbEntity
  8
KONSTRUKTIONSELEMENTE
100
AcDbLine
 62
7
  6
CONTINUOUS
 10
183.1862696081
 20
148.4949620601
 11
183.1862696081
 21
148.6949620601
  0
LINE
  5
44A
100
AcDbEntity
  8
KONSTRUKTIONSELEMENTE
100
AcDbLine
 62
7
  6
CONTINUOUS
 10
183.2141259818
 20
148.4949620601
 11
183.2141259818
 21
148.6949620601
  0
LINE
  5
44B
100
AcDbEntity
  8
0
100
AcDbLine
 62
7
  6
CONTINUOUS
 10
183.4196894608
 20
126.2979407825
 11
183.4196894608
 21
128.9149620601
  0
LINE
  5
44C
100
AcDbEntity
  8
0
100
AcDbLine
 62
7
  6
CONTINUOUS
 10
172.1646894608
 20
149.4574621495
 11
169.9625617955
 21
148.6137121495
  0
LINE
  5
44D
100
AcDbEntity
  8
0
100
AcDbLine
 62
7
  6
CONTINUOUS
 10
170.1540511344
 20
148.0512120154
 11
172.1646894608
 21
148.8012119706
  0
LINE
  5
44E
100
AcDbEntity
  8
0
100
AcDbLine
 62
7
  6
CONTINUOUS
 10
168.7178808246
 20
149.3637119706
 11
168.4306468163
 21
149.2699620601
  0
LINE
  5
44F
100
AcDbEntity
  8
0
100
AcDbLine
 62
7
  6
CONTINUOUS
 10
168.4306468163
 20
148.7074620601
 11
168.7178808246
 21
148.8012119706
  0
LINE
  5
450
100
AcDbEntity
  8
RUNDUNGEN
100
AcDbLine
 62
7
  6
CONTINUOUS
 10
176.6146894608
 20
136.4949620601
 11
205.6146894608
 21
136.4949620601
  0
LINE
  5
451
100
AcDbEntity
  8
0
100
AcDbLine
 62
7
  6
CONTINUOUS
 10
178.11527358
 20
136.6949620601
 11
204.1141053416
 21
136.6949620601
  0
LINE
  5
452
100
AcDbEntity
  8
0
100
AcDbLine
 62
7
  6
CONTINUOUS
 10
194.2096894608
 20
133.7149620601
 11
194.5221896992
 21
133.6511322804
  0
LINE
  5
453
100
AcDbEntity
  8
0
100
AcDbLine
 62
7
  6
CONTINUOUS
 10
194.2096894608
 20
133.3319833823
 11
194.4596892224
 21
133.2681536027
  0
LINE
  5
454
100
AcDbEntity
  8
0
100
AcDbLine
 62
7
  6
CONTINUOUS
 10
202.9196894608
 20
127.5745365091
 11
203.1696899377
 21
127.4468769499
  0
LINE
  5
455
100
AcDbEntity
  8
0
100
AcDbLine
 62
7
  6
CONTINUOUS
 10
194.5221896992
 20
133.6511322804
 11
194.7721894608
 21
133.5234727212
  0
LINE
  5
456
100
AcDbEntity
  8
0
100
AcDbLine
 62
7
  6
CONTINUOUS
 10
201.4821899377
 20
126.1702812009
 11
201.7946894608
 21
125.9787918453
  0
LINE
  5
457
100
AcDbEntity
  8
0
100
AcDbLine
 62
7
  6
CONTINUOUS
 10
201.8571899377
 20
127.8298556276
 11
202.0446899377
 21
127.7021960684
  0
LINE
  5
458
100
AcDbEntity
  8
0
100
AcDbLine
 62
7
  6
CONTINUOUS
 10
202.857188984
 20
127.1915578314
 11
203.044688984
 21
127.0638982721
  0
LINE
  5
459
100
AcDbEntity
  8
0
100
AcDbLine
 62
7
  6
CONTINUOUS
 10
194.4596892224
 20
133.2681536027
 11
194.6471892224
 21
133.1404940434
  0
LINE
  5
45A
100
AcDbEntity
  8
0
100
AcDbLine
 62
7
  6
CONTINUOUS
 10
169.7710724567
 20
148.9887120601
 11
169.3880937789
 21
149.2699620601
  0
LINE
  5
45B
100
AcDbEntity
  8
0
100
AcDbLine
 62
7
  6
CONTINUOUS
 10
194.7321899377
 20
128.8511322804
 11
194.982188984
 21
128.6596429416
  0
LINE
  5
45C
100
AcDbEntity
  8
0
100
AcDbLine
 62
7
  6
CONTINUOUS
 10
188.8971895204
 20
133.6511322804
 11
189.1471894608
 21
133.4596429416
  0
LINE
  5
45D
100
AcDbEntity
  8
0
100
AcDbLine
 62
7
  6
CONTINUOUS
 10
171.877455419
 20
152.9262120601
 11
171.4944767077
 21
153.3012122389
  0
LINE
  5
45E
100
AcDbEntity
  8
0
100
AcDbLine
 62
7
  6
CONTINUOUS
 10
190.14718958
 20
131.1617705621
 11
190.3971893416
 21
130.9064514213
  0
LINE
  5
45F
100
AcDbEntity
  8
0
100
AcDbLine
 62
7
  6
CONTINUOUS
 10
188.8346894012
 20
133.3319833823
 11
188.9596894608
 21
133.2043238231
  0
LINE
  5
460
100
AcDbEntity
  8
0
100
AcDbLine
 62
7
  6
CONTINUOUS
 10
194.6696894608
 20
128.5319833823
 11
194.794688984
 21
128.4043238231
  0
LINE
  5
461
100
AcDbEntity
  8
0
100
AcDbLine
 62
7
  6
CONTINUOUS
 10
198.6696899377
 20
126.3617705621
 11
198.919688984
 21
126.1064514213
  0
LINE
  5
462
100
AcDbEntity
  8
0
100
AcDbLine
 62
7
  6
CONTINUOUS
 10
189.1471894608
 20
133.4596429416
 11
189.3346894608
 21
133.2043238231
  0
LINE
  5
463
100
AcDbEntity
  8
0
100
AcDbLine
 62
7
  6
CONTINUOUS
 10
171.3029873018
 20
157.2387117024
 11
171.4944767077
 21
156.9574617024
  0
LINE
  5
464
100
AcDbEntity
  8
0
100
AcDbLine
 62
7
  6
CONTINUOUS
 10
193.6221894608
 20
122.3592173906
 11
193.7471896992
 21
122.1677280517
  0
LINE
  5
465
100
AcDbEntity
  8
0
100
AcDbLine
 62
7
  6
CONTINUOUS
 10
190.3971893416
 20
131.480919505
 11
190.52218958
 21
131.2894301661
  0
LINE
  5
466
100
AcDbEntity
  8
0
100
AcDbLine
 62
7
  6
CONTINUOUS
 10
188.6696894608
 20
126.6170897253
 11
188.7946896992
 21
126.3617705621
  0
LINE
  5
467
100
AcDbEntity
  8
0
100
AcDbLine
 62
7
  6
CONTINUOUS
 10
190.9346893416
 20
122.1677280517
 11
191.05968958
 21
121.9124088438
  0
LINE
  5
468
100
AcDbEntity
  8
0
100
AcDbLine
 62
7
  6
CONTINUOUS
 10
191.8721893416
 20
121.720919505
 11
191.99718958
 21
121.4656003418
  0
LINE
  5
469
100
AcDbEntity
  8
0
100
AcDbLine
 62
7
  6
CONTINUOUS
 10
192.2471893416
 20
121.720919505
 11
192.37218958
 21
121.4656003418
  0
LINE
  5
46A
100
AcDbEntity
  8
0
100
AcDbLine
 62
7
  6
CONTINUOUS
 10
189.1221894608
 20
121.6570897253
 11
189.1846894012
 21
121.4656003418
  0
LINE
  5
46B
100
AcDbEntity
  8
0
100
AcDbLine
 62
7
  6
CONTINUOUS
 10
187.6696896992
 20
127.0638982721
 11
187.7321894608
 21
126.8724088438
  0
LINE
  5
46C
100
AcDbEntity
  8
0
100
AcDbLine
 62
7
  6
CONTINUOUS
 10
188.0446896992
 20
127.1277280517
 11
188.1071894608
 21
126.9362386235
  0
LINE
  5
46D
100
AcDbEntity
  8
0
100
AcDbLine
 62
7
  6
CONTINUOUS
 10
187.6696896992
 20
128.3404940434
 11
187.7321894608
 21
128.1490045257
  0
LINE
  5
46E
100
AcDbEntity
  8
0
100
AcDbLine
 62
7
  6
CONTINUOUS
 10
188.0446896992
 20
128.4043238231
 11
188.1071894608
 21
128.2128344842
  0
LINE
  5
46F
100
AcDbEntity
  8
BEZUGSACHSEN
100
AcDbLine
 62
7
  6
CONTINUOUS
 10
185.1146894608
 20
95.1949620601
 11
185.1146894608
 21
111.9949620601
  0
LINE
  5
470
100
AcDbEntity
  8
KONSTRUKTIONSELEMENTE
100
AcDbLine
 62
7
  6
CONTINUOUS
 10
185.233152448
 20
148.4949620601
 11
185.233152448
 21
148.6949620601
  0
LINE
  5
471
100
AcDbEntity
  8
KONSTRUKTIONSELEMENTE
100
AcDbLine
 62
7
  6
CONTINUOUS
 10
185.2691837106
 20
148.4949620601
 11
185.2691837106
 21
148.6949620601
  0
LINE
  5
472
100
AcDbEntity
  8
0
100
AcDbLine
 62
7
  6
CONTINUOUS
 10
185.2946894608
 20
125.9149620601
 11
185.2946894608
 21
126.2979407825
  0
LINE
  5
473
100
AcDbEntity
  8
KONSTRUKTIONSELEMENTE
100
AcDbLine
 62
7
  6
CONTINUOUS
 10
185.3704065974
 20
148.4949620601
 11
185.3704065974
 21
148.6949620601
  0
LINE
  5
474
100
AcDbEntity
  8
0
100
AcDbLine
 62
7
  6
CONTINUOUS
 10
185.7946893416
 20
125.9149620601
 11
185.7946893416
 21
128.9149620601
  0
LINE
  5
475
100
AcDbEntity
  8
KONSTRUKTIONSELEMENTE
100
AcDbLine
 62
7
  6
CONTINUOUS
 10
186.0360633722
 20
148.4949620601
 11
186.0360633722
 21
148.6949620601
  0
LINE
  5
476
100
AcDbEntity
  8
0
100
AcDbLine
 62
7
  6
CONTINUOUS
 10
186.1696896992
 20
126.2979407825
 11
186.1696896992
 21
127.255387611
  0
LINE
  5
477
100
AcDbEntity
  8
0
100
AcDbLine
 62
7
  6
CONTINUOUS
 10
186.1696896992
 20
127.6383662887
 11
186.1696896992
 21
128.5319833823
  0
LINE
  5
478
100
AcDbEntity
  8
0
100
AcDbLine
 62
7
  6
CONTINUOUS
 10
186.6846894608
 20
122.9975151869
 11
186.6846894608
 21
123.5081536027
  0
LINE
  5
479
100
AcDbEntity
  8
KONSTRUKTIONSELEMENTE
100
AcDbLine
 62
7
  6
CONTINUOUS
 10
186.9705274703
 20
148.4949620601
 11
186.9705274703
 21
148.6949620601
  0
LINE
  5
47A
100
AcDbEntity
  8
0
100
AcDbLine
 62
7
  6
CONTINUOUS
 10
187.0596894608
 20
120.9549620601
 11
187.0596894608
 21
123.4443238231
  0
LINE
  5
47B
100
AcDbEntity
  8
0
100
AcDbLine
 62
7
  6
CONTINUOUS
 10
187.0846894608
 20
130.7149620601
 11
187.0846894608
 21
133.7149620601
  0
LINE
  5
47C
100
AcDbEntity
  8
KONSTRUKTIONSELEMENTE
100
AcDbLine
 62
7
  6
CONTINUOUS
 10
187.1811041944
 20
148.4949620601
 11
187.1811041944
 21
148.6949620601
  0
LINE
  5
47D
100
AcDbEntity
  8
0
100
AcDbLine
 62
7
  6
CONTINUOUS
 10
187.4346894608
 20
120.9549620601
 11
187.4346894608
 21
123.9549620601
  0
LINE
  5
47E
100
AcDbEntity
  8
0
100
AcDbLine
 62
7
  6
CONTINUOUS
 10
187.4596894608
 20
130.7149620601
 11
187.4596894608
 21
132.055387611
  0
LINE
  5
47F
100
AcDbEntity
  8
0
100
AcDbLine
 62
7
  6
CONTINUOUS
 10
187.4596894608
 20
132.4383662887
 11
187.4596894608
 21
133.3958131619
  0
LINE
  5
480
100
AcDbEntity
  8
0
100
AcDbLine
 62
7
  6
CONTINUOUS
 10
187.7321894608
 20
126.680919505
 11
187.7321894608
 21
126.8724088438
  0
LINE
  5
481
100
AcDbEntity
  8
0
100
AcDbLine
 62
7
  6
CONTINUOUS
 10
187.7321894608
 20
128.0213449665
 11
187.7321894608
 21
128.1490045257
  0
LINE
  5
482
100
AcDbEntity
  8
0
100
AcDbLine
 62
7
  6
CONTINUOUS
 10
167.1146894608
 20
139.4949620601
 11
172.7604407719
 21
139.4949620601
  0
LINE
  5
483
100
AcDbEntity
  8
0
100
AcDbLine
 62
7
  6
CONTINUOUS
 10
209.4689381498
 20
139.4949620601
 11
215.1146894608
 21
139.4949620601
  0
LINE
  5
484
100
AcDbEntity
  8
0
100
AcDbLine
 62
7
  6
CONTINUOUS
 10
178.11527358
 20
140.9949620601
 11
204.1141053416
 21
140.9949620601
  0
LINE
  5
485
100
AcDbEntity
  8
KONSTRUKTIONSELEMENTE
100
AcDbLine
 62
7
  6
CONTINUOUS
 10
181.6146894608
 20
141.4949620601
 11
200.6146894608
 21
141.4949620601
  0
LINE
  5
486
100
AcDbEntity
  8
0
100
AcDbLine
 62
7
  6
CONTINUOUS
 10
169.0051151012
 20
148.8012119706
 11
169.2923491095
 21
148.7074620601
  0
LINE
  5
487
100
AcDbEntity
  8
0
100
AcDbLine
 62
7
  6
CONTINUOUS
 10
171.0157532935
 20
152.9262120601
 11
171.3029873018
 21
152.7387122389
  0
LINE
  5
488
100
AcDbEntity
  8
0
100
AcDbLine
 62
7
  6
CONTINUOUS
 10
202.857188984
 20
128.8511322804
 11
203.1071894608
 21
128.6596429416
  0
LINE
  5
489
100
AcDbEntity
  8
0
100
AcDbLine
 62
7
  6
CONTINUOUS
 10
171.877455419
 20
157.4262120601
 11
171.4944767077
 21
157.8012117024
  0
LINE
  5
48A
100
AcDbEntity
  8
0
100
AcDbLine
 62
7
  6
CONTINUOUS
 10
194.7721894608
 20
133.5234727212
 11
195.0221892224
 21
133.2681536027
  0
LINE
  5
48B
100
AcDbEntity
  8
0
100
AcDbLine
 62
7
  6
CONTINUOUS
 10
201.6696899377
 20
126.5532599457
 11
201.8571899377
 21
126.3617705621
  0
LINE
  5
48C
100
AcDbEntity
  8
0
100
AcDbLine
 62
7
  6
CONTINUOUS
 10
201.4821899377
 20
127.7021960684
 11
201.732188984
 21
127.4468769499
  0
LINE
  5
48D
100
AcDbEntity
  8
0
100
AcDbLine
 62
7
  6
CONTINUOUS
 10
203.1696899377
 20
127.4468769499
 11
203.419688984
 21
127.1915578314
  0
LINE
  5
48E
100
AcDbEntity
  8
0
100
AcDbLine
 62
7
  6
CONTINUOUS
 10
202.7946899377
 20
128.4681536027
 11
202.9196894608
 21
128.3404940434
  0
LINE
  5
48F
100
AcDbEntity
  8
0
100
AcDbLine
 62
7
  6
CONTINUOUS
 10
194.982188984
 20
128.6596429416
 11
195.169688984
 21
128.4043238231
  0
LINE
  5
490
100
AcDbEntity
  8
0
100
AcDbLine
 62
7
  6
CONTINUOUS
 10
194.6471892224
 20
133.1404940434
 11
194.7721894608
 21
132.9490045257
  0
LINE
  5
491
100
AcDbEntity
  8
0
100
AcDbLine
 62
7
  6
CONTINUOUS
 10
198.919688984
 20
126.680919505
 11
199.0446899377
 21
126.4894301661
  0
LINE
  5
492
100
AcDbEntity
  8
0
100
AcDbLine
 62
7
  6
CONTINUOUS
 10
190.0221895204
 20
131.4170897253
 11
190.14718958
 21
131.1617705621
  0
LINE
  5
493
100
AcDbEntity
  8
0
100
AcDbLine
 62
7
  6
CONTINUOUS
 10
195.1221894608
 20
121.4656003418
 11
195.2471896992
 21
121.2102812009
  0
LINE
  5
494
100
AcDbEntity
  8
0
100
AcDbLine
 62
7
  6
CONTINUOUS
 10
193.9971894608
 20
122.3592173906
 11
194.1221896992
 21
122.0400684031
  0
LINE
  5
495
100
AcDbEntity
  8
0
100
AcDbLine
 62
7
  6
CONTINUOUS
 10
188.8971895204
 20
132.1830471702
 11
189.4596895204
 21
130.7149620601
  0
LINE
  5
496
100
AcDbEntity
  8
0
100
AcDbLine
 62
7
  6
CONTINUOUS
 10
188.522189431
 20
132.055387611
 11
189.0221894012
 21
130.7149620601
  0
LINE
  5
497
100
AcDbEntity
  8
0
100
AcDbLine
 62
7
  6
CONTINUOUS
 10
188.9596894608
 20
133.2043238231
 11
189.0221894012
 21
133.0128344842
  0
LINE
  5
498
100
AcDbEntity
  8
0
100
AcDbLine
 62
7
  6
CONTINUOUS
 10
190.6071892224
 20
128.3404940434
 11
190.6696896992
 21
128.1490045257
  0
LINE
  5
499
100
AcDbEntity
  8
0
100
AcDbLine
 62
7
  6
CONTINUOUS
 10
189.3346894608
 20
133.2043238231
 11
189.3971894012
 21
133.0128344842
  0
LINE
  5
49A
100
AcDbEntity
  8
0
100
AcDbLine
 62
7
  6
CONTINUOUS
 10
193.7471896992
 20
122.1677280517
 11
193.8096894608
 21
121.9762386235
  0
LINE
  5
49B
100
AcDbEntity
  8
0
100
AcDbLine
 62
7
  6
CONTINUOUS
 10
188.9821896992
 20
126.9362386235
 11
189.0446894608
 21
126.680919505
  0
LINE
  5
49C
100
AcDbEntity
  8
0
100
AcDbLine
 62
7
  6
CONTINUOUS
 10
191.3096893416
 20
122.1677280517
 11
191.3721894608
 21
121.9124088438
  0
LINE
  5
49D
100
AcDbEntity
  8
0
100
AcDbLine
 62
7
  6
CONTINUOUS
 10
191.24718958
 20
123.5081536027
 11
191.3096893416
 21
123.2528344842
  0
LINE
  5
49E
100
AcDbEntity
  8
0
100
AcDbLine
 62
7
  6
CONTINUOUS
 10
190.33468958
 20
131.7362386235
 11
190.3971893416
 21
131.480919505
  0
LINE
  5
49F
100
AcDbEntity
  8
0
100
AcDbLine
 62
7
  6
CONTINUOUS
 10
188.6071896992
 20
126.9362386235
 11
188.6696894608
 21
126.6170897253
  0
LINE
  5
4A0
100
AcDbEntity
  8
0
100
AcDbLine
 62
7
  6
CONTINUOUS
 10
189.9596894012
 20
131.7362386235
 11
190.0221895204
 21
131.4170897253
  0
LINE
  5
4A1
100
AcDbEntity
  8
0
100
AcDbLine
 62
7
  6
CONTINUOUS
 10
190.9821892224
 20
128.4681536027
 11
191.0446896992
 21
128.1490045257
  0
LINE
  5
4A2
100
AcDbEntity
  8
KONSTRUKTIONSELEMENTE
100
AcDbLine
 62
7
  6
CONTINUOUS
 10
187.9050761797
 20
148.4949620601
 11
187.9050761797
 21
148.6949620601
  0
LINE
  5
4A3
100
AcDbEntity
  8
KONSTRUKTIONSELEMENTE
100
AcDbLine
 62
7
  6
CONTINUOUS
 10
188.0234110908
 20
148.4949620601
 11
188.0234110908
 21
148.6949620601
  0
LINE
  5
4A4
100
AcDbEntity
  8
0
100
AcDbLine
 62
7
  6
CONTINUOUS
 10
188.1071894608
 20
126.6170897253
 11
188.1071894608
 21
126.9362386235
  0
LINE
  5
4A5
100
AcDbEntity
  8
0
100
AcDbLine
 62
7
  6
CONTINUOUS
 10
188.1071894608
 20
127.9575151869
 11
188.1071894608
 21
128.2128344842
  0
LINE
  5
4A6
100
AcDbEntity
  8
KONSTRUKTIONSELEMENTE
100
AcDbLine
 62
7
  6
CONTINUOUS
 10
188.2339879153
 20
148.4949620601
 11
188.2339879153
 21
148.6949620601
  0
LINE
  5
4A7
100
AcDbEntity
  8
0
100
AcDbLine
 62
7
  6
CONTINUOUS
 10
188.6071896992
 20
126.9362386235
 11
188.6071896992
 21
127.8936854072
  0
LINE
  5
4A8
100
AcDbEntity
  8
KONSTRUKTIONSELEMENTE
100
AcDbLine
 62
7
  6
CONTINUOUS
 10
188.9579599006
 20
148.4949620601
 11
188.9579599006
 21
148.6949620601
  0
LINE
  5
4A9
100
AcDbEntity
  8
0
100
AcDbLine
 62
7
  6
CONTINUOUS
 10
188.9821896992
 20
126.9362386235
 11
188.9821896992
 21
127.8936854072
  0
LINE
  5
4AA
100
AcDbEntity
  8
0
100
AcDbLine
 62
7
  6
CONTINUOUS
 10
189.0221894012
 20
132.8213449665
 11
189.0221894012
 21
133.0128344842
  0
LINE
  5
4AB
100
AcDbEntity
  8
KONSTRUKTIONSELEMENTE
100
AcDbLine
 62
7
  6
CONTINUOUS
 10
189.0396333722
 20
148.4949620601
 11
189.0396333722
 21
148.6949620601
  0
LINE
  5
4AC
100
AcDbEntity
  8
KONSTRUKTIONSELEMENTE
100
AcDbLine
 62
7
  6
CONTINUOUS
 10
189.0628568411
 20
148.4949620601
 11
189.0628568411
 21
148.6949620601
  0
LINE
  5
4AD
100
AcDbEntity
  8
0
100
AcDbLine
 62
7
  6
CONTINUOUS
 10
189.3971894012
 20
132.7575151869
 11
189.3971894012
 21
133.0128344842
  0
LINE
  5
4AE
100
AcDbEntity
  8
KONSTRUKTIONSELEMENTE
100
AcDbLine
 62
7
  6
CONTINUOUS
 10
189.420401239
 20
148.4949620601
 11
189.420401239
 21
148.6949620601
  0
LINE
  5
4AF
100
AcDbEntity
  8
KONSTRUKTIONSELEMENTE
100
AcDbLine
 62
7
  6
CONTINUOUS
 10
189.437640393
 20
148.4949620601
 11
189.437640393
 21
148.6949620601
  0
LINE
  5
4B0
100
AcDbEntity
  8
KONSTRUKTIONSELEMENTE
100
AcDbLine
 62
7
  6
CONTINUOUS
 10
189.525138284
 20
148.4949620601
 11
189.525138284
 21
148.6949620601
  0
LINE
  5
4B1
100
AcDbEntity
  8
KONSTRUKTIONSELEMENTE
100
AcDbLine
 62
7
  6
CONTINUOUS
 10
189.6584995837
 20
148.4949620601
 11
189.6584995837
 21
148.6949620601
  0
LINE
  5
4B2
100
AcDbEntity
  8
KONSTRUKTIONSELEMENTE
100
AcDbLine
 62
7
  6
CONTINUOUS
 10
189.8448804664
 20
148.4949620601
 11
189.8448804664
 21
148.6949620601
  0
LINE
  5
4B3
100
AcDbEntity
  8
0
100
AcDbLine
 62
7
  6
CONTINUOUS
 10
189.9596894012
 20
131.7362386235
 11
189.9596894012
 21
133.7149620601
  0
LINE
  5
4B4
100
AcDbEntity
  8
0
100
AcDbLine
 62
7
  6
CONTINUOUS
 10
190.1071896992
 20
127.1915578314
 11
190.1071896992
 21
127.5745365091
  0
LINE
  5
4B5
100
AcDbEntity
  8
0
100
AcDbLine
 62
7
  6
CONTINUOUS
 10
190.12218958
 20
122.3592173906
 11
190.12218958
 21
122.6145365091
  0
LINE
  5
4B6
100
AcDbEntity
  8
0
100
AcDbLine
 62
7
  6
CONTINUOUS
 10
190.33468958
 20
131.7362386235
 11
190.33468958
 21
133.7149620601
  0
LINE
  5
4B7
100
AcDbEntity
  8
0
100
AcDbLine
 62
7
  6
CONTINUOUS
 10
190.6696896992
 20
126.680919505
 11
190.6696896992
 21
127.1915578314
  0
LINE
  5
4B8
100
AcDbEntity
  8
KONSTRUKTIONSELEMENTE
100
AcDbLine
 62
7
  6
CONTINUOUS
 10
190.7738576317
 20
148.4949620601
 11
190.7738576317
 21
148.6949620601
  0
LINE
  5
4B9
100
AcDbEntity
  8
0
100
AcDbLine
 62
7
  6
CONTINUOUS
 10
190.9971894608
 20
123.1251747461
 11
190.9971894608
 21
123.2528344842
  0
LINE
  5
4BA
100
AcDbEntity
  8
0
100
AcDbLine
 62
7
  6
CONTINUOUS
 10
191.0446896992
 20
126.6170897253
 11
191.0446896992
 21
127.5745365091
  0
LINE
  5
4BB
100
AcDbEntity
  8
0
100
AcDbLine
 62
7
  6
CONTINUOUS
 10
191.05968958
 20
121.6570897253
 11
191.05968958
 21
121.9124088438
  0
LINE
  5
4BC
100
AcDbEntity
  8
KONSTRUKTIONSELEMENTE
100
AcDbLine
 62
7
  6
CONTINUOUS
 10
191.110192664
 20
148.4949620601
 11
191.110192664
 21
148.6949620601
  0
LINE
  5
4BD
100
AcDbEntity
  8
BEZUGSACHSEN
100
AcDbLine
 62
7
  6
CONTINUOUS
 10
191.1146894608
 20
141.4949620601
 11
191.1146894608
 21
147.646456284
  0
LINE
  5
4BE
100
AcDbEntity
  8
0
100
AcDbLine
 62
7
  6
CONTINUOUS
 10
191.3096893416
 20
123.1251747461
 11
191.3096893416
 21
123.2528344842
  0
LINE
  5
4BF
100
AcDbEntity
  8
0
100
AcDbLine
 62
7
  6
CONTINUOUS
 10
191.3721894608
 20
121.6570897253
 11
191.3721894608
 21
121.9124088438
  0
LINE
  5
4C0
100
AcDbEntity
  8
0
100
AcDbLine
 62
7
  6
CONTINUOUS
 10
191.5446892224
 20
127.0000684031
 11
191.5446892224
 21
127.3192173906
  0
LINE
  5
4C1
100
AcDbEntity
  8
0
100
AcDbLine
 62
7
  6
CONTINUOUS
 10
181.5446894608
 20
125.9149620601
 11
182.5446894012
 21
128.9149620601
  0
LINE
  5
4C2
100
AcDbEntity
  8
0
100
AcDbLine
 62
7
  6
CONTINUOUS
 10
181.294689431
 20
126.2979407825
 11
182.1696894012
 21
128.9149620601
  0
LINE
  5
4C3
100
AcDbEntity
  8
0
100
AcDbLine
 62
7
  6
CONTINUOUS
 10
169.3880937789
 20
149.2699620601
 11
169.1008597706
 21
149.3637119706
  0
LINE
  5
4C4
100
AcDbEntity
  8
0
100
AcDbLine
 62
7
  6
CONTINUOUS
 10
171.4944767077
 20
153.3012122389
 11
171.1114979629
 21
153.4887120601
  0
LINE
  5
4C5
100
AcDbEntity
  8
0
100
AcDbLine
 62
7
  6
CONTINUOUS
 10
171.0157532935
 20
157.4262120601
 11
171.3029873018
 21
157.2387117024
  0
LINE
  5
4C6
100
AcDbEntity
  8
0
100
AcDbLine
 62
7
  6
CONTINUOUS
 10
203.1071894608
 20
128.6596429416
 11
203.2946894608
 21
128.4043238231
  0
LINE
  5
4C7
100
AcDbEntity
  8
0
100
AcDbLine
 62
7
  6
CONTINUOUS
 10
203.044688984
 20
127.0638982721
 11
203.1696899377
 21
126.8724088438
  0
LINE
  5
4C8
100
AcDbEntity
  8
0
100
AcDbLine
 62
7
  6
CONTINUOUS
 10
201.2946899377
 20
126.4894301661
 11
201.4821899377
 21
126.1702812009
  0
LINE
  5
4C9
100
AcDbEntity
  8
0
100
AcDbLine
 62
7
  6
CONTINUOUS
 10
195.0221892224
 20
133.2681536027
 11
195.1471894608
 21
133.0128344842
  0
LINE
  5
4CA
100
AcDbEntity
  8
0
100
AcDbLine
 62
7
  6
CONTINUOUS
 10
198.544688984
 20
126.6170897253
 11
198.6696899377
 21
126.3617705621
  0
LINE
  5
4CB
100
AcDbEntity
  8
0
100
AcDbLine
 62
7
  6
CONTINUOUS
 10
195.4346896992
 20
121.5932599457
 11
195.4971894608
 21
121.4017705621
  0
LINE
  5
4CC
100
AcDbEntity
  8
0
100
AcDbLine
 62
7
  6
CONTINUOUS
 10
194.794688984
 20
128.4043238231
 11
194.8571894608
 21
128.2128344842
  0
LINE
  5
4CD
100
AcDbEntity
  8
0
100
AcDbLine
 62
7
  6
CONTINUOUS
 10
195.169688984
 20
128.4043238231
 11
195.2321894608
 21
128.2128344842
  0
LINE
  5
4CE
100
AcDbEntity
  8
0
100
AcDbLine
 62
7
  6
CONTINUOUS
 10
191.83468958
 20
131.7362386235
 11
191.83468958
 21
133.7149620601
  0
LINE
  5
4CF
100
AcDbEntity
  8
0
100
AcDbLine
 62
7
  6
CONTINUOUS
 10
191.8721893416
 20
122.295387611
 11
191.8721893416
 21
123.9549620601
  0
LINE
  5
4D0
100
AcDbEntity
  8
0
100
AcDbLine
 62
7
  6
CONTINUOUS
 10
192.18468958
 20
122.6145365091
 11
192.18468958
 21
123.6358131619
  0
LINE
  5
4D1
100
AcDbEntity
  8
0
100
AcDbLine
 62
7
  6
CONTINUOUS
 10
192.20968958
 20
131.7362386235
 11
192.20968958
 21
133.7149620601
  0
LINE
  5
4D2
100
AcDbEntity
  8
0
100
AcDbLine
 62
7
  6
CONTINUOUS
 10
192.4196894608
 20
127.0000684031
 11
192.4196894608
 21
127.3192173906
  0
LINE
  5
4D3
100
AcDbEntity
  8
0
100
AcDbLine
 62
7
  6
CONTINUOUS
 10
192.7096894608
 20
130.7149620601
 11
192.7096894608
 21
133.7149620601
  0
LINE
  5
4D4
100
AcDbEntity
  8
0
100
AcDbLine
 62
7
  6
CONTINUOUS
 10
192.919688984
 20
125.9149620601
 11
192.919688984
 21
128.9149620601
  0
LINE
  5
4D5
100
AcDbEntity
  8
0
100
AcDbLine
 62
7
  6
CONTINUOUS
 10
193.0846894608
 20
131.0979407825
 11
193.0846894608
 21
133.3319833823
  0
LINE
  5
4D6
100
AcDbEntity
  8
0
100
AcDbLine
 62
7
  6
CONTINUOUS
 10
193.294688984
 20
125.9149620601
 11
193.294688984
 21
127.255387611
  0
LINE
  5
4D7
100
AcDbEntity
  8
0
100
AcDbLine
 62
7
  6
CONTINUOUS
 10
193.294688984
 20
127.6383662887
 11
193.294688984
 21
128.5958131619
  0
LINE
  5
4D8
100
AcDbEntity
  8
0
100
AcDbLine
 62
7
  6
CONTINUOUS
 10
193.8096894608
 20
121.8485790642
 11
193.8096894608
 21
121.9762386235
  0
LINE
  5
4D9
100
AcDbEntity
  8
0
100
AcDbLine
 62
7
  6
CONTINUOUS
 10
193.9971894608
 20
123.6358131619
 11
193.9971894608
 21
123.9549620601
  0
LINE
  5
4DA
100
AcDbEntity
  8
0
100
AcDbLine
 62
7
  6
CONTINUOUS
 10
194.1221896992
 20
121.7847492846
 11
194.1221896992
 21
122.0400684031
  0
LINE
  5
4DB
100
AcDbEntity
  8
0
100
AcDbLine
 62
7
  6
CONTINUOUS
 10
194.6221892224
 20
122.7421960684
 11
194.6221892224
 21
122.9975151869
  0
LINE
  5
4DC
100
AcDbEntity
  8
0
100
AcDbLine
 62
7
  6
CONTINUOUS
 10
194.8346892224
 20
131.7362386235
 11
194.8346892224
 21
132.6936854072
  0
LINE
  5
4DD
100
AcDbEntity
  8
0
100
AcDbLine
 62
7
  6
CONTINUOUS
 10
194.8571894608
 20
128.0213449665
 11
194.8571894608
 21
128.2128344842
  0
LINE
  5
4DE
100
AcDbEntity
  8
0
100
AcDbLine
 62
7
  6
CONTINUOUS
 10
195.1221894608
 20
121.4656003418
 11
195.1221894608
 21
122.7421960684
  0
LINE
  5
4DF
100
AcDbEntity
  8
0
100
AcDbLine
 62
7
  6
CONTINUOUS
 10
195.1221894608
 20
122.9975151869
 11
195.1221894608
 21
123.5081536027
  0
LINE
  5
4E0
100
AcDbEntity
  8
0
100
AcDbLine
 62
7
  6
CONTINUOUS
 10
195.2096892224
 20
131.7362386235
 11
195.2096892224
 21
132.6936854072
  0
LINE
  5
4E1
100
AcDbEntity
  8
0
100
AcDbLine
 62
7
  6
CONTINUOUS
 10
195.2321894608
 20
127.9575151869
 11
195.2321894608
 21
128.2128344842
  0
LINE
  5
4E2
100
AcDbEntity
  8
0
100
AcDbLine
 62
7
  6
CONTINUOUS
 10
195.4346896992
 20
121.5932599457
 11
195.4346896992
 21
122.7421960684
  0
LINE
  5
4E3
100
AcDbEntity
  8
0
100
AcDbLine
 62
7
  6
CONTINUOUS
 10
195.4346896992
 20
122.9975151869
 11
195.4346896992
 21
123.5081536027
  0
LINE
  5
4E4
100
AcDbEntity
  8
0
100
AcDbLine
 62
7
  6
CONTINUOUS
 10
188.6071896992
 20
127.8936854072
 11
188.6696894608
 21
128.2128344842
  0
LINE
  5
4E5
100
AcDbEntity
  8
0
100
AcDbLine
 62
7
  6
CONTINUOUS
 10
192.1471894608
 20
131.4170897253
 11
192.20968958
 21
131.7362386235
  0
LINE
  5
4E6
100
AcDbEntity
  8
0
100
AcDbLine
 62
7
  6
CONTINUOUS
 10
188.9821896992
 20
127.8936854072
 11
189.0446894608
 21
128.1490045257
  0
LINE
  5
4E7
100
AcDbEntity
  8
0
100
AcDbLine
 62
7
  6
CONTINUOUS
 10
189.1846894012
 20
123.2528344842
 11
189.2471895204
 21
123.5081536027
  0
LINE
  5
4E8
100
AcDbEntity
  8
0
100
AcDbLine
 62
7
  6
CONTINUOUS
 10
191.7721894608
 20
131.480919505
 11
191.83468958
 21
131.7362386235
  0
LINE
  5
4E9
100
AcDbEntity
  8
0
100
AcDbLine
 62
7
  6
CONTINUOUS
 10
188.9596894608
 20
132.6298556276
 11
189.0221894012
 21
132.8213449665
  0
LINE
  5
4EA
100
AcDbEntity
  8
0
100
AcDbLine
 62
7
  6
CONTINUOUS
 10
187.6696896992
 20
127.8298556276
 11
187.7321894608
 21
128.0213449665
  0
LINE
  5
4EB
100
AcDbEntity
  8
0
100
AcDbLine
 62
7
  6
CONTINUOUS
 10
189.3346894608
 20
132.566025848
 11
189.3971894012
 21
132.7575151869
  0
LINE
  5
4EC
100
AcDbEntity
  8
0
100
AcDbLine
 62
7
  6
CONTINUOUS
 10
188.0446896992
 20
127.766025848
 11
188.1071894608
 21
127.9575151869
  0
LINE
  5
4ED
100
AcDbEntity
  8
0
100
AcDbLine
 62
7
  6
CONTINUOUS
 10
187.6696896992
 20
126.4894301661
 11
187.7321894608
 21
126.680919505
  0
LINE
  5
4EE
100
AcDbEntity
  8
0
100
AcDbLine
 62
7
  6
CONTINUOUS
 10
188.0446896992
 20
126.4256003418
 11
188.1071894608
 21
126.6170897253
  0
LINE
  5
4EF
100
AcDbEntity
  8
0
100
AcDbLine
 62
7
  6
CONTINUOUS
 10
167.6646894608
 20
145.8949620601
 11
172.1646894608
 21
145.8949620601
  0
LINE
  5
4F0
100
AcDbEntity
  8
0
100
AcDbLine
 62
7
  6
CONTINUOUS
 10
172.1646894608
 20
146.4574620601
 11
170.1540511344
 21
146.4574620601
  0
LINE
  5
4F1
100
AcDbEntity
  8
0
100
AcDbLine
 62
7
  6
CONTINUOUS
 10
169.5795831178
 20
146.4574620601
 11
168.143412808
 21
146.4574620601
  0
LINE
  5
4F2
100
AcDbEntity
  8
BEZUGSACHSEN
100
AcDbLine
 62
7
  6
CONTINUOUS
 10
181.6146894608
 20
148.4949620601
 11
200.6146894608
 21
148.4949620601
  0
LINE
  5
4F3
100
AcDbEntity
  8
KONSTRUKTIONSELEMENTE
100
AcDbLine
 62
7
  6
CONTINUOUS
 10
183.0655586553
 20
148.6949620601
 11
189.0628568411
 21
148.6949620601
  0
LINE
  5
4F4
100
AcDbEntity
  8
KONSTRUKTIONSELEMENTE
100
AcDbLine
 62
7
  6
CONTINUOUS
 10
189.420401239
 20
148.6949620601
 11
191.110192664
 21
148.6949620601
  0
LINE
  5
4F5
100
AcDbEntity
  8
0
100
AcDbLine
 62
7
  6
CONTINUOUS
 10
168.7178808246
 20
148.8012119706
 11
169.0051151012
 21
148.8012119706
  0
LINE
  5
4F6
100
AcDbEntity
  8
0
100
AcDbLine
 62
7
  6
CONTINUOUS
 10
169.1008597706
 20
149.3637119706
 11
168.7178808246
 21
149.3637119706
  0
LINE
  5
4F7
100
AcDbEntity
  8
0
100
AcDbLine
 62
7
  6
CONTINUOUS
 10
171.1114979629
 20
153.4887120601
 11
170.6327746157
 21
153.5824622389
  0
LINE
  5
4F8
100
AcDbEntity
  8
0
100
AcDbLine
 62
7
  6
CONTINUOUS
 10
170.6327746157
 20
153.0199622389
 11
171.0157532935
 21
152.9262120601
  0
LINE
  5
4F9
100
AcDbEntity
  8
0
100
AcDbLine
 62
7
  6
CONTINUOUS
 10
171.4944767077
 20
157.8012117024
 11
171.1114979629
 21
157.9887120601
  0
LINE
  5
4FA
100
AcDbEntity
  8
0
100
AcDbLine
 62
7
  6
CONTINUOUS
 10
203.419688984
 20
127.1915578314
 11
203.5446899377
 21
126.9362386235
  0
LINE
  5
4FB
100
AcDbEntity
  8
0
100
AcDbLine
 62
7
  6
CONTINUOUS
 10
202.9196894608
 20
128.3404940434
 11
202.9821899377
 21
128.2128344842
  0
LINE
  5
4FC
100
AcDbEntity
  8
0
100
AcDbLine
 62
7
  6
CONTINUOUS
 10
201.6071894608
 20
126.7447492846
 11
201.6696899377
 21
126.5532599457
  0
LINE
  5
4FD
100
AcDbEntity
  8
0
100
AcDbLine
 62
7
  6
CONTINUOUS
 10
194.7721894608
 20
132.9490045257
 11
194.8346892224
 21
132.6936854072
  0
LINE
  5
4FE
100
AcDbEntity
  8
0
100
AcDbLine
 62
7
  6
CONTINUOUS
 10
198.8571899377
 20
126.9362386235
 11
198.919688984
 21
126.680919505
  0
LINE
  5
4FF
100
AcDbEntity
  8
0
100
AcDbLine
 62
7
  6
CONTINUOUS
 10
195.1471894608
 20
133.0128344842
 11
195.2096892224
 21
132.6936854072
  0
LINE
  5
500
100
AcDbEntity
  8
0
100
AcDbLine
 62
7
  6
CONTINUOUS
 10
198.4821899377
 20
126.9362386235
 11
198.544688984
 21
126.6170897253
  0
LINE
  5
501
100
AcDbEntity
  8
0
100
AcDbLine
 62
7
  6
CONTINUOUS
 10
195.732188984
 20
125.9149620601
 11
195.732188984
 21
128.9149620601
  0
LINE
  5
502
100
AcDbEntity
  8
0
100
AcDbLine
 62
7
  6
CONTINUOUS
 10
195.9971896992
 20
120.9549620601
 11
195.9971896992
 21
121.2102812009
  0
LINE
  5
503
100
AcDbEntity
  8
0
100
AcDbLine
 62
7
  6
CONTINUOUS
 10
196.107188984
 20
126.2979407825
 11
196.107188984
 21
128.9149620601
  0
LINE
  5
504
100
AcDbEntity
  8
0
100
AcDbLine
 62
7
  6
CONTINUOUS
 10
196.1221892224
 20
122.7421960684
 11
196.1221892224
 21
122.9975151869
  0
LINE
  5
505
100
AcDbEntity
  8
BEZUGSACHSEN
100
AcDbLine
 62
7
  6
CONTINUOUS
 10
197.1146894608
 20
95.1949620601
 11
197.1146894608
 21
111.9949620601
  0
LINE
  5
506
100
AcDbEntity
  8
0
100
AcDbLine
 62
7
  6
CONTINUOUS
 10
197.982188984
 20
125.9149620601
 11
197.982188984
 21
126.2979407825
  0
LINE
  5
507
100
AcDbEntity
  8
0
100
AcDbLine
 62
7
  6
CONTINUOUS
 10
198.4821899377
 20
126.9362386235
 11
198.4821899377
 21
128.9149620601
  0
LINE
  5
508
100
AcDbEntity
  8
0
100
AcDbLine
 62
7
  6
CONTINUOUS
 10
198.8571899377
 20
126.9362386235
 11
198.8571899377
 21
128.9149620601
  0
LINE
  5
509
100
AcDbEntity
  8
0
100
AcDbLine
 62
7
  6
CONTINUOUS
 10
195.1471894608
 20
131.4170897253
 11
195.2096892224
 21
131.7362386235
  0
LINE
  5
50A
100
AcDbEntity
  8
0
100
AcDbLine
 62
7
  6
CONTINUOUS
 10
190.9821892224
 20
126.3617705621
 11
191.0446896992
 21
126.6170897253
  0
LINE
  5
50B
100
AcDbEntity
  8
0
100
AcDbLine
 62
7
  6
CONTINUOUS
 10
191.24718958
 20
122.8698556276
 11
191.3096893416
 21
123.1251747461
  0
LINE
  5
50C
100
AcDbEntity
  8
0
100
AcDbLine
 62
7
  6
CONTINUOUS
 10
194.7721894608
 20
131.480919505
 11
194.8346892224
 21
131.7362386235
  0
LINE
  5
50D
100
AcDbEntity
  8
0
100
AcDbLine
 62
7
  6
CONTINUOUS
 10
190.6071892224
 20
126.4894301661
 11
190.6696896992
 21
126.680919505
  0
LINE
  5
50E
100
AcDbEntity
  8
0
100
AcDbLine
 62
7
  6
CONTINUOUS
 10
191.3096893416
 20
121.4656003418
 11
191.3721894608
 21
121.6570897253
  0
LINE
  5
50F
100
AcDbEntity
  8
0
100
AcDbLine
 62
7
  6
CONTINUOUS
 10
188.6696894608
 20
128.2128344842
 11
188.7946896992
 21
128.4681536027
  0
LINE
  5
510
100
AcDbEntity
  8
0
100
AcDbLine
 62
7
  6
CONTINUOUS
 10
192.02218958
 20
131.1617705621
 11
192.1471894608
 21
131.4170897253
  0
LINE
  5
511
100
AcDbEntity
  8
0
100
AcDbLine
 62
7
  6
CONTINUOUS
 10
189.0446894608
 20
128.1490045257
 11
189.1696896992
 21
128.3404940434
  0
LINE
  5
512
100
AcDbEntity
  8
0
100
AcDbLine
 62
7
  6
CONTINUOUS
 10
191.64718958
 20
131.2894301661
 11
191.7721894608
 21
131.480919505
  0
LINE
  5
513
100
AcDbEntity
  8
0
100
AcDbLine
 62
7
  6
CONTINUOUS
 10
189.1471894608
 20
132.3107067295
 11
189.3346894608
 21
132.566025848
  0
LINE
  5
514
100
AcDbEntity
  8
0
100
AcDbLine
 62
7
  6
CONTINUOUS
 10
187.8571896992
 20
127.5107067295
 11
188.0446896992
 21
127.766025848
  0
LINE
  5
515
100
AcDbEntity
  8
0
100
AcDbLine
 62
7
  6
CONTINUOUS
 10
188.8346894012
 20
132.5021960684
 11
188.9596894608
 21
132.6298556276
  0
LINE
  5
516
100
AcDbEntity
  8
0
100
AcDbLine
 62
7
  6
CONTINUOUS
 10
167.6646894608
 20
150.2074619706
 11
170.6327746157
 21
150.2074619706
  0
LINE
  5
517
100
AcDbEntity
  8
0
100
AcDbLine
 62
7
  6
CONTINUOUS
 10
170.6327746157
 20
150.7699622389
 11
167.6646894608
 21
150.7699622389
  0
LINE
  5
518
100
AcDbEntity
  8
0
100
AcDbLine
 62
7
  6
CONTINUOUS
 10
167.6646894608
 20
153.0199622389
 11
170.6327746157
 21
153.0199622389
  0
LINE
  5
519
100
AcDbEntity
  8
0
100
AcDbLine
 62
7
  6
CONTINUOUS
 10
170.6327746157
 20
157.5199617024
 11
171.0157532935
 21
157.4262120601
  0
LINE
  5
51A
100
AcDbEntity
  8
0
100
AcDbLine
 62
7
  6
CONTINUOUS
 10
201.7946894608
 20
128.0213449665
 11
201.8571899377
 21
127.8298556276
  0
LINE
  5
51B
100
AcDbEntity
  8
0
100
AcDbLine
 62
7
  6
CONTINUOUS
 10
203.2946894608
 20
128.4043238231
 11
203.3571899377
 21
128.2128344842
  0
LINE
  5
51C
100
AcDbEntity
  8
0
100
AcDbLine
 62
7
  6
CONTINUOUS
 10
201.2321894608
 20
126.7447492846
 11
201.2946899377
 21
126.4894301661
  0
LINE
  5
51D
100
AcDbEntity
  8
0
100
AcDbLine
 62
7
  6
CONTINUOUS
 10
201.4196894608
 20
127.9575151869
 11
201.4821899377
 21
127.7021960684
  0
LINE
  5
51E
100
AcDbEntity
  8
BEZUGSACHSEN
100
AcDbLine
 62
7
  6
CONTINUOUS
 10
199.7146894608
 20
140.9949620601
 11
199.7146894608
 21
141.4949620601
  0
LINE
  5
51F
100
AcDbEntity
  8
0
100
AcDbLine
 62
7
  6
CONTINUOUS
 10
200.3571899377
 20
126.9362386235
 11
200.3571899377
 21
128.9149620601
  0
LINE
  5
520
100
AcDbEntity
  8
BEZUGSACHSEN
100
AcDbLine
 62
7
  6
CONTINUOUS
 10
200.6146894608
 20
141.4949620601
 11
200.6146894608
 21
148.4949620637
  0
LINE
  5
521
100
AcDbEntity
  8
0
100
AcDbLine
 62
7
  6
CONTINUOUS
 10
200.7321899377
 20
126.9362386235
 11
200.7321899377
 21
128.9149620601
  0
LINE
  5
522
100
AcDbEntity
  8
0
100
AcDbLine
 62
7
  6
CONTINUOUS
 10
201.3646894608
 20
136.6949620601
 11
201.3646894608
 21
136.4949620601
  0
LINE
  5
523
100
AcDbEntity
  8
0
100
AcDbLine
 62
7
  6
CONTINUOUS
 10
201.3646894608
 20
116.4949620601
 11
201.3646894608
 21
116.2949620601
  0
LINE
  5
524
100
AcDbEntity
  8
0
100
AcDbLine
 62
7
  6
CONTINUOUS
 10
201.4196894608
 20
127.9575151869
 11
201.4196894608
 21
128.2128344842
  0
LINE
  5
525
100
AcDbEntity
  8
0
100
AcDbLine
 62
7
  6
CONTINUOUS
 10
201.7946894608
 20
128.0213449665
 11
201.7946894608
 21
128.1490045257
  0
LINE
  5
526
100
AcDbEntity
  8
0
100
AcDbLine
 62
7
  6
CONTINUOUS
 10
194.794688984
 20
127.8298556276
 11
194.8571894608
 21
128.0213449665
  0
LINE
  5
527
100
AcDbEntity
  8
0
100
AcDbLine
 62
7
  6
CONTINUOUS
 10
195.169688984
 20
127.766025848
 11
195.2321894608
 21
127.9575151869
  0
LINE
  5
528
100
AcDbEntity
  8
0
100
AcDbLine
 62
7
  6
CONTINUOUS
 10
193.7471896992
 20
121.6570897253
 11
193.8096894608
 21
121.8485790642
  0
LINE
  5
529
100
AcDbEntity
  8
0
100
AcDbLine
 62
7
  6
CONTINUOUS
 10
193.9971894608
 20
121.4656003418
 11
194.1221896992
 21
121.7847492846
  0
LINE
  5
52A
100
AcDbEntity
  8
0
100
AcDbLine
 62
7
  6
CONTINUOUS
 10
190.87218958
 20
122.8698556276
 11
190.9971894608
 21
123.1251747461
  0
LINE
  5
52B
100
AcDbEntity
  8
0
100
AcDbLine
 62
7
  6
CONTINUOUS
 10
195.0221892224
 20
131.1617705621
 11
195.1471894608
 21
131.4170897253
  0
LINE
  5
52C
100
AcDbEntity
  8
0
100
AcDbLine
 62
7
  6
CONTINUOUS
 10
190.9971894608
 20
121.5294301661
 11
191.05968958
 21
121.6570897253
  0
LINE
  5
52D
100
AcDbEntity
  8
0
100
AcDbLine
 62
7
  6
CONTINUOUS
 10
187.934689431
 20
120.5719833376
 11
188.3096895204
 21
121.2741110029
  0
LINE
  5
52E
100
AcDbEntity
  8
0
100
AcDbLine
 62
7
  6
CONTINUOUS
 10
188.2471894012
 20
120.5719833376
 11
188.6221894012
 21
121.2741110029
  0
LINE
  5
52F
100
AcDbEntity
  8
0
100
AcDbLine
 62
7
  6
CONTINUOUS
 10
194.6471892224
 20
131.2894301661
 11
194.7721894608
 21
131.480919505
  0
LINE
  5
530
100
AcDbEntity
  8
0
100
AcDbLine
 62
7
  6
CONTINUOUS
 10
189.4971894608
 20
123.2528344842
 11
189.6221895204
 21
123.4443238231
  0
LINE
  5
531
100
AcDbEntity
  8
0
100
AcDbLine
 62
7
  6
CONTINUOUS
 10
187.8571896992
 20
126.1702812009
 11
188.0446896992
 21
126.4256003418
  0
LINE
  5
532
100
AcDbEntity
  8
0
100
AcDbLine
 62
7
  6
CONTINUOUS
 10
186.6846894608
 20
123.5081536027
 11
187.0596894608
 21
123.9549620601
  0
LINE
  5
533
100
AcDbEntity
  8
0
100
AcDbLine
 62
7
  6
CONTINUOUS
 10
186.6846894608
 20
122.9975151869
 11
187.0596894608
 21
123.4443238231
  0
LINE
  5
534
100
AcDbEntity
  8
0
100
AcDbLine
 62
7
  6
CONTINUOUS
 10
187.5446894608
 20
127.7021960684
 11
187.6696896992
 21
127.8298556276
  0
LINE
  5
535
100
AcDbEntity
  8
0
100
AcDbLine
 62
7
  6
CONTINUOUS
 10
188.7946896992
 20
128.4681536027
 11
189.0446894608
 21
128.7234727212
  0
LINE
  5
536
100
AcDbEntity
  8
0
100
AcDbLine
 62
7
  6
CONTINUOUS
 10
191.7721894608
 20
130.9064514213
 11
192.02218958
 21
131.1617705621
  0
LINE
  5
537
100
AcDbEntity
  8
0
100
AcDbLine
 62
7
  6
CONTINUOUS
 10
187.5446894608
 20
126.3617705621
 11
187.6696896992
 21
126.4894301661
  0
LINE
  5
538
100
AcDbEntity
  8
0
100
AcDbLine
 62
7
  6
CONTINUOUS
 10
191.45968958
 20
131.1617705621
 11
191.64718958
 21
131.2894301661
  0
LINE
  5
539
100
AcDbEntity
  8
0
100
AcDbLine
 62
7
  6
CONTINUOUS
 10
188.8971895204
 20
132.1830471702
 11
189.1471894608
 21
132.3107067295
  0
LINE
  5
53A
100
AcDbEntity
  8
0
100
AcDbLine
 62
7
  6
CONTINUOUS
 10
188.6471894012
 20
132.4383662887
 11
188.8346894012
 21
132.5021960684
  0
LINE
  5
53B
100
AcDbEntity
  8
0
100
AcDbLine
 62
7
  6
CONTINUOUS
 10
171.0157532935
 20
150.8637118812
 11
170.6327746157
 21
150.7699622389
  0
LINE
  5
53C
100
AcDbEntity
  8
0
100
AcDbLine
 62
7
  6
CONTINUOUS
 10
170.6327746157
 20
150.2074619706
 11
171.1114979629
 21
150.3012121495
  0
LINE
  5
53D
100
AcDbEntity
  8
0
100
AcDbLine
 62
7
  6
CONTINUOUS
 10
170.6327746157
 20
153.5824622389
 11
167.6646894608
 21
153.5824622389
  0
LINE
  5
53E
100
AcDbEntity
  8
0
100
AcDbLine
 62
7
  6
CONTINUOUS
 10
167.6646894608
 20
154.3324620601
 11
172.1646894608
 21
154.3324620601
  0
LINE
  5
53F
100
AcDbEntity
  8
0
100
AcDbLine
 62
7
  6
CONTINUOUS
 10
171.5902213771
 20
154.8949620601
 11
168.2391574774
 21
154.8949620601
  0
LINE
  5
540
100
AcDbEntity
  8
0
100
AcDbLine
 62
7
  6
CONTINUOUS
 10
214.202588212
 20
156.3508958238
 11
213.5982539839
 21
156.3508958238
  0
LINE
  5
541
100
AcDbEntity
  8
0
100
AcDbLine
 62
7
  6
CONTINUOUS
 10
210.8269726918
 20
156.3508958238
 11
210.2226384636
 21
156.3508958238
  0
LINE
  5
542
100
AcDbEntity
  8
0
100
AcDbLine
 62
7
  6
CONTINUOUS
 10
171.1114979629
 20
157.9887120601
 11
170.6327746157
 21
158.0824617024
  0
LINE
  5
543
100
AcDbEntity
  8
0
100
AcDbLine
 62
7
  6
CONTINUOUS
 10
203.1696899377
 20
126.680919505
 11
203.1696899377
 21
126.8724088438
  0
LINE
  5
544
100
AcDbEntity
  8
0
100
AcDbLine
 62
7
  6
CONTINUOUS
 10
203.5446899377
 20
126.6170897253
 11
203.5446899377
 21
126.9362386235
  0
LINE
  5
545
100
AcDbEntity
  8
0
100
AcDbLine
 62
7
  6
CONTINUOUS
 10
204.1146894608
 20
140.9949620601
 11
204.1146894608
 21
136.6949620601
  0
LINE
  5
546
100
AcDbEntity
  8
0
100
AcDbLine
 62
7
  6
CONTINUOUS
 10
204.1146894608
 20
116.2949620601
 11
204.1146894608
 21
111.9949620601
  0
LINE
  5
547
100
AcDbEntity
  8
0
100
AcDbLine
 62
7
  6
CONTINUOUS
 10
200.6696894608
 20
126.6170897253
 11
200.7321899377
 21
126.9362386235
  0
LINE
  5
548
100
AcDbEntity
  8
0
100
AcDbLine
 62
7
  6
CONTINUOUS
 10
200.2946894608
 20
126.680919505
 11
200.3571899377
 21
126.9362386235
  0
LINE
  5
549
100
AcDbEntity
  8
0
100
AcDbLine
 62
7
  6
CONTINUOUS
 10
201.4196894608
 20
128.2128344842
 11
201.4821899377
 21
128.4681536027
  0
LINE
  5
54A
100
AcDbEntity
  8
0
100
AcDbLine
 62
7
  6
CONTINUOUS
 10
201.7946894608
 20
128.1490045257
 11
201.8571899377
 21
128.3404940434
  0
LINE
  5
54B
100
AcDbEntity
  8
0
100
AcDbLine
 62
7
  6
CONTINUOUS
 10
191.1221893416
 20
122.6783662887
 11
191.24718958
 21
122.8698556276
  0
LINE
  5
54C
100
AcDbEntity
  8
0
100
AcDbLine
 62
7
  6
CONTINUOUS
 10
191.1846894608
 20
121.2741110029
 11
191.3096893416
 21
121.4656003418
  0
LINE
  5
54D
100
AcDbEntity
  8
0
100
AcDbLine
 62
7
  6
CONTINUOUS
 10
193.6221894608
 20
121.4656003418
 11
193.7471896992
 21
121.6570897253
  0
LINE
  5
54E
100
AcDbEntity
  8
0
100
AcDbLine
 62
7
  6
CONTINUOUS
 10
194.982188984
 20
127.5107067295
 11
195.169688984
 21
127.766025848
  0
LINE
  5
54F
100
AcDbEntity
  8
0
100
AcDbLine
 62
7
  6
CONTINUOUS
 10
194.7721894608
 20
130.9064514213
 11
195.0221892224
 21
131.1617705621
  0
LINE
  5
550
100
AcDbEntity
  8
0
100
AcDbLine
 62
7
  6
CONTINUOUS
 10
190.7321894608
 20
126.1064514213
 11
190.9821892224
 21
126.3617705621
  0
LINE
  5
551
100
AcDbEntity
  8
0
100
AcDbLine
 62
7
  6
CONTINUOUS
 10
189.2471895204
 20
123.5081536027
 11
189.4971894608
 21
123.7634727212
  0
LINE
  5
552
100
AcDbEntity
  8
0
100
AcDbLine
 62
7
  6
CONTINUOUS
 10
194.6696894608
 20
127.7021960684
 11
194.794688984
 21
127.8298556276
  0
LINE
  5
553
100
AcDbEntity
  8
0
100
AcDbLine
 62
7
  6
CONTINUOUS
 10
190.7471893416
 20
122.7421960684
 11
190.87218958
 21
122.8698556276
  0
LINE
  5
554
100
AcDbEntity
  8
0
100
AcDbLine
 62
7
  6
CONTINUOUS
 10
187.6071892224
 20
125.9787918453
 11
187.8571896992
 21
126.1702812009
  0
LINE
  5
555
100
AcDbEntity
  8
0
100
AcDbLine
 62
7
  6
CONTINUOUS
 10
189.1696896992
 20
128.3404940434
 11
189.3571896992
 21
128.4681536027
  0
LINE
  5
556
100
AcDbEntity
  8
0
100
AcDbLine
 62
7
  6
CONTINUOUS
 10
194.4596892224
 20
131.1617705621
 11
194.6471892224
 21
131.2894301661
  0
LINE
  5
557
100
AcDbEntity
  8
0
100
AcDbLine
 62
7
  6
CONTINUOUS
 10
190.4196892224
 20
126.3617705621
 11
190.6071892224
 21
126.4894301661
  0
LINE
  5
558
100
AcDbEntity
  8
0
100
AcDbLine
 62
7
  6
CONTINUOUS
 10
191.5221893416
 20
130.7787918453
 11
191.7721894608
 21
130.9064514213
  0
LINE
  5
559
100
AcDbEntity
  8
0
100
AcDbLine
 62
7
  6
CONTINUOUS
 10
189.0446894608
 20
128.7234727212
 11
189.2946892224
 21
128.8511322804
  0
LINE
  5
55A
100
AcDbEntity
  8
0
100
AcDbLine
 62
7
  6
CONTINUOUS
 10
187.7321894608
 20
127.4468769499
 11
187.8571896992
 21
127.5107067295
  0
LINE
  5
55B
100
AcDbEntity
  8
0
100
AcDbLine
 62
7
  6
CONTINUOUS
 10
194.5221896992
 20
130.7787918453
 11
194.7721894608
 21
130.9064514213
  0
LINE
  5
55C
100
AcDbEntity
  8
0
100
AcDbLine
 62
7
  6
CONTINUOUS
 10
187.3571894608
 20
127.6383662887
 11
187.5446894608
 21
127.7021960684
  0
LINE
  5
55D
100
AcDbEntity
  8
0
100
AcDbLine
 62
7
  6
CONTINUOUS
 10
169.19660444
 20
157.5199617024
 11
170.6327746157
 21
157.5199617024
  0
LINE
  5
55E
100
AcDbEntity
  8
0
100
AcDbLine
 62
7
  6
CONTINUOUS
 10
170.6327746157
 20
158.0824617024
 11
169.19660444
 21
158.0824617024
  0
LINE
  5
55F
100
AcDbEntity
  8
0
100
AcDbLine
 62
7
  6
CONTINUOUS
 10
212.5126133378
 20
159.3508958238
 11
211.9082791097
 21
159.3508958238
  0
LINE
  5
560
100
AcDbEntity
  8
0
100
AcDbLine
 62
7
  6
CONTINUOUS
 10
214.202588212
 20
159.7508958238
 11
213.5982539839
 21
159.7508958238
  0
LINE
  5
561
100
AcDbEntity
  8
0
100
AcDbLine
 62
7
  6
CONTINUOUS
 10
210.8269726918
 20
159.7508958238
 11
210.2226384636
 21
159.7508958238
  0
LINE
  5
562
100
AcDbEntity
  8
RUNDUNGEN
100
AcDbLine
 62
7
  6
CONTINUOUS
 10
207.1146894608
 20
117.9949620601
 11
207.1146894608
 21
134.9949620601
  0
LINE
  5
563
100
AcDbEntity
  8
RUNDUNGEN
100
AcDbLine
 62
7
  6
CONTINUOUS
 10
208.1146894608
 20
169.4949620601
 11
208.1146894608
 21
136.4450670411
  0
LINE
  5
564
100
AcDbEntity
  8
0
100
AcDbLine
 62
7
  6
CONTINUOUS
 10
209.4689381498
 20
164.4949620601
 11
209.4689381498
 21
139.4949620601
  0
LINE
  5
565
100
AcDbEntity
  8
0
100
AcDbLine
 62
7
  6
CONTINUOUS
 10
210.8137108868
 20
156.1081472107
 11
210.8269726918
 21
156.3508958238
  0
LINE
  5
566
100
AcDbEntity
  8
0
100
AcDbLine
 62
7
  6
CONTINUOUS
 10
200.5446899377
 20
126.3617705621
 11
200.6696894608
 21
126.6170897253
  0
LINE
  5
567
100
AcDbEntity
  8
0
100
AcDbLine
 62
7
  6
CONTINUOUS
 10
203.419688984
 20
126.3617705621
 11
203.5446899377
 21
126.6170897253
  0
LINE
  5
568
100
AcDbEntity
  8
0
100
AcDbLine
 62
7
  6
CONTINUOUS
 10
200.1696899377
 20
126.4894301661
 11
200.2946894608
 21
126.680919505
  0
LINE
  5
569
100
AcDbEntity
  8
0
100
AcDbLine
 62
7
  6
CONTINUOUS
 10
193.8096894608
 20
121.2102812009
 11
193.9971894608
 21
121.4656003418
  0
LINE
  5
56A
100
AcDbEntity
  8
0
100
AcDbLine
 62
7
  6
CONTINUOUS
 10
190.87218958
 20
121.4017705621
 11
190.9971894608
 21
121.5294301661
  0
LINE
  5
56B
100
AcDbEntity
  8
0
100
AcDbLine
 62
7
  6
CONTINUOUS
 10
201.4821899377
 20
128.4681536027
 11
201.732188984
 21
128.7234727212
  0
LINE
  5
56C
100
AcDbEntity
  8
0
100
AcDbLine
 62
7
  6
CONTINUOUS
 10
194.7321899377
 20
127.3192173906
 11
194.982188984
 21
127.5107067295
  0
LINE
  5
56D
100
AcDbEntity
  8
0
100
AcDbLine
 62
7
  6
CONTINUOUS
 10
190.87218958
 20
122.4868769499
 11
191.1221893416
 21
122.6783662887
  0
LINE
  5
56E
100
AcDbEntity
  8
0
100
AcDbLine
 62
7
  6
CONTINUOUS
 10
192.3096894608
 20
122.295387611
 11
192.55968958
 21
122.4868769499
  0
LINE
  5
56F
100
AcDbEntity
  8
0
100
AcDbLine
 62
7
  6
CONTINUOUS
 10
189.6221895204
 20
123.4443238231
 11
189.8096893416
 21
123.5719833823
  0
LINE
  5
570
100
AcDbEntity
  8
0
100
AcDbLine
 62
7
  6
CONTINUOUS
 10
190.4821896992
 20
125.9787918453
 11
190.7321894608
 21
126.1064514213
  0
LINE
  5
571
100
AcDbEntity
  8
0
100
AcDbLine
 62
7
  6
CONTINUOUS
 10
189.4971894608
 20
123.7634727212
 11
189.74718958
 21
123.8911322804
  0
LINE
  5
572
100
AcDbEntity
  8
0
100
AcDbLine
 62
7
  6
CONTINUOUS
 10
201.732188984
 20
128.7234727212
 11
201.9821894608
 21
128.8511322804
  0
LINE
  5
573
100
AcDbEntity
  8
0
100
AcDbLine
 62
7
  6
CONTINUOUS
 10
187.3571894608
 20
126.2979407825
 11
187.5446894608
 21
126.3617705621
  0
LINE
  5
574
100
AcDbEntity
  8
0
100
AcDbLine
 62
7
  6
CONTINUOUS
 10
194.4821894608
 20
127.6383662887
 11
194.6696894608
 21
127.7021960684
  0
LINE
  5
575
100
AcDbEntity
  8
0
100
AcDbLine
 62
7
  6
CONTINUOUS
 10
202.0446899377
 20
128.4681536027
 11
202.2321899377
 21
128.5319833823
  0
LINE
  5
576
100
AcDbEntity
  8
0
100
AcDbLine
 62
7
  6
CONTINUOUS
 10
168.8136257623
 20
157.4262120601
 11
169.19660444
 21
157.5199617024
  0
LINE
  5
577
100
AcDbEntity
  8
0
100
AcDbLine
 62
7
  6
CONTINUOUS
 10
169.19660444
 20
158.0824617024
 11
168.7178808246
 21
157.9887120601
  0
LINE
  5
578
100
AcDbEntity
  8
0
100
AcDbLine
 62
7
  6
CONTINUOUS
 10
167.1146894608
 20
164.4949620601
 11
172.7604407719
 21
164.4949620601
  0
LINE
  5
579
100
AcDbEntity
  8
0
100
AcDbLine
 62
7
  6
CONTINUOUS
 10
209.4689381498
 20
164.4949620601
 11
215.1146894608
 21
164.4949620601
  0
LINE
  5
57A
100
AcDbEntity
  8
0
100
AcDbLine
 62
7
  6
CONTINUOUS
 10
214.2093621159
 20
156.0440253247
 11
214.202588212
 21
156.3508958238
  0
LINE
  5
57B
100
AcDbEntity
  8
0
100
AcDbLine
 62
7
  6
CONTINUOUS
 10
214.2093621159
 20
159.4440253247
 11
214.202588212
 21
159.7508958238
  0
LINE
  5
57C
100
AcDbEntity
  8
0
100
AcDbLine
 62
7
  6
CONTINUOUS
 10
211.9082791097
 20
159.3508958238
 11
211.9082791097
 21
158.1843744454
  0
LINE
  5
57D
100
AcDbEntity
  8
0
100
AcDbLine
 62
7
  6
CONTINUOUS
 10
212.5126133378
 20
158.1834163906
 11
212.5126133378
 21
159.3508958238
  0
LINE
  5
57E
100
AcDbEntity
  8
0
100
AcDbLine
 62
7
  6
CONTINUOUS
 10
203.044688984
 20
126.4894301661
 11
203.1696899377
 21
126.680919505
  0
LINE
  5
57F
100
AcDbEntity
  8
0
100
AcDbLine
 62
7
  6
CONTINUOUS
 10
200.2946894608
 20
126.1064514213
 11
200.5446899377
 21
126.3617705621
  0
LINE
  5
580
100
AcDbEntity
  8
0
100
AcDbLine
 62
7
  6
CONTINUOUS
 10
203.1696899377
 20
126.1064514213
 11
203.419688984
 21
126.3617705621
  0
LINE
  5
581
100
AcDbEntity
  8
0
100
AcDbLine
 62
7
  6
CONTINUOUS
 10
190.9971894608
 20
121.1464514213
 11
191.1846894608
 21
121.2741110029
  0
LINE
  5
582
100
AcDbEntity
  8
0
100
AcDbLine
 62
7
  6
CONTINUOUS
 10
201.8571899377
 20
128.3404940434
 11
202.0446899377
 21
128.4681536027
  0
LINE
  5
583
100
AcDbEntity
  8
0
100
AcDbLine
 62
7
  6
CONTINUOUS
 10
199.9821899377
 20
126.3617705621
 11
200.1696899377
 21
126.4894301661
  0
LINE
  5
584
100
AcDbEntity
  8
0
100
AcDbLine
 62
7
  6
CONTINUOUS
 10
193.4346894608
 20
121.3379407825
 11
193.6221894608
 21
121.4656003418
  0
LINE
  5
585
100
AcDbEntity
  8
0
100
AcDbLine
 62
7
  6
CONTINUOUS
 10
202.857188984
 20
126.3617705621
 11
203.044688984
 21
126.4894301661
  0
LINE
  5
586
100
AcDbEntity
  8
0
100
AcDbLine
 62
7
  6
CONTINUOUS
 10
192.18468958
 20
122.6145365091
 11
192.4971894608
 21
122.806025848
  0
LINE
  5
587
100
AcDbEntity
  8
0
100
AcDbLine
 62
7
  6
CONTINUOUS
 10
193.4971892224
 20
121.0187918453
 11
193.8096894608
 21
121.2102812009
  0
LINE
  5
588
100
AcDbEntity
  8
0
100
AcDbLine
 62
7
  6
CONTINUOUS
 10
190.7471893416
 20
121.3379407825
 11
190.87218958
 21
121.4017705621
  0
LINE
  5
589
100
AcDbEntity
  8
0
100
AcDbLine
 62
7
  6
CONTINUOUS
 10
200.044688984
 20
125.9787918453
 11
200.2946894608
 21
126.1064514213
  0
LINE
  5
58A
100
AcDbEntity
  8
0
100
AcDbLine
 62
7
  6
CONTINUOUS
 10
190.7471893416
 20
121.0187918453
 11
190.9971894608
 21
121.1464514213
  0
LINE
  5
58B
100
AcDbEntity
  8
0
100
AcDbLine
 62
7
  6
CONTINUOUS
 10
202.9196894608
 20
125.9787918453
 11
203.1696899377
 21
126.1064514213
  0
LINE
  5
58C
100
AcDbEntity
  8
0
100
AcDbLine
 62
7
  6
CONTINUOUS
 10
190.3721893416
 20
122.6145365091
 11
190.7471893416
 21
122.7421960684
  0
LINE
  5
58D
100
AcDbEntity
  8
0
100
AcDbLine
 62
7
  6
CONTINUOUS
 10
215.1146894608
 20
139.4949620601
 11
215.1146894608
 21
164.4949620601
  0
LINE
  5
58E
100
AcDbEntity
  8
RUNDUNGEN
100
AcDbLine
 62
7
  6
CONTINUOUS
 10
217.1146894608
 20
130.4949620601
 11
217.1146894608
 21
170.4949620601
  0
LINE
  5
58F
100
AcDbEntity
  8
0
100
AcDbLine
 62
7
  6
CONTINUOUS
 10
215.4752197737
 20
170.8442546738
 11
208.3646894608
 21
186.8147672385
  0
LINE
  5
590
100
AcDbEntity
  8
BEZUGSACHSEN
100
AcDbLine
 62
7
  6
CONTINUOUS
 10
195.9146894608
 20
93.9949620601
 11
197.1146894608
 21
95.1949620601
  0
LINE
  5
591
100
AcDbEntity
  8
0
100
AcDbLine
 62
7
  6
CONTINUOUS
 10
208.3646894608
 20
186.8147672385
 11
191.1146894608
 21
194.4949620601
  0
LINE
  5
592
100
AcDbEntity
  8
0
100
AcDbLine
 62
7
  6
CONTINUOUS
 10
85.1279777687
 20
30.0324176858
 11
85.1279777687
 21
30.389721695
  0
LINE
  5
593
100
AcDbEntity
  8
RUNDUNGEN
100
AcDbLine
 62
7
  6
CONTINUOUS
 10
121.1309472531
 20
26.5173473658
 11
122.1799364771
 21
26.5491046955
  0
LINE
  5
594
100
AcDbEntity
  8
RUNDUNGEN
100
AcDbLine
 62
7
  6
CONTINUOUS
 10
120.1550653577
 20
26.4947929152
 11
121.1309472531
 21
26.5173473658
  0
LINE
  5
595
100
AcDbEntity
  8
RUNDUNGEN
100
AcDbLine
 62
7
  6
CONTINUOUS
 10
119.6279777687
 20
26.4853262669
 11
120.1594136559
 21
26.4948790796
  0
LINE
  5
596
100
AcDbEntity
  8
RUNDUNGEN
100
AcDbLine
 62
7
  6
CONTINUOUS
 10
95.6279777687
 20
26.4624181626
 11
109.6279777687
 21
26.4624181626
  0
LINE
  5
597
100
AcDbEntity
  8
KONSTRUKTIONSELEMENTE
100
AcDbLine
 62
7
  6
CONTINUOUS
 10
89.22698213
 20
43.7322271571
 11
89.1008564929
 21
42.8032499918
  0
LINE
  5
598
100
AcDbEntity
  8
KONSTRUKTIONSELEMENTE
100
AcDbLine
 62
7
  6
CONTINUOUS
 10
89.3959274921
 20
42.9997139648
 11
89.4957769498
 21
43.7351541837
  0
LINE
  5
599
100
AcDbEntity
  8
KONSTRUKTIONSELEMENTE
100
AcDbLine
 62
7
  6
CONTINUOUS
 10
90.2863958673
 20
43.6278132087
 11
90.1865464096
 21
42.8923729898
  0
LINE
  5
59A
100
AcDbEntity
  8
KONSTRUKTIONSELEMENTE
100
AcDbLine
 62
7
  6
CONTINUOUS
 10
89.3059662274
 20
43.9186080398
 11
89.22698213
 21
43.7322271571
  0
LINE
  5
59B
100
AcDbEntity
  8
KONSTRUKTIONSELEMENTE
100
AcDbLine
 62
7
  6
CONTINUOUS
 10
90.2490021007
 20
46.6065801531
 11
90.1460988263
 21
46.396003429
  0
LINE
  5
59C
100
AcDbEntity
  8
KONSTRUKTIONSELEMENTE
100
AcDbLine
 62
7
  6
CONTINUOUS
 10
89.7344857285
 20
45.5536965326
 11
89.6315824049
 21
45.3431197081
  0
LINE
  5
59D
100
AcDbEntity
  8
BEZUGSACHSEN
100
AcDbLine
 62
7
  6
CONTINUOUS
 10
91.6431502114
 20
51.9624181626
 11
86.1583226541
 21
42.4624181626
  0
LINE
  5
59E
100
AcDbEntity
  8
0
100
AcDbLine
 62
7
  6
CONTINUOUS
 10
84.7769368903
 20
30.0324176858
 11
85.1279777687
 21
30.0324176858
  0
LINE
  5
59F
100
AcDbEntity
  8
0
100
AcDbLine
 62
7
  6
CONTINUOUS
 10
84.6353899599
 20
30.1574186395
 11
85.1279777687
 21
30.1574186395
  0
LINE
  5
5A0
100
AcDbEntity
  8
0
100
AcDbLine
 62
7
  6
CONTINUOUS
 10
84.5658268895
 20
30.2199176858
 11
85.1279777687
 21
30.2199176858
  0
LINE
  5
5A1
100
AcDbEntity
  8
0
100
AcDbLine
 62
7
  6
CONTINUOUS
 10
84.4970478884
 20
30.2824181626
 11
85.1279777687
 21
30.2824181626
  0
LINE
  5
5A2
100
AcDbEntity
  8
0
100
AcDbLine
 62
7
  6
CONTINUOUS
 10
84.29528419
 20
30.4699181626
 11
85.0364743934
 21
30.4699181626
  0
LINE
  5
5A3
100
AcDbEntity
  8
0
100
AcDbLine
 62
7
  6
CONTINUOUS
 10
84.0364418503
 20
30.7199186395
 11
84.7599648432
 21
30.7199186395
  0
LINE
  5
5A4
100
AcDbEntity
  8
0
100
AcDbLine
 62
7
  6
CONTINUOUS
 10
83.7281836528
 20
31.0324181626
 11
84.4317685888
 21
31.0324181626
  0
LINE
  5
5A5
100
AcDbEntity
  8
0
100
AcDbLine
 62
7
  6
CONTINUOUS
 10
83.4357186201
 20
31.3449176858
 11
84.1214064659
 21
31.3449176858
  0
LINE
  5
5A6
100
AcDbEntity
  8
BEZUGSACHSEN
100
AcDbLine
 62
7
  6
CONTINUOUS
 10
86.1583226541
 20
42.4624181626
 11
91.6431502114
 21
32.9624181626
  0
LINE
  5
5A7
100
AcDbEntity
  8
KONSTRUKTIONSELEMENTE
100
AcDbLine
 62
7
  6
CONTINUOUS
 10
91.9548140465
 20
45.2512693167
 11
91.9340022873
 21
45.0875308351
  0
LINE
  5
5A8
100
AcDbEntity
  8
KONSTRUKTIONSELEMENTE
100
AcDbLine
 62
7
  6
CONTINUOUS
 10
90.5027939175
 20
42.8494366078
 11
90.592132908
 21
43.5074620814
  0
LINE
  5
5A9
100
AcDbEntity
  8
KONSTRUKTIONSELEMENTE
100
AcDbLine
 62
7
  6
CONTINUOUS
 10
91.5781289337
 20
42.4669149594
 11
91.609660343
 21
42.6991592508
  0
LINE
  5
5AA
100
AcDbEntity
  8
KONSTRUKTIONSELEMENTE
100
AcDbLine
 62
7
  6
CONTINUOUS
 10
91.74104121
 20
43.666843761
 11
91.7778278642
 21
43.9377955081
  0
LINE
  5
5AB
100
AcDbEntity
  8
KONSTRUKTIONSELEMENTE
100
AcDbLine
 62
7
  6
CONTINUOUS
 10
92.2207450598
 20
44.9474072277
 11
92.2587072952
 21
45.1462416981
  0
LINE
  5
5AC
100
AcDbEntity
  8
KONSTRUKTIONSELEMENTE
100
AcDbLine
 62
7
  6
CONTINUOUS
 10
93.1784693317
 20
46.8194149837
 11
93.1062110202
 21
46.67101658
  0
LINE
  5
5AD
100
AcDbEntity
  8
KONSTRUKTIONSELEMENTE
100
AcDbLine
 62
7
  6
CONTINUOUS
 10
91.9340022873
 20
45.0875308351
 11
91.8654000716
 21
44.9471462855
  0
LINE
  5
5AE
100
AcDbEntity
  8
KONSTRUKTIONSELEMENTE
100
AcDbLine
 62
7
  6
CONTINUOUS
 10
92.1521428442
 20
44.8070226781
 11
92.2207450598
 21
44.9474072277
  0
LINE
  5
5AF
100
AcDbEntity
  8
KONSTRUKTIONSELEMENTE
100
AcDbLine
 62
7
  6
CONTINUOUS
 10
93.3328175813
 20
46.4462822714
 11
93.4325826423
 21
46.622416589
  0
LINE
  5
5B0
100
AcDbEntity
  8
KONSTRUKTIONSELEMENTE
100
AcDbLine
 62
7
  6
CONTINUOUS
 10
89.4957769498
 20
43.7351541837
 11
89.5642505724
 21
43.8441202657
  0
LINE
  5
5B1
100
AcDbEntity
  8
KONSTRUKTIONSELEMENTE
100
AcDbLine
 62
7
  6
CONTINUOUS
 10
91.5577328485
 20
48.206701026
 11
90.8975758155
 21
47.5410442512
  0
LINE
  5
5B2
100
AcDbEntity
  8
KONSTRUKTIONSELEMENTE
100
AcDbLine
 62
7
  6
CONTINUOUS
 10
91.2892216084
 20
47.4827241626
 11
91.7843393831
 21
47.9819667437
  0
LINE
  5
5B3
100
AcDbEntity
  8
KONSTRUKTIONSELEMENTE
100
AcDbLine
 62
7
  6
CONTINUOUS
 10
93.1062110202
 20
46.67101658
 11
92.6110932455
 21
46.1717739989
  0
LINE
  5
5B4
100
AcDbEntity
  8
KONSTRUKTIONSELEMENTE
100
AcDbLine
 62
7
  6
CONTINUOUS
 10
91.7330334244
 20
48.3079239128
 11
91.5577328485
 21
48.206701026
  0
LINE
  5
5B5
100
AcDbEntity
  8
KONSTRUKTIONSELEMENTE
100
AcDbLine
 62
7
  6
CONTINUOUS
 10
91.7843393831
 20
47.9819667437
 11
91.9321332061
 21
48.05545372
  0
LINE
  5
5B6
100
AcDbEntity
  8
0
100
AcDbLine
 62
7
  6
CONTINUOUS
 10
83.212364866
 20
31.5949181626
 11
83.8850035394
 21
31.5949181626
  0
LINE
  5
5B7
100
AcDbEntity
  8
0
100
AcDbLine
 62
7
  6
CONTINUOUS
 10
82.9979063566
 20
31.8449186395
 11
83.658487225
 21
31.8449186395
  0
LINE
  5
5B8
100
AcDbEntity
  8
0
100
AcDbLine
 62
7
  6
CONTINUOUS
 10
82.7918983882
 20
32.0949176858
 11
83.4413074334
 21
32.0949176858
  0
LINE
  5
5B9
100
AcDbEntity
  8
0
100
AcDbLine
 62
7
  6
CONTINUOUS
 10
82.7416681729
 20
32.1574181626
 11
83.3884118042
 21
32.1574181626
  0
LINE
  5
5BA
100
AcDbEntity
  8
0
100
AcDbLine
 62
7
  6
CONTINUOUS
 10
82.5939379594
 20
32.3449181626
 11
83.2329709615
 21
32.3449181626
  0
LINE
  5
5BB
100
AcDbEntity
  8
0
100
AcDbLine
 62
7
  6
CONTINUOUS
 10
82.2207526801
 20
32.8449176858
 11
82.8411218386
 21
32.8449176858
  0
LINE
  5
5BC
100
AcDbEntity
  8
BEZUGSACHSEN
100
AcDbLine
 62
7
  6
CONTINUOUS
 10
91.6431502114
 20
32.9624181626
 11
102.612805326
 21
32.9624181626
  0
LINE
  5
5BD
100
AcDbEntity
  8
0
100
AcDbLine
 62
7
  6
CONTINUOUS
 10
81.9595402232
 20
33.2199176858
 11
82.5674959654
 21
33.2199176858
  0
LINE
  5
5BE
100
AcDbEntity
  8
0
100
AcDbLine
 62
7
  6
CONTINUOUS
 10
81.9174854362
 20
33.2824181626
 11
82.5234899878
 21
33.2824181626
  0
LINE
  5
5BF
100
AcDbEntity
  8
0
100
AcDbLine
 62
7
  6
CONTINUOUS
 10
81.8346110164
 20
33.4074176858
 11
82.4368077537
 21
33.4074176858
  0
LINE
  5
5C0
100
AcDbEntity
  8
0
100
AcDbLine
 62
7
  6
CONTINUOUS
 10
81.7133295413
 20
33.5949176858
 11
82.3100411683
 21
33.5949176858
  0
LINE
  5
5C1
100
AcDbEntity
  8
KONSTRUKTIONSELEMENTE
100
AcDbLine
 62
7
  6
CONTINUOUS
 10
90.5182484888
 20
43.7540185554
 11
90.4338535873
 21
43.9231601734
  0
LINE
  5
5C2
100
AcDbEntity
  8
KONSTRUKTIONSELEMENTE
100
AcDbLine
 62
7
  6
CONTINUOUS
 10
90.249453654
 20
43.751091418
 11
90.2863958673
 21
43.6278132087
  0
LINE
  5
5C3
100
AcDbEntity
  8
KONSTRUKTIONSELEMENTE
100
AcDbLine
 62
7
  6
CONTINUOUS
 10
93.1854534228
 20
46.9775335342
 11
93.1784693317
 21
46.8194149837
  0
LINE
  5
5C4
100
AcDbEntity
  8
KONSTRUKTIONSELEMENTE
100
AcDbLine
 62
7
  6
CONTINUOUS
 10
93.4325826423
 20
46.622416589
 11
93.4670731881
 21
46.8082707162
  0
LINE
  5
5C5
100
AcDbEntity
  8
KONSTRUKTIONSELEMENTE
100
AcDbLine
 62
7
  6
CONTINUOUS
 10
94.818576692
 20
46.4624181626
 11
92.5091756152
 21
42.4624181626
  0
LINE
  5
5C6
100
AcDbEntity
  8
KONSTRUKTIONSELEMENTE
100
AcDbLine
 62
7
  6
CONTINUOUS
 10
92.0185996875
 20
44.6548960755
 11
92.1521428442
 21
44.8070226781
  0
LINE
  5
5C7
100
AcDbEntity
  8
KONSTRUKTIONSELEMENTE
100
AcDbLine
 62
7
  6
CONTINUOUS
 10
98.6433050627
 20
50.3175937299
 11
98.3426457732
 21
49.9963882011
  0
LINE
  5
5C8
100
AcDbEntity
  8
KONSTRUKTIONSELEMENTE
100
AcDbLine
 62
7
  6
CONTINUOUS
 10
98.262043239
 20
49.578559617
 11
98.5627025567
 21
49.899765292
  0
LINE
  5
5C9
100
AcDbEntity
  8
KONSTRUKTIONSELEMENTE
100
AcDbLine
 62
7
  6
CONTINUOUS
 10
92.6726605483
 20
45.7806254966
 11
93.3328175813
 21
46.4462822714
  0
LINE
  5
5CA
100
AcDbEntity
  8
KONSTRUKTIONSELEMENTE
100
AcDbLine
 62
7
  6
CONTINUOUS
 10
91.8654000716
 20
44.9471462855
 11
91.7490074976
 21
44.8301158685
  0
LINE
  5
5CB
100
AcDbEntity
  8
KONSTRUKTIONSELEMENTE
100
AcDbLine
 62
7
  6
CONTINUOUS
 10
89.4851109159
 20
44.0519693394
 11
89.3059662274
 21
43.9186080398
  0
LINE
  5
5CC
100
AcDbEntity
  8
KONSTRUKTIONSELEMENTE
100
AcDbLine
 62
7
  6
CONTINUOUS
 10
99.8811007151
 20
49.8185253821
 11
99.6519552991
 21
49.6874686164
  0
LINE
  5
5CD
100
AcDbEntity
  8
KONSTRUKTIONSELEMENTE
100
AcDbLine
 62
7
  6
CONTINUOUS
 10
91.8544165462
 20
44.5612193956
 11
92.0185996875
 21
44.6548960755
  0
LINE
  5
5CE
100
AcDbEntity
  8
KONSTRUKTIONSELEMENTE
100
AcDbLine
 62
7
  6
CONTINUOUS
 10
89.5642505724
 20
43.8441202657
 11
89.6801768832
 21
43.9072229391
  0
LINE
  5
5CF
100
AcDbEntity
  8
KONSTRUKTIONSELEMENTE
100
AcDbLine
 62
7
  6
CONTINUOUS
 10
99.8445820112
 20
49.5437469259
 11
99.9948564398
 21
49.5934243023
  0
LINE
  5
5D0
100
AcDbEntity
  8
0
100
AcDbLine
 62
7
  6
CONTINUOUS
 10
81.5571322451
 20
33.8449181626
 11
82.1469283381
 21
33.8449181626
  0
LINE
  5
5D1
100
AcDbEntity
  8
0
100
AcDbLine
 62
7
  6
CONTINUOUS
 10
81.4070441942
 20
34.0949186395
 11
81.9903477792
 21
34.0949186395
  0
LINE
  5
5D2
100
AcDbEntity
  8
0
100
AcDbLine
 62
7
  6
CONTINUOUS
 10
81.2628747058
 20
34.3449176858
 11
81.8400777833
 21
34.3449176858
  0
LINE
  5
5D3
100
AcDbEntity
  8
0
100
AcDbLine
 62
7
  6
CONTINUOUS
 10
81.1585239975
 20
34.5324176858
 11
81.7313921292
 21
34.5324176858
  0
LINE
  5
5D4
100
AcDbEntity
  8
0
100
AcDbLine
 62
7
  6
CONTINUOUS
 10
81.0907159067
 20
34.6574186395
 11
81.6608025911
 21
34.6574186395
  0
LINE
  5
5D5
100
AcDbEntity
  8
0
100
AcDbLine
 62
7
  6
CONTINUOUS
 10
81.0573330896
 20
34.7199176858
 11
81.6260605298
 21
34.7199176858
  0
LINE
  5
5D6
100
AcDbEntity
  8
0
100
AcDbLine
 62
7
  6
CONTINUOUS
 10
80.8641728146
 20
35.0949176858
 11
81.4251633742
 21
35.0949176858
  0
LINE
  5
5D7
100
AcDbEntity
  8
0
100
AcDbLine
 62
7
  6
CONTINUOUS
 10
80.6250630419
 20
35.5949186395
 11
81.1767684664
 21
35.5949186395
  0
LINE
  5
5D8
100
AcDbEntity
  8
KONSTRUKTIONSELEMENTE
100
AcDbLine
 62
7
  6
CONTINUOUS
 10
90.1545482928
 20
43.8428183461
 11
90.249453654
 21
43.751091418
  0
LINE
  5
5D9
100
AcDbEntity
  8
KONSTRUKTIONSELEMENTE
100
AcDbLine
 62
7
  6
CONTINUOUS
 10
92.5091756152
 20
42.4624181626
 11
94.818576692
 21
38.4624181626
  0
LINE
  5
5DA
100
AcDbEntity
  8
KONSTRUKTIONSELEMENTE
100
AcDbLine
 62
7
  6
CONTINUOUS
 10
92.2317285853
 20
45.3333341176
 11
92.1091689582
 21
45.5671344028
  0
LINE
  5
5DB
100
AcDbEntity
  8
KONSTRUKTIONSELEMENTE
100
AcDbLine
 62
7
  6
CONTINUOUS
 10
91.9106847372
 20
45.4032655588
 11
91.9548140465
 21
45.2512693167
  0
LINE
  5
5DC
100
AcDbEntity
  8
KONSTRUKTIONSELEMENTE
100
AcDbLine
 62
7
  6
CONTINUOUS
 10
93.4670731881
 20
46.8082707162
 11
93.426028219
 21
47.0690362742
  0
LINE
  5
5DD
100
AcDbEntity
  8
KONSTRUKTIONSELEMENTE
100
AcDbLine
 62
7
  6
CONTINUOUS
 10
92.2587072952
 20
45.1462416981
 11
92.2317285853
 21
45.3333341176
  0
LINE
  5
5DE
100
AcDbEntity
  8
KONSTRUKTIONSELEMENTE
100
AcDbLine
 62
7
  6
CONTINUOUS
 10
95.5595381098
 20
50.3629816417
 11
95.7576278784
 21
47.8708419097
  0
LINE
  5
5DF
100
AcDbEntity
  8
KONSTRUKTIONSELEMENTE
100
AcDbLine
 62
7
  6
CONTINUOUS
 10
95.9912659783
 20
47.8894128255
 11
95.8353229639
 21
49.8513101245
  0
LINE
  5
5E0
100
AcDbEntity
  8
KONSTRUKTIONSELEMENTE
100
AcDbLine
 62
7
  6
CONTINUOUS
 10
97.078185759
 20
50.4836925944
 11
96.6711068978
 21
48.2102468265
  0
LINE
  5
5E1
100
AcDbEntity
  8
KONSTRUKTIONSELEMENTE
100
AcDbLine
 62
7
  6
CONTINUOUS
 10
98.3426457732
 20
49.9963882011
 11
98.262043239
 21
49.578559617
  0
LINE
  5
5E2
100
AcDbEntity
  8
KONSTRUKTIONSELEMENTE
100
AcDbLine
 62
7
  6
CONTINUOUS
 10
96.8479393082
 20
47.9575062071
 11
97.2371515632
 21
49.9627356193
  0
LINE
  5
5E3
100
AcDbEntity
  8
KONSTRUKTIONSELEMENTE
100
AcDbLine
 62
7
  6
CONTINUOUS
 10
98.8250967354
 20
48.017635289
 11
98.717174575
 21
47.7745588118
  0
LINE
  5
5E4
100
AcDbEntity
  8
KONSTRUKTIONSELEMENTE
100
AcDbLine
 62
7
  6
CONTINUOUS
 10
99.6519552991
 20
49.6874686164
 11
99.5299154537
 21
49.5088586498
  0
LINE
  5
5E5
100
AcDbEntity
  8
KONSTRUKTIONSELEMENTE
100
AcDbLine
 62
7
  6
CONTINUOUS
 10
100.5221009284
 20
48.9519467523
 11
100.3643589538
 21
48.7891879736
  0
LINE
  5
5E6
100
AcDbEntity
  8
KONSTRUKTIONSELEMENTE
100
AcDbLine
 62
7
  6
CONTINUOUS
 10
99.7084252827
 20
49.4296030731
 11
99.8445820112
 21
49.5437469259
  0
LINE
  5
5E7
100
AcDbEntity
  8
KONSTRUKTIONSELEMENTE
100
AcDbLine
 62
7
  6
CONTINUOUS
 10
100.4781154956
 20
48.564086531
 11
100.6142722241
 21
48.6782303839
  0
LINE
  5
5E8
100
AcDbEntity
  8
KONSTRUKTIONSELEMENTE
100
AcDbLine
 62
7
  6
CONTINUOUS
 10
100.3643589538
 20
48.7891879736
 11
98.8250967354
 21
48.017635289
  0
LINE
  5
5E9
100
AcDbEntity
  8
KONSTRUKTIONSELEMENTE
100
AcDbLine
 62
7
  6
CONTINUOUS
 10
99.1107113177
 20
47.8908268741
 11
100.4781154956
 21
48.564086531
  0
LINE
  5
5EA
100
AcDbEntity
  8
KONSTRUKTIONSELEMENTE
100
AcDbLine
 62
7
  6
CONTINUOUS
 10
91.7490074976
 20
44.8301158685
 11
91.6019749139
 21
44.7715353865
  0
LINE
  5
5EB
100
AcDbEntity
  8
KONSTRUKTIONSELEMENTE
100
AcDbLine
 62
7
  6
CONTINUOUS
 10
89.7117082925
 20
44.1394672304
 11
89.4851109159
 21
44.0519693394
  0
LINE
  5
5EC
100
AcDbEntity
  8
0
100
AcDbLine
 62
7
  6
CONTINUOUS
 10
79.9014095318
 20
37.4699186395
 11
80.4268281901
 21
37.4699186395
  0
LINE
  5
5ED
100
AcDbEntity
  8
0
100
AcDbLine
 62
7
  6
CONTINUOUS
 10
79.7872486771
 20
37.8449186395
 11
80.3087513472
 21
37.8449186395
  0
LINE
  5
5EE
100
AcDbEntity
  8
0
100
AcDbLine
 62
7
  6
CONTINUOUS
 10
79.7035437775
 20
38.1424179242
 11
80.2222126809
 21
38.1424179242
  0
LINE
  5
5EF
100
AcDbEntity
  8
KONSTRUKTIONSELEMENTE
100
AcDbLine
 62
7
  6
CONTINUOUS
 10
90.4338535873
 20
43.9231601734
 11
90.23878762
 21
44.0679065737
  0
LINE
  5
5F0
100
AcDbEntity
  8
KONSTRUKTIONSELEMENTE
100
AcDbLine
 62
7
  6
CONTINUOUS
 10
92.1091689582
 20
45.5671344028
 11
91.9523081574
 21
45.730742321
  0
LINE
  5
5F1
100
AcDbEntity
  8
KONSTRUKTIONSELEMENTE
100
AcDbLine
 62
7
  6
CONTINUOUS
 10
91.8016144265
 20
45.5435195287
 11
91.9106847372
 21
45.4032655588
  0
LINE
  5
5F2
100
AcDbEntity
  8
KONSTRUKTIONSELEMENTE
100
AcDbLine
 62
7
  6
CONTINUOUS
 10
93.426028219
 20
47.0690362742
 11
93.3299703605
 21
47.274330659
  0
LINE
  5
5F3
100
AcDbEntity
  8
KONSTRUKTIONSELEMENTE
100
AcDbLine
 62
7
  6
CONTINUOUS
 10
93.1271633465
 20
47.145372179
 11
93.1854534228
 21
46.9775335342
  0
LINE
  5
5F4
100
AcDbEntity
  8
KONSTRUKTIONSELEMENTE
100
AcDbLine
 62
7
  6
CONTINUOUS
 10
97.2371515632
 20
49.9627356193
 11
97.3930945775
 21
48.0008383203
  0
LINE
  5
5F5
100
AcDbEntity
  8
KONSTRUKTIONSELEMENTE
100
AcDbLine
 62
7
  6
CONTINUOUS
 10
97.6267326774
 20
48.0194092361
 11
97.4286429088
 21
50.5115489681
  0
LINE
  5
5F6
100
AcDbEntity
  8
KONSTRUKTIONSELEMENTE
100
AcDbLine
 62
7
  6
CONTINUOUS
 10
98.5627025567
 20
49.899765292
 11
98.1697652833
 21
47.8628513651
  0
LINE
  5
5F7
100
AcDbEntity
  8
KONSTRUKTIONSELEMENTE
100
AcDbLine
 62
7
  6
CONTINUOUS
 10
98.39989738
 20
47.8184570108
 11
98.8734371594
 21
50.2731993755
  0
LINE
  5
5F8
100
AcDbEntity
  8
KONSTRUKTIONSELEMENTE
100
AcDbLine
 62
7
  6
CONTINUOUS
 10
100.779480988
 20
48.9540710639
 11
100.830116575
 21
49.1643834064
  0
LINE
  5
5F9
100
AcDbEntity
  8
KONSTRUKTIONSELEMENTE
100
AcDbLine
 62
7
  6
CONTINUOUS
 10
100.565269847
 20
49.0491774657
 11
100.5221009284
 21
48.9519467523
  0
LINE
  5
5FA
100
AcDbEntity
  8
KONSTRUKTIONSELEMENTE
100
AcDbLine
 62
7
  6
CONTINUOUS
 10
100.0024414214
 20
47.2039204008
 11
100.1103635818
 21
47.446996878
  0
LINE
  5
5FB
100
AcDbEntity
  8
KONSTRUKTIONSELEMENTE
100
AcDbLine
 62
7
  6
CONTINUOUS
 10
100.7363120695
 20
48.8568403505
 11
100.779480988
 21
48.9540710639
  0
LINE
  5
5FC
100
AcDbEntity
  8
KONSTRUKTIONSELEMENTE
100
AcDbLine
 62
7
  6
CONTINUOUS
 10
100.6142722241
 20
48.6782303839
 11
100.7363120695
 21
48.8568403505
  0
LINE
  5
5FD
100
AcDbEntity
  8
0
100
AcDbLine
 62
7
  6
CONTINUOUS
 10
79.6499868515
 20
38.3449181626
 11
80.1668589945
 21
38.3449181626
  0
LINE
  5
5FE
100
AcDbEntity
  8
0
100
AcDbLine
 62
7
  6
CONTINUOUS
 10
79.6442054683
 20
38.367418401
 11
80.1608844105
 21
38.367418401
  0
LINE
  5
5FF
100
AcDbEntity
  8
0
100
AcDbLine
 62
7
  6
CONTINUOUS
 10
79.6283232803
 20
38.4299181626
 11
80.1444722306
 21
38.4299181626
  0
LINE
  5
600
100
AcDbEntity
  8
KONSTRUKTIONSELEMENTE
100
AcDbLine
 62
7
  6
CONTINUOUS
 10
94.818576692
 20
38.4624181626
 11
99.4373788455
 21
38.4624181626
  0
LINE
  5
601
100
AcDbEntity
  8
0
100
AcDbLine
 62
7
  6
CONTINUOUS
 10
79.5973369327
 20
38.554918401
 11
80.1124550378
 21
38.554918401
  0
LINE
  5
602
100
AcDbEntity
  8
0
100
AcDbLine
 62
7
  6
CONTINUOUS
 10
79.5384565282
 20
38.8049181626
 11
80.0516273056
 21
38.8049181626
  0
LINE
  5
603
100
AcDbEntity
  8
0
100
AcDbLine
 62
7
  6
CONTINUOUS
 10
79.4836616753
 20
39.0549179242
 11
79.9950336402
 21
39.0549179242
  0
LINE
  5
604
100
AcDbEntity
  8
0
100
AcDbLine
 62
7
  6
CONTINUOUS
 10
79.4208504785
 20
39.3674181626
 11
79.930176171
 21
39.3674181626
  0
LINE
  5
605
100
AcDbEntity
  8
KONSTRUKTIONSELEMENTE
100
AcDbLine
 62
7
  6
CONTINUOUS
 10
90.0016797687
 20
43.902993882
 11
90.1545482928
 21
43.8428183461
  0
LINE
  5
606
100
AcDbEntity
  8
KONSTRUKTIONSELEMENTE
100
AcDbLine
 62
7
  6
CONTINUOUS
 10
90.23878762
 20
44.0679065737
 11
90.0859190959
 21
44.1280821097
  0
LINE
  5
607
100
AcDbEntity
  8
KONSTRUKTIONSELEMENTE
100
AcDbLine
 62
7
  6
CONTINUOUS
 10
89.6315824049
 20
45.3431197081
 11
91.1130867576
 21
44.6191477228
  0
LINE
  5
608
100
AcDbEntity
  8
KONSTRUKTIONSELEMENTE
100
AcDbLine
 62
7
  6
CONTINUOUS
 10
91.2159900811
 20
44.8297245473
 11
89.7344857285
 21
45.5536965326
  0
LINE
  5
609
100
AcDbEntity
  8
KONSTRUKTIONSELEMENTE
100
AcDbLine
 62
7
  6
CONTINUOUS
 10
91.9523081574
 20
45.730742321
 11
91.7305064533
 21
45.8826081678
  0
LINE
  5
60A
100
AcDbEntity
  8
KONSTRUKTIONSELEMENTE
100
AcDbLine
 62
7
  6
CONTINUOUS
 10
91.6276031789
 20
45.6720314437
 11
91.8016144265
 21
45.5435195287
  0
LINE
  5
60B
100
AcDbEntity
  8
KONSTRUKTIONSELEMENTE
100
AcDbLine
 62
7
  6
CONTINUOUS
 10
90.8975758155
 20
47.5410442512
 11
92.6726605483
 21
45.7806254966
  0
LINE
  5
60C
100
AcDbEntity
  8
KONSTRUKTIONSELEMENTE
100
AcDbLine
 62
7
  6
CONTINUOUS
 10
92.6110932455
 20
46.1717739989
 11
91.2892216084
 21
47.4827241626
  0
LINE
  5
60D
100
AcDbEntity
  8
KONSTRUKTIONSELEMENTE
100
AcDbLine
 62
7
  6
CONTINUOUS
 10
92.4370823721
 20
47.8847663853
 11
93.0035987615
 21
47.3229306271
  0
LINE
  5
60E
100
AcDbEntity
  8
KONSTRUKTIONSELEMENTE
100
AcDbLine
 62
7
  6
CONTINUOUS
 10
93.1686380198
 20
47.4893448208
 11
92.6021216303
 21
48.051180579
  0
LINE
  5
60F
100
AcDbEntity
  8
KONSTRUKTIONSELEMENTE
100
AcDbLine
 62
7
  6
CONTINUOUS
 10
93.3299703605
 20
47.274330659
 11
93.1686380198
 21
47.4893448208
  0
LINE
  5
610
100
AcDbEntity
  8
KONSTRUKTIONSELEMENTE
100
AcDbLine
 62
7
  6
CONTINUOUS
 10
93.0035987615
 20
47.3229306271
 11
93.1271633465
 21
47.145372179
  0
LINE
  5
611
100
AcDbEntity
  8
KONSTRUKTIONSELEMENTE
100
AcDbLine
 62
7
  6
CONTINUOUS
 10
95.8353229639
 20
49.8513101245
 11
96.5364212475
 21
47.9327449388
  0
LINE
  5
612
100
AcDbEntity
  8
KONSTRUKTIONSELEMENTE
100
AcDbLine
 62
7
  6
CONTINUOUS
 10
96.6711068978
 20
48.2102468265
 11
95.9099952596
 21
50.3908380154
  0
LINE
  5
613
100
AcDbEntity
  8
KONSTRUKTIONSELEMENTE
100
AcDbLine
 62
7
  6
CONTINUOUS
 10
100.5586188757
 20
49.2267257075
 11
100.565269847
 21
49.0491774657
  0
LINE
  5
614
100
AcDbEntity
  8
0
100
AcDbLine
 62
7
  6
CONTINUOUS
 10
79.2052503765
 20
40.8674181626
 11
79.7076770492
 21
40.8674181626
  0
LINE
  5
615
100
AcDbEntity
  8
0
100
AcDbLine
 62
7
  6
CONTINUOUS
 10
79.1796655453
 20
41.1574181626
 11
79.6812861056
 21
41.1574181626
  0
LINE
  5
616
100
AcDbEntity
  8
0
100
AcDbLine
 62
7
  6
CONTINUOUS
 10
79.1643519609
 20
41.3674180434
 11
79.6654912851
 21
41.3674180434
  0
LINE
  5
617
100
AcDbEntity
  8
0
100
AcDbLine
 62
7
  6
CONTINUOUS
 10
79.14369435
 20
41.7424180434
 11
79.6441859836
 21
41.7424180434
  0
LINE
  5
618
100
AcDbEntity
  8
0
100
AcDbLine
 62
7
  6
CONTINUOUS
 10
79.1410831627
 20
41.8049181626
 11
79.6414930472
 21
41.8049181626
  0
LINE
  5
619
100
AcDbEntity
  8
0
100
AcDbLine
 62
7
  6
CONTINUOUS
 10
79.1365720853
 20
41.9299180434
 11
79.6368413606
 21
41.9299180434
  0
LINE
  5
61A
100
AcDbEntity
  8
0
100
AcDbLine
 62
7
  6
CONTINUOUS
 10
79.1315847155
 20
42.1174180434
 11
79.631697735
 21
42.1174180434
  0
LINE
  5
61B
100
AcDbEntity
  8
0
100
AcDbLine
 62
7
  6
CONTINUOUS
 10
79.1282512499
 20
42.3674181626
 11
79.6282598025
 21
42.3674181626
  0
LINE
  5
61C
100
AcDbEntity
  8
0
100
AcDbLine
 62
7
  6
CONTINUOUS
 10
79.1287058405
 20
42.6174182818
 11
79.6287285687
 21
42.6174182818
  0
LINE
  5
61D
100
AcDbEntity
  8
KONSTRUKTIONSELEMENTE
100
AcDbLine
 62
7
  6
CONTINUOUS
 10
89.1008564929
 20
42.8032499918
 11
91.5781289337
 21
42.4669149594
  0
LINE
  5
61E
100
AcDbEntity
  8
KONSTRUKTIONSELEMENTE
100
AcDbLine
 62
7
  6
CONTINUOUS
 10
91.609660343
 20
42.6991592508
 11
90.5027939175
 21
42.8494366078
  0
LINE
  5
61F
100
AcDbEntity
  8
KONSTRUKTIONSELEMENTE
100
AcDbLine
 62
7
  6
CONTINUOUS
 10
90.1865464096
 20
42.8923729898
 11
89.3959274921
 21
42.9997139648
  0
LINE
  5
620
100
AcDbEntity
  8
KONSTRUKTIONSELEMENTE
100
AcDbLine
 62
7
  6
CONTINUOUS
 10
89.843555867
 20
43.9244620931
 11
90.0016797687
 21
43.902993882
  0
LINE
  5
621
100
AcDbEntity
  8
KONSTRUKTIONSELEMENTE
100
AcDbLine
 62
7
  6
CONTINUOUS
 10
90.0859190959
 20
44.1280821097
 11
89.8750872763
 21
44.1567063844
  0
LINE
  5
622
100
AcDbEntity
  8
KONSTRUKTIONSELEMENTE
100
AcDbLine
 62
7
  6
CONTINUOUS
 10
91.4243023874
 20
44.7714048067
 11
91.2159900811
 21
44.8297245473
  0
LINE
  5
623
100
AcDbEntity
  8
KONSTRUKTIONSELEMENTE
100
AcDbLine
 62
7
  6
CONTINUOUS
 10
91.1130867576
 20
44.6191477228
 11
91.3691896186
 21
44.5374742512
  0
LINE
  5
624
100
AcDbEntity
  8
KONSTRUKTIONSELEMENTE
100
AcDbLine
 62
7
  6
CONTINUOUS
 10
90.1460988263
 20
46.396003429
 11
91.6276031789
 21
45.6720314437
  0
LINE
  5
625
100
AcDbEntity
  8
KONSTRUKTIONSELEMENTE
100
AcDbLine
 62
7
  6
CONTINUOUS
 10
91.7305064533
 20
45.8826081678
 11
90.2490021007
 21
46.6065801531
  0
LINE
  5
626
100
AcDbEntity
  8
KONSTRUKTIONSELEMENTE
100
AcDbLine
 62
7
  6
CONTINUOUS
 10
92.2585049109
 20
48.006853647
 11
92.4370823721
 21
47.8847663853
  0
LINE
  5
627
100
AcDbEntity
  8
KONSTRUKTIONSELEMENTE
100
AcDbLine
 62
7
  6
CONTINUOUS
 10
92.6021216303
 20
48.051180579
 11
92.3857763076
 21
48.2107236594
  0
LINE
  5
628
100
AcDbEntity
  8
KONSTRUKTIONSELEMENTE
100
AcDbLine
 62
7
  6
CONTINUOUS
 10
99.4373788455
 20
38.4624181626
 11
101.7467799222
 21
42.4624181626
  0
LINE
  5
629
100
AcDbEntity
  8
KONSTRUKTIONSELEMENTE
100
AcDbLine
 62
7
  6
CONTINUOUS
 10
90.592132908
 20
43.5074620814
 11
91.74104121
 21
43.666843761
  0
LINE
  5
62A
100
AcDbEntity
  8
KONSTRUKTIONSELEMENTE
100
AcDbLine
 62
7
  6
CONTINUOUS
 10
91.6019749139
 20
44.7715353865
 11
91.4243023874
 21
44.7714048067
  0
LINE
  5
62B
100
AcDbEntity
  8
0
100
AcDbLine
 62
7
  6
CONTINUOUS
 10
79.1329489692
 20
42.8674180434
 11
79.6331043683
 21
42.8674180434
  0
LINE
  5
62C
100
AcDbEntity
  8
0
100
AcDbLine
 62
7
  6
CONTINUOUS
 10
79.1386192642
 20
43.0549180434
 11
79.6389520357
 21
43.0549180434
  0
LINE
  5
62D
100
AcDbEntity
  8
0
100
AcDbLine
 62
7
  6
CONTINUOUS
 10
79.143585345
 20
43.1799182818
 11
79.6440735655
 21
43.1799182818
  0
LINE
  5
62E
100
AcDbEntity
  8
0
100
AcDbLine
 62
7
  6
CONTINUOUS
 10
79.1464244382
 20
43.2424180434
 11
79.6470015724
 21
43.2424180434
  0
LINE
  5
62F
100
AcDbEntity
  8
0
100
AcDbLine
 62
7
  6
CONTINUOUS
 10
79.1684524152
 20
43.6174182222
 11
79.669720506
 21
43.6174182222
  0
LINE
  5
630
100
AcDbEntity
  8
0
100
AcDbLine
 62
7
  6
CONTINUOUS
 10
79.1969874227
 20
43.9699181626
 11
79.6991534634
 21
43.9699181626
  0
LINE
  5
631
100
AcDbEntity
  8
0
100
AcDbLine
 62
7
  6
CONTINUOUS
 10
79.2111883385
 20
44.117418103
 11
79.7138024776
 21
44.117418103
  0
LINE
  5
632
100
AcDbEntity
  8
0
100
AcDbLine
 62
7
  6
CONTINUOUS
 10
79.2176092919
 20
44.1799182222
 11
79.7204263058
 21
44.1799182222
  0
LINE
  5
633
100
AcDbEntity
  8
0
100
AcDbLine
 62
7
  6
CONTINUOUS
 10
79.2242708706
 20
44.2424181626
 11
79.7272985379
 21
44.2424181626
  0
LINE
  5
634
100
AcDbEntity
  8
0
100
AcDbLine
 62
7
  6
CONTINUOUS
 10
79.2457024765
 20
44.4299181626
 11
79.7494090753
 21
44.4299181626
  0
LINE
  5
635
100
AcDbEntity
  8
0
100
AcDbLine
 62
7
  6
CONTINUOUS
 10
79.2776660281
 20
44.679918103
 11
79.7823886659
 21
44.679918103
  0
LINE
  5
636
100
AcDbEntity
  8
0
100
AcDbLine
 62
7
  6
CONTINUOUS
 10
79.323098131
 20
44.9924181626
 11
79.8292721255
 21
44.9924181626
  0
LINE
  5
637
100
AcDbEntity
  8
KONSTRUKTIONSELEMENTE
100
AcDbLine
 62
7
  6
CONTINUOUS
 10
91.3691896186
 20
44.5374742512
 11
91.5946525859
 21
44.5142507823
  0
LINE
  5
638
100
AcDbEntity
  8
KONSTRUKTIONSELEMENTE
100
AcDbLine
 62
7
  6
CONTINUOUS
 10
92.0901883468
 20
48.0637493894
 11
92.2585049109
 21
48.006853647
  0
LINE
  5
639
100
AcDbEntity
  8
KONSTRUKTIONSELEMENTE
100
AcDbLine
 62
7
  6
CONTINUOUS
 10
92.3857763076
 20
48.2107236594
 11
92.1796920935
 21
48.3050750105
  0
LINE
  5
63A
100
AcDbEntity
  8
KONSTRUKTIONSELEMENTE
100
AcDbLine
 62
7
  6
CONTINUOUS
 10
101.7467799222
 20
42.4624181626
 11
99.4373788455
 21
46.4624181626
  0
LINE
  5
63B
100
AcDbEntity
  8
KONSTRUKTIONSELEMENTE
100
AcDbLine
 62
7
  6
CONTINUOUS
 10
100.4946821632
 20
49.3715094856
 11
100.5586188757
 21
49.2267257075
  0
LINE
  5
63C
100
AcDbEntity
  8
KONSTRUKTIONSELEMENTE
100
AcDbLine
 62
7
  6
CONTINUOUS
 10
100.830116575
 20
49.1643834064
 11
100.7736465914
 21
49.4222489497
  0
LINE
  5
63D
100
AcDbEntity
  8
KONSTRUKTIONSELEMENTE
100
AcDbLine
 62
7
  6
CONTINUOUS
 10
91.5946525859
 20
44.5142507823
 11
91.8544165462
 21
44.5612193956
  0
LINE
  5
63E
100
AcDbEntity
  8
KONSTRUKTIONSELEMENTE
100
AcDbLine
 62
7
  6
CONTINUOUS
 10
91.7778278642
 20
43.9377955081
 11
90.5182484888
 21
43.7540185554
  0
LINE
  5
63F
100
AcDbEntity
  8
KONSTRUKTIONSELEMENTE
100
AcDbLine
 62
7
  6
CONTINUOUS
 10
89.6801768832
 20
43.9072229391
 11
89.843555867
 21
43.9244620931
  0
LINE
  5
640
100
AcDbEntity
  8
KONSTRUKTIONSELEMENTE
100
AcDbLine
 62
7
  6
CONTINUOUS
 10
89.8750872763
 20
44.1567063844
 11
89.7117082925
 21
44.1394672304
  0
LINE
  5
641
100
AcDbEntity
  8
KONSTRUKTIONSELEMENTE
100
AcDbLine
 62
7
  6
CONTINUOUS
 10
99.4373788455
 20
46.4624181626
 11
94.818576692
 21
46.4624181626
  0
LINE
  5
642
100
AcDbEntity
  8
0
100
AcDbLine
 62
7
  6
CONTINUOUS
 10
79.6276933962
 20
46.4924181626
 11
80.14382135
 21
46.4924181626
  0
LINE
  5
643
100
AcDbEntity
  8
KONSTRUKTIONSELEMENTE
100
AcDbLine
 62
7
  6
CONTINUOUS
 10
92.1796920935
 20
48.3050750105
 11
91.9185950032
 21
48.3439551754
  0
LINE
  5
644
100
AcDbEntity
  8
KONSTRUKTIONSELEMENTE
100
AcDbLine
 62
7
  6
CONTINUOUS
 10
98.1697652833
 20
47.8628513651
 11
98.39989738
 21
47.8184570108
  0
LINE
  5
645
100
AcDbEntity
  8
KONSTRUKTIONSELEMENTE
100
AcDbLine
 62
7
  6
CONTINUOUS
 10
98.717174575
 20
47.7745588118
 11
100.0024414214
 21
47.2039204008
  0
LINE
  5
646
100
AcDbEntity
  8
KONSTRUKTIONSELEMENTE
100
AcDbLine
 62
7
  6
CONTINUOUS
 10
100.1103635818
 20
47.446996878
 11
99.1107113177
 21
47.8908268741
  0
LINE
  5
647
100
AcDbEntity
  8
KONSTRUKTIONSELEMENTE
100
AcDbLine
 62
7
  6
CONTINUOUS
 10
100.3377575804
 20
49.4993799882
 11
100.4946821632
 21
49.3715094856
  0
LINE
  5
648
100
AcDbEntity
  8
KONSTRUKTIONSELEMENTE
100
AcDbLine
 62
7
  6
CONTINUOUS
 10
100.7736465914
 20
49.4222489497
 11
100.6740085669
 21
49.582883553
  0
LINE
  5
649
100
AcDbEntity
  8
BEZUGSACHSEN
100
AcDbLine
 62
7
  6
CONTINUOUS
 10
102.612805326
 20
32.9624181626
 11
108.0976328833
 21
42.4624181626
  0
LINE
  5
64A
100
AcDbEntity
  8
KONSTRUKTIONSELEMENTE
100
AcDbLine
 62
7
  6
CONTINUOUS
 10
95.7576278784
 20
47.8708419097
 11
95.9912659783
 21
47.8894128255
  0
LINE
  5
64B
100
AcDbEntity
  8
KONSTRUKTIONSELEMENTE
100
AcDbLine
 62
7
  6
CONTINUOUS
 10
96.5364212475
 20
47.9327449388
 11
96.8479393082
 21
47.9575062071
  0
LINE
  5
64C
100
AcDbEntity
  8
KONSTRUKTIONSELEMENTE
100
AcDbLine
 62
7
  6
CONTINUOUS
 10
97.3930945775
 20
48.0008383203
 11
97.6267326774
 21
48.0194092361
  0
LINE
  5
64D
100
AcDbEntity
  8
KONSTRUKTIONSELEMENTE
100
AcDbLine
 62
7
  6
CONTINUOUS
 10
91.9321332061
 20
48.05545372
 11
92.0901883468
 21
48.0637493894
  0
LINE
  5
64E
100
AcDbEntity
  8
0
100
AcDbLine
 62
7
  6
CONTINUOUS
 10
80.0091558307
 20
47.7824182818
 11
80.5383257273
 21
47.7824182818
  0
LINE
  5
64F
100
AcDbEntity
  8
0
100
AcDbLine
 62
7
  6
CONTINUOUS
 10
80.1884959121
 20
48.2824181626
 11
80.7240319824
 21
48.2824181626
  0
LINE
  5
650
100
AcDbEntity
  8
KONSTRUKTIONSELEMENTE
100
AcDbLine
 62
7
  6
CONTINUOUS
 10
99.9948564398
 20
49.5934243023
 11
100.1949498807
 21
49.562784377
  0
LINE
  5
651
100
AcDbEntity
  8
KONSTRUKTIONSELEMENTE
100
AcDbLine
 62
7
  6
CONTINUOUS
 10
100.3385741551
 20
49.7900096322
 11
100.0670764558
 21
49.8523519333
  0
LINE
  5
652
100
AcDbEntity
  8
KONSTRUKTIONSELEMENTE
100
AcDbLine
 62
7
  6
CONTINUOUS
 10
99.5299154537
 20
49.5088586498
 11
99.7084252827
 21
49.4296030731
  0
LINE
  5
653
100
AcDbEntity
  8
KONSTRUKTIONSELEMENTE
100
AcDbLine
 62
7
  6
CONTINUOUS
 10
100.1949498807
 20
49.562784377
 11
100.3377575804
 21
49.4993799882
  0
LINE
  5
654
100
AcDbEntity
  8
KONSTRUKTIONSELEMENTE
100
AcDbLine
 62
7
  6
CONTINUOUS
 10
100.4813818549
 20
49.7266052434
 11
100.3385741551
 21
49.7900096322
  0
LINE
  5
655
100
AcDbEntity
  8
KONSTRUKTIONSELEMENTE
100
AcDbLine
 62
7
  6
CONTINUOUS
 10
100.6740085669
 20
49.582883553
 11
100.4813818549
 21
49.7266052434
  0
LINE
  5
656
100
AcDbEntity
  8
BEZUGSACHSEN
100
AcDbLine
 62
7
  6
CONTINUOUS
 10
108.0976328833
 20
42.4624181626
 11
102.612805326
 21
51.9624181626
  0
LINE
  5
657
100
AcDbEntity
  8
0
100
AcDbLine
 62
7
  6
CONTINUOUS
 10
109.6279777687
 20
63.4624181626
 11
109.6279777687
 21
21.4624181626
  0
LINE
  5
658
100
AcDbEntity
  8
0
100
AcDbLine
 62
7
  6
CONTINUOUS
 10
109.8779777687
 20
65.007656321
 11
109.8779777687
 21
65.9124181626
  0
LINE
  5
659
100
AcDbEntity
  8
KONSTRUKTIONSELEMENTE
100
AcDbLine
 62
7
  6
CONTINUOUS
 10
91.9185950032
 20
48.3439551754
 11
91.7330334244
 21
48.3079239128
  0
LINE
  5
65A
100
AcDbEntity
  8
KONSTRUKTIONSELEMENTE
100
AcDbLine
 62
7
  6
CONTINUOUS
 10
100.0670764558
 20
49.8523519333
 11
99.8811007151
 21
49.8185253821
  0
LINE
  5
65B
100
AcDbEntity
  8
KONSTRUKTIONSELEMENTE
100
AcDbLine
 62
7
  6
CONTINUOUS
 10
97.4286429088
 20
50.5115489681
 11
97.078185759
 21
50.4836925944
  0
LINE
  5
65C
100
AcDbEntity
  8
KONSTRUKTIONSELEMENTE
100
AcDbLine
 62
7
  6
CONTINUOUS
 10
95.9099952596
 20
50.3908380154
 11
95.5595381098
 21
50.3629816417
  0
LINE
  5
65D
100
AcDbEntity
  8
0
100
AcDbLine
 62
7
  6
CONTINUOUS
 10
81.0321915617
 20
50.1574181626
 11
81.5998996751
 21
50.1574181626
  0
LINE
  5
65E
100
AcDbEntity
  8
0
100
AcDbLine
 62
7
  6
CONTINUOUS
 10
81.2361363299
 20
50.5324181626
 11
81.81222227
 21
50.5324181626
  0
LINE
  5
65F
100
AcDbEntity
  8
0
100
AcDbLine
 62
7
  6
CONTINUOUS
 10
81.5281515649
 20
51.0324182222
 11
82.1166825318
 21
51.0324182222
  0
LINE
  5
660
100
AcDbEntity
  8
0
100
AcDbLine
 62
7
  6
CONTINUOUS
 10
81.7630228848
 20
51.4074182222
 11
82.3619695547
 21
51.4074182222
  0
LINE
  5
661
100
AcDbEntity
  8
KONSTRUKTIONSELEMENTE
100
AcDbLine
 62
7
  6
CONTINUOUS
 10
98.8734371594
 20
50.2731993755
 11
98.6433050627
 21
50.3175937299
  0
LINE
  5
662
100
AcDbEntity
  8
0
100
AcDbLine
 62
7
  6
CONTINUOUS
 10
110.9279777687
 20
18.1018878497
 11
110.9279777687
 21
66.8229484755
  0
LINE
  5
663
100
AcDbEntity
  8
BEZUGSACHSEN
100
AcDbLine
 62
7
  6
CONTINUOUS
 10
102.612805326
 20
51.9624181626
 11
91.6431502114
 21
51.9624181626
  0
LINE
  5
664
100
AcDbEntity
  8
0
100
AcDbLine
 62
7
  6
CONTINUOUS
 10
82.3683548701
 20
52.2824181924
 11
82.9959708255
 21
52.2824181924
  0
LINE
  5
665
100
AcDbEntity
  8
0
100
AcDbLine
 62
7
  6
CONTINUOUS
 10
83.0634652434
 20
53.1574181626
 11
83.7276847051
 21
53.1574181626
  0
LINE
  5
666
100
AcDbEntity
  8
0
100
AcDbLine
 62
7
  6
CONTINUOUS
 10
83.39257422
 20
53.5324181626
 11
84.0757009369
 21
53.5324181626
  0
LINE
  5
667
100
AcDbEntity
  8
RUNDUNGEN
100
AcDbLine
 62
7
  6
CONTINUOUS
 10
109.6279777687
 20
58.4624181626
 11
95.6279777687
 21
58.4624181626
  0
LINE
  5
668
100
AcDbEntity
  8
0
100
AcDbLine
 62
7
  6
CONTINUOUS
 10
118.3279777687
 20
66.8229484755
 11
118.3279777687
 21
18.1018878497
  0
LINE
  5
669
100
AcDbEntity
  8
0
100
AcDbLine
 62
7
  6
CONTINUOUS
 10
119.6279777687
 20
63.4624181626
 11
119.6279777687
 21
21.4624181626
  0
LINE
  5
66A
100
AcDbEntity
  8
RUNDUNGEN
100
AcDbLine
 62
7
  6
CONTINUOUS
 10
120.6812111628
 20
58.4186823101
 11
119.6279777687
 21
58.4395130999
  0
LINE
  5
66B
100
AcDbEntity
  8
RUNDUNGEN
100
AcDbLine
 62
7
  6
CONTINUOUS
 10
121.5028890533
 20
58.3971530125
 11
120.6778297959
 21
58.4187604722
  0
LINE
  5
66C
100
AcDbEntity
  8
RUNDUNGEN
100
AcDbLine
 62
7
  6
CONTINUOUS
 10
122.1798930477
 20
58.3757332906
 11
121.5044311345
 21
58.3971086644
  0
LINE
  5
66D
100
AcDbEntity
  8
RUNDUNGEN
100
AcDbLine
 62
7
  6
CONTINUOUS
 10
123.6279777687
 20
28.0482046002
 11
123.6279777687
 21
56.876631725
  0
LINE
  5
66E
100
AcDbEntity
  8
0
100
AcDbLine
 62
7
  6
CONTINUOUS
 10
109.9617428266
 20
65.2422054766
 11
109.8779777687
 21
65.2422054766
  0
LINE
  5
66F
100
AcDbEntity
  8
0
100
AcDbLine
 62
7
  6
CONTINUOUS
 10
110.120377789
 20
65.6251841543
 11
109.8779777687
 21
65.6251841543
  0
LINE
  5
670
100
AcDbEntity
  8
0
100
AcDbLine
 62
7
  6
CONTINUOUS
 10
110.2252890264
 20
65.8166734932
 11
109.8779777687
 21
65.8166734932
  0
LINE
  5
671
100
AcDbEntity
  8
0
100
AcDbLine
 62
7
  6
CONTINUOUS
 10
110.2782052348
 20
65.9124181626
 11
109.8779777687
 21
65.9124181626
  0
ARC
  5
672
100
AcDbEntity
  8
0
100
AcDbCircle
 62
7
  6
CONTINUOUS
 10
96.3375642281
 20
126.4970782157
 40
17.2095863671
100
AcDbArc
 50
180.4504836547
 51
181.3006232976
  0
ARC
  5
673
100
AcDbEntity
  8
0
100
AcDbCircle
 62
7
  6
CONTINUOUS
 10
96.3375612153
 20
128.3328459609
 40
17.2095833543
100
AcDbArc
 50
178.6993765886
 51
179.5495163059
  0
ARC
  5
674
100
AcDbEntity
  8
0
100
AcDbCircle
 62
7
  6
CONTINUOUS
 10
86.7917670776
 20
130.9264644155
 40
7.6637951729
100
AcDbArc
 50
177.524662548
 51
178.2405364483
  0
ARC
  5
675
100
AcDbEntity
  8
0
100
AcDbCircle
 62
7
  6
CONTINUOUS
 10
83.4315368397
 20
121.2064657825
 40
4.3035591646
100
AcDbArc
 50
180.7990319024
 51
182.4981168899
  0
ARC
  5
676
100
AcDbEntity
  8
0
100
AcDbCircle
 62
7
  6
CONTINUOUS
 10
83.4315357168
 20
123.7034583676
 40
4.3035580416
100
AcDbArc
 50
177.5018827624
 51
179.2009679904
  0
ARC
  5
677
100
AcDbEntity
  8
RUNDUNGEN
100
AcDbCircle
 62
7
  6
CONTINUOUS
 10
81.1279777687
 20
134.9949620601
 40
1.5
100
AcDbArc
 50
90.0
 51
180.0
  0
ARC
  5
678
100
AcDbEntity
  8
RUNDUNGEN
100
AcDbCircle
 62
7
  6
CONTINUOUS
 10
81.1279777687
 20
117.9949620601
 40
1.5
100
AcDbArc
 50
180.0
 51
270.0
  0
ARC
  5
679
100
AcDbEntity
  8
0
100
AcDbCircle
 62
7
  6
CONTINUOUS
 10
80.2109164524
 20
131.0580633372
 40
1.0829450674
100
AcDbArc
 50
174.5047018136
 51
177.8897120053
  0
ARC
  5
67A
100
AcDbEntity
  8
0
100
AcDbCircle
 62
7
  6
CONTINUOUS
 10
80.2083658752
 20
131.0735346808
 40
1.0803903169
100
AcDbArc
 50
175.3154146407
 51
178.7055737518
  0
ARC
  5
67B
100
AcDbEntity
  8
0
100
AcDbCircle
 62
7
  6
CONTINUOUS
 10
79.8275544713
 20
130.6947798151
 40
0.6996070877
100
AcDbArc
 50
173.1030154796
 51
174.4183135198
  0
ARC
  5
67C
100
AcDbEntity
  8
0
100
AcDbCircle
 62
7
  6
CONTINUOUS
 10
79.8211158437
 20
130.6953708527
 40
0.6931415026
100
AcDbArc
 50
174.4151710307
 51
178.380355232
  0
ARC
  5
67D
100
AcDbEntity
  8
0
100
AcDbCircle
 62
7
  6
CONTINUOUS
 10
102.0087672544
 20
190.5415130833
 40
17.5329426273
100
AcDbArc
 50
359.8469118182
 51
2.6982855918
  0
ARC
  5
67E
100
AcDbEntity
  8
RUNDUNGEN
100
AcDbCircle
 62
7
  6
CONTINUOUS
 10
113.6279777687
 20
126.4949620601
 40
10.0
100
AcDbArc
 50
270.0
 51
53.1172254471
  0
ARC
  5
67F
100
AcDbEntity
  8
RUNDUNGEN
100
AcDbCircle
 62
7
  6
CONTINUOUS
 10
114.3779777687
 20
126.4949620601
 40
5.25
100
AcDbArc
 50
155.0045345743
 51
360.0
  0
ARC
  5
680
100
AcDbEntity
  8
RUNDUNGEN
100
AcDbCircle
 62
7
  6
CONTINUOUS
 10
114.6279777687
 20
126.4949620601
 40
5.0
100
AcDbArc
 50
180.0
 51
360.0
  0
ARC
  5
681
100
AcDbEntity
  8
0
100
AcDbCircle
 62
7
  6
CONTINUOUS
 10
127.1830741754
 20
190.5425688998
 40
17.4688322121
100
AcDbArc
 50
177.2446648128
 51
180.1573871197
  0
ARC
  5
682
100
AcDbEntity
  8
0
100
AcDbCircle
 62
7
  6
CONTINUOUS
 10
124.0222640504
 20
190.6776283355
 40
14.3051939423
100
AcDbArc
 50
176.7518780981
 51
177.1764136788
  0
ARC
  5
683
100
AcDbEntity
  8
0
100
AcDbCircle
 62
7
  6
CONTINUOUS
 10
114.6279777687
 20
191.4949620601
 40
5.0
100
AcDbArc
 50
0.0
 51
36.8698976458
  0
ARC
  5
684
100
AcDbEntity
  8
0
100
AcDbCircle
 62
7
  6
CONTINUOUS
 10
114.6279777687
 20
191.4949620601
 40
5.0
100
AcDbArc
 50
42.2685844296
 51
137.7314155704
  0
ARC
  5
685
100
AcDbEntity
  8
0
100
AcDbCircle
 62
7
  6
CONTINUOUS
 10
114.6279777687
 20
191.4949620601
 40
5.0
100
AcDbArc
 50
143.1301023542
 51
180.0
  0
ARC
  5
686
100
AcDbEntity
  8
0
100
AcDbCircle
 62
7
  6
CONTINUOUS
 10
191.1146894608
 20
170.4949620601
 40
26.0
100
AcDbArc
 50
0.0
 51
180.0
  0
ARC
  5
687
100
AcDbEntity
  8
0
100
AcDbCircle
 62
7
  6
CONTINUOUS
 10
191.1146894608
 20
170.4949620601
 40
24.3630343442
100
AcDbArc
 50
0.8214772418
 51
179.1785227582
  0
ARC
  5
688
100
AcDbEntity
  8
0
100
AcDbCircle
 62
7
  6
CONTINUOUS
 10
191.1146894608
 20
169.4949620601
 40
17.0
100
AcDbArc
 50
0.0
 51
180.0
  0
ARC
  5
689
100
AcDbEntity
  8
0
100
AcDbCircle
 62
7
  6
CONTINUOUS
 10
174.1146894608
 20
130.4949620601
 40
9.0
100
AcDbArc
 50
180.0
 51
270.0000000014
  0
ARC
  5
68A
100
AcDbEntity
  8
RUNDUNGEN
100
AcDbCircle
 62
7
  6
CONTINUOUS
 10
208.1146894608
 20
130.4949620601
 40
9.0
100
AcDbArc
 50
269.9999999986
 51
360.0
  0
ARC
  5
68B
100
AcDbEntity
  8
0
100
AcDbCircle
 62
7
  6
CONTINUOUS
 10
179.1146894608
 20
136.4949620601
 40
5.0
100
AcDbArc
 50
180.5739511922
 51
216.771603692
  0
ARC
  5
68C
100
AcDbEntity
  8
RUNDUNGEN
100
AcDbCircle
 62
7
  6
CONTINUOUS
 10
203.1146894608
 20
136.4949620601
 40
5.0
100
AcDbArc
 50
323.228396308
 51
359.4260488078
  0
ARC
  5
68D
100
AcDbEntity
  8
0
100
AcDbCircle
 62
7
  6
CONTINUOUS
 10
212.2126133378
 20
159.5508958238
 40
2.0
100
AcDbArc
 50
174.2608295227
 51
356.9363238298
  0
ARC
  5
68E
100
AcDbEntity
  8
0
100
AcDbCircle
 62
7
  6
CONTINUOUS
 10
212.2126133378
 20
156.1508958238
 40
2.0
100
AcDbArc
 50
174.2608295227
 51
356.9363238298
  0
ARC
  5
68F
100
AcDbEntity
  8
RUNDUNGEN
100
AcDbCircle
 62
7
  6
CONTINUOUS
 10
176.6146894608
 20
134.9949620601
 40
1.5
100
AcDbArc
 50
90.0
 51
180.0
  0
ARC
  5
690
100
AcDbEntity
  8
RUNDUNGEN
100
AcDbCircle
 62
7
  6
CONTINUOUS
 10
205.6146894608
 20
134.9949620601
 40
1.5
100
AcDbArc
 50
0.0
 51
90.0
  0
ARC
  5
691
100
AcDbEntity
  8
RUNDUNGEN
100
AcDbCircle
 62
7
  6
CONTINUOUS
 10
205.6146894608
 20
117.9949620601
 40
1.5
100
AcDbArc
 50
270.0
 51
360.0
  0
ARC
  5
692
100
AcDbEntity
  8
RUNDUNGEN
100
AcDbCircle
 62
7
  6
CONTINUOUS
 10
176.6146894608
 20
117.9949620601
 40
1.5
100
AcDbArc
 50
180.0
 51
270.0
  0
ARC
  5
693
100
AcDbEntity
  8
0
100
AcDbCircle
 62
7
  6
CONTINUOUS
 10
212.2126133378
 20
159.5508958238
 40
1.4
100
AcDbArc
 50
282.3736251162
 51
8.2132107017
  0
ARC
  5
694
100
AcDbEntity
  8
0
100
AcDbCircle
 62
7
  6
CONTINUOUS
 10
212.2126133378
 20
159.5508958238
 40
1.4
100
AcDbArc
 50
171.7867892983
 51
257.4447123387
  0
ARC
  5
695
100
AcDbEntity
  8
0
100
AcDbCircle
 62
7
  6
CONTINUOUS
 10
212.2126133378
 20
156.1508958238
 40
1.4
100
AcDbArc
 50
181.7503387136
 51
8.2132107017
  0
ARC
  5
696
100
AcDbEntity
  8
0
100
AcDbCircle
 62
7
  6
CONTINUOUS
 10
95.6279777687
 20
42.4624181626
 40
16.5
100
AcDbArc
 50
217.8199264343
 51
228.8799549646
  0
ARC
  5
697
100
AcDbEntity
  8
0
100
AcDbCircle
 62
7
  6
CONTINUOUS
 10
95.6279777687
 20
42.4624181626
 40
16.5
100
AcDbArc
 50
206.5203203901
 51
215.6532790645
  0
ARC
  5
698
100
AcDbEntity
  8
0
100
AcDbCircle
 62
7
  6
CONTINUOUS
 10
95.6279777687
 20
42.4624181626
 40
16.5
100
AcDbArc
 50
161.1904032481
 51
204.5956709276
  0
ARC
  5
699
100
AcDbEntity
  8
0
100
AcDbCircle
 62
7
  6
CONTINUOUS
 10
95.6279777687
 20
42.4624181626
 40
16.5
100
AcDbArc
 50
150.7191528335
 51
159.3457816866
  0
ARC
  5
69A
100
AcDbEntity
  8
0
100
AcDbCircle
 62
7
  6
CONTINUOUS
 10
95.6279777687
 20
42.4624181626
 40
16.5
100
AcDbArc
 50
137.8627322985
 51
148.7083928313
  0
ARC
  5
69B
100
AcDbEntity
  8
RUNDUNGEN
100
AcDbCircle
 62
7
  6
CONTINUOUS
 10
95.6279777687
 20
42.4624181626
 40
16.0
100
AcDbArc
 50
90.0
 51
270.0
  0
ARC
  5
69C
100
AcDbEntity
  8
0
100
AcDbCircle
 62
7
  6
CONTINUOUS
 10
97.1279777687
 20
42.4624181626
 40
13.0
100
AcDbArc
 50
15.6654652023
 51
344.3345347977
  0
CIRCLE
  5
69D
100
AcDbEntity
  8
BEZUGSACHSEN
100
AcDbCircle
 62
7
  6
CONTINUOUS
 10
97.1279777687
 20
42.4624181626
 40
9.5
  0
ARC
  5
69E
100
AcDbEntity
  8
0
100
AcDbCircle
 62
7
  6
CONTINUOUS
 10
114.6279777687
 20
21.4624181626
 40
5.0
100
AcDbArc
 50
180.0
 51
360.0
  0
ARC
  5
69F
100
AcDbEntity
  8
RUNDUNGEN
100
AcDbCircle
 62
7
  6
CONTINUOUS
 10
114.6279777687
 20
21.4624181626
 40
5.0
100
AcDbArc
 50
180.0
 51
360.0
  0
ARC
  5
6A0
100
AcDbEntity
  8
RUNDUNGEN
100
AcDbCircle
 62
7
  6
CONTINUOUS
 10
122.1279525777
 20
28.0482019324
 40
1.4999987746
100
AcDbArc
 50
271.9860385083
 51
0.0001019024
  0
ARC
  5
6A1
100
AcDbEntity
  8
0
100
AcDbCircle
 62
7
  6
CONTINUOUS
 10
114.6279777687
 20
63.4624181626
 40
5.0
100
AcDbArc
 50
0.0
 51
180.0
  0
ARC
  5
6A2
100
AcDbEntity
  8
RUNDUNGEN
100
AcDbCircle
 62
7
  6
CONTINUOUS
 10
122.1279601918
 20
56.8766334051
 40
1.4999991979
100
AcDbArc
 50
359.9999358242
 51
88.0137108797
  0
SPLINE
  5
6A3
100
AcDbEntity
  8
0
100
AcDbSpline
 62
7
  6
CONTINUOUS
 70
0
 71
3
 72
12
 73
8
 74
0
 42
0.0000001
 43
0.0000001
 44
0.0000000001
 40
0.0
 40
0.0
 40
0.0
 40
0.0
 40
0.1346997617
 40
0.2634863652
 40
0.5120707724
 40
0.7565062165
 40
1.0
 40
1.0
 40
1.0
 40
1.0
 10
110.4498832051
 20
186.8147672385
 30
0.0
 10
110.3612774924
 20
186.9575033375
 30
0.0
 10
110.2071891777
 20
187.249111026
 30
0.0
 10
109.980686512
 20
187.8475737906
 30
0.0
 10
109.8165378929
 20
188.6094579672
 30
0.0
 10
109.7322520663
 20
189.5250188605
 30
0.0
 10
109.7158565597
 20
190.133696566
 30
0.0
 10
109.7144806904
 20
190.4373863846
 30
0.0
  0
LINE
  5
6A4
100
AcDbEntity
  8
0
100
AcDbLine
 62
7
  6
CONTINUOUS
 10
109.7144806904
 20
190.4373863846
 11
109.7143078695
 21
190.4945834155
  0
SPLINE
  5
6A5
100
AcDbEntity
  8
0
100
AcDbSpline
 62
7
  6
CONTINUOUS
 70
0
 71
3
 72
11
 73
7
 74
0
 42
0.0000001
 43
0.0000001
 44
0.0000000001
 40
0.0
 40
0.0
 40
0.0
 40
0.0
 40
0.2396158183
 40
0.4817260237
 40
0.731274674
 40
1.0
 40
1.0
 40
1.0
 40
1.0
 10
109.7400509966
 20
191.4881615005
 30
0.0
 10
109.7544507892
 20
191.7416755042
 30
0.0
 10
109.7972302153
 20
192.2507920374
 30
0.0
 10
109.9306518355
 20
193.015803788
 30
0.0
 10
110.1806939272
 20
193.7856020786
 30
0.0
 10
110.4571156535
 20
194.2671459064
 30
0.0
 10
110.6279777687
 20
194.4949620601
 30
0.0
  0
SPLINE
  5
6A6
100
AcDbEntity
  8
0
100
AcDbSpline
 62
7
  6
CONTINUOUS
 70
0
 71
3
 72
15
 73
11
 74
0
 42
0.0000001
 43
0.0000001
 44
0.0000000001
 40
0.0
 40
0.0
 40
0.0
 40
0.0
 40
0.12557855
 40
0.2506260405
 40
0.3755046367
 40
0.5003351761
 40
0.6251569972
 40
0.7499920518
 40
0.8748888424
 40
1.0
 40
1.0
 40
1.0
 40
1.0
 10
110.9279777687
 20
170.8442546738
 30
0.0
 10
110.681872929
 20
171.4727015586
 30
0.0
 10
110.3207705346
 20
172.7781753172
 30
0.0
 10
110.0255816366
 20
174.7766065991
 30
0.0
 10
109.8785286009
 20
176.7865993889
 30
0.0
 10
109.821561896
 20
178.7990540716
 30
0.0
 10
109.8274583627
 20
180.8119958137
 30
0.0
 10
109.8993671794
 20
182.8243118598
 30
0.0
 10
110.0701106091
 20
184.8325237865
 30
0.0
 10
110.2934767132
 20
186.1608057422
 30
0.0
 10
110.4498832051
 20
186.8147672385
 30
0.0
  0
SPLINE
  5
6A7
100
AcDbEntity
  8
0
100
AcDbSpline
 62
7
  6
CONTINUOUS
 70
0
 71
3
 72
11
 73
7
 74
0
 42
0.0000001
 43
0.0000001
 44
0.0000000001
 40
0.0
 40
0.0
 40
0.0
 40
0.0
 40
0.2686646427
 40
0.5179793973
 40
0.760123086
 40
1.0
 40
1.0
 40
1.0
 40
1.0
 10
118.6279777687
 20
194.4949620601
 30
0.0
 10
118.8053100482
 20
194.2585190207
 30
0.0
 10
119.0899075586
 20
193.7571367743
 30
0.0
 10
119.3407671451
 20
192.9554167228
 30
0.0
 10
119.4701712646
 20
192.1596884955
 30
0.0
 10
119.5095363401
 20
191.6304811593
 30
0.0
 10
119.5222708283
 20
191.3669037411
 30
0.0
  0
LINE
  5
6A8
100
AcDbEntity
  8
0
100
AcDbLine
 62
7
  6
CONTINUOUS
 10
119.5416472978
 20
190.4946669955
 11
119.5414685984
 21
190.4359475265
  0
LINE
  5
6A9
100
AcDbEntity
  8
0
100
AcDbLine
 62
7
  6
CONTINUOUS
 10
119.5414685984
 20
190.4359475265
 11
119.5413976091
 21
190.4216633086
  0
SPLINE
  5
6AA
100
AcDbEntity
  8
0
100
AcDbSpline
 62
7
  6
CONTINUOUS
 70
0
 71
3
 72
12
 73
8
 74
0
 42
0.0000001
 43
0.0000001
 44
0.0000000001
 40
0.0
 40
0.0
 40
0.0
 40
0.0
 40
0.2434707004
 40
0.4878979464
 40
0.736500843
 40
0.8653004111
 40
1.0
 40
1.0
 40
1.0
 40
1.0
 10
119.5413976091
 20
190.4216633086
 30
0.0
 10
119.5397805932
 20
190.1192784574
 30
0.0
 10
119.5229896561
 20
189.513207451
 30
0.0
 10
119.4381428766
 20
188.6015824557
 30
0.0
 10
119.273845302
 20
187.8430575881
 30
0.0
 10
119.0478339168
 20
187.2472487001
 30
0.0
 10
118.89430591
 20
186.9569038604
 30
0.0
 10
118.8060723323
 20
186.8147672385
 30
0.0
  0
SPLINE
  5
6AB
100
AcDbEntity
  8
0
100
AcDbSpline
 62
7
  6
CONTINUOUS
 70
0
 71
3
 72
15
 73
11
 74
0
 42
0.0000001
 43
0.0000001
 44
0.0000000001
 40
0.0
 40
0.0
 40
0.0
 40
0.0
 40
0.1251111936
 40
0.2500079356
 40
0.3748427828
 40
0.4996643279
 40
0.6244945469
 40
0.7493730757
 40
0.8744206077
 40
1.0
 40
1.0
 40
1.0
 40
1.0
 10
118.8060723323
 20
186.8147672385
 30
0.0
 10
118.962478871
 20
186.1608055463
 30
0.0
 10
119.1858473271
 20
184.8325239838
 30
0.0
 10
119.3565863261
 20
182.8243127803
 30
0.0
 10
119.4284976165
 20
180.8119997603
 30
0.0
 10
119.4343941659
 20
178.7990622065
 30
0.0
 10
119.3774236513
 20
176.7866112988
 30
0.0
 10
119.2303787955
 20
174.7766197454
 30
0.0
 10
118.9351877283
 20
172.778184155
 30
0.0
 10
118.5740842621
 20
171.4727057813
 30
0.0
 10
118.3279777687
 20
170.8442546738
 30
0.0
  0
SPLINE
  5
6AC
100
AcDbEntity
  8
BEZUGSACHSEN
100
AcDbSpline
 62
7
  6
CONTINUOUS
 70
0
 71
3
 72
11
 73
7
 74
0
 42
0.0000001
 43
0.0000001
 44
0.0000000001
 40
0.0
 40
0.0
 40
0.0
 40
0.0
 40
0.2404128614
 40
0.4855264342
 40
0.7383770716
 40
1.0
 40
1.0
 40
1.0
 40
1.0
 10
88.9007364909
 20
148.4949620662
 30
0.0
 10
89.1333345347
 20
148.4949620662
 30
0.0
 10
89.6039431732
 20
148.4543297593
 30
0.0
 10
90.2990803579
 20
148.2792075632
 30
0.0
 10
90.9829461001
 20
148.0054768838
 30
0.0
 10
91.4239430216
 20
147.7730156141
 30
0.0
 10
91.6431502114
 20
147.646456284
 30
0.0
  0
SPLINE
  5
6AD
100
AcDbEntity
  8
BEZUGSACHSEN
100
AcDbSpline
 62
7
  6
CONTINUOUS
 70
0
 71
3
 72
11
 73
7
 74
0
 42
0.0000001
 43
0.0000001
 44
0.0000000001
 40
0.0
 40
0.0
 40
0.0
 40
0.0
 40
0.261622934
 40
0.5144736199
 40
0.7595871898
 40
1.0
 40
1.0
 40
1.0
 40
1.0
 10
86.1583226541
 20
147.646456284
 30
0.0
 10
86.3775298584
 20
147.7730156224
 30
0.0
 10
86.8185267949
 20
148.0054770585
 30
0.0
 10
87.5023927542
 20
148.2792073516
 30
0.0
 10
88.1975298306
 20
148.4543301224
 30
0.0
 10
88.6681384863
 20
148.4949620662
 30
0.0
 10
88.9007364909
 20
148.4949620662
 30
0.0
  0
SPLINE
  5
6AE
100
AcDbEntity
  8
BEZUGSACHSEN
100
AcDbSpline
 62
7
  6
CONTINUOUS
 70
0
 71
3
 72
10
 73
6
 74
0
 42
0.0000001
 43
0.0000001
 44
0.0000000001
 40
0.0
 40
0.0
 40
0.0
 40
0.0
 40
0.4998775273
 40
0.7499452582
 40
1.0
 40
1.0
 40
1.0
 40
1.0
 10
91.6431502114
 20
147.646456284
 30
0.0
 10
92.5342694635
 20
147.9037002541
 30
0.0
 10
93.8928599202
 20
148.225313838
 30
0.0
 10
95.7355610415
 20
148.4552821568
 30
0.0
 10
96.6640094802
 20
148.4949620579
 30
0.0
 10
97.1279778359
 20
148.4949620637
 30
0.0
  0
SPLINE
  5
6AF
100
AcDbEntity
  8
BEZUGSACHSEN
100
AcDbSpline
 62
7
  6
CONTINUOUS
 70
0
 71
3
 72
10
 73
6
 74
0
 42
0.0000001
 43
0.0000001
 44
0.0000000001
 40
0.0
 40
0.0
 40
0.0
 40
0.0
 40
0.2500554377
 40
0.5001240227
 40
1.0
 40
1.0
 40
1.0
 40
1.0
 10
97.1279778359
 20
148.4949620637
 30
0.0
 10
97.5919474658
 20
148.4949620637
 30
0.0
 10
98.5203984153
 20
148.4552768062
 30
0.0
 10
100.3631005457
 20
148.2253181008
 30
0.0
 10
101.7216888698
 20
147.903699447
 30
0.0
 10
102.612805326
 20
147.646456284
 30
0.0
  0
SPLINE
  5
6B0
100
AcDbEntity
  8
BEZUGSACHSEN
100
AcDbSpline
 62
7
  6
CONTINUOUS
 70
0
 71
3
 72
11
 73
7
 74
0
 42
0.0000001
 43
0.0000001
 44
0.0000000001
 40
0.0
 40
0.0
 40
0.0
 40
0.0
 40
0.2616229339
 40
0.5144736199
 40
0.7595871899
 40
1.0
 40
1.0
 40
1.0
 40
1.0
 10
102.612805326
 20
147.646456284
 30
0.0
 10
102.8320125258
 20
147.7730156198
 30
0.0
 10
103.2730094533
 20
148.0054770514
 30
0.0
 10
103.9568753977
 20
148.2792073418
 30
0.0
 10
104.6520124588
 20
148.4543301145
 30
0.0
 10
105.1226211049
 20
148.4949620601
 30
0.0
 10
105.3552191047
 20
148.4949620601
 30
0.0
  0
SPLINE
  5
6B1
100
AcDbEntity
  8
BEZUGSACHSEN
100
AcDbSpline
 62
7
  6
CONTINUOUS
 70
0
 71
3
 72
9
 73
5
 74
0
 42
0.0000001
 43
0.0000001
 44
0.0000000001
 40
0.0
 40
0.0
 40
0.0
 40
0.0
 40
0.4961270079
 40
1.0
 40
1.0
 40
1.0
 40
1.0
 10
105.3552191047
 20
148.4949620601
 30
0.0
 10
105.560421962
 20
148.4949620601
 30
0.0
 10
105.9745717717
 20
148.4634465216
 30
0.0
 10
106.3796438802
 20
148.3733294111
 30
0.0
 10
106.5798895112
 20
148.3155797148
 30
0.0
  0
SPLINE
  5
6B2
100
AcDbEntity
  8
BEZUGSACHSEN
100
AcDbSpline
 62
7
  6
CONTINUOUS
 70
0
 71
3
 72
9
 73
5
 74
0
 42
0.0000001
 43
0.0000001
 44
0.0000000001
 40
0.0
 40
0.0
 40
0.0
 40
0.0
 40
0.2431956553
 40
1.0
 40
1.0
 40
1.0
 40
1.0
 10
106.5798895112
 20
148.3155797148
 30
0.0
 10
106.70928071
 20
148.2782640321
 30
0.0
 10
107.2353038559
 20
148.1037687566
 30
0.0
 10
107.7347121846
 20
147.8559886471
 30
0.0
 10
108.0976328833
 20
147.646456284
 30
0.0
  0
LINE
  5
6B3
100
AcDbEntity
  8
0
100
AcDbLine
 62
7
  6
CONTINUOUS
 10
79.1351229562
 20
131.2574587503
 11
79.1365720853
 21
131.2894301661
  0
SPLINE
  5
6B4
100
AcDbEntity
  8
BEZUGSACHSEN
100
AcDbSpline
 62
7
  6
CONTINUOUS
 70
0
 71
3
 72
10
 73
6
 74
0
 42
0.0000001
 43
0.0000001
 44
0.0000000001
 40
0.0
 40
0.0
 40
0.0
 40
0.0
 40
0.5015801031
 40
0.7510697961
 40
1.0
 40
1.0
 40
1.0
 40
1.0
 10
191.1146894608
 20
147.646456284
 30
0.0
 10
191.8829886353
 20
147.9025560088
 30
0.0
 10
193.0576242321
 20
148.2243806966
 30
0.0
 10
194.6574492449
 20
148.4551775612
 30
0.0
 10
195.462763279
 20
148.4949620662
 30
0.0
 10
195.8646895615
 20
148.4949620662
 30
0.0
  0
SPLINE
  5
6B5
100
AcDbEntity
  8
BEZUGSACHSEN
100
AcDbSpline
 62
7
  6
CONTINUOUS
 70
0
 71
3
 72
10
 73
6
 74
0
 42
0.0000001
 43
0.0000001
 44
0.0000000001
 40
0.0
 40
0.0
 40
0.0
 40
0.0
 40
0.2489302526
 40
0.4984199605
 40
1.0
 40
1.0
 40
1.0
 40
1.0
 10
195.8646895615
 20
148.4949620662
 30
0.0
 10
196.2666159059
 20
148.4949620662
 30
0.0
 10
197.0719299834
 20
148.4551772093
 30
0.0
 10
198.6717550167
 20
148.2243810198
 30
0.0
 10
199.8463904157
 20
147.9025559657
 30
0.0
 10
200.6146894608
 20
147.646456284
 30
0.0
  0
SPLINE
  5
6B6
100
AcDbEntity
  8
BEZUGSACHSEN
100
AcDbSpline
 62
7
  6
CONTINUOUS
 70
0
 71
3
 72
10
 73
6
 74
0
 42
0.0000001
 43
0.0000001
 44
0.0000000001
 40
0.0
 40
0.0
 40
0.0
 40
0.0
 40
0.2489302527
 40
0.4984199605
 40
1.0
 40
1.0
 40
1.0
 40
1.0
 10
186.3646898259
 20
148.4949620827
 30
0.0
 10
186.7666161486
 20
148.4949620591
 30
0.0
 10
187.5719301801
 20
148.4551771862
 30
0.0
 10
189.1717551244
 20
148.2243809934
 30
0.0
 10
190.3463904574
 20
147.9025559518
 30
0.0
 10
191.1146894608
 20
147.646456284
 30
0.0
  0
SPLINE
  5
6B7
100
AcDbEntity
  8
BEZUGSACHSEN
100
AcDbSpline
 62
7
  6
CONTINUOUS
 70
0
 71
3
 72
10
 73
6
 74
0
 42
0.0000001
 43
0.0000001
 44
0.0000000001
 40
0.0
 40
0.0
 40
0.0
 40
0.0
 40
0.501580103
 40
0.7510697961
 40
1.0
 40
1.0
 40
1.0
 40
1.0
 10
181.6146894608
 20
147.646456284
 30
0.0
 10
182.3829886772
 20
147.9025560228
 30
0.0
 10
183.55762434
 20
148.2243807242
 30
0.0
 10
185.1574494432
 20
148.4551775818
 30
0.0
 10
185.9627635213
 20
148.4949620827
 30
0.0
 10
186.3646898259
 20
148.4949620827
 30
0.0
  0
SPLINE
  5
6B8
100
AcDbEntity
  8
0
100
AcDbSpline
 62
7
  6
CONTINUOUS
 70
0
 71
3
 72
11
 73
7
 74
0
 42
0.0000001
 43
0.0000001
 44
0.0000000001
 40
0.0
 40
0.0
 40
0.0
 40
0.0
 40
0.2524387652
 40
0.5039178515
 40
0.7536282748
 40
1.0
 40
1.0
 40
1.0
 40
1.0
 10
174.1146894776
 20
136.444822792
 30
0.0
 10
174.1147093104
 20
136.1654674886
 30
0.0
 10
174.1604522433
 20
135.6067894944
 30
0.0
 10
174.361055901
 20
134.7938948176
 30
0.0
 10
174.6805429956
 20
134.0275616241
 30
0.0
 10
174.9615997482
 20
133.5539279852
 30
0.0
 10
175.1143371759
 20
133.328086029
 30
0.0
  0
SPLINE
  5
6B9
100
AcDbEntity
  8
RUNDUNGEN
100
AcDbSpline
 62
7
  6
CONTINUOUS
 70
0
 71
3
 72
11
 73
7
 74
0
 42
0.0000001
 43
0.0000001
 44
0.0000000001
 40
0.0
 40
0.0
 40
0.0
 40
0.0
 40
0.2524387652
 40
0.5039178515
 40
0.7536282748
 40
1.0
 40
1.0
 40
1.0
 40
1.0
 10
208.114689444
 20
136.444822792
 30
0.0
 10
208.1146696113
 20
136.1654674886
 30
0.0
 10
208.0689266783
 20
135.6067894944
 30
0.0
 10
207.8683230206
 20
134.7938948176
 30
0.0
 10
207.548835926
 20
134.0275616241
 30
0.0
 10
207.2677791734
 20
133.5539279852
 30
0.0
 10
207.1150417457
 20
133.328086029
 30
0.0
  0
SPLINE
  5
6BA
100
AcDbEntity
  8
0
100
AcDbSpline
 62
7
  6
CONTINUOUS
 70
0
 71
3
 72
16
 73
12
 74
0
 42
0.0000001
 43
0.0000001
 44
0.0000000001
 40
0.0
 40
0.0
 40
0.0
 40
0.0
 40
0.1279523949
 40
0.2504229091
 40
0.3712283634
 40
0.4916643198
 40
0.6123332289
 40
0.7342860495
 40
0.8606139958
 40
0.9278382691
 40
1.0
 40
1.0
 40
1.0
 40
1.0
 10
118.8060723323
 20
25.2124181626
 30
0.0
 10
118.9562397357
 20
24.9328702767
 30
0.0
 10
119.1819566908
 20
24.3478454405
 30
0.0
 10
119.3559865709
 20
23.441303979
 30
0.0
 10
119.4284950436
 20
22.5410128532
 30
0.0
 10
119.4344186741
 20
21.6428537962
 30
0.0
 10
119.3770153321
 20
20.7432879028
 30
0.0
 10
119.2278159778
 20
19.8384324133
 30
0.0
 10
118.9753559405
 20
19.091422536
 30
0.0
 10
118.655413148
 20
18.5133700336
 30
0.0
 10
118.4461739693
 20
18.2362679861
 30
0.0
 10
118.3279777687
 20
18.1018878497
 30
0.0
  0
SPLINE
  5
6BB
100
AcDbEntity
  8
0
100
AcDbSpline
 62
7
  6
CONTINUOUS
 70
0
 71
3
 72
15
 73
11
 74
0
 42
0.0000001
 43
0.0000001
 44
0.0000000001
 40
0.0
 40
0.0
 40
0.0
 40
0.0
 40
0.1253761874
 40
0.2503596611
 40
0.3752419882
 40
0.5001036976
 40
0.6249638895
 40
0.7498369859
 40
0.8747756773
 40
1.0
 40
1.0
 40
1.0
 40
1.0
 10
118.6279777687
 20
42.4624181626
 30
0.0
 10
118.858070933
 20
41.7733545514
 30
0.0
 10
119.1810518827
 20
40.3516738889
 30
0.0
 10
119.4183717478
 20
38.1888345473
 30
0.0
 10
119.5192429371
 20
36.0190037591
 30
0.0
 10
119.5487501687
 20
33.8484930933
 30
0.0
 10
119.5328426496
 20
31.6779107113
 30
0.0
 10
119.4568304463
 20
29.5076609635
 30
0.0
 10
119.266700657
 20
27.3418377227
 30
0.0
 10
118.9993648765
 20
25.9117834385
 30
0.0
 10
118.8060723323
 20
25.2124181626
 30
0.0
  0
SPLINE
  5
6BC
100
AcDbEntity
  8
0
100
AcDbSpline
 62
7
  6
CONTINUOUS
 70
0
 71
3
 72
15
 73
11
 74
0
 42
0.0000001
 43
0.0000001
 44
0.0000000001
 40
0.0
 40
0.0
 40
0.0
 40
0.0
 40
0.1253761874
 40
0.2503596611
 40
0.3752419882
 40
0.5001036976
 40
0.6249638895
 40
0.7498369859
 40
0.8747756773
 40
1.0
 40
1.0
 40
1.0
 40
1.0
 10
118.6279777687
 20
42.4624181626
 30
0.0
 10
118.858070933
 20
43.1514817738
 30
0.0
 10
119.1810518827
 20
44.5731624363
 30
0.0
 10
119.4183717478
 20
46.7360017779
 30
0.0
 10
119.5192429371
 20
48.9058325661
 30
0.0
 10
119.5487501687
 20
51.0763432319
 30
0.0
 10
119.5328426496
 20
53.246925614
 30
0.0
 10
119.4568304463
 20
55.4171753617
 30
0.0
 10
119.266700657
 20
57.5829986025
 30
0.0
 10
118.9993648765
 20
59.0130528867
 30
0.0
 10
118.8060723323
 20
59.7124181626
 30
0.0
  0
SPLINE
  5
6BD
100
AcDbEntity
  8
0
100
AcDbSpline
 62
7
  6
CONTINUOUS
 70
0
 71
3
 72
16
 73
12
 74
0
 42
0.0000001
 43
0.0000001
 44
0.0000000001
 40
0.0
 40
0.0
 40
0.0
 40
0.0
 40
0.1279523949
 40
0.2504229091
 40
0.3712283634
 40
0.4916643198
 40
0.6123332289
 40
0.7342860495
 40
0.8606139958
 40
0.9278382691
 40
1.0
 40
1.0
 40
1.0
 40
1.0
 10
118.8060723323
 20
59.7124181626
 30
0.0
 10
118.9562397357
 20
59.9919660485
 30
0.0
 10
119.1819566908
 20
60.5769908848
 30
0.0
 10
119.3559865709
 20
61.4835323462
 30
0.0
 10
119.4284950436
 20
62.3838234721
 30
0.0
 10
119.4344186741
 20
63.2819825291
 30
0.0
 10
119.3770153321
 20
64.1815484225
 30
0.0
 10
119.2278159778
 20
65.086403912
 30
0.0
 10
118.9753559405
 20
65.8334137893
 30
0.0
 10
118.655413148
 20
66.4114662916
 30
0.0
 10
118.4461739693
 20
66.6885683392
 30
0.0
 10
118.3279777687
 20
66.8229484755
 30
0.0
  0
SPLINE
  5
6BE
100
AcDbEntity
  8
0
100
AcDbSpline
 62
7
  6
CONTINUOUS
 70
0
 71
3
 72
15
 73
11
 74
0
 42
0.0000001
 43
0.0000001
 44
0.0000000001
 40
0.0
 40
0.0
 40
0.0
 40
0.0
 40
0.1252249954
 40
0.2501637576
 40
0.3750369451
 40
0.4998970999
 40
0.6247587779
 40
0.7496410353
 40
0.8746243683
 40
1.0
 40
1.0
 40
1.0
 40
1.0
 10
110.4498832051
 20
59.7124181626
 30
0.0
 10
110.2565896224
 20
59.0130491293
 30
0.0
 10
109.989254719
 20
57.582990378
 30
0.0
 10
109.7991200351
 20
55.4171626307
 30
0.0
 10
109.723117
 20
53.246911816
 30
0.0
 10
109.70720161
 20
51.0763293985
 30
0.0
 10
109.7367155857
 20
48.9058196188
 30
0.0
 10
109.8375826908
 20
46.7359900203
 30
0.0
 10
110.0749069958
 20
44.573155614
 30
0.0
 10
110.3978856241
 20
43.1514787201
 30
0.0
 10
110.6279777687
 20
42.4624181626
 30
0.0
  0
SPLINE
  5
6BF
100
AcDbEntity
  8
0
100
AcDbSpline
 62
7
  6
CONTINUOUS
 70
0
 71
3
 72
15
 73
11
 74
0
 42
0.0000001
 43
0.0000001
 44
0.0000000001
 40
0.0
 40
0.0
 40
0.0
 40
0.0
 40
0.1252249954
 40
0.2501637576
 40
0.3750369451
 40
0.4998970999
 40
0.6247587779
 40
0.7496410353
 40
0.8746243683
 40
1.0
 40
1.0
 40
1.0
 40
1.0
 10
110.4498832051
 20
25.2124181626
 30
0.0
 10
110.2565896224
 20
25.911787196
 30
0.0
 10
109.989254719
 20
27.3418459472
 30
0.0
 10
109.7991200351
 20
29.5076736945
 30
0.0
 10
109.723117
 20
31.6779245092
 30
0.0
 10
109.70720161
 20
33.8485069267
 30
0.0
 10
109.7367155857
 20
36.0190167065
 30
0.0
 10
109.8375826908
 20
38.188846305
 30
0.0
 10
110.0749069958
 20
40.3516807112
 30
0.0
 10
110.3978856241
 20
41.7733576051
 30
0.0
 10
110.6279777687
 20
42.4624181626
 30
0.0
  0
SPLINE
  5
6C0
100
AcDbEntity
  8
0
100
AcDbSpline
 62
7
  6
CONTINUOUS
 70
0
 71
3
 72
16
 73
12
 74
0
 42
0.0000001
 43
0.0000001
 44
0.0000000001
 40
0.0
 40
0.0
 40
0.0
 40
0.0
 40
0.0721615177
 40
0.1393850479
 40
0.2657129799
 40
0.3876659585
 40
0.5083351768
 40
0.6287714084
 40
0.7495770629
 40
0.8720476741
 40
1.0
 40
1.0
 40
1.0
 40
1.0
 10
110.9279777687
 20
18.1018878497
 30
0.0
 10
110.8097819273
 20
18.2362675777
 30
0.0
 10
110.600546877
 20
18.5133695993
 30
0.0
 10
110.280601149
 20
19.0914175317
 30
0.0
 10
110.0281449215
 20
19.8384271974
 30
0.0
 10
109.8789368754
 20
20.7432820556
 30
0.0
 10
109.8215374026
 20
21.6428503118
 30
0.0
 10
109.8274609094
 20
22.541010986
 30
0.0
 10
109.8999670085
 20
23.4413038684
 30
0.0
 10
110.0740011344
 20
24.3478448972
 30
0.0
 10
110.2997158954
 20
24.932870451
 30
0.0
 10
110.4498832051
 20
25.2124181626
 30
0.0
  0
SPLINE
  5
6C1
100
AcDbEntity
  8
0
100
AcDbSpline
 62
7
  6
CONTINUOUS
 70
0
 71
3
 72
16
 73
12
 74
0
 42
0.0000001
 43
0.0000001
 44
0.0000000001
 40
0.0
 40
0.0
 40
0.0
 40
0.0
 40
0.0721615177
 40
0.1393850479
 40
0.2657129799
 40
0.3876659585
 40
0.5083351768
 40
0.6287714084
 40
0.7495770629
 40
0.8720476741
 40
1.0
 40
1.0
 40
1.0
 40
1.0
 10
110.9279777687
 20
66.8229484755
 30
0.0
 10
110.8097819273
 20
66.6885687476
 30
0.0
 10
110.600546877
 20
66.411466726
 30
0.0
 10
110.280601149
 20
65.8334187936
 30
0.0
 10
110.0281449215
 20
65.0864091278
 30
0.0
 10
109.8789368754
 20
64.1815542696
 30
0.0
 10
109.8215374026
 20
63.2819860134
 30
0.0
 10
109.8274609094
 20
62.3838253393
 30
0.0
 10
109.8999670085
 20
61.4835324569
 30
0.0
 10
110.0740011344
 20
60.5769914281
 30
0.0
 10
110.2997158954
 20
59.9919658743
 30
0.0
 10
110.4498832051
 20
59.7124181626
 30
0.0
  0
ELLIPSE
  5
6C2
100
AcDbEntity
  8
0
100
AcDbEllipse
 62
7
  6
CONTINUOUS
 10
95.6279777687
 20
130.3077273571
 30
0.0
 11
16.5
 21
0.0
 31
0.0
 40
0.255319362
 41
2.9374504417
 42
2.9528991414
  0
ELLIPSE
  5
6C3
100
AcDbEntity
  8
0
100
AcDbEllipse
 62
7
  6
CONTINUOUS
 10
95.6279777687
 20
128.8843233899
 30
0.0
 11
16.5
 21
0.0
 31
0.0
 40
0.6808512211
 41
2.9258316033
 42
2.9374504417
  0
ELLIPSE
  5
6C4
100
AcDbEntity
  8
0
100
AcDbEllipse
 62
7
  6
CONTINUOUS
 10
95.6279777687
 20
125.8779521363
 30
0.0
 11
0.0
 21
25.2765445203
 31
0.0
 40
0.6527791007
 41
1.3472730004
 42
1.3550352765
  0
ELLIPSE
  5
6C5
100
AcDbEntity
  8
0
100
AcDbEllipse
 62
7
  6
CONTINUOUS
 10
95.6279777687
 20
116.5395876937
 30
0.0
 11
0.0
 21
67.4045044117
 31
0.0
 40
0.244790762
 41
1.343386773
 42
1.3472730004
  0
ELLIPSE
  5
6C6
100
AcDbEntity
  8
0
100
AcDbEllipse
 62
7
  6
CONTINUOUS
 10
95.6279777687
 20
147.890336337
 30
0.0
 11
0.0
 21
67.4045044117
 31
0.0
 40
0.244790762
 41
-4.488865654
 42
-4.4849794266
  0
ELLIPSE
  5
6C7
100
AcDbEntity
  8
0
100
AcDbEllipse
 62
7
  6
CONTINUOUS
 10
95.6279777687
 20
138.5519771265
 30
0.0
 11
-0.0
 21
25.2765681237
 31
0.0
 40
0.6527784911
 41
-4.4966279301
 42
-4.488865654
  0
ELLIPSE
  5
6C8
100
AcDbEntity
  8
0
100
AcDbEllipse
 62
7
  6
CONTINUOUS
 10
95.6279777687
 20
135.5455999774
 30
0.0
 11
16.5
 21
0.0
 31
0.0
 40
0.6808509827
 41
3.3457348655
 42
3.3573537039
  0
ELLIPSE
  5
6C9
100
AcDbEntity
  8
0
100
AcDbEllipse
 62
7
  6
CONTINUOUS
 10
95.6279777687
 20
134.1221968077
 30
0.0
 11
16.5
 21
0.0
 31
0.0
 40
0.255319362
 41
-2.9528991414
 42
-2.9374504417
  0
ELLIPSE
  5
6CA
100
AcDbEntity
  8
0
100
AcDbEllipse
 62
7
  6
CONTINUOUS
 10
95.6279777687
 20
130.4736846219
 30
0.0
 11
0.0
 21
25.2766168371
 31
0.0
 40
0.6527772331
 41
1.5309372885
 42
1.5385179875
  0
ELLIPSE
  5
6CB
100
AcDbEntity
  8
0
100
AcDbEllipse
 62
7
  6
CONTINUOUS
 10
95.6279777687
 20
128.7949675014
 30
0.0
 11
-0.0
 21
67.4041187208
 31
0.0
 40
0.2447921628
 41
1.5271460958
 42
1.5309372885
  0
ELLIPSE
  5
6CC
100
AcDbEntity
  8
0
100
AcDbEllipse
 62
7
  6
CONTINUOUS
 10
95.6279777687
 20
121.7860259041
 30
0.0
 11
16.5
 21
0.0
 31
0.0
 40
0.1702127606
 41
3.4182917866
 42
3.4419997596
  0
ELLIPSE
  5
6CD
100
AcDbEntity
  8
0
100
AcDbEllipse
 62
7
  6
CONTINUOUS
 10
95.6279777687
 20
122.5532599629
 30
0.0
 11
16.5
 21
0.0
 31
0.0
 40
0.3404255211
 41
-2.8766870183
 42
-2.8648935206
  0
ELLIPSE
  5
6CE
100
AcDbEntity
  8
0
100
AcDbEllipse
 62
7
  6
CONTINUOUS
 10
95.6279777687
 20
124.0238982954
 30
0.0
 11
16.5
 21
0.0
 31
0.0
 40
0.6808510423
 41
3.3947424047
 42
3.4064982888
  0
ELLIPSE
  5
6CF
100
AcDbEntity
  8
0
100
AcDbEllipse
 62
7
  6
CONTINUOUS
 10
95.6279777687
 20
129.6511163848
 30
0.0
 11
0.0
 21
33.7020623108
 31
0.0
 40
0.4895842826
 41
1.8161287297
 42
1.8239460779
  0
ELLIPSE
  5
6D0
100
AcDbEntity
  8
0
100
AcDbEllipse
 62
7
  6
CONTINUOUS
 10
95.6279777687
 20
121.9588766896
 30
0.0
 11
16.5
 21
-0.0
 31
0.0
 40
0.6127661182
 41
3.0577064263
 42
3.0766986238
  0
ELLIPSE
  5
6D1
100
AcDbEntity
  8
0
100
AcDbEllipse
 62
7
  6
CONTINUOUS
 10
95.6279777687
 20
122.5236431184
 30
0.0
 11
16.5
 21
-0.0
 31
0.0
 40
0.204255139
 41
3.0386838246
 42
3.0577064263
  0
ELLIPSE
  5
6D2
100
AcDbEntity
  8
0
100
AcDbEllipse
 62
7
  6
CONTINUOUS
 10
95.6279777687
 20
121.3011745996
 30
0.0
 11
16.5
 21
-0.0
 31
0.0
 40
0.2042551568
 41
-3.0577064263
 42
-3.0386838246
  0
ELLIPSE
  5
6D3
100
AcDbEntity
  8
0
100
AcDbEllipse
 62
7
  6
CONTINUOUS
 10
95.6279777687
 20
121.8659410778
 30
0.0
 11
16.5
 21
0.0
 31
0.0
 40
0.6127661718
 41
-3.0766986238
 42
-3.0577064263
  0
ELLIPSE
  5
6D4
100
AcDbEntity
  8
0
100
AcDbEllipse
 62
7
  6
CONTINUOUS
 10
95.6279777687
 20
122.6673025937
 30
0.0
 11
0.0
 21
22.4680843949
 31
0.0
 40
0.7343750233
 41
1.6243067154
 42
1.6356903566
  0
ELLIPSE
  5
6D5
100
AcDbEntity
  8
0
100
AcDbEllipse
 62
7
  6
CONTINUOUS
 10
95.6279777687
 20
123.2681504394
 30
0.0
 11
-0.0
 21
33.7020652612
 31
0.0
 40
0.4895842398
 41
1.6167215525
 42
1.6243067154
  0
ELLIPSE
  5
6D6
100
AcDbEntity
  8
0
100
AcDbEllipse
 62
7
  6
CONTINUOUS
 10
95.6279777687
 20
120.7455998627
 30
0.0
 11
16.5
 21
-0.0
 31
0.0
 40
0.255319362
 41
3.0005191236
 42
3.0158066559
  0
ELLIPSE
  5
6D7
100
AcDbEntity
  8
0
100
AcDbEllipse
 62
7
  6
CONTINUOUS
 10
95.6279777687
 20
119.7583665027
 30
0.0
 11
16.5
 21
0.0
 31
0.0
 40
0.6808509827
 41
2.9890318412
 42
3.0005191236
  0
ELLIPSE
  5
6D8
100
AcDbEntity
  8
0
100
AcDbEllipse
 62
7
  6
CONTINUOUS
 10
95.6279777687
 20
117.6243306338
 30
0.0
 11
-0.0
 21
25.2765504211
 31
0.0
 40
0.6527789483
 41
1.4105661198
 42
1.4182355144
  0
ELLIPSE
  5
6D9
100
AcDbEntity
  8
0
100
AcDbEllipse
 62
7
  6
CONTINUOUS
 10
95.6279777687
 20
113.5915272738
 30
0.0
 11
-0.0
 21
50.5533783088
 31
0.0
 40
0.3263876827
 41
1.4067279057
 42
1.4105661198
  0
ELLIPSE
  5
6DA
100
AcDbEntity
  8
0
100
AcDbEllipse
 62
7
  6
CONTINUOUS
 10
95.6279777687
 20
130.2332942691
 30
0.0
 11
0.0
 21
50.5534019123
 31
0.0
 40
0.3263875303
 41
1.7310265338
 42
1.7348647479
  0
ELLIPSE
  5
6DB
100
AcDbEntity
  8
0
100
AcDbEllipse
 62
7
  6
CONTINUOUS
 10
95.6279777687
 20
126.2004862018
 30
0.0
 11
-0.0
 21
25.2765445203
 31
0.0
 40
0.6527791007
 41
1.7233571392
 42
1.7310265338
  0
ELLIPSE
  5
6DC
100
AcDbEntity
  8
0
100
AcDbEllipse
 62
7
  6
CONTINUOUS
 10
95.6279777687
 20
124.0664512297
 30
0.0
 11
16.5
 21
0.0
 31
0.0
 40
0.6808509827
 41
-3.0005191236
 42
-2.9890318412
  0
ELLIPSE
  5
6DD
100
AcDbEntity
  8
0
100
AcDbEllipse
 62
7
  6
CONTINUOUS
 10
95.6279777687
 20
123.0792178697
 30
0.0
 11
16.5
 21
0.0
 31
0.0
 40
0.255319362
 41
3.2673786513
 42
3.2826661836
  0
ELLIPSE
  5
6DE
100
AcDbEntity
  8
0
100
AcDbEllipse
 62
7
  6
CONTINUOUS
 10
95.6279777687
 20
121.1126217495
 30
0.0
 11
16.5
 21
0.0
 31
0.0
 40
0.2553193843
 41
-3.1193180772
 42
-3.104159677
  0
ELLIPSE
  5
6DF
100
AcDbEntity
  8
0
100
AcDbEllipse
 62
7
  6
CONTINUOUS
 10
95.6279777687
 20
123.8375152189
 30
0.0
 11
16.5
 21
0.0
 31
0.0
 40
0.1458967187
 41
3.0957861824
 42
3.1193180772
  0
ELLIPSE
  5
6E0
100
AcDbEntity
  8
0
100
AcDbEllipse
 62
7
  6
CONTINUOUS
 10
95.6279777687
 20
122.6726216944
 30
0.0
 11
16.5
 21
0.0
 31
0.0
 40
0.765958086
 41
3.1415926385
 42
3.1562901452
  0
ELLIPSE
  5
6E1
100
AcDbEntity
  8
0
100
AcDbEllipse
 62
7
  6
CONTINUOUS
 10
95.6279777687
 20
122.3878131428
 30
0.0
 11
16.5
 21
0.0
 31
0.0
 40
0.4085107454
 41
9.4100804692
 42
9.4247780607
  0
ELLIPSE
  5
6E2
100
AcDbEntity
  8
0
100
AcDbEllipse
 62
7
  6
CONTINUOUS
 10
95.6279777687
 20
125.9409196631
 30
0.0
 11
0.0
 21
30.8936172724
 31
0.0
 40
0.5340909047
 41
-4.5502887286
 42
-4.5377141935
  0
ELLIPSE
  5
6E3
100
AcDbEntity
  8
0
100
AcDbEllipse
 62
7
  6
CONTINUOUS
 10
95.6279777687
 20
152.4526476334
 30
0.0
 11
-0.0
 21
33.7018665171
 31
0.0
 40
0.4895871269
 41
-3.9151144937
 42
-3.9096776511
  0
ELLIPSE
  5
6E4
100
AcDbEntity
  8
0
100
AcDbEllipse
 62
7
  6
CONTINUOUS
 10
95.6279777687
 20
140.3967088098
 30
0.0
 11
0.0
 21
16.8511261029
 31
0.0
 40
0.9791630482
 41
-3.9258983969
 42
-3.9151144937
  0
ELLIPSE
  5
6E5
100
AcDbEntity
  8
0
100
AcDbEllipse
 62
7
  6
CONTINUOUS
 10
95.6279777687
 20
132.4443235038
 30
0.0
 11
16.5
 21
0.0
 31
0.0
 40
0.3404254913
 41
-2.371063285
 42
-2.3551020701
  0
ELLIPSE
  5
6E6
100
AcDbEntity
  8
0
100
AcDbEllipse
 62
7
  6
CONTINUOUS
 10
95.6279777687
 20
128.1602419133
 30
0.0
 11
16.5
 21
0.0
 31
0.0
 40
0.2042556244
 41
-2.4375915606
 42
-2.4124747066
  0
ELLIPSE
  5
6E7
100
AcDbEntity
  8
0
100
AcDbEllipse
 62
7
  6
CONTINUOUS
 10
95.6279777687
 20
132.5231420495
 30
0.0
 11
16.5
 21
-0.0
 31
0.0
 40
0.6127668731
 41
-2.462183662
 42
-2.4375915606
  0
ELLIPSE
  5
6E8
100
AcDbEntity
  8
0
100
AcDbEllipse
 62
7
  6
CONTINUOUS
 10
95.6279777687
 20
143.8170921272
 30
0.0
 11
0.0
 21
28.0851089358
 31
0.0
 40
0.5874999466
 41
-4.047502592
 42
-4.0329799888
  0
ELLIPSE
  5
6E9
100
AcDbEntity
  8
0
100
AcDbEllipse
 62
7
  6
CONTINUOUS
 10
95.6279777687
 20
168.0754928588
 30
0.0
 11
-0.0
 21
67.4037330343
 31
0.0
 40
0.2447935635
 41
-4.0523067412
 42
-4.047502592
  0
ELLIPSE
  5
6EA
100
AcDbEntity
  8
0
100
AcDbEllipse
 62
7
  6
CONTINUOUS
 10
95.6279777687
 20
123.3636744981
 30
0.0
 11
16.5
 21
-0.0
 31
0.0
 40
0.2553200925
 41
2.3497249064
 42
2.371063285
  0
ELLIPSE
  5
6EB
100
AcDbEntity
  8
0
100
AcDbEllipse
 62
7
  6
CONTINUOUS
 10
95.6279777687
 20
118.3668754232
 30
0.0
 11
16.5
 21
0.0
 31
0.0
 40
0.6808512211
 41
2.3334138322
 42
2.3497249064
  0
ELLIPSE
  5
6EC
100
AcDbEntity
  8
0
100
AcDbEllipse
 62
7
  6
CONTINUOUS
 10
95.6279777687
 20
108.2138278261
 30
0.0
 11
0.0
 21
25.2763998878
 31
0.0
 40
0.6527828359
 41
0.7515871431
 42
0.7626175054
  0
ELLIPSE
  5
6ED
100
AcDbEntity
  8
0
100
AcDbEllipse
 62
7
  6
CONTINUOUS
 10
95.6279777687
 20
145.339509145
 30
0.0
 11
-0.0
 21
25.2764116895
 31
0.0
 40
0.6527825311
 41
-3.904210159
 42
-3.8931797967
  0
ELLIPSE
  5
6EE
100
AcDbEntity
  8
0
100
AcDbEllipse
 62
7
  6
CONTINUOUS
 10
95.6279777687
 20
135.1864501707
 30
0.0
 11
16.5
 21
0.0
 31
0.0
 40
0.6808509827
 41
-2.3497249064
 42
-2.3334138322
  0
ELLIPSE
  5
6EF
100
AcDbEntity
  8
0
100
AcDbEllipse
 62
7
  6
CONTINUOUS
 10
95.6279777687
 20
130.1896538954
 30
0.0
 11
16.5
 21
0.0
 31
0.0
 40
0.2553200925
 41
-2.371063285
 42
-2.3497249064
  0
ELLIPSE
  5
6F0
100
AcDbEntity
  8
0
100
AcDbEllipse
 62
7
  6
CONTINUOUS
 10
95.6279777687
 20
130.0938926186
 30
0.0
 11
16.5
 21
-0.0
 31
0.0
 40
0.2553186315
 41
-2.4225875677
 42
-2.4022695267
  0
ELLIPSE
  5
6F1
100
AcDbEntity
  8
0
100
AcDbEllipse
 62
7
  6
CONTINUOUS
 10
95.6279777687
 20
132.8685678467
 30
0.0
 11
16.5
 21
0.0
 31
0.0
 40
0.510637263
 41
-2.442550462
 42
-2.4225875677
  0
ELLIPSE
  5
6F2
100
AcDbEntity
  8
0
100
AcDbEllipse
 62
7
  6
CONTINUOUS
 10
95.6279777687
 20
138.29032079
 30
0.0
 11
0.0
 21
16.8511261029
 31
0.0
 40
0.9791630482
 41
-4.0329799888
 42
-4.0133467888
  0
ELLIPSE
  5
6F3
100
AcDbEntity
  8
0
100
AcDbEllipse
 62
7
  6
CONTINUOUS
 10
95.6279777687
 20
170.0542102728
 30
0.0
 11
-0.0
 21
67.4037330343
 31
0.0
 40
0.2447935635
 41
-4.037839596
 42
-4.0329799888
  0
ELLIPSE
  5
6F4
100
AcDbEntity
  8
0
100
AcDbEllipse
 62
7
  6
CONTINUOUS
 10
95.6279777687
 20
86.1161393982
 30
0.0
 11
-0.0
 21
67.4037330343
 31
0.0
 40
0.2447935635
 41
0.8913873352
 42
0.8962469424
  0
ELLIPSE
  5
6F5
100
AcDbEntity
  8
0
100
AcDbEllipse
 62
7
  6
CONTINUOUS
 10
95.6279777687
 20
117.880028881
 30
0.0
 11
-0.0
 21
16.8511261029
 31
0.0
 40
0.9791630482
 41
0.8717541352
 42
0.8913873352
  0
ELLIPSE
  5
6F6
100
AcDbEntity
  8
0
100
AcDbEllipse
 62
7
  6
CONTINUOUS
 10
95.6279777687
 20
123.3017818244
 30
0.0
 11
16.5
 21
0.0
 31
0.0
 40
0.510637263
 41
2.4225875677
 42
2.442550462
  0
ELLIPSE
  5
6F7
100
AcDbEntity
  8
0
100
AcDbEllipse
 62
7
  6
CONTINUOUS
 10
95.6279777687
 20
126.0764570524
 30
0.0
 11
16.5
 21
-0.0
 31
0.0
 40
0.2553186315
 41
2.4022695267
 42
2.4225875677
  0
ELLIPSE
  5
6F8
100
AcDbEntity
  8
0
100
AcDbEllipse
 62
7
  6
CONTINUOUS
 10
95.6279777687
 20
127.6240708994
 30
0.0
 11
16.5
 21
0.0
 31
0.0
 40
0.2042556244
 41
-2.6315874157
 42
-2.6097513382
  0
ELLIPSE
  5
6F9
100
AcDbEntity
  8
0
100
AcDbEllipse
 62
7
  6
CONTINUOUS
 10
95.6279777687
 20
130.0919755392
 30
0.0
 11
16.5
 21
-0.0
 31
0.0
 40
0.5106373301
 41
-2.6488656341
 42
-2.6315874157
  0
ELLIPSE
  5
6FA
100
AcDbEntity
  8
0
100
AcDbEllipse
 62
7
  6
CONTINUOUS
 10
95.6279777687
 20
134.077544919
 30
0.0
 11
0.0
 21
16.8511275781
 31
0.0
 40
0.9791629624
 41
-4.2367812456
 42
-4.2196619609
  0
ELLIPSE
  5
6FB
100
AcDbEntity
  8
0
100
AcDbEllipse
 62
7
  6
CONTINUOUS
 10
95.6279777687
 20
141.7931440281
 30
0.0
 11
-0.0
 21
33.7018724179
 31
0.0
 40
0.4895870412
 41
-4.2452843159
 42
-4.2367812456
  0
ELLIPSE
  5
6FC
100
AcDbEntity
  8
0
100
AcDbEllipse
 62
7
  6
CONTINUOUS
 10
95.6279777687
 20
164.5580872332
 30
0.0
 11
-0.0
 21
84.2565947585
 31
0.0
 40
0.1958303685
 41
-4.2495220709
 42
-4.2452843159
  0
ELLIPSE
  5
6FD
100
AcDbEntity
  8
0
100
AcDbEllipse
 62
7
  6
CONTINUOUS
 10
95.6279777687
 20
124.0977324754
 30
0.0
 11
16.5
 21
0.0
 31
0.0
 40
0.2553186315
 41
2.5742128282
 42
2.5920787861
  0
ELLIPSE
  5
6FE
100
AcDbEntity
  8
0
100
AcDbEllipse
 62
7
  6
CONTINUOUS
 10
95.6279777687
 20
120.3243220345
 30
0.0
 11
16.5
 21
0.0
 31
0.0
 40
0.6808512211
 41
2.5606790447
 42
2.5742128282
  0
ELLIPSE
  5
6FF
100
AcDbEntity
  8
0
100
AcDbEllipse
 62
7
  6
CONTINUOUS
 10
95.6279777687
 20
112.6178888118
 30
0.0
 11
-0.0
 21
25.2766891544
 31
0.0
 40
0.6527753654
 41
0.9807931816
 42
0.9898827179
  0
ELLIPSE
  5
700
100
AcDbEntity
  8
0
100
AcDbEllipse
 62
7
  6
CONTINUOUS
 10
95.6279777687
 20
89.1799334895
 30
0.0
 11
0.0
 21
67.4037330343
 31
0.0
 40
0.2447935635
 41
0.9762276001
 42
0.9807931816
  0
ELLIPSE
  5
701
100
AcDbEntity
  8
0
100
AcDbEllipse
 62
7
  6
CONTINUOUS
 10
95.6279777687
 20
126.4919834467
 30
0.0
 11
16.5
 21
-0.0
 31
0.0
 40
0.3404254913
 41
2.9244353699
 42
2.9360576733
  0
ELLIPSE
  5
702
100
AcDbEntity
  8
0
100
AcDbEllipse
 62
7
  6
CONTINUOUS
 10
95.6279777687
 20
124.0715443535
 30
0.0
 11
0.0
 21
16.8511261029
 31
0.0
 40
0.9791630482
 41
1.3458743816
 42
1.3536390431
  0
ELLIPSE
  5
703
100
AcDbEntity
  8
0
100
AcDbEllipse
 62
7
  6
CONTINUOUS
 10
95.6279777687
 20
116.5550508355
 30
0.0
 11
0.0
 21
50.5527997757
 31
0.0
 40
0.3263914179
 41
1.3419868582
 42
1.3458743816
  0
ELLIPSE
  5
704
100
AcDbEntity
  8
0
100
AcDbEllipse
 62
7
  6
CONTINUOUS
 10
95.6279777687
 20
139.6791286151
 30
0.0
 11
-0.0
 21
50.5527997757
 31
0.0
 40
0.3263914179
 41
1.795718272
 42
1.7996057954
  0
ELLIPSE
  5
705
100
AcDbEntity
  8
0
100
AcDbEllipse
 62
7
  6
CONTINUOUS
 10
95.6279777687
 20
132.1626350972
 30
0.0
 11
0.0
 21
16.8511261029
 31
0.0
 40
0.9791630482
 41
1.7879536105
 42
1.795718272
  0
ELLIPSE
  5
706
100
AcDbEntity
  8
0
100
AcDbEllipse
 62
7
  6
CONTINUOUS
 10
95.6279777687
 20
129.742196004
 30
0.0
 11
16.5
 21
-0.0
 31
0.0
 40
0.3404254913
 41
3.3471276339
 42
3.3587499373
  0
ELLIPSE
  5
707
100
AcDbEntity
  8
0
100
AcDbEllipse
 62
7
  6
CONTINUOUS
 10
95.6279777687
 20
127.7915615041
 30
0.0
 11
0.0
 21
84.2547134993
 31
0.0
 40
0.195834741
 41
1.562765923
 42
1.5665539043
  0
ELLIPSE
  5
708
100
AcDbEntity
  8
0
100
AcDbEllipse
 62
7
  6
CONTINUOUS
 10
95.6279777687
 20
128.5281534093
 30
0.0
 11
16.5
 21
-0.0
 31
0.0
 40
0.510638724
 41
9.3864352476
 42
9.4015940658
  0
ELLIPSE
  5
709
100
AcDbEntity
  8
0
100
AcDbEllipse
 62
7
  6
CONTINUOUS
 10
95.6279777687
 20
128.7219409537
 30
0.0
 11
16.5
 21
-0.0
 31
0.0
 40
0.204255139
 41
9.3674738765
 42
9.3864352476
  0
ELLIPSE
  5
70A
100
AcDbEntity
  8
0
100
AcDbEllipse
 62
7
  6
CONTINUOUS
 10
95.6279777687
 20
126.1079831833
 30
0.0
 11
16.5
 21
0.0
 31
0.0
 40
0.2042551568
 41
-3.1032499404
 42
-3.0842885693
  0
ELLIPSE
  5
70B
100
AcDbEntity
  8
0
100
AcDbEllipse
 62
7
  6
CONTINUOUS
 10
95.6279777687
 20
126.3017707589
 30
0.0
 11
16.5
 21
0.0
 31
0.0
 40
0.510638791
 41
-3.1184087586
 42
-3.1032499404
  0
ELLIPSE
  5
70C
100
AcDbEntity
  8
0
100
AcDbEllipse
 62
7
  6
CONTINUOUS
 10
95.6279777687
 20
126.9030440325
 30
0.0
 11
0.0
 21
67.4037448359
 31
0.0
 40
0.2447935206
 41
-4.7081465579
 42
-4.7043585766
  0
ELLIPSE
  5
70D
100
AcDbEntity
  8
0
100
AcDbEllipse
 62
7
  6
CONTINUOUS
 10
95.6279777687
 20
120.532152869
 30
0.0
 11
16.0
 21
-0.0
 31
0.0
 40
0.2042556244
 41
2.9986303605
 42
3.011853982
  0
ELLIPSE
  5
70E
100
AcDbEntity
  8
0
100
AcDbEllipse
 62
7
  6
CONTINUOUS
 10
95.6279777687
 20
130.234962401
 30
0.0
 11
0.0
 21
16.851055261
 31
0.0
 40
0.9791671646
 41
1.5157685526
 42
1.5309372885
  0
ELLIPSE
  5
70F
100
AcDbEntity
  8
0
100
AcDbEllipse
 62
7
  6
CONTINUOUS
 10
95.6279777687
 20
130.5707068965
 30
0.0
 11
16.5
 21
-0.0
 31
0.0
 40
0.5106380606
 41
3.1017336153
 42
3.1168931798
  0
ELLIPSE
  5
710
100
AcDbEntity
  8
0
100
AcDbEllipse
 62
7
  6
CONTINUOUS
 10
95.6279777687
 20
137.845369007
 30
0.0
 11
16.0
 21
0.0
 31
0.0
 40
0.7659558946
 41
-2.3175376504
 42
-2.2942389735
  0
ELLIPSE
  5
711
100
AcDbEntity
  8
0
100
AcDbEllipse
 62
7
  6
CONTINUOUS
 10
95.6279777687
 20
122.2075573148
 30
0.0
 11
16.0
 21
-0.0
 31
0.0
 40
0.2042552105
 41
-2.8519341204
 42
-2.8314901369
  0
ELLIPSE
  5
712
100
AcDbEntity
  8
0
100
AcDbEllipse
 62
7
  6
CONTINUOUS
 10
95.6279777687
 20
124.3855999937
 30
0.0
 11
16.0
 21
0.0
 31
0.0
 40
0.6808509827
 41
-2.8641403779
 42
-2.8519341204
  0
ELLIPSE
  5
713
100
AcDbEntity
  8
0
100
AcDbEllipse
 62
7
  6
CONTINUOUS
 10
95.6279777687
 20
134.8290573597
 30
0.0
 11
-0.0
 21
49.0214691981
 31
0.0
 40
0.3263876065
 41
-4.4389959334
 42
-4.4349367047
  0
ELLIPSE
  5
714
100
AcDbEntity
  8
0
100
AcDbEllipse
 62
7
  6
CONTINUOUS
 10
95.6279777687
 20
131.249603642
 30
0.0
 11
16.0
 21
0.0
 31
0.0
 40
0.2042556065
 41
-2.3458621142
 42
-2.3175376504
  0
ELLIPSE
  5
715
100
AcDbEntity
  8
0
100
AcDbEllipse
 62
7
  6
CONTINUOUS
 10
95.6279777687
 20
124.0494326857
 30
0.0
 11
-0.0
 21
67.4045044117
 31
0.0
 40
0.244790762
 41
-4.7043585838
 42
-4.7005705307
  0
ELLIPSE
  5
716
100
AcDbEntity
  8
0
100
AcDbEllipse
 62
7
  6
CONTINUOUS
 10
95.6279777687
 20
122.3285765446
 30
0.0
 11
0.0
 21
67.4045044117
 31
0.0
 40
0.244790762
 41
1.5589778771
 42
1.5627659302
  0
ELLIPSE
  5
717
100
AcDbEntity
  8
0
100
AcDbEllipse
 62
7
  6
CONTINUOUS
 10
95.6279777687
 20
122.6668771329
 30
0.0
 11
0.0
 21
25.2765445203
 31
0.0
 40
0.6527791007
 41
1.5627659302
 42
1.5703417885
  0
ELLIPSE
  5
718
100
AcDbEntity
  8
0
100
AcDbEllipse
 62
7
  6
CONTINUOUS
 10
95.6279777687
 20
121.2264514258
 30
0.0
 11
16.5
 21
-0.0
 31
0.0
 40
0.6808511019
 41
3.1373502166
 42
3.1487139259
  0
ELLIPSE
  5
719
100
AcDbEntity
  8
0
100
AcDbEllipse
 62
7
  6
CONTINUOUS
 10
95.6279777687
 20
122.4664515227
 30
0.0
 11
-0.0
 21
25.2766168371
 31
0.0
 40
0.6527772331
 41
1.5750387638
 42
1.5826147765
  0
ELLIPSE
  5
71A
100
AcDbEntity
  8
0
100
AcDbEllipse
 62
7
  6
CONTINUOUS
 10
95.6279777687
 20
122.964321974
 30
0.0
 11
-0.0
 21
67.4041423242
 31
0.0
 40
0.244792077
 41
-4.7005705307
 42
-4.6967822862
  0
ELLIPSE
  5
71B
100
AcDbEntity
  8
0
100
AcDbEllipse
 62
7
  6
CONTINUOUS
 10
95.6279777687
 20
120.8681549698
 30
0.0
 11
0.0
 21
50.5531008423
 31
0.0
 40
0.3263894741
 41
1.5551896326
 42
1.5589778771
  0
ELLIPSE
  5
71C
100
AcDbEntity
  8
0
100
AcDbEllipse
 62
7
  6
CONTINUOUS
 10
95.6279777687
 20
121.1668768708
 30
0.0
 11
-0.0
 21
25.2766168371
 31
0.0
 40
0.6527772331
 41
1.5589778771
 42
1.5665538898
  0
ELLIPSE
  5
71D
100
AcDbEntity
  8
0
100
AcDbEllipse
 62
7
  6
CONTINUOUS
 10
95.6279777687
 20
124.7473028201
 30
0.0
 11
16.5
 21
0.0
 31
0.0
 40
0.3404254913
 41
2.4022695267
 42
2.4175423836
  0
ELLIPSE
  5
71E
100
AcDbEntity
  8
0
100
AcDbEllipse
 62
7
  6
CONTINUOUS
 10
95.6279777687
 20
121.0264520375
 30
0.0
 11
16.5
 21
0.0
 31
0.0
 40
0.6808509827
 41
2.4175423836
 42
2.4326116892
  0
ELLIPSE
  5
71F
100
AcDbEntity
  8
0
100
AcDbEllipse
 62
7
  6
CONTINUOUS
 10
95.6279777687
 20
95.4275253882
 30
0.0
 11
0.0
 21
50.5528469822
 31
0.0
 40
0.3263911132
 41
0.8618153624
 42
0.8667952338
  0
ELLIPSE
  5
720
100
AcDbEntity
  8
0
100
AcDbEllipse
 62
7
  6
CONTINUOUS
 10
95.6279777687
 20
160.7427935486
 30
0.0
 11
0.0
 21
50.5527997757
 31
0.0
 40
0.3263914179
 41
-4.0083878873
 42
-4.003408016
  0
ELLIPSE
  5
721
100
AcDbEntity
  8
0
100
AcDbEllipse
 62
7
  6
CONTINUOUS
 10
95.6279777687
 20
135.1438976336
 30
0.0
 11
16.5
 21
-0.0
 31
0.0
 40
0.6808509827
 41
-2.4326116892
 42
-2.4175423836
  0
ELLIPSE
  5
722
100
AcDbEntity
  8
0
100
AcDbEllipse
 62
7
  6
CONTINUOUS
 10
95.6279777687
 20
131.423046851
 30
0.0
 11
16.5
 21
-0.0
 31
0.0
 40
0.3404254913
 41
-2.4175423836
 42
-2.4022695267
  0
ELLIPSE
  5
723
100
AcDbEntity
  8
0
100
AcDbEllipse
 62
7
  6
CONTINUOUS
 10
95.6279777687
 20
129.9857739435
 30
0.0
 11
16.5
 21
0.0
 31
0.0
 40
0.2042556065
 41
-2.371063285
 42
-2.3443181669
  0
ELLIPSE
  5
724
100
AcDbEntity
  8
0
100
AcDbEllipse
 62
7
  6
CONTINUOUS
 10
95.6279777687
 20
133.6026093993
 30
0.0
 11
16.5
 21
-0.0
 31
0.0
 40
0.510637263
 41
-2.3443181669
 42
-2.3223834699
  0
ELLIPSE
  5
725
100
AcDbEntity
  8
0
100
AcDbEllipse
 62
7
  6
CONTINUOUS
 10
95.6279777687
 20
139.7584122957
 30
0.0
 11
0.0
 21
16.8511261029
 31
0.0
 40
0.9791630482
 41
-3.8931797967
 42
-3.8707177753
  0
ELLIPSE
  5
726
100
AcDbEntity
  8
0
100
AcDbEllipse
 62
7
  6
CONTINUOUS
 10
95.6279777687
 20
130.0827923496
 30
0.0
 11
16.0
 21
-0.0
 31
0.0
 40
0.2042551568
 41
2.9269802242
 42
2.9469280339
  0
ELLIPSE
  5
727
100
AcDbEntity
  8
0
100
AcDbEllipse
 62
7
  6
CONTINUOUS
 10
95.6279777687
 20
129.0387900431
 30
0.0
 11
16.0
 21
0.0
 31
0.0
 40
0.510638791
 41
2.9109597138
 42
2.9269802242
  0
ELLIPSE
  5
728
100
AcDbEntity
  8
0
100
AcDbEllipse
 62
7
  6
CONTINUOUS
 10
95.6279777687
 20
127.1711288283
 30
0.0
 11
0.0
 21
16.340440598
 31
0.0
 40
0.9791657639
 41
1.3240823763
 42
1.340163387
  0
ELLIPSE
  5
729
100
AcDbEntity
  8
0
100
AcDbEllipse
 62
7
  6
CONTINUOUS
 10
95.6279777687
 20
123.1805092304
 30
0.0
 11
-0.0
 21
32.6807905564
 31
0.0
 40
0.4895842398
 41
1.3160176357
 42
1.3240823763
  0
ELLIPSE
  5
72A
100
AcDbEntity
  8
0
100
AcDbEllipse
 62
7
  6
CONTINUOUS
 10
95.6279777687
 20
110.8255242677
 30
0.0
 11
0.0
 21
81.70242959
 31
0.0
 40
0.1958326096
 41
1.3119789625
 42
1.3160176357
  0
ELLIPSE
  5
72B
100
AcDbEntity
  8
0
100
AcDbEllipse
 62
7
  6
CONTINUOUS
 10
95.6279777687
 20
153.6044114789
 30
0.0
 11
-0.0
 21
81.7024753665
 31
0.0
 40
0.1958324999
 41
-4.4576102892
 42
-4.4535716161
  0
ELLIPSE
  5
72C
100
AcDbEntity
  8
0
100
AcDbEllipse
 62
7
  6
CONTINUOUS
 10
95.6279777687
 20
141.249413537
 30
0.0
 11
0.0
 21
32.6807848343
 31
0.0
 40
0.4895843255
 41
-4.4656750298
 42
-4.4576102892
  0
ELLIPSE
  5
72D
100
AcDbEntity
  8
0
100
AcDbEllipse
 62
7
  6
CONTINUOUS
 10
95.6279777687
 20
137.2587949871
 30
0.0
 11
0.0
 21
16.3404391674
 31
0.0
 40
0.9791658496
 41
-4.4817560406
 42
-4.4656750298
  0
ELLIPSE
  5
72E
100
AcDbEntity
  8
0
100
AcDbEllipse
 62
7
  6
CONTINUOUS
 10
95.6279777687
 20
135.3911338541
 30
0.0
 11
16.0
 21
-0.0
 31
0.0
 40
0.510638724
 41
-2.9269802242
 42
-2.9109597138
  0
ELLIPSE
  5
72F
100
AcDbEntity
  8
0
100
AcDbEllipse
 62
7
  6
CONTINUOUS
 10
95.6279777687
 20
134.3471317152
 30
0.0
 11
16.0
 21
-0.0
 31
0.0
 40
0.204255139
 41
-2.9469280339
 42
-2.9269802242
  0
ELLIPSE
  5
730
100
AcDbEntity
  8
0
100
AcDbEllipse
 62
7
  6
CONTINUOUS
 10
95.6279777687
 20
152.3249879309
 30
0.0
 11
-0.0
 21
33.7018783188
 31
0.0
 40
0.4895869555
 41
-3.8707177753
 42
-3.859272828
  0
ELLIPSE
  5
731
100
AcDbEntity
  8
0
100
AcDbEllipse
 62
7
  6
CONTINUOUS
 10
95.6279777687
 20
101.2283448632
 30
0.0
 11
0.0
 21
33.7018724179
 31
0.0
 40
0.4895870412
 41
0.7176801744
 42
0.7291251217
  0
ELLIPSE
  5
732
100
AcDbEntity
  8
0
100
AcDbEllipse
 62
7
  6
CONTINUOUS
 10
95.6279777687
 20
113.7949149977
 30
0.0
 11
-0.0
 21
16.8511275781
 31
0.0
 40
0.9791629624
 41
0.7291251217
 42
0.7515871431
  0
ELLIPSE
  5
733
100
AcDbEntity
  8
0
100
AcDbEllipse
 62
7
  6
CONTINUOUS
 10
95.6279777687
 20
119.9507181635
 30
0.0
 11
16.5
 21
-0.0
 31
0.0
 40
0.5106373301
 41
2.3223834699
 42
2.3443181669
  0
ELLIPSE
  5
734
100
AcDbEntity
  8
0
100
AcDbEllipse
 62
7
  6
CONTINUOUS
 10
95.6279777687
 20
123.5675541998
 30
0.0
 11
16.5
 21
0.0
 31
0.0
 40
0.2042556244
 41
2.3443181669
 42
2.371063285
  0
ELLIPSE
  5
735
100
AcDbEntity
  8
0
100
AcDbEllipse
 62
7
  6
CONTINUOUS
 10
95.6279777687
 20
131.8885806739
 30
0.0
 11
16.0
 21
0.0
 31
0.0
 40
0.6808512211
 41
-2.6230383341
 42
-2.6169728825
  0
ELLIPSE
  5
736
100
AcDbEntity
  8
0
100
AcDbEllipse
 62
7
  6
CONTINUOUS
 10
95.6279777687
 20
138.637421873
 30
0.0
 11
-0.0
 21
24.5104483761
 31
0.0
 40
0.6527828359
 41
-4.2028068966
 42
-4.1938346609
  0
ELLIPSE
  5
737
100
AcDbEntity
  8
0
100
AcDbEllipse
 62
7
  6
CONTINUOUS
 10
95.6279777687
 20
129.1045467772
 30
0.0
 11
16.0
 21
0.0
 31
0.0
 40
0.2553200925
 41
-2.405487909
 42
-2.3948410531
  0
ELLIPSE
  5
738
100
AcDbEntity
  8
0
100
AcDbEllipse
 62
7
  6
CONTINUOUS
 10
95.6279777687
 20
137.3328361323
 30
0.0
 11
0.0
 21
16.3404273987
 31
0.0
 40
0.9791665548
 41
-3.9919860686
 42
-3.9762842358
  0
ELLIPSE
  5
739
100
AcDbEntity
  8
0
100
AcDbEllipse
 62
7
  6
CONTINUOUS
 10
95.6279777687
 20
158.8917342329
 30
0.0
 11
-0.0
 21
50.5527997757
 31
0.0
 40
0.3263914179
 41
-4.0232030921
 42
-4.0182849906
  0
ELLIPSE
  5
73A
100
AcDbEntity
  8
0
100
AcDbEllipse
 62
7
  6
CONTINUOUS
 10
95.6279777687
 20
137.3328361323
 30
0.0
 11
0.0
 21
16.8510657549
 31
0.0
 40
0.9791665548
 41
-4.0182849906
 42
-4.003408016
  0
ELLIPSE
  5
73B
100
AcDbEntity
  8
0
100
AcDbEllipse
 62
7
  6
CONTINUOUS
 10
95.6279777687
 20
129.1045467772
 30
0.0
 11
16.5
 21
0.0
 31
0.0
 40
0.2553200925
 41
-2.4326116892
 42
-2.4124747066
  0
ELLIPSE
  5
73C
100
AcDbEntity
  8
0
100
AcDbEllipse
 62
7
  6
CONTINUOUS
 10
95.6279777687
 20
158.8917342329
 30
0.0
 11
-0.0
 21
49.0208967522
 31
0.0
 40
0.3263914179
 41
-3.997171989
 42
-3.9919860686
  0
ELLIPSE
  5
73D
100
AcDbEntity
  8
0
100
AcDbEllipse
 62
7
  6
CONTINUOUS
 10
95.6279777687
 20
158.5656555977
 30
0.0
 11
0.0
 21
65.3626916915
 31
0.0
 40
0.2447879606
 41
-4.20727604
 42
-4.2028068966
  0
ELLIPSE
  5
73E
100
AcDbEntity
  8
0
100
AcDbEllipse
 62
7
  6
CONTINUOUS
 10
95.6279777687
 20
123.6434727927
 30
0.0
 11
-0.0
 21
16.8510537858
 31
0.0
 40
0.9791672503
 41
1.5636750545
 42
1.5788267234
  0
ELLIPSE
  5
73F
100
AcDbEntity
  8
0
100
AcDbEllipse
 62
7
  6
CONTINUOUS
 10
95.6279777687
 20
123.5675541998
 30
0.0
 11
16.0
 21
-0.0
 31
0.0
 40
0.2042556244
 41
2.3117687744
 42
2.3402637981
  0
ELLIPSE
  5
740
100
AcDbEntity
  8
0
100
AcDbEllipse
 62
7
  6
CONTINUOUS
 10
95.6279777687
 20
119.9507181635
 30
0.0
 11
16.0
 21
0.0
 31
0.0
 40
0.5106373301
 41
2.2883180905
 42
2.3117687744
  0
ELLIPSE
  5
741
100
AcDbEntity
  8
0
100
AcDbEllipse
 62
7
  6
CONTINUOUS
 10
95.6279777687
 20
113.7949149977
 30
0.0
 11
-0.0
 21
16.3404873485
 31
0.0
 40
0.9791629624
 41
0.7158380602
 42
0.7175217637
  0
ELLIPSE
  5
742
100
AcDbEntity
  8
0
100
AcDbEllipse
 62
7
  6
CONTINUOUS
 10
95.6279777687
 20
139.7584122957
 30
0.0
 11
0.0
 21
16.340485918
 31
0.0
 40
0.9791630482
 41
-3.8591144173
 42
-3.8574307138
  0
ELLIPSE
  5
743
100
AcDbEntity
  8
0
100
AcDbEllipse
 62
7
  6
CONTINUOUS
 10
95.6279777687
 20
133.6026093993
 30
0.0
 11
16.0
 21
0.0
 31
0.0
 40
0.510637263
 41
-2.3117687744
 42
-2.2883180905
  0
ELLIPSE
  5
744
100
AcDbEntity
  8
0
100
AcDbEllipse
 62
7
  6
CONTINUOUS
 10
95.6279777687
 20
129.9857739435
 30
0.0
 11
16.0
 21
0.0
 31
0.0
 40
0.2042556065
 41
-2.3402637981
 42
-2.3117687744
  0
ELLIPSE
  5
745
100
AcDbEntity
  8
0
100
AcDbEllipse
 62
7
  6
CONTINUOUS
 10
95.6279777687
 20
131.423046851
 30
0.0
 11
16.0
 21
-0.0
 31
0.0
 40
0.3404254913
 41
-2.38955944
 42
-2.3733900013
  0
ELLIPSE
  5
746
100
AcDbEntity
  8
0
100
AcDbEllipse
 62
7
  6
CONTINUOUS
 10
95.6279777687
 20
135.1438976336
 30
0.0
 11
16.0
 21
-0.0
 31
0.0
 40
0.6808509827
 41
3.8776973982
 42
3.8936258672
  0
ELLIPSE
  5
747
100
AcDbEntity
  8
0
100
AcDbEllipse
 62
7
  6
CONTINUOUS
 10
95.6279777687
 20
160.7427935486
 30
0.0
 11
0.0
 21
49.0208967522
 31
0.0
 40
0.3263914179
 41
-3.9815427304
 42
-3.9762842358
  0
ELLIPSE
  5
748
100
AcDbEntity
  8
0
100
AcDbEllipse
 62
7
  6
CONTINUOUS
 10
95.6279777687
 20
95.4275253882
 30
0.0
 11
0.0
 21
49.0209425282
 31
0.0
 40
0.3263911132
 41
0.8346915822
 42
0.8399500768
  0
ELLIPSE
  5
749
100
AcDbEntity
  8
0
100
AcDbEllipse
 62
7
  6
CONTINUOUS
 10
95.6279777687
 20
131.249603642
 30
0.0
 11
16.5
 21
0.0
 31
0.0
 40
0.2042556065
 41
-2.3763288569
 42
-2.3497249064
  0
ELLIPSE
  5
74A
100
AcDbEntity
  8
0
100
AcDbEllipse
 62
7
  6
CONTINUOUS
 10
95.6279777687
 20
121.0264520375
 30
0.0
 11
16.0
 21
0.0
 31
0.0
 40
0.6808509827
 41
2.38955944
 42
2.405487909
  0
ELLIPSE
  5
74B
100
AcDbEntity
  8
0
100
AcDbEllipse
 62
7
  6
CONTINUOUS
 10
95.6279777687
 20
134.8290573597
 30
0.0
 11
-0.0
 21
50.5533901106
 31
0.0
 40
0.3263876065
 41
1.835701962
 42
1.8396288351
  0
ELLIPSE
  5
74C
100
AcDbEntity
  8
0
100
AcDbEllipse
 62
7
  6
CONTINUOUS
 10
95.6279777687
 20
124.3855999937
 30
0.0
 11
16.5
 21
-0.0
 31
0.0
 40
0.6808509827
 41
-2.8727601453
 42
-2.8609536635
  0
ELLIPSE
  5
74D
100
AcDbEntity
  8
0
100
AcDbEllipse
 62
7
  6
CONTINUOUS
 10
95.6279777687
 20
122.2075573148
 30
0.0
 11
16.5
 21
-0.0
 31
0.0
 40
0.2042552105
 41
-2.8609536635
 42
-2.8411855476
  0
ELLIPSE
  5
74E
100
AcDbEntity
  8
0
100
AcDbEllipse
 62
7
  6
CONTINUOUS
 10
95.6279777687
 20
137.845369007
 30
0.0
 11
16.5
 21
-0.0
 31
0.0
 40
0.7659558946
 41
-2.3497249064
 42
-2.3279147455
  0
ELLIPSE
  5
74F
100
AcDbEntity
  8
0
100
AcDbEllipse
 62
7
  6
CONTINUOUS
 10
95.6279777687
 20
144.9898537608
 30
0.0
 11
0.0
 21
22.468082428
 31
0.0
 40
0.7343750875
 41
-3.8987110723
 42
-3.8820178041
  0
ELLIPSE
  5
750
100
AcDbEntity
  8
0
100
AcDbEllipse
 62
7
  6
CONTINUOUS
 10
95.6279777687
 20
165.7214814757
 30
0.0
 11
0.0
 21
50.5527997757
 31
0.0
 40
0.3263914179
 41
-3.8820178041
 42
-3.8763853899
  0
ELLIPSE
  5
751
100
AcDbEntity
  8
0
100
AcDbEllipse
 62
7
  6
CONTINUOUS
 10
95.6279777687
 20
124.1547892172
 30
0.0
 11
16.0
 21
-0.0
 31
0.0
 40
0.2042556244
 41
2.5494683094
 42
2.5728254458
  0
ELLIPSE
  5
752
100
AcDbEntity
  8
0
100
AcDbEllipse
 62
7
  6
CONTINUOUS
 10
95.6279777687
 20
77.8259784267
 30
0.0
 11
0.0
 21
84.2546662928
 31
0.0
 40
0.1958348508
 41
0.948529218
 42
0.9531831675
  0
ELLIPSE
  5
753
100
AcDbEntity
  8
0
100
AcDbEllipse
 62
7
  6
CONTINUOUS
 10
95.6279777687
 20
107.1004184399
 30
0.0
 11
0.0
 21
33.7022581067
 31
0.0
 40
0.4895814384
 41
0.9531831675
 42
0.9624452072
  0
ELLIPSE
  5
754
100
AcDbEntity
  8
0
100
AcDbEllipse
 62
7
  6
CONTINUOUS
 10
95.6279777687
 20
116.7311504512
 30
0.0
 11
-0.0
 21
16.8510311554
 31
0.0
 40
0.9791685653
 41
0.9624452072
 42
0.9807931816
  0
ELLIPSE
  5
755
100
AcDbEntity
  8
0
100
AcDbEllipse
 62
7
  6
CONTINUOUS
 10
95.6279777687
 20
121.418800731
 30
0.0
 11
16.5
 21
0.0
 31
0.0
 40
0.5106373301
 41
2.5515895084
 42
2.5697147653
  0
ELLIPSE
  5
756
100
AcDbEntity
  8
0
100
AcDbEllipse
 62
7
  6
CONTINUOUS
 10
95.6279777687
 20
124.1547892172
 30
0.0
 11
16.5
 21
0.0
 31
0.0
 40
0.2042556244
 41
2.5697147653
 42
2.5920787861
  0
ELLIPSE
  5
757
100
AcDbEntity
  8
0
100
AcDbEllipse
 62
7
  6
CONTINUOUS
 10
95.6279777687
 20
121.418800731
 30
0.0
 11
16.0
 21
0.0
 31
0.0
 40
0.5106373301
 41
2.5305155176
 42
2.5494683094
  0
ELLIPSE
  5
758
100
AcDbEntity
  8
0
100
AcDbEllipse
 62
7
  6
CONTINUOUS
 10
95.6279777687
 20
116.7311504512
 30
0.0
 11
0.0
 21
16.3403938477
 31
0.0
 40
0.9791685653
 41
0.940511317
 42
0.9597191908
  0
ELLIPSE
  5
759
100
AcDbEntity
  8
0
100
AcDbEllipse
 62
7
  6
CONTINUOUS
 10
95.6279777687
 20
134.3471317152
 30
0.0
 11
16.5
 21
-0.0
 31
0.0
 40
0.204255139
 41
-2.9528991414
 42
-2.9335806513
  0
ELLIPSE
  5
75A
100
AcDbEntity
  8
0
100
AcDbEllipse
 62
7
  6
CONTINUOUS
 10
95.6279777687
 20
123.2926647817
 30
0.0
 11
16.5
 21
0.0
 31
0.0
 40
0.2042556065
 41
-3.0158066559
 42
-2.9966922023
  0
ELLIPSE
  5
75B
100
AcDbEntity
  8
0
100
AcDbEllipse
 62
7
  6
CONTINUOUS
 10
95.6279777687
 20
158.5656555977
 30
0.0
 11
0.0
 21
67.4052758068
 31
0.0
 40
0.2447879606
 41
-4.2239562547
 42
-4.2196619609
  0
ELLIPSE
  5
75C
100
AcDbEntity
  8
0
100
AcDbEllipse
 62
7
  6
CONTINUOUS
 10
95.6279777687
 20
138.637421873
 30
0.0
 11
0.0
 21
25.2763998878
 31
0.0
 40
0.6527828359
 41
-4.2196619609
 42
-4.2110432547
  0
ELLIPSE
  5
75D
100
AcDbEntity
  8
0
100
AcDbEllipse
 62
7
  6
CONTINUOUS
 10
95.6279777687
 20
131.8885806739
 30
0.0
 11
16.5
 21
0.0
 31
0.0
 40
0.6808512211
 41
-2.6402469279
 42
-2.6272418827
  0
ELLIPSE
  5
75E
100
AcDbEntity
  8
0
100
AcDbEllipse
 62
7
  6
CONTINUOUS
 10
95.6279777687
 20
128.4343315345
 30
0.0
 11
16.5
 21
0.0
 31
0.0
 40
0.2553200925
 41
-2.6272418827
 42
-2.6097513382
  0
ELLIPSE
  5
75F
100
AcDbEntity
  8
0
100
AcDbEllipse
 62
7
  6
CONTINUOUS
 10
95.6279777687
 20
124.2659393077
 30
0.0
 11
16.5
 21
0.0
 31
0.0
 40
0.6127654169
 41
-2.9966922023
 42
-2.9775242325
  0
ELLIPSE
  5
760
100
AcDbEntity
  8
0
100
AcDbEllipse
 62
7
  6
CONTINUOUS
 10
95.6279777687
 20
126.2843233057
 30
0.0
 11
-0.0
 21
22.468082428
 31
0.0
 40
0.7343750875
 41
1.7348647479
 42
1.7463943235
  0
ELLIPSE
  5
761
100
AcDbEntity
  8
0
100
AcDbEllipse
 62
7
  6
CONTINUOUS
 10
95.6279777687
 20
129.7187790058
 30
0.0
 11
-0.0
 21
42.1275860022
 31
0.0
 40
0.3916673507
 41
1.7463943235
 42
1.7540937484
  0
ELLIPSE
  5
762
100
AcDbEntity
  8
0
100
AcDbEllipse
 62
7
  6
CONTINUOUS
 10
95.6279777687
 20
114.1060397574
 30
0.0
 11
-0.0
 21
42.1275801013
 31
0.0
 40
0.3916674055
 41
1.3874989052
 42
1.39519833
  0
ELLIPSE
  5
763
100
AcDbEntity
  8
0
100
AcDbEllipse
 62
7
  6
CONTINUOUS
 10
95.6279777687
 20
117.5404940831
 30
0.0
 11
-0.0
 21
22.4680843949
 31
0.0
 40
0.7343750233
 41
1.39519833
 42
1.4067279057
  0
ELLIPSE
  5
764
100
AcDbEntity
  8
0
100
AcDbEllipse
 62
7
  6
CONTINUOUS
 10
95.6279777687
 20
119.5588782578
 30
0.0
 11
16.5
 21
-0.0
 31
0.0
 40
0.6127654705
 41
2.9775242325
 42
2.9966922023
  0
ELLIPSE
  5
765
100
AcDbEntity
  8
0
100
AcDbEllipse
 62
7
  6
CONTINUOUS
 10
95.6279777687
 20
135.3911338541
 30
0.0
 11
16.5
 21
0.0
 31
0.0
 40
0.510638724
 41
-2.9335806513
 42
-2.9180693272
  0
ELLIPSE
  5
766
100
AcDbEntity
  8
0
100
AcDbEllipse
 62
7
  6
CONTINUOUS
 10
95.6279777687
 20
120.532152869
 30
0.0
 11
16.5
 21
-0.0
 31
0.0
 40
0.2042556244
 41
2.9966922023
 42
3.0158066559
  0
ELLIPSE
  5
767
100
AcDbEntity
  8
0
100
AcDbEllipse
 62
7
  6
CONTINUOUS
 10
95.6279777687
 20
137.2587949871
 30
0.0
 11
-0.0
 21
16.8510778914
 31
0.0
 40
0.9791658496
 41
1.7943196532
 42
1.8098858706
  0
ELLIPSE
  5
768
100
AcDbEntity
  8
0
100
AcDbEllipse
 62
7
  6
CONTINUOUS
 10
95.6279777687
 20
141.249413537
 30
0.0
 11
0.0
 21
33.7020593604
 31
0.0
 40
0.4895843255
 41
-4.4732994366
 42
-4.4654943506
  0
ELLIPSE
  5
769
100
AcDbEntity
  8
0
100
AcDbEllipse
 62
7
  6
CONTINUOUS
 10
95.6279777687
 20
153.6044114789
 30
0.0
 11
-0.0
 21
84.2556777217
 31
0.0
 40
0.1958324999
 41
-4.4654943506
 42
-4.4615860964
  0
ELLIPSE
  5
76A
100
AcDbEntity
  8
0
100
AcDbEllipse
 62
7
  6
CONTINUOUS
 10
95.6279777687
 20
124.034106468
 30
0.0
 11
-0.0
 21
33.7020652612
 31
0.0
 40
0.4895842398
 41
-4.643698619
 42
-4.6361028814
  0
ELLIPSE
  5
76B
100
AcDbEntity
  8
0
100
AcDbEllipse
 62
7
  6
CONTINUOUS
 10
95.6279777687
 20
122.3217705336
 30
0.0
 11
16.5
 21
-0.0
 31
0.0
 40
0.6808509827
 41
3.2178787525
 42
3.2292807504
  0
ELLIPSE
  5
76C
100
AcDbEntity
  8
0
100
AcDbEllipse
 62
7
  6
CONTINUOUS
 10
95.6279777687
 20
121.7068767633
 30
0.0
 11
16.5
 21
0.0
 31
0.0
 40
0.2553189968
 41
3.2292807504
 42
3.2445014826
  0
ELLIPSE
  5
76D
100
AcDbEntity
  8
0
100
AcDbEllipse
 62
7
  6
CONTINUOUS
 10
95.6279777687
 20
110.8255242677
 30
0.0
 11
-0.0
 21
84.2556305146
 31
0.0
 40
0.1958326096
 41
1.3199934428
 42
1.323901697
  0
ELLIPSE
  5
76E
100
AcDbEntity
  8
0
100
AcDbEllipse
 62
7
  6
CONTINUOUS
 10
95.6279777687
 20
123.1805092304
 30
0.0
 11
-0.0
 21
33.7020652612
 31
0.0
 40
0.4895842398
 41
1.323901697
 42
1.331706783
  0
ELLIPSE
  5
76F
100
AcDbEntity
  8
0
100
AcDbEllipse
 62
7
  6
CONTINUOUS
 10
95.6279777687
 20
127.1711288283
 30
0.0
 11
-0.0
 21
16.8510793666
 31
0.0
 40
0.9791657639
 41
1.331706783
 42
1.3472730004
  0
ELLIPSE
  5
770
100
AcDbEntity
  8
0
100
AcDbEllipse
 62
7
  6
CONTINUOUS
 10
95.6279777687
 20
115.3422937883
 30
0.0
 11
-0.0
 21
50.5527997757
 31
0.0
 40
0.3263914179
 41
1.3185854957
 42
1.3224951967
  0
ELLIPSE
  5
771
100
AcDbEntity
  8
0
100
AcDbEllipse
 62
7
  6
CONTINUOUS
 10
95.6279777687
 20
122.2443250279
 30
0.0
 11
0.0
 21
22.468082428
 31
0.0
 40
0.7343750875
 41
1.3224951967
 42
1.3342012636
  0
ELLIPSE
  5
772
100
AcDbEntity
  8
0
100
AcDbEllipse
 62
7
  6
CONTINUOUS
 10
95.6279777687
 20
129.0387900431
 30
0.0
 11
16.5
 21
0.0
 31
0.0
 40
0.510638791
 41
2.9180693272
 42
2.9335806513
  0
ELLIPSE
  5
773
100
AcDbEntity
  8
0
100
AcDbEllipse
 62
7
  6
CONTINUOUS
 10
95.6279777687
 20
130.0827923496
 30
0.0
 11
16.5
 21
0.0
 31
0.0
 40
0.2042551568
 41
2.9335806513
 42
2.9528991414
  0
ELLIPSE
  5
774
100
AcDbEntity
  8
0
100
AcDbEllipse
 62
7
  6
CONTINUOUS
 10
95.6279777687
 20
124.5483557219
 30
0.0
 11
16.5
 21
-0.0
 31
0.0
 40
0.7659602774
 41
2.9049975904
 42
2.9205546882
  0
ELLIPSE
  5
775
100
AcDbEntity
  8
0
100
AcDbEllipse
 62
7
  6
CONTINUOUS
 10
95.6279777687
 20
122.1179409691
 30
0.0
 11
16.5
 21
-0.0
 31
0.0
 40
0.2553189968
 41
3.0386838246
 42
3.0539045567
  0
ELLIPSE
  5
776
100
AcDbEntity
  8
0
100
AcDbEllipse
 62
7
  6
CONTINUOUS
 10
95.6279777687
 20
126.5803260192
 30
0.0
 11
16.5
 21
0.0
 31
0.0
 40
0.2042546715
 41
2.9205546882
 42
2.9399254735
  0
ELLIPSE
  5
777
100
AcDbEntity
  8
0
100
AcDbEllipse
 62
7
  6
CONTINUOUS
 10
95.6279777687
 20
77.8259784267
 30
0.0
 11
0.0
 21
81.701494587
 31
0.0
 40
0.1958348508
 41
0.9259272911
 42
0.9288567818
  0
ELLIPSE
  5
778
100
AcDbEntity
  8
0
100
AcDbEllipse
 62
7
  6
CONTINUOUS
 10
95.6279777687
 20
121.3800690076
 30
0.0
 11
16.5
 21
-0.0
 31
0.0
 40
0.7659569903
 41
3.0539045567
 42
3.0691049471
  0
ELLIPSE
  5
779
100
AcDbEntity
  8
0
100
AcDbEllipse
 62
7
  6
CONTINUOUS
 10
95.6279777687
 20
129.5900236518
 30
0.0
 11
16.5
 21
-0.0
 31
0.0
 40
0.2042546715
 41
-2.9399254735
 42
-2.9205546882
  0
ELLIPSE
  5
77A
100
AcDbEntity
  8
0
100
AcDbEllipse
 62
7
  6
CONTINUOUS
 10
95.6279777687
 20
131.6219939492
 30
0.0
 11
16.5
 21
0.0
 31
0.0
 40
0.7659602774
 41
-2.9205546882
 42
-2.9049975904
  0
ELLIPSE
  5
77B
100
AcDbEntity
  8
0
100
AcDbEllipse
 62
7
  6
CONTINUOUS
 10
95.6279777687
 20
133.9260246432
 30
0.0
 11
-0.0
 21
22.468082428
 31
0.0
 40
0.7343750875
 41
1.80739139
 42
1.8190974569
  0
ELLIPSE
  5
77C
100
AcDbEntity
  8
0
100
AcDbEllipse
 62
7
  6
CONTINUOUS
 10
95.6279777687
 20
140.8280558828
 30
0.0
 11
0.0
 21
50.5527997757
 31
0.0
 40
0.3263914179
 41
-4.4640878503
 42
-4.4601781493
  0
ELLIPSE
  5
77D
100
AcDbEntity
  8
0
100
AcDbEllipse
 62
7
  6
CONTINUOUS
 10
95.6279777687
 20
144.9898537608
 30
0.0
 11
-0.0
 21
21.7872314453
 31
0.0
 40
0.7343750875
 41
-3.8650353003
 42
-3.8574307138
  0
ELLIPSE
  5
77E
100
AcDbEntity
  8
0
100
AcDbEllipse
 62
7
  6
CONTINUOUS
 10
95.6279777687
 20
126.1447599845
 30
0.0
 11
0.0
 21
84.255148401
 31
0.0
 40
0.1958337302
 41
1.504383874
 42
1.5081796588
  0
ELLIPSE
  5
77F
100
AcDbEntity
  8
0
100
AcDbEllipse
 62
7
  6
CONTINUOUS
 10
95.6279777687
 20
129.308151426
 30
0.0
 11
0.0
 21
33.7021616837
 31
0.0
 40
0.4895828391
 41
1.5081796588
 42
1.5157685526
  0
ENDSEC
  0
SECTION
  2
OBJECTS
  0
DICTIONARY
  5
C
100
AcDbDictionary
280
0
281
1
  3
ACAD_GROUP
350
D
  3
ACAD_MLINESTYLE
350
17
  3
ACAD_LAYOUT
350
1A
  3
ACAD_PLOTSETTINGS
350
19
  3
ACAD_PLOTSTYLENAME
350
E
  0
DICTIONARY
  5
D
102
{ACAD_REACTORS
330
C
102
}
100
AcDbDictionary
280
0
281
1
  0
ACDBDICTIONARYWDFLT
  5
E
102
{ACAD_REACTORS
330
C
102
}
100
AcDbDictionary
281
1
  3
Normal
350
F
100
AcDbDictionaryWithDefault
340
F
  0
DICTIONARY
  5
17
102
{ACAD_REACTORS
330
C
102
}
100
AcDbDictionary
280
0
281
1
  3
Standard
350
18
  0
DICTIONARY
  5
19
102
{ACAD_REACTORS
330
C
102
}
100
AcDbDictionary
281
1
  0
DICTIONARY
  5
1A
102
{ACAD_REACTORS
330
C
102
}
100
AcDbDictionary
281
1
  3
Model
350
780
  3
Layout1
350
781
  0
ACDBPLACEHOLDER
  5
F
102
{ACAD_REACTORS
330
E
102
}
  0
MLINESTYLE
  5
18
102
{ACAD_REACTORS
330
17
102
}
100
AcDbMlineStyle
  2
STANDARD
 70
0
  3

 62
256
 51
90.0
 52
90.0
 71
2
 49
0.5
 62
256
  6
BYLAYER
 49
-0.5
 62
256
  6
BYLAYER
  0
LAYOUT
  5
780
102
{ACAD_REACTORS
330
1A
102
}
100
AcDbPlotSettings
  1

  2
none_device
  4
ISO_A4_(297.00_x_210.00_MM)
  6

 40
0.0
 41
0.0
 42
0.0
 43
0.0
 44
297.0
 45
210.0
 46
0.0
 47
0.0
 48
0.0
 49
0.0
140
0.0
141
0.0
142
1.0
143
1.0
 70
1024
 72
1
 73
0
 74
0
  7

 75
0
147
1.0
148
0.0
149
0.0
100
AcDbLayout
  1
Model
 70
0
 71
0
 10
0.0
 20
0.0
 11
297.0
 21
210.0
 12
0.0
 22
0.0
 32
0.0
 14
0.0
 24
0.0
 34
0.0
 15
0.0
 25
0.0
 35
0.0
146
0.0
 13
0.0
 23
0.0
 33
0.0
 16
1.0
 26
0.0
 36
0.0
 17
0.0
 27
1.0
 37
0.0
 76
0
330
20F
345
0
346
0
  0
LAYOUT
  5
781
102
{ACAD_REACTORS
330
1A
102
}
100
AcDbPlotSettings
  1

  2
none_device
  4
ISO_A4_(297.00_x_210.00_MM)
  6

 40
0.0
 41
0.0
 42
0.0
 43
0.0
 44
297.0
 45
210.0
 46
0.0
 47
0.0
 48
0.0
 49
0.0
140
0.0
141
0.0
142
1.0
143
1.0
 70
0
 72
1
 73
0
 74
0
  7

 75
0
147
1.0
148
0.0
149
0.0
100
AcDbLayout
  1
Layout1
 70
0
 71
1
 10
0.0
 20
0.0
 11
297.0
 21
210.0
 12
0.0
 22
0.0
 32
0.0
 14
0.0
 24
0.0
 34
0.0
 15
0.0
 25
0.0
 35
0.0
146
0.0
 13
0.0
 23
0.0
 33
0.0
 16
1.0
 26
0.0
 36
0.0
 17
0.0
 27
1.0
 37
0.0
 76
0
330
210
345
0
346
0
  0
ENDSEC
  0
EOF
