999
DXF file: 001-m35329-p-1.dxf
999
Pro/ENGINEER 2011490 by Parametric Technology Corporation
  0
SECTION
  2
HEADER
  9
$ACADVER
  1
AC1015
  9
$DWGCODEPAGE
  3
ANSI_1252
  9
$EXTMAX
 10
297.0
 20
210.0
 30
0.0
  9
$EXTMIN
 10
0.0
 20
0.0
 30
0.0
  9
$LIMMIN
 10
0.0
 20
0.0
  9
$LIMMAX
 10
297.0
 20
210.0
  9
$VIEWCTR
 10
148.5
 20
105.0
  9
$VIEWSIZE
 40
210.0
  9
$CLAYER
  8
0
  9
$LTSCALE
 40
16.335
  9
$CELTYPE
  6
BYLAYER
  9
$DIMSCALE
 40
1.0
  9
$DIMASZ
 40
3.5
  9
$DIMEXO
 40
1.85625
  9
$DIMDLI
 40
11.286
  9
$DIMEXE
 40
5.346
  9
$DIMCEN
 40
2.673
  9
$DIMLFAC
 40
1.0
  9
$DIMBLK
  1
_FILLED
  9
$DIMTXT
 40
3.5
  9
$DIMTOL
 70
1
  9
$DIMLIM
 70
0
  9
$DIMTFAC
 40
1.0
  9
$DIMTP
 40
0.005
  9
$DIMTM
 40
0.005
  9
$PDMODE
 70
3
  9
$PDSIZE
 40
0.3125
  9
$HANDSEED
  5
785
  9
$TILEMODE
 70
1
  9
$MEASUREMENT
 70
1
  9
$INSUNITS
 70
4
  0
ENDSEC
  0
SECTION
  2
CLASSES
  0
CLASS
  1
ACDBDICTIONARYWDFLT
  2
AcDbDictionaryWithDefault
  3
AutoCAD 2000
 90
0
280
0
281
0
  0
CLASS
  1
ACDBPLACEHOLDER
  2
AcDbPlaceHolder
  3
AutoCAD 2000
 90
0
280
0
281
0
  0
CLASS
  1
LAYOUT
  2
AcDbLayout
  3
AutoCAD 2000
 90
0
280
0
281
0
  0
ENDSEC
  0
SECTION
  2
TABLES
  0
TABLE
  2
VPORT
  5
8
100
AcDbSymbolTable
 70
2
  0
VPORT
  5
1F4
100
AcDbSymbolTableRecord
100
AcDbViewportTableRecord
  2
*ACTIVE
 70
0
 10
0.0
 20
0.0
 11
1.0
 21
1.0
 12
148.5
 22
105.0
 13
0.0
 23
0.0
 14
1.0
 24
1.0
 15
0.0
 25
0.0
 16
0.0
 26
0.0
 36
1.0
 17
0.0
 27
0.0
 37
0.0
 40
210.0
 41
1.4142857143
 42
50.0
 43
0.0
 44
0.0
 50
0.0
 51
0.0
 71
0
 72
100
 73
1
 74
1
 75
0
 76
0
 77
0
 78
0
  0
ENDTAB
  0
TABLE
  2
LTYPE
  5
5
100
AcDbSymbolTable
 70
6
  0
LTYPE
  5
14
100
AcDbSymbolTableRecord
100
AcDbLinetypeTableRecord
  2
BYBLOCK
 70
0
  3

 72
65
 73
0
 40
0.0
  0
LTYPE
  5
15
100
AcDbSymbolTableRecord
100
AcDbLinetypeTableRecord
  2
BYLAYER
 70
0
  3

 72
65
 73
0
 40
0.0
  0
LTYPE
  5
16
100
AcDbSymbolTableRecord
100
AcDbLinetypeTableRecord
  2
CONTINUOUS
 70
64
  3
Solid line
 72
65
 73
0
 40
0.0
  0
LTYPE
  5
1F5
100
AcDbSymbolTableRecord
100
AcDbLinetypeTableRecord
  2
CENTER
 70
64
  3
____ _ ____ _ ____ _ ____ _ ____ _ ____ _ ____
 72
65
 73
4
 40
0.6
 49
0.375
 74
0
 49
-0.075
 74
0
 49
0.075
 74
0
 49
-0.075
 74
0
  0
LTYPE
  5
1F6
100
AcDbSymbolTableRecord
100
AcDbLinetypeTableRecord
  2
HIDDEN
 70
64
  3
- - - - - - - - - - - - - - - - - - - -
 72
65
 73
2
 40
0.2
 49
0.1
 74
0
 49
-0.1
 74
0
  0
LTYPE
  5
1F7
100
AcDbSymbolTableRecord
100
AcDbLinetypeTableRecord
  2
PHANTOM
 70
64
  3
_____ _ _ _____ _ _ _____ _ _ _____
 72
65
 73
6
 40
0.8
 49
0.45
 74
0
 49
-0.05
 74
0
 49
0.1
 74
0
 49
-0.05
 74
0
 49
0.1
 74
0
 49
-0.05
 74
0
  0
LTYPE
  5
1F8
100
AcDbSymbolTableRecord
100
AcDbLinetypeTableRecord
  2
DOT
 70
64
  3
. . . . . . . . . . . . . . . . . . . .
 72
65
 73
2
 40
0.2
 49
0.1
 74
0
 49
-0.1
 74
0
  0
LTYPE
  5
1F9
100
AcDbSymbolTableRecord
100
AcDbLinetypeTableRecord
  2
DASHED
 70
64
  3
- - - - - - - - - - - - - - - - - - - -
 72
65
 73
2
 40
0.2
 49
0.1
 74
0
 49
-0.1
 74
0
  0
ENDTAB
  0
TABLE
  2
LAYER
  5
2
100
AcDbSymbolTable
 70
36
  0
LAYER
  5
10
100
AcDbSymbolTableRecord
100
AcDbLayerTableRecord
  2
0
 70
0
 62
7
  6
CONTINUOUS
370
-3
390
F
  0
LAYER
  5
1FA
100
AcDbSymbolTableRecord
100
AcDbLayerTableRecord
  2
DEFAULT_1
 70
0
 62
7
  6
CENTER
370
-3
390
F
  0
LAYER
  5
1FB
100
AcDbSymbolTableRecord
100
AcDbLayerTableRecord
  2
DEFAULT_2
 70
0
 62
8
  6
HIDDEN
370
-3
390
F
  0
LAYER
  5
1FC
100
AcDbSymbolTableRecord
100
AcDbLayerTableRecord
  2
DEFAULT_3
 70
0
 62
7
  6
PHANTOM
370
-3
390
F
  0
LAYER
  5
1FD
100
AcDbSymbolTableRecord
100
AcDbLayerTableRecord
  2
AUSFORMSCHRAEGEN
 70
0
 62
7
  6
CONTINUOUS
370
-3
390
F
  0
LAYER
  5
1FE
100
AcDbSymbolTableRecord
100
AcDbLayerTableRecord
  2
BEZUGSACHSEN
 70
0
 62
7
  6
CONTINUOUS
370
-3
390
F
  0
LAYER
  5
1FF
100
AcDbSymbolTableRecord
100
AcDbLayerTableRecord
  2
BEZUGSEBENEN
 70
0
 62
7
  6
CONTINUOUS
370
-3
390
F
  0
LAYER
  5
200
100
AcDbSymbolTableRecord
100
AcDbLayerTableRecord
  2
BG_STARTBEZUEGE
 70
0
 62
7
  6
CONTINUOUS
370
-3
390
F
  0
LAYER
  5
201
100
AcDbSymbolTableRecord
100
AcDbLayerTableRecord
  2
FASEN
 70
0
 62
7
  6
CONTINUOUS
370
-3
390
F
  0
LAYER
  5
202
100
AcDbSymbolTableRecord
100
AcDbLayerTableRecord
  2
GEWINDE
 70
0
 62
7
  6
CONTINUOUS
370
-3
390
F
  0
LAYER
  5
203
100
AcDbSymbolTableRecord
100
AcDbLayerTableRecord
  2
HILFEN
 70
0
 62
7
  6
CONTINUOUS
370
-3
390
F
  0
LAYER
  5
204
100
AcDbSymbolTableRecord
100
AcDbLayerTableRecord
  2
KONSTRUKTIONSELEMENTE
 70
0
 62
7
  6
CONTINUOUS
370
-3
390
F
  0
LAYER
  5
205
100
AcDbSymbolTableRecord
100
AcDbLayerTableRecord
  2
KURVEN
 70
0
 62
7
  6
CONTINUOUS
370
-3
390
F
  0
LAYER
  5
206
100
AcDbSymbolTableRecord
100
AcDbLayerTableRecord
  2
NORM
 70
0
 62
7
  6
CONTINUOUS
370
-3
390
F
  0
LAYER
  5
207
100
AcDbSymbolTableRecord
100
AcDbLayerTableRecord
  2
PLATZIERUNG
 70
0
 62
7
  6
CONTINUOUS
370
-3
390
F
  0
LAYER
  5
208
100
AcDbSymbolTableRecord
100
AcDbLayerTableRecord
  2
PLAZIERUNG
 70
0
 62
7
  6
CONTINUOUS
370
-3
390
F
  0
LAYER
  5
209
100
AcDbSymbolTableRecord
100
AcDbLayerTableRecord
  2
RUNDUNGEN
 70
0
 62
7
  6
CONTINUOUS
370
-3
390
F
  0
LAYER
  5
20A
100
AcDbSymbolTableRecord
100
AcDbLayerTableRecord
  2
TEIL_STARTBEZUEGE
 70
0
 62
7
  6
CONTINUOUS
370
-3
390
F
  0
LAYER
  5
20B
100
AcDbSymbolTableRecord
100
AcDbLayerTableRecord
  2
T_STARTBEZUEGE
 70
0
 62
7
  6
CONTINUOUS
370
-3
390
F
  0
LAYER
  5
20C
100
AcDbSymbolTableRecord
100
AcDbLayerTableRecord
  2
ZEICHNUNGSBEMASSUNGEN
 70
0
 62
7
  6
CONTINUOUS
370
-3
390
F
  0
ENDTAB
  0
TABLE
  2
STYLE
  5
3
100
AcDbSymbolTable
 70
1
  0
STYLE
  5
11
100
AcDbSymbolTableRecord
100
AcDbTextStyleTableRecord
  2
STANDARD
 70
0
 40
0.0
 41
0.7
 50
0.0
 71
0
 42
0.2
  3
txt
  4

  0
STYLE
  5
20D
100
AcDbSymbolTableRecord
100
AcDbTextStyleTableRecord
  2
TEXTSTYLE_1
 70
0
 40
0.0
 41
0.8
 50
0.0
 71
0
 42
0.2
  3
gdt
  4

  0
ENDTAB
  0
TABLE
  2
VIEW
  5
6
100
AcDbSymbolTable
 70
0
  0
ENDTAB
  0
TABLE
  2
UCS
  5
7
100
AcDbSymbolTable
 70
0
  0
ENDTAB
  0
TABLE
  2
APPID
  5
9
100
AcDbSymbolTable
 70
1
  0
APPID
  5
20E
100
AcDbSymbolTableRecord
100
AcDbRegAppTableRecord
  2
ACAD
 70
0
  0
ENDTAB
  0
TABLE
  2
BLOCK_RECORD
  5
1
100
AcDbSymbolTable
 70
0
  0
BLOCK_RECORD
  5
20F
100
AcDbSymbolTableRecord
100
AcDbBlockTableRecord
  2
*Model_Space
  0
BLOCK_RECORD
  5
210
100
AcDbSymbolTableRecord
100
AcDbBlockTableRecord
  2
*Paper_Space
  0
ENDTAB
  0
TABLE
  2
DIMSTYLE
  5
A
100
AcDbSymbolTable
 70
1
100
AcDbDimStyleTable
 71
0
  0
DIMSTYLE
105
211
100
AcDbSymbolTableRecord
100
AcDbDimStyleTableRecord
  2
STANDARD
 70
0
  3

  4

 40
1.0
 41
3.5
 42
0.0625
 43
0.38
 44
0.18
 45
0.0
 46
0.0
 47
0.005
 48
0.005
140
3.5
141
0.09
142
0.0
143
25.4
144
1.0
145
0.0
146
1.0
147
0.09
 71
1.0
 72
0.0
 73
0
 74
0
 75
0
 76
0
 77
1
 78
8
170
0
171
2
172
0
173
0
174
0
175
0
176
0
177
0
178
5
270
2
271
3
272
3
273
2
274
2
275
0
280
0
281
0
282
0
283
1
284
8
285
0
286
0
287
3
288
0
340
11
  0
ENDTAB
  0
ENDSEC
  0
SECTION
  2
BLOCKS
  0
BLOCK
  5
20
100
AcDbEntity
  8
0
100
AcDbBlockBegin
  2
*Model_Space
 70
0
 10
0.0
 20
0.0
 30
0.0
  3
*Model_Space
  1

  0
ENDBLK
  5
21
100
AcDbEntity
  8
0
100
AcDbBlockEnd
  0
BLOCK
  5
1C
100
AcDbEntity
  8
0
100
AcDbBlockBegin
  2
*Paper_Space
 70
0
 10
0.0
 20
0.0
 30
0.0
  3
*Paper_Space
  1

  0
ENDBLK
  5
1D
100
AcDbEntity
  8
0
100
AcDbBlockEnd
  0
ENDSEC
  0
SECTION
  2
ENTITIES
  0
MTEXT
  5
212
100
AcDbEntity
  8
0
100
AcDbMText
 62
5
  6
CONTINUOUS
  7
STANDARD
 71
1
 72
1
 10
122.4272069203
 20
137.4701118212
 30
0.0
 11
0.0
 21
1.0
 31
0.0
 44
0.9
  1
RUD VLBG-PLUS 0,9t
 40
3.5
 41
48.0
  0
MTEXT
  5
213
100
AcDbEntity
  8
0
100
AcDbMText
 62
5
  6
CONTINUOUS
  7
STANDARD
 71
1
 72
1
 10
122.0443296363
 20
26.4359333276
 30
0.0
 11
0.0
 21
1.0
 31
0.0
 44
0.9
  1
VLBG-PLUS 0,9t
 40
3.5
 41
36.5833333333
  0
LINE
  5
214
100
AcDbEntity
  8
0
100
AcDbLine
 62
7
  6
CONTINUOUS
 10
0.0
 20
0.0
 11
0.0
 21
210.0
  0
LINE
  5
215
100
AcDbEntity
  8
0
100
AcDbLine
 62
7
  6
CONTINUOUS
 10
0.0
 20
0.0
 11
297.0
 21
0.0
  0
LINE
  5
216
100
AcDbEntity
  8
0
100
AcDbLine
 62
7
  6
CONTINUOUS
 10
0.0
 20
210.0
 11
297.0
 21
210.0
  0
LINE
  5
217
100
AcDbEntity
  8
0
100
AcDbLine
 62
7
  6
CONTINUOUS
 10
297.0
 20
0.0
 11
297.0
 21
210.0
  0
LINE
  5
218
100
AcDbEntity
  8
BEZUGSACHSEN
100
AcDbLine
 62
7
  6
CONTINUOUS
 10
104.4682906401
 20
102.729825587
 11
111.9682906401
 21
102.729825587
  0
LINE
  5
219
100
AcDbEntity
  8
BEZUGSACHSEN
100
AcDbLine
 62
7
  6
CONTINUOUS
 10
103.2182906401
 20
103.979825587
 11
113.2182906401
 21
103.979825587
  0
LINE
  5
21A
100
AcDbEntity
  8
BEZUGSACHSEN
100
AcDbLine
 62
7
  6
CONTINUOUS
 10
103.2182906401
 20
103.979825587
 11
104.4682906401
 21
102.729825587
  0
LINE
  5
21B
100
AcDbEntity
  8
0
100
AcDbLine
 62
7
  6
CONTINUOUS
 10
96.2182906401
 20
117.729825587
 11
120.2182906401
 21
117.729825587
  0
LINE
  5
21C
100
AcDbEntity
  8
0
100
AcDbLine
 62
7
  6
CONTINUOUS
 10
96.2182906401
 20
122.029825587
 11
120.2182906401
 21
122.029825587
  0
LINE
  5
21D
100
AcDbEntity
  8
RUNDUNGEN
100
AcDbLine
 62
7
  6
CONTINUOUS
 10
122.7182906401
 20
122.229825587
 11
92.2182906401
 21
122.229825587
  0
LINE
  5
21E
100
AcDbEntity
  8
0
100
AcDbLine
 62
7
  6
CONTINUOUS
 10
90.2302166008
 20
125.5006766516
 11
90.7182906401
 21
125.5006766516
  0
LINE
  5
21F
100
AcDbEntity
  8
0
100
AcDbLine
 62
7
  6
CONTINUOUS
 10
90.2619772033
 20
125.819825587
 11
91.146561215
 21
125.819825587
  0
LINE
  5
220
100
AcDbEntity
  8
0
100
AcDbLine
 62
7
  6
CONTINUOUS
 10
90.283779895
 20
125.8730170747
 11
90.5620423927
 21
125.8730170747
  0
LINE
  5
221
100
AcDbEntity
  8
0
100
AcDbLine
 62
7
  6
CONTINUOUS
 10
90.3100140999
 20
126.0325915377
 11
90.4984643948
 21
126.0325915377
  0
LINE
  5
222
100
AcDbEntity
  8
0
100
AcDbLine
 62
7
  6
CONTINUOUS
 10
90.6323601604
 20
126.0325915377
 11
91.146561215
 21
126.0325915377
  0
LINE
  5
223
100
AcDbEntity
  8
0
100
AcDbLine
 62
7
  6
CONTINUOUS
 10
90.2445873422
 20
126.0857830394
 11
90.2659841779
 21
126.0857830394
  0
LINE
  5
224
100
AcDbEntity
  8
0
100
AcDbLine
 62
7
  6
CONTINUOUS
 10
90.5732915139
 20
126.0857830394
 11
91.0854167415
 21
126.0857830394
  0
LINE
  5
225
100
AcDbEntity
  8
0
100
AcDbLine
 62
7
  6
CONTINUOUS
 10
90.2362652255
 20
126.1389745224
 11
90.2790654834
 21
126.1389745224
  0
LINE
  5
226
100
AcDbEntity
  8
0
100
AcDbLine
 62
7
  6
CONTINUOUS
 10
90.5401051894
 20
126.1921660054
 11
91.0510716271
 21
126.1921660054
  0
LINE
  5
227
100
AcDbEntity
  8
0
100
AcDbLine
 62
7
  6
CONTINUOUS
 10
90.2295237428
 20
126.2453574884
 11
90.2937406061
 21
126.2453574884
  0
LINE
  5
228
100
AcDbEntity
  8
0
100
AcDbLine
 62
7
  6
CONTINUOUS
 10
90.3278910351
 20
126.2453574884
 11
90.4787545814
 21
126.2453574884
  0
LINE
  5
229
100
AcDbEntity
  8
0
100
AcDbLine
 62
7
  6
CONTINUOUS
 10
90.5294164224
 20
126.3517404917
 11
91.0400107681
 21
126.3517404917
  0
LINE
  5
22A
100
AcDbEntity
  8
0
100
AcDbLine
 62
7
  6
CONTINUOUS
 10
90.2259065151
 20
126.4049319747
 11
90.3044116924
 21
126.4049319747
  0
LINE
  5
22B
100
AcDbEntity
  8
0
100
AcDbLine
 62
7
  6
CONTINUOUS
 10
90.3407025587
 20
126.5113149408
 11
90.4787545814
 21
126.5113149408
  0
LINE
  5
22C
100
AcDbEntity
  8
0
100
AcDbLine
 62
7
  6
CONTINUOUS
 10
90.2760690288
 20
126.5645064238
 11
90.3100140999
 21
126.5645064238
  0
LINE
  5
22D
100
AcDbEntity
  8
0
100
AcDbLine
 62
7
  6
CONTINUOUS
 10
90.2619772033
 20
126.7240808729
 11
90.3128821009
 21
126.7240808729
  0
LINE
  5
22E
100
AcDbEntity
  8
0
100
AcDbLine
 62
7
  6
CONTINUOUS
 10
90.283779895
 20
126.7772724304
 11
90.3138492402
 21
126.7772724304
  0
LINE
  5
22F
100
AcDbEntity
  8
0
100
AcDbLine
 62
7
  6
CONTINUOUS
 10
90.3473770063
 20
126.8836553964
 11
90.4787545814
 21
126.8836553964
  0
LINE
  5
230
100
AcDbEntity
  8
0
100
AcDbLine
 62
7
  6
CONTINUOUS
 10
90.2416375244
 20
126.9900383625
 11
90.2659841779
 21
126.9900383625
  0
LINE
  5
231
100
AcDbEntity
  8
0
100
AcDbLine
 62
7
  6
CONTINUOUS
 10
90.2338425461
 20
127.0432298455
 11
90.2790654834
 21
127.0432298455
  0
LINE
  5
232
100
AcDbEntity
  8
0
100
AcDbLine
 62
7
  6
CONTINUOUS
 10
90.2276272966
 20
127.1496128115
 11
90.2937406061
 21
127.1496128115
  0
LINE
  5
233
100
AcDbEntity
  8
0
100
AcDbLine
 62
7
  6
CONTINUOUS
 10
90.3473770063
 20
127.2559957776
 11
90.4787545814
 21
127.2559957776
  0
LINE
  5
234
100
AcDbEntity
  8
0
100
AcDbLine
 62
7
  6
CONTINUOUS
 10
90.224360817
 20
127.3091872606
 11
90.3044116924
 21
127.3091872606
  0
LINE
  5
235
100
AcDbEntity
  8
0
100
AcDbLine
 62
7
  6
CONTINUOUS
 10
90.4072543525
 20
127.3091872606
 11
90.4787545814
 21
127.3091872606
  0
LINE
  5
236
100
AcDbEntity
  8
0
100
AcDbLine
 62
7
  6
CONTINUOUS
 10
90.5294164224
 20
127.3091872606
 11
91.1723963727
 21
127.3091872606
  0
LINE
  5
237
100
AcDbEntity
  8
0
100
AcDbLine
 62
7
  6
CONTINUOUS
 10
90.2229903645
 20
127.4687617097
 11
90.3100140999
 21
127.4687617097
  0
LINE
  5
238
100
AcDbEntity
  8
0
100
AcDbLine
 62
7
  6
CONTINUOUS
 10
90.4072543525
 20
127.5219531927
 11
90.4787545814
 21
127.5219531927
  0
LINE
  5
239
100
AcDbEntity
  8
0
100
AcDbLine
 62
7
  6
CONTINUOUS
 10
90.5294164224
 20
127.5219531927
 11
91.1723963727
 21
127.5219531927
  0
LINE
  5
23A
100
AcDbEntity
  8
0
100
AcDbLine
 62
7
  6
CONTINUOUS
 10
90.2182906401
 20
134.8872723937
 11
90.2182906401
 21
135.1745064372
  0
LINE
  5
23B
100
AcDbEntity
  8
0
100
AcDbLine
 62
7
  6
CONTINUOUS
 10
90.2183972937
 20
131.2140808729
 11
90.2183972937
 21
131.4800383625
  0
LINE
  5
23C
100
AcDbEntity
  8
0
100
AcDbLine
 62
7
  6
CONTINUOUS
 10
90.2224525024
 20
130.309825587
 11
90.2224525024
 21
132.809825587
  0
LINE
  5
23D
100
AcDbEntity
  8
0
100
AcDbLine
 62
7
  6
CONTINUOUS
 10
90.2229903645
 20
127.4687617097
 11
90.2229903645
 21
127.5751446757
  0
LINE
  5
23E
100
AcDbEntity
  8
0
100
AcDbLine
 62
7
  6
CONTINUOUS
 10
90.231303356
 20
135.7489744941
 11
90.231303356
 21
137.529825587
  0
LINE
  5
23F
100
AcDbEntity
  8
0
100
AcDbLine
 62
7
  6
CONTINUOUS
 10
90.2328502388
 20
130.309825587
 11
90.2328502388
 21
131.4268468795
  0
LINE
  5
240
100
AcDbEntity
  8
0
100
AcDbLine
 62
7
  6
CONTINUOUS
 10
90.2328502388
 20
131.7459957776
 11
90.2328502388
 21
132.5438681719
  0
LINE
  5
241
100
AcDbEntity
  8
0
100
AcDbLine
 62
7
  6
CONTINUOUS
 10
90.2347905562
 20
135.7489744941
 11
90.2347905562
 21
137.529825587
  0
LINE
  5
242
100
AcDbEntity
  8
0
100
AcDbLine
 62
7
  6
CONTINUOUS
 10
90.2540660063
 20
135.7489744941
 11
90.2540660063
 21
137.529825587
  0
LINE
  5
243
100
AcDbEntity
  8
0
100
AcDbLine
 62
7
  6
CONTINUOUS
 10
90.2912853004
 20
134.829825587
 11
90.2912853004
 21
137.529825587
  0
LINE
  5
244
100
AcDbEntity
  8
0
100
AcDbLine
 62
7
  6
CONTINUOUS
 10
90.3100140999
 20
127.4687617097
 11
90.3100140999
 21
127.5751446757
  0
LINE
  5
245
100
AcDbEntity
  8
0
100
AcDbLine
 62
7
  6
CONTINUOUS
 10
90.315794664
 20
126.8836553964
 11
90.315794664
 21
126.9900383625
  0
LINE
  5
246
100
AcDbEntity
  8
0
100
AcDbLine
 62
7
  6
CONTINUOUS
 10
90.3278910351
 20
135.1745064372
 11
90.3278910351
 21
137.185144777
  0
LINE
  5
247
100
AcDbEntity
  8
0
100
AcDbLine
 62
7
  6
CONTINUOUS
 10
90.3444716306
 20
132.0651446757
 11
90.3444716306
 21
132.2247192738
  0
LINE
  5
248
100
AcDbEntity
  8
0
100
AcDbLine
 62
7
  6
CONTINUOUS
 10
90.3473770063
 20
126.8836553964
 11
90.3473770063
 21
127.2559957776
  0
LINE
  5
249
100
AcDbEntity
  8
0
100
AcDbLine
 62
7
  6
CONTINUOUS
 10
90.3878287769
 20
132.0119531927
 11
90.3878287769
 21
132.2247192738
  0
LINE
  5
24A
100
AcDbEntity
  8
0
100
AcDbLine
 62
7
  6
CONTINUOUS
 10
90.2229903738
 20
127.5751446757
 11
90.3100140999
 21
127.5751446757
  0
LINE
  5
24B
100
AcDbEntity
  8
0
100
AcDbLine
 62
7
  6
CONTINUOUS
 10
90.3407025587
 20
127.6283361587
 11
90.4787545814
 21
127.6283361587
  0
LINE
  5
24C
100
AcDbEntity
  8
0
100
AcDbLine
 62
7
  6
CONTINUOUS
 10
90.224360916
 20
127.7347192738
 11
90.3044116924
 21
127.7347192738
  0
LINE
  5
24D
100
AcDbEntity
  8
0
100
AcDbLine
 62
7
  6
CONTINUOUS
 10
90.2276274598
 20
127.8942937228
 11
90.2937406061
 21
127.8942937228
  0
LINE
  5
24E
100
AcDbEntity
  8
0
100
AcDbLine
 62
7
  6
CONTINUOUS
 10
90.3278910351
 20
127.8942937228
 11
90.4787545814
 21
127.8942937228
  0
LINE
  5
24F
100
AcDbEntity
  8
0
100
AcDbLine
 62
7
  6
CONTINUOUS
 10
90.4787545814
 20
127.9474852059
 11
91.0400107681
 21
127.9474852059
  0
LINE
  5
250
100
AcDbEntity
  8
0
100
AcDbLine
 62
7
  6
CONTINUOUS
 10
90.2338425461
 20
128.0006766889
 11
90.2790654834
 21
128.0006766889
  0
LINE
  5
251
100
AcDbEntity
  8
0
100
AcDbLine
 62
7
  6
CONTINUOUS
 10
90.2416375244
 20
128.0538681719
 11
90.2659841779
 21
128.0538681719
  0
LINE
  5
252
100
AcDbEntity
  8
0
100
AcDbLine
 62
7
  6
CONTINUOUS
 10
90.3100140999
 20
128.1070596549
 11
90.8130906771
 21
128.1070596549
  0
LINE
  5
253
100
AcDbEntity
  8
0
100
AcDbLine
 62
7
  6
CONTINUOUS
 10
90.283779895
 20
128.266634104
 11
90.7859726037
 21
128.266634104
  0
LINE
  5
254
100
AcDbEntity
  8
0
100
AcDbLine
 62
7
  6
CONTINUOUS
 10
90.2619772033
 20
128.319825587
 11
90.7634377469
 21
128.319825587
  0
LINE
  5
255
100
AcDbEntity
  8
0
100
AcDbLine
 62
7
  6
CONTINUOUS
 10
90.2328502388
 20
130.309825587
 11
91.9864413132
 21
130.309825587
  0
LINE
  5
256
100
AcDbEntity
  8
0
100
AcDbLine
 62
7
  6
CONTINUOUS
 10
92.451674567
 20
130.309825587
 11
93.3126482158
 21
130.309825587
  0
LINE
  5
257
100
AcDbEntity
  8
0
100
AcDbLine
 62
7
  6
CONTINUOUS
 10
91.5548873099
 20
130.3630170747
 11
92.1038867276
 21
130.3630170747
  0
LINE
  5
258
100
AcDbEntity
  8
0
100
AcDbLine
 62
7
  6
CONTINUOUS
 10
92.8851131789
 20
130.3630170747
 11
93.4937070582
 21
130.3630170747
  0
LINE
  5
259
100
AcDbEntity
  8
0
100
AcDbLine
 62
7
  6
CONTINUOUS
 10
91.6493541131
 20
130.4694000547
 11
92.202190056
 21
130.4694000547
  0
LINE
  5
25A
100
AcDbEntity
  8
0
100
AcDbLine
 62
7
  6
CONTINUOUS
 10
93.0287217389
 20
130.4694000547
 11
93.6445522423
 21
130.4694000547
  0
LINE
  5
25B
100
AcDbEntity
  8
0
100
AcDbLine
 62
7
  6
CONTINUOUS
 10
90.5144337372
 20
130.6289745224
 11
91.117618056
 21
130.6289745224
  0
LINE
  5
25C
100
AcDbEntity
  8
0
100
AcDbLine
 62
7
  6
CONTINUOUS
 10
91.3556518868
 20
130.6289745224
 11
91.4419575697
 21
130.6289745224
  0
LINE
  5
25D
100
AcDbEntity
  8
0
100
AcDbLine
 62
7
  6
CONTINUOUS
 10
92.451674567
 20
130.6289745224
 11
92.7125240745
 21
130.6289745224
  0
LINE
  5
25E
100
AcDbEntity
  8
0
100
AcDbLine
 62
7
  6
CONTINUOUS
 10
91.2728664963
 20
130.6821660054
 11
91.5318473215
 21
130.6821660054
  0
LINE
  5
25F
100
AcDbEntity
  8
0
100
AcDbLine
 62
7
  6
CONTINUOUS
 10
91.7475658836
 20
130.6821660054
 11
92.0992898688
 21
130.6821660054
  0
LINE
  5
260
100
AcDbEntity
  8
0
100
AcDbLine
 62
7
  6
CONTINUOUS
 10
92.3280164225
 20
130.6821660054
 11
92.8499882387
 21
130.6821660054
  0
LINE
  5
261
100
AcDbEntity
  8
0
100
AcDbLine
 62
7
  6
CONTINUOUS
 10
93.1774338162
 20
130.6821660054
 11
93.8009465619
 21
130.6821660054
  0
LINE
  5
262
100
AcDbEntity
  8
0
100
AcDbLine
 62
7
  6
CONTINUOUS
 10
91.2130507404
 20
130.7885490087
 11
91.6016576296
 21
130.7885490087
  0
LINE
  5
263
100
AcDbEntity
  8
0
100
AcDbLine
 62
7
  6
CONTINUOUS
 10
92.2381295422
 20
130.8417404917
 11
92.8161689841
 21
130.8417404917
  0
LINE
  5
264
100
AcDbEntity
  8
0
100
AcDbLine
 62
7
  6
CONTINUOUS
 10
91.7981004923
 20
130.8949319747
 11
92.0515285008
 21
130.8949319747
  0
LINE
  5
265
100
AcDbEntity
  8
0
100
AcDbLine
 62
7
  6
CONTINUOUS
 10
93.2537617053
 20
130.8949319747
 11
93.8812943333
 21
130.8949319747
  0
LINE
  5
266
100
AcDbEntity
  8
0
100
AcDbLine
 62
7
  6
CONTINUOUS
 10
91.1742424795
 20
130.9481234578
 11
91.6493541131
 21
130.9481234578
  0
LINE
  5
267
100
AcDbEntity
  8
0
100
AcDbLine
 62
7
  6
CONTINUOUS
 10
92.0376268792
 20
131.0013149408
 11
92.7854255887
 21
131.0013149408
  0
LINE
  5
268
100
AcDbEntity
  8
0
100
AcDbLine
 62
7
  6
CONTINUOUS
 10
91.1551569706
 20
131.1608893899
 11
91.6735530865
 21
131.1608893899
  0
LINE
  5
269
100
AcDbEntity
  8
0
100
AcDbLine
 62
7
  6
CONTINUOUS
 10
91.8237298566
 20
131.1608893899
 11
92.383793298
 21
131.1608893899
  0
LINE
  5
26A
100
AcDbEntity
  8
0
100
AcDbLine
 62
7
  6
CONTINUOUS
 10
93.2537617053
 20
131.1608893899
 11
93.8812943333
 21
131.1608893899
  0
LINE
  5
26B
100
AcDbEntity
  8
0
100
AcDbLine
 62
7
  6
CONTINUOUS
 10
90.4072543525
 20
127.3091872606
 11
90.4072543525
 21
127.5219531927
  0
LINE
  5
26C
100
AcDbEntity
  8
0
100
AcDbLine
 62
7
  6
CONTINUOUS
 10
90.4557795871
 20
130.309825587
 11
90.4557795871
 21
132.809825587
  0
LINE
  5
26D
100
AcDbEntity
  8
0
100
AcDbLine
 62
7
  6
CONTINUOUS
 10
90.4787545814
 20
126.2453574884
 11
90.4787545814
 21
127.3091872606
  0
LINE
  5
26E
100
AcDbEntity
  8
0
100
AcDbLine
 62
7
  6
CONTINUOUS
 10
90.4787545814
 20
127.5219531927
 11
90.4787545814
 21
127.9474852059
  0
LINE
  5
26F
100
AcDbEntity
  8
0
100
AcDbLine
 62
7
  6
CONTINUOUS
 10
90.5144337372
 20
130.6289745224
 11
90.5144337372
 21
132.809825587
  0
LINE
  5
270
100
AcDbEntity
  8
0
100
AcDbLine
 62
7
  6
CONTINUOUS
 10
90.5294164224
 20
126.3517404917
 11
90.5294164224
 21
127.3091872606
  0
LINE
  5
271
100
AcDbEntity
  8
0
100
AcDbLine
 62
7
  6
CONTINUOUS
 10
90.5294164224
 20
127.5219531927
 11
90.5294164224
 21
127.9474852059
  0
LINE
  5
272
100
AcDbEntity
  8
0
100
AcDbLine
 62
7
  6
CONTINUOUS
 10
90.5991710736
 20
135.7489744941
 11
90.5991710736
 21
136.6106765995
  0
LINE
  5
273
100
AcDbEntity
  8
0
100
AcDbLine
 62
7
  6
CONTINUOUS
 10
90.6323601604
 20
125.819825587
 11
90.6323601604
 21
126.0325915377
  0
LINE
  5
274
100
AcDbEntity
  8
0
100
AcDbLine
 62
7
  6
CONTINUOUS
 10
90.6573132469
 20
127.3091872606
 11
90.6573132469
 21
127.5219531927
  0
LINE
  5
275
100
AcDbEntity
  8
0
100
AcDbLine
 62
7
  6
CONTINUOUS
 10
90.6793829218
 20
135.7489744941
 11
90.6793829218
 21
136.6106765995
  0
LINE
  5
276
100
AcDbEntity
  8
0
100
AcDbLine
 62
7
  6
CONTINUOUS
 10
90.7182906401
 20
123.729825587
 11
90.7182906401
 21
125.819825587
  0
LINE
  5
277
100
AcDbEntity
  8
0
100
AcDbLine
 62
7
  6
CONTINUOUS
 10
90.7182906401
 20
128.319825587
 11
90.7182906401
 21
130.309825587
  0
LINE
  5
278
100
AcDbEntity
  8
0
100
AcDbLine
 62
7
  6
CONTINUOUS
 10
90.7182906401
 20
132.809825587
 11
90.7182906401
 21
134.829825587
  0
LINE
  5
279
100
AcDbEntity
  8
0
100
AcDbLine
 62
7
  6
CONTINUOUS
 10
90.7182906401
 20
137.529825587
 11
90.7182906401
 21
140.729825587
  0
LINE
  5
27A
100
AcDbEntity
  8
0
100
AcDbLine
 62
7
  6
CONTINUOUS
 10
90.9097565252
 20
130.309825587
 11
90.9097565252
 21
130.6289745224
  0
LINE
  5
27B
100
AcDbEntity
  8
0
100
AcDbLine
 62
7
  6
CONTINUOUS
 10
91.0245074403
 20
130.6289745224
 11
91.0245074403
 21
132.809825587
  0
LINE
  5
27C
100
AcDbEntity
  8
0
100
AcDbLine
 62
7
  6
CONTINUOUS
 10
91.0400107681
 20
126.3517404917
 11
91.0400107681
 21
127.3091872606
  0
LINE
  5
27D
100
AcDbEntity
  8
0
100
AcDbLine
 62
7
  6
CONTINUOUS
 10
91.0400107681
 20
127.5219531927
 11
91.0400107681
 21
127.9474852059
  0
LINE
  5
27E
100
AcDbEntity
  8
0
100
AcDbLine
 62
7
  6
CONTINUOUS
 10
91.0450451451
 20
131.1608893899
 11
91.0450451451
 21
132.809825587
  0
LINE
  5
27F
100
AcDbEntity
  8
0
100
AcDbLine
 62
7
  6
CONTINUOUS
 10
91.146561215
 20
125.819825587
 11
91.146561215
 21
126.0325915377
  0
LINE
  5
280
100
AcDbEntity
  8
0
100
AcDbLine
 62
7
  6
CONTINUOUS
 10
91.1551569706
 20
131.1608893899
 11
91.1551569706
 21
132.809825587
  0
LINE
  5
281
100
AcDbEntity
  8
0
100
AcDbLine
 62
7
  6
CONTINUOUS
 10
91.1723963727
 20
127.3091872606
 11
91.1723963727
 21
127.5219531927
  0
LINE
  5
282
100
AcDbEntity
  8
0
100
AcDbLine
 62
7
  6
CONTINUOUS
 10
91.1952487631
 20
135.7489744941
 11
91.1952487631
 21
136.6106765995
  0
LINE
  5
283
100
AcDbEntity
  8
0
100
AcDbLine
 62
7
  6
CONTINUOUS
 10
91.6735530865
 20
131.1608893899
 11
91.6735530865
 21
132.809825587
  0
LINE
  5
284
100
AcDbEntity
  8
0
100
AcDbLine
 62
7
  6
CONTINUOUS
 10
91.8237298566
 20
131.1608893899
 11
91.8237298566
 21
132.809825587
  0
LINE
  5
285
100
AcDbEntity
  8
0
100
AcDbLine
 62
7
  6
CONTINUOUS
 10
92.1219972573
 20
132.0119531927
 11
92.1219972573
 21
132.2247192738
  0
LINE
  5
286
100
AcDbEntity
  8
0
100
AcDbLine
 62
7
  6
CONTINUOUS
 10
92.2977848747
 20
132.0651446757
 11
92.2977848747
 21
132.1715276418
  0
LINE
  5
287
100
AcDbEntity
  8
0
100
AcDbLine
 62
7
  6
CONTINUOUS
 10
92.383793298
 20
131.1608893899
 11
92.383793298
 21
131.4800383625
  0
LINE
  5
288
100
AcDbEntity
  8
0
100
AcDbLine
 62
7
  6
CONTINUOUS
 10
92.383793298
 20
132.756634104
 11
92.383793298
 21
132.809825587
  0
LINE
  5
289
100
AcDbEntity
  8
0
100
AcDbLine
 62
7
  6
CONTINUOUS
 10
92.878509684
 20
132.0651446757
 11
92.878509684
 21
132.1715276418
  0
LINE
  5
28A
100
AcDbEntity
  8
0
100
AcDbLine
 62
7
  6
CONTINUOUS
 10
93.0287217389
 20
130.9481234578
 11
93.0287217389
 21
131.1076979068
  0
LINE
  5
28B
100
AcDbEntity
  8
0
100
AcDbLine
 62
7
  6
CONTINUOUS
 10
93.2537617053
 20
130.8949319747
 11
93.2537617053
 21
131.1608893899
  0
LINE
  5
28C
100
AcDbEntity
  8
0
100
AcDbLine
 62
7
  6
CONTINUOUS
 10
93.8812943333
 20
130.8949319747
 11
93.8812943333
 21
131.1608893899
  0
LINE
  5
28D
100
AcDbEntity
  8
0
100
AcDbLine
 62
7
  6
CONTINUOUS
 10
93.1774338162
 20
131.3736553964
 11
93.8009465619
 21
131.3736553964
  0
LINE
  5
28E
100
AcDbEntity
  8
0
100
AcDbLine
 62
7
  6
CONTINUOUS
 10
90.2328502388
 20
131.4268468795
 11
90.4557795871
 21
131.4268468795
  0
LINE
  5
28F
100
AcDbEntity
  8
0
100
AcDbLine
 62
7
  6
CONTINUOUS
 10
92.5151713102
 20
131.4268468795
 11
92.7125240745
 21
131.4268468795
  0
LINE
  5
290
100
AcDbEntity
  8
0
100
AcDbLine
 62
7
  6
CONTINUOUS
 10
90.3314567658
 20
131.4800383625
 11
90.4557795871
 21
131.4800383625
  0
LINE
  5
291
100
AcDbEntity
  8
0
100
AcDbLine
 62
7
  6
CONTINUOUS
 10
93.0287217389
 20
131.5864213285
 11
93.6445522423
 21
131.5864213285
  0
LINE
  5
292
100
AcDbEntity
  8
0
100
AcDbLine
 62
7
  6
CONTINUOUS
 10
90.3582039223
 20
131.6396128115
 11
90.4557795871
 21
131.6396128115
  0
LINE
  5
293
100
AcDbEntity
  8
0
100
AcDbLine
 62
7
  6
CONTINUOUS
 10
92.8851131789
 20
131.6928042946
 11
93.4937070582
 21
131.6928042946
  0
LINE
  5
294
100
AcDbEntity
  8
0
100
AcDbLine
 62
7
  6
CONTINUOUS
 10
90.2328502388
 20
131.7459957776
 11
90.3075720184
 21
131.7459957776
  0
LINE
  5
295
100
AcDbEntity
  8
0
100
AcDbLine
 62
7
  6
CONTINUOUS
 10
92.5151713102
 20
131.7459957776
 11
93.3126482158
 21
131.7459957776
  0
LINE
  5
296
100
AcDbEntity
  8
0
100
AcDbLine
 62
7
  6
CONTINUOUS
 10
92.4203465925
 20
131.7991872606
 11
93.0066693472
 21
131.7991872606
  0
LINE
  5
297
100
AcDbEntity
  8
0
100
AcDbLine
 62
7
  6
CONTINUOUS
 10
90.3801518651
 20
131.8523787436
 11
90.4557795871
 21
131.8523787436
  0
LINE
  5
298
100
AcDbEntity
  8
0
100
AcDbLine
 62
7
  6
CONTINUOUS
 10
92.3280164225
 20
131.9055702266
 11
92.9101118616
 21
131.9055702266
  0
LINE
  5
299
100
AcDbEntity
  8
0
100
AcDbLine
 62
7
  6
CONTINUOUS
 10
90.3878287769
 20
132.0119531927
 11
90.4557795871
 21
132.0119531927
  0
LINE
  5
29A
100
AcDbEntity
  8
0
100
AcDbLine
 62
7
  6
CONTINUOUS
 10
92.2977848747
 20
132.0651446757
 11
92.878509684
 21
132.0651446757
  0
LINE
  5
29B
100
AcDbEntity
  8
0
100
AcDbLine
 62
7
  6
CONTINUOUS
 10
92.2977848747
 20
132.1715276418
 11
92.878509684
 21
132.1715276418
  0
LINE
  5
29C
100
AcDbEntity
  8
0
100
AcDbLine
 62
7
  6
CONTINUOUS
 10
90.3878287769
 20
132.2247192738
 11
90.4557795871
 21
132.2247192738
  0
LINE
  5
29D
100
AcDbEntity
  8
0
100
AcDbLine
 62
7
  6
CONTINUOUS
 10
92.9205464882
 20
132.2247192738
 11
93.7613163449
 21
132.2247192738
  0
LINE
  5
29E
100
AcDbEntity
  8
0
100
AcDbLine
 62
7
  6
CONTINUOUS
 10
92.3280164225
 20
132.3311022398
 11
92.8851131789
 21
132.3311022398
  0
LINE
  5
29F
100
AcDbEntity
  8
0
100
AcDbLine
 62
7
  6
CONTINUOUS
 10
90.3801518651
 20
132.3842937228
 11
90.4557795871
 21
132.3842937228
  0
LINE
  5
2A0
100
AcDbEntity
  8
0
100
AcDbLine
 62
7
  6
CONTINUOUS
 10
93.1024286006
 20
132.3842937228
 11
93.7220422682
 21
132.3842937228
  0
LINE
  5
2A1
100
AcDbEntity
  8
0
100
AcDbLine
 62
7
  6
CONTINUOUS
 10
92.4203465925
 20
132.4374852059
 11
92.8151699427
 21
132.4374852059
  0
LINE
  5
2A2
100
AcDbEntity
  8
0
100
AcDbLine
 62
7
  6
CONTINUOUS
 10
92.5151713102
 20
132.4906766889
 11
92.7125240745
 21
132.4906766889
  0
LINE
  5
2A3
100
AcDbEntity
  8
0
100
AcDbLine
 62
7
  6
CONTINUOUS
 10
90.2328502388
 20
132.5438681719
 11
90.3075720184
 21
132.5438681719
  0
LINE
  5
2A4
100
AcDbEntity
  8
0
100
AcDbLine
 62
7
  6
CONTINUOUS
 10
90.3582039223
 20
132.5970596549
 11
90.4557795871
 21
132.5970596549
  0
LINE
  5
2A5
100
AcDbEntity
  8
0
100
AcDbLine
 62
7
  6
CONTINUOUS
 10
92.9923477109
 20
132.5970596549
 11
93.6063286422
 21
132.5970596549
  0
LINE
  5
2A6
100
AcDbEntity
  8
0
100
AcDbLine
 62
7
  6
CONTINUOUS
 10
90.3314567658
 20
132.756634104
 11
90.4557795871
 21
132.756634104
  0
LINE
  5
2A7
100
AcDbEntity
  8
0
100
AcDbLine
 62
7
  6
CONTINUOUS
 10
92.8499882387
 20
132.756634104
 11
93.4568385771
 21
132.756634104
  0
LINE
  5
2A8
100
AcDbEntity
  8
0
100
AcDbLine
 62
7
  6
CONTINUOUS
 10
90.2224525024
 20
132.809825587
 11
91.0245074403
 21
132.809825587
  0
LINE
  5
2A9
100
AcDbEntity
  8
0
100
AcDbLine
 62
7
  6
CONTINUOUS
 10
91.0450451451
 20
132.809825587
 11
92.383793298
 21
132.809825587
  0
LINE
  5
2AA
100
AcDbEntity
  8
0
100
AcDbLine
 62
7
  6
CONTINUOUS
 10
92.5151713102
 20
132.809825587
 11
93.2774064271
 21
132.809825587
  0
LINE
  5
2AB
100
AcDbEntity
  8
0
100
AcDbLine
 62
7
  6
CONTINUOUS
 10
96.2182906401
 20
146.729825587
 11
96.2182906401
 21
142.429825587
  0
LINE
  5
2AC
100
AcDbEntity
  8
0
100
AcDbLine
 62
7
  6
CONTINUOUS
 10
96.2182906401
 20
122.029825587
 11
96.2182906401
 21
117.729825587
  0
LINE
  5
2AD
100
AcDbEntity
  8
0
100
AcDbLine
 62
7
  6
CONTINUOUS
 10
90.219040892
 20
134.829825587
 11
90.9920133186
 21
134.829825587
  0
LINE
  5
2AE
100
AcDbEntity
  8
0
100
AcDbLine
 62
7
  6
CONTINUOUS
 10
90.2243608277
 20
134.8872723937
 11
90.2912853004
 21
134.8872723937
  0
LINE
  5
2AF
100
AcDbEntity
  8
0
100
AcDbLine
 62
7
  6
CONTINUOUS
 10
90.538382551
 20
134.8872723937
 11
91.0492889838
 21
134.8872723937
  0
LINE
  5
2B0
100
AcDbEntity
  8
0
100
AcDbLine
 62
7
  6
CONTINUOUS
 10
90.2322954045
 20
135.0021660121
 11
90.2912853004
 21
135.0021660121
  0
LINE
  5
2B1
100
AcDbEntity
  8
0
100
AcDbLine
 62
7
  6
CONTINUOUS
 10
90.5865756534
 20
135.0021660121
 11
91.0991662327
 21
135.0021660121
  0
LINE
  5
2B2
100
AcDbEntity
  8
0
100
AcDbLine
 62
7
  6
CONTINUOUS
 10
90.2182906356
 20
135.1745064372
 11
90.2184602007
 21
135.1745064372
  0
LINE
  5
2B3
100
AcDbEntity
  8
0
100
AcDbLine
 62
7
  6
CONTINUOUS
 10
90.3278910351
 20
135.1745064372
 11
90.4830274737
 21
135.1745064372
  0
LINE
  5
2B4
100
AcDbEntity
  8
0
100
AcDbLine
 62
7
  6
CONTINUOUS
 10
90.243505157
 20
135.2319532389
 11
90.2912853004
 21
135.2319532389
  0
LINE
  5
2B5
100
AcDbEntity
  8
0
100
AcDbLine
 62
7
  6
CONTINUOUS
 10
90.6382794506
 20
135.2319532389
 11
91.152689469
 21
135.2319532389
  0
LINE
  5
2B6
100
AcDbEntity
  8
0
100
AcDbLine
 62
7
  6
CONTINUOUS
 10
90.2503403577
 20
135.4617404858
 11
90.2912853004
 21
135.4617404858
  0
LINE
  5
2B7
100
AcDbEntity
  8
0
100
AcDbLine
 62
7
  6
CONTINUOUS
 10
90.6654591477
 20
135.4617404858
 11
91.1808308917
 21
135.4617404858
  0
LINE
  5
2B8
100
AcDbEntity
  8
0
100
AcDbLine
 62
7
  6
CONTINUOUS
 10
90.2540660063
 20
135.7489744941
 11
90.2912853004
 21
135.7489744941
  0
LINE
  5
2B9
100
AcDbEntity
  8
0
100
AcDbLine
 62
7
  6
CONTINUOUS
 10
90.6793829218
 20
135.7489744941
 11
91.1952487631
 21
135.7489744941
  0
LINE
  5
2BA
100
AcDbEntity
  8
0
100
AcDbLine
 62
7
  6
CONTINUOUS
 10
90.6793829218
 20
136.6106765995
 11
91.1952487631
 21
136.6106765995
  0
LINE
  5
2BB
100
AcDbEntity
  8
0
100
AcDbLine
 62
7
  6
CONTINUOUS
 10
90.6654591477
 20
136.8979107687
 11
91.1808308917
 21
136.8979107687
  0
LINE
  5
2BC
100
AcDbEntity
  8
0
100
AcDbLine
 62
7
  6
CONTINUOUS
 10
90.6382794506
 20
137.1276979754
 11
91.152689469
 21
137.1276979754
  0
LINE
  5
2BD
100
AcDbEntity
  8
0
100
AcDbLine
 62
7
  6
CONTINUOUS
 10
90.3278910351
 20
137.185144777
 11
90.4830274737
 21
137.185144777
  0
LINE
  5
2BE
100
AcDbEntity
  8
0
100
AcDbLine
 62
7
  6
CONTINUOUS
 10
90.5865756534
 20
137.357485182
 11
91.0991662327
 21
137.357485182
  0
LINE
  5
2BF
100
AcDbEntity
  8
0
100
AcDbLine
 62
7
  6
CONTINUOUS
 10
90.538382551
 20
137.4723787854
 11
91.0492889838
 21
137.4723787854
  0
LINE
  5
2C0
100
AcDbEntity
  8
0
100
AcDbLine
 62
7
  6
CONTINUOUS
 10
90.2347905562
 20
137.529825587
 11
90.9920133186
 21
137.529825587
  0
LINE
  5
2C1
100
AcDbEntity
  8
BEZUGSACHSEN
100
AcDbLine
 62
7
  6
CONTINUOUS
 10
98.4033360639
 20
147.329825587
 11
98.4033360639
 21
152.3706362085
  0
LINE
  5
2C2
100
AcDbEntity
  8
0
100
AcDbLine
 62
7
  6
CONTINUOUS
 10
99.9682906401
 20
142.429825587
 11
99.9682906401
 21
142.229825587
  0
LINE
  5
2C3
100
AcDbEntity
  8
0
100
AcDbLine
 62
7
  6
CONTINUOUS
 10
99.9682906401
 20
122.229825587
 11
99.9682906401
 21
122.029825587
  0
LINE
  5
2C4
100
AcDbEntity
  8
KONSTRUKTIONSELEMENTE
100
AcDbLine
 62
7
  6
CONTINUOUS
 10
100.6944900522
 20
153.129825587
 11
100.6944900522
 21
153.329825587
  0
LINE
  5
2C5
100
AcDbEntity
  8
KONSTRUKTIONSELEMENTE
100
AcDbLine
 62
7
  6
CONTINUOUS
 10
100.9682906401
 20
146.729825587
 11
100.9682906401
 21
147.329825587
  0
LINE
  5
2C6
100
AcDbEntity
  8
BEZUGSACHSEN
100
AcDbLine
 62
7
  6
CONTINUOUS
 10
100.9682906401
 20
146.729825587
 11
100.9682906401
 21
147.329825587
  0
LINE
  5
2C7
100
AcDbEntity
  8
KONSTRUKTIONSELEMENTE
100
AcDbLine
 62
7
  6
CONTINUOUS
 10
103.1705361599
 20
153.129825587
 11
103.1705361599
 21
153.329825587
  0
LINE
  5
2C8
100
AcDbEntity
  8
KONSTRUKTIONSELEMENTE
100
AcDbLine
 62
7
  6
CONTINUOUS
 10
103.2007452954
 20
153.129825587
 11
103.2007452954
 21
153.329825587
  0
LINE
  5
2C9
100
AcDbEntity
  8
BEZUGSACHSEN
100
AcDbLine
 62
7
  6
CONTINUOUS
 10
103.2182906401
 20
117.729825587
 11
103.2182906401
 21
103.979825587
  0
LINE
  5
2CA
100
AcDbEntity
  8
BEZUGSACHSEN
100
AcDbLine
 62
7
  6
CONTINUOUS
 10
103.310813352
 20
147.329825587
 11
103.310813352
 21
152.3706362085
  0
LINE
  5
2CB
100
AcDbEntity
  8
KONSTRUKTIONSELEMENTE
100
AcDbLine
 62
7
  6
CONTINUOUS
 10
103.3266166886
 20
153.129825587
 11
103.3266166886
 21
153.329825587
  0
LINE
  5
2CC
100
AcDbEntity
  8
KONSTRUKTIONSELEMENTE
100
AcDbLine
 62
7
  6
CONTINUOUS
 10
103.3618606896
 20
153.129825587
 11
103.3618606896
 21
153.329825587
  0
LINE
  5
2CD
100
AcDbEntity
  8
KONSTRUKTIONSELEMENTE
100
AcDbLine
 62
7
  6
CONTINUOUS
 10
103.4299807903
 20
153.129825587
 11
103.4299807903
 21
153.329825587
  0
LINE
  5
2CE
100
AcDbEntity
  8
KONSTRUKTIONSELEMENTE
100
AcDbLine
 62
7
  6
CONTINUOUS
 10
103.5906007332
 20
153.129825587
 11
103.5906007332
 21
153.329825587
  0
LINE
  5
2CF
100
AcDbEntity
  8
KONSTRUKTIONSELEMENTE
100
AcDbLine
 62
7
  6
CONTINUOUS
 10
103.720119768
 20
153.129825587
 11
103.720119768
 21
153.329825587
  0
LINE
  5
2D0
100
AcDbEntity
  8
KONSTRUKTIONSELEMENTE
100
AcDbLine
 62
7
  6
CONTINUOUS
 10
103.7857319489
 20
153.129825587
 11
103.7857319489
 21
153.329825587
  0
LINE
  5
2D1
100
AcDbEntity
  8
KONSTRUKTIONSELEMENTE
100
AcDbLine
 62
7
  6
CONTINUOUS
 10
103.8202432259
 20
153.129825587
 11
103.8202432259
 21
153.329825587
  0
LINE
  5
2D2
100
AcDbEntity
  8
KONSTRUKTIONSELEMENTE
100
AcDbLine
 62
7
  6
CONTINUOUS
 10
104.2181077351
 20
153.129825587
 11
104.2181077351
 21
153.329825587
  0
LINE
  5
2D3
100
AcDbEntity
  8
RUNDUNGEN
100
AcDbLine
 62
7
  6
CONTINUOUS
 10
92.2182906401
 20
142.229825587
 11
118.7182906401
 21
142.229825587
  0
LINE
  5
2D4
100
AcDbEntity
  8
0
100
AcDbLine
 62
7
  6
CONTINUOUS
 10
96.2182906401
 20
142.429825587
 11
118.7182906401
 21
142.429825587
  0
LINE
  5
2D5
100
AcDbEntity
  8
0
100
AcDbLine
 62
7
  6
CONTINUOUS
 10
118.7182906401
 20
144.729825587
 11
119.7182906401
 21
144.729825587
  0
LINE
  5
2D6
100
AcDbEntity
  8
0
100
AcDbLine
 62
7
  6
CONTINUOUS
 10
127.7182906401
 20
144.729825587
 11
128.7182906401
 21
144.729825587
  0
LINE
  5
2D7
100
AcDbEntity
  8
KONSTRUKTIONSELEMENTE
100
AcDbLine
 62
7
  6
CONTINUOUS
 10
104.8470629814
 20
153.129825587
 11
104.8470629814
 21
153.329825587
  0
LINE
  5
2D8
100
AcDbEntity
  8
KONSTRUKTIONSELEMENTE
100
AcDbLine
 62
7
  6
CONTINUOUS
 10
104.941116132
 20
153.129825587
 11
104.941116132
 21
153.329825587
  0
LINE
  5
2D9
100
AcDbEntity
  8
KONSTRUKTIONSELEMENTE
100
AcDbLine
 62
7
  6
CONTINUOUS
 10
104.9719833187
 20
153.129825587
 11
104.9719833187
 21
153.329825587
  0
LINE
  5
2DA
100
AcDbEntity
  8
KONSTRUKTIONSELEMENTE
100
AcDbLine
 62
7
  6
CONTINUOUS
 10
107.0474546141
 20
153.129825587
 11
107.0474546141
 21
153.329825587
  0
LINE
  5
2DB
100
AcDbEntity
  8
KONSTRUKTIONSELEMENTE
100
AcDbLine
 62
7
  6
CONTINUOUS
 10
107.1462946635
 20
153.129825587
 11
107.1462946635
 21
153.329825587
  0
LINE
  5
2DC
100
AcDbEntity
  8
KONSTRUKTIONSELEMENTE
100
AcDbLine
 62
7
  6
CONTINUOUS
 10
107.364873633
 20
153.129825587
 11
107.364873633
 21
153.329825587
  0
LINE
  5
2DD
100
AcDbEntity
  8
KONSTRUKTIONSELEMENTE
100
AcDbLine
 62
7
  6
CONTINUOUS
 10
107.8748909503
 20
153.129825587
 11
107.8748909503
 21
153.329825587
  0
LINE
  5
2DE
100
AcDbEntity
  8
KONSTRUKTIONSELEMENTE
100
AcDbLine
 62
7
  6
CONTINUOUS
 10
108.1663301321
 20
153.129825587
 11
108.1663301321
 21
153.329825587
  0
LINE
  5
2DF
100
AcDbEntity
  8
BEZUGSACHSEN
100
AcDbLine
 62
7
  6
CONTINUOUS
 10
98.4033360639
 20
152.3706362085
 11
99.7182906401
 21
153.129825587
  0
LINE
  5
2E0
100
AcDbEntity
  8
0
100
AcDbLine
 62
7
  6
CONTINUOUS
 10
96.2182906401
 20
146.729825587
 11
119.7182906401
 21
146.729825587
  0
LINE
  5
2E1
100
AcDbEntity
  8
KONSTRUKTIONSELEMENTE
100
AcDbLine
 62
7
  6
CONTINUOUS
 10
98.4033360639
 20
147.329825587
 11
118.0332452163
 21
147.329825587
  0
LINE
  5
2E2
100
AcDbEntity
  8
KONSTRUKTIONSELEMENTE
100
AcDbLine
 62
7
  6
CONTINUOUS
 10
108.5985371953
 20
153.129825587
 11
108.5985371953
 21
153.329825587
  0
LINE
  5
2E3
100
AcDbEntity
  8
KONSTRUKTIONSELEMENTE
100
AcDbLine
 62
7
  6
CONTINUOUS
 10
108.6763474495
 20
153.129825587
 11
108.6763474495
 21
153.329825587
  0
LINE
  5
2E4
100
AcDbEntity
  8
KONSTRUKTIONSELEMENTE
100
AcDbLine
 62
7
  6
CONTINUOUS
 10
108.8949264189
 20
153.129825587
 11
108.8949264189
 21
153.329825587
  0
LINE
  5
2E5
100
AcDbEntity
  8
KONSTRUKTIONSELEMENTE
100
AcDbLine
 62
7
  6
CONTINUOUS
 10
109.3948379136
 20
153.129825587
 11
109.3948379136
 21
153.329825587
  0
LINE
  5
2E6
100
AcDbEntity
  8
KONSTRUKTIONSELEMENTE
100
AcDbLine
 62
7
  6
CONTINUOUS
 10
109.6074455232
 20
153.129825587
 11
109.6074455232
 21
153.329825587
  0
LINE
  5
2E7
100
AcDbEntity
  8
KONSTRUKTIONSELEMENTE
100
AcDbLine
 62
7
  6
CONTINUOUS
 10
110.19571916
 20
153.129825587
 11
110.19571916
 21
153.329825587
  0
LINE
  5
2E8
100
AcDbEntity
  8
KONSTRUKTIONSELEMENTE
100
AcDbLine
 62
7
  6
CONTINUOUS
 10
110.2006476055
 20
153.129825587
 11
110.2006476055
 21
153.329825587
  0
LINE
  5
2E9
100
AcDbEntity
  8
KONSTRUKTIONSELEMENTE
100
AcDbLine
 62
7
  6
CONTINUOUS
 10
110.2257268425
 20
153.129825587
 11
110.2257268425
 21
153.329825587
  0
LINE
  5
2EA
100
AcDbEntity
  8
KONSTRUKTIONSELEMENTE
100
AcDbLine
 62
7
  6
CONTINUOUS
 10
110.3157879974
 20
153.129825587
 11
110.3157879974
 21
153.329825587
  0
LINE
  5
2EB
100
AcDbEntity
  8
KONSTRUKTIONSELEMENTE
100
AcDbLine
 62
7
  6
CONTINUOUS
 10
110.4866012939
 20
153.129825587
 11
110.4866012939
 21
153.329825587
  0
LINE
  5
2EC
100
AcDbEntity
  8
KONSTRUKTIONSELEMENTE
100
AcDbLine
 62
7
  6
CONTINUOUS
 10
110.7056765176
 20
153.129825587
 11
110.7056765176
 21
153.329825587
  0
LINE
  5
2ED
100
AcDbEntity
  8
KONSTRUKTIONSELEMENTE
100
AcDbLine
 62
7
  6
CONTINUOUS
 10
110.9405227107
 20
153.129825587
 11
110.9405227107
 21
153.329825587
  0
LINE
  5
2EE
100
AcDbEntity
  8
KONSTRUKTIONSELEMENTE
100
AcDbLine
 62
7
  6
CONTINUOUS
 10
111.1103877338
 20
153.129825587
 11
111.1103877338
 21
153.329825587
  0
LINE
  5
2EF
100
AcDbEntity
  8
KONSTRUKTIONSELEMENTE
100
AcDbLine
 62
7
  6
CONTINUOUS
 10
111.2718927689
 20
153.129825587
 11
111.2718927689
 21
153.329825587
  0
LINE
  5
2F0
100
AcDbEntity
  8
KONSTRUKTIONSELEMENTE
100
AcDbLine
 62
7
  6
CONTINUOUS
 10
111.3767766114
 20
153.129825587
 11
111.3767766114
 21
153.329825587
  0
LINE
  5
2F1
100
AcDbEntity
  8
KONSTRUKTIONSELEMENTE
100
AcDbLine
 62
7
  6
CONTINUOUS
 10
111.5299224107
 20
153.129825587
 11
111.5299224107
 21
153.329825587
  0
LINE
  5
2F2
100
AcDbEntity
  8
KONSTRUKTIONSELEMENTE
100
AcDbLine
 62
7
  6
CONTINUOUS
 10
111.7471010644
 20
153.129825587
 11
111.7471010644
 21
153.329825587
  0
LINE
  5
2F3
100
AcDbEntity
  8
KONSTRUKTIONSELEMENTE
100
AcDbLine
 62
7
  6
CONTINUOUS
 10
111.8352649141
 20
153.129825587
 11
111.8352649141
 21
153.329825587
  0
LINE
  5
2F4
100
AcDbEntity
  8
KONSTRUKTIONSELEMENTE
100
AcDbLine
 62
7
  6
CONTINUOUS
 10
111.8751669084
 20
153.129825587
 11
111.8751669084
 21
153.329825587
  0
LINE
  5
2F5
100
AcDbEntity
  8
KONSTRUKTIONSELEMENTE
100
AcDbLine
 62
7
  6
CONTINUOUS
 10
111.9067095824
 20
153.129825587
 11
111.9067095824
 21
153.329825587
  0
LINE
  5
2F6
100
AcDbEntity
  8
0
100
AcDbLine
 62
7
  6
CONTINUOUS
 10
119.7182906401
 20
151.129825587
 11
118.9682906401
 21
151.129825587
  0
LINE
  5
2F7
100
AcDbEntity
  8
0
100
AcDbLine
 62
7
  6
CONTINUOUS
 10
119.7182906401
 20
151.692325587
 11
118.9682906401
 21
151.692325587
  0
LINE
  5
2F8
100
AcDbEntity
  8
BEZUGSACHSEN
100
AcDbLine
 62
7
  6
CONTINUOUS
 10
113.1257679282
 20
147.329825587
 11
113.1257679282
 21
152.3706362085
  0
LINE
  5
2F9
100
AcDbEntity
  8
BEZUGSACHSEN
100
AcDbLine
 62
7
  6
CONTINUOUS
 10
113.2182906401
 20
103.979825587
 11
113.2182906401
 21
117.729825587
  0
LINE
  5
2FA
100
AcDbEntity
  8
KONSTRUKTIONSELEMENTE
100
AcDbLine
 62
7
  6
CONTINUOUS
 10
115.4682906401
 20
146.729825587
 11
115.4682906401
 21
147.329825587
  0
LINE
  5
2FB
100
AcDbEntity
  8
BEZUGSACHSEN
100
AcDbLine
 62
7
  6
CONTINUOUS
 10
115.4682906401
 20
146.729825587
 11
115.4682906401
 21
147.329825587
  0
LINE
  5
2FC
100
AcDbEntity
  8
BEZUGSACHSEN
100
AcDbLine
 62
7
  6
CONTINUOUS
 10
99.7182906401
 20
153.129825587
 11
116.7182906401
 21
153.129825587
  0
LINE
  5
2FD
100
AcDbEntity
  8
0
100
AcDbLine
 62
7
  6
CONTINUOUS
 10
119.7182906401
 20
153.2860755423
 11
118.9682906401
 21
153.2860755423
  0
LINE
  5
2FE
100
AcDbEntity
  8
KONSTRUKTIONSELEMENTE
100
AcDbLine
 62
7
  6
CONTINUOUS
 10
100.6944900522
 20
153.329825587
 11
104.9719833187
 21
153.329825587
  0
LINE
  5
2FF
100
AcDbEntity
  8
KONSTRUKTIONSELEMENTE
100
AcDbLine
 62
7
  6
CONTINUOUS
 10
107.0474546141
 20
153.329825587
 11
108.8949264189
 21
153.329825587
  0
LINE
  5
300
100
AcDbEntity
  8
KONSTRUKTIONSELEMENTE
100
AcDbLine
 62
7
  6
CONTINUOUS
 10
109.3948379136
 20
153.329825587
 11
110.19571916
 21
153.329825587
  0
LINE
  5
301
100
AcDbEntity
  8
KONSTRUKTIONSELEMENTE
100
AcDbLine
 62
7
  6
CONTINUOUS
 10
110.2006476055
 20
153.329825587
 11
111.9067095824
 21
153.329825587
  0
LINE
  5
302
100
AcDbEntity
  8
0
100
AcDbLine
 62
7
  6
CONTINUOUS
 10
119.7182906401
 20
154.0360754976
 11
118.9682906401
 21
154.0360754976
  0
LINE
  5
303
100
AcDbEntity
  8
0
100
AcDbLine
 62
7
  6
CONTINUOUS
 10
119.7182906401
 20
154.6923256764
 11
118.9682906401
 21
154.6923256764
  0
LINE
  5
304
100
AcDbEntity
  8
0
100
AcDbLine
 62
7
  6
CONTINUOUS
 10
119.7182906401
 20
155.4423254976
 11
118.9682906401
 21
155.4423254976
  0
LINE
  5
305
100
AcDbEntity
  8
0
100
AcDbLine
 62
7
  6
CONTINUOUS
 10
119.7182906401
 20
155.5360756764
 11
118.9682906401
 21
155.5360756764
  0
LINE
  5
306
100
AcDbEntity
  8
0
100
AcDbLine
 62
7
  6
CONTINUOUS
 10
119.7182906401
 20
155.7235757658
 11
118.9682906401
 21
155.7235757658
  0
LINE
  5
307
100
AcDbEntity
  8
0
100
AcDbLine
 62
7
  6
CONTINUOUS
 10
119.7182906401
 20
156.0985754082
 11
118.9682906401
 21
156.0985754082
  0
LINE
  5
308
100
AcDbEntity
  8
BEZUGSACHSEN
100
AcDbLine
 62
7
  6
CONTINUOUS
 10
118.0332452163
 20
152.3706362085
 11
116.7182906401
 21
153.129825587
  0
LINE
  5
309
100
AcDbEntity
  8
0
100
AcDbLine
 62
7
  6
CONTINUOUS
 10
116.4682906401
 20
142.429825587
 11
116.4682906401
 21
142.229825587
  0
LINE
  5
30A
100
AcDbEntity
  8
0
100
AcDbLine
 62
7
  6
CONTINUOUS
 10
116.4682906401
 20
122.229825587
 11
116.4682906401
 21
122.029825587
  0
LINE
  5
30B
100
AcDbEntity
  8
BEZUGSACHSEN
100
AcDbLine
 62
7
  6
CONTINUOUS
 10
118.0332452163
 20
147.329825587
 11
118.0332452163
 21
152.3706362085
  0
LINE
  5
30C
100
AcDbEntity
  8
0
100
AcDbLine
 62
7
  6
CONTINUOUS
 10
118.7182906401
 20
144.729825587
 11
118.7182906401
 21
141.6796999581
  0
LINE
  5
30D
100
AcDbEntity
  8
RUNDUNGEN
100
AcDbLine
 62
7
  6
CONTINUOUS
 10
118.7182906401
 20
131.729825587
 11
118.7182906401
 21
144.729825587
  0
LINE
  5
30E
100
AcDbEntity
  8
RUNDUNGEN
100
AcDbLine
 62
7
  6
CONTINUOUS
 10
118.7182906401
 20
169.729825587
 11
118.7182906401
 21
175.729825587
  0
LINE
  5
30F
100
AcDbEntity
  8
0
100
AcDbLine
 62
7
  6
CONTINUOUS
 10
118.7182906401
 20
169.729825587
 11
118.7182906401
 21
196.729825587
  0
LINE
  5
310
100
AcDbEntity
  8
0
100
AcDbLine
 62
7
  6
CONTINUOUS
 10
118.9682906401
 20
151.129825587
 11
118.9682906401
 21
154.6923256764
  0
LINE
  5
311
100
AcDbEntity
  8
0
100
AcDbLine
 62
7
  6
CONTINUOUS
 10
118.9682906401
 20
155.4423254976
 11
118.9682906401
 21
158.8173257658
  0
LINE
  5
312
100
AcDbEntity
  8
0
100
AcDbLine
 62
7
  6
CONTINUOUS
 10
118.9682906401
 20
159.567325587
 11
118.9682906401
 21
163.3173252294
  0
LINE
  5
313
100
AcDbEntity
  8
0
100
AcDbLine
 62
7
  6
CONTINUOUS
 10
119.7182906401
 20
156.473575587
 11
118.9682906401
 21
156.473575587
  0
LINE
  5
314
100
AcDbEntity
  8
0
100
AcDbLine
 62
7
  6
CONTINUOUS
 10
119.7182906401
 20
156.9423254082
 11
118.9682906401
 21
156.9423254082
  0
LINE
  5
315
100
AcDbEntity
  8
0
100
AcDbLine
 62
7
  6
CONTINUOUS
 10
119.7182906401
 20
157.317325587
 11
118.9682906401
 21
157.317325587
  0
LINE
  5
316
100
AcDbEntity
  8
0
100
AcDbLine
 62
7
  6
CONTINUOUS
 10
119.7182906401
 20
157.7860754082
 11
118.9682906401
 21
157.7860754082
  0
LINE
  5
317
100
AcDbEntity
  8
0
100
AcDbLine
 62
7
  6
CONTINUOUS
 10
119.7182906401
 20
158.161075587
 11
118.9682906401
 21
158.161075587
  0
LINE
  5
318
100
AcDbEntity
  8
0
100
AcDbLine
 62
7
  6
CONTINUOUS
 10
119.7182906401
 20
158.5360757658
 11
118.9682906401
 21
158.5360757658
  0
LINE
  5
319
100
AcDbEntity
  8
0
100
AcDbLine
 62
7
  6
CONTINUOUS
 10
119.7182906401
 20
158.723575587
 11
118.9682906401
 21
158.723575587
  0
LINE
  5
31A
100
AcDbEntity
  8
0
100
AcDbLine
 62
7
  6
CONTINUOUS
 10
119.7182906401
 20
158.8173257658
 11
118.9682906401
 21
158.8173257658
  0
LINE
  5
31B
100
AcDbEntity
  8
0
100
AcDbLine
 62
7
  6
CONTINUOUS
 10
119.7182906401
 20
159.3857593507
 11
119.2182906401
 21
159.3857593507
  0
LINE
  5
31C
100
AcDbEntity
  8
0
100
AcDbLine
 62
7
  6
CONTINUOUS
 10
119.2182906401
 20
159.567325587
 11
118.9682906401
 21
159.567325587
  0
LINE
  5
31D
100
AcDbEntity
  8
0
100
AcDbLine
 62
7
  6
CONTINUOUS
 10
119.2182906401
 20
159.386155645
 11
119.2182906401
 21
161.5857593507
  0
LINE
  5
31E
100
AcDbEntity
  8
0
100
AcDbLine
 62
7
  6
CONTINUOUS
 10
119.2182906401
 20
162.786155645
 11
119.2182906401
 21
164.9857593507
  0
LINE
  5
31F
100
AcDbEntity
  8
0
100
AcDbLine
 62
7
  6
CONTINUOUS
 10
119.7182906401
 20
144.729825587
 11
119.7182906401
 21
169.729825587
  0
LINE
  5
320
100
AcDbEntity
  8
0
100
AcDbLine
 62
7
  6
CONTINUOUS
 10
120.0182906401
 20
176.0791182008
 11
120.0182906401
 21
200.0928599312
  0
LINE
  5
321
100
AcDbEntity
  8
0
100
AcDbLine
 62
7
  6
CONTINUOUS
 10
120.2182906401
 20
122.029825587
 11
120.2182906401
 21
117.729825587
  0
LINE
  5
322
100
AcDbEntity
  8
0
100
AcDbLine
 62
7
  6
CONTINUOUS
 10
119.7182906401
 20
161.5857593507
 11
119.2182906401
 21
161.5857593507
  0
LINE
  5
323
100
AcDbEntity
  8
0
100
AcDbLine
 62
7
  6
CONTINUOUS
 10
119.7182906401
 20
161.817325587
 11
118.9682906401
 21
161.817325587
  0
LINE
  5
324
100
AcDbEntity
  8
0
100
AcDbLine
 62
7
  6
CONTINUOUS
 10
119.7182906401
 20
162.2860759446
 11
118.9682906401
 21
162.2860759446
  0
LINE
  5
325
100
AcDbEntity
  8
0
100
AcDbLine
 62
7
  6
CONTINUOUS
 10
119.7182906401
 20
162.661075587
 11
118.9682906401
 21
162.661075587
  0
LINE
  5
326
100
AcDbEntity
  8
0
100
AcDbLine
 62
7
  6
CONTINUOUS
 10
119.7182906401
 20
162.7857593507
 11
119.2182906401
 21
162.7857593507
  0
LINE
  5
327
100
AcDbEntity
  8
0
100
AcDbLine
 62
7
  6
CONTINUOUS
 10
119.2182906401
 20
163.0360752294
 11
118.9682906401
 21
163.0360752294
  0
LINE
  5
328
100
AcDbEntity
  8
0
100
AcDbLine
 62
7
  6
CONTINUOUS
 10
119.2182906401
 20
163.223575587
 11
118.9682906401
 21
163.223575587
  0
LINE
  5
329
100
AcDbEntity
  8
0
100
AcDbLine
 62
7
  6
CONTINUOUS
 10
119.2182906401
 20
163.3173252294
 11
118.9682906401
 21
163.3173252294
  0
LINE
  5
32A
100
AcDbEntity
  8
0
100
AcDbLine
 62
7
  6
CONTINUOUS
 10
119.7182906401
 20
164.9857593507
 11
119.2182906401
 21
164.9857593507
  0
LINE
  5
32B
100
AcDbEntity
  8
0
100
AcDbLine
 62
7
  6
CONTINUOUS
 10
127.4182906401
 20
200.0928599312
 11
127.4182906401
 21
176.0791182008
  0
LINE
  5
32C
100
AcDbEntity
  8
0
100
AcDbLine
 62
7
  6
CONTINUOUS
 10
127.7182906401
 20
144.729825587
 11
127.7182906401
 21
169.729825587
  0
LINE
  5
32D
100
AcDbEntity
  8
0
100
AcDbLine
 62
7
  6
CONTINUOUS
 10
128.7182906401
 20
196.729825587
 11
128.7182906401
 21
169.729825587
  0
LINE
  5
32E
100
AcDbEntity
  8
0
100
AcDbLine
 62
7
  6
CONTINUOUS
 10
128.7182906401
 20
144.729825587
 11
128.7182906401
 21
141.6796999581
  0
LINE
  5
32F
100
AcDbEntity
  8
RUNDUNGEN
100
AcDbLine
 62
7
  6
CONTINUOUS
 10
128.7182906401
 20
131.729825587
 11
128.7182906401
 21
144.729825587
  0
LINE
  5
330
100
AcDbEntity
  8
RUNDUNGEN
100
AcDbLine
 62
7
  6
CONTINUOUS
 10
128.7182906401
 20
169.729825587
 11
128.7182906401
 21
175.729825587
  0
LINE
  5
331
100
AcDbEntity
  8
0
100
AcDbLine
 62
7
  6
CONTINUOUS
 10
118.7182906401
 20
169.729825587
 11
119.7182906401
 21
169.729825587
  0
LINE
  5
332
100
AcDbEntity
  8
0
100
AcDbLine
 62
7
  6
CONTINUOUS
 10
127.7182906401
 20
169.729825587
 11
128.7182906401
 21
169.729825587
  0
LINE
  5
333
100
AcDbEntity
  8
BEZUGSACHSEN
100
AcDbLine
 62
7
  6
CONTINUOUS
 10
113.2182906401
 20
103.979825587
 11
111.9682906401
 21
102.729825587
  0
LINE
  5
334
100
AcDbEntity
  8
0
100
AcDbLine
 62
7
  6
CONTINUOUS
 10
120.0182906401
 20
199.729825587
 11
119.7182906401
 21
199.729825587
  0
LINE
  5
335
100
AcDbEntity
  8
0
100
AcDbLine
 62
7
  6
CONTINUOUS
 10
127.4182906401
 20
199.729825587
 11
127.7182906401
 21
199.729825587
  0
LINE
  5
336
100
AcDbEntity
  8
BEZUGSACHSEN
100
AcDbLine
 62
7
  6
CONTINUOUS
 10
195.1172889523
 20
102.729825587
 11
202.6147055523
 21
102.729825587
  0
LINE
  5
337
100
AcDbEntity
  8
BEZUGSACHSEN
100
AcDbLine
 62
7
  6
CONTINUOUS
 10
193.8659972523
 20
103.979825587
 11
203.8659972523
 21
103.979825587
  0
LINE
  5
338
100
AcDbEntity
  8
0
100
AcDbLine
 62
7
  6
CONTINUOUS
 10
181.6159972523
 20
192.0496307654
 11
198.8659972523
 21
199.729825587
  0
LINE
  5
339
100
AcDbEntity
  8
BEZUGSACHSEN
100
AcDbLine
 62
7
  6
CONTINUOUS
 10
195.1159972523
 20
102.729825587
 11
193.8659972523
 21
103.979825587
  0
LINE
  5
33A
100
AcDbEntity
  8
0
100
AcDbLine
 62
7
  6
CONTINUOUS
 10
186.8659972523
 20
117.729825587
 11
210.8659972523
 21
117.729825587
  0
LINE
  5
33B
100
AcDbEntity
  8
0
100
AcDbLine
 62
7
  6
CONTINUOUS
 10
174.5054669394
 20
176.0791182008
 11
181.6159972523
 21
192.0496307654
  0
LINE
  5
33C
100
AcDbEntity
  8
0
100
AcDbLine
 62
7
  6
CONTINUOUS
 10
186.8659972523
 20
122.029825587
 11
210.8659972523
 21
122.029825587
  0
LINE
  5
33D
100
AcDbEntity
  8
RUNDUNGEN
100
AcDbLine
 62
7
  6
CONTINUOUS
 10
212.3659972523
 20
122.229825587
 11
185.3659972523
 21
122.229825587
  0
LINE
  5
33E
100
AcDbEntity
  8
0
100
AcDbLine
 62
7
  6
CONTINUOUS
 10
172.8659972523
 20
175.729825587
 11
172.8659972523
 21
135.729825587
  0
LINE
  5
33F
100
AcDbEntity
  8
0
100
AcDbLine
 62
7
  6
CONTINUOUS
 10
200.0289138196
 20
125.819825587
 11
200.289330685
 21
125.8730170747
  0
LINE
  5
340
100
AcDbEntity
  8
0
100
AcDbLine
 62
7
  6
CONTINUOUS
 10
196.6434972523
 20
125.819825587
 11
196.9559972523
 21
125.8730170747
  0
LINE
  5
341
100
AcDbEntity
  8
0
100
AcDbLine
 62
7
  6
CONTINUOUS
 10
197.9976639686
 20
125.5006766516
 11
198.258080685
 21
125.5006766516
  0
LINE
  5
342
100
AcDbEntity
  8
0
100
AcDbLine
 62
7
  6
CONTINUOUS
 10
199.820580685
 20
125.819825587
 11
200.0289138196
 21
125.819825587
  0
LINE
  5
343
100
AcDbEntity
  8
0
100
AcDbLine
 62
7
  6
CONTINUOUS
 10
198.3101638196
 20
126.0857830394
 11
198.570580685
 21
126.0857830394
  0
LINE
  5
344
100
AcDbEntity
  8
0
100
AcDbLine
 62
7
  6
CONTINUOUS
 10
199.7684972523
 20
126.0857830394
 11
200.0809972523
 21
126.0857830394
  0
LINE
  5
345
100
AcDbEntity
  8
0
100
AcDbLine
 62
7
  6
CONTINUOUS
 10
199.0914138196
 20
126.4049319747
 11
199.351830685
 21
126.4049319747
  0
LINE
  5
346
100
AcDbEntity
  8
0
100
AcDbLine
 62
7
  6
CONTINUOUS
 10
196.3309972523
 20
125.8730170747
 11
196.6434972523
 21
125.819825587
  0
LINE
  5
347
100
AcDbEntity
  8
0
100
AcDbLine
 62
7
  6
CONTINUOUS
 10
196.3830806104
 20
126.1389745224
 11
196.6434972523
 21
126.0857830394
  0
LINE
  5
348
100
AcDbEntity
  8
0
100
AcDbLine
 62
7
  6
CONTINUOUS
 10
199.5601638196
 20
125.8730170747
 11
199.820580685
 21
125.819825587
  0
LINE
  5
349
100
AcDbEntity
  8
0
100
AcDbLine
 62
7
  6
CONTINUOUS
 10
174.8659972523
 20
144.729825587
 11
174.8659972523
 21
169.729825587
  0
LINE
  5
34A
100
AcDbEntity
  8
0
100
AcDbLine
 62
7
  6
CONTINUOUS
 10
175.4159972523
 20
161.817325587
 11
175.4159972523
 21
159.567325587
  0
LINE
  5
34B
100
AcDbEntity
  8
0
100
AcDbLine
 62
7
  6
CONTINUOUS
 10
175.4159972523
 20
158.8173257658
 11
175.4159972523
 21
158.2548257658
  0
LINE
  5
34C
100
AcDbEntity
  8
0
100
AcDbLine
 62
7
  6
CONTINUOUS
 10
175.4159972523
 20
156.0048257658
 11
175.4159972523
 21
155.4423254976
  0
LINE
  5
34D
100
AcDbEntity
  8
0
100
AcDbLine
 62
7
  6
CONTINUOUS
 10
175.4159972523
 20
153.379825587
 11
175.4159972523
 21
151.129825587
  0
LINE
  5
34E
100
AcDbEntity
  8
0
100
AcDbLine
 62
7
  6
CONTINUOUS
 10
175.8947205995
 20
151.692325587
 11
175.8947205995
 21
153.4735754976
  0
LINE
  5
34F
100
AcDbEntity
  8
0
100
AcDbLine
 62
7
  6
CONTINUOUS
 10
175.9904652689
 20
160.129825587
 11
175.9904652689
 21
161.817325587
  0
LINE
  5
350
100
AcDbEntity
  8
0
100
AcDbLine
 62
7
  6
CONTINUOUS
 10
175.5117419217
 20
162.2860759446
 11
175.4159972523
 21
161.817325587
  0
LINE
  5
351
100
AcDbEntity
  8
0
100
AcDbLine
 62
7
  6
CONTINUOUS
 10
175.5117419217
 20
153.8485756764
 11
175.4159972523
 21
153.379825587
  0
LINE
  5
352
100
AcDbEntity
  8
0
100
AcDbLine
 62
7
  6
CONTINUOUS
 10
175.9904652689
 20
161.817325587
 11
176.0862099383
 21
162.1923252294
  0
LINE
  5
353
100
AcDbEntity
  8
0
100
AcDbLine
 62
7
  6
CONTINUOUS
 10
175.8947205995
 20
153.4735754976
 11
175.9904652689
 21
153.7548254976
  0
LINE
  5
354
100
AcDbEntity
  8
0
100
AcDbLine
 62
7
  6
CONTINUOUS
 10
175.7032312606
 20
162.661075587
 11
175.5117419217
 21
162.2860759446
  0
LINE
  5
355
100
AcDbEntity
  8
0
100
AcDbLine
 62
7
  6
CONTINUOUS
 10
176.0862099383
 20
162.1923252294
 11
176.2776992772
 21
162.4735752294
  0
LINE
  5
356
100
AcDbEntity
  8
0
100
AcDbLine
 62
7
  6
CONTINUOUS
 10
176.0862099383
 20
163.0360752294
 11
175.7032312606
 21
162.661075587
  0
LINE
  5
357
100
AcDbEntity
  8
0
100
AcDbLine
 62
7
  6
CONTINUOUS
 10
207.298080983
 20
130.6289745224
 11
207.5064135216
 21
130.6821660054
  0
LINE
  5
358
100
AcDbEntity
  8
0
100
AcDbLine
 62
7
  6
CONTINUOUS
 10
204.9022472523
 20
130.6289745224
 11
205.110580983
 21
130.6821660054
  0
LINE
  5
359
100
AcDbEntity
  8
0
100
AcDbLine
 62
7
  6
CONTINUOUS
 10
200.0289138196
 20
126.7240808729
 11
200.289330685
 21
126.7772724304
  0
LINE
  5
35A
100
AcDbEntity
  8
0
100
AcDbLine
 62
7
  6
CONTINUOUS
 10
196.6434972523
 20
126.0857830394
 11
196.9039138941
 21
126.1389745224
  0
LINE
  5
35B
100
AcDbEntity
  8
0
100
AcDbLine
 62
7
  6
CONTINUOUS
 10
199.508080685
 20
128.266634104
 11
199.7684972523
 21
128.319825587
  0
LINE
  5
35C
100
AcDbEntity
  8
0
100
AcDbLine
 62
7
  6
CONTINUOUS
 10
196.3830806104
 20
128.0006766889
 11
196.6434972523
 21
128.0538681719
  0
LINE
  5
35D
100
AcDbEntity
  8
0
100
AcDbLine
 62
7
  6
CONTINUOUS
 10
207.298080983
 20
130.309825587
 11
207.5584972523
 21
130.3630170747
  0
LINE
  5
35E
100
AcDbEntity
  8
0
100
AcDbLine
 62
7
  6
CONTINUOUS
 10
204.9022472523
 20
130.309825587
 11
205.1626635216
 21
130.3630170747
  0
LINE
  5
35F
100
AcDbEntity
  8
0
100
AcDbLine
 62
7
  6
CONTINUOUS
 10
196.3309972523
 20
128.266634104
 11
196.6434972523
 21
128.319825587
  0
LINE
  5
360
100
AcDbEntity
  8
0
100
AcDbLine
 62
7
  6
CONTINUOUS
 10
199.7684972523
 20
126.7240808729
 11
200.0289138196
 21
126.7240808729
  0
LINE
  5
361
100
AcDbEntity
  8
0
100
AcDbLine
 62
7
  6
CONTINUOUS
 10
181.8659972523
 20
126.729825587
 11
183.8659972523
 21
126.729825587
  0
LINE
  5
362
100
AcDbEntity
  8
KONSTRUKTIONSELEMENTE
100
AcDbLine
 62
7
  6
CONTINUOUS
 10
181.8659972523
 20
126.729825587
 11
183.8659972523
 21
126.729825587
  0
LINE
  5
363
100
AcDbEntity
  8
0
100
AcDbLine
 62
7
  6
CONTINUOUS
 10
213.8659972523
 20
126.729825587
 11
215.8659972523
 21
126.729825587
  0
LINE
  5
364
100
AcDbEntity
  8
KONSTRUKTIONSELEMENTE
100
AcDbLine
 62
7
  6
CONTINUOUS
 10
213.8659972523
 20
126.729825587
 11
215.8659972523
 21
126.729825587
  0
LINE
  5
365
100
AcDbEntity
  8
0
100
AcDbLine
 62
7
  6
CONTINUOUS
 10
199.7164138196
 20
126.9900383625
 11
200.0809972523
 21
126.9900383625
  0
LINE
  5
366
100
AcDbEntity
  8
0
100
AcDbLine
 62
7
  6
CONTINUOUS
 10
201.2789141176
 20
127.3091872606
 11
201.6955803869
 21
127.3091872606
  0
LINE
  5
367
100
AcDbEntity
  8
0
100
AcDbLine
 62
7
  6
CONTINUOUS
 10
201.9559972523
 20
127.3091872606
 11
202.5289141176
 21
127.3091872606
  0
LINE
  5
368
100
AcDbEntity
  8
0
100
AcDbLine
 62
7
  6
CONTINUOUS
 10
201.2789141176
 20
127.5219531927
 11
201.6955803869
 21
127.5219531927
  0
LINE
  5
369
100
AcDbEntity
  8
0
100
AcDbLine
 62
7
  6
CONTINUOUS
 10
201.9559972523
 20
127.5219531927
 11
202.5289141176
 21
127.5219531927
  0
LINE
  5
36A
100
AcDbEntity
  8
0
100
AcDbLine
 62
7
  6
CONTINUOUS
 10
201.6955803869
 20
127.9474852059
 11
201.9559972523
 21
127.9474852059
  0
LINE
  5
36B
100
AcDbEntity
  8
0
100
AcDbLine
 62
7
  6
CONTINUOUS
 10
199.7164138196
 20
128.0538681719
 11
200.0809972523
 21
128.0538681719
  0
LINE
  5
36C
100
AcDbEntity
  8
0
100
AcDbLine
 62
7
  6
CONTINUOUS
 10
199.7684972523
 20
128.319825587
 11
200.0289138196
 21
128.319825587
  0
LINE
  5
36D
100
AcDbEntity
  8
0
100
AcDbLine
 62
7
  6
CONTINUOUS
 10
189.3293306104
 20
130.309825587
 11
189.7459972523
 21
130.309825587
  0
LINE
  5
36E
100
AcDbEntity
  8
0
100
AcDbLine
 62
7
  6
CONTINUOUS
 10
190.9959972523
 20
130.309825587
 11
192.8709972523
 21
130.309825587
  0
LINE
  5
36F
100
AcDbEntity
  8
0
100
AcDbLine
 62
7
  6
CONTINUOUS
 10
193.2876638196
 20
130.309825587
 11
194.5376641176
 21
130.309825587
  0
LINE
  5
370
100
AcDbEntity
  8
0
100
AcDbLine
 62
7
  6
CONTINUOUS
 10
196.4647472523
 20
130.309825587
 11
196.9334972523
 21
130.309825587
  0
LINE
  5
371
100
AcDbEntity
  8
0
100
AcDbLine
 62
7
  6
CONTINUOUS
 10
199.2251635216
 20
130.309825587
 11
199.5376635216
 21
130.309825587
  0
LINE
  5
372
100
AcDbEntity
  8
0
100
AcDbLine
 62
7
  6
CONTINUOUS
 10
201.5689135216
 20
130.309825587
 11
203.4439135216
 21
130.309825587
  0
LINE
  5
373
100
AcDbEntity
  8
0
100
AcDbLine
 62
7
  6
CONTINUOUS
 10
204.6939135216
 20
130.309825587
 11
204.9022472523
 21
130.309825587
  0
LINE
  5
374
100
AcDbEntity
  8
0
100
AcDbLine
 62
7
  6
CONTINUOUS
 10
206.8814135216
 20
130.309825587
 11
207.298080983
 21
130.309825587
  0
LINE
  5
375
100
AcDbEntity
  8
0
100
AcDbLine
 62
7
  6
CONTINUOUS
 10
202.1122472523
 20
125.8730170747
 11
202.4247472523
 21
125.819825587
  0
LINE
  5
376
100
AcDbEntity
  8
0
100
AcDbLine
 62
7
  6
CONTINUOUS
 10
196.6434972523
 20
128.319825587
 11
196.9559972523
 21
128.266634104
  0
LINE
  5
377
100
AcDbEntity
  8
0
100
AcDbLine
 62
7
  6
CONTINUOUS
 10
202.1643303869
 20
126.0857830394
 11
202.4247472523
 21
126.0325915377
  0
LINE
  5
378
100
AcDbEntity
  8
0
100
AcDbLine
 62
7
  6
CONTINUOUS
 10
199.508080685
 20
126.7772724304
 11
199.7684972523
 21
126.7240808729
  0
LINE
  5
379
100
AcDbEntity
  8
0
100
AcDbLine
 62
7
  6
CONTINUOUS
 10
196.6434972523
 20
128.0538681719
 11
196.9039138941
 21
128.0006766889
  0
LINE
  5
37A
100
AcDbEntity
  8
0
100
AcDbLine
 62
7
  6
CONTINUOUS
 10
200.0289138196
 20
128.319825587
 11
200.289330685
 21
128.266634104
  0
LINE
  5
37B
100
AcDbEntity
  8
0
100
AcDbLine
 62
7
  6
CONTINUOUS
 10
196.2043303869
 20
130.3630170747
 11
196.4647472523
 21
130.309825587
  0
LINE
  5
37C
100
AcDbEntity
  8
0
100
AcDbLine
 62
7
  6
CONTINUOUS
 10
199.6122472523
 20
126.1389745224
 11
199.7684972523
 21
126.0857830394
  0
LINE
  5
37D
100
AcDbEntity
  8
0
100
AcDbLine
 62
7
  6
CONTINUOUS
 10
201.9559972523
 20
125.9262085624
 11
202.1122472523
 21
125.8730170747
  0
LINE
  5
37E
100
AcDbEntity
  8
0
100
AcDbLine
 62
7
  6
CONTINUOUS
 10
199.5601638196
 20
127.0432298455
 11
199.7164138196
 21
126.9900383625
  0
LINE
  5
37F
100
AcDbEntity
  8
0
100
AcDbLine
 62
7
  6
CONTINUOUS
 10
200.0809972523
 20
128.0538681719
 11
200.2372472523
 21
128.0006766889
  0
LINE
  5
380
100
AcDbEntity
  8
0
100
AcDbLine
 62
7
  6
CONTINUOUS
 10
196.0705805732
 20
126.0325915377
 11
196.3309972523
 21
125.8730170747
  0
LINE
  5
381
100
AcDbEntity
  8
0
100
AcDbLine
 62
7
  6
CONTINUOUS
 10
199.2997472523
 20
126.0325915377
 11
199.5601638196
 21
125.8730170747
  0
LINE
  5
382
100
AcDbEntity
  8
0
100
AcDbLine
 62
7
  6
CONTINUOUS
 10
196.2268305732
 20
126.2453574884
 11
196.3830806104
 21
126.1389745224
  0
LINE
  5
383
100
AcDbEntity
  8
0
100
AcDbLine
 62
7
  6
CONTINUOUS
 10
177.3308909092
 20
153.4735754976
 11
177.3308909092
 21
151.692325587
  0
LINE
  5
384
100
AcDbEntity
  8
0
100
AcDbLine
 62
7
  6
CONTINUOUS
 10
177.9053589259
 20
151.692325587
 11
177.9053589259
 21
153.2860755423
  0
LINE
  5
385
100
AcDbEntity
  8
0
100
AcDbLine
 62
7
  6
CONTINUOUS
 10
179.3415291686
 20
161.817325587
 11
179.3415291686
 21
160.129825587
  0
LINE
  5
386
100
AcDbEntity
  8
0
100
AcDbLine
 62
7
  6
CONTINUOUS
 10
179.3415291686
 20
157.317325587
 11
179.3415291686
 21
156.9423254082
  0
LINE
  5
387
100
AcDbEntity
  8
0
100
AcDbLine
 62
7
  6
CONTINUOUS
 10
179.9159972523
 20
151.129825587
 11
179.9159972523
 21
151.692325587
  0
LINE
  5
388
100
AcDbEntity
  8
0
100
AcDbLine
 62
7
  6
CONTINUOUS
 10
179.9159972523
 20
154.0360754976
 11
179.9159972523
 21
154.6923256764
  0
LINE
  5
389
100
AcDbEntity
  8
0
100
AcDbLine
 62
7
  6
CONTINUOUS
 10
179.9159972523
 20
156.9423254082
 11
179.9159972523
 21
157.317325587
  0
LINE
  5
38A
100
AcDbEntity
  8
0
100
AcDbLine
 62
7
  6
CONTINUOUS
 10
179.9159972523
 20
159.567325587
 11
179.9159972523
 21
161.817325587
  0
LINE
  5
38B
100
AcDbEntity
  8
0
100
AcDbLine
 62
7
  6
CONTINUOUS
 10
180.5117485633
 20
169.729825587
 11
180.5117485633
 21
144.729825587
  0
LINE
  5
38C
100
AcDbEntity
  8
0
100
AcDbLine
 62
7
  6
CONTINUOUS
 10
179.8202525745
 20
156.473575587
 11
179.9159972523
 21
156.9423254082
  0
LINE
  5
38D
100
AcDbEntity
  8
0
100
AcDbLine
 62
7
  6
CONTINUOUS
 10
179.3415291686
 20
156.9423254082
 11
179.2457844992
 21
156.5673257658
  0
LINE
  5
38E
100
AcDbEntity
  8
0
100
AcDbLine
 62
7
  6
CONTINUOUS
 10
179.6287632104
 20
156.0985754082
 11
179.8202525745
 21
156.473575587
  0
LINE
  5
38F
100
AcDbEntity
  8
0
100
AcDbLine
 62
7
  6
CONTINUOUS
 10
179.2457844992
 20
156.5673257658
 11
179.0542950932
 21
156.2860757658
  0
LINE
  5
390
100
AcDbEntity
  8
0
100
AcDbLine
 62
7
  6
CONTINUOUS
 10
175.79897593
 20
154.223575587
 11
175.5117419217
 21
153.8485756764
  0
LINE
  5
391
100
AcDbEntity
  8
0
100
AcDbLine
 62
7
  6
CONTINUOUS
 10
176.2776992772
 20
162.4735752294
 11
176.5649335537
 21
162.661075587
  0
LINE
  5
392
100
AcDbEntity
  8
0
100
AcDbLine
 62
7
  6
CONTINUOUS
 10
176.4691886161
 20
163.223575587
 11
176.0862099383
 21
163.0360752294
  0
LINE
  5
393
100
AcDbEntity
  8
0
100
AcDbLine
 62
7
  6
CONTINUOUS
 10
206.7772472523
 20
132.756634104
 11
206.985580983
 21
132.809825587
  0
LINE
  5
394
100
AcDbEntity
  8
0
100
AcDbLine
 62
7
  6
CONTINUOUS
 10
196.9334972523
 20
130.6289745224
 11
197.1418303869
 21
130.6821660054
  0
LINE
  5
395
100
AcDbEntity
  8
0
100
AcDbLine
 62
7
  6
CONTINUOUS
 10
196.2564141176
 20
132.4374852059
 11
196.4647472523
 21
132.4906766889
  0
LINE
  5
396
100
AcDbEntity
  8
0
100
AcDbLine
 62
7
  6
CONTINUOUS
 10
196.9334972523
 20
130.309825587
 11
197.1939141176
 21
130.3630170747
  0
LINE
  5
397
100
AcDbEntity
  8
0
100
AcDbLine
 62
7
  6
CONTINUOUS
 10
200.4751635216
 20
131.4268468795
 11
200.735580983
 21
131.4800383625
  0
LINE
  5
398
100
AcDbEntity
  8
0
100
AcDbLine
 62
7
  6
CONTINUOUS
 10
194.5376641176
 20
130.309825587
 11
194.7980803869
 21
130.3630170747
  0
LINE
  5
399
100
AcDbEntity
  8
0
100
AcDbLine
 62
7
  6
CONTINUOUS
 10
196.2043303869
 20
132.756634104
 11
196.4647472523
 21
132.809825587
  0
LINE
  5
39A
100
AcDbEntity
  8
0
100
AcDbLine
 62
7
  6
CONTINUOUS
 10
191.3084972523
 20
130.6289745224
 11
192.8709972523
 21
130.6289745224
  0
LINE
  5
39B
100
AcDbEntity
  8
0
100
AcDbLine
 62
7
  6
CONTINUOUS
 10
193.6001641176
 20
130.6289745224
 11
194.5897472523
 21
130.6289745224
  0
LINE
  5
39C
100
AcDbEntity
  8
0
100
AcDbLine
 62
7
  6
CONTINUOUS
 10
196.4647472523
 20
130.6289745224
 11
196.9334972523
 21
130.6289745224
  0
LINE
  5
39D
100
AcDbEntity
  8
0
100
AcDbLine
 62
7
  6
CONTINUOUS
 10
201.8814135216
 20
130.6289745224
 11
203.4439135216
 21
130.6289745224
  0
LINE
  5
39E
100
AcDbEntity
  8
0
100
AcDbLine
 62
7
  6
CONTINUOUS
 10
204.6939135216
 20
130.6289745224
 11
204.9022472523
 21
130.6289745224
  0
LINE
  5
39F
100
AcDbEntity
  8
0
100
AcDbLine
 62
7
  6
CONTINUOUS
 10
206.8814135216
 20
130.6289745224
 11
207.298080983
 21
130.6289745224
  0
LINE
  5
3A0
100
AcDbEntity
  8
0
100
AcDbLine
 62
7
  6
CONTINUOUS
 10
206.1522472523
 20
131.0013149408
 11
206.4647472523
 21
131.0013149408
  0
LINE
  5
3A1
100
AcDbEntity
  8
0
100
AcDbLine
 62
7
  6
CONTINUOUS
 10
198.0793303869
 20
131.2140808729
 11
198.8084972523
 21
131.2140808729
  0
LINE
  5
3A2
100
AcDbEntity
  8
0
100
AcDbLine
 62
7
  6
CONTINUOUS
 10
196.8814141176
 20
131.3736553964
 11
197.3501641176
 21
131.3736553964
  0
LINE
  5
3A3
100
AcDbEntity
  8
0
100
AcDbLine
 62
7
  6
CONTINUOUS
 10
193.6001641176
 20
131.4268468795
 11
194.5897472523
 21
131.4268468795
  0
LINE
  5
3A4
100
AcDbEntity
  8
0
100
AcDbLine
 62
7
  6
CONTINUOUS
 10
199.5376635216
 20
131.4268468795
 11
200.4751635216
 21
131.4268468795
  0
LINE
  5
3A5
100
AcDbEntity
  8
0
100
AcDbLine
 62
7
  6
CONTINUOUS
 10
206.985580983
 20
131.4268468795
 11
207.298080983
 21
131.4268468795
  0
LINE
  5
3A6
100
AcDbEntity
  8
0
100
AcDbLine
 62
7
  6
CONTINUOUS
 10
198.0793303869
 20
131.4800383625
 11
198.8084972523
 21
131.4800383625
  0
LINE
  5
3A7
100
AcDbEntity
  8
0
100
AcDbLine
 62
7
  6
CONTINUOUS
 10
196.8814141176
 20
131.6928042946
 11
197.6626641176
 21
131.6928042946
  0
LINE
  5
3A8
100
AcDbEntity
  8
0
100
AcDbLine
 62
7
  6
CONTINUOUS
 10
193.6001641176
 20
131.7459957776
 11
194.5897472523
 21
131.7459957776
  0
LINE
  5
3A9
100
AcDbEntity
  8
0
100
AcDbLine
 62
7
  6
CONTINUOUS
 10
199.5376635216
 20
131.7459957776
 11
200.5272472523
 21
131.7459957776
  0
LINE
  5
3AA
100
AcDbEntity
  8
0
100
AcDbLine
 62
7
  6
CONTINUOUS
 10
206.985580983
 20
131.7459957776
 11
207.298080983
 21
131.7459957776
  0
LINE
  5
3AB
100
AcDbEntity
  8
0
100
AcDbLine
 62
7
  6
CONTINUOUS
 10
197.3501641176
 20
132.1715276418
 11
197.6626641176
 21
132.1715276418
  0
LINE
  5
3AC
100
AcDbEntity
  8
0
100
AcDbLine
 62
7
  6
CONTINUOUS
 10
207.610580983
 20
132.2247192738
 11
207.923080983
 21
132.2247192738
  0
LINE
  5
3AD
100
AcDbEntity
  8
0
100
AcDbLine
 62
7
  6
CONTINUOUS
 10
193.6001641176
 20
132.4906766889
 11
194.5897472523
 21
132.4906766889
  0
LINE
  5
3AE
100
AcDbEntity
  8
0
100
AcDbLine
 62
7
  6
CONTINUOUS
 10
196.4647472523
 20
132.4906766889
 11
196.9334972523
 21
132.4906766889
  0
LINE
  5
3AF
100
AcDbEntity
  8
0
100
AcDbLine
 62
7
  6
CONTINUOUS
 10
206.985580983
 20
132.4906766889
 11
207.298080983
 21
132.4906766889
  0
LINE
  5
3B0
100
AcDbEntity
  8
0
100
AcDbLine
 62
7
  6
CONTINUOUS
 10
199.5376635216
 20
132.5438681719
 11
200.5272472523
 21
132.5438681719
  0
LINE
  5
3B1
100
AcDbEntity
  8
0
100
AcDbLine
 62
7
  6
CONTINUOUS
 10
188.4959972523
 20
132.809825587
 11
188.8084972523
 21
132.809825587
  0
LINE
  5
3B2
100
AcDbEntity
  8
0
100
AcDbLine
 62
7
  6
CONTINUOUS
 10
190.2668305359
 20
132.809825587
 11
190.5793305359
 21
132.809825587
  0
LINE
  5
3B3
100
AcDbEntity
  8
0
100
AcDbLine
 62
7
  6
CONTINUOUS
 10
190.9959972523
 20
132.809825587
 11
191.3084972523
 21
132.809825587
  0
LINE
  5
3B4
100
AcDbEntity
  8
0
100
AcDbLine
 62
7
  6
CONTINUOUS
 10
193.2876638196
 20
132.809825587
 11
194.5376641176
 21
132.809825587
  0
LINE
  5
3B5
100
AcDbEntity
  8
0
100
AcDbLine
 62
7
  6
CONTINUOUS
 10
196.4647472523
 20
132.809825587
 11
196.9334972523
 21
132.809825587
  0
LINE
  5
3B6
100
AcDbEntity
  8
0
100
AcDbLine
 62
7
  6
CONTINUOUS
 10
199.2251635216
 20
132.809825587
 11
200.4751635216
 21
132.809825587
  0
LINE
  5
3B7
100
AcDbEntity
  8
0
100
AcDbLine
 62
7
  6
CONTINUOUS
 10
201.5689135216
 20
132.809825587
 11
201.8814135216
 21
132.809825587
  0
LINE
  5
3B8
100
AcDbEntity
  8
0
100
AcDbLine
 62
7
  6
CONTINUOUS
 10
203.860580983
 20
132.809825587
 11
204.173080983
 21
132.809825587
  0
LINE
  5
3B9
100
AcDbEntity
  8
0
100
AcDbLine
 62
7
  6
CONTINUOUS
 10
205.423080983
 20
132.809825587
 11
205.735580983
 21
132.809825587
  0
LINE
  5
3BA
100
AcDbEntity
  8
0
100
AcDbLine
 62
7
  6
CONTINUOUS
 10
206.985580983
 20
132.809825587
 11
207.2459972523
 21
132.809825587
  0
LINE
  5
3BB
100
AcDbEntity
  8
0
100
AcDbLine
 62
7
  6
CONTINUOUS
 10
204.4334972523
 20
130.3630170747
 11
204.6939135216
 21
130.309825587
  0
LINE
  5
3BC
100
AcDbEntity
  8
0
100
AcDbLine
 62
7
  6
CONTINUOUS
 10
194.5376641176
 20
132.809825587
 11
194.7980803869
 21
132.756634104
  0
LINE
  5
3BD
100
AcDbEntity
  8
0
100
AcDbLine
 62
7
  6
CONTINUOUS
 10
206.6209972523
 20
130.3630170747
 11
206.8814135216
 21
130.309825587
  0
LINE
  5
3BE
100
AcDbEntity
  8
0
100
AcDbLine
 62
7
  6
CONTINUOUS
 10
196.9334972523
 20
132.809825587
 11
197.1939141176
 21
132.756634104
  0
LINE
  5
3BF
100
AcDbEntity
  8
0
100
AcDbLine
 62
7
  6
CONTINUOUS
 10
200.4751635216
 20
132.809825587
 11
200.735580983
 21
132.756634104
  0
LINE
  5
3C0
100
AcDbEntity
  8
0
100
AcDbLine
 62
7
  6
CONTINUOUS
 10
207.298080983
 20
131.7459957776
 11
207.5584972523
 21
131.6928042946
  0
LINE
  5
3C1
100
AcDbEntity
  8
0
100
AcDbLine
 62
7
  6
CONTINUOUS
 10
196.2564141176
 20
130.6821660054
 11
196.4647472523
 21
130.6289745224
  0
LINE
  5
3C2
100
AcDbEntity
  8
0
100
AcDbLine
 62
7
  6
CONTINUOUS
 10
196.9334972523
 20
132.4906766889
 11
197.1418303869
 21
132.4374852059
  0
LINE
  5
3C3
100
AcDbEntity
  8
0
100
AcDbLine
 62
7
  6
CONTINUOUS
 10
204.485580983
 20
130.6821660054
 11
204.6939135216
 21
130.6289745224
  0
LINE
  5
3C4
100
AcDbEntity
  8
0
100
AcDbLine
 62
7
  6
CONTINUOUS
 10
206.673080983
 20
130.6821660054
 11
206.8814135216
 21
130.6289745224
  0
LINE
  5
3C5
100
AcDbEntity
  8
0
100
AcDbLine
 62
7
  6
CONTINUOUS
 10
206.7772472523
 20
131.4800383625
 11
206.985580983
 21
131.4268468795
  0
LINE
  5
3C6
100
AcDbEntity
  8
0
100
AcDbLine
 62
7
  6
CONTINUOUS
 10
194.5897472523
 20
131.4268468795
 11
194.7459972523
 21
131.3736553964
  0
LINE
  5
3C7
100
AcDbEntity
  8
0
100
AcDbLine
 62
7
  6
CONTINUOUS
 10
194.5897472523
 20
132.4906766889
 11
194.7459972523
 21
132.4374852059
  0
LINE
  5
3C8
100
AcDbEntity
  8
0
100
AcDbLine
 62
7
  6
CONTINUOUS
 10
195.9959972523
 20
130.4694000547
 11
196.2043303869
 21
130.3630170747
  0
LINE
  5
3C9
100
AcDbEntity
  8
0
100
AcDbLine
 62
7
  6
CONTINUOUS
 10
194.9022472523
 20
131.5864213285
 11
195.0064141176
 21
131.5332298455
  0
LINE
  5
3CA
100
AcDbEntity
  8
0
100
AcDbLine
 62
7
  6
CONTINUOUS
 10
196.9559972523
 20
128.266634104
 11
197.2164139686
 21
128.1070596549
  0
LINE
  5
3CB
100
AcDbEntity
  8
0
100
AcDbLine
 62
7
  6
CONTINUOUS
 10
199.2476638196
 20
126.9368468795
 11
199.508080685
 21
126.7772724304
  0
LINE
  5
3CC
100
AcDbEntity
  8
0
100
AcDbLine
 62
7
  6
CONTINUOUS
 10
200.289330685
 20
128.266634104
 11
200.5497472523
 21
128.1070596549
  0
LINE
  5
3CD
100
AcDbEntity
  8
0
100
AcDbLine
 62
7
  6
CONTINUOUS
 10
199.4559972523
 20
126.2453574884
 11
199.6122472523
 21
126.1389745224
  0
LINE
  5
3CE
100
AcDbEntity
  8
0
100
AcDbLine
 62
7
  6
CONTINUOUS
 10
196.9039138941
 20
128.0006766889
 11
197.0601639686
 21
127.8942937228
  0
LINE
  5
3CF
100
AcDbEntity
  8
0
100
AcDbLine
 62
7
  6
CONTINUOUS
 10
199.4039138196
 20
127.1496128115
 11
199.5601638196
 21
127.0432298455
  0
LINE
  5
3D0
100
AcDbEntity
  8
0
100
AcDbLine
 62
7
  6
CONTINUOUS
 10
201.7997472523
 20
126.0325915377
 11
201.9559972523
 21
125.9262085624
  0
LINE
  5
3D1
100
AcDbEntity
  8
0
100
AcDbLine
 62
7
  6
CONTINUOUS
 10
202.0080803869
 20
126.1921660054
 11
202.1643303869
 21
126.0857830394
  0
LINE
  5
3D2
100
AcDbEntity
  8
0
100
AcDbLine
 62
7
  6
CONTINUOUS
 10
196.1001641176
 20
130.7885490087
 11
196.2564141176
 21
130.6821660054
  0
LINE
  5
3D3
100
AcDbEntity
  8
0
100
AcDbLine
 62
7
  6
CONTINUOUS
 10
200.2372472523
 20
128.0006766889
 11
200.3934972523
 21
127.8942937228
  0
LINE
  5
3D4
100
AcDbEntity
  8
0
100
AcDbLine
 62
7
  6
CONTINUOUS
 10
195.9143305918
 20
126.1921660054
 11
196.0705805732
 21
126.0325915377
  0
LINE
  5
3D5
100
AcDbEntity
  8
0
100
AcDbLine
 62
7
  6
CONTINUOUS
 10
177.2351462398
 20
153.7548254976
 11
177.3308909092
 21
153.4735754976
  0
LINE
  5
3D6
100
AcDbEntity
  8
0
100
AcDbLine
 62
7
  6
CONTINUOUS
 10
181.8659972523
 20
174.729825587
 11
181.8659972523
 21
141.6799305681
  0
LINE
  5
3D7
100
AcDbEntity
  8
RUNDUNGEN
100
AcDbLine
 62
7
  6
CONTINUOUS
 10
183.8659972523
 20
123.729825587
 11
183.8659972523
 21
140.729825587
  0
LINE
  5
3D8
100
AcDbEntity
  8
0
100
AcDbLine
 62
7
  6
CONTINUOUS
 10
183.8659972523
 20
123.729825587
 11
183.8659972523
 21
140.729825587
  0
LINE
  5
3D9
100
AcDbEntity
  8
0
100
AcDbLine
 62
7
  6
CONTINUOUS
 10
175.9904652689
 20
153.7548254976
 11
176.1819546078
 21
153.942325587
  0
LINE
  5
3DA
100
AcDbEntity
  8
0
100
AcDbLine
 62
7
  6
CONTINUOUS
 10
179.2457844992
 20
155.7235757658
 11
179.6287632104
 21
156.0985754082
  0
LINE
  5
3DB
100
AcDbEntity
  8
0
100
AcDbLine
 62
7
  6
CONTINUOUS
 10
176.1819546078
 20
154.504825587
 11
175.79897593
 21
154.223575587
  0
LINE
  5
3DC
100
AcDbEntity
  8
0
100
AcDbLine
 62
7
  6
CONTINUOUS
 10
201.7184972523
 20
135.1745064372
 11
201.9434970377
 21
135.2319532389
  0
LINE
  5
3DD
100
AcDbEntity
  8
0
100
AcDbLine
 62
7
  6
CONTINUOUS
 10
199.0184972523
 20
135.1745064372
 11
199.2434973596
 21
135.2319532389
  0
LINE
  5
3DE
100
AcDbEntity
  8
0
100
AcDbLine
 62
7
  6
CONTINUOUS
 10
201.7184972523
 20
134.829825587
 11
201.9997474669
 21
134.8872723937
  0
LINE
  5
3DF
100
AcDbEntity
  8
0
100
AcDbLine
 62
7
  6
CONTINUOUS
 10
199.0184972523
 20
134.829825587
 11
199.299747145
 21
134.8872723937
  0
LINE
  5
3E0
100
AcDbEntity
  8
0
100
AcDbLine
 62
7
  6
CONTINUOUS
 10
195.3059972523
 20
134.829825587
 11
195.6434972523
 21
134.829825587
  0
LINE
  5
3E1
100
AcDbEntity
  8
0
100
AcDbLine
 62
7
  6
CONTINUOUS
 10
197.0497471986
 20
134.829825587
 11
197.4434973059
 21
134.829825587
  0
LINE
  5
3E2
100
AcDbEntity
  8
0
100
AcDbLine
 62
7
  6
CONTINUOUS
 10
198.793497145
 20
134.829825587
 11
199.0184972523
 21
134.829825587
  0
LINE
  5
3E3
100
AcDbEntity
  8
0
100
AcDbLine
 62
7
  6
CONTINUOUS
 10
200.3684972523
 20
134.829825587
 11
201.7184972523
 21
134.829825587
  0
LINE
  5
3E4
100
AcDbEntity
  8
0
100
AcDbLine
 62
7
  6
CONTINUOUS
 10
198.793497145
 20
135.1745064372
 11
199.0184972523
 21
135.1745064372
  0
LINE
  5
3E5
100
AcDbEntity
  8
0
100
AcDbLine
 62
7
  6
CONTINUOUS
 10
200.7059972523
 20
135.1745064372
 11
201.7184972523
 21
135.1745064372
  0
LINE
  5
3E6
100
AcDbEntity
  8
0
100
AcDbLine
 62
7
  6
CONTINUOUS
 10
195.6434972523
 20
136.0362085829
 11
196.5997472255
 21
136.0362085829
  0
LINE
  5
3E7
100
AcDbEntity
  8
0
100
AcDbLine
 62
7
  6
CONTINUOUS
 10
195.6434972523
 20
136.3808893928
 11
196.7122471986
 21
136.3808893928
  0
LINE
  5
3E8
100
AcDbEntity
  8
0
100
AcDbLine
 62
7
  6
CONTINUOUS
 10
200.7059972523
 20
137.185144777
 11
201.7184972523
 21
137.185144777
  0
LINE
  5
3E9
100
AcDbEntity
  8
0
100
AcDbLine
 62
7
  6
CONTINUOUS
 10
195.6434972523
 20
137.2425915787
 11
196.7122471986
 21
137.2425915787
  0
LINE
  5
3EA
100
AcDbEntity
  8
0
100
AcDbLine
 62
7
  6
CONTINUOUS
 10
195.3059972523
 20
137.529825587
 11
196.6559972523
 21
137.529825587
  0
LINE
  5
3EB
100
AcDbEntity
  8
0
100
AcDbLine
 62
7
  6
CONTINUOUS
 10
197.8934971986
 20
137.529825587
 11
198.2309973596
 21
137.529825587
  0
LINE
  5
3EC
100
AcDbEntity
  8
0
100
AcDbLine
 62
7
  6
CONTINUOUS
 10
199.5809973596
 20
137.529825587
 11
199.9184973596
 21
137.529825587
  0
LINE
  5
3ED
100
AcDbEntity
  8
0
100
AcDbLine
 62
7
  6
CONTINUOUS
 10
200.3684972523
 20
137.529825587
 11
201.7184972523
 21
137.529825587
  0
LINE
  5
3EE
100
AcDbEntity
  8
0
100
AcDbLine
 62
7
  6
CONTINUOUS
 10
207.2459972523
 20
132.809825587
 11
207.5064135216
 21
132.756634104
  0
LINE
  5
3EF
100
AcDbEntity
  8
0
100
AcDbLine
 62
7
  6
CONTINUOUS
 10
198.5122472523
 20
134.8872723937
 11
198.793497145
 21
134.829825587
  0
LINE
  5
3F0
100
AcDbEntity
  8
0
100
AcDbLine
 62
7
  6
CONTINUOUS
 10
196.6559972523
 20
137.529825587
 11
196.9372473059
 21
137.4723787854
  0
LINE
  5
3F1
100
AcDbEntity
  8
0
100
AcDbLine
 62
7
  6
CONTINUOUS
 10
207.298080983
 20
131.4268468795
 11
207.5064135216
 21
131.3736553964
  0
LINE
  5
3F2
100
AcDbEntity
  8
0
100
AcDbLine
 62
7
  6
CONTINUOUS
 10
198.5684973596
 20
135.2319532389
 11
198.793497145
 21
135.1745064372
  0
LINE
  5
3F3
100
AcDbEntity
  8
0
100
AcDbLine
 62
7
  6
CONTINUOUS
 10
200.5272472523
 20
132.5438681719
 11
200.6834972523
 21
132.4906766889
  0
LINE
  5
3F4
100
AcDbEntity
  8
0
100
AcDbLine
 62
7
  6
CONTINUOUS
 10
206.829330983
 20
131.7991872606
 11
206.985580983
 21
131.7459957776
  0
LINE
  5
3F5
100
AcDbEntity
  8
0
100
AcDbLine
 62
7
  6
CONTINUOUS
 10
207.298080983
 20
132.4906766889
 11
207.454330983
 21
132.4374852059
  0
LINE
  5
3F6
100
AcDbEntity
  8
0
100
AcDbLine
 62
7
  6
CONTINUOUS
 10
196.7122471986
 20
137.2425915787
 11
196.8809971986
 21
137.185144777
  0
LINE
  5
3F7
100
AcDbEntity
  8
0
100
AcDbLine
 62
7
  6
CONTINUOUS
 10
197.1939141176
 20
132.756634104
 11
197.4022472523
 21
132.650251138
  0
LINE
  5
3F8
100
AcDbEntity
  8
0
100
AcDbLine
 62
7
  6
CONTINUOUS
 10
204.2251635216
 20
130.4694000547
 11
204.4334972523
 21
130.3630170747
  0
LINE
  5
3F9
100
AcDbEntity
  8
0
100
AcDbLine
 62
7
  6
CONTINUOUS
 10
198.287247145
 20
135.0021660121
 11
198.5122472523
 21
134.8872723937
  0
LINE
  5
3FA
100
AcDbEntity
  8
0
100
AcDbLine
 62
7
  6
CONTINUOUS
 10
206.5689135216
 20
131.5864213285
 11
206.7772472523
 21
131.4800383625
  0
LINE
  5
3FB
100
AcDbEntity
  8
0
100
AcDbLine
 62
7
  6
CONTINUOUS
 10
206.360580983
 20
130.5225915377
 11
206.6209972523
 21
130.3630170747
  0
LINE
  5
3FC
100
AcDbEntity
  8
0
100
AcDbLine
 62
7
  6
CONTINUOUS
 10
197.1418303869
 20
132.4374852059
 11
197.2980803869
 21
132.3311022398
  0
LINE
  5
3FD
100
AcDbEntity
  8
0
100
AcDbLine
 62
7
  6
CONTINUOUS
 10
204.329330983
 20
130.7885490087
 11
204.485580983
 21
130.6821660054
  0
LINE
  5
3FE
100
AcDbEntity
  8
0
100
AcDbLine
 62
7
  6
CONTINUOUS
 10
194.7980803869
 20
132.756634104
 11
195.0064141176
 21
132.5970596549
  0
LINE
  5
3FF
100
AcDbEntity
  8
0
100
AcDbLine
 62
7
  6
CONTINUOUS
 10
197.2164139686
 20
128.1070596549
 11
197.3726639686
 21
127.9474852059
  0
LINE
  5
400
100
AcDbEntity
  8
0
100
AcDbLine
 62
7
  6
CONTINUOUS
 10
194.7459972523
 20
131.3736553964
 11
194.8501641176
 21
131.2672724304
  0
LINE
  5
401
100
AcDbEntity
  8
0
100
AcDbLine
 62
7
  6
CONTINUOUS
 10
195.7876641176
 20
130.6821660054
 11
195.9959972523
 21
130.4694000547
  0
LINE
  5
402
100
AcDbEntity
  8
0
100
AcDbLine
 62
7
  6
CONTINUOUS
 10
194.7459972523
 20
132.4374852059
 11
194.8501641176
 21
132.3311022398
  0
LINE
  5
403
100
AcDbEntity
  8
0
100
AcDbLine
 62
7
  6
CONTINUOUS
 10
197.4022472523
 20
132.650251138
 11
197.6105803869
 21
132.4374852059
  0
LINE
  5
404
100
AcDbEntity
  8
0
100
AcDbLine
 62
7
  6
CONTINUOUS
 10
195.0064141176
 20
131.5332298455
 11
195.1626641176
 21
131.3204639134
  0
LINE
  5
405
100
AcDbEntity
  8
0
100
AcDbLine
 62
7
  6
CONTINUOUS
 10
199.1434972523
 20
126.2453574884
 11
199.2997472523
 21
126.0325915377
  0
LINE
  5
406
100
AcDbEntity
  8
0
100
AcDbLine
 62
7
  6
CONTINUOUS
 10
195.0064141176
 20
132.5970596549
 11
195.1626641176
 21
132.3842937228
  0
LINE
  5
407
100
AcDbEntity
  8
0
100
AcDbLine
 62
7
  6
CONTINUOUS
 10
199.0914138196
 20
127.1496128115
 11
199.2476638196
 21
126.9368468795
  0
LINE
  5
408
100
AcDbEntity
  8
0
100
AcDbLine
 62
7
  6
CONTINUOUS
 10
196.0184972523
 20
126.5645064238
 11
196.2268305732
 21
126.2453574884
  0
LINE
  5
409
100
AcDbEntity
  8
0
100
AcDbLine
 62
7
  6
CONTINUOUS
 10
197.0601639686
 20
127.8942937228
 11
197.2684972523
 21
127.5751446757
  0
LINE
  5
40A
100
AcDbEntity
  8
0
100
AcDbLine
 62
7
  6
CONTINUOUS
 10
177.713869587
 20
153.8485756764
 11
177.5223802481
 21
154.223575587
  0
LINE
  5
40B
100
AcDbEntity
  8
0
100
AcDbLine
 62
7
  6
CONTINUOUS
 10
179.8202525745
 20
157.7860754082
 11
179.6287632104
 21
158.161075587
  0
LINE
  5
40C
100
AcDbEntity
  8
0
100
AcDbLine
 62
7
  6
CONTINUOUS
 10
188.8084972523
 20
132.809825587
 11
189.5376638941
 21
130.6289745224
  0
LINE
  5
40D
100
AcDbEntity
  8
0
100
AcDbLine
 62
7
  6
CONTINUOUS
 10
188.4959972523
 20
132.809825587
 11
189.3293306104
 21
130.309825587
  0
LINE
  5
40E
100
AcDbEntity
  8
0
100
AcDbLine
 62
7
  6
CONTINUOUS
 10
179.2457844992
 20
157.6923257658
 11
179.3415291686
 21
157.317325587
  0
LINE
  5
40F
100
AcDbEntity
  8
0
100
AcDbLine
 62
7
  6
CONTINUOUS
 10
179.2457844992
 20
162.1923252294
 11
179.3415291686
 21
161.817325587
  0
LINE
  5
410
100
AcDbEntity
  8
0
100
AcDbLine
 62
7
  6
CONTINUOUS
 10
179.9159972523
 20
157.317325587
 11
179.8202525745
 21
157.7860754082
  0
LINE
  5
411
100
AcDbEntity
  8
0
100
AcDbLine
 62
7
  6
CONTINUOUS
 10
179.9159972523
 20
161.817325587
 11
179.8202525745
 21
162.2860759446
  0
LINE
  5
412
100
AcDbEntity
  8
0
100
AcDbLine
 62
7
  6
CONTINUOUS
 10
186.8659972523
 20
117.729825587
 11
186.8659972523
 21
122.029825587
  0
LINE
  5
413
100
AcDbEntity
  8
0
100
AcDbLine
 62
7
  6
CONTINUOUS
 10
186.8659972523
 20
142.429825587
 11
186.8659972523
 21
146.729825587
  0
LINE
  5
414
100
AcDbEntity
  8
0
100
AcDbLine
 62
7
  6
CONTINUOUS
 10
179.0542950932
 20
156.2860757658
 11
178.7670610849
 21
156.0985754082
  0
LINE
  5
415
100
AcDbEntity
  8
0
100
AcDbLine
 62
7
  6
CONTINUOUS
 10
178.8628057544
 20
155.5360756764
 11
179.2457844992
 21
155.7235757658
  0
LINE
  5
416
100
AcDbEntity
  8
0
100
AcDbLine
 62
7
  6
CONTINUOUS
 10
201.7184972523
 20
137.529825587
 11
201.9997474669
 21
137.4723787854
  0
LINE
  5
417
100
AcDbEntity
  8
0
100
AcDbLine
 62
7
  6
CONTINUOUS
 10
201.7184972523
 20
137.185144777
 11
201.9434970377
 21
137.1276979754
  0
LINE
  5
418
100
AcDbEntity
  8
0
100
AcDbLine
 62
7
  6
CONTINUOUS
 10
207.5584972523
 20
131.6928042946
 11
207.766830983
 21
131.5864213285
  0
LINE
  5
419
100
AcDbEntity
  8
0
100
AcDbLine
 62
7
  6
CONTINUOUS
 10
201.9997474669
 20
137.4723787854
 11
202.2247472523
 21
137.357485182
  0
LINE
  5
41A
100
AcDbEntity
  8
0
100
AcDbLine
 62
7
  6
CONTINUOUS
 10
198.3997473596
 20
135.3468468824
 11
198.5684973596
 21
135.2319532389
  0
LINE
  5
41B
100
AcDbEntity
  8
0
100
AcDbLine
 62
7
  6
CONTINUOUS
 10
206.673080983
 20
131.9055702266
 11
206.829330983
 21
131.7991872606
  0
LINE
  5
41C
100
AcDbEntity
  8
0
100
AcDbLine
 62
7
  6
CONTINUOUS
 10
207.5064135216
 20
131.3736553964
 11
207.6626635216
 21
131.2672724304
  0
LINE
  5
41D
100
AcDbEntity
  8
0
100
AcDbLine
 62
7
  6
CONTINUOUS
 10
201.9434970377
 20
137.1276979754
 11
202.1122470377
 21
137.0128043721
  0
LINE
  5
41E
100
AcDbEntity
  8
0
100
AcDbLine
 62
7
  6
CONTINUOUS
 10
177.5223802481
 20
154.223575587
 11
177.1394015704
 21
154.504825587
  0
LINE
  5
41F
100
AcDbEntity
  8
0
100
AcDbLine
 62
7
  6
CONTINUOUS
 10
200.735580983
 20
132.756634104
 11
200.9439135216
 21
132.5970596549
  0
LINE
  5
420
100
AcDbEntity
  8
0
100
AcDbLine
 62
7
  6
CONTINUOUS
 10
196.9372473059
 20
137.4723787854
 11
197.1622472523
 21
137.3000383804
  0
LINE
  5
421
100
AcDbEntity
  8
0
100
AcDbLine
 62
7
  6
CONTINUOUS
 10
177.0436569009
 20
153.942325587
 11
177.2351462398
 21
153.7548254976
  0
LINE
  5
422
100
AcDbEntity
  8
0
100
AcDbLine
 62
7
  6
CONTINUOUS
 10
200.6834972523
 20
132.4906766889
 11
200.7876635216
 21
132.3842937228
  0
LINE
  5
423
100
AcDbEntity
  8
0
100
AcDbLine
 62
7
  6
CONTINUOUS
 10
198.0622473596
 20
135.2319532389
 11
198.287247145
 21
135.0021660121
  0
LINE
  5
424
100
AcDbEntity
  8
0
100
AcDbLine
 62
7
  6
CONTINUOUS
 10
196.8809971986
 20
137.185144777
 11
196.9934972523
 21
137.0702511737
  0
LINE
  5
425
100
AcDbEntity
  8
0
100
AcDbLine
 62
7
  6
CONTINUOUS
 10
204.016830983
 20
130.6821660054
 11
204.2251635216
 21
130.4694000547
  0
LINE
  5
426
100
AcDbEntity
  8
0
100
AcDbLine
 62
7
  6
CONTINUOUS
 10
200.5497472523
 20
128.1070596549
 11
200.7059972523
 21
127.8942937228
  0
LINE
  5
427
100
AcDbEntity
  8
0
100
AcDbLine
 62
7
  6
CONTINUOUS
 10
179.0542950932
 20
157.9735757658
 11
179.2457844992
 21
157.6923257658
  0
LINE
  5
428
100
AcDbEntity
  8
0
100
AcDbLine
 62
7
  6
CONTINUOUS
 10
195.9959972523
 20
130.9481234578
 11
196.1001641176
 21
130.7885490087
  0
LINE
  5
429
100
AcDbEntity
  8
0
100
AcDbLine
 62
7
  6
CONTINUOUS
 10
199.351830685
 20
126.4049319747
 11
199.4559972523
 21
126.2453574884
  0
LINE
  5
42A
100
AcDbEntity
  8
0
100
AcDbLine
 62
7
  6
CONTINUOUS
 10
199.2997472523
 20
127.3091872606
 11
199.4039138196
 21
127.1496128115
  0
LINE
  5
42B
100
AcDbEntity
  8
0
100
AcDbLine
 62
7
  6
CONTINUOUS
 10
200.3934972523
 20
127.8942937228
 11
200.4976638196
 21
127.7347192738
  0
LINE
  5
42C
100
AcDbEntity
  8
0
100
AcDbLine
 62
7
  6
CONTINUOUS
 10
179.8202525745
 20
162.2860759446
 11
179.6287632104
 21
162.661075587
  0
LINE
  5
42D
100
AcDbEntity
  8
0
100
AcDbLine
 62
7
  6
CONTINUOUS
 10
195.8101639221
 20
126.4049319747
 11
195.9143305918
 21
126.1921660054
  0
LINE
  5
42E
100
AcDbEntity
  8
0
100
AcDbLine
 62
7
  6
CONTINUOUS
 10
195.6834972523
 20
130.8949319747
 11
195.7876641176
 21
130.6821660054
  0
LINE
  5
42F
100
AcDbEntity
  8
0
100
AcDbLine
 62
7
  6
CONTINUOUS
 10
197.3726639686
 20
127.9474852059
 11
197.4768305359
 21
127.7347192738
  0
LINE
  5
430
100
AcDbEntity
  8
0
100
AcDbLine
 62
7
  6
CONTINUOUS
 10
195.7580805872
 20
126.5645064238
 11
195.8101639221
 21
126.4049319747
  0
LINE
  5
431
100
AcDbEntity
  8
BEZUGSACHSEN
100
AcDbLine
 62
7
  6
CONTINUOUS
 10
190.3659972523
 20
147.329825587
 11
190.3659972523
 21
153.1298255871
  0
LINE
  5
432
100
AcDbEntity
  8
0
100
AcDbLine
 62
7
  6
CONTINUOUS
 10
190.6159972523
 20
122.029825587
 11
190.6159972523
 21
122.229825587
  0
LINE
  5
433
100
AcDbEntity
  8
0
100
AcDbLine
 62
7
  6
CONTINUOUS
 10
190.6159972523
 20
142.229825587
 11
190.6159972523
 21
142.429825587
  0
LINE
  5
434
100
AcDbEntity
  8
0
100
AcDbLine
 62
7
  6
CONTINUOUS
 10
190.9959972523
 20
130.309825587
 11
190.9959972523
 21
132.809825587
  0
LINE
  5
435
100
AcDbEntity
  8
0
100
AcDbLine
 62
7
  6
CONTINUOUS
 10
191.3084972523
 20
130.6289745224
 11
191.3084972523
 21
132.809825587
  0
LINE
  5
436
100
AcDbEntity
  8
KONSTRUKTIONSELEMENTE
100
AcDbLine
 62
7
  6
CONTINUOUS
 10
191.3372671406
 20
153.129825587
 11
191.3372671406
 21
153.329825587
  0
LINE
  5
437
100
AcDbEntity
  8
KONSTRUKTIONSELEMENTE
100
AcDbLine
 62
7
  6
CONTINUOUS
 10
191.350239897
 20
153.129825587
 11
191.350239897
 21
153.329825587
  0
LINE
  5
438
100
AcDbEntity
  8
KONSTRUKTIONSELEMENTE
100
AcDbLine
 62
7
  6
CONTINUOUS
 10
191.3934824187
 20
153.129825587
 11
191.3934824187
 21
153.329825587
  0
LINE
  5
439
100
AcDbEntity
  8
KONSTRUKTIONSELEMENTE
100
AcDbLine
 62
7
  6
CONTINUOUS
 10
191.4064551752
 20
153.129825587
 11
191.4064551752
 21
153.329825587
  0
LINE
  5
43A
100
AcDbEntity
  8
BEZUGSACHSEN
100
AcDbLine
 62
7
  6
CONTINUOUS
 10
191.6159972523
 20
146.729825587
 11
191.6159972523
 21
147.329825587
  0
LINE
  5
43B
100
AcDbEntity
  8
0
100
AcDbLine
 62
7
  6
CONTINUOUS
 10
179.9159972523
 20
154.6923256764
 11
177.713869587
 21
153.8485756764
  0
LINE
  5
43C
100
AcDbEntity
  8
0
100
AcDbLine
 62
7
  6
CONTINUOUS
 10
177.9053589259
 20
153.2860755423
 11
179.9159972523
 21
154.0360754976
  0
LINE
  5
43D
100
AcDbEntity
  8
0
100
AcDbLine
 62
7
  6
CONTINUOUS
 10
176.4691886161
 20
154.5985754976
 11
176.1819546078
 21
154.504825587
  0
LINE
  5
43E
100
AcDbEntity
  8
0
100
AcDbLine
 62
7
  6
CONTINUOUS
 10
176.1819546078
 20
153.942325587
 11
176.4691886161
 21
154.0360754976
  0
LINE
  5
43F
100
AcDbEntity
  8
RUNDUNGEN
100
AcDbLine
 62
7
  6
CONTINUOUS
 10
185.3659972523
 20
142.229825587
 11
212.3659972523
 21
142.229825587
  0
LINE
  5
440
100
AcDbEntity
  8
0
100
AcDbLine
 62
7
  6
CONTINUOUS
 10
186.8659972523
 20
142.429825587
 11
210.8659972523
 21
142.429825587
  0
LINE
  5
441
100
AcDbEntity
  8
0
100
AcDbLine
 62
7
  6
CONTINUOUS
 10
174.8659972523
 20
144.729825587
 11
180.5117485633
 21
144.729825587
  0
LINE
  5
442
100
AcDbEntity
  8
0
100
AcDbLine
 62
7
  6
CONTINUOUS
 10
217.2202459412
 20
144.729825587
 11
222.8659972523
 21
144.729825587
  0
LINE
  5
443
100
AcDbEntity
  8
0
100
AcDbLine
 62
7
  6
CONTINUOUS
 10
207.5064135216
 20
132.756634104
 11
207.7147472523
 21
132.5970596549
  0
LINE
  5
444
100
AcDbEntity
  8
0
100
AcDbLine
 62
7
  6
CONTINUOUS
 10
179.6287632104
 20
158.161075587
 11
179.2457844992
 21
158.5360757658
  0
LINE
  5
445
100
AcDbEntity
  8
0
100
AcDbLine
 62
7
  6
CONTINUOUS
 10
206.516830983
 20
130.8417404917
 11
206.673080983
 21
130.6821660054
  0
LINE
  5
446
100
AcDbEntity
  8
0
100
AcDbLine
 62
7
  6
CONTINUOUS
 10
206.360580983
 20
131.7991872606
 11
206.5689135216
 21
131.5864213285
  0
LINE
  5
447
100
AcDbEntity
  8
0
100
AcDbLine
 62
7
  6
CONTINUOUS
 10
207.766830983
 20
131.5864213285
 11
207.9751635216
 21
131.3736553964
  0
LINE
  5
448
100
AcDbEntity
  8
0
100
AcDbLine
 62
7
  6
CONTINUOUS
 10
202.2247472523
 20
137.357485182
 11
202.4497470377
 21
137.1276979754
  0
LINE
  5
449
100
AcDbEntity
  8
0
100
AcDbLine
 62
7
  6
CONTINUOUS
 10
207.454330983
 20
132.4374852059
 11
207.5584972523
 21
132.3311022398
  0
LINE
  5
44A
100
AcDbEntity
  8
0
100
AcDbLine
 62
7
  6
CONTINUOUS
 10
197.1622472523
 20
137.3000383804
 11
197.3309972523
 21
137.0702511737
  0
LINE
  5
44B
100
AcDbEntity
  8
0
100
AcDbLine
 62
7
  6
CONTINUOUS
 10
200.9439135216
 20
132.5970596549
 11
201.1001635216
 21
132.3842937228
  0
LINE
  5
44C
100
AcDbEntity
  8
0
100
AcDbLine
 62
7
  6
CONTINUOUS
 10
179.0542950932
 20
162.4735752294
 11
179.2457844992
 21
162.1923252294
  0
LINE
  5
44D
100
AcDbEntity
  8
0
100
AcDbLine
 62
7
  6
CONTINUOUS
 10
198.287247145
 20
135.5191872874
 11
198.3997473596
 21
135.3468468824
  0
LINE
  5
44E
100
AcDbEntity
  8
0
100
AcDbLine
 62
7
  6
CONTINUOUS
 10
204.2251635216
 20
130.9481234578
 11
204.329330983
 21
130.7885490087
  0
LINE
  5
44F
100
AcDbEntity
  8
0
100
AcDbLine
 62
7
  6
CONTINUOUS
 10
201.6955803869
 20
126.2453574884
 11
201.7997472523
 21
126.0325915377
  0
LINE
  5
450
100
AcDbEntity
  8
0
100
AcDbLine
 62
7
  6
CONTINUOUS
 10
197.9497473059
 20
135.4617404858
 11
198.0622473596
 21
135.2319532389
  0
LINE
  5
451
100
AcDbEntity
  8
0
100
AcDbLine
 62
7
  6
CONTINUOUS
 10
198.9872472523
 20
127.4155702266
 11
199.0914138196
 21
127.1496128115
  0
LINE
  5
452
100
AcDbEntity
  8
0
100
AcDbLine
 62
7
  6
CONTINUOUS
 10
200.7059972523
 20
127.8942937228
 11
200.8101641176
 21
127.6283361587
  0
LINE
  5
453
100
AcDbEntity
  8
0
100
AcDbLine
 62
7
  6
CONTINUOUS
 10
196.9372473059
 20
136.1511021862
 11
197.4434973059
 21
134.829825587
  0
LINE
  5
454
100
AcDbEntity
  8
0
100
AcDbLine
 62
7
  6
CONTINUOUS
 10
196.5997472255
 20
136.0362085829
 11
197.0497471986
 21
134.829825587
  0
LINE
  5
455
100
AcDbEntity
  8
0
100
AcDbLine
 62
7
  6
CONTINUOUS
 10
194.8501641176
 20
131.2672724304
 11
194.9022472523
 21
131.1076979068
  0
LINE
  5
456
100
AcDbEntity
  8
0
100
AcDbLine
 62
7
  6
CONTINUOUS
 10
195.1626641176
 20
131.3204639134
 11
195.2147472523
 21
131.1608893899
  0
LINE
  5
457
100
AcDbEntity
  8
0
100
AcDbLine
 62
7
  6
CONTINUOUS
 10
194.8501641176
 20
132.3311022398
 11
194.9022472523
 21
132.1715276418
  0
LINE
  5
458
100
AcDbEntity
  8
0
100
AcDbLine
 62
7
  6
CONTINUOUS
 10
195.1626641176
 20
132.3842937228
 11
195.2147472523
 21
132.2247192738
  0
LINE
  5
459
100
AcDbEntity
  8
0
100
AcDbLine
 62
7
  6
CONTINUOUS
 10
197.4768305359
 20
127.7347192738
 11
197.5289139686
 21
127.5751446757
  0
LINE
  5
45A
100
AcDbEntity
  8
0
100
AcDbLine
 62
7
  6
CONTINUOUS
 10
199.0914138196
 20
126.4049319747
 11
199.1434972523
 21
126.2453574884
  0
LINE
  5
45B
100
AcDbEntity
  8
0
100
AcDbLine
 62
7
  6
CONTINUOUS
 10
197.2980803869
 20
132.3311022398
 11
197.3501641176
 21
132.1715276418
  0
LINE
  5
45C
100
AcDbEntity
  8
0
100
AcDbLine
 62
7
  6
CONTINUOUS
 10
199.2476638196
 20
127.4687617097
 11
199.2997472523
 21
127.3091872606
  0
LINE
  5
45D
100
AcDbEntity
  8
0
100
AcDbLine
 62
7
  6
CONTINUOUS
 10
195.9439141176
 20
131.1608893899
 11
195.9959972523
 21
130.9481234578
  0
LINE
  5
45E
100
AcDbEntity
  8
0
100
AcDbLine
 62
7
  6
CONTINUOUS
 10
195.7059972523
 20
126.8304639134
 11
195.7580805872
 21
126.5645064238
  0
LINE
  5
45F
100
AcDbEntity
  8
0
100
AcDbLine
 62
7
  6
CONTINUOUS
 10
195.6314141176
 20
131.1608893899
 11
195.6834972523
 21
130.8949319747
  0
LINE
  5
460
100
AcDbEntity
  8
0
100
AcDbLine
 62
7
  6
CONTINUOUS
 10
192.8709972523
 20
130.309825587
 11
192.8709972523
 21
130.6289745224
  0
LINE
  5
461
100
AcDbEntity
  8
KONSTRUKTIONSELEMENTE
100
AcDbLine
 62
7
  6
CONTINUOUS
 10
193.2601543941
 20
153.129825587
 11
193.2601543941
 21
153.329825587
  0
LINE
  5
462
100
AcDbEntity
  8
KONSTRUKTIONSELEMENTE
100
AcDbLine
 62
7
  6
CONTINUOUS
 10
193.2850704798
 20
153.129825587
 11
193.2850704798
 21
153.329825587
  0
LINE
  5
463
100
AcDbEntity
  8
0
100
AcDbLine
 62
7
  6
CONTINUOUS
 10
193.2876638196
 20
130.309825587
 11
193.2876638196
 21
132.809825587
  0
LINE
  5
464
100
AcDbEntity
  8
KONSTRUKTIONSELEMENTE
100
AcDbLine
 62
7
  6
CONTINUOUS
 10
193.3735673398
 20
153.129825587
 11
193.3735673398
 21
153.329825587
  0
LINE
  5
465
100
AcDbEntity
  8
0
100
AcDbLine
 62
7
  6
CONTINUOUS
 10
193.6001641176
 20
130.6289745224
 11
193.6001641176
 21
131.4268468795
  0
LINE
  5
466
100
AcDbEntity
  8
0
100
AcDbLine
 62
7
  6
CONTINUOUS
 10
193.6001641176
 20
131.7459957776
 11
193.6001641176
 21
132.4906766889
  0
LINE
  5
467
100
AcDbEntity
  8
BEZUGSACHSEN
100
AcDbLine
 62
7
  6
CONTINUOUS
 10
193.8659972523
 20
103.979825587
 11
193.8659972523
 21
117.729825587
  0
LINE
  5
468
100
AcDbEntity
  8
KONSTRUKTIONSELEMENTE
100
AcDbLine
 62
7
  6
CONTINUOUS
 10
193.9818767168
 20
153.129825587
 11
193.9818767168
 21
153.329825587
  0
LINE
  5
469
100
AcDbEntity
  8
0
100
AcDbLine
 62
7
  6
CONTINUOUS
 10
194.9022472523
 20
130.9481234578
 11
194.9022472523
 21
131.1076979068
  0
LINE
  5
46A
100
AcDbEntity
  8
0
100
AcDbLine
 62
7
  6
CONTINUOUS
 10
194.9022472523
 20
132.0651446757
 11
194.9022472523
 21
132.1715276418
  0
LINE
  5
46B
100
AcDbEntity
  8
KONSTRUKTIONSELEMENTE
100
AcDbLine
 62
7
  6
CONTINUOUS
 10
194.9055789537
 20
153.129825587
 11
194.9055789537
 21
153.329825587
  0
LINE
  5
46C
100
AcDbEntity
  8
KONSTRUKTIONSELEMENTE
100
AcDbLine
 62
7
  6
CONTINUOUS
 10
195.1009386619
 20
153.129825587
 11
195.1009386619
 21
153.329825587
  0
LINE
  5
46D
100
AcDbEntity
  8
0
100
AcDbLine
 62
7
  6
CONTINUOUS
 10
195.2147472523
 20
130.8949319747
 11
195.2147472523
 21
131.1608893899
  0
LINE
  5
46E
100
AcDbEntity
  8
0
100
AcDbLine
 62
7
  6
CONTINUOUS
 10
195.2147472523
 20
132.0119531927
 11
195.2147472523
 21
132.2247192738
  0
LINE
  5
46F
100
AcDbEntity
  8
0
100
AcDbLine
 62
7
  6
CONTINUOUS
 10
195.3059972523
 20
134.829825587
 11
195.3059972523
 21
137.529825587
  0
LINE
  5
470
100
AcDbEntity
  8
0
100
AcDbLine
 62
7
  6
CONTINUOUS
 10
195.6314141176
 20
131.1608893899
 11
195.6314141176
 21
131.9587617097
  0
LINE
  5
471
100
AcDbEntity
  8
0
100
AcDbLine
 62
7
  6
CONTINUOUS
 10
186.8659972523
 20
146.729825587
 11
210.8659972523
 21
146.729825587
  0
LINE
  5
472
100
AcDbEntity
  8
KONSTRUKTIONSELEMENTE
100
AcDbLine
 62
7
  6
CONTINUOUS
 10
190.3659972523
 20
147.329825587
 11
207.3659972523
 21
147.329825587
  0
LINE
  5
473
100
AcDbEntity
  8
0
100
AcDbLine
 62
7
  6
CONTINUOUS
 10
176.7564228926
 20
154.0360754976
 11
177.0436569009
 21
153.942325587
  0
LINE
  5
474
100
AcDbEntity
  8
0
100
AcDbLine
 62
7
  6
CONTINUOUS
 10
177.1394015704
 20
154.504825587
 11
176.8521675621
 21
154.5985754976
  0
LINE
  5
475
100
AcDbEntity
  8
0
100
AcDbLine
 62
7
  6
CONTINUOUS
 10
178.7670610849
 20
158.161075587
 11
179.0542950932
 21
157.9735757658
  0
LINE
  5
476
100
AcDbEntity
  8
0
100
AcDbLine
 62
7
  6
CONTINUOUS
 10
179.6287632104
 20
162.661075587
 11
179.2457844992
 21
163.0360752294
  0
LINE
  5
477
100
AcDbEntity
  8
0
100
AcDbLine
 62
7
  6
CONTINUOUS
 10
207.7147472523
 20
132.5970596549
 11
207.8709972523
 21
132.3842937228
  0
LINE
  5
478
100
AcDbEntity
  8
0
100
AcDbLine
 62
7
  6
CONTINUOUS
 10
202.1122470377
 20
137.0128043721
 11
202.2247472523
 21
136.8404638061
  0
LINE
  5
479
100
AcDbEntity
  8
0
100
AcDbLine
 62
7
  6
CONTINUOUS
 10
207.6626635216
 20
131.2672724304
 11
207.766830983
 21
131.1076979068
  0
LINE
  5
47A
100
AcDbEntity
  8
0
100
AcDbLine
 62
7
  6
CONTINUOUS
 10
206.204330983
 20
130.7885490087
 11
206.360580983
 21
130.5225915377
  0
LINE
  5
47B
100
AcDbEntity
  8
0
100
AcDbLine
 62
7
  6
CONTINUOUS
 10
203.9126635216
 20
130.8949319747
 11
204.016830983
 21
130.6821660054
  0
LINE
  5
47C
100
AcDbEntity
  8
0
100
AcDbLine
 62
7
  6
CONTINUOUS
 10
202.4497470377
 20
137.1276979754
 11
202.5622472523
 21
136.8979107687
  0
LINE
  5
47D
100
AcDbEntity
  8
0
100
AcDbLine
 62
7
  6
CONTINUOUS
 10
196.9934972523
 20
137.0702511737
 11
197.0497471986
 21
136.8979107687
  0
LINE
  5
47E
100
AcDbEntity
  8
0
100
AcDbLine
 62
7
  6
CONTINUOUS
 10
197.3309972523
 20
137.0702511737
 11
197.3872471986
 21
136.8979107687
  0
LINE
  5
47F
100
AcDbEntity
  8
0
100
AcDbLine
 62
7
  6
CONTINUOUS
 10
200.4976638196
 20
127.7347192738
 11
200.5497472523
 21
127.5751446757
  0
LINE
  5
480
100
AcDbEntity
  8
0
100
AcDbLine
 62
7
  6
CONTINUOUS
 10
201.9559972523
 20
126.3517404917
 11
202.0080803869
 21
126.1921660054
  0
LINE
  5
481
100
AcDbEntity
  8
0
100
AcDbLine
 62
7
  6
CONTINUOUS
 10
200.7876635216
 20
132.3842937228
 11
200.8397472523
 21
132.2247192738
  0
LINE
  5
482
100
AcDbEntity
  8
0
100
AcDbLine
 62
7
  6
CONTINUOUS
 10
201.1001635216
 20
132.3842937228
 11
201.1522472523
 21
132.2247192738
  0
LINE
  5
483
100
AcDbEntity
  8
0
100
AcDbLine
 62
7
  6
CONTINUOUS
 10
198.2309973596
 20
135.7489744941
 11
198.287247145
 21
135.5191872874
  0
LINE
  5
484
100
AcDbEntity
  8
0
100
AcDbLine
 62
7
  6
CONTINUOUS
 10
197.5289139686
 20
127.5751446757
 11
197.5809972523
 21
127.3091872606
  0
LINE
  5
485
100
AcDbEntity
  8
0
100
AcDbLine
 62
7
  6
CONTINUOUS
 10
197.6105803869
 20
132.4374852059
 11
197.6626641176
 21
132.1715276418
  0
LINE
  5
486
100
AcDbEntity
  8
0
100
AcDbLine
 62
7
  6
CONTINUOUS
 10
197.8934971986
 20
135.7489744941
 11
197.9497473059
 21
135.4617404858
  0
LINE
  5
487
100
AcDbEntity
  8
0
100
AcDbLine
 62
7
  6
CONTINUOUS
 10
195.9664139127
 20
126.8836553964
 11
196.0184972523
 21
126.5645064238
  0
LINE
  5
488
100
AcDbEntity
  8
0
100
AcDbLine
 62
7
  6
CONTINUOUS
 10
197.2684972523
 20
127.5751446757
 11
197.3205805359
 21
127.2559957776
  0
LINE
  5
489
100
AcDbEntity
  8
0
100
AcDbLine
 62
7
  6
CONTINUOUS
 10
195.6434972523
 20
134.829825587
 11
195.6434972523
 21
136.0362085829
  0
LINE
  5
48A
100
AcDbEntity
  8
0
100
AcDbLine
 62
7
  6
CONTINUOUS
 10
195.6434972523
 20
136.3808893928
 11
195.6434972523
 21
137.2425915787
  0
LINE
  5
48B
100
AcDbEntity
  8
0
100
AcDbLine
 62
7
  6
CONTINUOUS
 10
195.7059972523
 20
126.8304639134
 11
195.7059972523
 21
127.3091872606
  0
LINE
  5
48C
100
AcDbEntity
  8
KONSTRUKTIONSELEMENTE
100
AcDbLine
 62
7
  6
CONTINUOUS
 10
195.8428146524
 20
153.129825587
 11
195.8428146524
 21
153.329825587
  0
LINE
  5
48D
100
AcDbEntity
  8
KONSTRUKTIONSELEMENTE
100
AcDbLine
 62
7
  6
CONTINUOUS
 10
195.8823774946
 20
153.129825587
 11
195.8823774946
 21
153.329825587
  0
LINE
  5
48E
100
AcDbEntity
  8
0
100
AcDbLine
 62
7
  6
CONTINUOUS
 10
195.9439141176
 20
131.1608893899
 11
195.9439141176
 21
131.9587617097
  0
LINE
  5
48F
100
AcDbEntity
  8
0
100
AcDbLine
 62
7
  6
CONTINUOUS
 10
195.9664139127
 20
126.8836553964
 11
195.9664139127
 21
127.2559957776
  0
LINE
  5
490
100
AcDbEntity
  8
KONSTRUKTIONSELEMENTE
100
AcDbLine
 62
7
  6
CONTINUOUS
 10
196.0777372959
 20
153.129825587
 11
196.0777372959
 21
153.329825587
  0
LINE
  5
491
100
AcDbEntity
  8
KONSTRUKTIONSELEMENTE
100
AcDbLine
 62
7
  6
CONTINUOUS
 10
196.8196132864
 20
153.129825587
 11
196.8196132864
 21
153.329825587
  0
LINE
  5
492
100
AcDbEntity
  8
0
100
AcDbLine
 62
7
  6
CONTINUOUS
 10
196.8814141176
 20
131.3736553964
 11
196.8814141176
 21
131.6928042946
  0
LINE
  5
493
100
AcDbEntity
  8
KONSTRUKTIONSELEMENTE
100
AcDbLine
 62
7
  6
CONTINUOUS
 10
196.9067106745
 20
153.129825587
 11
196.9067106745
 21
153.329825587
  0
LINE
  5
494
100
AcDbEntity
  8
KONSTRUKTIONSELEMENTE
100
AcDbLine
 62
7
  6
CONTINUOUS
 10
196.9373166788
 20
153.129825587
 11
196.9373166788
 21
153.329825587
  0
LINE
  5
495
100
AcDbEntity
  8
0
100
AcDbLine
 62
7
  6
CONTINUOUS
 10
197.0497471986
 20
136.7255702028
 11
197.0497471986
 21
136.8979107687
  0
LINE
  5
496
100
AcDbEntity
  8
KONSTRUKTIONSELEMENTE
100
AcDbLine
 62
7
  6
CONTINUOUS
 10
197.2610959528
 20
153.129825587
 11
197.2610959528
 21
153.329825587
  0
LINE
  5
497
100
AcDbEntity
  8
KONSTRUKTIONSELEMENTE
100
AcDbLine
 62
7
  6
CONTINUOUS
 10
197.2751678674
 20
153.129825587
 11
197.2751678674
 21
153.329825587
  0
LINE
  5
498
100
AcDbEntity
  8
0
100
AcDbLine
 62
7
  6
CONTINUOUS
 10
197.3205805359
 20
126.8836553964
 11
197.3205805359
 21
127.2559957776
  0
LINE
  5
499
100
AcDbEntity
  8
0
100
AcDbLine
 62
7
  6
CONTINUOUS
 10
197.3501641176
 20
130.9481234578
 11
197.3501641176
 21
131.3736553964
  0
LINE
  5
49A
100
AcDbEntity
  8
KONSTRUKTIONSELEMENTE
100
AcDbLine
 62
7
  6
CONTINUOUS
 10
197.3541121423
 20
153.129825587
 11
197.3541121423
 21
153.329825587
  0
LINE
  5
49B
100
AcDbEntity
  8
0
100
AcDbLine
 62
7
  6
CONTINUOUS
 10
197.3872471986
 20
136.6681234011
 11
197.3872471986
 21
136.8979107687
  0
LINE
  5
49C
100
AcDbEntity
  8
KONSTRUKTIONSELEMENTE
100
AcDbLine
 62
7
  6
CONTINUOUS
 10
197.4765110741
 20
153.129825587
 11
197.4765110741
 21
153.329825587
  0
LINE
  5
49D
100
AcDbEntity
  8
0
100
AcDbLine
 62
7
  6
CONTINUOUS
 10
197.5809972523
 20
126.8304639134
 11
197.5809972523
 21
127.3091872606
  0
LINE
  5
49E
100
AcDbEntity
  8
KONSTRUKTIONSELEMENTE
100
AcDbLine
 62
7
  6
CONTINUOUS
 10
197.6497104517
 20
153.129825587
 11
197.6497104517
 21
153.329825587
  0
LINE
  5
49F
100
AcDbEntity
  8
0
100
AcDbLine
 62
7
  6
CONTINUOUS
 10
197.6626641176
 20
130.8949319747
 11
197.6626641176
 21
131.6928042946
  0
LINE
  5
4A0
100
AcDbEntity
  8
0
100
AcDbLine
 62
7
  6
CONTINUOUS
 10
197.8934971986
 20
135.7489744941
 11
197.8934971986
 21
137.529825587
  0
LINE
  5
4A1
100
AcDbEntity
  8
0
100
AcDbLine
 62
7
  6
CONTINUOUS
 10
198.0793303869
 20
131.2140808729
 11
198.0793303869
 21
131.4800383625
  0
LINE
  5
4A2
100
AcDbEntity
  8
0
100
AcDbLine
 62
7
  6
CONTINUOUS
 10
198.2309973596
 20
135.7489744941
 11
198.2309973596
 21
137.529825587
  0
LINE
  5
4A3
100
AcDbEntity
  8
KONSTRUKTIONSELEMENTE
100
AcDbLine
 62
7
  6
CONTINUOUS
 10
198.5163265894
 20
153.129825587
 11
198.5163265894
 21
153.329825587
  0
LINE
  5
4A4
100
AcDbEntity
  8
0
100
AcDbLine
 62
7
  6
CONTINUOUS
 10
198.8084972523
 20
131.2140808729
 11
198.8084972523
 21
131.4800383625
  0
LINE
  5
4A5
100
AcDbEntity
  8
KONSTRUKTIONSELEMENTE
100
AcDbLine
 62
7
  6
CONTINUOUS
 10
198.8615738524
 20
153.129825587
 11
198.8615738524
 21
153.329825587
  0
LINE
  5
4A6
100
AcDbEntity
  8
BEZUGSACHSEN
100
AcDbLine
 62
7
  6
CONTINUOUS
 10
198.8659972523
 20
147.329825587
 11
198.8659972523
 21
152.3706362085
  0
LINE
  5
4A7
100
AcDbEntity
  8
0
100
AcDbLine
 62
7
  6
CONTINUOUS
 10
198.9872472523
 20
127.4155702266
 11
198.9872472523
 21
127.6283361587
  0
LINE
  5
4A8
100
AcDbEntity
  8
0
100
AcDbLine
 62
7
  6
CONTINUOUS
 10
199.2251635216
 20
130.309825587
 11
199.2251635216
 21
132.809825587
  0
LINE
  5
4A9
100
AcDbEntity
  8
0
100
AcDbLine
 62
7
  6
CONTINUOUS
 10
199.2476638196
 20
127.4687617097
 11
199.2476638196
 21
127.5751446757
  0
LINE
  5
4AA
100
AcDbEntity
  8
0
100
AcDbLine
 62
7
  6
CONTINUOUS
 10
189.7459972523
 20
130.309825587
 11
190.5793305359
 21
132.809825587
  0
LINE
  5
4AB
100
AcDbEntity
  8
0
100
AcDbLine
 62
7
  6
CONTINUOUS
 10
189.5376638941
 20
130.6289745224
 11
190.2668305359
 21
132.809825587
  0
LINE
  5
4AC
100
AcDbEntity
  8
0
100
AcDbLine
 62
7
  6
CONTINUOUS
 10
175.4159972523
 20
151.129825587
 11
179.9159972523
 21
151.129825587
  0
LINE
  5
4AD
100
AcDbEntity
  8
0
100
AcDbLine
 62
7
  6
CONTINUOUS
 10
179.9159972523
 20
151.692325587
 11
177.9053589259
 21
151.692325587
  0
LINE
  5
4AE
100
AcDbEntity
  8
0
100
AcDbLine
 62
7
  6
CONTINUOUS
 10
177.3308909092
 20
151.692325587
 11
175.8947205995
 21
151.692325587
  0
LINE
  5
4AF
100
AcDbEntity
  8
0
100
AcDbLine
 62
7
  6
CONTINUOUS
 10
179.2457844992
 20
158.5360757658
 11
178.8628057544
 21
158.723575587
  0
LINE
  5
4B0
100
AcDbEntity
  8
0
100
AcDbLine
 62
7
  6
CONTINUOUS
 10
178.7670610849
 20
162.661075587
 11
179.0542950932
 21
162.4735752294
  0
LINE
  5
4B1
100
AcDbEntity
  8
0
100
AcDbLine
 62
7
  6
CONTINUOUS
 10
207.9751635216
 20
131.3736553964
 11
208.079330983
 21
131.1608893899
  0
LINE
  5
4B2
100
AcDbEntity
  8
0
100
AcDbLine
 62
7
  6
CONTINUOUS
 10
207.5584972523
 20
132.3311022398
 11
207.610580983
 21
132.2247192738
  0
LINE
  5
4B3
100
AcDbEntity
  8
0
100
AcDbLine
 62
7
  6
CONTINUOUS
 10
202.2247472523
 20
136.8404638061
 11
202.2809970377
 21
136.6106765995
  0
LINE
  5
4B4
100
AcDbEntity
  8
0
100
AcDbLine
 62
7
  6
CONTINUOUS
 10
204.173080983
 20
131.1608893899
 11
204.2251635216
 21
130.9481234578
  0
LINE
  5
4B5
100
AcDbEntity
  8
0
100
AcDbLine
 62
7
  6
CONTINUOUS
 10
200.8101641176
 20
127.6283361587
 11
200.8622472523
 21
127.2559957776
  0
LINE
  5
4B6
100
AcDbEntity
  8
0
100
AcDbLine
 62
7
  6
CONTINUOUS
 10
199.5376635216
 20
130.309825587
 11
199.5376635216
 21
131.4268468795
  0
LINE
  5
4B7
100
AcDbEntity
  8
0
100
AcDbLine
 62
7
  6
CONTINUOUS
 10
199.5376635216
 20
131.7459957776
 11
199.5376635216
 21
132.5438681719
  0
LINE
  5
4B8
100
AcDbEntity
  8
0
100
AcDbLine
 62
7
  6
CONTINUOUS
 10
199.5809973596
 20
135.7489744941
 11
199.5809973596
 21
137.529825587
  0
LINE
  5
4B9
100
AcDbEntity
  8
0
100
AcDbLine
 62
7
  6
CONTINUOUS
 10
199.9184973596
 20
135.7489744941
 11
199.9184973596
 21
137.529825587
  0
LINE
  5
4BA
100
AcDbEntity
  8
0
100
AcDbLine
 62
7
  6
CONTINUOUS
 10
200.3684972523
 20
134.829825587
 11
200.3684972523
 21
137.529825587
  0
LINE
  5
4BB
100
AcDbEntity
  8
0
100
AcDbLine
 62
7
  6
CONTINUOUS
 10
200.5497472523
 20
127.4687617097
 11
200.5497472523
 21
127.5751446757
  0
LINE
  5
4BC
100
AcDbEntity
  8
0
100
AcDbLine
 62
7
  6
CONTINUOUS
 10
200.601830685
 20
126.8836553964
 11
200.601830685
 21
126.9900383625
  0
LINE
  5
4BD
100
AcDbEntity
  8
0
100
AcDbLine
 62
7
  6
CONTINUOUS
 10
200.7059972523
 20
135.1745064372
 11
200.7059972523
 21
137.185144777
  0
LINE
  5
4BE
100
AcDbEntity
  8
0
100
AcDbLine
 62
7
  6
CONTINUOUS
 10
200.8397472523
 20
132.0651446757
 11
200.8397472523
 21
132.2247192738
  0
LINE
  5
4BF
100
AcDbEntity
  8
0
100
AcDbLine
 62
7
  6
CONTINUOUS
 10
200.8622472523
 20
126.8836553964
 11
200.8622472523
 21
127.2559957776
  0
LINE
  5
4C0
100
AcDbEntity
  8
0
100
AcDbLine
 62
7
  6
CONTINUOUS
 10
201.1522472523
 20
132.0119531927
 11
201.1522472523
 21
132.2247192738
  0
LINE
  5
4C1
100
AcDbEntity
  8
0
100
AcDbLine
 62
7
  6
CONTINUOUS
 10
201.2789141176
 20
127.3091872606
 11
201.2789141176
 21
127.5219531927
  0
LINE
  5
4C2
100
AcDbEntity
  8
0
100
AcDbLine
 62
7
  6
CONTINUOUS
 10
201.5689135216
 20
130.309825587
 11
201.5689135216
 21
132.809825587
  0
LINE
  5
4C3
100
AcDbEntity
  8
0
100
AcDbLine
 62
7
  6
CONTINUOUS
 10
201.6955803869
 20
126.2453574884
 11
201.6955803869
 21
127.3091872606
  0
LINE
  5
4C4
100
AcDbEntity
  8
0
100
AcDbLine
 62
7
  6
CONTINUOUS
 10
201.6955803869
 20
127.5219531927
 11
201.6955803869
 21
127.9474852059
  0
LINE
  5
4C5
100
AcDbEntity
  8
0
100
AcDbLine
 62
7
  6
CONTINUOUS
 10
201.8814135216
 20
130.6289745224
 11
201.8814135216
 21
132.809825587
  0
LINE
  5
4C6
100
AcDbEntity
  8
0
100
AcDbLine
 62
7
  6
CONTINUOUS
 10
201.9559972523
 20
126.3517404917
 11
201.9559972523
 21
127.3091872606
  0
LINE
  5
4C7
100
AcDbEntity
  8
0
100
AcDbLine
 62
7
  6
CONTINUOUS
 10
201.9559972523
 20
127.5219531927
 11
201.9559972523
 21
127.9474852059
  0
LINE
  5
4C8
100
AcDbEntity
  8
0
100
AcDbLine
 62
7
  6
CONTINUOUS
 10
202.2809970377
 20
135.7489744941
 11
202.2809970377
 21
136.6106765995
  0
LINE
  5
4C9
100
AcDbEntity
  8
0
100
AcDbLine
 62
7
  6
CONTINUOUS
 10
202.4247472523
 20
125.819825587
 11
202.4247472523
 21
126.0325915377
  0
LINE
  5
4CA
100
AcDbEntity
  8
0
100
AcDbLine
 62
7
  6
CONTINUOUS
 10
202.5289141176
 20
127.3091872606
 11
202.5289141176
 21
127.5219531927
  0
LINE
  5
4CB
100
AcDbEntity
  8
0
100
AcDbLine
 62
7
  6
CONTINUOUS
 10
202.6184970377
 20
135.7489744941
 11
202.6184970377
 21
136.6106765995
  0
LINE
  5
4CC
100
AcDbEntity
  8
0
100
AcDbLine
 62
7
  6
CONTINUOUS
 10
195.9664139127
 20
127.2559957776
 11
196.0184972523
 21
127.5751446757
  0
LINE
  5
4CD
100
AcDbEntity
  8
0
100
AcDbLine
 62
7
  6
CONTINUOUS
 10
197.2684972523
 20
126.5645064238
 11
197.3205805359
 21
126.8836553964
  0
LINE
  5
4CE
100
AcDbEntity
  8
0
100
AcDbLine
 62
7
  6
CONTINUOUS
 10
195.6314141176
 20
131.9587617097
 11
195.6834972523
 21
132.2247192738
  0
LINE
  5
4CF
100
AcDbEntity
  8
0
100
AcDbLine
 62
7
  6
CONTINUOUS
 10
195.7059972523
 20
127.3091872606
 11
195.7580805872
 21
127.5751446757
  0
LINE
  5
4D0
100
AcDbEntity
  8
0
100
AcDbLine
 62
7
  6
CONTINUOUS
 10
197.5289139686
 20
126.5645064238
 11
197.5809972523
 21
126.8304639134
  0
LINE
  5
4D1
100
AcDbEntity
  8
0
100
AcDbLine
 62
7
  6
CONTINUOUS
 10
199.8622472523
 20
135.4617404858
 11
199.9184973596
 21
135.7489744941
  0
LINE
  5
4D2
100
AcDbEntity
  8
0
100
AcDbLine
 62
7
  6
CONTINUOUS
 10
195.9439141176
 20
131.9587617097
 11
195.9959972523
 21
132.1715276418
  0
LINE
  5
4D3
100
AcDbEntity
  8
0
100
AcDbLine
 62
7
  6
CONTINUOUS
 10
197.6105803869
 20
130.6821660054
 11
197.6626641176
 21
130.8949319747
  0
LINE
  5
4D4
100
AcDbEntity
  8
0
100
AcDbLine
 62
7
  6
CONTINUOUS
 10
194.8501641176
 20
131.9055702266
 11
194.9022472523
 21
132.0651446757
  0
LINE
  5
4D5
100
AcDbEntity
  8
0
100
AcDbLine
 62
7
  6
CONTINUOUS
 10
195.1626641176
 20
131.8523787436
 11
195.2147472523
 21
132.0119531927
  0
LINE
  5
4D6
100
AcDbEntity
  8
0
100
AcDbLine
 62
7
  6
CONTINUOUS
 10
194.8501641176
 20
130.7885490087
 11
194.9022472523
 21
130.9481234578
  0
LINE
  5
4D7
100
AcDbEntity
  8
0
100
AcDbLine
 62
7
  6
CONTINUOUS
 10
196.9934972523
 20
136.5532297978
 11
197.0497471986
 21
136.7255702028
  0
LINE
  5
4D8
100
AcDbEntity
  8
0
100
AcDbLine
 62
7
  6
CONTINUOUS
 10
195.1626641176
 20
130.7353574884
 11
195.2147472523
 21
130.8949319747
  0
LINE
  5
4D9
100
AcDbEntity
  8
0
100
AcDbLine
 62
7
  6
CONTINUOUS
 10
197.3309972523
 20
136.4957829962
 11
197.3872471986
 21
136.6681234011
  0
LINE
  5
4DA
100
AcDbEntity
  8
BEZUGSACHSEN
100
AcDbLine
 62
7
  6
CONTINUOUS
 10
190.3659972523
 20
153.129825587
 11
207.3659972523
 21
153.129825587
  0
LINE
  5
4DB
100
AcDbEntity
  8
KONSTRUKTIONSELEMENTE
100
AcDbLine
 62
7
  6
CONTINUOUS
 10
191.350239897
 20
153.329825587
 11
191.3934824187
 21
153.329825587
  0
LINE
  5
4DC
100
AcDbEntity
  8
KONSTRUKTIONSELEMENTE
100
AcDbLine
 62
7
  6
CONTINUOUS
 10
191.4064551752
 20
153.329825587
 11
196.9373166788
 21
153.329825587
  0
LINE
  5
4DD
100
AcDbEntity
  8
KONSTRUKTIONSELEMENTE
100
AcDbLine
 62
7
  6
CONTINUOUS
 10
197.2610959528
 20
153.329825587
 11
198.8615738524
 21
153.329825587
  0
LINE
  5
4DE
100
AcDbEntity
  8
0
100
AcDbLine
 62
7
  6
CONTINUOUS
 10
176.4691886161
 20
154.0360754976
 11
176.7564228926
 21
154.0360754976
  0
LINE
  5
4DF
100
AcDbEntity
  8
0
100
AcDbLine
 62
7
  6
CONTINUOUS
 10
176.8521675621
 20
154.5985754976
 11
176.4691886161
 21
154.5985754976
  0
LINE
  5
4E0
100
AcDbEntity
  8
0
100
AcDbLine
 62
7
  6
CONTINUOUS
 10
175.4159972523
 20
155.4423254976
 11
178.3840824072
 21
155.4423254976
  0
LINE
  5
4E1
100
AcDbEntity
  8
0
100
AcDbLine
 62
7
  6
CONTINUOUS
 10
178.3840824072
 20
156.0048257658
 11
175.4159972523
 21
156.0048257658
  0
LINE
  5
4E2
100
AcDbEntity
  8
0
100
AcDbLine
 62
7
  6
CONTINUOUS
 10
178.8628057544
 20
158.723575587
 11
178.3840824072
 21
158.8173257658
  0
LINE
  5
4E3
100
AcDbEntity
  8
0
100
AcDbLine
 62
7
  6
CONTINUOUS
 10
178.3840824072
 20
158.2548257658
 11
178.7670610849
 21
158.161075587
  0
LINE
  5
4E4
100
AcDbEntity
  8
0
100
AcDbLine
 62
7
  6
CONTINUOUS
 10
179.2457844992
 20
163.0360752294
 11
178.8628057544
 21
163.223575587
  0
LINE
  5
4E5
100
AcDbEntity
  8
0
100
AcDbLine
 62
7
  6
CONTINUOUS
 10
206.4647472523
 20
131.0013149408
 11
206.516830983
 21
130.8417404917
  0
LINE
  5
4E6
100
AcDbEntity
  8
0
100
AcDbLine
 62
7
  6
CONTINUOUS
 10
206.6209972523
 20
132.0651446757
 11
206.673080983
 21
131.9055702266
  0
LINE
  5
4E7
100
AcDbEntity
  8
0
100
AcDbLine
 62
7
  6
CONTINUOUS
 10
207.8709972523
 20
132.3842937228
 11
207.923080983
 21
132.2247192738
  0
LINE
  5
4E8
100
AcDbEntity
  8
0
100
AcDbLine
 62
7
  6
CONTINUOUS
 10
206.1522472523
 20
131.0013149408
 11
206.204330983
 21
130.7885490087
  0
LINE
  5
4E9
100
AcDbEntity
  8
0
100
AcDbLine
 62
7
  6
CONTINUOUS
 10
206.3084972523
 20
132.0119531927
 11
206.360580983
 21
131.7991872606
  0
LINE
  5
4EA
100
AcDbEntity
  8
0
100
AcDbLine
 62
7
  6
CONTINUOUS
 10
202.5622472523
 20
136.8979107687
 11
202.6184970377
 21
136.6106765995
  0
LINE
  5
4EB
100
AcDbEntity
  8
0
100
AcDbLine
 62
7
  6
CONTINUOUS
 10
203.860580983
 20
131.1608893899
 11
203.9126635216
 21
130.8949319747
  0
LINE
  5
4EC
100
AcDbEntity
  8
0
100
AcDbLine
 62
7
  6
CONTINUOUS
 10
203.4439135216
 20
130.309825587
 11
203.4439135216
 21
130.6289745224
  0
LINE
  5
4ED
100
AcDbEntity
  8
0
100
AcDbLine
 62
7
  6
CONTINUOUS
 10
203.860580983
 20
131.1608893899
 11
203.860580983
 21
132.809825587
  0
LINE
  5
4EE
100
AcDbEntity
  8
BEZUGSACHSEN
100
AcDbLine
 62
7
  6
CONTINUOUS
 10
203.8659972523
 20
103.979825587
 11
203.8659972523
 21
117.729825587
  0
LINE
  5
4EF
100
AcDbEntity
  8
0
100
AcDbLine
 62
7
  6
CONTINUOUS
 10
204.173080983
 20
131.1608893899
 11
204.173080983
 21
132.809825587
  0
LINE
  5
4F0
100
AcDbEntity
  8
0
100
AcDbLine
 62
7
  6
CONTINUOUS
 10
205.423080983
 20
131.1608893899
 11
205.423080983
 21
132.809825587
  0
LINE
  5
4F1
100
AcDbEntity
  8
0
100
AcDbLine
 62
7
  6
CONTINUOUS
 10
205.735580983
 20
131.1608893899
 11
205.735580983
 21
132.809825587
  0
LINE
  5
4F2
100
AcDbEntity
  8
BEZUGSACHSEN
100
AcDbLine
 62
7
  6
CONTINUOUS
 10
206.1159972523
 20
146.729825587
 11
206.1159972523
 21
147.329825587
  0
LINE
  5
4F3
100
AcDbEntity
  8
0
100
AcDbLine
 62
7
  6
CONTINUOUS
 10
206.3084972523
 20
132.0119531927
 11
206.3084972523
 21
132.2247192738
  0
LINE
  5
4F4
100
AcDbEntity
  8
0
100
AcDbLine
 62
7
  6
CONTINUOUS
 10
206.6209972523
 20
132.0651446757
 11
206.6209972523
 21
132.1715276418
  0
LINE
  5
4F5
100
AcDbEntity
  8
0
100
AcDbLine
 62
7
  6
CONTINUOUS
 10
200.8101641176
 20
126.5113149408
 11
200.8622472523
 21
126.8836553964
  0
LINE
  5
4F6
100
AcDbEntity
  8
0
100
AcDbLine
 62
7
  6
CONTINUOUS
 10
200.5497472523
 20
126.5645064238
 11
200.601830685
 21
126.8836553964
  0
LINE
  5
4F7
100
AcDbEntity
  8
0
100
AcDbLine
 62
7
  6
CONTINUOUS
 10
202.5622472523
 20
135.4617404858
 11
202.6184970377
 21
135.7489744941
  0
LINE
  5
4F8
100
AcDbEntity
  8
0
100
AcDbLine
 62
7
  6
CONTINUOUS
 10
199.5247472523
 20
135.5191872874
 11
199.5809973596
 21
135.7489744941
  0
LINE
  5
4F9
100
AcDbEntity
  8
0
100
AcDbLine
 62
7
  6
CONTINUOUS
 10
202.2247472523
 20
135.5191872874
 11
202.2809970377
 21
135.7489744941
  0
LINE
  5
4FA
100
AcDbEntity
  8
0
100
AcDbLine
 62
7
  6
CONTINUOUS
 10
195.7580805872
 20
127.5751446757
 11
195.8101639221
 21
127.7347192738
  0
LINE
  5
4FB
100
AcDbEntity
  8
0
100
AcDbLine
 62
7
  6
CONTINUOUS
 10
197.2980803869
 20
130.7885490087
 11
197.3501641176
 21
130.9481234578
  0
LINE
  5
4FC
100
AcDbEntity
  8
0
100
AcDbLine
 62
7
  6
CONTINUOUS
 10
197.4768305359
 20
126.4049319747
 11
197.5289139686
 21
126.5645064238
  0
LINE
  5
4FD
100
AcDbEntity
  8
0
100
AcDbLine
 62
7
  6
CONTINUOUS
 10
195.6834972523
 20
132.2247192738
 11
195.7876641176
 21
132.4374852059
  0
LINE
  5
4FE
100
AcDbEntity
  8
0
100
AcDbLine
 62
7
  6
CONTINUOUS
 10
178.3840824072
 20
155.4423254976
 11
178.8628057544
 21
155.5360756764
  0
LINE
  5
4FF
100
AcDbEntity
  8
0
100
AcDbLine
 62
7
  6
CONTINUOUS
 10
175.4159972523
 20
158.2548257658
 11
178.3840824072
 21
158.2548257658
  0
LINE
  5
500
100
AcDbEntity
  8
0
100
AcDbLine
 62
7
  6
CONTINUOUS
 10
178.3840824072
 20
158.8173257658
 11
175.4159972523
 21
158.8173257658
  0
LINE
  5
501
100
AcDbEntity
  8
0
100
AcDbLine
 62
7
  6
CONTINUOUS
 10
175.4159972523
 20
159.567325587
 11
179.9159972523
 21
159.567325587
  0
LINE
  5
502
100
AcDbEntity
  8
0
100
AcDbLine
 62
7
  6
CONTINUOUS
 10
179.3415291686
 20
160.129825587
 11
175.9904652689
 21
160.129825587
  0
LINE
  5
503
100
AcDbEntity
  8
0
100
AcDbLine
 62
7
  6
CONTINUOUS
 10
178.8628057544
 20
163.223575587
 11
178.3840824072
 21
163.3173252294
  0
LINE
  5
504
100
AcDbEntity
  8
0
100
AcDbLine
 62
7
  6
CONTINUOUS
 10
178.3840824072
 20
162.7548252294
 11
178.7670610849
 21
162.661075587
  0
LINE
  5
505
100
AcDbEntity
  8
0
100
AcDbLine
 62
7
  6
CONTINUOUS
 10
207.1159972523
 20
122.029825587
 11
207.1159972523
 21
122.229825587
  0
LINE
  5
506
100
AcDbEntity
  8
0
100
AcDbLine
 62
7
  6
CONTINUOUS
 10
207.1159972523
 20
142.229825587
 11
207.1159972523
 21
142.429825587
  0
LINE
  5
507
100
AcDbEntity
  8
BEZUGSACHSEN
100
AcDbLine
 62
7
  6
CONTINUOUS
 10
207.3659972523
 20
147.329825587
 11
207.3659972523
 21
153.1298255871
  0
LINE
  5
508
100
AcDbEntity
  8
0
100
AcDbLine
 62
7
  6
CONTINUOUS
 10
207.766830983
 20
130.9481234578
 11
207.766830983
 21
131.1076979068
  0
LINE
  5
509
100
AcDbEntity
  8
0
100
AcDbLine
 62
7
  6
CONTINUOUS
 10
208.079330983
 20
130.8949319747
 11
208.079330983
 21
131.1608893899
  0
LINE
  5
50A
100
AcDbEntity
  8
0
100
AcDbLine
 62
7
  6
CONTINUOUS
 10
205.6834972523
 20
130.8949319747
 11
205.735580983
 21
131.1608893899
  0
LINE
  5
50B
100
AcDbEntity
  8
0
100
AcDbLine
 62
7
  6
CONTINUOUS
 10
205.3709972523
 20
130.9481234578
 11
205.423080983
 21
131.1608893899
  0
LINE
  5
50C
100
AcDbEntity
  8
0
100
AcDbLine
 62
7
  6
CONTINUOUS
 10
199.2476638196
 20
127.5751446757
 11
199.2997472523
 21
127.7347192738
  0
LINE
  5
50D
100
AcDbEntity
  8
0
100
AcDbLine
 62
7
  6
CONTINUOUS
 10
200.7876635216
 20
131.9055702266
 11
200.8397472523
 21
132.0651446757
  0
LINE
  5
50E
100
AcDbEntity
  8
0
100
AcDbLine
 62
7
  6
CONTINUOUS
 10
201.1001635216
 20
131.8523787436
 11
201.1522472523
 21
132.0119531927
  0
LINE
  5
50F
100
AcDbEntity
  8
0
100
AcDbLine
 62
7
  6
CONTINUOUS
 10
200.4976638196
 20
127.3091872606
 11
200.5497472523
 21
127.4687617097
  0
LINE
  5
510
100
AcDbEntity
  8
0
100
AcDbLine
 62
7
  6
CONTINUOUS
 10
200.4976638196
 20
126.4049319747
 11
200.5497472523
 21
126.5645064238
  0
LINE
  5
511
100
AcDbEntity
  8
0
100
AcDbLine
 62
7
  6
CONTINUOUS
 10
198.9872472523
 20
127.6283361587
 11
199.0914138196
 21
127.8942937228
  0
LINE
  5
512
100
AcDbEntity
  8
0
100
AcDbLine
 62
7
  6
CONTINUOUS
 10
200.7059972523
 20
126.2453574884
 11
200.8101641176
 21
126.5113149408
  0
LINE
  5
513
100
AcDbEntity
  8
0
100
AcDbLine
 62
7
  6
CONTINUOUS
 10
195.8101639221
 20
127.7347192738
 11
195.9143305918
 21
127.9474852059
  0
LINE
  5
514
100
AcDbEntity
  8
0
100
AcDbLine
 62
7
  6
CONTINUOUS
 10
199.7497473596
 20
135.2319532389
 11
199.8622472523
 21
135.4617404858
  0
LINE
  5
515
100
AcDbEntity
  8
0
100
AcDbLine
 62
7
  6
CONTINUOUS
 10
197.3726639686
 20
126.1921660054
 11
197.4768305359
 21
126.4049319747
  0
LINE
  5
516
100
AcDbEntity
  8
0
100
AcDbLine
 62
7
  6
CONTINUOUS
 10
202.4497470377
 20
135.2319532389
 11
202.5622472523
 21
135.4617404858
  0
LINE
  5
517
100
AcDbEntity
  8
0
100
AcDbLine
 62
7
  6
CONTINUOUS
 10
195.9959972523
 20
132.1715276418
 11
196.1001641176
 21
132.3311022398
  0
LINE
  5
518
100
AcDbEntity
  8
0
100
AcDbLine
 62
7
  6
CONTINUOUS
 10
199.4122473596
 20
135.3468468824
 11
199.5247472523
 21
135.5191872874
  0
LINE
  5
519
100
AcDbEntity
  8
0
100
AcDbLine
 62
7
  6
CONTINUOUS
 10
196.0184972523
 20
127.5751446757
 11
196.2268305732
 21
127.8942937228
  0
LINE
  5
51A
100
AcDbEntity
  8
0
100
AcDbLine
 62
7
  6
CONTINUOUS
 10
197.1622472523
 20
136.2659957895
 11
197.3309972523
 21
136.4957829962
  0
LINE
  5
51B
100
AcDbEntity
  8
0
100
AcDbLine
 62
7
  6
CONTINUOUS
 10
195.0064141176
 20
131.6396128115
 11
195.1626641176
 21
131.8523787436
  0
LINE
  5
51C
100
AcDbEntity
  8
0
100
AcDbLine
 62
7
  6
CONTINUOUS
 10
195.0064141176
 20
130.5225915377
 11
195.1626641176
 21
130.7353574884
  0
LINE
  5
51D
100
AcDbEntity
  8
0
100
AcDbLine
 62
7
  6
CONTINUOUS
 10
196.8809971986
 20
136.4383361945
 11
196.9934972523
 21
136.5532297978
  0
LINE
  5
51E
100
AcDbEntity
  8
0
100
AcDbLine
 62
7
  6
CONTINUOUS
 10
194.7459972523
 20
131.7991872606
 11
194.8501641176
 21
131.9055702266
  0
LINE
  5
51F
100
AcDbEntity
  8
0
100
AcDbLine
 62
7
  6
CONTINUOUS
 10
195.7876641176
 20
132.4374852059
 11
195.9959972523
 21
132.650251138
  0
LINE
  5
520
100
AcDbEntity
  8
0
100
AcDbLine
 62
7
  6
CONTINUOUS
 10
178.7670610849
 20
156.0985754082
 11
178.3840824072
 21
156.0048257658
  0
LINE
  5
521
100
AcDbEntity
  8
0
100
AcDbLine
 62
7
  6
CONTINUOUS
 10
221.9538960035
 20
161.5857593507
 11
221.3495617753
 21
161.5857593507
  0
LINE
  5
522
100
AcDbEntity
  8
0
100
AcDbLine
 62
7
  6
CONTINUOUS
 10
218.5782804832
 20
161.5857593507
 11
217.9739462551
 21
161.5857593507
  0
LINE
  5
523
100
AcDbEntity
  8
0
100
AcDbLine
 62
7
  6
CONTINUOUS
 10
176.9479122315
 20
162.7548252294
 11
178.3840824072
 21
162.7548252294
  0
LINE
  5
524
100
AcDbEntity
  8
0
100
AcDbLine
 62
7
  6
CONTINUOUS
 10
178.3840824072
 20
163.3173252294
 11
176.9479122315
 21
163.3173252294
  0
LINE
  5
525
100
AcDbEntity
  8
0
100
AcDbLine
 62
7
  6
CONTINUOUS
 10
210.8659972523
 20
117.729825587
 11
210.8659972523
 21
122.029825587
  0
LINE
  5
526
100
AcDbEntity
  8
0
100
AcDbLine
 62
7
  6
CONTINUOUS
 10
210.8659972523
 20
142.429825587
 11
210.8659972523
 21
146.729825587
  0
LINE
  5
527
100
AcDbEntity
  8
RUNDUNGEN
100
AcDbLine
 62
7
  6
CONTINUOUS
 10
213.8659972523
 20
123.729825587
 11
213.8659972523
 21
140.729825587
  0
LINE
  5
528
100
AcDbEntity
  8
0
100
AcDbLine
 62
7
  6
CONTINUOUS
 10
206.3084972523
 20
132.2247192738
 11
206.360580983
 21
132.4374852059
  0
LINE
  5
529
100
AcDbEntity
  8
0
100
AcDbLine
 62
7
  6
CONTINUOUS
 10
206.6209972523
 20
132.1715276418
 11
206.673080983
 21
132.3311022398
  0
LINE
  5
52A
100
AcDbEntity
  8
0
100
AcDbLine
 62
7
  6
CONTINUOUS
 10
197.9976639686
 20
125.5006766516
 11
198.3101638196
 21
126.0857830394
  0
LINE
  5
52B
100
AcDbEntity
  8
0
100
AcDbLine
 62
7
  6
CONTINUOUS
 10
198.258080685
 20
125.5006766516
 11
198.570580685
 21
126.0857830394
  0
LINE
  5
52C
100
AcDbEntity
  8
0
100
AcDbLine
 62
7
  6
CONTINUOUS
 10
202.1122470377
 20
135.3468468824
 11
202.2247472523
 21
135.5191872874
  0
LINE
  5
52D
100
AcDbEntity
  8
0
100
AcDbLine
 62
7
  6
CONTINUOUS
 10
197.0601639686
 20
126.2453574884
 11
197.2684972523
 21
126.5645064238
  0
LINE
  5
52E
100
AcDbEntity
  8
0
100
AcDbLine
 62
7
  6
CONTINUOUS
 10
199.2997472523
 20
127.7347192738
 11
199.4039138196
 21
127.8942937228
  0
LINE
  5
52F
100
AcDbEntity
  8
0
100
AcDbLine
 62
7
  6
CONTINUOUS
 10
200.3934972523
 20
127.1496128115
 11
200.4976638196
 21
127.3091872606
  0
LINE
  5
530
100
AcDbEntity
  8
0
100
AcDbLine
 62
7
  6
CONTINUOUS
 10
200.9439135216
 20
131.6396128115
 11
201.1001635216
 21
131.8523787436
  0
LINE
  5
531
100
AcDbEntity
  8
0
100
AcDbLine
 62
7
  6
CONTINUOUS
 10
199.0914138196
 20
127.8942937228
 11
199.2476638196
 21
128.1070596549
  0
LINE
  5
532
100
AcDbEntity
  8
0
100
AcDbLine
 62
7
  6
CONTINUOUS
 10
194.7459972523
 20
130.6821660054
 11
194.8501641176
 21
130.7885490087
  0
LINE
  5
533
100
AcDbEntity
  8
0
100
AcDbLine
 62
7
  6
CONTINUOUS
 10
199.5247472523
 20
135.0021660121
 11
199.7497473596
 21
135.2319532389
  0
LINE
  5
534
100
AcDbEntity
  8
0
100
AcDbLine
 62
7
  6
CONTINUOUS
 10
197.4022472523
 20
130.4694000547
 11
197.6105803869
 21
130.6821660054
  0
LINE
  5
535
100
AcDbEntity
  8
0
100
AcDbLine
 62
7
  6
CONTINUOUS
 10
202.2247472523
 20
135.0021660121
 11
202.4497470377
 21
135.2319532389
  0
LINE
  5
536
100
AcDbEntity
  8
0
100
AcDbLine
 62
7
  6
CONTINUOUS
 10
195.9143305918
 20
127.9474852059
 11
196.0705805732
 21
128.1070596549
  0
LINE
  5
537
100
AcDbEntity
  8
0
100
AcDbLine
 62
7
  6
CONTINUOUS
 10
194.7980803869
 20
130.3630170747
 11
195.0064141176
 21
130.5225915377
  0
LINE
  5
538
100
AcDbEntity
  8
0
100
AcDbLine
 62
7
  6
CONTINUOUS
 10
199.2434973596
 20
135.2319532389
 11
199.4122473596
 21
135.3468468824
  0
LINE
  5
539
100
AcDbEntity
  8
0
100
AcDbLine
 62
7
  6
CONTINUOUS
 10
196.1001641176
 20
132.3311022398
 11
196.2564141176
 21
132.4374852059
  0
LINE
  5
53A
100
AcDbEntity
  8
0
100
AcDbLine
 62
7
  6
CONTINUOUS
 10
196.9372473059
 20
136.1511021862
 11
197.1622472523
 21
136.2659957895
  0
LINE
  5
53B
100
AcDbEntity
  8
0
100
AcDbLine
 62
7
  6
CONTINUOUS
 10
196.7122471986
 20
136.3808893928
 11
196.8809971986
 21
136.4383361945
  0
LINE
  5
53C
100
AcDbEntity
  8
0
100
AcDbLine
 62
7
  6
CONTINUOUS
 10
176.9479122315
 20
163.3173252294
 11
176.4691886161
 21
163.223575587
  0
LINE
  5
53D
100
AcDbEntity
  8
0
100
AcDbLine
 62
7
  6
CONTINUOUS
 10
220.2639211293
 20
164.5857593507
 11
219.6595869011
 21
164.5857593507
  0
LINE
  5
53E
100
AcDbEntity
  8
0
100
AcDbLine
 62
7
  6
CONTINUOUS
 10
221.9538960035
 20
164.9857593507
 11
221.3495617753
 21
164.9857593507
  0
LINE
  5
53F
100
AcDbEntity
  8
0
100
AcDbLine
 62
7
  6
CONTINUOUS
 10
218.5782804832
 20
164.9857593507
 11
217.9739462551
 21
164.9857593507
  0
LINE
  5
540
100
AcDbEntity
  8
RUNDUNGEN
100
AcDbLine
 62
7
  6
CONTINUOUS
 10
215.8659972523
 20
174.729825587
 11
215.8659972523
 21
141.6799305681
  0
LINE
  5
541
100
AcDbEntity
  8
0
100
AcDbLine
 62
7
  6
CONTINUOUS
 10
217.2202459412
 20
169.729825587
 11
217.2202459412
 21
144.729825587
  0
LINE
  5
542
100
AcDbEntity
  8
0
100
AcDbLine
 62
7
  6
CONTINUOUS
 10
205.579330983
 20
130.6821660054
 11
205.6834972523
 21
130.8949319747
  0
LINE
  5
543
100
AcDbEntity
  8
0
100
AcDbLine
 62
7
  6
CONTINUOUS
 10
207.9751635216
 20
130.6821660054
 11
208.079330983
 21
130.8949319747
  0
LINE
  5
544
100
AcDbEntity
  8
0
100
AcDbLine
 62
7
  6
CONTINUOUS
 10
200.3934972523
 20
126.2453574884
 11
200.4976638196
 21
126.4049319747
  0
LINE
  5
545
100
AcDbEntity
  8
0
100
AcDbLine
 62
7
  6
CONTINUOUS
 10
205.266830983
 20
130.7885490087
 11
205.3709972523
 21
130.9481234578
  0
LINE
  5
546
100
AcDbEntity
  8
0
100
AcDbLine
 62
7
  6
CONTINUOUS
 10
207.6626635216
 20
130.7885490087
 11
207.766830983
 21
130.9481234578
  0
LINE
  5
547
100
AcDbEntity
  8
0
100
AcDbLine
 62
7
  6
CONTINUOUS
 10
200.5497472523
 20
126.0325915377
 11
200.7059972523
 21
126.2453574884
  0
LINE
  5
548
100
AcDbEntity
  8
0
100
AcDbLine
 62
7
  6
CONTINUOUS
 10
200.6834972523
 20
131.7991872606
 11
200.7876635216
 21
131.9055702266
  0
LINE
  5
549
100
AcDbEntity
  8
0
100
AcDbLine
 62
7
  6
CONTINUOUS
 10
197.2164139686
 20
126.0325915377
 11
197.3726639686
 21
126.1921660054
  0
LINE
  5
54A
100
AcDbEntity
  8
0
100
AcDbLine
 62
7
  6
CONTINUOUS
 10
200.735580983
 20
131.4800383625
 11
200.9439135216
 21
131.6396128115
  0
LINE
  5
54B
100
AcDbEntity
  8
0
100
AcDbLine
 62
7
  6
CONTINUOUS
 10
201.9434970377
 20
135.2319532389
 11
202.1122470377
 21
135.3468468824
  0
LINE
  5
54C
100
AcDbEntity
  8
0
100
AcDbLine
 62
7
  6
CONTINUOUS
 10
197.1418303869
 20
130.6821660054
 11
197.2980803869
 21
130.7885490087
  0
LINE
  5
54D
100
AcDbEntity
  8
0
100
AcDbLine
 62
7
  6
CONTINUOUS
 10
196.2268305732
 20
127.8942937228
 11
196.3830806104
 21
128.0006766889
  0
LINE
  5
54E
100
AcDbEntity
  8
0
100
AcDbLine
 62
7
  6
CONTINUOUS
 10
196.0705805732
 20
128.1070596549
 11
196.3309972523
 21
128.266634104
  0
LINE
  5
54F
100
AcDbEntity
  8
0
100
AcDbLine
 62
7
  6
CONTINUOUS
 10
199.299747145
 20
134.8872723937
 11
199.5247472523
 21
135.0021660121
  0
LINE
  5
550
100
AcDbEntity
  8
0
100
AcDbLine
 62
7
  6
CONTINUOUS
 10
195.9959972523
 20
132.650251138
 11
196.2043303869
 21
132.756634104
  0
LINE
  5
551
100
AcDbEntity
  8
0
100
AcDbLine
 62
7
  6
CONTINUOUS
 10
194.9022472523
 20
131.5864213285
 11
195.0064141176
 21
131.6396128115
  0
LINE
  5
552
100
AcDbEntity
  8
0
100
AcDbLine
 62
7
  6
CONTINUOUS
 10
201.9997474669
 20
134.8872723937
 11
202.2247472523
 21
135.0021660121
  0
LINE
  5
553
100
AcDbEntity
  8
0
100
AcDbLine
 62
7
  6
CONTINUOUS
 10
197.1939141176
 20
130.3630170747
 11
197.4022472523
 21
130.4694000547
  0
LINE
  5
554
100
AcDbEntity
  8
0
100
AcDbLine
 62
7
  6
CONTINUOUS
 10
194.5897472523
 20
131.7459957776
 11
194.7459972523
 21
131.7991872606
  0
LINE
  5
555
100
AcDbEntity
  8
0
100
AcDbLine
 62
7
  6
CONTINUOUS
 10
194.5897472523
 20
130.6289745224
 11
194.7459972523
 21
130.6821660054
  0
LINE
  5
556
100
AcDbEntity
  8
0
100
AcDbLine
 62
7
  6
CONTINUOUS
 10
176.5649335537
 20
162.661075587
 11
176.9479122315
 21
162.7548252294
  0
LINE
  5
557
100
AcDbEntity
  8
0
100
AcDbLine
 62
7
  6
CONTINUOUS
 10
174.8659972523
 20
169.729825587
 11
180.5117485633
 21
169.729825587
  0
LINE
  5
558
100
AcDbEntity
  8
0
100
AcDbLine
 62
7
  6
CONTINUOUS
 10
217.2202459412
 20
169.729825587
 11
222.8659972523
 21
169.729825587
  0
LINE
  5
559
100
AcDbEntity
  8
0
100
AcDbLine
 62
7
  6
CONTINUOUS
 10
219.6595869011
 20
164.5857593507
 11
219.6595869011
 21
163.4192379723
  0
LINE
  5
55A
100
AcDbEntity
  8
0
100
AcDbLine
 62
7
  6
CONTINUOUS
 10
220.2639211293
 20
163.4182799176
 11
220.2639211293
 21
164.5857593507
  0
LINE
  5
55B
100
AcDbEntity
  8
0
100
AcDbLine
 62
7
  6
CONTINUOUS
 10
218.5650186782
 20
161.3430107377
 11
218.5782804832
 21
161.5857593507
  0
LINE
  5
55C
100
AcDbEntity
  8
0
100
AcDbLine
 62
7
  6
CONTINUOUS
 10
206.360580983
 20
132.4374852059
 11
206.5689135216
 21
132.650251138
  0
LINE
  5
55D
100
AcDbEntity
  8
0
100
AcDbLine
 62
7
  6
CONTINUOUS
 10
205.3709972523
 20
130.4694000547
 11
205.579330983
 21
130.6821660054
  0
LINE
  5
55E
100
AcDbEntity
  8
0
100
AcDbLine
 62
7
  6
CONTINUOUS
 10
207.766830983
 20
130.4694000547
 11
207.9751635216
 21
130.6821660054
  0
LINE
  5
55F
100
AcDbEntity
  8
0
100
AcDbLine
 62
7
  6
CONTINUOUS
 10
199.4039138196
 20
127.8942937228
 11
199.5601638196
 21
128.0006766889
  0
LINE
  5
560
100
AcDbEntity
  8
0
100
AcDbLine
 62
7
  6
CONTINUOUS
 10
196.9039138941
 20
126.1389745224
 11
197.0601639686
 21
126.2453574884
  0
LINE
  5
561
100
AcDbEntity
  8
0
100
AcDbLine
 62
7
  6
CONTINUOUS
 10
206.673080983
 20
132.3311022398
 11
206.829330983
 21
132.4374852059
  0
LINE
  5
562
100
AcDbEntity
  8
0
100
AcDbLine
 62
7
  6
CONTINUOUS
 10
205.110580983
 20
130.6821660054
 11
205.266830983
 21
130.7885490087
  0
LINE
  5
563
100
AcDbEntity
  8
0
100
AcDbLine
 62
7
  6
CONTINUOUS
 10
200.2372472523
 20
127.0432298455
 11
200.3934972523
 21
127.1496128115
  0
LINE
  5
564
100
AcDbEntity
  8
0
100
AcDbLine
 62
7
  6
CONTINUOUS
 10
200.289330685
 20
126.7772724304
 11
200.601830685
 21
126.9900383625
  0
LINE
  5
565
100
AcDbEntity
  8
0
100
AcDbLine
 62
7
  6
CONTINUOUS
 10
200.2372472523
 20
126.1389745224
 11
200.3934972523
 21
126.2453574884
  0
LINE
  5
566
100
AcDbEntity
  8
0
100
AcDbLine
 62
7
  6
CONTINUOUS
 10
207.5064135216
 20
130.6821660054
 11
207.6626635216
 21
130.7885490087
  0
LINE
  5
567
100
AcDbEntity
  8
0
100
AcDbLine
 62
7
  6
CONTINUOUS
 10
199.2476638196
 20
128.1070596549
 11
199.508080685
 21
128.266634104
  0
LINE
  5
568
100
AcDbEntity
  8
0
100
AcDbLine
 62
7
  6
CONTINUOUS
 10
196.9559972523
 20
125.8730170747
 11
197.2164139686
 21
126.0325915377
  0
LINE
  5
569
100
AcDbEntity
  8
0
100
AcDbLine
 62
7
  6
CONTINUOUS
 10
206.5689135216
 20
132.650251138
 11
206.7772472523
 21
132.756634104
  0
LINE
  5
56A
100
AcDbEntity
  8
0
100
AcDbLine
 62
7
  6
CONTINUOUS
 10
205.1626635216
 20
130.3630170747
 11
205.3709972523
 21
130.4694000547
  0
LINE
  5
56B
100
AcDbEntity
  8
0
100
AcDbLine
 62
7
  6
CONTINUOUS
 10
200.5272472523
 20
131.7459957776
 11
200.6834972523
 21
131.7991872606
  0
LINE
  5
56C
100
AcDbEntity
  8
0
100
AcDbLine
 62
7
  6
CONTINUOUS
 10
206.829330983
 20
132.4374852059
 11
206.985580983
 21
132.4906766889
  0
LINE
  5
56D
100
AcDbEntity
  8
0
100
AcDbLine
 62
7
  6
CONTINUOUS
 10
221.9606699074
 20
161.2788888516
 11
221.9538960035
 21
161.5857593507
  0
LINE
  5
56E
100
AcDbEntity
  8
0
100
AcDbLine
 62
7
  6
CONTINUOUS
 10
221.9606699074
 20
164.6788888516
 11
221.9538960035
 21
164.9857593507
  0
LINE
  5
56F
100
AcDbEntity
  8
0
100
AcDbLine
 62
7
  6
CONTINUOUS
 10
222.8659972523
 20
144.729825587
 11
222.8659972523
 21
169.729825587
  0
LINE
  5
570
100
AcDbEntity
  8
RUNDUNGEN
100
AcDbLine
 62
7
  6
CONTINUOUS
 10
224.8659972523
 20
135.729825587
 11
224.8659972523
 21
175.729825587
  0
LINE
  5
571
100
AcDbEntity
  8
0
100
AcDbLine
 62
7
  6
CONTINUOUS
 10
200.289330685
 20
125.8730170747
 11
200.5497472523
 21
126.0325915377
  0
LINE
  5
572
100
AcDbEntity
  8
0
100
AcDbLine
 62
7
  6
CONTINUOUS
 10
207.5584972523
 20
130.3630170747
 11
207.766830983
 21
130.4694000547
  0
LINE
  5
573
100
AcDbEntity
  8
0
100
AcDbLine
 62
7
  6
CONTINUOUS
 10
199.5601638196
 20
128.0006766889
 11
199.7164138196
 21
128.0538681719
  0
LINE
  5
574
100
AcDbEntity
  8
0
100
AcDbLine
 62
7
  6
CONTINUOUS
 10
200.0809972523
 20
126.9900383625
 11
200.2372472523
 21
127.0432298455
  0
LINE
  5
575
100
AcDbEntity
  8
0
100
AcDbLine
 62
7
  6
CONTINUOUS
 10
200.0809972523
 20
126.0857830394
 11
200.2372472523
 21
126.1389745224
  0
LINE
  5
576
100
AcDbEntity
  8
0
100
AcDbLine
 62
7
  6
CONTINUOUS
 10
223.2265275652
 20
176.0791182008
 11
216.1159972523
 21
192.0496307654
  0
LINE
  5
577
100
AcDbEntity
  8
BEZUGSACHSEN
100
AcDbLine
 62
7
  6
CONTINUOUS
 10
202.6159972523
 20
102.729825587
 11
203.8659972523
 21
103.979825587
  0
LINE
  5
578
100
AcDbEntity
  8
0
100
AcDbLine
 62
7
  6
CONTINUOUS
 10
216.1159972523
 20
192.0496307654
 11
198.8659972523
 21
199.729825587
  0
LWPOLYLINE
  5
579
100
AcDbEntity
  8
RUNDUNGEN
100
AcDbPolyline
 62
7
  6
CONTINUOUS
 90
3
 70
0
 10
129.7717595261
 20
28.8840631419
 10
130.2213368391
 20
28.8952634845
 10
131.2702379269
 20
28.9270103736
  0
LINE
  5
57A
100
AcDbEntity
  8
RUNDUNGEN
100
AcDbLine
 62
7
  6
CONTINUOUS
 10
128.7182906401
 20
28.8632302814
 11
129.7684886067
 21
28.8839870836
  0
LINE
  5
57B
100
AcDbEntity
  8
RUNDUNGEN
100
AcDbLine
 62
7
  6
CONTINUOUS
 10
105.7182906401
 20
28.8403243671
 11
118.7182906401
 21
28.8403243671
  0
LINE
  5
57C
100
AcDbEntity
  8
BEZUGSACHSEN
100
AcDbLine
 62
7
  6
CONTINUOUS
 10
103.310813352
 20
52.3403243671
 11
98.4033360639
 21
43.8403243671
  0
LINE
  5
57D
100
AcDbEntity
  8
BEZUGSACHSEN
100
AcDbLine
 62
7
  6
CONTINUOUS
 10
98.4033360639
 20
43.8403243671
 11
103.310813352
 21
35.3403243671
  0
LINE
  5
57E
100
AcDbEntity
  8
KONSTRUKTIONSELEMENTE
100
AcDbLine
 62
7
  6
CONTINUOUS
 10
100.8153265942
 20
45.0566111677
 11
100.6944900522
 21
44.18999503
  0
LINE
  5
57F
100
AcDbEntity
  8
KONSTRUKTIONSELEMENTE
100
AcDbLine
 62
7
  6
CONTINUOUS
 10
100.9881083167
 20
44.3699206366
 11
101.0837705744
 21
45.0559917111
  0
LINE
  5
580
100
AcDbEntity
  8
KONSTRUKTIONSELEMENTE
100
AcDbLine
 62
7
  6
CONTINUOUS
 10
101.8739981089
 20
44.945806407
 11
101.7783358512
 21
44.2597353324
  0
LINE
  5
581
100
AcDbEntity
  8
KONSTRUKTIONSELEMENTE
100
AcDbLine
 62
7
  6
CONTINUOUS
 10
102.094426806
 20
44.215661219
 11
102.1800193543
 21
44.8295142993
  0
LINE
  5
582
100
AcDbEntity
  8
KONSTRUKTIONSELEMENTE
100
AcDbLine
 62
7
  6
CONTINUOUS
 10
100.8931827044
 20
45.2298105453
 11
100.8153265942
 21
45.0566111677
  0
LINE
  5
583
100
AcDbEntity
  8
KONSTRUKTIONSELEMENTE
100
AcDbLine
 62
7
  6
CONTINUOUS
 10
101.8154982
 20
47.8007426656
 11
101.7170799754
 21
47.6053829575
  0
LINE
  5
584
100
AcDbEntity
  8
KONSTRUKTIONSELEMENTE
100
AcDbLine
 62
7
  6
CONTINUOUS
 10
101.3234070772
 20
46.8239441248
 11
101.2249888057
 21
46.6285843235
  0
LINE
  5
585
100
AcDbEntity
  8
KONSTRUKTIONSELEMENTE
100
AcDbLine
 62
7
  6
CONTINUOUS
 10
101.0837705744
 20
45.0559917111
 11
101.1515569679
 21
45.1569730428
  0
LINE
  5
586
100
AcDbEntity
  8
KONSTRUKTIONSELEMENTE
100
AcDbLine
 62
7
  6
CONTINUOUS
 10
103.1090361898
 20
49.3327542796
 11
102.4800809435
 21
48.7244449025
  0
LINE
  5
587
100
AcDbEntity
  8
KONSTRUKTIONSELEMENTE
100
AcDbLine
 62
7
  6
CONTINUOUS
 10
102.8591954893
 20
48.6471161053
 11
103.330911924
 21
49.1033481381
  0
LINE
  5
588
100
AcDbEntity
  8
KONSTRUKTIONSELEMENTE
100
AcDbLine
 62
7
  6
CONTINUOUS
 10
103.2770479218
 20
49.4212511396
 11
103.1090361898
 21
49.3327542796
  0
LINE
  5
589
100
AcDbEntity
  8
0
100
AcDbLine
 62
7
  6
CONTINUOUS
 10
93.2537617053
 20
34.6269906364
 11
93.8812943333
 21
34.6269906364
  0
LINE
  5
58A
100
AcDbEntity
  8
0
100
AcDbLine
 62
7
  6
CONTINUOUS
 10
93.1774338162
 20
34.7311580978
 11
93.8009465619
 21
34.7311580978
  0
LINE
  5
58B
100
AcDbEntity
  8
0
100
AcDbLine
 62
7
  6
CONTINUOUS
 10
93.1397679011
 20
34.7832406364
 11
93.7613163449
 21
34.7832406364
  0
LINE
  5
58C
100
AcDbEntity
  8
0
100
AcDbLine
 62
7
  6
CONTINUOUS
 10
93.1024286006
 20
34.8353243671
 11
93.7220422682
 21
34.8353243671
  0
LINE
  5
58D
100
AcDbEntity
  8
0
100
AcDbLine
 62
7
  6
CONTINUOUS
 10
92.9923477109
 20
34.9915743671
 11
93.6063286422
 21
34.9915743671
  0
LINE
  5
58E
100
AcDbEntity
  8
KONSTRUKTIONSELEMENTE
100
AcDbLine
 62
7
  6
CONTINUOUS
 10
101.8364208509
 20
45.0614791098
 11
101.8739981089
 21
44.945806407
  0
LINE
  5
58F
100
AcDbEntity
  8
KONSTRUKTIONSELEMENTE
100
AcDbLine
 62
7
  6
CONTINUOUS
 10
104.6976945085
 20
48.0572720277
 11
104.6930337067
 21
47.9047646149
  0
LINE
  5
590
100
AcDbEntity
  8
KONSTRUKTIONSELEMENTE
100
AcDbLine
 62
7
  6
CONTINUOUS
 10
103.5188169735
 20
46.4527639191
 11
103.5007086672
 21
46.2985925713
  0
LINE
  5
591
100
AcDbEntity
  8
KONSTRUKTIONSELEMENTE
100
AcDbLine
 62
7
  6
CONTINUOUS
 10
103.1705361599
 20
43.844747767
 11
103.2007452954
 21
44.0614018014
  0
LINE
  5
592
100
AcDbEntity
  8
KONSTRUKTIONSELEMENTE
100
AcDbLine
 62
7
  6
CONTINUOUS
 10
103.3266166886
 20
44.9641269104
 11
103.3618606896
 21
45.2168900194
  0
LINE
  5
593
100
AcDbEntity
  8
KONSTRUKTIONSELEMENTE
100
AcDbLine
 62
7
  6
CONTINUOUS
 10
104.941116132
 20
47.7007048674
 11
104.9719833187
 21
47.8785583908
  0
LINE
  5
594
100
AcDbEntity
  8
KONSTRUKTIONSELEMENTE
100
AcDbLine
 62
7
  6
CONTINUOUS
 10
103.7857319489
 20
46.1550036726
 11
103.8202432259
 21
46.3417348497
  0
LINE
  5
595
100
AcDbEntity
  8
KONSTRUKTIONSELEMENTE
100
AcDbLine
 62
7
  6
CONTINUOUS
 10
104.6930337067
 20
47.9047646149
 11
104.6251872213
 21
47.7651454585
  0
LINE
  5
596
100
AcDbEntity
  8
KONSTRUKTIONSELEMENTE
100
AcDbLine
 62
7
  6
CONTINUOUS
 10
103.5007086672
 20
46.2985925713
 11
103.4350964862
 21
46.1683527037
  0
LINE
  5
597
100
AcDbEntity
  8
KONSTRUKTIONSELEMENTE
100
AcDbLine
 62
7
  6
CONTINUOUS
 10
103.720119768
 20
46.024763805
 11
103.7857319489
 21
46.1550036726
  0
LINE
  5
598
100
AcDbEntity
  8
KONSTRUKTIONSELEMENTE
100
AcDbLine
 62
7
  6
CONTINUOUS
 10
104.8470629814
 20
47.5357392903
 11
104.941116132
 21
47.7007048674
  0
LINE
  5
599
100
AcDbEntity
  8
KONSTRUKTIONSELEMENTE
100
AcDbLine
 62
7
  6
CONTINUOUS
 10
103.5906007332
 20
45.8858955928
 11
103.720119768
 21
46.024763805
  0
LINE
  5
59A
100
AcDbEntity
  8
KONSTRUKTIONSELEMENTE
100
AcDbLine
 62
7
  6
CONTINUOUS
 10
104.6251872213
 20
47.7651454585
 11
104.1534707866
 21
47.3089134258
  0
LINE
  5
59B
100
AcDbEntity
  8
KONSTRUKTIONSELEMENTE
100
AcDbLine
 62
7
  6
CONTINUOUS
 10
104.2181077351
 20
46.9274299132
 11
104.8470629814
 21
47.5357392903
  0
LINE
  5
59C
100
AcDbEntity
  8
KONSTRUKTIONSELEMENTE
100
AcDbLine
 62
7
  6
CONTINUOUS
 10
103.4350964862
 20
46.1683527037
 11
103.3219805244
 21
46.0620445028
  0
LINE
  5
59D
100
AcDbEntity
  8
KONSTRUKTIONSELEMENTE
100
AcDbLine
 62
7
  6
CONTINUOUS
 10
101.0713676007
 20
45.352209477
 11
100.8931827044
 21
45.2298105453
  0
LINE
  5
59E
100
AcDbEntity
  8
KONSTRUKTIONSELEMENTE
100
AcDbLine
 62
7
  6
CONTINUOUS
 10
103.330911924
 20
49.1033481381
 11
103.4727169874
 21
49.1664985806
  0
LINE
  5
59F
100
AcDbEntity
  8
0
100
AcDbLine
 62
7
  6
CONTINUOUS
 10
92.8499882387
 20
35.1999080978
 11
93.4568385771
 21
35.1999080978
  0
LINE
  5
5A0
100
AcDbEntity
  8
BEZUGSACHSEN
100
AcDbLine
 62
7
  6
CONTINUOUS
 10
103.310813352
 20
35.3403243671
 11
113.1257679282
 21
35.3403243671
  0
LINE
  5
5A1
100
AcDbEntity
  8
0
100
AcDbLine
 62
7
  6
CONTINUOUS
 10
92.6789041515
 20
35.4603243671
 11
93.2774064271
 21
35.4603243671
  0
LINE
  5
5A2
100
AcDbEntity
  8
0
100
AcDbLine
 62
7
  6
CONTINUOUS
 10
92.5151713102
 20
35.7207406364
 11
93.1059014913
 21
35.7207406364
  0
LINE
  5
5A3
100
AcDbEntity
  8
0
100
AcDbLine
 62
7
  6
CONTINUOUS
 10
92.3892950501
 20
35.9290743671
 11
92.9741891246
 21
35.9290743671
  0
LINE
  5
5A4
100
AcDbEntity
  8
0
100
AcDbLine
 62
7
  6
CONTINUOUS
 10
92.267822955
 20
36.1374080978
 11
92.8471958557
 21
36.1374080978
  0
LINE
  5
5A5
100
AcDbEntity
  8
0
100
AcDbLine
 62
7
  6
CONTINUOUS
 10
92.1506373904
 20
36.3457406364
 11
92.7247840039
 21
36.3457406364
  0
LINE
  5
5A6
100
AcDbEntity
  8
0
100
AcDbLine
 62
7
  6
CONTINUOUS
 10
92.1219972573
 20
36.3978243671
 11
92.6948811883
 21
36.3978243671
  0
LINE
  5
5A7
100
AcDbEntity
  8
0
100
AcDbLine
 62
7
  6
CONTINUOUS
 10
92.0376268792
 20
36.5540743671
 11
92.6068238672
 21
36.5540743671
  0
LINE
  5
5A8
100
AcDbEntity
  8
0
100
AcDbLine
 62
7
  6
CONTINUOUS
 10
91.8237298566
 20
36.9707406364
 11
92.383793298
 21
36.9707406364
  0
LINE
  5
5A9
100
AcDbEntity
  8
0
100
AcDbLine
 62
7
  6
CONTINUOUS
 10
91.6735530865
 20
37.2832406364
 11
92.2273806282
 21
37.2832406364
  0
LINE
  5
5AA
100
AcDbEntity
  8
0
100
AcDbLine
 62
7
  6
CONTINUOUS
 10
91.6493541131
 20
37.3353243671
 11
92.202190056
 21
37.3353243671
  0
LINE
  5
5AB
100
AcDbEntity
  8
KONSTRUKTIONSELEMENTE
100
AcDbLine
 62
7
  6
CONTINUOUS
 10
102.1048648454
 20
45.0608597565
 11
102.0196406127
 21
45.2199871162
  0
LINE
  5
5AC
100
AcDbEntity
  8
KONSTRUKTIONSELEMENTE
100
AcDbLine
 62
7
  6
CONTINUOUS
 10
103.473018303
 20
46.5983067506
 11
103.5188169735
 21
46.4527639191
  0
LINE
  5
5AD
100
AcDbEntity
  8
KONSTRUKTIONSELEMENTE
100
AcDbLine
 62
7
  6
CONTINUOUS
 10
103.8202432259
 20
46.3417348497
 11
103.7908476449
 21
46.5198376842
  0
LINE
  5
5AE
100
AcDbEntity
  8
KONSTRUKTIONSELEMENTE
100
AcDbLine
 62
7
  6
CONTINUOUS
 10
108.4682179154
 20
51.3560817223
 11
108.0100956421
 21
49.1021646091
  0
LINE
  5
5AF
100
AcDbEntity
  8
KONSTRUKTIONSELEMENTE
100
AcDbLine
 62
7
  6
CONTINUOUS
 10
108.1663301321
 20
48.8421807772
 11
108.5985371953
 21
50.8289070241
  0
LINE
  5
5B0
100
AcDbEntity
  8
KONSTRUKTIONSELEMENTE
100
AcDbLine
 62
7
  6
CONTINUOUS
 10
106.4862398325
 20
46.8403243671
 11
104.754189025
 21
43.8403243671
  0
LINE
  5
5B1
100
AcDbEntity
  8
KONSTRUKTIONSELEMENTE
100
AcDbLine
 62
7
  6
CONTINUOUS
 10
110.7305805258
 20
50.1416637422
 11
110.577435504
 21
49.9211889852
  0
LINE
  5
5B2
100
AcDbEntity
  8
KONSTRUKTIONSELEMENTE
100
AcDbLine
 62
7
  6
CONTINUOUS
 10
110.8354644359
 20
50.2673325454
 11
110.7305805258
 21
50.1416637422
  0
LINE
  5
5B3
100
AcDbEntity
  8
KONSTRUKTIONSELEMENTE
100
AcDbLine
 62
7
  6
CONTINUOUS
 10
109.9831115504
 20
51.1297281256
 11
109.6828887287
 21
50.819316819
  0
LINE
  5
5B4
100
AcDbEntity
  8
KONSTRUKTIONSELEMENTE
100
AcDbLine
 62
7
  6
CONTINUOUS
 10
109.5827570227
 20
50.4057335315
 11
109.8829798795
 21
50.7161449829
  0
LINE
  5
5B5
100
AcDbEntity
  8
KONSTRUKTIONSELEMENTE
100
AcDbLine
 62
7
  6
CONTINUOUS
 10
110.9969694542
 20
50.423864557
 11
110.8354644359
 21
50.2673325454
  0
LINE
  5
5B6
100
AcDbEntity
  8
KONSTRUKTIONSELEMENTE
100
AcDbLine
 62
7
  6
CONTINUOUS
 10
110.8930345717
 20
50.0589646639
 11
111.1677827527
 21
50.2772231119
  0
LINE
  5
5B7
100
AcDbEntity
  8
KONSTRUKTIONSELEMENTE
100
AcDbLine
 62
7
  6
CONTINUOUS
 10
111.1668344688
 20
50.5164538233
 11
110.9969694542
 21
50.423864557
  0
LINE
  5
5B8
100
AcDbEntity
  8
KONSTRUKTIONSELEMENTE
100
AcDbLine
 62
7
  6
CONTINUOUS
 10
103.4299807903
 20
45.8035186921
 11
103.5906007332
 21
45.8858955928
  0
LINE
  5
5B9
100
AcDbEntity
  8
KONSTRUKTIONSELEMENTE
100
AcDbLine
 62
7
  6
CONTINUOUS
 10
101.1515569679
 20
45.1569730428
 11
101.2669903361
 21
45.2144997175
  0
LINE
  5
5BA
100
AcDbEntity
  8
KONSTRUKTIONSELEMENTE
100
AcDbLine
 62
7
  6
CONTINUOUS
 10
101.2971994717
 20
45.431153752
 11
101.0713676007
 21
45.352209477
  0
LINE
  5
5BB
100
AcDbEntity
  8
KONSTRUKTIONSELEMENTE
100
AcDbLine
 62
7
  6
CONTINUOUS
 10
103.3219805244
 20
46.0620445028
 11
103.1777636293
 21
46.0122276261
  0
LINE
  5
5BC
100
AcDbEntity
  8
KONSTRUKTIONSELEMENTE
100
AcDbLine
 62
7
  6
CONTINUOUS
 10
111.1677827527
 20
50.2772231119
 11
111.3135168058
 21
50.3224095243
  0
LINE
  5
5BD
100
AcDbEntity
  8
KONSTRUKTIONSELEMENTE
100
AcDbLine
 62
7
  6
CONTINUOUS
 10
110.9395744352
 20
48.5430980382
 11
110.7938403821
 21
48.4979116259
  0
LINE
  5
5BE
100
AcDbEntity
  8
0
100
AcDbLine
 62
7
  6
CONTINUOUS
 10
91.6016576296
 20
37.4394906364
 11
92.152549689
 21
37.4394906364
  0
LINE
  5
5BF
100
AcDbEntity
  8
0
100
AcDbLine
 62
7
  6
CONTINUOUS
 10
91.5318473215
 20
37.5957406364
 11
92.0799192553
 21
37.5957406364
  0
LINE
  5
5C0
100
AcDbEntity
  8
0
100
AcDbLine
 62
7
  6
CONTINUOUS
 10
91.4419575697
 20
37.8040743671
 11
91.9864413132
 21
37.8040743671
  0
LINE
  5
5C1
100
AcDbEntity
  8
0
100
AcDbLine
 62
7
  6
CONTINUOUS
 10
91.3556518868
 20
38.0124080978
 11
91.8967353022
 21
38.0124080978
  0
LINE
  5
5C2
100
AcDbEntity
  8
0
100
AcDbLine
 62
7
  6
CONTINUOUS
 10
91.2728664963
 20
38.2207406364
 11
91.8107287152
 21
38.2207406364
  0
LINE
  5
5C3
100
AcDbEntity
  8
0
100
AcDbLine
 62
7
  6
CONTINUOUS
 10
91.2130507404
 20
38.3769906364
 11
91.7486097365
 21
38.3769906364
  0
LINE
  5
5C4
100
AcDbEntity
  8
0
100
AcDbLine
 62
7
  6
CONTINUOUS
 10
91.1742424795
 20
38.4811580978
 11
91.7083178743
 21
38.4811580978
  0
LINE
  5
5C5
100
AcDbEntity
  8
0
100
AcDbLine
 62
7
  6
CONTINUOUS
 10
91.1551569706
 20
38.5332406364
 11
91.6885058137
 21
38.5332406364
  0
LINE
  5
5C6
100
AcDbEntity
  8
0
100
AcDbLine
 62
7
  6
CONTINUOUS
 10
91.0450451451
 20
38.8457406364
 11
91.5742412427
 21
38.8457406364
  0
LINE
  5
5C7
100
AcDbEntity
  8
0
100
AcDbLine
 62
7
  6
CONTINUOUS
 10
90.9097565252
 20
39.2624080978
 11
91.4339396702
 21
39.2624080978
  0
LINE
  5
5C8
100
AcDbEntity
  8
KONSTRUKTIONSELEMENTE
100
AcDbLine
 62
7
  6
CONTINUOUS
 10
102.0196406127
 20
45.2199871162
 11
101.8240178772
 21
45.3576968757
  0
LINE
  5
5C9
100
AcDbEntity
  8
KONSTRUKTIONSELEMENTE
100
AcDbLine
 62
7
  6
CONTINUOUS
 10
101.7411269159
 20
45.1483885268
 11
101.8364208509
 21
45.0614791098
  0
LINE
  5
5CA
100
AcDbEntity
  8
KONSTRUKTIONSELEMENTE
100
AcDbLine
 62
7
  6
CONTINUOUS
 10
103.3633127223
 20
46.7352210322
 11
103.473018303
 21
46.5983067506
  0
LINE
  5
5CB
100
AcDbEntity
  8
KONSTRUKTIONSELEMENTE
100
AcDbLine
 62
7
  6
CONTINUOUS
 10
104.754189025
 20
43.8403243671
 11
106.4862398325
 21
40.8403243671
  0
LINE
  5
5CC
100
AcDbEntity
  8
KONSTRUKTIONSELEMENTE
100
AcDbLine
 62
7
  6
CONTINUOUS
 10
103.7908476449
 20
46.5198376842
 11
103.6664443103
 21
46.7458034814
  0
LINE
  5
5CD
100
AcDbEntity
  8
KONSTRUKTIONSELEMENTE
100
AcDbLine
 62
7
  6
CONTINUOUS
 10
104.6391696786
 20
48.2226676432
 11
104.6976945085
 21
48.0572720277
  0
LINE
  5
5CE
100
AcDbEntity
  8
KONSTRUKTIONSELEMENTE
100
AcDbLine
 62
7
  6
CONTINUOUS
 10
104.9719833187
 20
47.8785583908
 11
104.928891924
 21
48.1328806313
  0
LINE
  5
5CF
100
AcDbEntity
  8
KONSTRUKTIONSELEMENTE
100
AcDbLine
 62
7
  6
CONTINUOUS
 10
107.0474546141
 20
51.2998664442
 11
107.1462946635
 21
48.8018210794
  0
LINE
  5
5D0
100
AcDbEntity
  8
KONSTRUKTIONSELEMENTE
100
AcDbLine
 62
7
  6
CONTINUOUS
 10
107.364873633
 20
48.8104695837
 11
107.2870633788
 21
50.7770159981
  0
LINE
  5
5D1
100
AcDbEntity
  8
KONSTRUKTIONSELEMENTE
100
AcDbLine
 62
7
  6
CONTINUOUS
 10
108.5985371953
 20
50.8289070241
 11
108.6763474495
 21
48.8623606097
  0
LINE
  5
5D2
100
AcDbEntity
  8
KONSTRUKTIONSELEMENTE
100
AcDbLine
 62
7
  6
CONTINUOUS
 10
108.8949264189
 20
48.871009114
 11
108.7960863695
 21
51.3690544788
  0
LINE
  5
5D3
100
AcDbEntity
  8
KONSTRUKTIONSELEMENTE
100
AcDbLine
 62
7
  6
CONTINUOUS
 10
110.2321902964
 20
49.0822609977
 11
110.2006476055
 21
48.8595701445
  0
LINE
  5
5D4
100
AcDbEntity
  8
KONSTRUKTIONSELEMENTE
100
AcDbLine
 62
7
  6
CONTINUOUS
 10
109.6828887287
 20
50.819316819
 11
109.5827570227
 21
50.4057335315
  0
LINE
  5
5D5
100
AcDbEntity
  8
KONSTRUKTIONSELEMENTE
100
AcDbLine
 62
7
  6
CONTINUOUS
 10
109.8829798795
 20
50.7161449829
 11
109.3948379136
 21
48.6999268728
  0
LINE
  5
5D6
100
AcDbEntity
  8
KONSTRUKTIONSELEMENTE
100
AcDbLine
 62
7
  6
CONTINUOUS
 10
109.6074455232
 20
48.6484529295
 11
110.19571916
 21
51.0782541824
  0
LINE
  5
5D7
100
AcDbEntity
  8
KONSTRUKTIONSELEMENTE
100
AcDbLine
 62
7
  6
CONTINUOUS
 10
110.2720922231
 20
49.2410094509
 11
110.2321902964
 21
49.0822609977
  0
LINE
  5
5D8
100
AcDbEntity
  8
KONSTRUKTIONSELEMENTE
100
AcDbLine
 62
7
  6
CONTINUOUS
 10
110.3602568502
 20
49.4945632998
 11
110.2720922231
 21
49.2410094509
  0
LINE
  5
5D9
100
AcDbEntity
  8
KONSTRUKTIONSELEMENTE
100
AcDbLine
 62
7
  6
CONTINUOUS
 10
110.4345462689
 20
49.1583103726
 11
110.5468411139
 21
49.459267454
  0
LINE
  5
5DA
100
AcDbEntity
  8
KONSTRUKTIONSELEMENTE
100
AcDbLine
 62
7
  6
CONTINUOUS
 10
110.577435504
 20
49.9211889852
 11
110.3602568502
 21
49.4945632998
  0
LINE
  5
5DB
100
AcDbEntity
  8
KONSTRUKTIONSELEMENTE
100
AcDbLine
 62
7
  6
CONTINUOUS
 10
110.5468411139
 20
49.459267454
 11
110.7157578446
 21
49.7910874316
  0
LINE
  5
5DC
100
AcDbEntity
  8
KONSTRUKTIONSELEMENTE
100
AcDbLine
 62
7
  6
CONTINUOUS
 10
111.5605160571
 20
49.361053663
 11
111.3915993264
 21
49.0292336854
  0
LINE
  5
5DD
100
AcDbEntity
  8
KONSTRUKTIONSELEMENTE
100
AcDbLine
 62
7
  6
CONTINUOUS
 10
111.5299224107
 20
48.8991317532
 11
111.7471010644
 21
49.3257574386
  0
LINE
  5
5DE
100
AcDbEntity
  8
KONSTRUKTIONSELEMENTE
100
AcDbLine
 62
7
  6
CONTINUOUS
 10
110.7157578446
 20
49.7910874316
 11
110.8930345717
 21
50.0589646639
  0
LINE
  5
5DF
100
AcDbEntity
  8
KONSTRUKTIONSELEMENTE
100
AcDbLine
 62
7
  6
CONTINUOUS
 10
111.3915993264
 20
49.0292336854
 11
111.2143233092
 21
48.7613560082
  0
LINE
  5
5E0
100
AcDbEntity
  8
KONSTRUKTIONSELEMENTE
100
AcDbLine
 62
7
  6
CONTINUOUS
 10
111.3767766114
 20
48.6786573084
 11
111.5299224107
 21
48.8991317532
  0
LINE
  5
5E1
100
AcDbEntity
  8
KONSTRUKTIONSELEMENTE
100
AcDbLine
 62
7
  6
CONTINUOUS
 10
111.2718927689
 20
48.552988638
 11
111.3767766114
 21
48.6786573084
  0
LINE
  5
5E2
100
AcDbEntity
  8
KONSTRUKTIONSELEMENTE
100
AcDbLine
 62
7
  6
CONTINUOUS
 10
111.1103877338
 20
48.3964565932
 11
111.2718927689
 21
48.552988638
  0
LINE
  5
5E3
100
AcDbEntity
  8
KONSTRUKTIONSELEMENTE
100
AcDbLine
 62
7
  6
CONTINUOUS
 10
111.2143233092
 20
48.7613560082
 11
110.9395744352
 21
48.5430980382
  0
LINE
  5
5E4
100
AcDbEntity
  8
KONSTRUKTIONSELEMENTE
100
AcDbLine
 62
7
  6
CONTINUOUS
 10
110.9405227107
 20
48.3038673103
 11
111.1103877338
 21
48.3964565932
  0
LINE
  5
5E5
100
AcDbEntity
  8
0
100
AcDbLine
 62
7
  6
CONTINUOUS
 10
90.6793829218
 20
40.0878245817
 11
91.1952487631
 21
40.0878245817
  0
LINE
  5
5E6
100
AcDbEntity
  8
0
100
AcDbLine
 62
7
  6
CONTINUOUS
 10
90.6654591477
 20
40.1440743671
 11
91.1808308917
 21
40.1440743671
  0
LINE
  5
5E7
100
AcDbEntity
  8
0
100
AcDbLine
 62
7
  6
CONTINUOUS
 10
90.6382794506
 20
40.2565745817
 11
91.152689469
 21
40.2565745817
  0
LINE
  5
5E8
100
AcDbEntity
  8
0
100
AcDbLine
 62
7
  6
CONTINUOUS
 10
90.5865756534
 20
40.4815743671
 11
91.0991662327
 21
40.4815743671
  0
LINE
  5
5E9
100
AcDbEntity
  8
0
100
AcDbLine
 62
7
  6
CONTINUOUS
 10
90.538382551
 20
40.7065741525
 11
91.0492889838
 21
40.7065741525
  0
LINE
  5
5EA
100
AcDbEntity
  8
KONSTRUKTIONSELEMENTE
100
AcDbLine
 62
7
  6
CONTINUOUS
 10
106.4862398325
 20
40.8403243671
 11
109.9503414477
 21
40.8403243671
  0
LINE
  5
5EB
100
AcDbEntity
  8
0
100
AcDbLine
 62
7
  6
CONTINUOUS
 10
90.4830274737
 20
40.9878243671
 11
90.9920133186
 21
40.9878243671
  0
LINE
  5
5EC
100
AcDbEntity
  8
KONSTRUKTIONSELEMENTE
100
AcDbLine
 62
7
  6
CONTINUOUS
 10
101.5881162896
 20
45.2065345548
 11
101.7411269159
 21
45.1483885268
  0
LINE
  5
5ED
100
AcDbEntity
  8
KONSTRUKTIONSELEMENTE
100
AcDbLine
 62
7
  6
CONTINUOUS
 10
101.8240178772
 20
45.3576968757
 11
101.671007251
 21
45.4158429037
  0
LINE
  5
5EE
100
AcDbEntity
  8
KONSTRUKTIONSELEMENTE
100
AcDbLine
 62
7
  6
CONTINUOUS
 10
101.2249888057
 20
46.6285843235
 11
102.6976091224
 21
45.886708333
  0
LINE
  5
5EF
100
AcDbEntity
  8
KONSTRUKTIONSELEMENTE
100
AcDbLine
 62
7
  6
CONTINUOUS
 10
103.5092348216
 20
46.9066492601
 11
103.2881185166
 21
47.0588666751
  0
LINE
  5
5F0
100
AcDbEntity
  8
KONSTRUKTIONSELEMENTE
100
AcDbLine
 62
7
  6
CONTINUOUS
 10
103.1897002921
 20
46.863506967
 11
103.3633127223
 21
46.7352210322
  0
LINE
  5
5F1
100
AcDbEntity
  8
KONSTRUKTIONSELEMENTE
100
AcDbLine
 62
7
  6
CONTINUOUS
 10
103.6664443103
 20
46.7458034814
 11
103.5092348216
 21
46.9066492601
  0
LINE
  5
5F2
100
AcDbEntity
  8
KONSTRUKTIONSELEMENTE
100
AcDbLine
 62
7
  6
CONTINUOUS
 10
102.4800809435
 20
48.7244449025
 11
104.2181077351
 21
46.9274299132
  0
LINE
  5
5F3
100
AcDbEntity
  8
KONSTRUKTIONSELEMENTE
100
AcDbLine
 62
7
  6
CONTINUOUS
 10
104.1534707866
 20
47.3089134258
 11
102.8591954893
 21
48.6471161053
  0
LINE
  5
5F4
100
AcDbEntity
  8
KONSTRUKTIONSELEMENTE
100
AcDbLine
 62
7
  6
CONTINUOUS
 10
104.8333877792
 20
48.3365106306
 11
104.6746977026
 21
48.5530285425
  0
LINE
  5
5F5
100
AcDbEntity
  8
KONSTRUKTIONSELEMENTE
100
AcDbLine
 62
7
  6
CONTINUOUS
 10
104.5174588911
 20
48.4009511982
 11
104.6391696786
 21
48.2226676432
  0
LINE
  5
5F6
100
AcDbEntity
  8
KONSTRUKTIONSELEMENTE
100
AcDbLine
 62
7
  6
CONTINUOUS
 10
104.928891924
 20
48.1328806313
 11
104.8333877792
 21
48.3365106306
  0
LINE
  5
5F7
100
AcDbEntity
  8
KONSTRUKTIONSELEMENTE
100
AcDbLine
 62
7
  6
CONTINUOUS
 10
107.2870633788
 20
50.7770159981
 11
107.8748909503
 21
48.8306494162
  0
LINE
  5
5F8
100
AcDbEntity
  8
KONSTRUKTIONSELEMENTE
100
AcDbLine
 62
7
  6
CONTINUOUS
 10
110.4197228271
 20
48.8077344074
 11
110.4345462689
 21
49.1583103726
  0
LINE
  5
5F9
100
AcDbEntity
  8
KONSTRUKTIONSELEMENTE
100
AcDbLine
 62
7
  6
CONTINUOUS
 10
111.6876343608
 20
50.0125867428
 11
111.672811612
 21
49.6620102994
  0
LINE
  5
5FA
100
AcDbEntity
  8
KONSTRUKTIONSELEMENTE
100
AcDbLine
 62
7
  6
CONTINUOUS
 10
111.8751669084
 20
49.7380601857
 11
111.9067095824
 21
49.9607510056
  0
LINE
  5
5FB
100
AcDbEntity
  8
KONSTRUKTIONSELEMENTE
100
AcDbLine
 62
7
  6
CONTINUOUS
 10
111.8352649141
 20
49.5793115997
 11
111.8751669084
 21
49.7380601857
  0
LINE
  5
5FC
100
AcDbEntity
  8
KONSTRUKTIONSELEMENTE
100
AcDbLine
 62
7
  6
CONTINUOUS
 10
111.7471010644
 20
49.3257574386
 11
111.8352649141
 21
49.5793115997
  0
LINE
  5
5FD
100
AcDbEntity
  8
KONSTRUKTIONSELEMENTE
100
AcDbLine
 62
7
  6
CONTINUOUS
 10
111.672811612
 20
49.6620102994
 11
111.5605160571
 21
49.361053663
  0
LINE
  5
5FE
100
AcDbEntity
  8
KONSTRUKTIONSELEMENTE
100
AcDbLine
 62
7
  6
CONTINUOUS
 10
109.9503414477
 20
40.8403243671
 11
111.6823922552
 21
43.8403243671
  0
LINE
  5
5FF
100
AcDbEntity
  8
0
100
AcDbLine
 62
7
  6
CONTINUOUS
 10
90.2912853004
 20
42.3378243671
 11
90.7937305544
 21
42.3378243671
  0
LINE
  5
600
100
AcDbEntity
  8
0
100
AcDbLine
 62
7
  6
CONTINUOUS
 10
90.2540660063
 20
42.7878242598
 11
90.7552614172
 21
42.7878242598
  0
LINE
  5
601
100
AcDbEntity
  8
0
100
AcDbLine
 62
7
  6
CONTINUOUS
 10
90.2347905562
 20
43.1253242598
 11
90.7353411692
 21
43.1253242598
  0
LINE
  5
602
100
AcDbEntity
  8
0
100
AcDbLine
 62
7
  6
CONTINUOUS
 10
90.2322954045
 20
43.1815743671
 11
90.7327626735
 21
43.1815743671
  0
LINE
  5
603
100
AcDbEntity
  8
0
100
AcDbLine
 62
7
  6
CONTINUOUS
 10
90.2279184553
 20
43.2940742598
 11
90.7282402459
 21
43.2940742598
  0
LINE
  5
604
100
AcDbEntity
  8
0
100
AcDbLine
 62
7
  6
CONTINUOUS
 10
90.2228879188
 20
43.4628242598
 11
90.7230416035
 21
43.4628242598
  0
LINE
  5
605
100
AcDbEntity
  8
0
100
AcDbLine
 62
7
  6
CONTINUOUS
 10
90.2190408331
 20
43.6878243671
 11
90.7190658685
 21
43.6878243671
  0
LINE
  5
606
100
AcDbEntity
  8
0
100
AcDbLine
 62
7
  6
CONTINUOUS
 10
90.2184602007
 20
43.9128244744
 11
90.71846585
 21
43.9128244744
  0
LINE
  5
607
100
AcDbEntity
  8
0
100
AcDbLine
 62
7
  6
CONTINUOUS
 10
90.2211460433
 20
44.1378242598
 11
90.7212411365
 21
44.1378242598
  0
LINE
  5
608
100
AcDbEntity
  8
KONSTRUKTIONSELEMENTE
100
AcDbLine
 62
7
  6
CONTINUOUS
 10
100.6944900522
 20
44.18999503
 11
103.1705361599
 21
43.844747767
  0
LINE
  5
609
100
AcDbEntity
  8
KONSTRUKTIONSELEMENTE
100
AcDbLine
 62
7
  6
CONTINUOUS
 10
103.2007452954
 20
44.0614018014
 11
102.094426806
 21
44.215661219
  0
LINE
  5
60A
100
AcDbEntity
  8
KONSTRUKTIONSELEMENTE
100
AcDbLine
 62
7
  6
CONTINUOUS
 10
101.7783358512
 20
44.2597353324
 11
100.9881083167
 21
44.3699206366
  0
LINE
  5
60B
100
AcDbEntity
  8
KONSTRUKTIONSELEMENTE
100
AcDbLine
 62
7
  6
CONTINUOUS
 10
101.4300706647
 20
45.2285716321
 11
101.5881162896
 21
45.2065345548
  0
LINE
  5
60C
100
AcDbEntity
  8
KONSTRUKTIONSELEMENTE
100
AcDbLine
 62
7
  6
CONTINUOUS
 10
101.671007251
 20
45.4158429037
 11
101.4602798002
 21
45.4452256666
  0
LINE
  5
60D
100
AcDbEntity
  8
KONSTRUKTIONSELEMENTE
100
AcDbLine
 62
7
  6
CONTINUOUS
 10
103.0024458677
 20
46.0189020402
 11
102.7960273939
 21
46.0820681343
  0
LINE
  5
60E
100
AcDbEntity
  8
KONSTRUKTIONSELEMENTE
100
AcDbLine
 62
7
  6
CONTINUOUS
 10
102.6976091224
 20
45.886708333
 11
102.9515315648
 21
45.7996109448
  0
LINE
  5
60F
100
AcDbEntity
  8
KONSTRUKTIONSELEMENTE
100
AcDbLine
 62
7
  6
CONTINUOUS
 10
102.7960273939
 20
46.0820681343
 11
101.3234070772
 21
46.8239441248
  0
LINE
  5
610
100
AcDbEntity
  8
KONSTRUKTIONSELEMENTE
100
AcDbLine
 62
7
  6
CONTINUOUS
 10
101.7170799754
 20
47.6053829575
 11
103.1897002921
 21
46.863506967
  0
LINE
  5
611
100
AcDbEntity
  8
KONSTRUKTIONSELEMENTE
100
AcDbLine
 62
7
  6
CONTINUOUS
 10
103.2881185166
 20
47.0588666751
 11
101.8154982
 21
47.8007426656
  0
LINE
  5
612
100
AcDbEntity
  8
KONSTRUKTIONSELEMENTE
100
AcDbLine
 62
7
  6
CONTINUOUS
 10
103.7886459791
 20
49.1020579059
 11
103.9627695038
 21
48.9744666055
  0
LINE
  5
613
100
AcDbEntity
  8
KONSTRUKTIONSELEMENTE
100
AcDbLine
 62
7
  6
CONTINUOUS
 10
104.1200083154
 20
49.1265439498
 11
103.908905398
 21
49.2923697141
  0
LINE
  5
614
100
AcDbEntity
  8
KONSTRUKTIONSELEMENTE
100
AcDbLine
 62
7
  6
CONTINUOUS
 10
103.9627695038
 20
48.9744666055
 11
104.5174588911
 21
48.4009511982
  0
LINE
  5
615
100
AcDbEntity
  8
KONSTRUKTIONSELEMENTE
100
AcDbLine
 62
7
  6
CONTINUOUS
 10
104.6746977026
 20
48.5530285425
 11
104.1200083154
 21
49.1265439498
  0
LINE
  5
616
100
AcDbEntity
  8
KONSTRUKTIONSELEMENTE
100
AcDbLine
 62
7
  6
CONTINUOUS
 10
111.6823922552
 20
43.8403243671
 11
109.9503414477
 21
46.8403243671
  0
LINE
  5
617
100
AcDbEntity
  8
KONSTRUKTIONSELEMENTE
100
AcDbLine
 62
7
  6
CONTINUOUS
 10
108.0100956421
 20
49.1021646091
 11
107.3753230682
 21
51.3128392007
  0
LINE
  5
618
100
AcDbEntity
  8
KONSTRUKTIONSELEMENTE
100
AcDbLine
 62
7
  6
CONTINUOUS
 10
110.2006476055
 20
48.8595701445
 11
110.2257268425
 21
48.6677422705
  0
LINE
  5
619
100
AcDbEntity
  8
KONSTRUKTIONSELEMENTE
100
AcDbLine
 62
7
  6
CONTINUOUS
 10
103.3618606896
 20
45.2168900194
 11
102.1048648454
 21
45.0608597565
  0
LINE
  5
61A
100
AcDbEntity
  8
KONSTRUKTIONSELEMENTE
100
AcDbLine
 62
7
  6
CONTINUOUS
 10
102.1800193543
 20
44.8295142993
 11
103.3266166886
 21
44.9641269104
  0
LINE
  5
61B
100
AcDbEntity
  8
KONSTRUKTIONSELEMENTE
100
AcDbLine
 62
7
  6
CONTINUOUS
 10
101.2669903361
 20
45.2144997175
 11
101.4300706647
 21
45.2285716321
  0
LINE
  5
61C
100
AcDbEntity
  8
KONSTRUKTIONSELEMENTE
100
AcDbLine
 62
7
  6
CONTINUOUS
 10
101.4602798002
 20
45.4452256666
 11
101.2971994717
 21
45.431153752
  0
LINE
  5
61D
100
AcDbEntity
  8
0
100
AcDbLine
 62
7
  6
CONTINUOUS
 10
90.2253047743
 20
44.3065742598
 11
90.72553869
 21
44.3065742598
  0
LINE
  5
61E
100
AcDbEntity
  8
0
100
AcDbLine
 62
7
  6
CONTINUOUS
 10
90.2290993018
 20
44.4190744744
 11
90.7294598547
 21
44.4190744744
  0
LINE
  5
61F
100
AcDbEntity
  8
0
100
AcDbLine
 62
7
  6
CONTINUOUS
 10
90.231303356
 20
44.4753242598
 11
90.7317374961
 21
44.4753242598
  0
LINE
  5
620
100
AcDbEntity
  8
0
100
AcDbLine
 62
7
  6
CONTINUOUS
 10
90.2488289932
 20
44.8128244207
 11
90.7498490497
 21
44.8128244207
  0
LINE
  5
621
100
AcDbEntity
  8
0
100
AcDbLine
 62
7
  6
CONTINUOUS
 10
90.2650712549
 20
45.0436575017
 11
90.7666355689
 21
45.0436575017
  0
LINE
  5
622
100
AcDbEntity
  8
0
100
AcDbLine
 62
7
  6
CONTINUOUS
 10
90.269215312
 20
45.0957412324
 11
90.7709186806
 21
45.0957412324
  0
LINE
  5
623
100
AcDbEntity
  8
0
100
AcDbLine
 62
7
  6
CONTINUOUS
 10
90.2837030556
 20
45.2628243134
 11
90.7858931801
 21
45.2628243134
  0
LINE
  5
624
100
AcDbEntity
  8
0
100
AcDbLine
 62
7
  6
CONTINUOUS
 10
90.2889906469
 20
45.3190744207
 11
90.791358662
 21
45.3190744207
  0
LINE
  5
625
100
AcDbEntity
  8
0
100
AcDbLine
 62
7
  6
CONTINUOUS
 10
90.2944851758
 20
45.3753243671
 11
90.7970381793
 21
45.3753243671
  0
LINE
  5
626
100
AcDbEntity
  8
0
100
AcDbLine
 62
7
  6
CONTINUOUS
 10
90.3122127506
 20
45.5440743671
 11
90.8153635471
 21
45.5440743671
  0
LINE
  5
627
100
AcDbEntity
  8
0
100
AcDbLine
 62
7
  6
CONTINUOUS
 10
90.33876127
 20
45.7690743134
 11
90.8428100212
 21
45.7690743134
  0
LINE
  5
628
100
AcDbEntity
  8
0
100
AcDbLine
 62
7
  6
CONTINUOUS
 10
90.3766512231
 20
46.0503243671
 11
90.8819871921
 21
46.0503243671
  0
LINE
  5
629
100
AcDbEntity
  8
KONSTRUKTIONSELEMENTE
100
AcDbLine
 62
7
  6
CONTINUOUS
 10
103.1777636293
 20
46.0122276261
 11
103.0024458677
 21
46.0189020402
  0
LINE
  5
62A
100
AcDbEntity
  8
KONSTRUKTIONSELEMENTE
100
AcDbLine
 62
7
  6
CONTINUOUS
 10
102.9515315648
 20
45.7996109448
 11
103.1743531875
 21
45.7690049406
  0
LINE
  5
62B
100
AcDbEntity
  8
KONSTRUKTIONSELEMENTE
100
AcDbLine
 62
7
  6
CONTINUOUS
 10
103.6252949713
 20
49.1660685389
 11
103.7886459791
 21
49.1020579059
  0
LINE
  5
62C
100
AcDbEntity
  8
KONSTRUKTIONSELEMENTE
100
AcDbLine
 62
7
  6
CONTINUOUS
 10
103.908905398
 20
49.2923697141
 11
103.7085752048
 21
49.394614597
  0
LINE
  5
62D
100
AcDbEntity
  8
KONSTRUKTIONSELEMENTE
100
AcDbLine
 62
7
  6
CONTINUOUS
 10
110.2257268425
 20
48.6677422705
 11
110.3157879974
 21
48.442834618
  0
LINE
  5
62E
100
AcDbEntity
  8
KONSTRUKTIONSELEMENTE
100
AcDbLine
 62
7
  6
CONTINUOUS
 10
110.4689330341
 20
48.6633094039
 11
110.4197228271
 21
48.8077344074
  0
LINE
  5
62F
100
AcDbEntity
  8
KONSTRUKTIONSELEMENTE
100
AcDbLine
 62
7
  6
CONTINUOUS
 10
111.6384241538
 20
50.1570117462
 11
111.6876343608
 21
50.0125867428
  0
LINE
  5
630
100
AcDbEntity
  8
KONSTRUKTIONSELEMENTE
100
AcDbLine
 62
7
  6
CONTINUOUS
 10
111.9067095824
 20
49.9607510056
 11
111.8816303369
 21
50.152578863
  0
LINE
  5
631
100
AcDbEntity
  8
KONSTRUKTIONSELEMENTE
100
AcDbLine
 62
7
  6
CONTINUOUS
 10
110.7056765176
 20
48.2443574358
 11
110.9405227107
 21
48.3038673103
  0
LINE
  5
632
100
AcDbEntity
  8
KONSTRUKTIONSELEMENTE
100
AcDbLine
 62
7
  6
CONTINUOUS
 10
103.1743531875
 20
45.7690049406
 11
103.4299807903
 21
45.8035186921
  0
LINE
  5
633
100
AcDbEntity
  8
KONSTRUKTIONSELEMENTE
100
AcDbLine
 62
7
  6
CONTINUOUS
 10
109.9503414477
 20
46.8403243671
 11
106.4862398325
 21
46.8403243671
  0
LINE
  5
634
100
AcDbEntity
  8
0
100
AcDbLine
 62
7
  6
CONTINUOUS
 10
90.6326550883
 20
47.4003243671
 11
91.1468665505
 21
47.4003243671
  0
LINE
  5
635
100
AcDbEntity
  8
0
100
AcDbLine
 62
7
  6
CONTINUOUS
 10
90.654480583
 20
47.4915743671
 11
91.1694634215
 21
47.4915743671
  0
LINE
  5
636
100
AcDbEntity
  8
0
100
AcDbLine
 62
7
  6
CONTINUOUS
 10
90.6672001914
 20
47.5436575017
 11
91.1826336651
 21
47.5436575017
  0
LINE
  5
637
100
AcDbEntity
  8
0
100
AcDbLine
 62
7
  6
CONTINUOUS
 10
90.7065080002
 20
47.6999075017
 11
91.2233391732
 21
47.6999075017
  0
LINE
  5
638
100
AcDbEntity
  8
0
100
AcDbLine
 62
7
  6
CONTINUOUS
 10
90.7616181366
 20
47.9082412324
 11
91.2804219478
 21
47.9082412324
  0
LINE
  5
639
100
AcDbEntity
  8
0
100
AcDbLine
 62
7
  6
CONTINUOUS
 10
90.8348927661
 20
48.1686575017
 11
91.3563432695
 21
48.1686575017
  0
LINE
  5
63A
100
AcDbEntity
  8
KONSTRUKTIONSELEMENTE
100
AcDbLine
 62
7
  6
CONTINUOUS
 10
110.7938403821
 20
48.4979116259
 11
110.6072561184
 21
48.5332074717
  0
LINE
  5
63B
100
AcDbEntity
  8
KONSTRUKTIONSELEMENTE
100
AcDbLine
 62
7
  6
CONTINUOUS
 10
103.7085752048
 20
49.394614597
 11
103.4558322742
 21
49.4461672252
  0
LINE
  5
63C
100
AcDbEntity
  8
KONSTRUKTIONSELEMENTE
100
AcDbLine
 62
7
  6
CONTINUOUS
 10
110.4866012939
 20
48.2961931688
 11
110.7056765176
 21
48.2443574358
  0
LINE
  5
63D
100
AcDbEntity
  8
KONSTRUKTIONSELEMENTE
100
AcDbLine
 62
7
  6
CONTINUOUS
 10
109.3948379136
 20
48.6999268728
 11
109.6074455232
 21
48.6484529295
  0
LINE
  5
63E
100
AcDbEntity
  8
KONSTRUKTIONSELEMENTE
100
AcDbLine
 62
7
  6
CONTINUOUS
 10
110.3157879974
 20
48.442834618
 11
110.4866012939
 21
48.2961931688
  0
LINE
  5
63F
100
AcDbEntity
  8
KONSTRUKTIONSELEMENTE
100
AcDbLine
 62
7
  6
CONTINUOUS
 10
110.6072561184
 20
48.5332074717
 11
110.4689330341
 21
48.6633094039
  0
LINE
  5
640
100
AcDbEntity
  8
KONSTRUKTIONSELEMENTE
100
AcDbLine
 62
7
  6
CONTINUOUS
 10
111.5001018132
 20
50.2871132999
 11
111.6384241538
 21
50.1570117462
  0
LINE
  5
641
100
AcDbEntity
  8
KONSTRUKTIONSELEMENTE
100
AcDbLine
 62
7
  6
CONTINUOUS
 10
111.8816303369
 20
50.152578863
 11
111.7915699193
 21
50.3774861246
  0
LINE
  5
642
100
AcDbEntity
  8
BEZUGSACHSEN
100
AcDbLine
 62
7
  6
CONTINUOUS
 10
113.1257679282
 20
35.3403243671
 11
118.0332452163
 21
43.8403243671
  0
LINE
  5
643
100
AcDbEntity
  8
KONSTRUKTIONSELEMENTE
100
AcDbLine
 62
7
  6
CONTINUOUS
 10
111.4016813992
 20
50.5759633068
 11
111.1668344688
 21
50.5164538233
  0
LINE
  5
644
100
AcDbEntity
  8
KONSTRUKTIONSELEMENTE
100
AcDbLine
 62
7
  6
CONTINUOUS
 10
103.4558322742
 20
49.4461672252
 11
103.2770479218
 21
49.4212511396
  0
LINE
  5
645
100
AcDbEntity
  8
KONSTRUKTIONSELEMENTE
100
AcDbLine
 62
7
  6
CONTINUOUS
 10
107.1462946635
 20
48.8018210794
 11
107.364873633
 21
48.8104695837
  0
LINE
  5
646
100
AcDbEntity
  8
KONSTRUKTIONSELEMENTE
100
AcDbLine
 62
7
  6
CONTINUOUS
 10
107.8748909503
 20
48.8306494162
 11
108.1663301321
 21
48.8421807772
  0
LINE
  5
647
100
AcDbEntity
  8
KONSTRUKTIONSELEMENTE
100
AcDbLine
 62
7
  6
CONTINUOUS
 10
108.6763474495
 20
48.8623606097
 11
108.8949264189
 21
48.871009114
  0
LINE
  5
648
100
AcDbEntity
  8
0
100
AcDbLine
 62
7
  6
CONTINUOUS
 10
91.2568869698
 20
49.4186577998
 11
91.7941319181
 21
49.4186577998
  0
LINE
  5
649
100
AcDbEntity
  8
0
100
AcDbLine
 62
7
  6
CONTINUOUS
 10
91.4245866065
 20
49.8353243671
 11
91.9683824586
 21
49.8353243671
  0
LINE
  5
64A
100
AcDbEntity
  8
KONSTRUKTIONSELEMENTE
100
AcDbLine
 62
7
  6
CONTINUOUS
 10
103.4727169874
 20
49.1664985806
 11
103.6252949713
 21
49.1660685389
  0
LINE
  5
64B
100
AcDbEntity
  8
KONSTRUKTIONSELEMENTE
100
AcDbLine
 62
7
  6
CONTINUOUS
 10
111.3135168058
 20
50.3224095243
 11
111.5001018132
 21
50.2871132999
  0
LINE
  5
64C
100
AcDbEntity
  8
KONSTRUKTIONSELEMENTE
100
AcDbLine
 62
7
  6
CONTINUOUS
 10
111.6207566208
 20
50.5241275696
 11
111.4016813992
 21
50.5759633068
  0
LINE
  5
64D
100
AcDbEntity
  8
KONSTRUKTIONSELEMENTE
100
AcDbLine
 62
7
  6
CONTINUOUS
 10
110.19571916
 20
51.0782541824
 11
109.9831115504
 21
51.1297281256
  0
LINE
  5
64E
100
AcDbEntity
  8
KONSTRUKTIONSELEMENTE
100
AcDbLine
 62
7
  6
CONTINUOUS
 10
111.7915699193
 20
50.3774861246
 11
111.6207566208
 21
50.5241275696
  0
LINE
  5
64F
100
AcDbEntity
  8
BEZUGSACHSEN
100
AcDbLine
 62
7
  6
CONTINUOUS
 10
118.0332452163
 20
43.8403243671
 11
113.1257679282
 21
52.3403243671
  0
LINE
  5
650
100
AcDbEntity
  8
0
100
AcDbLine
 62
7
  6
CONTINUOUS
 10
118.7182906401
 20
64.8403243671
 11
118.7182906401
 21
22.8403243671
  0
LINE
  5
651
100
AcDbEntity
  8
0
100
AcDbLine
 62
7
  6
CONTINUOUS
 10
118.9682906401
 20
66.3855625255
 11
118.9682906401
 21
67.2903243671
  0
LINE
  5
652
100
AcDbEntity
  8
0
100
AcDbLine
 62
7
  6
CONTINUOUS
 10
120.0182906401
 20
19.4797940542
 11
120.0182906401
 21
68.20085468
  0
LINE
  5
653
100
AcDbEntity
  8
KONSTRUKTIONSELEMENTE
100
AcDbLine
 62
7
  6
CONTINUOUS
 10
108.7960863695
 20
51.3690544788
 11
108.4682179154
 21
51.3560817223
  0
LINE
  5
654
100
AcDbEntity
  8
KONSTRUKTIONSELEMENTE
100
AcDbLine
 62
7
  6
CONTINUOUS
 10
107.3753230682
 20
51.3128392007
 11
107.0474546141
 21
51.2998664442
  0
LINE
  5
655
100
AcDbEntity
  8
0
100
AcDbLine
 62
7
  6
CONTINUOUS
 10
92.1855823468
 20
51.3978243671
 11
92.7612773365
 21
51.3978243671
  0
LINE
  5
656
100
AcDbEntity
  8
0
100
AcDbLine
 62
7
  6
CONTINUOUS
 10
92.3648978128
 20
51.7103243671
 11
92.9486743577
 21
51.7103243671
  0
LINE
  5
657
100
AcDbEntity
  8
0
100
AcDbLine
 62
7
  6
CONTINUOUS
 10
92.6193916508
 20
52.1269910834
 11
93.2150448722
 21
52.1269910834
  0
LINE
  5
658
100
AcDbEntity
  8
BEZUGSACHSEN
100
AcDbLine
 62
7
  6
CONTINUOUS
 10
113.1257679282
 20
52.3403243671
 11
103.310813352
 21
52.3403243671
  0
LINE
  5
659
100
AcDbEntity
  8
0
100
AcDbLine
 62
7
  6
CONTINUOUS
 10
92.8223869577
 20
52.4394910834
 11
93.4278743825
 21
52.4394910834
  0
LINE
  5
65A
100
AcDbEntity
  8
0
100
AcDbLine
 62
7
  6
CONTINUOUS
 10
93.339591324
 20
53.1686577253
 11
93.9717082963
 21
53.1686577253
  0
LINE
  5
65B
100
AcDbEntity
  8
0
100
AcDbLine
 62
7
  6
CONTINUOUS
 10
93.924364502
 20
53.8978243671
 11
94.5896476972
 21
53.8978243671
  0
LINE
  5
65C
100
AcDbEntity
  8
0
100
AcDbLine
 62
7
  6
CONTINUOUS
 10
94.1981734532
 20
54.2103243671
 11
94.8802511495
 21
54.2103243671
  0
LINE
  5
65D
100
AcDbEntity
  8
0
100
AcDbLine
 62
7
  6
CONTINUOUS
 10
127.4182906401
 20
68.20085468
 11
127.4182906401
 21
19.4797940542
  0
LINE
  5
65E
100
AcDbEntity
  8
RUNDUNGEN
100
AcDbLine
 62
7
  6
CONTINUOUS
 10
118.7182906401
 20
58.8403243671
 11
105.7182906401
 21
58.8403243671
  0
LINE
  5
65F
100
AcDbEntity
  8
RUNDUNGEN
100
AcDbLine
 62
7
  6
CONTINUOUS
 10
129.7715296085
 20
58.7965882648
 11
128.7182906401
 21
58.8174190978
  0
LINE
  5
660
100
AcDbEntity
  8
RUNDUNGEN
100
AcDbLine
 62
7
  6
CONTINUOUS
 10
130.5931996302
 20
58.7750593499
 11
129.768137218
 21
58.7966668262
  0
LINE
  5
661
100
AcDbEntity
  8
RUNDUNGEN
100
AcDbLine
 62
7
  6
CONTINUOUS
 10
131.2702070816
 20
58.7536394528
 11
130.5931996302
 21
58.7750593499
  0
LINE
  5
662
100
AcDbEntity
  8
0
100
AcDbLine
 62
7
  6
CONTINUOUS
 10
128.7182906401
 20
64.8403243671
 11
128.7182906401
 21
22.8403243671
  0
LINE
  5
663
100
AcDbEntity
  8
RUNDUNGEN
100
AcDbLine
 62
7
  6
CONTINUOUS
 10
132.7182906401
 20
30.4261108047
 11
132.7182906401
 21
57.2545379295
  0
LINE
  5
664
100
AcDbEntity
  8
0
100
AcDbLine
 62
7
  6
CONTINUOUS
 10
119.052055698
 20
66.620111681
 11
118.9682906401
 21
66.620111681
  0
LINE
  5
665
100
AcDbEntity
  8
0
100
AcDbLine
 62
7
  6
CONTINUOUS
 10
119.2106906604
 20
67.0030903588
 11
118.9682906401
 21
67.0030903588
  0
LINE
  5
666
100
AcDbEntity
  8
0
100
AcDbLine
 62
7
  6
CONTINUOUS
 10
119.3156018978
 20
67.1945796977
 11
118.9682906401
 21
67.1945796977
  0
LINE
  5
667
100
AcDbEntity
  8
0
100
AcDbLine
 62
7
  6
CONTINUOUS
 10
119.3685181061
 20
67.2903243671
 11
118.9682906401
 21
67.2903243671
  0
ARC
  5
668
100
AcDbEntity
  8
0
100
AcDbCircle
 62
7
  6
CONTINUOUS
 10
118.9604428592
 20
126.6232801949
 40
28.742152608
100
AcDbArc
 50
180.8593726863
 51
181.0723633593
  0
ARC
  5
669
100
AcDbEntity
  8
0
100
AcDbCircle
 62
7
  6
CONTINUOUS
 10
118.9601399767
 20
127.5873113424
 40
28.7418495443
100
AcDbArc
 50
179.0699353499
 51
179.2820277874
  0
ARC
  5
66A
100
AcDbEntity
  8
0
100
AcDbCircle
 62
7
  6
CONTINUOUS
 10
111.0990801258
 20
195.7763766102
 40
17.5329426273
100
AcDbArc
 50
359.8469118182
 51
2.6982855918
  0
ARC
  5
66B
100
AcDbEntity
  8
0
100
AcDbCircle
 62
7
  6
CONTINUOUS
 10
136.2733870467
 20
195.7774324268
 40
17.4688322121
100
AcDbArc
 50
177.2446648128
 51
180.1573871197
  0
ARC
  5
66C
100
AcDbEntity
  8
0
100
AcDbCircle
 62
7
  6
CONTINUOUS
 10
133.1125769217
 20
195.9124918624
 40
14.3051939422
100
AcDbArc
 50
176.7518780981
 51
177.1764136788
  0
ARC
  5
66D
100
AcDbEntity
  8
RUNDUNGEN
100
AcDbCircle
 62
7
  6
CONTINUOUS
 10
122.7182906401
 20
132.229825587
 40
10.0
100
AcDbArc
 50
270.0
 51
53.1186774964
  0
ARC
  5
66E
100
AcDbEntity
  8
0
100
AcDbCircle
 62
7
  6
CONTINUOUS
 10
97.4219109611
 20
134.9743541109
 40
7.2036297506
100
AcDbArc
 50
177.2652980283
 51
177.9506872578
  0
ARC
  5
66F
100
AcDbEntity
  8
0
100
AcDbCircle
 62
7
  6
CONTINUOUS
 10
97.4112526483
 20
135.0292442601
 40
7.1929635007
100
AcDbArc
 50
177.4693034357
 51
178.3851013757
  0
ARC
  5
670
100
AcDbEntity
  8
RUNDUNGEN
100
AcDbCircle
 62
7
  6
CONTINUOUS
 10
123.4682906401
 20
132.229825587
 40
5.25
100
AcDbArc
 50
155.0045345743
 51
236.0104591474
  0
ARC
  5
671
100
AcDbEntity
  8
0
100
AcDbCircle
 62
7
  6
CONTINUOUS
 10
123.7182906401
 20
196.729825587
 40
5.0
100
AcDbArc
 50
0.0
 51
36.8698976458
  0
ARC
  5
672
100
AcDbEntity
  8
0
100
AcDbCircle
 62
7
  6
CONTINUOUS
 10
123.7182906401
 20
196.729825587
 40
5.0
100
AcDbArc
 50
42.2685844296
 51
137.7314155704
  0
ARC
  5
673
100
AcDbEntity
  8
0
100
AcDbCircle
 62
7
  6
CONTINUOUS
 10
123.7182906401
 20
196.729825587
 40
5.0
100
AcDbArc
 50
143.1301023542
 51
180.0
  0
ARC
  5
674
100
AcDbEntity
  8
RUNDUNGEN
100
AcDbCircle
 62
7
  6
CONTINUOUS
 10
123.7182906401
 20
131.729825587
 40
5.0
100
AcDbArc
 50
180.0
 51
360.0
  0
ARC
  5
675
100
AcDbEntity
  8
BEZUGSACHSEN
100
AcDbCircle
 62
7
  6
CONTINUOUS
 10
115.3807152702
 20
148.4818933753
 40
4.6704283845
100
AcDbArc
 50
72.5592329072
 51
73.908152445
  0
ARC
  5
676
100
AcDbEntity
  8
RUNDUNGEN
100
AcDbCircle
 62
7
  6
CONTINUOUS
 10
92.2182906401
 20
140.729825587
 40
1.5
100
AcDbArc
 50
90.0
 51
180.0
  0
ARC
  5
677
100
AcDbEntity
  8
RUNDUNGEN
100
AcDbCircle
 62
7
  6
CONTINUOUS
 10
92.2182906401
 20
123.729825587
 40
1.5
100
AcDbArc
 50
180.0
 51
270.0
  0
ARC
  5
678
100
AcDbEntity
  8
0
100
AcDbCircle
 62
7
  6
CONTINUOUS
 10
91.235635711
 20
135.1352804539
 40
1.0173513247
100
AcDbArc
 50
174.5472992526
 51
177.7903006795
  0
ARC
  5
679
100
AcDbEntity
  8
0
100
AcDbCircle
 62
7
  6
CONTINUOUS
 10
91.232384214
 20
135.1558931457
 40
1.0140948474
100
AcDbArc
 50
175.6986088723
 51
178.9483006059
  0
ARC
  5
67A
100
AcDbEntity
  8
0
100
AcDbCircle
 62
7
  6
CONTINUOUS
 10
90.878748101
 20
134.7975764467
 40
0.66050665
100
AcDbArc
 50
172.1951924123
 51
173.4518329844
  0
ARC
  5
67B
100
AcDbEntity
  8
0
100
AcDbCircle
 62
7
  6
CONTINUOUS
 10
90.8719683504
 20
134.7983078967
 40
0.6536877165
100
AcDbArc
 50
173.44775954
 51
177.2364005144
  0
ARC
  5
67C
100
AcDbEntity
  8
0
100
AcDbCircle
 62
7
  6
CONTINUOUS
 10
198.8659972523
 20
175.729825587
 40
26.0
100
AcDbArc
 50
0.0
 51
180.0
  0
ARC
  5
67D
100
AcDbEntity
  8
0
100
AcDbCircle
 62
7
  6
CONTINUOUS
 10
198.8659972523
 20
175.729825587
 40
24.3630343442
100
AcDbArc
 50
0.8214772418
 51
179.1785227582
  0
ARC
  5
67E
100
AcDbEntity
  8
0
100
AcDbCircle
 62
7
  6
CONTINUOUS
 10
198.8659972523
 20
174.729825587
 40
17.0
100
AcDbArc
 50
0.0
 51
180.0
  0
ARC
  5
67F
100
AcDbEntity
  8
BEZUGSACHSEN
100
AcDbCircle
 62
7
  6
CONTINUOUS
 10
194.6292285494
 20
141.7373350515
 40
11.3924982399
100
AcDbArc
 50
90.0665418554
 51
96.8639921114
  0
ARC
  5
680
100
AcDbEntity
  8
0
100
AcDbCircle
 62
7
  6
CONTINUOUS
 10
181.8659972523
 20
135.729825587
 40
9.0
100
AcDbArc
 50
180.0
 51
270.0000000014
  0
ARC
  5
681
100
AcDbEntity
  8
RUNDUNGEN
100
AcDbCircle
 62
7
  6
CONTINUOUS
 10
215.8659972523
 20
135.729825587
 40
9.0
100
AcDbArc
 50
269.9999999986
 51
360.0
  0
ARC
  5
682
100
AcDbEntity
  8
0
100
AcDbCircle
 62
7
  6
CONTINUOUS
 10
186.8659972523
 20
141.729825587
 40
5.0
100
AcDbArc
 50
180.5739511922
 51
233.0796568178
  0
ARC
  5
683
100
AcDbEntity
  8
RUNDUNGEN
100
AcDbCircle
 62
7
  6
CONTINUOUS
 10
210.8659972523
 20
141.729825587
 40
5.0
100
AcDbArc
 50
306.9203431822
 51
359.4260488078
  0
ARC
  5
684
100
AcDbEntity
  8
0
100
AcDbCircle
 62
7
  6
CONTINUOUS
 10
219.9639211293
 20
164.7857593507
 40
2.0
100
AcDbArc
 50
174.2608295227
 51
356.9363238298
  0
ARC
  5
685
100
AcDbEntity
  8
0
100
AcDbCircle
 62
7
  6
CONTINUOUS
 10
219.9639211293
 20
161.3857593507
 40
2.0
100
AcDbArc
 50
174.2608295227
 51
356.9363238298
  0
ARC
  5
686
100
AcDbEntity
  8
RUNDUNGEN
100
AcDbCircle
 62
7
  6
CONTINUOUS
 10
212.3659972523
 20
140.729825587
 40
1.5
100
AcDbArc
 50
0.0
 51
90.0
  0
ARC
  5
687
100
AcDbEntity
  8
RUNDUNGEN
100
AcDbCircle
 62
7
  6
CONTINUOUS
 10
212.3659972523
 20
123.729825587
 40
1.5
100
AcDbArc
 50
270.0
 51
360.0
  0
ARC
  5
688
100
AcDbEntity
  8
RUNDUNGEN
100
AcDbCircle
 62
7
  6
CONTINUOUS
 10
185.3659972523
 20
123.729825587
 40
1.5
100
AcDbArc
 50
180.0
 51
270.0
  0
ARC
  5
689
100
AcDbEntity
  8
RUNDUNGEN
100
AcDbCircle
 62
7
  6
CONTINUOUS
 10
185.3659972523
 20
140.729825587
 40
1.5
100
AcDbArc
 50
90.0
 51
180.0
  0
ARC
  5
68A
100
AcDbEntity
  8
0
100
AcDbCircle
 62
7
  6
CONTINUOUS
 10
219.9639211293
 20
164.7857593507
 40
1.4
100
AcDbArc
 50
282.3736251162
 51
8.2132107017
  0
ARC
  5
68B
100
AcDbEntity
  8
0
100
AcDbCircle
 62
7
  6
CONTINUOUS
 10
219.9639211293
 20
164.7857593507
 40
1.4
100
AcDbArc
 50
171.7867892983
 51
257.4447123387
  0
ARC
  5
68C
100
AcDbEntity
  8
0
100
AcDbCircle
 62
7
  6
CONTINUOUS
 10
219.9639211293
 20
161.3857593507
 40
1.4
100
AcDbArc
 50
181.7503387136
 51
8.2132107017
  0
ARC
  5
68D
100
AcDbEntity
  8
0
100
AcDbCircle
 62
7
  6
CONTINUOUS
 10
105.7182906401
 20
43.8403243671
 40
15.5
100
AcDbArc
 50
208.0395315135
 51
216.4704859891
  0
ARC
  5
68E
100
AcDbEntity
  8
0
100
AcDbCircle
 62
7
  6
CONTINUOUS
 10
105.7182906401
 20
43.8403243671
 40
15.5
100
AcDbArc
 50
198.7979127056
 51
206.3081655898
  0
ARC
  5
68F
100
AcDbEntity
  8
0
100
AcDbCircle
 62
7
  6
CONTINUOUS
 10
105.7182906401
 20
43.8403243671
 40
15.5
100
AcDbArc
 50
176.4027889616
 51
197.1784923044
  0
ARC
  5
690
100
AcDbEntity
  8
0
100
AcDbCircle
 62
7
  6
CONTINUOUS
 10
105.7182906401
 20
43.8403243671
 40
15.5
100
AcDbArc
 50
166.7219191734
 51
175.5473964007
  0
ARC
  5
691
100
AcDbEntity
  8
0
100
AcDbCircle
 62
7
  6
CONTINUOUS
 10
105.7182906401
 20
43.8403243671
 40
15.5
100
AcDbArc
 50
158.9064070276
 51
166.375098606
  0
ARC
  5
692
100
AcDbEntity
  8
0
100
AcDbCircle
 62
7
  6
CONTINUOUS
 10
105.7182906401
 20
43.8403243671
 40
15.5
100
AcDbArc
 50
149.4864620897
 51
157.2460713837
  0
ARC
  5
693
100
AcDbEntity
  8
0
100
AcDbCircle
 62
7
  6
CONTINUOUS
 10
105.7182906401
 20
43.8403243671
 40
15.5
100
AcDbArc
 50
138.0075821109
 51
147.6816074978
  0
ARC
  5
694
100
AcDbEntity
  8
RUNDUNGEN
100
AcDbCircle
 62
7
  6
CONTINUOUS
 10
105.7182906401
 20
43.8403243671
 40
15.0
100
AcDbArc
 50
90.0
 51
270.0
  0
ARC
  5
695
100
AcDbEntity
  8
0
100
AcDbCircle
 62
7
  6
CONTINUOUS
 10
108.2182906401
 20
43.8403243671
 40
12.0
100
AcDbArc
 50
28.7787594083
 51
331.2212405917
  0
CIRCLE
  5
696
100
AcDbEntity
  8
BEZUGSACHSEN
100
AcDbCircle
 62
7
  6
CONTINUOUS
 10
108.2182906401
 20
43.8403243671
 40
8.5
  0
ARC
  5
697
100
AcDbEntity
  8
0
100
AcDbCircle
 62
7
  6
CONTINUOUS
 10
123.7182906401
 20
22.8403243671
 40
5.0
100
AcDbArc
 50
180.0
 51
360.0
  0
ARC
  5
698
100
AcDbEntity
  8
RUNDUNGEN
100
AcDbCircle
 62
7
  6
CONTINUOUS
 10
123.7182906401
 20
22.8403243671
 40
5.0
100
AcDbArc
 50
180.0
 51
360.0
  0
ARC
  5
699
100
AcDbEntity
  8
RUNDUNGEN
100
AcDbCircle
 62
7
  6
CONTINUOUS
 10
131.2182518792
 20
30.4261069379
 40
1.4999981808
100
AcDbArc
 50
271.9885671358
 51
0.0001477016
  0
ARC
  5
69A
100
AcDbEntity
  8
0
100
AcDbCircle
 62
7
  6
CONTINUOUS
 10
123.7182906401
 20
64.8403243671
 40
5.0
100
AcDbArc
 50
0.0
 51
180.0
  0
ARC
  5
69B
100
AcDbEntity
  8
RUNDUNGEN
100
AcDbCircle
 62
7
  6
CONTINUOUS
 10
131.2182731938
 20
57.2545395994
 40
1.4999992032
100
AcDbArc
 50
359.999936212
 51
88.0137468052
  0
SPLINE
  5
69C
100
AcDbEntity
  8
BEZUGSACHSEN
100
AcDbSpline
 62
7
  6
CONTINUOUS
 70
0
 71
3
 72
11
 73
7
 74
0
 42
0.0000001
 43
0.0000001
 44
0.0000000001
 40
0.0
 40
0.0
 40
0.0
 40
0.0
 40
0.261622834
 40
0.5144737263
 40
0.7595873748
 40
1.0
 40
1.0
 40
1.0
 40
1.0
 10
98.4033360639
 20
152.3706362085
 30
0.0
 10
98.5994687489
 20
152.483873467
 30
0.0
 10
98.9940448461
 20
152.6918657925
 30
0.0
 10
99.6059255442
 20
152.9367810003
 30
0.0
 10
100.2278899034
 20
153.0934717721
 30
0.0
 10
100.6489608656
 20
153.129825587
 30
0.0
 10
100.8570747077
 20
153.1298255871
 30
0.0
  0
SPLINE
  5
69D
100
AcDbEntity
  8
BEZUGSACHSEN
100
AcDbSpline
 62
7
  6
CONTINUOUS
 70
0
 71
3
 72
11
 73
7
 74
0
 42
0.0000001
 43
0.0000001
 44
0.0000000001
 40
0.0
 40
0.0
 40
0.0
 40
0.0
 40
0.2404126776
 40
0.4855263102
 40
0.7383771467
 40
1.0
 40
1.0
 40
1.0
 40
1.0
 10
100.8570747077
 20
153.1298255871
 30
0.0
 10
101.0651885945
 20
153.1298255814
 30
0.0
 10
101.4862595425
 20
153.0934714624
 30
0.0
 10
102.1082240159
 20
152.9367812438
 30
0.0
 10
102.7201045336
 20
152.6918656536
 30
0.0
 10
103.1146806532
 20
152.4838734749
 30
0.0
 10
103.310813352
 20
152.3706362085
 30
0.0
  0
SPLINE
  5
69E
100
AcDbEntity
  8
BEZUGSACHSEN
100
AcDbSpline
 62
7
  6
CONTINUOUS
 70
0
 71
3
 72
10
 73
6
 74
0
 42
0.0000001
 43
0.0000001
 44
0.0000000001
 40
0.0
 40
0.0
 40
0.0
 40
0.0
 40
0.4998772847
 40
0.7499452468
 40
1.0
 40
1.0
 40
1.0
 40
1.0
 10
103.310813352
 20
152.3706362085
 30
0.0
 10
104.1081301775
 20
152.6008017504
 30
0.0
 10
105.3237110949
 20
152.8885611736
 30
0.0
 10
106.9724436398
 20
153.0943223092
 30
0.0
 10
107.8031610463
 20
153.129825587
 30
0.0
 10
108.2182906398
 20
153.1298255871
 30
0.0
  0
SPLINE
  5
69F
100
AcDbEntity
  8
BEZUGSACHSEN
100
AcDbSpline
 62
7
  6
CONTINUOUS
 70
0
 71
3
 72
10
 73
6
 74
0
 42
0.0000001
 43
0.0000001
 44
0.0000000001
 40
0.0
 40
0.0
 40
0.0
 40
0.0
 40
0.2500560292
 40
0.5001254384
 40
1.0
 40
1.0
 40
1.0
 40
1.0
 10
108.2182906398
 20
153.1298255871
 30
0.0
 10
108.6334223432
 20
153.129825587
 30
0.0
 10
109.4641437017
 20
153.0943134787
 30
0.0
 10
111.1128780347
 20
152.8885685283
 30
0.0
 10
112.3284554625
 20
152.6008004918
 30
0.0
 10
113.1257679282
 20
152.3706362085
 30
0.0
  0
SPLINE
  5
6A0
100
AcDbEntity
  8
BEZUGSACHSEN
100
AcDbSpline
 62
7
  6
CONTINUOUS
 70
0
 71
3
 72
11
 73
7
 74
0
 42
0.0000001
 43
0.0000001
 44
0.0000000001
 40
0.0
 40
0.0
 40
0.0
 40
0.0
 40
0.261622834
 40
0.5144737263
 40
0.7595873748
 40
1.0
 40
1.0
 40
1.0
 40
1.0
 10
113.1257679282
 20
152.3706362085
 30
0.0
 10
113.3219006132
 20
152.483873467
 30
0.0
 10
113.7164767104
 20
152.6918657925
 30
0.0
 10
114.3283574085
 20
152.9367810003
 30
0.0
 10
114.9503217676
 20
153.0934717721
 30
0.0
 10
115.3713927298
 20
153.129825587
 30
0.0
 10
115.5795065719
 20
153.1298255871
 30
0.0
  0
SPLINE
  5
6A1
100
AcDbEntity
  8
BEZUGSACHSEN
100
AcDbSpline
 62
7
  6
CONTINUOUS
 70
0
 71
3
 72
9
 73
5
 74
0
 42
0.0000001
 43
0.0000001
 44
0.0000000001
 40
0.0
 40
0.0
 40
0.0
 40
0.0
 40
0.4961269449
 40
1.0
 40
1.0
 40
1.0
 40
1.0
 10
115.5795065719
 20
153.1298255871
 30
0.0
 10
115.7631075351
 20
153.1298255871
 30
0.0
 10
116.1336595889
 20
153.1016290878
 30
0.0
 10
116.4960892872
 20
153.0209978939
 30
0.0
 10
116.6752550079
 20
152.9693278497
 30
0.0
  0
SPLINE
  5
6A2
100
AcDbEntity
  8
BEZUGSACHSEN
100
AcDbSpline
 62
7
  6
CONTINUOUS
 70
0
 71
3
 72
9
 73
5
 74
0
 42
0.0000001
 43
0.0000001
 44
0.0000000001
 40
0.0
 40
0.0
 40
0.0
 40
0.0
 40
0.2436539185
 40
1.0
 40
1.0
 40
1.0
 40
1.0
 10
116.7805345598
 20
152.9376096197
 30
0.0
 10
116.8872112213
 20
152.9041052925
 30
0.0
 10
117.3202145075
 20
152.7511737634
 30
0.0
 10
117.7326546428
 20
152.544182257
 30
0.0
 10
118.0332452163
 20
152.3706362085
 30
0.0
  0
SPLINE
  5
6A3
100
AcDbEntity
  8
0
100
AcDbSpline
 62
7
  6
CONTINUOUS
 70
0
 71
3
 72
12
 73
8
 74
0
 42
0.0000001
 43
0.0000001
 44
0.0000000001
 40
0.0
 40
0.0
 40
0.0
 40
0.0
 40
0.1346997617
 40
0.2634863652
 40
0.5120707724
 40
0.7565062165
 40
1.0
 40
1.0
 40
1.0
 40
1.0
 10
119.5401960765
 20
192.0496307654
 30
0.0
 10
119.4515903638
 20
192.1923668645
 30
0.0
 10
119.297502049
 20
192.483974553
 30
0.0
 10
119.0709993834
 20
193.0824373176
 30
0.0
 10
118.9068507642
 20
193.8443214942
 30
0.0
 10
118.8225649376
 20
194.7598823874
 30
0.0
 10
118.8061694311
 20
195.368560093
 30
0.0
 10
118.8047935618
 20
195.6722499116
 30
0.0
  0
LINE
  5
6A4
100
AcDbEntity
  8
0
100
AcDbLine
 62
7
  6
CONTINUOUS
 10
118.8047935618
 20
195.6722499116
 11
118.8046207408
 21
195.7294469425
  0
SPLINE
  5
6A5
100
AcDbEntity
  8
0
100
AcDbSpline
 62
7
  6
CONTINUOUS
 70
0
 71
3
 72
11
 73
7
 74
0
 42
0.0000001
 43
0.0000001
 44
0.0000000001
 40
0.0
 40
0.0
 40
0.0
 40
0.0
 40
0.2396158183
 40
0.4817260237
 40
0.731274674
 40
1.0
 40
1.0
 40
1.0
 40
1.0
 10
118.830363868
 20
196.7230250275
 30
0.0
 10
118.8447636606
 20
196.9765390311
 30
0.0
 10
118.8875430867
 20
197.4856555644
 30
0.0
 10
119.0209647069
 20
198.2506673149
 30
0.0
 10
119.2710067985
 20
199.0204656055
 30
0.0
 10
119.5474285248
 20
199.5020094334
 30
0.0
 10
119.7182906401
 20
199.729825587
 30
0.0
  0
SPLINE
  5
6A6
100
AcDbEntity
  8
0
100
AcDbSpline
 62
7
  6
CONTINUOUS
 70
0
 71
3
 72
15
 73
11
 74
0
 42
0.0000001
 43
0.0000001
 44
0.0000000001
 40
0.0
 40
0.0
 40
0.0
 40
0.0
 40
0.12557855
 40
0.2506260405
 40
0.3755046367
 40
0.5003351761
 40
0.6251569972
 40
0.7499920518
 40
0.8748888424
 40
1.0
 40
1.0
 40
1.0
 40
1.0
 10
120.0182906401
 20
176.0791182008
 30
0.0
 10
119.7721858004
 20
176.7075650855
 30
0.0
 10
119.411083406
 20
178.0130388442
 30
0.0
 10
119.115894508
 20
180.0114701261
 30
0.0
 10
118.9688414722
 20
182.0214629159
 30
0.0
 10
118.9118747674
 20
184.0339175986
 30
0.0
 10
118.9177712341
 20
186.0468593407
 30
0.0
 10
118.9896800508
 20
188.0591753868
 30
0.0
 10
119.1604234804
 20
190.0673873135
 30
0.0
 10
119.3837895846
 20
191.3956692691
 30
0.0
 10
119.5401960765
 20
192.0496307654
 30
0.0
  0
SPLINE
  5
6A7
100
AcDbEntity
  8
0
100
AcDbSpline
 62
7
  6
CONTINUOUS
 70
0
 71
3
 72
11
 73
7
 74
0
 42
0.0000001
 43
0.0000001
 44
0.0000000001
 40
0.0
 40
0.0
 40
0.0
 40
0.0
 40
0.2686646427
 40
0.5179793973
 40
0.760123086
 40
1.0
 40
1.0
 40
1.0
 40
1.0
 10
127.7182906401
 20
199.729825587
 30
0.0
 10
127.8956229196
 20
199.4933825476
 30
0.0
 10
128.18022043
 20
198.9920003012
 30
0.0
 10
128.4310800164
 20
198.1902802498
 30
0.0
 10
128.560484136
 20
197.3945520225
 30
0.0
 10
128.5998492115
 20
196.8653446862
 30
0.0
 10
128.6125836997
 20
196.601767268
 30
0.0
  0
LINE
  5
6A8
100
AcDbEntity
  8
0
100
AcDbLine
 62
7
  6
CONTINUOUS
 10
128.6319601691
 20
195.7295305225
 11
128.6317814698
 21
195.6708110534
  0
LINE
  5
6A9
100
AcDbEntity
  8
0
100
AcDbLine
 62
7
  6
CONTINUOUS
 10
128.6317814698
 20
195.6708110534
 11
128.6317104805
 21
195.6565268355
  0
SPLINE
  5
6AA
100
AcDbEntity
  8
0
100
AcDbSpline
 62
7
  6
CONTINUOUS
 70
0
 71
3
 72
12
 73
8
 74
0
 42
0.0000001
 43
0.0000001
 44
0.0000000001
 40
0.0
 40
0.0
 40
0.0
 40
0.0
 40
0.2434707004
 40
0.4878979464
 40
0.736500843
 40
0.8653004111
 40
1.0
 40
1.0
 40
1.0
 40
1.0
 10
128.6317104805
 20
195.6565268355
 30
0.0
 10
128.6300934646
 20
195.3541419844
 30
0.0
 10
128.6133025275
 20
194.748070978
 30
0.0
 10
128.5284557479
 20
193.8364459826
 30
0.0
 10
128.3641581734
 20
193.077921115
 30
0.0
 10
128.1381467882
 20
192.4821122271
 30
0.0
 10
127.9846187814
 20
192.1917673873
 30
0.0
 10
127.8963852037
 20
192.0496307654
 30
0.0
  0
SPLINE
  5
6AB
100
AcDbEntity
  8
0
100
AcDbSpline
 62
7
  6
CONTINUOUS
 70
0
 71
3
 72
15
 73
11
 74
0
 42
0.0000001
 43
0.0000001
 44
0.0000000001
 40
0.0
 40
0.0
 40
0.0
 40
0.0
 40
0.1251111936
 40
0.2500079356
 40
0.3748427828
 40
0.4996643279
 40
0.6244945469
 40
0.7493730757
 40
0.8744206077
 40
1.0
 40
1.0
 40
1.0
 40
1.0
 10
127.8963852037
 20
192.0496307654
 30
0.0
 10
128.0527917424
 20
191.3956690733
 30
0.0
 10
128.2761601985
 20
190.0673875107
 30
0.0
 10
128.4468991975
 20
188.0591763072
 30
0.0
 10
128.5188104879
 20
186.0468632873
 30
0.0
 10
128.5247070373
 20
184.0339257335
 30
0.0
 10
128.4677365226
 20
182.0214748257
 30
0.0
 10
128.3206916669
 20
180.0114832723
 30
0.0
 10
128.0255005997
 20
178.013047682
 30
0.0
 10
127.6643971334
 20
176.7075693083
 30
0.0
 10
127.4182906401
 20
176.0791182008
 30
0.0
  0
LINE
  5
6AC
100
AcDbEntity
  8
0
100
AcDbLine
 62
7
  6
CONTINUOUS
 10
90.2264849844
 20
135.3180496115
 11
90.2279184553
 21
135.3468468824
  0
LINE
  5
6AD
100
AcDbEntity
  8
0
100
AcDbLine
 62
7
  6
CONTINUOUS
 10
90.2205470036
 20
127.0964411033
 11
90.2212627227
 21
127.0432562113
  0
LINE
  5
6AE
100
AcDbEntity
  8
0
100
AcDbLine
 62
7
  6
CONTINUOUS
 10
90.2212627227
 20
127.0432562113
 11
90.2220828621
 21
126.9897028072
  0
LINE
  5
6AF
100
AcDbEntity
  8
0
100
AcDbLine
 62
7
  6
CONTINUOUS
 10
90.2220828621
 20
126.9897028072
 11
90.2229902622
 21
126.9368468795
  0
LINE
  5
6B0
100
AcDbEntity
  8
0
100
AcDbLine
 62
7
  6
CONTINUOUS
 10
90.2220770914
 20
128.0538483982
 11
90.2229902622
 21
128.1070596549
  0
LINE
  5
6B1
100
AcDbEntity
  8
0
100
AcDbLine
 62
7
  6
CONTINUOUS
 10
90.220774951
 20
126.2453574884
 11
90.2215232012
 21
126.1921961779
  0
LINE
  5
6B2
100
AcDbEntity
  8
0
100
AcDbLine
 62
7
  6
CONTINUOUS
 10
90.2233242753
 20
126.0853656726
 11
90.2243606806
 21
126.0325915377
  0
LINE
  5
6B3
100
AcDbEntity
  8
0
100
AcDbLine
 62
7
  6
CONTINUOUS
 10
90.224360916
 20
127.7347192738
 11
90.2259043121
 21
127.8143991033
  0
LINE
  5
6B4
100
AcDbEntity
  8
0
100
AcDbLine
 62
7
  6
CONTINUOUS
 10
90.2259043121
 20
127.8143991033
 11
90.2267432309
 21
127.8543195662
  0
LINE
  5
6B5
100
AcDbEntity
  8
0
100
AcDbLine
 62
7
  6
CONTINUOUS
 10
90.2267432309
 20
127.8543195662
 11
90.2276272966
 21
127.8942937228
  0
LINE
  5
6B6
100
AcDbEntity
  8
0
100
AcDbLine
 62
7
  6
CONTINUOUS
 10
90.224360916
 20
127.3091872606
 11
90.2259043121
 21
127.2295074311
  0
LINE
  5
6B7
100
AcDbEntity
  8
0
100
AcDbLine
 62
7
  6
CONTINUOUS
 10
90.2259043121
 20
127.2295074311
 11
90.2267432309
 21
127.1895869682
  0
LINE
  5
6B8
100
AcDbEntity
  8
0
100
AcDbLine
 62
7
  6
CONTINUOUS
 10
90.2267432309
 20
127.1895869682
 11
90.2276272966
 21
127.1496128115
  0
SPLINE
  5
6B9
100
AcDbEntity
  8
BEZUGSACHSEN
100
AcDbSpline
 62
7
  6
CONTINUOUS
 70
0
 71
3
 72
10
 73
6
 74
0
 42
0.0000001
 43
0.0000001
 44
0.0000000001
 40
0.0
 40
0.0
 40
0.0
 40
0.0
 40
0.5015802479
 40
0.7510699732
 40
1.0
 40
1.0
 40
1.0
 40
1.0
 10
198.8659972523
 20
152.3706362085
 30
0.0
 10
199.5534230122
 20
152.5997781284
 30
0.0
 10
200.6044132301
 20
152.8877252255
 30
0.0
 10
202.0358352709
 20
153.0942299679
 30
0.0
 10
202.756379263
 20
153.129825587
 30
0.0
 10
203.1159972519
 20
153.1298255871
 30
0.0
  0
SPLINE
  5
6BA
100
AcDbEntity
  8
BEZUGSACHSEN
100
AcDbSpline
 62
7
  6
CONTINUOUS
 70
0
 71
3
 72
10
 73
6
 74
0
 42
0.0000001
 43
0.0000001
 44
0.0000000001
 40
0.0
 40
0.0
 40
0.0
 40
0.0
 40
0.2489300769
 40
0.4984197993
 40
1.0
 40
1.0
 40
1.0
 40
1.0
 10
203.1159972519
 20
153.1298255871
 30
0.0
 10
203.4756153133
 20
153.1298255814
 30
0.0
 10
204.1961593505
 20
153.094229669
 30
0.0
 10
205.6275814784
 20
152.8877255687
 30
0.0
 10
206.6785715567
 20
152.599778107
 30
0.0
 10
207.3659972523
 20
152.3706362085
 30
0.0
  0
SPLINE
  5
6BB
100
AcDbEntity
  8
BEZUGSACHSEN
100
AcDbSpline
 62
7
  6
CONTINUOUS
 70
0
 71
3
 72
10
 73
6
 74
0
 42
0.0000001
 43
0.0000001
 44
0.0000000001
 40
0.0
 40
0.0
 40
0.0
 40
0.0
 40
0.2489300769
 40
0.4984197995
 40
1.0
 40
1.0
 40
1.0
 40
1.0
 10
194.6159975958
 20
153.1298256083
 30
0.0
 10
194.9756156288
 20
153.1298255858
 30
0.0
 10
195.6961596072
 20
153.0942296407
 30
0.0
 10
197.1275816171
 20
152.8877255295
 30
0.0
 10
198.1785716111
 20
152.5997780889
 30
0.0
 10
198.8659972523
 20
152.3706362085
 30
0.0
  0
SPLINE
  5
6BC
100
AcDbEntity
  8
BEZUGSACHSEN
100
AcDbSpline
 62
7
  6
CONTINUOUS
 70
0
 71
3
 72
9
 73
5
 74
0
 42
0.0000001
 43
0.0000001
 44
0.0000000001
 40
0.0
 40
0.0
 40
0.0
 40
0.0
 40
0.251220005
 40
1.0
 40
1.0
 40
1.0
 40
1.0
 10
190.3659972523
 20
152.3706362085
 30
0.0
 10
190.600002284
 20
152.4486378857
 30
0.0
 10
191.536855704
 20
152.7418844019
 30
0.0
 10
192.5013742994
 20
152.9538459688
 30
0.0
 10
193.2310568845
 20
153.043726565
 30
0.0
  0
LINE
  5
6BD
100
AcDbEntity
  8
BEZUGSACHSEN
100
AcDbLine
 62
7
  6
CONTINUOUS
 10
193.2310568845
 20
153.043726565
 11
193.2676779254
 21
153.0481792306
  0
SPLINE
  5
6BE
100
AcDbEntity
  8
0
100
AcDbSpline
 62
7
  6
CONTINUOUS
 70
0
 71
3
 72
11
 73
7
 74
0
 42
0.0000001
 43
0.0000001
 44
0.0000000001
 40
0.0
 40
0.0
 40
0.0
 40
0.0
 40
0.2570782351
 40
0.5121024984
 40
0.7618830196
 40
1.0
 40
1.0
 40
1.0
 40
1.0
 10
181.8659972691
 20
141.6796863189
 30
0.0
 10
181.8660270861
 20
141.2596974645
 30
0.0
 10
181.969936625
 20
140.4196559528
 30
0.0
 10
182.412819712
 20
139.245329528
 30
0.0
 10
183.0748464814
 20
138.2193185055
 30
0.0
 10
183.6037524616
 20
137.6214497936
 30
0.0
 10
183.8660172431
 20
137.334139163
 30
0.0
  0
SPLINE
  5
6BF
100
AcDbEntity
  8
RUNDUNGEN
100
AcDbSpline
 62
7
  6
CONTINUOUS
 70
0
 71
3
 72
11
 73
7
 74
0
 42
0.0000001
 43
0.0000001
 44
0.0000000001
 40
0.0
 40
0.0
 40
0.0
 40
0.0
 40
0.2570782351
 40
0.5121024984
 40
0.7618830196
 40
1.0
 40
1.0
 40
1.0
 40
1.0
 10
215.8659972355
 20
141.6796863189
 30
0.0
 10
215.8659674185
 20
141.2596974645
 30
0.0
 10
215.7620578796
 20
140.4196559528
 30
0.0
 10
215.3191747925
 20
139.245329528
 30
0.0
 10
214.6571480232
 20
138.2193185055
 30
0.0
 10
214.128242043
 20
137.6214497936
 30
0.0
 10
213.8659772615
 20
137.334139163
 30
0.0
  0
SPLINE
  5
6C0
100
AcDbEntity
  8
0
100
AcDbSpline
 62
7
  6
CONTINUOUS
 70
0
 71
3
 72
16
 73
12
 74
0
 42
0.0000001
 43
0.0000001
 44
0.0000000001
 40
0.0
 40
0.0
 40
0.0
 40
0.0
 40
0.1279523949
 40
0.2504229091
 40
0.3712283634
 40
0.4916643198
 40
0.6123332289
 40
0.7342860495
 40
0.8606139958
 40
0.9278382691
 40
1.0
 40
1.0
 40
1.0
 40
1.0
 10
127.8963852037
 20
26.5903243671
 30
0.0
 10
128.046552607
 20
26.3107764812
 30
0.0
 10
128.2722695622
 20
25.725751645
 30
0.0
 10
128.4462994423
 20
24.8192101835
 30
0.0
 10
128.5188079149
 20
23.9189190577
 30
0.0
 10
128.5247315455
 20
23.0207600006
 30
0.0
 10
128.4673282034
 20
22.1211941072
 30
0.0
 10
128.3181288492
 20
21.2163386178
 30
0.0
 10
128.0656688119
 20
20.4693287404
 30
0.0
 10
127.7457260193
 20
19.8912762381
 30
0.0
 10
127.5364868407
 20
19.6141741905
 30
0.0
 10
127.4182906401
 20
19.4797940542
 30
0.0
  0
SPLINE
  5
6C1
100
AcDbEntity
  8
0
100
AcDbSpline
 62
7
  6
CONTINUOUS
 70
0
 71
3
 72
15
 73
11
 74
0
 42
0.0000001
 43
0.0000001
 44
0.0000000001
 40
0.0
 40
0.0
 40
0.0
 40
0.0
 40
0.1253761874
 40
0.2503596611
 40
0.3752419882
 40
0.5001036976
 40
0.6249638895
 40
0.7498369859
 40
0.8747756773
 40
1.0
 40
1.0
 40
1.0
 40
1.0
 10
127.7182906401
 20
43.8403243671
 30
0.0
 10
127.9483838044
 20
43.1512607559
 30
0.0
 10
128.2713647541
 20
41.7295800934
 30
0.0
 10
128.5086846191
 20
39.5667407518
 30
0.0
 10
128.6095558085
 20
37.3969099636
 30
0.0
 10
128.6390630401
 20
35.2263992978
 30
0.0
 10
128.623155521
 20
33.0558169157
 30
0.0
 10
128.5471433176
 20
30.885567168
 30
0.0
 10
128.3570135284
 20
28.7197439272
 30
0.0
 10
128.0896777479
 20
27.289689643
 30
0.0
 10
127.8963852037
 20
26.5903243671
 30
0.0
  0
SPLINE
  5
6C2
100
AcDbEntity
  8
0
100
AcDbSpline
 62
7
  6
CONTINUOUS
 70
0
 71
3
 72
15
 73
11
 74
0
 42
0.0000001
 43
0.0000001
 44
0.0000000001
 40
0.0
 40
0.0
 40
0.0
 40
0.0
 40
0.1253761874
 40
0.2503596611
 40
0.3752419882
 40
0.5001036976
 40
0.6249638895
 40
0.7498369859
 40
0.8747756773
 40
1.0
 40
1.0
 40
1.0
 40
1.0
 10
127.7182906401
 20
43.8403243671
 30
0.0
 10
127.9483838044
 20
44.5293879783
 30
0.0
 10
128.2713647541
 20
45.9510686408
 30
0.0
 10
128.5086846191
 20
48.1139079824
 30
0.0
 10
128.6095558085
 20
50.2837387706
 30
0.0
 10
128.6390630401
 20
52.4542494364
 30
0.0
 10
128.623155521
 20
54.6248318184
 30
0.0
 10
128.5471433176
 20
56.7950815662
 30
0.0
 10
128.3570135284
 20
58.960904807
 30
0.0
 10
128.0896777479
 20
60.3909590912
 30
0.0
 10
127.8963852037
 20
61.0903243671
 30
0.0
  0
SPLINE
  5
6C3
100
AcDbEntity
  8
0
100
AcDbSpline
 62
7
  6
CONTINUOUS
 70
0
 71
3
 72
16
 73
12
 74
0
 42
0.0000001
 43
0.0000001
 44
0.0000000001
 40
0.0
 40
0.0
 40
0.0
 40
0.0
 40
0.1279523949
 40
0.2504229091
 40
0.3712283634
 40
0.4916643198
 40
0.6123332289
 40
0.7342860495
 40
0.8606139958
 40
0.9278382691
 40
1.0
 40
1.0
 40
1.0
 40
1.0
 10
127.8963852037
 20
61.0903243671
 30
0.0
 10
128.046552607
 20
61.369872253
 30
0.0
 10
128.2722695622
 20
61.9548970892
 30
0.0
 10
128.4462994423
 20
62.8614385507
 30
0.0
 10
128.5188079149
 20
63.7617296765
 30
0.0
 10
128.5247315455
 20
64.6598887335
 30
0.0
 10
128.4673282034
 20
65.5594546269
 30
0.0
 10
128.3181288492
 20
66.4643101164
 30
0.0
 10
128.0656688119
 20
67.2113199938
 30
0.0
 10
127.7457260193
 20
67.7893724961
 30
0.0
 10
127.5364868407
 20
68.0664745436
 30
0.0
 10
127.4182906401
 20
68.20085468
 30
0.0
  0
SPLINE
  5
6C4
100
AcDbEntity
  8
0
100
AcDbSpline
 62
7
  6
CONTINUOUS
 70
0
 71
3
 72
15
 73
11
 74
0
 42
0.0000001
 43
0.0000001
 44
0.0000000001
 40
0.0
 40
0.0
 40
0.0
 40
0.0
 40
0.1252249954
 40
0.2501637576
 40
0.3750369451
 40
0.4998970999
 40
0.6247587779
 40
0.7496410353
 40
0.8746243683
 40
1.0
 40
1.0
 40
1.0
 40
1.0
 10
119.5401960765
 20
61.0903243671
 30
0.0
 10
119.3469024938
 20
60.3909553337
 30
0.0
 10
119.0795675904
 20
58.9608965825
 30
0.0
 10
118.8894329064
 20
56.7950688352
 30
0.0
 10
118.8134298714
 20
54.6248180205
 30
0.0
 10
118.7975144814
 20
52.454235603
 30
0.0
 10
118.8270284571
 20
50.2837258232
 30
0.0
 10
118.9278955621
 20
48.1138962247
 30
0.0
 10
119.1652198672
 20
45.9510618185
 30
0.0
 10
119.4881984955
 20
44.5293849246
 30
0.0
 10
119.7182906401
 20
43.8403243671
 30
0.0
  0
SPLINE
  5
6C5
100
AcDbEntity
  8
0
100
AcDbSpline
 62
7
  6
CONTINUOUS
 70
0
 71
3
 72
15
 73
11
 74
0
 42
0.0000001
 43
0.0000001
 44
0.0000000001
 40
0.0
 40
0.0
 40
0.0
 40
0.0
 40
0.1252249954
 40
0.2501637576
 40
0.3750369451
 40
0.4998970999
 40
0.6247587779
 40
0.7496410353
 40
0.8746243683
 40
1.0
 40
1.0
 40
1.0
 40
1.0
 10
119.5401960765
 20
26.5903243671
 30
0.0
 10
119.3469024938
 20
27.2896934004
 30
0.0
 10
119.0795675904
 20
28.7197521517
 30
0.0
 10
118.8894329064
 20
30.885579899
 30
0.0
 10
118.8134298714
 20
33.0558307137
 30
0.0
 10
118.7975144814
 20
35.2264131312
 30
0.0
 10
118.8270284571
 20
37.396922911
 30
0.0
 10
118.9278955621
 20
39.5667525095
 30
0.0
 10
119.1652198672
 20
41.7295869157
 30
0.0
 10
119.4881984955
 20
43.1512638096
 30
0.0
 10
119.7182906401
 20
43.8403243671
 30
0.0
  0
SPLINE
  5
6C6
100
AcDbEntity
  8
0
100
AcDbSpline
 62
7
  6
CONTINUOUS
 70
0
 71
3
 72
16
 73
12
 74
0
 42
0.0000001
 43
0.0000001
 44
0.0000000001
 40
0.0
 40
0.0
 40
0.0
 40
0.0
 40
0.0721615177
 40
0.1393850479
 40
0.2657129799
 40
0.3876659585
 40
0.5083351768
 40
0.6287714084
 40
0.7495770629
 40
0.8720476741
 40
1.0
 40
1.0
 40
1.0
 40
1.0
 10
120.0182906401
 20
19.4797940542
 30
0.0
 10
119.9000947987
 20
19.6141737822
 30
0.0
 10
119.6908597484
 20
19.8912758037
 30
0.0
 10
119.3709140204
 20
20.4693237361
 30
0.0
 10
119.1184577928
 20
21.2163334019
 30
0.0
 10
118.9692497468
 20
22.1211882601
 30
0.0
 10
118.911850274
 20
23.0207565163
 30
0.0
 10
118.9177737808
 20
23.9189171905
 30
0.0
 10
118.9902798798
 20
24.8192100728
 30
0.0
 10
119.1643140058
 20
25.7257511016
 30
0.0
 10
119.3900287668
 20
26.3107766554
 30
0.0
 10
119.5401960765
 20
26.5903243671
 30
0.0
  0
SPLINE
  5
6C7
100
AcDbEntity
  8
0
100
AcDbSpline
 62
7
  6
CONTINUOUS
 70
0
 71
3
 72
16
 73
12
 74
0
 42
0.0000001
 43
0.0000001
 44
0.0000000001
 40
0.0
 40
0.0
 40
0.0
 40
0.0
 40
0.0721615177
 40
0.1393850479
 40
0.2657129799
 40
0.3876659585
 40
0.5083351768
 40
0.6287714084
 40
0.7495770629
 40
0.8720476741
 40
1.0
 40
1.0
 40
1.0
 40
1.0
 10
120.0182906401
 20
68.20085468
 30
0.0
 10
119.9000947987
 20
68.066474952
 30
0.0
 10
119.6908597484
 20
67.7893729304
 30
0.0
 10
119.3709140204
 20
67.211324998
 30
0.0
 10
119.1184577928
 20
66.4643153323
 30
0.0
 10
118.9692497468
 20
65.5594604741
 30
0.0
 10
118.911850274
 20
64.6598922179
 30
0.0
 10
118.9177737808
 20
63.7617315437
 30
0.0
 10
118.9902798798
 20
62.8614386613
 30
0.0
 10
119.1643140058
 20
61.9548976325
 30
0.0
 10
119.3900287668
 20
61.3698720787
 30
0.0
 10
119.5401960765
 20
61.0903243671
 30
0.0
  0
ELLIPSE
  5
6C8
100
AcDbEntity
  8
0
100
AcDbEllipse
 62
7
  6
CONTINUOUS
 10
105.7182906401
 20
134.4462079571
 30
0.0
 11
15.5
 21
-0.0
 31
0.0
 40
0.255319362
 41
2.9417160697
 42
2.9565054402
  0
ELLIPSE
  5
6C9
100
AcDbEntity
  8
0
100
AcDbEllipse
 62
7
  6
CONTINUOUS
 10
105.7182906401
 20
133.1366337521
 30
0.0
 11
15.5
 21
-0.0
 31
0.0
 40
0.6808512211
 41
2.9305950634
 42
2.9417160697
  0
ELLIPSE
  5
6CA
100
AcDbEntity
  8
0
100
AcDbEllipse
 62
7
  6
CONTINUOUS
 10
105.7182906401
 20
130.3738785658
 30
0.0
 11
-0.0
 21
23.7446327312
 31
0.0
 40
0.6527791007
 41
1.3523700629
 42
1.3597987366
  0
ELLIPSE
  5
6CB
100
AcDbEntity
  8
0
100
AcDbEllipse
 62
7
  6
CONTINUOUS
 10
105.7182906401
 20
121.7982855182
 30
0.0
 11
0.0
 21
63.3193829322
 31
0.0
 40
0.244790762
 41
1.3486511757
 42
1.3523700629
  0
ELLIPSE
  5
6CC
100
AcDbEntity
  8
0
100
AcDbEllipse
 62
7
  6
CONTINUOUS
 10
105.7182906401
 20
150.5613655754
 30
0.0
 11
-0.0
 21
63.3193829322
 31
0.0
 40
0.244790762
 41
-4.4939627165
 42
-4.4902438293
  0
ELLIPSE
  5
6CD
100
AcDbEntity
  8
0
100
AcDbEllipse
 62
7
  6
CONTINUOUS
 10
105.7182906401
 20
141.9857773325
 30
0.0
 11
-0.0
 21
23.7446549041
 31
0.0
 40
0.6527784911
 41
-4.5013913902
 42
-4.4939627165
  0
ELLIPSE
  5
6CE
100
AcDbEntity
  8
0
100
AcDbEllipse
 62
7
  6
CONTINUOUS
 10
105.7182906401
 20
139.2230167284
 30
0.0
 11
15.5
 21
0.0
 31
0.0
 40
0.6808509827
 41
3.3414692375
 42
3.3525902438
  0
ELLIPSE
  5
6CF
100
AcDbEntity
  8
0
100
AcDbEllipse
 62
7
  6
CONTINUOUS
 10
105.7182906401
 20
137.9134432571
 30
0.0
 11
15.5
 21
0.0
 31
0.0
 40
0.255319362
 41
-2.9565054402
 42
-2.9417160697
  0
ELLIPSE
  5
6D0
100
AcDbEntity
  8
0
100
AcDbEllipse
 62
7
  6
CONTINUOUS
 10
105.7182906401
 20
133.1549227929
 30
0.0
 11
0.0
 21
63.3193829322
 31
0.0
 40
0.244790762
 41
1.5298171234
 42
1.5334489286
  0
ELLIPSE
  5
6D1
100
AcDbEntity
  8
0
100
AcDbEllipse
 62
7
  6
CONTINUOUS
 10
105.7182906401
 20
134.6325931751
 30
0.0
 11
-0.0
 21
23.7446327312
 31
0.0
 40
0.6527791007
 41
1.5334489286
 42
1.5407111503
  0
ELLIPSE
  5
6D2
100
AcDbEntity
  8
0
100
AcDbEllipse
 62
7
  6
CONTINUOUS
 10
105.7182906401
 20
134.5100375092
 30
0.0
 11
0.0
 21
23.7447006652
 31
0.0
 40
0.6527772331
 41
1.5282835221
 42
1.5355470853
  0
ELLIPSE
  5
6D3
100
AcDbEntity
  8
0
100
AcDbEllipse
 62
7
  6
CONTINUOUS
 10
105.7182906401
 20
132.8281289112
 30
0.0
 11
-0.0
 21
63.3190206165
 31
0.0
 40
0.2447921628
 41
1.5246509124
 42
1.5282835221
  0
ELLIPSE
  5
6D4
100
AcDbEntity
  8
0
100
AcDbEllipse
 62
7
  6
CONTINUOUS
 10
105.7182906401
 20
126.4255702487
 30
0.0
 11
15.5
 21
0.0
 31
0.0
 40
0.1702127606
 41
3.352590258
 42
3.3732560229
  0
ELLIPSE
  5
6D5
100
AcDbEntity
  8
0
100
AcDbEllipse
 62
7
  6
CONTINUOUS
 10
105.7182906401
 20
126.9781234227
 30
0.0
 11
15.5
 21
-0.0
 31
0.0
 40
0.3404255211
 41
-2.9408931536
 42
-2.9305950492
  0
ELLIPSE
  5
6D6
100
AcDbEntity
  8
0
100
AcDbEllipse
 62
7
  6
CONTINUOUS
 10
105.7182906401
 20
128.030038283
 30
0.0
 11
15.5
 21
0.0
 31
0.0
 40
0.6808510423
 41
3.3320155799
 42
3.3422921536
  0
ELLIPSE
  5
6D7
100
AcDbEntity
  8
0
100
AcDbEllipse
 62
7
  6
CONTINUOUS
 10
105.7182906401
 20
132.024920344
 30
0.0
 11
-0.0
 21
31.6595130799
 31
0.0
 40
0.4895842826
 41
1.7543795526
 42
1.7612192532
  0
ELLIPSE
  5
6D8
100
AcDbEntity
  8
0
100
AcDbEllipse
 62
7
  6
CONTINUOUS
 10
105.7182906401
 20
132.7338624428
 30
0.0
 11
-0.0
 21
47.4893098081
 31
0.0
 40
0.3263892456
 41
1.6762605367
 42
1.6796401435
  0
ELLIPSE
  5
6D9
100
AcDbEntity
  8
0
100
AcDbEllipse
 62
7
  6
CONTINUOUS
 10
105.7182906401
 20
130.2342956755
 30
0.0
 11
-0.0
 21
23.7447006652
 31
0.0
 40
0.6527772331
 41
1.6695049285
 42
1.6762605367
  0
ELLIPSE
  5
6DA
100
AcDbEntity
  8
0
100
AcDbEllipse
 62
7
  6
CONTINUOUS
 10
105.7182906401
 20
128.9342935989
 30
0.0
 11
15.5
 21
0.0
 31
0.0
 40
0.6808509827
 41
3.2301762033
 42
3.2403012553
  0
ELLIPSE
  5
6DB
100
AcDbEntity
  8
0
100
AcDbEllipse
 62
7
  6
CONTINUOUS
 10
105.7182906401
 20
128.4674851439
 30
0.0
 11
15.5
 21
-0.0
 31
0.0
 40
0.3404254913
 41
3.2200602485
 42
3.2301762033
  0
ELLIPSE
  5
6DC
100
AcDbEntity
  8
0
100
AcDbEllipse
 62
7
  6
CONTINUOUS
 10
105.7182906401
 20
126.5764213905
 30
0.0
 11
15.5
 21
-0.0
 31
0.0
 40
0.3404254913
 41
3.0530091039
 42
3.0631250586
  0
ELLIPSE
  5
6DD
100
AcDbEntity
  8
0
100
AcDbEllipse
 62
7
  6
CONTINUOUS
 10
105.7182906401
 20
126.1096129355
 30
0.0
 11
15.5
 21
0.0
 31
0.0
 40
0.6808509827
 41
3.0428840519
 42
3.0530091039
  0
ELLIPSE
  5
6DE
100
AcDbEntity
  8
0
100
AcDbEllipse
 62
7
  6
CONTINUOUS
 10
105.7182906401
 20
124.8096108589
 30
0.0
 11
0.0
 21
23.7447006652
 31
0.0
 40
0.6527772331
 41
1.4653321169
 42
1.4720877251
  0
ELLIPSE
  5
6DF
100
AcDbEntity
  8
0
100
AcDbEllipse
 62
7
  6
CONTINUOUS
 10
105.7182906401
 20
122.3100487598
 30
0.0
 11
0.0
 21
47.4892654624
 31
0.0
 40
0.3263895503
 41
1.4619525101
 42
1.4653321169
  0
ELLIPSE
  5
6E0
100
AcDbEntity
  8
0
100
AcDbEllipse
 62
7
  6
CONTINUOUS
 10
105.7182906401
 20
125.6721660674
 30
0.0
 11
15.5
 21
-0.0
 31
0.0
 40
0.3404254913
 41
3.0530091039
 42
3.0631250586
  0
ELLIPSE
  5
6E1
100
AcDbEntity
  8
0
100
AcDbEllipse
 62
7
  6
CONTINUOUS
 10
105.7182906401
 20
125.2053576124
 30
0.0
 11
15.5
 21
0.0
 31
0.0
 40
0.6808509827
 41
3.0428840519
 42
3.0530091039
  0
ELLIPSE
  5
6E2
100
AcDbEntity
  8
0
100
AcDbEllipse
 62
7
  6
CONTINUOUS
 10
105.7182906401
 20
123.9053549895
 30
0.0
 11
-0.0
 21
23.7447062084
 31
0.0
 40
0.6527770807
 41
1.4653321169
 42
1.4720877251
  0
ELLIPSE
  5
6E3
100
AcDbEntity
  8
0
100
AcDbEllipse
 62
7
  6
CONTINUOUS
 10
105.7182906401
 20
121.405793474
 30
0.0
 11
0.0
 21
47.4892654624
 31
0.0
 40
0.3263895503
 41
1.4619525101
 42
1.4653321169
  0
ELLIPSE
  5
6E4
100
AcDbEntity
  8
0
100
AcDbEllipse
 62
7
  6
CONTINUOUS
 10
105.7182906401
 20
116.2470781155
 30
0.0
 11
-0.0
 21
94.9785530976
 31
0.0
 40
0.1631947371
 41
1.4585716547
 42
1.4619525101
  0
ELLIPSE
  5
6E5
100
AcDbEntity
  8
0
100
AcDbEllipse
 62
7
  6
CONTINUOUS
 10
105.7182906401
 20
126.908421605
 30
0.0
 11
15.5
 21
0.0
 31
0.0
 40
0.2042556588
 41
-3.1001560593
 42
-3.0833338969
  0
ELLIPSE
  5
6E6
100
AcDbEntity
  8
0
100
AcDbEllipse
 62
7
  6
CONTINUOUS
 10
105.7182906401
 20
127.1707189527
 30
0.0
 11
15.5
 21
-0.0
 31
0.0
 40
0.6127654169
 41
3.1662187921
 42
3.1830292479
  0
ELLIPSE
  5
6E7
100
AcDbEntity
  8
0
100
AcDbEllipse
 62
7
  6
CONTINUOUS
 10
105.7182906401
 20
127.8731875817
 30
0.0
 11
15.5
 21
-0.0
 31
0.0
 40
0.6127654169
 41
3.1001560593
 42
3.1169665151
  0
ELLIPSE
  5
6E8
100
AcDbEntity
  8
0
100
AcDbEllipse
 62
7
  6
CONTINUOUS
 10
105.7182906401
 20
128.1354851131
 30
0.0
 11
15.5
 21
-0.0
 31
0.0
 40
0.2042553727
 41
3.0833338969
 42
3.1001560593
  0
ELLIPSE
  5
6E9
100
AcDbEntity
  8
0
100
AcDbEllipse
 62
7
  6
CONTINUOUS
 10
105.7182906401
 20
126.0148041758
 30
0.0
 11
15.5
 21
-0.0
 31
0.0
 40
0.2042551568
 41
-3.0967927294
 42
-3.0799676281
  0
ELLIPSE
  5
6EA
100
AcDbEntity
  8
0
100
AcDbEllipse
 62
7
  6
CONTINUOUS
 10
105.7182906401
 20
126.2983788647
 30
0.0
 11
15.5
 21
0.0
 31
0.0
 40
0.6127661718
 41
3.1695801782
 42
3.1863925777
  0
ELLIPSE
  5
6EB
100
AcDbEntity
  8
0
100
AcDbEllipse
 62
7
  6
CONTINUOUS
 10
105.7182906401
 20
126.6389034252
 30
0.0
 11
-0.0
 21
29.0212768316
 31
0.0
 40
0.5340909047
 41
-4.6933286929
 42
-4.6731584946
  0
ELLIPSE
  5
6EC
100
AcDbEntity
  8
0
100
AcDbEllipse
 62
7
  6
CONTINUOUS
 10
105.7182906401
 20
133.3921733548
 30
0.0
 11
0.0
 21
79.1490243902
 31
0.0
 40
0.1958331151
 41
-4.6280416903
 42
-4.6260181964
  0
ELLIPSE
  5
6ED
100
AcDbEntity
  8
0
100
AcDbEllipse
 62
7
  6
CONTINUOUS
 10
105.7182906401
 20
130.6610937143
 30
0.0
 11
0.0
 21
47.4892654624
 31
0.0
 40
0.3263895503
 41
-4.6260181964
 42
-4.6226449033
  0
ELLIPSE
  5
6EE
100
AcDbEntity
  8
0
100
AcDbEllipse
 62
7
  6
CONTINUOUS
 10
105.7182906401
 20
150.0858582823
 30
0.0
 11
-0.0
 21
31.6593291525
 31
0.0
 40
0.4895871269
 41
-4.1170294635
 42
-4.1129653366
  0
ELLIPSE
  5
6EF
100
AcDbEntity
  8
0
100
AcDbEllipse
 62
7
  6
CONTINUOUS
 10
105.7182906401
 20
141.208581855
 30
0.0
 11
-0.0
 21
15.8298457331
 31
0.0
 40
0.9791630482
 41
-4.1251243107
 42
-4.1170294635
  0
ELLIPSE
  5
6F0
100
AcDbEntity
  8
0
100
AcDbEllipse
 62
7
  6
CONTINUOUS
 10
105.7182906401
 20
135.3611729359
 30
0.0
 11
15.5
 21
0.0
 31
0.0
 40
0.3404254913
 41
-2.566389336
 42
-2.5543279839
  0
ELLIPSE
  5
6F1
100
AcDbEntity
  8
0
100
AcDbEllipse
 62
7
  6
CONTINUOUS
 10
105.7182906401
 20
131.9470194415
 30
0.0
 11
15.5
 21
-0.0
 31
0.0
 40
0.2042556244
 41
-2.6176213539
 42
-2.5981057234
  0
ELLIPSE
  5
6F2
100
AcDbEntity
  8
0
100
AcDbEllipse
 62
7
  6
CONTINUOUS
 10
105.7182906401
 20
135.1150241752
 30
0.0
 11
15.5
 21
-0.0
 31
0.0
 40
0.6127668731
 41
-2.6369193125
 42
-2.6176213539
  0
ELLIPSE
  5
6F3
100
AcDbEntity
  8
0
100
AcDbEllipse
 62
7
  6
CONTINUOUS
 10
105.7182906401
 20
143.2793309623
 30
0.0
 11
-0.0
 21
26.3829811215
 31
0.0
 40
0.5874999466
 41
-4.2191958524
 42
-4.2077156393
  0
ELLIPSE
  5
6F4
100
AcDbEntity
  8
0
100
AcDbEllipse
 62
7
  6
CONTINUOUS
 10
105.7182906401
 20
160.7661906875
 30
0.0
 11
-0.0
 21
63.3186583049
 31
0.0
 40
0.2447935635
 41
-4.2230068348
 42
-4.2191958524
  0
ELLIPSE
  5
6F5
100
AcDbEntity
  8
0
100
AcDbEllipse
 62
7
  6
CONTINUOUS
 10
105.7182906401
 20
128.4760941246
 30
0.0
 11
15.5
 21
0.0
 31
0.0
 40
0.2553200925
 41
2.5502861064
 42
2.566389336
  0
ELLIPSE
  5
6F6
100
AcDbEntity
  8
0
100
AcDbEllipse
 62
7
  6
CONTINUOUS
 10
105.7182906401
 20
124.7993280378
 30
0.0
 11
15.5
 21
0.0
 31
0.0
 40
0.6808512211
 41
2.5380936588
 42
2.5502861064
  0
ELLIPSE
  5
6F7
100
AcDbEntity
  8
0
100
AcDbEllipse
 62
7
  6
CONTINUOUS
 10
105.7182906401
 20
117.312909354
 30
0.0
 11
0.0
 21
23.7444968643
 31
0.0
 40
0.6527828359
 41
0.9591118345
 42
0.967297332
  0
ELLIPSE
  5
6F8
100
AcDbEntity
  8
0
100
AcDbEllipse
 62
7
  6
CONTINUOUS
 10
105.7182906401
 20
144.7429183769
 30
0.0
 11
0.0
 21
23.7445079507
 31
0.0
 40
0.6527825311
 41
-4.1088899856
 42
-4.1007044881
  0
ELLIPSE
  5
6F9
100
AcDbEntity
  8
0
100
AcDbEllipse
 62
7
  6
CONTINUOUS
 10
105.7182906401
 20
137.256491304
 30
0.0
 11
15.5
 21
0.0
 31
0.0
 40
0.6808509827
 41
-2.5502861064
 42
-2.5380936588
  0
ELLIPSE
  5
6FA
100
AcDbEntity
  8
0
100
AcDbEllipse
 62
7
  6
CONTINUOUS
 10
105.7182906401
 20
133.5797272773
 30
0.0
 11
15.5
 21
-0.0
 31
0.0
 40
0.2553200925
 41
-2.566389336
 42
-2.5502861064
  0
ELLIPSE
  5
6FB
100
AcDbEntity
  8
0
100
AcDbEllipse
 62
7
  6
CONTINUOUS
 10
105.7182906401
 20
133.4999278861
 30
0.0
 11
15.5
 21
0.0
 31
0.0
 40
0.2553186315
 41
-2.605939026
 42
-2.59023508
  0
ELLIPSE
  5
6FC
100
AcDbEntity
  8
0
100
AcDbEllipse
 62
7
  6
CONTINUOUS
 10
105.7182906401
 20
135.5198174097
 30
0.0
 11
15.5
 21
-0.0
 31
0.0
 40
0.510637263
 41
-2.6214979284
 42
-2.605939026
  0
ELLIPSE
  5
6FD
100
AcDbEntity
  8
0
100
AcDbEllipse
 62
7
  6
CONTINUOUS
 10
105.7182906401
 20
139.4532585051
 30
0.0
 11
0.0
 21
15.8298457331
 31
0.0
 40
0.9791630482
 41
-4.2077156393
 42
-4.1922942552
  0
ELLIPSE
  5
6FE
100
AcDbEntity
  8
0
100
AcDbEllipse
 62
7
  6
CONTINUOUS
 10
105.7182906401
 20
162.4151218659
 30
0.0
 11
-0.0
 21
63.3186583049
 31
0.0
 40
0.2447935635
 41
-4.2115504036
 42
-4.2077156393
  0
ELLIPSE
  5
6FF
100
AcDbEntity
  8
0
100
AcDbEllipse
 62
7
  6
CONTINUOUS
 10
105.7182906401
 20
101.8215506006
 30
0.0
 11
0.0
 21
63.3186583049
 31
0.0
 40
0.2447935635
 41
1.0661229857
 42
1.06995775
  0
ELLIPSE
  5
700
100
AcDbEntity
  8
0
100
AcDbEllipse
 62
7
  6
CONTINUOUS
 10
105.7182906401
 20
124.7834139613
 30
0.0
 11
0.0
 21
15.8298457331
 31
0.0
 40
0.9791630482
 41
1.0507016016
 42
1.0661229857
  0
ELLIPSE
  5
701
100
AcDbEntity
  8
0
100
AcDbEllipse
 62
7
  6
CONTINUOUS
 10
105.7182906401
 20
128.7168550568
 30
0.0
 11
15.5
 21
0.0
 31
0.0
 40
0.510637263
 41
2.605939026
 42
2.6214979284
  0
ELLIPSE
  5
702
100
AcDbEntity
  8
0
100
AcDbEllipse
 62
7
  6
CONTINUOUS
 10
105.7182906401
 20
130.7367445804
 30
0.0
 11
15.5
 21
-0.0
 31
0.0
 40
0.2553186315
 41
2.59023508
 42
2.605939026
  0
ELLIPSE
  5
703
100
AcDbEntity
  8
0
100
AcDbEllipse
 62
7
  6
CONTINUOUS
 10
105.7182906401
 20
131.5002102633
 30
0.0
 11
15.5
 21
0.0
 31
0.0
 40
0.2042556244
 41
-2.7741890243
 42
-2.7561227534
  0
ELLIPSE
  5
704
100
AcDbEntity
  8
0
100
AcDbEllipse
 62
7
  6
CONTINUOUS
 10
105.7182906401
 20
133.20599041
 30
0.0
 11
15.5
 21
0.0
 31
0.0
 40
0.5106373301
 41
-2.7885518533
 42
-2.7741890243
  0
ELLIPSE
  5
705
100
AcDbEntity
  8
0
100
AcDbEllipse
 62
7
  6
CONTINUOUS
 10
105.7182906401
 20
135.9426118436
 30
0.0
 11
0.0
 21
15.8298471189
 31
0.0
 40
0.9791629624
 41
1.9095500006
 42
1.923837127
  0
ELLIPSE
  5
706
100
AcDbEntity
  8
0
100
AcDbEllipse
 62
7
  6
CONTINUOUS
 10
105.7182906401
 20
141.2029382017
 30
0.0
 11
-0.0
 21
31.6593346956
 31
0.0
 40
0.4895870412
 41
-4.3807518668
 42
-4.3736353066
  0
ELLIPSE
  5
707
100
AcDbEntity
  8
0
100
AcDbEllipse
 62
7
  6
CONTINUOUS
 10
105.7182906401
 20
156.6655328677
 30
0.0
 11
0.0
 21
79.1501344701
 31
0.0
 40
0.1958303685
 41
-4.3843035112
 42
-4.3807518668
  0
ELLIPSE
  5
708
100
AcDbEntity
  8
0
100
AcDbEllipse
 62
7
  6
CONTINUOUS
 10
105.7182906401
 20
129.0878074329
 30
0.0
 11
15.5
 21
0.0
 31
0.0
 40
0.2553186315
 41
2.7269352734
 42
2.7415740428
  0
ELLIPSE
  5
709
100
AcDbEntity
  8
0
100
AcDbEllipse
 62
7
  6
CONTINUOUS
 10
105.7182906401
 20
126.4305335472
 30
0.0
 11
15.5
 21
-0.0
 31
0.0
 40
0.6808512211
 41
2.715894183
 42
2.7269352734
  0
ELLIPSE
  5
70A
100
AcDbEntity
  8
0
100
AcDbEllipse
 62
7
  6
CONTINUOUS
 10
105.7182906401
 20
120.9829802487
 30
0.0
 11
0.0
 21
23.7447685996
 31
0.0
 40
0.6527753654
 41
1.1377064288
 42
1.1450978562
  0
ELLIPSE
  5
70B
100
AcDbEntity
  8
0
100
AcDbEllipse
 62
7
  6
CONTINUOUS
 10
105.7182906401
 20
104.3747123434
 30
0.0
 11
0.0
 21
63.3186583049
 31
0.0
 40
0.2447935635
 41
1.134001209
 42
1.1377064288
  0
ELLIPSE
  5
70C
100
AcDbEntity
  8
0
100
AcDbEllipse
 62
7
  6
CONTINUOUS
 10
105.7182906401
 20
131.1804639301
 30
0.0
 11
15.5
 21
0.0
 31
0.0
 40
0.3404254913
 41
3.0240642071
 42
3.0342089751
  0
ELLIPSE
  5
70D
100
AcDbEntity
  8
0
100
AcDbEllipse
 62
7
  6
CONTINUOUS
 10
105.7182906401
 20
129.9430101884
 30
0.0
 11
-0.0
 21
15.8298457331
 31
0.0
 40
0.9791630482
 41
1.4464980355
 42
1.4532678803
  0
ELLIPSE
  5
70E
100
AcDbEntity
  8
0
100
AcDbEllipse
 62
7
  6
CONTINUOUS
 10
105.7182906401
 20
126.0179574904
 30
0.0
 11
-0.0
 21
47.4889937287
 31
0.0
 40
0.3263914179
 41
1.4431109455
 42
1.4464980355
  0
ELLIPSE
  5
70F
100
AcDbEntity
  8
0
100
AcDbEllipse
 62
7
  6
CONTINUOUS
 10
105.7182906401
 20
138.2719064591
 30
0.0
 11
-0.0
 21
47.4889937287
 31
0.0
 40
0.3263914179
 41
1.6950946181
 42
1.6984817081
  0
ELLIPSE
  5
710
100
AcDbEntity
  8
0
100
AcDbEllipse
 62
7
  6
CONTINUOUS
 10
105.7182906401
 20
134.3468537611
 30
0.0
 11
0.0
 21
15.8298457331
 31
0.0
 40
0.9791630482
 41
1.6883247733
 42
1.6950946181
  0
ELLIPSE
  5
711
100
AcDbEntity
  8
0
100
AcDbEllipse
 62
7
  6
CONTINUOUS
 10
105.7182906401
 20
133.1094000194
 30
0.0
 11
15.5
 21
0.0
 31
0.0
 40
0.3404254913
 41
3.2489763321
 42
3.2591211001
  0
ELLIPSE
  5
712
100
AcDbEntity
  8
0
100
AcDbEllipse
 62
7
  6
CONTINUOUS
 10
105.7182906401
 20
133.4268448144
 30
0.0
 11
0.0
 21
31.6596064302
 31
0.0
 40
0.4895828391
 41
1.5064777961
 42
1.5137492538
  0
ELLIPSE
  5
713
100
AcDbEntity
  8
0
100
AcDbEllipse
 62
7
  6
CONTINUOUS
 10
105.7182906401
 20
134.3294003968
 30
0.0
 11
-0.0
 21
15.8297791846
 31
0.0
 40
0.9791671646
 41
1.5137492538
 42
1.5282835221
  0
ELLIPSE
  5
714
100
AcDbEntity
  8
0
100
AcDbEllipse
 62
7
  6
CONTINUOUS
 10
105.7182906401
 20
134.6657831897
 30
0.0
 11
15.5
 21
-0.0
 31
0.0
 40
0.5106380606
 41
3.0990798489
 42
3.1136051359
  0
ELLIPSE
  5
715
100
AcDbEntity
  8
0
100
AcDbEllipse
 62
7
  6
CONTINUOUS
 10
105.7182906401
 20
138.1124633709
 30
0.0
 11
15.5
 21
0.0
 31
0.0
 40
0.204255139
 41
-2.9565054402
 42
-2.9380118932
  0
ELLIPSE
  5
716
100
AcDbEntity
  8
0
100
AcDbEllipse
 62
7
  6
CONTINUOUS
 10
105.7182906401
 20
126.7594847681
 30
0.0
 11
15.0
 21
-0.0
 31
0.0
 40
0.2042552105
 41
-2.9198920969
 42
-2.9020586095
  0
ELLIPSE
  5
717
100
AcDbEntity
  8
0
100
AcDbEllipse
 62
7
  6
CONTINUOUS
 10
105.7182906401
 20
128.3314563953
 30
0.0
 11
15.0
 21
-0.0
 31
0.0
 40
0.6808509827
 41
-2.930557491
 42
-2.9198920969
  0
ELLIPSE
  5
718
100
AcDbEntity
  8
0
100
AcDbEllipse
 62
7
  6
CONTINUOUS
 10
105.7182906401
 20
135.8190117306
 30
0.0
 11
0.0
 21
45.9576273732
 31
0.0
 40
0.3263876065
 41
-4.5049034647
 42
-4.5013538178
  0
ELLIPSE
  5
719
100
AcDbEntity
  8
0
100
AcDbEllipse
 62
7
  6
CONTINUOUS
 10
105.7182906401
 20
139.0725929962
 30
0.0
 11
15.5
 21
0.0
 31
0.0
 40
0.510638724
 41
-2.9380118932
 42
-2.9231663897
  0
ELLIPSE
  5
71A
100
AcDbEntity
  8
0
100
AcDbEllipse
 62
7
  6
CONTINUOUS
 10
105.7182906401
 20
129.7265634079
 30
0.0
 11
15.5
 21
0.0
 31
0.0
 40
0.3404254913
 41
2.59023508
 42
2.6020269231
  0
ELLIPSE
  5
71B
100
AcDbEntity
  8
0
100
AcDbEllipse
 62
7
  6
CONTINUOUS
 10
105.7182906401
 20
127.01564161
 30
0.0
 11
15.5
 21
0.0
 31
0.0
 40
0.6808509827
 41
2.6020269231
 42
2.613736076
  0
ELLIPSE
  5
71C
100
AcDbEntity
  8
0
100
AcDbEllipse
 62
7
  6
CONTINUOUS
 10
105.7182906401
 20
108.4116895601
 30
0.0
 11
0.0
 21
47.4890380742
 31
0.0
 40
0.3263911132
 41
1.0429397492
 42
1.0468250271
  0
ELLIPSE
  5
71D
100
AcDbEntity
  8
0
100
AcDbEllipse
 62
7
  6
CONTINUOUS
 10
105.7182906401
 20
155.8249605703
 30
0.0
 11
0.0
 21
47.4889937287
 31
0.0
 40
0.3263914179
 41
-4.1884176807
 42
-4.1845324028
  0
ELLIPSE
  5
71E
100
AcDbEntity
  8
0
100
AcDbEllipse
 62
7
  6
CONTINUOUS
 10
105.7182906401
 20
137.2210308564
 30
0.0
 11
15.5
 21
0.0
 31
0.0
 40
0.6808509827
 41
-2.613736076
 42
-2.6020269231
  0
ELLIPSE
  5
71F
100
AcDbEntity
  8
0
100
AcDbEllipse
 62
7
  6
CONTINUOUS
 10
105.7182906401
 20
134.5101090585
 30
0.0
 11
15.5
 21
-0.0
 31
0.0
 40
0.3404254913
 41
-2.6020269231
 42
-2.59023508
  0
ELLIPSE
  5
720
100
AcDbEntity
  8
0
100
AcDbEllipse
 62
7
  6
CONTINUOUS
 10
105.7182906401
 20
133.4682961538
 30
0.0
 11
15.5
 21
-0.0
 31
0.0
 40
0.2042556065
 41
-2.566389336
 42
-2.5462331367
  0
ELLIPSE
  5
721
100
AcDbEntity
  8
0
100
AcDbEllipse
 62
7
  6
CONTINUOUS
 10
105.7182906401
 20
136.1315187035
 30
0.0
 11
15.5
 21
-0.0
 31
0.0
 40
0.510637263
 41
-2.5462331367
 42
-2.5299081613
  0
ELLIPSE
  5
722
100
AcDbEntity
  8
0
100
AcDbEllipse
 62
7
  6
CONTINUOUS
 10
105.7182906401
 20
140.6766680932
 30
0.0
 11
0.0
 21
15.8298457331
 31
0.0
 40
0.9791630482
 41
-4.1007044881
 42
-4.0841904739
  0
ELLIPSE
  5
723
100
AcDbEntity
  8
0
100
AcDbEllipse
 62
7
  6
CONTINUOUS
 10
105.7182906401
 20
149.9794743779
 30
0.0
 11
-0.0
 21
31.6593402388
 31
0.0
 40
0.4895869555
 41
-4.0841904739
 42
-4.0758589201
  0
ELLIPSE
  5
724
100
AcDbEntity
  8
0
100
AcDbEllipse
 62
7
  6
CONTINUOUS
 10
105.7182906401
 20
112.0763502817
 30
0.0
 11
0.0
 21
31.6593346956
 31
0.0
 40
0.4895870412
 41
0.9342662665
 42
0.9425978203
  0
ELLIPSE
  5
725
100
AcDbEntity
  8
0
100
AcDbEllipse
 62
7
  6
CONTINUOUS
 10
105.7182906401
 20
121.3791524942
 30
0.0
 11
-0.0
 21
15.8298471189
 31
0.0
 40
0.9791629624
 41
0.9425978203
 42
0.9591118345
  0
ELLIPSE
  5
726
100
AcDbEntity
  8
0
100
AcDbEllipse
 62
7
  6
CONTINUOUS
 10
105.7182906401
 20
125.9243020829
 30
0.0
 11
15.5
 21
0.0
 31
0.0
 40
0.5106373301
 41
2.5299081613
 42
2.5462331367
  0
ELLIPSE
  5
727
100
AcDbEntity
  8
0
100
AcDbEllipse
 62
7
  6
CONTINUOUS
 10
105.7182906401
 20
128.58752506
 30
0.0
 11
15.5
 21
-0.0
 31
0.0
 40
0.2042556244
 41
2.5462331367
 42
2.566389336
  0
ELLIPSE
  5
728
100
AcDbEntity
  8
0
100
AcDbEllipse
 62
7
  6
CONTINUOUS
 10
105.7182906401
 20
135.8190117306
 30
0.0
 11
0.0
 21
47.4895482857
 31
0.0
 40
0.3263876065
 41
1.7714958268
 42
1.7749260623
  0
ELLIPSE
  5
729
100
AcDbEntity
  8
0
100
AcDbEllipse
 62
7
  6
CONTINUOUS
 10
105.7182906401
 20
128.3314563953
 30
0.0
 11
15.5
 21
0.0
 31
0.0
 40
0.6808509827
 41
-2.9374629181
 42
-2.9271573635
  0
ELLIPSE
  5
72A
100
AcDbEntity
  8
0
100
AcDbEllipse
 62
7
  6
CONTINUOUS
 10
105.7182906401
 20
134.2471877521
 30
0.0
 11
15.0
 21
0.0
 31
0.0
 40
0.2042551568
 41
2.9311255887
 42
2.9502607453
  0
ELLIPSE
  5
72B
100
AcDbEntity
  8
0
100
AcDbEllipse
 62
7
  6
CONTINUOUS
 10
105.7182906401
 20
133.2870579727
 30
0.0
 11
15.0
 21
0.0
 31
0.0
 40
0.510638791
 41
2.9157613173
 42
2.9311255887
  0
ELLIPSE
  5
72C
100
AcDbEntity
  8
0
100
AcDbEllipse
 62
7
  6
CONTINUOUS
 10
105.7182906401
 20
131.5719500835
 30
0.0
 11
-0.0
 21
15.3191630606
 31
0.0
 40
0.9791657639
 41
1.3295462861
 42
1.3449649905
  0
ELLIPSE
  5
72D
100
AcDbEntity
  8
0
100
AcDbEllipse
 62
7
  6
CONTINUOUS
 10
105.7182906401
 20
127.9119672299
 30
0.0
 11
0.0
 21
30.6382411466
 31
0.0
 40
0.4895842398
 41
1.3218151643
 42
1.3295462861
  0
ELLIPSE
  5
72E
100
AcDbEntity
  8
0
100
AcDbEllipse
 62
7
  6
CONTINUOUS
 10
105.7182906401
 20
116.58720265
 30
0.0
 11
-0.0
 21
76.5960277406
 31
0.0
 40
0.1958326096
 41
1.31794395
 42
1.3218151643
  0
ELLIPSE
  5
72F
100
AcDbEntity
  8
0
100
AcDbEllipse
 62
7
  6
CONTINUOUS
 10
105.7182906401
 20
155.7724591796
 30
0.0
 11
-0.0
 21
76.5960706561
 31
0.0
 40
0.1958324999
 41
-4.4634078179
 42
-4.4595366036
  0
ELLIPSE
  5
730
100
AcDbEntity
  8
0
100
AcDbEllipse
 62
7
  6
CONTINUOUS
 10
105.7182906401
 20
144.4476827027
 30
0.0
 11
-0.0
 21
30.6382357822
 31
0.0
 40
0.4895843255
 41
-4.4711389397
 42
-4.4634078179
  0
ELLIPSE
  5
731
100
AcDbEntity
  8
0
100
AcDbEllipse
 62
7
  6
CONTINUOUS
 10
105.7182906401
 20
140.7877008104
 30
0.0
 11
-0.0
 21
15.3191617195
 31
0.0
 40
0.9791658496
 41
-4.4865576441
 42
-4.4711389397
  0
ELLIPSE
  5
732
100
AcDbEntity
  8
0
100
AcDbEllipse
 62
7
  6
CONTINUOUS
 10
105.7182906401
 20
139.0725929962
 30
0.0
 11
15.0
 21
-0.0
 31
0.0
 40
0.510638724
 41
-2.9311255887
 42
-2.9157613173
  0
ELLIPSE
  5
733
100
AcDbEntity
  8
0
100
AcDbEllipse
 62
7
  6
CONTINUOUS
 10
105.7182906401
 20
138.1124633709
 30
0.0
 11
15.0
 21
-0.0
 31
0.0
 40
0.204255139
 41
-2.9502607453
 42
-2.9311255887
  0
ELLIPSE
  5
734
100
AcDbEntity
  8
0
100
AcDbEllipse
 62
7
  6
CONTINUOUS
 10
105.7182906401
 20
129.0768875745
 30
0.0
 11
15.0
 21
0.0
 31
0.0
 40
0.2042556244
 41
2.7083922153
 42
2.727437486
  0
ELLIPSE
  5
735
100
AcDbEntity
  8
0
100
AcDbEllipse
 62
7
  6
CONTINUOUS
 10
105.7182906401
 20
127.1477042225
 30
0.0
 11
15.0
 21
0.0
 31
0.0
 40
0.5106373301
 41
2.6943228732
 42
2.7083922153
  0
ELLIPSE
  5
736
100
AcDbEntity
  8
0
100
AcDbEllipse
 62
7
  6
CONTINUOUS
 10
105.7182906401
 20
154.2824111405
 30
0.0
 11
-0.0
 21
47.4889937287
 31
0.0
 40
0.3263914179
 41
-4.2000216685
 42
-4.196162154
  0
ELLIPSE
  5
737
100
AcDbEntity
  8
0
100
AcDbEllipse
 62
7
  6
CONTINUOUS
 10
105.7182906401
 20
138.6553588115
 30
0.0
 11
0.0
 21
15.8297890425
 31
0.0
 40
0.9791665548
 41
-4.196162154
 42
-4.1845324028
  0
ELLIPSE
  5
738
100
AcDbEntity
  8
0
100
AcDbEllipse
 62
7
  6
CONTINUOUS
 10
105.7182906401
 20
132.6754713454
 30
0.0
 11
15.5
 21
0.0
 31
0.0
 40
0.2553200925
 41
-2.613736076
 42
-2.5981057234
  0
ELLIPSE
  5
739
100
AcDbEntity
  8
0
100
AcDbEllipse
 62
7
  6
CONTINUOUS
 10
105.7182906401
 20
96.0824357656
 30
0.0
 11
0.0
 21
76.5951511753
 31
0.0
 40
0.1958348508
 41
1.0950834931
 42
1.0974256428
  0
ELLIPSE
  5
73A
100
AcDbEntity
  8
0
100
AcDbEllipse
 62
7
  6
CONTINUOUS
 10
105.7182906401
 20
126.7594847681
 30
0.0
 11
15.5
 21
0.0
 31
0.0
 40
0.2042552105
 41
-2.9271573635
 42
-2.9099292843
  0
ELLIPSE
  5
73B
100
AcDbEntity
  8
0
100
AcDbEllipse
 62
7
  6
CONTINUOUS
 10
105.7182906401
 20
159.9738671762
 30
0.0
 11
-0.0
 21
45.9570907052
 31
0.0
 40
0.3263914179
 41
-4.0684711398
 42
-4.0641223597
  0
ELLIPSE
  5
73C
100
AcDbEntity
  8
0
100
AcDbEllipse
 62
7
  6
CONTINUOUS
 10
105.7182906401
 20
144.6464199207
 30
0.0
 11
-0.0
 21
20.42552948
 31
0.0
 40
0.7343750875
 41
-4.0814333473
 42
-4.0684711398
  0
ELLIPSE
  5
73D
100
AcDbEntity
  8
0
100
AcDbEllipse
 62
7
  6
CONTINUOUS
 10
105.7182906401
 20
139.3748118769
 30
0.0
 11
15.0
 21
0.0
 31
0.0
 40
0.7659558946
 41
-2.5277317661
 42
-2.5106370205
  0
ELLIPSE
  5
73E
100
AcDbEntity
  8
0
100
AcDbEllipse
 62
7
  6
CONTINUOUS
 10
105.7182906401
 20
134.5214875692
 30
0.0
 11
15.0
 21
0.0
 31
0.0
 40
0.2042556065
 41
-2.5488153284
 42
-2.5277317661
  0
ELLIPSE
  5
73F
100
AcDbEntity
  8
0
100
AcDbEllipse
 62
7
  6
CONTINUOUS
 10
105.7182906401
 20
140.7877008104
 30
0.0
 11
-0.0
 21
15.8298004435
 31
0.0
 40
0.9791658496
 41
1.7892225907
 42
1.8041171799
  0
ELLIPSE
  5
740
100
AcDbEntity
  8
0
100
AcDbEllipse
 62
7
  6
CONTINUOUS
 10
105.7182906401
 20
144.4476827027
 30
0.0
 11
-0.0
 21
31.6595103082
 31
0.0
 40
0.4895843255
 41
-4.4790681273
 42
-4.471601212
  0
ELLIPSE
  5
741
100
AcDbEntity
  8
0
100
AcDbEllipse
 62
7
  6
CONTINUOUS
 10
105.7182906401
 20
155.7724591796
 30
0.0
 11
-0.0
 21
79.1492730113
 31
0.0
 40
0.1958324999
 41
-4.471601212
 42
-4.4678626631
  0
ELLIPSE
  5
742
100
AcDbEntity
  8
0
100
AcDbEllipse
 62
7
  6
CONTINUOUS
 10
105.7182906401
 20
127.7643646941
 30
0.0
 11
15.5
 21
0.0
 31
0.0
 40
0.3404254913
 41
3.0866995049
 42
3.0967927294
  0
ELLIPSE
  5
743
100
AcDbEntity
  8
0
100
AcDbEllipse
 62
7
  6
CONTINUOUS
 10
105.7182906401
 20
127.5280526994
 30
0.0
 11
15.5
 21
0.0
 31
0.0
 40
0.6808509827
 41
3.0967927294
 42
3.1068813889
  0
ELLIPSE
  5
744
100
AcDbEntity
  8
0
100
AcDbEllipse
 62
7
  6
CONTINUOUS
 10
105.7182906401
 20
126.4057845558
 30
0.0
 11
0.0
 21
47.4893098081
 31
0.0
 40
0.3263892456
 41
1.5428088022
 42
1.5461701883
  0
ELLIPSE
  5
745
100
AcDbEntity
  8
0
100
AcDbEllipse
 62
7
  6
CONTINUOUS
 10
105.7182906401
 20
128.6381207377
 30
0.0
 11
-0.0
 21
47.4892654624
 31
0.0
 40
0.3263895503
 41
1.5954224653
 42
1.5987838514
  0
ELLIPSE
  5
746
100
AcDbEntity
  8
0
100
AcDbEllipse
 62
7
  6
CONTINUOUS
 10
105.7182906401
 20
134.5214875692
 30
0.0
 11
15.5
 21
-0.0
 31
0.0
 40
0.2042556065
 41
-2.5703888258
 42
-2.5502861064
  0
ELLIPSE
  5
747
100
AcDbEntity
  8
0
100
AcDbEllipse
 62
7
  6
CONTINUOUS
 10
105.7182906401
 20
138.6553588115
 30
0.0
 11
0.0
 21
15.3191506863
 31
0.0
 40
0.9791665548
 41
-4.1771395717
 42
-4.1680192843
  0
ELLIPSE
  5
748
100
AcDbEntity
  8
0
100
AcDbEllipse
 62
7
  6
CONTINUOUS
 10
105.7182906401
 20
139.3748118769
 30
0.0
 11
15.5
 21
-0.0
 31
0.0
 40
0.7659558946
 41
-2.5502861064
 42
-2.5340067337
  0
ELLIPSE
  5
749
100
AcDbEntity
  8
0
100
AcDbEllipse
 62
7
  6
CONTINUOUS
 10
105.7182906401
 20
144.6464199207
 30
0.0
 11
-0.0
 21
21.1063804626
 31
0.0
 40
0.7343750875
 41
-4.1048030605
 42
-4.0924718141
  0
ELLIPSE
  5
74A
100
AcDbEntity
  8
0
100
AcDbEllipse
 62
7
  6
CONTINUOUS
 10
105.7182906401
 20
154.2824111405
 30
0.0
 11
-0.0
 21
45.9570907052
 31
0.0
 40
0.3263914179
 41
-4.181171597
 42
-4.1771395717
  0
ELLIPSE
  5
74B
100
AcDbEntity
  8
0
100
AcDbEllipse
 62
7
  6
CONTINUOUS
 10
105.7182906401
 20
159.9738671762
 30
0.0
 11
0.0
 21
47.4889937287
 31
0.0
 40
0.3263914179
 41
-4.0924718141
 42
-4.0883372693
  0
ELLIPSE
  5
74C
100
AcDbEntity
  8
0
100
AcDbEllipse
 62
7
  6
CONTINUOUS
 10
105.7182906401
 20
96.0824357656
 30
0.0
 11
0.0
 21
79.1483228811
 31
0.0
 40
0.1958348508
 41
1.1116322171
 42
1.1153772565
  0
ELLIPSE
  5
74D
100
AcDbEntity
  8
0
100
AcDbEllipse
 62
7
  6
CONTINUOUS
 10
105.7182906401
 20
116.9697716934
 30
0.0
 11
0.0
 21
31.6596970094
 31
0.0
 40
0.4895814384
 41
1.1153772565
 42
1.1228467702
  0
ELLIPSE
  5
74E
100
AcDbEntity
  8
0
100
AcDbEllipse
 62
7
  6
CONTINUOUS
 10
105.7182906401
 20
127.515853835
 30
0.0
 11
15.5
 21
0.0
 31
0.0
 40
0.6808509827
 41
3.1763039183
 42
3.1863925777
  0
ELLIPSE
  5
74F
100
AcDbEntity
  8
0
100
AcDbEllipse
 62
7
  6
CONTINUOUS
 10
105.7182906401
 20
127.2795418403
 30
0.0
 11
15.5
 21
0.0
 31
0.0
 40
0.3404254913
 41
3.1863925777
 42
3.1964858023
  0
ELLIPSE
  5
750
100
AcDbEntity
  8
0
100
AcDbEllipse
 62
7
  6
CONTINUOUS
 10
105.7182906401
 20
128.58752506
 30
0.0
 11
15.0
 21
-0.0
 31
0.0
 40
0.2042556244
 41
2.5234776147
 42
2.544622899
  0
ELLIPSE
  5
751
100
AcDbEntity
  8
0
100
AcDbEllipse
 62
7
  6
CONTINUOUS
 10
105.7182906401
 20
125.9243020829
 30
0.0
 11
15.0
 21
-0.0
 31
0.0
 40
0.5106373301
 41
2.5063300416
 42
2.5234776147
  0
ELLIPSE
  5
752
100
AcDbEntity
  8
0
100
AcDbEllipse
 62
7
  6
CONTINUOUS
 10
105.7182906401
 20
123.826008681
 30
0.0
 11
0.0
 21
15.8297565399
 31
0.0
 40
0.9791685653
 41
1.1228467702
 42
1.1377064288
  0
ELLIPSE
  5
753
100
AcDbEntity
  8
0
100
AcDbEllipse
 62
7
  6
CONTINUOUS
 10
105.7182906401
 20
121.3791524942
 30
0.0
 11
-0.0
 21
15.3192068892
 31
0.0
 40
0.9791629624
 41
0.9181666533
 42
0.9355337148
  0
ELLIPSE
  5
754
100
AcDbEntity
  8
0
100
AcDbEllipse
 62
7
  6
CONTINUOUS
 10
105.7182906401
 20
112.0763502817
 30
0.0
 11
-0.0
 21
30.6380658345
 31
0.0
 40
0.4895870412
 41
0.9093963156
 42
0.9181666533
  0
ELLIPSE
  5
755
100
AcDbEntity
  8
0
100
AcDbEllipse
 62
7
  6
CONTINUOUS
 10
105.7182906401
 20
149.9794743779
 30
0.0
 11
-0.0
 21
30.6380711989
 31
0.0
 40
0.4895869555
 41
-4.0597593069
 42
-4.0509889692
  0
ELLIPSE
  5
756
100
AcDbEntity
  8
0
100
AcDbEllipse
 62
7
  6
CONTINUOUS
 10
105.7182906401
 20
127.1477042225
 30
0.0
 11
15.5
 21
0.0
 31
0.0
 40
0.5106373301
 41
2.7085027556
 42
2.7232610045
  0
ELLIPSE
  5
757
100
AcDbEntity
  8
0
100
AcDbEllipse
 62
7
  6
CONTINUOUS
 10
105.7182906401
 20
140.6766680932
 30
0.0
 11
0.0
 21
15.3192055481
 31
0.0
 40
0.9791630482
 41
-4.0771263684
 42
-4.0597593069
  0
ELLIPSE
  5
758
100
AcDbEntity
  8
0
100
AcDbEllipse
 62
7
  6
CONTINUOUS
 10
105.7182906401
 20
136.1315187035
 30
0.0
 11
15.0
 21
0.0
 31
0.0
 40
0.510637263
 41
-2.5234776147
 42
-2.5063300416
  0
ELLIPSE
  5
759
100
AcDbEntity
  8
0
100
AcDbEllipse
 62
7
  6
CONTINUOUS
 10
105.7182906401
 20
129.0768875745
 30
0.0
 11
15.5
 21
0.0
 31
0.0
 40
0.2042556244
 41
2.7232610045
 42
2.7415740428
  0
ELLIPSE
  5
75A
100
AcDbEntity
  8
0
100
AcDbEllipse
 62
7
  6
CONTINUOUS
 10
105.7182906401
 20
133.4682961538
 30
0.0
 11
15.0
 21
-0.0
 31
0.0
 40
0.2042556065
 41
-2.544622899
 42
-2.5234776147
  0
ELLIPSE
  5
75B
100
AcDbEntity
  8
0
100
AcDbEllipse
 62
7
  6
CONTINUOUS
 10
105.7182906401
 20
116.58720265
 30
0.0
 11
0.0
 21
79.1492286653
 31
0.0
 40
0.1958326096
 41
1.3262700095
 42
1.3300085584
  0
ELLIPSE
  5
75C
100
AcDbEntity
  8
0
100
AcDbEllipse
 62
7
  6
CONTINUOUS
 10
105.7182906401
 20
134.5101090585
 30
0.0
 11
15.0
 21
-0.0
 31
0.0
 40
0.3404254913
 41
-2.5819434923
 42
-2.5696035813
  0
ELLIPSE
  5
75D
100
AcDbEntity
  8
0
100
AcDbEllipse
 62
7
  6
CONTINUOUS
 10
105.7182906401
 20
137.2210308564
 30
0.0
 11
15.0
 21
0.0
 31
0.0
 40
0.6808509827
 41
-2.594188733
 42
-2.5819434923
  0
ELLIPSE
  5
75E
100
AcDbEntity
  8
0
100
AcDbEllipse
 62
7
  6
CONTINUOUS
 10
105.7182906401
 20
155.8249605703
 30
0.0
 11
-0.0
 21
45.9570907052
 31
0.0
 40
0.3263914179
 41
-4.1690464869
 42
-4.1649850598
  0
ELLIPSE
  5
75F
100
AcDbEntity
  8
0
100
AcDbEllipse
 62
7
  6
CONTINUOUS
 10
105.7182906401
 20
108.4116895601
 30
0.0
 11
-0.0
 21
45.9571336202
 31
0.0
 40
0.3263911132
 41
1.024407511
 42
1.0274538333
  0
ELLIPSE
  5
760
100
AcDbEntity
  8
0
100
AcDbEllipse
 62
7
  6
CONTINUOUS
 10
105.7182906401
 20
127.9119672299
 30
0.0
 11
0.0
 21
31.6595158515
 31
0.0
 40
0.4895842398
 41
1.3300085584
 42
1.3374754737
  0
ELLIPSE
  5
761
100
AcDbEntity
  8
0
100
AcDbEllipse
 62
7
  6
CONTINUOUS
 10
105.7182906401
 20
127.1491882409
 30
0.0
 11
-0.0
 21
23.7447062084
 31
0.0
 40
0.6527770807
 41
1.6021455538
 42
1.6088700409
  0
ELLIPSE
  5
762
100
AcDbEntity
  8
0
100
AcDbEllipse
 62
7
  6
CONTINUOUS
 10
105.7182906401
 20
152.8412192442
 30
0.0
 11
0.0
 21
63.3201075761
 31
0.0
 40
0.2447879606
 41
-4.362926849
 42
-4.3593481801
  0
ELLIPSE
  5
763
100
AcDbEntity
  8
0
100
AcDbEllipse
 62
7
  6
CONTINUOUS
 10
105.7182906401
 20
126.6470595682
 30
0.0
 11
15.5
 21
-0.0
 31
0.0
 40
0.6808509827
 41
3.1796663677
 42
3.189756434
  0
ELLIPSE
  5
764
100
AcDbEntity
  8
0
100
AcDbEllipse
 62
7
  6
CONTINUOUS
 10
105.7182906401
 20
126.3930170453
 30
0.0
 11
15.5
 21
0.0
 31
0.0
 40
0.3404254913
 41
3.189756434
 42
3.1998514103
  0
ELLIPSE
  5
765
100
AcDbEntity
  8
0
100
AcDbEllipse
 62
7
  6
CONTINUOUS
 10
105.7182906401
 20
131.5719500835
 30
0.0
 11
-0.0
 21
15.8298018293
 31
0.0
 40
0.9791657639
 41
1.3374754737
 42
1.3523700629
  0
ELLIPSE
  5
766
100
AcDbEntity
  8
0
100
AcDbEllipse
 62
7
  6
CONTINUOUS
 10
105.7182906401
 20
133.2870579727
 30
0.0
 11
15.5
 21
0.0
 31
0.0
 40
0.510638791
 41
2.9231663897
 42
2.9380118932
  0
ELLIPSE
  5
767
100
AcDbEntity
  8
0
100
AcDbEllipse
 62
7
  6
CONTINUOUS
 10
105.7182906401
 20
139.1578464692
 30
0.0
 11
0.0
 21
23.7444968643
 31
0.0
 40
0.6527828359
 41
-4.3593481801
 42
-4.3521764371
  0
ELLIPSE
  5
768
100
AcDbEntity
  8
0
100
AcDbEllipse
 62
7
  6
CONTINUOUS
 10
105.7182906401
 20
134.5082664504
 30
0.0
 11
15.5
 21
0.0
 31
0.0
 40
0.6808512211
 41
-2.7813801103
 42
-2.7705859895
  0
ELLIPSE
  5
769
100
AcDbEntity
  8
0
100
AcDbEllipse
 62
7
  6
CONTINUOUS
 10
105.7182906401
 20
132.1169586432
 30
0.0
 11
15.5
 21
0.0
 31
0.0
 40
0.2553200925
 41
-2.7705859895
 42
-2.7561227534
  0
ELLIPSE
  5
76A
100
AcDbEntity
  8
0
100
AcDbEllipse
 62
7
  6
CONTINUOUS
 10
105.7182906401
 20
125.8081944641
 30
0.0
 11
15.5
 21
-0.0
 31
0.0
 40
0.6808509827
 41
3.0293679815
 42
3.0496351434
  0
ELLIPSE
  5
76B
100
AcDbEntity
  8
0
100
AcDbEllipse
 62
7
  6
CONTINUOUS
 10
105.7182906401
 20
126.4865488551
 30
0.0
 11
15.5
 21
0.0
 31
0.0
 40
0.2042554251
 41
3.0496351434
 42
3.0664952113
  0
ELLIPSE
  5
76C
100
AcDbEntity
  8
0
100
AcDbEllipse
 62
7
  6
CONTINUOUS
 10
105.7182906401
 20
134.2471877521
 30
0.0
 11
15.5
 21
0.0
 31
0.0
 40
0.2042551568
 41
2.9380118932
 42
2.9565054402
  0
ELLIPSE
  5
76D
100
AcDbEntity
  8
0
100
AcDbEllipse
 62
7
  6
CONTINUOUS
 10
105.7182906401
 20
128.5573572721
 30
0.0
 11
15.5
 21
-0.0
 31
0.0
 40
0.204255139
 41
-3.0664952113
 42
-3.0496351434
  0
ELLIPSE
  5
76E
100
AcDbEntity
  8
0
100
AcDbEllipse
 62
7
  6
CONTINUOUS
 10
105.7182906401
 20
129.1388046064
 30
0.0
 11
15.5
 21
0.0
 31
0.0
 40
0.6127661182
 41
-3.0496351434
 42
-3.0327488369
  0
ELLIPSE
  5
76F
100
AcDbEntity
  8
0
100
AcDbEllipse
 62
7
  6
CONTINUOUS
 10
105.7182906401
 20
130.3998253391
 30
0.0
 11
-0.0
 21
21.1063804626
 31
0.0
 40
0.7343750875
 41
1.6796401435
 42
1.6897865964
  0
ELLIPSE
  5
770
100
AcDbEntity
  8
0
100
AcDbEllipse
 62
7
  6
CONTINUOUS
 10
105.7182906401
 20
132.5921591749
 30
0.0
 11
-0.0
 21
39.5744100582
 31
0.0
 40
0.391667241
 41
1.6897865964
 42
1.6965576904
  0
ELLIPSE
  5
771
100
AcDbEntity
  8
0
100
AcDbEllipse
 62
7
  6
CONTINUOUS
 10
105.7182906401
 20
141.5271123461
 30
0.0
 11
-0.0
 21
110.8089201314
 31
0.0
 40
0.1398804355
 41
1.6965576904
 42
1.6999453732
  0
ELLIPSE
  5
772
100
AcDbEntity
  8
0
100
AcDbEllipse
 62
7
  6
CONTINUOUS
 10
105.7182906401
 20
112.6125359722
 30
0.0
 11
-0.0
 21
110.8089423044
 31
0.0
 40
0.1398804075
 41
1.4416472804
 42
1.4450349632
  0
ELLIPSE
  5
773
100
AcDbEntity
  8
0
100
AcDbEllipse
 62
7
  6
CONTINUOUS
 10
105.7182906401
 20
121.5474940105
 30
0.0
 11
-0.0
 21
39.5743934285
 31
0.0
 40
0.3916674055
 41
1.4450349632
 42
1.4518060571
  0
ELLIPSE
  5
774
100
AcDbEntity
  8
0
100
AcDbEllipse
 62
7
  6
CONTINUOUS
 10
105.7182906401
 20
123.7398256529
 30
0.0
 11
0.0
 21
21.1063823104
 31
0.0
 40
0.7343750233
 41
1.4518060571
 42
1.4619525101
  0
ELLIPSE
  5
775
100
AcDbEntity
  8
0
100
AcDbEllipse
 62
7
  6
CONTINUOUS
 10
105.7182906401
 20
125.0073266177
 30
0.0
 11
0.0
 21
47.4889937287
 31
0.0
 40
0.3263914179
 41
1.4227561806
 42
1.4261527281
  0
ELLIPSE
  5
776
100
AcDbEntity
  8
0
100
AcDbEllipse
 62
7
  6
CONTINUOUS
 10
105.7182906401
 20
128.8101101438
 30
0.0
 11
0.0
 21
21.1063804626
 31
0.0
 40
0.7343750875
 41
1.4261527281
 42
1.4363323817
  0
ELLIPSE
  5
777
100
AcDbEntity
  8
0
100
AcDbEllipse
 62
7
  6
CONTINUOUS
 10
105.7182906401
 20
130.0480114895
 30
0.0
 11
15.5
 21
0.0
 31
0.0
 40
0.7659602774
 41
3.0071287085
 42
3.020679942
  0
ELLIPSE
  5
778
100
AcDbEntity
  8
0
100
AcDbEllipse
 62
7
  6
CONTINUOUS
 10
105.7182906401
 20
125.000846496
 30
0.0
 11
15.5
 21
0.0
 31
0.0
 40
0.6127661718
 41
3.0327488369
 42
3.0496351434
  0
ELLIPSE
  5
779
100
AcDbEntity
  8
0
100
AcDbEllipse
 62
7
  6
CONTINUOUS
 10
105.7182906401
 20
131.0981671518
 30
0.0
 11
15.5
 21
0.0
 31
0.0
 40
0.2042546715
 41
3.020679942
 42
3.0375880742
  0
ELLIPSE
  5
77A
100
AcDbEntity
  8
0
100
AcDbEllipse
 62
7
  6
CONTINUOUS
 10
105.7182906401
 20
125.5822938812
 30
0.0
 11
15.5
 21
-0.0
 31
0.0
 40
0.2042551568
 41
3.0496351434
 42
3.0664952113
  0
ELLIPSE
  5
77B
100
AcDbEntity
  8
0
100
AcDbEllipse
 62
7
  6
CONTINUOUS
 10
105.7182906401
 20
133.1385053147
 30
0.0
 11
15.5
 21
-0.0
 31
0.0
 40
0.2042546715
 41
-3.0375880742
 42
-3.020679942
  0
ELLIPSE
  5
77C
100
AcDbEntity
  8
0
100
AcDbEllipse
 62
7
  6
CONTINUOUS
 10
105.7182906401
 20
134.188660977
 30
0.0
 11
15.5
 21
0.0
 31
0.0
 40
0.7659602774
 41
3.2625053651
 42
3.2760565987
  0
ELLIPSE
  5
77D
100
AcDbEntity
  8
0
100
AcDbEllipse
 62
7
  6
CONTINUOUS
 10
105.7182906401
 20
135.4265623226
 30
0.0
 11
-0.0
 21
21.1063804626
 31
0.0
 40
0.7343750875
 41
1.7052602719
 42
1.7154399255
  0
ELLIPSE
  5
77E
100
AcDbEntity
  8
0
100
AcDbEllipse
 62
7
  6
CONTINUOUS
 10
105.7182906401
 20
139.2293458488
 30
0.0
 11
0.0
 21
47.4889937287
 31
0.0
 40
0.3263914179
 41
-4.5677453817
 42
-4.5643488341
  0
ELLIPSE
  5
77F
100
AcDbEntity
  8
0
100
AcDbEllipse
 62
7
  6
CONTINUOUS
 10
105.7182906401
 20
130.3998253391
 30
0.0
 11
0.0
 21
20.42552948
 31
0.0
 40
0.7343750875
 41
-4.5999019075
 42
-4.5920361428
  0
ELLIPSE
  5
780
100
AcDbEntity
  8
0
100
AcDbEllipse
 62
7
  6
CONTINUOUS
 10
105.7182906401
 20
129.1388046064
 30
0.0
 11
15.0
 21
0.0
 31
0.0
 40
0.6127661182
 41
-3.046560783
 42
-3.0291055807
  0
ELLIPSE
  5
781
100
AcDbEntity
  8
0
100
AcDbEllipse
 62
7
  6
CONTINUOUS
 10
105.7182906401
 20
128.5573572721
 30
0.0
 11
15.0
 21
-0.0
 31
0.0
 40
0.204255139
 41
-3.0639870075
 42
-3.046560783
  0
ELLIPSE
  5
782
100
AcDbEntity
  8
0
100
AcDbEllipse
 62
7
  6
CONTINUOUS
 10
105.7182906401
 20
130.3745167528
 30
0.0
 11
0.0
 21
79.1487757706
 31
0.0
 40
0.1958337302
 41
1.5028408036
 42
1.5064777961
  0
ENDSEC
  0
SECTION
  2
OBJECTS
  0
DICTIONARY
  5
C
100
AcDbDictionary
280
0
281
1
  3
ACAD_GROUP
350
D
  3
ACAD_MLINESTYLE
350
17
  3
ACAD_LAYOUT
350
1A
  3
ACAD_PLOTSETTINGS
350
19
  3
ACAD_PLOTSTYLENAME
350
E
  0
DICTIONARY
  5
D
102
{ACAD_REACTORS
330
C
102
}
100
AcDbDictionary
280
0
281
1
  0
ACDBDICTIONARYWDFLT
  5
E
102
{ACAD_REACTORS
330
C
102
}
100
AcDbDictionary
281
1
  3
Normal
350
F
100
AcDbDictionaryWithDefault
340
F
  0
DICTIONARY
  5
17
102
{ACAD_REACTORS
330
C
102
}
100
AcDbDictionary
280
0
281
1
  3
Standard
350
18
  0
DICTIONARY
  5
19
102
{ACAD_REACTORS
330
C
102
}
100
AcDbDictionary
281
1
  0
DICTIONARY
  5
1A
102
{ACAD_REACTORS
330
C
102
}
100
AcDbDictionary
281
1
  3
Model
350
783
  3
Layout1
350
784
  0
ACDBPLACEHOLDER
  5
F
102
{ACAD_REACTORS
330
E
102
}
  0
MLINESTYLE
  5
18
102
{ACAD_REACTORS
330
17
102
}
100
AcDbMlineStyle
  2
STANDARD
 70
0
  3

 62
256
 51
90.0
 52
90.0
 71
2
 49
0.5
 62
256
  6
BYLAYER
 49
-0.5
 62
256
  6
BYLAYER
  0
LAYOUT
  5
783
102
{ACAD_REACTORS
330
1A
102
}
100
AcDbPlotSettings
  1

  2
none_device
  4
ISO_A4_(297.00_x_210.00_MM)
  6

 40
0.0
 41
0.0
 42
0.0
 43
0.0
 44
297.0
 45
210.0
 46
0.0
 47
0.0
 48
0.0
 49
0.0
140
0.0
141
0.0
142
1.0
143
1.0
 70
1024
 72
1
 73
0
 74
0
  7

 75
0
147
1.0
148
0.0
149
0.0
100
AcDbLayout
  1
Model
 70
0
 71
0
 10
0.0
 20
0.0
 11
297.0
 21
210.0
 12
0.0
 22
0.0
 32
0.0
 14
0.0
 24
0.0
 34
0.0
 15
0.0
 25
0.0
 35
0.0
146
0.0
 13
0.0
 23
0.0
 33
0.0
 16
1.0
 26
0.0
 36
0.0
 17
0.0
 27
1.0
 37
0.0
 76
0
330
20F
345
0
346
0
  0
LAYOUT
  5
784
102
{ACAD_REACTORS
330
1A
102
}
100
AcDbPlotSettings
  1

  2
none_device
  4
ISO_A4_(297.00_x_210.00_MM)
  6

 40
0.0
 41
0.0
 42
0.0
 43
0.0
 44
297.0
 45
210.0
 46
0.0
 47
0.0
 48
0.0
 49
0.0
140
0.0
141
0.0
142
1.0
143
1.0
 70
0
 72
1
 73
0
 74
0
  7

 75
0
147
1.0
148
0.0
149
0.0
100
AcDbLayout
  1
Layout1
 70
0
 71
1
 10
0.0
 20
0.0
 11
297.0
 21
210.0
 12
0.0
 22
0.0
 32
0.0
 14
0.0
 24
0.0
 34
0.0
 15
0.0
 25
0.0
 35
0.0
146
0.0
 13
0.0
 23
0.0
 33
0.0
 16
1.0
 26
0.0
 36
0.0
 17
0.0
 27
1.0
 37
0.0
 76
0
330
210
345
0
346
0
  0
ENDSEC
  0
EOF
