999
DXF file: VLBG-M27-4t-7983658-M35340-P-1.dxf
999
Pro/ENGINEER 2011490 by Parametric Technology Corporation
  0
SECTION
  2
HEADER
  9
$ACADVER
  1
AC1015
  9
$DWGCODEPAGE
  3
ANSI_1252
  9
$EXTMAX
 10
594.0
 20
420.0
 30
0.0
  9
$EXTMIN
 10
0.0
 20
0.0
 30
0.0
  9
$LIMMIN
 10
0.0
 20
0.0
  9
$LIMMAX
 10
594.0
 20
420.0
  9
$VIEWCTR
 10
297.0
 20
210.0
  9
$VIEWSIZE
 40
420.0
  9
$CLAYER
  8
0
  9
$LTSCALE
 40
32.67
  9
$CELTYPE
  6
BYLAYER
  9
$DIMSCALE
 40
1.0
  9
$DIMASZ
 40
3.5
  9
$DIMEXO
 40
3.7125
  9
$DIMDLI
 40
22.572
  9
$DIMEXE
 40
10.692
  9
$DIMCEN
 40
5.346
  9
$DIMLFAC
 40
1.0
  9
$DIMBLK
  1
_FILLED
  9
$DIMTXT
 40
3.5
  9
$DIMTOL
 70
1
  9
$DIMLIM
 70
0
  9
$DIMTFAC
 40
1.0
  9
$DIMTP
 40
0.005
  9
$DIMTM
 40
0.005
  9
$PDMODE
 70
3
  9
$PDSIZE
 40
0.3125
  9
$HANDSEED
  5
6CC
  9
$TILEMODE
 70
1
  9
$MEASUREMENT
 70
1
  9
$INSUNITS
 70
4
  0
ENDSEC
  0
SECTION
  2
CLASSES
  0
CLASS
  1
ACDBDICTIONARYWDFLT
  2
AcDbDictionaryWithDefault
  3
AutoCAD 2000
 90
0
280
0
281
0
  0
CLASS
  1
ACDBPLACEHOLDER
  2
AcDbPlaceHolder
  3
AutoCAD 2000
 90
0
280
0
281
0
  0
CLASS
  1
LAYOUT
  2
AcDbLayout
  3
AutoCAD 2000
 90
0
280
0
281
0
  0
ENDSEC
  0
SECTION
  2
TABLES
  0
TABLE
  2
VPORT
  5
8
100
AcDbSymbolTable
 70
2
  0
VPORT
  5
1F4
100
AcDbSymbolTableRecord
100
AcDbViewportTableRecord
  2
*ACTIVE
 70
0
 10
0.0
 20
0.0
 11
1.0
 21
1.0
 12
297.0
 22
210.0
 13
0.0
 23
0.0
 14
1.0
 24
1.0
 15
0.0
 25
0.0
 16
0.0
 26
0.0
 36
1.0
 17
0.0
 27
0.0
 37
0.0
 40
420.0
 41
1.4142857143
 42
50.0
 43
0.0
 44
0.0
 50
0.0
 51
0.0
 71
0
 72
100
 73
1
 74
1
 75
0
 76
0
 77
0
 78
0
  0
ENDTAB
  0
TABLE
  2
LTYPE
  5
5
100
AcDbSymbolTable
 70
6
  0
LTYPE
  5
14
100
AcDbSymbolTableRecord
100
AcDbLinetypeTableRecord
  2
BYBLOCK
 70
0
  3

 72
65
 73
0
 40
0.0
  0
LTYPE
  5
15
100
AcDbSymbolTableRecord
100
AcDbLinetypeTableRecord
  2
BYLAYER
 70
0
  3

 72
65
 73
0
 40
0.0
  0
LTYPE
  5
16
100
AcDbSymbolTableRecord
100
AcDbLinetypeTableRecord
  2
CONTINUOUS
 70
64
  3
Solid line
 72
65
 73
0
 40
0.0
  0
LTYPE
  5
1F5
100
AcDbSymbolTableRecord
100
AcDbLinetypeTableRecord
  2
CENTER
 70
64
  3
____ _ ____ _ ____ _ ____ _ ____ _ ____ _ ____
 72
65
 73
4
 40
0.6
 49
0.375
 74
0
 49
-0.075
 74
0
 49
0.075
 74
0
 49
-0.075
 74
0
  0
LTYPE
  5
1F6
100
AcDbSymbolTableRecord
100
AcDbLinetypeTableRecord
  2
HIDDEN
 70
64
  3
- - - - - - - - - - - - - - - - - - - -
 72
65
 73
2
 40
0.2
 49
0.1
 74
0
 49
-0.1
 74
0
  0
LTYPE
  5
1F7
100
AcDbSymbolTableRecord
100
AcDbLinetypeTableRecord
  2
PHANTOM
 70
64
  3
_____ _ _ _____ _ _ _____ _ _ _____
 72
65
 73
6
 40
0.8
 49
0.45
 74
0
 49
-0.05
 74
0
 49
0.1
 74
0
 49
-0.05
 74
0
 49
0.1
 74
0
 49
-0.05
 74
0
  0
LTYPE
  5
1F8
100
AcDbSymbolTableRecord
100
AcDbLinetypeTableRecord
  2
DOT
 70
64
  3
. . . . . . . . . . . . . . . . . . . .
 72
65
 73
2
 40
0.2
 49
0.1
 74
0
 49
-0.1
 74
0
  0
LTYPE
  5
1F9
100
AcDbSymbolTableRecord
100
AcDbLinetypeTableRecord
  2
DASHED
 70
64
  3
- - - - - - - - - - - - - - - - - - - -
 72
65
 73
2
 40
0.2
 49
0.1
 74
0
 49
-0.1
 74
0
  0
ENDTAB
  0
TABLE
  2
LAYER
  5
2
100
AcDbSymbolTable
 70
36
  0
LAYER
  5
10
100
AcDbSymbolTableRecord
100
AcDbLayerTableRecord
  2
0
 70
0
 62
7
  6
CONTINUOUS
370
-3
390
F
  0
LAYER
  5
1FA
100
AcDbSymbolTableRecord
100
AcDbLayerTableRecord
  2
DEFAULT_1
 70
0
 62
7
  6
CENTER
370
-3
390
F
  0
LAYER
  5
1FB
100
AcDbSymbolTableRecord
100
AcDbLayerTableRecord
  2
DEFAULT_2
 70
0
 62
8
  6
HIDDEN
370
-3
390
F
  0
LAYER
  5
1FC
100
AcDbSymbolTableRecord
100
AcDbLayerTableRecord
  2
DEFAULT_3
 70
0
 62
7
  6
PHANTOM
370
-3
390
F
  0
LAYER
  5
1FD
100
AcDbSymbolTableRecord
100
AcDbLayerTableRecord
  2
AUSFORMSCHRAEGEN
 70
0
 62
7
  6
CONTINUOUS
370
-3
390
F
  0
LAYER
  5
1FE
100
AcDbSymbolTableRecord
100
AcDbLayerTableRecord
  2
BEZUGSACHSEN
 70
0
 62
7
  6
CONTINUOUS
370
-3
390
F
  0
LAYER
  5
1FF
100
AcDbSymbolTableRecord
100
AcDbLayerTableRecord
  2
BEZUGSEBENEN
 70
0
 62
7
  6
CONTINUOUS
370
-3
390
F
  0
LAYER
  5
200
100
AcDbSymbolTableRecord
100
AcDbLayerTableRecord
  2
BG_STARTBEZUEGE
 70
0
 62
7
  6
CONTINUOUS
370
-3
390
F
  0
LAYER
  5
201
100
AcDbSymbolTableRecord
100
AcDbLayerTableRecord
  2
FASEN
 70
0
 62
7
  6
CONTINUOUS
370
-3
390
F
  0
LAYER
  5
202
100
AcDbSymbolTableRecord
100
AcDbLayerTableRecord
  2
FLAECHEN
 70
0
 62
7
  6
CONTINUOUS
370
-3
390
F
  0
LAYER
  5
203
100
AcDbSymbolTableRecord
100
AcDbLayerTableRecord
  2
GEWINDE
 70
0
 62
7
  6
CONTINUOUS
370
-3
390
F
  0
LAYER
  5
204
100
AcDbSymbolTableRecord
100
AcDbLayerTableRecord
  2
HILFEN
 70
0
 62
7
  6
CONTINUOUS
370
-3
390
F
  0
LAYER
  5
205
100
AcDbSymbolTableRecord
100
AcDbLayerTableRecord
  2
KONSTRUKTIONSELEMENTE
 70
0
 62
7
  6
CONTINUOUS
370
-3
390
F
  0
LAYER
  5
206
100
AcDbSymbolTableRecord
100
AcDbLayerTableRecord
  2
KURVEN
 70
0
 62
7
  6
CONTINUOUS
370
-3
390
F
  0
LAYER
  5
207
100
AcDbSymbolTableRecord
100
AcDbLayerTableRecord
  2
NORM
 70
0
 62
7
  6
CONTINUOUS
370
-3
390
F
  0
LAYER
  5
208
100
AcDbSymbolTableRecord
100
AcDbLayerTableRecord
  2
PLATZIERUNG
 70
0
 62
7
  6
CONTINUOUS
370
-3
390
F
  0
LAYER
  5
209
100
AcDbSymbolTableRecord
100
AcDbLayerTableRecord
  2
PLAZIERUNG
 70
0
 62
7
  6
CONTINUOUS
370
-3
390
F
  0
LAYER
  5
20A
100
AcDbSymbolTableRecord
100
AcDbLayerTableRecord
  2
RUNDUNGEN
 70
0
 62
7
  6
CONTINUOUS
370
-3
390
F
  0
LAYER
  5
20B
100
AcDbSymbolTableRecord
100
AcDbLayerTableRecord
  2
TEIL_STARTBEZUEGE
 70
0
 62
7
  6
CONTINUOUS
370
-3
390
F
  0
LAYER
  5
20C
100
AcDbSymbolTableRecord
100
AcDbLayerTableRecord
  2
T_STARTBEZUEGE
 70
0
 62
7
  6
CONTINUOUS
370
-3
390
F
  0
LAYER
  5
20D
100
AcDbSymbolTableRecord
100
AcDbLayerTableRecord
  2
ZEICHNUNGSBEMASSUNGEN
 70
0
 62
7
  6
CONTINUOUS
370
-3
390
F
  0
ENDTAB
  0
TABLE
  2
STYLE
  5
3
100
AcDbSymbolTable
 70
1
  0
STYLE
  5
11
100
AcDbSymbolTableRecord
100
AcDbTextStyleTableRecord
  2
STANDARD
 70
0
 40
0.0
 41
0.7
 50
0.0
 71
0
 42
0.2
  3
txt
  4

  0
STYLE
  5
20E
100
AcDbSymbolTableRecord
100
AcDbTextStyleTableRecord
  2
TEXTSTYLE_1
 70
0
 40
0.0
 41
0.8
 50
0.0
 71
0
 42
0.2
  3
gdt
  4

  0
ENDTAB
  0
TABLE
  2
VIEW
  5
6
100
AcDbSymbolTable
 70
0
  0
ENDTAB
  0
TABLE
  2
UCS
  5
7
100
AcDbSymbolTable
 70
0
  0
ENDTAB
  0
TABLE
  2
APPID
  5
9
100
AcDbSymbolTable
 70
1
  0
APPID
  5
20F
100
AcDbSymbolTableRecord
100
AcDbRegAppTableRecord
  2
ACAD
 70
0
  0
ENDTAB
  0
TABLE
  2
BLOCK_RECORD
  5
1
100
AcDbSymbolTable
 70
0
  0
BLOCK_RECORD
  5
210
100
AcDbSymbolTableRecord
100
AcDbBlockTableRecord
  2
*Model_Space
  0
BLOCK_RECORD
  5
211
100
AcDbSymbolTableRecord
100
AcDbBlockTableRecord
  2
*Paper_Space
  0
ENDTAB
  0
TABLE
  2
DIMSTYLE
  5
A
100
AcDbSymbolTable
 70
1
100
AcDbDimStyleTable
 71
0
  0
DIMSTYLE
105
212
100
AcDbSymbolTableRecord
100
AcDbDimStyleTableRecord
  2
STANDARD
 70
0
  3

  4

 40
1.0
 41
3.5
 42
0.0625
 43
0.38
 44
0.18
 45
0.0
 46
0.0
 47
0.005
 48
0.005
140
3.5
141
0.09
142
0.0
143
25.4
144
1.0
145
0.0
146
1.0
147
0.09
 71
1.0
 72
0.0
 73
0
 74
0
 75
0
 76
0
 77
1
 78
8
170
0
171
2
172
0
173
0
174
0
175
0
176
0
177
0
178
5
270
2
271
3
272
3
273
2
274
2
275
0
280
0
281
0
282
0
283
1
284
8
285
0
286
0
287
3
288
0
340
11
  0
ENDTAB
  0
ENDSEC
  0
SECTION
  2
BLOCKS
  0
BLOCK
  5
20
100
AcDbEntity
  8
0
100
AcDbBlockBegin
  2
*Model_Space
 70
0
 10
0.0
 20
0.0
 30
0.0
  3
*Model_Space
  1

  0
ENDBLK
  5
21
100
AcDbEntity
  8
0
100
AcDbBlockEnd
  0
BLOCK
  5
1C
100
AcDbEntity
  8
0
100
AcDbBlockBegin
  2
*Paper_Space
 70
0
 10
0.0
 20
0.0
 30
0.0
  3
*Paper_Space
  1

  0
ENDBLK
  5
1D
100
AcDbEntity
  8
0
100
AcDbBlockEnd
  0
ENDSEC
  0
SECTION
  2
ENTITIES
  0
MTEXT
  5
213
100
AcDbEntity
  8
0
100
AcDbMText
 62
5
  6
CONTINUOUS
  7
STANDARD
 71
1
 72
1
 10
252.4948765606
 20
272.9906580544
 30
0.0
 11
0.0
 21
1.0
 31
0.0
 44
0.9
  1
RUD VLBG 4t
 40
8.0
 41
69.1428571429
  0
MTEXT
  5
214
100
AcDbEntity
  8
0
100
AcDbMText
 62
5
  6
CONTINUOUS
  7
STANDARD
 71
1
 72
1
 10
249.9682279892
 20
63.0114423563
 30
0.0
 11
0.0
 21
1.0
 31
0.0
 44
0.9
  1
RUD VLBG 4t
 40
8.0
 41
69.1428571429
  0
LINE
  5
215
100
AcDbEntity
  8
0
100
AcDbLine
 62
7
  6
CONTINUOUS
 10
0.0
 20
0.0
 11
0.0
 21
420.0
  0
LINE
  5
216
100
AcDbEntity
  8
0
100
AcDbLine
 62
7
  6
CONTINUOUS
 10
0.0
 20
0.0
 11
594.0
 21
0.0
  0
LINE
  5
217
100
AcDbEntity
  8
0
100
AcDbLine
 62
7
  6
CONTINUOUS
 10
0.0
 20
420.0
 11
594.0
 21
420.0
  0
LINE
  5
218
100
AcDbEntity
  8
0
100
AcDbLine
 62
7
  6
CONTINUOUS
 10
594.0
 20
0.0
 11
594.0
 21
420.0
  0
LINE
  5
219
100
AcDbEntity
  8
BEZUGSACHSEN
100
AcDbLine
 62
7
  6
CONTINUOUS
 10
208.4392453109
 20
184.8802051135
 11
229.4392453109
 21
184.8802051135
  0
LINE
  5
21A
100
AcDbEntity
  8
BEZUGSACHSEN
100
AcDbLine
 62
7
  6
CONTINUOUS
 10
205.4392453109
 20
187.8802051135
 11
232.4392453109
 21
187.8802051135
  0
LINE
  5
21B
100
AcDbEntity
  8
BEZUGSACHSEN
100
AcDbLine
 62
7
  6
CONTINUOUS
 10
205.4392453109
 20
187.8802051135
 11
208.4392453109
 21
184.8802051135
  0
LINE
  5
21C
100
AcDbEntity
  8
0
100
AcDbLine
 62
7
  6
CONTINUOUS
 10
248.9392453109
 20
223.8802051135
 11
188.9392453109
 21
223.8802051135
  0
LINE
  5
21D
100
AcDbEntity
  8
0
100
AcDbLine
 62
7
  6
CONTINUOUS
 10
248.9392453109
 20
229.1302051135
 11
188.9392453109
 21
229.1302051135
  0
LINE
  5
21E
100
AcDbEntity
  8
RUNDUNGEN
100
AcDbLine
 62
7
  6
CONTINUOUS
 10
253.9392453109
 20
229.3802051135
 11
189.9394653266
 21
229.3802051135
  0
LINE
  5
21F
100
AcDbEntity
  8
0
100
AcDbLine
 62
7
  6
CONTINUOUS
 10
186.5060447932
 20
236.8002051135
 11
187.3700496976
 21
236.8002051135
  0
LINE
  5
220
100
AcDbEntity
  8
0
100
AcDbLine
 62
7
  6
CONTINUOUS
 10
186.4392453109
 20
264.7304178741
 11
186.4392453109
 21
265.5814817067
  0
LINE
  5
221
100
AcDbEntity
  8
0
100
AcDbLine
 62
7
  6
CONTINUOUS
 10
186.4402427785
 20
239.3321199586
 11
186.4402427785
 21
240.4172264656
  0
LINE
  5
222
100
AcDbEntity
  8
0
100
AcDbLine
 62
7
  6
CONTINUOUS
 10
186.4455815268
 20
250.4402051135
 11
186.4455815268
 21
258.9402051135
  0
LINE
  5
223
100
AcDbEntity
  8
0
100
AcDbLine
 62
7
  6
CONTINUOUS
 10
186.4616945563
 20
241.8640348037
 11
186.4616945563
 21
242.5874389728
  0
LINE
  5
224
100
AcDbEntity
  8
0
100
AcDbLine
 62
7
  6
CONTINUOUS
 10
186.4857794923
 20
251.5253114938
 11
186.4857794923
 21
254.2380775078
  0
LINE
  5
225
100
AcDbEntity
  8
0
100
AcDbLine
 62
7
  6
CONTINUOUS
 10
186.4857794923
 20
255.3231837615
 11
186.4857794923
 21
257.8550988599
  0
LINE
  5
226
100
AcDbEntity
  8
0
100
AcDbLine
 62
7
  6
CONTINUOUS
 10
186.4995280377
 20
267.2836092826
 11
186.4995280377
 21
272.5602051135
  0
LINE
  5
227
100
AcDbEntity
  8
0
100
AcDbLine
 62
7
  6
CONTINUOUS
 10
186.5060447932
 20
236.8002051135
 11
186.5060447932
 21
239.3321199586
  0
LINE
  5
228
100
AcDbEntity
  8
0
100
AcDbLine
 62
7
  6
CONTINUOUS
 10
186.5060447932
 20
240.4172264656
 11
186.5060447932
 21
241.8640348037
  0
LINE
  5
229
100
AcDbEntity
  8
0
100
AcDbLine
 62
7
  6
CONTINUOUS
 10
186.5060447932
 20
242.5874389728
 11
186.5060447932
 21
245.3002051135
  0
LINE
  5
22A
100
AcDbEntity
  8
0
100
AcDbLine
 62
7
  6
CONTINUOUS
 10
186.5491291988
 20
238.2470135783
 11
186.5491291988
 21
241.8640348037
  0
LINE
  5
22B
100
AcDbEntity
  8
0
100
AcDbLine
 62
7
  6
CONTINUOUS
 10
186.5491291988
 20
242.5874389728
 11
186.5491291988
 21
244.0342478176
  0
LINE
  5
22C
100
AcDbEntity
  8
0
100
AcDbLine
 62
7
  6
CONTINUOUS
 10
186.5790237422
 20
267.2836092826
 11
186.5790237422
 21
272.5602051135
  0
LINE
  5
22D
100
AcDbEntity
  8
0
100
AcDbLine
 62
7
  6
CONTINUOUS
 10
186.6375187102
 20
238.6087157895
 11
186.6375187102
 21
241.8640348037
  0
LINE
  5
22E
100
AcDbEntity
  8
0
100
AcDbLine
 62
7
  6
CONTINUOUS
 10
186.6375187102
 20
242.5874389728
 11
186.6375187102
 21
244.0342478176
  0
LINE
  5
22F
100
AcDbEntity
  8
0
100
AcDbLine
 62
7
  6
CONTINUOUS
 10
186.7368033566
 20
264.5602051135
 11
186.7368033566
 21
272.5602051135
  0
LINE
  5
230
100
AcDbEntity
  8
0
100
AcDbLine
 62
7
  6
CONTINUOUS
 10
186.8628870004
 20
236.8002051135
 11
186.8628870004
 21
237.5236093459
  0
LINE
  5
231
100
AcDbEntity
  8
0
100
AcDbLine
 62
7
  6
CONTINUOUS
 10
186.8944870326
 20
265.5814817067
 11
186.8944870326
 21
271.5389286395
  0
LINE
  5
232
100
AcDbEntity
  8
0
100
AcDbLine
 62
7
  6
CONTINUOUS
 10
186.9246888424
 20
241.8640348037
 11
186.9246888424
 21
242.5874389728
  0
LINE
  5
233
100
AcDbEntity
  8
0
100
AcDbLine
 62
7
  6
CONTINUOUS
 10
186.9392453109
 20
232.3802051135
 11
186.9392453109
 21
236.8002051135
  0
LINE
  5
234
100
AcDbEntity
  8
0
100
AcDbLine
 62
7
  6
CONTINUOUS
 10
186.9392453109
 20
244.0342478176
 11
186.9392453109
 21
250.4402051135
  0
LINE
  5
235
100
AcDbEntity
  8
0
100
AcDbLine
 62
7
  6
CONTINUOUS
 10
186.9392453109
 20
258.9402051135
 11
186.9392453109
 21
264.5602051135
  0
LINE
  5
236
100
AcDbEntity
  8
0
100
AcDbLine
 62
7
  6
CONTINUOUS
 10
186.9392453109
 20
272.5602051135
 11
186.9392453109
 21
276.3802051135
  0
LINE
  5
237
100
AcDbEntity
  8
0
100
AcDbLine
 62
7
  6
CONTINUOUS
 10
186.9865562769
 20
251.881863118
 11
186.9865562769
 21
253.8815259452
  0
LINE
  5
238
100
AcDbEntity
  8
0
100
AcDbLine
 62
7
  6
CONTINUOUS
 10
186.9865562769
 20
255.6797353241
 11
186.9865562769
 21
257.4985472972
  0
LINE
  5
239
100
AcDbEntity
  8
0
100
AcDbLine
 62
7
  6
CONTINUOUS
 10
187.0577690515
 20
252.6104178741
 11
187.0577690515
 21
253.1529710009
  0
LINE
  5
23A
100
AcDbEntity
  8
0
100
AcDbLine
 62
7
  6
CONTINUOUS
 10
187.0577690515
 20
256.4082900151
 11
187.0577690515
 21
256.7699920996
  0
LINE
  5
23B
100
AcDbEntity
  8
0
100
AcDbLine
 62
7
  6
CONTINUOUS
 10
187.140845438
 20
238.6087157895
 11
187.140845438
 21
241.8640348037
  0
LINE
  5
23C
100
AcDbEntity
  8
0
100
AcDbLine
 62
7
  6
CONTINUOUS
 10
187.140845438
 20
242.5874389728
 11
187.140845438
 21
244.0342478176
  0
LINE
  5
23D
100
AcDbEntity
  8
0
100
AcDbLine
 62
7
  6
CONTINUOUS
 10
187.2948982791
 20
252.4295668318
 11
187.2948982791
 21
253.3338220432
  0
LINE
  5
23E
100
AcDbEntity
  8
0
100
AcDbLine
 62
7
  6
CONTINUOUS
 10
187.2948982791
 20
256.2274389728
 11
187.2948982791
 21
256.9508436485
  0
LINE
  5
23F
100
AcDbEntity
  8
0
100
AcDbLine
 62
7
  6
CONTINUOUS
 10
187.3700496976
 20
236.8002051135
 11
187.3700496976
 21
237.5236093459
  0
LINE
  5
240
100
AcDbEntity
  8
0
100
AcDbLine
 62
7
  6
CONTINUOUS
 10
187.4021923096
 20
265.5814817067
 11
187.4021923096
 21
271.5389286395
  0
LINE
  5
241
100
AcDbEntity
  8
0
100
AcDbLine
 62
7
  6
CONTINUOUS
 10
187.4329137869
 20
241.8640348037
 11
187.4329137869
 21
242.5874389728
  0
LINE
  5
242
100
AcDbEntity
  8
0
100
AcDbLine
 62
7
  6
CONTINUOUS
 10
187.6739974922
 20
253.3338220432
 11
187.6739974922
 21
256.0465879305
  0
LINE
  5
243
100
AcDbEntity
  8
0
100
AcDbLine
 62
7
  6
CONTINUOUS
 10
188.0070627664
 20
253.3338220432
 11
188.0070627664
 21
256.0465879305
  0
LINE
  5
244
100
AcDbEntity
  8
0
100
AcDbLine
 62
7
  6
CONTINUOUS
 10
188.0963998404
 20
267.2836092826
 11
188.0963998404
 21
269.836800706
  0
LINE
  5
245
100
AcDbEntity
  8
0
100
AcDbLine
 62
7
  6
CONTINUOUS
 10
257.7474601759
 20
243.4520069435
 11
257.7505864413
 21
243.4528049574
  0
LWPOLYLINE
  5
246
100
AcDbEntity
  8
0
100
AcDbPolyline
 62
7
  6
CONTINUOUS
 90
3
 70
0
 10
256.4670478741
 20
243.2098687473
 10
257.1950917208
 20
243.3270572184
 10
257.7505863824
 20
243.4528051841
  0
LINE
  5
247
100
AcDbEntity
  8
0
100
AcDbLine
 62
7
  6
CONTINUOUS
 10
255.7315823943
 20
243.1446669182
 11
256.4670478741
 21
243.2098687473
  0
LINE
  5
248
100
AcDbEntity
  8
0
100
AcDbLine
 62
7
  6
CONTINUOUS
 10
255.1840676492
 20
243.1302054242
 11
255.7315823943
 21
243.1446669182
  0
LINE
  5
249
100
AcDbEntity
  8
0
100
AcDbLine
 62
7
  6
CONTINUOUS
 10
186.8628870004
 20
237.5236093459
 11
187.3700496976
 21
237.5236093459
  0
LINE
  5
24A
100
AcDbEntity
  8
0
100
AcDbLine
 62
7
  6
CONTINUOUS
 10
186.7270934624
 20
237.7044604515
 11
187.2319378038
 21
237.7044604515
  0
LINE
  5
24B
100
AcDbEntity
  8
0
100
AcDbLine
 62
7
  6
CONTINUOUS
 10
186.6583340778
 20
238.0661625361
 11
187.1620126472
 21
238.0661625361
  0
LINE
  5
24C
100
AcDbEntity
  8
0
100
AcDbLine
 62
7
  6
CONTINUOUS
 10
186.6375187102
 20
238.6087157895
 11
187.140845438
 21
238.6087157895
  0
LINE
  5
24D
100
AcDbEntity
  8
0
100
AcDbLine
 62
7
  6
CONTINUOUS
 10
186.4402427785
 20
239.3321199586
 11
186.5491291988
 21
239.3321199586
  0
LINE
  5
24E
100
AcDbEntity
  8
0
100
AcDbLine
 62
7
  6
CONTINUOUS
 10
186.4402427785
 20
240.4172264656
 11
186.5491291988
 21
240.4172264656
  0
LINE
  5
24F
100
AcDbEntity
  8
0
100
AcDbLine
 62
7
  6
CONTINUOUS
 10
186.4616945563
 20
241.8640348037
 11
186.5491291988
 21
241.8640348037
  0
LINE
  5
250
100
AcDbEntity
  8
0
100
AcDbLine
 62
7
  6
CONTINUOUS
 10
186.6375187102
 20
241.8640348037
 11
187.4329137869
 21
241.8640348037
  0
LINE
  5
251
100
AcDbEntity
  8
0
100
AcDbLine
 62
7
  6
CONTINUOUS
 10
186.4616945563
 20
242.5874389728
 11
186.5491291988
 21
242.5874389728
  0
LINE
  5
252
100
AcDbEntity
  8
0
100
AcDbLine
 62
7
  6
CONTINUOUS
 10
186.6375187102
 20
242.5874389728
 11
187.4329137869
 21
242.5874389728
  0
LINE
  5
253
100
AcDbEntity
  8
0
100
AcDbLine
 62
7
  6
CONTINUOUS
 10
255.1840691028
 20
243.1302051135
 11
254.6944215189
 21
243.1302051135
  0
LINE
  5
254
100
AcDbEntity
  8
0
100
AcDbLine
 62
7
  6
CONTINUOUS
 10
186.5491291988
 20
244.0342478176
 11
187.140845438
 21
244.0342478176
  0
LINE
  5
255
100
AcDbEntity
  8
0
100
AcDbLine
 62
7
  6
CONTINUOUS
 10
188.4598421786
 20
267.2836092826
 11
188.4598421786
 21
269.836800706
  0
LINE
  5
256
100
AcDbEntity
  8
0
100
AcDbLine
 62
7
  6
CONTINUOUS
 10
188.5346473242
 20
253.3338220432
 11
188.5346473242
 21
256.0465879305
  0
LINE
  5
257
100
AcDbEntity
  8
0
100
AcDbLine
 62
7
  6
CONTINUOUS
 10
188.9392453109
 20
284.8802051135
 11
188.9392453109
 21
279.6302051135
  0
LINE
  5
258
100
AcDbEntity
  8
0
100
AcDbLine
 62
7
  6
CONTINUOUS
 10
188.9392453109
 20
229.1302051135
 11
188.9392453109
 21
223.8802051135
  0
LINE
  5
259
100
AcDbEntity
  8
0
100
AcDbLine
 62
7
  6
CONTINUOUS
 10
188.9959741572
 20
267.2836092826
 11
188.9959741572
 21
269.836800706
  0
LINE
  5
25A
100
AcDbEntity
  8
0
100
AcDbLine
 62
7
  6
CONTINUOUS
 10
189.2738575045
 20
254.0572264656
 11
189.2738575045
 21
255.1423327192
  0
LINE
  5
25B
100
AcDbEntity
  8
0
100
AcDbLine
 62
7
  6
CONTINUOUS
 10
190.0709589283
 20
252.6104178741
 11
190.0709589283
 21
254.0572264656
  0
LINE
  5
25C
100
AcDbEntity
  8
0
100
AcDbLine
 62
7
  6
CONTINUOUS
 10
190.669428005
 20
252.4295668318
 11
190.669428005
 21
255.1423327192
  0
LINE
  5
25D
100
AcDbEntity
  8
0
100
AcDbLine
 62
7
  6
CONTINUOUS
 10
191.2516354321
 20
252.4295668318
 11
191.2516354321
 21
255.1423327192
  0
LINE
  5
25E
100
AcDbEntity
  8
BEZUGSACHSEN
100
AcDbLine
 62
7
  6
CONTINUOUS
 10
195.2678842741
 20
285.3802051135
 11
195.2678842741
 21
300.2492189652
  0
LINE
  5
25F
100
AcDbEntity
  8
0
100
AcDbLine
 62
7
  6
CONTINUOUS
 10
186.5060447932
 20
245.3002051135
 11
186.9392453109
 21
245.3002051135
  0
LINE
  5
260
100
AcDbEntity
  8
0
100
AcDbLine
 62
7
  6
CONTINUOUS
 10
186.4455815268
 20
250.4402051135
 11
187.3374403438
 21
250.4402051135
  0
LINE
  5
261
100
AcDbEntity
  8
0
100
AcDbLine
 62
7
  6
CONTINUOUS
 10
188.6594303197
 20
250.4402051135
 11
189.9106550082
 21
250.4402051135
  0
LINE
  5
262
100
AcDbEntity
  8
0
100
AcDbLine
 62
7
  6
CONTINUOUS
 10
186.9875174931
 20
250.6210561716
 11
187.4968269443
 21
250.6210561716
  0
LINE
  5
263
100
AcDbEntity
  8
0
100
AcDbLine
 62
7
  6
CONTINUOUS
 10
189.7922585651
 20
250.6210561716
 11
190.3552484448
 21
250.6210561716
  0
LINE
  5
264
100
AcDbEntity
  8
0
100
AcDbLine
 62
7
  6
CONTINUOUS
 10
190.1668458398
 20
250.9827583037
 11
190.7378832578
 21
250.9827583037
  0
LINE
  5
265
100
AcDbEntity
  8
0
100
AcDbLine
 62
7
  6
CONTINUOUS
 10
187.1323941086
 20
251.1636093459
 11
187.6442222081
 21
251.1636093459
  0
LINE
  5
266
100
AcDbEntity
  8
0
100
AcDbLine
 62
7
  6
CONTINUOUS
 10
186.4857794923
 20
251.5253114938
 11
186.8600145455
 21
251.5253114938
  0
LINE
  5
267
100
AcDbEntity
  8
0
100
AcDbLine
 62
7
  6
CONTINUOUS
 10
188.6594303197
 20
251.5253114938
 11
189.3567382865
 21
251.5253114938
  0
LINE
  5
268
100
AcDbEntity
  8
0
100
AcDbLine
 62
7
  6
CONTINUOUS
 10
188.3835132911
 20
251.7061625361
 11
188.9181848173
 21
251.7061625361
  0
LINE
  5
269
100
AcDbEntity
  8
0
100
AcDbLine
 62
7
  6
CONTINUOUS
 10
190.5657664507
 20
251.7061625361
 11
191.145633947
 21
251.7061625361
  0
LINE
  5
26A
100
AcDbEntity
  8
0
100
AcDbLine
 62
7
  6
CONTINUOUS
 10
187.2526044416
 20
251.8870135783
 11
187.7665415263
 21
251.8870135783
  0
LWPOLYLINE
  5
26B
100
AcDbEntity
  8
KONSTRUKTIONSELEMENTE
100
AcDbPolyline
 62
7
  6
CONTINUOUS
 90
5
 70
0
 10
252.1280251503
 20
243.452774301
 10
252.6940146379
 20
243.3249645279
 10
253.4243247833
 20
243.2082709177
 10
254.1620275544
 20
243.1438787101
 10
254.6944229712
 20
243.1302054242
  0
LINE
  5
26C
100
AcDbEntity
  8
KONSTRUKTIONSELEMENTE
100
AcDbLine
 62
7
  6
CONTINUOUS
 10
252.1310299245
 20
243.4520070765
 11
252.1280250914
 21
243.4527740742
  0
LINE
  5
26D
100
AcDbEntity
  8
0
100
AcDbLine
 62
7
  6
CONTINUOUS
 10
197.6892453109
 20
279.6302051135
 11
197.6892453109
 21
279.3802051135
  0
LINE
  5
26E
100
AcDbEntity
  8
0
100
AcDbLine
 62
7
  6
CONTINUOUS
 10
197.6892453109
 20
229.3802051135
 11
197.6892453109
 21
229.1302051135
  0
LINE
  5
26F
100
AcDbEntity
  8
KONSTRUKTIONSELEMENTE
100
AcDbLine
 62
7
  6
CONTINUOUS
 10
198.9392453109
 20
284.8802051135
 11
198.9392453109
 21
285.3802051135
  0
LINE
  5
270
100
AcDbEntity
  8
BEZUGSACHSEN
100
AcDbLine
 62
7
  6
CONTINUOUS
 10
198.9392453109
 20
284.8802051135
 11
198.9392453109
 21
285.3802051135
  0
LINE
  5
271
100
AcDbEntity
  8
0
100
AcDbLine
 62
7
  6
CONTINUOUS
 10
200.8472928953
 20
302.0802051135
 11
200.8472928953
 21
302.3802051135
  0
LINE
  5
272
100
AcDbEntity
  8
0
100
AcDbLine
 62
7
  6
CONTINUOUS
 10
188.1897629582
 20
252.0678647473
 11
188.7207631485
 21
252.0678647473
  0
LINE
  5
273
100
AcDbEntity
  8
0
100
AcDbLine
 62
7
  6
CONTINUOUS
 10
187.2948982791
 20
252.4295668318
 11
187.726560673
 21
252.4295668318
  0
LINE
  5
274
100
AcDbEntity
  8
0
100
AcDbLine
 62
7
  6
CONTINUOUS
 10
190.669428005
 20
252.4295668318
 11
191.2516354321
 21
252.4295668318
  0
LINE
  5
275
100
AcDbEntity
  8
0
100
AcDbLine
 62
7
  6
CONTINUOUS
 10
188.0667480167
 20
252.6104178741
 11
188.5954435193
 21
252.6104178741
  0
LINE
  5
276
100
AcDbEntity
  8
0
100
AcDbLine
 62
7
  6
CONTINUOUS
 10
187.2948982791
 20
253.3338220432
 11
187.6739974922
 21
253.3338220432
  0
LINE
  5
277
100
AcDbEntity
  8
0
100
AcDbLine
 62
7
  6
CONTINUOUS
 10
188.0070627664
 20
253.3338220432
 11
188.5346473242
 21
253.3338220432
  0
LINE
  5
278
100
AcDbEntity
  8
0
100
AcDbLine
 62
7
  6
CONTINUOUS
 10
187.2526044416
 20
253.8763754233
 11
187.6739974922
 21
253.8763754233
  0
LINE
  5
279
100
AcDbEntity
  8
0
100
AcDbLine
 62
7
  6
CONTINUOUS
 10
189.2738575045
 20
254.0572264656
 11
190.0709589283
 21
254.0572264656
  0
LINE
  5
27A
100
AcDbEntity
  8
0
100
AcDbLine
 62
7
  6
CONTINUOUS
 10
186.4857794923
 20
254.2380775078
 11
186.8600145455
 21
254.2380775078
  0
LINE
  5
27B
100
AcDbEntity
  8
0
100
AcDbLine
 62
7
  6
CONTINUOUS
 10
187.1323941086
 20
254.5997795924
 11
187.6442222081
 21
254.5997795924
  0
LINE
  5
27C
100
AcDbEntity
  8
0
100
AcDbLine
 62
7
  6
CONTINUOUS
 10
187.0577690515
 20
254.7806306347
 11
187.5682966807
 21
254.7806306347
  0
LINE
  5
27D
100
AcDbEntity
  8
0
100
AcDbLine
 62
7
  6
CONTINUOUS
 10
187.1323941086
 20
254.9614816769
 11
187.6442222081
 21
254.9614816769
  0
LINE
  5
27E
100
AcDbEntity
  8
0
100
AcDbLine
 62
7
  6
CONTINUOUS
 10
189.2738575045
 20
255.1423327192
 11
191.2516354321
 21
255.1423327192
  0
LINE
  5
27F
100
AcDbEntity
  8
0
100
AcDbLine
 62
7
  6
CONTINUOUS
 10
186.4857794923
 20
255.3231837615
 11
186.8600145455
 21
255.3231837615
  0
LINE
  5
280
100
AcDbEntity
  8
0
100
AcDbLine
 62
7
  6
CONTINUOUS
 10
187.2526044416
 20
255.684885846
 11
187.6739974922
 21
255.684885846
  0
LINE
  5
281
100
AcDbEntity
  8
0
100
AcDbLine
 62
7
  6
CONTINUOUS
 10
188.0070627664
 20
256.0465879305
 11
188.5346473242
 21
256.0465879305
  0
LINE
  5
282
100
AcDbEntity
  8
0
100
AcDbLine
 62
7
  6
CONTINUOUS
 10
187.2948982791
 20
256.2274389728
 11
187.6844226868
 21
256.2274389728
  0
LINE
  5
283
100
AcDbEntity
  8
0
100
AcDbLine
 62
7
  6
CONTINUOUS
 10
188.0667480167
 20
256.7699920996
 11
188.5954435193
 21
256.7699920996
  0
LINE
  5
284
100
AcDbEntity
  8
0
100
AcDbLine
 62
7
  6
CONTINUOUS
 10
190.0709589283
 20
256.7699920996
 11
191.2516354321
 21
256.7699920996
  0
LINE
  5
285
100
AcDbEntity
  8
0
100
AcDbLine
 62
7
  6
CONTINUOUS
 10
187.2948982791
 20
256.9508436485
 11
187.726560673
 21
256.9508436485
  0
LINE
  5
286
100
AcDbEntity
  8
0
100
AcDbLine
 62
7
  6
CONTINUOUS
 10
188.1897629582
 20
257.3125457331
 11
188.7207631485
 21
257.3125457331
  0
LINE
  5
287
100
AcDbEntity
  8
0
100
AcDbLine
 62
7
  6
CONTINUOUS
 10
187.2526044416
 20
257.4933967753
 11
187.7665415263
 21
257.4933967753
  0
LINE
  5
288
100
AcDbEntity
  8
0
100
AcDbLine
 62
7
  6
CONTINUOUS
 10
188.3835132911
 20
257.6742478176
 11
188.9181848173
 21
257.6742478176
  0
LINE
  5
289
100
AcDbEntity
  8
0
100
AcDbLine
 62
7
  6
CONTINUOUS
 10
190.5657664507
 20
257.6742478176
 11
191.145633947
 21
257.6742478176
  0
LINE
  5
28A
100
AcDbEntity
  8
0
100
AcDbLine
 62
7
  6
CONTINUOUS
 10
186.4857794923
 20
257.8550988599
 11
186.8600145455
 21
257.8550988599
  0
LINE
  5
28B
100
AcDbEntity
  8
0
100
AcDbLine
 62
7
  6
CONTINUOUS
 10
188.6594303197
 20
257.8550988599
 11
189.3567382865
 21
257.8550988599
  0
LINE
  5
28C
100
AcDbEntity
  8
0
100
AcDbLine
 62
7
  6
CONTINUOUS
 10
187.1323941086
 20
258.2168009444
 11
187.6442222081
 21
258.2168009444
  0
LINE
  5
28D
100
AcDbEntity
  8
0
100
AcDbLine
 62
7
  6
CONTINUOUS
 10
190.1668458398
 20
258.3976519867
 11
190.7378832578
 21
258.3976519867
  0
LINE
  5
28E
100
AcDbEntity
  8
0
100
AcDbLine
 62
7
  6
CONTINUOUS
 10
186.9875174931
 20
258.7593540712
 11
187.4968269443
 21
258.7593540712
  0
LINE
  5
28F
100
AcDbEntity
  8
0
100
AcDbLine
 62
7
  6
CONTINUOUS
 10
189.7922585651
 20
258.7593540712
 11
190.3552484448
 21
258.7593540712
  0
LINE
  5
290
100
AcDbEntity
  8
0
100
AcDbLine
 62
7
  6
CONTINUOUS
 10
186.4455815268
 20
258.9402051135
 11
187.3374403438
 21
258.9402051135
  0
LINE
  5
291
100
AcDbEntity
  8
0
100
AcDbLine
 62
7
  6
CONTINUOUS
 10
188.6594303197
 20
258.9402051135
 11
189.9106550082
 21
258.9402051135
  0
LINE
  5
292
100
AcDbEntity
  8
BEZUGSACHSEN
100
AcDbLine
 62
7
  6
CONTINUOUS
 10
205.4392453109
 20
223.8802051135
 11
205.4392453109
 21
187.8802051135
  0
LINE
  5
293
100
AcDbEntity
  8
0
100
AcDbLine
 62
7
  6
CONTINUOUS
 10
205.7894594512
 20
302.0802051135
 11
205.7894594512
 21
302.3802051135
  0
LINE
  5
294
100
AcDbEntity
  8
0
100
AcDbLine
 62
7
  6
CONTINUOUS
 10
205.8842445481
 20
302.0802051135
 11
205.8842445481
 21
302.3802051135
  0
LINE
  5
295
100
AcDbEntity
  8
0
100
AcDbLine
 62
7
  6
CONTINUOUS
 10
206.2791824364
 20
302.0802051135
 11
206.2791824364
 21
302.3802051135
  0
LINE
  5
296
100
AcDbEntity
  8
0
100
AcDbLine
 62
7
  6
CONTINUOUS
 10
206.3897650795
 20
302.0802051135
 11
206.3897650795
 21
302.3802051135
  0
LINE
  5
297
100
AcDbEntity
  8
0
100
AcDbLine
 62
7
  6
CONTINUOUS
 10
206.7712285129
 20
302.0802051135
 11
206.7712285129
 21
302.3802051135
  0
LINE
  5
298
100
AcDbEntity
  8
BEZUGSACHSEN
100
AcDbLine
 62
7
  6
CONTINUOUS
 10
207.1035647925
 20
285.3802051135
 11
207.1035647925
 21
300.2492189652
  0
LINE
  5
299
100
AcDbEntity
  8
0
100
AcDbLine
 62
7
  6
CONTINUOUS
 10
207.1610572736
 20
302.0802051135
 11
207.1610572736
 21
302.3802051135
  0
LINE
  5
29A
100
AcDbEntity
  8
0
100
AcDbLine
 62
7
  6
CONTINUOUS
 10
207.5092955325
 20
302.0802051135
 11
207.5092955325
 21
302.3802051135
  0
LINE
  5
29B
100
AcDbEntity
  8
0
100
AcDbLine
 62
7
  6
CONTINUOUS
 10
207.7137276684
 20
302.0802051135
 11
207.7137276684
 21
302.3802051135
  0
LINE
  5
29C
100
AcDbEntity
  8
0
100
AcDbLine
 62
7
  6
CONTINUOUS
 10
207.8765693106
 20
302.0802051135
 11
207.8765693106
 21
302.3802051135
  0
LINE
  5
29D
100
AcDbEntity
  8
0
100
AcDbLine
 62
7
  6
CONTINUOUS
 10
207.8956048217
 20
302.0802051135
 11
207.8956048217
 21
302.3802051135
  0
LINE
  5
29E
100
AcDbEntity
  8
0
100
AcDbLine
 62
7
  6
CONTINUOUS
 10
209.0628425291
 20
302.0802051135
 11
209.0628425291
 21
302.3802051135
  0
LINE
  5
29F
100
AcDbEntity
  8
0
100
AcDbLine
 62
7
  6
CONTINUOUS
 10
244.5150769668
 20
386.1682365174
 11
244.2119095027
 21
385.3303719331
  0
LINE
  5
2A0
100
AcDbEntity
  8
0
100
AcDbLine
 62
7
  6
CONTINUOUS
 10
244.515927948
 20
386.1701156773
 11
244.5150769668
 21
386.1682365174
  0
LWPOLYLINE
  5
2A1
100
AcDbEntity
  8
KONSTRUKTIONSELEMENTE
100
AcDbPolyline
 62
7
  6
CONTINUOUS
 90
6
 70
0
 10
244.8654010315
 20
386.9418316428
 10
244.5165953894
 20
386.1719584191
 10
244.2123344954
 20
385.3319232208
 10
243.9761887265
 20
384.4699554532
 10
243.8098573642
 20
383.5922075141
 10
243.7143859341
 20
382.7049631013
  0
LINE
  5
2A2
100
AcDbEntity
  8
BEZUGSACHSEN
100
AcDbLine
 62
7
  6
CONTINUOUS
 10
195.2678842741
 20
300.2492189652
 11
198.4392453109
 21
302.0802051135
  0
LINE
  5
2A3
100
AcDbEntity
  8
0
100
AcDbLine
 62
7
  6
CONTINUOUS
 10
186.4402699182
 20
264.5602051135
 11
188.0959185263
 21
264.5602051135
  0
LINE
  5
2A4
100
AcDbEntity
  8
0
100
AcDbLine
 62
7
  6
CONTINUOUS
 10
186.458490898
 20
264.7304178741
 11
186.7368033566
 21
264.7304178741
  0
LINE
  5
2A5
100
AcDbEntity
  8
0
100
AcDbLine
 62
7
  6
CONTINUOUS
 10
187.8232180406
 20
264.7304178741
 11
188.3474100426
 21
264.7304178741
  0
LINE
  5
2A6
100
AcDbEntity
  8
0
100
AcDbLine
 62
7
  6
CONTINUOUS
 10
186.4894916173
 20
265.0708434101
 11
186.7368033566
 21
265.0708434101
  0
LINE
  5
2A7
100
AcDbEntity
  8
0
100
AcDbLine
 62
7
  6
CONTINUOUS
 10
188.0396345868
 20
265.0708434101
 11
188.5678248318
 21
265.0708434101
  0
LINE
  5
2A8
100
AcDbEntity
  8
0
100
AcDbLine
 62
7
  6
CONTINUOUS
 10
186.4392452877
 20
265.5814817067
 11
186.4402698724
 21
265.5814817067
  0
LINE
  5
2A9
100
AcDbEntity
  8
0
100
AcDbLine
 62
7
  6
CONTINUOUS
 10
186.8944870326
 20
265.5814817067
 11
187.576215835
 21
265.5814817067
  0
LINE
  5
2AA
100
AcDbEntity
  8
0
100
AcDbLine
 62
7
  6
CONTINUOUS
 10
186.5351383402
 20
265.7516944524
 11
186.7368033566
 21
265.7516944524
  0
LINE
  5
2AB
100
AcDbEntity
  8
0
100
AcDbLine
 62
7
  6
CONTINUOUS
 10
188.2731840397
 20
265.7516944524
 11
188.8057587015
 21
265.7516944524
  0
LINE
  5
2AC
100
AcDbEntity
  8
0
100
AcDbLine
 62
7
  6
CONTINUOUS
 10
186.5634737157
 20
266.4325455543
 11
186.7368033566
 21
266.4325455543
  0
LINE
  5
2AD
100
AcDbEntity
  8
0
100
AcDbLine
 62
7
  6
CONTINUOUS
 10
188.3965141872
 20
266.4325455543
 11
188.9314339005
 21
266.4325455543
  0
LINE
  5
2AE
100
AcDbEntity
  8
0
100
AcDbLine
 62
7
  6
CONTINUOUS
 10
210.9919341514
 20
302.0802051135
 11
210.9919341514
 21
302.3802051135
  0
LINE
  5
2AF
100
AcDbEntity
  8
0
100
AcDbLine
 62
7
  6
CONTINUOUS
 10
211.3261622095
 20
302.0802051135
 11
211.3261622095
 21
302.3802051135
  0
LINE
  5
2B0
100
AcDbEntity
  8
0
100
AcDbLine
 62
7
  6
CONTINUOUS
 10
211.5123444944
 20
302.0802051135
 11
211.5123444944
 21
302.3802051135
  0
LINE
  5
2B1
100
AcDbEntity
  8
0
100
AcDbLine
 62
7
  6
CONTINUOUS
 10
211.5631941121
 20
302.0802051135
 11
211.5631941121
 21
302.3802051135
  0
LINE
  5
2B2
100
AcDbEntity
  8
0
100
AcDbLine
 62
7
  6
CONTINUOUS
 10
217.9064939901
 20
302.0802051135
 11
217.9064939901
 21
302.3802051135
  0
LINE
  5
2B3
100
AcDbEntity
  8
0
100
AcDbLine
 62
7
  6
CONTINUOUS
 10
244.2113614476
 20
385.3288572719
 11
243.9759639215
 21
384.4687691339
  0
LINE
  5
2B4
100
AcDbEntity
  8
0
100
AcDbLine
 62
7
  6
CONTINUOUS
 10
186.5790237422
 20
267.2836092826
 11
186.7368033566
 21
267.2836092826
  0
LINE
  5
2B5
100
AcDbEntity
  8
0
100
AcDbLine
 62
7
  6
CONTINUOUS
 10
188.4598421786
 20
267.2836092826
 11
188.9959741572
 21
267.2836092826
  0
LINE
  5
2B6
100
AcDbEntity
  8
0
100
AcDbLine
 62
7
  6
CONTINUOUS
 10
188.4598421786
 20
269.836800706
 11
188.9959741572
 21
269.836800706
  0
LINE
  5
2B7
100
AcDbEntity
  8
0
100
AcDbLine
 62
7
  6
CONTINUOUS
 10
188.3965141872
 20
270.6878649112
 11
188.9314339005
 21
270.6878649112
  0
LINE
  5
2B8
100
AcDbEntity
  8
0
100
AcDbLine
 62
7
  6
CONTINUOUS
 10
188.2731840397
 20
271.3687158938
 11
188.8057587015
 21
271.3687158938
  0
LINE
  5
2B9
100
AcDbEntity
  8
0
100
AcDbLine
 62
7
  6
CONTINUOUS
 10
186.8944870326
 20
271.5389286395
 11
187.576215835
 21
271.5389286395
  0
LINE
  5
2BA
100
AcDbEntity
  8
0
100
AcDbLine
 62
7
  6
CONTINUOUS
 10
188.0396345868
 20
272.0495668765
 11
188.5678248318
 21
272.0495668765
  0
LINE
  5
2BB
100
AcDbEntity
  8
0
100
AcDbLine
 62
7
  6
CONTINUOUS
 10
187.8232180406
 20
272.3899923678
 11
188.3474100426
 21
272.3899923678
  0
LINE
  5
2BC
100
AcDbEntity
  8
0
100
AcDbLine
 62
7
  6
CONTINUOUS
 10
186.4995280377
 20
272.5602051135
 11
188.0959185263
 21
272.5602051135
  0
LINE
  5
2BD
100
AcDbEntity
  8
0
100
AcDbLine
 62
7
  6
CONTINUOUS
 10
218.5275853488
 20
302.0802051135
 11
218.5275853488
 21
302.3802051135
  0
LINE
  5
2BE
100
AcDbEntity
  8
0
100
AcDbLine
 62
7
  6
CONTINUOUS
 10
218.9671084581
 20
302.0802051135
 11
218.9671084581
 21
302.3802051135
  0
LINE
  5
2BF
100
AcDbEntity
  8
0
100
AcDbLine
 62
7
  6
CONTINUOUS
 10
219.9767977295
 20
302.0802051135
 11
219.9767977295
 21
302.3802051135
  0
LINE
  5
2C0
100
AcDbEntity
  8
0
100
AcDbLine
 62
7
  6
CONTINUOUS
 10
220.8049211207
 20
302.0802051135
 11
220.8049211207
 21
302.3802051135
  0
LINE
  5
2C1
100
AcDbEntity
  8
0
100
AcDbLine
 62
7
  6
CONTINUOUS
 10
222.2541335014
 20
302.0802051135
 11
222.2541335014
 21
302.3802051135
  0
LINE
  5
2C2
100
AcDbEntity
  8
0
100
AcDbLine
 62
7
  6
CONTINUOUS
 10
222.8752248601
 20
302.0802051135
 11
222.8752248601
 21
302.3802051135
  0
LINE
  5
2C3
100
AcDbEntity
  8
0
100
AcDbLine
 62
7
  6
CONTINUOUS
 10
223.433537981
 20
302.0802051135
 11
223.433537981
 21
302.3802051135
  0
LINE
  5
2C4
100
AcDbEntity
  8
0
100
AcDbLine
 62
7
  6
CONTINUOUS
 10
223.6802438938
 20
302.0802051135
 11
223.6802438938
 21
302.3802051135
  0
LINE
  5
2C5
100
AcDbEntity
  8
0
100
AcDbLine
 62
7
  6
CONTINUOUS
 10
243.975644961
 20
384.467603726
 11
243.809771149
 21
383.59140629
  0
LINE
  5
2C6
100
AcDbEntity
  8
RUNDUNGEN
100
AcDbLine
 62
7
  6
CONTINUOUS
 10
189.9394653265
 20
279.3802051135
 11
245.3869046039
 21
279.3802051135
  0
LINE
  5
2C7
100
AcDbEntity
  8
0
100
AcDbLine
 62
7
  6
CONTINUOUS
 10
245.3869033065
 20
279.6302051135
 11
188.9392453109
 21
279.6302051135
  0
LINE
  5
2C8
100
AcDbEntity
  8
0
100
AcDbLine
 62
7
  6
CONTINUOUS
 10
226.9483809741
 20
302.0802051135
 11
226.9483809741
 21
302.3802051135
  0
LINE
  5
2C9
100
AcDbEntity
  8
0
100
AcDbLine
 62
7
  6
CONTINUOUS
 10
227.2092266066
 20
302.0802051135
 11
227.2092266066
 21
302.3802051135
  0
LINE
  5
2CA
100
AcDbEntity
  8
0
100
AcDbLine
 62
7
  6
CONTINUOUS
 10
228.0846025813
 20
302.0802051135
 11
228.0846025813
 21
302.3802051135
  0
LINE
  5
2CB
100
AcDbEntity
  8
0
100
AcDbLine
 62
7
  6
CONTINUOUS
 10
228.2938664964
 20
302.0802051135
 11
228.2938664964
 21
302.3802051135
  0
LINE
  5
2CC
100
AcDbEntity
  8
0
100
AcDbLine
 62
7
  6
CONTINUOUS
 10
228.6992184415
 20
302.0802051135
 11
228.6992184415
 21
302.3802051135
  0
LINE
  5
2CD
100
AcDbEntity
  8
BEZUGSACHSEN
100
AcDbLine
 62
7
  6
CONTINUOUS
 10
230.7749258293
 20
285.3802051135
 11
230.7749258293
 21
300.2492189652
  0
LINE
  5
2CE
100
AcDbEntity
  8
BEZUGSACHSEN
100
AcDbLine
 62
7
  6
CONTINUOUS
 10
232.4392453109
 20
223.8802051135
 11
232.4392453109
 21
187.8802051135
  0
LINE
  5
2CF
100
AcDbEntity
  8
0
100
AcDbLine
 62
7
  6
CONTINUOUS
 10
233.451324275
 20
302.0802051135
 11
233.451324275
 21
302.3802051135
  0
LINE
  5
2D0
100
AcDbEntity
  8
0
100
AcDbLine
 62
7
  6
CONTINUOUS
 10
243.8096212593
 20
383.5906145256
 11
243.7461674763
 21
383.000318431
  0
LINE
  5
2D1
100
AcDbEntity
  8
0
100
AcDbLine
 62
7
  6
CONTINUOUS
 10
245.3868760592
 20
284.8802051135
 11
188.9392453109
 21
284.8802051135
  0
LINE
  5
2D2
100
AcDbEntity
  8
KONSTRUKTIONSELEMENTE
100
AcDbLine
 62
7
  6
CONTINUOUS
 10
195.2678842741
 20
285.3802051135
 11
242.6106063476
 21
285.3802051135
  0
LINE
  5
2D3
100
AcDbEntity
  8
KONSTRUKTIONSELEMENTE
100
AcDbLine
 62
7
  6
CONTINUOUS
 10
245.3869564088
 20
285.3802051135
 11
246.4392453109
 21
285.3802051135
  0
LINE
  5
2D4
100
AcDbEntity
  8
0
100
AcDbLine
 62
7
  6
CONTINUOUS
 10
263.4392453109
 20
285.3802051135
 11
264.4915342129
 21
285.3802051135
  0
LINE
  5
2D5
100
AcDbEntity
  8
0
100
AcDbLine
 62
7
  6
CONTINUOUS
 10
233.8561970368
 20
302.0802051135
 11
233.8561970368
 21
302.3802051135
  0
LINE
  5
2D6
100
AcDbEntity
  8
KONSTRUKTIONSELEMENTE
100
AcDbLine
 62
7
  6
CONTINUOUS
 10
238.9392453109
 20
284.8802051135
 11
238.9392453109
 21
285.3802051135
  0
LINE
  5
2D7
100
AcDbEntity
  8
BEZUGSACHSEN
100
AcDbLine
 62
7
  6
CONTINUOUS
 10
238.9392453109
 20
284.8802051135
 11
238.9392453109
 21
285.3802051135
  0
LINE
  5
2D8
100
AcDbEntity
  8
0
100
AcDbLine
 62
7
  6
CONTINUOUS
 10
240.1892453109
 20
279.6302051135
 11
240.1892453109
 21
279.3802051135
  0
LINE
  5
2D9
100
AcDbEntity
  8
0
100
AcDbLine
 62
7
  6
CONTINUOUS
 10
240.1892453109
 20
229.3802051135
 11
240.1892453109
 21
229.1302051135
  0
LINE
  5
2DA
100
AcDbEntity
  8
KONSTRUKTIONSELEMENTE
100
AcDbLine
 62
7
  6
CONTINUOUS
 10
243.7143859341
 20
382.7049631013
 11
243.6892513995
 21
381.9568206724
  0
LINE
  5
2DB
100
AcDbEntity
  8
0
100
AcDbLine
 62
7
  6
CONTINUOUS
 10
246.4392453109
 20
291.0502051135
 11
245.6892453109
 21
291.0502051135
  0
LINE
  5
2DC
100
AcDbEntity
  8
0
100
AcDbLine
 62
7
  6
CONTINUOUS
 10
246.4392453109
 20
292.1752051135
 11
245.6892453109
 21
292.1752051135
  0
LINE
  5
2DD
100
AcDbEntity
  8
0
100
AcDbLine
 62
7
  6
CONTINUOUS
 10
246.4392453109
 20
295.3627050241
 11
245.6892453109
 21
295.3627050241
  0
LINE
  5
2DE
100
AcDbEntity
  8
0
100
AcDbLine
 62
7
  6
CONTINUOUS
 10
246.4392453109
 20
296.8627049347
 11
245.6892453109
 21
296.8627049347
  0
LINE
  5
2DF
100
AcDbEntity
  8
RUNDUNGEN
100
AcDbLine
 62
7
  6
CONTINUOUS
 10
245.0373099204
 20
355.8630084172
 11
245.4282815889
 21
348.4028245696
  0
LINE
  5
2E0
100
AcDbEntity
  8
KONSTRUKTIONSELEMENTE
100
AcDbLine
 62
7
  6
CONTINUOUS
 10
245.0373099204
 20
355.8630084172
 11
243.7046630449
 21
381.2914256058
  0
LINE
  5
2E1
100
AcDbEntity
  8
0
100
AcDbLine
 62
7
  6
CONTINUOUS
 10
244.4273166504
 20
367.5023733802
 11
243.7046630449
 21
381.2914256058
  0
LINE
  5
2E2
100
AcDbEntity
  8
BEZUGSACHSEN
100
AcDbLine
 62
7
  6
CONTINUOUS
 10
242.6106063476
 20
285.3802051135
 11
242.6106063476
 21
300.2492189652
  0
LINE
  5
2E3
100
AcDbEntity
  8
KONSTRUKTIONSELEMENTE
100
AcDbLine
 62
7
  6
CONTINUOUS
 10
243.6892453109
 20
255.1515310465
 11
243.6892453109
 21
254.1302051135
  0
LINE
  5
2E4
100
AcDbEntity
  8
0
100
AcDbLine
 62
7
  6
CONTINUOUS
 10
245.4392453109
 20
347.9841369198
 11
245.4392453109
 21
342.6341397115
  0
LINE
  5
2E5
100
AcDbEntity
  8
0
100
AcDbLine
 62
7
  6
CONTINUOUS
 10
245.4392453109
 20
323.3802051135
 11
245.4392453109
 21
335.7290657766
  0
LINE
  5
2E6
100
AcDbEntity
  8
0
100
AcDbLine
 62
7
  6
CONTINUOUS
 10
245.4392453109
 20
373.2628138759
 11
245.4392453109
 21
387.9551558707
  0
LINE
  5
2E7
100
AcDbEntity
  8
0
100
AcDbLine
 62
7
  6
CONTINUOUS
 10
245.6892453109
 20
291.0502051135
 11
245.6892453109
 21
298.1752052923
  0
LINE
  5
2E8
100
AcDbEntity
  8
0
100
AcDbLine
 62
7
  6
CONTINUOUS
 10
245.6892453109
 20
299.6752049347
 11
245.6892453109
 21
306.4252054711
  0
LINE
  5
2E9
100
AcDbEntity
  8
0
100
AcDbLine
 62
7
  6
CONTINUOUS
 10
245.6892453109
 20
307.9252051135
 11
245.6892453109
 21
315.4252043983
  0
LINE
  5
2EA
100
AcDbEntity
  8
0
100
AcDbLine
 62
7
  6
CONTINUOUS
 10
245.9392453109
 20
305.8277850023
 11
245.9392453109
 21
311.327497456
  0
LINE
  5
2EB
100
AcDbEntity
  8
0
100
AcDbLine
 62
7
  6
CONTINUOUS
 10
245.9392453109
 20
314.3277850023
 11
245.9392453109
 21
319.827497456
  0
LINE
  5
2EC
100
AcDbEntity
  8
KONSTRUKTIONSELEMENTE
100
AcDbLine
 62
7
  6
CONTINUOUS
 10
246.4392453109
 20
323.3802051135
 11
246.4392453109
 21
285.3802051135
  0
LINE
  5
2ED
100
AcDbEntity
  8
0
100
AcDbLine
 62
7
  6
CONTINUOUS
 10
246.7892453109
 20
347.5032793474
 11
246.7892453109
 21
329.0635161284
  0
LINE
  5
2EE
100
AcDbEntity
  8
KONSTRUKTIONSELEMENTE
100
AcDbLine
 62
7
  6
CONTINUOUS
 10
245.3868734643
 20
285.3802049992
 11
245.3861187427
 21
276.0834460872
  0
LINE
  5
2EF
100
AcDbEntity
  8
0
100
AcDbLine
 62
7
  6
CONTINUOUS
 10
243.6892453109
 20
381.9565430387
 11
243.6892453109
 21
381.8799533542
  0
LINE
  5
2F0
100
AcDbEntity
  8
KONSTRUKTIONSELEMENTE
100
AcDbLine
 62
7
  6
CONTINUOUS
 10
243.6893964964
 20
381.9902020662
 11
243.6891663888
 21
381.8985057992
  0
LINE
  5
2F1
100
AcDbEntity
  8
0
100
AcDbLine
 62
7
  6
CONTINUOUS
 10
243.6893797142
 20
381.9862059087
 11
243.6893951646
 21
381.9899060016
  0
LINE
  5
2F2
100
AcDbEntity
  8
KONSTRUKTIONSELEMENTE
100
AcDbLine
 62
7
  6
CONTINUOUS
 10
245.3861187427
 20
276.0834460872
 11
245.3771272058
 21
274.5065151277
  0
LINE
  5
2F3
100
AcDbEntity
  8
KONSTRUKTIONSELEMENTE
100
AcDbLine
 62
7
  6
CONTINUOUS
 10
245.3771272058
 20
274.5065151277
 11
245.3580286267
 21
272.9727123604
  0
LINE
  5
2F4
100
AcDbEntity
  8
KONSTRUKTIONSELEMENTE
100
AcDbLine
 62
7
  6
CONTINUOUS
 10
245.3580286267
 20
272.9727123604
 11
245.3295290926
 21
271.4896943033
  0
LINE
  5
2F5
100
AcDbEntity
  8
KONSTRUKTIONSELEMENTE
100
AcDbLine
 62
7
  6
CONTINUOUS
 10
245.3295290926
 20
271.4896943033
 11
245.2923629927
 21
270.0643640768
  0
LINE
  5
2F6
100
AcDbEntity
  8
KONSTRUKTIONSELEMENTE
100
AcDbLine
 62
7
  6
CONTINUOUS
 10
245.2923629927
 20
270.0643640768
 11
245.2472861383
 21
268.7027629316
  0
LINE
  5
2F7
100
AcDbEntity
  8
KONSTRUKTIONSELEMENTE
100
AcDbLine
 62
7
  6
CONTINUOUS
 10
245.2472861383
 20
268.7027629316
 11
245.1950749307
 21
267.4101194458
  0
LINE
  5
2F8
100
AcDbEntity
  8
KONSTRUKTIONSELEMENTE
100
AcDbLine
 62
7
  6
CONTINUOUS
 10
245.1950749307
 20
267.4101194458
 11
245.1365531337
 21
266.1914213882
  0
LWPOLYLINE
  5
2F9
100
AcDbEntity
  8
KONSTRUKTIONSELEMENTE
100
AcDbPolyline
 62
7
  6
CONTINUOUS
 90
22
 70
0
 10
245.1365531337
 20
266.1914213882
 10
245.0725944043
 20
265.0511710935
 10
245.0388532079
 20
264.5115594401
 10
245.0040866021
 20
263.992753568
 10
244.9684142039
 20
263.4951277576
 10
244.9319570898
 20
263.018995148
 10
244.8948486384
 20
262.5647414779
 10
244.8572245034
 20
262.1326775651
 10
244.8192410046
 20
261.7232399946
 10
244.7810572976
 20
261.3367643683
 10
244.7428691035
 20
260.9738066579
 10
244.7048754997
 20
260.6347730735
 10
244.6673379457
 20
260.3204193874
 10
244.6305205045
 20
260.0312644097
 10
244.5947998035
 20
259.76840838
 10
244.5605365916
 20
259.5324598986
 10
244.5283513711
 20
259.3253456178
 10
244.4988624984
 20
259.1483024924
 10
244.4729248778
 20
259.0032747186
 10
244.4514321174
 20
258.8915669883
 10
244.4356634476
 20
258.8155195366
 10
244.428276099
 20
258.7822622352
  0
LWPOLYLINE
  5
2FA
100
AcDbEntity
  8
0
100
AcDbPolyline
 62
7
  6
CONTINUOUS
 90
7
 70
0
 10
244.7037959864
 20
260.6256422276
 10
244.6669777857
 20
260.3174998297
 10
244.6301578189
 20
260.0285085698
 10
244.5944394615
 20
259.7658445893
 10
244.5601847212
 20
259.5301190662
 10
244.5280155744
 20
259.3232600642
 10
244.5041019307
 20
259.1797999459
  0
LINE
  5
2FB
100
AcDbEntity
  8
0
100
AcDbLine
 62
7
  6
CONTINUOUS
 10
246.4392453109
 20
298.1752052923
 11
245.6892453109
 21
298.1752052923
  0
LINE
  5
2FC
100
AcDbEntity
  8
0
100
AcDbLine
 62
7
  6
CONTINUOUS
 10
246.4392453109
 20
299.6752049347
 11
245.6892453109
 21
299.6752049347
  0
LINE
  5
2FD
100
AcDbEntity
  8
0
100
AcDbLine
 62
7
  6
CONTINUOUS
 10
246.4392453109
 20
299.8627052923
 11
245.6892453109
 21
299.8627052923
  0
LINE
  5
2FE
100
AcDbEntity
  8
0
100
AcDbLine
 62
7
  6
CONTINUOUS
 10
246.4392453109
 20
300.2377054711
 11
245.6892453109
 21
300.2377054711
  0
LINE
  5
2FF
100
AcDbEntity
  8
0
100
AcDbLine
 62
7
  6
CONTINUOUS
 10
246.4392453109
 20
300.9877047559
 11
245.6892453109
 21
300.9877047559
  0
LINE
  5
300
100
AcDbEntity
  8
0
100
AcDbLine
 62
7
  6
CONTINUOUS
 10
246.4392453109
 20
301.7377051135
 11
245.6892453109
 21
301.7377051135
  0
LINE
  5
301
100
AcDbEntity
  8
BEZUGSACHSEN
100
AcDbLine
 62
7
  6
CONTINUOUS
 10
198.4392453109
 20
302.0802051135
 11
239.4392453109
 21
302.0802051135
  0
LINE
  5
302
100
AcDbEntity
  8
0
100
AcDbLine
 62
7
  6
CONTINUOUS
 10
200.8472928953
 20
302.3802051135
 11
211.5631941121
 21
302.3802051135
  0
LINE
  5
303
100
AcDbEntity
  8
0
100
AcDbLine
 62
7
  6
CONTINUOUS
 10
217.9064939901
 20
302.3802051135
 11
223.433537981
 21
302.3802051135
  0
LINE
  5
304
100
AcDbEntity
  8
0
100
AcDbLine
 62
7
  6
CONTINUOUS
 10
223.6802438938
 20
302.3802051135
 11
233.8561970368
 21
302.3802051135
  0
LINE
  5
305
100
AcDbEntity
  8
0
100
AcDbLine
 62
7
  6
CONTINUOUS
 10
246.4392453109
 20
302.6752047559
 11
245.6892453109
 21
302.6752047559
  0
LINE
  5
306
100
AcDbEntity
  8
0
100
AcDbLine
 62
7
  6
CONTINUOUS
 10
246.4392453109
 20
303.4252051135
 11
245.6892453109
 21
303.4252051135
  0
LINE
  5
307
100
AcDbEntity
  8
0
100
AcDbLine
 62
7
  6
CONTINUOUS
 10
246.4392453109
 20
304.3627047559
 11
245.6892453109
 21
304.3627047559
  0
LINE
  5
308
100
AcDbEntity
  8
0
100
AcDbLine
 62
7
  6
CONTINUOUS
 10
246.4392453109
 20
305.1127051135
 11
245.6892453109
 21
305.1127051135
  0
LINE
  5
309
100
AcDbEntity
  8
BEZUGSACHSEN
100
AcDbLine
 62
7
  6
CONTINUOUS
 10
242.6106063476
 20
300.2492189652
 11
239.4392453109
 21
302.0802051135
  0
LINE
  5
30A
100
AcDbEntity
  8
0
100
AcDbLine
 62
7
  6
CONTINUOUS
 10
246.7892453109
 20
347.5032793474
 11
245.4392453109
 21
373.2628138759
  0
LINE
  5
30B
100
AcDbEntity
  8
0
100
AcDbLine
 62
7
  6
CONTINUOUS
 10
248.9392453109
 20
229.1302051135
 11
248.9392453109
 21
223.8802051135
  0
LINE
  5
30C
100
AcDbEntity
  8
0
100
AcDbLine
 62
7
  6
CONTINUOUS
 10
246.4392453109
 20
305.827497456
 11
245.9392453109
 21
305.827497456
  0
LINE
  5
30D
100
AcDbEntity
  8
0
100
AcDbLine
 62
7
  6
CONTINUOUS
 10
245.9392453109
 20
305.8627054711
 11
245.6892453109
 21
305.8627054711
  0
LINE
  5
30E
100
AcDbEntity
  8
0
100
AcDbLine
 62
7
  6
CONTINUOUS
 10
245.9392453109
 20
306.2377051135
 11
245.6892453109
 21
306.2377051135
  0
LINE
  5
30F
100
AcDbEntity
  8
0
100
AcDbLine
 62
7
  6
CONTINUOUS
 10
245.9392453109
 20
306.4252054711
 11
245.6892453109
 21
306.4252054711
  0
LINE
  5
310
100
AcDbEntity
  8
0
100
AcDbLine
 62
7
  6
CONTINUOUS
 10
245.9392453109
 20
307.9252051135
 11
245.6892453109
 21
307.9252051135
  0
LINE
  5
311
100
AcDbEntity
  8
0
100
AcDbLine
 62
7
  6
CONTINUOUS
 10
246.4392453109
 20
311.327497456
 11
245.9392453109
 21
311.327497456
  0
LINE
  5
312
100
AcDbEntity
  8
0
100
AcDbLine
 62
7
  6
CONTINUOUS
 10
246.4392453109
 20
312.4252051135
 11
245.6892453109
 21
312.4252051135
  0
LINE
  5
313
100
AcDbEntity
  8
0
100
AcDbLine
 62
7
  6
CONTINUOUS
 10
264.7962319193
 20
265.2129788769
 11
264.7302909688
 21
266.418683917
  0
LINE
  5
314
100
AcDbEntity
  8
0
100
AcDbLine
 62
7
  6
CONTINUOUS
 10
264.7302909688
 20
266.418683917
 11
264.670468719
 21
267.7092811001
  0
LINE
  5
315
100
AcDbEntity
  8
0
100
AcDbLine
 62
7
  6
CONTINUOUS
 10
264.670468719
 20
267.7092811001
 11
264.6177687904
 21
269.0790358438
  0
LINE
  5
316
100
AcDbEntity
  8
0
100
AcDbLine
 62
7
  6
CONTINUOUS
 10
264.6177687904
 20
269.0790358438
 11
264.5731074547
 21
270.5222159148
  0
LINE
  5
317
100
AcDbEntity
  8
0
100
AcDbLine
 62
7
  6
CONTINUOUS
 10
263.0892453109
 20
347.5032793474
 11
263.0892453109
 21
329.0635161284
  0
LINE
  5
318
100
AcDbEntity
  8
0
100
AcDbLine
 62
7
  6
CONTINUOUS
 10
263.4392453109
 20
323.3802051135
 11
263.4392453109
 21
285.3802051135
  0
LINE
  5
319
100
AcDbEntity
  8
0
100
AcDbLine
 62
7
  6
CONTINUOUS
 10
263.0892453109
 20
347.5032793474
 11
264.4392453109
 21
373.2628138759
  0
LINE
  5
31A
100
AcDbEntity
  8
0
100
AcDbLine
 62
7
  6
CONTINUOUS
 10
264.4502090328
 20
348.4028245696
 11
266.1738275769
 21
381.2914256058
  0
LINE
  5
31B
100
AcDbEntity
  8
0
100
AcDbLine
 62
7
  6
CONTINUOUS
 10
246.4392453109
 20
313.3627058288
 11
245.6892453109
 21
313.3627058288
  0
LINE
  5
31C
100
AcDbEntity
  8
0
100
AcDbLine
 62
7
  6
CONTINUOUS
 10
246.4392453109
 20
314.1127051135
 11
245.6892453109
 21
314.1127051135
  0
LINE
  5
31D
100
AcDbEntity
  8
0
100
AcDbLine
 62
7
  6
CONTINUOUS
 10
246.4392453109
 20
314.327497456
 11
245.9392453109
 21
314.327497456
  0
LINE
  5
31E
100
AcDbEntity
  8
0
100
AcDbLine
 62
7
  6
CONTINUOUS
 10
245.9392453109
 20
314.8627043983
 11
245.6892453109
 21
314.8627043983
  0
LINE
  5
31F
100
AcDbEntity
  8
0
100
AcDbLine
 62
7
  6
CONTINUOUS
 10
245.9392453109
 20
315.2377051135
 11
245.6892453109
 21
315.2377051135
  0
LINE
  5
320
100
AcDbEntity
  8
0
100
AcDbLine
 62
7
  6
CONTINUOUS
 10
245.9392453109
 20
315.4252043983
 11
245.6892453109
 21
315.4252043983
  0
LINE
  5
321
100
AcDbEntity
  8
0
100
AcDbLine
 62
7
  6
CONTINUOUS
 10
246.4392453109
 20
319.827497456
 11
245.9392453109
 21
319.827497456
  0
LWPOLYLINE
  5
322
100
AcDbEntity
  8
0
100
AcDbPolyline
 62
7
  6
CONTINUOUS
 90
6
 70
0
 10
265.4487085937
 20
258.7873084332
 10
265.4525622178
 20
258.7722391137
 10
265.4483282309
 20
258.7905558831
 10
265.4353330038
 20
258.8509379991
 10
265.4155525095
 20
258.9503372323
 10
265.390338686
 20
259.0871497123
  0
LINE
  5
323
100
AcDbEntity
  8
0
100
AcDbLine
 62
7
  6
CONTINUOUS
 10
265.390338686
 20
259.0871497123
 11
265.3587769401
 21
259.2722017779
  0
LINE
  5
324
100
AcDbEntity
  8
0
100
AcDbLine
 62
7
  6
CONTINUOUS
 10
265.3609716008
 20
259.2588666422
 11
265.3259956522
 21
259.4793826155
  0
LINE
  5
325
100
AcDbEntity
  8
0
100
AcDbLine
 62
7
  6
CONTINUOUS
 10
265.3283348306
 20
259.4641085299
 11
265.2908619517
 21
259.7177156689
  0
LINE
  5
326
100
AcDbEntity
  8
0
100
AcDbLine
 62
7
  6
CONTINUOUS
 10
265.29328564
 20
259.7007392792
 11
265.2539421815
 21
259.9861142042
  0
LINE
  5
327
100
AcDbEntity
  8
0
100
AcDbLine
 62
7
  6
CONTINUOUS
 10
265.2564019568
 20
259.9676587539
 11
265.2158115614
 21
260.2827930259
  0
LINE
  5
328
100
AcDbEntity
  8
0
100
AcDbLine
 62
7
  6
CONTINUOUS
 10
265.2182691837
 20
260.263066554
 11
265.1768151093
 21
260.6071888637
  0
LWPOLYLINE
  5
329
100
AcDbEntity
  8
0
100
AcDbPolyline
 62
7
  6
CONTINUOUS
 90
11
 70
0
 10
265.179239104
 20
260.5863924426
 10
265.1396726635
 20
260.9366282035
 10
265.0998353717
 20
261.3132549636
 10
265.0599877768
 20
261.7155357498
 10
265.0203329675
 20
262.1430658471
 10
264.981070469
 20
262.5952909692
 10
264.9423674456
 20
263.0718519757
 10
264.9043880665
 20
263.5722863944
 10
264.8672783299
 20
264.09623575
 10
264.8311819642
 20
264.643261333
 10
264.7962319193
 20
265.2129788769
  0
LWPOLYLINE
  5
32A
100
AcDbEntity
  8
0
100
AcDbPolyline
 62
7
  6
CONTINUOUS
 90
3
 70
0
 10
266.1892392226
 20
381.9568206961
 10
266.1641587694
 20
382.7041586735
 10
266.0688694195
 20
383.5906141406
  0
LINE
  5
32B
100
AcDbEntity
  8
0
100
AcDbLine
 62
7
  6
CONTINUOUS
 10
264.5731074547
 20
270.5222159148
 11
264.5373604162
 21
272.0323579763
  0
LINE
  5
32C
100
AcDbEntity
  8
0
100
AcDbLine
 62
7
  6
CONTINUOUS
 10
264.5373604162
 20
272.0323579763
 11
264.5113721207
 21
273.6020433542
  0
LINE
  5
32D
100
AcDbEntity
  8
0
100
AcDbLine
 62
7
  6
CONTINUOUS
 10
264.5113721207
 20
273.6020433542
 11
264.4959557648
 21
275.2227866002
  0
LINE
  5
32E
100
AcDbEntity
  8
0
100
AcDbLine
 62
7
  6
CONTINUOUS
 10
266.1893242329
 20
381.8985053657
 11
266.1890973013
 21
381.9895684485
  0
LINE
  5
32F
100
AcDbEntity
  8
0
100
AcDbLine
 62
7
  6
CONTINUOUS
 10
264.4959557648
 20
275.2227866002
 11
264.4917356772
 21
276.6289524758
  0
LINE
  5
330
100
AcDbEntity
  8
0
100
AcDbLine
 62
7
  6
CONTINUOUS
 10
264.4392453109
 20
347.9841369198
 11
264.4392453109
 21
342.6341397115
  0
LINE
  5
331
100
AcDbEntity
  8
0
100
AcDbLine
 62
7
  6
CONTINUOUS
 10
264.4392453109
 20
323.3802051135
 11
264.4392453109
 21
335.7290657766
  0
LINE
  5
332
100
AcDbEntity
  8
0
100
AcDbLine
 62
7
  6
CONTINUOUS
 10
264.4392453109
 20
373.2628138759
 11
264.4392453109
 21
387.9551558711
  0
LINE
  5
333
100
AcDbEntity
  8
0
100
AcDbLine
 62
7
  6
CONTINUOUS
 10
264.4916171575
 20
285.3802049992
 11
264.4915717393
 21
276.6290221795
  0
LINE
  5
334
100
AcDbEntity
  8
0
100
AcDbLine
 62
7
  6
CONTINUOUS
 10
266.1892453109
 20
381.956543043
 11
266.1892453109
 21
381.9537347398
  0
LINE
  5
335
100
AcDbEntity
  8
0
100
AcDbLine
 62
7
  6
CONTINUOUS
 10
266.1892453109
 20
381.8987188988
 11
266.1892453109
 21
381.8799533542
  0
LINE
  5
336
100
AcDbEntity
  8
0
100
AcDbLine
 62
7
  6
CONTINUOUS
 10
266.1892453109
 20
255.1515310465
 11
266.1892453109
 21
254.1302051135
  0
LINE
  5
337
100
AcDbEntity
  8
KONSTRUKTIONSELEMENTE
100
AcDbLine
 62
7
  6
CONTINUOUS
 10
246.4392453109
 20
323.3802051135
 11
245.4392453109
 21
323.3802051135
  0
LINE
  5
338
100
AcDbEntity
  8
0
100
AcDbLine
 62
7
  6
CONTINUOUS
 10
263.4392453109
 20
323.3802051135
 11
264.4392453109
 21
323.3802051135
  0
LINE
  5
339
100
AcDbEntity
  8
0
100
AcDbLine
 62
7
  6
CONTINUOUS
 10
264.2617985375
 20
337.9496612883
 11
263.0892453109
 21
337.9496612883
  0
LINE
  5
33A
100
AcDbEntity
  8
0
100
AcDbLine
 62
7
  6
CONTINUOUS
 10
245.6166920842
 20
337.9496612883
 11
246.7892453109
 21
337.9496612883
  0
LINE
  5
33B
100
AcDbEntity
  8
0
100
AcDbLine
 62
7
  6
CONTINUOUS
 10
266.0686333471
 20
383.59220691
 11
265.9025268244
 21
384.4687686361
  0
LINE
  5
33C
100
AcDbEntity
  8
0
100
AcDbLine
 62
7
  6
CONTINUOUS
 10
265.9023020606
 20
384.4699547384
 11
265.666581286
 21
385.3303714458
  0
LINE
  5
33D
100
AcDbEntity
  8
0
100
AcDbLine
 62
7
  6
CONTINUOUS
 10
246.5070991865
 20
352.8869481122
 11
245.8552232271
 21
352.8869481122
  0
LINE
  5
33E
100
AcDbEntity
  8
0
100
AcDbLine
 62
7
  6
CONTINUOUS
 10
263.3713914352
 20
352.8869481122
 11
264.0232673947
 21
352.8869481122
  0
LINE
  5
33F
100
AcDbEntity
  8
0
100
AcDbLine
 62
7
  6
CONTINUOUS
 10
265.6661563709
 20
385.3319224506
 11
265.3625628803
 21
386.1701152058
  0
LINE
  5
340
100
AcDbEntity
  8
BEZUGSACHSEN
100
AcDbLine
 62
7
  6
CONTINUOUS
 10
232.4392453109
 20
187.8802051135
 11
229.4392453109
 21
184.8802051135
  0
LINE
  5
341
100
AcDbEntity
  8
0
100
AcDbLine
 62
7
  6
CONTINUOUS
 10
265.3634137181
 20
386.1682363625
 11
265.0130896751
 21
386.9418314729
  0
LINE
  5
342
100
AcDbEntity
  8
0
100
AcDbLine
 62
7
  6
CONTINUOUS
 10
264.4392453109
 20
387.9548153942
 11
264.061243977
 21
388.5101610776
  0
LINE
  5
343
100
AcDbEntity
  8
0
100
AcDbLine
 62
7
  6
CONTINUOUS
 10
245.4392453109
 20
376.255593316
 11
244.8757764776
 21
376.255593316
  0
LINE
  5
344
100
AcDbEntity
  8
0
100
AcDbLine
 62
7
  6
CONTINUOUS
 10
264.4392453109
 20
376.255593316
 11
265.0027141442
 21
376.255593316
  0
LINE
  5
345
100
AcDbEntity
  8
0
100
AcDbLine
 62
7
  6
CONTINUOUS
 10
263.512144292
 20
389.2069625258
 11
262.8990063582
 21
389.8684969707
  0
LINE
  5
346
100
AcDbEntity
  8
0
100
AcDbLine
 62
7
  6
CONTINUOUS
 10
264.0650191889
 20
388.5049549784
 11
263.5074415635
 21
389.2124624467
  0
LINE
  5
347
100
AcDbEntity
  8
0
100
AcDbLine
 62
7
  6
CONTINUOUS
 10
245.4392453109
 20
387.3802051135
 11
245.1039940443
 21
387.3802051135
  0
LINE
  5
348
100
AcDbEntity
  8
0
100
AcDbLine
 62
7
  6
CONTINUOUS
 10
264.4392453109
 20
387.3802051135
 11
264.7744965774
 21
387.3802051135
  0
LINE
  5
349
100
AcDbEntity
  8
0
100
AcDbLine
 62
7
  6
CONTINUOUS
 10
262.2465117916
 20
390.4683250672
 11
261.5338722462
 21
391.0252013552
  0
LINE
  5
34A
100
AcDbEntity
  8
0
100
AcDbLine
 62
7
  6
CONTINUOUS
 10
262.9047050476
 20
389.862821449
 11
262.2397618295
 21
390.4740491781
  0
LWPOLYLINE
  5
34B
100
AcDbEntity
  8
0
100
AcDbPolyline
 62
7
  6
CONTINUOUS
 90
14
 70
0
 10
254.8891511037
 20
393.1302050723
 10
254.1704668903
 20
393.1072152626
 10
253.2774941667
 20
393.0140805835
 10
252.3951717459
 20
392.8500017204
 10
251.5291695571
 20
392.6160769829
 10
250.6850295532
 20
392.3138596299
 10
249.8681428983
 20
391.9453458539
 10
249.0837419604
 20
391.5129753837
 10
248.3367760019
 20
391.0195631584
 10
247.6319788646
 20
390.4683250964
 10
246.9737856075
 20
389.8628214822
 10
246.3663463654
 20
389.2069625675
 10
245.8134714738
 20
388.504955035
 10
245.4392453109
 20
387.9548153942
  0
LWPOLYLINE
  5
34C
100
AcDbEntity
  8
KONSTRUKTIONSELEMENTE
100
AcDbPolyline
 62
7
  6
CONTINUOUS
 90
14
 70
0
 10
254.8891512664
 20
393.1302050722
 10
254.1857888435
 20
393.108186128
 10
253.2918812005
 20
393.016155643
 10
252.408551417
 20
392.8530391139
 10
251.5414861769
 20
392.6199307003
 10
250.6962442768
 20
392.3183813193
 10
249.8782336682
 20
391.9503865906
 10
249.092703428
 20
391.5183874573
 10
248.3446188154
 20
391.0252016711
 10
247.6387292694
 20
390.4740495824
 10
246.9794847604
 20
389.8684974651
 10
246.371049555
 20
389.2124630273
 10
245.8172471217
 20
388.5101617349
 10
245.4392453109
 20
387.9548153942
  0
LINE
  5
34D
100
AcDbEntity
  8
KONSTRUKTIONSELEMENTE
100
AcDbLine
 62
7
  6
CONTINUOUS
 10
254.9896406843
 20
393.1302051135
 11
254.8888499375
 21
393.1302051135
  0
LINE
  5
34E
100
AcDbEntity
  8
0
100
AcDbLine
 62
7
  6
CONTINUOUS
 10
255.7080237586
 20
393.1072152609
 11
254.989339518
 21
393.1302050723
  0
LINE
  5
34F
100
AcDbEntity
  8
0
100
AcDbLine
 62
7
  6
CONTINUOUS
 10
256.6009965009
 20
393.0140805769
 11
255.6927018016
 21
393.1081861266
  0
LINE
  5
350
100
AcDbEntity
  8
0
100
AcDbLine
 62
7
  6
CONTINUOUS
 10
257.4833189311
 20
392.8500017079
 11
256.5866094841
 21
393.016155634
  0
LINE
  5
351
100
AcDbEntity
  8
0
100
AcDbLine
 62
7
  6
CONTINUOUS
 10
258.3493211224
 20
392.6160769647
 11
257.4699393239
 21
392.8530390869
  0
LINE
  5
352
100
AcDbEntity
  8
0
100
AcDbLine
 62
7
  6
CONTINUOUS
 10
259.1934611241
 20
392.3138596074
 11
258.3370046301
 21
392.6199306425
  0
LINE
  5
353
100
AcDbEntity
  8
0
100
AcDbLine
 62
7
  6
CONTINUOUS
 10
260.0103477738
 20
391.9453458288
 11
259.1822466005
 21
392.3183812164
  0
LINE
  5
354
100
AcDbEntity
  8
0
100
AcDbLine
 62
7
  6
CONTINUOUS
 10
260.7947487054
 20
391.5129753571
 11
260.0002572784
 21
391.9503864285
  0
LINE
  5
355
100
AcDbEntity
  8
0
100
AcDbLine
 62
7
  6
CONTINUOUS
 10
261.5417146582
 20
391.0195631308
 11
260.7857875815
 21
391.5183872234
  0
LINE
  5
356
100
AcDbEntity
  8
BEZUGSACHSEN
100
AcDbLine
 62
7
  6
CONTINUOUS
 10
350.1767659343
 20
184.8802051135
 11
371.1758223571
 21
184.8802051135
  0
LINE
  5
357
100
AcDbEntity
  8
BEZUGSACHSEN
100
AcDbLine
 62
7
  6
CONTINUOUS
 10
347.1762941457
 20
187.8802051135
 11
374.1762941457
 21
187.8802051135
  0
LINE
  5
358
100
AcDbEntity
  8
0
100
AcDbLine
 62
7
  6
CONTINUOUS
 10
360.6762941457
 20
387.3802051135
 11
326.4382595591
 21
376.255593316
  0
LINE
  5
359
100
AcDbEntity
  8
BEZUGSACHSEN
100
AcDbLine
 62
7
  6
CONTINUOUS
 10
350.1762941457
 20
184.8802051135
 11
347.1762941457
 21
187.8802051135
  0
LINE
  5
35A
100
AcDbEntity
  8
0
100
AcDbLine
 62
7
  6
CONTINUOUS
 10
315.0406097426
 20
352.8869481122
 11
326.4382595591
 21
376.255593316
  0
LINE
  5
35B
100
AcDbEntity
  8
0
100
AcDbLine
 62
7
  6
CONTINUOUS
 10
313.5786384682
 20
329.0635161284
 11
320.7744969353
 21
337.9496612883
  0
LINE
  5
35C
100
AcDbEntity
  8
0
100
AcDbLine
 62
7
  6
CONTINUOUS
 10
330.6762941457
 20
223.8802051135
 11
390.6762941457
 21
223.8802051135
  0
LINE
  5
35D
100
AcDbEntity
  8
0
100
AcDbLine
 62
7
  6
CONTINUOUS
 10
309.1762941457
 20
356.354788105
 11
309.1762941457
 21
265.1302051135
  0
LINE
  5
35E
100
AcDbEntity
  8
0
100
AcDbLine
 62
7
  6
CONTINUOUS
 10
314.8207621624
 20
314.1127051135
 11
314.4377834846
 21
313.3627058288
  0
LINE
  5
35F
100
AcDbEntity
  8
0
100
AcDbLine
 62
7
  6
CONTINUOUS
 10
330.6762941457
 20
229.1302051135
 11
390.6762941457
 21
229.1302051135
  0
LINE
  5
360
100
AcDbEntity
  8
RUNDUNGEN
100
AcDbLine
 62
7
  6
CONTINUOUS
 10
387.6762941457
 20
229.3802051135
 11
333.6762941457
 21
229.3802051135
  0
LINE
  5
361
100
AcDbEntity
  8
0
100
AcDbLine
 62
7
  6
CONTINUOUS
 10
313.5786384682
 20
347.5032793474
 11
313.5786384682
 21
329.0635161284
  0
LINE
  5
362
100
AcDbEntity
  8
0
100
AcDbLine
 62
7
  6
CONTINUOUS
 10
314.2462941457
 20
312.4252051135
 11
314.2462941457
 21
307.9252051135
  0
LINE
  5
363
100
AcDbEntity
  8
0
100
AcDbLine
 62
7
  6
CONTINUOUS
 10
314.2462941457
 20
306.4252054711
 11
314.2462941457
 21
305.3002054711
  0
LINE
  5
364
100
AcDbEntity
  8
0
100
AcDbLine
 62
7
  6
CONTINUOUS
 10
314.2462941457
 20
300.8002054711
 11
314.2462941457
 21
299.6752049347
  0
LINE
  5
365
100
AcDbEntity
  8
0
100
AcDbLine
 62
7
  6
CONTINUOUS
 10
314.2462941457
 20
295.5502051135
 11
314.2462941457
 21
291.0502051135
  0
LINE
  5
366
100
AcDbEntity
  8
0
100
AcDbLine
 62
7
  6
CONTINUOUS
 10
315.2037408401
 20
292.1752051135
 11
315.2037408401
 21
295.7377049347
  0
LINE
  5
367
100
AcDbEntity
  8
0
100
AcDbLine
 62
7
  6
CONTINUOUS
 10
315.395230179
 20
309.0502051135
 11
315.395230179
 21
312.4252051135
  0
LINE
  5
368
100
AcDbEntity
  8
0
100
AcDbLine
 62
7
  6
CONTINUOUS
 10
314.4377834846
 20
313.3627058288
 11
314.2462941457
 21
312.4252051135
  0
LINE
  5
369
100
AcDbEntity
  8
0
100
AcDbLine
 62
7
  6
CONTINUOUS
 10
314.4377834846
 20
296.4877052923
 11
314.2462941457
 21
295.5502051135
  0
LINE
  5
36A
100
AcDbEntity
  8
0
100
AcDbLine
 62
7
  6
CONTINUOUS
 10
315.395230179
 20
312.4252051135
 11
315.5867195179
 21
313.1752043983
  0
LINE
  5
36B
100
AcDbEntity
  8
0
100
AcDbLine
 62
7
  6
CONTINUOUS
 10
315.2037408401
 20
295.7377049347
 11
315.395230179
 21
296.3002049347
  0
LINE
  5
36C
100
AcDbEntity
  8
0
100
AcDbLine
 62
7
  6
CONTINUOUS
 10
315.5867195179
 20
313.1752043983
 11
315.9696981956
 21
313.7377043983
  0
LINE
  5
36D
100
AcDbEntity
  8
0
100
AcDbLine
 62
7
  6
CONTINUOUS
 10
315.5867195179
 20
314.8627043983
 11
314.8207621624
 21
314.1127051135
  0
LINE
  5
36E
100
AcDbEntity
  8
0
100
AcDbLine
 62
7
  6
CONTINUOUS
 10
315.9696981956
 20
313.7377043983
 11
316.5441667487
 21
314.1127051135
  0
LINE
  5
36F
100
AcDbEntity
  8
0
100
AcDbLine
 62
7
  6
CONTINUOUS
 10
357.5962941457
 20
236.8002051135
 11
358.6587941457
 21
236.8002051135
  0
LINE
  5
370
100
AcDbEntity
  8
0
100
AcDbLine
 62
7
  6
CONTINUOUS
 10
353.3462941457
 20
239.3321199586
 11
357.5962941457
 21
239.3321199586
  0
LINE
  5
371
100
AcDbEntity
  8
0
100
AcDbLine
 62
7
  6
CONTINUOUS
 10
358.6587941457
 20
239.3321199586
 11
360.4296273102
 21
239.3321199586
  0
LINE
  5
372
100
AcDbEntity
  8
0
100
AcDbLine
 62
7
  6
CONTINUOUS
 10
354.5858774368
 20
240.4172264656
 11
357.5962941457
 21
240.4172264656
  0
LINE
  5
373
100
AcDbEntity
  8
0
100
AcDbLine
 62
7
  6
CONTINUOUS
 10
358.6587941457
 20
240.4172264656
 11
360.4296273102
 21
240.4172264656
  0
LINE
  5
374
100
AcDbEntity
  8
0
100
AcDbLine
 62
7
  6
CONTINUOUS
 10
361.8462941457
 20
241.8640348037
 11
363.2629604746
 21
241.8640348037
  0
LINE
  5
375
100
AcDbEntity
  8
0
100
AcDbLine
 62
7
  6
CONTINUOUS
 10
364.1483778168
 20
241.8640348037
 11
366.0962941457
 21
241.8640348037
  0
LINE
  5
376
100
AcDbEntity
  8
0
100
AcDbLine
 62
7
  6
CONTINUOUS
 10
361.8462941457
 20
242.5874389728
 11
363.2629604746
 21
242.5874389728
  0
LINE
  5
377
100
AcDbEntity
  8
0
100
AcDbLine
 62
7
  6
CONTINUOUS
 10
364.1483778168
 20
242.5874389728
 11
366.0962941457
 21
242.5874389728
  0
LINE
  5
378
100
AcDbEntity
  8
0
100
AcDbLine
 62
7
  6
CONTINUOUS
 10
364.6796278168
 20
236.9810561716
 11
365.7421278168
 21
236.8002051135
  0
LINE
  5
379
100
AcDbEntity
  8
0
100
AcDbLine
 62
7
  6
CONTINUOUS
 10
364.8567104746
 20
237.7044604515
 11
365.7421278168
 21
237.5236093459
  0
LINE
  5
37A
100
AcDbEntity
  8
0
100
AcDbLine
 62
7
  6
CONTINUOUS
 10
364.1483778168
 20
237.1619072297
 11
364.6796278168
 21
236.9810561716
  0
LINE
  5
37B
100
AcDbEntity
  8
0
100
AcDbLine
 62
7
  6
CONTINUOUS
 10
318.0760814597
 20
295.7377049347
 11
318.0760814597
 21
292.1752051135
  0
LINE
  5
37C
100
AcDbEntity
  8
0
100
AcDbLine
 62
7
  6
CONTINUOUS
 10
319.2250174929
 20
292.1752051135
 11
319.2250174929
 21
295.3627050241
  0
LINE
  5
37D
100
AcDbEntity
  8
0
100
AcDbLine
 62
7
  6
CONTINUOUS
 10
322.0973579784
 20
312.4252051135
 11
322.0973579784
 21
309.0502051135
  0
LINE
  5
37E
100
AcDbEntity
  8
0
100
AcDbLine
 62
7
  6
CONTINUOUS
 10
322.0973579784
 20
303.4252051135
 11
322.0973579784
 21
302.6752047559
  0
LINE
  5
37F
100
AcDbEntity
  8
0
100
AcDbLine
 62
7
  6
CONTINUOUS
 10
323.2462941457
 20
291.0502051135
 11
323.2462941457
 21
292.1752051135
  0
LINE
  5
380
100
AcDbEntity
  8
0
100
AcDbLine
 62
7
  6
CONTINUOUS
 10
323.2462941457
 20
296.8627049347
 11
323.2462941457
 21
298.1752052923
  0
LINE
  5
381
100
AcDbEntity
  8
0
100
AcDbLine
 62
7
  6
CONTINUOUS
 10
323.2462941457
 20
302.6752047559
 11
323.2462941457
 21
303.4252051135
  0
LINE
  5
382
100
AcDbEntity
  8
0
100
AcDbLine
 62
7
  6
CONTINUOUS
 10
323.2462941457
 20
307.9252051135
 11
323.2462941457
 21
312.4252051135
  0
LINE
  5
383
100
AcDbEntity
  8
0
100
AcDbLine
 62
7
  6
CONTINUOUS
 10
323.0548047901
 20
301.7377051135
 11
323.2462941457
 21
302.6752047559
  0
LINE
  5
384
100
AcDbEntity
  8
0
100
AcDbLine
 62
7
  6
CONTINUOUS
 10
322.0973579784
 20
302.6752047559
 11
321.9058686395
 21
301.9252054711
  0
LINE
  5
385
100
AcDbEntity
  8
0
100
AcDbLine
 62
7
  6
CONTINUOUS
 10
322.6718260621
 20
300.9877047559
 11
323.0548047901
 21
301.7377051135
  0
LINE
  5
386
100
AcDbEntity
  8
0
100
AcDbLine
 62
7
  6
CONTINUOUS
 10
321.9058686395
 20
301.9252054711
 11
321.5228898276
 21
301.3627054711
  0
LINE
  5
387
100
AcDbEntity
  8
0
100
AcDbLine
 62
7
  6
CONTINUOUS
 10
315.0122515012
 20
297.2377051135
 11
314.4377834846
 21
296.4877052923
  0
LINE
  5
388
100
AcDbEntity
  8
0
100
AcDbLine
 62
7
  6
CONTINUOUS
 10
315.395230179
 20
296.3002049347
 11
315.7782088567
 21
296.6752051135
  0
LINE
  5
389
100
AcDbEntity
  8
0
100
AcDbLine
 62
7
  6
CONTINUOUS
 10
316.3526768734
 20
315.2377051135
 11
315.5867195179
 21
314.8627043983
  0
LINE
  5
38A
100
AcDbEntity
  8
0
100
AcDbLine
 62
7
  6
CONTINUOUS
 10
373.6937941457
 20
251.5253114938
 11
374.4021268035
 21
251.7061625361
  0
LINE
  5
38B
100
AcDbEntity
  8
0
100
AcDbLine
 62
7
  6
CONTINUOUS
 10
373.6937941457
 20
250.4402051135
 11
374.5792114879
 21
250.6210561716
  0
LINE
  5
38C
100
AcDbEntity
  8
0
100
AcDbLine
 62
7
  6
CONTINUOUS
 10
365.5479614879
 20
250.4402051135
 11
366.4333768035
 21
250.6210561716
  0
LINE
  5
38D
100
AcDbEntity
  8
0
100
AcDbLine
 62
7
  6
CONTINUOUS
 10
363.2629604746
 20
244.0342478176
 11
364.1483778168
 21
244.0342478176
  0
LINE
  5
38E
100
AcDbEntity
  8
0
100
AcDbLine
 62
7
  6
CONTINUOUS
 10
357.5962941457
 20
245.3002051135
 11
358.6587941457
 21
245.3002051135
  0
LINE
  5
38F
100
AcDbEntity
  8
0
100
AcDbLine
 62
7
  6
CONTINUOUS
 10
347.8396275635
 20
250.4402051135
 11
349.2562941457
 21
250.4402051135
  0
LINE
  5
390
100
AcDbEntity
  8
0
100
AcDbLine
 62
7
  6
CONTINUOUS
 10
353.5062941457
 20
250.4402051135
 11
359.8812941457
 21
250.4402051135
  0
LINE
  5
391
100
AcDbEntity
  8
0
100
AcDbLine
 62
7
  6
CONTINUOUS
 10
361.2979604746
 20
250.4402051135
 11
365.5479614879
 21
250.4402051135
  0
LINE
  5
392
100
AcDbEntity
  8
0
100
AcDbLine
 62
7
  6
CONTINUOUS
 10
372.1000441457
 20
250.4402051135
 11
373.6937941457
 21
250.4402051135
  0
LINE
  5
393
100
AcDbEntity
  8
0
100
AcDbLine
 62
7
  6
CONTINUOUS
 10
363.6171278168
 20
237.5236093459
 11
364.1483778168
 21
237.1619072297
  0
LINE
  5
394
100
AcDbEntity
  8
0
100
AcDbLine
 62
7
  6
CONTINUOUS
 10
364.3254604746
 20
238.0661625361
 11
364.8567104746
 21
237.7044604515
  0
LINE
  5
395
100
AcDbEntity
  8
0
100
AcDbLine
 62
7
  6
CONTINUOUS
 10
317.8845921208
 20
296.3002049347
 11
318.0760814597
 21
295.7377049347
  0
LINE
  5
396
100
AcDbEntity
  8
0
100
AcDbLine
 62
7
  6
CONTINUOUS
 10
328.1762941457
 20
276.6302051135
 11
328.1762941457
 21
351.9693394956
  0
LINE
  5
397
100
AcDbEntity
  8
0
100
AcDbLine
 62
7
  6
CONTINUOUS
 10
330.6762941457
 20
284.8802051135
 11
330.6762941457
 21
279.6302051135
  0
LINE
  5
398
100
AcDbEntity
  8
0
100
AcDbLine
 62
7
  6
CONTINUOUS
 10
330.6762941457
 20
229.1302051135
 11
330.6762941457
 21
223.8802051135
  0
LINE
  5
399
100
AcDbEntity
  8
RUNDUNGEN
100
AcDbLine
 62
7
  6
CONTINUOUS
 10
330.6762941457
 20
232.3802051135
 11
330.6762941457
 21
276.3802051135
  0
LINE
  5
39A
100
AcDbEntity
  8
0
100
AcDbLine
 62
7
  6
CONTINUOUS
 10
330.6762941457
 20
232.3802051135
 11
330.6762941457
 21
276.3802051135
  0
LINE
  5
39B
100
AcDbEntity
  8
0
100
AcDbLine
 62
7
  6
CONTINUOUS
 10
321.9058686395
 20
300.2377054711
 11
322.6718260621
 21
300.9877047559
  0
LINE
  5
39C
100
AcDbEntity
  8
0
100
AcDbLine
 62
7
  6
CONTINUOUS
 10
315.7782088567
 20
297.8002051135
 11
315.0122515012
 21
297.2377051135
  0
LINE
  5
39D
100
AcDbEntity
  8
0
100
AcDbLine
 62
7
  6
CONTINUOUS
 10
321.5228898276
 20
301.3627054711
 11
320.948421811
 21
300.9877047559
  0
LINE
  5
39E
100
AcDbEntity
  8
0
100
AcDbLine
 62
7
  6
CONTINUOUS
 10
371.3917114879
 20
257.6742478176
 11
372.1000441457
 21
257.8550988599
  0
LINE
  5
39F
100
AcDbEntity
  8
0
100
AcDbLine
 62
7
  6
CONTINUOUS
 10
371.2146268035
 20
258.7593540712
 11
372.1000441457
 21
258.9402051135
  0
LINE
  5
3A0
100
AcDbEntity
  8
0
100
AcDbLine
 62
7
  6
CONTINUOUS
 10
354.5687941457
 20
251.5253114938
 11
359.8812941457
 21
251.5253114938
  0
LINE
  5
3A1
100
AcDbEntity
  8
0
100
AcDbLine
 62
7
  6
CONTINUOUS
 10
362.3604614879
 20
251.5253114938
 11
365.7250441457
 21
251.5253114938
  0
LINE
  5
3A2
100
AcDbEntity
  8
0
100
AcDbLine
 62
7
  6
CONTINUOUS
 10
372.1000441457
 20
251.5253114938
 11
373.6937941457
 21
251.5253114938
  0
LINE
  5
3A3
100
AcDbEntity
  8
0
100
AcDbLine
 62
7
  6
CONTINUOUS
 10
373.5167114879
 20
254.0572264656
 11
375.1104614879
 21
254.0572264656
  0
LINE
  5
3A4
100
AcDbEntity
  8
0
100
AcDbLine
 62
7
  6
CONTINUOUS
 10
362.3604614879
 20
254.2380775078
 11
365.7250441457
 21
254.2380775078
  0
LINE
  5
3A5
100
AcDbEntity
  8
0
100
AcDbLine
 62
7
  6
CONTINUOUS
 10
373.5167114879
 20
255.1423327192
 11
376.1729614879
 21
255.1423327192
  0
LINE
  5
3A6
100
AcDbEntity
  8
0
100
AcDbLine
 62
7
  6
CONTINUOUS
 10
362.3604614879
 20
255.3231837615
 11
365.7250441457
 21
255.3231837615
  0
LINE
  5
3A7
100
AcDbEntity
  8
0
100
AcDbLine
 62
7
  6
CONTINUOUS
 10
375.1104614879
 20
256.7699920996
 11
376.1729614879
 21
256.7699920996
  0
LINE
  5
3A8
100
AcDbEntity
  8
0
100
AcDbLine
 62
7
  6
CONTINUOUS
 10
362.3604614879
 20
257.8550988599
 11
365.7250441457
 21
257.8550988599
  0
LINE
  5
3A9
100
AcDbEntity
  8
0
100
AcDbLine
 62
7
  6
CONTINUOUS
 10
372.1000441457
 20
257.8550988599
 11
373.6937941457
 21
257.8550988599
  0
LINE
  5
3AA
100
AcDbEntity
  8
0
100
AcDbLine
 62
7
  6
CONTINUOUS
 10
371.2146268035
 20
250.6210561716
 11
372.1000441457
 21
250.4402051135
  0
LINE
  5
3AB
100
AcDbEntity
  8
0
100
AcDbLine
 62
7
  6
CONTINUOUS
 10
371.3917114879
 20
251.7061625361
 11
372.1000441457
 21
251.5253114938
  0
LINE
  5
3AC
100
AcDbEntity
  8
0
100
AcDbLine
 62
7
  6
CONTINUOUS
 10
365.7250441457
 20
254.2380775078
 11
366.2562941457
 21
254.0572264656
  0
LINE
  5
3AD
100
AcDbEntity
  8
0
100
AcDbLine
 62
7
  6
CONTINUOUS
 10
370.5062941457
 20
250.9827583037
 11
371.2146268035
 21
250.6210561716
  0
LINE
  5
3AE
100
AcDbEntity
  8
0
100
AcDbLine
 62
7
  6
CONTINUOUS
 10
318.8420388152
 20
296.4877052923
 11
318.4590601374
 21
297.2377051135
  0
LINE
  5
3AF
100
AcDbEntity
  8
0
100
AcDbLine
 62
7
  6
CONTINUOUS
 10
321.9058686395
 20
304.1752054711
 11
322.0973579784
 21
303.4252051135
  0
LINE
  5
3B0
100
AcDbEntity
  8
0
100
AcDbLine
 62
7
  6
CONTINUOUS
 10
321.9058686395
 20
313.1752043983
 11
322.0973579784
 21
312.4252051135
  0
LINE
  5
3B1
100
AcDbEntity
  8
0
100
AcDbLine
 62
7
  6
CONTINUOUS
 10
323.2462941457
 20
303.4252051135
 11
323.0548047901
 21
304.3627047559
  0
LINE
  5
3B2
100
AcDbEntity
  8
0
100
AcDbLine
 62
7
  6
CONTINUOUS
 10
323.2462941457
 20
312.4252051135
 11
323.0548047901
 21
313.3627058288
  0
LINE
  5
3B3
100
AcDbEntity
  8
0
100
AcDbLine
 62
7
  6
CONTINUOUS
 10
339.4262941457
 20
279.6302051135
 11
339.4262941457
 21
279.3802051135
  0
LINE
  5
3B4
100
AcDbEntity
  8
0
100
AcDbLine
 62
7
  6
CONTINUOUS
 10
339.4262941457
 20
229.3802051135
 11
339.4262941457
 21
229.1302051135
  0
LINE
  5
3B5
100
AcDbEntity
  8
BEZUGSACHSEN
100
AcDbLine
 62
7
  6
CONTINUOUS
 10
340.1762941457
 20
285.3802051135
 11
340.1762941457
 21
302.0802051135
  0
LINE
  5
3B6
100
AcDbEntity
  8
BEZUGSACHSEN
100
AcDbLine
 62
7
  6
CONTINUOUS
 10
340.6762941457
 20
284.8802051135
 11
340.6762941457
 21
285.3802051135
  0
LINE
  5
3B7
100
AcDbEntity
  8
0
100
AcDbLine
 62
7
  6
CONTINUOUS
 10
321.1399111499
 20
299.8627052923
 11
321.9058686395
 21
300.2377054711
  0
LINE
  5
3B8
100
AcDbEntity
  8
0
100
AcDbLine
 62
7
  6
CONTINUOUS
 10
323.2462941457
 20
298.1752052923
 11
318.8420388152
 21
296.4877052923
  0
LINE
  5
3B9
100
AcDbEntity
  8
0
100
AcDbLine
 62
7
  6
CONTINUOUS
 10
316.3526768734
 20
297.9877049347
 11
315.7782088567
 21
297.8002051135
  0
LINE
  5
3BA
100
AcDbEntity
  8
0
100
AcDbLine
 62
7
  6
CONTINUOUS
 10
368.9262941457
 20
265.5814817067
 11
369.5929601766
 21
265.7516944524
  0
LINE
  5
3BB
100
AcDbEntity
  8
0
100
AcDbLine
 62
7
  6
CONTINUOUS
 10
368.9262941457
 20
264.5602051135
 11
369.7596281149
 21
264.7304178741
  0
LINE
  5
3BC
100
AcDbEntity
  8
0
100
AcDbLine
 62
7
  6
CONTINUOUS
 10
360.9262941457
 20
264.5602051135
 11
361.7596271612
 21
264.7304178741
  0
LINE
  5
3BD
100
AcDbEntity
  8
0
100
AcDbLine
 62
7
  6
CONTINUOUS
 10
345.0062941457
 20
258.9402051135
 11
346.0687941457
 21
258.9402051135
  0
LINE
  5
3BE
100
AcDbEntity
  8
0
100
AcDbLine
 62
7
  6
CONTINUOUS
 10
351.0271273102
 20
258.9402051135
 11
352.0896273102
 21
258.9402051135
  0
LINE
  5
3BF
100
AcDbEntity
  8
0
100
AcDbLine
 62
7
  6
CONTINUOUS
 10
353.5062941457
 20
258.9402051135
 11
354.5687941457
 21
258.9402051135
  0
LINE
  5
3C0
100
AcDbEntity
  8
0
100
AcDbLine
 62
7
  6
CONTINUOUS
 10
361.2979604746
 20
258.9402051135
 11
365.5479614879
 21
258.9402051135
  0
LINE
  5
3C1
100
AcDbEntity
  8
0
100
AcDbLine
 62
7
  6
CONTINUOUS
 10
372.1000441457
 20
258.9402051135
 11
373.6937941457
 21
258.9402051135
  0
LINE
  5
3C2
100
AcDbEntity
  8
0
100
AcDbLine
 62
7
  6
CONTINUOUS
 10
349.9262941457
 20
264.5602051135
 11
350.9262941457
 21
264.5602051135
  0
LINE
  5
3C3
100
AcDbEntity
  8
0
100
AcDbLine
 62
7
  6
CONTINUOUS
 10
355.0929606535
 20
264.5602051135
 11
356.259627638
 21
264.5602051135
  0
LINE
  5
3C4
100
AcDbEntity
  8
0
100
AcDbLine
 62
7
  6
CONTINUOUS
 10
360.2596271612
 20
264.5602051135
 11
360.9262941457
 21
264.5602051135
  0
LINE
  5
3C5
100
AcDbEntity
  8
0
100
AcDbLine
 62
7
  6
CONTINUOUS
 10
364.9262941457
 20
264.5602051135
 11
368.9262941457
 21
264.5602051135
  0
LINE
  5
3C6
100
AcDbEntity
  8
0
100
AcDbLine
 62
7
  6
CONTINUOUS
 10
360.2596271612
 20
265.5814817067
 11
360.9262941457
 21
265.5814817067
  0
LINE
  5
3C7
100
AcDbEntity
  8
0
100
AcDbLine
 62
7
  6
CONTINUOUS
 10
365.9262941457
 20
265.5814817067
 11
368.9262941457
 21
265.5814817067
  0
LINE
  5
3C8
100
AcDbEntity
  8
0
100
AcDbLine
 62
7
  6
CONTINUOUS
 10
365.5479614879
 20
258.9402051135
 11
366.4333768035
 21
258.7593540712
  0
LINE
  5
3C9
100
AcDbEntity
  8
0
100
AcDbLine
 62
7
  6
CONTINUOUS
 10
373.6937941457
 20
258.9402051135
 11
374.5792114879
 21
258.7593540712
  0
LINE
  5
3CA
100
AcDbEntity
  8
0
100
AcDbLine
 62
7
  6
CONTINUOUS
 10
359.4262941457
 20
264.7304178741
 11
360.2596271612
 21
264.5602051135
  0
LINE
  5
3CB
100
AcDbEntity
  8
0
100
AcDbLine
 62
7
  6
CONTINUOUS
 10
373.6937941457
 20
257.8550988599
 11
374.4021268035
 21
257.6742478176
  0
LINE
  5
3CC
100
AcDbEntity
  8
0
100
AcDbLine
 62
7
  6
CONTINUOUS
 10
359.5929611303
 20
265.7516944524
 11
360.2596271612
 21
265.5814817067
  0
LINE
  5
3CD
100
AcDbEntity
  8
0
100
AcDbLine
 62
7
  6
CONTINUOUS
 10
365.7250441457
 20
257.8550988599
 11
366.2562941457
 21
257.6742478176
  0
LINE
  5
3CE
100
AcDbEntity
  8
0
100
AcDbLine
 62
7
  6
CONTINUOUS
 10
366.7875441457
 20
254.7806306347
 11
367.1417114879
 21
254.5997795924
  0
LINE
  5
3CF
100
AcDbEntity
  8
0
100
AcDbLine
 62
7
  6
CONTINUOUS
 10
358.7596271612
 20
265.0708434101
 11
359.4262941457
 21
264.7304178741
  0
LINE
  5
3D0
100
AcDbEntity
  8
0
100
AcDbLine
 62
7
  6
CONTINUOUS
 10
370.8604614879
 20
252.0678647473
 11
371.3917114879
 21
251.7061625361
  0
LINE
  5
3D1
100
AcDbEntity
  8
0
100
AcDbLine
 62
7
  6
CONTINUOUS
 10
317.501613443
 20
296.6752051135
 11
317.8845921208
 21
296.3002049347
  0
LINE
  5
3D2
100
AcDbEntity
  8
0
100
AcDbLine
 62
7
  6
CONTINUOUS
 10
366.2562941457
 20
254.0572264656
 11
366.6104614879
 21
253.695524381
  0
LINE
  5
3D3
100
AcDbEntity
  8
0
100
AcDbLine
 62
7
  6
CONTINUOUS
 10
321.5228898276
 20
304.7377054711
 11
321.9058686395
 21
304.1752054711
  0
LINE
  5
3D4
100
AcDbEntity
  8
0
100
AcDbLine
 62
7
  6
CONTINUOUS
 10
323.0548047901
 20
304.3627047559
 11
322.6718260621
 21
305.1127051135
  0
LINE
  5
3D5
100
AcDbEntity
  8
0
100
AcDbLine
 62
7
  6
CONTINUOUS
 10
323.0548047901
 20
313.3627058288
 11
322.6718260621
 21
314.1127051135
  0
LINE
  5
3D6
100
AcDbEntity
  8
0
100
AcDbLine
 62
7
  6
CONTINUOUS
 10
363.2629604746
 20
238.2470135783
 11
363.6171278168
 21
237.5236093459
  0
LINE
  5
3D7
100
AcDbEntity
  8
0
100
AcDbLine
 62
7
  6
CONTINUOUS
 10
346.0687941457
 20
258.9402051135
 11
348.547960728
 21
251.5253114938
  0
LINE
  5
3D8
100
AcDbEntity
  8
0
100
AcDbLine
 62
7
  6
CONTINUOUS
 10
345.0062941457
 20
258.9402051135
 11
347.8396275635
 21
250.4402051135
  0
LINE
  5
3D9
100
AcDbEntity
  8
0
100
AcDbLine
 62
7
  6
CONTINUOUS
 10
342.5097064531
 20
302.0802051135
 11
342.5097064531
 21
302.3802051135
  0
LINE
  5
3DA
100
AcDbEntity
  8
0
100
AcDbLine
 62
7
  6
CONTINUOUS
 10
346.1717652224
 20
302.0802051135
 11
346.1717652224
 21
302.3802051135
  0
LINE
  5
3DB
100
AcDbEntity
  8
0
100
AcDbLine
 62
7
  6
CONTINUOUS
 10
346.2726134719
 20
302.0802051135
 11
346.2726134719
 21
302.3802051135
  0
LINE
  5
3DC
100
AcDbEntity
  8
0
100
AcDbLine
 62
7
  6
CONTINUOUS
 10
346.5218078455
 20
302.0802051135
 11
346.5218078455
 21
302.3802051135
  0
LINE
  5
3DD
100
AcDbEntity
  8
BEZUGSACHSEN
100
AcDbLine
 62
7
  6
CONTINUOUS
 10
347.1762941457
 20
187.8802051135
 11
347.1762941457
 21
223.8802051135
  0
LINE
  5
3DE
100
AcDbEntity
  8
0
100
AcDbLine
 62
7
  6
CONTINUOUS
 10
348.1119668038
 20
302.0802051135
 11
348.1119668038
 21
302.3802051135
  0
LINE
  5
3DF
100
AcDbEntity
  8
0
100
AcDbLine
 62
7
  6
CONTINUOUS
 10
319.2250174929
 20
295.3627050241
 11
323.2462941457
 21
296.8627049347
  0
LINE
  5
3E0
100
AcDbEntity
  8
0
100
AcDbLine
 62
7
  6
CONTINUOUS
 10
315.7782088567
 20
296.6752051135
 11
316.3526768734
 21
296.8627049347
  0
LINE
  5
3E1
100
AcDbEntity
  8
0
100
AcDbLine
 62
7
  6
CONTINUOUS
 10
360.9262941457
 20
265.5814817067
 11
361.5929611303
 21
265.7516944524
  0
LINE
  5
3E2
100
AcDbEntity
  8
0
100
AcDbLine
 62
7
  6
CONTINUOUS
 10
350.9262941457
 20
268.1346732493
 11
353.7596273996
 21
268.1346732493
  0
LINE
  5
3E3
100
AcDbEntity
  8
0
100
AcDbLine
 62
7
  6
CONTINUOUS
 10
350.9262941457
 20
269.1559497233
 11
354.0929606535
 21
269.1559497233
  0
LINE
  5
3E4
100
AcDbEntity
  8
0
100
AcDbLine
 62
7
  6
CONTINUOUS
 10
365.9262941457
 20
271.5389286395
 11
368.9262941457
 21
271.5389286395
  0
LINE
  5
3E5
100
AcDbEntity
  8
0
100
AcDbLine
 62
7
  6
CONTINUOUS
 10
350.9262941457
 20
271.7091413852
 11
354.0929606535
 21
271.7091413852
  0
LINE
  5
3E6
100
AcDbEntity
  8
0
100
AcDbLine
 62
7
  6
CONTINUOUS
 10
349.9262941457
 20
272.5602051135
 11
353.9262941457
 21
272.5602051135
  0
LINE
  5
3E7
100
AcDbEntity
  8
0
100
AcDbLine
 62
7
  6
CONTINUOUS
 10
357.5929606535
 20
272.5602051135
 11
358.5929611303
 21
272.5602051135
  0
LINE
  5
3E8
100
AcDbEntity
  8
0
100
AcDbLine
 62
7
  6
CONTINUOUS
 10
362.5929611303
 20
272.5602051135
 11
363.5929611303
 21
272.5602051135
  0
LINE
  5
3E9
100
AcDbEntity
  8
0
100
AcDbLine
 62
7
  6
CONTINUOUS
 10
364.9262941457
 20
272.5602051135
 11
368.9262941457
 21
272.5602051135
  0
LINE
  5
3EA
100
AcDbEntity
  8
0
100
AcDbLine
 62
7
  6
CONTINUOUS
 10
353.9262941457
 20
272.5602051135
 11
354.759627638
 21
272.3899923678
  0
LINE
  5
3EB
100
AcDbEntity
  8
0
100
AcDbLine
 62
7
  6
CONTINUOUS
 10
368.9262941457
 20
272.5602051135
 11
369.7596281149
 21
272.3899923678
  0
LINE
  5
3EC
100
AcDbEntity
  8
0
100
AcDbLine
 62
7
  6
CONTINUOUS
 10
368.9262941457
 20
271.5389286395
 11
369.5929601766
 21
271.3687158938
  0
LINE
  5
3ED
100
AcDbEntity
  8
0
100
AcDbLine
 62
7
  6
CONTINUOUS
 10
354.0929606535
 20
271.7091413852
 11
354.5929606535
 21
271.5389286395
  0
LINE
  5
3EE
100
AcDbEntity
  8
0
100
AcDbLine
 62
7
  6
CONTINUOUS
 10
374.5792114879
 20
258.7593540712
 11
375.2875441457
 21
258.3976519867
  0
LINE
  5
3EF
100
AcDbEntity
  8
0
100
AcDbLine
 62
7
  6
CONTINUOUS
 10
359.0929611303
 20
266.0921200629
 11
359.5929611303
 21
265.7516944524
  0
LINE
  5
3F0
100
AcDbEntity
  8
0
100
AcDbLine
 62
7
  6
CONTINUOUS
 10
374.4021268035
 20
257.6742478176
 11
374.9333768035
 21
257.3125457331
  0
LINE
  5
3F1
100
AcDbEntity
  8
0
100
AcDbLine
 62
7
  6
CONTINUOUS
 10
318.4590601374
 20
297.2377051135
 11
317.6931027819
 21
297.8002051135
  0
LINE
  5
3F2
100
AcDbEntity
  8
0
100
AcDbLine
 62
7
  6
CONTINUOUS
 10
366.4333768035
 20
258.7593540712
 11
367.1417114879
 21
258.2168009444
  0
LINE
  5
3F3
100
AcDbEntity
  8
0
100
AcDbLine
 62
7
  6
CONTINUOUS
 10
354.759627638
 20
272.3899923678
 11
355.4262941457
 21
271.8793541308
  0
LINE
  5
3F4
100
AcDbEntity
  8
0
100
AcDbLine
 62
7
  6
CONTINUOUS
 10
322.6718260621
 20
305.1127051135
 11
321.9058686395
 21
305.8627054711
  0
LINE
  5
3F5
100
AcDbEntity
  8
0
100
AcDbLine
 62
7
  6
CONTINUOUS
 10
369.7979614879
 20
251.7061625361
 11
370.5062941457
 21
250.9827583037
  0
LINE
  5
3F6
100
AcDbEntity
  8
0
100
AcDbLine
 62
7
  6
CONTINUOUS
 10
358.0929611303
 20
265.7516944524
 11
358.7596271612
 21
265.0708434101
  0
LINE
  5
3F7
100
AcDbEntity
  8
0
100
AcDbLine
 62
7
  6
CONTINUOUS
 10
366.2562941457
 20
257.6742478176
 11
366.6104614879
 21
257.3125457331
  0
LINE
  5
3F8
100
AcDbEntity
  8
0
100
AcDbLine
 62
7
  6
CONTINUOUS
 10
354.5929606535
 20
271.5389286395
 11
354.9262941457
 21
271.1985031482
  0
LINE
  5
3F9
100
AcDbEntity
  8
0
100
AcDbLine
 62
7
  6
CONTINUOUS
 10
367.1417114879
 20
254.5997795924
 11
367.6729614879
 21
253.8763754233
  0
LINE
  5
3FA
100
AcDbEntity
  8
0
100
AcDbLine
 62
7
  6
CONTINUOUS
 10
355.4262941457
 20
271.8793541308
 11
355.9262941457
 21
271.1985031482
  0
LINE
  5
3FB
100
AcDbEntity
  8
0
100
AcDbLine
 62
7
  6
CONTINUOUS
 10
367.1417114879
 20
258.2168009444
 11
367.6729614879
 21
257.4933967753
  0
LINE
  5
3FC
100
AcDbEntity
  8
0
100
AcDbLine
 62
7
  6
CONTINUOUS
 10
321.5228898276
 20
313.7377043983
 11
321.9058686395
 21
313.1752043983
  0
LINE
  5
3FD
100
AcDbEntity
  8
0
100
AcDbLine
 62
7
  6
CONTINUOUS
 10
358.7596271612
 20
266.6027582999
 11
359.0929611303
 21
266.0921200629
  0
LINE
  5
3FE
100
AcDbEntity
  8
0
100
AcDbLine
 62
7
  6
CONTINUOUS
 10
357.759627638
 20
266.4325455543
 11
358.0929611303
 21
265.7516944524
  0
LINE
  5
3FF
100
AcDbEntity
  8
0
100
AcDbLine
 62
7
  6
CONTINUOUS
 10
320.7744969353
 20
337.9496612883
 11
315.0406097426
 21
352.8869481122
  0
LINE
  5
400
100
AcDbEntity
  8
0
100
AcDbLine
 62
7
  6
CONTINUOUS
 10
354.759627638
 20
268.4750987407
 11
356.259627638
 21
264.5602051135
  0
LINE
  5
401
100
AcDbEntity
  8
0
100
AcDbLine
 62
7
  6
CONTINUOUS
 10
353.7596273996
 20
268.1346732493
 11
355.0929606535
 21
264.5602051135
  0
LINE
  5
402
100
AcDbEntity
  8
0
100
AcDbLine
 62
7
  6
CONTINUOUS
 10
364.1483778168
 20
238.6087157895
 11
364.3254604746
 21
238.0661625361
  0
LINE
  5
403
100
AcDbEntity
  8
0
100
AcDbLine
 62
7
  6
CONTINUOUS
 10
349.9262941457
 20
264.5602051135
 11
349.9262941457
 21
272.5602051135
  0
LINE
  5
404
100
AcDbEntity
  8
0
100
AcDbLine
 62
7
  6
CONTINUOUS
 10
350.2110222197
 20
302.0802051135
 11
350.2110222197
 21
302.3802051135
  0
LINE
  5
405
100
AcDbEntity
  8
0
100
AcDbLine
 62
7
  6
CONTINUOUS
 10
350.7556247984
 20
302.0802051135
 11
350.7556247984
 21
302.3802051135
  0
LINE
  5
406
100
AcDbEntity
  8
0
100
AcDbLine
 62
7
  6
CONTINUOUS
 10
350.9262941457
 20
264.5602051135
 11
350.9262941457
 21
268.1346732493
  0
LINE
  5
407
100
AcDbEntity
  8
0
100
AcDbLine
 62
7
  6
CONTINUOUS
 10
350.9262941457
 20
269.1559497233
 11
350.9262941457
 21
271.7091413852
  0
LINE
  5
408
100
AcDbEntity
  8
0
100
AcDbLine
 62
7
  6
CONTINUOUS
 10
352.3736826609
 20
302.0802051135
 11
352.3736826609
 21
302.3802051135
  0
LINE
  5
409
100
AcDbEntity
  8
0
100
AcDbLine
 62
7
  6
CONTINUOUS
 10
352.6732315619
 20
302.0802051135
 11
352.6732315619
 21
302.3802051135
  0
LINE
  5
40A
100
AcDbEntity
  8
0
100
AcDbLine
 62
7
  6
CONTINUOUS
 10
352.9340351133
 20
302.0802051135
 11
352.9340351133
 21
302.3802051135
  0
LINE
  5
40B
100
AcDbEntity
  8
0
100
AcDbLine
 62
7
  6
CONTINUOUS
 10
353.3462941457
 20
239.3321199586
 11
353.3462941457
 21
240.4172264656
  0
LINE
  5
40C
100
AcDbEntity
  8
0
100
AcDbLine
 62
7
  6
CONTINUOUS
 10
353.4786379517
 20
302.0802051135
 11
353.4786379517
 21
302.3802051135
  0
LINE
  5
40D
100
AcDbEntity
  8
0
100
AcDbLine
 62
7
  6
CONTINUOUS
 10
353.5062941457
 20
250.4402051135
 11
353.5062941457
 21
258.9402051135
  0
LINE
  5
40E
100
AcDbEntity
  8
0
100
AcDbLine
 62
7
  6
CONTINUOUS
 10
354.5687941457
 20
251.5253114938
 11
354.5687941457
 21
258.9402051135
  0
LINE
  5
40F
100
AcDbEntity
  8
0
100
AcDbLine
 62
7
  6
CONTINUOUS
 10
355.0929606535
 20
270.1772261973
 11
355.0929606535
 21
270.6878649112
  0
LINE
  5
410
100
AcDbEntity
  8
0
100
AcDbLine
 62
7
  6
CONTINUOUS
 10
355.0966958142
 20
302.0802051135
 11
355.0966958142
 21
302.3802051135
  0
LINE
  5
411
100
AcDbEntity
  8
0
100
AcDbLine
 62
7
  6
CONTINUOUS
 10
355.2669055838
 20
302.0802051135
 11
355.2669055838
 21
302.3802051135
  0
LINE
  5
412
100
AcDbEntity
  8
0
100
AcDbLine
 62
7
  6
CONTINUOUS
 10
355.2941529723
 20
302.0802051135
 11
355.2941529723
 21
302.3802051135
  0
LINE
  5
413
100
AcDbEntity
  8
0
100
AcDbLine
 62
7
  6
CONTINUOUS
 10
356.0929606535
 20
270.0070134517
 11
356.0929606535
 21
270.6878649112
  0
LINE
  5
414
100
AcDbEntity
  8
0
100
AcDbLine
 62
7
  6
CONTINUOUS
 10
356.2706409933
 20
302.0802051135
 11
356.2706409933
 21
302.3802051135
  0
LINE
  5
415
100
AcDbEntity
  8
0
100
AcDbLine
 62
7
  6
CONTINUOUS
 10
356.3252018036
 20
302.0802051135
 11
356.3252018036
 21
302.3802051135
  0
LINE
  5
416
100
AcDbEntity
  8
0
100
AcDbLine
 62
7
  6
CONTINUOUS
 10
356.569552687
 20
302.0802051135
 11
356.569552687
 21
302.3802051135
  0
LINE
  5
417
100
AcDbEntity
  8
RUNDUNGEN
100
AcDbLine
 62
7
  6
CONTINUOUS
 10
333.6762941457
 20
279.3802051135
 11
387.6762941457
 21
279.3802051135
  0
LINE
  5
418
100
AcDbEntity
  8
0
100
AcDbLine
 62
7
  6
CONTINUOUS
 10
330.6762941457
 20
279.6302051135
 11
390.6762941457
 21
279.6302051135
  0
LINE
  5
419
100
AcDbEntity
  8
0
100
AcDbLine
 62
7
  6
CONTINUOUS
 10
316.9271454264
 20
296.8627049347
 11
317.501613443
 21
296.6752051135
  0
LINE
  5
41A
100
AcDbEntity
  8
0
100
AcDbLine
 62
7
  6
CONTINUOUS
 10
369.7596281149
 20
272.3899923678
 11
370.4262941457
 21
272.0495668765
  0
LINE
  5
41B
100
AcDbEntity
  8
0
100
AcDbLine
 62
7
  6
CONTINUOUS
 10
320.948421811
 20
305.1127051135
 11
321.5228898276
 21
304.7377054711
  0
LINE
  5
41C
100
AcDbEntity
  8
0
100
AcDbLine
 62
7
  6
CONTINUOUS
 10
369.5929601766
 20
271.3687158938
 11
370.0929601766
 21
271.0282904025
  0
LINE
  5
41D
100
AcDbEntity
  8
0
100
AcDbLine
 62
7
  6
CONTINUOUS
 10
322.6718260621
 20
314.1127051135
 11
321.9058686395
 21
314.8627043983
  0
LINE
  5
41E
100
AcDbEntity
  8
0
100
AcDbLine
 62
7
  6
CONTINUOUS
 10
375.2875441457
 20
258.3976519867
 11
375.9958768035
 21
257.6742478176
  0
LINE
  5
41F
100
AcDbEntity
  8
0
100
AcDbLine
 62
7
  6
CONTINUOUS
 10
370.4262941457
 20
272.0495668765
 11
371.0929601766
 21
271.3687158938
  0
LINE
  5
420
100
AcDbEntity
  8
0
100
AcDbLine
 62
7
  6
CONTINUOUS
 10
370.5062941457
 20
252.6104178741
 11
370.8604614879
 21
252.0678647473
  0
LINE
  5
421
100
AcDbEntity
  8
0
100
AcDbLine
 62
7
  6
CONTINUOUS
 10
369.4437941457
 20
252.4295668318
 11
369.7979614879
 21
251.7061625361
  0
LINE
  5
422
100
AcDbEntity
  8
0
100
AcDbLine
 62
7
  6
CONTINUOUS
 10
354.9262941457
 20
271.1985031482
 11
355.0929606535
 21
270.6878649112
  0
LINE
  5
423
100
AcDbEntity
  8
0
100
AcDbLine
 62
7
  6
CONTINUOUS
 10
355.9262941457
 20
271.1985031482
 11
356.0929606535
 21
270.6878649112
  0
LINE
  5
424
100
AcDbEntity
  8
0
100
AcDbLine
 62
7
  6
CONTINUOUS
 10
366.6104614879
 20
253.695524381
 11
366.7875441457
 21
253.1529710009
  0
LINE
  5
425
100
AcDbEntity
  8
0
100
AcDbLine
 62
7
  6
CONTINUOUS
 10
367.6729614879
 20
253.8763754233
 11
367.8500441457
 21
253.3338220432
  0
LINE
  5
426
100
AcDbEntity
  8
0
100
AcDbLine
 62
7
  6
CONTINUOUS
 10
366.6104614879
 20
257.3125457331
 11
366.7875441457
 21
256.7699920996
  0
LINE
  5
427
100
AcDbEntity
  8
0
100
AcDbLine
 62
7
  6
CONTINUOUS
 10
358.5929611303
 20
267.2836092826
 11
358.7596271612
 21
266.6027582999
  0
LINE
  5
428
100
AcDbEntity
  8
0
100
AcDbLine
 62
7
  6
CONTINUOUS
 10
357.5929606535
 20
267.2836092826
 11
357.759627638
 21
266.4325455543
  0
LINE
  5
429
100
AcDbEntity
  8
0
100
AcDbLine
 62
7
  6
CONTINUOUS
 10
356.9329989071
 20
302.0802051135
 11
356.9329989071
 21
302.3802051135
  0
LINE
  5
42A
100
AcDbEntity
  8
0
100
AcDbLine
 62
7
  6
CONTINUOUS
 10
357.4316743899
 20
302.0802051135
 11
357.4316743899
 21
302.3802051135
  0
LINE
  5
42B
100
AcDbEntity
  8
0
100
AcDbLine
 62
7
  6
CONTINUOUS
 10
357.5929606535
 20
267.2836092826
 11
357.5929606535
 21
272.5602051135
  0
LINE
  5
42C
100
AcDbEntity
  8
0
100
AcDbLine
 62
7
  6
CONTINUOUS
 10
357.5962941457
 20
236.8002051135
 11
357.5962941457
 21
239.3321199586
  0
LINE
  5
42D
100
AcDbEntity
  8
0
100
AcDbLine
 62
7
  6
CONTINUOUS
 10
357.5962941457
 20
240.4172264656
 11
357.5962941457
 21
243.8533967753
  0
LINE
  5
42E
100
AcDbEntity
  8
0
100
AcDbLine
 62
7
  6
CONTINUOUS
 10
358.5929611303
 20
267.2836092826
 11
358.5929611303
 21
272.5602051135
  0
LINE
  5
42F
100
AcDbEntity
  8
0
100
AcDbLine
 62
7
  6
CONTINUOUS
 10
358.6587941457
 20
236.8002051135
 11
358.6587941457
 21
239.3321199586
  0
LINE
  5
430
100
AcDbEntity
  8
0
100
AcDbLine
 62
7
  6
CONTINUOUS
 10
358.6587941457
 20
240.4172264656
 11
358.6587941457
 21
245.3002051135
  0
LINE
  5
431
100
AcDbEntity
  8
0
100
AcDbLine
 62
7
  6
CONTINUOUS
 10
359.8812941457
 20
250.4402051135
 11
359.8812941457
 21
251.5253114938
  0
LINE
  5
432
100
AcDbEntity
  8
0
100
AcDbLine
 62
7
  6
CONTINUOUS
 10
359.9027576679
 20
302.0802051135
 11
359.9027576679
 21
302.3802051135
  0
LINE
  5
433
100
AcDbEntity
  8
0
100
AcDbLine
 62
7
  6
CONTINUOUS
 10
360.4296273102
 20
239.3321199586
 11
360.4296273102
 21
240.4172264656
  0
LINE
  5
434
100
AcDbEntity
  8
0
100
AcDbLine
 62
7
  6
CONTINUOUS
 10
360.6610384425
 20
302.0802051135
 11
360.6610384425
 21
302.3802051135
  0
LINE
  5
435
100
AcDbEntity
  8
BEZUGSACHSEN
100
AcDbLine
 62
7
  6
CONTINUOUS
 10
360.6762941457
 20
285.3802051135
 11
360.6762941457
 21
300.2492189652
  0
LINE
  5
436
100
AcDbEntity
  8
0
100
AcDbLine
 62
7
  6
CONTINUOUS
 10
361.2979604746
 20
250.4402051135
 11
361.2979604746
 21
258.9402051135
  0
LINE
  5
437
100
AcDbEntity
  8
0
100
AcDbLine
 62
7
  6
CONTINUOUS
 10
361.8462941457
 20
241.8640348037
 11
361.8462941457
 21
242.5874389728
  0
LINE
  5
438
100
AcDbEntity
  8
0
100
AcDbLine
 62
7
  6
CONTINUOUS
 10
362.3604614879
 20
251.5253114938
 11
362.3604614879
 21
254.2380775078
  0
LINE
  5
439
100
AcDbEntity
  8
0
100
AcDbLine
 62
7
  6
CONTINUOUS
 10
362.3604614879
 20
255.3231837615
 11
362.3604614879
 21
257.8550988599
  0
LINE
  5
43A
100
AcDbEntity
  8
0
100
AcDbLine
 62
7
  6
CONTINUOUS
 10
362.5929611303
 20
267.2836092826
 11
362.5929611303
 21
272.5602051135
  0
LINE
  5
43B
100
AcDbEntity
  8
0
100
AcDbLine
 62
7
  6
CONTINUOUS
 10
363.2629604746
 20
238.2470135783
 11
363.2629604746
 21
241.8640348037
  0
LINE
  5
43C
100
AcDbEntity
  8
0
100
AcDbLine
 62
7
  6
CONTINUOUS
 10
363.2629604746
 20
242.5874389728
 11
363.2629604746
 21
244.0342478176
  0
LINE
  5
43D
100
AcDbEntity
  8
0
100
AcDbLine
 62
7
  6
CONTINUOUS
 10
363.5929611303
 20
267.2836092826
 11
363.5929611303
 21
272.5602051135
  0
LINE
  5
43E
100
AcDbEntity
  8
0
100
AcDbLine
 62
7
  6
CONTINUOUS
 10
364.1483778168
 20
238.6087157895
 11
364.1483778168
 21
241.8640348037
  0
LINE
  5
43F
100
AcDbEntity
  8
0
100
AcDbLine
 62
7
  6
CONTINUOUS
 10
364.1483778168
 20
242.5874389728
 11
364.1483778168
 21
244.0342478176
  0
LINE
  5
440
100
AcDbEntity
  8
0
100
AcDbLine
 62
7
  6
CONTINUOUS
 10
354.9262941457
 20
269.6665879603
 11
355.0929606535
 21
270.1772261973
  0
LINE
  5
441
100
AcDbEntity
  8
0
100
AcDbLine
 62
7
  6
CONTINUOUS
 10
355.9262941457
 20
269.4963752147
 11
356.0929606535
 21
270.0070134517
  0
LINE
  5
442
100
AcDbEntity
  8
0
100
AcDbLine
 62
7
  6
CONTINUOUS
 10
349.2562941457
 20
250.4402051135
 11
352.0896273102
 21
258.9402051135
  0
LINE
  5
443
100
AcDbEntity
  8
0
100
AcDbLine
 62
7
  6
CONTINUOUS
 10
348.547960728
 20
251.5253114938
 11
351.0271273102
 21
258.9402051135
  0
LINE
  5
444
100
AcDbEntity
  8
0
100
AcDbLine
 62
7
  6
CONTINUOUS
 10
330.6762941457
 20
284.8802051135
 11
390.6762941457
 21
284.8802051135
  0
LINE
  5
445
100
AcDbEntity
  8
KONSTRUKTIONSELEMENTE
100
AcDbLine
 62
7
  6
CONTINUOUS
 10
340.1762941457
 20
285.3802051135
 11
381.1762941457
 21
285.3802051135
  0
LINE
  5
446
100
AcDbEntity
  8
0
100
AcDbLine
 62
7
  6
CONTINUOUS
 10
317.6931027819
 20
297.8002051135
 11
317.1186347653
 21
297.9877049347
  0
LINE
  5
447
100
AcDbEntity
  8
0
100
AcDbLine
 62
7
  6
CONTINUOUS
 10
321.9058686395
 20
305.8627054711
 11
321.1399111499
 21
306.2377051135
  0
LINE
  5
448
100
AcDbEntity
  8
0
100
AcDbLine
 62
7
  6
CONTINUOUS
 10
320.948421811
 20
314.1127051135
 11
321.5228898276
 21
313.7377043983
  0
LINE
  5
449
100
AcDbEntity
  8
0
100
AcDbLine
 62
7
  6
CONTINUOUS
 10
370.0929601766
 20
271.0282904025
 11
370.4262941457
 21
270.5176516887
  0
LINE
  5
44A
100
AcDbEntity
  8
0
100
AcDbLine
 62
7
  6
CONTINUOUS
 10
371.0929601766
 20
271.3687158938
 11
371.4262941457
 21
270.6878649112
  0
LINE
  5
44B
100
AcDbEntity
  8
0
100
AcDbLine
 62
7
  6
CONTINUOUS
 10
367.6729614879
 20
257.4933967753
 11
367.8500441457
 21
256.9508436485
  0
LINE
  5
44C
100
AcDbEntity
  8
0
100
AcDbLine
 62
7
  6
CONTINUOUS
 10
374.9333768035
 20
257.3125457331
 11
375.1104614879
 21
256.7699920996
  0
LINE
  5
44D
100
AcDbEntity
  8
0
100
AcDbLine
 62
7
  6
CONTINUOUS
 10
370.3292114879
 20
253.3338220432
 11
370.5062941457
 21
252.6104178741
  0
LINE
  5
44E
100
AcDbEntity
  8
0
100
AcDbLine
 62
7
  6
CONTINUOUS
 10
369.2667114879
 20
253.3338220432
 11
369.4437941457
 21
252.4295668318
  0
LINE
  5
44F
100
AcDbEntity
  8
0
100
AcDbLine
 62
7
  6
CONTINUOUS
 10
364.9262941457
 20
264.5602051135
 11
364.9262941457
 21
272.5602051135
  0
LINE
  5
450
100
AcDbEntity
  8
0
100
AcDbLine
 62
7
  6
CONTINUOUS
 10
365.7421278168
 20
236.8002051135
 11
365.7421278168
 21
237.5236093459
  0
LINE
  5
451
100
AcDbEntity
  8
0
100
AcDbLine
 62
7
  6
CONTINUOUS
 10
365.9262941457
 20
265.5814817067
 11
365.9262941457
 21
271.5389286395
  0
LINE
  5
452
100
AcDbEntity
  8
0
100
AcDbLine
 62
7
  6
CONTINUOUS
 10
366.0962941457
 20
241.8640348037
 11
366.0962941457
 21
242.5874389728
  0
LINE
  5
453
100
AcDbEntity
  8
0
100
AcDbLine
 62
7
  6
CONTINUOUS
 10
366.7875441457
 20
252.6104178741
 11
366.7875441457
 21
253.1529710009
  0
LINE
  5
454
100
AcDbEntity
  8
0
100
AcDbLine
 62
7
  6
CONTINUOUS
 10
366.7875441457
 20
256.4082900151
 11
366.7875441457
 21
256.7699920996
  0
LINE
  5
455
100
AcDbEntity
  8
0
100
AcDbLine
 62
7
  6
CONTINUOUS
 10
367.8500441457
 20
252.4295668318
 11
367.8500441457
 21
253.3338220432
  0
LINE
  5
456
100
AcDbEntity
  8
0
100
AcDbLine
 62
7
  6
CONTINUOUS
 10
367.8500441457
 20
256.2274389728
 11
367.8500441457
 21
256.9508436485
  0
LINE
  5
457
100
AcDbEntity
  8
0
100
AcDbLine
 62
7
  6
CONTINUOUS
 10
369.2667114879
 20
253.3338220432
 11
369.2667114879
 21
256.0465879305
  0
LINE
  5
458
100
AcDbEntity
  8
0
100
AcDbLine
 62
7
  6
CONTINUOUS
 10
370.3292114879
 20
253.3338220432
 11
370.3292114879
 21
256.0465879305
  0
LINE
  5
459
100
AcDbEntity
  8
0
100
AcDbLine
 62
7
  6
CONTINUOUS
 10
370.5929601766
 20
267.2836092826
 11
370.5929601766
 21
269.836800706
  0
LINE
  5
45A
100
AcDbEntity
  8
0
100
AcDbLine
 62
7
  6
CONTINUOUS
 10
371.5929601766
 20
267.2836092826
 11
371.5929601766
 21
269.836800706
  0
LINE
  5
45B
100
AcDbEntity
  8
0
100
AcDbLine
 62
7
  6
CONTINUOUS
 10
363.4262941457
 20
266.4325455543
 11
363.5929611303
 21
267.2836092826
  0
LINE
  5
45C
100
AcDbEntity
  8
0
100
AcDbLine
 62
7
  6
CONTINUOUS
 10
362.4262941457
 20
266.6027582999
 11
362.5929611303
 21
267.2836092826
  0
LINE
  5
45D
100
AcDbEntity
  8
0
100
AcDbLine
 62
7
  6
CONTINUOUS
 10
355.4262941457
 20
268.815524232
 11
355.9262941457
 21
269.4963752147
  0
LINE
  5
45E
100
AcDbEntity
  8
0
100
AcDbLine
 62
7
  6
CONTINUOUS
 10
354.5929606535
 20
269.326162469
 11
354.9262941457
 21
269.6665879603
  0
LINE
  5
45F
100
AcDbEntity
  8
0
100
AcDbLine
 62
7
  6
CONTINUOUS
 10
314.2462941457
 20
291.0502051135
 11
323.2462941457
 21
291.0502051135
  0
LINE
  5
460
100
AcDbEntity
  8
0
100
AcDbLine
 62
7
  6
CONTINUOUS
 10
323.2462941457
 20
292.1752051135
 11
319.2250174929
 21
292.1752051135
  0
LINE
  5
461
100
AcDbEntity
  8
0
100
AcDbLine
 62
7
  6
CONTINUOUS
 10
318.0760814597
 20
292.1752051135
 11
315.2037408401
 21
292.1752051135
  0
LINE
  5
462
100
AcDbEntity
  8
0
100
AcDbLine
 62
7
  6
CONTINUOUS
 10
316.3526768734
 20
296.8627049347
 11
316.9271454264
 21
296.8627049347
  0
LINE
  5
463
100
AcDbEntity
  8
0
100
AcDbLine
 62
7
  6
CONTINUOUS
 10
321.1399111499
 20
306.2377051135
 11
320.1824644555
 21
306.4252054711
  0
LINE
  5
464
100
AcDbEntity
  8
0
100
AcDbLine
 62
7
  6
CONTINUOUS
 10
320.1824644555
 20
305.3002054711
 11
320.948421811
 21
305.1127051135
  0
LINE
  5
465
100
AcDbEntity
  8
0
100
AcDbLine
 62
7
  6
CONTINUOUS
 10
321.9058686395
 20
314.8627043983
 11
321.1399111499
 21
315.2377051135
  0
LINE
  5
466
100
AcDbEntity
  8
0
100
AcDbLine
 62
7
  6
CONTINUOUS
 10
370.4262941457
 20
270.5176516887
 11
370.5929601766
 21
269.836800706
  0
LINE
  5
467
100
AcDbEntity
  8
0
100
AcDbLine
 62
7
  6
CONTINUOUS
 10
371.4262941457
 20
270.6878649112
 11
371.5929601766
 21
269.836800706
  0
LINE
  5
468
100
AcDbEntity
  8
0
100
AcDbLine
 62
7
  6
CONTINUOUS
 10
375.9958768035
 20
257.6742478176
 11
376.1729614879
 21
256.7699920996
  0
LINE
  5
469
100
AcDbEntity
  8
0
100
AcDbLine
 62
7
  6
CONTINUOUS
 10
373.5167114879
 20
254.0572264656
 11
373.5167114879
 21
255.1423327192
  0
LINE
  5
46A
100
AcDbEntity
  8
BEZUGSACHSEN
100
AcDbLine
 62
7
  6
CONTINUOUS
 10
374.1762941457
 20
187.8802051135
 11
374.1762941457
 21
223.8802051135
  0
LINE
  5
46B
100
AcDbEntity
  8
0
100
AcDbLine
 62
7
  6
CONTINUOUS
 10
375.1104614879
 20
252.6104178741
 11
375.1104614879
 21
254.0572264656
  0
LINE
  5
46C
100
AcDbEntity
  8
0
100
AcDbLine
 62
7
  6
CONTINUOUS
 10
376.1729614879
 20
252.4295668318
 11
376.1729614879
 21
255.1423327192
  0
LINE
  5
46D
100
AcDbEntity
  8
0
100
AcDbLine
 62
7
  6
CONTINUOUS
 10
369.2667114879
 20
256.0465879305
 11
369.4437941457
 21
256.9508436485
  0
LINE
  5
46E
100
AcDbEntity
  8
0
100
AcDbLine
 62
7
  6
CONTINUOUS
 10
371.4262941457
 20
266.4325455543
 11
371.5929601766
 21
267.2836092826
  0
LINE
  5
46F
100
AcDbEntity
  8
0
100
AcDbLine
 62
7
  6
CONTINUOUS
 10
370.4262941457
 20
266.6027582999
 11
370.5929601766
 21
267.2836092826
  0
LINE
  5
470
100
AcDbEntity
  8
0
100
AcDbLine
 62
7
  6
CONTINUOUS
 10
370.3292114879
 20
256.0465879305
 11
370.5062941457
 21
256.7699920996
  0
LINE
  5
471
100
AcDbEntity
  8
0
100
AcDbLine
 62
7
  6
CONTINUOUS
 10
366.6104614879
 20
255.8657368883
 11
366.7875441457
 21
256.4082900151
  0
LINE
  5
472
100
AcDbEntity
  8
0
100
AcDbLine
 62
7
  6
CONTINUOUS
 10
367.6729614879
 20
255.684885846
 11
367.8500441457
 21
256.2274389728
  0
LINE
  5
473
100
AcDbEntity
  8
0
100
AcDbLine
 62
7
  6
CONTINUOUS
 10
366.6104614879
 20
252.0678647473
 11
366.7875441457
 21
252.6104178741
  0
LINE
  5
474
100
AcDbEntity
  8
0
100
AcDbLine
 62
7
  6
CONTINUOUS
 10
367.6729614879
 20
251.8870135783
 11
367.8500441457
 21
252.4295668318
  0
LINE
  5
475
100
AcDbEntity
  8
0
100
AcDbLine
 62
7
  6
CONTINUOUS
 10
363.0929611303
 20
265.7516944524
 11
363.4262941457
 21
266.4325455543
  0
LINE
  5
476
100
AcDbEntity
  8
0
100
AcDbLine
 62
7
  6
CONTINUOUS
 10
362.0929611303
 20
266.0921200629
 11
362.4262941457
 21
266.6027582999
  0
LINE
  5
477
100
AcDbEntity
  8
0
100
AcDbLine
 62
7
  6
CONTINUOUS
 10
362.4262941457
 20
265.0708434101
 11
363.0929611303
 21
265.7516944524
  0
LINE
  5
478
100
AcDbEntity
  8
0
100
AcDbLine
 62
7
  6
CONTINUOUS
 10
354.759627638
 20
268.4750987407
 11
355.4262941457
 21
268.815524232
  0
LINE
  5
479
100
AcDbEntity
  8
0
100
AcDbLine
 62
7
  6
CONTINUOUS
 10
354.0929606535
 20
269.1559497233
 11
354.5929606535
 21
269.326162469
  0
LINE
  5
47A
100
AcDbEntity
  8
0
100
AcDbLine
 62
7
  6
CONTINUOUS
 10
317.1186347653
 20
297.9877049347
 11
316.3526768734
 21
297.9877049347
  0
LINE
  5
47B
100
AcDbEntity
  8
0
100
AcDbLine
 62
7
  6
CONTINUOUS
 10
314.2462941457
 20
299.6752049347
 11
320.1824644555
 21
299.6752049347
  0
LINE
  5
47C
100
AcDbEntity
  8
0
100
AcDbLine
 62
7
  6
CONTINUOUS
 10
320.1824644555
 20
300.8002054711
 11
314.2462941457
 21
300.8002054711
  0
LINE
  5
47D
100
AcDbEntity
  8
BEZUGSACHSEN
100
AcDbLine
 62
7
  6
CONTINUOUS
 10
340.1762941457
 20
302.0802051135
 11
381.1762941458
 21
302.0802051135
  0
LINE
  5
47E
100
AcDbEntity
  8
0
100
AcDbLine
 62
7
  6
CONTINUOUS
 10
342.5097064531
 20
302.3802051135
 11
355.2941529723
 21
302.3802051135
  0
LINE
  5
47F
100
AcDbEntity
  8
0
100
AcDbLine
 62
7
  6
CONTINUOUS
 10
356.2706409933
 20
302.3802051135
 11
360.6610384425
 21
302.3802051135
  0
LINE
  5
480
100
AcDbEntity
  8
0
100
AcDbLine
 62
7
  6
CONTINUOUS
 10
314.2462941457
 20
305.3002054711
 11
320.1824644555
 21
305.3002054711
  0
LINE
  5
481
100
AcDbEntity
  8
0
100
AcDbLine
 62
7
  6
CONTINUOUS
 10
320.1824644555
 20
314.3002043983
 11
320.948421811
 21
314.1127051135
  0
LINE
  5
482
100
AcDbEntity
  8
BEZUGSACHSEN
100
AcDbLine
 62
7
  6
CONTINUOUS
 10
380.6762941457
 20
284.8802051135
 11
380.6762941457
 21
285.3802051135
  0
LINE
  5
483
100
AcDbEntity
  8
BEZUGSACHSEN
100
AcDbLine
 62
7
  6
CONTINUOUS
 10
381.1762941457
 20
285.3802051135
 11
381.1762941457
 21
302.0802051135
  0
LINE
  5
484
100
AcDbEntity
  8
0
100
AcDbLine
 62
7
  6
CONTINUOUS
 10
381.9262941457
 20
279.6302051135
 11
381.9262941457
 21
279.3802051135
  0
LINE
  5
485
100
AcDbEntity
  8
0
100
AcDbLine
 62
7
  6
CONTINUOUS
 10
381.9262941457
 20
229.3802051135
 11
381.9262941457
 21
229.1302051135
  0
LINE
  5
486
100
AcDbEntity
  8
0
100
AcDbLine
 62
7
  6
CONTINUOUS
 10
375.9958768035
 20
251.7061625361
 11
376.1729614879
 21
252.4295668318
  0
LINE
  5
487
100
AcDbEntity
  8
0
100
AcDbLine
 62
7
  6
CONTINUOUS
 10
374.9333768035
 20
252.0678647473
 11
375.1104614879
 21
252.6104178741
  0
LINE
  5
488
100
AcDbEntity
  8
0
100
AcDbLine
 62
7
  6
CONTINUOUS
 10
400.5780913562
 20
337.9496612883
 11
406.3119785489
 21
352.8869481122
  0
LINE
  5
489
100
AcDbEntity
  8
0
100
AcDbLine
 62
7
  6
CONTINUOUS
 10
371.0929601766
 20
265.7516944524
 11
371.4262941457
 21
266.4325455543
  0
LINE
  5
48A
100
AcDbEntity
  8
0
100
AcDbLine
 62
7
  6
CONTINUOUS
 10
369.4437941457
 20
256.9508436485
 11
369.7979614879
 21
257.6742478176
  0
LINE
  5
48B
100
AcDbEntity
  8
0
100
AcDbLine
 62
7
  6
CONTINUOUS
 10
370.0929601766
 20
266.0921200629
 11
370.4262941457
 21
266.6027582999
  0
LINE
  5
48C
100
AcDbEntity
  8
0
100
AcDbLine
 62
7
  6
CONTINUOUS
 10
370.5062941457
 20
256.7699920996
 11
370.8604614879
 21
257.3125457331
  0
LINE
  5
48D
100
AcDbEntity
  8
0
100
AcDbLine
 62
7
  6
CONTINUOUS
 10
367.1417114879
 20
254.9614816769
 11
367.6729614879
 21
255.684885846
  0
LINE
  5
48E
100
AcDbEntity
  8
0
100
AcDbLine
 62
7
  6
CONTINUOUS
 10
353.3462941457
 20
240.4172264656
 11
357.5962941457
 21
245.3002051135
  0
LINE
  5
48F
100
AcDbEntity
  8
0
100
AcDbLine
 62
7
  6
CONTINUOUS
 10
370.4262941457
 20
265.0708434101
 11
371.0929601766
 21
265.7516944524
  0
LINE
  5
490
100
AcDbEntity
  8
0
100
AcDbLine
 62
7
  6
CONTINUOUS
 10
361.5929611303
 20
265.7516944524
 11
362.0929611303
 21
266.0921200629
  0
LINE
  5
491
100
AcDbEntity
  8
0
100
AcDbLine
 62
7
  6
CONTINUOUS
 10
369.5929601766
 20
265.7516944524
 11
370.0929601766
 21
266.0921200629
  0
LINE
  5
492
100
AcDbEntity
  8
0
100
AcDbLine
 62
7
  6
CONTINUOUS
 10
361.7596271612
 20
264.7304178741
 11
362.4262941457
 21
265.0708434101
  0
LINE
  5
493
100
AcDbEntity
  8
0
100
AcDbLine
 62
7
  6
CONTINUOUS
 10
369.7596281149
 20
264.7304178741
 11
370.4262941457
 21
265.0708434101
  0
LINE
  5
494
100
AcDbEntity
  8
0
100
AcDbLine
 62
7
  6
CONTINUOUS
 10
320.948421811
 20
300.9877047559
 11
320.1824644555
 21
300.8002054711
  0
LINE
  5
495
100
AcDbEntity
  8
0
100
AcDbLine
 62
7
  6
CONTINUOUS
 10
320.1824644555
 20
299.6752049347
 11
321.1399111499
 21
299.8627052923
  0
LINE
  5
496
100
AcDbEntity
  8
0
100
AcDbLine
 62
7
  6
CONTINUOUS
 10
320.1824644555
 20
306.4252054711
 11
314.2462941457
 21
306.4252054711
  0
LINE
  5
497
100
AcDbEntity
  8
0
100
AcDbLine
 62
7
  6
CONTINUOUS
 10
314.2462941457
 20
307.9252051135
 11
323.2462941457
 21
307.9252051135
  0
LINE
  5
498
100
AcDbEntity
  8
0
100
AcDbLine
 62
7
  6
CONTINUOUS
 10
322.0973579784
 20
309.0502051135
 11
315.395230179
 21
309.0502051135
  0
LINE
  5
499
100
AcDbEntity
  8
0
100
AcDbLine
 62
7
  6
CONTINUOUS
 10
408.0013855693
 20
311.327497456
 11
406.4905499989
 21
311.327497456
  0
LINE
  5
49A
100
AcDbEntity
  8
0
100
AcDbLine
 62
7
  6
CONTINUOUS
 10
399.5623467686
 20
311.327497456
 11
398.0515111983
 21
311.327497456
  0
LINE
  5
49B
100
AcDbEntity
  8
0
100
AcDbLine
 62
7
  6
CONTINUOUS
 10
321.1399111499
 20
315.2377051135
 11
320.1824644555
 21
315.4252043983
  0
LINE
  5
49C
100
AcDbEntity
  8
0
100
AcDbLine
 62
7
  6
CONTINUOUS
 10
390.6762941457
 20
284.8802051135
 11
390.6762941457
 21
279.6302051135
  0
LINE
  5
49D
100
AcDbEntity
  8
0
100
AcDbLine
 62
7
  6
CONTINUOUS
 10
390.6762941457
 20
229.1302051135
 11
390.6762941457
 21
223.8802051135
  0
LINE
  5
49E
100
AcDbEntity
  8
RUNDUNGEN
100
AcDbLine
 62
7
  6
CONTINUOUS
 10
390.6762941457
 20
232.3802051135
 11
390.6762941457
 21
276.3802051135
  0
LINE
  5
49F
100
AcDbEntity
  8
KONSTRUKTIONSELEMENTE
100
AcDbLine
 62
7
  6
CONTINUOUS
 10
393.1762941457
 20
276.6302051135
 11
393.1762941457
 21
348.434703244
  0
LINE
  5
4A0
100
AcDbEntity
  8
RUNDUNGEN
100
AcDbLine
 62
7
  6
CONTINUOUS
 10
393.1762941457
 20
314.1302051135
 11
393.1762941457
 21
351.9693394956
  0
LINE
  5
4A1
100
AcDbEntity
  8
0
100
AcDbLine
 62
7
  6
CONTINUOUS
 10
367.1417114879
 20
251.1636093459
 11
367.6729614879
 21
251.8870135783
  0
LINE
  5
4A2
100
AcDbEntity
  8
0
100
AcDbLine
 62
7
  6
CONTINUOUS
 10
354.5858774368
 20
240.4172264656
 11
357.5962941457
 21
243.8533967753
  0
LINE
  5
4A3
100
AcDbEntity
  8
0
100
AcDbLine
 62
7
  6
CONTINUOUS
 10
366.2562941457
 20
255.5040348037
 11
366.6104614879
 21
255.8657368883
  0
LINE
  5
4A4
100
AcDbEntity
  8
0
100
AcDbLine
 62
7
  6
CONTINUOUS
 10
369.7979614879
 20
257.6742478176
 11
370.5062941457
 21
258.3976519867
  0
LINE
  5
4A5
100
AcDbEntity
  8
0
100
AcDbLine
 62
7
  6
CONTINUOUS
 10
366.2562941457
 20
251.7061625361
 11
366.6104614879
 21
252.0678647473
  0
LINE
  5
4A6
100
AcDbEntity
  8
0
100
AcDbLine
 62
7
  6
CONTINUOUS
 10
366.4333768035
 20
250.6210561716
 11
367.1417114879
 21
251.1636093459
  0
LINE
  5
4A7
100
AcDbEntity
  8
0
100
AcDbLine
 62
7
  6
CONTINUOUS
 10
370.8604614879
 20
257.3125457331
 11
371.3917114879
 21
257.6742478176
  0
LINE
  5
4A8
100
AcDbEntity
  8
0
100
AcDbLine
 62
7
  6
CONTINUOUS
 10
370.5062941457
 20
258.3976519867
 11
371.2146268035
 21
258.7593540712
  0
LINE
  5
4A9
100
AcDbEntity
  8
0
100
AcDbLine
 62
7
  6
CONTINUOUS
 10
366.7875441457
 20
254.7806306347
 11
367.1417114879
 21
254.9614816769
  0
LINE
  5
4AA
100
AcDbEntity
  8
0
100
AcDbLine
 62
7
  6
CONTINUOUS
 10
317.3101241042
 20
314.3002043983
 11
320.1824644555
 21
314.3002043983
  0
LINE
  5
4AB
100
AcDbEntity
  8
0
100
AcDbLine
 62
7
  6
CONTINUOUS
 10
320.1824644555
 20
315.4252043983
 11
317.3101241042
 21
315.4252043983
  0
LINE
  5
4AC
100
AcDbEntity
  8
0
100
AcDbLine
 62
7
  6
CONTINUOUS
 10
403.7764483838
 20
318.827497456
 11
402.2656128134
 21
318.827497456
  0
LINE
  5
4AD
100
AcDbEntity
  8
0
100
AcDbLine
 62
7
  6
CONTINUOUS
 10
408.0013855693
 20
319.827497456
 11
406.4905499989
 21
319.827497456
  0
LINE
  5
4AE
100
AcDbEntity
  8
0
100
AcDbLine
 62
7
  6
CONTINUOUS
 10
399.5623467686
 20
319.827497456
 11
398.0515111983
 21
319.827497456
  0
LINE
  5
4AF
100
AcDbEntity
  8
0
100
AcDbLine
 62
7
  6
CONTINUOUS
 10
402.2656128134
 20
318.827497456
 11
402.2656128134
 21
315.91119401
  0
LINE
  5
4B0
100
AcDbEntity
  8
0
100
AcDbLine
 62
7
  6
CONTINUOUS
 10
375.2875441457
 20
250.9827583037
 11
375.9958768035
 21
251.7061625361
  0
LINE
  5
4B1
100
AcDbEntity
  8
0
100
AcDbLine
 62
7
  6
CONTINUOUS
 10
374.4021268035
 20
251.7061625361
 11
374.9333768035
 21
252.0678647473
  0
LINE
  5
4B2
100
AcDbEntity
  8
0
100
AcDbLine
 62
7
  6
CONTINUOUS
 10
374.5792114879
 20
250.6210561716
 11
375.2875441457
 21
250.9827583037
  0
LINE
  5
4B3
100
AcDbEntity
  8
0
100
AcDbLine
 62
7
  6
CONTINUOUS
 10
365.7250441457
 20
255.3231837615
 11
366.2562941457
 21
255.5040348037
  0
LINE
  5
4B4
100
AcDbEntity
  8
0
100
AcDbLine
 62
7
  6
CONTINUOUS
 10
365.7250441457
 20
251.5253114938
 11
366.2562941457
 21
251.7061625361
  0
LINE
  5
4B5
100
AcDbEntity
  8
0
100
AcDbLine
 62
7
  6
CONTINUOUS
 10
316.5441667487
 20
314.1127051135
 11
317.3101241042
 21
314.3002043983
  0
LINE
  5
4B6
100
AcDbEntity
  8
0
100
AcDbLine
 62
7
  6
CONTINUOUS
 10
317.3101241042
 20
315.4252043983
 11
316.3526768734
 21
315.2377051135
  0
LINE
  5
4B7
100
AcDbEntity
  8
0
100
AcDbLine
 62
7
  6
CONTINUOUS
 10
408.0258069977
 20
310.7679167084
 11
408.0013855693
 21
311.327497456
  0
LINE
  5
4B8
100
AcDbEntity
  8
0
100
AcDbLine
 62
7
  6
CONTINUOUS
 10
408.0258069977
 20
319.2679167084
 11
408.0013855693
 21
319.827497456
  0
LINE
  5
4B9
100
AcDbEntity
  8
0
100
AcDbLine
 62
7
  6
CONTINUOUS
 10
403.7764483838
 20
315.9087988732
 11
403.7764483838
 21
318.827497456
  0
LINE
  5
4BA
100
AcDbEntity
  8
0
100
AcDbLine
 62
7
  6
CONTINUOUS
 10
407.7739498232
 20
347.5032793474
 11
407.7739498232
 21
329.0635161284
  0
LINE
  5
4BB
100
AcDbEntity
  8
0
100
AcDbLine
 62
7
  6
CONTINUOUS
 10
412.1762941457
 20
356.354788105
 11
412.1762941457
 21
348.2385807953
  0
LINE
  5
4BC
100
AcDbEntity
  8
RUNDUNGEN
100
AcDbLine
 62
7
  6
CONTINUOUS
 10
412.1762941457
 20
356.354788105
 11
412.1762941457
 21
265.1302051135
  0
LINE
  5
4BD
100
AcDbEntity
  8
0
100
AcDbLine
 62
7
  6
CONTINUOUS
 10
407.7739498232
 20
329.0635161284
 11
400.5780913562
 21
337.9496612883
  0
LINE
  5
4BE
100
AcDbEntity
  8
0
100
AcDbLine
 62
7
  6
CONTINUOUS
 10
406.3119785489
 20
352.8869481122
 11
394.9143287324
 21
376.255593316
  0
LINE
  5
4BF
100
AcDbEntity
  8
BEZUGSACHSEN
100
AcDbLine
 62
7
  6
CONTINUOUS
 10
371.1762941457
 20
184.8802051135
 11
374.1762941457
 21
187.8802051135
  0
LINE
  5
4C0
100
AcDbEntity
  8
0
100
AcDbLine
 62
7
  6
CONTINUOUS
 10
400.1006669453
 20
373.2628138759
 11
396.3740047957
 21
373.2628138759
  0
LINE
  5
4C1
100
AcDbEntity
  8
0
100
AcDbLine
 62
7
  6
CONTINUOUS
 10
321.2519213462
 20
373.2628138759
 11
324.9785834958
 21
373.2628138759
  0
LINE
  5
4C2
100
AcDbEntity
  8
0
100
AcDbLine
 62
7
  6
CONTINUOUS
 10
360.6762941457
 20
387.3802051135
 11
394.9143287324
 21
376.255593316
  0
LWPOLYLINE
  5
4C3
100
AcDbEntity
  8
0
100
AcDbPolyline
 62
7
  6
CONTINUOUS
 90
18
 70
0
 10
255.4574626949
 20
52.284668587
 10
255.5927768181
 20
52.28564199
 10
256.2969011559
 20
52.3222001557
 10
256.9895346462
 20
52.4102623837
 10
257.66601376
 20
52.5475563531
 10
258.3223687172
 20
52.7313915571
 10
258.9550753389
 20
52.9587294114
 10
259.56088003
 20
53.2261621947
 10
260.1374876376
 20
53.5302862615
 10
260.6834674034
 20
53.8679228483
 10
261.1954829846
 20
54.2342755545
 10
261.6714703301
 20
54.6245490589
 10
262.1100516354
 20
55.033769088
 10
262.5104276074
 20
55.4567755187
 10
262.8728056771
 20
55.8888234853
 10
263.1980313692
 20
56.3254690386
 10
263.4868652967
 20
56.761640173
 10
263.6222142813
 20
56.9851171912
  0
LINE
  5
4C4
100
AcDbEntity
  8
0
100
AcDbLine
 62
7
  6
CONTINUOUS
 10
255.4574652588
 20
52.2846686499
 11
254.4210253629
 21
52.2846686499
  0
LINE
  5
4C5
100
AcDbEntity
  8
KONSTRUKTIONSELEMENTE
100
AcDbLine
 62
7
  6
CONTINUOUS
 10
255.4574652588
 20
52.2846686499
 11
254.4210253629
 21
52.2846686499
  0
LINE
  5
4C6
100
AcDbEntity
  8
0
100
AcDbLine
 62
7
  6
CONTINUOUS
 10
246.4392453109
 20
56.4345144118
 11
245.9392453109
 21
56.4345144118
  0
LINE
  5
4C7
100
AcDbEntity
  8
0
100
AcDbLine
 62
7
  6
CONTINUOUS
 10
246.4392453109
 20
56.4595772263
 11
245.9392453109
 21
56.4595772263
  0
LINE
  5
4C8
100
AcDbEntity
  8
0
100
AcDbLine
 62
7
  6
CONTINUOUS
 10
245.9930654299
 20
57.9704127967
 11
245.9392453109
 21
57.9704127967
  0
LINE
  5
4C9
100
AcDbEntity
  8
0
100
AcDbLine
 62
7
  6
CONTINUOUS
 10
245.9641123988
 20
58.1489842467
 11
245.8552232271
 21
58.1489842467
  0
LINE
  5
4CA
100
AcDbEntity
  8
0
100
AcDbLine
 62
7
  6
CONTINUOUS
 10
263.914378223
 20
58.1489842467
 11
264.0232673947
 21
58.1489842467
  0
LINE
  5
4CB
100
AcDbEntity
  8
BEZUGSACHSEN
100
AcDbLine
 62
7
  6
CONTINUOUS
 10
207.1035647925
 20
124.2846686499
 11
195.2678842741
 21
103.7846686499
  0
LINE
  5
4CC
100
AcDbEntity
  8
0
100
AcDbLine
 62
7
  6
CONTINUOUS
 10
248.4109932922
 20
153.1120306234
 11
246.4392453109
 21
151.9736413956
  0
LINE
  5
4CD
100
AcDbEntity
  8
0
100
AcDbLine
 62
7
  6
CONTINUOUS
 10
201.2264332826
 20
107.0292884057
 11
200.8472928953
 21
104.5582051277
  0
LINE
  5
4CE
100
AcDbEntity
  8
0
100
AcDbLine
 62
7
  6
CONTINUOUS
 10
201.467840329
 20
105.0953077893
 11
201.7679931205
 21
107.0515819528
  0
LINE
  5
4CF
100
AcDbEntity
  8
0
100
AcDbLine
 62
7
  6
CONTINUOUS
 10
203.3452804258
 20
106.8095774339
 11
203.0451276342
 21
104.8533032704
  0
LINE
  5
4D0
100
AcDbEntity
  8
0
100
AcDbLine
 62
7
  6
CONTINUOUS
 10
203.6760424385
 20
104.7565014809
 11
203.9446002053
 21
106.5068520871
  0
LINE
  5
4D1
100
AcDbEntity
  8
0
100
AcDbLine
 62
7
  6
CONTINUOUS
 10
201.4105733457
 20
107.5279638885
 11
201.2264332826
 21
107.0292884057
  0
LINE
  5
4D2
100
AcDbEntity
  8
0
100
AcDbLine
 62
7
  6
CONTINUOUS
 10
201.7679931205
 20
107.0515819528
 11
201.9205381363
 21
107.344333731
  0
LINE
  5
4D3
100
AcDbEntity
  8
0
100
AcDbLine
 62
7
  6
CONTINUOUS
 10
204.1746352899
 20
114.2499405759
 11
203.8679872322
 21
113.7053379972
  0
LINE
  5
4D4
100
AcDbEntity
  8
0
100
AcDbLine
 62
7
  6
CONTINUOUS
 10
202.6413950017
 20
111.5269276823
 11
202.3347467978
 21
110.9823248439
  0
LINE
  5
4D5
100
AcDbEntity
  8
0
100
AcDbLine
 62
7
  6
CONTINUOUS
 10
207.8116162349
 20
117.9391549501
 11
205.8825246125
 21
116.3489959918
  0
LINE
  5
4D6
100
AcDbEntity
  8
0
100
AcDbLine
 62
7
  6
CONTINUOUS
 10
206.7707955016
 20
116.2540017589
 11
208.2176142184
 21
117.4466209776
  0
LINE
  5
4D7
100
AcDbEntity
  8
0
100
AcDbLine
 62
7
  6
CONTINUOUS
 10
245.4392453109
 20
69.5466340632
 11
244.8757764776
 21
69.5466340632
  0
LINE
  5
4D8
100
AcDbEntity
  8
0
100
AcDbLine
 62
7
  6
CONTINUOUS
 10
264.4392453109
 20
69.5466340632
 11
265.0027141442
 21
69.5466340632
  0
LINE
  5
4D9
100
AcDbEntity
  8
KONSTRUKTIONSELEMENTE
100
AcDbLine
 62
7
  6
CONTINUOUS
 10
248.4106872298
 20
54.4574833816
 11
246.4392453109
 21
55.5956959041
  0
LINE
  5
4DA
100
AcDbEntity
  8
BEZUGSACHSEN
100
AcDbLine
 62
7
  6
CONTINUOUS
 10
195.2678842741
 20
103.7846686499
 11
207.1035647925
 21
83.2846686499
  0
LINE
  5
4DB
100
AcDbEntity
  8
0
100
AcDbLine
 62
7
  6
CONTINUOUS
 10
207.2371990013
 20
111.4496109904
 11
207.2692716379
 21
111.0729188488
  0
LINE
  5
4DC
100
AcDbEntity
  8
0
100
AcDbLine
 62
7
  6
CONTINUOUS
 10
207.8765693106
 20
110.85051312
 11
207.8956048217
 21
111.3179725083
  0
LINE
  5
4DD
100
AcDbEntity
  8
0
100
AcDbLine
 62
7
  6
CONTINUOUS
 10
205.7894594512
 20
103.7999243531
 11
205.8842445481
 21
104.4176951726
  0
LINE
  5
4DE
100
AcDbEntity
  8
0
100
AcDbLine
 62
7
  6
CONTINUOUS
 10
206.2791824364
 20
106.9917401556
 11
206.3897650795
 21
107.7124729747
  0
LINE
  5
4DF
100
AcDbEntity
  8
0
100
AcDbLine
 62
7
  6
CONTINUOUS
 10
207.2692716379
 20
111.0729188488
 11
207.1575378022
 21
110.657654882
  0
LINE
  5
4E0
100
AcDbEntity
  8
0
100
AcDbLine
 62
7
  6
CONTINUOUS
 10
210.945588498
 20
115.2835688893
 11
210.8397847537
 21
114.9206209712
  0
LINE
  5
4E1
100
AcDbEntity
  8
0
100
AcDbLine
 62
7
  6
CONTINUOUS
 10
207.7137276684
 20
110.3444823984
 11
207.8765693106
 21
110.85051312
  0
LINE
  5
4E2
100
AcDbEntity
  8
0
100
AcDbLine
 62
7
  6
CONTINUOUS
 10
211.3261622095
 20
114.4943440771
 11
211.5123444944
 21
114.9235483298
  0
LINE
  5
4E3
100
AcDbEntity
  8
0
100
AcDbLine
 62
7
  6
CONTINUOUS
 10
207.1575378022
 20
110.657654882
 11
206.9531056663
 21
110.2945863231
  0
LINE
  5
4E4
100
AcDbEntity
  8
0
100
AcDbLine
 62
7
  6
CONTINUOUS
 10
207.5092955325
 20
109.9814138395
 11
207.7137276684
 21
110.3444823984
  0
LINE
  5
4E5
100
AcDbEntity
  8
0
100
AcDbLine
 62
7
  6
CONTINUOUS
 10
210.8397847537
 20
114.9206209712
 11
210.5859361206
 21
114.5735057354
  0
LINE
  5
4E6
100
AcDbEntity
  8
0
100
AcDbLine
 62
7
  6
CONTINUOUS
 10
210.9919341514
 20
114.0809717054
 11
211.3261622095
 21
114.4943440771
  0
LINE
  5
4E7
100
AcDbEntity
  8
0
100
AcDbLine
 62
7
  6
CONTINUOUS
 10
207.1610572736
 20
109.5797739428
 11
207.5092955325
 21
109.9814138395
  0
LINE
  5
4E8
100
AcDbEntity
  8
0
100
AcDbLine
 62
7
  6
CONTINUOUS
 10
206.9531056663
 20
110.2945863231
 11
206.6559755226
 21
109.9837136914
  0
LINE
  5
4E9
100
AcDbEntity
  8
0
100
AcDbLine
 62
7
  6
CONTINUOUS
 10
201.7892207973
 20
107.8914101086
 11
201.4105733457
 21
107.5279638885
  0
LINE
  5
4EA
100
AcDbEntity
  8
0
100
AcDbLine
 62
7
  6
CONTINUOUS
 10
210.5859361206
 20
114.5735057354
 11
209.1391174038
 21
113.3808865167
  0
LINE
  5
4EB
100
AcDbEntity
  8
0
100
AcDbLine
 62
7
  6
CONTINUOUS
 10
209.0628425291
 20
112.4908127471
 11
210.9919341514
 21
114.0809717054
  0
LINE
  5
4EC
100
AcDbEntity
  8
0
100
AcDbLine
 62
7
  6
CONTINUOUS
 10
208.2811769601
 20
118.1883493237
 11
207.8116162349
 21
117.9391549501
  0
LINE
  5
4ED
100
AcDbEntity
  8
0
100
AcDbLine
 62
7
  6
CONTINUOUS
 10
208.2176142184
 20
117.4466209776
 11
208.6067955127
 21
117.6295582225
  0
LINE
  5
4EE
100
AcDbEntity
  8
RUNDUNGEN
100
AcDbLine
 62
7
  6
CONTINUOUS
 10
216.9392453109
 20
73.7846686499
 11
244.0770348187
 21
73.7846686499
  0
LINE
  5
4EF
100
AcDbEntity
  8
RUNDUNGEN
100
AcDbLine
 62
7
  6
CONTINUOUS
 10
265.8014558031
 20
73.7846686499
 11
275.9392453109
 21
73.7846686499
  0
LINE
  5
4F0
100
AcDbEntity
  8
0
100
AcDbLine
 62
7
  6
CONTINUOUS
 10
203.82908039
 20
107.156890317
 11
203.6819655047
 21
107.601004695
  0
LINE
  5
4F1
100
AcDbEntity
  8
0
100
AcDbLine
 62
7
  6
CONTINUOUS
 10
203.2875205068
 20
107.1345964753
 11
203.3452804258
 21
106.8095774339
  0
LINE
  5
4F2
100
AcDbEntity
  8
0
100
AcDbLine
 62
7
  6
CONTINUOUS
 10
211.5123444944
 20
114.9235483298
 11
211.5631941121
 21
115.5169305805
  0
LINE
  5
4F3
100
AcDbEntity
  8
0
100
AcDbLine
 62
7
  6
CONTINUOUS
 10
201.9205381363
 20
107.344333731
 11
202.1624381184
 21
107.5179901725
  0
LINE
  5
4F4
100
AcDbEntity
  8
0
100
AcDbLine
 62
7
  6
CONTINUOUS
 10
206.7712285129
 20
109.3210962132
 11
207.1610572736
 21
109.5797739428
  0
LINE
  5
4F5
100
AcDbEntity
  8
0
100
AcDbLine
 62
7
  6
CONTINUOUS
 10
202.2572232153
 20
108.135760992
 11
201.7892207973
 21
107.8914101086
  0
LINE
  5
4F6
100
AcDbEntity
  8
0
100
AcDbLine
 62
7
  6
CONTINUOUS
 10
226.1030219898
 20
119.0648697851
 11
226.4410939037
 21
119.2408437612
  0
LINE
  5
4F7
100
AcDbEntity
  8
0
100
AcDbLine
 62
7
  6
CONTINUOUS
 10
206.6559755226
 20
109.9837136914
 11
206.3172548284
 21
109.8158032543
  0
LINE
  5
4F8
100
AcDbEntity
  8
0
100
AcDbLine
 62
7
  6
CONTINUOUS
 10
226.5203749432
 20
119.806574566
 11
225.9485735094
 21
119.6400504705
  0
LINE
  5
4F9
100
AcDbEntity
  8
0
100
AcDbLine
 62
7
  6
CONTINUOUS
 10
203.1088106194
 20
107.3727874431
 11
203.2875205068
 21
107.1345964753
  0
LINE
  5
4FA
100
AcDbEntity
  8
0
100
AcDbLine
 62
7
  6
CONTINUOUS
 10
207.8956048217
 20
111.3179725083
 11
207.7292437243
 21
111.8898227169
  0
LINE
  5
4FB
100
AcDbEntity
  8
0
100
AcDbLine
 62
7
  6
CONTINUOUS
 10
210.903347448
 20
115.6623493748
 11
210.945588498
 21
115.2835688893
  0
LINE
  5
4FC
100
AcDbEntity
  8
0
100
AcDbLine
 62
7
  6
CONTINUOUS
 10
218.4648071109
 20
121.9512563425
 11
217.9064939901
 21
116.9825254724
  0
LINE
  5
4FD
100
AcDbEntity
  8
0
100
AcDbLine
 62
7
  6
CONTINUOUS
 10
218.5275853488
 20
116.9127363323
 11
218.9671084581
 21
120.8242905476
  0
LINE
  5
4FE
100
AcDbEntity
  8
0
100
AcDbLine
 62
7
  6
CONTINUOUS
 10
222.5019009428
 20
121.4976269318
 11
220.4502544392
 21
117.2319573135
  0
LINE
  5
4FF
100
AcDbEntity
  8
0
100
AcDbLine
 62
7
  6
CONTINUOUS
 10
220.8049211207
 20
116.6568427299
 11
222.6936566107
 21
120.4055557069
  0
LINE
  5
500
100
AcDbEntity
  8
0
100
AcDbLine
 62
7
  6
CONTINUOUS
 10
223.9410895262
 20
116.4972569164
 11
223.6802438938
 21
116.0336913634
  0
LINE
  5
501
100
AcDbEntity
  8
0
100
AcDbLine
 62
7
  6
CONTINUOUS
 10
225.9485735094
 20
119.6400504705
 11
225.6491147546
 21
119.3202807384
  0
LINE
  5
502
100
AcDbEntity
  8
0
100
AcDbLine
 62
7
  6
CONTINUOUS
 10
228.4226744952
 20
117.0272043704
 11
228.7221311722
 21
117.3469752717
  0
LINE
  5
503
100
AcDbEntity
  8
0
100
AcDbLine
 62
7
  6
CONTINUOUS
 10
228.1774416588
 20
117.6534688834
 11
227.7872027036
 21
117.3847806405
  0
LINE
  5
504
100
AcDbEntity
  8
0
100
AcDbLine
 62
7
  6
CONTINUOUS
 10
228.0846025813
 20
116.8512303943
 11
228.4226744952
 21
117.0272043704
  0
LINE
  5
505
100
AcDbEntity
  8
BEZUGSACHSEN
100
AcDbLine
 62
7
  6
CONTINUOUS
 10
207.1035647925
 20
83.2846686499
 11
230.7749258293
 21
83.2846686499
  0
LINE
  5
506
100
AcDbEntity
  8
0
100
AcDbLine
 62
7
  6
CONTINUOUS
 10
203.6819655047
 20
107.601004695
 11
203.3087481836
 21
107.974424631
  0
LINE
  5
507
100
AcDbEntity
  8
0
100
AcDbLine
 62
7
  6
CONTINUOUS
 10
207.7292437243
 20
111.8898227169
 11
207.4606663802
 21
112.2801384046
  0
LINE
  5
508
100
AcDbEntity
  8
0
100
AcDbLine
 62
7
  6
CONTINUOUS
 10
207.0613200224
 20
111.7877312337
 11
207.2371990013
 21
111.4496109904
  0
LINE
  5
509
100
AcDbEntity
  8
0
100
AcDbLine
 62
7
  6
CONTINUOUS
 10
211.5631941121
 20
115.5169305805
 11
211.4532866842
 21
115.977800119
  0
LINE
  5
50A
100
AcDbEntity
  8
0
100
AcDbLine
 62
7
  6
CONTINUOUS
 10
222.6936566107
 20
120.4055557069
 11
222.2541335014
 21
116.4940014917
  0
LINE
  5
50B
100
AcDbEntity
  8
0
100
AcDbLine
 62
7
  6
CONTINUOUS
 10
222.8752248601
 20
116.4242123516
 11
223.433537981
 21
121.3929432216
  0
LINE
  5
50C
100
AcDbEntity
  8
0
100
AcDbLine
 62
7
  6
CONTINUOUS
 10
228.2817800433
 20
117.8388953383
 11
228.1774416588
 21
117.6534688834
  0
LINE
  5
50D
100
AcDbEntity
  8
0
100
AcDbLine
 62
7
  6
CONTINUOUS
 10
226.9483809741
 20
114.1947296933
 11
227.2092266066
 21
114.6582952462
  0
LINE
  5
50E
100
AcDbEntity
  8
0
100
AcDbLine
 62
7
  6
CONTINUOUS
 10
228.7221311722
 20
117.3469752717
 11
228.8264695567
 21
117.5324017267
  0
LINE
  5
50F
100
AcDbEntity
  8
0
100
AcDbLine
 62
7
  6
CONTINUOUS
 10
231.4240853661
 20
116.8859813244
 11
231.0192126044
 21
116.5410009867
  0
LINE
  5
510
100
AcDbEntity
  8
0
100
AcDbLine
 62
7
  6
CONTINUOUS
 10
233.451324275
 20
113.6866476761
 11
233.8561970368
 21
114.0316280138
  0
LINE
  5
511
100
AcDbEntity
  8
0
100
AcDbLine
 62
7
  6
CONTINUOUS
 10
190.669428005
 20
88.2880013077
 11
191.2516354321
 21
88.2880013077
  0
LINE
  5
512
100
AcDbEntity
  8
0
100
AcDbLine
 62
7
  6
CONTINUOUS
 10
190.5657664507
 20
88.465085992
 11
191.145633947
 21
88.465085992
  0
LINE
  5
513
100
AcDbEntity
  8
0
100
AcDbLine
 62
7
  6
CONTINUOUS
 10
190.1668458398
 20
89.1734186499
 11
190.7378832578
 21
89.1734186499
  0
LINE
  5
514
100
AcDbEntity
  8
0
100
AcDbLine
 62
7
  6
CONTINUOUS
 10
189.7922585651
 20
89.8817513077
 11
190.3552484448
 21
89.8817513077
  0
LINE
  5
515
100
AcDbEntity
  8
0
100
AcDbLine
 62
7
  6
CONTINUOUS
 10
189.3567382865
 20
90.7671686499
 11
189.9106550082
 21
90.7671686499
  0
LINE
  5
516
100
AcDbEntity
  8
0
100
AcDbLine
 62
7
  6
CONTINUOUS
 10
206.7416349286
 20
112.0872801347
 11
207.0613200224
 21
111.7877312337
  0
LINE
  5
517
100
AcDbEntity
  8
0
100
AcDbLine
 62
7
  6
CONTINUOUS
 10
205.8825246125
 20
116.3489959918
 11
209.0628425291
 21
112.4908127471
  0
LINE
  5
518
100
AcDbEntity
  8
0
100
AcDbLine
 62
7
  6
CONTINUOUS
 10
209.1391174038
 20
113.3808865167
 11
206.7707955016
 21
116.2540017589
  0
LWPOLYLINE
  5
519
100
AcDbEntity
  8
KONSTRUKTIONSELEMENTE
100
AcDbPolyline
 62
7
  6
CONTINUOUS
 90
18
 70
0
 10
246.2562771679
 20
56.9851157826
 10
246.3969286241
 20
56.7531525021
 10
246.6864232327
 20
56.3169805154
 10
247.0123202655
 20
55.880431925
 10
247.3753819836
 20
55.4485636993
 10
247.7764450625
 20
55.0258216222
 10
248.2157096684
 20
54.6169492817
 10
248.6923779204
 20
54.2270975913
 10
249.2050754052
 20
53.8612336675
 10
249.7517358462
 20
53.5241521221
 10
250.3290285021
 20
53.2206445903
 10
250.935507801
 20
52.9539006311
 10
251.5688648687
 20
52.7273298431
 10
252.2258412268
 20
52.544340106
 10
252.9029052366
 20
52.4079709657
 10
253.5960788035
 20
52.3209132893
 10
254.3006904198
 20
52.2854384304
 10
254.4210279171
 20
52.284668587
  0
LINE
  5
51A
100
AcDbEntity
  8
0
100
AcDbLine
 62
7
  6
CONTINUOUS
 10
211.4532866842
 20
115.977800119
 11
211.1953335423
 21
116.4545014666
  0
LINE
  5
51B
100
AcDbEntity
  8
0
100
AcDbLine
 62
7
  6
CONTINUOUS
 10
210.7130606367
 20
116.056961727
 11
210.903347448
 21
115.6623493748
  0
LINE
  5
51C
100
AcDbEntity
  8
0
100
AcDbLine
 62
7
  6
CONTINUOUS
 10
228.8264695567
 20
117.5324017267
 11
228.9443658331
 21
117.9543356063
  0
LINE
  5
51D
100
AcDbEntity
  8
0
100
AcDbLine
 62
7
  6
CONTINUOUS
 10
188.6594303197
 20
92.3609186499
 11
189.1994195014
 21
92.3609186499
  0
LINE
  5
51E
100
AcDbEntity
  8
0
100
AcDbLine
 62
7
  6
CONTINUOUS
 10
188.4598421786
 20
92.868002619
 11
188.9959741572
 21
92.868002619
  0
LINE
  5
51F
100
AcDbEntity
  8
0
100
AcDbLine
 62
7
  6
CONTINUOUS
 10
188.3965141872
 20
93.0346686499
 11
188.9314339005
 21
93.0346686499
  0
LINE
  5
520
100
AcDbEntity
  8
0
100
AcDbLine
 62
7
  6
CONTINUOUS
 10
188.2731840397
 20
93.368002619
 11
188.8057587015
 21
93.368002619
  0
LINE
  5
521
100
AcDbEntity
  8
0
100
AcDbLine
 62
7
  6
CONTINUOUS
 10
188.0396345868
 20
94.0346686499
 11
188.5678248318
 21
94.0346686499
  0
LINE
  5
522
100
AcDbEntity
  8
0
100
AcDbLine
 62
7
  6
CONTINUOUS
 10
187.8232180406
 20
94.7013346807
 11
188.3474100426
 21
94.7013346807
  0
LINE
  5
523
100
AcDbEntity
  8
0
100
AcDbLine
 62
7
  6
CONTINUOUS
 10
187.576215835
 20
95.5346686499
 11
188.0959185263
 21
95.5346686499
  0
LINE
  5
524
100
AcDbEntity
  8
0
100
AcDbLine
 62
7
  6
CONTINUOUS
 10
202.8091507184
 20
107.5241500429
 11
203.1088106194
 21
107.3727874431
  0
LINE
  5
525
100
AcDbEntity
  8
0
100
AcDbLine
 62
7
  6
CONTINUOUS
 10
203.3087481836
 20
107.974424631
 11
203.0090882826
 21
108.1257872308
  0
LINE
  5
526
100
AcDbEntity
  8
0
100
AcDbLine
 62
7
  6
CONTINUOUS
 10
202.3347467978
 20
110.9823248439
 11
205.2083944942
 21
109.3642669814
  0
LINE
  5
527
100
AcDbEntity
  8
0
100
AcDbLine
 62
7
  6
CONTINUOUS
 10
205.515042698
 20
109.9088698198
 11
202.6413950017
 21
111.5269276823
  0
LINE
  5
528
100
AcDbEntity
  8
0
100
AcDbLine
 62
7
  6
CONTINUOUS
 10
207.4606663802
 20
112.2801384046
 11
207.0482829862
 21
112.6318827134
  0
LINE
  5
529
100
AcDbEntity
  8
0
100
AcDbLine
 62
7
  6
CONTINUOUS
 10
209.6980655831
 20
117.2882967733
 11
210.7130606367
 21
116.056961727
  0
LINE
  5
52A
100
AcDbEntity
  8
0
100
AcDbLine
 62
7
  6
CONTINUOUS
 10
211.1953335423
 20
116.4545014666
 11
210.1803384887
 21
117.6858365129
  0
LINE
  5
52B
100
AcDbEntity
  8
0
100
AcDbLine
 62
7
  6
CONTINUOUS
 10
218.9671084581
 20
120.8242905476
 11
219.9767977295
 21
116.7498950942
  0
LINE
  5
52C
100
AcDbEntity
  8
0
100
AcDbLine
 62
7
  6
CONTINUOUS
 10
220.4502544392
 20
117.2319573135
 11
219.396444149
 21
121.8465726323
  0
LINE
  5
52D
100
AcDbEntity
  8
0
100
AcDbLine
 62
7
  6
CONTINUOUS
 10
228.2567249223
 20
118.2191987787
 11
228.2817800433
 21
117.8388953383
  0
LINE
  5
52E
100
AcDbEntity
  8
0
100
AcDbLine
 62
7
  6
CONTINUOUS
 10
186.7368033566
 20
99.5346686499
 11
187.2418127619
 21
99.5346686499
  0
LINE
  5
52F
100
AcDbEntity
  8
0
100
AcDbLine
 62
7
  6
CONTINUOUS
 10
186.5790237422
 20
100.8680016653
 11
187.0813643797
 21
100.8680016653
  0
LINE
  5
530
100
AcDbEntity
  8
0
100
AcDbLine
 62
7
  6
CONTINUOUS
 10
200.8472928953
 20
104.5582051277
 11
205.7894594512
 21
103.7999243531
  0
LINE
  5
531
100
AcDbEntity
  8
0
100
AcDbLine
 62
7
  6
CONTINUOUS
 10
205.8842445481
 20
104.4176951726
 11
203.6760424385
 21
104.7565014809
  0
LINE
  5
532
100
AcDbEntity
  8
0
100
AcDbLine
 62
7
  6
CONTINUOUS
 10
203.0451276342
 20
104.8533032704
 11
201.467840329
 21
105.0953077893
  0
LINE
  5
533
100
AcDbEntity
  8
0
100
AcDbLine
 62
7
  6
CONTINUOUS
 10
205.2083944942
 20
109.3642669814
 11
205.7229941024
 21
109.1940572118
  0
LINE
  5
534
100
AcDbEntity
  8
0
100
AcDbLine
 62
7
  6
CONTINUOUS
 10
203.8679872322
 20
113.7053379972
 11
206.7416349286
 21
112.0872801347
  0
LINE
  5
535
100
AcDbEntity
  8
0
100
AcDbLine
 62
7
  6
CONTINUOUS
 10
207.0482829862
 20
112.6318827134
 11
204.1746352899
 21
114.2499405759
  0
LINE
  5
536
100
AcDbEntity
  8
0
100
AcDbLine
 62
7
  6
CONTINUOUS
 10
209.3470217498
 20
117.5503963844
 11
209.6980655831
 21
117.2882967733
  0
LINE
  5
537
100
AcDbEntity
  8
0
100
AcDbLine
 62
7
  6
CONTINUOUS
 10
210.1803384887
 20
117.6858365129
 11
209.7616281353
 21
118.0300253494
  0
LINE
  5
538
100
AcDbEntity
  8
0
100
AcDbLine
 62
7
  6
CONTINUOUS
 10
186.4995280377
 20
101.8680016653
 11
187.0005347897
 21
101.8680016653
  0
LINE
  5
539
100
AcDbEntity
  8
0
100
AcDbLine
 62
7
  6
CONTINUOUS
 10
186.4894916173
 20
102.0346686499
 11
186.9903304724
 21
102.0346686499
  0
LINE
  5
53A
100
AcDbEntity
  8
0
100
AcDbLine
 62
7
  6
CONTINUOUS
 10
186.4721638186
 20
102.3680016653
 11
186.9727130681
 21
102.3680016653
  0
LINE
  5
53B
100
AcDbEntity
  8
0
100
AcDbLine
 62
7
  6
CONTINUOUS
 10
186.4530234781
 20
102.8680016653
 11
186.9532532206
 21
102.8680016653
  0
LINE
  5
53C
100
AcDbEntity
  8
0
100
AcDbLine
 62
7
  6
CONTINUOUS
 10
186.4402698724
 20
103.5346686499
 11
186.9402869956
 21
103.5346686499
  0
LINE
  5
53D
100
AcDbEntity
  8
0
100
AcDbLine
 62
7
  6
CONTINUOUS
 10
245.4392453109
 20
103.7846686499
 11
245.1039940443
 21
103.7846686499
  0
LINE
  5
53E
100
AcDbEntity
  8
0
100
AcDbLine
 62
7
  6
CONTINUOUS
 10
264.4392453109
 20
103.7846686499
 11
264.7744965774
 21
103.7846686499
  0
LINE
  5
53F
100
AcDbEntity
  8
0
100
AcDbLine
 62
7
  6
CONTINUOUS
 10
186.4420915318
 20
104.2013356344
 11
186.9421389734
 21
104.2013356344
  0
LINE
  5
540
100
AcDbEntity
  8
0
100
AcDbLine
 62
7
  6
CONTINUOUS
 10
186.458490898
 20
104.8680016653
 11
186.9588118654
 21
104.8680016653
  0
LINE
  5
541
100
AcDbEntity
  8
0
100
AcDbLine
 62
7
  6
CONTINUOUS
 10
186.4803704702
 20
105.3680016653
 11
186.9810568382
 21
105.3680016653
  0
LINE
  5
542
100
AcDbEntity
  8
0
100
AcDbLine
 62
7
  6
CONTINUOUS
 10
186.4995280377
 20
105.7013356344
 11
187.0005347897
 21
105.7013356344
  0
LINE
  5
543
100
AcDbEntity
  8
0
100
AcDbLine
 62
7
  6
CONTINUOUS
 10
186.5104805718
 20
105.8680016653
 11
187.0116706756
 21
105.8680016653
  0
LINE
  5
544
100
AcDbEntity
  8
0
100
AcDbLine
 62
7
  6
CONTINUOUS
 10
202.4936930216
 20
107.5725509828
 11
202.8091507184
 21
107.5241500429
  0
LINE
  5
545
100
AcDbEntity
  8
0
100
AcDbLine
 62
7
  6
CONTINUOUS
 10
203.0090882826
 20
108.1257872308
 11
202.5884781185
 21
108.1903218023
  0
LINE
  5
546
100
AcDbEntity
  8
0
100
AcDbLine
 62
7
  6
CONTINUOUS
 10
205.9369437136
 20
109.7908549387
 11
205.515042698
 21
109.9088698198
  0
LINE
  5
547
100
AcDbEntity
  8
0
100
AcDbLine
 62
7
  6
CONTINUOUS
 10
228.2938664964
 20
112.8502910537
 11
228.6992184415
 21
112.374565502
  0
LINE
  5
548
100
AcDbEntity
  8
0
100
AcDbLine
 62
7
  6
CONTINUOUS
 10
228.088718404
 20
118.5578717797
 11
228.2567249223
 21
118.2191987787
  0
LINE
  5
549
100
AcDbEntity
  8
0
100
AcDbLine
 62
7
  6
CONTINUOUS
 10
228.9443658331
 20
117.9543356063
 11
228.7899152749
 21
118.5295174609
  0
LINE
  5
54A
100
AcDbEntity
  8
KONSTRUKTIONSELEMENTE
100
AcDbLine
 62
7
  6
CONTINUOUS
 10
244.3372791539
 20
66.855884731
 11
244.391726531
 21
65.9079800084
  0
LWPOLYLINE
  5
54B
100
AcDbEntity
  8
KONSTRUKTIONSELEMENTE
100
AcDbPolyline
 62
7
  6
CONTINUOUS
 90
3
 70
0
 10
244.2512909871
 20
68.6436616729
 10
244.2790633046
 20
68.0209259747
 10
244.3372791539
 20
66.855884731
  0
LINE
  5
54C
100
AcDbEntity
  8
0
100
AcDbLine
 62
7
  6
CONTINUOUS
 10
244.2512418783
 20
138.9245307308
 11
244.198725696
 21
137.5976716869
  0
LINE
  5
54D
100
AcDbEntity
  8
0
100
AcDbLine
 62
7
  6
CONTINUOUS
 10
244.3076577498
 20
140.1424469114
 11
244.2512418783
 21
138.9245307308
  0
LWPOLYLINE
  5
54E
100
AcDbEntity
  8
0
100
AcDbPolyline
 62
7
  6
CONTINUOUS
 90
3
 70
0
 10
244.3917264679
 20
141.6613562627
 10
244.3674921346
 20
141.2545479491
 10
244.3076577498
 20
140.1424469114
  0
LINE
  5
54F
100
AcDbEntity
  8
BEZUGSACHSEN
100
AcDbLine
 62
7
  6
CONTINUOUS
 10
230.7749258293
 20
83.2846686499
 11
242.6106063476
 21
103.7846686499
  0
LINE
  5
550
100
AcDbEntity
  8
0
100
AcDbLine
 62
7
  6
CONTINUOUS
 10
186.595497115
 20
106.8680021421
 11
187.0981150612
 21
106.8680021421
  0
LINE
  5
551
100
AcDbEntity
  8
0
100
AcDbLine
 62
7
  6
CONTINUOUS
 10
186.7607255168
 20
108.2013351576
 11
187.2661420529
 21
108.2013351576
  0
LINE
  5
552
100
AcDbEntity
  8
0
100
AcDbLine
 62
7
  6
CONTINUOUS
 10
186.7855879191
 20
108.3680021421
 11
187.2914282901
 21
108.3680021421
  0
LINE
  5
553
100
AcDbEntity
  8
0
100
AcDbLine
 62
7
  6
CONTINUOUS
 10
186.8113927488
 20
108.5346686499
 11
187.3176737793
 21
108.5346686499
  0
LINE
  5
554
100
AcDbEntity
  8
0
100
AcDbLine
 62
7
  6
CONTINUOUS
 10
186.8944870326
 20
109.0346686499
 11
187.4021923096
 21
109.0346686499
  0
LINE
  5
555
100
AcDbEntity
  8
0
100
AcDbLine
 62
7
  6
CONTINUOUS
 10
187.0186327263
 20
109.7013351576
 11
187.5284809985
 21
109.7013351576
  0
LINE
  5
556
100
AcDbEntity
  8
0
100
AcDbLine
 62
7
  6
CONTINUOUS
 10
187.1955484996
 20
110.5346686499
 11
187.708482406
 21
110.5346686499
  0
LINE
  5
557
100
AcDbEntity
  8
0
100
AcDbLine
 62
7
  6
CONTINUOUS
 10
205.7229941024
 20
109.1940572118
 11
206.1960034361
 21
109.1668098233
  0
LINE
  5
558
100
AcDbEntity
  8
0
100
AcDbLine
 62
7
  6
CONTINUOUS
 10
208.9832646267
 20
117.6641501014
 11
209.3470217498
 21
117.5503963844
  0
LINE
  5
559
100
AcDbEntity
  8
0
100
AcDbLine
 62
7
  6
CONTINUOUS
 10
209.7616281353
 20
118.0300253494
 11
209.3302048711
 21
118.2258678318
  0
LINE
  5
55A
100
AcDbEntity
  8
0
100
AcDbLine
 62
7
  6
CONTINUOUS
 10
223.6802438938
 20
116.0336913634
 11
226.9483809741
 21
114.1947296933
  0
LINE
  5
55B
100
AcDbEntity
  8
0
100
AcDbLine
 62
7
  6
CONTINUOUS
 10
227.2092266066
 20
114.6582952462
 11
224.667343596
 21
116.088597988
  0
LINE
  5
55C
100
AcDbEntity
  8
0
100
AcDbLine
 62
7
  6
CONTINUOUS
 10
231.0192126044
 20
116.5410009867
 11
233.0459723299
 21
114.1623732279
  0
LINE
  5
55D
100
AcDbEntity
  8
0
100
AcDbLine
 62
7
  6
CONTINUOUS
 10
233.8561970368
 20
114.0316280138
 11
231.4240853661
 21
116.8859813244
  0
LINE
  5
55E
100
AcDbEntity
  8
0
100
AcDbLine
 62
7
  6
CONTINUOUS
 10
228.7899152749
 20
118.5295174609
 11
228.5311264784
 21
118.9192731203
  0
LINE
  5
55F
100
AcDbEntity
  8
BEZUGSACHSEN
100
AcDbLine
 62
7
  6
CONTINUOUS
 10
242.6106063476
 20
103.7846686499
 11
230.7749258293
 21
124.2846686499
  0
LINE
  5
560
100
AcDbEntity
  8
KONSTRUKTIONSELEMENTE
100
AcDbLine
 62
7
  6
CONTINUOUS
 10
244.1987409879
 20
69.9712461129
 11
244.2512909871
 21
68.6436616729
  0
LWPOLYLINE
  5
561
100
AcDbEntity
  8
KONSTRUKTIONSELEMENTE
100
AcDbPolyline
 62
7
  6
CONTINUOUS
 90
10
 70
0
 10
243.701984721
 20
96.0504997286
 10
243.7231532252
 20
93.0571355397
 10
243.7525472147
 20
90.0814820076
 10
243.7901294978
 20
87.1316561847
 10
243.8358419455
 20
84.2156683778
 10
243.8896046782
 20
81.3415077069
 10
243.9513166942
 20
78.5170687168
 10
244.0208585628
 20
75.750040224
 10
244.0980916946
 20
73.0479768819
 10
244.1987409879
 20
69.9712461129
  0
LINE
  5
562
100
AcDbEntity
  8
KONSTRUKTIONSELEMENTE
100
AcDbLine
 62
7
  6
CONTINUOUS
 10
243.6892453113
 20
99.0964165935
 11
243.701984721
 21
96.0504997286
  0
LINE
  5
563
100
AcDbEntity
  8
0
100
AcDbLine
 62
7
  6
CONTINUOUS
 10
243.6892453109
 20
108.4562812879
 11
243.6892453109
 21
99.1130560118
  0
LINE
  5
564
100
AcDbEntity
  8
0
100
AcDbLine
 62
7
  6
CONTINUOUS
 10
245.4392453109
 20
64.3602958503
 11
245.4392453109
 21
143.2090414494
  0
LINE
  5
565
100
AcDbEntity
  8
0
100
AcDbLine
 62
7
  6
CONTINUOUS
 10
245.6892453109
 20
149.0654198926
 11
245.6892453109
 21
150.2146686499
  0
LINE
  5
566
100
AcDbEntity
  8
0
100
AcDbLine
 62
7
  6
CONTINUOUS
 10
245.9392453109
 20
56.4348381633
 11
245.9392453109
 21
57.9704127967
  0
LINE
  5
567
100
AcDbEntity
  8
0
100
AcDbLine
 62
7
  6
CONTINUOUS
 10
245.9392453109
 20
58.0279494008
 11
245.9392453109
 21
58.1489842467
  0
LINE
  5
568
100
AcDbEntity
  8
0
100
AcDbLine
 62
7
  6
CONTINUOUS
 10
246.4392453109
 20
151.9736413956
 11
246.4392453109
 21
150.8796085654
  0
LINE
  5
569
100
AcDbEntity
  8
KONSTRUKTIONSELEMENTE
100
AcDbLine
 62
7
  6
CONTINUOUS
 10
246.4392453109
 20
55.5956959041
 11
246.4392453109
 21
56.6893953446
  0
LWPOLYLINE
  5
56A
100
AcDbEntity
  8
0
100
AcDbPolyline
 62
7
  6
CONTINUOUS
 90
10
 70
0
 10
244.0980916946
 20
134.5213604178
 10
244.0208585628
 20
131.8192970757
 10
243.9513166942
 20
129.052268583
 10
243.8896046782
 20
126.2278295929
 10
243.8358419455
 20
123.3536689219
 10
243.7901294978
 20
120.437681115
 10
243.7525472147
 20
117.4878552921
 10
243.7231532252
 20
114.5122017601
 10
243.701984721
 20
111.5188375711
 10
243.6892453113
 20
108.4729207062
  0
LINE
  5
56B
100
AcDbEntity
  8
0
100
AcDbLine
 62
7
  6
CONTINUOUS
 10
244.198725696
 20
137.5976716869
 11
244.0980916946
 21
134.5213604178
  0
LINE
  5
56C
100
AcDbEntity
  8
0
100
AcDbLine
 62
7
  6
CONTINUOUS
 10
228.6992184415
 20
112.374565502
 11
233.451324275
 21
113.6866476761
  0
LINE
  5
56D
100
AcDbEntity
  8
0
100
AcDbLine
 62
7
  6
CONTINUOUS
 10
233.0459723299
 20
114.1623732279
 11
228.2938664964
 21
112.8502910537
  0
LINE
  5
56E
100
AcDbEntity
  8
0
100
AcDbLine
 62
7
  6
CONTINUOUS
 10
206.1960034361
 20
109.1668098233
 11
206.7712285129
 21
109.3210962132
  0
LINE
  5
56F
100
AcDbEntity
  8
0
100
AcDbLine
 62
7
  6
CONTINUOUS
 10
206.3897650795
 20
107.7124729747
 11
203.82908039
 21
107.156890317
  0
LINE
  5
570
100
AcDbEntity
  8
0
100
AcDbLine
 62
7
  6
CONTINUOUS
 10
203.9446002053
 20
106.5068520871
 11
206.2791824364
 21
106.9917401556
  0
LINE
  5
571
100
AcDbEntity
  8
0
100
AcDbLine
 62
7
  6
CONTINUOUS
 10
202.1624381184
 20
107.5179901725
 11
202.4936930216
 21
107.5725509828
  0
LINE
  5
572
100
AcDbEntity
  8
0
100
AcDbLine
 62
7
  6
CONTINUOUS
 10
202.5884781185
 20
108.1903218023
 11
202.2572232153
 21
108.135760992
  0
LINE
  5
573
100
AcDbEntity
  8
0
100
AcDbLine
 62
7
  6
CONTINUOUS
 10
206.3172548284
 20
109.8158032543
 11
205.9369437136
 21
109.7908549387
  0
LINE
  5
574
100
AcDbEntity
  8
0
100
AcDbLine
 62
7
  6
CONTINUOUS
 10
188.3965141872
 20
114.5346686499
 11
188.9314339005
 21
114.5346686499
  0
LINE
  5
575
100
AcDbEntity
  8
0
100
AcDbLine
 62
7
  6
CONTINUOUS
 10
209.3302048711
 20
118.2258678318
 11
208.738024585
 21
118.2891975732
  0
LINE
  5
576
100
AcDbEntity
  8
0
100
AcDbLine
 62
7
  6
CONTINUOUS
 10
217.9064939901
 20
116.9825254724
 11
218.5275853488
 21
116.9127363323
  0
LINE
  5
577
100
AcDbEntity
  8
0
100
AcDbLine
 62
7
  6
CONTINUOUS
 10
219.9767977295
 20
116.7498950942
 11
220.8049211207
 21
116.6568427299
  0
LINE
  5
578
100
AcDbEntity
  8
0
100
AcDbLine
 62
7
  6
CONTINUOUS
 10
222.2541335014
 20
116.4940014917
 11
222.8752248601
 21
116.4242123516
  0
LINE
  5
579
100
AcDbEntity
  8
0
100
AcDbLine
 62
7
  6
CONTINUOUS
 10
225.6491147546
 20
119.3202807384
 11
226.1030219898
 21
119.0648697851
  0
LINE
  5
57A
100
AcDbEntity
  8
0
100
AcDbLine
 62
7
  6
CONTINUOUS
 10
227.3238532531
 20
119.1103252949
 11
227.686980288
 21
118.9059958307
  0
LINE
  5
57B
100
AcDbEntity
  8
0
100
AcDbLine
 62
7
  6
CONTINUOUS
 10
228.0386060842
 20
119.3184798296
 11
227.6754811271
 21
119.5228081246
  0
LINE
  5
57C
100
AcDbEntity
  8
0
100
AcDbLine
 62
7
  6
CONTINUOUS
 10
228.5311264784
 20
118.9192731203
 11
228.0386060842
 21
119.3184798296
  0
LINE
  5
57D
100
AcDbEntity
  8
0
100
AcDbLine
 62
7
  6
CONTINUOUS
 10
227.686980288
 20
118.9059958307
 11
228.088718404
 21
118.5578717797
  0
LINE
  5
57E
100
AcDbEntity
  8
0
100
AcDbLine
 62
7
  6
CONTINUOUS
 10
227.7872027036
 20
117.3847806405
 11
223.9410895262
 21
116.4972569164
  0
LINE
  5
57F
100
AcDbEntity
  8
0
100
AcDbLine
 62
7
  6
CONTINUOUS
 10
224.667343596
 20
116.088597988
 11
228.0846025813
 21
116.8512303943
  0
LINE
  5
580
100
AcDbEntity
  8
0
100
AcDbLine
 62
7
  6
CONTINUOUS
 10
208.6067955127
 20
117.6295582225
 11
208.9832646267
 21
117.6641501014
  0
LINE
  5
581
100
AcDbEntity
  8
0
100
AcDbLine
 62
7
  6
CONTINUOUS
 10
226.4410939037
 20
119.2408437612
 11
226.8177768987
 21
119.2730231506
  0
LINE
  5
582
100
AcDbEntity
  8
0
100
AcDbLine
 62
7
  6
CONTINUOUS
 10
188.9543649554
 20
115.9130020676
 11
189.5001577075
 21
115.9130020676
  0
LINE
  5
583
100
AcDbEntity
  8
0
100
AcDbLine
 62
7
  6
CONTINUOUS
 10
190.1647995883
 20
118.3921686499
 11
190.7357924134
 21
118.3921686499
  0
LINE
  5
584
100
AcDbEntity
  8
0
100
AcDbLine
 62
7
  6
CONTINUOUS
 10
190.7724514683
 20
119.4546686499
 11
191.3570034232
 21
119.4546686499
  0
LINE
  5
585
100
AcDbEntity
  8
0
100
AcDbLine
 62
7
  6
CONTINUOUS
 10
226.9878402164
 20
119.787671297
 11
226.5203749432
 21
119.806574566
  0
LINE
  5
586
100
AcDbEntity
  8
0
100
AcDbLine
 62
7
  6
CONTINUOUS
 10
223.433537981
 20
121.3929432216
 11
222.5019009428
 21
121.4976269318
  0
LINE
  5
587
100
AcDbEntity
  8
0
100
AcDbLine
 62
7
  6
CONTINUOUS
 10
219.396444149
 20
121.8465726323
 11
218.4648071109
 21
121.9512563425
  0
LINE
  5
588
100
AcDbEntity
  8
0
100
AcDbLine
 62
7
  6
CONTINUOUS
 10
226.8177768987
 20
119.2730231506
 11
227.3238532531
 21
119.1103252949
  0
LINE
  5
589
100
AcDbEntity
  8
0
100
AcDbLine
 62
7
  6
CONTINUOUS
 10
227.6754811271
 20
119.5228081246
 11
226.9878402164
 21
119.787671297
  0
LINE
  5
58A
100
AcDbEntity
  8
0
100
AcDbLine
 62
7
  6
CONTINUOUS
 10
208.738024585
 20
118.2891975732
 11
208.2811769601
 21
118.1883493237
  0
LINE
  5
58B
100
AcDbEntity
  8
BEZUGSACHSEN
100
AcDbLine
 62
7
  6
CONTINUOUS
 10
230.7749258293
 20
124.2846686499
 11
207.1035647925
 21
124.2846686499
  0
LWPOLYLINE
  5
58C
100
AcDbEntity
  8
0
100
AcDbPolyline
 62
7
  6
CONTINUOUS
 90
10
 70
0
 10
266.1765059008
 20
111.5188375711
 10
266.1553373965
 20
114.5122017601
 10
266.1259434071
 20
117.4878552921
 10
266.0883611239
 20
120.437681115
 10
266.0426486762
 20
123.3536689219
 10
265.9888859436
 20
126.2278295929
 10
265.9271739276
 20
129.052268583
 10
265.857632059
 20
131.8192970757
 10
265.7803989272
 20
134.5213604178
 10
265.700174779
 20
137.0176162027
  0
LINE
  5
58D
100
AcDbEntity
  8
0
100
AcDbLine
 62
7
  6
CONTINUOUS
 10
266.1892453105
 20
108.4729207062
 11
266.1765059008
 21
111.5188375711
  0
LINE
  5
58E
100
AcDbEntity
  8
0
100
AcDbLine
 62
7
  6
CONTINUOUS
 10
263.4392453109
 20
151.9736413956
 11
263.4392453109
 21
150.8799419551
  0
LINE
  5
58F
100
AcDbEntity
  8
0
100
AcDbLine
 62
7
  6
CONTINUOUS
 10
263.4392453109
 20
55.5956959041
 11
263.4392453109
 21
56.6897287344
  0
LINE
  5
590
100
AcDbEntity
  8
0
100
AcDbLine
 62
7
  6
CONTINUOUS
 10
264.4392453109
 20
64.3602958503
 11
264.4392453109
 21
143.2090414494
  0
LINE
  5
591
100
AcDbEntity
  8
0
100
AcDbLine
 62
7
  6
CONTINUOUS
 10
266.1892453109
 20
99.1130560118
 11
266.1892453109
 21
108.4562812879
  0
LWPOLYLINE
  5
592
100
AcDbEntity
  8
0
100
AcDbPolyline
 62
7
  6
CONTINUOUS
 90
10
 70
0
 10
265.7803989272
 20
73.0479768819
 10
265.857632059
 20
75.750040224
 10
265.9271739276
 20
78.5170687168
 10
265.9888859436
 20
81.3415077069
 10
266.0426486762
 20
84.2156683778
 10
266.0883611239
 20
87.1316561847
 10
266.1259434071
 20
90.0814820076
 10
266.1553373965
 20
93.0571355397
 10
266.1765059008
 20
96.0504997286
 10
266.1892453105
 20
99.0964165935
  0
LINE
  5
593
100
AcDbEntity
  8
RUNDUNGEN
100
AcDbLine
 62
7
  6
CONTINUOUS
 10
275.9392453109
 20
133.7846686499
 11
265.8014558031
 21
133.7846686499
  0
LINE
  5
594
100
AcDbEntity
  8
RUNDUNGEN
100
AcDbLine
 62
7
  6
CONTINUOUS
 10
244.0770348187
 20
133.7846686499
 11
216.9392453109
 21
133.7846686499
  0
LINE
  5
595
100
AcDbEntity
  8
0
100
AcDbLine
 62
7
  6
CONTINUOUS
 10
265.5412114678
 20
140.7134525687
 11
265.4867640908
 21
141.6613572914
  0
LINE
  5
596
100
AcDbEntity
  8
0
100
AcDbLine
 62
7
  6
CONTINUOUS
 10
265.5994273171
 20
139.548411325
 11
265.5412114678
 21
140.7134525687
  0
LINE
  5
597
100
AcDbEntity
  8
0
100
AcDbLine
 62
7
  6
CONTINUOUS
 10
265.6539965723
 20
138.275677408
 11
265.5994273171
 21
139.548411325
  0
LINE
  5
598
100
AcDbEntity
  8
0
100
AcDbLine
 62
7
  6
CONTINUOUS
 10
265.7001757103
 20
137.0175887601
 11
265.6539965723
 21
138.275677408
  0
LINE
  5
599
100
AcDbEntity
  8
0
100
AcDbLine
 62
7
  6
CONTINUOUS
 10
265.6797649257
 20
69.9716656128
 11
265.7803989272
 21
73.0479768819
  0
LINE
  5
59A
100
AcDbEntity
  8
0
100
AcDbLine
 62
7
  6
CONTINUOUS
 10
265.6272487434
 20
68.6448065689
 11
265.6797649257
 21
69.9716656128
  0
LINE
  5
59B
100
AcDbEntity
  8
0
100
AcDbLine
 62
7
  6
CONTINUOUS
 10
265.5708328719
 20
67.4268903884
 11
265.6272487434
 21
68.6448065689
  0
LWPOLYLINE
  5
59C
100
AcDbEntity
  8
0
100
AcDbPolyline
 62
7
  6
CONTINUOUS
 90
3
 70
0
 10
265.4867641538
 20
65.907981037
 10
265.5109984872
 20
66.3147893506
 10
265.5708328719
 20
67.4268903884
  0
LINE
  5
59D
100
AcDbEntity
  8
0
100
AcDbLine
 62
7
  6
CONTINUOUS
 10
245.4392453109
 20
138.0227032365
 11
244.8757764776
 21
138.0227032365
  0
LINE
  5
59E
100
AcDbEntity
  8
0
100
AcDbLine
 62
7
  6
CONTINUOUS
 10
264.4392453109
 20
138.0227032365
 11
265.0027141442
 21
138.0227032365
  0
LINE
  5
59F
100
AcDbEntity
  8
RUNDUNGEN
100
AcDbLine
 62
7
  6
CONTINUOUS
 10
278.9392453109
 20
76.7846686499
 11
278.9392453109
 21
130.7846686499
  0
LINE
  5
5A0
100
AcDbEntity
  8
0
100
AcDbLine
 62
7
  6
CONTINUOUS
 10
245.9641123988
 20
149.420353053
 11
245.8552232271
 21
149.420353053
  0
LINE
  5
5A1
100
AcDbEntity
  8
0
100
AcDbLine
 62
7
  6
CONTINUOUS
 10
263.914378223
 20
149.420353053
 11
264.0232673947
 21
149.420353053
  0
LINE
  5
5A2
100
AcDbEntity
  8
0
100
AcDbLine
 62
7
  6
CONTINUOUS
 10
245.999757816
 20
149.6402006332
 11
245.6892453109
 21
149.6402006332
  0
LINE
  5
5A3
100
AcDbEntity
  8
0
100
AcDbLine
 62
7
  6
CONTINUOUS
 10
246.0758766308
 20
150.023179311
 11
245.6892453109
 21
150.023179311
  0
LINE
  5
5A4
100
AcDbEntity
  8
0
100
AcDbLine
 62
7
  6
CONTINUOUS
 10
246.1237390037
 20
150.2146686499
 11
245.6892453109
 21
150.2146686499
  0
LWPOLYLINE
  5
5A5
100
AcDbEntity
  8
0
100
AcDbPolyline
 62
7
  6
CONTINUOUS
 90
18
 70
0
 10
263.6222134539
 20
150.5842215172
 10
263.4815619977
 20
150.8161847976
 10
263.192067389
 20
151.2523567843
 10
262.8661703563
 20
151.6889053747
 10
262.5031086381
 20
152.1207736004
 10
262.1020455593
 20
152.5435156775
 10
261.6627809533
 20
152.952388018
 10
261.1861127014
 20
153.3422397084
 10
260.6734152166
 20
153.7081036322
 10
260.1267547755
 20
154.0451851777
 10
259.5494621196
 20
154.3486927094
 10
258.9429828208
 20
154.6154366686
 10
258.309625753
 20
154.8420074566
 10
257.6526493949
 20
155.0249971938
 10
256.9755853851
 20
155.161366334
 10
256.2824118182
 20
155.2484240105
 10
255.5778002019
 20
155.2838988693
 10
255.4574627046
 20
155.2846687128
  0
LINE
  5
5A6
100
AcDbEntity
  8
0
100
AcDbLine
 62
7
  6
CONTINUOUS
 10
261.4674973296
 20
54.4573066763
 11
263.4392453109
 21
55.5956959041
  0
LWPOLYLINE
  5
5A7
100
AcDbEntity
  8
0
100
AcDbPolyline
 62
7
  6
CONTINUOUS
 90
18
 70
0
 10
254.4210279269
 20
155.2846687128
 10
254.2857138037
 20
155.2836953097
 10
253.5815894658
 20
155.2471371441
 10
252.8889559755
 20
155.159074916
 10
252.2124768618
 20
155.0217809466
 10
251.5561219045
 20
154.8379457426
 10
250.9234152828
 20
154.6106078883
 10
250.3176105918
 20
154.343175105
 10
249.7410029841
 20
154.0390510382
 10
249.1950232183
 20
153.7014144514
 10
248.6830076372
 20
153.3350617453
 10
248.2070202917
 20
152.9447882409
 10
247.7684389863
 20
152.5355682117
 10
247.3680630144
 20
152.1125617811
 10
247.0056849446
 20
151.6805138144
 10
246.6804592525
 20
151.2438682611
 10
246.391625325
 20
150.8076971267
 10
246.2562763405
 20
150.5842201085
  0
LINE
  5
5A8
100
AcDbEntity
  8
0
100
AcDbLine
 62
7
  6
CONTINUOUS
 10
255.4574652588
 20
155.2846686499
 11
254.4210253629
 21
155.2846686499
  0
LINE
  5
5A9
100
AcDbEntity
  8
0
100
AcDbLine
 62
7
  6
CONTINUOUS
 10
261.467803392
 20
153.1118539182
 11
263.4392453109
 21
151.9736413956
  0
ARC
  5
5AA
100
AcDbEntity
  8
RUNDUNGEN
100
AcDbCircle
 62
7
  6
CONTINUOUS
 10
189.9392453109
 20
276.3802051135
 40
3.0
100
AcDbArc
 50
90.0
 51
180.0
  0
ARC
  5
5AB
100
AcDbEntity
  8
RUNDUNGEN
100
AcDbCircle
 62
7
  6
CONTINUOUS
 10
189.9392453109
 20
232.3802051135
 40
3.0
100
AcDbArc
 50
180.0
 51
270.0
  0
ARC
  5
5AC
100
AcDbEntity
  8
0
100
AcDbCircle
 62
7
  6
CONTINUOUS
 10
202.6553539996
 20
344.2069116901
 40
61.7838920756
100
AcDbArc
 50
359.9909874355
 51
3.4989752755
  0
ARC
  5
5AD
100
AcDbEntity
  8
0
100
AcDbCircle
 62
7
  6
CONTINUOUS
 10
213.4281613632
 20
347.4376491308
 40
50.8877157448
100
AcDbArc
 50
1.0653506117
 51
6.1472920195
  0
ARC
  5
5AE
100
AcDbEntity
  8
0
100
AcDbCircle
 62
7
  6
CONTINUOUS
 10
236.3960968459
 20
348.5649415406
 40
9.1771011836
100
AcDbArc
 50
356.466866463
 51
358.8689635225
  0
ARC
  5
5AF
100
AcDbEntity
  8
RUNDUNGEN
100
AcDbCircle
 62
7
  6
CONTINUOUS
 10
237.4392664432
 20
347.9845432258
 40
7.9999901719
100
AcDbArc
 50
359.9970900398
 51
2.9996006974
  0
ARC
  5
5B0
100
AcDbEntity
  8
0
100
AcDbCircle
 62
7
  6
CONTINUOUS
 10
237.4392664432
 20
347.9845432258
 40
7.9999901719
100
AcDbArc
 50
359.9970900398
 51
2.9996006974
  0
ARC
  5
5B1
100
AcDbEntity
  8
0
100
AcDbCircle
 62
7
  6
CONTINUOUS
 10
226.9384296534
 20
361.7182087267
 40
38.1218618949
100
AcDbArc
 50
346.605254509
 51
351.2721317581
  0
ARC
  5
5B2
100
AcDbEntity
  8
0
100
AcDbCircle
 62
7
  6
CONTINUOUS
 10
241.8811151913
 20
371.4568958947
 40
23.6143141988
100
AcDbArc
 50
8.7958274015
 51
11.7248150475
  0
ARC
  5
5B3
100
AcDbEntity
  8
RUNDUNGEN
100
AcDbCircle
 62
7
  6
CONTINUOUS
 10
253.9392453109
 20
254.3802051135
 40
25.0
100
AcDbArc
 50
270.0
 51
65.0265660696
  0
ARC
  5
5B4
100
AcDbEntity
  8
RUNDUNGEN
100
AcDbCircle
 62
7
  6
CONTINUOUS
 10
254.9392453109
 20
254.3802051135
 40
12.0
100
AcDbArc
 50
148.6098595057
 51
31.3889958658
  0
ARC
  5
5B5
100
AcDbEntity
  8
0
100
AcDbCircle
 62
7
  6
CONTINUOUS
 10
255.1839015214
 20
254.3014296393
 40
11.1714931718
100
AcDbArc
 50
273.0506723309
 51
274.5210351647
  0
ARC
  5
5B6
100
AcDbEntity
  8
KONSTRUKTIONSELEMENTE
100
AcDbCircle
 62
7
  6
CONTINUOUS
 10
254.6945254499
 20
254.3005006615
 40
11.1705620673
100
AcDbArc
 50
265.4789147009
 51
266.9931870229
  0
ARC
  5
5B7
100
AcDbEntity
  8
KONSTRUKTIONSELEMENTE
100
AcDbCircle
 62
7
  6
CONTINUOUS
 10
254.6941351266
 20
254.2965510581
 40
11.1665939862
100
AcDbArc
 50
265.2092344094
 51
265.4793137771
  0
ARC
  5
5B8
100
AcDbEntity
  8
0
100
AcDbCircle
 62
7
  6
CONTINUOUS
 10
255.1843554956
 20
254.2965510521
 40
11.1665939802
100
AcDbArc
 50
274.5206862228
 51
274.7907655906
  0
ARC
  5
5B9
100
AcDbEntity
  8
KONSTRUKTIONSELEMENTE
100
AcDbCircle
 62
7
  6
CONTINUOUS
 10
254.690495081
 20
254.1297178662
 40
11.001179968
100
AcDbArc
 50
180.0681194395
 51
256.5263146062
  0
ARC
  5
5BA
100
AcDbEntity
  8
0
100
AcDbCircle
 62
7
  6
CONTINUOUS
 10
255.1879949107
 20
254.1297183544
 40
11.0011799677
100
AcDbArc
 50
283.4736851905
 51
359.9318780221
  0
ARC
  5
5BB
100
AcDbEntity
  8
0
100
AcDbCircle
 62
7
  6
CONTINUOUS
 10
255.1936495646
 20
254.1039707024
 40
10.9737953073
100
AcDbArc
 50
270.3623118453
 51
273.0547153903
  0
ARC
  5
5BC
100
AcDbEntity
  8
KONSTRUKTIONSELEMENTE
100
AcDbCircle
 62
7
  6
CONTINUOUS
 10
254.6845583044
 20
254.0957973812
 40
10.9656178055
100
AcDbArc
 50
266.989089413
 51
269.6809970399
  0
ARC
  5
5BD
100
AcDbEntity
  8
KONSTRUKTIONSELEMENTE
100
AcDbCircle
 62
7
  6
CONTINUOUS
 10
254.6726048204
 20
254.0602539784
 40
10.9293244335
100
AcDbArc
 50
256.5326729346
 51
265.2182524068
  0
ARC
  5
5BE
100
AcDbEntity
  8
0
100
AcDbCircle
 62
7
  6
CONTINUOUS
 10
255.2058858077
 20
254.0602539356
 40
10.9293243904
100
AcDbArc
 50
274.7817475783
 51
283.4673242643
  0
ARC
  5
5BF
100
AcDbEntity
  8
0
100
AcDbCircle
 62
7
  6
CONTINUOUS
 10
255.1998560163
 20
253.6542523253
 40
10.5240472123
100
AcDbArc
 50
270.0005533481
 51
270.3440052783
  0
ARC
  5
5C0
100
AcDbEntity
  8
KONSTRUKTIONSELEMENTE
100
AcDbCircle
 62
7
  6
CONTINUOUS
 10
254.6786208002
 20
253.6468465061
 40
10.516641393
100
AcDbArc
 50
269.6997266643
 51
269.9995214745
  0
ARC
  5
5C1
100
AcDbEntity
  8
0
100
AcDbCircle
 62
7
  6
CONTINUOUS
 10
255.6914374422
 20
255.1498403619
 40
10.4981533727
100
AcDbArc
 50
20.4626460537
 51
22.5940640935
  0
ARC
  5
5C2
100
AcDbEntity
  8
KONSTRUKTIONSELEMENTE
100
AcDbCircle
 62
7
  6
CONTINUOUS
 10
254.1869077067
 20
255.1498992943
 40
10.4979964264
100
AcDbArc
 50
157.4032451253
 51
159.5659428511
  0
ARC
  5
5C3
100
AcDbEntity
  8
KONSTRUKTIONSELEMENTE
100
AcDbCircle
 62
7
  6
CONTINUOUS
 10
254.1833564651
 20
255.151490338
 40
10.4941137278
100
AcDbArc
 50
159.8512012926
 51
179.999575771
  0
ARC
  5
5C4
100
AcDbEntity
  8
0
100
AcDbCircle
 62
7
  6
CONTINUOUS
 10
255.6951341567
 20
255.151490338
 40
10.4941137278
100
AcDbArc
 50
0.000424229
 51
20.1487987074
  0
ARC
  5
5C5
100
AcDbEntity
  8
0
100
AcDbCircle
 62
7
  6
CONTINUOUS
 10
255.7085422026
 20
255.1563282491
 40
10.4798597743
100
AcDbArc
 50
20.1492179921
 51
20.4621062379
  0
ARC
  5
5C6
100
AcDbEntity
  8
KONSTRUKTIONSELEMENTE
100
AcDbCircle
 62
7
  6
CONTINUOUS
 10
254.1697232422
 20
255.1564113214
 40
10.4796197629
100
AcDbArc
 50
159.5665041213
 51
159.8507843169
  0
ARC
  5
5C7
100
AcDbEntity
  8
0
100
AcDbCircle
 62
7
  6
CONTINUOUS
 10
254.1697232373
 20
255.1564113232
 40
10.4796197577
100
AcDbArc
 50
159.5665041212
 51
159.850784317
  0
ARC
  5
5C8
100
AcDbEntity
  8
KONSTRUKTIONSELEMENTE
100
AcDbCircle
 62
7
  6
CONTINUOUS
 10
254.6993993715
 20
253.5404564401
 40
10.4102525167
100
AcDbArc
 50
255.716768007
 51
269.9726029747
  0
ARC
  5
5C9
100
AcDbEntity
  8
0
100
AcDbCircle
 62
7
  6
CONTINUOUS
 10
255.1815091596
 20
253.5279575174
 40
10.3978117018
100
AcDbArc
 50
274.1991540231
 51
275.8553730926
  0
ARC
  5
5CA
100
AcDbEntity
  8
0
100
AcDbCircle
 62
7
  6
CONTINUOUS
 10
255.182755744
 20
253.5168623733
 40
10.3866472726
100
AcDbArc
 50
275.8547763466
 51
278.9688704158
  0
ARC
  5
5CB
100
AcDbEntity
  8
0
100
AcDbCircle
 62
7
  6
CONTINUOUS
 10
255.1834619435
 20
253.4967763523
 40
10.3665712566
100
AcDbArc
 50
270.003355754
 51
274.2010091599
  0
ARC
  5
5CC
100
AcDbEntity
  8
0
100
AcDbCircle
 62
7
  6
CONTINUOUS
 10
255.1851456509
 20
253.4957747974
 40
10.3654596426
100
AcDbArc
 50
280.5747269472
 51
284.3117313875
  0
ARC
  5
5CD
100
AcDbEntity
  8
0
100
AcDbCircle
 62
7
  6
CONTINUOUS
 10
255.1884869556
 20
253.4794632679
 40
10.348811957
100
AcDbArc
 50
278.9698077481
 51
280.573115273
  0
ARC
  5
5CE
100
AcDbEntity
  8
0
100
AcDbCircle
 62
7
  6
CONTINUOUS
 10
273.4823937759
 20
348.5649415406
 40
9.1771011836
100
AcDbArc
 50
181.1310364775
 51
183.533133537
  0
ARC
  5
5CF
100
AcDbEntity
  8
0
100
AcDbCircle
 62
7
  6
CONTINUOUS
 10
272.4392241786
 20
347.9845432258
 40
7.9999901719
100
AcDbArc
 50
177.0003993026
 51
180.0029099602
  0
ARC
  5
5D0
100
AcDbEntity
  8
0
100
AcDbCircle
 62
7
  6
CONTINUOUS
 10
267.9973754305
 20
371.4568958947
 40
23.6143141988
100
AcDbArc
 50
168.2751849525
 51
171.2041725985
  0
ARC
  5
5D1
100
AcDbEntity
  8
KONSTRUKTIONSELEMENTE
100
AcDbCircle
 62
7
  6
CONTINUOUS
 10
254.9392453109
 20
381.8802051135
 40
11.25
100
AcDbArc
 50
180.0
 51
183.0
  0
ARC
  5
5D2
100
AcDbEntity
  8
0
100
AcDbCircle
 62
7
  6
CONTINUOUS
 10
254.9392453109
 20
381.8802051135
 40
11.25
100
AcDbArc
 50
180.0
 51
183.0
  0
ARC
  5
5D3
100
AcDbEntity
  8
0
100
AcDbCircle
 62
7
  6
CONTINUOUS
 10
254.9392453109
 20
381.8802051135
 40
11.25
100
AcDbArc
 50
357.0
 51
360.0
  0
ARC
  5
5D4
100
AcDbEntity
  8
0
100
AcDbCircle
 62
7
  6
CONTINUOUS
 10
251.2140668863
 20
383.770376516
 40
7.0967494416
100
AcDbArc
 50
149.4254230903
 51
153.4557719785
  0
ARC
  5
5D5
100
AcDbEntity
  8
0
100
AcDbCircle
 62
7
  6
CONTINUOUS
 10
258.6644237559
 20
383.7703765277
 40
7.0967494181
100
AcDbArc
 50
26.5442264785
 51
30.5745769126
  0
ARC
  5
5D6
100
AcDbEntity
  8
0
100
AcDbCircle
 62
7
  6
CONTINUOUS
 10
307.223136622
 20
344.2069116901
 40
61.7838920755
100
AcDbArc
 50
176.5010247245
 51
180.0090125645
  0
ARC
  5
5D7
100
AcDbEntity
  8
0
100
AcDbCircle
 62
7
  6
CONTINUOUS
 10
296.4503292586
 20
347.4376491308
 40
50.8877157448
100
AcDbArc
 50
173.8527079805
 51
178.9346493883
  0
ARC
  5
5D8
100
AcDbEntity
  8
0
100
AcDbCircle
 62
7
  6
CONTINUOUS
 10
282.9400609683
 20
361.7182087267
 40
38.1218618949
100
AcDbArc
 50
188.7278682419
 51
193.394745491
  0
ARC
  5
5D9
100
AcDbEntity
  8
BEZUGSACHSEN
100
AcDbCircle
 62
7
  6
CONTINUOUS
 10
350.4263647952
 20
275.606152348
 40
26.4740527656
100
AcDbArc
 50
90.0001528977
 51
90.465842457
  0
ARC
  5
5DA
100
AcDbEntity
  8
0
100
AcDbCircle
 62
7
  6
CONTINUOUS
 10
331.1762941457
 20
265.1302051135
 40
22.0
100
AcDbArc
 50
180.0
 51
268.697705531
  0
ARC
  5
5DB
100
AcDbEntity
  8
0
100
AcDbCircle
 62
7
  6
CONTINUOUS
 10
339.1762941457
 20
276.6302051135
 40
11.0
100
AcDbArc
 50
180.0
 51
219.3972329273
  0
ARC
  5
5DC
100
AcDbEntity
  8
RUNDUNGEN
100
AcDbCircle
 62
7
  6
CONTINUOUS
 10
333.6762941457
 20
232.3802051135
 40
3.0
100
AcDbArc
 50
180.0
 51
270.0
  0
ARC
  5
5DD
100
AcDbEntity
  8
RUNDUNGEN
100
AcDbCircle
 62
7
  6
CONTINUOUS
 10
333.6762941457
 20
276.3802051135
 40
3.0
100
AcDbArc
 50
90.0
 51
180.0
  0
ARC
  5
5DE
100
AcDbEntity
  8
0
100
AcDbCircle
 62
7
  6
CONTINUOUS
 10
359.4618437909
 20
324.999276055
 40
62.9553395192
100
AcDbArc
 50
88.894657758
 51
93.5795806939
  0
ARC
  5
5DF
100
AcDbEntity
  8
0
100
AcDbCircle
 62
7
  6
CONTINUOUS
 10
339.1762941457
 20
356.354788105
 40
30.0
100
AcDbArc
 50
124.9829978692
 51
180.0
  0
ARC
  5
5E0
100
AcDbEntity
  8
0
100
AcDbCircle
 62
7
  6
CONTINUOUS
 10
338.7486518928
 20
355.4459317313
 40
24.971100141
100
AcDbArc
 50
134.4805733132
 51
178.6281149001
  0
ARC
  5
5E1
100
AcDbEntity
  8
0
100
AcDbCircle
 62
7
  6
CONTINUOUS
 10
338.7315641935
 20
357.8032040071
 40
23.3353262537
100
AcDbArc
 50
126.431939053
 51
138.5093266303
  0
ARC
  5
5E2
100
AcDbEntity
  8
0
100
AcDbCircle
 62
7
  6
CONTINUOUS
 10
339.1762941457
 20
351.9693394956
 40
11.0
100
AcDbArc
 50
129.2239323986
 51
180.0
  0
ARC
  5
5E3
100
AcDbEntity
  8
0
100
AcDbCircle
 62
7
  6
CONTINUOUS
 10
309.4910377082
 20
348.4165582764
 40
4.1510162722
100
AcDbArc
 50
355.0252054543
 51
359.0199095491
  0
ARC
  5
5E4
100
AcDbEntity
  8
KONSTRUKTIONSELEMENTE
100
AcDbCircle
 62
7
  6
CONTINUOUS
 10
390.1762941457
 20
265.1302051135
 40
22.0
100
AcDbArc
 50
271.3022944691
 51
360.0
  0
ARC
  5
5E5
100
AcDbEntity
  8
0
100
AcDbCircle
 62
7
  6
CONTINUOUS
 10
390.1762941457
 20
265.1302051135
 40
22.0
100
AcDbArc
 50
271.3022944691
 51
360.0
  0
ARC
  5
5E6
100
AcDbEntity
  8
KONSTRUKTIONSELEMENTE
100
AcDbCircle
 62
7
  6
CONTINUOUS
 10
382.1762941457
 20
276.6302051135
 40
11.0
100
AcDbArc
 50
320.6027670727
 51
360.0
  0
ARC
  5
5E7
100
AcDbEntity
  8
RUNDUNGEN
100
AcDbCircle
 62
7
  6
CONTINUOUS
 10
387.6762941457
 20
276.3802051135
 40
3.0
100
AcDbArc
 50
0.0
 51
90.0
  0
ARC
  5
5E8
100
AcDbEntity
  8
RUNDUNGEN
100
AcDbCircle
 62
7
  6
CONTINUOUS
 10
387.6762941457
 20
232.3802051135
 40
3.0
100
AcDbArc
 50
270.0
 51
360.0
  0
ARC
  5
5E9
100
AcDbEntity
  8
KONSTRUKTIONSELEMENTE
100
AcDbCircle
 62
7
  6
CONTINUOUS
 10
360.6762941457
 20
325.6302051135
 40
67.5
100
AcDbArc
 50
55.0170021308
 51
85.042370559
  0
ARC
  5
5EA
100
AcDbEntity
  8
0
100
AcDbCircle
 62
7
  6
CONTINUOUS
 10
360.6762941457
 20
325.6302051135
 40
67.5
100
AcDbArc
 50
55.0170021308
 51
124.9829978692
  0
ARC
  5
5EB
100
AcDbEntity
  8
0
100
AcDbCircle
 62
7
  6
CONTINUOUS
 10
361.8907445006
 20
324.999276055
 40
62.9553395192
100
AcDbArc
 50
86.4204193061
 51
91.105342242
  0
ARC
  5
5EC
100
AcDbEntity
  8
0
100
AcDbCircle
 62
7
  6
CONTINUOUS
 10
360.6762941457
 20
325.6302051135
 40
45.0
100
AcDbArc
 50
50.7760676014
 51
129.2239323986
  0
ARC
  5
5ED
100
AcDbEntity
  8
KONSTRUKTIONSELEMENTE
100
AcDbCircle
 62
7
  6
CONTINUOUS
 10
382.1762941457
 20
356.354788105
 40
30.0
100
AcDbArc
 50
0.0
 51
55.0170021308
  0
ARC
  5
5EE
100
AcDbEntity
  8
0
100
AcDbCircle
 62
7
  6
CONTINUOUS
 10
382.6039358973
 20
355.4459315134
 40
24.971100141
100
AcDbArc
 50
1.371885572
 51
45.5194262161
  0
ARC
  5
5EF
100
AcDbEntity
  8
0
100
AcDbCircle
 62
7
  6
CONTINUOUS
 10
382.621024098
 20
357.8032040071
 40
23.3353262537
100
AcDbArc
 50
41.4906733697
 51
53.568060947
  0
ARC
  5
5F0
100
AcDbEntity
  8
KONSTRUKTIONSELEMENTE
100
AcDbCircle
 62
7
  6
CONTINUOUS
 10
382.1762941457
 20
351.9693394956
 40
11.0
100
AcDbArc
 50
0.0
 51
50.7760676014
  0
ARC
  5
5F1
100
AcDbEntity
  8
0
100
AcDbCircle
 62
7
  6
CONTINUOUS
 10
403.0264483838
 20
319.327497456
 40
5.0
100
AcDbArc
 50
174.2608295227
 51
359.3171996582
  0
ARC
  5
5F2
100
AcDbEntity
  8
0
100
AcDbCircle
 62
7
  6
CONTINUOUS
 10
403.0264483838
 20
310.827497456
 40
5.0
100
AcDbArc
 50
174.2608295227
 51
359.3171996582
  0
ARC
  5
5F3
100
AcDbEntity
  8
0
100
AcDbCircle
 62
7
  6
CONTINUOUS
 10
411.8615505833
 20
348.4165582764
 40
4.1510162722
100
AcDbArc
 50
180.9800904509
 51
184.9747945457
  0
ARC
  5
5F4
100
AcDbEntity
  8
0
100
AcDbCircle
 62
7
  6
CONTINUOUS
 10
403.0264483838
 20
319.327497456
 40
3.5
100
AcDbArc
 50
282.3736251162
 51
8.2132107017
  0
ARC
  5
5F5
100
AcDbEntity
  8
0
100
AcDbCircle
 62
7
  6
CONTINUOUS
 10
403.0264483838
 20
319.327497456
 40
3.5
100
AcDbArc
 50
171.7867892983
 51
257.4447123387
  0
ARC
  5
5F6
100
AcDbEntity
  8
0
100
AcDbCircle
 62
7
  6
CONTINUOUS
 10
403.0264483838
 20
310.827497456
 40
3.5
100
AcDbArc
 50
171.7867892983
 51
8.2132107017
  0
ARC
  5
5F7
100
AcDbEntity
  8
0
100
AcDbCircle
 62
7
  6
CONTINUOUS
 10
228.0892746491
 20
95.1082192917
 40
37.5741133594
100
AcDbArc
 50
5.3888484399
 51
5.6647140842
  0
ARC
  5
5F8
100
AcDbEntity
  8
0
100
AcDbCircle
 62
7
  6
CONTINUOUS
 10
216.9392453109
 20
103.7846686499
 40
30.5
100
AcDbArc
 50
149.0846916939
 51
210.5365197706
  0
ARC
  5
5F9
100
AcDbEntity
  8
RUNDUNGEN
100
AcDbCircle
 62
7
  6
CONTINUOUS
 10
216.9392453109
 20
103.7846686499
 40
30.0
100
AcDbArc
 50
90.0
 51
270.0
  0
ARC
  5
5FA
100
AcDbEntity
  8
0
100
AcDbCircle
 62
7
  6
CONTINUOUS
 10
218.9392453109
 20
103.7846686499
 40
30.0
100
AcDbArc
 50
34.0134832788
 51
325.9865167212
  0
CIRCLE
  5
5FB
100
AcDbEntity
  8
BEZUGSACHSEN
100
AcDbCircle
 62
7
  6
CONTINUOUS
 10
218.9392453109
 20
103.7846686499
 40
20.5
  0
ARC
  5
5FC
100
AcDbEntity
  8
0
100
AcDbCircle
 62
7
  6
CONTINUOUS
 10
228.0892746491
 20
112.4611180081
 40
37.5741133594
100
AcDbArc
 50
354.3352859158
 51
354.6111515601
  0
ARC
  5
5FD
100
AcDbEntity
  8
0
100
AcDbCircle
 62
7
  6
CONTINUOUS
 10
281.7892159726
 20
95.1082192917
 40
37.5741133594
100
AcDbArc
 50
174.3352859158
 51
174.6111515601
  0
ARC
  5
5FE
100
AcDbEntity
  8
0
100
AcDbCircle
 62
7
  6
CONTINUOUS
 10
255.5998198918
 20
62.9170928068
 40
10.8485954574
100
AcDbArc
 50
197.6105250464
 51
206.0728705208
  0
ARC
  5
5FF
100
AcDbEntity
  8
0
100
AcDbCircle
 62
7
  6
CONTINUOUS
 10
254.2786707299
 20
62.9170928068
 40
10.8485954574
100
AcDbArc
 50
333.9271294792
 51
342.3894749536
  0
ARC
  5
600
100
AcDbEntity
  8
0
100
AcDbCircle
 62
7
  6
CONTINUOUS
 10
250.8671071609
 20
66.9934838027
 40
6.5126507361
100
AcDbArc
 50
156.9191692019
 51
162.35734821
  0
ARC
  5
601
100
AcDbEntity
  8
0
100
AcDbCircle
 62
7
  6
CONTINUOUS
 10
259.0113834608
 20
66.9934838027
 40
6.5126507361
100
AcDbArc
 50
17.64265179
 51
23.0808307981
  0
ARC
  5
602
100
AcDbEntity
  8
RUNDUNGEN
100
AcDbCircle
 62
7
  6
CONTINUOUS
 10
275.9392453109
 20
76.7846686499
 40
3.0
100
AcDbArc
 50
270.0
 51
360.0
  0
ARC
  5
603
100
AcDbEntity
  8
0
100
AcDbCircle
 62
7
  6
CONTINUOUS
 10
281.7892159726
 20
112.4611180081
 40
37.5741133594
100
AcDbArc
 50
185.3888484399
 51
185.6647140842
  0
ARC
  5
604
100
AcDbEntity
  8
0
100
AcDbCircle
 62
7
  6
CONTINUOUS
 10
254.2786707299
 20
144.6522444929
 40
10.8485954575
100
AcDbArc
 50
17.6105250464
 51
26.0728705208
  0
ARC
  5
605
100
AcDbEntity
  8
0
100
AcDbCircle
 62
7
  6
CONTINUOUS
 10
255.5998198918
 20
144.6522444929
 40
10.8485954575
100
AcDbArc
 50
153.9271294792
 51
162.3894749536
  0
ARC
  5
606
100
AcDbEntity
  8
0
100
AcDbCircle
 62
7
  6
CONTINUOUS
 10
250.8671071609
 20
140.575853497
 40
6.5126507361
100
AcDbArc
 50
197.6426517899
 51
203.0808307981
  0
ARC
  5
607
100
AcDbEntity
  8
0
100
AcDbCircle
 62
7
  6
CONTINUOUS
 10
259.0113834608
 20
140.575853497
 40
6.5126507361
100
AcDbArc
 50
336.9191692019
 51
342.3573482101
  0
ARC
  5
608
100
AcDbEntity
  8
RUNDUNGEN
100
AcDbCircle
 62
7
  6
CONTINUOUS
 10
275.9392453109
 20
130.7846686499
 40
3.0
100
AcDbArc
 50
0.0
 51
90.0
  0
LINE
  5
609
100
AcDbEntity
  8
KONSTRUKTIONSELEMENTE
100
AcDbLine
 62
7
  6
CONTINUOUS
 10
243.6892214798
 20
254.116268264
 11
243.6892404589
 21
254.1279390287
  0
LINE
  5
60A
100
AcDbEntity
  8
0
100
AcDbLine
 62
7
  6
CONTINUOUS
 10
266.189269142
 20
254.116268264
 11
266.1892501628
 21
254.1279390287
  0
SPLINE
  5
60B
100
AcDbEntity
  8
0
100
AcDbSpline
 62
7
  6
CONTINUOUS
 70
0
 71
3
 72
8
 73
4
 74
0
 42
0.0000001
 43
0.0000001
 44
0.0000000001
 40
0.0
 40
0.0
 40
0.0
 40
0.0
 40
1.0
 40
1.0
 40
1.0
 40
1.0
 10
265.4798966243
 20
385.7661261237
 30
0.0
 10
265.4857878749
 20
385.7466484562
 30
0.0
 10
265.4916975359
 20
385.7271749287
 30
0.0
 10
265.4973202788
 20
385.7076180596
 30
0.0
  0
SPLINE
  5
60C
100
AcDbEntity
  8
0
100
AcDbSpline
 62
7
  6
CONTINUOUS
 70
0
 71
3
 72
13
 73
9
 74
0
 42
0.0000001
 43
0.0000001
 44
0.0000000001
 40
0.0
 40
0.0
 40
0.0
 40
0.0
 40
0.249819017
 40
0.3733581902
 40
0.4968881871
 40
0.6206923435
 40
0.7451370396
 40
1.0
 40
1.0
 40
1.0
 40
1.0
 10
265.4973202788
 20
385.7076180596
 30
0.0
 10
265.7177695791
 20
384.940853982
 30
0.0
 10
265.8820207019
 20
383.7473139033
 30
0.0
 10
265.9229024859
 20
382.161699784
 30
0.0
 10
265.8904038375
 20
380.9770274522
 30
0.0
 10
265.802958724
 20
379.7922206409
 30
0.0
 10
265.600033367
 20
378.1991784517
 30
0.0
 10
265.3097356926
 20
377.0094007661
 30
0.0
 10
265.0027141442
 20
376.255593316
 30
0.0
  0
SPLINE
  5
60D
100
AcDbEntity
  8
0
100
AcDbSpline
 62
7
  6
CONTINUOUS
 70
0
 71
3
 72
9
 73
5
 74
0
 42
0.0000001
 43
0.0000001
 44
0.0000000001
 40
0.0
 40
0.0
 40
0.0
 40
0.0
 40
0.5000174407
 40
1.0
 40
1.0
 40
1.0
 40
1.0
 10
265.2177137228
 20
375.0678520089
 30
0.0
 10
265.4113701723
 20
373.8199071896
 30
0.0
 10
265.5696203219
 20
371.2890914886
 30
0.0
 10
265.492779272
 20
368.7645244015
 30
0.0
 10
265.4394057733
 20
367.5028596865
 30
0.0
  0
LINE
  5
60E
100
AcDbEntity
  8
0
100
AcDbLine
 62
7
  6
CONTINUOUS
 10
265.4394057733
 20
367.5028596865
 11
265.4314840815
 21
367.3183591118
  0
SPLINE
  5
60F
100
AcDbEntity
  8
0
100
AcDbSpline
 62
7
  6
CONTINUOUS
 70
0
 71
3
 72
11
 73
7
 74
0
 42
0.0000001
 43
0.0000001
 44
0.0000000001
 40
0.0
 40
0.0
 40
0.0
 40
0.0
 40
0.2499295089
 40
0.4998706417
 40
0.7498475807
 40
1.0
 40
1.0
 40
1.0
 40
1.0
 10
265.4314840815
 20
367.3183591118
 30
0.0
 10
265.3901026309
 20
366.368059435
 30
0.0
 10
265.2914847292
 20
364.4681515132
 30
0.0
 10
265.1427770231
 20
361.6181626659
 30
0.0
 10
264.9662398358
 20
358.7690314655
 30
0.0
 10
264.764624007
 20
356.8743583913
 30
0.0
 10
264.6188479259
 20
355.9335364677
 30
0.0
  0
LINE
  5
610
100
AcDbEntity
  8
0
100
AcDbLine
 62
7
  6
CONTINUOUS
 10
264.3240741106
 20
347.977625135
 11
264.3227352533
 21
347.9993958893
  0
SPLINE
  5
611
100
AcDbEntity
  8
0
100
AcDbSpline
 62
7
  6
CONTINUOUS
 70
0
 71
3
 72
13
 73
9
 74
0
 42
0.0000001
 43
0.0000001
 44
0.0000000001
 40
0.0
 40
0.0
 40
0.0
 40
0.0
 40
0.249819017
 40
0.3733581902
 40
0.4968881871
 40
0.6206923435
 40
0.7451370396
 40
1.0
 40
1.0
 40
1.0
 40
1.0
 10
244.381170343
 20
385.7076180596
 30
0.0
 10
244.1607210426
 20
384.940853982
 30
0.0
 10
243.9964699198
 20
383.7473139033
 30
0.0
 10
243.9555881358
 20
382.161699784
 30
0.0
 10
243.9880867843
 20
380.9770274522
 30
0.0
 10
244.0755318977
 20
379.7922206409
 30
0.0
 10
244.2784572548
 20
378.1991784517
 30
0.0
 10
244.5687549291
 20
377.0094007661
 30
0.0
 10
244.8757764776
 20
376.255593316
 30
0.0
  0
SPLINE
  5
612
100
AcDbEntity
  8
0
100
AcDbSpline
 62
7
  6
CONTINUOUS
 70
0
 71
3
 72
9
 73
5
 74
0
 42
0.0000001
 43
0.0000001
 44
0.0000000001
 40
0.0
 40
0.0
 40
0.0
 40
0.0
 40
0.5000174407
 40
1.0
 40
1.0
 40
1.0
 40
1.0
 10
244.6607768989
 20
375.0678520089
 30
0.0
 10
244.4671204495
 20
373.8199071896
 30
0.0
 10
244.3088702998
 20
371.2890914886
 30
0.0
 10
244.3857113498
 20
368.7645244015
 30
0.0
 10
244.4390848485
 20
367.5028596865
 30
0.0
  0
LINE
  5
613
100
AcDbEntity
  8
0
100
AcDbLine
 62
7
  6
CONTINUOUS
 10
244.4390848485
 20
367.5028596865
 11
244.4470065402
 21
367.3183591118
  0
SPLINE
  5
614
100
AcDbEntity
  8
0
100
AcDbSpline
 62
7
  6
CONTINUOUS
 70
0
 71
3
 72
11
 73
7
 74
0
 42
0.0000001
 43
0.0000001
 44
0.0000000001
 40
0.0
 40
0.0
 40
0.0
 40
0.0
 40
0.2499295089
 40
0.4998706417
 40
0.7498475807
 40
1.0
 40
1.0
 40
1.0
 40
1.0
 10
244.4470065402
 20
367.3183591118
 30
0.0
 10
244.4883879909
 20
366.368059435
 30
0.0
 10
244.5870058925
 20
364.4681515132
 30
0.0
 10
244.7357135986
 20
361.6181626659
 30
0.0
 10
244.9122507859
 20
358.7690314655
 30
0.0
 10
245.1138666148
 20
356.8743583913
 30
0.0
 10
245.2596426958
 20
355.9335364677
 30
0.0
  0
LINE
  5
615
100
AcDbEntity
  8
0
100
AcDbLine
 62
7
  6
CONTINUOUS
 10
245.5544165111
 20
347.977625135
 11
245.5557553684
 21
347.9993958893
  0
SPLINE
  5
616
100
AcDbEntity
  8
0
100
AcDbSpline
 62
7
  6
CONTINUOUS
 70
0
 71
3
 72
9
 73
5
 74
0
 42
0.0000001
 43
0.0000001
 44
0.0000000001
 40
0.0
 40
0.0
 40
0.0
 40
0.0
 40
0.2559293015
 40
1.0
 40
1.0
 40
1.0
 40
1.0
 10
244.8653881882
 20
386.9418322427
 30
0.0
 10
244.8171467764
 20
386.8452195814
 30
0.0
 10
244.6375007048
 20
386.4633287966
 30
0.0
 10
244.4908620981
 20
386.0662160382
 30
0.0
 10
244.3985939975
 20
385.7661261237
 30
0.0
  0
SPLINE
  5
617
100
AcDbEntity
  8
0
100
AcDbSpline
 62
7
  6
CONTINUOUS
 70
0
 71
3
 72
9
 73
5
 74
0
 42
0.0000001
 43
0.0000001
 44
0.0000000001
 40
0.0
 40
0.0
 40
0.0
 40
0.0
 40
0.2559293002
 40
1.0
 40
1.0
 40
1.0
 40
1.0
 10
265.0131025183
 20
386.9418320729
 30
0.0
 10
265.06134392
 20
386.8452194252
 30
0.0
 10
265.2409899558
 20
386.4633286934
 30
0.0
 10
265.3876285373
 20
386.0662159938
 30
0.0
 10
265.4798966243
 20
385.7661261237
 30
0.0
  0
SPLINE
  5
618
100
AcDbEntity
  8
0
100
AcDbSpline
 62
7
  6
CONTINUOUS
 70
0
 71
3
 72
8
 73
4
 74
0
 42
0.0000001
 43
0.0000001
 44
0.0000000001
 40
0.0
 40
0.0
 40
0.0
 40
0.0
 40
1.0
 40
1.0
 40
1.0
 40
1.0
 10
244.3985939975
 20
385.7661261237
 30
0.0
 10
244.3927027468
 20
385.7466484562
 30
0.0
 10
244.3867930858
 20
385.7271749287
 30
0.0
 10
244.381170343
 20
385.7076180596
 30
0.0
  0
SPLINE
  5
619
100
AcDbEntity
  8
BEZUGSACHSEN
100
AcDbSpline
 62
7
  6
CONTINUOUS
 70
0
 71
3
 72
11
 73
7
 74
0
 42
0.0000001
 43
0.0000001
 44
0.0000000001
 40
0.0
 40
0.0
 40
0.0
 40
0.0
 40
0.2616354948
 40
0.5144890082
 40
0.7595899519
 40
1.0
 40
1.0
 40
1.0
 40
1.0
 10
195.2678842741
 20
300.2492189652
 30
0.0
 10
195.7409347963
 20
300.5223348115
 30
0.0
 10
196.6926266042
 20
301.0239110489
 30
0.0
 10
198.168292399
 20
301.6147079929
 30
0.0
 10
199.6682954323
 20
301.9927108496
 30
0.0
 10
200.6838064453
 20
302.0802051134
 30
0.0
 10
201.185724534
 20
302.0802051135
 30
0.0
  0
SPLINE
  5
61A
100
AcDbEntity
  8
BEZUGSACHSEN
100
AcDbSpline
 62
7
  6
CONTINUOUS
 70
0
 71
3
 72
11
 73
7
 74
0
 42
0.0000001
 43
0.0000001
 44
0.0000000001
 40
0.0
 40
0.0
 40
0.0
 40
0.0
 40
0.2404100774
 40
0.4855110382
 40
0.73836451
 40
1.0
 40
1.0
 40
1.0
 40
1.0
 10
201.185724534
 20
302.0802051135
 30
0.0
 10
201.6876426837
 20
302.0802051135
 30
0.0
 10
202.7031537933
 20
301.9927108281
 30
0.0
 10
204.2031568288
 20
301.6147079375
 30
0.0
 10
205.6788225529
 20
301.0239109889
 30
0.0
 10
206.6305142793
 20
300.5223348064
 30
0.0
 10
207.1035647925
 20
300.2492189652
 30
0.0
  0
SPLINE
  5
61B
100
AcDbEntity
  8
BEZUGSACHSEN
100
AcDbSpline
 62
7
  6
CONTINUOUS
 70
0
 71
3
 72
10
 73
6
 74
0
 42
0.0000001
 43
0.0000001
 44
0.0000000001
 40
0.0
 40
0.0
 40
0.0
 40
0.0
 40
0.4998915876
 40
0.749945842
 40
1.0
 40
1.0
 40
1.0
 40
1.0
 10
207.1035647925
 20
300.2492189652
 30
0.0
 10
209.0265629167
 20
300.8043407076
 30
0.0
 10
211.9582562601
 20
301.498340841
 30
0.0
 10
215.9346019432
 20
301.9947743379
 30
0.0
 10
217.9380514775
 20
302.0802051135
 30
0.0
 10
218.9392453109
 20
302.0802051135
 30
0.0
  0
SPLINE
  5
61C
100
AcDbEntity
  8
BEZUGSACHSEN
100
AcDbSpline
 62
7
  6
CONTINUOUS
 70
0
 71
3
 72
10
 73
6
 74
0
 42
0.0000001
 43
0.0000001
 44
0.0000000001
 40
0.0
 40
0.0
 40
0.0
 40
0.0
 40
0.2500541807
 40
0.5001084482
 40
1.0
 40
1.0
 40
1.0
 40
1.0
 10
218.9392453109
 20
302.0802051135
 30
0.0
 10
219.9404392352
 20
302.0802051135
 30
0.0
 10
221.9438889128
 20
301.9947743198
 30
0.0
 10
225.9202345912
 20
301.4983407855
 30
0.0
 10
228.8519278427
 20
300.8043406678
 30
0.0
 10
230.7749258293
 20
300.2492189652
 30
0.0
  0
SPLINE
  5
61D
100
AcDbEntity
  8
BEZUGSACHSEN
100
AcDbSpline
 62
7
  6
CONTINUOUS
 70
0
 71
3
 72
11
 73
7
 74
0
 42
0.0000001
 43
0.0000001
 44
0.0000000001
 40
0.0
 40
0.0
 40
0.0
 40
0.0
 40
0.2616354948
 40
0.5144890082
 40
0.7595899519
 40
1.0
 40
1.0
 40
1.0
 40
1.0
 10
230.7749258293
 20
300.2492189652
 30
0.0
 10
231.2479763514
 20
300.5223348115
 30
0.0
 10
232.1996681593
 20
301.0239110489
 30
0.0
 10
233.675333954
 20
301.6147079929
 30
0.0
 10
235.1753369872
 20
301.9927108495
 30
0.0
 10
236.1908480002
 20
302.0802051136
 30
0.0
 10
236.6927660889
 20
302.0802051136
 30
0.0
  0
SPLINE
  5
61E
100
AcDbEntity
  8
BEZUGSACHSEN
100
AcDbSpline
 62
7
  6
CONTINUOUS
 70
0
 71
3
 72
11
 73
7
 74
0
 42
0.0000001
 43
0.0000001
 44
0.0000000001
 40
0.0
 40
0.0
 40
0.0
 40
0.0
 40
0.2404100774
 40
0.4855110382
 40
0.73836451
 40
1.0
 40
1.0
 40
1.0
 40
1.0
 10
236.6927660889
 20
302.0802051136
 30
0.0
 10
237.1946842386
 20
302.0802051135
 30
0.0
 10
238.2101953483
 20
301.9927108281
 30
0.0
 10
239.7101983838
 20
301.6147079375
 30
0.0
 10
241.185864108
 20
301.0239109889
 30
0.0
 10
242.1375558345
 20
300.5223348064
 30
0.0
 10
242.6106063476
 20
300.2492189652
 30
0.0
  0
SPLINE
  5
61F
100
AcDbEntity
  8
BEZUGSACHSEN
100
AcDbSpline
 62
7
  6
CONTINUOUS
 70
0
 71
3
 72
10
 73
6
 74
0
 42
0.0000001
 43
0.0000001
 44
0.0000000001
 40
0.0
 40
0.0
 40
0.0
 40
0.0
 40
0.5015949502
 40
0.7510710732
 40
1.0
 40
1.0
 40
1.0
 40
1.0
 10
360.6762941457
 20
300.2492189652
 30
0.0
 10
362.334254776
 20
300.8018725087
 30
0.0
 10
364.8689938707
 20
301.4963317622
 30
0.0
 10
368.32123804
 20
301.9945448259
 30
0.0
 10
370.0589825166
 20
302.0802051134
 30
0.0
 10
370.926294147
 20
302.0802051135
 30
0.0
  0
SPLINE
  5
620
100
AcDbEntity
  8
BEZUGSACHSEN
100
AcDbSpline
 62
7
  6
CONTINUOUS
 70
0
 71
3
 72
10
 73
6
 74
0
 42
0.0000001
 43
0.0000001
 44
0.0000000001
 40
0.0
 40
0.0
 40
0.0
 40
0.0
 40
0.248928957
 40
0.4984050964
 40
1.0
 40
1.0
 40
1.0
 40
1.0
 10
370.926294147
 20
302.0802051135
 30
0.0
 10
371.7936058821
 20
302.0802051135
 30
0.0
 10
373.5313505211
 20
301.9945448059
 30
0.0
 10
376.9835946832
 20
301.4963316946
 30
0.0
 10
379.5183336697
 20
300.8018724573
 30
0.0
 10
381.1762941457
 20
300.2492189652
 30
0.0
  0
SPLINE
  5
621
100
AcDbEntity
  8
BEZUGSACHSEN
100
AcDbSpline
 62
7
  6
CONTINUOUS
 70
0
 71
3
 72
10
 73
6
 74
0
 42
0.0000001
 43
0.0000001
 44
0.0000000001
 40
0.0
 40
0.0
 40
0.0
 40
0.0
 40
0.248928957
 40
0.4984050964
 40
1.0
 40
1.0
 40
1.0
 40
1.0
 10
350.4262941474
 20
302.0802051135
 30
0.0
 10
351.2936058825
 20
302.0802051135
 30
0.0
 10
353.0313505214
 20
301.9945448059
 30
0.0
 10
356.4835946833
 20
301.4963316946
 30
0.0
 10
359.0183336697
 20
300.8018724572
 30
0.0
 10
360.6762941457
 20
300.2492189652
 30
0.0
  0
SPLINE
  5
622
100
AcDbEntity
  8
BEZUGSACHSEN
100
AcDbSpline
 62
7
  6
CONTINUOUS
 70
0
 71
3
 72
10
 73
6
 74
0
 42
0.0000001
 43
0.0000001
 44
0.0000000001
 40
0.0
 40
0.0
 40
0.0
 40
0.0
 40
0.5015892004
 40
0.7510736246
 40
1.0
 40
1.0
 40
1.0
 40
1.0
 10
340.1762941457
 20
300.2492189652
 30
0.0
 10
341.8001706003
 20
300.7905111168
 30
0.0
 10
344.2815425452
 20
301.473333191
 30
0.0
 10
347.6603904794
 20
301.9766356884
 30
0.0
 10
349.3616657833
 20
302.0724256972
 30
0.0
 10
350.2111202865
 20
302.0793300877
 30
0.0
  0
SPLINE
  5
623
100
AcDbEntity
  8
0
100
AcDbSpline
 62
7
  6
CONTINUOUS
 70
0
 71
3
 72
8
 73
4
 74
0
 42
0.0000001
 43
0.0000001
 44
0.0000000001
 40
0.0
 40
0.0
 40
0.0
 40
0.0
 40
1.0
 40
1.0
 40
1.0
 40
1.0
 10
365.9751446334
 20
387.8214309056
 30
0.0
 10
365.9238976667
 20
387.8251377353
 30
0.0
 10
365.8726169114
 20
387.828361747
 30
0.0
 10
365.8213507151
 20
387.8317923883
 30
0.0
  0
SPLINE
  5
624
100
AcDbEntity
  8
0
100
AcDbSpline
 62
7
  6
CONTINUOUS
 70
0
 71
3
 72
11
 73
7
 74
0
 42
0.0000001
 43
0.0000001
 44
0.0000000001
 40
0.0
 40
0.0
 40
0.0
 40
0.0
 40
0.2499967265
 40
0.4999967081
 40
0.7499982219
 40
1.0
 40
1.0
 40
1.0
 40
1.0
 10
396.4791153948
 20
376.5779412083
 30
0.0
 10
394.2722121538
 20
378.2068712305
 30
0.0
 10
389.6181246358
 20
381.1522958005
 30
0.0
 10
382.090121734
 20
384.5399825327
 30
0.0
 10
374.1625344473
 20
386.842031424
 30
0.0
 10
368.7110131931
 20
387.6235364327
 30
0.0
 10
365.9751446334
 20
387.8214309056
 30
0.0
  0
SPLINE
  5
625
100
AcDbEntity
  8
0
100
AcDbSpline
 62
7
  6
CONTINUOUS
 70
0
 71
3
 72
8
 73
4
 74
0
 42
0.0000001
 43
0.0000001
 44
0.0000000001
 40
0.0
 40
0.0
 40
0.0
 40
0.0
 40
1.0
 40
1.0
 40
1.0
 40
1.0
 10
407.5675021298
 20
356.0437714048
 30
0.0
 10
407.6277484669
 20
353.4779599136
 30
0.0
 10
407.6675821858
 20
350.9117042855
 30
0.0
 10
407.7111416077
 20
348.3455552629
 30
0.0
  0
SPLINE
  5
626
100
AcDbEntity
  8
0
100
AcDbSpline
 62
7
  6
CONTINUOUS
 70
0
 71
3
 72
8
 73
4
 74
0
 42
0.0000001
 43
0.0000001
 44
0.0000000001
 40
0.0
 40
0.0
 40
0.0
 40
0.0
 40
1.0
 40
1.0
 40
1.0
 40
1.0
 10
313.7850861617
 20
356.0437714048
 30
0.0
 10
313.7248398246
 20
353.4779599136
 30
0.0
 10
313.6850061057
 20
350.9117042855
 30
0.0
 10
313.6414466837
 20
348.3455552629
 30
0.0
  0
LINE
  5
627
100
AcDbEntity
  8
0
100
AcDbLine
 62
7
  6
CONTINUOUS
 10
407.7739498232
 20
347.5032793474
 11
407.7261714256
 21
348.0565925635
  0
SPLINE
  5
628
100
AcDbEntity
  8
0
100
AcDbSpline
 62
7
  6
CONTINUOUS
 70
0
 71
3
 72
8
 73
4
 74
0
 42
0.0000001
 43
0.0000001
 44
0.0000000001
 40
0.0
 40
0.0
 40
0.0
 40
0.0
 40
1.0
 40
1.0
 40
1.0
 40
1.0
 10
355.3774436581
 20
387.8214309056
 30
0.0
 10
355.4286906248
 20
387.8251377353
 30
0.0
 10
355.4799713801
 20
387.828361747
 30
0.0
 10
355.5312375764
 20
387.8317923883
 30
0.0
  0
SPLINE
  5
629
100
AcDbEntity
  8
0
100
AcDbSpline
 62
7
  6
CONTINUOUS
 70
0
 71
3
 72
11
 73
7
 74
0
 42
0.0000001
 43
0.0000001
 44
0.0000000001
 40
0.0
 40
0.0
 40
0.0
 40
0.0
 40
0.2499967265
 40
0.4999967081
 40
0.7499982219
 40
1.0
 40
1.0
 40
1.0
 40
1.0
 10
324.8734728967
 20
376.5779412083
 30
0.0
 10
327.0803761376
 20
378.2068712305
 30
0.0
 10
331.7344636557
 20
381.1522958005
 30
0.0
 10
339.2624665575
 20
384.5399825327
 30
0.0
 10
347.1900538441
 20
386.842031424
 30
0.0
 10
352.6415750984
 20
387.6235364327
 30
0.0
 10
355.3774436581
 20
387.8214309056
 30
0.0
  0
LINE
  5
62A
100
AcDbEntity
  8
0
100
AcDbLine
 62
7
  6
CONTINUOUS
 10
313.5786384682
 20
347.5032793474
 11
313.6264168659
 21
348.0565925635
  0
SPLINE
  5
62B
100
AcDbEntity
  8
0
100
AcDbSpline
 62
7
  6
CONTINUOUS
 70
0
 71
3
 72
11
 73
7
 74
0
 42
0.0000001
 43
0.0000001
 44
0.0000000001
 40
0.0
 40
0.0
 40
0.0
 40
0.0
 40
0.2486075396
 40
0.4975975916
 40
0.747109867
 40
1.0
 40
1.0
 40
1.0
 40
1.0
 10
265.4867644043
 20
141.6613573196
 30
0.0
 10
265.4546093157
 20
142.1858920158
 30
0.0
 10
265.3502357923
 20
143.2329344353
 30
0.0
 10
265.1815171767
 20
144.8031668371
 30
0.0
 10
264.9975846088
 20
146.3803743462
 30
0.0
 10
264.7807024046
 20
147.4249520253
 30
0.0
 10
264.6188479259
 20
147.9344326281
 30
0.0
  0
SPLINE
  5
62C
100
AcDbEntity
  8
0
100
AcDbSpline
 62
7
  6
CONTINUOUS
 70
0
 71
3
 72
16
 73
12
 74
0
 42
0.0000001
 43
0.0000001
 44
0.0000000001
 40
0.0
 40
0.0
 40
0.0
 40
0.0
 40
0.201939794
 40
0.384235352
 40
0.545392969
 40
0.68423539
 40
0.7997300087
 40
0.8910732828
 40
0.9577702472
 40
0.9818875861
 40
1.0
 40
1.0
 40
1.0
 40
1.0
 10
245.4392453109
 20
64.3602958503
 30
0.0
 10
245.4650193807
 20
63.8601452861
 30
0.0
 10
245.518115418
 20
62.9086966515
 30
0.0
 10
245.6079548077
 20
61.5590731715
 30
0.0
 10
245.7033182342
 20
60.3667206474
 30
0.0
 10
245.8033833329
 20
59.3411270821
 30
0.0
 10
245.906765375
 20
58.4898704649
 30
0.0
 10
246.0128684032
 20
57.8198990864
 30
0.0
 10
246.1080045404
 20
57.3773579145
 30
0.0
 10
246.1910218115
 20
57.1201827869
 30
0.0
 10
246.2335277256
 20
57.0238866791
 30
0.0
 10
246.2562773491
 20
56.9851545152
 30
0.0
  0
SPLINE
  5
62D
100
AcDbEntity
  8
0
100
AcDbSpline
 62
7
  6
CONTINUOUS
 70
0
 71
3
 72
11
 73
7
 74
0
 42
0.0000001
 43
0.0000001
 44
0.0000000001
 40
0.0
 40
0.0
 40
0.0
 40
0.0
 40
0.2486075395
 40
0.4975975918
 40
0.7471098671
 40
1.0
 40
1.0
 40
1.0
 40
1.0
 10
244.3917261544
 20
141.661356291
 30
0.0
 10
244.4238812206
 20
142.1858910738
 30
0.0
 10
244.5282547446
 20
143.2329336661
 30
0.0
 10
244.6969733909
 20
144.8031663226
 30
0.0
 10
244.8809059689
 20
146.3803740899
 30
0.0
 10
245.097788191
 20
147.4249519429
 30
0.0
 10
245.2596426958
 20
147.9344326281
 30
0.0
  0
SPLINE
  5
62E
100
AcDbEntity
  8
0
100
AcDbSpline
 62
7
  6
CONTINUOUS
 70
0
 71
3
 72
11
 73
7
 74
0
 42
0.0000001
 43
0.0000001
 44
0.0000000001
 40
0.0
 40
0.0
 40
0.0
 40
0.0
 40
0.2486075395
 40
0.4975975918
 40
0.7471098671
 40
1.0
 40
1.0
 40
1.0
 40
1.0
 10
265.4867644674
 20
65.9079810088
 30
0.0
 10
265.4546094012
 20
65.383446226
 30
0.0
 10
265.3502358771
 20
64.3364036337
 30
0.0
 10
265.1815172309
 20
62.7661709771
 30
0.0
 10
264.9975846529
 20
61.1889632099
 30
0.0
 10
264.7807024307
 20
60.1443853568
 30
0.0
 10
264.6188479259
 20
59.6349046716
 30
0.0
  0
SPLINE
  5
62F
100
AcDbEntity
  8
0
100
AcDbSpline
 62
7
  6
CONTINUOUS
 70
0
 71
3
 72
11
 73
7
 74
0
 42
0.0000001
 43
0.0000001
 44
0.0000000001
 40
0.0
 40
0.0
 40
0.0
 40
0.0
 40
0.2486075396
 40
0.4975975916
 40
0.747109867
 40
1.0
 40
1.0
 40
1.0
 40
1.0
 10
244.3917262174
 20
65.9079799801
 30
0.0
 10
244.423881306
 20
65.3834452839
 30
0.0
 10
244.5282548294
 20
64.3364028644
 30
0.0
 10
244.6969734451
 20
62.7661704627
 30
0.0
 10
244.880906013
 20
61.1889629535
 30
0.0
 10
245.0977882172
 20
60.1443852744
 30
0.0
 10
245.2596426958
 20
59.6349046716
 30
0.0
  0
SPLINE
  5
630
100
AcDbEntity
  8
0
100
AcDbSpline
 62
7
  6
CONTINUOUS
 70
0
 71
3
 72
16
 73
12
 74
0
 42
0.0000001
 43
0.0000001
 44
0.0000000001
 40
0.0
 40
0.0
 40
0.0
 40
0.0
 40
0.201939665
 40
0.3842351265
 40
0.5453926828
 40
0.6842350812
 40
0.7997297177
 40
0.8910730508
 40
0.9577701145
 40
0.9818875167
 40
1.0
 40
1.0
 40
1.0
 40
1.0
 10
264.4392453109
 20
64.3602958503
 30
0.0
 10
264.4134712631
 20
63.8601457151
 30
0.0
 10
264.360375272
 20
62.908697847
 30
0.0
 10
264.2705359692
 20
61.5590753694
 30
0.0
 10
264.1751726372
 20
60.366723548
 30
0.0
 10
264.0751076389
 20
59.3411303623
 30
0.0
 10
263.9717256949
 20
58.4898737891
 30
0.0
 10
263.8656227663
 20
57.8199020998
 30
0.0
 10
263.7704867102
 20
57.3773604607
 30
0.0
 10
263.687469543
 20
57.1201847561
 30
0.0
 10
263.6449636843
 20
57.0238882991
 30
0.0
 10
263.6222141001
 20
56.9851559239
 30
0.0
  0
SPLINE
  5
631
100
AcDbEntity
  8
0
100
AcDbSpline
 62
7
  6
CONTINUOUS
 70
0
 71
3
 72
16
 73
12
 74
0
 42
0.0000001
 43
0.0000001
 44
0.0000000001
 40
0.0
 40
0.0
 40
0.0
 40
0.0
 40
0.201939794
 40
0.384235352
 40
0.545392969
 40
0.68423539
 40
0.7997300087
 40
0.8910732828
 40
0.9577702472
 40
0.9818875861
 40
1.0
 40
1.0
 40
1.0
 40
1.0
 10
264.4392453109
 20
143.2090414494
 30
0.0
 10
264.413471241
 20
143.7091920136
 30
0.0
 10
264.3603752038
 20
144.6606406482
 30
0.0
 10
264.270535814
 20
146.0102641282
 30
0.0
 10
264.1751723875
 20
147.2026166523
 30
0.0
 10
264.0751072889
 20
148.2282102176
 30
0.0
 10
263.9717252468
 20
149.0794668348
 30
0.0
 10
263.8656222186
 20
149.7494382134
 30
0.0
 10
263.7704860813
 20
150.1919793852
 30
0.0
 10
263.6874688103
 20
150.4491545128
 30
0.0
 10
263.6449628961
 20
150.5454506206
 30
0.0
 10
263.6222132727
 20
150.5841827845
 30
0.0
  0
SPLINE
  5
632
100
AcDbEntity
  8
0
100
AcDbSpline
 62
7
  6
CONTINUOUS
 70
0
 71
3
 72
16
 73
12
 74
0
 42
0.0000001
 43
0.0000001
 44
0.0000000001
 40
0.0
 40
0.0
 40
0.0
 40
0.0
 40
0.201939665
 40
0.3842351265
 40
0.5453926828
 40
0.6842350812
 40
0.7997297177
 40
0.8910730508
 40
0.9577701145
 40
0.9818875167
 40
1.0
 40
1.0
 40
1.0
 40
1.0
 10
245.4392453109
 20
143.2090414494
 30
0.0
 10
245.4650193586
 20
143.7091915846
 30
0.0
 10
245.5181153497
 20
144.6606394527
 30
0.0
 10
245.6079546525
 20
146.0102619303
 30
0.0
 10
245.7033179845
 20
147.2026137518
 30
0.0
 10
245.8033829829
 20
148.2282069375
 30
0.0
 10
245.9067649268
 20
149.0794635107
 30
0.0
 10
246.0128678555
 20
149.7494352
 30
0.0
 10
246.1080039115
 20
150.191976839
 30
0.0
 10
246.1910210787
 20
150.4491525437
 30
0.0
 10
246.2335269375
 20
150.5454490006
 30
0.0
 10
246.2562765217
 20
150.5841813758
 30
0.0
  0
SPLINE
  5
633
100
AcDbEntity
  8
0
100
AcDbSpline
 62
7
  6
CONTINUOUS
 70
0
 71
3
 72
9
 73
5
 74
0
 42
0.0000001
 43
0.0000001
 44
0.0000000001
 40
0.0
 40
0.0
 40
0.0
 40
0.0
 40
0.5031893785
 40
1.0
 40
1.0
 40
1.0
 40
1.0
 10
265.2177137228
 20
68.9673339209
 30
0.0
 10
265.3745664751
 20
68.4743448
 30
0.0
 10
265.5430286522
 20
67.4476525912
 30
0.0
 10
265.5180178044
 20
66.4178061866
 30
0.0
 10
265.4867644674
 20
65.9079810088
 30
0.0
  0
SPLINE
  5
634
100
AcDbEntity
  8
0
100
AcDbSpline
 62
7
  6
CONTINUOUS
 70
0
 71
3
 72
9
 73
5
 74
0
 42
0.0000001
 43
0.0000001
 44
0.0000000001
 40
0.0
 40
0.0
 40
0.0
 40
0.0
 40
0.503189377
 40
1.0
 40
1.0
 40
1.0
 40
1.0
 10
244.6607768989
 20
68.9673339209
 30
0.0
 10
244.5039240948
 20
68.4743446373
 30
0.0
 10
244.3354619116
 20
67.4476520718
 30
0.0
 10
244.3604728431
 20
66.4178053276
 30
0.0
 10
244.3917262174
 20
65.9079799801
 30
0.0
  0
SPLINE
  5
635
100
AcDbEntity
  8
0
100
AcDbSpline
 62
7
  6
CONTINUOUS
 70
0
 71
3
 72
9
 73
5
 74
0
 42
0.0000001
 43
0.0000001
 44
0.0000000001
 40
0.0
 40
0.0
 40
0.0
 40
0.0
 40
0.2501515548
 40
1.0
 40
1.0
 40
1.0
 40
1.0
 10
245.1039940443
 20
103.7846686499
 30
0.0
 10
245.02511852
 20
103.3737081688
 30
0.0
 10
244.7323788906
 20
101.7265179028
 30
0.0
 10
244.5232879296
 20
100.0652009819
 30
0.0
 10
244.3985939975
 20
98.8170443153
 30
0.0
  0
SPLINE
  5
636
100
AcDbEntity
  8
0
100
AcDbSpline
 62
7
  6
CONTINUOUS
 70
0
 71
3
 72
9
 73
5
 74
0
 42
0.0000001
 43
0.0000001
 44
0.0000000001
 40
0.0
 40
0.0
 40
0.0
 40
0.0
 40
0.2501515548
 40
1.0
 40
1.0
 40
1.0
 40
1.0
 10
245.1039940443
 20
103.7846686499
 30
0.0
 10
245.02511852
 20
104.1956291309
 30
0.0
 10
244.7323788906
 20
105.8428193969
 30
0.0
 10
244.5232879296
 20
107.5041363178
 30
0.0
 10
244.3985939975
 20
108.7522929844
 30
0.0
  0
SPLINE
  5
637
100
AcDbEntity
  8
0
100
AcDbSpline
 62
7
  6
CONTINUOUS
 70
0
 71
3
 72
15
 73
11
 74
0
 42
0.0000001
 43
0.0000001
 44
0.0000000001
 40
0.0
 40
0.0
 40
0.0
 40
0.0
 40
0.1250115014
 40
0.2500004791
 40
0.3749825296
 40
0.4999645562
 40
0.6249496333
 40
0.7499420067
 40
0.8749510833
 40
1.0
 40
1.0
 40
1.0
 40
1.0
 10
244.381170343
 20
108.9323622903
 30
0.0
 10
244.2682471133
 20
110.1411785293
 30
0.0
 10
244.1041816969
 20
112.5644922032
 30
0.0
 10
243.9861133827
 20
116.2047175664
 30
0.0
 10
243.9555822248
 20
119.8462955789
 30
0.0
 10
243.9880541886
 20
123.4876989329
 30
0.0
 10
244.0752137248
 20
127.1283020931
 30
0.0
 10
244.2256875519
 20
130.76723507
 30
0.0
 10
244.4659290259
 20
134.4021176604
 30
0.0
 10
244.7164487344
 20
136.818757443
 30
0.0
 10
244.8757764776
 20
138.0227032365
 30
0.0
  0
SPLINE
  5
638
100
AcDbEntity
  8
0
100
AcDbSpline
 62
7
  6
CONTINUOUS
 70
0
 71
3
 72
9
 73
5
 74
0
 42
0.0000001
 43
0.0000001
 44
0.0000000001
 40
0.0
 40
0.0
 40
0.0
 40
0.0
 40
0.5031893785
 40
1.0
 40
1.0
 40
1.0
 40
1.0
 10
244.6607768989
 20
138.6020033788
 30
0.0
 10
244.5039241466
 20
139.0949924997
 30
0.0
 10
244.3354619696
 20
140.1216847085
 30
0.0
 10
244.3604728174
 20
141.1515311131
 30
0.0
 10
244.3917261544
 20
141.661356291
 30
0.0
  0
SPLINE
  5
639
100
AcDbEntity
  8
0
100
AcDbSpline
 62
7
  6
CONTINUOUS
 70
0
 71
3
 72
9
 73
5
 74
0
 42
0.0000001
 43
0.0000001
 44
0.0000000001
 40
0.0
 40
0.0
 40
0.0
 40
0.0
 40
0.503189377
 40
1.0
 40
1.0
 40
1.0
 40
1.0
 10
265.2177137228
 20
138.6020033788
 30
0.0
 10
265.3745665269
 20
139.0949926625
 30
0.0
 10
265.5430287101
 20
140.1216852279
 30
0.0
 10
265.5180177786
 20
141.1515319721
 30
0.0
 10
265.4867644043
 20
141.6613573196
 30
0.0
  0
SPLINE
  5
63A
100
AcDbEntity
  8
0
100
AcDbSpline
 62
7
  6
CONTINUOUS
 70
0
 71
3
 72
15
 73
11
 74
0
 42
0.0000001
 43
0.0000001
 44
0.0000000001
 40
0.0
 40
0.0
 40
0.0
 40
0.0
 40
0.1250115014
 40
0.2500004791
 40
0.3749825296
 40
0.4999645562
 40
0.6249496333
 40
0.7499420067
 40
0.8749510833
 40
1.0
 40
1.0
 40
1.0
 40
1.0
 10
265.4973202788
 20
108.9323622903
 30
0.0
 10
265.6102435084
 20
110.1411785293
 30
0.0
 10
265.7743089248
 20
112.5644922032
 30
0.0
 10
265.892377239
 20
116.2047175664
 30
0.0
 10
265.9229083969
 20
119.8462955789
 30
0.0
 10
265.8904364331
 20
123.4876989329
 30
0.0
 10
265.8032768969
 20
127.1283020931
 30
0.0
 10
265.6528030698
 20
130.76723507
 30
0.0
 10
265.4125615958
 20
134.4021176604
 30
0.0
 10
265.1620418873
 20
136.818757443
 30
0.0
 10
265.0027141442
 20
138.0227032365
 30
0.0
  0
SPLINE
  5
63B
100
AcDbEntity
  8
0
100
AcDbSpline
 62
7
  6
CONTINUOUS
 70
0
 71
3
 72
9
 73
5
 74
0
 42
0.0000001
 43
0.0000001
 44
0.0000000001
 40
0.0
 40
0.0
 40
0.0
 40
0.0
 40
0.2501515548
 40
1.0
 40
1.0
 40
1.0
 40
1.0
 10
264.7744965774
 20
103.7846686499
 30
0.0
 10
264.8533721018
 20
104.1956291309
 30
0.0
 10
265.1461117312
 20
105.8428193969
 30
0.0
 10
265.3552026921
 20
107.5041363178
 30
0.0
 10
265.4798966243
 20
108.7522929844
 30
0.0
  0
SPLINE
  5
63C
100
AcDbEntity
  8
0
100
AcDbSpline
 62
7
  6
CONTINUOUS
 70
0
 71
3
 72
9
 73
5
 74
0
 42
0.0000001
 43
0.0000001
 44
0.0000000001
 40
0.0
 40
0.0
 40
0.0
 40
0.0
 40
0.2501515548
 40
1.0
 40
1.0
 40
1.0
 40
1.0
 10
264.7744965774
 20
103.7846686499
 30
0.0
 10
264.8533721018
 20
103.3737081688
 30
0.0
 10
265.1461117312
 20
101.7265179028
 30
0.0
 10
265.3552026921
 20
100.0652009819
 30
0.0
 10
265.4798966243
 20
98.8170443153
 30
0.0
  0
SPLINE
  5
63D
100
AcDbEntity
  8
0
100
AcDbSpline
 62
7
  6
CONTINUOUS
 70
0
 71
3
 72
15
 73
11
 74
0
 42
0.0000001
 43
0.0000001
 44
0.0000000001
 40
0.0
 40
0.0
 40
0.0
 40
0.0
 40
0.1250115014
 40
0.2500004791
 40
0.3749825296
 40
0.4999645562
 40
0.6249496333
 40
0.7499420067
 40
0.8749510833
 40
1.0
 40
1.0
 40
1.0
 40
1.0
 10
244.381170343
 20
98.6369750094
 30
0.0
 10
244.2682471133
 20
97.4281587704
 30
0.0
 10
244.1041816969
 20
95.0048450965
 30
0.0
 10
243.9861133827
 20
91.3646197333
 30
0.0
 10
243.9555822248
 20
87.7230417209
 30
0.0
 10
243.9880541886
 20
84.0816383668
 30
0.0
 10
244.0752137248
 20
80.4410352066
 30
0.0
 10
244.2256875519
 20
76.8021022298
 30
0.0
 10
244.4659290259
 20
73.1672196394
 30
0.0
 10
244.7164487344
 20
70.7505798567
 30
0.0
 10
244.8757764776
 20
69.5466340632
 30
0.0
  0
SPLINE
  5
63E
100
AcDbEntity
  8
0
100
AcDbSpline
 62
7
  6
CONTINUOUS
 70
0
 71
3
 72
15
 73
11
 74
0
 42
0.0000001
 43
0.0000001
 44
0.0000000001
 40
0.0
 40
0.0
 40
0.0
 40
0.0
 40
0.1250115014
 40
0.2500004791
 40
0.3749825296
 40
0.4999645562
 40
0.6249496333
 40
0.7499420067
 40
0.8749510833
 40
1.0
 40
1.0
 40
1.0
 40
1.0
 10
265.4973202788
 20
98.6369750094
 30
0.0
 10
265.6102435084
 20
97.4281587704
 30
0.0
 10
265.7743089248
 20
95.0048450965
 30
0.0
 10
265.892377239
 20
91.3646197333
 30
0.0
 10
265.9229083969
 20
87.7230417209
 30
0.0
 10
265.8904364331
 20
84.0816383668
 30
0.0
 10
265.8032768969
 20
80.4410352066
 30
0.0
 10
265.6528030698
 20
76.8021022298
 30
0.0
 10
265.4125615958
 20
73.1672196394
 30
0.0
 10
265.1620418873
 20
70.7505798567
 30
0.0
 10
265.0027141442
 20
69.5466340632
 30
0.0
  0
ELLIPSE
  5
63F
100
AcDbEntity
  8
0
100
AcDbEllipse
 62
7
  6
CONTINUOUS
 10
254.6392453109
 20
342.6341397115
 30
0.0
 11
0.0
 21
23.9668193952
 31
0.0
 40
0.383864035
 41
-4.7123889804
 42
-4.5156657425
  0
ELLIPSE
  5
640
100
AcDbEntity
  8
0
100
AcDbEllipse
 62
7
  6
CONTINUOUS
 10
254.6392453109
 20
335.7290657766
 30
0.0
 11
-0.0
 21
11.3610538401
 31
0.0
 40
0.8097840332
 41
1.3740730889
 42
1.5707963268
  0
ELLIPSE
  5
641
100
AcDbEntity
  8
0
100
AcDbEllipse
 62
7
  6
CONTINUOUS
 10
255.2392453109
 20
342.6341397115
 30
0.0
 11
-0.0
 21
23.9668193952
 31
0.0
 40
0.383864035
 41
-1.7675195647
 42
-1.5707963268
  0
ELLIPSE
  5
642
100
AcDbEntity
  8
0
100
AcDbEllipse
 62
7
  6
CONTINUOUS
 10
255.2392453109
 20
335.7290657766
 30
0.0
 11
0.0
 21
11.3610538401
 31
0.0
 40
0.8097840332
 41
-1.5707963268
 42
-1.3740730889
  0
ELLIPSE
  5
643
100
AcDbEntity
  8
0
100
AcDbEllipse
 62
7
  6
CONTINUOUS
 10
255.2392453109
 20
334.9881274826
 30
0.0
 11
-0.0
 21
11.3610538401
 31
0.0
 40
0.8097840332
 41
-2.1193859314
 42
-1.5707963268
  0
ELLIPSE
  5
644
100
AcDbEntity
  8
0
100
AcDbEllipse
 62
7
  6
CONTINUOUS
 10
254.6392453109
 20
334.9881274826
 30
0.0
 11
0.0
 21
11.3610538401
 31
0.0
 40
0.8097840332
 41
-4.7123889804
 42
-4.1637993758
  0
ELLIPSE
  5
645
100
AcDbEntity
  8
0
100
AcDbEllipse
 62
7
  6
CONTINUOUS
 10
216.9392453109
 20
263.4750969703
 30
0.0
 11
30.5
 21
0.0
 31
0.0
 40
0.255319362
 41
2.8449096846
 42
2.8676888123
  0
ELLIPSE
  5
646
100
AcDbEntity
  8
0
100
AcDbEllipse
 62
7
  6
CONTINUOUS
 10
216.9392453109
 20
259.6807714973
 30
0.0
 11
30.5
 21
-0.0
 31
0.0
 40
0.6808512211
 41
2.8277213133
 42
2.8449096846
  0
ELLIPSE
  5
647
100
AcDbEntity
  8
0
100
AcDbEllipse
 62
7
  6
CONTINUOUS
 10
216.9392453109
 20
251.6666183561
 30
0.0
 11
0.0
 21
46.7233095678
 31
0.0
 40
0.6527791007
 41
1.2454128851
 42
1.2569249865
  0
ELLIPSE
  5
648
100
AcDbEntity
  8
0
100
AcDbEllipse
 62
7
  6
CONTINUOUS
 10
216.9392453109
 20
226.7728238748
 30
0.0
 11
-0.0
 21
124.5962051247
 31
0.0
 40
0.244790762
 41
1.2396401633
 42
1.2454128851
  0
ELLIPSE
  5
649
100
AcDbEntity
  8
0
100
AcDbEllipse
 62
7
  6
CONTINUOUS
 10
216.9392453109
 20
310.3475861138
 30
0.0
 11
-0.0
 21
124.5962051247
 31
0.0
 40
0.244790762
 41
-4.3870055387
 42
-4.3812328169
  0
ELLIPSE
  5
64A
100
AcDbEntity
  8
0
100
AcDbEllipse
 62
7
  6
CONTINUOUS
 10
216.9392453109
 20
285.4538055799
 30
0.0
 11
0.0
 21
46.7233531983
 31
0.0
 40
0.6527784911
 41
-4.3985176401
 42
-4.3870055387
  0
ELLIPSE
  5
64B
100
AcDbEntity
  8
0
100
AcDbEllipse
 62
7
  6
CONTINUOUS
 10
216.9392453109
 20
277.4396367231
 30
0.0
 11
30.5
 21
-0.0
 31
0.0
 40
0.6808509827
 41
-2.8449096846
 42
-2.8277213133
  0
ELLIPSE
  5
64C
100
AcDbEntity
  8
0
100
AcDbEllipse
 62
7
  6
CONTINUOUS
 10
216.9392453109
 20
273.6453133759
 30
0.0
 11
30.5
 21
-0.0
 31
0.0
 40
0.255319362
 41
-2.8676888123
 42
-2.8449096846
  0
ELLIPSE
  5
64D
100
AcDbEntity
  8
0
100
AcDbEllipse
 62
7
  6
CONTINUOUS
 10
216.9392453109
 20
265.5176519575
 30
0.0
 11
30.5
 21
-0.0
 31
0.0
 40
0.2553189968
 41
3.1115334719
 42
3.1333958405
  0
ELLIPSE
  5
64E
100
AcDbEntity
  8
0
100
AcDbEllipse
 62
7
  6
CONTINUOUS
 10
216.9392453109
 20
265.1275806166
 30
0.0
 11
30.5
 21
-0.0
 31
0.0
 40
0.6808512211
 41
3.0951278381
 42
3.1115334719
  0
ELLIPSE
  5
64F
100
AcDbEntity
  8
0
100
AcDbEllipse
 62
7
  6
CONTINUOUS
 10
216.9392453109
 20
263.921904999
 30
0.0
 11
0.0
 21
46.7234432444
 31
0.0
 40
0.6527772331
 41
1.5133877488
 42
1.5243315113
  0
ELLIPSE
  5
650
100
AcDbEntity
  8
0
100
AcDbEllipse
 62
7
  6
CONTINUOUS
 10
216.9392453109
 20
259.4538366174
 30
0.0
 11
0.0
 21
124.5954921808
 31
0.0
 40
0.2447921628
 41
1.5079133518
 42
1.5133877488
  0
ELLIPSE
  5
651
100
AcDbEntity
  8
0
100
AcDbEllipse
 62
7
  6
CONTINUOUS
 10
216.9392453109
 20
237.6624746472
 30
0.0
 11
30.5
 21
0.0
 31
0.0
 40
0.1702127606
 41
-3.0099559697
 42
-2.974726444
  0
ELLIPSE
  5
652
100
AcDbEntity
  8
0
100
AcDbEllipse
 62
7
  6
CONTINUOUS
 10
216.9392453109
 20
238.3438931229
 30
0.0
 11
30.5
 21
-0.0
 31
0.0
 40
0.3404255211
 41
-3.0275065216
 42
-3.0099559697
  0
ELLIPSE
  5
653
100
AcDbEntity
  8
0
100
AcDbEllipse
 62
7
  6
CONTINUOUS
 10
216.9392453109
 20
239.525879016
 30
0.0
 11
30.5
 21
0.0
 31
0.0
 40
0.6808510423
 41
-3.0450218455
 42
-3.0275065216
  0
ELLIPSE
  5
654
100
AcDbEntity
  8
0
100
AcDbEllipse
 62
7
  6
CONTINUOUS
 10
216.9392453109
 20
243.5304068992
 30
0.0
 11
0.0
 21
62.2977515442
 31
0.0
 40
0.4895842826
 41
-4.6274782531
 42
-4.6158181723
  0
ELLIPSE
  5
655
100
AcDbEntity
  8
0
100
AcDbEllipse
 62
7
  6
CONTINUOUS
 10
216.9392453109
 20
252.7735649615
 30
0.0
 11
30.5
 21
-0.0
 31
0.0
 40
0.2042551568
 41
-2.7888007523
 42
-2.7576821394
  0
ELLIPSE
  5
656
100
AcDbEntity
  8
0
100
AcDbEllipse
 62
7
  6
CONTINUOUS
 10
216.9392453109
 20
256.0023376196
 30
0.0
 11
30.5
 21
-0.0
 31
0.0
 40
0.510638791
 41
-2.8134397112
 42
-2.7888007523
  0
ELLIPSE
  5
657
100
AcDbEntity
  8
0
100
AcDbEllipse
 62
7
  6
CONTINUOUS
 10
216.9392453109
 20
261.021916496
 30
0.0
 11
-0.0
 21
31.1489648899
 31
0.0
 40
0.9791657639
 41
-4.4086699708
 42
-4.3842360379
  0
ELLIPSE
  5
658
100
AcDbEntity
  8
0
100
AcDbEllipse
 62
7
  6
CONTINUOUS
 10
216.9392453109
 20
270.337618782
 30
0.0
 11
-0.0
 21
62.297756998
 31
0.0
 40
0.4895842398
 41
-4.4208161599
 42
-4.4086699708
  0
ELLIPSE
  5
659
100
AcDbEntity
  8
0
100
AcDbEllipse
 62
7
  6
CONTINUOUS
 10
216.9392453109
 20
297.1999450462
 30
0.0
 11
-0.0
 21
155.7452564059
 31
0.0
 40
0.1958326096
 41
-4.426872534
 42
-4.4208161599
  0
ELLIPSE
  5
65A
100
AcDbEntity
  8
0
100
AcDbEllipse
 62
7
  6
CONTINUOUS
 10
216.9392453109
 20
212.1804403501
 30
0.0
 11
0.0
 21
155.7453436674
 31
0.0
 40
0.1958324999
 41
1.2792235063
 42
1.2852798804
  0
ELLIPSE
  5
65B
100
AcDbEntity
  8
0
100
AcDbEllipse
 62
7
  6
CONTINUOUS
 10
216.9392453109
 20
239.0427948339
 30
0.0
 11
0.0
 21
62.2977460904
 31
0.0
 40
0.4895843255
 41
1.2670773172
 42
1.2792235063
  0
ELLIPSE
  5
65C
100
AcDbEntity
  8
0
100
AcDbEllipse
 62
7
  6
CONTINUOUS
 10
216.9392453109
 20
248.3584946732
 30
0.0
 11
-0.0
 21
31.1489621629
 31
0.0
 40
0.9791658496
 41
1.2426433844
 42
1.2670773172
  0
ELLIPSE
  5
65D
100
AcDbEntity
  8
0
100
AcDbEllipse
 62
7
  6
CONTINUOUS
 10
216.9392453109
 20
253.37807333
 30
0.0
 11
30.5
 21
0.0
 31
0.0
 40
0.510638724
 41
2.7888007523
 42
2.8134397112
  0
ELLIPSE
  5
65E
100
AcDbEntity
  8
0
100
AcDbEllipse
 62
7
  6
CONTINUOUS
 10
216.9392453109
 20
256.6068454698
 30
0.0
 11
30.5
 21
0.0
 31
0.0
 40
0.204255139
 41
2.7576821394
 42
2.7888007523
  0
ELLIPSE
  5
65F
100
AcDbEntity
  8
0
100
AcDbEllipse
 62
7
  6
CONTINUOUS
 10
216.9392453109
 20
300.9935225824
 30
0.0
 11
-0.0
 21
93.4461716944
 31
0.0
 40
0.3263911132
 41
-4.2259902406
 42
-4.2194109763
  0
ELLIPSE
  5
660
100
AcDbEntity
  8
0
100
AcDbEllipse
 62
7
  6
CONTINUOUS
 10
216.9392453109
 20
267.0194944706
 30
0.0
 11
30.5
 21
0.0
 31
0.0
 40
0.6808509827
 41
-2.6747967439
 42
-2.6551939138
  0
ELLIPSE
  5
661
100
AcDbEntity
  8
0
100
AcDbEllipse
 62
7
  6
CONTINUOUS
 10
216.9392453109
 20
261.1787186546
 30
0.0
 11
30.5
 21
0.0
 31
0.0
 40
0.255319362
 41
-2.7006376866
 42
-2.6747967439
  0
ELLIPSE
  5
662
100
AcDbEntity
  8
0
100
AcDbEllipse
 62
7
  6
CONTINUOUS
 10
216.9392453109
 20
259.5738220593
 30
0.0
 11
30.5
 21
-0.0
 31
0.0
 40
0.3404254913
 41
-2.9752944269
 42
-2.9576055572
  0
ELLIPSE
  5
663
100
AcDbEntity
  8
0
100
AcDbEllipse
 62
7
  6
CONTINUOUS
 10
216.9392453109
 20
263.3729596731
 30
0.0
 11
-0.0
 21
31.1488730452
 31
0.0
 40
0.979168651
 41
-4.528401884
 42
-4.5165772027
  0
ELLIPSE
  5
664
100
AcDbEntity
  8
0
100
AcDbEllipse
 62
7
  6
CONTINUOUS
 10
216.9392453109
 20
275.4939085653
 30
0.0
 11
-0.0
 21
93.447241105
 31
0.0
 40
0.3263873779
 41
-4.5165772027
 42
-4.5106545867
  0
ELLIPSE
  5
665
100
AcDbEntity
  8
0
100
AcDbEllipse
 62
7
  6
CONTINUOUS
 10
216.9392453109
 20
248.2016916991
 30
0.0
 11
30.5
 21
0.0
 31
0.0
 40
0.255319362
 41
2.6747967439
 42
2.7006376866
  0
ELLIPSE
  5
666
100
AcDbEntity
  8
0
100
AcDbEllipse
 62
7
  6
CONTINUOUS
 10
216.9392453109
 20
237.6843910339
 30
0.0
 11
0.0
 21
93.4471538435
 31
0.0
 40
0.3263876827
 41
1.3690619331
 42
1.3749845491
  0
ELLIPSE
  5
667
100
AcDbEntity
  8
0
100
AcDbEllipse
 62
7
  6
CONTINUOUS
 10
216.9392453109
 20
242.3609126106
 30
0.0
 11
30.5
 21
0.0
 31
0.0
 40
0.6808512211
 41
2.6551939138
 42
2.6747967439
  0
ELLIPSE
  5
668
100
AcDbEntity
  8
0
100
AcDbEllipse
 62
7
  6
CONTINUOUS
 10
216.9392453109
 20
249.8053229482
 30
0.0
 11
0.0
 21
31.1488730452
 31
0.0
 40
0.979168651
 41
1.3749845491
 42
1.3868092304
  0
ELLIPSE
  5
669
100
AcDbEntity
  8
0
100
AcDbEllipse
 62
7
  6
CONTINUOUS
 10
216.9392453109
 20
208.3869286875
 30
0.0
 11
0.0
 21
93.4460844339
 31
0.0
 40
0.3263914179
 41
1.0778183227
 42
1.084397587
  0
ELLIPSE
  5
66A
100
AcDbEntity
  8
0
100
AcDbEllipse
 62
7
  6
CONTINUOUS
 10
216.9392453109
 20
253.6044605621
 30
0.0
 11
30.5
 21
0.0
 31
0.0
 40
0.3404254913
 41
2.9576055572
 42
2.9752944269
  0
ELLIPSE
  5
66B
100
AcDbEntity
  8
0
100
AcDbEllipse
 62
7
  6
CONTINUOUS
 10
216.9392453109
 20
233.8865188929
 30
0.0
 11
0.0
 21
93.4471538435
 31
0.0
 40
0.3263876827
 41
1.3690619331
 42
1.3749845491
  0
ELLIPSE
  5
66C
100
AcDbEntity
  8
0
100
AcDbEllipse
 62
7
  6
CONTINUOUS
 10
216.9392453109
 20
246.007448685
 30
0.0
 11
0.0
 21
31.1488839528
 31
0.0
 40
0.9791683081
 41
1.3749845491
 42
1.3868092304
  0
ELLIPSE
  5
66D
100
AcDbEntity
  8
0
100
AcDbEllipse
 62
7
  6
CONTINUOUS
 10
216.9392453109
 20
249.8065882944
 30
0.0
 11
30.5
 21
0.0
 31
0.0
 40
0.3404254913
 41
2.9576055572
 42
2.9752944269
  0
ELLIPSE
  5
66E
100
AcDbEntity
  8
0
100
AcDbEllipse
 62
7
  6
CONTINUOUS
 10
216.9392453109
 20
271.8768787243
 30
0.0
 11
0.0
 21
93.4471974743
 31
0.0
 40
0.3263875303
 41
-4.5165772027
 42
-4.5106545867
  0
ELLIPSE
  5
66F
100
AcDbEntity
  8
0
100
AcDbEllipse
 62
7
  6
CONTINUOUS
 10
216.9392453109
 20
259.7559383211
 30
0.0
 11
-0.0
 21
31.1488730452
 31
0.0
 40
0.979168651
 41
-4.528401884
 42
-4.5165772027
  0
ELLIPSE
  5
670
100
AcDbEntity
  8
0
100
AcDbEllipse
 62
7
  6
CONTINUOUS
 10
216.9392453109
 20
255.9568007072
 30
0.0
 11
30.5
 21
-0.0
 31
0.0
 40
0.3404254913
 41
-2.9752944269
 42
-2.9576055572
  0
ELLIPSE
  5
671
100
AcDbEntity
  8
0
100
AcDbEllipse
 62
7
  6
CONTINUOUS
 10
216.9392453109
 20
259.0017675179
 30
0.0
 11
30.0
 21
0.0
 31
0.0
 40
0.6808512211
 41
-2.795236887
 42
-2.7763450477
  0
ELLIPSE
  5
672
100
AcDbEntity
  8
0
100
AcDbEllipse
 62
7
  6
CONTINUOUS
 10
216.9392453109
 20
267.669110761
 30
0.0
 11
0.0
 21
45.9573536733
 31
0.0
 40
0.6527791007
 41
-4.3785561421
 42
-4.3660332137
  0
ELLIPSE
  5
673
100
AcDbEntity
  8
0
100
AcDbEllipse
 62
7
  6
CONTINUOUS
 10
216.9392453109
 20
292.7671620175
 30
0.0
 11
0.0
 21
122.5536443849
 31
0.0
 40
0.244790762
 41
-4.3847970963
 42
-4.3785561421
  0
ELLIPSE
  5
674
100
AcDbEntity
  8
0
100
AcDbEllipse
 62
7
  6
CONTINUOUS
 10
216.9392453109
 20
216.6132479562
 30
0.0
 11
-0.0
 21
122.5536443849
 31
0.0
 40
0.244790762
 41
1.2369634885
 42
1.2432044427
  0
ELLIPSE
  5
675
100
AcDbEntity
  8
0
100
AcDbEllipse
 62
7
  6
CONTINUOUS
 10
216.9392453109
 20
241.7112851508
 30
0.0
 11
0.0
 21
45.9573965885
 31
0.0
 40
0.6527784911
 41
1.2244405602
 42
1.2369634885
  0
ELLIPSE
  5
676
100
AcDbEntity
  8
0
100
AcDbEllipse
 62
7
  6
CONTINUOUS
 10
216.9392453109
 20
250.3786453905
 30
0.0
 11
30.0
 21
0.0
 31
0.0
 40
0.6808509827
 41
2.7763450477
 42
2.795236887
  0
ELLIPSE
  5
677
100
AcDbEntity
  8
0
100
AcDbEllipse
 62
7
  6
CONTINUOUS
 10
216.9392453109
 20
254.9383942983
 30
0.0
 11
30.0
 21
0.0
 31
0.0
 40
0.255319362
 41
2.7509403381
 42
2.7763450477
  0
ELLIPSE
  5
678
100
AcDbEntity
  8
0
100
AcDbEllipse
 62
7
  6
CONTINUOUS
 10
216.9392453109
 20
325.581715548
 30
0.0
 11
-0.0
 21
155.7453436674
 31
0.0
 40
0.1958324999
 41
-4.3521915334
 42
-4.3463458891
  0
ELLIPSE
  5
679
100
AcDbEntity
  8
0
100
AcDbEllipse
 62
7
  6
CONTINUOUS
 10
216.9392453109
 20
211.5387256735
 30
0.0
 11
0.0
 21
155.7452564059
 31
0.0
 40
0.1958326096
 41
1.2047532356
 42
1.2105988798
  0
ELLIPSE
  5
67A
100
AcDbEntity
  8
0
100
AcDbEllipse
 62
7
  6
CONTINUOUS
 10
216.9392453109
 20
249.2466309605
 30
0.0
 11
0.0
 21
93.4471756589
 31
0.0
 40
0.3263876065
 41
-4.5983028484
 42
-4.592456878
  0
ELLIPSE
  5
67B
100
AcDbEntity
  8
0
100
AcDbEllipse
 62
7
  6
CONTINUOUS
 10
216.9392453109
 20
240.550701017
 30
0.0
 11
30.5
 21
-0.0
 31
0.0
 40
0.6808509827
 41
-3.0216605512
 42
-3.0040970054
  0
ELLIPSE
  5
67C
100
AcDbEntity
  8
0
100
AcDbEllipse
 62
7
  6
CONTINUOUS
 10
216.9392453109
 20
262.8751000695
 30
0.0
 11
30.0
 21
0.0
 31
0.0
 40
0.2042551568
 41
2.8339867364
 42
2.8630029512
  0
ELLIPSE
  5
67D
100
AcDbEntity
  8
0
100
AcDbEllipse
 62
7
  6
CONTINUOUS
 10
216.9392453109
 20
260.0921151975
 30
0.0
 11
30.0
 21
0.0
 31
0.0
 40
0.510638791
 41
2.8105809255
 42
2.8339867364
  0
ELLIPSE
  5
67E
100
AcDbEntity
  8
0
100
AcDbEllipse
 62
7
  6
CONTINUOUS
 10
216.9392453109
 20
255.1133874207
 30
0.0
 11
-0.0
 21
30.6383261212
 31
0.0
 40
0.9791657639
 41
1.2161889454
 42
1.2397845987
  0
ELLIPSE
  5
67F
100
AcDbEntity
  8
0
100
AcDbEllipse
 62
7
  6
CONTINUOUS
 10
216.9392453109
 20
244.4751393992
 30
0.0
 11
-0.0
 21
61.2764822932
 31
0.0
 40
0.4895842398
 41
1.2043142626
 42
1.2161889454
  0
ELLIPSE
  5
680
100
AcDbEntity
  8
0
100
AcDbEllipse
 62
7
  6
CONTINUOUS
 10
216.9392453109
 20
211.5387256735
 30
0.0
 11
0.0
 21
153.1920554812
 31
0.0
 40
0.1958326096
 41
1.1983567179
 42
1.2043142626
  0
ELLIPSE
  5
681
100
AcDbEntity
  8
0
100
AcDbEllipse
 62
7
  6
CONTINUOUS
 10
216.9392453109
 20
325.581715548
 30
0.0
 11
-0.0
 21
153.1921413122
 31
0.0
 40
0.1958324999
 41
-4.3459069162
 42
-4.3399493715
  0
ELLIPSE
  5
682
100
AcDbEntity
  8
0
100
AcDbEllipse
 62
7
  6
CONTINUOUS
 10
216.9392453109
 20
292.6452672217
 30
0.0
 11
-0.0
 21
61.2764715643
 31
0.0
 40
0.4895843255
 41
-4.357781599
 42
-4.3459069162
  0
ELLIPSE
  5
683
100
AcDbEntity
  8
0
100
AcDbEllipse
 62
7
  6
CONTINUOUS
 10
216.9392453109
 20
282.0070219942
 30
0.0
 11
-0.0
 21
30.638323439
 31
0.0
 40
0.9791658496
 41
-4.3813772523
 42
-4.357781599
  0
ELLIPSE
  5
684
100
AcDbEntity
  8
0
100
AcDbEllipse
 62
7
  6
CONTINUOUS
 10
216.9392453109
 20
277.0282944353
 30
0.0
 11
30.0
 21
-0.0
 31
0.0
 40
0.510638724
 41
-2.8339867364
 42
-2.8105809255
  0
ELLIPSE
  5
685
100
AcDbEntity
  8
0
100
AcDbEllipse
 62
7
  6
CONTINUOUS
 10
216.9392453109
 20
274.24531001
 30
0.0
 11
30.0
 21
0.0
 31
0.0
 40
0.204255139
 41
-2.8630029512
 42
-2.8339867364
  0
ELLIPSE
  5
686
100
AcDbEntity
  8
0
100
AcDbEllipse
 62
7
  6
CONTINUOUS
 10
216.9392453109
 20
238.5583322687
 30
0.0
 11
30.5
 21
-0.0
 31
0.0
 40
0.2042552105
 41
-3.0040970054
 42
-2.974726444
  0
ELLIPSE
  5
687
100
AcDbEntity
  8
0
100
AcDbEllipse
 62
7
  6
CONTINUOUS
 10
216.9392453109
 20
335.9013416215
 30
0.0
 11
0.0
 21
153.1903881806
 31
0.0
 40
0.195834741
 41
-4.1764451554
 42
-4.1695655989
  0
ELLIPSE
  5
688
100
AcDbEntity
  8
0
100
AcDbEllipse
 62
7
  6
CONTINUOUS
 10
216.9392453109
 20
273.3197920983
 30
0.0
 11
-0.0
 21
30.638323439
 31
0.0
 40
0.9791658496
 41
-4.2036896676
 42
-4.1764451554
  0
ELLIPSE
  5
689
100
AcDbEntity
  8
0
100
AcDbEllipse
 62
7
  6
CONTINUOUS
 10
216.9392453109
 20
265.8587220425
 30
0.0
 11
30.0
 21
-0.0
 31
0.0
 40
0.510638724
 41
-2.6597299545
 42
-2.6328933408
  0
ELLIPSE
  5
68A
100
AcDbEntity
  8
0
100
AcDbEllipse
 62
7
  6
CONTINUOUS
 10
216.9392453109
 20
261.599096385
 30
0.0
 11
30.0
 21
-0.0
 31
0.0
 40
0.204255139
 41
-2.6927571559
 42
-2.6597299545
  0
ELLIPSE
  5
68B
100
AcDbEntity
  8
0
100
AcDbEllipse
 62
7
  6
CONTINUOUS
 10
216.9392453109
 20
244.4751393992
 30
0.0
 11
0.0
 21
62.297756998
 31
0.0
 40
0.4895842398
 41
1.2105988798
 42
1.2222519906
  0
ELLIPSE
  5
68C
100
AcDbEntity
  8
0
100
AcDbEllipse
 62
7
  6
CONTINUOUS
 10
216.9392453109
 20
255.1133874207
 30
0.0
 11
-0.0
 21
31.1489648899
 31
0.0
 40
0.9791657639
 41
1.2222519906
 42
1.2454128851
  0
ELLIPSE
  5
68D
100
AcDbEntity
  8
0
100
AcDbEllipse
 62
7
  6
CONTINUOUS
 10
216.9392453109
 20
189.1245115991
 30
0.0
 11
0.0
 21
124.5948010603
 31
0.0
 40
0.2447935206
 41
1.0378335147
 42
1.0445612096
  0
ELLIPSE
  5
68E
100
AcDbEntity
  8
0
100
AcDbEllipse
 62
7
  6
CONTINUOUS
 10
216.9392453109
 20
260.0921151975
 30
0.0
 11
30.5
 21
-0.0
 31
0.0
 40
0.510638791
 41
2.8162092119
 42
2.8391904878
  0
ELLIPSE
  5
68F
100
AcDbEntity
  8
0
100
AcDbEllipse
 62
7
  6
CONTINUOUS
 10
216.9392453109
 20
236.0606168857
 30
0.0
 11
0.0
 21
31.1489648899
 31
0.0
 40
0.9791657639
 41
1.0445612096
 42
1.0712157966
  0
ELLIPSE
  5
690
100
AcDbEntity
  8
0
100
AcDbEllipse
 62
7
  6
CONTINUOUS
 10
216.9392453109
 20
242.3596370736
 30
0.0
 11
0.0
 21
40.8510625362
 31
0.0
 40
0.7343750233
 41
1.3354063305
 42
1.3535782489
  0
ELLIPSE
  5
691
100
AcDbEntity
  8
0
100
AcDbEllipse
 62
7
  6
CONTINUOUS
 10
216.9392453109
 20
243.5216872681
 30
0.0
 11
30.5
 21
-0.0
 31
0.0
 40
0.510638791
 41
2.6420121234
 42
2.6682843777
  0
ELLIPSE
  5
692
100
AcDbEntity
  8
0
100
AcDbEllipse
 62
7
  6
CONTINUOUS
 10
216.9392453109
 20
262.8751000695
 30
0.0
 11
30.5
 21
0.0
 31
0.0
 40
0.2042551568
 41
2.8391904878
 42
2.8676888123
  0
ELLIPSE
  5
693
100
AcDbEntity
  8
0
100
AcDbEllipse
 62
7
  6
CONTINUOUS
 10
216.9392453109
 20
247.7813136093
 30
0.0
 11
30.5
 21
-0.0
 31
0.0
 40
0.2042551568
 41
2.6682843777
 42
2.7006376866
  0
ELLIPSE
  5
694
100
AcDbEntity
  8
0
100
AcDbEllipse
 62
7
  6
CONTINUOUS
 10
216.9392453109
 20
230.4503315406
 30
0.0
 11
0.0
 21
91.9152547465
 31
0.0
 40
0.3263876065
 41
1.3334055897
 42
1.3354063305
  0
ELLIPSE
  5
695
100
AcDbEntity
  8
0
100
AcDbEllipse
 62
7
  6
CONTINUOUS
 10
216.9392453109
 20
263.4037510939
 30
0.0
 11
-0.0
 21
40.85105896
 31
0.0
 40
0.7343750875
 41
-4.4951709025
 42
-4.4906128242
  0
ELLIPSE
  5
696
100
AcDbEntity
  8
0
100
AcDbEllipse
 62
7
  6
CONTINUOUS
 10
216.9392453109
 20
247.7813136093
 30
0.0
 11
30.0
 21
0.0
 31
0.0
 40
0.2042551568
 41
2.6597299545
 42
2.6927571559
  0
ELLIPSE
  5
697
100
AcDbEntity
  8
0
100
AcDbEllipse
 62
7
  6
CONTINUOUS
 10
216.9392453109
 20
243.5216872681
 30
0.0
 11
30.0
 21
-0.0
 31
0.0
 40
0.510638791
 41
2.6328933408
 42
2.6597299545
  0
ELLIPSE
  5
698
100
AcDbEntity
  8
0
100
AcDbEllipse
 62
7
  6
CONTINUOUS
 10
216.9392453109
 20
236.0606168857
 30
0.0
 11
-0.0
 21
30.6383261212
 31
0.0
 40
0.9791657639
 41
1.0348525018
 42
1.062097014
  0
ELLIPSE
  5
699
100
AcDbEntity
  8
0
100
AcDbEllipse
 62
7
  6
CONTINUOUS
 10
216.9392453109
 20
189.1245115991
 30
0.0
 11
0.0
 21
122.552263338
 31
0.0
 40
0.2447935206
 41
1.0279729453
 42
1.0348525018
  0
ELLIPSE
  5
69A
100
AcDbEntity
  8
0
100
AcDbEllipse
 62
7
  6
CONTINUOUS
 10
216.9392453109
 20
252.3900208208
 30
0.0
 11
-0.0
 21
155.744365226
 31
0.0
 40
0.1958337302
 41
1.4750215476
 42
1.4805097781
  0
ELLIPSE
  5
69B
100
AcDbEntity
  8
0
100
AcDbEllipse
 62
7
  6
CONTINUOUS
 10
216.9392453109
 20
260.815518607
 30
0.0
 11
-0.0
 21
62.2979352335
 31
0.0
 40
0.4895828391
 41
1.4805097781
 42
1.4914782
  0
ELLIPSE
  5
69C
100
AcDbEntity
  8
0
100
AcDbEllipse
 62
7
  6
CONTINUOUS
 10
216.9392453109
 20
263.2836102764
 30
0.0
 11
-0.0
 21
31.1489203309
 31
0.0
 40
0.9791671646
 41
1.4914782
 42
1.5133877488
  0
ELLIPSE
  5
69D
100
AcDbEntity
  8
0
100
AcDbEllipse
 62
7
  6
CONTINUOUS
 10
216.9392453109
 20
261.599096385
 30
0.0
 11
30.5
 21
0.0
 31
0.0
 40
0.204255139
 41
-2.7006376866
 42
-2.6682843777
  0
ELLIPSE
  5
69E
100
AcDbEntity
  8
0
100
AcDbEllipse
 62
7
  6
CONTINUOUS
 10
216.9392453109
 20
265.8587220425
 30
0.0
 11
30.5
 21
-0.0
 31
0.0
 40
0.510638724
 41
-2.6682843777
 42
-2.6420121234
  0
ELLIPSE
  5
69F
100
AcDbEntity
  8
0
100
AcDbEllipse
 62
7
  6
CONTINUOUS
 10
216.9392453109
 20
273.3197920983
 30
0.0
 11
0.0
 21
31.1489621629
 31
0.0
 40
0.9791658496
 41
-4.2128084502
 42
-4.1861538631
  0
ELLIPSE
  5
6A0
100
AcDbEntity
  8
0
100
AcDbEllipse
 62
7
  6
CONTINUOUS
 10
216.9392453109
 20
264.1772268041
 30
0.0
 11
30.5
 21
0.0
 31
0.0
 40
0.5106380606
 41
3.0841840756
 42
3.1060660656
  0
ELLIPSE
  5
6A1
100
AcDbEntity
  8
0
100
AcDbEllipse
 62
7
  6
CONTINUOUS
 10
216.9392453109
 20
257.9012626084
 30
0.0
 11
30.0
 21
-0.0
 31
0.0
 40
0.510637263
 41
-2.9364484587
 42
-2.9243745757
  0
ELLIPSE
  5
6A2
100
AcDbEntity
  8
0
100
AcDbEllipse
 62
7
  6
CONTINUOUS
 10
216.9392453109
 20
264.5091412659
 30
0.0
 11
30.5
 21
0.0
 31
0.0
 40
0.2042553906
 41
3.1060660656
 42
3.1333958405
  0
ELLIPSE
  5
6A3
100
AcDbEntity
  8
0
100
AcDbEllipse
 62
7
  6
CONTINUOUS
 10
216.9392453109
 20
335.9013416215
 30
0.0
 11
-0.0
 21
155.743561317
 31
0.0
 40
0.195834741
 41
-4.1861538631
 42
-4.1794261683
  0
ELLIPSE
  5
6A4
100
AcDbEntity
  8
0
100
AcDbEllipse
 62
7
  6
CONTINUOUS
 10
216.9392453109
 20
238.5583322687
 30
0.0
 11
30.0
 21
-0.0
 31
0.0
 40
0.2042552105
 41
-3.0017904902
 42
-2.9719185695
  0
ELLIPSE
  5
6A5
100
AcDbEntity
  8
0
100
AcDbEllipse
 62
7
  6
CONTINUOUS
 10
216.9392453109
 20
240.550701017
 30
0.0
 11
30.0
 21
-0.0
 31
0.0
 40
0.6808509827
 41
-3.0196517992
 42
-3.0017904902
  0
ELLIPSE
  5
6A6
100
AcDbEntity
  8
0
100
AcDbEllipse
 62
7
  6
CONTINUOUS
 10
216.9392453109
 20
249.2466309605
 30
0.0
 11
-0.0
 21
91.9152547465
 31
0.0
 40
0.3263876065
 41
-4.5963929101
 42
-4.590448126
  0
ELLIPSE
  5
6A7
100
AcDbEntity
  8
0
100
AcDbEllipse
 62
7
  6
CONTINUOUS
 10
216.9392453109
 20
251.6599986609
 30
0.0
 11
30.0
 21
0.0
 31
0.0
 40
0.510637263
 41
2.9243745757
 42
2.9364484587
  0
ELLIPSE
  5
6A8
100
AcDbEntity
  8
0
100
AcDbEllipse
 62
7
  6
CONTINUOUS
 10
216.9392453109
 20
246.1575101754
 30
0.0
 11
0.0
 21
40.85105896
 31
0.0
 40
0.7343750875
 41
1.3490201706
 42
1.3535782489
  0
ELLIPSE
  5
6A9
100
AcDbEntity
  8
0
100
AcDbEllipse
 62
7
  6
CONTINUOUS
 10
216.9392453109
 20
254.9383942983
 30
0.0
 11
30.5
 21
0.0
 31
0.0
 40
0.255319362
 41
2.7576821394
 42
2.7826065406
  0
ELLIPSE
  5
6AA
100
AcDbEntity
  8
0
100
AcDbEllipse
 62
7
  6
CONTINUOUS
 10
216.9392453109
 20
250.3786453905
 30
0.0
 11
30.5
 21
-0.0
 31
0.0
 40
0.6808509827
 41
2.7826065406
 42
2.8011470796
  0
ELLIPSE
  5
6AB
100
AcDbEntity
  8
0
100
AcDbEllipse
 62
7
  6
CONTINUOUS
 10
216.9392453109
 20
241.7112851508
 30
0.0
 11
0.0
 21
46.7233531983
 31
0.0
 40
0.6527784911
 41
1.2303507528
 42
1.2426433844
  0
ELLIPSE
  5
6AC
100
AcDbEntity
  8
0
100
AcDbEllipse
 62
7
  6
CONTINUOUS
 10
216.9392453109
 20
216.6132479562
 30
0.0
 11
-0.0
 21
124.5962051247
 31
0.0
 40
0.244790762
 41
1.2426433844
 42
1.2487702967
  0
ELLIPSE
  5
6AD
100
AcDbEntity
  8
0
100
AcDbEllipse
 62
7
  6
CONTINUOUS
 10
216.9392453109
 20
278.9300738087
 30
0.0
 11
-0.0
 21
91.9152332887
 31
0.0
 40
0.3263876827
 41
-4.4769989841
 42
-4.4749982434
  0
ELLIPSE
  5
6AE
100
AcDbEntity
  8
0
100
AcDbEllipse
 62
7
  6
CONTINUOUS
 10
216.9392453109
 20
292.7671620175
 30
0.0
 11
0.0
 21
124.5962051247
 31
0.0
 40
0.244790762
 41
-4.3903629503
 42
-4.3842360379
  0
ELLIPSE
  5
6AF
100
AcDbEntity
  8
0
100
AcDbEllipse
 62
7
  6
CONTINUOUS
 10
216.9392453109
 20
267.020772446
 30
0.0
 11
0.0
 21
40.85105896
 31
0.0
 40
0.7343750875
 41
1.7880144046
 42
1.806186323
  0
ELLIPSE
  5
6B0
100
AcDbEntity
  8
0
100
AcDbEllipse
 62
7
  6
CONTINUOUS
 10
216.9392453109
 20
251.6599986609
 30
0.0
 11
30.5
 21
0.0
 31
0.0
 40
0.510637263
 41
2.9279911763
 42
2.9398582599
  0
ELLIPSE
  5
6B1
100
AcDbEntity
  8
0
100
AcDbEllipse
 62
7
  6
CONTINUOUS
 10
216.9392453109
 20
246.1575101754
 30
0.0
 11
-0.0
 21
41.5319099426
 31
0.0
 40
0.7343750875
 41
1.3393362279
 42
1.3571948495
  0
ELLIPSE
  5
6B2
100
AcDbEntity
  8
0
100
AcDbEllipse
 62
7
  6
CONTINUOUS
 10
216.9392453109
 20
234.2482088127
 30
0.0
 11
-0.0
 21
93.4471538435
 31
0.0
 40
0.3263876827
 41
1.3333669313
 42
1.3393362279
  0
ELLIPSE
  5
6B3
100
AcDbEntity
  8
0
100
AcDbEllipse
 62
7
  6
CONTINUOUS
 10
216.9392453109
 20
278.9300738087
 30
0.0
 11
-0.0
 21
93.4471538435
 31
0.0
 40
0.3263876827
 41
-4.4809288815
 42
-4.4749595849
  0
ELLIPSE
  5
6B4
100
AcDbEntity
  8
0
100
AcDbEllipse
 62
7
  6
CONTINUOUS
 10
216.9392453109
 20
267.020772446
 30
0.0
 11
-0.0
 21
41.5319099426
 31
0.0
 40
0.7343750875
 41
-4.4987875031
 42
-4.4809288815
  0
ELLIPSE
  5
6B5
100
AcDbEntity
  8
0
100
AcDbEllipse
 62
7
  6
CONTINUOUS
 10
216.9392453109
 20
263.1690254684
 30
0.0
 11
30.5
 21
-0.0
 31
0.0
 40
0.7659558946
 41
-2.9516966099
 42
-2.9279911763
  0
ELLIPSE
  5
6B6
100
AcDbEntity
  8
0
100
AcDbEllipse
 62
7
  6
CONTINUOUS
 10
216.9392453109
 20
259.935270481
 30
0.0
 11
30.5
 21
-0.0
 31
0.0
 40
0.2042556065
 41
-2.9811787619
 42
-2.9516966099
  0
ELLIPSE
  5
6B7
100
AcDbEntity
  8
0
100
AcDbEllipse
 62
7
  6
CONTINUOUS
 10
216.9392453109
 20
263.1690254684
 30
0.0
 11
30.0
 21
-0.0
 31
0.0
 40
0.7659558946
 41
-2.9484920835
 42
-2.9243745757
  0
ELLIPSE
  5
6B8
100
AcDbEntity
  8
0
100
AcDbEllipse
 62
7
  6
CONTINUOUS
 10
216.9392453109
 20
259.935270481
 30
0.0
 11
30.0
 21
-0.0
 31
0.0
 40
0.2042556065
 41
-2.978481434
 42
-2.9484920835
  0
ELLIPSE
  5
6B9
100
AcDbEntity
  8
0
100
AcDbEllipse
 62
7
  6
CONTINUOUS
 10
216.9392453109
 20
267.669110761
 30
0.0
 11
-0.0
 21
46.7233095678
 31
0.0
 40
0.6527791007
 41
-4.3842360379
 42
-4.3719434064
  0
ELLIPSE
  5
6BA
100
AcDbEntity
  8
0
100
AcDbEllipse
 62
7
  6
CONTINUOUS
 10
216.9392453109
 20
249.4451396589
 30
0.0
 11
30.5
 21
0.0
 31
0.0
 40
0.2042556244
 41
2.9516966099
 42
2.9811787619
  0
ELLIPSE
  5
6BB
100
AcDbEntity
  8
0
100
AcDbEllipse
 62
7
  6
CONTINUOUS
 10
216.9392453109
 20
246.2113843884
 30
0.0
 11
30.5
 21
0.0
 31
0.0
 40
0.7659559616
 41
2.9279911763
 42
2.9516966099
  0
ELLIPSE
  5
6BC
100
AcDbEntity
  8
0
100
AcDbEllipse
 62
7
  6
CONTINUOUS
 10
216.9392453109
 20
242.3596370736
 30
0.0
 11
-0.0
 21
41.5319135785
 31
0.0
 40
0.7343750233
 41
1.3393362279
 42
1.3571948495
  0
ELLIPSE
  5
6BD
100
AcDbEntity
  8
0
100
AcDbEllipse
 62
7
  6
CONTINUOUS
 10
216.9392453109
 20
230.4503315406
 30
0.0
 11
0.0
 21
93.4471756589
 31
0.0
 40
0.3263876065
 41
1.3333669313
 42
1.3393362279
  0
ELLIPSE
  5
6BE
100
AcDbEntity
  8
0
100
AcDbEllipse
 62
7
  6
CONTINUOUS
 10
216.9392453109
 20
275.3130624655
 30
0.0
 11
0.0
 21
93.4471974743
 31
0.0
 40
0.3263875303
 41
-4.4809288815
 42
-4.4749595849
  0
ELLIPSE
  5
6BF
100
AcDbEntity
  8
0
100
AcDbEllipse
 62
7
  6
CONTINUOUS
 10
216.9392453109
 20
263.4037510939
 30
0.0
 11
-0.0
 21
41.5319099426
 31
0.0
 40
0.7343750875
 41
-4.4987875031
 42
-4.4809288815
  0
ELLIPSE
  5
6C0
100
AcDbEntity
  8
0
100
AcDbEllipse
 62
7
  6
CONTINUOUS
 10
216.9392453109
 20
257.9012626084
 30
0.0
 11
30.5
 21
0.0
 31
0.0
 40
0.510637263
 41
-2.9398582599
 42
-2.9279911763
  0
ELLIPSE
  5
6C1
100
AcDbEntity
  8
0
100
AcDbEllipse
 62
7
  6
CONTINUOUS
 10
216.9392453109
 20
259.0017675179
 30
0.0
 11
30.5
 21
0.0
 31
0.0
 40
0.6808512211
 41
-2.8011470796
 42
-2.7826065406
  0
ELLIPSE
  5
6C2
100
AcDbEntity
  8
0
100
AcDbEllipse
 62
7
  6
CONTINUOUS
 10
216.9392453109
 20
254.4420160553
 30
0.0
 11
30.5
 21
-0.0
 31
0.0
 40
0.255319362
 41
-2.7826065406
 42
-2.7576821394
  0
ELLIPSE
  5
6C3
100
AcDbEntity
  8
0
100
AcDbEllipse
 62
7
  6
CONTINUOUS
 10
216.9392453109
 20
249.4451396589
 30
0.0
 11
30.0
 21
0.0
 31
0.0
 40
0.2042556244
 41
2.9484920835
 42
2.978481434
  0
ELLIPSE
  5
6C4
100
AcDbEntity
  8
0
100
AcDbEllipse
 62
7
  6
CONTINUOUS
 10
216.9392453109
 20
246.2113843884
 30
0.0
 11
30.0
 21
-0.0
 31
0.0
 40
0.7659559616
 41
2.9243745757
 42
2.9484920835
  0
ELLIPSE
  5
6C5
100
AcDbEntity
  8
0
100
AcDbEllipse
 62
7
  6
CONTINUOUS
 10
216.9392453109
 20
274.24531001
 30
0.0
 11
30.5
 21
-0.0
 31
0.0
 40
0.204255139
 41
-2.8676888123
 42
-2.8391904878
  0
ELLIPSE
  5
6C6
100
AcDbEntity
  8
0
100
AcDbEllipse
 62
7
  6
CONTINUOUS
 10
216.9392453109
 20
277.0282944353
 30
0.0
 11
30.5
 21
-0.0
 31
0.0
 40
0.510638724
 41
-2.8391904878
 42
-2.8162092119
  0
ELLIPSE
  5
6C7
100
AcDbEntity
  8
0
100
AcDbEllipse
 62
7
  6
CONTINUOUS
 10
216.9392453109
 20
282.0070219942
 30
0.0
 11
-0.0
 21
31.1489621629
 31
0.0
 40
0.9791658496
 41
-4.3870055387
 42
-4.3638446442
  0
ELLIPSE
  5
6C8
100
AcDbEntity
  8
0
100
AcDbEllipse
 62
7
  6
CONTINUOUS
 10
216.9392453109
 20
292.6452672217
 30
0.0
 11
-0.0
 21
62.2977460904
 31
0.0
 40
0.4895843255
 41
-4.3638446442
 42
-4.3521915334
  0
ELLIPSE
  5
6C9
100
AcDbEntity
  8
0
100
AcDbEllipse
 62
7
  6
CONTINUOUS
 10
216.9392453109
 20
254.4420160553
 30
0.0
 11
30.0
 21
-0.0
 31
0.0
 40
0.255319362
 41
-2.7763450477
 42
-2.7509403381
  0
ENDSEC
  0
SECTION
  2
OBJECTS
  0
DICTIONARY
  5
C
100
AcDbDictionary
280
0
281
1
  3
ACAD_GROUP
350
D
  3
ACAD_MLINESTYLE
350
17
  3
ACAD_LAYOUT
350
1A
  3
ACAD_PLOTSETTINGS
350
19
  3
ACAD_PLOTSTYLENAME
350
E
  0
DICTIONARY
  5
D
102
{ACAD_REACTORS
330
C
102
}
100
AcDbDictionary
280
0
281
1
  0
ACDBDICTIONARYWDFLT
  5
E
102
{ACAD_REACTORS
330
C
102
}
100
AcDbDictionary
281
1
  3
Normal
350
F
100
AcDbDictionaryWithDefault
340
F
  0
DICTIONARY
  5
17
102
{ACAD_REACTORS
330
C
102
}
100
AcDbDictionary
280
0
281
1
  3
Standard
350
18
  0
DICTIONARY
  5
19
102
{ACAD_REACTORS
330
C
102
}
100
AcDbDictionary
281
1
  0
DICTIONARY
  5
1A
102
{ACAD_REACTORS
330
C
102
}
100
AcDbDictionary
281
1
  3
Model
350
6CA
  3
Layout1
350
6CB
  0
ACDBPLACEHOLDER
  5
F
102
{ACAD_REACTORS
330
E
102
}
  0
MLINESTYLE
  5
18
102
{ACAD_REACTORS
330
17
102
}
100
AcDbMlineStyle
  2
STANDARD
 70
0
  3

 62
256
 51
90.0
 52
90.0
 71
2
 49
0.5
 62
256
  6
BYLAYER
 49
-0.5
 62
256
  6
BYLAYER
  0
LAYOUT
  5
6CA
102
{ACAD_REACTORS
330
1A
102
}
100
AcDbPlotSettings
  1

  2
none_device
  4
ISO_A2_(594.00_x_420.00_MM)
  6

 40
0.0
 41
0.0
 42
0.0
 43
0.0
 44
594.0
 45
420.0
 46
0.0
 47
0.0
 48
0.0
 49
0.0
140
0.0
141
0.0
142
1.0
143
1.0
 70
1024
 72
1
 73
0
 74
0
  7

 75
0
147
1.0
148
0.0
149
0.0
100
AcDbLayout
  1
Model
 70
0
 71
0
 10
0.0
 20
0.0
 11
594.0
 21
420.0
 12
0.0
 22
0.0
 32
0.0
 14
0.0
 24
0.0
 34
0.0
 15
0.0
 25
0.0
 35
0.0
146
0.0
 13
0.0
 23
0.0
 33
0.0
 16
1.0
 26
0.0
 36
0.0
 17
0.0
 27
1.0
 37
0.0
 76
0
330
210
345
0
346
0
  0
LAYOUT
  5
6CB
102
{ACAD_REACTORS
330
1A
102
}
100
AcDbPlotSettings
  1

  2
none_device
  4
ISO_A2_(594.00_x_420.00_MM)
  6

 40
0.0
 41
0.0
 42
0.0
 43
0.0
 44
594.0
 45
420.0
 46
0.0
 47
0.0
 48
0.0
 49
0.0
140
0.0
141
0.0
142
1.0
143
1.0
 70
0
 72
1
 73
0
 74
0
  7

 75
0
147
1.0
148
0.0
149
0.0
100
AcDbLayout
  1
Layout1
 70
0
 71
1
 10
0.0
 20
0.0
 11
594.0
 21
420.0
 12
0.0
 22
0.0
 32
0.0
 14
0.0
 24
0.0
 34
0.0
 15
0.0
 25
0.0
 35
0.0
146
0.0
 13
0.0
 23
0.0
 33
0.0
 16
1.0
 26
0.0
 36
0.0
 17
0.0
 27
1.0
 37
0.0
 76
0
330
211
345
0
346
0
  0
ENDSEC
  0
EOF
