999
DXF file: G:\TBM\JAKUBETZ\Internet\CAD-Daten\2vlbg-7t-m36.dxf
999
Pro/ENGINEER 2001400 by Parametric Technology Corporation
0
SECTION
2
HEADER
9
$ACADVER
1
AC1014
9
$EXTMAX
10
420.0000000000
20
297.0000000000
9
$EXTMIN
10
0.0000000000
20
0.0000000000
9
$LIMMIN
10
0.0000000000
20
0.0000000000
9
$LIMMAX
10
420.0000000000
20
297.0000000000
9
$VIEWCTR
10
210.0000000000
20
148.5000000000
9
$VIEWSIZE
40
297.0000000000
9
$CLAYER
8
0
9
$LTSCALE
40
23.1000000000
9
$CELTYPE
6
BYLAYER
9
$DIMSCALE
40
1
9
$DIMASZ
40
3.5000000000
9
$DIMEXO
40
2.6250000000
9
$DIMDLI
40
15.9600000000
9
$DIMEXE
40
7.5600000000
9
$DIMCEN
40
3.7800000000
9
$DIMLFAC
40
1.0000000000
9
$DIMTXT
40
3.5000000000
9
$DIMTOL
70
1
9
$DIMTFAC
40
0.6000000000
9
$DIMTP
40
0.0050000000
9
$DIMTM
40
0.0050000000
9
$HANDSEED
5
550
0
ENDSEC
0
SECTION
2
CLASSES
0
ENDSEC
0
SECTION
2
TABLES
0
TABLE
2
VPORT
5
8
100
AcDbSymbolTable
70
2
0
VPORT
5
1F4
100
AcDbSymbolTableRecord
100
AcDbViewportTableRecord
2
*ACTIVE
70
0
10
0.0
20
0.0
11
1.0
21
1.0
12
210.0000000000
22
148.5000000000
13
0.0
23
0.0
14
1.0
24
1.0
15
0.0
25
0.0
16
0.0
26
0.0
36
1.0
17
0.0
27
0.0
37
0.0
40
297.0000000000
41
1.4141414141
42
50.0
43
0.0
44
0.0
50
0.0
51
0.0
71
0
72
100
73
1
74
1
75
0
76
0
77
0
78
0
0
ENDTAB
0
TABLE
2
LTYPE
5
5
100
AcDbSymbolTable
70
6
0
LTYPE
5
14
100
AcDbSymbolTableRecord
100
AcDbLinetypeTableRecord
2
BYBLOCK
70
0
3

72
65
73
0
40
0.0
0
LTYPE
5
15
100
AcDbSymbolTableRecord
100
AcDbLinetypeTableRecord
2
BYLAYER
70
0
3

72
65
73
0
40
0.0
0
LTYPE
5
16
100
AcDbSymbolTableRecord
100
AcDbLinetypeTableRecord
2
CONTINUOUS
70
64
3
Solid line
72
65
73
0
40
0
0
LTYPE
5
1F5
100
AcDbSymbolTableRecord
100
AcDbLinetypeTableRecord
2
CENTER
70
64
3
____ _ ____ _ ____ _ ____ _ ____ _ ____ _ ____
72
65
73
4
40
0.6
49
0.375
74
0
49
-0.075
74
0
49
0.075
74
0
49
-0.075
74
0
0
LTYPE
5
1F6
100
AcDbSymbolTableRecord
100
AcDbLinetypeTableRecord
2
HIDDEN
70
64
3
- - - - - - - - - - - - - - - - - - - -
72
65
73
2
40
0.2
49
0.1
74
0
49
-0.1
74
0
0
LTYPE
5
1F7
100
AcDbSymbolTableRecord
100
AcDbLinetypeTableRecord
2
PHANTOM
70
64
3
_____ _ _ _____ _ _ _____ _ _ _____
72
65
73
6
40
0.8
49
0.45
74
0
49
-0.05
74
0
49
0.1
74
0
49
-0.05
74
0
49
0.1
74
0
49
-0.05
74
0
0
LTYPE
5
1F8
100
AcDbSymbolTableRecord
100
AcDbLinetypeTableRecord
2
DOT
70
64
3
. . . . . . . . . . . . . . . . . . . .
72
65
73
2
40
0.2
49
0.1
74
0
49
-0.1
74
0
0
LTYPE
5
1F9
100
AcDbSymbolTableRecord
100
AcDbLinetypeTableRecord
2
DASHED
70
64
3
- - - - - - - - - - - - - - - - - - - -
72
65
73
2
40
0.2
49
0.1
74
0
49
-0.1
74
0
0
ENDTAB
0
TABLE
2
LAYER
5
2
100
AcDbSymbolTable
70
36
0
LAYER
5
10
100
AcDbSymbolTableRecord
100
AcDbLayerTableRecord
2
0
70
0
62
7
6
CONTINUOUS
0
LAYER
5
1FA
100
AcDbSymbolTableRecord
100
AcDbLayerTableRecord
2
DEFAULT_1
70
0
62
7
6
CENTER
0
LAYER
5
1FB
100
AcDbSymbolTableRecord
100
AcDbLayerTableRecord
2
DEFAULT_2
70
0
62
8
6
HIDDEN
0
LAYER
5
1FC
100
AcDbSymbolTableRecord
100
AcDbLayerTableRecord
2
DEFAULT_3
70
0
62
7
6
PHANTOM
0
ENDTAB
0
TABLE
2
STYLE
5
3
100
AcDbSymbolTable
70
1
0
STYLE
5
11
100
AcDbSymbolTableRecord
100
AcDbTextStyleTableRecord
2
STANDARD
70
0
40
0.0
41
1.0
50
0.0
71
0
42
0.0
3
txt
4

0
STYLE
5
1FD
100
AcDbSymbolTableRecord
100
AcDbTextStyleTableRecord
2
TEXTSTYLE_0
70
0
40
0.0
41
0.80
50
0.0
71
0
42
0.2
3
txt
4

0
ENDTAB
0
TABLE
2
VIEW
5
6
100
AcDbSymbolTable
70
0
0
ENDTAB
0
TABLE
2
UCS
5
7
100
AcDbSymbolTable
70
0
0
ENDTAB
0
TABLE
2
APPID
5
9
100
AcDbSymbolTable
70
1
0
APPID
5
1FE
100
AcDbSymbolTableRecord
100
AcDbRegAppTableRecord
2
ACAD
70
0
0
ENDTAB
0
TABLE
2
DIMSTYLE
5
A
100
AcDbSymbolTable
70
1
0
DIMSTYLE
105
1FF
100
AcDbSymbolTableRecord
100
AcDbDimStyleTableRecord
2
STANDARD
70
0
3

4

5

6

7

40
1.0
41
0.18
42
0.0625
43
0.38
44
0.18
45
0.0
46
0.0
47
0.0050000000
48
0.0050000000
140
3.5000000000
141
0.09
142
0.0
143
25.4
144
1.0000000000
145
0.0
146
0.6000000000
147
0.09
71
1
72
0
73
1
74
1
75
0
76
0
77
0
78
0
170
0
171
2
172
0
173
0
174
0
175
0
176
0
177
0
178
0
270
2
271
3
272
4
273
2
274
2
340
11
275
0
280
0
281
0
282
0
283
1
284
0
285
0
286
0
287
3
288
0
0
ENDTAB
0
TABLE
2
BLOCK_RECORD
5
1
100
AcDbSymbolTable
70
0
0
BLOCK_RECORD
5
1B
100
AcDbSymbolTableRecord
100
AcDbBlockTableRecord
2
*MODEL_SPACE
0
BLOCK_RECORD
5
1C
100
AcDbSymbolTableRecord
100
AcDbBlockTableRecord
2
*PAPER_SPACE
0
ENDTAB
0
ENDSEC
0
SECTION
2
BLOCKS
0
BLOCK
5
1E
100
AcDbEntity
8
0
100
AcDbBlockBegin
2
*MODEL_SPACE
70
0
10
0.0
20
0.0
30
0.0
3
*MODEL_SPACE
1

0
ENDBLK
5
1F
100
AcDbEntity
8
0
100
AcDbBlockEnd
0
BLOCK
5
20
100
AcDbEntity
8
0
100
AcDbBlockBegin
2
*PAPER_SPACE
70
0
10
0.0
20
0.0
30
0.0
3
*PAPER_SPACE
1

0
ENDBLK
5
21
100
AcDbEntity
8
0
100
AcDbBlockEnd
0
ENDSEC
0
SECTION
2
ENTITIES
0
TEXT
5
200
100
AcDbEntity
8
0
100
AcDbText
62
2
6
CONTINUOUS
10
69.0325925535
20
-84.7857494261
7
TEXTSTYLE_0
40
8.0000000000
1
RUD VLBG 7t-M36
72
5
11
161.2230687439
21
-84.7857494261
100
AcDbText
0
TEXT
5
201
100
AcDbEntity
8
0
100
AcDbText
62
2
6
CONTINUOUS
10
158.1575262129
20
138.9090098083
7
TEXTSTYLE_0
40
8.0000000000
1
RUD VLBG 7t-M36
50
90.0000000000
72
5
11
158.1575262129
21
231.0994859988
100
AcDbText
0
TEXT
5
202
100
AcDbEntity
8
0
100
AcDbText
62
2
6
CONTINUOUS
10
320.5237419886
20
147.2920481228
7
TEXTSTYLE_0
40
8.0000000000
1
RUD VLBG 7t-M36
50
90.0000000000
72
5
11
320.5237419886
21
239.4825243133
100
AcDbText
0
LINE
5
203
100
AcDbEntity
8
0
100
AcDbLine
62
7
6
CONTINUOUS
10
0.0000000000
20
0.0000000000
11
0.0000000000
21
297.0000000000
0
LINE
5
204
100
AcDbEntity
8
0
100
AcDbLine
62
7
6
CONTINUOUS
10
0.0000000000
20
0.0000000000
11
420.0000000000
21
0.0000000000
0
LINE
5
205
100
AcDbEntity
8
0
100
AcDbLine
62
7
6
CONTINUOUS
10
0.0000000000
20
297.0000000000
11
420.0000000000
21
297.0000000000
0
LINE
5
206
100
AcDbEntity
8
0
100
AcDbLine
62
7
6
CONTINUOUS
10
420.0000000000
20
0.0000000000
11
420.0000000000
21
297.0000000000
0
LINE
5
207
100
AcDbEntity
8
0
100
AcDbLine
62
7
6
CONTINUOUS
10
99.8263994925
20
45.0953659341
11
129.8258751342
21
45.0953659341
0
LINE
5
208
100
AcDbEntity
8
0
100
AcDbLine
62
7
6
CONTINUOUS
10
99.2796373134
20
45.6418670938
11
130.3726373134
21
45.6418670938
0
LINE
5
209
100
AcDbEntity
8
0
100
AcDbLine
62
7
6
CONTINUOUS
10
96.8261373134
20
48.0953659341
11
132.8261373134
21
48.0953659341
0
LINE
5
20A
100
AcDbEntity
8
0
100
AcDbLine
62
7
6
CONTINUOUS
10
96.8261373134
20
48.0953659341
11
99.8261373134
21
45.0953659341
0
LINE
5
20B
100
AcDbEntity
8
0
100
AcDbLine
62
7
6
CONTINUOUS
10
96.8261373134
20
86.0953659341
11
132.8261373134
21
86.0953659341
0
LINE
5
20C
100
AcDbEntity
8
0
100
AcDbLine
62
7
6
CONTINUOUS
10
99.2796373134
20
88.5506710336
11
130.3726373134
21
88.5506710336
0
LINE
5
20D
100
AcDbEntity
8
0
100
AcDbLine
62
7
6
CONTINUOUS
10
84.8261373134
20
97.0953659341
11
144.8261373134
21
97.0953659341
0
LINE
5
20E
100
AcDbEntity
8
0
100
AcDbLine
62
7
6
CONTINUOUS
10
65.3261373134
20
229.3766006902
11
65.3261373134
21
136.8453659341
0
LINE
5
20F
100
AcDbEntity
8
0
100
AcDbLine
62
7
6
CONTINUOUS
10
84.8261373134
20
101.0953659341
11
144.8261373134
21
101.0953659341
0
LINE
5
210
100
AcDbEntity
8
0
100
AcDbLine
62
7
6
CONTINUOUS
10
86.8261373134
20
102.0953659341
11
142.8261373134
21
102.0953659341
0
LINE
5
211
100
AcDbEntity
8
0
100
AcDbLine
62
7
6
CONTINUOUS
10
97.0761373134
20
97.0953659341
11
99.2367974852
21
94.9347057623
0
LINE
5
212
100
AcDbEntity
8
0
100
AcDbLine
62
7
6
CONTINUOUS
10
82.3261373134
20
148.3453659341
11
82.3261373134
21
223.6845003162
0
LINE
5
213
100
AcDbEntity
8
0
100
AcDbLine
62
7
6
CONTINUOUS
10
83.0718725079
20
152.0953659341
11
83.0718725079
21
166.6391650035
0
LINE
5
214
100
AcDbEntity
8
0
100
AcDbLine
62
7
6
CONTINUOUS
10
130.4154771416
20
88.5060261059
11
132.8261373134
21
86.0953659341
0
LINE
5
215
100
AcDbEntity
8
0
100
AcDbLine
62
7
6
CONTINUOUS
10
84.8261373134
20
150.0953659341
11
84.8261373134
21
104.0953659341
0
LINE
5
216
100
AcDbEntity
8
0
100
AcDbLine
62
7
6
CONTINUOUS
10
84.8261373134
20
97.0953659341
11
84.8261373134
21
101.0953659341
0
LINE
5
217
100
AcDbEntity
8
0
100
AcDbLine
62
7
6
CONTINUOUS
10
90.1552316220
20
169.0953659341
11
90.1552316220
21
169.5953659341
0
LINE
5
218
100
AcDbEntity
8
0
100
AcDbLine
62
7
6
CONTINUOUS
10
87.3261373134
20
169.0953659341
11
83.0718725079
21
166.6391650035
0
LINE
5
219
100
AcDbEntity
8
DEFAULT_1
100
AcDbLine
62
2
6
CENTER
10
167.3261382732
20
126.0953659341
11
62.3261363536
21
126.0953659341
0
LINE
5
21A
100
AcDbEntity
8
0
100
AcDbLine
62
7
6
CONTINUOUS
10
94.0761373134
20
102.0953659341
11
94.0761373134
21
101.0953659341
0
LINE
5
21B
100
AcDbEntity
8
0
100
AcDbLine
62
7
6
CONTINUOUS
10
96.8261373134
20
86.0953659341
11
96.8261373134
21
48.0953659341
0
LINE
5
21C
100
AcDbEntity
8
0
100
AcDbLine
62
7
6
CONTINUOUS
10
98.2230922350
20
169.0953659341
11
98.2230922350
21
169.5953659341
0
LINE
5
21D
100
AcDbEntity
8
0
100
AcDbLine
62
7
6
CONTINUOUS
10
98.3334449414
20
169.0953659341
11
98.3334449414
21
169.5953659341
0
LINE
5
21E
100
AcDbEntity
8
0
100
AcDbLine
62
7
6
CONTINUOUS
10
98.9490049107
20
152.0953659341
11
98.9490049107
21
166.6391650035
0
LINE
5
21F
100
AcDbEntity
8
0
100
AcDbLine
62
2
6
CONTINUOUS
10
99.2796373134
20
45.6418659341
11
99.2796373134
21
88.5506706528
0
LINE
5
220
100
AcDbEntity
8
0
100
AcDbLine
62
7
6
CONTINUOUS
10
99.6761373134
20
93.8740455905
11
99.6761373134
21
89.5666862777
0
LINE
5
221
100
AcDbEntity
8
DEFAULT_1
100
AcDbLine
62
2
6
CENTER
10
114.8261373134
20
172.5953659341
11
114.8261373134
21
42.0953659341
0
LINE
5
222
100
AcDbEntity
8
0
100
AcDbLine
62
7
6
CONTINUOUS
10
83.0718725079
20
152.0953659341
11
146.5804021188
21
152.0953659341
0
LINE
5
223
100
AcDbEntity
8
0
100
AcDbLine
62
7
6
CONTINUOUS
10
118.3583952647
20
169.0953659341
11
118.3583952647
21
169.5953659341
0
LINE
5
224
100
AcDbEntity
8
0
100
AcDbLine
62
7
6
CONTINUOUS
10
123.9465985432
20
169.0953659341
11
123.9465985432
21
169.5953659341
0
LINE
5
225
100
AcDbEntity
8
0
100
AcDbLine
62
7
6
CONTINUOUS
10
129.9761373134
20
93.8740455905
11
129.9761373134
21
89.5666862777
0
LINE
5
226
100
AcDbEntity
8
0
100
AcDbLine
62
2
6
CONTINUOUS
10
130.3726373134
20
45.6418659341
11
130.3726373134
21
88.5506706528
0
LINE
5
227
100
AcDbEntity
8
0
100
AcDbLine
62
7
6
CONTINUOUS
10
130.7032697161
20
152.0953659341
11
130.7032697161
21
166.6391650035
0
LINE
5
228
100
AcDbEntity
8
0
100
AcDbLine
62
7
6
CONTINUOUS
10
142.3261373134
20
169.0953659341
11
139.1974526219
21
169.0953659341
0
LINE
5
229
100
AcDbEntity
8
0
100
AcDbLine
62
7
6
CONTINUOUS
10
138.9623509195
20
169.0953659341
11
87.3261373134
21
169.0953659341
0
LINE
5
22A
100
AcDbEntity
8
0
100
AcDbLine
62
7
6
CONTINUOUS
10
90.1552316220
20
169.5953659341
11
98.2230922350
21
169.5953659341
0
LINE
5
22B
100
AcDbEntity
8
0
100
AcDbLine
62
7
6
CONTINUOUS
10
98.3334449414
20
169.5953659341
11
118.3583952647
21
169.5953659341
0
LINE
5
22C
100
AcDbEntity
8
0
100
AcDbLine
62
7
6
CONTINUOUS
10
123.9465985432
20
169.5953659341
11
126.1903845885
21
169.5953659341
0
LINE
5
22D
100
AcDbEntity
8
0
100
AcDbLine
62
7
6
CONTINUOUS
10
126.1928025523
20
169.5953659341
11
139.6474568838
21
169.5953659341
0
LINE
5
22E
100
AcDbEntity
8
0
100
AcDbLine
62
7
6
CONTINUOUS
10
132.8261373134
20
86.0953659341
11
132.8261373134
21
48.0953659341
0
LINE
5
22F
100
AcDbEntity
8
0
100
AcDbLine
62
7
6
CONTINUOUS
10
135.5761373134
20
102.0953659341
11
135.5761373134
21
101.0953659341
0
LINE
5
230
100
AcDbEntity
8
0
100
AcDbLine
62
7
6
CONTINUOUS
10
139.6474568838
20
169.0953659341
11
139.6474568838
21
169.5953659341
0
LINE
5
231
100
AcDbEntity
8
0
100
AcDbLine
62
7
6
CONTINUOUS
10
144.8261373134
20
150.0953659341
11
144.8261373134
21
104.0953659341
0
LINE
5
232
100
AcDbEntity
8
0
100
AcDbLine
62
7
6
CONTINUOUS
10
144.8261373134
20
97.0953659341
11
144.8261373134
21
101.0953659341
0
LINE
5
233
100
AcDbEntity
8
0
100
AcDbLine
62
7
6
CONTINUOUS
10
146.5804021188
20
152.0953659341
11
146.5804021188
21
166.6391650035
0
LINE
5
234
100
AcDbEntity
8
0
100
AcDbLine
62
7
6
CONTINUOUS
10
147.3261373134
20
148.3453659341
11
147.3261373134
21
223.6845003162
0
LINE
5
235
100
AcDbEntity
8
0
100
AcDbLine
62
7
6
CONTINUOUS
10
142.3261373134
20
169.0953659341
11
146.5804021188
21
166.6391650035
0
LINE
5
236
100
AcDbEntity
8
0
100
AcDbLine
62
7
6
CONTINUOUS
10
99.2367974852
20
88.5060261059
11
96.8261373134
21
86.0953659341
0
LINE
5
237
100
AcDbEntity
8
0
100
AcDbLine
62
7
6
CONTINUOUS
10
164.3261373134
20
229.3766006902
11
164.3261373134
21
136.8453659341
0
LINE
5
238
100
AcDbEntity
8
0
100
AcDbLine
62
7
6
CONTINUOUS
10
132.5761373134
20
97.0953659341
11
130.4154771416
21
94.9347057623
0
LINE
5
239
100
AcDbEntity
8
0
100
AcDbLine
62
7
6
CONTINUOUS
10
132.8261373134
20
48.0953659341
11
129.8261373134
21
45.0953659341
0
LINE
5
23A
100
AcDbEntity
8
0
100
AcDbLine
62
7
6
CONTINUOUS
10
266.5626105292
20
45.0953659341
11
296.5626105292
21
45.0953659341
0
LINE
5
23B
100
AcDbEntity
8
0
100
AcDbLine
62
7
6
CONTINUOUS
10
266.0161105292
20
45.6418670938
11
297.1091105292
21
45.6418670938
0
LINE
5
23C
100
AcDbEntity
8
0
100
AcDbLine
62
7
6
CONTINUOUS
10
263.5626105292
20
48.0953659341
11
299.5626105292
21
48.0953659341
0
LINE
5
23D
100
AcDbEntity
8
0
100
AcDbLine
62
7
6
CONTINUOUS
10
263.5626105292
20
48.0953659341
11
266.5626105292
21
45.0953659341
0
LINE
5
23E
100
AcDbEntity
8
0
100
AcDbLine
62
7
6
CONTINUOUS
10
263.5626105292
20
86.0953659341
11
299.5626105292
21
86.0953659341
0
LINE
5
23F
100
AcDbEntity
8
0
100
AcDbLine
62
7
6
CONTINUOUS
10
266.0161105292
20
88.5506710336
11
297.1091105292
21
88.5506710336
0
LINE
5
240
100
AcDbEntity
8
0
100
AcDbLine
62
7
6
CONTINUOUS
10
263.8126105292
20
97.0953659341
11
265.9732707010
21
94.9347057623
0
LINE
5
241
100
AcDbEntity
8
0
100
AcDbLine
62
7
6
CONTINUOUS
10
251.5626105292
20
97.0953659341
11
311.5626105292
21
97.0953659341
0
LINE
5
242
100
AcDbEntity
8
0
100
AcDbLine
62
7
6
CONTINUOUS
10
251.5626105292
20
101.0953659341
11
311.5626105292
21
101.0953659341
0
LINE
5
243
100
AcDbEntity
8
0
100
AcDbLine
62
7
6
CONTINUOUS
10
251.5629465842
20
102.0953659341
11
316.5626105292
21
102.0953659341
0
LINE
5
244
100
AcDbEntity
8
0
100
AcDbLine
62
7
6
CONTINUOUS
10
249.2626105455
20
112.8231652621
11
249.2626292530
21
112.7929306419
0
LINE
5
245
100
AcDbEntity
8
0
100
AcDbLine
62
7
6
CONTINUOUS
10
249.2626105292
20
111.4743416317
11
249.2626105292
21
112.5376115234
0
LINE
5
246
100
AcDbEntity
8
0
100
AcDbLine
62
7
6
CONTINUOUS
10
249.2626105292
20
117.3546634679
11
249.2626105292
21
117.3886753113
0
LINE
5
247
100
AcDbEntity
8
0
100
AcDbLine
62
7
6
CONTINUOUS
10
249.2626105292
20
117.6439944298
11
249.2626105292
21
118.7072641614
0
LINE
5
248
100
AcDbEntity
8
0
100
AcDbLine
62
7
6
CONTINUOUS
10
249.2626105292
20
121.9844201596
11
249.2626105292
21
123.2610157521
0
LINE
5
249
100
AcDbEntity
8
0
100
AcDbLine
62
7
6
CONTINUOUS
10
249.2626105292
20
129.6925336346
11
249.2626105292
21
141.6925336346
0
LINE
5
24A
100
AcDbEntity
8
0
100
AcDbLine
62
7
6
CONTINUOUS
10
249.2827363051
20
118.9205900223
11
249.2827363051
21
121.9844201596
0
LINE
5
24B
100
AcDbEntity
8
0
100
AcDbLine
62
7
6
CONTINUOUS
10
249.5052098397
20
114.8354837687
11
249.5052098397
21
115.3461220057
0
LINE
5
24C
100
AcDbEntity
8
0
100
AcDbLine
62
7
6
CONTINUOUS
10
249.5225364088
20
132.7563634142
11
249.5225364088
21
133.5223207697
0
LINE
5
24D
100
AcDbEntity
8
0
100
AcDbLine
62
7
6
CONTINUOUS
10
249.5225364088
20
138.1180652603
11
249.5225364088
21
138.6287034973
0
LINE
5
24E
100
AcDbEntity
8
0
100
AcDbLine
62
7
6
CONTINUOUS
10
249.5626105292
20
104.0953659341
11
249.5626105292
21
111.2610157521
0
LINE
5
24F
100
AcDbEntity
8
0
100
AcDbLine
62
7
6
CONTINUOUS
10
249.5626105292
20
118.9205900223
11
249.5626105292
21
121.9844201596
0
LINE
5
250
100
AcDbEntity
8
0
100
AcDbLine
62
7
6
CONTINUOUS
10
249.5626105292
20
123.2610157521
11
249.5626105292
21
129.6925336346
0
LINE
5
251
100
AcDbEntity
8
0
100
AcDbLine
62
7
6
CONTINUOUS
10
249.5626105292
20
141.6925336346
11
249.5626105292
21
150.0953659341
0
LINE
5
252
100
AcDbEntity
8
0
100
AcDbLine
62
7
6
CONTINUOUS
10
249.5831253492
20
121.9844201596
11
249.5831253492
21
123.2610157521
0
LINE
5
253
100
AcDbEntity
8
0
100
AcDbLine
62
7
6
CONTINUOUS
10
249.6411912299
20
114.5801646502
11
249.6411912299
21
115.6014411242
0
LINE
5
254
100
AcDbEntity
8
0
100
AcDbLine
62
7
6
CONTINUOUS
10
249.6590165932
20
132.5010442957
11
249.6590165932
21
133.7776398882
0
LINE
5
255
100
AcDbEntity
8
0
100
AcDbLine
62
7
6
CONTINUOUS
10
249.6590165932
20
137.8627461418
11
249.6590165932
21
138.8840233311
0
LINE
5
256
100
AcDbEntity
8
0
100
AcDbLine
62
7
6
CONTINUOUS
10
249.8863652873
20
121.9844201596
11
249.8863652873
21
123.2610157521
0
LINE
5
257
100
AcDbEntity
8
0
100
AcDbLine
62
7
6
CONTINUOUS
10
249.8867713078
20
133.7776398882
11
249.8867713078
21
137.6074270233
0
LINE
5
258
100
AcDbEntity
8
0
100
AcDbLine
62
7
6
CONTINUOUS
10
249.9230870102
20
118.4099517853
11
249.9230870102
21
119.4312282593
0
LINE
5
259
100
AcDbEntity
8
0
100
AcDbLine
62
7
6
CONTINUOUS
10
249.9450256702
20
114.5801646502
11
249.9450256702
21
115.6014411242
0
LINE
5
25A
100
AcDbEntity
8
0
100
AcDbLine
62
7
6
CONTINUOUS
10
250.0925864220
20
133.7776398882
11
250.0925864220
21
137.6074270233
0
LINE
5
25B
100
AcDbEntity
8
0
100
AcDbLine
62
7
6
CONTINUOUS
10
250.2862055929
20
113.3035688789
11
250.2862055929
21
118.4099517853
0
LINE
5
25C
100
AcDbEntity
8
0
100
AcDbLine
62
7
6
CONTINUOUS
10
250.2862055929
20
119.4312282593
11
250.2862055929
21
121.4737819226
0
LINE
5
25D
100
AcDbEntity
8
0
100
AcDbLine
62
7
6
CONTINUOUS
10
250.4011235836
20
133.7776398882
11
250.4011235836
21
137.6074270233
0
LINE
5
25E
100
AcDbEntity
8
0
100
AcDbLine
62
7
6
CONTINUOUS
10
250.5557282524
20
113.8142072947
11
250.5557282524
21
118.4099517853
0
LINE
5
25F
100
AcDbEntity
8
0
100
AcDbLine
62
7
6
CONTINUOUS
10
250.5557282524
20
119.4312282593
11
250.5557282524
21
121.4737819226
0
LINE
5
260
100
AcDbEntity
8
0
100
AcDbLine
62
7
6
CONTINUOUS
10
250.8692451040
20
113.8142072947
11
250.8692451040
21
118.4099517853
0
LINE
5
261
100
AcDbEntity
8
0
100
AcDbLine
62
7
6
CONTINUOUS
10
250.8692451040
20
119.4312282593
11
250.8692451040
21
121.4737819226
0
LINE
5
262
100
AcDbEntity
8
0
100
AcDbLine
62
7
6
CONTINUOUS
10
250.8973376485
20
134.7989167199
11
250.8973376485
21
136.3308314309
0
LINE
5
263
100
AcDbEntity
8
0
100
AcDbLine
62
7
6
CONTINUOUS
10
251.1268574984
20
111.2610157521
11
251.1268574984
21
112.2822923155
0
LINE
5
264
100
AcDbEntity
8
0
100
AcDbLine
62
7
6
CONTINUOUS
10
251.2693194017
20
118.4099517853
11
251.2693194017
21
119.4312282593
0
LINE
5
265
100
AcDbEntity
8
0
100
AcDbLine
62
7
6
CONTINUOUS
10
251.4106742354
20
132.7563634142
11
251.4106742354
21
134.7989167199
0
LINE
5
266
100
AcDbEntity
8
0
100
AcDbLine
62
7
6
CONTINUOUS
10
251.4467422263
20
111.2610157521
11
251.4467422263
21
112.2822923155
0
LINE
5
267
100
AcDbEntity
8
0
100
AcDbLine
62
7
6
CONTINUOUS
10
251.5626105292
20
97.0953659341
11
251.5626105292
21
101.0953659341
0
LINE
5
268
100
AcDbEntity
8
0
100
AcDbLine
62
7
6
CONTINUOUS
10
251.5908332738
20
118.4099517853
11
251.5908332738
21
119.4312282593
0
LINE
5
269
100
AcDbEntity
8
0
100
AcDbLine
62
7
6
CONTINUOUS
10
251.7966472483
20
132.5010442957
11
251.7966472483
21
136.3308314309
0
LINE
5
26A
100
AcDbEntity
8
0
100
AcDbLine
62
7
6
CONTINUOUS
10
252.1243395028
20
132.5010442957
11
252.1243395028
21
136.3308314309
0
LINE
5
26B
100
AcDbEntity
8
0
100
AcDbLine
62
7
6
CONTINUOUS
10
254.0626105292
20
152.0953659341
11
254.0626105292
21
169.0953659342
0
LINE
5
26C
100
AcDbEntity
8
0
100
AcDbLine
62
7
6
CONTINUOUS
10
249.2729700593
20
111.2610157521
11
249.6247648861
21
111.2610157521
0
LINE
5
26D
100
AcDbEntity
8
0
100
AcDbLine
62
7
6
CONTINUOUS
10
251.1268574984
20
111.2610157521
11
251.4467422263
21
111.2610157521
0
LINE
5
26E
100
AcDbEntity
8
0
100
AcDbLine
62
7
6
CONTINUOUS
10
251.1268574984
20
112.2822923155
11
251.4467422263
21
112.2822923155
0
LINE
5
26F
100
AcDbEntity
8
0
100
AcDbLine
62
7
6
CONTINUOUS
10
249.2729700593
20
112.5376115234
11
249.3241482377
21
112.5376115234
0
LINE
5
270
100
AcDbEntity
8
0
100
AcDbLine
62
7
6
CONTINUOUS
10
249.2764152847
20
114.3248455317
11
249.4893927019
21
114.3248455317
0
LINE
5
271
100
AcDbEntity
8
0
100
AcDbLine
62
7
6
CONTINUOUS
10
315.8126009418
20
114.8453659341
11
317.3126201166
21
114.8453659341
0
LINE
5
272
100
AcDbEntity
8
0
100
AcDbLine
62
7
6
CONTINUOUS
10
297.1519503574
20
88.5060261059
11
299.5626105292
21
86.0953659341
0
LINE
5
273
100
AcDbEntity
8
0
100
AcDbLine
62
7
6
CONTINUOUS
10
256.7322918574
20
169.0953659341
11
256.7322918574
21
169.5953659341
0
LINE
5
274
100
AcDbEntity
8
0
100
AcDbLine
62
7
6
CONTINUOUS
10
260.8126105292
20
102.0953659341
11
260.8126105292
21
101.0953659341
0
LINE
5
275
100
AcDbEntity
8
0
100
AcDbLine
62
7
6
CONTINUOUS
10
263.5626105292
20
86.0953659341
11
263.5626105292
21
48.0953659341
0
LINE
5
276
100
AcDbEntity
8
0
100
AcDbLine
62
7
6
CONTINUOUS
10
249.2712828680
20
116.6227179558
11
249.4522128597
21
116.6227179558
0
LINE
5
277
100
AcDbEntity
8
0
100
AcDbLine
62
7
6
CONTINUOUS
10
249.2626292530
20
117.3886753113
11
249.3821391180
21
117.3886753113
0
LINE
5
278
100
AcDbEntity
8
0
100
AcDbLine
62
7
6
CONTINUOUS
10
249.2729700593
20
117.6439944298
11
249.3241482377
21
117.6439944298
0
LINE
5
279
100
AcDbEntity
8
0
100
AcDbLine
62
7
6
CONTINUOUS
10
249.9230870102
20
118.4099517853
11
250.2862055929
21
118.4099517853
0
LINE
5
27A
100
AcDbEntity
8
0
100
AcDbLine
62
7
6
CONTINUOUS
10
250.5557282524
20
118.4099517853
11
251.5908332738
21
118.4099517853
0
LINE
5
27B
100
AcDbEntity
8
0
100
AcDbLine
62
7
6
CONTINUOUS
10
249.2729700593
20
118.9205900223
11
249.6247648861
21
118.9205900223
0
LINE
5
27C
100
AcDbEntity
8
0
100
AcDbLine
62
7
6
CONTINUOUS
10
249.9230870102
20
119.4312282593
11
250.2862055929
21
119.4312282593
0
LINE
5
27D
100
AcDbEntity
8
0
100
AcDbLine
62
7
6
CONTINUOUS
10
250.5557282524
20
119.4312282593
11
251.5908332738
21
119.4312282593
0
LINE
5
27E
100
AcDbEntity
8
0
100
AcDbLine
62
7
6
CONTINUOUS
10
250.2862055929
20
121.4737819226
11
250.8692451040
21
121.4737819226
0
LINE
5
27F
100
AcDbEntity
8
0
100
AcDbLine
62
7
6
CONTINUOUS
10
249.2626699241
20
121.9844201596
11
249.5626105292
21
121.9844201596
0
LINE
5
280
100
AcDbEntity
8
0
100
AcDbLine
62
7
6
CONTINUOUS
10
249.5831253492
20
121.9844201596
11
249.8863652873
21
121.9844201596
0
LINE
5
281
100
AcDbEntity
8
0
100
AcDbLine
62
7
6
CONTINUOUS
10
249.2626046594
20
123.2610157521
11
249.5626105292
21
123.2610157521
0
LINE
5
282
100
AcDbEntity
8
0
100
AcDbLine
62
7
6
CONTINUOUS
10
249.5831253492
20
123.2610157521
11
249.8863652873
21
123.2610157521
0
LINE
5
283
100
AcDbEntity
8
0
100
AcDbLine
62
2
6
CONTINUOUS
10
266.0161105292
20
45.6418659341
11
266.0161105292
21
88.5506706528
0
LINE
5
284
100
AcDbEntity
8
0
100
AcDbLine
62
7
6
CONTINUOUS
10
266.4126105292
20
93.8740455905
11
266.4126105292
21
89.5666862777
0
LINE
5
285
100
AcDbEntity
8
0
100
AcDbLine
62
7
6
CONTINUOUS
10
270.6101894118
20
169.0953659341
11
270.6101894118
21
169.5953659341
0
LINE
5
286
100
AcDbEntity
8
0
100
AcDbLine
62
7
6
CONTINUOUS
10
271.2477460085
20
169.0953659341
11
271.2477460085
21
169.5953659341
0
LINE
5
287
100
AcDbEntity
8
DEFAULT_1
100
AcDbLine
62
2
6
CENTER
10
316.5626105292
20
127.0953659341
11
296.6982646737
21
127.0953659341
0
LINE
5
288
100
AcDbEntity
8
DEFAULT_1
100
AcDbLine
62
2
6
CENTER
10
316.5626105292
20
127.0953659341
11
336.8486060747
21
127.0953659341
0
LINE
5
289
100
AcDbEntity
8
0
100
AcDbLine
62
7
6
CONTINUOUS
10
249.2626217555
20
129.6925336346
11
249.7012916379
21
129.6925336346
0
LINE
5
28A
100
AcDbEntity
8
0
100
AcDbLine
62
7
6
CONTINUOUS
10
250.5041880671
20
129.6925336346
11
251.2684897627
21
129.6925336346
0
LINE
5
28B
100
AcDbEntity
8
0
100
AcDbLine
62
7
6
CONTINUOUS
10
249.2627979703
20
131.2244485244
11
249.4150347768
21
131.2244485244
0
LINE
5
28C
100
AcDbEntity
8
0
100
AcDbLine
62
7
6
CONTINUOUS
10
250.5041880671
20
131.2244485244
11
250.9505978431
21
131.2244485244
0
LINE
5
28D
100
AcDbEntity
8
0
100
AcDbLine
62
7
6
CONTINUOUS
10
276.5727047957
20
169.0953659341
11
276.5727047957
21
169.5953659341
0
LINE
5
28E
100
AcDbEntity
8
0
100
AcDbLine
62
7
6
CONTINUOUS
10
278.3416835331
20
169.0953659341
11
278.3416835331
21
169.5953659341
0
LINE
5
28F
100
AcDbEntity
8
0
100
AcDbLine
62
7
6
CONTINUOUS
10
279.1114540882
20
169.0953659341
11
279.1114540882
21
169.5953659341
0
LINE
5
290
100
AcDbEntity
8
0
100
AcDbLine
62
7
6
CONTINUOUS
10
280.3280669908
20
169.0953659341
11
280.3280669908
21
169.5953659341
0
LINE
5
291
100
AcDbEntity
8
0
100
AcDbLine
62
7
6
CONTINUOUS
10
250.8973376485
20
134.7989167199
11
251.4106742354
21
134.7989167199
0
LINE
5
292
100
AcDbEntity
8
0
100
AcDbLine
62
7
6
CONTINUOUS
10
249.2627979703
20
135.0542358384
11
249.4150347768
21
135.0542358384
0
LINE
5
293
100
AcDbEntity
8
0
100
AcDbLine
62
7
6
CONTINUOUS
10
250.8973376485
20
136.3308314309
11
252.1243395028
21
136.3308314309
0
LINE
5
294
100
AcDbEntity
8
0
100
AcDbLine
62
7
6
CONTINUOUS
10
249.2627979703
20
136.5861505494
11
249.4150347768
21
136.5861505494
0
LINE
5
295
100
AcDbEntity
8
0
100
AcDbLine
62
7
6
CONTINUOUS
10
251.4106742354
20
138.6287034973
11
252.1243395028
21
138.6287034973
0
LINE
5
296
100
AcDbEntity
8
DEFAULT_1
100
AcDbLine
62
2
6
CENTER
10
281.5626105292
20
172.5953659341
11
281.5626105292
21
166.6391650035
0
LINE
5
297
100
AcDbEntity
8
DEFAULT_1
100
AcDbLine
62
2
6
CENTER
10
281.5626105292
20
152.0953659341
11
281.5626105292
21
42.0953659341
0
LINE
5
298
100
AcDbEntity
8
0
100
AcDbLine
62
7
6
CONTINUOUS
10
281.5626105292
20
152.0953659341
11
281.5626105292
21
166.6391650035
0
LINE
5
299
100
AcDbEntity
8
0
100
AcDbLine
62
7
6
CONTINUOUS
10
249.2627979703
20
140.1606189236
11
249.4150347768
21
140.1606189236
0
LINE
5
29A
100
AcDbEntity
8
0
100
AcDbLine
62
7
6
CONTINUOUS
10
250.5041880671
20
140.1606189236
11
250.9505978431
21
140.1606189236
0
LINE
5
29B
100
AcDbEntity
8
0
100
AcDbLine
62
7
6
CONTINUOUS
10
249.2626217555
20
141.6925336346
11
249.7012916379
21
141.6925336346
0
LINE
5
29C
100
AcDbEntity
8
0
100
AcDbLine
62
7
6
CONTINUOUS
10
250.5041880671
20
141.6925336346
11
251.2684897627
21
141.6925336346
0
LINE
5
29D
100
AcDbEntity
8
0
100
AcDbLine
62
7
6
CONTINUOUS
10
251.5629465842
20
152.0953659341
11
307.9729399284
21
152.0953659341
0
LINE
5
29E
100
AcDbEntity
8
0
100
AcDbLine
62
7
6
CONTINUOUS
10
305.3258811664
20
124.8551349578
11
305.3256207814
21
124.8601209232
0
LINE
5
29F
100
AcDbEntity
8
0
100
AcDbLine
62
7
6
CONTINUOUS
10
296.7126105292
20
93.8740455905
11
296.7126105292
21
89.5666862777
0
LINE
5
2A0
100
AcDbEntity
8
0
100
AcDbLine
62
2
6
CONTINUOUS
10
297.1091105292
20
45.6418659341
11
297.1091105292
21
88.5506706528
0
LINE
5
2A1
100
AcDbEntity
8
0
100
AcDbLine
62
7
6
CONTINUOUS
10
299.5626105292
20
86.0953659341
11
299.5626105292
21
48.0953659341
0
LINE
5
2A2
100
AcDbEntity
8
0
100
AcDbLine
62
7
6
CONTINUOUS
10
302.3126105292
20
102.0953659341
11
302.3126105292
21
101.0953659341
0
LINE
5
2A3
100
AcDbEntity
8
0
100
AcDbLine
62
7
6
CONTINUOUS
10
308.5302745813
20
166.0318637218
11
308.5306735991
21
166.0323419997
0
LINE
5
2A4
100
AcDbEntity
8
0
100
AcDbLine
62
7
6
CONTINUOUS
10
305.3280282632
20
253.0065864264
11
307.8040045492
21
205.7621444775
0
LINE
5
2A5
100
AcDbEntity
8
0
100
AcDbLine
62
7
6
CONTINUOUS
10
305.3130566395
20
125.2485768976
11
305.3126105292
21
125.3453659341
0
LINE
5
2A6
100
AcDbEntity
8
0
100
AcDbLine
62
7
6
CONTINUOUS
10
305.3126105292
20
253.6359977230
11
305.3126105292
21
253.5954005220
0
LINE
5
2A7
100
AcDbEntity
8
0
100
AcDbLine
62
7
6
CONTINUOUS
10
305.3126105292
20
125.3453659341
11
305.3126105292
21
129.1953456557
0
LINE
5
2A8
100
AcDbEntity
8
0
100
AcDbLine
62
7
6
CONTINUOUS
10
305.3126106172
20
253.5939583308
11
305.3126105292
21
253.5953659341
0
LINE
5
2A9
100
AcDbEntity
8
0
100
AcDbLine
62
7
6
CONTINUOUS
10
306.3130262936
20
169.0953659341
11
306.3130262936
21
169.5953659341
0
LINE
5
2AA
100
AcDbEntity
8
0
100
AcDbLine
62
7
6
CONTINUOUS
10
307.9729399284
20
148.3453659341
11
307.9729399284
21
164.5016372998
0
LINE
5
2AB
100
AcDbEntity
8
0
100
AcDbLine
62
7
6
CONTINUOUS
10
308.1626105292
20
174.8953659341
11
308.1626105292
21
180.8953659341
0
LINE
5
2AC
100
AcDbEntity
8
0
100
AcDbLine
62
7
6
CONTINUOUS
10
308.1626105292
20
182.0953659341
11
308.1626105292
21
188.0953659341
0
LINE
5
2AD
100
AcDbEntity
8
0
100
AcDbLine
62
7
6
CONTINUOUS
10
308.1626105292
20
189.8953659341
11
308.1626105292
21
195.8953659341
0
LINE
5
2AE
100
AcDbEntity
8
0
100
AcDbLine
62
7
6
CONTINUOUS
10
308.7626105292
20
166.6727162033
11
308.7626105292
21
203.5180156649
0
LINE
5
2AF
100
AcDbEntity
8
0
100
AcDbLine
62
7
6
CONTINUOUS
10
311.5626105292
20
97.0953659341
11
311.5626105292
21
101.0953659341
0
LINE
5
2B0
100
AcDbEntity
8
0
100
AcDbLine
62
7
6
CONTINUOUS
10
308.7626105292
20
169.0953659341
11
254.0626105290
21
169.0953659341
0
LINE
5
2B1
100
AcDbEntity
8
0
100
AcDbLine
62
7
6
CONTINUOUS
10
256.7322918574
20
169.5953659341
11
270.6101894118
21
169.5953659341
0
LINE
5
2B2
100
AcDbEntity
8
0
100
AcDbLine
62
7
6
CONTINUOUS
10
271.2477460085
20
169.5953659341
11
276.5727047957
21
169.5953659341
0
LINE
5
2B3
100
AcDbEntity
8
0
100
AcDbLine
62
7
6
CONTINUOUS
10
278.3416835331
20
169.5953659341
11
279.1114540882
21
169.5953659341
0
LINE
5
2B4
100
AcDbEntity
8
0
100
AcDbLine
62
7
6
CONTINUOUS
10
280.3280669908
20
169.5953659341
11
306.3130262936
21
169.5953659341
0
LINE
5
2B5
100
AcDbEntity
8
DEFAULT_1
100
AcDbLine
62
2
6
CENTER
10
316.5626105292
20
127.0953659341
11
316.5626105292
21
109.8180690932
0
LINE
5
2B6
100
AcDbEntity
8
DEFAULT_1
100
AcDbLine
62
2
6
CENTER
10
316.5626105292
20
127.0953659341
11
316.5626105292
21
142.0265847226
0
LINE
5
2B7
100
AcDbEntity
8
0
100
AcDbLine
62
7
6
CONTINUOUS
10
308.7626105292
20
174.8953659341
11
308.1626105292
21
174.8953659341
0
LINE
5
2B8
100
AcDbEntity
8
0
100
AcDbLine
62
7
6
CONTINUOUS
10
324.3626105292
20
166.6727162033
11
324.3626105292
21
203.5180156649
0
LINE
5
2B9
100
AcDbEntity
8
0
100
AcDbLine
62
7
6
CONTINUOUS
10
325.1522811300
20
164.5016372998
11
325.1522811300
21
148.3453659341
0
LINE
5
2BA
100
AcDbEntity
8
0
100
AcDbLine
62
7
6
CONTINUOUS
10
327.8126105292
20
129.1953456557
11
327.8126105292
21
125.3453659341
0
LINE
5
2BB
100
AcDbEntity
8
0
100
AcDbLine
62
7
6
CONTINUOUS
10
327.8126104411
20
253.5939583308
11
327.8126105292
21
253.6359977230
0
LINE
5
2BC
100
AcDbEntity
8
0
100
AcDbLine
62
7
6
CONTINUOUS
10
327.8121644189
20
125.2485768976
11
327.8126105292
21
125.3453659341
0
LINE
5
2BD
100
AcDbEntity
8
0
100
AcDbLine
62
7
6
CONTINUOUS
10
327.7971927952
20
253.0065864264
11
325.3212165092
21
205.7621444775
0
LINE
5
2BE
100
AcDbEntity
8
0
100
AcDbLine
62
7
6
CONTINUOUS
10
265.9732707010
20
88.5060261059
11
263.5626105292
21
86.0953659341
0
LINE
5
2BF
100
AcDbEntity
8
0
100
AcDbLine
62
7
6
CONTINUOUS
10
308.7626105292
20
180.8953659341
11
308.1626105292
21
180.8953659341
0
LINE
5
2C0
100
AcDbEntity
8
0
100
AcDbLine
62
7
6
CONTINUOUS
10
308.7626105292
20
182.0953659341
11
308.1626105292
21
182.0953659341
0
LINE
5
2C1
100
AcDbEntity
8
0
100
AcDbLine
62
7
6
CONTINUOUS
10
324.5949465345
20
166.0318636529
11
324.5945494641
21
166.0323395951
0
LINE
5
2C2
100
AcDbEntity
8
0
100
AcDbLine
62
7
6
CONTINUOUS
10
327.7993398919
20
124.8551349578
11
327.7996002770
21
124.8601209232
0
LINE
5
2C3
100
AcDbEntity
8
0
100
AcDbLine
62
7
6
CONTINUOUS
10
308.7626105292
20
188.0953659341
11
308.1626105292
21
188.0953659341
0
LINE
5
2C4
100
AcDbEntity
8
0
100
AcDbLine
62
7
6
CONTINUOUS
10
308.7626105292
20
189.8953659341
11
308.1626105292
21
189.8953659341
0
LINE
5
2C5
100
AcDbEntity
8
0
100
AcDbLine
62
7
6
CONTINUOUS
10
299.3126105292
20
97.0953659341
11
297.1519503574
21
94.9347057623
0
LINE
5
2C6
100
AcDbEntity
8
0
100
AcDbLine
62
7
6
CONTINUOUS
10
308.7626105292
20
195.8953659341
11
308.1626105292
21
195.8953659341
0
LINE
5
2C7
100
AcDbEntity
8
0
100
AcDbLine
62
7
6
CONTINUOUS
10
299.5626105292
20
48.0953659341
11
296.5626105292
21
45.0953659341
0
LINE
5
2C8
100
AcDbEntity
8
0
100
AcDbLine
62
7
6
CONTINUOUS
10
316.5628440288
20
264.8453655311
11
316.5630736703
21
264.8453659341
0
LINE
5
2C9
100
AcDbEntity
8
0
100
AcDbLine
62
7
6
CONTINUOUS
10
65.3261373134
20
-81.5400880923
11
65.3261373134
21
-79.7552203487
0
LINE
5
2CA
100
AcDbEntity
8
0
100
AcDbLine
62
7
6
CONTINUOUS
10
86.8261373134
20
-105.6476542205
11
142.8261373134
21
-105.6476542205
0
LINE
5
2CB
100
AcDbEntity
8
0
100
AcDbLine
62
7
6
CONTINUOUS
10
83.0718725079
20
-45.6476542205
11
98.9490049107
21
-18.1476542205
0
LINE
5
2CC
100
AcDbEntity
8
0
100
AcDbLine
62
7
6
CONTINUOUS
10
92.2252696093
20
-35.9717534938
11
91.8527909135
21
-36.5437681260
0
LINE
5
2CD
100
AcDbEntity
8
0
100
AcDbLine
62
7
6
CONTINUOUS
10
92.5670556349
20
-36.6749248666
11
92.8438563868
21
-36.3521808192
0
LINE
5
2CE
100
AcDbEntity
8
0
100
AcDbLine
62
7
6
CONTINUOUS
10
92.8643181669
20
-35.5020568159
11
92.2252696093
21
-35.9717534938
0
LINE
5
2CF
100
AcDbEntity
8
0
100
AcDbLine
62
7
6
CONTINUOUS
10
92.8438563868
20
-36.3521808192
11
93.2539420696
21
-36.0805957489
0
LINE
5
2D0
100
AcDbEntity
8
0
100
AcDbLine
62
7
6
CONTINUOUS
10
110.4967112661
20
-91.8976541325
11
119.1556328119
21
-91.8977493622
0
LINE
5
2D1
100
AcDbEntity
8
0
100
AcDbLine
62
7
6
CONTINUOUS
10
84.8261373134
20
-103.6473874718
11
84.8261373134
21
-91.5219060854
0
LINE
5
2D2
100
AcDbEntity
8
0
100
AcDbLine
62
7
6
CONTINUOUS
10
84.8261373134
20
-69.7734023556
11
84.8261373134
21
-48.6861299935
0
LINE
5
2D3
100
AcDbEntity
8
0
100
AcDbLine
62
7
6
CONTINUOUS
10
91.8527909135
20
-36.5437681260
11
91.6135993385
21
-37.1669360300
0
LINE
5
2D4
100
AcDbEntity
8
0
100
AcDbLine
62
7
6
CONTINUOUS
10
92.2321839261
20
-37.5473690607
11
92.5670556349
21
-36.6749248666
0
LINE
5
2D5
100
AcDbEntity
8
0
100
AcDbLine
62
7
6
CONTINUOUS
10
90.6428192225
20
-45.5387997935
11
90.2527319274
21
-46.2293226187
0
LINE
5
2D6
100
AcDbEntity
8
0
100
AcDbLine
62
7
6
CONTINUOUS
10
90.9729391177
20
-46.3224772528
11
91.2354993707
21
-45.9065555881
0
LINE
5
2D7
100
AcDbEntity
8
0
100
AcDbLine
62
7
6
CONTINUOUS
10
95.2396689431
20
-39.2737201195
11
95.6121478256
21
-38.7017055589
0
LINE
5
2D8
100
AcDbEntity
8
0
100
AcDbLine
62
7
6
CONTINUOUS
10
94.8978829175
20
-38.5705487467
11
94.6210821656
21
-38.8932927941
0
LINE
5
2D9
100
AcDbEntity
8
0
100
AcDbLine
62
7
6
CONTINUOUS
10
97.2115670897
20
-39.3156133203
11
96.9347663379
21
-39.6383573677
0
LINE
5
2DA
100
AcDbEntity
8
0
100
AcDbLine
62
7
6
CONTINUOUS
10
91.0479195424
20
-45.1148504838
11
90.6428192225
21
-45.5387997935
0
LINE
5
2DB
100
AcDbEntity
8
0
100
AcDbLine
62
7
6
CONTINUOUS
10
94.6006203855
20
-39.7434167974
11
95.2396689431
21
-39.2737201195
0
LINE
5
2DC
100
AcDbEntity
8
0
100
AcDbLine
62
7
6
CONTINUOUS
10
94.6210821656
20
-38.8932927941
11
94.2109964828
21
-39.1648778644
0
LINE
5
2DD
100
AcDbEntity
8
0
100
AcDbLine
62
7
6
CONTINUOUS
10
92.2219530360
20
-37.9724310624
11
92.2321839261
21
-37.5473690607
0
LINE
5
2DE
100
AcDbEntity
8
0
100
AcDbLine
62
7
6
CONTINUOUS
10
90.2527319274
20
-46.2293226187
11
90.1552316220
21
-47.0370830130
0
LINE
5
2DF
100
AcDbEntity
8
0
100
AcDbLine
62
7
6
CONTINUOUS
10
90.8679319564
20
-46.9969447880
11
90.9729391177
21
-46.3224772528
0
LINE
5
2E0
100
AcDbEntity
8
0
100
AcDbLine
62
7
6
CONTINUOUS
10
91.6135993385
20
-37.1669360300
11
91.5076905045
21
-37.8412686165
0
LINE
5
2E1
100
AcDbEntity
8
0
100
AcDbLine
62
7
6
CONTINUOUS
10
95.8513394006
20
-38.0785376549
11
95.9572480479
21
-37.4042049968
0
LINE
5
2E2
100
AcDbEntity
8
0
100
AcDbLine
62
7
6
CONTINUOUS
10
95.2327546263
20
-37.6981045525
11
94.8978829175
21
-38.5705487467
0
LINE
5
2E3
100
AcDbEntity
8
0
100
AcDbLine
62
7
6
CONTINUOUS
10
95.6121478256
20
-38.7017055589
11
95.8513394006
21
-38.0785376549
0
LINE
5
2E4
100
AcDbEntity
8
0
100
AcDbLine
62
7
6
CONTINUOUS
10
96.0291478251
20
-40.0057360556
11
95.7899540602
21
-40.6289096649
0
LINE
5
2E5
100
AcDbEntity
8
0
100
AcDbLine
62
7
6
CONTINUOUS
10
97.4985987317
20
-38.5678072713
11
97.2115670897
21
-39.3156133203
0
LINE
5
2E6
100
AcDbEntity
8
0
100
AcDbLine
62
7
6
CONTINUOUS
10
97.9258297146
20
-39.4467758021
11
98.1171834126
21
-38.9482403378
0
LINE
5
2E7
100
AcDbEntity
8
0
100
AcDbLine
62
7
6
CONTINUOUS
10
96.0369083114
20
-47.3743955198
11
95.7743480584
21
-47.7903171845
0
LINE
5
2E8
100
AcDbEntity
8
0
100
AcDbLine
62
7
6
CONTINUOUS
10
97.5533510071
20
-40.0187904298
11
97.9258297146
21
-39.4467758021
0
LINE
5
2E9
100
AcDbEntity
8
0
100
AcDbLine
62
7
6
CONTINUOUS
10
96.9143046044
20
-40.4884813890
11
97.5533510071
21
-40.0187904298
0
LINE
5
2EA
100
AcDbEntity
8
0
100
AcDbLine
62
7
6
CONTINUOUS
10
91.2354993707
20
-45.9065555881
11
92.0607134345
21
-45.3252304617
0
LINE
5
2EB
100
AcDbEntity
8
0
100
AcDbLine
62
7
6
CONTINUOUS
10
96.9347663379
20
-39.6383573677
11
96.5246806551
21
-39.9099424380
0
LINE
5
2EC
100
AcDbEntity
8
0
100
AcDbLine
62
7
6
CONTINUOUS
10
91.6030664414
20
-44.8161602868
11
91.0479195424
21
-45.1148504838
0
LINE
5
2ED
100
AcDbEntity
8
0
100
AcDbLine
62
7
6
CONTINUOUS
10
95.2429855164
20
-37.2730425509
11
95.2327546263
21
-37.6981045525
0
LINE
5
2EE
100
AcDbEntity
8
0
100
AcDbLine
62
7
6
CONTINUOUS
10
97.5088296217
20
-38.1427452696
11
97.4985987317
21
-38.5678072713
0
LINE
5
2EF
100
AcDbEntity
8
0
100
AcDbLine
62
7
6
CONTINUOUS
10
96.7571152455
20
-47.4675440476
11
96.8546155633
21
-46.6597836525
0
LINE
5
2F0
100
AcDbEntity
8
0
100
AcDbLine
62
7
6
CONTINUOUS
10
96.1419151292
20
-46.6999218832
11
96.0369083114
21
-47.3743955198
0
LINE
5
2F1
100
AcDbEntity
8
0
100
AcDbLine
62
7
6
CONTINUOUS
10
96.3885549095
20
-42.4267272245
11
96.2854295364
21
-43.0862150272
0
LINE
5
2F2
100
AcDbEntity
8
0
100
AcDbLine
62
7
6
CONTINUOUS
10
96.9906888510
20
-43.1964977795
11
97.0938142242
21
-42.5370099768
0
LINE
5
2F3
100
AcDbEntity
8
0
100
AcDbLine
62
7
6
CONTINUOUS
10
98.1171834126
20
-38.9482403378
11
98.2230922350
21
-38.2739077468
0
LINE
5
2F4
100
AcDbEntity
8
0
100
AcDbLine
62
7
6
CONTINUOUS
10
96.3670282566
20
-48.1580729764
11
96.7571152455
21
-47.4675440476
0
LINE
5
2F5
100
AcDbEntity
8
0
100
AcDbLine
62
7
6
CONTINUOUS
10
95.9619278868
20
-48.5820222889
11
96.3670282566
21
-48.1580729764
0
LINE
5
2F6
100
AcDbEntity
8
0
100
AcDbLine
62
7
6
CONTINUOUS
10
95.7743480584
20
-47.7903171845
11
94.9491339506
21
-48.3716361926
0
LINE
5
2F7
100
AcDbEntity
8
0
100
AcDbLine
62
7
6
CONTINUOUS
10
95.4067808879
20
-48.8807124915
11
95.9619278868
21
-48.5820222889
0
LINE
5
2F8
100
AcDbEntity
8
0
100
AcDbLine
62
7
6
CONTINUOUS
10
92.0231805290
20
-44.6587905715
11
91.6030664414
21
-44.8161602868
0
LINE
5
2F9
100
AcDbEntity
8
0
100
AcDbLine
62
7
6
CONTINUOUS
10
96.8514532875
20
-69.5145882377
11
83.0718725079
21
-45.6476542205
0
LINE
5
2FA
100
AcDbEntity
8
0
100
AcDbLine
62
7
6
CONTINUOUS
10
90.9416646350
20
-52.0318273012
11
91.1734683596
21
-52.7985528608
0
LINE
5
2FB
100
AcDbEntity
8
0
100
AcDbLine
62
7
6
CONTINUOUS
10
91.0480052724
20
-47.6553631346
11
90.8679319564
21
-46.9969447880
0
LINE
5
2FC
100
AcDbEntity
8
0
100
AcDbLine
62
7
6
CONTINUOUS
10
90.1552316220
20
-47.0370830130
11
90.3428114504
21
-47.8287881174
0
LINE
5
2FD
100
AcDbEntity
8
0
100
AcDbLine
62
7
6
CONTINUOUS
10
91.5076905045
20
-37.8412686165
11
91.6683515323
21
-38.6179191572
0
LINE
5
2FE
100
AcDbEntity
8
0
100
AcDbLine
62
7
6
CONTINUOUS
10
99.7235100454
20
-60.7957726229
11
99.7633532309
21
-61.3807955343
0
LINE
5
2FF
100
AcDbEntity
8
0
100
AcDbLine
62
7
6
CONTINUOUS
10
100.4345909561
20
-61.1911801375
11
100.4080272535
21
-60.8011635762
0
LINE
5
300
100
AcDbEntity
8
0
100
AcDbLine
62
7
6
CONTINUOUS
10
98.3838009759
20
-62.6507185150
11
98.3334449414
21
-63.3464040420
0
LINE
5
301
100
AcDbEntity
8
0
100
AcDbLine
62
7
6
CONTINUOUS
10
99.0046826667
20
-63.1567886451
11
99.0683205525
21
-62.6561113989
0
LINE
5
302
100
AcDbEntity
8
0
100
AcDbLine
62
7
6
CONTINUOUS
10
99.9675440027
20
-60.0737682152
11
99.7235100454
21
-60.7957726229
0
LINE
5
303
100
AcDbEntity
8
0
100
AcDbLine
62
7
6
CONTINUOUS
10
98.5509199330
20
-62.2343869340
11
98.3838009759
21
-62.6507185150
0
LINE
5
304
100
AcDbEntity
8
0
100
AcDbLine
62
7
6
CONTINUOUS
10
94.9866671997
20
-49.0380821843
11
95.4067808879
21
-48.8807124915
0
LINE
5
305
100
AcDbEntity
8
0
100
AcDbLine
62
7
6
CONTINUOUS
10
97.3645464107
20
-50.0900009202
11
90.9416646350
21
-52.0318273012
0
LINE
5
306
100
AcDbEntity
8
0
100
AcDbLine
62
7
6
CONTINUOUS
10
92.2667247018
20
-52.4680292609
11
97.5963501354
21
-50.8567264797
0
LINE
5
307
100
AcDbEntity
8
0
100
AcDbLine
62
7
6
CONTINUOUS
10
99.0074516690
20
-64.6325053641
11
99.4213735857
21
-64.9698860944
0
LINE
5
308
100
AcDbEntity
8
0
100
AcDbLine
62
7
6
CONTINUOUS
10
99.9758483883
20
-64.5009167517
11
99.3549666976
21
-63.9948466216
0
LINE
5
309
100
AcDbEntity
8
0
100
AcDbLine
62
7
6
CONTINUOUS
10
104.8276245005
20
-67.8331721642
11
105.2279262771
21
-68.2875297211
0
LINE
5
30A
100
AcDbEntity
8
0
100
AcDbLine
62
7
6
CONTINUOUS
10
98.5802502695
20
-64.1001182838
11
99.0074516690
21
-64.6325053641
0
LINE
5
30B
100
AcDbEntity
8
0
100
AcDbLine
62
7
6
CONTINUOUS
10
100.0101561904
20
-62.1345078456
11
100.4373575899
21
-62.6668949260
0
LINE
5
30C
100
AcDbEntity
8
0
100
AcDbLine
62
7
6
CONTINUOUS
10
90.3428114504
20
-47.8287881174
11
90.8079649001
21
-48.4711511740
0
LINE
5
30D
100
AcDbEntity
8
0
100
AcDbLine
62
7
6
CONTINUOUS
10
99.3549666976
20
-63.9948466216
11
99.1347250721
21
-63.6311489411
0
LINE
5
30E
100
AcDbEntity
8
0
100
AcDbLine
62
7
6
CONTINUOUS
10
100.7848749870
20
-62.0292381140
11
100.5646333616
21
-61.6655404335
0
LINE
5
30F
100
AcDbEntity
8
0
100
AcDbLine
62
7
6
CONTINUOUS
10
98.3334449414
20
-63.3464040420
11
98.5802502695
21
-64.1001182838
0
LINE
5
310
100
AcDbEntity
8
0
100
AcDbLine
62
7
6
CONTINUOUS
10
99.7633532309
20
-61.3807955343
11
100.0101561904
21
-62.1345078456
0
LINE
5
311
100
AcDbEntity
8
0
100
AcDbLine
62
7
6
CONTINUOUS
10
97.5963501354
20
-50.8567264797
11
97.3645464107
21
-50.0900009202
0
LINE
5
312
100
AcDbEntity
8
0
100
AcDbLine
62
7
6
CONTINUOUS
10
99.1347250721
20
-63.6311489411
11
99.0046826667
21
-63.1567886451
0
LINE
5
313
100
AcDbEntity
8
0
100
AcDbLine
62
7
6
CONTINUOUS
10
100.5646333616
20
-61.6655404335
11
100.4345909561
21
-61.1911801375
0
LINE
5
314
100
AcDbEntity
8
0
100
AcDbLine
62
7
6
CONTINUOUS
10
95.9618421568
20
-46.0415096381
11
96.1419151292
21
-46.6999218832
0
LINE
5
315
100
AcDbEntity
8
0
100
AcDbLine
62
7
6
CONTINUOUS
10
92.3450070768
20
-38.4486520412
11
92.2219530360
21
-37.9724310624
0
LINE
5
316
100
AcDbEntity
8
0
100
AcDbLine
62
7
6
CONTINUOUS
10
95.1199314756
20
-36.7968215721
11
95.2429855164
21
-37.2730425509
0
LINE
5
317
100
AcDbEntity
8
0
100
AcDbLine
62
7
6
CONTINUOUS
10
96.8546155633
20
-46.6597836525
11
96.6670357225
21
-45.8680785489
0
LINE
5
318
100
AcDbEntity
8
0
100
AcDbLine
62
7
6
CONTINUOUS
10
106.2017684567
20
-64.5364504529
11
106.1515082034
21
-63.9080585235
0
LINE
5
319
100
AcDbEntity
8
0
100
AcDbLine
62
7
6
CONTINUOUS
10
102.6959566434
20
-15.8816909396
11
102.6959566434
21
-16.2093831942
0
LINE
5
31A
100
AcDbEntity
8
0
100
AcDbLine
62
7
6
CONTINUOUS
10
102.8501065700
20
-15.8148554458
11
102.8501065700
21
-16.1417514425
0
LINE
5
31B
100
AcDbEntity
8
0
100
AcDbLine
62
7
6
CONTINUOUS
10
103.4667009838
20
-15.5575633293
11
103.4667009838
21
-15.8814300214
0
LINE
5
31C
100
AcDbEntity
8
0
100
AcDbLine
62
7
6
CONTINUOUS
10
104.0832953976
20
-15.3160226478
11
104.0832953976
21
-15.6370964329
0
LINE
5
31D
100
AcDbEntity
8
0
100
AcDbLine
62
7
6
CONTINUOUS
10
104.8540397380
20
-15.0356415345
11
104.8540397380
21
-15.3535334541
0
LINE
5
31E
100
AcDbEntity
8
0
100
AcDbLine
62
7
6
CONTINUOUS
10
106.2413784922
20
-14.5892317585
11
106.2413784922
21
-14.9021864737
0
LINE
5
31F
100
AcDbEntity
8
0
100
AcDbLine
62
7
6
CONTINUOUS
10
104.2843856912
20
-61.7505275434
11
104.3347417573
21
-61.0548419778
0
LINE
5
320
100
AcDbEntity
8
0
100
AcDbLine
62
7
6
CONTINUOUS
10
103.6635040005
20
-61.2444574133
11
103.5998684199
21
-61.7451366676
0
LINE
5
321
100
AcDbEntity
8
0
100
AcDbLine
62
7
6
CONTINUOUS
10
104.6020423556
20
-66.5296665140
11
104.5272469050
21
-67.1113382288
0
LINE
5
322
100
AcDbEntity
8
0
100
AcDbLine
62
7
6
CONTINUOUS
10
105.5262207473
20
-63.6744551790
11
105.4514223644
21
-64.2561260119
0
LINE
5
323
100
AcDbEntity
8
0
100
AcDbLine
62
7
6
CONTINUOUS
10
104.0403516708
20
-62.4725320286
11
104.2843856912
21
-61.7505275434
0
LINE
5
324
100
AcDbEntity
8
0
100
AcDbLine
62
7
6
CONTINUOUS
10
100.4080272535
20
-60.8011635762
11
100.5751463370
21
-60.3848318401
0
LINE
5
325
100
AcDbEntity
8
0
100
AcDbLine
62
7
6
CONTINUOUS
10
103.5998684199
20
-61.7451366676
11
103.4327494628
21
-62.1614682487
0
LINE
5
326
100
AcDbEntity
8
0
100
AcDbLine
62
7
6
CONTINUOUS
10
100.4185402289
20
-59.5204549828
11
99.9675440027
21
-60.0737682152
0
LINE
5
327
100
AcDbEntity
8
0
100
AcDbLine
62
7
6
CONTINUOUS
10
100.5751463370
20
-60.3848318401
11
100.8457439969
21
-60.0528439937
0
LINE
5
328
100
AcDbEntity
8
0
100
AcDbLine
62
7
6
CONTINUOUS
10
92.3618713837
20
-53.2760702705
11
93.4551281086
21
-52.9455465548
0
LINE
5
329
100
AcDbEntity
8
0
100
AcDbLine
62
7
6
CONTINUOUS
10
130.2014984001
20
-64.5212149211
11
130.7860726606
21
-64.3632374936
0
LINE
5
32A
100
AcDbEntity
8
0
100
AcDbLine
62
7
6
CONTINUOUS
10
107.2288501441
20
-69.0350619204
11
107.8290088698
21
-68.9544699284
0
LINE
5
32B
100
AcDbEntity
8
0
100
AcDbLine
62
7
6
CONTINUOUS
10
110.4966418149
20
-69.3975590788
11
119.1555633606
21
-69.3976542205
0
LINE
5
32C
100
AcDbEntity
8
0
100
AcDbLine
62
7
6
CONTINUOUS
10
107.3536091164
20
-68.3196525510
11
106.6783581385
21
-68.2197868611
0
LINE
5
32D
100
AcDbEntity
8
0
100
AcDbLine
62
7
6
CONTINUOUS
10
106.3034818939
20
-68.8417540372
11
107.2288501441
21
-69.0350619204
0
LINE
5
32E
100
AcDbEntity
8
0
100
AcDbLine
62
7
6
CONTINUOUS
10
100.3764884537
20
-64.6432892013
11
99.9758483883
21
-64.5009167517
0
LINE
5
32F
100
AcDbEntity
8
0
100
AcDbLine
62
7
6
CONTINUOUS
10
106.0533674839
20
-68.7483129133
11
106.3034818939
21
-68.8417540372
0
LINE
5
330
100
AcDbEntity
8
0
100
AcDbLine
62
7
6
CONTINUOUS
10
106.6783581385
20
-68.2197868611
11
106.1781264562
21
-68.0329035439
0
LINE
5
331
100
AcDbEntity
8
0
100
AcDbLine
62
7
6
CONTINUOUS
10
108.8540044995
20
-68.1181720364
11
108.2287170433
21
-67.8845686920
0
LINE
5
332
100
AcDbEntity
8
0
100
AcDbLine
62
7
6
CONTINUOUS
10
106.9775429433
20
-65.8931006964
11
107.4777746256
21
-66.0799840135
0
LINE
5
333
100
AcDbEntity
8
0
100
AcDbLine
62
7
6
CONTINUOUS
10
99.4213735857
20
-64.9698860944
11
100.0289734251
21
-65.2809479438
0
LINE
5
334
100
AcDbEntity
8
0
100
AcDbLine
62
7
6
CONTINUOUS
10
100.9547605779
20
-63.0886213214
11
101.5623604174
21
-63.3996831708
0
LINE
5
335
100
AcDbEntity
8
0
100
AcDbLine
62
7
6
CONTINUOUS
10
105.2279262771
20
-68.2875297211
11
106.0533674839
21
-68.7483129133
0
LINE
5
336
100
AcDbEntity
8
0
100
AcDbLine
62
7
6
CONTINUOUS
10
107.1773970301
20
-65.3581500782
11
106.4770144594
21
-64.9440879825
0
LINE
5
337
100
AcDbEntity
8
0
100
AcDbLine
62
7
6
CONTINUOUS
10
106.1781264562
20
-68.0329035439
11
105.6028025218
21
-67.6655625450
0
LINE
5
338
100
AcDbEntity
8
0
100
AcDbLine
62
7
6
CONTINUOUS
10
99.0683205525
20
-62.6561113989
11
98.5509199330
21
-62.2343869340
0
LINE
5
339
100
AcDbEntity
8
0
100
AcDbLine
62
7
6
CONTINUOUS
10
100.4373575899
20
-62.6668949260
11
100.9547605779
21
-63.0886213214
0
LINE
5
33A
100
AcDbEntity
8
0
100
AcDbLine
62
7
6
CONTINUOUS
10
101.5092353806
20
-62.6196519787
11
100.7848749870
21
-62.0292381140
0
LINE
5
33B
100
AcDbEntity
8
0
100
AcDbLine
62
7
6
CONTINUOUS
10
105.5516490716
20
-64.7507811688
11
106.0770094844
21
-65.2518598223
0
LINE
5
33C
100
AcDbEntity
8
0
100
AcDbLine
62
7
6
CONTINUOUS
10
104.0879388215
20
-60.3011296374
11
103.6607374298
21
-59.7687425473
0
LINE
5
33D
100
AcDbEntity
8
0
100
AcDbLine
62
7
6
CONTINUOUS
10
91.3556052868
20
-48.0391742192
11
91.0480052724
21
-47.6553631346
0
LINE
5
33E
100
AcDbEntity
8
0
100
AcDbLine
62
7
6
CONTINUOUS
10
105.6028025218
20
-67.6655625450
11
105.3275565190
21
-67.2579250153
0
LINE
5
33F
100
AcDbEntity
8
0
100
AcDbLine
62
7
6
CONTINUOUS
10
106.4770144594
20
-64.9440879825
11
106.2017684567
21
-64.5364504529
0
LINE
5
340
100
AcDbEntity
8
0
100
AcDbLine
62
7
6
CONTINUOUS
10
103.3132199696
20
-60.4063994369
11
103.5334615950
21
-60.7700971174
0
LINE
5
341
100
AcDbEntity
8
0
100
AcDbLine
62
7
6
CONTINUOUS
10
104.5272469050
20
-67.1113382288
11
104.8276245005
21
-67.8331721642
0
LINE
5
342
100
AcDbEntity
8
0
100
AcDbLine
62
7
6
CONTINUOUS
10
104.3347417573
20
-61.0548419778
11
104.0879388215
21
-60.3011296374
0
LINE
5
343
100
AcDbEntity
8
0
100
AcDbLine
62
7
6
CONTINUOUS
10
103.5334615950
20
-60.7700971174
11
103.6635040005
21
-61.2444574133
0
LINE
5
344
100
AcDbEntity
8
0
100
AcDbLine
62
7
6
CONTINUOUS
10
95.9572480479
20
-37.4042049968
11
95.7111399663
21
-36.4517630392
0
LINE
5
345
100
AcDbEntity
8
0
100
AcDbLine
62
7
6
CONTINUOUS
10
97.3857755809
20
-37.6665242908
11
97.5088296217
21
-38.1427452696
0
LINE
5
346
100
AcDbEntity
8
0
100
AcDbLine
62
7
6
CONTINUOUS
10
98.2230922350
20
-38.2739077468
11
98.0624311722
21
-37.4972571927
0
LINE
5
347
100
AcDbEntity
8
0
100
AcDbLine
62
7
6
CONTINUOUS
10
105.3275565190
20
-67.2579250153
11
105.2273326741
21
-66.7632709277
0
LINE
5
348
100
AcDbEntity
8
0
100
AcDbLine
62
7
6
CONTINUOUS
10
105.4514223644
20
-64.2561260119
11
105.5516490716
21
-64.7507811688
0
LINE
5
349
100
AcDbEntity
8
0
100
AcDbLine
62
7
6
CONTINUOUS
10
109.5777323390
20
-64.2736514570
11
109.6028610695
21
-64.5878467934
0
LINE
5
34A
100
AcDbEntity
8
0
100
AcDbLine
62
7
6
CONTINUOUS
10
107.0121228325
20
-14.3725593839
11
107.0121228325
21
-14.6831729082
0
LINE
5
34B
100
AcDbEntity
8
0
100
AcDbLine
62
7
6
CONTINUOUS
10
107.6287172464
20
-14.2148979041
11
107.6287172464
21
-14.5238298772
0
LINE
5
34C
100
AcDbEntity
8
0
100
AcDbLine
62
7
6
CONTINUOUS
10
108.2453116602
20
-14.0709280034
11
108.2453116602
21
-14.3783403624
0
LINE
5
34D
100
AcDbEntity
8
0
100
AcDbLine
62
7
6
CONTINUOUS
10
108.5536097492
20
-14.0040141276
11
108.5536097492
21
-14.3107253091
0
LINE
5
34E
100
AcDbEntity
8
0
100
AcDbLine
62
7
6
CONTINUOUS
10
108.7077579116
20
-13.9718149991
11
108.7077579116
21
-14.2781899167
0
LINE
5
34F
100
AcDbEntity
8
0
100
AcDbLine
62
7
6
CONTINUOUS
10
109.9409485033
20
-13.7440602845
11
109.9409485033
21
-14.0480776984
0
LINE
5
350
100
AcDbEntity
8
0
100
AcDbLine
62
7
6
CONTINUOUS
10
110.0950966658
20
-13.7192854980
11
110.0950966658
21
-14.0230486638
0
LINE
5
351
100
AcDbEntity
8
0
100
AcDbLine
62
7
6
CONTINUOUS
10
110.5575429172
20
-13.6498359352
11
110.5575429172
21
-13.9528886569
0
LINE
5
352
100
AcDbEntity
8
0
100
AcDbLine
62
7
6
CONTINUOUS
10
110.2281513880
20
-64.8214512071
11
110.2529833519
21
-64.3735170532
0
LINE
5
353
100
AcDbEntity
8
0
100
AcDbLine
62
7
6
CONTINUOUS
10
105.7260748341
20
-63.1395045608
11
105.5262207473
21
-63.6744551790
0
LINE
5
354
100
AcDbEntity
8
0
100
AcDbLine
62
7
6
CONTINUOUS
10
104.7019695389
20
-66.2621908302
11
104.6020423556
21
-66.5296665140
0
LINE
5
355
100
AcDbEntity
8
0
100
AcDbLine
62
7
6
CONTINUOUS
10
106.1515082034
20
-63.9080585235
11
106.3513622902
21
-63.3731079052
0
LINE
5
356
100
AcDbEntity
8
0
100
AcDbLine
62
7
6
CONTINUOUS
10
105.2273326741
20
-66.7632709277
11
105.3272598574
21
-66.4957952440
0
LINE
5
357
100
AcDbEntity
8
0
100
AcDbLine
62
7
6
CONTINUOUS
10
107.4777746256
20
-66.0799840135
11
107.6776287124
21
-65.5450333953
0
LINE
5
358
100
AcDbEntity
8
0
100
AcDbLine
62
7
6
CONTINUOUS
10
103.5124357074
20
-63.3315142266
11
104.0403516708
21
-62.4725320286
0
LINE
5
359
100
AcDbEntity
8
0
100
AcDbLine
62
7
6
CONTINUOUS
10
105.0268822619
20
-65.7739613086
11
104.7019695389
21
-66.2621908302
0
LINE
5
35A
100
AcDbEntity
8
0
100
AcDbLine
62
7
6
CONTINUOUS
10
106.0010212080
20
-62.7850115307
11
105.7260748341
21
-63.1395045608
0
LINE
5
35B
100
AcDbEntity
8
0
100
AcDbLine
62
7
6
CONTINUOUS
10
103.4327494628
20
-62.1614682487
11
103.1621518029
21
-62.4934560951
0
LINE
5
35C
100
AcDbEntity
8
0
100
AcDbLine
62
7
6
CONTINUOUS
10
102.5440389881
20
-63.4631028390
11
102.3636405481
21
-63.6844280700
0
LINE
5
35D
100
AcDbEntity
8
0
100
AcDbLine
62
7
6
CONTINUOUS
10
102.8810411676
20
-64.1061525349
11
103.5124357074
21
-63.3315142266
0
LINE
5
35E
100
AcDbEntity
8
0
100
AcDbLine
62
7
6
CONTINUOUS
10
102.1461679250
20
-64.7964471085
11
102.8810411676
21
-64.1061525349
0
LINE
5
35F
100
AcDbEntity
8
0
100
AcDbLine
62
7
6
CONTINUOUS
10
102.3636405481
20
-63.6844280700
11
101.7189641570
21
-64.2640580976
0
LINE
5
360
100
AcDbEntity
8
0
100
AcDbLine
62
7
6
CONTINUOUS
10
100.8457439969
20
-60.0528439937
11
101.2198203596
21
-59.8051998820
0
LINE
5
361
100
AcDbEntity
8
0
100
AcDbLine
62
7
6
CONTINUOUS
10
103.1621518029
20
-62.4934560951
11
102.7880753138
21
-62.7411003618
0
LINE
5
362
100
AcDbEntity
8
0
100
AcDbLine
62
7
6
CONTINUOUS
10
101.0764985345
20
-59.1358331583
11
100.4185402289
21
-59.5204549828
0
LINE
5
363
100
AcDbEntity
8
0
100
AcDbLine
62
7
6
CONTINUOUS
10
101.2198203596
20
-59.8051998820
11
101.6973802253
21
-59.6419032884
0
LINE
5
364
100
AcDbEntity
8
0
100
AcDbLine
62
7
6
CONTINUOUS
10
107.8287092059
20
-68.1923394624
11
107.3536091164
21
-68.3196525510
0
LINE
5
365
100
AcDbEntity
8
0
100
AcDbLine
62
7
6
CONTINUOUS
10
130.2963088544
20
-63.6478983905
11
129.8089618651
21
-63.7143937258
0
LINE
5
366
100
AcDbEntity
8
0
100
AcDbLine
62
7
6
CONTINUOUS
10
118.2691799520
20
-63.6034631468
11
117.4682507241
21
-63.6141131421
0
LINE
5
367
100
AcDbEntity
8
0
100
AcDbLine
62
7
6
CONTINUOUS
10
115.5994168774
20
-63.6389631175
11
114.5315092034
21
-63.6531631383
0
LINE
5
368
100
AcDbEntity
8
0
100
AcDbLine
62
7
6
CONTINUOUS
10
112.6626753567
20
-63.6780131137
11
111.8617461288
21
-63.6886631090
0
LINE
5
369
100
AcDbEntity
8
0
100
AcDbLine
62
7
6
CONTINUOUS
10
106.1272698076
20
-65.8802515644
11
106.9775429433
21
-65.8931006964
0
LINE
5
36A
100
AcDbEntity
8
0
100
AcDbLine
62
7
6
CONTINUOUS
10
129.4212600764
20
-64.4712403606
11
130.2014984001
21
-64.5212149211
0
LINE
5
36B
100
AcDbEntity
8
0
100
AcDbLine
62
7
6
CONTINUOUS
10
100.8673277390
20
-64.6749990354
11
100.3764884537
21
-64.6432892013
0
LINE
5
36C
100
AcDbEntity
8
0
100
AcDbLine
62
7
6
CONTINUOUS
10
101.5623604174
20
-63.3996831708
11
102.5440389881
21
-63.4631028390
0
LINE
5
36D
100
AcDbEntity
8
0
100
AcDbLine
62
7
6
CONTINUOUS
10
102.4007147313
20
-62.7937342624
11
101.9098754460
21
-62.7620244283
0
LINE
5
36E
100
AcDbEntity
8
0
100
AcDbLine
62
7
6
CONTINUOUS
10
100.0289734251
20
-65.2809479438
11
100.8169717045
21
-65.3706845623
0
LINE
5
36F
100
AcDbEntity
8
0
100
AcDbLine
62
7
6
CONTINUOUS
10
107.2264673898
20
-62.9380228832
11
107.9017212300
21
-63.0378896424
0
LINE
5
370
100
AcDbEntity
8
0
100
AcDbLine
62
7
6
CONTINUOUS
10
101.9098754460
20
-62.7620244283
11
101.5092353806
21
-62.6196519787
0
LINE
5
371
100
AcDbEntity
8
0
100
AcDbLine
62
7
6
CONTINUOUS
10
102.1882195106
20
-59.6736131225
11
102.5888595760
21
-59.8159855721
0
LINE
5
372
100
AcDbEntity
8
0
100
AcDbLine
62
7
6
CONTINUOUS
10
107.6776287124
20
-65.5450333953
11
107.1773970301
21
-65.3581500782
0
LINE
5
373
100
AcDbEntity
8
0
100
AcDbLine
62
7
6
CONTINUOUS
10
109.6028610695
20
-64.5878467934
11
110.2281513880
21
-64.8214512071
0
LINE
5
374
100
AcDbEntity
8
0
100
AcDbLine
62
7
6
CONTINUOUS
10
107.9017212300
20
-63.0378896424
11
108.6520673223
21
-63.3182140835
0
LINE
5
375
100
AcDbEntity
8
0
100
AcDbLine
62
7
6
CONTINUOUS
10
109.0269407396
20
-62.6962457443
11
108.0264802373
21
-62.3224801794
0
LINE
5
376
100
AcDbEntity
8
0
100
AcDbLine
62
7
6
CONTINUOUS
10
103.1433344419
20
-59.3470161519
11
102.5357345945
21
-59.0359543122
0
LINE
5
377
100
AcDbEntity
8
0
100
AcDbLine
62
7
6
CONTINUOUS
10
108.6520673223
20
-63.3182140835
11
109.2273912568
21
-63.6855550825
0
LINE
5
378
100
AcDbEntity
8
0
100
AcDbLine
62
7
6
CONTINUOUS
10
109.4772088959
20
-63.0168667277
11
109.0269407396
21
-62.6962457443
0
LINE
5
379
100
AcDbEntity
8
0
100
AcDbLine
62
7
6
CONTINUOUS
10
102.5888595760
20
-59.8159855721
11
103.3132199696
21
-60.4063994369
0
LINE
5
37A
100
AcDbEntity
8
0
100
AcDbLine
62
7
6
CONTINUOUS
10
103.6607374298
20
-59.7687425473
11
103.1433344419
21
-59.3470161519
0
LINE
5
37B
100
AcDbEntity
8
0
100
AcDbLine
62
7
6
CONTINUOUS
10
90.8079649001
20
-48.4711511740
11
91.2581049815
21
-48.8469346136
0
LINE
5
37C
100
AcDbEntity
8
0
100
AcDbLine
62
7
6
CONTINUOUS
10
109.2273912568
20
-63.6855550825
11
109.4275421451
21
-63.9127338609
0
LINE
5
37D
100
AcDbEntity
8
0
100
AcDbLine
62
7
6
CONTINUOUS
10
109.8775135217
20
-63.4712253891
11
109.4772088959
21
-63.0168667277
0
LINE
5
37E
100
AcDbEntity
8
0
100
AcDbLine
62
7
6
CONTINUOUS
10
95.6542421423
20
-45.6576985534
11
95.9618421568
21
-46.0415096381
0
LINE
5
37F
100
AcDbEntity
8
0
100
AcDbLine
62
7
6
CONTINUOUS
10
92.6491861155
20
-38.8513938521
11
92.3450070768
21
-38.4486520412
0
LINE
5
380
100
AcDbEntity
8
0
100
AcDbLine
62
7
6
CONTINUOUS
10
96.6670357225
20
-45.8680785489
11
96.2018825790
21
-45.2257215959
0
LINE
5
381
100
AcDbEntity
8
0
100
AcDbLine
62
7
6
CONTINUOUS
10
110.1527595070
20
-63.8788629656
11
109.8775135217
21
-63.4712253891
0
LINE
5
382
100
AcDbEntity
8
0
100
AcDbLine
62
7
6
CONTINUOUS
10
91.6683515323
20
-38.6179191572
11
92.0579754349
21
-39.1964580903
0
LINE
5
383
100
AcDbEntity
8
0
100
AcDbLine
62
7
6
CONTINUOUS
10
109.4275421451
20
-63.9127338609
11
109.5777323390
21
-64.2736514570
0
LINE
5
384
100
AcDbEntity
8
0
100
AcDbLine
62
7
6
CONTINUOUS
10
110.2529833519
20
-64.3735170532
11
110.1527595070
21
-63.8788629656
0
LINE
5
385
100
AcDbEntity
8
0
100
AcDbLine
62
7
6
CONTINUOUS
10
111.8617461288
20
-63.6886631090
11
111.9376588639
21
-69.3976542205
0
LINE
5
386
100
AcDbEntity
8
0
100
AcDbLine
62
7
6
CONTINUOUS
10
112.7329086902
20
-68.9598867820
11
112.6626753567
21
-63.6780131137
0
LINE
5
387
100
AcDbEntity
8
0
100
AcDbLine
62
7
6
CONTINUOUS
10
111.1741390951
20
-13.5685433790
11
111.1741390951
21
-13.8707687384
0
LINE
5
388
100
AcDbEntity
8
0
100
AcDbLine
62
7
6
CONTINUOUS
10
111.9448816714
20
-13.4849559671
11
111.9448816714
21
-13.7863353293
0
LINE
5
389
100
AcDbEntity
8
DEFAULT_1
100
AcDbLine
62
2
6
CENTER
10
114.8261373134
20
-45.6476542205
11
114.8261373134
21
-21.3976542205
0
LINE
5
38A
100
AcDbEntity
8
DEFAULT_1
100
AcDbLine
62
2
6
CENTER
10
114.8261373134
20
-45.6476542205
11
114.8261373134
21
-69.8976542205
0
LINE
5
38B
100
AcDbEntity
8
0
100
AcDbLine
62
7
6
CONTINUOUS
10
108.5290917765
20
-68.6064015580
11
108.8540044995
21
-68.1181720364
0
LINE
5
38C
100
AcDbEntity
8
0
100
AcDbLine
62
7
6
CONTINUOUS
10
106.3513622902
20
-63.3731079052
11
106.5763479698
21
-63.1523536927
0
LINE
5
38D
100
AcDbEntity
8
0
100
AcDbLine
62
7
6
CONTINUOUS
10
105.3272598574
20
-66.4957952440
11
105.7772283542
21
-66.0542857497
0
LINE
5
38E
100
AcDbEntity
8
0
100
AcDbLine
62
7
6
CONTINUOUS
10
106.4010290454
20
-62.4772407603
11
106.0010212080
21
-62.7850115307
0
LINE
5
38F
100
AcDbEntity
8
0
100
AcDbLine
62
7
6
CONTINUOUS
10
105.4268872370
20
-65.4661894688
11
105.0268822619
21
-65.7739613086
0
LINE
5
390
100
AcDbEntity
8
0
100
AcDbLine
62
7
6
CONTINUOUS
10
101.7189641570
20
-64.2640580976
11
101.3448875415
21
-64.5117025193
0
LINE
5
391
100
AcDbEntity
8
0
100
AcDbLine
62
7
6
CONTINUOUS
10
101.4882094298
20
-65.1810691654
11
102.1461679250
21
-64.7964471085
0
LINE
5
392
100
AcDbEntity
8
0
100
AcDbLine
62
7
6
CONTINUOUS
10
106.5763479698
20
-63.1523536927
11
106.9263894581
21
-62.9783194139
0
LINE
5
393
100
AcDbEntity
8
0
100
AcDbLine
62
7
6
CONTINUOUS
10
101.3448875415
20
-64.5117025193
11
100.8673277390
21
-64.6749990354
0
LINE
5
394
100
AcDbEntity
8
0
100
AcDbLine
62
7
6
CONTINUOUS
10
132.6402531964
20
-52.5500469554
11
131.8882630721
21
-52.7640100562
0
LINE
5
395
100
AcDbEntity
8
0
100
AcDbLine
62
7
6
CONTINUOUS
10
100.8169717045
20
-65.3706845623
11
101.4882094298
21
-65.1810691654
0
LINE
5
396
100
AcDbEntity
8
0
100
AcDbLine
62
7
6
CONTINUOUS
10
106.8761291524
20
-62.3499276249
11
106.4010290454
21
-62.4772407603
0
LINE
5
397
100
AcDbEntity
8
0
100
AcDbLine
62
7
6
CONTINUOUS
10
102.7880753138
20
-62.7411003618
11
102.4007147313
21
-62.7937342624
0
LINE
5
398
100
AcDbEntity
8
0
100
AcDbLine
62
7
6
CONTINUOUS
10
106.9263894581
20
-62.9783194139
11
107.2264673898
21
-62.9380228832
0
LINE
5
399
100
AcDbEntity
8
0
100
AcDbLine
62
7
6
CONTINUOUS
10
107.4762850289
20
-62.2693345285
11
106.8761291524
21
-62.3499276249
0
LINE
5
39A
100
AcDbEntity
8
0
100
AcDbLine
62
7
6
CONTINUOUS
10
101.6973802253
20
-59.6419032884
11
102.1882195106
21
-59.6736131225
0
LINE
5
39B
100
AcDbEntity
8
0
100
AcDbLine
62
7
6
CONTINUOUS
10
108.0264802373
20
-62.3224801794
11
107.4762850289
21
-62.2693345285
0
LINE
5
39C
100
AcDbEntity
8
0
100
AcDbLine
62
7
6
CONTINUOUS
10
102.5357345945
20
-59.0359543122
11
101.7477362914
21
-58.9462177228
0
LINE
5
39D
100
AcDbEntity
8
0
100
AcDbLine
62
7
6
CONTINUOUS
10
129.8089618651
20
-63.7143937258
11
129.3210098412
21
-63.5854306838
0
LINE
5
39E
100
AcDbEntity
8
0
100
AcDbLine
62
7
6
CONTINUOUS
10
91.1734683596
20
-52.7985528608
11
92.3618713837
21
-53.2760702705
0
LINE
5
39F
100
AcDbEntity
8
0
100
AcDbLine
62
7
6
CONTINUOUS
10
93.4551281086
20
-52.9455465548
11
92.2667247018
21
-52.4680292609
0
LINE
5
3A0
100
AcDbEntity
8
0
100
AcDbLine
62
7
6
CONTINUOUS
10
92.2408724805
20
-48.5241614591
11
91.3556052868
21
-48.0391742192
0
LINE
5
3A1
100
AcDbEntity
8
0
100
AcDbLine
62
7
6
CONTINUOUS
10
96.2018825790
20
-45.2257215959
11
95.7517424477
21
-44.8499381591
0
LINE
5
3A2
100
AcDbEntity
8
0
100
AcDbLine
62
7
6
CONTINUOUS
10
92.0579754349
20
-39.1964580903
11
92.6287247087
21
-39.7015179987
0
LINE
5
3A3
100
AcDbEntity
8
0
100
AcDbLine
62
7
6
CONTINUOUS
10
94.8157524369
20
-36.3940797612
11
95.1199314756
21
-36.7968215721
0
LINE
5
3A4
100
AcDbEntity
8
0
100
AcDbLine
62
7
6
CONTINUOUS
10
97.0815964489
20
-37.2637824441
11
97.3857755809
21
-37.6665242908
0
LINE
5
3A5
100
AcDbEntity
8
0
100
AcDbLine
62
7
6
CONTINUOUS
10
98.0624311722
20
-37.4972571927
11
97.6728072229
21
-36.9187182417
0
LINE
5
3A6
100
AcDbEntity
8
0
100
AcDbLine
62
7
6
CONTINUOUS
10
117.5384840576
20
-68.8959868104
11
115.5994168774
21
-63.6389631175
0
LINE
5
3A7
100
AcDbEntity
8
0
100
AcDbLine
62
7
6
CONTINUOUS
10
115.0749540313
20
-64.3598298317
11
116.8321935096
21
-69.3976542205
0
LINE
5
3A8
100
AcDbEntity
8
0
100
AcDbLine
62
7
6
CONTINUOUS
10
117.4682507241
20
-63.6141131421
11
117.5384840576
21
-68.8959868104
0
LINE
5
3A9
100
AcDbEntity
8
0
100
AcDbLine
62
7
6
CONTINUOUS
10
118.3462255952
20
-69.3976542205
11
118.2691799520
21
-63.6034631468
0
LINE
5
3AA
100
AcDbEntity
8
0
100
AcDbLine
62
7
6
CONTINUOUS
10
115.6444525646
20
-13.3587063988
11
115.6444525646
21
-13.6588169615
0
LINE
5
3AB
100
AcDbEntity
8
0
100
AcDbLine
62
7
6
CONTINUOUS
10
116.8776422743
20
-13.4171840390
11
116.8776422743
21
-13.7178809605
0
LINE
5
3AC
100
AcDbEntity
8
0
100
AcDbLine
62
7
6
CONTINUOUS
10
113.4666364623
20
-69.3976542205
11
115.0749540313
21
-64.3598298317
0
LINE
5
3AD
100
AcDbEntity
8
0
100
AcDbLine
62
7
6
CONTINUOUS
10
114.5315092034
20
-63.6531631383
11
112.7329086902
21
-68.9598867820
0
LINE
5
3AE
100
AcDbEntity
8
0
100
AcDbLine
62
7
6
CONTINUOUS
10
108.2287170433
20
-67.8845686920
11
107.8287092059
21
-68.1923394624
0
LINE
5
3AF
100
AcDbEntity
8
0
100
AcDbLine
62
7
6
CONTINUOUS
10
131.8882630721
20
-52.7640100562
11
131.3902375444
21
-53.1084739071
0
LINE
5
3B0
100
AcDbEntity
8
0
100
AcDbLine
62
7
6
CONTINUOUS
10
132.0911171991
20
-53.6187152950
11
132.5281275551
21
-53.3929926257
0
LINE
5
3B1
100
AcDbEntity
8
0
100
AcDbLine
62
7
6
CONTINUOUS
10
137.8416441187
20
-51.2047838691
11
138.4632978376
21
-50.8884600848
0
LINE
5
3B2
100
AcDbEntity
8
0
100
AcDbLine
62
7
6
CONTINUOUS
10
105.7772283542
20
-66.0542857497
11
106.1272698076
21
-65.8802515644
0
LINE
5
3B3
100
AcDbEntity
8
0
100
AcDbLine
62
7
6
CONTINUOUS
10
106.0770094844
20
-65.2518598223
11
105.4268872370
21
-65.4661894688
0
LINE
5
3B4
100
AcDbEntity
8
0
100
AcDbLine
62
7
6
CONTINUOUS
10
101.7477362914
20
-58.9462177228
11
101.0764985345
21
-59.1358331583
0
LINE
5
3B5
100
AcDbEntity
8
0
100
AcDbLine
62
7
6
CONTINUOUS
10
132.2914618897
20
-50.6871254750
11
135.7112822037
21
-49.9587216162
0
LINE
5
3B6
100
AcDbEntity
8
0
100
AcDbLine
62
7
6
CONTINUOUS
10
137.3988415695
20
-51.2768056957
11
137.8416441187
21
-51.2047838691
0
LINE
5
3B7
100
AcDbEntity
8
0
100
AcDbLine
62
7
6
CONTINUOUS
10
132.5281275551
20
-53.3929926257
11
133.0311054115
21
-53.3512604169
0
LINE
5
3B8
100
AcDbEntity
8
0
100
AcDbLine
62
7
6
CONTINUOUS
10
91.8432786173
20
-49.0814036505
11
92.2784057296
21
-49.1906074507
0
LINE
5
3B9
100
AcDbEntity
8
0
100
AcDbLine
62
7
6
CONTINUOUS
10
128.8354762949
20
-64.2383016158
11
129.4212600764
21
-64.4712403606
0
LINE
5
3BA
100
AcDbEntity
8
0
100
AcDbLine
62
7
6
CONTINUOUS
10
91.2581049815
20
-48.8469346136
11
91.8432786173
21
-49.0814036505
0
LINE
5
3BB
100
AcDbEntity
8
0
100
AcDbLine
62
7
6
CONTINUOUS
10
94.7689749046
20
-45.1727051952
11
95.6542421423
21
-45.6576985534
0
LINE
5
3BC
100
AcDbEntity
8
0
100
AcDbLine
62
7
6
CONTINUOUS
10
129.3210098412
20
-63.5854306838
11
128.8324544435
21
-63.2610087999
0
LINE
5
3BD
100
AcDbEntity
8
0
100
AcDbLine
62
7
6
CONTINUOUS
10
128.2490885915
20
-63.8099034467
11
128.8354762949
21
-64.2383016158
0
LINE
5
3BE
100
AcDbEntity
8
0
100
AcDbLine
62
7
6
CONTINUOUS
10
93.0012012146
20
-39.1295090718
11
92.6491861155
21
-38.8513938521
0
LINE
5
3BF
100
AcDbEntity
8
0
100
AcDbLine
62
7
6
CONTINUOUS
10
121.5021047882
20
-14.0922577881
11
121.5021047882
21
-14.3998943358
0
LINE
5
3C0
100
AcDbEntity
8
0
100
AcDbLine
62
7
6
CONTINUOUS
10
122.4269972910
20
-14.3164945503
11
122.4269972910
21
-14.6265080061
0
LINE
5
3C1
100
AcDbEntity
8
0
100
AcDbLine
62
7
6
CONTINUOUS
10
122.5678723194
20
-14.3533623005
11
122.5678723194
21
-14.6637700934
0
LINE
5
3C2
100
AcDbEntity
8
0
100
AcDbLine
62
7
6
CONTINUOUS
10
123.1368055007
20
-14.5096585056
11
123.1368055007
21
-14.8217493036
0
LINE
5
3C3
100
AcDbEntity
8
0
100
AcDbLine
62
7
6
CONTINUOUS
10
123.6601874418
20
-14.6640457783
11
123.6601874418
21
-14.9778171382
0
LINE
5
3C4
100
AcDbEntity
8
0
100
AcDbLine
62
7
6
CONTINUOUS
10
131.3902375444
20
-53.1084739071
11
130.9581796283
21
-53.6369282755
0
LINE
5
3C5
100
AcDbEntity
8
0
100
AcDbLine
62
7
6
CONTINUOUS
10
131.7200745212
20
-54.0284285160
11
132.0911171991
21
-53.6187152950
0
LINE
5
3C6
100
AcDbEntity
8
0
100
AcDbLine
62
7
6
CONTINUOUS
10
129.1054006453
20
-56.9273500453
11
126.7719372373
21
-59.1229286323
0
LINE
5
3C7
100
AcDbEntity
8
0
100
AcDbLine
62
7
6
CONTINUOUS
10
127.3589294957
20
-59.7467846691
11
129.1090270517
21
-58.1001007289
0
LINE
5
3C8
100
AcDbEntity
8
0
100
AcDbLine
62
7
6
CONTINUOUS
10
138.2743471503
20
-50.1874732463
11
137.9541451842
21
-50.4117236187
0
LINE
5
3C9
100
AcDbEntity
8
0
100
AcDbLine
62
7
6
CONTINUOUS
10
107.8290088698
20
-68.9544699284
11
108.5290917765
21
-68.6064015580
0
LINE
5
3CA
100
AcDbEntity
8
0
100
AcDbLine
62
7
6
CONTINUOUS
10
135.5410817030
20
-49.1255580062
11
132.4227131685
21
-49.7618882641
0
LINE
5
3CB
100
AcDbEntity
8
0
100
AcDbLine
62
7
6
CONTINUOUS
10
137.9541451842
20
-50.4117236187
11
137.5113426350
21
-50.4837454453
0
LINE
5
3CC
100
AcDbEntity
8
0
100
AcDbLine
62
7
6
CONTINUOUS
10
133.2702134345
20
-52.5735651645
11
132.6402531964
21
-52.5500469554
0
LINE
5
3CD
100
AcDbEntity
8
0
100
AcDbLine
62
7
6
CONTINUOUS
10
93.1036197377
20
-48.6092884482
11
92.2408724805
21
-48.5241614591
0
LINE
5
3CE
100
AcDbEntity
8
0
100
AcDbLine
62
7
6
CONTINUOUS
10
92.2784057296
20
-49.1906074507
11
92.9986125763
21
-49.2837559834
0
LINE
5
3CF
100
AcDbEntity
8
0
100
AcDbLine
62
7
6
CONTINUOUS
10
95.1665687120
20
-44.6154691278
11
94.7314419991
21
-44.5062653051
0
LINE
5
3D0
100
AcDbEntity
8
0
100
AcDbLine
62
7
6
CONTINUOUS
10
95.7517424477
20
-44.8499381591
11
95.1665687120
21
-44.6154691278
0
LINE
5
3D1
100
AcDbEntity
8
0
100
AcDbLine
62
7
6
CONTINUOUS
10
94.4637377111
20
-36.1159646848
11
94.8157524369
21
-36.3940797612
0
LINE
5
3D2
100
AcDbEntity
8
0
100
AcDbLine
62
7
6
CONTINUOUS
10
96.7295817231
20
-36.9856673676
11
97.0815964489
21
-37.2637824441
0
LINE
5
3D3
100
AcDbEntity
8
0
100
AcDbLine
62
7
6
CONTINUOUS
10
97.6728072229
20
-36.9187182417
11
97.1020582291
21
-36.4136584408
0
LINE
5
3D4
100
AcDbEntity
8
0
100
AcDbLine
62
7
6
CONTINUOUS
10
126.7816079797
20
-62.2502633910
11
128.2490885915
21
-63.8099034467
0
LINE
5
3D5
100
AcDbEntity
8
0
100
AcDbLine
62
7
6
CONTINUOUS
10
128.8324544435
20
-63.2610087999
11
127.3649738317
21
-61.7013687442
0
LINE
5
3D6
100
AcDbEntity
8
0
100
AcDbLine
62
7
6
CONTINUOUS
10
126.3896750925
20
-61.6389013288
11
126.7816079797
21
-62.2502633910
0
LINE
5
3D7
100
AcDbEntity
8
0
100
AcDbLine
62
7
6
CONTINUOUS
10
126.1903845885
20
-60.2581986208
11
126.1928025523
21
-61.0400320488
0
LINE
5
3D8
100
AcDbEntity
8
0
100
AcDbLine
62
7
6
CONTINUOUS
10
124.5850799446
20
-14.9622391334
11
124.5850799446
21
-15.2793085035
0
LINE
5
3D9
100
AcDbEntity
8
0
100
AcDbLine
62
7
6
CONTINUOUS
10
126.7431623776
20
-15.7895402567
11
126.7431623776
21
-16.1161356714
0
LINE
5
3DA
100
AcDbEntity
8
0
100
AcDbLine
62
7
6
CONTINUOUS
10
128.9012448106
20
-16.8151860347
11
128.9012448106
21
-17.1544220858
0
LINE
5
3DB
100
AcDbEntity
8
0
100
AcDbLine
62
7
6
CONTINUOUS
10
126.9718325361
20
-60.6990894628
11
127.0678513303
21
-60.2166900786
0
LINE
5
3DC
100
AcDbEntity
8
0
100
AcDbLine
62
7
6
CONTINUOUS
10
130.7141190686
20
-54.1118922085
11
130.5360261093
21
-54.7708466533
0
LINE
5
3DD
100
AcDbEntity
8
0
100
AcDbLine
62
7
6
CONTINUOUS
10
126.3836306966
20
-59.6843171900
11
126.1903845885
21
-60.2581986208
0
LINE
5
3DE
100
AcDbEntity
8
0
100
AcDbLine
62
7
6
CONTINUOUS
10
130.9581796283
20
-53.6369282755
11
130.7141190686
21
-54.1118922085
0
LINE
5
3DF
100
AcDbEntity
8
0
100
AcDbLine
62
7
6
CONTINUOUS
10
131.4760139615
20
-54.5033924490
11
131.7200745212
21
-54.0284285160
0
LINE
5
3E0
100
AcDbEntity
8
0
100
AcDbLine
62
7
6
CONTINUOUS
10
127.0678513303
20
-60.2166900786
11
127.3589294957
21
-59.7467846691
0
LINE
5
3E1
100
AcDbEntity
8
0
100
AcDbLine
62
7
6
CONTINUOUS
10
126.7719372373
20
-59.1229286323
11
126.3836306966
21
-59.6843171900
0
LINE
5
3E2
100
AcDbEntity
8
0
100
AcDbLine
62
7
6
CONTINUOUS
10
132.5331486392
20
-61.7392610287
11
130.7830510832
21
-63.3859449690
0
LINE
5
3E3
100
AcDbEntity
8
0
100
AcDbLine
62
7
6
CONTINUOUS
10
138.4632978376
20
-50.8884600848
11
138.9623509195
21
-50.4199081330
0
LINE
5
3E4
100
AcDbEntity
8
0
100
AcDbLine
62
7
6
CONTINUOUS
10
130.7860726606
20
-64.3632374936
11
131.3700432731
21
-64.0098009330
0
LINE
5
3E5
100
AcDbEntity
8
0
100
AcDbLine
62
7
6
CONTINUOUS
10
130.7830510832
20
-63.3859449690
11
130.2963088544
21
-63.6478983905
0
LINE
5
3E6
100
AcDbEntity
8
0
100
AcDbLine
62
7
6
CONTINUOUS
10
92.9986125763
20
-49.2837559834
11
94.2814731781
21
-49.2115071783
0
LINE
5
3E7
100
AcDbEntity
8
0
100
AcDbLine
62
7
6
CONTINUOUS
10
94.1014002057
20
-48.5530949332
11
93.1036197377
21
-48.6092884482
0
LINE
5
3E8
100
AcDbEntity
8
DEFAULT_1
100
AcDbLine
62
2
6
CENTER
10
114.8261373134
20
-45.6476542205
11
90.5761373134
21
-45.6476542205
0
LINE
5
3E9
100
AcDbEntity
8
DEFAULT_1
100
AcDbLine
62
2
6
CENTER
10
114.8261373134
20
-45.6476542205
11
139.0761373134
21
-45.6476542205
0
LINE
5
3EA
100
AcDbEntity
8
0
100
AcDbLine
62
7
6
CONTINUOUS
10
93.9062277913
20
-45.0875843188
11
94.7689749046
21
-45.1727051952
0
LINE
5
3EB
100
AcDbEntity
8
0
100
AcDbLine
62
7
6
CONTINUOUS
10
94.7314419991
20
-44.5062653051
11
94.0112346091
21
-44.4131106822
0
LINE
5
3EC
100
AcDbEntity
8
0
100
AcDbLine
62
7
6
CONTINUOUS
10
136.8334379875
20
-51.1965992985
11
137.3988415695
21
-51.2768056957
0
LINE
5
3ED
100
AcDbEntity
8
0
100
AcDbLine
62
7
6
CONTINUOUS
10
137.5113426350
20
-50.4837454453
11
137.0872898495
21
-50.4235906334
0
LINE
5
3EE
100
AcDbEntity
8
0
100
AcDbLine
62
7
6
CONTINUOUS
10
96.2854295364
20
-43.0862150272
11
96.9906888510
21
-43.1964977795
0
LINE
5
3EF
100
AcDbEntity
8
0
100
AcDbLine
62
7
6
CONTINUOUS
10
97.0938142242
20
-42.5370099768
11
96.3885549095
21
-42.4267272245
0
LINE
5
3F0
100
AcDbEntity
8
0
100
AcDbLine
62
7
6
CONTINUOUS
10
133.0311054115
20
-53.3512604169
11
133.6000501589
21
-53.4935200731
0
LINE
5
3F1
100
AcDbEntity
8
0
100
AcDbLine
62
7
6
CONTINUOUS
10
133.9661409984
20
-52.7810741737
11
133.2702134345
21
-52.5735651645
0
LINE
5
3F2
100
AcDbEntity
8
0
100
AcDbLine
62
7
6
CONTINUOUS
10
92.6287247087
20
-39.7015179987
11
93.1618644323
21
-39.9061539073
0
LINE
5
3F3
100
AcDbEntity
8
0
100
AcDbLine
62
7
6
CONTINUOUS
10
93.2677710765
20
-39.2318270261
11
93.0012012146
21
-39.1295090718
0
LINE
5
3F4
100
AcDbEntity
8
0
100
AcDbLine
62
7
6
CONTINUOUS
10
131.7695968343
20
-57.0557478717
11
135.7060538552
21
-59.0784991522
0
LINE
5
3F5
100
AcDbEntity
8
0
100
AcDbLine
62
7
6
CONTINUOUS
10
136.0721445201
20
-58.3660535925
11
132.1356874992
21
-56.3433023120
0
LINE
5
3F6
100
AcDbEntity
8
0
100
AcDbLine
62
7
6
CONTINUOUS
10
133.6000501589
20
-53.4935200731
11
137.5365071798
21
-55.5162713537
0
LINE
5
3F7
100
AcDbEntity
8
0
100
AcDbLine
62
7
6
CONTINUOUS
10
97.1020582291
20
-36.4136584408
11
96.2169035930
21
-35.9309073841
0
LINE
5
3F8
100
AcDbEntity
8
0
100
AcDbLine
62
7
6
CONTINUOUS
10
95.9777098281
20
-36.5540809935
11
96.7295817231
21
-36.9856673676
0
LINE
5
3F9
100
AcDbEntity
8
0
100
AcDbLine
62
7
6
CONTINUOUS
10
131.1956997248
20
-56.6107565563
11
131.7695968343
21
-57.0557478717
0
LINE
5
3FA
100
AcDbEntity
8
0
100
AcDbLine
62
7
6
CONTINUOUS
10
132.1356874992
20
-56.3433023120
11
131.6887728571
21
-55.9635610290
0
LINE
5
3FB
100
AcDbEntity
8
0
100
AcDbLine
62
7
6
CONTINUOUS
10
129.1090270517
20
-58.1001007289
11
132.5331486392
21
-61.7392610287
0
LINE
5
3FC
100
AcDbEntity
8
0
100
AcDbLine
62
7
6
CONTINUOUS
10
133.7035066811
20
-61.8142223460
11
129.1054006453
21
-56.9273500453
0
LINE
5
3FD
100
AcDbEntity
8
0
100
AcDbLine
62
7
6
CONTINUOUS
10
127.3649738317
20
-61.7013687442
11
127.0708729761
21
-61.1939826761
0
LINE
5
3FE
100
AcDbEntity
8
0
100
AcDbLine
62
7
6
CONTINUOUS
10
126.1928025523
20
-61.0400320488
11
126.3896750925
21
-61.6389013288
0
LINE
5
3FF
100
AcDbEntity
8
0
100
AcDbLine
62
7
6
CONTINUOUS
10
127.0708729761
20
-61.1939826761
11
126.9718325361
21
-60.6990894628
0
LINE
5
400
100
AcDbEntity
8
0
100
AcDbLine
62
7
6
CONTINUOUS
10
130.5360261093
20
-54.7708466533
11
130.5459305177
21
-55.3763106683
0
LINE
5
401
100
AcDbEntity
8
0
100
AcDbLine
62
7
6
CONTINUOUS
10
129.8261373134
20
-17.3210517052
11
129.8261373134
21
-17.6668921070
0
LINE
5
402
100
AcDbEntity
8
0
100
AcDbLine
62
7
6
CONTINUOUS
10
133.0039686557
20
-45.6644104297
11
132.8914675902
21
-46.4574706801
0
LINE
5
403
100
AcDbEntity
8
0
100
AcDbLine
62
7
6
CONTINUOUS
10
132.4227131685
20
-49.7618882641
11
132.2914618897
21
-50.6871254750
0
LINE
5
404
100
AcDbEntity
8
0
100
AcDbLine
62
7
6
CONTINUOUS
10
131.3589358692
20
-55.0436064144
11
131.4760139615
21
-54.5033924490
0
LINE
5
405
100
AcDbEntity
8
0
100
AcDbLine
62
7
6
CONTINUOUS
10
135.7060538552
20
-59.0784991522
11
136.0721445201
21
-58.3660535925
0
LINE
5
406
100
AcDbEntity
8
0
100
AcDbLine
62
7
6
CONTINUOUS
10
137.5365071798
20
-55.5162713537
11
137.9025980193
21
-54.8038254542
0
LINE
5
407
100
AcDbEntity
8
0
100
AcDbLine
62
7
6
CONTINUOUS
10
138.4719484796
20
-49.8109947063
11
138.2743471503
21
-50.1874732463
0
LINE
5
408
100
AcDbEntity
8
0
100
AcDbLine
62
7
6
CONTINUOUS
10
131.3700432731
20
-64.0098009330
11
133.7035066811
21
-61.8142223460
0
LINE
5
409
100
AcDbEntity
8
0
100
AcDbLine
62
7
6
CONTINUOUS
10
94.2814731781
20
-49.2115071783
11
94.9866671997
21
-49.0380821843
0
LINE
5
40A
100
AcDbEntity
8
0
100
AcDbLine
62
7
6
CONTINUOUS
10
94.9491339506
20
-48.3716361926
11
94.1014002057
21
-48.5530949332
0
LINE
5
40B
100
AcDbEntity
8
0
100
AcDbLine
62
7
6
CONTINUOUS
10
92.0607134345
20
-45.3252304617
11
92.9084473233
21
-45.1437778339
0
LINE
5
40C
100
AcDbEntity
8
0
100
AcDbLine
62
7
6
CONTINUOUS
10
92.9084473233
20
-45.1437778339
11
93.9062277913
21
-45.0875843188
0
LINE
5
40D
100
AcDbEntity
8
0
100
AcDbLine
62
7
6
CONTINUOUS
10
94.0112346091
20
-44.4131106822
11
92.7283740073
21
-44.4853594873
0
LINE
5
40E
100
AcDbEntity
8
0
100
AcDbLine
62
7
6
CONTINUOUS
10
95.7899540602
20
-40.6289096649
11
96.2376490131
21
-40.6577484871
0
LINE
5
40F
100
AcDbEntity
8
0
100
AcDbLine
62
7
6
CONTINUOUS
10
132.8914675902
20
-46.4574706801
11
135.8598347130
21
-46.8785540265
0
LINE
5
410
100
AcDbEntity
8
0
100
AcDbLine
62
7
6
CONTINUOUS
10
136.7079394921
20
-46.9988635379
11
138.8282018358
21
-47.2996373728
0
LINE
5
411
100
AcDbEntity
8
0
100
AcDbLine
62
7
6
CONTINUOUS
10
139.6474568838
20
-46.6068350486
11
133.0039686557
21
-45.6644104297
0
LINE
5
412
100
AcDbEntity
8
0
100
AcDbLine
62
7
6
CONTINUOUS
10
94.1971678493
20
-36.0136467305
11
94.4637377111
21
-36.1159646848
0
LINE
5
413
100
AcDbEntity
8
0
100
AcDbLine
62
7
6
CONTINUOUS
10
95.7111399663
20
-36.4517630392
11
95.9777098281
21
-36.5540809935
0
LINE
5
414
100
AcDbEntity
8
0
100
AcDbLine
62
7
6
CONTINUOUS
10
96.2169035930
20
-35.9309073841
11
95.2839090767
21
-35.5727945442
0
LINE
5
415
100
AcDbEntity
8
0
100
AcDbLine
62
7
6
CONTINUOUS
10
136.4281357576
20
-51.0042679604
11
136.8334379875
21
-51.1965992985
0
LINE
5
416
100
AcDbEntity
8
0
100
AcDbLine
62
7
6
CONTINUOUS
10
137.0872898495
20
-50.4235906334
11
136.6819876196
21
-50.2312592953
0
LINE
5
417
100
AcDbEntity
8
0
100
AcDbLine
62
7
6
CONTINUOUS
10
137.9025980193
20
-54.8038254542
11
133.9661409984
21
-52.7810741737
0
LINE
5
418
100
AcDbEntity
8
0
100
AcDbLine
62
7
6
CONTINUOUS
10
130.8097998718
20
-56.1122747540
11
131.1956997248
21
-56.6107565563
0
LINE
5
419
100
AcDbEntity
8
0
100
AcDbLine
62
7
6
CONTINUOUS
10
131.6887728571
20
-55.9635610290
11
131.4298555603
21
-55.5303293049
0
LINE
5
41A
100
AcDbEntity
8
0
100
AcDbLine
62
7
6
CONTINUOUS
10
130.5459305177
20
-55.3763106683
11
130.8097998718
21
-56.1122747540
0
LINE
5
41B
100
AcDbEntity
8
0
100
AcDbLine
62
7
6
CONTINUOUS
10
131.4298555603
20
-55.5303293049
11
131.3589358692
21
-55.0436064144
0
LINE
5
41C
100
AcDbEntity
8
0
100
AcDbLine
62
7
6
CONTINUOUS
10
135.8598347130
20
-46.8785540265
11
135.5410817030
21
-49.1255580062
0
LINE
5
41D
100
AcDbEntity
8
0
100
AcDbLine
62
7
6
CONTINUOUS
10
136.3516861359
20
-49.5102208715
11
136.7079394921
21
-46.9988635379
0
LINE
5
41E
100
AcDbEntity
8
0
100
AcDbLine
62
7
6
CONTINUOUS
10
138.8282018358
20
-47.2996373728
11
138.4719484796
21
-49.8109947063
0
LINE
5
41F
100
AcDbEntity
8
0
100
AcDbLine
62
7
6
CONTINUOUS
10
139.1974526219
20
-49.7790760502
11
139.6474568838
21
-46.6068350486
0
LINE
5
420
100
AcDbEntity
8
0
100
AcDbLine
62
7
6
CONTINUOUS
10
138.9623509195
20
-50.4199081330
11
139.1974526219
21
-49.7790760502
0
LINE
5
421
100
AcDbEntity
8
0
100
AcDbLine
62
7
6
CONTINUOUS
10
146.5804021188
20
-45.6476542205
11
132.8008213393
21
-69.5145882377
0
LINE
5
422
100
AcDbEntity
8
0
100
AcDbLine
62
7
6
CONTINUOUS
10
96.2376490131
20
-40.6577484871
11
96.9143046044
21
-40.4884813890
0
LINE
5
423
100
AcDbEntity
8
0
100
AcDbLine
62
7
6
CONTINUOUS
10
92.7283740073
20
-44.4853594873
11
92.0231805290
21
-44.6587905715
0
LINE
5
424
100
AcDbEntity
8
0
100
AcDbLine
62
7
6
CONTINUOUS
10
96.5246806551
20
-39.9099424380
11
96.0291478251
21
-40.0057360556
0
LINE
5
425
100
AcDbEntity
8
0
100
AcDbLine
62
7
6
CONTINUOUS
10
93.1618644323
20
-39.9061539073
11
93.9239648409
21
-39.9126839134
0
LINE
5
426
100
AcDbEntity
8
0
100
AcDbLine
62
7
6
CONTINUOUS
10
93.7154659361
20
-39.2606658124
11
93.2677710765
21
-39.2318270261
0
LINE
5
427
100
AcDbEntity
8
0
100
AcDbLine
62
7
6
CONTINUOUS
10
93.7494726163
20
-35.9848078008
11
94.1971678493
21
-36.0136467305
0
LINE
5
428
100
AcDbEntity
8
0
100
AcDbLine
62
7
6
CONTINUOUS
10
95.2839090767
20
-35.5727945442
11
94.3030744935
21
-35.3393198494
0
LINE
5
429
100
AcDbEntity
8
0
100
AcDbLine
62
7
6
CONTINUOUS
10
135.9189831043
20
-50.5275314942
11
136.4281357576
21
-51.0042679604
0
LINE
5
42A
100
AcDbEntity
8
0
100
AcDbLine
62
7
6
CONTINUOUS
10
136.6819876196
20
-50.2312592953
11
136.4367863996
21
-49.9268025819
0
LINE
5
42B
100
AcDbEntity
8
0
100
AcDbLine
62
7
6
CONTINUOUS
10
135.7112822037
20
-49.9587216162
11
135.9189831043
21
-50.5275314942
0
LINE
5
42C
100
AcDbEntity
8
0
100
AcDbLine
62
7
6
CONTINUOUS
10
136.4367863996
20
-49.9268025819
11
136.3516861359
21
-49.5102208715
0
LINE
5
42D
100
AcDbEntity
8
0
100
AcDbLine
62
7
6
CONTINUOUS
10
93.9239648409
20
-39.9126839134
11
94.6006203855
21
-39.7434167974
0
LINE
5
42E
100
AcDbEntity
8
0
100
AcDbLine
62
7
6
CONTINUOUS
10
94.2109964828
20
-39.1648778644
11
93.7154659361
21
-39.2606658124
0
LINE
5
42F
100
AcDbEntity
8
0
100
AcDbLine
62
7
6
CONTINUOUS
10
93.2539420696
20
-36.0805957489
11
93.7494726163
21
-35.9848078008
0
LINE
5
430
100
AcDbEntity
8
0
100
AcDbLine
62
7
6
CONTINUOUS
10
94.3030744935
20
-35.3393198494
11
93.5409737115
21
-35.3327896999
0
LINE
5
431
100
AcDbEntity
8
0
100
AcDbLine
62
7
6
CONTINUOUS
10
144.8261373134
20
-48.6861299935
11
144.8261373134
21
-69.7734023556
0
LINE
5
432
100
AcDbEntity
8
0
100
AcDbLine
62
7
6
CONTINUOUS
10
144.8261373134
20
-91.5219060854
11
144.8261373134
21
-103.6473874718
0
LINE
5
433
100
AcDbEntity
8
0
100
AcDbLine
62
7
6
CONTINUOUS
10
93.5409737115
20
-35.3327896999
11
92.8643181669
21
-35.5020568159
0
LINE
5
434
100
AcDbEntity
8
0
100
AcDbLine
62
7
6
CONTINUOUS
10
130.7032697161
20
-18.1476542205
11
146.5804021188
21
-45.6476542205
0
LINE
5
435
100
AcDbEntity
8
0
100
AcDbLine
62
7
6
CONTINUOUS
10
98.9490049107
20
-18.1476542205
11
130.7032697161
21
-18.1476542205
0
LINE
5
436
100
AcDbEntity
8
0
100
AcDbLine
62
7
6
CONTINUOUS
10
164.3261373134
20
-81.5400880923
11
164.3261373134
21
-79.7552203487
0
ARC
5
437
100
AcDbEntity
8
0
100
AcDbCircle
62
7
6
CONTINUOUS
10
86.8261373134
20
104.0953659341
40
2.0000000000
100
AcDbArc
50
180.0000000000
51
270.0000000000
0
ARC
5
438
100
AcDbEntity
8
0
100
AcDbCircle
62
7
6
CONTINUOUS
10
86.8261373134
20
150.0953659341
40
2.0000000000
100
AcDbArc
50
90.0000000000
51
180.0000000000
0
ARC
5
439
100
AcDbEntity
8
0
100
AcDbCircle
62
7
6
CONTINUOUS
10
142.8261373134
20
150.0953659341
40
2.0000000000
100
AcDbArc
50
0.0000000000
51
90.0000000000
0
ARC
5
43A
100
AcDbEntity
8
0
100
AcDbCircle
62
7
6
CONTINUOUS
10
142.8261373134
20
104.0953659341
40
2.0000000000
100
AcDbArc
50
270.0000000000
51
360.0000000000
0
ARC
5
43B
100
AcDbEntity
8
0
100
AcDbCircle
62
7
6
CONTINUOUS
10
98.1761373134
20
93.8740455905
40
1.5000000000
100
AcDbArc
50
0.0000000000
51
45.0000000000
0
ARC
5
43C
100
AcDbEntity
8
0
100
AcDbCircle
62
7
6
CONTINUOUS
10
98.1761373134
20
89.5666862777
40
1.5000000000
100
AcDbArc
50
315.0000000000
51
360.0000000000
0
ARC
5
43D
100
AcDbEntity
8
0
100
AcDbCircle
62
7
6
CONTINUOUS
10
131.4761373134
20
93.8740455905
40
1.5000000000
100
AcDbArc
50
135.0000000000
51
180.0000000000
0
ARC
5
43E
100
AcDbEntity
8
0
100
AcDbCircle
62
7
6
CONTINUOUS
10
131.4761373134
20
89.5666862777
40
1.5000000000
100
AcDbArc
50
180.0000000000
51
225.0000000000
0
ARC
5
43F
100
AcDbEntity
8
0
100
AcDbCircle
62
7
6
CONTINUOUS
10
136.3261373134
20
148.3453659341
40
11.0000000000
100
AcDbArc
50
320.6037028543
51
360.0000000000
0
ARC
5
440
100
AcDbEntity
8
0
100
AcDbCircle
62
7
6
CONTINUOUS
10
136.3261373134
20
223.6845003162
40
11.0000000000
100
AcDbArc
50
0.0000000000
51
50.7760676014
0
ARC
5
441
100
AcDbEntity
8
0
100
AcDbCircle
62
7
6
CONTINUOUS
10
95.3261373134
20
229.3766006902
40
30.0000000000
100
AcDbArc
50
121.3322514976
51
180.0000000000
0
ARC
5
442
100
AcDbEntity
8
0
100
AcDbCircle
62
7
6
CONTINUOUS
10
87.3261373134
20
136.8453659341
40
22.0000000000
100
AcDbArc
50
180.0000000000
51
263.4749004042
0
ARC
5
443
100
AcDbEntity
8
0
100
AcDbCircle
62
7
6
CONTINUOUS
10
114.8261373134
20
197.3453659341
40
45.0000000000
100
AcDbArc
50
50.7760676014
51
129.2239323986
0
ARC
5
444
100
AcDbEntity
8
0
100
AcDbCircle
62
7
6
CONTINUOUS
10
93.3261373134
20
223.6845003162
40
11.0000000000
100
AcDbArc
50
129.2239323986
51
180.0000000000
0
ARC
5
445
100
AcDbEntity
8
0
100
AcDbCircle
62
7
6
CONTINUOUS
10
93.3261373134
20
148.3453659341
40
11.0000000000
100
AcDbArc
50
180.0000000000
51
219.3962971457
0
ARC
5
446
100
AcDbEntity
8
0
100
AcDbCircle
62
7
6
CONTINUOUS
10
142.3261373134
20
136.8453659341
40
22.0000000000
100
AcDbArc
50
276.5250995958
51
360.0000000000
0
ARC
5
447
100
AcDbEntity
8
0
100
AcDbCircle
62
7
6
CONTINUOUS
10
114.8261373134
20
197.3453659341
40
67.5000000000
100
AcDbArc
50
58.6677485024
51
121.3322514976
0
ARC
5
448
100
AcDbEntity
8
0
100
AcDbCircle
62
7
6
CONTINUOUS
10
134.3261373134
20
229.3766006902
40
30.0000000000
100
AcDbArc
50
0.0000000000
51
58.6677485024
0
ARC
5
449
100
AcDbEntity
8
0
100
AcDbCircle
62
7
6
CONTINUOUS
10
307.7626105292
20
166.6727162033
40
1.0000000000
100
AcDbArc
50
320.1802714189
51
360.0000000000
0
ARC
5
44A
100
AcDbEntity
8
0
100
AcDbCircle
62
7
6
CONTINUOUS
10
316.5626105292
20
253.5953659341
40
11.2500000000
100
AcDbArc
50
180.0071688648
51
183.0000000000
0
ARC
5
44B
100
AcDbEntity
8
0
100
AcDbCircle
62
7
6
CONTINUOUS
10
315.8126105292
20
125.3453659341
40
10.5000000000
100
AcDbArc
50
180.5281601746
51
270.0000000000
0
ARC
5
44C
100
AcDbEntity
8
0
100
AcDbCircle
62
7
6
CONTINUOUS
10
325.3626105292
20
203.5180156649
40
1.0000000000
100
AcDbArc
50
135.8146880789
51
180.0000000000
0
ARC
5
44D
100
AcDbEntity
8
0
100
AcDbCircle
62
7
6
CONTINUOUS
10
322.9245022760
20
205.8877601792
40
2.4000063236
100
AcDbArc
50
315.8146133100
51
356.9997799229
0
ARC
5
44E
100
AcDbEntity
8
0
100
AcDbCircle
62
7
6
CONTINUOUS
10
325.3626105292
20
166.6727162033
40
1.0000000000
100
AcDbArc
50
180.0000000000
51
219.8554163079
0
ARC
5
44F
100
AcDbEntity
8
0
100
AcDbCircle
62
7
6
CONTINUOUS
10
317.3126105292
20
125.3453659341
40
10.5000000000
100
AcDbArc
50
270.0000000000
51
359.4718398254
0
ARC
5
450
100
AcDbEntity
8
0
100
AcDbCircle
62
7
6
CONTINUOUS
10
316.5626105292
20
253.5953659341
40
11.2500000000
100
AcDbArc
50
357.0000000000
51
359.9928311352
0
ARC
5
451
100
AcDbEntity
8
0
100
AcDbCircle
62
7
6
CONTINUOUS
10
310.2007154326
20
205.8877507725
40
2.4000000000
100
AcDbArc
50
183.0000000002
51
224.1852686694
0
ARC
5
452
100
AcDbEntity
8
0
100
AcDbCircle
62
7
6
CONTINUOUS
10
307.7626105292
20
203.5180156649
40
1.0000000000
100
AcDbArc
50
0.0000000000
51
44.1853119211
0
ARC
5
453
100
AcDbEntity
8
0
100
AcDbCircle
62
7
6
CONTINUOUS
10
251.5626105292
20
150.0953659341
40
2.0000000000
100
AcDbArc
50
90.0000000000
51
180.0000000000
0
ARC
5
454
100
AcDbEntity
8
0
100
AcDbCircle
62
7
6
CONTINUOUS
10
316.5626105292
20
127.0953659341
40
13.0000000000
100
AcDbArc
50
135.8319691982
51
44.1682386036
0
ARC
5
455
100
AcDbEntity
8
0
100
AcDbCircle
62
7
6
CONTINUOUS
10
251.5626105292
20
104.0953659341
40
2.0000000000
100
AcDbArc
50
180.0000000000
51
270.0000000000
0
ARC
5
456
100
AcDbEntity
8
0
100
AcDbCircle
62
7
6
CONTINUOUS
10
316.5626105292
20
127.0953659341
40
25.0000000000
100
AcDbArc
50
269.9999999994
51
69.9010216996
0
ARC
5
457
100
AcDbEntity
8
0
100
AcDbCircle
62
7
6
CONTINUOUS
10
298.2126105292
20
93.8740455905
40
1.5000000000
100
AcDbArc
50
135.0000000000
51
180.0000000000
0
ARC
5
458
100
AcDbEntity
8
0
100
AcDbCircle
62
7
6
CONTINUOUS
10
264.9126105292
20
93.8740455905
40
1.5000000000
100
AcDbArc
50
0.0000000000
51
45.0000000000
0
ARC
5
459
100
AcDbEntity
8
0
100
AcDbCircle
62
7
6
CONTINUOUS
10
298.2126105292
20
89.5666862777
40
1.5000000000
100
AcDbArc
50
180.0000000000
51
225.0000000000
0
ARC
5
45A
100
AcDbEntity
8
0
100
AcDbCircle
62
7
6
CONTINUOUS
10
264.9126105292
20
89.5666862777
40
1.5000000000
100
AcDbArc
50
315.0000000000
51
360.0000000000
0
ARC
5
45B
100
AcDbEntity
8
0
100
AcDbCircle
62
7
6
CONTINUOUS
10
114.8261373134
20
-45.6476542205
40
27.5000000000
100
AcDbArc
50
300.0119241214
51
239.9880758786
0
ARC
5
45C
100
AcDbEntity
8
0
100
AcDbCircle
62
7
6
CONTINUOUS
10
86.8261373134
20
-103.6476542205
40
2.0000000000
100
AcDbArc
50
180.0000000000
51
270.0000000000
0
ARC
5
45D
100
AcDbEntity
8
0
100
AcDbCircle
62
7
6
CONTINUOUS
10
142.8261373134
20
-103.6476542205
40
2.0000000000
100
AcDbArc
50
270.0000000000
51
360.0000000000
0
ARC
5
45E
100
AcDbEntity
8
0
100
AcDbCircle
62
7
6
CONTINUOUS
10
114.8261373134
20
-43.6476542205
40
30.0000000000
100
AcDbArc
50
122.1229899119
51
177.8821070919
0
ARC
5
45F
100
AcDbEntity
8
0
100
AcDbCircle
62
7
6
CONTINUOUS
10
114.8261373134
20
-43.6476542205
40
30.0000000000
100
AcDbArc
50
58.2732155296
51
121.7267934626
0
ARC
5
460
100
AcDbEntity
8
0
100
AcDbCircle
62
7
6
CONTINUOUS
10
114.8261373134
20
-43.6476542205
40
30.0000000000
100
AcDbArc
50
2.1179003685
51
57.8770087185
0
ARC
5
461
100
AcDbEntity
8
0
100
AcDbCircle
62
7
6
CONTINUOUS
10
114.8261373134
20
-43.6476542205
40
30.3000000000
100
AcDbArc
50
60.3269851975
51
99.2781433768
0
ARC
5
462
100
AcDbEntity
8
0
100
AcDbCircle
62
7
6
CONTINUOUS
10
114.8261373134
20
-43.6476542205
40
30.3000000000
100
AcDbArc
50
101.6496506203
51
113.5991848707
0
SPLINE
5
463
100
AcDbEntity
8
0
100
AcDbSpline
62
7
6
CONTINUOUS
70
0
71
3
72
13
73
9
74
7
42
0.0000001000
43
0.0000001000
44
0.0000000001
40
0.0000000000
40
0.0000000000
40
0.0000000000
40
0.0000000000
40
0.1875770927
40
0.3624501217
40
0.5286030168
40
0.6888356926
40
0.8453297152
40
1.0000000000
40
1.0000000000
40
1.0000000000
40
1.0000000000
10
98.9490049107
20
166.6391650035
30
0.0000000000
10
98.4938585179
20
166.9019438959
30
0.0000000000
10
97.5999451896
20
167.3854301434
30
0.0000000000
10
96.2515904423
20
168.0011820866
30
0.0000000000
10
94.9310090284
20
168.4839553155
30
0.0000000000
10
93.6220530682
20
168.8341113264
30
0.0000000000
10
92.3163450987
20
169.0474271893
30
0.0000000000
10
91.4437975468
20
169.0953659393
30
0.0000000000
10
91.0104388086
20
169.0953659394
30
0.0000000000
11
98.9490049107
21
166.6391650035
31
0.0000000000
11
97.5604119190
21
167.3859637512
31
0.0000000000
11
96.2218378650
21
167.9932489950
31
0.0000000000
11
94.9089669171
21
168.4695280108
31
0.0000000000
11
93.6071246092
21
168.8147230088
31
0.0000000000
11
92.3085964608
21
169.0247622991
31
0.0000000000
11
91.0104388086
21
169.0953659394
31
0.0000000000
0
SPLINE
5
464
100
AcDbEntity
8
0
100
AcDbSpline
62
7
6
CONTINUOUS
70
0
71
3
72
8
73
4
74
2
42
0.0000001000
43
0.0000001000
44
0.0000000001
40
0.0000000000
40
0.0000000000
40
0.0000000000
40
0.0000000000
40
1.0000000000
40
1.0000000000
40
1.0000000000
40
1.0000000000
10
91.0104388086
20
169.0953659394
30
0.0000000000
10
90.9875290389
20
169.0953659394
30
0.0000000000
10
90.9646182685
20
169.0952993429
30
0.0000000000
10
90.9417069394
20
169.0951662805
30
0.0000000000
11
91.0104388086
21
169.0953659394
31
0.0000000000
11
90.9417069394
21
169.0951662805
31
0.0000000000
0
SPLINE
5
465
100
AcDbEntity
8
0
100
AcDbSpline
62
7
6
CONTINUOUS
70
0
71
3
72
8
73
4
74
2
42
0.0000001000
43
0.0000001000
44
0.0000000001
40
0.0000000000
40
0.0000000000
40
0.0000000000
40
0.0000000000
40
1.0000000000
40
1.0000000000
40
1.0000000000
40
1.0000000000
10
90.9417069394
20
169.0951662805
30
0.0000000000
10
90.6802416904
20
169.0936477653
30
0.0000000000
10
90.4187036862
20
169.0834730612
30
0.0000000000
10
90.1577500800
20
169.0648361057
30
0.0000000000
11
90.9417069394
21
169.0951662805
31
0.0000000000
11
90.1577500800
21
169.0648361057
31
0.0000000000
0
SPLINE
5
466
100
AcDbEntity
8
0
100
AcDbSpline
62
7
6
CONTINUOUS
70
0
71
3
72
13
73
9
74
7
42
0.0000001000
43
0.0000001000
44
0.0000000001
40
0.0000000000
40
0.0000000000
40
0.0000000000
40
0.0000000000
40
0.0592187963
40
0.2334140026
40
0.4117527509
40
0.5966592719
40
0.7912407241
40
1.0000000000
40
1.0000000000
40
1.0000000000
40
1.0000000000
10
90.1577500800
20
169.0648361057
30
0.0000000000
10
90.0089503939
20
169.0542090323
30
0.0000000000
10
89.4231975508
20
169.0014768354
30
0.0000000000
10
88.3984499034
20
168.8340340067
30
0.0000000000
10
87.0894617525
20
168.4838247189
30
0.0000000000
10
85.7690134311
20
168.0010625089
30
0.0000000000
10
84.4208105454
20
167.3853647243
30
0.0000000000
10
83.5270072249
20
166.9019371548
30
0.0000000000
10
83.0718725079
20
166.6391650035
30
0.0000000000
11
90.1577500800
21
169.0648361057
31
0.0000000000
11
89.7120429024
21
169.0247364595
31
0.0000000000
11
88.4133368300
21
168.8146338669
31
0.0000000000
11
87.1114529353
21
168.4693838806
31
0.0000000000
11
85.7986933299
21
167.9931073034
31
0.0000000000
11
84.4604292550
21
167.3859457525
31
0.0000000000
11
83.0718725079
21
166.6391650035
31
0.0000000000
0
SPLINE
5
467
100
AcDbEntity
8
0
100
AcDbSpline
62
7
6
CONTINUOUS
70
0
71
3
72
13
73
9
74
7
42
0.0000001000
43
0.0000001000
44
0.0000000001
40
0.0000000000
40
0.0000000000
40
0.0000000000
40
0.0000000000
40
0.1622297934
40
0.3247376888
40
0.4881637210
40
0.6537290354
40
0.8233433628
40
1.0000000000
40
1.0000000000
40
1.0000000000
40
1.0000000000
10
114.8261373134
20
169.0953659342
30
0.0000000000
10
113.9544837462
20
169.0953659342
30
0.0000000000
10
112.2093104815
20
169.0473016244
30
0.0000000000
10
109.5940070282
20
168.8332450113
30
0.0000000000
10
106.9754936233
20
168.4824473294
30
0.0000000000
10
104.3393339654
20
168.0001388401
30
0.0000000000
10
101.6575382226
20
167.3877438062
30
0.0000000000
10
99.8609363797
20
166.9024169431
30
0.0000000000
10
98.9490049107
20
166.6391650035
30
0.0000000000
11
114.8261373134
21
169.0953659342
31
0.0000000000
11
112.2121560883
21
169.0238003979
31
0.0000000000
11
109.6013426051
21
168.8113465653
31
0.0000000000
11
106.9901820631
21
168.4633877744
31
0.0000000000
11
104.3646264642
21
167.9853148421
31
0.0000000000
11
101.6986848242
21
167.3791282896
31
0.0000000000
11
98.9490049107
21
166.6391650035
31
0.0000000000
0
SPLINE
5
468
100
AcDbEntity
8
0
100
AcDbSpline
62
7
6
CONTINUOUS
70
0
71
3
72
13
73
9
74
7
42
0.0000001000
43
0.0000001000
44
0.0000000001
40
0.0000000000
40
0.0000000000
40
0.0000000000
40
0.0000000000
40
0.1773553630
40
0.3473225885
40
0.5128872982
40
0.6761080372
40
0.8382204105
40
1.0000000000
40
1.0000000000
40
1.0000000000
40
1.0000000000
10
130.7032697161
20
166.6391650035
30
0.0000000000
10
129.7877312125
20
166.9034582042
30
0.0000000000
10
127.9856355679
20
167.3901379576
30
0.0000000000
10
125.2981994655
20
168.0032263822
30
0.0000000000
10
122.6611211667
20
168.4849127547
30
0.0000000000
10
120.0457116825
20
168.8345221671
30
0.0000000000
10
117.4359984224
20
169.0475607788
30
0.0000000000
10
115.6953720436
20
169.0953659342
30
0.0000000000
10
114.8261373134
20
169.0953659342
30
0.0000000000
11
130.7032697161
21
166.6391650035
31
0.0000000000
11
127.9426576197
21
167.3818464165
31
0.0000000000
11
125.2710389278
21
167.9887220613
31
0.0000000000
11
122.6453543944
21
168.4660333836
31
0.0000000000
11
120.0373739462
21
168.8128058145
31
0.0000000000
11
117.4328701279
21
169.0241958570
31
0.0000000000
11
114.8261373134
21
169.0953659342
31
0.0000000000
0
SPLINE
5
469
100
AcDbEntity
8
0
100
AcDbSpline
62
7
6
CONTINUOUS
70
0
71
3
72
13
73
9
74
7
42
0.0000001000
43
0.0000001000
44
0.0000000001
40
0.0000000000
40
0.0000000000
40
0.0000000000
40
0.0000000000
40
0.2129913075
40
0.4115573185
40
0.6002217329
40
0.7821638165
40
0.9598607090
40
1.0000000000
40
1.0000000000
40
1.0000000000
40
1.0000000000
10
146.5804021188
20
166.6391650035
30
0.0000000000
10
146.1252557206
20
166.9019438990
30
0.0000000000
10
145.2313423816
20
167.3854301520
30
0.0000000000
10
143.8829876179
20
168.0011821005
30
0.0000000000
10
142.5624061879
20
168.4839553319
30
0.0000000000
10
141.2534502114
20
168.8341113399
30
0.0000000000
10
140.2782442136
20
168.9934324985
30
0.0000000000
10
139.7428085411
20
169.0449444429
30
0.0000000000
10
139.6440453155
20
169.0532271033
30
0.0000000000
11
146.5804021188
21
166.6391650035
31
0.0000000000
11
145.1918091102
21
167.3859637597
31
0.0000000000
11
143.8532350400
21
167.9932490085
31
0.0000000000
11
142.5403640763
21
168.4695280262
31
0.0000000000
11
141.2385217525
21
168.8147230227
31
0.0000000000
11
139.9399935879
21
169.0247623079
31
0.0000000000
11
139.6440453155
21
169.0532271033
31
0.0000000000
0
SPLINE
5
46A
100
AcDbEntity
8
0
100
AcDbSpline
62
7
6
CONTINUOUS
70
0
71
3
72
8
73
4
74
2
42
0.0000001000
43
0.0000001000
44
0.0000000001
40
0.0000000000
40
0.0000000000
40
0.0000000000
40
0.0000000000
40
1.0000000000
40
1.0000000000
40
1.0000000000
40
1.0000000000
10
139.6440453155
20
169.0532271033
30
0.0000000000
10
139.3106784268
20
169.0811845211
30
0.0000000000
10
138.9761506341
20
169.0953659341
30
0.0000000000
10
138.6418359191
20
169.0953659341
30
0.0000000000
11
139.6440453155
21
169.0532271033
31
0.0000000000
11
138.6418359191
21
169.0953659341
31
0.0000000000
0
SPLINE
5
46B
100
AcDbEntity
8
0
100
AcDbSpline
62
7
6
CONTINUOUS
70
0
71
3
72
13
73
9
74
7
42
0.0000001000
43
0.0000001000
44
0.0000000001
40
0.0000000000
40
0.0000000000
40
0.0000000000
40
0.0000000000
40
0.1546987450
40
0.3112148679
40
0.4714540044
40
0.6375943500
40
0.8124277172
40
1.0000000000
40
1.0000000000
40
1.0000000000
40
1.0000000000
10
138.6418359191
20
169.0953659341
30
0.0000000000
10
138.2083974448
20
169.0953659342
30
0.0000000000
10
137.3357078580
20
169.0474104596
30
0.0000000000
10
136.0298471113
20
168.8340340064
30
0.0000000000
10
134.7208589605
20
168.4838247189
30
0.0000000000
10
133.4004106391
20
168.0010625088
30
0.0000000000
10
132.0522077534
20
167.3853647243
30
0.0000000000
10
131.1584044330
20
166.9019371548
30
0.0000000000
10
130.7032697161
20
166.6391650035
30
0.0000000000
11
138.6418359191
21
169.0953659341
31
0.0000000000
11
137.3434401102
21
169.0247364595
31
0.0000000000
11
136.0447340379
21
168.8146338668
31
0.0000000000
11
134.7428501432
21
168.4693838806
31
0.0000000000
11
133.4300905379
21
167.9931073033
31
0.0000000000
11
132.0918264631
21
167.3859457525
31
0.0000000000
11
130.7032697161
21
166.6391650035
31
0.0000000000
0
SPLINE
5
46C
100
AcDbEntity
8
DEFAULT_2
100
AcDbSpline
62
8
6
HIDDEN
70
0
71
3
72
18
73
14
74
12
42
0.0000001000
43
0.0000001000
44
0.0000000001
40
0.0000000000
40
0.0000000000
40
0.0000000000
40
0.0000000000
40
0.0911735226
40
0.1822899629
40
0.2733639875
40
0.3641668148
40
0.4550354213
40
0.5457202950
40
0.6366054210
40
0.7273116014
40
0.8181746898
40
0.9090307945
40
1.0000000000
40
1.0000000000
40
1.0000000000
40
1.0000000000
10
316.3273546537
20
242.3453658363
30
0.0000000000
10
315.8198300804
20
242.3453658017
30
0.0000000000
10
314.8037105644
20
242.4150376704
30
0.0000000000
10
313.3097253946
20
242.7274675468
30
0.0000000000
10
311.8746276309
20
243.2420317154
30
0.0000000000
10
310.5255660547
20
243.9490344671
30
0.0000000000
10
309.2888274680
20
244.8343771236
30
0.0000000000
10
308.1859811730
20
245.8824168141
30
0.0000000000
10
307.2390297665
20
247.0720639069
30
0.0000000000
10
306.4647419408
20
248.3817511504
30
0.0000000000
10
305.8780644206
20
249.7854354953
30
0.0000000000
10
305.4892770402
20
251.2574599034
30
0.0000000000
10
305.3668432388
20
252.2659585046
30
0.0000000000
10
305.3403409285
20
252.7716517419
30
0.0000000000
11
316.3273546537
21
242.3453658363
31
0.0000000000
11
314.8083632075
21
242.4497483972
31
0.0000000000
11
313.3189850677
21
242.7613275827
31
0.0000000000
11
311.8873699723
21
243.2747980555
31
0.0000000000
11
310.5442879681
21
243.9787502992
31
0.0000000000
11
309.3104072205
21
244.8620899930
31
0.0000000000
11
308.2126151364
21
245.9053064264
31
0.0000000000
11
307.2673377610
21
247.0927569468
31
0.0000000000
11
306.4963803148
21
248.3966551142
31
0.0000000000
11
305.9111147229
21
249.7966319846
31
0.0000000000
11
305.5235969839
21
251.2635836324
31
0.0000000000
11
305.3403409285
21
252.7716517419
31
0.0000000000
0
SPLINE
5
46D
100
AcDbEntity
8
DEFAULT_2
100
AcDbSpline
62
8
6
HIDDEN
70
0
71
3
72
18
73
14
74
12
42
0.0000001000
43
0.0000001000
44
0.0000000001
40
0.0000000000
40
0.0000000000
40
0.0000000000
40
0.0000000000
40
0.0910901781
40
0.1821544000
40
0.2731914465
40
0.3639859930
40
0.4548613848
40
0.5455584500
40
0.6364527596
40
0.7271696166
40
0.8180558784
40
0.9089499145
40
1.0000000000
40
1.0000000000
40
1.0000000000
40
1.0000000000
10
327.7848801300
20
252.7716517439
30
0.0000000000
10
327.7583425763
20
252.2652860247
30
0.0000000000
10
327.6355942319
20
251.2549641179
30
0.0000000000
10
327.2455812460
20
249.7803352382
30
0.0000000000
10
326.6569940476
20
248.3745815097
30
0.0000000000
10
325.8808895886
20
247.0643188270
30
0.0000000000
10
324.9325571796
20
245.8751258490
30
0.0000000000
10
323.8286541794
20
244.8279687053
30
0.0000000000
10
322.5913101372
20
243.9439280024
30
0.0000000000
10
321.2428624576
20
243.2387596390
30
0.0000000000
10
319.8100487649
20
242.7260962467
30
0.0000000000
10
318.3188927412
20
242.4148110007
30
0.0000000000
10
317.3047038567
20
242.3453658017
30
0.0000000000
10
316.7978664046
20
242.3453658363
30
0.0000000000
11
327.7848801300
21
252.7716517439
31
0.0000000000
11
327.6012423256
21
251.2615949547
31
0.0000000000
11
327.2123353743
21
249.7914156569
31
0.0000000000
11
326.6250620127
21
248.3891297749
31
0.0000000000
11
325.8522648328
21
247.0846056524
31
0.0000000000
11
324.9060251813
21
245.8981297125
31
0.0000000000
11
323.8071481583
21
244.8557603066
31
0.0000000000
11
322.5720993450
21
243.9733159483
31
0.0000000000
11
321.2296705094
21
243.2712113701
31
0.0000000000
11
319.8006642807
21
242.7597557699
31
0.0000000000
11
318.3148110442
21
242.4494657190
31
0.0000000000
11
316.7978664046
21
242.3453658363
31
0.0000000000
0
SPLINE
5
46E
100
AcDbEntity
8
0
100
AcDbSpline
62
7
6
CONTINUOUS
70
0
71
3
72
8
73
4
74
2
42
0.0000001000
43
0.0000001000
44
0.0000000001
40
0.0000000000
40
0.0000000000
40
0.0000000000
40
0.0000000000
40
1.0000000000
40
1.0000000000
40
1.0000000000
40
1.0000000000
10
325.1522814279
20
164.4941064374
30
0.0000000000
10
325.1522804136
20
164.5075527592
30
0.0000000000
10
325.1521666640
20
164.5210006710
30
0.0000000000
10
325.1519401896
20
164.5344479325
30
0.0000000000
11
325.1522814279
21
164.4941064374
31
0.0000000000
11
325.1519401896
21
164.5344479325
31
0.0000000000
0
SPLINE
5
46F
100
AcDbEntity
8
0
100
AcDbSpline
62
7
6
CONTINUOUS
70
0
71
3
72
11
73
7
74
5
42
0.0000001000
43
0.0000001000
44
0.0000000001
40
0.0000000000
40
0.0000000000
40
0.0000000000
40
0.0000000000
40
0.1503078173
40
0.4362680633
40
0.7222002663
40
1.0000000000
40
1.0000000000
40
1.0000000000
40
1.0000000000
10
325.1519401896
20
164.5344479325
30
0.0000000000
10
325.1505780965
20
164.6153242854
30
0.0000000000
10
325.1347896609
20
164.8499994382
30
0.0000000000
10
325.0518201779
20
165.2313576305
30
0.0000000000
10
324.8703545831
20
165.6531547639
30
0.0000000000
10
324.6991449476
20
165.9055134491
30
0.0000000000
10
324.6042122525
20
166.0206870035
30
0.0000000000
11
325.1519401896
21
164.5344479325
31
0.0000000000
11
325.1356236380
21
164.7765191132
31
0.0000000000
11
325.0377067055
21
165.2268484998
31
0.0000000000
11
324.8555447062
21
165.6501210300
31
0.0000000000
11
324.6042122525
21
166.0206870035
31
0.0000000000
0
SPLINE
5
470
100
AcDbEntity
8
0
100
AcDbSpline
62
7
6
CONTINUOUS
70
0
71
3
72
8
73
4
74
2
42
0.0000001000
43
0.0000001000
44
0.0000000001
40
0.0000000000
40
0.0000000000
40
0.0000000000
40
0.0000000000
40
1.0000000000
40
1.0000000000
40
1.0000000000
40
1.0000000000
10
324.6042122525
20
166.0206870035
30
0.0000000000
10
324.6014426332
20
166.0240471409
30
0.0000000000
10
324.5986640233
20
166.0273994600
30
0.0000000000
10
324.5958764669
20
166.0307438985
30
0.0000000000
11
324.6042122525
21
166.0206870035
31
0.0000000000
11
324.5958764669
21
166.0307438985
31
0.0000000000
0
SPLINE
5
471
100
AcDbEntity
8
0
100
AcDbSpline
62
7
6
CONTINUOUS
70
0
71
3
72
11
73
7
74
5
42
0.0000001000
43
0.0000001000
44
0.0000000001
40
0.0000000000
40
0.0000000000
40
0.0000000000
40
0.0000000000
40
0.1220664934
40
0.4220873860
40
0.7936475711
40
1.0000000000
40
1.0000000000
40
1.0000000000
40
1.0000000000
10
326.2806563368
20
133.9571433861
30
0.0000000000
10
326.2592861522
20
134.0456865173
30
0.0000000000
10
326.1837826358
20
134.3648784033
30
0.0000000000
10
326.0740234790
20
134.9280187077
30
0.0000000000
10
325.9641557890
20
135.5713946543
30
0.0000000000
10
325.9003372701
20
135.9936996510
30
0.0000000000
10
325.8784534892
20
136.1444896378
30
0.0000000000
11
326.2806563368
21
133.9571433861
31
0.0000000000
11
326.2170480125
21
134.2286580711
31
0.0000000000
11
326.0856801400
21
134.8803762425
31
0.0000000000
11
325.9469961605
21
135.6919650501
31
0.0000000000
11
325.8784534892
21
136.1444896378
31
0.0000000000
0
SPLINE
5
472
100
AcDbEntity
8
0
100
AcDbSpline
62
7
6
CONTINUOUS
70
0
71
3
72
8
73
4
74
2
42
0.0000001000
43
0.0000001000
44
0.0000000001
40
0.0000000000
40
0.0000000000
40
0.0000000000
40
0.0000000000
40
1.0000000000
40
1.0000000000
40
1.0000000000
40
1.0000000000
10
327.8126027007
20
129.1953439474
30
0.0000000000
10
327.8125869288
20
129.4142152150
30
0.0000000000
10
327.8037928103
20
129.6332691646
30
0.0000000000
10
327.7862629573
20
129.8516751854
30
0.0000000000
11
327.8126027007
21
129.1953439474
31
0.0000000000
11
327.7862629573
21
129.8516751854
31
0.0000000000
0
SPLINE
5
473
100
AcDbEntity
8
0
100
AcDbSpline
62
7
6
CONTINUOUS
70
0
71
3
72
8
73
4
74
2
42
0.0000001000
43
0.0000001000
44
0.0000000001
40
0.0000000000
40
0.0000000000
40
0.0000000000
40
0.0000000000
40
1.0000000000
40
1.0000000000
40
1.0000000000
40
1.0000000000
10
327.7862629573
20
129.8516751854
30
0.0000000000
10
327.7853997963
20
129.8624293863
30
0.0000000000
10
327.7845154552
20
129.8731820164
30
0.0000000000
10
327.7836099393
20
129.8839329763
30
0.0000000000
11
327.7862629573
21
129.8516751854
31
0.0000000000
11
327.7836099393
21
129.8839329763
31
0.0000000000
0
SPLINE
5
474
100
AcDbEntity
8
0
100
AcDbSpline
62
7
6
CONTINUOUS
70
0
71
3
72
11
73
7
74
5
42
0.0000001000
43
0.0000001000
44
0.0000000001
40
0.0000000000
40
0.0000000000
40
0.0000000000
40
0.0000000000
40
0.1412325693
40
0.5076536688
40
0.8740804984
40
1.0000000000
40
1.0000000000
40
1.0000000000
40
1.0000000000
10
327.7836099393
20
129.8839329763
30
0.0000000000
10
327.7684014999
20
130.0644988929
30
0.0000000000
10
327.6922655035
20
130.7118410310
30
0.0000000000
10
327.4288337412
20
131.8055068466
30
0.0000000000
10
326.9899775243
20
132.8202350607
30
0.0000000000
10
326.6740204471
20
133.3672828455
30
0.0000000000
10
326.5891577110
20
133.5046873278
30
0.0000000000
11
327.7836099393
21
129.8839329763
31
0.0000000000
11
327.7200894447
21
130.4237476303
31
0.0000000000
11
327.3904259030
21
131.7927467453
31
0.0000000000
11
326.8314256214
21
133.0851930030
31
0.0000000000
11
326.5891577110
21
133.5046873278
31
0.0000000000
0
SPLINE
5
475
100
AcDbEntity
8
0
100
AcDbSpline
62
7
6
CONTINUOUS
70
0
71
3
72
8
73
4
74
2
42
0.0000001000
43
0.0000001000
44
0.0000000001
40
0.0000000000
40
0.0000000000
40
0.0000000000
40
0.0000000000
40
1.0000000000
40
1.0000000000
40
1.0000000000
40
1.0000000000
10
326.5890581590
20
133.5048485121
30
0.0000000000
10
326.4930490237
20
133.6602925270
30
0.0000000000
10
326.3918495692
20
133.8125302372
30
0.0000000000
10
326.2856825802
20
133.9612220922
30
0.0000000000
11
326.5890581590
21
133.5048485121
31
0.0000000000
11
326.2856825802
21
133.9612220922
31
0.0000000000
0
SPLINE
5
476
100
AcDbEntity
8
0
100
AcDbSpline
62
7
6
CONTINUOUS
70
0
71
3
72
8
73
4
74
2
42
0.0000001000
43
0.0000001000
44
0.0000000001
40
0.0000000000
40
0.0000000000
40
0.0000000000
40
0.0000000000
40
1.0000000000
40
1.0000000000
40
1.0000000000
40
1.0000000000
10
327.8127043717
20
253.6013849845
30
0.0000000000
10
327.8127018982
20
253.6061781463
30
0.0000000000
10
327.8126970144
20
253.6110042078
30
0.0000000000
10
327.8126892133
20
253.6159217676
30
0.0000000000
11
327.8127043717
21
253.6013849845
31
0.0000000000
11
327.8126892133
21
253.6159217676
31
0.0000000000
0
SPLINE
5
477
100
AcDbEntity
8
0
100
AcDbSpline
62
7
6
CONTINUOUS
70
0
71
3
72
10
73
6
74
4
42
0.0000001000
43
0.0000001000
44
0.0000000001
40
0.0000000000
40
0.0000000000
40
0.0000000000
40
0.0000000000
40
0.0569612195
40
0.8236430009
40
1.0000000000
40
1.0000000000
40
1.0000000000
40
1.0000000000
10
327.8126892133
20
253.6159217676
30
0.0000000000
10
327.8126878559
20
253.6167774249
30
0.0000000000
10
327.8126669513
20
253.6291900421
30
0.0000000000
10
327.8126184725
20
253.6450420167
30
0.0000000000
10
327.8125743261
20
253.6569203709
30
0.0000000000
10
327.8125651947
20
253.6591670812
30
0.0000000000
11
327.8126892133
21
253.6159217676
31
0.0000000000
11
327.8126848735
21
253.6184973589
31
0.0000000000
11
327.8125908926
21
253.6523702571
31
0.0000000000
11
327.8125651947
21
253.6591670812
31
0.0000000000
0
SPLINE
5
478
100
AcDbEntity
8
0
100
AcDbSpline
62
7
6
CONTINUOUS
70
0
71
3
72
9
73
5
74
3
42
0.0000001000
43
0.0000001000
44
0.0000000001
40
0.0000000000
40
0.0000000000
40
0.0000000000
40
0.0000000000
40
0.3602142949
40
1.0000000000
40
1.0000000000
40
1.0000000000
40
1.0000000000
10
327.8125190132
20
253.6691411749
30
0.0000000000
10
327.8124981273
20
253.6731550620
30
0.0000000000
10
327.8124254797
20
253.6857208409
30
0.0000000000
10
327.8122850884
20
253.7060920682
30
0.0000000000
10
327.8122911645
20
253.7047571511
30
0.0000000000
11
327.8125190132
21
253.6691411749
31
0.0000000000
11
327.8124369999
21
253.6832205992
31
0.0000000000
11
327.8122911645
21
253.7047571511
31
0.0000000000
0
SPLINE
5
479
100
AcDbEntity
8
0
100
AcDbSpline
62
7
6
CONTINUOUS
70
0
71
3
72
8
73
4
74
2
42
0.0000001000
43
0.0000001000
44
0.0000000001
40
0.0000000000
40
0.0000000000
40
0.0000000000
40
0.0000000000
40
1.0000000000
40
1.0000000000
40
1.0000000000
40
1.0000000000
10
327.8126247003
20
253.6785225295
30
0.0000000000
10
327.8125532689
20
253.7059381897
30
0.0000000000
10
327.8123405184
20
253.7239846446
30
0.0000000000
10
327.8120550336
20
253.7458729972
30
0.0000000000
11
327.8126247003
21
253.6785225295
31
0.0000000000
11
327.8120550336
21
253.7458729972
31
0.0000000000
0
SPLINE
5
47A
100
AcDbEntity
8
0
100
AcDbSpline
62
7
6
CONTINUOUS
70
0
71
3
72
8
73
4
74
2
42
0.0000001000
43
0.0000001000
44
0.0000000001
40
0.0000000000
40
0.0000000000
40
0.0000000000
40
0.0000000000
40
1.0000000000
40
1.0000000000
40
1.0000000000
40
1.0000000000
10
327.8120550336
20
253.7458729972
30
0.0000000000
10
327.8117786276
20
253.7670652753
30
0.0000000000
10
327.8114340399
20
253.7918589830
30
0.0000000000
10
327.8110097656
20
253.8180975875
30
0.0000000000
11
327.8120550336
21
253.7458729972
31
0.0000000000
11
327.8110097656
21
253.8180975875
31
0.0000000000
0
SPLINE
5
47B
100
AcDbEntity
8
0
100
AcDbSpline
62
7
6
CONTINUOUS
70
0
71
3
72
8
73
4
74
2
42
0.0000001000
43
0.0000001000
44
0.0000000001
40
0.0000000000
40
0.0000000000
40
0.0000000000
40
0.0000000000
40
1.0000000000
40
1.0000000000
40
1.0000000000
40
1.0000000000
10
316.6309618871
20
264.8451598976
30
0.0000000000
10
316.6082173519
20
264.8452969889
30
0.0000000000
10
316.5854725989
20
264.8453655512
30
0.0000000000
10
316.5627281176
20
264.8453655886
30
0.0000000000
11
316.6309618871
21
264.8451598976
31
0.0000000000
11
316.5627281176
21
264.8453655886
31
0.0000000000
0
SPLINE
5
47C
100
AcDbEntity
8
0
100
AcDbSpline
62
7
6
CONTINUOUS
70
0
71
3
72
8
73
4
74
2
42
0.0000001000
43
0.0000001000
44
0.0000000001
40
0.0000000000
40
0.0000000000
40
0.0000000000
40
0.0000000000
40
1.0000000000
40
1.0000000000
40
1.0000000000
40
1.0000000000
10
327.8126272635
20
253.6102071632
30
0.0000000000
10
327.8126249400
20
253.6117887936
30
0.0000000000
10
327.8126223665
20
253.6134106540
30
0.0000000000
10
327.8126196072
20
253.6150499329
30
0.0000000000
11
327.8126272635
21
253.6102071632
31
0.0000000000
11
327.8126196072
21
253.6150499329
31
0.0000000000
0
SPLINE
5
47D
100
AcDbEntity
8
0
100
AcDbSpline
62
7
6
CONTINUOUS
70
0
71
3
72
8
73
4
74
2
42
0.0000001000
43
0.0000001000
44
0.0000000001
40
0.0000000000
40
0.0000000000
40
0.0000000000
40
0.0000000000
40
1.0000000000
40
1.0000000000
40
1.0000000000
40
1.0000000000
10
327.8126196072
20
253.6150499329
30
0.0000000000
10
327.8126170684
20
253.6165582126
30
0.0000000000
10
327.8126143723
20
253.6180812380
30
0.0000000000
10
327.8126115689
20
253.6196012412
30
0.0000000000
11
327.8126196072
21
253.6150499329
31
0.0000000000
11
327.8126115689
21
253.6196012412
31
0.0000000000
0
SPLINE
5
47E
100
AcDbEntity
8
0
100
AcDbSpline
62
7
6
CONTINUOUS
70
0
71
3
72
8
73
4
74
2
42
0.0000001000
43
0.0000001000
44
0.0000000001
40
0.0000000000
40
0.0000000000
40
0.0000000000
40
0.0000000000
40
1.0000000000
40
1.0000000000
40
1.0000000000
40
1.0000000000
10
327.8126115689
20
253.6196012412
30
0.0000000000
10
327.8126019217
20
253.6248320793
30
0.0000000000
10
327.8125910039
20
253.6300271247
30
0.0000000000
10
327.8125808532
20
253.6344622384
30
0.0000000000
11
327.8126115689
21
253.6196012412
31
0.0000000000
11
327.8125808532
21
253.6344622384
31
0.0000000000
0
SPLINE
5
47F
100
AcDbEntity
8
0
100
AcDbSpline
62
7
6
CONTINUOUS
70
0
71
3
72
11
73
7
74
5
42
0.0000001000
43
0.0000001000
44
0.0000000001
40
0.0000000000
40
0.0000000000
40
0.0000000000
40
0.0000000000
40
0.2084724975
40
0.5798043938
40
0.8794761281
40
1.0000000000
40
1.0000000000
40
1.0000000000
40
1.0000000000
10
307.2467713526
20
136.1445272535
30
0.0000000000
10
307.2246611871
20
135.9921718777
30
0.0000000000
10
307.1606066618
20
135.5684497410
30
0.0000000000
10
307.0504608412
20
134.9239393135
30
0.0000000000
10
306.9408100055
20
134.3620848498
30
0.0000000000
10
306.8657045991
20
134.0445860923
30
0.0000000000
10
306.8445767258
20
133.9570932818
30
0.0000000000
11
307.2467713526
21
136.1445272535
31
0.0000000000
11
307.1774920448
21
135.6873153353
31
0.0000000000
11
307.0387550014
21
134.8761503961
31
0.0000000000
11
306.9073992764
21
134.2251391999
31
0.0000000000
11
306.8445767258
21
133.9570932818
31
0.0000000000
0
SPLINE
5
480
100
AcDbEntity
8
0
100
AcDbSpline
62
7
6
CONTINUOUS
70
0
71
3
72
8
73
4
74
2
42
0.0000001000
43
0.0000001000
44
0.0000000001
40
0.0000000000
40
0.0000000000
40
0.0000000000
40
0.0000000000
40
1.0000000000
40
1.0000000000
40
1.0000000000
40
1.0000000000
10
306.8394934102
20
133.9611592914
30
0.0000000000
10
306.7343395966
20
133.8138833887
30
0.0000000000
10
306.6340593104
20
133.6631288367
30
0.0000000000
10
306.5388687073
20
133.5092257840
30
0.0000000000
11
306.8394934102
21
133.9611592914
31
0.0000000000
11
306.5388687073
21
133.5092257840
31
0.0000000000
0
SPLINE
5
481
100
AcDbEntity
8
0
100
AcDbSpline
62
7
6
CONTINUOUS
70
0
71
3
72
11
73
7
74
5
42
0.0000001000
43
0.0000001000
44
0.0000000001
40
0.0000000000
40
0.0000000000
40
0.0000000000
40
0.0000000000
40
0.1299552498
40
0.4977615426
40
0.8655638894
40
1.0000000000
40
1.0000000000
40
1.0000000000
40
1.0000000000
10
306.5388687073
20
133.5092257840
30
0.0000000000
10
306.4513822394
20
133.3677786869
30
0.0000000000
10
306.1327537952
20
132.8158139587
30
0.0000000000
10
305.6926450832
20
131.7946870999
30
0.0000000000
10
305.4326488831
20
130.7079972973
30
0.0000000000
10
305.3574927309
20
130.0689757173
30
0.0000000000
10
305.3427638623
20
129.8974889726
30
0.0000000000
11
306.5388687073
21
133.5092257840
31
0.0000000000
11
306.2894746114
21
133.0771623415
31
0.0000000000
11
305.7311956168
21
131.7819415530
31
0.0000000000
11
305.4030959589
21
130.4102344937
31
0.0000000000
11
305.3427638623
21
129.8974889726
31
0.0000000000
0
SPLINE
5
482
100
AcDbEntity
8
0
100
AcDbSpline
62
7
6
CONTINUOUS
70
0
71
3
72
8
73
4
74
2
42
0.0000001000
43
0.0000001000
44
0.0000000001
40
0.0000000000
40
0.0000000000
40
0.0000000000
40
0.0000000000
40
1.0000000000
40
1.0000000000
40
1.0000000000
40
1.0000000000
10
305.3427638623
20
129.8974889726
30
0.0000000000
10
305.3412683646
20
129.8800770423
30
0.0000000000
10
305.3398284187
20
129.8626606030
30
0.0000000000
10
305.3384440455
20
129.8452400761
30
0.0000000000
11
305.3427638623
21
129.8974889726
31
0.0000000000
11
305.3384440455
21
129.8452400761
31
0.0000000000
0
SPLINE
5
483
100
AcDbEntity
8
0
100
AcDbSpline
62
7
6
CONTINUOUS
70
0
71
3
72
8
73
4
74
2
42
0.0000001000
43
0.0000001000
44
0.0000000001
40
0.0000000000
40
0.0000000000
40
0.0000000000
40
0.0000000000
40
1.0000000000
40
1.0000000000
40
1.0000000000
40
1.0000000000
10
305.3384440455
20
129.8452400761
30
0.0000000000
10
305.3212574474
20
129.6289692179
30
0.0000000000
10
305.3126359909
20
129.4120683672
30
0.0000000000
10
305.3126195683
20
129.1953439182
30
0.0000000000
11
305.3384440455
21
129.8452400761
31
0.0000000000
11
305.3126195683
21
129.1953439182
31
0.0000000000
0
SPLINE
5
484
100
AcDbEntity
8
0
100
AcDbSpline
62
7
6
CONTINUOUS
70
0
71
3
72
11
73
7
74
5
42
0.0000001000
43
0.0000001000
44
0.0000000001
40
0.0000000000
40
0.0000000000
40
0.0000000000
40
0.0000000000
40
0.0511179684
40
0.2123848217
40
0.7281554996
40
1.0000000000
40
1.0000000000
40
1.0000000000
40
1.0000000000
10
305.3129324307
20
253.7046276614
30
0.0000000000
10
305.3129318174
20
253.7046275680
30
0.0000000000
10
305.3129241529
20
253.7038708150
30
0.0000000000
10
305.3128137606
20
253.6889589249
30
0.0000000000
10
305.3127397552
20
253.6762422483
30
0.0000000000
10
305.3126814132
20
253.6641107027
30
0.0000000000
10
305.3126624585
20
253.6598384270
30
0.0000000000
11
305.3129324307
21
253.7046276614
31
0.0000000000
11
305.3129267067
21
253.7040551669
31
0.0000000000
11
305.3128703330
21
253.6964906634
31
0.0000000000
11
305.3127220542
21
253.6722973212
31
0.0000000000
11
305.3126624585
21
253.6598384270
31
0.0000000000
0
SPLINE
5
485
100
AcDbEntity
8
0
100
AcDbSpline
62
7
6
CONTINUOUS
70
0
71
3
72
8
73
4
74
2
42
0.0000001000
43
0.0000001000
44
0.0000000001
40
0.0000000000
40
0.0000000000
40
0.0000000000
40
0.0000000000
40
1.0000000000
40
1.0000000000
40
1.0000000000
40
1.0000000000
10
305.3125324910
20
253.6162294568
30
0.0000000000
10
305.3125304735
20
253.6148471815
30
0.0000000000
10
305.3125286409
20
253.6134643577
30
0.0000000000
10
305.3125269842
20
253.6120800707
30
0.0000000000
11
305.3125324910
21
253.6162294568
31
0.0000000000
11
305.3125269842
21
253.6120800707
31
0.0000000000
0
SPLINE
5
486
100
AcDbEntity
8
0
100
AcDbSpline
62
7
6
CONTINUOUS
70
0
71
3
72
8
73
4
74
2
42
0.0000001000
43
0.0000001000
44
0.0000000001
40
0.0000000000
40
0.0000000000
40
0.0000000000
40
0.0000000000
40
1.0000000000
40
1.0000000000
40
1.0000000000
40
1.0000000000
10
305.3125269842
20
253.6120800707
30
0.0000000000
10
305.3125227350
20
253.6085296077
30
0.0000000000
10
305.3125196437
20
253.6049695194
30
0.0000000000
10
305.3125177038
20
253.6014043947
30
0.0000000000
11
305.3125269842
21
253.6120800707
31
0.0000000000
11
305.3125177038
21
253.6014043947
31
0.0000000000
0
SPLINE
5
487
100
AcDbEntity
8
0
100
AcDbSpline
62
7
6
CONTINUOUS
70
0
71
3
72
8
73
4
74
2
42
0.0000001000
43
0.0000001000
44
0.0000000001
40
0.0000000000
40
0.0000000000
40
0.0000000000
40
0.0000000000
40
1.0000000000
40
1.0000000000
40
1.0000000000
40
1.0000000000
10
305.3126469507
20
253.6369707545
30
0.0000000000
10
305.3126417880
20
253.6351603043
30
0.0000000000
10
305.3126365913
20
253.6332962857
30
0.0000000000
10
305.3126316325
20
253.6314590900
30
0.0000000000
11
305.3126469507
21
253.6369707545
31
0.0000000000
11
305.3126316325
21
253.6314590900
31
0.0000000000
0
SPLINE
5
488
100
AcDbEntity
8
0
100
AcDbSpline
62
7
6
CONTINUOUS
70
0
71
3
72
9
73
5
74
3
42
0.0000001000
43
0.0000001000
44
0.0000000001
40
0.0000000000
40
0.0000000000
40
0.0000000000
40
0.0000000000
40
0.4486307685
40
1.0000000000
40
1.0000000000
40
1.0000000000
40
1.0000000000
10
305.3126316325
20
253.6314590900
30
0.0000000000
10
305.3126277912
20
253.6300359481
30
0.0000000000
10
305.3126195472
20
253.6268996342
30
0.0000000000
10
305.3126126402
20
253.6240289438
30
0.0000000000
10
305.3126092089
20
253.6225176806
30
0.0000000000
11
305.3126316325
21
253.6314590900
31
0.0000000000
11
305.3126206633
21
253.6272753162
31
0.0000000000
11
305.3126092089
21
253.6225176806
31
0.0000000000
0
SPLINE
5
489
100
AcDbEntity
8
0
100
AcDbSpline
62
7
6
CONTINUOUS
70
0
71
3
72
15
73
11
74
9
42
0.0000001000
43
0.0000001000
44
0.0000000001
40
0.0000000000
40
0.0000000000
40
0.0000000000
40
0.0000000000
40
0.1110598288
40
0.2969175062
40
0.4602094189
40
0.6196736948
40
0.7533258264
40
0.8223281239
40
0.9771615337
40
1.0000000000
40
1.0000000000
40
1.0000000000
40
1.0000000000
10
305.3125988253
20
253.6209335201
30
0.0000000000
10
305.3126121347
20
253.6144551031
30
0.0000000000
10
305.3126674476
20
253.5954694897
30
0.0000000000
10
305.3128474531
20
253.5567415893
30
0.0000000000
10
305.3126539838
20
253.5989506172
30
0.0000000000
10
305.3126457408
20
253.6188210363
30
0.0000000000
10
305.3126450481
20
253.6350759050
30
0.0000000000
10
305.3127175518
20
253.6602232291
30
0.0000000000
10
305.3126422671
20
253.6363424188
30
0.0000000000
10
305.3126126402
20
253.6240289438
30
0.0000000000
10
305.3126092089
20
253.6225176806
30
0.0000000000
11
305.3125988253
21
253.6209335201
31
0.0000000000
11
305.3126620231
21
253.5994126802
31
0.0000000000
11
305.3127799488
21
253.5713787070
31
0.0000000000
11
305.3126824610
21
253.5960089822
31
0.0000000000
11
305.3126466755
21
253.6200620744
31
0.0000000000
11
305.3126629701
21
253.6402217592
31
0.0000000000
11
305.3126893378
21
253.6506298279
31
0.0000000000
11
305.3126206633
21
253.6272753162
31
0.0000000000
11
305.3126092089
21
253.6225176806
31
0.0000000000
0
SPLINE
5
48A
100
AcDbEntity
8
0
100
AcDbSpline
62
7
6
CONTINUOUS
70
0
71
3
72
15
73
11
74
9
42
0.0000001000
43
0.0000001000
44
0.0000000001
40
0.0000000000
40
0.0000000000
40
0.0000000000
40
0.0000000000
40
0.1064431801
40
0.2845749352
40
0.4410789624
40
0.5939144639
40
0.7220108067
40
0.7881447461
40
0.9365418821
40
1.0000000000
40
1.0000000000
40
1.0000000000
40
1.0000000000
10
305.3125988253
20
253.6209335201
30
0.0000000000
10
305.3126121347
20
253.6144551031
30
0.0000000000
10
305.3126674476
20
253.5954694897
30
0.0000000000
10
305.3128474531
20
253.5567415893
30
0.0000000000
10
305.3126539838
20
253.5989506172
30
0.0000000000
10
305.3126457408
20
253.6188210363
30
0.0000000000
10
305.3126450481
20
253.6350759050
30
0.0000000000
10
305.3127175518
20
253.6602232291
30
0.0000000000
10
305.3126290300
20
253.6321435301
30
0.0000000000
10
305.3125996414
20
253.6183084233
30
0.0000000000
10
305.3125935388
20
253.6146187330
30
0.0000000000
11
305.3125988253
21
253.6209335201
31
0.0000000000
11
305.3126620231
21
253.5994126802
31
0.0000000000
11
305.3127799488
21
253.5713787070
31
0.0000000000
11
305.3126824610
21
253.5960089822
31
0.0000000000
11
305.3126466755
21
253.6200620744
31
0.0000000000
11
305.3126629701
21
253.6402217592
31
0.0000000000
11
305.3126893378
21
253.6506298279
31
0.0000000000
11
305.3126206633
21
253.6272753162
31
0.0000000000
11
305.3125935388
21
253.6146187330
31
0.0000000000
0
SPLINE
5
48B
100
AcDbEntity
8
0
100
AcDbSpline
62
7
6
CONTINUOUS
70
0
71
3
72
8
73
4
74
2
42
0.0000001000
43
0.0000001000
44
0.0000000001
40
0.0000000000
40
0.0000000000
40
0.0000000000
40
0.0000000000
40
1.0000000000
40
1.0000000000
40
1.0000000000
40
1.0000000000
10
305.3125935388
20
253.6146187330
30
0.0000000000
10
305.3125912857
20
253.6132564228
30
0.0000000000
10
305.3125894006
20
253.6119560598
30
0.0000000000
10
305.3125878476
20
253.6107063554
30
0.0000000000
11
305.3125935388
21
253.6146187330
31
0.0000000000
11
305.3125878476
21
253.6107063554
31
0.0000000000
0
SPLINE
5
48C
100
AcDbEntity
8
0
100
AcDbSpline
62
7
6
CONTINUOUS
70
0
71
3
72
8
73
4
74
2
42
0.0000001000
43
0.0000001000
44
0.0000000001
40
0.0000000000
40
0.0000000000
40
0.0000000000
40
0.0000000000
40
1.0000000000
40
1.0000000000
40
1.0000000000
40
1.0000000000
10
305.3125878476
20
253.6107063554
30
0.0000000000
10
305.3125815739
20
253.6056576711
30
0.0000000000
10
305.3125807204
20
253.6014357765
30
0.0000000000
10
305.3125829122
20
253.5972963601
30
0.0000000000
11
305.3125878476
21
253.6107063554
31
0.0000000000
11
305.3125829122
21
253.5972963601
31
0.0000000000
0
SPLINE
5
48D
100
AcDbEntity
8
0
100
AcDbSpline
62
7
6
CONTINUOUS
70
0
71
3
72
8
73
4
74
2
42
0.0000001000
43
0.0000001000
44
0.0000000001
40
0.0000000000
40
0.0000000000
40
0.0000000000
40
0.0000000000
40
1.0000000000
40
1.0000000000
40
1.0000000000
40
1.0000000000
10
316.5624928371
20
264.8453658048
30
0.0000000000
10
316.4890916628
20
264.8453657829
30
0.0000000000
10
316.4156889300
20
264.8446520585
30
0.0000000000
10
316.3423010819
20
264.8432244119
30
0.0000000000
11
316.5624928371
21
264.8453658048
31
0.0000000000
11
316.3423010819
21
264.8432244119
31
0.0000000000
0
SPLINE
5
48E
100
AcDbEntity
8
0
100
AcDbSpline
62
7
6
CONTINUOUS
70
0
71
3
72
8
73
4
74
2
42
0.0000001000
43
0.0000001000
44
0.0000000001
40
0.0000000000
40
0.0000000000
40
0.0000000000
40
0.0000000000
40
1.0000000000
40
1.0000000000
40
1.0000000000
40
1.0000000000
10
305.3137097406
20
253.7913879342
30
0.0000000000
10
305.3131931766
20
253.7523143935
30
0.0000000000
10
305.3128749817
20
253.7113235551
30
0.0000000000
10
305.3126997158
20
253.6787380811
30
0.0000000000
11
305.3137097406
21
253.7913879342
31
0.0000000000
11
305.3126997158
21
253.6787380811
31
0.0000000000
0
SPLINE
5
48F
100
AcDbEntity
8
0
100
AcDbSpline
62
7
6
CONTINUOUS
70
0
71
3
72
8
73
4
74
2
42
0.0000001000
43
0.0000001000
44
0.0000000001
40
0.0000000000
40
0.0000000000
40
0.0000000000
40
0.0000000000
40
1.0000000000
40
1.0000000000
40
1.0000000000
40
1.0000000000
10
305.3126997158
20
253.6787380811
30
0.0000000000
10
305.3126640002
20
253.6720978218
30
0.0000000000
10
305.3126342198
20
253.6658066051
30
0.0000000000
10
305.3126132819
20
253.6593071318
30
0.0000000000
11
305.3126997158
21
253.6787380811
31
0.0000000000
11
305.3126132819
21
253.6593071318
31
0.0000000000
0
SPLINE
5
490
100
AcDbEntity
8
0
100
AcDbSpline
62
7
6
CONTINUOUS
70
0
71
3
72
12
73
8
74
6
42
0.0000001000
43
0.0000001000
44
0.0000000001
40
0.0000000000
40
0.0000000000
40
0.0000000000
40
0.0000000000
40
0.2046528181
40
0.4051553874
40
0.5887955404
40
0.8334435892
40
1.0000000000
40
1.0000000000
40
1.0000000000
40
1.0000000000
10
324.5939239210
20
166.0330824638
30
0.0000000000
10
324.5939281318
20
166.0330859787
30
0.0000000000
10
324.5898030093
20
166.0380619468
30
0.0000000000
10
324.5870071466
20
166.0414795891
30
0.0000000000
10
324.5831585731
20
166.0462225739
30
0.0000000000
10
324.5797658741
20
166.0504719646
30
0.0000000000
10
324.5774007925
20
166.0534702557
30
0.0000000000
10
324.5764447089
20
166.0546881735
30
0.0000000000
11
324.5939239210
21
166.0330824638
31
0.0000000000
11
324.5903224016
21
166.0374433442
31
0.0000000000
11
324.5867834781
21
166.0417594102
31
0.0000000000
11
324.5835648197
21
166.0457309465
31
0.0000000000
11
324.5793134783
21
166.0510513387
31
0.0000000000
11
324.5764447089
21
166.0546881735
31
0.0000000000
0
SPLINE
5
491
100
AcDbEntity
8
0
100
AcDbSpline
62
7
6
CONTINUOUS
70
0
71
3
72
11
73
7
74
5
42
0.0000001000
43
0.0000001000
44
0.0000000001
40
0.0000000000
40
0.0000000000
40
0.0000000000
40
0.0000000000
40
0.1624838367
40
0.4416854330
40
0.7208574261
40
1.0000000000
40
1.0000000000
40
1.0000000000
40
1.0000000000
10
325.1522798579
20
164.4941064372
30
0.0000000000
10
325.1522742475
20
164.5844221680
30
0.0000000000
10
325.1384376002
20
164.8301119601
30
0.0000000000
10
325.0545259022
20
165.2237131820
30
0.0000000000
10
324.8708293013
20
165.6536922897
30
0.0000000000
10
324.6951272124
20
165.9116527598
30
0.0000000000
10
324.5959567304
20
166.0306475928
30
0.0000000000
11
325.1522798579
21
164.4941064372
31
0.0000000000
11
325.1370085875
21
164.7645752064
31
0.0000000000
11
325.0401526414
21
165.2191753061
31
0.0000000000
11
324.8575104038
21
165.6465373625
31
0.0000000000
11
324.5959567304
21
166.0306475928
31
0.0000000000
0
SPLINE
5
492
100
AcDbEntity
8
0
100
AcDbSpline
62
7
6
CONTINUOUS
70
0
71
3
72
21
73
17
74
15
42
0.0000001000
43
0.0000001000
44
0.0000000001
40
0.0000000000
40
0.0000000000
40
0.0000000000
40
0.0000000000
40
0.0031966493
40
0.0227756560
40
0.0554230920
40
0.0996593011
40
0.1544736647
40
0.2191472606
40
0.2931103534
40
0.3758357880
40
0.4667621370
40
0.5651932041
40
0.6703354206
40
0.7812893130
40
0.8970199464
40
1.0000000000
40
1.0000000000
40
1.0000000000
40
1.0000000000
10
326.4306113270
20
133.4099887501
30
0.0000000000
10
326.4256330434
20
133.4249719053
30
0.0000000000
10
326.3746023936
20
133.5739804224
30
0.0000000000
10
326.3214472086
20
133.7897217032
30
0.0000000000
10
326.1983529753
20
134.2906459839
30
0.0000000000
10
326.0747602172
20
134.9239393135
30
0.0000000000
10
325.9358530545
20
135.7367446858
30
0.0000000000
10
325.7987370602
20
136.6934097853
30
0.0000000000
10
325.6650592017
20
137.7937647789
30
0.0000000000
10
325.5402093083
20
139.0265221645
30
0.0000000000
10
325.4274074204
20
140.3835855573
30
0.0000000000
10
325.3299967403
20
141.8542139397
30
0.0000000000
10
325.2508534326
20
143.4263198782
30
0.0000000000
10
325.1926192856
20
145.0859638749
30
0.0000000000
10
325.1593051915
20
146.7354682527
30
0.0000000000
10
325.1522789915
20
147.8300074517
30
0.0000000000
10
325.1522806664
20
148.3453659341
30
0.0000000000
11
326.4306113270
21
133.4099887501
31
0.0000000000
11
326.4118833144
21
133.4656108465
31
0.0000000000
11
326.3316541146
21
133.7483953820
31
0.0000000000
11
326.2178217819
21
134.2251391999
31
0.0000000000
11
326.0864660570
21
134.8761503961
31
0.0000000000
11
325.9477290136
21
135.6873153353
31
0.0000000000
11
325.8084862334
21
136.6482425950
31
0.0000000000
11
325.6738307653
21
137.7504771032
31
0.0000000000
11
325.5478762896
21
138.9860545709
31
0.0000000000
11
325.4341784619
21
140.3464149007
31
0.0000000000
11
325.3359831005
21
141.8209227820
31
0.0000000000
11
325.2562104390
21
143.3974361546
31
0.0000000000
11
325.1975003260
21
145.0621839426
31
0.0000000000
11
325.1622378151
21
146.7993233882
31
0.0000000000
11
325.1522806664
21
148.3453659341
31
0.0000000000
0
SPLINE
5
493
100
AcDbEntity
8
0
100
AcDbSpline
62
7
6
CONTINUOUS
70
0
71
3
72
11
73
7
74
5
42
0.0000001000
43
0.0000001000
44
0.0000000001
40
0.0000000000
40
0.0000000000
40
0.0000000000
40
0.0000000000
40
0.2687155455
40
0.5799585030
40
0.8912047997
40
1.0000000000
40
1.0000000000
40
1.0000000000
40
1.0000000000
10
327.8126014901
20
129.1953439182
30
0.0000000000
10
327.8125707163
20
129.6014566821
30
0.0000000000
10
327.7472912987
20
130.4792912110
30
0.0000000000
10
327.4325759751
20
131.7946870999
30
0.0000000000
10
326.9931738634
20
132.8141745261
30
0.0000000000
10
326.6756174320
20
133.3646964097
30
0.0000000000
10
326.5891574810
20
133.5046871858
30
0.0000000000
11
327.8126014901
21
129.1953439182
31
0.0000000000
11
327.7221250995
21
130.4102344937
31
0.0000000000
11
327.3940254415
21
131.7819415530
31
0.0000000000
11
326.8357464469
21
133.0771623415
31
0.0000000000
11
326.5891574810
21
133.5046871858
31
0.0000000000
0
SPLINE
5
494
100
AcDbEntity
8
0
100
AcDbSpline
62
7
6
CONTINUOUS
70
0
71
3
72
8
73
4
74
2
42
0.0000001000
43
0.0000001000
44
0.0000000001
40
0.0000000000
40
0.0000000000
40
0.0000000000
40
0.0000000000
40
1.0000000000
40
1.0000000000
40
1.0000000000
40
1.0000000000
10
326.5891574810
20
133.5046871858
30
0.0000000000
10
326.4931188509
20
133.6601871856
30
0.0000000000
10
326.3918863724
20
133.8124788979
30
0.0000000000
10
326.2856827313
20
133.9612222001
30
0.0000000000
11
326.5891574810
21
133.5046871858
31
0.0000000000
11
326.2856827313
21
133.9612222001
31
0.0000000000
0
SPLINE
5
495
100
AcDbEntity
8
0
100
AcDbSpline
62
7
6
CONTINUOUS
70
0
71
3
72
9
73
5
74
3
42
0.0000001000
43
0.0000001000
44
0.0000000001
40
0.0000000000
40
0.0000000000
40
0.0000000000
40
0.0000000000
40
0.7249177238
40
1.0000000000
40
1.0000000000
40
1.0000000000
40
1.0000000000
10
327.7996002852
20
124.8601209228
30
0.0000000000
10
327.8041937243
20
124.9536577975
30
0.0000000000
10
327.8089230594
20
125.0827752280
30
0.0000000000
10
327.8112052967
20
125.2119470739
30
0.0000000000
10
327.8116420276
20
125.2474822061
30
0.0000000000
11
327.7996002852
21
124.8601209228
31
0.0000000000
11
327.8097645181
21
125.1408854207
31
0.0000000000
11
327.8116420276
21
125.2474822061
31
0.0000000000
0
SPLINE
5
496
100
AcDbEntity
8
0
100
AcDbSpline
62
7
6
CONTINUOUS
70
0
71
3
72
12
73
8
74
6
42
0.0000001000
43
0.0000001000
44
0.0000000001
40
0.0000000000
40
0.0000000000
40
0.0000000000
40
0.0000000000
40
0.1150126451
40
0.4223510153
40
0.7143243458
40
0.9495171810
40
1.0000000000
40
1.0000000000
40
1.0000000000
40
1.0000000000
10
327.8127031737
20
253.6014027711
30
0.0000000000
10
327.8127010537
20
253.6052925096
30
0.0000000000
10
327.8126884150
20
253.6195291502
30
0.0000000000
10
327.8126379280
20
253.6430064206
30
0.0000000000
10
327.8124934336
20
253.6740393139
30
0.0000000000
10
327.8124195839
20
253.6871456513
30
0.0000000000
10
327.8123042547
20
253.7029581243
30
0.0000000000
10
327.8122880711
20
253.7051563968
30
0.0000000000
11
327.8127031737
21
253.6014027711
31
0.0000000000
11
327.8126928939
21
253.6130198588
31
0.0000000000
11
327.8126206915
21
253.6441924118
31
0.0000000000
11
327.8124909283
21
253.6738063229
31
0.0000000000
11
327.8123425543
21
253.6976609395
31
0.0000000000
11
327.8122880711
21
253.7051563968
31
0.0000000000
0
SPLINE
5
497
100
AcDbEntity
8
0
100
AcDbSpline
62
7
6
CONTINUOUS
70
0
71
3
72
8
73
4
74
2
42
0.0000001000
43
0.0000001000
44
0.0000000001
40
0.0000000000
40
0.0000000000
40
0.0000000000
40
0.0000000000
40
1.0000000000
40
1.0000000000
40
1.0000000000
40
1.0000000000
10
327.8126408419
20
253.6337189703
30
0.0000000000
10
327.8126490640
20
253.6464359737
30
0.0000000000
10
327.8126293394
20
253.6576632831
30
0.0000000000
10
327.8125874061
20
253.6685609473
30
0.0000000000
11
327.8126408419
21
253.6337189703
31
0.0000000000
11
327.8125874061
21
253.6685609473
31
0.0000000000
0
SPLINE
5
498
100
AcDbEntity
8
0
100
AcDbSpline
62
7
6
CONTINUOUS
70
0
71
3
72
8
73
4
74
2
42
0.0000001000
43
0.0000001000
44
0.0000000001
40
0.0000000000
40
0.0000000000
40
0.0000000000
40
0.0000000000
40
1.0000000000
40
1.0000000000
40
1.0000000000
40
1.0000000000
10
327.8125874061
20
253.6685609473
30
0.0000000000
10
327.8125535771
20
253.6773524496
30
0.0000000000
10
327.8125052943
20
253.6859294130
30
0.0000000000
10
327.8124455701
20
253.6949009047
30
0.0000000000
11
327.8125874061
21
253.6685609473
31
0.0000000000
11
327.8124455701
21
253.6949009047
31
0.0000000000
0
SPLINE
5
499
100
AcDbEntity
8
0
100
AcDbSpline
62
7
6
CONTINUOUS
70
0
71
3
72
8
73
4
74
2
42
0.0000001000
43
0.0000001000
44
0.0000000001
40
0.0000000000
40
0.0000000000
40
0.0000000000
40
0.0000000000
40
1.0000000000
40
1.0000000000
40
1.0000000000
40
1.0000000000
10
327.8124455701
20
253.6949009047
30
0.0000000000
10
327.8123112553
20
253.7150770799
30
0.0000000000
10
327.8121190744
20
253.7372486396
30
0.0000000000
10
327.8118628207
20
253.7602234844
30
0.0000000000
11
327.8124455701
21
253.6949009047
31
0.0000000000
11
327.8118628207
21
253.7602234844
31
0.0000000000
0
SPLINE
5
49A
100
AcDbEntity
8
0
100
AcDbSpline
62
7
6
CONTINUOUS
70
0
71
3
72
59
73
55
74
53
42
0.0000001000
43
0.0000001000
44
0.0000000001
40
0.0000000000
40
0.0000000000
40
0.0000000000
40
0.0000000000
40
0.0041513013
40
0.0145536191
40
0.0261312733
40
0.0383516615
40
0.0513208660
40
0.0649235574
40
0.0789244533
40
0.0930621331
40
0.1072245403
40
0.1215473202
40
0.1360561971
40
0.1507750459
40
0.1657273509
40
0.1809363018
40
0.1964248630
40
0.2122158167
40
0.2283317844
40
0.2447935462
40
0.2616095479
40
0.2787828737
40
0.2963165689
40
0.3142135183
40
0.3324750210
40
0.3511024604
40
0.3700963935
40
0.3894572753
40
0.4091855209
40
0.4292815012
40
0.4497455392
40
0.4705779050
40
0.4917788118
40
0.5133480520
40
0.5352821731
40
0.5575760169
40
0.5802243731
40
0.6032219919
40
0.6265635838
40
0.6502438192
40
0.6742573425
40
0.6985990043
40
0.7232633071
40
0.7482445562
40
0.7735370126
40
0.7991349021
40
0.8250324262
40
0.8512237773
40
0.8777031576
40
0.9044648016
40
0.9315030033
40
0.9588121446
40
0.9863867254
40
1.0000000000
40
1.0000000000
40
1.0000000000
40
1.0000000000
10
327.8118628207
20
253.7602234844
30
0.0000000000
10
327.8115891682
20
253.7847582534
30
0.0000000000
10
327.8103736337
20
253.8739837247
30
0.0000000000
10
327.8064118313
20
254.0223675555
30
0.0000000000
10
327.7978483930
20
254.2223772270
30
0.0000000000
10
327.7846672818
20
254.4353950747
30
0.0000000000
10
327.7663383751
20
254.6603520882
30
0.0000000000
10
327.7422941340
20
254.8950370070
30
0.0000000000
10
327.7123610057
20
255.1359354229
30
0.0000000000
10
327.6766731354
20
255.3793277466
30
0.0000000000
10
327.6353068340
20
255.6237214574
30
0.0000000000
10
327.5881117014
20
255.8692549491
30
0.0000000000
10
327.5347236993
20
256.1168287925
30
0.0000000000
10
327.4748520455
20
256.3666818563
30
0.0000000000
10
327.4081742177
20
256.6190193625
30
0.0000000000
10
327.3343344567
20
256.8740191478
30
0.0000000000
10
327.2529437132
20
257.1318302456
30
0.0000000000
10
327.1635796502
20
257.3925706846
30
0.0000000000
10
327.0657901833
20
257.6563155690
30
0.0000000000
10
326.9591213657
20
257.9230286216
30
0.0000000000
10
326.8431405496
20
258.1925353579
30
0.0000000000
10
326.7174473905
20
258.4645362950
30
0.0000000000
10
326.5816547882
20
258.7386738443
30
0.0000000000
10
326.4353832776
20
259.0145521084
30
0.0000000000
10
326.2782637646
20
259.2917372648
30
0.0000000000
10
326.1099426298
20
259.5697541857
30
0.0000000000
10
325.9300803725
20
259.8480938913
30
0.0000000000
10
325.7383547398
20
260.1262129325
30
0.0000000000
10
325.5344607357
20
260.4035371387
30
0.0000000000
10
325.3181127659
20
260.6794617771
30
0.0000000000
10
325.0890470819
20
260.9533515264
30
0.0000000000
10
324.8470243235
20
261.2245406013
30
0.0000000000
10
324.5918335889
20
261.4923315397
30
0.0000000000
10
324.3233086119
20
261.7559829986
30
0.0000000000
10
324.0413401816
20
262.0147068146
30
0.0000000000
10
323.7458808458
20
262.2676748735
30
0.0000000000
10
323.4369355614
20
262.5140360429
30
0.0000000000
10
323.1145569281
20
262.7529253659
30
0.0000000000
10
322.7788471429
20
262.9834667170
30
0.0000000000
10
322.4299597959
20
263.2047756552
30
0.0000000000
10
322.0681003204
20
263.4159631424
30
0.0000000000
10
321.6935289270
20
263.6161376293
30
0.0000000000
10
321.3065628579
20
263.8044080329
30
0.0000000000
10
320.9075789616
20
263.9798870086
30
0.0000000000
10
320.4970130195
20
264.1416957742
30
0.0000000000
10
320.0753593852
20
264.2889684499
30
0.0000000000
10
319.6431710502
20
264.4208560889
30
0.0000000000
10
319.2010593157
20
264.5365307686
30
0.0000000000
10
318.7496931984
20
264.6351897018
30
0.0000000000
10
318.2897980211
20
264.7160593128
30
0.0000000000
10
317.8221552612
20
264.7783992628
30
0.0000000000
10
317.3475958590
20
264.8215062491
30
0.0000000000
10
316.9496404495
20
264.8407273223
30
0.0000000000
10
316.7101279741
20
264.8446829341
30
0.0000000000
10
316.6309618880
20
264.8451600654
30
0.0000000000
11
327.8118628207
21
253.7602234844
31
0.0000000000
11
327.8108150980
21
253.8351242216
31
0.0000000000
11
327.8061037344
21
254.0165293286
31
0.0000000000
11
327.7974003931
21
254.2183114963
31
0.0000000000
11
327.7842599552
21
254.4310882644
31
0.0000000000
11
327.7658772580
21
254.6565853029
31
0.0000000000
11
327.7416956238
21
254.8926461048
31
0.0000000000
11
327.7115774661
21
255.1350247453
31
0.0000000000
11
327.6757980719
21
255.3790445116
31
0.0000000000
11
327.6345668645
21
255.6226399928
31
0.0000000000
11
327.5874040008
21
255.8680063461
31
0.0000000000
11
327.5340499311
21
256.1154233108
31
0.0000000000
11
327.4742154738
21
256.3651216619
31
0.0000000000
11
327.4075782594
21
256.6173059488
31
0.0000000000
11
327.3337826899
21
256.8721535938
31
0.0000000000
11
327.2524398747
21
257.1298133378
31
0.0000000000
11
327.1631276298
21
257.3904030452
31
0.0000000000
11
327.0653906080
21
257.6540069415
31
0.0000000000
11
326.9587518939
21
257.9206451885
31
0.0000000000
11
326.8427916166
21
258.1901046701
31
0.0000000000
11
326.7171210722
21
258.4620571504
31
0.0000000000
11
326.5813530010
21
258.7361456649
31
0.0000000000
11
326.4351041931
21
259.0119816274
31
0.0000000000
11
326.2780100731
21
259.2891225488
31
0.0000000000
11
326.1097144762
21
259.5670978646
31
0.0000000000
11
325.9298801423
21
259.8453949548
31
0.0000000000
11
325.7381851901
21
260.1234701077
31
0.0000000000
11
325.5343248019
21
260.4007492309
31
0.0000000000
11
325.3180135654
21
260.6766276844
31
0.0000000000
11
325.0889879157
21
260.9504702552
31
0.0000000000
11
324.8470086764
21
261.2216112844
31
0.0000000000
11
324.5918636953
21
261.4893549589
31
0.0000000000
11
324.3233750878
21
261.7529714903
31
0.0000000000
11
324.0414395597
21
262.0116659343
31
0.0000000000
11
323.7460166963
21
262.2646036224
31
0.0000000000
11
323.4371116833
21
262.5109335757
31
0.0000000000
11
323.1147772812
21
262.7497910640
31
0.0000000000
11
322.7791158377
21
262.9803002064
31
0.0000000000
11
322.4302811473
21
263.2015767828
31
0.0000000000
11
322.0684799360
21
263.4127313601
31
0.0000000000
11
321.6939697326
21
263.6128742991
31
0.0000000000
11
321.3070685843
21
263.8011143319
31
0.0000000000
11
320.9081541912
21
263.9765640210
31
0.0000000000
11
320.4976624176
21
264.1383449089
31
0.0000000000
11
320.0760876954
21
264.2855914515
31
0.0000000000
11
319.6439830850
21
264.4174550485
31
0.0000000000
11
319.2019599728
21
264.5331081360
31
0.0000000000
11
318.7506873861
21
264.6317482976
31
0.0000000000
11
318.2908909220
21
264.7126023485
31
0.0000000000
11
317.8233512953
21
264.7749303421
31
0.0000000000
11
317.3489025349
21
264.8180294491
31
0.0000000000
11
316.8684298755
21
264.8412376692
31
0.0000000000
11
316.6309618880
21
264.8451600654
31
0.0000000000
0
SPLINE
5
49B
100
AcDbEntity
8
0
100
AcDbSpline
62
7
6
CONTINUOUS
70
0
71
3
72
8
73
4
74
2
42
0.0000001000
43
0.0000001000
44
0.0000000001
40
0.0000000000
40
0.0000000000
40
0.0000000000
40
0.0000000000
40
1.0000000000
40
1.0000000000
40
1.0000000000
40
1.0000000000
10
316.6309618880
20
264.8451600654
30
0.0000000000
10
316.6082174167
20
264.8452971455
30
0.0000000000
10
316.5854726805
20
264.8453656942
30
0.0000000000
10
316.5627281688
20
264.8453657165
30
0.0000000000
11
316.6309618880
21
264.8451600654
31
0.0000000000
11
316.5627281688
21
264.8453657165
31
0.0000000000
0
SPLINE
5
49C
100
AcDbEntity
8
0
100
AcDbSpline
62
7
6
CONTINUOUS
70
0
71
3
72
8
73
4
74
2
42
0.0000001000
43
0.0000001000
44
0.0000000001
40
0.0000000000
40
0.0000000000
40
0.0000000000
40
0.0000000000
40
1.0000000000
40
1.0000000000
40
1.0000000000
40
1.0000000000
10
327.8126276002
20
253.6102071638
30
0.0000000000
10
327.8126249338
20
253.6117818742
30
0.0000000000
10
327.8126220063
20
253.6134031670
30
0.0000000000
10
327.8126188842
20
253.6150499317
30
0.0000000000
11
327.8126276002
21
253.6102071638
31
0.0000000000
11
327.8126188842
21
253.6150499317
31
0.0000000000
0
SPLINE
5
49D
100
AcDbEntity
8
0
100
AcDbSpline
62
7
6
CONTINUOUS
70
0
71
3
72
8
73
4
74
2
42
0.0000001000
43
0.0000001000
44
0.0000000001
40
0.0000000000
40
0.0000000000
40
0.0000000000
40
0.0000000000
40
1.0000000000
40
1.0000000000
40
1.0000000000
40
1.0000000000
10
327.8126188842
20
253.6150499317
30
0.0000000000
10
327.8126161785
20
253.6164770109
30
0.0000000000
10
327.8126133270
20
253.6179231378
30
0.0000000000
10
327.8126103733
20
253.6193743563
30
0.0000000000
11
327.8126188842
21
253.6150499317
31
0.0000000000
11
327.8126103733
21
253.6193743563
31
0.0000000000
0
SPLINE
5
49E
100
AcDbEntity
8
0
100
AcDbSpline
62
7
6
CONTINUOUS
70
0
71
3
72
8
73
4
74
2
42
0.0000001000
43
0.0000001000
44
0.0000000001
40
0.0000000000
40
0.0000000000
40
0.0000000000
40
0.0000000000
40
1.0000000000
40
1.0000000000
40
1.0000000000
40
1.0000000000
10
327.8126103733
20
253.6193743563
30
0.0000000000
10
327.8125993302
20
253.6248002140
30
0.0000000000
10
327.8125868605
20
253.6302972475
30
0.0000000000
10
327.8125752580
20
253.6351360575
30
0.0000000000
11
327.8126103733
21
253.6193743563
31
0.0000000000
11
327.8125752580
21
253.6351360575
31
0.0000000000
0
SPLINE
5
49F
100
AcDbEntity
8
0
100
AcDbSpline
62
7
6
CONTINUOUS
70
0
71
3
72
13
73
9
74
7
42
0.0000001000
43
0.0000001000
44
0.0000000001
40
0.0000000000
40
0.0000000000
40
0.0000000000
40
0.0000000000
40
0.0073874517
40
0.2579871237
40
0.5079483733
40
0.7441069813
40
0.9640321834
40
1.0000000000
40
1.0000000000
40
1.0000000000
40
1.0000000000
10
308.5487764203
20
166.0546880944
30
0.0000000000
10
308.5487383617
20
166.0546395996
30
0.0000000000
10
308.5474093697
20
166.0529464878
30
0.0000000000
10
308.5448005221
20
166.0496442554
30
0.0000000000
10
308.5407997011
20
166.0446621062
30
0.0000000000
10
308.5375657978
20
166.0406730372
30
0.0000000000
10
308.5337046808
20
166.0360082039
30
0.0000000000
10
308.5334874072
20
166.0357281188
30
0.0000000000
10
308.5334887757
20
166.0357269823
30
0.0000000000
11
308.5487764203
21
166.0546880944
31
0.0000000000
11
308.5486622537
21
166.0545426483
31
0.0000000000
11
308.5447602902
21
166.0496072979
31
0.0000000000
11
308.5408340307
21
166.0447117832
31
0.0000000000
11
308.5370919888
21
166.0401129195
31
0.0000000000
11
308.5335838646
21
166.0358492503
31
0.0000000000
11
308.5334887757
21
166.0357269823
31
0.0000000000
0
SPLINE
5
4A0
100
AcDbEntity
8
0
100
AcDbSpline
62
7
6
CONTINUOUS
70
0
71
3
72
11
73
7
74
5
42
0.0000001000
43
0.0000001000
44
0.0000000001
40
0.0000000000
40
0.0000000000
40
0.0000000000
40
0.0000000000
40
0.2767451838
40
0.5535172626
40
0.8303164860
40
1.0000000000
40
1.0000000000
40
1.0000000000
40
1.0000000000
10
308.5293445915
20
166.0307438985
30
0.0000000000
10
308.4310095212
20
165.9127640093
30
0.0000000000
10
308.2565973625
20
165.6571780239
30
0.0000000000
10
308.0734008805
20
165.2313576304
30
0.0000000000
10
307.9875602559
20
164.8368026181
30
0.0000000000
10
307.9729467452
20
164.5884234601
30
0.0000000000
10
307.9729396304
20
164.4941064374
30
0.0000000000
11
308.5293445915
21
166.0307438985
31
0.0000000000
11
308.2696763521
21
165.6501210300
31
0.0000000000
11
308.0875143529
21
165.2268484998
31
0.0000000000
11
307.9895974204
21
164.7765191132
31
0.0000000000
11
307.9729396304
21
164.4941064374
31
0.0000000000
0
SPLINE
5
4A1
100
AcDbEntity
8
0
100
AcDbSpline
62
7
6
CONTINUOUS
70
0
71
3
72
21
73
17
74
15
42
0.0000001000
43
0.0000001000
44
0.0000000001
40
0.0000000000
40
0.0000000000
40
0.0000000000
40
0.0000000000
40
0.1029672445
40
0.2186869229
40
0.3296284760
40
0.4347601050
40
0.5331852952
40
0.6241132285
40
0.7068497916
40
0.7808352242
40
0.8455437508
40
0.9004068199
40
0.9447066874
40
0.9774340749
40
0.9971080698
40
1.0000000000
40
1.0000000000
40
1.0000000000
40
1.0000000000
10
307.9729403915
20
148.3453659341
30
0.0000000000
10
307.9729420637
20
147.8302732285
30
0.0000000000
10
307.9659229875
20
146.7362813017
30
0.0000000000
10
307.9326425884
20
145.0876027842
30
0.0000000000
10
307.8744677559
20
143.4287767462
30
0.0000000000
10
307.7954065149
20
141.8574278121
30
0.0000000000
10
307.6980965532
20
140.3874457882
30
0.0000000000
10
307.5854071576
20
139.0308728517
30
0.0000000000
10
307.4606745602
20
137.7984174882
30
0.0000000000
10
307.3271029323
20
136.6981336845
30
0.0000000000
10
307.1900843155
20
135.7413277468
30
0.0000000000
10
307.0511975794
20
134.9280187077
30
0.0000000000
10
306.9276668295
20
134.2942206165
30
0.0000000000
10
306.8042452799
20
133.7917538802
30
0.0000000000
10
306.7516319369
20
133.5774265219
30
0.0000000000
10
306.7012942972
20
133.4300450517
30
0.0000000000
10
306.6963740374
20
133.4153507401
30
0.0000000000
11
307.9729403915
21
148.3453659341
31
0.0000000000
11
307.9629935301
21
146.8001206679
31
0.0000000000
11
307.9277663420
21
145.0638250978
31
0.0000000000
11
307.8691168850
21
143.3999128180
31
0.0000000000
11
307.7894281992
21
141.8241728781
31
0.0000000000
11
307.6913358754
21
140.3503261729
31
0.0000000000
11
307.5777535364
21
138.9904684632
31
0.0000000000
11
307.4519184747
21
137.7551995489
31
0.0000000000
11
307.3173756285
21
136.6530513560
31
0.0000000000
11
307.1782248978
21
135.6919650501
31
0.0000000000
11
307.0395409184
21
134.8803762425
31
0.0000000000
11
306.9081730458
21
134.2286580711
31
0.0000000000
11
306.7942236164
21
133.7509058569
31
0.0000000000
11
306.7137222357
21
133.4668363517
31
0.0000000000
11
306.6963740374
21
133.4153507401
31
0.0000000000
0
SPLINE
5
4A2
100
AcDbEntity
8
0
100
AcDbSpline
62
7
6
CONTINUOUS
70
0
71
3
72
8
73
4
74
2
42
0.0000001000
43
0.0000001000
44
0.0000000001
40
0.0000000000
40
0.0000000000
40
0.0000000000
40
0.0000000000
40
1.0000000000
40
1.0000000000
40
1.0000000000
40
1.0000000000
10
306.8394935614
20
133.9611591835
30
0.0000000000
10
306.7343760211
20
133.8139341975
30
0.0000000000
10
306.6341284531
20
133.6632330660
30
0.0000000000
10
306.5389671090
20
133.5093853821
30
0.0000000000
11
306.8394935614
21
133.9611591835
31
0.0000000000
11
306.5389671090
21
133.5093853821
31
0.0000000000
0
SPLINE
5
4A3
100
AcDbEntity
8
0
100
AcDbSpline
62
7
6
CONTINUOUS
70
0
71
3
72
11
73
7
74
5
42
0.0000001000
43
0.0000001000
44
0.0000000001
40
0.0000000000
40
0.0000000000
40
0.0000000000
40
0.0000000000
40
0.1078709664
40
0.4182383676
40
0.7286009152
40
1.0000000000
40
1.0000000000
40
1.0000000000
40
1.0000000000
10
306.5389671090
20
133.5093853821
30
0.0000000000
10
306.4530434846
20
133.3704723525
30
0.0000000000
10
306.1359770775
20
132.8219311680
30
0.0000000000
10
305.6963873171
20
131.8055068466
30
0.0000000000
10
305.3789517798
20
130.4876384436
30
0.0000000000
10
305.3126479495
20
129.6059974309
30
0.0000000000
10
305.3126183576
20
129.1953439474
30
0.0000000000
11
306.5389671090
21
133.5093853821
31
0.0000000000
11
306.2937954370
21
133.0851930030
31
0.0000000000
11
305.7347951553
21
131.7927467453
31
0.0000000000
11
305.4051316137
21
130.4237476303
31
0.0000000000
11
305.3126183576
21
129.1953439474
31
0.0000000000
0
SPLINE
5
4A4
100
AcDbEntity
8
0
100
AcDbSpline
62
7
6
CONTINUOUS
70
0
71
3
72
9
73
5
74
3
42
0.0000001000
43
0.0000001000
44
0.0000000001
40
0.0000000000
40
0.0000000000
40
0.0000000000
40
0.0000000000
40
0.2750822762
40
1.0000000000
40
1.0000000000
40
1.0000000000
40
1.0000000000
10
305.3135790307
20
125.2474822061
30
0.0000000000
10
305.3140157617
20
125.2119470739
30
0.0000000000
10
305.3162979990
20
125.0827752280
30
0.0000000000
10
305.3210273341
20
124.9536577975
30
0.0000000000
10
305.3256207731
20
124.8601209228
30
0.0000000000
11
305.3135790307
21
125.2474822061
31
0.0000000000
11
305.3154565403
21
125.1408854207
31
0.0000000000
11
305.3256207731
21
124.8601209228
31
0.0000000000
0
SPLINE
5
4A5
100
AcDbEntity
8
0
100
AcDbSpline
62
7
6
CONTINUOUS
70
0
71
3
72
11
73
7
74
5
42
0.0000001000
43
0.0000001000
44
0.0000000001
40
0.0000000000
40
0.0000000000
40
0.0000000000
40
0.0000000000
40
0.1642685814
40
0.4741734188
40
0.8175924193
40
1.0000000000
40
1.0000000000
40
1.0000000000
40
1.0000000000
10
305.3129291540
20
253.7046256996
30
0.0000000000
10
305.3128942592
20
253.6997317570
30
0.0000000000
10
305.3127159704
20
253.6739591101
30
0.0000000000
10
305.3126303373
20
253.6538493028
30
0.0000000000
10
305.3125390164
20
253.6245379704
30
0.0000000000
10
305.3125197367
20
253.6073066419
30
0.0000000000
10
305.3125167071
20
253.6013718941
30
0.0000000000
11
305.3129291540
21
253.7046256996
31
0.0000000000
11
305.3127861664
21
253.6835682187
31
0.0000000000
11
305.3126331812
21
253.6531335752
31
0.0000000000
11
305.3125377070
21
253.6194073350
31
0.0000000000
11
305.3125167071
21
253.6013718941
31
0.0000000000
0
SPLINE
5
4A6
100
AcDbEntity
8
0
100
AcDbSpline
62
7
6
CONTINUOUS
70
0
71
3
72
8
73
4
74
2
42
0.0000001000
43
0.0000001000
44
0.0000000001
40
0.0000000000
40
0.0000000000
40
0.0000000000
40
0.0000000000
40
1.0000000000
40
1.0000000000
40
1.0000000000
40
1.0000000000
10
305.3126083935
20
253.6225176817
30
0.0000000000
10
305.3126046451
20
253.6207414750
30
0.0000000000
10
305.3126014423
20
253.6190489850
30
0.0000000000
10
305.3125987284
20
253.6174216878
30
0.0000000000
11
305.3126083935
21
253.6225176817
31
0.0000000000
11
305.3125987284
21
253.6174216878
31
0.0000000000
0
SPLINE
5
4A7
100
AcDbEntity
8
0
100
AcDbSpline
62
7
6
CONTINUOUS
70
0
71
3
72
8
73
4
74
2
42
0.0000001000
43
0.0000001000
44
0.0000000001
40
0.0000000000
40
0.0000000000
40
0.0000000000
40
0.0000000000
40
1.0000000000
40
1.0000000000
40
1.0000000000
40
1.0000000000
10
305.3125987284
20
253.6174216878
30
0.0000000000
10
305.3125971348
20
253.6164661400
30
0.0000000000
10
305.3125957098
20
253.6155330709
30
0.0000000000
10
305.3125944419
20
253.6146187300
30
0.0000000000
11
305.3125987284
21
253.6174216878
31
0.0000000000
11
305.3125944419
21
253.6146187300
31
0.0000000000
0
SPLINE
5
4A8
100
AcDbEntity
8
0
100
AcDbSpline
62
7
6
CONTINUOUS
70
0
71
3
72
8
73
4
74
2
42
0.0000001000
43
0.0000001000
44
0.0000000001
40
0.0000000000
40
0.0000000000
40
0.0000000000
40
0.0000000000
40
1.0000000000
40
1.0000000000
40
1.0000000000
40
1.0000000000
10
316.5624928364
20
264.8453658001
30
0.0000000000
10
316.4941902462
20
264.8453657892
30
0.0000000000
10
316.4258864626
20
264.8447477866
30
0.0000000000
10
316.3575947341
20
264.8435115964
30
0.0000000000
11
316.5624928364
21
264.8453658001
31
0.0000000000
11
316.3575947341
21
264.8435115964
31
0.0000000000
0
SPLINE
5
4A9
100
AcDbEntity
8
0
100
AcDbSpline
62
7
6
CONTINUOUS
70
0
71
3
72
62
73
58
74
56
42
0.0000001000
43
0.0000001000
44
0.0000000001
40
0.0000000000
40
0.0000000000
40
0.0000000000
40
0.0000000000
40
0.0230408085
40
0.0459173626
40
0.0686298238
40
0.0911782965
40
0.1135628378
40
0.1357834688
40
0.1578401844
40
0.1797329634
40
0.2014617771
40
0.2230265966
40
0.2444273992
40
0.2656641735
40
0.2867369236
40
0.3076456717
40
0.3283904650
40
0.3489716712
40
0.3693896175
40
0.3896444885
40
0.4097364989
40
0.4296658929
40
0.4494329425
40
0.4690379474
40
0.4884812341
40
0.5077631551
40
0.5268840883
40
0.5458444373
40
0.5646446306
40
0.5832851220
40
0.6017663902
40
0.6200889393
40
0.6382532990
40
0.6562600243
40
0.6741096956
40
0.6918005331
40
0.7093214385
40
0.7266598077
40
0.7438040270
40
0.7607425137
40
0.7774637231
40
0.7939561563
40
0.8102083711
40
0.8262089958
40
0.8419467469
40
0.8574102296
40
0.8725826109
40
0.8874430186
40
0.9019713473
40
0.9161486240
40
0.9299571871
40
0.9433827025
40
0.9563478790
40
0.9687429478
40
0.9804872330
40
0.9912267186
40
1.0000000000
40
1.0000000000
40
1.0000000000
40
1.0000000000
10
316.3575947341
20
264.8435115964
30
0.0000000000
10
316.2248590522
20
264.8411088668
30
0.0000000000
10
315.9604246985
20
264.8316664050
30
0.0000000000
10
315.5659251112
20
264.8037012676
30
0.0000000000
10
315.1754629584
20
264.7623093467
30
0.0000000000
10
314.7894750305
20
264.7078276399
30
0.0000000000
10
314.4083798120
20
264.6406049844
30
0.0000000000
10
314.0325744237
20
264.5610010564
30
0.0000000000
10
313.6624351388
20
264.4693852893
30
0.0000000000
10
313.2983170279
20
264.3661357953
30
0.0000000000
10
312.9405539213
20
264.2516382788
30
0.0000000000
10
312.5894583775
20
264.1262849525
30
0.0000000000
10
312.2453217412
20
263.9904734656
30
0.0000000000
10
311.9084142659
20
263.8446058501
30
0.0000000000
10
311.5789853040
20
263.6890874920
30
0.0000000000
10
311.2572635376
20
263.5243261227
30
0.0000000000
10
310.9434557833
20
263.3507300200
30
0.0000000000
10
310.6377478174
20
263.1687070077
30
0.0000000000
10
310.3403057474
20
262.9786639152
30
0.0000000000
10
310.0512778621
20
262.7810067253
30
0.0000000000
10
309.7707946860
20
262.5761397317
30
0.0000000000
10
309.4989686530
20
262.3644642815
30
0.0000000000
10
309.2358946585
20
262.1463780752
30
0.0000000000
10
308.9816506290
20
261.9222745109
30
0.0000000000
10
308.7362981055
20
261.6925420721
30
0.0000000000
10
308.4998828374
20
261.4575637583
30
0.0000000000
10
308.2724353861
20
261.2177165567
30
0.0000000000
10
308.0539717334
20
260.9733709541
30
0.0000000000
10
307.8444938954
20
260.7248904875
30
0.0000000000
10
307.6439905388
20
260.4726313324
30
0.0000000000
10
307.4524375982
20
260.2169419290
30
0.0000000000
10
307.2697988941
20
259.9581626436
30
0.0000000000
10
307.0960267483
20
259.6966254658
30
0.0000000000
10
306.9310625998
20
259.4326537440
30
0.0000000000
10
306.7748445741
20
259.1665738078
30
0.0000000000
10
306.6273322654
20
258.8987629523
30
0.0000000000
10
306.4885024421
20
258.6296617366
30
0.0000000000
10
306.3583314184
20
258.3597604796
30
0.0000000000
10
306.2367679019
20
258.0895512171
30
0.0000000000
10
306.1237300449
20
257.8195178699
30
0.0000000000
10
306.0191086922
20
257.5501394926
30
0.0000000000
10
305.9227682074
20
257.2818886368
30
0.0000000000
10
305.8345474186
20
257.0152297606
30
0.0000000000
10
305.7542606799
20
256.7506176806
30
0.0000000000
10
305.6816993849
20
256.4884972989
30
0.0000000000
10
305.6166409097
20
256.2293333152
30
0.0000000000
10
305.5588511356
20
255.9736335117
30
0.0000000000
10
305.5080780543
20
255.7219439220
30
0.0000000000
10
305.4640418245
20
255.4748120895
30
0.0000000000
10
305.4264314652
20
255.2327520758
30
0.0000000000
10
305.3949071721
20
254.9962401512
30
0.0000000000
10
305.3691475531
20
254.7660382910
30
0.0000000000
10
305.3488311482
20
254.5435417426
30
0.0000000000
10
305.3335761797
20
254.3301034693
30
0.0000000000
10
305.3229763768
20
254.1300807695
30
0.0000000000
10
305.3166195261
20
253.9479902073
30
0.0000000000
10
305.3143142173
20
253.8399828986
30
0.0000000000
10
305.3136444515
20
253.7866428180
30
0.0000000000
11
316.3575947341
21
264.8435115964
31
0.0000000000
11
315.9596024203
21
264.8292990594
31
0.0000000000
11
315.5651852815
21
264.8013385303
31
0.0000000000
11
315.1748020237
21
264.7599539116
31
0.0000000000
11
314.7888911731
21
264.7054820173
31
0.0000000000
11
314.4078707593
21
264.6382715468
31
0.0000000000
11
314.0321380366
21
264.5586820348
31
0.0000000000
11
313.6620692595
21
264.4670827827
31
0.0000000000
11
313.2980195215
21
264.3638517752
31
0.0000000000
11
312.9403226640
21
264.2493745939
31
0.0000000000
11
312.5892912583
21
264.1240433326
31
0.0000000000
11
312.2452166599
21
263.9882555250
31
0.0000000000
11
311.9083691333
21
263.8424130902
31
0.0000000000
11
311.5789980414
21
263.6869213043
31
0.0000000000
11
311.2573320970
21
263.5221878010
31
0.0000000000
11
310.9435796125
21
263.3486215750
31
0.0000000000
11
310.6379245315
21
263.1666293752
31
0.0000000000
11
310.3405324926
21
262.9766175934
31
0.0000000000
11
310.0515526535
21
262.7789926243
31
0.0000000000
11
309.7711155534
21
262.5741586656
31
0.0000000000
11
309.4993336445
21
262.3625169723
31
0.0000000000
11
309.2363018442
21
262.1444651559
31
0.0000000000
11
308.9820981046
21
261.9203965293
31
0.0000000000
11
308.7367839952
21
261.6906994952
31
0.0000000000
11
308.5004052976
21
261.4557569762
31
0.0000000000
11
308.2729926076
21
261.2159458871
31
0.0000000000
11
308.0545619440
21
260.9716366460
31
0.0000000000
11
307.8451153619
21
260.7231927260
31
0.0000000000
11
307.6446415689
21
260.4709702427
31
0.0000000000
11
307.4531165415
21
260.2153175802
31
0.0000000000
11
307.2705041430
21
259.9565750523
31
0.0000000000
11
307.0967567388
21
259.6950745998
31
0.0000000000
11
306.9318158101
21
259.4311395230
31
0.0000000000
11
306.7756125674
21
259.1650842550
31
0.0000000000
11
306.6280879531
21
258.8972505493
31
0.0000000000
11
306.4892419550
21
258.6281175059
31
0.0000000000
11
306.3590575971
21
258.3581881222
31
0.0000000000
11
306.2374810812
21
258.0879494833
31
0.0000000000
11
306.1244306054
21
257.8178855058
31
0.0000000000
11
306.0197970650
21
257.5484752570
31
0.0000000000
11
305.9234448786
21
257.2801913222
31
0.0000000000
11
305.8352129328
21
257.0134982173
31
0.0000000000
11
305.7549156420
21
256.7488508458
31
0.0000000000
11
305.6823441217
21
256.4866929982
31
0.0000000000
11
305.6172683550
21
256.2274596010
31
0.0000000000
11
305.5594574895
21
255.9716658944
31
0.0000000000
11
305.5086660790
21
255.7198849716
31
0.0000000000
11
305.4646144799
21
255.4726659486
31
0.0000000000
11
305.4269915949
21
255.2305259912
31
0.0000000000
11
305.3954588894
21
254.9939457662
31
0.0000000000
11
305.3696515757
21
254.7633336349
31
0.0000000000
11
305.3492793720
21
254.5401665740
31
0.0000000000
11
305.3339911064
21
254.3264717223
31
0.0000000000
11
305.3232877241
21
254.1237614593
31
0.0000000000
11
305.3167234305
21
253.9382522532
31
0.0000000000
11
305.3136444515
21
253.7866428180
31
0.0000000000
0
SPLINE
5
4AA
100
AcDbEntity
8
0
100
AcDbSpline
62
7
6
CONTINUOUS
70
0
71
3
72
8
73
4
74
2
42
0.0000001000
43
0.0000001000
44
0.0000000001
40
0.0000000000
40
0.0000000000
40
0.0000000000
40
0.0000000000
40
1.0000000000
40
1.0000000000
40
1.0000000000
40
1.0000000000
10
305.3136444515
20
253.7866428180
30
0.0000000000
10
305.3131704165
20
253.7488907242
30
0.0000000000
10
305.3128800922
20
253.7087451469
30
0.0000000000
10
305.3127051760
20
253.6787380493
30
0.0000000000
11
305.3136444515
21
253.7866428180
31
0.0000000000
11
305.3127051760
21
253.6787380493
31
0.0000000000
0
SPLINE
5
4AB
100
AcDbEntity
8
0
100
AcDbSpline
62
7
6
CONTINUOUS
70
0
71
3
72
8
73
4
74
2
42
0.0000001000
43
0.0000001000
44
0.0000000001
40
0.0000000000
40
0.0000000000
40
0.0000000000
40
0.0000000000
40
1.0000000000
40
1.0000000000
40
1.0000000000
40
1.0000000000
10
305.3126887874
20
253.6758978554
30
0.0000000000
10
305.3126560746
20
253.6701704907
30
0.0000000000
10
305.3126276743
20
253.6648444859
30
0.0000000000
10
305.3126068576
20
253.6593071559
30
0.0000000000
11
305.3126887874
21
253.6758978554
31
0.0000000000
11
305.3126068576
21
253.6593071559
31
0.0000000000
0
SPLINE
5
4AC
100
AcDbEntity
8
0
100
AcDbSpline
62
7
6
CONTINUOUS
70
0
71
3
72
8
73
4
74
2
42
0.0000001000
43
0.0000001000
44
0.0000000001
40
0.0000000000
40
0.0000000000
40
0.0000000000
40
0.0000000000
40
1.0000000000
40
1.0000000000
40
1.0000000000
40
1.0000000000
10
305.3126024703
20
253.6581047384
30
0.0000000000
10
305.3125910449
20
253.6548745340
30
0.0000000000
10
305.3125822483
20
253.6515584177
30
0.0000000000
10
305.3125767184
20
253.6480369571
30
0.0000000000
11
305.3126024703
21
253.6581047384
31
0.0000000000
11
305.3125767184
21
253.6480369571
31
0.0000000000
0
SPLINE
5
4AD
100
AcDbEntity
8
0
100
AcDbSpline
62
7
6
CONTINUOUS
70
0
71
3
72
9
73
5
74
3
42
0.0000001000
43
0.0000001000
44
0.0000000001
40
0.0000000000
40
0.0000000000
40
0.0000000000
40
0.0000000000
40
0.4010834593
40
1.0000000000
40
1.0000000000
40
1.0000000000
40
1.0000000000
10
249.2626107500
20
118.7072666613
30
0.0000000000
10
249.2626109314
20
118.7358304875
30
0.0000000000
10
249.2639998310
20
118.8070539204
30
0.0000000000
10
249.2688466213
20
118.8781419613
30
0.0000000000
10
249.2729700593
20
118.9205900223
30
0.0000000000
11
249.2626107500
21
118.7072666613
31
0.0000000000
11
249.2642813245
21
118.7929417890
31
0.0000000000
11
249.2729700593
21
118.9205900223
31
0.0000000000
0
SPLINE
5
4AE
100
AcDbEntity
8
0
100
AcDbSpline
62
7
6
CONTINUOUS
70
0
71
3
72
9
73
5
74
3
42
0.0000001000
43
0.0000001000
44
0.0000000001
40
0.0000000000
40
0.0000000000
40
0.0000000000
40
0.0000000000
40
0.4010834594
40
1.0000000000
40
1.0000000000
40
1.0000000000
40
1.0000000000
10
249.2626107500
20
111.4743391317
30
0.0000000000
10
249.2626109314
20
111.4457753030
30
0.0000000000
10
249.2639998310
20
111.3745518639
30
0.0000000000
10
249.2688466213
20
111.3034638168
30
0.0000000000
10
249.2729700593
20
111.2610157521
30
0.0000000000
11
249.2626107500
21
111.4743391317
31
0.0000000000
11
249.2642813245
21
111.3886639966
31
0.0000000000
11
249.2729700593
21
111.2610157521
31
0.0000000000
0
SPLINE
5
4AF
100
AcDbEntity
8
0
100
AcDbSpline
62
7
6
CONTINUOUS
70
0
71
3
72
9
73
5
74
3
42
0.0000001000
43
0.0000001000
44
0.0000000001
40
0.0000000000
40
0.0000000000
40
0.0000000000
40
0.0000000000
40
0.4904837692
40
1.0000000000
40
1.0000000000
40
1.0000000000
40
1.0000000000
10
250.7336170269
20
111.5163348929
30
0.0000000000
10
250.7966109635
20
111.4726417983
30
0.0000000000
10
250.9264903577
20
111.3856333613
30
0.0000000000
10
251.0588623426
20
111.3024759937
30
0.0000000000
10
251.1268574984
20
111.2610157521
30
0.0000000000
11
250.7336170269
21
111.5163348929
31
0.0000000000
11
250.9246180865
21
111.3882158145
31
0.0000000000
11
251.1268574984
21
111.2610157521
31
0.0000000000
0
SPLINE
5
4B0
100
AcDbEntity
8
0
100
AcDbSpline
62
7
6
CONTINUOUS
70
0
71
3
72
9
73
5
74
3
42
0.0000001000
43
0.0000001000
44
0.0000000001
40
0.0000000000
40
0.0000000000
40
0.0000000000
40
0.0000000000
40
0.4980924495
40
1.0000000000
40
1.0000000000
40
1.0000000000
40
1.0000000000
10
250.5557282524
20
111.7716540338
30
0.0000000000
10
250.5845679819
20
111.7287850916
30
0.0000000000
10
250.6431809136
20
111.6431962189
30
0.0000000000
10
250.7031723904
20
111.5585681762
30
0.0000000000
10
250.7336170269
20
111.5163348929
30
0.0000000000
11
250.5557282524
21
111.7716540338
31
0.0000000000
11
250.6432993110
21
111.6437611273
31
0.0000000000
11
250.7336170269
21
111.5163348929
31
0.0000000000
0
SPLINE
5
4B1
100
AcDbEntity
8
0
100
AcDbSpline
62
7
6
CONTINUOUS
70
0
71
3
72
9
73
5
74
3
42
0.0000001000
43
0.0000001000
44
0.0000000001
40
0.0000000000
40
0.0000000000
40
0.0000000000
40
0.0000000000
40
0.5002192505
40
1.0000000000
40
1.0000000000
40
1.0000000000
40
1.0000000000
10
250.3900171827
20
112.2822923155
30
0.0000000000
10
250.4167356091
20
112.1968566343
30
0.0000000000
10
250.4710646938
20
112.0263451779
30
0.0000000000
10
250.5272139540
20
111.8564244411
30
0.0000000000
10
250.5557282524
20
111.7716540338
30
0.0000000000
11
250.3900171827
21
112.2822923155
31
0.0000000000
11
250.4715439602
21
112.0264182179
31
0.0000000000
11
250.5557282524
21
111.7716540338
31
0.0000000000
0
SPLINE
5
4B2
100
AcDbEntity
8
0
100
AcDbSpline
62
7
6
CONTINUOUS
70
0
71
3
72
9
73
5
74
3
42
0.0000001000
43
0.0000001000
44
0.0000000001
40
0.0000000000
40
0.0000000000
40
0.0000000000
40
0.0000000000
40
0.5005716030
40
1.0000000000
40
1.0000000000
40
1.0000000000
40
1.0000000000
10
250.2862055929
20
113.3035688789
30
0.0000000000
10
250.3030909877
20
113.1331176017
30
0.0000000000
10
250.3372583058
20
112.7926472838
30
0.0000000000
10
250.3722984746
20
112.4522656871
30
0.0000000000
10
250.3900171827
20
112.2822923155
30
0.0000000000
11
250.2862055929
21
113.3035688789
31
0.0000000000
11
250.3375160780
21
112.7922802871
31
0.0000000000
11
250.3900171827
21
112.2822923155
31
0.0000000000
0
SPLINE
5
4B3
100
AcDbEntity
8
0
100
AcDbSpline
62
7
6
CONTINUOUS
70
0
71
3
72
9
73
5
74
3
42
0.0000001000
43
0.0000001000
44
0.0000000001
40
0.0000000000
40
0.0000000000
40
0.0000000000
40
0.0000000000
40
0.4996021716
40
1.0000000000
40
1.0000000000
40
1.0000000000
40
1.0000000000
10
249.4150347768
20
140.1606189236
30
0.0000000000
10
249.4228089524
20
140.1179892174
30
0.0000000000
10
249.4389503452
20
140.0327667980
30
0.0000000000
10
249.4562445357
20
139.9477708514
30
0.0000000000
10
249.4651846428
20
139.9052998051
30
0.0000000000
11
249.4150347768
21
140.1606189236
31
0.0000000000
11
249.4392252432
21
140.0328911340
31
0.0000000000
11
249.4651846428
21
139.9052998051
31
0.0000000000
0
SPLINE
5
4B4
100
AcDbEntity
8
0
100
AcDbSpline
62
7
6
CONTINUOUS
70
0
71
3
72
9
73
5
74
3
42
0.0000001000
43
0.0000001000
44
0.0000000001
40
0.0000000000
40
0.0000000000
40
0.0000000000
40
0.0000000000
40
0.5001547857
40
1.0000000000
40
1.0000000000
40
1.0000000000
40
1.0000000000
10
249.4651846428
20
139.9052998051
30
0.0000000000
10
249.4711594463
20
139.8201479154
30
0.0000000000
10
249.4833709779
20
139.6499153742
30
0.0000000000
10
249.4961140714
20
139.4797217983
30
0.0000000000
10
249.5026165787
20
139.3946615681
30
0.0000000000
11
249.4651846428
21
139.9052998051
31
0.0000000000
11
249.4835077310
21
139.6498724224
31
0.0000000000
11
249.5026165787
21
139.3946615681
31
0.0000000000
0
SPLINE
5
4B5
100
AcDbEntity
8
0
100
AcDbSpline
62
7
6
CONTINUOUS
70
0
71
3
72
9
73
5
74
3
42
0.0000001000
43
0.0000001000
44
0.0000000001
40
0.0000000000
40
0.0000000000
40
0.0000000000
40
0.0000000000
40
0.5001192049
40
1.0000000000
40
1.0000000000
40
1.0000000000
40
1.0000000000
10
249.5026165787
20
139.3946615681
30
0.0000000000
10
249.5058703971
20
139.2669697265
30
0.0000000000
10
249.5124433860
20
139.0116486152
30
0.0000000000
10
249.5191502738
20
138.7563309861
30
0.0000000000
10
249.5225364088
20
138.6287034973
30
0.0000000000
11
249.5026165787
21
139.3946615681
31
0.0000000000
11
249.5124784438
21
139.0115886151
31
0.0000000000
11
249.5225364088
21
138.6287034973
31
0.0000000000
0
SPLINE
5
4B6
100
AcDbEntity
8
0
100
AcDbSpline
62
7
6
CONTINUOUS
70
0
71
3
72
9
73
5
74
3
42
0.0000001000
43
0.0000001000
44
0.0000000001
40
0.0000000000
40
0.0000000000
40
0.0000000000
40
0.0000000000
40
0.5001192049
40
1.0000000000
40
1.0000000000
40
1.0000000000
40
1.0000000000
10
249.5026165787
20
137.3521079048
30
0.0000000000
10
249.5058703971
20
137.4797996272
30
0.0000000000
10
249.5124433860
20
137.7351205001
30
0.0000000000
10
249.5191502738
20
137.9904378908
30
0.0000000000
10
249.5225364088
20
138.1180652603
30
0.0000000000
11
249.5026165787
21
137.3521079048
31
0.0000000000
11
249.5124784438
21
137.7351805001
31
0.0000000000
11
249.5225364088
21
138.1180652603
31
0.0000000000
0
SPLINE
5
4B7
100
AcDbEntity
8
0
100
AcDbSpline
62
7
6
CONTINUOUS
70
0
71
3
72
9
73
5
74
3
42
0.0000001000
43
0.0000001000
44
0.0000000001
40
0.0000000000
40
0.0000000000
40
0.0000000000
40
0.0000000000
40
0.5001547857
40
1.0000000000
40
1.0000000000
40
1.0000000000
40
1.0000000000
10
249.4651846428
20
136.8414696678
30
0.0000000000
10
249.4711594463
20
136.9266215576
30
0.0000000000
10
249.4833709779
20
137.0968540987
30
0.0000000000
10
249.4961140714
20
137.2670476747
30
0.0000000000
10
249.5026165787
20
137.3521079048
30
0.0000000000
11
249.4651846428
21
136.8414696678
31
0.0000000000
11
249.4835077310
21
137.0968970505
31
0.0000000000
11
249.5026165787
21
137.3521079048
31
0.0000000000
0
SPLINE
5
4B8
100
AcDbEntity
8
0
100
AcDbSpline
62
7
6
CONTINUOUS
70
0
71
3
72
9
73
5
74
3
42
0.0000001000
43
0.0000001000
44
0.0000000001
40
0.0000000000
40
0.0000000000
40
0.0000000000
40
0.0000000000
40
0.4996021716
40
1.0000000000
40
1.0000000000
40
1.0000000000
40
1.0000000000
10
249.4150347768
20
136.5861505494
30
0.0000000000
10
249.4228089524
20
136.6287802555
30
0.0000000000
10
249.4389503452
20
136.7140026749
30
0.0000000000
10
249.4562445357
20
136.7989986215
30
0.0000000000
10
249.4651846428
20
136.8414696678
30
0.0000000000
11
249.4150347768
21
136.5861505494
31
0.0000000000
11
249.4392252432
21
136.7138783390
31
0.0000000000
11
249.4651846428
21
136.8414696678
31
0.0000000000
0
SPLINE
5
4B9
100
AcDbEntity
8
0
100
AcDbSpline
62
7
6
CONTINUOUS
70
0
71
3
72
9
73
5
74
3
42
0.0000001000
43
0.0000001000
44
0.0000000001
40
0.0000000000
40
0.0000000000
40
0.0000000000
40
0.0000000000
40
0.5001192049
40
1.0000000000
40
1.0000000000
40
1.0000000000
40
1.0000000000
10
249.5026165787
20
131.9904060587
30
0.0000000000
10
249.5058703971
20
132.1180977811
30
0.0000000000
10
249.5124433860
20
132.3734186540
30
0.0000000000
10
249.5191502738
20
132.6287360447
30
0.0000000000
10
249.5225364088
20
132.7563634142
30
0.0000000000
11
249.5026165787
21
131.9904060587
31
0.0000000000
11
249.5124784438
21
132.3734786540
31
0.0000000000
11
249.5225364088
21
132.7563634142
31
0.0000000000
0
SPLINE
5
4BA
100
AcDbEntity
8
0
100
AcDbSpline
62
7
6
CONTINUOUS
70
0
71
3
72
9
73
5
74
3
42
0.0000001000
43
0.0000001000
44
0.0000000001
40
0.0000000000
40
0.0000000000
40
0.0000000000
40
0.0000000000
40
0.5001547858
40
1.0000000000
40
1.0000000000
40
1.0000000000
40
1.0000000000
10
249.4651846428
20
131.4797676429
30
0.0000000000
10
249.4711594463
20
131.5649195624
30
0.0000000000
10
249.4833709779
20
131.7351521632
30
0.0000000000
10
249.4961140714
20
131.9053457988
30
0.0000000000
10
249.5026165787
20
131.9904060587
30
0.0000000000
11
249.4651846428
21
131.4797676429
31
0.0000000000
11
249.4835077310
21
131.7351951150
31
0.0000000000
11
249.5026165787
21
131.9904060587
31
0.0000000000
0
SPLINE
5
4BB
100
AcDbEntity
8
0
100
AcDbSpline
62
7
6
CONTINUOUS
70
0
71
3
72
9
73
5
74
3
42
0.0000001000
43
0.0000001000
44
0.0000000001
40
0.0000000000
40
0.0000000000
40
0.0000000000
40
0.0000000000
40
0.4996021716
40
1.0000000000
40
1.0000000000
40
1.0000000000
40
1.0000000000
10
249.4150347768
20
131.2244485244
30
0.0000000000
10
249.4228089524
20
131.2670782306
30
0.0000000000
10
249.4389503452
20
131.3523006500
30
0.0000000000
10
249.4562445357
20
131.4372965966
30
0.0000000000
10
249.4651846428
20
131.4797676429
30
0.0000000000
11
249.4150347768
21
131.2244485244
31
0.0000000000
11
249.4392252432
21
131.3521763141
31
0.0000000000
11
249.4651846428
21
131.4797676429
31
0.0000000000
0
SPLINE
5
4BC
100
AcDbEntity
8
0
100
AcDbSpline
62
7
6
CONTINUOUS
70
0
71
3
72
9
73
5
74
3
42
0.0000001000
43
0.0000001000
44
0.0000000001
40
0.0000000000
40
0.0000000000
40
0.0000000000
40
0.0000000000
40
0.4996021716
40
1.0000000000
40
1.0000000000
40
1.0000000000
40
1.0000000000
10
249.4150347768
20
135.0542358384
30
0.0000000000
10
249.4228089524
20
135.0116061322
30
0.0000000000
10
249.4389503452
20
134.9263837128
30
0.0000000000
10
249.4562445357
20
134.8413877662
30
0.0000000000
10
249.4651846428
20
134.7989167199
30
0.0000000000
11
249.4150347768
21
135.0542358384
31
0.0000000000
11
249.4392252432
21
134.9265080487
31
0.0000000000
11
249.4651846428
21
134.7989167199
31
0.0000000000
0
SPLINE
5
4BD
100
AcDbEntity
8
0
100
AcDbSpline
62
7
6
CONTINUOUS
70
0
71
3
72
9
73
5
74
3
42
0.0000001000
43
0.0000001000
44
0.0000000001
40
0.0000000000
40
0.0000000000
40
0.0000000000
40
0.0000000000
40
0.5001547857
40
1.0000000000
40
1.0000000000
40
1.0000000000
40
1.0000000000
10
249.4651846428
20
134.7989167199
30
0.0000000000
10
249.4711594463
20
134.7137648301
30
0.0000000000
10
249.4833709779
20
134.5435322890
30
0.0000000000
10
249.4961140714
20
134.3733387130
30
0.0000000000
10
249.5026165787
20
134.2882784829
30
0.0000000000
11
249.4651846428
21
134.7989167199
31
0.0000000000
11
249.4835077310
21
134.5434893372
31
0.0000000000
11
249.5026165787
21
134.2882784829
31
0.0000000000
0
SPLINE
5
4BE
100
AcDbEntity
8
0
100
AcDbSpline
62
7
6
CONTINUOUS
70
0
71
3
72
9
73
5
74
3
42
0.0000001000
43
0.0000001000
44
0.0000000001
40
0.0000000000
40
0.0000000000
40
0.0000000000
40
0.0000000000
40
0.5001192049
40
1.0000000000
40
1.0000000000
40
1.0000000000
40
1.0000000000
10
249.5026165787
20
134.2882784829
30
0.0000000000
10
249.5058703971
20
134.1605867009
30
0.0000000000
10
249.5124433860
20
133.9052657088
30
0.0000000000
10
249.5191502738
20
133.6499481988
30
0.0000000000
10
249.5225364088
20
133.5223207697
30
0.0000000000
11
249.5026165787
21
134.2882784829
31
0.0000000000
11
249.5124784438
21
133.9052057087
31
0.0000000000
11
249.5225364088
21
133.5223207697
31
0.0000000000
0
SPLINE
5
4BF
100
AcDbEntity
8
0
100
AcDbSpline
62
7
6
CONTINUOUS
70
0
71
3
72
9
73
5
74
3
42
0.0000001000
43
0.0000001000
44
0.0000000001
40
0.0000000000
40
0.0000000000
40
0.0000000000
40
0.0000000000
40
0.5003862488
40
1.0000000000
40
1.0000000000
40
1.0000000000
40
1.0000000000
10
251.3498059258
20
131.9904060587
30
0.0000000000
10
251.3598777913
20
132.1181706276
30
0.0000000000
10
251.3800865002
20
132.3734961805
30
0.0000000000
10
251.4004566258
20
132.6288089062
30
0.0000000000
10
251.4106742354
20
132.7563634142
30
0.0000000000
11
251.3498059258
21
131.9904060587
31
0.0000000000
11
251.3801425279
21
132.3736902071
31
0.0000000000
11
251.4106742354
21
132.7563634142
31
0.0000000000
0
SPLINE
5
4C0
100
AcDbEntity
8
0
100
AcDbSpline
62
7
6
CONTINUOUS
70
0
71
3
72
9
73
5
74
3
42
0.0000001000
43
0.0000001000
44
0.0000000001
40
0.0000000000
40
0.0000000000
40
0.0000000000
40
0.0000000000
40
0.5006021889
40
1.0000000000
40
1.0000000000
40
1.0000000000
40
1.0000000000
10
251.1730067638
20
131.4797676429
30
0.0000000000
10
251.2018632223
20
131.5651980089
30
0.0000000000
10
251.2601528832
20
131.7356356311
30
0.0000000000
10
251.3197315035
20
131.9056269661
30
0.0000000000
10
251.3498059258
20
131.9904060587
30
0.0000000000
11
251.1730067638
21
131.4797676429
31
0.0000000000
11
251.2605461025
21
131.7357290617
31
0.0000000000
11
251.3498059258
21
131.9904060587
31
0.0000000000
0
SPLINE
5
4C1
100
AcDbEntity
8
0
100
AcDbSpline
62
7
6
CONTINUOUS
70
0
71
3
72
9
73
5
74
3
42
0.0000001000
43
0.0000001000
44
0.0000000001
40
0.0000000000
40
0.0000000000
40
0.0000000000
40
0.0000000000
40
0.4974757984
40
1.0000000000
40
1.0000000000
40
1.0000000000
40
1.0000000000
10
250.9505978431
20
131.2244485244
30
0.0000000000
10
250.9867565700
20
131.2674079802
30
0.0000000000
10
251.0601867429
20
131.3531376683
30
0.0000000000
10
251.1350451150
20
131.4376226648
30
0.0000000000
10
251.1730067638
20
131.4797676429
30
0.0000000000
11
250.9505978431
21
131.2244485244
31
0.0000000000
11
251.0601694916
21
131.3523968313
31
0.0000000000
11
251.1730067638
21
131.4797676429
31
0.0000000000
0
SPLINE
5
4C2
100
AcDbEntity
8
0
100
AcDbSpline
62
7
6
CONTINUOUS
70
0
71
3
72
9
73
5
74
3
42
0.0000001000
43
0.0000001000
44
0.0000000001
40
0.0000000000
40
0.0000000000
40
0.0000000000
40
0.0000000000
40
0.4999513005
40
1.0000000000
40
1.0000000000
40
1.0000000000
40
1.0000000000
10
249.2764152847
20
114.3248455317
30
0.0000000000
10
249.2745066507
20
114.1546531997
30
0.0000000000
10
249.2710850951
20
113.8142308223
30
0.0000000000
10
249.2684554598
20
113.4738014067
30
0.0000000000
10
249.2673384699
20
113.3035688789
30
0.0000000000
11
249.2764152847
21
114.3248455317
31
0.0000000000
11
249.2712833699
21
113.8142622199
31
0.0000000000
11
249.2673384699
21
113.3035688789
31
0.0000000000
0
SPLINE
5
4C3
100
AcDbEntity
8
0
100
AcDbSpline
62
7
6
CONTINUOUS
70
0
71
3
72
8
73
4
74
2
42
0.0000001000
43
0.0000001000
44
0.0000000001
40
0.0000000000
40
0.0000000000
40
0.0000000000
40
0.0000000000
40
1.0000000000
40
1.0000000000
40
1.0000000000
40
1.0000000000
10
249.2673384699
20
113.3035688789
30
0.0000000000
10
249.2656634283
20
113.2184752323
30
0.0000000000
10
249.2644333979
20
113.1333722436
30
0.0000000000
10
249.2636485027
20
113.0482651495
30
0.0000000000
11
249.2673384699
21
113.3035688789
31
0.0000000000
11
249.2636485027
21
113.0482651495
31
0.0000000000
0
SPLINE
5
4C4
100
AcDbEntity
8
0
100
AcDbSpline
62
7
6
CONTINUOUS
70
0
71
3
72
8
73
4
74
2
42
0.0000001000
43
0.0000001000
44
0.0000000001
40
0.0000000000
40
0.0000000000
40
0.0000000000
40
0.0000000000
40
1.0000000000
40
1.0000000000
40
1.0000000000
40
1.0000000000
10
249.2636485027
20
113.0482651495
30
0.0000000000
10
249.2629565309
20
112.9732338480
30
0.0000000000
10
249.2626105347
20
112.8981993556
30
0.0000000000
10
249.2626105295
20
112.8231652621
30
0.0000000000
11
249.2636485027
21
113.0482651495
31
0.0000000000
11
249.2626105295
21
112.8231652621
31
0.0000000000
0
SPLINE
5
4C5
100
AcDbEntity
8
0
100
AcDbSpline
62
7
6
CONTINUOUS
70
0
71
3
72
9
73
5
74
3
42
0.0000001000
43
0.0000001000
44
0.0000000001
40
0.0000000000
40
0.0000000000
40
0.0000000000
40
0.0000000000
40
0.4982437545
40
1.0000000000
40
1.0000000000
40
1.0000000000
40
1.0000000000
10
249.3241482377
20
112.5376115234
30
0.0000000000
10
249.3322516290
20
112.5803405784
30
0.0000000000
10
249.3500726591
20
112.6658116088
30
0.0000000000
10
249.3709324324
20
112.7505914214
30
0.0000000000
10
249.3821391180
20
112.7929306419
30
0.0000000000
11
249.3241482377
21
112.5376115234
31
0.0000000000
11
249.3507644213
21
112.6653397999
31
0.0000000000
11
249.3821391180
21
112.7929306419
31
0.0000000000
0
SPLINE
5
4C6
100
AcDbEntity
8
0
100
AcDbSpline
62
7
6
CONTINUOUS
70
0
71
3
72
9
73
5
74
3
42
0.0000001000
43
0.0000001000
44
0.0000000001
40
0.0000000000
40
0.0000000000
40
0.0000000000
40
0.0000000000
40
0.4974757984
40
1.0000000000
40
1.0000000000
40
1.0000000000
40
1.0000000000
10
250.9505978431
20
140.1606189236
30
0.0000000000
10
250.9867565700
20
140.1176594678
30
0.0000000000
10
251.0601867429
20
140.0319297798
30
0.0000000000
10
251.1350451150
20
139.9474447832
30
0.0000000000
10
251.1730067638
20
139.9052998051
30
0.0000000000
11
250.9505978431
21
140.1606189236
31
0.0000000000
11
251.0601694916
21
140.0326706167
31
0.0000000000
11
251.1730067638
21
139.9052998051
31
0.0000000000
0
SPLINE
5
4C7
100
AcDbEntity
8
0
100
AcDbSpline
62
7
6
CONTINUOUS
70
0
71
3
72
9
73
5
74
3
42
0.0000001000
43
0.0000001000
44
0.0000000001
40
0.0000000000
40
0.0000000000
40
0.0000000000
40
0.0000000000
40
0.5000720371
40
1.0000000000
40
1.0000000000
40
1.0000000000
40
1.0000000000
10
249.3821391180
20
112.7929306419
30
0.0000000000
10
249.3905972079
20
112.8781438481
30
0.0000000000
10
249.4084052495
20
113.0484581273
30
0.0000000000
10
249.4279983284
20
113.2185762869
30
0.0000000000
10
249.4382386624
20
113.3035688789
30
0.0000000000
11
249.3821391180
21
112.7929306419
31
0.0000000000
11
249.4088542031
21
113.0484336211
31
0.0000000000
11
249.4382386624
21
113.3035688789
31
0.0000000000
0
SPLINE
5
4C8
100
AcDbEntity
8
0
100
AcDbSpline
62
7
6
CONTINUOUS
70
0
71
3
72
9
73
5
74
3
42
0.0000001000
43
0.0000001000
44
0.0000000001
40
0.0000000000
40
0.0000000000
40
0.0000000000
40
0.0000000000
40
0.5002076207
40
1.0000000000
40
1.0000000000
40
1.0000000000
40
1.0000000000
10
249.4382386624
20
113.3035688789
30
0.0000000000
10
249.4450787187
20
113.4313038061
30
0.0000000000
10
249.4591549293
20
113.6866462674
30
0.0000000000
10
249.4740354759
20
113.9419431184
30
0.0000000000
10
249.4816738713
20
114.0695264132
30
0.0000000000
11
249.4382386624
21
113.3035688789
31
0.0000000000
11
249.4593620253
21
113.6867408841
31
0.0000000000
11
249.4816738713
21
114.0695264132
31
0.0000000000
0
SPLINE
5
4C9
100
AcDbEntity
8
0
100
AcDbSpline
62
7
6
CONTINUOUS
70
0
71
3
72
9
73
5
74
3
42
0.0000001000
43
0.0000001000
44
0.0000000001
40
0.0000000000
40
0.0000000000
40
0.0000000000
40
0.0000000000
40
0.5006021901
40
1.0000000000
40
1.0000000000
40
1.0000000000
40
1.0000000000
10
251.1730067638
20
139.9052998051
30
0.0000000000
10
251.2018632224
20
139.8198694687
30
0.0000000000
10
251.2601528834
20
139.6494319060
30
0.0000000000
10
251.3197315036
20
139.4794406307
30
0.0000000000
10
251.3498059258
20
139.3946615681
30
0.0000000000
11
251.1730067638
21
139.9052998051
31
0.0000000000
11
251.2605461028
21
139.6493384751
31
0.0000000000
11
251.3498059258
21
139.3946615681
31
0.0000000000
0
SPLINE
5
4CA
100
AcDbEntity
8
0
100
AcDbSpline
62
7
6
CONTINUOUS
70
0
71
3
72
9
73
5
74
3
42
0.0000001000
43
0.0000001000
44
0.0000000001
40
0.0000000000
40
0.0000000000
40
0.0000000000
40
0.0000000000
40
0.5001377447
40
1.0000000000
40
1.0000000000
40
1.0000000000
40
1.0000000000
10
249.4816738713
20
114.0695264132
30
0.0000000000
10
249.4854965086
20
114.1972242179
30
0.0000000000
10
249.4932407108
20
114.4525464737
30
0.0000000000
10
249.5011871376
20
114.7078625156
30
0.0000000000
10
249.5052098397
20
114.8354837687
30
0.0000000000
11
249.4816738713
21
114.0695264132
31
0.0000000000
11
249.4932934282
21
114.4526152579
31
0.0000000000
11
249.5052098397
21
114.8354837687
31
0.0000000000
0
SPLINE
5
4CB
100
AcDbEntity
8
0
100
AcDbSpline
62
7
6
CONTINUOUS
70
0
71
3
72
9
73
5
74
3
42
0.0000001000
43
0.0000001000
44
0.0000000001
40
0.0000000000
40
0.0000000000
40
0.0000000000
40
0.0000000000
40
0.5003862488
40
1.0000000000
40
1.0000000000
40
1.0000000000
40
1.0000000000
10
251.3498059258
20
139.3946615681
30
0.0000000000
10
251.3598777913
20
139.2668968799
30
0.0000000000
10
251.3800865002
20
139.0115710886
30
0.0000000000
10
251.4004566258
20
138.7562581245
30
0.0000000000
10
251.4106742354
20
138.6287034973
30
0.0000000000
11
251.3498059258
21
139.3946615681
31
0.0000000000
11
251.3801425279
21
139.0113770618
31
0.0000000000
11
251.4106742354
21
138.6287034973
31
0.0000000000
0
SPLINE
5
4CC
100
AcDbEntity
8
0
100
AcDbSpline
62
7
6
CONTINUOUS
70
0
71
3
72
9
73
5
74
3
42
0.0000001000
43
0.0000001000
44
0.0000000001
40
0.0000000000
40
0.0000000000
40
0.0000000000
40
0.0000000000
40
0.5001377447
40
1.0000000000
40
1.0000000000
40
1.0000000000
40
1.0000000000
10
249.4816738713
20
116.1120797188
30
0.0000000000
10
249.4854965086
20
115.9843818544
30
0.0000000000
10
249.4932407108
20
115.7290594795
30
0.0000000000
10
249.5011871376
20
115.4737433184
30
0.0000000000
10
249.5052098397
20
115.3461220057
30
0.0000000000
11
249.4816738713
21
116.1120797188
31
0.0000000000
11
249.4932934282
21
115.7289906952
31
0.0000000000
11
249.5052098397
21
115.3461220057
31
0.0000000000
0
SPLINE
5
4CD
100
AcDbEntity
8
0
100
AcDbSpline
62
7
6
CONTINUOUS
70
0
71
3
72
9
73
5
74
3
42
0.0000001000
43
0.0000001000
44
0.0000000001
40
0.0000000000
40
0.0000000000
40
0.0000000000
40
0.0000000000
40
0.5002076207
40
1.0000000000
40
1.0000000000
40
1.0000000000
40
1.0000000000
10
249.4382386624
20
116.8780370743
30
0.0000000000
10
249.4450787187
20
116.7503021769
30
0.0000000000
10
249.4591549293
20
116.4949597752
30
0.0000000000
10
249.4740354759
20
116.2396629838
30
0.0000000000
10
249.4816738713
20
116.1120797188
30
0.0000000000
11
249.4382386624
21
116.8780370743
31
0.0000000000
11
249.4593620253
21
116.4948651585
31
0.0000000000
11
249.4816738713
21
116.1120797188
31
0.0000000000
0
SPLINE
5
4CE
100
AcDbEntity
8
0
100
AcDbSpline
62
7
6
CONTINUOUS
70
0
71
3
72
9
73
5
74
3
42
0.0000001000
43
0.0000001000
44
0.0000000001
40
0.0000000000
40
0.0000000000
40
0.0000000000
40
0.0000000000
40
0.5000720371
40
1.0000000000
40
1.0000000000
40
1.0000000000
40
1.0000000000
10
249.3821391180
20
117.3886753113
30
0.0000000000
10
249.3905972079
20
117.3034621051
30
0.0000000000
10
249.4084052495
20
117.1331478259
30
0.0000000000
10
249.4279983284
20
116.9630296663
30
0.0000000000
10
249.4382386624
20
116.8780370743
30
0.0000000000
11
249.3821391180
21
117.3886753113
31
0.0000000000
11
249.4088542031
21
117.1331723320
31
0.0000000000
11
249.4382386624
21
116.8780370743
31
0.0000000000
0
SPLINE
5
4CF
100
AcDbEntity
8
0
100
AcDbSpline
62
7
6
CONTINUOUS
70
0
71
3
72
9
73
5
74
3
42
0.0000001000
43
0.0000001000
44
0.0000000001
40
0.0000000000
40
0.0000000000
40
0.0000000000
40
0.0000000000
40
0.4982437545
40
1.0000000000
40
1.0000000000
40
1.0000000000
40
1.0000000000
10
249.3241482377
20
117.6439944298
30
0.0000000000
10
249.3322516290
20
117.6012653748
30
0.0000000000
10
249.3500726591
20
117.5157943444
30
0.0000000000
10
249.3709324324
20
117.4310145318
30
0.0000000000
10
249.3821391180
20
117.3886753113
30
0.0000000000
11
249.3241482377
21
117.6439944298
31
0.0000000000
11
249.3507644213
21
117.5162661533
31
0.0000000000
11
249.3821391180
21
117.3886753113
31
0.0000000000
0
SPLINE
5
4D0
100
AcDbEntity
8
0
100
AcDbSpline
62
7
6
CONTINUOUS
70
0
71
3
72
9
73
5
74
3
42
0.0000001000
43
0.0000001000
44
0.0000000001
40
0.0000000000
40
0.0000000000
40
0.0000000000
40
0.0000000000
40
0.4957238189
40
1.0000000000
40
1.0000000000
40
1.0000000000
40
1.0000000000
10
250.2875156926
20
141.4372145161
30
0.0000000000
10
250.3222359975
20
141.4803049257
30
0.0000000000
10
250.3934140375
20
141.5663172468
30
0.0000000000
10
250.4667202754
20
141.6505214733
30
0.0000000000
10
250.5041880671
20
141.6925336346
30
0.0000000000
11
250.2875156926
21
141.4372145161
31
0.0000000000
11
250.3933282850
21
141.5651373133
31
0.0000000000
11
250.5041880671
21
141.6925336346
31
0.0000000000
0
SPLINE
5
4D1
100
AcDbEntity
8
0
100
AcDbSpline
62
7
6
CONTINUOUS
70
0
71
3
72
9
73
5
74
3
42
0.0000001000
43
0.0000001000
44
0.0000000001
40
0.0000000000
40
0.0000000000
40
0.0000000000
40
0.0000000000
40
0.5000435266
40
1.0000000000
40
1.0000000000
40
1.0000000000
40
1.0000000000
10
250.1298542128
20
140.9265762791
30
0.0000000000
10
250.1550808846
20
141.0120096981
30
0.0000000000
10
250.2065876474
20
141.1825510809
30
0.0000000000
10
250.2601940764
20
141.3524441165
30
0.0000000000
10
250.2875156926
20
141.4372145161
30
0.0000000000
11
250.1298542128
21
140.9265762791
31
0.0000000000
11
250.2071171392
21
141.1824038120
31
0.0000000000
11
250.2875156926
21
141.4372145161
31
0.0000000000
0
SPLINE
5
4D2
100
AcDbEntity
8
0
100
AcDbSpline
62
7
6
CONTINUOUS
70
0
71
3
72
9
73
5
74
3
42
0.0000001000
43
0.0000001000
44
0.0000000001
40
0.0000000000
40
0.0000000000
40
0.0000000000
40
0.0000000000
40
0.5005987632
40
1.0000000000
40
1.0000000000
40
1.0000000000
40
1.0000000000
10
249.9858843121
20
139.9052998051
30
0.0000000000
10
250.0087977390
20
140.0758701415
30
0.0000000000
10
250.0556775010
20
140.4164548996
30
0.0000000000
10
250.1047777221
20
140.7567266568
30
0.0000000000
10
250.1298542128
20
140.9265762791
30
0.0000000000
11
249.9858843121
21
139.9052998051
31
0.0000000000
11
250.0562900859
21
140.4167843210
31
0.0000000000
11
250.1298542128
21
140.9265762791
31
0.0000000000
0
SPLINE
5
4D3
100
AcDbEntity
8
0
100
AcDbSpline
62
7
6
CONTINUOUS
70
0
71
3
72
9
73
5
74
3
42
0.0000001000
43
0.0000001000
44
0.0000000001
40
0.0000000000
40
0.0000000000
40
0.0000000000
40
0.0000000000
40
0.6666561659
40
1.0000000000
40
1.0000000000
40
1.0000000000
40
1.0000000000
10
249.2712828680
20
116.6227179558
30
0.0000000000
10
249.2682580617
20
116.7503464146
30
0.0000000000
10
249.2649075136
20
116.9418220839
30
0.0000000000
10
249.2633375558
20
117.1333178714
30
0.0000000000
10
249.2630120797
20
117.1971526669
30
0.0000000000
11
249.2712828680
21
116.6227179558
31
0.0000000000
11
249.2645820831
21
117.0056522269
31
0.0000000000
11
249.2630120797
21
117.1971526669
31
0.0000000000
0
SPLINE
5
4D4
100
AcDbEntity
8
0
100
AcDbSpline
62
7
6
CONTINUOUS
70
0
71
3
72
8
73
4
74
2
42
0.0000001000
43
0.0000001000
44
0.0000000001
40
0.0000000000
40
0.0000000000
40
0.0000000000
40
0.0000000000
40
1.0000000000
40
1.0000000000
40
1.0000000000
40
1.0000000000
10
249.2630120797
20
117.1971526669
30
0.0000000000
10
249.2627443860
20
117.2496547467
30
0.0000000000
10
249.2626105352
20
117.3021574053
30
0.0000000000
10
249.2626105295
20
117.3546598748
30
0.0000000000
11
249.2630120797
21
117.1971526669
31
0.0000000000
11
249.2626105295
21
117.3546598748
31
0.0000000000
0
SPLINE
5
4D5
100
AcDbEntity
8
0
100
AcDbSpline
62
7
6
CONTINUOUS
70
0
71
3
72
9
73
5
74
3
42
0.0000001000
43
0.0000001000
44
0.0000000001
40
0.0000000000
40
0.0000000000
40
0.0000000000
40
0.0000000000
40
0.5003842949
40
1.0000000000
40
1.0000000000
40
1.0000000000
40
1.0000000000
10
249.9189704363
20
138.8840233311
30
0.0000000000
10
249.9298524792
20
139.0543849984
30
0.0000000000
10
249.9518781490
20
139.3948289386
30
0.0000000000
10
249.9744616105
20
139.7352363331
30
0.0000000000
10
249.9858843121
20
139.9052998051
30
0.0000000000
11
249.9189704363
21
138.8840233311
31
0.0000000000
11
249.9520347400
21
139.3950814499
31
0.0000000000
11
249.9858843121
21
139.9052998051
31
0.0000000000
0
SPLINE
5
4D6
100
AcDbEntity
8
0
100
AcDbSpline
62
7
6
CONTINUOUS
70
0
71
3
72
9
73
5
74
3
42
0.0000001000
43
0.0000001000
44
0.0000000001
40
0.0000000000
40
0.0000000000
40
0.0000000000
40
0.0000000000
40
0.6862623524
40
1.0000000000
40
1.0000000000
40
1.0000000000
40
1.0000000000
10
249.5622851119
20
110.8558115912
30
0.0000000000
10
249.5570243697
20
110.9474491331
30
0.0000000000
10
249.5494606869
20
111.0809863692
30
0.0000000000
10
249.5420456009
20
111.2145319052
30
0.0000000000
10
249.5397338285
20
111.2564309727
30
0.0000000000
11
249.5622851119
21
110.8558115912
31
0.0000000000
11
249.5467130107
21
111.1307361976
31
0.0000000000
11
249.5397338285
21
111.2564309727
31
0.0000000000
0
SPLINE
5
4D7
100
AcDbEntity
8
0
100
AcDbSpline
62
7
6
CONTINUOUS
70
0
71
3
72
9
73
5
74
3
42
0.0000001000
43
0.0000001000
44
0.0000000001
40
0.0000000000
40
0.0000000000
40
0.0000000000
40
0.0000000000
40
0.5002004429
40
1.0000000000
40
1.0000000000
40
1.0000000000
40
1.0000000000
10
249.8867713078
20
137.6074270233
30
0.0000000000
10
249.8920703591
20
137.8202801170
30
0.0000000000
10
249.9027337627
20
138.2458139846
30
0.0000000000
10
249.9135364266
20
138.6713443398
30
0.0000000000
10
249.9189704363
20
138.8840233311
30
0.0000000000
11
249.8867713078
21
137.6074270233
31
0.0000000000
11
249.9027728805
21
138.2459836963
31
0.0000000000
11
249.9189704363
21
138.8840233311
31
0.0000000000
0
SPLINE
5
4D8
100
AcDbEntity
8
0
100
AcDbSpline
62
7
6
CONTINUOUS
70
0
71
3
72
9
73
5
74
3
42
0.0000001000
43
0.0000001000
44
0.0000000001
40
0.0000000000
40
0.0000000000
40
0.0000000000
40
0.0000000000
40
0.5002004429
40
1.0000000000
40
1.0000000000
40
1.0000000000
40
1.0000000000
10
249.8867713078
20
133.7776398882
30
0.0000000000
10
249.8920703591
20
133.5647869138
30
0.0000000000
10
249.9027337627
20
133.1392532846
30
0.0000000000
10
249.9135364266
20
132.7137231679
30
0.0000000000
10
249.9189704363
20
132.5010442957
30
0.0000000000
11
249.8867713078
21
133.7776398882
31
0.0000000000
11
249.9027728805
21
133.1390835730
31
0.0000000000
11
249.9189704363
21
132.5010442957
31
0.0000000000
0
SPLINE
5
4D9
100
AcDbEntity
8
0
100
AcDbSpline
62
7
6
CONTINUOUS
70
0
71
3
72
9
73
5
74
3
42
0.0000001000
43
0.0000001000
44
0.0000000001
40
0.0000000000
40
0.0000000000
40
0.0000000000
40
0.0000000000
40
0.5003842949
40
1.0000000000
40
1.0000000000
40
1.0000000000
40
1.0000000000
10
249.9189704363
20
132.5010442957
30
0.0000000000
10
249.9298524792
20
132.3306825986
30
0.0000000000
10
249.9518781490
20
131.9902385988
30
0.0000000000
10
249.9744616105
20
131.6498311447
30
0.0000000000
10
249.9858843121
20
131.4797676429
30
0.0000000000
11
249.9189704363
21
132.5010442957
31
0.0000000000
11
249.9520347400
21
131.9899860875
31
0.0000000000
11
249.9858843121
21
131.4797676429
31
0.0000000000
0
SPLINE
5
4DA
100
AcDbEntity
8
0
100
AcDbSpline
62
7
6
CONTINUOUS
70
0
71
3
72
9
73
5
74
3
42
0.0000001000
43
0.0000001000
44
0.0000000001
40
0.0000000000
40
0.0000000000
40
0.0000000000
40
0.0000000000
40
0.5005987632
40
1.0000000000
40
1.0000000000
40
1.0000000000
40
1.0000000000
10
249.9858843121
20
131.4797676429
30
0.0000000000
10
250.0087977390
20
131.3091972916
30
0.0000000000
10
250.0556775010
20
130.9686125037
30
0.0000000000
10
250.1047777221
20
130.6283407167
30
0.0000000000
10
250.1298542128
20
130.4584910795
30
0.0000000000
11
249.9858843121
21
131.4797676429
31
0.0000000000
11
250.0562900859
21
130.9682830822
31
0.0000000000
11
250.1298542128
21
130.4584910795
31
0.0000000000
0
SPLINE
5
4DB
100
AcDbEntity
8
0
100
AcDbSpline
62
7
6
CONTINUOUS
70
0
71
3
72
9
73
5
74
3
42
0.0000001000
43
0.0000001000
44
0.0000000001
40
0.0000000000
40
0.0000000000
40
0.0000000000
40
0.0000000000
40
0.5000435269
40
1.0000000000
40
1.0000000000
40
1.0000000000
40
1.0000000000
10
250.1298542128
20
130.4584910795
30
0.0000000000
10
250.1550808845
20
130.3730576493
30
0.0000000000
10
250.2065876474
20
130.2025162442
30
0.0000000000
10
250.2601940764
20
130.0326231863
30
0.0000000000
10
250.2875156926
20
129.9478527755
30
0.0000000000
11
250.1298542128
21
130.4584910795
31
0.0000000000
11
250.2071171392
21
130.2026635130
31
0.0000000000
11
250.2875156926
21
129.9478527755
31
0.0000000000
0
SPLINE
5
4DC
100
AcDbEntity
8
0
100
AcDbSpline
62
7
6
CONTINUOUS
70
0
71
3
72
9
73
5
74
3
42
0.0000001000
43
0.0000001000
44
0.0000000001
40
0.0000000000
40
0.0000000000
40
0.0000000000
40
0.0000000000
40
0.4957238195
40
1.0000000000
40
1.0000000000
40
1.0000000000
40
1.0000000000
10
250.2875156926
20
129.9478527755
30
0.0000000000
10
250.3222359975
20
129.9047623622
30
0.0000000000
10
250.3934140374
20
129.8187500336
30
0.0000000000
10
250.4667202754
20
129.7345457996
30
0.0000000000
10
250.5041880671
20
129.6925336346
30
0.0000000000
11
250.2875156926
21
129.9478527755
31
0.0000000000
11
250.3933282850
21
129.8199299671
31
0.0000000000
11
250.5041880671
21
129.6925336346
31
0.0000000000
0
SPLINE
5
4DD
100
AcDbEntity
8
0
100
AcDbSpline
62
7
6
CONTINUOUS
70
0
71
3
72
9
73
5
74
3
42
0.0000001000
43
0.0000001000
44
0.0000000001
40
0.0000000000
40
0.0000000000
40
0.0000000000
40
0.0000000000
40
0.4962842903
40
1.0000000000
40
1.0000000000
40
1.0000000000
40
1.0000000000
10
249.6247648861
20
118.9205900223
30
0.0000000000
10
249.6350329928
20
118.8777057491
30
0.0000000000
10
249.6581609862
20
118.7918622996
30
0.0000000000
10
249.6859269375
20
118.7074090274
30
0.0000000000
10
249.7010114871
20
118.6652709038
30
0.0000000000
11
249.6247648861
21
118.9205900223
31
0.0000000000
11
249.6591314326
21
118.7928426363
31
0.0000000000
11
249.7010114871
21
118.6652709038
31
0.0000000000
0
SPLINE
5
4DE
100
AcDbEntity
8
0
100
AcDbSpline
62
7
6
CONTINUOUS
70
0
71
3
72
9
73
5
74
3
42
0.0000001000
43
0.0000001000
44
0.0000000001
40
0.0000000000
40
0.0000000000
40
0.0000000000
40
0.0000000000
40
0.4963519597
40
1.0000000000
40
1.0000000000
40
1.0000000000
40
1.0000000000
10
249.3241482377
20
118.9205900223
30
0.0000000000
10
249.3343127807
20
118.8777120052
30
0.0000000000
10
249.3572063334
20
118.7918819837
30
0.0000000000
10
249.3846984449
20
118.7074165005
30
0.0000000000
10
249.3996349242
20
118.6652709038
30
0.0000000000
11
249.3241482377
21
118.9205900223
31
0.0000000000
11
249.3581722254
21
118.7928443813
31
0.0000000000
11
249.3996349242
21
118.6652709038
31
0.0000000000
0
SPLINE
5
4DF
100
AcDbEntity
8
0
100
AcDbSpline
62
7
6
CONTINUOUS
70
0
71
3
72
9
73
5
74
3
42
0.0000001000
43
0.0000001000
44
0.0000000001
40
0.0000000000
40
0.0000000000
40
0.0000000000
40
0.0000000000
40
0.4999820644
40
1.0000000000
40
1.0000000000
40
1.0000000000
40
1.0000000000
10
249.7010114871
20
118.6652709038
30
0.0000000000
10
249.7162834176
20
118.5372863560
30
0.0000000000
10
249.7493390329
20
118.2816014563
30
0.0000000000
10
249.7873891514
20
118.0266121217
30
0.0000000000
10
249.8076557114
20
117.8993135483
30
0.0000000000
11
249.7010114871
21
118.6652709038
31
0.0000000000
11
249.7505863833
21
118.2817845068
31
0.0000000000
11
249.8076557114
21
117.8993135483
31
0.0000000000
0
SPLINE
5
4E0
100
AcDbEntity
8
0
100
AcDbSpline
62
7
6
CONTINUOUS
70
0
71
3
72
9
73
5
74
3
42
0.0000001000
43
0.0000001000
44
0.0000000001
40
0.0000000000
40
0.0000000000
40
0.0000000000
40
0.0000000000
40
0.4999823344
40
1.0000000000
40
1.0000000000
40
1.0000000000
40
1.0000000000
10
249.3996349242
20
118.6652709038
30
0.0000000000
10
249.4147534990
20
118.5372928276
30
0.0000000000
10
249.4474772583
20
118.2816151735
30
0.0000000000
10
249.4851460776
20
118.0266192901
30
0.0000000000
10
249.5052098397
20
117.8993135483
30
0.0000000000
11
249.3996349242
21
118.6652709038
31
0.0000000000
11
249.4487122798
21
118.2817946375
31
0.0000000000
11
249.5052098397
21
117.8993135483
31
0.0000000000
0
SPLINE
5
4E1
100
AcDbEntity
8
0
100
AcDbSpline
62
7
6
CONTINUOUS
70
0
71
3
72
9
73
5
74
3
42
0.0000001000
43
0.0000001000
44
0.0000000001
40
0.0000000000
40
0.0000000000
40
0.0000000000
40
0.0000000000
40
0.5003520076
40
1.0000000000
40
1.0000000000
40
1.0000000000
40
1.0000000000
10
249.8076557114
20
117.8993135483
30
0.0000000000
10
249.8198636257
20
117.7289119692
30
0.0000000000
10
249.8451805123
20
117.3884137310
30
0.0000000000
10
249.8723365884
20
117.0480572312
30
0.0000000000
10
249.8863652873
20
116.8780370743
30
0.0000000000
11
249.8076557114
21
117.8993135483
31
0.0000000000
11
249.8456587808
21
117.3882094996
31
0.0000000000
11
249.8863652873
21
116.8780370743
31
0.0000000000
0
SPLINE
5
4E2
100
AcDbEntity
8
0
100
AcDbSpline
62
7
6
CONTINUOUS
70
0
71
3
72
9
73
5
74
3
42
0.0000001000
43
0.0000001000
44
0.0000000001
40
0.0000000000
40
0.0000000000
40
0.0000000000
40
0.0000000000
40
0.5003449715
40
1.0000000000
40
1.0000000000
40
1.0000000000
40
1.0000000000
10
249.5052098397
20
117.8993135483
30
0.0000000000
10
249.5172946453
20
117.7289157665
30
0.0000000000
10
249.5423563562
20
117.3884190077
30
0.0000000000
10
249.5692382329
20
117.0480611063
30
0.0000000000
10
249.5831253492
20
116.8780370743
30
0.0000000000
11
249.5052098397
21
117.8993135483
31
0.0000000000
11
249.5428293170
21
117.3882188466
31
0.0000000000
11
249.5831253492
21
116.8780370743
31
0.0000000000
0
SPLINE
5
4E3
100
AcDbEntity
8
0
100
AcDbSpline
62
7
6
CONTINUOUS
70
0
71
3
72
9
73
5
74
3
42
0.0000001000
43
0.0000001000
44
0.0000000001
40
0.0000000000
40
0.0000000000
40
0.0000000000
40
0.0000000000
40
0.5003381689
40
1.0000000000
40
1.0000000000
40
1.0000000000
40
1.0000000000
10
249.8863652873
20
116.8780370743
30
0.0000000000
10
249.8957355376
20
116.6651085001
30
0.0000000000
10
249.9148757598
20
116.2395572272
30
0.0000000000
10
249.9348423022
20
115.8140439231
30
0.0000000000
10
249.9450256702
20
115.6014411242
30
0.0000000000
11
249.8863652873
21
116.8780370743
31
0.0000000000
11
249.9150955647
21
116.2392789158
31
0.0000000000
11
249.9450256702
21
115.6014411242
31
0.0000000000
0
SPLINE
5
4E4
100
AcDbEntity
8
0
100
AcDbSpline
62
7
6
CONTINUOUS
70
0
71
3
72
9
73
5
74
3
42
0.0000001000
43
0.0000001000
44
0.0000000001
40
0.0000000000
40
0.0000000000
40
0.0000000000
40
0.0000000000
40
0.5003313601
40
1.0000000000
40
1.0000000000
40
1.0000000000
40
1.0000000000
10
249.5831253492
20
116.8780370743
30
0.0000000000
10
249.5924006773
20
116.6651117818
30
0.0000000000
10
249.6113470968
20
116.2395609063
30
0.0000000000
10
249.6311111119
20
115.8140472178
30
0.0000000000
10
249.6411912299
20
115.6014411242
30
0.0000000000
11
249.5831253492
21
116.8780370743
31
0.0000000000
11
249.6115643229
21
116.2392881942
31
0.0000000000
11
249.6411912299
21
115.6014411242
31
0.0000000000
0
SPLINE
5
4E5
100
AcDbEntity
8
0
100
AcDbSpline
62
7
6
CONTINUOUS
70
0
71
3
72
9
73
5
74
3
42
0.0000001000
43
0.0000001000
44
0.0000000001
40
0.0000000000
40
0.0000000000
40
0.0000000000
40
0.0000000000
40
0.5003381689
40
1.0000000000
40
1.0000000000
40
1.0000000000
40
1.0000000000
10
249.8863652873
20
113.3035688789
30
0.0000000000
10
249.8957355376
20
113.5164974233
30
0.0000000000
10
249.9148757598
20
113.9420486365
30
0.0000000000
10
249.9348423022
20
114.3675618811
30
0.0000000000
10
249.9450256702
20
114.5801646502
30
0.0000000000
11
249.8863652873
21
113.3035688789
31
0.0000000000
11
249.9150955647
21
113.9423269479
31
0.0000000000
11
249.9450256702
21
114.5801646502
31
0.0000000000
0
SPLINE
5
4E6
100
AcDbEntity
8
0
100
AcDbSpline
62
7
6
CONTINUOUS
70
0
71
3
72
9
73
5
74
3
42
0.0000001000
43
0.0000001000
44
0.0000000001
40
0.0000000000
40
0.0000000000
40
0.0000000000
40
0.0000000000
40
0.5003313601
40
1.0000000000
40
1.0000000000
40
1.0000000000
40
1.0000000000
10
249.5831253492
20
113.3035688789
30
0.0000000000
10
249.5924006773
20
113.5164941415
30
0.0000000000
10
249.6113470968
20
113.9420449575
30
0.0000000000
10
249.6311111119
20
114.3675585864
30
0.0000000000
10
249.6411912299
20
114.5801646502
30
0.0000000000
11
249.5831253492
21
113.3035688789
31
0.0000000000
11
249.6115643229
21
113.9423176695
31
0.0000000000
11
249.6411912299
21
114.5801646502
31
0.0000000000
0
SPLINE
5
4E7
100
AcDbEntity
8
0
100
AcDbSpline
62
7
6
CONTINUOUS
70
0
71
3
72
9
73
5
74
3
42
0.0000001000
43
0.0000001000
44
0.0000000001
40
0.0000000000
40
0.0000000000
40
0.0000000000
40
0.0000000000
40
0.5003520076
40
1.0000000000
40
1.0000000000
40
1.0000000000
40
1.0000000000
10
249.8076557114
20
112.2822923155
30
0.0000000000
10
249.8198636257
20
112.4526939094
30
0.0000000000
10
249.8451805123
20
112.7931921775
30
0.0000000000
10
249.8723365884
20
113.1335487071
30
0.0000000000
10
249.8863652873
20
113.3035688789
30
0.0000000000
11
249.8076557114
21
112.2822923155
31
0.0000000000
11
249.8456587808
21
112.7933964089
31
0.0000000000
11
249.8863652873
21
113.3035688789
31
0.0000000000
0
SPLINE
5
4E8
100
AcDbEntity
8
0
100
AcDbSpline
62
7
6
CONTINUOUS
70
0
71
3
72
9
73
5
74
3
42
0.0000001000
43
0.0000001000
44
0.0000000001
40
0.0000000000
40
0.0000000000
40
0.0000000000
40
0.0000000000
40
0.5003449715
40
1.0000000000
40
1.0000000000
40
1.0000000000
40
1.0000000000
10
249.5052098397
20
112.2822923155
30
0.0000000000
10
249.5172946453
20
112.4526901122
30
0.0000000000
10
249.5423563562
20
112.7931869008
30
0.0000000000
10
249.5692382329
20
113.1335448320
30
0.0000000000
10
249.5831253492
20
113.3035688789
30
0.0000000000
11
249.5052098397
21
112.2822923155
31
0.0000000000
11
249.5428293170
21
112.7933870619
31
0.0000000000
11
249.5831253492
21
113.3035688789
31
0.0000000000
0
SPLINE
5
4E9
100
AcDbEntity
8
0
100
AcDbSpline
62
7
6
CONTINUOUS
70
0
71
3
72
9
73
5
74
3
42
0.0000001000
43
0.0000001000
44
0.0000000001
40
0.0000000000
40
0.0000000000
40
0.0000000000
40
0.0000000000
40
0.5000090792
40
1.0000000000
40
1.0000000000
40
1.0000000000
40
1.0000000000
10
249.5225364088
20
135.8201931939
30
0.0000000000
10
249.5293173479
20
135.8627898657
30
0.0000000000
10
249.5431411661
20
135.9479401316
30
0.0000000000
10
249.5574882780
20
136.0330037892
30
0.0000000000
10
249.5647922438
20
136.0755123124
30
0.0000000000
11
249.5225364088
21
135.8201931939
31
0.0000000000
11
249.5432722453
21
135.9479200249
31
0.0000000000
11
249.5647922438
21
136.0755123124
31
0.0000000000
0
SPLINE
5
4EA
100
AcDbEntity
8
0
100
AcDbSpline
62
7
6
CONTINUOUS
70
0
71
3
72
9
73
5
74
3
42
0.0000001000
43
0.0000001000
44
0.0000000001
40
0.0000000000
40
0.0000000000
40
0.0000000000
40
0.0000000000
40
0.4999820646
40
1.0000000000
40
1.0000000000
40
1.0000000000
40
1.0000000000
10
249.7010114871
20
111.5163348929
30
0.0000000000
10
249.7162834176
20
111.6443194519
30
0.0000000000
10
249.7493390329
20
111.9000043740
30
0.0000000000
10
249.7873891513
20
112.1549937309
30
0.0000000000
10
249.8076557114
20
112.2822923155
30
0.0000000000
11
249.7010114871
21
111.5163348929
31
0.0000000000
11
249.7505863833
21
111.8998213235
31
0.0000000000
11
249.8076557114
21
112.2822923155
31
0.0000000000
0
SPLINE
5
4EB
100
AcDbEntity
8
0
100
AcDbSpline
62
7
6
CONTINUOUS
70
0
71
3
72
9
73
5
74
3
42
0.0000001000
43
0.0000001000
44
0.0000000001
40
0.0000000000
40
0.0000000000
40
0.0000000000
40
0.0000000000
40
0.4999823346
40
1.0000000000
40
1.0000000000
40
1.0000000000
40
1.0000000000
10
249.3996349242
20
111.5163348929
30
0.0000000000
10
249.4147534990
20
111.6443129803
30
0.0000000000
10
249.4474772582
20
111.8999906567
30
0.0000000000
10
249.4851460776
20
112.1549865625
30
0.0000000000
10
249.5052098397
20
112.2822923155
30
0.0000000000
11
249.3996349242
21
111.5163348929
31
0.0000000000
11
249.4487122798
21
111.8998111928
31
0.0000000000
11
249.5052098397
21
112.2822923155
31
0.0000000000
0
SPLINE
5
4EC
100
AcDbEntity
8
0
100
AcDbSpline
62
7
6
CONTINUOUS
70
0
71
3
72
9
73
5
74
3
42
0.0000001000
43
0.0000001000
44
0.0000000001
40
0.0000000000
40
0.0000000000
40
0.0000000000
40
0.0000000000
40
0.5000093018
40
1.0000000000
40
1.0000000000
40
1.0000000000
40
1.0000000000
10
249.8251585005
20
135.8201931939
30
0.0000000000
10
249.8320085882
20
135.8627907527
30
0.0000000000
10
249.8459733335
20
135.9479419099
30
0.0000000000
10
249.8604666163
20
136.0330046993
30
0.0000000000
10
249.8678449655
20
136.0755123124
30
0.0000000000
11
249.8251585005
21
135.8201931939
31
0.0000000000
11
249.8461057326
21
135.9479214012
31
0.0000000000
11
249.8678449655
21
136.0755123124
31
0.0000000000
0
SPLINE
5
4ED
100
AcDbEntity
8
0
100
AcDbSpline
62
7
6
CONTINUOUS
70
0
71
3
72
9
73
5
74
3
42
0.0000001000
43
0.0000001000
44
0.0000000001
40
0.0000000000
40
0.0000000000
40
0.0000000000
40
0.0000000000
40
0.4962842909
40
1.0000000000
40
1.0000000000
40
1.0000000000
40
1.0000000000
10
249.6247648861
20
111.2610157521
30
0.0000000000
10
249.6350329928
20
111.3039000290
30
0.0000000000
10
249.6581609861
20
111.3897434859
30
0.0000000000
10
249.6859269375
20
111.4741967655
30
0.0000000000
10
249.7010114871
20
111.5163348929
30
0.0000000000
11
249.6247648861
21
111.2610157521
31
0.0000000000
11
249.6591314326
21
111.3887631493
31
0.0000000000
11
249.7010114871
21
111.5163348929
31
0.0000000000
0
SPLINE
5
4EE
100
AcDbEntity
8
0
100
AcDbSpline
62
7
6
CONTINUOUS
70
0
71
3
72
9
73
5
74
3
42
0.0000001000
43
0.0000001000
44
0.0000000001
40
0.0000000000
40
0.0000000000
40
0.0000000000
40
0.0000000000
40
0.5003485287
40
1.0000000000
40
1.0000000000
40
1.0000000000
40
1.0000000000
10
249.5647922438
20
136.0755123124
30
0.0000000000
10
249.5757699280
20
136.2458840591
30
0.0000000000
10
249.5983143329
20
136.5863515321
30
0.0000000000
10
249.6220694800
20
136.9267366748
30
0.0000000000
10
249.6342418067
20
137.0967887863
30
0.0000000000
11
249.5647922438
21
136.0755123124
31
0.0000000000
11
249.5986331553
21
136.5865682462
31
0.0000000000
11
249.6342418067
21
137.0967887863
31
0.0000000000
0
SPLINE
5
4EF
100
AcDbEntity
8
0
100
AcDbSpline
62
7
6
CONTINUOUS
70
0
71
3
72
9
73
5
74
3
42
0.0000001000
43
0.0000001000
44
0.0000000001
40
0.0000000000
40
0.0000000000
40
0.0000000000
40
0.0000000000
40
0.4963519604
40
1.0000000000
40
1.0000000000
40
1.0000000000
40
1.0000000000
10
249.3241482377
20
111.2610157521
30
0.0000000000
10
249.3343127806
20
111.3038937728
30
0.0000000000
10
249.3572063334
20
111.3897238017
30
0.0000000000
10
249.3846984449
20
111.4741892925
30
0.0000000000
10
249.3996349242
20
111.5163348929
30
0.0000000000
11
249.3241482377
21
111.2610157521
31
0.0000000000
11
249.3581722254
21
111.3887614042
31
0.0000000000
11
249.3996349242
21
111.5163348929
31
0.0000000000
0
SPLINE
5
4F0
100
AcDbEntity
8
0
100
AcDbSpline
62
7
6
CONTINUOUS
70
0
71
3
72
9
73
5
74
3
42
0.0000001000
43
0.0000001000
44
0.0000000001
40
0.0000000000
40
0.0000000000
40
0.0000000000
40
0.0000000000
40
0.5001488691
40
1.0000000000
40
1.0000000000
40
1.0000000000
40
1.0000000000
10
249.6342418067
20
137.0967887863
30
0.0000000000
10
249.6383043447
20
137.2244885349
30
0.0000000000
10
249.6464947721
20
137.4798098610
30
0.0000000000
10
249.6548208564
20
137.7351267994
30
0.0000000000
10
249.6590165932
20
137.8627461418
30
0.0000000000
11
249.6342418067
21
137.0967887863
31
0.0000000000
11
249.6465311451
21
137.4798847823
31
0.0000000000
11
249.6590165932
21
137.8627461418
31
0.0000000000
0
SPLINE
5
4F1
100
AcDbEntity
8
0
100
AcDbSpline
62
7
6
CONTINUOUS
70
0
71
3
72
9
73
5
74
3
42
0.0000001000
43
0.0000001000
44
0.0000000001
40
0.0000000000
40
0.0000000000
40
0.0000000000
40
0.0000000000
40
0.4976569886
40
1.0000000000
40
1.0000000000
40
1.0000000000
40
1.0000000000
10
250.3290962694
20
131.4797676429
30
0.0000000000
10
250.3573345277
20
131.4368689166
30
0.0000000000
10
250.4149076038
20
131.3512116423
30
0.0000000000
10
250.4740783885
20
131.2666505994
30
0.0000000000
10
250.5041880671
20
131.2244485244
30
0.0000000000
11
250.3290962694
21
131.4797676429
31
0.0000000000
11
250.4150335075
21
131.3518845297
31
0.0000000000
11
250.5041880671
21
131.2244485244
31
0.0000000000
0
SPLINE
5
4F2
100
AcDbEntity
8
0
100
AcDbSpline
62
7
6
CONTINUOUS
70
0
71
3
72
9
73
5
74
3
42
0.0000001000
43
0.0000001000
44
0.0000000001
40
0.0000000000
40
0.0000000000
40
0.0000000000
40
0.0000000000
40
0.4976232989
40
1.0000000000
40
1.0000000000
40
1.0000000000
40
1.0000000000
10
250.6401563460
20
131.4797676429
30
0.0000000000
10
250.6687023723
20
131.4368628048
30
0.0000000000
10
250.7269028053
20
131.3511965997
30
0.0000000000
10
250.7867096645
20
131.2666445435
30
0.0000000000
10
250.8171427824
20
131.2244485244
30
0.0000000000
11
250.6401563460
21
131.4797676429
31
0.0000000000
11
250.7270239529
21
131.3518797011
31
0.0000000000
11
250.8171427824
21
131.2244485244
31
0.0000000000
0
SPLINE
5
4F3
100
AcDbEntity
8
0
100
AcDbSpline
62
7
6
CONTINUOUS
70
0
71
3
72
8
73
4
74
2
42
0.0000001000
43
0.0000001000
44
0.0000000001
40
0.0000000000
40
0.0000000000
40
0.0000000000
40
0.0000000000
40
1.0000000000
40
1.0000000000
40
1.0000000000
40
1.0000000000
10
249.2626292530
20
112.7929306419
30
0.0000000000
10
249.2626995433
20
112.7716498789
30
0.0000000000
10
249.2629678351
20
112.7503688506
30
0.0000000000
10
249.2634338486
20
112.7290916934
30
0.0000000000
11
249.2626292530
21
112.7929306419
31
0.0000000000
11
249.2634338486
21
112.7290916934
31
0.0000000000
0
SPLINE
5
4F4
100
AcDbEntity
8
0
100
AcDbSpline
62
7
6
CONTINUOUS
70
0
71
3
72
9
73
5
74
3
42
0.0000001000
43
0.0000001000
44
0.0000000001
40
0.0000000000
40
0.0000000000
40
0.0000000000
40
0.0000000000
40
0.4998358094
40
1.0000000000
40
1.0000000000
40
1.0000000000
40
1.0000000000
10
249.2634338486
20
112.7290916934
30
0.0000000000
10
249.2638999871
20
112.7078088278
30
0.0000000000
10
249.2652283558
20
112.6652368634
30
0.0000000000
10
249.2673474341
20
112.6226969732
30
0.0000000000
10
249.2686042862
20
112.6014321375
30
0.0000000000
11
249.2634338486
21
112.7290916934
31
0.0000000000
11
249.2654254672
21
112.6652588565
31
0.0000000000
11
249.2686042862
21
112.6014321375
31
0.0000000000
0
SPLINE
5
4F5
100
AcDbEntity
8
0
100
AcDbSpline
62
7
6
CONTINUOUS
70
0
71
3
72
8
73
4
74
2
42
0.0000001000
43
0.0000001000
44
0.0000000001
40
0.0000000000
40
0.0000000000
40
0.0000000000
40
0.0000000000
40
1.0000000000
40
1.0000000000
40
1.0000000000
40
1.0000000000
10
249.2686042862
20
112.6014321375
30
0.0000000000
10
249.2698624494
20
112.5801451191
30
0.0000000000
10
249.2713179887
20
112.5588702200
30
0.0000000000
10
249.2729700593
20
112.5376115234
30
0.0000000000
11
249.2686042862
21
112.6014321375
31
0.0000000000
11
249.2729700593
21
112.5376115234
31
0.0000000000
0
SPLINE
5
4F6
100
AcDbEntity
8
0
100
AcDbSpline
62
7
6
CONTINUOUS
70
0
71
3
72
9
73
5
74
3
42
0.0000001000
43
0.0000001000
44
0.0000000001
40
0.0000000000
40
0.0000000000
40
0.0000000000
40
0.0000000000
40
0.5002257713
40
1.0000000000
40
1.0000000000
40
1.0000000000
40
1.0000000000
10
250.2069603922
20
131.9904060587
30
0.0000000000
10
250.2267095473
20
131.9051156508
30
0.0000000000
10
250.2668064006
20
131.7347539579
30
0.0000000000
10
250.3081343834
20
131.5646867296
30
0.0000000000
10
250.3290962694
20
131.4797676429
30
0.0000000000
11
250.2069603922
21
131.9904060587
31
0.0000000000
11
250.2671325664
21
131.7347507150
31
0.0000000000
11
250.3290962694
21
131.4797676429
31
0.0000000000
0
SPLINE
5
4F7
100
AcDbEntity
8
0
100
AcDbSpline
62
7
6
CONTINUOUS
70
0
71
3
72
9
73
5
74
3
42
0.0000001000
43
0.0000001000
44
0.0000000001
40
0.0000000000
40
0.0000000000
40
0.0000000000
40
0.0000000000
40
0.5002304534
40
1.0000000000
40
1.0000000000
40
1.0000000000
40
1.0000000000
10
250.5167124545
20
131.9904060587
30
0.0000000000
10
250.5366731475
20
131.9051116837
30
0.0000000000
10
250.5771992799
20
131.7347467483
30
0.0000000000
10
250.6189700235
20
131.5646826902
30
0.0000000000
10
250.6401563460
20
131.4797676429
30
0.0000000000
11
250.5167124545
21
131.9904060587
31
0.0000000000
11
250.5775293984
21
131.7347435146
31
0.0000000000
11
250.6401563460
21
131.4797676429
31
0.0000000000
0
SPLINE
5
4F8
100
AcDbEntity
8
0
100
AcDbSpline
62
7
6
CONTINUOUS
70
0
71
3
72
9
73
5
74
3
42
0.0000001000
43
0.0000001000
44
0.0000000001
40
0.0000000000
40
0.0000000000
40
0.0000000000
40
0.0000000000
40
0.5004114262
40
1.0000000000
40
1.0000000000
40
1.0000000000
40
1.0000000000
10
250.1298542128
20
132.7563634142
30
0.0000000000
10
250.1424324235
20
132.6285705197
30
0.0000000000
10
250.1678509911
20
132.3732226252
30
0.0000000000
10
250.1938364403
20
132.1179317955
30
0.0000000000
10
250.2069603922
20
131.9904060587
30
0.0000000000
11
250.1298542128
21
132.7563634142
31
0.0000000000
11
250.1680138606
21
132.3730268013
31
0.0000000000
11
250.2069603922
21
131.9904060587
31
0.0000000000
0
SPLINE
5
4F9
100
AcDbEntity
8
0
100
AcDbSpline
62
7
6
CONTINUOUS
70
0
71
3
72
9
73
5
74
3
42
0.0000001000
43
0.0000001000
44
0.0000000001
40
0.0000000000
40
0.0000000000
40
0.0000000000
40
0.0000000000
40
0.5004201441
40
1.0000000000
40
1.0000000000
40
1.0000000000
40
1.0000000000
10
250.4387861859
20
132.7563634142
30
0.0000000000
10
250.4514981049
20
132.6285676591
30
0.0000000000
10
250.4771867203
20
132.3732191182
30
0.0000000000
10
250.5034488445
20
132.1179289232
30
0.0000000000
10
250.5167124545
20
131.9904060587
30
0.0000000000
11
250.4387861859
21
132.7563634142
31
0.0000000000
11
250.4773519244
21
132.3730191628
31
0.0000000000
11
250.5167124545
21
131.9904060587
31
0.0000000000
0
SPLINE
5
4FA
100
AcDbEntity
8
0
100
AcDbSpline
62
7
6
CONTINUOUS
70
0
71
3
72
9
73
5
74
3
42
0.0000001000
43
0.0000001000
44
0.0000000001
40
0.0000000000
40
0.0000000000
40
0.0000000000
40
0.0000000000
40
0.5002315448
40
1.0000000000
40
1.0000000000
40
1.0000000000
40
1.0000000000
10
250.0925864220
20
133.7776398882
30
0.0000000000
10
250.0987295380
20
133.6073457369
30
0.0000000000
10
250.1110810554
20
133.2669176407
30
0.0000000000
10
250.1235747108
20
132.9264947312
30
0.0000000000
10
250.1298542128
20
132.7563634142
30
0.0000000000
11
250.0925864220
21
133.7776398882
31
0.0000000000
11
250.1111223427
21
133.2667612898
31
0.0000000000
11
250.1298542128
21
132.7563634142
31
0.0000000000
0
SPLINE
5
4FB
100
AcDbEntity
8
0
100
AcDbSpline
62
7
6
CONTINUOUS
70
0
71
3
72
9
73
5
74
3
42
0.0000001000
43
0.0000001000
44
0.0000000001
40
0.0000000000
40
0.0000000000
40
0.0000000000
40
0.0000000000
40
0.5002364706
40
1.0000000000
40
1.0000000000
40
1.0000000000
40
1.0000000000
10
250.4011235836
20
133.7776398882
30
0.0000000000
10
250.4073317589
20
133.6073440020
30
0.0000000000
10
250.4198140444
20
133.2669158472
30
0.0000000000
10
250.4324401386
20
132.9264929958
30
0.0000000000
10
250.4387861859
20
132.7563634142
30
0.0000000000
11
250.4011235836
21
133.7776398882
31
0.0000000000
11
250.4198559340
21
133.2667561718
31
0.0000000000
11
250.4387861859
21
132.7563634142
31
0.0000000000
0
SPLINE
5
4FC
100
AcDbEntity
8
0
100
AcDbSpline
62
7
6
CONTINUOUS
70
0
71
3
72
9
73
5
74
3
42
0.0000001000
43
0.0000001000
44
0.0000000001
40
0.0000000000
40
0.0000000000
40
0.0000000000
40
0.0000000000
40
0.5002315448
40
1.0000000000
40
1.0000000000
40
1.0000000000
40
1.0000000000
10
250.0925864220
20
137.6074270233
30
0.0000000000
10
250.0987295380
20
137.7777211747
30
0.0000000000
10
250.1110810554
20
138.1181492709
30
0.0000000000
10
250.1235747108
20
138.4585721804
30
0.0000000000
10
250.1298542128
20
138.6287034973
30
0.0000000000
11
250.0925864220
21
137.6074270233
31
0.0000000000
11
250.1111223427
21
138.1183056217
31
0.0000000000
11
250.1298542128
21
138.6287034973
31
0.0000000000
0
SPLINE
5
4FD
100
AcDbEntity
8
0
100
AcDbSpline
62
7
6
CONTINUOUS
70
0
71
3
72
9
73
5
74
3
42
0.0000001000
43
0.0000001000
44
0.0000000001
40
0.0000000000
40
0.0000000000
40
0.0000000000
40
0.0000000000
40
0.5002364706
40
1.0000000000
40
1.0000000000
40
1.0000000000
40
1.0000000000
10
250.4011235836
20
137.6074270233
30
0.0000000000
10
250.4073317589
20
137.7777229095
30
0.0000000000
10
250.4198140444
20
138.1181510643
30
0.0000000000
10
250.4324401386
20
138.4585739158
30
0.0000000000
10
250.4387861859
20
138.6287034973
30
0.0000000000
11
250.4011235836
21
137.6074270233
31
0.0000000000
11
250.4198559340
21
138.1183107397
31
0.0000000000
11
250.4387861859
21
138.6287034973
31
0.0000000000
0
SPLINE
5
4FE
100
AcDbEntity
8
0
100
AcDbSpline
62
7
6
CONTINUOUS
70
0
71
3
72
9
73
5
74
3
42
0.0000001000
43
0.0000001000
44
0.0000000001
40
0.0000000000
40
0.0000000000
40
0.0000000000
40
0.0000000000
40
0.5004114264
40
1.0000000000
40
1.0000000000
40
1.0000000000
40
1.0000000000
10
250.1298542128
20
138.6287034973
30
0.0000000000
10
250.1424324235
20
138.7564965112
30
0.0000000000
10
250.1678509911
20
139.0118446441
30
0.0000000000
10
250.1938364403
20
139.2671357122
30
0.0000000000
10
250.2069603922
20
139.3946615681
30
0.0000000000
11
250.1298542128
21
138.6287034973
31
0.0000000000
11
250.1680138606
21
139.0120404683
31
0.0000000000
11
250.2069603922
21
139.3946615681
31
0.0000000000
0
SPLINE
5
4FF
100
AcDbEntity
8
0
100
AcDbSpline
62
7
6
CONTINUOUS
70
0
71
3
72
9
73
5
74
3
42
0.0000001000
43
0.0000001000
44
0.0000000001
40
0.0000000000
40
0.0000000000
40
0.0000000000
40
0.0000000000
40
0.5004201442
40
1.0000000000
40
1.0000000000
40
1.0000000000
40
1.0000000000
10
250.4387861859
20
138.6287034973
30
0.0000000000
10
250.4514981049
20
138.7564993718
30
0.0000000000
10
250.4771867203
20
139.0118481511
30
0.0000000000
10
250.5034488445
20
139.2671385846
30
0.0000000000
10
250.5167124545
20
139.3946615681
30
0.0000000000
11
250.4387861859
21
138.6287034973
31
0.0000000000
11
250.4773519244
21
139.0120481067
31
0.0000000000
11
250.5167124545
21
139.3946615681
31
0.0000000000
0
SPLINE
5
500
100
AcDbEntity
8
0
100
AcDbSpline
62
7
6
CONTINUOUS
70
0
71
3
72
9
73
5
74
3
42
0.0000001000
43
0.0000001000
44
0.0000000001
40
0.0000000000
40
0.0000000000
40
0.0000000000
40
0.0000000000
40
0.5002257710
40
1.0000000000
40
1.0000000000
40
1.0000000000
40
1.0000000000
10
250.2069603922
20
139.3946615681
30
0.0000000000
10
250.2267095473
20
139.4799519462
30
0.0000000000
10
250.2668064006
20
139.6503135796
30
0.0000000000
10
250.3081343835
20
139.8203807482
30
0.0000000000
10
250.3290962694
20
139.9052998051
30
0.0000000000
11
250.2069603922
21
139.3946615681
31
0.0000000000
11
250.2671325664
21
139.6503168223
31
0.0000000000
11
250.3290962694
21
139.9052998051
31
0.0000000000
0
SPLINE
5
501
100
AcDbEntity
8
0
100
AcDbSpline
62
7
6
CONTINUOUS
70
0
71
3
72
9
73
5
74
3
42
0.0000001000
43
0.0000001000
44
0.0000000001
40
0.0000000000
40
0.0000000000
40
0.0000000000
40
0.0000000000
40
0.5002304531
40
1.0000000000
40
1.0000000000
40
1.0000000000
40
1.0000000000
10
250.5167124545
20
139.3946615681
30
0.0000000000
10
250.5366731475
20
139.4799559133
30
0.0000000000
10
250.5771992799
20
139.6503207891
30
0.0000000000
10
250.6189700235
20
139.8203847876
30
0.0000000000
10
250.6401563460
20
139.9052998051
30
0.0000000000
11
250.5167124545
21
139.3946615681
31
0.0000000000
11
250.5775293983
21
139.6503240227
31
0.0000000000
11
250.6401563460
21
139.9052998051
31
0.0000000000
0
SPLINE
5
502
100
AcDbEntity
8
0
100
AcDbSpline
62
7
6
CONTINUOUS
70
0
71
3
72
9
73
5
74
3
42
0.0000001000
43
0.0000001000
44
0.0000000001
40
0.0000000000
40
0.0000000000
40
0.0000000000
40
0.0000000000
40
0.4976569886
40
1.0000000000
40
1.0000000000
40
1.0000000000
40
1.0000000000
10
250.3290962694
20
139.9052998051
30
0.0000000000
10
250.3573345277
20
139.9481985314
30
0.0000000000
10
250.4149076038
20
140.0338558057
30
0.0000000000
10
250.4740783885
20
140.1184168486
30
0.0000000000
10
250.5041880671
20
140.1606189236
30
0.0000000000
11
250.3290962694
21
139.9052998051
31
0.0000000000
11
250.4150335075
21
140.0331829184
31
0.0000000000
11
250.5041880671
21
140.1606189236
31
0.0000000000
0
SPLINE
5
503
100
AcDbEntity
8
0
100
AcDbSpline
62
7
6
CONTINUOUS
70
0
71
3
72
9
73
5
74
3
42
0.0000001000
43
0.0000001000
44
0.0000000001
40
0.0000000000
40
0.0000000000
40
0.0000000000
40
0.0000000000
40
0.4976232989
40
1.0000000000
40
1.0000000000
40
1.0000000000
40
1.0000000000
10
250.6401563460
20
139.9052998051
30
0.0000000000
10
250.6687023723
20
139.9482046432
30
0.0000000000
10
250.7269028053
20
140.0338708483
30
0.0000000000
10
250.7867096645
20
140.1184229045
30
0.0000000000
10
250.8171427824
20
140.1606189236
30
0.0000000000
11
250.6401563460
21
139.9052998051
31
0.0000000000
11
250.7270239529
21
140.0331877469
31
0.0000000000
11
250.8171427824
21
140.1606189236
31
0.0000000000
0
SPLINE
5
504
100
AcDbEntity
8
0
100
AcDbSpline
62
7
6
CONTINUOUS
70
0
71
3
72
9
73
5
74
3
42
0.0000001000
43
0.0000001000
44
0.0000000001
40
0.0000000000
40
0.0000000000
40
0.0000000000
40
0.0000000000
40
0.5001488691
40
1.0000000000
40
1.0000000000
40
1.0000000000
40
1.0000000000
10
249.6342418067
20
139.6499806866
30
0.0000000000
10
249.6383043447
20
139.5222809380
30
0.0000000000
10
249.6464947721
20
139.2669596119
30
0.0000000000
10
249.6548208564
20
139.0116426736
30
0.0000000000
10
249.6590165932
20
138.8840233311
30
0.0000000000
11
249.6342418067
21
139.6499806866
31
0.0000000000
11
249.6465311451
21
139.2668846906
31
0.0000000000
11
249.6590165932
21
138.8840233311
31
0.0000000000
0
SPLINE
5
505
100
AcDbEntity
8
0
100
AcDbSpline
62
7
6
CONTINUOUS
70
0
71
3
72
8
73
4
74
2
42
0.0000001000
43
0.0000001000
44
0.0000000001
40
0.0000000000
40
0.0000000000
40
0.0000000000
40
0.0000000000
40
1.0000000000
40
1.0000000000
40
1.0000000000
40
1.0000000000
10
249.9380049725
20
139.6499806866
30
0.0000000000
10
249.9413705627
20
139.5452621948
30
0.0000000000
10
249.9447591909
20
139.4405444418
30
0.0000000000
10
249.9481708792
20
139.3358274398
30
0.0000000000
11
249.9380049725
21
139.6499806866
31
0.0000000000
11
249.9481708792
21
139.3358274398
31
0.0000000000
0
SPLINE
5
506
100
AcDbEntity
8
0
100
AcDbSpline
62
7
6
CONTINUOUS
70
0
71
3
72
9
73
5
74
3
42
0.0000001000
43
0.0000001000
44
0.0000000001
40
0.0000000000
40
0.0000000000
40
0.0000000000
40
0.0000000000
40
0.5003485287
40
1.0000000000
40
1.0000000000
40
1.0000000000
40
1.0000000000
10
249.5647922438
20
140.6712571606
30
0.0000000000
10
249.5757699280
20
140.5008854138
30
0.0000000000
10
249.5983143329
20
140.1604179408
30
0.0000000000
10
249.6220694800
20
139.8200327982
30
0.0000000000
10
249.6342418067
20
139.6499806866
30
0.0000000000
11
249.5647922438
21
140.6712571606
31
0.0000000000
11
249.5986331553
21
140.1602012268
31
0.0000000000
11
249.6342418067
21
139.6499806866
31
0.0000000000
0
SPLINE
5
507
100
AcDbEntity
8
0
100
AcDbSpline
62
7
6
CONTINUOUS
70
0
71
3
72
8
73
4
74
2
42
0.0000001000
43
0.0000001000
44
0.0000000001
40
0.0000000000
40
0.0000000000
40
0.0000000000
40
0.0000000000
40
1.0000000000
40
1.0000000000
40
1.0000000000
40
1.0000000000
10
249.8678449655
20
140.6712571606
30
0.0000000000
10
249.8789348966
20
140.5008821390
30
0.0000000000
10
249.8903303997
20
140.3305268691
30
0.0000000000
10
249.9020322294
20
140.1601926423
30
0.0000000000
11
249.8678449655
21
140.6712571606
31
0.0000000000
11
249.9020322294
21
140.1601926423
31
0.0000000000
0
SPLINE
5
508
100
AcDbEntity
8
0
100
AcDbSpline
62
7
6
CONTINUOUS
70
0
71
3
72
8
73
4
74
2
42
0.0000001000
43
0.0000001000
44
0.0000000001
40
0.0000000000
40
0.0000000000
40
0.0000000000
40
0.0000000000
40
1.0000000000
40
1.0000000000
40
1.0000000000
40
1.0000000000
10
249.9020322294
20
140.1601926423
30
0.0000000000
10
249.9079771551
20
140.0736570882
30
0.0000000000
10
249.9140011433
20
139.9871269654
30
0.0000000000
10
249.9201042983
20
139.9006024450
30
0.0000000000
11
249.9020322294
21
140.1601926423
31
0.0000000000
11
249.9201042983
21
139.9006024450
31
0.0000000000
0
SPLINE
5
509
100
AcDbEntity
8
0
100
AcDbSpline
62
7
6
CONTINUOUS
70
0
71
3
72
8
73
4
74
2
42
0.0000001000
43
0.0000001000
44
0.0000000001
40
0.0000000000
40
0.0000000000
40
0.0000000000
40
0.0000000000
40
1.0000000000
40
1.0000000000
40
1.0000000000
40
1.0000000000
10
249.9201042983
20
139.9006024450
30
0.0000000000
10
249.9259973484
20
139.8170565841
30
0.0000000000
10
249.9319642085
20
139.7335159466
30
0.0000000000
10
249.9380049725
20
139.6499806866
30
0.0000000000
11
249.9201042983
21
139.9006024450
31
0.0000000000
11
249.9380049725
21
139.6499806866
31
0.0000000000
0
SPLINE
5
50A
100
AcDbEntity
8
0
100
AcDbSpline
62
7
6
CONTINUOUS
70
0
71
3
72
9
73
5
74
3
42
0.0000001000
43
0.0000001000
44
0.0000000001
40
0.0000000000
40
0.0000000000
40
0.0000000000
40
0.0000000000
40
0.5002185808
40
1.0000000000
40
1.0000000000
40
1.0000000000
40
1.0000000000
10
249.4834996877
20
141.4372145161
30
0.0000000000
10
249.4959929683
20
141.3093898423
30
0.0000000000
10
249.5220297164
20
141.0539548000
30
0.0000000000
10
249.5501886361
20
140.7987449829
30
0.0000000000
10
249.5647922438
20
140.6712571606
30
0.0000000000
11
249.4834996877
21
141.4372145161
31
0.0000000000
11
249.5225721055
21
141.0538994891
31
0.0000000000
11
249.5647922438
21
140.6712571606
31
0.0000000000
0
SPLINE
5
50B
100
AcDbEntity
8
0
100
AcDbSpline
62
7
6
CONTINUOUS
70
0
71
3
72
9
73
5
74
3
42
0.0000001000
43
0.0000001000
44
0.0000000001
40
0.0000000000
40
0.0000000000
40
0.0000000000
40
0.0000000000
40
0.5002230221
40
1.0000000000
40
1.0000000000
40
1.0000000000
40
1.0000000000
10
249.7857250471
20
141.4372145161
30
0.0000000000
10
249.7983454643
20
141.3093864589
30
0.0000000000
10
249.8246470806
20
141.0539490303
30
0.0000000000
10
249.8530927267
20
140.7987414623
30
0.0000000000
10
249.8678449655
20
140.6712571606
30
0.0000000000
11
249.7857250471
21
141.4372145161
31
0.0000000000
11
249.8251952980
21
141.0538926104
31
0.0000000000
11
249.8678449655
21
140.6712571606
31
0.0000000000
0
SPLINE
5
50C
100
AcDbEntity
8
0
100
AcDbSpline
62
7
6
CONTINUOUS
70
0
71
3
72
9
73
5
74
3
42
0.0000001000
43
0.0000001000
44
0.0000000001
40
0.0000000000
40
0.0000000000
40
0.0000000000
40
0.0000000000
40
0.4974998596
40
1.0000000000
40
1.0000000000
40
1.0000000000
40
1.0000000000
10
249.3999122758
20
141.6925336346
30
0.0000000000
10
249.4122582296
20
141.6497195136
30
0.0000000000
10
249.4386322835
20
141.5641031134
30
0.0000000000
10
249.4680116526
20
141.4794721083
30
0.0000000000
10
249.4834996877
20
141.4372145161
30
0.0000000000
11
249.3999122758
21
141.6925336346
31
0.0000000000
11
249.4392442397
21
141.5647751107
31
0.0000000000
11
249.4834996877
21
141.4372145161
31
0.0000000000
0
SPLINE
5
50D
100
AcDbEntity
8
0
100
AcDbSpline
62
7
6
CONTINUOUS
70
0
71
3
72
9
73
5
74
3
42
0.0000001000
43
0.0000001000
44
0.0000000001
40
0.0000000000
40
0.0000000000
40
0.0000000000
40
0.0000000000
40
0.4974541163
40
1.0000000000
40
1.0000000000
40
1.0000000000
40
1.0000000000
10
249.7012916379
20
141.6925336346
30
0.0000000000
10
249.7137636457
20
141.6497145330
30
0.0000000000
10
249.7404074951
20
141.5640887234
30
0.0000000000
10
249.7700818350
20
141.4794666486
30
0.0000000000
10
249.7857250471
20
141.4372145161
30
0.0000000000
11
249.7012916379
21
141.6925336346
31
0.0000000000
11
249.7410217578
21
141.5647730949
31
0.0000000000
11
249.7857250471
21
141.4372145161
31
0.0000000000
0
SPLINE
5
50E
100
AcDbEntity
8
0
100
AcDbSpline
62
7
6
CONTINUOUS
70
0
71
3
72
9
73
5
74
3
42
0.0000001000
43
0.0000001000
44
0.0000000001
40
0.0000000000
40
0.0000000000
40
0.0000000000
40
0.0000000000
40
0.5004429816
40
1.0000000000
40
1.0000000000
40
1.0000000000
40
1.0000000000
10
251.7298117545
20
139.9052998051
30
0.0000000000
10
251.7408765062
20
139.6923408465
30
0.0000000000
10
251.7630705900
20
139.2668043120
30
0.0000000000
10
251.7854334536
20
138.8412766137
30
0.0000000000
10
251.7966472483
20
138.6287034973
30
0.0000000000
11
251.7298117545
21
139.9052998051
31
0.0000000000
11
251.7631325229
21
139.2664295153
31
0.0000000000
11
251.7966472483
21
138.6287034973
31
0.0000000000
0
SPLINE
5
50F
100
AcDbEntity
8
0
100
AcDbSpline
62
7
6
CONTINUOUS
70
0
71
3
72
9
73
5
74
3
42
0.0000001000
43
0.0000001000
44
0.0000000001
40
0.0000000000
40
0.0000000000
40
0.0000000000
40
0.0000000000
40
0.5004535706
40
1.0000000000
40
1.0000000000
40
1.0000000000
40
1.0000000000
10
252.0567077512
20
139.9052998051
30
0.0000000000
10
252.0679042461
20
139.6923362183
30
0.0000000000
10
252.0903624246
20
139.2667995604
30
0.0000000000
10
252.1129920301
20
138.8412719844
30
0.0000000000
10
252.1243395028
20
138.6287034973
30
0.0000000000
11
252.0567077512
21
139.9052998051
31
0.0000000000
11
252.0904257319
21
139.2664158131
31
0.0000000000
11
252.1243395028
21
138.6287034973
31
0.0000000000
0
SPLINE
5
510
100
AcDbEntity
8
0
100
AcDbSpline
62
7
6
CONTINUOUS
70
0
71
3
72
9
73
5
74
3
42
0.0000001000
43
0.0000001000
44
0.0000000001
40
0.0000000000
40
0.0000000000
40
0.0000000000
40
0.0000000000
40
0.5010868147
40
1.0000000000
40
1.0000000000
40
1.0000000000
40
1.0000000000
10
251.4725196380
20
140.9265762791
30
0.0000000000
10
251.5142437775
20
140.7556820122
30
0.0000000000
10
251.5987570580
20
140.4149377704
30
0.0000000000
10
251.6857721525
20
140.0748237715
30
0.0000000000
10
251.7298117545
20
139.9052998051
30
0.0000000000
11
251.4725196380
21
140.9265762791
31
0.0000000000
11
251.5995689340
21
140.4143553651
31
0.0000000000
11
251.7298117545
21
139.9052998051
31
0.0000000000
0
SPLINE
5
511
100
AcDbEntity
8
0
100
AcDbSpline
62
7
6
CONTINUOUS
70
0
71
3
72
9
73
5
74
3
42
0.0000001000
43
0.0000001000
44
0.0000000001
40
0.0000000000
40
0.0000000000
40
0.0000000000
40
0.0000000000
40
0.5011111634
40
1.0000000000
40
1.0000000000
40
1.0000000000
40
1.0000000000
10
251.7963863301
20
140.9265762791
30
0.0000000000
10
251.8386011745
20
140.7556656868
30
0.0000000000
10
251.9241068527
20
140.4149132004
30
0.0000000000
10
252.0121491039
20
140.0748072356
30
0.0000000000
10
252.0567077512
20
139.9052998051
30
0.0000000000
11
251.7963863301
21
140.9265762791
31
0.0000000000
11
251.9249338392
21
140.4143182866
31
0.0000000000
11
252.0567077512
21
139.9052998051
31
0.0000000000
0
SPLINE
5
512
100
AcDbEntity
8
0
100
AcDbSpline
62
7
6
CONTINUOUS
70
0
71
3
72
9
73
5
74
3
42
0.0000001000
43
0.0000001000
44
0.0000000001
40
0.0000000000
40
0.0000000000
40
0.0000000000
40
0.0000000000
40
0.5000913231
40
1.0000000000
40
1.0000000000
40
1.0000000000
40
1.0000000000
10
251.2309789564
20
141.4372145161
30
0.0000000000
10
251.2701803633
20
141.3515959795
30
0.0000000000
10
251.3496396006
20
141.1808784233
30
0.0000000000
10
251.4312159332
20
141.0111624017
30
0.0000000000
10
251.4725196380
20
140.9265762791
30
0.0000000000
11
251.2309789564
21
141.4372145161
31
0.0000000000
11
251.3501835807
21
141.1810977175
31
0.0000000000
11
251.4725196380
21
140.9265762791
31
0.0000000000
0
SPLINE
5
513
100
AcDbEntity
8
0
100
AcDbSpline
62
7
6
CONTINUOUS
70
0
71
3
72
9
73
5
74
3
42
0.0000001000
43
0.0000001000
44
0.0000000001
40
0.0000000000
40
0.0000000000
40
0.0000000000
40
0.0000000000
40
0.5000942771
40
1.0000000000
40
1.0000000000
40
1.0000000000
40
1.0000000000
10
251.5520527416
20
141.4372145161
30
0.0000000000
10
251.5917088201
20
141.3515844883
30
0.0000000000
10
251.6720881572
20
141.1808558097
30
0.0000000000
10
251.7546065974
20
141.0111507807
30
0.0000000000
10
251.7963863301
20
140.9265762791
30
0.0000000000
11
251.5520527416
21
141.4372145161
31
0.0000000000
11
251.6726382905
21
141.1810796270
31
0.0000000000
11
251.7963863301
21
140.9265762791
31
0.0000000000
0
SPLINE
5
514
100
AcDbEntity
8
0
100
AcDbSpline
62
7
6
CONTINUOUS
70
0
71
3
72
9
73
5
74
3
42
0.0000001000
43
0.0000001000
44
0.0000000001
40
0.0000000000
40
0.0000000000
40
0.0000000000
40
0.0000000000
40
0.4956031342
40
1.0000000000
40
1.0000000000
40
1.0000000000
40
1.0000000000
10
250.9505978431
20
141.6925336346
30
0.0000000000
10
250.9960082794
20
141.6493727283
30
0.0000000000
10
251.0885928611
20
141.5632881553
30
0.0000000000
10
251.1829610618
20
141.4791641821
30
0.0000000000
10
251.2309789564
20
141.4372145161
30
0.0000000000
11
250.9505978431
21
141.6925336346
31
0.0000000000
11
251.0882167940
21
141.5645267273
31
0.0000000000
11
251.2309789564
21
141.4372145161
31
0.0000000000
0
SPLINE
5
515
100
AcDbEntity
8
0
100
AcDbSpline
62
7
6
CONTINUOUS
70
0
71
3
72
9
73
5
74
3
42
0.0000001000
43
0.0000001000
44
0.0000000001
40
0.0000000000
40
0.0000000000
40
0.0000000000
40
0.0000000000
40
0.4955595639
40
1.0000000000
40
1.0000000000
40
1.0000000000
40
1.0000000000
10
251.2684897627
20
141.6925336346
30
0.0000000000
10
251.3144201235
20
141.6493635865
30
0.0000000000
10
251.4080641792
20
141.5632665571
30
0.0000000000
10
251.5034945741
20
141.4791554265
30
0.0000000000
10
251.5520527416
20
141.4372145161
30
0.0000000000
11
251.2684897627
21
141.6925336346
31
0.0000000000
11
251.4076712262
21
141.5645188694
31
0.0000000000
11
251.5520527416
21
141.4372145161
31
0.0000000000
0
SPLINE
5
516
100
AcDbEntity
8
0
100
AcDbSpline
62
7
6
CONTINUOUS
70
0
71
3
72
8
73
4
74
2
42
0.0000001000
43
0.0000001000
44
0.0000000001
40
0.0000000000
40
0.0000000000
40
0.0000000000
40
0.0000000000
40
1.0000000000
40
1.0000000000
40
1.0000000000
40
1.0000000000
10
249.2626292530
20
117.3886753113
30
0.0000000000
10
249.2626995433
20
117.4099560742
30
0.0000000000
10
249.2629678351
20
117.4312371026
30
0.0000000000
10
249.2634338486
20
117.4525142598
30
0.0000000000
11
249.2626292530
21
117.3886753113
31
0.0000000000
11
249.2634338486
21
117.4525142598
31
0.0000000000
0
SPLINE
5
517
100
AcDbEntity
8
0
100
AcDbSpline
62
7
6
CONTINUOUS
70
0
71
3
72
9
73
5
74
3
42
0.0000001000
43
0.0000001000
44
0.0000000001
40
0.0000000000
40
0.0000000000
40
0.0000000000
40
0.0000000000
40
0.4998358094
40
1.0000000000
40
1.0000000000
40
1.0000000000
40
1.0000000000
10
249.2634338486
20
117.4525142598
30
0.0000000000
10
249.2638999871
20
117.4737971254
30
0.0000000000
10
249.2652283558
20
117.5163690898
30
0.0000000000
10
249.2673474341
20
117.5589089800
30
0.0000000000
10
249.2686042862
20
117.5801738156
30
0.0000000000
11
249.2634338486
21
117.4525142598
31
0.0000000000
11
249.2654254672
21
117.5163470967
31
0.0000000000
11
249.2686042862
21
117.5801738156
31
0.0000000000
0
SPLINE
5
518
100
AcDbEntity
8
0
100
AcDbSpline
62
7
6
CONTINUOUS
70
0
71
3
72
8
73
4
74
2
42
0.0000001000
43
0.0000001000
44
0.0000000001
40
0.0000000000
40
0.0000000000
40
0.0000000000
40
0.0000000000
40
1.0000000000
40
1.0000000000
40
1.0000000000
40
1.0000000000
10
249.2686042862
20
117.5801738156
30
0.0000000000
10
249.2698624494
20
117.6014608341
30
0.0000000000
10
249.2713179887
20
117.6227357332
30
0.0000000000
10
249.2729700593
20
117.6439944298
30
0.0000000000
11
249.2686042862
21
117.5801738156
31
0.0000000000
11
249.2729700593
21
117.6439944298
31
0.0000000000
0
SPLINE
5
519
100
AcDbEntity
8
0
100
AcDbSpline
62
7
6
CONTINUOUS
70
0
71
3
72
9
73
5
74
3
42
0.0000001000
43
0.0000001000
44
0.0000000001
40
0.0000000000
40
0.0000000000
40
0.0000000000
40
0.0000000000
40
0.4974998601
40
1.0000000000
40
1.0000000000
40
1.0000000000
40
1.0000000000
10
249.3999122758
20
129.6925336346
30
0.0000000000
10
249.4122582296
20
129.7353477593
30
0.0000000000
10
249.4386322835
20
129.8209641669
30
0.0000000000
10
249.4680116526
20
129.9055951795
30
0.0000000000
10
249.4834996877
20
129.9478527755
30
0.0000000000
11
249.3999122758
21
129.6925336346
31
0.0000000000
11
249.4392442397
21
129.8202921696
31
0.0000000000
11
249.4834996877
21
129.9478527755
31
0.0000000000
0
SPLINE
5
51A
100
AcDbEntity
8
0
100
AcDbSpline
62
7
6
CONTINUOUS
70
0
71
3
72
9
73
5
74
3
42
0.0000001000
43
0.0000001000
44
0.0000000001
40
0.0000000000
40
0.0000000000
40
0.0000000000
40
0.0000000000
40
0.4974541168
40
1.0000000000
40
1.0000000000
40
1.0000000000
40
1.0000000000
10
249.7012916379
20
129.6925336346
30
0.0000000000
10
249.7137636457
20
129.7353527399
30
0.0000000000
10
249.7404074951
20
129.8209785570
30
0.0000000000
10
249.7700818350
20
129.9056006392
30
0.0000000000
10
249.7857250471
20
129.9478527755
30
0.0000000000
11
249.7012916379
21
129.6925336346
31
0.0000000000
11
249.7410217578
21
129.8202941855
31
0.0000000000
11
249.7857250471
21
129.9478527755
31
0.0000000000
0
SPLINE
5
51B
100
AcDbEntity
8
0
100
AcDbSpline
62
7
6
CONTINUOUS
70
0
71
3
72
9
73
5
74
3
42
0.0000001000
43
0.0000001000
44
0.0000000001
40
0.0000000000
40
0.0000000000
40
0.0000000000
40
0.0000000000
40
0.5002185808
40
1.0000000000
40
1.0000000000
40
1.0000000000
40
1.0000000000
10
249.4834996877
20
129.9478527755
30
0.0000000000
10
249.4959929683
20
130.0756774605
30
0.0000000000
10
249.5220297164
20
130.3311125251
30
0.0000000000
10
249.5501886361
20
130.5863223646
30
0.0000000000
10
249.5647922438
20
130.7138101980
30
0.0000000000
11
249.4834996877
21
129.9478527755
31
0.0000000000
11
249.5225721055
21
130.3311678360
31
0.0000000000
11
249.5647922438
21
130.7138101980
31
0.0000000000
0
SPLINE
5
51C
100
AcDbEntity
8
0
100
AcDbSpline
62
7
6
CONTINUOUS
70
0
71
3
72
9
73
5
74
3
42
0.0000001000
43
0.0000001000
44
0.0000000001
40
0.0000000000
40
0.0000000000
40
0.0000000000
40
0.0000000000
40
0.5002230221
40
1.0000000000
40
1.0000000000
40
1.0000000000
40
1.0000000000
10
249.7857250471
20
129.9478527755
30
0.0000000000
10
249.7983454643
20
130.0756808438
30
0.0000000000
10
249.8246470806
20
130.3311182948
30
0.0000000000
10
249.8530927267
20
130.5863258852
30
0.0000000000
10
249.8678449655
20
130.7138101980
30
0.0000000000
11
249.7857250471
21
129.9478527755
31
0.0000000000
11
249.8251952980
21
130.3311747148
31
0.0000000000
11
249.8678449655
21
130.7138101980
31
0.0000000000
0
SPLINE
5
51D
100
AcDbEntity
8
0
100
AcDbSpline
62
7
6
CONTINUOUS
70
0
71
3
72
9
73
5
74
3
42
0.0000001000
43
0.0000001000
44
0.0000000001
40
0.0000000000
40
0.0000000000
40
0.0000000000
40
0.0000000000
40
0.5003485287
40
1.0000000000
40
1.0000000000
40
1.0000000000
40
1.0000000000
10
249.5647922438
20
130.7138101980
30
0.0000000000
10
249.5757699280
20
130.8841819597
30
0.0000000000
10
249.5983143329
20
131.2246494625
30
0.0000000000
10
249.6220694800
20
131.5650346350
30
0.0000000000
10
249.6342418067
20
131.7350867614
30
0.0000000000
11
249.5647922438
21
130.7138101980
31
0.0000000000
11
249.5986331553
21
131.2248661766
31
0.0000000000
11
249.6342418067
21
131.7350867614
31
0.0000000000
0
SPLINE
5
51E
100
AcDbEntity
8
0
100
AcDbSpline
62
7
6
CONTINUOUS
70
0
71
3
72
8
73
4
74
2
42
0.0000001000
43
0.0000001000
44
0.0000000001
40
0.0000000000
40
0.0000000000
40
0.0000000000
40
0.0000000000
40
1.0000000000
40
1.0000000000
40
1.0000000000
40
1.0000000000
10
249.8678449655
20
130.7138101980
30
0.0000000000
10
249.8789348966
20
130.8841852345
30
0.0000000000
10
249.8903303997
20
131.0545405194
30
0.0000000000
10
249.9020322294
20
131.2248747610
30
0.0000000000
11
249.8678449655
21
130.7138101980
31
0.0000000000
11
249.9020322294
21
131.2248747610
31
0.0000000000
0
SPLINE
5
51F
100
AcDbEntity
8
0
100
AcDbSpline
62
7
6
CONTINUOUS
70
0
71
3
72
8
73
4
74
2
42
0.0000001000
43
0.0000001000
44
0.0000000001
40
0.0000000000
40
0.0000000000
40
0.0000000000
40
0.0000000000
40
1.0000000000
40
1.0000000000
40
1.0000000000
40
1.0000000000
10
249.9020322294
20
131.2248747610
30
0.0000000000
10
249.9079771556
20
131.3114103298
30
0.0000000000
10
249.9140011443
20
131.3979404674
30
0.0000000000
10
249.9201042998
20
131.4844650025
30
0.0000000000
11
249.9020322294
21
131.2248747610
31
0.0000000000
11
249.9201042998
21
131.4844650025
31
0.0000000000
0
SPLINE
5
520
100
AcDbEntity
8
0
100
AcDbSpline
62
7
6
CONTINUOUS
70
0
71
3
72
8
73
4
74
2
42
0.0000001000
43
0.0000001000
44
0.0000000001
40
0.0000000000
40
0.0000000000
40
0.0000000000
40
0.0000000000
40
1.0000000000
40
1.0000000000
40
1.0000000000
40
1.0000000000
10
249.9201042998
20
131.4844650025
30
0.0000000000
10
249.9259973494
20
131.5680108635
30
0.0000000000
10
249.9319642090
20
131.6515515012
30
0.0000000000
10
249.9380049725
20
131.7350867614
30
0.0000000000
11
249.9201042998
21
131.4844650025
31
0.0000000000
11
249.9380049725
21
131.7350867614
31
0.0000000000
0
SPLINE
5
521
100
AcDbEntity
8
0
100
AcDbSpline
62
7
6
CONTINUOUS
70
0
71
3
72
9
73
5
74
3
42
0.0000001000
43
0.0000001000
44
0.0000000001
40
0.0000000000
40
0.0000000000
40
0.0000000000
40
0.0000000000
40
0.5001488691
40
1.0000000000
40
1.0000000000
40
1.0000000000
40
1.0000000000
10
249.6342418067
20
131.7350867614
30
0.0000000000
10
249.6383043447
20
131.8627865398
30
0.0000000000
10
249.6464947721
20
132.1181079255
30
0.0000000000
10
249.6548208564
20
132.3734249235
30
0.0000000000
10
249.6590165932
20
132.5010442957
30
0.0000000000
11
249.6342418067
21
131.7350867614
31
0.0000000000
11
249.6465311451
21
132.1181828468
31
0.0000000000
11
249.6590165932
21
132.5010442957
31
0.0000000000
0
SPLINE
5
522
100
AcDbEntity
8
0
100
AcDbSpline
62
7
6
CONTINUOUS
70
0
71
3
72
8
73
4
74
2
42
0.0000001000
43
0.0000001000
44
0.0000000001
40
0.0000000000
40
0.0000000000
40
0.0000000000
40
0.0000000000
40
1.0000000000
40
1.0000000000
40
1.0000000000
40
1.0000000000
10
249.9380049725
20
131.7350867614
30
0.0000000000
10
249.9413705629
20
131.8398052836
30
0.0000000000
10
249.9447591912
20
131.9445230669
30
0.0000000000
10
249.9481708798
20
132.0492400991
30
0.0000000000
11
249.9380049725
21
131.7350867614
31
0.0000000000
11
249.9481708798
21
132.0492400991
31
0.0000000000
0
SPLINE
5
523
100
AcDbEntity
8
0
100
AcDbSpline
62
7
6
CONTINUOUS
70
0
71
3
72
9
73
5
74
3
42
0.0000001000
43
0.0000001000
44
0.0000000001
40
0.0000000000
40
0.0000000000
40
0.0000000000
40
0.0000000000
40
0.5001488691
40
1.0000000000
40
1.0000000000
40
1.0000000000
40
1.0000000000
10
249.6342418067
20
134.5435976014
30
0.0000000000
10
249.6383043447
20
134.4158977932
30
0.0000000000
10
249.6464947721
20
134.1605763478
30
0.0000000000
10
249.6548208564
20
133.9052592903
30
0.0000000000
10
249.6590165932
20
133.7776398882
30
0.0000000000
11
249.6342418067
21
134.5435976014
31
0.0000000000
11
249.6465311451
21
134.1605014265
31
0.0000000000
11
249.6590165932
21
133.7776398882
31
0.0000000000
0
SPLINE
5
524
100
AcDbEntity
8
0
100
AcDbSpline
62
7
6
CONTINUOUS
70
0
71
3
72
9
73
5
74
3
42
0.0000001000
43
0.0000001000
44
0.0000000001
40
0.0000000000
40
0.0000000000
40
0.0000000000
40
0.0000000000
40
0.5003485287
40
1.0000000000
40
1.0000000000
40
1.0000000000
40
1.0000000000
10
249.5647922438
20
135.5648740754
30
0.0000000000
10
249.5757699280
20
135.3945023286
30
0.0000000000
10
249.5983143329
20
135.0540348556
30
0.0000000000
10
249.6220694800
20
134.7136497129
30
0.0000000000
10
249.6342418067
20
134.5435976014
30
0.0000000000
11
249.5647922438
21
135.5648740754
31
0.0000000000
11
249.5986331553
21
135.0538181415
31
0.0000000000
11
249.6342418067
21
134.5435976014
31
0.0000000000
0
SPLINE
5
525
100
AcDbEntity
8
0
100
AcDbSpline
62
7
6
CONTINUOUS
70
0
71
3
72
9
73
5
74
3
42
0.0000001000
43
0.0000001000
44
0.0000000001
40
0.0000000000
40
0.0000000000
40
0.0000000000
40
0.0000000000
40
0.5000090792
40
1.0000000000
40
1.0000000000
40
1.0000000000
40
1.0000000000
10
249.5225364088
20
135.8201931939
30
0.0000000000
10
249.5293173479
20
135.7775965220
30
0.0000000000
10
249.5431411661
20
135.6924462561
30
0.0000000000
10
249.5574882780
20
135.6073825985
30
0.0000000000
10
249.5647922438
20
135.5648740754
30
0.0000000000
11
249.5225364088
21
135.8201931939
31
0.0000000000
11
249.5432722453
21
135.6924663628
31
0.0000000000
11
249.5647922438
21
135.5648740754
31
0.0000000000
0
SPLINE
5
526
100
AcDbEntity
8
0
100
AcDbSpline
62
7
6
CONTINUOUS
70
0
71
3
72
9
73
5
74
3
42
0.0000001000
43
0.0000001000
44
0.0000000001
40
0.0000000000
40
0.0000000000
40
0.0000000000
40
0.0000000000
40
0.4956031347
40
1.0000000000
40
1.0000000000
40
1.0000000000
40
1.0000000000
10
250.9505978431
20
129.6925336346
30
0.0000000000
10
250.9960082793
20
129.7356945446
30
0.0000000000
10
251.0885928610
20
129.8217791251
30
0.0000000000
10
251.1829610617
20
129.9059031058
30
0.0000000000
10
251.2309789564
20
129.9478527755
30
0.0000000000
11
250.9505978431
21
129.6925336346
31
0.0000000000
11
251.0882167940
21
129.8205405531
31
0.0000000000
11
251.2309789564
21
129.9478527755
31
0.0000000000
0
SPLINE
5
527
100
AcDbEntity
8
0
100
AcDbSpline
62
7
6
CONTINUOUS
70
0
71
3
72
9
73
5
74
3
42
0.0000001000
43
0.0000001000
44
0.0000000001
40
0.0000000000
40
0.0000000000
40
0.0000000000
40
0.0000000000
40
0.4955595644
40
1.0000000000
40
1.0000000000
40
1.0000000000
40
1.0000000000
10
251.2684897627
20
129.6925336346
30
0.0000000000
10
251.3144201235
20
129.7357036864
30
0.0000000000
10
251.4080641791
20
129.8218007233
30
0.0000000000
10
251.5034945740
20
129.9059118614
30
0.0000000000
10
251.5520527416
20
129.9478527755
30
0.0000000000
11
251.2684897627
21
129.6925336346
31
0.0000000000
11
251.4076712262
21
129.8205484110
31
0.0000000000
11
251.5520527416
21
129.9478527755
31
0.0000000000
0
SPLINE
5
528
100
AcDbEntity
8
0
100
AcDbSpline
62
7
6
CONTINUOUS
70
0
71
3
72
9
73
5
74
3
42
0.0000001000
43
0.0000001000
44
0.0000000001
40
0.0000000000
40
0.0000000000
40
0.0000000000
40
0.0000000000
40
0.5000093018
40
1.0000000000
40
1.0000000000
40
1.0000000000
40
1.0000000000
10
249.8251585005
20
135.8201931939
30
0.0000000000
10
249.8320085882
20
135.7775956350
30
0.0000000000
10
249.8459733335
20
135.6924444778
30
0.0000000000
10
249.8604666163
20
135.6073816884
30
0.0000000000
10
249.8678449655
20
135.5648740754
30
0.0000000000
11
249.8251585005
21
135.8201931939
31
0.0000000000
11
249.8461057326
21
135.6924649865
31
0.0000000000
11
249.8678449655
21
135.5648740754
31
0.0000000000
0
SPLINE
5
529
100
AcDbEntity
8
0
100
AcDbSpline
62
7
6
CONTINUOUS
70
0
71
3
72
9
73
5
74
3
42
0.0000001000
43
0.0000001000
44
0.0000000001
40
0.0000000000
40
0.0000000000
40
0.0000000000
40
0.0000000000
40
0.5000913235
40
1.0000000000
40
1.0000000000
40
1.0000000000
40
1.0000000000
10
251.2309789564
20
129.9478527755
30
0.0000000000
10
251.2701803633
20
130.0334713232
30
0.0000000000
10
251.3496396006
20
130.2041889017
30
0.0000000000
10
251.4312159331
20
130.3739049458
30
0.0000000000
10
251.4725196380
20
130.4584910795
30
0.0000000000
11
251.2309789564
21
129.9478527755
31
0.0000000000
11
251.3501835807
21
130.2039696077
31
0.0000000000
11
251.4725196380
21
130.4584910795
31
0.0000000000
0
SPLINE
5
52A
100
AcDbEntity
8
0
100
AcDbSpline
62
7
6
CONTINUOUS
70
0
71
3
72
9
73
5
74
3
42
0.0000001000
43
0.0000001000
44
0.0000000001
40
0.0000000000
40
0.0000000000
40
0.0000000000
40
0.0000000000
40
0.5000942775
40
1.0000000000
40
1.0000000000
40
1.0000000000
40
1.0000000000
10
251.5520527416
20
129.9478527755
30
0.0000000000
10
251.5917088201
20
130.0334828144
30
0.0000000000
10
251.6720881571
20
130.2042115153
30
0.0000000000
10
251.7546065974
20
130.3739165668
30
0.0000000000
10
251.7963863301
20
130.4584910795
30
0.0000000000
11
251.5520527416
21
129.9478527755
31
0.0000000000
11
251.6726382906
21
130.2039876982
31
0.0000000000
11
251.7963863301
21
130.4584910795
31
0.0000000000
0
SPLINE
5
52B
100
AcDbEntity
8
0
100
AcDbSpline
62
7
6
CONTINUOUS
70
0
71
3
72
9
73
5
74
3
42
0.0000001000
43
0.0000001000
44
0.0000000001
40
0.0000000000
40
0.0000000000
40
0.0000000000
40
0.0000000000
40
0.5010868148
40
1.0000000000
40
1.0000000000
40
1.0000000000
40
1.0000000000
10
251.4725196380
20
130.4584910795
30
0.0000000000
10
251.5142437775
20
130.6293853613
30
0.0000000000
10
251.5987570580
20
130.9701296330
30
0.0000000000
10
251.6857721525
20
131.3102436617
30
0.0000000000
10
251.7298117545
20
131.4797676429
30
0.0000000000
11
251.4725196380
21
130.4584910795
31
0.0000000000
11
251.5995689340
21
130.9707120384
31
0.0000000000
11
251.7298117545
21
131.4797676429
31
0.0000000000
0
SPLINE
5
52C
100
AcDbEntity
8
0
100
AcDbSpline
62
7
6
CONTINUOUS
70
0
71
3
72
9
73
5
74
3
42
0.0000001000
43
0.0000001000
44
0.0000000001
40
0.0000000000
40
0.0000000000
40
0.0000000000
40
0.0000000000
40
0.5011111635
40
1.0000000000
40
1.0000000000
40
1.0000000000
40
1.0000000000
10
251.7963863301
20
130.4584910795
30
0.0000000000
10
251.8386011745
20
130.6294016868
30
0.0000000000
10
251.9241068527
20
130.9701542029
30
0.0000000000
10
252.0121491039
20
131.3102601975
30
0.0000000000
10
252.0567077512
20
131.4797676429
30
0.0000000000
11
251.7963863301
21
130.4584910795
31
0.0000000000
11
251.9249338392
21
130.9707491168
31
0.0000000000
11
252.0567077512
21
131.4797676429
31
0.0000000000
0
SPLINE
5
52D
100
AcDbEntity
8
0
100
AcDbSpline
62
7
6
CONTINUOUS
70
0
71
3
72
9
73
5
74
3
42
0.0000001000
43
0.0000001000
44
0.0000000001
40
0.0000000000
40
0.0000000000
40
0.0000000000
40
0.0000000000
40
0.5004386492
40
1.0000000000
40
1.0000000000
40
1.0000000000
40
1.0000000000
10
251.7298117545
20
131.4797676429
30
0.0000000000
10
251.7408765386
20
131.6501352428
30
0.0000000000
10
251.7630707526
20
131.9905663253
30
0.0000000000
10
251.7854334873
20
132.3309863792
30
0.0000000000
10
251.7966472483
20
132.5010442957
30
0.0000000000
11
251.7298117545
21
131.4797676429
31
0.0000000000
11
251.7631324277
21
131.9908622229
31
0.0000000000
11
251.7966472483
21
132.5010442957
31
0.0000000000
0
SPLINE
5
52E
100
AcDbEntity
8
0
100
AcDbSpline
62
7
6
CONTINUOUS
70
0
71
3
72
9
73
5
74
3
42
0.0000001000
43
0.0000001000
44
0.0000000001
40
0.0000000000
40
0.0000000000
40
0.0000000000
40
0.0000000000
40
0.5004491187
40
1.0000000000
40
1.0000000000
40
1.0000000000
40
1.0000000000
10
252.0567077512
20
131.4797676429
30
0.0000000000
10
252.0679042798
20
131.6501389594
30
0.0000000000
10
252.0903625937
20
131.9905701954
30
0.0000000000
10
252.1129920652
20
132.3309900969
30
0.0000000000
10
252.1243395028
20
132.5010442957
30
0.0000000000
11
252.0567077512
21
131.4797676429
31
0.0000000000
11
252.0904256329
21
131.9908731448
31
0.0000000000
11
252.1243395028
21
132.5010442957
31
0.0000000000
0
SPLINE
5
52F
100
AcDbEntity
8
0
100
AcDbSpline
62
7
6
CONTINUOUS
70
0
71
3
72
9
73
5
74
3
42
0.0000001000
43
0.0000001000
44
0.0000000001
40
0.0000000000
40
0.0000000000
40
0.0000000000
40
0.0000000000
40
0.5003578566
40
1.0000000000
40
1.0000000000
40
1.0000000000
40
1.0000000000
10
250.8692451040
20
113.8142072947
30
0.0000000000
10
250.8788993280
20
113.6864476718
30
0.0000000000
10
250.8983075964
20
113.4311197474
30
0.0000000000
10
250.9179435915
20
113.1758092353
30
0.0000000000
10
250.9278115717
20
113.0482497604
30
0.0000000000
11
250.8692451040
21
113.8142072947
31
0.0000000000
11
250.8983785004
21
113.4309413651
31
0.0000000000
11
250.9278115717
21
113.0482497604
31
0.0000000000
0
SPLINE
5
530
100
AcDbEntity
8
0
100
AcDbSpline
62
7
6
CONTINUOUS
70
0
71
3
72
9
73
5
74
3
42
0.0000001000
43
0.0000001000
44
0.0000000001
40
0.0000000000
40
0.0000000000
40
0.0000000000
40
0.0000000000
40
0.5003501885
40
1.0000000000
40
1.0000000000
40
1.0000000000
40
1.0000000000
10
250.5557282524
20
113.8142072947
30
0.0000000000
10
250.5652779686
20
113.6864498311
30
0.0000000000
10
250.5844762410
20
113.4311221102
30
0.0000000000
10
250.6038993795
20
113.1758113966
30
0.0000000000
10
250.6136604388
20
113.0482497604
30
0.0000000000
11
250.5557282524
21
113.8142072947
31
0.0000000000
11
250.5845459824
21
113.4309475423
31
0.0000000000
11
250.6136604388
21
113.0482497604
31
0.0000000000
0
SPLINE
5
531
100
AcDbEntity
8
0
100
AcDbSpline
62
7
6
CONTINUOUS
70
0
71
3
72
9
73
5
74
3
42
0.0000001000
43
0.0000001000
44
0.0000000001
40
0.0000000000
40
0.0000000000
40
0.0000000000
40
0.0000000000
40
0.5002475784
40
1.0000000000
40
1.0000000000
40
1.0000000000
40
1.0000000000
10
250.9278115717
20
113.0482497604
30
0.0000000000
10
250.9575682491
20
112.9627717080
30
0.0000000000
10
251.0179824142
20
112.7922226417
30
0.0000000000
10
251.0802444085
20
112.6223394829
30
0.0000000000
10
251.1118184644
20
112.5376115234
30
0.0000000000
11
250.9278115717
21
113.0482497604
31
0.0000000000
11
251.0184747436
21
112.7923048349
31
0.0000000000
11
251.1118184644
21
112.5376115234
31
0.0000000000
0
SPLINE
5
532
100
AcDbEntity
8
0
100
AcDbSpline
62
7
6
CONTINUOUS
70
0
71
3
72
9
73
5
74
3
42
0.0000001000
43
0.0000001000
44
0.0000000001
40
0.0000000000
40
0.0000000000
40
0.0000000000
40
0.0000000000
40
0.5002422146
40
1.0000000000
40
1.0000000000
40
1.0000000000
40
1.0000000000
10
250.6136604388
20
113.0482497604
30
0.0000000000
10
250.6430914662
20
112.9627796464
30
0.0000000000
10
250.7028453998
20
112.7922377319
30
0.0000000000
10
250.7644277880
20
112.6223475458
30
0.0000000000
10
250.7956578037
20
112.5376115234
30
0.0000000000
11
250.6136604388
21
113.0482497604
31
0.0000000000
11
250.7033319029
21
112.7923182064
31
0.0000000000
11
250.7956578037
21
112.5376115234
31
0.0000000000
0
SPLINE
5
533
100
AcDbEntity
8
0
100
AcDbSpline
62
7
6
CONTINUOUS
70
0
71
3
72
9
73
5
74
3
42
0.0000001000
43
0.0000001000
44
0.0000000001
40
0.0000000000
40
0.0000000000
40
0.0000000000
40
0.0000000000
40
0.4931461638
40
1.0000000000
40
1.0000000000
40
1.0000000000
40
1.0000000000
10
251.1118184644
20
112.5376115234
30
0.0000000000
10
251.1657484190
20
112.4941957538
30
0.0000000000
10
251.2763259342
20
112.4076624592
30
0.0000000000
10
251.3890896273
20
112.3240023492
30
0.0000000000
10
251.4467422263
20
112.2822923155
30
0.0000000000
11
251.1118184644
21
112.5376115234
31
0.0000000000
11
251.2753418373
21
112.4095473680
31
0.0000000000
11
251.4467422263
21
112.2822923155
31
0.0000000000
0
SPLINE
5
534
100
AcDbEntity
8
0
100
AcDbSpline
62
7
6
CONTINUOUS
70
0
71
3
72
9
73
5
74
3
42
0.0000001000
43
0.0000001000
44
0.0000000001
40
0.0000000000
40
0.0000000000
40
0.0000000000
40
0.0000000000
40
0.4932013932
40
1.0000000000
40
1.0000000000
40
1.0000000000
40
1.0000000000
10
250.7956578037
20
112.5376115234
30
0.0000000000
10
250.8489814841
20
112.4942067929
30
0.0000000000
10
250.9583168395
20
112.4076884067
30
0.0000000000
10
251.0698394487
20
112.3240125982
30
0.0000000000
10
251.1268574984
20
112.2822923155
30
0.0000000000
11
250.7956578037
21
112.5376115234
31
0.0000000000
11
250.9573622276
21
112.4095562659
31
0.0000000000
11
251.1268574984
21
112.2822923155
31
0.0000000000
0
SPLINE
5
535
100
AcDbEntity
8
0
100
AcDbSpline
62
7
6
CONTINUOUS
70
0
71
3
72
8
73
4
74
2
42
0.0000001000
43
0.0000001000
44
0.0000000001
40
0.0000000000
40
0.0000000000
40
0.0000000000
40
0.0000000000
40
1.0000000000
40
1.0000000000
40
1.0000000000
40
1.0000000000
10
308.7633643829
20
166.7380960649
30
0.0000000000
10
308.7575793612
20
166.7399927012
30
0.0000000000
10
308.7517940600
20
166.7418885020
30
0.0000000000
10
308.7460084794
20
166.7437834660
30
0.0000000000
11
308.7633643829
21
166.7380960649
31
0.0000000000
11
308.7460084794
21
166.7437834660
31
0.0000000000
0
SPLINE
5
536
100
AcDbEntity
8
0
100
AcDbSpline
62
7
6
CONTINUOUS
70
0
71
3
72
13
73
9
74
7
42
0.0000001000
43
0.0000001000
44
0.0000000001
40
0.0000000000
40
0.0000000000
40
0.0000000000
40
0.0000000000
40
0.1595490801
40
0.3345596247
40
0.5042110407
40
0.6707827591
40
0.8357316503
40
1.0000000000
40
1.0000000000
40
1.0000000000
40
1.0000000000
10
308.7460084794
20
166.7437834660
30
0.0000000000
10
308.0538447128
20
166.9704893925
30
0.0000000000
10
306.5940538746
20
167.4207572257
30
0.0000000000
10
304.3673783515
20
168.0066788830
30
0.0000000000
10
302.0826918382
20
168.4876742608
30
0.0000000000
10
299.8203171424
20
168.8359995058
30
0.0000000000
10
297.5657209308
20
169.0478628766
30
0.0000000000
10
296.0624717804
20
169.0953659393
30
0.0000000000
10
295.3126107011
20
169.0953659394
30
0.0000000000
11
308.7460084794
21
166.7437834660
31
0.0000000000
11
306.6574969166
21
167.3859637512
31
0.0000000000
11
304.3390186454
21
167.9932489950
31
0.0000000000
11
302.0650594599
21
168.4695280108
31
0.0000000000
11
299.8102024391
21
168.8147230088
31
0.0000000000
11
297.5610857110
21
169.0247622991
31
0.0000000000
11
295.3126107011
21
169.0953659394
31
0.0000000000
0
SPLINE
5
537
100
AcDbEntity
8
0
100
AcDbSpline
62
7
6
CONTINUOUS
70
0
71
3
72
13
73
9
74
7
42
0.0000001000
43
0.0000001000
44
0.0000000001
40
0.0000000000
40
0.0000000000
40
0.0000000000
40
0.0000000000
40
0.1603932898
40
0.3214437772
40
0.4840618945
40
0.6496673476
40
0.8204787799
40
1.0000000000
40
1.0000000000
40
1.0000000000
40
1.0000000000
10
295.3126107011
20
169.0953659394
30
0.0000000000
10
294.5626118632
20
169.0953659394
30
0.0000000000
10
293.0591204870
20
169.0478464528
30
0.0000000000
10
290.8042597399
20
168.8359230429
30
0.0000000000
10
288.5418248112
20
168.4875440945
30
0.0000000000
10
286.2573616936
20
168.0065579385
30
0.0000000000
10
283.9234261675
20
167.3923963952
30
0.0000000000
10
282.3589742028
20
166.9046195614
30
0.0000000000
10
281.5626105292
20
166.6391650035
30
0.0000000000
11
295.3126107011
21
169.0953659394
31
0.0000000000
11
293.0637230233
21
169.0247364595
31
0.0000000000
11
290.8142981218
21
168.8146338669
31
0.0000000000
11
288.5593690706
21
168.4693838806
31
0.0000000000
11
286.2856027360
21
167.9931073034
31
0.0000000000
11
283.9676613643
21
167.3859457525
31
0.0000000000
11
281.5626105292
21
166.6391650035
31
0.0000000000
0
SPLINE
5
538
100
AcDbEntity
8
0
100
AcDbSpline
62
7
6
CONTINUOUS
70
0
71
3
72
13
73
9
74
7
42
0.0000001000
43
0.0000001000
44
0.0000000001
40
0.0000000000
40
0.0000000000
40
0.0000000000
40
0.0000000000
40
0.1795258777
40
0.3503765718
40
0.5159955191
40
0.6786079706
40
0.8396361680
40
1.0000000000
40
1.0000000000
40
1.0000000000
40
1.0000000000
10
281.5626105292
20
166.6391650035
30
0.0000000000
10
280.7662262097
20
166.9046264433
30
0.0000000000
10
279.2015779157
20
167.3924636266
30
0.0000000000
10
276.8673783572
20
168.0066788816
30
0.0000000000
10
274.5826918465
20
168.4876742592
30
0.0000000000
10
272.3203171535
20
168.8359995045
30
0.0000000000
10
270.0657209442
20
169.0478628754
30
0.0000000000
10
268.5624717952
20
169.0953659397
30
0.0000000000
10
267.8126107163
20
169.0953659399
30
0.0000000000
11
281.5626105292
21
166.6391650035
31
0.0000000000
11
279.1574969195
21
167.3859637504
31
0.0000000000
11
276.8390186510
21
167.9932489936
31
0.0000000000
11
274.5650594682
21
168.4695280092
31
0.0000000000
11
272.3102024502
21
168.8147230074
31
0.0000000000
11
270.0610857249
21
169.0247622982
31
0.0000000000
11
267.8126107163
21
169.0953659399
31
0.0000000000
0
SPLINE
5
539
100
AcDbEntity
8
0
100
AcDbSpline
62
7
6
CONTINUOUS
70
0
71
3
72
13
73
9
74
7
42
0.0000001000
43
0.0000001000
44
0.0000000001
40
0.0000000000
40
0.0000000000
40
0.0000000000
40
0.0000000000
40
0.1603932907
40
0.3214437779
40
0.4840618950
40
0.6496673480
40
0.8204787801
40
1.0000000000
40
1.0000000000
40
1.0000000000
40
1.0000000000
10
267.8126107163
20
169.0953659399
30
0.0000000000
10
267.0626118734
20
169.0953659399
30
0.0000000000
10
265.5591204921
20
169.0478464532
30
0.0000000000
10
263.3042597398
20
168.8359230429
30
0.0000000000
10
261.0418248111
20
168.4875440945
30
0.0000000000
10
258.7573616936
20
168.0065579385
30
0.0000000000
10
256.4234261675
20
167.3923963952
30
0.0000000000
10
254.8589742028
20
166.9046195614
30
0.0000000000
10
254.0626105292
20
166.6391650035
30
0.0000000000
11
267.8126107163
21
169.0953659399
31
0.0000000000
11
265.5637230232
21
169.0247364595
31
0.0000000000
11
263.3142981217
21
168.8146338669
31
0.0000000000
11
261.0593690706
21
168.4693838806
31
0.0000000000
11
258.7856027360
21
167.9931073034
31
0.0000000000
11
256.4676613643
21
167.3859457525
31
0.0000000000
11
254.0626105292
21
166.6391650035
31
0.0000000000
0
SPLINE
5
53A
100
AcDbEntity
8
0
100
AcDbSpline
62
7
6
CONTINUOUS
70
0
71
3
72
32
73
28
74
26
42
0.0000001000
43
0.0000001000
44
0.0000000001
40
0.0000000000
40
0.0000000000
40
0.0000000000
40
0.0000000000
40
0.0532151567
40
0.1075321339
40
0.1576904134
40
0.2037722046
40
0.2459284660
40
0.2843821104
40
0.3193585219
40
0.3511752308
40
0.3802738741
40
0.4072572865
40
0.4329276947
40
0.4580102771
40
0.4835540146
40
0.5108164128
40
0.5411948918
40
0.5757096246
40
0.6143035886
40
0.6568142454
40
0.7026630386
40
0.7514435155
40
0.8026418991
40
0.8556440004
40
0.9103382856
40
0.9665417725
40
1.0000000000
40
1.0000000000
40
1.0000000000
40
1.0000000000
10
144.9778427004
20
-91.5178133235
30
0.0000000000
10
145.4141707537
20
-91.5052364625
30
0.0000000000
10
146.2958017623
20
-91.4777046624
30
0.0000000000
10
147.5884282453
20
-91.4302339432
30
0.0000000000
10
148.8222762347
20
-91.3772229872
30
0.0000000000
10
149.9561066676
20
-91.3207439141
30
0.0000000000
10
150.9936242149
20
-91.2611457911
30
0.0000000000
10
151.9396962485
20
-91.1986244315
30
0.0000000000
10
152.8005368688
20
-91.1331602675
30
0.0000000000
10
153.5841201885
20
-91.0644023790
30
0.0000000000
10
154.3014502986
20
-90.9913828420
30
0.0000000000
10
154.9673769961
20
-90.9120746914
30
0.0000000000
10
155.5988367714
20
-90.8229905381
30
0.0000000000
10
156.2159482773
20
-90.7182004307
30
0.0000000000
10
156.8416450542
20
-90.5880786188
30
0.0000000000
10
157.5025425965
20
-90.4170317267
30
0.0000000000
10
158.2218010770
20
-90.1825179678
30
0.0000000000
10
159.0070970127
20
-89.8575009100
30
0.0000000000
10
159.8476485331
20
-89.4149232110
30
0.0000000000
10
160.7146337851
20
-88.8341425086
30
0.0000000000
10
161.5718954681
20
-88.1014397463
30
0.0000000000
10
162.3782078428
20
-87.2132375353
30
0.0000000000
10
163.0918673374
20
-86.1762255482
30
0.0000000000
10
163.6751347884
20
-85.0056868973
30
0.0000000000
10
164.0954520037
20
-83.7234148152
30
0.0000000000
10
164.2927635650
20
-82.5514490475
30
0.0000000000
10
164.3260979285
20
-81.8148336831
30
0.0000000000
10
164.3261077578
20
-81.5400878263
30
0.0000000000
11
144.9778427004
21
-91.5178133235
31
0.0000000000
11
146.2867280074
21
-91.4768015817
31
0.0000000000
11
147.6224609687
21
-91.4275400699
31
0.0000000000
11
148.8556163611
21
-91.3743237979
31
0.0000000000
11
149.9881871033
21
-91.3176420830
31
0.0000000000
11
151.0238507027
21
-91.2578500184
31
0.0000000000
11
151.9680420900
21
-91.1951104360
31
0.0000000000
11
152.8262394952
21
-91.1294543900
31
0.0000000000
11
153.6061536098
21
-91.0605641597
31
0.0000000000
11
154.3184826235
21
-90.9875213327
31
0.0000000000
11
154.9777603423
21
-90.9083689026
31
0.0000000000
11
155.6031601439
21
-90.8193633665
31
0.0000000000
11
156.2115336499
21
-90.7151410208
31
0.0000000000
11
156.8267480635
21
-90.5861850342
31
0.0000000000
11
157.4759786997
21
-90.4171399147
31
0.0000000000
11
158.1864396812
21
-90.1845694998
31
0.0000000000
11
158.9709550628
21
-89.8591142199
31
0.0000000000
11
159.8110783471
21
-89.4161995520
31
0.0000000000
11
160.6800123884
21
-88.8337066080
31
0.0000000000
11
161.5375356380
21
-88.1004861313
31
0.0000000000
11
162.3442705995
21
-87.2115913742
31
0.0000000000
11
163.0584416993
21
-86.1736592773
31
0.0000000000
11
163.6400656379
21
-85.0062385078
31
0.0000000000
11
164.0592755033
21
-83.7272625194
31
0.0000000000
11
164.2887961520
21
-82.3633754742
31
0.0000000000
11
164.3261077578
21
-81.5400878263
31
0.0000000000
0
SPLINE
5
53B
100
AcDbEntity
8
0
100
AcDbSpline
62
7
6
CONTINUOUS
70
0
71
3
72
11
73
7
74
5
42
0.0000001000
43
0.0000001000
44
0.0000000001
40
0.0000000000
40
0.0000000000
40
0.0000000000
40
0.0000000000
40
0.2561461086
40
0.5146839584
40
0.7655386335
40
1.0000000000
40
1.0000000000
40
1.0000000000
40
1.0000000000
10
119.3739768775
20
-91.8973830723
30
0.0000000000
10
121.5603795694
20
-91.8918854070
30
0.0000000000
10
125.9535792046
20
-91.8680001131
30
0.0000000000
10
132.4876652864
20
-91.7927953226
30
0.0000000000
10
138.8360638123
20
-91.6786295587
30
0.0000000000
10
142.9773791951
20
-91.5754808483
30
0.0000000000
10
144.9778613378
20
-91.5178127659
30
0.0000000000
11
119.3739768775
21
-91.8973830723
31
0.0000000000
11
125.9331074238
21
-91.8615039217
31
0.0000000000
11
132.5531370943
21
-91.7847918930
31
0.0000000000
11
138.9758117869
21
-91.6684555065
31
0.0000000000
11
144.9778613378
21
-91.5178127659
31
0.0000000000
0
SPLINE
5
53C
100
AcDbEntity
8
0
100
AcDbSpline
62
7
6
CONTINUOUS
70
0
71
3
72
8
73
4
74
2
42
0.0000001000
43
0.0000001000
44
0.0000000001
40
0.0000000000
40
0.0000000000
40
0.0000000000
40
0.0000000000
40
1.0000000000
40
1.0000000000
40
1.0000000000
40
1.0000000000
10
119.1556327958
20
-91.8976542207
30
0.0000000000
10
119.1599038988
20
-91.8976541959
30
0.0000000000
10
119.1641750017
20
-91.8976538703
30
0.0000000000
10
119.1684461046
20
-91.8976532424
30
0.0000000000
11
119.1556327958
21
-91.8976542207
31
0.0000000000
11
119.1684461046
21
-91.8976532424
31
0.0000000000
0
SPLINE
5
53D
100
AcDbEntity
8
0
100
AcDbSpline
62
7
6
CONTINUOUS
70
0
71
3
72
8
73
4
74
2
42
0.0000001000
43
0.0000001000
44
0.0000000001
40
0.0000000000
40
0.0000000000
40
0.0000000000
40
0.0000000000
40
1.0000000000
40
1.0000000000
40
1.0000000000
40
1.0000000000
10
119.1684461046
20
-91.8976532424
30
0.0000000000
10
119.1997479979
20
-91.8976486402
30
0.0000000000
10
119.2310498880
20
-91.8976277952
30
0.0000000000
10
119.2623517579
20
-91.8975900808
30
0.0000000000
11
119.1684461046
21
-91.8976532424
31
0.0000000000
11
119.2623517579
21
-91.8975900808
31
0.0000000000
0
SPLINE
5
53E
100
AcDbEntity
8
0
100
AcDbSpline
62
7
6
CONTINUOUS
70
0
71
3
72
9
73
5
74
3
42
0.0000001000
43
0.0000001000
44
0.0000000001
40
0.0000000000
40
0.0000000000
40
0.0000000000
40
0.0000000000
40
0.8353439508
40
1.0000000000
40
1.0000000000
40
1.0000000000
40
1.0000000000
10
119.2623517579
20
-91.8975900808
30
0.0000000000
10
119.2934336442
20
-91.8975526315
30
0.0000000000
10
119.3306421095
20
-91.8974878887
30
0.0000000000
10
119.3678505221
20
-91.8973984303
30
0.0000000000
10
119.3739771106
20
-91.8973830258
30
0.0000000000
11
119.2623517579
21
-91.8975900808
31
0.0000000000
11
119.3555973402
21
-91.8974272200
31
0.0000000000
11
119.3739771106
21
-91.8973830258
31
0.0000000000
0
SPLINE
5
53F
100
AcDbEntity
8
0
100
AcDbSpline
62
7
6
CONTINUOUS
70
0
71
3
72
32
73
28
74
26
42
0.0000001000
43
0.0000001000
44
0.0000000001
40
0.0000000000
40
0.0000000000
40
0.0000000000
40
0.0000000000
40
0.0340411823
40
0.0902142856
40
0.1448811262
40
0.1978583650
40
0.2490360078
40
0.2977960402
40
0.3436205271
40
0.3861010422
40
0.4246519400
40
0.4591087603
40
0.4894305363
40
0.5166478370
40
0.5421621489
40
0.5672276511
40
0.5928872657
40
0.6198640952
40
0.6489577714
40
0.6807691649
40
0.7157385508
40
0.7541824400
40
0.7963255501
40
0.8423902354
40
0.8925268207
40
0.9468170358
40
1.0000000000
40
1.0000000000
40
1.0000000000
40
1.0000000000
10
164.3261083808
20
-79.7552206274
30
0.0000000000
10
164.3260975970
20
-79.4756929626
30
0.0000000000
10
164.2919710624
20
-78.7345352547
30
0.0000000000
10
164.0921351748
20
-77.5586165343
30
0.0000000000
10
163.6701647324
20
-76.2776095883
30
0.0000000000
10
163.0855487421
20
-75.1084207973
30
0.0000000000
10
162.3708327090
20
-74.0728010451
30
0.0000000000
10
161.5637680683
20
-73.1860148169
30
0.0000000000
10
160.7061063427
20
-72.4547343981
30
0.0000000000
10
159.8391501159
20
-71.8753583138
30
0.0000000000
10
158.9991208388
20
-71.4341114140
30
0.0000000000
10
158.2147603312
20
-71.1102331932
30
0.0000000000
10
157.4966052127
20
-70.8765761128
30
0.0000000000
10
156.8366760425
20
-70.7060938147
30
0.0000000000
10
156.2116764986
20
-70.5763157410
30
0.0000000000
10
155.5950072751
20
-70.4717318275
30
0.0000000000
10
154.9638150237
20
-70.3827764110
30
0.0000000000
10
154.2980625908
20
-70.3035556500
30
0.0000000000
10
153.5808649873
20
-70.2306007362
30
0.0000000000
10
152.7974195628
20
-70.1618954256
30
0.0000000000
10
151.9367571786
20
-70.0964772983
30
0.0000000000
10
150.9909283714
20
-70.0339980355
30
0.0000000000
10
149.9537372534
20
-69.9744391759
30
0.0000000000
10
148.8203315833
20
-69.9179968492
30
0.0000000000
10
147.5870203255
20
-69.8650199456
30
0.0000000000
10
146.2950546077
20
-69.8175798090
30
0.0000000000
10
145.4139068442
20
-69.7900643724
30
0.0000000000
10
144.9778427100
20
-69.7774951179
30
0.0000000000
11
164.3261083808
21
-79.7552206274
31
0.0000000000
11
164.2874850148
21
-78.9176333685
31
0.0000000000
11
164.0559938326
21
-77.5548376673
31
0.0000000000
11
163.6351323927
21
-76.2771151089
31
0.0000000000
11
163.0521671483
21
-75.1110474132
31
0.0000000000
11
162.3369178172
21
-74.0744779559
31
0.0000000000
11
161.5294040284
21
-73.1869705919
31
0.0000000000
11
160.6714646287
21
-72.4551582795
31
0.0000000000
11
159.8025056999
21
-71.8740355266
31
0.0000000000
11
158.9628857224
21
-71.4324394427
31
0.0000000000
11
158.1794217743
21
-71.1081693682
31
0.0000000000
11
157.4701420659
21
-70.8764757737
31
0.0000000000
11
156.8219099744
21
-70.7079999501
31
0.0000000000
11
156.2073646231
21
-70.5793815441
31
0.0000000000
11
155.5993834784
21
-70.4753578618
31
0.0000000000
11
154.9742337353
21
-70.3864800773
31
0.0000000000
11
154.3151088045
21
-70.3074135536
31
0.0000000000
11
153.6028960497
21
-70.2344346469
31
0.0000000000
11
152.8231085474
21
-70.1655968403
31
0.0000000000
11
151.9650809331
21
-70.0999869180
31
0.0000000000
11
151.0211272361
21
-70.0372897017
31
0.0000000000
11
149.9857854351
21
-69.9775371740
31
0.0000000000
11
148.8536342161
21
-69.9208924183
31
0.0000000000
11
147.6210115924
21
-69.8677104470
31
0.0000000000
11
146.2859363846
21
-69.8184799864
31
0.0000000000
11
144.9778427100
21
-69.7774951179
31
0.0000000000
0
SPLINE
5
540
100
AcDbEntity
8
0
100
AcDbSpline
62
7
6
CONTINUOUS
70
0
71
3
72
11
73
7
74
5
42
0.0000001000
43
0.0000001000
44
0.0000000001
40
0.0000000000
40
0.0000000000
40
0.0000000000
40
0.0000000000
40
0.2344613665
40
0.4853160416
40
0.7438538914
40
1.0000000000
40
1.0000000000
40
1.0000000000
40
1.0000000000
10
144.9778613378
20
-69.7774956751
30
0.0000000000
10
142.9773791951
20
-69.7198275928
30
0.0000000000
10
138.8360638123
20
-69.6166788824
30
0.0000000000
10
132.4876652864
20
-69.5025131185
30
0.0000000000
10
125.9535792046
20
-69.4273083280
30
0.0000000000
10
121.5603795694
20
-69.4034230340
30
0.0000000000
10
119.3739768775
20
-69.3979253687
30
0.0000000000
11
144.9778613378
21
-69.7774956751
31
0.0000000000
11
138.9758117869
21
-69.6268529345
31
0.0000000000
11
132.5531370943
21
-69.5105165480
31
0.0000000000
11
125.9331074238
21
-69.4338045194
31
0.0000000000
11
119.3739768775
21
-69.3979253687
31
0.0000000000
0
SPLINE
5
541
100
AcDbEntity
8
0
100
AcDbSpline
62
7
6
CONTINUOUS
70
0
71
3
72
9
73
5
74
3
42
0.0000001000
43
0.0000001000
44
0.0000000001
40
0.0000000000
40
0.0000000000
40
0.0000000000
40
0.0000000000
40
0.1646560492
40
1.0000000000
40
1.0000000000
40
1.0000000000
40
1.0000000000
10
119.3739771106
20
-69.3979254152
30
0.0000000000
10
119.3678505221
20
-69.3979100108
30
0.0000000000
10
119.3306421095
20
-69.3978205523
30
0.0000000000
10
119.2934336442
20
-69.3977558096
30
0.0000000000
10
119.2623517579
20
-69.3977183602
30
0.0000000000
11
119.3739771106
21
-69.3979254152
31
0.0000000000
11
119.3555973402
21
-69.3978812211
31
0.0000000000
11
119.2623517579
21
-69.3977183602
31
0.0000000000
0
SPLINE
5
542
100
AcDbEntity
8
0
100
AcDbSpline
62
7
6
CONTINUOUS
70
0
71
3
72
9
73
5
74
3
42
0.0000001000
43
0.0000001000
44
0.0000000001
40
0.0000000000
40
0.0000000000
40
0.0000000000
40
0.0000000000
40
0.8799341257
40
1.0000000000
40
1.0000000000
40
1.0000000000
40
1.0000000000
10
119.2623517579
20
-69.3977183602
30
0.0000000000
10
119.2310498880
20
-69.3976806458
30
0.0000000000
10
119.1954768954
20
-69.3976569566
30
0.0000000000
10
119.1599038988
20
-69.3976542451
30
0.0000000000
10
119.1556327958
20
-69.3976542204
30
0.0000000000
11
119.2623517579
21
-69.3977183602
31
0.0000000000
11
119.1684461046
21
-69.3976551987
31
0.0000000000
11
119.1556327958
21
-69.3976542204
31
0.0000000000
0
SPLINE
5
543
100
AcDbEntity
8
0
100
AcDbSpline
62
7
6
CONTINUOUS
70
0
71
3
72
32
73
28
74
26
42
0.0000001000
43
0.0000001000
44
0.0000000001
40
0.0000000000
40
0.0000000000
40
0.0000000000
40
0.0000000000
40
0.0340411823
40
0.0902142856
40
0.1448811262
40
0.1978583650
40
0.2490360078
40
0.2977960402
40
0.3436205271
40
0.3861010422
40
0.4246519400
40
0.4591087603
40
0.4894305363
40
0.5166478370
40
0.5421621489
40
0.5672276511
40
0.5928872657
40
0.6198640952
40
0.6489577714
40
0.6807691649
40
0.7157385508
40
0.7541824400
40
0.7963255501
40
0.8423902354
40
0.8925268207
40
0.9468170358
40
1.0000000000
40
1.0000000000
40
1.0000000000
40
1.0000000000
10
65.3261662459
20
-81.5400878136
30
0.0000000000
10
65.3261770298
20
-81.8196154784
30
0.0000000000
10
65.3603035643
20
-82.5607731864
30
0.0000000000
10
65.5601394519
20
-83.7366919067
30
0.0000000000
10
65.9821098943
20
-85.0176988527
30
0.0000000000
10
66.5667258847
20
-86.1868876437
30
0.0000000000
10
67.2814419177
20
-87.2225073959
30
0.0000000000
10
68.0885065585
20
-88.1092936241
30
0.0000000000
10
68.9461682840
20
-88.8405740429
30
0.0000000000
10
69.8131245108
20
-89.4199501273
30
0.0000000000
10
70.6531537880
20
-89.8611970271
30
0.0000000000
10
71.4375142956
20
-90.1850752479
30
0.0000000000
10
72.1556694141
20
-90.4187323282
30
0.0000000000
10
72.8155985843
20
-90.5892146263
30
0.0000000000
10
73.4405981281
20
-90.7189927001
30
0.0000000000
10
74.0572673517
20
-90.8235766136
30
0.0000000000
10
74.6884596030
20
-90.9125320301
30
0.0000000000
10
75.3542120360
20
-90.9917527911
30
0.0000000000
10
76.0714096394
20
-91.0647077048
30
0.0000000000
10
76.8548550640
20
-91.1334130155
30
0.0000000000
10
77.7155174482
20
-91.1988311427
30
0.0000000000
10
78.6613462554
20
-91.2613104055
30
0.0000000000
10
79.6985373734
20
-91.3208692651
30
0.0000000000
10
80.8319430435
20
-91.3773115918
30
0.0000000000
10
82.0652543012
20
-91.4302884954
30
0.0000000000
10
83.3572200191
20
-91.4777286321
30
0.0000000000
10
84.2383677825
20
-91.5052440686
30
0.0000000000
10
84.6744319167
20
-91.5178133231
30
0.0000000000
11
65.3261662459
21
-81.5400878136
31
0.0000000000
11
65.3647896120
21
-82.3776750726
31
0.0000000000
11
65.5962807942
21
-83.7404707737
31
0.0000000000
11
66.0171422340
21
-85.0181933321
31
0.0000000000
11
66.6001074784
21
-86.1842610279
31
0.0000000000
11
67.3153568096
21
-87.2208304852
31
0.0000000000
11
68.1228705983
21
-88.1083378491
31
0.0000000000
11
68.9808099980
21
-88.8401501615
31
0.0000000000
11
69.8497689269
21
-89.4212729144
31
0.0000000000
11
70.6893889044
21
-89.8628689984
31
0.0000000000
11
71.4728528524
21
-90.1871390728
31
0.0000000000
11
72.1821325609
21
-90.4188326674
31
0.0000000000
11
72.8303646523
21
-90.5873084909
31
0.0000000000
11
73.4449100036
21
-90.7159268969
31
0.0000000000
11
74.0528911484
21
-90.8199505792
31
0.0000000000
11
74.6780408915
21
-90.9088283637
31
0.0000000000
11
75.3371658222
21
-90.9878948874
31
0.0000000000
11
76.0493785771
21
-91.0608737941
31
0.0000000000
11
76.8291660793
21
-91.1297116007
31
0.0000000000
11
77.6871936937
21
-91.1953215230
31
0.0000000000
11
78.6311473906
21
-91.2580187393
31
0.0000000000
11
79.6664891917
21
-91.3177712670
31
0.0000000000
11
80.7986404106
21
-91.3744160227
31
0.0000000000
11
82.0312630344
21
-91.4275979940
31
0.0000000000
11
83.3663382422
21
-91.4768284546
31
0.0000000000
11
84.6744319167
21
-91.5178133231
31
0.0000000000
0
SPLINE
5
544
100
AcDbEntity
8
0
100
AcDbSpline
62
7
6
CONTINUOUS
70
0
71
3
72
11
73
7
74
5
42
0.0000001000
43
0.0000001000
44
0.0000000001
40
0.0000000000
40
0.0000000000
40
0.0000000000
40
0.0000000000
40
0.2344613665
40
0.4853160416
40
0.7438538914
40
1.0000000000
40
1.0000000000
40
1.0000000000
40
1.0000000000
10
84.6744132889
20
-91.5178127659
30
0.0000000000
10
86.6748954317
20
-91.5754808483
30
0.0000000000
10
90.8162108145
20
-91.6786295587
30
0.0000000000
10
97.1646093404
20
-91.7927953226
30
0.0000000000
10
103.6986954222
20
-91.8680001131
30
0.0000000000
10
108.0918950574
20
-91.8918854070
30
0.0000000000
10
110.2782977493
20
-91.8973830723
30
0.0000000000
11
84.6744132889
21
-91.5178127659
31
0.0000000000
11
90.6764628398
21
-91.6684555065
31
0.0000000000
11
97.0991375324
21
-91.7847918930
31
0.0000000000
11
103.7191672030
21
-91.8615039217
31
0.0000000000
11
110.2782977493
21
-91.8973830723
31
0.0000000000
0
SPLINE
5
545
100
AcDbEntity
8
0
100
AcDbSpline
62
7
6
CONTINUOUS
70
0
71
3
72
9
73
5
74
3
42
0.0000001000
43
0.0000001000
44
0.0000000001
40
0.0000000000
40
0.0000000000
40
0.0000000000
40
0.0000000000
40
0.1646560492
40
1.0000000000
40
1.0000000000
40
1.0000000000
40
1.0000000000
10
110.2782975161
20
-91.8973830258
30
0.0000000000
10
110.2844241047
20
-91.8973984303
30
0.0000000000
10
110.3216325173
20
-91.8974878887
30
0.0000000000
10
110.3588409825
20
-91.8975526315
30
0.0000000000
10
110.3899228689
20
-91.8975900808
30
0.0000000000
11
110.2782975161
21
-91.8973830258
31
0.0000000000
11
110.2966772865
21
-91.8974272200
31
0.0000000000
11
110.3899228689
21
-91.8975900808
31
0.0000000000
0
SPLINE
5
546
100
AcDbEntity
8
0
100
AcDbSpline
62
7
6
CONTINUOUS
70
0
71
3
72
9
73
5
74
3
42
0.0000001000
43
0.0000001000
44
0.0000000001
40
0.0000000000
40
0.0000000000
40
0.0000000000
40
0.0000000000
40
0.8799341257
40
1.0000000000
40
1.0000000000
40
1.0000000000
40
1.0000000000
10
110.3899228689
20
-91.8975900808
30
0.0000000000
10
110.4212247387
20
-91.8976277952
30
0.0000000000
10
110.4567977313
20
-91.8976514844
30
0.0000000000
10
110.4923707280
20
-91.8976541959
30
0.0000000000
10
110.4966418309
20
-91.8976542207
30
0.0000000000
11
110.3899228689
21
-91.8975900808
31
0.0000000000
11
110.4838285221
21
-91.8976532424
31
0.0000000000
11
110.4966418309
21
-91.8976542207
31
0.0000000000
0
SPLINE
5
547
100
AcDbEntity
8
0
100
AcDbSpline
62
7
6
CONTINUOUS
70
0
71
3
72
32
73
28
74
26
42
0.0000001000
43
0.0000001000
44
0.0000000001
40
0.0000000000
40
0.0000000000
40
0.0000000000
40
0.0000000000
40
0.0532151567
40
0.1075321339
40
0.1576904134
40
0.2037722046
40
0.2459284660
40
0.2843821104
40
0.3193585219
40
0.3511752308
40
0.3802738741
40
0.4072572865
40
0.4329276947
40
0.4580102771
40
0.4835540146
40
0.5108164128
40
0.5411948918
40
0.5757096246
40
0.6143035886
40
0.6568142454
40
0.7026630386
40
0.7514435155
40
0.8026418991
40
0.8556440004
40
0.9103382856
40
0.9665417725
40
1.0000000000
40
1.0000000000
40
1.0000000000
40
1.0000000000
10
84.6744319264
20
-69.7774951175
30
0.0000000000
10
84.2381038731
20
-69.7900719785
30
0.0000000000
10
83.3564728644
20
-69.8176037786
30
0.0000000000
10
82.0638463815
20
-69.8650744979
30
0.0000000000
10
80.8299983920
20
-69.9180854538
30
0.0000000000
10
79.6961679592
20
-69.9745645269
30
0.0000000000
10
78.6586504118
20
-70.0341626499
30
0.0000000000
10
77.7125783782
20
-70.0966840095
30
0.0000000000
10
76.8517377579
20
-70.1621481736
30
0.0000000000
10
76.0681544383
20
-70.2309060621
30
0.0000000000
10
75.3508243281
20
-70.3039255990
30
0.0000000000
10
74.6848976307
20
-70.3832337496
30
0.0000000000
10
74.0534378554
20
-70.4723179029
30
0.0000000000
10
73.4363263495
20
-70.5771080104
30
0.0000000000
10
72.8106295726
20
-70.7072298222
30
0.0000000000
10
72.1497320302
20
-70.8782767143
30
0.0000000000
10
71.4304735498
20
-71.1127904732
30
0.0000000000
10
70.6451776140
20
-71.4378075311
30
0.0000000000
10
69.8046260936
20
-71.8803852301
30
0.0000000000
10
68.9376408417
20
-72.4611659324
30
0.0000000000
10
68.0803791587
20
-73.1938686947
30
0.0000000000
10
67.2740667840
20
-74.0820709057
30
0.0000000000
10
66.5604072894
20
-75.1190828929
30
0.0000000000
10
65.9771398383
20
-76.2896215437
30
0.0000000000
10
65.5568226230
20
-77.5718936258
30
0.0000000000
10
65.3595110617
20
-78.7438593935
30
0.0000000000
10
65.3261766983
20
-79.4804747579
30
0.0000000000
10
65.3261668690
20
-79.7552206147
30
0.0000000000
11
84.6744319264
21
-69.7774951175
31
0.0000000000
11
83.3655466193
21
-69.8185068594
31
0.0000000000
11
82.0298136581
21
-69.8677683711
31
0.0000000000
11
80.7966582657
21
-69.9209846431
31
0.0000000000
11
79.6640875234
21
-69.9776663581
31
0.0000000000
11
78.6284239241
21
-70.0374584227
31
0.0000000000
11
77.6842325367
21
-70.1001980050
31
0.0000000000
11
76.8260351316
21
-70.1658540510
31
0.0000000000
11
76.0461210169
21
-70.2347442813
31
0.0000000000
11
75.3337920032
21
-70.3077871083
31
0.0000000000
11
74.6745142845
21
-70.3869395384
31
0.0000000000
11
74.0491144828
21
-70.4759450745
31
0.0000000000
11
73.4407409768
21
-70.5801674202
31
0.0000000000
11
72.8255265633
21
-70.7091234069
31
0.0000000000
11
72.1762959270
21
-70.8781685264
31
0.0000000000
11
71.4658349456
21
-71.1107389413
31
0.0000000000
11
70.6813195640
21
-71.4361942211
31
0.0000000000
11
69.8411962797
21
-71.8791088890
31
0.0000000000
11
68.9722622383
21
-72.4616018330
31
0.0000000000
11
68.1147389887
21
-73.1948223097
31
0.0000000000
11
67.3080040273
21
-74.0837170669
31
0.0000000000
11
66.5938329274
21
-75.1216491638
31
0.0000000000
11
66.0122089889
21
-76.2890699332
31
0.0000000000
11
65.5929991235
21
-77.5680459216
31
0.0000000000
11
65.3634784748
21
-78.9319329669
31
0.0000000000
11
65.3261668690
21
-79.7552206147
31
0.0000000000
0
SPLINE
5
548
100
AcDbEntity
8
0
100
AcDbSpline
62
7
6
CONTINUOUS
70
0
71
3
72
11
73
7
74
5
42
0.0000001000
43
0.0000001000
44
0.0000000001
40
0.0000000000
40
0.0000000000
40
0.0000000000
40
0.0000000000
40
0.2561461086
40
0.5146839584
40
0.7655386335
40
1.0000000000
40
1.0000000000
40
1.0000000000
40
1.0000000000
10
110.2782977493
20
-69.3979253687
30
0.0000000000
10
108.0918950574
20
-69.4034230340
30
0.0000000000
10
103.6986954222
20
-69.4273083280
30
0.0000000000
10
97.1646093404
20
-69.5025131185
30
0.0000000000
10
90.8162108145
20
-69.6166788824
30
0.0000000000
10
86.6748954317
20
-69.7198275928
30
0.0000000000
10
84.6744132889
20
-69.7774956751
30
0.0000000000
11
110.2782977493
21
-69.3979253687
31
0.0000000000
11
103.7191672030
21
-69.4338045194
31
0.0000000000
11
97.0991375324
21
-69.5105165480
31
0.0000000000
11
90.6764628398
21
-69.6268529345
31
0.0000000000
11
84.6744132889
21
-69.7774956751
31
0.0000000000
0
SPLINE
5
549
100
AcDbEntity
8
0
100
AcDbSpline
62
7
6
CONTINUOUS
70
0
71
3
72
8
73
4
74
2
42
0.0000001000
43
0.0000001000
44
0.0000000001
40
0.0000000000
40
0.0000000000
40
0.0000000000
40
0.0000000000
40
1.0000000000
40
1.0000000000
40
1.0000000000
40
1.0000000000
10
110.4966418309
20
-69.3976542204
30
0.0000000000
10
110.4923707280
20
-69.3976542451
30
0.0000000000
10
110.4880996250
20
-69.3976545707
30
0.0000000000
10
110.4838285221
20
-69.3976551987
30
0.0000000000
11
110.4966418309
21
-69.3976542204
31
0.0000000000
11
110.4838285221
21
-69.3976551987
31
0.0000000000
0
SPLINE
5
54A
100
AcDbEntity
8
0
100
AcDbSpline
62
7
6
CONTINUOUS
70
0
71
3
72
8
73
4
74
2
42
0.0000001000
43
0.0000001000
44
0.0000000001
40
0.0000000000
40
0.0000000000
40
0.0000000000
40
0.0000000000
40
1.0000000000
40
1.0000000000
40
1.0000000000
40
1.0000000000
10
110.4838285221
20
-69.3976551987
30
0.0000000000
10
110.4525266289
20
-69.3976598009
30
0.0000000000
10
110.4212247387
20
-69.3976806458
30
0.0000000000
10
110.3899228689
20
-69.3977183602
30
0.0000000000
11
110.4838285221
21
-69.3976551987
31
0.0000000000
11
110.3899228689
21
-69.3977183602
31
0.0000000000
0
SPLINE
5
54B
100
AcDbEntity
8
0
100
AcDbSpline
62
7
6
CONTINUOUS
70
0
71
3
72
9
73
5
74
3
42
0.0000001000
43
0.0000001000
44
0.0000000001
40
0.0000000000
40
0.0000000000
40
0.0000000000
40
0.0000000000
40
0.8353439508
40
1.0000000000
40
1.0000000000
40
1.0000000000
40
1.0000000000
10
110.3899228689
20
-69.3977183602
30
0.0000000000
10
110.3588409825
20
-69.3977558096
30
0.0000000000
10
110.3216325173
20
-69.3978205523
30
0.0000000000
10
110.2844241047
20
-69.3979100108
30
0.0000000000
10
110.2782975161
20
-69.3979254152
30
0.0000000000
11
110.3899228689
21
-69.3977183602
31
0.0000000000
11
110.2966772865
21
-69.3978812211
31
0.0000000000
11
110.2782975161
21
-69.3979254152
31
0.0000000000
0
ENDSEC
0
SECTION
2
OBJECTS
0
DICTIONARY
5
54C
100
AcDbDictionary
3
ACAD_GROUP
350
54D
3
ACAD_MLINESTYLE
350
54E
0
DICTIONARY
5
54D
102
{ACAD_REACTORS
330
54C
102
}
100
AcDbDictionary
0
DICTIONARY
5
54E
102
{ACAD_REACTORS
330
54C
102
}
100
AcDbDictionary
3
STANDARD
350
54F
0
MLINESTYLE
5
54F
102
{ACAD_REACTORS
330
54E
102
}
100
AcDbMlineStyle
2
STANDARD
70
0
3

62
256
51
90.0
52
90.0
71
2
49
0.5
62
256
6
BYLAYER
49
-0.5
62
256
6
BYLAYER
0
ENDSEC
0
EOF
