999
DXF file: WBPG-85t_7993712_M32396-P-1.dxf
999
Pro/ENGINEER 2011490 by Parametric Technology Corporation
  0
SECTION
  2
HEADER
  9
$ACADVER
  1
AC1015
  9
$DWGCODEPAGE
  3
ANSI_1252
  9
$EXTMAX
 10
1189.0
 20
841.0
 30
0.0
  9
$EXTMIN
 10
0.0
 20
0.0
 30
0.0
  9
$LIMMIN
 10
0.0
 20
0.0
  9
$LIMMAX
 10
1189.0
 20
841.0
  9
$VIEWCTR
 10
594.5
 20
420.5
  9
$VIEWSIZE
 40
841.0
  9
$CLAYER
  8
0
  9
$LTSCALE
 40
65.395
  9
$CELTYPE
  6
BYLAYER
  9
$DIMSCALE
 40
1.0
  9
$DIMASZ
 40
3.5
  9
$DIMEXO
 40
7.43125
  9
$DIMDLI
 40
45.182
  9
$DIMEXE
 40
21.402
  9
$DIMCEN
 40
10.701
  9
$DIMLFAC
 40
1.0
  9
$DIMBLK
  1
_FILLED
  9
$DIMTXT
 40
3.5
  9
$DIMTOL
 70
1
  9
$DIMLIM
 70
0
  9
$DIMTFAC
 40
1.0
  9
$DIMTP
 40
0.005
  9
$DIMTM
 40
0.005
  9
$PDMODE
 70
3
  9
$PDSIZE
 40
0.3125
  9
$HANDSEED
  5
864
  9
$TILEMODE
 70
1
  9
$MEASUREMENT
 70
1
  9
$INSUNITS
 70
4
  0
ENDSEC
  0
SECTION
  2
CLASSES
  0
CLASS
  1
ACDBDICTIONARYWDFLT
  2
AcDbDictionaryWithDefault
  3
AutoCAD 2000
 90
0
280
0
281
0
  0
CLASS
  1
ACDBPLACEHOLDER
  2
AcDbPlaceHolder
  3
AutoCAD 2000
 90
0
280
0
281
0
  0
CLASS
  1
LAYOUT
  2
AcDbLayout
  3
AutoCAD 2000
 90
0
280
0
281
0
  0
ENDSEC
  0
SECTION
  2
TABLES
  0
TABLE
  2
VPORT
  5
8
100
AcDbSymbolTable
 70
2
  0
VPORT
  5
1F4
100
AcDbSymbolTableRecord
100
AcDbViewportTableRecord
  2
*ACTIVE
 70
0
 10
0.0
 20
0.0
 11
1.0
 21
1.0
 12
594.5
 22
420.5
 13
0.0
 23
0.0
 14
1.0
 24
1.0
 15
0.0
 25
0.0
 16
0.0
 26
0.0
 36
1.0
 17
0.0
 27
0.0
 37
0.0
 40
841.0
 41
1.4137931034
 42
50.0
 43
0.0
 44
0.0
 50
0.0
 51
0.0
 71
0
 72
100
 73
1
 74
1
 75
0
 76
0
 77
0
 78
0
  0
ENDTAB
  0
TABLE
  2
LTYPE
  5
5
100
AcDbSymbolTable
 70
6
  0
LTYPE
  5
14
100
AcDbSymbolTableRecord
100
AcDbLinetypeTableRecord
  2
BYBLOCK
 70
0
  3

 72
65
 73
0
 40
0.0
  0
LTYPE
  5
15
100
AcDbSymbolTableRecord
100
AcDbLinetypeTableRecord
  2
BYLAYER
 70
0
  3

 72
65
 73
0
 40
0.0
  0
LTYPE
  5
16
100
AcDbSymbolTableRecord
100
AcDbLinetypeTableRecord
  2
CONTINUOUS
 70
64
  3
Solid line
 72
65
 73
0
 40
0.0
  0
LTYPE
  5
1F5
100
AcDbSymbolTableRecord
100
AcDbLinetypeTableRecord
  2
CENTER
 70
64
  3
____ _ ____ _ ____ _ ____ _ ____ _ ____ _ ____
 72
65
 73
4
 40
0.6
 49
0.375
 74
0
 49
-0.075
 74
0
 49
0.075
 74
0
 49
-0.075
 74
0
  0
LTYPE
  5
1F6
100
AcDbSymbolTableRecord
100
AcDbLinetypeTableRecord
  2
HIDDEN
 70
64
  3
- - - - - - - - - - - - - - - - - - - -
 72
65
 73
2
 40
0.2
 49
0.1
 74
0
 49
-0.1
 74
0
  0
LTYPE
  5
1F7
100
AcDbSymbolTableRecord
100
AcDbLinetypeTableRecord
  2
PHANTOM
 70
64
  3
_____ _ _ _____ _ _ _____ _ _ _____
 72
65
 73
6
 40
0.8
 49
0.45
 74
0
 49
-0.05
 74
0
 49
0.1
 74
0
 49
-0.05
 74
0
 49
0.1
 74
0
 49
-0.05
 74
0
  0
LTYPE
  5
1F8
100
AcDbSymbolTableRecord
100
AcDbLinetypeTableRecord
  2
DOT
 70
64
  3
. . . . . . . . . . . . . . . . . . . .
 72
65
 73
2
 40
0.2
 49
0.1
 74
0
 49
-0.1
 74
0
  0
LTYPE
  5
1F9
100
AcDbSymbolTableRecord
100
AcDbLinetypeTableRecord
  2
DASHED
 70
64
  3
- - - - - - - - - - - - - - - - - - - -
 72
65
 73
2
 40
0.2
 49
0.1
 74
0
 49
-0.1
 74
0
  0
ENDTAB
  0
TABLE
  2
LAYER
  5
2
100
AcDbSymbolTable
 70
36
  0
LAYER
  5
10
100
AcDbSymbolTableRecord
100
AcDbLayerTableRecord
  2
0
 70
0
 62
7
  6
CONTINUOUS
370
-3
390
F
  0
LAYER
  5
1FA
100
AcDbSymbolTableRecord
100
AcDbLayerTableRecord
  2
DEFAULT_1
 70
0
 62
7
  6
CENTER
370
-3
390
F
  0
LAYER
  5
1FB
100
AcDbSymbolTableRecord
100
AcDbLayerTableRecord
  2
DEFAULT_2
 70
0
 62
8
  6
HIDDEN
370
-3
390
F
  0
LAYER
  5
1FC
100
AcDbSymbolTableRecord
100
AcDbLayerTableRecord
  2
DEFAULT_3
 70
0
 62
7
  6
PHANTOM
370
-3
390
F
  0
LAYER
  5
1FD
100
AcDbSymbolTableRecord
100
AcDbLayerTableRecord
  2
BEZUGSACHSEN
 70
0
 62
7
  6
CONTINUOUS
370
-3
390
F
  0
LAYER
  5
1FE
100
AcDbSymbolTableRecord
100
AcDbLayerTableRecord
  2
BEZUGSEBENEN
 70
0
 62
7
  6
CONTINUOUS
370
-3
390
F
  0
LAYER
  5
1FF
100
AcDbSymbolTableRecord
100
AcDbLayerTableRecord
  2
BG_STARTBEZUEGE
 70
0
 62
7
  6
CONTINUOUS
370
-3
390
F
  0
LAYER
  5
200
100
AcDbSymbolTableRecord
100
AcDbLayerTableRecord
  2
FASEN
 70
0
 62
7
  6
CONTINUOUS
370
-3
390
F
  0
LAYER
  5
201
100
AcDbSymbolTableRecord
100
AcDbLayerTableRecord
  2
GEWINDE
 70
0
 62
7
  6
CONTINUOUS
370
-3
390
F
  0
LAYER
  5
202
100
AcDbSymbolTableRecord
100
AcDbLayerTableRecord
  2
HILFEN
 70
0
 62
7
  6
CONTINUOUS
370
-3
390
F
  0
LAYER
  5
203
100
AcDbSymbolTableRecord
100
AcDbLayerTableRecord
  2
KONSTRUKTIONSELEMENTE
 70
0
 62
7
  6
CONTINUOUS
370
-3
390
F
  0
LAYER
  5
204
100
AcDbSymbolTableRecord
100
AcDbLayerTableRecord
  2
KURVEN
 70
0
 62
7
  6
CONTINUOUS
370
-3
390
F
  0
LAYER
  5
205
100
AcDbSymbolTableRecord
100
AcDbLayerTableRecord
  2
NORM
 70
0
 62
7
  6
CONTINUOUS
370
-3
390
F
  0
LAYER
  5
206
100
AcDbSymbolTableRecord
100
AcDbLayerTableRecord
  2
PLATZIERUNG
 70
0
 62
7
  6
CONTINUOUS
370
-3
390
F
  0
LAYER
  5
207
100
AcDbSymbolTableRecord
100
AcDbLayerTableRecord
  2
PLAZIERUNG
 70
0
 62
7
  6
CONTINUOUS
370
-3
390
F
  0
LAYER
  5
208
100
AcDbSymbolTableRecord
100
AcDbLayerTableRecord
  2
RUNDUNGEN
 70
0
 62
7
  6
CONTINUOUS
370
-3
390
F
  0
LAYER
  5
209
100
AcDbSymbolTableRecord
100
AcDbLayerTableRecord
  2
TEIL_STARTBEZUEGE
 70
0
 62
7
  6
CONTINUOUS
370
-3
390
F
  0
LAYER
  5
20A
100
AcDbSymbolTableRecord
100
AcDbLayerTableRecord
  2
T_STARTBEZUEGE
 70
0
 62
7
  6
CONTINUOUS
370
-3
390
F
  0
LAYER
  5
20B
100
AcDbSymbolTableRecord
100
AcDbLayerTableRecord
  2
ZEICHNUNGSBEMASSUNGEN
 70
0
 62
7
  6
CONTINUOUS
370
-3
390
F
  0
ENDTAB
  0
TABLE
  2
STYLE
  5
3
100
AcDbSymbolTable
 70
1
  0
STYLE
  5
11
100
AcDbSymbolTableRecord
100
AcDbTextStyleTableRecord
  2
STANDARD
 70
0
 40
0.0
 41
0.7
 50
0.0
 71
0
 42
0.2
  3
txt
  4

  0
STYLE
  5
20C
100
AcDbSymbolTableRecord
100
AcDbTextStyleTableRecord
  2
TEXTSTYLE_1
 70
0
 40
0.0
 41
0.8
 50
0.0
 71
0
 42
0.2
  3
gdt
  4

  0
ENDTAB
  0
TABLE
  2
VIEW
  5
6
100
AcDbSymbolTable
 70
0
  0
ENDTAB
  0
TABLE
  2
UCS
  5
7
100
AcDbSymbolTable
 70
0
  0
ENDTAB
  0
TABLE
  2
APPID
  5
9
100
AcDbSymbolTable
 70
1
  0
APPID
  5
20D
100
AcDbSymbolTableRecord
100
AcDbRegAppTableRecord
  2
ACAD
 70
0
  0
ENDTAB
  0
TABLE
  2
BLOCK_RECORD
  5
1
100
AcDbSymbolTable
 70
0
  0
BLOCK_RECORD
  5
20E
100
AcDbSymbolTableRecord
100
AcDbBlockTableRecord
  2
*Model_Space
  0
BLOCK_RECORD
  5
20F
100
AcDbSymbolTableRecord
100
AcDbBlockTableRecord
  2
*Paper_Space
  0
ENDTAB
  0
TABLE
  2
DIMSTYLE
  5
A
100
AcDbSymbolTable
 70
1
100
AcDbDimStyleTable
 71
0
  0
DIMSTYLE
105
210
100
AcDbSymbolTableRecord
100
AcDbDimStyleTableRecord
  2
STANDARD
 70
0
  3

  4

 40
1.0
 41
3.5
 42
0.0625
 43
0.38
 44
0.18
 45
0.0
 46
0.0
 47
0.005
 48
0.005
140
3.5
141
0.09
142
0.0
143
25.4
144
1.0
145
0.0
146
1.0
147
0.09
 71
1.0
 72
0.0
 73
0
 74
0
 75
0
 76
0
 77
1
 78
8
170
0
171
2
172
0
173
0
174
0
175
0
176
0
177
0
178
5
270
2
271
3
272
3
273
2
274
2
275
0
280
0
281
0
282
0
283
1
284
8
285
0
286
0
287
3
288
0
340
11
  0
ENDTAB
  0
ENDSEC
  0
SECTION
  2
BLOCKS
  0
BLOCK
  5
20
100
AcDbEntity
  8
0
100
AcDbBlockBegin
  2
*Model_Space
 70
0
 10
0.0
 20
0.0
 30
0.0
  3
*Model_Space
  1

  0
ENDBLK
  5
21
100
AcDbEntity
  8
0
100
AcDbBlockEnd
  0
BLOCK
  5
1C
100
AcDbEntity
  8
0
100
AcDbBlockBegin
  2
*Paper_Space
 70
0
 10
0.0
 20
0.0
 30
0.0
  3
*Paper_Space
  1

  0
ENDBLK
  5
1D
100
AcDbEntity
  8
0
100
AcDbBlockEnd
  0
ENDSEC
  0
SECTION
  2
ENTITIES
  0
MTEXT
  5
211
100
AcDbEntity
  8
0
100
AcDbMText
 62
5
  6
CONTINUOUS
  7
STANDARD
 71
2
 72
1
 10
268.1487495749
 20
1053.7727631031
 30
0.0
 11
1.0
 21
0.0
 31
0.0
 44
0.9
  1
RUD\PWBPG 85t 
 40
12.0
 41
88.2857142857
  0
MTEXT
  5
212
100
AcDbEntity
  8
0
100
AcDbMText
 62
5
  6
CONTINUOUS
  7
STANDARD
 71
2
 72
1
 10
906.8906414807
 20
1055.7012850802
 30
0.0
 11
1.0
 21
0.0
 31
0.0
 44
0.9
  1
RUD\PWBPG 85t 
 40
12.0
 41
88.2857142857
  0
LINE
  5
213
100
AcDbEntity
  8
0
100
AcDbLine
 62
7
  6
CONTINUOUS
 10
0.0
 20
0.0
 11
0.0
 21
841.0
  0
LINE
  5
214
100
AcDbEntity
  8
0
100
AcDbLine
 62
7
  6
CONTINUOUS
 10
0.0
 20
0.0
 11
1189.0
 21
0.0
  0
LINE
  5
215
100
AcDbEntity
  8
0
100
AcDbLine
 62
7
  6
CONTINUOUS
 10
0.0
 20
841.0
 11
1189.0
 21
841.0
  0
LINE
  5
216
100
AcDbEntity
  8
0
100
AcDbLine
 62
7
  6
CONTINUOUS
 10
1189.0
 20
0.0
 11
1189.0
 21
841.0
  0
LINE
  5
217
100
AcDbEntity
  8
BEZUGSACHSEN
100
AcDbLine
 62
7
  6
CONTINUOUS
 10
90.4199768527
 20
924.6893523708
 11
128.4199768527
 21
924.6893523708
  0
LINE
  5
218
100
AcDbEntity
  8
BEZUGSACHSEN
100
AcDbLine
 62
7
  6
CONTINUOUS
 10
167.9199768527
 20
924.6893523708
 11
205.9199768527
 21
924.6893523708
  0
LINE
  5
219
100
AcDbEntity
  8
BEZUGSACHSEN
100
AcDbLine
 62
7
  6
CONTINUOUS
 10
322.9199768527
 20
924.6893523708
 11
360.9199768527
 21
924.6893523708
  0
LINE
  5
21A
100
AcDbEntity
  8
BEZUGSACHSEN
100
AcDbLine
 62
7
  6
CONTINUOUS
 10
400.4199768527
 20
924.6893523708
 11
438.4199768527
 21
924.6893523708
  0
LINE
  5
21B
100
AcDbEntity
  8
BEZUGSACHSEN
100
AcDbLine
 62
7
  6
CONTINUOUS
 10
85.4199768527
 20
929.6893523708
 11
90.4199768527
 21
924.6893523708
  0
LINE
  5
21C
100
AcDbEntity
  8
BEZUGSACHSEN
100
AcDbLine
 62
7
  6
CONTINUOUS
 10
85.4199768527
 20
929.6893523708
 11
133.4199768527
 21
929.6893523708
  0
LINE
  5
21D
100
AcDbEntity
  8
BEZUGSACHSEN
100
AcDbLine
 62
7
  6
CONTINUOUS
 10
162.9199768527
 20
929.6893523708
 11
210.9199768527
 21
929.6893523708
  0
LINE
  5
21E
100
AcDbEntity
  8
BEZUGSACHSEN
100
AcDbLine
 62
7
  6
CONTINUOUS
 10
317.9199768527
 20
929.6893523708
 11
365.9199768527
 21
929.6893523708
  0
LINE
  5
21F
100
AcDbEntity
  8
BEZUGSACHSEN
100
AcDbLine
 62
7
  6
CONTINUOUS
 10
395.4199768527
 20
929.6893523708
 11
443.4199768527
 21
929.6893523708
  0
LINE
  5
220
100
AcDbEntity
  8
BEZUGSACHSEN
100
AcDbLine
 62
7
  6
CONTINUOUS
 10
162.9199768527
 20
929.6893523708
 11
167.9199768527
 21
924.6893523708
  0
LINE
  5
221
100
AcDbEntity
  8
0
100
AcDbLine
 62
7
  6
CONTINUOUS
 10
64.4199768527
 20
994.6893523708
 11
464.4199768527
 21
994.6893523708
  0
LINE
  5
222
100
AcDbEntity
  8
BEZUGSACHSEN
100
AcDbLine
 62
7
  6
CONTINUOUS
 10
317.9199768527
 20
929.6893523708
 11
322.9199768527
 21
924.6893523708
  0
LINE
  5
223
100
AcDbEntity
  8
0
100
AcDbLine
 62
7
  6
CONTINUOUS
 10
64.4199768527
 20
994.6893523708
 11
64.4199768527
 21
1084.6893523708
  0
LINE
  5
224
100
AcDbEntity
  8
BEZUGSACHSEN
100
AcDbLine
 62
7
  6
CONTINUOUS
 10
66.1187066635
 20
1085.1893523708
 11
66.1187066635
 21
1111.3399874654
  0
LINE
  5
225
100
AcDbEntity
  8
KONSTRUKTIONSELEMENTE
100
AcDbLine
 62
7
  6
CONTINUOUS
 10
74.7199768527
 20
1084.6893523708
 11
74.7199768527
 21
1085.1893523708
  0
LINE
  5
226
100
AcDbEntity
  8
BEZUGSACHSEN
100
AcDbLine
 62
7
  6
CONTINUOUS
 10
74.7199768527
 20
1084.6893523708
 11
74.7199768527
 21
1085.1893523708
  0
LINE
  5
227
100
AcDbEntity
  8
KONSTRUKTIONSELEMENTE
100
AcDbLine
 62
7
  6
CONTINUOUS
 10
78.2273476533
 20
1114.6893523708
 11
78.2273476533
 21
1114.8893523708
  0
LINE
  5
228
100
AcDbEntity
  8
0
100
AcDbLine
 62
7
  6
CONTINUOUS
 10
64.4199768527
 20
1084.6893523708
 11
464.4199768527
 21
1084.6893523708
  0
LINE
  5
229
100
AcDbEntity
  8
KONSTRUKTIONSELEMENTE
100
AcDbLine
 62
7
  6
CONTINUOUS
 10
66.1187066635
 20
1085.1893523708
 11
230.221247042
 21
1085.1893523708
  0
LINE
  5
22A
100
AcDbEntity
  8
KONSTRUKTIONSELEMENTE
100
AcDbLine
 62
7
  6
CONTINUOUS
 10
298.6187066635
 20
1085.1893523708
 11
462.721247042
 21
1085.1893523708
  0
LINE
  5
22B
100
AcDbEntity
  8
BEZUGSACHSEN
100
AcDbLine
 62
7
  6
CONTINUOUS
 10
148.1699768527
 20
1113.9676645343
 11
146.9199768527
 21
1114.6893523708
  0
LINE
  5
22C
100
AcDbEntity
  8
BEZUGSACHSEN
100
AcDbLine
 62
7
  6
CONTINUOUS
 10
85.4199768527
 20
994.6893523708
 11
85.4199768527
 21
929.6893523708
  0
LINE
  5
22D
100
AcDbEntity
  8
0
100
AcDbLine
 62
7
  6
CONTINUOUS
 10
87.4199768527
 20
1141.1893523708
 11
87.4199768527
 21
1261.1893523708
  0
LINE
  5
22E
100
AcDbEntity
  8
BEZUGSACHSEN
100
AcDbLine
 62
7
  6
CONTINUOUS
 10
87.7693417581
 20
1085.1893523708
 11
87.7693417581
 21
1111.3399874654
  0
LINE
  5
22F
100
AcDbEntity
  8
KONSTRUKTIONSELEMENTE
100
AcDbLine
 62
7
  6
CONTINUOUS
 10
88.050226702
 20
1114.6893523708
 11
88.050226702
 21
1114.8893523708
  0
LINE
  5
230
100
AcDbEntity
  8
KONSTRUKTIONSELEMENTE
100
AcDbLine
 62
7
  6
CONTINUOUS
 10
88.2844490588
 20
1114.6893523708
 11
88.2844490588
 21
1114.8893523708
  0
LINE
  5
231
100
AcDbEntity
  8
KONSTRUKTIONSELEMENTE
100
AcDbLine
 62
7
  6
CONTINUOUS
 10
89.2603755082
 20
1114.6893523708
 11
89.2603755082
 21
1114.8893523708
  0
LINE
  5
232
100
AcDbEntity
  8
KONSTRUKTIONSELEMENTE
100
AcDbLine
 62
7
  6
CONTINUOUS
 10
89.5336349989
 20
1114.6893523708
 11
89.5336349989
 21
1114.8893523708
  0
LINE
  5
233
100
AcDbEntity
  8
KONSTRUKTIONSELEMENTE
100
AcDbLine
 62
7
  6
CONTINUOUS
 10
90.639358103
 20
1114.6893523708
 11
90.639358103
 21
1114.8893523708
  0
LINE
  5
234
100
AcDbEntity
  8
KONSTRUKTIONSELEMENTE
100
AcDbLine
 62
7
  6
CONTINUOUS
 10
91.4762234256
 20
1114.6893523708
 11
91.4762234256
 21
1114.8893523708
  0
LINE
  5
235
100
AcDbEntity
  8
KONSTRUKTIONSELEMENTE
100
AcDbLine
 62
7
  6
CONTINUOUS
 10
92.2653517394
 20
1114.6893523708
 11
92.2653517394
 21
1114.8893523708
  0
LINE
  5
236
100
AcDbEntity
  8
KONSTRUKTIONSELEMENTE
100
AcDbLine
 62
7
  6
CONTINUOUS
 10
92.7596133266
 20
1114.6893523708
 11
92.7596133266
 21
1114.8893523708
  0
LINE
  5
237
100
AcDbEntity
  8
KONSTRUKTIONSELEMENTE
100
AcDbLine
 62
7
  6
CONTINUOUS
 10
93.2061379199
 20
1114.6893523708
 11
93.2061379199
 21
1114.8893523708
  0
LINE
  5
238
100
AcDbEntity
  8
KONSTRUKTIONSELEMENTE
100
AcDbLine
 62
7
  6
CONTINUOUS
 10
93.3577957715
 20
1114.6893523708
 11
93.3577957715
 21
1114.8893523708
  0
LINE
  5
239
100
AcDbEntity
  8
KONSTRUKTIONSELEMENTE
100
AcDbLine
 62
7
  6
CONTINUOUS
 10
96.0347125496
 20
1114.6893523708
 11
96.0347125496
 21
1114.8893523708
  0
LINE
  5
23A
100
AcDbEntity
  8
KONSTRUKTIONSELEMENTE
100
AcDbLine
 62
7
  6
CONTINUOUS
 10
100.4707799183
 20
1114.6893523708
 11
100.4707799183
 21
1114.8893523708
  0
LINE
  5
23B
100
AcDbEntity
  8
KONSTRUKTIONSELEMENTE
100
AcDbLine
 62
7
  6
CONTINUOUS
 10
101.29679981
 20
1114.6893523708
 11
101.29679981
 21
1114.8893523708
  0
LINE
  5
23C
100
AcDbEntity
  8
KONSTRUKTIONSELEMENTE
100
AcDbLine
 62
7
  6
CONTINUOUS
 10
101.8398206276
 20
1114.6893523708
 11
101.8398206276
 21
1114.8893523708
  0
LINE
  5
23D
100
AcDbEntity
  8
KONSTRUKTIONSELEMENTE
100
AcDbLine
 62
7
  6
CONTINUOUS
 10
102.1865184235
 20
1114.6893523708
 11
102.1865184235
 21
1114.8893523708
  0
LINE
  5
23E
100
AcDbEntity
  8
BEZUGSACHSEN
100
AcDbLine
 62
7
  6
CONTINUOUS
 10
71.9201438415
 20
1114.6893523708
 11
146.919809864
 21
1114.6893523708
  0
LINE
  5
23F
100
AcDbEntity
  8
BEZUGSACHSEN
100
AcDbLine
 62
7
  6
CONTINUOUS
 10
149.4201438415
 20
1114.6893523708
 11
224.419809864
 21
1114.6893523708
  0
LINE
  5
240
100
AcDbEntity
  8
BEZUGSACHSEN
100
AcDbLine
 62
7
  6
CONTINUOUS
 10
304.4201438415
 20
1114.6893523708
 11
379.419809864
 21
1114.6893523708
  0
LINE
  5
241
100
AcDbEntity
  8
BEZUGSACHSEN
100
AcDbLine
 62
7
  6
CONTINUOUS
 10
381.9201438415
 20
1114.6893523708
 11
456.919809864
 21
1114.6893523708
  0
LINE
  5
242
100
AcDbEntity
  8
KONSTRUKTIONSELEMENTE
100
AcDbLine
 62
7
  6
CONTINUOUS
 10
78.2273476533
 20
1114.8893523708
 11
102.1865184235
 21
1114.8893523708
  0
LINE
  5
243
100
AcDbEntity
  8
KONSTRUKTIONSELEMENTE
100
AcDbLine
 62
7
  6
CONTINUOUS
 10
115.3606473671
 20
1114.8893523708
 11
140.3411153702
 21
1114.8893523708
  0
LINE
  5
244
100
AcDbEntity
  8
KONSTRUKTIONSELEMENTE
100
AcDbLine
 62
7
  6
CONTINUOUS
 10
155.7273476533
 20
1114.8893523708
 11
179.6865184235
 21
1114.8893523708
  0
LINE
  5
245
100
AcDbEntity
  8
KONSTRUKTIONSELEMENTE
100
AcDbLine
 62
7
  6
CONTINUOUS
 10
192.8606473671
 20
1114.8893523708
 11
217.8411153702
 21
1114.8893523708
  0
LINE
  5
246
100
AcDbEntity
  8
KONSTRUKTIONSELEMENTE
100
AcDbLine
 62
7
  6
CONTINUOUS
 10
310.7273476533
 20
1114.8893523708
 11
334.6865184235
 21
1114.8893523708
  0
LINE
  5
247
100
AcDbEntity
  8
KONSTRUKTIONSELEMENTE
100
AcDbLine
 62
7
  6
CONTINUOUS
 10
347.8606473671
 20
1114.8893523708
 11
372.8411153702
 21
1114.8893523708
  0
LINE
  5
248
100
AcDbEntity
  8
KONSTRUKTIONSELEMENTE
100
AcDbLine
 62
7
  6
CONTINUOUS
 10
388.2273476533
 20
1114.8893523708
 11
412.1865184235
 21
1114.8893523708
  0
LINE
  5
249
100
AcDbEntity
  8
KONSTRUKTIONSELEMENTE
100
AcDbLine
 62
7
  6
CONTINUOUS
 10
425.3606473671
 20
1114.8893523708
 11
450.3411153702
 21
1114.8893523708
  0
LINE
  5
24A
100
AcDbEntity
  8
BEZUGSACHSEN
100
AcDbLine
 62
7
  6
CONTINUOUS
 10
230.221247042
 20
1111.3399874654
 11
224.4199768527
 21
1114.6893523708
  0
LINE
  5
24B
100
AcDbEntity
  8
BEZUGSACHSEN
100
AcDbLine
 62
7
  6
CONTINUOUS
 10
395.4199768527
 20
929.6893523708
 11
400.4199768527
 21
924.6893523708
  0
LINE
  5
24C
100
AcDbEntity
  8
KONSTRUKTIONSELEMENTE
100
AcDbLine
 62
7
  6
CONTINUOUS
 10
115.3606473671
 20
1114.6893523708
 11
115.3606473671
 21
1114.8893523708
  0
LINE
  5
24D
100
AcDbEntity
  8
KONSTRUKTIONSELEMENTE
100
AcDbLine
 62
7
  6
CONTINUOUS
 10
116.4500263564
 20
1114.6893523708
 11
116.4500263564
 21
1114.8893523708
  0
LINE
  5
24E
100
AcDbEntity
  8
KONSTRUKTIONSELEMENTE
100
AcDbLine
 62
7
  6
CONTINUOUS
 10
118.9919092795
 20
1114.6893523708
 11
118.9919092795
 21
1114.8893523708
  0
LINE
  5
24F
100
AcDbEntity
  8
KONSTRUKTIONSELEMENTE
100
AcDbLine
 62
7
  6
CONTINUOUS
 10
120.444417369
 20
1114.6893523708
 11
120.444417369
 21
1114.8893523708
  0
LINE
  5
250
100
AcDbEntity
  8
KONSTRUKTIONSELEMENTE
100
AcDbLine
 62
7
  6
CONTINUOUS
 10
122.9863002922
 20
1114.6893523708
 11
122.9863002922
 21
1114.8893523708
  0
LINE
  5
251
100
AcDbEntity
  8
KONSTRUKTIONSELEMENTE
100
AcDbLine
 62
7
  6
CONTINUOUS
 10
124.0756792815
 20
1114.6893523708
 11
124.0756792815
 21
1114.8893523708
  0
LINE
  5
252
100
AcDbEntity
  8
0
100
AcDbLine
 62
7
  6
CONTINUOUS
 10
125.9199768527
 20
1350.1893523708
 11
125.9199768527
 21
1265.580052893
  0
LINE
  5
253
100
AcDbEntity
  8
RUNDUNGEN
100
AcDbLine
 62
7
  6
CONTINUOUS
 10
125.9199768527
 20
1251.3837203976
 11
125.9199768527
 21
1210.9949843441
  0
LINE
  5
254
100
AcDbEntity
  8
RUNDUNGEN
100
AcDbLine
 62
7
  6
CONTINUOUS
 10
125.9199768527
 20
1191.3837203976
 11
125.9199768527
 21
1150.9949843441
  0
LINE
  5
255
100
AcDbEntity
  8
RUNDUNGEN
100
AcDbLine
 62
7
  6
CONTINUOUS
 10
125.9199768527
 20
1141.1893523708
 11
125.9199768527
 21
1136.8173864229
  0
LINE
  5
256
100
AcDbEntity
  8
0
100
AcDbLine
 62
7
  6
CONTINUOUS
 10
125.9199768527
 20
1136.8173864229
 11
125.9199768527
 21
1265.5613294939
  0
LINE
  5
257
100
AcDbEntity
  8
RUNDUNGEN
100
AcDbLine
 62
7
  6
CONTINUOUS
 10
125.9199768527
 20
1265.580052893
 11
125.9199768527
 21
1350.1893523708
  0
LINE
  5
258
100
AcDbEntity
  8
KONSTRUKTIONSELEMENTE
100
AcDbLine
 62
7
  6
CONTINUOUS
 10
127.8065020238
 20
1114.6893523708
 11
127.8065020238
 21
1114.8893523708
  0
LINE
  5
259
100
AcDbEntity
  8
KONSTRUKTIONSELEMENTE
100
AcDbLine
 62
7
  6
CONTINUOUS
 10
127.8361935907
 20
1114.6893523708
 11
127.8361935907
 21
1114.8893523708
  0
LINE
  5
25A
100
AcDbEntity
  8
KONSTRUKTIONSELEMENTE
100
AcDbLine
 62
7
  6
CONTINUOUS
 10
128.481420231
 20
1114.6893523708
 11
128.481420231
 21
1114.8893523708
  0
LINE
  5
25B
100
AcDbEntity
  8
KONSTRUKTIONSELEMENTE
100
AcDbLine
 62
7
  6
CONTINUOUS
 10
130.2885927203
 20
1114.6893523708
 11
130.2885927203
 21
1114.8893523708
  0
LINE
  5
25C
100
AcDbEntity
  8
KONSTRUKTIONSELEMENTE
100
AcDbLine
 62
7
  6
CONTINUOUS
 10
130.396006553
 20
1114.6893523708
 11
130.396006553
 21
1114.8893523708
  0
LINE
  5
25D
100
AcDbEntity
  8
KONSTRUKTIONSELEMENTE
100
AcDbLine
 62
7
  6
CONTINUOUS
 10
130.6974973009
 20
1114.6893523708
 11
130.6974973009
 21
1114.8893523708
  0
LINE
  5
25E
100
AcDbEntity
  8
BEZUGSACHSEN
100
AcDbLine
 62
7
  6
CONTINUOUS
 10
131.0706119473
 20
1085.1893523708
 11
131.0706119473
 21
1111.3399874654
  0
LINE
  5
25F
100
AcDbEntity
  8
KONSTRUKTIONSELEMENTE
100
AcDbLine
 62
7
  6
CONTINUOUS
 10
131.4229455342
 20
1114.6893523708
 11
131.4229455342
 21
1114.8893523708
  0
LINE
  5
260
100
AcDbEntity
  8
KONSTRUKTIONSELEMENTE
100
AcDbLine
 62
7
  6
CONTINUOUS
 10
132.1125893117
 20
1114.6893523708
 11
132.1125893117
 21
1114.8893523708
  0
LINE
  5
261
100
AcDbEntity
  8
KONSTRUKTIONSELEMENTE
100
AcDbLine
 62
7
  6
CONTINUOUS
 10
133.2082885793
 20
1114.6893523708
 11
133.2082885793
 21
1114.8893523708
  0
LINE
  5
262
100
AcDbEntity
  8
BEZUGSACHSEN
100
AcDbLine
 62
7
  6
CONTINUOUS
 10
133.4199768527
 20
994.6893523708
 11
133.4199768527
 21
929.6893523708
  0
LINE
  5
263
100
AcDbEntity
  8
KONSTRUKTIONSELEMENTE
100
AcDbLine
 62
7
  6
CONTINUOUS
 10
133.8442253662
 20
1114.6893523708
 11
133.8442253662
 21
1114.8893523708
  0
LINE
  5
264
100
AcDbEntity
  8
KONSTRUKTIONSELEMENTE
100
AcDbLine
 62
7
  6
CONTINUOUS
 10
134.8683158337
 20
1114.6893523708
 11
134.8683158337
 21
1114.8893523708
  0
LINE
  5
265
100
AcDbEntity
  8
KONSTRUKTIONSELEMENTE
100
AcDbLine
 62
7
  6
CONTINUOUS
 10
135.4326432623
 20
1114.6893523708
 11
135.4326432623
 21
1114.8893523708
  0
LINE
  5
266
100
AcDbEntity
  8
RUNDUNGEN
100
AcDbLine
 62
7
  6
CONTINUOUS
 10
125.9199779524
 20
1265.5660064448
 11
125.9199768527
 21
1261.1893523708
  0
LINE
  5
267
100
AcDbEntity
  8
0
100
AcDbLine
 62
7
  6
CONTINUOUS
 10
125.9199768527
 20
1141.1893523708
 11
87.4199768527
 21
1141.1893523708
  0
LINE
  5
268
100
AcDbEntity
  8
0
100
AcDbLine
 62
7
  6
CONTINUOUS
 10
402.9199768527
 20
1141.1893523708
 11
437.9199768527
 21
1141.1893523708
  0
LINE
  5
269
100
AcDbEntity
  8
KONSTRUKTIONSELEMENTE
100
AcDbLine
 62
7
  6
CONTINUOUS
 10
135.608817717
 20
1114.6893523708
 11
135.608817717
 21
1114.8893523708
  0
LINE
  5
26A
100
AcDbEntity
  8
KONSTRUKTIONSELEMENTE
100
AcDbLine
 62
7
  6
CONTINUOUS
 10
135.8566011202
 20
1114.6893523708
 11
135.8566011202
 21
1114.8893523708
  0
LINE
  5
26B
100
AcDbEntity
  8
KONSTRUKTIONSELEMENTE
100
AcDbLine
 62
7
  6
CONTINUOUS
 10
136.5462448235
 20
1114.6893523708
 11
136.5462448235
 21
1114.8893523708
  0
LINE
  5
26C
100
AcDbEntity
  8
KONSTRUKTIONSELEMENTE
100
AcDbLine
 62
7
  6
CONTINUOUS
 10
137.4299654235
 20
1114.6893523708
 11
137.4299654235
 21
1114.8893523708
  0
LINE
  5
26D
100
AcDbEntity
  8
KONSTRUKTIONSELEMENTE
100
AcDbLine
 62
7
  6
CONTINUOUS
 10
138.0659022104
 20
1114.6893523708
 11
138.0659022104
 21
1114.8893523708
  0
LINE
  5
26E
100
AcDbEntity
  8
KONSTRUKTIONSELEMENTE
100
AcDbLine
 62
7
  6
CONTINUOUS
 10
139.089992565
 20
1114.6893523708
 11
139.089992565
 21
1114.8893523708
  0
LINE
  5
26F
100
AcDbEntity
  8
KONSTRUKTIONSELEMENTE
100
AcDbLine
 62
7
  6
CONTINUOUS
 10
139.6722224356
 20
1114.6893523708
 11
139.6722224356
 21
1114.8893523708
  0
LINE
  5
270
100
AcDbEntity
  8
KONSTRUKTIONSELEMENTE
100
AcDbLine
 62
7
  6
CONTINUOUS
 10
140.2186478319
 20
1114.6893523708
 11
140.2186478319
 21
1114.8893523708
  0
LINE
  5
271
100
AcDbEntity
  8
KONSTRUKTIONSELEMENTE
100
AcDbLine
 62
7
  6
CONTINUOUS
 10
140.3411153702
 20
1114.6893523708
 11
140.3411153702
 21
1114.8893523708
  0
LINE
  5
272
100
AcDbEntity
  8
BEZUGSACHSEN
100
AcDbLine
 62
7
  6
CONTINUOUS
 10
143.6187066635
 20
1085.1893523708
 11
143.6187066635
 21
1111.3399874654
  0
LINE
  5
273
100
AcDbEntity
  8
KONSTRUKTIONSELEMENTE
100
AcDbLine
 62
7
  6
CONTINUOUS
 10
144.1199768527
 20
1084.6893523708
 11
144.1199768527
 21
1085.1893523708
  0
LINE
  5
274
100
AcDbEntity
  8
BEZUGSACHSEN
100
AcDbLine
 62
7
  6
CONTINUOUS
 10
144.1199768527
 20
1084.6893523708
 11
144.1199768527
 21
1085.1893523708
  0
LINE
  5
275
100
AcDbEntity
  8
KONSTRUKTIONSELEMENTE
100
AcDbLine
 62
7
  6
CONTINUOUS
 10
152.2199768527
 20
1084.6893523708
 11
152.2199768527
 21
1085.1893523708
  0
LINE
  5
276
100
AcDbEntity
  8
BEZUGSACHSEN
100
AcDbLine
 62
7
  6
CONTINUOUS
 10
152.2199768527
 20
1084.6893523708
 11
152.2199768527
 21
1085.1893523708
  0
LINE
  5
277
100
AcDbEntity
  8
KONSTRUKTIONSELEMENTE
100
AcDbLine
 62
7
  6
CONTINUOUS
 10
155.7273476533
 20
1114.6893523708
 11
155.7273476533
 21
1114.8893523708
  0
LINE
  5
278
100
AcDbEntity
  8
BEZUGSACHSEN
100
AcDbLine
 62
7
  6
CONTINUOUS
 10
162.9199768527
 20
994.6893523708
 11
162.9199768527
 21
929.6893523708
  0
LINE
  5
279
100
AcDbEntity
  8
0
100
AcDbLine
 62
7
  6
CONTINUOUS
 10
475.9199768527
 20
1159.6893523708
 11
437.9199768527
 21
1159.6893523708
  0
LINE
  5
27A
100
AcDbEntity
  8
0
100
AcDbLine
 62
7
  6
CONTINUOUS
 10
327.9199768527
 20
1159.6893523708
 11
325.9199768527
 21
1159.6893523708
  0
LINE
  5
27B
100
AcDbEntity
  8
0
100
AcDbLine
 62
7
  6
CONTINUOUS
 10
202.9199768527
 20
1159.6893523708
 11
200.9199768527
 21
1159.6893523708
  0
LINE
  5
27C
100
AcDbEntity
  8
0
100
AcDbLine
 62
7
  6
CONTINUOUS
 10
104.7560961271
 20
1417.8160263424
 11
122.575938264
 21
1369.0748402036
  0
LINE
  5
27D
100
AcDbEntity
  8
BEZUGSACHSEN
100
AcDbLine
 62
7
  6
CONTINUOUS
 10
165.2693417581
 20
1085.1893523708
 11
165.2693417581
 21
1111.3399874654
  0
LINE
  5
27E
100
AcDbEntity
  8
KONSTRUKTIONSELEMENTE
100
AcDbLine
 62
7
  6
CONTINUOUS
 10
165.550226702
 20
1114.6893523708
 11
165.550226702
 21
1114.8893523708
  0
LINE
  5
27F
100
AcDbEntity
  8
KONSTRUKTIONSELEMENTE
100
AcDbLine
 62
7
  6
CONTINUOUS
 10
165.7844490588
 20
1114.6893523708
 11
165.7844490588
 21
1114.8893523708
  0
LINE
  5
280
100
AcDbEntity
  8
KONSTRUKTIONSELEMENTE
100
AcDbLine
 62
7
  6
CONTINUOUS
 10
166.7603755082
 20
1114.6893523708
 11
166.7603755082
 21
1114.8893523708
  0
LINE
  5
281
100
AcDbEntity
  8
KONSTRUKTIONSELEMENTE
100
AcDbLine
 62
7
  6
CONTINUOUS
 10
167.0336349989
 20
1114.6893523708
 11
167.0336349989
 21
1114.8893523708
  0
LINE
  5
282
100
AcDbEntity
  8
KONSTRUKTIONSELEMENTE
100
AcDbLine
 62
7
  6
CONTINUOUS
 10
168.139358103
 20
1114.6893523708
 11
168.139358103
 21
1114.8893523708
  0
LINE
  5
283
100
AcDbEntity
  8
KONSTRUKTIONSELEMENTE
100
AcDbLine
 62
7
  6
CONTINUOUS
 10
168.9762234256
 20
1114.6893523708
 11
168.9762234256
 21
1114.8893523708
  0
LINE
  5
284
100
AcDbEntity
  8
KONSTRUKTIONSELEMENTE
100
AcDbLine
 62
7
  6
CONTINUOUS
 10
169.7653517394
 20
1114.6893523708
 11
169.7653517394
 21
1114.8893523708
  0
LINE
  5
285
100
AcDbEntity
  8
KONSTRUKTIONSELEMENTE
100
AcDbLine
 62
7
  6
CONTINUOUS
 10
170.2596133266
 20
1114.6893523708
 11
170.2596133266
 21
1114.8893523708
  0
LINE
  5
286
100
AcDbEntity
  8
KONSTRUKTIONSELEMENTE
100
AcDbLine
 62
7
  6
CONTINUOUS
 10
170.7061379199
 20
1114.6893523708
 11
170.7061379199
 21
1114.8893523708
  0
LINE
  5
287
100
AcDbEntity
  8
KONSTRUKTIONSELEMENTE
100
AcDbLine
 62
7
  6
CONTINUOUS
 10
170.8577957715
 20
1114.6893523708
 11
170.8577957715
 21
1114.8893523708
  0
LINE
  5
288
100
AcDbEntity
  8
KONSTRUKTIONSELEMENTE
100
AcDbLine
 62
7
  6
CONTINUOUS
 10
173.5347125496
 20
1114.6893523708
 11
173.5347125496
 21
1114.8893523708
  0
LINE
  5
289
100
AcDbEntity
  8
KONSTRUKTIONSELEMENTE
100
AcDbLine
 62
7
  6
CONTINUOUS
 10
177.9707799183
 20
1114.6893523708
 11
177.9707799183
 21
1114.8893523708
  0
LINE
  5
28A
100
AcDbEntity
  8
KONSTRUKTIONSELEMENTE
100
AcDbLine
 62
7
  6
CONTINUOUS
 10
178.79679981
 20
1114.6893523708
 11
178.79679981
 21
1114.8893523708
  0
LINE
  5
28B
100
AcDbEntity
  8
KONSTRUKTIONSELEMENTE
100
AcDbLine
 62
7
  6
CONTINUOUS
 10
179.3398206276
 20
1114.6893523708
 11
179.3398206276
 21
1114.8893523708
  0
LINE
  5
28C
100
AcDbEntity
  8
KONSTRUKTIONSELEMENTE
100
AcDbLine
 62
7
  6
CONTINUOUS
 10
179.6865184235
 20
1114.6893523708
 11
179.6865184235
 21
1114.8893523708
  0
LINE
  5
28D
100
AcDbEntity
  8
0
100
AcDbLine
 62
7
  6
CONTINUOUS
 10
125.9199768527
 20
1201.1893523708
 11
87.4199768527
 21
1201.1893523708
  0
LINE
  5
28E
100
AcDbEntity
  8
0
100
AcDbLine
 62
7
  6
CONTINUOUS
 10
402.9199768527
 20
1201.1893523708
 11
437.9199768527
 21
1201.1893523708
  0
LINE
  5
28F
100
AcDbEntity
  8
BEZUGSACHSEN
100
AcDbLine
 62
7
  6
CONTINUOUS
 10
385.221247042
 20
1111.3399874654
 11
379.4199768527
 21
1114.6893523708
  0
LINE
  5
290
100
AcDbEntity
  8
KONSTRUKTIONSELEMENTE
100
AcDbLine
 62
7
  6
CONTINUOUS
 10
192.8606473671
 20
1114.6893523708
 11
192.8606473671
 21
1114.8893523708
  0
LINE
  5
291
100
AcDbEntity
  8
KONSTRUKTIONSELEMENTE
100
AcDbLine
 62
7
  6
CONTINUOUS
 10
193.9500263564
 20
1114.6893523708
 11
193.9500263564
 21
1114.8893523708
  0
LINE
  5
292
100
AcDbEntity
  8
KONSTRUKTIONSELEMENTE
100
AcDbLine
 62
7
  6
CONTINUOUS
 10
196.4919092795
 20
1114.6893523708
 11
196.4919092795
 21
1114.8893523708
  0
LINE
  5
293
100
AcDbEntity
  8
KONSTRUKTIONSELEMENTE
100
AcDbLine
 62
7
  6
CONTINUOUS
 10
197.944417369
 20
1114.6893523708
 11
197.944417369
 21
1114.8893523708
  0
LINE
  5
294
100
AcDbEntity
  8
KONSTRUKTIONSELEMENTE
100
AcDbLine
 62
7
  6
CONTINUOUS
 10
200.4863002922
 20
1114.6893523708
 11
200.4863002922
 21
1114.8893523708
  0
LINE
  5
295
100
AcDbEntity
  8
0
100
AcDbLine
 62
7
  6
CONTINUOUS
 10
200.9199768527
 20
1350.1893523708
 11
200.9199768527
 21
1265.5613183187
  0
LINE
  5
296
100
AcDbEntity
  8
RUNDUNGEN
100
AcDbLine
 62
7
  6
CONTINUOUS
 10
200.9199768527
 20
1350.1893523708
 11
200.9199768527
 21
1136.8173864229
  0
LINE
  5
297
100
AcDbEntity
  8
KONSTRUKTIONSELEMENTE
100
AcDbLine
 62
7
  6
CONTINUOUS
 10
201.5756792815
 20
1114.6893523708
 11
201.5756792815
 21
1114.8893523708
  0
LINE
  5
298
100
AcDbEntity
  8
0
100
AcDbLine
 62
7
  6
CONTINUOUS
 10
202.9199768527
 20
1280.3596421515
 11
202.9199768527
 21
1114.8893523708
  0
LINE
  5
299
100
AcDbEntity
  8
KONSTRUKTIONSELEMENTE
100
AcDbLine
 62
7
  6
CONTINUOUS
 10
205.3065020238
 20
1114.6893523708
 11
205.3065020238
 21
1114.8893523708
  0
LINE
  5
29A
100
AcDbEntity
  8
KONSTRUKTIONSELEMENTE
100
AcDbLine
 62
7
  6
CONTINUOUS
 10
205.3361935907
 20
1114.6893523708
 11
205.3361935907
 21
1114.8893523708
  0
LINE
  5
29B
100
AcDbEntity
  8
KONSTRUKTIONSELEMENTE
100
AcDbLine
 62
7
  6
CONTINUOUS
 10
205.981420231
 20
1114.6893523708
 11
205.981420231
 21
1114.8893523708
  0
LINE
  5
29C
100
AcDbEntity
  8
KONSTRUKTIONSELEMENTE
100
AcDbLine
 62
7
  6
CONTINUOUS
 10
207.7885927203
 20
1114.6893523708
 11
207.7885927203
 21
1114.8893523708
  0
LINE
  5
29D
100
AcDbEntity
  8
KONSTRUKTIONSELEMENTE
100
AcDbLine
 62
7
  6
CONTINUOUS
 10
207.896006553
 20
1114.6893523708
 11
207.896006553
 21
1114.8893523708
  0
LINE
  5
29E
100
AcDbEntity
  8
KONSTRUKTIONSELEMENTE
100
AcDbLine
 62
7
  6
CONTINUOUS
 10
208.1974973009
 20
1114.6893523708
 11
208.1974973009
 21
1114.8893523708
  0
LINE
  5
29F
100
AcDbEntity
  8
BEZUGSACHSEN
100
AcDbLine
 62
7
  6
CONTINUOUS
 10
208.5706119473
 20
1085.1893523708
 11
208.5706119473
 21
1111.3399874654
  0
LINE
  5
2A0
100
AcDbEntity
  8
KONSTRUKTIONSELEMENTE
100
AcDbLine
 62
7
  6
CONTINUOUS
 10
208.9229455342
 20
1114.6893523708
 11
208.9229455342
 21
1114.8893523708
  0
LINE
  5
2A1
100
AcDbEntity
  8
KONSTRUKTIONSELEMENTE
100
AcDbLine
 62
7
  6
CONTINUOUS
 10
209.6125893117
 20
1114.6893523708
 11
209.6125893117
 21
1114.8893523708
  0
LINE
  5
2A2
100
AcDbEntity
  8
KONSTRUKTIONSELEMENTE
100
AcDbLine
 62
7
  6
CONTINUOUS
 10
210.7082885793
 20
1114.6893523708
 11
210.7082885793
 21
1114.8893523708
  0
LINE
  5
2A3
100
AcDbEntity
  8
BEZUGSACHSEN
100
AcDbLine
 62
7
  6
CONTINUOUS
 10
210.9199768527
 20
994.6893523708
 11
210.9199768527
 21
929.6893523708
  0
LINE
  5
2A4
100
AcDbEntity
  8
KONSTRUKTIONSELEMENTE
100
AcDbLine
 62
7
  6
CONTINUOUS
 10
211.3442253662
 20
1114.6893523708
 11
211.3442253662
 21
1114.8893523708
  0
LINE
  5
2A5
100
AcDbEntity
  8
KONSTRUKTIONSELEMENTE
100
AcDbLine
 62
7
  6
CONTINUOUS
 10
212.3683158337
 20
1114.6893523708
 11
212.3683158337
 21
1114.8893523708
  0
LINE
  5
2A6
100
AcDbEntity
  8
KONSTRUKTIONSELEMENTE
100
AcDbLine
 62
7
  6
CONTINUOUS
 10
212.9326432623
 20
1114.6893523708
 11
212.9326432623
 21
1114.8893523708
  0
LINE
  5
2A7
100
AcDbEntity
  8
KONSTRUKTIONSELEMENTE
100
AcDbLine
 62
7
  6
CONTINUOUS
 10
213.108817717
 20
1114.6893523708
 11
213.108817717
 21
1114.8893523708
  0
LINE
  5
2A8
100
AcDbEntity
  8
KONSTRUKTIONSELEMENTE
100
AcDbLine
 62
7
  6
CONTINUOUS
 10
213.3566011202
 20
1114.6893523708
 11
213.3566011202
 21
1114.8893523708
  0
LINE
  5
2A9
100
AcDbEntity
  8
KONSTRUKTIONSELEMENTE
100
AcDbLine
 62
7
  6
CONTINUOUS
 10
214.0462448235
 20
1114.6893523708
 11
214.0462448235
 21
1114.8893523708
  0
LINE
  5
2AA
100
AcDbEntity
  8
KONSTRUKTIONSELEMENTE
100
AcDbLine
 62
7
  6
CONTINUOUS
 10
214.9299654235
 20
1114.6893523708
 11
214.9299654235
 21
1114.8893523708
  0
LINE
  5
2AB
100
AcDbEntity
  8
KONSTRUKTIONSELEMENTE
100
AcDbLine
 62
7
  6
CONTINUOUS
 10
215.5659022104
 20
1114.6893523708
 11
215.5659022104
 21
1114.8893523708
  0
LINE
  5
2AC
100
AcDbEntity
  8
KONSTRUKTIONSELEMENTE
100
AcDbLine
 62
7
  6
CONTINUOUS
 10
216.589992565
 20
1114.6893523708
 11
216.589992565
 21
1114.8893523708
  0
LINE
  5
2AD
100
AcDbEntity
  8
KONSTRUKTIONSELEMENTE
100
AcDbLine
 62
7
  6
CONTINUOUS
 10
217.1722224356
 20
1114.6893523708
 11
217.1722224356
 21
1114.8893523708
  0
LINE
  5
2AE
100
AcDbEntity
  8
KONSTRUKTIONSELEMENTE
100
AcDbLine
 62
7
  6
CONTINUOUS
 10
217.7186478319
 20
1114.6893523708
 11
217.7186478319
 21
1114.8893523708
  0
LINE
  5
2AF
100
AcDbEntity
  8
KONSTRUKTIONSELEMENTE
100
AcDbLine
 62
7
  6
CONTINUOUS
 10
217.8411153702
 20
1114.6893523708
 11
217.8411153702
 21
1114.8893523708
  0
LINE
  5
2B0
100
AcDbEntity
  8
BEZUGSACHSEN
100
AcDbLine
 62
7
  6
CONTINUOUS
 10
462.721247042
 20
1111.3399874654
 11
456.9199768527
 21
1114.6893523708
  0
LINE
  5
2B1
100
AcDbEntity
  8
KONSTRUKTIONSELEMENTE
100
AcDbLine
 62
7
  6
CONTINUOUS
 10
221.6199768527
 20
1084.6893523708
 11
221.6199768527
 21
1085.1893523708
  0
LINE
  5
2B2
100
AcDbEntity
  8
BEZUGSACHSEN
100
AcDbLine
 62
7
  6
CONTINUOUS
 10
221.6199768527
 20
1084.6893523708
 11
221.6199768527
 21
1085.1893523708
  0
LINE
  5
2B3
100
AcDbEntity
  8
BEZUGSACHSEN
100
AcDbLine
 62
7
  6
CONTINUOUS
 10
230.221247042
 20
1085.1893523708
 11
230.221247042
 21
1111.3399874654
  0
LINE
  5
2B4
100
AcDbEntity
  8
0
100
AcDbLine
 62
7
  6
CONTINUOUS
 10
475.9199768527
 20
1242.6893523708
 11
437.9199768527
 21
1242.6893523708
  0
LINE
  5
2B5
100
AcDbEntity
  8
0
100
AcDbLine
 62
7
  6
CONTINUOUS
 10
327.9199768527
 20
1242.6893523708
 11
325.9199768527
 21
1242.6893523708
  0
LINE
  5
2B6
100
AcDbEntity
  8
0
100
AcDbLine
 62
7
  6
CONTINUOUS
 10
202.9199768527
 20
1242.6893523708
 11
200.9199768527
 21
1242.6893523708
  0
LINE
  5
2B7
100
AcDbEntity
  8
0
100
AcDbLine
 62
7
  6
CONTINUOUS
 10
125.9199768527
 20
1261.1893523708
 11
87.4199768527
 21
1261.1893523708
  0
LINE
  5
2B8
100
AcDbEntity
  8
0
100
AcDbLine
 62
7
  6
CONTINUOUS
 10
402.9199768527
 20
1261.1893523708
 11
437.9199768527
 21
1261.1893523708
  0
LINE
  5
2B9
100
AcDbEntity
  8
0
100
AcDbLine
 62
7
  6
CONTINUOUS
 10
175.196043506
 20
1443.5689642961
 11
193.0158856429
 21
1394.8277781573
  0
LINE
  5
2BA
100
AcDbEntity
  8
BEZUGSACHSEN
100
AcDbLine
 62
7
  6
CONTINUOUS
 10
298.6187066635
 20
1085.1893523708
 11
298.6187066635
 21
1111.3399874654
  0
LINE
  5
2BB
100
AcDbEntity
  8
0
100
AcDbLine
 62
7
  6
CONTINUOUS
 10
335.8240680625
 20
1394.8277781573
 11
353.6439101994
 21
1443.5689642961
  0
LINE
  5
2BC
100
AcDbEntity
  8
0
100
AcDbLine
 62
7
  6
CONTINUOUS
 10
279.0487156911
 20
1298.6893523708
 11
249.7912380144
 21
1298.6893523708
  0
LINE
  5
2BD
100
AcDbEntity
  8
KONSTRUKTIONSELEMENTE
100
AcDbLine
 62
7
  6
CONTINUOUS
 10
307.2199768527
 20
1084.6893523708
 11
307.2199768527
 21
1085.1893523708
  0
LINE
  5
2BE
100
AcDbEntity
  8
BEZUGSACHSEN
100
AcDbLine
 62
7
  6
CONTINUOUS
 10
307.2199768527
 20
1084.6893523708
 11
307.2199768527
 21
1085.1893523708
  0
LINE
  5
2BF
100
AcDbEntity
  8
KONSTRUKTIONSELEMENTE
100
AcDbLine
 62
7
  6
CONTINUOUS
 10
310.7273476533
 20
1114.6893523708
 11
310.7273476533
 21
1114.8893523708
  0
LINE
  5
2C0
100
AcDbEntity
  8
BEZUGSACHSEN
100
AcDbLine
 62
7
  6
CONTINUOUS
 10
317.9199768527
 20
994.6893523708
 11
317.9199768527
 21
929.6893523708
  0
LINE
  5
2C1
100
AcDbEntity
  8
BEZUGSACHSEN
100
AcDbLine
 62
7
  6
CONTINUOUS
 10
320.2693417581
 20
1085.1893523708
 11
320.2693417581
 21
1111.3399874654
  0
LINE
  5
2C2
100
AcDbEntity
  8
KONSTRUKTIONSELEMENTE
100
AcDbLine
 62
7
  6
CONTINUOUS
 10
320.550226702
 20
1114.6893523708
 11
320.550226702
 21
1114.8893523708
  0
LINE
  5
2C3
100
AcDbEntity
  8
KONSTRUKTIONSELEMENTE
100
AcDbLine
 62
7
  6
CONTINUOUS
 10
320.7844490588
 20
1114.6893523708
 11
320.7844490588
 21
1114.8893523708
  0
LINE
  5
2C4
100
AcDbEntity
  8
KONSTRUKTIONSELEMENTE
100
AcDbLine
 62
7
  6
CONTINUOUS
 10
321.7603755082
 20
1114.6893523708
 11
321.7603755082
 21
1114.8893523708
  0
LINE
  5
2C5
100
AcDbEntity
  8
KONSTRUKTIONSELEMENTE
100
AcDbLine
 62
7
  6
CONTINUOUS
 10
322.0336349989
 20
1114.6893523708
 11
322.0336349989
 21
1114.8893523708
  0
LINE
  5
2C6
100
AcDbEntity
  8
KONSTRUKTIONSELEMENTE
100
AcDbLine
 62
7
  6
CONTINUOUS
 10
323.139358103
 20
1114.6893523708
 11
323.139358103
 21
1114.8893523708
  0
LINE
  5
2C7
100
AcDbEntity
  8
KONSTRUKTIONSELEMENTE
100
AcDbLine
 62
7
  6
CONTINUOUS
 10
323.9762234256
 20
1114.6893523708
 11
323.9762234256
 21
1114.8893523708
  0
LINE
  5
2C8
100
AcDbEntity
  8
KONSTRUKTIONSELEMENTE
100
AcDbLine
 62
7
  6
CONTINUOUS
 10
324.7653517394
 20
1114.6893523708
 11
324.7653517394
 21
1114.8893523708
  0
LINE
  5
2C9
100
AcDbEntity
  8
KONSTRUKTIONSELEMENTE
100
AcDbLine
 62
7
  6
CONTINUOUS
 10
325.2596133266
 20
1114.6893523708
 11
325.2596133266
 21
1114.8893523708
  0
LINE
  5
2CA
100
AcDbEntity
  8
KONSTRUKTIONSELEMENTE
100
AcDbLine
 62
7
  6
CONTINUOUS
 10
325.7061379199
 20
1114.6893523708
 11
325.7061379199
 21
1114.8893523708
  0
LINE
  5
2CB
100
AcDbEntity
  8
KONSTRUKTIONSELEMENTE
100
AcDbLine
 62
7
  6
CONTINUOUS
 10
325.8577957715
 20
1114.6893523708
 11
325.8577957715
 21
1114.8893523708
  0
LINE
  5
2CC
100
AcDbEntity
  8
0
100
AcDbLine
 62
7
  6
CONTINUOUS
 10
325.9199768527
 20
1114.8893523708
 11
325.9199768527
 21
1280.3596421515
  0
LINE
  5
2CD
100
AcDbEntity
  8
RUNDUNGEN
100
AcDbLine
 62
7
  6
CONTINUOUS
 10
327.9199768527
 20
1265.5800454767
 11
327.9199768527
 21
1350.1893523708
  0
LINE
  5
2CE
100
AcDbEntity
  8
0
100
AcDbLine
 62
7
  6
CONTINUOUS
 10
327.9199768527
 20
1265.5800454767
 11
327.9199768527
 21
1350.1893523708
  0
LINE
  5
2CF
100
AcDbEntity
  8
KONSTRUKTIONSELEMENTE
100
AcDbLine
 62
7
  6
CONTINUOUS
 10
328.5347125496
 20
1114.6893523708
 11
328.5347125496
 21
1114.8893523708
  0
LINE
  5
2D0
100
AcDbEntity
  8
RUNDUNGEN
100
AcDbLine
 62
7
  6
CONTINUOUS
 10
327.9199768527
 20
1136.8173864229
 11
327.9199779515
 21
1265.5660045924
  0
LINE
  5
2D1
100
AcDbEntity
  8
BEZUGSACHSEN
100
AcDbLine
 62
7
  6
CONTINUOUS
 10
66.1187066635
 20
1111.3399874654
 11
71.9199768527
 21
1114.6893523708
  0
LINE
  5
2D2
100
AcDbEntity
  8
KONSTRUKTIONSELEMENTE
100
AcDbLine
 62
7
  6
CONTINUOUS
 10
332.9707799183
 20
1114.6893523708
 11
332.9707799183
 21
1114.8893523708
  0
LINE
  5
2D3
100
AcDbEntity
  8
KONSTRUKTIONSELEMENTE
100
AcDbLine
 62
7
  6
CONTINUOUS
 10
333.79679981
 20
1114.6893523708
 11
333.79679981
 21
1114.8893523708
  0
LINE
  5
2D4
100
AcDbEntity
  8
KONSTRUKTIONSELEMENTE
100
AcDbLine
 62
7
  6
CONTINUOUS
 10
334.3398206276
 20
1114.6893523708
 11
334.3398206276
 21
1114.8893523708
  0
LINE
  5
2D5
100
AcDbEntity
  8
KONSTRUKTIONSELEMENTE
100
AcDbLine
 62
7
  6
CONTINUOUS
 10
334.6865184235
 20
1114.6893523708
 11
334.6865184235
 21
1114.8893523708
  0
LINE
  5
2D6
100
AcDbEntity
  8
KONSTRUKTIONSELEMENTE
100
AcDbLine
 62
7
  6
CONTINUOUS
 10
347.8606473671
 20
1114.6893523708
 11
347.8606473671
 21
1114.8893523708
  0
LINE
  5
2D7
100
AcDbEntity
  8
KONSTRUKTIONSELEMENTE
100
AcDbLine
 62
7
  6
CONTINUOUS
 10
348.9500263564
 20
1114.6893523708
 11
348.9500263564
 21
1114.8893523708
  0
LINE
  5
2D8
100
AcDbEntity
  8
KONSTRUKTIONSELEMENTE
100
AcDbLine
 62
7
  6
CONTINUOUS
 10
351.4919092795
 20
1114.6893523708
 11
351.4919092795
 21
1114.8893523708
  0
LINE
  5
2D9
100
AcDbEntity
  8
KONSTRUKTIONSELEMENTE
100
AcDbLine
 62
7
  6
CONTINUOUS
 10
352.944417369
 20
1114.6893523708
 11
352.944417369
 21
1114.8893523708
  0
LINE
  5
2DA
100
AcDbEntity
  8
KONSTRUKTIONSELEMENTE
100
AcDbLine
 62
7
  6
CONTINUOUS
 10
355.4863002922
 20
1114.6893523708
 11
355.4863002922
 21
1114.8893523708
  0
LINE
  5
2DB
100
AcDbEntity
  8
KONSTRUKTIONSELEMENTE
100
AcDbLine
 62
7
  6
CONTINUOUS
 10
356.5756792815
 20
1114.6893523708
 11
356.5756792815
 21
1114.8893523708
  0
LINE
  5
2DC
100
AcDbEntity
  8
KONSTRUKTIONSELEMENTE
100
AcDbLine
 62
7
  6
CONTINUOUS
 10
360.3065020238
 20
1114.6893523708
 11
360.3065020238
 21
1114.8893523708
  0
LINE
  5
2DD
100
AcDbEntity
  8
KONSTRUKTIONSELEMENTE
100
AcDbLine
 62
7
  6
CONTINUOUS
 10
360.3361935907
 20
1114.6893523708
 11
360.3361935907
 21
1114.8893523708
  0
LINE
  5
2DE
100
AcDbEntity
  8
KONSTRUKTIONSELEMENTE
100
AcDbLine
 62
7
  6
CONTINUOUS
 10
360.981420231
 20
1114.6893523708
 11
360.981420231
 21
1114.8893523708
  0
LINE
  5
2DF
100
AcDbEntity
  8
KONSTRUKTIONSELEMENTE
100
AcDbLine
 62
7
  6
CONTINUOUS
 10
362.7885927203
 20
1114.6893523708
 11
362.7885927203
 21
1114.8893523708
  0
LINE
  5
2E0
100
AcDbEntity
  8
KONSTRUKTIONSELEMENTE
100
AcDbLine
 62
7
  6
CONTINUOUS
 10
362.896006553
 20
1114.6893523708
 11
362.896006553
 21
1114.8893523708
  0
LINE
  5
2E1
100
AcDbEntity
  8
KONSTRUKTIONSELEMENTE
100
AcDbLine
 62
7
  6
CONTINUOUS
 10
363.1974973009
 20
1114.6893523708
 11
363.1974973009
 21
1114.8893523708
  0
LINE
  5
2E2
100
AcDbEntity
  8
BEZUGSACHSEN
100
AcDbLine
 62
7
  6
CONTINUOUS
 10
363.5706119473
 20
1085.1893523708
 11
363.5706119473
 21
1111.3399874654
  0
LINE
  5
2E3
100
AcDbEntity
  8
KONSTRUKTIONSELEMENTE
100
AcDbLine
 62
7
  6
CONTINUOUS
 10
363.9229455342
 20
1114.6893523708
 11
363.9229455342
 21
1114.8893523708
  0
LINE
  5
2E4
100
AcDbEntity
  8
KONSTRUKTIONSELEMENTE
100
AcDbLine
 62
7
  6
CONTINUOUS
 10
364.6125893117
 20
1114.6893523708
 11
364.6125893117
 21
1114.8893523708
  0
LINE
  5
2E5
100
AcDbEntity
  8
KONSTRUKTIONSELEMENTE
100
AcDbLine
 62
7
  6
CONTINUOUS
 10
365.7082885793
 20
1114.6893523708
 11
365.7082885793
 21
1114.8893523708
  0
LINE
  5
2E6
100
AcDbEntity
  8
BEZUGSACHSEN
100
AcDbLine
 62
7
  6
CONTINUOUS
 10
365.9199768527
 20
994.6893523708
 11
365.9199768527
 21
929.6893523708
  0
LINE
  5
2E7
100
AcDbEntity
  8
KONSTRUKTIONSELEMENTE
100
AcDbLine
 62
7
  6
CONTINUOUS
 10
366.3442253662
 20
1114.6893523708
 11
366.3442253662
 21
1114.8893523708
  0
LINE
  5
2E8
100
AcDbEntity
  8
KONSTRUKTIONSELEMENTE
100
AcDbLine
 62
7
  6
CONTINUOUS
 10
367.3683158337
 20
1114.6893523708
 11
367.3683158337
 21
1114.8893523708
  0
LINE
  5
2E9
100
AcDbEntity
  8
KONSTRUKTIONSELEMENTE
100
AcDbLine
 62
7
  6
CONTINUOUS
 10
367.9326432623
 20
1114.6893523708
 11
367.9326432623
 21
1114.8893523708
  0
LINE
  5
2EA
100
AcDbEntity
  8
KONSTRUKTIONSELEMENTE
100
AcDbLine
 62
7
  6
CONTINUOUS
 10
368.108817717
 20
1114.6893523708
 11
368.108817717
 21
1114.8893523708
  0
LINE
  5
2EB
100
AcDbEntity
  8
KONSTRUKTIONSELEMENTE
100
AcDbLine
 62
7
  6
CONTINUOUS
 10
368.3566011202
 20
1114.6893523708
 11
368.3566011202
 21
1114.8893523708
  0
LINE
  5
2EC
100
AcDbEntity
  8
KONSTRUKTIONSELEMENTE
100
AcDbLine
 62
7
  6
CONTINUOUS
 10
369.0462448235
 20
1114.6893523708
 11
369.0462448235
 21
1114.8893523708
  0
LINE
  5
2ED
100
AcDbEntity
  8
KONSTRUKTIONSELEMENTE
100
AcDbLine
 62
7
  6
CONTINUOUS
 10
369.9299654235
 20
1114.6893523708
 11
369.9299654235
 21
1114.8893523708
  0
LINE
  5
2EE
100
AcDbEntity
  8
KONSTRUKTIONSELEMENTE
100
AcDbLine
 62
7
  6
CONTINUOUS
 10
370.5659022104
 20
1114.6893523708
 11
370.5659022104
 21
1114.8893523708
  0
LINE
  5
2EF
100
AcDbEntity
  8
KONSTRUKTIONSELEMENTE
100
AcDbLine
 62
7
  6
CONTINUOUS
 10
371.589992565
 20
1114.6893523708
 11
371.589992565
 21
1114.8893523708
  0
LINE
  5
2F0
100
AcDbEntity
  8
KONSTRUKTIONSELEMENTE
100
AcDbLine
 62
7
  6
CONTINUOUS
 10
372.1722224356
 20
1114.6893523708
 11
372.1722224356
 21
1114.8893523708
  0
LINE
  5
2F1
100
AcDbEntity
  8
KONSTRUKTIONSELEMENTE
100
AcDbLine
 62
7
  6
CONTINUOUS
 10
372.7186478319
 20
1114.6893523708
 11
372.7186478319
 21
1114.8893523708
  0
LINE
  5
2F2
100
AcDbEntity
  8
KONSTRUKTIONSELEMENTE
100
AcDbLine
 62
7
  6
CONTINUOUS
 10
372.8411153702
 20
1114.6893523708
 11
372.8411153702
 21
1114.8893523708
  0
LINE
  5
2F3
100
AcDbEntity
  8
KONSTRUKTIONSELEMENTE
100
AcDbLine
 62
7
  6
CONTINUOUS
 10
376.6199768527
 20
1084.6893523708
 11
376.6199768527
 21
1085.1893523708
  0
LINE
  5
2F4
100
AcDbEntity
  8
BEZUGSACHSEN
100
AcDbLine
 62
7
  6
CONTINUOUS
 10
376.6199768527
 20
1084.6893523708
 11
376.6199768527
 21
1085.1893523708
  0
LINE
  5
2F5
100
AcDbEntity
  8
0
100
AcDbLine
 62
7
  6
CONTINUOUS
 10
406.2640154415
 20
1369.0748402036
 11
424.0838575784
 21
1417.8160263424
  0
LINE
  5
2F6
100
AcDbEntity
  8
BEZUGSACHSEN
100
AcDbLine
 62
7
  6
CONTINUOUS
 10
143.6187066635
 20
1111.3399874654
 11
149.4199768527
 21
1114.6893523708
  0
LINE
  5
2F7
100
AcDbEntity
  8
KONSTRUKTIONSELEMENTE
100
AcDbLine
 62
7
  6
CONTINUOUS
 10
384.7199768527
 20
1084.6893523708
 11
384.7199768527
 21
1085.1893523708
  0
LINE
  5
2F8
100
AcDbEntity
  8
BEZUGSACHSEN
100
AcDbLine
 62
7
  6
CONTINUOUS
 10
384.7199768527
 20
1084.6893523708
 11
384.7199768527
 21
1085.1893523708
  0
LINE
  5
2F9
100
AcDbEntity
  8
BEZUGSACHSEN
100
AcDbLine
 62
7
  6
CONTINUOUS
 10
385.221247042
 20
1085.1893523708
 11
385.221247042
 21
1111.3399874654
  0
LINE
  5
2FA
100
AcDbEntity
  8
KONSTRUKTIONSELEMENTE
100
AcDbLine
 62
7
  6
CONTINUOUS
 10
388.2273476533
 20
1114.6893523708
 11
388.2273476533
 21
1114.8893523708
  0
LINE
  5
2FB
100
AcDbEntity
  8
BEZUGSACHSEN
100
AcDbLine
 62
7
  6
CONTINUOUS
 10
395.4199768527
 20
994.6893523708
 11
395.4199768527
 21
929.6893523708
  0
LINE
  5
2FC
100
AcDbEntity
  8
BEZUGSACHSEN
100
AcDbLine
 62
7
  6
CONTINUOUS
 10
397.7693417581
 20
1085.1893523708
 11
397.7693417581
 21
1111.3399874654
  0
LINE
  5
2FD
100
AcDbEntity
  8
KONSTRUKTIONSELEMENTE
100
AcDbLine
 62
7
  6
CONTINUOUS
 10
398.050226702
 20
1114.6893523708
 11
398.050226702
 21
1114.8893523708
  0
LINE
  5
2FE
100
AcDbEntity
  8
KONSTRUKTIONSELEMENTE
100
AcDbLine
 62
7
  6
CONTINUOUS
 10
398.2844490588
 20
1114.6893523708
 11
398.2844490588
 21
1114.8893523708
  0
LINE
  5
2FF
100
AcDbEntity
  8
KONSTRUKTIONSELEMENTE
100
AcDbLine
 62
7
  6
CONTINUOUS
 10
399.2603755082
 20
1114.6893523708
 11
399.2603755082
 21
1114.8893523708
  0
LINE
  5
300
100
AcDbEntity
  8
KONSTRUKTIONSELEMENTE
100
AcDbLine
 62
7
  6
CONTINUOUS
 10
399.5336349989
 20
1114.6893523708
 11
399.5336349989
 21
1114.8893523708
  0
LINE
  5
301
100
AcDbEntity
  8
KONSTRUKTIONSELEMENTE
100
AcDbLine
 62
7
  6
CONTINUOUS
 10
400.639358103
 20
1114.6893523708
 11
400.639358103
 21
1114.8893523708
  0
LINE
  5
302
100
AcDbEntity
  8
KONSTRUKTIONSELEMENTE
100
AcDbLine
 62
7
  6
CONTINUOUS
 10
401.4762234256
 20
1114.6893523708
 11
401.4762234256
 21
1114.8893523708
  0
LINE
  5
303
100
AcDbEntity
  8
KONSTRUKTIONSELEMENTE
100
AcDbLine
 62
7
  6
CONTINUOUS
 10
402.2653517394
 20
1114.6893523708
 11
402.2653517394
 21
1114.8893523708
  0
LINE
  5
304
100
AcDbEntity
  8
KONSTRUKTIONSELEMENTE
100
AcDbLine
 62
7
  6
CONTINUOUS
 10
402.7596133266
 20
1114.6893523708
 11
402.7596133266
 21
1114.8893523708
  0
LINE
  5
305
100
AcDbEntity
  8
RUNDUNGEN
100
AcDbLine
 62
7
  6
CONTINUOUS
 10
402.9199768527
 20
1136.8173864229
 11
402.9199768527
 21
1141.1893523708
  0
LINE
  5
306
100
AcDbEntity
  8
RUNDUNGEN
100
AcDbLine
 62
7
  6
CONTINUOUS
 10
402.9199768527
 20
1150.9949843441
 11
402.9199768527
 21
1191.3837203976
  0
LINE
  5
307
100
AcDbEntity
  8
RUNDUNGEN
100
AcDbLine
 62
7
  6
CONTINUOUS
 10
402.9199768527
 20
1210.9949843441
 11
402.9199768527
 21
1251.3837203976
  0
LINE
  5
308
100
AcDbEntity
  8
RUNDUNGEN
100
AcDbLine
 62
7
  6
CONTINUOUS
 10
402.9199768527
 20
1261.1893523708
 11
402.9199768527
 21
1350.1893523708
  0
LINE
  5
309
100
AcDbEntity
  8
0
100
AcDbLine
 62
7
  6
CONTINUOUS
 10
402.9199768527
 20
1136.8173864229
 11
402.9199768527
 21
1350.1893523708
  0
LINE
  5
30A
100
AcDbEntity
  8
KONSTRUKTIONSELEMENTE
100
AcDbLine
 62
7
  6
CONTINUOUS
 10
403.2061379199
 20
1114.6893523708
 11
403.2061379199
 21
1114.8893523708
  0
LINE
  5
30B
100
AcDbEntity
  8
KONSTRUKTIONSELEMENTE
100
AcDbLine
 62
7
  6
CONTINUOUS
 10
403.3577957715
 20
1114.6893523708
 11
403.3577957715
 21
1114.8893523708
  0
LINE
  5
30C
100
AcDbEntity
  8
KONSTRUKTIONSELEMENTE
100
AcDbLine
 62
7
  6
CONTINUOUS
 10
406.0347125496
 20
1114.6893523708
 11
406.0347125496
 21
1114.8893523708
  0
LINE
  5
30D
100
AcDbEntity
  8
KONSTRUKTIONSELEMENTE
100
AcDbLine
 62
7
  6
CONTINUOUS
 10
410.4707799183
 20
1114.6893523708
 11
410.4707799183
 21
1114.8893523708
  0
LINE
  5
30E
100
AcDbEntity
  8
KONSTRUKTIONSELEMENTE
100
AcDbLine
 62
7
  6
CONTINUOUS
 10
411.29679981
 20
1114.6893523708
 11
411.29679981
 21
1114.8893523708
  0
LINE
  5
30F
100
AcDbEntity
  8
KONSTRUKTIONSELEMENTE
100
AcDbLine
 62
7
  6
CONTINUOUS
 10
411.8398206276
 20
1114.6893523708
 11
411.8398206276
 21
1114.8893523708
  0
LINE
  5
310
100
AcDbEntity
  8
KONSTRUKTIONSELEMENTE
100
AcDbLine
 62
7
  6
CONTINUOUS
 10
412.1865184235
 20
1114.6893523708
 11
412.1865184235
 21
1114.8893523708
  0
LINE
  5
311
100
AcDbEntity
  8
KONSTRUKTIONSELEMENTE
100
AcDbLine
 62
7
  6
CONTINUOUS
 10
425.3606473671
 20
1114.6893523708
 11
425.3606473671
 21
1114.8893523708
  0
LINE
  5
312
100
AcDbEntity
  8
KONSTRUKTIONSELEMENTE
100
AcDbLine
 62
7
  6
CONTINUOUS
 10
426.4500263564
 20
1114.6893523708
 11
426.4500263564
 21
1114.8893523708
  0
LINE
  5
313
100
AcDbEntity
  8
KONSTRUKTIONSELEMENTE
100
AcDbLine
 62
7
  6
CONTINUOUS
 10
428.9919092795
 20
1114.6893523708
 11
428.9919092795
 21
1114.8893523708
  0
LINE
  5
314
100
AcDbEntity
  8
KONSTRUKTIONSELEMENTE
100
AcDbLine
 62
7
  6
CONTINUOUS
 10
430.444417369
 20
1114.6893523708
 11
430.444417369
 21
1114.8893523708
  0
LINE
  5
315
100
AcDbEntity
  8
KONSTRUKTIONSELEMENTE
100
AcDbLine
 62
7
  6
CONTINUOUS
 10
432.9863002922
 20
1114.6893523708
 11
432.9863002922
 21
1114.8893523708
  0
LINE
  5
316
100
AcDbEntity
  8
KONSTRUKTIONSELEMENTE
100
AcDbLine
 62
7
  6
CONTINUOUS
 10
434.0756792815
 20
1114.6893523708
 11
434.0756792815
 21
1114.8893523708
  0
LINE
  5
317
100
AcDbEntity
  8
KONSTRUKTIONSELEMENTE
100
AcDbLine
 62
7
  6
CONTINUOUS
 10
437.8065020238
 20
1114.6893523708
 11
437.8065020238
 21
1114.8893523708
  0
LINE
  5
318
100
AcDbEntity
  8
KONSTRUKTIONSELEMENTE
100
AcDbLine
 62
7
  6
CONTINUOUS
 10
437.8361935907
 20
1114.6893523708
 11
437.8361935907
 21
1114.8893523708
  0
LINE
  5
319
100
AcDbEntity
  8
0
100
AcDbLine
 62
7
  6
CONTINUOUS
 10
437.9199768527
 20
1261.1893523708
 11
437.9199768527
 21
1141.1893523708
  0
LINE
  5
31A
100
AcDbEntity
  8
KONSTRUKTIONSELEMENTE
100
AcDbLine
 62
7
  6
CONTINUOUS
 10
438.481420231
 20
1114.6893523708
 11
438.481420231
 21
1114.8893523708
  0
LINE
  5
31B
100
AcDbEntity
  8
BEZUGSACHSEN
100
AcDbLine
 62
7
  6
CONTINUOUS
 10
133.4199768527
 20
929.6893523708
 11
128.4199768527
 21
924.6893523708
  0
LINE
  5
31C
100
AcDbEntity
  8
BEZUGSACHSEN
100
AcDbLine
 62
7
  6
CONTINUOUS
 10
298.6187066635
 20
1111.3399874654
 11
304.4199768527
 21
1114.6893523708
  0
LINE
  5
31D
100
AcDbEntity
  8
KONSTRUKTIONSELEMENTE
100
AcDbLine
 62
7
  6
CONTINUOUS
 10
440.2885927203
 20
1114.6893523708
 11
440.2885927203
 21
1114.8893523708
  0
LINE
  5
31E
100
AcDbEntity
  8
KONSTRUKTIONSELEMENTE
100
AcDbLine
 62
7
  6
CONTINUOUS
 10
440.396006553
 20
1114.6893523708
 11
440.396006553
 21
1114.8893523708
  0
LINE
  5
31F
100
AcDbEntity
  8
KONSTRUKTIONSELEMENTE
100
AcDbLine
 62
7
  6
CONTINUOUS
 10
440.6974973009
 20
1114.6893523708
 11
440.6974973009
 21
1114.8893523708
  0
LINE
  5
320
100
AcDbEntity
  8
BEZUGSACHSEN
100
AcDbLine
 62
7
  6
CONTINUOUS
 10
441.0706119473
 20
1085.1893523708
 11
441.0706119473
 21
1111.3399874654
  0
LINE
  5
321
100
AcDbEntity
  8
KONSTRUKTIONSELEMENTE
100
AcDbLine
 62
7
  6
CONTINUOUS
 10
441.4229455342
 20
1114.6893523708
 11
441.4229455342
 21
1114.8893523708
  0
LINE
  5
322
100
AcDbEntity
  8
KONSTRUKTIONSELEMENTE
100
AcDbLine
 62
7
  6
CONTINUOUS
 10
442.1125893117
 20
1114.6893523708
 11
442.1125893117
 21
1114.8893523708
  0
LINE
  5
323
100
AcDbEntity
  8
KONSTRUKTIONSELEMENTE
100
AcDbLine
 62
7
  6
CONTINUOUS
 10
443.2082885793
 20
1114.6893523708
 11
443.2082885793
 21
1114.8893523708
  0
LINE
  5
324
100
AcDbEntity
  8
BEZUGSACHSEN
100
AcDbLine
 62
7
  6
CONTINUOUS
 10
443.4199768527
 20
994.6893523708
 11
443.4199768527
 21
929.6893523708
  0
LINE
  5
325
100
AcDbEntity
  8
KONSTRUKTIONSELEMENTE
100
AcDbLine
 62
7
  6
CONTINUOUS
 10
443.8442253662
 20
1114.6893523708
 11
443.8442253662
 21
1114.8893523708
  0
LINE
  5
326
100
AcDbEntity
  8
KONSTRUKTIONSELEMENTE
100
AcDbLine
 62
7
  6
CONTINUOUS
 10
444.8683158337
 20
1114.6893523708
 11
444.8683158337
 21
1114.8893523708
  0
LINE
  5
327
100
AcDbEntity
  8
KONSTRUKTIONSELEMENTE
100
AcDbLine
 62
7
  6
CONTINUOUS
 10
445.4326432623
 20
1114.6893523708
 11
445.4326432623
 21
1114.8893523708
  0
LINE
  5
328
100
AcDbEntity
  8
KONSTRUKTIONSELEMENTE
100
AcDbLine
 62
7
  6
CONTINUOUS
 10
445.608817717
 20
1114.6893523708
 11
445.608817717
 21
1114.8893523708
  0
LINE
  5
329
100
AcDbEntity
  8
KONSTRUKTIONSELEMENTE
100
AcDbLine
 62
7
  6
CONTINUOUS
 10
445.8566011202
 20
1114.6893523708
 11
445.8566011202
 21
1114.8893523708
  0
LINE
  5
32A
100
AcDbEntity
  8
KONSTRUKTIONSELEMENTE
100
AcDbLine
 62
7
  6
CONTINUOUS
 10
446.5462448235
 20
1114.6893523708
 11
446.5462448235
 21
1114.8893523708
  0
LINE
  5
32B
100
AcDbEntity
  8
KONSTRUKTIONSELEMENTE
100
AcDbLine
 62
7
  6
CONTINUOUS
 10
447.4299654235
 20
1114.6893523708
 11
447.4299654235
 21
1114.8893523708
  0
LINE
  5
32C
100
AcDbEntity
  8
KONSTRUKTIONSELEMENTE
100
AcDbLine
 62
7
  6
CONTINUOUS
 10
448.0659022104
 20
1114.6893523708
 11
448.0659022104
 21
1114.8893523708
  0
LINE
  5
32D
100
AcDbEntity
  8
KONSTRUKTIONSELEMENTE
100
AcDbLine
 62
7
  6
CONTINUOUS
 10
449.089992565
 20
1114.6893523708
 11
449.089992565
 21
1114.8893523708
  0
LINE
  5
32E
100
AcDbEntity
  8
KONSTRUKTIONSELEMENTE
100
AcDbLine
 62
7
  6
CONTINUOUS
 10
449.6722224356
 20
1114.6893523708
 11
449.6722224356
 21
1114.8893523708
  0
LINE
  5
32F
100
AcDbEntity
  8
KONSTRUKTIONSELEMENTE
100
AcDbLine
 62
7
  6
CONTINUOUS
 10
450.2186478319
 20
1114.6893523708
 11
450.2186478319
 21
1114.8893523708
  0
LINE
  5
330
100
AcDbEntity
  8
KONSTRUKTIONSELEMENTE
100
AcDbLine
 62
7
  6
CONTINUOUS
 10
450.3411153702
 20
1114.6893523708
 11
450.3411153702
 21
1114.8893523708
  0
LINE
  5
331
100
AcDbEntity
  8
KONSTRUKTIONSELEMENTE
100
AcDbLine
 62
7
  6
CONTINUOUS
 10
454.1199768527
 20
1084.6893523708
 11
454.1199768527
 21
1085.1893523708
  0
LINE
  5
332
100
AcDbEntity
  8
BEZUGSACHSEN
100
AcDbLine
 62
7
  6
CONTINUOUS
 10
454.1199768527
 20
1084.6893523708
 11
454.1199768527
 21
1085.1893523708
  0
LINE
  5
333
100
AcDbEntity
  8
BEZUGSACHSEN
100
AcDbLine
 62
7
  6
CONTINUOUS
 10
462.721247042
 20
1085.1893523708
 11
462.721247042
 21
1111.3399874654
  0
LINE
  5
334
100
AcDbEntity
  8
0
100
AcDbLine
 62
7
  6
CONTINUOUS
 10
464.4199768527
 20
994.6893523708
 11
464.4199768527
 21
1084.6893523708
  0
LINE
  5
335
100
AcDbEntity
  8
0
100
AcDbLine
 62
7
  6
CONTINUOUS
 10
475.9199768527
 20
1242.6893523708
 11
475.9199768527
 21
1159.6893523708
  0
LINE
  5
336
100
AcDbEntity
  8
BEZUGSACHSEN
100
AcDbLine
 62
7
  6
CONTINUOUS
 10
210.9199768527
 20
929.6893523708
 11
205.9199768527
 21
924.6893523708
  0
LINE
  5
337
100
AcDbEntity
  8
BEZUGSACHSEN
100
AcDbLine
 62
7
  6
CONTINUOUS
 10
380.6699768527
 20
1113.9676645343
 11
381.9199768527
 21
1114.6893523708
  0
LINE
  5
338
100
AcDbEntity
  8
BEZUGSACHSEN
100
AcDbLine
 62
7
  6
CONTINUOUS
 10
365.9199768527
 20
929.6893523708
 11
360.9199768527
 21
924.6893523708
  0
LINE
  5
339
100
AcDbEntity
  8
BEZUGSACHSEN
100
AcDbLine
 62
7
  6
CONTINUOUS
 10
443.4199768527
 20
929.6893523708
 11
438.4199768527
 21
924.6893523708
  0
LINE
  5
33A
100
AcDbEntity
  8
BEZUGSACHSEN
100
AcDbLine
 62
7
  6
CONTINUOUS
 10
750.5056211511
 20
924.6893523708
 11
788.5056211511
 21
924.6893523708
  0
LINE
  5
33B
100
AcDbEntity
  8
BEZUGSACHSEN
100
AcDbLine
 62
7
  6
CONTINUOUS
 10
884.7395587377
 20
924.6893523708
 11
922.7395587377
 21
924.6893523708
  0
LINE
  5
33C
100
AcDbEntity
  8
BEZUGSACHSEN
100
AcDbLine
 62
7
  6
CONTINUOUS
 10
1018.9734963242
 20
924.6893523708
 11
1056.9734963242
 21
924.6893523708
  0
LINE
  5
33D
100
AcDbEntity
  8
BEZUGSACHSEN
100
AcDbLine
 62
7
  6
CONTINUOUS
 10
745.5056211511
 20
929.6893523708
 11
793.5056211511
 21
929.6893523708
  0
LINE
  5
33E
100
AcDbEntity
  8
BEZUGSACHSEN
100
AcDbLine
 62
7
  6
CONTINUOUS
 10
879.7395587377
 20
929.6893523708
 11
927.7395587377
 21
929.6893523708
  0
LINE
  5
33F
100
AcDbEntity
  8
BEZUGSACHSEN
100
AcDbLine
 62
7
  6
CONTINUOUS
 10
1013.9734963242
 20
929.6893523708
 11
1061.9734963242
 21
929.6893523708
  0
LINE
  5
340
100
AcDbEntity
  8
BEZUGSACHSEN
100
AcDbLine
 62
7
  6
CONTINUOUS
 10
750.5056211511
 20
924.6893523708
 11
745.5056211511
 21
929.6893523708
  0
LINE
  5
341
100
AcDbEntity
  8
0
100
AcDbLine
 62
7
  6
CONTINUOUS
 10
703.7395587377
 20
994.6893523708
 11
1103.7395587377
 21
994.6893523708
  0
LINE
  5
342
100
AcDbEntity
  8
BEZUGSACHSEN
100
AcDbLine
 62
7
  6
CONTINUOUS
 10
884.7395587377
 20
924.6893523708
 11
879.7395587377
 21
929.6893523708
  0
LINE
  5
343
100
AcDbEntity
  8
0
100
AcDbLine
 62
7
  6
CONTINUOUS
 10
703.7395587377
 20
994.6893523708
 11
703.7395587377
 21
1084.6893523708
  0
LINE
  5
344
100
AcDbEntity
  8
0
100
AcDbLine
 62
7
  6
CONTINUOUS
 10
703.7395587377
 20
1084.6893523708
 11
1103.7395587377
 21
1084.6893523708
  0
LINE
  5
345
100
AcDbEntity
  8
KONSTRUKTIONSELEMENTE
100
AcDbLine
 62
7
  6
CONTINUOUS
 10
732.0056211511
 20
1085.1893523708
 11
807.0056211511
 21
1085.1893523708
  0
LINE
  5
346
100
AcDbEntity
  8
KONSTRUKTIONSELEMENTE
100
AcDbLine
 62
7
  6
CONTINUOUS
 10
866.2395587377
 20
1085.1893523708
 11
941.2395587377
 21
1085.1893523708
  0
LINE
  5
347
100
AcDbEntity
  8
KONSTRUKTIONSELEMENTE
100
AcDbLine
 62
7
  6
CONTINUOUS
 10
1000.4734963242
 20
1085.1893523708
 11
1075.4734963242
 21
1085.1893523708
  0
LINE
  5
348
100
AcDbEntity
  8
BEZUGSACHSEN
100
AcDbLine
 62
7
  6
CONTINUOUS
 10
732.0056211511
 20
1085.1893523708
 11
732.0056211511
 21
1114.6893523738
  0
LINE
  5
349
100
AcDbEntity
  8
BEZUGSACHSEN
100
AcDbLine
 62
7
  6
CONTINUOUS
 10
734.8056211511
 20
1084.6893523708
 11
734.8056211511
 21
1085.1893523708
  0
LINE
  5
34A
100
AcDbEntity
  8
KONSTRUKTIONSELEMENTE
100
AcDbLine
 62
7
  6
CONTINUOUS
 10
740.0370730565
 20
1114.6893523708
 11
740.0370730565
 21
1114.8893523708
  0
LINE
  5
34B
100
AcDbEntity
  8
KONSTRUKTIONSELEMENTE
100
AcDbLine
 62
7
  6
CONTINUOUS
 10
741.3187953616
 20
1114.6893523708
 11
741.3187953616
 21
1114.8893523708
  0
LINE
  5
34C
100
AcDbEntity
  8
KONSTRUKTIONSELEMENTE
100
AcDbLine
 62
7
  6
CONTINUOUS
 10
741.3257233379
 20
1114.6893523708
 11
741.3257233379
 21
1114.8893523708
  0
LINE
  5
34D
100
AcDbEntity
  8
KONSTRUKTIONSELEMENTE
100
AcDbLine
 62
7
  6
CONTINUOUS
 10
741.6175373359
 20
1114.6893523708
 11
741.6175373359
 21
1114.8893523708
  0
LINE
  5
34E
100
AcDbEntity
  8
BEZUGSACHSEN
100
AcDbLine
 62
7
  6
CONTINUOUS
 10
732.0056211591
 20
1114.6893523708
 11
807.005621143
 21
1114.6893523708
  0
LINE
  5
34F
100
AcDbEntity
  8
BEZUGSACHSEN
100
AcDbLine
 62
7
  6
CONTINUOUS
 10
866.2395587457
 20
1114.6893523708
 11
941.2395587296
 21
1114.6893523708
  0
LINE
  5
350
100
AcDbEntity
  8
BEZUGSACHSEN
100
AcDbLine
 62
7
  6
CONTINUOUS
 10
1000.4734963323
 20
1114.6893523708
 11
1075.4734963162
 21
1114.6893523708
  0
LINE
  5
351
100
AcDbEntity
  8
KONSTRUKTIONSELEMENTE
100
AcDbLine
 62
7
  6
CONTINUOUS
 10
740.0370730565
 20
1114.8893523708
 11
771.2177993645
 21
1114.8893523708
  0
LINE
  5
352
100
AcDbEntity
  8
KONSTRUKTIONSELEMENTE
100
AcDbLine
 62
7
  6
CONTINUOUS
 10
874.2710106431
 20
1114.8893523708
 11
905.451736951
 21
1114.8893523708
  0
LINE
  5
353
100
AcDbEntity
  8
KONSTRUKTIONSELEMENTE
100
AcDbLine
 62
7
  6
CONTINUOUS
 10
1008.5049482297
 20
1114.8893523708
 11
1039.6856745376
 21
1114.8893523708
  0
LINE
  5
354
100
AcDbEntity
  8
BEZUGSACHSEN
100
AcDbLine
 62
7
  6
CONTINUOUS
 10
1018.9734963242
 20
924.6893523708
 11
1013.9734963242
 21
929.6893523708
  0
LINE
  5
355
100
AcDbEntity
  8
KONSTRUKTIONSELEMENTE
100
AcDbLine
 62
7
  6
CONTINUOUS
 10
743.9243330141
 20
1114.6893523708
 11
743.9243330141
 21
1114.8893523708
  0
LINE
  5
356
100
AcDbEntity
  8
BEZUGSACHSEN
100
AcDbLine
 62
7
  6
CONTINUOUS
 10
745.5056211511
 20
929.6893523708
 11
745.5056211511
 21
994.6893523708
  0
LINE
  5
357
100
AcDbEntity
  8
KONSTRUKTIONSELEMENTE
100
AcDbLine
 62
7
  6
CONTINUOUS
 10
748.0999032552
 20
1114.6893523708
 11
748.0999032552
 21
1114.8893523708
  0
LINE
  5
358
100
AcDbEntity
  8
KONSTRUKTIONSELEMENTE
100
AcDbLine
 62
7
  6
CONTINUOUS
 10
749.1063017161
 20
1114.6893523708
 11
749.1063017161
 21
1114.8893523708
  0
LINE
  5
359
100
AcDbEntity
  8
KONSTRUKTIONSELEMENTE
100
AcDbLine
 62
7
  6
CONTINUOUS
 10
753.0183277956
 20
1114.6893523708
 11
753.0183277956
 21
1114.8893523708
  0
LINE
  5
35A
100
AcDbEntity
  8
KONSTRUKTIONSELEMENTE
100
AcDbLine
 62
7
  6
CONTINUOUS
 10
753.1318955597
 20
1114.6893523708
 11
753.1318955597
 21
1114.8893523708
  0
LINE
  5
35B
100
AcDbEntity
  8
KONSTRUKTIONSELEMENTE
100
AcDbLine
 62
7
  6
CONTINUOUS
 10
754.1382945004
 20
1114.6893523708
 11
754.1382945004
 21
1114.8893523708
  0
LINE
  5
35C
100
AcDbEntity
  8
KONSTRUKTIONSELEMENTE
100
AcDbLine
 62
7
  6
CONTINUOUS
 10
758.05032058
 20
1114.6893523708
 11
758.05032058
 21
1114.8893523708
  0
LINE
  5
35D
100
AcDbEntity
  8
KONSTRUKTIONSELEMENTE
100
AcDbLine
 62
7
  6
CONTINUOUS
 10
758.513559046
 20
1114.6893523708
 11
758.513559046
 21
1114.8893523708
  0
LINE
  5
35E
100
AcDbEntity
  8
KONSTRUKTIONSELEMENTE
100
AcDbLine
 62
7
  6
CONTINUOUS
 10
758.682870311
 20
1114.6893523708
 11
758.682870311
 21
1114.8893523708
  0
LINE
  5
35F
100
AcDbEntity
  8
KONSTRUKTIONSELEMENTE
100
AcDbLine
 62
7
  6
CONTINUOUS
 10
759.3795456931
 20
1114.6893523708
 11
759.3795456931
 21
1114.8893523708
  0
LINE
  5
360
100
AcDbEntity
  8
KONSTRUKTIONSELEMENTE
100
AcDbLine
 62
7
  6
CONTINUOUS
 10
760.450144863
 20
1114.6893523708
 11
760.450144863
 21
1114.8893523708
  0
LINE
  5
361
100
AcDbEntity
  8
KONSTRUKTIONSELEMENTE
100
AcDbLine
 62
7
  6
CONTINUOUS
 10
760.5369115142
 20
1114.6893523708
 11
760.5369115142
 21
1114.8893523708
  0
LINE
  5
362
100
AcDbEntity
  8
KONSTRUKTIONSELEMENTE
100
AcDbLine
 62
7
  6
CONTINUOUS
 10
760.991370933
 20
1114.6893523708
 11
760.991370933
 21
1114.8893523708
  0
LINE
  5
363
100
AcDbEntity
  8
KONSTRUKTIONSELEMENTE
100
AcDbLine
 62
7
  6
CONTINUOUS
 10
761.6903411005
 20
1114.6893523708
 11
761.6903411005
 21
1114.8893523708
  0
LINE
  5
364
100
AcDbEntity
  8
KONSTRUKTIONSELEMENTE
100
AcDbLine
 62
7
  6
CONTINUOUS
 10
762.6736902328
 20
1114.6893523708
 11
762.6736902328
 21
1114.8893523708
  0
LINE
  5
365
100
AcDbEntity
  8
KONSTRUKTIONSELEMENTE
100
AcDbLine
 62
7
  6
CONTINUOUS
 10
767.5851297572
 20
1114.6893523708
 11
767.5851297572
 21
1114.8893523708
  0
LINE
  5
366
100
AcDbEntity
  8
KONSTRUKTIONSELEMENTE
100
AcDbLine
 62
7
  6
CONTINUOUS
 10
769.4589086115
 20
1114.6893523708
 11
769.4589086115
 21
1114.8893523708
  0
LINE
  5
367
100
AcDbEntity
  8
BEZUGSACHSEN
100
AcDbLine
 62
7
  6
CONTINUOUS
 10
769.5056211511
 20
1085.1893523708
 11
769.5056211511
 21
1111.3399874654
  0
LINE
  5
368
100
AcDbEntity
  8
0
100
AcDbLine
 62
7
  6
CONTINUOUS
 10
869.0985425863
 20
1141.1893523708
 11
938.380574889
 21
1141.1893523708
  0
LINE
  5
369
100
AcDbEntity
  8
KONSTRUKTIONSELEMENTE
100
AcDbLine
 62
7
  6
CONTINUOUS
 10
770.3262529641
 20
1114.6893523708
 11
770.3262529641
 21
1114.8893523708
  0
LINE
  5
36A
100
AcDbEntity
  8
KONSTRUKTIONSELEMENTE
100
AcDbLine
 62
7
  6
CONTINUOUS
 10
770.8940915257
 20
1114.6893523708
 11
770.8940915257
 21
1114.8893523708
  0
LINE
  5
36B
100
AcDbEntity
  8
KONSTRUKTIONSELEMENTE
100
AcDbLine
 62
7
  6
CONTINUOUS
 10
771.2177993645
 20
1114.6893523708
 11
771.2177993645
 21
1114.8893523708
  0
LINE
  5
36C
100
AcDbEntity
  8
BEZUGSACHSEN
100
AcDbLine
 62
7
  6
CONTINUOUS
 10
793.5056211511
 20
929.6893523708
 11
793.5056211511
 21
994.6893523708
  0
LINE
  5
36D
100
AcDbEntity
  8
0
100
AcDbLine
 62
7
  6
CONTINUOUS
 10
796.2395587377
 20
1192.1893523708
 11
796.2395587377
 21
1114.6893523708
  0
LINE
  5
36E
100
AcDbEntity
  8
BEZUGSACHSEN
100
AcDbLine
 62
7
  6
CONTINUOUS
 10
804.2056211511
 20
1084.6893523708
 11
804.2056211511
 21
1085.1893523708
  0
LINE
  5
36F
100
AcDbEntity
  8
BEZUGSACHSEN
100
AcDbLine
 62
7
  6
CONTINUOUS
 10
807.0056211511
 20
1085.1893523708
 11
807.0056211511
 21
1114.6893523738
  0
LINE
  5
370
100
AcDbEntity
  8
0
100
AcDbLine
 62
7
  6
CONTINUOUS
 10
815.569268957
 20
1192.1893523708
 11
815.569268957
 21
1084.6893523708
  0
LINE
  5
371
100
AcDbEntity
  8
0
100
AcDbLine
 62
7
  6
CONTINUOUS
 10
834.4575264349
 20
1201.1893523708
 11
869.0985425863
 21
1141.1893523708
  0
LINE
  5
372
100
AcDbEntity
  8
0
100
AcDbLine
 62
7
  6
CONTINUOUS
 10
866.2395587377
 20
1608.6893523708
 11
866.2395587377
 21
1277.6337766279
  0
LINE
  5
373
100
AcDbEntity
  8
BEZUGSACHSEN
100
AcDbLine
 62
7
  6
CONTINUOUS
 10
866.2395587377
 20
1085.1893523708
 11
866.2395587377
 21
1114.6893523738
  0
LINE
  5
374
100
AcDbEntity
  8
BEZUGSACHSEN
100
AcDbLine
 62
7
  6
CONTINUOUS
 10
869.0395587377
 20
1084.6893523708
 11
869.0395587377
 21
1085.1893523708
  0
LINE
  5
375
100
AcDbEntity
  8
KONSTRUKTIONSELEMENTE
100
AcDbLine
 62
7
  6
CONTINUOUS
 10
874.2710106431
 20
1114.6893523708
 11
874.2710106431
 21
1114.8893523708
  0
LINE
  5
376
100
AcDbEntity
  8
KONSTRUKTIONSELEMENTE
100
AcDbLine
 62
7
  6
CONTINUOUS
 10
875.5527329482
 20
1114.6893523708
 11
875.5527329482
 21
1114.8893523708
  0
LINE
  5
377
100
AcDbEntity
  8
KONSTRUKTIONSELEMENTE
100
AcDbLine
 62
7
  6
CONTINUOUS
 10
875.5596609245
 20
1114.6893523708
 11
875.5596609245
 21
1114.8893523708
  0
LINE
  5
378
100
AcDbEntity
  8
KONSTRUKTIONSELEMENTE
100
AcDbLine
 62
7
  6
CONTINUOUS
 10
875.8514749225
 20
1114.6893523708
 11
875.8514749225
 21
1114.8893523708
  0
LINE
  5
379
100
AcDbEntity
  8
KONSTRUKTIONSELEMENTE
100
AcDbLine
 62
7
  6
CONTINUOUS
 10
878.1582706007
 20
1114.6893523708
 11
878.1582706007
 21
1114.8893523708
  0
LINE
  5
37A
100
AcDbEntity
  8
BEZUGSACHSEN
100
AcDbLine
 62
7
  6
CONTINUOUS
 10
879.7395587377
 20
929.6893523708
 11
879.7395587377
 21
994.6893523708
  0
LINE
  5
37B
100
AcDbEntity
  8
0
100
AcDbLine
 62
7
  6
CONTINUOUS
 10
938.380574889
 20
1261.1893523708
 11
869.0985425863
 21
1261.1893523708
  0
LINE
  5
37C
100
AcDbEntity
  8
KONSTRUKTIONSELEMENTE
100
AcDbLine
 62
7
  6
CONTINUOUS
 10
882.3338408418
 20
1114.6893523708
 11
882.3338408418
 21
1114.8893523708
  0
LINE
  5
37D
100
AcDbEntity
  8
KONSTRUKTIONSELEMENTE
100
AcDbLine
 62
7
  6
CONTINUOUS
 10
883.3402393027
 20
1114.6893523708
 11
883.3402393027
 21
1114.8893523708
  0
LINE
  5
37E
100
AcDbEntity
  8
KONSTRUKTIONSELEMENTE
100
AcDbLine
 62
7
  6
CONTINUOUS
 10
887.2522653822
 20
1114.6893523708
 11
887.2522653822
 21
1114.8893523708
  0
LINE
  5
37F
100
AcDbEntity
  8
KONSTRUKTIONSELEMENTE
100
AcDbLine
 62
7
  6
CONTINUOUS
 10
887.3658331463
 20
1114.6893523708
 11
887.3658331463
 21
1114.8893523708
  0
LINE
  5
380
100
AcDbEntity
  8
KONSTRUKTIONSELEMENTE
100
AcDbLine
 62
7
  6
CONTINUOUS
 10
888.372232087
 20
1114.6893523708
 11
888.372232087
 21
1114.8893523708
  0
LINE
  5
381
100
AcDbEntity
  8
KONSTRUKTIONSELEMENTE
100
AcDbLine
 62
7
  6
CONTINUOUS
 10
892.2842581665
 20
1114.6893523708
 11
892.2842581665
 21
1114.8893523708
  0
LINE
  5
382
100
AcDbEntity
  8
KONSTRUKTIONSELEMENTE
100
AcDbLine
 62
7
  6
CONTINUOUS
 10
892.7474966326
 20
1114.6893523708
 11
892.7474966326
 21
1114.8893523708
  0
LINE
  5
383
100
AcDbEntity
  8
KONSTRUKTIONSELEMENTE
100
AcDbLine
 62
7
  6
CONTINUOUS
 10
892.9168078976
 20
1114.6893523708
 11
892.9168078976
 21
1114.8893523708
  0
LINE
  5
384
100
AcDbEntity
  8
KONSTRUKTIONSELEMENTE
100
AcDbLine
 62
7
  6
CONTINUOUS
 10
893.6134832797
 20
1114.6893523708
 11
893.6134832797
 21
1114.8893523708
  0
LINE
  5
385
100
AcDbEntity
  8
KONSTRUKTIONSELEMENTE
100
AcDbLine
 62
7
  6
CONTINUOUS
 10
894.6840824496
 20
1114.6893523708
 11
894.6840824496
 21
1114.8893523708
  0
LINE
  5
386
100
AcDbEntity
  8
KONSTRUKTIONSELEMENTE
100
AcDbLine
 62
7
  6
CONTINUOUS
 10
894.7708491008
 20
1114.6893523708
 11
894.7708491008
 21
1114.8893523708
  0
LINE
  5
387
100
AcDbEntity
  8
KONSTRUKTIONSELEMENTE
100
AcDbLine
 62
7
  6
CONTINUOUS
 10
895.2253085196
 20
1114.6893523708
 11
895.2253085196
 21
1114.8893523708
  0
LINE
  5
388
100
AcDbEntity
  8
KONSTRUKTIONSELEMENTE
100
AcDbLine
 62
7
  6
CONTINUOUS
 10
895.9242786871
 20
1114.6893523708
 11
895.9242786871
 21
1114.8893523708
  0
LINE
  5
389
100
AcDbEntity
  8
KONSTRUKTIONSELEMENTE
100
AcDbLine
 62
7
  6
CONTINUOUS
 10
896.9076278194
 20
1114.6893523708
 11
896.9076278194
 21
1114.8893523708
  0
LINE
  5
38A
100
AcDbEntity
  8
KONSTRUKTIONSELEMENTE
100
AcDbLine
 62
7
  6
CONTINUOUS
 10
901.8190673438
 20
1114.6893523708
 11
901.8190673438
 21
1114.8893523708
  0
LINE
  5
38B
100
AcDbEntity
  8
KONSTRUKTIONSELEMENTE
100
AcDbLine
 62
7
  6
CONTINUOUS
 10
903.692846198
 20
1114.6893523708
 11
903.692846198
 21
1114.8893523708
  0
LINE
  5
38C
100
AcDbEntity
  8
BEZUGSACHSEN
100
AcDbLine
 62
7
  6
CONTINUOUS
 10
903.7395587377
 20
1085.1893523708
 11
903.7395587377
 21
1111.3399874654
  0
LINE
  5
38D
100
AcDbEntity
  8
KONSTRUKTIONSELEMENTE
100
AcDbLine
 62
7
  6
CONTINUOUS
 10
904.5601905507
 20
1114.6893523708
 11
904.5601905507
 21
1114.8893523708
  0
LINE
  5
38E
100
AcDbEntity
  8
KONSTRUKTIONSELEMENTE
100
AcDbLine
 62
7
  6
CONTINUOUS
 10
905.1280291123
 20
1114.6893523708
 11
905.1280291123
 21
1114.8893523708
  0
LINE
  5
38F
100
AcDbEntity
  8
KONSTRUKTIONSELEMENTE
100
AcDbLine
 62
7
  6
CONTINUOUS
 10
905.451736951
 20
1114.6893523708
 11
905.451736951
 21
1114.8893523708
  0
LINE
  5
390
100
AcDbEntity
  8
0
100
AcDbLine
 62
7
  6
CONTINUOUS
 10
869.0985425863
 20
1261.1893523708
 11
834.4575264349
 21
1201.1893523708
  0
LINE
  5
391
100
AcDbEntity
  8
BEZUGSACHSEN
100
AcDbLine
 62
7
  6
CONTINUOUS
 10
927.7395587377
 20
929.6893523708
 11
927.7395587377
 21
994.6893523708
  0
LINE
  5
392
100
AcDbEntity
  8
0
100
AcDbLine
 62
7
  6
CONTINUOUS
 10
973.0215910404
 20
1201.1893523708
 11
938.380574889
 21
1261.1893523708
  0
LINE
  5
393
100
AcDbEntity
  8
BEZUGSACHSEN
100
AcDbLine
 62
7
  6
CONTINUOUS
 10
938.4395587377
 20
1084.6893523708
 11
938.4395587377
 21
1085.1893523708
  0
LINE
  5
394
100
AcDbEntity
  8
0
100
AcDbLine
 62
7
  6
CONTINUOUS
 10
941.2395587377
 20
1608.6893523708
 11
941.2395587377
 21
1277.6337766279
  0
LINE
  5
395
100
AcDbEntity
  8
BEZUGSACHSEN
100
AcDbLine
 62
7
  6
CONTINUOUS
 10
941.2395587377
 20
1085.1893523708
 11
941.2395587377
 21
1114.6893523738
  0
LINE
  5
396
100
AcDbEntity
  8
0
100
AcDbLine
 62
7
  6
CONTINUOUS
 10
991.9098485183
 20
1192.1893523708
 11
991.9098485183
 21
1084.6893523708
  0
LINE
  5
397
100
AcDbEntity
  8
BEZUGSACHSEN
100
AcDbLine
 62
7
  6
CONTINUOUS
 10
1000.4734963242
 20
1085.1893523708
 11
1000.4734963242
 21
1114.6893523738
  0
LINE
  5
398
100
AcDbEntity
  8
BEZUGSACHSEN
100
AcDbLine
 62
7
  6
CONTINUOUS
 10
1003.2734963242
 20
1084.6893523708
 11
1003.2734963242
 21
1085.1893523708
  0
LINE
  5
399
100
AcDbEntity
  8
KONSTRUKTIONSELEMENTE
100
AcDbLine
 62
7
  6
CONTINUOUS
 10
1008.5049482297
 20
1114.6893523708
 11
1008.5049482297
 21
1114.8893523708
  0
LINE
  5
39A
100
AcDbEntity
  8
KONSTRUKTIONSELEMENTE
100
AcDbLine
 62
7
  6
CONTINUOUS
 10
1009.7866705348
 20
1114.6893523708
 11
1009.7866705348
 21
1114.8893523708
  0
LINE
  5
39B
100
AcDbEntity
  8
KONSTRUKTIONSELEMENTE
100
AcDbLine
 62
7
  6
CONTINUOUS
 10
1009.7935985111
 20
1114.6893523708
 11
1009.7935985111
 21
1114.8893523708
  0
LINE
  5
39C
100
AcDbEntity
  8
KONSTRUKTIONSELEMENTE
100
AcDbLine
 62
7
  6
CONTINUOUS
 10
1010.085412509
 20
1114.6893523708
 11
1010.085412509
 21
1114.8893523708
  0
LINE
  5
39D
100
AcDbEntity
  8
0
100
AcDbLine
 62
7
  6
CONTINUOUS
 10
1011.2395587377
 20
1192.1893523708
 11
1011.2395587377
 21
1114.8893523708
  0
LINE
  5
39E
100
AcDbEntity
  8
KONSTRUKTIONSELEMENTE
100
AcDbLine
 62
7
  6
CONTINUOUS
 10
1012.3922081872
 20
1114.6893523708
 11
1012.3922081872
 21
1114.8893523708
  0
LINE
  5
39F
100
AcDbEntity
  8
BEZUGSACHSEN
100
AcDbLine
 62
7
  6
CONTINUOUS
 10
1013.9734963242
 20
929.6893523708
 11
1013.9734963242
 21
994.6893523708
  0
LINE
  5
3A0
100
AcDbEntity
  8
KONSTRUKTIONSELEMENTE
100
AcDbLine
 62
7
  6
CONTINUOUS
 10
1016.5677784284
 20
1114.6893523708
 11
1016.5677784284
 21
1114.8893523708
  0
LINE
  5
3A1
100
AcDbEntity
  8
0
100
AcDbLine
 62
7
  6
CONTINUOUS
 10
938.380574889
 20
1141.1893523708
 11
973.0215910404
 21
1201.1893523708
  0
LINE
  5
3A2
100
AcDbEntity
  8
KONSTRUKTIONSELEMENTE
100
AcDbLine
 62
7
  6
CONTINUOUS
 10
1017.5741768893
 20
1114.6893523708
 11
1017.5741768893
 21
1114.8893523708
  0
LINE
  5
3A3
100
AcDbEntity
  8
KONSTRUKTIONSELEMENTE
100
AcDbLine
 62
7
  6
CONTINUOUS
 10
1021.4862029688
 20
1114.6893523708
 11
1021.4862029688
 21
1114.8893523708
  0
LINE
  5
3A4
100
AcDbEntity
  8
KONSTRUKTIONSELEMENTE
100
AcDbLine
 62
7
  6
CONTINUOUS
 10
1021.5997707328
 20
1114.6893523708
 11
1021.5997707328
 21
1114.8893523708
  0
LINE
  5
3A5
100
AcDbEntity
  8
KONSTRUKTIONSELEMENTE
100
AcDbLine
 62
7
  6
CONTINUOUS
 10
1022.6061696736
 20
1114.6893523708
 11
1022.6061696736
 21
1114.8893523708
  0
LINE
  5
3A6
100
AcDbEntity
  8
KONSTRUKTIONSELEMENTE
100
AcDbLine
 62
7
  6
CONTINUOUS
 10
1026.5181957531
 20
1114.6893523708
 11
1026.5181957531
 21
1114.8893523708
  0
LINE
  5
3A7
100
AcDbEntity
  8
KONSTRUKTIONSELEMENTE
100
AcDbLine
 62
7
  6
CONTINUOUS
 10
1026.9814342192
 20
1114.6893523708
 11
1026.9814342192
 21
1114.8893523708
  0
LINE
  5
3A8
100
AcDbEntity
  8
KONSTRUKTIONSELEMENTE
100
AcDbLine
 62
7
  6
CONTINUOUS
 10
1027.1507454842
 20
1114.6893523708
 11
1027.1507454842
 21
1114.8893523708
  0
LINE
  5
3A9
100
AcDbEntity
  8
KONSTRUKTIONSELEMENTE
100
AcDbLine
 62
7
  6
CONTINUOUS
 10
1027.8474208663
 20
1114.6893523708
 11
1027.8474208663
 21
1114.8893523708
  0
LINE
  5
3AA
100
AcDbEntity
  8
KONSTRUKTIONSELEMENTE
100
AcDbLine
 62
7
  6
CONTINUOUS
 10
1028.9180200362
 20
1114.6893523708
 11
1028.9180200362
 21
1114.8893523708
  0
LINE
  5
3AB
100
AcDbEntity
  8
KONSTRUKTIONSELEMENTE
100
AcDbLine
 62
7
  6
CONTINUOUS
 10
1029.0047866874
 20
1114.6893523708
 11
1029.0047866874
 21
1114.8893523708
  0
LINE
  5
3AC
100
AcDbEntity
  8
KONSTRUKTIONSELEMENTE
100
AcDbLine
 62
7
  6
CONTINUOUS
 10
1029.4592461062
 20
1114.6893523708
 11
1029.4592461062
 21
1114.8893523708
  0
LINE
  5
3AD
100
AcDbEntity
  8
KONSTRUKTIONSELEMENTE
100
AcDbLine
 62
7
  6
CONTINUOUS
 10
1030.1582162737
 20
1114.6893523708
 11
1030.1582162737
 21
1114.8893523708
  0
LINE
  5
3AE
100
AcDbEntity
  8
KONSTRUKTIONSELEMENTE
100
AcDbLine
 62
7
  6
CONTINUOUS
 10
1031.141565406
 20
1114.6893523708
 11
1031.141565406
 21
1114.8893523708
  0
LINE
  5
3AF
100
AcDbEntity
  8
KONSTRUKTIONSELEMENTE
100
AcDbLine
 62
7
  6
CONTINUOUS
 10
1036.0530049304
 20
1114.6893523708
 11
1036.0530049304
 21
1114.8893523708
  0
LINE
  5
3B0
100
AcDbEntity
  8
KONSTRUKTIONSELEMENTE
100
AcDbLine
 62
7
  6
CONTINUOUS
 10
1037.9267837846
 20
1114.6893523708
 11
1037.9267837846
 21
1114.8893523708
  0
LINE
  5
3B1
100
AcDbEntity
  8
BEZUGSACHSEN
100
AcDbLine
 62
7
  6
CONTINUOUS
 10
1037.9734963242
 20
1085.1893523708
 11
1037.9734963242
 21
1111.3399874654
  0
LINE
  5
3B2
100
AcDbEntity
  8
KONSTRUKTIONSELEMENTE
100
AcDbLine
 62
7
  6
CONTINUOUS
 10
1038.7941281373
 20
1114.6893523708
 11
1038.7941281373
 21
1114.8893523708
  0
LINE
  5
3B3
100
AcDbEntity
  8
KONSTRUKTIONSELEMENTE
100
AcDbLine
 62
7
  6
CONTINUOUS
 10
1039.3619666989
 20
1114.6893523708
 11
1039.3619666989
 21
1114.8893523708
  0
LINE
  5
3B4
100
AcDbEntity
  8
KONSTRUKTIONSELEMENTE
100
AcDbLine
 62
7
  6
CONTINUOUS
 10
1039.6856745376
 20
1114.6893523708
 11
1039.6856745376
 21
1114.8893523708
  0
LINE
  5
3B5
100
AcDbEntity
  8
BEZUGSACHSEN
100
AcDbLine
 62
7
  6
CONTINUOUS
 10
1061.9734963242
 20
929.6893523708
 11
1061.9734963242
 21
994.6893523708
  0
LINE
  5
3B6
100
AcDbEntity
  8
BEZUGSACHSEN
100
AcDbLine
 62
7
  6
CONTINUOUS
 10
1072.6734963242
 20
1084.6893523708
 11
1072.6734963242
 21
1085.1893523708
  0
LINE
  5
3B7
100
AcDbEntity
  8
BEZUGSACHSEN
100
AcDbLine
 62
7
  6
CONTINUOUS
 10
1075.4734963242
 20
1085.1893523708
 11
1075.4734963242
 21
1114.6893523738
  0
LINE
  5
3B8
100
AcDbEntity
  8
BEZUGSACHSEN
100
AcDbLine
 62
7
  6
CONTINUOUS
 10
788.5056211511
 20
924.6893523708
 11
793.5056211511
 21
929.6893523708
  0
LINE
  5
3B9
100
AcDbEntity
  8
0
100
AcDbLine
 62
7
  6
CONTINUOUS
 10
1103.7395587377
 20
994.6893523708
 11
1103.7395587377
 21
1084.6893523708
  0
LINE
  5
3BA
100
AcDbEntity
  8
BEZUGSACHSEN
100
AcDbLine
 62
7
  6
CONTINUOUS
 10
922.7395587377
 20
924.6893523708
 11
927.7395587377
 21
929.6893523708
  0
LINE
  5
3BB
100
AcDbEntity
  8
BEZUGSACHSEN
100
AcDbLine
 62
7
  6
CONTINUOUS
 10
1056.9734963242
 20
924.6893523708
 11
1061.9734963242
 21
929.6893523708
  0
LINE
  5
3BC
100
AcDbEntity
  8
KONSTRUKTIONSELEMENTE
100
AcDbLine
 62
7
  6
CONTINUOUS
 10
79.1642370805
 20
472.7189409862
 11
78.2273476533
 21
467.8075014618
  0
LINE
  5
3BD
100
AcDbEntity
  8
0
100
AcDbLine
 62
7
  6
CONTINUOUS
 10
87.4199768527
 20
396.6049777652
 11
87.4199768527
 21
535.1690423707
  0
LINE
  5
3BE
100
AcDbEntity
  8
KONSTRUKTIONSELEMENTE
100
AcDbLine
 62
7
  6
CONTINUOUS
 10
79.5065570184
 20
468.8360231907
 11
80.248261111
 21
472.7242459523
  0
LINE
  5
3BF
100
AcDbEntity
  8
KONSTRUKTIONSELEMENTE
100
AcDbLine
 62
7
  6
CONTINUOUS
 10
83.3832227213
 20
472.126231384
 11
82.6415186287
 21
468.2380086223
  0
LINE
  5
3C0
100
AcDbEntity
  8
KONSTRUKTIONSELEMENTE
100
AcDbLine
 62
7
  6
CONTINUOUS
 10
83.8955030386
 20
467.9988028397
 11
84.5591330309
 21
471.4777390718
  0
LINE
  5
3C1
100
AcDbEntity
  8
KONSTRUKTIONSELEMENTE
100
AcDbLine
 62
7
  6
CONTINUOUS
 10
79.5684198167
 20
473.7022901185
 11
79.1642370805
 21
472.7189409862
  0
LINE
  5
3C2
100
AcDbEntity
  8
BEZUGSACHSEN
100
AcDbLine
 62
7
  6
CONTINUOUS
 10
165.2693417581
 20
637.6209476545
 11
143.6187066635
 21
600.1209476545
  0
LINE
  5
3C3
100
AcDbEntity
  8
BEZUGSACHSEN
100
AcDbLine
 62
7
  6
CONTINUOUS
 10
87.4199768527
 20
502.7818923014
 11
66.1187066635
 21
465.887010068
  0
LINE
  5
3C4
100
AcDbEntity
  8
KONSTRUKTIONSELEMENTE
100
AcDbLine
 62
7
  6
CONTINUOUS
 10
164.1854712808
 20
621.5266655504
 11
163.4440792537
 21
620.5202670895
  0
LINE
  5
3C5
100
AcDbEntity
  8
KONSTRUKTIONSELEMENTE
100
AcDbLine
 62
7
  6
CONTINUOUS
 10
160.4785111451
 20
616.4946732459
 11
159.7371187644
 21
615.4882743052
  0
LINE
  5
3C6
100
AcDbEntity
  8
KONSTRUKTIONSELEMENTE
100
AcDbLine
 62
7
  6
CONTINUOUS
 10
168.9762234256
 20
611.5283964765
 11
169.7653517394
 21
612.2408671571
  0
LINE
  5
3C7
100
AcDbEntity
  8
KONSTRUKTIONSELEMENTE
100
AcDbLine
 62
7
  6
CONTINUOUS
 10
178.0229931602
 20
620.8427440563
 11
177.3818108104
 21
620.2695096749
  0
LINE
  5
3C8
100
AcDbEntity
  8
KONSTRUKTIONSELEMENTE
100
AcDbLine
 62
7
  6
CONTINUOUS
 10
157.8515602223
 20
608.6351978726
 11
157.0684198167
 21
607.9362277051
  0
LINE
  5
3C9
100
AcDbEntity
  8
KONSTRUKTIONSELEMENTE
100
AcDbLine
 62
7
  6
CONTINUOUS
 10
168.7375405479
 20
612.9980334808
 11
168.0719778226
 21
612.4532961859
  0
LINE
  5
3CA
100
AcDbEntity
  8
KONSTRUKTIONSELEMENTE
100
AcDbLine
 62
7
  6
CONTINUOUS
 10
177.9707799183
 20
619.1368967325
 11
178.79679981
 21
619.8062483503
  0
LINE
  5
3CB
100
AcDbEntity
  8
KONSTRUKTIONSELEMENTE
100
AcDbLine
 62
7
  6
CONTINUOUS
 10
158.074369691
 20
607.532245849
 11
158.5704386505
 21
607.8617974103
  0
LINE
  5
3CC
100
AcDbEntity
  8
KONSTRUKTIONSELEMENTE
100
AcDbLine
 62
7
  6
CONTINUOUS
 10
173.3571885618
 20
628.0090314697
 11
168.9211211932
 21
625.7022357915
  0
LINE
  5
3CD
100
AcDbEntity
  8
KONSTRUKTIONSELEMENTE
100
AcDbLine
 62
7
  6
CONTINUOUS
 10
170.6191070745
 20
625.1463219009
 11
173.946157601
 21
626.8764186596
  0
LINE
  5
3CE
100
AcDbEntity
  8
KONSTRUKTIONSELEMENTE
100
AcDbLine
 62
7
  6
CONTINUOUS
 10
177.3818108104
 20
620.2695096749
 11
174.0547602839
 21
618.5394129162
  0
LINE
  5
3CF
100
AcDbEntity
  8
KONSTRUKTIONSELEMENTE
100
AcDbLine
 62
7
  6
CONTINUOUS
 10
173.5347125496
 20
616.8301010543
 11
177.9707799183
 21
619.1368967325
  0
LINE
  5
3D0
100
AcDbEntity
  8
KONSTRUKTIONSELEMENTE
100
AcDbLine
 62
7
  6
CONTINUOUS
 10
168.139358103
 20
611.1098526276
 11
168.9762234256
 21
611.5283964765
  0
LINE
  5
3D1
100
AcDbEntity
  8
KONSTRUKTIONSELEMENTE
100
AcDbLine
 62
7
  6
CONTINUOUS
 10
158.8046610073
 20
609.0896572914
 11
157.8515602223
 21
608.6351978726
  0
LINE
  5
3D2
100
AcDbEntity
  8
KONSTRUKTIONSELEMENTE
100
AcDbLine
 62
7
  6
CONTINUOUS
 10
168.0719778226
 20
612.4532961859
 11
167.3586779985
 21
612.202485789
  0
LINE
  5
3D3
100
AcDbEntity
  8
KONSTRUKTIONSELEMENTE
100
AcDbLine
 62
7
  6
CONTINUOUS
 10
174.3795314753
 20
628.3008454677
 11
173.3571885618
 21
628.0090314697
  0
LINE
  5
3D4
100
AcDbEntity
  8
0
100
AcDbLine
 62
7
  6
CONTINUOUS
 10
297.7949787601
 20
287.4189249578
 11
296.7949768527
 21
287.1636058393
  0
LINE
  5
3D5
100
AcDbEntity
  8
0
100
AcDbLine
 62
7
  6
CONTINUOUS
 10
286.5449787601
 20
287.4189249578
 11
285.5449768527
 21
287.1636058393
  0
LINE
  5
3D6
100
AcDbEntity
  8
0
100
AcDbLine
 62
7
  6
CONTINUOUS
 10
294.2949749454
 20
292.0146696272
 11
295.2949768527
 21
292.2699887457
  0
LINE
  5
3D7
100
AcDbEntity
  8
0
100
AcDbLine
 62
7
  6
CONTINUOUS
 10
283.5449787601
 20
291.2487122717
 11
284.5449749454
 21
291.5040313902
  0
LINE
  5
3D8
100
AcDbEntity
  8
0
100
AcDbLine
 62
7
  6
CONTINUOUS
 10
286.5449787601
 20
292.7806269827
 11
285.5449768527
 21
292.5253078642
  0
LINE
  5
3D9
100
AcDbEntity
  8
0
100
AcDbLine
 62
7
  6
CONTINUOUS
 10
264.0449758991
 20
287.6742440763
 11
263.0449768527
 21
287.4189249578
  0
LINE
  5
3DA
100
AcDbEntity
  8
0
100
AcDbLine
 62
7
  6
CONTINUOUS
 10
296.7949768527
 20
285.887010068
 11
298.0449749454
 21
286.1423292088
  0
LINE
  5
3DB
100
AcDbEntity
  8
0
100
AcDbLine
 62
7
  6
CONTINUOUS
 10
285.7949787601
 20
285.887010068
 11
287.0449768527
 21
286.1423292088
  0
LINE
  5
3DC
100
AcDbEntity
  8
0
100
AcDbLine
 62
7
  6
CONTINUOUS
 10
263.0449768527
 20
285.887010068
 11
264.2949778064
 21
286.1423292088
  0
LINE
  5
3DD
100
AcDbEntity
  8
0
100
AcDbLine
 62
7
  6
CONTINUOUS
 10
295.2949768527
 20
293.5465843382
 11
294.0449787601
 21
293.2912652197
  0
LINE
  5
3DE
100
AcDbEntity
  8
0
100
AcDbLine
 62
7
  6
CONTINUOUS
 10
240.2949763759
 20
285.887010068
 11
241.5449773296
 21
286.1423292088
  0
LINE
  5
3DF
100
AcDbEntity
  8
0
100
AcDbLine
 62
7
  6
CONTINUOUS
 10
222.2949769123
 20
285.887010068
 11
224.2949769719
 21
285.887010068
  0
LINE
  5
3E0
100
AcDbEntity
  8
0
100
AcDbLine
 62
7
  6
CONTINUOUS
 10
228.2949770911
 20
285.887010068
 11
230.2949766143
 21
285.887010068
  0
LINE
  5
3E1
100
AcDbEntity
  8
0
100
AcDbLine
 62
7
  6
CONTINUOUS
 10
234.2949763759
 20
285.887010068
 11
240.2949763759
 21
285.887010068
  0
LINE
  5
3E2
100
AcDbEntity
  8
0
100
AcDbLine
 62
7
  6
CONTINUOUS
 10
245.5449778064
 20
285.887010068
 11
247.0449778064
 21
285.887010068
  0
LINE
  5
3E3
100
AcDbEntity
  8
0
100
AcDbLine
 62
7
  6
CONTINUOUS
 10
260.7949768527
 20
285.887010068
 11
263.0449768527
 21
285.887010068
  0
LINE
  5
3E4
100
AcDbEntity
  8
0
100
AcDbLine
 62
7
  6
CONTINUOUS
 10
284.2949787601
 20
285.887010068
 11
285.7949787601
 21
285.887010068
  0
LINE
  5
3E5
100
AcDbEntity
  8
0
100
AcDbLine
 62
7
  6
CONTINUOUS
 10
295.2949768527
 20
285.887010068
 11
296.7949768527
 21
285.887010068
  0
LINE
  5
3E6
100
AcDbEntity
  8
0
100
AcDbLine
 62
7
  6
CONTINUOUS
 10
296.7949768527
 20
287.1636058393
 11
295.2949768527
 21
287.1636058393
  0
LINE
  5
3E7
100
AcDbEntity
  8
0
100
AcDbLine
 62
7
  6
CONTINUOUS
 10
285.5449768527
 20
287.1636058393
 11
284.5449749454
 21
287.1636058393
  0
LINE
  5
3E8
100
AcDbEntity
  8
0
100
AcDbLine
 62
7
  6
CONTINUOUS
 10
263.0449768527
 20
287.4189249578
 11
260.7949768527
 21
287.4189249578
  0
LINE
  5
3E9
100
AcDbEntity
  8
0
100
AcDbLine
 62
7
  6
CONTINUOUS
 10
240.5449768527
 20
287.4189249578
 11
235.7949763759
 21
287.4189249578
  0
LINE
  5
3EA
100
AcDbEntity
  8
0
100
AcDbLine
 62
7
  6
CONTINUOUS
 10
293.0449768527
 20
288.9508398476
 11
291.5449768527
 21
288.9508398476
  0
LINE
  5
3EB
100
AcDbEntity
  8
0
100
AcDbLine
 62
7
  6
CONTINUOUS
 10
262.7949778064
 20
290.9933931532
 11
265.0449778064
 21
290.9933931532
  0
LINE
  5
3EC
100
AcDbEntity
  8
0
100
AcDbLine
 62
7
  6
CONTINUOUS
 10
235.7949763759
 20
291.2487122717
 11
240.5449768527
 21
291.2487122717
  0
LINE
  5
3ED
100
AcDbEntity
  8
0
100
AcDbLine
 62
7
  6
CONTINUOUS
 10
247.0449778064
 20
291.2487122717
 11
251.5449778064
 21
291.2487122717
  0
LINE
  5
3EE
100
AcDbEntity
  8
0
100
AcDbLine
 62
7
  6
CONTINUOUS
 10
291.5449768527
 20
291.2487122717
 11
293.2949787601
 21
291.2487122717
  0
LINE
  5
3EF
100
AcDbEntity
  8
0
100
AcDbLine
 62
7
  6
CONTINUOUS
 10
284.5449749454
 20
291.5040313902
 11
285.5449768527
 21
291.5040313902
  0
LINE
  5
3F0
100
AcDbEntity
  8
0
100
AcDbLine
 62
7
  6
CONTINUOUS
 10
295.2949768527
 20
292.2699887457
 11
296.7949768527
 21
292.2699887457
  0
LINE
  5
3F1
100
AcDbEntity
  8
0
100
AcDbLine
 62
7
  6
CONTINUOUS
 10
285.5449768527
 20
292.5253078642
 11
284.5449749454
 21
292.5253078642
  0
LINE
  5
3F2
100
AcDbEntity
  8
0
100
AcDbLine
 62
7
  6
CONTINUOUS
 10
266.5449778064
 20
292.5253078642
 11
262.7949778064
 21
292.5253078642
  0
LINE
  5
3F3
100
AcDbEntity
  8
0
100
AcDbLine
 62
7
  6
CONTINUOUS
 10
251.7949768527
 20
292.7806269827
 11
247.0449778064
 21
292.7806269827
  0
LINE
  5
3F4
100
AcDbEntity
  8
0
100
AcDbLine
 62
7
  6
CONTINUOUS
 10
240.5449768527
 20
292.7806269827
 11
235.7949763759
 21
292.7806269827
  0
LINE
  5
3F5
100
AcDbEntity
  8
0
100
AcDbLine
 62
7
  6
CONTINUOUS
 10
302.5449749454
 20
293.0359461012
 11
304.5449787601
 21
293.0359461012
  0
LINE
  5
3F6
100
AcDbEntity
  8
0
100
AcDbLine
 62
7
  6
CONTINUOUS
 10
305.7949768527
 20
293.0359461012
 11
308.5449749454
 21
293.0359461012
  0
LINE
  5
3F7
100
AcDbEntity
  8
0
100
AcDbLine
 62
7
  6
CONTINUOUS
 10
296.7949768527
 20
293.5465843382
 11
295.2949768527
 21
293.5465843382
  0
LINE
  5
3F8
100
AcDbEntity
  8
0
100
AcDbLine
 62
7
  6
CONTINUOUS
 10
308.5449749454
 20
294.0572225752
 11
305.7949768527
 21
294.0572225752
  0
LINE
  5
3F9
100
AcDbEntity
  8
0
100
AcDbLine
 62
7
  6
CONTINUOUS
 10
304.5449787601
 20
294.0572225752
 11
302.5449749454
 21
294.0572225752
  0
LINE
  5
3FA
100
AcDbEntity
  8
BEZUGSACHSEN
100
AcDbLine
 62
7
  6
CONTINUOUS
 10
165.2693417581
 20
294.1530724814
 11
208.5706119473
 21
294.1530724814
  0
LINE
  5
3FB
100
AcDbEntity
  8
BEZUGSACHSEN
100
AcDbLine
 62
7
  6
CONTINUOUS
 10
320.2693417581
 20
294.1530724814
 11
363.5706119473
 21
294.1530724814
  0
LINE
  5
3FC
100
AcDbEntity
  8
0
100
AcDbLine
 62
7
  6
CONTINUOUS
 10
265.0449778064
 20
294.8231799307
 11
266.5449778064
 21
294.8231799307
  0
LINE
  5
3FD
100
AcDbEntity
  8
0
100
AcDbLine
 62
7
  6
CONTINUOUS
 10
305.7949768527
 20
296.0997762385
 11
304.5449787601
 21
296.0997762385
  0
LINE
  5
3FE
100
AcDbEntity
  8
0
100
AcDbLine
 62
7
  6
CONTINUOUS
 10
306.5449768527
 20
286.1423292088
 11
308.0449768527
 21
285.887010068
  0
LINE
  5
3FF
100
AcDbEntity
  8
0
100
AcDbLine
 62
7
  6
CONTINUOUS
 10
259.5449758991
 20
286.1423292088
 11
260.7949768527
 21
285.887010068
  0
LINE
  5
400
100
AcDbEntity
  8
0
100
AcDbLine
 62
7
  6
CONTINUOUS
 10
283.0449749454
 20
286.1423292088
 11
284.2949787601
 21
285.887010068
  0
LINE
  5
401
100
AcDbEntity
  8
0
100
AcDbLine
 62
7
  6
CONTINUOUS
 10
294.0449787601
 20
286.1423292088
 11
295.2949768527
 21
285.887010068
  0
LINE
  5
402
100
AcDbEntity
  8
0
100
AcDbLine
 62
7
  6
CONTINUOUS
 10
241.5449773296
 20
297.6316909495
 11
240.2949763759
 21
297.887010068
  0
LINE
  5
403
100
AcDbEntity
  8
0
100
AcDbLine
 62
7
  6
CONTINUOUS
 10
260.7949768527
 20
287.4189249578
 11
259.7949778064
 21
287.6742440763
  0
LINE
  5
404
100
AcDbEntity
  8
0
100
AcDbLine
 62
7
  6
CONTINUOUS
 10
284.5449749454
 20
287.1636058393
 11
283.5449787601
 21
287.4189249578
  0
LINE
  5
405
100
AcDbEntity
  8
0
100
AcDbLine
 62
7
  6
CONTINUOUS
 10
240.5449768527
 20
291.2487122717
 11
241.2949768527
 21
290.9933931532
  0
LINE
  5
406
100
AcDbEntity
  8
0
100
AcDbLine
 62
7
  6
CONTINUOUS
 10
240.5449768527
 20
296.355095357
 11
241.2949768527
 21
296.0997762385
  0
LINE
  5
407
100
AcDbEntity
  8
BEZUGSACHSEN
100
AcDbLine
 62
7
  6
CONTINUOUS
 10
66.1187066635
 20
465.887010068
 11
87.4199768527
 21
428.9921278345
  0
LINE
  5
408
100
AcDbEntity
  8
BEZUGSACHSEN
100
AcDbLine
 62
7
  6
CONTINUOUS
 10
143.6187066635
 20
331.6530724814
 11
165.2693417581
 21
294.1530724814
  0
LINE
  5
409
100
AcDbEntity
  8
KONSTRUKTIONSELEMENTE
100
AcDbLine
 62
7
  6
CONTINUOUS
 10
84.3753606402
 20
472.7853345066
 11
84.1135140375
 21
473.6836428263
  0
LINE
  5
40A
100
AcDbEntity
  8
KONSTRUKTIONSELEMENTE
100
AcDbLine
 62
7
  6
CONTINUOUS
 10
83.291336498
 20
472.7800289549
 11
83.3832227213
 21
472.126231384
  0
LINE
  5
40B
100
AcDbEntity
  8
KONSTRUKTIONSELEMENTE
100
AcDbLine
 62
7
  6
CONTINUOUS
 10
157.0684198167
 20
607.9362277051
 11
156.6642370805
 21
606.9528785728
  0
LINE
  5
40C
100
AcDbEntity
  8
KONSTRUKTIONSELEMENTE
100
AcDbLine
 62
7
  6
CONTINUOUS
 10
170.2596133266
 20
612.9117997843
 11
170.7061379199
 21
613.876659232
  0
LINE
  5
40D
100
AcDbEntity
  8
KONSTRUKTIONSELEMENTE
100
AcDbLine
 62
7
  6
CONTINUOUS
 10
178.3811784995
 20
621.5086312516
 11
178.0229931602
 21
620.8427440563
  0
LINE
  5
40E
100
AcDbEntity
  8
KONSTRUKTIONSELEMENTE
100
AcDbLine
 62
7
  6
CONTINUOUS
 10
80.248261111
 20
472.7242459523
 11
80.574369691
 21
473.2983082624
  0
LINE
  5
40F
100
AcDbEntity
  8
KONSTRUKTIONSELEMENTE
100
AcDbLine
 62
7
  6
CONTINUOUS
 10
157.748261111
 20
606.9581835389
 11
158.074369691
 21
607.532245849
  0
LINE
  5
410
100
AcDbEntity
  8
KONSTRUKTIONSELEMENTE
100
AcDbLine
 62
7
  6
CONTINUOUS
 10
178.79679981
 20
619.8062483503
 11
179.3398206276
 21
620.568251583
  0
LINE
  5
411
100
AcDbEntity
  8
KONSTRUKTIONSELEMENTE
100
AcDbLine
 62
7
  6
CONTINUOUS
 10
169.231802135
 20
613.668966108
 11
168.7375405479
 21
612.9980334808
  0
LINE
  5
412
100
AcDbEntity
  8
KONSTRUKTIONSELEMENTE
100
AcDbLine
 62
7
  6
CONTINUOUS
 10
169.7653517394
 20
612.2408671571
 11
170.2596133266
 21
612.9117997843
  0
LINE
  5
413
100
AcDbEntity
  8
KONSTRUKTIONSELEMENTE
100
AcDbLine
 62
7
  6
CONTINUOUS
 10
86.6854712808
 20
487.2927279638
 11
85.9440792537
 21
486.2863295029
  0
LINE
  5
414
100
AcDbEntity
  8
KONSTRUKTIONSELEMENTE
100
AcDbLine
 62
7
  6
CONTINUOUS
 10
82.9785111451
 20
482.2607356594
 11
82.2371187644
 21
481.2543367186
  0
LINE
  5
415
100
AcDbEntity
  8
KONSTRUKTIONSELEMENTE
100
AcDbLine
 62
7
  6
CONTINUOUS
 10
204.8455091173
 20
625.6050783643
 11
197.7398546458
 21
619.3496457489
  0
LINE
  5
416
100
AcDbEntity
  8
KONSTRUKTIONSELEMENTE
100
AcDbLine
 62
7
  6
CONTINUOUS
 10
197.944417369
 20
618.013855702
 11
204.3468161151
 21
623.4443228309
  0
LINE
  5
417
100
AcDbEntity
  8
KONSTRUKTIONSELEMENTE
100
AcDbLine
 62
7
  6
CONTINUOUS
 10
206.3998800243
 20
616.7259360603
 11
205.3065020238
 21
616.0669811184
  0
LINE
  5
418
100
AcDbEntity
  8
KONSTRUKTIONSELEMENTE
100
AcDbLine
 62
7
  6
CONTINUOUS
 10
212.4431499563
 20
614.5302298508
 11
208.9807865856
 21
612.4435393807
  0
LINE
  5
419
100
AcDbEntity
  8
KONSTRUKTIONSELEMENTE
100
AcDbLine
 62
7
  6
CONTINUOUS
 10
207.887408585
 20
611.7845844387
 11
205.3361935907
 21
610.2470231125
  0
LINE
  5
41A
100
AcDbEntity
  8
KONSTRUKTIONSELEMENTE
100
AcDbLine
 62
7
  6
CONTINUOUS
 10
205.981420231
 20
609.1764239426
 11
208.5326352253
 21
610.7139852688
  0
LINE
  5
41B
100
AcDbEntity
  8
KONSTRUKTIONSELEMENTE
100
AcDbLine
 62
7
  6
CONTINUOUS
 10
209.6260132259
 20
611.3729402108
 11
214.5462135904
 21
614.3382370651
  0
LINE
  5
41C
100
AcDbEntity
  8
KONSTRUKTIONSELEMENTE
100
AcDbLine
 62
7
  6
CONTINUOUS
 10
209.6080137796
 20
608.9296519576
 11
210.7013917802
 21
609.5886068995
  0
LINE
  5
41D
100
AcDbEntity
  8
KONSTRUKTIONSELEMENTE
100
AcDbLine
 62
7
  6
CONTINUOUS
 10
210.0638055833
 20
605.8810275783
 11
209.039715674
 21
605.3744829293
  0
LINE
  5
41E
100
AcDbEntity
  8
0
100
AcDbLine
 62
7
  6
CONTINUOUS
 10
283.5449787601
 20
296.355095357
 11
284.5449749454
 21
296.6104144755
  0
LINE
  5
41F
100
AcDbEntity
  8
0
100
AcDbLine
 62
7
  6
CONTINUOUS
 10
259.7949778064
 20
296.0997762385
 11
260.7949768527
 21
296.355095357
  0
LINE
  5
420
100
AcDbEntity
  8
0
100
AcDbLine
 62
7
  6
CONTINUOUS
 10
284.5449749454
 20
297.887010068
 11
283.2949768527
 21
297.6316909495
  0
LINE
  5
421
100
AcDbEntity
  8
0
100
AcDbLine
 62
7
  6
CONTINUOUS
 10
251.5449778064
 20
291.2487122717
 11
252.7949758991
 21
291.5040313902
  0
LINE
  5
422
100
AcDbEntity
  8
0
100
AcDbLine
 62
7
  6
CONTINUOUS
 10
260.7949768527
 20
297.887010068
 11
259.5449758991
 21
297.6316909495
  0
LINE
  5
423
100
AcDbEntity
  8
0
100
AcDbLine
 62
7
  6
CONTINUOUS
 10
276.6699768527
 20
310.887010068
 11
277.9199778064
 21
311.1423292088
  0
LINE
  5
424
100
AcDbEntity
  8
0
100
AcDbLine
 62
7
  6
CONTINUOUS
 10
264.6699768527
 20
310.887010068
 11
265.9199763759
 21
311.1423292088
  0
LINE
  5
425
100
AcDbEntity
  8
0
100
AcDbLine
 62
7
  6
CONTINUOUS
 10
235.7949763759
 20
296.355095357
 11
240.5449768527
 21
296.355095357
  0
LINE
  5
426
100
AcDbEntity
  8
0
100
AcDbLine
 62
7
  6
CONTINUOUS
 10
260.7949768527
 20
296.355095357
 11
263.0449768527
 21
296.355095357
  0
LINE
  5
427
100
AcDbEntity
  8
0
100
AcDbLine
 62
7
  6
CONTINUOUS
 10
247.0449778064
 20
296.6104144755
 11
251.7949768527
 21
296.6104144755
  0
LINE
  5
428
100
AcDbEntity
  8
0
100
AcDbLine
 62
7
  6
CONTINUOUS
 10
284.5449749454
 20
296.6104144755
 11
285.5449768527
 21
296.6104144755
  0
LINE
  5
429
100
AcDbEntity
  8
0
100
AcDbLine
 62
7
  6
CONTINUOUS
 10
292.7949749454
 20
296.6104144755
 11
300.0449787601
 21
296.6104144755
  0
LINE
  5
42A
100
AcDbEntity
  8
0
100
AcDbLine
 62
7
  6
CONTINUOUS
 10
300.0449787601
 20
297.887010068
 11
291.5449768527
 21
297.887010068
  0
LINE
  5
42B
100
AcDbEntity
  8
0
100
AcDbLine
 62
7
  6
CONTINUOUS
 10
285.5449768527
 20
297.887010068
 11
284.5449749454
 21
297.887010068
  0
LINE
  5
42C
100
AcDbEntity
  8
0
100
AcDbLine
 62
7
  6
CONTINUOUS
 10
263.0449768527
 20
297.887010068
 11
260.7949768527
 21
297.887010068
  0
LINE
  5
42D
100
AcDbEntity
  8
0
100
AcDbLine
 62
7
  6
CONTINUOUS
 10
251.5449778064
 20
297.887010068
 11
245.5449778064
 21
297.887010068
  0
LINE
  5
42E
100
AcDbEntity
  8
0
100
AcDbLine
 62
7
  6
CONTINUOUS
 10
240.2949763759
 20
297.887010068
 11
234.2949763759
 21
297.887010068
  0
LINE
  5
42F
100
AcDbEntity
  8
0
100
AcDbLine
 62
7
  6
CONTINUOUS
 10
232.2949768527
 20
297.887010068
 11
230.7949768527
 21
297.887010068
  0
LINE
  5
430
100
AcDbEntity
  8
0
100
AcDbLine
 62
7
  6
CONTINUOUS
 10
227.2949766143
 20
297.887010068
 11
225.2949767335
 21
297.887010068
  0
LINE
  5
431
100
AcDbEntity
  8
0
100
AcDbLine
 62
7
  6
CONTINUOUS
 10
221.7949768527
 20
297.887010068
 11
220.2949768527
 21
297.887010068
  0
LINE
  5
432
100
AcDbEntity
  8
0
100
AcDbLine
 62
7
  6
CONTINUOUS
 10
248.1699768527
 20
310.887010068
 11
249.6699768527
 21
310.887010068
  0
LINE
  5
433
100
AcDbEntity
  8
0
100
AcDbLine
 62
7
  6
CONTINUOUS
 10
255.9199766143
 20
310.887010068
 11
257.6699770911
 21
310.887010068
  0
LINE
  5
434
100
AcDbEntity
  8
0
100
AcDbLine
 62
7
  6
CONTINUOUS
 10
263.6699763759
 20
310.887010068
 11
264.6699768527
 21
310.887010068
  0
LINE
  5
435
100
AcDbEntity
  8
0
100
AcDbLine
 62
7
  6
CONTINUOUS
 10
270.6699768527
 20
310.887010068
 11
276.6699768527
 21
310.887010068
  0
LINE
  5
436
100
AcDbEntity
  8
0
100
AcDbLine
 62
7
  6
CONTINUOUS
 10
276.6699768527
 20
312.4189249578
 11
272.1699768527
 21
312.4189249578
  0
LINE
  5
437
100
AcDbEntity
  8
0
100
AcDbLine
 62
7
  6
CONTINUOUS
 10
264.6699768527
 20
312.4189249578
 11
263.6699763759
 21
312.4189249578
  0
LINE
  5
438
100
AcDbEntity
  8
KONSTRUKTIONSELEMENTE
100
AcDbLine
 62
7
  6
CONTINUOUS
 10
155.7273476533
 20
333.5735638752
 11
165.550226702
 21
331.699785021
  0
LINE
  5
439
100
AcDbEntity
  8
0
100
AcDbLine
 62
7
  6
CONTINUOUS
 10
252.7949758991
 20
297.6316909495
 11
251.5449778064
 21
297.887010068
  0
LINE
  5
43A
100
AcDbEntity
  8
0
100
AcDbLine
 62
7
  6
CONTINUOUS
 10
308.0449768527
 20
286.9082866314
 11
306.7949787601
 21
287.1636058393
  0
LINE
  5
43B
100
AcDbEntity
  8
0
100
AcDbLine
 62
7
  6
CONTINUOUS
 10
264.2949778064
 20
297.6316909495
 11
263.0449768527
 21
297.887010068
  0
LINE
  5
43C
100
AcDbEntity
  8
0
100
AcDbLine
 62
7
  6
CONTINUOUS
 10
298.0449749454
 20
293.2912652197
 11
296.7949768527
 21
293.5465843382
  0
LINE
  5
43D
100
AcDbEntity
  8
0
100
AcDbLine
 62
7
  6
CONTINUOUS
 10
286.7949749454
 20
297.6316909495
 11
285.5449768527
 21
297.887010068
  0
LINE
  5
43E
100
AcDbEntity
  8
0
100
AcDbLine
 62
7
  6
CONTINUOUS
 10
262.4199768527
 20
311.1423292088
 11
263.6699763759
 21
310.887010068
  0
LINE
  5
43F
100
AcDbEntity
  8
0
100
AcDbLine
 62
7
  6
CONTINUOUS
 10
295.2949768527
 20
287.1636058393
 11
294.2949749454
 21
287.4189249578
  0
LINE
  5
440
100
AcDbEntity
  8
0
100
AcDbLine
 62
7
  6
CONTINUOUS
 10
263.0449768527
 20
296.355095357
 11
264.0449758991
 21
296.0997762385
  0
LINE
  5
441
100
AcDbEntity
  8
0
100
AcDbLine
 62
7
  6
CONTINUOUS
 10
285.5449768527
 20
291.5040313902
 11
286.5449787601
 21
291.2487122717
  0
LINE
  5
442
100
AcDbEntity
  8
0
100
AcDbLine
 62
7
  6
CONTINUOUS
 10
284.5449749454
 20
292.5253078642
 11
283.5449787601
 21
292.7806269827
  0
LINE
  5
443
100
AcDbEntity
  8
0
100
AcDbLine
 62
7
  6
CONTINUOUS
 10
296.7949768527
 20
292.2699887457
 11
297.7949787601
 21
292.0146696272
  0
LINE
  5
444
100
AcDbEntity
  8
0
100
AcDbLine
 62
7
  6
CONTINUOUS
 10
285.5449768527
 20
296.6104144755
 11
286.5449787601
 21
296.355095357
  0
LINE
  5
445
100
AcDbEntity
  8
0
100
AcDbLine
 62
7
  6
CONTINUOUS
 10
251.7949768527
 20
296.6104144755
 11
252.5449768527
 21
296.355095357
  0
LINE
  5
446
100
AcDbEntity
  8
0
100
AcDbLine
 62
7
  6
CONTINUOUS
 10
305.7949768527
 20
286.3976483497
 11
306.5449768527
 21
286.1423292088
  0
LINE
  5
447
100
AcDbEntity
  8
KONSTRUKTIONSELEMENTE
100
AcDbLine
 62
7
  6
CONTINUOUS
 10
166.5976413156
 20
343.77772694
 11
165.7888690681
 21
344.1147719932
  0
LINE
  5
448
100
AcDbEntity
  8
KONSTRUKTIONSELEMENTE
100
AcDbLine
 62
7
  6
CONTINUOUS
 10
165.0474766874
 20
343.1083730525
 11
166.0275514873
 21
342.6451345864
  0
LINE
  5
449
100
AcDbEntity
  8
0
100
AcDbLine
 62
7
  6
CONTINUOUS
 10
242.5449763759
 20
291.7593505087
 11
242.0449768527
 21
292.0146696272
  0
LINE
  5
44A
100
AcDbEntity
  8
0
100
AcDbLine
 62
7
  6
CONTINUOUS
 10
258.5449768527
 20
286.6529675129
 11
259.5449758991
 21
286.1423292088
  0
LINE
  5
44B
100
AcDbEntity
  8
0
100
AcDbLine
 62
7
  6
CONTINUOUS
 10
283.5449787601
 20
287.4189249578
 11
282.5449768527
 21
287.9295631948
  0
LINE
  5
44C
100
AcDbEntity
  8
0
100
AcDbLine
 62
7
  6
CONTINUOUS
 10
265.2949768527
 20
297.1210527125
 11
264.2949778064
 21
297.6316909495
  0
LINE
  5
44D
100
AcDbEntity
  8
KONSTRUKTIONSELEMENTE
100
AcDbLine
 62
7
  6
CONTINUOUS
 10
159.8634606681
 20
339.3593594611
 11
160.4514158509
 21
339.0351134514
  0
LINE
  5
44E
100
AcDbEntity
  8
KONSTRUKTIONSELEMENTE
100
AcDbLine
 62
7
  6
CONTINUOUS
 10
160.8946356093
 20
340.2231057021
 11
160.3066804266
 21
340.5473517118
  0
LINE
  5
44F
100
AcDbEntity
  8
0
100
AcDbLine
 62
7
  6
CONTINUOUS
 10
259.7949778064
 20
287.6742440763
 11
259.0449778064
 21
288.1848824921
  0
LINE
  5
450
100
AcDbEntity
  8
KONSTRUKTIONSELEMENTE
100
AcDbLine
 62
7
  6
CONTINUOUS
 10
159.7371187644
 20
347.020399132
 11
165.0474766874
 21
343.1083730525
  0
LINE
  5
451
100
AcDbEntity
  8
KONSTRUKTIONSELEMENTE
100
AcDbLine
 62
7
  6
CONTINUOUS
 10
165.7888690681
 20
344.1147719932
 11
160.4785111451
 21
348.0267980728
  0
LINE
  5
452
100
AcDbEntity
  8
KONSTRUKTIONSELEMENTE
100
AcDbLine
 62
7
  6
CONTINUOUS
 10
163.4440792537
 20
352.0523919163
 11
168.7544371767
 21
348.1403658368
  0
LINE
  5
453
100
AcDbEntity
  8
KONSTRUKTIONSELEMENTE
100
AcDbLine
 62
7
  6
CONTINUOUS
 10
169.4958292038
 20
349.1467642977
 11
164.1854712808
 21
353.0587903772
  0
LINE
  5
454
100
AcDbEntity
  8
0
100
AcDbLine
 62
7
  6
CONTINUOUS
 10
242.5449763759
 20
296.865733594
 11
241.5449773296
 21
297.6316909495
  0
LINE
  5
455
100
AcDbEntity
  8
KONSTRUKTIONSELEMENTE
100
AcDbLine
 62
7
  6
CONTINUOUS
 10
161.6135140375
 20
339.4497052398
 11
160.8946356093
 21
340.2231057021
  0
LINE
  5
456
100
AcDbEntity
  8
KONSTRUKTIONSELEMENTE
100
AcDbLine
 62
7
  6
CONTINUOUS
 10
170.2287728566
 20
348.3480590382
 11
169.4958292038
 21
349.1467642977
  0
LINE
  5
457
100
AcDbEntity
  8
KONSTRUKTIONSELEMENTE
100
AcDbLine
 62
7
  6
CONTINUOUS
 10
168.7544371767
 20
348.1403658368
 11
169.3160789842
 21
347.4678549498
  0
LINE
  5
458
100
AcDbEntity
  8
KONSTRUKTIONSELEMENTE
100
AcDbLine
 62
7
  6
CONTINUOUS
 10
160.4514158509
 20
339.0351134514
 11
160.791336498
 21
338.5460913684
  0
LINE
  5
459
100
AcDbEntity
  8
RUNDUNGEN
100
AcDbLine
 62
7
  6
CONTINUOUS
 10
125.9199768527
 20
529.5077581114
 11
125.9199768527
 21
506.1893104787
  0
LINE
  5
45A
100
AcDbEntity
  8
RUNDUNGEN
100
AcDbLine
 62
7
  6
CONTINUOUS
 10
125.9199768527
 20
425.5847096573
 11
125.9199768527
 21
402.2662620245
  0
LINE
  5
45B
100
AcDbEntity
  8
0
100
AcDbLine
 62
7
  6
CONTINUOUS
 10
125.9199768527
 20
396.6049777652
 11
125.9199768527
 21
428.8733580836
  0
LINE
  5
45C
100
AcDbEntity
  8
0
100
AcDbLine
 62
7
  6
CONTINUOUS
 10
125.9199768527
 20
502.9006620523
 11
125.9199768527
 21
535.1690423707
  0
LINE
  5
45D
100
AcDbEntity
  8
KONSTRUKTIONSELEMENTE
100
AcDbLine
 62
7
  6
CONTINUOUS
 10
156.6642370805
 20
606.9528785728
 11
155.7273476533
 21
602.0414390484
  0
LINE
  5
45E
100
AcDbEntity
  8
KONSTRUKTIONSELEMENTE
100
AcDbLine
 62
7
  6
CONTINUOUS
 10
157.0065570184
 20
603.0699607773
 11
157.748261111
 21
606.9581835389
  0
LINE
  5
45F
100
AcDbEntity
  8
KONSTRUKTIONSELEMENTE
100
AcDbLine
 62
7
  6
CONTINUOUS
 10
160.8832227213
 20
606.3601689705
 11
160.1415186287
 21
602.4719462089
  0
LINE
  5
460
100
AcDbEntity
  8
KONSTRUKTIONSELEMENTE
100
AcDbLine
 62
7
  6
CONTINUOUS
 10
161.3955030386
 20
602.2327404263
 11
162.0591330309
 21
605.7116766584
  0
LINE
  5
461
100
AcDbEntity
  8
KONSTRUKTIONSELEMENTE
100
AcDbLine
 62
7
  6
CONTINUOUS
 10
179.3398206276
 20
620.568251583
 11
179.6865184235
 21
621.7077924356
  0
LINE
  5
462
100
AcDbEntity
  8
KONSTRUKTIONSELEMENTE
100
AcDbLine
 62
7
  6
CONTINUOUS
 10
169.5547618769
 20
614.4660931077
 11
169.231802135
 21
613.668966108
  0
LINE
  5
463
100
AcDbEntity
  8
KONSTRUKTIONSELEMENTE
100
AcDbLine
 62
7
  6
CONTINUOUS
 10
197.7645456868
 20
629.5894957491
 11
192.8606473671
 21
620.8744638347
  0
LINE
  5
464
100
AcDbEntity
  8
KONSTRUKTIONSELEMENTE
100
AcDbLine
 62
7
  6
CONTINUOUS
 10
193.9500263564
 20
620.2614765447
 11
197.8105421793
 21
627.1222465707
  0
LINE
  5
465
100
AcDbEntity
  8
KONSTRUKTIONSELEMENTE
100
AcDbLine
 62
7
  6
CONTINUOUS
 10
204.3468161151
 20
623.4443228309
 11
200.4863002922
 21
616.5835528049
  0
LINE
  5
466
100
AcDbEntity
  8
KONSTRUKTIONSELEMENTE
100
AcDbLine
 62
7
  6
CONTINUOUS
 10
201.5756792815
 20
615.9705655149
 11
206.4795776013
 21
624.6855974293
  0
LINE
  5
467
100
AcDbEntity
  8
KONSTRUKTIONSELEMENTE
100
AcDbLine
 62
7
  6
CONTINUOUS
 10
209.039715674
 20
605.3744829293
 11
208.4574857292
 21
604.6969451347
  0
LINE
  5
468
100
AcDbEntity
  8
KONSTRUKTIONSELEMENTE
100
AcDbLine
 62
7
  6
CONTINUOUS
 10
213.5091756601
 20
605.5508706799
 11
212.9269457895
 21
604.8733328917
  0
LINE
  5
469
100
AcDbEntity
  8
KONSTRUKTIONSELEMENTE
100
AcDbLine
 62
7
  6
CONTINUOUS
 10
80.3515602223
 20
474.401260286
 11
79.5684198167
 21
473.7022901185
  0
LINE
  5
46A
100
AcDbEntity
  8
KONSTRUKTIONSELEMENTE
100
AcDbLine
 62
7
  6
CONTINUOUS
 10
209.3591084356
 20
604.1473897765
 11
210.1533173837
 21
604.843210781
  0
LINE
  5
46B
100
AcDbEntity
  8
KONSTRUKTIONSELEMENTE
100
AcDbLine
 62
7
  6
CONTINUOUS
 10
212.0489230721
 20
600.1972521151
 11
211.2547139756
 21
599.5014310979
  0
LINE
  5
46C
100
AcDbEntity
  8
KONSTRUKTIONSELEMENTE
100
AcDbLine
 62
7
  6
CONTINUOUS
 10
214.0226453185
 20
604.5496202894
 11
214.6227772213
 21
605.0195985187
  0
LINE
  5
46D
100
AcDbEntity
  8
KONSTRUKTIONSELEMENTE
100
AcDbLine
 62
7
  6
CONTINUOUS
 10
216.0765233164
 20
600.5446330306
 11
215.47639041
 21
600.0746595008
  0
LINE
  5
46E
100
AcDbEntity
  8
KONSTRUKTIONSELEMENTE
100
AcDbLine
 62
7
  6
CONTINUOUS
 10
214.3212869017
 20
606.0391273619
 11
213.5091756601
 21
605.5508706799
  0
LINE
  5
46F
100
AcDbEntity
  8
KONSTRUKTIONSELEMENTE
100
AcDbLine
 62
7
  6
CONTINUOUS
 10
211.3442253662
 20
598.4636190513
 11
212.3683158337
 21
598.9701589623
  0
LINE
  5
470
100
AcDbEntity
  8
KONSTRUKTIONSELEMENTE
100
AcDbLine
 62
7
  6
CONTINUOUS
 10
215.5659022104
 20
599.0368427034
 11
216.589992565
 21
599.5433873908
  0
LINE
  5
471
100
AcDbEntity
  8
KONSTRUKTIONSELEMENTE
100
AcDbLine
 62
7
  6
CONTINUOUS
 10
329.3795314753
 20
628.3008454677
 11
328.3571885618
 21
628.0090314697
  0
LINE
  5
472
100
AcDbEntity
  8
0
100
AcDbLine
 62
7
  6
CONTINUOUS
 10
277.6699758991
 20
312.6742440763
 11
276.6699768527
 21
312.4189249578
  0
LINE
  5
473
100
AcDbEntity
  8
0
100
AcDbLine
 62
7
  6
CONTINUOUS
 10
265.6699773296
 20
312.6742440763
 11
264.6699768527
 21
312.4189249578
  0
LINE
  5
474
100
AcDbEntity
  8
KONSTRUKTIONSELEMENTE
100
AcDbLine
 62
7
  6
CONTINUOUS
 10
322.0336349989
 20
339.4762311297
 11
316.8753606402
 21
338.55139692
  0
LINE
  5
475
100
AcDbEntity
  8
KONSTRUKTIONSELEMENTE
100
AcDbLine
 62
7
  6
CONTINUOUS
 10
317.0591330309
 20
337.2438014853
 11
321.7603755082
 21
338.0437275448
  0
LINE
  5
476
100
AcDbEntity
  8
KONSTRUKTIONSELEMENTE
100
AcDbLine
 62
7
  6
CONTINUOUS
 10
365.7082885793
 20
329.940894268
 11
366.3442253662
 21
329.9957438781
  0
LINE
  5
477
100
AcDbEntity
  8
KONSTRUKTIONSELEMENTE
100
AcDbLine
 62
7
  6
CONTINUOUS
 10
369.9299654235
 20
330.5141179201
 11
370.5659022104
 21
330.5689675303
  0
LINE
  5
478
100
AcDbEntity
  8
KONSTRUKTIONSELEMENTE
100
AcDbLine
 62
7
  6
CONTINUOUS
 10
366.2547139756
 20
331.0335559247
 11
365.6187771887
 21
330.9787063146
  0
LINE
  5
479
100
AcDbEntity
  8
KONSTRUKTIONSELEMENTE
100
AcDbLine
 62
7
  6
CONTINUOUS
 10
370.47639041
 20
331.6067843276
 11
370.052432552
 21
331.5702179208
  0
LINE
  5
47A
100
AcDbEntity
  8
KONSTRUKTIONSELEMENTE
100
AcDbLine
 62
7
  6
CONTINUOUS
 10
369.6227772213
 20
336.5517233456
 11
370.0467350793
 21
336.5882897523
  0
LINE
  5
47B
100
AcDbEntity
  8
KONSTRUKTIONSELEMENTE
100
AcDbLine
 62
7
  6
CONTINUOUS
 10
365.1533173837
 20
336.3753356078
 11
365.7892541706
 21
336.4301852179
  0
LINE
  5
47C
100
AcDbEntity
  8
KONSTRUKTIONSELEMENTE
100
AcDbLine
 62
7
  6
CONTINUOUS
 10
369.9572236886
 20
337.6261017989
 11
369.3212869017
 21
337.5712521888
  0
LINE
  5
47D
100
AcDbEntity
  8
KONSTRUKTIONSELEMENTE
100
AcDbLine
 62
7
  6
CONTINUOUS
 10
365.6997423702
 20
337.4680020153
 11
365.0638055833
 21
337.4131524051
  0
LINE
  5
47E
100
AcDbEntity
  8
0
100
AcDbLine
 62
7
  6
CONTINUOUS
 10
249.6699768527
 20
316.2487122717
 11
253.9199767335
 21
316.2487122717
  0
LINE
  5
47F
100
AcDbEntity
  8
0
100
AcDbLine
 62
7
  6
CONTINUOUS
 10
254.4199766143
 20
317.7806269827
 11
249.6699768527
 21
317.7806269827
  0
LINE
  5
480
100
AcDbEntity
  8
0
100
AcDbLine
 62
7
  6
CONTINUOUS
 10
272.1699768527
 20
321.355095357
 11
276.6699768527
 21
321.355095357
  0
LINE
  5
481
100
AcDbEntity
  8
0
100
AcDbLine
 62
7
  6
CONTINUOUS
 10
249.6699768527
 20
321.6104144755
 11
254.4199766143
 21
321.6104144755
  0
LINE
  5
482
100
AcDbEntity
  8
0
100
AcDbLine
 62
7
  6
CONTINUOUS
 10
276.6699768527
 20
322.887010068
 11
270.6699768527
 21
322.887010068
  0
LINE
  5
483
100
AcDbEntity
  8
0
100
AcDbLine
 62
7
  6
CONTINUOUS
 10
268.6699773296
 20
322.887010068
 11
267.1699773296
 21
322.887010068
  0
LINE
  5
484
100
AcDbEntity
  8
0
100
AcDbLine
 62
7
  6
CONTINUOUS
 10
261.1699773296
 20
322.887010068
 11
259.6699766143
 21
322.887010068
  0
LINE
  5
485
100
AcDbEntity
  8
0
100
AcDbLine
 62
7
  6
CONTINUOUS
 10
254.1699768527
 20
322.887010068
 11
248.1699768527
 21
322.887010068
  0
LINE
  5
486
100
AcDbEntity
  8
KONSTRUKTIONSELEMENTE
100
AcDbLine
 62
7
  6
CONTINUOUS
 10
166.0275514873
 20
342.6451345864
 11
166.9598897818
 21
342.4758233214
  0
LINE
  5
487
100
AcDbEntity
  8
KONSTRUKTIONSELEMENTE
100
AcDbLine
 62
7
  6
CONTINUOUS
 10
165.7844490588
 20
332.9276449021
 11
161.3955030386
 21
333.7648652531
  0
LINE
  5
488
100
AcDbEntity
  8
KONSTRUKTIONSELEMENTE
100
AcDbLine
 62
7
  6
CONTINUOUS
 10
160.1415186287
 20
334.0040710358
 11
157.0065570184
 21
334.6020856041
  0
LINE
  5
489
100
AcDbEntity
  8
KONSTRUKTIONSELEMENTE
100
AcDbLine
 62
7
  6
CONTINUOUS
 10
159.2364678777
 20
339.4789624641
 11
159.8634606681
 21
339.3593594611
  0
LINE
  5
48A
100
AcDbEntity
  8
KONSTRUKTIONSELEMENTE
100
AcDbLine
 62
7
  6
CONTINUOUS
 10
160.3066804266
 20
340.5473517118
 11
159.4706902345
 21
340.7068223452
  0
LINE
  5
48B
100
AcDbEntity
  8
0
100
AcDbLine
 62
7
  6
CONTINUOUS
 10
255.4199770911
 20
322.6316909495
 11
254.1699768527
 21
322.887010068
  0
LINE
  5
48C
100
AcDbEntity
  8
0
100
AcDbLine
 62
7
  6
CONTINUOUS
 10
277.9199778064
 20
322.6316909495
 11
276.6699768527
 21
322.887010068
  0
LINE
  5
48D
100
AcDbEntity
  8
0
100
AcDbLine
 62
7
  6
CONTINUOUS
 10
263.6699763759
 20
312.4189249578
 11
262.6699773296
 21
312.6742440763
  0
LINE
  5
48E
100
AcDbEntity
  8
0
100
AcDbLine
 62
7
  6
CONTINUOUS
 10
276.6699768527
 20
321.355095357
 11
277.6699758991
 21
321.0997762385
  0
LINE
  5
48F
100
AcDbEntity
  8
KONSTRUKTIONSELEMENTE
100
AcDbLine
 62
7
  6
CONTINUOUS
 10
209.6125893117
 20
330.2646021067
 11
210.7082885793
 21
329.940894268
  0
LINE
  5
490
100
AcDbEntity
  8
KONSTRUKTIONSELEMENTE
100
AcDbLine
 62
7
  6
CONTINUOUS
 10
211.795442196
 20
337.1442894386
 11
210.6997423702
 21
337.4680020153
  0
LINE
  5
491
100
AcDbEntity
  8
KONSTRUKTIONSELEMENTE
100
AcDbLine
 62
7
  6
CONTINUOUS
 10
216.0529234017
 20
337.3023939985
 11
214.9572236886
 21
337.6261017989
  0
LINE
  5
492
100
AcDbEntity
  8
0
100
AcDbLine
 62
7
  6
CONTINUOUS
 10
254.4199766143
 20
321.6104144755
 11
255.1699766143
 21
321.355095357
  0
LINE
  5
493
100
AcDbEntity
  8
KONSTRUKTIONSELEMENTE
100
AcDbLine
 62
7
  6
CONTINUOUS
 10
214.0462448235
 20
330.8561137258
 11
214.9299654235
 21
330.5141179201
  0
LINE
  5
494
100
AcDbEntity
  8
0
100
AcDbLine
 62
7
  6
CONTINUOUS
 10
282.0449787601
 20
292.2699887457
 11
282.5449768527
 21
292.0146696272
  0
LINE
  5
495
100
AcDbEntity
  8
0
100
AcDbLine
 62
7
  6
CONTINUOUS
 10
286.5449787601
 20
291.2487122717
 11
287.5449749454
 21
290.7380740347
  0
LINE
  5
496
100
AcDbEntity
  8
0
100
AcDbLine
 62
7
  6
CONTINUOUS
 10
288.0449787601
 20
291.7593505087
 11
287.5449749454
 21
292.0146696272
  0
LINE
  5
497
100
AcDbEntity
  8
0
100
AcDbLine
 62
7
  6
CONTINUOUS
 10
261.4199763759
 20
311.6529675129
 11
262.4199768527
 21
311.1423292088
  0
LINE
  5
498
100
AcDbEntity
  8
KONSTRUKTIONSELEMENTE
100
AcDbLine
 62
7
  6
CONTINUOUS
 10
215.052432552
 20
331.5702179208
 11
214.3806912908
 21
331.9304921791
  0
LINE
  5
499
100
AcDbEntity
  8
KONSTRUKTIONSELEMENTE
100
AcDbLine
 62
7
  6
CONTINUOUS
 10
215.0467350793
 20
336.5882897523
 11
215.7184773441
 21
336.2280107945
  0
LINE
  5
49A
100
AcDbEntity
  8
KONSTRUKTIONSELEMENTE
100
AcDbLine
 62
7
  6
CONTINUOUS
 10
192.8606473671
 20
352.4065886615
 11
193.9500263564
 21
351.7936013716
  0
LINE
  5
49B
100
AcDbEntity
  8
KONSTRUKTIONSELEMENTE
100
AcDbLine
 62
7
  6
CONTINUOUS
 10
196.4919092795
 20
350.3632984744
 11
197.944417369
 21
349.5459805289
  0
LINE
  5
49C
100
AcDbEntity
  8
KONSTRUKTIONSELEMENTE
100
AcDbLine
 62
7
  6
CONTINUOUS
 10
200.4863002922
 20
348.1156776317
 11
201.5756792815
 21
347.5026903417
  0
LINE
  5
49D
100
AcDbEntity
  8
KONSTRUKTIONSELEMENTE
100
AcDbLine
 62
7
  6
CONTINUOUS
 10
175.5344943979
 20
358.5150521208
 11
176.1986521783
 21
358.1409785267
  0
LINE
  5
49E
100
AcDbEntity
  8
KONSTRUKTIONSELEMENTE
100
AcDbLine
 62
7
  6
CONTINUOUS
 10
210.6187771887
 20
330.9787063146
 11
209.717154408
 21
331.5282616663
  0
LINE
  5
49F
100
AcDbEntity
  8
KONSTRUKTIONSELEMENTE
100
AcDbLine
 62
7
  6
CONTINUOUS
 10
210.7892541706
 20
336.4301852179
 11
211.6908770997
 21
335.880629879
  0
LINE
  5
4A0
100
AcDbEntity
  8
0
100
AcDbLine
 62
7
  6
CONTINUOUS
 10
281.7949768527
 20
286.9082866314
 11
283.0449749454
 21
286.1423292088
  0
LINE
  5
4A1
100
AcDbEntity
  8
0
100
AcDbLine
 62
7
  6
CONTINUOUS
 10
292.7949749454
 20
286.9082866314
 11
294.0449787601
 21
286.1423292088
  0
LINE
  5
4A2
100
AcDbEntity
  8
0
100
AcDbLine
 62
7
  6
CONTINUOUS
 10
288.0449787601
 20
296.865733594
 11
286.7949749454
 21
297.6316909495
  0
LINE
  5
4A3
100
AcDbEntity
  8
0
100
AcDbLine
 62
7
  6
CONTINUOUS
 10
299.2949787601
 20
292.5253078642
 11
298.0449749454
 21
293.2912652197
  0
LINE
  5
4A4
100
AcDbEntity
  8
0
100
AcDbLine
 62
7
  6
CONTINUOUS
 10
264.0449758991
 20
296.0997762385
 11
264.7949758991
 21
295.5891380015
  0
LINE
  5
4A5
100
AcDbEntity
  8
0
100
AcDbLine
 62
7
  6
CONTINUOUS
 10
294.2949749454
 20
287.4189249578
 11
293.5449749454
 21
287.9295631948
  0
LINE
  5
4A6
100
AcDbEntity
  8
KONSTRUKTIONSELEMENTE
100
AcDbLine
 62
7
  6
CONTINUOUS
 10
177.209507239
 20
358.9064467768
 11
176.4471882271
 21
359.4692886437
  0
LINE
  5
4A7
100
AcDbEntity
  8
0
100
AcDbLine
 62
7
  6
CONTINUOUS
 10
253.7949778064
 20
296.865733594
 11
252.7949758991
 21
297.6316909495
  0
LINE
  5
4A8
100
AcDbEntity
  8
KONSTRUKTIONSELEMENTE
100
AcDbLine
 62
7
  6
CONTINUOUS
 10
208.9229455342
 20
330.8324406683
 11
209.6125893117
 21
330.2646021067
  0
LINE
  5
4A9
100
AcDbEntity
  8
KONSTRUKTIONSELEMENTE
100
AcDbLine
 62
7
  6
CONTINUOUS
 10
213.3566011202
 20
331.4239522937
 11
214.0462448235
 21
330.8561137258
  0
LINE
  5
4AA
100
AcDbEntity
  8
KONSTRUKTIONSELEMENTE
100
AcDbLine
 62
7
  6
CONTINUOUS
 10
216.7425671049
 20
336.7345554306
 11
216.0529234017
 21
337.3023939985
  0
LINE
  5
4AB
100
AcDbEntity
  8
0
100
AcDbLine
 62
7
  6
CONTINUOUS
 10
241.2949768527
 20
290.9933931532
 11
241.7949763759
 21
290.4827549162
  0
LINE
  5
4AC
100
AcDbEntity
  8
0
100
AcDbLine
 62
7
  6
CONTINUOUS
 10
241.2949768527
 20
296.0997762385
 11
241.7949763759
 21
295.5891380015
  0
LINE
  5
4AD
100
AcDbEntity
  8
0
100
AcDbLine
 62
7
  6
CONTINUOUS
 10
257.5449778064
 20
287.6742440763
 11
258.5449768527
 21
286.6529675129
  0
LINE
  5
4AE
100
AcDbEntity
  8
KONSTRUKTIONSELEMENTE
100
AcDbLine
 62
7
  6
CONTINUOUS
 10
214.3806912908
 20
331.9304921791
 11
213.6731451455
 21
332.7058950567
  0
LINE
  5
4AF
100
AcDbEntity
  8
KONSTRUKTIONSELEMENTE
100
AcDbLine
 62
7
  6
CONTINUOUS
 10
176.1986521783
 20
358.1409785267
 11
176.7761336397
 21
357.4820194399
  0
LINE
  5
4B0
100
AcDbEntity
  8
KONSTRUKTIONSELEMENTE
100
AcDbLine
 62
7
  6
CONTINUOUS
 10
177.8851504818
 20
358.0587183595
 11
177.209507239
 21
358.9064467768
  0
LINE
  5
4B1
100
AcDbEntity
  8
KONSTRUKTIONSELEMENTE
100
AcDbLine
 62
7
  6
CONTINUOUS
 10
82.9514158509
 20
473.269051038
 11
83.291336498
 21
472.7800289549
  0
LINE
  5
4B2
100
AcDbEntity
  8
KONSTRUKTIONSELEMENTE
100
AcDbLine
 62
7
  6
CONTINUOUS
 10
170.6668499176
 20
347.5078156259
 11
170.2287728566
 21
348.3480590382
  0
LINE
  5
4B3
100
AcDbEntity
  8
KONSTRUKTIONSELEMENTE
100
AcDbLine
 62
7
  6
CONTINUOUS
 10
168.9211211932
 20
357.2343606184
 11
173.5347125496
 21
348.3622258811
  0
LINE
  5
4B4
100
AcDbEntity
  8
KONSTRUKTIONSELEMENTE
100
AcDbLine
 62
7
  6
CONTINUOUS
 10
174.0547602839
 20
350.071537743
 11
170.6191070745
 21
356.6784467277
  0
LINE
  5
4B5
100
AcDbEntity
  8
KONSTRUKTIONSELEMENTE
100
AcDbLine
 62
7
  6
CONTINUOUS
 10
176.7761336397
 20
357.4820194399
 11
178.2485563749
 21
354.6504871501
  0
LINE
  5
4B6
100
AcDbEntity
  8
KONSTRUKTIONSELEMENTE
100
AcDbLine
 62
7
  6
CONTINUOUS
 10
179.3575732171
 20
355.2271860696
 11
177.8851504818
 21
358.0587183595
  0
LINE
  5
4B7
100
AcDbEntity
  8
KONSTRUKTIONSELEMENTE
100
AcDbLine
 62
7
  6
CONTINUOUS
 10
169.3160789842
 20
347.4678549498
 11
169.5828540799
 21
346.7538059985
  0
LINE
  5
4B8
100
AcDbEntity
  8
KONSTRUKTIONSELEMENTE
100
AcDbLine
 62
7
  6
CONTINUOUS
 10
161.8753606402
 20
338.55139692
 11
161.6135140375
 21
339.4497052398
  0
LINE
  5
4B9
100
AcDbEntity
  8
KONSTRUKTIONSELEMENTE
100
AcDbLine
 62
7
  6
CONTINUOUS
 10
170.7061379199
 20
613.876659232
 11
170.8577957715
 21
614.7999806375
  0
LINE
  5
4BA
100
AcDbEntity
  8
KONSTRUKTIONSELEMENTE
100
AcDbLine
 62
7
  6
CONTINUOUS
 10
165.550226702
 20
600.1676601942
 11
165.7844490588
 21
601.3955200752
  0
LINE
  5
4BB
100
AcDbEntity
  8
KONSTRUKTIONSELEMENTE
100
AcDbLine
 62
7
  6
CONTINUOUS
 10
166.7603755082
 20
606.5116027179
 11
167.0336349989
 21
607.9441063029
  0
LINE
  5
4BC
100
AcDbEntity
  8
KONSTRUKTIONSELEMENTE
100
AcDbLine
 62
7
  6
CONTINUOUS
 10
208.4574857292
 20
604.6969451347
 11
207.9110602772
 21
603.6042834732
  0
LINE
  5
4BD
100
AcDbEntity
  8
KONSTRUKTIONSELEMENTE
100
AcDbLine
 62
7
  6
CONTINUOUS
 10
213.4583174802
 20
603.6645229423
 11
214.0226453185
 21
604.5496202894
  0
LINE
  5
4BE
100
AcDbEntity
  8
KONSTRUKTIONSELEMENTE
100
AcDbLine
 62
7
  6
CONTINUOUS
 10
212.3683158337
 20
598.9701589623
 11
212.9326432623
 21
599.8552610602
  0
LINE
  5
4BF
100
AcDbEntity
  8
KONSTRUKTIONSELEMENTE
100
AcDbLine
 62
7
  6
CONTINUOUS
 10
216.640850745
 20
601.4297351285
 11
216.0765233164
 21
600.5446330306
  0
LINE
  5
4C0
100
AcDbEntity
  8
KONSTRUKTIONSELEMENTE
100
AcDbLine
 62
7
  6
CONTINUOUS
 10
216.589992565
 20
599.5433873908
 11
217.1722224356
 21
600.220925179
  0
LINE
  5
4C1
100
AcDbEntity
  8
KONSTRUKTIONSELEMENTE
100
AcDbLine
 62
7
  6
CONTINUOUS
 10
328.3571885618
 20
628.0090314697
 11
323.9211211932
 21
625.7022357915
  0
LINE
  5
4C2
100
AcDbEntity
  8
KONSTRUKTIONSELEMENTE
100
AcDbLine
 62
7
  6
CONTINUOUS
 10
325.6191070745
 20
625.1463219009
 11
328.946157601
 21
626.8764186596
  0
LINE
  5
4C3
100
AcDbEntity
  8
KONSTRUKTIONSELEMENTE
100
AcDbLine
 62
7
  6
CONTINUOUS
 10
323.0719778226
 20
612.4532961859
 11
322.3586779985
 21
612.202485789
  0
LINE
  5
4C4
100
AcDbEntity
  8
KONSTRUKTIONSELEMENTE
100
AcDbLine
 62
7
  6
CONTINUOUS
 10
328.946157601
 20
358.4085434864
 11
329.7836629638
 21
358.6042402644
  0
LINE
  5
4C5
100
AcDbEntity
  8
KONSTRUKTIONSELEMENTE
100
AcDbLine
 62
7
  6
CONTINUOUS
 10
321.9598897818
 20
342.4758233214
 11
323.139358103
 21
342.6419774544
  0
LINE
  5
4C6
100
AcDbEntity
  8
KONSTRUKTIONSELEMENTE
100
AcDbLine
 62
7
  6
CONTINUOUS
 10
313.5704386505
 20
339.3939222371
 11
314.2364678777
 21
339.4789624641
  0
LINE
  5
4C7
100
AcDbEntity
  8
KONSTRUKTIONSELEMENTE
100
AcDbLine
 62
7
  6
CONTINUOUS
 10
314.4706902345
 20
340.7068223452
 11
313.8046610073
 21
340.6217821182
  0
LINE
  5
4C8
100
AcDbEntity
  8
KONSTRUKTIONSELEMENTE
100
AcDbLine
 62
7
  6
CONTINUOUS
 10
210.7082885793
 20
329.940894268
 11
211.3442253662
 21
329.9957438781
  0
LINE
  5
4C9
100
AcDbEntity
  8
KONSTRUKTIONSELEMENTE
100
AcDbLine
 62
7
  6
CONTINUOUS
 10
214.9299654235
 20
330.5141179201
 11
215.5659022104
 21
330.5689675303
  0
LINE
  5
4CA
100
AcDbEntity
  8
KONSTRUKTIONSELEMENTE
100
AcDbLine
 62
7
  6
CONTINUOUS
 10
211.2547139756
 20
331.0335559247
 11
210.6187771887
 21
330.9787063146
  0
LINE
  5
4CB
100
AcDbEntity
  8
KONSTRUKTIONSELEMENTE
100
AcDbLine
 62
7
  6
CONTINUOUS
 10
215.47639041
 20
331.6067843276
 11
215.052432552
 21
331.5702179208
  0
LINE
  5
4CC
100
AcDbEntity
  8
KONSTRUKTIONSELEMENTE
100
AcDbLine
 62
7
  6
CONTINUOUS
 10
214.6227772213
 20
336.5517233456
 11
215.0467350793
 21
336.5882897523
  0
LINE
  5
4CD
100
AcDbEntity
  8
KONSTRUKTIONSELEMENTE
100
AcDbLine
 62
7
  6
CONTINUOUS
 10
210.1533173837
 20
336.3753356078
 11
210.7892541706
 21
336.4301852179
  0
LINE
  5
4CE
100
AcDbEntity
  8
KONSTRUKTIONSELEMENTE
100
AcDbLine
 62
7
  6
CONTINUOUS
 10
214.9572236886
 20
337.6261017989
 11
214.3212869017
 21
337.5712521888
  0
LINE
  5
4CF
100
AcDbEntity
  8
KONSTRUKTIONSELEMENTE
100
AcDbLine
 62
7
  6
CONTINUOUS
 10
210.6997423702
 20
337.4680020153
 11
210.0638055833
 21
337.4131524051
  0
LINE
  5
4D0
100
AcDbEntity
  8
KONSTRUKTIONSELEMENTE
100
AcDbLine
 62
7
  6
CONTINUOUS
 10
167.3586779985
 20
343.7346106158
 11
166.5976413156
 21
343.77772694
  0
LINE
  5
4D1
100
AcDbEntity
  8
KONSTRUKTIONSELEMENTE
100
AcDbLine
 62
7
  6
CONTINUOUS
 10
322.3586779985
 20
343.7346106158
 11
321.5976413156
 21
343.77772694
  0
LINE
  5
4D2
100
AcDbEntity
  8
KONSTRUKTIONSELEMENTE
100
AcDbLine
 62
7
  6
CONTINUOUS
 10
174.7836629638
 20
358.6042402644
 11
175.5344943979
 21
358.5150521208
  0
LINE
  5
4D3
100
AcDbEntity
  8
KONSTRUKTIONSELEMENTE
100
AcDbLine
 62
7
  6
CONTINUOUS
 10
213.90098695
 20
346.9409610618
 11
206.3998800243
 21
348.2580608872
  0
LINE
  5
4D4
100
AcDbEntity
  8
KONSTRUKTIONSELEMENTE
100
AcDbLine
 62
7
  6
CONTINUOUS
 10
207.1526452585
 20
347.0090271609
 11
212.4431499563
 21
346.0623546776
  0
LINE
  5
4D5
100
AcDbEntity
  8
KONSTRUKTIONSELEMENTE
100
AcDbLine
 62
7
  6
CONTINUOUS
 10
310.7273476533
 20
333.5735638752
 11
320.550226702
 21
331.699785021
  0
LINE
  5
4D6
100
AcDbEntity
  8
KONSTRUKTIONSELEMENTE
100
AcDbLine
 62
7
  6
CONTINUOUS
 10
320.7844490588
 20
332.9276449021
 11
316.3955030386
 21
333.7648652531
  0
LINE
  5
4D7
100
AcDbEntity
  8
KONSTRUKTIONSELEMENTE
100
AcDbLine
 62
7
  6
CONTINUOUS
 10
315.1415186287
 20
334.0040710358
 11
312.0065570184
 21
334.6020856041
  0
LINE
  5
4D8
100
AcDbEntity
  8
KONSTRUKTIONSELEMENTE
100
AcDbLine
 62
7
  6
CONTINUOUS
 10
314.2364678777
 20
339.4789624641
 11
314.8634606681
 21
339.3593594611
  0
LINE
  5
4D9
100
AcDbEntity
  8
KONSTRUKTIONSELEMENTE
100
AcDbLine
 62
7
  6
CONTINUOUS
 10
315.3066804266
 20
340.5473517118
 11
314.4706902345
 21
340.7068223452
  0
LINE
  5
4DA
100
AcDbEntity
  8
KONSTRUKTIONSELEMENTE
100
AcDbLine
 62
7
  6
CONTINUOUS
 10
176.4471882271
 20
359.4692886437
 11
175.3151983446
 21
359.8398982708
  0
LINE
  5
4DB
100
AcDbEntity
  8
0
100
AcDbLine
 62
7
  6
CONTINUOUS
 10
278.9199768527
 20
322.1210527125
 11
277.9199778064
 21
322.6316909495
  0
LINE
  5
4DC
100
AcDbEntity
  8
KONSTRUKTIONSELEMENTE
100
AcDbLine
 62
7
  6
CONTINUOUS
 10
206.4795776013
 20
356.2177222562
 11
204.8455091173
 21
357.1372031911
  0
LINE
  5
4DD
100
AcDbEntity
  8
KONSTRUKTIONSELEMENTE
100
AcDbLine
 62
7
  6
CONTINUOUS
 10
199.3986141708
 20
360.202139641
 11
197.7645456868
 21
361.1216205759
  0
LINE
  5
4DE
100
AcDbEntity
  8
0
100
AcDbLine
 62
7
  6
CONTINUOUS
 10
262.6699773296
 20
312.6742440763
 11
261.9199773296
 21
313.1848824921
  0
LINE
  5
4DF
100
AcDbEntity
  8
0
100
AcDbLine
 62
7
  6
CONTINUOUS
 10
305.0449768527
 20
286.9082866314
 11
305.7949768527
 21
286.3976483497
  0
LINE
  5
4E0
100
AcDbEntity
  8
0
100
AcDbLine
 62
7
  6
CONTINUOUS
 10
297.7949787601
 20
292.0146696272
 11
298.5449787601
 21
291.5040313902
  0
LINE
  5
4E1
100
AcDbEntity
  8
0
100
AcDbLine
 62
7
  6
CONTINUOUS
 10
306.7949787601
 20
287.1636058393
 11
306.0449787601
 21
287.6742440763
  0
LINE
  5
4E2
100
AcDbEntity
  8
0
100
AcDbLine
 62
7
  6
CONTINUOUS
 10
277.6699758991
 20
321.0997762385
 11
278.4199758991
 21
320.5891380015
  0
LINE
  5
4E3
100
AcDbEntity
  8
0
100
AcDbLine
 62
7
  6
CONTINUOUS
 10
283.5449787601
 20
292.7806269827
 11
282.5449768527
 21
293.5465843382
  0
LINE
  5
4E4
100
AcDbEntity
  8
0
100
AcDbLine
 62
7
  6
CONTINUOUS
 10
289.0449749454
 20
290.9933931532
 11
288.0449787601
 21
291.7593505087
  0
LINE
  5
4E5
100
AcDbEntity
  8
0
100
AcDbLine
 62
7
  6
CONTINUOUS
 10
286.5449787601
 20
296.355095357
 11
287.5449749454
 21
295.5891380015
  0
LINE
  5
4E6
100
AcDbEntity
  8
0
100
AcDbLine
 62
7
  6
CONTINUOUS
 10
256.4199768527
 20
321.865733594
 11
255.4199770911
 21
322.6316909495
  0
LINE
  5
4E7
100
AcDbEntity
  8
0
100
AcDbLine
 62
7
  6
CONTINUOUS
 10
252.5449768527
 20
296.355095357
 11
253.0449778064
 21
295.84445712
  0
LINE
  5
4E8
100
AcDbEntity
  8
0
100
AcDbLine
 62
7
  6
CONTINUOUS
 10
266.2949758991
 20
296.0997762385
 11
265.2949768527
 21
297.1210527125
  0
LINE
  5
4E9
100
AcDbEntity
  8
0
100
AcDbLine
 62
7
  6
CONTINUOUS
 10
281.0449768527
 20
287.6742440763
 11
281.7949768527
 21
286.9082866314
  0
LINE
  5
4EA
100
AcDbEntity
  8
0
100
AcDbLine
 62
7
  6
CONTINUOUS
 10
260.4199773296
 20
312.6742440763
 11
261.4199763759
 21
311.6529675129
  0
LINE
  5
4EB
100
AcDbEntity
  8
0
100
AcDbLine
 62
7
  6
CONTINUOUS
 10
281.2949787601
 20
293.0359461012
 11
282.0449787601
 21
292.2699887457
  0
LINE
  5
4EC
100
AcDbEntity
  8
KONSTRUKTIONSELEMENTE
100
AcDbLine
 62
7
  6
CONTINUOUS
 10
84.1135140375
 20
473.6836428263
 11
83.3946356093
 21
474.4570432887
  0
LINE
  5
4ED
100
AcDbEntity
  8
KONSTRUKTIONSELEMENTE
100
AcDbLine
 62
7
  6
CONTINUOUS
 10
212.5029879316
 20
336.3688913117
 11
211.795442196
 21
337.1442894386
  0
LINE
  5
4EE
100
AcDbEntity
  8
KONSTRUKTIONSELEMENTE
100
AcDbLine
 62
7
  6
CONTINUOUS
 10
215.7184773441
 20
336.2280107945
 11
216.4260230796
 21
335.4526126677
  0
LINE
  5
4EF
100
AcDbEntity
  8
KONSTRUKTIONSELEMENTE
100
AcDbLine
 62
7
  6
CONTINUOUS
 10
208.1974973009
 20
331.8154030999
 11
208.9229455342
 21
330.8324406683
  0
LINE
  5
4F0
100
AcDbEntity
  8
KONSTRUKTIONSELEMENTE
100
AcDbLine
 62
7
  6
CONTINUOUS
 10
217.4680156922
 20
335.7515882434
 11
216.7425671049
 21
336.7345554306
  0
LINE
  5
4F1
100
AcDbEntity
  8
0
100
AcDbLine
 62
7
  6
CONTINUOUS
 10
243.2949763759
 20
290.7380740347
 11
242.5449763759
 21
291.7593505087
  0
LINE
  5
4F2
100
AcDbEntity
  8
0
100
AcDbLine
 62
7
  6
CONTINUOUS
 10
243.2949763759
 20
295.84445712
 11
242.5449763759
 21
296.865733594
  0
LINE
  5
4F3
100
AcDbEntity
  8
0
100
AcDbLine
 62
7
  6
CONTINUOUS
 10
254.5449778064
 20
295.84445712
 11
253.7949778064
 21
296.865733594
  0
LINE
  5
4F4
100
AcDbEntity
  8
KONSTRUKTIONSELEMENTE
100
AcDbLine
 62
7
  6
CONTINUOUS
 10
209.717154408
 20
331.5282616663
 11
209.2215871917
 21
332.3219477473
  0
LINE
  5
4F5
100
AcDbEntity
  8
KONSTRUKTIONSELEMENTE
100
AcDbLine
 62
7
  6
CONTINUOUS
 10
213.108817717
 20
331.8207929589
 11
213.3566011202
 21
331.4239522937
  0
LINE
  5
4F6
100
AcDbEntity
  8
KONSTRUKTIONSELEMENTE
100
AcDbLine
 62
7
  6
CONTINUOUS
 10
211.6908770997
 20
335.880629879
 11
212.1864439063
 21
335.0869485488
  0
LINE
  5
4F7
100
AcDbEntity
  8
KONSTRUKTIONSELEMENTE
100
AcDbLine
 62
7
  6
CONTINUOUS
 10
212.7507717446
 20
335.9720458959
 11
212.5029879316
 21
336.3688913117
  0
LINE
  5
4F8
100
AcDbEntity
  8
KONSTRUKTIONSELEMENTE
100
AcDbLine
 62
7
  6
CONTINUOUS
 10
205.3361935907
 20
341.7791479393
 11
205.981420231
 21
340.7085487694
  0
LINE
  5
4F9
100
AcDbEntity
  8
KONSTRUKTIONSELEMENTE
100
AcDbLine
 62
7
  6
CONTINUOUS
 10
205.3065020238
 20
347.5991059452
 11
207.887408585
 21
343.3167092655
  0
LINE
  5
4FA
100
AcDbEntity
  8
KONSTRUKTIONSELEMENTE
100
AcDbLine
 62
7
  6
CONTINUOUS
 10
208.5326352253
 20
342.2461100956
 11
209.6080137796
 21
340.4617767844
  0
LINE
  5
4FB
100
AcDbEntity
  8
KONSTRUKTIONSELEMENTE
100
AcDbLine
 62
7
  6
CONTINUOUS
 10
210.7013917802
 20
341.1207317264
 11
209.6260132259
 21
342.9050650376
  0
LINE
  5
4FC
100
AcDbEntity
  8
KONSTRUKTIONSELEMENTE
100
AcDbLine
 62
7
  6
CONTINUOUS
 10
208.9807865856
 20
343.9756642075
 11
207.1526452585
 21
347.0090271609
  0
LINE
  5
4FD
100
AcDbEntity
  8
KONSTRUKTIONSELEMENTE
100
AcDbLine
 62
7
  6
CONTINUOUS
 10
179.6635453144
 20
354.1872259412
 11
179.3575732171
 21
355.2271860696
  0
LINE
  5
4FE
100
AcDbEntity
  8
KONSTRUKTIONSELEMENTE
100
AcDbLine
 62
7
  6
CONTINUOUS
 10
178.2485563749
 20
354.6504871501
 11
178.4563669658
 21
353.7992958234
  0
LINE
  5
4FF
100
AcDbEntity
  8
KONSTRUKTIONSELEMENTE
100
AcDbLine
 62
7
  6
CONTINUOUS
 10
170.8577957715
 20
346.3321054643
 11
170.6668499176
 21
347.5078156259
  0
LINE
  5
500
100
AcDbEntity
  8
KONSTRUKTIONSELEMENTE
100
AcDbLine
 62
7
  6
CONTINUOUS
 10
160.791336498
 20
338.5460913684
 11
160.8832227213
 21
337.8922937974
  0
LINE
  5
501
100
AcDbEntity
  8
KONSTRUKTIONSELEMENTE
100
AcDbLine
 62
7
  6
CONTINUOUS
 10
179.6865184235
 20
353.2399172624
 11
179.6635453144
 21
354.1872259412
  0
LINE
  5
502
100
AcDbEntity
  8
KONSTRUKTIONSELEMENTE
100
AcDbLine
 62
7
  6
CONTINUOUS
 10
169.5828540799
 20
615.2216811717
 11
169.5547618769
 21
614.4660931077
  0
LINE
  5
503
100
AcDbEntity
  8
KONSTRUKTIONSELEMENTE
100
AcDbLine
 62
7
  6
CONTINUOUS
 10
169.5828540799
 20
346.7538059985
 11
169.5547618769
 21
345.9982179345
  0
LINE
  5
504
100
AcDbEntity
  8
KONSTRUKTIONSELEMENTE
100
AcDbLine
 62
7
  6
CONTINUOUS
 10
178.4563669658
 20
622.2671709965
 11
178.3811784995
 21
621.5086312516
  0
LINE
  5
505
100
AcDbEntity
  8
KONSTRUKTIONSELEMENTE
100
AcDbLine
 62
7
  6
CONTINUOUS
 10
197.8105421793
 20
627.1222465707
 11
196.4919092795
 21
618.8311736476
  0
LINE
  5
506
100
AcDbEntity
  8
KONSTRUKTIONSELEMENTE
100
AcDbLine
 62
7
  6
CONTINUOUS
 10
197.7398546458
 20
619.3496457489
 11
199.3986141708
 21
628.6700148142
  0
LINE
  5
507
100
AcDbEntity
  8
KONSTRUKTIONSELEMENTE
100
AcDbLine
 62
7
  6
CONTINUOUS
 10
209.0067595263
 20
603.2805756328
 11
209.3591084356
 21
604.1473897765
  0
LINE
  5
508
100
AcDbEntity
  8
KONSTRUKTIONSELEMENTE
100
AcDbLine
 62
7
  6
CONTINUOUS
 10
212.9269457895
 20
604.8733328917
 11
212.7507717446
 21
604.4399210691
  0
LINE
  5
509
100
AcDbEntity
  8
KONSTRUKTIONSELEMENTE
100
AcDbLine
 62
7
  6
CONTINUOUS
 10
212.4012715717
 20
601.0640710096
 11
212.0489230721
 21
600.1972521151
  0
LINE
  5
50A
100
AcDbEntity
  8
KONSTRUKTIONSELEMENTE
100
AcDbLine
 62
7
  6
CONTINUOUS
 10
212.9326432623
 20
599.8552610602
 11
213.108817717
 21
600.288668132
  0
LINE
  5
50B
100
AcDbEntity
  8
KONSTRUKTIONSELEMENTE
100
AcDbLine
 62
7
  6
CONTINUOUS
 10
217.1722224356
 20
600.220925179
 11
217.7186478319
 21
601.3135868358
  0
LINE
  5
50C
100
AcDbEntity
  8
BEZUGSACHSEN
100
AcDbLine
 62
7
  6
CONTINUOUS
 10
208.5706119473
 20
562.6209476545
 11
230.221247042
 21
600.1209476545
  0
LINE
  5
50D
100
AcDbEntity
  8
KONSTRUKTIONSELEMENTE
100
AcDbLine
 62
7
  6
CONTINUOUS
 10
80.574369691
 20
473.2983082624
 11
81.0704386505
 21
473.6278598237
  0
LINE
  5
50E
100
AcDbEntity
  8
KONSTRUKTIONSELEMENTE
100
AcDbLine
 62
7
  6
CONTINUOUS
 10
313.074369691
 20
607.532245849
 11
313.5704386505
 21
607.8617974103
  0
LINE
  5
50F
100
AcDbEntity
  8
KONSTRUKTIONSELEMENTE
100
AcDbLine
 62
7
  6
CONTINUOUS
 10
332.3818108104
 20
620.2695096749
 11
329.0547602839
 21
618.5394129162
  0
LINE
  5
510
100
AcDbEntity
  8
KONSTRUKTIONSELEMENTE
100
AcDbLine
 62
7
  6
CONTINUOUS
 10
328.5347125496
 20
616.8301010543
 11
332.9707799183
 21
619.1368967325
  0
LINE
  5
511
100
AcDbEntity
  8
KONSTRUKTIONSELEMENTE
100
AcDbLine
 62
7
  6
CONTINUOUS
 10
323.139358103
 20
611.1098526276
 11
323.9762234256
 21
611.5283964765
  0
LINE
  5
512
100
AcDbEntity
  8
KONSTRUKTIONSELEMENTE
100
AcDbLine
 62
7
  6
CONTINUOUS
 10
313.8046610073
 20
609.0896572914
 11
312.8515602223
 21
608.6351978726
  0
LINE
  5
513
100
AcDbEntity
  8
KONSTRUKTIONSELEMENTE
100
AcDbLine
 62
7
  6
CONTINUOUS
 10
167.0336349989
 20
339.4762311297
 11
161.8753606402
 21
338.55139692
  0
LINE
  5
514
100
AcDbEntity
  8
KONSTRUKTIONSELEMENTE
100
AcDbLine
 62
7
  6
CONTINUOUS
 10
162.0591330309
 20
337.2438014853
 11
166.7603755082
 21
338.0437275448
  0
LINE
  5
515
100
AcDbEntity
  8
KONSTRUKTIONSELEMENTE
100
AcDbLine
 62
7
  6
CONTINUOUS
 10
166.9598897818
 20
342.4758233214
 11
168.139358103
 21
342.6419774544
  0
LINE
  5
516
100
AcDbEntity
  8
KONSTRUKTIONSELEMENTE
100
AcDbLine
 62
7
  6
CONTINUOUS
 10
158.5704386505
 20
339.3939222371
 11
159.2364678777
 21
339.4789624641
  0
LINE
  5
517
100
AcDbEntity
  8
KONSTRUKTIONSELEMENTE
100
AcDbLine
 62
7
  6
CONTINUOUS
 10
159.4706902345
 20
340.7068223452
 11
158.8046610073
 21
340.6217821182
  0
LINE
  5
518
100
AcDbEntity
  8
KONSTRUKTIONSELEMENTE
100
AcDbLine
 62
7
  6
CONTINUOUS
 10
330.3151983446
 20
359.8398982708
 11
329.3795314753
 21
359.8329702945
  0
LINE
  5
519
100
AcDbEntity
  8
KONSTRUKTIONSELEMENTE
100
AcDbLine
 62
7
  6
CONTINUOUS
 10
175.3151983446
 20
359.8398982708
 11
174.3795314753
 21
359.8329702945
  0
LINE
  5
51A
100
AcDbEntity
  8
BEZUGSACHSEN
100
AcDbLine
 62
7
  6
CONTINUOUS
 10
363.5706119473
 20
369.1530724814
 11
320.2693417581
 21
369.1530724814
  0
LINE
  5
51B
100
AcDbEntity
  8
BEZUGSACHSEN
100
AcDbLine
 62
7
  6
CONTINUOUS
 10
208.5706119473
 20
369.1530724814
 11
165.2693417581
 21
369.1530724814
  0
LINE
  5
51C
100
AcDbEntity
  8
KONSTRUKTIONSELEMENTE
100
AcDbLine
 62
7
  6
CONTINUOUS
 10
329.7836629638
 20
358.6042402644
 11
330.5344943979
 21
358.5150521208
  0
LINE
  5
51D
100
AcDbEntity
  8
KONSTRUKTIONSELEMENTE
100
AcDbLine
 62
7
  6
CONTINUOUS
 10
368.90098695
 20
346.9409610618
 11
361.3998800243
 21
348.2580608872
  0
LINE
  5
51E
100
AcDbEntity
  8
KONSTRUKTIONSELEMENTE
100
AcDbLine
 62
7
  6
CONTINUOUS
 10
362.1526452585
 20
347.0090271609
 11
367.4431499563
 21
346.0623546776
  0
LINE
  5
51F
100
AcDbEntity
  8
KONSTRUKTIONSELEMENTE
100
AcDbLine
 62
7
  6
CONTINUOUS
 10
321.0275514873
 20
342.6451345864
 11
321.9598897818
 21
342.4758233214
  0
LINE
  5
520
100
AcDbEntity
  8
KONSTRUKTIONSELEMENTE
100
AcDbLine
 62
7
  6
CONTINUOUS
 10
364.6125893117
 20
330.2646021067
 11
365.7082885793
 21
329.940894268
  0
LINE
  5
521
100
AcDbEntity
  8
KONSTRUKTIONSELEMENTE
100
AcDbLine
 62
7
  6
CONTINUOUS
 10
366.795442196
 20
337.1442894386
 11
365.6997423702
 21
337.4680020153
  0
LINE
  5
522
100
AcDbEntity
  8
KONSTRUKTIONSELEMENTE
100
AcDbLine
 62
7
  6
CONTINUOUS
 10
371.0529234017
 20
337.3023939985
 11
369.9572236886
 21
337.6261017989
  0
LINE
  5
523
100
AcDbEntity
  8
KONSTRUKTIONSELEMENTE
100
AcDbLine
 62
7
  6
CONTINUOUS
 10
82.2371187644
 20
481.2543367186
 11
87.4199768527
 21
477.4362370157
  0
LINE
  5
524
100
AcDbEntity
  8
KONSTRUKTIONSELEMENTE
100
AcDbLine
 62
7
  6
CONTINUOUS
 10
87.4199768527
 20
478.9888037234
 11
82.9785111451
 21
482.2607356594
  0
LINE
  5
525
100
AcDbEntity
  8
0
100
AcDbLine
 62
7
  6
CONTINUOUS
 10
255.1699766143
 20
321.355095357
 11
255.6699768527
 21
320.84445712
  0
LINE
  5
526
100
AcDbEntity
  8
0
100
AcDbLine
 62
7
  6
CONTINUOUS
 10
288.7949787601
 20
296.0997762385
 11
288.0449787601
 21
296.865733594
  0
LINE
  5
527
100
AcDbEntity
  8
0
100
AcDbLine
 62
7
  6
CONTINUOUS
 10
279.9199758991
 20
321.0997762385
 11
278.9199768527
 21
322.1210527125
  0
LINE
  5
528
100
AcDbEntity
  8
0
100
AcDbLine
 62
7
  6
CONTINUOUS
 10
257.1699768527
 20
320.84445712
 11
256.4199768527
 21
321.865733594
  0
LINE
  5
529
100
AcDbEntity
  8
0
100
AcDbLine
 62
7
  6
CONTINUOUS
 10
282.5449768527
 20
287.9295631948
 11
281.7949768527
 21
288.9508398476
  0
LINE
  5
52A
100
AcDbEntity
  8
0
100
AcDbLine
 62
7
  6
CONTINUOUS
 10
259.0449778064
 20
288.1848824921
 11
258.5449768527
 21
288.9508398476
  0
LINE
  5
52B
100
AcDbEntity
  8
KONSTRUKTIONSELEMENTE
100
AcDbLine
 62
7
  6
CONTINUOUS
 10
214.5462135904
 20
345.8703618919
 11
213.90098695
 21
346.9409610618
  0
LINE
  5
52C
100
AcDbEntity
  8
BEZUGSACHSEN
100
AcDbLine
 62
7
  6
CONTINUOUS
 10
230.221247042
 20
331.6530724814
 11
208.5706119473
 21
369.1530724814
  0
LINE
  5
52D
100
AcDbEntity
  8
KONSTRUKTIONSELEMENTE
100
AcDbLine
 62
7
  6
CONTINUOUS
 10
209.2215871917
 20
332.3219477473
 11
208.9379993141
 21
333.1339122808
  0
LINE
  5
52E
100
AcDbEntity
  8
KONSTRUKTIONSELEMENTE
100
AcDbLine
 62
7
  6
CONTINUOUS
 10
212.1864439063
 20
335.0869485488
 11
212.4700321936
 21
334.2749792645
  0
LINE
  5
52F
100
AcDbEntity
  8
KONSTRUKTIONSELEMENTE
100
AcDbLine
 62
7
  6
CONTINUOUS
 10
213.6731451455
 20
332.7058950567
 11
213.3895572679
 21
333.5178595903
  0
LINE
  5
530
100
AcDbEntity
  8
KONSTRUKTIONSELEMENTE
100
AcDbLine
 62
7
  6
CONTINUOUS
 10
216.4260230796
 20
335.4526126677
 11
216.709611367
 21
334.6406433833
  0
LINE
  5
531
100
AcDbEntity
  8
KONSTRUKTIONSELEMENTE
100
AcDbLine
 62
7
  6
CONTINUOUS
 10
207.896006553
 20
332.8349366922
 11
208.1974973009
 21
331.8154030999
  0
LINE
  5
532
100
AcDbEntity
  8
KONSTRUKTIONSELEMENTE
100
AcDbLine
 62
7
  6
CONTINUOUS
 10
179.6865184235
 20
621.7077924356
 11
179.6635453144
 21
622.6551011144
  0
LINE
  5
533
100
AcDbEntity
  8
KONSTRUKTIONSELEMENTE
100
AcDbLine
 62
7
  6
CONTINUOUS
 10
178.4563669658
 20
353.7992958234
 11
178.3811784995
 21
353.0407560785
  0
LINE
  5
534
100
AcDbEntity
  8
KONSTRUKTIONSELEMENTE
100
AcDbLine
 62
7
  6
CONTINUOUS
 10
207.9110602772
 20
603.6042834732
 11
207.7885927203
 21
602.5481882216
  0
LINE
  5
535
100
AcDbEntity
  8
KONSTRUKTIONSELEMENTE
100
AcDbLine
 62
7
  6
CONTINUOUS
 10
170.7061379199
 20
345.4087840588
 11
170.8577957715
 21
346.3321054643
  0
LINE
  5
536
100
AcDbEntity
  8
KONSTRUKTIONSELEMENTE
100
AcDbLine
 62
7
  6
CONTINUOUS
 10
208.8663899557
 20
602.4320399417
 11
209.0067595263
 21
603.2805756328
  0
LINE
  5
537
100
AcDbEntity
  8
KONSTRUKTIONSELEMENTE
100
AcDbLine
 62
7
  6
CONTINUOUS
 10
212.541641552
 20
601.9126019499
 11
212.4012715717
 21
601.0640710096
  0
LINE
  5
538
100
AcDbEntity
  8
KONSTRUKTIONSELEMENTE
100
AcDbLine
 62
7
  6
CONTINUOUS
 10
213.3179479095
 20
602.8159872512
 11
213.4583174802
 21
603.6645229423
  0
LINE
  5
539
100
AcDbEntity
  8
KONSTRUKTIONSELEMENTE
100
AcDbLine
 62
7
  6
CONTINUOUS
 10
216.7812207254
 20
602.2782660688
 11
216.640850745
 21
601.4297351285
  0
LINE
  5
53A
100
AcDbEntity
  8
KONSTRUKTIONSELEMENTE
100
AcDbLine
 62
7
  6
CONTINUOUS
 10
156.6642370805
 20
338.4850033996
 11
155.7273476533
 21
333.5735638752
  0
LINE
  5
53B
100
AcDbEntity
  8
KONSTRUKTIONSELEMENTE
100
AcDbLine
 62
7
  6
CONTINUOUS
 10
157.0065570184
 20
334.6020856041
 11
157.748261111
 21
338.4903083657
  0
LINE
  5
53C
100
AcDbEntity
  8
KONSTRUKTIONSELEMENTE
100
AcDbLine
 62
7
  6
CONTINUOUS
 10
160.8832227213
 20
337.8922937974
 11
160.1415186287
 21
334.0040710358
  0
LINE
  5
53D
100
AcDbEntity
  8
KONSTRUKTIONSELEMENTE
100
AcDbLine
 62
7
  6
CONTINUOUS
 10
161.3955030386
 20
333.7648652531
 11
162.0591330309
 21
337.2438014853
  0
LINE
  5
53E
100
AcDbEntity
  8
KONSTRUKTIONSELEMENTE
100
AcDbLine
 62
7
  6
CONTINUOUS
 10
165.550226702
 20
331.699785021
 11
165.7844490588
 21
332.9276449021
  0
LINE
  5
53F
100
AcDbEntity
  8
KONSTRUKTIONSELEMENTE
100
AcDbLine
 62
7
  6
CONTINUOUS
 10
166.7603755082
 20
338.0437275448
 11
167.0336349989
 21
339.4762311297
  0
LINE
  5
540
100
AcDbEntity
  8
KONSTRUKTIONSELEMENTE
100
AcDbLine
 62
7
  6
CONTINUOUS
 10
312.8515602223
 20
608.6351978726
 11
312.0684198167
 21
607.9362277051
  0
LINE
  5
541
100
AcDbEntity
  8
KONSTRUKTIONSELEMENTE
100
AcDbLine
 62
7
  6
CONTINUOUS
 10
323.7375405479
 20
612.9980334808
 11
323.0719778226
 21
612.4532961859
  0
LINE
  5
542
100
AcDbEntity
  8
KONSTRUKTIONSELEMENTE
100
AcDbLine
 62
7
  6
CONTINUOUS
 10
332.9707799183
 20
619.1368967325
 11
333.79679981
 21
619.8062483503
  0
LINE
  5
543
100
AcDbEntity
  8
KONSTRUKTIONSELEMENTE
100
AcDbLine
 62
7
  6
CONTINUOUS
 10
361.3998800243
 20
616.7259360603
 11
360.3065020238
 21
616.0669811184
  0
LINE
  5
544
100
AcDbEntity
  8
KONSTRUKTIONSELEMENTE
100
AcDbLine
 62
7
  6
CONTINUOUS
 10
367.4431499563
 20
614.5302298508
 11
363.9807865856
 21
612.4435393807
  0
LINE
  5
545
100
AcDbEntity
  8
KONSTRUKTIONSELEMENTE
100
AcDbLine
 62
7
  6
CONTINUOUS
 10
362.887408585
 20
611.7845844387
 11
360.3361935907
 21
610.2470231125
  0
LINE
  5
546
100
AcDbEntity
  8
KONSTRUKTIONSELEMENTE
100
AcDbLine
 62
7
  6
CONTINUOUS
 10
360.981420231
 20
609.1764239426
 11
363.5326352253
 21
610.7139852688
  0
LINE
  5
547
100
AcDbEntity
  8
KONSTRUKTIONSELEMENTE
100
AcDbLine
 62
7
  6
CONTINUOUS
 10
364.6260132259
 20
611.3729402108
 11
369.5462135904
 21
614.3382370651
  0
LINE
  5
548
100
AcDbEntity
  8
KONSTRUKTIONSELEMENTE
100
AcDbLine
 62
7
  6
CONTINUOUS
 10
365.0638055833
 20
605.8810275783
 11
364.039715674
 21
605.3744829293
  0
LINE
  5
549
100
AcDbEntity
  8
KONSTRUKTIONSELEMENTE
100
AcDbLine
 62
7
  6
CONTINUOUS
 10
366.3442253662
 20
598.4636190513
 11
367.3683158337
 21
598.9701589623
  0
LINE
  5
54A
100
AcDbEntity
  8
KONSTRUKTIONSELEMENTE
100
AcDbLine
 62
7
  6
CONTINUOUS
 10
370.5659022104
 20
599.0368427034
 11
371.589992565
 21
599.5433873908
  0
LINE
  5
54B
100
AcDbEntity
  8
KONSTRUKTIONSELEMENTE
100
AcDbLine
 62
7
  6
CONTINUOUS
 10
81.3046610073
 20
474.8557197048
 11
80.3515602223
 21
474.401260286
  0
LINE
  5
54C
100
AcDbEntity
  8
KONSTRUKTIONSELEMENTE
100
AcDbLine
 62
7
  6
CONTINUOUS
 10
173.946157601
 20
358.4085434864
 11
174.7836629638
 21
358.6042402644
  0
LINE
  5
54D
100
AcDbEntity
  8
KONSTRUKTIONSELEMENTE
100
AcDbLine
 62
7
  6
CONTINUOUS
 10
331.4471882271
 20
359.4692886437
 11
330.3151983446
 21
359.8398982708
  0
LINE
  5
54E
100
AcDbEntity
  8
KONSTRUKTIONSELEMENTE
100
AcDbLine
 62
7
  6
CONTINUOUS
 10
369.0462448235
 20
330.8561137258
 11
369.9299654235
 21
330.5141179201
  0
LINE
  5
54F
100
AcDbEntity
  8
KONSTRUKTIONSELEMENTE
100
AcDbLine
 62
7
  6
CONTINUOUS
 10
321.5976413156
 20
343.77772694
 11
320.7888690681
 21
344.1147719932
  0
LINE
  5
550
100
AcDbEntity
  8
KONSTRUKTIONSELEMENTE
100
AcDbLine
 62
7
  6
CONTINUOUS
 10
320.0474766874
 20
343.1083730525
 11
321.0275514873
 21
342.6451345864
  0
LINE
  5
551
100
AcDbEntity
  8
KONSTRUKTIONSELEMENTE
100
AcDbLine
 62
7
  6
CONTINUOUS
 10
314.8634606681
 20
339.3593594611
 11
315.4514158509
 21
339.0351134514
  0
LINE
  5
552
100
AcDbEntity
  8
KONSTRUKTIONSELEMENTE
100
AcDbLine
 62
7
  6
CONTINUOUS
 10
315.8946356093
 20
340.2231057021
 11
315.3066804266
 21
340.5473517118
  0
LINE
  5
553
100
AcDbEntity
  8
KONSTRUKTIONSELEMENTE
100
AcDbLine
 62
7
  6
CONTINUOUS
 10
82.3634606681
 20
473.5932970477
 11
82.9514158509
 21
473.269051038
  0
LINE
  5
554
100
AcDbEntity
  8
KONSTRUKTIONSELEMENTE
100
AcDbLine
 62
7
  6
CONTINUOUS
 10
83.3946356093
 20
474.4570432887
 11
82.8066804266
 21
474.7812892984
  0
LINE
  5
555
100
AcDbEntity
  8
KONSTRUKTIONSELEMENTE
100
AcDbLine
 62
7
  6
CONTINUOUS
 10
85.9440792537
 20
486.2863295029
 11
87.4199768527
 21
485.1990675929
  0
LINE
  5
556
100
AcDbEntity
  8
KONSTRUKTIONSELEMENTE
100
AcDbLine
 62
7
  6
CONTINUOUS
 10
87.4199768527
 20
486.7516335603
 11
86.6854712808
 21
487.2927279638
  0
LINE
  5
557
100
AcDbEntity
  8
0
100
AcDbLine
 62
7
  6
CONTINUOUS
 10
287.5449749454
 20
290.7380740347
 11
288.2949749454
 21
289.7167972031
  0
LINE
  5
558
100
AcDbEntity
  8
0
100
AcDbLine
 62
7
  6
CONTINUOUS
 10
292.0449749454
 20
287.9295631948
 11
292.7949749454
 21
286.9082866314
  0
LINE
  5
559
100
AcDbEntity
  8
0
100
AcDbLine
 62
7
  6
CONTINUOUS
 10
300.0449787601
 20
291.5040313902
 11
299.2949787601
 21
292.5253078642
  0
LINE
  5
55A
100
AcDbEntity
  8
0
100
AcDbLine
 62
7
  6
CONTINUOUS
 10
261.9199773296
 20
313.1848824921
 11
261.4199763759
 21
313.9508398476
  0
LINE
  5
55B
100
AcDbEntity
  8
0
100
AcDbLine
 62
7
  6
CONTINUOUS
 10
282.5449768527
 20
293.5465843382
 11
282.0449787601
 21
294.3125416937
  0
LINE
  5
55C
100
AcDbEntity
  8
0
100
AcDbLine
 62
7
  6
CONTINUOUS
 10
287.5449749454
 20
295.5891380015
 11
288.0449787601
 21
294.8231799307
  0
LINE
  5
55D
100
AcDbEntity
  8
0
100
AcDbLine
 62
7
  6
CONTINUOUS
 10
257.0449768527
 20
288.6955207291
 11
257.5449778064
 21
287.6742440763
  0
LINE
  5
55E
100
AcDbEntity
  8
0
100
AcDbLine
 62
7
  6
CONTINUOUS
 10
259.9199770911
 20
313.6955207291
 11
260.4199773296
 21
312.6742440763
  0
LINE
  5
55F
100
AcDbEntity
  8
0
100
AcDbLine
 62
7
  6
CONTINUOUS
 10
241.7949763759
 20
290.4827549162
 11
242.0449768527
 21
289.7167972031
  0
LINE
  5
560
100
AcDbEntity
  8
0
100
AcDbLine
 62
7
  6
CONTINUOUS
 10
243.5449768527
 20
289.9721163216
 11
243.2949763759
 21
290.7380740347
  0
LINE
  5
561
100
AcDbEntity
  8
0
100
AcDbLine
 62
7
  6
CONTINUOUS
 10
241.7949763759
 20
295.5891380015
 11
242.0449768527
 21
294.8231799307
  0
LINE
  5
562
100
AcDbEntity
  8
0
100
AcDbLine
 62
7
  6
CONTINUOUS
 10
243.5449768527
 20
295.0784997645
 11
243.2949763759
 21
295.84445712
  0
LINE
  5
563
100
AcDbEntity
  8
KONSTRUKTIONSELEMENTE
100
AcDbLine
 62
7
  6
CONTINUOUS
 10
217.7695060119
 20
334.7320594002
 11
217.4680156922
 21
335.7515882434
  0
LINE
  5
564
100
AcDbEntity
  8
0
100
AcDbLine
 62
7
  6
CONTINUOUS
 10
229.2949768527
 20
288.6955207291
 11
227.2949766143
 21
297.887010068
  0
LINE
  5
565
100
AcDbEntity
  8
0
100
AcDbLine
 62
7
  6
CONTINUOUS
 10
226.2949768527
 20
295.5891380015
 11
228.2949770911
 21
285.887010068
  0
LINE
  5
566
100
AcDbEntity
  8
0
100
AcDbLine
 62
7
  6
CONTINUOUS
 10
220.2949768527
 20
297.887010068
 11
222.2949769123
 21
285.887010068
  0
LINE
  5
567
100
AcDbEntity
  8
0
100
AcDbLine
 62
7
  6
CONTINUOUS
 10
223.2949768527
 20
288.6955207291
 11
221.7949768527
 21
297.887010068
  0
LINE
  5
568
100
AcDbEntity
  8
KONSTRUKTIONSELEMENTE
100
AcDbLine
 62
7
  6
CONTINUOUS
 10
170.8577957715
 20
614.7999806375
 11
170.6668499176
 21
615.9756907991
  0
LINE
  5
569
100
AcDbEntity
  8
KONSTRUKTIONSELEMENTE
100
AcDbLine
 62
7
  6
CONTINUOUS
 10
160.791336498
 20
607.0139665415
 11
160.8832227213
 21
606.3601689705
  0
LINE
  5
56A
100
AcDbEntity
  8
KONSTRUKTIONSELEMENTE
100
AcDbLine
 62
7
  6
CONTINUOUS
 10
207.7885927203
 20
334.0803130484
 11
207.896006553
 21
332.8349366922
  0
LINE
  5
56B
100
AcDbEntity
  8
KONSTRUKTIONSELEMENTE
100
AcDbLine
 62
7
  6
CONTINUOUS
 10
208.9379993141
 20
333.1339122808
 11
208.8663899557
 21
333.9641647685
  0
LINE
  5
56C
100
AcDbEntity
  8
KONSTRUKTIONSELEMENTE
100
AcDbLine
 62
7
  6
CONTINUOUS
 10
212.4700321936
 20
334.2749792645
 11
212.541641552
 21
333.4447267768
  0
LINE
  5
56D
100
AcDbEntity
  8
KONSTRUKTIONSELEMENTE
100
AcDbLine
 62
7
  6
CONTINUOUS
 10
213.3895572679
 20
333.5178595903
 11
213.3179479095
 21
334.348112078
  0
LINE
  5
56E
100
AcDbEntity
  8
KONSTRUKTIONSELEMENTE
100
AcDbLine
 62
7
  6
CONTINUOUS
 10
216.709611367
 20
334.6406433833
 11
216.7812207254
 21
333.8103908956
  0
LINE
  5
56F
100
AcDbEntity
  8
KONSTRUKTIONSELEMENTE
100
AcDbLine
 62
7
  6
CONTINUOUS
 10
217.8411153702
 20
333.9018069125
 11
217.7695060119
 21
334.7320594002
  0
LINE
  5
570
100
AcDbEntity
  8
RUNDUNGEN
100
AcDbLine
 62
7
  6
CONTINUOUS
 10
200.9199768527
 20
428.387010068
 11
200.9199768527
 21
401.5150814364
  0
LINE
  5
571
100
AcDbEntity
  8
RUNDUNGEN
100
AcDbLine
 62
7
  6
CONTINUOUS
 10
200.9199768527
 20
503.387010068
 11
200.9199768527
 21
530.2589760159
  0
LINE
  5
572
100
AcDbEntity
  8
0
100
AcDbLine
 62
7
  6
CONTINUOUS
 10
202.9199768527
 20
554.0572998486
 11
202.9199768527
 21
503.387010068
  0
LINE
  5
573
100
AcDbEntity
  8
0
100
AcDbLine
 62
7
  6
CONTINUOUS
 10
202.9199768527
 20
428.387010068
 11
202.9199768527
 21
377.7167202873
  0
LINE
  5
574
100
AcDbEntity
  8
KONSTRUKTIONSELEMENTE
100
AcDbLine
 62
7
  6
CONTINUOUS
 10
217.7186478319
 20
601.3135868358
 11
217.8411153702
 21
602.3696820857
  0
LINE
  5
575
100
AcDbEntity
  8
KONSTRUKTIONSELEMENTE
100
AcDbLine
 62
7
  6
CONTINUOUS
 10
157.0684198167
 20
339.4683525319
 11
156.6642370805
 21
338.4850033996
  0
LINE
  5
576
100
AcDbEntity
  8
KONSTRUKTIONSELEMENTE
100
AcDbLine
 62
7
  6
CONTINUOUS
 10
323.9762234256
 20
611.5283964765
 11
324.7653517394
 21
612.2408671571
  0
LINE
  5
577
100
AcDbEntity
  8
KONSTRUKTIONSELEMENTE
100
AcDbLine
 62
7
  6
CONTINUOUS
 10
333.0229931602
 20
620.8427440563
 11
332.3818108104
 21
620.2695096749
  0
LINE
  5
578
100
AcDbEntity
  8
KONSTRUKTIONSELEMENTE
100
AcDbLine
 62
7
  6
CONTINUOUS
 10
359.8455091173
 20
625.6050783643
 11
352.7398546458
 21
619.3496457489
  0
LINE
  5
579
100
AcDbEntity
  8
KONSTRUKTIONSELEMENTE
100
AcDbLine
 62
7
  6
CONTINUOUS
 10
352.944417369
 20
618.013855702
 11
359.3468161151
 21
623.4443228309
  0
LINE
  5
57A
100
AcDbEntity
  8
KONSTRUKTIONSELEMENTE
100
AcDbLine
 62
7
  6
CONTINUOUS
 10
364.6080137796
 20
608.9296519576
 11
365.7013917802
 21
609.5886068995
  0
LINE
  5
57B
100
AcDbEntity
  8
KONSTRUKTIONSELEMENTE
100
AcDbLine
 62
7
  6
CONTINUOUS
 10
369.3212869017
 20
606.0391273619
 11
368.5091756601
 21
605.5508706799
  0
LINE
  5
57C
100
AcDbEntity
  8
0
100
AcDbLine
 62
7
  6
CONTINUOUS
 10
125.9199768527
 20
396.6049777652
 11
87.4199768527
 21
396.6049777652
  0
LINE
  5
57D
100
AcDbEntity
  8
0
100
AcDbLine
 62
7
  6
CONTINUOUS
 10
402.9199768527
 20
396.6049777652
 11
437.9199768527
 21
396.6049777652
  0
LINE
  5
57E
100
AcDbEntity
  8
KONSTRUKTIONSELEMENTE
100
AcDbLine
 62
7
  6
CONTINUOUS
 10
370.052432552
 20
331.5702179208
 11
369.3806912908
 21
331.9304921791
  0
LINE
  5
57F
100
AcDbEntity
  8
KONSTRUKTIONSELEMENTE
100
AcDbLine
 62
7
  6
CONTINUOUS
 10
370.0467350793
 20
336.5882897523
 11
370.7184773441
 21
336.2280107945
  0
LINE
  5
580
100
AcDbEntity
  8
KONSTRUKTIONSELEMENTE
100
AcDbLine
 62
7
  6
CONTINUOUS
 10
347.8606473671
 20
352.4065886615
 11
348.9500263564
 21
351.7936013716
  0
LINE
  5
581
100
AcDbEntity
  8
KONSTRUKTIONSELEMENTE
100
AcDbLine
 62
7
  6
CONTINUOUS
 10
351.4919092795
 20
350.3632984744
 11
352.944417369
 21
349.5459805289
  0
LINE
  5
582
100
AcDbEntity
  8
KONSTRUKTIONSELEMENTE
100
AcDbLine
 62
7
  6
CONTINUOUS
 10
355.4863002922
 20
348.1156776317
 11
356.5756792815
 21
347.5026903417
  0
LINE
  5
583
100
AcDbEntity
  8
KONSTRUKTIONSELEMENTE
100
AcDbLine
 62
7
  6
CONTINUOUS
 10
330.5344943979
 20
358.5150521208
 11
331.1986521783
 21
358.1409785267
  0
LINE
  5
584
100
AcDbEntity
  8
KONSTRUKTIONSELEMENTE
100
AcDbLine
 62
7
  6
CONTINUOUS
 10
365.6187771887
 20
330.9787063146
 11
364.717154408
 21
331.5282616663
  0
LINE
  5
585
100
AcDbEntity
  8
KONSTRUKTIONSELEMENTE
100
AcDbLine
 62
7
  6
CONTINUOUS
 10
365.7892541706
 20
336.4301852179
 11
366.6908770997
 21
335.880629879
  0
LINE
  5
586
100
AcDbEntity
  8
KONSTRUKTIONSELEMENTE
100
AcDbLine
 62
7
  6
CONTINUOUS
 10
314.7371187644
 20
347.020399132
 11
320.0474766874
 21
343.1083730525
  0
LINE
  5
587
100
AcDbEntity
  8
KONSTRUKTIONSELEMENTE
100
AcDbLine
 62
7
  6
CONTINUOUS
 10
320.7888690681
 20
344.1147719932
 11
315.4785111451
 21
348.0267980728
  0
LINE
  5
588
100
AcDbEntity
  8
KONSTRUKTIONSELEMENTE
100
AcDbLine
 62
7
  6
CONTINUOUS
 10
318.4440792537
 20
352.0523919163
 11
323.7544371767
 21
348.1403658368
  0
LINE
  5
589
100
AcDbEntity
  8
KONSTRUKTIONSELEMENTE
100
AcDbLine
 62
7
  6
CONTINUOUS
 10
324.4958292038
 20
349.1467642977
 11
319.1854712808
 21
353.0587903772
  0
LINE
  5
58A
100
AcDbEntity
  8
0
100
AcDbLine
 62
7
  6
CONTINUOUS
 10
278.4199758991
 20
320.5891380015
 11
278.9199768527
 21
319.8231799307
  0
LINE
  5
58B
100
AcDbEntity
  8
0
100
AcDbLine
 62
7
  6
CONTINUOUS
 10
298.5449787601
 20
291.5040313902
 11
299.0449768527
 21
290.7380740347
  0
LINE
  5
58C
100
AcDbEntity
  8
0
100
AcDbLine
 62
7
  6
CONTINUOUS
 10
280.7949749454
 20
294.0572225752
 11
281.2949787601
 21
293.0359461012
  0
LINE
  5
58D
100
AcDbEntity
  8
0
100
AcDbLine
 62
7
  6
CONTINUOUS
 10
291.5449768527
 20
288.9508398476
 11
292.0449749454
 21
287.9295631948
  0
LINE
  5
58E
100
AcDbEntity
  8
0
100
AcDbLine
 62
7
  6
CONTINUOUS
 10
293.5449749454
 20
287.9295631948
 11
293.0449768527
 21
288.9508398476
  0
LINE
  5
58F
100
AcDbEntity
  8
0
100
AcDbLine
 62
7
  6
CONTINUOUS
 10
280.4199768527
 20
320.0784997645
 11
279.9199758991
 21
321.0997762385
  0
LINE
  5
590
100
AcDbEntity
  8
0
100
AcDbLine
 62
7
  6
CONTINUOUS
 10
280.5449787601
 20
288.9508398476
 11
281.0449768527
 21
287.6742440763
  0
LINE
  5
591
100
AcDbEntity
  8
0
100
AcDbLine
 62
7
  6
CONTINUOUS
 10
257.6699770911
 20
310.887010068
 11
255.4199770911
 21
316.7593505087
  0
LINE
  5
592
100
AcDbEntity
  8
0
100
AcDbLine
 62
7
  6
CONTINUOUS
 10
253.9199767335
 20
316.2487122717
 11
255.9199766143
 21
310.887010068
  0
LINE
  5
593
100
AcDbEntity
  8
0
100
AcDbLine
 62
7
  6
CONTINUOUS
 10
253.0449778064
 20
295.84445712
 11
253.2949768527
 21
295.0784997645
  0
LINE
  5
594
100
AcDbEntity
  8
0
100
AcDbLine
 62
7
  6
CONTINUOUS
 10
254.7949768527
 20
295.0784997645
 11
254.5449778064
 21
295.84445712
  0
LINE
  5
595
100
AcDbEntity
  8
0
100
AcDbLine
 62
7
  6
CONTINUOUS
 10
255.6699768527
 20
320.84445712
 11
255.9199766143
 21
320.0784997645
  0
LINE
  5
596
100
AcDbEntity
  8
0
100
AcDbLine
 62
7
  6
CONTINUOUS
 10
264.7949758991
 20
295.5891380015
 11
265.0449778064
 21
294.8231799307
  0
LINE
  5
597
100
AcDbEntity
  8
0
100
AcDbLine
 62
7
  6
CONTINUOUS
 10
257.4199766143
 20
320.0784997645
 11
257.1699768527
 21
320.84445712
  0
LINE
  5
598
100
AcDbEntity
  8
KONSTRUKTIONSELEMENTE
100
AcDbLine
 62
7
  6
CONTINUOUS
 10
161.8753606402
 20
607.0192720931
 11
161.6135140375
 21
607.9175804129
  0
LINE
  5
599
100
AcDbEntity
  8
KONSTRUKTIONSELEMENTE
100
AcDbLine
 62
7
  6
CONTINUOUS
 10
207.7885927203
 20
602.5481882216
 11
207.896006553
 21
601.3028118654
  0
LINE
  5
59A
100
AcDbEntity
  8
KONSTRUKTIONSELEMENTE
100
AcDbLine
 62
7
  6
CONTINUOUS
 10
208.9379993141
 20
601.601787454
 11
208.8663899557
 21
602.4320399417
  0
LINE
  5
59B
100
AcDbEntity
  8
KONSTRUKTIONSELEMENTE
100
AcDbLine
 62
7
  6
CONTINUOUS
 10
212.4700321936
 20
602.7428544376
 11
212.541641552
 21
601.9126019499
  0
LINE
  5
59C
100
AcDbEntity
  8
KONSTRUKTIONSELEMENTE
100
AcDbLine
 62
7
  6
CONTINUOUS
 10
213.3895572679
 20
601.9857347635
 11
213.3179479095
 21
602.8159872512
  0
LINE
  5
59D
100
AcDbEntity
  8
KONSTRUKTIONSELEMENTE
100
AcDbLine
 62
7
  6
CONTINUOUS
 10
216.709611367
 20
603.1085185565
 11
216.7812207254
 21
602.2782660688
  0
LINE
  5
59E
100
AcDbEntity
  8
KONSTRUKTIONSELEMENTE
100
AcDbLine
 62
7
  6
CONTINUOUS
 10
217.8411153702
 20
602.3696820857
 11
217.7695060119
 21
603.1999345734
  0
LINE
  5
59F
100
AcDbEntity
  8
0
100
AcDbLine
 62
7
  6
CONTINUOUS
 10
234.2949763759
 20
297.887010068
 11
234.2949763759
 21
285.887010068
  0
LINE
  5
5A0
100
AcDbEntity
  8
KONSTRUKTIONSELEMENTE
100
AcDbLine
 62
7
  6
CONTINUOUS
 10
207.9110602772
 20
335.1364083
 11
207.7885927203
 21
334.0803130484
  0
LINE
  5
5A1
100
AcDbEntity
  8
KONSTRUKTIONSELEMENTE
100
AcDbLine
 62
7
  6
CONTINUOUS
 10
217.7186478319
 20
332.8457116626
 11
217.8411153702
 21
333.9018069125
  0
LINE
  5
5A2
100
AcDbEntity
  8
KONSTRUKTIONSELEMENTE
100
AcDbLine
 62
7
  6
CONTINUOUS
 10
197.8105421793
 20
358.6543713976
 11
196.4919092795
 21
350.3632984744
  0
LINE
  5
5A3
100
AcDbEntity
  8
KONSTRUKTIONSELEMENTE
100
AcDbLine
 62
7
  6
CONTINUOUS
 10
208.8663899557
 20
333.9641647685
 11
209.0067595263
 21
334.8127004596
  0
LINE
  5
5A4
100
AcDbEntity
  8
KONSTRUKTIONSELEMENTE
100
AcDbLine
 62
7
  6
CONTINUOUS
 10
197.7398546458
 20
350.8817705757
 11
199.3986141708
 21
360.202139641
  0
LINE
  5
5A5
100
AcDbEntity
  8
KONSTRUKTIONSELEMENTE
100
AcDbLine
 62
7
  6
CONTINUOUS
 10
179.3398206276
 20
352.1003764098
 11
179.6865184235
 21
353.2399172624
  0
LINE
  5
5A6
100
AcDbEntity
  8
KONSTRUKTIONSELEMENTE
100
AcDbLine
 62
7
  6
CONTINUOUS
 10
169.5547618769
 20
345.9982179345
 11
169.231802135
 21
345.2010909348
  0
LINE
  5
5A7
100
AcDbEntity
  8
KONSTRUKTIONSELEMENTE
100
AcDbLine
 62
7
  6
CONTINUOUS
 10
170.2596133266
 20
344.4439246111
 11
170.7061379199
 21
345.4087840588
  0
LINE
  5
5A8
100
AcDbEntity
  8
BEZUGSACHSEN
100
AcDbLine
 62
7
  6
CONTINUOUS
 10
320.2693417581
 20
637.6209476545
 11
298.6187066635
 21
600.1209476545
  0
LINE
  5
5A9
100
AcDbEntity
  8
BEZUGSACHSEN
100
AcDbLine
 62
7
  6
CONTINUOUS
 10
165.2693417581
 20
369.1530724814
 11
143.6187066635
 21
331.6530724814
  0
LINE
  5
5AA
100
AcDbEntity
  8
KONSTRUKTIONSELEMENTE
100
AcDbLine
 62
7
  6
CONTINUOUS
 10
333.79679981
 20
619.8062483503
 11
334.3398206276
 21
620.568251583
  0
LINE
  5
5AB
100
AcDbEntity
  8
KONSTRUKTIONSELEMENTE
100
AcDbLine
 62
7
  6
CONTINUOUS
 10
319.1854712808
 20
621.5266655504
 11
318.4440792537
 21
620.5202670895
  0
LINE
  5
5AC
100
AcDbEntity
  8
KONSTRUKTIONSELEMENTE
100
AcDbLine
 62
7
  6
CONTINUOUS
 10
315.4785111451
 20
616.4946732459
 11
314.7371187644
 21
615.4882743052
  0
LINE
  5
5AD
100
AcDbEntity
  8
KONSTRUKTIONSELEMENTE
100
AcDbLine
 62
7
  6
CONTINUOUS
 10
324.231802135
 20
613.668966108
 11
323.7375405479
 21
612.9980334808
  0
LINE
  5
5AE
100
AcDbEntity
  8
KONSTRUKTIONSELEMENTE
100
AcDbLine
 62
7
  6
CONTINUOUS
 10
324.7653517394
 20
612.2408671571
 11
325.2596133266
 21
612.9117997843
  0
LINE
  5
5AF
100
AcDbEntity
  8
KONSTRUKTIONSELEMENTE
100
AcDbLine
 62
7
  6
CONTINUOUS
 10
364.3591084356
 20
604.1473897765
 11
365.1533173837
 21
604.843210781
  0
LINE
  5
5B0
100
AcDbEntity
  8
KONSTRUKTIONSELEMENTE
100
AcDbLine
 62
7
  6
CONTINUOUS
 10
367.0489230721
 20
600.1972521151
 11
366.2547139756
 21
599.5014310979
  0
LINE
  5
5B1
100
AcDbEntity
  8
KONSTRUKTIONSELEMENTE
100
AcDbLine
 62
7
  6
CONTINUOUS
 10
369.0226453185
 20
604.5496202894
 11
369.6227772213
 21
605.0195985187
  0
LINE
  5
5B2
100
AcDbEntity
  8
KONSTRUKTIONSELEMENTE
100
AcDbLine
 62
7
  6
CONTINUOUS
 10
371.0765233164
 20
600.5446330306
 11
370.47639041
 21
600.0746595008
  0
LINE
  5
5B3
100
AcDbEntity
  8
0
100
AcDbLine
 62
7
  6
CONTINUOUS
 10
200.9199768527
 20
424.387010068
 11
202.9199768527
 21
424.387010068
  0
LINE
  5
5B4
100
AcDbEntity
  8
0
100
AcDbLine
 62
7
  6
CONTINUOUS
 10
325.9199768527
 20
424.387010068
 11
327.9199768527
 21
424.387010068
  0
LINE
  5
5B5
100
AcDbEntity
  8
0
100
AcDbLine
 62
7
  6
CONTINUOUS
 10
437.9199768527
 20
424.387010068
 11
475.9199768527
 21
424.387010068
  0
LINE
  5
5B6
100
AcDbEntity
  8
0
100
AcDbLine
 62
7
  6
CONTINUOUS
 10
396.9136936168
 20
428.387010068
 11
131.9349624354
 21
428.387010068
  0
LINE
  5
5B7
100
AcDbEntity
  8
KONSTRUKTIONSELEMENTE
100
AcDbLine
 62
7
  6
CONTINUOUS
 10
361.4795776013
 20
356.2177222562
 11
359.8455091173
 21
357.1372031911
  0
LINE
  5
5B8
100
AcDbEntity
  8
KONSTRUKTIONSELEMENTE
100
AcDbLine
 62
7
  6
CONTINUOUS
 10
354.3986141708
 20
360.202139641
 11
352.7645456868
 21
361.1216205759
  0
LINE
  5
5B9
100
AcDbEntity
  8
KONSTRUKTIONSELEMENTE
100
AcDbLine
 62
7
  6
CONTINUOUS
 10
332.209507239
 20
358.9064467768
 11
331.4471882271
 21
359.4692886437
  0
LINE
  5
5BA
100
AcDbEntity
  8
KONSTRUKTIONSELEMENTE
100
AcDbLine
 62
7
  6
CONTINUOUS
 10
363.9229455342
 20
330.8324406683
 11
364.6125893117
 21
330.2646021067
  0
LINE
  5
5BB
100
AcDbEntity
  8
KONSTRUKTIONSELEMENTE
100
AcDbLine
 62
7
  6
CONTINUOUS
 10
368.3566011202
 20
331.4239522937
 11
369.0462448235
 21
330.8561137258
  0
LINE
  5
5BC
100
AcDbEntity
  8
KONSTRUKTIONSELEMENTE
100
AcDbLine
 62
7
  6
CONTINUOUS
 10
316.6135140375
 20
339.4497052398
 11
315.8946356093
 21
340.2231057021
  0
LINE
  5
5BD
100
AcDbEntity
  8
KONSTRUKTIONSELEMENTE
100
AcDbLine
 62
7
  6
CONTINUOUS
 10
325.2287728566
 20
348.3480590382
 11
324.4958292038
 21
349.1467642977
  0
LINE
  5
5BE
100
AcDbEntity
  8
BEZUGSACHSEN
100
AcDbLine
 62
7
  6
CONTINUOUS
 10
143.6187066635
 20
600.1209476545
 11
165.2693417581
 21
562.6209476545
  0
LINE
  5
5BF
100
AcDbEntity
  8
BEZUGSACHSEN
100
AcDbLine
 62
7
  6
CONTINUOUS
 10
298.6187066635
 20
331.6530724814
 11
320.2693417581
 21
294.1530724814
  0
LINE
  5
5C0
100
AcDbEntity
  8
0
100
AcDbLine
 62
7
  6
CONTINUOUS
 10
304.5449787601
 20
287.9295631948
 11
305.0449768527
 21
286.9082866314
  0
LINE
  5
5C1
100
AcDbEntity
  8
0
100
AcDbLine
 62
7
  6
CONTINUOUS
 10
289.5449787601
 20
289.7167972031
 11
289.0449749454
 21
290.9933931532
  0
LINE
  5
5C2
100
AcDbEntity
  8
0
100
AcDbLine
 62
7
  6
CONTINUOUS
 10
289.2949768527
 20
294.8231799307
 11
288.7949787601
 21
296.0997762385
  0
LINE
  5
5C3
100
AcDbEntity
  8
0
100
AcDbLine
 62
7
  6
CONTINUOUS
 10
300.5449768527
 20
290.2274354401
 11
300.0449787601
 21
291.5040313902
  0
LINE
  5
5C4
100
AcDbEntity
  8
KONSTRUKTIONSELEMENTE
100
AcDbLine
 62
7
  6
CONTINUOUS
 10
169.3160789842
 20
615.935730123
 11
169.5828540799
 21
615.2216811717
  0
LINE
  5
5C5
100
AcDbEntity
  8
KONSTRUKTIONSELEMENTE
100
AcDbLine
 62
7
  6
CONTINUOUS
 10
179.6635453144
 20
622.6551011144
 11
179.3575732171
 21
623.6950612428
  0
LINE
  5
5C6
100
AcDbEntity
  8
0
100
AcDbLine
 62
7
  6
CONTINUOUS
 10
258.5449768527
 20
288.9508398476
 11
258.2949778064
 21
289.9721163216
  0
LINE
  5
5C7
100
AcDbEntity
  8
0
100
AcDbLine
 62
7
  6
CONTINUOUS
 10
261.4199763759
 20
313.9508398476
 11
261.1699773296
 21
314.9721163216
  0
LINE
  5
5C8
100
AcDbEntity
  8
KONSTRUKTIONSELEMENTE
100
AcDbLine
 62
7
  6
CONTINUOUS
 10
178.2485563749
 20
623.1183623233
 11
178.4563669658
 21
622.2671709965
  0
LINE
  5
5C9
100
AcDbEntity
  8
0
100
AcDbLine
 62
7
  6
CONTINUOUS
 10
256.7949778064
 20
289.9721163216
 11
257.0449768527
 21
288.6955207291
  0
LINE
  5
5CA
100
AcDbEntity
  8
0
100
AcDbLine
 62
7
  6
CONTINUOUS
 10
259.6699766143
 20
314.9721163216
 11
259.9199770911
 21
313.6955207291
  0
LINE
  5
5CB
100
AcDbEntity
  8
0
100
AcDbLine
 62
7
  6
CONTINUOUS
 10
266.5449778064
 20
294.8231799307
 11
266.2949758991
 21
296.0997762385
  0
LINE
  5
5CC
100
AcDbEntity
  8
0
100
AcDbLine
 62
7
  6
CONTINUOUS
 10
235.7949763759
 20
287.4189249578
 11
235.7949763759
 21
291.2487122717
  0
LINE
  5
5CD
100
AcDbEntity
  8
0
100
AcDbLine
 62
7
  6
CONTINUOUS
 10
235.7949763759
 20
292.7806269827
 11
235.7949763759
 21
296.355095357
  0
LINE
  5
5CE
100
AcDbEntity
  8
0
100
AcDbLine
 62
7
  6
CONTINUOUS
 10
242.0449768527
 20
294.8231799307
 11
242.0449768527
 21
294.3125416937
  0
LINE
  5
5CF
100
AcDbEntity
  8
0
100
AcDbLine
 62
7
  6
CONTINUOUS
 10
242.0449768527
 20
289.7167972031
 11
242.0449768527
 21
288.9508398476
  0
LINE
  5
5D0
100
AcDbEntity
  8
0
100
AcDbLine
 62
7
  6
CONTINUOUS
 10
243.5449768527
 20
288.6955207291
 11
243.5449768527
 21
289.9721163216
  0
LINE
  5
5D1
100
AcDbEntity
  8
0
100
AcDbLine
 62
7
  6
CONTINUOUS
 10
243.5449768527
 20
294.0572225752
 11
243.5449768527
 21
295.0784997645
  0
LINE
  5
5D2
100
AcDbEntity
  8
0
100
AcDbLine
 62
7
  6
CONTINUOUS
 10
245.5449778064
 20
297.887010068
 11
245.5449778064
 21
285.887010068
  0
LINE
  5
5D3
100
AcDbEntity
  8
0
100
AcDbLine
 62
7
  6
CONTINUOUS
 10
247.0449778064
 20
285.887010068
 11
247.0449778064
 21
291.2487122717
  0
LINE
  5
5D4
100
AcDbEntity
  8
0
100
AcDbLine
 62
7
  6
CONTINUOUS
 10
247.0449778064
 20
292.7806269827
 11
247.0449778064
 21
296.6104144755
  0
LINE
  5
5D5
100
AcDbEntity
  8
0
100
AcDbLine
 62
7
  6
CONTINUOUS
 10
248.1699768527
 20
322.887010068
 11
248.1699768527
 21
310.887010068
  0
LINE
  5
5D6
100
AcDbEntity
  8
0
100
AcDbLine
 62
7
  6
CONTINUOUS
 10
249.6699768527
 20
310.887010068
 11
249.6699768527
 21
316.2487122717
  0
LINE
  5
5D7
100
AcDbEntity
  8
0
100
AcDbLine
 62
7
  6
CONTINUOUS
 10
249.6699768527
 20
317.7806269827
 11
249.6699768527
 21
321.6104144755
  0
LINE
  5
5D8
100
AcDbEntity
  8
0
100
AcDbLine
 62
7
  6
CONTINUOUS
 10
253.2949768527
 20
295.0784997645
 11
253.2949768527
 21
294.3125416937
  0
LINE
  5
5D9
100
AcDbEntity
  8
KONSTRUKTIONSELEMENTE
100
AcDbLine
 62
7
  6
CONTINUOUS
 10
212.541641552
 20
333.4447267768
 11
212.4012715717
 21
332.5961958364
  0
LINE
  5
5DA
100
AcDbEntity
  8
KONSTRUKTIONSELEMENTE
100
AcDbLine
 62
7
  6
CONTINUOUS
 10
213.3179479095
 20
334.348112078
 11
213.4583174802
 21
335.1966477691
  0
LINE
  5
5DB
100
AcDbEntity
  8
KONSTRUKTIONSELEMENTE
100
AcDbLine
 62
7
  6
CONTINUOUS
 10
216.7812207254
 20
333.8103908956
 11
216.640850745
 21
332.9618599553
  0
LINE
  5
5DC
100
AcDbEntity
  8
KONSTRUKTIONSELEMENTE
100
AcDbLine
 62
7
  6
CONTINUOUS
 10
178.3811784995
 20
353.0407560785
 11
178.0229931602
 21
352.3748688831
  0
LINE
  5
5DD
100
AcDbEntity
  8
KONSTRUKTIONSELEMENTE
100
AcDbLine
 62
7
  6
CONTINUOUS
 10
333.3811784995
 20
621.5086312516
 11
333.0229931602
 21
620.8427440563
  0
LINE
  5
5DE
100
AcDbEntity
  8
KONSTRUKTIONSELEMENTE
100
AcDbLine
 62
7
  6
CONTINUOUS
 10
157.748261111
 20
338.4903083657
 11
158.074369691
 21
339.0643706758
  0
LINE
  5
5DF
100
AcDbEntity
  8
KONSTRUKTIONSELEMENTE
100
AcDbLine
 62
7
  6
CONTINUOUS
 10
312.748261111
 20
606.9581835389
 11
313.074369691
 21
607.532245849
  0
LINE
  5
5E0
100
AcDbEntity
  8
KONSTRUKTIONSELEMENTE
100
AcDbLine
 62
7
  6
CONTINUOUS
 10
164.1854712808
 20
353.0587903772
 11
163.4440792537
 21
352.0523919163
  0
LINE
  5
5E1
100
AcDbEntity
  8
KONSTRUKTIONSELEMENTE
100
AcDbLine
 62
7
  6
CONTINUOUS
 10
160.4785111451
 20
348.0267980728
 11
159.7371187644
 21
347.020399132
  0
LINE
  5
5E2
100
AcDbEntity
  8
KONSTRUKTIONSELEMENTE
100
AcDbLine
 62
7
  6
CONTINUOUS
 10
364.039715674
 20
605.3744829293
 11
363.4574857292
 21
604.6969451347
  0
LINE
  5
5E3
100
AcDbEntity
  8
0
100
AcDbLine
 62
7
  6
CONTINUOUS
 10
117.5794949877
 20
431.2459939166
 11
87.4199768527
 21
431.2459939166
  0
LINE
  5
5E4
100
AcDbEntity
  8
0
100
AcDbLine
 62
7
  6
CONTINUOUS
 10
411.2604587178
 20
431.2459939166
 11
437.9199768527
 21
431.2459939166
  0
LINE
  5
5E5
100
AcDbEntity
  8
KONSTRUKTIONSELEMENTE
100
AcDbLine
 62
7
  6
CONTINUOUS
 10
78.2273476533
 20
467.8075014618
 11
87.4199768527
 21
466.053946916
  0
LINE
  5
5E6
100
AcDbEntity
  8
KONSTRUKTIONSELEMENTE
100
AcDbLine
 62
7
  6
CONTINUOUS
 10
87.4199768527
 20
467.3264862538
 11
83.8955030386
 21
467.9988028397
  0
LINE
  5
5E7
100
AcDbEntity
  8
KONSTRUKTIONSELEMENTE
100
AcDbLine
 62
7
  6
CONTINUOUS
 10
82.6415186287
 20
468.2380086223
 11
79.5065570184
 21
468.8360231907
  0
LINE
  5
5E8
100
AcDbEntity
  8
KONSTRUKTIONSELEMENTE
100
AcDbLine
 62
7
  6
CONTINUOUS
 10
81.7364678777
 20
473.7129000507
 11
82.3634606681
 21
473.5932970477
  0
LINE
  5
5E9
100
AcDbEntity
  8
KONSTRUKTIONSELEMENTE
100
AcDbLine
 62
7
  6
CONTINUOUS
 10
82.8066804266
 20
474.7812892984
 11
81.9706902345
 21
474.9407599318
  0
LINE
  5
5EA
100
AcDbEntity
  8
KONSTRUKTIONSELEMENTE
100
AcDbLine
 62
7
  6
CONTINUOUS
 10
371.7425671049
 20
336.7345554306
 11
371.0529234017
 21
337.3023939985
  0
LINE
  5
5EB
100
AcDbEntity
  8
KONSTRUKTIONSELEMENTE
100
AcDbLine
 62
7
  6
CONTINUOUS
 10
369.3806912908
 20
331.9304921791
 11
368.6731451455
 21
332.7058950567
  0
LINE
  5
5EC
100
AcDbEntity
  8
KONSTRUKTIONSELEMENTE
100
AcDbLine
 62
7
  6
CONTINUOUS
 10
331.1986521783
 20
358.1409785267
 11
331.7761336397
 21
357.4820194399
  0
LINE
  5
5ED
100
AcDbEntity
  8
KONSTRUKTIONSELEMENTE
100
AcDbLine
 62
7
  6
CONTINUOUS
 10
323.7544371767
 20
348.1403658368
 11
324.3160789842
 21
347.4678549498
  0
LINE
  5
5EE
100
AcDbEntity
  8
KONSTRUKTIONSELEMENTE
100
AcDbLine
 62
7
  6
CONTINUOUS
 10
332.8851504818
 20
358.0587183595
 11
332.209507239
 21
358.9064467768
  0
LINE
  5
5EF
100
AcDbEntity
  8
KONSTRUKTIONSELEMENTE
100
AcDbLine
 62
7
  6
CONTINUOUS
 10
315.4514158509
 20
339.0351134514
 11
315.791336498
 21
338.5460913684
  0
LINE
  5
5F0
100
AcDbEntity
  8
KONSTRUKTIONSELEMENTE
100
AcDbLine
 62
7
  6
CONTINUOUS
 10
170.6668499176
 20
615.9756907991
 11
170.2287728566
 21
616.8159342114
  0
LINE
  5
5F1
100
AcDbEntity
  8
0
100
AcDbLine
 62
7
  6
CONTINUOUS
 10
299.0449768527
 20
290.7380740347
 11
299.2949787601
 21
289.9721163216
  0
LINE
  5
5F2
100
AcDbEntity
  8
0
100
AcDbLine
 62
7
  6
CONTINUOUS
 10
306.0449787601
 20
287.6742440763
 11
305.7949768527
 21
288.4402016106
  0
LINE
  5
5F3
100
AcDbEntity
  8
KONSTRUKTIONSELEMENTE
100
AcDbLine
 62
7
  6
CONTINUOUS
 10
207.896006553
 20
601.3028118654
 11
208.1974973009
 21
600.2832782731
  0
LINE
  5
5F4
100
AcDbEntity
  8
0
100
AcDbLine
 62
7
  6
CONTINUOUS
 10
278.9199768527
 20
319.8231799307
 11
279.1699758991
 21
318.8019034567
  0
LINE
  5
5F5
100
AcDbEntity
  8
0
100
AcDbLine
 62
7
  6
CONTINUOUS
 10
280.6699758991
 20
318.8019034567
 11
280.4199768527
 21
320.0784997645
  0
LINE
  5
5F6
100
AcDbEntity
  8
0
100
AcDbLine
 62
7
  6
CONTINUOUS
 10
254.7949768527
 20
294.0572225752
 11
254.7949768527
 21
295.0784997645
  0
LINE
  5
5F7
100
AcDbEntity
  8
0
100
AcDbLine
 62
7
  6
CONTINUOUS
 10
255.9199766143
 20
320.0784997645
 11
255.9199766143
 21
319.3125416937
  0
LINE
  5
5F8
100
AcDbEntity
  8
0
100
AcDbLine
 62
7
  6
CONTINUOUS
 10
256.7949778064
 20
293.8019034567
 11
256.7949778064
 21
289.9721163216
  0
LINE
  5
5F9
100
AcDbEntity
  8
0
100
AcDbLine
 62
7
  6
CONTINUOUS
 10
257.4199766143
 20
319.0572225752
 11
257.4199766143
 21
320.0784997645
  0
LINE
  5
5FA
100
AcDbEntity
  8
0
100
AcDbLine
 62
7
  6
CONTINUOUS
 10
258.2949778064
 20
289.9721163216
 11
258.2949778064
 21
293.8019034567
  0
LINE
  5
5FB
100
AcDbEntity
  8
0
100
AcDbLine
 62
7
  6
CONTINUOUS
 10
259.6699766143
 20
322.887010068
 11
259.6699766143
 21
314.9721163216
  0
LINE
  5
5FC
100
AcDbEntity
  8
0
100
AcDbLine
 62
7
  6
CONTINUOUS
 10
261.1699773296
 20
314.9721163216
 11
261.1699773296
 21
322.887010068
  0
LINE
  5
5FD
100
AcDbEntity
  8
0
100
AcDbLine
 62
7
  6
CONTINUOUS
 10
262.7949778064
 20
292.5253078642
 11
262.7949778064
 21
290.9933931532
  0
LINE
  5
5FE
100
AcDbEntity
  8
0
100
AcDbLine
 62
7
  6
CONTINUOUS
 10
265.0449778064
 20
290.9933931532
 11
265.0449778064
 21
288.9508398476
  0
LINE
  5
5FF
100
AcDbEntity
  8
0
100
AcDbLine
 62
7
  6
CONTINUOUS
 10
266.5449778064
 20
288.6955207291
 11
266.5449778064
 21
292.5253078642
  0
LINE
  5
600
100
AcDbEntity
  8
0
100
AcDbLine
 62
7
  6
CONTINUOUS
 10
267.1699773296
 20
322.887010068
 11
267.1699773296
 21
314.9721163216
  0
LINE
  5
601
100
AcDbEntity
  8
0
100
AcDbLine
 62
7
  6
CONTINUOUS
 10
268.6699773296
 20
314.9721163216
 11
268.6699773296
 21
322.887010068
  0
LINE
  5
602
100
AcDbEntity
  8
0
100
AcDbLine
 62
7
  6
CONTINUOUS
 10
270.6699768527
 20
322.887010068
 11
270.6699768527
 21
310.887010068
  0
LINE
  5
603
100
AcDbEntity
  8
0
100
AcDbLine
 62
7
  6
CONTINUOUS
 10
272.1699768527
 20
312.4189249578
 11
272.1699768527
 21
321.355095357
  0
LINE
  5
604
100
AcDbEntity
  8
0
100
AcDbLine
 62
7
  6
CONTINUOUS
 10
230.7949768527
 20
297.887010068
 11
229.2949768527
 21
288.6955207291
  0
LINE
  5
605
100
AcDbEntity
  8
0
100
AcDbLine
 62
7
  6
CONTINUOUS
 10
230.2949766143
 20
285.887010068
 11
232.2949768527
 21
297.887010068
  0
LINE
  5
606
100
AcDbEntity
  8
0
100
AcDbLine
 62
7
  6
CONTINUOUS
 10
224.2949769719
 20
285.887010068
 11
226.2949768527
 21
295.5891380015
  0
LINE
  5
607
100
AcDbEntity
  8
0
100
AcDbLine
 62
7
  6
CONTINUOUS
 10
225.2949767335
 20
297.887010068
 11
223.2949768527
 21
288.6955207291
  0
LINE
  5
608
100
AcDbEntity
  8
KONSTRUKTIONSELEMENTE
100
AcDbLine
 62
7
  6
CONTINUOUS
 10
324.5547618769
 20
614.4660931077
 11
324.231802135
 21
613.668966108
  0
LINE
  5
609
100
AcDbEntity
  8
KONSTRUKTIONSELEMENTE
100
AcDbLine
 62
7
  6
CONTINUOUS
 10
209.0067595263
 20
334.8127004596
 11
209.3591084356
 21
335.6795146034
  0
LINE
  5
60A
100
AcDbEntity
  8
KONSTRUKTIONSELEMENTE
100
AcDbLine
 62
7
  6
CONTINUOUS
 10
212.9269457895
 20
336.4054577185
 11
212.7507717446
 21
335.9720458959
  0
LINE
  5
60B
100
AcDbEntity
  8
KONSTRUKTIONSELEMENTE
100
AcDbLine
 62
7
  6
CONTINUOUS
 10
212.4012715717
 20
332.5961958364
 11
212.0489230721
 21
331.7293769419
  0
LINE
  5
60C
100
AcDbEntity
  8
KONSTRUKTIONSELEMENTE
100
AcDbLine
 62
7
  6
CONTINUOUS
 10
212.9326432623
 20
331.387385887
 11
213.108817717
 21
331.8207929589
  0
LINE
  5
60D
100
AcDbEntity
  8
KONSTRUKTIONSELEMENTE
100
AcDbLine
 62
7
  6
CONTINUOUS
 10
312.0684198167
 20
607.9362277051
 11
311.6642370805
 21
606.9528785728
  0
LINE
  5
60E
100
AcDbEntity
  8
KONSTRUKTIONSELEMENTE
100
AcDbLine
 62
7
  6
CONTINUOUS
 10
325.2596133266
 20
612.9117997843
 11
325.7061379199
 21
613.876659232
  0
LINE
  5
60F
100
AcDbEntity
  8
KONSTRUKTIONSELEMENTE
100
AcDbLine
 62
7
  6
CONTINUOUS
 10
197.7645456868
 20
361.1216205759
 11
192.8606473671
 21
352.4065886615
  0
LINE
  5
610
100
AcDbEntity
  8
KONSTRUKTIONSELEMENTE
100
AcDbLine
 62
7
  6
CONTINUOUS
 10
193.9500263564
 20
351.7936013716
 11
197.8105421793
 21
358.6543713976
  0
LINE
  5
611
100
AcDbEntity
  8
KONSTRUKTIONSELEMENTE
100
AcDbLine
 62
7
  6
CONTINUOUS
 10
352.7645456868
 20
629.5894957491
 11
347.8606473671
 21
620.8744638347
  0
LINE
  5
612
100
AcDbEntity
  8
KONSTRUKTIONSELEMENTE
100
AcDbLine
 62
7
  6
CONTINUOUS
 10
348.9500263564
 20
620.2614765447
 11
352.8105421793
 21
627.1222465707
  0
LINE
  5
613
100
AcDbEntity
  8
KONSTRUKTIONSELEMENTE
100
AcDbLine
 62
7
  6
CONTINUOUS
 10
204.3468161151
 20
354.9764476577
 11
200.4863002922
 21
348.1156776317
  0
LINE
  5
614
100
AcDbEntity
  8
KONSTRUKTIONSELEMENTE
100
AcDbLine
 62
7
  6
CONTINUOUS
 10
201.5756792815
 20
347.5026903417
 11
206.4795776013
 21
356.2177222562
  0
LINE
  5
615
100
AcDbEntity
  8
KONSTRUKTIONSELEMENTE
100
AcDbLine
 62
7
  6
CONTINUOUS
 10
359.3468161151
 20
623.4443228309
 11
355.4863002922
 21
616.5835528049
  0
LINE
  5
616
100
AcDbEntity
  8
KONSTRUKTIONSELEMENTE
100
AcDbLine
 62
7
  6
CONTINUOUS
 10
356.5756792815
 20
615.9705655149
 11
361.4795776013
 21
624.6855974293
  0
LINE
  5
617
100
AcDbEntity
  8
KONSTRUKTIONSELEMENTE
100
AcDbLine
 62
7
  6
CONTINUOUS
 10
178.79679981
 20
351.3383731771
 11
179.3398206276
 21
352.1003764098
  0
LINE
  5
618
100
AcDbEntity
  8
KONSTRUKTIONSELEMENTE
100
AcDbLine
 62
7
  6
CONTINUOUS
 10
169.231802135
 20
345.2010909348
 11
168.7375405479
 21
344.5301583076
  0
LINE
  5
619
100
AcDbEntity
  8
KONSTRUKTIONSELEMENTE
100
AcDbLine
 62
7
  6
CONTINUOUS
 10
169.7653517394
 20
343.7729919839
 11
170.2596133266
 21
344.4439246111
  0
LINE
  5
61A
100
AcDbEntity
  8
KONSTRUKTIONSELEMENTE
100
AcDbLine
 62
7
  6
CONTINUOUS
 10
368.5091756601
 20
605.5508706799
 11
367.9269457895
 21
604.8733328917
  0
LINE
  5
61B
100
AcDbEntity
  8
KONSTRUKTIONSELEMENTE
100
AcDbLine
 62
7
  6
CONTINUOUS
 10
371.589992565
 20
599.5433873908
 11
372.1722224356
 21
600.220925179
  0
LINE
  5
61C
100
AcDbEntity
  8
KONSTRUKTIONSELEMENTE
100
AcDbLine
 62
7
  6
CONTINUOUS
 10
367.5029879316
 20
336.3688913117
 11
366.795442196
 21
337.1442894386
  0
LINE
  5
61D
100
AcDbEntity
  8
KONSTRUKTIONSELEMENTE
100
AcDbLine
 62
7
  6
CONTINUOUS
 10
370.7184773441
 20
336.2280107945
 11
371.4260230796
 21
335.4526126677
  0
LINE
  5
61E
100
AcDbEntity
  8
KONSTRUKTIONSELEMENTE
100
AcDbLine
 62
7
  6
CONTINUOUS
 10
363.1974973009
 20
331.8154030999
 11
363.9229455342
 21
330.8324406683
  0
LINE
  5
61F
100
AcDbEntity
  8
KONSTRUKTIONSELEMENTE
100
AcDbLine
 62
7
  6
CONTINUOUS
 10
160.4514158509
 20
607.5029886246
 11
160.791336498
 21
607.0139665415
  0
LINE
  5
620
100
AcDbEntity
  8
KONSTRUKTIONSELEMENTE
100
AcDbLine
 62
7
  6
CONTINUOUS
 10
325.6668499176
 20
347.5078156259
 11
325.2287728566
 21
348.3480590382
  0
LINE
  5
621
100
AcDbEntity
  8
KONSTRUKTIONSELEMENTE
100
AcDbLine
 62
7
  6
CONTINUOUS
 10
168.9211211932
 20
625.7022357915
 11
173.5347125496
 21
616.8301010543
  0
LINE
  5
622
100
AcDbEntity
  8
KONSTRUKTIONSELEMENTE
100
AcDbLine
 62
7
  6
CONTINUOUS
 10
174.0547602839
 20
618.5394129162
 11
170.6191070745
 21
625.1463219009
  0
LINE
  5
623
100
AcDbEntity
  8
KONSTRUKTIONSELEMENTE
100
AcDbLine
 62
7
  6
CONTINUOUS
 10
176.7761336397
 20
625.9498946131
 11
178.2485563749
 21
623.1183623233
  0
LINE
  5
624
100
AcDbEntity
  8
KONSTRUKTIONSELEMENTE
100
AcDbLine
 62
7
  6
CONTINUOUS
 10
179.3575732171
 20
623.6950612428
 11
177.8851504818
 21
626.5265935326
  0
LINE
  5
625
100
AcDbEntity
  8
KONSTRUKTIONSELEMENTE
100
AcDbLine
 62
7
  6
CONTINUOUS
 10
323.9211211932
 20
357.2343606184
 11
328.5347125496
 21
348.3622258811
  0
LINE
  5
626
100
AcDbEntity
  8
KONSTRUKTIONSELEMENTE
100
AcDbLine
 62
7
  6
CONTINUOUS
 10
329.0547602839
 20
350.071537743
 11
325.6191070745
 21
356.6784467277
  0
LINE
  5
627
100
AcDbEntity
  8
KONSTRUKTIONSELEMENTE
100
AcDbLine
 62
7
  6
CONTINUOUS
 10
209.2215871917
 20
600.7898229204
 11
208.9379993141
 21
601.601787454
  0
LINE
  5
628
100
AcDbEntity
  8
KONSTRUKTIONSELEMENTE
100
AcDbLine
 62
7
  6
CONTINUOUS
 10
212.1864439063
 20
603.554823722
 11
212.4700321936
 21
602.7428544376
  0
LINE
  5
629
100
AcDbEntity
  8
KONSTRUKTIONSELEMENTE
100
AcDbLine
 62
7
  6
CONTINUOUS
 10
213.6731451455
 20
601.1737702299
 11
213.3895572679
 21
601.9857347635
  0
LINE
  5
62A
100
AcDbEntity
  8
KONSTRUKTIONSELEMENTE
100
AcDbLine
 62
7
  6
CONTINUOUS
 10
216.4260230796
 20
603.9204878408
 11
216.709611367
 21
603.1085185565
  0
LINE
  5
62B
100
AcDbEntity
  8
KONSTRUKTIONSELEMENTE
100
AcDbLine
 62
7
  6
CONTINUOUS
 10
217.7695060119
 20
603.1999345734
 11
217.4680156922
 21
604.2194634166
  0
LINE
  5
62C
100
AcDbEntity
  8
0
100
AcDbLine
 62
7
  6
CONTINUOUS
 10
279.1699758991
 20
318.8019034567
 11
279.1699758991
 21
314.9721163216
  0
LINE
  5
62D
100
AcDbEntity
  8
0
100
AcDbLine
 62
7
  6
CONTINUOUS
 10
280.5449787601
 20
289.7167972031
 11
280.5449787601
 21
288.9508398476
  0
LINE
  5
62E
100
AcDbEntity
  8
0
100
AcDbLine
 62
7
  6
CONTINUOUS
 10
280.6699758991
 20
314.9721163216
 11
280.6699758991
 21
318.8019034567
  0
LINE
  5
62F
100
AcDbEntity
  8
0
100
AcDbLine
 62
7
  6
CONTINUOUS
 10
280.7949749454
 20
294.8231799307
 11
280.7949749454
 21
294.0572225752
  0
LINE
  5
630
100
AcDbEntity
  8
0
100
AcDbLine
 62
7
  6
CONTINUOUS
 10
281.7949768527
 20
288.9508398476
 11
281.7949768527
 21
289.7167972031
  0
LINE
  5
631
100
AcDbEntity
  8
0
100
AcDbLine
 62
7
  6
CONTINUOUS
 10
282.0449787601
 20
294.3125416937
 11
282.0449787601
 21
294.8231799307
  0
LINE
  5
632
100
AcDbEntity
  8
0
100
AcDbLine
 62
7
  6
CONTINUOUS
 10
288.0449787601
 20
294.8231799307
 11
288.0449787601
 21
294.3125416937
  0
LINE
  5
633
100
AcDbEntity
  8
0
100
AcDbLine
 62
7
  6
CONTINUOUS
 10
288.2949749454
 20
289.7167972031
 11
288.2949749454
 21
288.9508398476
  0
LINE
  5
634
100
AcDbEntity
  8
0
100
AcDbLine
 62
7
  6
CONTINUOUS
 10
289.2949768527
 20
294.0572225752
 11
289.2949768527
 21
294.8231799307
  0
LINE
  5
635
100
AcDbEntity
  8
0
100
AcDbLine
 62
7
  6
CONTINUOUS
 10
289.5449787601
 20
288.9508398476
 11
289.5449787601
 21
289.7167972031
  0
LINE
  5
636
100
AcDbEntity
  8
0
100
AcDbLine
 62
7
  6
CONTINUOUS
 10
291.5449768527
 20
297.887010068
 11
291.5449768527
 21
291.2487122717
  0
LINE
  5
637
100
AcDbEntity
  8
KONSTRUKTIONSELEMENTE
100
AcDbLine
 62
7
  6
CONTINUOUS
 10
311.6642370805
 20
606.9528785728
 11
310.7273476533
 21
602.0414390484
  0
LINE
  5
638
100
AcDbEntity
  8
KONSTRUKTIONSELEMENTE
100
AcDbLine
 62
7
  6
CONTINUOUS
 10
312.0065570184
 20
603.0699607773
 11
312.748261111
 21
606.9581835389
  0
LINE
  5
639
100
AcDbEntity
  8
KONSTRUKTIONSELEMENTE
100
AcDbLine
 62
7
  6
CONTINUOUS
 10
315.8832227213
 20
606.3601689705
 11
315.1415186287
 21
602.4719462089
  0
LINE
  5
63A
100
AcDbEntity
  8
KONSTRUKTIONSELEMENTE
100
AcDbLine
 62
7
  6
CONTINUOUS
 10
316.3955030386
 20
602.2327404263
 11
317.0591330309
 21
605.7116766584
  0
LINE
  5
63B
100
AcDbEntity
  8
0
100
AcDbLine
 62
7
  6
CONTINUOUS
 10
257.0449768527
 20
295.0784997645
 11
256.7949778064
 21
293.8019034567
  0
LINE
  5
63C
100
AcDbEntity
  8
KONSTRUKTIONSELEMENTE
100
AcDbLine
 62
7
  6
CONTINUOUS
 10
334.3398206276
 20
620.568251583
 11
334.6865184235
 21
621.7077924356
  0
LINE
  5
63D
100
AcDbEntity
  8
KONSTRUKTIONSELEMENTE
100
AcDbLine
 62
7
  6
CONTINUOUS
 10
208.4574857292
 20
336.2290699615
 11
207.9110602772
 21
335.1364083
  0
LINE
  5
63E
100
AcDbEntity
  8
KONSTRUKTIONSELEMENTE
100
AcDbLine
 62
7
  6
CONTINUOUS
 10
217.1722224356
 20
331.7530500059
 11
217.7186478319
 21
332.8457116626
  0
LINE
  5
63F
100
AcDbEntity
  8
KONSTRUKTIONSELEMENTE
100
AcDbLine
 62
7
  6
CONTINUOUS
 10
363.4574857292
 20
604.6969451347
 11
362.9110602772
 21
603.6042834732
  0
LINE
  5
640
100
AcDbEntity
  8
KONSTRUKTIONSELEMENTE
100
AcDbLine
 62
7
  6
CONTINUOUS
 10
368.4583174802
 20
603.6645229423
 11
369.0226453185
 21
604.5496202894
  0
LINE
  5
641
100
AcDbEntity
  8
KONSTRUKTIONSELEMENTE
100
AcDbLine
 62
7
  6
CONTINUOUS
 10
367.3683158337
 20
598.9701589623
 11
367.9326432623
 21
599.8552610602
  0
LINE
  5
642
100
AcDbEntity
  8
KONSTRUKTIONSELEMENTE
100
AcDbLine
 62
7
  6
CONTINUOUS
 10
371.640850745
 20
601.4297351285
 11
371.0765233164
 21
600.5446330306
  0
LINE
  5
643
100
AcDbEntity
  8
KONSTRUKTIONSELEMENTE
100
AcDbLine
 62
7
  6
CONTINUOUS
 10
157.8515602223
 20
340.1673226994
 11
157.0684198167
 21
339.4683525319
  0
LINE
  5
644
100
AcDbEntity
  8
KONSTRUKTIONSELEMENTE
100
AcDbLine
 62
7
  6
CONTINUOUS
 10
161.6135140375
 20
607.9175804129
 11
160.8946356093
 21
608.6909808753
  0
LINE
  5
645
100
AcDbEntity
  8
KONSTRUKTIONSELEMENTE
100
AcDbLine
 62
7
  6
CONTINUOUS
 10
168.7544371767
 20
616.60824101
 11
169.3160789842
 21
615.935730123
  0
LINE
  5
646
100
AcDbEntity
  8
KONSTRUKTIONSELEMENTE
100
AcDbLine
 62
7
  6
CONTINUOUS
 10
372.4680156922
 20
335.7515882434
 11
371.7425671049
 21
336.7345554306
  0
LINE
  5
647
100
AcDbEntity
  8
KONSTRUKTIONSELEMENTE
100
AcDbLine
 62
7
  6
CONTINUOUS
 10
364.717154408
 20
331.5282616663
 11
364.2215871917
 21
332.3219477473
  0
LINE
  5
648
100
AcDbEntity
  8
KONSTRUKTIONSELEMENTE
100
AcDbLine
 62
7
  6
CONTINUOUS
 10
368.108817717
 20
331.8207929589
 11
368.3566011202
 21
331.4239522937
  0
LINE
  5
649
100
AcDbEntity
  8
KONSTRUKTIONSELEMENTE
100
AcDbLine
 62
7
  6
CONTINUOUS
 10
366.6908770997
 20
335.880629879
 11
367.1864439063
 21
335.0869485488
  0
LINE
  5
64A
100
AcDbEntity
  8
KONSTRUKTIONSELEMENTE
100
AcDbLine
 62
7
  6
CONTINUOUS
 10
367.7507717446
 20
335.9720458959
 11
367.5029879316
 21
336.3688913117
  0
LINE
  5
64B
100
AcDbEntity
  8
KONSTRUKTIONSELEMENTE
100
AcDbLine
 62
7
  6
CONTINUOUS
 10
209.717154408
 20
599.9961368395
 11
209.2215871917
 21
600.7898229204
  0
LINE
  5
64C
100
AcDbEntity
  8
KONSTRUKTIONSELEMENTE
100
AcDbLine
 62
7
  6
CONTINUOUS
 10
360.3361935907
 20
341.7791479393
 11
360.981420231
 21
340.7085487694
  0
LINE
  5
64D
100
AcDbEntity
  8
KONSTRUKTIONSELEMENTE
100
AcDbLine
 62
7
  6
CONTINUOUS
 10
360.3065020238
 20
347.5991059452
 11
362.887408585
 21
343.3167092655
  0
LINE
  5
64E
100
AcDbEntity
  8
KONSTRUKTIONSELEMENTE
100
AcDbLine
 62
7
  6
CONTINUOUS
 10
363.5326352253
 20
342.2461100956
 11
364.6080137796
 21
340.4617767844
  0
LINE
  5
64F
100
AcDbEntity
  8
KONSTRUKTIONSELEMENTE
100
AcDbLine
 62
7
  6
CONTINUOUS
 10
365.7013917802
 20
341.1207317264
 11
364.6260132259
 21
342.9050650376
  0
LINE
  5
650
100
AcDbEntity
  8
KONSTRUKTIONSELEMENTE
100
AcDbLine
 62
7
  6
CONTINUOUS
 10
363.9807865856
 20
343.9756642075
 11
362.1526452585
 21
347.0090271609
  0
LINE
  5
651
100
AcDbEntity
  8
KONSTRUKTIONSELEMENTE
100
AcDbLine
 62
7
  6
CONTINUOUS
 10
205.3361935907
 20
610.2470231125
 11
205.981420231
 21
609.1764239426
  0
LINE
  5
652
100
AcDbEntity
  8
KONSTRUKTIONSELEMENTE
100
AcDbLine
 62
7
  6
CONTINUOUS
 10
331.7761336397
 20
357.4820194399
 11
333.2485563749
 21
354.6504871501
  0
LINE
  5
653
100
AcDbEntity
  8
KONSTRUKTIONSELEMENTE
100
AcDbLine
 62
7
  6
CONTINUOUS
 10
334.3575732171
 20
355.2271860696
 11
332.8851504818
 21
358.0587183595
  0
LINE
  5
654
100
AcDbEntity
  8
KONSTRUKTIONSELEMENTE
100
AcDbLine
 62
7
  6
CONTINUOUS
 10
324.3160789842
 20
347.4678549498
 11
324.5828540799
 21
346.7538059985
  0
LINE
  5
655
100
AcDbEntity
  8
KONSTRUKTIONSELEMENTE
100
AcDbLine
 62
7
  6
CONTINUOUS
 10
316.8753606402
 20
338.55139692
 11
316.6135140375
 21
339.4497052398
  0
LINE
  5
656
100
AcDbEntity
  8
0
100
AcDbLine
 62
7
  6
CONTINUOUS
 10
292.7949749454
 20
292.5253078642
 11
292.7949749454
 21
296.6104144755
  0
LINE
  5
657
100
AcDbEntity
  8
0
100
AcDbLine
 62
7
  6
CONTINUOUS
 10
299.2949787601
 20
289.9721163216
 11
299.2949787601
 21
289.4614780846
  0
LINE
  5
658
100
AcDbEntity
  8
0
100
AcDbLine
 62
7
  6
CONTINUOUS
 10
300.0449787601
 20
296.6104144755
 11
300.0449787601
 21
297.887010068
  0
LINE
  5
659
100
AcDbEntity
  8
0
100
AcDbLine
 62
7
  6
CONTINUOUS
 10
300.5449768527
 20
289.2061589661
 11
300.5449768527
 21
290.2274354401
  0
LINE
  5
65A
100
AcDbEntity
  8
0
100
AcDbLine
 62
7
  6
CONTINUOUS
 10
302.5449749454
 20
294.0572225752
 11
302.5449749454
 21
293.0359461012
  0
LINE
  5
65B
100
AcDbEntity
  8
0
100
AcDbLine
 62
7
  6
CONTINUOUS
 10
304.5449787601
 20
296.0997762385
 11
304.5449787601
 21
294.0572225752
  0
LINE
  5
65C
100
AcDbEntity
  8
0
100
AcDbLine
 62
7
  6
CONTINUOUS
 10
304.5449787601
 20
293.0359461012
 11
304.5449787601
 21
287.9295631948
  0
LINE
  5
65D
100
AcDbEntity
  8
0
100
AcDbLine
 62
7
  6
CONTINUOUS
 10
305.7949768527
 20
288.4402016106
 11
305.7949768527
 21
293.0359461012
  0
LINE
  5
65E
100
AcDbEntity
  8
0
100
AcDbLine
 62
7
  6
CONTINUOUS
 10
305.7949768527
 20
294.0572225752
 11
305.7949768527
 21
296.0997762385
  0
LINE
  5
65F
100
AcDbEntity
  8
0
100
AcDbLine
 62
7
  6
CONTINUOUS
 10
308.0449768527
 20
285.887010068
 11
308.0449768527
 21
286.9082866314
  0
LINE
  5
660
100
AcDbEntity
  8
0
100
AcDbLine
 62
7
  6
CONTINUOUS
 10
308.5449749454
 20
293.0359461012
 11
308.5449749454
 21
294.0572225752
  0
LINE
  5
661
100
AcDbEntity
  8
KONSTRUKTIONSELEMENTE
100
AcDbLine
 62
7
  6
CONTINUOUS
 10
325.7061379199
 20
613.876659232
 11
325.8577957715
 21
614.7999806375
  0
LINE
  5
662
100
AcDbEntity
  8
KONSTRUKTIONSELEMENTE
100
AcDbLine
 62
7
  6
CONTINUOUS
 10
320.550226702
 20
600.1676601942
 11
320.7844490588
 21
601.3955200752
  0
LINE
  5
663
100
AcDbEntity
  8
KONSTRUKTIONSELEMENTE
100
AcDbLine
 62
7
  6
CONTINUOUS
 10
321.7603755082
 20
606.5116027179
 11
322.0336349989
 21
607.9441063029
  0
LINE
  5
664
100
AcDbEntity
  8
0
100
AcDbLine
 62
7
  6
CONTINUOUS
 10
268.4199768527
 20
313.6955207291
 11
268.6699773296
 21
314.9721163216
  0
LINE
  5
665
100
AcDbEntity
  8
0
100
AcDbLine
 62
7
  6
CONTINUOUS
 10
280.4199768527
 20
313.6955207291
 11
280.6699758991
 21
314.9721163216
  0
LINE
  5
666
100
AcDbEntity
  8
0
100
AcDbLine
 62
7
  6
CONTINUOUS
 10
258.2949778064
 20
293.8019034567
 11
258.5449768527
 21
294.8231799307
  0
LINE
  5
667
100
AcDbEntity
  8
0
100
AcDbLine
 62
7
  6
CONTINUOUS
 10
267.1699773296
 20
314.9721163216
 11
266.9199768527
 21
313.9508398476
  0
LINE
  5
668
100
AcDbEntity
  8
0
100
AcDbLine
 62
7
  6
CONTINUOUS
 10
266.2949758991
 20
287.6742440763
 11
266.5449778064
 21
288.6955207291
  0
LINE
  5
669
100
AcDbEntity
  8
0
100
AcDbLine
 62
7
  6
CONTINUOUS
 10
242.0449768527
 20
294.3125416937
 11
241.7949763759
 21
293.5465843382
  0
LINE
  5
66A
100
AcDbEntity
  8
0
100
AcDbLine
 62
7
  6
CONTINUOUS
 10
243.2949763759
 20
293.2912652197
 11
243.5449768527
 21
294.0572225752
  0
LINE
  5
66B
100
AcDbEntity
  8
0
100
AcDbLine
 62
7
  6
CONTINUOUS
 10
242.0449768527
 20
288.9508398476
 11
241.7949763759
 21
288.1848824921
  0
LINE
  5
66C
100
AcDbEntity
  8
0
100
AcDbLine
 62
7
  6
CONTINUOUS
 10
243.2949763759
 20
287.9295631948
 11
243.5449768527
 21
288.6955207291
  0
LINE
  5
66D
100
AcDbEntity
  8
0
100
AcDbLine
 62
7
  6
CONTINUOUS
 10
255.9199766143
 20
319.3125416937
 11
255.6699768527
 21
318.5465843382
  0
LINE
  5
66E
100
AcDbEntity
  8
0
100
AcDbLine
 62
7
  6
CONTINUOUS
 10
257.1699768527
 20
318.2912652197
 11
257.4199766143
 21
319.0572225752
  0
LINE
  5
66F
100
AcDbEntity
  8
0
100
AcDbLine
 62
7
  6
CONTINUOUS
 10
253.2949768527
 20
294.3125416937
 11
253.0449778064
 21
293.5465843382
  0
LINE
  5
670
100
AcDbEntity
  8
0
100
AcDbLine
 62
7
  6
CONTINUOUS
 10
254.5449778064
 20
293.2912652197
 11
254.7949768527
 21
294.0572225752
  0
LINE
  5
671
100
AcDbEntity
  8
KONSTRUKTIONSELEMENTE
100
AcDbLine
 62
7
  6
CONTINUOUS
 10
364.0067595263
 20
603.2805756328
 11
364.3591084356
 21
604.1473897765
  0
LINE
  5
672
100
AcDbEntity
  8
KONSTRUKTIONSELEMENTE
100
AcDbLine
 62
7
  6
CONTINUOUS
 10
367.9269457895
 20
604.8733328917
 11
367.7507717446
 21
604.4399210691
  0
LINE
  5
673
100
AcDbEntity
  8
KONSTRUKTIONSELEMENTE
100
AcDbLine
 62
7
  6
CONTINUOUS
 10
367.4012715717
 20
601.0640710096
 11
367.0489230721
 21
600.1972521151
  0
LINE
  5
674
100
AcDbEntity
  8
KONSTRUKTIONSELEMENTE
100
AcDbLine
 62
7
  6
CONTINUOUS
 10
367.9326432623
 20
599.8552610602
 11
368.108817717
 21
600.288668132
  0
LINE
  5
675
100
AcDbEntity
  8
KONSTRUKTIONSELEMENTE
100
AcDbLine
 62
7
  6
CONTINUOUS
 10
372.1722224356
 20
600.220925179
 11
372.7186478319
 21
601.3135868358
  0
LINE
  5
676
100
AcDbEntity
  8
BEZUGSACHSEN
100
AcDbLine
 62
7
  6
CONTINUOUS
 10
208.5706119473
 20
294.1530724814
 11
230.221247042
 21
331.6530724814
  0
LINE
  5
677
100
AcDbEntity
  8
BEZUGSACHSEN
100
AcDbLine
 62
7
  6
CONTINUOUS
 10
363.5706119473
 20
562.6209476545
 11
385.221247042
 21
600.1209476545
  0
LINE
  5
678
100
AcDbEntity
  8
KONSTRUKTIONSELEMENTE
100
AcDbLine
 62
7
  6
CONTINUOUS
 10
213.4583174802
 20
335.1966477691
 11
214.0226453185
 21
336.0817451162
  0
LINE
  5
679
100
AcDbEntity
  8
KONSTRUKTIONSELEMENTE
100
AcDbLine
 62
7
  6
CONTINUOUS
 10
212.3683158337
 20
330.5022837891
 11
212.9326432623
 21
331.387385887
  0
LINE
  5
67A
100
AcDbEntity
  8
KONSTRUKTIONSELEMENTE
100
AcDbLine
 62
7
  6
CONTINUOUS
 10
216.640850745
 20
332.9618599553
 11
216.0765233164
 21
332.0767578574
  0
LINE
  5
67B
100
AcDbEntity
  8
KONSTRUKTIONSELEMENTE
100
AcDbLine
 62
7
  6
CONTINUOUS
 10
209.039715674
 20
336.9066077562
 11
208.4574857292
 21
336.2290699615
  0
LINE
  5
67C
100
AcDbEntity
  8
KONSTRUKTIONSELEMENTE
100
AcDbLine
 62
7
  6
CONTINUOUS
 10
168.9762234256
 20
343.0605213033
 11
169.7653517394
 21
343.7729919839
  0
LINE
  5
67D
100
AcDbEntity
  8
KONSTRUKTIONSELEMENTE
100
AcDbLine
 62
7
  6
CONTINUOUS
 10
178.0229931602
 20
352.3748688831
 11
177.3818108104
 21
351.8016345017
  0
LINE
  5
67E
100
AcDbEntity
  8
KONSTRUKTIONSELEMENTE
100
AcDbLine
 62
7
  6
CONTINUOUS
 10
204.8455091173
 20
357.1372031911
 11
197.7398546458
 21
350.8817705757
  0
LINE
  5
67F
100
AcDbEntity
  8
KONSTRUKTIONSELEMENTE
100
AcDbLine
 62
7
  6
CONTINUOUS
 10
168.7375405479
 20
344.5301583076
 11
168.0719778226
 21
343.9854210128
  0
LINE
  5
680
100
AcDbEntity
  8
KONSTRUKTIONSELEMENTE
100
AcDbLine
 62
7
  6
CONTINUOUS
 10
177.9707799183
 20
350.6690215593
 11
178.79679981
 21
351.3383731771
  0
LINE
  5
681
100
AcDbEntity
  8
KONSTRUKTIONSELEMENTE
100
AcDbLine
 62
7
  6
CONTINUOUS
 10
87.4199768527
 20
473.331207997
 11
84.3753606402
 21
472.7853345066
  0
LINE
  5
682
100
AcDbEntity
  8
KONSTRUKTIONSELEMENTE
100
AcDbLine
 62
7
  6
CONTINUOUS
 10
84.5591330309
 20
471.4777390718
 11
87.4199768527
 21
471.9645175216
  0
LINE
  5
683
100
AcDbEntity
  8
KONSTRUKTIONSELEMENTE
100
AcDbLine
 62
7
  6
CONTINUOUS
 10
81.0704386505
 20
473.6278598237
 11
81.7364678777
 21
473.7129000507
  0
LINE
  5
684
100
AcDbEntity
  8
KONSTRUKTIONSELEMENTE
100
AcDbLine
 62
7
  6
CONTINUOUS
 10
81.9706902345
 20
474.9407599318
 11
81.3046610073
 21
474.8557197048
  0
LINE
  5
685
100
AcDbEntity
  8
0
100
AcDbLine
 62
7
  6
CONTINUOUS
 10
117.5794949877
 20
500.5280262193
 11
87.4199768527
 21
500.5280262193
  0
LINE
  5
686
100
AcDbEntity
  8
0
100
AcDbLine
 62
7
  6
CONTINUOUS
 10
411.2604587178
 20
500.5280262193
 11
437.9199768527
 21
500.5280262193
  0
LINE
  5
687
100
AcDbEntity
  8
0
100
AcDbLine
 62
7
  6
CONTINUOUS
 10
396.9136936168
 20
503.387010068
 11
131.9349624354
 21
503.387010068
  0
LINE
  5
688
100
AcDbEntity
  8
KONSTRUKTIONSELEMENTE
100
AcDbLine
 62
7
  6
CONTINUOUS
 10
170.2287728566
 20
616.8159342114
 11
169.4958292038
 21
617.6146394709
  0
LINE
  5
689
100
AcDbEntity
  8
KONSTRUKTIONSELEMENTE
100
AcDbLine
 62
7
  6
CONTINUOUS
 10
176.1986521783
 20
626.6088536999
 11
176.7761336397
 21
625.9498946131
  0
LINE
  5
68A
100
AcDbEntity
  8
KONSTRUKTIONSELEMENTE
100
AcDbLine
 62
7
  6
CONTINUOUS
 10
177.8851504818
 20
626.5265935326
 11
177.209507239
 21
627.37432195
  0
LINE
  5
68B
100
AcDbEntity
  8
KONSTRUKTIONSELEMENTE
100
AcDbLine
 62
7
  6
CONTINUOUS
 10
208.1974973009
 20
600.2832782731
 11
208.9229455342
 21
599.3003158415
  0
LINE
  5
68C
100
AcDbEntity
  8
KONSTRUKTIONSELEMENTE
100
AcDbLine
 62
7
  6
CONTINUOUS
 10
217.4680156922
 20
604.2194634166
 11
216.7425671049
 21
605.2024306038
  0
LINE
  5
68D
100
AcDbEntity
  8
KONSTRUKTIONSELEMENTE
100
AcDbLine
 62
7
  6
CONTINUOUS
 10
213.108817717
 20
600.288668132
 11
213.3566011202
 21
599.8918274669
  0
LINE
  5
68E
100
AcDbEntity
  8
KONSTRUKTIONSELEMENTE
100
AcDbLine
 62
7
  6
CONTINUOUS
 10
211.6908770997
 20
604.3485050522
 11
212.1864439063
 21
603.554823722
  0
LINE
  5
68F
100
AcDbEntity
  8
KONSTRUKTIONSELEMENTE
100
AcDbLine
 62
7
  6
CONTINUOUS
 10
212.7507717446
 20
604.4399210691
 11
212.5029879316
 21
604.8367664849
  0
LINE
  5
690
100
AcDbEntity
  8
KONSTRUKTIONSELEMENTE
100
AcDbLine
 62
7
  6
CONTINUOUS
 10
205.3065020238
 20
616.0669811184
 11
207.887408585
 21
611.7845844387
  0
LINE
  5
691
100
AcDbEntity
  8
KONSTRUKTIONSELEMENTE
100
AcDbLine
 62
7
  6
CONTINUOUS
 10
208.5326352253
 20
610.7139852688
 11
209.6080137796
 21
608.9296519576
  0
LINE
  5
692
100
AcDbEntity
  8
KONSTRUKTIONSELEMENTE
100
AcDbLine
 62
7
  6
CONTINUOUS
 10
369.5462135904
 20
345.8703618919
 11
368.90098695
 21
346.9409610618
  0
LINE
  5
693
100
AcDbEntity
  8
KONSTRUKTIONSELEMENTE
100
AcDbLine
 62
7
  6
CONTINUOUS
 10
210.7013917802
 20
609.5886068995
 11
209.6260132259
 21
611.3729402108
  0
LINE
  5
694
100
AcDbEntity
  8
KONSTRUKTIONSELEMENTE
100
AcDbLine
 62
7
  6
CONTINUOUS
 10
208.9807865856
 20
612.4435393807
 11
207.1526452585
 21
615.4769023341
  0
LINE
  5
695
100
AcDbEntity
  8
KONSTRUKTIONSELEMENTE
100
AcDbLine
 62
7
  6
CONTINUOUS
 10
214.5462135904
 20
614.3382370651
 11
213.90098695
 21
615.408836235
  0
LINE
  5
696
100
AcDbEntity
  8
BEZUGSACHSEN
100
AcDbLine
 62
7
  6
CONTINUOUS
 10
385.221247042
 20
331.6530724814
 11
363.5706119473
 21
369.1530724814
  0
LINE
  5
697
100
AcDbEntity
  8
BEZUGSACHSEN
100
AcDbLine
 62
7
  6
CONTINUOUS
 10
230.221247042
 20
600.1209476545
 11
208.5706119473
 21
637.6209476545
  0
LINE
  5
698
100
AcDbEntity
  8
KONSTRUKTIONSELEMENTE
100
AcDbLine
 62
7
  6
CONTINUOUS
 10
334.6635453144
 20
354.1872259412
 11
334.3575732171
 21
355.2271860696
  0
LINE
  5
699
100
AcDbEntity
  8
KONSTRUKTIONSELEMENTE
100
AcDbLine
 62
7
  6
CONTINUOUS
 10
333.2485563749
 20
354.6504871501
 11
333.4563669658
 21
353.7992958234
  0
LINE
  5
69A
100
AcDbEntity
  8
KONSTRUKTIONSELEMENTE
100
AcDbLine
 62
7
  6
CONTINUOUS
 10
325.8577957715
 20
346.3321054643
 11
325.6668499176
 21
347.5078156259
  0
LINE
  5
69B
100
AcDbEntity
  8
KONSTRUKTIONSELEMENTE
100
AcDbLine
 62
7
  6
CONTINUOUS
 10
315.791336498
 20
338.5460913684
 11
315.8832227213
 21
337.8922937974
  0
LINE
  5
69C
100
AcDbEntity
  8
0
100
AcDbLine
 62
7
  6
CONTINUOUS
 10
325.9199768527
 20
377.7167202873
 11
325.9199768527
 21
428.387010068
  0
LINE
  5
69D
100
AcDbEntity
  8
0
100
AcDbLine
 62
7
  6
CONTINUOUS
 10
325.9199768527
 20
503.387010068
 11
325.9199768527
 21
554.0572998486
  0
LINE
  5
69E
100
AcDbEntity
  8
RUNDUNGEN
100
AcDbLine
 62
7
  6
CONTINUOUS
 10
327.9199768527
 20
428.387010068
 11
327.9199768527
 21
401.5150429477
  0
LINE
  5
69F
100
AcDbEntity
  8
RUNDUNGEN
100
AcDbLine
 62
7
  6
CONTINUOUS
 10
327.9199768527
 20
503.387010068
 11
327.9199768527
 21
530.2589386232
  0
LINE
  5
6A0
100
AcDbEntity
  8
KONSTRUKTIONSELEMENTE
100
AcDbLine
 62
7
  6
CONTINUOUS
 10
324.5828540799
 20
615.2216811717
 11
324.5547618769
 21
614.4660931077
  0
LINE
  5
6A1
100
AcDbEntity
  8
KONSTRUKTIONSELEMENTE
100
AcDbLine
 62
7
  6
CONTINUOUS
 10
324.5828540799
 20
346.7538059985
 11
324.5547618769
 21
345.9982179345
  0
LINE
  5
6A2
100
AcDbEntity
  8
KONSTRUKTIONSELEMENTE
100
AcDbLine
 62
7
  6
CONTINUOUS
 10
333.4563669658
 20
622.2671709965
 11
333.3811784995
 21
621.5086312516
  0
LINE
  5
6A3
100
AcDbEntity
  8
KONSTRUKTIONSELEMENTE
100
AcDbLine
 62
7
  6
CONTINUOUS
 10
352.8105421793
 20
627.1222465707
 11
351.4919092795
 21
618.8311736476
  0
LINE
  5
6A4
100
AcDbEntity
  8
KONSTRUKTIONSELEMENTE
100
AcDbLine
 62
7
  6
CONTINUOUS
 10
352.7398546458
 20
619.3496457489
 11
354.3986141708
 21
628.6700148142
  0
LINE
  5
6A5
100
AcDbEntity
  8
0
100
AcDbLine
 62
7
  6
CONTINUOUS
 10
279.1699758991
 20
314.9721163216
 11
278.9199768527
 21
313.9508398476
  0
LINE
  5
6A6
100
AcDbEntity
  8
0
100
AcDbLine
 62
7
  6
CONTINUOUS
 10
265.0449778064
 20
288.9508398476
 11
264.7949758991
 21
288.1848824921
  0
LINE
  5
6A7
100
AcDbEntity
  8
KONSTRUKTIONSELEMENTE
100
AcDbLine
 62
7
  6
CONTINUOUS
 10
213.5091756601
 20
337.0829955067
 11
212.9269457895
 21
336.4054577185
  0
LINE
  5
6A8
100
AcDbEntity
  8
KONSTRUKTIONSELEMENTE
100
AcDbLine
 62
7
  6
CONTINUOUS
 10
216.589992565
 20
331.0755122176
 11
217.1722224356
 21
331.7530500059
  0
LINE
  5
6A9
100
AcDbEntity
  8
KONSTRUKTIONSELEMENTE
100
AcDbLine
 62
7
  6
CONTINUOUS
 10
209.3591084356
 20
335.6795146034
 11
210.1533173837
 21
336.3753356078
  0
LINE
  5
6AA
100
AcDbEntity
  8
KONSTRUKTIONSELEMENTE
100
AcDbLine
 62
7
  6
CONTINUOUS
 10
197.944417369
 20
349.5459805289
 11
204.3468161151
 21
354.9764476577
  0
LINE
  5
6AB
100
AcDbEntity
  8
KONSTRUKTIONSELEMENTE
100
AcDbLine
 62
7
  6
CONTINUOUS
 10
158.074369691
 20
339.0643706758
 11
158.5704386505
 21
339.3939222371
  0
LINE
  5
6AC
100
AcDbEntity
  8
KONSTRUKTIONSELEMENTE
100
AcDbLine
 62
7
  6
CONTINUOUS
 10
173.3571885618
 20
359.5411562966
 11
168.9211211932
 21
357.2343606184
  0
LINE
  5
6AD
100
AcDbEntity
  8
KONSTRUKTIONSELEMENTE
100
AcDbLine
 62
7
  6
CONTINUOUS
 10
170.6191070745
 20
356.6784467277
 11
173.946157601
 21
358.4085434864
  0
LINE
  5
6AE
100
AcDbEntity
  8
KONSTRUKTIONSELEMENTE
100
AcDbLine
 62
7
  6
CONTINUOUS
 10
177.3818108104
 20
351.8016345017
 11
174.0547602839
 21
350.071537743
  0
LINE
  5
6AF
100
AcDbEntity
  8
KONSTRUKTIONSELEMENTE
100
AcDbLine
 62
7
  6
CONTINUOUS
 10
173.5347125496
 20
348.3622258811
 11
177.9707799183
 21
350.6690215593
  0
LINE
  5
6B0
100
AcDbEntity
  8
0
100
AcDbLine
 62
7
  6
CONTINUOUS
 10
200.9199768527
 20
507.387010068
 11
202.9199768527
 21
507.387010068
  0
LINE
  5
6B1
100
AcDbEntity
  8
0
100
AcDbLine
 62
7
  6
CONTINUOUS
 10
325.9199768527
 20
507.387010068
 11
327.9199768527
 21
507.387010068
  0
LINE
  5
6B2
100
AcDbEntity
  8
0
100
AcDbLine
 62
7
  6
CONTINUOUS
 10
437.9199768527
 20
507.387010068
 11
475.9199768527
 21
507.387010068
  0
LINE
  5
6B3
100
AcDbEntity
  8
KONSTRUKTIONSELEMENTE
100
AcDbLine
 62
7
  6
CONTINUOUS
 10
159.7371187644
 20
615.4882743052
 11
165.0474766874
 21
611.5762482256
  0
LINE
  5
6B4
100
AcDbEntity
  8
KONSTRUKTIONSELEMENTE
100
AcDbLine
 62
7
  6
CONTINUOUS
 10
165.7888690681
 20
612.5826471664
 11
160.4785111451
 21
616.4946732459
  0
LINE
  5
6B5
100
AcDbEntity
  8
KONSTRUKTIONSELEMENTE
100
AcDbLine
 62
7
  6
CONTINUOUS
 10
214.3806912908
 20
600.3983673523
 11
213.6731451455
 21
601.1737702299
  0
LINE
  5
6B6
100
AcDbEntity
  8
KONSTRUKTIONSELEMENTE
100
AcDbLine
 62
7
  6
CONTINUOUS
 10
212.5029879316
 20
604.8367664849
 11
211.795442196
 21
605.6121646117
  0
LINE
  5
6B7
100
AcDbEntity
  8
KONSTRUKTIONSELEMENTE
100
AcDbLine
 62
7
  6
CONTINUOUS
 10
215.7184773441
 20
604.6958859676
 11
216.4260230796
 21
603.9204878408
  0
LINE
  5
6B8
100
AcDbEntity
  8
KONSTRUKTIONSELEMENTE
100
AcDbLine
 62
7
  6
CONTINUOUS
 10
364.2215871917
 20
332.3219477473
 11
363.9379993141
 21
333.1339122808
  0
LINE
  5
6B9
100
AcDbEntity
  8
KONSTRUKTIONSELEMENTE
100
AcDbLine
 62
7
  6
CONTINUOUS
 10
367.1864439063
 20
335.0869485488
 11
367.4700321936
 21
334.2749792645
  0
LINE
  5
6BA
100
AcDbEntity
  8
KONSTRUKTIONSELEMENTE
100
AcDbLine
 62
7
  6
CONTINUOUS
 10
368.6731451455
 20
332.7058950567
 11
368.3895572679
 21
333.5178595903
  0
LINE
  5
6BB
100
AcDbEntity
  8
KONSTRUKTIONSELEMENTE
100
AcDbLine
 62
7
  6
CONTINUOUS
 10
371.4260230796
 20
335.4526126677
 11
371.709611367
 21
334.6406433833
  0
LINE
  5
6BC
100
AcDbEntity
  8
KONSTRUKTIONSELEMENTE
100
AcDbLine
 62
7
  6
CONTINUOUS
 10
362.896006553
 20
332.8349366922
 11
363.1974973009
 21
331.8154030999
  0
LINE
  5
6BD
100
AcDbEntity
  8
KONSTRUKTIONSELEMENTE
100
AcDbLine
 62
7
  6
CONTINUOUS
 10
334.6865184235
 20
353.2399172624
 11
334.6635453144
 21
354.1872259412
  0
LINE
  5
6BE
100
AcDbEntity
  8
KONSTRUKTIONSELEMENTE
100
AcDbLine
 62
7
  6
CONTINUOUS
 10
334.6865184235
 20
621.7077924356
 11
334.6635453144
 21
622.6551011144
  0
LINE
  5
6BF
100
AcDbEntity
  8
KONSTRUKTIONSELEMENTE
100
AcDbLine
 62
7
  6
CONTINUOUS
 10
333.4563669658
 20
353.7992958234
 11
333.3811784995
 21
353.0407560785
  0
LINE
  5
6C0
100
AcDbEntity
  8
KONSTRUKTIONSELEMENTE
100
AcDbLine
 62
7
  6
CONTINUOUS
 10
362.9110602772
 20
603.6042834732
 11
362.7885927203
 21
602.5481882216
  0
LINE
  5
6C1
100
AcDbEntity
  8
KONSTRUKTIONSELEMENTE
100
AcDbLine
 62
7
  6
CONTINUOUS
 10
325.7061379199
 20
345.4087840588
 11
325.8577957715
 21
346.3321054643
  0
LINE
  5
6C2
100
AcDbEntity
  8
KONSTRUKTIONSELEMENTE
100
AcDbLine
 62
7
  6
CONTINUOUS
 10
363.8663899557
 20
602.4320399417
 11
364.0067595263
 21
603.2805756328
  0
LINE
  5
6C3
100
AcDbEntity
  8
KONSTRUKTIONSELEMENTE
100
AcDbLine
 62
7
  6
CONTINUOUS
 10
367.541641552
 20
601.9126019499
 11
367.4012715717
 21
601.0640710096
  0
LINE
  5
6C4
100
AcDbEntity
  8
KONSTRUKTIONSELEMENTE
100
AcDbLine
 62
7
  6
CONTINUOUS
 10
368.3179479095
 20
602.8159872512
 11
368.4583174802
 21
603.6645229423
  0
LINE
  5
6C5
100
AcDbEntity
  8
KONSTRUKTIONSELEMENTE
100
AcDbLine
 62
7
  6
CONTINUOUS
 10
371.7812207254
 20
602.2782660688
 11
371.640850745
 21
601.4297351285
  0
LINE
  5
6C6
100
AcDbEntity
  8
KONSTRUKTIONSELEMENTE
100
AcDbLine
 62
7
  6
CONTINUOUS
 10
311.6642370805
 20
338.4850033996
 11
310.7273476533
 21
333.5735638752
  0
LINE
  5
6C7
100
AcDbEntity
  8
KONSTRUKTIONSELEMENTE
100
AcDbLine
 62
7
  6
CONTINUOUS
 10
312.0065570184
 20
334.6020856041
 11
312.748261111
 21
338.4903083657
  0
LINE
  5
6C8
100
AcDbEntity
  8
KONSTRUKTIONSELEMENTE
100
AcDbLine
 62
7
  6
CONTINUOUS
 10
315.8832227213
 20
337.8922937974
 11
315.1415186287
 21
334.0040710358
  0
LINE
  5
6C9
100
AcDbEntity
  8
KONSTRUKTIONSELEMENTE
100
AcDbLine
 62
7
  6
CONTINUOUS
 10
316.3955030386
 20
333.7648652531
 11
317.0591330309
 21
337.2438014853
  0
LINE
  5
6CA
100
AcDbEntity
  8
KONSTRUKTIONSELEMENTE
100
AcDbLine
 62
7
  6
CONTINUOUS
 10
320.550226702
 20
331.699785021
 11
320.7844490588
 21
332.9276449021
  0
LINE
  5
6CB
100
AcDbEntity
  8
KONSTRUKTIONSELEMENTE
100
AcDbLine
 62
7
  6
CONTINUOUS
 10
321.7603755082
 20
338.0437275448
 11
322.0336349989
 21
339.4762311297
  0
LINE
  5
6CC
100
AcDbEntity
  8
0
100
AcDbLine
 62
7
  6
CONTINUOUS
 10
281.2949787601
 20
296.0997762385
 11
280.7949749454
 21
294.8231799307
  0
LINE
  5
6CD
100
AcDbEntity
  8
0
100
AcDbLine
 62
7
  6
CONTINUOUS
 10
281.0449768527
 20
290.9933931532
 11
280.5449787601
 21
289.7167972031
  0
LINE
  5
6CE
100
AcDbEntity
  8
0
100
AcDbLine
 62
7
  6
CONTINUOUS
 10
257.5449778064
 20
296.0997762385
 11
257.0449768527
 21
295.0784997645
  0
LINE
  5
6CF
100
AcDbEntity
  8
0
100
AcDbLine
 62
7
  6
CONTINUOUS
 10
267.9199773296
 20
312.6742440763
 11
268.4199768527
 21
313.6955207291
  0
LINE
  5
6D0
100
AcDbEntity
  8
0
100
AcDbLine
 62
7
  6
CONTINUOUS
 10
279.9199758991
 20
312.6742440763
 11
280.4199768527
 21
313.6955207291
  0
LINE
  5
6D1
100
AcDbEntity
  8
0
100
AcDbLine
 62
7
  6
CONTINUOUS
 10
256.4199768527
 20
317.2699887457
 11
257.1699768527
 21
318.2912652197
  0
LINE
  5
6D2
100
AcDbEntity
  8
KONSTRUKTIONSELEMENTE
100
AcDbLine
 62
7
  6
CONTINUOUS
 10
212.0489230721
 20
331.7293769419
 11
211.2547139756
 21
331.0335559247
  0
LINE
  5
6D3
100
AcDbEntity
  8
KONSTRUKTIONSELEMENTE
100
AcDbLine
 62
7
  6
CONTINUOUS
 10
214.0226453185
 20
336.0817451162
 11
214.6227772213
 21
336.5517233456
  0
LINE
  5
6D4
100
AcDbEntity
  8
KONSTRUKTIONSELEMENTE
100
AcDbLine
 62
7
  6
CONTINUOUS
 10
216.0765233164
 20
332.0767578574
 11
215.47639041
 21
331.6067843276
  0
LINE
  5
6D5
100
AcDbEntity
  8
KONSTRUKTIONSELEMENTE
100
AcDbLine
 62
7
  6
CONTINUOUS
 10
206.3998800243
 20
348.2580608872
 11
205.3065020238
 21
347.5991059452
  0
LINE
  5
6D6
100
AcDbEntity
  8
KONSTRUKTIONSELEMENTE
100
AcDbLine
 62
7
  6
CONTINUOUS
 10
212.4431499563
 20
346.0623546776
 11
208.9807865856
 21
343.9756642075
  0
LINE
  5
6D7
100
AcDbEntity
  8
KONSTRUKTIONSELEMENTE
100
AcDbLine
 62
7
  6
CONTINUOUS
 10
207.887408585
 20
343.3167092655
 11
205.3361935907
 21
341.7791479393
  0
LINE
  5
6D8
100
AcDbEntity
  8
KONSTRUKTIONSELEMENTE
100
AcDbLine
 62
7
  6
CONTINUOUS
 10
205.981420231
 20
340.7085487694
 11
208.5326352253
 21
342.2461100956
  0
LINE
  5
6D9
100
AcDbEntity
  8
KONSTRUKTIONSELEMENTE
100
AcDbLine
 62
7
  6
CONTINUOUS
 10
209.6260132259
 20
342.9050650376
 11
214.5462135904
 21
345.8703618919
  0
LINE
  5
6DA
100
AcDbEntity
  8
KONSTRUKTIONSELEMENTE
100
AcDbLine
 62
7
  6
CONTINUOUS
 10
209.6080137796
 20
340.4617767844
 11
210.7013917802
 21
341.1207317264
  0
LINE
  5
6DB
100
AcDbEntity
  8
KONSTRUKTIONSELEMENTE
100
AcDbLine
 62
7
  6
CONTINUOUS
 10
168.139358103
 20
342.6419774544
 11
168.9762234256
 21
343.0605213033
  0
LINE
  5
6DC
100
AcDbEntity
  8
KONSTRUKTIONSELEMENTE
100
AcDbLine
 62
7
  6
CONTINUOUS
 10
158.8046610073
 20
340.6217821182
 11
157.8515602223
 21
340.1673226994
  0
LINE
  5
6DD
100
AcDbEntity
  8
KONSTRUKTIONSELEMENTE
100
AcDbLine
 62
7
  6
CONTINUOUS
 10
174.3795314753
 20
359.8329702945
 11
173.3571885618
 21
359.5411562966
  0
LINE
  5
6DE
100
AcDbEntity
  8
0
100
AcDbLine
 62
7
  6
CONTINUOUS
 10
125.9199768527
 20
535.1690423707
 11
87.4199768527
 21
535.1690423707
  0
LINE
  5
6DF
100
AcDbEntity
  8
0
100
AcDbLine
 62
7
  6
CONTINUOUS
 10
402.9199768527
 20
535.1690423707
 11
437.9199768527
 21
535.1690423707
  0
LINE
  5
6E0
100
AcDbEntity
  8
KONSTRUKTIONSELEMENTE
100
AcDbLine
 62
7
  6
CONTINUOUS
 10
159.8634606681
 20
607.8272346343
 11
160.4514158509
 21
607.5029886246
  0
LINE
  5
6E1
100
AcDbEntity
  8
KONSTRUKTIONSELEMENTE
100
AcDbLine
 62
7
  6
CONTINUOUS
 10
160.8946356093
 20
608.6909808753
 11
160.3066804266
 21
609.0152268849
  0
LINE
  5
6E2
100
AcDbEntity
  8
KONSTRUKTIONSELEMENTE
100
AcDbLine
 62
7
  6
CONTINUOUS
 10
163.4440792537
 20
620.5202670895
 11
168.7544371767
 21
616.60824101
  0
LINE
  5
6E3
100
AcDbEntity
  8
KONSTRUKTIONSELEMENTE
100
AcDbLine
 62
7
  6
CONTINUOUS
 10
169.4958292038
 20
617.6146394709
 11
164.1854712808
 21
621.5266655504
  0
LINE
  5
6E4
100
AcDbEntity
  8
KONSTRUKTIONSELEMENTE
100
AcDbLine
 62
7
  6
CONTINUOUS
 10
177.209507239
 20
627.37432195
 11
176.4471882271
 21
627.9371638169
  0
LINE
  5
6E5
100
AcDbEntity
  8
KONSTRUKTIONSELEMENTE
100
AcDbLine
 62
7
  6
CONTINUOUS
 10
208.9229455342
 20
599.3003158415
 11
209.6125893117
 21
598.7324772799
  0
LINE
  5
6E6
100
AcDbEntity
  8
KONSTRUKTIONSELEMENTE
100
AcDbLine
 62
7
  6
CONTINUOUS
 10
213.3566011202
 20
599.8918274669
 11
214.0462448235
 21
599.323988899
  0
LINE
  5
6E7
100
AcDbEntity
  8
KONSTRUKTIONSELEMENTE
100
AcDbLine
 62
7
  6
CONTINUOUS
 10
216.7425671049
 20
605.2024306038
 11
216.0529234017
 21
605.7702691717
  0
LINE
  5
6E8
100
AcDbEntity
  8
KONSTRUKTIONSELEMENTE
100
AcDbLine
 62
7
  6
CONTINUOUS
 10
372.7695060119
 20
334.7320594002
 11
372.4680156922
 21
335.7515882434
  0
LINE
  5
6E9
100
AcDbEntity
  8
KONSTRUKTIONSELEMENTE
100
AcDbLine
 62
7
  6
CONTINUOUS
 10
325.8577957715
 20
614.7999806375
 11
325.6668499176
 21
615.9756907991
  0
LINE
  5
6EA
100
AcDbEntity
  8
KONSTRUKTIONSELEMENTE
100
AcDbLine
 62
7
  6
CONTINUOUS
 10
315.791336498
 20
607.0139665415
 11
315.8832227213
 21
606.3601689705
  0
LINE
  5
6EB
100
AcDbEntity
  8
KONSTRUKTIONSELEMENTE
100
AcDbLine
 62
7
  6
CONTINUOUS
 10
362.7885927203
 20
334.0803130484
 11
362.896006553
 21
332.8349366922
  0
LINE
  5
6EC
100
AcDbEntity
  8
KONSTRUKTIONSELEMENTE
100
AcDbLine
 62
7
  6
CONTINUOUS
 10
363.9379993141
 20
333.1339122808
 11
363.8663899557
 21
333.9641647685
  0
LINE
  5
6ED
100
AcDbEntity
  8
KONSTRUKTIONSELEMENTE
100
AcDbLine
 62
7
  6
CONTINUOUS
 10
367.4700321936
 20
334.2749792645
 11
367.541641552
 21
333.4447267768
  0
LINE
  5
6EE
100
AcDbEntity
  8
KONSTRUKTIONSELEMENTE
100
AcDbLine
 62
7
  6
CONTINUOUS
 10
368.3895572679
 20
333.5178595903
 11
368.3179479095
 21
334.348112078
  0
LINE
  5
6EF
100
AcDbEntity
  8
KONSTRUKTIONSELEMENTE
100
AcDbLine
 62
7
  6
CONTINUOUS
 10
371.709611367
 20
334.6406433833
 11
371.7812207254
 21
333.8103908956
  0
LINE
  5
6F0
100
AcDbEntity
  8
KONSTRUKTIONSELEMENTE
100
AcDbLine
 62
7
  6
CONTINUOUS
 10
372.8411153702
 20
333.9018069125
 11
372.7695060119
 21
334.7320594002
  0
LINE
  5
6F1
100
AcDbEntity
  8
KONSTRUKTIONSELEMENTE
100
AcDbLine
 62
7
  6
CONTINUOUS
 10
372.7186478319
 20
601.3135868358
 11
372.8411153702
 21
602.3696820857
  0
LINE
  5
6F2
100
AcDbEntity
  8
KONSTRUKTIONSELEMENTE
100
AcDbLine
 62
7
  6
CONTINUOUS
 10
334.3398206276
 20
352.1003764098
 11
334.6865184235
 21
353.2399172624
  0
LINE
  5
6F3
100
AcDbEntity
  8
0
100
AcDbLine
 62
7
  6
CONTINUOUS
 10
299.2949787601
 20
289.4614780846
 11
299.0449768527
 21
288.6955207291
  0
LINE
  5
6F4
100
AcDbEntity
  8
0
100
AcDbLine
 62
7
  6
CONTINUOUS
 10
289.0449749454
 20
287.6742440763
 11
289.5449787601
 21
288.9508398476
  0
LINE
  5
6F5
100
AcDbEntity
  8
0
100
AcDbLine
 62
7
  6
CONTINUOUS
 10
300.0449787601
 20
287.9295631948
 11
300.5449768527
 21
289.2061589661
  0
LINE
  5
6F6
100
AcDbEntity
  8
KONSTRUKTIONSELEMENTE
100
AcDbLine
 62
7
  6
CONTINUOUS
 10
324.5547618769
 20
345.9982179345
 11
324.231802135
 21
345.2010909348
  0
LINE
  5
6F7
100
AcDbEntity
  8
KONSTRUKTIONSELEMENTE
100
AcDbLine
 62
7
  6
CONTINUOUS
 10
312.0684198167
 20
339.4683525319
 11
311.6642370805
 21
338.4850033996
  0
LINE
  5
6F8
100
AcDbEntity
  8
0
100
AcDbLine
 62
7
  6
CONTINUOUS
 10
288.7949787601
 20
293.0359461012
 11
289.2949768527
 21
294.0572225752
  0
LINE
  5
6F9
100
AcDbEntity
  8
BEZUGSACHSEN
100
AcDbLine
 62
7
  6
CONTINUOUS
 10
320.2693417581
 20
369.1530724814
 11
298.6187066635
 21
331.6530724814
  0
LINE
  5
6FA
100
AcDbEntity
  8
0
100
AcDbLine
 62
7
  6
CONTINUOUS
 10
266.9199768527
 20
313.9508398476
 11
266.4199773296
 21
313.1848824921
  0
LINE
  5
6FB
100
AcDbEntity
  8
0
100
AcDbLine
 62
7
  6
CONTINUOUS
 10
258.5449768527
 20
294.8231799307
 11
259.0449778064
 21
295.5891380015
  0
LINE
  5
6FC
100
AcDbEntity
  8
0
100
AcDbLine
 62
7
  6
CONTINUOUS
 10
278.9199768527
 20
313.9508398476
 11
278.4199758991
 21
313.1848824921
  0
LINE
  5
6FD
100
AcDbEntity
  8
0
100
AcDbLine
 62
7
  6
CONTINUOUS
 10
242.5449763759
 20
292.2699887457
 11
243.2949763759
 21
293.2912652197
  0
LINE
  5
6FE
100
AcDbEntity
  8
0
100
AcDbLine
 62
7
  6
CONTINUOUS
 10
242.5449763759
 20
286.9082866314
 11
243.2949763759
 21
287.9295631948
  0
LINE
  5
6FF
100
AcDbEntity
  8
0
100
AcDbLine
 62
7
  6
CONTINUOUS
 10
253.7949778064
 20
292.2699887457
 11
254.5449778064
 21
293.2912652197
  0
LINE
  5
700
100
AcDbEntity
  8
0
100
AcDbLine
 62
7
  6
CONTINUOUS
 10
255.6699768527
 20
318.5465843382
 11
255.1699766143
 21
318.0359461012
  0
LINE
  5
701
100
AcDbEntity
  8
KONSTRUKTIONSELEMENTE
100
AcDbLine
 62
7
  6
CONTINUOUS
 10
214.3212869017
 20
337.5712521888
 11
213.5091756601
 21
337.0829955067
  0
LINE
  5
702
100
AcDbEntity
  8
KONSTRUKTIONSELEMENTE
100
AcDbLine
 62
7
  6
CONTINUOUS
 10
210.0638055833
 20
337.4131524051
 11
209.039715674
 21
336.9066077562
  0
LINE
  5
703
100
AcDbEntity
  8
KONSTRUKTIONSELEMENTE
100
AcDbLine
 62
7
  6
CONTINUOUS
 10
211.3442253662
 20
329.9957438781
 11
212.3683158337
 21
330.5022837891
  0
LINE
  5
704
100
AcDbEntity
  8
KONSTRUKTIONSELEMENTE
100
AcDbLine
 62
7
  6
CONTINUOUS
 10
215.5659022104
 20
330.5689675303
 11
216.589992565
 21
331.0755122176
  0
LINE
  5
705
100
AcDbEntity
  8
KONSTRUKTIONSELEMENTE
100
AcDbLine
 62
7
  6
CONTINUOUS
 10
168.0719778226
 20
343.9854210128
 11
167.3586779985
 21
343.7346106158
  0
LINE
  5
706
100
AcDbEntity
  8
BEZUGSACHSEN
100
AcDbLine
 62
7
  6
CONTINUOUS
 10
165.2693417581
 20
562.6209476545
 11
208.5706119473
 21
562.6209476545
  0
LINE
  5
707
100
AcDbEntity
  8
BEZUGSACHSEN
100
AcDbLine
 62
7
  6
CONTINUOUS
 10
320.2693417581
 20
562.6209476545
 11
363.5706119473
 21
562.6209476545
  0
LINE
  5
708
100
AcDbEntity
  8
KONSTRUKTIONSELEMENTE
100
AcDbLine
 62
7
  6
CONTINUOUS
 10
166.5976413156
 20
612.2456021132
 11
165.7888690681
 21
612.5826471664
  0
LINE
  5
709
100
AcDbEntity
  8
KONSTRUKTIONSELEMENTE
100
AcDbLine
 62
7
  6
CONTINUOUS
 10
165.0474766874
 20
611.5762482256
 11
166.0275514873
 21
611.1130097596
  0
LINE
  5
70A
100
AcDbEntity
  8
KONSTRUKTIONSELEMENTE
100
AcDbLine
 62
7
  6
CONTINUOUS
 10
215.052432552
 20
600.038093094
 11
214.3806912908
 21
600.3983673523
  0
LINE
  5
70B
100
AcDbEntity
  8
KONSTRUKTIONSELEMENTE
100
AcDbLine
 62
7
  6
CONTINUOUS
 10
215.0467350793
 20
605.0561649255
 11
215.7184773441
 21
604.6958859676
  0
LINE
  5
70C
100
AcDbEntity
  8
KONSTRUKTIONSELEMENTE
100
AcDbLine
 62
7
  6
CONTINUOUS
 10
192.8606473671
 20
620.8744638347
 11
193.9500263564
 21
620.2614765447
  0
LINE
  5
70D
100
AcDbEntity
  8
KONSTRUKTIONSELEMENTE
100
AcDbLine
 62
7
  6
CONTINUOUS
 10
196.4919092795
 20
618.8311736476
 11
197.944417369
 21
618.013855702
  0
LINE
  5
70E
100
AcDbEntity
  8
KONSTRUKTIONSELEMENTE
100
AcDbLine
 62
7
  6
CONTINUOUS
 10
200.4863002922
 20
616.5835528049
 11
201.5756792815
 21
615.9705655149
  0
LINE
  5
70F
100
AcDbEntity
  8
KONSTRUKTIONSELEMENTE
100
AcDbLine
 62
7
  6
CONTINUOUS
 10
175.5344943979
 20
626.982927294
 11
176.1986521783
 21
626.6088536999
  0
LINE
  5
710
100
AcDbEntity
  8
KONSTRUKTIONSELEMENTE
100
AcDbLine
 62
7
  6
CONTINUOUS
 10
210.6187771887
 20
599.4465814877
 11
209.717154408
 21
599.9961368395
  0
LINE
  5
711
100
AcDbEntity
  8
KONSTRUKTIONSELEMENTE
100
AcDbLine
 62
7
  6
CONTINUOUS
 10
210.7892541706
 20
604.8980603911
 11
211.6908770997
 21
604.3485050522
  0
LINE
  5
712
100
AcDbEntity
  8
BEZUGSACHSEN
100
AcDbLine
 62
7
  6
CONTINUOUS
 10
298.6187066635
 20
600.1209476545
 11
320.2693417581
 21
562.6209476545
  0
LINE
  5
713
100
AcDbEntity
  8
KONSTRUKTIONSELEMENTE
100
AcDbLine
 62
7
  6
CONTINUOUS
 10
316.8753606402
 20
607.0192720931
 11
316.6135140375
 21
607.9175804129
  0
LINE
  5
714
100
AcDbEntity
  8
KONSTRUKTIONSELEMENTE
100
AcDbLine
 62
7
  6
CONTINUOUS
 10
362.7885927203
 20
602.5481882216
 11
362.896006553
 21
601.3028118654
  0
LINE
  5
715
100
AcDbEntity
  8
KONSTRUKTIONSELEMENTE
100
AcDbLine
 62
7
  6
CONTINUOUS
 10
363.9379993141
 20
601.601787454
 11
363.8663899557
 21
602.4320399417
  0
LINE
  5
716
100
AcDbEntity
  8
KONSTRUKTIONSELEMENTE
100
AcDbLine
 62
7
  6
CONTINUOUS
 10
367.4700321936
 20
602.7428544376
 11
367.541641552
 21
601.9126019499
  0
LINE
  5
717
100
AcDbEntity
  8
KONSTRUKTIONSELEMENTE
100
AcDbLine
 62
7
  6
CONTINUOUS
 10
368.3895572679
 20
601.9857347635
 11
368.3179479095
 21
602.8159872512
  0
LINE
  5
718
100
AcDbEntity
  8
KONSTRUKTIONSELEMENTE
100
AcDbLine
 62
7
  6
CONTINUOUS
 10
371.709611367
 20
603.1085185565
 11
371.7812207254
 21
602.2782660688
  0
LINE
  5
719
100
AcDbEntity
  8
KONSTRUKTIONSELEMENTE
100
AcDbLine
 62
7
  6
CONTINUOUS
 10
372.8411153702
 20
602.3696820857
 11
372.7695060119
 21
603.1999345734
  0
LINE
  5
71A
100
AcDbEntity
  8
KONSTRUKTIONSELEMENTE
100
AcDbLine
 62
7
  6
CONTINUOUS
 10
362.9110602772
 20
335.1364083
 11
362.7885927203
 21
334.0803130484
  0
LINE
  5
71B
100
AcDbEntity
  8
KONSTRUKTIONSELEMENTE
100
AcDbLine
 62
7
  6
CONTINUOUS
 10
372.7186478319
 20
332.8457116626
 11
372.8411153702
 21
333.9018069125
  0
LINE
  5
71C
100
AcDbEntity
  8
KONSTRUKTIONSELEMENTE
100
AcDbLine
 62
7
  6
CONTINUOUS
 10
352.8105421793
 20
358.6543713976
 11
351.4919092795
 21
350.3632984744
  0
LINE
  5
71D
100
AcDbEntity
  8
KONSTRUKTIONSELEMENTE
100
AcDbLine
 62
7
  6
CONTINUOUS
 10
363.8663899557
 20
333.9641647685
 11
364.0067595263
 21
334.8127004596
  0
LINE
  5
71E
100
AcDbEntity
  8
KONSTRUKTIONSELEMENTE
100
AcDbLine
 62
7
  6
CONTINUOUS
 10
352.7398546458
 20
350.8817705757
 11
354.3986141708
 21
360.202139641
  0
LINE
  5
71F
100
AcDbEntity
  8
KONSTRUKTIONSELEMENTE
100
AcDbLine
 62
7
  6
CONTINUOUS
 10
325.2596133266
 20
344.4439246111
 11
325.7061379199
 21
345.4087840588
  0
LINE
  5
720
100
AcDbEntity
  8
KONSTRUKTIONSELEMENTE
100
AcDbLine
 62
7
  6
CONTINUOUS
 10
333.3811784995
 20
353.0407560785
 11
333.0229931602
 21
352.3748688831
  0
LINE
  5
721
100
AcDbEntity
  8
KONSTRUKTIONSELEMENTE
100
AcDbLine
 62
7
  6
CONTINUOUS
 10
312.748261111
 20
338.4903083657
 11
313.074369691
 21
339.0643706758
  0
LINE
  5
722
100
AcDbEntity
  8
0
100
AcDbLine
 62
7
  6
CONTINUOUS
 10
282.0449787601
 20
294.8231799307
 11
282.5449768527
 21
295.5891380015
  0
LINE
  5
723
100
AcDbEntity
  8
0
100
AcDbLine
 62
7
  6
CONTINUOUS
 10
288.0449787601
 20
294.3125416937
 11
287.5449749454
 21
293.5465843382
  0
LINE
  5
724
100
AcDbEntity
  8
0
100
AcDbLine
 62
7
  6
CONTINUOUS
 10
281.7949768527
 20
289.7167972031
 11
282.5449768527
 21
290.7380740347
  0
LINE
  5
725
100
AcDbEntity
  8
KONSTRUKTIONSELEMENTE
100
AcDbLine
 62
7
  6
CONTINUOUS
 10
319.1854712808
 20
353.0587903772
 11
318.4440792537
 21
352.0523919163
  0
LINE
  5
726
100
AcDbEntity
  8
KONSTRUKTIONSELEMENTE
100
AcDbLine
 62
7
  6
CONTINUOUS
 10
315.4785111451
 20
348.0267980728
 11
314.7371187644
 21
347.020399132
  0
LINE
  5
727
100
AcDbEntity
  8
KONSTRUKTIONSELEMENTE
100
AcDbLine
 62
7
  6
CONTINUOUS
 10
324.231802135
 20
345.2010909348
 11
323.7375405479
 21
344.5301583076
  0
LINE
  5
728
100
AcDbEntity
  8
KONSTRUKTIONSELEMENTE
100
AcDbLine
 62
7
  6
CONTINUOUS
 10
324.7653517394
 20
343.7729919839
 11
325.2596133266
 21
344.4439246111
  0
LINE
  5
729
100
AcDbEntity
  8
0
100
AcDbLine
 62
7
  6
CONTINUOUS
 10
241.7949763759
 20
293.5465843382
 11
241.2949768527
 21
293.0359461012
  0
LINE
  5
72A
100
AcDbEntity
  8
0
100
AcDbLine
 62
7
  6
CONTINUOUS
 10
241.7949763759
 20
288.1848824921
 11
241.2949768527
 21
287.6742440763
  0
LINE
  5
72B
100
AcDbEntity
  8
0
100
AcDbLine
 62
7
  6
CONTINUOUS
 10
266.9199768527
 20
311.6529675129
 11
267.9199773296
 21
312.6742440763
  0
LINE
  5
72C
100
AcDbEntity
  8
0
100
AcDbLine
 62
7
  6
CONTINUOUS
 10
253.0449778064
 20
293.5465843382
 11
252.5449768527
 21
293.0359461012
  0
LINE
  5
72D
100
AcDbEntity
  8
0
100
AcDbLine
 62
7
  6
CONTINUOUS
 10
258.5449768527
 20
297.1210527125
 11
257.5449778064
 21
296.0997762385
  0
LINE
  5
72E
100
AcDbEntity
  8
0
100
AcDbLine
 62
7
  6
CONTINUOUS
 10
278.9199768527
 20
311.6529675129
 11
279.9199758991
 21
312.6742440763
  0
LINE
  5
72F
100
AcDbEntity
  8
KONSTRUKTIONSELEMENTE
100
AcDbLine
 62
7
  6
CONTINUOUS
 10
155.7273476533
 20
602.0414390484
 11
165.550226702
 21
600.1676601942
  0
LINE
  5
730
100
AcDbEntity
  8
KONSTRUKTIONSELEMENTE
100
AcDbLine
 62
7
  6
CONTINUOUS
 10
165.7844490588
 20
601.3955200752
 11
161.3955030386
 21
602.2327404263
  0
LINE
  5
731
100
AcDbEntity
  8
KONSTRUKTIONSELEMENTE
100
AcDbLine
 62
7
  6
CONTINUOUS
 10
160.1415186287
 20
602.4719462089
 11
157.0065570184
 21
603.0699607773
  0
LINE
  5
732
100
AcDbEntity
  8
KONSTRUKTIONSELEMENTE
100
AcDbLine
 62
7
  6
CONTINUOUS
 10
209.6125893117
 20
598.7324772799
 11
210.7082885793
 21
598.4087694412
  0
LINE
  5
733
100
AcDbEntity
  8
KONSTRUKTIONSELEMENTE
100
AcDbLine
 62
7
  6
CONTINUOUS
 10
214.0462448235
 20
599.323988899
 11
214.9299654235
 21
598.9819930933
  0
LINE
  5
734
100
AcDbEntity
  8
KONSTRUKTIONSELEMENTE
100
AcDbLine
 62
7
  6
CONTINUOUS
 10
206.4795776013
 20
624.6855974293
 11
204.8455091173
 21
625.6050783643
  0
LINE
  5
735
100
AcDbEntity
  8
KONSTRUKTIONSELEMENTE
100
AcDbLine
 62
7
  6
CONTINUOUS
 10
199.3986141708
 20
628.6700148142
 11
197.7645456868
 21
629.5894957491
  0
LINE
  5
736
100
AcDbEntity
  8
KONSTRUKTIONSELEMENTE
100
AcDbLine
 62
7
  6
CONTINUOUS
 10
324.3160789842
 20
615.935730123
 11
324.5828540799
 21
615.2216811717
  0
LINE
  5
737
100
AcDbEntity
  8
KONSTRUKTIONSELEMENTE
100
AcDbLine
 62
7
  6
CONTINUOUS
 10
334.6635453144
 20
622.6551011144
 11
334.3575732171
 21
623.6950612428
  0
LINE
  5
738
100
AcDbEntity
  8
KONSTRUKTIONSELEMENTE
100
AcDbLine
 62
7
  6
CONTINUOUS
 10
333.2485563749
 20
623.1183623233
 11
333.4563669658
 21
622.2671709965
  0
LINE
  5
739
100
AcDbEntity
  8
0
100
AcDbLine
 62
7
  6
CONTINUOUS
 10
402.9199768527
 20
428.8733580836
 11
402.9199768527
 21
396.6049777652
  0
LINE
  5
73A
100
AcDbEntity
  8
RUNDUNGEN
100
AcDbLine
 62
7
  6
CONTINUOUS
 10
402.9199768527
 20
402.2662620245
 11
402.9199768527
 21
425.5847096573
  0
LINE
  5
73B
100
AcDbEntity
  8
RUNDUNGEN
100
AcDbLine
 62
7
  6
CONTINUOUS
 10
402.9199768527
 20
506.1893104787
 11
402.9199768527
 21
529.5077581114
  0
LINE
  5
73C
100
AcDbEntity
  8
0
100
AcDbLine
 62
7
  6
CONTINUOUS
 10
402.9199768527
 20
502.9006620523
 11
402.9199768527
 21
535.1690423707
  0
LINE
  5
73D
100
AcDbEntity
  8
KONSTRUKTIONSELEMENTE
100
AcDbLine
 62
7
  6
CONTINUOUS
 10
367.541641552
 20
333.4447267768
 11
367.4012715717
 21
332.5961958364
  0
LINE
  5
73E
100
AcDbEntity
  8
KONSTRUKTIONSELEMENTE
100
AcDbLine
 62
7
  6
CONTINUOUS
 10
368.3179479095
 20
334.348112078
 11
368.4583174802
 21
335.1966477691
  0
LINE
  5
73F
100
AcDbEntity
  8
KONSTRUKTIONSELEMENTE
100
AcDbLine
 62
7
  6
CONTINUOUS
 10
371.7812207254
 20
333.8103908956
 11
371.640850745
 21
332.9618599553
  0
LINE
  5
740
100
AcDbEntity
  8
KONSTRUKTIONSELEMENTE
100
AcDbLine
 62
7
  6
CONTINUOUS
 10
364.0067595263
 20
334.8127004596
 11
364.3591084356
 21
335.6795146034
  0
LINE
  5
741
100
AcDbEntity
  8
KONSTRUKTIONSELEMENTE
100
AcDbLine
 62
7
  6
CONTINUOUS
 10
352.7645456868
 20
361.1216205759
 11
347.8606473671
 21
352.4065886615
  0
LINE
  5
742
100
AcDbEntity
  8
KONSTRUKTIONSELEMENTE
100
AcDbLine
 62
7
  6
CONTINUOUS
 10
348.9500263564
 20
351.7936013716
 11
352.8105421793
 21
358.6543713976
  0
LINE
  5
743
100
AcDbEntity
  8
KONSTRUKTIONSELEMENTE
100
AcDbLine
 62
7
  6
CONTINUOUS
 10
359.3468161151
 20
354.9764476577
 11
355.4863002922
 21
348.1156776317
  0
LINE
  5
744
100
AcDbEntity
  8
KONSTRUKTIONSELEMENTE
100
AcDbLine
 62
7
  6
CONTINUOUS
 10
356.5756792815
 20
347.5026903417
 11
361.4795776013
 21
356.2177222562
  0
LINE
  5
745
100
AcDbEntity
  8
0
100
AcDbLine
 62
7
  6
CONTINUOUS
 10
299.0449768527
 20
288.6955207291
 11
298.5449787601
 21
287.9295631948
  0
LINE
  5
746
100
AcDbEntity
  8
KONSTRUKTIONSELEMENTE
100
AcDbLine
 62
7
  6
CONTINUOUS
 10
333.79679981
 20
351.3383731771
 11
334.3398206276
 21
352.1003764098
  0
LINE
  5
747
100
AcDbEntity
  8
0
100
AcDbLine
 62
7
  6
CONTINUOUS
 10
288.2949749454
 20
288.9508398476
 11
287.5449749454
 21
287.9295631948
  0
LINE
  5
748
100
AcDbEntity
  8
0
100
AcDbLine
 62
7
  6
CONTINUOUS
 10
299.2949787601
 20
286.9082866314
 11
300.0449787601
 21
287.9295631948
  0
LINE
  5
749
100
AcDbEntity
  8
0
100
AcDbLine
 62
7
  6
CONTINUOUS
 10
265.2949768527
 20
286.6529675129
 11
266.2949758991
 21
287.6742440763
  0
LINE
  5
74A
100
AcDbEntity
  8
0
100
AcDbLine
 62
7
  6
CONTINUOUS
 10
282.0449787601
 20
296.865733594
 11
281.2949787601
 21
296.0997762385
  0
LINE
  5
74B
100
AcDbEntity
  8
0
100
AcDbLine
 62
7
  6
CONTINUOUS
 10
288.0449787601
 20
292.2699887457
 11
288.7949787601
 21
293.0359461012
  0
LINE
  5
74C
100
AcDbEntity
  8
KONSTRUKTIONSELEMENTE
100
AcDbLine
 62
7
  6
CONTINUOUS
 10
323.9762234256
 20
343.0605213033
 11
324.7653517394
 21
343.7729919839
  0
LINE
  5
74D
100
AcDbEntity
  8
KONSTRUKTIONSELEMENTE
100
AcDbLine
 62
7
  6
CONTINUOUS
 10
333.0229931602
 20
352.3748688831
 11
332.3818108104
 21
351.8016345017
  0
LINE
  5
74E
100
AcDbEntity
  8
KONSTRUKTIONSELEMENTE
100
AcDbLine
 62
7
  6
CONTINUOUS
 10
312.8515602223
 20
340.1673226994
 11
312.0684198167
 21
339.4683525319
  0
LINE
  5
74F
100
AcDbEntity
  8
KONSTRUKTIONSELEMENTE
100
AcDbLine
 62
7
  6
CONTINUOUS
 10
323.7375405479
 20
344.5301583076
 11
323.0719778226
 21
343.9854210128
  0
LINE
  5
750
100
AcDbEntity
  8
KONSTRUKTIONSELEMENTE
100
AcDbLine
 62
7
  6
CONTINUOUS
 10
332.9707799183
 20
350.6690215593
 11
333.79679981
 21
351.3383731771
  0
LINE
  5
751
100
AcDbEntity
  8
0
100
AcDbLine
 62
7
  6
CONTINUOUS
 10
241.5449773296
 20
286.1423292088
 11
242.5449763759
 21
286.9082866314
  0
LINE
  5
752
100
AcDbEntity
  8
0
100
AcDbLine
 62
7
  6
CONTINUOUS
 10
252.7949758991
 20
291.5040313902
 11
253.7949778064
 21
292.2699887457
  0
LINE
  5
753
100
AcDbEntity
  8
0
100
AcDbLine
 62
7
  6
CONTINUOUS
 10
266.4199773296
 20
313.1848824921
 11
265.6699773296
 21
312.6742440763
  0
LINE
  5
754
100
AcDbEntity
  8
0
100
AcDbLine
 62
7
  6
CONTINUOUS
 10
278.4199758991
 20
313.1848824921
 11
277.6699758991
 21
312.6742440763
  0
LINE
  5
755
100
AcDbEntity
  8
0
100
AcDbLine
 62
7
  6
CONTINUOUS
 10
259.0449778064
 20
295.5891380015
 11
259.7949778064
 21
296.0997762385
  0
LINE
  5
756
100
AcDbEntity
  8
KONSTRUKTIONSELEMENTE
100
AcDbLine
 62
7
  6
CONTINUOUS
 10
313.074369691
 20
339.0643706758
 11
313.5704386505
 21
339.3939222371
  0
LINE
  5
757
100
AcDbEntity
  8
KONSTRUKTIONSELEMENTE
100
AcDbLine
 62
7
  6
CONTINUOUS
 10
328.3571885618
 20
359.5411562966
 11
323.9211211932
 21
357.2343606184
  0
LINE
  5
758
100
AcDbEntity
  8
KONSTRUKTIONSELEMENTE
100
AcDbLine
 62
7
  6
CONTINUOUS
 10
325.6191070745
 20
356.6784467277
 11
328.946157601
 21
358.4085434864
  0
LINE
  5
759
100
AcDbEntity
  8
KONSTRUKTIONSELEMENTE
100
AcDbLine
 62
7
  6
CONTINUOUS
 10
332.3818108104
 20
351.8016345017
 11
329.0547602839
 21
350.071537743
  0
LINE
  5
75A
100
AcDbEntity
  8
KONSTRUKTIONSELEMENTE
100
AcDbLine
 62
7
  6
CONTINUOUS
 10
328.5347125496
 20
348.3622258811
 11
332.9707799183
 21
350.6690215593
  0
LINE
  5
75B
100
AcDbEntity
  8
0
100
AcDbLine
 62
7
  6
CONTINUOUS
 10
255.4199770911
 20
316.7593505087
 11
256.4199768527
 21
317.2699887457
  0
LINE
  5
75C
100
AcDbEntity
  8
0
100
AcDbLine
 62
7
  6
CONTINUOUS
 10
265.9199763759
 20
311.1423292088
 11
266.9199768527
 21
311.6529675129
  0
LINE
  5
75D
100
AcDbEntity
  8
KONSTRUKTIONSELEMENTE
100
AcDbLine
 62
7
  6
CONTINUOUS
 10
323.139358103
 20
342.6419774544
 11
323.9762234256
 21
343.0605213033
  0
LINE
  5
75E
100
AcDbEntity
  8
KONSTRUKTIONSELEMENTE
100
AcDbLine
 62
7
  6
CONTINUOUS
 10
313.8046610073
 20
340.6217821182
 11
312.8515602223
 21
340.1673226994
  0
LINE
  5
75F
100
AcDbEntity
  8
KONSTRUKTIONSELEMENTE
100
AcDbLine
 62
7
  6
CONTINUOUS
 10
323.0719778226
 20
343.9854210128
 11
322.3586779985
 21
343.7346106158
  0
LINE
  5
760
100
AcDbEntity
  8
0
100
AcDbLine
 62
7
  6
CONTINUOUS
 10
255.1699766143
 20
318.0359461012
 11
254.4199766143
 21
317.7806269827
  0
LINE
  5
761
100
AcDbEntity
  8
KONSTRUKTIONSELEMENTE
100
AcDbLine
 62
7
  6
CONTINUOUS
 10
329.3795314753
 20
359.8329702945
 11
328.3571885618
 21
359.5411562966
  0
LINE
  5
762
100
AcDbEntity
  8
KONSTRUKTIONSELEMENTE
100
AcDbLine
 62
7
  6
CONTINUOUS
 10
322.0336349989
 20
607.9441063029
 11
316.8753606402
 21
607.0192720931
  0
LINE
  5
763
100
AcDbEntity
  8
KONSTRUKTIONSELEMENTE
100
AcDbLine
 62
7
  6
CONTINUOUS
 10
317.0591330309
 20
605.7116766584
 11
321.7603755082
 21
606.5116027179
  0
LINE
  5
764
100
AcDbEntity
  8
KONSTRUKTIONSELEMENTE
100
AcDbLine
 62
7
  6
CONTINUOUS
 10
321.9598897818
 20
610.9436984946
 11
323.139358103
 21
611.1098526276
  0
LINE
  5
765
100
AcDbEntity
  8
KONSTRUKTIONSELEMENTE
100
AcDbLine
 62
7
  6
CONTINUOUS
 10
313.5704386505
 20
607.8617974103
 11
314.2364678777
 21
607.9468376373
  0
LINE
  5
766
100
AcDbEntity
  8
KONSTRUKTIONSELEMENTE
100
AcDbLine
 62
7
  6
CONTINUOUS
 10
365.7082885793
 20
598.4087694412
 11
366.3442253662
 21
598.4636190513
  0
LINE
  5
767
100
AcDbEntity
  8
KONSTRUKTIONSELEMENTE
100
AcDbLine
 62
7
  6
CONTINUOUS
 10
369.9299654235
 20
598.9819930933
 11
370.5659022104
 21
599.0368427034
  0
LINE
  5
768
100
AcDbEntity
  8
KONSTRUKTIONSELEMENTE
100
AcDbLine
 62
7
  6
CONTINUOUS
 10
366.2547139756
 20
599.5014310979
 11
365.6187771887
 21
599.4465814877
  0
LINE
  5
769
100
AcDbEntity
  8
KONSTRUKTIONSELEMENTE
100
AcDbLine
 62
7
  6
CONTINUOUS
 10
370.47639041
 20
600.0746595008
 11
370.052432552
 21
600.038093094
  0
LINE
  5
76A
100
AcDbEntity
  8
KONSTRUKTIONSELEMENTE
100
AcDbLine
 62
7
  6
CONTINUOUS
 10
369.6227772213
 20
605.0195985187
 11
370.0467350793
 21
605.0561649255
  0
LINE
  5
76B
100
AcDbEntity
  8
KONSTRUKTIONSELEMENTE
100
AcDbLine
 62
7
  6
CONTINUOUS
 10
365.1533173837
 20
604.843210781
 11
365.7892541706
 21
604.8980603911
  0
LINE
  5
76C
100
AcDbEntity
  8
KONSTRUKTIONSELEMENTE
100
AcDbLine
 62
7
  6
CONTINUOUS
 10
369.9572236886
 20
606.0939769721
 11
369.3212869017
 21
606.0391273619
  0
LINE
  5
76D
100
AcDbEntity
  8
KONSTRUKTIONSELEMENTE
100
AcDbLine
 62
7
  6
CONTINUOUS
 10
365.6997423702
 20
605.9358771884
 11
365.0638055833
 21
605.8810275783
  0
LINE
  5
76E
100
AcDbEntity
  8
KONSTRUKTIONSELEMENTE
100
AcDbLine
 62
7
  6
CONTINUOUS
 10
207.1526452585
 20
615.4769023341
 11
212.4431499563
 21
614.5302298508
  0
LINE
  5
76F
100
AcDbEntity
  8
KONSTRUKTIONSELEMENTE
100
AcDbLine
 62
7
  6
CONTINUOUS
 10
166.0275514873
 20
611.1130097596
 11
166.9598897818
 21
610.9436984946
  0
LINE
  5
770
100
AcDbEntity
  8
KONSTRUKTIONSELEMENTE
100
AcDbLine
 62
7
  6
CONTINUOUS
 10
159.2364678777
 20
607.9468376373
 11
159.8634606681
 21
607.8272346343
  0
LINE
  5
771
100
AcDbEntity
  8
KONSTRUKTIONSELEMENTE
100
AcDbLine
 62
7
  6
CONTINUOUS
 10
160.3066804266
 20
609.0152268849
 11
159.4706902345
 21
609.1746975184
  0
LINE
  5
772
100
AcDbEntity
  8
KONSTRUKTIONSELEMENTE
100
AcDbLine
 62
7
  6
CONTINUOUS
 10
211.795442196
 20
605.6121646117
 11
210.6997423702
 21
605.9358771884
  0
LINE
  5
773
100
AcDbEntity
  8
KONSTRUKTIONSELEMENTE
100
AcDbLine
 62
7
  6
CONTINUOUS
 10
216.0529234017
 20
605.7702691717
 11
214.9572236886
 21
606.0939769721
  0
LINE
  5
774
100
AcDbEntity
  8
KONSTRUKTIONSELEMENTE
100
AcDbLine
 62
7
  6
CONTINUOUS
 10
176.4471882271
 20
627.9371638169
 11
175.3151983446
 21
628.307773444
  0
LINE
  5
775
100
AcDbEntity
  8
KONSTRUKTIONSELEMENTE
100
AcDbLine
 62
7
  6
CONTINUOUS
 10
316.6135140375
 20
607.9175804129
 11
315.8946356093
 21
608.6909808753
  0
LINE
  5
776
100
AcDbEntity
  8
KONSTRUKTIONSELEMENTE
100
AcDbLine
 62
7
  6
CONTINUOUS
 10
315.4514158509
 20
607.5029886246
 11
315.791336498
 21
607.0139665415
  0
LINE
  5
777
100
AcDbEntity
  8
KONSTRUKTIONSELEMENTE
100
AcDbLine
 62
7
  6
CONTINUOUS
 10
325.6668499176
 20
615.9756907991
 11
325.2287728566
 21
616.8159342114
  0
LINE
  5
778
100
AcDbEntity
  8
KONSTRUKTIONSELEMENTE
100
AcDbLine
 62
7
  6
CONTINUOUS
 10
323.9211211932
 20
625.7022357915
 11
328.5347125496
 21
616.8301010543
  0
LINE
  5
779
100
AcDbEntity
  8
KONSTRUKTIONSELEMENTE
100
AcDbLine
 62
7
  6
CONTINUOUS
 10
329.0547602839
 20
618.5394129162
 11
325.6191070745
 21
625.1463219009
  0
LINE
  5
77A
100
AcDbEntity
  8
KONSTRUKTIONSELEMENTE
100
AcDbLine
 62
7
  6
CONTINUOUS
 10
331.7761336397
 20
625.9498946131
 11
333.2485563749
 21
623.1183623233
  0
LINE
  5
77B
100
AcDbEntity
  8
KONSTRUKTIONSELEMENTE
100
AcDbLine
 62
7
  6
CONTINUOUS
 10
334.3575732171
 20
623.6950612428
 11
332.8851504818
 21
626.5265935326
  0
LINE
  5
77C
100
AcDbEntity
  8
KONSTRUKTIONSELEMENTE
100
AcDbLine
 62
7
  6
CONTINUOUS
 10
364.2215871917
 20
600.7898229204
 11
363.9379993141
 21
601.601787454
  0
LINE
  5
77D
100
AcDbEntity
  8
KONSTRUKTIONSELEMENTE
100
AcDbLine
 62
7
  6
CONTINUOUS
 10
362.896006553
 20
601.3028118654
 11
363.1974973009
 21
600.2832782731
  0
LINE
  5
77E
100
AcDbEntity
  8
KONSTRUKTIONSELEMENTE
100
AcDbLine
 62
7
  6
CONTINUOUS
 10
367.9269457895
 20
336.4054577185
 11
367.7507717446
 21
335.9720458959
  0
LINE
  5
77F
100
AcDbEntity
  8
KONSTRUKTIONSELEMENTE
100
AcDbLine
 62
7
  6
CONTINUOUS
 10
367.4012715717
 20
332.5961958364
 11
367.0489230721
 21
331.7293769419
  0
LINE
  5
780
100
AcDbEntity
  8
KONSTRUKTIONSELEMENTE
100
AcDbLine
 62
7
  6
CONTINUOUS
 10
367.9326432623
 20
331.387385887
 11
368.108817717
 21
331.8207929589
  0
LINE
  5
781
100
AcDbEntity
  8
KONSTRUKTIONSELEMENTE
100
AcDbLine
 62
7
  6
CONTINUOUS
 10
363.4574857292
 20
336.2290699615
 11
362.9110602772
 21
335.1364083
  0
LINE
  5
782
100
AcDbEntity
  8
KONSTRUKTIONSELEMENTE
100
AcDbLine
 62
7
  6
CONTINUOUS
 10
372.1722224356
 20
331.7530500059
 11
372.7186478319
 21
332.8457116626
  0
LINE
  5
783
100
AcDbEntity
  8
KONSTRUKTIONSELEMENTE
100
AcDbLine
 62
7
  6
CONTINUOUS
 10
368.4583174802
 20
335.1966477691
 11
369.0226453185
 21
336.0817451162
  0
LINE
  5
784
100
AcDbEntity
  8
KONSTRUKTIONSELEMENTE
100
AcDbLine
 62
7
  6
CONTINUOUS
 10
367.3683158337
 20
330.5022837891
 11
367.9326432623
 21
331.387385887
  0
LINE
  5
785
100
AcDbEntity
  8
KONSTRUKTIONSELEMENTE
100
AcDbLine
 62
7
  6
CONTINUOUS
 10
364.039715674
 20
336.9066077562
 11
363.4574857292
 21
336.2290699615
  0
LINE
  5
786
100
AcDbEntity
  8
0
100
AcDbLine
 62
7
  6
CONTINUOUS
 10
288.2949749454
 20
286.9082866314
 11
289.0449749454
 21
287.6742440763
  0
LINE
  5
787
100
AcDbEntity
  8
KONSTRUKTIONSELEMENTE
100
AcDbLine
 62
7
  6
CONTINUOUS
 10
359.8455091173
 20
357.1372031911
 11
352.7398546458
 21
350.8817705757
  0
LINE
  5
788
100
AcDbEntity
  8
KONSTRUKTIONSELEMENTE
100
AcDbLine
 62
7
  6
CONTINUOUS
 10
352.944417369
 20
349.5459805289
 11
359.3468161151
 21
354.9764476577
  0
LINE
  5
789
100
AcDbEntity
  8
0
100
AcDbLine
 62
7
  6
CONTINUOUS
 10
282.5449768527
 20
295.5891380015
 11
283.5449787601
 21
296.355095357
  0
LINE
  5
78A
100
AcDbEntity
  8
0
100
AcDbLine
 62
7
  6
CONTINUOUS
 10
282.0449787601
 20
291.7593505087
 11
281.0449768527
 21
290.9933931532
  0
LINE
  5
78B
100
AcDbEntity
  8
0
100
AcDbLine
 62
7
  6
CONTINUOUS
 10
287.5449749454
 20
293.5465843382
 11
286.5449787601
 21
292.7806269827
  0
LINE
  5
78C
100
AcDbEntity
  8
0
100
AcDbLine
 62
7
  6
CONTINUOUS
 10
293.2949787601
 20
291.2487122717
 11
294.2949749454
 21
292.0146696272
  0
LINE
  5
78D
100
AcDbEntity
  8
0
100
AcDbLine
 62
7
  6
CONTINUOUS
 10
264.7949758991
 20
288.1848824921
 11
264.0449758991
 21
287.6742440763
  0
LINE
  5
78E
100
AcDbEntity
  8
0
100
AcDbLine
 62
7
  6
CONTINUOUS
 10
283.2949768527
 20
297.6316909495
 11
282.0449787601
 21
296.865733594
  0
LINE
  5
78F
100
AcDbEntity
  8
KONSTRUKTIONSELEMENTE
100
AcDbLine
 62
7
  6
CONTINUOUS
 10
361.3998800243
 20
348.2580608872
 11
360.3065020238
 21
347.5991059452
  0
LINE
  5
790
100
AcDbEntity
  8
KONSTRUKTIONSELEMENTE
100
AcDbLine
 62
7
  6
CONTINUOUS
 10
367.4431499563
 20
346.0623546776
 11
363.9807865856
 21
343.9756642075
  0
LINE
  5
791
100
AcDbEntity
  8
KONSTRUKTIONSELEMENTE
100
AcDbLine
 62
7
  6
CONTINUOUS
 10
362.887408585
 20
343.3167092655
 11
360.3361935907
 21
341.7791479393
  0
LINE
  5
792
100
AcDbEntity
  8
KONSTRUKTIONSELEMENTE
100
AcDbLine
 62
7
  6
CONTINUOUS
 10
360.981420231
 20
340.7085487694
 11
363.5326352253
 21
342.2461100956
  0
LINE
  5
793
100
AcDbEntity
  8
KONSTRUKTIONSELEMENTE
100
AcDbLine
 62
7
  6
CONTINUOUS
 10
364.6260132259
 20
342.9050650376
 11
369.5462135904
 21
345.8703618919
  0
LINE
  5
794
100
AcDbEntity
  8
0
100
AcDbLine
 62
7
  6
CONTINUOUS
 10
277.9199778064
 20
311.1423292088
 11
278.9199768527
 21
311.6529675129
  0
LINE
  5
795
100
AcDbEntity
  8
0
100
AcDbLine
 62
7
  6
CONTINUOUS
 10
242.0449768527
 20
292.0146696272
 11
242.5449763759
 21
292.2699887457
  0
LINE
  5
796
100
AcDbEntity
  8
0
100
AcDbLine
 62
7
  6
CONTINUOUS
 10
259.5449758991
 20
297.6316909495
 11
258.5449768527
 21
297.1210527125
  0
LINE
  5
797
100
AcDbEntity
  8
0
100
AcDbLine
 62
7
  6
CONTINUOUS
 10
241.2949768527
 20
293.0359461012
 11
240.5449768527
 21
292.7806269827
  0
LINE
  5
798
100
AcDbEntity
  8
KONSTRUKTIONSELEMENTE
100
AcDbLine
 62
7
  6
CONTINUOUS
 10
328.946157601
 20
626.8764186596
 11
329.7836629638
 21
627.0721154376
  0
LINE
  5
799
100
AcDbEntity
  8
KONSTRUKTIONSELEMENTE
100
AcDbLine
 62
7
  6
CONTINUOUS
 10
314.4706902345
 20
609.1746975184
 11
313.8046610073
 21
609.0896572914
  0
LINE
  5
79A
100
AcDbEntity
  8
KONSTRUKTIONSELEMENTE
100
AcDbLine
 62
7
  6
CONTINUOUS
 10
158.5704386505
 20
607.8617974103
 11
159.2364678777
 21
607.9468376373
  0
LINE
  5
79B
100
AcDbEntity
  8
KONSTRUKTIONSELEMENTE
100
AcDbLine
 62
7
  6
CONTINUOUS
 10
210.7082885793
 20
598.4087694412
 11
211.3442253662
 21
598.4636190513
  0
LINE
  5
79C
100
AcDbEntity
  8
KONSTRUKTIONSELEMENTE
100
AcDbLine
 62
7
  6
CONTINUOUS
 10
214.9299654235
 20
598.9819930933
 11
215.5659022104
 21
599.0368427034
  0
LINE
  5
79D
100
AcDbEntity
  8
KONSTRUKTIONSELEMENTE
100
AcDbLine
 62
7
  6
CONTINUOUS
 10
211.2547139756
 20
599.5014310979
 11
210.6187771887
 21
599.4465814877
  0
LINE
  5
79E
100
AcDbEntity
  8
KONSTRUKTIONSELEMENTE
100
AcDbLine
 62
7
  6
CONTINUOUS
 10
215.47639041
 20
600.0746595008
 11
215.052432552
 21
600.038093094
  0
LINE
  5
79F
100
AcDbEntity
  8
KONSTRUKTIONSELEMENTE
100
AcDbLine
 62
7
  6
CONTINUOUS
 10
214.6227772213
 20
605.0195985187
 11
215.0467350793
 21
605.0561649255
  0
LINE
  5
7A0
100
AcDbEntity
  8
KONSTRUKTIONSELEMENTE
100
AcDbLine
 62
7
  6
CONTINUOUS
 10
210.1533173837
 20
604.843210781
 11
210.7892541706
 21
604.8980603911
  0
LINE
  5
7A1
100
AcDbEntity
  8
KONSTRUKTIONSELEMENTE
100
AcDbLine
 62
7
  6
CONTINUOUS
 10
214.9572236886
 20
606.0939769721
 11
214.3212869017
 21
606.0391273619
  0
LINE
  5
7A2
100
AcDbEntity
  8
KONSTRUKTIONSELEMENTE
100
AcDbLine
 62
7
  6
CONTINUOUS
 10
210.6997423702
 20
605.9358771884
 11
210.0638055833
 21
605.8810275783
  0
LINE
  5
7A3
100
AcDbEntity
  8
KONSTRUKTIONSELEMENTE
100
AcDbLine
 62
7
  6
CONTINUOUS
 10
167.3586779985
 20
612.202485789
 11
166.5976413156
 21
612.2456021132
  0
LINE
  5
7A4
100
AcDbEntity
  8
KONSTRUKTIONSELEMENTE
100
AcDbLine
 62
7
  6
CONTINUOUS
 10
322.3586779985
 20
612.202485789
 11
321.5976413156
 21
612.2456021132
  0
LINE
  5
7A5
100
AcDbEntity
  8
KONSTRUKTIONSELEMENTE
100
AcDbLine
 62
7
  6
CONTINUOUS
 10
174.7836629638
 20
627.0721154376
 11
175.5344943979
 21
626.982927294
  0
LINE
  5
7A6
100
AcDbEntity
  8
KONSTRUKTIONSELEMENTE
100
AcDbLine
 62
7
  6
CONTINUOUS
 10
213.90098695
 20
615.408836235
 11
206.3998800243
 21
616.7259360603
  0
LINE
  5
7A7
100
AcDbEntity
  8
KONSTRUKTIONSELEMENTE
100
AcDbLine
 62
7
  6
CONTINUOUS
 10
321.0275514873
 20
611.1130097596
 11
321.9598897818
 21
610.9436984946
  0
LINE
  5
7A8
100
AcDbEntity
  8
KONSTRUKTIONSELEMENTE
100
AcDbLine
 62
7
  6
CONTINUOUS
 10
310.7273476533
 20
602.0414390484
 11
320.550226702
 21
600.1676601942
  0
LINE
  5
7A9
100
AcDbEntity
  8
KONSTRUKTIONSELEMENTE
100
AcDbLine
 62
7
  6
CONTINUOUS
 10
320.7844490588
 20
601.3955200752
 11
316.3955030386
 21
602.2327404263
  0
LINE
  5
7AA
100
AcDbEntity
  8
KONSTRUKTIONSELEMENTE
100
AcDbLine
 62
7
  6
CONTINUOUS
 10
315.1415186287
 20
602.4719462089
 11
312.0065570184
 21
603.0699607773
  0
LINE
  5
7AB
100
AcDbEntity
  8
KONSTRUKTIONSELEMENTE
100
AcDbLine
 62
7
  6
CONTINUOUS
 10
314.2364678777
 20
607.9468376373
 11
314.8634606681
 21
607.8272346343
  0
LINE
  5
7AC
100
AcDbEntity
  8
KONSTRUKTIONSELEMENTE
100
AcDbLine
 62
7
  6
CONTINUOUS
 10
315.3066804266
 20
609.0152268849
 11
314.4706902345
 21
609.1746975184
  0
LINE
  5
7AD
100
AcDbEntity
  8
KONSTRUKTIONSELEMENTE
100
AcDbLine
 62
7
  6
CONTINUOUS
 10
364.6125893117
 20
598.7324772799
 11
365.7082885793
 21
598.4087694412
  0
LINE
  5
7AE
100
AcDbEntity
  8
KONSTRUKTIONSELEMENTE
100
AcDbLine
 62
7
  6
CONTINUOUS
 10
321.5976413156
 20
612.2456021132
 11
320.7888690681
 21
612.5826471664
  0
LINE
  5
7AF
100
AcDbEntity
  8
KONSTRUKTIONSELEMENTE
100
AcDbLine
 62
7
  6
CONTINUOUS
 10
320.0474766874
 20
611.5762482256
 11
321.0275514873
 21
611.1130097596
  0
LINE
  5
7B0
100
AcDbEntity
  8
KONSTRUKTIONSELEMENTE
100
AcDbLine
 62
7
  6
CONTINUOUS
 10
314.8634606681
 20
607.8272346343
 11
315.4514158509
 21
607.5029886246
  0
LINE
  5
7B1
100
AcDbEntity
  8
KONSTRUKTIONSELEMENTE
100
AcDbLine
 62
7
  6
CONTINUOUS
 10
315.8946356093
 20
608.6909808753
 11
315.3066804266
 21
609.0152268849
  0
LINE
  5
7B2
100
AcDbEntity
  8
KONSTRUKTIONSELEMENTE
100
AcDbLine
 62
7
  6
CONTINUOUS
 10
314.7371187644
 20
615.4882743052
 11
320.0474766874
 21
611.5762482256
  0
LINE
  5
7B3
100
AcDbEntity
  8
KONSTRUKTIONSELEMENTE
100
AcDbLine
 62
7
  6
CONTINUOUS
 10
320.7888690681
 20
612.5826471664
 11
315.4785111451
 21
616.4946732459
  0
LINE
  5
7B4
100
AcDbEntity
  8
KONSTRUKTIONSELEMENTE
100
AcDbLine
 62
7
  6
CONTINUOUS
 10
318.4440792537
 20
620.5202670895
 11
323.7544371767
 21
616.60824101
  0
LINE
  5
7B5
100
AcDbEntity
  8
KONSTRUKTIONSELEMENTE
100
AcDbLine
 62
7
  6
CONTINUOUS
 10
324.4958292038
 20
617.6146394709
 11
319.1854712808
 21
621.5266655504
  0
LINE
  5
7B6
100
AcDbEntity
  8
KONSTRUKTIONSELEMENTE
100
AcDbLine
 62
7
  6
CONTINUOUS
 10
325.2287728566
 20
616.8159342114
 11
324.4958292038
 21
617.6146394709
  0
LINE
  5
7B7
100
AcDbEntity
  8
KONSTRUKTIONSELEMENTE
100
AcDbLine
 62
7
  6
CONTINUOUS
 10
331.1986521783
 20
626.6088536999
 11
331.7761336397
 21
625.9498946131
  0
LINE
  5
7B8
100
AcDbEntity
  8
KONSTRUKTIONSELEMENTE
100
AcDbLine
 62
7
  6
CONTINUOUS
 10
323.7544371767
 20
616.60824101
 11
324.3160789842
 21
615.935730123
  0
LINE
  5
7B9
100
AcDbEntity
  8
KONSTRUKTIONSELEMENTE
100
AcDbLine
 62
7
  6
CONTINUOUS
 10
332.8851504818
 20
626.5265935326
 11
332.209507239
 21
627.37432195
  0
LINE
  5
7BA
100
AcDbEntity
  8
KONSTRUKTIONSELEMENTE
100
AcDbLine
 62
7
  6
CONTINUOUS
 10
363.1974973009
 20
600.2832782731
 11
363.9229455342
 21
599.3003158415
  0
LINE
  5
7BB
100
AcDbEntity
  8
KONSTRUKTIONSELEMENTE
100
AcDbLine
 62
7
  6
CONTINUOUS
 10
364.717154408
 20
599.9961368395
 11
364.2215871917
 21
600.7898229204
  0
LINE
  5
7BC
100
AcDbEntity
  8
KONSTRUKTIONSELEMENTE
100
AcDbLine
 62
7
  6
CONTINUOUS
 10
368.108817717
 20
600.288668132
 11
368.3566011202
 21
599.8918274669
  0
LINE
  5
7BD
100
AcDbEntity
  8
KONSTRUKTIONSELEMENTE
100
AcDbLine
 62
7
  6
CONTINUOUS
 10
366.6908770997
 20
604.3485050522
 11
367.1864439063
 21
603.554823722
  0
LINE
  5
7BE
100
AcDbEntity
  8
KONSTRUKTIONSELEMENTE
100
AcDbLine
 62
7
  6
CONTINUOUS
 10
360.3361935907
 20
610.2470231125
 11
360.981420231
 21
609.1764239426
  0
LINE
  5
7BF
100
AcDbEntity
  8
KONSTRUKTIONSELEMENTE
100
AcDbLine
 62
7
  6
CONTINUOUS
 10
360.3065020238
 20
616.0669811184
 11
362.887408585
 21
611.7845844387
  0
LINE
  5
7C0
100
AcDbEntity
  8
KONSTRUKTIONSELEMENTE
100
AcDbLine
 62
7
  6
CONTINUOUS
 10
363.5326352253
 20
610.7139852688
 11
364.6080137796
 21
608.9296519576
  0
LINE
  5
7C1
100
AcDbEntity
  8
KONSTRUKTIONSELEMENTE
100
AcDbLine
 62
7
  6
CONTINUOUS
 10
367.1864439063
 20
603.554823722
 11
367.4700321936
 21
602.7428544376
  0
LINE
  5
7C2
100
AcDbEntity
  8
KONSTRUKTIONSELEMENTE
100
AcDbLine
 62
7
  6
CONTINUOUS
 10
368.6731451455
 20
601.1737702299
 11
368.3895572679
 21
601.9857347635
  0
LINE
  5
7C3
100
AcDbEntity
  8
KONSTRUKTIONSELEMENTE
100
AcDbLine
 62
7
  6
CONTINUOUS
 10
371.4260230796
 20
603.9204878408
 11
371.709611367
 21
603.1085185565
  0
LINE
  5
7C4
100
AcDbEntity
  8
KONSTRUKTIONSELEMENTE
100
AcDbLine
 62
7
  6
CONTINUOUS
 10
372.7695060119
 20
603.1999345734
 11
372.4680156922
 21
604.2194634166
  0
LINE
  5
7C5
100
AcDbEntity
  8
0
100
AcDbLine
 62
7
  6
CONTINUOUS
 10
437.9199768527
 20
535.1690423707
 11
437.9199768527
 21
396.6049777652
  0
LINE
  5
7C6
100
AcDbEntity
  8
BEZUGSACHSEN
100
AcDbLine
 62
7
  6
CONTINUOUS
 10
363.5706119473
 20
294.1530724814
 11
385.221247042
 21
331.6530724814
  0
LINE
  5
7C7
100
AcDbEntity
  8
KONSTRUKTIONSELEMENTE
100
AcDbLine
 62
7
  6
CONTINUOUS
 10
371.640850745
 20
332.9618599553
 11
371.0765233164
 21
332.0767578574
  0
LINE
  5
7C8
100
AcDbEntity
  8
KONSTRUKTIONSELEMENTE
100
AcDbLine
 62
7
  6
CONTINUOUS
 10
368.5091756601
 20
337.0829955067
 11
367.9269457895
 21
336.4054577185
  0
LINE
  5
7C9
100
AcDbEntity
  8
KONSTRUKTIONSELEMENTE
100
AcDbLine
 62
7
  6
CONTINUOUS
 10
371.589992565
 20
331.0755122176
 11
372.1722224356
 21
331.7530500059
  0
LINE
  5
7CA
100
AcDbEntity
  8
KONSTRUKTIONSELEMENTE
100
AcDbLine
 62
7
  6
CONTINUOUS
 10
364.3591084356
 20
335.6795146034
 11
365.1533173837
 21
336.3753356078
  0
LINE
  5
7CB
100
AcDbEntity
  8
KONSTRUKTIONSELEMENTE
100
AcDbLine
 62
7
  6
CONTINUOUS
 10
367.0489230721
 20
331.7293769419
 11
366.2547139756
 21
331.0335559247
  0
LINE
  5
7CC
100
AcDbEntity
  8
KONSTRUKTIONSELEMENTE
100
AcDbLine
 62
7
  6
CONTINUOUS
 10
369.0226453185
 20
336.0817451162
 11
369.6227772213
 21
336.5517233456
  0
LINE
  5
7CD
100
AcDbEntity
  8
KONSTRUKTIONSELEMENTE
100
AcDbLine
 62
7
  6
CONTINUOUS
 10
371.0765233164
 20
332.0767578574
 11
370.47639041
 21
331.6067843276
  0
LINE
  5
7CE
100
AcDbEntity
  8
0
100
AcDbLine
 62
7
  6
CONTINUOUS
 10
298.5449787601
 20
287.9295631948
 11
297.7949787601
 21
287.4189249578
  0
LINE
  5
7CF
100
AcDbEntity
  8
0
100
AcDbLine
 62
7
  6
CONTINUOUS
 10
294.0449787601
 20
293.2912652197
 11
292.7949749454
 21
292.5253078642
  0
LINE
  5
7D0
100
AcDbEntity
  8
0
100
AcDbLine
 62
7
  6
CONTINUOUS
 10
287.0449768527
 20
286.1423292088
 11
288.2949749454
 21
286.9082866314
  0
LINE
  5
7D1
100
AcDbEntity
  8
0
100
AcDbLine
 62
7
  6
CONTINUOUS
 10
298.0449749454
 20
286.1423292088
 11
299.2949787601
 21
286.9082866314
  0
LINE
  5
7D2
100
AcDbEntity
  8
KONSTRUKTIONSELEMENTE
100
AcDbLine
 62
7
  6
CONTINUOUS
 10
364.6080137796
 20
340.4617767844
 11
365.7013917802
 21
341.1207317264
  0
LINE
  5
7D3
100
AcDbEntity
  8
KONSTRUKTIONSELEMENTE
100
AcDbLine
 62
7
  6
CONTINUOUS
 10
369.3212869017
 20
337.5712521888
 11
368.5091756601
 21
337.0829955067
  0
LINE
  5
7D4
100
AcDbEntity
  8
0
100
AcDbLine
 62
7
  6
CONTINUOUS
 10
264.2949778064
 20
286.1423292088
 11
265.2949768527
 21
286.6529675129
  0
LINE
  5
7D5
100
AcDbEntity
  8
0
100
AcDbLine
 62
7
  6
CONTINUOUS
 10
282.5449768527
 20
292.0146696272
 11
282.0449787601
 21
291.7593505087
  0
LINE
  5
7D6
100
AcDbEntity
  8
0
100
AcDbLine
 62
7
  6
CONTINUOUS
 10
282.5449768527
 20
290.7380740347
 11
283.5449787601
 21
291.2487122717
  0
LINE
  5
7D7
100
AcDbEntity
  8
0
100
AcDbLine
 62
7
  6
CONTINUOUS
 10
287.5449749454
 20
292.0146696272
 11
288.0449787601
 21
292.2699887457
  0
LINE
  5
7D8
100
AcDbEntity
  8
0
100
AcDbLine
 62
7
  6
CONTINUOUS
 10
287.5449749454
 20
287.9295631948
 11
286.5449787601
 21
287.4189249578
  0
LINE
  5
7D9
100
AcDbEntity
  8
KONSTRUKTIONSELEMENTE
100
AcDbLine
 62
7
  6
CONTINUOUS
 10
365.0638055833
 20
337.4131524051
 11
364.039715674
 21
336.9066077562
  0
LINE
  5
7DA
100
AcDbEntity
  8
KONSTRUKTIONSELEMENTE
100
AcDbLine
 62
7
  6
CONTINUOUS
 10
366.3442253662
 20
329.9957438781
 11
367.3683158337
 21
330.5022837891
  0
LINE
  5
7DB
100
AcDbEntity
  8
KONSTRUKTIONSELEMENTE
100
AcDbLine
 62
7
  6
CONTINUOUS
 10
370.5659022104
 20
330.5689675303
 11
371.589992565
 21
331.0755122176
  0
LINE
  5
7DC
100
AcDbEntity
  8
0
100
AcDbLine
 62
7
  6
CONTINUOUS
 10
252.5449768527
 20
293.0359461012
 11
251.7949768527
 21
292.7806269827
  0
LINE
  5
7DD
100
AcDbEntity
  8
0
100
AcDbLine
 62
7
  6
CONTINUOUS
 10
241.2949768527
 20
287.6742440763
 11
240.5449768527
 21
287.4189249578
  0
LINE
  5
7DE
100
AcDbEntity
  8
KONSTRUKTIONSELEMENTE
100
AcDbLine
 62
7
  6
CONTINUOUS
 10
167.0336349989
 20
607.9441063029
 11
161.8753606402
 21
607.0192720931
  0
LINE
  5
7DF
100
AcDbEntity
  8
KONSTRUKTIONSELEMENTE
100
AcDbLine
 62
7
  6
CONTINUOUS
 10
162.0591330309
 20
605.7116766584
 11
166.7603755082
 21
606.5116027179
  0
LINE
  5
7E0
100
AcDbEntity
  8
KONSTRUKTIONSELEMENTE
100
AcDbLine
 62
7
  6
CONTINUOUS
 10
166.9598897818
 20
610.9436984946
 11
168.139358103
 21
611.1098526276
  0
LINE
  5
7E1
100
AcDbEntity
  8
KONSTRUKTIONSELEMENTE
100
AcDbLine
 62
7
  6
CONTINUOUS
 10
159.4706902345
 20
609.1746975184
 11
158.8046610073
 21
609.0896572914
  0
LINE
  5
7E2
100
AcDbEntity
  8
KONSTRUKTIONSELEMENTE
100
AcDbLine
 62
7
  6
CONTINUOUS
 10
330.3151983446
 20
628.307773444
 11
329.3795314753
 21
628.3008454677
  0
LINE
  5
7E3
100
AcDbEntity
  8
KONSTRUKTIONSELEMENTE
100
AcDbLine
 62
7
  6
CONTINUOUS
 10
175.3151983446
 20
628.307773444
 11
174.3795314753
 21
628.3008454677
  0
LINE
  5
7E4
100
AcDbEntity
  8
BEZUGSACHSEN
100
AcDbLine
 62
7
  6
CONTINUOUS
 10
363.5706119473
 20
637.6209476545
 11
320.2693417581
 21
637.6209476545
  0
LINE
  5
7E5
100
AcDbEntity
  8
BEZUGSACHSEN
100
AcDbLine
 62
7
  6
CONTINUOUS
 10
208.5706119473
 20
637.6209476545
 11
165.2693417581
 21
637.6209476545
  0
LINE
  5
7E6
100
AcDbEntity
  8
KONSTRUKTIONSELEMENTE
100
AcDbLine
 62
7
  6
CONTINUOUS
 10
329.7836629638
 20
627.0721154376
 11
330.5344943979
 21
626.982927294
  0
LINE
  5
7E7
100
AcDbEntity
  8
KONSTRUKTIONSELEMENTE
100
AcDbLine
 62
7
  6
CONTINUOUS
 10
368.90098695
 20
615.408836235
 11
361.3998800243
 21
616.7259360603
  0
LINE
  5
7E8
100
AcDbEntity
  8
KONSTRUKTIONSELEMENTE
100
AcDbLine
 62
7
  6
CONTINUOUS
 10
362.1526452585
 20
615.4769023341
 11
367.4431499563
 21
614.5302298508
  0
LINE
  5
7E9
100
AcDbEntity
  8
KONSTRUKTIONSELEMENTE
100
AcDbLine
 62
7
  6
CONTINUOUS
 10
366.795442196
 20
605.6121646117
 11
365.6997423702
 21
605.9358771884
  0
LINE
  5
7EA
100
AcDbEntity
  8
KONSTRUKTIONSELEMENTE
100
AcDbLine
 62
7
  6
CONTINUOUS
 10
371.0529234017
 20
605.7702691717
 11
369.9572236886
 21
606.0939769721
  0
LINE
  5
7EB
100
AcDbEntity
  8
KONSTRUKTIONSELEMENTE
100
AcDbLine
 62
7
  6
CONTINUOUS
 10
331.4471882271
 20
627.9371638169
 11
330.3151983446
 21
628.307773444
  0
LINE
  5
7EC
100
AcDbEntity
  8
KONSTRUKTIONSELEMENTE
100
AcDbLine
 62
7
  6
CONTINUOUS
 10
369.0462448235
 20
599.323988899
 11
369.9299654235
 21
598.9819930933
  0
LINE
  5
7ED
100
AcDbEntity
  8
KONSTRUKTIONSELEMENTE
100
AcDbLine
 62
7
  6
CONTINUOUS
 10
370.052432552
 20
600.038093094
 11
369.3806912908
 21
600.3983673523
  0
LINE
  5
7EE
100
AcDbEntity
  8
KONSTRUKTIONSELEMENTE
100
AcDbLine
 62
7
  6
CONTINUOUS
 10
370.0467350793
 20
605.0561649255
 11
370.7184773441
 21
604.6958859676
  0
LINE
  5
7EF
100
AcDbEntity
  8
KONSTRUKTIONSELEMENTE
100
AcDbLine
 62
7
  6
CONTINUOUS
 10
347.8606473671
 20
620.8744638347
 11
348.9500263564
 21
620.2614765447
  0
LINE
  5
7F0
100
AcDbEntity
  8
KONSTRUKTIONSELEMENTE
100
AcDbLine
 62
7
  6
CONTINUOUS
 10
351.4919092795
 20
618.8311736476
 11
352.944417369
 21
618.013855702
  0
LINE
  5
7F1
100
AcDbEntity
  8
KONSTRUKTIONSELEMENTE
100
AcDbLine
 62
7
  6
CONTINUOUS
 10
355.4863002922
 20
616.5835528049
 11
356.5756792815
 21
615.9705655149
  0
LINE
  5
7F2
100
AcDbEntity
  8
KONSTRUKTIONSELEMENTE
100
AcDbLine
 62
7
  6
CONTINUOUS
 10
330.5344943979
 20
626.982927294
 11
331.1986521783
 21
626.6088536999
  0
LINE
  5
7F3
100
AcDbEntity
  8
KONSTRUKTIONSELEMENTE
100
AcDbLine
 62
7
  6
CONTINUOUS
 10
365.6187771887
 20
599.4465814877
 11
364.717154408
 21
599.9961368395
  0
LINE
  5
7F4
100
AcDbEntity
  8
KONSTRUKTIONSELEMENTE
100
AcDbLine
 62
7
  6
CONTINUOUS
 10
365.7892541706
 20
604.8980603911
 11
366.6908770997
 21
604.3485050522
  0
LINE
  5
7F5
100
AcDbEntity
  8
KONSTRUKTIONSELEMENTE
100
AcDbLine
 62
7
  6
CONTINUOUS
 10
332.209507239
 20
627.37432195
 11
331.4471882271
 21
627.9371638169
  0
LINE
  5
7F6
100
AcDbEntity
  8
KONSTRUKTIONSELEMENTE
100
AcDbLine
 62
7
  6
CONTINUOUS
 10
363.9229455342
 20
599.3003158415
 11
364.6125893117
 21
598.7324772799
  0
LINE
  5
7F7
100
AcDbEntity
  8
KONSTRUKTIONSELEMENTE
100
AcDbLine
 62
7
  6
CONTINUOUS
 10
368.3566011202
 20
599.8918274669
 11
369.0462448235
 21
599.323988899
  0
LINE
  5
7F8
100
AcDbEntity
  8
KONSTRUKTIONSELEMENTE
100
AcDbLine
 62
7
  6
CONTINUOUS
 10
371.7425671049
 20
605.2024306038
 11
371.0529234017
 21
605.7702691717
  0
LINE
  5
7F9
100
AcDbEntity
  8
KONSTRUKTIONSELEMENTE
100
AcDbLine
 62
7
  6
CONTINUOUS
 10
369.3806912908
 20
600.3983673523
 11
368.6731451455
 21
601.1737702299
  0
LINE
  5
7FA
100
AcDbEntity
  8
KONSTRUKTIONSELEMENTE
100
AcDbLine
 62
7
  6
CONTINUOUS
 10
367.5029879316
 20
604.8367664849
 11
366.795442196
 21
605.6121646117
  0
LINE
  5
7FB
100
AcDbEntity
  8
KONSTRUKTIONSELEMENTE
100
AcDbLine
 62
7
  6
CONTINUOUS
 10
370.7184773441
 20
604.6958859676
 11
371.4260230796
 21
603.9204878408
  0
LINE
  5
7FC
100
AcDbEntity
  8
KONSTRUKTIONSELEMENTE
100
AcDbLine
 62
7
  6
CONTINUOUS
 10
372.4680156922
 20
604.2194634166
 11
371.7425671049
 21
605.2024306038
  0
LINE
  5
7FD
100
AcDbEntity
  8
KONSTRUKTIONSELEMENTE
100
AcDbLine
 62
7
  6
CONTINUOUS
 10
367.7507717446
 20
604.4399210691
 11
367.5029879316
 21
604.8367664849
  0
LINE
  5
7FE
100
AcDbEntity
  8
KONSTRUKTIONSELEMENTE
100
AcDbLine
 62
7
  6
CONTINUOUS
 10
365.7013917802
 20
609.5886068995
 11
364.6260132259
 21
611.3729402108
  0
LINE
  5
7FF
100
AcDbEntity
  8
KONSTRUKTIONSELEMENTE
100
AcDbLine
 62
7
  6
CONTINUOUS
 10
363.9807865856
 20
612.4435393807
 11
362.1526452585
 21
615.4769023341
  0
LINE
  5
800
100
AcDbEntity
  8
KONSTRUKTIONSELEMENTE
100
AcDbLine
 62
7
  6
CONTINUOUS
 10
369.5462135904
 20
614.3382370651
 11
368.90098695
 21
615.408836235
  0
LINE
  5
801
100
AcDbEntity
  8
BEZUGSACHSEN
100
AcDbLine
 62
7
  6
CONTINUOUS
 10
385.221247042
 20
600.1209476545
 11
363.5706119473
 21
637.6209476545
  0
LINE
  5
802
100
AcDbEntity
  8
KONSTRUKTIONSELEMENTE
100
AcDbLine
 62
7
  6
CONTINUOUS
 10
173.946157601
 20
626.8764186596
 11
174.7836629638
 21
627.0721154376
  0
LINE
  5
803
100
AcDbEntity
  8
KONSTRUKTIONSELEMENTE
100
AcDbLine
 62
7
  6
CONTINUOUS
 10
361.4795776013
 20
624.6855974293
 11
359.8455091173
 21
625.6050783643
  0
LINE
  5
804
100
AcDbEntity
  8
KONSTRUKTIONSELEMENTE
100
AcDbLine
 62
7
  6
CONTINUOUS
 10
354.3986141708
 20
628.6700148142
 11
352.7645456868
 21
629.5894957491
  0
LINE
  5
805
100
AcDbEntity
  8
0
100
AcDbLine
 62
7
  6
CONTINUOUS
 10
475.9199768527
 20
424.3870605912
 11
475.9199768527
 21
507.3869595447
  0
ARC
  5
806
100
AcDbEntity
  8
RUNDUNGEN
100
AcDbCircle
 62
7
  6
CONTINUOUS
 10
163.4199768527
 20
1201.1893523708
 40
80.0
100
AcDbArc
 50
246.8676036007
 51
293.1323963993
  0
ARC
  5
807
100
AcDbEntity
  8
RUNDUNGEN
100
AcDbCircle
 62
7
  6
CONTINUOUS
 10
190.9199768527
 20
1136.8173864229
 40
10.0
100
AcDbArc
 50
293.1323963993
 51
360.0
  0
ARC
  5
808
100
AcDbEntity
  8
RUNDUNGEN
100
AcDbCircle
 62
7
  6
CONTINUOUS
 10
135.9199768527
 20
1136.8173864229
 40
10.0
100
AcDbArc
 50
180.0
 51
246.8676036007
  0
ARC
  5
809
100
AcDbEntity
  8
0
100
AcDbCircle
 62
7
  6
CONTINUOUS
 10
70.9199768527
 20
1350.1893523708
 40
130.0
100
AcDbArc
 50
0.0
 51
20.0824791062
  0
ARC
  5
80A
100
AcDbEntity
  8
0
100
AcDbCircle
 62
7
  6
CONTINUOUS
 10
70.9199768527
 20
1350.1893523708
 40
55.0
100
AcDbArc
 50
0.0
 51
20.0824791062
  0
ARC
  5
80B
100
AcDbEntity
  8
0
100
AcDbCircle
 62
7
  6
CONTINUOUS
 10
264.4199768527
 20
1192.1893523708
 40
107.5
100
AcDbArc
 50
55.1036920293
 51
82.178849623
  0
ARC
  5
80C
100
AcDbEntity
  8
0
100
AcDbCircle
 62
7
  6
CONTINUOUS
 10
264.4199768527
 20
1192.1893523708
 40
107.5
100
AcDbArc
 50
97.821150377
 51
124.8963079707
  0
ARC
  5
80D
100
AcDbEntity
  8
RUNDUNGEN
100
AcDbCircle
 62
7
  6
CONTINUOUS
 10
365.4199768527
 20
1201.1893523708
 40
80.0
100
AcDbArc
 50
246.8676036007
 51
293.1323963993
  0
ARC
  5
80E
100
AcDbEntity
  8
RUNDUNGEN
100
AcDbCircle
 62
7
  6
CONTINUOUS
 10
392.9199768527
 20
1136.8173864229
 40
10.0
100
AcDbArc
 50
293.1323963993
 51
360.0
  0
ARC
  5
80F
100
AcDbEntity
  8
RUNDUNGEN
100
AcDbCircle
 62
7
  6
CONTINUOUS
 10
337.9199768527
 20
1136.8173864229
 40
10.0
100
AcDbArc
 50
180.0
 51
246.8676036007
  0
ARC
  5
810
100
AcDbEntity
  8
0
100
AcDbCircle
 62
7
  6
CONTINUOUS
 10
264.4199768527
 20
1476.1893523708
 40
170.0
100
AcDbArc
 50
339.9175208938
 51
200.0824791062
  0
ARC
  5
811
100
AcDbEntity
  8
0
100
AcDbCircle
 62
7
  6
CONTINUOUS
 10
457.9199768527
 20
1350.1893523708
 40
130.0
100
AcDbArc
 50
159.9175208938
 51
180.0
  0
ARC
  5
812
100
AcDbEntity
  8
0
100
AcDbCircle
 62
7
  6
CONTINUOUS
 10
264.4199768527
 20
1476.1893523708
 40
95.0
100
AcDbArc
 50
339.9175208938
 51
200.0824791062
  0
ARC
  5
813
100
AcDbEntity
  8
0
100
AcDbCircle
 62
7
  6
CONTINUOUS
 10
457.9199768527
 20
1350.1893523708
 40
55.0
100
AcDbArc
 50
159.9175208938
 51
180.0
  0
ARC
  5
814
100
AcDbEntity
  8
0
100
AcDbCircle
 62
7
  6
CONTINUOUS
 10
903.7395587377
 20
1192.1893523708
 40
107.5
100
AcDbArc
 50
110.4178113743
 51
180.0
  0
ARC
  5
815
100
AcDbEntity
  8
0
100
AcDbCircle
 62
7
  6
CONTINUOUS
 10
903.7395587377
 20
1192.1893523708
 40
107.5
100
AcDbArc
 50
0.0
 51
69.5821886257
  0
ARC
  5
816
100
AcDbEntity
  8
0
100
AcDbCircle
 62
7
  6
CONTINUOUS
 10
903.7395587377
 20
1192.1893523708
 40
88.1702897806
100
AcDbArc
 50
0.0
 51
62.6727131457
  0
ARC
  5
817
100
AcDbEntity
  8
0
100
AcDbCircle
 62
7
  6
CONTINUOUS
 10
903.7395587377
 20
1192.1893523708
 40
88.1702897806
100
AcDbArc
 50
117.3261155598
 51
180.0
  0
ARC
  5
818
100
AcDbEntity
  8
BEZUGSACHSEN
100
AcDbCircle
 62
7
  6
CONTINUOUS
 10
903.7395587377
 20
1201.1893523708
 40
80.0
100
AcDbArc
 50
121.855430824
 51
58.144569176
  0
ARC
  5
819
100
AcDbEntity
  8
BEZUGSACHSEN
100
AcDbCircle
 62
7
  6
CONTINUOUS
 10
750.7596458284
 20
1065.7141104394
 40
48.9752420968
100
AcDbArc
 50
90.0047084369
 51
93.1091486546
  0
ARC
  5
81A
100
AcDbEntity
  8
BEZUGSACHSEN
100
AcDbCircle
 62
7
  6
CONTINUOUS
 10
1019.2275210015
 20
1065.7141104394
 40
48.9752420968
100
AcDbArc
 50
90.0047084369
 51
93.1091486546
  0
ARC
  5
81B
100
AcDbEntity
  8
BEZUGSACHSEN
100
AcDbCircle
 62
7
  6
CONTINUOUS
 10
884.9935834149
 20
1065.7141104396
 40
48.9752420966
100
AcDbArc
 50
90.0047084369
 51
93.1091486546
  0
ARC
  5
81C
100
AcDbEntity
  8
0
100
AcDbCircle
 62
7
  6
CONTINUOUS
 10
903.7395587377
 20
1608.6893523708
 40
37.5
100
AcDbArc
 50
0.0
 51
180.0
  0
ARC
  5
81D
100
AcDbEntity
  8
RUNDUNGEN
100
AcDbCircle
 62
7
  6
CONTINUOUS
 10
951.2395587377
 20
1277.6337766279
 40
10.0
100
AcDbArc
 50
180.0
 51
238.144569176
  0
ARC
  5
81E
100
AcDbEntity
  8
RUNDUNGEN
100
AcDbCircle
 62
7
  6
CONTINUOUS
 10
856.2395587377
 20
1277.6337766279
 40
10.0
100
AcDbArc
 50
301.855430824
 51
360.0
  0
CIRCLE
  5
81F
100
AcDbEntity
  8
BEZUGSACHSEN
100
AcDbCircle
 62
7
  6
CONTINUOUS
 10
186.9199768527
 20
331.6530724814
 40
37.5
  0
ARC
  5
820
100
AcDbEntity
  8
RUNDUNGEN
100
AcDbCircle
 62
7
  6
CONTINUOUS
 10
135.9199768527
 20
401.51504412
 40
10.0
100
AcDbArc
 50
180.0
 51
246.8676036007
  0
ARC
  5
821
100
AcDbEntity
  8
RUNDUNGEN
100
AcDbCircle
 62
7
  6
CONTINUOUS
 10
190.9199768527
 20
401.51504412
 40
10.0
100
AcDbArc
 50
293.1323963993
 51
360.0
  0
ARC
  5
822
100
AcDbEntity
  8
BEZUGSACHSEN
100
AcDbCircle
 62
7
  6
CONTINUOUS
 10
163.4199768527
 20
465.887010068
 40
80.0
100
AcDbArc
 50
66.8585570296
 51
113.1420223493
  0
ARC
  5
823
100
AcDbEntity
  8
BEZUGSACHSEN
100
AcDbCircle
 62
7
  6
CONTINUOUS
 10
163.4199768527
 20
465.887010068
 40
80.0
100
AcDbArc
 50
246.8585571385
 51
293.1420224514
  0
CIRCLE
  5
824
100
AcDbEntity
  8
BEZUGSACHSEN
100
AcDbCircle
 62
7
  6
CONTINUOUS
 10
186.9199768527
 20
600.1209476545
 40
37.5
  0
ARC
  5
825
100
AcDbEntity
  8
BEZUGSACHSEN
100
AcDbCircle
 62
7
  6
CONTINUOUS
 10
109.4199768527
 20
465.887010068
 40
37.5
100
AcDbArc
 50
125.9320744676
 51
234.0679255374
  0
ARC
  5
826
100
AcDbEntity
  8
0
100
AcDbCircle
 62
7
  6
CONTINUOUS
 10
131.9199768527
 20
465.887010068
 40
37.5
100
AcDbArc
 50
90.0
 51
270.0
  0
ARC
  5
827
100
AcDbEntity
  8
RUNDUNGEN
100
AcDbCircle
 62
7
  6
CONTINUOUS
 10
135.9199768527
 20
530.2589760159
 40
10.0
100
AcDbArc
 50
113.1323963993
 51
180.0
  0
ARC
  5
828
100
AcDbEntity
  8
RUNDUNGEN
100
AcDbCircle
 62
7
  6
CONTINUOUS
 10
190.9199768527
 20
530.2589760159
 40
10.0
100
AcDbArc
 50
0.0
 51
66.8676036007
  0
CIRCLE
  5
829
100
AcDbEntity
  8
BEZUGSACHSEN
100
AcDbCircle
 62
7
  6
CONTINUOUS
 10
341.9199768527
 20
331.6530724814
 40
37.5
  0
ARC
  5
82A
100
AcDbEntity
  8
RUNDUNGEN
100
AcDbCircle
 62
7
  6
CONTINUOUS
 10
337.9199768527
 20
401.51504412
 40
10.0
100
AcDbArc
 50
180.0
 51
246.8676036007
  0
ARC
  5
82B
100
AcDbEntity
  8
RUNDUNGEN
100
AcDbCircle
 62
7
  6
CONTINUOUS
 10
392.9199768527
 20
401.51504412
 40
10.0
100
AcDbArc
 50
293.1323963993
 51
360.0
  0
ARC
  5
82C
100
AcDbEntity
  8
0
100
AcDbCircle
 62
7
  6
CONTINUOUS
 10
264.4199768527
 20
465.887010068
 40
200.0
100
AcDbArc
 50
11.9772286252
 51
348.0227713748
  0
ARC
  5
82D
100
AcDbEntity
  8
0
100
AcDbCircle
 62
7
  6
CONTINUOUS
 10
264.4199768527
 20
465.887010068
 40
108.0
100
AcDbArc
 50
224.8576875737
 51
315.1423124263
  0
ARC
  5
82E
100
AcDbEntity
  8
0
100
AcDbCircle
 62
7
  6
CONTINUOUS
 10
264.4199768527
 20
465.887010068
 40
108.0
100
AcDbArc
 50
44.8576875737
 51
135.1423124263
  0
ARC
  5
82F
100
AcDbEntity
  8
0
100
AcDbCircle
 62
7
  6
CONTINUOUS
 10
264.4199768527
 20
465.887010068
 40
107.5
100
AcDbArc
 50
224.9870528594
 51
315.0129471406
  0
ARC
  5
830
100
AcDbEntity
  8
0
100
AcDbCircle
 62
7
  6
CONTINUOUS
 10
264.4199768527
 20
465.887010068
 40
107.5
100
AcDbArc
 50
44.9870528594
 51
135.0129471406
  0
ARC
  5
831
100
AcDbEntity
  8
BEZUGSACHSEN
100
AcDbCircle
 62
7
  6
CONTINUOUS
 10
365.4199768527
 20
465.887010068
 40
80.0
100
AcDbArc
 50
66.8584553527
 51
113.1420937066
  0
ARC
  5
832
100
AcDbEntity
  8
BEZUGSACHSEN
100
AcDbCircle
 62
7
  6
CONTINUOUS
 10
365.4199768527
 20
465.887010068
 40
80.0
100
AcDbArc
 50
246.858455246
 51
293.1420936054
  0
CIRCLE
  5
833
100
AcDbEntity
  8
BEZUGSACHSEN
100
AcDbCircle
 62
7
  6
CONTINUOUS
 10
341.9199768527
 20
600.1209476545
 40
37.5
  0
ARC
  5
834
100
AcDbEntity
  8
0
100
AcDbCircle
 62
7
  6
CONTINUOUS
 10
396.9199768527
 20
465.887010068
 40
37.5
100
AcDbArc
 50
270.0
 51
90.0
  0
ARC
  5
835
100
AcDbEntity
  8
RUNDUNGEN
100
AcDbCircle
 62
7
  6
CONTINUOUS
 10
337.9199768527
 20
530.2589760159
 40
10.0
100
AcDbArc
 50
113.1323963993
 51
180.0
  0
ARC
  5
836
100
AcDbEntity
  8
RUNDUNGEN
100
AcDbCircle
 62
7
  6
CONTINUOUS
 10
392.9199768527
 20
530.2589760159
 40
10.0
100
AcDbArc
 50
0.0
 51
66.8676036007
  0
SPLINE
  5
837
100
AcDbEntity
  8
BEZUGSACHSEN
100
AcDbSpline
 62
7
  6
CONTINUOUS
 70
0
 71
3
 72
10
 73
6
 74
0
 42
0.0000001
 43
0.0000001
 44
0.0000000001
 40
0.0
 40
0.0
 40
0.0
 40
0.0
 40
0.4999046085
 40
0.749955089
 40
1.0
 40
1.0
 40
1.0
 40
1.0
 10
397.7693417581
 20
1111.3399874654
 30
0.0
 10
401.2871125687
 20
1112.3554804276
 30
0.0
 10
406.650033755
 20
1113.6250154857
 30
0.0
 10
413.9238435812
 20
1114.5330559189
 30
0.0
 10
417.58859271
 20
1114.6893523738
 30
0.0
 10
419.4199769549
 20
1114.6893523738
 30
0.0
  0
SPLINE
  5
838
100
AcDbEntity
  8
BEZUGSACHSEN
100
AcDbSpline
 62
7
  6
CONTINUOUS
 70
0
 71
3
 72
10
 73
6
 74
0
 42
0.0000001
 43
0.0000001
 44
0.0000000001
 40
0.0
 40
0.0
 40
0.0
 40
0.0
 40
0.2500450529
 40
0.500095578
 40
1.0
 40
1.0
 40
1.0
 40
1.0
 10
419.4199769549
 20
1114.6893523738
 30
0.0
 10
421.2513622218
 20
1114.6893523738
 30
0.0
 10
424.9161126657
 20
1114.5330554592
 30
0.0
 10
432.1899224284
 20
1113.625015155
 30
0.0
 10
437.5528424821
 20
1112.3554800393
 30
0.0
 10
441.0706119473
 20
1111.3399874654
 30
0.0
  0
SPLINE
  5
839
100
AcDbEntity
  8
BEZUGSACHSEN
100
AcDbSpline
 62
7
  6
CONTINUOUS
 70
0
 71
3
 72
11
 73
7
 74
0
 42
0.0000001
 43
0.0000001
 44
0.0000000001
 40
0.0
 40
0.0
 40
0.0
 40
0.0
 40
0.2616462713
 40
0.5145010125
 40
0.7595982368
 40
1.0
 40
1.0
 40
1.0
 40
1.0
 10
441.0706119473
 20
1111.3399874654
 30
0.0
 10
441.9359836474
 20
1111.8396100494
 30
0.0
 10
443.676929626
 20
1112.7571357649
 30
0.0
 10
446.3763476155
 20
1113.8378765
 30
0.0
 10
449.1202268141
 20
1114.5292805832
 30
0.0
 10
450.9778185664
 20
1114.6893523707
 30
0.0
 10
451.8959294916
 20
1114.6893523708
 30
0.0
  0
SPLINE
  5
83A
100
AcDbEntity
  8
BEZUGSACHSEN
100
AcDbSpline
 62
7
  6
CONTINUOUS
 70
0
 71
3
 72
11
 73
7
 74
0
 42
0.0000001
 43
0.0000001
 44
0.0000000001
 40
0.0
 40
0.0
 40
0.0
 40
0.0
 40
0.2404017719
 40
0.4854989971
 40
0.7383537318
 40
1.0
 40
1.0
 40
1.0
 40
1.0
 10
451.8959294916
 20
1114.6893523708
 30
0.0
 10
452.8140404504
 20
1114.689352371
 30
0.0
 10
454.6716322387
 20
1114.5292805592
 30
0.0
 10
457.4155114508
 20
1113.8378764802
 30
0.0
 10
460.1149294053
 20
1112.757135742
 30
0.0
 10
461.8558753518
 20
1111.8396100437
 30
0.0
 10
462.721247042
 20
1111.3399874654
 30
0.0
  0
SPLINE
  5
83B
100
AcDbEntity
  8
BEZUGSACHSEN
100
AcDbSpline
 62
7
  6
CONTINUOUS
 70
0
 71
3
 72
9
 73
5
 74
0
 42
0.0000001
 43
0.0000001
 44
0.0000000001
 40
0.0
 40
0.0
 40
0.0
 40
0.0
 40
0.5053351921
 40
1.0
 40
1.0
 40
1.0
 40
1.0
 10
381.1676637879
 20
1113.6852188902
 30
0.0
 10
382.1059038451
 20
1114.0041965292
 30
0.0
 10
384.0092860172
 20
1114.510182727
 30
0.0
 10
385.973969317
 20
1114.6893523708
 30
0.0
 10
386.9440242107
 20
1114.6893523708
 30
0.0
  0
SPLINE
  5
83C
100
AcDbEntity
  8
BEZUGSACHSEN
100
AcDbSpline
 62
7
  6
CONTINUOUS
 70
0
 71
3
 72
11
 73
7
 74
0
 42
0.0000001
 43
0.0000001
 44
0.0000000001
 40
0.0
 40
0.0
 40
0.0
 40
0.0
 40
0.2404017719
 40
0.4854989971
 40
0.7383537318
 40
1.0
 40
1.0
 40
1.0
 40
1.0
 10
386.9440242107
 20
1114.6893523708
 30
0.0
 10
387.8621351693
 20
1114.6893523709
 30
0.0
 10
389.7197269571
 20
1114.5292805588
 30
0.0
 10
392.4636061684
 20
1113.8378764797
 30
0.0
 10
395.1630241222
 20
1112.7571357416
 30
0.0
 10
396.9039700682
 20
1111.8396100435
 30
0.0
 10
397.7693417581
 20
1111.3399874654
 30
0.0
  0
SPLINE
  5
83D
100
AcDbEntity
  8
BEZUGSACHSEN
100
AcDbSpline
 62
7
  6
CONTINUOUS
 70
0
 71
3
 72
10
 73
6
 74
0
 42
0.0000001
 43
0.0000001
 44
0.0000000001
 40
0.0
 40
0.0
 40
0.0
 40
0.0
 40
0.4999046085
 40
0.749955089
 40
1.0
 40
1.0
 40
1.0
 40
1.0
 10
87.7693417581
 20
1111.3399874654
 30
0.0
 10
91.2871125687
 20
1112.3554804276
 30
0.0
 10
96.650033755
 20
1113.6250154857
 30
0.0
 10
103.9238435812
 20
1114.5330559189
 30
0.0
 10
107.58859271
 20
1114.6893523738
 30
0.0
 10
109.4199769549
 20
1114.6893523738
 30
0.0
  0
SPLINE
  5
83E
100
AcDbEntity
  8
BEZUGSACHSEN
100
AcDbSpline
 62
7
  6
CONTINUOUS
 70
0
 71
3
 72
10
 73
6
 74
0
 42
0.0000001
 43
0.0000001
 44
0.0000000001
 40
0.0
 40
0.0
 40
0.0
 40
0.0
 40
0.2500450529
 40
0.500095578
 40
1.0
 40
1.0
 40
1.0
 40
1.0
 10
109.4199769549
 20
1114.6893523738
 30
0.0
 10
111.2513622218
 20
1114.6893523738
 30
0.0
 10
114.9161126657
 20
1114.5330554592
 30
0.0
 10
122.1899224284
 20
1113.625015155
 30
0.0
 10
127.5528424821
 20
1112.3554800393
 30
0.0
 10
131.0706119473
 20
1111.3399874654
 30
0.0
  0
SPLINE
  5
83F
100
AcDbEntity
  8
BEZUGSACHSEN
100
AcDbSpline
 62
7
  6
CONTINUOUS
 70
0
 71
3
 72
11
 73
7
 74
0
 42
0.0000001
 43
0.0000001
 44
0.0000000001
 40
0.0
 40
0.0
 40
0.0
 40
0.0
 40
0.2616462713
 40
0.5145010125
 40
0.7595982368
 40
1.0
 40
1.0
 40
1.0
 40
1.0
 10
131.0706119473
 20
1111.3399874654
 30
0.0
 10
131.9359836474
 20
1111.8396100494
 30
0.0
 10
133.676929626
 20
1112.7571357649
 30
0.0
 10
136.3763476155
 20
1113.8378765
 30
0.0
 10
139.1202268141
 20
1114.5292805832
 30
0.0
 10
140.9778185664
 20
1114.6893523707
 30
0.0
 10
141.8959294916
 20
1114.6893523708
 30
0.0
  0
SPLINE
  5
840
100
AcDbEntity
  8
BEZUGSACHSEN
100
AcDbSpline
 62
7
  6
CONTINUOUS
 70
0
 71
3
 72
9
 73
5
 74
0
 42
0.0000001
 43
0.0000001
 44
0.0000000001
 40
0.0
 40
0.0
 40
0.0
 40
0.0
 40
0.4946648158
 40
1.0
 40
1.0
 40
1.0
 40
1.0
 10
141.8959294916
 20
1114.6893523708
 30
0.0
 10
142.8659844979
 20
1114.689352371
 30
0.0
 10
144.8306679921
 20
1114.5101826629
 30
0.0
 10
146.7340503472
 20
1114.0041963918
 30
0.0
 10
147.6722904774
 20
1113.6852187079
 30
0.0
  0
SPLINE
  5
841
100
AcDbEntity
  8
BEZUGSACHSEN
100
AcDbSpline
 62
7
  6
CONTINUOUS
 70
0
 71
3
 72
11
 73
7
 74
0
 42
0.0000001
 43
0.0000001
 44
0.0000000001
 40
0.0
 40
0.0
 40
0.0
 40
0.0
 40
0.2616462713
 40
0.5145010125
 40
0.7595982368
 40
1.0
 40
1.0
 40
1.0
 40
1.0
 10
66.1187066635
 20
1111.3399874654
 30
0.0
 10
66.9840783638
 20
1111.8396100495
 30
0.0
 10
68.7250243428
 20
1112.7571357653
 30
0.0
 10
71.4244423331
 20
1113.8378765005
 30
0.0
 10
74.1683215325
 20
1114.5292805836
 30
0.0
 10
76.0259132853
 20
1114.6893523708
 30
0.0
 10
76.9440242107
 20
1114.6893523708
 30
0.0
  0
SPLINE
  5
842
100
AcDbEntity
  8
BEZUGSACHSEN
100
AcDbSpline
 62
7
  6
CONTINUOUS
 70
0
 71
3
 72
11
 73
7
 74
0
 42
0.0000001
 43
0.0000001
 44
0.0000000001
 40
0.0
 40
0.0
 40
0.0
 40
0.0
 40
0.2404017719
 40
0.4854989971
 40
0.7383537318
 40
1.0
 40
1.0
 40
1.0
 40
1.0
 10
76.9440242107
 20
1114.6893523708
 30
0.0
 10
77.8621351693
 20
1114.6893523709
 30
0.0
 10
79.7197269571
 20
1114.5292805588
 30
0.0
 10
82.4636061684
 20
1113.8378764797
 30
0.0
 10
85.1630241222
 20
1112.7571357416
 30
0.0
 10
86.9039700682
 20
1111.8396100435
 30
0.0
 10
87.7693417581
 20
1111.3399874654
 30
0.0
  0
SPLINE
  5
843
100
AcDbEntity
  8
BEZUGSACHSEN
100
AcDbSpline
 62
7
  6
CONTINUOUS
 70
0
 71
3
 72
11
 73
7
 74
0
 42
0.0000001
 43
0.0000001
 44
0.0000000001
 40
0.0
 40
0.0
 40
0.0
 40
0.0
 40
0.2404017719
 40
0.4854989971
 40
0.7383537318
 40
1.0
 40
1.0
 40
1.0
 40
1.0
 10
154.4440242107
 20
1114.6893523708
 30
0.0
 10
155.3621351693
 20
1114.6893523709
 30
0.0
 10
157.2197269571
 20
1114.5292805588
 30
0.0
 10
159.9636061684
 20
1113.8378764797
 30
0.0
 10
162.6630241222
 20
1112.7571357416
 30
0.0
 10
164.4039700682
 20
1111.8396100435
 30
0.0
 10
165.2693417581
 20
1111.3399874654
 30
0.0
  0
SPLINE
  5
844
100
AcDbEntity
  8
BEZUGSACHSEN
100
AcDbSpline
 62
7
  6
CONTINUOUS
 70
0
 71
3
 72
11
 73
7
 74
0
 42
0.0000001
 43
0.0000001
 44
0.0000000001
 40
0.0
 40
0.0
 40
0.0
 40
0.0
 40
0.2616462713
 40
0.5145010125
 40
0.7595982368
 40
1.0
 40
1.0
 40
1.0
 40
1.0
 10
143.6187066635
 20
1111.3399874654
 30
0.0
 10
144.4840783638
 20
1111.8396100495
 30
0.0
 10
146.2250243428
 20
1112.7571357653
 30
0.0
 10
148.9244423331
 20
1113.8378765005
 30
0.0
 10
151.6683215325
 20
1114.5292805836
 30
0.0
 10
153.5259132853
 20
1114.6893523708
 30
0.0
 10
154.4440242107
 20
1114.6893523708
 30
0.0
  0
SPLINE
  5
845
100
AcDbEntity
  8
BEZUGSACHSEN
100
AcDbSpline
 62
7
  6
CONTINUOUS
 70
0
 71
3
 72
10
 73
6
 74
0
 42
0.0000001
 43
0.0000001
 44
0.0000000001
 40
0.0
 40
0.0
 40
0.0
 40
0.0
 40
0.4999046085
 40
0.749955089
 40
1.0
 40
1.0
 40
1.0
 40
1.0
 10
165.2693417581
 20
1111.3399874654
 30
0.0
 10
168.7871125687
 20
1112.3554804276
 30
0.0
 10
174.150033755
 20
1113.6250154857
 30
0.0
 10
181.4238435812
 20
1114.5330559189
 30
0.0
 10
185.08859271
 20
1114.6893523738
 30
0.0
 10
186.9199769549
 20
1114.6893523738
 30
0.0
  0
SPLINE
  5
846
100
AcDbEntity
  8
BEZUGSACHSEN
100
AcDbSpline
 62
7
  6
CONTINUOUS
 70
0
 71
3
 72
10
 73
6
 74
0
 42
0.0000001
 43
0.0000001
 44
0.0000000001
 40
0.0
 40
0.0
 40
0.0
 40
0.0
 40
0.2500450529
 40
0.500095578
 40
1.0
 40
1.0
 40
1.0
 40
1.0
 10
186.9199769549
 20
1114.6893523738
 30
0.0
 10
188.7513622218
 20
1114.6893523738
 30
0.0
 10
192.4161126657
 20
1114.5330554592
 30
0.0
 10
199.6899224284
 20
1113.625015155
 30
0.0
 10
205.0528424821
 20
1112.3554800393
 30
0.0
 10
208.5706119473
 20
1111.3399874654
 30
0.0
  0
SPLINE
  5
847
100
AcDbEntity
  8
BEZUGSACHSEN
100
AcDbSpline
 62
7
  6
CONTINUOUS
 70
0
 71
3
 72
11
 73
7
 74
0
 42
0.0000001
 43
0.0000001
 44
0.0000000001
 40
0.0
 40
0.0
 40
0.0
 40
0.0
 40
0.2616462713
 40
0.5145010125
 40
0.7595982368
 40
1.0
 40
1.0
 40
1.0
 40
1.0
 10
208.5706119473
 20
1111.3399874654
 30
0.0
 10
209.4359836474
 20
1111.8396100494
 30
0.0
 10
211.176929626
 20
1112.7571357649
 30
0.0
 10
213.8763476155
 20
1113.8378765
 30
0.0
 10
216.6202268141
 20
1114.5292805832
 30
0.0
 10
218.4778185664
 20
1114.6893523707
 30
0.0
 10
219.3959294916
 20
1114.6893523708
 30
0.0
  0
SPLINE
  5
848
100
AcDbEntity
  8
BEZUGSACHSEN
100
AcDbSpline
 62
7
  6
CONTINUOUS
 70
0
 71
3
 72
11
 73
7
 74
0
 42
0.0000001
 43
0.0000001
 44
0.0000000001
 40
0.0
 40
0.0
 40
0.0
 40
0.0
 40
0.2404017719
 40
0.4854989971
 40
0.7383537318
 40
1.0
 40
1.0
 40
1.0
 40
1.0
 10
219.3959294916
 20
1114.6893523708
 30
0.0
 10
220.3140404504
 20
1114.689352371
 30
0.0
 10
222.1716322387
 20
1114.5292805592
 30
0.0
 10
224.9155114508
 20
1113.8378764802
 30
0.0
 10
227.6149294053
 20
1112.757135742
 30
0.0
 10
229.3558753518
 20
1111.8396100437
 30
0.0
 10
230.221247042
 20
1111.3399874654
 30
0.0
  0
SPLINE
  5
849
100
AcDbEntity
  8
BEZUGSACHSEN
100
AcDbSpline
 62
7
  6
CONTINUOUS
 70
0
 71
3
 72
11
 73
7
 74
0
 42
0.0000001
 43
0.0000001
 44
0.0000000001
 40
0.0
 40
0.0
 40
0.0
 40
0.0
 40
0.2404017719
 40
0.4854989971
 40
0.7383537318
 40
1.0
 40
1.0
 40
1.0
 40
1.0
 10
309.4440242107
 20
1114.6893523708
 30
0.0
 10
310.3621351693
 20
1114.6893523709
 30
0.0
 10
312.2197269571
 20
1114.5292805588
 30
0.0
 10
314.9636061684
 20
1113.8378764797
 30
0.0
 10
317.6630241222
 20
1112.7571357416
 30
0.0
 10
319.4039700682
 20
1111.8396100435
 30
0.0
 10
320.2693417581
 20
1111.3399874654
 30
0.0
  0
SPLINE
  5
84A
100
AcDbEntity
  8
BEZUGSACHSEN
100
AcDbSpline
 62
7
  6
CONTINUOUS
 70
0
 71
3
 72
11
 73
7
 74
0
 42
0.0000001
 43
0.0000001
 44
0.0000000001
 40
0.0
 40
0.0
 40
0.0
 40
0.0
 40
0.2616462713
 40
0.5145010125
 40
0.7595982368
 40
1.0
 40
1.0
 40
1.0
 40
1.0
 10
298.6187066635
 20
1111.3399874654
 30
0.0
 10
299.4840783638
 20
1111.8396100495
 30
0.0
 10
301.2250243428
 20
1112.7571357653
 30
0.0
 10
303.9244423331
 20
1113.8378765005
 30
0.0
 10
306.6683215325
 20
1114.5292805836
 30
0.0
 10
308.5259132853
 20
1114.6893523708
 30
0.0
 10
309.4440242107
 20
1114.6893523708
 30
0.0
  0
SPLINE
  5
84B
100
AcDbEntity
  8
BEZUGSACHSEN
100
AcDbSpline
 62
7
  6
CONTINUOUS
 70
0
 71
3
 72
10
 73
6
 74
0
 42
0.0000001
 43
0.0000001
 44
0.0000000001
 40
0.0
 40
0.0
 40
0.0
 40
0.0
 40
0.4999046085
 40
0.749955089
 40
1.0
 40
1.0
 40
1.0
 40
1.0
 10
320.2693417581
 20
1111.3399874654
 30
0.0
 10
323.7871125687
 20
1112.3554804276
 30
0.0
 10
329.150033755
 20
1113.6250154857
 30
0.0
 10
336.4238435812
 20
1114.5330559189
 30
0.0
 10
340.08859271
 20
1114.6893523738
 30
0.0
 10
341.9199769549
 20
1114.6893523738
 30
0.0
  0
SPLINE
  5
84C
100
AcDbEntity
  8
BEZUGSACHSEN
100
AcDbSpline
 62
7
  6
CONTINUOUS
 70
0
 71
3
 72
10
 73
6
 74
0
 42
0.0000001
 43
0.0000001
 44
0.0000000001
 40
0.0
 40
0.0
 40
0.0
 40
0.0
 40
0.2500450529
 40
0.500095578
 40
1.0
 40
1.0
 40
1.0
 40
1.0
 10
341.9199769549
 20
1114.6893523738
 30
0.0
 10
343.7513622218
 20
1114.6893523738
 30
0.0
 10
347.4161126657
 20
1114.5330554592
 30
0.0
 10
354.6899224284
 20
1113.625015155
 30
0.0
 10
360.0528424821
 20
1112.3554800393
 30
0.0
 10
363.5706119473
 20
1111.3399874654
 30
0.0
  0
SPLINE
  5
84D
100
AcDbEntity
  8
BEZUGSACHSEN
100
AcDbSpline
 62
7
  6
CONTINUOUS
 70
0
 71
3
 72
11
 73
7
 74
0
 42
0.0000001
 43
0.0000001
 44
0.0000000001
 40
0.0
 40
0.0
 40
0.0
 40
0.0
 40
0.2616462713
 40
0.5145010125
 40
0.7595982368
 40
1.0
 40
1.0
 40
1.0
 40
1.0
 10
363.5706119473
 20
1111.3399874654
 30
0.0
 10
364.4359836474
 20
1111.8396100494
 30
0.0
 10
366.176929626
 20
1112.7571357649
 30
0.0
 10
368.8763476155
 20
1113.8378765
 30
0.0
 10
371.6202268141
 20
1114.5292805832
 30
0.0
 10
373.4778185664
 20
1114.6893523707
 30
0.0
 10
374.3959294916
 20
1114.6893523708
 30
0.0
  0
SPLINE
  5
84E
100
AcDbEntity
  8
BEZUGSACHSEN
100
AcDbSpline
 62
7
  6
CONTINUOUS
 70
0
 71
3
 72
11
 73
7
 74
0
 42
0.0000001
 43
0.0000001
 44
0.0000000001
 40
0.0
 40
0.0
 40
0.0
 40
0.0
 40
0.2404017719
 40
0.4854989971
 40
0.7383537318
 40
1.0
 40
1.0
 40
1.0
 40
1.0
 10
374.3959294916
 20
1114.6893523708
 30
0.0
 10
375.3140404504
 20
1114.689352371
 30
0.0
 10
377.1716322387
 20
1114.5292805592
 30
0.0
 10
379.9155114508
 20
1113.8378764802
 30
0.0
 10
382.6149294053
 20
1112.757135742
 30
0.0
 10
384.3558753518
 20
1111.8396100437
 30
0.0
 10
385.221247042
 20
1111.3399874654
 30
0.0
  0
LINE
  5
84F
100
AcDbEntity
  8
RUNDUNGEN
100
AcDbLine
 62
7
  6
CONTINUOUS
 10
402.9199490886
 20
1265.5987985547
 11
402.9199751175
 21
1265.5706931597
  0
LINE
  5
850
100
AcDbEntity
  8
RUNDUNGEN
100
AcDbLine
 62
7
  6
CONTINUOUS
 10
402.9199751175
 20
1265.5706931597
 11
402.9199768527
 21
1265.5613183187
  0
LINE
  5
851
100
AcDbEntity
  8
RUNDUNGEN
100
AcDbLine
 62
7
  6
CONTINUOUS
 10
200.919975753
 20
1265.5660064445
 11
200.9199592549
 21
1265.5800528931
  0
LINE
  5
852
100
AcDbEntity
  8
RUNDUNGEN
100
AcDbLine
 62
7
  6
CONTINUOUS
 10
200.9199768527
 20
1265.5613183187
 11
200.9199612231
 21
1265.5894444217
  0
LINE
  5
853
100
AcDbEntity
  8
RUNDUNGEN
100
AcDbLine
 62
7
  6
CONTINUOUS
 10
200.9199612231
 20
1265.5894444217
 11
200.9199490666
 21
1265.5988134083
  0
LINE
  5
854
100
AcDbEntity
  8
RUNDUNGEN
100
AcDbLine
 62
7
  6
CONTINUOUS
 10
402.9199592688
 20
1265.5800454768
 11
402.9199724568
 21
1265.5706883214
  0
LINE
  5
855
100
AcDbEntity
  8
RUNDUNGEN
100
AcDbLine
 62
7
  6
CONTINUOUS
 10
402.9199724568
 20
1265.5706883214
 11
402.9199757538
 21
1265.5660045919
  0
SPLINE
  5
856
100
AcDbEntity
  8
BEZUGSACHSEN
100
AcDbSpline
 62
7
  6
CONTINUOUS
 70
0
 71
3
 72
10
 73
6
 74
0
 42
0.0000001
 43
0.0000001
 44
0.0000000001
 40
0.0
 40
0.0
 40
0.0
 40
0.0
 40
0.2489202642
 40
0.4983930055
 40
1.0
 40
1.0
 40
1.0
 40
1.0
 10
788.2556211509
 20
1114.6893523708
 30
0.0
 10
789.8421114116
 20
1114.6893523709
 30
0.0
 10
793.0208329909
 20
1114.53263571
 30
0.0
 10
799.3359212307
 20
1113.621337553
 30
0.0
 10
803.972693884
 20
1112.3509632211
 30
0.0
 10
807.0056211511
 20
1111.3399874654
 30
0.0
  0
SPLINE
  5
857
100
AcDbEntity
  8
BEZUGSACHSEN
100
AcDbSpline
 62
7
  6
CONTINUOUS
 70
0
 71
3
 72
10
 73
6
 74
0
 42
0.0000001
 43
0.0000001
 44
0.0000000001
 40
0.0
 40
0.0
 40
0.0
 40
0.0
 40
0.5016070043
 40
0.7510797447
 40
1.0
 40
1.0
 40
1.0
 40
1.0
 10
769.5056211511
 20
1111.3399874654
 30
0.0
 10
772.538548477
 20
1112.3509632408
 30
0.0
 10
777.1753211894
 20
1113.6213375704
 30
0.0
 10
783.4904094288
 20
1114.5326357343
 30
0.0
 10
786.6691309469
 20
1114.6893523708
 30
0.0
 10
788.2556211509
 20
1114.6893523708
 30
0.0
  0
SPLINE
  5
858
100
AcDbEntity
  8
BEZUGSACHSEN
100
AcDbSpline
 62
7
  6
CONTINUOUS
 70
0
 71
3
 72
9
 73
5
 74
0
 42
0.0000001
 43
0.0000001
 44
0.0000000001
 40
0.0
 40
0.0
 40
0.0
 40
0.0
 40
0.5017258138
 40
1.0
 40
1.0
 40
1.0
 40
1.0
 10
732.0056211511
 20
1111.3399874654
 30
0.0
 10
734.6179846136
 20
1112.2107752863
 30
0.0
 10
739.9113819022
 20
1113.7061807843
 30
0.0
 10
745.3726000668
 20
1114.4691324121
 30
0.0
 10
748.1033142674
 20
1114.6172620871
 30
0.0
  0
SPLINE
  5
859
100
AcDbEntity
  8
BEZUGSACHSEN
100
AcDbSpline
 62
7
  6
CONTINUOUS
 70
0
 71
3
 72
10
 73
6
 74
0
 42
0.0000001
 43
0.0000001
 44
0.0000000001
 40
0.0
 40
0.0
 40
0.0
 40
0.0
 40
0.2489202642
 40
0.4983930055
 40
1.0
 40
1.0
 40
1.0
 40
1.0
 10
750.7556211543
 20
1114.6893523708
 30
0.0
 10
752.3421114147
 20
1114.6893523707
 30
0.0
 10
755.5208329935
 20
1114.5326357097
 30
0.0
 10
761.8359212321
 20
1113.6213375526
 30
0.0
 10
766.4726938845
 20
1112.3509632209
 30
0.0
 10
769.5056211511
 20
1111.3399874654
 30
0.0
  0
SPLINE
  5
85A
100
AcDbEntity
  8
BEZUGSACHSEN
100
AcDbSpline
 62
7
  6
CONTINUOUS
 70
0
 71
3
 72
10
 73
6
 74
0
 42
0.0000001
 43
0.0000001
 44
0.0000000001
 40
0.0
 40
0.0
 40
0.0
 40
0.0
 40
0.5016070043
 40
0.7510797447
 40
1.0
 40
1.0
 40
1.0
 40
1.0
 10
1037.9734963242
 20
1111.3399874654
 30
0.0
 10
1041.0064236502
 20
1112.3509632408
 30
0.0
 10
1045.6431963625
 20
1113.6213375704
 30
0.0
 10
1051.958284602
 20
1114.5326357343
 30
0.0
 10
1055.1370061201
 20
1114.6893523708
 30
0.0
 10
1056.7234963241
 20
1114.6893523708
 30
0.0
  0
SPLINE
  5
85B
100
AcDbEntity
  8
BEZUGSACHSEN
100
AcDbSpline
 62
7
  6
CONTINUOUS
 70
0
 71
3
 72
10
 73
6
 74
0
 42
0.0000001
 43
0.0000001
 44
0.0000000001
 40
0.0
 40
0.0
 40
0.0
 40
0.0
 40
0.2489202642
 40
0.4983930055
 40
1.0
 40
1.0
 40
1.0
 40
1.0
 10
1056.7234963241
 20
1114.6893523708
 30
0.0
 10
1058.3099865848
 20
1114.6893523709
 30
0.0
 10
1061.4887081641
 20
1114.53263571
 30
0.0
 10
1067.8037964039
 20
1113.621337553
 30
0.0
 10
1072.4405690572
 20
1112.3509632211
 30
0.0
 10
1075.4734963242
 20
1111.3399874654
 30
0.0
  0
SPLINE
  5
85C
100
AcDbEntity
  8
BEZUGSACHSEN
100
AcDbSpline
 62
7
  6
CONTINUOUS
 70
0
 71
3
 72
10
 73
6
 74
0
 42
0.0000001
 43
0.0000001
 44
0.0000000001
 40
0.0
 40
0.0
 40
0.0
 40
0.0
 40
0.2489202642
 40
0.4983930055
 40
1.0
 40
1.0
 40
1.0
 40
1.0
 10
1019.2234963275
 20
1114.6893523708
 30
0.0
 10
1020.8099865879
 20
1114.6893523707
 30
0.0
 10
1023.9887081666
 20
1114.5326357097
 30
0.0
 10
1030.3037964053
 20
1113.6213375526
 30
0.0
 10
1034.9405690577
 20
1112.3509632209
 30
0.0
 10
1037.9734963242
 20
1111.3399874654
 30
0.0
  0
SPLINE
  5
85D
100
AcDbEntity
  8
BEZUGSACHSEN
100
AcDbSpline
 62
7
  6
CONTINUOUS
 70
0
 71
3
 72
9
 73
5
 74
0
 42
0.0000001
 43
0.0000001
 44
0.0000000001
 40
0.0
 40
0.0
 40
0.0
 40
0.0
 40
0.5017258138
 40
1.0
 40
1.0
 40
1.0
 40
1.0
 10
1000.4734963242
 20
1111.3399874654
 30
0.0
 10
1003.0858597867
 20
1112.2107752863
 30
0.0
 10
1008.3792570754
 20
1113.7061807843
 30
0.0
 10
1013.84047524
 20
1114.4691324121
 30
0.0
 10
1016.5711894406
 20
1114.6172620871
 30
0.0
  0
SPLINE
  5
85E
100
AcDbEntity
  8
BEZUGSACHSEN
100
AcDbSpline
 62
7
  6
CONTINUOUS
 70
0
 71
3
 72
10
 73
6
 74
0
 42
0.0000001
 43
0.0000001
 44
0.0000000001
 40
0.0
 40
0.0
 40
0.0
 40
0.0
 40
0.2489202642
 40
0.4983930055
 40
1.0
 40
1.0
 40
1.0
 40
1.0
 10
922.4895587375
 20
1114.6893523708
 30
0.0
 10
924.0760489982
 20
1114.6893523709
 30
0.0
 10
927.2547705775
 20
1114.53263571
 30
0.0
 10
933.5698588173
 20
1113.621337553
 30
0.0
 10
938.2066314706
 20
1112.3509632211
 30
0.0
 10
941.2395587377
 20
1111.3399874654
 30
0.0
  0
SPLINE
  5
85F
100
AcDbEntity
  8
BEZUGSACHSEN
100
AcDbSpline
 62
7
  6
CONTINUOUS
 70
0
 71
3
 72
10
 73
6
 74
0
 42
0.0000001
 43
0.0000001
 44
0.0000000001
 40
0.0
 40
0.0
 40
0.0
 40
0.0
 40
0.5016070043
 40
0.7510797447
 40
1.0
 40
1.0
 40
1.0
 40
1.0
 10
903.7395587377
 20
1111.3399874654
 30
0.0
 10
906.7724860636
 20
1112.3509632408
 30
0.0
 10
911.4092587759
 20
1113.6213375704
 30
0.0
 10
917.7243470154
 20
1114.5326357343
 30
0.0
 10
920.9030685335
 20
1114.6893523708
 30
0.0
 10
922.4895587375
 20
1114.6893523708
 30
0.0
  0
SPLINE
  5
860
100
AcDbEntity
  8
BEZUGSACHSEN
100
AcDbSpline
 62
7
  6
CONTINUOUS
 70
0
 71
3
 72
9
 73
5
 74
0
 42
0.0000001
 43
0.0000001
 44
0.0000000001
 40
0.0
 40
0.0
 40
0.0
 40
0.0
 40
0.5017258138
 40
1.0
 40
1.0
 40
1.0
 40
1.0
 10
866.2395587377
 20
1111.3399874654
 30
0.0
 10
868.8519222002
 20
1112.2107752863
 30
0.0
 10
874.1453194888
 20
1113.7061807843
 30
0.0
 10
879.6065376534
 20
1114.4691324121
 30
0.0
 10
882.337251854
 20
1114.6172620871
 30
0.0
  0
SPLINE
  5
861
100
AcDbEntity
  8
BEZUGSACHSEN
100
AcDbSpline
 62
7
  6
CONTINUOUS
 70
0
 71
3
 72
10
 73
6
 74
0
 42
0.0000001
 43
0.0000001
 44
0.0000000001
 40
0.0
 40
0.0
 40
0.0
 40
0.0
 40
0.2489202642
 40
0.4983930055
 40
1.0
 40
1.0
 40
1.0
 40
1.0
 10
884.9895587409
 20
1114.6893523708
 30
0.0
 10
886.5760490013
 20
1114.6893523707
 30
0.0
 10
889.7547705801
 20
1114.5326357097
 30
0.0
 10
896.0698588187
 20
1113.6213375526
 30
0.0
 10
900.7066314711
 20
1112.3509632209
 30
0.0
 10
903.7395587377
 20
1111.3399874654
 30
0.0
  0
ENDSEC
  0
SECTION
  2
OBJECTS
  0
DICTIONARY
  5
C
100
AcDbDictionary
280
0
281
1
  3
ACAD_GROUP
350
D
  3
ACAD_MLINESTYLE
350
17
  3
ACAD_LAYOUT
350
1A
  3
ACAD_PLOTSETTINGS
350
19
  3
ACAD_PLOTSTYLENAME
350
E
  0
DICTIONARY
  5
D
102
{ACAD_REACTORS
330
C
102
}
100
AcDbDictionary
280
0
281
1
  0
ACDBDICTIONARYWDFLT
  5
E
102
{ACAD_REACTORS
330
C
102
}
100
AcDbDictionary
281
1
  3
Normal
350
F
100
AcDbDictionaryWithDefault
340
F
  0
DICTIONARY
  5
17
102
{ACAD_REACTORS
330
C
102
}
100
AcDbDictionary
280
0
281
1
  3
Standard
350
18
  0
DICTIONARY
  5
19
102
{ACAD_REACTORS
330
C
102
}
100
AcDbDictionary
281
1
  0
DICTIONARY
  5
1A
102
{ACAD_REACTORS
330
C
102
}
100
AcDbDictionary
281
1
  3
Model
350
862
  3
Layout1
350
863
  0
ACDBPLACEHOLDER
  5
F
102
{ACAD_REACTORS
330
E
102
}
  0
MLINESTYLE
  5
18
102
{ACAD_REACTORS
330
17
102
}
100
AcDbMlineStyle
  2
STANDARD
 70
0
  3

 62
256
 51
90.0
 52
90.0
 71
2
 49
0.5
 62
256
  6
BYLAYER
 49
-0.5
 62
256
  6
BYLAYER
  0
LAYOUT
  5
862
102
{ACAD_REACTORS
330
1A
102
}
100
AcDbPlotSettings
  1

  2
none_device
  4
ISO_A0_(1189.00_x_841.00_MM)
  6

 40
0.0
 41
0.0
 42
0.0
 43
0.0
 44
1189.0
 45
841.0
 46
0.0
 47
0.0
 48
0.0
 49
0.0
140
0.0
141
0.0
142
1.0
143
1.0
 70
1024
 72
1
 73
0
 74
0
  7

 75
0
147
1.0
148
0.0
149
0.0
100
AcDbLayout
  1
Model
 70
0
 71
0
 10
0.0
 20
0.0
 11
1189.0
 21
841.0
 12
0.0
 22
0.0
 32
0.0
 14
0.0
 24
0.0
 34
0.0
 15
0.0
 25
0.0
 35
0.0
146
0.0
 13
0.0
 23
0.0
 33
0.0
 16
1.0
 26
0.0
 36
0.0
 17
0.0
 27
1.0
 37
0.0
 76
0
330
20E
345
0
346
0
  0
LAYOUT
  5
863
102
{ACAD_REACTORS
330
1A
102
}
100
AcDbPlotSettings
  1

  2
none_device
  4
ISO_A0_(1189.00_x_841.00_MM)
  6

 40
0.0
 41
0.0
 42
0.0
 43
0.0
 44
1189.0
 45
841.0
 46
0.0
 47
0.0
 48
0.0
 49
0.0
140
0.0
141
0.0
142
1.0
143
1.0
 70
0
 72
1
 73
0
 74
0
  7

 75
0
147
1.0
148
0.0
149
0.0
100
AcDbLayout
  1
Layout1
 70
0
 71
1
 10
0.0
 20
0.0
 11
1189.0
 21
841.0
 12
0.0
 22
0.0
 32
0.0
 14
0.0
 24
0.0
 34
0.0
 15
0.0
 25
0.0
 35
0.0
146
0.0
 13
0.0
 23
0.0
 33
0.0
 16
1.0
 26
0.0
 36
0.0
 17
0.0
 27
1.0
 37
0.0
 76
0
330
20F
345
0
346
0
  0
ENDSEC
  0
EOF
