999
DXF file: WBPG-200t_7900383_M33611-P-1.dxf
999
Pro/ENGINEER 2011490 by Parametric Technology Corporation
  0
SECTION
  2
HEADER
  9
$ACADVER
  1
AC1015
  9
$DWGCODEPAGE
  3
ANSI_1252
  9
$EXTMAX
 10
1189.0
 20
841.0
 30
0.0
  9
$EXTMIN
 10
0.0
 20
0.0
 30
0.0
  9
$LIMMIN
 10
0.0
 20
0.0
  9
$LIMMAX
 10
1189.0
 20
841.0
  9
$VIEWCTR
 10
594.5
 20
420.5
  9
$VIEWSIZE
 40
841.0
  9
$CLAYER
  8
0
  9
$LTSCALE
 40
65.395
  9
$CELTYPE
  6
BYLAYER
  9
$DIMSCALE
 40
1.0
  9
$DIMASZ
 40
3.5
  9
$DIMEXO
 40
7.43125
  9
$DIMDLI
 40
45.182
  9
$DIMEXE
 40
21.402
  9
$DIMCEN
 40
10.701
  9
$DIMLFAC
 40
1.0
  9
$DIMBLK
  1
_FILLED
  9
$DIMTXT
 40
3.5
  9
$DIMTOL
 70
1
  9
$DIMLIM
 70
0
  9
$DIMTFAC
 40
1.0
  9
$DIMTP
 40
0.005
  9
$DIMTM
 40
0.005
  9
$PDMODE
 70
3
  9
$PDSIZE
 40
0.3125
  9
$HANDSEED
  5
4B3
  9
$TILEMODE
 70
1
  9
$MEASUREMENT
 70
1
  9
$INSUNITS
 70
4
  0
ENDSEC
  0
SECTION
  2
CLASSES
  0
CLASS
  1
ACDBDICTIONARYWDFLT
  2
AcDbDictionaryWithDefault
  3
AutoCAD 2000
 90
0
280
0
281
0
  0
CLASS
  1
ACDBPLACEHOLDER
  2
AcDbPlaceHolder
  3
AutoCAD 2000
 90
0
280
0
281
0
  0
CLASS
  1
LAYOUT
  2
AcDbLayout
  3
AutoCAD 2000
 90
0
280
0
281
0
  0
ENDSEC
  0
SECTION
  2
TABLES
  0
TABLE
  2
VPORT
  5
8
100
AcDbSymbolTable
 70
2
  0
VPORT
  5
1F4
100
AcDbSymbolTableRecord
100
AcDbViewportTableRecord
  2
*ACTIVE
 70
0
 10
0.0
 20
0.0
 11
1.0
 21
1.0
 12
594.5
 22
420.5
 13
0.0
 23
0.0
 14
1.0
 24
1.0
 15
0.0
 25
0.0
 16
0.0
 26
0.0
 36
1.0
 17
0.0
 27
0.0
 37
0.0
 40
841.0
 41
1.4137931034
 42
50.0
 43
0.0
 44
0.0
 50
0.0
 51
0.0
 71
0
 72
100
 73
1
 74
1
 75
0
 76
0
 77
0
 78
0
  0
ENDTAB
  0
TABLE
  2
LTYPE
  5
5
100
AcDbSymbolTable
 70
6
  0
LTYPE
  5
14
100
AcDbSymbolTableRecord
100
AcDbLinetypeTableRecord
  2
BYBLOCK
 70
0
  3

 72
65
 73
0
 40
0.0
  0
LTYPE
  5
15
100
AcDbSymbolTableRecord
100
AcDbLinetypeTableRecord
  2
BYLAYER
 70
0
  3

 72
65
 73
0
 40
0.0
  0
LTYPE
  5
16
100
AcDbSymbolTableRecord
100
AcDbLinetypeTableRecord
  2
CONTINUOUS
 70
64
  3
Solid line
 72
65
 73
0
 40
0.0
  0
LTYPE
  5
1F5
100
AcDbSymbolTableRecord
100
AcDbLinetypeTableRecord
  2
CENTER
 70
64
  3
____ _ ____ _ ____ _ ____ _ ____ _ ____ _ ____
 72
65
 73
4
 40
0.6
 49
0.375
 74
0
 49
-0.075
 74
0
 49
0.075
 74
0
 49
-0.075
 74
0
  0
LTYPE
  5
1F6
100
AcDbSymbolTableRecord
100
AcDbLinetypeTableRecord
  2
HIDDEN
 70
64
  3
- - - - - - - - - - - - - - - - - - - -
 72
65
 73
2
 40
0.2
 49
0.1
 74
0
 49
-0.1
 74
0
  0
LTYPE
  5
1F7
100
AcDbSymbolTableRecord
100
AcDbLinetypeTableRecord
  2
PHANTOM
 70
64
  3
_____ _ _ _____ _ _ _____ _ _ _____
 72
65
 73
6
 40
0.8
 49
0.45
 74
0
 49
-0.05
 74
0
 49
0.1
 74
0
 49
-0.05
 74
0
 49
0.1
 74
0
 49
-0.05
 74
0
  0
LTYPE
  5
1F8
100
AcDbSymbolTableRecord
100
AcDbLinetypeTableRecord
  2
DOT
 70
64
  3
. . . . . . . . . . . . . . . . . . . .
 72
65
 73
2
 40
0.2
 49
0.1
 74
0
 49
-0.1
 74
0
  0
LTYPE
  5
1F9
100
AcDbSymbolTableRecord
100
AcDbLinetypeTableRecord
  2
DASHED
 70
64
  3
- - - - - - - - - - - - - - - - - - - -
 72
65
 73
2
 40
0.2
 49
0.1
 74
0
 49
-0.1
 74
0
  0
ENDTAB
  0
TABLE
  2
LAYER
  5
2
100
AcDbSymbolTable
 70
36
  0
LAYER
  5
10
100
AcDbSymbolTableRecord
100
AcDbLayerTableRecord
  2
0
 70
0
 62
7
  6
CONTINUOUS
370
-3
390
F
  0
LAYER
  5
1FA
100
AcDbSymbolTableRecord
100
AcDbLayerTableRecord
  2
DEFAULT_1
 70
0
 62
7
  6
CENTER
370
-3
390
F
  0
LAYER
  5
1FB
100
AcDbSymbolTableRecord
100
AcDbLayerTableRecord
  2
DEFAULT_2
 70
0
 62
8
  6
HIDDEN
370
-3
390
F
  0
LAYER
  5
1FC
100
AcDbSymbolTableRecord
100
AcDbLayerTableRecord
  2
DEFAULT_3
 70
0
 62
7
  6
PHANTOM
370
-3
390
F
  0
LAYER
  5
1FD
100
AcDbSymbolTableRecord
100
AcDbLayerTableRecord
  2
BEZUGSACHSEN
 70
0
 62
7
  6
CONTINUOUS
370
-3
390
F
  0
LAYER
  5
1FE
100
AcDbSymbolTableRecord
100
AcDbLayerTableRecord
  2
BEZUGSEBENEN
 70
0
 62
7
  6
CONTINUOUS
370
-3
390
F
  0
LAYER
  5
1FF
100
AcDbSymbolTableRecord
100
AcDbLayerTableRecord
  2
BG_STARTBEZUEGE
 70
0
 62
7
  6
CONTINUOUS
370
-3
390
F
  0
LAYER
  5
200
100
AcDbSymbolTableRecord
100
AcDbLayerTableRecord
  2
BOHRUNGEN
 70
0
 62
7
  6
CONTINUOUS
370
-3
390
F
  0
LAYER
  5
201
100
AcDbSymbolTableRecord
100
AcDbLayerTableRecord
  2
FASEN
 70
0
 62
7
  6
CONTINUOUS
370
-3
390
F
  0
LAYER
  5
202
100
AcDbSymbolTableRecord
100
AcDbLayerTableRecord
  2
FLAECHEN
 70
0
 62
7
  6
CONTINUOUS
370
-3
390
F
  0
LAYER
  5
203
100
AcDbSymbolTableRecord
100
AcDbLayerTableRecord
  2
FLAECHENVERBUND
 70
0
 62
7
  6
CONTINUOUS
370
-3
390
F
  0
LAYER
  5
204
100
AcDbSymbolTableRecord
100
AcDbLayerTableRecord
  2
GEWINDE
 70
0
 62
7
  6
CONTINUOUS
370
-3
390
F
  0
LAYER
  5
205
100
AcDbSymbolTableRecord
100
AcDbLayerTableRecord
  2
HILFEN
 70
0
 62
7
  6
CONTINUOUS
370
-3
390
F
  0
LAYER
  5
206
100
AcDbSymbolTableRecord
100
AcDbLayerTableRecord
  2
KONSTRUKTIONSELEMENTE
 70
0
 62
7
  6
CONTINUOUS
370
-3
390
F
  0
LAYER
  5
207
100
AcDbSymbolTableRecord
100
AcDbLayerTableRecord
  2
NORM
 70
0
 62
7
  6
CONTINUOUS
370
-3
390
F
  0
LAYER
  5
208
100
AcDbSymbolTableRecord
100
AcDbLayerTableRecord
  2
PLATZIERUNG
 70
0
 62
7
  6
CONTINUOUS
370
-3
390
F
  0
LAYER
  5
209
100
AcDbSymbolTableRecord
100
AcDbLayerTableRecord
  2
PLAZIERUNG
 70
0
 62
7
  6
CONTINUOUS
370
-3
390
F
  0
LAYER
  5
20A
100
AcDbSymbolTableRecord
100
AcDbLayerTableRecord
  2
RUNDUNGEN
 70
0
 62
7
  6
CONTINUOUS
370
-3
390
F
  0
LAYER
  5
20B
100
AcDbSymbolTableRecord
100
AcDbLayerTableRecord
  2
TEIL_STARTBEZUEGE
 70
0
 62
7
  6
CONTINUOUS
370
-3
390
F
  0
LAYER
  5
20C
100
AcDbSymbolTableRecord
100
AcDbLayerTableRecord
  2
T_STARTBEZUEGE
 70
0
 62
7
  6
CONTINUOUS
370
-3
390
F
  0
LAYER
  5
20D
100
AcDbSymbolTableRecord
100
AcDbLayerTableRecord
  2
ZEICHNUNGSBEMASSUNGEN
 70
0
 62
7
  6
CONTINUOUS
370
-3
390
F
  0
ENDTAB
  0
TABLE
  2
STYLE
  5
3
100
AcDbSymbolTable
 70
1
  0
STYLE
  5
11
100
AcDbSymbolTableRecord
100
AcDbTextStyleTableRecord
  2
STANDARD
 70
0
 40
0.0
 41
0.7
 50
0.0
 71
0
 42
0.2
  3
txt
  4

  0
STYLE
  5
20E
100
AcDbSymbolTableRecord
100
AcDbTextStyleTableRecord
  2
TEXTSTYLE_1
 70
0
 40
0.0
 41
0.8
 50
0.0
 71
0
 42
0.2
  3
gdt
  4

  0
ENDTAB
  0
TABLE
  2
VIEW
  5
6
100
AcDbSymbolTable
 70
0
  0
ENDTAB
  0
TABLE
  2
UCS
  5
7
100
AcDbSymbolTable
 70
0
  0
ENDTAB
  0
TABLE
  2
APPID
  5
9
100
AcDbSymbolTable
 70
1
  0
APPID
  5
20F
100
AcDbSymbolTableRecord
100
AcDbRegAppTableRecord
  2
ACAD
 70
0
  0
ENDTAB
  0
TABLE
  2
BLOCK_RECORD
  5
1
100
AcDbSymbolTable
 70
0
  0
BLOCK_RECORD
  5
210
100
AcDbSymbolTableRecord
100
AcDbBlockTableRecord
  2
*Model_Space
  0
BLOCK_RECORD
  5
211
100
AcDbSymbolTableRecord
100
AcDbBlockTableRecord
  2
*Paper_Space
  0
ENDTAB
  0
TABLE
  2
DIMSTYLE
  5
A
100
AcDbSymbolTable
 70
1
100
AcDbDimStyleTable
 71
0
  0
DIMSTYLE
105
212
100
AcDbSymbolTableRecord
100
AcDbDimStyleTableRecord
  2
STANDARD
 70
0
  3

  4

 40
1.0
 41
3.5
 42
0.0625
 43
0.38
 44
0.18
 45
0.0
 46
0.0
 47
0.005
 48
0.005
140
3.5
141
0.09
142
0.0
143
25.4
144
1.0
145
0.0
146
1.0
147
0.09
 71
1.0
 72
0.0
 73
0
 74
0
 75
0
 76
0
 77
1
 78
8
170
0
171
2
172
0
173
0
174
0
175
0
176
0
177
0
178
5
270
2
271
3
272
3
273
2
274
2
275
0
280
0
281
0
282
0
283
1
284
8
285
0
286
0
287
3
288
0
340
11
  0
ENDTAB
  0
ENDSEC
  0
SECTION
  2
BLOCKS
  0
BLOCK
  5
20
100
AcDbEntity
  8
0
100
AcDbBlockBegin
  2
*Model_Space
 70
0
 10
0.0
 20
0.0
 30
0.0
  3
*Model_Space
  1

  0
ENDBLK
  5
21
100
AcDbEntity
  8
0
100
AcDbBlockEnd
  0
BLOCK
  5
1C
100
AcDbEntity
  8
0
100
AcDbBlockBegin
  2
*Paper_Space
 70
0
 10
0.0
 20
0.0
 30
0.0
  3
*Paper_Space
  1

  0
ENDBLK
  5
1D
100
AcDbEntity
  8
0
100
AcDbBlockEnd
  0
ENDSEC
  0
SECTION
  2
ENTITIES
  0
MTEXT
  5
213
100
AcDbEntity
  8
0
100
AcDbMText
 62
5
  6
CONTINUOUS
  7
STANDARD
 71
2
 72
1
 10
378.1352778872
 20
1209.0876977717
 30
0.0
 11
1.0
 21
0.0
 31
0.0
 44
0.9
  1
RUD\PWBPG 200t
 40
15.0
 41
111.4285714286
  0
MTEXT
  5
214
100
AcDbEntity
  8
0
100
AcDbMText
 62
5
  6
CONTINUOUS
  7
STANDARD
 71
2
 72
1
 10
1364.0957099207
 20
1209.6520833741
 30
0.0
 11
1.0
 21
0.0
 31
0.0
 44
0.9
  1
RUD\PWBPG 200t
 40
15.0
 41
111.4285714286
  0
LINE
  5
215
100
AcDbEntity
  8
0
100
AcDbLine
 62
7
  6
CONTINUOUS
 10
0.0
 20
0.0
 11
0.0
 21
841.0
  0
LINE
  5
216
100
AcDbEntity
  8
0
100
AcDbLine
 62
7
  6
CONTINUOUS
 10
0.0
 20
0.0
 11
1189.0
 21
0.0
  0
LINE
  5
217
100
AcDbEntity
  8
0
100
AcDbLine
 62
7
  6
CONTINUOUS
 10
0.0
 20
841.0
 11
1189.0
 21
841.0
  0
LINE
  5
218
100
AcDbEntity
  8
0
100
AcDbLine
 62
7
  6
CONTINUOUS
 10
1189.0
 20
0.0
 11
1189.0
 21
841.0
  0
LINE
  5
219
100
AcDbEntity
  8
0
100
AcDbLine
 62
7
  6
CONTINUOUS
 10
102.9857082805
 20
1058.590794346
 11
198.7314596867
 21
1058.590794346
  0
LINE
  5
21A
100
AcDbEntity
  8
0
100
AcDbLine
 62
7
  6
CONTINUOUS
 10
275.7314596867
 20
1058.590794346
 11
323.7314596867
 21
1058.590794346
  0
LINE
  5
21B
100
AcDbEntity
  8
0
100
AcDbLine
 62
7
  6
CONTINUOUS
 10
430.2399568742
 20
1058.590794346
 11
478.2399568742
 21
1058.590794346
  0
LINE
  5
21C
100
AcDbEntity
  8
0
100
AcDbLine
 62
7
  6
CONTINUOUS
 10
555.2399568742
 20
1058.590794346
 11
650.9857082805
 21
1058.590794346
  0
LINE
  5
21D
100
AcDbEntity
  8
BEZUGSACHSEN
100
AcDbLine
 62
7
  6
CONTINUOUS
 10
51.9857082805
 20
1130.590794346
 11
701.9857082805
 21
1130.590794346
  0
LINE
  5
21E
100
AcDbEntity
  8
0
100
AcDbLine
 62
7
  6
CONTINUOUS
 10
74.4857082805
 20
1359.988386846
 11
83.8832982805
 21
1350.590796846
  0
LINE
  5
21F
100
AcDbEntity
  8
BEZUGSACHSEN
100
AcDbLine
 62
7
  6
CONTINUOUS
 10
51.9857082805
 20
1255.590794346
 11
701.9857082805
 21
1255.590794346
  0
LINE
  5
220
100
AcDbEntity
  8
RUNDUNGEN
100
AcDbLine
 62
7
  6
CONTINUOUS
 10
659.9857082805
 20
1256.590794346
 11
546.2399568742
 21
1256.590794346
  0
LINE
  5
221
100
AcDbEntity
  8
RUNDUNGEN
100
AcDbLine
 62
7
  6
CONTINUOUS
 10
487.2399568742
 20
1256.590794346
 11
421.2399568742
 21
1256.590794346
  0
LINE
  5
222
100
AcDbEntity
  8
RUNDUNGEN
100
AcDbLine
 62
7
  6
CONTINUOUS
 10
332.7314596867
 20
1256.590794346
 11
266.7314596867
 21
1256.590794346
  0
LINE
  5
223
100
AcDbEntity
  8
RUNDUNGEN
100
AcDbLine
 62
7
  6
CONTINUOUS
 10
207.7314596867
 20
1256.590794346
 11
93.9857082805
 21
1256.590794346
  0
LINE
  5
224
100
AcDbEntity
  8
0
100
AcDbLine
 62
7
  6
CONTINUOUS
 10
124.6664332805
 20
1323.090794346
 11
132.928200047
 21
1308.7809945459
  0
LINE
  5
225
100
AcDbEntity
  8
BEZUGSACHSEN
100
AcDbLine
 62
7
  6
CONTINUOUS
 10
51.9857082805
 20
1130.590794346
 11
51.9857082805
 21
1255.590794346
  0
LINE
  5
226
100
AcDbEntity
  8
0
100
AcDbLine
 62
7
  6
CONTINUOUS
 10
74.4857082805
 20
1471.193201846
 11
74.4857082805
 21
1359.988386846
  0
LINE
  5
227
100
AcDbEntity
  8
0
100
AcDbLine
 62
7
  6
CONTINUOUS
 10
83.8832982805
 20
1480.590791846
 11
83.8832982805
 21
1350.590796846
  0
LINE
  5
228
100
AcDbEntity
  8
0
100
AcDbLine
 62
7
  6
CONTINUOUS
 10
233.4857082805
 20
1278.790794346
 11
239.4857082805
 21
1278.790794346
  0
LINE
  5
229
100
AcDbEntity
  8
0
100
AcDbLine
 62
7
  6
CONTINUOUS
 10
514.4857082805
 20
1278.790794346
 11
520.4857082805
 21
1278.790794346
  0
LINE
  5
22A
100
AcDbEntity
  8
0
100
AcDbLine
 62
7
  6
CONTINUOUS
 10
97.4857082805
 20
1350.590796846
 11
97.4857082805
 21
1313.390794346
  0
LINE
  5
22B
100
AcDbEntity
  8
0
100
AcDbLine
 62
7
  6
CONTINUOUS
 10
97.4857082805
 20
1480.495991508
 11
97.4857082805
 21
1497.4981565862
  0
LINE
  5
22C
100
AcDbEntity
  8
0
100
AcDbLine
 62
7
  6
CONTINUOUS
 10
102.9857082805
 20
1130.590794346
 11
102.9857082805
 21
1058.590794346
  0
LINE
  5
22D
100
AcDbEntity
  8
0
100
AcDbLine
 62
7
  6
CONTINUOUS
 10
111.4857082805
 20
1497.4981565862
 11
111.4857082804
 21
1480.4959909333
  0
LINE
  5
22E
100
AcDbEntity
  8
0
100
AcDbLine
 62
7
  6
CONTINUOUS
 10
111.4857082805
 20
1350.590796846
 11
111.4857082805
 21
1313.390794346
  0
LINE
  5
22F
100
AcDbEntity
  8
0
100
AcDbLine
 62
7
  6
CONTINUOUS
 10
124.6664332805
 20
1508.0907031114
 11
124.6664332805
 21
1323.0908855805
  0
LINE
  5
230
100
AcDbEntity
  8
0
100
AcDbLine
 62
7
  6
CONTINUOUS
 10
179.4857082805
 20
1308.7809945458
 11
132.9282000471
 21
1308.7809945458
  0
LINE
  5
231
100
AcDbEntity
  8
0
100
AcDbLine
 62
7
  6
CONTINUOUS
 10
575.2688407805
 20
1308.7809945458
 11
626.5251440139
 21
1308.7809945458
  0
LINE
  5
232
100
AcDbEntity
  8
0
100
AcDbLine
 62
7
  6
CONTINUOUS
 10
97.4857082805
 20
1313.390794346
 11
111.4857082805
 21
1313.390794346
  0
LINE
  5
233
100
AcDbEntity
  8
0
100
AcDbLine
 62
7
  6
CONTINUOUS
 10
574.4857082805
 20
1337.277544346
 11
575.2688407805
 21
1337.277544346
  0
LINE
  5
234
100
AcDbEntity
  8
0
100
AcDbLine
 62
7
  6
CONTINUOUS
 10
150.7314596867
 20
1130.590794346
 11
150.7314596867
 21
1058.590794346
  0
LINE
  5
235
100
AcDbEntity
  8
0
100
AcDbLine
 62
7
  6
CONTINUOUS
 10
464.4857082805
 20
1350.590796846
 11
459.4857082805
 21
1350.590796846
  0
LINE
  5
236
100
AcDbEntity
  8
0
100
AcDbLine
 62
7
  6
CONTINUOUS
 10
294.4857082805
 20
1350.590796846
 11
289.4857082805
 21
1350.590796846
  0
LINE
  5
237
100
AcDbEntity
  8
0
100
AcDbLine
 62
7
  6
CONTINUOUS
 10
124.6664332805
 20
1350.590796846
 11
112.3170332805
 21
1350.590796846
  0
LINE
  5
238
100
AcDbEntity
  8
0
100
AcDbLine
 62
7
  6
CONTINUOUS
 10
96.6543832805
 20
1350.590796846
 11
83.8832982805
 21
1350.590796846
  0
LINE
  5
239
100
AcDbEntity
  8
0
100
AcDbLine
 62
7
  6
CONTINUOUS
 10
626.5251440138
 20
1362.185894446
 11
575.2688407805
 21
1362.185894446
  0
LINE
  5
23A
100
AcDbEntity
  8
0
100
AcDbLine
 62
7
  6
CONTINUOUS
 10
179.4857082805
 20
1362.185894446
 11
132.928200047
 21
1362.185894446
  0
LINE
  5
23B
100
AcDbEntity
  8
0
100
AcDbLine
 62
7
  6
CONTINUOUS
 10
179.4857082805
 20
1308.7809945459
 11
179.4857082805
 21
1599.7083757152
  0
LINE
  5
23C
100
AcDbEntity
  8
0
100
AcDbLine
 62
7
  6
CONTINUOUS
 10
198.7314596867
 20
1130.590794346
 11
198.7314596867
 21
1058.590794346
  0
LINE
  5
23D
100
AcDbEntity
  8
0
100
AcDbLine
 62
7
  6
CONTINUOUS
 10
124.6664332805
 20
1508.090794346
 11
132.928200047
 21
1522.4005941461
  0
LINE
  5
23E
100
AcDbEntity
  8
0
100
AcDbLine
 62
7
  6
CONTINUOUS
 10
83.8832982805
 20
1480.590791846
 11
74.4857082805
 21
1471.193201846
  0
LINE
  5
23F
100
AcDbEntity
  8
0
100
AcDbLine
 62
7
  6
CONTINUOUS
 10
132.9282000471
 20
1468.995694246
 11
179.4857082805
 21
1468.995694246
  0
LINE
  5
240
100
AcDbEntity
  8
0
100
AcDbLine
 62
7
  6
CONTINUOUS
 10
575.2688407805
 20
1468.995694246
 11
626.5251440139
 21
1468.995694246
  0
LINE
  5
241
100
AcDbEntity
  8
0
100
AcDbLine
 62
7
  6
CONTINUOUS
 10
275.7314596867
 20
1130.590794346
 11
275.7314596867
 21
1058.590794346
  0
LINE
  5
242
100
AcDbEntity
  8
0
100
AcDbLine
 62
7
  6
CONTINUOUS
 10
289.4857082804
 20
1328.7907948976
 11
289.4857082805
 21
1599.7083757152
  0
LINE
  5
243
100
AcDbEntity
  8
KONSTRUKTIONSELEMENTE
100
AcDbLine
 62
7
  6
CONTINUOUS
 10
294.4857082805
 20
1572.2120936278
 11
294.4857082805
 21
1256.590794346
  0
LINE
  5
244
100
AcDbEntity
  8
0
100
AcDbLine
 62
7
  6
CONTINUOUS
 10
83.8832982805
 20
1480.590791846
 11
96.6543832805
 21
1480.590791846
  0
LINE
  5
245
100
AcDbEntity
  8
0
100
AcDbLine
 62
7
  6
CONTINUOUS
 10
112.3170332804
 20
1480.590791846
 11
124.6664332805
 21
1480.590791846
  0
LINE
  5
246
100
AcDbEntity
  8
0
100
AcDbLine
 62
7
  6
CONTINUOUS
 10
289.4857082805
 20
1480.590791846
 11
294.4857082805
 21
1480.590791846
  0
LINE
  5
247
100
AcDbEntity
  8
0
100
AcDbLine
 62
7
  6
CONTINUOUS
 10
459.4857082805
 20
1480.590791846
 11
464.4857082805
 21
1480.590791846
  0
LINE
  5
248
100
AcDbEntity
  8
0
100
AcDbLine
 62
7
  6
CONTINUOUS
 10
575.2688407805
 20
1493.904044346
 11
574.4857082805
 21
1493.904044346
  0
LINE
  5
249
100
AcDbEntity
  8
0
100
AcDbLine
 62
7
  6
CONTINUOUS
 10
323.7314596867
 20
1130.590794346
 11
323.7314596867
 21
1058.590794346
  0
LINE
  5
24A
100
AcDbEntity
  8
0
100
AcDbLine
 62
7
  6
CONTINUOUS
 10
626.5251440139
 20
1522.4005941461
 11
575.2688407805
 21
1522.4005941461
  0
LINE
  5
24B
100
AcDbEntity
  8
0
100
AcDbLine
 62
7
  6
CONTINUOUS
 10
132.9282000471
 20
1522.4005941461
 11
179.4857082818
 21
1522.4005941461
  0
LINE
  5
24C
100
AcDbEntity
  8
BEZUGSACHSEN
100
AcDbLine
 62
7
  6
CONTINUOUS
 10
406.9857082805
 20
1590.590794346
 11
346.9857082805
 21
1590.590794346
  0
LINE
  5
24D
100
AcDbEntity
  8
0
100
AcDbLine
 62
7
  6
CONTINUOUS
 10
430.2399568742
 20
1130.590794346
 11
430.2399568742
 21
1058.590794346
  0
LINE
  5
24E
100
AcDbEntity
  8
KONSTRUKTIONSELEMENTE
100
AcDbLine
 62
7
  6
CONTINUOUS
 10
459.4857082805
 20
1256.590794346
 11
459.4857082805
 21
1572.2120936278
  0
LINE
  5
24F
100
AcDbEntity
  8
0
100
AcDbLine
 62
7
  6
CONTINUOUS
 10
464.4857082805
 20
1328.7909376664
 11
464.4857082805
 21
1599.7083757152
  0
LINE
  5
250
100
AcDbEntity
  8
0
100
AcDbLine
 62
7
  6
CONTINUOUS
 10
478.2399568742
 20
1130.590794346
 11
478.2399568742
 21
1058.590794346
  0
LINE
  5
251
100
AcDbEntity
  8
0
100
AcDbLine
 62
7
  6
CONTINUOUS
 10
555.2399568742
 20
1130.590794346
 11
555.2399568742
 21
1058.590794346
  0
LINE
  5
252
100
AcDbEntity
  8
0
100
AcDbLine
 62
7
  6
CONTINUOUS
 10
574.4857082804
 20
1332.7907948716
 11
574.4857082805
 21
1599.7083757152
  0
LINE
  5
253
100
AcDbEntity
  8
0
100
AcDbLine
 62
7
  6
CONTINUOUS
 10
575.2688407805
 20
1308.7809945459
 11
575.2688407805
 21
1522.4005941461
  0
LINE
  5
254
100
AcDbEntity
  8
0
100
AcDbLine
 62
7
  6
CONTINUOUS
 10
634.7869107805
 20
1508.090794346
 11
626.5251440139
 21
1522.4005941461
  0
LINE
  5
255
100
AcDbEntity
  8
0
100
AcDbLine
 62
7
  6
CONTINUOUS
 10
603.2399568742
 20
1130.590794346
 11
603.2399568742
 21
1058.590794346
  0
LINE
  5
256
100
AcDbEntity
  8
0
100
AcDbLine
 62
7
  6
CONTINUOUS
 10
634.7869107805
 20
1323.0908855805
 11
634.7869107805
 21
1508.0907031114
  0
LINE
  5
257
100
AcDbEntity
  8
0
100
AcDbLine
 62
7
  6
CONTINUOUS
 10
650.9857082805
 20
1130.590794346
 11
650.9857082805
 21
1058.590794346
  0
LINE
  5
258
100
AcDbEntity
  8
BEZUGSACHSEN
100
AcDbLine
 62
7
  6
CONTINUOUS
 10
701.9857082805
 20
1130.590794346
 11
701.9857082805
 21
1255.590794346
  0
LINE
  5
259
100
AcDbEntity
  8
0
100
AcDbLine
 62
7
  6
CONTINUOUS
 10
634.7869107805
 20
1323.090794346
 11
626.5251440139
 21
1308.7809945459
  0
LINE
  5
25A
100
AcDbEntity
  8
0
100
AcDbLine
 62
7
  6
CONTINUOUS
 10
1102.3407028734
 20
1058.590794346
 11
1150.3404227042
 21
1058.590794346
  0
LINE
  5
25B
100
AcDbEntity
  8
0
100
AcDbLine
 62
7
  6
CONTINUOUS
 10
1193.1585188741
 20
1058.590794346
 11
1241.1582387049
 21
1058.590794346
  0
LINE
  5
25C
100
AcDbEntity
  8
0
100
AcDbLine
 62
7
  6
CONTINUOUS
 10
1340.1048319472
 20
1058.590794346
 11
1388.104551778
 21
1058.590794346
  0
LINE
  5
25D
100
AcDbEntity
  8
0
100
AcDbLine
 62
7
  6
CONTINUOUS
 10
1487.0511450203
 20
1058.590794346
 11
1535.0508648511
 21
1058.590794346
  0
LINE
  5
25E
100
AcDbEntity
  8
0
100
AcDbLine
 62
7
  6
CONTINUOUS
 10
1577.868961021
 20
1058.590794346
 11
1625.8686808518
 21
1058.590794346
  0
LINE
  5
25F
100
AcDbEntity
  8
BEZUGSACHSEN
100
AcDbLine
 62
7
  6
CONTINUOUS
 10
1039.1047245908
 20
1130.590794346
 11
1689.1046591343
 21
1130.590794346
  0
LINE
  5
260
100
AcDbEntity
  8
BEZUGSACHSEN
100
AcDbLine
 62
7
  6
CONTINUOUS
 10
1039.1047245908
 20
1255.590794346
 11
1689.1046591343
 21
1255.590794346
  0
LINE
  5
261
100
AcDbEntity
  8
RUNDUNGEN
100
AcDbLine
 62
7
  6
CONTINUOUS
 10
1634.8688209364
 20
1256.590794346
 11
1568.8688209364
 21
1256.590794346
  0
LINE
  5
262
100
AcDbEntity
  8
RUNDUNGEN
100
AcDbLine
 62
7
  6
CONTINUOUS
 10
1544.0510049357
 20
1256.590794346
 11
1478.0510049357
 21
1256.590794346
  0
LINE
  5
263
100
AcDbEntity
  8
RUNDUNGEN
100
AcDbLine
 62
7
  6
CONTINUOUS
 10
1397.1046918626
 20
1256.590794346
 11
1331.1046918626
 21
1256.590794346
  0
LINE
  5
264
100
AcDbEntity
  8
RUNDUNGEN
100
AcDbLine
 62
7
  6
CONTINUOUS
 10
1250.1583787895
 20
1256.590794346
 11
1184.1583787895
 21
1256.590794346
  0
LINE
  5
265
100
AcDbEntity
  8
RUNDUNGEN
100
AcDbLine
 62
7
  6
CONTINUOUS
 10
1159.3405627888
 20
1256.590794346
 11
1093.3405627888
 21
1256.590794346
  0
LINE
  5
266
100
AcDbEntity
  8
BEZUGSACHSEN
100
AcDbLine
 62
7
  6
CONTINUOUS
 10
1039.1046918626
 20
1130.590794346
 11
1039.1046918626
 21
1255.590794346
  0
LINE
  5
267
100
AcDbEntity
  8
0
100
AcDbLine
 62
7
  6
CONTINUOUS
 10
1102.3405627888
 20
1130.590794346
 11
1102.3405627888
 21
1058.590794346
  0
LINE
  5
268
100
AcDbEntity
  8
0
100
AcDbLine
 62
7
  6
CONTINUOUS
 10
1364.1046918626
 20
1313.390794346
 11
1371.1046918626
 21
1313.390794346
  0
LINE
  5
269
100
AcDbEntity
  8
0
100
AcDbLine
 62
7
  6
CONTINUOUS
 10
1357.1046918626
 20
1317.590794346
 11
1364.1046918626
 21
1317.590794346
  0
LINE
  5
26A
100
AcDbEntity
  8
0
100
AcDbLine
 62
7
  6
CONTINUOUS
 10
1364.1046918626
 20
1308.7809945458
 11
1271.6046918626
 21
1362.1858944459
  0
LINE
  5
26B
100
AcDbEntity
  8
0
100
AcDbLine
 62
7
  6
CONTINUOUS
 10
1150.3405627888
 20
1130.590794346
 11
1150.3405627888
 21
1058.590794346
  0
LINE
  5
26C
100
AcDbEntity
  8
BEZUGSACHSEN
100
AcDbLine
 62
7
  6
CONTINUOUS
 10
1191.6046918626
 20
1420.7195195524
 11
1191.6046918626
 21
1256.590794346
  0
LINE
  5
26D
100
AcDbEntity
  8
0
100
AcDbLine
 62
7
  6
CONTINUOUS
 10
1193.1583787895
 20
1130.590794346
 11
1193.1583787895
 21
1058.590794346
  0
LINE
  5
26E
100
AcDbEntity
  8
KONSTRUKTIONSELEMENTE
100
AcDbLine
 62
7
  6
CONTINUOUS
 10
1212.6121177872
 20
1420.7195195524
 11
1212.6121177872
 21
1256.590794346
  0
LINE
  5
26F
100
AcDbEntity
  8
0
100
AcDbLine
 62
7
  6
CONTINUOUS
 10
1241.1583787895
 20
1130.590794346
 11
1241.1583787895
 21
1058.590794346
  0
LINE
  5
270
100
AcDbEntity
  8
0
100
AcDbLine
 62
7
  6
CONTINUOUS
 10
1271.6046918626
 20
1362.185894446
 11
1271.6046918626
 21
1468.995694246
  0
LINE
  5
271
100
AcDbEntity
  8
0
100
AcDbLine
 62
7
  6
CONTINUOUS
 10
1304.1046918626
 20
2078.7884644727
 11
1304.1046918626
 21
1598.7471210181
  0
LINE
  5
272
100
AcDbEntity
  8
0
100
AcDbLine
 62
7
  6
CONTINUOUS
 10
1364.1046918626
 20
1522.4005941461
 11
1456.6046918626
 21
1468.995694246
  0
LINE
  5
273
100
AcDbEntity
  8
0
100
AcDbLine
 62
7
  6
CONTINUOUS
 10
1340.1046918626
 20
1130.590794346
 11
1340.1046918626
 21
1058.590794346
  0
LINE
  5
274
100
AcDbEntity
  8
0
100
AcDbLine
 62
7
  6
CONTINUOUS
 10
1357.1046918626
 20
1317.590794346
 11
1357.1046918626
 21
1350.9794454171
  0
LINE
  5
275
100
AcDbEntity
  8
0
100
AcDbLine
 62
7
  6
CONTINUOUS
 10
1364.1046918626
 20
1313.390794346
 11
1364.1046918626
 21
1350.590796846
  0
LINE
  5
276
100
AcDbEntity
  8
0
100
AcDbLine
 62
7
  6
CONTINUOUS
 10
1371.1046918626
 20
1351.0629043489
 11
1371.1046918626
 21
1313.390794346
  0
LINE
  5
277
100
AcDbEntity
  8
0
100
AcDbLine
 62
7
  6
CONTINUOUS
 10
1388.1046918626
 20
1130.590794346
 11
1388.1046918626
 21
1058.590794346
  0
LINE
  5
278
100
AcDbEntity
  8
0
100
AcDbLine
 62
7
  6
CONTINUOUS
 10
1424.1046918626
 20
1598.7471210181
 11
1424.1046918626
 21
2078.790794346
  0
LINE
  5
279
100
AcDbEntity
  8
0
100
AcDbLine
 62
7
  6
CONTINUOUS
 10
1271.6046918626
 20
1468.9956942459
 11
1364.1046918626
 21
1522.400594146
  0
LINE
  5
27A
100
AcDbEntity
  8
0
100
AcDbLine
 62
7
  6
CONTINUOUS
 10
1456.6046918626
 20
1468.995694246
 11
1456.6046918626
 21
1362.185894446
  0
LINE
  5
27B
100
AcDbEntity
  8
0
100
AcDbLine
 62
7
  6
CONTINUOUS
 10
1487.0510049357
 20
1130.590794346
 11
1487.0510049357
 21
1058.590794346
  0
LINE
  5
27C
100
AcDbEntity
  8
KONSTRUKTIONSELEMENTE
100
AcDbLine
 62
7
  6
CONTINUOUS
 10
1515.597265938
 20
1420.7195195524
 11
1515.597265938
 21
1256.590794346
  0
LINE
  5
27D
100
AcDbEntity
  8
0
100
AcDbLine
 62
7
  6
CONTINUOUS
 10
1535.0510049357
 20
1130.590794346
 11
1535.0510049357
 21
1058.590794346
  0
LINE
  5
27E
100
AcDbEntity
  8
BEZUGSACHSEN
100
AcDbLine
 62
7
  6
CONTINUOUS
 10
1536.6046918626
 20
1420.7195195524
 11
1536.6046918626
 21
1256.590794346
  0
LINE
  5
27F
100
AcDbEntity
  8
0
100
AcDbLine
 62
7
  6
CONTINUOUS
 10
1577.8688209364
 20
1130.590794346
 11
1577.8688209364
 21
1058.590794346
  0
LINE
  5
280
100
AcDbEntity
  8
0
100
AcDbLine
 62
7
  6
CONTINUOUS
 10
1456.6046918626
 20
1362.1858944459
 11
1364.1046918626
 21
1308.7809945458
  0
LINE
  5
281
100
AcDbEntity
  8
0
100
AcDbLine
 62
7
  6
CONTINUOUS
 10
1625.8688209364
 20
1130.590794346
 11
1625.8688209364
 21
1058.590794346
  0
LINE
  5
282
100
AcDbEntity
  8
BEZUGSACHSEN
100
AcDbLine
 62
7
  6
CONTINUOUS
 10
1689.1046918626
 20
1130.590794346
 11
1689.1046918626
 21
1255.590794346
  0
LINE
  5
283
100
AcDbEntity
  8
0
100
AcDbLine
 62
7
  6
CONTINUOUS
 10
1358.1046918626
 20
2132.790794346
 11
1370.1046918626
 21
2132.790794346
  0
LINE
  5
284
100
AcDbEntity
  8
0
100
AcDbLine
 62
7
  6
CONTINUOUS
 10
74.4857082805
 20
489.6084466747
 11
74.4857082805
 21
378.4083380594
  0
LINE
  5
285
100
AcDbEntity
  8
0
100
AcDbLine
 62
7
  6
CONTINUOUS
 10
423.3919558963
 20
134.008392367
 11
425.2669558963
 21
134.3275412931
  0
LINE
  5
286
100
AcDbEntity
  8
0
100
AcDbLine
 62
7
  6
CONTINUOUS
 10
83.8832982805
 20
499.008389867
 11
83.8832982805
 21
369.008394867
  0
LINE
  5
287
100
AcDbEntity
  8
0
100
AcDbLine
 62
7
  6
CONTINUOUS
 10
97.4857082805
 20
427.008392367
 11
97.4857082805
 21
441.0083923671
  0
LINE
  5
288
100
AcDbEntity
  8
0
100
AcDbLine
 62
7
  6
CONTINUOUS
 10
369.6419570884
 20
136.2424348774
 11
368.3919582805
 21
135.9232859793
  0
LINE
  5
289
100
AcDbEntity
  8
0
100
AcDbLine
 62
7
  6
CONTINUOUS
 10
364.3294594725
 20
146.7743500802
 11
365.5794582805
 21
147.0934989783
  0
LINE
  5
28A
100
AcDbEntity
  8
0
100
AcDbLine
 62
7
  6
CONTINUOUS
 10
424.9544606646
 20
135.9232859793
 11
423.3919558963
 21
135.6041370812
  0
LINE
  5
28B
100
AcDbEntity
  8
0
100
AcDbLine
 62
7
  6
CONTINUOUS
 10
411.2044558963
 20
135.9232859793
 11
409.6419582805
 21
135.6041370812
  0
LINE
  5
28C
100
AcDbEntity
  8
0
100
AcDbLine
 62
7
  6
CONTINUOUS
 10
368.3919582805
 20
134.008392367
 11
369.9544594725
 21
134.3275412931
  0
LINE
  5
28D
100
AcDbEntity
  8
0
100
AcDbLine
 62
7
  6
CONTINUOUS
 10
421.8294582805
 20
147.0934989783
 11
423.3919558963
 21
147.4126478764
  0
LINE
  5
28E
100
AcDbEntity
  8
0
100
AcDbLine
 62
7
  6
CONTINUOUS
 10
408.0794606646
 20
147.0934989783
 11
409.6419582805
 21
147.4126478764
  0
LINE
  5
28F
100
AcDbEntity
  8
0
100
AcDbLine
 62
7
  6
CONTINUOUS
 10
339.9544576844
 20
134.008392367
 11
341.5169588765
 21
134.3275412931
  0
LINE
  5
290
100
AcDbEntity
  8
0
100
AcDbLine
 62
7
  6
CONTINUOUS
 10
393.7044582805
 20
147.0934989783
 11
395.2669558963
 21
147.4126478764
  0
LINE
  5
291
100
AcDbEntity
  8
0
100
AcDbLine
 62
7
  6
CONTINUOUS
 10
354.0169594725
 20
140.7105201217
 11
355.5794570884
 21
141.0296690199
  0
LINE
  5
292
100
AcDbEntity
  8
0
100
AcDbLine
 62
7
  6
CONTINUOUS
 10
365.5794582805
 20
149.008392367
 11
364.0169570884
 21
148.6892434689
  0
LINE
  5
293
100
AcDbEntity
  8
0
100
AcDbLine
 62
7
  6
CONTINUOUS
 10
409.6419582805
 20
134.008392367
 11
411.5169582805
 21
134.3275412931
  0
LINE
  5
294
100
AcDbEntity
  8
0
100
AcDbLine
 62
7
  6
CONTINUOUS
 10
423.3919558963
 20
149.008392367
 11
421.5169558963
 21
148.6892434689
  0
LINE
  5
295
100
AcDbEntity
  8
0
100
AcDbLine
 62
7
  6
CONTINUOUS
 10
409.6419582805
 20
149.008392367
 11
407.7669582805
 21
148.6892434689
  0
LINE
  5
296
100
AcDbEntity
  8
0
100
AcDbLine
 62
7
  6
CONTINUOUS
 10
395.5794582805
 20
149.008392367
 11
393.3919558963
 21
148.6892434689
  0
LINE
  5
297
100
AcDbEntity
  8
0
100
AcDbLine
 62
7
  6
CONTINUOUS
 10
317.454458355
 20
134.008392367
 11
319.9544584295
 21
134.008392367
  0
LINE
  5
298
100
AcDbEntity
  8
0
100
AcDbLine
 62
7
  6
CONTINUOUS
 10
324.9544585785
 20
134.008392367
 11
327.4544579824
 21
134.008392367
  0
LINE
  5
299
100
AcDbEntity
  8
0
100
AcDbLine
 62
7
  6
CONTINUOUS
 10
332.4544576844
 20
134.008392367
 11
339.9544576844
 21
134.008392367
  0
LINE
  5
29A
100
AcDbEntity
  8
0
100
AcDbLine
 62
7
  6
CONTINUOUS
 10
346.5169594725
 20
134.008392367
 11
348.3919594725
 21
134.008392367
  0
LINE
  5
29B
100
AcDbEntity
  8
0
100
AcDbLine
 62
7
  6
CONTINUOUS
 10
365.5794582805
 20
134.008392367
 11
368.3919582805
 21
134.008392367
  0
LINE
  5
29C
100
AcDbEntity
  8
0
100
AcDbLine
 62
7
  6
CONTINUOUS
 10
390.2669606646
 20
134.008392367
 11
401.5169606646
 21
134.008392367
  0
LINE
  5
29D
100
AcDbEntity
  8
0
100
AcDbLine
 62
7
  6
CONTINUOUS
 10
401.5169606646
 20
135.6041370812
 11
392.7669582805
 21
135.6041370812
  0
LINE
  5
29E
100
AcDbEntity
  8
0
100
AcDbLine
 62
7
  6
CONTINUOUS
 10
368.3919582805
 20
135.9232859793
 11
365.5794582805
 21
135.9232859793
  0
LINE
  5
29F
100
AcDbEntity
  8
0
100
AcDbLine
 62
7
  6
CONTINUOUS
 10
340.2669582805
 20
135.9232859793
 11
334.3294576844
 21
135.9232859793
  0
LINE
  5
2A0
100
AcDbEntity
  8
0
100
AcDbLine
 62
7
  6
CONTINUOUS
 10
368.0794594725
 20
140.3913712236
 11
370.8919594725
 21
140.3913712236
  0
LINE
  5
2A1
100
AcDbEntity
  8
0
100
AcDbLine
 62
7
  6
CONTINUOUS
 10
334.3294576844
 20
140.7105201217
 11
340.2669582805
 21
140.7105201217
  0
LINE
  5
2A2
100
AcDbEntity
  8
0
100
AcDbLine
 62
7
  6
CONTINUOUS
 10
348.3919594725
 20
140.7105201217
 11
354.0169594725
 21
140.7105201217
  0
LINE
  5
2A3
100
AcDbEntity
  8
0
100
AcDbLine
 62
7
  6
CONTINUOUS
 10
372.7669594725
 20
142.3062646124
 11
368.0794594725
 21
142.3062646124
  0
LINE
  5
2A4
100
AcDbEntity
  8
0
100
AcDbLine
 62
7
  6
CONTINUOUS
 10
354.3294582805
 20
142.6254135105
 11
348.3919594725
 21
142.6254135105
  0
LINE
  5
2A5
100
AcDbEntity
  8
0
100
AcDbLine
 62
7
  6
CONTINUOUS
 10
340.2669582805
 20
142.6254135105
 11
334.3294576844
 21
142.6254135105
  0
LINE
  5
2A6
100
AcDbEntity
  8
0
100
AcDbLine
 62
7
  6
CONTINUOUS
 10
431.5169606646
 20
142.9445624086
 11
434.0169582805
 21
142.9445624086
  0
LINE
  5
2A7
100
AcDbEntity
  8
0
100
AcDbLine
 62
7
  6
CONTINUOUS
 10
435.5794630488
 20
142.9445624086
 11
439.0169535121
 21
142.9445624086
  0
LINE
  5
2A8
100
AcDbEntity
  8
0
100
AcDbLine
 62
7
  6
CONTINUOUS
 10
439.0169535121
 20
144.2211580011
 11
435.5794630488
 21
144.2211580011
  0
LINE
  5
2A9
100
AcDbEntity
  8
0
100
AcDbLine
 62
7
  6
CONTINUOUS
 10
434.0169582805
 20
144.2211580011
 11
431.5169606646
 21
144.2211580011
  0
LINE
  5
2AA
100
AcDbEntity
  8
0
100
AcDbLine
 62
7
  6
CONTINUOUS
 10
370.8919594725
 20
145.1786046955
 11
372.7669594725
 21
145.1786046955
  0
LINE
  5
2AB
100
AcDbEntity
  8
0
100
AcDbLine
 62
7
  6
CONTINUOUS
 10
390.5794558963
 20
145.4977544877
 11
392.1419606646
 21
145.4977544877
  0
LINE
  5
2AC
100
AcDbEntity
  8
0
100
AcDbLine
 62
7
  6
CONTINUOUS
 10
435.5794630488
 20
146.7743500802
 11
434.0169582805
 21
146.7743500802
  0
LINE
  5
2AD
100
AcDbEntity
  8
0
100
AcDbLine
 62
7
  6
CONTINUOUS
 10
334.3294576844
 20
147.0934989783
 11
340.2669582805
 21
147.0934989783
  0
LINE
  5
2AE
100
AcDbEntity
  8
0
100
AcDbLine
 62
7
  6
CONTINUOUS
 10
365.5794582805
 20
147.0934989783
 11
368.3919582805
 21
147.0934989783
  0
LINE
  5
2AF
100
AcDbEntity
  8
0
100
AcDbLine
 62
7
  6
CONTINUOUS
 10
348.3919594725
 20
147.4126478764
 11
354.3294582805
 21
147.4126478764
  0
LINE
  5
2B0
100
AcDbEntity
  8
0
100
AcDbLine
 62
7
  6
CONTINUOUS
 10
395.2669558963
 20
147.4126478764
 11
396.5169582805
 21
147.4126478764
  0
LINE
  5
2B1
100
AcDbEntity
  8
0
100
AcDbLine
 62
7
  6
CONTINUOUS
 10
396.8294606646
 20
149.008392367
 11
395.5794582805
 21
149.008392367
  0
LINE
  5
2B2
100
AcDbEntity
  8
0
100
AcDbLine
 62
7
  6
CONTINUOUS
 10
368.3919582805
 20
149.008392367
 11
365.5794582805
 21
149.008392367
  0
LINE
  5
2B3
100
AcDbEntity
  8
0
100
AcDbLine
 62
7
  6
CONTINUOUS
 10
354.0169594725
 20
149.008392367
 11
346.5169594725
 21
149.008392367
  0
LINE
  5
2B4
100
AcDbEntity
  8
0
100
AcDbLine
 62
7
  6
CONTINUOUS
 10
339.9544576844
 20
149.008392367
 11
332.4544576844
 21
149.008392367
  0
LINE
  5
2B5
100
AcDbEntity
  8
0
100
AcDbLine
 62
7
  6
CONTINUOUS
 10
329.9544582805
 20
149.008392367
 11
328.0794582805
 21
149.008392367
  0
LINE
  5
2B6
100
AcDbEntity
  8
0
100
AcDbLine
 62
7
  6
CONTINUOUS
 10
323.7044579824
 20
149.008392367
 11
321.2044581314
 21
149.008392367
  0
LINE
  5
2B7
100
AcDbEntity
  8
0
100
AcDbLine
 62
7
  6
CONTINUOUS
 10
316.8294582805
 20
149.008392367
 11
314.9544582805
 21
149.008392367
  0
LINE
  5
2B8
100
AcDbEntity
  8
0
100
AcDbLine
 62
7
  6
CONTINUOUS
 10
407.7669582805
 20
134.3275412931
 11
409.6419582805
 21
134.008392367
  0
LINE
  5
2B9
100
AcDbEntity
  8
0
100
AcDbLine
 62
7
  6
CONTINUOUS
 10
421.5169558963
 20
134.3275412931
 11
423.3919558963
 21
134.008392367
  0
LINE
  5
2BA
100
AcDbEntity
  8
0
100
AcDbLine
 62
7
  6
CONTINUOUS
 10
436.5169630488
 20
134.3275412931
 11
438.3919630488
 21
134.008392367
  0
LINE
  5
2BB
100
AcDbEntity
  8
0
100
AcDbLine
 62
7
  6
CONTINUOUS
 10
398.7044606646
 20
148.6892434689
 11
396.8294606646
 21
149.008392367
  0
LINE
  5
2BC
100
AcDbEntity
  8
0
100
AcDbLine
 62
7
  6
CONTINUOUS
 10
411.5169582805
 20
148.6892434689
 11
409.6419582805
 21
149.008392367
  0
LINE
  5
2BD
100
AcDbEntity
  8
0
100
AcDbLine
 62
7
  6
CONTINUOUS
 10
425.2669558963
 20
148.6892434689
 11
423.3919558963
 21
149.008392367
  0
LINE
  5
2BE
100
AcDbEntity
  8
0
100
AcDbLine
 62
7
  6
CONTINUOUS
 10
364.0169570884
 20
134.3275412931
 11
365.5794582805
 21
134.008392367
  0
LINE
  5
2BF
100
AcDbEntity
  8
0
100
AcDbLine
 62
7
  6
CONTINUOUS
 10
341.5169588765
 20
148.6892434689
 11
339.9544576844
 21
149.008392367
  0
LINE
  5
2C0
100
AcDbEntity
  8
0
100
AcDbLine
 62
7
  6
CONTINUOUS
 10
409.6419582805
 20
135.6041370812
 11
408.0794606646
 21
135.9232859793
  0
LINE
  5
2C1
100
AcDbEntity
  8
0
100
AcDbLine
 62
7
  6
CONTINUOUS
 10
355.5794570884
 20
148.6892434689
 11
354.0169594725
 21
149.008392367
  0
LINE
  5
2C2
100
AcDbEntity
  8
0
100
AcDbLine
 62
7
  6
CONTINUOUS
 10
423.3919558963
 20
135.6041370812
 11
421.8294582805
 21
135.9232859793
  0
LINE
  5
2C3
100
AcDbEntity
  8
0
100
AcDbLine
 62
7
  6
CONTINUOUS
 10
369.9544594725
 20
148.6892434689
 11
368.3919582805
 21
149.008392367
  0
LINE
  5
2C4
100
AcDbEntity
  8
0
100
AcDbLine
 62
7
  6
CONTINUOUS
 10
438.3919630488
 20
135.2849880713
 11
436.8294582805
 21
135.6041370812
  0
LINE
  5
2C5
100
AcDbEntity
  8
0
100
AcDbLine
 62
7
  6
CONTINUOUS
 10
396.5169582805
 20
147.4126478764
 11
398.0794558963
 21
147.0934989783
  0
LINE
  5
2C6
100
AcDbEntity
  8
0
100
AcDbLine
 62
7
  6
CONTINUOUS
 10
409.6419582805
 20
147.4126478764
 11
411.2044558963
 21
147.0934989783
  0
LINE
  5
2C7
100
AcDbEntity
  8
0
100
AcDbLine
 62
7
  6
CONTINUOUS
 10
365.5794582805
 20
135.9232859793
 11
364.3294594725
 21
136.2424348774
  0
LINE
  5
2C8
100
AcDbEntity
  8
0
100
AcDbLine
 62
7
  6
CONTINUOUS
 10
368.3919582805
 20
147.0934989783
 11
369.6419570884
 21
146.7743500802
  0
LINE
  5
2C9
100
AcDbEntity
  8
0
100
AcDbLine
 62
7
  6
CONTINUOUS
 10
340.2669582805
 20
140.7105201217
 11
341.2044582805
 21
140.3913712236
  0
LINE
  5
2CA
100
AcDbEntity
  8
0
100
AcDbLine
 62
7
  6
CONTINUOUS
 10
340.2669582805
 20
147.0934989783
 11
341.2044582805
 21
146.7743500802
  0
LINE
  5
2CB
100
AcDbEntity
  8
0
100
AcDbLine
 62
7
  6
CONTINUOUS
 10
354.3294582805
 20
147.4126478764
 11
355.2669582805
 21
147.0934989783
  0
LINE
  5
2CC
100
AcDbEntity
  8
0
100
AcDbLine
 62
7
  6
CONTINUOUS
 10
342.7669576844
 20
141.348817918
 11
342.1419582805
 21
141.6679668161
  0
LINE
  5
2CD
100
AcDbEntity
  8
0
100
AcDbLine
 62
7
  6
CONTINUOUS
 10
362.7669582805
 20
134.9658391732
 11
364.0169570884
 21
134.3275412931
  0
LINE
  5
2CE
100
AcDbEntity
  8
0
100
AcDbLine
 62
7
  6
CONTINUOUS
 10
111.4857082805
 20
441.0083923671
 11
111.4857082805
 21
427.008392367
  0
LINE
  5
2CF
100
AcDbEntity
  8
0
100
AcDbLine
 62
7
  6
CONTINUOUS
 10
121.9857082805
 20
440.008392367
 11
121.9857082805
 21
428.008392367
  0
LINE
  5
2D0
100
AcDbEntity
  8
0
100
AcDbLine
 62
7
  6
CONTINUOUS
 10
124.6664332805
 20
526.508392367
 11
124.6664332805
 21
456.6773296302
  0
LINE
  5
2D1
100
AcDbEntity
  8
0
100
AcDbLine
 62
7
  6
CONTINUOUS
 10
124.6664332805
 20
411.3394551038
 11
124.6664332805
 21
341.508392367
  0
LINE
  5
2D2
100
AcDbEntity
  8
0
100
AcDbLine
 62
7
  6
CONTINUOUS
 10
74.4857082805
 20
489.610799867
 11
83.8832982805
 21
499.008389867
  0
LINE
  5
2D3
100
AcDbEntity
  8
0
100
AcDbLine
 62
7
  6
CONTINUOUS
 10
299.7314596867
 20
695.4438824776
 11
279.2314596867
 21
683.6082019592
  0
LINE
  5
2D4
100
AcDbEntity
  8
0
100
AcDbLine
 62
7
  6
CONTINUOUS
 10
174.7314596867
 20
604.6260664769
 11
154.2314596867
 21
592.7903859586
  0
LINE
  5
2D5
100
AcDbEntity
  8
0
100
AcDbLine
 62
7
  6
CONTINUOUS
 10
393.5482070884
 20
166.2424348774
 11
392.2982082805
 21
165.9232859793
  0
LINE
  5
2D6
100
AcDbEntity
  8
0
100
AcDbLine
 62
7
  6
CONTINUOUS
 10
378.5482088765
 20
166.2424348774
 11
377.2982082805
 21
165.9232859793
  0
LINE
  5
2D7
100
AcDbEntity
  8
0
100
AcDbLine
 62
7
  6
CONTINUOUS
 10
392.2982082805
 20
164.008392367
 11
393.8607094725
 21
164.3275412931
  0
LINE
  5
2D8
100
AcDbEntity
  8
0
100
AcDbLine
 62
7
  6
CONTINUOUS
 10
377.2982082805
 20
164.008392367
 11
378.8607076844
 21
164.3275412931
  0
LINE
  5
2D9
100
AcDbEntity
  8
0
100
AcDbLine
 62
7
  6
CONTINUOUS
 10
356.6732082805
 20
164.008392367
 11
358.5482082805
 21
164.008392367
  0
LINE
  5
2DA
100
AcDbEntity
  8
0
100
AcDbLine
 62
7
  6
CONTINUOUS
 10
366.3607079824
 20
164.008392367
 11
368.5482085785
 21
164.008392367
  0
LINE
  5
2DB
100
AcDbEntity
  8
0
100
AcDbLine
 62
7
  6
CONTINUOUS
 10
376.0482076844
 20
164.008392367
 11
377.2982082805
 21
164.008392367
  0
LINE
  5
2DC
100
AcDbEntity
  8
0
100
AcDbLine
 62
7
  6
CONTINUOUS
 10
384.7982082805
 20
164.008392367
 11
392.2982082805
 21
164.008392367
  0
LINE
  5
2DD
100
AcDbEntity
  8
0
100
AcDbLine
 62
7
  6
CONTINUOUS
 10
392.2982082805
 20
165.9232859793
 11
386.6732082805
 21
165.9232859793
  0
LINE
  5
2DE
100
AcDbEntity
  8
0
100
AcDbLine
 62
7
  6
CONTINUOUS
 10
377.2982082805
 20
165.9232859793
 11
376.0482076844
 21
165.9232859793
  0
LINE
  5
2DF
100
AcDbEntity
  8
0
100
AcDbLine
 62
7
  6
CONTINUOUS
 10
358.5482082805
 20
170.7105201217
 11
363.8607081314
 21
170.7105201217
  0
LINE
  5
2E0
100
AcDbEntity
  8
0
100
AcDbLine
 62
7
  6
CONTINUOUS
 10
364.4857079824
 20
172.6254135105
 11
358.5482082805
 21
172.6254135105
  0
LINE
  5
2E1
100
AcDbEntity
  8
0
100
AcDbLine
 62
7
  6
CONTINUOUS
 10
386.6732082805
 20
177.0934989783
 11
392.2982082805
 21
177.0934989783
  0
LINE
  5
2E2
100
AcDbEntity
  8
0
100
AcDbLine
 62
7
  6
CONTINUOUS
 10
358.5482082805
 20
177.4126478764
 11
364.4857079824
 21
177.4126478764
  0
LINE
  5
2E3
100
AcDbEntity
  8
0
100
AcDbLine
 62
7
  6
CONTINUOUS
 10
392.2982082805
 20
179.008392367
 11
384.7982082805
 21
179.008392367
  0
LINE
  5
2E4
100
AcDbEntity
  8
0
100
AcDbLine
 62
7
  6
CONTINUOUS
 10
382.2982088765
 20
179.008392367
 11
380.4232088765
 21
179.008392367
  0
LINE
  5
2E5
100
AcDbEntity
  8
0
100
AcDbLine
 62
7
  6
CONTINUOUS
 10
372.9232088765
 20
179.008392367
 11
371.0482079824
 21
179.008392367
  0
LINE
  5
2E6
100
AcDbEntity
  8
0
100
AcDbLine
 62
7
  6
CONTINUOUS
 10
364.1732082805
 20
179.008392367
 11
356.6732082805
 21
179.008392367
  0
LINE
  5
2E7
100
AcDbEntity
  8
0
100
AcDbLine
 62
7
  6
CONTINUOUS
 10
423.3919558963
 20
147.4126478764
 11
424.9544606646
 21
147.0934989783
  0
LINE
  5
2E8
100
AcDbEntity
  8
0
100
AcDbLine
 62
7
  6
CONTINUOUS
 10
374.4857082805
 20
164.3275412931
 11
376.0482076844
 21
164.008392367
  0
LINE
  5
2E9
100
AcDbEntity
  8
0
100
AcDbLine
 62
7
  6
CONTINUOUS
 10
365.7357085785
 20
178.6892434689
 11
364.1732082805
 21
179.008392367
  0
LINE
  5
2EA
100
AcDbEntity
  8
0
100
AcDbLine
 62
7
  6
CONTINUOUS
 10
393.8607094725
 20
178.6892434689
 11
392.2982082805
 21
179.008392367
  0
LINE
  5
2EB
100
AcDbEntity
  8
0
100
AcDbLine
 62
7
  6
CONTINUOUS
 10
376.0482076844
 20
165.9232859793
 11
374.7982088765
 21
166.2424348774
  0
LINE
  5
2EC
100
AcDbEntity
  8
0
100
AcDbLine
 62
7
  6
CONTINUOUS
 10
392.2982082805
 20
177.0934989783
 11
393.5482070884
 21
176.7743500802
  0
LINE
  5
2ED
100
AcDbEntity
  8
0
100
AcDbLine
 62
7
  6
CONTINUOUS
 10
435.5794630488
 20
134.6466902192
 11
436.5169630488
 21
134.3275412931
  0
LINE
  5
2EE
100
AcDbEntity
  8
0
100
AcDbLine
 62
7
  6
CONTINUOUS
 10
364.4857079824
 20
177.4126478764
 11
365.4232079824
 21
177.0934989783
  0
LINE
  5
2EF
100
AcDbEntity
  8
0
100
AcDbLine
 62
7
  6
CONTINUOUS
 10
371.2044582805
 20
148.0509456727
 11
369.9544594725
 21
148.6892434689
  0
LINE
  5
2F0
100
AcDbEntity
  8
0
100
AcDbLine
 62
7
  6
CONTINUOUS
 10
399.9544558963
 20
148.0509456727
 11
398.7044606646
 21
148.6892434689
  0
LINE
  5
2F1
100
AcDbEntity
  8
0
100
AcDbLine
 62
7
  6
CONTINUOUS
 10
373.2357076844
 20
164.9658391732
 11
374.4857082805
 21
164.3275412931
  0
LINE
  5
2F2
100
AcDbEntity
  8
0
100
AcDbLine
 62
7
  6
CONTINUOUS
 10
279.2314596867
 20
184.4085827749
 11
299.7314596867
 21
172.5729022565
  0
LINE
  5
2F3
100
AcDbEntity
  8
0
100
AcDbLine
 62
7
  6
CONTINUOUS
 10
154.2314596867
 20
275.2263987755
 11
174.7314596867
 21
263.3907182572
  0
LINE
  5
2F4
100
AcDbEntity
  8
0
100
AcDbLine
 62
7
  6
CONTINUOUS
 10
364.3294594725
 20
136.2424348774
 11
363.3919594725
 21
136.8807328972
  0
LINE
  5
2F5
100
AcDbEntity
  8
0
100
AcDbLine
 62
7
  6
CONTINUOUS
 10
369.6419570884
 20
146.7743500802
 11
370.5794570884
 21
146.1360522839
  0
LINE
  5
2F6
100
AcDbEntity
  8
0
100
AcDbLine
 62
7
  6
CONTINUOUS
 10
342.7669576844
 20
147.7317967745
 11
341.5169588765
 21
148.6892434689
  0
LINE
  5
2F7
100
AcDbEntity
  8
0
100
AcDbLine
 62
7
  6
CONTINUOUS
 10
74.4857082805
 20
378.405984867
 11
83.8832982805
 21
369.008394867
  0
LINE
  5
2F8
100
AcDbEntity
  8
0
100
AcDbLine
 62
7
  6
CONTINUOUS
 10
154.2314596867
 20
592.7903859586
 11
154.2314596867
 21
569.1190249218
  0
LINE
  5
2F9
100
AcDbEntity
  8
0
100
AcDbLine
 62
7
  6
CONTINUOUS
 10
154.2314596867
 20
298.8977598123
 11
154.2314596867
 21
275.2263987755
  0
LINE
  5
2FA
100
AcDbEntity
  8
0
100
AcDbLine
 62
7
  6
CONTINUOUS
 10
299.7314596867
 20
648.1011604041
 11
320.2314596867
 21
659.9368409224
  0
LINE
  5
2FB
100
AcDbEntity
  8
0
100
AcDbLine
 62
7
  6
CONTINUOUS
 10
395.1107082805
 20
178.0509456727
 11
393.8607094725
 21
178.6892434689
  0
LINE
  5
2FC
100
AcDbEntity
  8
0
100
AcDbLine
 62
7
  6
CONTINUOUS
 10
320.2314596867
 20
208.0799438116
 11
299.7314596867
 21
219.91562433
  0
LINE
  5
2FD
100
AcDbEntity
  8
0
100
AcDbLine
 62
7
  6
CONTINUOUS
 10
406.2044606646
 20
135.2849880713
 11
407.7669582805
 21
134.3275412931
  0
LINE
  5
2FE
100
AcDbEntity
  8
0
100
AcDbLine
 62
7
  6
CONTINUOUS
 10
419.9544582805
 20
135.2849880713
 11
421.5169558963
 21
134.3275412931
  0
LINE
  5
2FF
100
AcDbEntity
  8
0
100
AcDbLine
 62
7
  6
CONTINUOUS
 10
413.0794558963
 20
147.7317967745
 11
411.5169582805
 21
148.6892434689
  0
LINE
  5
300
100
AcDbEntity
  8
0
100
AcDbLine
 62
7
  6
CONTINUOUS
 10
426.8294606646
 20
147.7317967745
 11
425.2669558963
 21
148.6892434689
  0
LINE
  5
301
100
AcDbEntity
  8
0
100
AcDbLine
 62
7
  6
CONTINUOUS
 10
408.0794606646
 20
135.9232859793
 11
407.1419606646
 21
136.5615837756
  0
LINE
  5
302
100
AcDbEntity
  8
0
100
AcDbLine
 62
7
  6
CONTINUOUS
 10
398.0794558963
 20
147.0934989783
 11
399.0169558963
 21
146.455201182
  0
LINE
  5
303
100
AcDbEntity
  8
0
100
AcDbLine
 62
7
  6
CONTINUOUS
 10
374.7982088765
 20
166.2424348774
 11
373.8607088765
 21
166.8807328972
  0
LINE
  5
304
100
AcDbEntity
  8
0
100
AcDbLine
 62
7
  6
CONTINUOUS
 10
421.8294582805
 20
135.9232859793
 11
420.8919582805
 21
136.5615837756
  0
LINE
  5
305
100
AcDbEntity
  8
0
100
AcDbLine
 62
7
  6
CONTINUOUS
 10
411.2044558963
 20
147.0934989783
 11
412.1419558963
 21
146.455201182
  0
LINE
  5
306
100
AcDbEntity
  8
0
100
AcDbLine
 62
7
  6
CONTINUOUS
 10
434.6419558963
 20
135.2849880713
 11
435.5794630488
 21
134.6466902192
  0
LINE
  5
307
100
AcDbEntity
  8
0
100
AcDbLine
 62
7
  6
CONTINUOUS
 10
436.8294582805
 20
135.6041370812
 11
435.8919582805
 21
136.2424348774
  0
LINE
  5
308
100
AcDbEntity
  8
0
100
AcDbLine
 62
7
  6
CONTINUOUS
 10
356.8294594725
 20
147.7317967745
 11
355.5794570884
 21
148.6892434689
  0
LINE
  5
309
100
AcDbEntity
  8
0
100
AcDbLine
 62
7
  6
CONTINUOUS
 10
341.2044582805
 20
140.3913712236
 11
341.8294576844
 21
139.7530734274
  0
LINE
  5
30A
100
AcDbEntity
  8
0
100
AcDbLine
 62
7
  6
CONTINUOUS
 10
341.2044582805
 20
146.7743500802
 11
341.8294576844
 21
146.1360522839
  0
LINE
  5
30B
100
AcDbEntity
  8
0
100
AcDbLine
 62
7
  6
CONTINUOUS
 10
361.5169594725
 20
136.2424348774
 11
362.7669582805
 21
134.9658391732
  0
LINE
  5
30C
100
AcDbEntity
  8
0
100
AcDbLine
 62
7
  6
CONTINUOUS
 10
355.2669582805
 20
147.0934989783
 11
355.8919594725
 21
146.455201182
  0
LINE
  5
30D
100
AcDbEntity
  8
0
100
AcDbLine
 62
7
  6
CONTINUOUS
 10
179.4857082805
 20
341.508392367
 11
179.4857082805
 21
374.008392367
  0
LINE
  5
30E
100
AcDbEntity
  8
0
100
AcDbLine
 62
7
  6
CONTINUOUS
 10
179.4857082805
 20
494.008392367
 11
179.4857082805
 21
526.508392367
  0
LINE
  5
30F
100
AcDbEntity
  8
0
100
AcDbLine
 62
7
  6
CONTINUOUS
 10
195.2314596867
 20
275.2263987755
 11
195.2314596867
 21
298.8977598123
  0
LINE
  5
310
100
AcDbEntity
  8
0
100
AcDbLine
 62
7
  6
CONTINUOUS
 10
195.2314596867
 20
569.1190249218
 11
195.2314596867
 21
592.7903859586
  0
LINE
  5
311
100
AcDbEntity
  8
0
100
AcDbLine
 62
7
  6
CONTINUOUS
 10
174.7314596867
 20
557.2833444034
 11
195.2314596867
 21
569.1190249218
  0
LINE
  5
312
100
AcDbEntity
  8
0
100
AcDbLine
 62
7
  6
CONTINUOUS
 10
454.2399568742
 20
695.4438824776
 11
433.7399568742
 21
683.6082019592
  0
LINE
  5
313
100
AcDbEntity
  8
0
100
AcDbLine
 62
7
  6
CONTINUOUS
 10
195.2314596867
 20
298.8977598123
 11
174.7314596867
 21
310.7334403307
  0
LINE
  5
314
100
AcDbEntity
  8
0
100
AcDbLine
 62
7
  6
CONTINUOUS
 10
433.7399568742
 20
184.4085827749
 11
454.2399568742
 21
172.5729022565
  0
LINE
  5
315
100
AcDbEntity
  8
0
100
AcDbLine
 62
7
  6
CONTINUOUS
 10
424.9544606646
 20
147.0934989783
 11
425.8919606646
 21
146.455201182
  0
LINE
  5
316
100
AcDbEntity
  8
0
100
AcDbLine
 62
7
  6
CONTINUOUS
 10
393.5482070884
 20
176.7743500802
 11
394.4857070884
 21
176.1360522839
  0
LINE
  5
317
100
AcDbEntity
  8
0
100
AcDbLine
 62
7
  6
CONTINUOUS
 10
366.9857082805
 20
177.7317967745
 11
365.7357085785
 21
178.6892434689
  0
LINE
  5
318
100
AcDbEntity
  8
0
100
AcDbLine
 62
7
  6
CONTINUOUS
 10
372.4544570884
 20
146.7743500802
 11
371.2044582805
 21
148.0509456727
  0
LINE
  5
319
100
AcDbEntity
  8
0
100
AcDbLine
 62
7
  6
CONTINUOUS
 10
371.9857088765
 20
166.2424348774
 11
373.2357076844
 21
164.9658391732
  0
LINE
  5
31A
100
AcDbEntity
  8
0
100
AcDbLine
 62
7
  6
CONTINUOUS
 10
405.2669606646
 20
136.2424348774
 11
406.2044606646
 21
135.2849880713
  0
LINE
  5
31B
100
AcDbEntity
  8
0
100
AcDbLine
 62
7
  6
CONTINUOUS
 10
365.4232079824
 20
177.0934989783
 11
366.0482082805
 21
176.455201182
  0
LINE
  5
31C
100
AcDbEntity
  8
0
100
AcDbLine
 62
7
  6
CONTINUOUS
 10
401.2044582805
 20
146.7743500802
 11
399.9544558963
 21
148.0509456727
  0
LINE
  5
31D
100
AcDbEntity
  8
0
100
AcDbLine
 62
7
  6
CONTINUOUS
 10
343.7044576844
 20
140.0722223255
 11
342.7669576844
 21
141.348817918
  0
LINE
  5
31E
100
AcDbEntity
  8
0
100
AcDbLine
 62
7
  6
CONTINUOUS
 10
343.7044576844
 20
146.455201182
 11
342.7669576844
 21
147.7317967745
  0
LINE
  5
31F
100
AcDbEntity
  8
0
100
AcDbLine
 62
7
  6
CONTINUOUS
 10
357.7669594725
 20
146.455201182
 11
356.8294594725
 21
147.7317967745
  0
LINE
  5
320
100
AcDbEntity
  8
0
100
AcDbLine
 62
7
  6
CONTINUOUS
 10
419.0169582805
 20
136.2424348774
 11
419.9544582805
 21
135.2849880713
  0
LINE
  5
321
100
AcDbEntity
  8
0
100
AcDbLine
 62
7
  6
CONTINUOUS
 10
414.0169558963
 20
146.7743500802
 11
413.0794558963
 21
147.7317967745
  0
LINE
  5
322
100
AcDbEntity
  8
0
100
AcDbLine
 62
7
  6
CONTINUOUS
 10
396.3607070884
 20
176.7743500802
 11
395.1107082805
 21
178.0509456727
  0
LINE
  5
323
100
AcDbEntity
  8
0
100
AcDbLine
 62
7
  6
CONTINUOUS
 10
427.7669606646
 20
146.7743500802
 11
426.8294606646
 21
147.7317967745
  0
LINE
  5
324
100
AcDbEntity
  8
0
100
AcDbLine
 62
7
  6
CONTINUOUS
 10
367.9232082805
 20
176.455201182
 11
366.9857082805
 21
177.7317967745
  0
LINE
  5
325
100
AcDbEntity
  8
0
100
AcDbLine
 62
7
  6
CONTINUOUS
 10
363.3919594725
 20
136.8807328972
 11
362.7669582805
 21
137.8381795916
  0
LINE
  5
326
100
AcDbEntity
  8
0
100
AcDbLine
 62
7
  6
CONTINUOUS
 10
454.2399568742
 20
648.1011604041
 11
474.7399568742
 21
659.9368409224
  0
LINE
  5
327
100
AcDbEntity
  8
0
100
AcDbLine
 62
7
  6
CONTINUOUS
 10
233.4857082805
 20
297.208392367
 11
239.4857082805
 21
297.208392367
  0
LINE
  5
328
100
AcDbEntity
  8
0
100
AcDbLine
 62
7
  6
CONTINUOUS
 10
514.4857082805
 20
297.208392367
 11
520.4857082805
 21
297.208392367
  0
LINE
  5
329
100
AcDbEntity
  8
0
100
AcDbLine
 62
7
  6
CONTINUOUS
 10
474.7399568742
 20
208.0799438116
 11
454.2399568742
 21
219.91562433
  0
LINE
  5
32A
100
AcDbEntity
  8
0
100
AcDbLine
 62
7
  6
CONTINUOUS
 10
373.8607088765
 20
166.8807328972
 11
373.2357076844
 21
167.8381795916
  0
LINE
  5
32B
100
AcDbEntity
  8
0
100
AcDbLine
 62
7
  6
CONTINUOUS
 10
399.0169558963
 20
146.455201182
 11
399.6419606646
 21
145.4977544877
  0
LINE
  5
32C
100
AcDbEntity
  8
0
100
AcDbLine
 62
7
  6
CONTINUOUS
 10
407.1419606646
 20
136.5615837756
 11
405.8919582805
 21
138.4764773878
  0
LINE
  5
32D
100
AcDbEntity
  8
0
100
AcDbLine
 62
7
  6
CONTINUOUS
 10
412.1419558963
 20
146.455201182
 11
413.3919582805
 21
144.5403068992
  0
LINE
  5
32E
100
AcDbEntity
  8
0
100
AcDbLine
 62
7
  6
CONTINUOUS
 10
394.4857070884
 20
176.1360522839
 11
395.1107082805
 21
175.1786046955
  0
LINE
  5
32F
100
AcDbEntity
  8
0
100
AcDbLine
 62
7
  6
CONTINUOUS
 10
420.8919582805
 20
136.5615837756
 11
419.6419558963
 21
138.4764773878
  0
LINE
  5
330
100
AcDbEntity
  8
0
100
AcDbLine
 62
7
  6
CONTINUOUS
 10
360.8919582805
 20
137.5190306935
 11
361.5169594725
 21
136.2424348774
  0
LINE
  5
331
100
AcDbEntity
  8
0
100
AcDbLine
 62
7
  6
CONTINUOUS
 10
371.3607085785
 20
167.5190306935
 11
371.9857088765
 21
166.2424348774
  0
LINE
  5
332
100
AcDbEntity
  8
0
100
AcDbLine
 62
7
  6
CONTINUOUS
 10
341.8294576844
 20
139.7530734274
 11
342.1419582805
 21
138.795626286
  0
LINE
  5
333
100
AcDbEntity
  8
0
100
AcDbLine
 62
7
  6
CONTINUOUS
 10
344.0169582805
 20
139.1147751841
 11
343.7044576844
 21
140.0722223255
  0
LINE
  5
334
100
AcDbEntity
  8
0
100
AcDbLine
 62
7
  6
CONTINUOUS
 10
341.8294576844
 20
146.1360522839
 11
342.1419582805
 21
145.1786046955
  0
LINE
  5
335
100
AcDbEntity
  8
0
100
AcDbLine
 62
7
  6
CONTINUOUS
 10
344.0169582805
 20
145.4977544877
 11
343.7044576844
 21
146.455201182
  0
LINE
  5
336
100
AcDbEntity
  8
0
100
AcDbLine
 62
7
  6
CONTINUOUS
 10
279.2314596867
 20
683.6082019592
 11
279.2314596867
 21
659.9368409224
  0
LINE
  5
337
100
AcDbEntity
  8
0
100
AcDbLine
 62
7
  6
CONTINUOUS
 10
279.2314596867
 20
208.0799438116
 11
279.2314596867
 21
184.4085827749
  0
LINE
  5
338
100
AcDbEntity
  8
0
100
AcDbLine
 62
7
  6
CONTINUOUS
 10
124.6664332804
 20
341.508392367
 11
179.4857082805
 21
341.508392367
  0
LINE
  5
339
100
AcDbEntity
  8
0
100
AcDbLine
 62
7
  6
CONTINUOUS
 10
575.2688407805
 20
341.508392367
 11
634.7869107806
 21
341.508392367
  0
LINE
  5
33A
100
AcDbEntity
  8
0
100
AcDbLine
 62
7
  6
CONTINUOUS
 10
425.8919606646
 20
146.455201182
 11
427.1419558963
 21
144.5403068992
  0
LINE
  5
33B
100
AcDbEntity
  8
0
100
AcDbLine
 62
7
  6
CONTINUOUS
 10
404.6419558963
 20
137.5190306935
 11
405.2669606646
 21
136.2424348774
  0
LINE
  5
33C
100
AcDbEntity
  8
0
100
AcDbLine
 62
7
  6
CONTINUOUS
 10
396.9857082805
 20
175.4977544877
 11
396.3607070884
 21
176.7743500802
  0
LINE
  5
33D
100
AcDbEntity
  8
0
100
AcDbLine
 62
7
  6
CONTINUOUS
 10
418.3919606646
 20
137.5190306935
 11
419.0169582805
 21
136.2424348774
  0
LINE
  5
33E
100
AcDbEntity
  8
0
100
AcDbLine
 62
7
  6
CONTINUOUS
 10
414.6419606646
 20
145.4977544877
 11
414.0169558963
 21
146.7743500802
  0
LINE
  5
33F
100
AcDbEntity
  8
0
100
AcDbLine
 62
7
  6
CONTINUOUS
 10
368.5482085785
 20
164.008392367
 11
365.7357085785
 21
171.348817918
  0
LINE
  5
340
100
AcDbEntity
  8
0
100
AcDbLine
 62
7
  6
CONTINUOUS
 10
363.8607081314
 20
170.7105201217
 11
366.3607079824
 21
164.008392367
  0
LINE
  5
341
100
AcDbEntity
  8
0
100
AcDbLine
 62
7
  6
CONTINUOUS
 10
355.8919594725
 20
146.455201182
 11
356.2044582805
 21
145.4977544877
  0
LINE
  5
342
100
AcDbEntity
  8
0
100
AcDbLine
 62
7
  6
CONTINUOUS
 10
358.0794582805
 20
145.4977544877
 11
357.7669594725
 21
146.455201182
  0
LINE
  5
343
100
AcDbEntity
  8
0
100
AcDbLine
 62
7
  6
CONTINUOUS
 10
370.5794570884
 20
146.1360522839
 11
370.8919594725
 21
145.1786046955
  0
LINE
  5
344
100
AcDbEntity
  8
0
100
AcDbLine
 62
7
  6
CONTINUOUS
 10
366.0482082805
 20
176.455201182
 11
366.3607079824
 21
175.4977544877
  0
LINE
  5
345
100
AcDbEntity
  8
0
100
AcDbLine
 62
7
  6
CONTINUOUS
 10
368.2357079824
 20
175.4977544877
 11
367.9232082805
 21
176.455201182
  0
LINE
  5
346
100
AcDbEntity
  8
0
100
AcDbLine
 62
7
  6
CONTINUOUS
 10
326.2044582805
 20
137.5190306935
 11
323.7044579824
 21
149.008392367
  0
LINE
  5
347
100
AcDbEntity
  8
0
100
AcDbLine
 62
7
  6
CONTINUOUS
 10
322.4544582805
 20
146.1360522839
 11
324.9544585785
 21
134.008392367
  0
LINE
  5
348
100
AcDbEntity
  8
0
100
AcDbLine
 62
7
  6
CONTINUOUS
 10
314.9544582805
 20
149.008392367
 11
317.454458355
 21
134.008392367
  0
LINE
  5
349
100
AcDbEntity
  8
0
100
AcDbLine
 62
7
  6
CONTINUOUS
 10
318.7044582805
 20
137.5190306935
 11
316.8294582805
 21
149.008392367
  0
LINE
  5
34A
100
AcDbEntity
  8
0
100
AcDbLine
 62
7
  6
CONTINUOUS
 10
289.4857082805
 20
347.2088586219
 11
289.4857082805
 21
374.008392367
  0
LINE
  5
34B
100
AcDbEntity
  8
0
100
AcDbLine
 62
7
  6
CONTINUOUS
 10
289.4857082805
 20
494.008392367
 11
289.4857082805
 21
520.8064147811
  0
LINE
  5
34C
100
AcDbEntity
  8
KONSTRUKTIONSELEMENTE
100
AcDbLine
 62
7
  6
CONTINUOUS
 10
294.4857082805
 20
585.5009664425
 11
294.4857082805
 21
494.008392367
  0
LINE
  5
34D
100
AcDbEntity
  8
KONSTRUKTIONSELEMENTE
100
AcDbLine
 62
7
  6
CONTINUOUS
 10
294.4857082805
 20
374.008392367
 11
294.4857082805
 21
282.5158182916
  0
LINE
  5
34E
100
AcDbEntity
  8
0
100
AcDbLine
 62
7
  6
CONTINUOUS
 10
574.4857082805
 20
355.695142367
 11
575.2688407805
 21
355.695142367
  0
LINE
  5
34F
100
AcDbEntity
  8
0
100
AcDbLine
 62
7
  6
CONTINUOUS
 10
83.8832982805
 20
369.008394867
 11
124.6664332805
 21
369.008394867
  0
LINE
  5
350
100
AcDbEntity
  8
0
100
AcDbLine
 62
7
  6
CONTINUOUS
 10
289.4857082805
 20
369.008394867
 11
294.4857082805
 21
369.008394867
  0
LINE
  5
351
100
AcDbEntity
  8
0
100
AcDbLine
 62
7
  6
CONTINUOUS
 10
459.4857082805
 20
369.008394867
 11
464.4857082805
 21
369.008394867
  0
LINE
  5
352
100
AcDbEntity
  8
0
100
AcDbLine
 62
7
  6
CONTINUOUS
 10
175.9857815413
 20
374.008392367
 11
577.9810415152
 21
374.008392367
  0
LINE
  5
353
100
AcDbEntity
  8
0
100
AcDbLine
 62
7
  6
CONTINUOUS
 10
428.3919582805
 20
145.4977544877
 11
427.7669606646
 21
146.7743500802
  0
LINE
  5
354
100
AcDbEntity
  8
0
100
AcDbLine
 62
7
  6
CONTINUOUS
 10
434.0169582805
 20
136.5615837756
 11
434.6419558963
 21
135.2849880713
  0
LINE
  5
355
100
AcDbEntity
  8
0
100
AcDbLine
 62
7
  6
CONTINUOUS
 10
404.3294606646
 20
138.4764773878
 11
404.6419558963
 21
137.5190306935
  0
LINE
  5
356
100
AcDbEntity
  8
0
100
AcDbLine
 62
7
  6
CONTINUOUS
 10
362.7669582805
 20
137.8381795916
 11
362.4544594725
 21
139.1147751841
  0
LINE
  5
357
100
AcDbEntity
  8
0
100
AcDbLine
 62
7
  6
CONTINUOUS
 10
373.2357076844
 20
167.8381795916
 11
372.9232088765
 21
169.1147751841
  0
LINE
  5
358
100
AcDbEntity
  8
0
100
AcDbLine
 62
7
  6
CONTINUOUS
 10
360.5794594725
 20
139.1147751841
 11
360.8919582805
 21
137.5190306935
  0
LINE
  5
359
100
AcDbEntity
  8
0
100
AcDbLine
 62
7
  6
CONTINUOUS
 10
372.7669594725
 20
145.1786046955
 11
372.4544570884
 21
146.7743500802
  0
LINE
  5
35A
100
AcDbEntity
  8
0
100
AcDbLine
 62
7
  6
CONTINUOUS
 10
320.2314596867
 20
184.4085827749
 11
320.2314596867
 21
208.0799438116
  0
LINE
  5
35B
100
AcDbEntity
  8
0
100
AcDbLine
 62
7
  6
CONTINUOUS
 10
320.2314596867
 20
659.9368409224
 11
320.2314596867
 21
683.6082019592
  0
LINE
  5
35C
100
AcDbEntity
  8
0
100
AcDbLine
 62
7
  6
CONTINUOUS
 10
332.4544576844
 20
149.008392367
 11
332.4544576844
 21
134.008392367
  0
LINE
  5
35D
100
AcDbEntity
  8
0
100
AcDbLine
 62
7
  6
CONTINUOUS
 10
334.3294576844
 20
135.9232859793
 11
334.3294576844
 21
140.7105201217
  0
LINE
  5
35E
100
AcDbEntity
  8
0
100
AcDbLine
 62
7
  6
CONTINUOUS
 10
334.3294576844
 20
142.6254135105
 11
334.3294576844
 21
147.0934989783
  0
LINE
  5
35F
100
AcDbEntity
  8
0
100
AcDbLine
 62
7
  6
CONTINUOUS
 10
342.1419582805
 20
145.1786046955
 11
342.1419582805
 21
144.5403068992
  0
LINE
  5
360
100
AcDbEntity
  8
0
100
AcDbLine
 62
7
  6
CONTINUOUS
 10
342.1419582805
 20
138.795626286
 11
342.1419582805
 21
137.8381795916
  0
LINE
  5
361
100
AcDbEntity
  8
0
100
AcDbLine
 62
7
  6
CONTINUOUS
 10
344.0169582805
 20
137.5190306935
 11
344.0169582805
 21
139.1147751841
  0
LINE
  5
362
100
AcDbEntity
  8
0
100
AcDbLine
 62
7
  6
CONTINUOUS
 10
344.0169582805
 20
144.2211580011
 11
344.0169582805
 21
145.4977544877
  0
LINE
  5
363
100
AcDbEntity
  8
0
100
AcDbLine
 62
7
  6
CONTINUOUS
 10
346.5169594725
 20
149.008392367
 11
346.5169594725
 21
134.008392367
  0
LINE
  5
364
100
AcDbEntity
  8
0
100
AcDbLine
 62
7
  6
CONTINUOUS
 10
348.3919594725
 20
134.008392367
 11
348.3919594725
 21
140.7105201217
  0
LINE
  5
365
100
AcDbEntity
  8
0
100
AcDbLine
 62
7
  6
CONTINUOUS
 10
348.3919594725
 20
142.6254135105
 11
348.3919594725
 21
147.4126478764
  0
LINE
  5
366
100
AcDbEntity
  8
0
100
AcDbLine
 62
7
  6
CONTINUOUS
 10
579.2399568742
 20
604.6260664769
 11
558.7399568742
 21
592.7903859586
  0
LINE
  5
367
100
AcDbEntity
  8
0
100
AcDbLine
 62
7
  6
CONTINUOUS
 10
558.7399568742
 20
275.2263987755
 11
579.2399568742
 21
263.3907182572
  0
LINE
  5
368
100
AcDbEntity
  8
0
100
AcDbLine
 62
7
  6
CONTINUOUS
 10
414.9544558963
 20
144.5403068992
 11
414.6419606646
 21
145.4977544877
  0
LINE
  5
369
100
AcDbEntity
  8
0
100
AcDbLine
 62
7
  6
CONTINUOUS
 10
418.0794582805
 20
138.4764773878
 11
418.3919606646
 21
137.5190306935
  0
LINE
  5
36A
100
AcDbEntity
  8
0
100
AcDbLine
 62
7
  6
CONTINUOUS
 10
428.7044606646
 20
144.5403068992
 11
428.3919582805
 21
145.4977544877
  0
LINE
  5
36B
100
AcDbEntity
  8
0
100
AcDbLine
 62
7
  6
CONTINUOUS
 10
435.8919582805
 20
136.2424348774
 11
435.5794630488
 21
137.1998817953
  0
LINE
  5
36C
100
AcDbEntity
  8
0
100
AcDbLine
 62
7
  6
CONTINUOUS
 10
401.5169606646
 20
145.4977544877
 11
401.2044582805
 21
146.7743500802
  0
LINE
  5
36D
100
AcDbEntity
  8
0
100
AcDbLine
 62
7
  6
CONTINUOUS
 10
395.1107082805
 20
175.1786046955
 11
395.4232070884
 21
173.902009103
  0
LINE
  5
36E
100
AcDbEntity
  8
0
100
AcDbLine
 62
7
  6
CONTINUOUS
 10
371.0482079824
 20
169.1147751841
 11
371.3607085785
 21
167.5190306935
  0
LINE
  5
36F
100
AcDbEntity
  8
0
100
AcDbLine
 62
7
  6
CONTINUOUS
 10
397.2982070884
 20
173.902009103
 11
396.9857082805
 21
175.4977544877
  0
LINE
  5
370
100
AcDbEntity
  8
0
100
AcDbLine
 62
7
  6
CONTINUOUS
 10
404.0169582805
 20
140.0722223255
 11
404.3294606646
 21
138.4764773878
  0
LINE
  5
371
100
AcDbEntity
  8
0
100
AcDbLine
 62
7
  6
CONTINUOUS
 10
356.2044582805
 20
145.4977544877
 11
356.2044582805
 21
144.5403068992
  0
LINE
  5
372
100
AcDbEntity
  8
0
100
AcDbLine
 62
7
  6
CONTINUOUS
 10
356.6732082805
 20
179.008392367
 11
356.6732082805
 21
164.008392367
  0
LINE
  5
373
100
AcDbEntity
  8
0
100
AcDbLine
 62
7
  6
CONTINUOUS
 10
358.0794582805
 20
144.2211580011
 11
358.0794582805
 21
145.4977544877
  0
LINE
  5
374
100
AcDbEntity
  8
0
100
AcDbLine
 62
7
  6
CONTINUOUS
 10
358.5482082805
 20
164.008392367
 11
358.5482082805
 21
170.7105201217
  0
LINE
  5
375
100
AcDbEntity
  8
0
100
AcDbLine
 62
7
  6
CONTINUOUS
 10
358.5482082805
 20
172.6254135105
 11
358.5482082805
 21
177.4126478764
  0
LINE
  5
376
100
AcDbEntity
  8
0
100
AcDbLine
 62
7
  6
CONTINUOUS
 10
360.5794594725
 20
143.902009103
 11
360.5794594725
 21
139.1147751841
  0
LINE
  5
377
100
AcDbEntity
  8
0
100
AcDbLine
 62
7
  6
CONTINUOUS
 10
362.4544594725
 20
139.1147751841
 11
362.4544594725
 21
143.902009103
  0
LINE
  5
378
100
AcDbEntity
  8
0
100
AcDbLine
 62
7
  6
CONTINUOUS
 10
366.3607079824
 20
175.4977544877
 11
366.3607079824
 21
174.5403068992
  0
LINE
  5
379
100
AcDbEntity
  8
0
100
AcDbLine
 62
7
  6
CONTINUOUS
 10
368.0794594725
 20
142.3062646124
 11
368.0794594725
 21
140.3913712236
  0
LINE
  5
37A
100
AcDbEntity
  8
0
100
AcDbLine
 62
7
  6
CONTINUOUS
 10
368.2357079824
 20
174.2211580011
 11
368.2357079824
 21
175.4977544877
  0
LINE
  5
37B
100
AcDbEntity
  8
0
100
AcDbLine
 62
7
  6
CONTINUOUS
 10
370.8919594725
 20
140.3913712236
 11
370.8919594725
 21
137.8381795916
  0
LINE
  5
37C
100
AcDbEntity
  8
0
100
AcDbLine
 62
7
  6
CONTINUOUS
 10
371.0482079824
 20
179.008392367
 11
371.0482079824
 21
169.1147751841
  0
LINE
  5
37D
100
AcDbEntity
  8
0
100
AcDbLine
 62
7
  6
CONTINUOUS
 10
372.7669594725
 20
137.5190306935
 11
372.7669594725
 21
142.3062646124
  0
LINE
  5
37E
100
AcDbEntity
  8
0
100
AcDbLine
 62
7
  6
CONTINUOUS
 10
372.9232088765
 20
169.1147751841
 11
372.9232088765
 21
179.008392367
  0
LINE
  5
37F
100
AcDbEntity
  8
0
100
AcDbLine
 62
7
  6
CONTINUOUS
 10
380.4232088765
 20
179.008392367
 11
380.4232088765
 21
169.1147751841
  0
LINE
  5
380
100
AcDbEntity
  8
0
100
AcDbLine
 62
7
  6
CONTINUOUS
 10
328.0794582805
 20
149.008392367
 11
326.2044582805
 21
137.5190306935
  0
LINE
  5
381
100
AcDbEntity
  8
0
100
AcDbLine
 62
7
  6
CONTINUOUS
 10
327.4544579824
 20
134.008392367
 11
329.9544582805
 21
149.008392367
  0
LINE
  5
382
100
AcDbEntity
  8
0
100
AcDbLine
 62
7
  6
CONTINUOUS
 10
579.2399568742
 20
557.2833444034
 11
599.7399568742
 21
569.1190249218
  0
LINE
  5
383
100
AcDbEntity
  8
0
100
AcDbLine
 62
7
  6
CONTINUOUS
 10
599.7399568742
 20
298.8977598123
 11
579.2399568742
 21
310.7334403307
  0
LINE
  5
384
100
AcDbEntity
  8
0
100
AcDbLine
 62
7
  6
CONTINUOUS
 10
415.2669582805
 20
142.9445624086
 11
414.9544558963
 21
144.5403068992
  0
LINE
  5
385
100
AcDbEntity
  8
0
100
AcDbLine
 62
7
  6
CONTINUOUS
 10
417.7669558963
 20
140.0722223255
 11
418.0794582805
 21
138.4764773878
  0
LINE
  5
386
100
AcDbEntity
  8
0
100
AcDbLine
 62
7
  6
CONTINUOUS
 10
429.0169558963
 20
142.9445624086
 11
428.7044606646
 21
144.5403068992
  0
LINE
  5
387
100
AcDbEntity
  8
0
100
AcDbLine
 62
7
  6
CONTINUOUS
 10
405.8919582805
 20
138.4764773878
 11
405.5794558963
 21
140.3913712236
  0
LINE
  5
388
100
AcDbEntity
  8
0
100
AcDbLine
 62
7
  6
CONTINUOUS
 10
413.3919582805
 20
144.5403068992
 11
413.7044606646
 21
142.6254135105
  0
LINE
  5
389
100
AcDbEntity
  8
0
100
AcDbLine
 62
7
  6
CONTINUOUS
 10
419.6419558963
 20
138.4764773878
 11
419.3294606646
 21
140.3913712236
  0
LINE
  5
38A
100
AcDbEntity
  8
0
100
AcDbLine
 62
7
  6
CONTINUOUS
 10
427.1419558963
 20
144.5403068992
 11
427.4544582805
 21
142.6254135105
  0
LINE
  5
38B
100
AcDbEntity
  8
0
100
AcDbLine
 62
7
  6
CONTINUOUS
 10
382.2982088765
 20
169.1147751841
 11
382.2982088765
 21
179.008392367
  0
LINE
  5
38C
100
AcDbEntity
  8
0
100
AcDbLine
 62
7
  6
CONTINUOUS
 10
384.7982082805
 20
179.008392367
 11
384.7982082805
 21
164.008392367
  0
LINE
  5
38D
100
AcDbEntity
  8
0
100
AcDbLine
 62
7
  6
CONTINUOUS
 10
386.6732082805
 20
165.9232859793
 11
386.6732082805
 21
177.0934989783
  0
LINE
  5
38E
100
AcDbEntity
  8
0
100
AcDbLine
 62
7
  6
CONTINUOUS
 10
390.2669606646
 20
135.6041370812
 11
390.2669606646
 21
134.008392367
  0
LINE
  5
38F
100
AcDbEntity
  8
0
100
AcDbLine
 62
7
  6
CONTINUOUS
 10
395.4232070884
 20
173.902009103
 11
395.4232070884
 21
169.1147751841
  0
LINE
  5
390
100
AcDbEntity
  8
0
100
AcDbLine
 62
7
  6
CONTINUOUS
 10
397.2982070884
 20
169.1147751841
 11
397.2982070884
 21
173.902009103
  0
LINE
  5
391
100
AcDbEntity
  8
0
100
AcDbLine
 62
7
  6
CONTINUOUS
 10
399.6419606646
 20
145.4977544877
 11
399.6419606646
 21
144.8594557974
  0
LINE
  5
392
100
AcDbEntity
  8
0
100
AcDbLine
 62
7
  6
CONTINUOUS
 10
401.5169606646
 20
134.008392367
 11
401.5169606646
 21
135.6041370812
  0
LINE
  5
393
100
AcDbEntity
  8
0
100
AcDbLine
 62
7
  6
CONTINUOUS
 10
401.5169606646
 20
144.8594557974
 11
401.5169606646
 21
145.4977544877
  0
LINE
  5
394
100
AcDbEntity
  8
0
100
AcDbLine
 62
7
  6
CONTINUOUS
 10
404.0169582805
 20
142.9445624086
 11
404.0169582805
 21
140.0722223255
  0
LINE
  5
395
100
AcDbEntity
  8
0
100
AcDbLine
 62
7
  6
CONTINUOUS
 10
405.5794558963
 20
140.3913712236
 11
405.5794558963
 21
142.6254135105
  0
LINE
  5
396
100
AcDbEntity
  8
0
100
AcDbLine
 62
7
  6
CONTINUOUS
 10
319.9544584295
 20
134.008392367
 11
322.4544582805
 21
146.1360522839
  0
LINE
  5
397
100
AcDbEntity
  8
0
100
AcDbLine
 62
7
  6
CONTINUOUS
 10
321.2044581314
 20
149.008392367
 11
318.7044582805
 21
137.5190306935
  0
LINE
  5
398
100
AcDbEntity
  8
0
100
AcDbLine
 62
7
  6
CONTINUOUS
 10
174.7314596867
 20
310.7334403307
 11
154.2314596867
 21
298.8977598123
  0
LINE
  5
399
100
AcDbEntity
  8
0
100
AcDbLine
 62
7
  6
CONTINUOUS
 10
154.2314596867
 20
569.1190249218
 11
174.7314596867
 21
557.2833444034
  0
LINE
  5
39A
100
AcDbEntity
  8
0
100
AcDbLine
 62
7
  6
CONTINUOUS
 10
413.7044606646
 20
142.6254135105
 11
413.7044606646
 21
140.3913712236
  0
LINE
  5
39B
100
AcDbEntity
  8
0
100
AcDbLine
 62
7
  6
CONTINUOUS
 10
415.2669582805
 20
140.0722223255
 11
415.2669582805
 21
142.9445624086
  0
LINE
  5
39C
100
AcDbEntity
  8
0
100
AcDbLine
 62
7
  6
CONTINUOUS
 10
417.7669558963
 20
142.9445624086
 11
417.7669558963
 21
140.0722223255
  0
LINE
  5
39D
100
AcDbEntity
  8
0
100
AcDbLine
 62
7
  6
CONTINUOUS
 10
419.3294606646
 20
140.3913712236
 11
419.3294606646
 21
142.6254135105
  0
LINE
  5
39E
100
AcDbEntity
  8
0
100
AcDbLine
 62
7
  6
CONTINUOUS
 10
427.4544582805
 20
142.6254135105
 11
427.4544582805
 21
140.3913712236
  0
LINE
  5
39F
100
AcDbEntity
  8
0
100
AcDbLine
 62
7
  6
CONTINUOUS
 10
429.0169558963
 20
140.0722223255
 11
429.0169558963
 21
142.9445624086
  0
LINE
  5
3A0
100
AcDbEntity
  8
0
100
AcDbLine
 62
7
  6
CONTINUOUS
 10
431.5169606646
 20
144.2211580011
 11
431.5169606646
 21
142.9445624086
  0
LINE
  5
3A1
100
AcDbEntity
  8
0
100
AcDbLine
 62
7
  6
CONTINUOUS
 10
433.7399568742
 20
683.6082019592
 11
433.7399568742
 21
659.9368409224
  0
LINE
  5
3A2
100
AcDbEntity
  8
0
100
AcDbLine
 62
7
  6
CONTINUOUS
 10
433.7399568742
 20
208.0799438116
 11
433.7399568742
 21
184.4085827749
  0
LINE
  5
3A3
100
AcDbEntity
  8
0
100
AcDbLine
 62
7
  6
CONTINUOUS
 10
434.0169582805
 20
146.7743500802
 11
434.0169582805
 21
144.2211580011
  0
LINE
  5
3A4
100
AcDbEntity
  8
0
100
AcDbLine
 62
7
  6
CONTINUOUS
 10
434.0169582805
 20
142.9445624086
 11
434.0169582805
 21
136.5615837756
  0
LINE
  5
3A5
100
AcDbEntity
  8
0
100
AcDbLine
 62
7
  6
CONTINUOUS
 10
435.5794630488
 20
137.1998817953
 11
435.5794630488
 21
142.9445624086
  0
LINE
  5
3A6
100
AcDbEntity
  8
0
100
AcDbLine
 62
7
  6
CONTINUOUS
 10
435.5794630488
 20
144.2211580011
 11
435.5794630488
 21
146.7743500802
  0
LINE
  5
3A7
100
AcDbEntity
  8
0
100
AcDbLine
 62
7
  6
CONTINUOUS
 10
438.3919630488
 20
134.008392367
 11
438.3919630488
 21
135.2849880713
  0
LINE
  5
3A8
100
AcDbEntity
  8
0
100
AcDbLine
 62
7
  6
CONTINUOUS
 10
439.0169535121
 20
142.9445624086
 11
439.0169535121
 21
144.2211580011
  0
LINE
  5
3A9
100
AcDbEntity
  8
0
100
AcDbLine
 62
7
  6
CONTINUOUS
 10
360.8919582805
 20
145.4977544877
 11
360.5794594725
 21
143.902009103
  0
LINE
  5
3AA
100
AcDbEntity
  8
0
100
AcDbLine
 62
7
  6
CONTINUOUS
 10
381.9857082805
 20
167.5190306935
 11
382.2982088765
 21
169.1147751841
  0
LINE
  5
3AB
100
AcDbEntity
  8
0
100
AcDbLine
 62
7
  6
CONTINUOUS
 10
362.4544594725
 20
143.902009103
 11
362.7669582805
 21
145.1786046955
  0
LINE
  5
3AC
100
AcDbEntity
  8
0
100
AcDbLine
 62
7
  6
CONTINUOUS
 10
342.1419582805
 20
144.5403068992
 11
341.8294576844
 21
143.5828602049
  0
LINE
  5
3AD
100
AcDbEntity
  8
0
100
AcDbLine
 62
7
  6
CONTINUOUS
 10
343.7044576844
 20
143.2637113067
 11
344.0169582805
 21
144.2211580011
  0
LINE
  5
3AE
100
AcDbEntity
  8
0
100
AcDbLine
 62
7
  6
CONTINUOUS
 10
342.1419582805
 20
137.8381795916
 11
341.8294576844
 21
136.8807328972
  0
LINE
  5
3AF
100
AcDbEntity
  8
0
100
AcDbLine
 62
7
  6
CONTINUOUS
 10
343.7044576844
 20
136.5615837756
 11
344.0169582805
 21
137.5190306935
  0
LINE
  5
3B0
100
AcDbEntity
  8
0
100
AcDbLine
 62
7
  6
CONTINUOUS
 10
174.7314596867
 20
263.3907182572
 11
195.2314596867
 21
275.2263987755
  0
LINE
  5
3B1
100
AcDbEntity
  8
0
100
AcDbLine
 62
7
  6
CONTINUOUS
 10
577.9810363494
 20
494.008392367
 11
175.9857815413
 21
494.008392367
  0
LINE
  5
3B2
100
AcDbEntity
  8
0
100
AcDbLine
 62
7
  6
CONTINUOUS
 10
83.8832982805
 20
499.008389867
 11
124.6664332805
 21
499.008389867
  0
LINE
  5
3B3
100
AcDbEntity
  8
0
100
AcDbLine
 62
7
  6
CONTINUOUS
 10
289.4857082805
 20
499.008389867
 11
294.4857082805
 21
499.008389867
  0
LINE
  5
3B4
100
AcDbEntity
  8
0
100
AcDbLine
 62
7
  6
CONTINUOUS
 10
459.4857082805
 20
499.008389867
 11
464.4857082805
 21
499.008389867
  0
LINE
  5
3B5
100
AcDbEntity
  8
0
100
AcDbLine
 62
7
  6
CONTINUOUS
 10
195.2314596867
 20
592.7903859586
 11
174.7314596867
 21
604.6260664769
  0
LINE
  5
3B6
100
AcDbEntity
  8
KONSTRUKTIONSELEMENTE
100
AcDbLine
 62
7
  6
CONTINUOUS
 10
459.4857082805
 20
282.5158182916
 11
459.4857082805
 21
374.008392367
  0
LINE
  5
3B7
100
AcDbEntity
  8
KONSTRUKTIONSELEMENTE
100
AcDbLine
 62
7
  6
CONTINUOUS
 10
459.4857082805
 20
494.008392367
 11
459.4857082805
 21
585.5009664425
  0
LINE
  5
3B8
100
AcDbEntity
  8
0
100
AcDbLine
 62
7
  6
CONTINUOUS
 10
464.4857082805
 20
520.8064233022
 11
464.4857082805
 21
494.008392367
  0
LINE
  5
3B9
100
AcDbEntity
  8
0
100
AcDbLine
 62
7
  6
CONTINUOUS
 10
464.4857082805
 20
374.008392367
 11
464.4857082805
 21
347.2103733079
  0
LINE
  5
3BA
100
AcDbEntity
  8
0
100
AcDbLine
 62
7
  6
CONTINUOUS
 10
405.5794558963
 20
142.6254135105
 11
405.8919582805
 21
144.5403068992
  0
LINE
  5
3BB
100
AcDbEntity
  8
0
100
AcDbLine
 62
7
  6
CONTINUOUS
 10
413.7044606646
 20
140.3913712236
 11
413.3919582805
 21
138.4764773878
  0
LINE
  5
3BC
100
AcDbEntity
  8
0
100
AcDbLine
 62
7
  6
CONTINUOUS
 10
419.3294606646
 20
142.6254135105
 11
419.6419558963
 21
144.5403068992
  0
LINE
  5
3BD
100
AcDbEntity
  8
0
100
AcDbLine
 62
7
  6
CONTINUOUS
 10
396.9857082805
 20
167.5190306935
 11
397.2982070884
 21
169.1147751841
  0
LINE
  5
3BE
100
AcDbEntity
  8
0
100
AcDbLine
 62
7
  6
CONTINUOUS
 10
404.3294606646
 20
144.5403068992
 11
404.0169582805
 21
142.9445624086
  0
LINE
  5
3BF
100
AcDbEntity
  8
0
100
AcDbLine
 62
7
  6
CONTINUOUS
 10
414.9544558963
 20
138.4764773878
 11
415.2669582805
 21
140.0722223255
  0
LINE
  5
3C0
100
AcDbEntity
  8
0
100
AcDbLine
 62
7
  6
CONTINUOUS
 10
418.0794582805
 20
144.5403068992
 11
417.7669558963
 21
142.9445624086
  0
LINE
  5
3C1
100
AcDbEntity
  8
0
100
AcDbLine
 62
7
  6
CONTINUOUS
 10
380.4232088765
 20
169.1147751841
 11
380.1107082805
 21
167.8381795916
  0
LINE
  5
3C2
100
AcDbEntity
  8
0
100
AcDbLine
 62
7
  6
CONTINUOUS
 10
372.4544570884
 20
136.2424348774
 11
372.7669594725
 21
137.5190306935
  0
LINE
  5
3C3
100
AcDbEntity
  8
0
100
AcDbLine
 62
7
  6
CONTINUOUS
 10
395.4232070884
 20
169.1147751841
 11
395.1107082805
 21
167.8381795916
  0
LINE
  5
3C4
100
AcDbEntity
  8
0
100
AcDbLine
 62
7
  6
CONTINUOUS
 10
390.8919582805
 20
146.7743500802
 11
390.5794558963
 21
145.4977544877
  0
LINE
  5
3C5
100
AcDbEntity
  8
0
100
AcDbLine
 62
7
  6
CONTINUOUS
 10
401.2044582805
 20
143.5828602049
 11
401.5169606646
 21
144.8594557974
  0
LINE
  5
3C6
100
AcDbEntity
  8
0
100
AcDbLine
 62
7
  6
CONTINUOUS
 10
356.2044582805
 20
144.5403068992
 11
355.8919594725
 21
143.5828602049
  0
LINE
  5
3C7
100
AcDbEntity
  8
0
100
AcDbLine
 62
7
  6
CONTINUOUS
 10
366.3607079824
 20
174.5403068992
 11
366.0482082805
 21
173.5828602049
  0
LINE
  5
3C8
100
AcDbEntity
  8
0
100
AcDbLine
 62
7
  6
CONTINUOUS
 10
357.7669594725
 20
143.2637113067
 11
358.0794582805
 21
144.2211580011
  0
LINE
  5
3C9
100
AcDbEntity
  8
0
100
AcDbLine
 62
7
  6
CONTINUOUS
 10
367.9232082805
 20
173.2637113067
 11
368.2357079824
 21
174.2211580011
  0
LINE
  5
3CA
100
AcDbEntity
  8
0
100
AcDbLine
 62
7
  6
CONTINUOUS
 10
370.8919594725
 20
137.8381795916
 11
370.5794570884
 21
136.8807328972
  0
LINE
  5
3CB
100
AcDbEntity
  8
0
100
AcDbLine
 62
7
  6
CONTINUOUS
 10
574.4857082805
 20
512.321642367
 11
575.2688407805
 21
512.321642367
  0
LINE
  5
3CC
100
AcDbEntity
  8
0
100
AcDbLine
 62
7
  6
CONTINUOUS
 10
124.6664332804
 20
526.508392367
 11
179.4857082818
 21
526.508392367
  0
LINE
  5
3CD
100
AcDbEntity
  8
0
100
AcDbLine
 62
7
  6
CONTINUOUS
 10
575.2688407805
 20
526.5083923671
 11
634.7869107806
 21
526.508392367
  0
LINE
  5
3CE
100
AcDbEntity
  8
0
100
AcDbLine
 62
7
  6
CONTINUOUS
 10
474.7399568742
 20
184.4085827749
 11
474.7399568742
 21
208.0799438116
  0
LINE
  5
3CF
100
AcDbEntity
  8
0
100
AcDbLine
 62
7
  6
CONTINUOUS
 10
474.7399568742
 20
659.9368409224
 11
474.7399568742
 21
683.6082019592
  0
LINE
  5
3D0
100
AcDbEntity
  8
0
100
AcDbLine
 62
7
  6
CONTINUOUS
 10
427.4544582805
 20
140.3913712236
 11
427.1419558963
 21
138.4764773878
  0
LINE
  5
3D1
100
AcDbEntity
  8
0
100
AcDbLine
 62
7
  6
CONTINUOUS
 10
428.7044606646
 20
138.4764773878
 11
429.0169558963
 21
140.0722223255
  0
LINE
  5
3D2
100
AcDbEntity
  8
0
100
AcDbLine
 62
7
  6
CONTINUOUS
 10
404.6419558963
 20
145.4977544877
 11
404.3294606646
 21
144.5403068992
  0
LINE
  5
3D3
100
AcDbEntity
  8
0
100
AcDbLine
 62
7
  6
CONTINUOUS
 10
361.5169594725
 20
146.7743500802
 11
360.8919582805
 21
145.4977544877
  0
LINE
  5
3D4
100
AcDbEntity
  8
0
100
AcDbLine
 62
7
  6
CONTINUOUS
 10
381.3607088765
 20
166.2424348774
 11
381.9857082805
 21
167.5190306935
  0
LINE
  5
3D5
100
AcDbEntity
  8
0
100
AcDbLine
 62
7
  6
CONTINUOUS
 10
414.6419606646
 20
137.5190306935
 11
414.9544558963
 21
138.4764773878
  0
LINE
  5
3D6
100
AcDbEntity
  8
0
100
AcDbLine
 62
7
  6
CONTINUOUS
 10
418.3919606646
 20
145.4977544877
 11
418.0794582805
 21
144.5403068992
  0
LINE
  5
3D7
100
AcDbEntity
  8
0
100
AcDbLine
 62
7
  6
CONTINUOUS
 10
428.3919582805
 20
137.5190306935
 11
428.7044606646
 21
138.4764773878
  0
LINE
  5
3D8
100
AcDbEntity
  8
0
100
AcDbLine
 62
7
  6
CONTINUOUS
 10
396.3607070884
 20
166.2424348774
 11
396.9857082805
 21
167.5190306935
  0
LINE
  5
3D9
100
AcDbEntity
  8
0
100
AcDbLine
 62
7
  6
CONTINUOUS
 10
399.6419606646
 20
144.8594557974
 11
399.0169558963
 21
143.5828602049
  0
LINE
  5
3DA
100
AcDbEntity
  8
0
100
AcDbLine
 62
7
  6
CONTINUOUS
 10
405.2669606646
 20
146.7743500802
 11
404.6419558963
 21
145.4977544877
  0
LINE
  5
3DB
100
AcDbEntity
  8
0
100
AcDbLine
 62
7
  6
CONTINUOUS
 10
362.7669582805
 20
145.1786046955
 11
363.3919594725
 21
146.1360522839
  0
LINE
  5
3DC
100
AcDbEntity
  8
0
100
AcDbLine
 62
7
  6
CONTINUOUS
 10
380.1107082805
 20
167.8381795916
 11
379.4857088765
 21
166.8807328972
  0
LINE
  5
3DD
100
AcDbEntity
  8
0
100
AcDbLine
 62
7
  6
CONTINUOUS
 10
342.7669576844
 20
141.9871157142
 11
343.7044576844
 21
143.2637113067
  0
LINE
  5
3DE
100
AcDbEntity
  8
0
100
AcDbLine
 62
7
  6
CONTINUOUS
 10
366.9857082805
 20
171.9871157142
 11
367.9232082805
 21
173.2637113067
  0
LINE
  5
3DF
100
AcDbEntity
  8
0
100
AcDbLine
 62
7
  6
CONTINUOUS
 10
342.7669576844
 20
135.2849880713
 11
343.7044576844
 21
136.5615837756
  0
LINE
  5
3E0
100
AcDbEntity
  8
0
100
AcDbLine
 62
7
  6
CONTINUOUS
 10
356.8294594725
 20
141.9871157142
 11
357.7669594725
 21
143.2637113067
  0
LINE
  5
3E1
100
AcDbEntity
  8
0
100
AcDbLine
 62
7
  6
CONTINUOUS
 10
634.7869107805
 20
414.8410576936
 11
647.4857082805
 21
422.1727118487
  0
LINE
  5
3E2
100
AcDbEntity
  8
0
100
AcDbLine
 62
7
  6
CONTINUOUS
 10
299.7314596867
 20
219.91562433
 11
279.2314596867
 21
208.0799438116
  0
LINE
  5
3E3
100
AcDbEntity
  8
0
100
AcDbLine
 62
7
  6
CONTINUOUS
 10
233.4857082805
 20
570.808392367
 11
239.4857082805
 21
570.808392367
  0
LINE
  5
3E4
100
AcDbEntity
  8
0
100
AcDbLine
 62
7
  6
CONTINUOUS
 10
514.4857082805
 20
570.808392367
 11
520.4857082805
 21
570.808392367
  0
LINE
  5
3E5
100
AcDbEntity
  8
0
100
AcDbLine
 62
7
  6
CONTINUOUS
 10
647.4857082805
 20
445.8440728854
 11
634.7869107805
 21
453.1757270404
  0
LINE
  5
3E6
100
AcDbEntity
  8
0
100
AcDbLine
 62
7
  6
CONTINUOUS
 10
279.2314596867
 20
659.9368409224
 11
299.7314596867
 21
648.1011604041
  0
LINE
  5
3E7
100
AcDbEntity
  8
0
100
AcDbLine
 62
7
  6
CONTINUOUS
 10
558.7399568742
 20
592.7903859586
 11
558.7399568742
 21
569.1190249218
  0
LINE
  5
3E8
100
AcDbEntity
  8
0
100
AcDbLine
 62
7
  6
CONTINUOUS
 10
558.7399568742
 20
298.8977598123
 11
558.7399568742
 21
275.2263987755
  0
LINE
  5
3E9
100
AcDbEntity
  8
0
100
AcDbLine
 62
7
  6
CONTINUOUS
 10
419.0169582805
 20
146.7743500802
 11
418.3919606646
 21
145.4977544877
  0
LINE
  5
3EA
100
AcDbEntity
  8
0
100
AcDbLine
 62
7
  6
CONTINUOUS
 10
414.0169558963
 20
136.2424348774
 11
414.6419606646
 21
137.5190306935
  0
LINE
  5
3EB
100
AcDbEntity
  8
0
100
AcDbLine
 62
7
  6
CONTINUOUS
 10
427.7669606646
 20
136.2424348774
 11
428.3919582805
 21
137.5190306935
  0
LINE
  5
3EC
100
AcDbEntity
  8
0
100
AcDbLine
 62
7
  6
CONTINUOUS
 10
395.1107082805
 20
167.8381795916
 11
394.4857070884
 21
166.8807328972
  0
LINE
  5
3ED
100
AcDbEntity
  8
0
100
AcDbLine
 62
7
  6
CONTINUOUS
 10
392.1419606646
 20
145.4977544877
 11
392.7669582805
 21
146.455201182
  0
LINE
  5
3EE
100
AcDbEntity
  8
0
100
AcDbLine
 62
7
  6
CONTINUOUS
 10
400.5794606646
 20
142.6254135105
 11
401.2044582805
 21
143.5828602049
  0
LINE
  5
3EF
100
AcDbEntity
  8
0
100
AcDbLine
 62
7
  6
CONTINUOUS
 10
405.8919582805
 20
144.5403068992
 11
407.1419606646
 21
146.455201182
  0
LINE
  5
3F0
100
AcDbEntity
  8
0
100
AcDbLine
 62
7
  6
CONTINUOUS
 10
366.0482082805
 20
173.5828602049
 11
365.4232079824
 21
172.9445624086
  0
LINE
  5
3F1
100
AcDbEntity
  8
0
100
AcDbLine
 62
7
  6
CONTINUOUS
 10
341.8294576844
 20
143.5828602049
 11
341.2044582805
 21
142.9445624086
  0
LINE
  5
3F2
100
AcDbEntity
  8
0
100
AcDbLine
 62
7
  6
CONTINUOUS
 10
341.8294576844
 20
136.8807328972
 11
341.2044582805
 21
136.2424348774
  0
LINE
  5
3F3
100
AcDbEntity
  8
0
100
AcDbLine
 62
7
  6
CONTINUOUS
 10
299.7314596867
 20
172.5729022565
 11
320.2314596867
 21
184.4085827749
  0
LINE
  5
3F4
100
AcDbEntity
  8
0
100
AcDbLine
 62
7
  6
CONTINUOUS
 10
320.2314596867
 20
683.6082019592
 11
299.7314596867
 21
695.4438824776
  0
LINE
  5
3F5
100
AcDbEntity
  8
0
100
AcDbLine
 62
7
  6
CONTINUOUS
 10
574.4857082805
 20
351.2087967907
 11
574.4857082804
 21
374.008392367
  0
LINE
  5
3F6
100
AcDbEntity
  8
0
100
AcDbLine
 62
7
  6
CONTINUOUS
 10
574.4857082804
 20
494.008392367
 11
574.4857082805
 21
516.8082424584
  0
LINE
  5
3F7
100
AcDbEntity
  8
0
100
AcDbLine
 62
7
  6
CONTINUOUS
 10
575.2688407805
 20
526.508392367
 11
575.2688407805
 21
494.008392367
  0
LINE
  5
3F8
100
AcDbEntity
  8
0
100
AcDbLine
 62
7
  6
CONTINUOUS
 10
575.2688407805
 20
374.008392367
 11
575.2688407805
 21
341.508392367
  0
LINE
  5
3F9
100
AcDbEntity
  8
0
100
AcDbLine
 62
7
  6
CONTINUOUS
 10
413.3919582805
 20
138.4764773878
 11
412.1419558963
 21
136.5615837756
  0
LINE
  5
3FA
100
AcDbEntity
  8
0
100
AcDbLine
 62
7
  6
CONTINUOUS
 10
419.6419558963
 20
144.5403068992
 11
420.8919582805
 21
146.455201182
  0
LINE
  5
3FB
100
AcDbEntity
  8
0
100
AcDbLine
 62
7
  6
CONTINUOUS
 10
427.1419558963
 20
138.4764773878
 11
425.8919606646
 21
136.5615837756
  0
LINE
  5
3FC
100
AcDbEntity
  8
0
100
AcDbLine
 62
7
  6
CONTINUOUS
 10
355.8919594725
 20
143.5828602049
 11
355.2669582805
 21
142.9445624086
  0
LINE
  5
3FD
100
AcDbEntity
  8
0
100
AcDbLine
 62
7
  6
CONTINUOUS
 10
362.7669582805
 20
148.0509456727
 11
361.5169594725
 21
146.7743500802
  0
LINE
  5
3FE
100
AcDbEntity
  8
0
100
AcDbLine
 62
7
  6
CONTINUOUS
 10
380.1107082805
 20
164.9658391732
 11
381.3607088765
 21
166.2424348774
  0
LINE
  5
3FF
100
AcDbEntity
  8
0
100
AcDbLine
 62
7
  6
CONTINUOUS
 10
395.1107082805
 20
164.9658391732
 11
396.3607070884
 21
166.2424348774
  0
LINE
  5
400
100
AcDbEntity
  8
0
100
AcDbLine
 62
7
  6
CONTINUOUS
 10
371.2044582805
 20
134.9658391732
 11
372.4544570884
 21
136.2424348774
  0
LINE
  5
401
100
AcDbEntity
  8
0
100
AcDbLine
 62
7
  6
CONTINUOUS
 10
392.1419606646
 20
148.0509456727
 11
390.8919582805
 21
146.7743500802
  0
LINE
  5
402
100
AcDbEntity
  8
0
100
AcDbLine
 62
7
  6
CONTINUOUS
 10
341.5169588765
 20
134.3275412931
 11
342.7669576844
 21
135.2849880713
  0
LINE
  5
403
100
AcDbEntity
  8
0
100
AcDbLine
 62
7
  6
CONTINUOUS
 10
579.2399568742
 20
310.7334403307
 11
558.7399568742
 21
298.8977598123
  0
LINE
  5
404
100
AcDbEntity
  8
0
100
AcDbLine
 62
7
  6
CONTINUOUS
 10
558.7399568742
 20
569.1190249218
 11
579.2399568742
 21
557.2833444034
  0
LINE
  5
405
100
AcDbEntity
  8
0
100
AcDbLine
 62
7
  6
CONTINUOUS
 10
599.7399568742
 20
275.2263987755
 11
599.7399568742
 21
298.8977598123
  0
LINE
  5
406
100
AcDbEntity
  8
0
100
AcDbLine
 62
7
  6
CONTINUOUS
 10
599.7399568742
 20
569.1190249218
 11
599.7399568742
 21
592.7903859586
  0
LINE
  5
407
100
AcDbEntity
  8
0
100
AcDbLine
 62
7
  6
CONTINUOUS
 10
406.2044606646
 20
147.7317967745
 11
405.2669606646
 21
146.7743500802
  0
LINE
  5
408
100
AcDbEntity
  8
0
100
AcDbLine
 62
7
  6
CONTINUOUS
 10
419.9544582805
 20
147.7317967745
 11
419.0169582805
 21
146.7743500802
  0
LINE
  5
409
100
AcDbEntity
  8
0
100
AcDbLine
 62
7
  6
CONTINUOUS
 10
413.0794558963
 20
135.2849880713
 11
414.0169558963
 21
136.2424348774
  0
LINE
  5
40A
100
AcDbEntity
  8
0
100
AcDbLine
 62
7
  6
CONTINUOUS
 10
426.8294606646
 20
135.2849880713
 11
427.7669606646
 21
136.2424348774
  0
LINE
  5
40B
100
AcDbEntity
  8
0
100
AcDbLine
 62
7
  6
CONTINUOUS
 10
399.0169558963
 20
143.5828602049
 11
390.2669606646
 21
135.6041370812
  0
LINE
  5
40C
100
AcDbEntity
  8
0
100
AcDbLine
 62
7
  6
CONTINUOUS
 10
392.7669582805
 20
135.6041370812
 11
400.5794606646
 21
142.6254135105
  0
LINE
  5
40D
100
AcDbEntity
  8
0
100
AcDbLine
 62
7
  6
CONTINUOUS
 10
355.5794570884
 20
141.0296690199
 11
356.8294594725
 21
141.9871157142
  0
LINE
  5
40E
100
AcDbEntity
  8
0
100
AcDbLine
 62
7
  6
CONTINUOUS
 10
379.4857088765
 20
166.8807328972
 11
378.5482088765
 21
166.2424348774
  0
LINE
  5
40F
100
AcDbEntity
  8
0
100
AcDbLine
 62
7
  6
CONTINUOUS
 10
363.3919594725
 20
146.1360522839
 11
364.3294594725
 21
146.7743500802
  0
LINE
  5
410
100
AcDbEntity
  8
0
100
AcDbLine
 62
7
  6
CONTINUOUS
 10
394.4857070884
 20
166.8807328972
 11
393.5482070884
 21
166.2424348774
  0
LINE
  5
411
100
AcDbEntity
  8
0
100
AcDbLine
 62
7
  6
CONTINUOUS
 10
370.5794570884
 20
136.8807328972
 11
369.6419570884
 21
136.2424348774
  0
LINE
  5
412
100
AcDbEntity
  8
0
100
AcDbLine
 62
7
  6
CONTINUOUS
 10
392.7669582805
 20
146.455201182
 11
393.7044582805
 21
147.0934989783
  0
LINE
  5
413
100
AcDbEntity
  8
0
100
AcDbLine
 62
7
  6
CONTINUOUS
 10
454.2399568742
 20
219.91562433
 11
433.7399568742
 21
208.0799438116
  0
LINE
  5
414
100
AcDbEntity
  8
0
100
AcDbLine
 62
7
  6
CONTINUOUS
 10
579.2399568742
 20
263.3907182572
 11
599.7399568742
 21
275.2263987755
  0
LINE
  5
415
100
AcDbEntity
  8
0
100
AcDbLine
 62
7
  6
CONTINUOUS
 10
365.7357085785
 20
171.348817918
 11
366.9857082805
 21
171.9871157142
  0
LINE
  5
416
100
AcDbEntity
  8
0
100
AcDbLine
 62
7
  6
CONTINUOUS
 10
378.8607076844
 20
164.3275412931
 11
380.1107082805
 21
164.9658391732
  0
LINE
  5
417
100
AcDbEntity
  8
0
100
AcDbLine
 62
7
  6
CONTINUOUS
 10
342.1419582805
 20
141.6679668161
 11
342.7669576844
 21
141.9871157142
  0
LINE
  5
418
100
AcDbEntity
  8
0
100
AcDbLine
 62
7
  6
CONTINUOUS
 10
393.8607094725
 20
164.3275412931
 11
395.1107082805
 21
164.9658391732
  0
LINE
  5
419
100
AcDbEntity
  8
0
100
AcDbLine
 62
7
  6
CONTINUOUS
 10
364.0169570884
 20
148.6892434689
 11
362.7669582805
 21
148.0509456727
  0
LINE
  5
41A
100
AcDbEntity
  8
0
100
AcDbLine
 62
7
  6
CONTINUOUS
 10
365.4232079824
 20
172.9445624086
 11
364.4857079824
 21
172.6254135105
  0
LINE
  5
41B
100
AcDbEntity
  8
0
100
AcDbLine
 62
7
  6
CONTINUOUS
 10
433.7399568742
 20
659.9368409224
 11
454.2399568742
 21
648.1011604041
  0
LINE
  5
41C
100
AcDbEntity
  8
0
100
AcDbLine
 62
7
  6
CONTINUOUS
 10
599.7399568742
 20
592.7903859586
 11
579.2399568742
 21
604.6260664769
  0
LINE
  5
41D
100
AcDbEntity
  8
0
100
AcDbLine
 62
7
  6
CONTINUOUS
 10
631.9857082805
 20
440.008392367
 11
631.9857082805
 21
428.008392367
  0
LINE
  5
41E
100
AcDbEntity
  8
0
100
AcDbLine
 62
7
  6
CONTINUOUS
 10
634.7869107805
 20
341.508392367
 11
634.7869107805
 21
526.508392367
  0
LINE
  5
41F
100
AcDbEntity
  8
0
100
AcDbLine
 62
7
  6
CONTINUOUS
 10
647.4857082805
 20
422.1727118487
 11
647.4857082805
 21
445.8440728854
  0
LINE
  5
420
100
AcDbEntity
  8
0
100
AcDbLine
 62
7
  6
CONTINUOUS
 10
407.1419606646
 20
146.455201182
 11
408.0794606646
 21
147.0934989783
  0
LINE
  5
421
100
AcDbEntity
  8
0
100
AcDbLine
 62
7
  6
CONTINUOUS
 10
420.8919582805
 20
146.455201182
 11
421.8294582805
 21
147.0934989783
  0
LINE
  5
422
100
AcDbEntity
  8
0
100
AcDbLine
 62
7
  6
CONTINUOUS
 10
412.1419558963
 20
136.5615837756
 11
411.2044558963
 21
135.9232859793
  0
LINE
  5
423
100
AcDbEntity
  8
0
100
AcDbLine
 62
7
  6
CONTINUOUS
 10
425.8919606646
 20
136.5615837756
 11
424.9544606646
 21
135.9232859793
  0
LINE
  5
424
100
AcDbEntity
  8
0
100
AcDbLine
 62
7
  6
CONTINUOUS
 10
407.7669582805
 20
148.6892434689
 11
406.2044606646
 21
147.7317967745
  0
LINE
  5
425
100
AcDbEntity
  8
0
100
AcDbLine
 62
7
  6
CONTINUOUS
 10
421.5169558963
 20
148.6892434689
 11
419.9544582805
 21
147.7317967745
  0
LINE
  5
426
100
AcDbEntity
  8
0
100
AcDbLine
 62
7
  6
CONTINUOUS
 10
411.5169582805
 20
134.3275412931
 11
413.0794558963
 21
135.2849880713
  0
LINE
  5
427
100
AcDbEntity
  8
0
100
AcDbLine
 62
7
  6
CONTINUOUS
 10
454.2399568742
 20
172.5729022565
 11
474.7399568742
 21
184.4085827749
  0
LINE
  5
428
100
AcDbEntity
  8
0
100
AcDbLine
 62
7
  6
CONTINUOUS
 10
393.3919558963
 20
148.6892434689
 11
392.1419606646
 21
148.0509456727
  0
LINE
  5
429
100
AcDbEntity
  8
0
100
AcDbLine
 62
7
  6
CONTINUOUS
 10
369.9544594725
 20
134.3275412931
 11
371.2044582805
 21
134.9658391732
  0
LINE
  5
42A
100
AcDbEntity
  8
0
100
AcDbLine
 62
7
  6
CONTINUOUS
 10
341.2044582805
 20
142.9445624086
 11
340.2669582805
 21
142.6254135105
  0
LINE
  5
42B
100
AcDbEntity
  8
0
100
AcDbLine
 62
7
  6
CONTINUOUS
 10
355.2669582805
 20
142.9445624086
 11
354.3294582805
 21
142.6254135105
  0
LINE
  5
42C
100
AcDbEntity
  8
0
100
AcDbLine
 62
7
  6
CONTINUOUS
 10
341.2044582805
 20
136.2424348774
 11
340.2669582805
 21
135.9232859793
  0
LINE
  5
42D
100
AcDbEntity
  8
0
100
AcDbLine
 62
7
  6
CONTINUOUS
 10
474.7399568742
 20
683.6082019592
 11
454.2399568742
 21
695.4438824776
  0
LINE
  5
42E
100
AcDbEntity
  8
0
100
AcDbLine
 62
7
  6
CONTINUOUS
 10
425.2669558963
 20
134.3275412931
 11
426.8294606646
 21
135.2849880713
  0
ARC
  5
42F
100
AcDbEntity
  8
0
100
AcDbCircle
 62
7
  6
CONTINUOUS
 10
104.3434156475
 20
1546.7762278937
 40
66.6641466786
100
AcDbArc
 50
274.6387923621
 51
276.162904646
  0
ARC
  5
430
100
AcDbEntity
  8
0
100
AcDbCircle
 62
7
  6
CONTINUOUS
 10
104.6174731682
 20
1546.6646107443
 40
66.5520437455
100
AcDbArc
 50
263.8357789322
 51
265.3624700514
  0
ARC
  5
431
100
AcDbEntity
  8
0
100
AcDbCircle
 62
7
  6
CONTINUOUS
 10
104.4860303339
 20
1285.763169222
 40
65.29897395
100
AcDbArc
 50
83.2179396603
 51
96.888364176
  0
ARC
  5
432
100
AcDbEntity
  8
0
100
AcDbCircle
 62
7
  6
CONTINUOUS
 10
104.6565358579
 20
1543.8381174867
 40
63.7094014553
100
AcDbArc
 50
276.1666029289
 51
276.2937336524
  0
ARC
  5
433
100
AcDbEntity
  8
0
100
AcDbCircle
 62
7
  6
CONTINUOUS
 10
104.3144257915
 20
1543.8323935985
 40
63.703661162
100
AcDbArc
 50
263.7059156748
 51
263.8332389193
  0
ARC
  5
434
100
AcDbEntity
  8
0
100
AcDbCircle
 62
7
  6
CONTINUOUS
 10
117.950698029
 20
1419.0040038499
 40
61.8743401676
100
AcDbArc
 50
97.6304787151
 51
98.1882683166
  0
ARC
  5
435
100
AcDbEntity
  8
0
100
AcDbCircle
 62
7
  6
CONTINUOUS
 10
91.0207185319
 20
1419.0040038499
 40
61.8743401676
100
AcDbArc
 50
81.8117316834
 51
82.3695212849
  0
ARC
  5
436
100
AcDbEntity
  8
0
100
AcDbCircle
 62
7
  6
CONTINUOUS
 10
233.4857082805
 20
1332.790794346
 40
54.0
100
AcDbArc
 50
180.0
 51
270.0
  0
ARC
  5
437
100
AcDbEntity
  8
0
100
AcDbCircle
 62
7
  6
CONTINUOUS
 10
175.6660893548
 20
1337.7691238401
 40
51.260756064
100
AcDbArc
 50
196.0699179273
 51
197.6228750515
  0
ARC
  5
438
100
AcDbEntity
  8
0
100
AcDbCircle
 62
7
  6
CONTINUOUS
 10
175.6520729475
 20
1493.4148002125
 40
51.2467007453
100
AcDbArc
 50
162.3820175969
 51
163.927816425
  0
ARC
  5
439
100
AcDbEntity
  8
0
100
AcDbCircle
 62
7
  6
CONTINUOUS
 10
239.4857082805
 20
1328.790794346
 40
50.0
100
AcDbArc
 50
270.0
 51
0.0000006321
  0
ARC
  5
43A
100
AcDbEntity
  8
0
100
AcDbCircle
 62
7
  6
CONTINUOUS
 10
104.4857082805
 20
1497.4981565862
 40
7.0
100
AcDbArc
 50
0.0
 51
180.0
  0
ARC
  5
43B
100
AcDbEntity
  8
RUNDUNGEN
100
AcDbCircle
 62
7
  6
CONTINUOUS
 10
93.9857082805
 20
1253.590794346
 40
3.0
100
AcDbArc
 50
90.0
 51
138.1283826647
  0
ARC
  5
43C
100
AcDbEntity
  8
RUNDUNGEN
100
AcDbCircle
 62
7
  6
CONTINUOUS
 10
141.7314596867
 20
1253.590794346
 40
3.0
100
AcDbArc
 50
90.0
 51
138.1283826647
  0
ARC
  5
43D
100
AcDbEntity
  8
RUNDUNGEN
100
AcDbCircle
 62
7
  6
CONTINUOUS
 10
207.7314596867
 20
1253.590794346
 40
3.0
100
AcDbArc
 50
41.8716173271
 51
90.0
  0
ARC
  5
43E
100
AcDbEntity
  8
RUNDUNGEN
100
AcDbCircle
 62
7
  6
CONTINUOUS
 10
266.7314596867
 20
1253.590794346
 40
3.0
100
AcDbArc
 50
90.0
 51
138.1283826647
  0
ARC
  5
43F
100
AcDbEntity
  8
RUNDUNGEN
100
AcDbCircle
 62
7
  6
CONTINUOUS
 10
332.7314596867
 20
1253.590794346
 40
3.0
100
AcDbArc
 50
41.8716173271
 51
90.0
  0
ARC
  5
440
100
AcDbEntity
  8
0
100
AcDbCircle
 62
7
  6
CONTINUOUS
 10
-219.2050150145
 20
1599.7083757152
 40
508.690723295
100
AcDbArc
 50
0.0
 51
24.2114870846
  0
ARC
  5
441
100
AcDbEntity
  8
0
100
AcDbCircle
 62
7
  6
CONTINUOUS
 10
-266.697609559
 20
1599.7083757152
 40
446.1833178395
100
AcDbArc
 50
0.0
 51
23.3651865174
  0
ARC
  5
442
100
AcDbEntity
  8
BEZUGSACHSEN
100
AcDbCircle
 62
7
  6
CONTINUOUS
 10
376.9857082805
 20
1420.7195195524
 40
172.5
100
AcDbArc
 50
100.0154101683
 51
118.5718781423
  0
ARC
  5
443
100
AcDbEntity
  8
BEZUGSACHSEN
100
AcDbCircle
 62
7
  6
CONTINUOUS
 10
376.9857082805
 20
1420.7195195524
 40
172.5
100
AcDbArc
 50
61.4281218577
 51
79.9845898317
  0
ARC
  5
444
100
AcDbEntity
  8
KONSTRUKTIONSELEMENTE
100
AcDbCircle
 62
7
  6
CONTINUOUS
 10
376.9857082805
 20
1420.7195195524
 40
172.5
100
AcDbArc
 50
61.4281218577
 51
79.9845898317
  0
ARC
  5
445
100
AcDbEntity
  8
KONSTRUKTIONSELEMENTE
100
AcDbCircle
 62
7
  6
CONTINUOUS
 10
376.9857082805
 20
1420.7195195524
 40
172.5
100
AcDbArc
 50
100.0154101683
 51
118.5718781423
  0
ARC
  5
446
100
AcDbEntity
  8
0
100
AcDbCircle
 62
7
  6
CONTINUOUS
 10
520.4857082805
 20
1332.790794346
 40
54.0
100
AcDbArc
 50
270.0
 51
0.0000005577
  0
ARC
  5
447
100
AcDbEntity
  8
0
100
AcDbCircle
 62
7
  6
CONTINUOUS
 10
583.7872547077
 20
1493.4124648523
 40
51.2607560624
100
AcDbArc
 50
16.0699179273
 51
17.6228750516
  0
ARC
  5
448
100
AcDbEntity
  8
0
100
AcDbCircle
 62
7
  6
CONTINUOUS
 10
583.8012711141
 20
1337.7667884792
 40
51.2467007446
100
AcDbArc
 50
342.3820175967
 51
343.9278164251
  0
ARC
  5
449
100
AcDbEntity
  8
0
100
AcDbCircle
 62
7
  6
CONTINUOUS
 10
514.4857082805
 20
1328.790794346
 40
50.0
100
AcDbArc
 50
179.9999993679
 51
270.0
  0
ARC
  5
44A
100
AcDbEntity
  8
RUNDUNGEN
100
AcDbCircle
 62
7
  6
CONTINUOUS
 10
659.9857082805
 20
1253.590794346
 40
3.0
100
AcDbArc
 50
41.8716173271
 51
90.0
  0
ARC
  5
44B
100
AcDbEntity
  8
RUNDUNGEN
100
AcDbCircle
 62
7
  6
CONTINUOUS
 10
546.2399568742
 20
1253.590794346
 40
3.0
100
AcDbArc
 50
90.0
 51
138.1283826647
  0
ARC
  5
44C
100
AcDbEntity
  8
RUNDUNGEN
100
AcDbCircle
 62
7
  6
CONTINUOUS
 10
612.2399568742
 20
1253.590794346
 40
3.0
100
AcDbArc
 50
41.8716173271
 51
90.0
  0
ARC
  5
44D
100
AcDbEntity
  8
RUNDUNGEN
100
AcDbCircle
 62
7
  6
CONTINUOUS
 10
421.2399568742
 20
1253.590794346
 40
3.0
100
AcDbArc
 50
90.0
 51
138.1283826647
  0
ARC
  5
44E
100
AcDbEntity
  8
RUNDUNGEN
100
AcDbCircle
 62
7
  6
CONTINUOUS
 10
487.2399568742
 20
1253.590794346
 40
3.0
100
AcDbArc
 50
41.8716173271
 51
90.0
  0
ARC
  5
44F
100
AcDbEntity
  8
0
100
AcDbCircle
 62
7
  6
CONTINUOUS
 10
376.9857082805
 20
1877.790794346
 40
255.0
100
AcDbArc
 50
336.6348134827
 51
203.3651865173
  0
ARC
  5
450
100
AcDbEntity
  8
0
100
AcDbCircle
 62
7
  6
CONTINUOUS
 10
376.9857082805
 20
1867.790794346
 40
145.0
100
AcDbArc
 50
335.7885129154
 51
204.2114870846
  0
ARC
  5
451
100
AcDbEntity
  8
0
100
AcDbCircle
 62
7
  6
CONTINUOUS
 10
973.1764315755
 20
1599.7083757152
 40
508.690723295
100
AcDbArc
 50
155.7885129154
 51
180.0
  0
ARC
  5
452
100
AcDbEntity
  8
0
100
AcDbCircle
 62
7
  6
CONTINUOUS
 10
1020.66902612
 20
1599.7083757152
 40
446.1833178395
100
AcDbArc
 50
156.6348134827
 51
180.0
  0
ARC
  5
453
100
AcDbEntity
  8
0
100
AcDbCircle
 62
7
  6
CONTINUOUS
 10
1184.1046918626
 20
1598.7471210181
 40
120.0
100
AcDbArc
 50
314.5020336138
 51
360.0
  0
ARC
  5
454
100
AcDbEntity
  8
0
100
AcDbCircle
 62
7
  6
CONTINUOUS
 10
1355.7046918626
 20
1477.590794346
 40
8.4
100
AcDbArc
 50
20.7594919088
 51
56.944268849
  0
ARC
  5
455
100
AcDbEntity
  8
RUNDUNGEN
100
AcDbCircle
 62
7
  6
CONTINUOUS
 10
1093.3405627888
 20
1253.590794346
 40
3.0
100
AcDbArc
 50
90.0
 51
138.1283826729
  0
ARC
  5
456
100
AcDbEntity
  8
RUNDUNGEN
100
AcDbCircle
 62
7
  6
CONTINUOUS
 10
1159.3405627888
 20
1253.590794346
 40
3.0
100
AcDbArc
 50
41.8716173271
 51
90.0
  0
ARC
  5
457
100
AcDbEntity
  8
RUNDUNGEN
100
AcDbCircle
 62
7
  6
CONTINUOUS
 10
1184.1583787895
 20
1253.590794346
 40
3.0
100
AcDbArc
 50
90.0
 51
138.1283826729
  0
ARC
  5
458
100
AcDbEntity
  8
RUNDUNGEN
100
AcDbCircle
 62
7
  6
CONTINUOUS
 10
1250.1583787895
 20
1253.590794346
 40
3.0
100
AcDbArc
 50
41.8716173271
 51
90.0
  0
ARC
  5
459
100
AcDbEntity
  8
RUNDUNGEN
100
AcDbCircle
 62
7
  6
CONTINUOUS
 10
1331.1046918626
 20
1253.590794346
 40
3.0
100
AcDbArc
 50
90.0
 51
138.1283826729
  0
ARC
  5
45A
100
AcDbEntity
  8
0
100
AcDbCircle
 62
7
  6
CONTINUOUS
 10
1358.1046918626
 20
2078.790794346
 40
54.0
100
AcDbArc
 50
90.0
 51
180.0000003168
  0
ARC
  5
45B
100
AcDbEntity
  8
RUNDUNGEN
100
AcDbCircle
 62
7
  6
CONTINUOUS
 10
1397.1046918626
 20
1253.590794346
 40
3.0
100
AcDbArc
 50
41.8716173271
 51
90.0
  0
ARC
  5
45C
100
AcDbEntity
  8
BEZUGSACHSEN
100
AcDbCircle
 62
7
  6
CONTINUOUS
 10
1364.1046918626
 20
1420.7195195524
 40
172.5
100
AcDbArc
 50
110.8006605844
 51
180.0
  0
ARC
  5
45D
100
AcDbEntity
  8
BEZUGSACHSEN
100
AcDbCircle
 62
7
  6
CONTINUOUS
 10
1364.1046918626
 20
1420.7195195524
 40
172.5
100
AcDbArc
 50
0.0
 51
69.1993394157
  0
ARC
  5
45E
100
AcDbEntity
  8
KONSTRUKTIONSELEMENTE
100
AcDbCircle
 62
7
  6
CONTINUOUS
 10
1364.1046918626
 20
1420.7195195524
 40
151.4925740754
100
AcDbArc
 50
116.6392879426
 51
180.0
  0
ARC
  5
45F
100
AcDbEntity
  8
KONSTRUKTIONSELEMENTE
100
AcDbCircle
 62
7
  6
CONTINUOUS
 10
1364.1046918626
 20
1420.7195195524
 40
151.4925740754
100
AcDbArc
 50
0.0
 51
63.3621481742
  0
ARC
  5
460
100
AcDbEntity
  8
0
100
AcDbCircle
 62
7
  6
CONTINUOUS
 10
1364.1046918626
 20
1415.590794346
 40
136.8
100
AcDbArc
 50
134.5020336138
 51
45.4979663862
  0
ARC
  5
461
100
AcDbEntity
  8
0
100
AcDbCircle
 62
7
  6
CONTINUOUS
 10
1364.1046918626
 20
1415.590794346
 40
92.5
100
AcDbArc
 50
274.3398556961
 51
265.6601443037
  0
CIRCLE
  5
462
100
AcDbEntity
  8
0
100
AcDbCircle
 62
7
  6
CONTINUOUS
 10
1364.1046918626
 20
1415.590794346
 40
64.9999975
  0
CIRCLE
  5
463
100
AcDbEntity
  8
0
100
AcDbCircle
 62
7
  6
CONTINUOUS
 10
1364.1046918626
 20
1415.590794346
 40
55.6024075
  0
ARC
  5
464
100
AcDbEntity
  8
RUNDUNGEN
100
AcDbCircle
 62
7
  6
CONTINUOUS
 10
1478.0510049357
 20
1253.590794346
 40
3.0
100
AcDbArc
 50
90.0
 51
138.1283826729
  0
ARC
  5
465
100
AcDbEntity
  8
0
100
AcDbCircle
 62
7
  6
CONTINUOUS
 10
1364.1046918626
 20
1490.4981565862
 40
14.0
100
AcDbArc
 50
311.0470432415
 51
228.9658937455
  0
ARC
  5
466
100
AcDbEntity
  8
0
100
AcDbCircle
 62
7
  6
CONTINUOUS
 10
1372.5046918626
 20
1477.590794346
 40
8.4
100
AcDbArc
 50
123.0557311506
 51
159.2405080913
  0
ARC
  5
467
100
AcDbEntity
  8
0
100
AcDbCircle
 62
7
  6
CONTINUOUS
 10
1364.1046918626
 20
1490.4981565862
 40
7.0
100
AcDbArc
 50
303.0557311512
 51
236.9442688493
  0
ARC
  5
468
100
AcDbEntity
  8
RUNDUNGEN
100
AcDbCircle
 62
7
  6
CONTINUOUS
 10
1568.8688209364
 20
1253.590794346
 40
3.0
100
AcDbArc
 50
90.0
 51
138.1283826729
  0
ARC
  5
469
100
AcDbEntity
  8
RUNDUNGEN
100
AcDbCircle
 62
7
  6
CONTINUOUS
 10
1634.8688209364
 20
1253.590794346
 40
3.0
100
AcDbArc
 50
41.8716173271
 51
90.0
  0
ARC
  5
46A
100
AcDbEntity
  8
RUNDUNGEN
100
AcDbCircle
 62
7
  6
CONTINUOUS
 10
1544.0510049357
 20
1253.590794346
 40
3.0
100
AcDbArc
 50
41.8716173271
 51
90.0
  0
ARC
  5
46B
100
AcDbEntity
  8
0
100
AcDbCircle
 62
7
  6
CONTINUOUS
 10
1544.1046918626
 20
1598.7471210181
 40
120.0000000001
100
AcDbArc
 50
180.0
 51
225.4979663862
  0
ARC
  5
46C
100
AcDbEntity
  8
0
100
AcDbCircle
 62
7
  6
CONTINUOUS
 10
1370.1046918626
 20
2078.790794346
 40
54.0
100
AcDbArc
 50
359.9999996832
 51
90.0
  0
ARC
  5
46D
100
AcDbEntity
  8
0
100
AcDbCircle
 62
7
  6
CONTINUOUS
 10
233.4857082805
 20
351.208392367
 40
54.0
100
AcDbArc
 50
180.0
 51
270.0
  0
ARC
  5
46E
100
AcDbEntity
  8
0
100
AcDbCircle
 62
7
  6
CONTINUOUS
 10
175.9857082805
 20
428.008392367
 40
54.0
100
AcDbArc
 50
180.0
 51
270.0000003168
  0
ARC
  5
46F
100
AcDbEntity
  8
0
100
AcDbCircle
 62
7
  6
CONTINUOUS
 10
239.4857082805
 20
347.208392367
 40
50.0
100
AcDbArc
 50
270.0
 51
0.0000006321
  0
CIRCLE
  5
470
100
AcDbEntity
  8
BEZUGSACHSEN
100
AcDbCircle
 62
7
  6
CONTINUOUS
 10
299.7314596867
 20
196.2442632933
 40
38.0
  0
ARC
  5
471
100
AcDbEntity
  8
BEZUGSACHSEN
100
AcDbCircle
 62
7
  6
CONTINUOUS
 10
174.7314596867
 20
287.0620792939
 40
38.0
100
AcDbArc
 50
70.159135155
 51
24.848300244
  0
CIRCLE
  5
472
100
AcDbEntity
  8
RUNDUNGEN
100
AcDbCircle
 62
7
  6
CONTINUOUS
 10
299.7314596867
 20
196.2442632933
 40
36.0
  0
ARC
  5
473
100
AcDbEntity
  8
RUNDUNGEN
100
AcDbCircle
 62
7
  6
CONTINUOUS
 10
174.7314596867
 20
287.0620792939
 40
36.0
100
AcDbArc
 50
65.5808853325
 51
29.4489896773
  0
ARC
  5
474
100
AcDbEntity
  8
0
100
AcDbCircle
 62
7
  6
CONTINUOUS
 10
104.4857082805
 20
427.008392367
 40
7.0
100
AcDbArc
 50
180.0
 51
360.0
  0
ARC
  5
475
100
AcDbEntity
  8
0
100
AcDbCircle
 62
7
  6
CONTINUOUS
 10
175.9857082805
 20
440.008392367
 40
54.0
100
AcDbArc
 50
89.9999996832
 51
180.0
  0
ARC
  5
476
100
AcDbEntity
  8
0
100
AcDbCircle
 62
7
  6
CONTINUOUS
 10
233.4857082805
 20
516.8083923671
 40
54.0
100
AcDbArc
 50
90.0
 51
180.0
  0
ARC
  5
477
100
AcDbEntity
  8
0
100
AcDbCircle
 62
7
  6
CONTINUOUS
 10
239.4857082805
 20
520.808392367
 40
50.0
100
AcDbArc
 50
359.9999993679
 51
90.0
  0
ARC
  5
478
100
AcDbEntity
  8
BEZUGSACHSEN
100
AcDbCircle
 62
7
  6
CONTINUOUS
 10
174.7314596867
 20
580.9547054402
 40
38.0
100
AcDbArc
 50
335.151699756
 51
289.840864845
  0
CIRCLE
  5
479
100
AcDbEntity
  8
BEZUGSACHSEN
100
AcDbCircle
 62
7
  6
CONTINUOUS
 10
299.7314596867
 20
671.7725214408
 40
38.0
  0
ARC
  5
47A
100
AcDbEntity
  8
RUNDUNGEN
100
AcDbCircle
 62
7
  6
CONTINUOUS
 10
174.7314596867
 20
580.9547054402
 40
36.0
100
AcDbArc
 50
330.5510103227
 51
294.4191146675
  0
CIRCLE
  5
47B
100
AcDbEntity
  8
RUNDUNGEN
100
AcDbCircle
 62
7
  6
CONTINUOUS
 10
299.7314596867
 20
671.7725214408
 40
36.0
  0
ARC
  5
47C
100
AcDbEntity
  8
0
100
AcDbCircle
 62
7
  6
CONTINUOUS
 10
104.4857082805
 20
434.008392367
 40
7.831325
100
AcDbArc
 50
333.5915877045
 51
23.9366685214
  0
ARC
  5
47D
100
AcDbEntity
  8
0
100
AcDbCircle
 62
7
  6
CONTINUOUS
 10
104.4857082805
 20
434.008392367
 40
7.831325
100
AcDbArc
 50
153.596461337
 51
203.9845615101
  0
ARC
  5
47E
100
AcDbEntity
  8
0
100
AcDbCircle
 62
7
  6
CONTINUOUS
 10
104.4857082805
 20
441.0083923671
 40
7.0
100
AcDbArc
 50
0.0
 51
180.0
  0
ARC
  5
47F
100
AcDbEntity
  8
0
100
AcDbCircle
 62
7
  6
CONTINUOUS
 10
577.9857082805
 20
428.008392367
 40
54.0
100
AcDbArc
 50
269.9999996832
 51
360.0
  0
ARC
  5
480
100
AcDbEntity
  8
0
100
AcDbCircle
 62
7
  6
CONTINUOUS
 10
520.4857082805
 20
351.208392367
 40
54.0
100
AcDbArc
 50
270.0
 51
0.0000005577
  0
ARC
  5
481
100
AcDbEntity
  8
0
100
AcDbCircle
 62
7
  6
CONTINUOUS
 10
514.4857082805
 20
347.2083923671
 40
50.0
100
AcDbArc
 50
179.9999993679
 51
270.0
  0
ARC
  5
482
100
AcDbEntity
  8
BEZUGSACHSEN
100
AcDbCircle
 62
7
  6
CONTINUOUS
 10
579.2399568742
 20
287.0620792939
 40
38.0
100
AcDbArc
 50
155.1516997453
 51
109.8408648348
  0
CIRCLE
  5
483
100
AcDbEntity
  8
BEZUGSACHSEN
100
AcDbCircle
 62
7
  6
CONTINUOUS
 10
454.2399568742
 20
196.2442632933
 40
38.0
  0
CIRCLE
  5
484
100
AcDbEntity
  8
RUNDUNGEN
100
AcDbCircle
 62
7
  6
CONTINUOUS
 10
454.2399568742
 20
196.2442632933
 40
36.0
  0
ARC
  5
485
100
AcDbEntity
  8
RUNDUNGEN
100
AcDbCircle
 62
7
  6
CONTINUOUS
 10
579.2399568742
 20
287.0620792939
 40
36.0
100
AcDbArc
 50
150.5510103241
 51
114.4191146877
  0
CIRCLE
  5
486
100
AcDbEntity
  8
BEZUGSACHSEN
100
AcDbCircle
 62
7
  6
CONTINUOUS
 10
376.9857082805
 20
434.008392367
 40
325.0
  0
ARC
  5
487
100
AcDbEntity
  8
BEZUGSACHSEN
100
AcDbCircle
 62
7
  6
CONTINUOUS
 10
376.9857082805
 20
434.008392367
 40
173.0
100
AcDbArc
 50
229.0045778096
 51
310.9954221904
  0
ARC
  5
488
100
AcDbEntity
  8
BEZUGSACHSEN
100
AcDbCircle
 62
7
  6
CONTINUOUS
 10
376.9857082805
 20
434.008392367
 40
173.0
100
AcDbArc
 50
49.0045778096
 51
130.9954221904
  0
ARC
  5
489
100
AcDbEntity
  8
KONSTRUKTIONSELEMENTE
100
AcDbCircle
 62
7
  6
CONTINUOUS
 10
376.9857082805
 20
434.008392367
 40
172.5
100
AcDbArc
 50
229.0638205683
 51
310.9361794318
  0
ARC
  5
48A
100
AcDbEntity
  8
KONSTRUKTIONSELEMENTE
100
AcDbCircle
 62
7
  6
CONTINUOUS
 10
376.9857082805
 20
434.008392367
 40
172.5
100
AcDbArc
 50
49.0638205682
 51
130.936179431
  0
ARC
  5
48B
100
AcDbEntity
  8
0
100
AcDbCircle
 62
7
  6
CONTINUOUS
 10
577.9857082805
 20
440.008392367
 40
54.0
100
AcDbArc
 50
0.0
 51
90.0000003168
  0
ARC
  5
48C
100
AcDbEntity
  8
0
100
AcDbCircle
 62
7
  6
CONTINUOUS
 10
520.4857082805
 20
516.8083923671
 40
54.0
100
AcDbArc
 50
359.9999994423
 51
90.0
  0
ARC
  5
48D
100
AcDbEntity
  8
0
100
AcDbCircle
 62
7
  6
CONTINUOUS
 10
514.4857082805
 20
520.808392367
 40
50.0
100
AcDbArc
 50
90.0
 51
180.0000006321
  0
CIRCLE
  5
48E
100
AcDbEntity
  8
BEZUGSACHSEN
100
AcDbCircle
 62
7
  6
CONTINUOUS
 10
454.2399568742
 20
671.7725214408
 40
38.0
  0
ARC
  5
48F
100
AcDbEntity
  8
BEZUGSACHSEN
100
AcDbCircle
 62
7
  6
CONTINUOUS
 10
579.2399568742
 20
580.9547054402
 40
38.0
100
AcDbArc
 50
250.1591351652
 51
204.8483002547
  0
ARC
  5
490
100
AcDbEntity
  8
BEZUGSACHSEN
100
AcDbCircle
 62
7
  6
CONTINUOUS
 10
626.9857082805
 20
434.008392367
 40
38.0
100
AcDbArc
 50
281.8484886561
 51
78.1515113439
  0
ARC
  5
491
100
AcDbEntity
  8
RUNDUNGEN
100
AcDbCircle
 62
7
  6
CONTINUOUS
 10
626.9857082805
 20
434.008392367
 40
36.0
100
AcDbArc
 50
282.5170534252
 51
77.4829465748
  0
CIRCLE
  5
492
100
AcDbEntity
  8
RUNDUNGEN
100
AcDbCircle
 62
7
  6
CONTINUOUS
 10
454.2399568742
 20
671.7725214408
 40
36.0
  0
ARC
  5
493
100
AcDbEntity
  8
RUNDUNGEN
100
AcDbCircle
 62
7
  6
CONTINUOUS
 10
579.2399568742
 20
580.9547054402
 40
36.0
100
AcDbArc
 50
245.5808853123
 51
209.4489896759
  0
LINE
  5
494
100
AcDbEntity
  8
0
100
AcDbLine
 62
7
  6
CONTINUOUS
 10
112.1973859114
 20
1350.6052157202
 11
112.3170332805
 21
1350.590796846
  0
LINE
  5
495
100
AcDbEntity
  8
0
100
AcDbLine
 62
7
  6
CONTINUOUS
 10
112.3170332805
 20
1480.590791846
 11
111.6407173784
 21
1480.5126957172
  0
LINE
  5
496
100
AcDbEntity
  8
0
100
AcDbLine
 62
7
  6
CONTINUOUS
 10
97.3304860125
 20
1480.5127202685
 11
96.6543832805
 21
1480.590791846
  0
SPLINE
  5
497
100
AcDbEntity
  8
0
100
AcDbSpline
 62
7
  6
CONTINUOUS
 70
0
 71
3
 72
9
 73
5
 74
0
 42
0.0000001
 43
0.0000001
 44
0.0000000001
 40
0.0
 40
0.0
 40
0.0
 40
0.0
 40
0.4850891649
 40
1.0
 40
1.0
 40
1.0
 40
1.0
 10
634.7869107805
 20
1335.4834445001
 30
0.0
 10
634.78691078
 20
1340.0429642187
 30
0.0
 10
633.077517544
 20
1349.4754961331
 30
0.0
 10
628.9450559349
 20
1357.9944840487
 30
0.0
 10
626.5251440139
 20
1362.1858944459
 30
0.0
  0
SPLINE
  5
498
100
AcDbEntity
  8
0
100
AcDbSpline
 62
7
  6
CONTINUOUS
 70
0
 71
3
 72
9
 73
5
 74
0
 42
0.0000001
 43
0.0000001
 44
0.0000000001
 40
0.0
 40
0.0
 40
0.0
 40
0.0
 40
0.500093901
 40
1.0
 40
1.0
 40
1.0
 40
1.0
 10
626.5251440138
 20
1362.185894446
 30
0.0
 10
629.0299477746
 20
1370.8627891993
 30
0.0
 10
633.2071014725
 20
1388.4788505065
 30
0.0
 10
634.7869107805
 20
1406.5629874701
 30
0.0
 10
634.7869107806
 20
1415.590794346
 30
0.0
  0
SPLINE
  5
499
100
AcDbEntity
  8
0
100
AcDbSpline
 62
7
  6
CONTINUOUS
 70
0
 71
3
 72
9
 73
5
 74
0
 42
0.0000001
 43
0.0000001
 44
0.0000000001
 40
0.0
 40
0.0
 40
0.0
 40
0.0
 40
0.2567214088
 40
1.0
 40
1.0
 40
1.0
 40
1.0
 10
626.5251440139
 20
1308.7809945458
 30
0.0
 10
627.1589978874
 20
1309.8788616594
 30
0.0
 10
629.5429661209
 20
1314.201825578
 30
0.0
 10
631.5337392151
 20
1318.7576796696
 30
0.0
 10
632.6442823301
 20
1322.2559989262
 30
0.0
  0
SPLINE
  5
49A
100
AcDbEntity
  8
0
100
AcDbSpline
 62
7
  6
CONTINUOUS
 70
0
 71
3
 72
9
 73
5
 74
0
 42
0.0000001
 43
0.0000001
 44
0.0000000001
 40
0.0
 40
0.0
 40
0.0
 40
0.0
 40
0.2536114647
 40
1.0
 40
1.0
 40
1.0
 40
1.0
 10
633.0449266028
 20
1323.5792329703
 30
0.0
 10
633.326910202
 20
1324.5583558039
 30
0.0
 10
634.3226252375
 20
1328.4508981808
 30
0.0
 10
634.7869107808
 20
1332.4847252297
 30
0.0
 10
634.7869107805
 20
1335.4834445001
 30
0.0
  0
SPLINE
  5
49B
100
AcDbEntity
  8
0
100
AcDbSpline
 62
7
  6
CONTINUOUS
 70
0
 71
3
 72
9
 73
5
 74
0
 42
0.0000001
 43
0.0000001
 44
0.0000000001
 40
0.0
 40
0.0
 40
0.0
 40
0.0
 40
0.4999062107
 40
1.0
 40
1.0
 40
1.0
 40
1.0
 10
124.6664332804
 20
1415.590794346
 30
0.0
 10
124.6664332804
 20
1406.5629851243
 30
0.0
 10
126.2462155582
 20
1388.4788442415
 30
0.0
 10
130.423396755
 20
1370.8627875755
 30
0.0
 10
132.928200047
 20
1362.185894446
 30
0.0
  0
SPLINE
  5
49C
100
AcDbEntity
  8
0
100
AcDbSpline
 62
7
  6
CONTINUOUS
 70
0
 71
3
 72
9
 73
5
 74
0
 42
0.0000001
 43
0.0000001
 44
0.0000000001
 40
0.0
 40
0.0
 40
0.0
 40
0.0
 40
0.5149105478
 40
1.0
 40
1.0
 40
1.0
 40
1.0
 10
132.9282000471
 20
1362.1858944459
 30
0.0
 10
130.5082900986
 20
1357.9944874654
 30
0.0
 10
126.3758797677
 20
1349.4754831615
 30
0.0
 10
124.66643328
 20
1340.0429657373
 30
0.0
 10
124.6664332805
 20
1335.483444492
 30
0.0
  0
SPLINE
  5
49D
100
AcDbEntity
  8
0
100
AcDbSpline
 62
7
  6
CONTINUOUS
 70
0
 71
3
 72
9
 73
5
 74
0
 42
0.0000001
 43
0.0000001
 44
0.0000000001
 40
0.0
 40
0.0
 40
0.0
 40
0.0
 40
0.247854769
 40
1.0
 40
1.0
 40
1.0
 40
1.0
 10
124.6664332805
 20
1335.483444492
 30
0.0
 10
124.6664332805
 20
1334.4875818763
 30
0.0
 10
124.8149235073
 20
1330.4699200171
 30
0.0
 10
125.5721343088
 20
1326.483690083
 30
0.0
 10
126.4083667835
 20
1323.5796249292
 30
0.0
  0
SPLINE
  5
49E
100
AcDbEntity
  8
0
100
AcDbSpline
 62
7
  6
CONTINUOUS
 70
0
 71
3
 72
9
 73
5
 74
0
 42
0.0000001
 43
0.0000001
 44
0.0000000001
 40
0.0
 40
0.0
 40
0.0
 40
0.0
 40
0.2436995741
 40
1.0
 40
1.0
 40
1.0
 40
1.0
 10
126.8110071255
 20
1322.2499082473
 30
0.0
 10
127.175128571
 20
1321.103226301
 30
0.0
 10
128.8310162064
 20
1316.4489524465
 30
0.0
 10
131.0613327341
 20
1312.0145035829
 30
0.0
 10
132.9282000471
 20
1308.7809945458
 30
0.0
  0
SPLINE
  5
49F
100
AcDbEntity
  8
0
100
AcDbSpline
 62
7
  6
CONTINUOUS
 70
0
 71
3
 72
9
 73
5
 74
0
 42
0.0000001
 43
0.0000001
 44
0.0000000001
 40
0.0
 40
0.0
 40
0.0
 40
0.0
 40
0.247854769
 40
1.0
 40
1.0
 40
1.0
 40
1.0
 10
634.7869107805
 20
1495.6981441999
 30
0.0
 10
634.7869107804
 20
1496.6940068156
 30
0.0
 10
634.6384205536
 20
1500.7116686748
 30
0.0
 10
633.8812097521
 20
1504.6978986089
 30
0.0
 10
633.0449772774
 20
1507.6019637628
 30
0.0
  0
SPLINE
  5
4A0
100
AcDbEntity
  8
0
100
AcDbSpline
 62
7
  6
CONTINUOUS
 70
0
 71
3
 72
9
 73
5
 74
0
 42
0.0000001
 43
0.0000001
 44
0.0000000001
 40
0.0
 40
0.0
 40
0.0
 40
0.0
 40
0.2436995741
 40
1.0
 40
1.0
 40
1.0
 40
1.0
 10
632.6423369354
 20
1508.9316804447
 30
0.0
 10
632.2782154898
 20
1510.078362391
 30
0.0
 10
630.6223278545
 20
1514.7326362454
 30
0.0
 10
628.3920113268
 20
1519.167085109
 30
0.0
 10
626.5251440139
 20
1522.400594146
 30
0.0
  0
SPLINE
  5
4A1
100
AcDbEntity
  8
0
100
AcDbSpline
 62
7
  6
CONTINUOUS
 70
0
 71
3
 72
9
 73
5
 74
0
 42
0.0000001
 43
0.0000001
 44
0.0000000001
 40
0.0
 40
0.0
 40
0.0
 40
0.0
 40
0.2567214088
 40
1.0
 40
1.0
 40
1.0
 40
1.0
 10
132.9282000471
 20
1522.4005941461
 30
0.0
 10
132.2943461735
 20
1521.3027270325
 30
0.0
 10
129.91037794
 20
1516.9797631138
 30
0.0
 10
127.9196048457
 20
1512.4239090222
 30
0.0
 10
126.8090617307
 20
1508.9255897654
 30
0.0
  0
SPLINE
  5
4A2
100
AcDbEntity
  8
0
100
AcDbSpline
 62
7
  6
CONTINUOUS
 70
0
 71
3
 72
9
 73
5
 74
0
 42
0.0000001
 43
0.0000001
 44
0.0000000001
 40
0.0
 40
0.0
 40
0.0
 40
0.0
 40
0.2536114647
 40
1.0
 40
1.0
 40
1.0
 40
1.0
 10
126.4084174581
 20
1507.6023557217
 30
0.0
 10
126.1264338588
 20
1506.6232328881
 30
0.0
 10
125.1307188234
 20
1502.7306905112
 30
0.0
 10
124.6664332801
 20
1498.6968634622
 30
0.0
 10
124.6664332805
 20
1495.6981441918
 30
0.0
  0
SPLINE
  5
4A3
100
AcDbEntity
  8
0
100
AcDbSpline
 62
7
  6
CONTINUOUS
 70
0
 71
3
 72
9
 73
5
 74
0
 42
0.0000001
 43
0.0000001
 44
0.0000000001
 40
0.0
 40
0.0
 40
0.0
 40
0.0
 40
0.4850891649
 40
1.0
 40
1.0
 40
1.0
 40
1.0
 10
124.6664332805
 20
1495.6981441918
 30
0.0
 10
124.666433281
 20
1491.1386244733
 30
0.0
 10
126.3758265169
 20
1481.7060925588
 30
0.0
 10
130.508288126
 20
1473.1871046432
 30
0.0
 10
132.928200047
 20
1468.995694246
 30
0.0
  0
SPLINE
  5
4A4
100
AcDbEntity
  8
0
100
AcDbSpline
 62
7
  6
CONTINUOUS
 70
0
 71
3
 72
9
 73
5
 74
0
 42
0.0000001
 43
0.0000001
 44
0.0000000001
 40
0.0
 40
0.0
 40
0.0
 40
0.0
 40
0.500093901
 40
1.0
 40
1.0
 40
1.0
 40
1.0
 10
132.9282000471
 20
1468.995694246
 30
0.0
 10
130.4233962863
 20
1460.3187994927
 30
0.0
 10
126.2462425884
 20
1442.7027381854
 30
0.0
 10
124.6664332804
 20
1424.6186012219
 30
0.0
 10
124.6664332804
 20
1415.590794346
 30
0.0
  0
SPLINE
  5
4A5
100
AcDbEntity
  8
0
100
AcDbSpline
 62
7
  6
CONTINUOUS
 70
0
 71
3
 72
9
 73
5
 74
0
 42
0.0000001
 43
0.0000001
 44
0.0000000001
 40
0.0
 40
0.0
 40
0.0
 40
0.0
 40
0.1954187758
 40
1.0
 40
1.0
 40
1.0
 40
1.0
 10
109.1381666989
 20
1480.2475607578
 30
0.0
 10
108.8374581973
 20
1480.2038869954
 30
0.0
 10
107.294356539
 20
1480.0108730787
 30
0.0
 10
105.7367803026
 20
1479.9370314047
 30
0.0
 10
104.48570895
 20
1479.9370314047
 30
0.0
  0
SPLINE
  5
4A6
100
AcDbEntity
  8
0
100
AcDbSpline
 62
7
  6
CONTINUOUS
 70
0
 71
3
 72
9
 73
5
 74
0
 42
0.0000001
 43
0.0000001
 44
0.0000000001
 40
0.0
 40
0.0
 40
0.0
 40
0.0
 40
0.291862137
 40
1.0
 40
1.0
 40
1.0
 40
1.0
 10
104.48570895
 20
1479.9370314047
 30
0.0
 10
104.0318627515
 20
1479.9370314047
 30
0.0
 10
102.4772166443
 20
1479.9677501508
 30
0.0
 10
100.9229725484
 20
1480.0892935673
 30
0.0
 10
99.8332498621
 20
1480.2475607578
 30
0.0
  0
SPLINE
  5
4A7
100
AcDbEntity
  8
0
100
AcDbSpline
 62
7
  6
CONTINUOUS
 70
0
 71
3
 72
9
 73
5
 74
0
 42
0.0000001
 43
0.0000001
 44
0.0000000001
 40
0.0
 40
0.0
 40
0.0
 40
0.0
 40
0.4999062107
 40
1.0
 40
1.0
 40
1.0
 40
1.0
 10
634.7869107806
 20
1415.590794346
 30
0.0
 10
634.7869107805
 20
1424.6186035676
 30
0.0
 10
633.2071285027
 20
1442.7027444505
 30
0.0
 10
629.0299473059
 20
1460.3188011165
 30
0.0
 10
626.5251440139
 20
1468.995694246
 30
0.0
  0
SPLINE
  5
4A8
100
AcDbEntity
  8
0
100
AcDbSpline
 62
7
  6
CONTINUOUS
 70
0
 71
3
 72
9
 73
5
 74
0
 42
0.0000001
 43
0.0000001
 44
0.0000000001
 40
0.0
 40
0.0
 40
0.0
 40
0.0
 40
0.5149105478
 40
1.0
 40
1.0
 40
1.0
 40
1.0
 10
626.5251440138
 20
1468.9956942459
 30
0.0
 10
628.9450539623
 20
1473.1871012264
 30
0.0
 10
633.0774642933
 20
1481.7061055304
 30
0.0
 10
634.7869107809
 20
1491.1386229546
 30
0.0
 10
634.7869107805
 20
1495.6981441999
 30
0.0
  0
SPLINE
  5
4A9
100
AcDbEntity
  8
0
100
AcDbSpline
 62
7
  6
CONTINUOUS
 70
0
 71
3
 72
9
 73
5
 74
0
 42
0.0000001
 43
0.0000001
 44
0.0000000001
 40
0.0
 40
0.0
 40
0.0
 40
0.0
 40
0.5018610628
 40
1.0
 40
1.0
 40
1.0
 40
1.0
 10
132.928200047
 20
526.508392367
 30
0.0
 10
130.4345493771
 20
519.027440357
 30
0.0
 10
126.2610687134
 20
503.8262651727
 30
0.0
 10
124.66643328
 20
488.0855233507
 30
0.0
 10
124.6664332805
 20
480.2583923602
 30
0.0
  0
SPLINE
  5
4AA
100
AcDbEntity
  8
0
100
AcDbSpline
 62
7
  6
CONTINUOUS
 70
0
 71
3
 72
9
 73
5
 74
0
 42
0.0000001
 43
0.0000001
 44
0.0000000001
 40
0.0
 40
0.0
 40
0.0
 40
0.0
 40
0.2509598049
 40
1.0
 40
1.0
 40
1.0
 40
1.0
 10
631.070886797
 20
449.8589885735
 30
0.0
 10
631.6606658695
 20
452.3553270876
 30
0.0
 10
633.7738051055
 20
462.3550645201
 30
0.0
 10
634.78691074
 20
472.6024448606
 30
0.0
 10
634.7869108043
 20
480.2583914881
 30
0.0
  0
SPLINE
  5
4AB
100
AcDbEntity
  8
0
100
AcDbSpline
 62
7
  6
CONTINUOUS
 70
0
 71
3
 72
8
 73
4
 74
0
 42
0.0000001
 43
0.0000001
 44
0.0000000001
 40
0.0
 40
0.0
 40
0.0
 40
0.0
 40
1.0
 40
1.0
 40
1.0
 40
1.0
 10
124.6664332805
 20
480.2583923602
 30
0.0
 10
124.6664332808
 20
473.8043367825
 30
0.0
 10
125.1992740085
 20
467.3333597091
 30
0.0
 10
126.1960455141
 20
460.9567399175
 30
0.0
  0
SPLINE
  5
4AC
100
AcDbEntity
  8
0
100
AcDbSpline
 62
7
  6
CONTINUOUS
 70
0
 71
3
 72
8
 73
4
 74
0
 42
0.0000001
 43
0.0000001
 44
0.0000000001
 40
0.0
 40
0.0
 40
0.0
 40
0.0
 40
1.0
 40
1.0
 40
1.0
 40
1.0
 10
126.1959041786
 20
407.0596983755
 30
0.0
 10
125.1990571908
 20
400.6832106633
 30
0.0
 10
124.6664332801
 20
394.212329101
 30
0.0
 10
124.6664332805
 20
387.7583923597
 30
0.0
  0
SPLINE
  5
4AD
100
AcDbEntity
  8
0
100
AcDbSpline
 62
7
  6
CONTINUOUS
 70
0
 71
3
 72
9
 73
5
 74
0
 42
0.0000001
 43
0.0000001
 44
0.0000000001
 40
0.0
 40
0.0
 40
0.0
 40
0.0
 40
0.4981388346
 40
1.0
 40
1.0
 40
1.0
 40
1.0
 10
124.6664332805
 20
387.7583923597
 30
0.0
 10
124.6664332809
 20
379.9312622199
 30
0.0
 10
126.2610128222
 20
364.1905112882
 30
0.0
 10
130.4345486242
 20
348.9893466356
 30
0.0
 10
132.928200047
 20
341.508392367
 30
0.0
  0
SPLINE
  5
4AE
100
AcDbEntity
  8
0
100
AcDbSpline
 62
7
  6
CONTINUOUS
 70
0
 71
3
 72
9
 73
5
 74
0
 42
0.0000001
 43
0.0000001
 44
0.0000000001
 40
0.0
 40
0.0
 40
0.0
 40
0.0
 40
0.5018610628
 40
1.0
 40
1.0
 40
1.0
 40
1.0
 10
626.5251440138
 20
341.5083923671
 30
0.0
 10
629.0187946838
 20
348.989344377
 30
0.0
 10
633.1922753475
 20
364.1905195613
 30
0.0
 10
634.7869107809
 20
379.9312613834
 30
0.0
 10
634.7869107805
 20
387.7583923738
 30
0.0
  0
SPLINE
  5
4AF
100
AcDbEntity
  8
0
100
AcDbSpline
 62
7
  6
CONTINUOUS
 70
0
 71
3
 72
9
 73
5
 74
0
 42
0.0000001
 43
0.0000001
 44
0.0000000001
 40
0.0
 40
0.0
 40
0.0
 40
0.0
 40
0.4981388346
 40
1.0
 40
1.0
 40
1.0
 40
1.0
 10
634.7869108043
 20
480.2583914881
 30
0.0
 10
634.7869108531
 20
488.0855217751
 30
0.0
 10
633.1923313412
 20
503.8262730124
 30
0.0
 10
629.0187954835
 20
519.0274379582
 30
0.0
 10
626.5251440139
 20
526.5083923671
 30
0.0
  0
SPLINE
  5
4B0
100
AcDbEntity
  8
0
100
AcDbSpline
 62
7
  6
CONTINUOUS
 70
0
 71
3
 72
9
 73
5
 74
0
 42
0.0000001
 43
0.0000001
 44
0.0000000001
 40
0.0
 40
0.0
 40
0.0
 40
0.0
 40
0.7490404921
 40
1.0
 40
1.0
 40
1.0
 40
1.0
 10
634.7869107805
 20
387.7583923738
 30
0.0
 10
634.78691078
 20
395.4144368254
 30
0.0
 10
633.77357583
 20
405.6619049575
 30
0.0
 10
631.6607048902
 20
415.6618252272
 30
0.0
 10
631.0709503929
 20
418.1581990608
 30
0.0
  0
ENDSEC
  0
SECTION
  2
OBJECTS
  0
DICTIONARY
  5
C
100
AcDbDictionary
280
0
281
1
  3
ACAD_GROUP
350
D
  3
ACAD_MLINESTYLE
350
17
  3
ACAD_LAYOUT
350
1A
  3
ACAD_PLOTSETTINGS
350
19
  3
ACAD_PLOTSTYLENAME
350
E
  0
DICTIONARY
  5
D
102
{ACAD_REACTORS
330
C
102
}
100
AcDbDictionary
280
0
281
1
  0
ACDBDICTIONARYWDFLT
  5
E
102
{ACAD_REACTORS
330
C
102
}
100
AcDbDictionary
281
1
  3
Normal
350
F
100
AcDbDictionaryWithDefault
340
F
  0
DICTIONARY
  5
17
102
{ACAD_REACTORS
330
C
102
}
100
AcDbDictionary
280
0
281
1
  3
Standard
350
18
  0
DICTIONARY
  5
19
102
{ACAD_REACTORS
330
C
102
}
100
AcDbDictionary
281
1
  0
DICTIONARY
  5
1A
102
{ACAD_REACTORS
330
C
102
}
100
AcDbDictionary
281
1
  3
Model
350
4B1
  3
Layout1
350
4B2
  0
ACDBPLACEHOLDER
  5
F
102
{ACAD_REACTORS
330
E
102
}
  0
MLINESTYLE
  5
18
102
{ACAD_REACTORS
330
17
102
}
100
AcDbMlineStyle
  2
STANDARD
 70
0
  3

 62
256
 51
90.0
 52
90.0
 71
2
 49
0.5
 62
256
  6
BYLAYER
 49
-0.5
 62
256
  6
BYLAYER
  0
LAYOUT
  5
4B1
102
{ACAD_REACTORS
330
1A
102
}
100
AcDbPlotSettings
  1

  2
none_device
  4
ISO_A0_(1189.00_x_841.00_MM)
  6

 40
0.0
 41
0.0
 42
0.0
 43
0.0
 44
1189.0
 45
841.0
 46
0.0
 47
0.0
 48
0.0
 49
0.0
140
0.0
141
0.0
142
1.0
143
1.0
 70
1024
 72
1
 73
0
 74
0
  7

 75
0
147
1.0
148
0.0
149
0.0
100
AcDbLayout
  1
Model
 70
0
 71
0
 10
0.0
 20
0.0
 11
1189.0
 21
841.0
 12
0.0
 22
0.0
 32
0.0
 14
0.0
 24
0.0
 34
0.0
 15
0.0
 25
0.0
 35
0.0
146
0.0
 13
0.0
 23
0.0
 33
0.0
 16
1.0
 26
0.0
 36
0.0
 17
0.0
 27
1.0
 37
0.0
 76
0
330
210
345
0
346
0
  0
LAYOUT
  5
4B2
102
{ACAD_REACTORS
330
1A
102
}
100
AcDbPlotSettings
  1

  2
none_device
  4
ISO_A0_(1189.00_x_841.00_MM)
  6

 40
0.0
 41
0.0
 42
0.0
 43
0.0
 44
1189.0
 45
841.0
 46
0.0
 47
0.0
 48
0.0
 49
0.0
140
0.0
141
0.0
142
1.0
143
1.0
 70
0
 72
1
 73
0
 74
0
  7

 75
0
147
1.0
148
0.0
149
0.0
100
AcDbLayout
  1
Layout1
 70
0
 71
1
 10
0.0
 20
0.0
 11
1189.0
 21
841.0
 12
0.0
 22
0.0
 32
0.0
 14
0.0
 24
0.0
 34
0.0
 15
0.0
 25
0.0
 35
0.0
146
0.0
 13
0.0
 23
0.0
 33
0.0
 16
1.0
 26
0.0
 36
0.0
 17
0.0
 27
1.0
 37
0.0
 76
0
330
211
345
0
346
0
  0
ENDSEC
  0
EOF
