999
DXF file: WBPG-120t_7900917_M33933-P-3.dxf
999
Pro/ENGINEER 2011490 by Parametric Technology Corporation
  0
SECTION
  2
HEADER
  9
$ACADVER
  1
AC1015
  9
$DWGCODEPAGE
  3
ANSI_1252
  9
$EXTMAX
 10
1189.0
 20
841.0
 30
0.0
  9
$EXTMIN
 10
0.0
 20
0.0
 30
0.0
  9
$LIMMIN
 10
0.0
 20
0.0
  9
$LIMMAX
 10
1189.0
 20
841.0
  9
$VIEWCTR
 10
594.5
 20
420.5
  9
$VIEWSIZE
 40
841.0
  9
$CLAYER
  8
0
  9
$LTSCALE
 40
65.395
  9
$CELTYPE
  6
BYLAYER
  9
$DIMSCALE
 40
1.0
  9
$DIMASZ
 40
3.5
  9
$DIMEXO
 40
7.43125
  9
$DIMDLI
 40
45.182
  9
$DIMEXE
 40
21.402
  9
$DIMCEN
 40
10.701
  9
$DIMLFAC
 40
1.0
  9
$DIMBLK
  1
_FILLED
  9
$DIMTXT
 40
3.5
  9
$DIMTOL
 70
1
  9
$DIMLIM
 70
0
  9
$DIMTFAC
 40
1.0
  9
$DIMTP
 40
0.005
  9
$DIMTM
 40
0.005
  9
$PDMODE
 70
3
  9
$PDSIZE
 40
0.3125
  9
$HANDSEED
  5
951
  9
$TILEMODE
 70
1
  9
$MEASUREMENT
 70
1
  9
$INSUNITS
 70
4
  0
ENDSEC
  0
SECTION
  2
CLASSES
  0
CLASS
  1
ACDBDICTIONARYWDFLT
  2
AcDbDictionaryWithDefault
  3
AutoCAD 2000
 90
0
280
0
281
0
  0
CLASS
  1
ACDBPLACEHOLDER
  2
AcDbPlaceHolder
  3
AutoCAD 2000
 90
0
280
0
281
0
  0
CLASS
  1
LAYOUT
  2
AcDbLayout
  3
AutoCAD 2000
 90
0
280
0
281
0
  0
ENDSEC
  0
SECTION
  2
TABLES
  0
TABLE
  2
VPORT
  5
8
100
AcDbSymbolTable
 70
2
  0
VPORT
  5
1F4
100
AcDbSymbolTableRecord
100
AcDbViewportTableRecord
  2
*ACTIVE
 70
0
 10
0.0
 20
0.0
 11
1.0
 21
1.0
 12
594.5
 22
420.5
 13
0.0
 23
0.0
 14
1.0
 24
1.0
 15
0.0
 25
0.0
 16
0.0
 26
0.0
 36
1.0
 17
0.0
 27
0.0
 37
0.0
 40
841.0
 41
1.4137931034
 42
50.0
 43
0.0
 44
0.0
 50
0.0
 51
0.0
 71
0
 72
100
 73
1
 74
1
 75
0
 76
0
 77
0
 78
0
  0
ENDTAB
  0
TABLE
  2
LTYPE
  5
5
100
AcDbSymbolTable
 70
6
  0
LTYPE
  5
14
100
AcDbSymbolTableRecord
100
AcDbLinetypeTableRecord
  2
BYBLOCK
 70
0
  3

 72
65
 73
0
 40
0.0
  0
LTYPE
  5
15
100
AcDbSymbolTableRecord
100
AcDbLinetypeTableRecord
  2
BYLAYER
 70
0
  3

 72
65
 73
0
 40
0.0
  0
LTYPE
  5
16
100
AcDbSymbolTableRecord
100
AcDbLinetypeTableRecord
  2
CONTINUOUS
 70
64
  3
Solid line
 72
65
 73
0
 40
0.0
  0
LTYPE
  5
1F5
100
AcDbSymbolTableRecord
100
AcDbLinetypeTableRecord
  2
CENTER
 70
64
  3
____ _ ____ _ ____ _ ____ _ ____ _ ____ _ ____
 72
65
 73
4
 40
0.6
 49
0.375
 74
0
 49
-0.075
 74
0
 49
0.075
 74
0
 49
-0.075
 74
0
  0
LTYPE
  5
1F6
100
AcDbSymbolTableRecord
100
AcDbLinetypeTableRecord
  2
HIDDEN
 70
64
  3
- - - - - - - - - - - - - - - - - - - -
 72
65
 73
2
 40
0.2
 49
0.1
 74
0
 49
-0.1
 74
0
  0
LTYPE
  5
1F7
100
AcDbSymbolTableRecord
100
AcDbLinetypeTableRecord
  2
PHANTOM
 70
64
  3
_____ _ _ _____ _ _ _____ _ _ _____
 72
65
 73
6
 40
0.8
 49
0.45
 74
0
 49
-0.05
 74
0
 49
0.1
 74
0
 49
-0.05
 74
0
 49
0.1
 74
0
 49
-0.05
 74
0
  0
LTYPE
  5
1F8
100
AcDbSymbolTableRecord
100
AcDbLinetypeTableRecord
  2
DOT
 70
64
  3
. . . . . . . . . . . . . . . . . . . .
 72
65
 73
2
 40
0.2
 49
0.1
 74
0
 49
-0.1
 74
0
  0
LTYPE
  5
1F9
100
AcDbSymbolTableRecord
100
AcDbLinetypeTableRecord
  2
DASHED
 70
64
  3
- - - - - - - - - - - - - - - - - - - -
 72
65
 73
2
 40
0.2
 49
0.1
 74
0
 49
-0.1
 74
0
  0
ENDTAB
  0
TABLE
  2
LAYER
  5
2
100
AcDbSymbolTable
 70
36
  0
LAYER
  5
10
100
AcDbSymbolTableRecord
100
AcDbLayerTableRecord
  2
0
 70
0
 62
7
  6
CONTINUOUS
370
-3
390
F
  0
LAYER
  5
1FA
100
AcDbSymbolTableRecord
100
AcDbLayerTableRecord
  2
DEFAULT_1
 70
0
 62
7
  6
CENTER
370
-3
390
F
  0
LAYER
  5
1FB
100
AcDbSymbolTableRecord
100
AcDbLayerTableRecord
  2
DEFAULT_2
 70
0
 62
8
  6
HIDDEN
370
-3
390
F
  0
LAYER
  5
1FC
100
AcDbSymbolTableRecord
100
AcDbLayerTableRecord
  2
DEFAULT_3
 70
0
 62
7
  6
PHANTOM
370
-3
390
F
  0
LAYER
  5
1FD
100
AcDbSymbolTableRecord
100
AcDbLayerTableRecord
  2
BEZUGSACHSEN
 70
0
 62
7
  6
CONTINUOUS
370
-3
390
F
  0
LAYER
  5
1FE
100
AcDbSymbolTableRecord
100
AcDbLayerTableRecord
  2
BEZUGSEBENEN
 70
0
 62
7
  6
CONTINUOUS
370
-3
390
F
  0
LAYER
  5
1FF
100
AcDbSymbolTableRecord
100
AcDbLayerTableRecord
  2
BG_STARTBEZUEGE
 70
0
 62
7
  6
CONTINUOUS
370
-3
390
F
  0
LAYER
  5
200
100
AcDbSymbolTableRecord
100
AcDbLayerTableRecord
  2
FASEN
 70
0
 62
7
  6
CONTINUOUS
370
-3
390
F
  0
LAYER
  5
201
100
AcDbSymbolTableRecord
100
AcDbLayerTableRecord
  2
GEWINDE
 70
0
 62
7
  6
CONTINUOUS
370
-3
390
F
  0
LAYER
  5
202
100
AcDbSymbolTableRecord
100
AcDbLayerTableRecord
  2
HILFEN
 70
0
 62
7
  6
CONTINUOUS
370
-3
390
F
  0
LAYER
  5
203
100
AcDbSymbolTableRecord
100
AcDbLayerTableRecord
  2
KONSTRUKTIONSELEMENTE
 70
0
 62
7
  6
CONTINUOUS
370
-3
390
F
  0
LAYER
  5
204
100
AcDbSymbolTableRecord
100
AcDbLayerTableRecord
  2
KURVEN
 70
0
 62
7
  6
CONTINUOUS
370
-3
390
F
  0
LAYER
  5
205
100
AcDbSymbolTableRecord
100
AcDbLayerTableRecord
  2
NORM
 70
0
 62
7
  6
CONTINUOUS
370
-3
390
F
  0
LAYER
  5
206
100
AcDbSymbolTableRecord
100
AcDbLayerTableRecord
  2
PLATZIERUNG
 70
0
 62
7
  6
CONTINUOUS
370
-3
390
F
  0
LAYER
  5
207
100
AcDbSymbolTableRecord
100
AcDbLayerTableRecord
  2
PLAZIERUNG
 70
0
 62
7
  6
CONTINUOUS
370
-3
390
F
  0
LAYER
  5
208
100
AcDbSymbolTableRecord
100
AcDbLayerTableRecord
  2
RUNDUNGEN
 70
0
 62
7
  6
CONTINUOUS
370
-3
390
F
  0
LAYER
  5
209
100
AcDbSymbolTableRecord
100
AcDbLayerTableRecord
  2
TEIL_STARTBEZUEGE
 70
0
 62
7
  6
CONTINUOUS
370
-3
390
F
  0
LAYER
  5
20A
100
AcDbSymbolTableRecord
100
AcDbLayerTableRecord
  2
T_STARTBEZUEGE
 70
0
 62
7
  6
CONTINUOUS
370
-3
390
F
  0
LAYER
  5
20B
100
AcDbSymbolTableRecord
100
AcDbLayerTableRecord
  2
ZEICHNUNGSBEMASSUNGEN
 70
0
 62
7
  6
CONTINUOUS
370
-3
390
F
  0
ENDTAB
  0
TABLE
  2
STYLE
  5
3
100
AcDbSymbolTable
 70
1
  0
STYLE
  5
11
100
AcDbSymbolTableRecord
100
AcDbTextStyleTableRecord
  2
STANDARD
 70
0
 40
0.0
 41
0.7
 50
0.0
 71
0
 42
0.2
  3
txt
  4

  0
STYLE
  5
20C
100
AcDbSymbolTableRecord
100
AcDbTextStyleTableRecord
  2
TEXTSTYLE_1
 70
0
 40
0.0
 41
0.8
 50
0.0
 71
0
 42
0.2
  3
gdt
  4

  0
ENDTAB
  0
TABLE
  2
VIEW
  5
6
100
AcDbSymbolTable
 70
0
  0
ENDTAB
  0
TABLE
  2
UCS
  5
7
100
AcDbSymbolTable
 70
0
  0
ENDTAB
  0
TABLE
  2
APPID
  5
9
100
AcDbSymbolTable
 70
1
  0
APPID
  5
20D
100
AcDbSymbolTableRecord
100
AcDbRegAppTableRecord
  2
ACAD
 70
0
  0
ENDTAB
  0
TABLE
  2
BLOCK_RECORD
  5
1
100
AcDbSymbolTable
 70
0
  0
BLOCK_RECORD
  5
20E
100
AcDbSymbolTableRecord
100
AcDbBlockTableRecord
  2
*Model_Space
  0
BLOCK_RECORD
  5
20F
100
AcDbSymbolTableRecord
100
AcDbBlockTableRecord
  2
*Paper_Space
  0
ENDTAB
  0
TABLE
  2
DIMSTYLE
  5
A
100
AcDbSymbolTable
 70
1
100
AcDbDimStyleTable
 71
0
  0
DIMSTYLE
105
210
100
AcDbSymbolTableRecord
100
AcDbDimStyleTableRecord
  2
STANDARD
 70
0
  3

  4

 40
1.0
 41
3.5
 42
0.0625
 43
0.38
 44
0.18
 45
0.0
 46
0.0
 47
0.005
 48
0.005
140
3.5
141
0.09
142
0.0
143
25.4
144
1.0
145
0.0
146
1.0
147
0.09
 71
1.0
 72
0.0
 73
0
 74
0
 75
0
 76
0
 77
1
 78
8
170
0
171
2
172
0
173
0
174
0
175
0
176
0
177
0
178
5
270
2
271
3
272
3
273
2
274
2
275
0
280
0
281
0
282
0
283
1
284
8
285
0
286
0
287
3
288
0
340
11
  0
ENDTAB
  0
ENDSEC
  0
SECTION
  2
BLOCKS
  0
BLOCK
  5
20
100
AcDbEntity
  8
0
100
AcDbBlockBegin
  2
*Model_Space
 70
0
 10
0.0
 20
0.0
 30
0.0
  3
*Model_Space
  1

  0
ENDBLK
  5
21
100
AcDbEntity
  8
0
100
AcDbBlockEnd
  0
BLOCK
  5
1C
100
AcDbEntity
  8
0
100
AcDbBlockBegin
  2
*Paper_Space
 70
0
 10
0.0
 20
0.0
 30
0.0
  3
*Paper_Space
  1

  0
ENDBLK
  5
1D
100
AcDbEntity
  8
0
100
AcDbBlockEnd
  0
ENDSEC
  0
SECTION
  2
ENTITIES
  0
MTEXT
  5
211
100
AcDbEntity
  8
0
100
AcDbMText
 62
5
  6
CONTINUOUS
  7
STANDARD
 71
2
 72
1
 10
403.5870490172
 20
1106.8295104095
 30
0.0
 11
1.0
 21
0.0
 31
0.0
 44
0.9
  1
RUD\PWBPG 120t
 40
15.0
 41
108.2142857143
  0
MTEXT
  5
212
100
AcDbEntity
  8
0
100
AcDbMText
 62
5
  6
CONTINUOUS
  7
STANDARD
 71
2
 72
1
 10
1233.2975461112
 20
1113.4002375521
 30
0.0
 11
1.0
 21
0.0
 31
0.0
 44
0.9
  1
RUD\PWBPG 120t
 40
15.0
 41
108.2142857143
  0
LINE
  5
213
100
AcDbEntity
  8
0
100
AcDbLine
 62
7
  6
CONTINUOUS
 10
0.0
 20
0.0
 11
0.0
 21
841.0
  0
LINE
  5
214
100
AcDbEntity
  8
0
100
AcDbLine
 62
7
  6
CONTINUOUS
 10
0.0
 20
0.0
 11
1189.0
 21
0.0
  0
LINE
  5
215
100
AcDbEntity
  8
0
100
AcDbLine
 62
7
  6
CONTINUOUS
 10
0.0
 20
841.0
 11
1189.0
 21
841.0
  0
LINE
  5
216
100
AcDbEntity
  8
0
100
AcDbLine
 62
7
  6
CONTINUOUS
 10
1189.0
 20
0.0
 11
1189.0
 21
841.0
  0
LINE
  5
217
100
AcDbEntity
  8
BEZUGSACHSEN
100
AcDbLine
 62
7
  6
CONTINUOUS
 10
156.3820073205
 20
965.9451794024
 11
161.3820073205
 21
960.9451794024
  0
LINE
  5
218
100
AcDbEntity
  8
BEZUGSACHSEN
100
AcDbLine
 62
7
  6
CONTINUOUS
 10
161.3820073205
 20
960.9451794024
 11
199.3820073205
 21
960.9451794024
  0
LINE
  5
219
100
AcDbEntity
  8
BEZUGSACHSEN
100
AcDbLine
 62
7
  6
CONTINUOUS
 10
272.6320073205
 20
960.9451794024
 11
310.6320073205
 21
960.9451794024
  0
LINE
  5
21A
100
AcDbEntity
  8
BEZUGSACHSEN
100
AcDbLine
 62
7
  6
CONTINUOUS
 10
495.1320073205
 20
960.9451794024
 11
533.1320073205
 21
960.9451794024
  0
LINE
  5
21B
100
AcDbEntity
  8
BEZUGSACHSEN
100
AcDbLine
 62
7
  6
CONTINUOUS
 10
606.3820073205
 20
960.9451794024
 11
644.3820073205
 21
960.9451794024
  0
LINE
  5
21C
100
AcDbEntity
  8
BEZUGSACHSEN
100
AcDbLine
 62
7
  6
CONTINUOUS
 10
156.3820073205
 20
965.9451794024
 11
204.3820073205
 21
965.9451794024
  0
LINE
  5
21D
100
AcDbEntity
  8
BEZUGSACHSEN
100
AcDbLine
 62
7
  6
CONTINUOUS
 10
267.6320073205
 20
965.9451794024
 11
315.6320073205
 21
965.9451794024
  0
LINE
  5
21E
100
AcDbEntity
  8
BEZUGSACHSEN
100
AcDbLine
 62
7
  6
CONTINUOUS
 10
490.1320073205
 20
965.9451794024
 11
538.1320073205
 21
965.9451794024
  0
LINE
  5
21F
100
AcDbEntity
  8
BEZUGSACHSEN
100
AcDbLine
 62
7
  6
CONTINUOUS
 10
601.3820073205
 20
965.9451794024
 11
649.3820073205
 21
965.9451794024
  0
LINE
  5
220
100
AcDbEntity
  8
BEZUGSACHSEN
100
AcDbLine
 62
7
  6
CONTINUOUS
 10
267.6320073205
 20
965.9451794024
 11
272.6320073205
 21
960.9451794024
  0
LINE
  5
221
100
AcDbEntity
  8
0
100
AcDbLine
 62
7
  6
CONTINUOUS
 10
117.3820073205
 20
1035.9451794024
 11
688.3820073205
 21
1035.9451794024
  0
LINE
  5
222
100
AcDbEntity
  8
0
100
AcDbLine
 62
7
  6
CONTINUOUS
 10
117.3820073205
 20
1035.9451794024
 11
117.3820073205
 21
1145.9451794024
  0
LINE
  5
223
100
AcDbEntity
  8
BEZUGSACHSEN
100
AcDbLine
 62
7
  6
CONTINUOUS
 10
137.0807371313
 20
1145.9451794024
 11
137.0807371313
 21
1147.5958144971
  0
LINE
  5
224
100
AcDbEntity
  8
BEZUGSACHSEN
100
AcDbLine
 62
7
  6
CONTINUOUS
 10
223.6832775098
 20
1147.5958144971
 11
217.8820073205
 21
1150.9451794024
  0
LINE
  5
225
100
AcDbEntity
  8
KONSTRUKTIONSELEMENTE
100
AcDbLine
 62
7
  6
CONTINUOUS
 10
149.1893781211
 20
1150.9451794024
 11
149.1893781211
 21
1151.1451794024
  0
LINE
  5
226
100
AcDbEntity
  8
BEZUGSACHSEN
100
AcDbLine
 62
7
  6
CONTINUOUS
 10
156.3820073205
 20
1035.9451794024
 11
156.3820073205
 21
965.9451794024
  0
LINE
  5
227
100
AcDbEntity
  8
BEZUGSACHSEN
100
AcDbLine
 62
7
  6
CONTINUOUS
 10
158.7313722259
 20
1145.9451794024
 11
158.7313722259
 21
1147.5958144971
  0
LINE
  5
228
100
AcDbEntity
  8
KONSTRUKTIONSELEMENTE
100
AcDbLine
 62
7
  6
CONTINUOUS
 10
159.0122571698
 20
1150.9451794024
 11
159.0122571698
 21
1151.1451794024
  0
LINE
  5
229
100
AcDbEntity
  8
KONSTRUKTIONSELEMENTE
100
AcDbLine
 62
7
  6
CONTINUOUS
 10
159.2464795266
 20
1150.9451794024
 11
159.2464795266
 21
1151.1451794024
  0
LINE
  5
22A
100
AcDbEntity
  8
KONSTRUKTIONSELEMENTE
100
AcDbLine
 62
7
  6
CONTINUOUS
 10
160.222405976
 20
1150.9451794024
 11
160.222405976
 21
1151.1451794024
  0
LINE
  5
22B
100
AcDbEntity
  8
KONSTRUKTIONSELEMENTE
100
AcDbLine
 62
7
  6
CONTINUOUS
 10
160.4956654667
 20
1150.9451794024
 11
160.4956654667
 21
1151.1451794024
  0
LINE
  5
22C
100
AcDbEntity
  8
KONSTRUKTIONSELEMENTE
100
AcDbLine
 62
7
  6
CONTINUOUS
 10
161.6013885708
 20
1150.9451794024
 11
161.6013885708
 21
1151.1451794024
  0
LINE
  5
22D
100
AcDbEntity
  8
KONSTRUKTIONSELEMENTE
100
AcDbLine
 62
7
  6
CONTINUOUS
 10
162.4382538934
 20
1150.9451794024
 11
162.4382538934
 21
1151.1451794024
  0
LINE
  5
22E
100
AcDbEntity
  8
KONSTRUKTIONSELEMENTE
100
AcDbLine
 62
7
  6
CONTINUOUS
 10
163.2273822072
 20
1150.9451794024
 11
163.2273822072
 21
1151.1451794024
  0
LINE
  5
22F
100
AcDbEntity
  8
KONSTRUKTIONSELEMENTE
100
AcDbLine
 62
7
  6
CONTINUOUS
 10
163.7216437944
 20
1150.9451794024
 11
163.7216437944
 21
1151.1451794024
  0
LINE
  5
230
100
AcDbEntity
  8
KONSTRUKTIONSELEMENTE
100
AcDbLine
 62
7
  6
CONTINUOUS
 10
164.1681683877
 20
1150.9451794024
 11
164.1681683877
 21
1151.1451794024
  0
LINE
  5
231
100
AcDbEntity
  8
KONSTRUKTIONSELEMENTE
100
AcDbLine
 62
7
  6
CONTINUOUS
 10
164.3198262393
 20
1150.9451794024
 11
164.3198262393
 21
1151.1451794024
  0
LINE
  5
232
100
AcDbEntity
  8
KONSTRUKTIONSELEMENTE
100
AcDbLine
 62
7
  6
CONTINUOUS
 10
166.9967430174
 20
1150.9451794024
 11
166.9967430174
 21
1151.1451794024
  0
LINE
  5
233
100
AcDbEntity
  8
KONSTRUKTIONSELEMENTE
100
AcDbLine
 62
7
  6
CONTINUOUS
 10
171.4328103861
 20
1150.9451794024
 11
171.4328103861
 21
1151.1451794024
  0
LINE
  5
234
100
AcDbEntity
  8
KONSTRUKTIONSELEMENTE
100
AcDbLine
 62
7
  6
CONTINUOUS
 10
172.2588302778
 20
1150.9451794024
 11
172.2588302778
 21
1151.1451794024
  0
LINE
  5
235
100
AcDbEntity
  8
KONSTRUKTIONSELEMENTE
100
AcDbLine
 62
7
  6
CONTINUOUS
 10
172.8018510954
 20
1150.9451794024
 11
172.8018510954
 21
1151.1451794024
  0
LINE
  5
236
100
AcDbEntity
  8
KONSTRUKTIONSELEMENTE
100
AcDbLine
 62
7
  6
CONTINUOUS
 10
173.1485488913
 20
1150.9451794024
 11
173.1485488913
 21
1151.1451794024
  0
LINE
  5
237
100
AcDbEntity
  8
KONSTRUKTIONSELEMENTE
100
AcDbLine
 62
7
  6
CONTINUOUS
 10
186.3226778349
 20
1150.9451794024
 11
186.3226778349
 21
1151.1451794024
  0
LINE
  5
238
100
AcDbEntity
  8
KONSTRUKTIONSELEMENTE
100
AcDbLine
 62
7
  6
CONTINUOUS
 10
187.4120568242
 20
1150.9451794024
 11
187.4120568242
 21
1151.1451794024
  0
LINE
  5
239
100
AcDbEntity
  8
KONSTRUKTIONSELEMENTE
100
AcDbLine
 62
7
  6
CONTINUOUS
 10
189.9539397473
 20
1150.9451794024
 11
189.9539397473
 21
1151.1451794024
  0
LINE
  5
23A
100
AcDbEntity
  8
KONSTRUKTIONSELEMENTE
100
AcDbLine
 62
7
  6
CONTINUOUS
 10
191.4064478368
 20
1150.9451794024
 11
191.4064478368
 21
1151.1451794024
  0
LINE
  5
23B
100
AcDbEntity
  8
KONSTRUKTIONSELEMENTE
100
AcDbLine
 62
7
  6
CONTINUOUS
 10
193.94833076
 20
1150.9451794024
 11
193.94833076
 21
1151.1451794024
  0
LINE
  5
23C
100
AcDbEntity
  8
KONSTRUKTIONSELEMENTE
100
AcDbLine
 62
7
  6
CONTINUOUS
 10
195.0377097493
 20
1150.9451794024
 11
195.0377097493
 21
1151.1451794024
  0
LINE
  5
23D
100
AcDbEntity
  8
KONSTRUKTIONSELEMENTE
100
AcDbLine
 62
7
  6
CONTINUOUS
 10
198.7685324916
 20
1150.9451794024
 11
198.7685324916
 21
1151.1451794024
  0
LINE
  5
23E
100
AcDbEntity
  8
KONSTRUKTIONSELEMENTE
100
AcDbLine
 62
7
  6
CONTINUOUS
 10
198.7982240585
 20
1150.9451794024
 11
198.7982240585
 21
1151.1451794024
  0
LINE
  5
23F
100
AcDbEntity
  8
KONSTRUKTIONSELEMENTE
100
AcDbLine
 62
7
  6
CONTINUOUS
 10
199.4434506988
 20
1150.9451794024
 11
199.4434506988
 21
1151.1451794024
  0
LINE
  5
240
100
AcDbEntity
  8
KONSTRUKTIONSELEMENTE
100
AcDbLine
 62
7
  6
CONTINUOUS
 10
201.2506231881
 20
1150.9451794024
 11
201.2506231881
 21
1151.1451794024
  0
LINE
  5
241
100
AcDbEntity
  8
KONSTRUKTIONSELEMENTE
100
AcDbLine
 62
7
  6
CONTINUOUS
 10
201.3580370208
 20
1150.9451794024
 11
201.3580370208
 21
1151.1451794024
  0
LINE
  5
242
100
AcDbEntity
  8
KONSTRUKTIONSELEMENTE
100
AcDbLine
 62
7
  6
CONTINUOUS
 10
201.6595277687
 20
1150.9451794024
 11
201.6595277687
 21
1151.1451794024
  0
LINE
  5
243
100
AcDbEntity
  8
BEZUGSACHSEN
100
AcDbLine
 62
7
  6
CONTINUOUS
 10
202.0326424151
 20
1145.9451794024
 11
202.0326424151
 21
1147.5958144971
  0
LINE
  5
244
100
AcDbEntity
  8
KONSTRUKTIONSELEMENTE
100
AcDbLine
 62
7
  6
CONTINUOUS
 10
202.384976002
 20
1150.9451794024
 11
202.384976002
 21
1151.1451794024
  0
LINE
  5
245
100
AcDbEntity
  8
KONSTRUKTIONSELEMENTE
100
AcDbLine
 62
7
  6
CONTINUOUS
 10
203.0746197795
 20
1150.9451794024
 11
203.0746197795
 21
1151.1451794024
  0
LINE
  5
246
100
AcDbEntity
  8
KONSTRUKTIONSELEMENTE
100
AcDbLine
 62
7
  6
CONTINUOUS
 10
204.1703190471
 20
1150.9451794024
 11
204.1703190471
 21
1151.1451794024
  0
LINE
  5
247
100
AcDbEntity
  8
BEZUGSACHSEN
100
AcDbLine
 62
7
  6
CONTINUOUS
 10
204.3820073205
 20
1035.9451794024
 11
204.3820073205
 21
965.9451794024
  0
LINE
  5
248
100
AcDbEntity
  8
KONSTRUKTIONSELEMENTE
100
AcDbLine
 62
7
  6
CONTINUOUS
 10
204.806255834
 20
1150.9451794024
 11
204.806255834
 21
1151.1451794024
  0
LINE
  5
249
100
AcDbEntity
  8
KONSTRUKTIONSELEMENTE
100
AcDbLine
 62
7
  6
CONTINUOUS
 10
205.8303463015
 20
1150.9451794024
 11
205.8303463015
 21
1151.1451794024
  0
LINE
  5
24A
100
AcDbEntity
  8
KONSTRUKTIONSELEMENTE
100
AcDbLine
 62
7
  6
CONTINUOUS
 10
206.3946737301
 20
1150.9451794024
 11
206.3946737301
 21
1151.1451794024
  0
LINE
  5
24B
100
AcDbEntity
  8
KONSTRUKTIONSELEMENTE
100
AcDbLine
 62
7
  6
CONTINUOUS
 10
206.5708481848
 20
1150.9451794024
 11
206.5708481848
 21
1151.1451794024
  0
LINE
  5
24C
100
AcDbEntity
  8
KONSTRUKTIONSELEMENTE
100
AcDbLine
 62
7
  6
CONTINUOUS
 10
206.818631588
 20
1150.9451794024
 11
206.818631588
 21
1151.1451794024
  0
LINE
  5
24D
100
AcDbEntity
  8
0
100
AcDbLine
 62
7
  6
CONTINUOUS
 10
117.3820073205
 20
1145.9451794024
 11
688.3820073205
 21
1145.9451794024
  0
LINE
  5
24E
100
AcDbEntity
  8
BEZUGSACHSEN
100
AcDbLine
 62
7
  6
CONTINUOUS
 10
142.8821743093
 20
1150.9451794024
 11
217.8818403318
 21
1150.9451794024
  0
LINE
  5
24F
100
AcDbEntity
  8
BEZUGSACHSEN
100
AcDbLine
 62
7
  6
CONTINUOUS
 10
254.1321743093
 20
1150.9451794024
 11
329.1318403318
 21
1150.9451794024
  0
LINE
  5
250
100
AcDbEntity
  8
BEZUGSACHSEN
100
AcDbLine
 62
7
  6
CONTINUOUS
 10
476.6321743093
 20
1150.9451794024
 11
551.6318403318
 21
1150.9451794024
  0
LINE
  5
251
100
AcDbEntity
  8
BEZUGSACHSEN
100
AcDbLine
 62
7
  6
CONTINUOUS
 10
587.8821743093
 20
1150.9451794024
 11
662.8818403318
 21
1150.9451794024
  0
LINE
  5
252
100
AcDbEntity
  8
KONSTRUKTIONSELEMENTE
100
AcDbLine
 62
7
  6
CONTINUOUS
 10
149.1893781211
 20
1151.1451794024
 11
173.1485488913
 21
1151.1451794024
  0
LINE
  5
253
100
AcDbEntity
  8
KONSTRUKTIONSELEMENTE
100
AcDbLine
 62
7
  6
CONTINUOUS
 10
186.3226778349
 20
1151.1451794024
 11
211.303145838
 21
1151.1451794024
  0
LINE
  5
254
100
AcDbEntity
  8
KONSTRUKTIONSELEMENTE
100
AcDbLine
 62
7
  6
CONTINUOUS
 10
260.4393781211
 20
1151.1451794024
 11
284.3985488913
 21
1151.1451794024
  0
LINE
  5
255
100
AcDbEntity
  8
KONSTRUKTIONSELEMENTE
100
AcDbLine
 62
7
  6
CONTINUOUS
 10
297.5726778349
 20
1151.1451794024
 11
322.553145838
 21
1151.1451794024
  0
LINE
  5
256
100
AcDbEntity
  8
KONSTRUKTIONSELEMENTE
100
AcDbLine
 62
7
  6
CONTINUOUS
 10
482.9393781211
 20
1151.1451794024
 11
506.8985488913
 21
1151.1451794024
  0
LINE
  5
257
100
AcDbEntity
  8
KONSTRUKTIONSELEMENTE
100
AcDbLine
 62
7
  6
CONTINUOUS
 10
520.0726778349
 20
1151.1451794024
 11
545.053145838
 21
1151.1451794024
  0
LINE
  5
258
100
AcDbEntity
  8
KONSTRUKTIONSELEMENTE
100
AcDbLine
 62
7
  6
CONTINUOUS
 10
594.1893781211
 20
1151.1451794024
 11
618.1485488913
 21
1151.1451794024
  0
LINE
  5
259
100
AcDbEntity
  8
KONSTRUKTIONSELEMENTE
100
AcDbLine
 62
7
  6
CONTINUOUS
 10
631.3226778349
 20
1151.1451794024
 11
656.303145838
 21
1151.1451794024
  0
LINE
  5
25A
100
AcDbEntity
  8
BEZUGSACHSEN
100
AcDbLine
 62
7
  6
CONTINUOUS
 10
334.9332775098
 20
1147.5958144971
 11
329.1320073205
 21
1150.9451794024
  0
LINE
  5
25B
100
AcDbEntity
  8
BEZUGSACHSEN
100
AcDbLine
 62
7
  6
CONTINUOUS
 10
490.1320073205
 20
965.9451794024
 11
495.1320073205
 21
960.9451794024
  0
LINE
  5
25C
100
AcDbEntity
  8
KONSTRUKTIONSELEMENTE
100
AcDbLine
 62
7
  6
CONTINUOUS
 10
207.5082752913
 20
1150.9451794024
 11
207.5082752913
 21
1151.1451794024
  0
LINE
  5
25D
100
AcDbEntity
  8
KONSTRUKTIONSELEMENTE
100
AcDbLine
 62
7
  6
CONTINUOUS
 10
208.3919958913
 20
1150.9451794024
 11
208.3919958913
 21
1151.1451794024
  0
LINE
  5
25E
100
AcDbEntity
  8
KONSTRUKTIONSELEMENTE
100
AcDbLine
 62
7
  6
CONTINUOUS
 10
209.0279326782
 20
1150.9451794024
 11
209.0279326782
 21
1151.1451794024
  0
LINE
  5
25F
100
AcDbEntity
  8
KONSTRUKTIONSELEMENTE
100
AcDbLine
 62
7
  6
CONTINUOUS
 10
210.0520230328
 20
1150.9451794024
 11
210.0520230328
 21
1151.1451794024
  0
LINE
  5
260
100
AcDbEntity
  8
KONSTRUKTIONSELEMENTE
100
AcDbLine
 62
7
  6
CONTINUOUS
 10
210.6342529034
 20
1150.9451794024
 11
210.6342529034
 21
1151.1451794024
  0
LINE
  5
261
100
AcDbEntity
  8
KONSTRUKTIONSELEMENTE
100
AcDbLine
 62
7
  6
CONTINUOUS
 10
211.1806782997
 20
1150.9451794024
 11
211.1806782997
 21
1151.1451794024
  0
LINE
  5
262
100
AcDbEntity
  8
KONSTRUKTIONSELEMENTE
100
AcDbLine
 62
7
  6
CONTINUOUS
 10
211.303145838
 20
1150.9451794024
 11
211.303145838
 21
1151.1451794024
  0
LINE
  5
263
100
AcDbEntity
  8
0
100
AcDbLine
 62
7
  6
CONTINUOUS
 10
220.3820073205
 20
1312.4451794024
 11
220.3820073205
 21
1203.4451794024
  0
LINE
  5
264
100
AcDbEntity
  8
BEZUGSACHSEN
100
AcDbLine
 62
7
  6
CONTINUOUS
 10
223.6832775098
 20
1145.9451794024
 11
223.6832775098
 21
1147.5958144971
  0
LINE
  5
265
100
AcDbEntity
  8
RUNDUNGEN
100
AcDbLine
 62
7
  6
CONTINUOUS
 10
240.3820073205
 20
1372.9451794024
 11
240.3820073205
 21
1166.753074481
  0
LINE
  5
266
100
AcDbEntity
  8
0
100
AcDbLine
 62
7
  6
CONTINUOUS
 10
565.3820073205
 20
1191.4451794024
 11
605.3820073205
 21
1191.4451794024
  0
LINE
  5
267
100
AcDbEntity
  8
0
100
AcDbLine
 62
7
  6
CONTINUOUS
 10
240.3820073205
 20
1203.4451794024
 11
220.3820073205
 21
1203.4451794024
  0
LINE
  5
268
100
AcDbEntity
  8
BEZUGSACHSEN
100
AcDbLine
 62
7
  6
CONTINUOUS
 10
248.3307371313
 20
1145.9451794024
 11
248.3307371313
 21
1147.5958144971
  0
LINE
  5
269
100
AcDbEntity
  8
KONSTRUKTIONSELEMENTE
100
AcDbLine
 62
7
  6
CONTINUOUS
 10
260.4393781211
 20
1150.9451794024
 11
260.4393781211
 21
1151.1451794024
  0
LINE
  5
26A
100
AcDbEntity
  8
BEZUGSACHSEN
100
AcDbLine
 62
7
  6
CONTINUOUS
 10
267.6320073205
 20
1035.9451794024
 11
267.6320073205
 21
965.9451794024
  0
LINE
  5
26B
100
AcDbEntity
  8
BEZUGSACHSEN
100
AcDbLine
 62
7
  6
CONTINUOUS
 10
269.9813722259
 20
1145.9451794024
 11
269.9813722259
 21
1147.5958144971
  0
LINE
  5
26C
100
AcDbEntity
  8
KONSTRUKTIONSELEMENTE
100
AcDbLine
 62
7
  6
CONTINUOUS
 10
270.2622571698
 20
1150.9451794024
 11
270.2622571698
 21
1151.1451794024
  0
LINE
  5
26D
100
AcDbEntity
  8
KONSTRUKTIONSELEMENTE
100
AcDbLine
 62
7
  6
CONTINUOUS
 10
270.4964795266
 20
1150.9451794024
 11
270.4964795266
 21
1151.1451794024
  0
LINE
  5
26E
100
AcDbEntity
  8
KONSTRUKTIONSELEMENTE
100
AcDbLine
 62
7
  6
CONTINUOUS
 10
271.472405976
 20
1150.9451794024
 11
271.472405976
 21
1151.1451794024
  0
LINE
  5
26F
100
AcDbEntity
  8
KONSTRUKTIONSELEMENTE
100
AcDbLine
 62
7
  6
CONTINUOUS
 10
271.7456654667
 20
1150.9451794024
 11
271.7456654667
 21
1151.1451794024
  0
LINE
  5
270
100
AcDbEntity
  8
KONSTRUKTIONSELEMENTE
100
AcDbLine
 62
7
  6
CONTINUOUS
 10
272.8513885708
 20
1150.9451794024
 11
272.8513885708
 21
1151.1451794024
  0
LINE
  5
271
100
AcDbEntity
  8
KONSTRUKTIONSELEMENTE
100
AcDbLine
 62
7
  6
CONTINUOUS
 10
273.6882538934
 20
1150.9451794024
 11
273.6882538934
 21
1151.1451794024
  0
LINE
  5
272
100
AcDbEntity
  8
0
100
AcDbLine
 62
7
  6
CONTINUOUS
 10
640.3820073205
 20
1210.4451794024
 11
605.3820073205
 21
1210.4451794024
  0
LINE
  5
273
100
AcDbEntity
  8
0
100
AcDbLine
 62
7
  6
CONTINUOUS
 10
476.3820073205
 20
1210.4451794024
 11
472.8820073205
 21
1210.4451794024
  0
LINE
  5
274
100
AcDbEntity
  8
0
100
AcDbLine
 62
7
  6
CONTINUOUS
 10
332.8820073205
 20
1210.4451794024
 11
329.3820073205
 21
1210.4451794024
  0
LINE
  5
275
100
AcDbEntity
  8
BEZUGSACHSEN
100
AcDbLine
 62
7
  6
CONTINUOUS
 10
601.3820073205
 20
965.9451794024
 11
606.3820073205
 21
960.9451794024
  0
LINE
  5
276
100
AcDbEntity
  8
KONSTRUKTIONSELEMENTE
100
AcDbLine
 62
7
  6
CONTINUOUS
 10
274.4773822072
 20
1150.9451794024
 11
274.4773822072
 21
1151.1451794024
  0
LINE
  5
277
100
AcDbEntity
  8
KONSTRUKTIONSELEMENTE
100
AcDbLine
 62
7
  6
CONTINUOUS
 10
274.9716437944
 20
1150.9451794024
 11
274.9716437944
 21
1151.1451794024
  0
LINE
  5
278
100
AcDbEntity
  8
KONSTRUKTIONSELEMENTE
100
AcDbLine
 62
7
  6
CONTINUOUS
 10
275.4181683877
 20
1150.9451794024
 11
275.4181683877
 21
1151.1451794024
  0
LINE
  5
279
100
AcDbEntity
  8
KONSTRUKTIONSELEMENTE
100
AcDbLine
 62
7
  6
CONTINUOUS
 10
275.5698262393
 20
1150.9451794024
 11
275.5698262393
 21
1151.1451794024
  0
LINE
  5
27A
100
AcDbEntity
  8
KONSTRUKTIONSELEMENTE
100
AcDbLine
 62
7
  6
CONTINUOUS
 10
278.2467430174
 20
1150.9451794024
 11
278.2467430174
 21
1151.1451794024
  0
LINE
  5
27B
100
AcDbEntity
  8
KONSTRUKTIONSELEMENTE
100
AcDbLine
 62
7
  6
CONTINUOUS
 10
282.6828103861
 20
1150.9451794024
 11
282.6828103861
 21
1151.1451794024
  0
LINE
  5
27C
100
AcDbEntity
  8
KONSTRUKTIONSELEMENTE
100
AcDbLine
 62
7
  6
CONTINUOUS
 10
283.5088302778
 20
1150.9451794024
 11
283.5088302778
 21
1151.1451794024
  0
LINE
  5
27D
100
AcDbEntity
  8
KONSTRUKTIONSELEMENTE
100
AcDbLine
 62
7
  6
CONTINUOUS
 10
284.0518510954
 20
1150.9451794024
 11
284.0518510954
 21
1151.1451794024
  0
LINE
  5
27E
100
AcDbEntity
  8
KONSTRUKTIONSELEMENTE
100
AcDbLine
 62
7
  6
CONTINUOUS
 10
284.3985488913
 20
1150.9451794024
 11
284.3985488913
 21
1151.1451794024
  0
LINE
  5
27F
100
AcDbEntity
  8
KONSTRUKTIONSELEMENTE
100
AcDbLine
 62
7
  6
CONTINUOUS
 10
297.5726778349
 20
1150.9451794024
 11
297.5726778349
 21
1151.1451794024
  0
LINE
  5
280
100
AcDbEntity
  8
KONSTRUKTIONSELEMENTE
100
AcDbLine
 62
7
  6
CONTINUOUS
 10
298.6620568242
 20
1150.9451794024
 11
298.6620568242
 21
1151.1451794024
  0
LINE
  5
281
100
AcDbEntity
  8
KONSTRUKTIONSELEMENTE
100
AcDbLine
 62
7
  6
CONTINUOUS
 10
301.2039397473
 20
1150.9451794024
 11
301.2039397473
 21
1151.1451794024
  0
LINE
  5
282
100
AcDbEntity
  8
KONSTRUKTIONSELEMENTE
100
AcDbLine
 62
7
  6
CONTINUOUS
 10
302.6564478368
 20
1150.9451794024
 11
302.6564478368
 21
1151.1451794024
  0
LINE
  5
283
100
AcDbEntity
  8
KONSTRUKTIONSELEMENTE
100
AcDbLine
 62
7
  6
CONTINUOUS
 10
305.19833076
 20
1150.9451794024
 11
305.19833076
 21
1151.1451794024
  0
LINE
  5
284
100
AcDbEntity
  8
KONSTRUKTIONSELEMENTE
100
AcDbLine
 62
7
  6
CONTINUOUS
 10
306.2877097493
 20
1150.9451794024
 11
306.2877097493
 21
1151.1451794024
  0
LINE
  5
285
100
AcDbEntity
  8
0
100
AcDbLine
 62
7
  6
CONTINUOUS
 10
565.3820073205
 20
1257.9451794024
 11
605.3820073205
 21
1257.9451794024
  0
LINE
  5
286
100
AcDbEntity
  8
BEZUGSACHSEN
100
AcDbLine
 62
7
  6
CONTINUOUS
 10
557.4332775098
 20
1147.5958144971
 11
551.6320073205
 21
1150.9451794024
  0
LINE
  5
287
100
AcDbEntity
  8
KONSTRUKTIONSELEMENTE
100
AcDbLine
 62
7
  6
CONTINUOUS
 10
310.0185324916
 20
1150.9451794024
 11
310.0185324916
 21
1151.1451794024
  0
LINE
  5
288
100
AcDbEntity
  8
KONSTRUKTIONSELEMENTE
100
AcDbLine
 62
7
  6
CONTINUOUS
 10
310.0482240585
 20
1150.9451794024
 11
310.0482240585
 21
1151.1451794024
  0
LINE
  5
289
100
AcDbEntity
  8
KONSTRUKTIONSELEMENTE
100
AcDbLine
 62
7
  6
CONTINUOUS
 10
310.6934506988
 20
1150.9451794024
 11
310.6934506988
 21
1151.1451794024
  0
LINE
  5
28A
100
AcDbEntity
  8
KONSTRUKTIONSELEMENTE
100
AcDbLine
 62
7
  6
CONTINUOUS
 10
312.5006231881
 20
1150.9451794024
 11
312.5006231881
 21
1151.1451794024
  0
LINE
  5
28B
100
AcDbEntity
  8
KONSTRUKTIONSELEMENTE
100
AcDbLine
 62
7
  6
CONTINUOUS
 10
312.6080370208
 20
1150.9451794024
 11
312.6080370208
 21
1151.1451794024
  0
LINE
  5
28C
100
AcDbEntity
  8
KONSTRUKTIONSELEMENTE
100
AcDbLine
 62
7
  6
CONTINUOUS
 10
312.9095277687
 20
1150.9451794024
 11
312.9095277687
 21
1151.1451794024
  0
LINE
  5
28D
100
AcDbEntity
  8
BEZUGSACHSEN
100
AcDbLine
 62
7
  6
CONTINUOUS
 10
313.2826424151
 20
1145.9451794024
 11
313.2826424151
 21
1147.5958144971
  0
LINE
  5
28E
100
AcDbEntity
  8
KONSTRUKTIONSELEMENTE
100
AcDbLine
 62
7
  6
CONTINUOUS
 10
313.634976002
 20
1150.9451794024
 11
313.634976002
 21
1151.1451794024
  0
LINE
  5
28F
100
AcDbEntity
  8
KONSTRUKTIONSELEMENTE
100
AcDbLine
 62
7
  6
CONTINUOUS
 10
314.3246197795
 20
1150.9451794024
 11
314.3246197795
 21
1151.1451794024
  0
LINE
  5
290
100
AcDbEntity
  8
KONSTRUKTIONSELEMENTE
100
AcDbLine
 62
7
  6
CONTINUOUS
 10
315.4203190471
 20
1150.9451794024
 11
315.4203190471
 21
1151.1451794024
  0
LINE
  5
291
100
AcDbEntity
  8
BEZUGSACHSEN
100
AcDbLine
 62
7
  6
CONTINUOUS
 10
315.6320073205
 20
1035.9451794024
 11
315.6320073205
 21
965.9451794024
  0
LINE
  5
292
100
AcDbEntity
  8
KONSTRUKTIONSELEMENTE
100
AcDbLine
 62
7
  6
CONTINUOUS
 10
316.056255834
 20
1150.9451794024
 11
316.056255834
 21
1151.1451794024
  0
LINE
  5
293
100
AcDbEntity
  8
KONSTRUKTIONSELEMENTE
100
AcDbLine
 62
7
  6
CONTINUOUS
 10
317.0803463015
 20
1150.9451794024
 11
317.0803463015
 21
1151.1451794024
  0
LINE
  5
294
100
AcDbEntity
  8
KONSTRUKTIONSELEMENTE
100
AcDbLine
 62
7
  6
CONTINUOUS
 10
317.6446737301
 20
1150.9451794024
 11
317.6446737301
 21
1151.1451794024
  0
LINE
  5
295
100
AcDbEntity
  8
KONSTRUKTIONSELEMENTE
100
AcDbLine
 62
7
  6
CONTINUOUS
 10
317.8208481848
 20
1150.9451794024
 11
317.8208481848
 21
1151.1451794024
  0
LINE
  5
296
100
AcDbEntity
  8
KONSTRUKTIONSELEMENTE
100
AcDbLine
 62
7
  6
CONTINUOUS
 10
318.068631588
 20
1150.9451794024
 11
318.068631588
 21
1151.1451794024
  0
LINE
  5
297
100
AcDbEntity
  8
KONSTRUKTIONSELEMENTE
100
AcDbLine
 62
7
  6
CONTINUOUS
 10
318.7582752913
 20
1150.9451794024
 11
318.7582752913
 21
1151.1451794024
  0
LINE
  5
298
100
AcDbEntity
  8
KONSTRUKTIONSELEMENTE
100
AcDbLine
 62
7
  6
CONTINUOUS
 10
319.6419958913
 20
1150.9451794024
 11
319.6419958913
 21
1151.1451794024
  0
LINE
  5
299
100
AcDbEntity
  8
KONSTRUKTIONSELEMENTE
100
AcDbLine
 62
7
  6
CONTINUOUS
 10
320.2779326782
 20
1150.9451794024
 11
320.2779326782
 21
1151.1451794024
  0
LINE
  5
29A
100
AcDbEntity
  8
KONSTRUKTIONSELEMENTE
100
AcDbLine
 62
7
  6
CONTINUOUS
 10
321.3020230328
 20
1150.9451794024
 11
321.3020230328
 21
1151.1451794024
  0
LINE
  5
29B
100
AcDbEntity
  8
KONSTRUKTIONSELEMENTE
100
AcDbLine
 62
7
  6
CONTINUOUS
 10
321.8842529034
 20
1150.9451794024
 11
321.8842529034
 21
1151.1451794024
  0
LINE
  5
29C
100
AcDbEntity
  8
KONSTRUKTIONSELEMENTE
100
AcDbLine
 62
7
  6
CONTINUOUS
 10
322.4306782997
 20
1150.9451794024
 11
322.4306782997
 21
1151.1451794024
  0
LINE
  5
29D
100
AcDbEntity
  8
KONSTRUKTIONSELEMENTE
100
AcDbLine
 62
7
  6
CONTINUOUS
 10
322.553145838
 20
1150.9451794024
 11
322.553145838
 21
1151.1451794024
  0
LINE
  5
29E
100
AcDbEntity
  8
RUNDUNGEN
100
AcDbLine
 62
7
  6
CONTINUOUS
 10
329.3820073205
 20
1372.9451794024
 11
329.3820073205
 21
1166.753074481
  0
LINE
  5
29F
100
AcDbEntity
  8
0
100
AcDbLine
 62
7
  6
CONTINUOUS
 10
332.8820073205
 20
1364.6408088367
 11
332.8820073205
 21
1148.780115893
  0
LINE
  5
2A0
100
AcDbEntity
  8
BEZUGSACHSEN
100
AcDbLine
 62
7
  6
CONTINUOUS
 10
334.9332775098
 20
1145.9451794024
 11
334.9332775098
 21
1147.5958144971
  0
LINE
  5
2A1
100
AcDbEntity
  8
0
100
AcDbLine
 62
7
  6
CONTINUOUS
 10
640.3820073205
 20
1305.4451794024
 11
605.3820073205
 21
1305.4451794024
  0
LINE
  5
2A2
100
AcDbEntity
  8
0
100
AcDbLine
 62
7
  6
CONTINUOUS
 10
476.3820073205
 20
1305.4451794024
 11
472.8820073205
 21
1305.4451794024
  0
LINE
  5
2A3
100
AcDbEntity
  8
0
100
AcDbLine
 62
7
  6
CONTINUOUS
 10
332.8820073205
 20
1305.4451794024
 11
329.3820073205
 21
1305.4451794024
  0
LINE
  5
2A4
100
AcDbEntity
  8
0
100
AcDbLine
 62
7
  6
CONTINUOUS
 10
240.3820073205
 20
1312.4451794024
 11
220.3820073205
 21
1312.4451794024
  0
LINE
  5
2A5
100
AcDbEntity
  8
0
100
AcDbLine
 62
7
  6
CONTINUOUS
 10
565.3820073205
 20
1324.4451794024
 11
605.3820073205
 21
1324.4451794024
  0
LINE
  5
2A6
100
AcDbEntity
  8
BEZUGSACHSEN
100
AcDbLine
 62
7
  6
CONTINUOUS
 10
668.6832775098
 20
1147.5958144971
 11
662.8820073205
 21
1150.9451794024
  0
LINE
  5
2A7
100
AcDbEntity
  8
0
100
AcDbLine
 62
7
  6
CONTINUOUS
 10
432.0196118892
 20
1379.9451794024
 11
373.7444027519
 21
1379.9451794024
  0
LINE
  5
2A8
100
AcDbEntity
  8
BEZUGSACHSEN
100
AcDbLine
 62
7
  6
CONTINUOUS
 10
470.8307371313
 20
1145.9451794024
 11
470.8307371313
 21
1147.5958144971
  0
LINE
  5
2A9
100
AcDbEntity
  8
0
100
AcDbLine
 62
7
  6
CONTINUOUS
 10
472.8820073205
 20
1148.780115893
 11
472.8820073205
 21
1364.6408088367
  0
LINE
  5
2AA
100
AcDbEntity
  8
BEZUGSACHSEN
100
AcDbLine
 62
7
  6
CONTINUOUS
 10
137.0807371313
 20
1147.5958144971
 11
142.8820073205
 21
1150.9451794024
  0
LINE
  5
2AB
100
AcDbEntity
  8
RUNDUNGEN
100
AcDbLine
 62
7
  6
CONTINUOUS
 10
476.3820073205
 20
1372.9451794024
 11
476.3820073205
 21
1166.753074481
  0
LINE
  5
2AC
100
AcDbEntity
  8
KONSTRUKTIONSELEMENTE
100
AcDbLine
 62
7
  6
CONTINUOUS
 10
482.9393781211
 20
1150.9451794024
 11
482.9393781211
 21
1151.1451794024
  0
LINE
  5
2AD
100
AcDbEntity
  8
BEZUGSACHSEN
100
AcDbLine
 62
7
  6
CONTINUOUS
 10
490.1320073205
 20
1035.9451794024
 11
490.1320073205
 21
965.9451794024
  0
LINE
  5
2AE
100
AcDbEntity
  8
BEZUGSACHSEN
100
AcDbLine
 62
7
  6
CONTINUOUS
 10
492.4813722259
 20
1145.9451794024
 11
492.4813722259
 21
1147.5958144971
  0
LINE
  5
2AF
100
AcDbEntity
  8
KONSTRUKTIONSELEMENTE
100
AcDbLine
 62
7
  6
CONTINUOUS
 10
492.7622571698
 20
1150.9451794024
 11
492.7622571698
 21
1151.1451794024
  0
LINE
  5
2B0
100
AcDbEntity
  8
KONSTRUKTIONSELEMENTE
100
AcDbLine
 62
7
  6
CONTINUOUS
 10
492.9964795266
 20
1150.9451794024
 11
492.9964795266
 21
1151.1451794024
  0
LINE
  5
2B1
100
AcDbEntity
  8
KONSTRUKTIONSELEMENTE
100
AcDbLine
 62
7
  6
CONTINUOUS
 10
493.972405976
 20
1150.9451794024
 11
493.972405976
 21
1151.1451794024
  0
LINE
  5
2B2
100
AcDbEntity
  8
KONSTRUKTIONSELEMENTE
100
AcDbLine
 62
7
  6
CONTINUOUS
 10
494.2456654667
 20
1150.9451794024
 11
494.2456654667
 21
1151.1451794024
  0
LINE
  5
2B3
100
AcDbEntity
  8
KONSTRUKTIONSELEMENTE
100
AcDbLine
 62
7
  6
CONTINUOUS
 10
495.3513885708
 20
1150.9451794024
 11
495.3513885708
 21
1151.1451794024
  0
LINE
  5
2B4
100
AcDbEntity
  8
KONSTRUKTIONSELEMENTE
100
AcDbLine
 62
7
  6
CONTINUOUS
 10
496.1882538934
 20
1150.9451794024
 11
496.1882538934
 21
1151.1451794024
  0
LINE
  5
2B5
100
AcDbEntity
  8
KONSTRUKTIONSELEMENTE
100
AcDbLine
 62
7
  6
CONTINUOUS
 10
496.9773822072
 20
1150.9451794024
 11
496.9773822072
 21
1151.1451794024
  0
LINE
  5
2B6
100
AcDbEntity
  8
KONSTRUKTIONSELEMENTE
100
AcDbLine
 62
7
  6
CONTINUOUS
 10
497.4716437944
 20
1150.9451794024
 11
497.4716437944
 21
1151.1451794024
  0
LINE
  5
2B7
100
AcDbEntity
  8
KONSTRUKTIONSELEMENTE
100
AcDbLine
 62
7
  6
CONTINUOUS
 10
497.9181683877
 20
1150.9451794024
 11
497.9181683877
 21
1151.1451794024
  0
LINE
  5
2B8
100
AcDbEntity
  8
KONSTRUKTIONSELEMENTE
100
AcDbLine
 62
7
  6
CONTINUOUS
 10
498.0698262393
 20
1150.9451794024
 11
498.0698262393
 21
1151.1451794024
  0
LINE
  5
2B9
100
AcDbEntity
  8
KONSTRUKTIONSELEMENTE
100
AcDbLine
 62
7
  6
CONTINUOUS
 10
500.7467430174
 20
1150.9451794024
 11
500.7467430174
 21
1151.1451794024
  0
LINE
  5
2BA
100
AcDbEntity
  8
KONSTRUKTIONSELEMENTE
100
AcDbLine
 62
7
  6
CONTINUOUS
 10
505.1828103861
 20
1150.9451794024
 11
505.1828103861
 21
1151.1451794024
  0
LINE
  5
2BB
100
AcDbEntity
  8
KONSTRUKTIONSELEMENTE
100
AcDbLine
 62
7
  6
CONTINUOUS
 10
506.0088302778
 20
1150.9451794024
 11
506.0088302778
 21
1151.1451794024
  0
LINE
  5
2BC
100
AcDbEntity
  8
KONSTRUKTIONSELEMENTE
100
AcDbLine
 62
7
  6
CONTINUOUS
 10
506.5518510954
 20
1150.9451794024
 11
506.5518510954
 21
1151.1451794024
  0
LINE
  5
2BD
100
AcDbEntity
  8
KONSTRUKTIONSELEMENTE
100
AcDbLine
 62
7
  6
CONTINUOUS
 10
506.8985488913
 20
1150.9451794024
 11
506.8985488913
 21
1151.1451794024
  0
LINE
  5
2BE
100
AcDbEntity
  8
KONSTRUKTIONSELEMENTE
100
AcDbLine
 62
7
  6
CONTINUOUS
 10
520.0726778349
 20
1150.9451794024
 11
520.0726778349
 21
1151.1451794024
  0
LINE
  5
2BF
100
AcDbEntity
  8
KONSTRUKTIONSELEMENTE
100
AcDbLine
 62
7
  6
CONTINUOUS
 10
521.1620568242
 20
1150.9451794024
 11
521.1620568242
 21
1151.1451794024
  0
LINE
  5
2C0
100
AcDbEntity
  8
KONSTRUKTIONSELEMENTE
100
AcDbLine
 62
7
  6
CONTINUOUS
 10
523.7039397473
 20
1150.9451794024
 11
523.7039397473
 21
1151.1451794024
  0
LINE
  5
2C1
100
AcDbEntity
  8
KONSTRUKTIONSELEMENTE
100
AcDbLine
 62
7
  6
CONTINUOUS
 10
525.1564478368
 20
1150.9451794024
 11
525.1564478368
 21
1151.1451794024
  0
LINE
  5
2C2
100
AcDbEntity
  8
KONSTRUKTIONSELEMENTE
100
AcDbLine
 62
7
  6
CONTINUOUS
 10
527.69833076
 20
1150.9451794024
 11
527.69833076
 21
1151.1451794024
  0
LINE
  5
2C3
100
AcDbEntity
  8
KONSTRUKTIONSELEMENTE
100
AcDbLine
 62
7
  6
CONTINUOUS
 10
528.7877097493
 20
1150.9451794024
 11
528.7877097493
 21
1151.1451794024
  0
LINE
  5
2C4
100
AcDbEntity
  8
KONSTRUKTIONSELEMENTE
100
AcDbLine
 62
7
  6
CONTINUOUS
 10
532.5185324916
 20
1150.9451794024
 11
532.5185324916
 21
1151.1451794024
  0
LINE
  5
2C5
100
AcDbEntity
  8
KONSTRUKTIONSELEMENTE
100
AcDbLine
 62
7
  6
CONTINUOUS
 10
532.5482240585
 20
1150.9451794024
 11
532.5482240585
 21
1151.1451794024
  0
LINE
  5
2C6
100
AcDbEntity
  8
KONSTRUKTIONSELEMENTE
100
AcDbLine
 62
7
  6
CONTINUOUS
 10
533.1934506988
 20
1150.9451794024
 11
533.1934506988
 21
1151.1451794024
  0
LINE
  5
2C7
100
AcDbEntity
  8
KONSTRUKTIONSELEMENTE
100
AcDbLine
 62
7
  6
CONTINUOUS
 10
535.0006231881
 20
1150.9451794024
 11
535.0006231881
 21
1151.1451794024
  0
LINE
  5
2C8
100
AcDbEntity
  8
KONSTRUKTIONSELEMENTE
100
AcDbLine
 62
7
  6
CONTINUOUS
 10
535.1080370208
 20
1150.9451794024
 11
535.1080370208
 21
1151.1451794024
  0
LINE
  5
2C9
100
AcDbEntity
  8
KONSTRUKTIONSELEMENTE
100
AcDbLine
 62
7
  6
CONTINUOUS
 10
535.4095277687
 20
1150.9451794024
 11
535.4095277687
 21
1151.1451794024
  0
LINE
  5
2CA
100
AcDbEntity
  8
BEZUGSACHSEN
100
AcDbLine
 62
7
  6
CONTINUOUS
 10
535.7826424151
 20
1145.9451794024
 11
535.7826424151
 21
1147.5958144971
  0
LINE
  5
2CB
100
AcDbEntity
  8
KONSTRUKTIONSELEMENTE
100
AcDbLine
 62
7
  6
CONTINUOUS
 10
536.134976002
 20
1150.9451794024
 11
536.134976002
 21
1151.1451794024
  0
LINE
  5
2CC
100
AcDbEntity
  8
KONSTRUKTIONSELEMENTE
100
AcDbLine
 62
7
  6
CONTINUOUS
 10
536.8246197795
 20
1150.9451794024
 11
536.8246197795
 21
1151.1451794024
  0
LINE
  5
2CD
100
AcDbEntity
  8
KONSTRUKTIONSELEMENTE
100
AcDbLine
 62
7
  6
CONTINUOUS
 10
537.9203190471
 20
1150.9451794024
 11
537.9203190471
 21
1151.1451794024
  0
LINE
  5
2CE
100
AcDbEntity
  8
BEZUGSACHSEN
100
AcDbLine
 62
7
  6
CONTINUOUS
 10
538.1320073205
 20
1035.9451794024
 11
538.1320073205
 21
965.9451794024
  0
LINE
  5
2CF
100
AcDbEntity
  8
KONSTRUKTIONSELEMENTE
100
AcDbLine
 62
7
  6
CONTINUOUS
 10
538.556255834
 20
1150.9451794024
 11
538.556255834
 21
1151.1451794024
  0
LINE
  5
2D0
100
AcDbEntity
  8
KONSTRUKTIONSELEMENTE
100
AcDbLine
 62
7
  6
CONTINUOUS
 10
539.5803463015
 20
1150.9451794024
 11
539.5803463015
 21
1151.1451794024
  0
LINE
  5
2D1
100
AcDbEntity
  8
KONSTRUKTIONSELEMENTE
100
AcDbLine
 62
7
  6
CONTINUOUS
 10
540.1446737301
 20
1150.9451794024
 11
540.1446737301
 21
1151.1451794024
  0
LINE
  5
2D2
100
AcDbEntity
  8
KONSTRUKTIONSELEMENTE
100
AcDbLine
 62
7
  6
CONTINUOUS
 10
540.3208481848
 20
1150.9451794024
 11
540.3208481848
 21
1151.1451794024
  0
LINE
  5
2D3
100
AcDbEntity
  8
KONSTRUKTIONSELEMENTE
100
AcDbLine
 62
7
  6
CONTINUOUS
 10
540.568631588
 20
1150.9451794024
 11
540.568631588
 21
1151.1451794024
  0
LINE
  5
2D4
100
AcDbEntity
  8
BEZUGSACHSEN
100
AcDbLine
 62
7
  6
CONTINUOUS
 10
248.3307371313
 20
1147.5958144971
 11
254.1320073205
 21
1150.9451794024
  0
LINE
  5
2D5
100
AcDbEntity
  8
KONSTRUKTIONSELEMENTE
100
AcDbLine
 62
7
  6
CONTINUOUS
 10
541.2582752913
 20
1150.9451794024
 11
541.2582752913
 21
1151.1451794024
  0
LINE
  5
2D6
100
AcDbEntity
  8
KONSTRUKTIONSELEMENTE
100
AcDbLine
 62
7
  6
CONTINUOUS
 10
542.1419958913
 20
1150.9451794024
 11
542.1419958913
 21
1151.1451794024
  0
LINE
  5
2D7
100
AcDbEntity
  8
KONSTRUKTIONSELEMENTE
100
AcDbLine
 62
7
  6
CONTINUOUS
 10
542.7779326782
 20
1150.9451794024
 11
542.7779326782
 21
1151.1451794024
  0
LINE
  5
2D8
100
AcDbEntity
  8
KONSTRUKTIONSELEMENTE
100
AcDbLine
 62
7
  6
CONTINUOUS
 10
543.8020230328
 20
1150.9451794024
 11
543.8020230328
 21
1151.1451794024
  0
LINE
  5
2D9
100
AcDbEntity
  8
KONSTRUKTIONSELEMENTE
100
AcDbLine
 62
7
  6
CONTINUOUS
 10
544.3842529034
 20
1150.9451794024
 11
544.3842529034
 21
1151.1451794024
  0
LINE
  5
2DA
100
AcDbEntity
  8
KONSTRUKTIONSELEMENTE
100
AcDbLine
 62
7
  6
CONTINUOUS
 10
544.9306782997
 20
1150.9451794024
 11
544.9306782997
 21
1151.1451794024
  0
LINE
  5
2DB
100
AcDbEntity
  8
KONSTRUKTIONSELEMENTE
100
AcDbLine
 62
7
  6
CONTINUOUS
 10
545.053145838
 20
1150.9451794024
 11
545.053145838
 21
1151.1451794024
  0
LINE
  5
2DC
100
AcDbEntity
  8
BEZUGSACHSEN
100
AcDbLine
 62
7
  6
CONTINUOUS
 10
557.4332775098
 20
1145.9451794024
 11
557.4332775098
 21
1147.5958144971
  0
LINE
  5
2DD
100
AcDbEntity
  8
RUNDUNGEN
100
AcDbLine
 62
7
  6
CONTINUOUS
 10
565.3820073205
 20
1372.9451794024
 11
565.3820073205
 21
1166.753074481
  0
LINE
  5
2DE
100
AcDbEntity
  8
BEZUGSACHSEN
100
AcDbLine
 62
7
  6
CONTINUOUS
 10
204.3820073205
 20
965.9451794024
 11
199.3820073205
 21
960.9451794024
  0
LINE
  5
2DF
100
AcDbEntity
  8
BEZUGSACHSEN
100
AcDbLine
 62
7
  6
CONTINUOUS
 10
582.0807371313
 20
1145.9451794024
 11
582.0807371313
 21
1147.5958144971
  0
LINE
  5
2E0
100
AcDbEntity
  8
KONSTRUKTIONSELEMENTE
100
AcDbLine
 62
7
  6
CONTINUOUS
 10
594.1893781211
 20
1150.9451794024
 11
594.1893781211
 21
1151.1451794024
  0
LINE
  5
2E1
100
AcDbEntity
  8
BEZUGSACHSEN
100
AcDbLine
 62
7
  6
CONTINUOUS
 10
601.3820073205
 20
1035.9451794024
 11
601.3820073205
 21
965.9451794024
  0
LINE
  5
2E2
100
AcDbEntity
  8
BEZUGSACHSEN
100
AcDbLine
 62
7
  6
CONTINUOUS
 10
603.7313722259
 20
1145.9451794024
 11
603.7313722259
 21
1147.5958144971
  0
LINE
  5
2E3
100
AcDbEntity
  8
KONSTRUKTIONSELEMENTE
100
AcDbLine
 62
7
  6
CONTINUOUS
 10
604.0122571698
 20
1150.9451794024
 11
604.0122571698
 21
1151.1451794024
  0
LINE
  5
2E4
100
AcDbEntity
  8
KONSTRUKTIONSELEMENTE
100
AcDbLine
 62
7
  6
CONTINUOUS
 10
604.2464795266
 20
1150.9451794024
 11
604.2464795266
 21
1151.1451794024
  0
LINE
  5
2E5
100
AcDbEntity
  8
KONSTRUKTIONSELEMENTE
100
AcDbLine
 62
7
  6
CONTINUOUS
 10
605.222405976
 20
1150.9451794024
 11
605.222405976
 21
1151.1451794024
  0
LINE
  5
2E6
100
AcDbEntity
  8
0
100
AcDbLine
 62
7
  6
CONTINUOUS
 10
605.3820073205
 20
1324.4451794024
 11
605.3820073205
 21
1191.4451794024
  0
LINE
  5
2E7
100
AcDbEntity
  8
KONSTRUKTIONSELEMENTE
100
AcDbLine
 62
7
  6
CONTINUOUS
 10
605.4956654667
 20
1150.9451794024
 11
605.4956654667
 21
1151.1451794024
  0
LINE
  5
2E8
100
AcDbEntity
  8
KONSTRUKTIONSELEMENTE
100
AcDbLine
 62
7
  6
CONTINUOUS
 10
606.6013885708
 20
1150.9451794024
 11
606.6013885708
 21
1151.1451794024
  0
LINE
  5
2E9
100
AcDbEntity
  8
KONSTRUKTIONSELEMENTE
100
AcDbLine
 62
7
  6
CONTINUOUS
 10
607.4382538934
 20
1150.9451794024
 11
607.4382538934
 21
1151.1451794024
  0
LINE
  5
2EA
100
AcDbEntity
  8
KONSTRUKTIONSELEMENTE
100
AcDbLine
 62
7
  6
CONTINUOUS
 10
608.2273822072
 20
1150.9451794024
 11
608.2273822072
 21
1151.1451794024
  0
LINE
  5
2EB
100
AcDbEntity
  8
KONSTRUKTIONSELEMENTE
100
AcDbLine
 62
7
  6
CONTINUOUS
 10
608.7216437944
 20
1150.9451794024
 11
608.7216437944
 21
1151.1451794024
  0
LINE
  5
2EC
100
AcDbEntity
  8
KONSTRUKTIONSELEMENTE
100
AcDbLine
 62
7
  6
CONTINUOUS
 10
609.1681683877
 20
1150.9451794024
 11
609.1681683877
 21
1151.1451794024
  0
LINE
  5
2ED
100
AcDbEntity
  8
KONSTRUKTIONSELEMENTE
100
AcDbLine
 62
7
  6
CONTINUOUS
 10
609.3198262393
 20
1150.9451794024
 11
609.3198262393
 21
1151.1451794024
  0
LINE
  5
2EE
100
AcDbEntity
  8
KONSTRUKTIONSELEMENTE
100
AcDbLine
 62
7
  6
CONTINUOUS
 10
611.9967430174
 20
1150.9451794024
 11
611.9967430174
 21
1151.1451794024
  0
LINE
  5
2EF
100
AcDbEntity
  8
KONSTRUKTIONSELEMENTE
100
AcDbLine
 62
7
  6
CONTINUOUS
 10
616.4328103861
 20
1150.9451794024
 11
616.4328103861
 21
1151.1451794024
  0
LINE
  5
2F0
100
AcDbEntity
  8
KONSTRUKTIONSELEMENTE
100
AcDbLine
 62
7
  6
CONTINUOUS
 10
617.2588302778
 20
1150.9451794024
 11
617.2588302778
 21
1151.1451794024
  0
LINE
  5
2F1
100
AcDbEntity
  8
KONSTRUKTIONSELEMENTE
100
AcDbLine
 62
7
  6
CONTINUOUS
 10
617.8018510954
 20
1150.9451794024
 11
617.8018510954
 21
1151.1451794024
  0
LINE
  5
2F2
100
AcDbEntity
  8
KONSTRUKTIONSELEMENTE
100
AcDbLine
 62
7
  6
CONTINUOUS
 10
618.1485488913
 20
1150.9451794024
 11
618.1485488913
 21
1151.1451794024
  0
LINE
  5
2F3
100
AcDbEntity
  8
KONSTRUKTIONSELEMENTE
100
AcDbLine
 62
7
  6
CONTINUOUS
 10
631.3226778349
 20
1150.9451794024
 11
631.3226778349
 21
1151.1451794024
  0
LINE
  5
2F4
100
AcDbEntity
  8
KONSTRUKTIONSELEMENTE
100
AcDbLine
 62
7
  6
CONTINUOUS
 10
632.4120568242
 20
1150.9451794024
 11
632.4120568242
 21
1151.1451794024
  0
LINE
  5
2F5
100
AcDbEntity
  8
KONSTRUKTIONSELEMENTE
100
AcDbLine
 62
7
  6
CONTINUOUS
 10
634.9539397473
 20
1150.9451794024
 11
634.9539397473
 21
1151.1451794024
  0
LINE
  5
2F6
100
AcDbEntity
  8
KONSTRUKTIONSELEMENTE
100
AcDbLine
 62
7
  6
CONTINUOUS
 10
636.4064478368
 20
1150.9451794024
 11
636.4064478368
 21
1151.1451794024
  0
LINE
  5
2F7
100
AcDbEntity
  8
KONSTRUKTIONSELEMENTE
100
AcDbLine
 62
7
  6
CONTINUOUS
 10
638.94833076
 20
1150.9451794024
 11
638.94833076
 21
1151.1451794024
  0
LINE
  5
2F8
100
AcDbEntity
  8
KONSTRUKTIONSELEMENTE
100
AcDbLine
 62
7
  6
CONTINUOUS
 10
640.0377097493
 20
1150.9451794024
 11
640.0377097493
 21
1151.1451794024
  0
LINE
  5
2F9
100
AcDbEntity
  8
0
100
AcDbLine
 62
7
  6
CONTINUOUS
 10
640.3820073205
 20
1305.4451794024
 11
640.3820073205
 21
1210.4451794024
  0
LINE
  5
2FA
100
AcDbEntity
  8
BEZUGSACHSEN
100
AcDbLine
 62
7
  6
CONTINUOUS
 10
315.6320073205
 20
965.9451794024
 11
310.6320073205
 21
960.9451794024
  0
LINE
  5
2FB
100
AcDbEntity
  8
BEZUGSACHSEN
100
AcDbLine
 62
7
  6
CONTINUOUS
 10
470.8307371313
 20
1147.5958144971
 11
476.6320073205
 21
1150.9451794024
  0
LINE
  5
2FC
100
AcDbEntity
  8
KONSTRUKTIONSELEMENTE
100
AcDbLine
 62
7
  6
CONTINUOUS
 10
643.7685324916
 20
1150.9451794024
 11
643.7685324916
 21
1151.1451794024
  0
LINE
  5
2FD
100
AcDbEntity
  8
KONSTRUKTIONSELEMENTE
100
AcDbLine
 62
7
  6
CONTINUOUS
 10
643.7982240585
 20
1150.9451794024
 11
643.7982240585
 21
1151.1451794024
  0
LINE
  5
2FE
100
AcDbEntity
  8
KONSTRUKTIONSELEMENTE
100
AcDbLine
 62
7
  6
CONTINUOUS
 10
644.4434506988
 20
1150.9451794024
 11
644.4434506988
 21
1151.1451794024
  0
LINE
  5
2FF
100
AcDbEntity
  8
KONSTRUKTIONSELEMENTE
100
AcDbLine
 62
7
  6
CONTINUOUS
 10
646.2506231881
 20
1150.9451794024
 11
646.2506231881
 21
1151.1451794024
  0
LINE
  5
300
100
AcDbEntity
  8
KONSTRUKTIONSELEMENTE
100
AcDbLine
 62
7
  6
CONTINUOUS
 10
646.3580370208
 20
1150.9451794024
 11
646.3580370208
 21
1151.1451794024
  0
LINE
  5
301
100
AcDbEntity
  8
KONSTRUKTIONSELEMENTE
100
AcDbLine
 62
7
  6
CONTINUOUS
 10
646.6595277687
 20
1150.9451794024
 11
646.6595277687
 21
1151.1451794024
  0
LINE
  5
302
100
AcDbEntity
  8
BEZUGSACHSEN
100
AcDbLine
 62
7
  6
CONTINUOUS
 10
647.0326424151
 20
1145.9451794024
 11
647.0326424151
 21
1147.5958144971
  0
LINE
  5
303
100
AcDbEntity
  8
KONSTRUKTIONSELEMENTE
100
AcDbLine
 62
7
  6
CONTINUOUS
 10
647.384976002
 20
1150.9451794024
 11
647.384976002
 21
1151.1451794024
  0
LINE
  5
304
100
AcDbEntity
  8
KONSTRUKTIONSELEMENTE
100
AcDbLine
 62
7
  6
CONTINUOUS
 10
648.0746197795
 20
1150.9451794024
 11
648.0746197795
 21
1151.1451794024
  0
LINE
  5
305
100
AcDbEntity
  8
KONSTRUKTIONSELEMENTE
100
AcDbLine
 62
7
  6
CONTINUOUS
 10
649.1703190471
 20
1150.9451794024
 11
649.1703190471
 21
1151.1451794024
  0
LINE
  5
306
100
AcDbEntity
  8
BEZUGSACHSEN
100
AcDbLine
 62
7
  6
CONTINUOUS
 10
649.3820073205
 20
1035.9451794024
 11
649.3820073205
 21
965.9451794024
  0
LINE
  5
307
100
AcDbEntity
  8
KONSTRUKTIONSELEMENTE
100
AcDbLine
 62
7
  6
CONTINUOUS
 10
649.806255834
 20
1150.9451794024
 11
649.806255834
 21
1151.1451794024
  0
LINE
  5
308
100
AcDbEntity
  8
KONSTRUKTIONSELEMENTE
100
AcDbLine
 62
7
  6
CONTINUOUS
 10
650.8303463015
 20
1150.9451794024
 11
650.8303463015
 21
1151.1451794024
  0
LINE
  5
309
100
AcDbEntity
  8
KONSTRUKTIONSELEMENTE
100
AcDbLine
 62
7
  6
CONTINUOUS
 10
651.3946737301
 20
1150.9451794024
 11
651.3946737301
 21
1151.1451794024
  0
LINE
  5
30A
100
AcDbEntity
  8
KONSTRUKTIONSELEMENTE
100
AcDbLine
 62
7
  6
CONTINUOUS
 10
651.5708481848
 20
1150.9451794024
 11
651.5708481848
 21
1151.1451794024
  0
LINE
  5
30B
100
AcDbEntity
  8
KONSTRUKTIONSELEMENTE
100
AcDbLine
 62
7
  6
CONTINUOUS
 10
651.818631588
 20
1150.9451794024
 11
651.818631588
 21
1151.1451794024
  0
LINE
  5
30C
100
AcDbEntity
  8
KONSTRUKTIONSELEMENTE
100
AcDbLine
 62
7
  6
CONTINUOUS
 10
652.5082752913
 20
1150.9451794024
 11
652.5082752913
 21
1151.1451794024
  0
LINE
  5
30D
100
AcDbEntity
  8
KONSTRUKTIONSELEMENTE
100
AcDbLine
 62
7
  6
CONTINUOUS
 10
653.3919958913
 20
1150.9451794024
 11
653.3919958913
 21
1151.1451794024
  0
LINE
  5
30E
100
AcDbEntity
  8
KONSTRUKTIONSELEMENTE
100
AcDbLine
 62
7
  6
CONTINUOUS
 10
654.0279326782
 20
1150.9451794024
 11
654.0279326782
 21
1151.1451794024
  0
LINE
  5
30F
100
AcDbEntity
  8
KONSTRUKTIONSELEMENTE
100
AcDbLine
 62
7
  6
CONTINUOUS
 10
655.0520230328
 20
1150.9451794024
 11
655.0520230328
 21
1151.1451794024
  0
LINE
  5
310
100
AcDbEntity
  8
KONSTRUKTIONSELEMENTE
100
AcDbLine
 62
7
  6
CONTINUOUS
 10
655.6342529034
 20
1150.9451794024
 11
655.6342529034
 21
1151.1451794024
  0
LINE
  5
311
100
AcDbEntity
  8
KONSTRUKTIONSELEMENTE
100
AcDbLine
 62
7
  6
CONTINUOUS
 10
656.1806782997
 20
1150.9451794024
 11
656.1806782997
 21
1151.1451794024
  0
LINE
  5
312
100
AcDbEntity
  8
KONSTRUKTIONSELEMENTE
100
AcDbLine
 62
7
  6
CONTINUOUS
 10
656.303145838
 20
1150.9451794024
 11
656.303145838
 21
1151.1451794024
  0
LINE
  5
313
100
AcDbEntity
  8
BEZUGSACHSEN
100
AcDbLine
 62
7
  6
CONTINUOUS
 10
668.6832775098
 20
1145.9451794024
 11
668.6832775098
 21
1147.5958144971
  0
LINE
  5
314
100
AcDbEntity
  8
0
100
AcDbLine
 62
7
  6
CONTINUOUS
 10
688.3820073205
 20
1035.9451794024
 11
688.3820073205
 21
1145.9451794024
  0
LINE
  5
315
100
AcDbEntity
  8
BEZUGSACHSEN
100
AcDbLine
 62
7
  6
CONTINUOUS
 10
582.0807371313
 20
1147.5958144971
 11
587.8820073205
 21
1150.9451794024
  0
LINE
  5
316
100
AcDbEntity
  8
BEZUGSACHSEN
100
AcDbLine
 62
7
  6
CONTINUOUS
 10
538.1320073205
 20
965.9451794024
 11
533.1320073205
 21
960.9451794024
  0
LINE
  5
317
100
AcDbEntity
  8
BEZUGSACHSEN
100
AcDbLine
 62
7
  6
CONTINUOUS
 10
649.3820073205
 20
965.9451794024
 11
644.3820073205
 21
960.9451794024
  0
LINE
  5
318
100
AcDbEntity
  8
BEZUGSACHSEN
100
AcDbLine
 62
7
  6
CONTINUOUS
 10
1016.4359873708
 20
960.9451794024
 11
1011.4359873708
 21
965.9451794024
  0
LINE
  5
319
100
AcDbEntity
  8
BEZUGSACHSEN
100
AcDbLine
 62
7
  6
CONTINUOUS
 10
1016.4359873708
 20
960.9451794024
 11
1054.4359873708
 21
960.9451794024
  0
LINE
  5
31A
100
AcDbEntity
  8
BEZUGSACHSEN
100
AcDbLine
 62
7
  6
CONTINUOUS
 10
1209.1266397128
 20
960.9451794024
 11
1247.1266397128
 21
960.9451794024
  0
LINE
  5
31B
100
AcDbEntity
  8
BEZUGSACHSEN
100
AcDbLine
 62
7
  6
CONTINUOUS
 10
1401.8172920549
 20
960.9451794024
 11
1439.8172920549
 21
960.9451794024
  0
LINE
  5
31C
100
AcDbEntity
  8
BEZUGSACHSEN
100
AcDbLine
 62
7
  6
CONTINUOUS
 10
1011.4359873708
 20
965.9451794024
 11
1059.4359873708
 21
965.9451794024
  0
LINE
  5
31D
100
AcDbEntity
  8
BEZUGSACHSEN
100
AcDbLine
 62
7
  6
CONTINUOUS
 10
1204.1266397128
 20
965.9451794024
 11
1252.1266397128
 21
965.9451794024
  0
LINE
  5
31E
100
AcDbEntity
  8
BEZUGSACHSEN
100
AcDbLine
 62
7
  6
CONTINUOUS
 10
1396.8172920549
 20
965.9451794024
 11
1444.8172920549
 21
965.9451794024
  0
LINE
  5
31F
100
AcDbEntity
  8
0
100
AcDbLine
 62
7
  6
CONTINUOUS
 10
942.6266720527
 20
1035.9451794024
 11
1513.626607373
 21
1035.9451794024
  0
LINE
  5
320
100
AcDbEntity
  8
BEZUGSACHSEN
100
AcDbLine
 62
7
  6
CONTINUOUS
 10
1209.1266397128
 20
960.9451794024
 11
1204.1266397128
 21
965.9451794024
  0
LINE
  5
321
100
AcDbEntity
  8
0
100
AcDbLine
 62
7
  6
CONTINUOUS
 10
942.6266397128
 20
1035.9451794024
 11
942.6266397128
 21
1145.9451794024
  0
LINE
  5
322
100
AcDbEntity
  8
BEZUGSACHSEN
100
AcDbLine
 62
7
  6
CONTINUOUS
 10
997.9359873708
 20
1145.9451794024
 11
997.9359873708
 21
1150.9451794054
  0
LINE
  5
323
100
AcDbEntity
  8
KONSTRUKTIONSELEMENTE
100
AcDbLine
 62
7
  6
CONTINUOUS
 10
1005.9674392762
 20
1150.9451794024
 11
1005.9674392762
 21
1151.1451794024
  0
LINE
  5
324
100
AcDbEntity
  8
KONSTRUKTIONSELEMENTE
100
AcDbLine
 62
7
  6
CONTINUOUS
 10
1007.2491615814
 20
1150.9451794024
 11
1007.2491615814
 21
1151.1451794024
  0
LINE
  5
325
100
AcDbEntity
  8
KONSTRUKTIONSELEMENTE
100
AcDbLine
 62
7
  6
CONTINUOUS
 10
1007.2560895577
 20
1150.9451794024
 11
1007.2560895577
 21
1151.1451794024
  0
LINE
  5
326
100
AcDbEntity
  8
KONSTRUKTIONSELEMENTE
100
AcDbLine
 62
7
  6
CONTINUOUS
 10
1007.5479035556
 20
1150.9451794024
 11
1007.5479035556
 21
1151.1451794024
  0
LINE
  5
327
100
AcDbEntity
  8
KONSTRUKTIONSELEMENTE
100
AcDbLine
 62
7
  6
CONTINUOUS
 10
1009.8546992338
 20
1150.9451794024
 11
1009.8546992338
 21
1151.1451794024
  0
LINE
  5
328
100
AcDbEntity
  8
BEZUGSACHSEN
100
AcDbLine
 62
7
  6
CONTINUOUS
 10
1011.4359873708
 20
965.9451794024
 11
1011.4359873708
 21
1035.9451794024
  0
LINE
  5
329
100
AcDbEntity
  8
KONSTRUKTIONSELEMENTE
100
AcDbLine
 62
7
  6
CONTINUOUS
 10
1014.030269475
 20
1150.9451794024
 11
1014.030269475
 21
1151.1451794024
  0
LINE
  5
32A
100
AcDbEntity
  8
KONSTRUKTIONSELEMENTE
100
AcDbLine
 62
7
  6
CONTINUOUS
 10
1015.0366679358
 20
1150.9451794024
 11
1015.0366679358
 21
1151.1451794024
  0
LINE
  5
32B
100
AcDbEntity
  8
KONSTRUKTIONSELEMENTE
100
AcDbLine
 62
7
  6
CONTINUOUS
 10
1018.9486940154
 20
1150.9451794024
 11
1018.9486940154
 21
1151.1451794024
  0
LINE
  5
32C
100
AcDbEntity
  8
KONSTRUKTIONSELEMENTE
100
AcDbLine
 62
7
  6
CONTINUOUS
 10
1019.0622617794
 20
1150.9451794024
 11
1019.0622617794
 21
1151.1451794024
  0
LINE
  5
32D
100
AcDbEntity
  8
KONSTRUKTIONSELEMENTE
100
AcDbLine
 62
7
  6
CONTINUOUS
 10
1020.0686607202
 20
1150.9451794024
 11
1020.0686607202
 21
1151.1451794024
  0
LINE
  5
32E
100
AcDbEntity
  8
KONSTRUKTIONSELEMENTE
100
AcDbLine
 62
7
  6
CONTINUOUS
 10
1023.9806867997
 20
1150.9451794024
 11
1023.9806867997
 21
1151.1451794024
  0
LINE
  5
32F
100
AcDbEntity
  8
KONSTRUKTIONSELEMENTE
100
AcDbLine
 62
7
  6
CONTINUOUS
 10
1024.4439252657
 20
1150.9451794024
 11
1024.4439252657
 21
1151.1451794024
  0
LINE
  5
330
100
AcDbEntity
  8
KONSTRUKTIONSELEMENTE
100
AcDbLine
 62
7
  6
CONTINUOUS
 10
1024.6132365308
 20
1150.9451794024
 11
1024.6132365308
 21
1151.1451794024
  0
LINE
  5
331
100
AcDbEntity
  8
KONSTRUKTIONSELEMENTE
100
AcDbLine
 62
7
  6
CONTINUOUS
 10
1025.3099119128
 20
1150.9451794024
 11
1025.3099119128
 21
1151.1451794024
  0
LINE
  5
332
100
AcDbEntity
  8
KONSTRUKTIONSELEMENTE
100
AcDbLine
 62
7
  6
CONTINUOUS
 10
1026.3805110828
 20
1150.9451794024
 11
1026.3805110828
 21
1151.1451794024
  0
LINE
  5
333
100
AcDbEntity
  8
KONSTRUKTIONSELEMENTE
100
AcDbLine
 62
7
  6
CONTINUOUS
 10
1026.467277734
 20
1150.9451794024
 11
1026.467277734
 21
1151.1451794024
  0
LINE
  5
334
100
AcDbEntity
  8
KONSTRUKTIONSELEMENTE
100
AcDbLine
 62
7
  6
CONTINUOUS
 10
1026.9217371527
 20
1150.9451794024
 11
1026.9217371527
 21
1151.1451794024
  0
LINE
  5
335
100
AcDbEntity
  8
KONSTRUKTIONSELEMENTE
100
AcDbLine
 62
7
  6
CONTINUOUS
 10
1027.6207073203
 20
1150.9451794024
 11
1027.6207073203
 21
1151.1451794024
  0
LINE
  5
336
100
AcDbEntity
  8
KONSTRUKTIONSELEMENTE
100
AcDbLine
 62
7
  6
CONTINUOUS
 10
1028.6040564526
 20
1150.9451794024
 11
1028.6040564526
 21
1151.1451794024
  0
LINE
  5
337
100
AcDbEntity
  8
0
100
AcDbLine
 62
7
  6
CONTINUOUS
 10
942.6266720527
 20
1145.9451794024
 11
1513.626607373
 21
1145.9451794024
  0
LINE
  5
338
100
AcDbEntity
  8
BEZUGSACHSEN
100
AcDbLine
 62
7
  6
CONTINUOUS
 10
997.9359873789
 20
1150.9451794024
 11
1072.9359873627
 21
1150.9451794024
  0
LINE
  5
339
100
AcDbEntity
  8
BEZUGSACHSEN
100
AcDbLine
 62
7
  6
CONTINUOUS
 10
1190.6266397209
 20
1150.9451794024
 11
1265.6266397048
 21
1150.9451794024
  0
LINE
  5
33A
100
AcDbEntity
  8
BEZUGSACHSEN
100
AcDbLine
 62
7
  6
CONTINUOUS
 10
1383.317292063
 20
1150.9451794024
 11
1458.3172920468
 21
1150.9451794024
  0
LINE
  5
33B
100
AcDbEntity
  8
KONSTRUKTIONSELEMENTE
100
AcDbLine
 62
7
  6
CONTINUOUS
 10
1005.9674392762
 20
1151.1451794024
 11
1037.1481655842
 21
1151.1451794024
  0
LINE
  5
33C
100
AcDbEntity
  8
KONSTRUKTIONSELEMENTE
100
AcDbLine
 62
7
  6
CONTINUOUS
 10
1198.6580916183
 20
1151.1451794024
 11
1229.8388179262
 21
1151.1451794024
  0
LINE
  5
33D
100
AcDbEntity
  8
KONSTRUKTIONSELEMENTE
100
AcDbLine
 62
7
  6
CONTINUOUS
 10
1391.3487439603
 20
1151.1451794024
 11
1422.5294702683
 21
1151.1451794024
  0
LINE
  5
33E
100
AcDbEntity
  8
KONSTRUKTIONSELEMENTE
100
AcDbLine
 62
7
  6
CONTINUOUS
 10
1033.5154959769
 20
1150.9451794024
 11
1033.5154959769
 21
1151.1451794024
  0
LINE
  5
33F
100
AcDbEntity
  8
KONSTRUKTIONSELEMENTE
100
AcDbLine
 62
7
  6
CONTINUOUS
 10
1035.3892748312
 20
1150.9451794024
 11
1035.3892748312
 21
1151.1451794024
  0
LINE
  5
340
100
AcDbEntity
  8
BEZUGSACHSEN
100
AcDbLine
 62
7
  6
CONTINUOUS
 10
1035.4359873708
 20
1145.9451794024
 11
1035.4359873708
 21
1147.5958144971
  0
LINE
  5
341
100
AcDbEntity
  8
KONSTRUKTIONSELEMENTE
100
AcDbLine
 62
7
  6
CONTINUOUS
 10
1036.2566191839
 20
1150.9451794024
 11
1036.2566191839
 21
1151.1451794024
  0
LINE
  5
342
100
AcDbEntity
  8
KONSTRUKTIONSELEMENTE
100
AcDbLine
 62
7
  6
CONTINUOUS
 10
1036.8244577454
 20
1150.9451794024
 11
1036.8244577454
 21
1151.1451794024
  0
LINE
  5
343
100
AcDbEntity
  8
KONSTRUKTIONSELEMENTE
100
AcDbLine
 62
7
  6
CONTINUOUS
 10
1037.1481655842
 20
1150.9451794024
 11
1037.1481655842
 21
1151.1451794024
  0
LINE
  5
344
100
AcDbEntity
  8
BEZUGSACHSEN
100
AcDbLine
 62
7
  6
CONTINUOUS
 10
1059.4359873708
 20
965.9451794024
 11
1059.4359873708
 21
1035.9451794024
  0
LINE
  5
345
100
AcDbEntity
  8
BEZUGSACHSEN
100
AcDbLine
 62
7
  6
CONTINUOUS
 10
1401.8172920549
 20
960.9451794024
 11
1396.8172920549
 21
965.9451794024
  0
LINE
  5
346
100
AcDbEntity
  8
BEZUGSACHSEN
100
AcDbLine
 62
7
  6
CONTINUOUS
 10
1072.9359873708
 20
1145.9451794024
 11
1072.9359873708
 21
1150.9451794054
  0
LINE
  5
347
100
AcDbEntity
  8
0
100
AcDbLine
 62
7
  6
CONTINUOUS
 10
1085.1266397128
 20
1239.9451794024
 11
1085.1266397128
 21
1145.9451794024
  0
LINE
  5
348
100
AcDbEntity
  8
0
100
AcDbLine
 62
7
  6
CONTINUOUS
 10
1103.4310102786
 20
1239.9451794024
 11
1103.4310102786
 21
1145.9451794024
  0
LINE
  5
349
100
AcDbEntity
  8
0
100
AcDbLine
 62
7
  6
CONTINUOUS
 10
1181.1774051442
 20
1726.9498283881
 11
1181.2201485853
 21
1726.0443905782
  0
LINE
  5
34A
100
AcDbEntity
  8
0
100
AcDbLine
 62
7
  6
CONTINUOUS
 10
1181.2091977713
 20
1726.2868233319
 11
1181.2563074153
 21
1725.1937855254
  0
LINE
  5
34B
100
AcDbEntity
  8
0
100
AcDbLine
 62
7
  6
CONTINUOUS
 10
1181.2436999408
 20
1725.4990064508
 11
1181.2948858601
 21
1724.2039312314
  0
LINE
  5
34C
100
AcDbEntity
  8
0
100
AcDbLine
 62
7
  6
CONTINUOUS
 10
1181.2814004713
 20
1724.5596025392
 11
1181.3497574235
 21
1722.6518829372
  0
LINE
  5
34D
100
AcDbEntity
  8
0
100
AcDbLine
 62
7
  6
CONTINUOUS
 10
1181.3493843285
 20
1722.6630796533
 11
1181.407655648
 21
1720.8314904599
  0
LINE
  5
34E
100
AcDbEntity
  8
0
100
AcDbLine
 62
7
  6
CONTINUOUS
 10
1181.4072757208
 20
1720.8440909325
 11
1181.4677561492
 21
1718.7421658773
  0
LINE
  5
34F
100
AcDbEntity
  8
0
100
AcDbLine
 62
7
  6
CONTINUOUS
 10
1181.4673759296
 20
1718.7560237105
 11
1181.5295025333
 21
1716.3808230252
  0
LINE
  5
350
100
AcDbEntity
  8
0
100
AcDbLine
 62
7
  6
CONTINUOUS
 10
1181.529125619
 20
1716.3958418152
 11
1181.5926214941
 21
1713.7376318227
  0
LINE
  5
351
100
AcDbEntity
  8
0
100
AcDbLine
 62
7
  6
CONTINUOUS
 10
1181.5922501996
 20
1713.7537334003
 11
1181.6727857269
 21
1710.0377074444
  0
LINE
  5
352
100
AcDbEntity
  8
0
100
AcDbLine
 62
7
  6
CONTINUOUS
 10
1181.6727857269
 20
1710.0377074444
 11
1181.7548428388
 21
1705.8411573776
  0
LINE
  5
353
100
AcDbEntity
  8
0
100
AcDbLine
 62
7
  6
CONTINUOUS
 10
1181.7548428388
 20
1705.8411573776
 11
1181.8381699347
 21
1701.1405503937
  0
LINE
  5
354
100
AcDbEntity
  8
0
100
AcDbLine
 62
7
  6
CONTINUOUS
 10
1181.8381699347
 20
1701.1405503937
 11
1181.9226580026
 21
1695.9052314742
  0
LINE
  5
355
100
AcDbEntity
  8
0
100
AcDbLine
 62
7
  6
CONTINUOUS
 10
1181.9226580026
 20
1695.9052314742
 11
1182.0082922048
 21
1690.0970941517
  0
LINE
  5
356
100
AcDbEntity
  8
0
100
AcDbLine
 62
7
  6
CONTINUOUS
 10
1182.0082922048
 20
1690.0970941517
 11
1182.0950451789
 21
1683.67588344
  0
LINE
  5
357
100
AcDbEntity
  8
0
100
AcDbLine
 62
7
  6
CONTINUOUS
 10
1182.0950451789
 20
1683.67588344
 11
1182.1828714791
 21
1676.5997498741
  0
LINE
  5
358
100
AcDbEntity
  8
0
100
AcDbLine
 62
7
  6
CONTINUOUS
 10
1182.1828714791
 20
1676.5997498741
 11
1182.2717347413
 21
1668.8230267124
  0
LINE
  5
359
100
AcDbEntity
  8
0
100
AcDbLine
 62
7
  6
CONTINUOUS
 10
1182.2717347413
 20
1668.8230267124
 11
1182.3615710368
 21
1660.2990587498
  0
LINE
  5
35A
100
AcDbEntity
  8
0
100
AcDbLine
 62
7
  6
CONTINUOUS
 10
1182.3615710368
 20
1660.2990587498
 11
1182.4522692178
 21
1650.9827675185
  0
LINE
  5
35B
100
AcDbEntity
  8
0
100
AcDbLine
 62
7
  6
CONTINUOUS
 10
1182.4522692178
 20
1650.9827675185
 11
1182.5437421963
 21
1640.8237254529
  0
LINE
  5
35C
100
AcDbEntity
  8
0
100
AcDbLine
 62
7
  6
CONTINUOUS
 10
1182.5437421963
 20
1640.8237254529
 11
1182.6358893309
 21
1629.7689747617
  0
LINE
  5
35D
100
AcDbEntity
  8
0
100
AcDbLine
 62
7
  6
CONTINUOUS
 10
1182.6358893309
 20
1629.7689747617
 11
1182.7470947101
 21
1615.2551771176
  0
LINE
  5
35E
100
AcDbEntity
  8
0
100
AcDbLine
 62
7
  6
CONTINUOUS
 10
1182.7470947101
 20
1615.2551771176
 11
1182.8400709402
 21
1602.0614353718
  0
LINE
  5
35F
100
AcDbEntity
  8
0
100
AcDbLine
 62
7
  6
CONTINUOUS
 10
1182.8400709402
 20
1602.0614353718
 11
1182.9330072427
 21
1587.8275161835
  0
LINE
  5
360
100
AcDbEntity
  8
0
100
AcDbLine
 62
7
  6
CONTINUOUS
 10
1182.9330072427
 20
1587.8275161835
 11
1183.0255099324
 21
1572.5268619586
  0
LINE
  5
361
100
AcDbEntity
  8
0
100
AcDbLine
 62
7
  6
CONTINUOUS
 10
1183.0255099324
 20
1572.5268619586
 11
1183.1351800426
 21
1552.7521896391
  0
LINE
  5
362
100
AcDbEntity
  8
0
100
AcDbLine
 62
7
  6
CONTINUOUS
 10
1183.1351800426
 20
1552.7521896391
 11
1183.2422453404
 21
1531.4734158575
  0
LINE
  5
363
100
AcDbEntity
  8
0
100
AcDbLine
 62
7
  6
CONTINUOUS
 10
1183.2422453404
 20
1531.4734158575
 11
1183.3281990865
 21
1512.6950308554
  0
LINE
  5
364
100
AcDbEntity
  8
0
100
AcDbLine
 62
7
  6
CONTINUOUS
 10
1183.3281990865
 20
1512.6950308554
 11
1183.393080018
 21
1497.2809796695
  0
LINE
  5
365
100
AcDbEntity
  8
0
100
AcDbLine
 62
7
  6
CONTINUOUS
 10
1183.3930800174
 20
1497.2809798188
 11
1183.4371014913
 21
1485.7055348723
  0
LINE
  5
366
100
AcDbEntity
  8
0
100
AcDbLine
 62
7
  6
CONTINUOUS
 10
1183.4371014913
 20
1485.7055348723
 11
1183.4769886022
 21
1473.7499056222
  0
LINE
  5
367
100
AcDbEntity
  8
0
100
AcDbLine
 62
7
  6
CONTINUOUS
 10
1183.4769886022
 20
1473.7499056222
 11
1183.5121590243
 21
1461.5843510798
  0
LINE
  5
368
100
AcDbEntity
  8
0
100
AcDbLine
 62
7
  6
CONTINUOUS
 10
1183.5121590243
 20
1461.5843510798
 11
1183.5426157224
 21
1449.2351790237
  0
LINE
  5
369
100
AcDbEntity
  8
0
100
AcDbLine
 62
7
  6
CONTINUOUS
 10
1183.5426157224
 20
1449.2351790237
 11
1183.5683624805
 21
1436.7290896925
  0
LINE
  5
36A
100
AcDbEntity
  8
0
100
AcDbLine
 62
7
  6
CONTINUOUS
 10
1183.5683624805
 20
1436.7290896925
 11
1183.589403952
 21
1424.0931093707
  0
LINE
  5
36B
100
AcDbEntity
  8
0
100
AcDbLine
 62
7
  6
CONTINUOUS
 10
1183.589403952
 20
1424.0931093707
 11
1183.6057457395
 21
1411.3544548686
  0
LINE
  5
36C
100
AcDbEntity
  8
0
100
AcDbLine
 62
7
  6
CONTINUOUS
 10
1183.6057457395
 20
1411.3544548686
 11
1183.6173941675
 21
1398.5405463006
  0
LINE
  5
36D
100
AcDbEntity
  8
0
100
AcDbLine
 62
7
  6
CONTINUOUS
 10
1183.6173941675
 20
1398.5405463006
 11
1183.6243562123
 21
1385.67895158
  0
LINE
  5
36E
100
AcDbEntity
  8
0
100
AcDbLine
 62
7
  6
CONTINUOUS
 10
1183.6243562123
 20
1385.67895158
 11
1183.6266397128
 21
1362.0412907414
  0
LINE
  5
36F
100
AcDbEntity
  8
BEZUGSACHSEN
100
AcDbLine
 62
7
  6
CONTINUOUS
 10
1190.6266397128
 20
1145.9451794024
 11
1190.6266397128
 21
1150.9451794054
  0
LINE
  5
370
100
AcDbEntity
  8
KONSTRUKTIONSELEMENTE
100
AcDbLine
 62
7
  6
CONTINUOUS
 10
1198.6580916183
 20
1150.9451794024
 11
1198.6580916183
 21
1151.1451794024
  0
LINE
  5
371
100
AcDbEntity
  8
0
100
AcDbLine
 62
7
  6
CONTINUOUS
 10
1181.1020237933
 20
1728.2373169538
 11
1181.1040273845
 21
1728.2108665933
  0
LINE
  5
372
100
AcDbEntity
  8
0
100
AcDbLine
 62
7
  6
CONTINUOUS
 10
1181.1040273845
 20
1728.2108665933
 11
1181.1105556934
 21
1728.1188241437
  0
LINE
  5
373
100
AcDbEntity
  8
0
100
AcDbLine
 62
7
  6
CONTINUOUS
 10
1181.1105556934
 20
1728.1188241437
 11
1181.1207767391
 21
1727.9638449483
  0
LINE
  5
374
100
AcDbEntity
  8
0
100
AcDbLine
 62
7
  6
CONTINUOUS
 10
1181.1207767391
 20
1727.9638449483
 11
1181.1416419784
 21
1727.617693259
  0
LWPOLYLINE
  5
375
100
AcDbEntity
  8
0
100
AcDbPolyline
 62
7
  6
CONTINUOUS
 90
3
 70
0
 10
1181.1416419784
 20
1727.617693259
 10
1181.1677404337
 20
1727.1387962584
 10
1181.1774051442
 20
1726.9498283881
  0
LINE
  5
376
100
AcDbEntity
  8
KONSTRUKTIONSELEMENTE
100
AcDbLine
 62
7
  6
CONTINUOUS
 10
1199.9398139234
 20
1150.9451794024
 11
1199.9398139234
 21
1151.1451794024
  0
LINE
  5
377
100
AcDbEntity
  8
KONSTRUKTIONSELEMENTE
100
AcDbLine
 62
7
  6
CONTINUOUS
 10
1199.9467418997
 20
1150.9451794024
 11
1199.9467418997
 21
1151.1451794024
  0
LINE
  5
378
100
AcDbEntity
  8
KONSTRUKTIONSELEMENTE
100
AcDbLine
 62
7
  6
CONTINUOUS
 10
1200.2385558977
 20
1150.9451794024
 11
1200.2385558977
 21
1151.1451794024
  0
LINE
  5
379
100
AcDbEntity
  8
KONSTRUKTIONSELEMENTE
100
AcDbLine
 62
7
  6
CONTINUOUS
 10
1202.5453515759
 20
1150.9451794024
 11
1202.5453515759
 21
1151.1451794024
  0
LINE
  5
37A
100
AcDbEntity
  8
BEZUGSACHSEN
100
AcDbLine
 62
7
  6
CONTINUOUS
 10
1204.1266397128
 20
965.9451794024
 11
1204.1266397128
 21
1035.9451794024
  0
LINE
  5
37B
100
AcDbEntity
  8
KONSTRUKTIONSELEMENTE
100
AcDbLine
 62
7
  6
CONTINUOUS
 10
1206.720921817
 20
1150.9451794024
 11
1206.720921817
 21
1151.1451794024
  0
LINE
  5
37C
100
AcDbEntity
  8
KONSTRUKTIONSELEMENTE
100
AcDbLine
 62
7
  6
CONTINUOUS
 10
1207.7273202779
 20
1150.9451794024
 11
1207.7273202779
 21
1151.1451794024
  0
LINE
  5
37D
100
AcDbEntity
  8
KONSTRUKTIONSELEMENTE
100
AcDbLine
 62
7
  6
CONTINUOUS
 10
1211.6393463574
 20
1150.9451794024
 11
1211.6393463574
 21
1151.1451794024
  0
LINE
  5
37E
100
AcDbEntity
  8
KONSTRUKTIONSELEMENTE
100
AcDbLine
 62
7
  6
CONTINUOUS
 10
1211.7529141214
 20
1150.9451794024
 11
1211.7529141214
 21
1151.1451794024
  0
LINE
  5
37F
100
AcDbEntity
  8
KONSTRUKTIONSELEMENTE
100
AcDbLine
 62
7
  6
CONTINUOUS
 10
1212.7593130622
 20
1150.9451794024
 11
1212.7593130622
 21
1151.1451794024
  0
LINE
  5
380
100
AcDbEntity
  8
KONSTRUKTIONSELEMENTE
100
AcDbLine
 62
7
  6
CONTINUOUS
 10
1216.6713391417
 20
1150.9451794024
 11
1216.6713391417
 21
1151.1451794024
  0
LINE
  5
381
100
AcDbEntity
  8
KONSTRUKTIONSELEMENTE
100
AcDbLine
 62
7
  6
CONTINUOUS
 10
1217.1345776078
 20
1150.9451794024
 11
1217.1345776078
 21
1151.1451794024
  0
LINE
  5
382
100
AcDbEntity
  8
KONSTRUKTIONSELEMENTE
100
AcDbLine
 62
7
  6
CONTINUOUS
 10
1217.3038888728
 20
1150.9451794024
 11
1217.3038888728
 21
1151.1451794024
  0
LINE
  5
383
100
AcDbEntity
  8
KONSTRUKTIONSELEMENTE
100
AcDbLine
 62
7
  6
CONTINUOUS
 10
1218.0005642549
 20
1150.9451794024
 11
1218.0005642549
 21
1151.1451794024
  0
LINE
  5
384
100
AcDbEntity
  8
KONSTRUKTIONSELEMENTE
100
AcDbLine
 62
7
  6
CONTINUOUS
 10
1219.0711634248
 20
1150.9451794024
 11
1219.0711634248
 21
1151.1451794024
  0
LINE
  5
385
100
AcDbEntity
  8
KONSTRUKTIONSELEMENTE
100
AcDbLine
 62
7
  6
CONTINUOUS
 10
1219.157930076
 20
1150.9451794024
 11
1219.157930076
 21
1151.1451794024
  0
LINE
  5
386
100
AcDbEntity
  8
KONSTRUKTIONSELEMENTE
100
AcDbLine
 62
7
  6
CONTINUOUS
 10
1219.6123894948
 20
1150.9451794024
 11
1219.6123894948
 21
1151.1451794024
  0
LINE
  5
387
100
AcDbEntity
  8
KONSTRUKTIONSELEMENTE
100
AcDbLine
 62
7
  6
CONTINUOUS
 10
1220.3113596623
 20
1150.9451794024
 11
1220.3113596623
 21
1151.1451794024
  0
LINE
  5
388
100
AcDbEntity
  8
KONSTRUKTIONSELEMENTE
100
AcDbLine
 62
7
  6
CONTINUOUS
 10
1221.2947087946
 20
1150.9451794024
 11
1221.2947087946
 21
1151.1451794024
  0
LINE
  5
389
100
AcDbEntity
  8
KONSTRUKTIONSELEMENTE
100
AcDbLine
 62
7
  6
CONTINUOUS
 10
1226.206148319
 20
1150.9451794024
 11
1226.206148319
 21
1151.1451794024
  0
LINE
  5
38A
100
AcDbEntity
  8
KONSTRUKTIONSELEMENTE
100
AcDbLine
 62
7
  6
CONTINUOUS
 10
1228.0799271732
 20
1150.9451794024
 11
1228.0799271732
 21
1151.1451794024
  0
LINE
  5
38B
100
AcDbEntity
  8
BEZUGSACHSEN
100
AcDbLine
 62
7
  6
CONTINUOUS
 10
1228.1266397128
 20
1145.9451794024
 11
1228.1266397128
 21
1147.5958144971
  0
LINE
  5
38C
100
AcDbEntity
  8
KONSTRUKTIONSELEMENTE
100
AcDbLine
 62
7
  6
CONTINUOUS
 10
1228.9472715259
 20
1150.9451794024
 11
1228.9472715259
 21
1151.1451794024
  0
LINE
  5
38D
100
AcDbEntity
  8
KONSTRUKTIONSELEMENTE
100
AcDbLine
 62
7
  6
CONTINUOUS
 10
1229.5151100875
 20
1150.9451794024
 11
1229.5151100875
 21
1151.1451794024
  0
LINE
  5
38E
100
AcDbEntity
  8
KONSTRUKTIONSELEMENTE
100
AcDbLine
 62
7
  6
CONTINUOUS
 10
1229.8388179262
 20
1150.9451794024
 11
1229.8388179262
 21
1151.1451794024
  0
LINE
  5
38F
100
AcDbEntity
  8
BEZUGSACHSEN
100
AcDbLine
 62
7
  6
CONTINUOUS
 10
1252.1266397128
 20
965.9451794024
 11
1252.1266397128
 21
1035.9451794024
  0
LINE
  5
390
100
AcDbEntity
  8
BEZUGSACHSEN
100
AcDbLine
 62
7
  6
CONTINUOUS
 10
1265.6266397128
 20
1145.9451794024
 11
1265.6266397128
 21
1150.9451794054
  0
LINE
  5
391
100
AcDbEntity
  8
0
100
AcDbLine
 62
7
  6
CONTINUOUS
 10
1274.7351265239
 20
1716.8313163446
 11
1274.8104106524
 21
1719.6321893623
  0
LINE
  5
392
100
AcDbEntity
  8
0
100
AcDbLine
 62
7
  6
CONTINUOUS
 10
1274.8104106524
 20
1719.6321893623
 11
1274.8683693037
 21
1721.5691051678
  0
LINE
  5
393
100
AcDbEntity
  8
0
100
AcDbLine
 62
7
  6
CONTINUOUS
 10
1274.8683693037
 20
1721.5691051678
 11
1274.923820365
 21
1723.2457480843
  0
LINE
  5
394
100
AcDbEntity
  8
0
100
AcDbLine
 62
7
  6
CONTINUOUS
 10
1274.923820365
 20
1723.2457480843
 11
1274.9886893812
 21
1724.9884714267
  0
LINE
  5
395
100
AcDbEntity
  8
0
100
AcDbLine
 62
7
  6
CONTINUOUS
 10
1274.9886893812
 20
1724.9884714267
 11
1275.0360575429
 21
1726.109898365
  0
LINE
  5
396
100
AcDbEntity
  8
0
100
AcDbLine
 62
7
  6
CONTINUOUS
 10
1275.0360575429
 20
1726.109898365
 11
1275.0682465271
 21
1726.796474038
  0
LINE
  5
397
100
AcDbEntity
  8
0
100
AcDbLine
 62
7
  6
CONTINUOUS
 10
1275.0682465271
 20
1726.796474038
 11
1275.0968593718
 21
1727.3523131677
  0
LINE
  5
398
100
AcDbEntity
  8
0
100
AcDbLine
 62
7
  6
CONTINUOUS
 10
1275.0968593718
 20
1727.3523131677
 11
1275.1209769551
 21
1727.7770590792
  0
LINE
  5
399
100
AcDbEntity
  8
0
100
AcDbLine
 62
7
  6
CONTINUOUS
 10
1275.1209769551
 20
1727.7770590792
 11
1275.133924619
 21
1727.9860575594
  0
LINE
  5
39A
100
AcDbEntity
  8
0
100
AcDbLine
 62
7
  6
CONTINUOUS
 10
1275.133924619
 20
1727.9860575594
 11
1275.1437556227
 21
1728.1338015211
  0
LINE
  5
39B
100
AcDbEntity
  8
0
100
AcDbLine
 62
7
  6
CONTINUOUS
 10
1275.1437556227
 20
1728.1338015211
 11
1275.1491082293
 21
1728.2089211342
  0
LINE
  5
39C
100
AcDbEntity
  8
0
100
AcDbLine
 62
7
  6
CONTINUOUS
 10
1272.6266397128
 20
1362.0412907414
 11
1272.6289232134
 21
1385.67895158
  0
LINE
  5
39D
100
AcDbEntity
  8
0
100
AcDbLine
 62
7
  6
CONTINUOUS
 10
1272.6289232134
 20
1385.67895158
 11
1272.6358852582
 21
1398.5405463006
  0
LINE
  5
39E
100
AcDbEntity
  8
0
100
AcDbLine
 62
7
  6
CONTINUOUS
 10
1272.6358852582
 20
1398.5405463006
 11
1272.6475336862
 21
1411.3544548686
  0
LINE
  5
39F
100
AcDbEntity
  8
0
100
AcDbLine
 62
7
  6
CONTINUOUS
 10
1272.6475336862
 20
1411.3544548686
 11
1272.6638754737
 21
1424.0931093707
  0
LINE
  5
3A0
100
AcDbEntity
  8
0
100
AcDbLine
 62
7
  6
CONTINUOUS
 10
1272.6638754737
 20
1424.0931093707
 11
1272.6849169452
 21
1436.7290896925
  0
LINE
  5
3A1
100
AcDbEntity
  8
0
100
AcDbLine
 62
7
  6
CONTINUOUS
 10
1272.6849169452
 20
1436.7290896925
 11
1272.7106637033
 21
1449.2351790237
  0
LINE
  5
3A2
100
AcDbEntity
  8
0
100
AcDbLine
 62
7
  6
CONTINUOUS
 10
1272.7106637033
 20
1449.2351790237
 11
1272.7411204014
 21
1461.5843510798
  0
LINE
  5
3A3
100
AcDbEntity
  8
0
100
AcDbLine
 62
7
  6
CONTINUOUS
 10
1272.7411204014
 20
1461.5843510798
 11
1272.7762908235
 21
1473.7499056222
  0
LINE
  5
3A4
100
AcDbEntity
  8
0
100
AcDbLine
 62
7
  6
CONTINUOUS
 10
1272.7762908235
 20
1473.7499056222
 11
1272.8161779344
 21
1485.7055348723
  0
LINE
  5
3A5
100
AcDbEntity
  8
0
100
AcDbLine
 62
7
  6
CONTINUOUS
 10
1272.8161779344
 20
1485.7055348723
 11
1272.8754686038
 21
1501.0190379367
  0
LINE
  5
3A6
100
AcDbEntity
  8
0
100
AcDbLine
 62
7
  6
CONTINUOUS
 10
1272.8754686038
 20
1501.0190379367
 11
1272.9918489255
 21
1527.4250828468
  0
LINE
  5
3A7
100
AcDbEntity
  8
0
100
AcDbLine
 62
7
  6
CONTINUOUS
 10
1272.9918489255
 20
1527.4250828468
 11
1273.0969524119
 21
1548.7146013352
  0
LINE
  5
3A8
100
AcDbEntity
  8
0
100
AcDbLine
 62
7
  6
CONTINUOUS
 10
1273.0969524119
 20
1548.7146013352
 11
1273.2048641056
 21
1568.5502181474
  0
LINE
  5
3A9
100
AcDbEntity
  8
0
100
AcDbLine
 62
7
  6
CONTINUOUS
 10
1273.2048641056
 20
1568.5502181474
 11
1273.3143687081
 21
1586.8859346369
  0
LINE
  5
3AA
100
AcDbEntity
  8
0
100
AcDbLine
 62
7
  6
CONTINUOUS
 10
1273.3143687081
 20
1586.8859346369
 11
1273.4061513402
 21
1601.0183404793
  0
LINE
  5
3AB
100
AcDbEntity
  8
0
100
AcDbLine
 62
7
  6
CONTINUOUS
 10
1273.4061513402
 20
1601.0183404793
 11
1273.4980009651
 21
1614.1337843021
  0
LINE
  5
3AC
100
AcDbEntity
  8
0
100
AcDbLine
 62
7
  6
CONTINUOUS
 10
1273.4980009651
 20
1614.1337843021
 11
1273.5896100182
 21
1626.2668914225
  0
LINE
  5
3AD
100
AcDbEntity
  8
0
100
AcDbLine
 62
7
  6
CONTINUOUS
 10
1273.5896100182
 20
1626.2668914225
 11
1273.69896642
 21
1639.5983228411
  0
LINE
  5
3AE
100
AcDbEntity
  8
0
100
AcDbLine
 62
7
  6
CONTINUOUS
 10
1273.69896642
 20
1639.5983228411
 11
1273.7894074004
 21
1649.7374810191
  0
LINE
  5
3AF
100
AcDbEntity
  8
0
100
AcDbLine
 62
7
  6
CONTINUOUS
 10
1273.7894074004
 20
1649.7374810191
 11
1273.8791072227
 21
1659.0482505087
  0
LINE
  5
3B0
100
AcDbEntity
  8
0
100
AcDbLine
 62
7
  6
CONTINUOUS
 10
1273.8791072227
 20
1659.0482505087
 11
1273.9679870581
 21
1667.5800938797
  0
LINE
  5
3B1
100
AcDbEntity
  8
0
100
AcDbLine
 62
7
  6
CONTINUOUS
 10
1273.9679870581
 20
1667.5800938797
 11
1274.0559244014
 21
1675.375353813
  0
LINE
  5
3B2
100
AcDbEntity
  8
0
100
AcDbLine
 62
7
  6
CONTINUOUS
 10
1274.0559244014
 20
1675.375353813
 11
1274.1428353499
 21
1682.4777960224
  0
LINE
  5
3B3
100
AcDbEntity
  8
0
100
AcDbLine
 62
7
  6
CONTINUOUS
 10
1274.1428353499
 20
1682.4777960224
 11
1274.228677698
 21
1688.9318786781
  0
LINE
  5
3B4
100
AcDbEntity
  8
0
100
AcDbLine
 62
7
  6
CONTINUOUS
 10
1274.228677698
 20
1688.9318786781
 11
1274.3134397598
 21
1694.781060664
  0
LINE
  5
3B5
100
AcDbEntity
  8
0
100
AcDbLine
 62
7
  6
CONTINUOUS
 10
1274.3134397598
 20
1694.781060664
 11
1274.3971377633
 21
1700.0671131623
  0
LINE
  5
3B6
100
AcDbEntity
  8
0
100
AcDbLine
 62
7
  6
CONTINUOUS
 10
1274.3971377633
 20
1700.0671131623
 11
1274.4798076249
 21
1704.8292488663
  0
LINE
  5
3B7
100
AcDbEntity
  8
0
100
AcDbLine
 62
7
  6
CONTINUOUS
 10
1274.4798076249
 20
1704.8292488663
 11
1274.5613799105
 21
1709.0977108495
  0
LINE
  5
3B8
100
AcDbEntity
  8
0
100
AcDbLine
 62
7
  6
CONTINUOUS
 10
1274.5613799105
 20
1709.0977108495
 11
1274.6415062109
 21
1712.8888293871
  0
LWPOLYLINE
  5
3B9
100
AcDbEntity
  8
0
100
AcDbPolyline
 62
7
  6
CONTINUOUS
 90
3
 70
0
 10
1274.6415062109
 20
1712.8888293871
 10
1274.7197482037
 20
1716.219027418
 10
1274.7351265239
 20
1716.8313163446
  0
LINE
  5
3BA
100
AcDbEntity
  8
0
100
AcDbLine
 62
7
  6
CONTINUOUS
 10
1352.8222691471
 20
1239.9451794024
 11
1352.8222691471
 21
1145.9451794024
  0
LINE
  5
3BB
100
AcDbEntity
  8
0
100
AcDbLine
 62
7
  6
CONTINUOUS
 10
1371.1266397128
 20
1239.9451794024
 11
1371.1266397128
 21
1145.9451794024
  0
LINE
  5
3BC
100
AcDbEntity
  8
BEZUGSACHSEN
100
AcDbLine
 62
7
  6
CONTINUOUS
 10
1383.3172920549
 20
1145.9451794024
 11
1383.3172920549
 21
1150.9451794054
  0
LINE
  5
3BD
100
AcDbEntity
  8
KONSTRUKTIONSELEMENTE
100
AcDbLine
 62
7
  6
CONTINUOUS
 10
1391.3487439603
 20
1150.9451794024
 11
1391.3487439603
 21
1151.1451794024
  0
LINE
  5
3BE
100
AcDbEntity
  8
KONSTRUKTIONSELEMENTE
100
AcDbLine
 62
7
  6
CONTINUOUS
 10
1392.6304662654
 20
1150.9451794024
 11
1392.6304662654
 21
1151.1451794024
  0
LINE
  5
3BF
100
AcDbEntity
  8
KONSTRUKTIONSELEMENTE
100
AcDbLine
 62
7
  6
CONTINUOUS
 10
1392.6373942418
 20
1150.9451794024
 11
1392.6373942418
 21
1151.1451794024
  0
LINE
  5
3C0
100
AcDbEntity
  8
KONSTRUKTIONSELEMENTE
100
AcDbLine
 62
7
  6
CONTINUOUS
 10
1392.9292082397
 20
1150.9451794024
 11
1392.9292082397
 21
1151.1451794024
  0
LINE
  5
3C1
100
AcDbEntity
  8
KONSTRUKTIONSELEMENTE
100
AcDbLine
 62
7
  6
CONTINUOUS
 10
1395.2360039179
 20
1150.9451794024
 11
1395.2360039179
 21
1151.1451794024
  0
LINE
  5
3C2
100
AcDbEntity
  8
BEZUGSACHSEN
100
AcDbLine
 62
7
  6
CONTINUOUS
 10
1396.8172920549
 20
965.9451794024
 11
1396.8172920549
 21
1035.9451794024
  0
LINE
  5
3C3
100
AcDbEntity
  8
BEZUGSACHSEN
100
AcDbLine
 62
7
  6
CONTINUOUS
 10
1054.4359873708
 20
960.9451794024
 11
1059.4359873708
 21
965.9451794024
  0
LINE
  5
3C4
100
AcDbEntity
  8
KONSTRUKTIONSELEMENTE
100
AcDbLine
 62
7
  6
CONTINUOUS
 10
1399.411574159
 20
1150.9451794024
 11
1399.411574159
 21
1151.1451794024
  0
LINE
  5
3C5
100
AcDbEntity
  8
KONSTRUKTIONSELEMENTE
100
AcDbLine
 62
7
  6
CONTINUOUS
 10
1400.4179726199
 20
1150.9451794024
 11
1400.4179726199
 21
1151.1451794024
  0
LINE
  5
3C6
100
AcDbEntity
  8
KONSTRUKTIONSELEMENTE
100
AcDbLine
 62
7
  6
CONTINUOUS
 10
1404.3299986994
 20
1150.9451794024
 11
1404.3299986994
 21
1151.1451794024
  0
LINE
  5
3C7
100
AcDbEntity
  8
KONSTRUKTIONSELEMENTE
100
AcDbLine
 62
7
  6
CONTINUOUS
 10
1404.4435664635
 20
1150.9451794024
 11
1404.4435664635
 21
1151.1451794024
  0
LINE
  5
3C8
100
AcDbEntity
  8
KONSTRUKTIONSELEMENTE
100
AcDbLine
 62
7
  6
CONTINUOUS
 10
1405.4499654043
 20
1150.9451794024
 11
1405.4499654043
 21
1151.1451794024
  0
LINE
  5
3C9
100
AcDbEntity
  8
KONSTRUKTIONSELEMENTE
100
AcDbLine
 62
7
  6
CONTINUOUS
 10
1409.3619914838
 20
1150.9451794024
 11
1409.3619914838
 21
1151.1451794024
  0
LINE
  5
3CA
100
AcDbEntity
  8
KONSTRUKTIONSELEMENTE
100
AcDbLine
 62
7
  6
CONTINUOUS
 10
1409.8252299498
 20
1150.9451794024
 11
1409.8252299498
 21
1151.1451794024
  0
LINE
  5
3CB
100
AcDbEntity
  8
KONSTRUKTIONSELEMENTE
100
AcDbLine
 62
7
  6
CONTINUOUS
 10
1409.9945412148
 20
1150.9451794024
 11
1409.9945412148
 21
1151.1451794024
  0
LINE
  5
3CC
100
AcDbEntity
  8
KONSTRUKTIONSELEMENTE
100
AcDbLine
 62
7
  6
CONTINUOUS
 10
1410.6912165969
 20
1150.9451794024
 11
1410.6912165969
 21
1151.1451794024
  0
LINE
  5
3CD
100
AcDbEntity
  8
KONSTRUKTIONSELEMENTE
100
AcDbLine
 62
7
  6
CONTINUOUS
 10
1411.7618157668
 20
1150.9451794024
 11
1411.7618157668
 21
1151.1451794024
  0
LINE
  5
3CE
100
AcDbEntity
  8
KONSTRUKTIONSELEMENTE
100
AcDbLine
 62
7
  6
CONTINUOUS
 10
1411.848582418
 20
1150.9451794024
 11
1411.848582418
 21
1151.1451794024
  0
LINE
  5
3CF
100
AcDbEntity
  8
KONSTRUKTIONSELEMENTE
100
AcDbLine
 62
7
  6
CONTINUOUS
 10
1412.3030418368
 20
1150.9451794024
 11
1412.3030418368
 21
1151.1451794024
  0
LINE
  5
3D0
100
AcDbEntity
  8
KONSTRUKTIONSELEMENTE
100
AcDbLine
 62
7
  6
CONTINUOUS
 10
1413.0020120044
 20
1150.9451794024
 11
1413.0020120044
 21
1151.1451794024
  0
LINE
  5
3D1
100
AcDbEntity
  8
KONSTRUKTIONSELEMENTE
100
AcDbLine
 62
7
  6
CONTINUOUS
 10
1413.9853611367
 20
1150.9451794024
 11
1413.9853611367
 21
1151.1451794024
  0
LINE
  5
3D2
100
AcDbEntity
  8
KONSTRUKTIONSELEMENTE
100
AcDbLine
 62
7
  6
CONTINUOUS
 10
1418.896800661
 20
1150.9451794024
 11
1418.896800661
 21
1151.1451794024
  0
LINE
  5
3D3
100
AcDbEntity
  8
KONSTRUKTIONSELEMENTE
100
AcDbLine
 62
7
  6
CONTINUOUS
 10
1420.7705795153
 20
1150.9451794024
 11
1420.7705795153
 21
1151.1451794024
  0
LINE
  5
3D4
100
AcDbEntity
  8
BEZUGSACHSEN
100
AcDbLine
 62
7
  6
CONTINUOUS
 10
1420.8172920549
 20
1145.9451794024
 11
1420.8172920549
 21
1147.5958144971
  0
LINE
  5
3D5
100
AcDbEntity
  8
KONSTRUKTIONSELEMENTE
100
AcDbLine
 62
7
  6
CONTINUOUS
 10
1421.637923868
 20
1150.9451794024
 11
1421.637923868
 21
1151.1451794024
  0
LINE
  5
3D6
100
AcDbEntity
  8
KONSTRUKTIONSELEMENTE
100
AcDbLine
 62
7
  6
CONTINUOUS
 10
1422.2057624295
 20
1150.9451794024
 11
1422.2057624295
 21
1151.1451794024
  0
LINE
  5
3D7
100
AcDbEntity
  8
KONSTRUKTIONSELEMENTE
100
AcDbLine
 62
7
  6
CONTINUOUS
 10
1422.5294702683
 20
1150.9451794024
 11
1422.5294702683
 21
1151.1451794024
  0
LINE
  5
3D8
100
AcDbEntity
  8
BEZUGSACHSEN
100
AcDbLine
 62
7
  6
CONTINUOUS
 10
1444.8172920549
 20
965.9451794024
 11
1444.8172920549
 21
1035.9451794024
  0
LINE
  5
3D9
100
AcDbEntity
  8
BEZUGSACHSEN
100
AcDbLine
 62
7
  6
CONTINUOUS
 10
1458.3172920549
 20
1145.9451794024
 11
1458.3172920549
 21
1150.9451794054
  0
LINE
  5
3DA
100
AcDbEntity
  8
0
100
AcDbLine
 62
7
  6
CONTINUOUS
 10
1513.6266397128
 20
1035.9451794024
 11
1513.6266397128
 21
1145.9451794024
  0
LINE
  5
3DB
100
AcDbEntity
  8
BEZUGSACHSEN
100
AcDbLine
 62
7
  6
CONTINUOUS
 10
1247.1266397128
 20
960.9451794024
 11
1252.1266397128
 21
965.9451794024
  0
LINE
  5
3DC
100
AcDbEntity
  8
BEZUGSACHSEN
100
AcDbLine
 62
7
  6
CONTINUOUS
 10
1439.8172920549
 20
960.9451794024
 11
1444.8172920549
 21
965.9451794024
  0
LINE
  5
3DD
100
AcDbEntity
  8
KONSTRUKTIONSELEMENTE
100
AcDbLine
 62
7
  6
CONTINUOUS
 10
163.0448845477
 20
488.7758624228
 11
163.0167923447
 21
488.0202743588
  0
LINE
  5
3DE
100
AcDbEntity
  8
KONSTRUKTIONSELEMENTE
100
AcDbLine
 62
7
  6
CONTINUOUS
 10
150.1262675483
 20
480.5070598239
 11
149.1893781211
 21
475.5956202995
  0
LINE
  5
3DF
100
AcDbEntity
  8
KONSTRUKTIONSELEMENTE
100
AcDbLine
 62
7
  6
CONTINUOUS
 10
150.4685874862
 20
476.6241420284
 11
151.2102915788
 21
480.51236479
  0
LINE
  5
3E0
100
AcDbEntity
  8
KONSTRUKTIONSELEMENTE
100
AcDbLine
 62
7
  6
CONTINUOUS
 10
154.3452531891
 20
479.9143502217
 11
153.6035490965
 21
476.02612746
  0
LINE
  5
3E1
100
AcDbEntity
  8
KONSTRUKTIONSELEMENTE
100
AcDbLine
 62
7
  6
CONTINUOUS
 10
154.8575335064
 20
475.7869216774
 11
155.5211634987
 21
479.2658579095
  0
LINE
  5
3E2
100
AcDbEntity
  8
KONSTRUKTIONSELEMENTE
100
AcDbLine
 62
7
  6
CONTINUOUS
 10
159.0122571698
 20
473.7218414453
 11
159.2464795266
 21
474.9497013264
  0
LINE
  5
3E3
100
AcDbEntity
  8
KONSTRUKTIONSELEMENTE
100
AcDbLine
 62
7
  6
CONTINUOUS
 10
160.222405976
 20
480.0657839691
 11
160.4956654667
 21
481.498287554
  0
LINE
  5
3E4
100
AcDbEntity
  8
KONSTRUKTIONSELEMENTE
100
AcDbLine
 62
7
  6
CONTINUOUS
 10
282.735023628
 20
687.0875776494
 11
282.0938412782
 21
686.514343268
  0
LINE
  5
3E5
100
AcDbEntity
  8
KONSTRUKTIONSELEMENTE
100
AcDbLine
 62
7
  6
CONTINUOUS
 10
262.5635906901
 20
674.8800314658
 11
261.7804502845
 21
674.1810612982
  0
LINE
  5
3E6
100
AcDbEntity
  8
KONSTRUKTIONSELEMENTE
100
AcDbLine
 62
7
  6
CONTINUOUS
 10
273.4495710157
 20
679.2428670739
 11
272.7840082904
 21
678.6981297791
  0
LINE
  5
3E7
100
AcDbEntity
  8
KONSTRUKTIONSELEMENTE
100
AcDbLine
 62
7
  6
CONTINUOUS
 10
282.6828103861
 20
685.3817303256
 11
283.5088302778
 21
686.0510819435
  0
LINE
  5
3E8
100
AcDbEntity
  8
KONSTRUKTIONSELEMENTE
100
AcDbLine
 62
7
  6
CONTINUOUS
 10
262.7864001588
 20
673.7770794421
 11
263.2824691183
 21
674.1066310034
  0
LINE
  5
3E9
100
AcDbEntity
  8
KONSTRUKTIONSELEMENTE
100
AcDbLine
 62
7
  6
CONTINUOUS
 10
278.0692190296
 20
694.2538650629
 11
273.633151661
 21
691.9470693847
  0
LINE
  5
3EA
100
AcDbEntity
  8
KONSTRUKTIONSELEMENTE
100
AcDbLine
 62
7
  6
CONTINUOUS
 10
275.3311375423
 20
691.3911554941
 11
278.6581880688
 21
693.1212522527
  0
LINE
  5
3EB
100
AcDbEntity
  8
KONSTRUKTIONSELEMENTE
100
AcDbLine
 62
7
  6
CONTINUOUS
 10
282.0938412782
 20
686.514343268
 11
278.7667907517
 21
684.7842465093
  0
LINE
  5
3EC
100
AcDbEntity
  8
KONSTRUKTIONSELEMENTE
100
AcDbLine
 62
7
  6
CONTINUOUS
 10
278.2467430174
 20
683.0749346474
 11
282.6828103861
 21
685.3817303256
  0
LINE
  5
3ED
100
AcDbEntity
  8
KONSTRUKTIONSELEMENTE
100
AcDbLine
 62
7
  6
CONTINUOUS
 10
272.8513885708
 20
677.3546862207
 11
273.6882538934
 21
677.7732300697
  0
LINE
  5
3EE
100
AcDbEntity
  8
KONSTRUKTIONSELEMENTE
100
AcDbLine
 62
7
  6
CONTINUOUS
 10
263.5166914751
 20
675.3344908845
 11
262.5635906901
 21
674.8800314658
  0
LINE
  5
3EF
100
AcDbEntity
  8
KONSTRUKTIONSELEMENTE
100
AcDbLine
 62
7
  6
CONTINUOUS
 10
279.0915619431
 20
694.5456790608
 11
278.0692190296
 21
694.2538650629
  0
LINE
  5
3F0
100
AcDbEntity
  8
0
100
AcDbLine
 62
7
  6
CONTINUOUS
 10
447.1007597047
 20
230.5900225179
 11
445.5382549363
 21
230.2708736198
  0
LINE
  5
3F1
100
AcDbEntity
  8
0
100
AcDbLine
 62
7
  6
CONTINUOUS
 10
398.0382573205
 20
228.6751289057
 11
399.6007585126
 21
228.9942778317
  0
LINE
  5
3F2
100
AcDbEntity
  8
0
100
AcDbLine
 62
7
  6
CONTINUOUS
 10
445.5382549363
 20
228.6751289057
 11
447.4132549363
 21
228.9942778317
  0
LINE
  5
3F3
100
AcDbEntity
  8
0
100
AcDbLine
 62
7
  6
CONTINUOUS
 10
347.100757395
 20
228.6751289057
 11
349.6007574695
 21
228.6751289057
  0
LINE
  5
3F4
100
AcDbEntity
  8
0
100
AcDbLine
 62
7
  6
CONTINUOUS
 10
354.6007576186
 20
228.6751289057
 11
357.1007570225
 21
228.6751289057
  0
LINE
  5
3F5
100
AcDbEntity
  8
0
100
AcDbLine
 62
7
  6
CONTINUOUS
 10
362.1007567245
 20
228.6751289057
 11
369.6007567245
 21
228.6751289057
  0
LINE
  5
3F6
100
AcDbEntity
  8
0
100
AcDbLine
 62
7
  6
CONTINUOUS
 10
376.1632585126
 20
228.6751289057
 11
378.0382585126
 21
228.6751289057
  0
LINE
  5
3F7
100
AcDbEntity
  8
0
100
AcDbLine
 62
7
  6
CONTINUOUS
 10
395.2257573205
 20
228.6751289057
 11
398.0382573205
 21
228.6751289057
  0
LINE
  5
3F8
100
AcDbEntity
  8
0
100
AcDbLine
 62
7
  6
CONTINUOUS
 10
421.7882597047
 20
228.6751289057
 11
423.6632597047
 21
228.6751289057
  0
LINE
  5
3F9
100
AcDbEntity
  8
0
100
AcDbLine
 62
7
  6
CONTINUOUS
 10
426.1632573205
 20
228.6751289057
 11
437.4132573205
 21
228.6751289057
  0
LINE
  5
3FA
100
AcDbEntity
  8
0
100
AcDbLine
 62
7
  6
CONTINUOUS
 10
437.4132573205
 20
230.2708736198
 11
428.6632549363
 21
230.2708736198
  0
LINE
  5
3FB
100
AcDbEntity
  8
0
100
AcDbLine
 62
7
  6
CONTINUOUS
 10
398.0382573205
 20
230.5900225179
 11
395.2257573205
 21
230.5900225179
  0
LINE
  5
3FC
100
AcDbEntity
  8
0
100
AcDbLine
 62
7
  6
CONTINUOUS
 10
369.9132573205
 20
230.5900225179
 11
363.9757567245
 21
230.5900225179
  0
LINE
  5
3FD
100
AcDbEntity
  8
0
100
AcDbLine
 62
7
  6
CONTINUOUS
 10
397.7257585126
 20
235.0581077622
 11
400.5382585126
 21
235.0581077622
  0
LINE
  5
3FE
100
AcDbEntity
  8
0
100
AcDbLine
 62
7
  6
CONTINUOUS
 10
393.6632561284
 20
228.9942778317
 11
395.2257573205
 21
228.6751289057
  0
LINE
  5
3FF
100
AcDbEntity
  8
KONSTRUKTIONSELEMENTE
100
AcDbLine
 62
7
  6
CONTINUOUS
 10
154.2533669658
 20
480.5681477926
 11
154.3452531891
 21
479.9143502217
  0
LINE
  5
400
100
AcDbEntity
  8
KONSTRUKTIONSELEMENTE
100
AcDbLine
 62
7
  6
CONTINUOUS
 10
173.1485488913
 20
495.2619736867
 11
173.1255757822
 21
496.2092823655
  0
LINE
  5
401
100
AcDbEntity
  8
KONSTRUKTIONSELEMENTE
100
AcDbLine
 62
7
  6
CONTINUOUS
 10
171.9183974336
 20
495.8213522477
 11
171.8432089673
 21
495.0628125027
  0
LINE
  5
402
100
AcDbEntity
  8
KONSTRUKTIONSELEMENTE
100
AcDbLine
 62
7
  6
CONTINUOUS
 10
191.2725726471
 20
500.6764278219
 11
189.9539397473
 21
492.3853548987
  0
LINE
  5
403
100
AcDbEntity
  8
KONSTRUKTIONSELEMENTE
100
AcDbLine
 62
7
  6
CONTINUOUS
 10
164.1681683877
 20
487.4308404831
 11
164.3198262393
 21
488.3541618886
  0
LINE
  5
404
100
AcDbEntity
  8
KONSTRUKTIONSELEMENTE
100
AcDbLine
 62
7
  6
CONTINUOUS
 10
191.2018851136
 20
492.903827
 11
192.8606446386
 21
502.2241960653
  0
LINE
  5
405
100
AcDbEntity
  8
KONSTRUKTIONSELEMENTE
100
AcDbLine
 62
7
  6
CONTINUOUS
 10
172.8018510954
 20
494.1224328341
 11
173.1485488913
 21
495.2619736867
  0
LINE
  5
406
100
AcDbEntity
  8
KONSTRUKTIONSELEMENTE
100
AcDbLine
 62
7
  6
CONTINUOUS
 10
163.0167923447
 20
488.0202743588
 11
162.6938326028
 21
487.2231473591
  0
LINE
  5
407
100
AcDbEntity
  8
KONSTRUKTIONSELEMENTE
100
AcDbLine
 62
7
  6
CONTINUOUS
 10
150.5304502845
 20
481.4904089562
 11
150.1262675483
 21
480.5070598239
  0
LINE
  5
408
100
AcDbEntity
  8
KONSTRUKTIONSELEMENTE
100
AcDbLine
 62
7
  6
CONTINUOUS
 10
163.7216437944
 20
486.4659810354
 11
164.1681683877
 21
487.4308404831
  0
LINE
  5
409
100
AcDbEntity
  8
KONSTRUKTIONSELEMENTE
100
AcDbLine
 62
7
  6
CONTINUOUS
 10
171.8432089673
 20
495.0628125027
 11
171.485023628
 21
494.3969253074
  0
LINE
  5
40A
100
AcDbEntity
  8
KONSTRUKTIONSELEMENTE
100
AcDbLine
 62
7
  6
CONTINUOUS
 10
151.2102915788
 20
480.51236479
 11
151.5364001588
 21
481.0864271001
  0
LINE
  5
40B
100
AcDbEntity
  8
KONSTRUKTIONSELEMENTE
100
AcDbLine
 62
7
  6
CONTINUOUS
 10
262.4602915788
 20
673.203017132
 11
262.7864001588
 21
673.7770794421
  0
LINE
  5
40C
100
AcDbEntity
  8
BEZUGSACHSEN
100
AcDbLine
 62
7
  6
CONTINUOUS
 10
269.9813722259
 20
703.8657812477
 11
248.3307371313
 21
666.3657812477
  0
LINE
  5
40D
100
AcDbEntity
  8
BEZUGSACHSEN
100
AcDbLine
 62
7
  6
CONTINUOUS
 10
158.7313722259
 20
511.1751289057
 11
137.0807371313
 21
473.6751289057
  0
LINE
  5
40E
100
AcDbEntity
  8
KONSTRUKTIONSELEMENTE
100
AcDbLine
 62
7
  6
CONTINUOUS
 10
283.5088302778
 20
686.0510819435
 11
284.0518510954
 21
686.8130851761
  0
LINE
  5
40F
100
AcDbEntity
  8
KONSTRUKTIONSELEMENTE
100
AcDbLine
 62
7
  6
CONTINUOUS
 10
268.8975017486
 20
687.7714991435
 11
268.1561097215
 21
686.7651006827
  0
LINE
  5
410
100
AcDbEntity
  8
KONSTRUKTIONSELEMENTE
100
AcDbLine
 62
7
  6
CONTINUOUS
 10
265.1905416129
 20
682.7395068391
 11
264.4491492322
 21
681.7331078983
  0
LINE
  5
411
100
AcDbEntity
  8
KONSTRUKTIONSELEMENTE
100
AcDbLine
 62
7
  6
CONTINUOUS
 10
273.9438326028
 20
679.9137997011
 11
273.4495710157
 21
679.2428670739
  0
LINE
  5
412
100
AcDbEntity
  8
KONSTRUKTIONSELEMENTE
100
AcDbLine
 62
7
  6
CONTINUOUS
 10
274.4773822072
 20
678.4857007502
 11
274.9716437944
 21
679.1566333774
  0
LINE
  5
413
100
AcDbEntity
  8
KONSTRUKTIONSELEMENTE
100
AcDbLine
 62
7
  6
CONTINUOUS
 10
273.6882538934
 20
677.7732300697
 11
274.4773822072
 21
678.4857007502
  0
LINE
  5
414
100
AcDbEntity
  8
KONSTRUKTIONSELEMENTE
100
AcDbLine
 62
7
  6
CONTINUOUS
 10
309.5575395851
 20
691.8499119574
 11
302.4518851136
 21
685.594479342
  0
LINE
  5
415
100
AcDbEntity
  8
KONSTRUKTIONSELEMENTE
100
AcDbLine
 62
7
  6
CONTINUOUS
 10
302.6564478368
 20
684.2586892952
 11
309.0588465829
 21
689.6891564241
  0
LINE
  5
416
100
AcDbEntity
  8
KONSTRUKTIONSELEMENTE
100
AcDbLine
 62
7
  6
CONTINUOUS
 10
311.1119104921
 20
682.9707696535
 11
310.0185324916
 21
682.3118147115
  0
LINE
  5
417
100
AcDbEntity
  8
KONSTRUKTIONSELEMENTE
100
AcDbLine
 62
7
  6
CONTINUOUS
 10
317.1551804241
 20
680.775063444
 11
313.6928170534
 21
678.6883729738
  0
LINE
  5
418
100
AcDbEntity
  8
KONSTRUKTIONSELEMENTE
100
AcDbLine
 62
7
  6
CONTINUOUS
 10
312.5994390528
 20
678.0294180318
 11
310.0482240585
 21
676.4918567057
  0
LINE
  5
419
100
AcDbEntity
  8
KONSTRUKTIONSELEMENTE
100
AcDbLine
 62
7
  6
CONTINUOUS
 10
310.6934506988
 20
675.4212575357
 11
313.2446656931
 21
676.9588188619
  0
LINE
  5
41A
100
AcDbEntity
  8
KONSTRUKTIONSELEMENTE
100
AcDbLine
 62
7
  6
CONTINUOUS
 10
314.3380436937
 20
677.6177738039
 11
319.2582440582
 21
680.5830706582
  0
LINE
  5
41B
100
AcDbEntity
  8
KONSTRUKTIONSELEMENTE
100
AcDbLine
 62
7
  6
CONTINUOUS
 10
314.3200442474
 20
675.1744855507
 11
315.413422248
 21
675.8334404927
  0
LINE
  5
41C
100
AcDbEntity
  8
KONSTRUKTIONSELEMENTE
100
AcDbLine
 62
7
  6
CONTINUOUS
 10
319.0333173695
 20
672.2839609551
 11
318.2212061279
 21
671.7957042731
  0
LINE
  5
41D
100
AcDbEntity
  8
KONSTRUKTIONSELEMENTE
100
AcDbLine
 62
7
  6
CONTINUOUS
 10
314.7758360511
 20
672.1258611714
 11
313.7517461418
 21
671.6193165225
  0
LINE
  5
41E
100
AcDbEntity
  8
KONSTRUKTIONSELEMENTE
100
AcDbLine
 62
7
  6
CONTINUOUS
 10
272.7840082904
 20
678.6981297791
 11
272.0707084663
 21
678.4473193821
  0
LINE
  5
41F
100
AcDbEntity
  8
0
100
AcDbLine
 62
7
  6
CONTINUOUS
 10
399.2882561284
 20
230.909171416
 11
398.0382573205
 21
230.5900225179
  0
LINE
  5
420
100
AcDbEntity
  8
0
100
AcDbLine
 62
7
  6
CONTINUOUS
 10
393.9757585126
 20
241.4410866188
 11
395.2257573205
 21
241.7602355169
  0
LINE
  5
421
100
AcDbEntity
  8
0
100
AcDbLine
 62
7
  6
CONTINUOUS
 10
443.9757573205
 20
241.7602355169
 11
445.5382549363
 21
242.079384415
  0
LINE
  5
422
100
AcDbEntity
  8
0
100
AcDbLine
 62
7
  6
CONTINUOUS
 10
369.6007567245
 20
228.6751289057
 11
371.1632579166
 21
228.9942778317
  0
LINE
  5
423
100
AcDbEntity
  8
0
100
AcDbLine
 62
7
  6
CONTINUOUS
 10
429.6007549363
 20
241.7602355169
 11
431.1632597047
 21
242.079384415
  0
LINE
  5
424
100
AcDbEntity
  8
0
100
AcDbLine
 62
7
  6
CONTINUOUS
 10
383.6632585126
 20
235.3772566603
 11
385.2257561284
 21
235.6964055585
  0
LINE
  5
425
100
AcDbEntity
  8
0
100
AcDbLine
 62
7
  6
CONTINUOUS
 10
395.2257573205
 20
243.6751289057
 11
393.6632561284
 21
243.3559800075
  0
LINE
  5
426
100
AcDbEntity
  8
0
100
AcDbLine
 62
7
  6
CONTINUOUS
 10
445.5382549363
 20
243.6751289057
 11
443.6632549363
 21
243.3559800075
  0
LINE
  5
427
100
AcDbEntity
  8
0
100
AcDbLine
 62
7
  6
CONTINUOUS
 10
431.4757549363
 20
243.6751289057
 11
429.2882597047
 21
243.3559800075
  0
LINE
  5
428
100
AcDbEntity
  8
0
100
AcDbLine
 62
7
  6
CONTINUOUS
 10
363.9757567245
 20
235.3772566603
 11
369.9132573205
 21
235.3772566603
  0
LINE
  5
429
100
AcDbEntity
  8
0
100
AcDbLine
 62
7
  6
CONTINUOUS
 10
378.0382585126
 20
235.3772566603
 11
383.6632585126
 21
235.3772566603
  0
LINE
  5
42A
100
AcDbEntity
  8
0
100
AcDbLine
 62
7
  6
CONTINUOUS
 10
402.4132585126
 20
236.973001151
 11
397.7257585126
 21
236.973001151
  0
LINE
  5
42B
100
AcDbEntity
  8
0
100
AcDbLine
 62
7
  6
CONTINUOUS
 10
383.9757573205
 20
237.2921500491
 11
378.0382585126
 21
237.2921500491
  0
LINE
  5
42C
100
AcDbEntity
  8
0
100
AcDbLine
 62
7
  6
CONTINUOUS
 10
369.9132573205
 20
237.2921500491
 11
363.9757567245
 21
237.2921500491
  0
LINE
  5
42D
100
AcDbEntity
  8
0
100
AcDbLine
 62
7
  6
CONTINUOUS
 10
453.6632597047
 20
237.6112989472
 11
456.1632573205
 21
237.6112989472
  0
LINE
  5
42E
100
AcDbEntity
  8
0
100
AcDbLine
 62
7
  6
CONTINUOUS
 10
457.7257549363
 20
237.6112989472
 11
461.1632597047
 21
237.6112989472
  0
LINE
  5
42F
100
AcDbEntity
  8
0
100
AcDbLine
 62
7
  6
CONTINUOUS
 10
461.1632597047
 20
238.8878945397
 11
457.7257549363
 21
238.8878945397
  0
LINE
  5
430
100
AcDbEntity
  8
0
100
AcDbLine
 62
7
  6
CONTINUOUS
 10
456.1632573205
 20
238.8878945397
 11
453.6632597047
 21
238.8878945397
  0
LINE
  5
431
100
AcDbEntity
  8
0
100
AcDbLine
 62
7
  6
CONTINUOUS
 10
400.5382585126
 20
239.8453412341
 11
402.4132585126
 21
239.8453412341
  0
LINE
  5
432
100
AcDbEntity
  8
0
100
AcDbLine
 62
7
  6
CONTINUOUS
 10
426.4757597047
 20
240.1644910263
 11
428.0382573205
 21
240.1644910263
  0
LINE
  5
433
100
AcDbEntity
  8
0
100
AcDbLine
 62
7
  6
CONTINUOUS
 10
457.7257549363
 20
241.4410866188
 11
456.1632573205
 21
241.4410866188
  0
LINE
  5
434
100
AcDbEntity
  8
0
100
AcDbLine
 62
7
  6
CONTINUOUS
 10
363.9757567245
 20
241.7602355169
 11
369.9132573205
 21
241.7602355169
  0
LINE
  5
435
100
AcDbEntity
  8
0
100
AcDbLine
 62
7
  6
CONTINUOUS
 10
395.2257573205
 20
241.7602355169
 11
398.0382573205
 21
241.7602355169
  0
LINE
  5
436
100
AcDbEntity
  8
0
100
AcDbLine
 62
7
  6
CONTINUOUS
 10
378.0382585126
 20
242.079384415
 11
383.9757573205
 21
242.079384415
  0
LINE
  5
437
100
AcDbEntity
  8
0
100
AcDbLine
 62
7
  6
CONTINUOUS
 10
431.1632597047
 20
242.079384415
 11
432.4132549363
 21
242.079384415
  0
LINE
  5
438
100
AcDbEntity
  8
BEZUGSACHSEN
100
AcDbLine
 62
7
  6
CONTINUOUS
 10
269.9813722259
 20
243.4844765636
 11
313.2826424151
 21
243.4844765636
  0
LINE
  5
439
100
AcDbEntity
  8
BEZUGSACHSEN
100
AcDbLine
 62
7
  6
CONTINUOUS
 10
492.4813722259
 20
243.4844765636
 11
535.7826424151
 21
243.4844765636
  0
LINE
  5
43A
100
AcDbEntity
  8
0
100
AcDbLine
 62
7
  6
CONTINUOUS
 10
432.7257573205
 20
243.6751289057
 11
431.4757549363
 21
243.6751289057
  0
LINE
  5
43B
100
AcDbEntity
  8
0
100
AcDbLine
 62
7
  6
CONTINUOUS
 10
423.6632597047
 20
243.6751289057
 11
421.7882597047
 21
243.6751289057
  0
LINE
  5
43C
100
AcDbEntity
  8
0
100
AcDbLine
 62
7
  6
CONTINUOUS
 10
398.0382573205
 20
243.6751289057
 11
395.2257573205
 21
243.6751289057
  0
LINE
  5
43D
100
AcDbEntity
  8
0
100
AcDbLine
 62
7
  6
CONTINUOUS
 10
383.6632585126
 20
243.6751289057
 11
376.1632585126
 21
243.6751289057
  0
LINE
  5
43E
100
AcDbEntity
  8
0
100
AcDbLine
 62
7
  6
CONTINUOUS
 10
369.6007567245
 20
243.6751289057
 11
362.1007567245
 21
243.6751289057
  0
LINE
  5
43F
100
AcDbEntity
  8
0
100
AcDbLine
 62
7
  6
CONTINUOUS
 10
359.6007573205
 20
243.6751289057
 11
357.7257573205
 21
243.6751289057
  0
LINE
  5
440
100
AcDbEntity
  8
0
100
AcDbLine
 62
7
  6
CONTINUOUS
 10
353.3507570225
 20
243.6751289057
 11
350.8507571715
 21
243.6751289057
  0
LINE
  5
441
100
AcDbEntity
  8
0
100
AcDbLine
 62
7
  6
CONTINUOUS
 10
346.4757573205
 20
243.6751289057
 11
344.6007573205
 21
243.6751289057
  0
LINE
  5
442
100
AcDbEntity
  8
0
100
AcDbLine
 62
7
  6
CONTINUOUS
 10
443.6632549363
 20
228.9942778317
 11
445.5382549363
 21
228.6751289057
  0
LINE
  5
443
100
AcDbEntity
  8
0
100
AcDbLine
 62
7
  6
CONTINUOUS
 10
458.6632549363
 20
228.9942778317
 11
460.5382549363
 21
228.6751289057
  0
LINE
  5
444
100
AcDbEntity
  8
0
100
AcDbLine
 62
7
  6
CONTINUOUS
 10
434.6007573205
 20
243.3559800075
 11
432.7257573205
 21
243.6751289057
  0
LINE
  5
445
100
AcDbEntity
  8
0
100
AcDbLine
 62
7
  6
CONTINUOUS
 10
447.4132549363
 20
243.3559800075
 11
445.5382549363
 21
243.6751289057
  0
LINE
  5
446
100
AcDbEntity
  8
KONSTRUKTIONSELEMENTE
100
AcDbLine
 62
7
  6
CONTINUOUS
 10
260.4393781211
 20
282.9049679575
 11
270.2622571698
 21
281.0311891032
  0
LINE
  5
447
100
AcDbEntity
  8
KONSTRUKTIONSELEMENTE
100
AcDbLine
 62
7
  6
CONTINUOUS
 10
270.4964795266
 20
282.2590489843
 11
266.1075335064
 21
283.0962693353
  0
LINE
  5
448
100
AcDbEntity
  8
KONSTRUKTIONSELEMENTE
100
AcDbLine
 62
7
  6
CONTINUOUS
 10
264.8535490965
 20
283.335475118
 11
261.7185874862
 21
283.9334896864
  0
LINE
  5
449
100
AcDbEntity
  8
0
100
AcDbLine
 62
7
  6
CONTINUOUS
 10
371.1632579166
 20
243.3559800075
 11
369.6007567245
 21
243.6751289057
  0
LINE
  5
44A
100
AcDbEntity
  8
0
100
AcDbLine
 62
7
  6
CONTINUOUS
 10
445.5382549363
 20
230.2708736198
 11
443.9757573205
 21
230.5900225179
  0
LINE
  5
44B
100
AcDbEntity
  8
0
100
AcDbLine
 62
7
  6
CONTINUOUS
 10
385.2257561284
 20
243.3559800075
 11
383.6632585126
 21
243.6751289057
  0
LINE
  5
44C
100
AcDbEntity
  8
0
100
AcDbLine
 62
7
  6
CONTINUOUS
 10
460.5382549363
 20
229.9517246099
 11
458.9757573205
 21
230.2708736198
  0
LINE
  5
44D
100
AcDbEntity
  8
0
100
AcDbLine
 62
7
  6
CONTINUOUS
 10
399.6007585126
 20
243.3559800075
 11
398.0382573205
 21
243.6751289057
  0
LINE
  5
44E
100
AcDbEntity
  8
0
100
AcDbLine
 62
7
  6
CONTINUOUS
 10
432.4132549363
 20
242.079384415
 11
433.9757597047
 21
241.7602355169
  0
LINE
  5
44F
100
AcDbEntity
  8
0
100
AcDbLine
 62
7
  6
CONTINUOUS
 10
445.5382549363
 20
242.079384415
 11
447.1007597047
 21
241.7602355169
  0
LINE
  5
450
100
AcDbEntity
  8
0
100
AcDbLine
 62
7
  6
CONTINUOUS
 10
395.2257573205
 20
230.5900225179
 11
393.9757585126
 21
230.909171416
  0
LINE
  5
451
100
AcDbEntity
  8
0
100
AcDbLine
 62
7
  6
CONTINUOUS
 10
398.0382573205
 20
241.7602355169
 11
399.2882561284
 21
241.4410866188
  0
LINE
  5
452
100
AcDbEntity
  8
0
100
AcDbLine
 62
7
  6
CONTINUOUS
 10
369.9132573205
 20
235.3772566603
 11
370.8507573205
 21
235.0581077622
  0
LINE
  5
453
100
AcDbEntity
  8
0
100
AcDbLine
 62
7
  6
CONTINUOUS
 10
369.9132573205
 20
241.7602355169
 11
370.8507573205
 21
241.4410866188
  0
LINE
  5
454
100
AcDbEntity
  8
0
100
AcDbLine
 62
7
  6
CONTINUOUS
 10
383.9757573205
 20
242.079384415
 11
384.9132573205
 21
241.7602355169
  0
LINE
  5
455
100
AcDbEntity
  8
0
100
AcDbLine
 62
7
  6
CONTINUOUS
 10
457.7257549363
 20
229.3134267578
 11
458.6632549363
 21
228.9942778317
  0
LINE
  5
456
100
AcDbEntity
  8
KONSTRUKTIONSELEMENTE
100
AcDbLine
 62
7
  6
CONTINUOUS
 10
271.3096717834
 20
293.1091310222
 11
270.5008995359
 21
293.4461760755
  0
LINE
  5
457
100
AcDbEntity
  8
KONSTRUKTIONSELEMENTE
100
AcDbLine
 62
7
  6
CONTINUOUS
 10
269.7595071552
 20
292.4397771347
 11
270.7395819551
 21
291.9765386687
  0
LINE
  5
458
100
AcDbEntity
  8
0
100
AcDbLine
 62
7
  6
CONTINUOUS
 10
372.4132567245
 20
236.0155544566
 11
371.7882573205
 21
236.3347033547
  0
LINE
  5
459
100
AcDbEntity
  8
0
100
AcDbLine
 62
7
  6
CONTINUOUS
 10
392.4132573205
 20
229.6325757118
 11
393.6632561284
 21
228.9942778317
  0
LINE
  5
45A
100
AcDbEntity
  8
KONSTRUKTIONSELEMENTE
100
AcDbLine
 62
7
  6
CONTINUOUS
 10
264.5754911359
 20
288.6907635434
 11
265.1634463187
 21
288.3665175337
  0
LINE
  5
45B
100
AcDbEntity
  8
KONSTRUKTIONSELEMENTE
100
AcDbLine
 62
7
  6
CONTINUOUS
 10
265.6066660771
 20
289.5545097843
 11
265.0187108944
 21
289.878755794
  0
LINE
  5
45C
100
AcDbEntity
  8
KONSTRUKTIONSELEMENTE
100
AcDbLine
 62
7
  6
CONTINUOUS
 10
264.4491492322
 20
296.3518032142
 11
269.7595071552
 21
292.4397771347
  0
LINE
  5
45D
100
AcDbEntity
  8
KONSTRUKTIONSELEMENTE
100
AcDbLine
 62
7
  6
CONTINUOUS
 10
270.5008995359
 20
293.4461760755
 11
265.1905416129
 21
297.358202155
  0
LINE
  5
45E
100
AcDbEntity
  8
KONSTRUKTIONSELEMENTE
100
AcDbLine
 62
7
  6
CONTINUOUS
 10
268.1561097215
 20
301.3837959986
 11
273.4664676445
 21
297.4717699191
  0
LINE
  5
45F
100
AcDbEntity
  8
KONSTRUKTIONSELEMENTE
100
AcDbLine
 62
7
  6
CONTINUOUS
 10
274.2078596716
 20
298.47816838
 11
268.8975017486
 21
302.3901944595
  0
LINE
  5
460
100
AcDbEntity
  8
KONSTRUKTIONSELEMENTE
100
AcDbLine
 62
7
  6
CONTINUOUS
 10
266.3255445053
 20
288.781109322
 11
265.6066660771
 21
289.5545097843
  0
LINE
  5
461
100
AcDbEntity
  8
KONSTRUKTIONSELEMENTE
100
AcDbLine
 62
7
  6
CONTINUOUS
 10
274.9408033244
 20
297.6794631204
 11
274.2078596716
 21
298.47816838
  0
LINE
  5
462
100
AcDbEntity
  8
KONSTRUKTIONSELEMENTE
100
AcDbLine
 62
7
  6
CONTINUOUS
 10
273.4664676445
 20
297.4717699191
 11
274.028109452
 21
296.7992590321
  0
LINE
  5
463
100
AcDbEntity
  8
KONSTRUKTIONSELEMENTE
100
AcDbLine
 62
7
  6
CONTINUOUS
 10
265.1634463187
 20
288.3665175337
 11
265.5033669658
 21
287.8774954506
  0
LINE
  5
464
100
AcDbEntity
  8
BEZUGSACHSEN
100
AcDbLine
 62
7
  6
CONTINUOUS
 10
137.0807371313
 20
473.6751289057
 11
158.7313722259
 21
436.1751289057
  0
LINE
  5
465
100
AcDbEntity
  8
BEZUGSACHSEN
100
AcDbLine
 62
7
  6
CONTINUOUS
 10
248.3307371313
 20
280.9844765636
 11
269.9813722259
 21
243.4844765636
  0
LINE
  5
466
100
AcDbEntity
  8
KONSTRUKTIONSELEMENTE
100
AcDbLine
 62
7
  6
CONTINUOUS
 10
162.778109452
 20
489.4899113741
 11
163.0448845477
 21
488.7758624228
  0
LINE
  5
467
100
AcDbEntity
  8
KONSTRUKTIONSELEMENTE
100
AcDbLine
 62
7
  6
CONTINUOUS
 10
173.1255757822
 20
496.2092823655
 11
172.8196036849
 21
497.2492424939
  0
LINE
  5
468
100
AcDbEntity
  8
KONSTRUKTIONSELEMENTE
100
AcDbLine
 62
7
  6
CONTINUOUS
 10
155.337391108
 20
480.5734533443
 11
155.0755445053
 21
481.471761664
  0
LINE
  5
469
100
AcDbEntity
  8
KONSTRUKTIONSELEMENTE
100
AcDbLine
 62
7
  6
CONTINUOUS
 10
171.7105868427
 20
496.6725435744
 11
171.9183974336
 21
495.8213522477
  0
LINE
  5
46A
100
AcDbEntity
  8
KONSTRUKTIONSELEMENTE
100
AcDbLine
 62
7
  6
CONTINUOUS
 10
164.3198262393
 20
488.3541618886
 11
164.1288803854
 21
489.5298720502
  0
LWPOLYLINE
  5
46B
100
AcDbEntity
  8
0
100
AcDbPolyline
 62
7
  6
CONTINUOUS
 90
78
 70
0
 10
193.7356820349
 20
473.6751289057
 10
193.7617357177
 20
472.1311315325
 10
193.8476821591
 20
470.4822235314
 10
193.9901194593
 20
468.8749874338
 10
194.185278719
 20
467.310254154
 10
194.4293064998
 20
465.788657067
 10
194.718524029
 20
464.3095941059
 10
195.0490696796
 20
462.8736081746
 10
195.4177618785
 20
461.4790583422
 10
195.8213545987
 20
460.1260479586
 10
196.2571342866
 20
458.8137017448
 10
196.7226571257
 20
457.5411713765
 10
197.2157080598
 20
456.3076676229
 10
197.7344442102
 20
455.1120520231
 10
198.2768918463
 20
453.9539616222
 10
198.841417018
 20
452.8324452417
 10
199.4260436031
 20
451.7470330159
 10
200.0290181005
 20
450.6969670589
 10
200.6487189561
 20
449.6814768923
 10
201.2836600996
 20
448.6997636648
 10
201.9324680926
 20
447.7510377178
 10
202.5939288575
 20
446.8344400115
 10
203.2667819402
 20
445.9493177283
 10
203.9499116076
 20
445.0949389029
 10
204.6421965664
 20
444.2706171893
 10
205.342572158
 20
443.4756368933
 10
206.0500625889
 20
442.7092814091
 10
206.7637758298
 20
441.9708355449
 10
207.4828973129
 20
441.2595883724
 10
208.2066906333
 20
440.5748346393
 10
208.9344858153
 20
439.9158828963
 10
209.6657007181
 20
439.2820317294
 10
210.3997370386
 20
438.6726602282
 10
211.1360765885
 20
438.0871359154
 10
211.8742196166
 20
437.5248119719
 10
212.6137001588
 20
436.9850218913
 10
213.3541081541
 20
436.4671145717
 10
214.0950837729
 20
435.9704587047
 10
214.836310394
 20
435.4944436065
 10
215.5775312851
 20
435.0384694447
 10
216.3184744989
 20
434.6019925488
 10
217.0591731199
 20
434.1843399499
 10
217.798688335
 20
433.7854125014
 10
218.5364575599
 20
433.4048870527
 10
219.271478277
 20
433.0426532539
 10
220.0028426361
 20
432.6985098741
 10
220.7297302153
 20
432.372151543
 10
221.4512995832
 20
432.0632532971
 10
222.1667593802
 20
431.7714517022
 10
222.875342333
 20
431.496359192
 10
223.5762404253
 20
431.2375879743
 10
224.2688188586
 20
430.9946733519
 10
224.9519067159
 20
430.7673196604
 10
225.6249409983
 20
430.5550022883
 10
226.2855660381
 20
430.3577167122
 10
226.9319188208
 20
430.1752058728
 10
227.5619941464
 20
430.0071724332
 10
228.1737748108
 20
429.8532430993
 10
228.765524054
 20
429.7129080855
 10
229.3355445659
 20
429.5855989833
 10
229.881841174
 20
429.4707577864
 10
230.4022407457
 20
429.3678129049
 10
230.8957137906
 20
429.2759472995
 10
231.3603319246
 20
429.1945182139
 10
231.7967715369
 20
429.1224561726
 10
232.2035488286
 20
429.0591146467
 10
232.5853723686
 20
429.0029795898
 10
232.945297971
 20
428.9529760617
 10
233.2871331766
 20
428.9080719267
 10
233.615657139
 20
428.8672605138
 10
233.9314489724
 20
428.8301661215
 10
234.2374830204
 20
428.7961835038
 10
234.5317154138
 20
428.7653029123
 10
234.813043934
 20
428.7373855929
 10
235.0815997214
 20
428.7121692582
 10
235.3364956197
 20
428.6894970622
 10
235.5795033869
 20
428.6689930775
 10
236.0342089612
 20
428.6334140512
  0
LINE
  5
46C
100
AcDbEntity
  8
KONSTRUKTIONSELEMENTE
100
AcDbLine
 62
7
  6
CONTINUOUS
 10
274.2667923447
 20
680.7109267009
 11
273.9438326028
 21
679.9137997011
  0
LINE
  5
46D
100
AcDbEntity
  8
KONSTRUKTIONSELEMENTE
100
AcDbLine
 62
7
  6
CONTINUOUS
 10
261.7804502845
 20
674.1810612982
 11
261.3762675483
 21
673.1977121659
  0
LINE
  5
46E
100
AcDbEntity
  8
KONSTRUKTIONSELEMENTE
100
AcDbLine
 62
7
  6
CONTINUOUS
 10
274.9716437944
 20
679.1566333774
 11
275.4181683877
 21
680.1214928252
  0
LINE
  5
46F
100
AcDbEntity
  8
KONSTRUKTIONSELEMENTE
100
AcDbLine
 62
7
  6
CONTINUOUS
 10
283.0932089673
 20
687.7534648448
 11
282.735023628
 21
687.0875776494
  0
LINE
  5
470
100
AcDbEntity
  8
KONSTRUKTIONSELEMENTE
100
AcDbLine
 62
7
  6
CONTINUOUS
 10
191.2265761546
 20
503.1436770002
 11
186.3226778349
 21
494.4286450858
  0
LINE
  5
471
100
AcDbEntity
  8
KONSTRUKTIONSELEMENTE
100
AcDbLine
 62
7
  6
CONTINUOUS
 10
187.4120568242
 20
493.8156577958
 11
191.2725726471
 21
500.6764278219
  0
LINE
  5
472
100
AcDbEntity
  8
KONSTRUKTIONSELEMENTE
100
AcDbLine
 62
7
  6
CONTINUOUS
 10
302.4765761546
 20
695.8343293423
 11
297.5726778349
 21
687.1192974279
  0
LINE
  5
473
100
AcDbEntity
  8
KONSTRUKTIONSELEMENTE
100
AcDbLine
 62
7
  6
CONTINUOUS
 10
298.6620568242
 20
686.5063101379
 11
302.5225726471
 21
693.3670801639
  0
LINE
  5
474
100
AcDbEntity
  8
KONSTRUKTIONSELEMENTE
100
AcDbLine
 62
7
  6
CONTINUOUS
 10
197.8088465829
 20
496.998504082
 11
193.94833076
 21
490.137734056
  0
LINE
  5
475
100
AcDbEntity
  8
KONSTRUKTIONSELEMENTE
100
AcDbLine
 62
7
  6
CONTINUOUS
 10
195.0377097493
 20
489.524746766
 11
199.9416080691
 21
498.2397786804
  0
LINE
  5
476
100
AcDbEntity
  8
KONSTRUKTIONSELEMENTE
100
AcDbLine
 62
7
  6
CONTINUOUS
 10
309.0588465829
 20
689.6891564241
 11
305.19833076
 21
682.828386398
  0
LINE
  5
477
100
AcDbEntity
  8
KONSTRUKTIONSELEMENTE
100
AcDbLine
 62
7
  6
CONTINUOUS
 10
306.2877097493
 20
682.2153991081
 11
311.1916080691
 21
690.9304310225
  0
LINE
  5
478
100
AcDbEntity
  8
KONSTRUKTIONSELEMENTE
100
AcDbLine
 62
7
  6
CONTINUOUS
 10
172.2588302778
 20
493.3604296014
 11
172.8018510954
 21
494.1224328341
  0
LINE
  5
479
100
AcDbEntity
  8
KONSTRUKTIONSELEMENTE
100
AcDbLine
 62
7
  6
CONTINUOUS
 10
157.6475017486
 20
495.0808468015
 11
156.9061097215
 21
494.0744483406
  0
LINE
  5
47A
100
AcDbEntity
  8
KONSTRUKTIONSELEMENTE
100
AcDbLine
 62
7
  6
CONTINUOUS
 10
153.9405416129
 20
490.0488544971
 11
153.1991492322
 21
489.0424555563
  0
LINE
  5
47B
100
AcDbEntity
  8
KONSTRUKTIONSELEMENTE
100
AcDbLine
 62
7
  6
CONTINUOUS
 10
162.6938326028
 20
487.2231473591
 11
162.1995710157
 21
486.5522147319
  0
LINE
  5
47C
100
AcDbEntity
  8
KONSTRUKTIONSELEMENTE
100
AcDbLine
 62
7
  6
CONTINUOUS
 10
163.2273822072
 20
485.7950484082
 11
163.7216437944
 21
486.4659810354
  0
LINE
  5
47D
100
AcDbEntity
  8
KONSTRUKTIONSELEMENTE
100
AcDbLine
 62
7
  6
CONTINUOUS
 10
313.7517461418
 20
671.6193165225
 11
313.169516197
 21
670.9417787279
  0
LINE
  5
47E
100
AcDbEntity
  8
KONSTRUKTIONSELEMENTE
100
AcDbLine
 62
7
  6
CONTINUOUS
 10
318.2212061279
 20
671.7957042731
 11
317.6389762573
 21
671.1181664848
  0
LINE
  5
47F
100
AcDbEntity
  8
KONSTRUKTIONSELEMENTE
100
AcDbLine
 62
7
  6
CONTINUOUS
 10
321.3020230328
 20
665.7882209839
 11
321.8842529034
 21
666.4657587722
  0
LINE
  5
480
100
AcDbEntity
  8
KONSTRUKTIONSELEMENTE
100
AcDbLine
 62
7
  6
CONTINUOUS
 10
314.0711389034
 20
670.3922233697
 11
314.8653478515
 21
671.0880443741
  0
LINE
  5
481
100
AcDbEntity
  8
KONSTRUKTIONSELEMENTE
100
AcDbLine
 62
7
  6
CONTINUOUS
 10
316.7609535399
 20
666.4420857083
 11
315.9667444434
 21
665.746264691
  0
LINE
  5
482
100
AcDbEntity
  8
KONSTRUKTIONSELEMENTE
100
AcDbLine
 62
7
  6
CONTINUOUS
 10
318.7346757863
 20
670.7944538825
 11
319.3348076891
 21
671.2644321119
  0
LINE
  5
483
100
AcDbEntity
  8
KONSTRUKTIONSELEMENTE
100
AcDbLine
 62
7
  6
CONTINUOUS
 10
320.7885537842
 20
666.7894666238
 11
320.1884208778
 21
666.3194930939
  0
LINE
  5
484
100
AcDbEntity
  8
KONSTRUKTIONSELEMENTE
100
AcDbLine
 62
7
  6
CONTINUOUS
 10
316.056255834
 20
664.7084526445
 11
317.0803463015
 21
665.2149925555
  0
LINE
  5
485
100
AcDbEntity
  8
KONSTRUKTIONSELEMENTE
100
AcDbLine
 62
7
  6
CONTINUOUS
 10
320.2779326782
 20
665.2816762966
 11
321.3020230328
 21
665.7882209839
  0
LINE
  5
486
100
AcDbEntity
  8
KONSTRUKTIONSELEMENTE
100
AcDbLine
 62
7
  6
CONTINUOUS
 10
501.5915619431
 20
694.5456790608
 11
500.5692190296
 21
694.2538650629
  0
LINE
  5
487
100
AcDbEntity
  8
0
100
AcDbLine
 62
7
  6
CONTINUOUS
 10
419.4445061284
 20
265.909171416
 11
418.1945073205
 21
265.5900225179
  0
LINE
  5
488
100
AcDbEntity
  8
0
100
AcDbLine
 62
7
  6
CONTINUOUS
 10
404.4445079166
 20
265.909171416
 11
403.1945073205
 21
265.5900225179
  0
LINE
  5
489
100
AcDbEntity
  8
0
100
AcDbLine
 62
7
  6
CONTINUOUS
 10
418.1945073205
 20
263.6751289057
 11
419.7570085126
 21
263.9942778317
  0
LINE
  5
48A
100
AcDbEntity
  8
0
100
AcDbLine
 62
7
  6
CONTINUOUS
 10
403.1945073205
 20
263.6751289057
 11
404.7570067245
 21
263.9942778317
  0
LINE
  5
48B
100
AcDbEntity
  8
KONSTRUKTIONSELEMENTE
100
AcDbLine
 62
7
  6
CONTINUOUS
 10
494.2456654667
 20
288.8076352119
 11
489.087391108
 21
287.8828010022
  0
LINE
  5
48C
100
AcDbEntity
  8
KONSTRUKTIONSELEMENTE
100
AcDbLine
 62
7
  6
CONTINUOUS
 10
489.2711634987
 20
286.5752055675
 11
493.972405976
 21
287.375131627
  0
LINE
  5
48D
100
AcDbEntity
  8
KONSTRUKTIONSELEMENTE
100
AcDbLine
 62
7
  6
CONTINUOUS
 10
494.1719202496
 20
291.8072274037
 11
495.3513885708
 21
291.9733815367
  0
LINE
  5
48E
100
AcDbEntity
  8
KONSTRUKTIONSELEMENTE
100
AcDbLine
 62
7
  6
CONTINUOUS
 10
485.7824691183
 20
288.7253263194
 11
486.4484983455
 21
288.8103665464
  0
LINE
  5
48F
100
AcDbEntity
  8
KONSTRUKTIONSELEMENTE
100
AcDbLine
 62
7
  6
CONTINUOUS
 10
486.6827207023
 20
290.0382264275
 11
486.0166914751
 21
289.9531862005
  0
LINE
  5
490
100
AcDbEntity
  8
KONSTRUKTIONSELEMENTE
100
AcDbLine
 62
7
  6
CONTINUOUS
 10
537.9203190471
 20
279.2722983502
 11
538.556255834
 21
279.3271479604
  0
LINE
  5
491
100
AcDbEntity
  8
KONSTRUKTIONSELEMENTE
100
AcDbLine
 62
7
  6
CONTINUOUS
 10
542.1419958913
 20
279.8455220024
 11
542.7779326782
 21
279.9003716125
  0
LINE
  5
492
100
AcDbEntity
  8
KONSTRUKTIONSELEMENTE
100
AcDbLine
 62
7
  6
CONTINUOUS
 10
538.4667444434
 20
280.364960007
 11
537.8308076565
 21
280.3101103968
  0
LINE
  5
493
100
AcDbEntity
  8
KONSTRUKTIONSELEMENTE
100
AcDbLine
 62
7
  6
CONTINUOUS
 10
542.6884208778
 20
280.9381884098
 11
542.2644630198
 21
280.9016220031
  0
LINE
  5
494
100
AcDbEntity
  8
KONSTRUKTIONSELEMENTE
100
AcDbLine
 62
7
  6
CONTINUOUS
 10
541.8348076891
 20
285.8831274278
 11
542.2587655471
 21
285.9196938346
  0
LINE
  5
495
100
AcDbEntity
  8
KONSTRUKTIONSELEMENTE
100
AcDbLine
 62
7
  6
CONTINUOUS
 10
537.3653478515
 20
285.70673969
 11
538.0012846384
 21
285.7615893002
  0
LINE
  5
496
100
AcDbEntity
  8
KONSTRUKTIONSELEMENTE
100
AcDbLine
 62
7
  6
CONTINUOUS
 10
542.1692541564
 20
286.9575058812
 11
541.5333173695
 21
286.902656271
  0
LINE
  5
497
100
AcDbEntity
  8
KONSTRUKTIONSELEMENTE
100
AcDbLine
 62
7
  6
CONTINUOUS
 10
537.911772838
 20
286.7994060975
 11
537.2758360511
 21
286.7445564874
  0
LINE
  5
498
100
AcDbEntity
  8
KONSTRUKTIONSELEMENTE
100
AcDbLine
 62
7
  6
CONTINUOUS
 10
315.4203190471
 20
279.2722983502
 11
316.056255834
 21
279.3271479604
  0
LINE
  5
499
100
AcDbEntity
  8
KONSTRUKTIONSELEMENTE
100
AcDbLine
 62
7
  6
CONTINUOUS
 10
319.6419958913
 20
279.8455220024
 11
320.2779326782
 21
279.9003716125
  0
LINE
  5
49A
100
AcDbEntity
  8
KONSTRUKTIONSELEMENTE
100
AcDbLine
 62
7
  6
CONTINUOUS
 10
315.9667444434
 20
280.364960007
 11
315.3308076565
 21
280.3101103968
  0
LINE
  5
49B
100
AcDbEntity
  8
KONSTRUKTIONSELEMENTE
100
AcDbLine
 62
7
  6
CONTINUOUS
 10
320.1884208778
 20
280.9381884098
 11
319.7644630198
 21
280.9016220031
  0
LINE
  5
49C
100
AcDbEntity
  8
0
100
AcDbLine
 62
7
  6
CONTINUOUS
 10
382.5695073205
 20
263.6751289057
 11
384.4445073205
 21
263.6751289057
  0
LINE
  5
49D
100
AcDbEntity
  8
0
100
AcDbLine
 62
7
  6
CONTINUOUS
 10
392.2570070225
 20
263.6751289057
 11
394.4445076186
 21
263.6751289057
  0
LINE
  5
49E
100
AcDbEntity
  8
0
100
AcDbLine
 62
7
  6
CONTINUOUS
 10
401.9445067245
 20
263.6751289057
 11
403.1945073205
 21
263.6751289057
  0
LINE
  5
49F
100
AcDbEntity
  8
0
100
AcDbLine
 62
7
  6
CONTINUOUS
 10
410.6945073205
 20
263.6751289057
 11
418.1945073205
 21
263.6751289057
  0
LINE
  5
4A0
100
AcDbEntity
  8
0
100
AcDbLine
 62
7
  6
CONTINUOUS
 10
418.1945073205
 20
265.5900225179
 11
412.5695073205
 21
265.5900225179
  0
LINE
  5
4A1
100
AcDbEntity
  8
0
100
AcDbLine
 62
7
  6
CONTINUOUS
 10
403.1945073205
 20
265.5900225179
 11
401.9445067245
 21
265.5900225179
  0
LINE
  5
4A2
100
AcDbEntity
  8
0
100
AcDbLine
 62
7
  6
CONTINUOUS
 10
384.4445073205
 20
270.3772566603
 11
389.7570071715
 21
270.3772566603
  0
LINE
  5
4A3
100
AcDbEntity
  8
0
100
AcDbLine
 62
7
  6
CONTINUOUS
 10
390.3820070225
 20
272.2921500491
 11
384.4445073205
 21
272.2921500491
  0
LINE
  5
4A4
100
AcDbEntity
  8
0
100
AcDbLine
 62
7
  6
CONTINUOUS
 10
412.5695073205
 20
276.7602355169
 11
418.1945073205
 21
276.7602355169
  0
LINE
  5
4A5
100
AcDbEntity
  8
0
100
AcDbLine
 62
7
  6
CONTINUOUS
 10
384.4445073205
 20
277.079384415
 11
390.3820070225
 21
277.079384415
  0
LINE
  5
4A6
100
AcDbEntity
  8
0
100
AcDbLine
 62
7
  6
CONTINUOUS
 10
418.1945073205
 20
278.6751289057
 11
410.6945073205
 21
278.6751289057
  0
LINE
  5
4A7
100
AcDbEntity
  8
0
100
AcDbLine
 62
7
  6
CONTINUOUS
 10
408.1945079166
 20
278.6751289057
 11
406.3195079166
 21
278.6751289057
  0
LINE
  5
4A8
100
AcDbEntity
  8
0
100
AcDbLine
 62
7
  6
CONTINUOUS
 10
398.8195079166
 20
278.6751289057
 11
396.9445070225
 21
278.6751289057
  0
LINE
  5
4A9
100
AcDbEntity
  8
0
100
AcDbLine
 62
7
  6
CONTINUOUS
 10
390.0695073205
 20
278.6751289057
 11
382.5695073205
 21
278.6751289057
  0
LINE
  5
4AA
100
AcDbEntity
  8
KONSTRUKTIONSELEMENTE
100
AcDbLine
 62
7
  6
CONTINUOUS
 10
272.0707084663
 20
293.0660146981
 11
271.3096717834
 21
293.1091310222
  0
LINE
  5
4AB
100
AcDbEntity
  8
KONSTRUKTIONSELEMENTE
100
AcDbLine
 62
7
  6
CONTINUOUS
 10
318.6130174178
 20
296.2723651441
 11
311.1119104921
 21
297.5894649694
  0
LINE
  5
4AC
100
AcDbEntity
  8
KONSTRUKTIONSELEMENTE
100
AcDbLine
 62
7
  6
CONTINUOUS
 10
311.8646757263
 20
296.3404312432
 11
317.1551804241
 21
295.3937587599
  0
LINE
  5
4AD
100
AcDbEntity
  8
KONSTRUKTIONSELEMENTE
100
AcDbLine
 62
7
  6
CONTINUOUS
 10
270.7395819551
 20
291.9765386687
 11
271.6719202496
 21
291.8072274037
  0
LINE
  5
4AE
100
AcDbEntity
  8
KONSTRUKTIONSELEMENTE
100
AcDbLine
 62
7
  6
CONTINUOUS
 10
263.9484983455
 20
288.8103665464
 11
264.5754911359
 21
288.6907635434
  0
LINE
  5
4AF
100
AcDbEntity
  8
KONSTRUKTIONSELEMENTE
100
AcDbLine
 62
7
  6
CONTINUOUS
 10
265.0187108944
 20
289.878755794
 11
264.1827207023
 21
290.0382264275
  0
LINE
  5
4B0
100
AcDbEntity
  8
0
100
AcDbLine
 62
7
  6
CONTINUOUS
 10
400.3820073205
 20
263.9942778317
 11
401.9445067245
 21
263.6751289057
  0
LINE
  5
4B1
100
AcDbEntity
  8
0
100
AcDbLine
 62
7
  6
CONTINUOUS
 10
391.6320076186
 20
278.3559800075
 11
390.0695073205
 21
278.6751289057
  0
LINE
  5
4B2
100
AcDbEntity
  8
0
100
AcDbLine
 62
7
  6
CONTINUOUS
 10
419.7570085126
 20
278.3559800075
 11
418.1945073205
 21
278.6751289057
  0
LINE
  5
4B3
100
AcDbEntity
  8
0
100
AcDbLine
 62
7
  6
CONTINUOUS
 10
401.9445067245
 20
265.5900225179
 11
400.6945079166
 21
265.909171416
  0
LINE
  5
4B4
100
AcDbEntity
  8
0
100
AcDbLine
 62
7
  6
CONTINUOUS
 10
418.1945073205
 20
276.7602355169
 11
419.4445061284
 21
276.4410866188
  0
LINE
  5
4B5
100
AcDbEntity
  8
KONSTRUKTIONSELEMENTE
100
AcDbLine
 62
7
  6
CONTINUOUS
 10
314.3246197795
 20
279.596006189
 11
315.4203190471
 21
279.2722983502
  0
LINE
  5
4B6
100
AcDbEntity
  8
KONSTRUKTIONSELEMENTE
100
AcDbLine
 62
7
  6
CONTINUOUS
 10
316.5074726638
 20
286.4756935208
 11
315.411772838
 21
286.7994060975
  0
LINE
  5
4B7
100
AcDbEntity
  8
KONSTRUKTIONSELEMENTE
100
AcDbLine
 62
7
  6
CONTINUOUS
 10
320.7649538695
 20
286.6337980808
 11
319.6692541564
 21
286.9575058812
  0
LINE
  5
4B8
100
AcDbEntity
  8
KONSTRUKTIONSELEMENTE
100
AcDbLine
 62
7
  6
CONTINUOUS
 10
281.1592186949
 20
308.800692726
 11
280.0272288124
 21
309.1713023531
  0
LINE
  5
4B9
100
AcDbEntity
  8
0
100
AcDbLine
 62
7
  6
CONTINUOUS
 10
390.3820070225
 20
277.079384415
 11
391.3195070225
 21
276.7602355169
  0
LINE
  5
4BA
100
AcDbEntity
  8
KONSTRUKTIONSELEMENTE
100
AcDbLine
 62
7
  6
CONTINUOUS
 10
318.7582752913
 20
280.1875178081
 11
319.6419958913
 21
279.8455220024
  0
LINE
  5
4BB
100
AcDbEntity
  8
0
100
AcDbLine
 62
7
  6
CONTINUOUS
 10
400.8507573205
 20
242.7176822113
 11
399.6007585126
 21
243.3559800075
  0
LINE
  5
4BC
100
AcDbEntity
  8
0
100
AcDbLine
 62
7
  6
CONTINUOUS
 10
435.8507597047
 20
242.7176822113
 11
434.6007573205
 21
243.3559800075
  0
LINE
  5
4BD
100
AcDbEntity
  8
0
100
AcDbLine
 62
7
  6
CONTINUOUS
 10
399.1320067245
 20
264.6325757118
 11
400.3820073205
 21
263.9942778317
  0
LINE
  5
4BE
100
AcDbEntity
  8
KONSTRUKTIONSELEMENTE
100
AcDbLine
 62
7
  6
CONTINUOUS
 10
319.7644630198
 20
280.9016220031
 11
319.0927217586
 21
281.2618962614
  0
LINE
  5
4BF
100
AcDbEntity
  8
KONSTRUKTIONSELEMENTE
100
AcDbLine
 62
7
  6
CONTINUOUS
 10
319.7587655471
 20
285.9196938346
 11
320.4305078119
 21
285.5594148767
  0
LINE
  5
4C0
100
AcDbEntity
  8
KONSTRUKTIONSELEMENTE
100
AcDbLine
 62
7
  6
CONTINUOUS
 10
297.5726778349
 20
301.7379927438
 11
298.6620568242
 21
301.1250054538
  0
LINE
  5
4C1
100
AcDbEntity
  8
KONSTRUKTIONSELEMENTE
100
AcDbLine
 62
7
  6
CONTINUOUS
 10
301.2039397473
 20
299.6947025567
 11
302.6564478368
 21
298.8773846111
  0
LINE
  5
4C2
100
AcDbEntity
  8
KONSTRUKTIONSELEMENTE
100
AcDbLine
 62
7
  6
CONTINUOUS
 10
305.19833076
 20
297.447081714
 11
306.2877097493
 21
296.834094424
  0
LINE
  5
4C3
100
AcDbEntity
  8
KONSTRUKTIONSELEMENTE
100
AcDbLine
 62
7
  6
CONTINUOUS
 10
311.1916080691
 20
305.5491263384
 11
309.5575395851
 21
306.4686072734
  0
LINE
  5
4C4
100
AcDbEntity
  8
KONSTRUKTIONSELEMENTE
100
AcDbLine
 62
7
  6
CONTINUOUS
 10
304.1106446386
 20
309.5335437232
 11
302.4765761546
 21
310.4530246582
  0
LINE
  5
4C5
100
AcDbEntity
  8
KONSTRUKTIONSELEMENTE
100
AcDbLine
 62
7
  6
CONTINUOUS
 10
280.2465248657
 20
307.8464562031
 11
280.9106826461
 21
307.472382609
  0
LINE
  5
4C6
100
AcDbEntity
  8
KONSTRUKTIONSELEMENTE
100
AcDbLine
 62
7
  6
CONTINUOUS
 10
315.3308076565
 20
280.3101103968
 11
314.4291848758
 21
280.8596657486
  0
LINE
  5
4C7
100
AcDbEntity
  8
KONSTRUKTIONSELEMENTE
100
AcDbLine
 62
7
  6
CONTINUOUS
 10
315.5012846384
 20
285.7615893002
 11
316.4029075675
 21
285.2120339612
  0
LINE
  5
4C8
100
AcDbEntity
  8
0
100
AcDbLine
 62
7
  6
CONTINUOUS
 10
442.1007573205
 20
229.9517246099
 11
443.6632549363
 21
228.9942778317
  0
LINE
  5
4C9
100
AcDbEntity
  8
0
100
AcDbLine
 62
7
  6
CONTINUOUS
 10
393.9757585126
 20
230.909171416
 11
393.0382585126
 21
231.5474694358
  0
LINE
  5
4CA
100
AcDbEntity
  8
0
100
AcDbLine
 62
7
  6
CONTINUOUS
 10
399.2882561284
 20
241.4410866188
 11
400.2257561284
 21
240.8027888225
  0
LINE
  5
4CB
100
AcDbEntity
  8
KONSTRUKTIONSELEMENTE
100
AcDbLine
 62
7
  6
CONTINUOUS
 10
281.9215377068
 20
308.2378508591
 11
281.1592186949
 21
308.800692726
  0
LINE
  5
4CC
100
AcDbEntity
  8
0
100
AcDbLine
 62
7
  6
CONTINUOUS
 10
372.4132567245
 20
242.3985333132
 11
371.1632579166
 21
243.3559800075
  0
LINE
  5
4CD
100
AcDbEntity
  8
0
100
AcDbLine
 62
7
  6
CONTINUOUS
 10
386.4757585126
 20
242.3985333132
 11
385.2257561284
 21
243.3559800075
  0
LINE
  5
4CE
100
AcDbEntity
  8
KONSTRUKTIONSELEMENTE
100
AcDbLine
 62
7
  6
CONTINUOUS
 10
313.634976002
 20
280.1638447505
 11
314.3246197795
 21
279.596006189
  0
LINE
  5
4CF
100
AcDbEntity
  8
KONSTRUKTIONSELEMENTE
100
AcDbLine
 62
7
  6
CONTINUOUS
 10
318.068631588
 20
280.755356376
 11
318.7582752913
 21
280.1875178081
  0
LINE
  5
4D0
100
AcDbEntity
  8
KONSTRUKTIONSELEMENTE
100
AcDbLine
 62
7
  6
CONTINUOUS
 10
321.4545975727
 20
286.0659595129
 11
320.7649538695
 21
286.6337980808
  0
LINE
  5
4D1
100
AcDbEntity
  8
0
100
AcDbLine
 62
7
  6
CONTINUOUS
 10
370.8507573205
 20
235.0581077622
 11
371.4757567245
 21
234.419809966
  0
LINE
  5
4D2
100
AcDbEntity
  8
0
100
AcDbLine
 62
7
  6
CONTINUOUS
 10
370.8507573205
 20
241.4410866188
 11
371.4757567245
 21
240.8027888225
  0
LINE
  5
4D3
100
AcDbEntity
  8
KONSTRUKTIONSELEMENTE
100
AcDbLine
 62
7
  6
CONTINUOUS
 10
319.0927217586
 20
281.2618962614
 11
318.3851756133
 21
282.037299139
  0
LINE
  5
4D4
100
AcDbEntity
  8
KONSTRUKTIONSELEMENTE
100
AcDbLine
 62
7
  6
CONTINUOUS
 10
317.2150183994
 20
285.700295394
 11
316.5074726638
 21
286.4756935208
  0
LINE
  5
4D5
100
AcDbEntity
  8
KONSTRUKTIONSELEMENTE
100
AcDbLine
 62
7
  6
CONTINUOUS
 10
320.4305078119
 20
285.5594148767
 11
321.1380535474
 21
284.7840167499
  0
LINE
  5
4D6
100
AcDbEntity
  8
KONSTRUKTIONSELEMENTE
100
AcDbLine
 62
7
  6
CONTINUOUS
 10
280.9106826461
 20
307.472382609
 11
281.4881641075
 21
306.8134235222
  0
LINE
  5
4D7
100
AcDbEntity
  8
KONSTRUKTIONSELEMENTE
100
AcDbLine
 62
7
  6
CONTINUOUS
 10
282.5971809496
 20
307.3901224417
 11
281.9215377068
 21
308.2378508591
  0
LINE
  5
4D8
100
AcDbEntity
  8
KONSTRUKTIONSELEMENTE
100
AcDbLine
 62
7
  6
CONTINUOUS
 10
312.9095277687
 20
281.1468071822
 11
313.634976002
 21
280.1638447505
  0
LINE
  5
4D9
100
AcDbEntity
  8
KONSTRUKTIONSELEMENTE
100
AcDbLine
 62
7
  6
CONTINUOUS
 10
153.9134463187
 20
481.0571698757
 11
154.2533669658
 21
480.5681477926
  0
LINE
  5
4DA
100
AcDbEntity
  8
KONSTRUKTIONSELEMENTE
100
AcDbLine
 62
7
  6
CONTINUOUS
 10
164.1288803854
 20
489.5298720502
 11
163.6908033244
 21
490.3701154625
  0
LINE
  5
4DB
100
AcDbEntity
  8
KONSTRUKTIONSELEMENTE
100
AcDbLine
 62
7
  6
CONTINUOUS
 10
275.3788803854
 20
296.8392197081
 11
274.9408033244
 21
297.6794631204
  0
LINE
  5
4DC
100
AcDbEntity
  8
KONSTRUKTIONSELEMENTE
100
AcDbLine
 62
7
  6
CONTINUOUS
 10
162.383151661
 20
499.2564170427
 11
166.9967430174
 21
490.3842823054
  0
LINE
  5
4DD
100
AcDbEntity
  8
KONSTRUKTIONSELEMENTE
100
AcDbLine
 62
7
  6
CONTINUOUS
 10
167.5167907517
 20
492.0935941673
 11
164.0811375423
 21
498.700503152
  0
LINE
  5
4DE
100
AcDbEntity
  8
KONSTRUKTIONSELEMENTE
100
AcDbLine
 62
7
  6
CONTINUOUS
 10
170.2381641075
 20
499.5040758642
 11
171.7105868427
 21
496.6725435744
  0
LINE
  5
4DF
100
AcDbEntity
  8
KONSTRUKTIONSELEMENTE
100
AcDbLine
 62
7
  6
CONTINUOUS
 10
172.8196036849
 20
497.2492424939
 11
171.3471809496
 21
500.0807747837
  0
LINE
  5
4E0
100
AcDbEntity
  8
KONSTRUKTIONSELEMENTE
100
AcDbLine
 62
7
  6
CONTINUOUS
 10
273.633151661
 20
306.5657647006
 11
278.2467430174
 21
297.6936299634
  0
LINE
  5
4E1
100
AcDbEntity
  8
KONSTRUKTIONSELEMENTE
100
AcDbLine
 62
7
  6
CONTINUOUS
 10
278.7667907517
 20
299.4029418253
 11
275.3311375423
 21
306.00985081
  0
LINE
  5
4E2
100
AcDbEntity
  8
0
100
AcDbLine
 62
7
  6
CONTINUOUS
 10
220.3820073205
 20
432.5282723337
 11
220.3820073205
 21
419.1751289057
  0
LINE
  5
4E3
100
AcDbEntity
  8
0
100
AcDbLine
 62
7
  6
CONTINUOUS
 10
220.3820073205
 20
514.8231565856
 11
220.3820073205
 21
528.1751289057
  0
LINE
  5
4E4
100
AcDbEntity
  8
RUNDUNGEN
100
AcDbLine
 62
7
  6
CONTINUOUS
 10
240.3820073205
 20
428.4179937079
 11
240.3820073205
 21
382.4830239842
  0
LINE
  5
4E5
100
AcDbEntity
  8
RUNDUNGEN
100
AcDbLine
 62
7
  6
CONTINUOUS
 10
240.3820073205
 20
518.9322726681
 11
240.3820073205
 21
564.8671978343
  0
LINE
  5
4E6
100
AcDbEntity
  8
KONSTRUKTIONSELEMENTE
100
AcDbLine
 62
7
  6
CONTINUOUS
 10
275.4181683877
 20
680.1214928252
 11
275.5698262393
 21
681.0448142306
  0
LINE
  5
4E7
100
AcDbEntity
  8
KONSTRUKTIONSELEMENTE
100
AcDbLine
 62
7
  6
CONTINUOUS
 10
261.3762675483
 20
673.1977121659
 11
260.4393781211
 21
668.2862726416
  0
LINE
  5
4E8
100
AcDbEntity
  8
KONSTRUKTIONSELEMENTE
100
AcDbLine
 62
7
  6
CONTINUOUS
 10
261.7185874862
 20
669.3147943704
 11
262.4602915788
 21
673.203017132
  0
LINE
  5
4E9
100
AcDbEntity
  8
KONSTRUKTIONSELEMENTE
100
AcDbLine
 62
7
  6
CONTINUOUS
 10
265.5952531891
 20
672.6050025637
 11
264.8535490965
 21
668.7167798021
  0
LINE
  5
4EA
100
AcDbEntity
  8
KONSTRUKTIONSELEMENTE
100
AcDbLine
 62
7
  6
CONTINUOUS
 10
266.1075335064
 20
668.4775740194
 11
266.7711634987
 21
671.9565102516
  0
LINE
  5
4EB
100
AcDbEntity
  8
KONSTRUKTIONSELEMENTE
100
AcDbLine
 62
7
  6
CONTINUOUS
 10
270.2622571698
 20
666.4124937873
 11
270.4964795266
 21
667.6403536684
  0
LINE
  5
4EC
100
AcDbEntity
  8
KONSTRUKTIONSELEMENTE
100
AcDbLine
 62
7
  6
CONTINUOUS
 10
271.472405976
 20
672.7564363111
 11
271.7456654667
 21
674.188939896
  0
LINE
  5
4ED
100
AcDbEntity
  8
KONSTRUKTIONSELEMENTE
100
AcDbLine
 62
7
  6
CONTINUOUS
 10
284.0518510954
 20
686.8130851761
 11
284.3985488913
 21
687.9526260287
  0
LINE
  5
4EE
100
AcDbEntity
  8
KONSTRUKTIONSELEMENTE
100
AcDbLine
 62
7
  6
CONTINUOUS
 10
313.169516197
 20
670.9417787279
 11
312.623090745
 21
669.8491170663
  0
LINE
  5
4EF
100
AcDbEntity
  8
KONSTRUKTIONSELEMENTE
100
AcDbLine
 62
7
  6
CONTINUOUS
 10
321.8842529034
 20
666.4657587722
 11
322.4306782997
 21
667.5584204289
  0
LINE
  5
4F0
100
AcDbEntity
  8
KONSTRUKTIONSELEMENTE
100
AcDbLine
 62
7
  6
CONTINUOUS
 10
318.170347948
 20
669.9093565354
 11
318.7346757863
 21
670.7944538825
  0
LINE
  5
4F1
100
AcDbEntity
  8
KONSTRUKTIONSELEMENTE
100
AcDbLine
 62
7
  6
CONTINUOUS
 10
317.0803463015
 20
665.2149925555
 11
317.6446737301
 21
666.1000946533
  0
LINE
  5
4F2
100
AcDbEntity
  8
KONSTRUKTIONSELEMENTE
100
AcDbLine
 62
7
  6
CONTINUOUS
 10
321.3528812128
 20
667.6745687216
 11
320.7885537842
 21
666.7894666238
  0
LINE
  5
4F3
100
AcDbEntity
  8
KONSTRUKTIONSELEMENTE
100
AcDbLine
 62
7
  6
CONTINUOUS
 10
162.4382538934
 20
485.0825777276
 11
163.2273822072
 21
485.7950484082
  0
LINE
  5
4F4
100
AcDbEntity
  8
KONSTRUKTIONSELEMENTE
100
AcDbLine
 62
7
  6
CONTINUOUS
 10
171.485023628
 20
494.3969253074
 11
170.8438412782
 21
493.823690926
  0
LINE
  5
4F5
100
AcDbEntity
  8
KONSTRUKTIONSELEMENTE
100
AcDbLine
 62
7
  6
CONTINUOUS
 10
151.3135906901
 20
482.1893791237
 11
150.5304502845
 21
481.4904089562
  0
LINE
  5
4F6
100
AcDbEntity
  8
KONSTRUKTIONSELEMENTE
100
AcDbLine
 62
7
  6
CONTINUOUS
 10
162.1995710157
 20
486.5522147319
 11
161.5340082904
 21
486.007477437
  0
LINE
  5
4F7
100
AcDbEntity
  8
KONSTRUKTIONSELEMENTE
100
AcDbLine
 62
7
  6
CONTINUOUS
 10
171.4328103861
 20
492.6910779836
 11
172.2588302778
 21
493.3604296014
  0
LINE
  5
4F8
100
AcDbEntity
  8
KONSTRUKTIONSELEMENTE
100
AcDbLine
 62
7
  6
CONTINUOUS
 10
495.2840082904
 20
678.6981297791
 11
494.5707084663
 21
678.4473193821
  0
LINE
  5
4F9
100
AcDbEntity
  8
KONSTRUKTIONSELEMENTE
100
AcDbLine
 62
7
  6
CONTINUOUS
 10
501.1581880688
 20
307.7399475687
 11
501.9956934316
 21
307.9356443467
  0
LINE
  5
4FA
100
AcDbEntity
  8
KONSTRUKTIONSELEMENTE
100
AcDbLine
 62
7
  6
CONTINUOUS
 10
271.7456654667
 20
288.8076352119
 11
266.587391108
 21
287.8828010022
  0
LINE
  5
4FB
100
AcDbEntity
  8
KONSTRUKTIONSELEMENTE
100
AcDbLine
 62
7
  6
CONTINUOUS
 10
266.7711634987
 20
286.5752055675
 11
271.472405976
 21
287.375131627
  0
LINE
  5
4FC
100
AcDbEntity
  8
KONSTRUKTIONSELEMENTE
100
AcDbLine
 62
7
  6
CONTINUOUS
 10
271.6719202496
 20
291.8072274037
 11
272.8513885708
 21
291.9733815367
  0
LINE
  5
4FD
100
AcDbEntity
  8
KONSTRUKTIONSELEMENTE
100
AcDbLine
 62
7
  6
CONTINUOUS
 10
263.2824691183
 20
288.7253263194
 11
263.9484983455
 21
288.8103665464
  0
LINE
  5
4FE
100
AcDbEntity
  8
KONSTRUKTIONSELEMENTE
100
AcDbLine
 62
7
  6
CONTINUOUS
 10
264.1827207023
 20
290.0382264275
 11
263.5166914751
 21
289.9531862005
  0
LINE
  5
4FF
100
AcDbEntity
  8
KONSTRUKTIONSELEMENTE
100
AcDbLine
 62
7
  6
CONTINUOUS
 10
319.3348076891
 20
285.8831274278
 11
319.7587655471
 21
285.9196938346
  0
LINE
  5
500
100
AcDbEntity
  8
KONSTRUKTIONSELEMENTE
100
AcDbLine
 62
7
  6
CONTINUOUS
 10
314.8653478515
 20
285.70673969
 11
315.5012846384
 21
285.7615893002
  0
LINE
  5
501
100
AcDbEntity
  8
KONSTRUKTIONSELEMENTE
100
AcDbLine
 62
7
  6
CONTINUOUS
 10
319.6692541564
 20
286.9575058812
 11
319.0333173695
 21
286.902656271
  0
LINE
  5
502
100
AcDbEntity
  8
KONSTRUKTIONSELEMENTE
100
AcDbLine
 62
7
  6
CONTINUOUS
 10
315.411772838
 20
286.7994060975
 11
314.7758360511
 21
286.7445564874
  0
LINE
  5
503
100
AcDbEntity
  8
KONSTRUKTIONSELEMENTE
100
AcDbLine
 62
7
  6
CONTINUOUS
 10
502.5272288124
 20
309.1713023531
 11
501.5915619431
 21
309.1643743767
  0
LINE
  5
504
100
AcDbEntity
  8
KONSTRUKTIONSELEMENTE
100
AcDbLine
 62
7
  6
CONTINUOUS
 10
280.0272288124
 20
309.1713023531
 11
279.0915619431
 21
309.1643743767
  0
LINE
  5
505
100
AcDbEntity
  8
KONSTRUKTIONSELEMENTE
100
AcDbLine
 62
7
  6
CONTINUOUS
 10
494.5707084663
 20
293.0660146981
 11
493.8096717834
 21
293.1091310222
  0
LINE
  5
506
100
AcDbEntity
  8
KONSTRUKTIONSELEMENTE
100
AcDbLine
 62
7
  6
CONTINUOUS
 10
279.4956934316
 20
307.9356443467
 11
280.2465248657
 21
307.8464562031
  0
LINE
  5
507
100
AcDbEntity
  8
KONSTRUKTIONSELEMENTE
100
AcDbLine
 62
7
  6
CONTINUOUS
 10
493.2395819551
 20
291.9765386687
 11
494.1719202496
 21
291.8072274037
  0
LINE
  5
508
100
AcDbEntity
  8
KONSTRUKTIONSELEMENTE
100
AcDbLine
 62
7
  6
CONTINUOUS
 10
482.9393781211
 20
282.9049679575
 11
492.7622571698
 21
281.0311891032
  0
LINE
  5
509
100
AcDbEntity
  8
KONSTRUKTIONSELEMENTE
100
AcDbLine
 62
7
  6
CONTINUOUS
 10
492.9964795266
 20
282.2590489843
 11
488.6075335064
 21
283.0962693353
  0
LINE
  5
50A
100
AcDbEntity
  8
KONSTRUKTIONSELEMENTE
100
AcDbLine
 62
7
  6
CONTINUOUS
 10
487.3535490965
 20
283.335475118
 11
484.2185874862
 21
283.9334896864
  0
LINE
  5
50B
100
AcDbEntity
  8
KONSTRUKTIONSELEMENTE
100
AcDbLine
 62
7
  6
CONTINUOUS
 10
486.4484983455
 20
288.8103665464
 11
487.0754911359
 21
288.6907635434
  0
LINE
  5
50C
100
AcDbEntity
  8
KONSTRUKTIONSELEMENTE
100
AcDbLine
 62
7
  6
CONTINUOUS
 10
487.5187108944
 20
289.878755794
 11
486.6827207023
 21
290.0382264275
  0
LINE
  5
50D
100
AcDbEntity
  8
0
100
AcDbLine
 62
7
  6
CONTINUOUS
 10
421.0070073205
 20
277.7176822113
 11
419.7570085126
 21
278.3559800075
  0
LINE
  5
50E
100
AcDbEntity
  8
0
100
AcDbLine
 62
7
  6
CONTINUOUS
 10
448.9757597047
 20
242.3985333132
 11
447.4132549363
 21
243.3559800075
  0
LINE
  5
50F
100
AcDbEntity
  8
0
100
AcDbLine
 62
7
  6
CONTINUOUS
 10
443.9757573205
 20
230.5900225179
 11
443.0382573205
 21
231.2283203142
  0
LINE
  5
510
100
AcDbEntity
  8
0
100
AcDbLine
 62
7
  6
CONTINUOUS
 10
433.9757597047
 20
241.7602355169
 11
434.9132597047
 21
241.1219377207
  0
LINE
  5
511
100
AcDbEntity
  8
0
100
AcDbLine
 62
7
  6
CONTINUOUS
 10
400.6945079166
 20
265.909171416
 11
399.7570079166
 21
266.5474694358
  0
LINE
  5
512
100
AcDbEntity
  8
0
100
AcDbLine
 62
7
  6
CONTINUOUS
 10
456.7882549363
 20
229.9517246099
 11
457.7257549363
 21
229.3134267578
  0
LINE
  5
513
100
AcDbEntity
  8
0
100
AcDbLine
 62
7
  6
CONTINUOUS
 10
458.9757573205
 20
230.2708736198
 11
458.0382573205
 21
230.909171416
  0
LINE
  5
514
100
AcDbEntity
  8
0
100
AcDbLine
 62
7
  6
CONTINUOUS
 10
447.1007597047
 20
241.7602355169
 11
448.0382597047
 21
241.1219377207
  0
LINE
  5
515
100
AcDbEntity
  8
0
100
AcDbLine
 62
7
  6
CONTINUOUS
 10
392.8820073205
 20
277.3985333132
 11
391.6320076186
 21
278.3559800075
  0
LINE
  5
516
100
AcDbEntity
  8
0
100
AcDbLine
 62
7
  6
CONTINUOUS
 10
391.1632585126
 20
230.909171416
 11
392.4132573205
 21
229.6325757118
  0
LINE
  5
517
100
AcDbEntity
  8
0
100
AcDbLine
 62
7
  6
CONTINUOUS
 10
384.9132573205
 20
241.7602355169
 11
385.5382585126
 21
241.1219377207
  0
LINE
  5
518
100
AcDbEntity
  8
0
100
AcDbLine
 62
7
  6
CONTINUOUS
 10
402.1007561284
 20
241.4410866188
 11
400.8507573205
 21
242.7176822113
  0
LINE
  5
519
100
AcDbEntity
  8
KONSTRUKTIONSELEMENTE
100
AcDbLine
 62
7
  6
CONTINUOUS
 10
155.0755445053
 20
481.471761664
 11
154.3566660771
 21
482.2451621264
  0
LINE
  5
51A
100
AcDbEntity
  8
KONSTRUKTIONSELEMENTE
100
AcDbLine
 62
7
  6
CONTINUOUS
 10
163.6908033244
 20
490.3701154625
 11
162.9578596716
 21
491.168820722
  0
LINE
  5
51B
100
AcDbEntity
  8
KONSTRUKTIONSELEMENTE
100
AcDbLine
 62
7
  6
CONTINUOUS
 10
169.6606826461
 20
500.163034951
 11
170.2381641075
 21
499.5040758642
  0
LINE
  5
51C
100
AcDbEntity
  8
KONSTRUKTIONSELEMENTE
100
AcDbLine
 62
7
  6
CONTINUOUS
 10
162.2164676445
 20
490.1624222611
 11
162.778109452
 21
489.4899113741
  0
LINE
  5
51D
100
AcDbEntity
  8
KONSTRUKTIONSELEMENTE
100
AcDbLine
 62
7
  6
CONTINUOUS
 10
171.3471809496
 20
500.0807747837
 11
170.6715377068
 21
500.9285032011
  0
LINE
  5
51E
100
AcDbEntity
  8
KONSTRUKTIONSELEMENTE
100
AcDbLine
 62
7
  6
CONTINUOUS
 10
322.18004616
 20
285.0829923257
 11
321.4545975727
 21
286.0659595129
  0
LINE
  5
51F
100
AcDbEntity
  8
0
100
AcDbLine
 62
7
  6
CONTINUOUS
 10
373.3507567245
 20
234.7389588641
 11
372.4132567245
 21
236.0155544566
  0
LINE
  5
520
100
AcDbEntity
  8
0
100
AcDbLine
 62
7
  6
CONTINUOUS
 10
373.3507567245
 20
241.1219377207
 11
372.4132567245
 21
242.3985333132
  0
LINE
  5
521
100
AcDbEntity
  8
KONSTRUKTIONSELEMENTE
100
AcDbLine
 62
7
  6
CONTINUOUS
 10
314.4291848758
 20
280.8596657486
 11
313.9336176595
 21
281.6533518295
  0
LINE
  5
522
100
AcDbEntity
  8
KONSTRUKTIONSELEMENTE
100
AcDbLine
 62
7
  6
CONTINUOUS
 10
317.8208481848
 20
281.1521970411
 11
318.068631588
 21
280.755356376
  0
LINE
  5
523
100
AcDbEntity
  8
KONSTRUKTIONSELEMENTE
100
AcDbLine
 62
7
  6
CONTINUOUS
 10
316.4029075675
 20
285.2120339612
 11
316.8984743741
 21
284.418352631
  0
LINE
  5
524
100
AcDbEntity
  8
KONSTRUKTIONSELEMENTE
100
AcDbLine
 62
7
  6
CONTINUOUS
 10
317.4628022124
 20
285.3034499781
 11
317.2150183994
 21
285.700295394
  0
LINE
  5
525
100
AcDbEntity
  8
KONSTRUKTIONSELEMENTE
100
AcDbLine
 62
7
  6
CONTINUOUS
 10
310.0482240585
 20
291.1105520216
 11
310.6934506988
 21
290.0399528517
  0
LINE
  5
526
100
AcDbEntity
  8
KONSTRUKTIONSELEMENTE
100
AcDbLine
 62
7
  6
CONTINUOUS
 10
310.0185324916
 20
296.9305100274
 11
312.5994390528
 21
292.6481133478
  0
LINE
  5
527
100
AcDbEntity
  8
KONSTRUKTIONSELEMENTE
100
AcDbLine
 62
7
  6
CONTINUOUS
 10
313.2446656931
 20
291.5775141778
 11
314.3200442474
 21
289.7931808666
  0
LINE
  5
528
100
AcDbEntity
  8
KONSTRUKTIONSELEMENTE
100
AcDbLine
 62
7
  6
CONTINUOUS
 10
315.413422248
 20
290.4521358086
 11
314.3380436937
 21
292.2364691198
  0
LINE
  5
529
100
AcDbEntity
  8
KONSTRUKTIONSELEMENTE
100
AcDbLine
 62
7
  6
CONTINUOUS
 10
313.6928170534
 20
293.3070682897
 11
311.8646757263
 21
296.3404312432
  0
LINE
  5
52A
100
AcDbEntity
  8
KONSTRUKTIONSELEMENTE
100
AcDbLine
 62
7
  6
CONTINUOUS
 10
319.2582440582
 20
295.2017659742
 11
318.6130174178
 21
296.2723651441
  0
LINE
  5
52B
100
AcDbEntity
  8
KONSTRUKTIONSELEMENTE
100
AcDbLine
 62
7
  6
CONTINUOUS
 10
281.4881641075
 20
306.8134235222
 11
282.9605868427
 21
303.9818912323
  0
LINE
  5
52C
100
AcDbEntity
  8
KONSTRUKTIONSELEMENTE
100
AcDbLine
 62
7
  6
CONTINUOUS
 10
284.0696036849
 20
304.5585901519
 11
282.5971809496
 21
307.3901224417
  0
LINE
  5
52D
100
AcDbEntity
  8
KONSTRUKTIONSELEMENTE
100
AcDbLine
 62
7
  6
CONTINUOUS
 10
274.028109452
 20
296.7992590321
 11
274.2948845477
 21
296.0852100807
  0
LINE
  5
52E
100
AcDbEntity
  8
KONSTRUKTIONSELEMENTE
100
AcDbLine
 62
7
  6
CONTINUOUS
 10
284.3755757822
 20
303.5186300235
 11
284.0696036849
 21
304.5585901519
  0
LINE
  5
52F
100
AcDbEntity
  8
KONSTRUKTIONSELEMENTE
100
AcDbLine
 62
7
  6
CONTINUOUS
 10
266.587391108
 20
287.8828010022
 11
266.3255445053
 21
288.781109322
  0
LINE
  5
530
100
AcDbEntity
  8
KONSTRUKTIONSELEMENTE
100
AcDbLine
 62
7
  6
CONTINUOUS
 10
265.5033669658
 20
287.8774954506
 11
265.5952531891
 21
287.2236978796
  0
LINE
  5
531
100
AcDbEntity
  8
KONSTRUKTIONSELEMENTE
100
AcDbLine
 62
7
  6
CONTINUOUS
 10
274.2948845477
 20
681.4665147648
 11
274.2667923447
 21
680.7109267009
  0
LINE
  5
532
100
AcDbEntity
  8
KONSTRUKTIONSELEMENTE
100
AcDbLine
 62
7
  6
CONTINUOUS
 10
283.1683974336
 20
688.5120045897
 11
283.0932089673
 21
687.7534648448
  0
LINE
  5
533
100
AcDbEntity
  8
KONSTRUKTIONSELEMENTE
100
AcDbLine
 62
7
  6
CONTINUOUS
 10
302.5225726471
 20
693.3670801639
 11
301.2039397473
 21
685.0760072407
  0
LINE
  5
534
100
AcDbEntity
  8
KONSTRUKTIONSELEMENTE
100
AcDbLine
 62
7
  6
CONTINUOUS
 10
302.4518851136
 20
685.594479342
 11
304.1106446386
 21
694.9148484073
  0
LINE
  5
535
100
AcDbEntity
  8
KONSTRUKTIONSELEMENTE
100
AcDbLine
 62
7
  6
CONTINUOUS
 10
313.7187899941
 20
669.525409226
 11
314.0711389034
 21
670.3922233697
  0
LINE
  5
536
100
AcDbEntity
  8
KONSTRUKTIONSELEMENTE
100
AcDbLine
 62
7
  6
CONTINUOUS
 10
317.6389762573
 20
671.1181664848
 11
317.4628022124
 21
670.6847546622
  0
LINE
  5
537
100
AcDbEntity
  8
KONSTRUKTIONSELEMENTE
100
AcDbLine
 62
7
  6
CONTINUOUS
 10
317.1133020395
 20
667.3089046027
 11
316.7609535399
 21
666.4420857083
  0
LINE
  5
538
100
AcDbEntity
  8
KONSTRUKTIONSELEMENTE
100
AcDbLine
 62
7
  6
CONTINUOUS
 10
317.6446737301
 20
666.1000946533
 11
317.8208481848
 21
666.5335017252
  0
LINE
  5
539
100
AcDbEntity
  8
BEZUGSACHSEN
100
AcDbLine
 62
7
  6
CONTINUOUS
 10
202.0326424151
 20
436.1751289057
 11
205.8993751411
 21
442.8725064464
  0
LINE
  5
53A
100
AcDbEntity
  8
BEZUGSACHSEN
100
AcDbLine
 62
7
  6
CONTINUOUS
 10
313.2826424151
 20
628.8657812477
 11
334.9332775098
 21
666.3657812477
  0
LINE
  5
53B
100
AcDbEntity
  8
KONSTRUKTIONSELEMENTE
100
AcDbLine
 62
7
  6
CONTINUOUS
 10
198.3075395851
 20
499.1592596154
 11
191.2018851136
 21
492.903827
  0
LINE
  5
53C
100
AcDbEntity
  8
KONSTRUKTIONSELEMENTE
100
AcDbLine
 62
7
  6
CONTINUOUS
 10
191.4064478368
 20
491.5680369532
 11
197.8088465829
 21
496.998504082
  0
LINE
  5
53D
100
AcDbEntity
  8
KONSTRUKTIONSELEMENTE
100
AcDbLine
 62
7
  6
CONTINUOUS
 10
151.5364001588
 20
481.0864271001
 11
152.0324691183
 21
481.4159786614
  0
LINE
  5
53E
100
AcDbEntity
  8
KONSTRUKTIONSELEMENTE
100
AcDbLine
 62
7
  6
CONTINUOUS
 10
500.5692190296
 20
694.2538650629
 11
496.133151661
 21
691.9470693847
  0
LINE
  5
53F
100
AcDbEntity
  8
KONSTRUKTIONSELEMENTE
100
AcDbLine
 62
7
  6
CONTINUOUS
 10
497.8311375423
 20
691.3911554941
 11
501.1581880688
 21
693.1212522527
  0
LINE
  5
540
100
AcDbEntity
  8
KONSTRUKTIONSELEMENTE
100
AcDbLine
 62
7
  6
CONTINUOUS
 10
504.5938412782
 20
686.514343268
 11
501.2667907517
 21
684.7842465093
  0
LINE
  5
541
100
AcDbEntity
  8
KONSTRUKTIONSELEMENTE
100
AcDbLine
 62
7
  6
CONTINUOUS
 10
500.7467430174
 20
683.0749346474
 11
505.1828103861
 21
685.3817303256
  0
LINE
  5
542
100
AcDbEntity
  8
KONSTRUKTIONSELEMENTE
100
AcDbLine
 62
7
  6
CONTINUOUS
 10
166.8192190296
 20
501.5632127209
 11
162.383151661
 21
499.2564170427
  0
LINE
  5
543
100
AcDbEntity
  8
KONSTRUKTIONSELEMENTE
100
AcDbLine
 62
7
  6
CONTINUOUS
 10
164.0811375423
 20
498.700503152
 11
167.4081880688
 21
500.4305999107
  0
LINE
  5
544
100
AcDbEntity
  8
KONSTRUKTIONSELEMENTE
100
AcDbLine
 62
7
  6
CONTINUOUS
 10
495.3513885708
 20
677.3546862207
 11
496.1882538934
 21
677.7732300697
  0
LINE
  5
545
100
AcDbEntity
  8
KONSTRUKTIONSELEMENTE
100
AcDbLine
 62
7
  6
CONTINUOUS
 10
486.0166914751
 20
675.3344908845
 11
485.0635906901
 21
674.8800314658
  0
LINE
  5
546
100
AcDbEntity
  8
KONSTRUKTIONSELEMENTE
100
AcDbLine
 62
7
  6
CONTINUOUS
 10
278.6581880688
 20
307.7399475687
 11
279.4956934316
 21
307.9356443467
  0
LINE
  5
547
100
AcDbEntity
  8
BEZUGSACHSEN
100
AcDbLine
 62
7
  6
CONTINUOUS
 10
535.7826424151
 20
318.4844765636
 11
492.4813722259
 21
318.4844765636
  0
LINE
  5
548
100
AcDbEntity
  8
BEZUGSACHSEN
100
AcDbLine
 62
7
  6
CONTINUOUS
 10
313.2826424151
 20
318.4844765636
 11
269.9813722259
 21
318.4844765636
  0
LINE
  5
549
100
AcDbEntity
  8
KONSTRUKTIONSELEMENTE
100
AcDbLine
 62
7
  6
CONTINUOUS
 10
501.9956934316
 20
307.9356443467
 11
502.7465248657
 21
307.8464562031
  0
LINE
  5
54A
100
AcDbEntity
  8
KONSTRUKTIONSELEMENTE
100
AcDbLine
 62
7
  6
CONTINUOUS
 10
541.1130174178
 20
296.2723651441
 11
533.6119104921
 21
297.5894649694
  0
LINE
  5
54B
100
AcDbEntity
  8
KONSTRUKTIONSELEMENTE
100
AcDbLine
 62
7
  6
CONTINUOUS
 10
534.3646757263
 20
296.3404312432
 11
539.6551804241
 21
295.3937587599
  0
LINE
  5
54C
100
AcDbEntity
  8
KONSTRUKTIONSELEMENTE
100
AcDbLine
 62
7
  6
CONTINUOUS
 10
536.8246197795
 20
279.596006189
 11
537.9203190471
 21
279.2722983502
  0
LINE
  5
54D
100
AcDbEntity
  8
KONSTRUKTIONSELEMENTE
100
AcDbLine
 62
7
  6
CONTINUOUS
 10
539.0074726638
 20
286.4756935208
 11
537.911772838
 21
286.7994060975
  0
LINE
  5
54E
100
AcDbEntity
  8
KONSTRUKTIONSELEMENTE
100
AcDbLine
 62
7
  6
CONTINUOUS
 10
543.2649538695
 20
286.6337980808
 11
542.1692541564
 21
286.9575058812
  0
LINE
  5
54F
100
AcDbEntity
  8
KONSTRUKTIONSELEMENTE
100
AcDbLine
 62
7
  6
CONTINUOUS
 10
493.8096717834
 20
293.1091310222
 11
493.0008995359
 21
293.4461760755
  0
LINE
  5
550
100
AcDbEntity
  8
0
100
AcDbLine
 62
7
  6
CONTINUOUS
 10
419.4445061284
 20
276.4410866188
 11
420.3820061284
 21
275.8027888225
  0
LINE
  5
551
100
AcDbEntity
  8
KONSTRUKTIONSELEMENTE
100
AcDbLine
 62
7
  6
CONTINUOUS
 10
153.1991492322
 20
489.0424555563
 11
158.5095071552
 21
485.1304294768
  0
LINE
  5
552
100
AcDbEntity
  8
KONSTRUKTIONSELEMENTE
100
AcDbLine
 62
7
  6
CONTINUOUS
 10
159.2508995359
 20
486.1368284175
 11
153.9405416129
 21
490.0488544971
  0
LINE
  5
553
100
AcDbEntity
  8
0
100
AcDbLine
 62
7
  6
CONTINUOUS
 10
397.8820079166
 20
265.909171416
 11
399.1320067245
 21
264.6325757118
  0
LINE
  5
554
100
AcDbEntity
  8
0
100
AcDbLine
 62
7
  6
CONTINUOUS
 10
391.3195070225
 20
276.7602355169
 11
391.9445073205
 21
276.1219377207
  0
LINE
  5
555
100
AcDbEntity
  8
0
100
AcDbLine
 62
7
  6
CONTINUOUS
 10
441.1632573205
 20
230.909171416
 11
442.1007573205
 21
229.9517246099
  0
LINE
  5
556
100
AcDbEntity
  8
0
100
AcDbLine
 62
7
  6
CONTINUOUS
 10
437.1007549363
 20
241.4410866188
 11
435.8507597047
 21
242.7176822113
  0
LINE
  5
557
100
AcDbEntity
  8
0
100
AcDbLine
 62
7
  6
CONTINUOUS
 10
387.4132585126
 20
241.1219377207
 11
386.4757585126
 21
242.3985333132
  0
LINE
  5
558
100
AcDbEntity
  8
0
100
AcDbLine
 62
7
  6
CONTINUOUS
 10
393.0382585126
 20
231.5474694358
 11
392.4132573205
 21
232.5049161302
  0
LINE
  5
559
100
AcDbEntity
  8
BEZUGSACHSEN
100
AcDbLine
 62
7
  6
CONTINUOUS
 10
334.9332775098
 20
280.9844765636
 11
313.2826424151
 21
318.4844765636
  0
LINE
  5
55A
100
AcDbEntity
  8
BEZUGSACHSEN
100
AcDbLine
 62
7
  6
CONTINUOUS
 10
205.8983734459
 20
504.479486352
 11
202.0326424151
 21
511.1751289057
  0
LINE
  5
55B
100
AcDbEntity
  8
KONSTRUKTIONSELEMENTE
100
AcDbLine
 62
7
  6
CONTINUOUS
 10
313.9336176595
 20
281.6533518295
 11
313.6500297819
 21
282.4653163631
  0
LINE
  5
55C
100
AcDbEntity
  8
KONSTRUKTIONSELEMENTE
100
AcDbLine
 62
7
  6
CONTINUOUS
 10
316.8984743741
 20
284.418352631
 11
317.1820626614
 21
283.6063833467
  0
LINE
  5
55D
100
AcDbEntity
  8
KONSTRUKTIONSELEMENTE
100
AcDbLine
 62
7
  6
CONTINUOUS
 10
318.3851756133
 20
282.037299139
 11
318.1015877357
 21
282.8492636725
  0
LINE
  5
55E
100
AcDbEntity
  8
KONSTRUKTIONSELEMENTE
100
AcDbLine
 62
7
  6
CONTINUOUS
 10
321.1380535474
 20
284.7840167499
 11
321.4216418348
 21
283.9720474656
  0
LINE
  5
55F
100
AcDbEntity
  8
KONSTRUKTIONSELEMENTE
100
AcDbLine
 62
7
  6
CONTINUOUS
 10
312.6080370208
 20
282.1663407745
 11
312.9095277687
 21
281.1468071822
  0
LINE
  5
560
100
AcDbEntity
  8
KONSTRUKTIONSELEMENTE
100
AcDbLine
 62
7
  6
CONTINUOUS
 10
282.9605868427
 20
303.9818912323
 11
283.1683974336
 21
303.1306999056
  0
LINE
  5
561
100
AcDbEntity
  8
KONSTRUKTIONSELEMENTE
100
AcDbLine
 62
7
  6
CONTINUOUS
 10
275.5698262393
 20
295.6635095465
 11
275.3788803854
 21
296.8392197081
  0
LINE
  5
562
100
AcDbEntity
  8
KONSTRUKTIONSELEMENTE
100
AcDbLine
 62
7
  6
CONTINUOUS
 10
312.5006231881
 20
283.4117171307
 11
312.6080370208
 21
282.1663407745
  0
LINE
  5
563
100
AcDbEntity
  8
KONSTRUKTIONSELEMENTE
100
AcDbLine
 62
7
  6
CONTINUOUS
 10
313.6500297819
 20
282.4653163631
 11
313.5784204235
 21
283.2955688508
  0
LINE
  5
564
100
AcDbEntity
  8
KONSTRUKTIONSELEMENTE
100
AcDbLine
 62
7
  6
CONTINUOUS
 10
284.3985488913
 20
302.5713213447
 11
284.3755757822
 21
303.5186300235
  0
LINE
  5
565
100
AcDbEntity
  8
KONSTRUKTIONSELEMENTE
100
AcDbLine
 62
7
  6
CONTINUOUS
 10
284.3985488913
 20
687.9526260287
 11
284.3755757822
 21
688.8999347076
  0
LINE
  5
566
100
AcDbEntity
  8
KONSTRUKTIONSELEMENTE
100
AcDbLine
 62
7
  6
CONTINUOUS
 10
274.2948845477
 20
296.0852100807
 11
274.2667923447
 21
295.3296220168
  0
LINE
  5
567
100
AcDbEntity
  8
KONSTRUKTIONSELEMENTE
100
AcDbLine
 62
7
  6
CONTINUOUS
 10
312.623090745
 20
669.8491170663
 11
312.5006231881
 21
668.7930218148
  0
LINE
  5
568
100
AcDbEntity
  8
KONSTRUKTIONSELEMENTE
100
AcDbLine
 62
7
  6
CONTINUOUS
 10
313.5784204235
 20
668.6768735349
 11
313.7187899941
 21
669.525409226
  0
LINE
  5
569
100
AcDbEntity
  8
KONSTRUKTIONSELEMENTE
100
AcDbLine
 62
7
  6
CONTINUOUS
 10
317.2536720198
 20
668.1574355431
 11
317.1133020395
 21
667.3089046027
  0
LINE
  5
56A
100
AcDbEntity
  8
KONSTRUKTIONSELEMENTE
100
AcDbLine
 62
7
  6
CONTINUOUS
 10
318.0299783773
 20
669.0608208443
 11
318.170347948
 21
669.9093565354
  0
LINE
  5
56B
100
AcDbEntity
  8
KONSTRUKTIONSELEMENTE
100
AcDbLine
 62
7
  6
CONTINUOUS
 10
321.4932511932
 20
668.523099662
 11
321.3528812128
 21
667.6745687216
  0
LINE
  5
56C
100
AcDbEntity
  8
KONSTRUKTIONSELEMENTE
100
AcDbLine
 62
7
  6
CONTINUOUS
 10
261.3762675483
 20
287.8164074818
 11
260.4393781211
 21
282.9049679575
  0
LINE
  5
56D
100
AcDbEntity
  8
KONSTRUKTIONSELEMENTE
100
AcDbLine
 62
7
  6
CONTINUOUS
 10
485.2864001588
 20
673.7770794421
 11
485.7824691183
 21
674.1066310034
  0
LINE
  5
56E
100
AcDbEntity
  8
KONSTRUKTIONSELEMENTE
100
AcDbLine
 62
7
  6
CONTINUOUS
 10
533.6119104921
 20
682.9707696535
 11
532.5185324916
 21
682.3118147115
  0
LINE
  5
56F
100
AcDbEntity
  8
KONSTRUKTIONSELEMENTE
100
AcDbLine
 62
7
  6
CONTINUOUS
 10
539.6551804241
 20
680.775063444
 11
536.1928170534
 21
678.6883729738
  0
LINE
  5
570
100
AcDbEntity
  8
KONSTRUKTIONSELEMENTE
100
AcDbLine
 62
7
  6
CONTINUOUS
 10
535.0994390528
 20
678.0294180318
 11
532.5482240585
 21
676.4918567057
  0
LINE
  5
571
100
AcDbEntity
  8
KONSTRUKTIONSELEMENTE
100
AcDbLine
 62
7
  6
CONTINUOUS
 10
533.1934506988
 20
675.4212575357
 11
535.7446656931
 21
676.9588188619
  0
LINE
  5
572
100
AcDbEntity
  8
KONSTRUKTIONSELEMENTE
100
AcDbLine
 62
7
  6
CONTINUOUS
 10
536.8380436937
 20
677.6177738039
 11
541.7582440582
 21
680.5830706582
  0
LINE
  5
573
100
AcDbEntity
  8
KONSTRUKTIONSELEMENTE
100
AcDbLine
 62
7
  6
CONTINUOUS
 10
170.8438412782
 20
493.823690926
 11
167.5167907517
 21
492.0935941673
  0
LINE
  5
574
100
AcDbEntity
  8
KONSTRUKTIONSELEMENTE
100
AcDbLine
 62
7
  6
CONTINUOUS
 10
166.9967430174
 20
490.3842823054
 11
171.4328103861
 21
492.6910779836
  0
LINE
  5
575
100
AcDbEntity
  8
KONSTRUKTIONSELEMENTE
100
AcDbLine
 62
7
  6
CONTINUOUS
 10
161.6013885708
 20
484.6640338787
 11
162.4382538934
 21
485.0825777276
  0
LINE
  5
576
100
AcDbEntity
  8
KONSTRUKTIONSELEMENTE
100
AcDbLine
 62
7
  6
CONTINUOUS
 10
537.2758360511
 20
672.1258611714
 11
536.2517461418
 21
671.6193165225
  0
LINE
  5
577
100
AcDbEntity
  8
KONSTRUKTIONSELEMENTE
100
AcDbLine
 62
7
  6
CONTINUOUS
 10
538.556255834
 20
664.7084526445
 11
539.5803463015
 21
665.2149925555
  0
LINE
  5
578
100
AcDbEntity
  8
KONSTRUKTIONSELEMENTE
100
AcDbLine
 62
7
  6
CONTINUOUS
 10
542.7779326782
 20
665.2816762966
 11
543.8020230328
 21
665.7882209839
  0
LINE
  5
579
100
AcDbEntity
  8
KONSTRUKTIONSELEMENTE
100
AcDbLine
 62
7
  6
CONTINUOUS
 10
152.2666914751
 20
482.6438385425
 11
151.3135906901
 21
482.1893791237
  0
LINE
  5
57A
100
AcDbEntity
  8
KONSTRUKTIONSELEMENTE
100
AcDbLine
 62
7
  6
CONTINUOUS
 10
503.6592186949
 20
308.800692726
 11
502.5272288124
 21
309.1713023531
  0
LINE
  5
57B
100
AcDbEntity
  8
KONSTRUKTIONSELEMENTE
100
AcDbLine
 62
7
  6
CONTINUOUS
 10
541.2582752913
 20
280.1875178081
 11
542.1419958913
 21
279.8455220024
  0
LINE
  5
57C
100
AcDbEntity
  8
KONSTRUKTIONSELEMENTE
100
AcDbLine
 62
7
  6
CONTINUOUS
 10
492.2595071552
 20
292.4397771347
 11
493.2395819551
 21
291.9765386687
  0
LINE
  5
57D
100
AcDbEntity
  8
KONSTRUKTIONSELEMENTE
100
AcDbLine
 62
7
  6
CONTINUOUS
 10
487.0754911359
 20
288.6907635434
 11
487.6634463187
 21
288.3665175337
  0
LINE
  5
57E
100
AcDbEntity
  8
KONSTRUKTIONSELEMENTE
100
AcDbLine
 62
7
  6
CONTINUOUS
 10
488.1066660771
 20
289.5545097843
 11
487.5187108944
 21
289.878755794
  0
LINE
  5
57F
100
AcDbEntity
  8
KONSTRUKTIONSELEMENTE
100
AcDbLine
 62
7
  6
CONTINUOUS
 10
153.3254911359
 20
481.3814158854
 11
153.9134463187
 21
481.0571698757
  0
LINE
  5
580
100
AcDbEntity
  8
KONSTRUKTIONSELEMENTE
100
AcDbLine
 62
7
  6
CONTINUOUS
 10
154.3566660771
 20
482.2451621264
 11
153.7687108944
 21
482.5694081361
  0
LINE
  5
581
100
AcDbEntity
  8
KONSTRUKTIONSELEMENTE
100
AcDbLine
 62
7
  6
CONTINUOUS
 10
156.9061097215
 20
494.0744483406
 11
162.2164676445
 21
490.1624222611
  0
LINE
  5
582
100
AcDbEntity
  8
KONSTRUKTIONSELEMENTE
100
AcDbLine
 62
7
  6
CONTINUOUS
 10
162.9578596716
 20
491.168820722
 11
157.6475017486
 21
495.0808468015
  0
LINE
  5
583
100
AcDbEntity
  8
KONSTRUKTIONSELEMENTE
100
AcDbLine
 62
7
  6
CONTINUOUS
 10
170.6715377068
 20
500.9285032011
 11
169.9092186949
 21
501.491345068
  0
LINE
  5
584
100
AcDbEntity
  8
0
100
AcDbLine
 62
7
  6
CONTINUOUS
 10
449.9132597047
 20
241.4410866188
 11
448.9757597047
 21
242.3985333132
  0
LINE
  5
585
100
AcDbEntity
  8
0
100
AcDbLine
 62
7
  6
CONTINUOUS
 10
422.2570061284
 20
276.4410866188
 11
421.0070073205
 21
277.7176822113
  0
LINE
  5
586
100
AcDbEntity
  8
0
100
AcDbLine
 62
7
  6
CONTINUOUS
 10
393.8195073205
 20
276.1219377207
 11
392.8820073205
 21
277.3985333132
  0
LINE
  5
587
100
AcDbEntity
  8
0
100
AcDbLine
 62
7
  6
CONTINUOUS
 10
399.7570079166
 20
266.5474694358
 11
399.1320067245
 21
267.5049161302
  0
LINE
  5
588
100
AcDbEntity
  8
0
100
AcDbLine
 62
7
  6
CONTINUOUS
 10
390.5382573205
 20
232.1857672321
 11
391.1632585126
 21
230.909171416
  0
LINE
  5
589
100
AcDbEntity
  8
0
100
AcDbLine
 62
7
  6
CONTINUOUS
 10
371.4757567245
 20
234.419809966
 11
371.7882573205
 21
233.4623628246
  0
LINE
  5
58A
100
AcDbEntity
  8
KONSTRUKTIONSELEMENTE
100
AcDbLine
 62
7
  6
CONTINUOUS
 10
322.4815364797
 20
284.0634634825
 11
322.18004616
 21
285.0829923257
  0
LINE
  5
58B
100
AcDbEntity
  8
KONSTRUKTIONSELEMENTE
100
AcDbLine
 62
7
  6
CONTINUOUS
 10
265.5033669658
 20
673.2588001347
 11
265.5952531891
 21
672.6050025637
  0
LINE
  5
58C
100
AcDbEntity
  8
KONSTRUKTIONSELEMENTE
100
AcDbLine
 62
7
  6
CONTINUOUS
 10
317.1820626614
 20
283.6063833467
 11
317.2536720198
 21
282.776130859
  0
LINE
  5
58D
100
AcDbEntity
  8
KONSTRUKTIONSELEMENTE
100
AcDbLine
 62
7
  6
CONTINUOUS
 10
318.1015877357
 20
282.8492636725
 11
318.0299783773
 21
283.6795161602
  0
LINE
  5
58E
100
AcDbEntity
  8
KONSTRUKTIONSELEMENTE
100
AcDbLine
 62
7
  6
CONTINUOUS
 10
321.4216418348
 20
283.9720474656
 11
321.4932511932
 21
283.1417949779
  0
LINE
  5
58F
100
AcDbEntity
  8
KONSTRUKTIONSELEMENTE
100
AcDbLine
 62
7
  6
CONTINUOUS
 10
322.553145838
 20
283.2332109948
 11
322.4815364797
 21
284.0634634825
  0
LINE
  5
590
100
AcDbEntity
  8
KONSTRUKTIONSELEMENTE
100
AcDbLine
 62
7
  6
CONTINUOUS
 10
283.1683974336
 20
303.1306999056
 11
283.0932089673
 21
302.3721601607
  0
LINE
  5
591
100
AcDbEntity
  8
KONSTRUKTIONSELEMENTE
100
AcDbLine
 62
7
  6
CONTINUOUS
 10
322.4306782997
 20
667.5584204289
 11
322.553145838
 21
668.6145156789
  0
LINE
  5
592
100
AcDbEntity
  8
KONSTRUKTIONSELEMENTE
100
AcDbLine
 62
7
  6
CONTINUOUS
 10
275.4181683877
 20
294.7401881411
 11
275.5698262393
 21
295.6635095465
  0
LINE
  5
593
100
AcDbEntity
  8
KONSTRUKTIONSELEMENTE
100
AcDbLine
 62
7
  6
CONTINUOUS
 10
261.7185874862
 20
283.9334896864
 11
262.4602915788
 21
287.821712448
  0
LINE
  5
594
100
AcDbEntity
  8
KONSTRUKTIONSELEMENTE
100
AcDbLine
 62
7
  6
CONTINUOUS
 10
265.5952531891
 20
287.2236978796
 11
264.8535490965
 21
283.335475118
  0
LINE
  5
595
100
AcDbEntity
  8
KONSTRUKTIONSELEMENTE
100
AcDbLine
 62
7
  6
CONTINUOUS
 10
266.1075335064
 20
283.0962693353
 11
266.7711634987
 21
286.5752055675
  0
LINE
  5
596
100
AcDbEntity
  8
KONSTRUKTIONSELEMENTE
100
AcDbLine
 62
7
  6
CONTINUOUS
 10
270.2622571698
 20
281.0311891032
 11
270.4964795266
 21
282.2590489843
  0
LINE
  5
597
100
AcDbEntity
  8
KONSTRUKTIONSELEMENTE
100
AcDbLine
 62
7
  6
CONTINUOUS
 10
271.472405976
 20
287.375131627
 11
271.7456654667
 21
288.8076352119
  0
LINE
  5
598
100
AcDbEntity
  8
KONSTRUKTIONSELEMENTE
100
AcDbLine
 62
7
  6
CONTINUOUS
 10
496.1882538934
 20
677.7732300697
 11
496.9773822072
 21
678.4857007502
  0
LINE
  5
599
100
AcDbEntity
  8
KONSTRUKTIONSELEMENTE
100
AcDbLine
 62
7
  6
CONTINUOUS
 10
505.235023628
 20
687.0875776494
 11
504.5938412782
 21
686.514343268
  0
LINE
  5
59A
100
AcDbEntity
  8
KONSTRUKTIONSELEMENTE
100
AcDbLine
 62
7
  6
CONTINUOUS
 10
485.0635906901
 20
674.8800314658
 11
484.2804502845
 21
674.1810612982
  0
LINE
  5
59B
100
AcDbEntity
  8
KONSTRUKTIONSELEMENTE
100
AcDbLine
 62
7
  6
CONTINUOUS
 10
532.0575395851
 20
691.8499119574
 11
524.9518851136
 21
685.594479342
  0
LINE
  5
59C
100
AcDbEntity
  8
KONSTRUKTIONSELEMENTE
100
AcDbLine
 62
7
  6
CONTINUOUS
 10
525.1564478368
 20
684.2586892952
 11
531.5588465829
 21
689.6891564241
  0
LINE
  5
59D
100
AcDbEntity
  8
KONSTRUKTIONSELEMENTE
100
AcDbLine
 62
7
  6
CONTINUOUS
 10
495.9495710157
 20
679.2428670739
 11
495.2840082904
 21
678.6981297791
  0
LINE
  5
59E
100
AcDbEntity
  8
KONSTRUKTIONSELEMENTE
100
AcDbLine
 62
7
  6
CONTINUOUS
 10
505.1828103861
 20
685.3817303256
 11
506.0088302778
 21
686.0510819435
  0
LINE
  5
59F
100
AcDbEntity
  8
KONSTRUKTIONSELEMENTE
100
AcDbLine
 62
7
  6
CONTINUOUS
 10
536.8200442474
 20
675.1744855507
 11
537.913422248
 21
675.8334404927
  0
LINE
  5
5A0
100
AcDbEntity
  8
KONSTRUKTIONSELEMENTE
100
AcDbLine
 62
7
  6
CONTINUOUS
 10
541.5333173695
 20
672.2839609551
 11
540.7212061279
 21
671.7957042731
  0
LINE
  5
5A1
100
AcDbEntity
  8
KONSTRUKTIONSELEMENTE
100
AcDbLine
 62
7
  6
CONTINUOUS
 10
161.5340082904
 20
486.007477437
 11
160.8207084663
 21
485.7566670401
  0
LINE
  5
5A2
100
AcDbEntity
  8
KONSTRUKTIONSELEMENTE
100
AcDbLine
 62
7
  6
CONTINUOUS
 10
167.8415619431
 20
501.8550267188
 11
166.8192190296
 21
501.5632127209
  0
LINE
  5
5A3
100
AcDbEntity
  8
KONSTRUKTIONSELEMENTE
100
AcDbLine
 62
7
  6
CONTINUOUS
 10
160.0596717834
 20
485.7997833643
 11
159.2508995359
 21
486.1368284175
  0
LINE
  5
5A4
100
AcDbEntity
  8
KONSTRUKTIONSELEMENTE
100
AcDbLine
 62
7
  6
CONTINUOUS
 10
158.5095071552
 20
485.1304294768
 11
159.4895819551
 21
484.6671910107
  0
LINE
  5
5A5
100
AcDbEntity
  8
KONSTRUKTIONSELEMENTE
100
AcDbLine
 62
7
  6
CONTINUOUS
 10
542.2644630198
 20
280.9016220031
 11
541.5927217586
 21
281.2618962614
  0
LINE
  5
5A6
100
AcDbEntity
  8
KONSTRUKTIONSELEMENTE
100
AcDbLine
 62
7
  6
CONTINUOUS
 10
542.2587655471
 20
285.9196938346
 11
542.9305078119
 21
285.5594148767
  0
LINE
  5
5A7
100
AcDbEntity
  8
KONSTRUKTIONSELEMENTE
100
AcDbLine
 62
7
  6
CONTINUOUS
 10
520.0726778349
 20
301.7379927438
 11
521.1620568242
 21
301.1250054538
  0
LINE
  5
5A8
100
AcDbEntity
  8
KONSTRUKTIONSELEMENTE
100
AcDbLine
 62
7
  6
CONTINUOUS
 10
523.7039397473
 20
299.6947025567
 11
525.1564478368
 21
298.8773846111
  0
LINE
  5
5A9
100
AcDbEntity
  8
KONSTRUKTIONSELEMENTE
100
AcDbLine
 62
7
  6
CONTINUOUS
 10
527.69833076
 20
297.447081714
 11
528.7877097493
 21
296.834094424
  0
LINE
  5
5AA
100
AcDbEntity
  8
KONSTRUKTIONSELEMENTE
100
AcDbLine
 62
7
  6
CONTINUOUS
 10
186.3226778349
 20
494.4286450858
 11
187.4120568242
 21
493.8156577958
  0
LINE
  5
5AB
100
AcDbEntity
  8
KONSTRUKTIONSELEMENTE
100
AcDbLine
 62
7
  6
CONTINUOUS
 10
189.9539397473
 20
492.3853548987
 11
191.4064478368
 21
491.5680369532
  0
LINE
  5
5AC
100
AcDbEntity
  8
KONSTRUKTIONSELEMENTE
100
AcDbLine
 62
7
  6
CONTINUOUS
 10
193.94833076
 20
490.137734056
 11
195.0377097493
 21
489.524746766
  0
LINE
  5
5AD
100
AcDbEntity
  8
KONSTRUKTIONSELEMENTE
100
AcDbLine
 62
7
  6
CONTINUOUS
 10
533.6916080691
 20
305.5491263384
 11
532.0575395851
 21
306.4686072734
  0
LINE
  5
5AE
100
AcDbEntity
  8
KONSTRUKTIONSELEMENTE
100
AcDbLine
 62
7
  6
CONTINUOUS
 10
526.6106446386
 20
309.5335437232
 11
524.9765761546
 21
310.4530246582
  0
LINE
  5
5AF
100
AcDbEntity
  8
KONSTRUKTIONSELEMENTE
100
AcDbLine
 62
7
  6
CONTINUOUS
 10
199.9416080691
 20
498.2397786804
 11
198.3075395851
 21
499.1592596154
  0
LINE
  5
5B0
100
AcDbEntity
  8
KONSTRUKTIONSELEMENTE
100
AcDbLine
 62
7
  6
CONTINUOUS
 10
192.8606446386
 20
502.2241960653
 11
191.2265761546
 21
503.1436770002
  0
LINE
  5
5B1
100
AcDbEntity
  8
KONSTRUKTIONSELEMENTE
100
AcDbLine
 62
7
  6
CONTINUOUS
 10
502.7465248657
 20
307.8464562031
 11
503.4106826461
 21
307.472382609
  0
LINE
  5
5B2
100
AcDbEntity
  8
KONSTRUKTIONSELEMENTE
100
AcDbLine
 62
7
  6
CONTINUOUS
 10
168.9965248657
 20
500.5371085451
 11
169.6606826461
 21
500.163034951
  0
LINE
  5
5B3
100
AcDbEntity
  8
KONSTRUKTIONSELEMENTE
100
AcDbLine
 62
7
  6
CONTINUOUS
 10
537.8308076565
 20
280.3101103968
 11
536.9291848758
 21
280.8596657486
  0
LINE
  5
5B4
100
AcDbEntity
  8
KONSTRUKTIONSELEMENTE
100
AcDbLine
 62
7
  6
CONTINUOUS
 10
538.0012846384
 20
285.7615893002
 11
538.9029075675
 21
285.2120339612
  0
LINE
  5
5B5
100
AcDbEntity
  8
KONSTRUKTIONSELEMENTE
100
AcDbLine
 62
7
  6
CONTINUOUS
 10
486.9491492322
 20
296.3518032142
 11
492.2595071552
 21
292.4397771347
  0
LINE
  5
5B6
100
AcDbEntity
  8
KONSTRUKTIONSELEMENTE
100
AcDbLine
 62
7
  6
CONTINUOUS
 10
493.0008995359
 20
293.4461760755
 11
487.6905416129
 21
297.358202155
  0
LINE
  5
5B7
100
AcDbEntity
  8
KONSTRUKTIONSELEMENTE
100
AcDbLine
 62
7
  6
CONTINUOUS
 10
490.6561097215
 20
301.3837959986
 11
495.9664676445
 21
297.4717699191
  0
LINE
  5
5B8
100
AcDbEntity
  8
KONSTRUKTIONSELEMENTE
100
AcDbLine
 62
7
  6
CONTINUOUS
 10
496.7078596716
 20
298.47816838
 11
491.3975017486
 21
302.3901944595
  0
LINE
  5
5B9
100
AcDbEntity
  8
0
100
AcDbLine
 62
7
  6
CONTINUOUS
 10
434.9132597047
 20
241.1219377207
 11
435.5382573205
 21
240.1644910263
  0
LINE
  5
5BA
100
AcDbEntity
  8
0
100
AcDbLine
 62
7
  6
CONTINUOUS
 10
443.0382573205
 20
231.2283203142
 11
441.7882549363
 21
233.1432139264
  0
LINE
  5
5BB
100
AcDbEntity
  8
0
100
AcDbLine
 62
7
  6
CONTINUOUS
 10
420.3820061284
 20
275.8027888225
 11
421.0070073205
 21
274.8453412341
  0
LINE
  5
5BC
100
AcDbEntity
  8
0
100
AcDbLine
 62
7
  6
CONTINUOUS
 10
448.0382597047
 20
241.1219377207
 11
449.2882549363
 21
239.2070434378
  0
LINE
  5
5BD
100
AcDbEntity
  8
0
100
AcDbLine
 62
7
  6
CONTINUOUS
 10
397.2570076186
 20
267.1857672321
 11
397.8820079166
 21
265.909171416
  0
LINE
  5
5BE
100
AcDbEntity
  8
0
100
AcDbLine
 62
7
  6
CONTINUOUS
 10
394.4445076186
 20
263.6751289057
 11
391.6320076186
 21
271.0155544566
  0
LINE
  5
5BF
100
AcDbEntity
  8
0
100
AcDbLine
 62
7
  6
CONTINUOUS
 10
389.7570071715
 20
270.3772566603
 11
392.2570070225
 21
263.6751289057
  0
LINE
  5
5C0
100
AcDbEntity
  8
0
100
AcDbLine
 62
7
  6
CONTINUOUS
 10
373.6632573205
 20
233.7815117227
 11
373.3507567245
 21
234.7389588641
  0
LINE
  5
5C1
100
AcDbEntity
  8
0
100
AcDbLine
 62
7
  6
CONTINUOUS
 10
371.4757567245
 20
240.8027888225
 11
371.7882573205
 21
239.8453412341
  0
LINE
  5
5C2
100
AcDbEntity
  8
0
100
AcDbLine
 62
7
  6
CONTINUOUS
 10
373.6632573205
 20
240.1644910263
 11
373.3507567245
 21
241.1219377207
  0
LINE
  5
5C3
100
AcDbEntity
  8
0
100
AcDbLine
 62
7
  6
CONTINUOUS
 10
385.5382585126
 20
241.1219377207
 11
385.8507573205
 21
240.1644910263
  0
LINE
  5
5C4
100
AcDbEntity
  8
0
100
AcDbLine
 62
7
  6
CONTINUOUS
 10
387.7257573205
 20
240.1644910263
 11
387.4132585126
 21
241.1219377207
  0
LINE
  5
5C5
100
AcDbEntity
  8
0
100
AcDbLine
 62
7
  6
CONTINUOUS
 10
355.8507573205
 20
232.1857672321
 11
353.3507570225
 21
243.6751289057
  0
LINE
  5
5C6
100
AcDbEntity
  8
0
100
AcDbLine
 62
7
  6
CONTINUOUS
 10
352.1007573205
 20
240.8027888225
 11
354.6007576186
 21
228.6751289057
  0
LINE
  5
5C7
100
AcDbEntity
  8
0
100
AcDbLine
 62
7
  6
CONTINUOUS
 10
344.6007573205
 20
243.6751289057
 11
347.100757395
 21
228.6751289057
  0
LINE
  5
5C8
100
AcDbEntity
  8
0
100
AcDbLine
 62
7
  6
CONTINUOUS
 10
348.3507573205
 20
232.1857672321
 11
346.4757573205
 21
243.6751289057
  0
LINE
  5
5C9
100
AcDbEntity
  8
KONSTRUKTIONSELEMENTE
100
AcDbLine
 62
7
  6
CONTINUOUS
 10
275.5698262393
 20
681.0448142306
 11
275.3788803854
 21
682.2205243922
  0
LINE
  5
5CA
100
AcDbEntity
  8
KONSTRUKTIONSELEMENTE
100
AcDbLine
 62
7
  6
CONTINUOUS
 10
312.5006231881
 20
668.7930218148
 11
312.6080370208
 21
667.5476454586
  0
LINE
  5
5CB
100
AcDbEntity
  8
KONSTRUKTIONSELEMENTE
100
AcDbLine
 62
7
  6
CONTINUOUS
 10
313.6500297819
 20
667.8466210472
 11
313.5784204235
 21
668.6768735349
  0
LINE
  5
5CC
100
AcDbEntity
  8
KONSTRUKTIONSELEMENTE
100
AcDbLine
 62
7
  6
CONTINUOUS
 10
317.1820626614
 20
668.9876880308
 11
317.2536720198
 21
668.1574355431
  0
LINE
  5
5CD
100
AcDbEntity
  8
KONSTRUKTIONSELEMENTE
100
AcDbLine
 62
7
  6
CONTINUOUS
 10
318.1015877357
 20
668.2305683566
 11
318.0299783773
 21
669.0608208443
  0
LINE
  5
5CE
100
AcDbEntity
  8
KONSTRUKTIONSELEMENTE
100
AcDbLine
 62
7
  6
CONTINUOUS
 10
321.4216418348
 20
669.3533521497
 11
321.4932511932
 21
668.523099662
  0
LINE
  5
5CF
100
AcDbEntity
  8
KONSTRUKTIONSELEMENTE
100
AcDbLine
 62
7
  6
CONTINUOUS
 10
322.553145838
 20
668.6145156789
 11
322.4815364797
 21
669.4447681666
  0
LINE
  5
5D0
100
AcDbEntity
  8
RUNDUNGEN
100
AcDbLine
 62
7
  6
CONTINUOUS
 10
329.3820073205
 20
427.0828015947
 11
329.3820073205
 21
382.483059977
  0
LINE
  5
5D1
100
AcDbEntity
  8
RUNDUNGEN
100
AcDbLine
 62
7
  6
CONTINUOUS
 10
329.3820073205
 20
520.2674586813
 11
329.3820073205
 21
564.8672239628
  0
LINE
  5
5D2
100
AcDbEntity
  8
0
100
AcDbLine
 62
7
  6
CONTINUOUS
 10
332.8820073205
 20
598.3707583399
 11
332.8820073205
 21
520.3098133937
  0
LINE
  5
5D3
100
AcDbEntity
  8
0
100
AcDbLine
 62
7
  6
CONTINUOUS
 10
332.8820073205
 20
427.0404443955
 11
332.8820073205
 21
348.9794994714
  0
LINE
  5
5D4
100
AcDbEntity
  8
KONSTRUKTIONSELEMENTE
100
AcDbLine
 62
7
  6
CONTINUOUS
 10
312.623090745
 20
284.4678123822
 11
312.5006231881
 21
283.4117171307
  0
LINE
  5
5D5
100
AcDbEntity
  8
KONSTRUKTIONSELEMENTE
100
AcDbLine
 62
7
  6
CONTINUOUS
 10
322.4306782997
 20
282.1771157448
 11
322.553145838
 21
283.2332109948
  0
LINE
  5
5D6
100
AcDbEntity
  8
KONSTRUKTIONSELEMENTE
100
AcDbLine
 62
7
  6
CONTINUOUS
 10
302.5225726471
 20
307.9857754798
 11
301.2039397473
 21
299.6947025567
  0
LINE
  5
5D7
100
AcDbEntity
  8
KONSTRUKTIONSELEMENTE
100
AcDbLine
 62
7
  6
CONTINUOUS
 10
313.5784204235
 20
283.2955688508
 11
313.7187899941
 21
284.1441045419
  0
LINE
  5
5D8
100
AcDbEntity
  8
KONSTRUKTIONSELEMENTE
100
AcDbLine
 62
7
  6
CONTINUOUS
 10
317.2536720198
 20
282.776130859
 11
317.1133020395
 21
281.9275999187
  0
LINE
  5
5D9
100
AcDbEntity
  8
KONSTRUKTIONSELEMENTE
100
AcDbLine
 62
7
  6
CONTINUOUS
 10
318.0299783773
 20
283.6795161602
 11
318.170347948
 21
284.5280518513
  0
LINE
  5
5DA
100
AcDbEntity
  8
KONSTRUKTIONSELEMENTE
100
AcDbLine
 62
7
  6
CONTINUOUS
 10
302.4518851136
 20
300.213174658
 11
304.1106446386
 21
309.5335437232
  0
LINE
  5
5DB
100
AcDbEntity
  8
KONSTRUKTIONSELEMENTE
100
AcDbLine
 62
7
  6
CONTINUOUS
 10
284.0518510954
 20
301.4317804921
 11
284.3985488913
 21
302.5713213447
  0
LINE
  5
5DC
100
AcDbEntity
  8
KONSTRUKTIONSELEMENTE
100
AcDbLine
 62
7
  6
CONTINUOUS
 10
274.2667923447
 20
295.3296220168
 11
273.9438326028
 21
294.532495017
  0
LINE
  5
5DD
100
AcDbEntity
  8
KONSTRUKTIONSELEMENTE
100
AcDbLine
 62
7
  6
CONTINUOUS
 10
261.7804502845
 20
288.7997566141
 11
261.3762675483
 21
287.8164074818
  0
LINE
  5
5DE
100
AcDbEntity
  8
KONSTRUKTIONSELEMENTE
100
AcDbLine
 62
7
  6
CONTINUOUS
 10
491.3975017486
 20
687.7714991435
 11
490.6561097215
 21
686.7651006827
  0
LINE
  5
5DF
100
AcDbEntity
  8
KONSTRUKTIONSELEMENTE
100
AcDbLine
 62
7
  6
CONTINUOUS
 10
487.6905416129
 20
682.7395068391
 11
486.9491492322
 21
681.7331078983
  0
LINE
  5
5E0
100
AcDbEntity
  8
KONSTRUKTIONSELEMENTE
100
AcDbLine
 62
7
  6
CONTINUOUS
 10
536.5711389034
 20
670.3922233697
 11
537.3653478515
 21
671.0880443741
  0
LINE
  5
5E1
100
AcDbEntity
  8
KONSTRUKTIONSELEMENTE
100
AcDbLine
 62
7
  6
CONTINUOUS
 10
539.2609535399
 20
666.4420857083
 11
538.4667444434
 21
665.746264691
  0
LINE
  5
5E2
100
AcDbEntity
  8
KONSTRUKTIONSELEMENTE
100
AcDbLine
 62
7
  6
CONTINUOUS
 10
541.2346757863
 20
670.7944538825
 11
541.8348076891
 21
671.2644321119
  0
LINE
  5
5E3
100
AcDbEntity
  8
KONSTRUKTIONSELEMENTE
100
AcDbLine
 62
7
  6
CONTINUOUS
 10
543.2885537842
 20
666.7894666238
 11
542.6884208778
 21
666.3194930939
  0
LWPOLYLINE
  5
5E4
100
AcDbEntity
  8
0
100
AcDbPolyline
 62
7
  6
CONTINUOUS
 90
74
 70
0
 10
570.5844158065
 20
428.7033054547
 10
570.8333876812
 20
428.7261722649
 10
571.0950861082
 20
428.7514908793
 10
571.3696826648
 20
428.7795045228
 10
571.6578424048
 20
428.8105290781
 10
571.9590077929
 20
428.8447683784
 10
572.272349211
 20
428.8823936175
 10
572.5993520601
 20
428.9238687305
 10
572.939738317
 20
428.96947064
 10
573.2977629126
 20
429.0201423933
 10
573.6760193833
 20
429.076726745
 10
574.0788510186
 20
429.1404693804
 10
574.5110712467
 20
429.2128983331
 10
574.9734882692
 20
429.2950615833
 10
575.4693735254
 20
429.3885961582
 10
575.9958830718
 20
429.4941123414
 10
576.5522167128
 20
429.6126194273
 10
577.1353707471
 20
429.7446580942
 10
577.7427180762
 20
429.8907779134
 10
578.3722072423
 20
430.0516009695
 10
579.0215462151
 20
430.2276203451
 10
579.6887033945
 20
430.4193094682
 10
580.3714963887
 20
430.6270158325
 10
581.0679897736
 20
430.8510734371
 10
581.7757439898
 20
431.0915555801
 10
582.4940341259
 20
431.3490407127
 10
583.2215706811
 20
431.6238885966
 10
583.9574852136
 20
431.9165834938
 10
584.7007732353
 20
432.2275369559
 10
585.4504351296
 20
432.5571287341
 10
586.2054758437
 20
432.9056973947
 10
586.9648087511
 20
433.2735059841
 10
587.7273556571
 20
433.6607844882
 10
588.4920411233
 20
434.0677074861
 10
589.257507889
 20
434.4942141101
 10
590.0235509733
 20
434.940852325
 10
590.7894733115
 20
435.4079100174
 10
591.5552231584
 20
435.8961001099
 10
592.3205246574
 20
436.40606613
 10
593.0850529215
 20
436.9384781213
 10
593.8484317397
 20
437.4940269435
 10
594.6102383501
 20
438.0734059336
 10
595.3699963953
 20
438.6773253412
 10
596.1271630041
 20
439.3065099751
 10
596.8811355069
 20
439.961649577
 10
597.6313516256
 20
440.6434846714
 10
598.3771349741
 20
441.3527297616
 10
599.1178136819
 20
442.0901955386
 10
599.8526019178
 20
442.8566919553
 10
600.5806234686
 20
443.653043208
 10
601.3009112442
 20
444.4800794456
 10
602.0124162002
 20
445.3386301158
 10
602.7139870218
 20
446.2295267547
 10
603.4043853101
 20
447.1535895409
 10
604.0823092348
 20
448.1115857177
 10
604.7464386497
 20
449.1043920794
 10
605.3952899484
 20
450.1328335618
 10
606.0272759621
 20
451.1977887423
 10
606.6406563678
 20
452.3001047007
 10
607.2335500121
 20
453.4405500111
 10
607.8038563184
 20
454.6196687754
 10
608.349661518
 20
455.8385209366
 10
608.8687715986
 20
457.0973267757
 10
609.3592960675
 20
458.3973704055
 10
609.8188832275
 20
459.7394830258
 10
610.2449467322
 20
461.1246350619
 10
610.6345790639
 20
462.5537800993
 10
610.9843643604
 20
464.0271268279
 10
611.2908332093
 20
465.546218195
 10
611.5497652663
 20
467.1104856205
 10
611.7571602187
 20
468.7208638848
 10
611.9087613233
 20
470.3766231327
 10
612.0004109673
 20
472.0768705965
 10
612.0283326062
 20
473.6751289057
  0
LINE
  5
5E5
100
AcDbEntity
  8
0
100
AcDbLine
 62
7
  6
CONTINUOUS
 10
570.1215578339
 20
428.663848084
 11
570.5844158065
 21
428.7033054547
  0
LINE
  5
5E6
100
AcDbEntity
  8
0
100
AcDbLine
 62
7
  6
CONTINUOUS
 10
569.7004583118
 20
428.6312301585
 11
570.1215578339
 21
428.663848084
  0
LINE
  5
5E7
100
AcDbEntity
  8
0
100
AcDbLine
 62
7
  6
CONTINUOUS
 10
569.3117633192
 20
428.6037040142
 11
569.7004583118
 21
428.6312301585
  0
LINE
  5
5E8
100
AcDbEntity
  8
0
100
AcDbLine
 62
7
  6
CONTINUOUS
 10
568.9442917859
 20
428.5797788362
 11
569.3117633192
 21
428.6037040142
  0
LINE
  5
5E9
100
AcDbEntity
  8
0
100
AcDbLine
 62
7
  6
CONTINUOUS
 10
568.5888616653
 20
428.5584036817
 11
568.9442917859
 21
428.5797788362
  0
LINE
  5
5EA
100
AcDbEntity
  8
0
100
AcDbLine
 62
7
  6
CONTINUOUS
 10
568.0624077167
 20
428.5295646687
 11
568.5888616653
 21
428.5584036817
  0
LINE
  5
5EB
100
AcDbEntity
  8
0
100
AcDbLine
 62
7
  6
CONTINUOUS
 10
567.5283147193
 20
428.5032465493
 11
568.0624077167
 21
428.5295646687
  0
LINE
  5
5EC
100
AcDbEntity
  8
0
100
AcDbLine
 62
7
  6
CONTINUOUS
 10
566.7840402431
 20
428.4705377324
 11
567.5283147193
 21
428.5032465493
  0
LINE
  5
5ED
100
AcDbEntity
  8
0
100
AcDbLine
 62
7
  6
CONTINUOUS
 10
565.7680634022
 20
428.4314988658
 11
566.7840402431
 21
428.4705377324
  0
LINE
  5
5EE
100
AcDbEntity
  8
0
100
AcDbLine
 62
7
  6
CONTINUOUS
 10
564.3671784121
 20
428.3849983185
 11
565.7680634022
 21
428.4314988658
  0
LINE
  5
5EF
100
AcDbEntity
  8
0
100
AcDbLine
 62
7
  6
CONTINUOUS
 10
565.3820073205
 20
396.8875431034
 11
605.3820073205
 21
396.8875431034
  0
LINE
  5
5F0
100
AcDbEntity
  8
0
100
AcDbLine
 62
7
  6
CONTINUOUS
 10
220.3820073205
 20
419.1751289057
 11
240.3820073205
 21
419.1751289057
  0
LINE
  5
5F1
100
AcDbEntity
  8
0
100
AcDbLine
 62
7
  6
CONTINUOUS
 10
240.2047585102
 20
428.424103544
 11
241.5631184793
 21
428.3798972051
  0
LINE
  5
5F2
100
AcDbEntity
  8
0
100
AcDbLine
 62
7
  6
CONTINUOUS
 10
239.2639067659
 20
428.4590613022
 11
240.2047585102
 21
428.424103544
  0
LINE
  5
5F3
100
AcDbEntity
  8
0
100
AcDbLine
 62
7
  6
CONTINUOUS
 10
238.4175838405
 20
428.4948718413
 11
239.2639067659
 21
428.4590613022
  0
LINE
  5
5F4
100
AcDbEntity
  8
0
100
AcDbLine
 62
7
  6
CONTINUOUS
 10
237.8247803034
 20
428.5232612582
 11
238.4175838405
 21
428.4948718413
  0
LINE
  5
5F5
100
AcDbEntity
  8
0
100
AcDbLine
 62
7
  6
CONTINUOUS
 10
237.2473673675
 20
428.5542671393
 11
237.8247803034
 21
428.5232612582
  0
LINE
  5
5F6
100
AcDbEntity
  8
0
100
AcDbLine
 62
7
  6
CONTINUOUS
 10
236.8588473842
 20
428.5773536425
 11
237.2473673675
 21
428.5542671393
  0
LINE
  5
5F7
100
AcDbEntity
  8
0
100
AcDbLine
 62
7
  6
CONTINUOUS
 10
236.457378623
 20
428.603365462
 11
236.8588473842
 21
428.5773536425
  0
LINE
  5
5F8
100
AcDbEntity
  8
0
100
AcDbLine
 62
7
  6
CONTINUOUS
 10
236.0342089612
 20
428.6334140512
 11
236.457378623
 21
428.603365462
  0
LINE
  5
5F9
100
AcDbEntity
  8
KONSTRUKTIONSELEMENTE
100
AcDbLine
 62
7
  6
CONTINUOUS
 10
504.4215377068
 20
308.2378508591
 11
503.6592186949
 21
308.800692726
  0
LINE
  5
5FA
100
AcDbEntity
  8
KONSTRUKTIONSELEMENTE
100
AcDbLine
 62
7
  6
CONTINUOUS
 10
536.134976002
 20
280.1638447505
 11
536.8246197795
 21
279.596006189
  0
LINE
  5
5FB
100
AcDbEntity
  8
KONSTRUKTIONSELEMENTE
100
AcDbLine
 62
7
  6
CONTINUOUS
 10
540.568631588
 20
280.755356376
 11
541.2582752913
 21
280.1875178081
  0
LINE
  5
5FC
100
AcDbEntity
  8
KONSTRUKTIONSELEMENTE
100
AcDbLine
 62
7
  6
CONTINUOUS
 10
543.9545975727
 20
286.0659595129
 11
543.2649538695
 21
286.6337980808
  0
LINE
  5
5FD
100
AcDbEntity
  8
KONSTRUKTIONSELEMENTE
100
AcDbLine
 62
7
  6
CONTINUOUS
 10
488.8255445053
 20
288.781109322
 11
488.1066660771
 21
289.5545097843
  0
LINE
  5
5FE
100
AcDbEntity
  8
0
100
AcDbLine
 62
7
  6
CONTINUOUS
 10
440.5382597047
 20
232.1857672321
 11
441.1632573205
 21
230.909171416
  0
LINE
  5
5FF
100
AcDbEntity
  8
0
100
AcDbLine
 62
7
  6
CONTINUOUS
 10
422.8820073205
 20
275.1644910263
 11
422.2570061284
 21
276.4410866188
  0
LINE
  5
600
100
AcDbEntity
  8
0
100
AcDbLine
 62
7
  6
CONTINUOUS
 10
450.5382573205
 20
240.1644910263
 11
449.9132597047
 21
241.4410866188
  0
LINE
  5
601
100
AcDbEntity
  8
0
100
AcDbLine
 62
7
  6
CONTINUOUS
 10
456.1632573205
 20
231.2283203142
 11
456.7882549363
 21
229.9517246099
  0
LINE
  5
602
100
AcDbEntity
  8
0
100
AcDbLine
 62
7
  6
CONTINUOUS
 10
400.2257561284
 20
240.8027888225
 11
400.5382585126
 21
239.8453412341
  0
LINE
  5
603
100
AcDbEntity
  8
0
100
AcDbLine
 62
7
  6
CONTINUOUS
 10
391.9445073205
 20
276.1219377207
 11
392.2570070225
 21
275.1644910263
  0
LINE
  5
604
100
AcDbEntity
  8
0
100
AcDbLine
 62
7
  6
CONTINUOUS
 10
394.1320070225
 20
275.1644910263
 11
393.8195073205
 21
276.1219377207
  0
LINE
  5
605
100
AcDbEntity
  8
KONSTRUKTIONSELEMENTE
100
AcDbLine
 62
7
  6
CONTINUOUS
 10
284.3755757822
 20
688.8999347076
 11
284.0696036849
 21
689.939894836
  0
LINE
  5
606
100
AcDbEntity
  8
KONSTRUKTIONSELEMENTE
100
AcDbLine
 62
7
  6
CONTINUOUS
 10
266.587391108
 20
673.2641056863
 11
266.3255445053
 21
674.1624140061
  0
LINE
  5
607
100
AcDbEntity
  8
0
100
AcDbLine
 62
7
  6
CONTINUOUS
 10
392.4132573205
 20
232.5049161302
 11
392.1007585126
 21
233.7815117227
  0
LINE
  5
608
100
AcDbEntity
  8
0
100
AcDbLine
 62
7
  6
CONTINUOUS
 10
399.1320067245
 20
267.5049161302
 11
398.8195079166
 21
268.7815117227
  0
LINE
  5
609
100
AcDbEntity
  8
KONSTRUKTIONSELEMENTE
100
AcDbLine
 62
7
  6
CONTINUOUS
 10
282.9605868427
 20
689.3631959164
 11
283.1683974336
 21
688.5120045897
  0
LINE
  5
60A
100
AcDbEntity
  8
0
100
AcDbLine
 62
7
  6
CONTINUOUS
 10
390.2257585126
 20
233.7815117227
 11
390.5382573205
 21
232.1857672321
  0
LINE
  5
60B
100
AcDbEntity
  8
0
100
AcDbLine
 62
7
  6
CONTINUOUS
 10
362.1007567245
 20
243.6751289057
 11
362.1007567245
 21
228.6751289057
  0
LINE
  5
60C
100
AcDbEntity
  8
0
100
AcDbLine
 62
7
  6
CONTINUOUS
 10
363.9757567245
 20
230.5900225179
 11
363.9757567245
 21
235.3772566603
  0
LINE
  5
60D
100
AcDbEntity
  8
0
100
AcDbLine
 62
7
  6
CONTINUOUS
 10
363.9757567245
 20
237.2921500491
 11
363.9757567245
 21
241.7602355169
  0
LINE
  5
60E
100
AcDbEntity
  8
0
100
AcDbLine
 62
7
  6
CONTINUOUS
 10
371.7882573205
 20
239.8453412341
 11
371.7882573205
 21
239.2070434378
  0
LINE
  5
60F
100
AcDbEntity
  8
0
100
AcDbLine
 62
7
  6
CONTINUOUS
 10
371.7882573205
 20
233.4623628246
 11
371.7882573205
 21
232.5049161302
  0
LINE
  5
610
100
AcDbEntity
  8
0
100
AcDbLine
 62
7
  6
CONTINUOUS
 10
373.6632573205
 20
232.1857672321
 11
373.6632573205
 21
233.7815117227
  0
LINE
  5
611
100
AcDbEntity
  8
0
100
AcDbLine
 62
7
  6
CONTINUOUS
 10
373.6632573205
 20
238.8878945397
 11
373.6632573205
 21
240.1644910263
  0
LINE
  5
612
100
AcDbEntity
  8
0
100
AcDbLine
 62
7
  6
CONTINUOUS
 10
376.1632585126
 20
243.6751289057
 11
376.1632585126
 21
228.6751289057
  0
LINE
  5
613
100
AcDbEntity
  8
0
100
AcDbLine
 62
7
  6
CONTINUOUS
 10
378.0382585126
 20
228.6751289057
 11
378.0382585126
 21
235.3772566603
  0
LINE
  5
614
100
AcDbEntity
  8
0
100
AcDbLine
 62
7
  6
CONTINUOUS
 10
378.0382585126
 20
237.2921500491
 11
378.0382585126
 21
242.079384415
  0
LINE
  5
615
100
AcDbEntity
  8
KONSTRUKTIONSELEMENTE
100
AcDbLine
 62
7
  6
CONTINUOUS
 10
321.4932511932
 20
283.1417949779
 11
321.3528812128
 21
282.2932640375
  0
LINE
  5
616
100
AcDbEntity
  8
KONSTRUKTIONSELEMENTE
100
AcDbLine
 62
7
  6
CONTINUOUS
 10
274.9716437944
 20
293.7753286933
 11
275.4181683877
 21
294.7401881411
  0
LINE
  5
617
100
AcDbEntity
  8
KONSTRUKTIONSELEMENTE
100
AcDbLine
 62
7
  6
CONTINUOUS
 10
283.0932089673
 20
302.3721601607
 11
282.735023628
 21
301.7062729653
  0
LINE
  5
618
100
AcDbEntity
  8
KONSTRUKTIONSELEMENTE
100
AcDbLine
 62
7
  6
CONTINUOUS
 10
262.4602915788
 20
287.821712448
 11
262.7864001588
 21
288.3957747581
  0
LINE
  5
619
100
AcDbEntity
  8
KONSTRUKTIONSELEMENTE
100
AcDbLine
 62
7
  6
CONTINUOUS
 10
484.9602915788
 20
673.203017132
 11
485.2864001588
 21
673.7770794421
  0
LINE
  5
61A
100
AcDbEntity
  8
BEZUGSACHSEN
100
AcDbLine
 62
7
  6
CONTINUOUS
 10
492.4813722259
 20
703.8657812477
 11
470.8307371313
 21
666.3657812477
  0
LINE
  5
61B
100
AcDbEntity
  8
BEZUGSACHSEN
100
AcDbLine
 62
7
  6
CONTINUOUS
 10
269.9813722259
 20
318.4844765636
 11
248.3307371313
 21
280.9844765636
  0
LINE
  5
61C
100
AcDbEntity
  8
KONSTRUKTIONSELEMENTE
100
AcDbLine
 62
7
  6
CONTINUOUS
 10
506.0088302778
 20
686.0510819435
 11
506.5518510954
 21
686.8130851761
  0
LINE
  5
61D
100
AcDbEntity
  8
KONSTRUKTIONSELEMENTE
100
AcDbLine
 62
7
  6
CONTINUOUS
 10
496.4438326028
 20
679.9137997011
 11
495.9495710157
 21
679.2428670739
  0
LINE
  5
61E
100
AcDbEntity
  8
KONSTRUKTIONSELEMENTE
100
AcDbLine
 62
7
  6
CONTINUOUS
 10
496.9773822072
 20
678.4857007502
 11
497.4716437944
 21
679.1566333774
  0
LINE
  5
61F
100
AcDbEntity
  8
KONSTRUKTIONSELEMENTE
100
AcDbLine
 62
7
  6
CONTINUOUS
 10
536.2517461418
 20
671.6193165225
 11
535.669516197
 21
670.9417787279
  0
LINE
  5
620
100
AcDbEntity
  8
KONSTRUKTIONSELEMENTE
100
AcDbLine
 62
7
  6
CONTINUOUS
 10
540.7212061279
 20
671.7957042731
 11
540.1389762573
 21
671.1181664848
  0
LINE
  5
621
100
AcDbEntity
  8
0
100
AcDbLine
 62
7
  6
CONTINUOUS
 10
562.0699207645
 20
428.3202079012
 11
564.3671784121
 21
428.3849983185
  0
LINE
  5
622
100
AcDbEntity
  8
0
100
AcDbLine
 62
7
  6
CONTINUOUS
 10
557.7043278002
 20
428.2184476425
 11
562.0699207645
 21
428.3202079012
  0
LINE
  5
623
100
AcDbEntity
  8
0
100
AcDbLine
 62
7
  6
CONTINUOUS
 10
547.3144468491
 20
428.0256282436
 11
557.7043278002
 21
428.2184476425
  0
LINE
  5
624
100
AcDbEntity
  8
0
100
AcDbLine
 62
7
  6
CONTINUOUS
 10
536.5841041631
 20
427.858357621
 11
547.3144468491
 21
428.0256282436
  0
LINE
  5
625
100
AcDbEntity
  8
0
100
AcDbLine
 62
7
  6
CONTINUOUS
 10
533.3303178994
 20
427.8111174843
 11
536.5841041631
 21
427.858357621
  0
LINE
  5
626
100
AcDbEntity
  8
0
100
AcDbLine
 62
7
  6
CONTINUOUS
 10
529.8164047792
 20
427.7613978851
 11
533.3303178994
 21
427.8111174843
  0
LINE
  5
627
100
AcDbEntity
  8
0
100
AcDbLine
 62
7
  6
CONTINUOUS
 10
526.0313495837
 20
427.7091081286
 11
529.8164047792
 21
427.7613978851
  0
LINE
  5
628
100
AcDbEntity
  8
0
100
AcDbLine
 62
7
  6
CONTINUOUS
 10
523.3521700761
 20
427.6727745756
 11
526.0313495837
 21
427.7091081286
  0
LINE
  5
629
100
AcDbEntity
  8
0
100
AcDbLine
 62
7
  6
CONTINUOUS
 10
520.5448934407
 20
427.6352288882
 11
523.3521700761
 21
427.6727745756
  0
LINE
  5
62A
100
AcDbEntity
  8
0
100
AcDbLine
 62
7
  6
CONTINUOUS
 10
402.8818715407
 20
426.1751306702
 11
419.8648883673
 21
426.3920971435
  0
LINE
  5
62B
100
AcDbEntity
  8
0
100
AcDbLine
 62
7
  6
CONTINUOUS
 10
419.8648883673
 20
426.3920971435
 11
441.7102359245
 21
426.662637364
  0
LWPOLYLINE
  5
62C
100
AcDbEntity
  8
0
100
AcDbPolyline
 62
7
  6
CONTINUOUS
 90
3
 70
0
 10
441.7102359245
 20
426.662637364
 10
466.1846738369
 20
426.9595109516
 10
520.5448934407
 20
427.6352288882
  0
LINE
  5
62D
100
AcDbEntity
  8
0
100
AcDbLine
 62
7
  6
CONTINUOUS
 10
329.3820073205
 20
426.1751289057
 11
332.8820073205
 21
426.1751289057
  0
LINE
  5
62E
100
AcDbEntity
  8
0
100
AcDbLine
 62
7
  6
CONTINUOUS
 10
472.8820073205
 20
426.1751289057
 11
476.3820073205
 21
426.1751289057
  0
LINE
  5
62F
100
AcDbEntity
  8
0
100
AcDbLine
 62
7
  6
CONTINUOUS
 10
605.3820073205
 20
426.1751289057
 11
640.3820073205
 21
426.1751289057
  0
LINE
  5
630
100
AcDbEntity
  8
0
100
AcDbLine
 62
7
  6
CONTINUOUS
 10
590.5819060978
 20
435.2813360045
 11
605.3820073205
 21
435.2813360045
  0
LINE
  5
631
100
AcDbEntity
  8
BEZUGSACHSEN
100
AcDbLine
 62
7
  6
CONTINUOUS
 10
158.7313722259
 20
436.1751289057
 11
202.0326424151
 21
436.1751289057
  0
LINE
  5
632
100
AcDbEntity
  8
BEZUGSACHSEN
100
AcDbLine
 62
7
  6
CONTINUOUS
 10
640.3820073205
 20
436.1751289057
 11
647.0326424151
 21
436.1751289057
  0
LINE
  5
633
100
AcDbEntity
  8
0
100
AcDbLine
 62
7
  6
CONTINUOUS
 10
371.7765172913
 20
426.5678458584
 11
394.8008951819
 21
426.2792569991
  0
LINE
  5
634
100
AcDbEntity
  8
0
100
AcDbLine
 62
7
  6
CONTINUOUS
 10
394.8008951819
 20
426.2792569991
 11
402.8818715407
 21
426.1751306702
  0
LINE
  5
635
100
AcDbEntity
  8
0
100
AcDbLine
 62
7
  6
CONTINUOUS
 10
269.9121559233
 20
427.8476004807
 11
371.7765172913
 21
426.5678458584
  0
LINE
  5
636
100
AcDbEntity
  8
0
100
AcDbLine
 62
7
  6
CONTINUOUS
 10
251.9179893899
 20
428.1412662683
 11
269.9121559233
 21
427.8476004807
  0
LINE
  5
637
100
AcDbEntity
  8
0
100
AcDbLine
 62
7
  6
CONTINUOUS
 10
245.6180540591
 20
428.2727981957
 11
251.9179893899
 21
428.1412662683
  0
LINE
  5
638
100
AcDbEntity
  8
0
100
AcDbLine
 62
7
  6
CONTINUOUS
 10
242.4992684062
 20
428.3525051425
 11
245.6180540591
 21
428.2727981957
  0
LINE
  5
639
100
AcDbEntity
  8
0
100
AcDbLine
 62
7
  6
CONTINUOUS
 10
241.5631184793
 20
428.3798972051
 11
242.4992684062
 21
428.3525051425
  0
LINE
  5
63A
100
AcDbEntity
  8
KONSTRUKTIONSELEMENTE
100
AcDbLine
 62
7
  6
CONTINUOUS
 10
159.4895819551
 20
484.6671910107
 11
160.4219202496
 21
484.4978797457
  0
LINE
  5
63B
100
AcDbEntity
  8
KONSTRUKTIONSELEMENTE
100
AcDbLine
 62
7
  6
CONTINUOUS
 10
149.1893781211
 20
475.5956202995
 11
159.0122571698
 21
473.7218414453
  0
LINE
  5
63C
100
AcDbEntity
  8
KONSTRUKTIONSELEMENTE
100
AcDbLine
 62
7
  6
CONTINUOUS
 10
159.2464795266
 20
474.9497013264
 11
154.8575335064
 21
475.7869216774
  0
LINE
  5
63D
100
AcDbEntity
  8
KONSTRUKTIONSELEMENTE
100
AcDbLine
 62
7
  6
CONTINUOUS
 10
153.6035490965
 20
476.02612746
 11
150.4685874862
 21
476.6241420284
  0
LINE
  5
63E
100
AcDbEntity
  8
KONSTRUKTIONSELEMENTE
100
AcDbLine
 62
7
  6
CONTINUOUS
 10
152.6984983455
 20
481.5010188884
 11
153.3254911359
 21
481.3814158854
  0
LINE
  5
63F
100
AcDbEntity
  8
KONSTRUKTIONSELEMENTE
100
AcDbLine
 62
7
  6
CONTINUOUS
 10
153.7687108944
 20
482.5694081361
 11
152.9327207023
 21
482.7288787695
  0
LINE
  5
640
100
AcDbEntity
  8
KONSTRUKTIONSELEMENTE
100
AcDbLine
 62
7
  6
CONTINUOUS
 10
169.9092186949
 20
501.491345068
 11
168.7772288124
 21
501.8619546951
  0
LINE
  5
641
100
AcDbEntity
  8
KONSTRUKTIONSELEMENTE
100
AcDbLine
 62
7
  6
CONTINUOUS
 10
497.4408033244
 20
297.6794631204
 11
496.7078596716
 21
298.47816838
  0
LINE
  5
642
100
AcDbEntity
  8
KONSTRUKTIONSELEMENTE
100
AcDbLine
 62
7
  6
CONTINUOUS
 10
541.5927217586
 20
281.2618962614
 11
540.8851756133
 21
282.037299139
  0
LINE
  5
643
100
AcDbEntity
  8
KONSTRUKTIONSELEMENTE
100
AcDbLine
 62
7
  6
CONTINUOUS
 10
539.7150183994
 20
285.700295394
 11
539.0074726638
 21
286.4756935208
  0
LINE
  5
644
100
AcDbEntity
  8
KONSTRUKTIONSELEMENTE
100
AcDbLine
 62
7
  6
CONTINUOUS
 10
542.9305078119
 20
285.5594148767
 11
543.6380535474
 21
284.7840167499
  0
LINE
  5
645
100
AcDbEntity
  8
KONSTRUKTIONSELEMENTE
100
AcDbLine
 62
7
  6
CONTINUOUS
 10
503.4106826461
 20
307.472382609
 11
503.9881641075
 21
306.8134235222
  0
LINE
  5
646
100
AcDbEntity
  8
KONSTRUKTIONSELEMENTE
100
AcDbLine
 62
7
  6
CONTINUOUS
 10
495.9664676445
 20
297.4717699191
 11
496.528109452
 21
296.7992590321
  0
LINE
  5
647
100
AcDbEntity
  8
KONSTRUKTIONSELEMENTE
100
AcDbLine
 62
7
  6
CONTINUOUS
 10
505.0971809496
 20
307.3901224417
 11
504.4215377068
 21
308.2378508591
  0
LINE
  5
648
100
AcDbEntity
  8
KONSTRUKTIONSELEMENTE
100
AcDbLine
 62
7
  6
CONTINUOUS
 10
487.6634463187
 20
288.3665175337
 11
488.0033669658
 21
287.8774954506
  0
LINE
  5
649
100
AcDbEntity
  8
BEZUGSACHSEN
100
AcDbLine
 62
7
  6
CONTINUOUS
 10
248.3307371313
 20
666.3657812477
 11
269.9813722259
 21
628.8657812477
  0
LINE
  5
64A
100
AcDbEntity
  8
BEZUGSACHSEN
100
AcDbLine
 62
7
  6
CONTINUOUS
 10
470.8307371313
 20
280.9844765636
 11
492.4813722259
 21
243.4844765636
  0
LINE
  5
64B
100
AcDbEntity
  8
KONSTRUKTIONSELEMENTE
100
AcDbLine
 62
7
  6
CONTINUOUS
 10
274.028109452
 20
682.1805637162
 11
274.2948845477
 21
681.4665147648
  0
LINE
  5
64C
100
AcDbEntity
  8
0
100
AcDbLine
 62
7
  6
CONTINUOUS
 10
440.2257573205
 20
233.1432139264
 11
440.5382597047
 21
232.1857672321
  0
LINE
  5
64D
100
AcDbEntity
  8
0
100
AcDbLine
 62
7
  6
CONTINUOUS
 10
450.8507597047
 20
239.2070434378
 11
450.5382573205
 21
240.1644910263
  0
LINE
  5
64E
100
AcDbEntity
  8
KONSTRUKTIONSELEMENTE
100
AcDbLine
 62
7
  6
CONTINUOUS
 10
312.6080370208
 20
667.5476454586
 11
312.9095277687
 21
666.5281118662
  0
LINE
  5
64F
100
AcDbEntity
  8
0
100
AcDbLine
 62
7
  6
CONTINUOUS
 10
421.0070073205
 20
274.8453412341
 11
421.3195061284
 21
273.5687456416
  0
LINE
  5
650
100
AcDbEntity
  8
0
100
AcDbLine
 62
7
  6
CONTINUOUS
 10
402.4132585126
 20
239.8453412341
 11
402.1007561284
 21
241.4410866188
  0
LINE
  5
651
100
AcDbEntity
  8
0
100
AcDbLine
 62
7
  6
CONTINUOUS
 10
396.9445070225
 20
268.7815117227
 11
397.2570076186
 21
267.1857672321
  0
LINE
  5
652
100
AcDbEntity
  8
0
100
AcDbLine
 62
7
  6
CONTINUOUS
 10
382.5695073205
 20
278.6751289057
 11
382.5695073205
 21
263.6751289057
  0
LINE
  5
653
100
AcDbEntity
  8
0
100
AcDbLine
 62
7
  6
CONTINUOUS
 10
384.4445073205
 20
263.6751289057
 11
384.4445073205
 21
270.3772566603
  0
LINE
  5
654
100
AcDbEntity
  8
0
100
AcDbLine
 62
7
  6
CONTINUOUS
 10
384.4445073205
 20
272.2921500491
 11
384.4445073205
 21
277.079384415
  0
LINE
  5
655
100
AcDbEntity
  8
0
100
AcDbLine
 62
7
  6
CONTINUOUS
 10
385.8507573205
 20
240.1644910263
 11
385.8507573205
 21
239.2070434378
  0
LINE
  5
656
100
AcDbEntity
  8
0
100
AcDbLine
 62
7
  6
CONTINUOUS
 10
387.7257573205
 20
238.8878945397
 11
387.7257573205
 21
240.1644910263
  0
LINE
  5
657
100
AcDbEntity
  8
0
100
AcDbLine
 62
7
  6
CONTINUOUS
 10
390.2257585126
 20
238.5687456416
 11
390.2257585126
 21
233.7815117227
  0
LINE
  5
658
100
AcDbEntity
  8
0
100
AcDbLine
 62
7
  6
CONTINUOUS
 10
392.1007585126
 20
233.7815117227
 11
392.1007585126
 21
238.5687456416
  0
LINE
  5
659
100
AcDbEntity
  8
0
100
AcDbLine
 62
7
  6
CONTINUOUS
 10
392.2570070225
 20
275.1644910263
 11
392.2570070225
 21
274.2070434378
  0
LINE
  5
65A
100
AcDbEntity
  8
0
100
AcDbLine
 62
7
  6
CONTINUOUS
 10
394.1320070225
 20
273.8878945397
 11
394.1320070225
 21
275.1644910263
  0
LINE
  5
65B
100
AcDbEntity
  8
0
100
AcDbLine
 62
7
  6
CONTINUOUS
 10
396.9445070225
 20
278.6751289057
 11
396.9445070225
 21
268.7815117227
  0
LINE
  5
65C
100
AcDbEntity
  8
0
100
AcDbLine
 62
7
  6
CONTINUOUS
 10
397.7257585126
 20
236.973001151
 11
397.7257585126
 21
235.0581077622
  0
LINE
  5
65D
100
AcDbEntity
  8
0
100
AcDbLine
 62
7
  6
CONTINUOUS
 10
398.8195079166
 20
268.7815117227
 11
398.8195079166
 21
278.6751289057
  0
LINE
  5
65E
100
AcDbEntity
  8
0
100
AcDbLine
 62
7
  6
CONTINUOUS
 10
400.5382585126
 20
235.0581077622
 11
400.5382585126
 21
232.5049161302
  0
LINE
  5
65F
100
AcDbEntity
  8
0
100
AcDbLine
 62
7
  6
CONTINUOUS
 10
402.4132585126
 20
232.1857672321
 11
402.4132585126
 21
236.973001151
  0
LINE
  5
660
100
AcDbEntity
  8
0
100
AcDbLine
 62
7
  6
CONTINUOUS
 10
406.3195079166
 20
278.6751289057
 11
406.3195079166
 21
268.7815117227
  0
LINE
  5
661
100
AcDbEntity
  8
0
100
AcDbLine
 62
7
  6
CONTINUOUS
 10
357.7257573205
 20
243.6751289057
 11
355.8507573205
 21
232.1857672321
  0
LINE
  5
662
100
AcDbEntity
  8
0
100
AcDbLine
 62
7
  6
CONTINUOUS
 10
357.1007570225
 20
228.6751289057
 11
359.6007573205
 21
243.6751289057
  0
LINE
  5
663
100
AcDbEntity
  8
0
100
AcDbLine
 62
7
  6
CONTINUOUS
 10
349.6007574695
 20
228.6751289057
 11
352.1007573205
 21
240.8027888225
  0
LINE
  5
664
100
AcDbEntity
  8
0
100
AcDbLine
 62
7
  6
CONTINUOUS
 10
350.8507571715
 20
243.6751289057
 11
348.3507573205
 21
232.1857672321
  0
LINE
  5
665
100
AcDbEntity
  8
KONSTRUKTIONSELEMENTE
100
AcDbLine
 62
7
  6
CONTINUOUS
 10
313.7187899941
 20
284.1441045419
 11
314.0711389034
 21
285.0109186856
  0
LINE
  5
666
100
AcDbEntity
  8
KONSTRUKTIONSELEMENTE
100
AcDbLine
 62
7
  6
CONTINUOUS
 10
317.6389762573
 20
285.7368618008
 11
317.4628022124
 21
285.3034499781
  0
LINE
  5
667
100
AcDbEntity
  8
KONSTRUKTIONSELEMENTE
100
AcDbLine
 62
7
  6
CONTINUOUS
 10
317.1133020395
 20
281.9275999187
 11
316.7609535399
 21
281.0607810242
  0
LINE
  5
668
100
AcDbEntity
  8
KONSTRUKTIONSELEMENTE
100
AcDbLine
 62
7
  6
CONTINUOUS
 10
317.6446737301
 20
280.7187899692
 11
317.8208481848
 21
281.1521970411
  0
LINE
  5
669
100
AcDbEntity
  8
KONSTRUKTIONSELEMENTE
100
AcDbLine
 62
7
  6
CONTINUOUS
 10
484.2804502845
 20
674.1810612982
 11
483.8762675483
 21
673.1977121659
  0
LINE
  5
66A
100
AcDbEntity
  8
KONSTRUKTIONSELEMENTE
100
AcDbLine
 62
7
  6
CONTINUOUS
 10
497.4716437944
 20
679.1566333774
 11
497.9181683877
 21
680.1214928252
  0
LINE
  5
66B
100
AcDbEntity
  8
KONSTRUKTIONSELEMENTE
100
AcDbLine
 62
7
  6
CONTINUOUS
 10
505.5932089673
 20
687.7534648448
 11
505.235023628
 21
687.0875776494
  0
LINE
  5
66C
100
AcDbEntity
  8
KONSTRUKTIONSELEMENTE
100
AcDbLine
 62
7
  6
CONTINUOUS
 10
302.4765761546
 20
310.4530246582
 11
297.5726778349
 21
301.7379927438
  0
LINE
  5
66D
100
AcDbEntity
  8
KONSTRUKTIONSELEMENTE
100
AcDbLine
 62
7
  6
CONTINUOUS
 10
298.6620568242
 20
301.1250054538
 11
302.5225726471
 21
307.9857754798
  0
LINE
  5
66E
100
AcDbEntity
  8
KONSTRUKTIONSELEMENTE
100
AcDbLine
 62
7
  6
CONTINUOUS
 10
524.9765761546
 20
695.8343293423
 11
520.0726778349
 21
687.1192974279
  0
LINE
  5
66F
100
AcDbEntity
  8
KONSTRUKTIONSELEMENTE
100
AcDbLine
 62
7
  6
CONTINUOUS
 10
521.1620568242
 20
686.5063101379
 11
525.0225726471
 21
693.3670801639
  0
LINE
  5
670
100
AcDbEntity
  8
KONSTRUKTIONSELEMENTE
100
AcDbLine
 62
7
  6
CONTINUOUS
 10
309.0588465829
 20
304.30785174
 11
305.19833076
 21
297.447081714
  0
LINE
  5
671
100
AcDbEntity
  8
KONSTRUKTIONSELEMENTE
100
AcDbLine
 62
7
  6
CONTINUOUS
 10
306.2877097493
 20
296.834094424
 11
311.1916080691
 21
305.5491263384
  0
LINE
  5
672
100
AcDbEntity
  8
KONSTRUKTIONSELEMENTE
100
AcDbLine
 62
7
  6
CONTINUOUS
 10
283.5088302778
 20
300.6697772594
 11
284.0518510954
 21
301.4317804921
  0
LINE
  5
673
100
AcDbEntity
  8
KONSTRUKTIONSELEMENTE
100
AcDbLine
 62
7
  6
CONTINUOUS
 10
268.8975017486
 20
302.3901944595
 11
268.1561097215
 21
301.3837959986
  0
LINE
  5
674
100
AcDbEntity
  8
KONSTRUKTIONSELEMENTE
100
AcDbLine
 62
7
  6
CONTINUOUS
 10
265.1905416129
 20
297.358202155
 11
264.4491492322
 21
296.3518032142
  0
LINE
  5
675
100
AcDbEntity
  8
KONSTRUKTIONSELEMENTE
100
AcDbLine
 62
7
  6
CONTINUOUS
 10
273.9438326028
 20
294.532495017
 11
273.4495710157
 21
293.8615623899
  0
LINE
  5
676
100
AcDbEntity
  8
KONSTRUKTIONSELEMENTE
100
AcDbLine
 62
7
  6
CONTINUOUS
 10
543.8020230328
 20
665.7882209839
 11
544.3842529034
 21
666.4657587722
  0
LINE
  5
677
100
AcDbEntity
  8
KONSTRUKTIONSELEMENTE
100
AcDbLine
 62
7
  6
CONTINUOUS
 10
649.1703190471
 20
471.9629506923
 11
649.806255834
 21
472.0178003024
  0
LINE
  5
678
100
AcDbEntity
  8
KONSTRUKTIONSELEMENTE
100
AcDbLine
 62
7
  6
CONTINUOUS
 10
653.3919958913
 20
472.5361743444
 11
654.0279326782
 21
472.5910239546
  0
LINE
  5
679
100
AcDbEntity
  8
KONSTRUKTIONSELEMENTE
100
AcDbLine
 62
7
  6
CONTINUOUS
 10
649.7167444434
 20
473.055612349
 11
649.0808076565
 21
473.0007627388
  0
LINE
  5
67A
100
AcDbEntity
  8
KONSTRUKTIONSELEMENTE
100
AcDbLine
 62
7
  6
CONTINUOUS
 10
653.9384208778
 20
473.6288407519
 11
653.5144630198
 21
473.5922743451
  0
LINE
  5
67B
100
AcDbEntity
  8
KONSTRUKTIONSELEMENTE
100
AcDbLine
 62
7
  6
CONTINUOUS
 10
653.0848076891
 20
478.5737797698
 11
653.5087655471
 21
478.6103461766
  0
LINE
  5
67C
100
AcDbEntity
  8
KONSTRUKTIONSELEMENTE
100
AcDbLine
 62
7
  6
CONTINUOUS
 10
648.6153478515
 20
478.3973920321
 11
649.2512846384
 21
478.4522416422
  0
LINE
  5
67D
100
AcDbEntity
  8
KONSTRUKTIONSELEMENTE
100
AcDbLine
 62
7
  6
CONTINUOUS
 10
653.4192541564
 20
479.6481582232
 11
652.7833173695
 21
479.593308613
  0
LINE
  5
67E
100
AcDbEntity
  8
KONSTRUKTIONSELEMENTE
100
AcDbLine
 62
7
  6
CONTINUOUS
 10
649.161772838
 20
479.4900584395
 11
648.5258360511
 21
479.4352088294
  0
LINE
  5
67F
100
AcDbEntity
  8
KONSTRUKTIONSELEMENTE
100
AcDbLine
 62
7
  6
CONTINUOUS
 10
160.8207084663
 20
485.7566670401
 11
160.0596717834
 21
485.7997833643
  0
LINE
  5
680
100
AcDbEntity
  8
KONSTRUKTIONSELEMENTE
100
AcDbLine
 62
7
  6
CONTINUOUS
 10
168.2456934316
 20
500.6262966887
 11
168.9965248657
 21
500.5371085451
  0
LINE
  5
681
100
AcDbEntity
  8
KONSTRUKTIONSELEMENTE
100
AcDbLine
 62
7
  6
CONTINUOUS
 10
535.4095277687
 20
281.1468071822
 11
536.134976002
 21
280.1638447505
  0
LINE
  5
682
100
AcDbEntity
  8
KONSTRUKTIONSELEMENTE
100
AcDbLine
 62
7
  6
CONTINUOUS
 10
544.68004616
 20
285.0829923257
 11
543.9545975727
 21
286.0659595129
  0
LINE
  5
683
100
AcDbEntity
  8
KONSTRUKTIONSELEMENTE
100
AcDbLine
 62
7
  6
CONTINUOUS
 10
265.1634463187
 20
673.7478222178
 11
265.5033669658
 21
673.2588001347
  0
LINE
  5
684
100
AcDbEntity
  8
KONSTRUKTIONSELEMENTE
100
AcDbLine
 62
7
  6
CONTINUOUS
 10
275.3788803854
 20
682.2205243922
 11
274.9408033244
 21
683.0607678045
  0
LINE
  5
685
100
AcDbEntity
  8
KONSTRUKTIONSELEMENTE
100
AcDbLine
 62
7
  6
CONTINUOUS
 10
497.8788803854
 20
296.8392197081
 11
497.4408033244
 21
297.6794631204
  0
LINE
  5
686
100
AcDbEntity
  8
KONSTRUKTIONSELEMENTE
100
AcDbLine
 62
7
  6
CONTINUOUS
 10
273.633151661
 20
691.9470693847
 11
278.2467430174
 21
683.0749346474
  0
LINE
  5
687
100
AcDbEntity
  8
KONSTRUKTIONSELEMENTE
100
AcDbLine
 62
7
  6
CONTINUOUS
 10
278.7667907517
 20
684.7842465093
 11
275.3311375423
 21
691.3911554941
  0
LINE
  5
688
100
AcDbEntity
  8
KONSTRUKTIONSELEMENTE
100
AcDbLine
 62
7
  6
CONTINUOUS
 10
281.4881641075
 20
692.1947282062
 11
282.9605868427
 21
689.3631959164
  0
LINE
  5
689
100
AcDbEntity
  8
KONSTRUKTIONSELEMENTE
100
AcDbLine
 62
7
  6
CONTINUOUS
 10
284.0696036849
 20
689.939894836
 11
282.5971809496
 21
692.7714271258
  0
LINE
  5
68A
100
AcDbEntity
  8
KONSTRUKTIONSELEMENTE
100
AcDbLine
 62
7
  6
CONTINUOUS
 10
313.9336176595
 20
667.0346565136
 11
313.6500297819
 21
667.8466210472
  0
LINE
  5
68B
100
AcDbEntity
  8
KONSTRUKTIONSELEMENTE
100
AcDbLine
 62
7
  6
CONTINUOUS
 10
316.8984743741
 20
669.7996573151
 11
317.1820626614
 21
668.9876880308
  0
LINE
  5
68C
100
AcDbEntity
  8
KONSTRUKTIONSELEMENTE
100
AcDbLine
 62
7
  6
CONTINUOUS
 10
318.3851756133
 20
667.418603823
 11
318.1015877357
 21
668.2305683566
  0
LINE
  5
68D
100
AcDbEntity
  8
KONSTRUKTIONSELEMENTE
100
AcDbLine
 62
7
  6
CONTINUOUS
 10
321.1380535474
 20
670.165321434
 11
321.4216418348
 21
669.3533521497
  0
LINE
  5
68E
100
AcDbEntity
  8
0
100
AcDbLine
 62
7
  6
CONTINUOUS
 10
458.0382573205
 20
230.909171416
 11
457.7257549363
 21
231.8666183339
  0
LINE
  5
68F
100
AcDbEntity
  8
KONSTRUKTIONSELEMENTE
100
AcDbLine
 62
7
  6
CONTINUOUS
 10
322.4815364797
 20
669.4447681666
 11
322.18004616
 21
670.4642970098
  0
LINE
  5
690
100
AcDbEntity
  8
0
100
AcDbLine
 62
7
  6
CONTINUOUS
 10
437.4132573205
 20
240.1644910263
 11
437.1007549363
 21
241.4410866188
  0
LINE
  5
691
100
AcDbEntity
  8
0
100
AcDbLine
 62
7
  6
CONTINUOUS
 10
423.1945061284
 20
273.5687456416
 11
422.8820073205
 21
275.1644910263
  0
LINE
  5
692
100
AcDbEntity
  8
0
100
AcDbLine
 62
7
  6
CONTINUOUS
 10
439.9132549363
 20
234.7389588641
 11
440.2257573205
 21
233.1432139264
  0
LINE
  5
693
100
AcDbEntity
  8
0
100
AcDbLine
 62
7
  6
CONTINUOUS
 10
451.1632549363
 20
237.6112989472
 11
450.8507597047
 21
239.2070434378
  0
LINE
  5
694
100
AcDbEntity
  8
0
100
AcDbLine
 62
7
  6
CONTINUOUS
 10
441.7882549363
 20
233.1432139264
 11
441.4757597047
 21
235.0581077622
  0
LINE
  5
695
100
AcDbEntity
  8
0
100
AcDbLine
 62
7
  6
CONTINUOUS
 10
408.1945079166
 20
268.7815117227
 11
408.1945079166
 21
278.6751289057
  0
LINE
  5
696
100
AcDbEntity
  8
0
100
AcDbLine
 62
7
  6
CONTINUOUS
 10
410.6945073205
 20
278.6751289057
 11
410.6945073205
 21
263.6751289057
  0
LINE
  5
697
100
AcDbEntity
  8
0
100
AcDbLine
 62
7
  6
CONTINUOUS
 10
412.5695073205
 20
265.5900225179
 11
412.5695073205
 21
276.7602355169
  0
LINE
  5
698
100
AcDbEntity
  8
0
100
AcDbLine
 62
7
  6
CONTINUOUS
 10
419.9132597047
 20
241.4410866188
 11
419.9132597047
 21
238.8878945397
  0
LINE
  5
699
100
AcDbEntity
  8
0
100
AcDbLine
 62
7
  6
CONTINUOUS
 10
421.3195061284
 20
273.5687456416
 11
421.3195061284
 21
268.7815117227
  0
LINE
  5
69A
100
AcDbEntity
  8
0
100
AcDbLine
 62
7
  6
CONTINUOUS
 10
421.7882597047
 20
241.1219377207
 11
421.7882597047
 21
228.6751289057
  0
LINE
  5
69B
100
AcDbEntity
  8
0
100
AcDbLine
 62
7
  6
CONTINUOUS
 10
423.1945061284
 20
268.7815117227
 11
423.1945061284
 21
273.5687456416
  0
LINE
  5
69C
100
AcDbEntity
  8
0
100
AcDbLine
 62
7
  6
CONTINUOUS
 10
423.6632597047
 20
228.6751289057
 11
423.6632597047
 21
243.6751289057
  0
LINE
  5
69D
100
AcDbEntity
  8
0
100
AcDbLine
 62
7
  6
CONTINUOUS
 10
426.1632573205
 20
230.2708736198
 11
426.1632573205
 21
228.6751289057
  0
LINE
  5
69E
100
AcDbEntity
  8
KONSTRUKTIONSELEMENTE
100
AcDbLine
 62
7
  6
CONTINUOUS
 10
496.7667923447
 20
680.7109267009
 11
496.4438326028
 21
679.9137997011
  0
LINE
  5
69F
100
AcDbEntity
  8
KONSTRUKTIONSELEMENTE
100
AcDbLine
 62
7
  6
CONTINUOUS
 10
313.169516197
 20
285.5604740438
 11
312.623090745
 21
284.4678123822
  0
LINE
  5
6A0
100
AcDbEntity
  8
KONSTRUKTIONSELEMENTE
100
AcDbLine
 62
7
  6
CONTINUOUS
 10
321.8842529034
 20
281.0844540881
 11
322.4306782997
 21
282.1771157448
  0
LINE
  5
6A1
100
AcDbEntity
  8
KONSTRUKTIONSELEMENTE
100
AcDbLine
 62
7
  6
CONTINUOUS
 10
531.5588465829
 20
689.6891564241
 11
527.69833076
 21
682.828386398
  0
LINE
  5
6A2
100
AcDbEntity
  8
KONSTRUKTIONSELEMENTE
100
AcDbLine
 62
7
  6
CONTINUOUS
 10
528.7877097493
 20
682.2153991081
 11
533.6916080691
 21
690.9304310225
  0
LINE
  5
6A3
100
AcDbEntity
  8
KONSTRUKTIONSELEMENTE
100
AcDbLine
 62
7
  6
CONTINUOUS
 10
540.670347948
 20
669.9093565354
 11
541.2346757863
 21
670.7944538825
  0
LINE
  5
6A4
100
AcDbEntity
  8
KONSTRUKTIONSELEMENTE
100
AcDbLine
 62
7
  6
CONTINUOUS
 10
539.5803463015
 20
665.2149925555
 11
540.1446737301
 21
666.1000946533
  0
LINE
  5
6A5
100
AcDbEntity
  8
KONSTRUKTIONSELEMENTE
100
AcDbLine
 62
7
  6
CONTINUOUS
 10
543.8528812128
 20
667.6745687216
 11
543.2885537842
 21
666.7894666238
  0
LINE
  5
6A6
100
AcDbEntity
  8
KONSTRUKTIONSELEMENTE
100
AcDbLine
 62
7
  6
CONTINUOUS
 10
318.170347948
 20
284.5280518513
 11
318.7346757863
 21
285.4131491984
  0
LINE
  5
6A7
100
AcDbEntity
  8
KONSTRUKTIONSELEMENTE
100
AcDbLine
 62
7
  6
CONTINUOUS
 10
274.4773822072
 20
293.1043960661
 11
274.9716437944
 21
293.7753286933
  0
LINE
  5
6A8
100
AcDbEntity
  8
KONSTRUKTIONSELEMENTE
100
AcDbLine
 62
7
  6
CONTINUOUS
 10
168.7772288124
 20
501.8619546951
 11
167.8415619431
 21
501.8550267188
  0
LINE
  5
6A9
100
AcDbEntity
  8
KONSTRUKTIONSELEMENTE
100
AcDbLine
 62
7
  6
CONTINUOUS
 10
536.9291848758
 20
280.8596657486
 11
536.4336176595
 21
281.6533518295
  0
LINE
  5
6AA
100
AcDbEntity
  8
KONSTRUKTIONSELEMENTE
100
AcDbLine
 62
7
  6
CONTINUOUS
 10
540.3208481848
 20
281.1521970411
 11
540.568631588
 21
280.755356376
  0
LINE
  5
6AB
100
AcDbEntity
  8
KONSTRUKTIONSELEMENTE
100
AcDbLine
 62
7
  6
CONTINUOUS
 10
538.9029075675
 20
285.2120339612
 11
539.3984743741
 21
284.418352631
  0
LINE
  5
6AC
100
AcDbEntity
  8
KONSTRUKTIONSELEMENTE
100
AcDbLine
 62
7
  6
CONTINUOUS
 10
539.9628022124
 20
285.3034499781
 11
539.7150183994
 21
285.700295394
  0
LINE
  5
6AD
100
AcDbEntity
  8
KONSTRUKTIONSELEMENTE
100
AcDbLine
 62
7
  6
CONTINUOUS
 10
314.4291848758
 20
666.2409704326
 11
313.9336176595
 21
667.0346565136
  0
LINE
  5
6AE
100
AcDbEntity
  8
KONSTRUKTIONSELEMENTE
100
AcDbLine
 62
7
  6
CONTINUOUS
 10
317.8208481848
 20
666.5335017252
 11
318.068631588
 21
666.1366610601
  0
LINE
  5
6AF
100
AcDbEntity
  8
KONSTRUKTIONSELEMENTE
100
AcDbLine
 62
7
  6
CONTINUOUS
 10
532.5482240585
 20
291.1105520216
 11
533.1934506988
 21
290.0399528517
  0
LINE
  5
6B0
100
AcDbEntity
  8
KONSTRUKTIONSELEMENTE
100
AcDbLine
 62
7
  6
CONTINUOUS
 10
532.5185324916
 20
296.9305100274
 11
535.0994390528
 21
292.6481133478
  0
LINE
  5
6B1
100
AcDbEntity
  8
KONSTRUKTIONSELEMENTE
100
AcDbLine
 62
7
  6
CONTINUOUS
 10
535.7446656931
 20
291.5775141778
 11
536.8200442474
 21
289.7931808666
  0
LINE
  5
6B2
100
AcDbEntity
  8
KONSTRUKTIONSELEMENTE
100
AcDbLine
 62
7
  6
CONTINUOUS
 10
537.913422248
 20
290.4521358086
 11
536.8380436937
 21
292.2364691198
  0
LINE
  5
6B3
100
AcDbEntity
  8
KONSTRUKTIONSELEMENTE
100
AcDbLine
 62
7
  6
CONTINUOUS
 10
536.1928170534
 20
293.3070682897
 11
534.3646757263
 21
296.3404312432
  0
LINE
  5
6B4
100
AcDbEntity
  8
KONSTRUKTIONSELEMENTE
100
AcDbLine
 62
7
  6
CONTINUOUS
 10
310.0482240585
 20
676.4918567057
 11
310.6934506988
 21
675.4212575357
  0
LINE
  5
6B5
100
AcDbEntity
  8
KONSTRUKTIONSELEMENTE
100
AcDbLine
 62
7
  6
CONTINUOUS
 10
541.7582440582
 20
295.2017659742
 11
541.1130174178
 21
296.2723651441
  0
LINE
  5
6B6
100
AcDbEntity
  8
KONSTRUKTIONSELEMENTE
100
AcDbLine
 62
7
  6
CONTINUOUS
 10
310.0185324916
 20
682.3118147115
 11
312.5994390528
 21
678.0294180318
  0
LINE
  5
6B7
100
AcDbEntity
  8
KONSTRUKTIONSELEMENTE
100
AcDbLine
 62
7
  6
CONTINUOUS
 10
313.2446656931
 20
676.9588188619
 11
314.3200442474
 21
675.1744855507
  0
LINE
  5
6B8
100
AcDbEntity
  8
KONSTRUKTIONSELEMENTE
100
AcDbLine
 62
7
  6
CONTINUOUS
 10
315.413422248
 20
675.8334404927
 11
314.3380436937
 21
677.6177738039
  0
LINE
  5
6B9
100
AcDbEntity
  8
KONSTRUKTIONSELEMENTE
100
AcDbLine
 62
7
  6
CONTINUOUS
 10
313.6928170534
 20
678.6883729738
 11
311.8646757263
 21
681.7217359273
  0
LINE
  5
6BA
100
AcDbEntity
  8
KONSTRUKTIONSELEMENTE
100
AcDbLine
 62
7
  6
CONTINUOUS
 10
496.133151661
 20
306.5657647006
 11
500.7467430174
 21
297.6936299634
  0
LINE
  5
6BB
100
AcDbEntity
  8
KONSTRUKTIONSELEMENTE
100
AcDbLine
 62
7
  6
CONTINUOUS
 10
501.2667907517
 20
299.4029418253
 11
497.8311375423
 21
306.00985081
  0
LINE
  5
6BC
100
AcDbEntity
  8
KONSTRUKTIONSELEMENTE
100
AcDbLine
 62
7
  6
CONTINUOUS
 10
503.9881641075
 20
306.8134235222
 11
505.4605868427
 21
303.9818912323
  0
LINE
  5
6BD
100
AcDbEntity
  8
KONSTRUKTIONSELEMENTE
100
AcDbLine
 62
7
  6
CONTINUOUS
 10
506.5696036849
 20
304.5585901519
 11
505.0971809496
 21
307.3901224417
  0
LINE
  5
6BE
100
AcDbEntity
  8
KONSTRUKTIONSELEMENTE
100
AcDbLine
 62
7
  6
CONTINUOUS
 10
496.528109452
 20
296.7992590321
 11
496.7948845477
 21
296.0852100807
  0
LINE
  5
6BF
100
AcDbEntity
  8
0
100
AcDbLine
 62
7
  6
CONTINUOUS
 10
449.2882549363
 20
239.2070434378
 11
449.6007573205
 21
237.2921500491
  0
LINE
  5
6C0
100
AcDbEntity
  8
0
100
AcDbLine
 62
7
  6
CONTINUOUS
 10
435.5382573205
 20
240.1644910263
 11
435.5382573205
 21
239.526192336
  0
LINE
  5
6C1
100
AcDbEntity
  8
0
100
AcDbLine
 62
7
  6
CONTINUOUS
 10
437.4132573205
 20
228.6751289057
 11
437.4132573205
 21
230.2708736198
  0
LINE
  5
6C2
100
AcDbEntity
  8
0
100
AcDbLine
 62
7
  6
CONTINUOUS
 10
437.4132573205
 20
239.526192336
 11
437.4132573205
 21
240.1644910263
  0
LINE
  5
6C3
100
AcDbEntity
  8
0
100
AcDbLine
 62
7
  6
CONTINUOUS
 10
439.9132549363
 20
237.6112989472
 11
439.9132549363
 21
234.7389588641
  0
LINE
  5
6C4
100
AcDbEntity
  8
0
100
AcDbLine
 62
7
  6
CONTINUOUS
 10
441.4757597047
 20
235.0581077622
 11
441.4757597047
 21
237.2921500491
  0
LINE
  5
6C5
100
AcDbEntity
  8
0
100
AcDbLine
 62
7
  6
CONTINUOUS
 10
449.6007573205
 20
237.2921500491
 11
449.6007573205
 21
235.0581077622
  0
LINE
  5
6C6
100
AcDbEntity
  8
0
100
AcDbLine
 62
7
  6
CONTINUOUS
 10
451.1632549363
 20
234.7389588641
 11
451.1632549363
 21
237.6112989472
  0
LINE
  5
6C7
100
AcDbEntity
  8
0
100
AcDbLine
 62
7
  6
CONTINUOUS
 10
453.6632597047
 20
238.8878945397
 11
453.6632597047
 21
237.6112989472
  0
LINE
  5
6C8
100
AcDbEntity
  8
0
100
AcDbLine
 62
7
  6
CONTINUOUS
 10
456.1632573205
 20
241.4410866188
 11
456.1632573205
 21
238.8878945397
  0
LINE
  5
6C9
100
AcDbEntity
  8
0
100
AcDbLine
 62
7
  6
CONTINUOUS
 10
456.1632573205
 20
237.6112989472
 11
456.1632573205
 21
231.2283203142
  0
LINE
  5
6CA
100
AcDbEntity
  8
0
100
AcDbLine
 62
7
  6
CONTINUOUS
 10
457.7257549363
 20
231.8666183339
 11
457.7257549363
 21
237.6112989472
  0
LINE
  5
6CB
100
AcDbEntity
  8
0
100
AcDbLine
 62
7
  6
CONTINUOUS
 10
457.7257549363
 20
238.8878945397
 11
457.7257549363
 21
241.4410866188
  0
LINE
  5
6CC
100
AcDbEntity
  8
KONSTRUKTIONSELEMENTE
100
AcDbLine
 62
7
  6
CONTINUOUS
 10
483.8762675483
 20
673.1977121659
 11
482.9393781211
 21
668.2862726416
  0
LINE
  5
6CD
100
AcDbEntity
  8
KONSTRUKTIONSELEMENTE
100
AcDbLine
 62
7
  6
CONTINUOUS
 10
484.2185874862
 20
669.3147943704
 11
484.9602915788
 21
673.203017132
  0
LINE
  5
6CE
100
AcDbEntity
  8
KONSTRUKTIONSELEMENTE
100
AcDbLine
 62
7
  6
CONTINUOUS
 10
488.0952531891
 20
672.6050025637
 11
487.3535490965
 21
668.7167798021
  0
LINE
  5
6CF
100
AcDbEntity
  8
KONSTRUKTIONSELEMENTE
100
AcDbLine
 62
7
  6
CONTINUOUS
 10
488.6075335064
 20
668.4775740194
 11
489.2711634987
 21
671.9565102516
  0
LINE
  5
6D0
100
AcDbEntity
  8
KONSTRUKTIONSELEMENTE
100
AcDbLine
 62
7
  6
CONTINUOUS
 10
492.7622571698
 20
666.4124937873
 11
492.9964795266
 21
667.6403536684
  0
LINE
  5
6D1
100
AcDbEntity
  8
KONSTRUKTIONSELEMENTE
100
AcDbLine
 62
7
  6
CONTINUOUS
 10
493.972405976
 20
672.7564363111
 11
494.2456654667
 21
674.188939896
  0
LINE
  5
6D2
100
AcDbEntity
  8
0
100
AcDbLine
 62
7
  6
CONTINUOUS
 10
390.5382573205
 20
240.1644910263
 11
390.2257585126
 21
238.5687456416
  0
LINE
  5
6D3
100
AcDbEntity
  8
0
100
AcDbLine
 62
7
  6
CONTINUOUS
 10
407.8820073205
 20
267.1857672321
 11
408.1945079166
 21
268.7815117227
  0
LINE
  5
6D4
100
AcDbEntity
  8
0
100
AcDbLine
 62
7
  6
CONTINUOUS
 10
392.1007585126
 20
238.5687456416
 11
392.4132573205
 21
239.8453412341
  0
LINE
  5
6D5
100
AcDbEntity
  8
0
100
AcDbLine
 62
7
  6
CONTINUOUS
 10
406.3195079166
 20
268.7815117227
 11
406.0070073205
 21
267.5049161302
  0
LINE
  5
6D6
100
AcDbEntity
  8
0
100
AcDbLine
 62
7
  6
CONTINUOUS
 10
402.1007561284
 20
230.909171416
 11
402.4132585126
 21
232.1857672321
  0
LINE
  5
6D7
100
AcDbEntity
  8
KONSTRUKTIONSELEMENTE
100
AcDbLine
 62
7
  6
CONTINUOUS
 10
506.5518510954
 20
686.8130851761
 11
506.8985488913
 21
687.9526260287
  0
LINE
  5
6D8
100
AcDbEntity
  8
0
100
AcDbLine
 62
7
  6
CONTINUOUS
 10
371.7882573205
 20
239.2070434378
 11
371.4757567245
 21
238.2495967435
  0
LINE
  5
6D9
100
AcDbEntity
  8
0
100
AcDbLine
 62
7
  6
CONTINUOUS
 10
373.3507567245
 20
237.9304478453
 11
373.6632573205
 21
238.8878945397
  0
LINE
  5
6DA
100
AcDbEntity
  8
0
100
AcDbLine
 62
7
  6
CONTINUOUS
 10
371.7882573205
 20
232.5049161302
 11
371.4757567245
 21
231.5474694358
  0
LINE
  5
6DB
100
AcDbEntity
  8
0
100
AcDbLine
 62
7
  6
CONTINUOUS
 10
373.3507567245
 20
231.2283203142
 11
373.6632573205
 21
232.1857672321
  0
LINE
  5
6DC
100
AcDbEntity
  8
0
100
AcDbLine
 62
7
  6
CONTINUOUS
 10
392.2570070225
 20
274.2070434378
 11
391.9445073205
 21
273.2495967435
  0
LINE
  5
6DD
100
AcDbEntity
  8
0
100
AcDbLine
 62
7
  6
CONTINUOUS
 10
393.8195073205
 20
272.9304478453
 11
394.1320070225
 21
273.8878945397
  0
LINE
  5
6DE
100
AcDbEntity
  8
0
100
AcDbLine
 62
7
  6
CONTINUOUS
 10
385.8507573205
 20
239.2070434378
 11
385.5382585126
 21
238.2495967435
  0
LINE
  5
6DF
100
AcDbEntity
  8
KONSTRUKTIONSELEMENTE
100
AcDbLine
 62
7
  6
CONTINUOUS
 10
536.2187899941
 20
669.525409226
 11
536.5711389034
 21
670.3922233697
  0
LINE
  5
6E0
100
AcDbEntity
  8
KONSTRUKTIONSELEMENTE
100
AcDbLine
 62
7
  6
CONTINUOUS
 10
540.1389762573
 20
671.1181664848
 11
539.9628022124
 21
670.6847546622
  0
LINE
  5
6E1
100
AcDbEntity
  8
KONSTRUKTIONSELEMENTE
100
AcDbLine
 62
7
  6
CONTINUOUS
 10
539.6133020395
 20
667.3089046027
 11
539.2609535399
 21
666.4420857083
  0
LINE
  5
6E2
100
AcDbEntity
  8
KONSTRUKTIONSELEMENTE
100
AcDbLine
 62
7
  6
CONTINUOUS
 10
540.1446737301
 20
666.1000946533
 11
540.3208481848
 21
666.5335017252
  0
LINE
  5
6E3
100
AcDbEntity
  8
KONSTRUKTIONSELEMENTE
100
AcDbLine
 62
7
  6
CONTINUOUS
 10
535.669516197
 20
670.9417787279
 11
535.123090745
 21
669.8491170663
  0
LINE
  5
6E4
100
AcDbEntity
  8
KONSTRUKTIONSELEMENTE
100
AcDbLine
 62
7
  6
CONTINUOUS
 10
544.3842529034
 20
666.4657587722
 11
544.9306782997
 21
667.5584204289
  0
LINE
  5
6E5
100
AcDbEntity
  8
BEZUGSACHSEN
100
AcDbLine
 62
7
  6
CONTINUOUS
 10
313.2826424151
 20
243.4844765636
 11
334.9332775098
 21
280.9844765636
  0
LINE
  5
6E6
100
AcDbEntity
  8
BEZUGSACHSEN
100
AcDbLine
 62
7
  6
CONTINUOUS
 10
535.7826424151
 20
628.8657812477
 11
557.4332775098
 21
666.3657812477
  0
LINE
  5
6E7
100
AcDbEntity
  8
KONSTRUKTIONSELEMENTE
100
AcDbLine
 62
7
  6
CONTINUOUS
 10
317.0803463015
 20
279.8336878714
 11
317.6446737301
 21
280.7187899692
  0
LINE
  5
6E8
100
AcDbEntity
  8
KONSTRUKTIONSELEMENTE
100
AcDbLine
 62
7
  6
CONTINUOUS
 10
321.3528812128
 20
282.2932640375
 11
320.7885537842
 21
281.4081619397
  0
LINE
  5
6E9
100
AcDbEntity
  8
KONSTRUKTIONSELEMENTE
100
AcDbLine
 62
7
  6
CONTINUOUS
 10
313.7517461418
 20
286.2380118384
 11
313.169516197
 21
285.5604740438
  0
LINE
  5
6EA
100
AcDbEntity
  8
KONSTRUKTIONSELEMENTE
100
AcDbLine
 62
7
  6
CONTINUOUS
 10
273.6882538934
 20
292.3919253856
 11
274.4773822072
 21
293.1043960661
  0
LINE
  5
6EB
100
AcDbEntity
  8
KONSTRUKTIONSELEMENTE
100
AcDbLine
 62
7
  6
CONTINUOUS
 10
282.735023628
 20
301.7062729653
 11
282.0938412782
 21
301.1330385839
  0
LINE
  5
6EC
100
AcDbEntity
  8
KONSTRUKTIONSELEMENTE
100
AcDbLine
 62
7
  6
CONTINUOUS
 10
262.5635906901
 20
289.4987267817
 11
261.7804502845
 21
288.7997566141
  0
LINE
  5
6ED
100
AcDbEntity
  8
KONSTRUKTIONSELEMENTE
100
AcDbLine
 62
7
  6
CONTINUOUS
 10
273.4495710157
 20
293.8615623899
 11
272.7840082904
 21
293.316825095
  0
LINE
  5
6EE
100
AcDbEntity
  8
KONSTRUKTIONSELEMENTE
100
AcDbLine
 62
7
  6
CONTINUOUS
 10
160.4956654667
 20
481.498287554
 11
155.337391108
 21
480.5734533443
  0
LINE
  5
6EF
100
AcDbEntity
  8
KONSTRUKTIONSELEMENTE
100
AcDbLine
 62
7
  6
CONTINUOUS
 10
155.5211634987
 20
479.2658579095
 11
160.222405976
 21
480.0657839691
  0
LINE
  5
6F0
100
AcDbEntity
  8
KONSTRUKTIONSELEMENTE
100
AcDbLine
 62
7
  6
CONTINUOUS
 10
160.4219202496
 20
484.4978797457
 11
161.6013885708
 21
484.6640338787
  0
LINE
  5
6F1
100
AcDbEntity
  8
KONSTRUKTIONSELEMENTE
100
AcDbLine
 62
7
  6
CONTINUOUS
 10
152.0324691183
 20
481.4159786614
 11
152.6984983455
 21
481.5010188884
  0
LINE
  5
6F2
100
AcDbEntity
  8
KONSTRUKTIONSELEMENTE
100
AcDbLine
 62
7
  6
CONTINUOUS
 10
152.9327207023
 20
482.7288787695
 11
152.2666914751
 21
482.6438385425
  0
LINE
  5
6F3
100
AcDbEntity
  8
0
100
AcDbLine
 62
7
  6
CONTINUOUS
 10
236.4494658261
 20
518.7463560363
 11
236.0604979208
 21
518.7187939238
  0
LINE
  5
6F4
100
AcDbEntity
  8
0
100
AcDbLine
 62
7
  6
CONTINUOUS
 10
236.8171668242
 20
518.7703096245
 11
236.4494658261
 21
518.7463560363
  0
LINE
  5
6F5
100
AcDbEntity
  8
0
100
AcDbLine
 62
7
  6
CONTINUOUS
 10
237.1727884629
 20
518.7917075712
 11
236.8171668242
 21
518.7703096245
  0
LINE
  5
6F6
100
AcDbEntity
  8
0
100
AcDbLine
 62
7
  6
CONTINUOUS
 10
237.6994653953
 20
518.8205729301
 11
237.1727884629
 21
518.7917075712
  0
LINE
  5
6F7
100
AcDbEntity
  8
0
100
AcDbLine
 62
7
  6
CONTINUOUS
 10
238.2337275537
 20
518.8469111768
 11
237.6994653953
 21
518.8205729301
  0
LINE
  5
6F8
100
AcDbEntity
  8
0
100
AcDbLine
 62
7
  6
CONTINUOUS
 10
238.9781545183
 20
518.8796398588
 11
238.2337275537
 21
518.8469111768
  0
LINE
  5
6F9
100
AcDbEntity
  8
0
100
AcDbLine
 62
7
  6
CONTINUOUS
 10
239.9942076525
 20
518.9186952631
 11
238.9781545183
 21
518.8796398588
  0
LINE
  5
6FA
100
AcDbEntity
  8
0
100
AcDbLine
 62
7
  6
CONTINUOUS
 10
241.3949873408
 20
518.9652059031
 11
239.9942076525
 21
518.9186952631
  0
LINE
  5
6FB
100
AcDbEntity
  8
0
100
AcDbLine
 62
7
  6
CONTINUOUS
 10
243.6917519177
 20
519.0299975561
 11
241.3949873408
 21
518.9652059031
  0
LINE
  5
6FC
100
AcDbEntity
  8
0
100
AcDbLine
 62
7
  6
CONTINUOUS
 10
248.0562859587
 20
519.1317508596
 11
243.6917519177
 21
519.0299975561
  0
LINE
  5
6FD
100
AcDbEntity
  8
0
100
AcDbLine
 62
7
  6
CONTINUOUS
 10
258.4445992455
 20
519.3245617843
 11
248.0562859587
 21
519.1317508596
  0
LINE
  5
6FE
100
AcDbEntity
  8
0
100
AcDbLine
 62
7
  6
CONTINUOUS
 10
269.1739500263
 20
519.4918269871
 11
258.4445992455
 21
519.3245617843
  0
LINE
  5
6FF
100
AcDbEntity
  8
0
100
AcDbLine
 62
7
  6
CONTINUOUS
 10
282.4052136261
 20
519.677406873
 11
269.1739500263
 21
519.4918269871
  0
LINE
  5
700
100
AcDbEntity
  8
0
100
AcDbLine
 62
7
  6
CONTINUOUS
 10
402.8818715407
 20
521.1751271411
 11
382.6216117358
 21
520.9170511915
  0
LINE
  5
701
100
AcDbEntity
  8
0
100
AcDbLine
 62
7
  6
CONTINUOUS
 10
382.6216117358
 20
520.9170511915
 11
358.2685545646
 21
520.6170759425
  0
LINE
  5
702
100
AcDbEntity
  8
0
100
AcDbLine
 62
7
  6
CONTINUOUS
 10
358.2685545646
 20
520.6170759425
 11
282.4052136261
 21
519.677406873
  0
LINE
  5
703
100
AcDbEntity
  8
BEZUGSACHSEN
100
AcDbLine
 62
7
  6
CONTINUOUS
 10
647.0326424151
 20
511.1751289057
 11
640.3820073205
 21
511.1751289057
  0
LINE
  5
704
100
AcDbEntity
  8
BEZUGSACHSEN
100
AcDbLine
 62
7
  6
CONTINUOUS
 10
202.0326424151
 20
511.1751289057
 11
158.7313722259
 21
511.1751289057
  0
LINE
  5
705
100
AcDbEntity
  8
0
100
AcDbLine
 62
7
  6
CONTINUOUS
 10
590.5812691189
 20
512.0689218068
 11
605.3820073205
 21
512.0689218068
  0
LINE
  5
706
100
AcDbEntity
  8
0
100
AcDbLine
 62
7
  6
CONTINUOUS
 10
329.3820073205
 20
521.1751289057
 11
332.8820073205
 21
521.1751289057
  0
LINE
  5
707
100
AcDbEntity
  8
0
100
AcDbLine
 62
7
  6
CONTINUOUS
 10
472.8820073205
 20
521.1751289057
 11
476.3820073205
 21
521.1751289057
  0
LINE
  5
708
100
AcDbEntity
  8
0
100
AcDbLine
 62
7
  6
CONTINUOUS
 10
605.3820073205
 20
521.1751289057
 11
640.3820073205
 21
521.1751289057
  0
LINE
  5
709
100
AcDbEntity
  8
0
100
AcDbLine
 62
7
  6
CONTINUOUS
 10
220.3820073205
 20
528.1751289057
 11
240.3820073205
 21
528.1751289057
  0
LINE
  5
70A
100
AcDbEntity
  8
0
100
AcDbLine
 62
7
  6
CONTINUOUS
 10
437.5517619158
 20
520.7385634485
 11
418.9134052402
 21
520.9701372482
  0
LINE
  5
70B
100
AcDbEntity
  8
0
100
AcDbLine
 62
7
  6
CONTINUOUS
 10
418.9134052402
 20
520.9701372482
 11
402.8818715407
 21
521.1751271411
  0
LINE
  5
70C
100
AcDbEntity
  8
0
100
AcDbLine
 62
7
  6
CONTINUOUS
 10
516.0046185553
 20
519.7747678733
 11
437.5517619158
 21
520.7385634485
  0
LINE
  5
70D
100
AcDbEntity
  8
0
100
AcDbLine
 62
7
  6
CONTINUOUS
 10
519.5350917847
 20
519.7284149698
 11
516.0046185553
 21
519.7747678733
  0
LINE
  5
70E
100
AcDbEntity
  8
0
100
AcDbLine
 62
7
  6
CONTINUOUS
 10
524.4886106958
 20
519.6621347428
 11
519.5350917847
 21
519.7284149698
  0
LINE
  5
70F
100
AcDbEntity
  8
0
100
AcDbLine
 62
7
  6
CONTINUOUS
 10
529.0459610744
 20
519.5996026904
 11
524.4886106958
 21
519.6621347428
  0
LINE
  5
710
100
AcDbEntity
  8
0
100
AcDbLine
 62
7
  6
CONTINUOUS
 10
535.8068858026
 20
519.5033004684
 11
529.0459610744
 21
519.5996026904
  0
LINE
  5
711
100
AcDbEntity
  8
0
100
AcDbLine
 62
7
  6
CONTINUOUS
 10
553.8122600709
 20
519.2096167518
 11
535.8068858026
 21
519.5033004684
  0
LINE
  5
712
100
AcDbEntity
  8
0
100
AcDbLine
 62
7
  6
CONTINUOUS
 10
560.1213172742
 20
519.0780259624
 11
553.8122600709
 21
519.2096167518
  0
LINE
  5
713
100
AcDbEntity
  8
0
100
AcDbLine
 62
7
  6
CONTINUOUS
 10
563.249143089
 20
518.9981858985
 11
560.1213172742
 21
519.0780259624
  0
LINE
  5
714
100
AcDbEntity
  8
0
100
AcDbLine
 62
7
  6
CONTINUOUS
 10
565.0331163737
 20
518.9440171925
 11
563.249143089
 21
518.9981858985
  0
LINE
  5
715
100
AcDbEntity
  8
0
100
AcDbLine
 62
7
  6
CONTINUOUS
 10
566.2691505924
 20
518.9001927597
 11
565.0331163737
 21
518.9440171925
  0
LINE
  5
716
100
AcDbEntity
  8
0
100
AcDbLine
 62
7
  6
CONTINUOUS
 10
567.1393264934
 20
518.8646174252
 11
566.2691505924
 21
518.9001927597
  0
LINE
  5
717
100
AcDbEntity
  8
0
100
AcDbLine
 62
7
  6
CONTINUOUS
 10
567.7441937424
 20
518.8366951703
 11
567.1393264934
 21
518.8646174252
  0
LINE
  5
718
100
AcDbEntity
  8
0
100
AcDbLine
 62
7
  6
CONTINUOUS
 10
568.3261366981
 20
518.8066397812
 11
567.7441937424
 21
518.8366951703
  0
LINE
  5
719
100
AcDbEntity
  8
0
100
AcDbLine
 62
7
  6
CONTINUOUS
 10
568.7126246345
 20
518.7845973646
 11
568.3261366981
 21
518.8066397812
  0
LINE
  5
71A
100
AcDbEntity
  8
0
100
AcDbLine
 62
7
  6
CONTINUOUS
 10
569.1074849202
 20
518.7600938196
 11
568.7126246345
 21
518.7845973646
  0
LWPOLYLINE
  5
71B
100
AcDbEntity
  8
0
100
AcDbPolyline
 62
7
  6
CONTINUOUS
 90
3
 70
0
 10
569.7350298
 20
518.7164623245
 10
569.519601912
 20
518.7321316641
 10
569.1074849202
 20
518.7600938196
  0
LINE
  5
71C
100
AcDbEntity
  8
KONSTRUKTIONSELEMENTE
100
AcDbLine
 62
7
  6
CONTINUOUS
 10
266.3255445053
 20
674.1624140061
 11
265.6066660771
 21
674.9358144684
  0
LINE
  5
71D
100
AcDbEntity
  8
KONSTRUKTIONSELEMENTE
100
AcDbLine
 62
7
  6
CONTINUOUS
 10
274.9408033244
 20
683.0607678045
 11
274.2078596716
 21
683.859473064
  0
LINE
  5
71E
100
AcDbEntity
  8
KONSTRUKTIONSELEMENTE
100
AcDbLine
 62
7
  6
CONTINUOUS
 10
280.9106826461
 20
692.8536872931
 11
281.4881641075
 21
692.1947282062
  0
LINE
  5
71F
100
AcDbEntity
  8
KONSTRUKTIONSELEMENTE
100
AcDbLine
 62
7
  6
CONTINUOUS
 10
273.4664676445
 20
682.8530746031
 11
274.028109452
 21
682.1805637162
  0
LINE
  5
720
100
AcDbEntity
  8
KONSTRUKTIONSELEMENTE
100
AcDbLine
 62
7
  6
CONTINUOUS
 10
282.5971809496
 20
692.7714271258
 11
281.9215377068
 21
693.6191555431
  0
LINE
  5
721
100
AcDbEntity
  8
KONSTRUKTIONSELEMENTE
100
AcDbLine
 62
7
  6
CONTINUOUS
 10
312.9095277687
 20
666.5281118662
 11
313.634976002
 21
665.5451494346
  0
LINE
  5
722
100
AcDbEntity
  8
KONSTRUKTIONSELEMENTE
100
AcDbLine
 62
7
  6
CONTINUOUS
 10
322.18004616
 20
670.4642970098
 11
321.4545975727
 21
671.4472641969
  0
LINE
  5
723
100
AcDbEntity
  8
KONSTRUKTIONSELEMENTE
100
AcDbLine
 62
7
  6
CONTINUOUS
 10
316.4029075675
 20
670.5933386453
 11
316.8984743741
 21
669.7996573151
  0
LINE
  5
724
100
AcDbEntity
  8
KONSTRUKTIONSELEMENTE
100
AcDbLine
 62
7
  6
CONTINUOUS
 10
317.4628022124
 20
670.6847546622
 11
317.2150183994
 21
671.0816000781
  0
LINE
  5
725
100
AcDbEntity
  8
KONSTRUKTIONSELEMENTE
100
AcDbLine
 62
7
  6
CONTINUOUS
 10
319.2582440582
 20
680.5830706582
 11
318.6130174178
 21
681.6536698282
  0
LINE
  5
726
100
AcDbEntity
  8
BEZUGSACHSEN
100
AcDbLine
 62
7
  6
CONTINUOUS
 10
557.4332775098
 20
280.9844765636
 11
535.7826424151
 21
318.4844765636
  0
LINE
  5
727
100
AcDbEntity
  8
BEZUGSACHSEN
100
AcDbLine
 62
7
  6
CONTINUOUS
 10
334.9332775098
 20
666.3657812477
 11
313.2826424151
 21
703.8657812477
  0
LINE
  5
728
100
AcDbEntity
  8
KONSTRUKTIONSELEMENTE
100
AcDbLine
 62
7
  6
CONTINUOUS
 10
506.8755757822
 20
303.5186300235
 11
506.5696036849
 21
304.5585901519
  0
LINE
  5
729
100
AcDbEntity
  8
KONSTRUKTIONSELEMENTE
100
AcDbLine
 62
7
  6
CONTINUOUS
 10
489.087391108
 20
287.8828010022
 11
488.8255445053
 21
288.781109322
  0
LINE
  5
72A
100
AcDbEntity
  8
0
100
AcDbLine
 62
7
  6
CONTINUOUS
 10
460.5382549363
 20
228.6751289057
 11
460.5382549363
 21
229.9517246099
  0
LINE
  5
72B
100
AcDbEntity
  8
0
100
AcDbLine
 62
7
  6
CONTINUOUS
 10
461.1632597047
 20
237.6112989472
 11
461.1632597047
 21
238.8878945397
  0
LINE
  5
72C
100
AcDbEntity
  8
0
100
AcDbLine
 62
7
  6
CONTINUOUS
 10
472.8820073205
 20
348.9794994714
 11
472.8820073205
 21
427.0404511844
  0
LINE
  5
72D
100
AcDbEntity
  8
0
100
AcDbLine
 62
7
  6
CONTINUOUS
 10
472.8820073205
 20
520.309806485
 11
472.8820073205
 21
598.3707583399
  0
LINE
  5
72E
100
AcDbEntity
  8
RUNDUNGEN
100
AcDbLine
 62
7
  6
CONTINUOUS
 10
476.3820073205
 20
427.0828062793
 11
476.3820073205
 21
382.4830239842
  0
LINE
  5
72F
100
AcDbEntity
  8
RUNDUNGEN
100
AcDbLine
 62
7
  6
CONTINUOUS
 10
476.3820073205
 20
520.2674490472
 11
476.3820073205
 21
564.8671981671
  0
LINE
  5
730
100
AcDbEntity
  8
KONSTRUKTIONSELEMENTE
100
AcDbLine
 62
7
  6
CONTINUOUS
 10
505.6683974336
 20
688.5120045897
 11
505.5932089673
 21
687.7534648448
  0
LINE
  5
731
100
AcDbEntity
  8
0
100
AcDbLine
 62
7
  6
CONTINUOUS
 10
441.4757597047
 20
237.2921500491
 11
441.7882549363
 21
239.2070434378
  0
LINE
  5
732
100
AcDbEntity
  8
KONSTRUKTIONSELEMENTE
100
AcDbLine
 62
7
  6
CONTINUOUS
 10
497.9181683877
 20
680.1214928252
 11
498.0698262393
 21
681.0448142306
  0
LINE
  5
733
100
AcDbEntity
  8
KONSTRUKTIONSELEMENTE
100
AcDbLine
 62
7
  6
CONTINUOUS
 10
524.9518851136
 20
685.594479342
 11
526.6106446386
 21
694.9148484073
  0
LINE
  5
734
100
AcDbEntity
  8
0
100
AcDbLine
 62
7
  6
CONTINUOUS
 10
422.8820073205
 20
267.1857672321
 11
423.1945061284
 21
268.7815117227
  0
LINE
  5
735
100
AcDbEntity
  8
0
100
AcDbLine
 62
7
  6
CONTINUOUS
 10
440.2257573205
 20
239.2070434378
 11
439.9132549363
 21
237.6112989472
  0
LINE
  5
736
100
AcDbEntity
  8
0
100
AcDbLine
 62
7
  6
CONTINUOUS
 10
421.3195061284
 20
268.7815117227
 11
421.0070073205
 21
267.5049161302
  0
LINE
  5
737
100
AcDbEntity
  8
0
100
AcDbLine
 62
7
  6
CONTINUOUS
 10
426.7882549363
 20
241.4410866188
 11
426.4757597047
 21
240.1644910263
  0
LINE
  5
738
100
AcDbEntity
  8
0
100
AcDbLine
 62
7
  6
CONTINUOUS
 10
387.4132585126
 20
237.9304478453
 11
387.7257573205
 21
238.8878945397
  0
LINE
  5
739
100
AcDbEntity
  8
0
100
AcDbLine
 62
7
  6
CONTINUOUS
 10
400.5382585126
 20
232.5049161302
 11
400.2257561284
 21
231.5474694358
  0
LINE
  5
73A
100
AcDbEntity
  8
KONSTRUKTIONSELEMENTE
100
AcDbLine
 62
7
  6
CONTINUOUS
 10
318.2212061279
 20
286.414399589
 11
317.6389762573
 21
285.7368618008
  0
LINE
  5
73B
100
AcDbEntity
  8
KONSTRUKTIONSELEMENTE
100
AcDbLine
 62
7
  6
CONTINUOUS
 10
321.3020230328
 20
280.4069162999
 11
321.8842529034
 21
281.0844540881
  0
LINE
  5
73C
100
AcDbEntity
  8
KONSTRUKTIONSELEMENTE
100
AcDbLine
 62
7
  6
CONTINUOUS
 10
309.5575395851
 20
306.4686072734
 11
302.4518851136
 21
300.213174658
  0
LINE
  5
73D
100
AcDbEntity
  8
KONSTRUKTIONSELEMENTE
100
AcDbLine
 62
7
  6
CONTINUOUS
 10
314.0711389034
 20
285.0109186856
 11
314.8653478515
 21
285.70673969
  0
LINE
  5
73E
100
AcDbEntity
  8
KONSTRUKTIONSELEMENTE
100
AcDbLine
 62
7
  6
CONTINUOUS
 10
302.6564478368
 20
298.8773846111
 11
309.0588465829
 21
304.30785174
  0
LINE
  5
73F
100
AcDbEntity
  8
KONSTRUKTIONSELEMENTE
100
AcDbLine
 62
7
  6
CONTINUOUS
 10
282.6828103861
 20
300.0004256416
 11
283.5088302778
 21
300.6697772594
  0
LINE
  5
740
100
AcDbEntity
  8
KONSTRUKTIONSELEMENTE
100
AcDbLine
 62
7
  6
CONTINUOUS
 10
262.7864001588
 20
288.3957747581
 11
263.2824691183
 21
288.7253263194
  0
LINE
  5
741
100
AcDbEntity
  8
KONSTRUKTIONSELEMENTE
100
AcDbLine
 62
7
  6
CONTINUOUS
 10
167.4081880688
 20
500.4305999107
 11
168.2456934316
 21
500.6262966887
  0
LWPOLYLINE
  5
742
100
AcDbEntity
  8
0
100
AcDbPolyline
 62
7
  6
CONTINUOUS
 90
74
 70
0
 10
235.1758943438
 20
518.6466170819
 10
234.9267606697
 20
518.6237186297
 10
234.664907644
 20
518.5983659675
 10
234.390159472
 20
518.5703151944
 10
234.1018551006
 20
518.5392504849
 10
233.8005323441
 20
518.5049655536
 10
233.487008602
 20
518.4672874148
 10
233.1597801818
 20
518.4257490306
 10
232.8191000637
 20
518.38006909
 10
232.4607229797
 20
518.3293038563
 10
232.0820530174
 20
518.2726083683
 10
231.6787573819
 20
518.2087365396
 10
231.2459999464
 20
518.1361546249
 10
230.7830687433
 20
518.0538304862
 10
230.2867812691
 20
517.9601447108
 10
229.759981757
 20
517.8544868834
 10
229.2035488999
 20
517.7358616679
 10
228.6203446809
 20
517.6036940177
 10
228.0128469902
 20
517.4573991546
 10
227.3831975548
 20
517.2963869542
 10
226.7337302711
 20
517.1201864664
 10
226.0664750852
 20
516.9283238698
 10
225.3836370595
 20
516.7204561827
 10
224.6871261045
 20
516.4962394791
 10
223.9793633262
 20
516.2555920501
 10
223.2610732754
 20
515.9979350678
 10
222.5335358526
 20
515.7229086133
 10
221.7976234041
 20
515.4300338844
 10
221.0543401229
 20
515.118905733
 10
220.3046879618
 20
514.7891449557
 10
219.5496748038
 20
514.4404013987
 10
218.790384156
 20
514.0723929904
 10
218.0278750945
 20
513.6848992457
 10
217.2632231082
 20
513.2777708667
 10
216.4977950361
 20
512.8510681924
 10
215.7317968654
 20
512.4042343378
 10
214.9659278945
 20
511.9369754275
 10
214.2002400415
 20
511.4485784236
 10
213.4350061418
 20
510.9384039438
 10
212.6705489718
 20
510.4057884124
 10
211.907243424
 20
509.8500464546
 10
211.1455212188
 20
509.2704700351
 10
210.3858716283
 20
508.6663285696
 10
209.6288265883
 20
508.036914634
 10
208.8749727288
 20
507.3815637809
 10
208.12487893
 20
506.6995279704
 10
207.3792296857
 20
505.9900844006
 10
206.6386978868
 20
505.2524165242
 10
205.9040648206
 20
504.4857148626
 10
205.1762010207
 20
503.6891573363
 10
204.4560710871
 20
502.8619162929
 10
203.7447394791
 20
502.0031578347
 10
203.0433687218
 20
501.1120460909
 10
202.3531648717
 20
500.1877672878
 10
201.6754310524
 20
499.2295504738
 10
201.0115009786
 20
498.2365147665
 10
200.3628629861
 20
497.2078377407
 10
199.7311002363
 20
496.1426523232
 10
199.1179474273
 20
495.0401228734
 10
198.5252948386
 20
493.8994577667
 10
197.9552643569
 20
492.7200695405
 10
197.4097400284
 20
491.5009676044
 10
196.8909122285
 20
490.2419479364
 10
196.4006864564
 20
488.9416948026
 10
195.9414160812
 20
487.5993551248
 10
195.5156824998
 20
486.2139442721
 10
195.1263932914
 20
484.784528564
 10
194.7769854365
 20
483.310999818
 10
194.4709126623
 20
481.7916932293
 10
194.2123941431
 20
480.2271673931
 10
194.0054428568
 20
478.6165860027
 10
193.8543092496
 20
476.9606550483
 10
193.7631450312
 20
475.2602329179
 10
193.7356820349
 20
473.6751289057
  0
LINE
  5
743
100
AcDbEntity
  8
0
100
AcDbLine
 62
7
  6
CONTINUOUS
 10
235.6390832626
 20
518.6861303061
 11
235.1758943438
 21
518.6466170819
  0
LINE
  5
744
100
AcDbEntity
  8
0
100
AcDbLine
 62
7
  6
CONTINUOUS
 10
236.0604979208
 20
518.7187939238
 11
235.6390832626
 21
518.6861303061
  0
LINE
  5
745
100
AcDbEntity
  8
0
100
AcDbLine
 62
7
  6
CONTINUOUS
 10
565.3820073205
 20
550.4627147079
 11
605.3820073205
 21
550.4627147079
  0
LINE
  5
746
100
AcDbEntity
  8
KONSTRUKTIONSELEMENTE
100
AcDbLine
 62
7
  6
CONTINUOUS
 10
652.3630174178
 20
488.9630174861
 11
644.8619104921
 21
490.2801173115
  0
LINE
  5
747
100
AcDbEntity
  8
KONSTRUKTIONSELEMENTE
100
AcDbLine
 62
7
  6
CONTINUOUS
 10
645.6146757263
 20
489.0310835852
 11
650.9051804241
 21
488.0844111019
  0
LINE
  5
748
100
AcDbEntity
  8
KONSTRUKTIONSELEMENTE
100
AcDbLine
 62
7
  6
CONTINUOUS
 10
648.0746197795
 20
472.286658531
 11
649.1703190471
 21
471.9629506923
  0
LINE
  5
749
100
AcDbEntity
  8
KONSTRUKTIONSELEMENTE
100
AcDbLine
 62
7
  6
CONTINUOUS
 10
650.2574726638
 20
479.1663458628
 11
649.161772838
 21
479.4900584395
  0
LINE
  5
74A
100
AcDbEntity
  8
KONSTRUKTIONSELEMENTE
100
AcDbLine
 62
7
  6
CONTINUOUS
 10
654.5149538695
 20
479.3244504228
 11
653.4192541564
 21
479.6481582232
  0
LINE
  5
74B
100
AcDbEntity
  8
KONSTRUKTIONSELEMENTE
100
AcDbLine
 62
7
  6
CONTINUOUS
 10
319.0927217586
 20
666.6432009455
 11
318.3851756133
 21
667.418603823
  0
LINE
  5
74C
100
AcDbEntity
  8
KONSTRUKTIONSELEMENTE
100
AcDbLine
 62
7
  6
CONTINUOUS
 10
317.2150183994
 20
671.0816000781
 11
316.5074726638
 21
671.8569982049
  0
LINE
  5
74D
100
AcDbEntity
  8
KONSTRUKTIONSELEMENTE
100
AcDbLine
 62
7
  6
CONTINUOUS
 10
320.4305078119
 20
670.9407195608
 11
321.1380535474
 21
670.165321434
  0
LINE
  5
74E
100
AcDbEntity
  8
KONSTRUKTIONSELEMENTE
100
AcDbLine
 62
7
  6
CONTINUOUS
 10
536.4336176595
 20
281.6533518295
 11
536.1500297819
 21
282.4653163631
  0
LINE
  5
74F
100
AcDbEntity
  8
KONSTRUKTIONSELEMENTE
100
AcDbLine
 62
7
  6
CONTINUOUS
 10
539.3984743741
 20
284.418352631
 11
539.6820626614
 21
283.6063833467
  0
LINE
  5
750
100
AcDbEntity
  8
KONSTRUKTIONSELEMENTE
100
AcDbLine
 62
7
  6
CONTINUOUS
 10
540.8851756133
 20
282.037299139
 11
540.6015877357
 21
282.8492636725
  0
LINE
  5
751
100
AcDbEntity
  8
KONSTRUKTIONSELEMENTE
100
AcDbLine
 62
7
  6
CONTINUOUS
 10
543.6380535474
 20
284.7840167499
 11
543.9216418348
 21
283.9720474656
  0
LINE
  5
752
100
AcDbEntity
  8
KONSTRUKTIONSELEMENTE
100
AcDbLine
 62
7
  6
CONTINUOUS
 10
535.1080370208
 20
282.1663407745
 11
535.4095277687
 21
281.1468071822
  0
LINE
  5
753
100
AcDbEntity
  8
KONSTRUKTIONSELEMENTE
100
AcDbLine
 62
7
  6
CONTINUOUS
 10
544.9815364797
 20
284.0634634825
 11
544.68004616
 21
285.0829923257
  0
LINE
  5
754
100
AcDbEntity
  8
KONSTRUKTIONSELEMENTE
100
AcDbLine
 62
7
  6
CONTINUOUS
 10
505.4605868427
 20
303.9818912323
 11
505.6683974336
 21
303.1306999056
  0
LINE
  5
755
100
AcDbEntity
  8
KONSTRUKTIONSELEMENTE
100
AcDbLine
 62
7
  6
CONTINUOUS
 10
498.0698262393
 20
295.6635095465
 11
497.8788803854
 21
296.8392197081
  0
LINE
  5
756
100
AcDbEntity
  8
KONSTRUKTIONSELEMENTE
100
AcDbLine
 62
7
  6
CONTINUOUS
 10
488.0033669658
 20
287.8774954506
 11
488.0952531891
 21
287.2236978796
  0
LINE
  5
757
100
AcDbEntity
  8
KONSTRUKTIONSELEMENTE
100
AcDbLine
 62
7
  6
CONTINUOUS
 10
506.8985488913
 20
302.5713213447
 11
506.8755757822
 21
303.5186300235
  0
LINE
  5
758
100
AcDbEntity
  8
KONSTRUKTIONSELEMENTE
100
AcDbLine
 62
7
  6
CONTINUOUS
 10
506.8985488913
 20
687.9526260287
 11
506.8755757822
 21
688.8999347076
  0
LINE
  5
759
100
AcDbEntity
  8
KONSTRUKTIONSELEMENTE
100
AcDbLine
 62
7
  6
CONTINUOUS
 10
496.7948845477
 20
681.4665147648
 11
496.7667923447
 21
680.7109267009
  0
LINE
  5
75A
100
AcDbEntity
  8
KONSTRUKTIONSELEMENTE
100
AcDbLine
 62
7
  6
CONTINUOUS
 10
496.7948845477
 20
296.0852100807
 11
496.7667923447
 21
295.3296220168
  0
LINE
  5
75B
100
AcDbEntity
  8
KONSTRUKTIONSELEMENTE
100
AcDbLine
 62
7
  6
CONTINUOUS
 10
535.123090745
 20
669.8491170663
 11
535.0006231881
 21
668.7930218148
  0
LINE
  5
75C
100
AcDbEntity
  8
KONSTRUKTIONSELEMENTE
100
AcDbLine
 62
7
  6
CONTINUOUS
 10
525.0225726471
 20
693.3670801639
 11
523.7039397473
 21
685.0760072407
  0
LINE
  5
75D
100
AcDbEntity
  8
0
100
AcDbLine
 62
7
  6
CONTINUOUS
 10
449.6007573205
 20
235.0581077622
 11
449.2882549363
 21
233.1432139264
  0
LINE
  5
75E
100
AcDbEntity
  8
KONSTRUKTIONSELEMENTE
100
AcDbLine
 62
7
  6
CONTINUOUS
 10
536.0784204235
 20
668.6768735349
 11
536.2187899941
 21
669.525409226
  0
LINE
  5
75F
100
AcDbEntity
  8
KONSTRUKTIONSELEMENTE
100
AcDbLine
 62
7
  6
CONTINUOUS
 10
539.7536720198
 20
668.1574355431
 11
539.6133020395
 21
667.3089046027
  0
LINE
  5
760
100
AcDbEntity
  8
KONSTRUKTIONSELEMENTE
100
AcDbLine
 62
7
  6
CONTINUOUS
 10
540.5299783773
 20
669.0608208443
 11
540.670347948
 21
669.9093565354
  0
LINE
  5
761
100
AcDbEntity
  8
KONSTRUKTIONSELEMENTE
100
AcDbLine
 62
7
  6
CONTINUOUS
 10
543.9932511932
 20
668.523099662
 11
543.8528812128
 21
667.6745687216
  0
LINE
  5
762
100
AcDbEntity
  8
0
100
AcDbLine
 62
7
  6
CONTINUOUS
 10
450.8507597047
 20
233.1432139264
 11
451.1632549363
 21
234.7389588641
  0
LINE
  5
763
100
AcDbEntity
  8
0
100
AcDbLine
 62
7
  6
CONTINUOUS
 10
437.1007549363
 20
238.2495967435
 11
437.4132573205
 21
239.526192336
  0
LINE
  5
764
100
AcDbEntity
  8
0
100
AcDbLine
 62
7
  6
CONTINUOUS
 10
440.5382597047
 20
240.1644910263
 11
440.2257573205
 21
239.2070434378
  0
LINE
  5
765
100
AcDbEntity
  8
0
100
AcDbLine
 62
7
  6
CONTINUOUS
 10
391.1632585126
 20
241.4410866188
 11
390.5382573205
 21
240.1644910263
  0
LINE
  5
766
100
AcDbEntity
  8
0
100
AcDbLine
 62
7
  6
CONTINUOUS
 10
407.2570079166
 20
265.909171416
 11
407.8820073205
 21
267.1857672321
  0
LINE
  5
767
100
AcDbEntity
  8
0
100
AcDbLine
 62
7
  6
CONTINUOUS
 10
422.2570061284
 20
265.909171416
 11
422.8820073205
 21
267.1857672321
  0
LINE
  5
768
100
AcDbEntity
  8
KONSTRUKTIONSELEMENTE
100
AcDbLine
 62
7
  6
CONTINUOUS
 10
316.7609535399
 20
281.0607810242
 11
315.9667444434
 21
280.364960007
  0
LINE
  5
769
100
AcDbEntity
  8
KONSTRUKTIONSELEMENTE
100
AcDbLine
 62
7
  6
CONTINUOUS
 10
318.7346757863
 20
285.4131491984
 11
319.3348076891
 21
285.8831274278
  0
LINE
  5
76A
100
AcDbEntity
  8
KONSTRUKTIONSELEMENTE
100
AcDbLine
 62
7
  6
CONTINUOUS
 10
320.7885537842
 20
281.4081619397
 11
320.1884208778
 21
280.9381884098
  0
LINE
  5
76B
100
AcDbEntity
  8
KONSTRUKTIONSELEMENTE
100
AcDbLine
 62
7
  6
CONTINUOUS
 10
311.1119104921
 20
297.5894649694
 11
310.0185324916
 21
296.9305100274
  0
LINE
  5
76C
100
AcDbEntity
  8
KONSTRUKTIONSELEMENTE
100
AcDbLine
 62
7
  6
CONTINUOUS
 10
317.1551804241
 20
295.3937587599
 11
313.6928170534
 21
293.3070682897
  0
LINE
  5
76D
100
AcDbEntity
  8
KONSTRUKTIONSELEMENTE
100
AcDbLine
 62
7
  6
CONTINUOUS
 10
312.5994390528
 20
292.6481133478
 11
310.0482240585
 21
291.1105520216
  0
LINE
  5
76E
100
AcDbEntity
  8
KONSTRUKTIONSELEMENTE
100
AcDbLine
 62
7
  6
CONTINUOUS
 10
310.6934506988
 20
290.0399528517
 11
313.2446656931
 21
291.5775141778
  0
LINE
  5
76F
100
AcDbEntity
  8
KONSTRUKTIONSELEMENTE
100
AcDbLine
 62
7
  6
CONTINUOUS
 10
314.3380436937
 20
292.2364691198
 11
319.2582440582
 21
295.2017659742
  0
LINE
  5
770
100
AcDbEntity
  8
KONSTRUKTIONSELEMENTE
100
AcDbLine
 62
7
  6
CONTINUOUS
 10
644.8619104921
 20
490.2801173115
 11
643.7685324916
 21
489.6211623695
  0
LINE
  5
771
100
AcDbEntity
  8
KONSTRUKTIONSELEMENTE
100
AcDbLine
 62
7
  6
CONTINUOUS
 10
278.0692190296
 20
308.8725603788
 11
273.633151661
 21
306.5657647006
  0
LINE
  5
772
100
AcDbEntity
  8
KONSTRUKTIONSELEMENTE
100
AcDbLine
 62
7
  6
CONTINUOUS
 10
275.3311375423
 20
306.00985081
 11
278.6581880688
 21
307.7399475687
  0
LINE
  5
773
100
AcDbEntity
  8
KONSTRUKTIONSELEMENTE
100
AcDbLine
 62
7
  6
CONTINUOUS
 10
282.0938412782
 20
301.1330385839
 11
278.7667907517
 21
299.4029418253
  0
LINE
  5
774
100
AcDbEntity
  8
KONSTRUKTIONSELEMENTE
100
AcDbLine
 62
7
  6
CONTINUOUS
 10
278.2467430174
 20
297.6936299634
 11
282.6828103861
 21
300.0004256416
  0
LINE
  5
775
100
AcDbEntity
  8
KONSTRUKTIONSELEMENTE
100
AcDbLine
 62
7
  6
CONTINUOUS
 10
272.8513885708
 20
291.9733815367
 11
273.6882538934
 21
292.3919253856
  0
LINE
  5
776
100
AcDbEntity
  8
KONSTRUKTIONSELEMENTE
100
AcDbLine
 62
7
  6
CONTINUOUS
 10
648.5258360511
 20
479.4352088294
 11
647.5017461418
 21
478.9286641805
  0
LINE
  5
777
100
AcDbEntity
  8
KONSTRUKTIONSELEMENTE
100
AcDbLine
 62
7
  6
CONTINUOUS
 10
649.806255834
 20
472.0178003024
 11
650.8303463015
 21
472.5243402134
  0
LINE
  5
778
100
AcDbEntity
  8
KONSTRUKTIONSELEMENTE
100
AcDbLine
 62
7
  6
CONTINUOUS
 10
263.5166914751
 20
289.9531862005
 11
262.5635906901
 21
289.4987267817
  0
LINE
  5
779
100
AcDbEntity
  8
KONSTRUKTIONSELEMENTE
100
AcDbLine
 62
7
  6
CONTINUOUS
 10
652.5082752913
 20
472.8781701501
 11
653.3919958913
 21
472.5361743444
  0
LINE
  5
77A
100
AcDbEntity
  8
KONSTRUKTIONSELEMENTE
100
AcDbLine
 62
7
  6
CONTINUOUS
 10
264.5754911359
 20
674.0720682274
 11
265.1634463187
 21
673.7478222178
  0
LINE
  5
77B
100
AcDbEntity
  8
KONSTRUKTIONSELEMENTE
100
AcDbLine
 62
7
  6
CONTINUOUS
 10
265.6066660771
 20
674.9358144684
 11
265.0187108944
 21
675.2600604781
  0
LINE
  5
77C
100
AcDbEntity
  8
KONSTRUKTIONSELEMENTE
100
AcDbLine
 62
7
  6
CONTINUOUS
 10
264.4491492322
 20
681.7331078983
 11
269.7595071552
 21
677.8210818188
  0
LINE
  5
77D
100
AcDbEntity
  8
KONSTRUKTIONSELEMENTE
100
AcDbLine
 62
7
  6
CONTINUOUS
 10
270.5008995359
 20
678.8274807596
 11
265.1905416129
 21
682.7395068391
  0
LINE
  5
77E
100
AcDbEntity
  8
KONSTRUKTIONSELEMENTE
100
AcDbLine
 62
7
  6
CONTINUOUS
 10
268.1561097215
 20
686.7651006827
 11
273.4664676445
 21
682.8530746031
  0
LINE
  5
77F
100
AcDbEntity
  8
KONSTRUKTIONSELEMENTE
100
AcDbLine
 62
7
  6
CONTINUOUS
 10
274.2078596716
 20
683.859473064
 11
268.8975017486
 21
687.7714991435
  0
LINE
  5
780
100
AcDbEntity
  8
KONSTRUKTIONSELEMENTE
100
AcDbLine
 62
7
  6
CONTINUOUS
 10
281.9215377068
 20
693.6191555431
 11
281.1592186949
 21
694.1819974101
  0
LINE
  5
781
100
AcDbEntity
  8
KONSTRUKTIONSELEMENTE
100
AcDbLine
 62
7
  6
CONTINUOUS
 10
313.634976002
 20
665.5451494346
 11
314.3246197795
 21
664.9773108731
  0
LINE
  5
782
100
AcDbEntity
  8
KONSTRUKTIONSELEMENTE
100
AcDbLine
 62
7
  6
CONTINUOUS
 10
318.068631588
 20
666.1366610601
 11
318.7582752913
 21
665.5688224921
  0
LINE
  5
783
100
AcDbEntity
  8
KONSTRUKTIONSELEMENTE
100
AcDbLine
 62
7
  6
CONTINUOUS
 10
321.4545975727
 20
671.4472641969
 11
320.7649538695
 21
672.0151027649
  0
LINE
  5
784
100
AcDbEntity
  8
KONSTRUKTIONSELEMENTE
100
AcDbLine
 62
7
  6
CONTINUOUS
 10
535.0006231881
 20
283.4117171307
 11
535.1080370208
 21
282.1663407745
  0
LINE
  5
785
100
AcDbEntity
  8
KONSTRUKTIONSELEMENTE
100
AcDbLine
 62
7
  6
CONTINUOUS
 10
536.1500297819
 20
282.4653163631
 11
536.0784204235
 21
283.2955688508
  0
LINE
  5
786
100
AcDbEntity
  8
KONSTRUKTIONSELEMENTE
100
AcDbLine
 62
7
  6
CONTINUOUS
 10
539.6820626614
 20
283.6063833467
 11
539.7536720198
 21
282.776130859
  0
LINE
  5
787
100
AcDbEntity
  8
KONSTRUKTIONSELEMENTE
100
AcDbLine
 62
7
  6
CONTINUOUS
 10
540.6015877357
 20
282.8492636725
 11
540.5299783773
 21
283.6795161602
  0
LINE
  5
788
100
AcDbEntity
  8
KONSTRUKTIONSELEMENTE
100
AcDbLine
 62
7
  6
CONTINUOUS
 10
543.9216418348
 20
283.9720474656
 11
543.9932511932
 21
283.1417949779
  0
LINE
  5
789
100
AcDbEntity
  8
KONSTRUKTIONSELEMENTE
100
AcDbLine
 62
7
  6
CONTINUOUS
 10
545.053145838
 20
283.2332109948
 11
544.9815364797
 21
284.0634634825
  0
LINE
  5
78A
100
AcDbEntity
  8
KONSTRUKTIONSELEMENTE
100
AcDbLine
 62
7
  6
CONTINUOUS
 10
505.6683974336
 20
303.1306999056
 11
505.5932089673
 21
302.3721601607
  0
LINE
  5
78B
100
AcDbEntity
  8
KONSTRUKTIONSELEMENTE
100
AcDbLine
 62
7
  6
CONTINUOUS
 10
544.9306782997
 20
667.5584204289
 11
545.053145838
 21
668.6145156789
  0
LINE
  5
78C
100
AcDbEntity
  8
KONSTRUKTIONSELEMENTE
100
AcDbLine
 62
7
  6
CONTINUOUS
 10
497.9181683877
 20
294.7401881411
 11
498.0698262393
 21
295.6635095465
  0
LINE
  5
78D
100
AcDbEntity
  8
KONSTRUKTIONSELEMENTE
100
AcDbLine
 62
7
  6
CONTINUOUS
 10
483.8762675483
 20
287.8164074818
 11
482.9393781211
 21
282.9049679575
  0
LINE
  5
78E
100
AcDbEntity
  8
KONSTRUKTIONSELEMENTE
100
AcDbLine
 62
7
  6
CONTINUOUS
 10
484.2185874862
 20
283.9334896864
 11
484.9602915788
 21
287.821712448
  0
LINE
  5
78F
100
AcDbEntity
  8
KONSTRUKTIONSELEMENTE
100
AcDbLine
 62
7
  6
CONTINUOUS
 10
488.0952531891
 20
287.2236978796
 11
487.3535490965
 21
283.335475118
  0
LINE
  5
790
100
AcDbEntity
  8
KONSTRUKTIONSELEMENTE
100
AcDbLine
 62
7
  6
CONTINUOUS
 10
488.6075335064
 20
283.0962693353
 11
489.2711634987
 21
286.5752055675
  0
LINE
  5
791
100
AcDbEntity
  8
KONSTRUKTIONSELEMENTE
100
AcDbLine
 62
7
  6
CONTINUOUS
 10
492.7622571698
 20
281.0311891032
 11
492.9964795266
 21
282.2590489843
  0
LINE
  5
792
100
AcDbEntity
  8
KONSTRUKTIONSELEMENTE
100
AcDbLine
 62
7
  6
CONTINUOUS
 10
493.972405976
 20
287.375131627
 11
494.2456654667
 21
288.8076352119
  0
LINE
  5
793
100
AcDbEntity
  8
0
100
AcDbLine
 62
7
  6
CONTINUOUS
 10
450.5382573205
 20
232.1857672321
 11
450.8507597047
 21
233.1432139264
  0
LINE
  5
794
100
AcDbEntity
  8
0
100
AcDbLine
 62
7
  6
CONTINUOUS
 10
435.5382573205
 20
239.526192336
 11
434.9132597047
 21
238.2495967435
  0
LINE
  5
795
100
AcDbEntity
  8
0
100
AcDbLine
 62
7
  6
CONTINUOUS
 10
441.1632573205
 20
241.4410866188
 11
440.5382597047
 21
240.1644910263
  0
LINE
  5
796
100
AcDbEntity
  8
0
100
AcDbLine
 62
7
  6
CONTINUOUS
 10
406.0070073205
 20
267.5049161302
 11
405.3820079166
 21
266.5474694358
  0
LINE
  5
797
100
AcDbEntity
  8
0
100
AcDbLine
 62
7
  6
CONTINUOUS
 10
392.4132573205
 20
239.8453412341
 11
393.0382585126
 21
240.8027888225
  0
LINE
  5
798
100
AcDbEntity
  8
0
100
AcDbLine
 62
7
  6
CONTINUOUS
 10
421.0070073205
 20
267.5049161302
 11
420.3820061284
 21
266.5474694358
  0
LINE
  5
799
100
AcDbEntity
  8
0
100
AcDbLine
 62
7
  6
CONTINUOUS
 10
392.8820073205
 20
271.6538522528
 11
393.8195073205
 21
272.9304478453
  0
LINE
  5
79A
100
AcDbEntity
  8
0
100
AcDbLine
 62
7
  6
CONTINUOUS
 10
372.4132567245
 20
236.6538522528
 11
373.3507567245
 21
237.9304478453
  0
LINE
  5
79B
100
AcDbEntity
  8
0
100
AcDbLine
 62
7
  6
CONTINUOUS
 10
372.4132567245
 20
229.9517246099
 11
373.3507567245
 21
231.2283203142
  0
LINE
  5
79C
100
AcDbEntity
  8
0
100
AcDbLine
 62
7
  6
CONTINUOUS
 10
386.4757585126
 20
236.6538522528
 11
387.4132585126
 21
237.9304478453
  0
LINE
  5
79D
100
AcDbEntity
  8
0
100
AcDbLine
 62
7
  6
CONTINUOUS
 10
391.9445073205
 20
273.2495967435
 11
391.3195070225
 21
272.6112989472
  0
LINE
  5
79E
100
AcDbEntity
  8
KONSTRUKTIONSELEMENTE
100
AcDbLine
 62
7
  6
CONTINUOUS
 10
640.3820073205
 20
494.9400770199
 11
642.8088465829
 21
496.998504082
  0
LINE
  5
79F
100
AcDbEntity
  8
KONSTRUKTIONSELEMENTE
100
AcDbLine
 62
7
  6
CONTINUOUS
 10
314.3200442474
 20
289.7931808666
 11
315.413422248
 21
290.4521358086
  0
LINE
  5
7A0
100
AcDbEntity
  8
KONSTRUKTIONSELEMENTE
100
AcDbLine
 62
7
  6
CONTINUOUS
 10
650.9051804241
 20
488.0844111019
 11
647.4428170534
 21
485.9977206318
  0
LINE
  5
7A1
100
AcDbEntity
  8
KONSTRUKTIONSELEMENTE
100
AcDbLine
 62
7
  6
CONTINUOUS
 10
646.3494390528
 20
485.3387656898
 11
643.7982240585
 21
483.8012043636
  0
LINE
  5
7A2
100
AcDbEntity
  8
KONSTRUKTIONSELEMENTE
100
AcDbLine
 62
7
  6
CONTINUOUS
 10
644.4434506988
 20
482.7306051937
 11
646.9946656931
 21
484.2681665199
  0
LINE
  5
7A3
100
AcDbEntity
  8
KONSTRUKTIONSELEMENTE
100
AcDbLine
 62
7
  6
CONTINUOUS
 10
648.0880436937
 20
484.9271214619
 11
653.0082440582
 21
487.8924183162
  0
LINE
  5
7A4
100
AcDbEntity
  8
KONSTRUKTIONSELEMENTE
100
AcDbLine
 62
7
  6
CONTINUOUS
 10
648.0700442474
 20
482.4838332087
 11
649.163422248
 21
483.1427881507
  0
LINE
  5
7A5
100
AcDbEntity
  8
KONSTRUKTIONSELEMENTE
100
AcDbLine
 62
7
  6
CONTINUOUS
 10
319.0333173695
 20
286.902656271
 11
318.2212061279
 21
286.414399589
  0
LINE
  5
7A6
100
AcDbEntity
  8
KONSTRUKTIONSELEMENTE
100
AcDbLine
 62
7
  6
CONTINUOUS
 10
652.7833173695
 20
479.593308613
 11
651.9712061279
 21
479.105051931
  0
LINE
  5
7A7
100
AcDbEntity
  8
KONSTRUKTIONSELEMENTE
100
AcDbLine
 62
7
  6
CONTINUOUS
 10
654.0279326782
 20
472.5910239546
 11
655.0520230328
 21
473.0975686419
  0
LINE
  5
7A8
100
AcDbEntity
  8
KONSTRUKTIONSELEMENTE
100
AcDbLine
 62
7
  6
CONTINUOUS
 10
314.7758360511
 20
286.7445564874
 11
313.7517461418
 21
286.2380118384
  0
LINE
  5
7A9
100
AcDbEntity
  8
KONSTRUKTIONSELEMENTE
100
AcDbLine
 62
7
  6
CONTINUOUS
 10
316.056255834
 20
279.3271479604
 11
317.0803463015
 21
279.8336878714
  0
LINE
  5
7AA
100
AcDbEntity
  8
KONSTRUKTIONSELEMENTE
100
AcDbLine
 62
7
  6
CONTINUOUS
 10
320.2779326782
 20
279.9003716125
 11
321.3020230328
 21
280.4069162999
  0
LINE
  5
7AB
100
AcDbEntity
  8
KONSTRUKTIONSELEMENTE
100
AcDbLine
 62
7
  6
CONTINUOUS
 10
272.7840082904
 20
293.316825095
 11
272.0707084663
 21
293.0660146981
  0
LINE
  5
7AC
100
AcDbEntity
  8
KONSTRUKTIONSELEMENTE
100
AcDbLine
 62
7
  6
CONTINUOUS
 10
279.0915619431
 20
309.1643743767
 11
278.0692190296
 21
308.8725603788
  0
LINE
  5
7AD
100
AcDbEntity
  8
KONSTRUKTIONSELEMENTE
100
AcDbLine
 62
7
  6
CONTINUOUS
 10
269.7595071552
 20
677.8210818188
 11
270.7395819551
 21
677.3578433528
  0
LINE
  5
7AE
100
AcDbEntity
  8
KONSTRUKTIONSELEMENTE
100
AcDbLine
 62
7
  6
CONTINUOUS
 10
653.5144630198
 20
473.5922743451
 11
652.8427217586
 21
473.9525486034
  0
LINE
  5
7AF
100
AcDbEntity
  8
KONSTRUKTIONSELEMENTE
100
AcDbLine
 62
7
  6
CONTINUOUS
 10
653.5087655471
 20
478.6103461766
 11
654.1805078119
 21
478.2500672188
  0
LINE
  5
7B0
100
AcDbEntity
  8
KONSTRUKTIONSELEMENTE
100
AcDbLine
 62
7
  6
CONTINUOUS
 10
319.7644630198
 20
666.2829266871
 11
319.0927217586
 21
666.6432009455
  0
LINE
  5
7B1
100
AcDbEntity
  8
KONSTRUKTIONSELEMENTE
100
AcDbLine
 62
7
  6
CONTINUOUS
 10
319.7587655471
 20
671.3009985187
 11
320.4305078119
 21
670.9407195608
  0
LINE
  5
7B2
100
AcDbEntity
  8
KONSTRUKTIONSELEMENTE
100
AcDbLine
 62
7
  6
CONTINUOUS
 10
297.5726778349
 20
687.1192974279
 11
298.6620568242
 21
686.5063101379
  0
LINE
  5
7B3
100
AcDbEntity
  8
KONSTRUKTIONSELEMENTE
100
AcDbLine
 62
7
  6
CONTINUOUS
 10
301.2039397473
 20
685.0760072407
 11
302.6564478368
 21
684.2586892952
  0
LINE
  5
7B4
100
AcDbEntity
  8
KONSTRUKTIONSELEMENTE
100
AcDbLine
 62
7
  6
CONTINUOUS
 10
305.19833076
 20
682.828386398
 11
306.2877097493
 21
682.2153991081
  0
LINE
  5
7B5
100
AcDbEntity
  8
KONSTRUKTIONSELEMENTE
100
AcDbLine
 62
7
  6
CONTINUOUS
 10
280.2465248657
 20
693.2277608871
 11
280.9106826461
 21
692.8536872931
  0
LINE
  5
7B6
100
AcDbEntity
  8
KONSTRUKTIONSELEMENTE
100
AcDbLine
 62
7
  6
CONTINUOUS
 10
315.3308076565
 20
665.6914150809
 11
314.4291848758
 21
666.2409704326
  0
LINE
  5
7B7
100
AcDbEntity
  8
KONSTRUKTIONSELEMENTE
100
AcDbLine
 62
7
  6
CONTINUOUS
 10
315.5012846384
 20
671.1428939843
 11
316.4029075675
 21
670.5933386453
  0
LINE
  5
7B8
100
AcDbEntity
  8
KONSTRUKTIONSELEMENTE
100
AcDbLine
 62
7
  6
CONTINUOUS
 10
649.0808076565
 20
473.0007627388
 11
648.1791848758
 21
473.5503180906
  0
LINE
  5
7B9
100
AcDbEntity
  8
KONSTRUKTIONSELEMENTE
100
AcDbLine
 62
7
  6
CONTINUOUS
 10
649.2512846384
 20
478.4522416422
 11
650.1529075675
 21
477.9026863033
  0
LINE
  5
7BA
100
AcDbEntity
  8
KONSTRUKTIONSELEMENTE
100
AcDbLine
 62
7
  6
CONTINUOUS
 10
498.0698262393
 20
681.0448142306
 11
497.8788803854
 21
682.2205243922
  0
LINE
  5
7BB
100
AcDbEntity
  8
KONSTRUKTIONSELEMENTE
100
AcDbLine
 62
7
  6
CONTINUOUS
 10
488.0033669658
 20
673.2588001347
 11
488.0952531891
 21
672.6050025637
  0
LINE
  5
7BC
100
AcDbEntity
  8
KONSTRUKTIONSELEMENTE
100
AcDbLine
 62
7
  6
CONTINUOUS
 10
535.0006231881
 20
668.7930218148
 11
535.1080370208
 21
667.5476454586
  0
LINE
  5
7BD
100
AcDbEntity
  8
KONSTRUKTIONSELEMENTE
100
AcDbLine
 62
7
  6
CONTINUOUS
 10
536.1500297819
 20
667.8466210472
 11
536.0784204235
 21
668.6768735349
  0
LINE
  5
7BE
100
AcDbEntity
  8
KONSTRUKTIONSELEMENTE
100
AcDbLine
 62
7
  6
CONTINUOUS
 10
539.6820626614
 20
668.9876880308
 11
539.7536720198
 21
668.1574355431
  0
LINE
  5
7BF
100
AcDbEntity
  8
KONSTRUKTIONSELEMENTE
100
AcDbLine
 62
7
  6
CONTINUOUS
 10
540.6015877357
 20
668.2305683566
 11
540.5299783773
 21
669.0608208443
  0
LINE
  5
7C0
100
AcDbEntity
  8
KONSTRUKTIONSELEMENTE
100
AcDbLine
 62
7
  6
CONTINUOUS
 10
543.9216418348
 20
669.3533521497
 11
543.9932511932
 21
668.523099662
  0
LINE
  5
7C1
100
AcDbEntity
  8
KONSTRUKTIONSELEMENTE
100
AcDbLine
 62
7
  6
CONTINUOUS
 10
545.053145838
 20
668.6145156789
 11
544.9815364797
 21
669.4447681666
  0
LINE
  5
7C2
100
AcDbEntity
  8
RUNDUNGEN
100
AcDbLine
 62
7
  6
CONTINUOUS
 10
565.3820073205
 20
428.4179858046
 11
565.3820073205
 21
382.4830596444
  0
LINE
  5
7C3
100
AcDbEntity
  8
RUNDUNGEN
100
AcDbLine
 62
7
  6
CONTINUOUS
 10
565.3820073205
 20
518.9322620778
 11
565.3820073205
 21
564.8672338271
  0
LINE
  5
7C4
100
AcDbEntity
  8
KONSTRUKTIONSELEMENTE
100
AcDbLine
 62
7
  6
CONTINUOUS
 10
535.123090745
 20
284.4678123822
 11
535.0006231881
 21
283.4117171307
  0
LINE
  5
7C5
100
AcDbEntity
  8
KONSTRUKTIONSELEMENTE
100
AcDbLine
 62
7
  6
CONTINUOUS
 10
544.9306782997
 20
282.1771157448
 11
545.053145838
 21
283.2332109948
  0
LINE
  5
7C6
100
AcDbEntity
  8
KONSTRUKTIONSELEMENTE
100
AcDbLine
 62
7
  6
CONTINUOUS
 10
525.0225726471
 20
307.9857754798
 11
523.7039397473
 21
299.6947025567
  0
LINE
  5
7C7
100
AcDbEntity
  8
KONSTRUKTIONSELEMENTE
100
AcDbLine
 62
7
  6
CONTINUOUS
 10
536.0784204235
 20
283.2955688508
 11
536.2187899941
 21
284.1441045419
  0
LINE
  5
7C8
100
AcDbEntity
  8
KONSTRUKTIONSELEMENTE
100
AcDbLine
 62
7
  6
CONTINUOUS
 10
524.9518851136
 20
300.213174658
 11
526.6106446386
 21
309.5335437232
  0
LINE
  5
7C9
100
AcDbEntity
  8
KONSTRUKTIONSELEMENTE
100
AcDbLine
 62
7
  6
CONTINUOUS
 10
506.5518510954
 20
301.4317804921
 11
506.8985488913
 21
302.5713213447
  0
LINE
  5
7CA
100
AcDbEntity
  8
KONSTRUKTIONSELEMENTE
100
AcDbLine
 62
7
  6
CONTINUOUS
 10
496.7667923447
 20
295.3296220168
 11
496.4438326028
 21
294.532495017
  0
LINE
  5
7CB
100
AcDbEntity
  8
KONSTRUKTIONSELEMENTE
100
AcDbLine
 62
7
  6
CONTINUOUS
 10
484.2804502845
 20
288.7997566141
 11
483.8762675483
 21
287.8164074818
  0
LINE
  5
7CC
100
AcDbEntity
  8
KONSTRUKTIONSELEMENTE
100
AcDbLine
 62
7
  6
CONTINUOUS
 10
497.4716437944
 20
293.7753286933
 11
497.9181683877
 21
294.7401881411
  0
LINE
  5
7CD
100
AcDbEntity
  8
0
100
AcDbLine
 62
7
  6
CONTINUOUS
 10
449.9132597047
 20
230.909171416
 11
450.5382573205
 21
232.1857672321
  0
LINE
  5
7CE
100
AcDbEntity
  8
KONSTRUKTIONSELEMENTE
100
AcDbLine
 62
7
  6
CONTINUOUS
 10
484.9602915788
 20
287.821712448
 11
485.2864001588
 21
288.3957747581
  0
LINE
  5
7CF
100
AcDbEntity
  8
BEZUGSACHSEN
100
AcDbLine
 62
7
  6
CONTINUOUS
 10
492.4813722259
 20
318.4844765636
 11
470.8307371313
 21
280.9844765636
  0
LINE
  5
7D0
100
AcDbEntity
  8
0
100
AcDbLine
 62
7
  6
CONTINUOUS
 10
428.0382573205
 20
240.1644910263
 11
428.6632549363
 21
241.1219377207
  0
LINE
  5
7D1
100
AcDbEntity
  8
0
100
AcDbLine
 62
7
  6
CONTINUOUS
 10
436.4757573205
 20
237.2921500491
 11
437.1007549363
 21
238.2495967435
  0
LINE
  5
7D2
100
AcDbEntity
  8
0
100
AcDbLine
 62
7
  6
CONTINUOUS
 10
441.7882549363
 20
239.2070434378
 11
443.0382573205
 21
241.1219377207
  0
LINE
  5
7D3
100
AcDbEntity
  8
0
100
AcDbLine
 62
7
  6
CONTINUOUS
 10
421.7882597047
 20
243.6751289057
 11
419.9132597047
 21
241.4410866188
  0
LINE
  5
7D4
100
AcDbEntity
  8
0
100
AcDbLine
 62
7
  6
CONTINUOUS
 10
419.9132597047
 20
238.8878945397
 11
421.7882597047
 21
241.1219377207
  0
LINE
  5
7D5
100
AcDbEntity
  8
0
100
AcDbLine
 62
7
  6
CONTINUOUS
 10
371.4757567245
 20
238.2495967435
 11
370.8507573205
 21
237.6112989472
  0
LINE
  5
7D6
100
AcDbEntity
  8
0
100
AcDbLine
 62
7
  6
CONTINUOUS
 10
371.4757567245
 20
231.5474694358
 11
370.8507573205
 21
230.909171416
  0
LINE
  5
7D7
100
AcDbEntity
  8
0
100
AcDbLine
 62
7
  6
CONTINUOUS
 10
406.0070073205
 20
264.6325757118
 11
407.2570079166
 21
265.909171416
  0
LINE
  5
7D8
100
AcDbEntity
  8
0
100
AcDbLine
 62
7
  6
CONTINUOUS
 10
385.5382585126
 20
238.2495967435
 11
384.9132573205
 21
237.6112989472
  0
LINE
  5
7D9
100
AcDbEntity
  8
0
100
AcDbLine
 62
7
  6
CONTINUOUS
 10
392.4132573205
 20
242.7176822113
 11
391.1632585126
 21
241.4410866188
  0
LINE
  5
7DA
100
AcDbEntity
  8
0
100
AcDbLine
 62
7
  6
CONTINUOUS
 10
421.0070073205
 20
264.6325757118
 11
422.2570061284
 21
265.909171416
  0
LINE
  5
7DB
100
AcDbEntity
  8
KONSTRUKTIONSELEMENTE
100
AcDbLine
 62
7
  6
CONTINUOUS
 10
643.3075395851
 20
499.1592596154
 11
640.3820073205
 21
496.5837797608
  0
LINE
  5
7DC
100
AcDbEntity
  8
KONSTRUKTIONSELEMENTE
100
AcDbLine
 62
7
  6
CONTINUOUS
 10
647.8211389034
 20
477.7015710277
 11
648.6153478515
 21
478.3973920321
  0
LINE
  5
7DD
100
AcDbEntity
  8
KONSTRUKTIONSELEMENTE
100
AcDbLine
 62
7
  6
CONTINUOUS
 10
650.5109535399
 20
473.7514333662
 11
649.7167444434
 21
473.055612349
  0
LINE
  5
7DE
100
AcDbEntity
  8
KONSTRUKTIONSELEMENTE
100
AcDbLine
 62
7
  6
CONTINUOUS
 10
652.4846757863
 20
478.1038015405
 11
653.0848076891
 21
478.5737797698
  0
LINE
  5
7DF
100
AcDbEntity
  8
KONSTRUKTIONSELEMENTE
100
AcDbLine
 62
7
  6
CONTINUOUS
 10
654.5385537842
 20
474.0988142817
 11
653.9384208778
 21
473.6288407519
  0
LINE
  5
7E0
100
AcDbEntity
  8
BEZUGSACHSEN
100
AcDbLine
 62
7
  6
CONTINUOUS
 10
269.9813722259
 20
628.8657812477
 11
313.2826424151
 21
628.8657812477
  0
LINE
  5
7E1
100
AcDbEntity
  8
BEZUGSACHSEN
100
AcDbLine
 62
7
  6
CONTINUOUS
 10
492.4813722259
 20
628.8657812477
 11
535.7826424151
 21
628.8657812477
  0
LINE
  5
7E2
100
AcDbEntity
  8
KONSTRUKTIONSELEMENTE
100
AcDbLine
 62
7
  6
CONTINUOUS
 10
260.4393781211
 20
668.2862726416
 11
270.2622571698
 21
666.4124937873
  0
LINE
  5
7E3
100
AcDbEntity
  8
KONSTRUKTIONSELEMENTE
100
AcDbLine
 62
7
  6
CONTINUOUS
 10
314.3246197795
 20
664.9773108731
 11
315.4203190471
 21
664.6536030343
  0
LINE
  5
7E4
100
AcDbEntity
  8
KONSTRUKTIONSELEMENTE
100
AcDbLine
 62
7
  6
CONTINUOUS
 10
318.7582752913
 20
665.5688224921
 11
319.6419958913
 21
665.2268266864
  0
LINE
  5
7E5
100
AcDbEntity
  8
KONSTRUKTIONSELEMENTE
100
AcDbLine
 62
7
  6
CONTINUOUS
 10
271.3096717834
 20
678.4904357063
 11
270.5008995359
 21
678.8274807596
  0
LINE
  5
7E6
100
AcDbEntity
  8
KONSTRUKTIONSELEMENTE
100
AcDbLine
 62
7
  6
CONTINUOUS
 10
644.9416080691
 20
498.2397786804
 11
643.3075395851
 21
499.1592596154
  0
LINE
  5
7E7
100
AcDbEntity
  8
KONSTRUKTIONSELEMENTE
100
AcDbLine
 62
7
  6
CONTINUOUS
 10
311.1916080691
 20
690.9304310225
 11
309.5575395851
 21
691.8499119574
  0
LINE
  5
7E8
100
AcDbEntity
  8
KONSTRUKTIONSELEMENTE
100
AcDbLine
 62
7
  6
CONTINUOUS
 10
304.1106446386
 20
694.9148484073
 11
302.4765761546
 21
695.8343293423
  0
LINE
  5
7E9
100
AcDbEntity
  8
KONSTRUKTIONSELEMENTE
100
AcDbLine
 62
7
  6
CONTINUOUS
 10
647.384976002
 20
472.8544970926
 11
648.0746197795
 21
472.286658531
  0
LINE
  5
7EA
100
AcDbEntity
  8
KONSTRUKTIONSELEMENTE
100
AcDbLine
 62
7
  6
CONTINUOUS
 10
651.818631588
 20
473.446008718
 11
652.5082752913
 21
472.8781701501
  0
LINE
  5
7EB
100
AcDbEntity
  8
KONSTRUKTIONSELEMENTE
100
AcDbLine
 62
7
  6
CONTINUOUS
 10
655.2045975727
 20
478.7566118549
 11
654.5149538695
 21
479.3244504228
  0
LINE
  5
7EC
100
AcDbEntity
  8
BEZUGSACHSEN
100
AcDbLine
 62
7
  6
CONTINUOUS
 10
470.8307371313
 20
666.3657812477
 11
492.4813722259
 21
628.8657812477
  0
LINE
  5
7ED
100
AcDbEntity
  8
KONSTRUKTIONSELEMENTE
100
AcDbLine
 62
7
  6
CONTINUOUS
 10
496.528109452
 20
682.1805637162
 11
496.7948845477
 21
681.4665147648
  0
LINE
  5
7EE
100
AcDbEntity
  8
KONSTRUKTIONSELEMENTE
100
AcDbLine
 62
7
  6
CONTINUOUS
 10
506.8755757822
 20
688.8999347076
 11
506.5696036849
 21
689.939894836
  0
LINE
  5
7EF
100
AcDbEntity
  8
KONSTRUKTIONSELEMENTE
100
AcDbLine
 62
7
  6
CONTINUOUS
 10
489.087391108
 20
673.2641056863
 11
488.8255445053
 21
674.1624140061
  0
LINE
  5
7F0
100
AcDbEntity
  8
KONSTRUKTIONSELEMENTE
100
AcDbLine
 62
7
  6
CONTINUOUS
 10
505.4605868427
 20
689.3631959164
 11
505.6683974336
 21
688.5120045897
  0
LINE
  5
7F1
100
AcDbEntity
  8
KONSTRUKTIONSELEMENTE
100
AcDbLine
 62
7
  6
CONTINUOUS
 10
539.7536720198
 20
282.776130859
 11
539.6133020395
 21
281.9275999187
  0
LINE
  5
7F2
100
AcDbEntity
  8
KONSTRUKTIONSELEMENTE
100
AcDbLine
 62
7
  6
CONTINUOUS
 10
540.5299783773
 20
283.6795161602
 11
540.670347948
 21
284.5280518513
  0
LINE
  5
7F3
100
AcDbEntity
  8
KONSTRUKTIONSELEMENTE
100
AcDbLine
 62
7
  6
CONTINUOUS
 10
543.9932511932
 20
283.1417949779
 11
543.8528812128
 21
282.2932640375
  0
LINE
  5
7F4
100
AcDbEntity
  8
KONSTRUKTIONSELEMENTE
100
AcDbLine
 62
7
  6
CONTINUOUS
 10
505.5932089673
 20
302.3721601607
 11
505.235023628
 21
301.7062729653
  0
LINE
  5
7F5
100
AcDbEntity
  8
KONSTRUKTIONSELEMENTE
100
AcDbLine
 62
7
  6
CONTINUOUS
 10
524.9765761546
 20
310.4530246582
 11
520.0726778349
 21
301.7379927438
  0
LINE
  5
7F6
100
AcDbEntity
  8
KONSTRUKTIONSELEMENTE
100
AcDbLine
 62
7
  6
CONTINUOUS
 10
521.1620568242
 20
301.1250054538
 11
525.0225726471
 21
307.9857754798
  0
LINE
  5
7F7
100
AcDbEntity
  8
0
100
AcDbLine
 62
7
  6
CONTINUOUS
 10
449.2882549363
 20
233.1432139264
 11
448.0382597047
 21
231.2283203142
  0
LINE
  5
7F8
100
AcDbEntity
  8
KONSTRUKTIONSELEMENTE
100
AcDbLine
 62
7
  6
CONTINUOUS
 10
506.0088302778
 20
300.6697772594
 11
506.5518510954
 21
301.4317804921
  0
LINE
  5
7F9
100
AcDbEntity
  8
KONSTRUKTIONSELEMENTE
100
AcDbLine
 62
7
  6
CONTINUOUS
 10
491.3975017486
 20
302.3901944595
 11
490.6561097215
 21
301.3837959986
  0
LINE
  5
7FA
100
AcDbEntity
  8
KONSTRUKTIONSELEMENTE
100
AcDbLine
 62
7
  6
CONTINUOUS
 10
487.6905416129
 20
297.358202155
 11
486.9491492322
 21
296.3518032142
  0
LINE
  5
7FB
100
AcDbEntity
  8
KONSTRUKTIONSELEMENTE
100
AcDbLine
 62
7
  6
CONTINUOUS
 10
496.4438326028
 20
294.532495017
 11
495.9495710157
 21
293.8615623899
  0
LINE
  5
7FC
100
AcDbEntity
  8
KONSTRUKTIONSELEMENTE
100
AcDbLine
 62
7
  6
CONTINUOUS
 10
496.9773822072
 20
293.1043960661
 11
497.4716437944
 21
293.7753286933
  0
LINE
  5
7FD
100
AcDbEntity
  8
KONSTRUKTIONSELEMENTE
100
AcDbLine
 62
7
  6
CONTINUOUS
 10
647.5017461418
 20
478.9286641805
 11
646.919516197
 21
478.2511263858
  0
LINE
  5
7FE
100
AcDbEntity
  8
KONSTRUKTIONSELEMENTE
100
AcDbLine
 62
7
  6
CONTINUOUS
 10
651.9712061279
 20
479.105051931
 11
651.3889762573
 21
478.4275141428
  0
LINE
  5
7FF
100
AcDbEntity
  8
KONSTRUKTIONSELEMENTE
100
AcDbLine
 62
7
  6
CONTINUOUS
 10
655.0520230328
 20
473.0975686419
 11
655.6342529034
 21
473.7751064301
  0
LINE
  5
800
100
AcDbEntity
  8
0
100
AcDbLine
 62
7
  6
CONTINUOUS
 10
400.8507573205
 20
229.6325757118
 11
402.1007561284
 21
230.909171416
  0
LINE
  5
801
100
AcDbEntity
  8
0
100
AcDbLine
 62
7
  6
CONTINUOUS
 10
428.0382573205
 20
242.7176822113
 11
426.7882549363
 21
241.4410866188
  0
LINE
  5
802
100
AcDbEntity
  8
0
100
AcDbLine
 62
7
  6
CONTINUOUS
 10
442.1007573205
 20
242.3985333132
 11
441.1632573205
 21
241.4410866188
  0
LINE
  5
803
100
AcDbEntity
  8
0
100
AcDbLine
 62
7
  6
CONTINUOUS
 10
371.1632579166
 20
228.9942778317
 11
372.4132567245
 21
229.9517246099
  0
LINE
  5
804
100
AcDbEntity
  8
0
100
AcDbLine
 62
7
  6
CONTINUOUS
 10
385.2257561284
 20
235.6964055585
 11
386.4757585126
 21
236.6538522528
  0
LINE
  5
805
100
AcDbEntity
  8
0
100
AcDbLine
 62
7
  6
CONTINUOUS
 10
405.3820079166
 20
266.5474694358
 11
404.4445079166
 21
265.909171416
  0
LINE
  5
806
100
AcDbEntity
  8
0
100
AcDbLine
 62
7
  6
CONTINUOUS
 10
420.3820061284
 20
266.5474694358
 11
419.4445061284
 21
265.909171416
  0
LINE
  5
807
100
AcDbEntity
  8
0
100
AcDbLine
 62
7
  6
CONTINUOUS
 10
393.0382585126
 20
240.8027888225
 11
393.9757585126
 21
241.4410866188
  0
LINE
  5
808
100
AcDbEntity
  8
KONSTRUKTIONSELEMENTE
100
AcDbLine
 62
7
  6
CONTINUOUS
 10
500.5692190296
 20
308.8725603788
 11
496.133151661
 21
306.5657647006
  0
LINE
  5
809
100
AcDbEntity
  8
0
100
AcDbLine
 62
7
  6
CONTINUOUS
 10
391.6320076186
 20
271.0155544566
 11
392.8820073205
 21
271.6538522528
  0
LINE
  5
80A
100
AcDbEntity
  8
0
100
AcDbLine
 62
7
  6
CONTINUOUS
 10
404.7570067245
 20
263.9942778317
 11
406.0070073205
 21
264.6325757118
  0
LINE
  5
80B
100
AcDbEntity
  8
0
100
AcDbLine
 62
7
  6
CONTINUOUS
 10
391.3195070225
 20
272.6112989472
 11
390.3820070225
 21
272.2921500491
  0
LINE
  5
80C
100
AcDbEntity
  8
KONSTRUKTIONSELEMENTE
100
AcDbLine
 62
7
  6
CONTINUOUS
 10
501.5915619431
 20
309.1643743767
 11
500.5692190296
 21
308.8725603788
  0
LINE
  5
80D
100
AcDbEntity
  8
KONSTRUKTIONSELEMENTE
100
AcDbLine
 62
7
  6
CONTINUOUS
 10
501.1581880688
 20
693.1212522527
 11
501.9956934316
 21
693.3169490307
  0
LINE
  5
80E
100
AcDbEntity
  8
KONSTRUKTIONSELEMENTE
100
AcDbLine
 62
7
  6
CONTINUOUS
 10
494.2456654667
 20
674.188939896
 11
489.087391108
 21
673.2641056863
  0
LINE
  5
80F
100
AcDbEntity
  8
KONSTRUKTIONSELEMENTE
100
AcDbLine
 62
7
  6
CONTINUOUS
 10
489.2711634987
 20
671.9565102516
 11
493.972405976
 21
672.7564363111
  0
LINE
  5
810
100
AcDbEntity
  8
KONSTRUKTIONSELEMENTE
100
AcDbLine
 62
7
  6
CONTINUOUS
 10
494.1719202496
 20
677.1885320877
 11
495.3513885708
 21
677.3546862207
  0
LINE
  5
811
100
AcDbEntity
  8
KONSTRUKTIONSELEMENTE
100
AcDbLine
 62
7
  6
CONTINUOUS
 10
485.7824691183
 20
674.1066310034
 11
486.4484983455
 21
674.1916712305
  0
LINE
  5
812
100
AcDbEntity
  8
KONSTRUKTIONSELEMENTE
100
AcDbLine
 62
7
  6
CONTINUOUS
 10
486.6827207023
 20
675.4195311116
 11
486.0166914751
 21
675.3344908845
  0
LINE
  5
813
100
AcDbEntity
  8
KONSTRUKTIONSELEMENTE
100
AcDbLine
 62
7
  6
CONTINUOUS
 10
537.9203190471
 20
664.6536030343
 11
538.556255834
 21
664.7084526445
  0
LINE
  5
814
100
AcDbEntity
  8
KONSTRUKTIONSELEMENTE
100
AcDbLine
 62
7
  6
CONTINUOUS
 10
542.1419958913
 20
665.2268266864
 11
542.7779326782
 21
665.2816762966
  0
LINE
  5
815
100
AcDbEntity
  8
KONSTRUKTIONSELEMENTE
100
AcDbLine
 62
7
  6
CONTINUOUS
 10
538.4667444434
 20
665.746264691
 11
537.8308076565
 21
665.6914150809
  0
LINE
  5
816
100
AcDbEntity
  8
KONSTRUKTIONSELEMENTE
100
AcDbLine
 62
7
  6
CONTINUOUS
 10
542.6884208778
 20
666.3194930939
 11
542.2644630198
 21
666.2829266871
  0
LINE
  5
817
100
AcDbEntity
  8
KONSTRUKTIONSELEMENTE
100
AcDbLine
 62
7
  6
CONTINUOUS
 10
541.8348076891
 20
671.2644321119
 11
542.2587655471
 21
671.3009985187
  0
LINE
  5
818
100
AcDbEntity
  8
KONSTRUKTIONSELEMENTE
100
AcDbLine
 62
7
  6
CONTINUOUS
 10
537.3653478515
 20
671.0880443741
 11
538.0012846384
 21
671.1428939843
  0
LINE
  5
819
100
AcDbEntity
  8
KONSTRUKTIONSELEMENTE
100
AcDbLine
 62
7
  6
CONTINUOUS
 10
542.1692541564
 20
672.3388105652
 11
541.5333173695
 21
672.2839609551
  0
LINE
  5
81A
100
AcDbEntity
  8
KONSTRUKTIONSELEMENTE
100
AcDbLine
 62
7
  6
CONTINUOUS
 10
537.911772838
 20
672.1807107816
 11
537.2758360511
 21
672.1258611714
  0
LINE
  5
81B
100
AcDbEntity
  8
KONSTRUKTIONSELEMENTE
100
AcDbLine
 62
7
  6
CONTINUOUS
 10
318.6130174178
 20
681.6536698282
 11
311.1119104921
 21
682.9707696535
  0
LINE
  5
81C
100
AcDbEntity
  8
KONSTRUKTIONSELEMENTE
100
AcDbLine
 62
7
  6
CONTINUOUS
 10
311.8646757263
 20
681.7217359273
 11
317.1551804241
 21
680.775063444
  0
LINE
  5
81D
100
AcDbEntity
  8
KONSTRUKTIONSELEMENTE
100
AcDbLine
 62
7
  6
CONTINUOUS
 10
270.7395819551
 20
677.3578433528
 11
271.6719202496
 21
677.1885320877
  0
LINE
  5
81E
100
AcDbEntity
  8
KONSTRUKTIONSELEMENTE
100
AcDbLine
 62
7
  6
CONTINUOUS
 10
270.4964795266
 20
667.6403536684
 11
266.1075335064
 21
668.4775740194
  0
LINE
  5
81F
100
AcDbEntity
  8
KONSTRUKTIONSELEMENTE
100
AcDbLine
 62
7
  6
CONTINUOUS
 10
264.8535490965
 20
668.7167798021
 11
261.7185874862
 21
669.3147943704
  0
LINE
  5
820
100
AcDbEntity
  8
KONSTRUKTIONSELEMENTE
100
AcDbLine
 62
7
  6
CONTINUOUS
 10
263.9484983455
 20
674.1916712305
 11
264.5754911359
 21
674.0720682274
  0
LINE
  5
821
100
AcDbEntity
  8
KONSTRUKTIONSELEMENTE
100
AcDbLine
 62
7
  6
CONTINUOUS
 10
265.0187108944
 20
675.2600604781
 11
264.1827207023
 21
675.4195311116
  0
LINE
  5
822
100
AcDbEntity
  8
KONSTRUKTIONSELEMENTE
100
AcDbLine
 62
7
  6
CONTINUOUS
 10
316.5074726638
 20
671.8569982049
 11
315.411772838
 21
672.1807107816
  0
LINE
  5
823
100
AcDbEntity
  8
KONSTRUKTIONSELEMENTE
100
AcDbLine
 62
7
  6
CONTINUOUS
 10
320.7649538695
 20
672.0151027649
 11
319.6692541564
 21
672.3388105652
  0
LINE
  5
824
100
AcDbEntity
  8
KONSTRUKTIONSELEMENTE
100
AcDbLine
 62
7
  6
CONTINUOUS
 10
281.1592186949
 20
694.1819974101
 11
280.0272288124
 21
694.5526070371
  0
LINE
  5
825
100
AcDbEntity
  8
KONSTRUKTIONSELEMENTE
100
AcDbLine
 62
7
  6
CONTINUOUS
 10
652.8427217586
 20
473.9525486034
 11
652.1351756133
 21
474.727951481
  0
LINE
  5
826
100
AcDbEntity
  8
KONSTRUKTIONSELEMENTE
100
AcDbLine
 62
7
  6
CONTINUOUS
 10
650.9650183994
 20
478.390947736
 11
650.2574726638
 21
479.1663458628
  0
LINE
  5
827
100
AcDbEntity
  8
KONSTRUKTIONSELEMENTE
100
AcDbLine
 62
7
  6
CONTINUOUS
 10
654.1805078119
 20
478.2500672188
 11
654.8880535474
 21
477.4746690919
  0
LINE
  5
828
100
AcDbEntity
  8
KONSTRUKTIONSELEMENTE
100
AcDbLine
 62
7
  6
CONTINUOUS
 10
487.6634463187
 20
673.7478222178
 11
488.0033669658
 21
673.2588001347
  0
LINE
  5
829
100
AcDbEntity
  8
KONSTRUKTIONSELEMENTE
100
AcDbLine
 62
7
  6
CONTINUOUS
 10
497.8788803854
 20
682.2205243922
 11
497.4408033244
 21
683.0607678045
  0
LINE
  5
82A
100
AcDbEntity
  8
KONSTRUKTIONSELEMENTE
100
AcDbLine
 62
7
  6
CONTINUOUS
 10
496.133151661
 20
691.9470693847
 11
500.7467430174
 21
683.0749346474
  0
LINE
  5
82B
100
AcDbEntity
  8
KONSTRUKTIONSELEMENTE
100
AcDbLine
 62
7
  6
CONTINUOUS
 10
501.2667907517
 20
684.7842465093
 11
497.8311375423
 21
691.3911554941
  0
LINE
  5
82C
100
AcDbEntity
  8
KONSTRUKTIONSELEMENTE
100
AcDbLine
 62
7
  6
CONTINUOUS
 10
503.9881641075
 20
692.1947282062
 11
505.4605868427
 21
689.3631959164
  0
LINE
  5
82D
100
AcDbEntity
  8
KONSTRUKTIONSELEMENTE
100
AcDbLine
 62
7
  6
CONTINUOUS
 10
506.5696036849
 20
689.939894836
 11
505.0971809496
 21
692.7714271258
  0
LINE
  5
82E
100
AcDbEntity
  8
KONSTRUKTIONSELEMENTE
100
AcDbLine
 62
7
  6
CONTINUOUS
 10
536.4336176595
 20
667.0346565136
 11
536.1500297819
 21
667.8466210472
  0
LINE
  5
82F
100
AcDbEntity
  8
KONSTRUKTIONSELEMENTE
100
AcDbLine
 62
7
  6
CONTINUOUS
 10
535.1080370208
 20
667.5476454586
 11
535.4095277687
 21
666.5281118662
  0
LINE
  5
830
100
AcDbEntity
  8
KONSTRUKTIONSELEMENTE
100
AcDbLine
 62
7
  6
CONTINUOUS
 10
544.9815364797
 20
669.4447681666
 11
544.68004616
 21
670.4642970098
  0
LWPOLYLINE
  5
831
100
AcDbEntity
  8
0
100
AcDbPolyline
 62
7
  6
CONTINUOUS
 90
78
 70
0
 10
612.0283326062
 20
473.6751289057
 10
612.0027352562
 20
475.205584053
 10
611.9172983968
 20
476.8543065553
 10
611.7753746271
 20
478.4613979086
 10
611.5807330073
 20
480.0259942139
 10
611.3372281103
 20
481.5474356182
 10
611.0485277211
 20
483.0263898742
 10
610.7184869173
 20
484.4623418379
 10
610.3503050968
 20
485.8568064499
 10
609.9472130867
 20
487.2097513637
 10
609.5119210018
 20
488.5220893579
 10
609.0468796497
 20
489.7946545721
 10
608.5543078245
 20
491.0282189265
 10
608.036039955
 20
492.2238915066
 10
607.4940380543
 20
493.3820175005
 10
606.9299650773
 20
494.5036200426
 10
606.3457921589
 20
495.5891585714
 10
605.7432558211
 20
496.6393504493
 10
605.1239797221
 20
497.6549642317
 10
604.4894559038
 20
498.6368094562
 10
603.8410608405
 20
499.5856828357
 10
603.1800010502
 20
500.5024413004
 10
602.5075260814
 20
501.3877321149
 10
601.8247626794
 20
502.2422875643
 10
601.1328537577
 20
503.0667976278
 10
600.4328478235
 20
503.8619731952
 10
599.7257093488
 20
504.6285285533
 10
599.012334851
 20
505.3671818966
 10
598.2935438417
 20
506.0786459889
 10
597.5700761438
 20
506.7636267348
 10
596.8425993519
 20
507.4228102174
 10
596.1116900671
 20
508.0568883089
 10
595.3779395189
 20
508.6664761143
 10
594.6418794322
 20
509.2522301942
 10
593.9040218697
 20
509.8148109535
 10
593.1648221736
 20
510.3548654949
 10
592.4246799665
 20
510.8730311317
 10
591.6839566422
 20
511.3699422398
 10
590.9429717607
 20
511.8462151587
 10
590.2019835499
 20
512.3024545709
 10
589.46126667
 20
512.73920425
 10
588.7207885958
 20
513.1571313279
 10
587.98148083
 20
513.5563302173
 10
587.243900739
 20
513.9371184365
 10
586.509051525
 20
514.2996162256
 10
585.7778452019
 20
514.6440504472
 10
585.051108135
 20
514.9707143543
 10
584.3296838676
 20
515.2799132972
 10
583.6143525711
 20
515.5720059306
 10
582.9058795062
 20
515.8473851197
 10
582.205072961
 20
516.1064425111
 10
581.5125643739
 20
516.3496465319
 10
580.8295315579
 20
516.5772916189
 10
580.1565466521
 20
516.7898970057
 10
579.4959499092
 20
516.987467363
 10
578.8496080668
 20
517.1702532519
 10
578.2194754058
 20
517.3385604206
 10
577.6075244942
 20
517.4927704724
 10
577.0154839183
 20
517.6334024132
 10
576.4449825402
 20
517.7610449663
 10
575.8981514493
 20
517.8762174604
 10
575.3772887469
 20
517.9794577613
 10
574.8833812173
 20
518.0715880127
 10
574.4183700004
 20
518.1532478898
 10
573.9815433526
 20
518.2255170374
 10
573.5743610484
 20
518.2890481526
 10
573.1920950048
 20
518.3453612906
 10
572.8316698635
 20
518.3955355702
 10
572.489250761
 20
518.4406075826
 10
572.1600048981
 20
518.4815909218
 10
571.843408292
 20
518.5188532059
 10
571.5365004584
 20
518.5529981147
 10
571.2413943778
 20
518.5840274142
 10
570.9592715547
 20
518.6120727024
 10
570.6899852936
 20
518.6373997271
 10
570.4344442542
 20
518.6601650299
 10
570.1908440234
 20
518.6807493487
 10
569.7350298
 20
518.7164623245
  0
LINE
  5
832
100
AcDbEntity
  8
0
100
AcDbLine
 62
7
  6
CONTINUOUS
 10
605.3820073205
 20
550.4627147079
 11
605.3820073205
 21
497.2317985619
  0
LINE
  5
833
100
AcDbEntity
  8
0
100
AcDbLine
 62
7
  6
CONTINUOUS
 10
605.3820073205
 20
450.1117803474
 11
605.3820073205
 21
396.8875431034
  0
LINE
  5
834
100
AcDbEntity
  8
KONSTRUKTIONSELEMENTE
100
AcDbLine
 62
7
  6
CONTINUOUS
 10
536.2187899941
 20
284.1441045419
 11
536.5711389034
 21
285.0109186856
  0
LINE
  5
835
100
AcDbEntity
  8
KONSTRUKTIONSELEMENTE
100
AcDbLine
 62
7
  6
CONTINUOUS
 10
540.1389762573
 20
285.7368618008
 11
539.9628022124
 21
285.3034499781
  0
LINE
  5
836
100
AcDbEntity
  8
KONSTRUKTIONSELEMENTE
100
AcDbLine
 62
7
  6
CONTINUOUS
 10
539.6133020395
 20
281.9275999187
 11
539.2609535399
 21
281.0607810242
  0
LINE
  5
837
100
AcDbEntity
  8
KONSTRUKTIONSELEMENTE
100
AcDbLine
 62
7
  6
CONTINUOUS
 10
540.1446737301
 20
280.7187899692
 11
540.3208481848
 21
281.1521970411
  0
LINE
  5
838
100
AcDbEntity
  8
KONSTRUKTIONSELEMENTE
100
AcDbLine
 62
7
  6
CONTINUOUS
 10
535.669516197
 20
285.5604740438
 11
535.123090745
 21
284.4678123822
  0
LINE
  5
839
100
AcDbEntity
  8
KONSTRUKTIONSELEMENTE
100
AcDbLine
 62
7
  6
CONTINUOUS
 10
544.3842529034
 20
281.0844540881
 11
544.9306782997
 21
282.1771157448
  0
LINE
  5
83A
100
AcDbEntity
  8
KONSTRUKTIONSELEMENTE
100
AcDbLine
 62
7
  6
CONTINUOUS
 10
646.919516197
 20
478.2511263858
 11
646.373090745
 21
477.1584647243
  0
LINE
  5
83B
100
AcDbEntity
  8
KONSTRUKTIONSELEMENTE
100
AcDbLine
 62
7
  6
CONTINUOUS
 10
531.5588465829
 20
304.30785174
 11
527.69833076
 21
297.447081714
  0
LINE
  5
83C
100
AcDbEntity
  8
KONSTRUKTIONSELEMENTE
100
AcDbLine
 62
7
  6
CONTINUOUS
 10
528.7877097493
 20
296.834094424
 11
533.6916080691
 21
305.5491263384
  0
LINE
  5
83D
100
AcDbEntity
  8
KONSTRUKTIONSELEMENTE
100
AcDbLine
 62
7
  6
CONTINUOUS
 10
642.8088465829
 20
496.998504082
 11
640.3820073205
 21
492.6856125326
  0
LINE
  5
83E
100
AcDbEntity
  8
KONSTRUKTIONSELEMENTE
100
AcDbLine
 62
7
  6
CONTINUOUS
 10
640.3820073205
 20
490.1366200403
 11
644.9416080691
 21
498.2397786804
  0
LINE
  5
83F
100
AcDbEntity
  8
KONSTRUKTIONSELEMENTE
100
AcDbLine
 62
7
  6
CONTINUOUS
 10
651.920347948
 20
477.2187041934
 11
652.4846757863
 21
478.1038015405
  0
LINE
  5
840
100
AcDbEntity
  8
KONSTRUKTIONSELEMENTE
100
AcDbLine
 62
7
  6
CONTINUOUS
 10
650.8303463015
 20
472.5243402134
 11
651.3946737301
 21
473.4094423113
  0
LINE
  5
841
100
AcDbEntity
  8
KONSTRUKTIONSELEMENTE
100
AcDbLine
 62
7
  6
CONTINUOUS
 10
655.1028812128
 20
474.9839163796
 11
654.5385537842
 21
474.0988142817
  0
LINE
  5
842
100
AcDbEntity
  8
KONSTRUKTIONSELEMENTE
100
AcDbLine
 62
7
  6
CONTINUOUS
 10
540.670347948
 20
284.5280518513
 11
541.2346757863
 21
285.4131491984
  0
LINE
  5
843
100
AcDbEntity
  8
0
100
AcDbLine
 62
7
  6
CONTINUOUS
 10
448.9757597047
 20
229.9517246099
 11
449.9132597047
 21
230.909171416
  0
LINE
  5
844
100
AcDbEntity
  8
0
100
AcDbLine
 62
7
  6
CONTINUOUS
 10
434.9132597047
 20
238.2495967435
 11
426.1632573205
 21
230.2708736198
  0
LINE
  5
845
100
AcDbEntity
  8
KONSTRUKTIONSELEMENTE
100
AcDbLine
 62
7
  6
CONTINUOUS
 10
496.1882538934
 20
292.3919253856
 11
496.9773822072
 21
293.1043960661
  0
LINE
  5
846
100
AcDbEntity
  8
0
100
AcDbLine
 62
7
  6
CONTINUOUS
 10
428.6632549363
 20
230.2708736198
 11
436.4757573205
 21
237.2921500491
  0
LINE
  5
847
100
AcDbEntity
  8
KONSTRUKTIONSELEMENTE
100
AcDbLine
 62
7
  6
CONTINUOUS
 10
505.235023628
 20
301.7062729653
 11
504.5938412782
 21
301.1330385839
  0
LINE
  5
848
100
AcDbEntity
  8
KONSTRUKTIONSELEMENTE
100
AcDbLine
 62
7
  6
CONTINUOUS
 10
485.0635906901
 20
289.4987267817
 11
484.2804502845
 21
288.7997566141
  0
LINE
  5
849
100
AcDbEntity
  8
KONSTRUKTIONSELEMENTE
100
AcDbLine
 62
7
  6
CONTINUOUS
 10
532.0575395851
 20
306.4686072734
 11
524.9518851136
 21
300.213174658
  0
LINE
  5
84A
100
AcDbEntity
  8
KONSTRUKTIONSELEMENTE
100
AcDbLine
 62
7
  6
CONTINUOUS
 10
525.1564478368
 20
298.8773846111
 11
531.5588465829
 21
304.30785174
  0
LINE
  5
84B
100
AcDbEntity
  8
KONSTRUKTIONSELEMENTE
100
AcDbLine
 62
7
  6
CONTINUOUS
 10
495.9495710157
 20
293.8615623899
 11
495.2840082904
 21
293.316825095
  0
LINE
  5
84C
100
AcDbEntity
  8
KONSTRUKTIONSELEMENTE
100
AcDbLine
 62
7
  6
CONTINUOUS
 10
505.1828103861
 20
300.0004256416
 11
506.0088302778
 21
300.6697772594
  0
LINE
  5
84D
100
AcDbEntity
  8
0
100
AcDbLine
 62
7
  6
CONTINUOUS
 10
400.2257561284
 20
231.5474694358
 11
399.2882561284
 21
230.909171416
  0
LINE
  5
84E
100
AcDbEntity
  8
0
100
AcDbLine
 62
7
  6
CONTINUOUS
 10
428.6632549363
 20
241.1219377207
 11
429.6007549363
 21
241.7602355169
  0
LINE
  5
84F
100
AcDbEntity
  8
0
100
AcDbLine
 62
7
  6
CONTINUOUS
 10
443.0382573205
 20
241.1219377207
 11
443.9757573205
 21
241.7602355169
  0
LINE
  5
850
100
AcDbEntity
  8
KONSTRUKTIONSELEMENTE
100
AcDbLine
 62
7
  6
CONTINUOUS
 10
485.2864001588
 20
288.3957747581
 11
485.7824691183
 21
288.7253263194
  0
LINE
  5
851
100
AcDbEntity
  8
0
100
AcDbLine
 62
7
  6
CONTINUOUS
 10
443.6632549363
 20
243.3559800075
 11
442.1007573205
 21
242.3985333132
  0
LINE
  5
852
100
AcDbEntity
  8
KONSTRUKTIONSELEMENTE
100
AcDbLine
 62
7
  6
CONTINUOUS
 10
533.6119104921
 20
297.5894649694
 11
532.5185324916
 21
296.9305100274
  0
LINE
  5
853
100
AcDbEntity
  8
KONSTRUKTIONSELEMENTE
100
AcDbLine
 62
7
  6
CONTINUOUS
 10
497.8311375423
 20
306.00985081
 11
501.1581880688
 21
307.7399475687
  0
LINE
  5
854
100
AcDbEntity
  8
KONSTRUKTIONSELEMENTE
100
AcDbLine
 62
7
  6
CONTINUOUS
 10
504.5938412782
 20
301.1330385839
 11
501.2667907517
 21
299.4029418253
  0
LINE
  5
855
100
AcDbEntity
  8
KONSTRUKTIONSELEMENTE
100
AcDbLine
 62
7
  6
CONTINUOUS
 10
500.7467430174
 20
297.6936299634
 11
505.1828103861
 21
300.0004256416
  0
LINE
  5
856
100
AcDbEntity
  8
0
100
AcDbLine
 62
7
  6
CONTINUOUS
 10
419.7570085126
 20
263.9942778317
 11
421.0070073205
 21
264.6325757118
  0
LINE
  5
857
100
AcDbEntity
  8
0
100
AcDbLine
 62
7
  6
CONTINUOUS
 10
371.7882573205
 20
236.3347033547
 11
372.4132567245
 21
236.6538522528
  0
LINE
  5
858
100
AcDbEntity
  8
0
100
AcDbLine
 62
7
  6
CONTINUOUS
 10
393.6632561284
 20
243.3559800075
 11
392.4132573205
 21
242.7176822113
  0
LINE
  5
859
100
AcDbEntity
  8
0
100
AcDbLine
 62
7
  6
CONTINUOUS
 10
399.6007585126
 20
228.9942778317
 11
400.8507573205
 21
229.6325757118
  0
LINE
  5
85A
100
AcDbEntity
  8
0
100
AcDbLine
 62
7
  6
CONTINUOUS
 10
429.2882597047
 20
243.3559800075
 11
428.0382573205
 21
242.7176822113
  0
LINE
  5
85B
100
AcDbEntity
  8
KONSTRUKTIONSELEMENTE
100
AcDbLine
 62
7
  6
CONTINUOUS
 10
495.3513885708
 20
291.9733815367
 11
496.1882538934
 21
292.3919253856
  0
LINE
  5
85C
100
AcDbEntity
  8
KONSTRUKTIONSELEMENTE
100
AcDbLine
 62
7
  6
CONTINUOUS
 10
486.0166914751
 20
289.9531862005
 11
485.0635906901
 21
289.4987267817
  0
LINE
  5
85D
100
AcDbEntity
  8
KONSTRUKTIONSELEMENTE
100
AcDbLine
 62
7
  6
CONTINUOUS
 10
495.2840082904
 20
293.316825095
 11
494.5707084663
 21
293.0660146981
  0
LINE
  5
85E
100
AcDbEntity
  8
0
100
AcDbLine
 62
7
  6
CONTINUOUS
 10
370.8507573205
 20
237.6112989472
 11
369.9132573205
 21
237.2921500491
  0
LINE
  5
85F
100
AcDbEntity
  8
0
100
AcDbLine
 62
7
  6
CONTINUOUS
 10
384.9132573205
 20
237.6112989472
 11
383.9757573205
 21
237.2921500491
  0
LINE
  5
860
100
AcDbEntity
  8
KONSTRUKTIONSELEMENTE
100
AcDbLine
 62
7
  6
CONTINUOUS
 10
266.7711634987
 20
671.9565102516
 11
271.472405976
 21
672.7564363111
  0
LINE
  5
861
100
AcDbEntity
  8
KONSTRUKTIONSELEMENTE
100
AcDbLine
 62
7
  6
CONTINUOUS
 10
263.2824691183
 20
674.1066310034
 11
263.9484983455
 21
674.1916712305
  0
LINE
  5
862
100
AcDbEntity
  8
KONSTRUKTIONSELEMENTE
100
AcDbLine
 62
7
  6
CONTINUOUS
 10
264.1827207023
 20
675.4195311116
 11
263.5166914751
 21
675.3344908845
  0
LINE
  5
863
100
AcDbEntity
  8
KONSTRUKTIONSELEMENTE
100
AcDbLine
 62
7
  6
CONTINUOUS
 10
315.4203190471
 20
664.6536030343
 11
316.056255834
 21
664.7084526445
  0
LINE
  5
864
100
AcDbEntity
  8
KONSTRUKTIONSELEMENTE
100
AcDbLine
 62
7
  6
CONTINUOUS
 10
319.6419958913
 20
665.2268266864
 11
320.2779326782
 21
665.2816762966
  0
LINE
  5
865
100
AcDbEntity
  8
KONSTRUKTIONSELEMENTE
100
AcDbLine
 62
7
  6
CONTINUOUS
 10
315.9667444434
 20
665.746264691
 11
315.3308076565
 21
665.6914150809
  0
LINE
  5
866
100
AcDbEntity
  8
KONSTRUKTIONSELEMENTE
100
AcDbLine
 62
7
  6
CONTINUOUS
 10
320.1884208778
 20
666.3194930939
 11
319.7644630198
 21
666.2829266871
  0
LINE
  5
867
100
AcDbEntity
  8
KONSTRUKTIONSELEMENTE
100
AcDbLine
 62
7
  6
CONTINUOUS
 10
319.3348076891
 20
671.2644321119
 11
319.7587655471
 21
671.3009985187
  0
LINE
  5
868
100
AcDbEntity
  8
KONSTRUKTIONSELEMENTE
100
AcDbLine
 62
7
  6
CONTINUOUS
 10
314.8653478515
 20
671.0880443741
 11
315.5012846384
 21
671.1428939843
  0
LINE
  5
869
100
AcDbEntity
  8
KONSTRUKTIONSELEMENTE
100
AcDbLine
 62
7
  6
CONTINUOUS
 10
319.6692541564
 20
672.3388105652
 11
319.0333173695
 21
672.2839609551
  0
LINE
  5
86A
100
AcDbEntity
  8
KONSTRUKTIONSELEMENTE
100
AcDbLine
 62
7
  6
CONTINUOUS
 10
315.411772838
 20
672.1807107816
 11
314.7758360511
 21
672.1258611714
  0
LINE
  5
86B
100
AcDbEntity
  8
KONSTRUKTIONSELEMENTE
100
AcDbLine
 62
7
  6
CONTINUOUS
 10
272.0707084663
 20
678.4473193821
 11
271.3096717834
 21
678.4904357063
  0
LINE
  5
86C
100
AcDbEntity
  8
KONSTRUKTIONSELEMENTE
100
AcDbLine
 62
7
  6
CONTINUOUS
 10
494.5707084663
 20
678.4473193821
 11
493.8096717834
 21
678.4904357063
  0
LINE
  5
86D
100
AcDbEntity
  8
KONSTRUKTIONSELEMENTE
100
AcDbLine
 62
7
  6
CONTINUOUS
 10
279.4956934316
 20
693.3169490307
 11
280.2465248657
 21
693.2277608871
  0
LINE
  5
86E
100
AcDbEntity
  8
KONSTRUKTIONSELEMENTE
100
AcDbLine
 62
7
  6
CONTINUOUS
 10
493.2395819551
 20
677.3578433528
 11
494.1719202496
 21
677.1885320877
  0
LINE
  5
86F
100
AcDbEntity
  8
KONSTRUKTIONSELEMENTE
100
AcDbLine
 62
7
  6
CONTINUOUS
 10
482.9393781211
 20
668.2862726416
 11
492.7622571698
 21
666.4124937873
  0
LINE
  5
870
100
AcDbEntity
  8
KONSTRUKTIONSELEMENTE
100
AcDbLine
 62
7
  6
CONTINUOUS
 10
492.9964795266
 20
667.6403536684
 11
488.6075335064
 21
668.4775740194
  0
LINE
  5
871
100
AcDbEntity
  8
KONSTRUKTIONSELEMENTE
100
AcDbLine
 62
7
  6
CONTINUOUS
 10
487.3535490965
 20
668.7167798021
 11
484.2185874862
 21
669.3147943704
  0
LINE
  5
872
100
AcDbEntity
  8
KONSTRUKTIONSELEMENTE
100
AcDbLine
 62
7
  6
CONTINUOUS
 10
486.4484983455
 20
674.1916712305
 11
487.0754911359
 21
674.0720682274
  0
LINE
  5
873
100
AcDbEntity
  8
KONSTRUKTIONSELEMENTE
100
AcDbLine
 62
7
  6
CONTINUOUS
 10
487.5187108944
 20
675.2600604781
 11
486.6827207023
 21
675.4195311116
  0
LINE
  5
874
100
AcDbEntity
  8
KONSTRUKTIONSELEMENTE
100
AcDbLine
 62
7
  6
CONTINUOUS
 10
487.0754911359
 20
674.0720682274
 11
487.6634463187
 21
673.7478222178
  0
LINE
  5
875
100
AcDbEntity
  8
KONSTRUKTIONSELEMENTE
100
AcDbLine
 62
7
  6
CONTINUOUS
 10
488.1066660771
 20
674.9358144684
 11
487.5187108944
 21
675.2600604781
  0
LINE
  5
876
100
AcDbEntity
  8
KONSTRUKTIONSELEMENTE
100
AcDbLine
 62
7
  6
CONTINUOUS
 10
486.9491492322
 20
681.7331078983
 11
492.2595071552
 21
677.8210818188
  0
LINE
  5
877
100
AcDbEntity
  8
KONSTRUKTIONSELEMENTE
100
AcDbLine
 62
7
  6
CONTINUOUS
 10
493.0008995359
 20
678.8274807596
 11
487.6905416129
 21
682.7395068391
  0
LINE
  5
878
100
AcDbEntity
  8
KONSTRUKTIONSELEMENTE
100
AcDbLine
 62
7
  6
CONTINUOUS
 10
488.8255445053
 20
674.1624140061
 11
488.1066660771
 21
674.9358144684
  0
LINE
  5
879
100
AcDbEntity
  8
KONSTRUKTIONSELEMENTE
100
AcDbLine
 62
7
  6
CONTINUOUS
 10
497.4408033244
 20
683.0607678045
 11
496.7078596716
 21
683.859473064
  0
LINE
  5
87A
100
AcDbEntity
  8
KONSTRUKTIONSELEMENTE
100
AcDbLine
 62
7
  6
CONTINUOUS
 10
495.9664676445
 20
682.8530746031
 11
496.528109452
 21
682.1805637162
  0
LINE
  5
87B
100
AcDbEntity
  8
KONSTRUKTIONSELEMENTE
100
AcDbLine
 62
7
  6
CONTINUOUS
 10
505.0971809496
 20
692.7714271258
 11
504.4215377068
 21
693.6191555431
  0
LINE
  5
87C
100
AcDbEntity
  8
KONSTRUKTIONSELEMENTE
100
AcDbLine
 62
7
  6
CONTINUOUS
 10
646.6595277687
 20
473.8374595242
 11
647.384976002
 21
472.8544970926
  0
LINE
  5
87D
100
AcDbEntity
  8
KONSTRUKTIONSELEMENTE
100
AcDbLine
 62
7
  6
CONTINUOUS
 10
655.93004616
 20
477.7736446677
 11
655.2045975727
 21
478.7566118549
  0
LINE
  5
87E
100
AcDbEntity
  8
KONSTRUKTIONSELEMENTE
100
AcDbLine
 62
7
  6
CONTINUOUS
 10
648.1791848758
 20
473.5503180906
 11
647.6836176595
 21
474.3440041715
  0
LINE
  5
87F
100
AcDbEntity
  8
KONSTRUKTIONSELEMENTE
100
AcDbLine
 62
7
  6
CONTINUOUS
 10
651.5708481848
 20
473.8428493831
 11
651.818631588
 21
473.446008718
  0
LINE
  5
880
100
AcDbEntity
  8
KONSTRUKTIONSELEMENTE
100
AcDbLine
 62
7
  6
CONTINUOUS
 10
650.1529075675
 20
477.9026863033
 11
650.6484743741
 21
477.1090049731
  0
LINE
  5
881
100
AcDbEntity
  8
KONSTRUKTIONSELEMENTE
100
AcDbLine
 62
7
  6
CONTINUOUS
 10
651.2128022124
 20
477.9941023202
 11
650.9650183994
 21
478.390947736
  0
LINE
  5
882
100
AcDbEntity
  8
KONSTRUKTIONSELEMENTE
100
AcDbLine
 62
7
  6
CONTINUOUS
 10
536.9291848758
 20
666.2409704326
 11
536.4336176595
 21
667.0346565136
  0
LINE
  5
883
100
AcDbEntity
  8
KONSTRUKTIONSELEMENTE
100
AcDbLine
 62
7
  6
CONTINUOUS
 10
540.3208481848
 20
666.5335017252
 11
540.568631588
 21
666.1366610601
  0
LINE
  5
884
100
AcDbEntity
  8
KONSTRUKTIONSELEMENTE
100
AcDbLine
 62
7
  6
CONTINUOUS
 10
643.7982240585
 20
483.8012043636
 11
644.4434506988
 21
482.7306051937
  0
LINE
  5
885
100
AcDbEntity
  8
KONSTRUKTIONSELEMENTE
100
AcDbLine
 62
7
  6
CONTINUOUS
 10
643.7685324916
 20
489.6211623695
 11
646.3494390528
 21
485.3387656898
  0
LINE
  5
886
100
AcDbEntity
  8
KONSTRUKTIONSELEMENTE
100
AcDbLine
 62
7
  6
CONTINUOUS
 10
646.9946656931
 20
484.2681665199
 11
648.0700442474
 21
482.4838332087
  0
LINE
  5
887
100
AcDbEntity
  8
KONSTRUKTIONSELEMENTE
100
AcDbLine
 62
7
  6
CONTINUOUS
 10
532.5482240585
 20
676.4918567057
 11
533.1934506988
 21
675.4212575357
  0
LINE
  5
888
100
AcDbEntity
  8
KONSTRUKTIONSELEMENTE
100
AcDbLine
 62
7
  6
CONTINUOUS
 10
649.163422248
 20
483.1427881507
 11
648.0880436937
 21
484.9271214619
  0
LINE
  5
889
100
AcDbEntity
  8
KONSTRUKTIONSELEMENTE
100
AcDbLine
 62
7
  6
CONTINUOUS
 10
647.4428170534
 20
485.9977206318
 11
645.6146757263
 21
489.0310835852
  0
LINE
  5
88A
100
AcDbEntity
  8
KONSTRUKTIONSELEMENTE
100
AcDbLine
 62
7
  6
CONTINUOUS
 10
532.5185324916
 20
682.3118147115
 11
535.0994390528
 21
678.0294180318
  0
LINE
  5
88B
100
AcDbEntity
  8
KONSTRUKTIONSELEMENTE
100
AcDbLine
 62
7
  6
CONTINUOUS
 10
535.7446656931
 20
676.9588188619
 11
536.8200442474
 21
675.1744855507
  0
LINE
  5
88C
100
AcDbEntity
  8
KONSTRUKTIONSELEMENTE
100
AcDbLine
 62
7
  6
CONTINUOUS
 10
539.3984743741
 20
669.7996573151
 11
539.6820626614
 21
668.9876880308
  0
LINE
  5
88D
100
AcDbEntity
  8
KONSTRUKTIONSELEMENTE
100
AcDbLine
 62
7
  6
CONTINUOUS
 10
540.8851756133
 20
667.418603823
 11
540.6015877357
 21
668.2305683566
  0
LINE
  5
88E
100
AcDbEntity
  8
KONSTRUKTIONSELEMENTE
100
AcDbLine
 62
7
  6
CONTINUOUS
 10
543.6380535474
 20
670.165321434
 11
543.9216418348
 21
669.3533521497
  0
LINE
  5
88F
100
AcDbEntity
  8
KONSTRUKTIONSELEMENTE
100
AcDbLine
 62
7
  6
CONTINUOUS
 10
646.2506231881
 20
476.1023694727
 11
646.3580370208
 21
474.8569931165
  0
LINE
  5
890
100
AcDbEntity
  8
KONSTRUKTIONSELEMENTE
100
AcDbLine
 62
7
  6
CONTINUOUS
 10
647.4000297819
 20
475.1559687051
 11
647.3284204235
 21
475.9862211928
  0
LINE
  5
891
100
AcDbEntity
  8
0
100
AcDbLine
 62
7
  6
CONTINUOUS
 10
640.3820073205
 20
426.1751672637
 11
640.3820073205
 21
521.1750905476
  0
LINE
  5
892
100
AcDbEntity
  8
KONSTRUKTIONSELEMENTE
100
AcDbLine
 62
7
  6
CONTINUOUS
 10
646.373090745
 20
477.1584647243
 11
646.2506231881
 21
476.1023694727
  0
LINE
  5
893
100
AcDbEntity
  8
KONSTRUKTIONSELEMENTE
100
AcDbLine
 62
7
  6
CONTINUOUS
 10
647.3284204235
 20
475.9862211928
 11
647.4687899941
 21
476.8347568839
  0
LINE
  5
894
100
AcDbEntity
  8
KONSTRUKTIONSELEMENTE
100
AcDbLine
 62
7
  6
CONTINUOUS
 10
651.0036720198
 20
475.466783201
 11
650.8633020395
 21
474.6182522607
  0
LINE
  5
895
100
AcDbEntity
  8
KONSTRUKTIONSELEMENTE
100
AcDbLine
 62
7
  6
CONTINUOUS
 10
651.7799783773
 20
476.3701685023
 11
651.920347948
 21
477.2187041934
  0
LINE
  5
896
100
AcDbEntity
  8
KONSTRUKTIONSELEMENTE
100
AcDbLine
 62
7
  6
CONTINUOUS
 10
647.4687899941
 20
476.8347568839
 11
647.8211389034
 21
477.7015710277
  0
LINE
  5
897
100
AcDbEntity
  8
KONSTRUKTIONSELEMENTE
100
AcDbLine
 62
7
  6
CONTINUOUS
 10
651.3889762573
 20
478.4275141428
 11
651.2128022124
 21
477.9941023202
  0
LINE
  5
898
100
AcDbEntity
  8
KONSTRUKTIONSELEMENTE
100
AcDbLine
 62
7
  6
CONTINUOUS
 10
650.8633020395
 20
474.6182522607
 11
650.5109535399
 21
473.7514333662
  0
LINE
  5
899
100
AcDbEntity
  8
KONSTRUKTIONSELEMENTE
100
AcDbLine
 62
7
  6
CONTINUOUS
 10
651.3946737301
 20
473.4094423113
 11
651.5708481848
 21
473.8428493831
  0
LINE
  5
89A
100
AcDbEntity
  8
KONSTRUKTIONSELEMENTE
100
AcDbLine
 62
7
  6
CONTINUOUS
 10
655.6342529034
 20
473.7751064301
 11
656.1806782997
 21
474.8677680869
  0
LINE
  5
89B
100
AcDbEntity
  8
BEZUGSACHSEN
100
AcDbLine
 62
7
  6
CONTINUOUS
 10
535.7826424151
 20
243.4844765636
 11
557.4332775098
 21
280.9844765636
  0
LINE
  5
89C
100
AcDbEntity
  8
BEZUGSACHSEN
100
AcDbLine
 62
7
  6
CONTINUOUS
 10
647.0326424151
 20
436.1751289057
 11
668.6832775098
 21
473.6751289057
  0
LINE
  5
89D
100
AcDbEntity
  8
KONSTRUKTIONSELEMENTE
100
AcDbLine
 62
7
  6
CONTINUOUS
 10
539.5803463015
 20
279.8336878714
 11
540.1446737301
 21
280.7187899692
  0
LINE
  5
89E
100
AcDbEntity
  8
KONSTRUKTIONSELEMENTE
100
AcDbLine
 62
7
  6
CONTINUOUS
 10
543.8528812128
 20
282.2932640375
 11
543.2885537842
 21
281.4081619397
  0
LINE
  5
89F
100
AcDbEntity
  8
KONSTRUKTIONSELEMENTE
100
AcDbLine
 62
7
  6
CONTINUOUS
 10
536.2517461418
 20
286.2380118384
 11
535.669516197
 21
285.5604740438
  0
LINE
  5
8A0
100
AcDbEntity
  8
KONSTRUKTIONSELEMENTE
100
AcDbLine
 62
7
  6
CONTINUOUS
 10
540.7212061279
 20
286.414399589
 11
540.1389762573
 21
285.7368618008
  0
LINE
  5
8A1
100
AcDbEntity
  8
KONSTRUKTIONSELEMENTE
100
AcDbLine
 62
7
  6
CONTINUOUS
 10
543.8020230328
 20
280.4069162999
 11
544.3842529034
 21
281.0844540881
  0
LINE
  5
8A2
100
AcDbEntity
  8
KONSTRUKTIONSELEMENTE
100
AcDbLine
 62
7
  6
CONTINUOUS
 10
536.5711389034
 20
285.0109186856
 11
537.3653478515
 21
285.70673969
  0
LINE
  5
8A3
100
AcDbEntity
  8
KONSTRUKTIONSELEMENTE
100
AcDbLine
 62
7
  6
CONTINUOUS
 10
539.2609535399
 20
281.0607810242
 11
538.4667444434
 21
280.364960007
  0
LINE
  5
8A4
100
AcDbEntity
  8
KONSTRUKTIONSELEMENTE
100
AcDbLine
 62
7
  6
CONTINUOUS
 10
541.2346757863
 20
285.4131491984
 11
541.8348076891
 21
285.8831274278
  0
LINE
  5
8A5
100
AcDbEntity
  8
KONSTRUKTIONSELEMENTE
100
AcDbLine
 62
7
  6
CONTINUOUS
 10
543.2885537842
 20
281.4081619397
 11
542.6884208778
 21
280.9381884098
  0
LINE
  5
8A6
100
AcDbEntity
  8
0
100
AcDbLine
 62
7
  6
CONTINUOUS
 10
448.0382597047
 20
231.2283203142
 11
447.1007597047
 21
230.5900225179
  0
LINE
  5
8A7
100
AcDbEntity
  8
0
100
AcDbLine
 62
7
  6
CONTINUOUS
 10
447.4132549363
 20
228.9942778317
 11
448.9757597047
 21
229.9517246099
  0
LINE
  5
8A8
100
AcDbEntity
  8
KONSTRUKTIONSELEMENTE
100
AcDbLine
 62
7
  6
CONTINUOUS
 10
539.6551804241
 20
295.3937587599
 11
536.1928170534
 21
293.3070682897
  0
LINE
  5
8A9
100
AcDbEntity
  8
KONSTRUKTIONSELEMENTE
100
AcDbLine
 62
7
  6
CONTINUOUS
 10
535.0994390528
 20
292.6481133478
 11
532.5482240585
 21
291.1105520216
  0
LINE
  5
8AA
100
AcDbEntity
  8
KONSTRUKTIONSELEMENTE
100
AcDbLine
 62
7
  6
CONTINUOUS
 10
533.1934506988
 20
290.0399528517
 11
535.7446656931
 21
291.5775141778
  0
LINE
  5
8AB
100
AcDbEntity
  8
KONSTRUKTIONSELEMENTE
100
AcDbLine
 62
7
  6
CONTINUOUS
 10
536.8380436937
 20
292.2364691198
 11
541.7582440582
 21
295.2017659742
  0
LINE
  5
8AC
100
AcDbEntity
  8
KONSTRUKTIONSELEMENTE
100
AcDbLine
 62
7
  6
CONTINUOUS
 10
536.8200442474
 20
289.7931808666
 11
537.913422248
 21
290.4521358086
  0
LINE
  5
8AD
100
AcDbEntity
  8
KONSTRUKTIONSELEMENTE
100
AcDbLine
 62
7
  6
CONTINUOUS
 10
541.5333173695
 20
286.902656271
 11
540.7212061279
 21
286.414399589
  0
LINE
  5
8AE
100
AcDbEntity
  8
KONSTRUKTIONSELEMENTE
100
AcDbLine
 62
7
  6
CONTINUOUS
 10
537.2758360511
 20
286.7445564874
 11
536.2517461418
 21
286.2380118384
  0
LINE
  5
8AF
100
AcDbEntity
  8
KONSTRUKTIONSELEMENTE
100
AcDbLine
 62
7
  6
CONTINUOUS
 10
538.556255834
 20
279.3271479604
 11
539.5803463015
 21
279.8336878714
  0
LINE
  5
8B0
100
AcDbEntity
  8
KONSTRUKTIONSELEMENTE
100
AcDbLine
 62
7
  6
CONTINUOUS
 10
542.7779326782
 20
279.9003716125
 11
543.8020230328
 21
280.4069162999
  0
LINE
  5
8B1
100
AcDbEntity
  8
0
100
AcDbLine
 62
7
  6
CONTINUOUS
 10
370.8507573205
 20
230.909171416
 11
369.9132573205
 21
230.5900225179
  0
LINE
  5
8B2
100
AcDbEntity
  8
KONSTRUKTIONSELEMENTE
100
AcDbLine
 62
7
  6
CONTINUOUS
 10
278.6581880688
 20
693.1212522527
 11
279.4956934316
 21
693.3169490307
  0
LINE
  5
8B3
100
AcDbEntity
  8
KONSTRUKTIONSELEMENTE
100
AcDbLine
 62
7
  6
CONTINUOUS
 10
271.7456654667
 20
674.188939896
 11
266.587391108
 21
673.2641056863
  0
LINE
  5
8B4
100
AcDbEntity
  8
KONSTRUKTIONSELEMENTE
100
AcDbLine
 62
7
  6
CONTINUOUS
 10
271.6719202496
 20
677.1885320877
 11
272.8513885708
 21
677.3546862207
  0
LINE
  5
8B5
100
AcDbEntity
  8
KONSTRUKTIONSELEMENTE
100
AcDbLine
 62
7
  6
CONTINUOUS
 10
502.5272288124
 20
694.5526070371
 11
501.5915619431
 21
694.5456790608
  0
LINE
  5
8B6
100
AcDbEntity
  8
KONSTRUKTIONSELEMENTE
100
AcDbLine
 62
7
  6
CONTINUOUS
 10
280.0272288124
 20
694.5526070371
 11
279.0915619431
 21
694.5456790608
  0
LINE
  5
8B7
100
AcDbEntity
  8
BEZUGSACHSEN
100
AcDbLine
 62
7
  6
CONTINUOUS
 10
535.7826424151
 20
703.8657812477
 11
492.4813722259
 21
703.8657812477
  0
LINE
  5
8B8
100
AcDbEntity
  8
BEZUGSACHSEN
100
AcDbLine
 62
7
  6
CONTINUOUS
 10
313.2826424151
 20
703.8657812477
 11
269.9813722259
 21
703.8657812477
  0
LINE
  5
8B9
100
AcDbEntity
  8
KONSTRUKTIONSELEMENTE
100
AcDbLine
 62
7
  6
CONTINUOUS
 10
501.9956934316
 20
693.3169490307
 11
502.7465248657
 21
693.2277608871
  0
LINE
  5
8BA
100
AcDbEntity
  8
KONSTRUKTIONSELEMENTE
100
AcDbLine
 62
7
  6
CONTINUOUS
 10
541.1130174178
 20
681.6536698282
 11
533.6119104921
 21
682.9707696535
  0
LINE
  5
8BB
100
AcDbEntity
  8
KONSTRUKTIONSELEMENTE
100
AcDbLine
 62
7
  6
CONTINUOUS
 10
534.3646757263
 20
681.7217359273
 11
539.6551804241
 21
680.775063444
  0
LINE
  5
8BC
100
AcDbEntity
  8
KONSTRUKTIONSELEMENTE
100
AcDbLine
 62
7
  6
CONTINUOUS
 10
536.8246197795
 20
664.9773108731
 11
537.9203190471
 21
664.6536030343
  0
LINE
  5
8BD
100
AcDbEntity
  8
KONSTRUKTIONSELEMENTE
100
AcDbLine
 62
7
  6
CONTINUOUS
 10
539.0074726638
 20
671.8569982049
 11
537.911772838
 21
672.1807107816
  0
LINE
  5
8BE
100
AcDbEntity
  8
KONSTRUKTIONSELEMENTE
100
AcDbLine
 62
7
  6
CONTINUOUS
 10
543.2649538695
 20
672.0151027649
 11
542.1692541564
 21
672.3388105652
  0
LINE
  5
8BF
100
AcDbEntity
  8
KONSTRUKTIONSELEMENTE
100
AcDbLine
 62
7
  6
CONTINUOUS
 10
503.6592186949
 20
694.1819974101
 11
502.5272288124
 21
694.5526070371
  0
LINE
  5
8C0
100
AcDbEntity
  8
KONSTRUKTIONSELEMENTE
100
AcDbLine
 62
7
  6
CONTINUOUS
 10
541.2582752913
 20
665.5688224921
 11
542.1419958913
 21
665.2268266864
  0
LINE
  5
8C1
100
AcDbEntity
  8
KONSTRUKTIONSELEMENTE
100
AcDbLine
 62
7
  6
CONTINUOUS
 10
493.8096717834
 20
678.4904357063
 11
493.0008995359
 21
678.8274807596
  0
LINE
  5
8C2
100
AcDbEntity
  8
KONSTRUKTIONSELEMENTE
100
AcDbLine
 62
7
  6
CONTINUOUS
 10
492.2595071552
 20
677.8210818188
 11
493.2395819551
 21
677.3578433528
  0
LINE
  5
8C3
100
AcDbEntity
  8
KONSTRUKTIONSELEMENTE
100
AcDbLine
 62
7
  6
CONTINUOUS
 10
542.2644630198
 20
666.2829266871
 11
541.5927217586
 21
666.6432009455
  0
LINE
  5
8C4
100
AcDbEntity
  8
KONSTRUKTIONSELEMENTE
100
AcDbLine
 62
7
  6
CONTINUOUS
 10
542.2587655471
 20
671.3009985187
 11
542.9305078119
 21
670.9407195608
  0
LINE
  5
8C5
100
AcDbEntity
  8
KONSTRUKTIONSELEMENTE
100
AcDbLine
 62
7
  6
CONTINUOUS
 10
520.0726778349
 20
687.1192974279
 11
521.1620568242
 21
686.5063101379
  0
LINE
  5
8C6
100
AcDbEntity
  8
KONSTRUKTIONSELEMENTE
100
AcDbLine
 62
7
  6
CONTINUOUS
 10
523.7039397473
 20
685.0760072407
 11
525.1564478368
 21
684.2586892952
  0
LINE
  5
8C7
100
AcDbEntity
  8
KONSTRUKTIONSELEMENTE
100
AcDbLine
 62
7
  6
CONTINUOUS
 10
527.69833076
 20
682.828386398
 11
528.7877097493
 21
682.2153991081
  0
LINE
  5
8C8
100
AcDbEntity
  8
KONSTRUKTIONSELEMENTE
100
AcDbLine
 62
7
  6
CONTINUOUS
 10
502.7465248657
 20
693.2277608871
 11
503.4106826461
 21
692.8536872931
  0
LINE
  5
8C9
100
AcDbEntity
  8
KONSTRUKTIONSELEMENTE
100
AcDbLine
 62
7
  6
CONTINUOUS
 10
537.8308076565
 20
665.6914150809
 11
536.9291848758
 21
666.2409704326
  0
LINE
  5
8CA
100
AcDbEntity
  8
KONSTRUKTIONSELEMENTE
100
AcDbLine
 62
7
  6
CONTINUOUS
 10
538.0012846384
 20
671.1428939843
 11
538.9029075675
 21
670.5933386453
  0
LINE
  5
8CB
100
AcDbEntity
  8
KONSTRUKTIONSELEMENTE
100
AcDbLine
 62
7
  6
CONTINUOUS
 10
490.6561097215
 20
686.7651006827
 11
495.9664676445
 21
682.8530746031
  0
LINE
  5
8CC
100
AcDbEntity
  8
KONSTRUKTIONSELEMENTE
100
AcDbLine
 62
7
  6
CONTINUOUS
 10
496.7078596716
 20
683.859473064
 11
491.3975017486
 21
687.7714991435
  0
LINE
  5
8CD
100
AcDbEntity
  8
KONSTRUKTIONSELEMENTE
100
AcDbLine
 62
7
  6
CONTINUOUS
 10
504.4215377068
 20
693.6191555431
 11
503.6592186949
 21
694.1819974101
  0
LINE
  5
8CE
100
AcDbEntity
  8
KONSTRUKTIONSELEMENTE
100
AcDbLine
 62
7
  6
CONTINUOUS
 10
536.134976002
 20
665.5451494346
 11
536.8246197795
 21
664.9773108731
  0
LINE
  5
8CF
100
AcDbEntity
  8
KONSTRUKTIONSELEMENTE
100
AcDbLine
 62
7
  6
CONTINUOUS
 10
540.568631588
 20
666.1366610601
 11
541.2582752913
 21
665.5688224921
  0
LINE
  5
8D0
100
AcDbEntity
  8
KONSTRUKTIONSELEMENTE
100
AcDbLine
 62
7
  6
CONTINUOUS
 10
543.9545975727
 20
671.4472641969
 11
543.2649538695
 21
672.0151027649
  0
LINE
  5
8D1
100
AcDbEntity
  8
KONSTRUKTIONSELEMENTE
100
AcDbLine
 62
7
  6
CONTINUOUS
 10
541.5927217586
 20
666.6432009455
 11
540.8851756133
 21
667.418603823
  0
LINE
  5
8D2
100
AcDbEntity
  8
KONSTRUKTIONSELEMENTE
100
AcDbLine
 62
7
  6
CONTINUOUS
 10
539.7150183994
 20
671.0816000781
 11
539.0074726638
 21
671.8569982049
  0
LINE
  5
8D3
100
AcDbEntity
  8
KONSTRUKTIONSELEMENTE
100
AcDbLine
 62
7
  6
CONTINUOUS
 10
542.9305078119
 20
670.9407195608
 11
543.6380535474
 21
670.165321434
  0
LINE
  5
8D4
100
AcDbEntity
  8
KONSTRUKTIONSELEMENTE
100
AcDbLine
 62
7
  6
CONTINUOUS
 10
503.4106826461
 20
692.8536872931
 11
503.9881641075
 21
692.1947282062
  0
LINE
  5
8D5
100
AcDbEntity
  8
KONSTRUKTIONSELEMENTE
100
AcDbLine
 62
7
  6
CONTINUOUS
 10
535.4095277687
 20
666.5281118662
 11
536.134976002
 21
665.5451494346
  0
LINE
  5
8D6
100
AcDbEntity
  8
KONSTRUKTIONSELEMENTE
100
AcDbLine
 62
7
  6
CONTINUOUS
 10
544.68004616
 20
670.4642970098
 11
543.9545975727
 21
671.4472641969
  0
LINE
  5
8D7
100
AcDbEntity
  8
KONSTRUKTIONSELEMENTE
100
AcDbLine
 62
7
  6
CONTINUOUS
 10
538.9029075675
 20
670.5933386453
 11
539.3984743741
 21
669.7996573151
  0
LINE
  5
8D8
100
AcDbEntity
  8
KONSTRUKTIONSELEMENTE
100
AcDbLine
 62
7
  6
CONTINUOUS
 10
539.9628022124
 20
670.6847546622
 11
539.7150183994
 21
671.0816000781
  0
LINE
  5
8D9
100
AcDbEntity
  8
KONSTRUKTIONSELEMENTE
100
AcDbLine
 62
7
  6
CONTINUOUS
 10
537.913422248
 20
675.8334404927
 11
536.8380436937
 21
677.6177738039
  0
LINE
  5
8DA
100
AcDbEntity
  8
KONSTRUKTIONSELEMENTE
100
AcDbLine
 62
7
  6
CONTINUOUS
 10
536.1928170534
 20
678.6883729738
 11
534.3646757263
 21
681.7217359273
  0
LINE
  5
8DB
100
AcDbEntity
  8
KONSTRUKTIONSELEMENTE
100
AcDbLine
 62
7
  6
CONTINUOUS
 10
653.0082440582
 20
487.8924183162
 11
652.3630174178
 21
488.9630174861
  0
LINE
  5
8DC
100
AcDbEntity
  8
KONSTRUKTIONSELEMENTE
100
AcDbLine
 62
7
  6
CONTINUOUS
 10
541.7582440582
 20
680.5830706582
 11
541.1130174178
 21
681.6536698282
  0
LINE
  5
8DD
100
AcDbEntity
  8
BEZUGSACHSEN
100
AcDbLine
 62
7
  6
CONTINUOUS
 10
668.6832775098
 20
473.6751289057
 11
647.0326424151
 21
511.1751289057
  0
LINE
  5
8DE
100
AcDbEntity
  8
BEZUGSACHSEN
100
AcDbLine
 62
7
  6
CONTINUOUS
 10
557.4332775098
 20
666.3657812477
 11
535.7826424151
 21
703.8657812477
  0
LINE
  5
8DF
100
AcDbEntity
  8
KONSTRUKTIONSELEMENTE
100
AcDbLine
 62
7
  6
CONTINUOUS
 10
647.6836176595
 20
474.3440041715
 11
647.4000297819
 21
475.1559687051
  0
LINE
  5
8E0
100
AcDbEntity
  8
KONSTRUKTIONSELEMENTE
100
AcDbLine
 62
7
  6
CONTINUOUS
 10
650.6484743741
 20
477.1090049731
 11
650.9320626614
 21
476.2970356888
  0
LINE
  5
8E1
100
AcDbEntity
  8
KONSTRUKTIONSELEMENTE
100
AcDbLine
 62
7
  6
CONTINUOUS
 10
652.1351756133
 20
474.727951481
 11
651.8515877357
 21
475.5399160146
  0
LINE
  5
8E2
100
AcDbEntity
  8
KONSTRUKTIONSELEMENTE
100
AcDbLine
 62
7
  6
CONTINUOUS
 10
654.8880535474
 20
477.4746690919
 11
655.1716418348
 21
476.6626998076
  0
LINE
  5
8E3
100
AcDbEntity
  8
KONSTRUKTIONSELEMENTE
100
AcDbLine
 62
7
  6
CONTINUOUS
 10
646.3580370208
 20
474.8569931165
 11
646.6595277687
 21
473.8374595242
  0
LINE
  5
8E4
100
AcDbEntity
  8
KONSTRUKTIONSELEMENTE
100
AcDbLine
 62
7
  6
CONTINUOUS
 10
656.2315364797
 20
476.7541158245
 11
655.93004616
 21
477.7736446677
  0
LINE
  5
8E5
100
AcDbEntity
  8
KONSTRUKTIONSELEMENTE
100
AcDbLine
 62
7
  6
CONTINUOUS
 10
650.9320626614
 20
476.2970356888
 11
651.0036720198
 21
475.466783201
  0
LINE
  5
8E6
100
AcDbEntity
  8
KONSTRUKTIONSELEMENTE
100
AcDbLine
 62
7
  6
CONTINUOUS
 10
651.8515877357
 20
475.5399160146
 11
651.7799783773
 21
476.3701685023
  0
LINE
  5
8E7
100
AcDbEntity
  8
KONSTRUKTIONSELEMENTE
100
AcDbLine
 62
7
  6
CONTINUOUS
 10
655.1716418348
 20
476.6626998076
 11
655.2432511932
 21
475.8324473199
  0
LINE
  5
8E8
100
AcDbEntity
  8
KONSTRUKTIONSELEMENTE
100
AcDbLine
 62
7
  6
CONTINUOUS
 10
656.303145838
 20
475.9238633368
 11
656.2315364797
 21
476.7541158245
  0
LINE
  5
8E9
100
AcDbEntity
  8
KONSTRUKTIONSELEMENTE
100
AcDbLine
 62
7
  6
CONTINUOUS
 10
656.1806782997
 20
474.8677680869
 11
656.303145838
 21
475.9238633368
  0
LINE
  5
8EA
100
AcDbEntity
  8
KONSTRUKTIONSELEMENTE
100
AcDbLine
 62
7
  6
CONTINUOUS
 10
655.2432511932
 20
475.8324473199
 11
655.1028812128
 21
474.9839163796
  0
LINE
  5
8EB
100
AcDbEntity
  8
KONSTRUKTIONSELEMENTE
100
AcDbLine
 62
7
  6
CONTINUOUS
 10
533.6916080691
 20
690.9304310225
 11
532.0575395851
 21
691.8499119574
  0
LINE
  5
8EC
100
AcDbEntity
  8
KONSTRUKTIONSELEMENTE
100
AcDbLine
 62
7
  6
CONTINUOUS
 10
526.6106446386
 20
694.9148484073
 11
524.9765761546
 21
695.8343293423
  0
ARC
  5
8ED
100
AcDbEntity
  8
0
100
AcDbCircle
 62
7
  6
CONTINUOUS
 10
402.8820073205
 20
1239.9451794024
 40
143.0
100
AcDbArc
 50
60.6915874508
 51
78.2431106143
  0
ARC
  5
8EE
100
AcDbEntity
  8
0
100
AcDbCircle
 62
7
  6
CONTINUOUS
 10
402.8820073205
 20
1239.9451794024
 40
143.0
100
AcDbArc
 50
101.7568893857
 51
119.3084125492
  0
ARC
  5
8EF
100
AcDbEntity
  8
RUNDUNGEN
100
AcDbCircle
 62
7
  6
CONTINUOUS
 10
284.8820073205
 20
1257.9451794024
 40
107.5
100
AcDbArc
 50
249.2772556184
 51
263.498877346
  0
ARC
  5
8F0
100
AcDbEntity
  8
RUNDUNGEN
100
AcDbCircle
 62
7
  6
CONTINUOUS
 10
284.8820073205
 20
1257.9451794024
 40
107.5
100
AcDbArc
 50
275.4887161007
 51
290.7227443816
  0
ARC
  5
8F1
100
AcDbEntity
  8
RUNDUNGEN
100
AcDbCircle
 62
7
  6
CONTINUOUS
 10
520.8820073205
 20
1257.9451794024
 40
107.5
100
AcDbArc
 50
249.2772556184
 51
264.5112838993
  0
ARC
  5
8F2
100
AcDbEntity
  8
RUNDUNGEN
100
AcDbCircle
 62
7
  6
CONTINUOUS
 10
520.8820073205
 20
1257.9451794024
 40
107.5
100
AcDbArc
 50
276.575833862
 51
290.7227443816
  0
ARC
  5
8F3
100
AcDbEntity
  8
RUNDUNGEN
100
AcDbCircle
 62
7
  6
CONTINUOUS
 10
555.3820073205
 20
1166.753074481
 40
10.0
100
AcDbArc
 50
290.7227443816
 51
360.0
  0
ARC
  5
8F4
100
AcDbEntity
  8
RUNDUNGEN
100
AcDbCircle
 62
7
  6
CONTINUOUS
 10
486.3820073205
 20
1166.753074481
 40
10.0
100
AcDbArc
 50
180.0
 51
249.2772556184
  0
ARC
  5
8F5
100
AcDbEntity
  8
RUNDUNGEN
100
AcDbCircle
 62
7
  6
CONTINUOUS
 10
319.3820073205
 20
1166.753074481
 40
10.0
100
AcDbArc
 50
290.7227443816
 51
360.0
  0
ARC
  5
8F6
100
AcDbEntity
  8
RUNDUNGEN
100
AcDbCircle
 62
7
  6
CONTINUOUS
 10
250.3820073205
 20
1166.753074481
 40
10.0
100
AcDbArc
 50
180.0
 51
249.2772556184
  0
ARC
  5
8F7
100
AcDbEntity
  8
0
100
AcDbCircle
 62
7
  6
CONTINUOUS
 10
1228.1266397128
 20
1239.9451794024
 40
143.0
100
AcDbArc
 50
108.133177005
 51
180.0
  0
ARC
  5
8F8
100
AcDbEntity
  8
0
100
AcDbCircle
 62
7
  6
CONTINUOUS
 10
1228.1266397128
 20
1239.9451794024
 40
143.0
100
AcDbArc
 50
0.0
 51
71.866822995
  0
ARC
  5
8F9
100
AcDbEntity
  8
0
100
AcDbCircle
 62
7
  6
CONTINUOUS
 10
1228.1266397128
 20
1239.9451794024
 40
124.6956294342
100
AcDbArc
 50
0.0
 51
67.8609125064
  0
ARC
  5
8FA
100
AcDbEntity
  8
0
100
AcDbCircle
 62
7
  6
CONTINUOUS
 10
1228.1266397128
 20
1239.9451794024
 40
124.6956294342
100
AcDbArc
 50
112.1390874937
 51
180.0
  0
ARC
  5
8FB
100
AcDbEntity
  8
BEZUGSACHSEN
100
AcDbCircle
 62
7
  6
CONTINUOUS
 10
1228.1266397128
 20
1257.9451794024
 40
107.5
100
AcDbArc
 50
117.6345101042
 51
263.413086774
  0
ARC
  5
8FC
100
AcDbEntity
  8
BEZUGSACHSEN
100
AcDbCircle
 62
7
  6
CONTINUOUS
 10
1228.1266397128
 20
1257.9451794024
 40
107.5
100
AcDbArc
 50
275.4898638374
 51
62.3654898958
  0
CIRCLE
  5
8FD
100
AcDbEntity
  8
0
100
AcDbCircle
 62
7
  6
CONTINUOUS
 10
1228.1266397128
 20
1257.9451794024
 40
54.5
  0
ARC
  5
8FE
100
AcDbEntity
  8
BEZUGSACHSEN
100
AcDbCircle
 62
7
  6
CONTINUOUS
 10
1402.0713167322
 20
1101.9699374714
 40
48.9752420964
100
AcDbArc
 50
90.0047084368
 51
93.1091486546
  0
ARC
  5
8FF
100
AcDbEntity
  8
BEZUGSACHSEN
100
AcDbCircle
 62
7
  6
CONTINUOUS
 10
1016.6900120481
 20
1101.9699374714
 40
48.9752420964
100
AcDbArc
 50
90.0047084368
 51
93.1091486546
  0
ARC
  5
900
100
AcDbEntity
  8
BEZUGSACHSEN
100
AcDbCircle
 62
7
  6
CONTINUOUS
 10
1209.3806643901
 20
1101.9699374714
 40
48.9752420964
100
AcDbArc
 50
90.0047084368
 51
93.1091486546
  0
ARC
  5
901
100
AcDbEntity
  8
0
100
AcDbCircle
 62
7
  6
CONTINUOUS
 10
1228.1308398838
 20
1733.9456203274
 40
47.5042162617
100
AcDbArc
 50
186.9232086813
 51
188.8265359611
  0
ARC
  5
902
100
AcDbEntity
  8
0
100
AcDbCircle
 62
7
  6
CONTINUOUS
 10
1228.1227653199
 20
1733.9455746287
 40
47.5038873298
100
AcDbArc
 50
351.1733317367
 51
353.0425217482
  0
ARC
  5
903
100
AcDbEntity
  8
0
100
AcDbCircle
 62
7
  6
CONTINUOUS
 10
1228.1266330508
 20
1733.9451792196
 40
47.5000001828
100
AcDbArc
 50
353.0424300613
 51
186.9232900967
  0
ARC
  5
904
100
AcDbEntity
  8
RUNDUNGEN
100
AcDbCircle
 62
7
  6
CONTINUOUS
 10
1282.6266320375
 20
1362.0412907414
 40
9.9999992565
100
AcDbArc
 50
180.0
 51
242.3654863949
  0
ARC
  5
905
100
AcDbEntity
  8
RUNDUNGEN
100
AcDbCircle
 62
7
  6
CONTINUOUS
 10
1173.6266473882
 20
1362.0412907414
 40
9.9999992565
100
AcDbArc
 50
297.6345136051
 51
360.0
  0
CIRCLE
  5
906
100
AcDbEntity
  8
BEZUGSACHSEN
100
AcDbCircle
 62
7
  6
CONTINUOUS
 10
291.6320073205
 20
280.9844765636
 40
55.0
  0
CIRCLE
  5
907
100
AcDbEntity
  8
BEZUGSACHSEN
100
AcDbCircle
 62
7
  6
CONTINUOUS
 10
291.6320073205
 20
280.9844765636
 40
37.5
  0
ARC
  5
908
100
AcDbEntity
  8
RUNDUNGEN
100
AcDbCircle
 62
7
  6
CONTINUOUS
 10
319.3820073205
 20
382.4830239842
 40
10.0
100
AcDbArc
 50
290.7227443816
 51
360.0
  0
ARC
  5
909
100
AcDbEntity
  8
RUNDUNGEN
100
AcDbCircle
 62
7
  6
CONTINUOUS
 10
250.3820073205
 20
382.4830239842
 40
10.0
100
AcDbArc
 50
180.0
 51
249.2772556184
  0
ARC
  5
90A
100
AcDbEntity
  8
BEZUGSACHSEN
100
AcDbCircle
 62
7
  6
CONTINUOUS
 10
284.8820073205
 20
473.6751289057
 40
107.5
100
AcDbArc
 50
69.2752800195
 51
110.7297442833
  0
ARC
  5
90B
100
AcDbEntity
  8
BEZUGSACHSEN
100
AcDbCircle
 62
7
  6
CONTINUOUS
 10
284.8820073205
 20
473.6751289057
 40
107.5
100
AcDbArc
 50
249.2752800195
 51
290.7297442833
  0
CIRCLE
  5
90C
100
AcDbEntity
  8
BEZUGSACHSEN
100
AcDbCircle
 62
7
  6
CONTINUOUS
 10
291.6320073205
 20
666.3657812477
 40
55.0
  0
ARC
  5
90D
100
AcDbEntity
  8
BEZUGSACHSEN
100
AcDbCircle
 62
7
  6
CONTINUOUS
 10
180.3820073205
 20
473.6751289057
 40
55.0
100
AcDbArc
 50
46.7223909067
 51
313.2790294482
  0
CIRCLE
  5
90E
100
AcDbEntity
  8
BEZUGSACHSEN
100
AcDbCircle
 62
7
  6
CONTINUOUS
 10
291.6320073205
 20
666.3657812477
 40
37.5
  0
ARC
  5
90F
100
AcDbEntity
  8
BEZUGSACHSEN
100
AcDbCircle
 62
7
  6
CONTINUOUS
 10
180.3820073205
 20
473.6751289057
 40
37.5
100
AcDbArc
 50
50.4836370804
 51
309.5166501105
  0
ARC
  5
910
100
AcDbEntity
  8
RUNDUNGEN
100
AcDbCircle
 62
7
  6
CONTINUOUS
 10
319.3820073205
 20
564.8672338271
 40
10.0
100
AcDbArc
 50
0.0
 51
69.2772556184
  0
ARC
  5
911
100
AcDbEntity
  8
RUNDUNGEN
100
AcDbCircle
 62
7
  6
CONTINUOUS
 10
250.3820073205
 20
564.8672338271
 40
10.0
100
AcDbArc
 50
110.7227443816
 51
180.0
  0
CIRCLE
  5
912
100
AcDbEntity
  8
BEZUGSACHSEN
100
AcDbCircle
 62
7
  6
CONTINUOUS
 10
514.1320073205
 20
280.9844765636
 40
55.0
  0
CIRCLE
  5
913
100
AcDbEntity
  8
BEZUGSACHSEN
100
AcDbCircle
 62
7
  6
CONTINUOUS
 10
514.1320073205
 20
280.9844765636
 40
37.5
  0
ARC
  5
914
100
AcDbEntity
  8
RUNDUNGEN
100
AcDbCircle
 62
7
  6
CONTINUOUS
 10
555.3820073205
 20
382.4830239842
 40
10.0
100
AcDbArc
 50
290.7227443816
 51
360.0
  0
ARC
  5
915
100
AcDbEntity
  8
RUNDUNGEN
100
AcDbCircle
 62
7
  6
CONTINUOUS
 10
486.3820073205
 20
382.4830239842
 40
10.0
100
AcDbArc
 50
180.0
 51
249.2772556184
  0
CIRCLE
  5
916
100
AcDbEntity
  8
0
100
AcDbCircle
 62
7
  6
CONTINUOUS
 10
402.8820073205
 20
473.6751289057
 40
285.5
  0
ARC
  5
917
100
AcDbEntity
  8
0
100
AcDbCircle
 62
7
  6
CONTINUOUS
 10
402.8820073205
 20
473.6751289057
 40
143.5
100
AcDbArc
 50
227.3111726727
 51
312.6888273273
  0
ARC
  5
918
100
AcDbEntity
  8
0
100
AcDbCircle
 62
7
  6
CONTINUOUS
 10
402.8820073205
 20
473.6751289057
 40
143.5
100
AcDbArc
 50
47.3111726727
 51
132.6888273273
  0
ARC
  5
919
100
AcDbEntity
  8
0
100
AcDbCircle
 62
7
  6
CONTINUOUS
 10
402.8820073205
 20
473.6751289057
 40
143.0
100
AcDbArc
 50
227.4593895535
 51
312.5406104465
  0
ARC
  5
91A
100
AcDbEntity
  8
0
100
AcDbCircle
 62
7
  6
CONTINUOUS
 10
402.8820073205
 20
473.6751289057
 40
143.0
100
AcDbArc
 50
47.4593895535
 51
132.5406104465
  0
ARC
  5
91B
100
AcDbEntity
  8
BEZUGSACHSEN
100
AcDbCircle
 62
7
  6
CONTINUOUS
 10
520.8820073205
 20
473.6751289057
 40
107.5
100
AcDbArc
 50
69.275415516
 51
110.729765627
  0
ARC
  5
91C
100
AcDbEntity
  8
BEZUGSACHSEN
100
AcDbCircle
 62
7
  6
CONTINUOUS
 10
520.8820073205
 20
473.6751289057
 40
107.5
100
AcDbArc
 50
249.2754155154
 51
290.7297656288
  0
ARC
  5
91D
100
AcDbEntity
  8
BEZUGSACHSEN
100
AcDbCircle
 62
7
  6
CONTINUOUS
 10
625.3820073205
 20
473.6751289057
 40
55.0
100
AcDbArc
 50
248.6737991228
 51
111.3262008772
  0
CIRCLE
  5
91E
100
AcDbEntity
  8
BEZUGSACHSEN
100
AcDbCircle
 62
7
  6
CONTINUOUS
 10
514.1320073205
 20
666.3657812477
 40
55.0
  0
ARC
  5
91F
100
AcDbEntity
  8
BEZUGSACHSEN
100
AcDbCircle
 62
7
  6
CONTINUOUS
 10
625.3820073205
 20
473.6751289057
 40
37.5
100
AcDbArc
 50
293.5815524195
 51
66.4184475745
  0
CIRCLE
  5
920
100
AcDbEntity
  8
BEZUGSACHSEN
100
AcDbCircle
 62
7
  6
CONTINUOUS
 10
514.1320073205
 20
666.3657812477
 40
37.5
  0
ARC
  5
921
100
AcDbEntity
  8
RUNDUNGEN
100
AcDbCircle
 62
7
  6
CONTINUOUS
 10
555.3820073205
 20
564.8672338271
 40
10.0
100
AcDbArc
 50
0.0
 51
69.2772556184
  0
ARC
  5
922
100
AcDbEntity
  8
RUNDUNGEN
100
AcDbCircle
 62
7
  6
CONTINUOUS
 10
486.3820073205
 20
564.8672338271
 40
10.0
100
AcDbArc
 50
110.7227443816
 51
180.0
  0
SPLINE
  5
923
100
AcDbEntity
  8
BEZUGSACHSEN
100
AcDbSpline
 62
7
  6
CONTINUOUS
 70
0
 71
3
 72
10
 73
6
 74
0
 42
0.0000001
 43
0.0000001
 44
0.0000000001
 40
0.0
 40
0.0
 40
0.0
 40
0.0
 40
0.4999046085
 40
0.749955089
 40
1.0
 40
1.0
 40
1.0
 40
1.0
 10
603.7313722259
 20
1147.5958144971
 30
0.0
 10
607.2491430365
 20
1148.6113074593
 30
0.0
 10
612.6120642228
 20
1149.8808425173
 30
0.0
 10
619.885874049
 20
1150.7888829505
 30
0.0
 10
623.5506231778
 20
1150.9451794054
 30
0.0
 10
625.3820074227
 20
1150.9451794054
 30
0.0
  0
SPLINE
  5
924
100
AcDbEntity
  8
BEZUGSACHSEN
100
AcDbSpline
 62
7
  6
CONTINUOUS
 70
0
 71
3
 72
10
 73
6
 74
0
 42
0.0000001
 43
0.0000001
 44
0.0000000001
 40
0.0
 40
0.0
 40
0.0
 40
0.0
 40
0.2500450529
 40
0.500095578
 40
1.0
 40
1.0
 40
1.0
 40
1.0
 10
625.3820074227
 20
1150.9451794054
 30
0.0
 10
627.2133926896
 20
1150.9451794054
 30
0.0
 10
630.8781431335
 20
1150.7888824908
 30
0.0
 10
638.1519528962
 20
1149.8808421866
 30
0.0
 10
643.5148729499
 20
1148.6113070709
 30
0.0
 10
647.0326424151
 20
1147.5958144971
 30
0.0
  0
SPLINE
  5
925
100
AcDbEntity
  8
BEZUGSACHSEN
100
AcDbSpline
 62
7
  6
CONTINUOUS
 70
0
 71
3
 72
11
 73
7
 74
0
 42
0.0000001
 43
0.0000001
 44
0.0000000001
 40
0.0
 40
0.0
 40
0.0
 40
0.0
 40
0.2616462713
 40
0.5145010125
 40
0.7595982368
 40
1.0
 40
1.0
 40
1.0
 40
1.0
 10
647.0326424151
 20
1147.5958144971
 30
0.0
 10
647.8980141152
 20
1148.095437081
 30
0.0
 10
649.6389600938
 20
1149.0129627966
 30
0.0
 10
652.3383780833
 20
1150.0937035316
 30
0.0
 10
655.0822572819
 20
1150.7851076148
 30
0.0
 10
656.9398490342
 20
1150.9451794023
 30
0.0
 10
657.8579599594
 20
1150.9451794025
 30
0.0
  0
SPLINE
  5
926
100
AcDbEntity
  8
BEZUGSACHSEN
100
AcDbSpline
 62
7
  6
CONTINUOUS
 70
0
 71
3
 72
11
 73
7
 74
0
 42
0.0000001
 43
0.0000001
 44
0.0000000001
 40
0.0
 40
0.0
 40
0.0
 40
0.0
 40
0.2404017719
 40
0.4854989971
 40
0.7383537318
 40
1.0
 40
1.0
 40
1.0
 40
1.0
 10
657.8579599594
 20
1150.9451794025
 30
0.0
 10
658.7760709182
 20
1150.9451794026
 30
0.0
 10
660.6336627065
 20
1150.7851075908
 30
0.0
 10
663.3775419186
 20
1150.0937035118
 30
0.0
 10
666.0769598731
 20
1149.0129627736
 30
0.0
 10
667.8179058196
 20
1148.0954370753
 30
0.0
 10
668.6832775098
 20
1147.5958144971
 30
0.0
  0
SPLINE
  5
927
100
AcDbEntity
  8
BEZUGSACHSEN
100
AcDbSpline
 62
7
  6
CONTINUOUS
 70
0
 71
3
 72
11
 73
7
 74
0
 42
0.0000001
 43
0.0000001
 44
0.0000000001
 40
0.0
 40
0.0
 40
0.0
 40
0.0
 40
0.2616462713
 40
0.5145010125
 40
0.7595982368
 40
1.0
 40
1.0
 40
1.0
 40
1.0
 10
582.0807371313
 20
1147.5958144971
 30
0.0
 10
582.9461088316
 20
1148.0954370812
 30
0.0
 10
584.6870548106
 20
1149.0129627969
 30
0.0
 10
587.3864728009
 20
1150.0937035321
 30
0.0
 10
590.1303520003
 20
1150.7851076152
 30
0.0
 10
591.9879437531
 20
1150.9451794024
 30
0.0
 10
592.9060546785
 20
1150.9451794025
 30
0.0
  0
SPLINE
  5
928
100
AcDbEntity
  8
BEZUGSACHSEN
100
AcDbSpline
 62
7
  6
CONTINUOUS
 70
0
 71
3
 72
11
 73
7
 74
0
 42
0.0000001
 43
0.0000001
 44
0.0000000001
 40
0.0
 40
0.0
 40
0.0
 40
0.0
 40
0.2404017719
 40
0.4854989971
 40
0.7383537318
 40
1.0
 40
1.0
 40
1.0
 40
1.0
 10
592.9060546785
 20
1150.9451794025
 30
0.0
 10
593.8241656371
 20
1150.9451794025
 30
0.0
 10
595.6817574249
 20
1150.7851075904
 30
0.0
 10
598.4256366362
 20
1150.0937035113
 30
0.0
 10
601.12505459
 20
1149.0129627732
 30
0.0
 10
602.866000536
 20
1148.0954370752
 30
0.0
 10
603.7313722259
 20
1147.5958144971
 30
0.0
  0
SPLINE
  5
929
100
AcDbEntity
  8
BEZUGSACHSEN
100
AcDbSpline
 62
7
  6
CONTINUOUS
 70
0
 71
3
 72
10
 73
6
 74
0
 42
0.0000001
 43
0.0000001
 44
0.0000000001
 40
0.0
 40
0.0
 40
0.0
 40
0.0
 40
0.4999046085
 40
0.749955089
 40
1.0
 40
1.0
 40
1.0
 40
1.0
 10
158.7313722259
 20
1147.5958144971
 30
0.0
 10
162.2491430365
 20
1148.6113074593
 30
0.0
 10
167.6120642228
 20
1149.8808425173
 30
0.0
 10
174.885874049
 20
1150.7888829505
 30
0.0
 10
178.5506231778
 20
1150.9451794054
 30
0.0
 10
180.3820074227
 20
1150.9451794054
 30
0.0
  0
SPLINE
  5
92A
100
AcDbEntity
  8
BEZUGSACHSEN
100
AcDbSpline
 62
7
  6
CONTINUOUS
 70
0
 71
3
 72
10
 73
6
 74
0
 42
0.0000001
 43
0.0000001
 44
0.0000000001
 40
0.0
 40
0.0
 40
0.0
 40
0.0
 40
0.2500450529
 40
0.500095578
 40
1.0
 40
1.0
 40
1.0
 40
1.0
 10
180.3820074227
 20
1150.9451794054
 30
0.0
 10
182.2133926896
 20
1150.9451794054
 30
0.0
 10
185.8781431335
 20
1150.7888824908
 30
0.0
 10
193.1519528962
 20
1149.8808421866
 30
0.0
 10
198.5148729499
 20
1148.6113070709
 30
0.0
 10
202.0326424151
 20
1147.5958144971
 30
0.0
  0
SPLINE
  5
92B
100
AcDbEntity
  8
BEZUGSACHSEN
100
AcDbSpline
 62
7
  6
CONTINUOUS
 70
0
 71
3
 72
11
 73
7
 74
0
 42
0.0000001
 43
0.0000001
 44
0.0000000001
 40
0.0
 40
0.0
 40
0.0
 40
0.0
 40
0.2616462713
 40
0.5145010125
 40
0.7595982368
 40
1.0
 40
1.0
 40
1.0
 40
1.0
 10
202.0326424151
 20
1147.5958144971
 30
0.0
 10
202.8980141152
 20
1148.095437081
 30
0.0
 10
204.6389600938
 20
1149.0129627966
 30
0.0
 10
207.3383780833
 20
1150.0937035316
 30
0.0
 10
210.0822572819
 20
1150.7851076148
 30
0.0
 10
211.9398490342
 20
1150.9451794023
 30
0.0
 10
212.8579599594
 20
1150.9451794025
 30
0.0
  0
SPLINE
  5
92C
100
AcDbEntity
  8
BEZUGSACHSEN
100
AcDbSpline
 62
7
  6
CONTINUOUS
 70
0
 71
3
 72
11
 73
7
 74
0
 42
0.0000001
 43
0.0000001
 44
0.0000000001
 40
0.0
 40
0.0
 40
0.0
 40
0.0
 40
0.2404017719
 40
0.4854989971
 40
0.7383537318
 40
1.0
 40
1.0
 40
1.0
 40
1.0
 10
212.8579599594
 20
1150.9451794025
 30
0.0
 10
213.7760709182
 20
1150.9451794026
 30
0.0
 10
215.6336627065
 20
1150.7851075908
 30
0.0
 10
218.3775419186
 20
1150.0937035118
 30
0.0
 10
221.0769598731
 20
1149.0129627736
 30
0.0
 10
222.8179058196
 20
1148.0954370753
 30
0.0
 10
223.6832775098
 20
1147.5958144971
 30
0.0
  0
SPLINE
  5
92D
100
AcDbEntity
  8
BEZUGSACHSEN
100
AcDbSpline
 62
7
  6
CONTINUOUS
 70
0
 71
3
 72
11
 73
7
 74
0
 42
0.0000001
 43
0.0000001
 44
0.0000000001
 40
0.0
 40
0.0
 40
0.0
 40
0.0
 40
0.2616462713
 40
0.5145010125
 40
0.7595982368
 40
1.0
 40
1.0
 40
1.0
 40
1.0
 10
137.0807371313
 20
1147.5958144971
 30
0.0
 10
137.9461088316
 20
1148.0954370812
 30
0.0
 10
139.6870548106
 20
1149.0129627969
 30
0.0
 10
142.3864728009
 20
1150.0937035321
 30
0.0
 10
145.1303520003
 20
1150.7851076152
 30
0.0
 10
146.9879437531
 20
1150.9451794024
 30
0.0
 10
147.9060546785
 20
1150.9451794025
 30
0.0
  0
SPLINE
  5
92E
100
AcDbEntity
  8
BEZUGSACHSEN
100
AcDbSpline
 62
7
  6
CONTINUOUS
 70
0
 71
3
 72
11
 73
7
 74
0
 42
0.0000001
 43
0.0000001
 44
0.0000000001
 40
0.0
 40
0.0
 40
0.0
 40
0.0
 40
0.2404017719
 40
0.4854989971
 40
0.7383537318
 40
1.0
 40
1.0
 40
1.0
 40
1.0
 10
147.9060546785
 20
1150.9451794025
 30
0.0
 10
148.8241656371
 20
1150.9451794025
 30
0.0
 10
150.6817574249
 20
1150.7851075904
 30
0.0
 10
153.4256366362
 20
1150.0937035113
 30
0.0
 10
156.12505459
 20
1149.0129627732
 30
0.0
 10
157.866000536
 20
1148.0954370752
 30
0.0
 10
158.7313722259
 20
1147.5958144971
 30
0.0
  0
SPLINE
  5
92F
100
AcDbEntity
  8
BEZUGSACHSEN
100
AcDbSpline
 62
7
  6
CONTINUOUS
 70
0
 71
3
 72
11
 73
7
 74
0
 42
0.0000001
 43
0.0000001
 44
0.0000000001
 40
0.0
 40
0.0
 40
0.0
 40
0.0
 40
0.2404017719
 40
0.4854989971
 40
0.7383537318
 40
1.0
 40
1.0
 40
1.0
 40
1.0
 10
259.1560546785
 20
1150.9451794025
 30
0.0
 10
260.0741656371
 20
1150.9451794025
 30
0.0
 10
261.9317574249
 20
1150.7851075904
 30
0.0
 10
264.6756366362
 20
1150.0937035113
 30
0.0
 10
267.37505459
 20
1149.0129627732
 30
0.0
 10
269.116000536
 20
1148.0954370752
 30
0.0
 10
269.9813722259
 20
1147.5958144971
 30
0.0
  0
SPLINE
  5
930
100
AcDbEntity
  8
BEZUGSACHSEN
100
AcDbSpline
 62
7
  6
CONTINUOUS
 70
0
 71
3
 72
11
 73
7
 74
0
 42
0.0000001
 43
0.0000001
 44
0.0000000001
 40
0.0
 40
0.0
 40
0.0
 40
0.0
 40
0.2616462713
 40
0.5145010125
 40
0.7595982368
 40
1.0
 40
1.0
 40
1.0
 40
1.0
 10
248.3307371313
 20
1147.5958144971
 30
0.0
 10
249.1961088316
 20
1148.0954370812
 30
0.0
 10
250.9370548106
 20
1149.0129627969
 30
0.0
 10
253.6364728009
 20
1150.0937035321
 30
0.0
 10
256.3803520003
 20
1150.7851076152
 30
0.0
 10
258.2379437531
 20
1150.9451794024
 30
0.0
 10
259.1560546785
 20
1150.9451794025
 30
0.0
  0
SPLINE
  5
931
100
AcDbEntity
  8
BEZUGSACHSEN
100
AcDbSpline
 62
7
  6
CONTINUOUS
 70
0
 71
3
 72
10
 73
6
 74
0
 42
0.0000001
 43
0.0000001
 44
0.0000000001
 40
0.0
 40
0.0
 40
0.0
 40
0.0
 40
0.4999046085
 40
0.749955089
 40
1.0
 40
1.0
 40
1.0
 40
1.0
 10
269.9813722259
 20
1147.5958144971
 30
0.0
 10
273.4991430365
 20
1148.6113074593
 30
0.0
 10
278.8620642228
 20
1149.8808425173
 30
0.0
 10
286.135874049
 20
1150.7888829505
 30
0.0
 10
289.8006231778
 20
1150.9451794054
 30
0.0
 10
291.6320074227
 20
1150.9451794054
 30
0.0
  0
SPLINE
  5
932
100
AcDbEntity
  8
BEZUGSACHSEN
100
AcDbSpline
 62
7
  6
CONTINUOUS
 70
0
 71
3
 72
10
 73
6
 74
0
 42
0.0000001
 43
0.0000001
 44
0.0000000001
 40
0.0
 40
0.0
 40
0.0
 40
0.0
 40
0.2500450529
 40
0.500095578
 40
1.0
 40
1.0
 40
1.0
 40
1.0
 10
291.6320074227
 20
1150.9451794054
 30
0.0
 10
293.4633926896
 20
1150.9451794054
 30
0.0
 10
297.1281431335
 20
1150.7888824908
 30
0.0
 10
304.4019528962
 20
1149.8808421866
 30
0.0
 10
309.7648729499
 20
1148.6113070709
 30
0.0
 10
313.2826424151
 20
1147.5958144971
 30
0.0
  0
SPLINE
  5
933
100
AcDbEntity
  8
BEZUGSACHSEN
100
AcDbSpline
 62
7
  6
CONTINUOUS
 70
0
 71
3
 72
11
 73
7
 74
0
 42
0.0000001
 43
0.0000001
 44
0.0000000001
 40
0.0
 40
0.0
 40
0.0
 40
0.0
 40
0.2616462713
 40
0.5145010125
 40
0.7595982368
 40
1.0
 40
1.0
 40
1.0
 40
1.0
 10
313.2826424151
 20
1147.5958144971
 30
0.0
 10
314.1480141152
 20
1148.095437081
 30
0.0
 10
315.8889600938
 20
1149.0129627966
 30
0.0
 10
318.5883780833
 20
1150.0937035316
 30
0.0
 10
321.3322572819
 20
1150.7851076148
 30
0.0
 10
323.1898490342
 20
1150.9451794023
 30
0.0
 10
324.1079599594
 20
1150.9451794025
 30
0.0
  0
SPLINE
  5
934
100
AcDbEntity
  8
BEZUGSACHSEN
100
AcDbSpline
 62
7
  6
CONTINUOUS
 70
0
 71
3
 72
11
 73
7
 74
0
 42
0.0000001
 43
0.0000001
 44
0.0000000001
 40
0.0
 40
0.0
 40
0.0
 40
0.0
 40
0.2404017719
 40
0.4854989971
 40
0.7383537318
 40
1.0
 40
1.0
 40
1.0
 40
1.0
 10
324.1079599594
 20
1150.9451794025
 30
0.0
 10
325.0260709182
 20
1150.9451794026
 30
0.0
 10
326.8836627065
 20
1150.7851075908
 30
0.0
 10
329.6275419186
 20
1150.0937035118
 30
0.0
 10
332.3269598731
 20
1149.0129627736
 30
0.0
 10
334.0679058196
 20
1148.0954370753
 30
0.0
 10
334.9332775098
 20
1147.5958144971
 30
0.0
  0
SPLINE
  5
935
100
AcDbEntity
  8
BEZUGSACHSEN
100
AcDbSpline
 62
7
  6
CONTINUOUS
 70
0
 71
3
 72
11
 73
7
 74
0
 42
0.0000001
 43
0.0000001
 44
0.0000000001
 40
0.0
 40
0.0
 40
0.0
 40
0.0
 40
0.2404017719
 40
0.4854989971
 40
0.7383537318
 40
1.0
 40
1.0
 40
1.0
 40
1.0
 10
481.6560546785
 20
1150.9451794025
 30
0.0
 10
482.5741656371
 20
1150.9451794025
 30
0.0
 10
484.4317574249
 20
1150.7851075904
 30
0.0
 10
487.1756366362
 20
1150.0937035113
 30
0.0
 10
489.87505459
 20
1149.0129627732
 30
0.0
 10
491.616000536
 20
1148.0954370752
 30
0.0
 10
492.4813722259
 20
1147.5958144971
 30
0.0
  0
SPLINE
  5
936
100
AcDbEntity
  8
BEZUGSACHSEN
100
AcDbSpline
 62
7
  6
CONTINUOUS
 70
0
 71
3
 72
11
 73
7
 74
0
 42
0.0000001
 43
0.0000001
 44
0.0000000001
 40
0.0
 40
0.0
 40
0.0
 40
0.0
 40
0.2616462713
 40
0.5145010125
 40
0.7595982368
 40
1.0
 40
1.0
 40
1.0
 40
1.0
 10
470.8307371313
 20
1147.5958144971
 30
0.0
 10
471.6961088316
 20
1148.0954370812
 30
0.0
 10
473.4370548106
 20
1149.0129627969
 30
0.0
 10
476.1364728009
 20
1150.0937035321
 30
0.0
 10
478.8803520003
 20
1150.7851076152
 30
0.0
 10
480.7379437531
 20
1150.9451794024
 30
0.0
 10
481.6560546785
 20
1150.9451794025
 30
0.0
  0
SPLINE
  5
937
100
AcDbEntity
  8
BEZUGSACHSEN
100
AcDbSpline
 62
7
  6
CONTINUOUS
 70
0
 71
3
 72
10
 73
6
 74
0
 42
0.0000001
 43
0.0000001
 44
0.0000000001
 40
0.0
 40
0.0
 40
0.0
 40
0.0
 40
0.4999046085
 40
0.749955089
 40
1.0
 40
1.0
 40
1.0
 40
1.0
 10
492.4813722259
 20
1147.5958144971
 30
0.0
 10
495.9991430365
 20
1148.6113074593
 30
0.0
 10
501.3620642228
 20
1149.8808425173
 30
0.0
 10
508.635874049
 20
1150.7888829505
 30
0.0
 10
512.3006231778
 20
1150.9451794054
 30
0.0
 10
514.1320074227
 20
1150.9451794054
 30
0.0
  0
SPLINE
  5
938
100
AcDbEntity
  8
BEZUGSACHSEN
100
AcDbSpline
 62
7
  6
CONTINUOUS
 70
0
 71
3
 72
10
 73
6
 74
0
 42
0.0000001
 43
0.0000001
 44
0.0000000001
 40
0.0
 40
0.0
 40
0.0
 40
0.0
 40
0.2500450529
 40
0.500095578
 40
1.0
 40
1.0
 40
1.0
 40
1.0
 10
514.1320074227
 20
1150.9451794054
 30
0.0
 10
515.9633926896
 20
1150.9451794054
 30
0.0
 10
519.6281431335
 20
1150.7888824908
 30
0.0
 10
526.9019528962
 20
1149.8808421866
 30
0.0
 10
532.2648729499
 20
1148.6113070709
 30
0.0
 10
535.7826424151
 20
1147.5958144971
 30
0.0
  0
SPLINE
  5
939
100
AcDbEntity
  8
BEZUGSACHSEN
100
AcDbSpline
 62
7
  6
CONTINUOUS
 70
0
 71
3
 72
11
 73
7
 74
0
 42
0.0000001
 43
0.0000001
 44
0.0000000001
 40
0.0
 40
0.0
 40
0.0
 40
0.0
 40
0.2616462713
 40
0.5145010125
 40
0.7595982368
 40
1.0
 40
1.0
 40
1.0
 40
1.0
 10
535.7826424151
 20
1147.5958144971
 30
0.0
 10
536.6480141152
 20
1148.095437081
 30
0.0
 10
538.3889600938
 20
1149.0129627966
 30
0.0
 10
541.0883780833
 20
1150.0937035316
 30
0.0
 10
543.8322572819
 20
1150.7851076148
 30
0.0
 10
545.6898490342
 20
1150.9451794023
 30
0.0
 10
546.6079599594
 20
1150.9451794025
 30
0.0
  0
SPLINE
  5
93A
100
AcDbEntity
  8
BEZUGSACHSEN
100
AcDbSpline
 62
7
  6
CONTINUOUS
 70
0
 71
3
 72
11
 73
7
 74
0
 42
0.0000001
 43
0.0000001
 44
0.0000000001
 40
0.0
 40
0.0
 40
0.0
 40
0.0
 40
0.2404017719
 40
0.4854989971
 40
0.7383537318
 40
1.0
 40
1.0
 40
1.0
 40
1.0
 10
546.6079599594
 20
1150.9451794025
 30
0.0
 10
547.5260709182
 20
1150.9451794026
 30
0.0
 10
549.3836627065
 20
1150.7851075908
 30
0.0
 10
552.1275419186
 20
1150.0937035118
 30
0.0
 10
554.8269598731
 20
1149.0129627736
 30
0.0
 10
556.5679058196
 20
1148.0954370753
 30
0.0
 10
557.4332775098
 20
1147.5958144971
 30
0.0
  0
SPLINE
  5
93B
100
AcDbEntity
  8
0
100
AcDbSpline
 62
7
  6
CONTINUOUS
 70
0
 71
3
 72
23
 73
19
 74
0
 42
0.0000001
 43
0.0000001
 44
0.0000000001
 40
0.0
 40
0.0
 40
0.0
 40
0.0
 40
0.0624989284
 40
0.1249980596
 40
0.1874973356
 40
0.2499967919
 40
0.3124964196
 40
0.3749961914
 40
0.43749612
 40
0.4999961593
 40
0.5624963372
 40
0.6249966085
 40
0.6874969884
 40
0.7499974529
 40
0.8124979957
 40
0.8749986094
 40
0.9374992717
 40
1.0
 40
1.0
 40
1.0
 40
1.0
 10
402.8820073205
 20
1686.4451794024
 30
0.0
 10
397.8883220355
 20
1686.54349067
 30
0.0
 10
387.8761125742
 20
1686.0910885394
 30
0.0
 10
373.0808496864
 20
1683.4807518853
 30
0.0
 10
358.7423799103
 20
1678.9869931737
 30
0.0
 10
345.1008784463
 20
1672.6884896291
 30
0.0
 10
332.3793899229
 20
1664.6930769874
 30
0.0
 10
320.7857140902
 20
1655.1356279323
 30
0.0
 10
310.5078417182
 20
1644.1756786553
 30
0.0
 10
301.7115293917
 20
1631.9946690409
 30
0.0
 10
294.5377715385
 20
1618.7929073358
 30
0.0
 10
289.1007967332
 20
1604.7862584831
 30
0.0
 10
285.4864469989
 20
1590.2026780573
 30
0.0
 10
283.7510570621
 20
1575.2784710795
 30
0.0
 10
283.9205838794
 20
1560.2548816225
 30
0.0
 10
285.9909520363
 20
1545.3730859914
 30
0.0
 10
289.9260297044
 20
1530.8749745619
 30
0.0
 10
293.7530808342
 20
1521.6132918369
 30
0.0
 10
295.9488155955
 20
1517.1270079031
 30
0.0
  0
SPLINE
  5
93C
100
AcDbEntity
  8
0
100
AcDbSpline
 62
7
  6
CONTINUOUS
 70
0
 71
3
 72
27
 73
23
 74
0
 42
0.0000001
 43
0.0000001
 44
0.0000000001
 40
0.0
 40
0.0
 40
0.0
 40
0.0
 40
0.0624926886
 40
0.0937545147
 40
0.1250162731
 40
0.1875088371
 40
0.2500013267
 40
0.2812630853
 40
0.3125248346
 40
0.3750171542
 40
0.4375094048
 40
0.5000015884
 40
0.5624937057
 40
0.6249857609
 40
0.6874777577
 40
0.718739456
 40
0.7500011515
 40
0.8124930413
 40
0.8749848849
 40
0.9062465547
 40
0.9375082844
 40
1.0
 40
1.0
 40
1.0
 40
1.0
 10
402.8820073205
 20
1781.4451794024
 30
0.0
 10
394.0123492688
 20
1781.362602742
 30
0.0
 10
380.6936614734
 20
1780.4007983979
 30
0.0
 10
363.1860596742
 20
1777.4604450477
 30
0.0
 10
345.895265335
 20
1773.4263855317
 30
0.0
 10
324.8099698851
 20
1766.3553926827
 30
0.0
 10
304.7805567779
 20
1756.6894717081
 30
0.0
 10
289.5903418504
 20
1747.4976800103
 30
0.0
 10
275.0094144768
 20
1737.367543274
 30
0.0
 10
258.0249460294
 20
1723.007777303
 30
0.0
 10
239.9850150934
 20
1703.3520807395
 30
0.0
 10
224.5662060984
 20
1681.5770669615
 30
0.0
 10
212.0193840759
 20
1658.0298124093
 30
0.0
 10
202.5474696744
 20
1633.0882477288
 30
0.0
 10
197.3438869835
 20
1611.4637600746
 30
0.0
 10
194.8484751634
 20
1593.8854171257
 30
0.0
 10
193.4715625067
 20
1576.1841092431
 30
0.0
 10
193.8616980641
 20
1553.9470520219
 30
0.0
 10
197.0672367426
 20
1531.9389696162
 30
0.0
 10
201.2864617575
 20
1514.6923144047
 30
0.0
 10
206.590591153
 20
1497.7504095906
 30
0.0
 10
211.7763131701
 20
1485.4440169728
 30
0.0
 10
215.7332442502
 20
1477.5056355688
 30
0.0
  0
SPLINE
  5
93D
100
AcDbEntity
  8
0
100
AcDbSpline
 62
7
  6
CONTINUOUS
 70
0
 71
3
 72
11
 73
7
 74
0
 42
0.0000001
 43
0.0000001
 44
0.0000000001
 40
0.0
 40
0.0
 40
0.0
 40
0.0
 40
0.250000588
 40
0.5000008989
 40
0.7500007636
 40
1.0
 40
1.0
 40
1.0
 40
1.0
 10
295.9488155955
 20
1517.1270079031
 30
0.0
 10
301.4150260678
 20
1505.9585495568
 30
0.0
 10
311.0894925157
 20
1482.9804411038
 30
0.0
 10
321.5945370955
 20
1447.10616831
 30
0.0
 10
327.9599246385
 20
1410.2712296988
 30
0.0
 10
329.3820073205
 20
1385.3794967115
 30
0.0
 10
329.3820073205
 20
1372.9451794024
 30
0.0
  0
SPLINE
  5
93E
100
AcDbEntity
  8
0
100
AcDbSpline
 62
7
  6
CONTINUOUS
 70
0
 71
3
 72
11
 73
7
 74
0
 42
0.0000001
 43
0.0000001
 44
0.0000000001
 40
0.0
 40
0.0
 40
0.0
 40
0.0
 40
0.2500006432
 40
0.5000010447
 40
0.7500009291
 40
1.0
 40
1.0
 40
1.0
 40
1.0
 10
215.7332442502
 20
1477.5056355688
 30
0.0
 10
219.7604603028
 20
1469.4262486971
 30
0.0
 10
226.890640193
 20
1452.7876026388
 30
0.0
 10
234.6367103866
 20
1426.7759870581
 30
0.0
 10
239.3324675605
 20
1400.0446904624
 30
0.0
 10
240.3820073205
 20
1381.972578598
 30
0.0
 10
240.3820073205
 20
1372.9451794024
 30
0.0
  0
SPLINE
  5
93F
100
AcDbEntity
  8
0
100
AcDbSpline
 62
7
  6
CONTINUOUS
 70
0
 71
3
 72
23
 73
19
 74
0
 42
0.0000001
 43
0.0000001
 44
0.0000000001
 40
0.0
 40
0.0
 40
0.0
 40
0.0
 40
0.0624989061
 40
0.12499805
 40
0.1874973262
 40
0.2499967813
 40
0.3124964089
 40
0.3749961774
 40
0.4374961034
 40
0.4999961444
 40
0.5624963211
 40
0.6249965947
 40
0.6874969771
 40
0.7499974429
 40
0.8124979884
 40
0.8749986071
 40
0.9374992899
 40
1.0
 40
1.0
 40
1.0
 40
1.0
 10
402.8820073205
 20
1686.4451794024
 30
0.0
 10
407.8756907273
 20
1686.543490633
 30
0.0
 10
417.8878991507
 20
1686.0910875155
 30
0.0
 10
432.6831611346
 20
1683.4807517788
 30
0.0
 10
447.0216313112
 20
1678.9869920305
 30
0.0
 10
460.6631322633
 20
1672.6884883254
 30
0.0
 10
473.3846199871
 20
1664.6930756524
 30
0.0
 10
484.9782953409
 20
1655.1356272541
 30
0.0
 10
495.2561675037
 20
1644.1756786398
 30
0.0
 10
504.0524801644
 20
1631.9946698441
 30
0.0
 10
511.2262386733
 20
1618.7929085741
 30
0.0
 10
516.6632143762
 20
1604.7862600799
 30
0.0
 10
520.2775650859
 20
1590.2026796835
 30
0.0
 10
522.0129559035
 20
1575.2784725658
 30
0.0
 10
521.8434298674
 20
1560.2548826779
 30
0.0
 10
519.7730620623
 20
1545.3730849445
 30
0.0
 10
515.8379833304
 20
1530.8749735111
 30
0.0
 10
512.0109331249
 20
1521.6132904437
 30
0.0
 10
509.8151990456
 20
1517.1270079031
 30
0.0
  0
SPLINE
  5
940
100
AcDbEntity
  8
0
100
AcDbSpline
 62
7
  6
CONTINUOUS
 70
0
 71
3
 72
27
 73
23
 74
0
 42
0.0000001
 43
0.0000001
 44
0.0000000001
 40
0.0
 40
0.0
 40
0.0
 40
0.0
 40
0.0624926886
 40
0.0937545146
 40
0.1250162733
 40
0.1875088377
 40
0.2500013262
 40
0.2812630848
 40
0.3125248339
 40
0.3750171535
 40
0.4375094042
 40
0.5000015883
 40
0.5624937056
 40
0.6249857606
 40
0.6874777575
 40
0.7187394557
 40
0.7500011512
 40
0.8124930414
 40
0.8749848851
 40
0.9062465548
 40
0.9375082844
 40
1.0
 40
1.0
 40
1.0
 40
1.0
 10
402.8820073205
 20
1781.4451794024
 30
0.0
 10
411.7516653793
 20
1781.3626027419
 30
0.0
 10
425.0703531683
 20
1780.4007983891
 30
0.0
 10
442.5779549972
 20
1777.4604450516
 30
0.0
 10
459.8687494107
 20
1773.4263854913
 30
0.0
 10
480.9540448022
 20
1766.3553926656
 30
0.0
 10
500.9834578011
 20
1756.6894717197
 30
0.0
 10
516.1736725758
 20
1747.4976801529
 30
0.0
 10
530.7545999331
 20
1737.3675434492
 30
0.0
 10
547.7390684053
 20
1723.0077775107
 30
0.0
 10
565.7789994197
 20
1703.352080898
 30
0.0
 10
581.1978084875
 20
1681.5770670597
 30
0.0
 10
593.7446305391
 20
1658.0298124714
 30
0.0
 10
603.2165449372
 20
1633.0882478093
 30
0.0
 10
608.4201276392
 20
1611.4637601829
 30
0.0
 10
610.9155394621
 20
1593.8854172393
 30
0.0
 10
612.2924521401
 20
1576.1841093133
 30
0.0
 10
611.9023165794
 20
1553.9470520229
 30
0.0
 10
608.6967778909
 20
1531.9389695576
 30
0.0
 10
604.477552868
 20
1514.6923143562
 30
0.0
 10
599.1734234831
 20
1497.7504095746
 30
0.0
 10
593.9877014713
 20
1485.4440169733
 30
0.0
 10
590.0307703908
 20
1477.5056355688
 30
0.0
  0
SPLINE
  5
941
100
AcDbEntity
  8
0
100
AcDbSpline
 62
7
  6
CONTINUOUS
 70
0
 71
3
 72
11
 73
7
 74
0
 42
0.0000001
 43
0.0000001
 44
0.0000000001
 40
0.0
 40
0.0
 40
0.0
 40
0.0
 40
0.2500006175
 40
0.500000938
 40
0.7500007921
 40
1.0
 40
1.0
 40
1.0
 40
1.0
 10
509.8151990456
 20
1517.1270079031
 30
0.0
 10
504.3489879285
 20
1505.9585482393
 30
0.0
 10
494.6745208915
 20
1482.9804379021
 30
0.0
 10
484.1694764557
 20
1447.106163587
 30
0.0
 10
477.8040897042
 20
1410.2712263344
 30
0.0
 10
476.3820073205
 20
1385.3794952975
 30
0.0
 10
476.3820073205
 20
1372.9451794024
 30
0.0
  0
SPLINE
  5
942
100
AcDbEntity
  8
0
100
AcDbSpline
 62
7
  6
CONTINUOUS
 70
0
 71
3
 72
11
 73
7
 74
0
 42
0.0000001
 43
0.0000001
 44
0.0000000001
 40
0.0
 40
0.0
 40
0.0
 40
0.0
 40
0.2500006432
 40
0.5000010447
 40
0.7500009291
 40
1.0
 40
1.0
 40
1.0
 40
1.0
 10
590.0307703908
 20
1477.5056355688
 30
0.0
 10
586.0035543383
 20
1469.4262486971
 30
0.0
 10
578.8733744481
 20
1452.7876026388
 30
0.0
 10
571.1273042545
 20
1426.7759870581
 30
0.0
 10
566.4315470806
 20
1400.0446904624
 30
0.0
 10
565.3820073205
 20
1381.972578598
 30
0.0
 10
565.3820073205
 20
1372.9451794024
 30
0.0
  0
SPLINE
  5
943
100
AcDbEntity
  8
BEZUGSACHSEN
100
AcDbSpline
 62
7
  6
CONTINUOUS
 70
0
 71
3
 72
10
 73
6
 74
0
 42
0.0000001
 43
0.0000001
 44
0.0000000001
 40
0.0
 40
0.0
 40
0.0
 40
0.0
 40
0.5016070043
 40
0.7510797447
 40
1.0
 40
1.0
 40
1.0
 40
1.0
 10
1420.8172920549
 20
1147.5958144971
 30
0.0
 10
1423.8502193809
 20
1148.6067902724
 30
0.0
 10
1428.4869920932
 20
1149.877164602
 30
0.0
 10
1434.8020803326
 20
1150.7884627659
 30
0.0
 10
1437.9808018507
 20
1150.9451794024
 30
0.0
 10
1439.5672920547
 20
1150.9451794025
 30
0.0
  0
SPLINE
  5
944
100
AcDbEntity
  8
BEZUGSACHSEN
100
AcDbSpline
 62
7
  6
CONTINUOUS
 70
0
 71
3
 72
10
 73
6
 74
0
 42
0.0000001
 43
0.0000001
 44
0.0000000001
 40
0.0
 40
0.0
 40
0.0
 40
0.0
 40
0.2489202642
 40
0.4983930055
 40
1.0
 40
1.0
 40
1.0
 40
1.0
 10
1439.5672920547
 20
1150.9451794025
 30
0.0
 10
1441.1537823154
 20
1150.9451794025
 30
0.0
 10
1444.3325038947
 20
1150.7884627416
 30
0.0
 10
1450.6475921346
 20
1149.8771645846
 30
0.0
 10
1455.2843647878
 20
1148.6067902527
 30
0.0
 10
1458.3172920549
 20
1147.5958144971
 30
0.0
  0
SPLINE
  5
945
100
AcDbEntity
  8
BEZUGSACHSEN
100
AcDbSpline
 62
7
  6
CONTINUOUS
 70
0
 71
3
 72
10
 73
6
 74
0
 42
0.0000001
 43
0.0000001
 44
0.0000000001
 40
0.0
 40
0.0
 40
0.0
 40
0.0
 40
0.2489202642
 40
0.4983930055
 40
1.0
 40
1.0
 40
1.0
 40
1.0
 10
1402.0672920582
 20
1150.9451794024
 30
0.0
 10
1403.6537823186
 20
1150.9451794023
 30
0.0
 10
1406.8325038973
 20
1150.7884627414
 30
0.0
 10
1413.147592136
 20
1149.8771645842
 30
0.0
 10
1417.7843647884
 20
1148.6067902526
 30
0.0
 10
1420.8172920549
 20
1147.5958144971
 30
0.0
  0
SPLINE
  5
946
100
AcDbEntity
  8
BEZUGSACHSEN
100
AcDbSpline
 62
7
  6
CONTINUOUS
 70
0
 71
3
 72
9
 73
5
 74
0
 42
0.0000001
 43
0.0000001
 44
0.0000000001
 40
0.0
 40
0.0
 40
0.0
 40
0.0
 40
0.5017258138
 40
1.0
 40
1.0
 40
1.0
 40
1.0
 10
1383.3172920549
 20
1147.5958144971
 30
0.0
 10
1385.9296555174
 20
1148.4666023179
 30
0.0
 10
1391.223052806
 20
1149.962007816
 30
0.0
 10
1396.6842709706
 20
1150.7249594437
 30
0.0
 10
1399.4149851712
 20
1150.8730891187
 30
0.0
  0
SPLINE
  5
947
100
AcDbEntity
  8
BEZUGSACHSEN
100
AcDbSpline
 62
7
  6
CONTINUOUS
 70
0
 71
3
 72
10
 73
6
 74
0
 42
0.0000001
 43
0.0000001
 44
0.0000000001
 40
0.0
 40
0.0
 40
0.0
 40
0.0
 40
0.2489202642
 40
0.4983930055
 40
1.0
 40
1.0
 40
1.0
 40
1.0
 10
1054.1859873707
 20
1150.9451794025
 30
0.0
 10
1055.7724776313
 20
1150.9451794025
 30
0.0
 10
1058.9511992107
 20
1150.7884627416
 30
0.0
 10
1065.2662874505
 20
1149.8771645846
 30
0.0
 10
1069.9030601037
 20
1148.6067902527
 30
0.0
 10
1072.9359873708
 20
1147.5958144971
 30
0.0
  0
SPLINE
  5
948
100
AcDbEntity
  8
BEZUGSACHSEN
100
AcDbSpline
 62
7
  6
CONTINUOUS
 70
0
 71
3
 72
10
 73
6
 74
0
 42
0.0000001
 43
0.0000001
 44
0.0000000001
 40
0.0
 40
0.0
 40
0.0
 40
0.0
 40
0.5016070043
 40
0.7510797447
 40
1.0
 40
1.0
 40
1.0
 40
1.0
 10
1035.4359873708
 20
1147.5958144971
 30
0.0
 10
1038.4689146968
 20
1148.6067902724
 30
0.0
 10
1043.1056874091
 20
1149.877164602
 30
0.0
 10
1049.4207756486
 20
1150.7884627659
 30
0.0
 10
1052.5994971667
 20
1150.9451794024
 30
0.0
 10
1054.1859873707
 20
1150.9451794025
 30
0.0
  0
SPLINE
  5
949
100
AcDbEntity
  8
BEZUGSACHSEN
100
AcDbSpline
 62
7
  6
CONTINUOUS
 70
0
 71
3
 72
9
 73
5
 74
0
 42
0.0000001
 43
0.0000001
 44
0.0000000001
 40
0.0
 40
0.0
 40
0.0
 40
0.0
 40
0.5017258138
 40
1.0
 40
1.0
 40
1.0
 40
1.0
 10
997.9359873708
 20
1147.5958144971
 30
0.0
 10
1000.5483508333
 20
1148.4666023179
 30
0.0
 10
1005.841748122
 20
1149.962007816
 30
0.0
 10
1011.3029662865
 20
1150.7249594437
 30
0.0
 10
1014.0336804871
 20
1150.8730891187
 30
0.0
  0
SPLINE
  5
94A
100
AcDbEntity
  8
BEZUGSACHSEN
100
AcDbSpline
 62
7
  6
CONTINUOUS
 70
0
 71
3
 72
10
 73
6
 74
0
 42
0.0000001
 43
0.0000001
 44
0.0000000001
 40
0.0
 40
0.0
 40
0.0
 40
0.0
 40
0.2489202642
 40
0.4983930055
 40
1.0
 40
1.0
 40
1.0
 40
1.0
 10
1016.6859873741
 20
1150.9451794024
 30
0.0
 10
1018.2724776345
 20
1150.9451794023
 30
0.0
 10
1021.4511992132
 20
1150.7884627414
 30
0.0
 10
1027.7662874519
 20
1149.8771645842
 30
0.0
 10
1032.4030601043
 20
1148.6067902526
 30
0.0
 10
1035.4359873708
 20
1147.5958144971
 30
0.0
  0
SPLINE
  5
94B
100
AcDbEntity
  8
BEZUGSACHSEN
100
AcDbSpline
 62
7
  6
CONTINUOUS
 70
0
 71
3
 72
10
 73
6
 74
0
 42
0.0000001
 43
0.0000001
 44
0.0000000001
 40
0.0
 40
0.0
 40
0.0
 40
0.0
 40
0.2489202642
 40
0.4983930055
 40
1.0
 40
1.0
 40
1.0
 40
1.0
 10
1246.8766397127
 20
1150.9451794025
 30
0.0
 10
1248.4631299734
 20
1150.9451794025
 30
0.0
 10
1251.6418515527
 20
1150.7884627416
 30
0.0
 10
1257.9569397925
 20
1149.8771645846
 30
0.0
 10
1262.5937124458
 20
1148.6067902527
 30
0.0
 10
1265.6266397128
 20
1147.5958144971
 30
0.0
  0
SPLINE
  5
94C
100
AcDbEntity
  8
BEZUGSACHSEN
100
AcDbSpline
 62
7
  6
CONTINUOUS
 70
0
 71
3
 72
10
 73
6
 74
0
 42
0.0000001
 43
0.0000001
 44
0.0000000001
 40
0.0
 40
0.0
 40
0.0
 40
0.0
 40
0.5016070043
 40
0.7510797447
 40
1.0
 40
1.0
 40
1.0
 40
1.0
 10
1228.1266397128
 20
1147.5958144971
 30
0.0
 10
1231.1595670388
 20
1148.6067902724
 30
0.0
 10
1235.7963397511
 20
1149.877164602
 30
0.0
 10
1242.1114279906
 20
1150.7884627659
 30
0.0
 10
1245.2901495087
 20
1150.9451794024
 30
0.0
 10
1246.8766397127
 20
1150.9451794025
 30
0.0
  0
SPLINE
  5
94D
100
AcDbEntity
  8
BEZUGSACHSEN
100
AcDbSpline
 62
7
  6
CONTINUOUS
 70
0
 71
3
 72
9
 73
5
 74
0
 42
0.0000001
 43
0.0000001
 44
0.0000000001
 40
0.0
 40
0.0
 40
0.0
 40
0.0
 40
0.5017258138
 40
1.0
 40
1.0
 40
1.0
 40
1.0
 10
1190.6266397128
 20
1147.5958144971
 30
0.0
 10
1193.2390031754
 20
1148.4666023179
 30
0.0
 10
1198.532400464
 20
1149.962007816
 30
0.0
 10
1203.9936186286
 20
1150.7249594437
 30
0.0
 10
1206.7243328292
 20
1150.8730891187
 30
0.0
  0
SPLINE
  5
94E
100
AcDbEntity
  8
BEZUGSACHSEN
100
AcDbSpline
 62
7
  6
CONTINUOUS
 70
0
 71
3
 72
10
 73
6
 74
0
 42
0.0000001
 43
0.0000001
 44
0.0000000001
 40
0.0
 40
0.0
 40
0.0
 40
0.0
 40
0.2489202642
 40
0.4983930055
 40
1.0
 40
1.0
 40
1.0
 40
1.0
 10
1209.3766397161
 20
1150.9451794024
 30
0.0
 10
1210.9631299765
 20
1150.9451794023
 30
0.0
 10
1214.1418515553
 20
1150.7884627414
 30
0.0
 10
1220.4569397939
 20
1149.8771645842
 30
0.0
 10
1225.0937124463
 20
1148.6067902526
 30
0.0
 10
1228.1266397128
 20
1147.5958144971
 30
0.0
  0
ENDSEC
  0
SECTION
  2
OBJECTS
  0
DICTIONARY
  5
C
100
AcDbDictionary
280
0
281
1
  3
ACAD_GROUP
350
D
  3
ACAD_MLINESTYLE
350
17
  3
ACAD_LAYOUT
350
1A
  3
ACAD_PLOTSETTINGS
350
19
  3
ACAD_PLOTSTYLENAME
350
E
  0
DICTIONARY
  5
D
102
{ACAD_REACTORS
330
C
102
}
100
AcDbDictionary
280
0
281
1
  0
ACDBDICTIONARYWDFLT
  5
E
102
{ACAD_REACTORS
330
C
102
}
100
AcDbDictionary
281
1
  3
Normal
350
F
100
AcDbDictionaryWithDefault
340
F
  0
DICTIONARY
  5
17
102
{ACAD_REACTORS
330
C
102
}
100
AcDbDictionary
280
0
281
1
  3
Standard
350
18
  0
DICTIONARY
  5
19
102
{ACAD_REACTORS
330
C
102
}
100
AcDbDictionary
281
1
  0
DICTIONARY
  5
1A
102
{ACAD_REACTORS
330
C
102
}
100
AcDbDictionary
281
1
  3
Model
350
94F
  3
Layout1
350
950
  0
ACDBPLACEHOLDER
  5
F
102
{ACAD_REACTORS
330
E
102
}
  0
MLINESTYLE
  5
18
102
{ACAD_REACTORS
330
17
102
}
100
AcDbMlineStyle
  2
STANDARD
 70
0
  3

 62
256
 51
90.0
 52
90.0
 71
2
 49
0.5
 62
256
  6
BYLAYER
 49
-0.5
 62
256
  6
BYLAYER
  0
LAYOUT
  5
94F
102
{ACAD_REACTORS
330
1A
102
}
100
AcDbPlotSettings
  1

  2
none_device
  4
ISO_A0_(1189.00_x_841.00_MM)
  6

 40
0.0
 41
0.0
 42
0.0
 43
0.0
 44
1189.0
 45
841.0
 46
0.0
 47
0.0
 48
0.0
 49
0.0
140
0.0
141
0.0
142
1.0
143
1.0
 70
1024
 72
1
 73
0
 74
0
  7

 75
0
147
1.0
148
0.0
149
0.0
100
AcDbLayout
  1
Model
 70
0
 71
0
 10
0.0
 20
0.0
 11
1189.0
 21
841.0
 12
0.0
 22
0.0
 32
0.0
 14
0.0
 24
0.0
 34
0.0
 15
0.0
 25
0.0
 35
0.0
146
0.0
 13
0.0
 23
0.0
 33
0.0
 16
1.0
 26
0.0
 36
0.0
 17
0.0
 27
1.0
 37
0.0
 76
0
330
20E
345
0
346
0
  0
LAYOUT
  5
950
102
{ACAD_REACTORS
330
1A
102
}
100
AcDbPlotSettings
  1

  2
none_device
  4
ISO_A0_(1189.00_x_841.00_MM)
  6

 40
0.0
 41
0.0
 42
0.0
 43
0.0
 44
1189.0
 45
841.0
 46
0.0
 47
0.0
 48
0.0
 49
0.0
140
0.0
141
0.0
142
1.0
143
1.0
 70
0
 72
1
 73
0
 74
0
  7

 75
0
147
1.0
148
0.0
149
0.0
100
AcDbLayout
  1
Layout1
 70
0
 71
1
 10
0.0
 20
0.0
 11
1189.0
 21
841.0
 12
0.0
 22
0.0
 32
0.0
 14
0.0
 24
0.0
 34
0.0
 15
0.0
 25
0.0
 35
0.0
146
0.0
 13
0.0
 23
0.0
 33
0.0
 16
1.0
 26
0.0
 36
0.0
 17
0.0
 27
1.0
 37
0.0
 76
0
330
20F
345
0
346
0
  0
ENDSEC
  0
EOF
