999
DXF file: WBPG-100t_7993245_M32193-P-2.dxf
999
Pro/ENGINEER 2011490 by Parametric Technology Corporation
  0
SECTION
  2
HEADER
  9
$ACADVER
  1
AC1015
  9
$DWGCODEPAGE
  3
ANSI_1252
  9
$EXTMAX
 10
1189.0
 20
841.0
 30
0.0
  9
$EXTMIN
 10
0.0
 20
0.0
 30
0.0
  9
$LIMMIN
 10
0.0
 20
0.0
  9
$LIMMAX
 10
1189.0
 20
841.0
  9
$VIEWCTR
 10
594.5
 20
420.5
  9
$VIEWSIZE
 40
841.0
  9
$CLAYER
  8
0
  9
$LTSCALE
 40
65.395
  9
$CELTYPE
  6
BYLAYER
  9
$DIMSCALE
 40
1.0
  9
$DIMASZ
 40
3.5
  9
$DIMEXO
 40
7.43125
  9
$DIMDLI
 40
45.182
  9
$DIMEXE
 40
21.402
  9
$DIMCEN
 40
10.701
  9
$DIMLFAC
 40
1.0
  9
$DIMBLK
  1
_FILLED
  9
$DIMTXT
 40
3.5
  9
$DIMTOL
 70
1
  9
$DIMLIM
 70
0
  9
$DIMTFAC
 40
1.0
  9
$DIMTP
 40
0.005
  9
$DIMTM
 40
0.005
  9
$PDMODE
 70
3
  9
$PDSIZE
 40
0.3125
  9
$HANDSEED
  5
83C
  9
$TILEMODE
 70
1
  9
$MEASUREMENT
 70
1
  9
$INSUNITS
 70
4
  0
ENDSEC
  0
SECTION
  2
CLASSES
  0
CLASS
  1
ACDBDICTIONARYWDFLT
  2
AcDbDictionaryWithDefault
  3
AutoCAD 2000
 90
0
280
0
281
0
  0
CLASS
  1
ACDBPLACEHOLDER
  2
AcDbPlaceHolder
  3
AutoCAD 2000
 90
0
280
0
281
0
  0
CLASS
  1
LAYOUT
  2
AcDbLayout
  3
AutoCAD 2000
 90
0
280
0
281
0
  0
ENDSEC
  0
SECTION
  2
TABLES
  0
TABLE
  2
VPORT
  5
8
100
AcDbSymbolTable
 70
2
  0
VPORT
  5
1F4
100
AcDbSymbolTableRecord
100
AcDbViewportTableRecord
  2
*ACTIVE
 70
0
 10
0.0
 20
0.0
 11
1.0
 21
1.0
 12
594.5
 22
420.5
 13
0.0
 23
0.0
 14
1.0
 24
1.0
 15
0.0
 25
0.0
 16
0.0
 26
0.0
 36
1.0
 17
0.0
 27
0.0
 37
0.0
 40
841.0
 41
1.4137931034
 42
50.0
 43
0.0
 44
0.0
 50
0.0
 51
0.0
 71
0
 72
100
 73
1
 74
1
 75
0
 76
0
 77
0
 78
0
  0
ENDTAB
  0
TABLE
  2
LTYPE
  5
5
100
AcDbSymbolTable
 70
6
  0
LTYPE
  5
14
100
AcDbSymbolTableRecord
100
AcDbLinetypeTableRecord
  2
BYBLOCK
 70
0
  3

 72
65
 73
0
 40
0.0
  0
LTYPE
  5
15
100
AcDbSymbolTableRecord
100
AcDbLinetypeTableRecord
  2
BYLAYER
 70
0
  3

 72
65
 73
0
 40
0.0
  0
LTYPE
  5
16
100
AcDbSymbolTableRecord
100
AcDbLinetypeTableRecord
  2
CONTINUOUS
 70
64
  3
Solid line
 72
65
 73
0
 40
0.0
  0
LTYPE
  5
1F5
100
AcDbSymbolTableRecord
100
AcDbLinetypeTableRecord
  2
CENTER
 70
64
  3
____ _ ____ _ ____ _ ____ _ ____ _ ____ _ ____
 72
65
 73
4
 40
0.6
 49
0.375
 74
0
 49
-0.075
 74
0
 49
0.075
 74
0
 49
-0.075
 74
0
  0
LTYPE
  5
1F6
100
AcDbSymbolTableRecord
100
AcDbLinetypeTableRecord
  2
HIDDEN
 70
64
  3
- - - - - - - - - - - - - - - - - - - -
 72
65
 73
2
 40
0.2
 49
0.1
 74
0
 49
-0.1
 74
0
  0
LTYPE
  5
1F7
100
AcDbSymbolTableRecord
100
AcDbLinetypeTableRecord
  2
PHANTOM
 70
64
  3
_____ _ _ _____ _ _ _____ _ _ _____
 72
65
 73
6
 40
0.8
 49
0.45
 74
0
 49
-0.05
 74
0
 49
0.1
 74
0
 49
-0.05
 74
0
 49
0.1
 74
0
 49
-0.05
 74
0
  0
LTYPE
  5
1F8
100
AcDbSymbolTableRecord
100
AcDbLinetypeTableRecord
  2
DOT
 70
64
  3
. . . . . . . . . . . . . . . . . . . .
 72
65
 73
2
 40
0.2
 49
0.1
 74
0
 49
-0.1
 74
0
  0
LTYPE
  5
1F9
100
AcDbSymbolTableRecord
100
AcDbLinetypeTableRecord
  2
DASHED
 70
64
  3
- - - - - - - - - - - - - - - - - - - -
 72
65
 73
2
 40
0.2
 49
0.1
 74
0
 49
-0.1
 74
0
  0
ENDTAB
  0
TABLE
  2
LAYER
  5
2
100
AcDbSymbolTable
 70
36
  0
LAYER
  5
10
100
AcDbSymbolTableRecord
100
AcDbLayerTableRecord
  2
0
 70
0
 62
7
  6
CONTINUOUS
370
-3
390
F
  0
LAYER
  5
1FA
100
AcDbSymbolTableRecord
100
AcDbLayerTableRecord
  2
DEFAULT_1
 70
0
 62
7
  6
CENTER
370
-3
390
F
  0
LAYER
  5
1FB
100
AcDbSymbolTableRecord
100
AcDbLayerTableRecord
  2
DEFAULT_2
 70
0
 62
8
  6
HIDDEN
370
-3
390
F
  0
LAYER
  5
1FC
100
AcDbSymbolTableRecord
100
AcDbLayerTableRecord
  2
DEFAULT_3
 70
0
 62
7
  6
PHANTOM
370
-3
390
F
  0
LAYER
  5
1FD
100
AcDbSymbolTableRecord
100
AcDbLayerTableRecord
  2
BEZUGSACHSEN
 70
0
 62
7
  6
CONTINUOUS
370
-3
390
F
  0
LAYER
  5
1FE
100
AcDbSymbolTableRecord
100
AcDbLayerTableRecord
  2
BEZUGSEBENEN
 70
0
 62
7
  6
CONTINUOUS
370
-3
390
F
  0
LAYER
  5
1FF
100
AcDbSymbolTableRecord
100
AcDbLayerTableRecord
  2
BG_STARTBEZUEGE
 70
0
 62
7
  6
CONTINUOUS
370
-3
390
F
  0
LAYER
  5
200
100
AcDbSymbolTableRecord
100
AcDbLayerTableRecord
  2
FASEN
 70
0
 62
7
  6
CONTINUOUS
370
-3
390
F
  0
LAYER
  5
201
100
AcDbSymbolTableRecord
100
AcDbLayerTableRecord
  2
GEWINDE
 70
0
 62
7
  6
CONTINUOUS
370
-3
390
F
  0
LAYER
  5
202
100
AcDbSymbolTableRecord
100
AcDbLayerTableRecord
  2
HILFEN
 70
0
 62
7
  6
CONTINUOUS
370
-3
390
F
  0
LAYER
  5
203
100
AcDbSymbolTableRecord
100
AcDbLayerTableRecord
  2
KONSTRUKTIONSELEMENTE
 70
0
 62
7
  6
CONTINUOUS
370
-3
390
F
  0
LAYER
  5
204
100
AcDbSymbolTableRecord
100
AcDbLayerTableRecord
  2
KURVEN
 70
0
 62
7
  6
CONTINUOUS
370
-3
390
F
  0
LAYER
  5
205
100
AcDbSymbolTableRecord
100
AcDbLayerTableRecord
  2
NORM
 70
0
 62
7
  6
CONTINUOUS
370
-3
390
F
  0
LAYER
  5
206
100
AcDbSymbolTableRecord
100
AcDbLayerTableRecord
  2
PLATZIERUNG
 70
0
 62
7
  6
CONTINUOUS
370
-3
390
F
  0
LAYER
  5
207
100
AcDbSymbolTableRecord
100
AcDbLayerTableRecord
  2
PLAZIERUNG
 70
0
 62
7
  6
CONTINUOUS
370
-3
390
F
  0
LAYER
  5
208
100
AcDbSymbolTableRecord
100
AcDbLayerTableRecord
  2
RUNDUNGEN
 70
0
 62
7
  6
CONTINUOUS
370
-3
390
F
  0
LAYER
  5
209
100
AcDbSymbolTableRecord
100
AcDbLayerTableRecord
  2
TEIL_STARTBEZUEGE
 70
0
 62
7
  6
CONTINUOUS
370
-3
390
F
  0
LAYER
  5
20A
100
AcDbSymbolTableRecord
100
AcDbLayerTableRecord
  2
T_STARTBEZUEGE
 70
0
 62
7
  6
CONTINUOUS
370
-3
390
F
  0
LAYER
  5
20B
100
AcDbSymbolTableRecord
100
AcDbLayerTableRecord
  2
ZEICHNUNGSBEMASSUNGEN
 70
0
 62
7
  6
CONTINUOUS
370
-3
390
F
  0
ENDTAB
  0
TABLE
  2
STYLE
  5
3
100
AcDbSymbolTable
 70
1
  0
STYLE
  5
11
100
AcDbSymbolTableRecord
100
AcDbTextStyleTableRecord
  2
STANDARD
 70
0
 40
0.0
 41
0.7
 50
0.0
 71
0
 42
0.2
  3
txt
  4

  0
STYLE
  5
20C
100
AcDbSymbolTableRecord
100
AcDbTextStyleTableRecord
  2
TEXTSTYLE_1
 70
0
 40
0.0
 41
0.8
 50
0.0
 71
0
 42
0.2
  3
gdt
  4

  0
ENDTAB
  0
TABLE
  2
VIEW
  5
6
100
AcDbSymbolTable
 70
0
  0
ENDTAB
  0
TABLE
  2
UCS
  5
7
100
AcDbSymbolTable
 70
0
  0
ENDTAB
  0
TABLE
  2
APPID
  5
9
100
AcDbSymbolTable
 70
1
  0
APPID
  5
20D
100
AcDbSymbolTableRecord
100
AcDbRegAppTableRecord
  2
ACAD
 70
0
  0
ENDTAB
  0
TABLE
  2
BLOCK_RECORD
  5
1
100
AcDbSymbolTable
 70
0
  0
BLOCK_RECORD
  5
20E
100
AcDbSymbolTableRecord
100
AcDbBlockTableRecord
  2
*Model_Space
  0
BLOCK_RECORD
  5
20F
100
AcDbSymbolTableRecord
100
AcDbBlockTableRecord
  2
*Paper_Space
  0
ENDTAB
  0
TABLE
  2
DIMSTYLE
  5
A
100
AcDbSymbolTable
 70
1
100
AcDbDimStyleTable
 71
0
  0
DIMSTYLE
105
210
100
AcDbSymbolTableRecord
100
AcDbDimStyleTableRecord
  2
STANDARD
 70
0
  3

  4

 40
1.0
 41
3.5
 42
0.0625
 43
0.38
 44
0.18
 45
0.0
 46
0.0
 47
0.005
 48
0.005
140
3.5
141
0.09
142
0.0
143
25.4
144
1.0
145
0.0
146
1.0
147
0.09
 71
1.0
 72
0.0
 73
0
 74
0
 75
0
 76
0
 77
1
 78
8
170
0
171
2
172
0
173
0
174
0
175
0
176
0
177
0
178
5
270
2
271
3
272
3
273
2
274
2
275
0
280
0
281
0
282
0
283
1
284
8
285
0
286
0
287
3
288
0
340
11
  0
ENDTAB
  0
ENDSEC
  0
SECTION
  2
BLOCKS
  0
BLOCK
  5
20
100
AcDbEntity
  8
0
100
AcDbBlockBegin
  2
*Model_Space
 70
0
 10
0.0
 20
0.0
 30
0.0
  3
*Model_Space
  1

  0
ENDBLK
  5
21
100
AcDbEntity
  8
0
100
AcDbBlockEnd
  0
BLOCK
  5
1C
100
AcDbEntity
  8
0
100
AcDbBlockBegin
  2
*Paper_Space
 70
0
 10
0.0
 20
0.0
 30
0.0
  3
*Paper_Space
  1

  0
ENDBLK
  5
1D
100
AcDbEntity
  8
0
100
AcDbBlockEnd
  0
ENDSEC
  0
SECTION
  2
ENTITIES
  0
MTEXT
  5
211
100
AcDbEntity
  8
0
100
AcDbMText
 62
5
  6
CONTINUOUS
  7
STANDARD
 71
2
 72
1
 10
310.0322482608
 20
1043.5906873171
 30
0.0
 11
1.0
 21
0.0
 31
0.0
 44
0.9
  1
RUD\PWBPG 100t
 40
10.0
 41
72.1428571429
  0
MTEXT
  5
212
100
AcDbEntity
  8
0
100
AcDbMText
 62
5
  6
CONTINUOUS
  7
STANDARD
 71
2
 72
1
 10
927.2628441778
 20
1047.1437717135
 30
0.0
 11
1.0
 21
0.0
 31
0.0
 44
0.9
  1
RUD\PWBPG 100t
 40
10.0
 41
72.1428571429
  0
LINE
  5
213
100
AcDbEntity
  8
0
100
AcDbLine
 62
7
  6
CONTINUOUS
 10
0.0
 20
0.0
 11
0.0
 21
841.0
  0
LINE
  5
214
100
AcDbEntity
  8
0
100
AcDbLine
 62
7
  6
CONTINUOUS
 10
0.0
 20
0.0
 11
1189.0
 21
0.0
  0
LINE
  5
215
100
AcDbEntity
  8
0
100
AcDbLine
 62
7
  6
CONTINUOUS
 10
0.0
 20
841.0
 11
1189.0
 21
841.0
  0
LINE
  5
216
100
AcDbEntity
  8
0
100
AcDbLine
 62
7
  6
CONTINUOUS
 10
1189.0
 20
0.0
 11
1189.0
 21
841.0
  0
LINE
  5
217
100
AcDbEntity
  8
BEZUGSACHSEN
100
AcDbLine
 62
7
  6
CONTINUOUS
 10
136.0338093691
 20
917.3865285415
 11
174.0338093691
 21
917.3865285415
  0
LINE
  5
218
100
AcDbEntity
  8
BEZUGSACHSEN
100
AcDbLine
 62
7
  6
CONTINUOUS
 10
213.5338093691
 20
917.3865285415
 11
251.5338093691
 21
917.3865285415
  0
LINE
  5
219
100
AcDbEntity
  8
BEZUGSACHSEN
100
AcDbLine
 62
7
  6
CONTINUOUS
 10
368.5338093691
 20
917.3865285415
 11
406.5338093691
 21
917.3865285415
  0
LINE
  5
21A
100
AcDbEntity
  8
BEZUGSACHSEN
100
AcDbLine
 62
7
  6
CONTINUOUS
 10
446.0338093691
 20
917.3865285415
 11
484.0338093691
 21
917.3865285415
  0
LINE
  5
21B
100
AcDbEntity
  8
BEZUGSACHSEN
100
AcDbLine
 62
7
  6
CONTINUOUS
 10
131.0338093691
 20
922.3865285415
 11
179.0338093691
 21
922.3865285415
  0
LINE
  5
21C
100
AcDbEntity
  8
BEZUGSACHSEN
100
AcDbLine
 62
7
  6
CONTINUOUS
 10
208.5338093691
 20
922.3865285415
 11
256.5338093691
 21
922.3865285415
  0
LINE
  5
21D
100
AcDbEntity
  8
BEZUGSACHSEN
100
AcDbLine
 62
7
  6
CONTINUOUS
 10
363.5338093691
 20
922.3865285415
 11
411.5338093691
 21
922.3865285415
  0
LINE
  5
21E
100
AcDbEntity
  8
BEZUGSACHSEN
100
AcDbLine
 62
7
  6
CONTINUOUS
 10
441.0338093691
 20
922.3865285415
 11
489.0338093691
 21
922.3865285415
  0
LINE
  5
21F
100
AcDbEntity
  8
BEZUGSACHSEN
100
AcDbLine
 62
7
  6
CONTINUOUS
 10
131.0338093691
 20
922.3865285415
 11
136.0338093691
 21
917.3865285415
  0
LINE
  5
220
100
AcDbEntity
  8
BEZUGSACHSEN
100
AcDbLine
 62
7
  6
CONTINUOUS
 10
208.5338093691
 20
922.3865285415
 11
213.5338093691
 21
917.3865285415
  0
LINE
  5
221
100
AcDbEntity
  8
0
100
AcDbLine
 62
7
  6
CONTINUOUS
 10
110.0338093691
 20
987.3865285415
 11
510.0338093691
 21
987.3865285415
  0
LINE
  5
222
100
AcDbEntity
  8
0
100
AcDbLine
 62
7
  6
CONTINUOUS
 10
110.0338093691
 20
987.3865285415
 11
110.0338093691
 21
1077.3865285415
  0
LINE
  5
223
100
AcDbEntity
  8
BEZUGSACHSEN
100
AcDbLine
 62
7
  6
CONTINUOUS
 10
111.7325391799
 20
1077.8865285415
 11
111.7325391799
 21
1104.0371636361
  0
LINE
  5
224
100
AcDbEntity
  8
0
100
AcDbLine
 62
7
  6
CONTINUOUS
 10
110.0338093691
 20
1077.3865285415
 11
510.0338093691
 21
1077.3865285415
  0
LINE
  5
225
100
AcDbEntity
  8
KONSTRUKTIONSELEMENTE
100
AcDbLine
 62
7
  6
CONTINUOUS
 10
111.7325391799
 20
1077.8865285415
 11
275.8350795583
 21
1077.8865285415
  0
LINE
  5
226
100
AcDbEntity
  8
KONSTRUKTIONSELEMENTE
100
AcDbLine
 62
7
  6
CONTINUOUS
 10
344.2325391799
 20
1077.8865285415
 11
508.3350795583
 21
1077.8865285415
  0
LINE
  5
227
100
AcDbEntity
  8
BEZUGSACHSEN
100
AcDbLine
 62
7
  6
CONTINUOUS
 10
193.7838093691
 20
1106.664840705
 11
192.5338093691
 21
1107.3865285415
  0
LINE
  5
228
100
AcDbEntity
  8
BEZUGSACHSEN
100
AcDbLine
 62
7
  6
CONTINUOUS
 10
363.5338093691
 20
922.3865285415
 11
368.5338093691
 21
917.3865285415
  0
LINE
  5
229
100
AcDbEntity
  8
BEZUGSACHSEN
100
AcDbLine
 62
7
  6
CONTINUOUS
 10
120.3338093691
 20
1077.3865285415
 11
120.3338093691
 21
1077.8865285415
  0
LINE
  5
22A
100
AcDbEntity
  8
KONSTRUKTIONSELEMENTE
100
AcDbLine
 62
7
  6
CONTINUOUS
 10
120.3338093691
 20
1077.3865285415
 11
120.3338093691
 21
1077.8865285415
  0
LINE
  5
22B
100
AcDbEntity
  8
KONSTRUKTIONSELEMENTE
100
AcDbLine
 62
7
  6
CONTINUOUS
 10
123.8411801697
 20
1107.3865285415
 11
123.8411801697
 21
1107.5865285415
  0
LINE
  5
22C
100
AcDbEntity
  8
0
100
AcDbLine
 62
7
  6
CONTINUOUS
 10
128.4338093691
 20
1141.3865285415
 11
128.4338093691
 21
1246.3865285415
  0
LINE
  5
22D
100
AcDbEntity
  8
BEZUGSACHSEN
100
AcDbLine
 62
7
  6
CONTINUOUS
 10
131.0338093691
 20
987.3865285415
 11
131.0338093691
 21
922.3865285415
  0
LINE
  5
22E
100
AcDbEntity
  8
BEZUGSACHSEN
100
AcDbLine
 62
7
  6
CONTINUOUS
 10
133.3831742745
 20
1077.8865285415
 11
133.3831742745
 21
1104.0371636361
  0
LINE
  5
22F
100
AcDbEntity
  8
KONSTRUKTIONSELEMENTE
100
AcDbLine
 62
7
  6
CONTINUOUS
 10
133.6640592184
 20
1107.3865285415
 11
133.6640592184
 21
1107.5865285415
  0
LINE
  5
230
100
AcDbEntity
  8
KONSTRUKTIONSELEMENTE
100
AcDbLine
 62
7
  6
CONTINUOUS
 10
133.8982815752
 20
1107.3865285415
 11
133.8982815752
 21
1107.5865285415
  0
LINE
  5
231
100
AcDbEntity
  8
KONSTRUKTIONSELEMENTE
100
AcDbLine
 62
7
  6
CONTINUOUS
 10
134.8742080246
 20
1107.3865285415
 11
134.8742080246
 21
1107.5865285415
  0
LINE
  5
232
100
AcDbEntity
  8
KONSTRUKTIONSELEMENTE
100
AcDbLine
 62
7
  6
CONTINUOUS
 10
135.1474675153
 20
1107.3865285415
 11
135.1474675153
 21
1107.5865285415
  0
LINE
  5
233
100
AcDbEntity
  8
KONSTRUKTIONSELEMENTE
100
AcDbLine
 62
7
  6
CONTINUOUS
 10
136.2531906193
 20
1107.3865285415
 11
136.2531906193
 21
1107.5865285415
  0
LINE
  5
234
100
AcDbEntity
  8
KONSTRUKTIONSELEMENTE
100
AcDbLine
 62
7
  6
CONTINUOUS
 10
137.090055942
 20
1107.3865285415
 11
137.090055942
 21
1107.5865285415
  0
LINE
  5
235
100
AcDbEntity
  8
KONSTRUKTIONSELEMENTE
100
AcDbLine
 62
7
  6
CONTINUOUS
 10
137.8791842558
 20
1107.3865285415
 11
137.8791842558
 21
1107.5865285415
  0
LINE
  5
236
100
AcDbEntity
  8
KONSTRUKTIONSELEMENTE
100
AcDbLine
 62
7
  6
CONTINUOUS
 10
138.3734458429
 20
1107.3865285415
 11
138.3734458429
 21
1107.5865285415
  0
LINE
  5
237
100
AcDbEntity
  8
KONSTRUKTIONSELEMENTE
100
AcDbLine
 62
7
  6
CONTINUOUS
 10
138.8199704363
 20
1107.3865285415
 11
138.8199704363
 21
1107.5865285415
  0
LINE
  5
238
100
AcDbEntity
  8
KONSTRUKTIONSELEMENTE
100
AcDbLine
 62
7
  6
CONTINUOUS
 10
138.9716282879
 20
1107.3865285415
 11
138.9716282879
 21
1107.5865285415
  0
LINE
  5
239
100
AcDbEntity
  8
KONSTRUKTIONSELEMENTE
100
AcDbLine
 62
7
  6
CONTINUOUS
 10
141.648545066
 20
1107.3865285415
 11
141.648545066
 21
1107.5865285415
  0
LINE
  5
23A
100
AcDbEntity
  8
KONSTRUKTIONSELEMENTE
100
AcDbLine
 62
7
  6
CONTINUOUS
 10
146.0846124346
 20
1107.3865285415
 11
146.0846124346
 21
1107.5865285415
  0
LINE
  5
23B
100
AcDbEntity
  8
KONSTRUKTIONSELEMENTE
100
AcDbLine
 62
7
  6
CONTINUOUS
 10
146.9106323264
 20
1107.3865285415
 11
146.9106323264
 21
1107.5865285415
  0
LINE
  5
23C
100
AcDbEntity
  8
BEZUGSACHSEN
100
AcDbLine
 62
7
  6
CONTINUOUS
 10
117.5339763579
 20
1107.3865285415
 11
192.5336423804
 21
1107.3865285415
  0
LINE
  5
23D
100
AcDbEntity
  8
BEZUGSACHSEN
100
AcDbLine
 62
7
  6
CONTINUOUS
 10
195.0339763579
 20
1107.3865285415
 11
270.0336423804
 21
1107.3865285415
  0
LINE
  5
23E
100
AcDbEntity
  8
BEZUGSACHSEN
100
AcDbLine
 62
7
  6
CONTINUOUS
 10
350.0339763579
 20
1107.3865285415
 11
425.0336423804
 21
1107.3865285415
  0
LINE
  5
23F
100
AcDbEntity
  8
BEZUGSACHSEN
100
AcDbLine
 62
7
  6
CONTINUOUS
 10
427.5339763579
 20
1107.3865285415
 11
502.5336423804
 21
1107.3865285415
  0
LINE
  5
240
100
AcDbEntity
  8
KONSTRUKTIONSELEMENTE
100
AcDbLine
 62
7
  6
CONTINUOUS
 10
123.8411801697
 20
1107.5865285415
 11
147.8003509398
 21
1107.5865285415
  0
LINE
  5
241
100
AcDbEntity
  8
KONSTRUKTIONSELEMENTE
100
AcDbLine
 62
7
  6
CONTINUOUS
 10
160.9744798835
 20
1107.5865285415
 11
185.9549478866
 21
1107.5865285415
  0
LINE
  5
242
100
AcDbEntity
  8
KONSTRUKTIONSELEMENTE
100
AcDbLine
 62
7
  6
CONTINUOUS
 10
201.3411801697
 20
1107.5865285415
 11
225.3003509398
 21
1107.5865285415
  0
LINE
  5
243
100
AcDbEntity
  8
KONSTRUKTIONSELEMENTE
100
AcDbLine
 62
7
  6
CONTINUOUS
 10
238.4744798835
 20
1107.5865285415
 11
263.4549478866
 21
1107.5865285415
  0
LINE
  5
244
100
AcDbEntity
  8
KONSTRUKTIONSELEMENTE
100
AcDbLine
 62
7
  6
CONTINUOUS
 10
356.3411801697
 20
1107.5865285415
 11
380.3003509398
 21
1107.5865285415
  0
LINE
  5
245
100
AcDbEntity
  8
KONSTRUKTIONSELEMENTE
100
AcDbLine
 62
7
  6
CONTINUOUS
 10
393.4744798835
 20
1107.5865285415
 11
418.4549478866
 21
1107.5865285415
  0
LINE
  5
246
100
AcDbEntity
  8
KONSTRUKTIONSELEMENTE
100
AcDbLine
 62
7
  6
CONTINUOUS
 10
433.8411801697
 20
1107.5865285415
 11
457.8003509398
 21
1107.5865285415
  0
LINE
  5
247
100
AcDbEntity
  8
KONSTRUKTIONSELEMENTE
100
AcDbLine
 62
7
  6
CONTINUOUS
 10
470.9744798835
 20
1107.5865285415
 11
495.9549478866
 21
1107.5865285415
  0
LINE
  5
248
100
AcDbEntity
  8
BEZUGSACHSEN
100
AcDbLine
 62
7
  6
CONTINUOUS
 10
275.8350795583
 20
1104.0371636361
 11
270.0338093691
 21
1107.3865285415
  0
LINE
  5
249
100
AcDbEntity
  8
KONSTRUKTIONSELEMENTE
100
AcDbLine
 62
7
  6
CONTINUOUS
 10
147.4536531439
 20
1107.3865285415
 11
147.4536531439
 21
1107.5865285415
  0
LINE
  5
24A
100
AcDbEntity
  8
KONSTRUKTIONSELEMENTE
100
AcDbLine
 62
7
  6
CONTINUOUS
 10
147.8003509398
 20
1107.3865285415
 11
147.8003509398
 21
1107.5865285415
  0
LINE
  5
24B
100
AcDbEntity
  8
KONSTRUKTIONSELEMENTE
100
AcDbLine
 62
7
  6
CONTINUOUS
 10
160.9744798835
 20
1107.3865285415
 11
160.9744798835
 21
1107.5865285415
  0
LINE
  5
24C
100
AcDbEntity
  8
KONSTRUKTIONSELEMENTE
100
AcDbLine
 62
7
  6
CONTINUOUS
 10
162.0638588728
 20
1107.3865285415
 11
162.0638588728
 21
1107.5865285415
  0
LINE
  5
24D
100
AcDbEntity
  8
KONSTRUKTIONSELEMENTE
100
AcDbLine
 62
7
  6
CONTINUOUS
 10
164.6057417959
 20
1107.3865285415
 11
164.6057417959
 21
1107.5865285415
  0
LINE
  5
24E
100
AcDbEntity
  8
KONSTRUKTIONSELEMENTE
100
AcDbLine
 62
7
  6
CONTINUOUS
 10
166.0582498854
 20
1107.3865285415
 11
166.0582498854
 21
1107.5865285415
  0
LINE
  5
24F
100
AcDbEntity
  8
KONSTRUKTIONSELEMENTE
100
AcDbLine
 62
7
  6
CONTINUOUS
 10
168.6001328086
 20
1107.3865285415
 11
168.6001328086
 21
1107.5865285415
  0
LINE
  5
250
100
AcDbEntity
  8
KONSTRUKTIONSELEMENTE
100
AcDbLine
 62
7
  6
CONTINUOUS
 10
169.6895117979
 20
1107.3865285415
 11
169.6895117979
 21
1107.5865285415
  0
LINE
  5
251
100
AcDbEntity
  8
RUNDUNGEN
100
AcDbLine
 62
7
  6
CONTINUOUS
 10
171.4338093691
 20
1323.8863830705
 11
171.4338093691
 21
1127.9282841743
  0
LINE
  5
252
100
AcDbEntity
  8
KONSTRUKTIONSELEMENTE
100
AcDbLine
 62
7
  6
CONTINUOUS
 10
173.4203345402
 20
1107.3865285415
 11
173.4203345402
 21
1107.5865285415
  0
LINE
  5
253
100
AcDbEntity
  8
KONSTRUKTIONSELEMENTE
100
AcDbLine
 62
7
  6
CONTINUOUS
 10
173.4500261071
 20
1107.3865285415
 11
173.4500261071
 21
1107.5865285415
  0
LINE
  5
254
100
AcDbEntity
  8
KONSTRUKTIONSELEMENTE
100
AcDbLine
 62
7
  6
CONTINUOUS
 10
174.0952527474
 20
1107.3865285415
 11
174.0952527474
 21
1107.5865285415
  0
LINE
  5
255
100
AcDbEntity
  8
0
100
AcDbLine
 62
7
  6
CONTINUOUS
 10
448.6338093691
 20
1130.3865285415
 11
483.6338093691
 21
1130.3865285415
  0
LINE
  5
256
100
AcDbEntity
  8
0
100
AcDbLine
 62
7
  6
CONTINUOUS
 10
171.4338093691
 20
1141.3865285415
 11
128.4338093691
 21
1141.3865285415
  0
LINE
  5
257
100
AcDbEntity
  8
BEZUGSACHSEN
100
AcDbLine
 62
7
  6
CONTINUOUS
 10
441.0338093691
 20
922.3865285415
 11
446.0338093691
 21
917.3865285415
  0
LINE
  5
258
100
AcDbEntity
  8
KONSTRUKTIONSELEMENTE
100
AcDbLine
 62
7
  6
CONTINUOUS
 10
175.9024252367
 20
1107.3865285415
 11
175.9024252367
 21
1107.5865285415
  0
LINE
  5
259
100
AcDbEntity
  8
KONSTRUKTIONSELEMENTE
100
AcDbLine
 62
7
  6
CONTINUOUS
 10
176.0098390694
 20
1107.3865285415
 11
176.0098390694
 21
1107.5865285415
  0
LINE
  5
25A
100
AcDbEntity
  8
KONSTRUKTIONSELEMENTE
100
AcDbLine
 62
7
  6
CONTINUOUS
 10
176.3113298173
 20
1107.3865285415
 11
176.3113298173
 21
1107.5865285415
  0
LINE
  5
25B
100
AcDbEntity
  8
BEZUGSACHSEN
100
AcDbLine
 62
7
  6
CONTINUOUS
 10
176.6844444637
 20
1077.8865285415
 11
176.6844444637
 21
1104.0371636361
  0
LINE
  5
25C
100
AcDbEntity
  8
KONSTRUKTIONSELEMENTE
100
AcDbLine
 62
7
  6
CONTINUOUS
 10
177.0367780506
 20
1107.3865285415
 11
177.0367780506
 21
1107.5865285415
  0
LINE
  5
25D
100
AcDbEntity
  8
KONSTRUKTIONSELEMENTE
100
AcDbLine
 62
7
  6
CONTINUOUS
 10
177.7264218281
 20
1107.3865285415
 11
177.7264218281
 21
1107.5865285415
  0
LINE
  5
25E
100
AcDbEntity
  8
KONSTRUKTIONSELEMENTE
100
AcDbLine
 62
7
  6
CONTINUOUS
 10
178.8221210957
 20
1107.3865285415
 11
178.8221210957
 21
1107.5865285415
  0
LINE
  5
25F
100
AcDbEntity
  8
BEZUGSACHSEN
100
AcDbLine
 62
7
  6
CONTINUOUS
 10
179.0338093691
 20
987.3865285415
 11
179.0338093691
 21
922.3865285415
  0
LINE
  5
260
100
AcDbEntity
  8
KONSTRUKTIONSELEMENTE
100
AcDbLine
 62
7
  6
CONTINUOUS
 10
179.4580578826
 20
1107.3865285415
 11
179.4580578826
 21
1107.5865285415
  0
LINE
  5
261
100
AcDbEntity
  8
KONSTRUKTIONSELEMENTE
100
AcDbLine
 62
7
  6
CONTINUOUS
 10
180.4821483501
 20
1107.3865285415
 11
180.4821483501
 21
1107.5865285415
  0
LINE
  5
262
100
AcDbEntity
  8
KONSTRUKTIONSELEMENTE
100
AcDbLine
 62
7
  6
CONTINUOUS
 10
181.0464757787
 20
1107.3865285415
 11
181.0464757787
 21
1107.5865285415
  0
LINE
  5
263
100
AcDbEntity
  8
KONSTRUKTIONSELEMENTE
100
AcDbLine
 62
7
  6
CONTINUOUS
 10
181.2226502333
 20
1107.3865285415
 11
181.2226502333
 21
1107.5865285415
  0
LINE
  5
264
100
AcDbEntity
  8
KONSTRUKTIONSELEMENTE
100
AcDbLine
 62
7
  6
CONTINUOUS
 10
181.4704336366
 20
1107.3865285415
 11
181.4704336366
 21
1107.5865285415
  0
LINE
  5
265
100
AcDbEntity
  8
KONSTRUKTIONSELEMENTE
100
AcDbLine
 62
7
  6
CONTINUOUS
 10
182.1600773399
 20
1107.3865285415
 11
182.1600773399
 21
1107.5865285415
  0
LINE
  5
266
100
AcDbEntity
  8
KONSTRUKTIONSELEMENTE
100
AcDbLine
 62
7
  6
CONTINUOUS
 10
183.0437979398
 20
1107.3865285415
 11
183.0437979398
 21
1107.5865285415
  0
LINE
  5
267
100
AcDbEntity
  8
KONSTRUKTIONSELEMENTE
100
AcDbLine
 62
7
  6
CONTINUOUS
 10
183.6797347268
 20
1107.3865285415
 11
183.6797347268
 21
1107.5865285415
  0
LINE
  5
268
100
AcDbEntity
  8
KONSTRUKTIONSELEMENTE
100
AcDbLine
 62
7
  6
CONTINUOUS
 10
184.7038250814
 20
1107.3865285415
 11
184.7038250814
 21
1107.5865285415
  0
LINE
  5
269
100
AcDbEntity
  8
KONSTRUKTIONSELEMENTE
100
AcDbLine
 62
7
  6
CONTINUOUS
 10
185.286054952
 20
1107.3865285415
 11
185.286054952
 21
1107.5865285415
  0
LINE
  5
26A
100
AcDbEntity
  8
KONSTRUKTIONSELEMENTE
100
AcDbLine
 62
7
  6
CONTINUOUS
 10
185.8324803483
 20
1107.3865285415
 11
185.8324803483
 21
1107.5865285415
  0
LINE
  5
26B
100
AcDbEntity
  8
KONSTRUKTIONSELEMENTE
100
AcDbLine
 62
7
  6
CONTINUOUS
 10
185.9549478866
 20
1107.3865285415
 11
185.9549478866
 21
1107.5865285415
  0
LINE
  5
26C
100
AcDbEntity
  8
BEZUGSACHSEN
100
AcDbLine
 62
7
  6
CONTINUOUS
 10
189.2325391799
 20
1077.8865285415
 11
189.2325391799
 21
1104.0371636361
  0
LINE
  5
26D
100
AcDbEntity
  8
BEZUGSACHSEN
100
AcDbLine
 62
7
  6
CONTINUOUS
 10
189.7338093691
 20
1077.3865285415
 11
189.7338093691
 21
1077.8865285415
  0
LINE
  5
26E
100
AcDbEntity
  8
KONSTRUKTIONSELEMENTE
100
AcDbLine
 62
7
  6
CONTINUOUS
 10
189.7338093691
 20
1077.3865285415
 11
189.7338093691
 21
1077.8865285415
  0
LINE
  5
26F
100
AcDbEntity
  8
KONSTRUKTIONSELEMENTE
100
AcDbLine
 62
7
  6
CONTINUOUS
 10
197.8338093691
 20
1077.3865285415
 11
197.8338093691
 21
1077.8865285415
  0
LINE
  5
270
100
AcDbEntity
  8
BEZUGSACHSEN
100
AcDbLine
 62
7
  6
CONTINUOUS
 10
197.8338093691
 20
1077.3865285415
 11
197.8338093691
 21
1077.8865285415
  0
LINE
  5
271
100
AcDbEntity
  8
KONSTRUKTIONSELEMENTE
100
AcDbLine
 62
7
  6
CONTINUOUS
 10
201.3411801697
 20
1107.3865285415
 11
201.3411801697
 21
1107.5865285415
  0
LINE
  5
272
100
AcDbEntity
  8
0
100
AcDbLine
 62
7
  6
CONTINUOUS
 10
508.6338093691
 20
1152.3865285415
 11
483.6338093691
 21
1152.3865285415
  0
LINE
  5
273
100
AcDbEntity
  8
0
100
AcDbLine
 62
7
  6
CONTINUOUS
 10
373.4338093691
 20
1152.3865285415
 11
371.5338093691
 21
1152.3865285415
  0
LINE
  5
274
100
AcDbEntity
  8
0
100
AcDbLine
 62
7
  6
CONTINUOUS
 10
248.5338093691
 20
1152.3865285415
 11
246.6338093691
 21
1152.3865285415
  0
LINE
  5
275
100
AcDbEntity
  8
BEZUGSACHSEN
100
AcDbLine
 62
7
  6
CONTINUOUS
 10
208.5338093691
 20
987.3865285415
 11
208.5338093691
 21
922.3865285415
  0
LINE
  5
276
100
AcDbEntity
  8
BEZUGSACHSEN
100
AcDbLine
 62
7
  6
CONTINUOUS
 10
210.8831742745
 20
1077.8865285415
 11
210.8831742745
 21
1104.0371636361
  0
LINE
  5
277
100
AcDbEntity
  8
KONSTRUKTIONSELEMENTE
100
AcDbLine
 62
7
  6
CONTINUOUS
 10
211.1640592184
 20
1107.3865285415
 11
211.1640592184
 21
1107.5865285415
  0
LINE
  5
278
100
AcDbEntity
  8
KONSTRUKTIONSELEMENTE
100
AcDbLine
 62
7
  6
CONTINUOUS
 10
211.3982815752
 20
1107.3865285415
 11
211.3982815752
 21
1107.5865285415
  0
LINE
  5
279
100
AcDbEntity
  8
KONSTRUKTIONSELEMENTE
100
AcDbLine
 62
7
  6
CONTINUOUS
 10
212.3742080246
 20
1107.3865285415
 11
212.3742080246
 21
1107.5865285415
  0
LINE
  5
27A
100
AcDbEntity
  8
KONSTRUKTIONSELEMENTE
100
AcDbLine
 62
7
  6
CONTINUOUS
 10
212.6474675153
 20
1107.3865285415
 11
212.6474675153
 21
1107.5865285415
  0
LINE
  5
27B
100
AcDbEntity
  8
KONSTRUKTIONSELEMENTE
100
AcDbLine
 62
7
  6
CONTINUOUS
 10
213.7531906193
 20
1107.3865285415
 11
213.7531906193
 21
1107.5865285415
  0
LINE
  5
27C
100
AcDbEntity
  8
KONSTRUKTIONSELEMENTE
100
AcDbLine
 62
7
  6
CONTINUOUS
 10
214.590055942
 20
1107.3865285415
 11
214.590055942
 21
1107.5865285415
  0
LINE
  5
27D
100
AcDbEntity
  8
KONSTRUKTIONSELEMENTE
100
AcDbLine
 62
7
  6
CONTINUOUS
 10
215.3791842558
 20
1107.3865285415
 11
215.3791842558
 21
1107.5865285415
  0
LINE
  5
27E
100
AcDbEntity
  8
KONSTRUKTIONSELEMENTE
100
AcDbLine
 62
7
  6
CONTINUOUS
 10
215.8734458429
 20
1107.3865285415
 11
215.8734458429
 21
1107.5865285415
  0
LINE
  5
27F
100
AcDbEntity
  8
KONSTRUKTIONSELEMENTE
100
AcDbLine
 62
7
  6
CONTINUOUS
 10
216.3199704363
 20
1107.3865285415
 11
216.3199704363
 21
1107.5865285415
  0
LINE
  5
280
100
AcDbEntity
  8
KONSTRUKTIONSELEMENTE
100
AcDbLine
 62
7
  6
CONTINUOUS
 10
216.4716282879
 20
1107.3865285415
 11
216.4716282879
 21
1107.5865285415
  0
LINE
  5
281
100
AcDbEntity
  8
KONSTRUKTIONSELEMENTE
100
AcDbLine
 62
7
  6
CONTINUOUS
 10
219.148545066
 20
1107.3865285415
 11
219.148545066
 21
1107.5865285415
  0
LINE
  5
282
100
AcDbEntity
  8
KONSTRUKTIONSELEMENTE
100
AcDbLine
 62
7
  6
CONTINUOUS
 10
223.5846124346
 20
1107.3865285415
 11
223.5846124346
 21
1107.5865285415
  0
LINE
  5
283
100
AcDbEntity
  8
KONSTRUKTIONSELEMENTE
100
AcDbLine
 62
7
  6
CONTINUOUS
 10
224.4106323264
 20
1107.3865285415
 11
224.4106323264
 21
1107.5865285415
  0
LINE
  5
284
100
AcDbEntity
  8
KONSTRUKTIONSELEMENTE
100
AcDbLine
 62
7
  6
CONTINUOUS
 10
224.9536531439
 20
1107.3865285415
 11
224.9536531439
 21
1107.5865285415
  0
LINE
  5
285
100
AcDbEntity
  8
KONSTRUKTIONSELEMENTE
100
AcDbLine
 62
7
  6
CONTINUOUS
 10
225.3003509398
 20
1107.3865285415
 11
225.3003509398
 21
1107.5865285415
  0
LINE
  5
286
100
AcDbEntity
  8
0
100
AcDbLine
 62
7
  6
CONTINUOUS
 10
171.4338093691
 20
1193.8865285415
 11
128.4338093691
 21
1193.8865285415
  0
LINE
  5
287
100
AcDbEntity
  8
0
100
AcDbLine
 62
7
  6
CONTINUOUS
 10
448.6338093691
 20
1193.8865285415
 11
483.6338093691
 21
1193.8865285415
  0
LINE
  5
288
100
AcDbEntity
  8
BEZUGSACHSEN
100
AcDbLine
 62
7
  6
CONTINUOUS
 10
430.8350795583
 20
1104.0371636361
 11
425.0338093691
 21
1107.3865285415
  0
LINE
  5
289
100
AcDbEntity
  8
KONSTRUKTIONSELEMENTE
100
AcDbLine
 62
7
  6
CONTINUOUS
 10
238.4744798835
 20
1107.3865285415
 11
238.4744798835
 21
1107.5865285415
  0
LINE
  5
28A
100
AcDbEntity
  8
KONSTRUKTIONSELEMENTE
100
AcDbLine
 62
7
  6
CONTINUOUS
 10
239.5638588728
 20
1107.3865285415
 11
239.5638588728
 21
1107.5865285415
  0
LINE
  5
28B
100
AcDbEntity
  8
KONSTRUKTIONSELEMENTE
100
AcDbLine
 62
7
  6
CONTINUOUS
 10
242.1057417959
 20
1107.3865285415
 11
242.1057417959
 21
1107.5865285415
  0
LINE
  5
28C
100
AcDbEntity
  8
KONSTRUKTIONSELEMENTE
100
AcDbLine
 62
7
  6
CONTINUOUS
 10
243.5582498854
 20
1107.3865285415
 11
243.5582498854
 21
1107.5865285415
  0
LINE
  5
28D
100
AcDbEntity
  8
KONSTRUKTIONSELEMENTE
100
AcDbLine
 62
7
  6
CONTINUOUS
 10
246.1001328086
 20
1107.3865285415
 11
246.1001328086
 21
1107.5865285415
  0
LINE
  5
28E
100
AcDbEntity
  8
RUNDUNGEN
100
AcDbLine
 62
7
  6
CONTINUOUS
 10
246.6338093691
 20
1127.9282841743
 11
246.6338093691
 21
1354.8934233095
  0
LINE
  5
28F
100
AcDbEntity
  8
KONSTRUKTIONSELEMENTE
100
AcDbLine
 62
7
  6
CONTINUOUS
 10
247.1895117979
 20
1107.3865285415
 11
247.1895117979
 21
1107.5865285415
  0
LINE
  5
290
100
AcDbEntity
  8
0
100
AcDbLine
 62
7
  6
CONTINUOUS
 10
248.5338093691
 20
1273.0568183221
 11
248.5338093691
 21
1107.5865285415
  0
LINE
  5
291
100
AcDbEntity
  8
KONSTRUKTIONSELEMENTE
100
AcDbLine
 62
7
  6
CONTINUOUS
 10
250.9203345402
 20
1107.3865285415
 11
250.9203345402
 21
1107.5865285415
  0
LINE
  5
292
100
AcDbEntity
  8
KONSTRUKTIONSELEMENTE
100
AcDbLine
 62
7
  6
CONTINUOUS
 10
250.9500261071
 20
1107.3865285415
 11
250.9500261071
 21
1107.5865285415
  0
LINE
  5
293
100
AcDbEntity
  8
KONSTRUKTIONSELEMENTE
100
AcDbLine
 62
7
  6
CONTINUOUS
 10
251.5952527474
 20
1107.3865285415
 11
251.5952527474
 21
1107.5865285415
  0
LINE
  5
294
100
AcDbEntity
  8
KONSTRUKTIONSELEMENTE
100
AcDbLine
 62
7
  6
CONTINUOUS
 10
253.4024252367
 20
1107.3865285415
 11
253.4024252367
 21
1107.5865285415
  0
LINE
  5
295
100
AcDbEntity
  8
KONSTRUKTIONSELEMENTE
100
AcDbLine
 62
7
  6
CONTINUOUS
 10
253.5098390694
 20
1107.3865285415
 11
253.5098390694
 21
1107.5865285415
  0
LINE
  5
296
100
AcDbEntity
  8
KONSTRUKTIONSELEMENTE
100
AcDbLine
 62
7
  6
CONTINUOUS
 10
253.8113298173
 20
1107.3865285415
 11
253.8113298173
 21
1107.5865285415
  0
LINE
  5
297
100
AcDbEntity
  8
BEZUGSACHSEN
100
AcDbLine
 62
7
  6
CONTINUOUS
 10
254.1844444637
 20
1077.8865285415
 11
254.1844444637
 21
1104.0371636361
  0
LINE
  5
298
100
AcDbEntity
  8
KONSTRUKTIONSELEMENTE
100
AcDbLine
 62
7
  6
CONTINUOUS
 10
254.5367780506
 20
1107.3865285415
 11
254.5367780506
 21
1107.5865285415
  0
LINE
  5
299
100
AcDbEntity
  8
KONSTRUKTIONSELEMENTE
100
AcDbLine
 62
7
  6
CONTINUOUS
 10
255.2264218281
 20
1107.3865285415
 11
255.2264218281
 21
1107.5865285415
  0
LINE
  5
29A
100
AcDbEntity
  8
KONSTRUKTIONSELEMENTE
100
AcDbLine
 62
7
  6
CONTINUOUS
 10
256.3221210957
 20
1107.3865285415
 11
256.3221210957
 21
1107.5865285415
  0
LINE
  5
29B
100
AcDbEntity
  8
BEZUGSACHSEN
100
AcDbLine
 62
7
  6
CONTINUOUS
 10
256.5338093691
 20
987.3865285415
 11
256.5338093691
 21
922.3865285415
  0
LINE
  5
29C
100
AcDbEntity
  8
KONSTRUKTIONSELEMENTE
100
AcDbLine
 62
7
  6
CONTINUOUS
 10
256.9580578826
 20
1107.3865285415
 11
256.9580578826
 21
1107.5865285415
  0
LINE
  5
29D
100
AcDbEntity
  8
KONSTRUKTIONSELEMENTE
100
AcDbLine
 62
7
  6
CONTINUOUS
 10
257.9821483501
 20
1107.3865285415
 11
257.9821483501
 21
1107.5865285415
  0
LINE
  5
29E
100
AcDbEntity
  8
BEZUGSACHSEN
100
AcDbLine
 62
7
  6
CONTINUOUS
 10
508.3350795583
 20
1104.0371636361
 11
502.5338093691
 21
1107.3865285415
  0
LINE
  5
29F
100
AcDbEntity
  8
KONSTRUKTIONSELEMENTE
100
AcDbLine
 62
7
  6
CONTINUOUS
 10
258.5464757787
 20
1107.3865285415
 11
258.5464757787
 21
1107.5865285415
  0
LINE
  5
2A0
100
AcDbEntity
  8
KONSTRUKTIONSELEMENTE
100
AcDbLine
 62
7
  6
CONTINUOUS
 10
258.7226502333
 20
1107.3865285415
 11
258.7226502333
 21
1107.5865285415
  0
LINE
  5
2A1
100
AcDbEntity
  8
KONSTRUKTIONSELEMENTE
100
AcDbLine
 62
7
  6
CONTINUOUS
 10
258.9704336366
 20
1107.3865285415
 11
258.9704336366
 21
1107.5865285415
  0
LINE
  5
2A2
100
AcDbEntity
  8
KONSTRUKTIONSELEMENTE
100
AcDbLine
 62
7
  6
CONTINUOUS
 10
259.6600773399
 20
1107.3865285415
 11
259.6600773399
 21
1107.5865285415
  0
LINE
  5
2A3
100
AcDbEntity
  8
KONSTRUKTIONSELEMENTE
100
AcDbLine
 62
7
  6
CONTINUOUS
 10
260.5437979398
 20
1107.3865285415
 11
260.5437979398
 21
1107.5865285415
  0
LINE
  5
2A4
100
AcDbEntity
  8
KONSTRUKTIONSELEMENTE
100
AcDbLine
 62
7
  6
CONTINUOUS
 10
261.1797347268
 20
1107.3865285415
 11
261.1797347268
 21
1107.5865285415
  0
LINE
  5
2A5
100
AcDbEntity
  8
KONSTRUKTIONSELEMENTE
100
AcDbLine
 62
7
  6
CONTINUOUS
 10
262.2038250814
 20
1107.3865285415
 11
262.2038250814
 21
1107.5865285415
  0
LINE
  5
2A6
100
AcDbEntity
  8
KONSTRUKTIONSELEMENTE
100
AcDbLine
 62
7
  6
CONTINUOUS
 10
262.786054952
 20
1107.3865285415
 11
262.786054952
 21
1107.5865285415
  0
LINE
  5
2A7
100
AcDbEntity
  8
KONSTRUKTIONSELEMENTE
100
AcDbLine
 62
7
  6
CONTINUOUS
 10
263.3324803483
 20
1107.3865285415
 11
263.3324803483
 21
1107.5865285415
  0
LINE
  5
2A8
100
AcDbEntity
  8
KONSTRUKTIONSELEMENTE
100
AcDbLine
 62
7
  6
CONTINUOUS
 10
263.4549478866
 20
1107.3865285415
 11
263.4549478866
 21
1107.5865285415
  0
LINE
  5
2A9
100
AcDbEntity
  8
KONSTRUKTIONSELEMENTE
100
AcDbLine
 62
7
  6
CONTINUOUS
 10
267.2338093691
 20
1077.3865285415
 11
267.2338093691
 21
1077.8865285415
  0
LINE
  5
2AA
100
AcDbEntity
  8
BEZUGSACHSEN
100
AcDbLine
 62
7
  6
CONTINUOUS
 10
267.2338093691
 20
1077.3865285415
 11
267.2338093691
 21
1077.8865285415
  0
LINE
  5
2AB
100
AcDbEntity
  8
BEZUGSACHSEN
100
AcDbLine
 62
7
  6
CONTINUOUS
 10
275.8350795583
 20
1077.8865285415
 11
275.8350795583
 21
1104.0371636361
  0
LINE
  5
2AC
100
AcDbEntity
  8
0
100
AcDbLine
 62
7
  6
CONTINUOUS
 10
508.6338093691
 20
1235.3865285415
 11
483.6338093691
 21
1235.3865285415
  0
LINE
  5
2AD
100
AcDbEntity
  8
0
100
AcDbLine
 62
7
  6
CONTINUOUS
 10
373.4338093691
 20
1235.3865285415
 11
371.5338093691
 21
1235.3865285415
  0
LINE
  5
2AE
100
AcDbEntity
  8
0
100
AcDbLine
 62
7
  6
CONTINUOUS
 10
248.5338093691
 20
1235.3865285415
 11
246.6338093691
 21
1235.3865285415
  0
LINE
  5
2AF
100
AcDbEntity
  8
0
100
AcDbLine
 62
7
  6
CONTINUOUS
 10
171.4338093691
 20
1246.3865285415
 11
128.4338093691
 21
1246.3865285415
  0
LINE
  5
2B0
100
AcDbEntity
  8
0
100
AcDbLine
 62
7
  6
CONTINUOUS
 10
448.6338093691
 20
1257.3865285415
 11
483.6338093691
 21
1257.3865285415
  0
LINE
  5
2B1
100
AcDbEntity
  8
0
100
AcDbLine
 62
7
  6
CONTINUOUS
 10
324.6625482074
 20
1291.3865285415
 11
295.4050705308
 21
1291.3865285415
  0
LINE
  5
2B2
100
AcDbEntity
  8
BEZUGSACHSEN
100
AcDbLine
 62
7
  6
CONTINUOUS
 10
344.2325391799
 20
1077.8865285415
 11
344.2325391799
 21
1104.0371636361
  0
LINE
  5
2B3
100
AcDbEntity
  8
KONSTRUKTIONSELEMENTE
100
AcDbLine
 62
7
  6
CONTINUOUS
 10
352.8338093691
 20
1077.3865285415
 11
352.8338093691
 21
1077.8865285415
  0
LINE
  5
2B4
100
AcDbEntity
  8
BEZUGSACHSEN
100
AcDbLine
 62
7
  6
CONTINUOUS
 10
352.8338093691
 20
1077.3865285415
 11
352.8338093691
 21
1077.8865285415
  0
LINE
  5
2B5
100
AcDbEntity
  8
KONSTRUKTIONSELEMENTE
100
AcDbLine
 62
7
  6
CONTINUOUS
 10
356.3411801697
 20
1107.3865285415
 11
356.3411801697
 21
1107.5865285415
  0
LINE
  5
2B6
100
AcDbEntity
  8
BEZUGSACHSEN
100
AcDbLine
 62
7
  6
CONTINUOUS
 10
363.5338093691
 20
987.3865285415
 11
363.5338093691
 21
922.3865285415
  0
LINE
  5
2B7
100
AcDbEntity
  8
BEZUGSACHSEN
100
AcDbLine
 62
7
  6
CONTINUOUS
 10
365.8831742745
 20
1077.8865285415
 11
365.8831742745
 21
1104.0371636361
  0
LINE
  5
2B8
100
AcDbEntity
  8
KONSTRUKTIONSELEMENTE
100
AcDbLine
 62
7
  6
CONTINUOUS
 10
366.1640592184
 20
1107.3865285415
 11
366.1640592184
 21
1107.5865285415
  0
LINE
  5
2B9
100
AcDbEntity
  8
KONSTRUKTIONSELEMENTE
100
AcDbLine
 62
7
  6
CONTINUOUS
 10
366.3982815752
 20
1107.3865285415
 11
366.3982815752
 21
1107.5865285415
  0
LINE
  5
2BA
100
AcDbEntity
  8
KONSTRUKTIONSELEMENTE
100
AcDbLine
 62
7
  6
CONTINUOUS
 10
367.3742080246
 20
1107.3865285415
 11
367.3742080246
 21
1107.5865285415
  0
LINE
  5
2BB
100
AcDbEntity
  8
KONSTRUKTIONSELEMENTE
100
AcDbLine
 62
7
  6
CONTINUOUS
 10
367.6474675153
 20
1107.3865285415
 11
367.6474675153
 21
1107.5865285415
  0
LINE
  5
2BC
100
AcDbEntity
  8
KONSTRUKTIONSELEMENTE
100
AcDbLine
 62
7
  6
CONTINUOUS
 10
368.7531906193
 20
1107.3865285415
 11
368.7531906193
 21
1107.5865285415
  0
LINE
  5
2BD
100
AcDbEntity
  8
BEZUGSACHSEN
100
AcDbLine
 62
7
  6
CONTINUOUS
 10
111.7325391799
 20
1104.0371636361
 11
117.5338093691
 21
1107.3865285415
  0
LINE
  5
2BE
100
AcDbEntity
  8
KONSTRUKTIONSELEMENTE
100
AcDbLine
 62
7
  6
CONTINUOUS
 10
369.590055942
 20
1107.3865285415
 11
369.590055942
 21
1107.5865285415
  0
LINE
  5
2BF
100
AcDbEntity
  8
KONSTRUKTIONSELEMENTE
100
AcDbLine
 62
7
  6
CONTINUOUS
 10
370.3791842558
 20
1107.3865285415
 11
370.3791842558
 21
1107.5865285415
  0
LINE
  5
2C0
100
AcDbEntity
  8
KONSTRUKTIONSELEMENTE
100
AcDbLine
 62
7
  6
CONTINUOUS
 10
370.8734458429
 20
1107.3865285415
 11
370.8734458429
 21
1107.5865285415
  0
LINE
  5
2C1
100
AcDbEntity
  8
KONSTRUKTIONSELEMENTE
100
AcDbLine
 62
7
  6
CONTINUOUS
 10
371.3199704363
 20
1107.3865285415
 11
371.3199704363
 21
1107.5865285415
  0
LINE
  5
2C2
100
AcDbEntity
  8
KONSTRUKTIONSELEMENTE
100
AcDbLine
 62
7
  6
CONTINUOUS
 10
371.4716282879
 20
1107.3865285415
 11
371.4716282879
 21
1107.5865285415
  0
LINE
  5
2C3
100
AcDbEntity
  8
0
100
AcDbLine
 62
7
  6
CONTINUOUS
 10
371.5338093691
 20
1107.5865285415
 11
371.5338093691
 21
1273.0568183221
  0
LINE
  5
2C4
100
AcDbEntity
  8
RUNDUNGEN
100
AcDbLine
 62
7
  6
CONTINUOUS
 10
373.4338093691
 20
1354.8934233095
 11
373.4338093691
 21
1127.9282841743
  0
LINE
  5
2C5
100
AcDbEntity
  8
KONSTRUKTIONSELEMENTE
100
AcDbLine
 62
7
  6
CONTINUOUS
 10
374.148545066
 20
1107.3865285415
 11
374.148545066
 21
1107.5865285415
  0
LINE
  5
2C6
100
AcDbEntity
  8
KONSTRUKTIONSELEMENTE
100
AcDbLine
 62
7
  6
CONTINUOUS
 10
378.5846124346
 20
1107.3865285415
 11
378.5846124346
 21
1107.5865285415
  0
LINE
  5
2C7
100
AcDbEntity
  8
KONSTRUKTIONSELEMENTE
100
AcDbLine
 62
7
  6
CONTINUOUS
 10
379.4106323264
 20
1107.3865285415
 11
379.4106323264
 21
1107.5865285415
  0
LINE
  5
2C8
100
AcDbEntity
  8
KONSTRUKTIONSELEMENTE
100
AcDbLine
 62
7
  6
CONTINUOUS
 10
379.9536531439
 20
1107.3865285415
 11
379.9536531439
 21
1107.5865285415
  0
LINE
  5
2C9
100
AcDbEntity
  8
KONSTRUKTIONSELEMENTE
100
AcDbLine
 62
7
  6
CONTINUOUS
 10
380.3003509398
 20
1107.3865285415
 11
380.3003509398
 21
1107.5865285415
  0
LINE
  5
2CA
100
AcDbEntity
  8
KONSTRUKTIONSELEMENTE
100
AcDbLine
 62
7
  6
CONTINUOUS
 10
393.4744798835
 20
1107.3865285415
 11
393.4744798835
 21
1107.5865285415
  0
LINE
  5
2CB
100
AcDbEntity
  8
KONSTRUKTIONSELEMENTE
100
AcDbLine
 62
7
  6
CONTINUOUS
 10
394.5638588728
 20
1107.3865285415
 11
394.5638588728
 21
1107.5865285415
  0
LINE
  5
2CC
100
AcDbEntity
  8
KONSTRUKTIONSELEMENTE
100
AcDbLine
 62
7
  6
CONTINUOUS
 10
397.1057417959
 20
1107.3865285415
 11
397.1057417959
 21
1107.5865285415
  0
LINE
  5
2CD
100
AcDbEntity
  8
KONSTRUKTIONSELEMENTE
100
AcDbLine
 62
7
  6
CONTINUOUS
 10
398.5582498854
 20
1107.3865285415
 11
398.5582498854
 21
1107.5865285415
  0
LINE
  5
2CE
100
AcDbEntity
  8
KONSTRUKTIONSELEMENTE
100
AcDbLine
 62
7
  6
CONTINUOUS
 10
401.1001328086
 20
1107.3865285415
 11
401.1001328086
 21
1107.5865285415
  0
LINE
  5
2CF
100
AcDbEntity
  8
KONSTRUKTIONSELEMENTE
100
AcDbLine
 62
7
  6
CONTINUOUS
 10
402.1895117979
 20
1107.3865285415
 11
402.1895117979
 21
1107.5865285415
  0
LINE
  5
2D0
100
AcDbEntity
  8
KONSTRUKTIONSELEMENTE
100
AcDbLine
 62
7
  6
CONTINUOUS
 10
405.9203345402
 20
1107.3865285415
 11
405.9203345402
 21
1107.5865285415
  0
LINE
  5
2D1
100
AcDbEntity
  8
KONSTRUKTIONSELEMENTE
100
AcDbLine
 62
7
  6
CONTINUOUS
 10
405.9500261071
 20
1107.3865285415
 11
405.9500261071
 21
1107.5865285415
  0
LINE
  5
2D2
100
AcDbEntity
  8
KONSTRUKTIONSELEMENTE
100
AcDbLine
 62
7
  6
CONTINUOUS
 10
406.5952527474
 20
1107.3865285415
 11
406.5952527474
 21
1107.5865285415
  0
LINE
  5
2D3
100
AcDbEntity
  8
KONSTRUKTIONSELEMENTE
100
AcDbLine
 62
7
  6
CONTINUOUS
 10
408.4024252367
 20
1107.3865285415
 11
408.4024252367
 21
1107.5865285415
  0
LINE
  5
2D4
100
AcDbEntity
  8
KONSTRUKTIONSELEMENTE
100
AcDbLine
 62
7
  6
CONTINUOUS
 10
408.5098390694
 20
1107.3865285415
 11
408.5098390694
 21
1107.5865285415
  0
LINE
  5
2D5
100
AcDbEntity
  8
KONSTRUKTIONSELEMENTE
100
AcDbLine
 62
7
  6
CONTINUOUS
 10
408.8113298173
 20
1107.3865285415
 11
408.8113298173
 21
1107.5865285415
  0
LINE
  5
2D6
100
AcDbEntity
  8
BEZUGSACHSEN
100
AcDbLine
 62
7
  6
CONTINUOUS
 10
409.1844444637
 20
1077.8865285415
 11
409.1844444637
 21
1104.0371636361
  0
LINE
  5
2D7
100
AcDbEntity
  8
KONSTRUKTIONSELEMENTE
100
AcDbLine
 62
7
  6
CONTINUOUS
 10
409.5367780506
 20
1107.3865285415
 11
409.5367780506
 21
1107.5865285415
  0
LINE
  5
2D8
100
AcDbEntity
  8
KONSTRUKTIONSELEMENTE
100
AcDbLine
 62
7
  6
CONTINUOUS
 10
410.2264218281
 20
1107.3865285415
 11
410.2264218281
 21
1107.5865285415
  0
LINE
  5
2D9
100
AcDbEntity
  8
KONSTRUKTIONSELEMENTE
100
AcDbLine
 62
7
  6
CONTINUOUS
 10
411.3221210957
 20
1107.3865285415
 11
411.3221210957
 21
1107.5865285415
  0
LINE
  5
2DA
100
AcDbEntity
  8
BEZUGSACHSEN
100
AcDbLine
 62
7
  6
CONTINUOUS
 10
411.5338093691
 20
987.3865285415
 11
411.5338093691
 21
922.3865285415
  0
LINE
  5
2DB
100
AcDbEntity
  8
KONSTRUKTIONSELEMENTE
100
AcDbLine
 62
7
  6
CONTINUOUS
 10
411.9580578826
 20
1107.3865285415
 11
411.9580578826
 21
1107.5865285415
  0
LINE
  5
2DC
100
AcDbEntity
  8
KONSTRUKTIONSELEMENTE
100
AcDbLine
 62
7
  6
CONTINUOUS
 10
412.9821483501
 20
1107.3865285415
 11
412.9821483501
 21
1107.5865285415
  0
LINE
  5
2DD
100
AcDbEntity
  8
KONSTRUKTIONSELEMENTE
100
AcDbLine
 62
7
  6
CONTINUOUS
 10
413.5464757787
 20
1107.3865285415
 11
413.5464757787
 21
1107.5865285415
  0
LINE
  5
2DE
100
AcDbEntity
  8
KONSTRUKTIONSELEMENTE
100
AcDbLine
 62
7
  6
CONTINUOUS
 10
413.7226502333
 20
1107.3865285415
 11
413.7226502333
 21
1107.5865285415
  0
LINE
  5
2DF
100
AcDbEntity
  8
KONSTRUKTIONSELEMENTE
100
AcDbLine
 62
7
  6
CONTINUOUS
 10
413.9704336366
 20
1107.3865285415
 11
413.9704336366
 21
1107.5865285415
  0
LINE
  5
2E0
100
AcDbEntity
  8
KONSTRUKTIONSELEMENTE
100
AcDbLine
 62
7
  6
CONTINUOUS
 10
414.6600773399
 20
1107.3865285415
 11
414.6600773399
 21
1107.5865285415
  0
LINE
  5
2E1
100
AcDbEntity
  8
KONSTRUKTIONSELEMENTE
100
AcDbLine
 62
7
  6
CONTINUOUS
 10
415.5437979398
 20
1107.3865285415
 11
415.5437979398
 21
1107.5865285415
  0
LINE
  5
2E2
100
AcDbEntity
  8
KONSTRUKTIONSELEMENTE
100
AcDbLine
 62
7
  6
CONTINUOUS
 10
416.1797347268
 20
1107.3865285415
 11
416.1797347268
 21
1107.5865285415
  0
LINE
  5
2E3
100
AcDbEntity
  8
KONSTRUKTIONSELEMENTE
100
AcDbLine
 62
7
  6
CONTINUOUS
 10
417.2038250814
 20
1107.3865285415
 11
417.2038250814
 21
1107.5865285415
  0
LINE
  5
2E4
100
AcDbEntity
  8
KONSTRUKTIONSELEMENTE
100
AcDbLine
 62
7
  6
CONTINUOUS
 10
417.786054952
 20
1107.3865285415
 11
417.786054952
 21
1107.5865285415
  0
LINE
  5
2E5
100
AcDbEntity
  8
KONSTRUKTIONSELEMENTE
100
AcDbLine
 62
7
  6
CONTINUOUS
 10
418.3324803483
 20
1107.3865285415
 11
418.3324803483
 21
1107.5865285415
  0
LINE
  5
2E6
100
AcDbEntity
  8
KONSTRUKTIONSELEMENTE
100
AcDbLine
 62
7
  6
CONTINUOUS
 10
418.4549478866
 20
1107.3865285415
 11
418.4549478866
 21
1107.5865285415
  0
LINE
  5
2E7
100
AcDbEntity
  8
KONSTRUKTIONSELEMENTE
100
AcDbLine
 62
7
  6
CONTINUOUS
 10
422.2338093691
 20
1077.3865285415
 11
422.2338093691
 21
1077.8865285415
  0
LINE
  5
2E8
100
AcDbEntity
  8
BEZUGSACHSEN
100
AcDbLine
 62
7
  6
CONTINUOUS
 10
422.2338093691
 20
1077.3865285415
 11
422.2338093691
 21
1077.8865285415
  0
LINE
  5
2E9
100
AcDbEntity
  8
BEZUGSACHSEN
100
AcDbLine
 62
7
  6
CONTINUOUS
 10
189.2325391799
 20
1104.0371636361
 11
195.0338093691
 21
1107.3865285415
  0
LINE
  5
2EA
100
AcDbEntity
  8
BEZUGSACHSEN
100
AcDbLine
 62
7
  6
CONTINUOUS
 10
430.3338093691
 20
1077.3865285415
 11
430.3338093691
 21
1077.8865285415
  0
LINE
  5
2EB
100
AcDbEntity
  8
KONSTRUKTIONSELEMENTE
100
AcDbLine
 62
7
  6
CONTINUOUS
 10
430.3338093691
 20
1077.3865285415
 11
430.3338093691
 21
1077.8865285415
  0
LINE
  5
2EC
100
AcDbEntity
  8
BEZUGSACHSEN
100
AcDbLine
 62
7
  6
CONTINUOUS
 10
430.8350795583
 20
1077.8865285415
 11
430.8350795583
 21
1104.0371636361
  0
LINE
  5
2ED
100
AcDbEntity
  8
KONSTRUKTIONSELEMENTE
100
AcDbLine
 62
7
  6
CONTINUOUS
 10
433.8411801697
 20
1107.3865285415
 11
433.8411801697
 21
1107.5865285415
  0
LINE
  5
2EE
100
AcDbEntity
  8
BEZUGSACHSEN
100
AcDbLine
 62
7
  6
CONTINUOUS
 10
441.0338093691
 20
987.3865285415
 11
441.0338093691
 21
922.3865285415
  0
LINE
  5
2EF
100
AcDbEntity
  8
BEZUGSACHSEN
100
AcDbLine
 62
7
  6
CONTINUOUS
 10
443.3831742745
 20
1077.8865285415
 11
443.3831742745
 21
1104.0371636361
  0
LINE
  5
2F0
100
AcDbEntity
  8
KONSTRUKTIONSELEMENTE
100
AcDbLine
 62
7
  6
CONTINUOUS
 10
443.6640592184
 20
1107.3865285415
 11
443.6640592184
 21
1107.5865285415
  0
LINE
  5
2F1
100
AcDbEntity
  8
KONSTRUKTIONSELEMENTE
100
AcDbLine
 62
7
  6
CONTINUOUS
 10
443.8982815752
 20
1107.3865285415
 11
443.8982815752
 21
1107.5865285415
  0
LINE
  5
2F2
100
AcDbEntity
  8
KONSTRUKTIONSELEMENTE
100
AcDbLine
 62
7
  6
CONTINUOUS
 10
444.8742080246
 20
1107.3865285415
 11
444.8742080246
 21
1107.5865285415
  0
LINE
  5
2F3
100
AcDbEntity
  8
KONSTRUKTIONSELEMENTE
100
AcDbLine
 62
7
  6
CONTINUOUS
 10
445.1474675153
 20
1107.3865285415
 11
445.1474675153
 21
1107.5865285415
  0
LINE
  5
2F4
100
AcDbEntity
  8
KONSTRUKTIONSELEMENTE
100
AcDbLine
 62
7
  6
CONTINUOUS
 10
446.2531906193
 20
1107.3865285415
 11
446.2531906193
 21
1107.5865285415
  0
LINE
  5
2F5
100
AcDbEntity
  8
KONSTRUKTIONSELEMENTE
100
AcDbLine
 62
7
  6
CONTINUOUS
 10
447.090055942
 20
1107.3865285415
 11
447.090055942
 21
1107.5865285415
  0
LINE
  5
2F6
100
AcDbEntity
  8
KONSTRUKTIONSELEMENTE
100
AcDbLine
 62
7
  6
CONTINUOUS
 10
447.8791842558
 20
1107.3865285415
 11
447.8791842558
 21
1107.5865285415
  0
LINE
  5
2F7
100
AcDbEntity
  8
KONSTRUKTIONSELEMENTE
100
AcDbLine
 62
7
  6
CONTINUOUS
 10
448.3734458429
 20
1107.3865285415
 11
448.3734458429
 21
1107.5865285415
  0
LINE
  5
2F8
100
AcDbEntity
  8
0
100
AcDbLine
 62
7
  6
CONTINUOUS
 10
448.6338093691
 20
1258.073754685
 11
448.6338093691
 21
1127.9282841743
  0
LINE
  5
2F9
100
AcDbEntity
  8
RUNDUNGEN
100
AcDbLine
 62
7
  6
CONTINUOUS
 10
448.6338093691
 20
1127.9708254065
 11
448.6338093691
 21
1130.3865285415
  0
LINE
  5
2FA
100
AcDbEntity
  8
RUNDUNGEN
100
AcDbLine
 62
7
  6
CONTINUOUS
 10
448.6338093691
 20
1146.687256714
 11
448.6338093691
 21
1177.585800369
  0
LINE
  5
2FB
100
AcDbEntity
  8
RUNDUNGEN
100
AcDbLine
 62
7
  6
CONTINUOUS
 10
448.6338093691
 20
1210.0475040706
 11
448.6338093691
 21
1241.085800369
  0
LINE
  5
2FC
100
AcDbEntity
  8
RUNDUNGEN
100
AcDbLine
 62
7
  6
CONTINUOUS
 10
448.6338093691
 20
1257.3865285415
 11
448.6338093691
 21
1323.8863805916
  0
LINE
  5
2FD
100
AcDbEntity
  8
KONSTRUKTIONSELEMENTE
100
AcDbLine
 62
7
  6
CONTINUOUS
 10
448.8199704363
 20
1107.3865285415
 11
448.8199704363
 21
1107.5865285415
  0
LINE
  5
2FE
100
AcDbEntity
  8
KONSTRUKTIONSELEMENTE
100
AcDbLine
 62
7
  6
CONTINUOUS
 10
448.9716282879
 20
1107.3865285415
 11
448.9716282879
 21
1107.5865285415
  0
LINE
  5
2FF
100
AcDbEntity
  8
KONSTRUKTIONSELEMENTE
100
AcDbLine
 62
7
  6
CONTINUOUS
 10
451.648545066
 20
1107.3865285415
 11
451.648545066
 21
1107.5865285415
  0
LINE
  5
300
100
AcDbEntity
  8
KONSTRUKTIONSELEMENTE
100
AcDbLine
 62
7
  6
CONTINUOUS
 10
456.0846124346
 20
1107.3865285415
 11
456.0846124346
 21
1107.5865285415
  0
LINE
  5
301
100
AcDbEntity
  8
KONSTRUKTIONSELEMENTE
100
AcDbLine
 62
7
  6
CONTINUOUS
 10
456.9106323264
 20
1107.3865285415
 11
456.9106323264
 21
1107.5865285415
  0
LINE
  5
302
100
AcDbEntity
  8
KONSTRUKTIONSELEMENTE
100
AcDbLine
 62
7
  6
CONTINUOUS
 10
457.4536531439
 20
1107.3865285415
 11
457.4536531439
 21
1107.5865285415
  0
LINE
  5
303
100
AcDbEntity
  8
KONSTRUKTIONSELEMENTE
100
AcDbLine
 62
7
  6
CONTINUOUS
 10
457.8003509398
 20
1107.3865285415
 11
457.8003509398
 21
1107.5865285415
  0
LINE
  5
304
100
AcDbEntity
  8
KONSTRUKTIONSELEMENTE
100
AcDbLine
 62
7
  6
CONTINUOUS
 10
470.9744798835
 20
1107.3865285415
 11
470.9744798835
 21
1107.5865285415
  0
LINE
  5
305
100
AcDbEntity
  8
KONSTRUKTIONSELEMENTE
100
AcDbLine
 62
7
  6
CONTINUOUS
 10
472.0638588728
 20
1107.3865285415
 11
472.0638588728
 21
1107.5865285415
  0
LINE
  5
306
100
AcDbEntity
  8
KONSTRUKTIONSELEMENTE
100
AcDbLine
 62
7
  6
CONTINUOUS
 10
474.6057417959
 20
1107.3865285415
 11
474.6057417959
 21
1107.5865285415
  0
LINE
  5
307
100
AcDbEntity
  8
KONSTRUKTIONSELEMENTE
100
AcDbLine
 62
7
  6
CONTINUOUS
 10
476.0582498854
 20
1107.3865285415
 11
476.0582498854
 21
1107.5865285415
  0
LINE
  5
308
100
AcDbEntity
  8
KONSTRUKTIONSELEMENTE
100
AcDbLine
 62
7
  6
CONTINUOUS
 10
478.6001328086
 20
1107.3865285415
 11
478.6001328086
 21
1107.5865285415
  0
LINE
  5
309
100
AcDbEntity
  8
KONSTRUKTIONSELEMENTE
100
AcDbLine
 62
7
  6
CONTINUOUS
 10
479.6895117979
 20
1107.3865285415
 11
479.6895117979
 21
1107.5865285415
  0
LINE
  5
30A
100
AcDbEntity
  8
BEZUGSACHSEN
100
AcDbLine
 62
7
  6
CONTINUOUS
 10
179.0338093691
 20
922.3865285415
 11
174.0338093691
 21
917.3865285415
  0
LINE
  5
30B
100
AcDbEntity
  8
KONSTRUKTIONSELEMENTE
100
AcDbLine
 62
7
  6
CONTINUOUS
 10
483.4203345402
 20
1107.3865285415
 11
483.4203345402
 21
1107.5865285415
  0
LINE
  5
30C
100
AcDbEntity
  8
KONSTRUKTIONSELEMENTE
100
AcDbLine
 62
7
  6
CONTINUOUS
 10
483.4500261071
 20
1107.3865285415
 11
483.4500261071
 21
1107.5865285415
  0
LINE
  5
30D
100
AcDbEntity
  8
0
100
AcDbLine
 62
7
  6
CONTINUOUS
 10
483.6338093691
 20
1257.3865285415
 11
483.6338093691
 21
1130.3865285415
  0
LINE
  5
30E
100
AcDbEntity
  8
KONSTRUKTIONSELEMENTE
100
AcDbLine
 62
7
  6
CONTINUOUS
 10
484.0952527474
 20
1107.3865285415
 11
484.0952527474
 21
1107.5865285415
  0
LINE
  5
30F
100
AcDbEntity
  8
KONSTRUKTIONSELEMENTE
100
AcDbLine
 62
7
  6
CONTINUOUS
 10
485.9024252367
 20
1107.3865285415
 11
485.9024252367
 21
1107.5865285415
  0
LINE
  5
310
100
AcDbEntity
  8
KONSTRUKTIONSELEMENTE
100
AcDbLine
 62
7
  6
CONTINUOUS
 10
486.0098390694
 20
1107.3865285415
 11
486.0098390694
 21
1107.5865285415
  0
LINE
  5
311
100
AcDbEntity
  8
KONSTRUKTIONSELEMENTE
100
AcDbLine
 62
7
  6
CONTINUOUS
 10
486.3113298173
 20
1107.3865285415
 11
486.3113298173
 21
1107.5865285415
  0
LINE
  5
312
100
AcDbEntity
  8
BEZUGSACHSEN
100
AcDbLine
 62
7
  6
CONTINUOUS
 10
486.6844444637
 20
1077.8865285415
 11
486.6844444637
 21
1104.0371636361
  0
LINE
  5
313
100
AcDbEntity
  8
KONSTRUKTIONSELEMENTE
100
AcDbLine
 62
7
  6
CONTINUOUS
 10
487.0367780506
 20
1107.3865285415
 11
487.0367780506
 21
1107.5865285415
  0
LINE
  5
314
100
AcDbEntity
  8
KONSTRUKTIONSELEMENTE
100
AcDbLine
 62
7
  6
CONTINUOUS
 10
487.7264218281
 20
1107.3865285415
 11
487.7264218281
 21
1107.5865285415
  0
LINE
  5
315
100
AcDbEntity
  8
KONSTRUKTIONSELEMENTE
100
AcDbLine
 62
7
  6
CONTINUOUS
 10
488.8221210957
 20
1107.3865285415
 11
488.8221210957
 21
1107.5865285415
  0
LINE
  5
316
100
AcDbEntity
  8
BEZUGSACHSEN
100
AcDbLine
 62
7
  6
CONTINUOUS
 10
489.0338093691
 20
987.3865285415
 11
489.0338093691
 21
922.3865285415
  0
LINE
  5
317
100
AcDbEntity
  8
KONSTRUKTIONSELEMENTE
100
AcDbLine
 62
7
  6
CONTINUOUS
 10
489.4580578826
 20
1107.3865285415
 11
489.4580578826
 21
1107.5865285415
  0
LINE
  5
318
100
AcDbEntity
  8
KONSTRUKTIONSELEMENTE
100
AcDbLine
 62
7
  6
CONTINUOUS
 10
490.4821483501
 20
1107.3865285415
 11
490.4821483501
 21
1107.5865285415
  0
LINE
  5
319
100
AcDbEntity
  8
KONSTRUKTIONSELEMENTE
100
AcDbLine
 62
7
  6
CONTINUOUS
 10
491.0464757787
 20
1107.3865285415
 11
491.0464757787
 21
1107.5865285415
  0
LINE
  5
31A
100
AcDbEntity
  8
KONSTRUKTIONSELEMENTE
100
AcDbLine
 62
7
  6
CONTINUOUS
 10
491.2226502333
 20
1107.3865285415
 11
491.2226502333
 21
1107.5865285415
  0
LINE
  5
31B
100
AcDbEntity
  8
KONSTRUKTIONSELEMENTE
100
AcDbLine
 62
7
  6
CONTINUOUS
 10
491.4704336366
 20
1107.3865285415
 11
491.4704336366
 21
1107.5865285415
  0
LINE
  5
31C
100
AcDbEntity
  8
KONSTRUKTIONSELEMENTE
100
AcDbLine
 62
7
  6
CONTINUOUS
 10
492.1600773399
 20
1107.3865285415
 11
492.1600773399
 21
1107.5865285415
  0
LINE
  5
31D
100
AcDbEntity
  8
KONSTRUKTIONSELEMENTE
100
AcDbLine
 62
7
  6
CONTINUOUS
 10
493.0437979398
 20
1107.3865285415
 11
493.0437979398
 21
1107.5865285415
  0
LINE
  5
31E
100
AcDbEntity
  8
KONSTRUKTIONSELEMENTE
100
AcDbLine
 62
7
  6
CONTINUOUS
 10
493.6797347268
 20
1107.3865285415
 11
493.6797347268
 21
1107.5865285415
  0
LINE
  5
31F
100
AcDbEntity
  8
KONSTRUKTIONSELEMENTE
100
AcDbLine
 62
7
  6
CONTINUOUS
 10
494.7038250814
 20
1107.3865285415
 11
494.7038250814
 21
1107.5865285415
  0
LINE
  5
320
100
AcDbEntity
  8
KONSTRUKTIONSELEMENTE
100
AcDbLine
 62
7
  6
CONTINUOUS
 10
495.286054952
 20
1107.3865285415
 11
495.286054952
 21
1107.5865285415
  0
LINE
  5
321
100
AcDbEntity
  8
KONSTRUKTIONSELEMENTE
100
AcDbLine
 62
7
  6
CONTINUOUS
 10
495.8324803483
 20
1107.3865285415
 11
495.8324803483
 21
1107.5865285415
  0
LINE
  5
322
100
AcDbEntity
  8
KONSTRUKTIONSELEMENTE
100
AcDbLine
 62
7
  6
CONTINUOUS
 10
495.9549478866
 20
1107.3865285415
 11
495.9549478866
 21
1107.5865285415
  0
LINE
  5
323
100
AcDbEntity
  8
BEZUGSACHSEN
100
AcDbLine
 62
7
  6
CONTINUOUS
 10
499.7338093691
 20
1077.3865285415
 11
499.7338093691
 21
1077.8865285415
  0
LINE
  5
324
100
AcDbEntity
  8
KONSTRUKTIONSELEMENTE
100
AcDbLine
 62
7
  6
CONTINUOUS
 10
499.7338093691
 20
1077.3865285415
 11
499.7338093691
 21
1077.8865285415
  0
LINE
  5
325
100
AcDbEntity
  8
BEZUGSACHSEN
100
AcDbLine
 62
7
  6
CONTINUOUS
 10
344.2325391799
 20
1104.0371636361
 11
350.0338093691
 21
1107.3865285415
  0
LINE
  5
326
100
AcDbEntity
  8
BEZUGSACHSEN
100
AcDbLine
 62
7
  6
CONTINUOUS
 10
508.3350795583
 20
1077.8865285415
 11
508.3350795583
 21
1104.0371636361
  0
LINE
  5
327
100
AcDbEntity
  8
0
100
AcDbLine
 62
7
  6
CONTINUOUS
 10
508.6338093691
 20
1235.3865285415
 11
508.6338093691
 21
1152.3865285415
  0
LINE
  5
328
100
AcDbEntity
  8
0
100
AcDbLine
 62
7
  6
CONTINUOUS
 10
510.0338093691
 20
987.3865285415
 11
510.0338093691
 21
1077.3865285415
  0
LINE
  5
329
100
AcDbEntity
  8
BEZUGSACHSEN
100
AcDbLine
 62
7
  6
CONTINUOUS
 10
256.5338093691
 20
922.3865285415
 11
251.5338093691
 21
917.3865285415
  0
LINE
  5
32A
100
AcDbEntity
  8
BEZUGSACHSEN
100
AcDbLine
 62
7
  6
CONTINUOUS
 10
426.2838093691
 20
1106.664840705
 11
427.5338093691
 21
1107.3865285415
  0
LINE
  5
32B
100
AcDbEntity
  8
BEZUGSACHSEN
100
AcDbLine
 62
7
  6
CONTINUOUS
 10
411.5338093691
 20
922.3865285415
 11
406.5338093691
 21
917.3865285415
  0
LINE
  5
32C
100
AcDbEntity
  8
BEZUGSACHSEN
100
AcDbLine
 62
7
  6
CONTINUOUS
 10
489.0338093691
 20
922.3865285415
 11
484.0338093691
 21
917.3865285415
  0
LINE
  5
32D
100
AcDbEntity
  8
BEZUGSACHSEN
100
AcDbLine
 62
7
  6
CONTINUOUS
 10
773.4211852416
 20
917.3865285415
 11
811.4211852416
 21
917.3865285415
  0
LINE
  5
32E
100
AcDbEntity
  8
BEZUGSACHSEN
100
AcDbLine
 62
7
  6
CONTINUOUS
 10
907.6551228282
 20
917.3865285415
 11
945.6551228282
 21
917.3865285415
  0
LINE
  5
32F
100
AcDbEntity
  8
BEZUGSACHSEN
100
AcDbLine
 62
7
  6
CONTINUOUS
 10
1041.8890604148
 20
917.3865285415
 11
1079.8890604148
 21
917.3865285415
  0
LINE
  5
330
100
AcDbEntity
  8
BEZUGSACHSEN
100
AcDbLine
 62
7
  6
CONTINUOUS
 10
768.4211852416
 20
922.3865285415
 11
816.4211852416
 21
922.3865285415
  0
LINE
  5
331
100
AcDbEntity
  8
BEZUGSACHSEN
100
AcDbLine
 62
7
  6
CONTINUOUS
 10
902.6551228282
 20
922.3865285415
 11
950.6551228282
 21
922.3865285415
  0
LINE
  5
332
100
AcDbEntity
  8
BEZUGSACHSEN
100
AcDbLine
 62
7
  6
CONTINUOUS
 10
1036.8890604148
 20
922.3865285415
 11
1084.8890604148
 21
922.3865285415
  0
LINE
  5
333
100
AcDbEntity
  8
BEZUGSACHSEN
100
AcDbLine
 62
7
  6
CONTINUOUS
 10
773.4211852416
 20
917.3865285415
 11
768.4211852416
 21
922.3865285415
  0
LINE
  5
334
100
AcDbEntity
  8
0
100
AcDbLine
 62
7
  6
CONTINUOUS
 10
726.6551228282
 20
987.3865285415
 11
1126.6551228282
 21
987.3865285415
  0
LINE
  5
335
100
AcDbEntity
  8
BEZUGSACHSEN
100
AcDbLine
 62
7
  6
CONTINUOUS
 10
907.6551228282
 20
917.3865285415
 11
902.6551228282
 21
922.3865285415
  0
LINE
  5
336
100
AcDbEntity
  8
0
100
AcDbLine
 62
7
  6
CONTINUOUS
 10
726.6551228282
 20
987.3865285415
 11
726.6551228282
 21
1077.3865285415
  0
LINE
  5
337
100
AcDbEntity
  8
0
100
AcDbLine
 62
7
  6
CONTINUOUS
 10
726.6551228282
 20
1077.3865285415
 11
1126.6551228282
 21
1077.3865285415
  0
LINE
  5
338
100
AcDbEntity
  8
KONSTRUKTIONSELEMENTE
100
AcDbLine
 62
7
  6
CONTINUOUS
 10
754.9211852416
 20
1077.8865285415
 11
829.9211852416
 21
1077.8865285415
  0
LINE
  5
339
100
AcDbEntity
  8
KONSTRUKTIONSELEMENTE
100
AcDbLine
 62
7
  6
CONTINUOUS
 10
889.1551228282
 20
1077.8865285415
 11
964.1551228282
 21
1077.8865285415
  0
LINE
  5
33A
100
AcDbEntity
  8
KONSTRUKTIONSELEMENTE
100
AcDbLine
 62
7
  6
CONTINUOUS
 10
1023.3890604148
 20
1077.8865285415
 11
1098.3890604148
 21
1077.8865285415
  0
LINE
  5
33B
100
AcDbEntity
  8
BEZUGSACHSEN
100
AcDbLine
 62
7
  6
CONTINUOUS
 10
754.9211852416
 20
1077.8865285415
 11
754.9211852416
 21
1107.3865285444
  0
LINE
  5
33C
100
AcDbEntity
  8
BEZUGSACHSEN
100
AcDbLine
 62
7
  6
CONTINUOUS
 10
757.7211852416
 20
1077.3865285415
 11
757.7211852416
 21
1077.8865285415
  0
LINE
  5
33D
100
AcDbEntity
  8
KONSTRUKTIONSELEMENTE
100
AcDbLine
 62
7
  6
CONTINUOUS
 10
762.952637147
 20
1107.3865285415
 11
762.952637147
 21
1107.5865285415
  0
LINE
  5
33E
100
AcDbEntity
  8
BEZUGSACHSEN
100
AcDbLine
 62
7
  6
CONTINUOUS
 10
754.9211852497
 20
1107.3865285415
 11
829.9211852335
 21
1107.3865285415
  0
LINE
  5
33F
100
AcDbEntity
  8
BEZUGSACHSEN
100
AcDbLine
 62
7
  6
CONTINUOUS
 10
889.1551228363
 20
1107.3865285415
 11
964.1551228201
 21
1107.3865285415
  0
LINE
  5
340
100
AcDbEntity
  8
BEZUGSACHSEN
100
AcDbLine
 62
7
  6
CONTINUOUS
 10
1023.3890604229
 20
1107.3865285415
 11
1098.3890604067
 21
1107.3865285415
  0
LINE
  5
341
100
AcDbEntity
  8
KONSTRUKTIONSELEMENTE
100
AcDbLine
 62
7
  6
CONTINUOUS
 10
762.952637147
 20
1107.5865285415
 11
794.133363455
 21
1107.5865285415
  0
LINE
  5
342
100
AcDbEntity
  8
KONSTRUKTIONSELEMENTE
100
AcDbLine
 62
7
  6
CONTINUOUS
 10
897.1865747336
 20
1107.5865285415
 11
928.3673010416
 21
1107.5865285415
  0
LINE
  5
343
100
AcDbEntity
  8
KONSTRUKTIONSELEMENTE
100
AcDbLine
 62
7
  6
CONTINUOUS
 10
1031.4205123202
 20
1107.5865285415
 11
1062.6012386282
 21
1107.5865285415
  0
LINE
  5
344
100
AcDbEntity
  8
BEZUGSACHSEN
100
AcDbLine
 62
7
  6
CONTINUOUS
 10
1041.8890604148
 20
917.3865285415
 11
1036.8890604148
 21
922.3865285415
  0
LINE
  5
345
100
AcDbEntity
  8
KONSTRUKTIONSELEMENTE
100
AcDbLine
 62
7
  6
CONTINUOUS
 10
764.2343594522
 20
1107.3865285415
 11
764.2343594522
 21
1107.5865285415
  0
LINE
  5
346
100
AcDbEntity
  8
KONSTRUKTIONSELEMENTE
100
AcDbLine
 62
7
  6
CONTINUOUS
 10
764.2412874285
 20
1107.3865285415
 11
764.2412874285
 21
1107.5865285415
  0
LINE
  5
347
100
AcDbEntity
  8
KONSTRUKTIONSELEMENTE
100
AcDbLine
 62
7
  6
CONTINUOUS
 10
764.5331014264
 20
1107.3865285415
 11
764.5331014264
 21
1107.5865285415
  0
LINE
  5
348
100
AcDbEntity
  8
KONSTRUKTIONSELEMENTE
100
AcDbLine
 62
7
  6
CONTINUOUS
 10
766.8398971046
 20
1107.3865285415
 11
766.8398971046
 21
1107.5865285415
  0
LINE
  5
349
100
AcDbEntity
  8
BEZUGSACHSEN
100
AcDbLine
 62
7
  6
CONTINUOUS
 10
768.4211852416
 20
922.3865285415
 11
768.4211852416
 21
987.3865285415
  0
LINE
  5
34A
100
AcDbEntity
  8
KONSTRUKTIONSELEMENTE
100
AcDbLine
 62
7
  6
CONTINUOUS
 10
771.0154673458
 20
1107.3865285415
 11
771.0154673458
 21
1107.5865285415
  0
LINE
  5
34B
100
AcDbEntity
  8
KONSTRUKTIONSELEMENTE
100
AcDbLine
 62
7
  6
CONTINUOUS
 10
772.0218658066
 20
1107.3865285415
 11
772.0218658066
 21
1107.5865285415
  0
LINE
  5
34C
100
AcDbEntity
  8
KONSTRUKTIONSELEMENTE
100
AcDbLine
 62
7
  6
CONTINUOUS
 10
775.9338918862
 20
1107.3865285415
 11
775.9338918862
 21
1107.5865285415
  0
LINE
  5
34D
100
AcDbEntity
  8
KONSTRUKTIONSELEMENTE
100
AcDbLine
 62
7
  6
CONTINUOUS
 10
776.0474596502
 20
1107.3865285415
 11
776.0474596502
 21
1107.5865285415
  0
LINE
  5
34E
100
AcDbEntity
  8
KONSTRUKTIONSELEMENTE
100
AcDbLine
 62
7
  6
CONTINUOUS
 10
777.053858591
 20
1107.3865285415
 11
777.053858591
 21
1107.5865285415
  0
LINE
  5
34F
100
AcDbEntity
  8
KONSTRUKTIONSELEMENTE
100
AcDbLine
 62
7
  6
CONTINUOUS
 10
780.9658846705
 20
1107.3865285415
 11
780.9658846705
 21
1107.5865285415
  0
LINE
  5
350
100
AcDbEntity
  8
KONSTRUKTIONSELEMENTE
100
AcDbLine
 62
7
  6
CONTINUOUS
 10
781.4291231365
 20
1107.3865285415
 11
781.4291231365
 21
1107.5865285415
  0
LINE
  5
351
100
AcDbEntity
  8
KONSTRUKTIONSELEMENTE
100
AcDbLine
 62
7
  6
CONTINUOUS
 10
781.5984344016
 20
1107.3865285415
 11
781.5984344016
 21
1107.5865285415
  0
LINE
  5
352
100
AcDbEntity
  8
KONSTRUKTIONSELEMENTE
100
AcDbLine
 62
7
  6
CONTINUOUS
 10
782.2951097836
 20
1107.3865285415
 11
782.2951097836
 21
1107.5865285415
  0
LINE
  5
353
100
AcDbEntity
  8
KONSTRUKTIONSELEMENTE
100
AcDbLine
 62
7
  6
CONTINUOUS
 10
783.3657089536
 20
1107.3865285415
 11
783.3657089536
 21
1107.5865285415
  0
LINE
  5
354
100
AcDbEntity
  8
KONSTRUKTIONSELEMENTE
100
AcDbLine
 62
7
  6
CONTINUOUS
 10
783.4524756048
 20
1107.3865285415
 11
783.4524756048
 21
1107.5865285415
  0
LINE
  5
355
100
AcDbEntity
  8
KONSTRUKTIONSELEMENTE
100
AcDbLine
 62
7
  6
CONTINUOUS
 10
783.9069350235
 20
1107.3865285415
 11
783.9069350235
 21
1107.5865285415
  0
LINE
  5
356
100
AcDbEntity
  8
KONSTRUKTIONSELEMENTE
100
AcDbLine
 62
7
  6
CONTINUOUS
 10
784.6059051911
 20
1107.3865285415
 11
784.6059051911
 21
1107.5865285415
  0
LINE
  5
357
100
AcDbEntity
  8
KONSTRUKTIONSELEMENTE
100
AcDbLine
 62
7
  6
CONTINUOUS
 10
785.5892543234
 20
1107.3865285415
 11
785.5892543234
 21
1107.5865285415
  0
LINE
  5
358
100
AcDbEntity
  8
KONSTRUKTIONSELEMENTE
100
AcDbLine
 62
7
  6
CONTINUOUS
 10
790.5006938477
 20
1107.3865285415
 11
790.5006938477
 21
1107.5865285415
  0
LINE
  5
359
100
AcDbEntity
  8
0
100
AcDbLine
 62
7
  6
CONTINUOUS
 10
896.3442336957
 20
1141.3865285415
 11
956.9660119606
 21
1141.3865285415
  0
LINE
  5
35A
100
AcDbEntity
  8
KONSTRUKTIONSELEMENTE
100
AcDbLine
 62
7
  6
CONTINUOUS
 10
792.374472702
 20
1107.3865285415
 11
792.374472702
 21
1107.5865285415
  0
LINE
  5
35B
100
AcDbEntity
  8
BEZUGSACHSEN
100
AcDbLine
 62
7
  6
CONTINUOUS
 10
792.4211852416
 20
1077.8865285415
 11
792.4211852416
 21
1104.0371636361
  0
LINE
  5
35C
100
AcDbEntity
  8
KONSTRUKTIONSELEMENTE
100
AcDbLine
 62
7
  6
CONTINUOUS
 10
793.2418170547
 20
1107.3865285415
 11
793.2418170547
 21
1107.5865285415
  0
LINE
  5
35D
100
AcDbEntity
  8
KONSTRUKTIONSELEMENTE
100
AcDbLine
 62
7
  6
CONTINUOUS
 10
793.8096556162
 20
1107.3865285415
 11
793.8096556162
 21
1107.5865285415
  0
LINE
  5
35E
100
AcDbEntity
  8
KONSTRUKTIONSELEMENTE
100
AcDbLine
 62
7
  6
CONTINUOUS
 10
794.133363455
 20
1107.3865285415
 11
794.133363455
 21
1107.5865285415
  0
LINE
  5
35F
100
AcDbEntity
  8
BEZUGSACHSEN
100
AcDbLine
 62
7
  6
CONTINUOUS
 10
816.4211852416
 20
922.3865285415
 11
816.4211852416
 21
987.3865285415
  0
LINE
  5
360
100
AcDbEntity
  8
0
100
AcDbLine
 62
7
  6
CONTINUOUS
 10
819.1551228282
 20
1184.8865285415
 11
819.1551228282
 21
1107.3865285415
  0
LINE
  5
361
100
AcDbEntity
  8
BEZUGSACHSEN
100
AcDbLine
 62
7
  6
CONTINUOUS
 10
827.1211852416
 20
1077.3865285415
 11
827.1211852416
 21
1077.8865285415
  0
LINE
  5
362
100
AcDbEntity
  8
BEZUGSACHSEN
100
AcDbLine
 62
7
  6
CONTINUOUS
 10
829.9211852416
 20
1077.8865285415
 11
829.9211852416
 21
1107.3865285444
  0
LINE
  5
363
100
AcDbEntity
  8
0
100
AcDbLine
 62
7
  6
CONTINUOUS
 10
838.4848330476
 20
1184.8865285415
 11
838.4848330476
 21
1077.3865285415
  0
LINE
  5
364
100
AcDbEntity
  8
0
100
AcDbLine
 62
7
  6
CONTINUOUS
 10
866.0333445633
 20
1193.8865285415
 11
896.3442336957
 21
1141.3865285415
  0
LINE
  5
365
100
AcDbEntity
  8
0
100
AcDbLine
 62
7
  6
CONTINUOUS
 10
885.1551228282
 20
1605.325262513
 11
885.1551228282
 21
1269.5172101462
  0
LINE
  5
366
100
AcDbEntity
  8
BEZUGSACHSEN
100
AcDbLine
 62
7
  6
CONTINUOUS
 10
889.1551228282
 20
1077.8865285415
 11
889.1551228282
 21
1107.3865285444
  0
LINE
  5
367
100
AcDbEntity
  8
BEZUGSACHSEN
100
AcDbLine
 62
7
  6
CONTINUOUS
 10
891.9551228282
 20
1077.3865285415
 11
891.9551228282
 21
1077.8865285415
  0
LINE
  5
368
100
AcDbEntity
  8
KONSTRUKTIONSELEMENTE
100
AcDbLine
 62
7
  6
CONTINUOUS
 10
897.1865747336
 20
1107.3865285415
 11
897.1865747336
 21
1107.5865285415
  0
LINE
  5
369
100
AcDbEntity
  8
KONSTRUKTIONSELEMENTE
100
AcDbLine
 62
7
  6
CONTINUOUS
 10
898.4682970388
 20
1107.3865285415
 11
898.4682970388
 21
1107.5865285415
  0
LINE
  5
36A
100
AcDbEntity
  8
KONSTRUKTIONSELEMENTE
100
AcDbLine
 62
7
  6
CONTINUOUS
 10
898.4752250151
 20
1107.3865285415
 11
898.4752250151
 21
1107.5865285415
  0
LINE
  5
36B
100
AcDbEntity
  8
KONSTRUKTIONSELEMENTE
100
AcDbLine
 62
7
  6
CONTINUOUS
 10
898.767039013
 20
1107.3865285415
 11
898.767039013
 21
1107.5865285415
  0
LINE
  5
36C
100
AcDbEntity
  8
KONSTRUKTIONSELEMENTE
100
AcDbLine
 62
7
  6
CONTINUOUS
 10
901.0738346912
 20
1107.3865285415
 11
901.0738346912
 21
1107.5865285415
  0
LINE
  5
36D
100
AcDbEntity
  8
0
100
AcDbLine
 62
7
  6
CONTINUOUS
 10
956.9660119606
 20
1246.3865285415
 11
896.3442336957
 21
1246.3865285415
  0
LINE
  5
36E
100
AcDbEntity
  8
BEZUGSACHSEN
100
AcDbLine
 62
7
  6
CONTINUOUS
 10
902.6551228282
 20
922.3865285415
 11
902.6551228282
 21
987.3865285415
  0
LINE
  5
36F
100
AcDbEntity
  8
KONSTRUKTIONSELEMENTE
100
AcDbLine
 62
7
  6
CONTINUOUS
 10
905.2494049323
 20
1107.3865285415
 11
905.2494049323
 21
1107.5865285415
  0
LINE
  5
370
100
AcDbEntity
  8
KONSTRUKTIONSELEMENTE
100
AcDbLine
 62
7
  6
CONTINUOUS
 10
906.2558033932
 20
1107.3865285415
 11
906.2558033932
 21
1107.5865285415
  0
LINE
  5
371
100
AcDbEntity
  8
KONSTRUKTIONSELEMENTE
100
AcDbLine
 62
7
  6
CONTINUOUS
 10
910.1678294728
 20
1107.3865285415
 11
910.1678294728
 21
1107.5865285415
  0
LINE
  5
372
100
AcDbEntity
  8
KONSTRUKTIONSELEMENTE
100
AcDbLine
 62
7
  6
CONTINUOUS
 10
910.2813972368
 20
1107.3865285415
 11
910.2813972368
 21
1107.5865285415
  0
LINE
  5
373
100
AcDbEntity
  8
KONSTRUKTIONSELEMENTE
100
AcDbLine
 62
7
  6
CONTINUOUS
 10
911.2877961776
 20
1107.3865285415
 11
911.2877961776
 21
1107.5865285415
  0
LINE
  5
374
100
AcDbEntity
  8
KONSTRUKTIONSELEMENTE
100
AcDbLine
 62
7
  6
CONTINUOUS
 10
915.1998222571
 20
1107.3865285415
 11
915.1998222571
 21
1107.5865285415
  0
LINE
  5
375
100
AcDbEntity
  8
KONSTRUKTIONSELEMENTE
100
AcDbLine
 62
7
  6
CONTINUOUS
 10
915.6630607231
 20
1107.3865285415
 11
915.6630607231
 21
1107.5865285415
  0
LINE
  5
376
100
AcDbEntity
  8
KONSTRUKTIONSELEMENTE
100
AcDbLine
 62
7
  6
CONTINUOUS
 10
915.8323719881
 20
1107.3865285415
 11
915.8323719881
 21
1107.5865285415
  0
LINE
  5
377
100
AcDbEntity
  8
KONSTRUKTIONSELEMENTE
100
AcDbLine
 62
7
  6
CONTINUOUS
 10
916.5290473702
 20
1107.3865285415
 11
916.5290473702
 21
1107.5865285415
  0
LINE
  5
378
100
AcDbEntity
  8
KONSTRUKTIONSELEMENTE
100
AcDbLine
 62
7
  6
CONTINUOUS
 10
917.5996465401
 20
1107.3865285415
 11
917.5996465401
 21
1107.5865285415
  0
LINE
  5
379
100
AcDbEntity
  8
KONSTRUKTIONSELEMENTE
100
AcDbLine
 62
7
  6
CONTINUOUS
 10
917.6864131914
 20
1107.3865285415
 11
917.6864131914
 21
1107.5865285415
  0
LINE
  5
37A
100
AcDbEntity
  8
KONSTRUKTIONSELEMENTE
100
AcDbLine
 62
7
  6
CONTINUOUS
 10
918.1408726101
 20
1107.3865285415
 11
918.1408726101
 21
1107.5865285415
  0
LINE
  5
37B
100
AcDbEntity
  8
KONSTRUKTIONSELEMENTE
100
AcDbLine
 62
7
  6
CONTINUOUS
 10
918.8398427777
 20
1107.3865285415
 11
918.8398427777
 21
1107.5865285415
  0
LINE
  5
37C
100
AcDbEntity
  8
KONSTRUKTIONSELEMENTE
100
AcDbLine
 62
7
  6
CONTINUOUS
 10
919.82319191
 20
1107.3865285415
 11
919.82319191
 21
1107.5865285415
  0
LINE
  5
37D
100
AcDbEntity
  8
KONSTRUKTIONSELEMENTE
100
AcDbLine
 62
7
  6
CONTINUOUS
 10
924.7346314343
 20
1107.3865285415
 11
924.7346314343
 21
1107.5865285415
  0
LINE
  5
37E
100
AcDbEntity
  8
KONSTRUKTIONSELEMENTE
100
AcDbLine
 62
7
  6
CONTINUOUS
 10
926.6084102886
 20
1107.3865285415
 11
926.6084102886
 21
1107.5865285415
  0
LINE
  5
37F
100
AcDbEntity
  8
BEZUGSACHSEN
100
AcDbLine
 62
7
  6
CONTINUOUS
 10
926.6551228282
 20
1077.8865285415
 11
926.6551228282
 21
1104.0371636361
  0
LINE
  5
380
100
AcDbEntity
  8
KONSTRUKTIONSELEMENTE
100
AcDbLine
 62
7
  6
CONTINUOUS
 10
927.4757546413
 20
1107.3865285415
 11
927.4757546413
 21
1107.5865285415
  0
LINE
  5
381
100
AcDbEntity
  8
KONSTRUKTIONSELEMENTE
100
AcDbLine
 62
7
  6
CONTINUOUS
 10
928.0435932028
 20
1107.3865285415
 11
928.0435932028
 21
1107.5865285415
  0
LINE
  5
382
100
AcDbEntity
  8
KONSTRUKTIONSELEMENTE
100
AcDbLine
 62
7
  6
CONTINUOUS
 10
928.3673010416
 20
1107.3865285415
 11
928.3673010416
 21
1107.5865285415
  0
LINE
  5
383
100
AcDbEntity
  8
0
100
AcDbLine
 62
7
  6
CONTINUOUS
 10
896.3442336957
 20
1246.3865285415
 11
866.0333445633
 21
1193.8865285415
  0
LINE
  5
384
100
AcDbEntity
  8
BEZUGSACHSEN
100
AcDbLine
 62
7
  6
CONTINUOUS
 10
950.6551228282
 20
922.3865285415
 11
950.6551228282
 21
987.3865285415
  0
LINE
  5
385
100
AcDbEntity
  8
0
100
AcDbLine
 62
7
  6
CONTINUOUS
 10
987.2769010931
 20
1193.8865285415
 11
956.9660119606
 21
1246.3865285415
  0
LINE
  5
386
100
AcDbEntity
  8
BEZUGSACHSEN
100
AcDbLine
 62
7
  6
CONTINUOUS
 10
961.3551228282
 20
1077.3865285415
 11
961.3551228282
 21
1077.8865285415
  0
LINE
  5
387
100
AcDbEntity
  8
BEZUGSACHSEN
100
AcDbLine
 62
7
  6
CONTINUOUS
 10
964.1551228282
 20
1077.8865285415
 11
964.1551228282
 21
1107.3865285444
  0
LINE
  5
388
100
AcDbEntity
  8
0
100
AcDbLine
 62
7
  6
CONTINUOUS
 10
968.1551228282
 20
1605.325262513
 11
968.1551228282
 21
1269.5172101462
  0
LINE
  5
389
100
AcDbEntity
  8
0
100
AcDbLine
 62
7
  6
CONTINUOUS
 10
1014.8254126088
 20
1184.8865285415
 11
1014.8254126088
 21
1077.3865285415
  0
LINE
  5
38A
100
AcDbEntity
  8
BEZUGSACHSEN
100
AcDbLine
 62
7
  6
CONTINUOUS
 10
1023.3890604148
 20
1077.8865285415
 11
1023.3890604148
 21
1107.3865285444
  0
LINE
  5
38B
100
AcDbEntity
  8
BEZUGSACHSEN
100
AcDbLine
 62
7
  6
CONTINUOUS
 10
1026.1890604148
 20
1077.3865285415
 11
1026.1890604148
 21
1077.8865285415
  0
LINE
  5
38C
100
AcDbEntity
  8
KONSTRUKTIONSELEMENTE
100
AcDbLine
 62
7
  6
CONTINUOUS
 10
1031.4205123202
 20
1107.3865285415
 11
1031.4205123202
 21
1107.5865285415
  0
LINE
  5
38D
100
AcDbEntity
  8
KONSTRUKTIONSELEMENTE
100
AcDbLine
 62
7
  6
CONTINUOUS
 10
1032.7022346253
 20
1107.3865285415
 11
1032.7022346253
 21
1107.5865285415
  0
LINE
  5
38E
100
AcDbEntity
  8
KONSTRUKTIONSELEMENTE
100
AcDbLine
 62
7
  6
CONTINUOUS
 10
1032.7091626017
 20
1107.3865285415
 11
1032.7091626017
 21
1107.5865285415
  0
LINE
  5
38F
100
AcDbEntity
  8
KONSTRUKTIONSELEMENTE
100
AcDbLine
 62
7
  6
CONTINUOUS
 10
1033.0009765996
 20
1107.3865285415
 11
1033.0009765996
 21
1107.5865285415
  0
LINE
  5
390
100
AcDbEntity
  8
0
100
AcDbLine
 62
7
  6
CONTINUOUS
 10
1034.1551228282
 20
1184.8865285415
 11
1034.1551228282
 21
1107.5865285415
  0
LINE
  5
391
100
AcDbEntity
  8
KONSTRUKTIONSELEMENTE
100
AcDbLine
 62
7
  6
CONTINUOUS
 10
1035.3077722778
 20
1107.3865285415
 11
1035.3077722778
 21
1107.5865285415
  0
LINE
  5
392
100
AcDbEntity
  8
BEZUGSACHSEN
100
AcDbLine
 62
7
  6
CONTINUOUS
 10
1036.8890604148
 20
922.3865285415
 11
1036.8890604148
 21
987.3865285415
  0
LINE
  5
393
100
AcDbEntity
  8
KONSTRUKTIONSELEMENTE
100
AcDbLine
 62
7
  6
CONTINUOUS
 10
1039.4833425189
 20
1107.3865285415
 11
1039.4833425189
 21
1107.5865285415
  0
LINE
  5
394
100
AcDbEntity
  8
KONSTRUKTIONSELEMENTE
100
AcDbLine
 62
7
  6
CONTINUOUS
 10
1040.4897409798
 20
1107.3865285415
 11
1040.4897409798
 21
1107.5865285415
  0
LINE
  5
395
100
AcDbEntity
  8
0
100
AcDbLine
 62
7
  6
CONTINUOUS
 10
956.9660119606
 20
1141.3865285415
 11
987.2769010931
 21
1193.8865285415
  0
LINE
  5
396
100
AcDbEntity
  8
KONSTRUKTIONSELEMENTE
100
AcDbLine
 62
7
  6
CONTINUOUS
 10
1044.4017670593
 20
1107.3865285415
 11
1044.4017670593
 21
1107.5865285415
  0
LINE
  5
397
100
AcDbEntity
  8
KONSTRUKTIONSELEMENTE
100
AcDbLine
 62
7
  6
CONTINUOUS
 10
1044.5153348234
 20
1107.3865285415
 11
1044.5153348234
 21
1107.5865285415
  0
LINE
  5
398
100
AcDbEntity
  8
KONSTRUKTIONSELEMENTE
100
AcDbLine
 62
7
  6
CONTINUOUS
 10
1045.5217337642
 20
1107.3865285415
 11
1045.5217337642
 21
1107.5865285415
  0
LINE
  5
399
100
AcDbEntity
  8
KONSTRUKTIONSELEMENTE
100
AcDbLine
 62
7
  6
CONTINUOUS
 10
1049.4337598437
 20
1107.3865285415
 11
1049.4337598437
 21
1107.5865285415
  0
LINE
  5
39A
100
AcDbEntity
  8
KONSTRUKTIONSELEMENTE
100
AcDbLine
 62
7
  6
CONTINUOUS
 10
1049.8969983097
 20
1107.3865285415
 11
1049.8969983097
 21
1107.5865285415
  0
LINE
  5
39B
100
AcDbEntity
  8
KONSTRUKTIONSELEMENTE
100
AcDbLine
 62
7
  6
CONTINUOUS
 10
1050.0663095747
 20
1107.3865285415
 11
1050.0663095747
 21
1107.5865285415
  0
LINE
  5
39C
100
AcDbEntity
  8
KONSTRUKTIONSELEMENTE
100
AcDbLine
 62
7
  6
CONTINUOUS
 10
1050.7629849568
 20
1107.3865285415
 11
1050.7629849568
 21
1107.5865285415
  0
LINE
  5
39D
100
AcDbEntity
  8
KONSTRUKTIONSELEMENTE
100
AcDbLine
 62
7
  6
CONTINUOUS
 10
1051.8335841267
 20
1107.3865285415
 11
1051.8335841267
 21
1107.5865285415
  0
LINE
  5
39E
100
AcDbEntity
  8
KONSTRUKTIONSELEMENTE
100
AcDbLine
 62
7
  6
CONTINUOUS
 10
1051.9203507779
 20
1107.3865285415
 11
1051.9203507779
 21
1107.5865285415
  0
LINE
  5
39F
100
AcDbEntity
  8
KONSTRUKTIONSELEMENTE
100
AcDbLine
 62
7
  6
CONTINUOUS
 10
1052.3748101967
 20
1107.3865285415
 11
1052.3748101967
 21
1107.5865285415
  0
LINE
  5
3A0
100
AcDbEntity
  8
KONSTRUKTIONSELEMENTE
100
AcDbLine
 62
7
  6
CONTINUOUS
 10
1053.0737803643
 20
1107.3865285415
 11
1053.0737803643
 21
1107.5865285415
  0
LINE
  5
3A1
100
AcDbEntity
  8
KONSTRUKTIONSELEMENTE
100
AcDbLine
 62
7
  6
CONTINUOUS
 10
1054.0571294966
 20
1107.3865285415
 11
1054.0571294966
 21
1107.5865285415
  0
LINE
  5
3A2
100
AcDbEntity
  8
KONSTRUKTIONSELEMENTE
100
AcDbLine
 62
7
  6
CONTINUOUS
 10
1058.9685690209
 20
1107.3865285415
 11
1058.9685690209
 21
1107.5865285415
  0
LINE
  5
3A3
100
AcDbEntity
  8
KONSTRUKTIONSELEMENTE
100
AcDbLine
 62
7
  6
CONTINUOUS
 10
1060.8423478752
 20
1107.3865285415
 11
1060.8423478752
 21
1107.5865285415
  0
LINE
  5
3A4
100
AcDbEntity
  8
BEZUGSACHSEN
100
AcDbLine
 62
7
  6
CONTINUOUS
 10
1060.8890604148
 20
1077.8865285415
 11
1060.8890604148
 21
1104.0371636361
  0
LINE
  5
3A5
100
AcDbEntity
  8
KONSTRUKTIONSELEMENTE
100
AcDbLine
 62
7
  6
CONTINUOUS
 10
1061.7096922279
 20
1107.3865285415
 11
1061.7096922279
 21
1107.5865285415
  0
LINE
  5
3A6
100
AcDbEntity
  8
KONSTRUKTIONSELEMENTE
100
AcDbLine
 62
7
  6
CONTINUOUS
 10
1062.2775307894
 20
1107.3865285415
 11
1062.2775307894
 21
1107.5865285415
  0
LINE
  5
3A7
100
AcDbEntity
  8
KONSTRUKTIONSELEMENTE
100
AcDbLine
 62
7
  6
CONTINUOUS
 10
1062.6012386282
 20
1107.3865285415
 11
1062.6012386282
 21
1107.5865285415
  0
LINE
  5
3A8
100
AcDbEntity
  8
BEZUGSACHSEN
100
AcDbLine
 62
7
  6
CONTINUOUS
 10
1084.8890604148
 20
922.3865285415
 11
1084.8890604148
 21
987.3865285415
  0
LINE
  5
3A9
100
AcDbEntity
  8
BEZUGSACHSEN
100
AcDbLine
 62
7
  6
CONTINUOUS
 10
1095.5890604148
 20
1077.3865285415
 11
1095.5890604148
 21
1077.8865285415
  0
LINE
  5
3AA
100
AcDbEntity
  8
BEZUGSACHSEN
100
AcDbLine
 62
7
  6
CONTINUOUS
 10
1098.3890604148
 20
1077.8865285415
 11
1098.3890604148
 21
1107.3865285444
  0
LINE
  5
3AB
100
AcDbEntity
  8
BEZUGSACHSEN
100
AcDbLine
 62
7
  6
CONTINUOUS
 10
811.4211852416
 20
917.3865285415
 11
816.4211852416
 21
922.3865285415
  0
LINE
  5
3AC
100
AcDbEntity
  8
0
100
AcDbLine
 62
7
  6
CONTINUOUS
 10
1126.6551228282
 20
987.3865285415
 11
1126.6551228282
 21
1077.3865285415
  0
LINE
  5
3AD
100
AcDbEntity
  8
BEZUGSACHSEN
100
AcDbLine
 62
7
  6
CONTINUOUS
 10
945.6551228282
 20
917.3865285415
 11
950.6551228282
 21
922.3865285415
  0
LINE
  5
3AE
100
AcDbEntity
  8
BEZUGSACHSEN
100
AcDbLine
 62
7
  6
CONTINUOUS
 10
1079.8890604148
 20
917.3865285415
 11
1084.8890604148
 21
922.3865285415
  0
LINE
  5
3AF
100
AcDbEntity
  8
0
100
AcDbLine
 62
7
  6
CONTINUOUS
 10
128.4338093691
 20
447.3402877582
 11
128.4338093691
 21
568.5838442881
  0
LINE
  5
3B0
100
AcDbEntity
  8
KONSTRUKTIONSELEMENTE
100
AcDbLine
 62
7
  6
CONTINUOUS
 10
124.7780695969
 20
514.7939969414
 11
123.8411801697
 21
509.882557417
  0
LINE
  5
3B1
100
AcDbEntity
  8
KONSTRUKTIONSELEMENTE
100
AcDbLine
 62
7
  6
CONTINUOUS
 10
125.1203895348
 20
510.9110791459
 11
125.8620936274
 21
514.7993019075
  0
LINE
  5
3B2
100
AcDbEntity
  8
KONSTRUKTIONSELEMENTE
100
AcDbLine
 62
7
  6
CONTINUOUS
 10
128.4338093691
 20
511.2485930931
 11
128.2553511451
 21
510.3130645775
  0
LINE
  5
3B3
100
AcDbEntity
  8
KONSTRUKTIONSELEMENTE
100
AcDbLine
 62
7
  6
CONTINUOUS
 10
125.1822523331
 20
515.7773460737
 11
124.7780695969
 21
514.7939969414
  0
LINE
  5
3B4
100
AcDbEntity
  8
BEZUGSACHSEN
100
AcDbLine
 62
7
  6
CONTINUOUS
 10
210.8831742745
 20
679.6960036097
 11
189.2325391799
 21
642.1960036097
  0
LINE
  5
3B5
100
AcDbEntity
  8
BEZUGSACHSEN
100
AcDbLine
 62
7
  6
CONTINUOUS
 10
128.4338093691
 20
536.8895145418
 11
111.7325391799
 21
507.9620660232
  0
LINE
  5
3B6
100
AcDbEntity
  8
KONSTRUKTIONSELEMENTE
100
AcDbLine
 62
7
  6
CONTINUOUS
 10
209.7993037972
 20
663.6017215056
 11
209.0579117701
 21
662.5953230447
  0
LINE
  5
3B7
100
AcDbEntity
  8
KONSTRUKTIONSELEMENTE
100
AcDbLine
 62
7
  6
CONTINUOUS
 10
206.0923436615
 20
658.5697292011
 11
205.3509512808
 21
657.5633302604
  0
LINE
  5
3B8
100
AcDbEntity
  8
KONSTRUKTIONSELEMENTE
100
AcDbLine
 62
7
  6
CONTINUOUS
 10
214.590055942
 20
653.6034524317
 11
215.3791842558
 21
654.3159231123
  0
LINE
  5
3B9
100
AcDbEntity
  8
KONSTRUKTIONSELEMENTE
100
AcDbLine
 62
7
  6
CONTINUOUS
 10
223.6368256766
 20
662.9178000115
 11
222.9956433268
 21
662.3445656301
  0
LINE
  5
3BA
100
AcDbEntity
  8
KONSTRUKTIONSELEMENTE
100
AcDbLine
 62
7
  6
CONTINUOUS
 10
203.4653927387
 20
650.7102538278
 11
202.6822523331
 21
650.0112836603
  0
LINE
  5
3BB
100
AcDbEntity
  8
KONSTRUKTIONSELEMENTE
100
AcDbLine
 62
7
  6
CONTINUOUS
 10
214.3513730643
 20
655.073089436
 11
213.685810339
 21
654.5283521411
  0
LINE
  5
3BC
100
AcDbEntity
  8
KONSTRUKTIONSELEMENTE
100
AcDbLine
 62
7
  6
CONTINUOUS
 10
223.5846124346
 20
661.2119526877
 11
224.4106323264
 21
661.8813043055
  0
LINE
  5
3BD
100
AcDbEntity
  8
KONSTRUKTIONSELEMENTE
100
AcDbLine
 62
7
  6
CONTINUOUS
 10
203.6882022074
 20
649.6073018042
 11
204.1842711669
 21
649.9368533655
  0
LINE
  5
3BE
100
AcDbEntity
  8
KONSTRUKTIONSELEMENTE
100
AcDbLine
 62
7
  6
CONTINUOUS
 10
218.9710210782
 20
670.0840874249
 11
214.5349537096
 21
667.7772917467
  0
LINE
  5
3BF
100
AcDbEntity
  8
KONSTRUKTIONSELEMENTE
100
AcDbLine
 62
7
  6
CONTINUOUS
 10
216.2329395909
 20
667.2213778561
 11
219.5599901174
 21
668.9514746148
  0
LINE
  5
3C0
100
AcDbEntity
  8
KONSTRUKTIONSELEMENTE
100
AcDbLine
 62
7
  6
CONTINUOUS
 10
222.9956433268
 20
662.3445656301
 11
219.6685928003
 21
660.6144688714
  0
LINE
  5
3C1
100
AcDbEntity
  8
KONSTRUKTIONSELEMENTE
100
AcDbLine
 62
7
  6
CONTINUOUS
 10
219.148545066
 20
658.9051570095
 11
223.5846124346
 21
661.2119526877
  0
LINE
  5
3C2
100
AcDbEntity
  8
KONSTRUKTIONSELEMENTE
100
AcDbLine
 62
7
  6
CONTINUOUS
 10
213.7531906193
 20
653.1849085828
 11
214.590055942
 21
653.6034524317
  0
LINE
  5
3C3
100
AcDbEntity
  8
KONSTRUKTIONSELEMENTE
100
AcDbLine
 62
7
  6
CONTINUOUS
 10
204.4184935237
 20
651.1647132466
 11
203.4653927387
 21
650.7102538278
  0
LINE
  5
3C4
100
AcDbEntity
  8
KONSTRUKTIONSELEMENTE
100
AcDbLine
 62
7
  6
CONTINUOUS
 10
213.685810339
 20
654.5283521411
 11
212.9725105149
 21
654.2775417442
  0
LINE
  5
3C5
100
AcDbEntity
  8
KONSTRUKTIONSELEMENTE
100
AcDbLine
 62
7
  6
CONTINUOUS
 10
219.9933639916
 20
670.3759014229
 11
218.9710210782
 21
670.0840874249
  0
LINE
  5
3C6
100
AcDbEntity
  8
0
100
AcDbLine
 62
7
  6
CONTINUOUS
 10
307.1588084154
 20
329.7493000315
 11
306.1588093691
 21
329.493980913
  0
LINE
  5
3C7
100
AcDbEntity
  8
0
100
AcDbLine
 62
7
  6
CONTINUOUS
 10
345.4088112765
 20
329.493980913
 11
344.1588074618
 21
329.2386617945
  0
LINE
  5
3C8
100
AcDbEntity
  8
0
100
AcDbLine
 62
7
  6
CONTINUOUS
 10
334.4088074618
 20
329.493980913
 11
333.1588093691
 21
329.2386617945
  0
LINE
  5
3C9
100
AcDbEntity
  8
0
100
AcDbLine
 62
7
  6
CONTINUOUS
 10
306.1588093691
 20
327.9620660232
 11
307.4088103228
 21
328.217385164
  0
LINE
  5
3CA
100
AcDbEntity
  8
0
100
AcDbLine
 62
7
  6
CONTINUOUS
 10
342.9088093691
 20
338.4301513122
 11
344.1588074618
 21
338.6854704307
  0
LINE
  5
3CB
100
AcDbEntity
  8
0
100
AcDbLine
 62
7
  6
CONTINUOUS
 10
283.4088088923
 20
327.9620660232
 11
284.658809846
 21
328.217385164
  0
LINE
  5
3CC
100
AcDbEntity
  8
0
100
AcDbLine
 62
7
  6
CONTINUOUS
 10
331.9088112765
 20
338.4301513122
 11
333.1588093691
 21
338.6854704307
  0
LINE
  5
3CD
100
AcDbEntity
  8
0
100
AcDbLine
 62
7
  6
CONTINUOUS
 10
294.6588103228
 20
333.3237682269
 11
295.9088084154
 21
333.5790873454
  0
LINE
  5
3CE
100
AcDbEntity
  8
0
100
AcDbLine
 62
7
  6
CONTINUOUS
 10
344.1588074618
 20
327.9620660232
 11
345.6588074618
 21
328.217385164
  0
LINE
  5
3CF
100
AcDbEntity
  8
0
100
AcDbLine
 62
7
  6
CONTINUOUS
 10
333.1588093691
 20
327.9620660232
 11
334.6588093691
 21
328.217385164
  0
LINE
  5
3D0
100
AcDbEntity
  8
0
100
AcDbLine
 62
7
  6
CONTINUOUS
 10
344.1588074618
 20
339.9620660232
 11
342.6588074618
 21
339.7067469047
  0
LINE
  5
3D1
100
AcDbEntity
  8
0
100
AcDbLine
 62
7
  6
CONTINUOUS
 10
333.1588093691
 20
339.9620660232
 11
331.6588093691
 21
339.7067469047
  0
LINE
  5
3D2
100
AcDbEntity
  8
0
100
AcDbLine
 62
7
  6
CONTINUOUS
 10
265.4088094287
 20
327.9620660232
 11
267.4088094883
 21
327.9620660232
  0
LINE
  5
3D3
100
AcDbEntity
  8
0
100
AcDbLine
 62
7
  6
CONTINUOUS
 10
271.4088096075
 20
327.9620660232
 11
273.4088091307
 21
327.9620660232
  0
LINE
  5
3D4
100
AcDbEntity
  8
0
100
AcDbLine
 62
7
  6
CONTINUOUS
 10
277.4088088923
 20
327.9620660232
 11
283.4088088923
 21
327.9620660232
  0
LINE
  5
3D5
100
AcDbEntity
  8
0
100
AcDbLine
 62
7
  6
CONTINUOUS
 10
288.6588103228
 20
327.9620660232
 11
290.1588103228
 21
327.9620660232
  0
LINE
  5
3D6
100
AcDbEntity
  8
0
100
AcDbLine
 62
7
  6
CONTINUOUS
 10
303.9088093691
 20
327.9620660232
 11
306.1588093691
 21
327.9620660232
  0
LINE
  5
3D7
100
AcDbEntity
  8
0
100
AcDbLine
 62
7
  6
CONTINUOUS
 10
325.1588112765
 20
327.9620660232
 11
326.6588112765
 21
327.9620660232
  0
LINE
  5
3D8
100
AcDbEntity
  8
0
100
AcDbLine
 62
7
  6
CONTINUOUS
 10
306.1588093691
 20
329.493980913
 11
303.9088093691
 21
329.493980913
  0
LINE
  5
3D9
100
AcDbEntity
  8
0
100
AcDbLine
 62
7
  6
CONTINUOUS
 10
283.6588093691
 20
329.493980913
 11
278.9088088923
 21
329.493980913
  0
LINE
  5
3DA
100
AcDbEntity
  8
0
100
AcDbLine
 62
7
  6
CONTINUOUS
 10
305.9088103228
 20
333.0684491084
 11
308.1588103228
 21
333.0684491084
  0
LINE
  5
3DB
100
AcDbEntity
  8
0
100
AcDbLine
 62
7
  6
CONTINUOUS
 10
278.9088088923
 20
333.3237682269
 11
283.6588093691
 21
333.3237682269
  0
LINE
  5
3DC
100
AcDbEntity
  8
0
100
AcDbLine
 62
7
  6
CONTINUOUS
 10
290.1588103228
 20
333.3237682269
 11
294.6588103228
 21
333.3237682269
  0
LINE
  5
3DD
100
AcDbEntity
  8
0
100
AcDbLine
 62
7
  6
CONTINUOUS
 10
309.6588103228
 20
334.6003638194
 11
305.9088103228
 21
334.6003638194
  0
LINE
  5
3DE
100
AcDbEntity
  8
0
100
AcDbLine
 62
7
  6
CONTINUOUS
 10
294.9088093691
 20
334.8556829379
 11
290.1588103228
 21
334.8556829379
  0
LINE
  5
3DF
100
AcDbEntity
  8
0
100
AcDbLine
 62
7
  6
CONTINUOUS
 10
283.6588093691
 20
334.8556829379
 11
278.9088088923
 21
334.8556829379
  0
LINE
  5
3E0
100
AcDbEntity
  8
0
100
AcDbLine
 62
7
  6
CONTINUOUS
 10
350.6588112765
 20
335.1110020564
 11
352.6588093691
 21
335.1110020564
  0
LINE
  5
3E1
100
AcDbEntity
  8
0
100
AcDbLine
 62
7
  6
CONTINUOUS
 10
353.9088074618
 20
335.1110020564
 11
356.6588112765
 21
335.1110020564
  0
LINE
  5
3E2
100
AcDbEntity
  8
0
100
AcDbLine
 62
7
  6
CONTINUOUS
 10
356.6588112765
 20
336.1322785304
 11
353.9088074618
 21
336.1322785304
  0
LINE
  5
3E3
100
AcDbEntity
  8
0
100
AcDbLine
 62
7
  6
CONTINUOUS
 10
352.6588093691
 20
336.1322785304
 11
350.6588112765
 21
336.1322785304
  0
LINE
  5
3E4
100
AcDbEntity
  8
BEZUGSACHSEN
100
AcDbLine
 62
7
  6
CONTINUOUS
 10
210.8831742745
 20
336.2281284366
 11
254.1844444637
 21
336.2281284366
  0
LINE
  5
3E5
100
AcDbEntity
  8
BEZUGSACHSEN
100
AcDbLine
 62
7
  6
CONTINUOUS
 10
365.8831742745
 20
336.2281284366
 11
409.1844444637
 21
336.2281284366
  0
LINE
  5
3E6
100
AcDbEntity
  8
0
100
AcDbLine
 62
7
  6
CONTINUOUS
 10
308.1588103228
 20
336.8982358859
 11
309.6588103228
 21
336.8982358859
  0
LINE
  5
3E7
100
AcDbEntity
  8
0
100
AcDbLine
 62
7
  6
CONTINUOUS
 10
353.9088074618
 20
338.1748321937
 11
352.6588093691
 21
338.1748321937
  0
LINE
  5
3E8
100
AcDbEntity
  8
0
100
AcDbLine
 62
7
  6
CONTINUOUS
 10
278.9088088923
 20
338.4301513122
 11
283.6588093691
 21
338.4301513122
  0
LINE
  5
3E9
100
AcDbEntity
  8
0
100
AcDbLine
 62
7
  6
CONTINUOUS
 10
303.9088093691
 20
338.4301513122
 11
306.1588093691
 21
338.4301513122
  0
LINE
  5
3EA
100
AcDbEntity
  8
0
100
AcDbLine
 62
7
  6
CONTINUOUS
 10
290.1588103228
 20
338.6854704307
 11
294.9088093691
 21
338.6854704307
  0
LINE
  5
3EB
100
AcDbEntity
  8
0
100
AcDbLine
 62
7
  6
CONTINUOUS
 10
326.6588112765
 20
339.9620660232
 11
325.1588112765
 21
339.9620660232
  0
LINE
  5
3EC
100
AcDbEntity
  8
0
100
AcDbLine
 62
7
  6
CONTINUOUS
 10
306.1588093691
 20
339.9620660232
 11
303.9088093691
 21
339.9620660232
  0
LINE
  5
3ED
100
AcDbEntity
  8
0
100
AcDbLine
 62
7
  6
CONTINUOUS
 10
294.6588103228
 20
339.9620660232
 11
288.6588103228
 21
339.9620660232
  0
LINE
  5
3EE
100
AcDbEntity
  8
0
100
AcDbLine
 62
7
  6
CONTINUOUS
 10
283.4088088923
 20
339.9620660232
 11
277.4088088923
 21
339.9620660232
  0
LINE
  5
3EF
100
AcDbEntity
  8
0
100
AcDbLine
 62
7
  6
CONTINUOUS
 10
275.4088093691
 20
339.9620660232
 11
273.9088093691
 21
339.9620660232
  0
LINE
  5
3F0
100
AcDbEntity
  8
0
100
AcDbLine
 62
7
  6
CONTINUOUS
 10
270.4088091307
 20
339.9620660232
 11
268.4088092499
 21
339.9620660232
  0
LINE
  5
3F1
100
AcDbEntity
  8
0
100
AcDbLine
 62
7
  6
CONTINUOUS
 10
264.9088093691
 20
339.9620660232
 11
263.4088093691
 21
339.9620660232
  0
LINE
  5
3F2
100
AcDbEntity
  8
0
100
AcDbLine
 62
7
  6
CONTINUOUS
 10
331.6588093691
 20
328.217385164
 11
333.1588093691
 21
327.9620660232
  0
LINE
  5
3F3
100
AcDbEntity
  8
0
100
AcDbLine
 62
7
  6
CONTINUOUS
 10
342.6588074618
 20
328.217385164
 11
344.1588074618
 21
327.9620660232
  0
LINE
  5
3F4
100
AcDbEntity
  8
0
100
AcDbLine
 62
7
  6
CONTINUOUS
 10
354.6588074618
 20
328.217385164
 11
356.1588074618
 21
327.9620660232
  0
LINE
  5
3F5
100
AcDbEntity
  8
0
100
AcDbLine
 62
7
  6
CONTINUOUS
 10
302.6588084154
 20
328.217385164
 11
303.9088093691
 21
327.9620660232
  0
LINE
  5
3F6
100
AcDbEntity
  8
0
100
AcDbLine
 62
7
  6
CONTINUOUS
 10
333.1588093691
 20
329.2386617945
 11
331.9088112765
 21
329.493980913
  0
LINE
  5
3F7
100
AcDbEntity
  8
0
100
AcDbLine
 62
7
  6
CONTINUOUS
 10
284.658809846
 20
339.7067469047
 11
283.4088088923
 21
339.9620660232
  0
LINE
  5
3F8
100
AcDbEntity
  8
0
100
AcDbLine
 62
7
  6
CONTINUOUS
 10
344.1588074618
 20
329.2386617945
 11
342.9088093691
 21
329.493980913
  0
LINE
  5
3F9
100
AcDbEntity
  8
0
100
AcDbLine
 62
7
  6
CONTINUOUS
 10
295.9088084154
 20
339.7067469047
 11
294.6588103228
 21
339.9620660232
  0
LINE
  5
3FA
100
AcDbEntity
  8
0
100
AcDbLine
 62
7
  6
CONTINUOUS
 10
303.9088093691
 20
329.493980913
 11
302.9088103228
 21
329.7493000315
  0
LINE
  5
3FB
100
AcDbEntity
  8
0
100
AcDbLine
 62
7
  6
CONTINUOUS
 10
283.6588093691
 20
333.3237682269
 11
284.4088093691
 21
333.0684491084
  0
LINE
  5
3FC
100
AcDbEntity
  8
0
100
AcDbLine
 62
7
  6
CONTINUOUS
 10
283.6588093691
 20
338.4301513122
 11
284.4088093691
 21
338.1748321937
  0
LINE
  5
3FD
100
AcDbEntity
  8
BEZUGSACHSEN
100
AcDbLine
 62
7
  6
CONTINUOUS
 10
111.7325391799
 20
507.9620660232
 11
128.4338093691
 21
479.0346175045
  0
LINE
  5
3FE
100
AcDbEntity
  8
BEZUGSACHSEN
100
AcDbLine
 62
7
  6
CONTINUOUS
 10
189.2325391799
 20
373.7281284366
 11
210.8831742745
 21
336.2281284366
  0
LINE
  5
3FF
100
AcDbEntity
  8
KONSTRUKTIONSELEMENTE
100
AcDbLine
 62
7
  6
CONTINUOUS
 10
202.6822523331
 20
650.0112836603
 11
202.2780695969
 21
649.027934528
  0
LINE
  5
400
100
AcDbEntity
  8
KONSTRUKTIONSELEMENTE
100
AcDbLine
 62
7
  6
CONTINUOUS
 10
223.9950110159
 20
663.5836872068
 11
223.6368256766
 21
662.9178000115
  0
LINE
  5
401
100
AcDbEntity
  8
KONSTRUKTIONSELEMENTE
100
AcDbLine
 62
7
  6
CONTINUOUS
 10
125.8620936274
 20
514.7993019075
 11
126.1882022074
 21
515.3733642176
  0
LINE
  5
402
100
AcDbEntity
  8
KONSTRUKTIONSELEMENTE
100
AcDbLine
 62
7
  6
CONTINUOUS
 10
203.3620936274
 20
649.0332394941
 11
203.6882022074
 21
649.6073018042
  0
LINE
  5
403
100
AcDbEntity
  8
KONSTRUKTIONSELEMENTE
100
AcDbLine
 62
7
  6
CONTINUOUS
 10
224.4106323264
 20
661.8813043055
 11
224.9536531439
 21
662.6433075382
  0
LINE
  5
404
100
AcDbEntity
  8
KONSTRUKTIONSELEMENTE
100
AcDbLine
 62
7
  6
CONTINUOUS
 10
214.8456346514
 20
655.7440220632
 11
214.3513730643
 21
655.073089436
  0
LINE
  5
405
100
AcDbEntity
  8
KONSTRUKTIONSELEMENTE
100
AcDbLine
 62
7
  6
CONTINUOUS
 10
215.3791842558
 20
654.3159231123
 11
215.8734458429
 21
654.9868557395
  0
LINE
  5
406
100
AcDbEntity
  8
KONSTRUKTIONSELEMENTE
100
AcDbLine
 62
7
  6
CONTINUOUS
 10
128.4338093691
 20
524.120590126
 11
127.8509512808
 21
523.3293926738
  0
LINE
  5
407
100
AcDbEntity
  8
KONSTRUKTIONSELEMENTE
100
AcDbLine
 62
7
  6
CONTINUOUS
 10
250.4593416337
 20
667.6801343195
 11
243.3536871622
 21
661.4247017041
  0
LINE
  5
408
100
AcDbEntity
  8
KONSTRUKTIONSELEMENTE
100
AcDbLine
 62
7
  6
CONTINUOUS
 10
243.5582498854
 20
660.0889116572
 11
249.9606486315
 21
665.5193787861
  0
LINE
  5
409
100
AcDbEntity
  8
KONSTRUKTIONSELEMENTE
100
AcDbLine
 62
7
  6
CONTINUOUS
 10
252.0137125407
 20
658.8009920156
 11
250.9203345402
 21
658.1420370736
  0
LINE
  5
40A
100
AcDbEntity
  8
KONSTRUKTIONSELEMENTE
100
AcDbLine
 62
7
  6
CONTINUOUS
 10
258.0569824727
 20
656.605285806
 11
254.594619102
 21
654.5185953359
  0
LINE
  5
40B
100
AcDbEntity
  8
KONSTRUKTIONSELEMENTE
100
AcDbLine
 62
7
  6
CONTINUOUS
 10
253.5012411014
 20
653.8596403939
 11
250.9500261071
 21
652.3220790677
  0
LINE
  5
40C
100
AcDbEntity
  8
KONSTRUKTIONSELEMENTE
100
AcDbLine
 62
7
  6
CONTINUOUS
 10
251.5952527474
 20
651.2514798978
 11
254.1464677417
 21
652.789041224
  0
LINE
  5
40D
100
AcDbEntity
  8
KONSTRUKTIONSELEMENTE
100
AcDbLine
 62
7
  6
CONTINUOUS
 10
255.2398457423
 20
653.447996166
 11
260.1600461067
 21
656.4132930203
  0
LINE
  5
40E
100
AcDbEntity
  8
KONSTRUKTIONSELEMENTE
100
AcDbLine
 62
7
  6
CONTINUOUS
 10
255.221846296
 20
651.0047079128
 11
256.3152242966
 21
651.6636628548
  0
LINE
  5
40F
100
AcDbEntity
  8
KONSTRUKTIONSELEMENTE
100
AcDbLine
 62
7
  6
CONTINUOUS
 10
255.6776380996
 20
647.9560835335
 11
254.6535481904
 21
647.4495388845
  0
LINE
  5
410
100
AcDbEntity
  8
0
100
AcDbLine
 62
7
  6
CONTINUOUS
 10
302.9088103228
 20
338.1748321937
 11
303.9088093691
 21
338.4301513122
  0
LINE
  5
411
100
AcDbEntity
  8
0
100
AcDbLine
 62
7
  6
CONTINUOUS
 10
323.2838084154
 20
354.7493000315
 11
322.2838093691
 21
354.493980913
  0
LINE
  5
412
100
AcDbEntity
  8
0
100
AcDbLine
 62
7
  6
CONTINUOUS
 10
311.283809846
 20
354.7493000315
 11
310.2838093691
 21
354.493980913
  0
LINE
  5
413
100
AcDbEntity
  8
0
100
AcDbLine
 62
7
  6
CONTINUOUS
 10
303.9088093691
 20
339.9620660232
 11
302.6588084154
 21
339.7067469047
  0
LINE
  5
414
100
AcDbEntity
  8
0
100
AcDbLine
 62
7
  6
CONTINUOUS
 10
322.2838093691
 20
352.9620660232
 11
323.5338103228
 21
353.217385164
  0
LINE
  5
415
100
AcDbEntity
  8
0
100
AcDbLine
 62
7
  6
CONTINUOUS
 10
310.2838093691
 20
352.9620660232
 11
311.5338088923
 21
353.217385164
  0
LINE
  5
416
100
AcDbEntity
  8
0
100
AcDbLine
 62
7
  6
CONTINUOUS
 10
293.7838093691
 20
352.9620660232
 11
295.2838093691
 21
352.9620660232
  0
LINE
  5
417
100
AcDbEntity
  8
0
100
AcDbLine
 62
7
  6
CONTINUOUS
 10
301.5338091307
 20
352.9620660232
 11
303.2838096075
 21
352.9620660232
  0
LINE
  5
418
100
AcDbEntity
  8
0
100
AcDbLine
 62
7
  6
CONTINUOUS
 10
309.2838088923
 20
352.9620660232
 11
310.2838093691
 21
352.9620660232
  0
LINE
  5
419
100
AcDbEntity
  8
0
100
AcDbLine
 62
7
  6
CONTINUOUS
 10
316.2838093691
 20
352.9620660232
 11
322.2838093691
 21
352.9620660232
  0
LINE
  5
41A
100
AcDbEntity
  8
0
100
AcDbLine
 62
7
  6
CONTINUOUS
 10
322.2838093691
 20
354.493980913
 11
317.7838093691
 21
354.493980913
  0
LINE
  5
41B
100
AcDbEntity
  8
0
100
AcDbLine
 62
7
  6
CONTINUOUS
 10
310.2838093691
 20
354.493980913
 11
309.2838088923
 21
354.493980913
  0
LINE
  5
41C
100
AcDbEntity
  8
0
100
AcDbLine
 62
7
  6
CONTINUOUS
 10
295.2838093691
 20
358.3237682269
 11
299.5338092499
 21
358.3237682269
  0
LINE
  5
41D
100
AcDbEntity
  8
0
100
AcDbLine
 62
7
  6
CONTINUOUS
 10
334.6588093691
 20
339.7067469047
 11
333.1588093691
 21
339.9620660232
  0
LINE
  5
41E
100
AcDbEntity
  8
0
100
AcDbLine
 62
7
  6
CONTINUOUS
 10
345.6588074618
 20
339.7067469047
 11
344.1588074618
 21
339.9620660232
  0
LINE
  5
41F
100
AcDbEntity
  8
KONSTRUKTIONSELEMENTE
100
AcDbLine
 62
7
  6
CONTINUOUS
 10
201.3411801697
 20
375.6486198304
 11
211.1640592184
 21
373.7748409762
  0
LINE
  5
420
100
AcDbEntity
  8
KONSTRUKTIONSELEMENTE
100
AcDbLine
 62
7
  6
CONTINUOUS
 10
211.3982815752
 20
375.0027008573
 11
207.009335555
 21
375.8399212083
  0
LINE
  5
421
100
AcDbEntity
  8
KONSTRUKTIONSELEMENTE
100
AcDbLine
 62
7
  6
CONTINUOUS
 10
205.7553511451
 20
376.079126991
 11
202.6203895348
 21
376.6771415593
  0
LINE
  5
422
100
AcDbEntity
  8
0
100
AcDbLine
 62
7
  6
CONTINUOUS
 10
356.1588074618
 20
328.9833425866
 11
354.9088093691
 21
329.2386617945
  0
LINE
  5
423
100
AcDbEntity
  8
0
100
AcDbLine
 62
7
  6
CONTINUOUS
 10
307.4088103228
 20
339.7067469047
 11
306.1588093691
 21
339.9620660232
  0
LINE
  5
424
100
AcDbEntity
  8
0
100
AcDbLine
 62
7
  6
CONTINUOUS
 10
333.1588093691
 20
338.6854704307
 11
334.4088074618
 21
338.4301513122
  0
LINE
  5
425
100
AcDbEntity
  8
0
100
AcDbLine
 62
7
  6
CONTINUOUS
 10
344.1588074618
 20
338.6854704307
 11
345.4088112765
 21
338.4301513122
  0
LINE
  5
426
100
AcDbEntity
  8
0
100
AcDbLine
 62
7
  6
CONTINUOUS
 10
308.0338093691
 20
353.217385164
 11
309.2838088923
 21
352.9620660232
  0
LINE
  5
427
100
AcDbEntity
  8
0
100
AcDbLine
 62
7
  6
CONTINUOUS
 10
306.1588093691
 20
338.4301513122
 11
307.1588084154
 21
338.1748321937
  0
LINE
  5
428
100
AcDbEntity
  8
0
100
AcDbLine
 62
7
  6
CONTINUOUS
 10
309.2838088923
 20
354.493980913
 11
308.283809846
 21
354.7493000315
  0
LINE
  5
429
100
AcDbEntity
  8
0
100
AcDbLine
 62
7
  6
CONTINUOUS
 10
294.9088093691
 20
338.6854704307
 11
295.6588093691
 21
338.4301513122
  0
LINE
  5
42A
100
AcDbEntity
  8
0
100
AcDbLine
 62
7
  6
CONTINUOUS
 10
353.9088074618
 20
328.4727043049
 11
354.6588074618
 21
328.217385164
  0
LINE
  5
42B
100
AcDbEntity
  8
KONSTRUKTIONSELEMENTE
100
AcDbLine
 62
7
  6
CONTINUOUS
 10
212.211473832
 20
385.8527828952
 11
211.4027015845
 21
386.1898279485
  0
LINE
  5
42C
100
AcDbEntity
  8
KONSTRUKTIONSELEMENTE
100
AcDbLine
 62
7
  6
CONTINUOUS
 10
210.6613092038
 20
385.1834290077
 11
211.6413840037
 21
384.7201905416
  0
LINE
  5
42D
100
AcDbEntity
  8
0
100
AcDbLine
 62
7
  6
CONTINUOUS
 10
285.6588088923
 20
333.8344064639
 11
285.1588093691
 21
334.0897255824
  0
LINE
  5
42E
100
AcDbEntity
  8
0
100
AcDbLine
 62
7
  6
CONTINUOUS
 10
301.6588093691
 20
328.7280234681
 11
302.6588084154
 21
328.217385164
  0
LINE
  5
42F
100
AcDbEntity
  8
0
100
AcDbLine
 62
7
  6
CONTINUOUS
 10
308.4088093691
 20
339.1961086677
 11
307.4088103228
 21
339.7067469047
  0
LINE
  5
430
100
AcDbEntity
  8
KONSTRUKTIONSELEMENTE
100
AcDbLine
 62
7
  6
CONTINUOUS
 10
205.4772931845
 20
381.4344154163
 11
206.0652483672
 21
381.1101694066
  0
LINE
  5
431
100
AcDbEntity
  8
KONSTRUKTIONSELEMENTE
100
AcDbLine
 62
7
  6
CONTINUOUS
 10
206.5084681257
 20
382.2981616573
 11
205.920512943
 21
382.622407667
  0
LINE
  5
432
100
AcDbEntity
  8
0
100
AcDbLine
 62
7
  6
CONTINUOUS
 10
302.9088103228
 20
329.7493000315
 11
302.1588103228
 21
330.2599384473
  0
LINE
  5
433
100
AcDbEntity
  8
KONSTRUKTIONSELEMENTE
100
AcDbLine
 62
7
  6
CONTINUOUS
 10
205.3509512808
 20
389.0954550872
 11
210.6613092038
 21
385.1834290077
  0
LINE
  5
434
100
AcDbEntity
  8
KONSTRUKTIONSELEMENTE
100
AcDbLine
 62
7
  6
CONTINUOUS
 10
211.4027015845
 20
386.1898279485
 11
206.0923436615
 21
390.101854028
  0
LINE
  5
435
100
AcDbEntity
  8
KONSTRUKTIONSELEMENTE
100
AcDbLine
 62
7
  6
CONTINUOUS
 10
209.0579117701
 20
394.1274478715
 11
214.3682696931
 21
390.215421792
  0
LINE
  5
436
100
AcDbEntity
  8
KONSTRUKTIONSELEMENTE
100
AcDbLine
 62
7
  6
CONTINUOUS
 10
215.1096617202
 20
391.2218202529
 11
209.7993037972
 21
395.1338463324
  0
LINE
  5
437
100
AcDbEntity
  8
0
100
AcDbLine
 62
7
  6
CONTINUOUS
 10
285.6588088923
 20
338.9407895492
 11
284.658809846
 21
339.7067469047
  0
LINE
  5
438
100
AcDbEntity
  8
KONSTRUKTIONSELEMENTE
100
AcDbLine
 62
7
  6
CONTINUOUS
 10
207.2273465539
 20
381.524761195
 11
206.5084681257
 21
382.2981616573
  0
LINE
  5
439
100
AcDbEntity
  8
KONSTRUKTIONSELEMENTE
100
AcDbLine
 62
7
  6
CONTINUOUS
 10
215.842605373
 20
390.4231149934
 11
215.1096617202
 21
391.2218202529
  0
LINE
  5
43A
100
AcDbEntity
  8
KONSTRUKTIONSELEMENTE
100
AcDbLine
 62
7
  6
CONTINUOUS
 10
214.3682696931
 20
390.215421792
 11
214.9299115006
 21
389.5429109051
  0
LINE
  5
43B
100
AcDbEntity
  8
KONSTRUKTIONSELEMENTE
100
AcDbLine
 62
7
  6
CONTINUOUS
 10
206.0652483672
 20
381.1101694066
 11
206.4051690144
 21
380.6211473236
  0
LINE
  5
43C
100
AcDbEntity
  8
RUNDUNGEN
100
AcDbLine
 62
7
  6
CONTINUOUS
 10
171.4338093691
 20
442.0038617853
 11
171.4338093691
 21
466.5216701096
  0
LINE
  5
43D
100
AcDbEntity
  8
RUNDUNGEN
100
AcDbLine
 62
7
  6
CONTINUOUS
 10
171.4338093691
 20
549.4024619368
 11
171.4338093691
 21
573.9202702553
  0
LINE
  5
43E
100
AcDbEntity
  8
KONSTRUKTIONSELEMENTE
100
AcDbLine
 62
7
  6
CONTINUOUS
 10
202.2780695969
 20
649.027934528
 11
201.3411801697
 21
644.1164950036
  0
LINE
  5
43F
100
AcDbEntity
  8
KONSTRUKTIONSELEMENTE
100
AcDbLine
 62
7
  6
CONTINUOUS
 10
202.6203895348
 20
645.1450167325
 11
203.3620936274
 21
649.0332394941
  0
LINE
  5
440
100
AcDbEntity
  8
KONSTRUKTIONSELEMENTE
100
AcDbLine
 62
7
  6
CONTINUOUS
 10
215.1685943932
 20
656.5411490629
 11
214.8456346514
 21
655.7440220632
  0
LINE
  5
441
100
AcDbEntity
  8
KONSTRUKTIONSELEMENTE
100
AcDbLine
 62
7
  6
CONTINUOUS
 10
215.8734458429
 20
654.9868557395
 11
216.3199704363
 21
655.9517151872
  0
LINE
  5
442
100
AcDbEntity
  8
KONSTRUKTIONSELEMENTE
100
AcDbLine
 62
7
  6
CONTINUOUS
 10
243.3783782032
 20
671.6645517043
 11
238.4744798835
 21
662.9495197899
  0
LINE
  5
443
100
AcDbEntity
  8
KONSTRUKTIONSELEMENTE
100
AcDbLine
 62
7
  6
CONTINUOUS
 10
239.5638588728
 20
662.3365324999
 11
243.4243746957
 21
669.1973025259
  0
LINE
  5
444
100
AcDbEntity
  8
KONSTRUKTIONSELEMENTE
100
AcDbLine
 62
7
  6
CONTINUOUS
 10
249.9606486315
 20
665.5193787861
 11
246.1001328086
 21
658.6586087601
  0
LINE
  5
445
100
AcDbEntity
  8
KONSTRUKTIONSELEMENTE
100
AcDbLine
 62
7
  6
CONTINUOUS
 10
254.6535481904
 20
647.4495388845
 11
254.0713182456
 21
646.7720010899
  0
LINE
  5
446
100
AcDbEntity
  8
KONSTRUKTIONSELEMENTE
100
AcDbLine
 62
7
  6
CONTINUOUS
 10
259.1230081765
 20
647.6259266351
 11
258.5407783059
 21
646.9483888469
  0
LINE
  5
447
100
AcDbEntity
  8
KONSTRUKTIONSELEMENTE
100
AcDbLine
 62
7
  6
CONTINUOUS
 10
254.972940952
 20
646.2224457317
 11
255.7671499
 21
646.9182667362
  0
LINE
  5
448
100
AcDbEntity
  8
KONSTRUKTIONSELEMENTE
100
AcDbLine
 62
7
  6
CONTINUOUS
 10
257.6627555885
 20
642.2723080703
 11
256.868546492
 21
641.5764870531
  0
LINE
  5
449
100
AcDbEntity
  8
KONSTRUKTIONSELEMENTE
100
AcDbLine
 62
7
  6
CONTINUOUS
 10
259.6364778348
 20
646.6246762446
 11
260.2366097377
 21
647.0946544739
  0
LINE
  5
44A
100
AcDbEntity
  8
KONSTRUKTIONSELEMENTE
100
AcDbLine
 62
7
  6
CONTINUOUS
 10
261.6903558328
 20
642.6196889858
 11
261.0902229264
 21
642.149715456
  0
LINE
  5
44B
100
AcDbEntity
  8
KONSTRUKTIONSELEMENTE
100
AcDbLine
 62
7
  6
CONTINUOUS
 10
259.9351194181
 20
648.1141833171
 11
259.1230081765
 21
647.6259266351
  0
LINE
  5
44C
100
AcDbEntity
  8
KONSTRUKTIONSELEMENTE
100
AcDbLine
 62
7
  6
CONTINUOUS
 10
256.9580578826
 20
640.5386750065
 11
257.9821483501
 21
641.0452149175
  0
LINE
  5
44D
100
AcDbEntity
  8
KONSTRUKTIONSELEMENTE
100
AcDbLine
 62
7
  6
CONTINUOUS
 10
261.1797347268
 20
641.1118986586
 11
262.2038250814
 21
641.618443346
  0
LINE
  5
44E
100
AcDbEntity
  8
KONSTRUKTIONSELEMENTE
100
AcDbLine
 62
7
  6
CONTINUOUS
 10
374.9933639916
 20
670.3759014229
 11
373.9710210782
 21
670.0840874249
  0
LINE
  5
44F
100
AcDbEntity
  8
KONSTRUKTIONSELEMENTE
100
AcDbLine
 62
7
  6
CONTINUOUS
 10
367.6474675153
 20
381.5512870849
 11
362.4891931566
 21
380.6264528752
  0
LINE
  5
450
100
AcDbEntity
  8
KONSTRUKTIONSELEMENTE
100
AcDbLine
 62
7
  6
CONTINUOUS
 10
362.6729655473
 20
379.3188574405
 11
367.3742080246
 21
380.1187835
  0
LINE
  5
451
100
AcDbEntity
  8
KONSTRUKTIONSELEMENTE
100
AcDbLine
 62
7
  6
CONTINUOUS
 10
367.5737222982
 20
384.5508792766
 11
368.7531906193
 21
384.7170334096
  0
LINE
  5
452
100
AcDbEntity
  8
KONSTRUKTIONSELEMENTE
100
AcDbLine
 62
7
  6
CONTINUOUS
 10
359.1842711669
 20
381.4689781923
 11
359.8503003941
 21
381.5540184193
  0
LINE
  5
453
100
AcDbEntity
  8
KONSTRUKTIONSELEMENTE
100
AcDbLine
 62
7
  6
CONTINUOUS
 10
360.0845227509
 20
382.7818783004
 11
359.4184935237
 21
382.6968380734
  0
LINE
  5
454
100
AcDbEntity
  8
KONSTRUKTIONSELEMENTE
100
AcDbLine
 62
7
  6
CONTINUOUS
 10
411.3221210957
 20
372.0159502232
 11
411.9580578826
 21
372.0707998333
  0
LINE
  5
455
100
AcDbEntity
  8
KONSTRUKTIONSELEMENTE
100
AcDbLine
 62
7
  6
CONTINUOUS
 10
415.5437979398
 20
372.5891738753
 11
416.1797347268
 21
372.6440234855
  0
LINE
  5
456
100
AcDbEntity
  8
KONSTRUKTIONSELEMENTE
100
AcDbLine
 62
7
  6
CONTINUOUS
 10
411.868546492
 20
373.1086118799
 11
411.2326097051
 21
373.0537622698
  0
LINE
  5
457
100
AcDbEntity
  8
KONSTRUKTIONSELEMENTE
100
AcDbLine
 62
7
  6
CONTINUOUS
 10
416.0902229264
 20
373.6818402828
 11
415.6662650684
 21
373.645273876
  0
LINE
  5
458
100
AcDbEntity
  8
KONSTRUKTIONSELEMENTE
100
AcDbLine
 62
7
  6
CONTINUOUS
 10
415.2366097377
 20
378.6267793008
 11
415.6605675957
 21
378.6633457075
  0
LINE
  5
459
100
AcDbEntity
  8
KONSTRUKTIONSELEMENTE
100
AcDbLine
 62
7
  6
CONTINUOUS
 10
410.7671499
 20
378.450391563
 11
411.403086687
 21
378.5052411731
  0
LINE
  5
45A
100
AcDbEntity
  8
KONSTRUKTIONSELEMENTE
100
AcDbLine
 62
7
  6
CONTINUOUS
 10
415.571056205
 20
379.7011577541
 11
414.9351194181
 21
379.646308144
  0
LINE
  5
45B
100
AcDbEntity
  8
KONSTRUKTIONSELEMENTE
100
AcDbLine
 62
7
  6
CONTINUOUS
 10
411.3135748866
 20
379.5430579705
 11
410.6776380996
 21
379.4882083603
  0
LINE
  5
45C
100
AcDbEntity
  8
KONSTRUKTIONSELEMENTE
100
AcDbLine
 62
7
  6
CONTINUOUS
 10
256.3221210957
 20
372.0159502232
 11
256.9580578826
 21
372.0707998333
  0
LINE
  5
45D
100
AcDbEntity
  8
KONSTRUKTIONSELEMENTE
100
AcDbLine
 62
7
  6
CONTINUOUS
 10
260.5437979398
 20
372.5891738753
 11
261.1797347268
 21
372.6440234855
  0
LINE
  5
45E
100
AcDbEntity
  8
KONSTRUKTIONSELEMENTE
100
AcDbLine
 62
7
  6
CONTINUOUS
 10
256.868546492
 20
373.1086118799
 11
256.2326097051
 21
373.0537622698
  0
LINE
  5
45F
100
AcDbEntity
  8
KONSTRUKTIONSELEMENTE
100
AcDbLine
 62
7
  6
CONTINUOUS
 10
261.0902229264
 20
373.6818402828
 11
260.6662650684
 21
373.645273876
  0
LINE
  5
460
100
AcDbEntity
  8
0
100
AcDbLine
 62
7
  6
CONTINUOUS
 10
300.0338091307
 20
359.8556829379
 11
295.2838093691
 21
359.8556829379
  0
LINE
  5
461
100
AcDbEntity
  8
0
100
AcDbLine
 62
7
  6
CONTINUOUS
 10
317.7838093691
 20
363.4301513122
 11
322.2838093691
 21
363.4301513122
  0
LINE
  5
462
100
AcDbEntity
  8
0
100
AcDbLine
 62
7
  6
CONTINUOUS
 10
295.2838093691
 20
363.6854704307
 11
300.0338091307
 21
363.6854704307
  0
LINE
  5
463
100
AcDbEntity
  8
0
100
AcDbLine
 62
7
  6
CONTINUOUS
 10
322.2838093691
 20
364.9620660232
 11
316.2838093691
 21
364.9620660232
  0
LINE
  5
464
100
AcDbEntity
  8
0
100
AcDbLine
 62
7
  6
CONTINUOUS
 10
314.283809846
 20
364.9620660232
 11
312.783809846
 21
364.9620660232
  0
LINE
  5
465
100
AcDbEntity
  8
0
100
AcDbLine
 62
7
  6
CONTINUOUS
 10
306.783809846
 20
364.9620660232
 11
305.2838091307
 21
364.9620660232
  0
LINE
  5
466
100
AcDbEntity
  8
0
100
AcDbLine
 62
7
  6
CONTINUOUS
 10
299.7838093691
 20
364.9620660232
 11
293.7838093691
 21
364.9620660232
  0
LINE
  5
467
100
AcDbEntity
  8
KONSTRUKTIONSELEMENTE
100
AcDbLine
 62
7
  6
CONTINUOUS
 10
211.6413840037
 20
384.7201905416
 11
212.5737222982
 21
384.5508792766
  0
LINE
  5
468
100
AcDbEntity
  8
KONSTRUKTIONSELEMENTE
100
AcDbLine
 62
7
  6
CONTINUOUS
 10
204.8503003941
 20
381.5540184193
 11
205.4772931845
 21
381.4344154163
  0
LINE
  5
469
100
AcDbEntity
  8
KONSTRUKTIONSELEMENTE
100
AcDbLine
 62
7
  6
CONTINUOUS
 10
205.920512943
 20
382.622407667
 11
205.0845227509
 21
382.7818783004
  0
LINE
  5
46A
100
AcDbEntity
  8
0
100
AcDbLine
 62
7
  6
CONTINUOUS
 10
301.0338096075
 20
364.7067469047
 11
299.7838093691
 21
364.9620660232
  0
LINE
  5
46B
100
AcDbEntity
  8
0
100
AcDbLine
 62
7
  6
CONTINUOUS
 10
323.5338103228
 20
364.7067469047
 11
322.2838093691
 21
364.9620660232
  0
LINE
  5
46C
100
AcDbEntity
  8
0
100
AcDbLine
 62
7
  6
CONTINUOUS
 10
322.2838093691
 20
363.4301513122
 11
323.2838084154
 21
363.1748321937
  0
LINE
  5
46D
100
AcDbEntity
  8
KONSTRUKTIONSELEMENTE
100
AcDbLine
 62
7
  6
CONTINUOUS
 10
255.2264218281
 20
372.339658062
 11
256.3221210957
 21
372.0159502232
  0
LINE
  5
46E
100
AcDbEntity
  8
KONSTRUKTIONSELEMENTE
100
AcDbLine
 62
7
  6
CONTINUOUS
 10
257.4092747124
 20
379.2193453938
 11
256.3135748866
 21
379.5430579705
  0
LINE
  5
46F
100
AcDbEntity
  8
KONSTRUKTIONSELEMENTE
100
AcDbLine
 62
7
  6
CONTINUOUS
 10
261.666755918
 20
379.3774499538
 11
260.571056205
 21
379.7011577541
  0
LINE
  5
470
100
AcDbEntity
  8
0
100
AcDbLine
 62
7
  6
CONTINUOUS
 10
300.0338091307
 20
363.6854704307
 11
300.7838091307
 21
363.4301513122
  0
LINE
  5
471
100
AcDbEntity
  8
KONSTRUKTIONSELEMENTE
100
AcDbLine
 62
7
  6
CONTINUOUS
 10
259.6600773399
 20
372.931169681
 11
260.5437979398
 21
372.5891738753
  0
LINE
  5
472
100
AcDbEntity
  8
0
100
AcDbLine
 62
7
  6
CONTINUOUS
 10
307.0338088923
 20
353.7280234681
 11
308.0338093691
 21
353.217385164
  0
LINE
  5
473
100
AcDbEntity
  8
KONSTRUKTIONSELEMENTE
100
AcDbLine
 62
7
  6
CONTINUOUS
 10
260.6662650684
 20
373.645273876
 11
259.9945238072
 21
374.0055481343
  0
LINE
  5
474
100
AcDbEntity
  8
KONSTRUKTIONSELEMENTE
100
AcDbLine
 62
7
  6
CONTINUOUS
 10
260.6605675957
 20
378.6633457075
 11
261.3323098605
 21
378.3030667497
  0
LINE
  5
475
100
AcDbEntity
  8
KONSTRUKTIONSELEMENTE
100
AcDbLine
 62
7
  6
CONTINUOUS
 10
238.4744798835
 20
394.4816446167
 11
239.5638588728
 21
393.8686573268
  0
LINE
  5
476
100
AcDbEntity
  8
KONSTRUKTIONSELEMENTE
100
AcDbLine
 62
7
  6
CONTINUOUS
 10
242.1057417959
 20
392.4383544296
 11
243.5582498854
 21
391.6210364841
  0
LINE
  5
477
100
AcDbEntity
  8
KONSTRUKTIONSELEMENTE
100
AcDbLine
 62
7
  6
CONTINUOUS
 10
246.1001328086
 20
390.1907335869
 11
247.1895117979
 21
389.5777462969
  0
LINE
  5
478
100
AcDbEntity
  8
KONSTRUKTIONSELEMENTE
100
AcDbLine
 62
7
  6
CONTINUOUS
 10
221.1483269143
 20
400.590108076
 11
221.8124846947
 21
400.2160344819
  0
LINE
  5
479
100
AcDbEntity
  8
KONSTRUKTIONSELEMENTE
100
AcDbLine
 62
7
  6
CONTINUOUS
 10
256.2326097051
 20
373.0537622698
 11
255.3309869244
 21
373.6033176215
  0
LINE
  5
47A
100
AcDbEntity
  8
KONSTRUKTIONSELEMENTE
100
AcDbLine
 62
7
  6
CONTINUOUS
 10
256.403086687
 20
378.5052411731
 11
257.3047096161
 21
377.9556858342
  0
LINE
  5
47B
100
AcDbEntity
  8
0
100
AcDbLine
 62
7
  6
CONTINUOUS
 10
330.4088112765
 20
328.9833425866
 11
331.6588093691
 21
328.217385164
  0
LINE
  5
47C
100
AcDbEntity
  8
0
100
AcDbLine
 62
7
  6
CONTINUOUS
 10
341.4088093691
 20
328.9833425866
 11
342.6588074618
 21
328.217385164
  0
LINE
  5
47D
100
AcDbEntity
  8
0
100
AcDbLine
 62
7
  6
CONTINUOUS
 10
335.9088074618
 20
338.9407895492
 11
334.6588093691
 21
339.7067469047
  0
LINE
  5
47E
100
AcDbEntity
  8
0
100
AcDbLine
 62
7
  6
CONTINUOUS
 10
307.1588084154
 20
338.1748321937
 11
307.9088084154
 21
337.6641939567
  0
LINE
  5
47F
100
AcDbEntity
  8
0
100
AcDbLine
 62
7
  6
CONTINUOUS
 10
331.9088112765
 20
329.493980913
 11
331.1588112765
 21
330.00461915
  0
LINE
  5
480
100
AcDbEntity
  8
KONSTRUKTIONSELEMENTE
100
AcDbLine
 62
7
  6
CONTINUOUS
 10
222.8233397553
 20
400.981502732
 11
222.0610207435
 21
401.5443445989
  0
LINE
  5
481
100
AcDbEntity
  8
0
100
AcDbLine
 62
7
  6
CONTINUOUS
 10
296.9088103228
 20
338.9407895492
 11
295.9088084154
 21
339.7067469047
  0
LINE
  5
482
100
AcDbEntity
  8
KONSTRUKTIONSELEMENTE
100
AcDbLine
 62
7
  6
CONTINUOUS
 10
254.5367780506
 20
372.9074966235
 11
255.2264218281
 21
372.339658062
  0
LINE
  5
483
100
AcDbEntity
  8
KONSTRUKTIONSELEMENTE
100
AcDbLine
 62
7
  6
CONTINUOUS
 10
258.9704336366
 20
373.499008249
 11
259.6600773399
 21
372.931169681
  0
LINE
  5
484
100
AcDbEntity
  8
KONSTRUKTIONSELEMENTE
100
AcDbLine
 62
7
  6
CONTINUOUS
 10
262.3563996213
 20
378.8096113858
 11
261.666755918
 21
379.3774499538
  0
LINE
  5
485
100
AcDbEntity
  8
0
100
AcDbLine
 62
7
  6
CONTINUOUS
 10
284.4088093691
 20
333.0684491084
 11
284.9088088923
 21
332.5578108714
  0
LINE
  5
486
100
AcDbEntity
  8
0
100
AcDbLine
 62
7
  6
CONTINUOUS
 10
284.4088093691
 20
338.1748321937
 11
284.9088088923
 21
337.6641939567
  0
LINE
  5
487
100
AcDbEntity
  8
0
100
AcDbLine
 62
7
  6
CONTINUOUS
 10
300.6588103228
 20
329.7493000315
 11
301.6588093691
 21
328.7280234681
  0
LINE
  5
488
100
AcDbEntity
  8
KONSTRUKTIONSELEMENTE
100
AcDbLine
 62
7
  6
CONTINUOUS
 10
221.8124846947
 20
400.2160344819
 11
222.389966156
 21
399.5570753951
  0
LINE
  5
489
100
AcDbEntity
  8
KONSTRUKTIONSELEMENTE
100
AcDbLine
 62
7
  6
CONTINUOUS
 10
223.4989829982
 20
400.1337743147
 11
222.8233397553
 21
400.981502732
  0
LINE
  5
48A
100
AcDbEntity
  8
KONSTRUKTIONSELEMENTE
100
AcDbLine
 62
7
  6
CONTINUOUS
 10
216.280682434
 20
389.5828715811
 11
215.842605373
 21
390.4231149934
  0
LINE
  5
48B
100
AcDbEntity
  8
KONSTRUKTIONSELEMENTE
100
AcDbLine
 62
7
  6
CONTINUOUS
 10
214.5349537096
 20
399.3094165736
 11
219.148545066
 21
390.4372818363
  0
LINE
  5
48C
100
AcDbEntity
  8
KONSTRUKTIONSELEMENTE
100
AcDbLine
 62
7
  6
CONTINUOUS
 10
219.6685928003
 20
392.1465936982
 11
216.2329395909
 21
398.753502683
  0
LINE
  5
48D
100
AcDbEntity
  8
KONSTRUKTIONSELEMENTE
100
AcDbLine
 62
7
  6
CONTINUOUS
 10
214.9299115006
 20
389.5429109051
 11
215.1966865963
 21
388.8288619537
  0
LINE
  5
48E
100
AcDbEntity
  8
KONSTRUKTIONSELEMENTE
100
AcDbLine
 62
7
  6
CONTINUOUS
 10
207.4891931566
 20
380.6264528752
 11
207.2273465539
 21
381.524761195
  0
LINE
  5
48F
100
AcDbEntity
  8
KONSTRUKTIONSELEMENTE
100
AcDbLine
 62
7
  6
CONTINUOUS
 10
216.3199704363
 20
655.9517151872
 11
216.4716282879
 21
656.8750365927
  0
LINE
  5
490
100
AcDbEntity
  8
KONSTRUKTIONSELEMENTE
100
AcDbLine
 62
7
  6
CONTINUOUS
 10
206.4970552377
 20
648.4352249257
 11
205.7553511451
 21
644.5470021641
  0
LINE
  5
491
100
AcDbEntity
  8
KONSTRUKTIONSELEMENTE
100
AcDbLine
 62
7
  6
CONTINUOUS
 10
207.009335555
 20
644.3077963815
 11
207.6729655473
 21
647.7867326136
  0
LINE
  5
492
100
AcDbEntity
  8
KONSTRUKTIONSELEMENTE
100
AcDbLine
 62
7
  6
CONTINUOUS
 10
211.1640592184
 20
642.2427161494
 11
211.3982815752
 21
643.4705760304
  0
LINE
  5
493
100
AcDbEntity
  8
KONSTRUKTIONSELEMENTE
100
AcDbLine
 62
7
  6
CONTINUOUS
 10
212.3742080246
 20
648.5866586731
 11
212.6474675153
 21
650.0191622581
  0
LINE
  5
494
100
AcDbEntity
  8
KONSTRUKTIONSELEMENTE
100
AcDbLine
 62
7
  6
CONTINUOUS
 10
224.9536531439
 20
662.6433075382
 11
225.3003509398
 21
663.7828483908
  0
LINE
  5
495
100
AcDbEntity
  8
KONSTRUKTIONSELEMENTE
100
AcDbLine
 62
7
  6
CONTINUOUS
 10
254.0713182456
 20
646.7720010899
 11
253.5248927936
 21
645.6793394284
  0
LINE
  5
496
100
AcDbEntity
  8
KONSTRUKTIONSELEMENTE
100
AcDbLine
 62
7
  6
CONTINUOUS
 10
247.1895117979
 20
658.0456214701
 11
252.0934101176
 21
666.7606533845
  0
LINE
  5
497
100
AcDbEntity
  8
KONSTRUKTIONSELEMENTE
100
AcDbLine
 62
7
  6
CONTINUOUS
 10
259.0721499965
 20
645.7395788975
 11
259.6364778348
 21
646.6246762446
  0
LINE
  5
498
100
AcDbEntity
  8
KONSTRUKTIONSELEMENTE
100
AcDbLine
 62
7
  6
CONTINUOUS
 10
257.9821483501
 20
641.0452149175
 11
258.5464757787
 21
641.9303170154
  0
LINE
  5
499
100
AcDbEntity
  8
KONSTRUKTIONSELEMENTE
100
AcDbLine
 62
7
  6
CONTINUOUS
 10
262.2546832614
 20
643.5047910837
 11
261.6903558328
 21
642.6196889858
  0
LINE
  5
49A
100
AcDbEntity
  8
KONSTRUKTIONSELEMENTE
100
AcDbLine
 62
7
  6
CONTINUOUS
 10
262.2038250814
 20
641.618443346
 11
262.786054952
 21
642.2959811342
  0
LINE
  5
49B
100
AcDbEntity
  8
KONSTRUKTIONSELEMENTE
100
AcDbLine
 62
7
  6
CONTINUOUS
 10
125.9653927387
 20
516.4763162412
 11
125.1822523331
 21
515.7773460737
  0
LINE
  5
49C
100
AcDbEntity
  8
KONSTRUKTIONSELEMENTE
100
AcDbLine
 62
7
  6
CONTINUOUS
 10
373.9710210782
 20
670.0840874249
 11
369.5349537096
 21
667.7772917467
  0
LINE
  5
49D
100
AcDbEntity
  8
KONSTRUKTIONSELEMENTE
100
AcDbLine
 62
7
  6
CONTINUOUS
 10
371.2329395909
 20
667.2213778561
 11
374.5599901174
 21
668.9514746148
  0
LINE
  5
49E
100
AcDbEntity
  8
KONSTRUKTIONSELEMENTE
100
AcDbLine
 62
7
  6
CONTINUOUS
 10
368.685810339
 20
654.5283521411
 11
367.9725105149
 21
654.2775417442
  0
LINE
  5
49F
100
AcDbEntity
  8
KONSTRUKTIONSELEMENTE
100
AcDbLine
 62
7
  6
CONTINUOUS
 10
374.5599901174
 20
400.4835994416
 11
375.3974954802
 21
400.6792962196
  0
LINE
  5
4A0
100
AcDbEntity
  8
KONSTRUKTIONSELEMENTE
100
AcDbLine
 62
7
  6
CONTINUOUS
 10
204.1842711669
 20
381.4689781923
 11
204.8503003941
 21
381.5540184193
  0
LINE
  5
4A1
100
AcDbEntity
  8
KONSTRUKTIONSELEMENTE
100
AcDbLine
 62
7
  6
CONTINUOUS
 10
205.0845227509
 20
382.7818783004
 11
204.4184935237
 21
382.6968380734
  0
LINE
  5
4A2
100
AcDbEntity
  8
KONSTRUKTIONSELEMENTE
100
AcDbLine
 62
7
  6
CONTINUOUS
 10
260.2366097377
 20
378.6267793008
 11
260.6605675957
 21
378.6633457075
  0
LINE
  5
4A3
100
AcDbEntity
  8
KONSTRUKTIONSELEMENTE
100
AcDbLine
 62
7
  6
CONTINUOUS
 10
255.7671499
 20
378.450391563
 11
256.403086687
 21
378.5052411731
  0
LINE
  5
4A4
100
AcDbEntity
  8
KONSTRUKTIONSELEMENTE
100
AcDbLine
 62
7
  6
CONTINUOUS
 10
260.571056205
 20
379.7011577541
 11
259.9351194181
 21
379.646308144
  0
LINE
  5
4A5
100
AcDbEntity
  8
KONSTRUKTIONSELEMENTE
100
AcDbLine
 62
7
  6
CONTINUOUS
 10
256.3135748866
 20
379.5430579705
 11
255.6776380996
 21
379.4882083603
  0
LINE
  5
4A6
100
AcDbEntity
  8
KONSTRUKTIONSELEMENTE
100
AcDbLine
 62
7
  6
CONTINUOUS
 10
212.9725105149
 20
385.809666571
 11
212.211473832
 21
385.8527828952
  0
LINE
  5
4A7
100
AcDbEntity
  8
KONSTRUKTIONSELEMENTE
100
AcDbLine
 62
7
  6
CONTINUOUS
 10
367.9725105149
 20
385.809666571
 11
367.211473832
 21
385.8527828952
  0
LINE
  5
4A8
100
AcDbEntity
  8
KONSTRUKTIONSELEMENTE
100
AcDbLine
 62
7
  6
CONTINUOUS
 10
220.3974954802
 20
400.6792962196
 11
221.1483269143
 21
400.590108076
  0
LINE
  5
4A9
100
AcDbEntity
  8
KONSTRUKTIONSELEMENTE
100
AcDbLine
 62
7
  6
CONTINUOUS
 10
259.5148194664
 20
389.016017017
 11
252.0137125407
 21
390.3331168424
  0
LINE
  5
4AA
100
AcDbEntity
  8
KONSTRUKTIONSELEMENTE
100
AcDbLine
 62
7
  6
CONTINUOUS
 10
252.7664777749
 20
389.0840831161
 11
258.0569824727
 21
388.1374106328
  0
LINE
  5
4AB
100
AcDbEntity
  8
KONSTRUKTIONSELEMENTE
100
AcDbLine
 62
7
  6
CONTINUOUS
 10
366.6413840037
 20
384.7201905416
 11
367.5737222982
 21
384.5508792766
  0
LINE
  5
4AC
100
AcDbEntity
  8
KONSTRUKTIONSELEMENTE
100
AcDbLine
 62
7
  6
CONTINUOUS
 10
356.3411801697
 20
375.6486198304
 11
366.1640592184
 21
373.7748409762
  0
LINE
  5
4AD
100
AcDbEntity
  8
KONSTRUKTIONSELEMENTE
100
AcDbLine
 62
7
  6
CONTINUOUS
 10
366.3982815752
 20
375.0027008573
 11
362.009335555
 21
375.8399212083
  0
LINE
  5
4AE
100
AcDbEntity
  8
KONSTRUKTIONSELEMENTE
100
AcDbLine
 62
7
  6
CONTINUOUS
 10
360.7553511451
 20
376.079126991
 11
357.6203895348
 21
376.6771415593
  0
LINE
  5
4AF
100
AcDbEntity
  8
KONSTRUKTIONSELEMENTE
100
AcDbLine
 62
7
  6
CONTINUOUS
 10
359.8503003941
 20
381.5540184193
 11
360.4772931845
 21
381.4344154163
  0
LINE
  5
4B0
100
AcDbEntity
  8
KONSTRUKTIONSELEMENTE
100
AcDbLine
 62
7
  6
CONTINUOUS
 10
360.920512943
 20
382.622407667
 11
360.0845227509
 21
382.7818783004
  0
LINE
  5
4B1
100
AcDbEntity
  8
KONSTRUKTIONSELEMENTE
100
AcDbLine
 62
7
  6
CONTINUOUS
 10
222.0610207435
 20
401.5443445989
 11
220.929030861
 21
401.914954226
  0
LINE
  5
4B2
100
AcDbEntity
  8
0
100
AcDbLine
 62
7
  6
CONTINUOUS
 10
324.5338093691
 20
364.1961086677
 11
323.5338103228
 21
364.7067469047
  0
LINE
  5
4B3
100
AcDbEntity
  8
KONSTRUKTIONSELEMENTE
100
AcDbLine
 62
7
  6
CONTINUOUS
 10
252.0934101176
 20
398.2927782114
 11
250.4593416337
 21
399.2122591463
  0
LINE
  5
4B4
100
AcDbEntity
  8
KONSTRUKTIONSELEMENTE
100
AcDbLine
 62
7
  6
CONTINUOUS
 10
245.0124466872
 20
402.2771955962
 11
243.3783782032
 21
403.1966765311
  0
LINE
  5
4B5
100
AcDbEntity
  8
0
100
AcDbLine
 62
7
  6
CONTINUOUS
 10
346.9088112765
 20
338.9407895492
 11
345.6588074618
 21
339.7067469047
  0
LINE
  5
4B6
100
AcDbEntity
  8
0
100
AcDbLine
 62
7
  6
CONTINUOUS
 10
342.9088093691
 20
329.493980913
 11
342.1588093691
 21
330.00461915
  0
LINE
  5
4B7
100
AcDbEntity
  8
0
100
AcDbLine
 62
7
  6
CONTINUOUS
 10
308.283809846
 20
354.7493000315
 11
307.533809846
 21
355.2599384473
  0
LINE
  5
4B8
100
AcDbEntity
  8
0
100
AcDbLine
 62
7
  6
CONTINUOUS
 10
334.4088074618
 20
338.4301513122
 11
335.1588074618
 21
337.9195130752
  0
LINE
  5
4B9
100
AcDbEntity
  8
0
100
AcDbLine
 62
7
  6
CONTINUOUS
 10
353.1588074618
 20
328.9833425866
 11
353.9088074618
 21
328.4727043049
  0
LINE
  5
4BA
100
AcDbEntity
  8
0
100
AcDbLine
 62
7
  6
CONTINUOUS
 10
354.9088093691
 20
329.2386617945
 11
354.1588093691
 21
329.7493000315
  0
LINE
  5
4BB
100
AcDbEntity
  8
0
100
AcDbLine
 62
7
  6
CONTINUOUS
 10
345.4088112765
 20
338.4301513122
 11
346.1588112765
 21
337.9195130752
  0
LINE
  5
4BC
100
AcDbEntity
  8
0
100
AcDbLine
 62
7
  6
CONTINUOUS
 10
323.2838084154
 20
363.1748321937
 11
324.0338084154
 21
362.6641939567
  0
LINE
  5
4BD
100
AcDbEntity
  8
0
100
AcDbLine
 62
7
  6
CONTINUOUS
 10
302.0338093691
 20
363.9407895492
 11
301.0338096075
 21
364.7067469047
  0
LINE
  5
4BE
100
AcDbEntity
  8
0
100
AcDbLine
 62
7
  6
CONTINUOUS
 10
295.6588093691
 20
338.4301513122
 11
296.1588103228
 21
337.9195130752
  0
LINE
  5
4BF
100
AcDbEntity
  8
0
100
AcDbLine
 62
7
  6
CONTINUOUS
 10
309.4088084154
 20
338.1748321937
 11
308.4088093691
 21
339.1961086677
  0
LINE
  5
4C0
100
AcDbEntity
  8
0
100
AcDbLine
 62
7
  6
CONTINUOUS
 10
329.6588112765
 20
329.7493000315
 11
330.4088112765
 21
328.9833425866
  0
LINE
  5
4C1
100
AcDbEntity
  8
KONSTRUKTIONSELEMENTE
100
AcDbLine
 62
7
  6
CONTINUOUS
 10
259.9945238072
 20
374.0055481343
 11
259.2869776619
 21
374.7809510119
  0
LINE
  5
4C2
100
AcDbEntity
  8
KONSTRUKTIONSELEMENTE
100
AcDbLine
 62
7
  6
CONTINUOUS
 10
258.116820448
 20
378.4439472669
 11
257.4092747124
 21
379.2193453938
  0
LINE
  5
4C3
100
AcDbEntity
  8
KONSTRUKTIONSELEMENTE
100
AcDbLine
 62
7
  6
CONTINUOUS
 10
261.3323098605
 20
378.3030667497
 11
262.039855596
 21
377.5276686229
  0
LINE
  5
4C4
100
AcDbEntity
  8
KONSTRUKTIONSELEMENTE
100
AcDbLine
 62
7
  6
CONTINUOUS
 10
253.8113298173
 20
373.8904590551
 11
254.5367780506
 21
372.9074966235
  0
LINE
  5
4C5
100
AcDbEntity
  8
KONSTRUKTIONSELEMENTE
100
AcDbLine
 62
7
  6
CONTINUOUS
 10
263.0818482086
 20
377.8266441986
 11
262.3563996213
 21
378.8096113858
  0
LINE
  5
4C6
100
AcDbEntity
  8
0
100
AcDbLine
 62
7
  6
CONTINUOUS
 10
286.4088088923
 20
332.8131299899
 11
285.6588088923
 21
333.8344064639
  0
LINE
  5
4C7
100
AcDbEntity
  8
0
100
AcDbLine
 62
7
  6
CONTINUOUS
 10
286.4088088923
 20
337.9195130752
 11
285.6588088923
 21
338.9407895492
  0
LINE
  5
4C8
100
AcDbEntity
  8
0
100
AcDbLine
 62
7
  6
CONTINUOUS
 10
297.6588103228
 20
337.9195130752
 11
296.9088103228
 21
338.9407895492
  0
LINE
  5
4C9
100
AcDbEntity
  8
KONSTRUKTIONSELEMENTE
100
AcDbLine
 62
7
  6
CONTINUOUS
 10
255.3309869244
 20
373.6033176215
 11
254.835419708
 21
374.3970037025
  0
LINE
  5
4CA
100
AcDbEntity
  8
KONSTRUKTIONSELEMENTE
100
AcDbLine
 62
7
  6
CONTINUOUS
 10
258.7226502333
 20
373.8958489141
 11
258.9704336366
 21
373.499008249
  0
LINE
  5
4CB
100
AcDbEntity
  8
KONSTRUKTIONSELEMENTE
100
AcDbLine
 62
7
  6
CONTINUOUS
 10
257.3047096161
 20
377.9556858342
 11
257.8002764227
 21
377.162004504
  0
LINE
  5
4CC
100
AcDbEntity
  8
KONSTRUKTIONSELEMENTE
100
AcDbLine
 62
7
  6
CONTINUOUS
 10
258.364604261
 20
378.0471018511
 11
258.116820448
 21
378.4439472669
  0
LINE
  5
4CD
100
AcDbEntity
  8
KONSTRUKTIONSELEMENTE
100
AcDbLine
 62
7
  6
CONTINUOUS
 10
250.9500261071
 20
383.8542038945
 11
251.5952527474
 21
382.7836047246
  0
LINE
  5
4CE
100
AcDbEntity
  8
KONSTRUKTIONSELEMENTE
100
AcDbLine
 62
7
  6
CONTINUOUS
 10
250.9203345402
 20
389.6741619004
 11
253.5012411014
 21
385.3917652207
  0
LINE
  5
4CF
100
AcDbEntity
  8
KONSTRUKTIONSELEMENTE
100
AcDbLine
 62
7
  6
CONTINUOUS
 10
254.1464677417
 20
384.3211660508
 11
255.221846296
 21
382.5368327396
  0
LINE
  5
4D0
100
AcDbEntity
  8
KONSTRUKTIONSELEMENTE
100
AcDbLine
 62
7
  6
CONTINUOUS
 10
222.389966156
 20
399.5570753951
 11
223.8623888913
 21
396.7255431053
  0
LINE
  5
4D1
100
AcDbEntity
  8
KONSTRUKTIONSELEMENTE
100
AcDbLine
 62
7
  6
CONTINUOUS
 10
224.9714057335
 20
397.3022420248
 11
223.4989829982
 21
400.1337743147
  0
LINE
  5
4D2
100
AcDbEntity
  8
KONSTRUKTIONSELEMENTE
100
AcDbLine
 62
7
  6
CONTINUOUS
 10
225.2773778308
 20
396.2622818964
 11
224.9714057335
 21
397.3022420248
  0
LINE
  5
4D3
100
AcDbEntity
  8
KONSTRUKTIONSELEMENTE
100
AcDbLine
 62
7
  6
CONTINUOUS
 10
216.4716282879
 20
388.4071614195
 11
216.280682434
 21
389.5828715811
  0
LINE
  5
4D4
100
AcDbEntity
  8
KONSTRUKTIONSELEMENTE
100
AcDbLine
 62
7
  6
CONTINUOUS
 10
206.4051690144
 20
380.6211473236
 11
206.4970552377
 21
379.9673497526
  0
LINE
  5
4D5
100
AcDbEntity
  8
KONSTRUKTIONSELEMENTE
100
AcDbLine
 62
7
  6
CONTINUOUS
 10
215.1966865963
 20
657.2967371269
 11
215.1685943932
 21
656.5411490629
  0
LINE
  5
4D6
100
AcDbEntity
  8
KONSTRUKTIONSELEMENTE
100
AcDbLine
 62
7
  6
CONTINUOUS
 10
224.0701994821
 20
664.3422269518
 11
223.9950110159
 21
663.5836872068
  0
LINE
  5
4D7
100
AcDbEntity
  8
KONSTRUKTIONSELEMENTE
100
AcDbLine
 62
7
  6
CONTINUOUS
 10
243.3536871622
 20
661.4247017041
 11
245.0124466872
 21
670.7450707694
  0
LINE
  5
4D8
100
AcDbEntity
  8
KONSTRUKTIONSELEMENTE
100
AcDbLine
 62
7
  6
CONTINUOUS
 10
254.6205920427
 20
645.355631588
 11
254.972940952
 21
646.2224457317
  0
LINE
  5
4D9
100
AcDbEntity
  8
KONSTRUKTIONSELEMENTE
100
AcDbLine
 62
7
  6
CONTINUOUS
 10
258.5407783059
 20
646.9483888469
 11
258.364604261
 21
646.5149770243
  0
LINE
  5
4DA
100
AcDbEntity
  8
KONSTRUKTIONSELEMENTE
100
AcDbLine
 62
7
  6
CONTINUOUS
 10
258.015104088
 20
643.1391269648
 11
257.6627555885
 21
642.2723080703
  0
LINE
  5
4DB
100
AcDbEntity
  8
KONSTRUKTIONSELEMENTE
100
AcDbLine
 62
7
  6
CONTINUOUS
 10
258.5464757787
 20
641.9303170154
 11
258.7226502333
 21
642.3637240872
  0
LINE
  5
4DC
100
AcDbEntity
  8
KONSTRUKTIONSELEMENTE
100
AcDbLine
 62
7
  6
CONTINUOUS
 10
262.786054952
 20
642.2959811342
 11
263.3324803483
 21
643.388642791
  0
LINE
  5
4DD
100
AcDbEntity
  8
BEZUGSACHSEN
100
AcDbLine
 62
7
  6
CONTINUOUS
 10
254.1844444637
 20
604.6960036097
 11
275.8350795583
 21
642.1960036097
  0
LINE
  5
4DE
100
AcDbEntity
  8
KONSTRUKTIONSELEMENTE
100
AcDbLine
 62
7
  6
CONTINUOUS
 10
126.1882022074
 20
515.3733642176
 11
126.6842711669
 21
515.7029157789
  0
LINE
  5
4DF
100
AcDbEntity
  8
KONSTRUKTIONSELEMENTE
100
AcDbLine
 62
7
  6
CONTINUOUS
 10
377.9956433268
 20
662.3445656301
 11
374.6685928003
 21
660.6144688714
  0
LINE
  5
4E0
100
AcDbEntity
  8
KONSTRUKTIONSELEMENTE
100
AcDbLine
 62
7
  6
CONTINUOUS
 10
374.148545066
 20
658.9051570095
 11
378.5846124346
 21
661.2119526877
  0
LINE
  5
4E1
100
AcDbEntity
  8
KONSTRUKTIONSELEMENTE
100
AcDbLine
 62
7
  6
CONTINUOUS
 10
368.7531906193
 20
653.1849085828
 11
369.590055942
 21
653.6034524317
  0
LINE
  5
4E2
100
AcDbEntity
  8
KONSTRUKTIONSELEMENTE
100
AcDbLine
 62
7
  6
CONTINUOUS
 10
359.4184935237
 20
651.1647132466
 11
358.4653927387
 21
650.7102538278
  0
LINE
  5
4E3
100
AcDbEntity
  8
KONSTRUKTIONSELEMENTE
100
AcDbLine
 62
7
  6
CONTINUOUS
 10
212.6474675153
 20
381.5512870849
 11
207.4891931566
 21
380.6264528752
  0
LINE
  5
4E4
100
AcDbEntity
  8
KONSTRUKTIONSELEMENTE
100
AcDbLine
 62
7
  6
CONTINUOUS
 10
207.6729655473
 20
379.3188574405
 11
212.3742080246
 21
380.1187835
  0
LINE
  5
4E5
100
AcDbEntity
  8
KONSTRUKTIONSELEMENTE
100
AcDbLine
 62
7
  6
CONTINUOUS
 10
212.5737222982
 20
384.5508792766
 11
213.7531906193
 21
384.7170334096
  0
LINE
  5
4E6
100
AcDbEntity
  8
KONSTRUKTIONSELEMENTE
100
AcDbLine
 62
7
  6
CONTINUOUS
 10
375.929030861
 20
401.914954226
 11
374.9933639916
 21
401.9080262497
  0
LINE
  5
4E7
100
AcDbEntity
  8
KONSTRUKTIONSELEMENTE
100
AcDbLine
 62
7
  6
CONTINUOUS
 10
220.929030861
 20
401.914954226
 11
219.9933639916
 21
401.9080262497
  0
LINE
  5
4E8
100
AcDbEntity
  8
BEZUGSACHSEN
100
AcDbLine
 62
7
  6
CONTINUOUS
 10
409.1844444637
 20
411.2281284366
 11
365.8831742745
 21
411.2281284366
  0
LINE
  5
4E9
100
AcDbEntity
  8
BEZUGSACHSEN
100
AcDbLine
 62
7
  6
CONTINUOUS
 10
254.1844444637
 20
411.2281284366
 11
210.8831742745
 21
411.2281284366
  0
LINE
  5
4EA
100
AcDbEntity
  8
KONSTRUKTIONSELEMENTE
100
AcDbLine
 62
7
  6
CONTINUOUS
 10
375.3974954802
 20
400.6792962196
 11
376.1483269143
 21
400.590108076
  0
LINE
  5
4EB
100
AcDbEntity
  8
KONSTRUKTIONSELEMENTE
100
AcDbLine
 62
7
  6
CONTINUOUS
 10
414.5148194664
 20
389.016017017
 11
407.0137125407
 21
390.3331168424
  0
LINE
  5
4EC
100
AcDbEntity
  8
KONSTRUKTIONSELEMENTE
100
AcDbLine
 62
7
  6
CONTINUOUS
 10
407.7664777749
 20
389.0840831161
 11
413.0569824727
 21
388.1374106328
  0
LINE
  5
4ED
100
AcDbEntity
  8
KONSTRUKTIONSELEMENTE
100
AcDbLine
 62
7
  6
CONTINUOUS
 10
410.2264218281
 20
372.339658062
 11
411.3221210957
 21
372.0159502232
  0
LINE
  5
4EE
100
AcDbEntity
  8
KONSTRUKTIONSELEMENTE
100
AcDbLine
 62
7
  6
CONTINUOUS
 10
412.4092747124
 20
379.2193453938
 11
411.3135748866
 21
379.5430579705
  0
LINE
  5
4EF
100
AcDbEntity
  8
KONSTRUKTIONSELEMENTE
100
AcDbLine
 62
7
  6
CONTINUOUS
 10
416.666755918
 20
379.3774499538
 11
415.571056205
 21
379.7011577541
  0
LINE
  5
4F0
100
AcDbEntity
  8
KONSTRUKTIONSELEMENTE
100
AcDbLine
 62
7
  6
CONTINUOUS
 10
127.8509512808
 20
523.3293926738
 11
128.4338093691
 21
522.9000136987
  0
LINE
  5
4F1
100
AcDbEntity
  8
0
100
AcDbLine
 62
7
  6
CONTINUOUS
 10
306.033809846
 20
354.7493000315
 11
307.0338088923
 21
353.7280234681
  0
LINE
  5
4F2
100
AcDbEntity
  8
0
100
AcDbLine
 62
7
  6
CONTINUOUS
 10
300.7838091307
 20
363.4301513122
 11
301.2838093691
 21
362.9195130752
  0
LINE
  5
4F3
100
AcDbEntity
  8
0
100
AcDbLine
 62
7
  6
CONTINUOUS
 10
340.6588093691
 20
329.7493000315
 11
341.4088093691
 21
328.9833425866
  0
LINE
  5
4F4
100
AcDbEntity
  8
0
100
AcDbLine
 62
7
  6
CONTINUOUS
 10
336.6588074618
 20
338.1748321937
 11
335.9088074618
 21
338.9407895492
  0
LINE
  5
4F5
100
AcDbEntity
  8
0
100
AcDbLine
 62
7
  6
CONTINUOUS
 10
347.6588112765
 20
338.1748321937
 11
346.9088112765
 21
338.9407895492
  0
LINE
  5
4F6
100
AcDbEntity
  8
0
100
AcDbLine
 62
7
  6
CONTINUOUS
 10
302.1588103228
 20
330.2599384473
 11
301.6588093691
 21
331.0258958028
  0
LINE
  5
4F7
100
AcDbEntity
  8
KONSTRUKTIONSELEMENTE
100
AcDbLine
 62
7
  6
CONTINUOUS
 10
256.3152242966
 20
383.1957876816
 11
255.2398457423
 21
384.9801209928
  0
LINE
  5
4F8
100
AcDbEntity
  8
KONSTRUKTIONSELEMENTE
100
AcDbLine
 62
7
  6
CONTINUOUS
 10
254.594619102
 20
386.0507201627
 11
252.7664777749
 21
389.0840831161
  0
LINE
  5
4F9
100
AcDbEntity
  8
KONSTRUKTIONSELEMENTE
100
AcDbLine
 62
7
  6
CONTINUOUS
 10
260.1600461067
 20
387.9454178471
 11
259.5148194664
 21
389.016017017
  0
LINE
  5
4FA
100
AcDbEntity
  8
BEZUGSACHSEN
100
AcDbLine
 62
7
  6
CONTINUOUS
 10
275.8350795583
 20
373.7281284366
 11
254.1844444637
 21
411.2281284366
  0
LINE
  5
4FB
100
AcDbEntity
  8
KONSTRUKTIONSELEMENTE
100
AcDbLine
 62
7
  6
CONTINUOUS
 10
254.835419708
 20
374.3970037025
 11
254.5518318305
 21
375.208968236
  0
LINE
  5
4FC
100
AcDbEntity
  8
KONSTRUKTIONSELEMENTE
100
AcDbLine
 62
7
  6
CONTINUOUS
 10
257.8002764227
 20
377.162004504
 11
258.08386471
 21
376.3500352197
  0
LINE
  5
4FD
100
AcDbEntity
  8
KONSTRUKTIONSELEMENTE
100
AcDbLine
 62
7
  6
CONTINUOUS
 10
259.2869776619
 20
374.7809510119
 11
259.0033897843
 21
375.5929155455
  0
LINE
  5
4FE
100
AcDbEntity
  8
KONSTRUKTIONSELEMENTE
100
AcDbLine
 62
7
  6
CONTINUOUS
 10
253.5098390694
 20
374.9099926475
 11
253.8113298173
 21
373.8904590551
  0
LINE
  5
4FF
100
AcDbEntity
  8
KONSTRUKTIONSELEMENTE
100
AcDbLine
 62
7
  6
CONTINUOUS
 10
223.8623888913
 20
396.7255431053
 11
224.0701994821
 21
395.8743517786
  0
LINE
  5
500
100
AcDbEntity
  8
KONSTRUKTIONSELEMENTE
100
AcDbLine
 62
7
  6
CONTINUOUS
 10
225.3003509398
 20
395.3149732176
 11
225.2773778308
 21
396.2622818964
  0
LINE
  5
501
100
AcDbEntity
  8
KONSTRUKTIONSELEMENTE
100
AcDbLine
 62
7
  6
CONTINUOUS
 10
225.3003509398
 20
663.7828483908
 11
225.2773778308
 21
664.7301570696
  0
LINE
  5
502
100
AcDbEntity
  8
KONSTRUKTIONSELEMENTE
100
AcDbLine
 62
7
  6
CONTINUOUS
 10
215.1966865963
 20
388.8288619537
 11
215.1685943932
 21
388.0732738897
  0
LINE
  5
503
100
AcDbEntity
  8
KONSTRUKTIONSELEMENTE
100
AcDbLine
 62
7
  6
CONTINUOUS
 10
224.0701994821
 20
395.8743517786
 11
223.9950110159
 21
395.1158120337
  0
LINE
  5
504
100
AcDbEntity
  8
KONSTRUKTIONSELEMENTE
100
AcDbLine
 62
7
  6
CONTINUOUS
 10
243.4243746957
 20
669.1973025259
 11
242.1057417959
 21
660.9062296028
  0
LINE
  5
505
100
AcDbEntity
  8
KONSTRUKTIONSELEMENTE
100
AcDbLine
 62
7
  6
CONTINUOUS
 10
216.3199704363
 20
387.483840014
 11
216.4716282879
 21
388.4071614195
  0
LINE
  5
506
100
AcDbEntity
  8
KONSTRUKTIONSELEMENTE
100
AcDbLine
 62
7
  6
CONTINUOUS
 10
254.4802224721
 20
644.5070958969
 11
254.6205920427
 21
645.355631588
  0
LINE
  5
507
100
AcDbEntity
  8
KONSTRUKTIONSELEMENTE
100
AcDbLine
 62
7
  6
CONTINUOUS
 10
258.1554740684
 20
643.9876579051
 11
258.015104088
 21
643.1391269648
  0
LINE
  5
508
100
AcDbEntity
  8
KONSTRUKTIONSELEMENTE
100
AcDbLine
 62
7
  6
CONTINUOUS
 10
202.2780695969
 20
380.5600593548
 11
201.3411801697
 21
375.6486198304
  0
LINE
  5
509
100
AcDbEntity
  8
KONSTRUKTIONSELEMENTE
100
AcDbLine
 62
7
  6
CONTINUOUS
 10
202.6203895348
 20
376.6771415593
 11
203.3620936274
 21
380.5653643209
  0
LINE
  5
50A
100
AcDbEntity
  8
KONSTRUKTIONSELEMENTE
100
AcDbLine
 62
7
  6
CONTINUOUS
 10
206.4970552377
 20
379.9673497526
 11
205.7553511451
 21
376.079126991
  0
LINE
  5
50B
100
AcDbEntity
  8
KONSTRUKTIONSELEMENTE
100
AcDbLine
 62
7
  6
CONTINUOUS
 10
207.009335555
 20
375.8399212083
 11
207.6729655473
 21
379.3188574405
  0
LINE
  5
50C
100
AcDbEntity
  8
KONSTRUKTIONSELEMENTE
100
AcDbLine
 62
7
  6
CONTINUOUS
 10
358.4653927387
 20
650.7102538278
 11
357.6822523331
 21
650.0112836603
  0
LINE
  5
50D
100
AcDbEntity
  8
KONSTRUKTIONSELEMENTE
100
AcDbLine
 62
7
  6
CONTINUOUS
 10
369.3513730643
 20
655.073089436
 11
368.685810339
 21
654.5283521411
  0
LINE
  5
50E
100
AcDbEntity
  8
KONSTRUKTIONSELEMENTE
100
AcDbLine
 62
7
  6
CONTINUOUS
 10
378.5846124346
 20
661.2119526877
 11
379.4106323264
 21
661.8813043055
  0
LINE
  5
50F
100
AcDbEntity
  8
KONSTRUKTIONSELEMENTE
100
AcDbLine
 62
7
  6
CONTINUOUS
 10
358.6882022074
 20
649.6073018042
 11
359.1842711669
 21
649.9368533655
  0
LINE
  5
510
100
AcDbEntity
  8
KONSTRUKTIONSELEMENTE
100
AcDbLine
 62
7
  6
CONTINUOUS
 10
407.0137125407
 20
658.8009920156
 11
405.9203345402
 21
658.1420370736
  0
LINE
  5
511
100
AcDbEntity
  8
KONSTRUKTIONSELEMENTE
100
AcDbLine
 62
7
  6
CONTINUOUS
 10
413.0569824727
 20
656.605285806
 11
409.594619102
 21
654.5185953359
  0
LINE
  5
512
100
AcDbEntity
  8
KONSTRUKTIONSELEMENTE
100
AcDbLine
 62
7
  6
CONTINUOUS
 10
408.5012411014
 20
653.8596403939
 11
405.9500261071
 21
652.3220790677
  0
LINE
  5
513
100
AcDbEntity
  8
KONSTRUKTIONSELEMENTE
100
AcDbLine
 62
7
  6
CONTINUOUS
 10
410.6776380996
 20
647.9560835335
 11
409.6535481904
 21
647.4495388845
  0
LINE
  5
514
100
AcDbEntity
  8
KONSTRUKTIONSELEMENTE
100
AcDbLine
 62
7
  6
CONTINUOUS
 10
411.9580578826
 20
640.5386750065
 11
412.9821483501
 21
641.0452149175
  0
LINE
  5
515
100
AcDbEntity
  8
KONSTRUKTIONSELEMENTE
100
AcDbLine
 62
7
  6
CONTINUOUS
 10
126.9184935237
 20
516.93077566
 11
125.9653927387
 21
516.4763162412
  0
LINE
  5
516
100
AcDbEntity
  8
KONSTRUKTIONSELEMENTE
100
AcDbLine
 62
7
  6
CONTINUOUS
 10
219.5599901174
 20
400.4835994416
 11
220.3974954802
 21
400.6792962196
  0
LINE
  5
517
100
AcDbEntity
  8
0
100
AcDbLine
 62
7
  6
CONTINUOUS
 10
448.6338093691
 20
434.6385818361
 11
483.6338093691
 21
434.6385818361
  0
LINE
  5
518
100
AcDbEntity
  8
KONSTRUKTIONSELEMENTE
100
AcDbLine
 62
7
  6
CONTINUOUS
 10
377.0610207435
 20
401.5443445989
 11
375.929030861
 21
401.914954226
  0
LINE
  5
519
100
AcDbEntity
  8
KONSTRUKTIONSELEMENTE
100
AcDbLine
 62
7
  6
CONTINUOUS
 10
414.6600773399
 20
372.931169681
 11
415.5437979398
 21
372.5891738753
  0
LINE
  5
51A
100
AcDbEntity
  8
KONSTRUKTIONSELEMENTE
100
AcDbLine
 62
7
  6
CONTINUOUS
 10
367.211473832
 20
385.8527828952
 11
366.4027015845
 21
386.1898279485
  0
LINE
  5
51B
100
AcDbEntity
  8
KONSTRUKTIONSELEMENTE
100
AcDbLine
 62
7
  6
CONTINUOUS
 10
365.6613092038
 20
385.1834290077
 11
366.6413840037
 21
384.7201905416
  0
LINE
  5
51C
100
AcDbEntity
  8
KONSTRUKTIONSELEMENTE
100
AcDbLine
 62
7
  6
CONTINUOUS
 10
360.4772931845
 20
381.4344154163
 11
361.0652483672
 21
381.1101694066
  0
LINE
  5
51D
100
AcDbEntity
  8
KONSTRUKTIONSELEMENTE
100
AcDbLine
 62
7
  6
CONTINUOUS
 10
361.5084681257
 20
382.2981616573
 11
360.920512943
 21
382.622407667
  0
LINE
  5
51E
100
AcDbEntity
  8
KONSTRUKTIONSELEMENTE
100
AcDbLine
 62
7
  6
CONTINUOUS
 10
127.9772931845
 20
515.6683530029
 11
128.4338093691
 21
515.4165930805
  0
LINE
  5
51F
100
AcDbEntity
  8
0
100
AcDbLine
 62
7
  6
CONTINUOUS
 10
325.5338084154
 20
363.1748321937
 11
324.5338093691
 21
364.1961086677
  0
LINE
  5
520
100
AcDbEntity
  8
0
100
AcDbLine
 62
7
  6
CONTINUOUS
 10
302.7838093691
 20
362.9195130752
 11
302.0338093691
 21
363.9407895492
  0
LINE
  5
521
100
AcDbEntity
  8
0
100
AcDbLine
 62
7
  6
CONTINUOUS
 10
307.533809846
 20
355.2599384473
 11
307.0338088923
 21
356.0258958028
  0
LINE
  5
522
100
AcDbEntity
  8
0
100
AcDbLine
 62
7
  6
CONTINUOUS
 10
331.1588112765
 20
330.00461915
 11
330.1588093691
 21
331.5365340398
  0
LINE
  5
523
100
AcDbEntity
  8
0
100
AcDbLine
 62
7
  6
CONTINUOUS
 10
300.1588093691
 20
330.7705766843
 11
300.6588103228
 21
329.7493000315
  0
LINE
  5
524
100
AcDbEntity
  8
KONSTRUKTIONSELEMENTE
100
AcDbLine
 62
7
  6
CONTINUOUS
 10
262.039855596
 20
377.5276686229
 11
262.3234438834
 21
376.7156993385
  0
LINE
  5
525
100
AcDbEntity
  8
0
100
AcDbLine
 62
7
  6
CONTINUOUS
 10
284.9088088923
 20
332.5578108714
 11
285.1588093691
 21
331.7918531583
  0
LINE
  5
526
100
AcDbEntity
  8
0
100
AcDbLine
 62
7
  6
CONTINUOUS
 10
286.6588093691
 20
332.0471722768
 11
286.4088088923
 21
332.8131299899
  0
LINE
  5
527
100
AcDbEntity
  8
0
100
AcDbLine
 62
7
  6
CONTINUOUS
 10
284.9088088923
 20
337.6641939567
 11
285.1588093691
 21
336.8982358859
  0
LINE
  5
528
100
AcDbEntity
  8
0
100
AcDbLine
 62
7
  6
CONTINUOUS
 10
286.6588093691
 20
337.1535557197
 11
286.4088088923
 21
337.9195130752
  0
LINE
  5
529
100
AcDbEntity
  8
KONSTRUKTIONSELEMENTE
100
AcDbLine
 62
7
  6
CONTINUOUS
 10
263.3833385282
 20
376.8071153554
 11
263.0818482086
 21
377.8266441986
  0
LINE
  5
52A
100
AcDbEntity
  8
0
100
AcDbLine
 62
7
  6
CONTINUOUS
 10
272.4088093691
 20
330.7705766843
 11
270.4088091307
 21
339.9620660232
  0
LINE
  5
52B
100
AcDbEntity
  8
0
100
AcDbLine
 62
7
  6
CONTINUOUS
 10
269.4088093691
 20
337.6641939567
 11
271.4088096075
 21
327.9620660232
  0
LINE
  5
52C
100
AcDbEntity
  8
0
100
AcDbLine
 62
7
  6
CONTINUOUS
 10
263.4088093691
 20
339.9620660232
 11
265.4088094287
 21
327.9620660232
  0
LINE
  5
52D
100
AcDbEntity
  8
KONSTRUKTIONSELEMENTE
100
AcDbLine
 62
7
  6
CONTINUOUS
 10
206.4051690144
 20
649.0890224967
 11
206.4970552377
 21
648.4352249257
  0
LINE
  5
52E
100
AcDbEntity
  8
KONSTRUKTIONSELEMENTE
100
AcDbLine
 62
7
  6
CONTINUOUS
 10
253.4024252367
 20
376.1553690036
 11
253.5098390694
 21
374.9099926475
  0
LINE
  5
52F
100
AcDbEntity
  8
KONSTRUKTIONSELEMENTE
100
AcDbLine
 62
7
  6
CONTINUOUS
 10
254.5518318305
 20
375.208968236
 11
254.4802224721
 21
376.0392207237
  0
LINE
  5
530
100
AcDbEntity
  8
KONSTRUKTIONSELEMENTE
100
AcDbLine
 62
7
  6
CONTINUOUS
 10
258.08386471
 20
376.3500352197
 11
258.1554740684
 21
375.519782732
  0
LINE
  5
531
100
AcDbEntity
  8
KONSTRUKTIONSELEMENTE
100
AcDbLine
 62
7
  6
CONTINUOUS
 10
259.0033897843
 20
375.5929155455
 11
258.9317804259
 21
376.4231680332
  0
LINE
  5
532
100
AcDbEntity
  8
KONSTRUKTIONSELEMENTE
100
AcDbLine
 62
7
  6
CONTINUOUS
 10
262.3234438834
 20
376.7156993385
 11
262.3950532417
 21
375.8854468508
  0
LINE
  5
533
100
AcDbEntity
  8
KONSTRUKTIONSELEMENTE
100
AcDbLine
 62
7
  6
CONTINUOUS
 10
263.4549478866
 20
375.9768628677
 11
263.3833385282
 21
376.8071153554
  0
LINE
  5
534
100
AcDbEntity
  8
RUNDUNGEN
100
AcDbLine
 62
7
  6
CONTINUOUS
 10
246.6338093691
 20
573.9202702609
 11
246.6338093691
 21
549.4620660232
  0
LINE
  5
535
100
AcDbEntity
  8
RUNDUNGEN
100
AcDbLine
 62
7
  6
CONTINUOUS
 10
246.6338093691
 20
466.4620660232
 11
246.6338093691
 21
442.003861791
  0
LINE
  5
536
100
AcDbEntity
  8
0
100
AcDbLine
 62
7
  6
CONTINUOUS
 10
248.5338093691
 20
596.1323558038
 11
248.5338093691
 21
549.4620660232
  0
LINE
  5
537
100
AcDbEntity
  8
0
100
AcDbLine
 62
7
  6
CONTINUOUS
 10
248.5338093691
 20
466.4620660232
 11
248.5338093691
 21
419.7917762425
  0
LINE
  5
538
100
AcDbEntity
  8
KONSTRUKTIONSELEMENTE
100
AcDbLine
 62
7
  6
CONTINUOUS
 10
253.5248927936
 20
645.6793394284
 11
253.4024252367
 21
644.6232441768
  0
LINE
  5
539
100
AcDbEntity
  8
KONSTRUKTIONSELEMENTE
100
AcDbLine
 62
7
  6
CONTINUOUS
 10
263.3324803483
 20
643.388642791
 11
263.4549478866
 21
644.4447380409
  0
LINE
  5
53A
100
AcDbEntity
  8
KONSTRUKTIONSELEMENTE
100
AcDbLine
 62
7
  6
CONTINUOUS
 10
258.9317804259
 20
644.8910432064
 11
259.0721499965
 21
645.7395788975
  0
LINE
  5
53B
100
AcDbEntity
  8
KONSTRUKTIONSELEMENTE
100
AcDbLine
 62
7
  6
CONTINUOUS
 10
262.3950532417
 20
644.353322024
 11
262.2546832614
 21
643.5047910837
  0
LINE
  5
53C
100
AcDbEntity
  8
KONSTRUKTIONSELEMENTE
100
AcDbLine
 62
7
  6
CONTINUOUS
 10
211.1640592184
 20
373.7748409762
 11
211.3982815752
 21
375.0027008573
  0
LINE
  5
53D
100
AcDbEntity
  8
KONSTRUKTIONSELEMENTE
100
AcDbLine
 62
7
  6
CONTINUOUS
 10
212.3742080246
 20
380.1187835
 11
212.6474675153
 21
381.5512870849
  0
LINE
  5
53E
100
AcDbEntity
  8
KONSTRUKTIONSELEMENTE
100
AcDbLine
 62
7
  6
CONTINUOUS
 10
369.590055942
 20
653.6034524317
 11
370.3791842558
 21
654.3159231123
  0
LINE
  5
53F
100
AcDbEntity
  8
KONSTRUKTIONSELEMENTE
100
AcDbLine
 62
7
  6
CONTINUOUS
 10
378.6368256766
 20
662.9178000115
 11
377.9956433268
 21
662.3445656301
  0
LINE
  5
540
100
AcDbEntity
  8
KONSTRUKTIONSELEMENTE
100
AcDbLine
 62
7
  6
CONTINUOUS
 10
405.4593416337
 20
667.6801343195
 11
398.3536871622
 21
661.4247017041
  0
LINE
  5
541
100
AcDbEntity
  8
KONSTRUKTIONSELEMENTE
100
AcDbLine
 62
7
  6
CONTINUOUS
 10
398.5582498854
 20
660.0889116572
 11
404.9606486315
 21
665.5193787861
  0
LINE
  5
542
100
AcDbEntity
  8
KONSTRUKTIONSELEMENTE
100
AcDbLine
 62
7
  6
CONTINUOUS
 10
406.5952527474
 20
651.2514798978
 11
409.1464677417
 21
652.789041224
  0
LINE
  5
543
100
AcDbEntity
  8
KONSTRUKTIONSELEMENTE
100
AcDbLine
 62
7
  6
CONTINUOUS
 10
410.2398457423
 20
653.447996166
 11
415.1600461067
 21
656.4132930203
  0
LINE
  5
544
100
AcDbEntity
  8
KONSTRUKTIONSELEMENTE
100
AcDbLine
 62
7
  6
CONTINUOUS
 10
410.221846296
 20
651.0047079128
 11
411.3152242966
 21
651.6636628548
  0
LINE
  5
545
100
AcDbEntity
  8
KONSTRUKTIONSELEMENTE
100
AcDbLine
 62
7
  6
CONTINUOUS
 10
414.9351194181
 20
648.1141833171
 11
414.1230081765
 21
647.6259266351
  0
LINE
  5
546
100
AcDbEntity
  8
KONSTRUKTIONSELEMENTE
100
AcDbLine
 62
7
  6
CONTINUOUS
 10
416.1797347268
 20
641.1118986586
 11
417.2038250814
 21
641.618443346
  0
LINE
  5
547
100
AcDbEntity
  8
0
100
AcDbLine
 62
7
  6
CONTINUOUS
 10
171.4338093691
 20
447.3402877582
 11
128.4338093691
 21
447.3402877582
  0
LINE
  5
548
100
AcDbEntity
  8
KONSTRUKTIONSELEMENTE
100
AcDbLine
 62
7
  6
CONTINUOUS
 10
415.6662650684
 20
373.645273876
 11
414.9945238072
 21
374.0055481343
  0
LINE
  5
549
100
AcDbEntity
  8
KONSTRUKTIONSELEMENTE
100
AcDbLine
 62
7
  6
CONTINUOUS
 10
415.6605675957
 20
378.6633457075
 11
416.3323098605
 21
378.3030667497
  0
LINE
  5
54A
100
AcDbEntity
  8
KONSTRUKTIONSELEMENTE
100
AcDbLine
 62
7
  6
CONTINUOUS
 10
393.4744798835
 20
394.4816446167
 11
394.5638588728
 21
393.8686573268
  0
LINE
  5
54B
100
AcDbEntity
  8
KONSTRUKTIONSELEMENTE
100
AcDbLine
 62
7
  6
CONTINUOUS
 10
397.1057417959
 20
392.4383544296
 11
398.5582498854
 21
391.6210364841
  0
LINE
  5
54C
100
AcDbEntity
  8
KONSTRUKTIONSELEMENTE
100
AcDbLine
 62
7
  6
CONTINUOUS
 10
401.1001328086
 20
390.1907335869
 11
402.1895117979
 21
389.5777462969
  0
LINE
  5
54D
100
AcDbEntity
  8
KONSTRUKTIONSELEMENTE
100
AcDbLine
 62
7
  6
CONTINUOUS
 10
376.1483269143
 20
400.590108076
 11
376.8124846947
 21
400.2160344819
  0
LINE
  5
54E
100
AcDbEntity
  8
KONSTRUKTIONSELEMENTE
100
AcDbLine
 62
7
  6
CONTINUOUS
 10
411.2326097051
 20
373.0537622698
 11
410.3309869244
 21
373.6033176215
  0
LINE
  5
54F
100
AcDbEntity
  8
KONSTRUKTIONSELEMENTE
100
AcDbLine
 62
7
  6
CONTINUOUS
 10
411.403086687
 20
378.5052411731
 11
412.3047096161
 21
377.9556858342
  0
LINE
  5
550
100
AcDbEntity
  8
KONSTRUKTIONSELEMENTE
100
AcDbLine
 62
7
  6
CONTINUOUS
 10
360.3509512808
 20
389.0954550872
 11
365.6613092038
 21
385.1834290077
  0
LINE
  5
551
100
AcDbEntity
  8
KONSTRUKTIONSELEMENTE
100
AcDbLine
 62
7
  6
CONTINUOUS
 10
366.4027015845
 20
386.1898279485
 11
361.0923436615
 21
390.101854028
  0
LINE
  5
552
100
AcDbEntity
  8
KONSTRUKTIONSELEMENTE
100
AcDbLine
 62
7
  6
CONTINUOUS
 10
364.0579117701
 20
394.1274478715
 11
369.3682696931
 21
390.215421792
  0
LINE
  5
553
100
AcDbEntity
  8
KONSTRUKTIONSELEMENTE
100
AcDbLine
 62
7
  6
CONTINUOUS
 10
370.1096617202
 20
391.2218202529
 11
364.7993037972
 21
395.1338463324
  0
LINE
  5
554
100
AcDbEntity
  8
0
100
AcDbLine
 62
7
  6
CONTINUOUS
 10
335.1588074618
 20
337.9195130752
 11
336.1588093691
 21
336.3875976489
  0
LINE
  5
555
100
AcDbEntity
  8
0
100
AcDbLine
 62
7
  6
CONTINUOUS
 10
342.1588093691
 20
330.00461915
 11
341.1588074618
 21
331.5365340398
  0
LINE
  5
556
100
AcDbEntity
  8
0
100
AcDbLine
 62
7
  6
CONTINUOUS
 10
324.0338084154
 20
362.6641939567
 11
324.5338093691
 21
361.8982358859
  0
LINE
  5
557
100
AcDbEntity
  8
0
100
AcDbLine
 62
7
  6
CONTINUOUS
 10
346.1588112765
 20
337.9195130752
 11
347.1588074618
 21
336.3875976489
  0
LINE
  5
558
100
AcDbEntity
  8
0
100
AcDbLine
 62
7
  6
CONTINUOUS
 10
305.5338096075
 20
355.7705766843
 11
306.033809846
 21
354.7493000315
  0
LINE
  5
559
100
AcDbEntity
  8
0
100
AcDbLine
 62
7
  6
CONTINUOUS
 10
329.1588074618
 20
330.7705766843
 11
329.6588112765
 21
329.7493000315
  0
LINE
  5
55A
100
AcDbEntity
  8
0
100
AcDbLine
 62
7
  6
CONTINUOUS
 10
303.2838096075
 20
352.9620660232
 11
301.0338096075
 21
358.8344064639
  0
LINE
  5
55B
100
AcDbEntity
  8
0
100
AcDbLine
 62
7
  6
CONTINUOUS
 10
299.5338092499
 20
358.3237682269
 11
301.5338091307
 21
352.9620660232
  0
LINE
  5
55C
100
AcDbEntity
  8
0
100
AcDbLine
 62
7
  6
CONTINUOUS
 10
296.1588103228
 20
337.9195130752
 11
296.4088093691
 21
337.1535557197
  0
LINE
  5
55D
100
AcDbEntity
  8
0
100
AcDbLine
 62
7
  6
CONTINUOUS
 10
297.9088093691
 20
337.1535557197
 11
297.6588103228
 21
337.9195130752
  0
LINE
  5
55E
100
AcDbEntity
  8
0
100
AcDbLine
 62
7
  6
CONTINUOUS
 10
307.9088084154
 20
337.6641939567
 11
308.1588103228
 21
336.8982358859
  0
LINE
  5
55F
100
AcDbEntity
  8
KONSTRUKTIONSELEMENTE
100
AcDbLine
 62
7
  6
CONTINUOUS
 10
207.4891931566
 20
649.0943280483
 11
207.2273465539
 21
649.9926363681
  0
LINE
  5
560
100
AcDbEntity
  8
0
100
AcDbLine
 62
7
  6
CONTINUOUS
 10
266.4088093691
 20
330.7705766843
 11
264.9088093691
 21
339.9620660232
  0
LINE
  5
561
100
AcDbEntity
  8
KONSTRUKTIONSELEMENTE
100
AcDbLine
 62
7
  6
CONTINUOUS
 10
216.4716282879
 20
656.8750365927
 11
216.280682434
 21
658.0507467543
  0
LINE
  5
562
100
AcDbEntity
  8
KONSTRUKTIONSELEMENTE
100
AcDbLine
 62
7
  6
CONTINUOUS
 10
253.4024252367
 20
644.6232441768
 11
253.5098390694
 21
643.3778678206
  0
LINE
  5
563
100
AcDbEntity
  8
KONSTRUKTIONSELEMENTE
100
AcDbLine
 62
7
  6
CONTINUOUS
 10
254.5518318305
 20
643.6768434092
 11
254.4802224721
 21
644.5070958969
  0
LINE
  5
564
100
AcDbEntity
  8
KONSTRUKTIONSELEMENTE
100
AcDbLine
 62
7
  6
CONTINUOUS
 10
258.08386471
 20
644.8179103928
 11
258.1554740684
 21
643.9876579051
  0
LINE
  5
565
100
AcDbEntity
  8
KONSTRUKTIONSELEMENTE
100
AcDbLine
 62
7
  6
CONTINUOUS
 10
259.0033897843
 20
644.0607907187
 11
258.9317804259
 21
644.8910432064
  0
LINE
  5
566
100
AcDbEntity
  8
KONSTRUKTIONSELEMENTE
100
AcDbLine
 62
7
  6
CONTINUOUS
 10
262.3234438834
 20
645.1835745117
 11
262.3950532417
 21
644.353322024
  0
LINE
  5
567
100
AcDbEntity
  8
KONSTRUKTIONSELEMENTE
100
AcDbLine
 62
7
  6
CONTINUOUS
 10
253.5248927936
 20
377.2114642552
 11
253.4024252367
 21
376.1553690036
  0
LINE
  5
568
100
AcDbEntity
  8
KONSTRUKTIONSELEMENTE
100
AcDbLine
 62
7
  6
CONTINUOUS
 10
243.4243746957
 20
400.7294273528
 11
242.1057417959
 21
392.4383544296
  0
LINE
  5
569
100
AcDbEntity
  8
KONSTRUKTIONSELEMENTE
100
AcDbLine
 62
7
  6
CONTINUOUS
 10
243.3536871622
 20
392.9568265309
 11
245.0124466872
 21
402.2771955962
  0
LINE
  5
56A
100
AcDbEntity
  8
KONSTRUKTIONSELEMENTE
100
AcDbLine
 62
7
  6
CONTINUOUS
 10
224.9536531439
 20
394.175432365
 11
225.3003509398
 21
395.3149732176
  0
LINE
  5
56B
100
AcDbEntity
  8
KONSTRUKTIONSELEMENTE
100
AcDbLine
 62
7
  6
CONTINUOUS
 10
215.1685943932
 20
388.0732738897
 11
214.8456346514
 21
387.27614689
  0
LINE
  5
56C
100
AcDbEntity
  8
KONSTRUKTIONSELEMENTE
100
AcDbLine
 62
7
  6
CONTINUOUS
 10
202.6822523331
 20
381.5434084871
 11
202.2780695969
 21
380.5600593548
  0
LINE
  5
56D
100
AcDbEntity
  8
BEZUGSACHSEN
100
AcDbLine
 62
7
  6
CONTINUOUS
 10
365.8831742745
 20
679.6960036097
 11
344.2325391799
 21
642.1960036097
  0
LINE
  5
56E
100
AcDbEntity
  8
BEZUGSACHSEN
100
AcDbLine
 62
7
  6
CONTINUOUS
 10
210.8831742745
 20
411.2281284366
 11
189.2325391799
 21
373.7281284366
  0
LINE
  5
56F
100
AcDbEntity
  8
KONSTRUKTIONSELEMENTE
100
AcDbLine
 62
7
  6
CONTINUOUS
 10
364.7993037972
 20
663.6017215056
 11
364.0579117701
 21
662.5953230447
  0
LINE
  5
570
100
AcDbEntity
  8
KONSTRUKTIONSELEMENTE
100
AcDbLine
 62
7
  6
CONTINUOUS
 10
361.0923436615
 20
658.5697292011
 11
360.3509512808
 21
657.5633302604
  0
LINE
  5
571
100
AcDbEntity
  8
KONSTRUKTIONSELEMENTE
100
AcDbLine
 62
7
  6
CONTINUOUS
 10
369.8456346514
 20
655.7440220632
 11
369.3513730643
 21
655.073089436
  0
LINE
  5
572
100
AcDbEntity
  8
KONSTRUKTIONSELEMENTE
100
AcDbLine
 62
7
  6
CONTINUOUS
 10
370.3791842558
 20
654.3159231123
 11
370.8734458429
 21
654.9868557395
  0
LINE
  5
573
100
AcDbEntity
  8
KONSTRUKTIONSELEMENTE
100
AcDbLine
 62
7
  6
CONTINUOUS
 10
409.972940952
 20
646.2224457317
 11
410.7671499
 21
646.9182667362
  0
LINE
  5
574
100
AcDbEntity
  8
KONSTRUKTIONSELEMENTE
100
AcDbLine
 62
7
  6
CONTINUOUS
 10
414.6364778348
 20
646.6246762446
 11
415.2366097377
 21
647.0946544739
  0
LINE
  5
575
100
AcDbEntity
  8
KONSTRUKTIONSELEMENTE
100
AcDbLine
 62
7
  6
CONTINUOUS
 10
416.6903558328
 20
642.6196889858
 11
416.0902229264
 21
642.149715456
  0
LINE
  5
576
100
AcDbEntity
  8
0
100
AcDbLine
 62
7
  6
CONTINUOUS
 10
446.5076777606
 20
466.4620660232
 11
173.5418417755
 21
466.4620660232
  0
LINE
  5
577
100
AcDbEntity
  8
0
100
AcDbLine
 62
7
  6
CONTINUOUS
 10
483.6338093691
 20
466.4620660232
 11
508.6338093691
 21
466.4620660232
  0
LINE
  5
578
100
AcDbEntity
  8
0
100
AcDbLine
 62
7
  6
CONTINUOUS
 10
465.97356527
 20
471.3003239296
 11
483.6338093691
 21
471.3003239296
  0
LINE
  5
579
100
AcDbEntity
  8
KONSTRUKTIONSELEMENTE
100
AcDbLine
 62
7
  6
CONTINUOUS
 10
407.0934101176
 20
398.2927782114
 11
405.4593416337
 21
399.2122591463
  0
LINE
  5
57A
100
AcDbEntity
  8
KONSTRUKTIONSELEMENTE
100
AcDbLine
 62
7
  6
CONTINUOUS
 10
400.0124466872
 20
402.2771955962
 11
398.3783782032
 21
403.1966765311
  0
LINE
  5
57B
100
AcDbEntity
  8
KONSTRUKTIONSELEMENTE
100
AcDbLine
 62
7
  6
CONTINUOUS
 10
377.8233397553
 20
400.981502732
 11
377.0610207435
 21
401.5443445989
  0
LINE
  5
57C
100
AcDbEntity
  8
KONSTRUKTIONSELEMENTE
100
AcDbLine
 62
7
  6
CONTINUOUS
 10
409.5367780506
 20
372.9074966235
 11
410.2264218281
 21
372.339658062
  0
LINE
  5
57D
100
AcDbEntity
  8
KONSTRUKTIONSELEMENTE
100
AcDbLine
 62
7
  6
CONTINUOUS
 10
413.9704336366
 20
373.499008249
 11
414.6600773399
 21
372.931169681
  0
LINE
  5
57E
100
AcDbEntity
  8
KONSTRUKTIONSELEMENTE
100
AcDbLine
 62
7
  6
CONTINUOUS
 10
362.2273465539
 20
381.524761195
 11
361.5084681257
 21
382.2981616573
  0
LINE
  5
57F
100
AcDbEntity
  8
BEZUGSACHSEN
100
AcDbLine
 62
7
  6
CONTINUOUS
 10
189.2325391799
 20
642.1960036097
 11
210.8831742745
 21
604.6960036097
  0
LINE
  5
580
100
AcDbEntity
  8
BEZUGSACHSEN
100
AcDbLine
 62
7
  6
CONTINUOUS
 10
344.2325391799
 20
373.7281284366
 11
365.8831742745
 21
336.2281284366
  0
LINE
  5
581
100
AcDbEntity
  8
0
100
AcDbLine
 62
7
  6
CONTINUOUS
 10
340.1588112765
 20
330.7705766843
 11
340.6588093691
 21
329.7493000315
  0
LINE
  5
582
100
AcDbEntity
  8
0
100
AcDbLine
 62
7
  6
CONTINUOUS
 10
337.1588112765
 20
337.1535557197
 11
336.6588074618
 21
338.1748321937
  0
LINE
  5
583
100
AcDbEntity
  8
0
100
AcDbLine
 62
7
  6
CONTINUOUS
 10
326.0338093691
 20
362.1535557197
 11
325.5338084154
 21
363.1748321937
  0
LINE
  5
584
100
AcDbEntity
  8
0
100
AcDbLine
 62
7
  6
CONTINUOUS
 10
348.1588093691
 20
337.1535557197
 11
347.6588112765
 21
338.1748321937
  0
LINE
  5
585
100
AcDbEntity
  8
0
100
AcDbLine
 62
7
  6
CONTINUOUS
 10
352.6588093691
 20
330.00461915
 11
353.1588074618
 21
328.9833425866
  0
LINE
  5
586
100
AcDbEntity
  8
KONSTRUKTIONSELEMENTE
100
AcDbLine
 62
7
  6
CONTINUOUS
 10
214.9299115006
 20
658.0107860782
 11
215.1966865963
 21
657.2967371269
  0
LINE
  5
587
100
AcDbEntity
  8
0
100
AcDbLine
 62
7
  6
CONTINUOUS
 10
301.2838093691
 20
362.9195130752
 11
301.5338091307
 21
362.1535557197
  0
LINE
  5
588
100
AcDbEntity
  8
0
100
AcDbLine
 62
7
  6
CONTINUOUS
 10
303.0338091307
 20
362.1535557197
 11
302.7838093691
 21
362.9195130752
  0
LINE
  5
589
100
AcDbEntity
  8
0
100
AcDbLine
 62
7
  6
CONTINUOUS
 10
328.9088112765
 20
331.5365340398
 11
329.1588074618
 21
330.7705766843
  0
LINE
  5
58A
100
AcDbEntity
  8
KONSTRUKTIONSELEMENTE
100
AcDbLine
 62
7
  6
CONTINUOUS
 10
225.2773778308
 20
664.7301570696
 11
224.9714057335
 21
665.770117198
  0
LINE
  5
58B
100
AcDbEntity
  8
0
100
AcDbLine
 62
7
  6
CONTINUOUS
 10
301.6588093691
 20
331.0258958028
 11
301.4088103228
 21
332.0471722768
  0
LINE
  5
58C
100
AcDbEntity
  8
0
100
AcDbLine
 62
7
  6
CONTINUOUS
 10
307.0338088923
 20
356.0258958028
 11
306.783809846
 21
357.0471722768
  0
LINE
  5
58D
100
AcDbEntity
  8
KONSTRUKTIONSELEMENTE
100
AcDbLine
 62
7
  6
CONTINUOUS
 10
223.8623888913
 20
665.1934182785
 11
224.0701994821
 21
664.3422269518
  0
LINE
  5
58E
100
AcDbEntity
  8
0
100
AcDbLine
 62
7
  6
CONTINUOUS
 10
299.9088103228
 20
332.0471722768
 11
300.1588093691
 21
330.7705766843
  0
LINE
  5
58F
100
AcDbEntity
  8
KONSTRUKTIONSELEMENTE
100
AcDbLine
 62
7
  6
CONTINUOUS
 10
263.4549478866
 20
644.4447380409
 11
263.3833385282
 21
645.2749905286
  0
LINE
  5
590
100
AcDbEntity
  8
0
100
AcDbLine
 62
7
  6
CONTINUOUS
 10
277.4088088923
 20
339.9620660232
 11
277.4088088923
 21
327.9620660232
  0
LINE
  5
591
100
AcDbEntity
  8
0
100
AcDbLine
 62
7
  6
CONTINUOUS
 10
278.9088088923
 20
329.493980913
 11
278.9088088923
 21
333.3237682269
  0
LINE
  5
592
100
AcDbEntity
  8
0
100
AcDbLine
 62
7
  6
CONTINUOUS
 10
278.9088088923
 20
334.8556829379
 11
278.9088088923
 21
338.4301513122
  0
LINE
  5
593
100
AcDbEntity
  8
0
100
AcDbLine
 62
7
  6
CONTINUOUS
 10
285.1588093691
 20
336.8982358859
 11
285.1588093691
 21
336.3875976489
  0
LINE
  5
594
100
AcDbEntity
  8
0
100
AcDbLine
 62
7
  6
CONTINUOUS
 10
285.1588093691
 20
331.7918531583
 11
285.1588093691
 21
331.0258958028
  0
LINE
  5
595
100
AcDbEntity
  8
0
100
AcDbLine
 62
7
  6
CONTINUOUS
 10
286.6588093691
 20
330.7705766843
 11
286.6588093691
 21
332.0471722768
  0
LINE
  5
596
100
AcDbEntity
  8
0
100
AcDbLine
 62
7
  6
CONTINUOUS
 10
286.6588093691
 20
336.1322785304
 11
286.6588093691
 21
337.1535557197
  0
LINE
  5
597
100
AcDbEntity
  8
0
100
AcDbLine
 62
7
  6
CONTINUOUS
 10
288.6588103228
 20
339.9620660232
 11
288.6588103228
 21
327.9620660232
  0
LINE
  5
598
100
AcDbEntity
  8
0
100
AcDbLine
 62
7
  6
CONTINUOUS
 10
290.1588103228
 20
327.9620660232
 11
290.1588103228
 21
333.3237682269
  0
LINE
  5
599
100
AcDbEntity
  8
0
100
AcDbLine
 62
7
  6
CONTINUOUS
 10
290.1588103228
 20
334.8556829379
 11
290.1588103228
 21
338.6854704307
  0
LINE
  5
59A
100
AcDbEntity
  8
KONSTRUKTIONSELEMENTE
100
AcDbLine
 62
7
  6
CONTINUOUS
 10
263.3324803483
 20
374.9207676178
 11
263.4549478866
 21
375.9768628677
  0
LINE
  5
59B
100
AcDbEntity
  8
KONSTRUKTIONSELEMENTE
100
AcDbLine
 62
7
  6
CONTINUOUS
 10
254.4802224721
 20
376.0392207237
 11
254.6205920427
 21
376.8877564148
  0
LINE
  5
59C
100
AcDbEntity
  8
KONSTRUKTIONSELEMENTE
100
AcDbLine
 62
7
  6
CONTINUOUS
 10
258.1554740684
 20
375.519782732
 11
258.015104088
 21
374.6712517916
  0
LINE
  5
59D
100
AcDbEntity
  8
KONSTRUKTIONSELEMENTE
100
AcDbLine
 62
7
  6
CONTINUOUS
 10
258.9317804259
 20
376.4231680332
 11
259.0721499965
 21
377.2717037243
  0
LINE
  5
59E
100
AcDbEntity
  8
KONSTRUKTIONSELEMENTE
100
AcDbLine
 62
7
  6
CONTINUOUS
 10
262.3950532417
 20
375.8854468508
 11
262.2546832614
 21
375.0369159105
  0
LINE
  5
59F
100
AcDbEntity
  8
KONSTRUKTIONSELEMENTE
100
AcDbLine
 62
7
  6
CONTINUOUS
 10
215.8734458429
 20
386.5189805663
 11
216.3199704363
 21
387.483840014
  0
LINE
  5
5A0
100
AcDbEntity
  8
KONSTRUKTIONSELEMENTE
100
AcDbLine
 62
7
  6
CONTINUOUS
 10
223.9950110159
 20
395.1158120337
 11
223.6368256766
 21
394.4499248383
  0
LINE
  5
5A1
100
AcDbEntity
  8
KONSTRUKTIONSELEMENTE
100
AcDbLine
 62
7
  6
CONTINUOUS
 10
203.3620936274
 20
380.5653643209
 11
203.6882022074
 21
381.139426631
  0
LINE
  5
5A2
100
AcDbEntity
  8
KONSTRUKTIONSELEMENTE
100
AcDbLine
 62
7
  6
CONTINUOUS
 10
358.3620936274
 20
649.0332394941
 11
358.6882022074
 21
649.6073018042
  0
LINE
  5
5A3
100
AcDbEntity
  8
KONSTRUKTIONSELEMENTE
100
AcDbLine
 62
7
  6
CONTINUOUS
 10
379.4106323264
 20
661.8813043055
 11
379.9536531439
 21
662.6433075382
  0
LINE
  5
5A4
100
AcDbEntity
  8
KONSTRUKTIONSELEMENTE
100
AcDbLine
 62
7
  6
CONTINUOUS
 10
412.6627555885
 20
642.2723080703
 11
411.868546492
 21
641.5764870531
  0
LINE
  5
5A5
100
AcDbEntity
  8
0
100
AcDbLine
 62
7
  6
CONTINUOUS
 10
145.1987322067
 20
477.6511768907
 11
128.4338093691
 21
477.6511768907
  0
LINE
  5
5A6
100
AcDbEntity
  8
KONSTRUKTIONSELEMENTE
100
AcDbLine
 62
7
  6
CONTINUOUS
 10
123.8411801697
 20
509.882557417
 11
128.4338093691
 21
509.0064831585
  0
LINE
  5
5A7
100
AcDbEntity
  8
KONSTRUKTIONSELEMENTE
100
AcDbLine
 62
7
  6
CONTINUOUS
 10
128.2553511451
 20
510.3130645775
 11
125.1203895348
 21
510.9110791459
  0
LINE
  5
5A8
100
AcDbEntity
  8
KONSTRUKTIONSELEMENTE
100
AcDbLine
 62
7
  6
CONTINUOUS
 10
127.3503003941
 20
515.7879560059
 11
127.9772931845
 21
515.6683530029
  0
LINE
  5
5A9
100
AcDbEntity
  8
KONSTRUKTIONSELEMENTE
100
AcDbLine
 62
7
  6
CONTINUOUS
 10
128.420512943
 20
516.8563452536
 11
127.5845227509
 21
517.015815887
  0
LINE
  5
5AA
100
AcDbEntity
  8
KONSTRUKTIONSELEMENTE
100
AcDbLine
 62
7
  6
CONTINUOUS
 10
417.3563996213
 20
378.8096113858
 11
416.666755918
 21
379.3774499538
  0
LINE
  5
5AB
100
AcDbEntity
  8
KONSTRUKTIONSELEMENTE
100
AcDbLine
 62
7
  6
CONTINUOUS
 10
370.842605373
 20
390.4231149934
 11
370.1096617202
 21
391.2218202529
  0
LINE
  5
5AC
100
AcDbEntity
  8
KONSTRUKTIONSELEMENTE
100
AcDbLine
 62
7
  6
CONTINUOUS
 10
376.8124846947
 20
400.2160344819
 11
377.389966156
 21
399.5570753951
  0
LINE
  5
5AD
100
AcDbEntity
  8
KONSTRUKTIONSELEMENTE
100
AcDbLine
 62
7
  6
CONTINUOUS
 10
369.3682696931
 20
390.215421792
 11
369.9299115006
 21
389.5429109051
  0
LINE
  5
5AE
100
AcDbEntity
  8
KONSTRUKTIONSELEMENTE
100
AcDbLine
 62
7
  6
CONTINUOUS
 10
361.0652483672
 20
381.1101694066
 11
361.4051690144
 21
380.6211473236
  0
LINE
  5
5AF
100
AcDbEntity
  8
0
100
AcDbLine
 62
7
  6
CONTINUOUS
 10
337.4088074618
 20
336.3875976489
 11
337.1588112765
 21
337.1535557197
  0
LINE
  5
5B0
100
AcDbEntity
  8
0
100
AcDbLine
 62
7
  6
CONTINUOUS
 10
339.9088093691
 20
331.5365340398
 11
340.1588112765
 21
330.7705766843
  0
LINE
  5
5B1
100
AcDbEntity
  8
0
100
AcDbLine
 62
7
  6
CONTINUOUS
 10
348.4088112765
 20
336.3875976489
 11
348.1588093691
 21
337.1535557197
  0
LINE
  5
5B2
100
AcDbEntity
  8
0
100
AcDbLine
 62
7
  6
CONTINUOUS
 10
324.5338093691
 20
361.8982358859
 11
324.7838084154
 21
360.8769594119
  0
LINE
  5
5B3
100
AcDbEntity
  8
0
100
AcDbLine
 62
7
  6
CONTINUOUS
 10
305.2838091307
 20
357.0471722768
 11
305.5338096075
 21
355.7705766843
  0
LINE
  5
5B4
100
AcDbEntity
  8
0
100
AcDbLine
 62
7
  6
CONTINUOUS
 10
309.6588103228
 20
336.8982358859
 11
309.4088084154
 21
338.1748321937
  0
LINE
  5
5B5
100
AcDbEntity
  8
0
100
AcDbLine
 62
7
  6
CONTINUOUS
 10
293.7838093691
 20
364.9620660232
 11
293.7838093691
 21
352.9620660232
  0
LINE
  5
5B6
100
AcDbEntity
  8
0
100
AcDbLine
 62
7
  6
CONTINUOUS
 10
295.2838093691
 20
352.9620660232
 11
295.2838093691
 21
358.3237682269
  0
LINE
  5
5B7
100
AcDbEntity
  8
0
100
AcDbLine
 62
7
  6
CONTINUOUS
 10
295.2838093691
 20
359.8556829379
 11
295.2838093691
 21
363.6854704307
  0
LINE
  5
5B8
100
AcDbEntity
  8
0
100
AcDbLine
 62
7
  6
CONTINUOUS
 10
296.4088093691
 20
337.1535557197
 11
296.4088093691
 21
336.3875976489
  0
LINE
  5
5B9
100
AcDbEntity
  8
0
100
AcDbLine
 62
7
  6
CONTINUOUS
 10
297.9088093691
 20
336.1322785304
 11
297.9088093691
 21
337.1535557197
  0
LINE
  5
5BA
100
AcDbEntity
  8
0
100
AcDbLine
 62
7
  6
CONTINUOUS
 10
299.9088103228
 20
335.8769594119
 11
299.9088103228
 21
332.0471722768
  0
LINE
  5
5BB
100
AcDbEntity
  8
0
100
AcDbLine
 62
7
  6
CONTINUOUS
 10
301.4088103228
 20
332.0471722768
 11
301.4088103228
 21
335.8769594119
  0
LINE
  5
5BC
100
AcDbEntity
  8
0
100
AcDbLine
 62
7
  6
CONTINUOUS
 10
301.5338091307
 20
362.1535557197
 11
301.5338091307
 21
361.3875976489
  0
LINE
  5
5BD
100
AcDbEntity
  8
0
100
AcDbLine
 62
7
  6
CONTINUOUS
 10
303.0338091307
 20
361.1322785304
 11
303.0338091307
 21
362.1535557197
  0
LINE
  5
5BE
100
AcDbEntity
  8
0
100
AcDbLine
 62
7
  6
CONTINUOUS
 10
305.2838091307
 20
364.9620660232
 11
305.2838091307
 21
357.0471722768
  0
LINE
  5
5BF
100
AcDbEntity
  8
0
100
AcDbLine
 62
7
  6
CONTINUOUS
 10
305.9088103228
 20
334.6003638194
 11
305.9088103228
 21
333.0684491084
  0
LINE
  5
5C0
100
AcDbEntity
  8
0
100
AcDbLine
 62
7
  6
CONTINUOUS
 10
306.783809846
 20
357.0471722768
 11
306.783809846
 21
364.9620660232
  0
LINE
  5
5C1
100
AcDbEntity
  8
0
100
AcDbLine
 62
7
  6
CONTINUOUS
 10
308.1588103228
 20
333.0684491084
 11
308.1588103228
 21
331.0258958028
  0
LINE
  5
5C2
100
AcDbEntity
  8
0
100
AcDbLine
 62
7
  6
CONTINUOUS
 10
309.6588103228
 20
330.7705766843
 11
309.6588103228
 21
334.6003638194
  0
LINE
  5
5C3
100
AcDbEntity
  8
0
100
AcDbLine
 62
7
  6
CONTINUOUS
 10
273.9088093691
 20
339.9620660232
 11
272.4088093691
 21
330.7705766843
  0
LINE
  5
5C4
100
AcDbEntity
  8
0
100
AcDbLine
 62
7
  6
CONTINUOUS
 10
273.4088091307
 20
327.9620660232
 11
275.4088093691
 21
339.9620660232
  0
LINE
  5
5C5
100
AcDbEntity
  8
0
100
AcDbLine
 62
7
  6
CONTINUOUS
 10
267.4088094883
 20
327.9620660232
 11
269.4088093691
 21
337.6641939567
  0
LINE
  5
5C6
100
AcDbEntity
  8
0
100
AcDbLine
 62
7
  6
CONTINUOUS
 10
268.4088092499
 20
339.9620660232
 11
266.4088093691
 21
330.7705766843
  0
LINE
  5
5C7
100
AcDbEntity
  8
KONSTRUKTIONSELEMENTE
100
AcDbLine
 62
7
  6
CONTINUOUS
 10
370.1685943932
 20
656.5411490629
 11
369.8456346514
 21
655.7440220632
  0
LINE
  5
5C8
100
AcDbEntity
  8
KONSTRUKTIONSELEMENTE
100
AcDbLine
 62
7
  6
CONTINUOUS
 10
254.6205920427
 20
376.8877564148
 11
254.972940952
 21
377.7545705586
  0
LINE
  5
5C9
100
AcDbEntity
  8
KONSTRUKTIONSELEMENTE
100
AcDbLine
 62
7
  6
CONTINUOUS
 10
258.5407783059
 20
378.4805136737
 11
258.364604261
 21
378.0471018511
  0
LINE
  5
5CA
100
AcDbEntity
  8
KONSTRUKTIONSELEMENTE
100
AcDbLine
 62
7
  6
CONTINUOUS
 10
258.015104088
 20
374.6712517916
 11
257.6627555885
 21
373.8044328971
  0
LINE
  5
5CB
100
AcDbEntity
  8
KONSTRUKTIONSELEMENTE
100
AcDbLine
 62
7
  6
CONTINUOUS
 10
357.6822523331
 20
650.0112836603
 11
357.2780695969
 21
649.027934528
  0
LINE
  5
5CC
100
AcDbEntity
  8
KONSTRUKTIONSELEMENTE
100
AcDbLine
 62
7
  6
CONTINUOUS
 10
370.8734458429
 20
654.9868557395
 11
371.3199704363
 21
655.9517151872
  0
LINE
  5
5CD
100
AcDbEntity
  8
KONSTRUKTIONSELEMENTE
100
AcDbLine
 62
7
  6
CONTINUOUS
 10
378.9950110159
 20
663.5836872068
 11
378.6368256766
 21
662.9178000115
  0
LINE
  5
5CE
100
AcDbEntity
  8
KONSTRUKTIONSELEMENTE
100
AcDbLine
 62
7
  6
CONTINUOUS
 10
243.3783782032
 20
403.1966765311
 11
238.4744798835
 21
394.4816446167
  0
LINE
  5
5CF
100
AcDbEntity
  8
KONSTRUKTIONSELEMENTE
100
AcDbLine
 62
7
  6
CONTINUOUS
 10
239.5638588728
 20
393.8686573268
 11
243.4243746957
 21
400.7294273528
  0
LINE
  5
5D0
100
AcDbEntity
  8
KONSTRUKTIONSELEMENTE
100
AcDbLine
 62
7
  6
CONTINUOUS
 10
398.3783782032
 20
671.6645517043
 11
393.4744798835
 21
662.9495197899
  0
LINE
  5
5D1
100
AcDbEntity
  8
KONSTRUKTIONSELEMENTE
100
AcDbLine
 62
7
  6
CONTINUOUS
 10
394.5638588728
 20
662.3365324999
 11
398.4243746957
 21
669.1973025259
  0
LINE
  5
5D2
100
AcDbEntity
  8
KONSTRUKTIONSELEMENTE
100
AcDbLine
 62
7
  6
CONTINUOUS
 10
249.9606486315
 20
397.0515036129
 11
246.1001328086
 21
390.1907335869
  0
LINE
  5
5D3
100
AcDbEntity
  8
KONSTRUKTIONSELEMENTE
100
AcDbLine
 62
7
  6
CONTINUOUS
 10
224.4106323264
 20
393.4134291323
 11
224.9536531439
 21
394.175432365
  0
LINE
  5
5D4
100
AcDbEntity
  8
KONSTRUKTIONSELEMENTE
100
AcDbLine
 62
7
  6
CONTINUOUS
 10
209.7993037972
 20
395.1338463324
 11
209.0579117701
 21
394.1274478715
  0
LINE
  5
5D5
100
AcDbEntity
  8
KONSTRUKTIONSELEMENTE
100
AcDbLine
 62
7
  6
CONTINUOUS
 10
206.0923436615
 20
390.101854028
 11
205.3509512808
 21
389.0954550872
  0
LINE
  5
5D6
100
AcDbEntity
  8
KONSTRUKTIONSELEMENTE
100
AcDbLine
 62
7
  6
CONTINUOUS
 10
214.8456346514
 20
387.27614689
 11
214.3513730643
 21
386.6052142628
  0
LINE
  5
5D7
100
AcDbEntity
  8
KONSTRUKTIONSELEMENTE
100
AcDbLine
 62
7
  6
CONTINUOUS
 10
215.3791842558
 20
385.8480479391
 11
215.8734458429
 21
386.5189805663
  0
LINE
  5
5D8
100
AcDbEntity
  8
KONSTRUKTIONSELEMENTE
100
AcDbLine
 62
7
  6
CONTINUOUS
 10
409.6535481904
 20
647.4495388845
 11
409.0713182456
 21
646.7720010899
  0
LINE
  5
5D9
100
AcDbEntity
  8
KONSTRUKTIONSELEMENTE
100
AcDbLine
 62
7
  6
CONTINUOUS
 10
414.1230081765
 20
647.6259266351
 11
413.5407783059
 21
646.9483888469
  0
LINE
  5
5DA
100
AcDbEntity
  8
KONSTRUKTIONSELEMENTE
100
AcDbLine
 62
7
  6
CONTINUOUS
 10
417.2038250814
 20
641.618443346
 11
417.786054952
 21
642.2959811342
  0
LINE
  5
5DB
100
AcDbEntity
  8
KONSTRUKTIONSELEMENTE
100
AcDbLine
 62
7
  6
CONTINUOUS
 10
414.9945238072
 20
374.0055481343
 11
414.2869776619
 21
374.7809510119
  0
LINE
  5
5DC
100
AcDbEntity
  8
KONSTRUKTIONSELEMENTE
100
AcDbLine
 62
7
  6
CONTINUOUS
 10
413.116820448
 20
378.4439472669
 11
412.4092747124
 21
379.2193453938
  0
LINE
  5
5DD
100
AcDbEntity
  8
KONSTRUKTIONSELEMENTE
100
AcDbLine
 62
7
  6
CONTINUOUS
 10
416.3323098605
 20
378.3030667497
 11
417.039855596
 21
377.5276686229
  0
LINE
  5
5DE
100
AcDbEntity
  8
KONSTRUKTIONSELEMENTE
100
AcDbLine
 62
7
  6
CONTINUOUS
 10
378.4989829982
 20
400.1337743147
 11
377.8233397553
 21
400.981502732
  0
LINE
  5
5DF
100
AcDbEntity
  8
KONSTRUKTIONSELEMENTE
100
AcDbLine
 62
7
  6
CONTINUOUS
 10
408.8113298173
 20
373.8904590551
 11
409.5367780506
 21
372.9074966235
  0
LINE
  5
5E0
100
AcDbEntity
  8
KONSTRUKTIONSELEMENTE
100
AcDbLine
 62
7
  6
CONTINUOUS
 10
206.0652483672
 20
649.5780445798
 11
206.4051690144
 21
649.0890224967
  0
LINE
  5
5E1
100
AcDbEntity
  8
KONSTRUKTIONSELEMENTE
100
AcDbLine
 62
7
  6
CONTINUOUS
 10
216.280682434
 20
658.0507467543
 11
215.842605373
 21
658.8909901666
  0
LINE
  5
5E2
100
AcDbEntity
  8
KONSTRUKTIONSELEMENTE
100
AcDbLine
 62
7
  6
CONTINUOUS
 10
371.280682434
 20
389.5828715811
 11
370.842605373
 21
390.4231149934
  0
LINE
  5
5E3
100
AcDbEntity
  8
KONSTRUKTIONSELEMENTE
100
AcDbLine
 62
7
  6
CONTINUOUS
 10
214.5349537096
 20
667.7772917467
 11
219.148545066
 21
658.9051570095
  0
LINE
  5
5E4
100
AcDbEntity
  8
KONSTRUKTIONSELEMENTE
100
AcDbLine
 62
7
  6
CONTINUOUS
 10
219.6685928003
 20
660.6144688714
 11
216.2329395909
 21
667.2213778561
  0
LINE
  5
5E5
100
AcDbEntity
  8
KONSTRUKTIONSELEMENTE
100
AcDbLine
 62
7
  6
CONTINUOUS
 10
222.389966156
 20
668.0249505683
 11
223.8623888913
 21
665.1934182785
  0
LINE
  5
5E6
100
AcDbEntity
  8
KONSTRUKTIONSELEMENTE
100
AcDbLine
 62
7
  6
CONTINUOUS
 10
224.9714057335
 20
665.770117198
 11
223.4989829982
 21
668.6016494878
  0
LINE
  5
5E7
100
AcDbEntity
  8
KONSTRUKTIONSELEMENTE
100
AcDbLine
 62
7
  6
CONTINUOUS
 10
254.835419708
 20
642.8648788756
 11
254.5518318305
 21
643.6768434092
  0
LINE
  5
5E8
100
AcDbEntity
  8
KONSTRUKTIONSELEMENTE
100
AcDbLine
 62
7
  6
CONTINUOUS
 10
257.8002764227
 20
645.6298796772
 11
258.08386471
 21
644.8179103928
  0
LINE
  5
5E9
100
AcDbEntity
  8
KONSTRUKTIONSELEMENTE
100
AcDbLine
 62
7
  6
CONTINUOUS
 10
259.2869776619
 20
643.2488261851
 11
259.0033897843
 21
644.0607907187
  0
LINE
  5
5EA
100
AcDbEntity
  8
KONSTRUKTIONSELEMENTE
100
AcDbLine
 62
7
  6
CONTINUOUS
 10
262.039855596
 20
645.995543796
 11
262.3234438834
 21
645.1835745117
  0
LINE
  5
5EB
100
AcDbEntity
  8
0
100
AcDbLine
 62
7
  6
CONTINUOUS
 10
354.1588093691
 20
329.7493000315
 11
353.9088074618
 21
330.5152575658
  0
LINE
  5
5EC
100
AcDbEntity
  8
KONSTRUKTIONSELEMENTE
100
AcDbLine
 62
7
  6
CONTINUOUS
 10
253.5098390694
 20
643.3778678206
 11
253.8113298173
 21
642.3583342283
  0
LINE
  5
5ED
100
AcDbEntity
  8
KONSTRUKTIONSELEMENTE
100
AcDbLine
 62
7
  6
CONTINUOUS
 10
263.3833385282
 20
645.2749905286
 11
263.0818482086
 21
646.2945193718
  0
LINE
  5
5EE
100
AcDbEntity
  8
0
100
AcDbLine
 62
7
  6
CONTINUOUS
 10
328.6588093691
 20
332.8131299899
 11
328.9088112765
 21
331.5365340398
  0
LINE
  5
5EF
100
AcDbEntity
  8
0
100
AcDbLine
 62
7
  6
CONTINUOUS
 10
326.2838084154
 20
360.8769594119
 11
326.0338093691
 21
362.1535557197
  0
LINE
  5
5F0
100
AcDbEntity
  8
0
100
AcDbLine
 62
7
  6
CONTINUOUS
 10
337.6588093691
 20
335.1110020564
 11
337.4088074618
 21
336.3875976489
  0
LINE
  5
5F1
100
AcDbEntity
  8
0
100
AcDbLine
 62
7
  6
CONTINUOUS
 10
339.6588074618
 20
332.8131299899
 11
339.9088093691
 21
331.5365340398
  0
LINE
  5
5F2
100
AcDbEntity
  8
0
100
AcDbLine
 62
7
  6
CONTINUOUS
 10
330.1588093691
 20
331.5365340398
 11
329.9088074618
 21
333.0684491084
  0
LINE
  5
5F3
100
AcDbEntity
  8
0
100
AcDbLine
 62
7
  6
CONTINUOUS
 10
336.1588093691
 20
336.3875976489
 11
336.4088112765
 21
334.8556829379
  0
LINE
  5
5F4
100
AcDbEntity
  8
0
100
AcDbLine
 62
7
  6
CONTINUOUS
 10
341.1588074618
 20
331.5365340398
 11
340.9088112765
 21
333.0684491084
  0
LINE
  5
5F5
100
AcDbEntity
  8
0
100
AcDbLine
 62
7
  6
CONTINUOUS
 10
312.783809846
 20
364.9620660232
 11
312.783809846
 21
357.0471722768
  0
LINE
  5
5F6
100
AcDbEntity
  8
0
100
AcDbLine
 62
7
  6
CONTINUOUS
 10
314.283809846
 20
357.0471722768
 11
314.283809846
 21
364.9620660232
  0
LINE
  5
5F7
100
AcDbEntity
  8
0
100
AcDbLine
 62
7
  6
CONTINUOUS
 10
316.2838093691
 20
364.9620660232
 11
316.2838093691
 21
352.9620660232
  0
LINE
  5
5F8
100
AcDbEntity
  8
0
100
AcDbLine
 62
7
  6
CONTINUOUS
 10
317.7838093691
 20
354.493980913
 11
317.7838093691
 21
363.4301513122
  0
LINE
  5
5F9
100
AcDbEntity
  8
0
100
AcDbLine
 62
7
  6
CONTINUOUS
 10
323.6588112765
 20
338.1748321937
 11
323.6588112765
 21
336.1322785304
  0
LINE
  5
5FA
100
AcDbEntity
  8
0
100
AcDbLine
 62
7
  6
CONTINUOUS
 10
324.7838084154
 20
360.8769594119
 11
324.7838084154
 21
357.0471722768
  0
LINE
  5
5FB
100
AcDbEntity
  8
0
100
AcDbLine
 62
7
  6
CONTINUOUS
 10
325.1588112765
 20
337.9195130752
 11
325.1588112765
 21
327.9620660232
  0
LINE
  5
5FC
100
AcDbEntity
  8
0
100
AcDbLine
 62
7
  6
CONTINUOUS
 10
326.2838084154
 20
357.0471722768
 11
326.2838084154
 21
360.8769594119
  0
LINE
  5
5FD
100
AcDbEntity
  8
0
100
AcDbLine
 62
7
  6
CONTINUOUS
 10
326.6588112765
 20
327.9620660232
 11
326.6588112765
 21
339.9620660232
  0
LINE
  5
5FE
100
AcDbEntity
  8
0
100
AcDbLine
 62
7
  6
CONTINUOUS
 10
328.6588093691
 20
335.1110020564
 11
328.6588093691
 21
332.8131299899
  0
LINE
  5
5FF
100
AcDbEntity
  8
0
100
AcDbLine
 62
7
  6
CONTINUOUS
 10
329.9088074618
 20
333.0684491084
 11
329.9088074618
 21
334.8556829379
  0
LINE
  5
600
100
AcDbEntity
  8
KONSTRUKTIONSELEMENTE
100
AcDbLine
 62
7
  6
CONTINUOUS
 10
357.2780695969
 20
649.027934528
 11
356.3411801697
 21
644.1164950036
  0
LINE
  5
601
100
AcDbEntity
  8
KONSTRUKTIONSELEMENTE
100
AcDbLine
 62
7
  6
CONTINUOUS
 10
357.6203895348
 20
645.1450167325
 11
358.3620936274
 21
649.0332394941
  0
LINE
  5
602
100
AcDbEntity
  8
KONSTRUKTIONSELEMENTE
100
AcDbLine
 62
7
  6
CONTINUOUS
 10
258.5464757787
 20
373.4624418422
 11
258.7226502333
 21
373.8958489141
  0
LINE
  5
603
100
AcDbEntity
  8
KONSTRUKTIONSELEMENTE
100
AcDbLine
 62
7
  6
CONTINUOUS
 10
254.0713182456
 20
378.3041259167
 11
253.5248927936
 21
377.2114642552
  0
LINE
  5
604
100
AcDbEntity
  8
KONSTRUKTIONSELEMENTE
100
AcDbLine
 62
7
  6
CONTINUOUS
 10
262.786054952
 20
373.8281059611
 11
263.3324803483
 21
374.9207676178
  0
LINE
  5
605
100
AcDbEntity
  8
KONSTRUKTIONSELEMENTE
100
AcDbLine
 62
7
  6
CONTINUOUS
 10
247.1895117979
 20
389.5777462969
 11
252.0934101176
 21
398.2927782114
  0
LINE
  5
606
100
AcDbEntity
  8
KONSTRUKTIONSELEMENTE
100
AcDbLine
 62
7
  6
CONTINUOUS
 10
404.9606486315
 20
665.5193787861
 11
401.1001328086
 21
658.6586087601
  0
LINE
  5
607
100
AcDbEntity
  8
KONSTRUKTIONSELEMENTE
100
AcDbLine
 62
7
  6
CONTINUOUS
 10
402.1895117979
 20
658.0456214701
 11
407.0934101176
 21
666.7606533845
  0
LINE
  5
608
100
AcDbEntity
  8
KONSTRUKTIONSELEMENTE
100
AcDbLine
 62
7
  6
CONTINUOUS
 10
414.0721499965
 20
645.7395788975
 11
414.6364778348
 21
646.6246762446
  0
LINE
  5
609
100
AcDbEntity
  8
KONSTRUKTIONSELEMENTE
100
AcDbLine
 62
7
  6
CONTINUOUS
 10
412.9821483501
 20
641.0452149175
 11
413.5464757787
 21
641.9303170154
  0
LINE
  5
60A
100
AcDbEntity
  8
KONSTRUKTIONSELEMENTE
100
AcDbLine
 62
7
  6
CONTINUOUS
 10
417.2546832614
 20
643.5047910837
 11
416.6903558328
 21
642.6196889858
  0
LINE
  5
60B
100
AcDbEntity
  8
KONSTRUKTIONSELEMENTE
100
AcDbLine
 62
7
  6
CONTINUOUS
 10
418.0818482086
 20
377.8266441986
 11
417.3563996213
 21
378.8096113858
  0
LINE
  5
60C
100
AcDbEntity
  8
KONSTRUKTIONSELEMENTE
100
AcDbLine
 62
7
  6
CONTINUOUS
 10
410.3309869244
 20
373.6033176215
 11
409.835419708
 21
374.3970037025
  0
LINE
  5
60D
100
AcDbEntity
  8
KONSTRUKTIONSELEMENTE
100
AcDbLine
 62
7
  6
CONTINUOUS
 10
413.7226502333
 20
373.8958489141
 11
413.9704336366
 21
373.499008249
  0
LINE
  5
60E
100
AcDbEntity
  8
KONSTRUKTIONSELEMENTE
100
AcDbLine
 62
7
  6
CONTINUOUS
 10
412.3047096161
 20
377.9556858342
 11
412.8002764227
 21
377.162004504
  0
LINE
  5
60F
100
AcDbEntity
  8
KONSTRUKTIONSELEMENTE
100
AcDbLine
 62
7
  6
CONTINUOUS
 10
413.364604261
 20
378.0471018511
 11
413.116820448
 21
378.4439472669
  0
LINE
  5
610
100
AcDbEntity
  8
KONSTRUKTIONSELEMENTE
100
AcDbLine
 62
7
  6
CONTINUOUS
 10
405.9500261071
 20
383.8542038945
 11
406.5952527474
 21
382.7836047246
  0
LINE
  5
611
100
AcDbEntity
  8
KONSTRUKTIONSELEMENTE
100
AcDbLine
 62
7
  6
CONTINUOUS
 10
405.9203345402
 20
389.6741619004
 11
408.5012411014
 21
385.3917652207
  0
LINE
  5
612
100
AcDbEntity
  8
KONSTRUKTIONSELEMENTE
100
AcDbLine
 62
7
  6
CONTINUOUS
 10
409.1464677417
 20
384.3211660508
 11
410.221846296
 21
382.5368327396
  0
LINE
  5
613
100
AcDbEntity
  8
KONSTRUKTIONSELEMENTE
100
AcDbLine
 62
7
  6
CONTINUOUS
 10
369.5349537096
 20
399.3094165736
 11
374.148545066
 21
390.4372818363
  0
LINE
  5
614
100
AcDbEntity
  8
KONSTRUKTIONSELEMENTE
100
AcDbLine
 62
7
  6
CONTINUOUS
 10
374.6685928003
 20
392.1465936982
 11
371.2329395909
 21
398.753502683
  0
LINE
  5
615
100
AcDbEntity
  8
KONSTRUKTIONSELEMENTE
100
AcDbLine
 62
7
  6
CONTINUOUS
 10
377.389966156
 20
399.5570753951
 11
378.8623888913
 21
396.7255431053
  0
LINE
  5
616
100
AcDbEntity
  8
KONSTRUKTIONSELEMENTE
100
AcDbLine
 62
7
  6
CONTINUOUS
 10
379.9714057335
 20
397.3022420248
 11
378.4989829982
 21
400.1337743147
  0
LINE
  5
617
100
AcDbEntity
  8
KONSTRUKTIONSELEMENTE
100
AcDbLine
 62
7
  6
CONTINUOUS
 10
369.9299115006
 20
389.5429109051
 11
370.1966865963
 21
388.8288619537
  0
LINE
  5
618
100
AcDbEntity
  8
KONSTRUKTIONSELEMENTE
100
AcDbLine
 62
7
  6
CONTINUOUS
 10
362.4891931566
 20
380.6264528752
 11
362.2273465539
 21
381.524761195
  0
LINE
  5
619
100
AcDbEntity
  8
0
100
AcDbLine
 62
7
  6
CONTINUOUS
 10
348.6588074618
 20
335.1110020564
 11
348.4088112765
 21
336.3875976489
  0
LINE
  5
61A
100
AcDbEntity
  8
0
100
AcDbLine
 62
7
  6
CONTINUOUS
 10
347.1588074618
 20
336.3875976489
 11
347.4088093691
 21
334.8556829379
  0
LINE
  5
61B
100
AcDbEntity
  8
0
100
AcDbLine
 62
7
  6
CONTINUOUS
 10
336.4088112765
 20
334.8556829379
 11
336.4088112765
 21
333.0684491084
  0
LINE
  5
61C
100
AcDbEntity
  8
0
100
AcDbLine
 62
7
  6
CONTINUOUS
 10
337.6588093691
 20
332.8131299899
 11
337.6588093691
 21
335.1110020564
  0
LINE
  5
61D
100
AcDbEntity
  8
0
100
AcDbLine
 62
7
  6
CONTINUOUS
 10
339.6588074618
 20
335.1110020564
 11
339.6588074618
 21
332.8131299899
  0
LINE
  5
61E
100
AcDbEntity
  8
0
100
AcDbLine
 62
7
  6
CONTINUOUS
 10
340.9088112765
 20
333.0684491084
 11
340.9088112765
 21
334.8556829379
  0
LINE
  5
61F
100
AcDbEntity
  8
0
100
AcDbLine
 62
7
  6
CONTINUOUS
 10
347.4088093691
 20
334.8556829379
 11
347.4088093691
 21
333.0684491084
  0
LINE
  5
620
100
AcDbEntity
  8
0
100
AcDbLine
 62
7
  6
CONTINUOUS
 10
348.6588074618
 20
332.8131299899
 11
348.6588074618
 21
335.1110020564
  0
LINE
  5
621
100
AcDbEntity
  8
KONSTRUKTIONSELEMENTE
100
AcDbLine
 62
7
  6
CONTINUOUS
 10
371.3199704363
 20
655.9517151872
 11
371.4716282879
 21
656.8750365927
  0
LINE
  5
622
100
AcDbEntity
  8
KONSTRUKTIONSELEMENTE
100
AcDbLine
 62
7
  6
CONTINUOUS
 10
361.4970552377
 20
648.4352249257
 11
360.7553511451
 21
644.5470021641
  0
LINE
  5
623
100
AcDbEntity
  8
KONSTRUKTIONSELEMENTE
100
AcDbLine
 62
7
  6
CONTINUOUS
 10
362.009335555
 20
644.3077963815
 11
362.6729655473
 21
647.7867326136
  0
LINE
  5
624
100
AcDbEntity
  8
KONSTRUKTIONSELEMENTE
100
AcDbLine
 62
7
  6
CONTINUOUS
 10
366.1640592184
 20
642.2427161494
 11
366.3982815752
 21
643.4705760304
  0
LINE
  5
625
100
AcDbEntity
  8
KONSTRUKTIONSELEMENTE
100
AcDbLine
 62
7
  6
CONTINUOUS
 10
367.3742080246
 20
648.5866586731
 11
367.6474675153
 21
650.0191622581
  0
LINE
  5
626
100
AcDbEntity
  8
0
100
AcDbLine
 62
7
  6
CONTINUOUS
 10
300.1588093691
 20
337.1535557197
 11
299.9088103228
 21
335.8769594119
  0
LINE
  5
627
100
AcDbEntity
  8
0
100
AcDbLine
 62
7
  6
CONTINUOUS
 10
314.0338093691
 20
355.7705766843
 11
314.283809846
 21
357.0471722768
  0
LINE
  5
628
100
AcDbEntity
  8
0
100
AcDbLine
 62
7
  6
CONTINUOUS
 10
301.4088103228
 20
335.8769594119
 11
301.6588093691
 21
336.8982358859
  0
LINE
  5
629
100
AcDbEntity
  8
0
100
AcDbLine
 62
7
  6
CONTINUOUS
 10
312.783809846
 20
357.0471722768
 11
312.5338093691
 21
356.0258958028
  0
LINE
  5
62A
100
AcDbEntity
  8
KONSTRUKTIONSELEMENTE
100
AcDbLine
 62
7
  6
CONTINUOUS
 10
379.9536531439
 20
662.6433075382
 11
380.3003509398
 21
663.7828483908
  0
LINE
  5
62B
100
AcDbEntity
  8
0
100
AcDbLine
 62
7
  6
CONTINUOUS
 10
285.1588093691
 20
336.3875976489
 11
284.9088088923
 21
335.6216402934
  0
LINE
  5
62C
100
AcDbEntity
  8
0
100
AcDbLine
 62
7
  6
CONTINUOUS
 10
286.4088088923
 20
335.3663211749
 11
286.6588093691
 21
336.1322785304
  0
LINE
  5
62D
100
AcDbEntity
  8
0
100
AcDbLine
 62
7
  6
CONTINUOUS
 10
285.1588093691
 20
331.0258958028
 11
284.9088088923
 21
330.2599384473
  0
LINE
  5
62E
100
AcDbEntity
  8
0
100
AcDbLine
 62
7
  6
CONTINUOUS
 10
286.4088088923
 20
330.00461915
 11
286.6588093691
 21
330.7705766843
  0
LINE
  5
62F
100
AcDbEntity
  8
0
100
AcDbLine
 62
7
  6
CONTINUOUS
 10
301.5338091307
 20
361.3875976489
 11
301.2838093691
 21
360.6216402934
  0
LINE
  5
630
100
AcDbEntity
  8
0
100
AcDbLine
 62
7
  6
CONTINUOUS
 10
302.7838093691
 20
360.3663211749
 11
303.0338091307
 21
361.1322785304
  0
LINE
  5
631
100
AcDbEntity
  8
KONSTRUKTIONSELEMENTE
100
AcDbLine
 62
7
  6
CONTINUOUS
 10
409.0713182456
 20
646.7720010899
 11
408.5248927936
 21
645.6793394284
  0
LINE
  5
632
100
AcDbEntity
  8
KONSTRUKTIONSELEMENTE
100
AcDbLine
 62
7
  6
CONTINUOUS
 10
417.786054952
 20
642.2959811342
 11
418.3324803483
 21
643.388642791
  0
LINE
  5
633
100
AcDbEntity
  8
BEZUGSACHSEN
100
AcDbLine
 62
7
  6
CONTINUOUS
 10
254.1844444637
 20
336.2281284366
 11
275.8350795583
 21
373.7281284366
  0
LINE
  5
634
100
AcDbEntity
  8
BEZUGSACHSEN
100
AcDbLine
 62
7
  6
CONTINUOUS
 10
409.1844444637
 20
604.6960036097
 11
430.8350795583
 21
642.1960036097
  0
LINE
  5
635
100
AcDbEntity
  8
KONSTRUKTIONSELEMENTE
100
AcDbLine
 62
7
  6
CONTINUOUS
 10
259.0721499965
 20
377.2717037243
 11
259.6364778348
 21
378.1568010714
  0
LINE
  5
636
100
AcDbEntity
  8
KONSTRUKTIONSELEMENTE
100
AcDbLine
 62
7
  6
CONTINUOUS
 10
257.9821483501
 20
372.5773397443
 11
258.5464757787
 21
373.4624418422
  0
LINE
  5
637
100
AcDbEntity
  8
KONSTRUKTIONSELEMENTE
100
AcDbLine
 62
7
  6
CONTINUOUS
 10
262.2546832614
 20
375.0369159105
 11
261.6903558328
 21
374.1518138126
  0
LINE
  5
638
100
AcDbEntity
  8
KONSTRUKTIONSELEMENTE
100
AcDbLine
 62
7
  6
CONTINUOUS
 10
214.590055942
 20
385.1355772585
 11
215.3791842558
 21
385.8480479391
  0
LINE
  5
639
100
AcDbEntity
  8
KONSTRUKTIONSELEMENTE
100
AcDbLine
 62
7
  6
CONTINUOUS
 10
223.6368256766
 20
394.4499248383
 11
222.9956433268
 21
393.8766904569
  0
LINE
  5
63A
100
AcDbEntity
  8
KONSTRUKTIONSELEMENTE
100
AcDbLine
 62
7
  6
CONTINUOUS
 10
203.4653927387
 20
382.2423786546
 11
202.6822523331
 21
381.5434084871
  0
LINE
  5
63B
100
AcDbEntity
  8
KONSTRUKTIONSELEMENTE
100
AcDbLine
 62
7
  6
CONTINUOUS
 10
214.3513730643
 20
386.6052142628
 11
213.685810339
 21
386.060476968
  0
LINE
  5
63C
100
AcDbEntity
  8
KONSTRUKTIONSELEMENTE
100
AcDbLine
 62
7
  6
CONTINUOUS
 10
223.5846124346
 20
392.7440775145
 11
224.4106323264
 21
393.4134291323
  0
LINE
  5
63D
100
AcDbEntity
  8
KONSTRUKTIONSELEMENTE
100
AcDbLine
 62
7
  6
CONTINUOUS
 10
126.6842711669
 20
515.7029157789
 11
127.3503003941
 21
515.7879560059
  0
LINE
  5
63E
100
AcDbEntity
  8
KONSTRUKTIONSELEMENTE
100
AcDbLine
 62
7
  6
CONTINUOUS
 10
127.5845227509
 20
517.015815887
 11
126.9184935237
 21
516.93077566
  0
LINE
  5
63F
100
AcDbEntity
  8
0
100
AcDbLine
 62
7
  6
CONTINUOUS
 10
145.1987322067
 20
538.2729551556
 11
128.4338093691
 21
538.2729551556
  0
LINE
  5
640
100
AcDbEntity
  8
0
100
AcDbLine
 62
7
  6
CONTINUOUS
 10
465.97356527
 20
544.6238081167
 11
483.6338093691
 21
544.6238081167
  0
LINE
  5
641
100
AcDbEntity
  8
KONSTRUKTIONSELEMENTE
100
AcDbLine
 62
7
  6
CONTINUOUS
 10
207.2273465539
 20
649.9926363681
 11
206.5084681257
 21
650.7660368305
  0
LINE
  5
642
100
AcDbEntity
  8
KONSTRUKTIONSELEMENTE
100
AcDbLine
 62
7
  6
CONTINUOUS
 10
215.842605373
 20
658.8909901666
 11
215.1096617202
 21
659.6896954261
  0
LINE
  5
643
100
AcDbEntity
  8
KONSTRUKTIONSELEMENTE
100
AcDbLine
 62
7
  6
CONTINUOUS
 10
221.8124846947
 20
668.6839096551
 11
222.389966156
 21
668.0249505683
  0
LINE
  5
644
100
AcDbEntity
  8
KONSTRUKTIONSELEMENTE
100
AcDbLine
 62
7
  6
CONTINUOUS
 10
214.3682696931
 20
658.6832969652
 11
214.9299115006
 21
658.0107860782
  0
LINE
  5
645
100
AcDbEntity
  8
KONSTRUKTIONSELEMENTE
100
AcDbLine
 62
7
  6
CONTINUOUS
 10
223.4989829982
 20
668.6016494878
 11
222.8233397553
 21
669.4493779052
  0
LINE
  5
646
100
AcDbEntity
  8
KONSTRUKTIONSELEMENTE
100
AcDbLine
 62
7
  6
CONTINUOUS
 10
253.8113298173
 20
642.3583342283
 11
254.5367780506
 21
641.3753717967
  0
LINE
  5
647
100
AcDbEntity
  8
KONSTRUKTIONSELEMENTE
100
AcDbLine
 62
7
  6
CONTINUOUS
 10
255.3309869244
 20
642.0711927947
 11
254.835419708
 21
642.8648788756
  0
LINE
  5
648
100
AcDbEntity
  8
KONSTRUKTIONSELEMENTE
100
AcDbLine
 62
7
  6
CONTINUOUS
 10
258.7226502333
 20
642.3637240872
 11
258.9704336366
 21
641.9668834221
  0
LINE
  5
649
100
AcDbEntity
  8
KONSTRUKTIONSELEMENTE
100
AcDbLine
 62
7
  6
CONTINUOUS
 10
257.3047096161
 20
646.4235610074
 11
257.8002764227
 21
645.6298796772
  0
LINE
  5
64A
100
AcDbEntity
  8
KONSTRUKTIONSELEMENTE
100
AcDbLine
 62
7
  6
CONTINUOUS
 10
258.364604261
 20
646.5149770243
 11
258.116820448
 21
646.9118224401
  0
LINE
  5
64B
100
AcDbEntity
  8
KONSTRUKTIONSELEMENTE
100
AcDbLine
 62
7
  6
CONTINUOUS
 10
411.3152242966
 20
383.1957876816
 11
410.2398457423
 21
384.9801209928
  0
LINE
  5
64C
100
AcDbEntity
  8
KONSTRUKTIONSELEMENTE
100
AcDbLine
 62
7
  6
CONTINUOUS
 10
409.594619102
 20
386.0507201627
 11
407.7664777749
 21
389.0840831161
  0
LINE
  5
64D
100
AcDbEntity
  8
KONSTRUKTIONSELEMENTE
100
AcDbLine
 62
7
  6
CONTINUOUS
 10
250.9500261071
 20
652.3220790677
 11
251.5952527474
 21
651.2514798978
  0
LINE
  5
64E
100
AcDbEntity
  8
KONSTRUKTIONSELEMENTE
100
AcDbLine
 62
7
  6
CONTINUOUS
 10
250.9203345402
 20
658.1420370736
 11
253.5012411014
 21
653.8596403939
  0
LINE
  5
64F
100
AcDbEntity
  8
KONSTRUKTIONSELEMENTE
100
AcDbLine
 62
7
  6
CONTINUOUS
 10
254.1464677417
 20
652.789041224
 11
255.221846296
 21
651.0047079128
  0
LINE
  5
650
100
AcDbEntity
  8
KONSTRUKTIONSELEMENTE
100
AcDbLine
 62
7
  6
CONTINUOUS
 10
415.1600461067
 20
387.9454178471
 11
414.5148194664
 21
389.016017017
  0
LINE
  5
651
100
AcDbEntity
  8
KONSTRUKTIONSELEMENTE
100
AcDbLine
 62
7
  6
CONTINUOUS
 10
256.3152242966
 20
651.6636628548
 11
255.2398457423
 21
653.447996166
  0
LINE
  5
652
100
AcDbEntity
  8
KONSTRUKTIONSELEMENTE
100
AcDbLine
 62
7
  6
CONTINUOUS
 10
254.594619102
 20
654.5185953359
 11
252.7664777749
 21
657.5519582893
  0
LINE
  5
653
100
AcDbEntity
  8
KONSTRUKTIONSELEMENTE
100
AcDbLine
 62
7
  6
CONTINUOUS
 10
260.1600461067
 20
656.4132930203
 11
259.5148194664
 21
657.4838921902
  0
LINE
  5
654
100
AcDbEntity
  8
BEZUGSACHSEN
100
AcDbLine
 62
7
  6
CONTINUOUS
 10
430.8350795583
 20
373.7281284366
 11
409.1844444637
 21
411.2281284366
  0
LINE
  5
655
100
AcDbEntity
  8
BEZUGSACHSEN
100
AcDbLine
 62
7
  6
CONTINUOUS
 10
275.8350795583
 20
642.1960036097
 11
254.1844444637
 21
679.6960036097
  0
LINE
  5
656
100
AcDbEntity
  8
KONSTRUKTIONSELEMENTE
100
AcDbLine
 62
7
  6
CONTINUOUS
 10
380.2773778308
 20
396.2622818964
 11
379.9714057335
 21
397.3022420248
  0
LINE
  5
657
100
AcDbEntity
  8
KONSTRUKTIONSELEMENTE
100
AcDbLine
 62
7
  6
CONTINUOUS
 10
361.4051690144
 20
380.6211473236
 11
361.4970552377
 21
379.9673497526
  0
LINE
  5
658
100
AcDbEntity
  8
0
100
AcDbLine
 62
7
  6
CONTINUOUS
 10
350.6588112765
 20
336.1322785304
 11
350.6588112765
 21
335.1110020564
  0
LINE
  5
659
100
AcDbEntity
  8
0
100
AcDbLine
 62
7
  6
CONTINUOUS
 10
352.6588093691
 20
338.1748321937
 11
352.6588093691
 21
336.1322785304
  0
LINE
  5
65A
100
AcDbEntity
  8
0
100
AcDbLine
 62
7
  6
CONTINUOUS
 10
352.6588093691
 20
335.1110020564
 11
352.6588093691
 21
330.00461915
  0
LINE
  5
65B
100
AcDbEntity
  8
0
100
AcDbLine
 62
7
  6
CONTINUOUS
 10
353.9088074618
 20
330.5152575658
 11
353.9088074618
 21
335.1110020564
  0
LINE
  5
65C
100
AcDbEntity
  8
0
100
AcDbLine
 62
7
  6
CONTINUOUS
 10
353.9088074618
 20
336.1322785304
 11
353.9088074618
 21
338.1748321937
  0
LINE
  5
65D
100
AcDbEntity
  8
0
100
AcDbLine
 62
7
  6
CONTINUOUS
 10
356.1588074618
 20
327.9620660232
 11
356.1588074618
 21
328.9833425866
  0
LINE
  5
65E
100
AcDbEntity
  8
0
100
AcDbLine
 62
7
  6
CONTINUOUS
 10
356.6588112765
 20
335.1110020564
 11
356.6588112765
 21
336.1322785304
  0
LINE
  5
65F
100
AcDbEntity
  8
KONSTRUKTIONSELEMENTE
100
AcDbLine
 62
7
  6
CONTINUOUS
 10
370.1966865963
 20
657.2967371269
 11
370.1685943932
 21
656.5411490629
  0
LINE
  5
660
100
AcDbEntity
  8
KONSTRUKTIONSELEMENTE
100
AcDbLine
 62
7
  6
CONTINUOUS
 10
379.0701994821
 20
664.3422269518
 11
378.9950110159
 21
663.5836872068
  0
LINE
  5
661
100
AcDbEntity
  8
0
100
AcDbLine
 62
7
  6
CONTINUOUS
 10
329.9088074618
 20
334.8556829379
 11
330.1588093691
 21
336.3875976489
  0
LINE
  5
662
100
AcDbEntity
  8
0
100
AcDbLine
 62
7
  6
CONTINUOUS
 10
336.4088112765
 20
333.0684491084
 11
336.1588093691
 21
331.5365340398
  0
LINE
  5
663
100
AcDbEntity
  8
0
100
AcDbLine
 62
7
  6
CONTINUOUS
 10
340.9088112765
 20
334.8556829379
 11
341.1588074618
 21
336.3875976489
  0
LINE
  5
664
100
AcDbEntity
  8
0
100
AcDbLine
 62
7
  6
CONTINUOUS
 10
326.0338093691
 20
355.7705766843
 11
326.2838084154
 21
357.0471722768
  0
LINE
  5
665
100
AcDbEntity
  8
0
100
AcDbLine
 62
7
  6
CONTINUOUS
 10
328.9088112765
 20
336.3875976489
 11
328.6588093691
 21
335.1110020564
  0
LINE
  5
666
100
AcDbEntity
  8
0
100
AcDbLine
 62
7
  6
CONTINUOUS
 10
309.4088084154
 20
329.7493000315
 11
309.6588103228
 21
330.7705766843
  0
LINE
  5
667
100
AcDbEntity
  8
0
100
AcDbLine
 62
7
  6
CONTINUOUS
 10
324.7838084154
 20
357.0471722768
 11
324.5338093691
 21
356.0258958028
  0
LINE
  5
668
100
AcDbEntity
  8
0
100
AcDbLine
 62
7
  6
CONTINUOUS
 10
296.4088093691
 20
336.3875976489
 11
296.1588103228
 21
335.6216402934
  0
LINE
  5
669
100
AcDbEntity
  8
0
100
AcDbLine
 62
7
  6
CONTINUOUS
 10
297.6588103228
 20
335.3663211749
 11
297.9088093691
 21
336.1322785304
  0
LINE
  5
66A
100
AcDbEntity
  8
0
100
AcDbLine
 62
7
  6
CONTINUOUS
 10
308.1588103228
 20
331.0258958028
 11
307.9088084154
 21
330.2599384473
  0
LINE
  5
66B
100
AcDbEntity
  8
KONSTRUKTIONSELEMENTE
100
AcDbLine
 62
7
  6
CONTINUOUS
 10
409.6205920427
 20
645.355631588
 11
409.972940952
 21
646.2224457317
  0
LINE
  5
66C
100
AcDbEntity
  8
KONSTRUKTIONSELEMENTE
100
AcDbLine
 62
7
  6
CONTINUOUS
 10
413.5407783059
 20
646.9483888469
 11
413.364604261
 21
646.5149770243
  0
LINE
  5
66D
100
AcDbEntity
  8
KONSTRUKTIONSELEMENTE
100
AcDbLine
 62
7
  6
CONTINUOUS
 10
413.015104088
 20
643.1391269648
 11
412.6627555885
 21
642.2723080703
  0
LINE
  5
66E
100
AcDbEntity
  8
KONSTRUKTIONSELEMENTE
100
AcDbLine
 62
7
  6
CONTINUOUS
 10
413.5464757787
 20
641.9303170154
 11
413.7226502333
 21
642.3637240872
  0
LINE
  5
66F
100
AcDbEntity
  8
KONSTRUKTIONSELEMENTE
100
AcDbLine
 62
7
  6
CONTINUOUS
 10
254.6535481904
 20
378.9816637114
 11
254.0713182456
 21
378.3041259167
  0
LINE
  5
670
100
AcDbEntity
  8
KONSTRUKTIONSELEMENTE
100
AcDbLine
 62
7
  6
CONTINUOUS
 10
259.1230081765
 20
379.1580514619
 11
258.5407783059
 21
378.4805136737
  0
LINE
  5
671
100
AcDbEntity
  8
KONSTRUKTIONSELEMENTE
100
AcDbLine
 62
7
  6
CONTINUOUS
 10
262.2038250814
 20
373.1505681728
 11
262.786054952
 21
373.8281059611
  0
LINE
  5
672
100
AcDbEntity
  8
KONSTRUKTIONSELEMENTE
100
AcDbLine
 62
7
  6
CONTINUOUS
 10
250.4593416337
 20
399.2122591463
 11
243.3536871622
 21
392.9568265309
  0
LINE
  5
673
100
AcDbEntity
  8
KONSTRUKTIONSELEMENTE
100
AcDbLine
 62
7
  6
CONTINUOUS
 10
243.5582498854
 20
391.6210364841
 11
249.9606486315
 21
397.0515036129
  0
LINE
  5
674
100
AcDbEntity
  8
KONSTRUKTIONSELEMENTE
100
AcDbLine
 62
7
  6
CONTINUOUS
 10
203.6882022074
 20
381.139426631
 11
204.1842711669
 21
381.4689781923
  0
LINE
  5
675
100
AcDbEntity
  8
KONSTRUKTIONSELEMENTE
100
AcDbLine
 62
7
  6
CONTINUOUS
 10
218.9710210782
 20
401.6162122518
 11
214.5349537096
 21
399.3094165736
  0
LINE
  5
676
100
AcDbEntity
  8
KONSTRUKTIONSELEMENTE
100
AcDbLine
 62
7
  6
CONTINUOUS
 10
216.2329395909
 20
398.753502683
 11
219.5599901174
 21
400.4835994416
  0
LINE
  5
677
100
AcDbEntity
  8
0
100
AcDbLine
 62
7
  6
CONTINUOUS
 10
446.5076777606
 20
549.4620660232
 11
173.5418417755
 21
549.4620660232
  0
LINE
  5
678
100
AcDbEntity
  8
0
100
AcDbLine
 62
7
  6
CONTINUOUS
 10
483.6338093691
 20
549.4620660232
 11
508.6338093691
 21
549.4620660232
  0
LINE
  5
679
100
AcDbEntity
  8
KONSTRUKTIONSELEMENTE
100
AcDbLine
 62
7
  6
CONTINUOUS
 10
205.3509512808
 20
657.5633302604
 11
210.6613092038
 21
653.6513041808
  0
LINE
  5
67A
100
AcDbEntity
  8
KONSTRUKTIONSELEMENTE
100
AcDbLine
 62
7
  6
CONTINUOUS
 10
259.9945238072
 20
642.4734233075
 11
259.2869776619
 21
643.2488261851
  0
LINE
  5
67B
100
AcDbEntity
  8
KONSTRUKTIONSELEMENTE
100
AcDbLine
 62
7
  6
CONTINUOUS
 10
258.116820448
 20
646.9118224401
 11
257.4092747124
 21
647.6872205669
  0
LINE
  5
67C
100
AcDbEntity
  8
KONSTRUKTIONSELEMENTE
100
AcDbLine
 62
7
  6
CONTINUOUS
 10
261.3323098605
 20
646.7709419229
 11
262.039855596
 21
645.995543796
  0
LINE
  5
67D
100
AcDbEntity
  8
KONSTRUKTIONSELEMENTE
100
AcDbLine
 62
7
  6
CONTINUOUS
 10
263.0818482086
 20
646.2945193718
 11
262.3563996213
 21
647.277486559
  0
LINE
  5
67E
100
AcDbEntity
  8
KONSTRUKTIONSELEMENTE
100
AcDbLine
 62
7
  6
CONTINUOUS
 10
409.835419708
 20
374.3970037025
 11
409.5518318305
 21
375.208968236
  0
LINE
  5
67F
100
AcDbEntity
  8
KONSTRUKTIONSELEMENTE
100
AcDbLine
 62
7
  6
CONTINUOUS
 10
412.8002764227
 20
377.162004504
 11
413.08386471
 21
376.3500352197
  0
LINE
  5
680
100
AcDbEntity
  8
KONSTRUKTIONSELEMENTE
100
AcDbLine
 62
7
  6
CONTINUOUS
 10
414.2869776619
 20
374.7809510119
 11
414.0033897843
 21
375.5929155455
  0
LINE
  5
681
100
AcDbEntity
  8
KONSTRUKTIONSELEMENTE
100
AcDbLine
 62
7
  6
CONTINUOUS
 10
417.039855596
 20
377.5276686229
 11
417.3234438834
 21
376.7156993385
  0
LINE
  5
682
100
AcDbEntity
  8
KONSTRUKTIONSELEMENTE
100
AcDbLine
 62
7
  6
CONTINUOUS
 10
408.5098390694
 20
374.9099926475
 11
408.8113298173
 21
373.8904590551
  0
LINE
  5
683
100
AcDbEntity
  8
KONSTRUKTIONSELEMENTE
100
AcDbLine
 62
7
  6
CONTINUOUS
 10
378.8623888913
 20
396.7255431053
 11
379.0701994821
 21
395.8743517786
  0
LINE
  5
684
100
AcDbEntity
  8
KONSTRUKTIONSELEMENTE
100
AcDbLine
 62
7
  6
CONTINUOUS
 10
371.4716282879
 20
388.4071614195
 11
371.280682434
 21
389.5828715811
  0
LINE
  5
685
100
AcDbEntity
  8
KONSTRUKTIONSELEMENTE
100
AcDbLine
 62
7
  6
CONTINUOUS
 10
380.3003509398
 20
395.3149732176
 11
380.2773778308
 21
396.2622818964
  0
LINE
  5
686
100
AcDbEntity
  8
KONSTRUKTIONSELEMENTE
100
AcDbLine
 62
7
  6
CONTINUOUS
 10
380.3003509398
 20
663.7828483908
 11
380.2773778308
 21
664.7301570696
  0
LINE
  5
687
100
AcDbEntity
  8
0
100
AcDbLine
 62
7
  6
CONTINUOUS
 10
371.5338093691
 20
419.7917762425
 11
371.5338093691
 21
466.4620660232
  0
LINE
  5
688
100
AcDbEntity
  8
0
100
AcDbLine
 62
7
  6
CONTINUOUS
 10
371.5338093691
 20
549.4620660232
 11
371.5338093691
 21
596.1323558038
  0
LINE
  5
689
100
AcDbEntity
  8
RUNDUNGEN
100
AcDbLine
 62
7
  6
CONTINUOUS
 10
373.4338093691
 20
442.003861785
 11
373.4338093691
 21
466.4620660232
  0
LINE
  5
68A
100
AcDbEntity
  8
RUNDUNGEN
100
AcDbLine
 62
7
  6
CONTINUOUS
 10
373.4338093691
 20
549.4620660232
 11
373.4338093691
 21
573.9202702553
  0
LINE
  5
68B
100
AcDbEntity
  8
KONSTRUKTIONSELEMENTE
100
AcDbLine
 62
7
  6
CONTINUOUS
 10
370.1966865963
 20
388.8288619537
 11
370.1685943932
 21
388.0732738897
  0
LINE
  5
68C
100
AcDbEntity
  8
KONSTRUKTIONSELEMENTE
100
AcDbLine
 62
7
  6
CONTINUOUS
 10
398.4243746957
 20
669.1973025259
 11
397.1057417959
 21
660.9062296028
  0
LINE
  5
68D
100
AcDbEntity
  8
0
100
AcDbLine
 62
7
  6
CONTINUOUS
 10
347.4088093691
 20
333.0684491084
 11
347.1588074618
 21
331.5365340398
  0
LINE
  5
68E
100
AcDbEntity
  8
KONSTRUKTIONSELEMENTE
100
AcDbLine
 62
7
  6
CONTINUOUS
 10
409.4802224721
 20
644.5070958969
 11
409.6205920427
 21
645.355631588
  0
LINE
  5
68F
100
AcDbEntity
  8
KONSTRUKTIONSELEMENTE
100
AcDbLine
 62
7
  6
CONTINUOUS
 10
398.3536871622
 20
661.4247017041
 11
400.0124466872
 21
670.7450707694
  0
LINE
  5
690
100
AcDbEntity
  8
KONSTRUKTIONSELEMENTE
100
AcDbLine
 62
7
  6
CONTINUOUS
 10
357.2780695969
 20
380.5600593548
 11
356.3411801697
 21
375.6486198304
  0
LINE
  5
691
100
AcDbEntity
  8
KONSTRUKTIONSELEMENTE
100
AcDbLine
 62
7
  6
CONTINUOUS
 10
357.6203895348
 20
376.6771415593
 11
358.3620936274
 21
380.5653643209
  0
LINE
  5
692
100
AcDbEntity
  8
KONSTRUKTIONSELEMENTE
100
AcDbLine
 62
7
  6
CONTINUOUS
 10
361.4970552377
 20
379.9673497526
 11
360.7553511451
 21
376.079126991
  0
LINE
  5
693
100
AcDbEntity
  8
KONSTRUKTIONSELEMENTE
100
AcDbLine
 62
7
  6
CONTINUOUS
 10
362.009335555
 20
375.8399212083
 11
362.6729655473
 21
379.3188574405
  0
LINE
  5
694
100
AcDbEntity
  8
0
100
AcDbLine
 62
7
  6
CONTINUOUS
 10
337.4088074618
 20
331.5365340398
 11
337.6588093691
 21
332.8131299899
  0
LINE
  5
695
100
AcDbEntity
  8
0
100
AcDbLine
 62
7
  6
CONTINUOUS
 10
339.9088093691
 20
336.3875976489
 11
339.6588074618
 21
335.1110020564
  0
LINE
  5
696
100
AcDbEntity
  8
0
100
AcDbLine
 62
7
  6
CONTINUOUS
 10
348.4088112765
 20
331.5365340398
 11
348.6588074618
 21
332.8131299899
  0
LINE
  5
697
100
AcDbEntity
  8
0
100
AcDbLine
 62
7
  6
CONTINUOUS
 10
329.1588074618
 20
337.1535557197
 11
328.9088112765
 21
336.3875976489
  0
LINE
  5
698
100
AcDbEntity
  8
0
100
AcDbLine
 62
7
  6
CONTINUOUS
 10
300.6588103228
 20
338.1748321937
 11
300.1588093691
 21
337.1535557197
  0
LINE
  5
699
100
AcDbEntity
  8
0
100
AcDbLine
 62
7
  6
CONTINUOUS
 10
313.533809846
 20
354.7493000315
 11
314.0338093691
 21
355.7705766843
  0
LINE
  5
69A
100
AcDbEntity
  8
KONSTRUKTIONSELEMENTE
100
AcDbLine
 62
7
  6
CONTINUOUS
 10
254.972940952
 20
377.7545705586
 11
255.7671499
 21
378.450391563
  0
LINE
  5
69B
100
AcDbEntity
  8
KONSTRUKTIONSELEMENTE
100
AcDbLine
 62
7
  6
CONTINUOUS
 10
257.6627555885
 20
373.8044328971
 11
256.868546492
 21
373.1086118799
  0
LINE
  5
69C
100
AcDbEntity
  8
KONSTRUKTIONSELEMENTE
100
AcDbLine
 62
7
  6
CONTINUOUS
 10
259.6364778348
 20
378.1568010714
 11
260.2366097377
 21
378.6267793008
  0
LINE
  5
69D
100
AcDbEntity
  8
KONSTRUKTIONSELEMENTE
100
AcDbLine
 62
7
  6
CONTINUOUS
 10
261.6903558328
 20
374.1518138126
 11
261.0902229264
 21
373.6818402828
  0
LINE
  5
69E
100
AcDbEntity
  8
KONSTRUKTIONSELEMENTE
100
AcDbLine
 62
7
  6
CONTINUOUS
 10
252.0137125407
 20
390.3331168424
 11
250.9203345402
 21
389.6741619004
  0
LINE
  5
69F
100
AcDbEntity
  8
KONSTRUKTIONSELEMENTE
100
AcDbLine
 62
7
  6
CONTINUOUS
 10
258.0569824727
 20
388.1374106328
 11
254.594619102
 21
386.0507201627
  0
LINE
  5
6A0
100
AcDbEntity
  8
KONSTRUKTIONSELEMENTE
100
AcDbLine
 62
7
  6
CONTINUOUS
 10
253.5012411014
 20
385.3917652207
 11
250.9500261071
 21
383.8542038945
  0
LINE
  5
6A1
100
AcDbEntity
  8
KONSTRUKTIONSELEMENTE
100
AcDbLine
 62
7
  6
CONTINUOUS
 10
251.5952527474
 20
382.7836047246
 11
254.1464677417
 21
384.3211660508
  0
LINE
  5
6A2
100
AcDbEntity
  8
KONSTRUKTIONSELEMENTE
100
AcDbLine
 62
7
  6
CONTINUOUS
 10
255.2398457423
 20
384.9801209928
 11
260.1600461067
 21
387.9454178471
  0
LINE
  5
6A3
100
AcDbEntity
  8
KONSTRUKTIONSELEMENTE
100
AcDbLine
 62
7
  6
CONTINUOUS
 10
222.9956433268
 20
393.8766904569
 11
219.6685928003
 21
392.1465936982
  0
LINE
  5
6A4
100
AcDbEntity
  8
KONSTRUKTIONSELEMENTE
100
AcDbLine
 62
7
  6
CONTINUOUS
 10
219.148545066
 20
390.4372818363
 11
223.5846124346
 21
392.7440775145
  0
LINE
  5
6A5
100
AcDbEntity
  8
KONSTRUKTIONSELEMENTE
100
AcDbLine
 62
7
  6
CONTINUOUS
 10
213.7531906193
 20
384.7170334096
 11
214.590055942
 21
385.1355772585
  0
LINE
  5
6A6
100
AcDbEntity
  8
KONSTRUKTIONSELEMENTE
100
AcDbLine
 62
7
  6
CONTINUOUS
 10
204.4184935237
 20
382.6968380734
 11
203.4653927387
 21
382.2423786546
  0
LINE
  5
6A7
100
AcDbEntity
  8
KONSTRUKTIONSELEMENTE
100
AcDbLine
 62
7
  6
CONTINUOUS
 10
219.9933639916
 20
401.9080262497
 11
218.9710210782
 21
401.6162122518
  0
LINE
  5
6A8
100
AcDbEntity
  8
0
100
AcDbLine
 62
7
  6
CONTINUOUS
 10
171.4338093691
 20
568.5838442881
 11
128.4338093691
 21
568.5838442881
  0
LINE
  5
6A9
100
AcDbEntity
  8
0
100
AcDbLine
 62
7
  6
CONTINUOUS
 10
448.6338093691
 20
581.2855502102
 11
483.6338093691
 21
581.2855502102
  0
LINE
  5
6AA
100
AcDbEntity
  8
KONSTRUKTIONSELEMENTE
100
AcDbLine
 62
7
  6
CONTINUOUS
 10
205.4772931845
 20
649.9022905895
 11
206.0652483672
 21
649.5780445798
  0
LINE
  5
6AB
100
AcDbEntity
  8
KONSTRUKTIONSELEMENTE
100
AcDbLine
 62
7
  6
CONTINUOUS
 10
206.5084681257
 20
650.7660368305
 11
205.920512943
 21
651.0902828401
  0
LINE
  5
6AC
100
AcDbEntity
  8
KONSTRUKTIONSELEMENTE
100
AcDbLine
 62
7
  6
CONTINUOUS
 10
211.4027015845
 20
654.6577031216
 11
206.0923436615
 21
658.5697292011
  0
LINE
  5
6AD
100
AcDbEntity
  8
KONSTRUKTIONSELEMENTE
100
AcDbLine
 62
7
  6
CONTINUOUS
 10
209.0579117701
 20
662.5953230447
 11
214.3682696931
 21
658.6832969652
  0
LINE
  5
6AE
100
AcDbEntity
  8
KONSTRUKTIONSELEMENTE
100
AcDbLine
 62
7
  6
CONTINUOUS
 10
215.1096617202
 20
659.6896954261
 11
209.7993037972
 21
663.6017215056
  0
LINE
  5
6AF
100
AcDbEntity
  8
KONSTRUKTIONSELEMENTE
100
AcDbLine
 62
7
  6
CONTINUOUS
 10
254.5367780506
 20
641.3753717967
 11
255.2264218281
 21
640.8075332351
  0
LINE
  5
6B0
100
AcDbEntity
  8
KONSTRUKTIONSELEMENTE
100
AcDbLine
 62
7
  6
CONTINUOUS
 10
258.9704336366
 20
641.9668834221
 11
259.6600773399
 21
641.3990448542
  0
LINE
  5
6B1
100
AcDbEntity
  8
KONSTRUKTIONSELEMENTE
100
AcDbLine
 62
7
  6
CONTINUOUS
 10
262.3563996213
 20
647.277486559
 11
261.666755918
 21
647.8453251269
  0
LINE
  5
6B2
100
AcDbEntity
  8
KONSTRUKTIONSELEMENTE
100
AcDbLine
 62
7
  6
CONTINUOUS
 10
418.3833385282
 20
376.8071153554
 11
418.0818482086
 21
377.8266441986
  0
LINE
  5
6B3
100
AcDbEntity
  8
KONSTRUKTIONSELEMENTE
100
AcDbLine
 62
7
  6
CONTINUOUS
 10
361.4051690144
 20
649.0890224967
 11
361.4970552377
 21
648.4352249257
  0
LINE
  5
6B4
100
AcDbEntity
  8
KONSTRUKTIONSELEMENTE
100
AcDbLine
 62
7
  6
CONTINUOUS
 10
408.4024252367
 20
376.1553690036
 11
408.5098390694
 21
374.9099926475
  0
LINE
  5
6B5
100
AcDbEntity
  8
KONSTRUKTIONSELEMENTE
100
AcDbLine
 62
7
  6
CONTINUOUS
 10
409.5518318305
 20
375.208968236
 11
409.4802224721
 21
376.0392207237
  0
LINE
  5
6B6
100
AcDbEntity
  8
KONSTRUKTIONSELEMENTE
100
AcDbLine
 62
7
  6
CONTINUOUS
 10
413.08386471
 20
376.3500352197
 11
413.1554740684
 21
375.519782732
  0
LINE
  5
6B7
100
AcDbEntity
  8
KONSTRUKTIONSELEMENTE
100
AcDbLine
 62
7
  6
CONTINUOUS
 10
414.0033897843
 20
375.5929155455
 11
413.9317804259
 21
376.4231680332
  0
LINE
  5
6B8
100
AcDbEntity
  8
KONSTRUKTIONSELEMENTE
100
AcDbLine
 62
7
  6
CONTINUOUS
 10
417.3234438834
 20
376.7156993385
 11
417.3950532417
 21
375.8854468508
  0
LINE
  5
6B9
100
AcDbEntity
  8
KONSTRUKTIONSELEMENTE
100
AcDbLine
 62
7
  6
CONTINUOUS
 10
418.4549478866
 20
375.9768628677
 11
418.3833385282
 21
376.8071153554
  0
LINE
  5
6BA
100
AcDbEntity
  8
KONSTRUKTIONSELEMENTE
100
AcDbLine
 62
7
  6
CONTINUOUS
 10
379.0701994821
 20
395.8743517786
 11
378.9950110159
 21
395.1158120337
  0
LINE
  5
6BB
100
AcDbEntity
  8
KONSTRUKTIONSELEMENTE
100
AcDbLine
 62
7
  6
CONTINUOUS
 10
408.5248927936
 20
645.6793394284
 11
408.4024252367
 21
644.6232441768
  0
LINE
  5
6BC
100
AcDbEntity
  8
KONSTRUKTIONSELEMENTE
100
AcDbLine
 62
7
  6
CONTINUOUS
 10
418.3324803483
 20
643.388642791
 11
418.4549478866
 21
644.4447380409
  0
LINE
  5
6BD
100
AcDbEntity
  8
KONSTRUKTIONSELEMENTE
100
AcDbLine
 62
7
  6
CONTINUOUS
 10
371.3199704363
 20
387.483840014
 11
371.4716282879
 21
388.4071614195
  0
LINE
  5
6BE
100
AcDbEntity
  8
KONSTRUKTIONSELEMENTE
100
AcDbLine
 62
7
  6
CONTINUOUS
 10
413.1554740684
 20
643.9876579051
 11
413.015104088
 21
643.1391269648
  0
LINE
  5
6BF
100
AcDbEntity
  8
KONSTRUKTIONSELEMENTE
100
AcDbLine
 62
7
  6
CONTINUOUS
 10
413.9317804259
 20
644.8910432064
 11
414.0721499965
 21
645.7395788975
  0
LINE
  5
6C0
100
AcDbEntity
  8
KONSTRUKTIONSELEMENTE
100
AcDbLine
 62
7
  6
CONTINUOUS
 10
417.3950532417
 20
644.353322024
 11
417.2546832614
 21
643.5047910837
  0
LINE
  5
6C1
100
AcDbEntity
  8
KONSTRUKTIONSELEMENTE
100
AcDbLine
 62
7
  6
CONTINUOUS
 10
366.1640592184
 20
373.7748409762
 11
366.3982815752
 21
375.0027008573
  0
LINE
  5
6C2
100
AcDbEntity
  8
KONSTRUKTIONSELEMENTE
100
AcDbLine
 62
7
  6
CONTINUOUS
 10
367.3742080246
 20
380.1187835
 11
367.6474675153
 21
381.5512870849
  0
LINE
  5
6C3
100
AcDbEntity
  8
0
100
AcDbLine
 62
7
  6
CONTINUOUS
 10
337.1588112765
 20
330.7705766843
 11
337.4088074618
 21
331.5365340398
  0
LINE
  5
6C4
100
AcDbEntity
  8
0
100
AcDbLine
 62
7
  6
CONTINUOUS
 10
340.1588112765
 20
337.1535557197
 11
339.9088093691
 21
336.3875976489
  0
LINE
  5
6C5
100
AcDbEntity
  8
0
100
AcDbLine
 62
7
  6
CONTINUOUS
 10
348.1588093691
 20
330.7705766843
 11
348.4088112765
 21
331.5365340398
  0
LINE
  5
6C6
100
AcDbEntity
  8
KONSTRUKTIONSELEMENTE
100
AcDbLine
 62
7
  6
CONTINUOUS
 10
357.6822523331
 20
381.5434084871
 11
357.2780695969
 21
380.5600593548
  0
LINE
  5
6C7
100
AcDbEntity
  8
0
100
AcDbLine
 62
7
  6
CONTINUOUS
 10
325.5338084154
 20
354.7493000315
 11
326.0338093691
 21
355.7705766843
  0
LINE
  5
6C8
100
AcDbEntity
  8
0
100
AcDbLine
 62
7
  6
CONTINUOUS
 10
329.6588112765
 20
338.1748321937
 11
329.1588074618
 21
337.1535557197
  0
LINE
  5
6C9
100
AcDbEntity
  8
BEZUGSACHSEN
100
AcDbLine
 62
7
  6
CONTINUOUS
 10
365.8831742745
 20
411.2281284366
 11
344.2325391799
 21
373.7281284366
  0
LINE
  5
6CA
100
AcDbEntity
  8
0
100
AcDbLine
 62
7
  6
CONTINUOUS
 10
312.5338093691
 20
356.0258958028
 11
312.033809846
 21
355.2599384473
  0
LINE
  5
6CB
100
AcDbEntity
  8
0
100
AcDbLine
 62
7
  6
CONTINUOUS
 10
301.6588093691
 20
336.8982358859
 11
302.1588103228
 21
337.6641939567
  0
LINE
  5
6CC
100
AcDbEntity
  8
0
100
AcDbLine
 62
7
  6
CONTINUOUS
 10
324.5338093691
 20
356.0258958028
 11
324.0338084154
 21
355.2599384473
  0
LINE
  5
6CD
100
AcDbEntity
  8
0
100
AcDbLine
 62
7
  6
CONTINUOUS
 10
302.0338093691
 20
359.3450447009
 11
302.7838093691
 21
360.3663211749
  0
LINE
  5
6CE
100
AcDbEntity
  8
0
100
AcDbLine
 62
7
  6
CONTINUOUS
 10
285.6588088923
 20
334.3450447009
 11
286.4088088923
 21
335.3663211749
  0
LINE
  5
6CF
100
AcDbEntity
  8
0
100
AcDbLine
 62
7
  6
CONTINUOUS
 10
285.6588088923
 20
328.9833425866
 11
286.4088088923
 21
330.00461915
  0
LINE
  5
6D0
100
AcDbEntity
  8
0
100
AcDbLine
 62
7
  6
CONTINUOUS
 10
296.9088103228
 20
334.3450447009
 11
297.6588103228
 21
335.3663211749
  0
LINE
  5
6D1
100
AcDbEntity
  8
KONSTRUKTIONSELEMENTE
100
AcDbLine
 62
7
  6
CONTINUOUS
 10
255.221846296
 20
382.5368327396
 11
256.3152242966
 21
383.1957876816
  0
LINE
  5
6D2
100
AcDbEntity
  8
KONSTRUKTIONSELEMENTE
100
AcDbLine
 62
7
  6
CONTINUOUS
 10
259.9351194181
 20
379.646308144
 11
259.1230081765
 21
379.1580514619
  0
LINE
  5
6D3
100
AcDbEntity
  8
KONSTRUKTIONSELEMENTE
100
AcDbLine
 62
7
  6
CONTINUOUS
 10
255.6776380996
 20
379.4882083603
 11
254.6535481904
 21
378.9816637114
  0
LINE
  5
6D4
100
AcDbEntity
  8
KONSTRUKTIONSELEMENTE
100
AcDbLine
 62
7
  6
CONTINUOUS
 10
213.685810339
 20
386.060476968
 11
212.9725105149
 21
385.809666571
  0
LINE
  5
6D5
100
AcDbEntity
  8
BEZUGSACHSEN
100
AcDbLine
 62
7
  6
CONTINUOUS
 10
210.8831742745
 20
604.6960036097
 11
254.1844444637
 21
604.6960036097
  0
LINE
  5
6D6
100
AcDbEntity
  8
BEZUGSACHSEN
100
AcDbLine
 62
7
  6
CONTINUOUS
 10
365.8831742745
 20
604.6960036097
 11
409.1844444637
 21
604.6960036097
  0
LINE
  5
6D7
100
AcDbEntity
  8
KONSTRUKTIONSELEMENTE
100
AcDbLine
 62
7
  6
CONTINUOUS
 10
210.6613092038
 20
653.6513041808
 11
211.6413840037
 21
653.1880657148
  0
LINE
  5
6D8
100
AcDbEntity
  8
KONSTRUKTIONSELEMENTE
100
AcDbLine
 62
7
  6
CONTINUOUS
 10
260.6662650684
 20
642.1131490492
 11
259.9945238072
 21
642.4734233075
  0
LINE
  5
6D9
100
AcDbEntity
  8
KONSTRUKTIONSELEMENTE
100
AcDbLine
 62
7
  6
CONTINUOUS
 10
221.1483269143
 20
669.0579832492
 11
221.8124846947
 21
668.6839096551
  0
LINE
  5
6DA
100
AcDbEntity
  8
KONSTRUKTIONSELEMENTE
100
AcDbLine
 62
7
  6
CONTINUOUS
 10
256.2326097051
 20
641.5216374429
 11
255.3309869244
 21
642.0711927947
  0
LINE
  5
6DB
100
AcDbEntity
  8
KONSTRUKTIONSELEMENTE
100
AcDbLine
 62
7
  6
CONTINUOUS
 10
256.403086687
 20
646.9731163463
 11
257.3047096161
 21
646.4235610074
  0
LINE
  5
6DC
100
AcDbEntity
  8
KONSTRUKTIONSELEMENTE
100
AcDbLine
 62
7
  6
CONTINUOUS
 10
222.8233397553
 20
669.4493779052
 11
222.0610207435
 21
670.0122197721
  0
LINE
  5
6DD
100
AcDbEntity
  8
BEZUGSACHSEN
100
AcDbLine
 62
7
  6
CONTINUOUS
 10
344.2325391799
 20
642.1960036097
 11
365.8831742745
 21
604.6960036097
  0
LINE
  5
6DE
100
AcDbEntity
  8
KONSTRUKTIONSELEMENTE
100
AcDbLine
 62
7
  6
CONTINUOUS
 10
362.4891931566
 20
649.0943280483
 11
362.2273465539
 21
649.9926363681
  0
LINE
  5
6DF
100
AcDbEntity
  8
KONSTRUKTIONSELEMENTE
100
AcDbLine
 62
7
  6
CONTINUOUS
 10
371.4716282879
 20
656.8750365927
 11
371.280682434
 21
658.0507467543
  0
LINE
  5
6E0
100
AcDbEntity
  8
KONSTRUKTIONSELEMENTE
100
AcDbLine
 62
7
  6
CONTINUOUS
 10
408.4024252367
 20
644.6232441768
 11
408.5098390694
 21
643.3778678206
  0
LINE
  5
6E1
100
AcDbEntity
  8
KONSTRUKTIONSELEMENTE
100
AcDbLine
 62
7
  6
CONTINUOUS
 10
409.5518318305
 20
643.6768434092
 11
409.4802224721
 21
644.5070958969
  0
LINE
  5
6E2
100
AcDbEntity
  8
KONSTRUKTIONSELEMENTE
100
AcDbLine
 62
7
  6
CONTINUOUS
 10
413.08386471
 20
644.8179103928
 11
413.1554740684
 21
643.9876579051
  0
LINE
  5
6E3
100
AcDbEntity
  8
KONSTRUKTIONSELEMENTE
100
AcDbLine
 62
7
  6
CONTINUOUS
 10
414.0033897843
 20
644.0607907187
 11
413.9317804259
 21
644.8910432064
  0
LINE
  5
6E4
100
AcDbEntity
  8
KONSTRUKTIONSELEMENTE
100
AcDbLine
 62
7
  6
CONTINUOUS
 10
408.5248927936
 20
377.2114642552
 11
408.4024252367
 21
376.1553690036
  0
LINE
  5
6E5
100
AcDbEntity
  8
KONSTRUKTIONSELEMENTE
100
AcDbLine
 62
7
  6
CONTINUOUS
 10
398.4243746957
 20
400.7294273528
 11
397.1057417959
 21
392.4383544296
  0
LINE
  5
6E6
100
AcDbEntity
  8
KONSTRUKTIONSELEMENTE
100
AcDbLine
 62
7
  6
CONTINUOUS
 10
398.3536871622
 20
392.9568265309
 11
400.0124466872
 21
402.2771955962
  0
LINE
  5
6E7
100
AcDbEntity
  8
KONSTRUKTIONSELEMENTE
100
AcDbLine
 62
7
  6
CONTINUOUS
 10
379.9536531439
 20
394.175432365
 11
380.3003509398
 21
395.3149732176
  0
LINE
  5
6E8
100
AcDbEntity
  8
KONSTRUKTIONSELEMENTE
100
AcDbLine
 62
7
  6
CONTINUOUS
 10
370.1685943932
 20
388.0732738897
 11
369.8456346514
 21
387.27614689
  0
LINE
  5
6E9
100
AcDbEntity
  8
KONSTRUKTIONSELEMENTE
100
AcDbLine
 62
7
  6
CONTINUOUS
 10
370.8734458429
 20
386.5189805663
 11
371.3199704363
 21
387.483840014
  0
LINE
  5
6EA
100
AcDbEntity
  8
0
100
AcDbLine
 62
7
  6
CONTINUOUS
 10
340.6588093691
 20
338.1748321937
 11
340.1588112765
 21
337.1535557197
  0
LINE
  5
6EB
100
AcDbEntity
  8
0
100
AcDbLine
 62
7
  6
CONTINUOUS
 10
336.6588074618
 20
329.7493000315
 11
337.1588112765
 21
330.7705766843
  0
LINE
  5
6EC
100
AcDbEntity
  8
0
100
AcDbLine
 62
7
  6
CONTINUOUS
 10
347.6588112765
 20
329.7493000315
 11
348.1588093691
 21
330.7705766843
  0
LINE
  5
6ED
100
AcDbEntity
  8
KONSTRUKTIONSELEMENTE
100
AcDbLine
 62
7
  6
CONTINUOUS
 10
378.9950110159
 20
395.1158120337
 11
378.6368256766
 21
394.4499248383
  0
LINE
  5
6EE
100
AcDbEntity
  8
KONSTRUKTIONSELEMENTE
100
AcDbLine
 62
7
  6
CONTINUOUS
 10
358.3620936274
 20
380.5653643209
 11
358.6882022074
 21
381.139426631
  0
LINE
  5
6EF
100
AcDbEntity
  8
0
100
AcDbLine
 62
7
  6
CONTINUOUS
 10
330.1588093691
 20
336.3875976489
 11
331.1588112765
 21
337.9195130752
  0
LINE
  5
6F0
100
AcDbEntity
  8
KONSTRUKTIONSELEMENTE
100
AcDbLine
 62
7
  6
CONTINUOUS
 10
364.7993037972
 20
395.1338463324
 11
364.0579117701
 21
394.1274478715
  0
LINE
  5
6F1
100
AcDbEntity
  8
KONSTRUKTIONSELEMENTE
100
AcDbLine
 62
7
  6
CONTINUOUS
 10
361.0923436615
 20
390.101854028
 11
360.3509512808
 21
389.0954550872
  0
LINE
  5
6F2
100
AcDbEntity
  8
0
100
AcDbLine
 62
7
  6
CONTINUOUS
 10
301.2838093691
 20
360.6216402934
 11
300.7838091307
 21
360.1110020564
  0
LINE
  5
6F3
100
AcDbEntity
  8
0
100
AcDbLine
 62
7
  6
CONTINUOUS
 10
284.9088088923
 20
335.6216402934
 11
284.4088093691
 21
335.1110020564
  0
LINE
  5
6F4
100
AcDbEntity
  8
0
100
AcDbLine
 62
7
  6
CONTINUOUS
 10
284.9088088923
 20
330.2599384473
 11
284.4088093691
 21
329.7493000315
  0
LINE
  5
6F5
100
AcDbEntity
  8
0
100
AcDbLine
 62
7
  6
CONTINUOUS
 10
312.5338093691
 20
353.7280234681
 11
313.533809846
 21
354.7493000315
  0
LINE
  5
6F6
100
AcDbEntity
  8
0
100
AcDbLine
 62
7
  6
CONTINUOUS
 10
296.1588103228
 20
335.6216402934
 11
295.6588093691
 21
335.1110020564
  0
LINE
  5
6F7
100
AcDbEntity
  8
0
100
AcDbLine
 62
7
  6
CONTINUOUS
 10
301.6588093691
 20
339.1961086677
 11
300.6588103228
 21
338.1748321937
  0
LINE
  5
6F8
100
AcDbEntity
  8
KONSTRUKTIONSELEMENTE
100
AcDbLine
 62
7
  6
CONTINUOUS
 10
256.9580578826
 20
372.0707998333
 11
257.9821483501
 21
372.5773397443
  0
LINE
  5
6F9
100
AcDbEntity
  8
KONSTRUKTIONSELEMENTE
100
AcDbLine
 62
7
  6
CONTINUOUS
 10
261.1797347268
 20
372.6440234855
 11
262.2038250814
 21
373.1505681728
  0
LINE
  5
6FA
100
AcDbEntity
  8
KONSTRUKTIONSELEMENTE
100
AcDbLine
 62
7
  6
CONTINUOUS
 10
201.3411801697
 20
644.1164950036
 11
211.1640592184
 21
642.2427161494
  0
LINE
  5
6FB
100
AcDbEntity
  8
KONSTRUKTIONSELEMENTE
100
AcDbLine
 62
7
  6
CONTINUOUS
 10
211.3982815752
 20
643.4705760304
 11
207.009335555
 21
644.3077963815
  0
LINE
  5
6FC
100
AcDbEntity
  8
KONSTRUKTIONSELEMENTE
100
AcDbLine
 62
7
  6
CONTINUOUS
 10
205.7553511451
 20
644.5470021641
 11
202.6203895348
 21
645.1450167325
  0
LINE
  5
6FD
100
AcDbEntity
  8
KONSTRUKTIONSELEMENTE
100
AcDbLine
 62
7
  6
CONTINUOUS
 10
255.2264218281
 20
640.8075332351
 11
256.3221210957
 21
640.4838253964
  0
LINE
  5
6FE
100
AcDbEntity
  8
KONSTRUKTIONSELEMENTE
100
AcDbLine
 62
7
  6
CONTINUOUS
 10
259.6600773399
 20
641.3990448542
 11
260.5437979398
 21
641.0570490485
  0
LINE
  5
6FF
100
AcDbEntity
  8
KONSTRUKTIONSELEMENTE
100
AcDbLine
 62
7
  6
CONTINUOUS
 10
212.211473832
 20
654.3206580684
 11
211.4027015845
 21
654.6577031216
  0
LINE
  5
700
100
AcDbEntity
  8
KONSTRUKTIONSELEMENTE
100
AcDbLine
 62
7
  6
CONTINUOUS
 10
260.6605675957
 20
647.1312208807
 11
261.3323098605
 21
646.7709419229
  0
LINE
  5
701
100
AcDbEntity
  8
KONSTRUKTIONSELEMENTE
100
AcDbLine
 62
7
  6
CONTINUOUS
 10
238.4744798835
 20
662.9495197899
 11
239.5638588728
 21
662.3365324999
  0
LINE
  5
702
100
AcDbEntity
  8
KONSTRUKTIONSELEMENTE
100
AcDbLine
 62
7
  6
CONTINUOUS
 10
242.1057417959
 20
660.9062296028
 11
243.5582498854
 21
660.0889116572
  0
LINE
  5
703
100
AcDbEntity
  8
KONSTRUKTIONSELEMENTE
100
AcDbLine
 62
7
  6
CONTINUOUS
 10
246.1001328086
 20
658.6586087601
 11
247.1895117979
 21
658.0456214701
  0
LINE
  5
704
100
AcDbEntity
  8
KONSTRUKTIONSELEMENTE
100
AcDbLine
 62
7
  6
CONTINUOUS
 10
252.0934101176
 20
666.7606533845
 11
250.4593416337
 21
667.6801343195
  0
LINE
  5
705
100
AcDbEntity
  8
KONSTRUKTIONSELEMENTE
100
AcDbLine
 62
7
  6
CONTINUOUS
 10
245.0124466872
 20
670.7450707694
 11
243.3783782032
 21
671.6645517043
  0
LINE
  5
706
100
AcDbEntity
  8
KONSTRUKTIONSELEMENTE
100
AcDbLine
 62
7
  6
CONTINUOUS
 10
369.9299115006
 20
658.0107860782
 11
370.1966865963
 21
657.2967371269
  0
LINE
  5
707
100
AcDbEntity
  8
KONSTRUKTIONSELEMENTE
100
AcDbLine
 62
7
  6
CONTINUOUS
 10
380.2773778308
 20
664.7301570696
 11
379.9714057335
 21
665.770117198
  0
LINE
  5
708
100
AcDbEntity
  8
KONSTRUKTIONSELEMENTE
100
AcDbLine
 62
7
  6
CONTINUOUS
 10
378.8623888913
 20
665.1934182785
 11
379.0701994821
 21
664.3422269518
  0
LINE
  5
709
100
AcDbEntity
  8
KONSTRUKTIONSELEMENTE
100
AcDbLine
 62
7
  6
CONTINUOUS
 10
417.3234438834
 20
645.1835745117
 11
417.3950532417
 21
644.353322024
  0
LINE
  5
70A
100
AcDbEntity
  8
KONSTRUKTIONSELEMENTE
100
AcDbLine
 62
7
  6
CONTINUOUS
 10
418.4549478866
 20
644.4447380409
 11
418.3833385282
 21
645.2749905286
  0
LINE
  5
70B
100
AcDbEntity
  8
KONSTRUKTIONSELEMENTE
100
AcDbLine
 62
7
  6
CONTINUOUS
 10
418.3324803483
 20
374.9207676178
 11
418.4549478866
 21
375.9768628677
  0
LINE
  5
70C
100
AcDbEntity
  8
KONSTRUKTIONSELEMENTE
100
AcDbLine
 62
7
  6
CONTINUOUS
 10
409.4802224721
 20
376.0392207237
 11
409.6205920427
 21
376.8877564148
  0
LINE
  5
70D
100
AcDbEntity
  8
KONSTRUKTIONSELEMENTE
100
AcDbLine
 62
7
  6
CONTINUOUS
 10
413.1554740684
 20
375.519782732
 11
413.015104088
 21
374.6712517916
  0
LINE
  5
70E
100
AcDbEntity
  8
KONSTRUKTIONSELEMENTE
100
AcDbLine
 62
7
  6
CONTINUOUS
 10
413.9317804259
 20
376.4231680332
 11
414.0721499965
 21
377.2717037243
  0
LINE
  5
70F
100
AcDbEntity
  8
KONSTRUKTIONSELEMENTE
100
AcDbLine
 62
7
  6
CONTINUOUS
 10
417.3950532417
 20
375.8854468508
 11
417.2546832614
 21
375.0369159105
  0
LINE
  5
710
100
AcDbEntity
  8
KONSTRUKTIONSELEMENTE
100
AcDbLine
 62
7
  6
CONTINUOUS
 10
398.3783782032
 20
403.1966765311
 11
393.4744798835
 21
394.4816446167
  0
LINE
  5
711
100
AcDbEntity
  8
KONSTRUKTIONSELEMENTE
100
AcDbLine
 62
7
  6
CONTINUOUS
 10
394.5638588728
 20
393.8686573268
 11
398.4243746957
 21
400.7294273528
  0
LINE
  5
712
100
AcDbEntity
  8
0
100
AcDbLine
 62
7
  6
CONTINUOUS
 10
336.1588093691
 20
331.5365340398
 11
335.1588074618
 21
330.00461915
  0
LINE
  5
713
100
AcDbEntity
  8
0
100
AcDbLine
 62
7
  6
CONTINUOUS
 10
341.1588074618
 20
336.3875976489
 11
342.1588093691
 21
337.9195130752
  0
LINE
  5
714
100
AcDbEntity
  8
0
100
AcDbLine
 62
7
  6
CONTINUOUS
 10
347.1588074618
 20
331.5365340398
 11
346.1588112765
 21
330.00461915
  0
LINE
  5
715
100
AcDbEntity
  8
KONSTRUKTIONSELEMENTE
100
AcDbLine
 62
7
  6
CONTINUOUS
 10
379.4106323264
 20
393.4134291323
 11
379.9536531439
 21
394.175432365
  0
LINE
  5
716
100
AcDbEntity
  8
KONSTRUKTIONSELEMENTE
100
AcDbLine
 62
7
  6
CONTINUOUS
 10
369.8456346514
 20
387.27614689
 11
369.3513730643
 21
386.6052142628
  0
LINE
  5
717
100
AcDbEntity
  8
KONSTRUKTIONSELEMENTE
100
AcDbLine
 62
7
  6
CONTINUOUS
 10
370.3791842558
 20
385.8480479391
 11
370.8734458429
 21
386.5189805663
  0
LINE
  5
718
100
AcDbEntity
  8
0
100
AcDbLine
 62
7
  6
CONTINUOUS
 10
325.1588112765
 20
339.9620660232
 11
323.6588112765
 21
338.1748321937
  0
LINE
  5
719
100
AcDbEntity
  8
0
100
AcDbLine
 62
7
  6
CONTINUOUS
 10
323.6588112765
 20
336.1322785304
 11
325.1588112765
 21
337.9195130752
  0
LINE
  5
71A
100
AcDbEntity
  8
0
100
AcDbLine
 62
7
  6
CONTINUOUS
 10
324.5338093691
 20
353.7280234681
 11
325.5338084154
 21
354.7493000315
  0
LINE
  5
71B
100
AcDbEntity
  8
0
100
AcDbLine
 62
7
  6
CONTINUOUS
 10
308.4088093691
 20
328.7280234681
 11
309.4088084154
 21
329.7493000315
  0
LINE
  5
71C
100
AcDbEntity
  8
0
100
AcDbLine
 62
7
  6
CONTINUOUS
 10
330.4088112765
 20
338.9407895492
 11
329.6588112765
 21
338.1748321937
  0
LINE
  5
71D
100
AcDbEntity
  8
KONSTRUKTIONSELEMENTE
100
AcDbLine
 62
7
  6
CONTINUOUS
 10
369.590055942
 20
385.1355772585
 11
370.3791842558
 21
385.8480479391
  0
LINE
  5
71E
100
AcDbEntity
  8
KONSTRUKTIONSELEMENTE
100
AcDbLine
 62
7
  6
CONTINUOUS
 10
378.6368256766
 20
394.4499248383
 11
377.9956433268
 21
393.8766904569
  0
LINE
  5
71F
100
AcDbEntity
  8
KONSTRUKTIONSELEMENTE
100
AcDbLine
 62
7
  6
CONTINUOUS
 10
358.4653927387
 20
382.2423786546
 11
357.6822523331
 21
381.5434084871
  0
LINE
  5
720
100
AcDbEntity
  8
KONSTRUKTIONSELEMENTE
100
AcDbLine
 62
7
  6
CONTINUOUS
 10
369.3513730643
 20
386.6052142628
 11
368.685810339
 21
386.060476968
  0
LINE
  5
721
100
AcDbEntity
  8
KONSTRUKTIONSELEMENTE
100
AcDbLine
 62
7
  6
CONTINUOUS
 10
378.5846124346
 20
392.7440775145
 11
379.4106323264
 21
393.4134291323
  0
LINE
  5
722
100
AcDbEntity
  8
0
100
AcDbLine
 62
7
  6
CONTINUOUS
 10
284.658809846
 20
328.217385164
 11
285.6588088923
 21
328.9833425866
  0
LINE
  5
723
100
AcDbEntity
  8
0
100
AcDbLine
 62
7
  6
CONTINUOUS
 10
295.9088084154
 20
333.5790873454
 11
296.9088103228
 21
334.3450447009
  0
LINE
  5
724
100
AcDbEntity
  8
0
100
AcDbLine
 62
7
  6
CONTINUOUS
 10
312.033809846
 20
355.2599384473
 11
311.283809846
 21
354.7493000315
  0
LINE
  5
725
100
AcDbEntity
  8
0
100
AcDbLine
 62
7
  6
CONTINUOUS
 10
324.0338084154
 20
355.2599384473
 11
323.2838084154
 21
354.7493000315
  0
LINE
  5
726
100
AcDbEntity
  8
KONSTRUKTIONSELEMENTE
100
AcDbLine
 62
7
  6
CONTINUOUS
 10
358.6882022074
 20
381.139426631
 11
359.1842711669
 21
381.4689781923
  0
LINE
  5
727
100
AcDbEntity
  8
KONSTRUKTIONSELEMENTE
100
AcDbLine
 62
7
  6
CONTINUOUS
 10
373.9710210782
 20
401.6162122518
 11
369.5349537096
 21
399.3094165736
  0
LINE
  5
728
100
AcDbEntity
  8
KONSTRUKTIONSELEMENTE
100
AcDbLine
 62
7
  6
CONTINUOUS
 10
371.2329395909
 20
398.753502683
 11
374.5599901174
 21
400.4835994416
  0
LINE
  5
729
100
AcDbEntity
  8
KONSTRUKTIONSELEMENTE
100
AcDbLine
 62
7
  6
CONTINUOUS
 10
377.9956433268
 20
393.8766904569
 11
374.6685928003
 21
392.1465936982
  0
LINE
  5
72A
100
AcDbEntity
  8
KONSTRUKTIONSELEMENTE
100
AcDbLine
 62
7
  6
CONTINUOUS
 10
374.148545066
 20
390.4372818363
 11
378.5846124346
 21
392.7440775145
  0
LINE
  5
72B
100
AcDbEntity
  8
0
100
AcDbLine
 62
7
  6
CONTINUOUS
 10
301.0338096075
 20
358.8344064639
 11
302.0338093691
 21
359.3450447009
  0
LINE
  5
72C
100
AcDbEntity
  8
KONSTRUKTIONSELEMENTE
100
AcDbLine
 62
7
  6
CONTINUOUS
 10
359.4184935237
 20
382.6968380734
 11
358.4653927387
 21
382.2423786546
  0
LINE
  5
72D
100
AcDbEntity
  8
KONSTRUKTIONSELEMENTE
100
AcDbLine
 62
7
  6
CONTINUOUS
 10
368.685810339
 20
386.060476968
 11
367.9725105149
 21
385.809666571
  0
LINE
  5
72E
100
AcDbEntity
  8
KONSTRUKTIONSELEMENTE
100
AcDbLine
 62
7
  6
CONTINUOUS
 10
374.9933639916
 20
401.9080262497
 11
373.9710210782
 21
401.6162122518
  0
LINE
  5
72F
100
AcDbEntity
  8
KONSTRUKTIONSELEMENTE
100
AcDbLine
 62
7
  6
CONTINUOUS
 10
367.6474675153
 20
650.0191622581
 11
362.4891931566
 21
649.0943280483
  0
LINE
  5
730
100
AcDbEntity
  8
KONSTRUKTIONSELEMENTE
100
AcDbLine
 62
7
  6
CONTINUOUS
 10
362.6729655473
 20
647.7867326136
 11
367.3742080246
 21
648.5866586731
  0
LINE
  5
731
100
AcDbEntity
  8
KONSTRUKTIONSELEMENTE
100
AcDbLine
 62
7
  6
CONTINUOUS
 10
411.3221210957
 20
640.4838253964
 11
411.9580578826
 21
640.5386750065
  0
LINE
  5
732
100
AcDbEntity
  8
KONSTRUKTIONSELEMENTE
100
AcDbLine
 62
7
  6
CONTINUOUS
 10
415.5437979398
 20
641.0570490485
 11
416.1797347268
 21
641.1118986586
  0
LINE
  5
733
100
AcDbEntity
  8
KONSTRUKTIONSELEMENTE
100
AcDbLine
 62
7
  6
CONTINUOUS
 10
411.868546492
 20
641.5764870531
 11
411.2326097051
 21
641.5216374429
  0
LINE
  5
734
100
AcDbEntity
  8
KONSTRUKTIONSELEMENTE
100
AcDbLine
 62
7
  6
CONTINUOUS
 10
416.0902229264
 20
642.149715456
 11
415.6662650684
 21
642.1131490492
  0
LINE
  5
735
100
AcDbEntity
  8
KONSTRUKTIONSELEMENTE
100
AcDbLine
 62
7
  6
CONTINUOUS
 10
415.2366097377
 20
647.0946544739
 11
415.6605675957
 21
647.1312208807
  0
LINE
  5
736
100
AcDbEntity
  8
KONSTRUKTIONSELEMENTE
100
AcDbLine
 62
7
  6
CONTINUOUS
 10
410.7671499
 20
646.9182667362
 11
411.403086687
 21
646.9731163463
  0
LINE
  5
737
100
AcDbEntity
  8
KONSTRUKTIONSELEMENTE
100
AcDbLine
 62
7
  6
CONTINUOUS
 10
415.571056205
 20
648.1690329273
 11
414.9351194181
 21
648.1141833171
  0
LINE
  5
738
100
AcDbEntity
  8
KONSTRUKTIONSELEMENTE
100
AcDbLine
 62
7
  6
CONTINUOUS
 10
411.3135748866
 20
648.0109331436
 11
410.6776380996
 21
647.9560835335
  0
LINE
  5
739
100
AcDbEntity
  8
KONSTRUKTIONSELEMENTE
100
AcDbLine
 62
7
  6
CONTINUOUS
 10
211.6413840037
 20
653.1880657148
 11
212.5737222982
 21
653.0187544498
  0
LINE
  5
73A
100
AcDbEntity
  8
KONSTRUKTIONSELEMENTE
100
AcDbLine
 62
7
  6
CONTINUOUS
 10
204.8503003941
 20
650.0218935925
 11
205.4772931845
 21
649.9022905895
  0
LINE
  5
73B
100
AcDbEntity
  8
KONSTRUKTIONSELEMENTE
100
AcDbLine
 62
7
  6
CONTINUOUS
 10
205.920512943
 20
651.0902828401
 11
205.0845227509
 21
651.2497534736
  0
LINE
  5
73C
100
AcDbEntity
  8
KONSTRUKTIONSELEMENTE
100
AcDbLine
 62
7
  6
CONTINUOUS
 10
257.4092747124
 20
647.6872205669
 11
256.3135748866
 21
648.0109331436
  0
LINE
  5
73D
100
AcDbEntity
  8
KONSTRUKTIONSELEMENTE
100
AcDbLine
 62
7
  6
CONTINUOUS
 10
261.666755918
 20
647.8453251269
 11
260.571056205
 21
648.1690329273
  0
LINE
  5
73E
100
AcDbEntity
  8
KONSTRUKTIONSELEMENTE
100
AcDbLine
 62
7
  6
CONTINUOUS
 10
222.0610207435
 20
670.0122197721
 11
220.929030861
 21
670.3828293992
  0
LINE
  5
73F
100
AcDbEntity
  8
KONSTRUKTIONSELEMENTE
100
AcDbLine
 62
7
  6
CONTINUOUS
 10
361.0652483672
 20
649.5780445798
 11
361.4051690144
 21
649.0890224967
  0
LINE
  5
740
100
AcDbEntity
  8
KONSTRUKTIONSELEMENTE
100
AcDbLine
 62
7
  6
CONTINUOUS
 10
371.280682434
 20
658.0507467543
 11
370.842605373
 21
658.8909901666
  0
LINE
  5
741
100
AcDbEntity
  8
KONSTRUKTIONSELEMENTE
100
AcDbLine
 62
7
  6
CONTINUOUS
 10
369.5349537096
 20
667.7772917467
 11
374.148545066
 21
658.9051570095
  0
LINE
  5
742
100
AcDbEntity
  8
KONSTRUKTIONSELEMENTE
100
AcDbLine
 62
7
  6
CONTINUOUS
 10
374.6685928003
 20
660.6144688714
 11
371.2329395909
 21
667.2213778561
  0
LINE
  5
743
100
AcDbEntity
  8
KONSTRUKTIONSELEMENTE
100
AcDbLine
 62
7
  6
CONTINUOUS
 10
377.389966156
 20
668.0249505683
 11
378.8623888913
 21
665.1934182785
  0
LINE
  5
744
100
AcDbEntity
  8
KONSTRUKTIONSELEMENTE
100
AcDbLine
 62
7
  6
CONTINUOUS
 10
408.5098390694
 20
643.3778678206
 11
408.8113298173
 21
642.3583342283
  0
LINE
  5
745
100
AcDbEntity
  8
0
100
AcDbLine
 62
7
  6
CONTINUOUS
 10
448.6338093691
 20
581.2855502102
 11
448.6338093691
 21
549.4024619368
  0
LINE
  5
746
100
AcDbEntity
  8
0
100
AcDbLine
 62
7
  6
CONTINUOUS
 10
448.6338093691
 20
466.5216701096
 11
448.6338093691
 21
434.6385818361
  0
LINE
  5
747
100
AcDbEntity
  8
RUNDUNGEN
100
AcDbLine
 62
7
  6
CONTINUOUS
 10
448.6338093691
 20
444.0498116345
 11
448.6338093691
 21
461.8890941312
  0
LINE
  5
748
100
AcDbEntity
  8
RUNDUNGEN
100
AcDbLine
 62
7
  6
CONTINUOUS
 10
448.6338093691
 20
554.0350379151
 11
448.6338093691
 21
571.8743204119
  0
LINE
  5
749
100
AcDbEntity
  8
KONSTRUKTIONSELEMENTE
100
AcDbLine
 62
7
  6
CONTINUOUS
 10
409.6205920427
 20
376.8877564148
 11
409.972940952
 21
377.7545705586
  0
LINE
  5
74A
100
AcDbEntity
  8
KONSTRUKTIONSELEMENTE
100
AcDbLine
 62
7
  6
CONTINUOUS
 10
413.5407783059
 20
378.4805136737
 11
413.364604261
 21
378.0471018511
  0
LINE
  5
74B
100
AcDbEntity
  8
KONSTRUKTIONSELEMENTE
100
AcDbLine
 62
7
  6
CONTINUOUS
 10
413.015104088
 20
374.6712517916
 11
412.6627555885
 21
373.8044328971
  0
LINE
  5
74C
100
AcDbEntity
  8
KONSTRUKTIONSELEMENTE
100
AcDbLine
 62
7
  6
CONTINUOUS
 10
413.5464757787
 20
373.4624418422
 11
413.7226502333
 21
373.8958489141
  0
LINE
  5
74D
100
AcDbEntity
  8
KONSTRUKTIONSELEMENTE
100
AcDbLine
 62
7
  6
CONTINUOUS
 10
409.0713182456
 20
378.3041259167
 11
408.5248927936
 21
377.2114642552
  0
LINE
  5
74E
100
AcDbEntity
  8
KONSTRUKTIONSELEMENTE
100
AcDbLine
 62
7
  6
CONTINUOUS
 10
404.9606486315
 20
397.0515036129
 11
401.1001328086
 21
390.1907335869
  0
LINE
  5
74F
100
AcDbEntity
  8
KONSTRUKTIONSELEMENTE
100
AcDbLine
 62
7
  6
CONTINUOUS
 10
402.1895117979
 20
389.5777462969
 11
407.0934101176
 21
398.2927782114
  0
LINE
  5
750
100
AcDbEntity
  8
0
100
AcDbLine
 62
7
  6
CONTINUOUS
 10
341.4088093691
 20
338.9407895492
 11
340.6588093691
 21
338.1748321937
  0
LINE
  5
751
100
AcDbEntity
  8
0
100
AcDbLine
 62
7
  6
CONTINUOUS
 10
335.9088074618
 20
328.9833425866
 11
336.6588074618
 21
329.7493000315
  0
LINE
  5
752
100
AcDbEntity
  8
0
100
AcDbLine
 62
7
  6
CONTINUOUS
 10
346.9088112765
 20
328.9833425866
 11
347.6588112765
 21
329.7493000315
  0
LINE
  5
753
100
AcDbEntity
  8
KONSTRUKTIONSELEMENTE
100
AcDbLine
 62
7
  6
CONTINUOUS
 10
405.4593416337
 20
399.2122591463
 11
398.3536871622
 21
392.9568265309
  0
LINE
  5
754
100
AcDbEntity
  8
KONSTRUKTIONSELEMENTE
100
AcDbLine
 62
7
  6
CONTINUOUS
 10
398.5582498854
 20
391.6210364841
 11
404.9606486315
 21
397.0515036129
  0
LINE
  5
755
100
AcDbEntity
  8
0
100
AcDbLine
 62
7
  6
CONTINUOUS
 10
302.1588103228
 20
337.6641939567
 11
302.9088103228
 21
338.1748321937
  0
LINE
  5
756
100
AcDbEntity
  8
0
100
AcDbLine
 62
7
  6
CONTINUOUS
 10
307.9088084154
 20
330.2599384473
 11
307.1588084154
 21
329.7493000315
  0
LINE
  5
757
100
AcDbEntity
  8
0
100
AcDbLine
 62
7
  6
CONTINUOUS
 10
331.1588112765
 20
337.9195130752
 11
331.9088112765
 21
338.4301513122
  0
LINE
  5
758
100
AcDbEntity
  8
KONSTRUKTIONSELEMENTE
100
AcDbLine
 62
7
  6
CONTINUOUS
 10
407.0137125407
 20
390.3331168424
 11
405.9203345402
 21
389.6741619004
  0
LINE
  5
759
100
AcDbEntity
  8
0
100
AcDbLine
 62
7
  6
CONTINUOUS
 10
311.5338088923
 20
353.217385164
 11
312.5338093691
 21
353.7280234681
  0
LINE
  5
75A
100
AcDbEntity
  8
0
100
AcDbLine
 62
7
  6
CONTINUOUS
 10
285.1588093691
 20
334.0897255824
 11
285.6588088923
 21
334.3450447009
  0
LINE
  5
75B
100
AcDbEntity
  8
0
100
AcDbLine
 62
7
  6
CONTINUOUS
 10
323.5338103228
 20
353.217385164
 11
324.5338093691
 21
353.7280234681
  0
LINE
  5
75C
100
AcDbEntity
  8
0
100
AcDbLine
 62
7
  6
CONTINUOUS
 10
302.6588084154
 20
339.7067469047
 11
301.6588093691
 21
339.1961086677
  0
LINE
  5
75D
100
AcDbEntity
  8
KONSTRUKTIONSELEMENTE
100
AcDbLine
 62
7
  6
CONTINUOUS
 10
368.7531906193
 20
384.7170334096
 11
369.590055942
 21
385.1355772585
  0
LINE
  5
75E
100
AcDbEntity
  8
0
100
AcDbLine
 62
7
  6
CONTINUOUS
 10
300.7838091307
 20
360.1110020564
 11
300.0338091307
 21
359.8556829379
  0
LINE
  5
75F
100
AcDbEntity
  8
KONSTRUKTIONSELEMENTE
100
AcDbLine
 62
7
  6
CONTINUOUS
 10
374.5599901174
 20
668.9514746148
 11
375.3974954802
 21
669.1471713928
  0
LINE
  5
760
100
AcDbEntity
  8
KONSTRUKTIONSELEMENTE
100
AcDbLine
 62
7
  6
CONTINUOUS
 10
367.5737222982
 20
653.0187544498
 11
368.7531906193
 21
653.1849085828
  0
LINE
  5
761
100
AcDbEntity
  8
KONSTRUKTIONSELEMENTE
100
AcDbLine
 62
7
  6
CONTINUOUS
 10
359.1842711669
 20
649.9368533655
 11
359.8503003941
 21
650.0218935925
  0
LINE
  5
762
100
AcDbEntity
  8
KONSTRUKTIONSELEMENTE
100
AcDbLine
 62
7
  6
CONTINUOUS
 10
360.0845227509
 20
651.2497534736
 11
359.4184935237
 21
651.1647132466
  0
LINE
  5
763
100
AcDbEntity
  8
KONSTRUKTIONSELEMENTE
100
AcDbLine
 62
7
  6
CONTINUOUS
 10
256.3221210957
 20
640.4838253964
 11
256.9580578826
 21
640.5386750065
  0
LINE
  5
764
100
AcDbEntity
  8
KONSTRUKTIONSELEMENTE
100
AcDbLine
 62
7
  6
CONTINUOUS
 10
260.5437979398
 20
641.0570490485
 11
261.1797347268
 21
641.1118986586
  0
LINE
  5
765
100
AcDbEntity
  8
KONSTRUKTIONSELEMENTE
100
AcDbLine
 62
7
  6
CONTINUOUS
 10
256.868546492
 20
641.5764870531
 11
256.2326097051
 21
641.5216374429
  0
LINE
  5
766
100
AcDbEntity
  8
KONSTRUKTIONSELEMENTE
100
AcDbLine
 62
7
  6
CONTINUOUS
 10
261.0902229264
 20
642.149715456
 11
260.6662650684
 21
642.1131490492
  0
LINE
  5
767
100
AcDbEntity
  8
KONSTRUKTIONSELEMENTE
100
AcDbLine
 62
7
  6
CONTINUOUS
 10
260.2366097377
 20
647.0946544739
 11
260.6605675957
 21
647.1312208807
  0
LINE
  5
768
100
AcDbEntity
  8
KONSTRUKTIONSELEMENTE
100
AcDbLine
 62
7
  6
CONTINUOUS
 10
255.7671499
 20
646.9182667362
 11
256.403086687
 21
646.9731163463
  0
LINE
  5
769
100
AcDbEntity
  8
KONSTRUKTIONSELEMENTE
100
AcDbLine
 62
7
  6
CONTINUOUS
 10
260.571056205
 20
648.1690329273
 11
259.9351194181
 21
648.1141833171
  0
LINE
  5
76A
100
AcDbEntity
  8
KONSTRUKTIONSELEMENTE
100
AcDbLine
 62
7
  6
CONTINUOUS
 10
256.3135748866
 20
648.0109331436
 11
255.6776380996
 21
647.9560835335
  0
LINE
  5
76B
100
AcDbEntity
  8
KONSTRUKTIONSELEMENTE
100
AcDbLine
 62
7
  6
CONTINUOUS
 10
212.9725105149
 20
654.2775417442
 11
212.211473832
 21
654.3206580684
  0
LINE
  5
76C
100
AcDbEntity
  8
KONSTRUKTIONSELEMENTE
100
AcDbLine
 62
7
  6
CONTINUOUS
 10
367.9725105149
 20
654.2775417442
 11
367.211473832
 21
654.3206580684
  0
LINE
  5
76D
100
AcDbEntity
  8
KONSTRUKTIONSELEMENTE
100
AcDbLine
 62
7
  6
CONTINUOUS
 10
220.3974954802
 20
669.1471713928
 11
221.1483269143
 21
669.0579832492
  0
LINE
  5
76E
100
AcDbEntity
  8
KONSTRUKTIONSELEMENTE
100
AcDbLine
 62
7
  6
CONTINUOUS
 10
259.5148194664
 20
657.4838921902
 11
252.0137125407
 21
658.8009920156
  0
LINE
  5
76F
100
AcDbEntity
  8
KONSTRUKTIONSELEMENTE
100
AcDbLine
 62
7
  6
CONTINUOUS
 10
252.7664777749
 20
657.5519582893
 11
258.0569824727
 21
656.605285806
  0
LINE
  5
770
100
AcDbEntity
  8
KONSTRUKTIONSELEMENTE
100
AcDbLine
 62
7
  6
CONTINUOUS
 10
366.6413840037
 20
653.1880657148
 11
367.5737222982
 21
653.0187544498
  0
LINE
  5
771
100
AcDbEntity
  8
KONSTRUKTIONSELEMENTE
100
AcDbLine
 62
7
  6
CONTINUOUS
 10
356.3411801697
 20
644.1164950036
 11
366.1640592184
 21
642.2427161494
  0
LINE
  5
772
100
AcDbEntity
  8
KONSTRUKTIONSELEMENTE
100
AcDbLine
 62
7
  6
CONTINUOUS
 10
366.3982815752
 20
643.4705760304
 11
362.009335555
 21
644.3077963815
  0
LINE
  5
773
100
AcDbEntity
  8
KONSTRUKTIONSELEMENTE
100
AcDbLine
 62
7
  6
CONTINUOUS
 10
360.7553511451
 20
644.5470021641
 11
357.6203895348
 21
645.1450167325
  0
LINE
  5
774
100
AcDbEntity
  8
KONSTRUKTIONSELEMENTE
100
AcDbLine
 62
7
  6
CONTINUOUS
 10
359.8503003941
 20
650.0218935925
 11
360.4772931845
 21
649.9022905895
  0
LINE
  5
775
100
AcDbEntity
  8
KONSTRUKTIONSELEMENTE
100
AcDbLine
 62
7
  6
CONTINUOUS
 10
360.920512943
 20
651.0902828401
 11
360.0845227509
 21
651.2497534736
  0
LINE
  5
776
100
AcDbEntity
  8
KONSTRUKTIONSELEMENTE
100
AcDbLine
 62
7
  6
CONTINUOUS
 10
360.4772931845
 20
649.9022905895
 11
361.0652483672
 21
649.5780445798
  0
LINE
  5
777
100
AcDbEntity
  8
KONSTRUKTIONSELEMENTE
100
AcDbLine
 62
7
  6
CONTINUOUS
 10
361.5084681257
 20
650.7660368305
 11
360.920512943
 21
651.0902828401
  0
LINE
  5
778
100
AcDbEntity
  8
KONSTRUKTIONSELEMENTE
100
AcDbLine
 62
7
  6
CONTINUOUS
 10
360.3509512808
 20
657.5633302604
 11
365.6613092038
 21
653.6513041808
  0
LINE
  5
779
100
AcDbEntity
  8
KONSTRUKTIONSELEMENTE
100
AcDbLine
 62
7
  6
CONTINUOUS
 10
366.4027015845
 20
654.6577031216
 11
361.0923436615
 21
658.5697292011
  0
LINE
  5
77A
100
AcDbEntity
  8
KONSTRUKTIONSELEMENTE
100
AcDbLine
 62
7
  6
CONTINUOUS
 10
362.2273465539
 20
649.9926363681
 11
361.5084681257
 21
650.7660368305
  0
LINE
  5
77B
100
AcDbEntity
  8
KONSTRUKTIONSELEMENTE
100
AcDbLine
 62
7
  6
CONTINUOUS
 10
370.842605373
 20
658.8909901666
 11
370.1096617202
 21
659.6896954261
  0
LINE
  5
77C
100
AcDbEntity
  8
KONSTRUKTIONSELEMENTE
100
AcDbLine
 62
7
  6
CONTINUOUS
 10
369.3682696931
 20
658.6832969652
 11
369.9299115006
 21
658.0107860782
  0
LINE
  5
77D
100
AcDbEntity
  8
KONSTRUKTIONSELEMENTE
100
AcDbLine
 62
7
  6
CONTINUOUS
 10
379.9714057335
 20
665.770117198
 11
378.4989829982
 21
668.6016494878
  0
LINE
  5
77E
100
AcDbEntity
  8
KONSTRUKTIONSELEMENTE
100
AcDbLine
 62
7
  6
CONTINUOUS
 10
409.835419708
 20
642.8648788756
 11
409.5518318305
 21
643.6768434092
  0
LINE
  5
77F
100
AcDbEntity
  8
KONSTRUKTIONSELEMENTE
100
AcDbLine
 62
7
  6
CONTINUOUS
 10
412.8002764227
 20
645.6298796772
 11
413.08386471
 21
644.8179103928
  0
LINE
  5
780
100
AcDbEntity
  8
KONSTRUKTIONSELEMENTE
100
AcDbLine
 62
7
  6
CONTINUOUS
 10
414.2869776619
 20
643.2488261851
 11
414.0033897843
 21
644.0607907187
  0
LINE
  5
781
100
AcDbEntity
  8
KONSTRUKTIONSELEMENTE
100
AcDbLine
 62
7
  6
CONTINUOUS
 10
417.039855596
 20
645.995543796
 11
417.3234438834
 21
645.1835745117
  0
LINE
  5
782
100
AcDbEntity
  8
KONSTRUKTIONSELEMENTE
100
AcDbLine
 62
7
  6
CONTINUOUS
 10
418.3833385282
 20
645.2749905286
 11
418.0818482086
 21
646.2945193718
  0
LINE
  5
783
100
AcDbEntity
  8
KONSTRUKTIONSELEMENTE
100
AcDbLine
 62
7
  6
CONTINUOUS
 10
417.786054952
 20
373.8281059611
 11
418.3324803483
 21
374.9207676178
  0
LINE
  5
784
100
AcDbEntity
  8
BEZUGSACHSEN
100
AcDbLine
 62
7
  6
CONTINUOUS
 10
409.1844444637
 20
336.2281284366
 11
430.8350795583
 21
373.7281284366
  0
LINE
  5
785
100
AcDbEntity
  8
KONSTRUKTIONSELEMENTE
100
AcDbLine
 62
7
  6
CONTINUOUS
 10
414.0721499965
 20
377.2717037243
 11
414.6364778348
 21
378.1568010714
  0
LINE
  5
786
100
AcDbEntity
  8
KONSTRUKTIONSELEMENTE
100
AcDbLine
 62
7
  6
CONTINUOUS
 10
412.9821483501
 20
372.5773397443
 11
413.5464757787
 21
373.4624418422
  0
LINE
  5
787
100
AcDbEntity
  8
KONSTRUKTIONSELEMENTE
100
AcDbLine
 62
7
  6
CONTINUOUS
 10
417.2546832614
 20
375.0369159105
 11
416.6903558328
 21
374.1518138126
  0
LINE
  5
788
100
AcDbEntity
  8
KONSTRUKTIONSELEMENTE
100
AcDbLine
 62
7
  6
CONTINUOUS
 10
409.6535481904
 20
378.9816637114
 11
409.0713182456
 21
378.3041259167
  0
LINE
  5
789
100
AcDbEntity
  8
KONSTRUKTIONSELEMENTE
100
AcDbLine
 62
7
  6
CONTINUOUS
 10
414.1230081765
 20
379.1580514619
 11
413.5407783059
 21
378.4805136737
  0
LINE
  5
78A
100
AcDbEntity
  8
KONSTRUKTIONSELEMENTE
100
AcDbLine
 62
7
  6
CONTINUOUS
 10
417.2038250814
 20
373.1505681728
 11
417.786054952
 21
373.8281059611
  0
LINE
  5
78B
100
AcDbEntity
  8
KONSTRUKTIONSELEMENTE
100
AcDbLine
 62
7
  6
CONTINUOUS
 10
409.972940952
 20
377.7545705586
 11
410.7671499
 21
378.450391563
  0
LINE
  5
78C
100
AcDbEntity
  8
KONSTRUKTIONSELEMENTE
100
AcDbLine
 62
7
  6
CONTINUOUS
 10
412.6627555885
 20
373.8044328971
 11
411.868546492
 21
373.1086118799
  0
LINE
  5
78D
100
AcDbEntity
  8
KONSTRUKTIONSELEMENTE
100
AcDbLine
 62
7
  6
CONTINUOUS
 10
414.6364778348
 20
378.1568010714
 11
415.2366097377
 21
378.6267793008
  0
LINE
  5
78E
100
AcDbEntity
  8
KONSTRUKTIONSELEMENTE
100
AcDbLine
 62
7
  6
CONTINUOUS
 10
416.6903558328
 20
374.1518138126
 11
416.0902229264
 21
373.6818402828
  0
LINE
  5
78F
100
AcDbEntity
  8
0
100
AcDbLine
 62
7
  6
CONTINUOUS
 10
342.1588093691
 20
337.9195130752
 11
342.9088093691
 21
338.4301513122
  0
LINE
  5
790
100
AcDbEntity
  8
0
100
AcDbLine
 62
7
  6
CONTINUOUS
 10
335.1588074618
 20
330.00461915
 11
334.4088074618
 21
329.493980913
  0
LINE
  5
791
100
AcDbEntity
  8
0
100
AcDbLine
 62
7
  6
CONTINUOUS
 10
346.1588112765
 20
330.00461915
 11
345.4088112765
 21
329.493980913
  0
LINE
  5
792
100
AcDbEntity
  8
0
100
AcDbLine
 62
7
  6
CONTINUOUS
 10
331.6588093691
 20
339.7067469047
 11
330.4088112765
 21
338.9407895492
  0
LINE
  5
793
100
AcDbEntity
  8
0
100
AcDbLine
 62
7
  6
CONTINUOUS
 10
342.6588074618
 20
339.7067469047
 11
341.4088093691
 21
338.9407895492
  0
LINE
  5
794
100
AcDbEntity
  8
0
100
AcDbLine
 62
7
  6
CONTINUOUS
 10
334.6588093691
 20
328.217385164
 11
335.9088074618
 21
328.9833425866
  0
LINE
  5
795
100
AcDbEntity
  8
0
100
AcDbLine
 62
7
  6
CONTINUOUS
 10
345.6588074618
 20
328.217385164
 11
346.9088112765
 21
328.9833425866
  0
LINE
  5
796
100
AcDbEntity
  8
KONSTRUKTIONSELEMENTE
100
AcDbLine
 62
7
  6
CONTINUOUS
 10
413.0569824727
 20
388.1374106328
 11
409.594619102
 21
386.0507201627
  0
LINE
  5
797
100
AcDbEntity
  8
KONSTRUKTIONSELEMENTE
100
AcDbLine
 62
7
  6
CONTINUOUS
 10
408.5012411014
 20
385.3917652207
 11
405.9500261071
 21
383.8542038945
  0
LINE
  5
798
100
AcDbEntity
  8
KONSTRUKTIONSELEMENTE
100
AcDbLine
 62
7
  6
CONTINUOUS
 10
406.5952527474
 20
382.7836047246
 11
409.1464677417
 21
384.3211660508
  0
LINE
  5
799
100
AcDbEntity
  8
KONSTRUKTIONSELEMENTE
100
AcDbLine
 62
7
  6
CONTINUOUS
 10
410.2398457423
 20
384.9801209928
 11
415.1600461067
 21
387.9454178471
  0
LINE
  5
79A
100
AcDbEntity
  8
KONSTRUKTIONSELEMENTE
100
AcDbLine
 62
7
  6
CONTINUOUS
 10
410.221846296
 20
382.5368327396
 11
411.3152242966
 21
383.1957876816
  0
LINE
  5
79B
100
AcDbEntity
  8
KONSTRUKTIONSELEMENTE
100
AcDbLine
 62
7
  6
CONTINUOUS
 10
414.9351194181
 20
379.646308144
 11
414.1230081765
 21
379.1580514619
  0
LINE
  5
79C
100
AcDbEntity
  8
0
100
AcDbLine
 62
7
  6
CONTINUOUS
 10
307.4088103228
 20
328.217385164
 11
308.4088093691
 21
328.7280234681
  0
LINE
  5
79D
100
AcDbEntity
  8
KONSTRUKTIONSELEMENTE
100
AcDbLine
 62
7
  6
CONTINUOUS
 10
410.6776380996
 20
379.4882083603
 11
409.6535481904
 21
378.9816637114
  0
LINE
  5
79E
100
AcDbEntity
  8
KONSTRUKTIONSELEMENTE
100
AcDbLine
 62
7
  6
CONTINUOUS
 10
411.9580578826
 20
372.0707998333
 11
412.9821483501
 21
372.5773397443
  0
LINE
  5
79F
100
AcDbEntity
  8
KONSTRUKTIONSELEMENTE
100
AcDbLine
 62
7
  6
CONTINUOUS
 10
416.1797347268
 20
372.6440234855
 11
417.2038250814
 21
373.1505681728
  0
LINE
  5
7A0
100
AcDbEntity
  8
0
100
AcDbLine
 62
7
  6
CONTINUOUS
 10
284.4088093691
 20
335.1110020564
 11
283.6588093691
 21
334.8556829379
  0
LINE
  5
7A1
100
AcDbEntity
  8
0
100
AcDbLine
 62
7
  6
CONTINUOUS
 10
295.6588093691
 20
335.1110020564
 11
294.9088093691
 21
334.8556829379
  0
LINE
  5
7A2
100
AcDbEntity
  8
0
100
AcDbLine
 62
7
  6
CONTINUOUS
 10
284.4088093691
 20
329.7493000315
 11
283.6588093691
 21
329.493980913
  0
LINE
  5
7A3
100
AcDbEntity
  8
KONSTRUKTIONSELEMENTE
100
AcDbLine
 62
7
  6
CONTINUOUS
 10
212.6474675153
 20
650.0191622581
 11
207.4891931566
 21
649.0943280483
  0
LINE
  5
7A4
100
AcDbEntity
  8
KONSTRUKTIONSELEMENTE
100
AcDbLine
 62
7
  6
CONTINUOUS
 10
207.6729655473
 20
647.7867326136
 11
212.3742080246
 21
648.5866586731
  0
LINE
  5
7A5
100
AcDbEntity
  8
KONSTRUKTIONSELEMENTE
100
AcDbLine
 62
7
  6
CONTINUOUS
 10
212.5737222982
 20
653.0187544498
 11
213.7531906193
 21
653.1849085828
  0
LINE
  5
7A6
100
AcDbEntity
  8
KONSTRUKTIONSELEMENTE
100
AcDbLine
 62
7
  6
CONTINUOUS
 10
204.1842711669
 20
649.9368533655
 11
204.8503003941
 21
650.0218935925
  0
LINE
  5
7A7
100
AcDbEntity
  8
KONSTRUKTIONSELEMENTE
100
AcDbLine
 62
7
  6
CONTINUOUS
 10
205.0845227509
 20
651.2497534736
 11
204.4184935237
 21
651.1647132466
  0
LINE
  5
7A8
100
AcDbEntity
  8
KONSTRUKTIONSELEMENTE
100
AcDbLine
 62
7
  6
CONTINUOUS
 10
375.929030861
 20
670.3828293992
 11
374.9933639916
 21
670.3759014229
  0
LINE
  5
7A9
100
AcDbEntity
  8
KONSTRUKTIONSELEMENTE
100
AcDbLine
 62
7
  6
CONTINUOUS
 10
220.929030861
 20
670.3828293992
 11
219.9933639916
 21
670.3759014229
  0
LINE
  5
7AA
100
AcDbEntity
  8
BEZUGSACHSEN
100
AcDbLine
 62
7
  6
CONTINUOUS
 10
409.1844444637
 20
679.6960036097
 11
365.8831742745
 21
679.6960036097
  0
LINE
  5
7AB
100
AcDbEntity
  8
BEZUGSACHSEN
100
AcDbLine
 62
7
  6
CONTINUOUS
 10
254.1844444637
 20
679.6960036097
 11
210.8831742745
 21
679.6960036097
  0
LINE
  5
7AC
100
AcDbEntity
  8
KONSTRUKTIONSELEMENTE
100
AcDbLine
 62
7
  6
CONTINUOUS
 10
375.3974954802
 20
669.1471713928
 11
376.1483269143
 21
669.0579832492
  0
LINE
  5
7AD
100
AcDbEntity
  8
KONSTRUKTIONSELEMENTE
100
AcDbLine
 62
7
  6
CONTINUOUS
 10
414.5148194664
 20
657.4838921902
 11
407.0137125407
 21
658.8009920156
  0
LINE
  5
7AE
100
AcDbEntity
  8
KONSTRUKTIONSELEMENTE
100
AcDbLine
 62
7
  6
CONTINUOUS
 10
407.7664777749
 20
657.5519582893
 11
413.0569824727
 21
656.605285806
  0
LINE
  5
7AF
100
AcDbEntity
  8
KONSTRUKTIONSELEMENTE
100
AcDbLine
 62
7
  6
CONTINUOUS
 10
410.2264218281
 20
640.8075332351
 11
411.3221210957
 21
640.4838253964
  0
LINE
  5
7B0
100
AcDbEntity
  8
KONSTRUKTIONSELEMENTE
100
AcDbLine
 62
7
  6
CONTINUOUS
 10
412.4092747124
 20
647.6872205669
 11
411.3135748866
 21
648.0109331436
  0
LINE
  5
7B1
100
AcDbEntity
  8
KONSTRUKTIONSELEMENTE
100
AcDbLine
 62
7
  6
CONTINUOUS
 10
416.666755918
 20
647.8453251269
 11
415.571056205
 21
648.1690329273
  0
LINE
  5
7B2
100
AcDbEntity
  8
KONSTRUKTIONSELEMENTE
100
AcDbLine
 62
7
  6
CONTINUOUS
 10
414.6600773399
 20
641.3990448542
 11
415.5437979398
 21
641.0570490485
  0
LINE
  5
7B3
100
AcDbEntity
  8
KONSTRUKTIONSELEMENTE
100
AcDbLine
 62
7
  6
CONTINUOUS
 10
367.211473832
 20
654.3206580684
 11
366.4027015845
 21
654.6577031216
  0
LINE
  5
7B4
100
AcDbEntity
  8
KONSTRUKTIONSELEMENTE
100
AcDbLine
 62
7
  6
CONTINUOUS
 10
365.6613092038
 20
653.6513041808
 11
366.6413840037
 21
653.1880657148
  0
LINE
  5
7B5
100
AcDbEntity
  8
KONSTRUKTIONSELEMENTE
100
AcDbLine
 62
7
  6
CONTINUOUS
 10
415.6662650684
 20
642.1131490492
 11
414.9945238072
 21
642.4734233075
  0
LINE
  5
7B6
100
AcDbEntity
  8
KONSTRUKTIONSELEMENTE
100
AcDbLine
 62
7
  6
CONTINUOUS
 10
411.2326097051
 20
641.5216374429
 11
410.3309869244
 21
642.0711927947
  0
LINE
  5
7B7
100
AcDbEntity
  8
KONSTRUKTIONSELEMENTE
100
AcDbLine
 62
7
  6
CONTINUOUS
 10
411.403086687
 20
646.9731163463
 11
412.3047096161
 21
646.4235610074
  0
LINE
  5
7B8
100
AcDbEntity
  8
KONSTRUKTIONSELEMENTE
100
AcDbLine
 62
7
  6
CONTINUOUS
 10
364.0579117701
 20
662.5953230447
 11
369.3682696931
 21
658.6832969652
  0
LINE
  5
7B9
100
AcDbEntity
  8
KONSTRUKTIONSELEMENTE
100
AcDbLine
 62
7
  6
CONTINUOUS
 10
370.1096617202
 20
659.6896954261
 11
364.7993037972
 21
663.6017215056
  0
LINE
  5
7BA
100
AcDbEntity
  8
KONSTRUKTIONSELEMENTE
100
AcDbLine
 62
7
  6
CONTINUOUS
 10
377.8233397553
 20
669.4493779052
 11
377.0610207435
 21
670.0122197721
  0
LINE
  5
7BB
100
AcDbEntity
  8
KONSTRUKTIONSELEMENTE
100
AcDbLine
 62
7
  6
CONTINUOUS
 10
409.5367780506
 20
641.3753717967
 11
410.2264218281
 21
640.8075332351
  0
LINE
  5
7BC
100
AcDbEntity
  8
KONSTRUKTIONSELEMENTE
100
AcDbLine
 62
7
  6
CONTINUOUS
 10
413.9704336366
 20
641.9668834221
 11
414.6600773399
 21
641.3990448542
  0
LINE
  5
7BD
100
AcDbEntity
  8
KONSTRUKTIONSELEMENTE
100
AcDbLine
 62
7
  6
CONTINUOUS
 10
414.9945238072
 20
642.4734233075
 11
414.2869776619
 21
643.2488261851
  0
LINE
  5
7BE
100
AcDbEntity
  8
KONSTRUKTIONSELEMENTE
100
AcDbLine
 62
7
  6
CONTINUOUS
 10
413.116820448
 20
646.9118224401
 11
412.4092747124
 21
647.6872205669
  0
LINE
  5
7BF
100
AcDbEntity
  8
KONSTRUKTIONSELEMENTE
100
AcDbLine
 62
7
  6
CONTINUOUS
 10
416.3323098605
 20
646.7709419229
 11
417.039855596
 21
645.995543796
  0
LINE
  5
7C0
100
AcDbEntity
  8
KONSTRUKTIONSELEMENTE
100
AcDbLine
 62
7
  6
CONTINUOUS
 10
376.8124846947
 20
668.6839096551
 11
377.389966156
 21
668.0249505683
  0
LINE
  5
7C1
100
AcDbEntity
  8
KONSTRUKTIONSELEMENTE
100
AcDbLine
 62
7
  6
CONTINUOUS
 10
378.4989829982
 20
668.6016494878
 11
377.8233397553
 21
669.4493779052
  0
LINE
  5
7C2
100
AcDbEntity
  8
KONSTRUKTIONSELEMENTE
100
AcDbLine
 62
7
  6
CONTINUOUS
 10
408.8113298173
 20
642.3583342283
 11
409.5367780506
 21
641.3753717967
  0
LINE
  5
7C3
100
AcDbEntity
  8
KONSTRUKTIONSELEMENTE
100
AcDbLine
 62
7
  6
CONTINUOUS
 10
418.0818482086
 20
646.2945193718
 11
417.3563996213
 21
647.277486559
  0
LINE
  5
7C4
100
AcDbEntity
  8
KONSTRUKTIONSELEMENTE
100
AcDbLine
 62
7
  6
CONTINUOUS
 10
410.3309869244
 20
642.0711927947
 11
409.835419708
 21
642.8648788756
  0
LINE
  5
7C5
100
AcDbEntity
  8
KONSTRUKTIONSELEMENTE
100
AcDbLine
 62
7
  6
CONTINUOUS
 10
413.7226502333
 20
642.3637240872
 11
413.9704336366
 21
641.9668834221
  0
LINE
  5
7C6
100
AcDbEntity
  8
KONSTRUKTIONSELEMENTE
100
AcDbLine
 62
7
  6
CONTINUOUS
 10
412.3047096161
 20
646.4235610074
 11
412.8002764227
 21
645.6298796772
  0
LINE
  5
7C7
100
AcDbEntity
  8
KONSTRUKTIONSELEMENTE
100
AcDbLine
 62
7
  6
CONTINUOUS
 10
413.364604261
 20
646.5149770243
 11
413.116820448
 21
646.9118224401
  0
LINE
  5
7C8
100
AcDbEntity
  8
KONSTRUKTIONSELEMENTE
100
AcDbLine
 62
7
  6
CONTINUOUS
 10
405.9500261071
 20
652.3220790677
 11
406.5952527474
 21
651.2514798978
  0
LINE
  5
7C9
100
AcDbEntity
  8
KONSTRUKTIONSELEMENTE
100
AcDbLine
 62
7
  6
CONTINUOUS
 10
405.9203345402
 20
658.1420370736
 11
408.5012411014
 21
653.8596403939
  0
LINE
  5
7CA
100
AcDbEntity
  8
KONSTRUKTIONSELEMENTE
100
AcDbLine
 62
7
  6
CONTINUOUS
 10
409.1464677417
 20
652.789041224
 11
410.221846296
 21
651.0047079128
  0
LINE
  5
7CB
100
AcDbEntity
  8
KONSTRUKTIONSELEMENTE
100
AcDbLine
 62
7
  6
CONTINUOUS
 10
411.3152242966
 20
651.6636628548
 11
410.2398457423
 21
653.447996166
  0
LINE
  5
7CC
100
AcDbEntity
  8
KONSTRUKTIONSELEMENTE
100
AcDbLine
 62
7
  6
CONTINUOUS
 10
409.594619102
 20
654.5185953359
 11
407.7664777749
 21
657.5519582893
  0
LINE
  5
7CD
100
AcDbEntity
  8
KONSTRUKTIONSELEMENTE
100
AcDbLine
 62
7
  6
CONTINUOUS
 10
415.1600461067
 20
656.4132930203
 11
414.5148194664
 21
657.4838921902
  0
LINE
  5
7CE
100
AcDbEntity
  8
BEZUGSACHSEN
100
AcDbLine
 62
7
  6
CONTINUOUS
 10
430.8350795583
 20
642.1960036097
 11
409.1844444637
 21
679.6960036097
  0
LINE
  5
7CF
100
AcDbEntity
  8
0
100
AcDbLine
 62
7
  6
CONTINUOUS
 10
483.6338093691
 20
581.2855502102
 11
483.6338093691
 21
526.5401066004
  0
LINE
  5
7D0
100
AcDbEntity
  8
0
100
AcDbLine
 62
7
  6
CONTINUOUS
 10
483.6338093691
 20
489.3840254459
 11
483.6338093691
 21
434.6385818361
  0
LINE
  5
7D1
100
AcDbEntity
  8
KONSTRUKTIONSELEMENTE
100
AcDbLine
 62
7
  6
CONTINUOUS
 10
219.5599901174
 20
668.9514746148
 11
220.3974954802
 21
669.1471713928
  0
LINE
  5
7D2
100
AcDbEntity
  8
KONSTRUKTIONSELEMENTE
100
AcDbLine
 62
7
  6
CONTINUOUS
 10
377.0610207435
 20
670.0122197721
 11
375.929030861
 21
670.3828293992
  0
LINE
  5
7D3
100
AcDbEntity
  8
KONSTRUKTIONSELEMENTE
100
AcDbLine
 62
7
  6
CONTINUOUS
 10
415.6605675957
 20
647.1312208807
 11
416.3323098605
 21
646.7709419229
  0
LINE
  5
7D4
100
AcDbEntity
  8
KONSTRUKTIONSELEMENTE
100
AcDbLine
 62
7
  6
CONTINUOUS
 10
393.4744798835
 20
662.9495197899
 11
394.5638588728
 21
662.3365324999
  0
LINE
  5
7D5
100
AcDbEntity
  8
KONSTRUKTIONSELEMENTE
100
AcDbLine
 62
7
  6
CONTINUOUS
 10
397.1057417959
 20
660.9062296028
 11
398.5582498854
 21
660.0889116572
  0
LINE
  5
7D6
100
AcDbEntity
  8
KONSTRUKTIONSELEMENTE
100
AcDbLine
 62
7
  6
CONTINUOUS
 10
401.1001328086
 20
658.6586087601
 11
402.1895117979
 21
658.0456214701
  0
LINE
  5
7D7
100
AcDbEntity
  8
KONSTRUKTIONSELEMENTE
100
AcDbLine
 62
7
  6
CONTINUOUS
 10
407.0934101176
 20
666.7606533845
 11
405.4593416337
 21
667.6801343195
  0
LINE
  5
7D8
100
AcDbEntity
  8
KONSTRUKTIONSELEMENTE
100
AcDbLine
 62
7
  6
CONTINUOUS
 10
400.0124466872
 20
670.7450707694
 11
398.3783782032
 21
671.6645517043
  0
LINE
  5
7D9
100
AcDbEntity
  8
KONSTRUKTIONSELEMENTE
100
AcDbLine
 62
7
  6
CONTINUOUS
 10
376.1483269143
 20
669.0579832492
 11
376.8124846947
 21
668.6839096551
  0
LINE
  5
7DA
100
AcDbEntity
  8
KONSTRUKTIONSELEMENTE
100
AcDbLine
 62
7
  6
CONTINUOUS
 10
417.3563996213
 20
647.277486559
 11
416.666755918
 21
647.8453251269
  0
LINE
  5
7DB
100
AcDbEntity
  8
0
100
AcDbLine
 62
7
  6
CONTINUOUS
 10
508.6338093691
 20
466.4620660232
 11
508.6338093691
 21
549.4620660232
  0
ARC
  5
7DC
100
AcDbEntity
  8
RUNDUNGEN
100
AcDbCircle
 62
7
  6
CONTINUOUS
 10
209.0338093691
 20
1193.8865285415
 40
81.5
100
AcDbArc
 50
247.2932958115
 51
292.7067041885
  0
ARC
  5
7DD
100
AcDbEntity
  8
RUNDUNGEN
100
AcDbCircle
 62
7
  6
CONTINUOUS
 10
181.4338093691
 20
1127.9282841743
 40
10.0
100
AcDbArc
 50
180.0
 51
247.2932958115
  0
ARC
  5
7DE
100
AcDbEntity
  8
RUNDUNGEN
100
AcDbCircle
 62
7
  6
CONTINUOUS
 10
236.6338093691
 20
1127.9282841743
 40
10.0
100
AcDbArc
 50
292.7067041885
 51
360.0
  0
ARC
  5
7DF
100
AcDbEntity
  8
RUNDUNGEN
100
AcDbCircle
 62
7
  6
CONTINUOUS
 10
-32.7795709126
 20
1308.8865285415
 40
283.3133802817
100
AcDbArc
 50
9.6907472757
 51
25.0196963068
  0
ARC
  5
7E0
100
AcDbEntity
  8
RUNDUNGEN
100
AcDbCircle
 62
7
  6
CONTINUOUS
 10
-32.7795709126
 20
1308.8865285415
 40
200.3133802817
100
AcDbArc
 50
9.2536033964
 51
25.0196963068
  0
ARC
  5
7E1
100
AcDbEntity
  8
0
100
AcDbCircle
 62
7
  6
CONTINUOUS
 10
-32.7795709126
 20
1308.8865285415
 40
200.3133802817
100
AcDbArc
 50
9.2536033964
 51
25.0196963068
  0
ARC
  5
7E2
100
AcDbEntity
  8
RUNDUNGEN
100
AcDbCircle
 62
7
  6
CONTINUOUS
 10
151.4338093691
 20
1323.8865285415
 40
20.0
100
AcDbArc
 50
359.9995832564
 51
38.8521014626
  0
ARC
  5
7E3
100
AcDbEntity
  8
RUNDUNGEN
100
AcDbCircle
 62
7
  6
CONTINUOUS
 10
174.7968456306
 20
1342.7058954891
 40
10.0000001981
100
AcDbArc
 50
189.2536016557
 51
218.8520975262
  0
ARC
  5
7E4
100
AcDbEntity
  8
RUNDUNGEN
100
AcDbCircle
 62
7
  6
CONTINUOUS
 10
236.6338093691
 20
1354.8934175495
 40
10.0
100
AcDbArc
 50
0.0000330022
 51
9.6907798069
  0
ARC
  5
7E5
100
AcDbEntity
  8
0
100
AcDbCircle
 62
7
  6
CONTINUOUS
 10
310.0338093691
 20
1184.8865285415
 40
107.5
100
AcDbArc
 50
55.1036920293
 51
82.178849623
  0
ARC
  5
7E6
100
AcDbEntity
  8
0
100
AcDbCircle
 62
7
  6
CONTINUOUS
 10
310.0338093691
 20
1184.8865285415
 40
107.5
100
AcDbArc
 50
97.821150377
 51
124.8963079707
  0
ARC
  5
7E7
100
AcDbEntity
  8
RUNDUNGEN
100
AcDbCircle
 62
7
  6
CONTINUOUS
 10
411.0338093691
 20
1193.8865285415
 40
81.5
100
AcDbArc
 50
247.2932958115
 51
292.7067041885
  0
ARC
  5
7E8
100
AcDbEntity
  8
RUNDUNGEN
100
AcDbCircle
 62
7
  6
CONTINUOUS
 10
438.6338093691
 20
1127.9282841743
 40
10.0
100
AcDbArc
 50
292.7067041885
 51
360.0
  0
ARC
  5
7E9
100
AcDbEntity
  8
RUNDUNGEN
100
AcDbCircle
 62
7
  6
CONTINUOUS
 10
383.4338093691
 20
1127.9282841743
 40
10.0
100
AcDbArc
 50
180.0
 51
247.2932958115
  0
ARC
  5
7EA
100
AcDbEntity
  8
RUNDUNGEN
100
AcDbCircle
 62
7
  6
CONTINUOUS
 10
652.8471896508
 20
1308.8865285415
 40
283.3133802817
100
AcDbArc
 50
154.9803036932
 51
170.3092527243
  0
ARC
  5
7EB
100
AcDbEntity
  8
RUNDUNGEN
100
AcDbCircle
 62
7
  6
CONTINUOUS
 10
652.8471896508
 20
1308.8865285415
 40
200.3133802817
100
AcDbArc
 50
154.9803036932
 51
170.7463966036
  0
ARC
  5
7EC
100
AcDbEntity
  8
0
100
AcDbCircle
 62
7
  6
CONTINUOUS
 10
652.8471896508
 20
1308.8865285415
 40
200.3133802817
100
AcDbArc
 50
154.9803036932
 51
170.7463966036
  0
ARC
  5
7ED
100
AcDbEntity
  8
0
100
AcDbCircle
 62
7
  6
CONTINUOUS
 10
310.0338093691
 20
1468.8865285415
 40
178.0
100
AcDbArc
 50
334.9803036932
 51
205.0196963068
  0
ARC
  5
7EE
100
AcDbEntity
  8
0
100
AcDbCircle
 62
7
  6
CONTINUOUS
 10
310.0338093691
 20
1468.8865285415
 40
95.0
100
AcDbArc
 50
334.9803036932
 51
205.0196963068
  0
ARC
  5
7EF
100
AcDbEntity
  8
RUNDUNGEN
100
AcDbCircle
 62
7
  6
CONTINUOUS
 10
468.6338093691
 20
1323.8865285415
 40
20.0
100
AcDbArc
 50
141.1478985374
 51
180.0004649014
  0
ARC
  5
7F0
100
AcDbEntity
  8
RUNDUNGEN
100
AcDbCircle
 62
7
  6
CONTINUOUS
 10
445.2707728567
 20
1342.7058952688
 40
10.0000002172
100
AcDbArc
 50
321.1479043584
 51
350.7463998209
  0
ARC
  5
7F1
100
AcDbEntity
  8
RUNDUNGEN
100
AcDbCircle
 62
7
  6
CONTINUOUS
 10
383.4338093691
 20
1354.8934172248
 40
10.0
100
AcDbArc
 50
170.3092183591
 51
179.9999651373
  0
ARC
  5
7F2
100
AcDbEntity
  8
0
100
AcDbCircle
 62
7
  6
CONTINUOUS
 10
926.6551228282
 20
1184.8865285415
 40
107.5
100
AcDbArc
 50
112.7116395369
 51
180.0
  0
ARC
  5
7F3
100
AcDbEntity
  8
0
100
AcDbCircle
 62
7
  6
CONTINUOUS
 10
926.6551228282
 20
1184.8865285415
 40
107.5
100
AcDbArc
 50
0.0
 51
67.2883604631
  0
ARC
  5
7F4
100
AcDbEntity
  8
0
100
AcDbCircle
 62
7
  6
CONTINUOUS
 10
926.6551228282
 20
1184.8865285415
 40
88.1702897806
100
AcDbArc
 50
0.0
 51
49.78096749
  0
ARC
  5
7F5
100
AcDbEntity
  8
0
100
AcDbCircle
 62
7
  6
CONTINUOUS
 10
926.6551228282
 20
1184.8865285415
 40
88.1702897806
100
AcDbArc
 50
130.2106408059
 51
180.0
  0
ARC
  5
7F6
100
AcDbEntity
  8
BEZUGSACHSEN
100
AcDbCircle
 62
7
  6
CONTINUOUS
 10
926.6551228282
 20
1193.8865285415
 40
81.5
100
AcDbArc
 50
124.2525371623
 51
55.7474628377
  0
ARC
  5
7F7
100
AcDbEntity
  8
BEZUGSACHSEN
100
AcDbCircle
 62
7
  6
CONTINUOUS
 10
773.6752099189
 20
1058.41128661
 40
48.9752420968
100
AcDbArc
 50
90.0047084369
 51
93.1091486546
  0
ARC
  5
7F8
100
AcDbEntity
  8
BEZUGSACHSEN
100
AcDbCircle
 62
7
  6
CONTINUOUS
 10
1042.1430850921
 20
1058.41128661
 40
48.9752420968
100
AcDbArc
 50
90.0047084369
 51
93.1091486546
  0
ARC
  5
7F9
100
AcDbEntity
  8
BEZUGSACHSEN
100
AcDbCircle
 62
7
  6
CONTINUOUS
 10
907.9091475055
 20
1058.41128661
 40
48.9752420968
100
AcDbArc
 50
90.0047084369
 51
93.1091486546
  0
ARC
  5
7FA
100
AcDbEntity
  8
0
100
AcDbCircle
 62
7
  6
CONTINUOUS
 10
926.6551228282
 20
1605.3865285415
 40
41.5
100
AcDbArc
 50
0.0
 51
180.0
  0
ARC
  5
7FB
100
AcDbEntity
  8
RUNDUNGEN
100
AcDbCircle
 62
7
  6
CONTINUOUS
 10
875.1551228282
 20
1269.5172101462
 40
10.0
100
AcDbArc
 50
304.2525371623
 51
360.0
  0
ARC
  5
7FC
100
AcDbEntity
  8
RUNDUNGEN
100
AcDbCircle
 62
7
  6
CONTINUOUS
 10
978.1551228282
 20
1269.5172101462
 40
10.0
100
AcDbArc
 50
180.0
 51
235.7474628377
  0
CIRCLE
  5
7FD
100
AcDbEntity
  8
BEZUGSACHSEN
100
AcDbCircle
 62
7
  6
CONTINUOUS
 10
232.5338093691
 20
373.7281284366
 40
37.5
  0
ARC
  5
7FE
100
AcDbEntity
  8
RUNDUNGEN
100
AcDbCircle
 62
7
  6
CONTINUOUS
 10
181.4338093691
 20
442.003821656
 40
10.0
100
AcDbArc
 50
180.0
 51
247.2932958115
  0
ARC
  5
7FF
100
AcDbEntity
  8
RUNDUNGEN
100
AcDbCircle
 62
7
  6
CONTINUOUS
 10
236.6338093691
 20
442.003821656
 40
10.0
100
AcDbArc
 50
292.7067041885
 51
360.0
  0
ARC
  5
800
100
AcDbEntity
  8
BEZUGSACHSEN
100
AcDbCircle
 62
7
  6
CONTINUOUS
 10
209.0338093691
 20
507.9620660232
 40
81.5
100
AcDbArc
 50
67.2848470471
 51
112.7189588026
  0
ARC
  5
801
100
AcDbEntity
  8
BEZUGSACHSEN
100
AcDbCircle
 62
7
  6
CONTINUOUS
 10
209.0338093691
 20
507.9620660232
 40
81.5
100
AcDbArc
 50
247.2846673117
 51
292.7189279579
  0
ARC
  5
802
100
AcDbEntity
  8
0
100
AcDbCircle
 62
7
  6
CONTINUOUS
 10
173.5338093691
 20
507.9620660232
 40
41.5
100
AcDbArc
 50
90.0
 51
270.0
  0
ARC
  5
803
100
AcDbEntity
  8
BEZUGSACHSEN
100
AcDbCircle
 62
7
  6
CONTINUOUS
 10
155.0338093691
 20
507.9620660232
 40
37.5
100
AcDbArc
 50
135.2062312855
 51
224.7937687173
  0
CIRCLE
  5
804
100
AcDbEntity
  8
BEZUGSACHSEN
100
AcDbCircle
 62
7
  6
CONTINUOUS
 10
232.5338093691
 20
642.1960036097
 40
37.5
  0
ARC
  5
805
100
AcDbEntity
  8
RUNDUNGEN
100
AcDbCircle
 62
7
  6
CONTINUOUS
 10
181.4338093691
 20
573.9203103903
 40
10.0
100
AcDbArc
 50
112.7067041885
 51
180.0
  0
ARC
  5
806
100
AcDbEntity
  8
RUNDUNGEN
100
AcDbCircle
 62
7
  6
CONTINUOUS
 10
236.6338093691
 20
573.9203103903
 40
10.0
100
AcDbArc
 50
0.0
 51
67.2932958115
  0
CIRCLE
  5
807
100
AcDbEntity
  8
BEZUGSACHSEN
100
AcDbCircle
 62
7
  6
CONTINUOUS
 10
387.5338093691
 20
373.7281284366
 40
37.5
  0
ARC
  5
808
100
AcDbEntity
  8
RUNDUNGEN
100
AcDbCircle
 62
7
  6
CONTINUOUS
 10
438.6338093691
 20
442.003821656
 40
10.0
100
AcDbArc
 50
292.7067041885
 51
360.0
  0
ARC
  5
809
100
AcDbEntity
  8
RUNDUNGEN
100
AcDbCircle
 62
7
  6
CONTINUOUS
 10
383.4338093691
 20
442.003821656
 40
10.0
100
AcDbArc
 50
180.0
 51
247.2932958115
  0
ARC
  5
80A
100
AcDbEntity
  8
0
100
AcDbCircle
 62
7
  6
CONTINUOUS
 10
310.0338093691
 20
507.9620660232
 40
200.0
100
AcDbArc
 50
11.9772286252
 51
348.0227713748
  0
ARC
  5
80B
100
AcDbEntity
  8
0
100
AcDbCircle
 62
7
  6
CONTINUOUS
 10
310.0338093691
 20
507.9620660232
 40
200.0
100
AcDbArc
 50
353.2474154843
 51
6.7525845157
  0
ARC
  5
80C
100
AcDbEntity
  8
0
100
AcDbCircle
 62
7
  6
CONTINUOUS
 10
310.0338093691
 20
507.9620660232
 40
108.0
100
AcDbArc
 50
225.7460049571
 51
314.2539950429
  0
ARC
  5
80D
100
AcDbEntity
  8
0
100
AcDbCircle
 62
7
  6
CONTINUOUS
 10
310.0338093691
 20
507.9620660232
 40
108.0
100
AcDbArc
 50
45.7460049571
 51
134.2539950429
  0
ARC
  5
80E
100
AcDbEntity
  8
0
100
AcDbCircle
 62
7
  6
CONTINUOUS
 10
310.0338093691
 20
507.9620660232
 40
107.5
100
AcDbArc
 50
225.8851018014
 51
314.1148981986
  0
ARC
  5
80F
100
AcDbEntity
  8
0
100
AcDbCircle
 62
7
  6
CONTINUOUS
 10
310.0338093691
 20
507.9620660232
 40
107.5
100
AcDbArc
 50
45.8851018014
 51
134.1148981986
  0
ARC
  5
810
100
AcDbEntity
  8
BEZUGSACHSEN
100
AcDbCircle
 62
7
  6
CONTINUOUS
 10
411.0338093691
 20
507.9620660232
 40
81.5
100
AcDbArc
 50
67.2846989253
 51
112.7189381232
  0
ARC
  5
811
100
AcDbEntity
  8
BEZUGSACHSEN
100
AcDbCircle
 62
7
  6
CONTINUOUS
 10
411.0338093691
 20
507.9620660232
 40
81.5
100
AcDbArc
 50
247.2848780486
 51
292.7189678333
  0
ARC
  5
812
100
AcDbEntity
  8
0
100
AcDbCircle
 62
7
  6
CONTINUOUS
 10
446.5338093691
 20
507.9620660232
 40
41.5
100
AcDbArc
 50
270.0
 51
90.0
  0
CIRCLE
  5
813
100
AcDbEntity
  8
BEZUGSACHSEN
100
AcDbCircle
 62
7
  6
CONTINUOUS
 10
387.5338093691
 20
642.1960036097
 40
37.5
  0
ARC
  5
814
100
AcDbEntity
  8
RUNDUNGEN
100
AcDbCircle
 62
7
  6
CONTINUOUS
 10
438.6338093691
 20
573.9203103903
 40
10.0
100
AcDbArc
 50
0.0
 51
67.2932958115
  0
ARC
  5
815
100
AcDbEntity
  8
RUNDUNGEN
100
AcDbCircle
 62
7
  6
CONTINUOUS
 10
383.4338093691
 20
573.9203103903
 40
10.0
100
AcDbArc
 50
112.7067041885
 51
180.0
  0
SPLINE
  5
816
100
AcDbEntity
  8
BEZUGSACHSEN
100
AcDbSpline
 62
7
  6
CONTINUOUS
 70
0
 71
3
 72
10
 73
6
 74
0
 42
0.0000001
 43
0.0000001
 44
0.0000000001
 40
0.0
 40
0.0
 40
0.0
 40
0.0
 40
0.4999046085
 40
0.749955089
 40
1.0
 40
1.0
 40
1.0
 40
1.0
 10
443.3831742745
 20
1104.0371636361
 30
0.0
 10
446.9009450851
 20
1105.0526565983
 30
0.0
 10
452.2638662714
 20
1106.3221916563
 30
0.0
 10
459.5376760976
 20
1107.2302320895
 30
0.0
 10
463.2024252264
 20
1107.3865285444
 30
0.0
 10
465.0338094713
 20
1107.3865285444
 30
0.0
  0
SPLINE
  5
817
100
AcDbEntity
  8
BEZUGSACHSEN
100
AcDbSpline
 62
7
  6
CONTINUOUS
 70
0
 71
3
 72
10
 73
6
 74
0
 42
0.0000001
 43
0.0000001
 44
0.0000000001
 40
0.0
 40
0.0
 40
0.0
 40
0.0
 40
0.2500450529
 40
0.500095578
 40
1.0
 40
1.0
 40
1.0
 40
1.0
 10
465.0338094713
 20
1107.3865285444
 30
0.0
 10
466.8651947382
 20
1107.3865285444
 30
0.0
 10
470.5299451821
 20
1107.2302316298
 30
0.0
 10
477.8037549448
 20
1106.3221913256
 30
0.0
 10
483.1666749985
 20
1105.0526562099
 30
0.0
 10
486.6844444637
 20
1104.0371636361
 30
0.0
  0
SPLINE
  5
818
100
AcDbEntity
  8
BEZUGSACHSEN
100
AcDbSpline
 62
7
  6
CONTINUOUS
 70
0
 71
3
 72
11
 73
7
 74
0
 42
0.0000001
 43
0.0000001
 44
0.0000000001
 40
0.0
 40
0.0
 40
0.0
 40
0.0
 40
0.2616462713
 40
0.5145010125
 40
0.7595982368
 40
1.0
 40
1.0
 40
1.0
 40
1.0
 10
486.6844444637
 20
1104.0371636361
 30
0.0
 10
487.5498161638
 20
1104.53678622
 30
0.0
 10
489.2907621424
 20
1105.4543119356
 30
0.0
 10
491.9901801319
 20
1106.5350526706
 30
0.0
 10
494.7340593305
 20
1107.2264567538
 30
0.0
 10
496.5916510828
 20
1107.3865285413
 30
0.0
 10
497.509762008
 20
1107.3865285415
 30
0.0
  0
SPLINE
  5
819
100
AcDbEntity
  8
BEZUGSACHSEN
100
AcDbSpline
 62
7
  6
CONTINUOUS
 70
0
 71
3
 72
11
 73
7
 74
0
 42
0.0000001
 43
0.0000001
 44
0.0000000001
 40
0.0
 40
0.0
 40
0.0
 40
0.0
 40
0.2404017719
 40
0.4854989971
 40
0.7383537318
 40
1.0
 40
1.0
 40
1.0
 40
1.0
 10
497.509762008
 20
1107.3865285415
 30
0.0
 10
498.4278729668
 20
1107.3865285417
 30
0.0
 10
500.2854647551
 20
1107.2264567299
 30
0.0
 10
503.0293439672
 20
1106.5350526508
 30
0.0
 10
505.7287619217
 20
1105.4543119126
 30
0.0
 10
507.4697078682
 20
1104.5367862143
 30
0.0
 10
508.3350795583
 20
1104.0371636361
 30
0.0
  0
SPLINE
  5
81A
100
AcDbEntity
  8
BEZUGSACHSEN
100
AcDbSpline
 62
7
  6
CONTINUOUS
 70
0
 71
3
 72
9
 73
5
 74
0
 42
0.0000001
 43
0.0000001
 44
0.0000000001
 40
0.0
 40
0.0
 40
0.0
 40
0.0
 40
0.5053351921
 40
1.0
 40
1.0
 40
1.0
 40
1.0
 10
426.7814963043
 20
1106.3823950608
 30
0.0
 10
427.7197363614
 20
1106.7013726998
 30
0.0
 10
429.6231185336
 20
1107.2073588976
 30
0.0
 10
431.5878018334
 20
1107.3865285414
 30
0.0
 10
432.5578567271
 20
1107.3865285415
 30
0.0
  0
SPLINE
  5
81B
100
AcDbEntity
  8
BEZUGSACHSEN
100
AcDbSpline
 62
7
  6
CONTINUOUS
 70
0
 71
3
 72
11
 73
7
 74
0
 42
0.0000001
 43
0.0000001
 44
0.0000000001
 40
0.0
 40
0.0
 40
0.0
 40
0.0
 40
0.2404017719
 40
0.4854989971
 40
0.7383537318
 40
1.0
 40
1.0
 40
1.0
 40
1.0
 10
432.5578567271
 20
1107.3865285415
 30
0.0
 10
433.4759676857
 20
1107.3865285415
 30
0.0
 10
435.3335594735
 20
1107.2264567294
 30
0.0
 10
438.0774386848
 20
1106.5350526503
 30
0.0
 10
440.7768566386
 20
1105.4543119123
 30
0.0
 10
442.5178025846
 20
1104.5367862142
 30
0.0
 10
443.3831742745
 20
1104.0371636361
 30
0.0
  0
SPLINE
  5
81C
100
AcDbEntity
  8
BEZUGSACHSEN
100
AcDbSpline
 62
7
  6
CONTINUOUS
 70
0
 71
3
 72
10
 73
6
 74
0
 42
0.0000001
 43
0.0000001
 44
0.0000000001
 40
0.0
 40
0.0
 40
0.0
 40
0.0
 40
0.4999046085
 40
0.749955089
 40
1.0
 40
1.0
 40
1.0
 40
1.0
 10
133.3831742745
 20
1104.0371636361
 30
0.0
 10
136.9009450851
 20
1105.0526565983
 30
0.0
 10
142.2638662714
 20
1106.3221916563
 30
0.0
 10
149.5376760976
 20
1107.2302320895
 30
0.0
 10
153.2024252264
 20
1107.3865285444
 30
0.0
 10
155.0338094713
 20
1107.3865285444
 30
0.0
  0
SPLINE
  5
81D
100
AcDbEntity
  8
BEZUGSACHSEN
100
AcDbSpline
 62
7
  6
CONTINUOUS
 70
0
 71
3
 72
10
 73
6
 74
0
 42
0.0000001
 43
0.0000001
 44
0.0000000001
 40
0.0
 40
0.0
 40
0.0
 40
0.0
 40
0.2500450529
 40
0.500095578
 40
1.0
 40
1.0
 40
1.0
 40
1.0
 10
155.0338094713
 20
1107.3865285444
 30
0.0
 10
156.8651947382
 20
1107.3865285444
 30
0.0
 10
160.5299451821
 20
1107.2302316298
 30
0.0
 10
167.8037549448
 20
1106.3221913256
 30
0.0
 10
173.1666749985
 20
1105.0526562099
 30
0.0
 10
176.6844444637
 20
1104.0371636361
 30
0.0
  0
SPLINE
  5
81E
100
AcDbEntity
  8
BEZUGSACHSEN
100
AcDbSpline
 62
7
  6
CONTINUOUS
 70
0
 71
3
 72
11
 73
7
 74
0
 42
0.0000001
 43
0.0000001
 44
0.0000000001
 40
0.0
 40
0.0
 40
0.0
 40
0.0
 40
0.2616462713
 40
0.5145010125
 40
0.7595982368
 40
1.0
 40
1.0
 40
1.0
 40
1.0
 10
176.6844444637
 20
1104.0371636361
 30
0.0
 10
177.5498161638
 20
1104.53678622
 30
0.0
 10
179.2907621424
 20
1105.4543119356
 30
0.0
 10
181.9901801319
 20
1106.5350526706
 30
0.0
 10
184.7340593305
 20
1107.2264567538
 30
0.0
 10
186.5916510828
 20
1107.3865285413
 30
0.0
 10
187.509762008
 20
1107.3865285415
 30
0.0
  0
SPLINE
  5
81F
100
AcDbEntity
  8
BEZUGSACHSEN
100
AcDbSpline
 62
7
  6
CONTINUOUS
 70
0
 71
3
 72
9
 73
5
 74
0
 42
0.0000001
 43
0.0000001
 44
0.0000000001
 40
0.0
 40
0.0
 40
0.0
 40
0.0
 40
0.4946648158
 40
1.0
 40
1.0
 40
1.0
 40
1.0
 10
187.509762008
 20
1107.3865285415
 30
0.0
 10
188.4798170143
 20
1107.3865285417
 30
0.0
 10
190.4445005084
 20
1107.2073588335
 30
0.0
 10
192.3478828636
 20
1106.7013725625
 30
0.0
 10
193.2861229938
 20
1106.3823948785
 30
0.0
  0
SPLINE
  5
820
100
AcDbEntity
  8
BEZUGSACHSEN
100
AcDbSpline
 62
7
  6
CONTINUOUS
 70
0
 71
3
 72
11
 73
7
 74
0
 42
0.0000001
 43
0.0000001
 44
0.0000000001
 40
0.0
 40
0.0
 40
0.0
 40
0.0
 40
0.2616462713
 40
0.5145010125
 40
0.7595982368
 40
1.0
 40
1.0
 40
1.0
 40
1.0
 10
111.7325391799
 20
1104.0371636361
 30
0.0
 10
112.5979108802
 20
1104.5367862202
 30
0.0
 10
114.3388568592
 20
1105.4543119359
 30
0.0
 10
117.0382748495
 20
1106.5350526711
 30
0.0
 10
119.7821540489
 20
1107.2264567542
 30
0.0
 10
121.6397458017
 20
1107.3865285414
 30
0.0
 10
122.5578567271
 20
1107.3865285415
 30
0.0
  0
SPLINE
  5
821
100
AcDbEntity
  8
BEZUGSACHSEN
100
AcDbSpline
 62
7
  6
CONTINUOUS
 70
0
 71
3
 72
11
 73
7
 74
0
 42
0.0000001
 43
0.0000001
 44
0.0000000001
 40
0.0
 40
0.0
 40
0.0
 40
0.0
 40
0.2404017719
 40
0.4854989971
 40
0.7383537318
 40
1.0
 40
1.0
 40
1.0
 40
1.0
 10
122.5578567271
 20
1107.3865285415
 30
0.0
 10
123.4759676857
 20
1107.3865285415
 30
0.0
 10
125.3335594735
 20
1107.2264567294
 30
0.0
 10
128.0774386848
 20
1106.5350526503
 30
0.0
 10
130.7768566386
 20
1105.4543119123
 30
0.0
 10
132.5178025846
 20
1104.5367862142
 30
0.0
 10
133.3831742745
 20
1104.0371636361
 30
0.0
  0
SPLINE
  5
822
100
AcDbEntity
  8
BEZUGSACHSEN
100
AcDbSpline
 62
7
  6
CONTINUOUS
 70
0
 71
3
 72
11
 73
7
 74
0
 42
0.0000001
 43
0.0000001
 44
0.0000000001
 40
0.0
 40
0.0
 40
0.0
 40
0.0
 40
0.2404017719
 40
0.4854989971
 40
0.7383537318
 40
1.0
 40
1.0
 40
1.0
 40
1.0
 10
355.0578567271
 20
1107.3865285415
 30
0.0
 10
355.9759676857
 20
1107.3865285415
 30
0.0
 10
357.8335594735
 20
1107.2264567294
 30
0.0
 10
360.5774386848
 20
1106.5350526503
 30
0.0
 10
363.2768566386
 20
1105.4543119123
 30
0.0
 10
365.0178025846
 20
1104.5367862142
 30
0.0
 10
365.8831742745
 20
1104.0371636361
 30
0.0
  0
SPLINE
  5
823
100
AcDbEntity
  8
BEZUGSACHSEN
100
AcDbSpline
 62
7
  6
CONTINUOUS
 70
0
 71
3
 72
11
 73
7
 74
0
 42
0.0000001
 43
0.0000001
 44
0.0000000001
 40
0.0
 40
0.0
 40
0.0
 40
0.0
 40
0.2616462713
 40
0.5145010125
 40
0.7595982368
 40
1.0
 40
1.0
 40
1.0
 40
1.0
 10
344.2325391799
 20
1104.0371636361
 30
0.0
 10
345.0979108802
 20
1104.5367862202
 30
0.0
 10
346.8388568592
 20
1105.4543119359
 30
0.0
 10
349.5382748495
 20
1106.5350526711
 30
0.0
 10
352.2821540489
 20
1107.2264567542
 30
0.0
 10
354.1397458017
 20
1107.3865285414
 30
0.0
 10
355.0578567271
 20
1107.3865285415
 30
0.0
  0
SPLINE
  5
824
100
AcDbEntity
  8
BEZUGSACHSEN
100
AcDbSpline
 62
7
  6
CONTINUOUS
 70
0
 71
3
 72
10
 73
6
 74
0
 42
0.0000001
 43
0.0000001
 44
0.0000000001
 40
0.0
 40
0.0
 40
0.0
 40
0.0
 40
0.4999046085
 40
0.749955089
 40
1.0
 40
1.0
 40
1.0
 40
1.0
 10
365.8831742745
 20
1104.0371636361
 30
0.0
 10
369.4009450851
 20
1105.0526565983
 30
0.0
 10
374.7638662714
 20
1106.3221916563
 30
0.0
 10
382.0376760976
 20
1107.2302320895
 30
0.0
 10
385.7024252264
 20
1107.3865285444
 30
0.0
 10
387.5338094713
 20
1107.3865285444
 30
0.0
  0
SPLINE
  5
825
100
AcDbEntity
  8
BEZUGSACHSEN
100
AcDbSpline
 62
7
  6
CONTINUOUS
 70
0
 71
3
 72
10
 73
6
 74
0
 42
0.0000001
 43
0.0000001
 44
0.0000000001
 40
0.0
 40
0.0
 40
0.0
 40
0.0
 40
0.2500450529
 40
0.500095578
 40
1.0
 40
1.0
 40
1.0
 40
1.0
 10
387.5338094713
 20
1107.3865285444
 30
0.0
 10
389.3651947382
 20
1107.3865285444
 30
0.0
 10
393.0299451821
 20
1107.2302316298
 30
0.0
 10
400.3037549448
 20
1106.3221913256
 30
0.0
 10
405.6666749985
 20
1105.0526562099
 30
0.0
 10
409.1844444637
 20
1104.0371636361
 30
0.0
  0
SPLINE
  5
826
100
AcDbEntity
  8
BEZUGSACHSEN
100
AcDbSpline
 62
7
  6
CONTINUOUS
 70
0
 71
3
 72
11
 73
7
 74
0
 42
0.0000001
 43
0.0000001
 44
0.0000000001
 40
0.0
 40
0.0
 40
0.0
 40
0.0
 40
0.2616462713
 40
0.5145010125
 40
0.7595982368
 40
1.0
 40
1.0
 40
1.0
 40
1.0
 10
409.1844444637
 20
1104.0371636361
 30
0.0
 10
410.0498161638
 20
1104.53678622
 30
0.0
 10
411.7907621424
 20
1105.4543119356
 30
0.0
 10
414.4901801319
 20
1106.5350526706
 30
0.0
 10
417.2340593305
 20
1107.2264567538
 30
0.0
 10
419.0916510828
 20
1107.3865285413
 30
0.0
 10
420.009762008
 20
1107.3865285415
 30
0.0
  0
SPLINE
  5
827
100
AcDbEntity
  8
BEZUGSACHSEN
100
AcDbSpline
 62
7
  6
CONTINUOUS
 70
0
 71
3
 72
11
 73
7
 74
0
 42
0.0000001
 43
0.0000001
 44
0.0000000001
 40
0.0
 40
0.0
 40
0.0
 40
0.0
 40
0.2404017719
 40
0.4854989971
 40
0.7383537318
 40
1.0
 40
1.0
 40
1.0
 40
1.0
 10
420.009762008
 20
1107.3865285415
 30
0.0
 10
420.9278729668
 20
1107.3865285417
 30
0.0
 10
422.7854647551
 20
1107.2264567299
 30
0.0
 10
425.5293439672
 20
1106.5350526508
 30
0.0
 10
428.2287619217
 20
1105.4543119126
 30
0.0
 10
429.9697078682
 20
1104.5367862143
 30
0.0
 10
430.8350795583
 20
1104.0371636361
 30
0.0
  0
SPLINE
  5
828
100
AcDbEntity
  8
BEZUGSACHSEN
100
AcDbSpline
 62
7
  6
CONTINUOUS
 70
0
 71
3
 72
11
 73
7
 74
0
 42
0.0000001
 43
0.0000001
 44
0.0000000001
 40
0.0
 40
0.0
 40
0.0
 40
0.0
 40
0.2404017719
 40
0.4854989971
 40
0.7383537318
 40
1.0
 40
1.0
 40
1.0
 40
1.0
 10
200.0578567271
 20
1107.3865285415
 30
0.0
 10
200.9759676857
 20
1107.3865285415
 30
0.0
 10
202.8335594735
 20
1107.2264567294
 30
0.0
 10
205.5774386848
 20
1106.5350526503
 30
0.0
 10
208.2768566386
 20
1105.4543119123
 30
0.0
 10
210.0178025846
 20
1104.5367862142
 30
0.0
 10
210.8831742745
 20
1104.0371636361
 30
0.0
  0
SPLINE
  5
829
100
AcDbEntity
  8
BEZUGSACHSEN
100
AcDbSpline
 62
7
  6
CONTINUOUS
 70
0
 71
3
 72
11
 73
7
 74
0
 42
0.0000001
 43
0.0000001
 44
0.0000000001
 40
0.0
 40
0.0
 40
0.0
 40
0.0
 40
0.2616462713
 40
0.5145010125
 40
0.7595982368
 40
1.0
 40
1.0
 40
1.0
 40
1.0
 10
189.2325391799
 20
1104.0371636361
 30
0.0
 10
190.0979108802
 20
1104.5367862202
 30
0.0
 10
191.8388568592
 20
1105.4543119359
 30
0.0
 10
194.5382748495
 20
1106.5350526711
 30
0.0
 10
197.2821540489
 20
1107.2264567542
 30
0.0
 10
199.1397458017
 20
1107.3865285414
 30
0.0
 10
200.0578567271
 20
1107.3865285415
 30
0.0
  0
SPLINE
  5
82A
100
AcDbEntity
  8
BEZUGSACHSEN
100
AcDbSpline
 62
7
  6
CONTINUOUS
 70
0
 71
3
 72
10
 73
6
 74
0
 42
0.0000001
 43
0.0000001
 44
0.0000000001
 40
0.0
 40
0.0
 40
0.0
 40
0.0
 40
0.4999046085
 40
0.749955089
 40
1.0
 40
1.0
 40
1.0
 40
1.0
 10
210.8831742745
 20
1104.0371636361
 30
0.0
 10
214.4009450851
 20
1105.0526565983
 30
0.0
 10
219.7638662714
 20
1106.3221916563
 30
0.0
 10
227.0376760976
 20
1107.2302320895
 30
0.0
 10
230.7024252264
 20
1107.3865285444
 30
0.0
 10
232.5338094713
 20
1107.3865285444
 30
0.0
  0
SPLINE
  5
82B
100
AcDbEntity
  8
BEZUGSACHSEN
100
AcDbSpline
 62
7
  6
CONTINUOUS
 70
0
 71
3
 72
10
 73
6
 74
0
 42
0.0000001
 43
0.0000001
 44
0.0000000001
 40
0.0
 40
0.0
 40
0.0
 40
0.0
 40
0.2500450529
 40
0.500095578
 40
1.0
 40
1.0
 40
1.0
 40
1.0
 10
232.5338094713
 20
1107.3865285444
 30
0.0
 10
234.3651947382
 20
1107.3865285444
 30
0.0
 10
238.0299451821
 20
1107.2302316298
 30
0.0
 10
245.3037549448
 20
1106.3221913256
 30
0.0
 10
250.6666749985
 20
1105.0526562099
 30
0.0
 10
254.1844444637
 20
1104.0371636361
 30
0.0
  0
SPLINE
  5
82C
100
AcDbEntity
  8
BEZUGSACHSEN
100
AcDbSpline
 62
7
  6
CONTINUOUS
 70
0
 71
3
 72
11
 73
7
 74
0
 42
0.0000001
 43
0.0000001
 44
0.0000000001
 40
0.0
 40
0.0
 40
0.0
 40
0.0
 40
0.2616462713
 40
0.5145010125
 40
0.7595982368
 40
1.0
 40
1.0
 40
1.0
 40
1.0
 10
254.1844444637
 20
1104.0371636361
 30
0.0
 10
255.0498161638
 20
1104.53678622
 30
0.0
 10
256.7907621424
 20
1105.4543119356
 30
0.0
 10
259.4901801319
 20
1106.5350526706
 30
0.0
 10
262.2340593305
 20
1107.2264567538
 30
0.0
 10
264.0916510828
 20
1107.3865285413
 30
0.0
 10
265.009762008
 20
1107.3865285415
 30
0.0
  0
SPLINE
  5
82D
100
AcDbEntity
  8
BEZUGSACHSEN
100
AcDbSpline
 62
7
  6
CONTINUOUS
 70
0
 71
3
 72
11
 73
7
 74
0
 42
0.0000001
 43
0.0000001
 44
0.0000000001
 40
0.0
 40
0.0
 40
0.0
 40
0.0
 40
0.2404017719
 40
0.4854989971
 40
0.7383537318
 40
1.0
 40
1.0
 40
1.0
 40
1.0
 10
265.009762008
 20
1107.3865285415
 30
0.0
 10
265.9278729668
 20
1107.3865285417
 30
0.0
 10
267.7854647551
 20
1107.2264567299
 30
0.0
 10
270.5293439672
 20
1106.5350526508
 30
0.0
 10
273.2287619217
 20
1105.4543119126
 30
0.0
 10
274.9697078682
 20
1104.5367862143
 30
0.0
 10
275.8350795583
 20
1104.0371636361
 30
0.0
  0
SPLINE
  5
82E
100
AcDbEntity
  8
BEZUGSACHSEN
100
AcDbSpline
 62
7
  6
CONTINUOUS
 70
0
 71
3
 72
10
 73
6
 74
0
 42
0.0000001
 43
0.0000001
 44
0.0000000001
 40
0.0
 40
0.0
 40
0.0
 40
0.0
 40
0.2489202642
 40
0.4983930055
 40
1.0
 40
1.0
 40
1.0
 40
1.0
 10
811.1711852414
 20
1107.3865285415
 30
0.0
 10
812.7576755021
 20
1107.3865285415
 30
0.0
 10
815.9363970814
 20
1107.2298118806
 30
0.0
 10
822.2514853213
 20
1106.3185137236
 30
0.0
 10
826.8882579745
 20
1105.0481393918
 30
0.0
 10
829.9211852416
 20
1104.0371636361
 30
0.0
  0
SPLINE
  5
82F
100
AcDbEntity
  8
BEZUGSACHSEN
100
AcDbSpline
 62
7
  6
CONTINUOUS
 70
0
 71
3
 72
10
 73
6
 74
0
 42
0.0000001
 43
0.0000001
 44
0.0000000001
 40
0.0
 40
0.0
 40
0.0
 40
0.0
 40
0.5016070043
 40
0.7510797447
 40
1.0
 40
1.0
 40
1.0
 40
1.0
 10
792.4211852416
 20
1104.0371636361
 30
0.0
 10
795.4541125676
 20
1105.0481394114
 30
0.0
 10
800.0908852799
 20
1106.3185137411
 30
0.0
 10
806.4059735194
 20
1107.229811905
 30
0.0
 10
809.5846950375
 20
1107.3865285414
 30
0.0
 10
811.1711852414
 20
1107.3865285415
 30
0.0
  0
SPLINE
  5
830
100
AcDbEntity
  8
BEZUGSACHSEN
100
AcDbSpline
 62
7
  6
CONTINUOUS
 70
0
 71
3
 72
9
 73
5
 74
0
 42
0.0000001
 43
0.0000001
 44
0.0000000001
 40
0.0
 40
0.0
 40
0.0
 40
0.0
 40
0.5017258138
 40
1.0
 40
1.0
 40
1.0
 40
1.0
 10
754.9211852416
 20
1104.0371636361
 30
0.0
 10
757.5335487041
 20
1104.9079514569
 30
0.0
 10
762.8269459928
 20
1106.403356955
 30
0.0
 10
768.2881641573
 20
1107.1663085827
 30
0.0
 10
771.0188783579
 20
1107.3144382577
 30
0.0
  0
SPLINE
  5
831
100
AcDbEntity
  8
BEZUGSACHSEN
100
AcDbSpline
 62
7
  6
CONTINUOUS
 70
0
 71
3
 72
10
 73
6
 74
0
 42
0.0000001
 43
0.0000001
 44
0.0000000001
 40
0.0
 40
0.0
 40
0.0
 40
0.0
 40
0.2489202642
 40
0.4983930055
 40
1.0
 40
1.0
 40
1.0
 40
1.0
 10
773.6711852449
 20
1107.3865285415
 30
0.0
 10
775.2576755053
 20
1107.3865285414
 30
0.0
 10
778.436397084
 20
1107.2298118804
 30
0.0
 10
784.7514853227
 20
1106.3185137232
 30
0.0
 10
789.3882579751
 20
1105.0481393916
 30
0.0
 10
792.4211852416
 20
1104.0371636361
 30
0.0
  0
SPLINE
  5
832
100
AcDbEntity
  8
BEZUGSACHSEN
100
AcDbSpline
 62
7
  6
CONTINUOUS
 70
0
 71
3
 72
10
 73
6
 74
0
 42
0.0000001
 43
0.0000001
 44
0.0000000001
 40
0.0
 40
0.0
 40
0.0
 40
0.0
 40
0.5016070043
 40
0.7510797447
 40
1.0
 40
1.0
 40
1.0
 40
1.0
 10
1060.8890604148
 20
1104.0371636361
 30
0.0
 10
1063.9219877408
 20
1105.0481394114
 30
0.0
 10
1068.5587604531
 20
1106.3185137411
 30
0.0
 10
1074.8738486925
 20
1107.229811905
 30
0.0
 10
1078.0525702106
 20
1107.3865285414
 30
0.0
 10
1079.6390604146
 20
1107.3865285415
 30
0.0
  0
SPLINE
  5
833
100
AcDbEntity
  8
BEZUGSACHSEN
100
AcDbSpline
 62
7
  6
CONTINUOUS
 70
0
 71
3
 72
10
 73
6
 74
0
 42
0.0000001
 43
0.0000001
 44
0.0000000001
 40
0.0
 40
0.0
 40
0.0
 40
0.0
 40
0.2489202642
 40
0.4983930055
 40
1.0
 40
1.0
 40
1.0
 40
1.0
 10
1079.6390604146
 20
1107.3865285415
 30
0.0
 10
1081.2255506753
 20
1107.3865285415
 30
0.0
 10
1084.4042722546
 20
1107.2298118806
 30
0.0
 10
1090.7193604945
 20
1106.3185137236
 30
0.0
 10
1095.3561331477
 20
1105.0481393918
 30
0.0
 10
1098.3890604148
 20
1104.0371636361
 30
0.0
  0
SPLINE
  5
834
100
AcDbEntity
  8
BEZUGSACHSEN
100
AcDbSpline
 62
7
  6
CONTINUOUS
 70
0
 71
3
 72
10
 73
6
 74
0
 42
0.0000001
 43
0.0000001
 44
0.0000000001
 40
0.0
 40
0.0
 40
0.0
 40
0.0
 40
0.2489202642
 40
0.4983930055
 40
1.0
 40
1.0
 40
1.0
 40
1.0
 10
1042.1390604181
 20
1107.3865285415
 30
0.0
 10
1043.7255506784
 20
1107.3865285414
 30
0.0
 10
1046.9042722572
 20
1107.2298118804
 30
0.0
 10
1053.2193604959
 20
1106.3185137232
 30
0.0
 10
1057.8561331483
 20
1105.0481393916
 30
0.0
 10
1060.8890604148
 20
1104.0371636361
 30
0.0
  0
SPLINE
  5
835
100
AcDbEntity
  8
BEZUGSACHSEN
100
AcDbSpline
 62
7
  6
CONTINUOUS
 70
0
 71
3
 72
9
 73
5
 74
0
 42
0.0000001
 43
0.0000001
 44
0.0000000001
 40
0.0
 40
0.0
 40
0.0
 40
0.0
 40
0.5017258138
 40
1.0
 40
1.0
 40
1.0
 40
1.0
 10
1023.3890604148
 20
1104.0371636361
 30
0.0
 10
1026.0014238773
 20
1104.9079514569
 30
0.0
 10
1031.2948211659
 20
1106.403356955
 30
0.0
 10
1036.7560393305
 20
1107.1663085827
 30
0.0
 10
1039.4867535311
 20
1107.3144382577
 30
0.0
  0
SPLINE
  5
836
100
AcDbEntity
  8
BEZUGSACHSEN
100
AcDbSpline
 62
7
  6
CONTINUOUS
 70
0
 71
3
 72
10
 73
6
 74
0
 42
0.0000001
 43
0.0000001
 44
0.0000000001
 40
0.0
 40
0.0
 40
0.0
 40
0.0
 40
0.2489202642
 40
0.4983930055
 40
1.0
 40
1.0
 40
1.0
 40
1.0
 10
945.405122828
 20
1107.3865285415
 30
0.0
 10
946.9916130887
 20
1107.3865285415
 30
0.0
 10
950.170334668
 20
1107.2298118806
 30
0.0
 10
956.4854229079
 20
1106.3185137236
 30
0.0
 10
961.1221955611
 20
1105.0481393918
 30
0.0
 10
964.1551228282
 20
1104.0371636361
 30
0.0
  0
SPLINE
  5
837
100
AcDbEntity
  8
BEZUGSACHSEN
100
AcDbSpline
 62
7
  6
CONTINUOUS
 70
0
 71
3
 72
10
 73
6
 74
0
 42
0.0000001
 43
0.0000001
 44
0.0000000001
 40
0.0
 40
0.0
 40
0.0
 40
0.0
 40
0.5016070043
 40
0.7510797447
 40
1.0
 40
1.0
 40
1.0
 40
1.0
 10
926.6551228282
 20
1104.0371636361
 30
0.0
 10
929.6880501542
 20
1105.0481394114
 30
0.0
 10
934.3248228665
 20
1106.3185137411
 30
0.0
 10
940.6399111059
 20
1107.229811905
 30
0.0
 10
943.818632624
 20
1107.3865285414
 30
0.0
 10
945.405122828
 20
1107.3865285415
 30
0.0
  0
SPLINE
  5
838
100
AcDbEntity
  8
BEZUGSACHSEN
100
AcDbSpline
 62
7
  6
CONTINUOUS
 70
0
 71
3
 72
9
 73
5
 74
0
 42
0.0000001
 43
0.0000001
 44
0.0000000001
 40
0.0
 40
0.0
 40
0.0
 40
0.0
 40
0.5017258138
 40
1.0
 40
1.0
 40
1.0
 40
1.0
 10
889.1551228282
 20
1104.0371636361
 30
0.0
 10
891.7674862907
 20
1104.9079514569
 30
0.0
 10
897.0608835794
 20
1106.403356955
 30
0.0
 10
902.5221017439
 20
1107.1663085827
 30
0.0
 10
905.2528159445
 20
1107.3144382577
 30
0.0
  0
SPLINE
  5
839
100
AcDbEntity
  8
BEZUGSACHSEN
100
AcDbSpline
 62
7
  6
CONTINUOUS
 70
0
 71
3
 72
10
 73
6
 74
0
 42
0.0000001
 43
0.0000001
 44
0.0000000001
 40
0.0
 40
0.0
 40
0.0
 40
0.0
 40
0.2489202642
 40
0.4983930055
 40
1.0
 40
1.0
 40
1.0
 40
1.0
 10
907.9051228315
 20
1107.3865285415
 30
0.0
 10
909.4916130919
 20
1107.3865285414
 30
0.0
 10
912.6703346706
 20
1107.2298118804
 30
0.0
 10
918.9854229093
 20
1106.3185137232
 30
0.0
 10
923.6221955617
 20
1105.0481393916
 30
0.0
 10
926.6551228282
 20
1104.0371636361
 30
0.0
  0
ENDSEC
  0
SECTION
  2
OBJECTS
  0
DICTIONARY
  5
C
100
AcDbDictionary
280
0
281
1
  3
ACAD_GROUP
350
D
  3
ACAD_MLINESTYLE
350
17
  3
ACAD_LAYOUT
350
1A
  3
ACAD_PLOTSETTINGS
350
19
  3
ACAD_PLOTSTYLENAME
350
E
  0
DICTIONARY
  5
D
102
{ACAD_REACTORS
330
C
102
}
100
AcDbDictionary
280
0
281
1
  0
ACDBDICTIONARYWDFLT
  5
E
102
{ACAD_REACTORS
330
C
102
}
100
AcDbDictionary
281
1
  3
Normal
350
F
100
AcDbDictionaryWithDefault
340
F
  0
DICTIONARY
  5
17
102
{ACAD_REACTORS
330
C
102
}
100
AcDbDictionary
280
0
281
1
  3
Standard
350
18
  0
DICTIONARY
  5
19
102
{ACAD_REACTORS
330
C
102
}
100
AcDbDictionary
281
1
  0
DICTIONARY
  5
1A
102
{ACAD_REACTORS
330
C
102
}
100
AcDbDictionary
281
1
  3
Model
350
83A
  3
Layout1
350
83B
  0
ACDBPLACEHOLDER
  5
F
102
{ACAD_REACTORS
330
E
102
}
  0
MLINESTYLE
  5
18
102
{ACAD_REACTORS
330
17
102
}
100
AcDbMlineStyle
  2
STANDARD
 70
0
  3

 62
256
 51
90.0
 52
90.0
 71
2
 49
0.5
 62
256
  6
BYLAYER
 49
-0.5
 62
256
  6
BYLAYER
  0
LAYOUT
  5
83A
102
{ACAD_REACTORS
330
1A
102
}
100
AcDbPlotSettings
  1

  2
none_device
  4
ISO_A0_(1189.00_x_841.00_MM)
  6

 40
0.0
 41
0.0
 42
0.0
 43
0.0
 44
1189.0
 45
841.0
 46
0.0
 47
0.0
 48
0.0
 49
0.0
140
0.0
141
0.0
142
1.0
143
1.0
 70
1024
 72
1
 73
0
 74
0
  7

 75
0
147
1.0
148
0.0
149
0.0
100
AcDbLayout
  1
Model
 70
0
 71
0
 10
0.0
 20
0.0
 11
1189.0
 21
841.0
 12
0.0
 22
0.0
 32
0.0
 14
0.0
 24
0.0
 34
0.0
 15
0.0
 25
0.0
 35
0.0
146
0.0
 13
0.0
 23
0.0
 33
0.0
 16
1.0
 26
0.0
 36
0.0
 17
0.0
 27
1.0
 37
0.0
 76
0
330
20E
345
0
346
0
  0
LAYOUT
  5
83B
102
{ACAD_REACTORS
330
1A
102
}
100
AcDbPlotSettings
  1

  2
none_device
  4
ISO_A0_(1189.00_x_841.00_MM)
  6

 40
0.0
 41
0.0
 42
0.0
 43
0.0
 44
1189.0
 45
841.0
 46
0.0
 47
0.0
 48
0.0
 49
0.0
140
0.0
141
0.0
142
1.0
143
1.0
 70
0
 72
1
 73
0
 74
0
  7

 75
0
147
1.0
148
0.0
149
0.0
100
AcDbLayout
  1
Layout1
 70
0
 71
1
 10
0.0
 20
0.0
 11
1189.0
 21
841.0
 12
0.0
 22
0.0
 32
0.0
 14
0.0
 24
0.0
 34
0.0
 15
0.0
 25
0.0
 35
0.0
146
0.0
 13
0.0
 23
0.0
 33
0.0
 16
1.0
 26
0.0
 36
0.0
 17
0.0
 27
1.0
 37
0.0
 76
0
330
20F
345
0
346
0
  0
ENDSEC
  0
EOF
