999
DXF file: 001-m34580-p-30.dxf
999
Pro/ENGINEER 2011490 by Parametric Technology Corporation
  0
SECTION
  2
HEADER
  9
$ACADVER
  1
AC1015
  9
$DWGCODEPAGE
  3
ANSI_1252
  9
$EXTMAX
 10
1189.0
 20
841.0
 30
0.0
  9
$EXTMIN
 10
0.0
 20
0.0
 30
0.0
  9
$LIMMIN
 10
0.0
 20
0.0
  9
$LIMMAX
 10
1189.0
 20
841.0
  9
$VIEWCTR
 10
594.5
 20
420.5
  9
$VIEWSIZE
 40
841.0
  9
$CLAYER
  8
0
  9
$LTSCALE
 40
65.395
  9
$CELTYPE
  6
BYLAYER
  9
$DIMSCALE
 40
1.0
  9
$DIMASZ
 40
3.5
  9
$DIMEXO
 40
7.43125
  9
$DIMDLI
 40
45.182
  9
$DIMEXE
 40
21.402
  9
$DIMCEN
 40
10.701
  9
$DIMLFAC
 40
1.0
  9
$DIMBLK
  1
_FILLED
  9
$DIMTXT
 40
3.5
  9
$DIMTOL
 70
1
  9
$DIMLIM
 70
0
  9
$DIMTFAC
 40
1.0
  9
$DIMTP
 40
0.005
  9
$DIMTM
 40
0.005
  9
$PDMODE
 70
3
  9
$PDSIZE
 40
0.3125
  9
$HANDSEED
  5
3AC
  9
$TILEMODE
 70
1
  9
$MEASUREMENT
 70
1
  9
$INSUNITS
 70
4
  0
ENDSEC
  0
SECTION
  2
CLASSES
  0
CLASS
  1
ACDBDICTIONARYWDFLT
  2
AcDbDictionaryWithDefault
  3
AutoCAD 2000
 90
0
280
0
281
0
  0
CLASS
  1
ACDBPLACEHOLDER
  2
AcDbPlaceHolder
  3
AutoCAD 2000
 90
0
280
0
281
0
  0
CLASS
  1
LAYOUT
  2
AcDbLayout
  3
AutoCAD 2000
 90
0
280
0
281
0
  0
ENDSEC
  0
SECTION
  2
TABLES
  0
TABLE
  2
VPORT
  5
8
100
AcDbSymbolTable
 70
2
  0
VPORT
  5
1F4
100
AcDbSymbolTableRecord
100
AcDbViewportTableRecord
  2
*ACTIVE
 70
0
 10
0.0
 20
0.0
 11
1.0
 21
1.0
 12
594.5
 22
420.5
 13
0.0
 23
0.0
 14
1.0
 24
1.0
 15
0.0
 25
0.0
 16
0.0
 26
0.0
 36
1.0
 17
0.0
 27
0.0
 37
0.0
 40
841.0
 41
1.4137931034
 42
50.0
 43
0.0
 44
0.0
 50
0.0
 51
0.0
 71
0
 72
100
 73
1
 74
1
 75
0
 76
0
 77
0
 78
0
  0
ENDTAB
  0
TABLE
  2
LTYPE
  5
5
100
AcDbSymbolTable
 70
6
  0
LTYPE
  5
14
100
AcDbSymbolTableRecord
100
AcDbLinetypeTableRecord
  2
BYBLOCK
 70
0
  3

 72
65
 73
0
 40
0.0
  0
LTYPE
  5
15
100
AcDbSymbolTableRecord
100
AcDbLinetypeTableRecord
  2
BYLAYER
 70
0
  3

 72
65
 73
0
 40
0.0
  0
LTYPE
  5
16
100
AcDbSymbolTableRecord
100
AcDbLinetypeTableRecord
  2
CONTINUOUS
 70
64
  3
Solid line
 72
65
 73
0
 40
0.0
  0
LTYPE
  5
1F5
100
AcDbSymbolTableRecord
100
AcDbLinetypeTableRecord
  2
CENTER
 70
64
  3
____ _ ____ _ ____ _ ____ _ ____ _ ____ _ ____
 72
65
 73
4
 40
0.6
 49
0.375
 74
0
 49
-0.075
 74
0
 49
0.075
 74
0
 49
-0.075
 74
0
  0
LTYPE
  5
1F6
100
AcDbSymbolTableRecord
100
AcDbLinetypeTableRecord
  2
HIDDEN
 70
64
  3
- - - - - - - - - - - - - - - - - - - -
 72
65
 73
2
 40
0.2
 49
0.1
 74
0
 49
-0.1
 74
0
  0
LTYPE
  5
1F7
100
AcDbSymbolTableRecord
100
AcDbLinetypeTableRecord
  2
PHANTOM
 70
64
  3
_____ _ _ _____ _ _ _____ _ _ _____
 72
65
 73
6
 40
0.8
 49
0.45
 74
0
 49
-0.05
 74
0
 49
0.1
 74
0
 49
-0.05
 74
0
 49
0.1
 74
0
 49
-0.05
 74
0
  0
LTYPE
  5
1F8
100
AcDbSymbolTableRecord
100
AcDbLinetypeTableRecord
  2
DOT
 70
64
  3
. . . . . . . . . . . . . . . . . . . .
 72
65
 73
2
 40
0.2
 49
0.1
 74
0
 49
-0.1
 74
0
  0
LTYPE
  5
1F9
100
AcDbSymbolTableRecord
100
AcDbLinetypeTableRecord
  2
DASHED
 70
64
  3
- - - - - - - - - - - - - - - - - - - -
 72
65
 73
2
 40
0.2
 49
0.1
 74
0
 49
-0.1
 74
0
  0
ENDTAB
  0
TABLE
  2
LAYER
  5
2
100
AcDbSymbolTable
 70
36
  0
LAYER
  5
10
100
AcDbSymbolTableRecord
100
AcDbLayerTableRecord
  2
0
 70
0
 62
7
  6
CONTINUOUS
370
-3
390
F
  0
LAYER
  5
1FA
100
AcDbSymbolTableRecord
100
AcDbLayerTableRecord
  2
DEFAULT_1
 70
0
 62
7
  6
CENTER
370
-3
390
F
  0
LAYER
  5
1FB
100
AcDbSymbolTableRecord
100
AcDbLayerTableRecord
  2
DEFAULT_2
 70
0
 62
8
  6
HIDDEN
370
-3
390
F
  0
LAYER
  5
1FC
100
AcDbSymbolTableRecord
100
AcDbLayerTableRecord
  2
DEFAULT_3
 70
0
 62
7
  6
PHANTOM
370
-3
390
F
  0
LAYER
  5
1FD
100
AcDbSymbolTableRecord
100
AcDbLayerTableRecord
  2
AUSFORMSCHRAEGEN
 70
0
 62
7
  6
CONTINUOUS
370
-3
390
F
  0
LAYER
  5
1FE
100
AcDbSymbolTableRecord
100
AcDbLayerTableRecord
  2
BEZUGSACHSEN
 70
0
 62
7
  6
CONTINUOUS
370
-3
390
F
  0
LAYER
  5
1FF
100
AcDbSymbolTableRecord
100
AcDbLayerTableRecord
  2
BEZUGSEBENEN
 70
0
 62
7
  6
CONTINUOUS
370
-3
390
F
  0
LAYER
  5
200
100
AcDbSymbolTableRecord
100
AcDbLayerTableRecord
  2
BEZUGSPUNKTE
 70
0
 62
7
  6
CONTINUOUS
370
-3
390
F
  0
LAYER
  5
201
100
AcDbSymbolTableRecord
100
AcDbLayerTableRecord
  2
BG_STARTBEZUEGE
 70
0
 62
7
  6
CONTINUOUS
370
-3
390
F
  0
LAYER
  5
202
100
AcDbSymbolTableRecord
100
AcDbLayerTableRecord
  2
BOHRUNGEN
 70
0
 62
7
  6
CONTINUOUS
370
-3
390
F
  0
LAYER
  5
203
100
AcDbSymbolTableRecord
100
AcDbLayerTableRecord
  2
FASEN
 70
0
 62
7
  6
CONTINUOUS
370
-3
390
F
  0
LAYER
  5
204
100
AcDbSymbolTableRecord
100
AcDbLayerTableRecord
  2
FLAECHEN
 70
0
 62
7
  6
CONTINUOUS
370
-3
390
F
  0
LAYER
  5
205
100
AcDbSymbolTableRecord
100
AcDbLayerTableRecord
  2
FLAECHENVERBUND
 70
0
 62
7
  6
CONTINUOUS
370
-3
390
F
  0
LAYER
  5
206
100
AcDbSymbolTableRecord
100
AcDbLayerTableRecord
  2
GEWINDE
 70
0
 62
7
  6
CONTINUOUS
370
-3
390
F
  0
LAYER
  5
207
100
AcDbSymbolTableRecord
100
AcDbLayerTableRecord
  2
HILFEN
 70
0
 62
7
  6
CONTINUOUS
370
-3
390
F
  0
LAYER
  5
208
100
AcDbSymbolTableRecord
100
AcDbLayerTableRecord
  2
KONSTRUKTIONSELEMENTE
 70
0
 62
7
  6
CONTINUOUS
370
-3
390
F
  0
LAYER
  5
209
100
AcDbSymbolTableRecord
100
AcDbLayerTableRecord
  2
KURVEN
 70
0
 62
7
  6
CONTINUOUS
370
-3
390
F
  0
LAYER
  5
20A
100
AcDbSymbolTableRecord
100
AcDbLayerTableRecord
  2
PLATZIERUNG
 70
0
 62
7
  6
CONTINUOUS
370
-3
390
F
  0
LAYER
  5
20B
100
AcDbSymbolTableRecord
100
AcDbLayerTableRecord
  2
RUNDUNGEN
 70
0
 62
7
  6
CONTINUOUS
370
-3
390
F
  0
LAYER
  5
20C
100
AcDbSymbolTableRecord
100
AcDbLayerTableRecord
  2
TEIL_STARTBEZUEGE
 70
0
 62
7
  6
CONTINUOUS
370
-3
390
F
  0
LAYER
  5
20D
100
AcDbSymbolTableRecord
100
AcDbLayerTableRecord
  2
T_STARTBEZUEGE
 70
0
 62
7
  6
CONTINUOUS
370
-3
390
F
  0
LAYER
  5
20E
100
AcDbSymbolTableRecord
100
AcDbLayerTableRecord
  2
XSEC_DATUMS
 70
0
 62
7
  6
CONTINUOUS
370
-3
390
F
  0
LAYER
  5
20F
100
AcDbSymbolTableRecord
100
AcDbLayerTableRecord
  2
ZEICHNUNGSBEMASSUNGEN
 70
0
 62
7
  6
CONTINUOUS
370
-3
390
F
  0
ENDTAB
  0
TABLE
  2
STYLE
  5
3
100
AcDbSymbolTable
 70
1
  0
STYLE
  5
11
100
AcDbSymbolTableRecord
100
AcDbTextStyleTableRecord
  2
STANDARD
 70
0
 40
0.0
 41
0.7
 50
0.0
 71
0
 42
0.2
  3
txt
  4

  0
STYLE
  5
210
100
AcDbSymbolTableRecord
100
AcDbTextStyleTableRecord
  2
TEXTSTYLE_1
 70
0
 40
0.0
 41
0.8
 50
0.0
 71
0
 42
0.2
  3
gdt
  4

  0
ENDTAB
  0
TABLE
  2
VIEW
  5
6
100
AcDbSymbolTable
 70
0
  0
ENDTAB
  0
TABLE
  2
UCS
  5
7
100
AcDbSymbolTable
 70
0
  0
ENDTAB
  0
TABLE
  2
APPID
  5
9
100
AcDbSymbolTable
 70
1
  0
APPID
  5
211
100
AcDbSymbolTableRecord
100
AcDbRegAppTableRecord
  2
ACAD
 70
0
  0
ENDTAB
  0
TABLE
  2
BLOCK_RECORD
  5
1
100
AcDbSymbolTable
 70
0
  0
BLOCK_RECORD
  5
212
100
AcDbSymbolTableRecord
100
AcDbBlockTableRecord
  2
*Model_Space
  0
BLOCK_RECORD
  5
213
100
AcDbSymbolTableRecord
100
AcDbBlockTableRecord
  2
*Paper_Space
  0
ENDTAB
  0
TABLE
  2
DIMSTYLE
  5
A
100
AcDbSymbolTable
 70
1
100
AcDbDimStyleTable
 71
0
  0
DIMSTYLE
105
214
100
AcDbSymbolTableRecord
100
AcDbDimStyleTableRecord
  2
STANDARD
 70
0
  3

  4

 40
1.0
 41
3.5
 42
0.0625
 43
0.38
 44
0.18
 45
0.0
 46
0.0
 47
0.005
 48
0.005
140
3.5
141
0.09
142
0.0
143
25.4
144
1.0
145
0.0
146
1.0
147
0.09
 71
1.0
 72
0.0
 73
0
 74
0
 75
0
 76
0
 77
1
 78
8
170
0
171
2
172
0
173
0
174
0
175
0
176
0
177
0
178
5
270
2
271
3
272
3
273
2
274
2
275
0
280
0
281
0
282
0
283
1
284
8
285
0
286
0
287
3
288
0
340
11
  0
ENDTAB
  0
ENDSEC
  0
SECTION
  2
BLOCKS
  0
BLOCK
  5
20
100
AcDbEntity
  8
0
100
AcDbBlockBegin
  2
*Model_Space
 70
0
 10
0.0
 20
0.0
 30
0.0
  3
*Model_Space
  1

  0
ENDBLK
  5
21
100
AcDbEntity
  8
0
100
AcDbBlockEnd
  0
BLOCK
  5
1C
100
AcDbEntity
  8
0
100
AcDbBlockBegin
  2
*Paper_Space
 70
0
 10
0.0
 20
0.0
 30
0.0
  3
*Paper_Space
  1

  0
ENDBLK
  5
1D
100
AcDbEntity
  8
0
100
AcDbBlockEnd
  0
ENDSEC
  0
SECTION
  2
ENTITIES
  0
MTEXT
  5
215
100
AcDbEntity
  8
0
100
AcDbMText
 62
5
  6
CONTINUOUS
  7
STANDARD
 71
1
 72
1
 10
643.8002365733
 20
480.8701648257
 30
0.0
 11
1.0
 21
0.0
 31
0.0
 44
0.9
  1
VWBG 40t M90
 40
14.0
 41
141.3333333333
  0
MTEXT
  5
216
100
AcDbEntity
  8
0
100
AcDbMText
 62
5
  6
CONTINUOUS
  7
STANDARD
 71
1
 72
1
 10
339.6707243593
 20
571.6890989468
 30
0.0
 11
0.0
 21
1.0
 31
0.0
 44
0.9
  1
VWBG 40t M90
 40
14.0
 41
141.3333333333
  0
MTEXT
  5
217
100
AcDbEntity
  8
0
100
AcDbMText
 62
5
  6
CONTINUOUS
  7
STANDARD
 71
1
 72
1
 10
338.8270780988
 20
53.1047209573
 30
0.0
 11
0.0
 21
1.0
 31
0.0
 44
0.9
  1
VWBG 40t M90
 40
14.0
 41
141.3333333333
  0
LINE
  5
218
100
AcDbEntity
  8
0
100
AcDbLine
 62
7
  6
CONTINUOUS
 10
0.0
 20
0.0
 11
0.0
 21
841.0
  0
LINE
  5
219
100
AcDbEntity
  8
0
100
AcDbLine
 62
7
  6
CONTINUOUS
 10
0.0
 20
0.0
 11
1189.0
 21
0.0
  0
LINE
  5
21A
100
AcDbEntity
  8
0
100
AcDbLine
 62
7
  6
CONTINUOUS
 10
0.0
 20
841.0
 11
1189.0
 21
841.0
  0
LINE
  5
21B
100
AcDbEntity
  8
0
100
AcDbLine
 62
7
  6
CONTINUOUS
 10
1189.0
 20
0.0
 11
1189.0
 21
841.0
  0
LINE
  5
21C
100
AcDbEntity
  8
0
100
AcDbLine
 62
7
  6
CONTINUOUS
 10
387.8108259318
 20
274.7399838672
 11
303.8108259318
 21
274.7399838672
  0
LINE
  5
21D
100
AcDbEntity
  8
0
100
AcDbLine
 62
7
  6
CONTINUOUS
 10
390.8108259318
 20
277.7399838672
 11
300.8108259318
 21
277.7399838672
  0
LINE
  5
21E
100
AcDbEntity
  8
0
100
AcDbLine
 62
7
  6
CONTINUOUS
 10
300.8108259318
 20
277.7399838672
 11
303.8108259318
 21
274.7399838672
  0
LINE
  5
21F
100
AcDbEntity
  8
FASEN
100
AcDbLine
 62
7
  6
CONTINUOUS
 10
260.8108259318
 20
410.7399838672
 11
261.8108259318
 21
409.7399838672
  0
LINE
  5
220
100
AcDbEntity
  8
FASEN
100
AcDbLine
 62
7
  6
CONTINUOUS
 10
429.8108259318
 20
409.7399838672
 11
261.8108259318
 21
409.7399838672
  0
LINE
  5
221
100
AcDbEntity
  8
FASEN
100
AcDbLine
 62
7
  6
CONTINUOUS
 10
430.8108259318
 20
410.7399838672
 11
260.8108259318
 21
410.7399838672
  0
LINE
  5
222
100
AcDbEntity
  8
BEZUGSACHSEN
100
AcDbLine
 62
7
  6
CONTINUOUS
 10
430.8108259318
 20
430.2399838672
 11
260.8108259318
 21
430.2399838672
  0
LINE
  5
223
100
AcDbEntity
  8
KONSTRUKTIONSELEMENTE
100
AcDbLine
 62
7
  6
CONTINUOUS
 10
382.4109050447
 20
432.2399838672
 11
309.2107468189
 21
432.2399838672
  0
LINE
  5
224
100
AcDbEntity
  8
BEZUGSACHSEN
100
AcDbLine
 62
7
  6
CONTINUOUS
 10
260.8108259318
 20
430.2399838672
 11
260.8108259318
 21
410.7399838672
  0
LINE
  5
225
100
AcDbEntity
  8
BEZUGSACHSEN
100
AcDbLine
 62
7
  6
CONTINUOUS
 10
263.3108259318
 20
489.2399838672
 11
263.3108259318
 21
433.568410992
  0
LINE
  5
226
100
AcDbEntity
  8
0
100
AcDbLine
 62
7
  6
CONTINUOUS
 10
348.1024922011
 20
471.0165796087
 11
347.0608259318
 21
470.8038136766
  0
LINE
  5
227
100
AcDbEntity
  8
0
100
AcDbLine
 62
7
  6
CONTINUOUS
 10
347.0608259318
 20
469.7399838672
 11
348.3108259318
 21
469.9527498179
  0
LINE
  5
228
100
AcDbEntity
  8
0
100
AcDbLine
 62
7
  6
CONTINUOUS
 10
338.3108259318
 20
469.7399838672
 11
339.5608259318
 21
469.7399838672
  0
LINE
  5
229
100
AcDbEntity
  8
0
100
AcDbLine
 62
7
  6
CONTINUOUS
 10
333.3108259318
 20
472.7187072144
 11
338.3108259318
 21
472.7187072144
  0
LINE
  5
22A
100
AcDbEntity
  8
0
100
AcDbLine
 62
7
  6
CONTINUOUS
 10
339.5608259318
 20
472.7187072144
 11
341.6441590664
 21
472.7187072144
  0
LINE
  5
22B
100
AcDbEntity
  8
0
100
AcDbLine
 62
7
  6
CONTINUOUS
 10
341.6441590664
 20
473.9953031049
 11
339.5608259318
 21
473.9953031049
  0
LINE
  5
22C
100
AcDbEntity
  8
0
100
AcDbLine
 62
7
  6
CONTINUOUS
 10
338.3108259318
 20
473.9953031049
 11
334.7691592155
 21
473.9953031049
  0
LINE
  5
22D
100
AcDbEntity
  8
0
100
AcDbLine
 62
7
  6
CONTINUOUS
 10
352.4774922011
 20
475.6974305616
 11
354.1441584704
 21
475.6974305616
  0
LINE
  5
22E
100
AcDbEntity
  8
0
100
AcDbLine
 62
7
  6
CONTINUOUS
 10
355.1858259318
 20
475.6974305616
 11
357.4774933932
 21
475.6974305616
  0
LINE
  5
22F
100
AcDbEntity
  8
0
100
AcDbLine
 62
7
  6
CONTINUOUS
 10
357.4774933932
 20
476.5484942899
 11
355.1858259318
 21
476.5484942899
  0
LINE
  5
230
100
AcDbEntity
  8
0
100
AcDbLine
 62
7
  6
CONTINUOUS
 10
354.1441584704
 20
476.5484942899
 11
352.4774922011
 21
476.5484942899
  0
LINE
  5
231
100
AcDbEntity
  8
0
100
AcDbLine
 62
7
  6
CONTINUOUS
 10
355.1858259318
 20
478.2506223426
 11
354.1441584704
 21
478.2506223426
  0
LINE
  5
232
100
AcDbEntity
  8
0
100
AcDbLine
 62
7
  6
CONTINUOUS
 10
345.8108259318
 20
469.9527498179
 11
347.0608259318
 21
469.7399838672
  0
LINE
  5
233
100
AcDbEntity
  8
0
100
AcDbLine
 62
7
  6
CONTINUOUS
 10
355.8108259318
 20
469.9527498179
 11
357.0608259318
 21
469.7399838672
  0
LINE
  5
234
100
AcDbEntity
  8
0
100
AcDbLine
 62
7
  6
CONTINUOUS
 10
347.0608259318
 20
470.8038136766
 11
346.0191596625
 21
471.0165796087
  0
LINE
  5
235
100
AcDbEntity
  8
0
100
AcDbLine
 62
7
  6
CONTINUOUS
 10
357.0608259318
 20
470.5910476701
 11
356.0191584704
 21
470.8038136766
  0
LINE
  5
236
100
AcDbEntity
  8
0
100
AcDbLine
 62
7
  6
CONTINUOUS
 10
355.1858259318
 20
470.1655157686
 11
355.8108259318
 21
469.9527498179
  0
LINE
  5
237
100
AcDbEntity
  8
BEZUGSACHSEN
100
AcDbLine
 62
7
  6
CONTINUOUS
 10
270.2617525711
 20
539.6442438778
 11
277.0735906025
 21
523.1990121177
  0
LINE
  5
238
100
AcDbEntity
  8
BEZUGSACHSEN
100
AcDbLine
 62
7
  6
CONTINUOUS
 10
274.8108259318
 20
527.0705103351
 11
274.8108259318
 21
491.2399838672
  0
LINE
  5
239
100
AcDbEntity
  8
BEZUGSACHSEN
100
AcDbLine
 62
7
  6
CONTINUOUS
 10
270.2619019385
 20
544.2360844614
 11
290.7660811643
 21
593.7375520338
  0
LINE
  5
23A
100
AcDbEntity
  8
RUNDUNGEN
100
AcDbLine
 62
7
  6
CONTINUOUS
 10
294.0132835921
 20
596.9847393325
 11
322.8108259318
 21
608.9130719326
  0
LINE
  5
23B
100
AcDbEntity
  8
0
100
AcDbLine
 62
7
  6
CONTINUOUS
 10
346.0191596625
 20
478.4633882747
 11
347.0608259318
 21
478.6761542068
  0
LINE
  5
23C
100
AcDbEntity
  8
0
100
AcDbLine
 62
7
  6
CONTINUOUS
 10
347.0608259318
 20
479.7399838672
 11
345.8108259318
 21
479.5272179351
  0
LINE
  5
23D
100
AcDbEntity
  8
0
100
AcDbLine
 62
7
  6
CONTINUOUS
 10
339.5608259318
 20
479.7399838672
 11
338.3108259318
 21
479.7399838672
  0
LINE
  5
23E
100
AcDbEntity
  8
KONSTRUKTIONSELEMENTE
100
AcDbLine
 62
7
  6
CONTINUOUS
 10
428.3108259318
 20
489.2399838672
 11
385.1808653019
 21
489.2399838672
  0
LINE
  5
23F
100
AcDbEntity
  8
KONSTRUKTIONSELEMENTE
100
AcDbLine
 62
7
  6
CONTINUOUS
 10
306.4407865617
 20
489.2399838672
 11
263.3108259318
 21
489.2399838672
  0
LINE
  5
240
100
AcDbEntity
  8
KONSTRUKTIONSELEMENTE
100
AcDbLine
 62
7
  6
CONTINUOUS
 10
265.3108259318
 20
491.2399838672
 11
426.3108259318
 21
491.2399838672
  0
LINE
  5
241
100
AcDbEntity
  8
0
100
AcDbLine
 62
7
  6
CONTINUOUS
 10
348.3108259318
 20
479.5272179351
 11
347.0608259318
 21
479.7399838672
  0
LINE
  5
242
100
AcDbEntity
  8
0
100
AcDbLine
 62
7
  6
CONTINUOUS
 10
347.0608259318
 20
478.6761542068
 11
348.1024922011
 21
478.4633882747
  0
LINE
  5
243
100
AcDbEntity
  8
0
100
AcDbLine
 62
7
  6
CONTINUOUS
 10
344.7691596625
 20
470.5910476701
 11
345.8108259318
 21
469.9527498179
  0
LINE
  5
244
100
AcDbEntity
  8
0
100
AcDbLine
 62
7
  6
CONTINUOUS
 10
349.3524922011
 20
478.8889201389
 11
348.3108259318
 21
479.5272179351
  0
LINE
  5
245
100
AcDbEntity
  8
0
100
AcDbLine
 62
7
  6
CONTINUOUS
 10
346.0191596625
 20
471.0165796087
 11
345.3941596625
 21
471.4421114729
  0
LINE
  5
246
100
AcDbEntity
  8
0
100
AcDbLine
 62
7
  6
CONTINUOUS
 10
354.5608259318
 20
470.5910476701
 11
355.1858259318
 21
470.1655157686
  0
LINE
  5
247
100
AcDbEntity
  8
0
100
AcDbLine
 62
7
  6
CONTINUOUS
 10
356.0191584704
 20
470.8038136766
 11
355.3941584704
 21
471.2293455408
  0
LINE
  5
248
100
AcDbEntity
  8
0
100
AcDbLine
 62
7
  6
CONTINUOUS
 10
348.1024922011
 20
478.4633882747
 11
348.7274922011
 21
478.0378564105
  0
LINE
  5
249
100
AcDbEntity
  8
0
100
AcDbLine
 62
7
  6
CONTINUOUS
 10
344.1441596625
 20
471.2293455408
 11
344.7691596625
 21
470.5910476701
  0
LINE
  5
24A
100
AcDbEntity
  8
0
100
AcDbLine
 62
7
  6
CONTINUOUS
 10
300.8108259318
 20
409.7399838672
 11
300.8108259318
 21
277.7399838672
  0
LINE
  5
24B
100
AcDbEntity
  8
KONSTRUKTIONSELEMENTE
100
AcDbLine
 62
7
  6
CONTINUOUS
 10
306.4407865617
 20
489.2399838672
 11
306.4407865617
 21
434.2399838672
  0
LINE
  5
24C
100
AcDbEntity
  8
0
100
AcDbLine
 62
7
  6
CONTINUOUS
 10
306.7303038648
 20
573.3192931701
 11
306.8702770319
 21
574.1497026545
  0
LINE
  5
24D
100
AcDbEntity
  8
0
100
AcDbLine
 62
7
  6
CONTINUOUS
 10
305.8499915315
 20
573.7399007693
 11
305.6681644124
 21
573.174203575
  0
LINE
  5
24E
100
AcDbEntity
  8
0
100
AcDbLine
 62
7
  6
CONTINUOUS
 10
314.6895336427
 20
577.2054231335
 11
314.2693255141
 21
576.555350959
  0
LINE
  5
24F
100
AcDbEntity
  8
0
100
AcDbLine
 62
7
  6
CONTINUOUS
 10
315.0499391501
 20
575.7123226867
 11
315.6077242733
 21
576.4897861964
  0
LINE
  5
250
100
AcDbEntity
  8
0
100
AcDbLine
 62
7
  6
CONTINUOUS
 10
302.4824370554
 20
575.3081127248
 11
299.7982654821
 21
571.6962955969
  0
LINE
  5
251
100
AcDbEntity
  8
0
100
AcDbLine
 62
7
  6
CONTINUOUS
 10
301.2377800132
 20
572.0281496122
 11
303.3627490687
 21
574.887504695
  0
LINE
  5
252
100
AcDbEntity
  8
0
100
AcDbLine
 62
7
  6
CONTINUOUS
 10
305.6681644124
 20
573.174203575
 11
303.5431953569
 21
570.3148484923
  0
LINE
  5
253
100
AcDbEntity
  8
0
100
AcDbLine
 62
7
  6
CONTINUOUS
 10
304.4653613222
 20
569.6295281723
 11
306.3666494666
 21
572.1878985661
  0
LINE
  5
254
100
AcDbEntity
  8
0
100
AcDbLine
 62
7
  6
CONTINUOUS
 10
307.021899738
 20
566.3279524504
 11
307.6929426313
 21
567.2309067324
  0
LINE
  5
255
100
AcDbEntity
  8
0
100
AcDbLine
 62
7
  6
CONTINUOUS
 10
310.4889545801
 20
570.9932160971
 11
311.2718381689
 21
572.0466630465
  0
LINE
  5
256
100
AcDbEntity
  8
0
100
AcDbLine
 62
7
  6
CONTINUOUS
 10
322.1798153041
 20
582.6185500959
 11
321.6450617999
 21
582.0589021854
  0
LINE
  5
257
100
AcDbEntity
  8
0
100
AcDbLine
 62
7
  6
CONTINUOUS
 10
311.1363730768
 20
584.3543133564
 11
310.3109078914
 21
583.5899625026
  0
LINE
  5
258
100
AcDbEntity
  8
0
100
AcDbLine
 62
7
  6
CONTINUOUS
 10
307.0090471497
 20
580.5325590875
 11
306.1835815706
 21
579.7682078693
  0
LINE
  5
259
100
AcDbEntity
  8
0
100
AcDbLine
 62
7
  6
CONTINUOUS
 10
314.2693255141
 20
576.555350959
 11
313.7190151281
 21
576.0457834802
  0
LINE
  5
25A
100
AcDbEntity
  8
0
100
AcDbLine
 62
7
  6
CONTINUOUS
 10
314.4996287641
 20
575.2027552078
 11
315.0499391501
 21
575.7123226867
  0
LINE
  5
25B
100
AcDbEntity
  8
0
100
AcDbLine
 62
7
  6
CONTINUOUS
 10
303.1953339007
 20
575.9463547166
 11
302.4824370554
 21
575.3081127248
  0
LINE
  5
25C
100
AcDbEntity
  8
0
100
AcDbLine
 62
7
  6
CONTINUOUS
 10
303.3627490687
 20
574.887504695
 11
303.8519648429
 21
575.2247617826
  0
LINE
  5
25D
100
AcDbEntity
  8
0
100
AcDbLine
 62
7
  6
CONTINUOUS
 10
317.4869150531
 20
588.7184080933
 11
313.6698811805
 21
586.3350800808
  0
LINE
  5
25E
100
AcDbEntity
  8
0
100
AcDbLine
 62
7
  6
CONTINUOUS
 10
315.2326488559
 20
585.9563503603
 11
318.0954242604
 21
587.7438463696
  0
LINE
  5
25F
100
AcDbEntity
  8
0
100
AcDbLine
 62
7
  6
CONTINUOUS
 10
321.6450617999
 20
582.0589021854
 11
318.7822863954
 21
580.271406176
  0
LINE
  5
260
100
AcDbEntity
  8
0
100
AcDbLine
 62
7
  6
CONTINUOUS
 10
318.3835492512
 20
589.0525081874
 11
317.4869150531
 21
588.7184080933
  0
LINE
  5
261
100
AcDbEntity
  8
0
100
AcDbLine
 62
7
  6
CONTINUOUS
 10
318.0954242604
 20
587.7438463696
 11
318.833014167
 21
587.9786403723
  0
LINE
  5
262
100
AcDbEntity
  8
BEZUGSACHSEN
100
AcDbLine
 62
7
  6
CONTINUOUS
 10
400.5681493542
 20
510.4399838672
 11
291.0535025094
 21
510.4399838672
  0
LINE
  5
263
100
AcDbEntity
  8
0
100
AcDbLine
 62
7
  6
CONTINUOUS
 10
349.9774922011
 20
478.2506223426
 11
349.3524922011
 21
478.8889201389
  0
LINE
  5
264
100
AcDbEntity
  8
0
100
AcDbLine
 62
7
  6
CONTINUOUS
 10
345.3941596625
 20
471.4421114729
 11
344.5608259318
 21
472.7187072144
  0
LINE
  5
265
100
AcDbEntity
  8
0
100
AcDbLine
 62
7
  6
CONTINUOUS
 10
348.7274922011
 20
478.0378564105
 11
349.5608259318
 21
476.761260222
  0
LINE
  5
266
100
AcDbEntity
  8
0
100
AcDbLine
 62
7
  6
CONTINUOUS
 10
343.7274922011
 20
472.0804094181
 11
344.1441596625
 21
471.2293455408
  0
LINE
  5
267
100
AcDbEntity
  8
0
100
AcDbLine
 62
7
  6
CONTINUOUS
 10
305.7662839475
 20
574.2693257802
 11
305.8499915315
 21
573.7399007693
  0
LINE
  5
268
100
AcDbEntity
  8
0
100
AcDbLine
 62
7
  6
CONTINUOUS
 10
322.8108259318
 20
810.7399838672
 11
322.8108259318
 21
545.7399838672
  0
LINE
  5
269
100
AcDbEntity
  8
0
100
AcDbLine
 62
7
  6
CONTINUOUS
 10
322.4679402238
 20
583.9272120275
 11
322.4541080647
 21
583.2413201192
  0
LINE
  5
26A
100
AcDbEntity
  8
0
100
AcDbLine
 62
7
  6
CONTINUOUS
 10
315.8978301102
 20
577.2803631035
 11
315.9277314208
 21
578.3519494142
  0
LINE
  5
26B
100
AcDbEntity
  8
0
100
AcDbLine
 62
7
  6
CONTINUOUS
 10
314.8420616293
 20
577.8686080501
 11
314.6895336427
 21
577.2054231335
  0
LINE
  5
26C
100
AcDbEntity
  8
0
100
AcDbLine
 62
7
  6
CONTINUOUS
 10
315.6077242733
 20
576.4897861964
 11
315.8978301102
 21
577.2803631035
  0
LINE
  5
26D
100
AcDbEntity
  8
0
100
AcDbLine
 62
7
  6
CONTINUOUS
 10
322.4541080647
 20
583.2413201192
 11
322.1798153041
 21
582.6185500959
  0
LINE
  5
26E
100
AcDbEntity
  8
0
100
AcDbLine
 62
7
  6
CONTINUOUS
 10
322.2535710781
 20
581.084340348
 11
322.8108259318
 21
581.6136088624
  0
LINE
  5
26F
100
AcDbEntity
  8
0
100
AcDbLine
 62
7
  6
CONTINUOUS
 10
318.4365372055
 20
578.7010123355
 11
322.2535710781
 21
581.084340348
  0
LINE
  5
270
100
AcDbEntity
  8
0
100
AcDbLine
 62
7
  6
CONTINUOUS
 10
313.6816391031
 20
574.706301114
 11
314.4996287641
 21
575.2027552078
  0
LINE
  5
271
100
AcDbEntity
  8
0
100
AcDbLine
 62
7
  6
CONTINUOUS
 10
313.7190151281
 20
576.0457834802
 11
313.0386032718
 21
575.676721426
  0
LINE
  5
272
100
AcDbEntity
  8
0
100
AcDbLine
 62
7
  6
CONTINUOUS
 10
368.8108259318
 20
582.7360516012
 11
369.1993590957
 21
582.8780978643
  0
LINE
  5
273
100
AcDbEntity
  8
0
100
AcDbLine
 62
7
  6
CONTINUOUS
 10
304.1037787055
 20
576.2056639344
 11
303.1953339007
 21
575.9463547166
  0
LINE
  5
274
100
AcDbEntity
  8
BEZUGSACHSEN
100
AcDbLine
 62
7
  6
CONTINUOUS
 10
428.8966123694
 20
432.1541974296
 11
430.8108259318
 21
430.2399838672
  0
LINE
  5
275
100
AcDbEntity
  8
0
100
AcDbLine
 62
7
  6
CONTINUOUS
 10
305.4170413405
 20
574.762478177
 11
305.7662839475
 21
574.2693257802
  0
LINE
  5
276
100
AcDbEntity
  8
0
100
AcDbLine
 62
7
  6
CONTINUOUS
 10
306.5910211684
 20
575.0580600088
 11
306.2417785613
 21
575.5512124056
  0
LINE
  5
277
100
AcDbEntity
  8
0
100
AcDbLine
 62
7
  6
CONTINUOUS
 10
350.3941596625
 20
477.3995586143
 11
349.9774922011
 21
478.2506223426
  0
LINE
  5
278
100
AcDbEntity
  8
0
100
AcDbLine
 62
7
  6
CONTINUOUS
 10
354.1441584704
 20
471.4421114729
 11
354.5608259318
 21
470.5910476701
  0
LINE
  5
279
100
AcDbEntity
  8
0
100
AcDbLine
 62
7
  6
CONTINUOUS
 10
343.5191596625
 20
472.7187072144
 11
343.7274922011
 21
472.0804094181
  0
LINE
  5
27A
100
AcDbEntity
  8
0
100
AcDbLine
 62
7
  6
CONTINUOUS
 10
350.6024922011
 20
476.761260222
 11
350.3941596625
 21
477.3995586143
  0
LINE
  5
27B
100
AcDbEntity
  8
0
100
AcDbLine
 62
7
  6
CONTINUOUS
 10
306.8702770319
 20
574.1497026545
 11
306.5910211684
 21
575.0580600088
  0
LINE
  5
27C
100
AcDbEntity
  8
0
100
AcDbLine
 62
7
  6
CONTINUOUS
 10
315.9277314208
 20
578.3519494142
 11
315.6824770992
 21
579.1687516702
  0
LINE
  5
27D
100
AcDbEntity
  8
0
100
AcDbLine
 62
7
  6
CONTINUOUS
 10
343.3108259318
 20
473.7825371728
 11
343.5191596625
 21
472.7187072144
  0
LINE
  5
27E
100
AcDbEntity
  8
0
100
AcDbLine
 62
7
  6
CONTINUOUS
 10
314.7269096563
 20
578.5449055121
 11
314.8420616293
 21
577.8686080501
  0
LINE
  5
27F
100
AcDbEntity
  8
0
100
AcDbLine
 62
7
  6
CONTINUOUS
 10
333.3108259318
 20
473.9953031049
 11
333.3108259318
 21
472.7187072144
  0
LINE
  5
280
100
AcDbEntity
  8
0
100
AcDbLine
 62
7
  6
CONTINUOUS
 10
338.3108259318
 20
478.0378564105
 11
338.3108259318
 21
473.9953031049
  0
LINE
  5
281
100
AcDbEntity
  8
0
100
AcDbLine
 62
7
  6
CONTINUOUS
 10
338.3108259318
 20
472.7187072144
 11
338.3108259318
 21
469.7399838672
  0
LINE
  5
282
100
AcDbEntity
  8
0
100
AcDbLine
 62
7
  6
CONTINUOUS
 10
339.5608259318
 20
469.7399838672
 11
339.5608259318
 21
472.7187072144
  0
LINE
  5
283
100
AcDbEntity
  8
0
100
AcDbLine
 62
7
  6
CONTINUOUS
 10
339.5608259318
 20
473.9953031049
 11
339.5608259318
 21
479.7399838672
  0
LINE
  5
284
100
AcDbEntity
  8
0
100
AcDbLine
 62
7
  6
CONTINUOUS
 10
341.6441590664
 20
472.7187072144
 11
341.6441590664
 21
473.9953031049
  0
LINE
  5
285
100
AcDbEntity
  8
0
100
AcDbLine
 62
7
  6
CONTINUOUS
 10
343.3108259318
 20
475.6974305616
 11
343.3108259318
 21
473.7825371728
  0
LINE
  5
286
100
AcDbEntity
  8
0
100
AcDbLine
 62
7
  6
CONTINUOUS
 10
344.3524922011
 20
473.9953031049
 11
344.3524922011
 21
475.4846646295
  0
LINE
  5
287
100
AcDbEntity
  8
0
100
AcDbLine
 62
7
  6
CONTINUOUS
 10
369.1993590957
 20
582.8780978643
 11
369.6985662378
 21
583.4885389198
  0
LINE
  5
288
100
AcDbEntity
  8
BEZUGSACHSEN
100
AcDbLine
 62
7
  6
CONTINUOUS
 10
265.3108259318
 20
491.2399838672
 11
263.3108259318
 21
489.2399838672
  0
LINE
  5
289
100
AcDbEntity
  8
0
100
AcDbLine
 62
7
  6
CONTINUOUS
 10
311.700203714
 20
575.7422854719
 11
311.042217678
 21
576.1769129316
  0
LINE
  5
28A
100
AcDbEntity
  8
0
100
AcDbLine
 62
7
  6
CONTINUOUS
 10
310.216752099
 20
575.4125617133
 11
311.0048411797
 21
574.837430287
  0
LINE
  5
28B
100
AcDbEntity
  8
0
100
AcDbLine
 62
7
  6
CONTINUOUS
 10
299.7982654821
 20
571.6962955969
 11
307.021899738
 21
566.3279524504
  0
LINE
  5
28C
100
AcDbEntity
  8
0
100
AcDbLine
 62
7
  6
CONTINUOUS
 10
307.6929426313
 20
567.2309067324
 11
304.4653613222
 21
569.6295281723
  0
LINE
  5
28D
100
AcDbEntity
  8
0
100
AcDbLine
 62
7
  6
CONTINUOUS
 10
303.5431953569
 20
570.3148484923
 11
301.2377800132
 21
572.0281496122
  0
LINE
  5
28E
100
AcDbEntity
  8
0
100
AcDbLine
 62
7
  6
CONTINUOUS
 10
304.9559579273
 20
575.105138657
 11
305.4170413405
 21
574.762478177
  0
LINE
  5
28F
100
AcDbEntity
  8
0
100
AcDbLine
 62
7
  6
CONTINUOUS
 10
306.2417785613
 20
575.5512124056
 11
305.6270008206
 21
576.0080929389
  0
LINE
  5
290
100
AcDbEntity
  8
0
100
AcDbLine
 62
7
  6
CONTINUOUS
 10
306.1835815706
 20
579.7682078693
 11
310.216752099
 21
575.4125617133
  0
LINE
  5
291
100
AcDbEntity
  8
0
100
AcDbLine
 62
7
  6
CONTINUOUS
 10
311.042217678
 20
576.1769129316
 11
307.0090471497
 21
580.5325590875
  0
LINE
  5
292
100
AcDbEntity
  8
0
100
AcDbLine
 62
7
  6
CONTINUOUS
 10
310.3109078914
 20
583.5899625026
 11
314.3440784197
 21
579.2343163467
  0
LINE
  5
293
100
AcDbEntity
  8
0
100
AcDbLine
 62
7
  6
CONTINUOUS
 10
315.1695436051
 20
579.9986672004
 11
311.1363730768
 21
584.3543133564
  0
LINE
  5
294
100
AcDbEntity
  8
0
100
AcDbLine
 62
7
  6
CONTINUOUS
 10
313.6698811805
 20
586.3350800808
 11
318.4365372055
 21
578.7010123355
  0
LINE
  5
295
100
AcDbEntity
  8
0
100
AcDbLine
 62
7
  6
CONTINUOUS
 10
318.7822863954
 20
580.271406176
 11
315.2326488559
 21
585.9563503603
  0
LINE
  5
296
100
AcDbEntity
  8
0
100
AcDbLine
 62
7
  6
CONTINUOUS
 10
320.7000367301
 20
587.1126293349
 11
322.2213098903
 21
584.6762247983
  0
LINE
  5
297
100
AcDbEntity
  8
0
100
AcDbLine
 62
7
  6
CONTINUOUS
 10
322.8108259318
 20
585.8562123143
 11
321.6542951983
 21
587.708461338
  0
LINE
  5
298
100
AcDbEntity
  8
0
100
AcDbLine
 62
7
  6
CONTINUOUS
 10
315.6824770992
 20
579.1687516702
 11
315.1695436051
 21
579.9986672004
  0
LINE
  5
299
100
AcDbEntity
  8
0
100
AcDbLine
 62
7
  6
CONTINUOUS
 10
314.3440784197
 20
579.2343163467
 11
314.7269096563
 21
578.5449055121
  0
LINE
  5
29A
100
AcDbEntity
  8
0
100
AcDbLine
 62
7
  6
CONTINUOUS
 10
322.2213098903
 20
584.6762247983
 11
322.4679402238
 21
583.9272120275
  0
LINE
  5
29B
100
AcDbEntity
  8
0
100
AcDbLine
 62
7
  6
CONTINUOUS
 10
355.3941584704
 20
471.2293455408
 11
355.1858259318
 21
471.8676434861
  0
LINE
  5
29C
100
AcDbEntity
  8
0
100
AcDbLine
 62
7
  6
CONTINUOUS
 10
350.8108259318
 20
475.6974305616
 11
350.6024922011
 21
476.761260222
  0
LINE
  5
29D
100
AcDbEntity
  8
0
100
AcDbLine
 62
7
  6
CONTINUOUS
 10
344.5608259318
 20
472.7187072144
 11
344.3524922011
 21
473.9953031049
  0
LINE
  5
29E
100
AcDbEntity
  8
0
100
AcDbLine
 62
7
  6
CONTINUOUS
 10
349.5608259318
 20
476.761260222
 11
349.7691596625
 21
475.4846646295
  0
LINE
  5
29F
100
AcDbEntity
  8
0
100
AcDbLine
 62
7
  6
CONTINUOUS
 10
349.7691596625
 20
475.4846646295
 11
349.7691596625
 21
473.9953031049
  0
LINE
  5
2A0
100
AcDbEntity
  8
0
100
AcDbLine
 62
7
  6
CONTINUOUS
 10
350.8108259318
 20
473.7825371728
 11
350.8108259318
 21
475.6974305616
  0
LINE
  5
2A1
100
AcDbEntity
  8
0
100
AcDbLine
 62
7
  6
CONTINUOUS
 10
352.4774922011
 20
476.5484942899
 11
352.4774922011
 21
475.6974305616
  0
LINE
  5
2A2
100
AcDbEntity
  8
0
100
AcDbLine
 62
7
  6
CONTINUOUS
 10
354.1441584704
 20
478.2506223426
 11
354.1441584704
 21
476.5484942899
  0
LINE
  5
2A3
100
AcDbEntity
  8
0
100
AcDbLine
 62
7
  6
CONTINUOUS
 10
354.1441584704
 20
475.6974305616
 11
354.1441584704
 21
471.4421114729
  0
LINE
  5
2A4
100
AcDbEntity
  8
0
100
AcDbLine
 62
7
  6
CONTINUOUS
 10
355.1858259318
 20
471.8676434861
 11
355.1858259318
 21
475.6974305616
  0
LINE
  5
2A5
100
AcDbEntity
  8
0
100
AcDbLine
 62
7
  6
CONTINUOUS
 10
355.1858259318
 20
476.5484942899
 11
355.1858259318
 21
478.2506223426
  0
LINE
  5
2A6
100
AcDbEntity
  8
0
100
AcDbLine
 62
7
  6
CONTINUOUS
 10
357.0608259318
 20
469.7399838672
 11
357.0608259318
 21
470.5910476701
  0
LINE
  5
2A7
100
AcDbEntity
  8
0
100
AcDbLine
 62
7
  6
CONTINUOUS
 10
357.4774933932
 20
475.6974305616
 11
357.4774933932
 21
476.5484942899
  0
LINE
  5
2A8
100
AcDbEntity
  8
0
100
AcDbLine
 62
7
  6
CONTINUOUS
 10
370.7416600726
 20
588.7197630581
 11
370.6633594715
 21
588.1205650011
  0
LINE
  5
2A9
100
AcDbEntity
  8
0
100
AcDbLine
 62
7
  6
CONTINUOUS
 10
344.3524922011
 20
475.4846646295
 11
344.5608259318
 21
476.761260222
  0
LINE
  5
2AA
100
AcDbEntity
  8
0
100
AcDbLine
 62
7
  6
CONTINUOUS
 10
349.7691596625
 20
473.9953031049
 11
349.5608259318
 21
472.7187072144
  0
LINE
  5
2AB
100
AcDbEntity
  8
0
100
AcDbLine
 62
7
  6
CONTINUOUS
 10
343.5191596625
 20
476.761260222
 11
343.3108259318
 21
475.6974305616
  0
LINE
  5
2AC
100
AcDbEntity
  8
0
100
AcDbLine
 62
7
  6
CONTINUOUS
 10
350.6024922011
 20
472.7187072144
 11
350.8108259318
 21
473.7825371728
  0
LINE
  5
2AD
100
AcDbEntity
  8
0
100
AcDbLine
 62
7
  6
CONTINUOUS
 10
371.6785919111
 20
587.635871187
 11
371.9218946421
 21
588.580680246
  0
LINE
  5
2AE
100
AcDbEntity
  8
0
100
AcDbLine
 62
7
  6
CONTINUOUS
 10
343.7274922011
 20
477.3995586143
 11
343.5191596625
 21
476.761260222
  0
LINE
  5
2AF
100
AcDbEntity
  8
0
100
AcDbLine
 62
7
  6
CONTINUOUS
 10
369.4258434979
 20
585.5284824854
 11
368.8108259318
 21
584.2402758571
  0
LINE
  5
2B0
100
AcDbEntity
  8
0
100
AcDbLine
 62
7
  6
CONTINUOUS
 10
369.6985662378
 20
583.4885389198
 11
370.936082327
 21
586.0806216776
  0
LINE
  5
2B1
100
AcDbEntity
  8
0
100
AcDbLine
 62
7
  6
CONTINUOUS
 10
305.0540774624
 20
576.2002608621
 11
304.1037787055
 21
576.2056639344
  0
LINE
  5
2B2
100
AcDbEntity
  8
0
100
AcDbLine
 62
7
  6
CONTINUOUS
 10
311.8004054937
 20
574.5301951453
 11
312.8711241679
 21
574.4777430634
  0
LINE
  5
2B3
100
AcDbEntity
  8
0
100
AcDbLine
 62
7
  6
CONTINUOUS
 10
312.3656660731
 20
575.5755554888
 11
311.700203714
 21
575.7422854719
  0
LINE
  5
2B4
100
AcDbEntity
  8
0
100
AcDbLine
 62
7
  6
CONTINUOUS
 10
311.2718381689
 20
572.0466630465
 11
306.7303038648
 21
573.3192931701
  0
LINE
  5
2B5
100
AcDbEntity
  8
0
100
AcDbLine
 62
7
  6
CONTINUOUS
 10
306.3666494666
 20
572.1878985661
 11
310.4889545801
 21
570.9932160971
  0
LINE
  5
2B6
100
AcDbEntity
  8
0
100
AcDbLine
 62
7
  6
CONTINUOUS
 10
304.3830345691
 20
575.2973065801
 11
304.9559579273
 21
575.105138657
  0
LINE
  5
2B7
100
AcDbEntity
  8
0
100
AcDbLine
 62
7
  6
CONTINUOUS
 10
305.6270008206
 20
576.0080929389
 11
305.0540774624
 21
576.2002608621
  0
LINE
  5
2B8
100
AcDbEntity
  8
0
100
AcDbLine
 62
7
  6
CONTINUOUS
 10
311.0048411797
 20
574.837430287
 11
311.8004054937
 21
574.5301951453
  0
LINE
  5
2B9
100
AcDbEntity
  8
0
100
AcDbLine
 62
7
  6
CONTINUOUS
 10
319.5129798035
 20
587.951702466
 11
320.135321454
 21
587.6630321957
  0
LINE
  5
2BA
100
AcDbEntity
  8
0
100
AcDbLine
 62
7
  6
CONTINUOUS
 10
320.9881614368
 20
588.4212916077
 11
320.2644018692
 21
588.872388377
  0
LINE
  5
2BB
100
AcDbEntity
  8
0
100
AcDbLine
 62
7
  6
CONTINUOUS
 10
320.135321454
 20
587.6630321957
 11
320.7000367301
 21
587.1126293349
  0
LINE
  5
2BC
100
AcDbEntity
  8
BEZUGSACHSEN
100
AcDbLine
 62
7
  6
CONTINUOUS
 10
426.3108259318
 20
491.2399838672
 11
428.3108259318
 21
489.2399838672
  0
LINE
  5
2BD
100
AcDbEntity
  8
0
100
AcDbLine
 62
7
  6
CONTINUOUS
 10
321.6542951983
 20
587.708461338
 11
320.9881614368
 21
588.4212916077
  0
LINE
  5
2BE
100
AcDbEntity
  8
0
100
AcDbLine
 62
7
  6
CONTINUOUS
 10
368.8108259318
 20
810.7399838672
 11
368.8108259318
 21
545.7399838672
  0
LINE
  5
2BF
100
AcDbEntity
  8
KONSTRUKTIONSELEMENTE
100
AcDbLine
 62
7
  6
CONTINUOUS
 10
385.1808653019
 20
489.2399838672
 11
385.1808653019
 21
434.2399838672
  0
LINE
  5
2C0
100
AcDbEntity
  8
0
100
AcDbLine
 62
7
  6
CONTINUOUS
 10
350.3941596625
 20
472.0804094181
 11
350.6024922011
 21
472.7187072144
  0
LINE
  5
2C1
100
AcDbEntity
  8
0
100
AcDbLine
 62
7
  6
CONTINUOUS
 10
344.1441596625
 20
478.2506223426
 11
343.7274922011
 21
477.3995586143
  0
LINE
  5
2C2
100
AcDbEntity
  8
0
100
AcDbLine
 62
7
  6
CONTINUOUS
 10
349.9774922011
 20
471.2293455408
 11
350.3941596625
 21
472.0804094181
  0
LINE
  5
2C3
100
AcDbEntity
  8
0
100
AcDbLine
 62
7
  6
CONTINUOUS
 10
344.5608259318
 20
476.761260222
 11
345.3941596625
 21
478.0378564105
  0
LINE
  5
2C4
100
AcDbEntity
  8
BEZUGSACHSEN
100
AcDbLine
 62
7
  6
CONTINUOUS
 10
262.7250394942
 20
432.1541974296
 11
260.8108259318
 21
430.2399838672
  0
LINE
  5
2C5
100
AcDbEntity
  8
0
100
AcDbLine
 62
7
  6
CONTINUOUS
 10
312.8711241679
 20
574.4777430634
 11
313.6816391031
 21
574.706301114
  0
LINE
  5
2C6
100
AcDbEntity
  8
0
100
AcDbLine
 62
7
  6
CONTINUOUS
 10
313.0386032718
 20
575.676721426
 11
312.3656660731
 21
575.5755554888
  0
LINE
  5
2C7
100
AcDbEntity
  8
0
100
AcDbLine
 62
7
  6
CONTINUOUS
 10
303.8519648429
 20
575.2247617826
 11
304.3830345691
 21
575.2973065801
  0
LINE
  5
2C8
100
AcDbEntity
  8
0
100
AcDbLine
 62
7
  6
CONTINUOUS
 10
319.222557359
 20
589.1248752361
 11
318.3835492512
 21
589.0525081874
  0
LINE
  5
2C9
100
AcDbEntity
  8
0
100
AcDbLine
 62
7
  6
CONTINUOUS
 10
318.833014167
 20
587.9786403723
 11
319.5129798035
 21
587.951702466
  0
LINE
  5
2CA
100
AcDbEntity
  8
0
100
AcDbLine
 62
7
  6
CONTINUOUS
 10
320.2644018692
 20
588.872388377
 11
319.222557359
 21
589.1248752361
  0
LINE
  5
2CB
100
AcDbEntity
  8
0
100
AcDbLine
 62
7
  6
CONTINUOUS
 10
368.8108259318
 20
585.8221051064
 11
369.4258434979
 21
585.5284824854
  0
LINE
  5
2CC
100
AcDbEntity
  8
0
100
AcDbLine
 62
7
  6
CONTINUOUS
 10
370.936082327
 20
586.0806216776
 11
368.8108259318
 21
587.0952648153
  0
LINE
  5
2CD
100
AcDbEntity
  8
0
100
AcDbLine
 62
7
  6
CONTINUOUS
 10
370.6633594715
 20
588.1205650011
 11
371.6785919111
 21
587.635871187
  0
LINE
  5
2CE
100
AcDbEntity
  8
0
100
AcDbLine
 62
7
  6
CONTINUOUS
 10
370.3990459825
 20
589.3077209672
 11
370.7416600726
 21
588.7197630581
  0
LINE
  5
2CF
100
AcDbEntity
  8
0
100
AcDbLine
 62
7
  6
CONTINUOUS
 10
371.9218946421
 20
588.580680246
 11
371.5750759843
 21
589.595032076
  0
LINE
  5
2D0
100
AcDbEntity
  8
0
100
AcDbLine
 62
7
  6
CONTINUOUS
 10
390.8108259318
 20
409.7399838672
 11
390.8108259318
 21
277.7399838672
  0
LINE
  5
2D1
100
AcDbEntity
  8
0
100
AcDbLine
 62
7
  6
CONTINUOUS
 10
349.5608259318
 20
472.7187072144
 11
348.7274922011
 21
471.4421114729
  0
LINE
  5
2D2
100
AcDbEntity
  8
0
100
AcDbLine
 62
7
  6
CONTINUOUS
 10
338.3108259318
 20
479.7399838672
 11
333.3108259318
 21
473.9953031049
  0
LINE
  5
2D3
100
AcDbEntity
  8
0
100
AcDbLine
 62
7
  6
CONTINUOUS
 10
334.7691592155
 20
473.9953031049
 11
338.3108259318
 21
478.0378564105
  0
LINE
  5
2D4
100
AcDbEntity
  8
0
100
AcDbLine
 62
7
  6
CONTINUOUS
 10
344.7691596625
 20
478.8889201389
 11
344.1441596625
 21
478.2506223426
  0
LINE
  5
2D5
100
AcDbEntity
  8
0
100
AcDbLine
 62
7
  6
CONTINUOUS
 10
349.3524922011
 20
470.5910476701
 11
349.9774922011
 21
471.2293455408
  0
LINE
  5
2D6
100
AcDbEntity
  8
RUNDUNGEN
100
AcDbLine
 62
7
  6
CONTINUOUS
 10
397.6083682715
 20
596.9847393325
 11
368.8108259318
 21
608.9130719326
  0
LINE
  5
2D7
100
AcDbEntity
  8
0
100
AcDbLine
 62
7
  6
CONTINUOUS
 10
368.8108259318
 20
590.2781646821
 11
369.8047241301
 21
589.803656294
  0
LINE
  5
2D8
100
AcDbEntity
  8
0
100
AcDbLine
 62
7
  6
CONTINUOUS
 10
370.2997305195
 20
590.8404893003
 11
368.8108259318
 21
591.5513243911
  0
LINE
  5
2D9
100
AcDbEntity
  8
0
100
AcDbLine
 62
7
  6
CONTINUOUS
 10
371.0632551967
 20
590.2637729038
 11
370.2997305195
 21
590.8404893003
  0
LINE
  5
2DA
100
AcDbEntity
  8
0
100
AcDbLine
 62
7
  6
CONTINUOUS
 10
369.8047241301
 20
589.803656294
 11
370.3990459825
 21
589.3077209672
  0
LINE
  5
2DB
100
AcDbEntity
  8
0
100
AcDbLine
 62
7
  6
CONTINUOUS
 10
371.5750759843
 20
589.595032076
 11
371.0632551967
 21
590.2637729038
  0
LINE
  5
2DC
100
AcDbEntity
  8
BEZUGSACHSEN
100
AcDbLine
 62
7
  6
CONTINUOUS
 10
416.8108259318
 20
527.0705103351
 11
416.8108259318
 21
491.2399838672
  0
LINE
  5
2DD
100
AcDbEntity
  8
BEZUGSACHSEN
100
AcDbLine
 62
7
  6
CONTINUOUS
 10
421.3598992925
 20
539.6442438778
 11
414.5480612611
 21
523.1990121177
  0
LINE
  5
2DE
100
AcDbEntity
  8
0
100
AcDbLine
 62
7
  6
CONTINUOUS
 10
345.3941596625
 20
478.0378564105
 11
346.0191596625
 21
478.4633882747
  0
LINE
  5
2DF
100
AcDbEntity
  8
0
100
AcDbLine
 62
7
  6
CONTINUOUS
 10
348.7274922011
 20
471.4421114729
 11
348.1024922011
 21
471.0165796087
  0
LINE
  5
2E0
100
AcDbEntity
  8
0
100
AcDbLine
 62
7
  6
CONTINUOUS
 10
345.8108259318
 20
479.5272179351
 11
344.7691596625
 21
478.8889201389
  0
LINE
  5
2E1
100
AcDbEntity
  8
0
100
AcDbLine
 62
7
  6
CONTINUOUS
 10
348.3108259318
 20
469.9527498179
 11
349.3524922011
 21
470.5910476701
  0
LINE
  5
2E2
100
AcDbEntity
  8
RUNDUNGEN
100
AcDbLine
 62
7
  6
CONTINUOUS
 10
421.3462000699
 20
544.2687967057
 11
421.3597499251
 21
544.2360844614
  0
LINE
  5
2E3
100
AcDbEntity
  8
BEZUGSACHSEN
100
AcDbLine
 62
7
  6
CONTINUOUS
 10
421.3597499251
 20
544.2360844614
 11
400.8555706993
 21
593.7375520338
  0
LINE
  5
2E4
100
AcDbEntity
  8
BEZUGSACHSEN
100
AcDbLine
 62
7
  6
CONTINUOUS
 10
428.3108259318
 20
489.2399838672
 11
428.3108259318
 21
433.568410992
  0
LINE
  5
2E5
100
AcDbEntity
  8
BEZUGSACHSEN
100
AcDbLine
 62
7
  6
CONTINUOUS
 10
430.8108259318
 20
430.2399838672
 11
430.8108259318
 21
410.7399838672
  0
LINE
  5
2E6
100
AcDbEntity
  8
FASEN
100
AcDbLine
 62
7
  6
CONTINUOUS
 10
430.8108259318
 20
410.7399838672
 11
429.8108259318
 21
409.7399838672
  0
LINE
  5
2E7
100
AcDbEntity
  8
0
100
AcDbLine
 62
7
  6
CONTINUOUS
 10
390.8108259318
 20
277.7399838672
 11
387.8108259318
 21
274.7399838672
  0
LINE
  5
2E8
100
AcDbEntity
  8
0
100
AcDbLine
 62
7
  6
CONTINUOUS
 10
669.5336624829
 20
274.7399838672
 11
753.5336624829
 21
274.7399838672
  0
LINE
  5
2E9
100
AcDbEntity
  8
0
100
AcDbLine
 62
7
  6
CONTINUOUS
 10
666.5336624829
 20
277.7399838672
 11
756.5336624829
 21
277.7399838672
  0
LINE
  5
2EA
100
AcDbEntity
  8
0
100
AcDbLine
 62
7
  6
CONTINUOUS
 10
666.5336624829
 20
277.7399838672
 11
669.5336624829
 21
274.7399838672
  0
LINE
  5
2EB
100
AcDbEntity
  8
FASEN
100
AcDbLine
 62
7
  6
CONTINUOUS
 10
626.5336624829
 20
410.7399838672
 11
627.5336624829
 21
409.7399838672
  0
LINE
  5
2EC
100
AcDbEntity
  8
FASEN
100
AcDbLine
 62
7
  6
CONTINUOUS
 10
627.5336624829
 20
409.7399838672
 11
795.5336624829
 21
409.7399838672
  0
LINE
  5
2ED
100
AcDbEntity
  8
FASEN
100
AcDbLine
 62
7
  6
CONTINUOUS
 10
626.5336624829
 20
410.7399838672
 11
796.5336624829
 21
410.7399838672
  0
LINE
  5
2EE
100
AcDbEntity
  8
BEZUGSACHSEN
100
AcDbLine
 62
7
  6
CONTINUOUS
 10
626.5336624829
 20
430.2399838672
 11
796.5336624829
 21
430.2399838672
  0
LINE
  5
2EF
100
AcDbEntity
  8
KONSTRUKTIONSELEMENTE
100
AcDbLine
 62
7
  6
CONTINUOUS
 10
794.5385767414
 20
432.2399838672
 11
786.0336624829
 21
432.2399838672
  0
LINE
  5
2F0
100
AcDbEntity
  8
KONSTRUKTIONSELEMENTE
100
AcDbLine
 62
7
  6
CONTINUOUS
 10
637.0336624829
 20
432.2399838672
 11
628.5287482243
 21
432.2399838672
  0
LINE
  5
2F1
100
AcDbEntity
  8
0
100
AcDbLine
 62
7
  6
CONTINUOUS
 10
610.5336624829
 20
623.7399838672
 11
610.5336624829
 21
732.7399838672
  0
LINE
  5
2F2
100
AcDbEntity
  8
BEZUGSACHSEN
100
AcDbLine
 62
7
  6
CONTINUOUS
 10
626.5336624829
 20
430.2399838672
 11
626.5336624829
 21
410.7399838672
  0
LINE
  5
2F3
100
AcDbEntity
  8
KONSTRUKTIONSELEMENTE
100
AcDbLine
 62
7
  6
CONTINUOUS
 10
639.0336624829
 20
434.2399838672
 11
639.0336624829
 21
491.2399838672
  0
LINE
  5
2F4
100
AcDbEntity
  8
BEZUGSACHSEN
100
AcDbLine
 62
7
  6
CONTINUOUS
 10
640.5336624829
 20
505.4399838672
 11
640.5336624829
 21
491.2399838672
  0
LINE
  5
2F5
100
AcDbEntity
  8
KONSTRUKTIONSELEMENTE
100
AcDbLine
 62
7
  6
CONTINUOUS
 10
784.0336624829
 20
489.2399838672
 11
639.0336624829
 21
489.2399838672
  0
LINE
  5
2F6
100
AcDbEntity
  8
KONSTRUKTIONSELEMENTE
100
AcDbLine
 62
7
  6
CONTINUOUS
 10
639.0336624829
 20
491.2399838672
 11
784.0336624829
 21
491.2399838672
  0
LINE
  5
2F7
100
AcDbEntity
  8
0
100
AcDbLine
 62
7
  6
CONTINUOUS
 10
656.5336624829
 20
623.7399838672
 11
656.5336624829
 21
732.7399838672
  0
LINE
  5
2F8
100
AcDbEntity
  8
0
100
AcDbLine
 62
7
  6
CONTINUOUS
 10
666.5336624829
 20
409.7399838672
 11
666.5336624829
 21
277.7399838672
  0
LINE
  5
2F9
100
AcDbEntity
  8
BEZUGSACHSEN
100
AcDbLine
 62
7
  6
CONTINUOUS
 10
777.5336624829
 20
510.4399838672
 11
748.3797788748
 21
510.4399838672
  0
LINE
  5
2FA
100
AcDbEntity
  8
BEZUGSACHSEN
100
AcDbLine
 62
7
  6
CONTINUOUS
 10
674.6874378051
 20
510.4399838672
 11
645.5336624829
 21
510.4399838672
  0
LINE
  5
2FB
100
AcDbEntity
  8
0
100
AcDbLine
 62
7
  6
CONTINUOUS
 10
691.0336624829
 20
585.3924686342
 11
691.0336624829
 21
587.8098055469
  0
LINE
  5
2FC
100
AcDbEntity
  8
0
100
AcDbLine
 62
7
  6
CONTINUOUS
 10
691.0336624829
 20
588.0136920888
 11
691.0336624829
 21
601.350924362
  0
LINE
  5
2FD
100
AcDbEntity
  8
BEZUGSACHSEN
100
AcDbLine
 62
7
  6
CONTINUOUS
 10
691.5336624829
 20
555.532335465
 11
691.5336624829
 21
590.6760845749
  0
LINE
  5
2FE
100
AcDbEntity
  8
RUNDUNGEN
100
AcDbLine
 62
7
  6
CONTINUOUS
 10
691.5336624829
 20
590.6760845749
 11
691.5336624829
 21
610.8632384652
  0
LINE
  5
2FF
100
AcDbEntity
  8
RUNDUNGEN
100
AcDbLine
 62
7
  6
CONTINUOUS
 10
683.3774255148
 20
526.7621348232
 11
681.4139368782
 21
520.3398528747
  0
LINE
  5
300
100
AcDbEntity
  8
BEZUGSACHSEN
100
AcDbLine
 62
7
  6
CONTINUOUS
 10
679.4691120209
 20
513.9786173977
 11
690.921924697
 21
551.4390797283
  0
LINE
  5
301
100
AcDbEntity
  8
BEZUGSACHSEN
100
AcDbLine
 62
7
  6
CONTINUOUS
 10
794.61944892
 20
432.1541974301
 11
796.5336624829
 21
430.2399838672
  0
LINE
  5
302
100
AcDbEntity
  8
KONSTRUKTIONSELEMENTE
100
AcDbLine
 62
7
  6
CONTINUOUS
 10
794.61944892
 20
432.1541974301
 11
794.5385767414
 21
432.2399838672
  0
LWPOLYLINE
  5
303
100
AcDbEntity
  8
RUNDUNGEN
100
AcDbPolyline
 62
7
  6
CONTINUOUS
 90
15
 70
0
 10
731.5336624546
 20
610.8632380816
 10
731.5141893916
 20
611.3978098664
 10
731.3959144061
 20
612.2945924235
 10
731.1726873854
 20
613.1616652547
 10
730.8503069374
 20
613.9879370816
 10
730.4380174169
 20
614.7583257368
 10
729.9425446432
 20
615.4656765057
 10
729.3715753197
 20
616.1029008164
 10
728.733538138
 20
616.6624499162
 10
728.0389630174
 20
617.1374795179
 10
727.2974998043
 20
617.5223639543
 10
726.5205910414
 20
617.8127740397
 10
725.7179484167
 20
618.0059702589
 10
724.8994066121
 20
618.1002634464
 10
724.5336622965
 20
618.110270855
  0
LINE
  5
304
100
AcDbEntity
  8
BEZUGSACHSEN
100
AcDbLine
 62
7
  6
CONTINUOUS
 10
731.5336624829
 20
555.532335465
 11
731.5336624829
 21
590.6760845749
  0
LINE
  5
305
100
AcDbEntity
  8
RUNDUNGEN
100
AcDbLine
 62
7
  6
CONTINUOUS
 10
731.5336624829
 20
590.6760845749
 11
731.5336624829
 21
610.8632384652
  0
LINE
  5
306
100
AcDbEntity
  8
0
100
AcDbLine
 62
7
  6
CONTINUOUS
 10
732.5336624829
 20
596.7753517744
 11
732.5336624829
 21
566.3279524504
  0
LINE
  5
307
100
AcDbEntity
  8
0
100
AcDbLine
 62
7
  6
CONTINUOUS
 10
731.5336624829
 20
566.3279524504
 11
732.5336624829
 21
566.3279524504
  0
LINE
  5
308
100
AcDbEntity
  8
0
100
AcDbLine
 62
7
  6
CONTINUOUS
 10
731.5336624829
 20
571.6962955969
 11
732.5336624829
 21
571.6962955969
  0
LINE
  5
309
100
AcDbEntity
  8
0
100
AcDbLine
 62
7
  6
CONTINUOUS
 10
731.5336624829
 20
575.3081127248
 11
732.5336624829
 21
575.3081127248
  0
LINE
  5
30A
100
AcDbEntity
  8
0
100
AcDbLine
 62
7
  6
CONTINUOUS
 10
731.5336624829
 20
575.9463547166
 11
732.5336624829
 21
575.9463547166
  0
LINE
  5
30B
100
AcDbEntity
  8
0
100
AcDbLine
 62
7
  6
CONTINUOUS
 10
731.5336624829
 20
576.2056639344
 11
732.5336624829
 21
576.2056639344
  0
LINE
  5
30C
100
AcDbEntity
  8
BEZUGSACHSEN
100
AcDbLine
 62
7
  6
CONTINUOUS
 10
743.5982129449
 20
513.9786173977
 11
732.1454002688
 21
551.4390797283
  0
LINE
  5
30D
100
AcDbEntity
  8
KONSTRUKTIONSELEMENTE
100
AcDbLine
 62
7
  6
CONTINUOUS
 10
628.4478760458
 20
432.1541974301
 11
628.5287482243
 21
432.2399838672
  0
LINE
  5
30E
100
AcDbEntity
  8
BEZUGSACHSEN
100
AcDbLine
 62
7
  6
CONTINUOUS
 10
628.4478760458
 20
432.1541974301
 11
626.5336624829
 21
430.2399838672
  0
LINE
  5
30F
100
AcDbEntity
  8
0
100
AcDbLine
 62
7
  6
CONTINUOUS
 10
731.5336624829
 20
579.7682078693
 11
732.5336624829
 21
579.7682078693
  0
LINE
  5
310
100
AcDbEntity
  8
0
100
AcDbLine
 62
7
  6
CONTINUOUS
 10
731.5336624829
 20
580.5325590875
 11
732.5336624829
 21
580.5325590875
  0
LINE
  5
311
100
AcDbEntity
  8
0
100
AcDbLine
 62
7
  6
CONTINUOUS
 10
731.5336624829
 20
583.5899625026
 11
732.5336624829
 21
583.5899625026
  0
LINE
  5
312
100
AcDbEntity
  8
0
100
AcDbLine
 62
7
  6
CONTINUOUS
 10
731.5336624829
 20
584.3543133564
 11
732.5336624829
 21
584.3543133564
  0
LINE
  5
313
100
AcDbEntity
  8
0
100
AcDbLine
 62
7
  6
CONTINUOUS
 10
691.5336624829
 20
585.3523681311
 11
691.0336624829
 21
585.3523681311
  0
LINE
  5
314
100
AcDbEntity
  8
0
100
AcDbLine
 62
7
  6
CONTINUOUS
 10
691.5336624829
 20
585.3924686342
 11
691.0336624829
 21
585.3924686342
  0
LINE
  5
315
100
AcDbEntity
  8
0
100
AcDbLine
 62
7
  6
CONTINUOUS
 10
731.5336624829
 20
586.3350800808
 11
732.5336624829
 21
586.3350800808
  0
LINE
  5
316
100
AcDbEntity
  8
0
100
AcDbLine
 62
7
  6
CONTINUOUS
 10
691.5336624829
 20
587.8098055469
 11
691.0336624829
 21
587.8098055469
  0
LINE
  5
317
100
AcDbEntity
  8
0
100
AcDbLine
 62
7
  6
CONTINUOUS
 10
731.5336624829
 20
588.7184080933
 11
732.5336624829
 21
588.7184080933
  0
LINE
  5
318
100
AcDbEntity
  8
0
100
AcDbLine
 62
7
  6
CONTINUOUS
 10
731.5336624829
 20
589.0525081874
 11
732.5336624829
 21
589.0525081874
  0
LINE
  5
319
100
AcDbEntity
  8
0
100
AcDbLine
 62
7
  6
CONTINUOUS
 10
731.5336624829
 20
589.1248752361
 11
732.5336624829
 21
589.1248752361
  0
LINE
  5
31A
100
AcDbEntity
  8
0
100
AcDbLine
 62
7
  6
CONTINUOUS
 10
691.5336624829
 20
592.1523681311
 11
691.0336624829
 21
592.1523681311
  0
LINE
  5
31B
100
AcDbEntity
  8
0
100
AcDbLine
 62
7
  6
CONTINUOUS
 10
691.5336624829
 20
594.5697050437
 11
691.0336624829
 21
594.5697050437
  0
LINE
  5
31C
100
AcDbEntity
  8
0
100
AcDbLine
 62
7
  6
CONTINUOUS
 10
731.5336624829
 20
595.2725702511
 11
732.5336624829
 21
595.2725702511
  0
LINE
  5
31D
100
AcDbEntity
  8
0
100
AcDbLine
 62
7
  6
CONTINUOUS
 10
731.5336624829
 20
595.4563740734
 11
732.5336624829
 21
595.4563740734
  0
LINE
  5
31E
100
AcDbEntity
  8
0
100
AcDbLine
 62
7
  6
CONTINUOUS
 10
731.5336624829
 20
596.314125478
 11
732.5336624829
 21
596.314125478
  0
LINE
  5
31F
100
AcDbEntity
  8
0
100
AcDbLine
 62
7
  6
CONTINUOUS
 10
756.5336624829
 20
409.7399838672
 11
756.5336624829
 21
277.7399838672
  0
LINE
  5
320
100
AcDbEntity
  8
0
100
AcDbLine
 62
7
  6
CONTINUOUS
 10
766.5336624829
 20
732.7399838672
 11
766.5336624829
 21
623.7399838672
  0
LINE
  5
321
100
AcDbEntity
  8
0
100
AcDbLine
 62
7
  6
CONTINUOUS
 10
731.5336624829
 20
596.4979293003
 11
732.5336624829
 21
596.4979293003
  0
LINE
  5
322
100
AcDbEntity
  8
0
100
AcDbLine
 62
7
  6
CONTINUOUS
 10
731.5336624829
 20
596.7753517744
 11
732.5336624829
 21
596.7753517744
  0
LINE
  5
323
100
AcDbEntity
  8
0
100
AcDbLine
 62
7
  6
CONTINUOUS
 10
691.5336624829
 20
598.8949307153
 11
691.0336624829
 21
598.8949307153
  0
LINE
  5
324
100
AcDbEntity
  8
0
100
AcDbLine
 62
7
  6
CONTINUOUS
 10
691.5336624829
 20
601.3122676279
 11
691.0336624829
 21
601.3122676279
  0
LINE
  5
325
100
AcDbEntity
  8
0
100
AcDbLine
 62
7
  6
CONTINUOUS
 10
691.5336624829
 20
601.3523681311
 11
691.0336624829
 21
601.3523681311
  0
LINE
  5
326
100
AcDbEntity
  8
BEZUGSACHSEN
100
AcDbLine
 62
7
  6
CONTINUOUS
 10
782.5336624829
 20
491.2399838672
 11
782.5336624829
 21
505.4399838672
  0
LINE
  5
327
100
AcDbEntity
  8
KONSTRUKTIONSELEMENTE
100
AcDbLine
 62
7
  6
CONTINUOUS
 10
784.0336624829
 20
491.2399838672
 11
784.0336624829
 21
434.2399838672
  0
LWPOLYLINE
  5
328
100
AcDbEntity
  8
RUNDUNGEN
100
AcDbPolyline
 62
7
  6
CONTINUOUS
 90
15
 70
0
 10
698.5336625429
 20
618.1102708714
 10
698.1304969922
 20
618.0981284496
 10
697.3125137197
 20
617.9993400721
 10
696.5110725392
 20
617.8017484856
 10
695.735918416
 20
617.5071886376
 10
694.9967553804
 20
617.1184427189
 10
694.3049308725
 20
616.6399405237
 10
693.6700452669
 20
616.0773433254
 10
693.1025420782
 20
615.4375093301
 10
692.6107656739
 20
614.7280138628
 10
692.2023531118
 20
613.9559088931
 10
691.8839639917
 20
613.1283456584
 10
691.6648650035
 20
612.2604169071
 10
691.5507309271
 20
611.3630222463
 10
691.5336669533
 20
610.8654717655
  0
LINE
  5
329
100
AcDbEntity
  8
RUNDUNGEN
100
AcDbLine
 62
7
  6
CONTINUOUS
 10
698.5336624829
 20
618.110415066
 11
724.5336623403
 21
618.110415066
  0
LINE
  5
32A
100
AcDbEntity
  8
BEZUGSACHSEN
100
AcDbLine
 62
7
  6
CONTINUOUS
 10
796.5336624829
 20
430.2399838672
 11
796.5336624829
 21
410.7399838672
  0
LINE
  5
32B
100
AcDbEntity
  8
0
100
AcDbLine
 62
7
  6
CONTINUOUS
 10
812.5336624829
 20
732.7399838672
 11
812.5336624829
 21
623.7399838672
  0
LINE
  5
32C
100
AcDbEntity
  8
FASEN
100
AcDbLine
 62
7
  6
CONTINUOUS
 10
796.5336624829
 20
410.7399838672
 11
795.5336624829
 21
409.7399838672
  0
LINE
  5
32D
100
AcDbEntity
  8
0
100
AcDbLine
 62
7
  6
CONTINUOUS
 10
756.5336624829
 20
277.7399838672
 11
753.5336624829
 21
274.7399838672
  0
LWPOLYLINE
  5
32E
100
AcDbEntity
  8
BEZUGSACHSEN
100
AcDbPolyline
 62
7
  6
CONTINUOUS
 90
5
 70
0
 10
269.8052808696
 20
107.1959004167
 10
269.8092549852
 20
106.9468869462
 10
269.8250263761
 20
106.6368090334
 10
269.8528049672
 20
106.3313364445
 10
269.8663409664
 20
106.2182461998
  0
LINE
  5
32F
100
AcDbEntity
  8
BEZUGSACHSEN
100
AcDbLine
 62
7
  6
CONTINUOUS
 10
269.8051791336
 20
107.1959113049
 11
269.8051791336
 21
139.354206325
  0
LWPOLYLINE
  5
330
100
AcDbEntity
  8
BEZUGSACHSEN
100
AcDbPolyline
 62
7
  6
CONTINUOUS
 90
5
 70
0
 10
269.8663409664
 20
140.3318714301
 10
269.8528049672
 20
140.2187811855
 10
269.8250263761
 20
139.9133085965
 10
269.8092549852
 20
139.6032306837
 10
269.8052808696
 20
139.3542172132
  0
LINE
  5
331
100
AcDbEntity
  8
BEZUGSACHSEN
100
AcDbLine
 62
7
  6
CONTINUOUS
 10
269.8664096686
 20
140.3324104315
 11
269.8663409664
 21
140.3318714301
  0
LWPOLYLINE
  5
332
100
AcDbEntity
  8
BEZUGSACHSEN
100
AcDbPolyline
 62
7
  6
CONTINUOUS
 90
11
 70
0
 10
280.6433054185
 20
151.2112754873
 10
280.6434734518
 20
151.2115378734
 10
280.6122677784
 20
151.1781092864
 10
280.5465060447
 20
151.1113019165
 10
280.4543109604
 20
151.0215120059
 10
280.3380301221
 20
150.911970779
 10
280.2035574824
 20
150.788613317
 10
280.0528409967
 20
150.6532585097
 10
279.8899185649
 20
150.5094604188
 10
279.7164800953
 20
150.3585684213
 10
279.5354544952
 20
150.2029401359
  0
LINE
  5
333
100
AcDbEntity
  8
KONSTRUKTIONSELEMENTE
100
AcDbLine
 62
7
  6
CONTINUOUS
 10
385.1808653019
 20
50.775058815
 11
368.8108259318
 21
50.775058815
  0
LINE
  5
334
100
AcDbEntity
  8
KONSTRUKTIONSELEMENTE
100
AcDbLine
 62
7
  6
CONTINUOUS
 10
322.8108259318
 20
50.775058815
 11
306.4407865617
 21
50.775058815
  0
LWPOLYLINE
  5
335
100
AcDbEntity
  8
BEZUGSACHSEN
100
AcDbPolyline
 62
7
  6
CONTINUOUS
 90
8
 70
0
 10
269.8664439176
 20
106.2176930458
 10
269.9368126975
 20
105.7780565941
 10
270.159158188
 20
104.925221282
 10
270.4896866317
 20
104.1061594364
 10
270.9237757324
 20
103.3334295911
 10
271.4562175886
 20
102.6185856175
 10
272.0773850753
 20
101.9754806068
 10
272.6400011954
 20
101.5138582907
  0
LINE
  5
336
100
AcDbEntity
  8
BEZUGSACHSEN
100
AcDbLine
 62
7
  6
CONTINUOUS
 10
269.866412027
 20
106.2176887774
 11
269.8663409664
 21
106.2182461998
  0
LWPOLYLINE
  5
337
100
AcDbEntity
  8
BEZUGSACHSEN
100
AcDbPolyline
 62
7
  6
CONTINUOUS
 90
3
 70
0
 10
279.5354544952
 20
150.2029401359
 10
279.1545757999
 20
149.8801946888
 10
278.9785144283
 20
149.7326854797
  0
LWPOLYLINE
  5
338
100
AcDbEntity
  8
BEZUGSACHSEN
100
AcDbPolyline
 62
7
  6
CONTINUOUS
 90
8
 70
0
 10
272.6400796545
 20
145.0363171684
 10
272.0284723598
 20
144.5296376457
 10
271.4206261664
 20
143.8893021201
 10
270.8999861815
 20
143.1797917438
 10
270.4756156793
 20
142.41448246
 10
270.1524375951
 20
141.6044501479
 10
269.934809935
 20
140.7616632183
 10
269.8664415637
 20
140.3324061626
  0
LWPOLYLINE
  5
339
100
AcDbEntity
  8
BEZUGSACHSEN
100
AcDbPolyline
 62
7
  6
CONTINUOUS
 90
3
 70
0
 10
278.9780101073
 20
149.7322573778
 10
278.8754191816
 20
149.6480019661
 10
278.6002293147
 20
149.4355037909
  0
LINE
  5
33A
100
AcDbEntity
  8
BEZUGSACHSEN
100
AcDbLine
 62
7
  6
CONTINUOUS
 10
278.5959193716
 20
149.4323213213
 11
272.6379219007
 21
145.034728407
  0
LINE
  5
33B
100
AcDbEntity
  8
BEZUGSACHSEN
100
AcDbLine
 62
7
  6
CONTINUOUS
 10
278.6002101044
 20
149.4354883055
 11
278.600769653
 21
149.4359012848
  0
LINE
  5
33C
100
AcDbEntity
  8
BEZUGSACHSEN
100
AcDbLine
 62
7
  6
CONTINUOUS
 10
272.6371721426
 20
101.5159426297
 11
278.5959193716
 21
97.1177963086
  0
LINE
  5
33D
100
AcDbEntity
  8
BEZUGSACHSEN
100
AcDbLine
 62
7
  6
CONTINUOUS
 10
278.6002096492
 20
97.1146296604
 11
278.600769653
 21
97.1142163452
  0
LWPOLYLINE
  5
33E
100
AcDbEntity
  8
BEZUGSACHSEN
100
AcDbPolyline
 62
7
  6
CONTINUOUS
 90
3
 70
0
 10
278.60022886
 20
97.1146141746
 10
278.851831477
 20
96.9210885448
 10
278.9780105652
 20
96.8178598697
  0
LWPOLYLINE
  5
33F
100
AcDbEntity
  8
BEZUGSACHSEN
100
AcDbPolyline
 62
7
  6
CONTINUOUS
 90
11
 70
0
 10
278.9780092931
 20
96.8178609322
 10
279.1174080309
 20
96.7011400251
 10
279.3607856436
 20
96.4958834162
 10
279.5918593561
 20
96.2988647649
 10
279.8102079386
 20
96.1102513244
 10
280.0131829128
 20
95.9320757965
 10
280.2001239298
 20
95.7646185975
 10
280.3635574389
 20
95.6143683885
 10
280.5027696148
 20
95.4818351441
 10
280.5985198703
 20
95.3862693789
 10
280.6296618901
 20
95.3536337781
  0
LINE
  5
340
100
AcDbEntity
  8
0
100
AcDbLine
 62
7
  6
CONTINUOUS
 10
299.7982654821
 20
103.275058815
 11
299.7982654821
 21
102.275058815
  0
LINE
  5
341
100
AcDbEntity
  8
0
100
AcDbLine
 62
7
  6
CONTINUOUS
 10
302.4824370554
 20
103.275058815
 11
302.4824370554
 21
102.275058815
  0
LINE
  5
342
100
AcDbEntity
  8
0
100
AcDbLine
 62
7
  6
CONTINUOUS
 10
303.1953339007
 20
103.275058815
 11
303.1953339007
 21
102.275058815
  0
LINE
  5
343
100
AcDbEntity
  8
0
100
AcDbLine
 62
7
  6
CONTINUOUS
 10
304.1037787055
 20
103.275058815
 11
304.1037787055
 21
102.275058815
  0
LINE
  5
344
100
AcDbEntity
  8
0
100
AcDbLine
 62
7
  6
CONTINUOUS
 10
305.0540774624
 20
103.275058815
 11
305.0540774624
 21
102.275058815
  0
LINE
  5
345
100
AcDbEntity
  8
0
100
AcDbLine
 62
7
  6
CONTINUOUS
 10
305.6270008206
 20
103.275058815
 11
305.6270008206
 21
102.275058815
  0
LINE
  5
346
100
AcDbEntity
  8
0
100
AcDbLine
 62
7
  6
CONTINUOUS
 10
306.1835815706
 20
103.275058815
 11
306.1835815706
 21
102.275058815
  0
LINE
  5
347
100
AcDbEntity
  8
0
100
AcDbLine
 62
7
  6
CONTINUOUS
 10
307.0090471497
 20
103.275058815
 11
307.0090471497
 21
102.275058815
  0
LINE
  5
348
100
AcDbEntity
  8
0
100
AcDbLine
 62
7
  6
CONTINUOUS
 10
310.3109078914
 20
103.275058815
 11
310.3109078914
 21
102.275058815
  0
LINE
  5
349
100
AcDbEntity
  8
0
100
AcDbLine
 62
7
  6
CONTINUOUS
 10
311.1363730768
 20
103.275058815
 11
311.1363730768
 21
102.275058815
  0
LINE
  5
34A
100
AcDbEntity
  8
0
100
AcDbLine
 62
7
  6
CONTINUOUS
 10
313.6698811805
 20
103.275058815
 11
313.6698811805
 21
102.275058815
  0
LINE
  5
34B
100
AcDbEntity
  8
0
100
AcDbLine
 62
7
  6
CONTINUOUS
 10
317.4869150531
 20
103.275058815
 11
317.4869150531
 21
102.275058815
  0
LINE
  5
34C
100
AcDbEntity
  8
0
100
AcDbLine
 62
7
  6
CONTINUOUS
 10
318.3835492512
 20
103.275058815
 11
318.3835492512
 21
102.275058815
  0
LINE
  5
34D
100
AcDbEntity
  8
0
100
AcDbLine
 62
7
  6
CONTINUOUS
 10
319.222557359
 20
103.275058815
 11
319.222557359
 21
102.275058815
  0
LINE
  5
34E
100
AcDbEntity
  8
0
100
AcDbLine
 62
7
  6
CONTINUOUS
 10
320.2644018692
 20
103.275058815
 11
320.2644018692
 21
102.275058815
  0
LINE
  5
34F
100
AcDbEntity
  8
0
100
AcDbLine
 62
7
  6
CONTINUOUS
 10
320.9881614368
 20
103.275058815
 11
320.9881614368
 21
102.275058815
  0
LINE
  5
350
100
AcDbEntity
  8
0
100
AcDbLine
 62
7
  6
CONTINUOUS
 10
321.6542951983
 20
103.275058815
 11
321.6542951983
 21
102.275058815
  0
LINE
  5
351
100
AcDbEntity
  8
0
100
AcDbLine
 62
7
  6
CONTINUOUS
 10
322.8108259318
 20
201.275058815
 11
322.8108259318
 21
45.275058815
  0
LINE
  5
352
100
AcDbEntity
  8
0
100
AcDbLine
 62
7
  6
CONTINUOUS
 10
371.9218946421
 20
102.275058815
 11
368.8108259318
 21
102.275058815
  0
LINE
  5
353
100
AcDbEntity
  8
0
100
AcDbLine
 62
7
  6
CONTINUOUS
 10
322.8108259318
 20
102.275058815
 11
299.7982654821
 21
102.275058815
  0
LINE
  5
354
100
AcDbEntity
  8
BEZUGSACHSEN
100
AcDbLine
 62
7
  6
CONTINUOUS
 10
409.1039441534
 20
103.275058815
 11
394.5469266395
 21
103.275058815
  0
LINE
  5
355
100
AcDbEntity
  8
RUNDUNGEN
100
AcDbLine
 62
7
  6
CONTINUOUS
 10
394.5469266395
 20
103.275058815
 11
368.8108259318
 21
103.275058815
  0
LINE
  5
356
100
AcDbEntity
  8
BEZUGSACHSEN
100
AcDbLine
 62
7
  6
CONTINUOUS
 10
282.5177077102
 20
103.275058815
 11
297.0747252241
 21
103.275058815
  0
LINE
  5
357
100
AcDbEntity
  8
RUNDUNGEN
100
AcDbLine
 62
7
  6
CONTINUOUS
 10
297.0747252241
 20
103.275058815
 11
322.8108259318
 21
103.275058815
  0
LINE
  5
358
100
AcDbEntity
  8
0
100
AcDbLine
 62
7
  6
CONTINUOUS
 10
368.8108259318
 20
201.275058815
 11
368.8108259318
 21
45.275058815
  0
LINE
  5
359
100
AcDbEntity
  8
0
100
AcDbLine
 62
7
  6
CONTINUOUS
 10
370.2997305195
 20
103.275058815
 11
370.2997305195
 21
102.275058815
  0
LINE
  5
35A
100
AcDbEntity
  8
0
100
AcDbLine
 62
7
  6
CONTINUOUS
 10
371.0632551967
 20
103.275058815
 11
371.0632551967
 21
102.275058815
  0
LINE
  5
35B
100
AcDbEntity
  8
0
100
AcDbLine
 62
7
  6
CONTINUOUS
 10
371.5750759843
 20
103.275058815
 11
371.5750759843
 21
102.275058815
  0
LINE
  5
35C
100
AcDbEntity
  8
0
100
AcDbLine
 62
7
  6
CONTINUOUS
 10
371.9218946421
 20
103.275058815
 11
371.9218946421
 21
102.275058815
  0
LINE
  5
35D
100
AcDbEntity
  8
RUNDUNGEN
100
AcDbLine
 62
7
  6
CONTINUOUS
 10
409.1039441534
 20
143.275058815
 11
368.8108259318
 21
143.275058815
  0
LINE
  5
35E
100
AcDbEntity
  8
BEZUGSACHSEN
100
AcDbLine
 62
7
  6
CONTINUOUS
 10
282.5177077102
 20
143.275058815
 11
297.0747252241
 21
143.275058815
  0
LINE
  5
35F
100
AcDbEntity
  8
RUNDUNGEN
100
AcDbLine
 62
7
  6
CONTINUOUS
 10
297.0747252241
 20
143.275058815
 11
322.8108259318
 21
143.275058815
  0
LINE
  5
360
100
AcDbEntity
  8
BEZUGSACHSEN
100
AcDbLine
 62
7
  6
CONTINUOUS
 10
413.0214417592
 20
97.1146293244
 11
413.0208822106
 21
97.1142163452
  0
LINE
  5
361
100
AcDbEntity
  8
BEZUGSACHSEN
100
AcDbLine
 62
7
  6
CONTINUOUS
 10
413.0257324919
 20
97.1177963086
 11
418.9837299629
 21
101.5153892229
  0
LINE
  5
362
100
AcDbEntity
  8
RUNDUNGEN
100
AcDbLine
 62
7
  6
CONTINUOUS
 10
413.0214422144
 20
149.4354879695
 11
413.0208822106
 21
149.4359012848
  0
LINE
  5
363
100
AcDbEntity
  8
RUNDUNGEN
100
AcDbLine
 62
7
  6
CONTINUOUS
 10
418.984479721
 20
145.0341750002
 11
413.0257324919
 21
149.4323213213
  0
LWPOLYLINE
  5
364
100
AcDbEntity
  8
RUNDUNGEN
100
AcDbPolyline
 62
7
  6
CONTINUOUS
 90
3
 70
0
 10
413.0214230036
 20
149.4355034553
 10
412.7698204006
 20
149.6290290739
 10
412.6436412984
 20
149.7322577602
  0
LWPOLYLINE
  5
365
100
AcDbEntity
  8
BEZUGSACHSEN
100
AcDbPolyline
 62
7
  6
CONTINUOUS
 90
11
 70
0
 10
410.978346445
 20
95.3388421427
 10
410.9781784118
 20
95.3385797565
 10
411.0093840852
 20
95.3720083435
 10
411.0751458189
 20
95.4388157134
 10
411.1673409032
 20
95.528605624
 10
411.2836217415
 20
95.6381468509
 10
411.4180943812
 20
95.7615043129
 10
411.5688108669
 20
95.8968591202
 10
411.7317332987
 20
96.0406572111
 10
411.9051717683
 20
96.1915492086
 10
412.0861973684
 20
96.347177494
  0
LWPOLYLINE
  5
366
100
AcDbEntity
  8
BEZUGSACHSEN
100
AcDbPolyline
 62
7
  6
CONTINUOUS
 90
3
 70
0
 10
412.0861973684
 20
96.347177494
 10
412.4670760637
 20
96.6699229411
 10
412.6431374353
 20
96.8174321502
  0
LWPOLYLINE
  5
367
100
AcDbEntity
  8
BEZUGSACHSEN
100
AcDbPolyline
 62
7
  6
CONTINUOUS
 90
8
 70
0
 10
418.9815722091
 20
101.5138004615
 10
419.5931795038
 20
102.0204799843
 10
420.2010256972
 20
102.6608155099
 10
420.7216656821
 20
103.3703258862
 10
421.1460361843
 20
104.1356351699
 10
421.4692142685
 20
104.945667482
 10
421.6868419286
 20
105.7884544117
 10
421.7552102999
 20
106.2177114673
  0
LWPOLYLINE
  5
368
100
AcDbEntity
  8
BEZUGSACHSEN
100
AcDbPolyline
 62
7
  6
CONTINUOUS
 90
3
 70
0
 10
412.6436417563
 20
96.8178602521
 10
412.7462326838
 20
96.9021156653
 10
413.0214225489
 20
97.114613839
  0
LWPOLYLINE
  5
369
100
AcDbEntity
  8
RUNDUNGEN
100
AcDbPolyline
 62
7
  6
CONTINUOUS
 90
11
 70
0
 10
412.6436425705
 20
149.7322566977
 10
412.5042438327
 20
149.8489776048
 10
412.26086622
 20
150.0542342137
 10
412.0297925075
 20
150.251252865
 10
411.8114439249
 20
150.4398663055
 10
411.6084689508
 20
150.6180418334
 10
411.4215279338
 20
150.7854990324
 10
411.2580944247
 20
150.9357492414
 10
411.1188822488
 20
151.0682824858
 10
411.0231319933
 20
151.163848251
 10
410.9919899734
 20
151.1964838519
  0
LWPOLYLINE
  5
36A
100
AcDbEntity
  8
RUNDUNGEN
100
AcDbPolyline
 62
7
  6
CONTINUOUS
 90
5
 70
0
 10
421.816370994
 20
139.3542172132
 10
421.8123968784
 20
139.6032306837
 10
421.7966254875
 20
139.9133085965
 10
421.7688468964
 20
140.2187811855
 10
421.7553108972
 20
140.3318714301
  0
LINE
  5
36B
100
AcDbEntity
  8
BEZUGSACHSEN
100
AcDbLine
 62
7
  6
CONTINUOUS
 10
421.81647273
 20
139.354206325
 11
421.81647273
 21
107.1959113049
  0
LWPOLYLINE
  5
36C
100
AcDbEntity
  8
BEZUGSACHSEN
100
AcDbPolyline
 62
7
  6
CONTINUOUS
 90
5
 70
0
 10
421.7553108972
 20
106.2182461998
 10
421.7688468964
 20
106.3313364445
 10
421.7966254875
 20
106.6368090334
 10
421.8123968784
 20
106.9468869462
 10
421.816370994
 20
107.1959004167
  0
LINE
  5
36D
100
AcDbEntity
  8
BEZUGSACHSEN
100
AcDbLine
 62
7
  6
CONTINUOUS
 10
421.755242195
 20
106.2177071984
 11
421.7553108972
 21
106.2182461998
  0
LINE
  5
36E
100
AcDbEntity
  8
KONSTRUKTIONSELEMENTE
100
AcDbLine
 62
7
  6
CONTINUOUS
 10
306.4407865617
 20
195.775058815
 11
322.8108259318
 21
195.775058815
  0
LINE
  5
36F
100
AcDbEntity
  8
KONSTRUKTIONSELEMENTE
100
AcDbLine
 62
7
  6
CONTINUOUS
 10
368.8108259318
 20
195.775058815
 11
385.1808653019
 21
195.775058815
  0
LWPOLYLINE
  5
370
100
AcDbEntity
  8
RUNDUNGEN
100
AcDbPolyline
 62
7
  6
CONTINUOUS
 90
8
 70
0
 10
421.755207946
 20
140.3324245841
 10
421.6848391661
 20
140.7720610358
 10
421.4624936756
 20
141.6248963479
 10
421.1319652319
 20
142.4439581935
 10
420.6978761312
 20
143.2166880388
 10
420.165434275
 20
143.9315320124
 10
419.5442667883
 20
144.5746370231
 10
418.9816506682
 20
145.0362593392
  0
LINE
  5
371
100
AcDbEntity
  8
RUNDUNGEN
100
AcDbLine
 62
7
  6
CONTINUOUS
 10
421.7552398366
 20
140.3324288525
 11
421.7553108972
 21
140.3318714301
  0
ARC
  5
372
100
AcDbEntity
  8
KONSTRUKTIONSELEMENTE
100
AcDbCircle
 62
7
  6
CONTINUOUS
 10
365.3304409621
 20
365.9497864944
 40
136.6325882197
100
AcDbArc
 50
113.5106131824
 51
115.5315082529
  0
ARC
  5
373
100
AcDbEntity
  8
KONSTRUKTIONSELEMENTE
100
AcDbCircle
 62
7
  6
CONTINUOUS
 10
326.2912109016
 20
365.9497864944
 40
136.6325882197
100
AcDbArc
 50
64.4684917471
 51
66.4893868176
  0
ARC
  5
374
100
AcDbEntity
  8
RUNDUNGEN
100
AcDbCircle
 62
7
  6
CONTINUOUS
 10
345.8108259318
 20
541.2399838672
 40
28.5
100
AcDbArc
 50
13.2763559261
 51
23.740842692
  0
ARC
  5
375
100
AcDbEntity
  8
BEZUGSACHSEN
100
AcDbCircle
 62
7
  6
CONTINUOUS
 10
345.8108259318
 20
541.2399838672
 40
28.5
100
AcDbArc
 50
143.8734184956
 51
36.1265815044
  0
ARC
  5
376
100
AcDbEntity
  8
0
100
AcDbCircle
 62
7
  6
CONTINUOUS
 10
345.8108259318
 20
810.7399838672
 40
23.0
100
AcDbArc
 50
0.0
 51
180.0
  0
ARC
  5
377
100
AcDbEntity
  8
0
100
AcDbCircle
 62
7
  6
CONTINUOUS
 10
345.8108259318
 20
545.7399838672
 40
23.0
100
AcDbArc
 50
180.0
 51
360.0
  0
ARC
  5
378
100
AcDbEntity
  8
BEZUGSACHSEN
100
AcDbCircle
 62
7
  6
CONTINUOUS
 10
424.8107853776
 20
527.0704124287
 40
7.9999958932
100
AcDbArc
 50
157.4992410241
 51
179.9992987931
  0
ARC
  5
379
100
AcDbEntity
  8
BEZUGSACHSEN
100
AcDbCircle
 62
7
  6
CONTINUOUS
 10
266.810866486
 20
527.0704124287
 40
7.9999958932
100
AcDbArc
 50
0.0007012069
 51
22.5007589759
  0
ARC
  5
37A
100
AcDbEntity
  8
BEZUGSACHSEN
100
AcDbCircle
 62
7
  6
CONTINUOUS
 10
275.8051791336
 20
541.9399838672
 40
6.0
100
AcDbArc
 50
157.5
 51
202.4962727337
  0
ARC
  5
37B
100
AcDbEntity
  8
BEZUGSACHSEN
100
AcDbCircle
 62
7
  6
CONTINUOUS
 10
296.3093583594
 20
591.4414514396
 40
6.0
100
AcDbArc
 50
112.4997330509
 51
157.5
  0
ARC
  5
37C
100
AcDbEntity
  8
RUNDUNGEN
100
AcDbCircle
 62
7
  6
CONTINUOUS
 10
395.3122935042
 20
591.4414514396
 40
6.0
100
AcDbArc
 50
22.5
 51
67.5002669491
  0
ARC
  5
37D
100
AcDbEntity
  8
BEZUGSACHSEN
100
AcDbCircle
 62
7
  6
CONTINUOUS
 10
395.3122935042
 20
591.4414514396
 40
6.0
100
AcDbArc
 50
22.5
 51
67.5002669491
  0
ARC
  5
37E
100
AcDbEntity
  8
RUNDUNGEN
100
AcDbCircle
 62
7
  6
CONTINUOUS
 10
415.81647273
 20
541.9399838672
 40
6.0
100
AcDbArc
 50
337.5037272663
 51
22.5
  0
ARC
  5
37F
100
AcDbEntity
  8
BEZUGSACHSEN
100
AcDbCircle
 62
7
  6
CONTINUOUS
 10
415.81647273
 20
541.9399838672
 40
6.0
100
AcDbArc
 50
337.5037272663
 51
22.5
  0
ARC
  5
380
100
AcDbEntity
  8
KONSTRUKTIONSELEMENTE
100
AcDbCircle
 62
7
  6
CONTINUOUS
 10
430.3108259318
 20
433.568410992
 40
2.0
100
AcDbArc
 50
180.0
 51
225.0
  0
ARC
  5
381
100
AcDbEntity
  8
KONSTRUKTIONSELEMENTE
100
AcDbCircle
 62
7
  6
CONTINUOUS
 10
261.3108259318
 20
433.568410992
 40
2.0
100
AcDbArc
 50
315.0
 51
360.0
  0
ARC
  5
382
100
AcDbEntity
  8
BEZUGSACHSEN
100
AcDbCircle
 62
7
  6
CONTINUOUS
 10
677.5336624829
 20
555.5322978861
 40
14.0
100
AcDbArc
 50
342.9999388381
 51
0.0001537936
  0
ARC
  5
383
100
AcDbEntity
  8
BEZUGSACHSEN
100
AcDbCircle
 62
7
  6
CONTINUOUS
 10
645.5336624829
 20
505.4399838672
 40
5.0
100
AcDbArc
 50
90.0
 51
180.0
  0
ARC
  5
384
100
AcDbEntity
  8
RUNDUNGEN
100
AcDbCircle
 62
7
  6
CONTINUOUS
 10
674.687437805
 20
515.4399838672
 40
5.0
100
AcDbArc
 50
270.0012408672
 51
297.1996545672
  0
ARC
  5
385
100
AcDbEntity
  8
BEZUGSACHSEN
100
AcDbCircle
 62
7
  6
CONTINUOUS
 10
674.687437805
 20
515.4399838672
 40
5.0
100
AcDbArc
 50
270.0001795574
 51
342.9999417403
  0
ARC
  5
386
100
AcDbEntity
  8
KONSTRUKTIONSELEMENTE
100
AcDbCircle
 62
7
  6
CONTINUOUS
 10
637.0336624829
 20
434.2399838672
 40
2.0
100
AcDbArc
 50
270.0
 51
360.0
  0
ARC
  5
387
100
AcDbEntity
  8
BEZUGSACHSEN
100
AcDbCircle
 62
7
  6
CONTINUOUS
 10
745.5336624829
 20
555.5322978861
 40
14.0
100
AcDbArc
 50
179.9998462064
 51
197.0000611619
  0
ARC
  5
388
100
AcDbEntity
  8
BEZUGSACHSEN
100
AcDbCircle
 62
7
  6
CONTINUOUS
 10
777.5336624829
 20
505.4399838672
 40
5.0
100
AcDbArc
 50
0.0
 51
90.0
  0
ARC
  5
389
100
AcDbEntity
  8
BEZUGSACHSEN
100
AcDbCircle
 62
7
  6
CONTINUOUS
 10
748.3798871607
 20
515.4399838672
 40
5.0
100
AcDbArc
 50
197.0000582597
 51
269.9998204426
  0
ARC
  5
38A
100
AcDbEntity
  8
KONSTRUKTIONSELEMENTE
100
AcDbCircle
 62
7
  6
CONTINUOUS
 10
786.0336624829
 20
434.2399838672
 40
2.0
100
AcDbArc
 50
180.0
 51
270.0
  0
ARC
  5
38B
100
AcDbEntity
  8
0
100
AcDbCircle
 62
7
  6
CONTINUOUS
 10
711.5336624829
 20
732.7399838672
 40
101.0
100
AcDbArc
 50
0.0
 51
180.0
  0
ARC
  5
38C
100
AcDbEntity
  8
0
100
AcDbCircle
 62
7
  6
CONTINUOUS
 10
711.5336624829
 20
623.7399838672
 40
101.0
100
AcDbArc
 50
286.1899432247
 51
360.0
  0
ARC
  5
38D
100
AcDbEntity
  8
0
100
AcDbCircle
 62
7
  6
CONTINUOUS
 10
711.5336624829
 20
623.7399838672
 40
101.0
100
AcDbArc
 50
180.0
 51
253.8100567753
  0
ARC
  5
38E
100
AcDbEntity
  8
0
100
AcDbCircle
 62
7
  6
CONTINUOUS
 10
711.5336624829
 20
732.7399838672
 40
55.0
100
AcDbArc
 50
0.0
 51
180.0
  0
ARC
  5
38F
100
AcDbEntity
  8
0
100
AcDbCircle
 62
7
  6
CONTINUOUS
 10
711.5336624829
 20
623.7399838672
 40
55.0
100
AcDbArc
 50
292.5
 51
360.0
  0
ARC
  5
390
100
AcDbEntity
  8
0
100
AcDbCircle
 62
7
  6
CONTINUOUS
 10
711.5336624829
 20
623.7399838672
 40
55.0
100
AcDbArc
 50
180.0
 51
248.6710236173
  0
ARC
  5
391
100
AcDbEntity
  8
BEZUGSACHSEN
100
AcDbCircle
 62
7
  6
CONTINUOUS
 10
345.8108259318
 20
123.275058815
 40
85.0
100
AcDbArc
 50
285.466936093
 51
74.533063907
  0
ARC
  5
392
100
AcDbEntity
  8
BEZUGSACHSEN
100
AcDbCircle
 62
7
  6
CONTINUOUS
 10
345.8108259318
 20
123.275058815
 40
85.0
100
AcDbArc
 50
105.466936093
 51
254.5367904548
  0
ARC
  5
393
100
AcDbEntity
  8
KONSTRUKTIONSELEMENTE
100
AcDbCircle
 62
7
  6
CONTINUOUS
 10
345.8108259318
 20
123.275058815
 40
83.0049142586
100
AcDbArc
 50
106.0353512224
 51
116.1637893325
  0
ARC
  5
394
100
AcDbEntity
  8
KONSTRUKTIONSELEMENTE
100
AcDbCircle
 62
7
  6
CONTINUOUS
 10
345.8108259318
 20
123.275058815
 40
83.0049142586
100
AcDbArc
 50
63.8362106675
 51
73.9646487776
  0
ARC
  5
395
100
AcDbEntity
  8
KONSTRUKTIONSELEMENTE
100
AcDbCircle
 62
7
  6
CONTINUOUS
 10
345.8108259318
 20
123.275058815
 40
83.0049142586
100
AcDbArc
 50
286.0353512224
 51
296.1637893325
  0
ARC
  5
396
100
AcDbEntity
  8
KONSTRUKTIONSELEMENTE
100
AcDbCircle
 62
7
  6
CONTINUOUS
 10
345.8108259318
 20
123.275058815
 40
83.0049142586
100
AcDbArc
 50
243.8362106675
 51
253.9643654002
  0
ARC
  5
397
100
AcDbEntity
  8
KONSTRUKTIONSELEMENTE
100
AcDbCircle
 62
7
  6
CONTINUOUS
 10
345.8108259318
 20
123.275058815
 40
82.5
100
AcDbArc
 50
298.3340519074
 51
61.6659480926
  0
ARC
  5
398
100
AcDbEntity
  8
KONSTRUKTIONSELEMENTE
100
AcDbCircle
 62
7
  6
CONTINUOUS
 10
345.8108259318
 20
123.275058815
 40
82.5
100
AcDbArc
 50
118.3340519074
 51
241.6659480926
  0
ARC
  5
399
100
AcDbEntity
  8
KONSTRUKTIONSELEMENTE
100
AcDbCircle
 62
7
  6
CONTINUOUS
 10
345.8108259318
 20
123.275058815
 40
80.5
100
AcDbArc
 50
295.7601690897
 51
64.2398309103
  0
ARC
  5
39A
100
AcDbEntity
  8
KONSTRUKTIONSELEMENTE
100
AcDbCircle
 62
7
  6
CONTINUOUS
 10
345.8108259318
 20
123.275058815
 40
80.5
100
AcDbArc
 50
115.7601690897
 51
244.2398309103
  0
ARC
  5
39B
100
AcDbEntity
  8
RUNDUNGEN
100
AcDbCircle
 62
7
  6
CONTINUOUS
 10
345.8108259318
 20
123.275058815
 40
71.0
100
AcDbArc
 50
23.0087913434
 51
33.936664389
  0
ARC
  5
39C
100
AcDbEntity
  8
BEZUGSACHSEN
100
AcDbCircle
 62
7
  6
CONTINUOUS
 10
345.8108259318
 20
123.275058815
 40
71.0
100
AcDbArc
 50
108.9046835336
 51
156.9919889641
  0
ARC
  5
39D
100
AcDbEntity
  8
BEZUGSACHSEN
100
AcDbCircle
 62
7
  6
CONTINUOUS
 10
345.8108259318
 20
123.275058815
 40
71.0
100
AcDbArc
 50
33.936664389
 51
71.0953164664
  0
ARC
  5
39E
100
AcDbEntity
  8
BEZUGSACHSEN
100
AcDbCircle
 62
7
  6
CONTINUOUS
 10
345.8108259318
 20
123.275058815
 40
71.0
100
AcDbArc
 50
203.0087913434
 51
251.0953164664
  0
ARC
  5
39F
100
AcDbEntity
  8
BEZUGSACHSEN
100
AcDbCircle
 62
7
  6
CONTINUOUS
 10
345.8108259318
 20
123.275058815
 40
71.0
100
AcDbArc
 50
288.9046835336
 51
336.9919889641
  0
ARC
  5
3A0
100
AcDbEntity
  8
0
100
AcDbCircle
 62
7
  6
CONTINUOUS
 10
345.8108259318
 20
201.275058815
 40
23.0
100
AcDbArc
 50
0.0
 51
180.0
  0
ARC
  5
3A1
100
AcDbEntity
  8
0
100
AcDbCircle
 62
7
  6
CONTINUOUS
 10
345.8108259318
 20
45.275058815
 40
23.0
100
AcDbArc
 50
180.0
 51
360.0
  0
SPLINE
  5
3A2
100
AcDbEntity
  8
KONSTRUKTIONSELEMENTE
100
AcDbSpline
 62
7
  6
CONTINUOUS
 70
0
 71
3
 72
13
 73
9
 74
0
 42
0.0000001
 43
0.0000001
 44
0.0000000001
 40
0.0
 40
0.0
 40
0.0
 40
0.0
 40
0.2576080646
 40
0.4971072544
 40
0.6135347979
 40
0.7338079505
 40
0.8623686228
 40
1.0
 40
1.0
 40
1.0
 40
1.0
 10
309.2107468189
 20
432.2399838672
 30
0.0
 10
308.948205975
 20
432.2399838672
 30
0.0
 10
308.4415820907
 20
432.2607906331
 30
0.0
 10
307.8231812724
 20
432.4105937647
 30
0.0
 10
307.4037364645
 20
432.6622540889
 30
0.0
 10
307.1293322971
 20
432.9169251647
 30
0.0
 10
306.8841176892
 20
433.2261932375
 30
0.0
 10
306.7327410188
 20
433.4514034036
 30
0.0
 10
306.6553847106
 20
433.568410992
 30
0.0
  0
SPLINE
  5
3A3
100
AcDbEntity
  8
KONSTRUKTIONSELEMENTE
100
AcDbSpline
 62
7
  6
CONTINUOUS
 70
0
 71
3
 72
9
 73
5
 74
0
 42
0.0000001
 43
0.0000001
 44
0.0000000001
 40
0.0
 40
0.0
 40
0.0
 40
0.0
 40
0.4944301835
 40
1.0
 40
1.0
 40
1.0
 40
1.0
 10
306.6553847106
 20
433.568410992
 30
0.0
 10
306.5906025329
 20
433.6663992047
 30
0.0
 10
306.4816424793
 20
433.8808361555
 30
0.0
 10
306.4407865617
 20
434.1198706365
 30
0.0
 10
306.4407865617
 20
434.2399838672
 30
0.0
  0
SPLINE
  5
3A4
100
AcDbEntity
  8
KONSTRUKTIONSELEMENTE
100
AcDbSpline
 62
7
  6
CONTINUOUS
 70
0
 71
3
 72
9
 73
5
 74
0
 42
0.0000001
 43
0.0000001
 44
0.0000000001
 40
0.0
 40
0.0
 40
0.0
 40
0.0
 40
0.5055689192
 40
1.0
 40
1.0
 40
1.0
 40
1.0
 10
385.1808653019
 20
434.2399838672
 30
0.0
 10
385.1808653019
 20
434.1198708533
 30
0.0
 10
385.14000931
 20
433.8808364234
 30
0.0
 10
385.0310494463
 20
433.6663993795
 30
0.0
 10
384.966267153
 20
433.568410992
 30
0.0
  0
SPLINE
  5
3A5
100
AcDbEntity
  8
KONSTRUKTIONSELEMENTE
100
AcDbSpline
 62
7
  6
CONTINUOUS
 70
0
 71
3
 72
13
 73
9
 74
0
 42
0.0000001
 43
0.0000001
 44
0.0000000001
 40
0.0
 40
0.0
 40
0.0
 40
0.0
 40
0.1376314474
 40
0.2661922607
 40
0.3864655091
 40
0.5028931046
 40
0.7423921185
 40
1.0
 40
1.0
 40
1.0
 40
1.0
 10
384.966267153
 20
433.568410992
 30
0.0
 10
384.888910808
 20
433.4514033479
 30
0.0
 10
384.7375340367
 20
433.2261930098
 30
0.0
 10
384.4923191935
 20
432.9169246977
 30
0.0
 10
384.2179144154
 20
432.6622539021
 30
0.0
 10
383.7984698388
 20
432.4105933038
 30
0.0
 10
383.1800691244
 20
432.2607909005
 30
0.0
 10
382.6734456932
 20
432.2399838672
 30
0.0
 10
382.4109050447
 20
432.2399838672
 30
0.0
  0
SPLINE
  5
3A6
100
AcDbEntity
  8
KONSTRUKTIONSELEMENTE
100
AcDbSpline
 62
7
  6
CONTINUOUS
 70
0
 71
3
 72
11
 73
7
 74
0
 42
0.0000001
 43
0.0000001
 44
0.0000000001
 40
0.0
 40
0.0
 40
0.0
 40
0.0
 40
0.2823654721
 40
0.5578765311
 40
0.8054765386
 40
1.0
 40
1.0
 40
1.0
 40
1.0
 10
382.4109050447
 20
197.775058815
 30
0.0
 10
382.6801775737
 20
197.6427716221
 30
0.0
 10
383.2013501743
 20
197.3581517233
 30
0.0
 10
383.8935224159
 20
196.8467777792
 30
0.0
 10
384.4338392903
 20
196.3128366702
 30
0.0
 10
384.7843477196
 20
195.9892755568
 30
0.0
 10
384.966267153
 20
195.8911825257
 30
0.0
  0
SPLINE
  5
3A7
100
AcDbEntity
  8
KONSTRUKTIONSELEMENTE
100
AcDbSpline
 62
7
  6
CONTINUOUS
 70
0
 71
3
 72
11
 73
7
 74
0
 42
0.0000001
 43
0.0000001
 44
0.0000000001
 40
0.0
 40
0.0
 40
0.0
 40
0.0
 40
0.1945341955
 40
0.4421351267
 40
0.7176442068
 40
1.0
 40
1.0
 40
1.0
 40
1.0
 10
384.966267153
 20
50.6589351042
 30
0.0
 10
384.7843377209
 20
50.5608366817
 30
0.0
 10
384.43382729
 20
50.2372582967
 30
0.0
 10
383.893486128
 20
49.7033294366
 30
0.0
 10
383.2013356772
 20
49.1919463683
 30
0.0
 10
382.6801682845
 20
48.9073414442
 30
0.0
 10
382.4109050447
 20
48.775058815
 30
0.0
  0
SPLINE
  5
3A8
100
AcDbEntity
  8
KONSTRUKTIONSELEMENTE
100
AcDbSpline
 62
7
  6
CONTINUOUS
 70
0
 71
3
 72
11
 73
7
 74
0
 42
0.0000001
 43
0.0000001
 44
0.0000000001
 40
0.0
 40
0.0
 40
0.0
 40
0.0
 40
0.2823560164
 40
0.5578652442
 40
0.8054660246
 40
1.0
 40
1.0
 40
1.0
 40
1.0
 10
309.2107468189
 20
48.775058815
 30
0.0
 10
308.9414833641
 20
48.9073415498
 30
0.0
 10
308.4203157382
 20
49.1919468384
 30
0.0
 10
307.7281647979
 20
49.7033296825
 30
0.0
 10
307.1878242587
 20
50.2372588946
 30
0.0
 10
306.8373139383
 20
50.5608367919
 30
0.0
 10
306.6553847106
 20
50.6589351042
 30
0.0
  0
SPLINE
  5
3A9
100
AcDbEntity
  8
KONSTRUKTIONSELEMENTE
100
AcDbSpline
 62
7
  6
CONTINUOUS
 70
0
 71
3
 72
11
 73
7
 74
0
 42
0.0000001
 43
0.0000001
 44
0.0000000001
 40
0.0
 40
0.0
 40
0.0
 40
0.0
 40
0.194523653
 40
0.4421238297
 40
0.7176347695
 40
1.0
 40
1.0
 40
1.0
 40
1.0
 10
306.6553847106
 20
195.8911825257
 30
0.0
 10
306.8373043216
 20
195.9892756526
 30
0.0
 10
307.1878128469
 20
196.3128372519
 30
0.0
 10
307.7281304389
 20
196.846777928
 30
0.0
 10
308.4203020996
 20
197.3581522685
 30
0.0
 10
308.9414745226
 20
197.6427717365
 30
0.0
 10
309.2107468189
 20
197.775058815
 30
0.0
  0
ENDSEC
  0
SECTION
  2
OBJECTS
  0
DICTIONARY
  5
C
100
AcDbDictionary
280
0
281
1
  3
ACAD_GROUP
350
D
  3
ACAD_MLINESTYLE
350
17
  3
ACAD_LAYOUT
350
1A
  3
ACAD_PLOTSETTINGS
350
19
  3
ACAD_PLOTSTYLENAME
350
E
  0
DICTIONARY
  5
D
102
{ACAD_REACTORS
330
C
102
}
100
AcDbDictionary
280
0
281
1
  0
ACDBDICTIONARYWDFLT
  5
E
102
{ACAD_REACTORS
330
C
102
}
100
AcDbDictionary
281
1
  3
Normal
350
F
100
AcDbDictionaryWithDefault
340
F
  0
DICTIONARY
  5
17
102
{ACAD_REACTORS
330
C
102
}
100
AcDbDictionary
280
0
281
1
  3
Standard
350
18
  0
DICTIONARY
  5
19
102
{ACAD_REACTORS
330
C
102
}
100
AcDbDictionary
281
1
  0
DICTIONARY
  5
1A
102
{ACAD_REACTORS
330
C
102
}
100
AcDbDictionary
281
1
  3
Model
350
3AA
  3
Layout1
350
3AB
  0
ACDBPLACEHOLDER
  5
F
102
{ACAD_REACTORS
330
E
102
}
  0
MLINESTYLE
  5
18
102
{ACAD_REACTORS
330
17
102
}
100
AcDbMlineStyle
  2
STANDARD
 70
0
  3

 62
256
 51
90.0
 52
90.0
 71
2
 49
0.5
 62
256
  6
BYLAYER
 49
-0.5
 62
256
  6
BYLAYER
  0
LAYOUT
  5
3AA
102
{ACAD_REACTORS
330
1A
102
}
100
AcDbPlotSettings
  1

  2
none_device
  4
ISO_A0_(1189.00_x_841.00_MM)
  6

 40
0.0
 41
0.0
 42
0.0
 43
0.0
 44
1189.0
 45
841.0
 46
0.0
 47
0.0
 48
0.0
 49
0.0
140
0.0
141
0.0
142
1.0
143
1.0
 70
1024
 72
1
 73
0
 74
0
  7

 75
0
147
1.0
148
0.0
149
0.0
100
AcDbLayout
  1
Model
 70
0
 71
0
 10
0.0
 20
0.0
 11
1189.0
 21
841.0
 12
0.0
 22
0.0
 32
0.0
 14
0.0
 24
0.0
 34
0.0
 15
0.0
 25
0.0
 35
0.0
146
0.0
 13
0.0
 23
0.0
 33
0.0
 16
1.0
 26
0.0
 36
0.0
 17
0.0
 27
1.0
 37
0.0
 76
0
330
212
345
0
346
0
  0
LAYOUT
  5
3AB
102
{ACAD_REACTORS
330
1A
102
}
100
AcDbPlotSettings
  1

  2
none_device
  4
ISO_A0_(1189.00_x_841.00_MM)
  6

 40
0.0
 41
0.0
 42
0.0
 43
0.0
 44
1189.0
 45
841.0
 46
0.0
 47
0.0
 48
0.0
 49
0.0
140
0.0
141
0.0
142
1.0
143
1.0
 70
0
 72
1
 73
0
 74
0
  7

 75
0
147
1.0
148
0.0
149
0.0
100
AcDbLayout
  1
Layout1
 70
0
 71
1
 10
0.0
 20
0.0
 11
1189.0
 21
841.0
 12
0.0
 22
0.0
 32
0.0
 14
0.0
 24
0.0
 34
0.0
 15
0.0
 25
0.0
 35
0.0
146
0.0
 13
0.0
 23
0.0
 33
0.0
 16
1.0
 26
0.0
 36
0.0
 17
0.0
 27
1.0
 37
0.0
 76
0
330
213
345
0
346
0
  0
ENDSEC
  0
EOF
