999
DXF file: 001-m35135-p-10.dxf
999
Pro/ENGINEER 2011490 by Parametric Technology Corporation
  0
SECTION
  2
HEADER
  9
$ACADVER
  1
AC1015
  9
$DWGCODEPAGE
  3
ANSI_1252
  9
$EXTMAX
 10
1189.0
 20
841.0
 30
0.0
  9
$EXTMIN
 10
0.0
 20
0.0
 30
0.0
  9
$LIMMIN
 10
0.0
 20
0.0
  9
$LIMMAX
 10
1189.0
 20
841.0
  9
$VIEWCTR
 10
594.5
 20
420.5
  9
$VIEWSIZE
 40
841.0
  9
$CLAYER
  8
0
  9
$LTSCALE
 40
65.395
  9
$CELTYPE
  6
BYLAYER
  9
$DIMSCALE
 40
1.0
  9
$DIMASZ
 40
3.5
  9
$DIMEXO
 40
7.43125
  9
$DIMDLI
 40
45.182
  9
$DIMEXE
 40
21.402
  9
$DIMCEN
 40
10.701
  9
$DIMLFAC
 40
1.0
  9
$DIMBLK
  1
_FILLED
  9
$DIMTXT
 40
3.5
  9
$DIMTOL
 70
1
  9
$DIMLIM
 70
0
  9
$DIMTFAC
 40
1.0
  9
$DIMTP
 40
0.005
  9
$DIMTM
 40
0.005
  9
$PDMODE
 70
3
  9
$PDSIZE
 40
0.3125
  9
$HANDSEED
  5
3D2
  9
$TILEMODE
 70
1
  9
$MEASUREMENT
 70
1
  9
$INSUNITS
 70
4
  0
ENDSEC
  0
SECTION
  2
CLASSES
  0
CLASS
  1
ACDBDICTIONARYWDFLT
  2
AcDbDictionaryWithDefault
  3
AutoCAD 2000
 90
0
280
0
281
0
  0
CLASS
  1
ACDBPLACEHOLDER
  2
AcDbPlaceHolder
  3
AutoCAD 2000
 90
0
280
0
281
0
  0
CLASS
  1
LAYOUT
  2
AcDbLayout
  3
AutoCAD 2000
 90
0
280
0
281
0
  0
ENDSEC
  0
SECTION
  2
TABLES
  0
TABLE
  2
VPORT
  5
8
100
AcDbSymbolTable
 70
2
  0
VPORT
  5
1F4
100
AcDbSymbolTableRecord
100
AcDbViewportTableRecord
  2
*ACTIVE
 70
0
 10
0.0
 20
0.0
 11
1.0
 21
1.0
 12
594.5
 22
420.5
 13
0.0
 23
0.0
 14
1.0
 24
1.0
 15
0.0
 25
0.0
 16
0.0
 26
0.0
 36
1.0
 17
0.0
 27
0.0
 37
0.0
 40
841.0
 41
1.4137931034
 42
50.0
 43
0.0
 44
0.0
 50
0.0
 51
0.0
 71
0
 72
100
 73
1
 74
1
 75
0
 76
0
 77
0
 78
0
  0
ENDTAB
  0
TABLE
  2
LTYPE
  5
5
100
AcDbSymbolTable
 70
6
  0
LTYPE
  5
14
100
AcDbSymbolTableRecord
100
AcDbLinetypeTableRecord
  2
BYBLOCK
 70
0
  3

 72
65
 73
0
 40
0.0
  0
LTYPE
  5
15
100
AcDbSymbolTableRecord
100
AcDbLinetypeTableRecord
  2
BYLAYER
 70
0
  3

 72
65
 73
0
 40
0.0
  0
LTYPE
  5
16
100
AcDbSymbolTableRecord
100
AcDbLinetypeTableRecord
  2
CONTINUOUS
 70
64
  3
Solid line
 72
65
 73
0
 40
0.0
  0
LTYPE
  5
1F5
100
AcDbSymbolTableRecord
100
AcDbLinetypeTableRecord
  2
CENTER
 70
64
  3
____ _ ____ _ ____ _ ____ _ ____ _ ____ _ ____
 72
65
 73
4
 40
0.6
 49
0.375
 74
0
 49
-0.075
 74
0
 49
0.075
 74
0
 49
-0.075
 74
0
  0
LTYPE
  5
1F6
100
AcDbSymbolTableRecord
100
AcDbLinetypeTableRecord
  2
HIDDEN
 70
64
  3
- - - - - - - - - - - - - - - - - - - -
 72
65
 73
2
 40
0.2
 49
0.1
 74
0
 49
-0.1
 74
0
  0
LTYPE
  5
1F7
100
AcDbSymbolTableRecord
100
AcDbLinetypeTableRecord
  2
PHANTOM
 70
64
  3
_____ _ _ _____ _ _ _____ _ _ _____
 72
65
 73
6
 40
0.8
 49
0.45
 74
0
 49
-0.05
 74
0
 49
0.1
 74
0
 49
-0.05
 74
0
 49
0.1
 74
0
 49
-0.05
 74
0
  0
LTYPE
  5
1F8
100
AcDbSymbolTableRecord
100
AcDbLinetypeTableRecord
  2
DOT
 70
64
  3
. . . . . . . . . . . . . . . . . . . .
 72
65
 73
2
 40
0.2
 49
0.1
 74
0
 49
-0.1
 74
0
  0
LTYPE
  5
1F9
100
AcDbSymbolTableRecord
100
AcDbLinetypeTableRecord
  2
DASHED
 70
64
  3
- - - - - - - - - - - - - - - - - - - -
 72
65
 73
2
 40
0.2
 49
0.1
 74
0
 49
-0.1
 74
0
  0
ENDTAB
  0
TABLE
  2
LAYER
  5
2
100
AcDbSymbolTable
 70
36
  0
LAYER
  5
10
100
AcDbSymbolTableRecord
100
AcDbLayerTableRecord
  2
0
 70
0
 62
7
  6
CONTINUOUS
370
-3
390
F
  0
LAYER
  5
1FA
100
AcDbSymbolTableRecord
100
AcDbLayerTableRecord
  2
DEFAULT_1
 70
0
 62
7
  6
CENTER
370
-3
390
F
  0
LAYER
  5
1FB
100
AcDbSymbolTableRecord
100
AcDbLayerTableRecord
  2
DEFAULT_2
 70
0
 62
8
  6
HIDDEN
370
-3
390
F
  0
LAYER
  5
1FC
100
AcDbSymbolTableRecord
100
AcDbLayerTableRecord
  2
DEFAULT_3
 70
0
 62
7
  6
PHANTOM
370
-3
390
F
  0
LAYER
  5
1FD
100
AcDbSymbolTableRecord
100
AcDbLayerTableRecord
  2
AUSFORMSCHRAEGEN
 70
0
 62
7
  6
CONTINUOUS
370
-3
390
F
  0
LAYER
  5
1FE
100
AcDbSymbolTableRecord
100
AcDbLayerTableRecord
  2
BEZUGSACHSEN
 70
0
 62
7
  6
CONTINUOUS
370
-3
390
F
  0
LAYER
  5
1FF
100
AcDbSymbolTableRecord
100
AcDbLayerTableRecord
  2
BEZUGSEBENEN
 70
0
 62
7
  6
CONTINUOUS
370
-3
390
F
  0
LAYER
  5
200
100
AcDbSymbolTableRecord
100
AcDbLayerTableRecord
  2
BEZUGSPUNKTE
 70
0
 62
7
  6
CONTINUOUS
370
-3
390
F
  0
LAYER
  5
201
100
AcDbSymbolTableRecord
100
AcDbLayerTableRecord
  2
BG_STARTBEZUEGE
 70
0
 62
7
  6
CONTINUOUS
370
-3
390
F
  0
LAYER
  5
202
100
AcDbSymbolTableRecord
100
AcDbLayerTableRecord
  2
BOHRUNGEN
 70
0
 62
7
  6
CONTINUOUS
370
-3
390
F
  0
LAYER
  5
203
100
AcDbSymbolTableRecord
100
AcDbLayerTableRecord
  2
FASEN
 70
0
 62
7
  6
CONTINUOUS
370
-3
390
F
  0
LAYER
  5
204
100
AcDbSymbolTableRecord
100
AcDbLayerTableRecord
  2
FLAECHEN
 70
0
 62
7
  6
CONTINUOUS
370
-3
390
F
  0
LAYER
  5
205
100
AcDbSymbolTableRecord
100
AcDbLayerTableRecord
  2
FLAECHENVERBUND
 70
0
 62
7
  6
CONTINUOUS
370
-3
390
F
  0
LAYER
  5
206
100
AcDbSymbolTableRecord
100
AcDbLayerTableRecord
  2
GEWINDE
 70
0
 62
7
  6
CONTINUOUS
370
-3
390
F
  0
LAYER
  5
207
100
AcDbSymbolTableRecord
100
AcDbLayerTableRecord
  2
HILFEN
 70
0
 62
7
  6
CONTINUOUS
370
-3
390
F
  0
LAYER
  5
208
100
AcDbSymbolTableRecord
100
AcDbLayerTableRecord
  2
KONSTRUKTIONSELEMENTE
 70
0
 62
7
  6
CONTINUOUS
370
-3
390
F
  0
LAYER
  5
209
100
AcDbSymbolTableRecord
100
AcDbLayerTableRecord
  2
KURVEN
 70
0
 62
7
  6
CONTINUOUS
370
-3
390
F
  0
LAYER
  5
20A
100
AcDbSymbolTableRecord
100
AcDbLayerTableRecord
  2
PLATZIERUNG
 70
0
 62
7
  6
CONTINUOUS
370
-3
390
F
  0
LAYER
  5
20B
100
AcDbSymbolTableRecord
100
AcDbLayerTableRecord
  2
RUNDUNGEN
 70
0
 62
7
  6
CONTINUOUS
370
-3
390
F
  0
LAYER
  5
20C
100
AcDbSymbolTableRecord
100
AcDbLayerTableRecord
  2
TEIL_STARTBEZUEGE
 70
0
 62
7
  6
CONTINUOUS
370
-3
390
F
  0
LAYER
  5
20D
100
AcDbSymbolTableRecord
100
AcDbLayerTableRecord
  2
XSEC_DATUMS
 70
0
 62
7
  6
CONTINUOUS
370
-3
390
F
  0
LAYER
  5
20E
100
AcDbSymbolTableRecord
100
AcDbLayerTableRecord
  2
ZEICHNUNGSBEMASSUNGEN
 70
0
 62
7
  6
CONTINUOUS
370
-3
390
F
  0
ENDTAB
  0
TABLE
  2
STYLE
  5
3
100
AcDbSymbolTable
 70
1
  0
STYLE
  5
11
100
AcDbSymbolTableRecord
100
AcDbTextStyleTableRecord
  2
STANDARD
 70
0
 40
0.0
 41
0.7
 50
0.0
 71
0
 42
0.2
  3
txt
  4

  0
STYLE
  5
20F
100
AcDbSymbolTableRecord
100
AcDbTextStyleTableRecord
  2
TEXTSTYLE_1
 70
0
 40
0.0
 41
0.8
 50
0.0
 71
0
 42
0.2
  3
gdt
  4

  0
ENDTAB
  0
TABLE
  2
VIEW
  5
6
100
AcDbSymbolTable
 70
0
  0
ENDTAB
  0
TABLE
  2
UCS
  5
7
100
AcDbSymbolTable
 70
0
  0
ENDTAB
  0
TABLE
  2
APPID
  5
9
100
AcDbSymbolTable
 70
1
  0
APPID
  5
210
100
AcDbSymbolTableRecord
100
AcDbRegAppTableRecord
  2
ACAD
 70
0
  0
ENDTAB
  0
TABLE
  2
BLOCK_RECORD
  5
1
100
AcDbSymbolTable
 70
0
  0
BLOCK_RECORD
  5
211
100
AcDbSymbolTableRecord
100
AcDbBlockTableRecord
  2
*Model_Space
  0
BLOCK_RECORD
  5
212
100
AcDbSymbolTableRecord
100
AcDbBlockTableRecord
  2
*Paper_Space
  0
ENDTAB
  0
TABLE
  2
DIMSTYLE
  5
A
100
AcDbSymbolTable
 70
1
100
AcDbDimStyleTable
 71
0
  0
DIMSTYLE
105
213
100
AcDbSymbolTableRecord
100
AcDbDimStyleTableRecord
  2
STANDARD
 70
0
  3

  4

 40
1.0
 41
3.5
 42
0.0625
 43
0.38
 44
0.18
 45
0.0
 46
0.0
 47
0.005
 48
0.005
140
3.5
141
0.09
142
0.0
143
25.4
144
1.0
145
0.0
146
1.0
147
0.09
 71
1.0
 72
0.0
 73
0
 74
0
 75
0
 76
0
 77
1
 78
8
170
0
171
2
172
0
173
0
174
0
175
0
176
0
177
0
178
5
270
2
271
3
272
3
273
2
274
2
275
0
280
0
281
0
282
0
283
1
284
8
285
0
286
0
287
3
288
0
340
11
  0
ENDTAB
  0
ENDSEC
  0
SECTION
  2
BLOCKS
  0
BLOCK
  5
20
100
AcDbEntity
  8
0
100
AcDbBlockBegin
  2
*Model_Space
 70
0
 10
0.0
 20
0.0
 30
0.0
  3
*Model_Space
  1

  0
ENDBLK
  5
21
100
AcDbEntity
  8
0
100
AcDbBlockEnd
  0
BLOCK
  5
1C
100
AcDbEntity
  8
0
100
AcDbBlockBegin
  2
*Paper_Space
 70
0
 10
0.0
 20
0.0
 30
0.0
  3
*Paper_Space
  1

  0
ENDBLK
  5
1D
100
AcDbEntity
  8
0
100
AcDbBlockEnd
  0
ENDSEC
  0
SECTION
  2
ENTITIES
  0
MTEXT
  5
214
100
AcDbEntity
  8
0
100
AcDbMText
 62
5
  6
CONTINUOUS
  7
STANDARD
 71
1
 72
1
 10
641.9520252268
 20
488.7935918174
 30
0.0
 11
1.0
 21
0.0
 31
0.0
 44
0.9
  1
VWBG 35t M80
 40
14.0
 41
139.3333333333
  0
MTEXT
  5
215
100
AcDbEntity
  8
0
100
AcDbMText
 62
5
  6
CONTINUOUS
  7
STANDARD
 71
1
 72
1
 10
339.6707243593
 20
571.6890989468
 30
0.0
 11
0.0
 21
1.0
 31
0.0
 44
0.9
  1
VWBG 35t M80
 40
14.0
 41
139.3333333333
  0
MTEXT
  5
216
100
AcDbEntity
  8
0
100
AcDbMText
 62
5
  6
CONTINUOUS
  7
STANDARD
 71
1
 72
1
 10
338.8270780988
 20
53.1047209573
 30
0.0
 11
0.0
 21
1.0
 31
0.0
 44
0.9
  1
VWBG 35t M80
 40
14.0
 41
139.3333333333
  0
LINE
  5
217
100
AcDbEntity
  8
0
100
AcDbLine
 62
7
  6
CONTINUOUS
 10
0.0
 20
0.0
 11
0.0
 21
841.0
  0
LINE
  5
218
100
AcDbEntity
  8
0
100
AcDbLine
 62
7
  6
CONTINUOUS
 10
0.0
 20
0.0
 11
1189.0
 21
0.0
  0
LINE
  5
219
100
AcDbEntity
  8
0
100
AcDbLine
 62
7
  6
CONTINUOUS
 10
0.0
 20
841.0
 11
1189.0
 21
841.0
  0
LINE
  5
21A
100
AcDbEntity
  8
0
100
AcDbLine
 62
7
  6
CONTINUOUS
 10
1189.0
 20
0.0
 11
1189.0
 21
841.0
  0
LINE
  5
21B
100
AcDbEntity
  8
0
100
AcDbLine
 62
7
  6
CONTINUOUS
 10
382.8108259318
 20
312.754679029
 11
308.8108259318
 21
312.754679029
  0
LINE
  5
21C
100
AcDbEntity
  8
0
100
AcDbLine
 62
7
  6
CONTINUOUS
 10
385.8108259318
 20
315.754679029
 11
305.8108259318
 21
315.754679029
  0
LINE
  5
21D
100
AcDbEntity
  8
0
100
AcDbLine
 62
7
  6
CONTINUOUS
 10
305.8108259318
 20
315.754679029
 11
308.8108259318
 21
312.754679029
  0
LINE
  5
21E
100
AcDbEntity
  8
FASEN
100
AcDbLine
 62
7
  6
CONTINUOUS
 10
260.8108259318
 20
433.754679029
 11
261.8108259318
 21
432.754679029
  0
LINE
  5
21F
100
AcDbEntity
  8
FASEN
100
AcDbLine
 62
7
  6
CONTINUOUS
 10
429.8108259318
 20
432.754679029
 11
261.8108259318
 21
432.754679029
  0
LINE
  5
220
100
AcDbEntity
  8
FASEN
100
AcDbLine
 62
7
  6
CONTINUOUS
 10
430.8108259318
 20
433.754679029
 11
260.8108259318
 21
433.754679029
  0
LINE
  5
221
100
AcDbEntity
  8
BEZUGSACHSEN
100
AcDbLine
 62
7
  6
CONTINUOUS
 10
430.8108259318
 20
453.254679029
 11
260.8108259318
 21
453.254679029
  0
LINE
  5
222
100
AcDbEntity
  8
KONSTRUKTIONSELEMENTE
100
AcDbLine
 62
7
  6
CONTINUOUS
 10
382.4109050447
 20
455.254679029
 11
309.2107468189
 21
455.254679029
  0
LINE
  5
223
100
AcDbEntity
  8
BEZUGSACHSEN
100
AcDbLine
 62
7
  6
CONTINUOUS
 10
260.8108259318
 20
453.254679029
 11
260.8108259318
 21
433.754679029
  0
LINE
  5
224
100
AcDbEntity
  8
BEZUGSACHSEN
100
AcDbLine
 62
7
  6
CONTINUOUS
 10
263.3108259318
 20
512.254679029
 11
263.3108259318
 21
456.5831061537
  0
LINE
  5
225
100
AcDbEntity
  8
BEZUGSACHSEN
100
AcDbLine
 62
7
  6
CONTINUOUS
 10
274.8108259318
 20
550.0852054969
 11
274.8108259318
 21
514.254679029
  0
LINE
  5
226
100
AcDbEntity
  8
BEZUGSACHSEN
100
AcDbLine
 62
7
  6
CONTINUOUS
 10
270.2619019385
 20
567.2507796232
 11
290.7660811643
 21
616.7522471956
  0
LINE
  5
227
100
AcDbEntity
  8
RUNDUNGEN
100
AcDbLine
 62
7
  6
CONTINUOUS
 10
294.0132835921
 20
619.9994344943
 11
322.8108259318
 21
631.9277670944
  0
LINE
  5
228
100
AcDbEntity
  8
0
100
AcDbLine
 62
7
  6
CONTINUOUS
 10
348.1458259318
 20
494.2512747705
 11
347.3124922011
 21
494.0385088384
  0
LINE
  5
229
100
AcDbEntity
  8
0
100
AcDbLine
 62
7
  6
CONTINUOUS
 10
347.3124922011
 20
492.974679029
 11
348.3541596625
 21
493.1874449797
  0
LINE
  5
22A
100
AcDbEntity
  8
0
100
AcDbLine
 62
7
  6
CONTINUOUS
 10
336.6874924991
 20
492.974679029
 11
338.3541593645
 21
492.974679029
  0
LINE
  5
22B
100
AcDbEntity
  8
0
100
AcDbLine
 62
7
  6
CONTINUOUS
 10
346.0624922011
 20
492.974679029
 11
347.3124922011
 21
492.974679029
  0
LINE
  5
22C
100
AcDbEntity
  8
0
100
AcDbLine
 62
7
  6
CONTINUOUS
 10
347.3124922011
 20
494.0385088384
 11
346.0624922011
 21
494.0385088384
  0
LINE
  5
22D
100
AcDbEntity
  8
0
100
AcDbLine
 62
7
  6
CONTINUOUS
 10
338.1458259318
 20
494.0385088384
 11
336.8958259318
 21
494.0385088384
  0
LINE
  5
22E
100
AcDbEntity
  8
0
100
AcDbLine
 62
7
  6
CONTINUOUS
 10
334.8124925736
 20
495.3151045799
 11
333.7708259318
 21
495.3151045799
  0
LINE
  5
22F
100
AcDbEntity
  8
0
100
AcDbLine
 62
7
  6
CONTINUOUS
 10
344.1874922011
 20
495.527870512
 11
342.9374927971
 21
495.527870512
  0
LINE
  5
230
100
AcDbEntity
  8
0
100
AcDbLine
 62
7
  6
CONTINUOUS
 10
355.4374933932
 20
493.1874449797
 11
356.6874933932
 21
492.974679029
  0
LINE
  5
231
100
AcDbEntity
  8
0
100
AcDbLine
 62
7
  6
CONTINUOUS
 10
336.8958259318
 20
494.0385088384
 11
335.8541592155
 21
494.2512747705
  0
LINE
  5
232
100
AcDbEntity
  8
0
100
AcDbLine
 62
7
  6
CONTINUOUS
 10
345.0208259318
 20
493.1874449797
 11
346.0624922011
 21
492.974679029
  0
LINE
  5
233
100
AcDbEntity
  8
0
100
AcDbLine
 62
7
  6
CONTINUOUS
 10
335.8541592155
 20
493.1874449797
 11
336.6874924991
 21
492.974679029
  0
LINE
  5
234
100
AcDbEntity
  8
BEZUGSACHSEN
100
AcDbLine
 62
7
  6
CONTINUOUS
 10
270.2617525711
 20
562.6589390395
 11
277.0735906025
 21
546.2137072794
  0
LINE
  5
235
100
AcDbEntity
  8
0
100
AcDbLine
 62
7
  6
CONTINUOUS
 10
302.4824370554
 20
598.3228078866
 11
299.7982654821
 21
594.7109907587
  0
LINE
  5
236
100
AcDbEntity
  8
0
100
AcDbLine
 62
7
  6
CONTINUOUS
 10
301.2377800132
 20
595.042844774
 11
303.3627490687
 21
597.9021998567
  0
LINE
  5
237
100
AcDbEntity
  8
0
100
AcDbLine
 62
7
  6
CONTINUOUS
 10
305.6681644124
 20
596.1888987368
 11
303.5431953569
 21
593.3295436541
  0
LINE
  5
238
100
AcDbEntity
  8
0
100
AcDbLine
 62
7
  6
CONTINUOUS
 10
311.1363730768
 20
607.3690085181
 11
310.3109078914
 21
606.6046576644
  0
LINE
  5
239
100
AcDbEntity
  8
0
100
AcDbLine
 62
7
  6
CONTINUOUS
 10
307.0090471497
 20
603.5472542493
 11
306.1835815706
 21
602.7829030311
  0
LINE
  5
23A
100
AcDbEntity
  8
0
100
AcDbLine
 62
7
  6
CONTINUOUS
 10
303.1953339007
 20
598.9610498784
 11
302.4824370554
 21
598.3228078866
  0
LINE
  5
23B
100
AcDbEntity
  8
0
100
AcDbLine
 62
7
  6
CONTINUOUS
 10
303.3627490687
 20
597.9021998567
 11
303.8519648429
 21
598.2394569444
  0
LINE
  5
23C
100
AcDbEntity
  8
0
100
AcDbLine
 62
7
  6
CONTINUOUS
 10
317.4869150531
 20
611.733103255
 11
313.6698811805
 21
609.3497752425
  0
LINE
  5
23D
100
AcDbEntity
  8
0
100
AcDbLine
 62
7
  6
CONTINUOUS
 10
315.2326488559
 20
608.971045522
 11
318.0954242604
 21
610.7585415314
  0
LINE
  5
23E
100
AcDbEntity
  8
0
100
AcDbLine
 62
7
  6
CONTINUOUS
 10
318.3835492512
 20
612.0672033492
 11
317.4869150531
 21
611.733103255
  0
LINE
  5
23F
100
AcDbEntity
  8
0
100
AcDbLine
 62
7
  6
CONTINUOUS
 10
318.0954242604
 20
610.7585415314
 11
318.833014167
 21
610.993335534
  0
LINE
  5
240
100
AcDbEntity
  8
0
100
AcDbLine
 62
7
  6
CONTINUOUS
 10
338.3541593645
 20
492.974679029
 11
339.1874927971
 21
493.1874449797
  0
LINE
  5
241
100
AcDbEntity
  8
0
100
AcDbLine
 62
7
  6
CONTINUOUS
 10
345.2291596625
 20
498.081061995
 11
346.0624922011
 21
498.2938279271
  0
LINE
  5
242
100
AcDbEntity
  8
0
100
AcDbLine
 62
7
  6
CONTINUOUS
 10
339.1874927971
 20
494.2512747705
 11
338.1458259318
 21
494.0385088384
  0
LINE
  5
243
100
AcDbEntity
  8
0
100
AcDbLine
 62
7
  6
CONTINUOUS
 10
346.0624922011
 20
499.3576575875
 11
345.0208259318
 21
499.1448916554
  0
LINE
  5
244
100
AcDbEntity
  8
0
100
AcDbLine
 62
7
  6
CONTINUOUS
 10
336.0624926481
 20
501.6980834365
 11
337.1041593645
 21
501.9108493686
  0
LINE
  5
245
100
AcDbEntity
  8
0
100
AcDbLine
 62
7
  6
CONTINUOUS
 10
337.3124924991
 20
502.974679029
 11
335.8541592155
 21
502.7619130969
  0
LINE
  5
246
100
AcDbEntity
  8
0
100
AcDbLine
 62
7
  6
CONTINUOUS
 10
342.9374927971
 20
497.4427641988
 11
344.3958259318
 21
497.4427641988
  0
LINE
  5
247
100
AcDbEntity
  8
0
100
AcDbLine
 62
7
  6
CONTINUOUS
 10
337.1041593645
 20
497.6555301308
 11
337.9374924991
 21
497.6555301308
  0
LINE
  5
248
100
AcDbEntity
  8
0
100
AcDbLine
 62
7
  6
CONTINUOUS
 10
346.0624922011
 20
498.2938279271
 11
347.3124922011
 21
498.2938279271
  0
LINE
  5
249
100
AcDbEntity
  8
0
100
AcDbLine
 62
7
  6
CONTINUOUS
 10
337.9374924991
 20
498.5065938592
 11
337.1041593645
 21
498.5065938592
  0
LINE
  5
24A
100
AcDbEntity
  8
0
100
AcDbLine
 62
7
  6
CONTINUOUS
 10
352.1041596625
 20
498.9321257233
 11
353.7708259318
 21
498.9321257233
  0
LINE
  5
24B
100
AcDbEntity
  8
0
100
AcDbLine
 62
7
  6
CONTINUOUS
 10
354.8124933932
 20
498.9321257233
 11
357.1041584704
 21
498.9321257233
  0
LINE
  5
24C
100
AcDbEntity
  8
0
100
AcDbLine
 62
7
  6
CONTINUOUS
 10
347.3124922011
 20
499.3576575875
 11
346.0624922011
 21
499.3576575875
  0
LINE
  5
24D
100
AcDbEntity
  8
0
100
AcDbLine
 62
7
  6
CONTINUOUS
 10
357.1041584704
 20
499.7831894517
 11
354.8124933932
 21
499.7831894517
  0
LINE
  5
24E
100
AcDbEntity
  8
0
100
AcDbLine
 62
7
  6
CONTINUOUS
 10
353.7708259318
 20
499.7831894517
 11
352.1041596625
 21
499.7831894517
  0
LINE
  5
24F
100
AcDbEntity
  8
0
100
AcDbLine
 62
7
  6
CONTINUOUS
 10
333.9791592713
 20
500.6342537761
 11
335.0208259318
 21
500.6342537761
  0
LINE
  5
250
100
AcDbEntity
  8
0
100
AcDbLine
 62
7
  6
CONTINUOUS
 10
354.8124933932
 20
501.4853175044
 11
353.7708259318
 21
501.4853175044
  0
LINE
  5
251
100
AcDbEntity
  8
0
100
AcDbLine
 62
7
  6
CONTINUOUS
 10
337.1041593645
 20
501.9108493686
 11
337.9374924991
 21
501.9108493686
  0
LINE
  5
252
100
AcDbEntity
  8
0
100
AcDbLine
 62
7
  6
CONTINUOUS
 10
343.9791596625
 20
501.9108493686
 11
350.0208259318
 21
501.9108493686
  0
LINE
  5
253
100
AcDbEntity
  8
0
100
AcDbLine
 62
7
  6
CONTINUOUS
 10
350.0208259318
 20
502.974679029
 11
342.9374927971
 21
502.974679029
  0
LINE
  5
254
100
AcDbEntity
  8
0
100
AcDbLine
 62
7
  6
CONTINUOUS
 10
337.7291593645
 20
502.974679029
 11
337.3124924991
 21
502.974679029
  0
LINE
  5
255
100
AcDbEntity
  8
KONSTRUKTIONSELEMENTE
100
AcDbLine
 62
7
  6
CONTINUOUS
 10
428.3108259318
 20
512.254679029
 11
385.1808653019
 21
512.254679029
  0
LINE
  5
256
100
AcDbEntity
  8
KONSTRUKTIONSELEMENTE
100
AcDbLine
 62
7
  6
CONTINUOUS
 10
306.4407865617
 20
512.254679029
 11
263.3108259318
 21
512.254679029
  0
LINE
  5
257
100
AcDbEntity
  8
0
100
AcDbLine
 62
7
  6
CONTINUOUS
 10
339.1874927971
 20
502.7619130969
 11
337.7291593645
 21
502.974679029
  0
LINE
  5
258
100
AcDbEntity
  8
0
100
AcDbLine
 62
7
  6
CONTINUOUS
 10
337.9374924991
 20
497.6555301308
 11
339.1874927971
 21
497.4427641988
  0
LINE
  5
259
100
AcDbEntity
  8
0
100
AcDbLine
 62
7
  6
CONTINUOUS
 10
356.6874933932
 20
493.8257428318
 11
355.6458259318
 21
494.0385088384
  0
LINE
  5
25A
100
AcDbEntity
  8
0
100
AcDbLine
 62
7
  6
CONTINUOUS
 10
348.3541596625
 20
499.1448916554
 11
347.3124922011
 21
499.3576575875
  0
LINE
  5
25B
100
AcDbEntity
  8
0
100
AcDbLine
 62
7
  6
CONTINUOUS
 10
337.9374924991
 20
501.9108493686
 11
338.9791590664
 21
501.6980834365
  0
LINE
  5
25C
100
AcDbEntity
  8
0
100
AcDbLine
 62
7
  6
CONTINUOUS
 10
346.0624922011
 20
494.0385088384
 11
345.2291596625
 21
494.2512747705
  0
LINE
  5
25D
100
AcDbEntity
  8
0
100
AcDbLine
 62
7
  6
CONTINUOUS
 10
347.3124922011
 20
498.2938279271
 11
348.1458259318
 21
498.081061995
  0
LINE
  5
25E
100
AcDbEntity
  8
0
100
AcDbLine
 62
7
  6
CONTINUOUS
 10
354.8124933932
 20
493.4002109304
 11
355.4374933932
 21
493.1874449797
  0
LINE
  5
25F
100
AcDbEntity
  8
0
100
AcDbLine
 62
7
  6
CONTINUOUS
 10
340.6458259318
 20
497.6555301308
 11
339.6041590664
 21
498.081061995
  0
LINE
  5
260
100
AcDbEntity
  8
0
100
AcDbLine
 62
7
  6
CONTINUOUS
 10
335.0208259318
 20
493.6129768997
 11
335.8541592155
 21
493.1874449797
  0
LINE
  5
261
100
AcDbEntity
  8
0
100
AcDbLine
 62
7
  6
CONTINUOUS
 10
335.8541592155
 20
494.2512747705
 11
335.4374926481
 21
494.4640407026
  0
LINE
  5
262
100
AcDbEntity
  8
0
100
AcDbLine
 62
7
  6
CONTINUOUS
 10
340.0208259318
 20
502.3363812327
 11
339.1874927971
 21
502.7619130969
  0
LINE
  5
263
100
AcDbEntity
  8
0
100
AcDbLine
 62
7
  6
CONTINUOUS
 10
343.9791596625
 20
493.8257428318
 11
345.0208259318
 21
493.1874449797
  0
LINE
  5
264
100
AcDbEntity
  8
0
100
AcDbLine
 62
7
  6
CONTINUOUS
 10
349.3958259318
 20
498.5065938592
 11
348.3541596625
 21
499.1448916554
  0
LINE
  5
265
100
AcDbEntity
  8
0
100
AcDbLine
 62
7
  6
CONTINUOUS
 10
334.3958259318
 20
494.0385088384
 11
335.0208259318
 21
493.6129768997
  0
LINE
  5
266
100
AcDbEntity
  8
0
100
AcDbLine
 62
7
  6
CONTINUOUS
 10
339.1874927971
 20
497.4427641988
 11
339.8124927971
 21
497.0172323346
  0
LINE
  5
267
100
AcDbEntity
  8
0
100
AcDbLine
 62
7
  6
CONTINUOUS
 10
345.2291596625
 20
494.2512747705
 11
344.6041596625
 21
494.6768066346
  0
LINE
  5
268
100
AcDbEntity
  8
0
100
AcDbLine
 62
7
  6
CONTINUOUS
 10
338.9791590664
 20
501.6980834365
 11
339.6041590664
 21
501.2725515723
  0
LINE
  5
269
100
AcDbEntity
  8
0
100
AcDbLine
 62
7
  6
CONTINUOUS
 10
354.1874933932
 20
493.8257428318
 11
354.8124933932
 21
493.4002109304
  0
LINE
  5
26A
100
AcDbEntity
  8
0
100
AcDbLine
 62
7
  6
CONTINUOUS
 10
348.1458259318
 20
498.081061995
 11
348.7708259318
 21
497.6555301308
  0
LINE
  5
26B
100
AcDbEntity
  8
0
100
AcDbLine
 62
7
  6
CONTINUOUS
 10
355.6458259318
 20
494.0385088384
 11
355.0208259318
 21
494.4640407026
  0
LINE
  5
26C
100
AcDbEntity
  8
0
100
AcDbLine
 62
7
  6
CONTINUOUS
 10
335.4374926481
 20
494.4640407026
 11
335.0208259318
 21
494.8895727157
  0
LINE
  5
26D
100
AcDbEntity
  8
0
100
AcDbLine
 62
7
  6
CONTINUOUS
 10
305.8108259318
 20
432.754679029
 11
305.8108259318
 21
315.754679029
  0
LINE
  5
26E
100
AcDbEntity
  8
KONSTRUKTIONSELEMENTE
100
AcDbLine
 62
7
  6
CONTINUOUS
 10
306.4407865617
 20
512.254679029
 11
306.4407865617
 21
457.254679029
  0
LINE
  5
26F
100
AcDbEntity
  8
0
100
AcDbLine
 62
7
  6
CONTINUOUS
 10
306.7303038648
 20
596.3339883318
 11
306.8702770319
 21
597.1643978163
  0
LINE
  5
270
100
AcDbEntity
  8
0
100
AcDbLine
 62
7
  6
CONTINUOUS
 10
314.8420616293
 20
600.8833032119
 11
314.6895336427
 21
600.2201182953
  0
LINE
  5
271
100
AcDbEntity
  8
0
100
AcDbLine
 62
7
  6
CONTINUOUS
 10
305.8499915315
 20
596.7545959311
 11
305.6681644124
 21
596.1888987368
  0
LINE
  5
272
100
AcDbEntity
  8
0
100
AcDbLine
 62
7
  6
CONTINUOUS
 10
315.6077242733
 20
599.5044813582
 11
315.8978301102
 21
600.2950582653
  0
LINE
  5
273
100
AcDbEntity
  8
0
100
AcDbLine
 62
7
  6
CONTINUOUS
 10
322.4541080647
 20
606.2560152809
 11
322.1798153041
 21
605.6332452577
  0
LINE
  5
274
100
AcDbEntity
  8
0
100
AcDbLine
 62
7
  6
CONTINUOUS
 10
314.6895336427
 20
600.2201182953
 11
314.2693255141
 21
599.5700461208
  0
LINE
  5
275
100
AcDbEntity
  8
0
100
AcDbLine
 62
7
  6
CONTINUOUS
 10
315.0499391501
 20
598.7270178484
 11
315.6077242733
 21
599.5044813582
  0
LINE
  5
276
100
AcDbEntity
  8
0
100
AcDbLine
 62
7
  6
CONTINUOUS
 10
304.4653613222
 20
592.6442233341
 11
306.3666494666
 21
595.2025937279
  0
LINE
  5
277
100
AcDbEntity
  8
0
100
AcDbLine
 62
7
  6
CONTINUOUS
 10
307.021899738
 20
589.3426476122
 11
307.6929426313
 21
590.2456018942
  0
LINE
  5
278
100
AcDbEntity
  8
0
100
AcDbLine
 62
7
  6
CONTINUOUS
 10
310.4889545801
 20
594.0079112589
 11
311.2718381689
 21
595.0613582082
  0
LINE
  5
279
100
AcDbEntity
  8
0
100
AcDbLine
 62
7
  6
CONTINUOUS
 10
322.1798153041
 20
605.6332452577
 11
321.6450617999
 21
605.0735973472
  0
LINE
  5
27A
100
AcDbEntity
  8
0
100
AcDbLine
 62
7
  6
CONTINUOUS
 10
322.2535710781
 20
604.0990355098
 11
322.8108259318
 21
604.6283040242
  0
LINE
  5
27B
100
AcDbEntity
  8
0
100
AcDbLine
 62
7
  6
CONTINUOUS
 10
314.2693255141
 20
599.5700461208
 11
313.7190151281
 21
599.060478642
  0
LINE
  5
27C
100
AcDbEntity
  8
0
100
AcDbLine
 62
7
  6
CONTINUOUS
 10
314.4996287641
 20
598.2174503696
 11
315.0499391501
 21
598.7270178484
  0
LINE
  5
27D
100
AcDbEntity
  8
0
100
AcDbLine
 62
7
  6
CONTINUOUS
 10
321.6450617999
 20
605.0735973472
 11
318.7822863954
 21
603.2861013378
  0
LINE
  5
27E
100
AcDbEntity
  8
0
100
AcDbLine
 62
7
  6
CONTINUOUS
 10
318.4365372055
 20
601.7157074973
 11
322.2535710781
 21
604.0990355098
  0
LINE
  5
27F
100
AcDbEntity
  8
0
100
AcDbLine
 62
7
  6
CONTINUOUS
 10
313.6816391031
 20
597.7209962757
 11
314.4996287641
 21
598.2174503696
  0
LINE
  5
280
100
AcDbEntity
  8
0
100
AcDbLine
 62
7
  6
CONTINUOUS
 10
313.7190151281
 20
599.060478642
 11
313.0386032718
 21
598.6914165877
  0
LINE
  5
281
100
AcDbEntity
  8
0
100
AcDbLine
 62
7
  6
CONTINUOUS
 10
304.1037787055
 20
599.2203590962
 11
303.1953339007
 21
598.9610498784
  0
LINE
  5
282
100
AcDbEntity
  8
KONSTRUKTIONSELEMENTE
100
AcDbLine
 62
7
  6
CONTINUOUS
 10
265.3108259318
 20
514.254679029
 11
426.3108259318
 21
514.254679029
  0
LINE
  5
283
100
AcDbEntity
  8
0
100
AcDbLine
 62
7
  6
CONTINUOUS
 10
340.8541590664
 20
501.4853175044
 11
340.0208259318
 21
502.3363812327
  0
LINE
  5
284
100
AcDbEntity
  8
0
100
AcDbLine
 62
7
  6
CONTINUOUS
 10
343.3541590664
 20
494.6768066346
 11
343.9791596625
 21
493.8257428318
  0
LINE
  5
285
100
AcDbEntity
  8
0
100
AcDbLine
 62
7
  6
CONTINUOUS
 10
350.0208259318
 20
497.6555301308
 11
349.3958259318
 21
498.5065938592
  0
LINE
  5
286
100
AcDbEntity
  8
0
100
AcDbLine
 62
7
  6
CONTINUOUS
 10
333.9791592713
 20
494.6768066346
 11
334.3958259318
 21
494.0385088384
  0
LINE
  5
287
100
AcDbEntity
  8
0
100
AcDbLine
 62
7
  6
CONTINUOUS
 10
341.0624927971
 20
497.0172323346
 11
340.6458259318
 21
497.6555301308
  0
LINE
  5
288
100
AcDbEntity
  8
0
100
AcDbLine
 62
7
  6
CONTINUOUS
 10
339.6041590664
 20
501.2725515723
 11
340.0208259318
 21
500.6342537761
  0
LINE
  5
289
100
AcDbEntity
  8
0
100
AcDbLine
 62
7
  6
CONTINUOUS
 10
348.7708259318
 20
497.6555301308
 11
349.1874922011
 21
497.0172323346
  0
LINE
  5
28A
100
AcDbEntity
  8
0
100
AcDbLine
 62
7
  6
CONTINUOUS
 10
335.0208259318
 20
494.8895727157
 11
334.8124925736
 21
495.3151045799
  0
LINE
  5
28B
100
AcDbEntity
  8
0
100
AcDbLine
 62
7
  6
CONTINUOUS
 10
339.8124927971
 20
497.0172323346
 11
340.2291590664
 21
496.1661683082
  0
LINE
  5
28C
100
AcDbEntity
  8
0
100
AcDbLine
 62
7
  6
CONTINUOUS
 10
305.7662839475
 20
597.2840209419
 11
305.8499915315
 21
596.7545959311
  0
LINE
  5
28D
100
AcDbEntity
  8
KONSTRUKTIONSELEMENTE
100
AcDbLine
 62
7
  6
CONTINUOUS
 10
322.8108259318
 20
793.754679029
 11
322.8108259318
 21
568.754679029
  0
LINE
  5
28E
100
AcDbEntity
  8
0
100
AcDbLine
 62
7
  6
CONTINUOUS
 10
322.4679402238
 20
606.9419071893
 11
322.4541080647
 21
606.2560152809
  0
LINE
  5
28F
100
AcDbEntity
  8
0
100
AcDbLine
 62
7
  6
CONTINUOUS
 10
315.8978301102
 20
600.2950582653
 11
315.9277314208
 21
601.3666445759
  0
LINE
  5
290
100
AcDbEntity
  8
BEZUGSACHSEN
100
AcDbLine
 62
7
  6
CONTINUOUS
 10
265.3108259318
 20
514.254679029
 11
263.3108259318
 21
512.254679029
  0
LINE
  5
291
100
AcDbEntity
  8
0
100
AcDbLine
 62
7
  6
CONTINUOUS
 10
368.8108259318
 20
605.750746763
 11
369.1993590957
 21
605.8927930261
  0
LINE
  5
292
100
AcDbEntity
  8
BEZUGSACHSEN
100
AcDbLine
 62
7
  6
CONTINUOUS
 10
400.5681493542
 20
533.454679029
 11
291.0535025094
 21
533.454679029
  0
LINE
  5
293
100
AcDbEntity
  8
BEZUGSACHSEN
100
AcDbLine
 62
7
  6
CONTINUOUS
 10
428.8966123694
 20
455.1688925913
 11
430.8108259318
 21
453.254679029
  0
LINE
  5
294
100
AcDbEntity
  8
0
100
AcDbLine
 62
7
  6
CONTINUOUS
 10
342.9374927971
 20
495.527870512
 11
343.3541590664
 21
494.6768066346
  0
LINE
  5
295
100
AcDbEntity
  8
0
100
AcDbLine
 62
7
  6
CONTINUOUS
 10
344.6041596625
 20
494.6768066346
 11
344.1874922011
 21
495.527870512
  0
LINE
  5
296
100
AcDbEntity
  8
0
100
AcDbLine
 62
7
  6
CONTINUOUS
 10
353.7708259318
 20
494.6768066346
 11
354.1874933932
 21
493.8257428318
  0
LINE
  5
297
100
AcDbEntity
  8
0
100
AcDbLine
 62
7
  6
CONTINUOUS
 10
350.4374922011
 20
496.5917001724
 11
350.0208259318
 21
497.6555301308
  0
LINE
  5
298
100
AcDbEntity
  8
0
100
AcDbLine
 62
7
  6
CONTINUOUS
 10
333.7708259318
 20
495.3151045799
 11
333.9791592713
 21
494.6768066346
  0
LINE
  5
299
100
AcDbEntity
  8
0
100
AcDbLine
 62
7
  6
CONTINUOUS
 10
349.1874922011
 20
497.0172323346
 11
349.3958259318
 21
496.3789342403
  0
LINE
  5
29A
100
AcDbEntity
  8
0
100
AcDbLine
 62
7
  6
CONTINUOUS
 10
306.8702770319
 20
597.1643978163
 11
306.5910211684
 21
598.0727551706
  0
LINE
  5
29B
100
AcDbEntity
  8
0
100
AcDbLine
 62
7
  6
CONTINUOUS
 10
315.9277314208
 20
601.3666445759
 11
315.6824770992
 21
602.1834468319
  0
LINE
  5
29C
100
AcDbEntity
  8
0
100
AcDbLine
 62
7
  6
CONTINUOUS
 10
341.2708259318
 20
496.1661683082
 11
341.0624927971
 21
497.0172323346
  0
LINE
  5
29D
100
AcDbEntity
  8
0
100
AcDbLine
 62
7
  6
CONTINUOUS
 10
341.0624927971
 20
500.6342537761
 11
340.8541590664
 21
501.4853175044
  0
LINE
  5
29E
100
AcDbEntity
  8
0
100
AcDbLine
 62
7
  6
CONTINUOUS
 10
314.7269096563
 20
601.5596006738
 11
314.8420616293
 21
600.8833032119
  0
LINE
  5
29F
100
AcDbEntity
  8
0
100
AcDbLine
 62
7
  6
CONTINUOUS
 10
337.1041593645
 20
498.5065938592
 11
337.1041593645
 21
497.6555301308
  0
LINE
  5
2A0
100
AcDbEntity
  8
0
100
AcDbLine
 62
7
  6
CONTINUOUS
 10
340.0208259318
 20
500.6342537761
 11
340.0208259318
 21
500.2087213158
  0
LINE
  5
2A1
100
AcDbEntity
  8
0
100
AcDbLine
 62
7
  6
CONTINUOUS
 10
340.2291590664
 20
496.1661683082
 11
340.2291590664
 21
495.3151045799
  0
LINE
  5
2A2
100
AcDbEntity
  8
0
100
AcDbLine
 62
7
  6
CONTINUOUS
 10
341.0624927971
 20
500.2087213158
 11
341.0624927971
 21
500.6342537761
  0
LINE
  5
2A3
100
AcDbEntity
  8
0
100
AcDbLine
 62
7
  6
CONTINUOUS
 10
341.2708259318
 20
495.3151045799
 11
341.2708259318
 21
496.1661683082
  0
LINE
  5
2A4
100
AcDbEntity
  8
0
100
AcDbLine
 62
7
  6
CONTINUOUS
 10
342.9374927971
 20
502.974679029
 11
342.9374927971
 21
497.4427641988
  0
LINE
  5
2A5
100
AcDbEntity
  8
0
100
AcDbLine
 62
7
  6
CONTINUOUS
 10
343.9791596625
 20
498.5065938592
 11
343.9791596625
 21
501.9108493686
  0
LINE
  5
2A6
100
AcDbEntity
  8
0
100
AcDbLine
 62
7
  6
CONTINUOUS
 10
369.1993590957
 20
605.8927930261
 11
369.6985662378
 21
606.5032340816
  0
LINE
  5
2A7
100
AcDbEntity
  8
0
100
AcDbLine
 62
7
  6
CONTINUOUS
 10
299.7982654821
 20
594.7109907587
 11
307.021899738
 21
589.3426476122
  0
LINE
  5
2A8
100
AcDbEntity
  8
0
100
AcDbLine
 62
7
  6
CONTINUOUS
 10
307.6929426313
 20
590.2456018942
 11
304.4653613222
 21
592.6442233341
  0
LINE
  5
2A9
100
AcDbEntity
  8
0
100
AcDbLine
 62
7
  6
CONTINUOUS
 10
303.5431953569
 20
593.3295436541
 11
301.2377800132
 21
595.042844774
  0
LINE
  5
2AA
100
AcDbEntity
  8
0
100
AcDbLine
 62
7
  6
CONTINUOUS
 10
306.1835815706
 20
602.7829030311
 11
310.216752099
 21
598.4272568751
  0
LINE
  5
2AB
100
AcDbEntity
  8
0
100
AcDbLine
 62
7
  6
CONTINUOUS
 10
311.042217678
 20
599.1916080933
 11
307.0090471497
 21
603.5472542493
  0
LINE
  5
2AC
100
AcDbEntity
  8
0
100
AcDbLine
 62
7
  6
CONTINUOUS
 10
305.4170413405
 20
597.7771733387
 11
305.7662839475
 21
597.2840209419
  0
LINE
  5
2AD
100
AcDbEntity
  8
0
100
AcDbLine
 62
7
  6
CONTINUOUS
 10
306.5910211684
 20
598.0727551706
 11
306.2417785613
 21
598.5659075674
  0
LINE
  5
2AE
100
AcDbEntity
  8
0
100
AcDbLine
 62
7
  6
CONTINUOUS
 10
313.6698811805
 20
609.3497752425
 11
318.4365372055
 21
601.7157074973
  0
LINE
  5
2AF
100
AcDbEntity
  8
0
100
AcDbLine
 62
7
  6
CONTINUOUS
 10
318.7822863954
 20
603.2861013378
 11
315.2326488559
 21
608.971045522
  0
LINE
  5
2B0
100
AcDbEntity
  8
0
100
AcDbLine
 62
7
  6
CONTINUOUS
 10
315.6824770992
 20
602.1834468319
 11
315.1695436051
 21
603.0133623622
  0
LINE
  5
2B1
100
AcDbEntity
  8
0
100
AcDbLine
 62
7
  6
CONTINUOUS
 10
314.3440784197
 20
602.2490115084
 11
314.7269096563
 21
601.5596006738
  0
LINE
  5
2B2
100
AcDbEntity
  8
0
100
AcDbLine
 62
7
  6
CONTINUOUS
 10
322.2213098903
 20
607.6909199601
 11
322.4679402238
 21
606.9419071893
  0
LINE
  5
2B3
100
AcDbEntity
  8
0
100
AcDbLine
 62
7
  6
CONTINUOUS
 10
355.0208259318
 20
494.4640407026
 11
354.8124933932
 21
495.1023386478
  0
LINE
  5
2B4
100
AcDbEntity
  8
0
100
AcDbLine
 62
7
  6
CONTINUOUS
 10
349.3958259318
 20
496.3789342403
 11
349.3958259318
 21
495.9534023762
  0
LINE
  5
2B5
100
AcDbEntity
  8
0
100
AcDbLine
 62
7
  6
CONTINUOUS
 10
350.0208259318
 20
501.9108493686
 11
350.0208259318
 21
502.974679029
  0
LINE
  5
2B6
100
AcDbEntity
  8
0
100
AcDbLine
 62
7
  6
CONTINUOUS
 10
350.4374922011
 20
495.7406364441
 11
350.4374922011
 21
496.5917001724
  0
LINE
  5
2B7
100
AcDbEntity
  8
0
100
AcDbLine
 62
7
  6
CONTINUOUS
 10
352.1041596625
 20
499.7831894517
 11
352.1041596625
 21
498.9321257233
  0
LINE
  5
2B8
100
AcDbEntity
  8
0
100
AcDbLine
 62
7
  6
CONTINUOUS
 10
353.7708259318
 20
501.4853175044
 11
353.7708259318
 21
499.7831894517
  0
LINE
  5
2B9
100
AcDbEntity
  8
0
100
AcDbLine
 62
7
  6
CONTINUOUS
 10
353.7708259318
 20
498.9321257233
 11
353.7708259318
 21
494.6768066346
  0
LINE
  5
2BA
100
AcDbEntity
  8
0
100
AcDbLine
 62
7
  6
CONTINUOUS
 10
354.8124933932
 20
495.1023386478
 11
354.8124933932
 21
498.9321257233
  0
LINE
  5
2BB
100
AcDbEntity
  8
0
100
AcDbLine
 62
7
  6
CONTINUOUS
 10
354.8124933932
 20
499.7831894517
 11
354.8124933932
 21
501.4853175044
  0
LINE
  5
2BC
100
AcDbEntity
  8
0
100
AcDbLine
 62
7
  6
CONTINUOUS
 10
356.6874933932
 20
492.974679029
 11
356.6874933932
 21
493.8257428318
  0
LINE
  5
2BD
100
AcDbEntity
  8
0
100
AcDbLine
 62
7
  6
CONTINUOUS
 10
357.1041584704
 20
498.9321257233
 11
357.1041584704
 21
499.7831894517
  0
LINE
  5
2BE
100
AcDbEntity
  8
0
100
AcDbLine
 62
7
  6
CONTINUOUS
 10
370.7416600726
 20
611.7344582198
 11
370.6633594715
 21
611.1352601629
  0
LINE
  5
2BF
100
AcDbEntity
  8
0
100
AcDbLine
 62
7
  6
CONTINUOUS
 10
334.1874926109
 20
501.4853175044
 11
333.9791592713
 21
500.6342537761
  0
LINE
  5
2C0
100
AcDbEntity
  8
0
100
AcDbLine
 62
7
  6
CONTINUOUS
 10
340.8541590664
 20
499.3576575875
 11
341.0624927971
 21
500.2087213158
  0
LINE
  5
2C1
100
AcDbEntity
  8
0
100
AcDbLine
 62
7
  6
CONTINUOUS
 10
371.6785919111
 20
610.6505663488
 11
371.9218946421
 21
611.5953754078
  0
LINE
  5
2C2
100
AcDbEntity
  8
0
100
AcDbLine
 62
7
  6
CONTINUOUS
 10
341.0624927971
 20
494.6768066346
 11
341.2708259318
 21
495.3151045799
  0
LINE
  5
2C3
100
AcDbEntity
  8
0
100
AcDbLine
 62
7
  6
CONTINUOUS
 10
369.4258434979
 20
608.5431776472
 11
368.8108259318
 21
607.2549710189
  0
LINE
  5
2C4
100
AcDbEntity
  8
0
100
AcDbLine
 62
7
  6
CONTINUOUS
 10
369.6985662378
 20
606.5032340816
 11
370.936082327
 21
609.0953168393
  0
LINE
  5
2C5
100
AcDbEntity
  8
BEZUGSACHSEN
100
AcDbLine
 62
7
  6
CONTINUOUS
 10
262.7250394942
 20
455.1688925913
 11
260.8108259318
 21
453.254679029
  0
LINE
  5
2C6
100
AcDbEntity
  8
0
100
AcDbLine
 62
7
  6
CONTINUOUS
 10
311.2718381689
 20
595.0613582082
 11
306.7303038648
 21
596.3339883318
  0
LINE
  5
2C7
100
AcDbEntity
  8
0
100
AcDbLine
 62
7
  6
CONTINUOUS
 10
306.3666494666
 20
595.2025937279
 11
310.4889545801
 21
594.0079112589
  0
LINE
  5
2C8
100
AcDbEntity
  8
0
100
AcDbLine
 62
7
  6
CONTINUOUS
 10
304.3830345691
 20
598.3120017419
 11
304.9559579273
 21
598.1198338187
  0
LINE
  5
2C9
100
AcDbEntity
  8
0
100
AcDbLine
 62
7
  6
CONTINUOUS
 10
305.6270008206
 20
599.0227881007
 11
305.0540774624
 21
599.2149560239
  0
LINE
  5
2CA
100
AcDbEntity
  8
0
100
AcDbLine
 62
7
  6
CONTINUOUS
 10
311.0048411797
 20
597.8521254487
 11
311.8004054937
 21
597.5448903071
  0
LINE
  5
2CB
100
AcDbEntity
  8
0
100
AcDbLine
 62
7
  6
CONTINUOUS
 10
311.700203714
 20
598.7569806337
 11
311.042217678
 21
599.1916080933
  0
LINE
  5
2CC
100
AcDbEntity
  8
0
100
AcDbLine
 62
7
  6
CONTINUOUS
 10
310.216752099
 20
598.4272568751
 11
311.0048411797
 21
597.8521254487
  0
LINE
  5
2CD
100
AcDbEntity
  8
0
100
AcDbLine
 62
7
  6
CONTINUOUS
 10
304.9559579273
 20
598.1198338187
 11
305.4170413405
 21
597.7771733387
  0
LINE
  5
2CE
100
AcDbEntity
  8
0
100
AcDbLine
 62
7
  6
CONTINUOUS
 10
306.2417785613
 20
598.5659075674
 11
305.6270008206
 21
599.0227881007
  0
LINE
  5
2CF
100
AcDbEntity
  8
0
100
AcDbLine
 62
7
  6
CONTINUOUS
 10
320.135321454
 20
610.6777273574
 11
320.7000367301
 21
610.1273244967
  0
LINE
  5
2D0
100
AcDbEntity
  8
0
100
AcDbLine
 62
7
  6
CONTINUOUS
 10
321.6542951983
 20
610.7231564998
 11
320.9881614368
 21
611.4359867695
  0
LINE
  5
2D1
100
AcDbEntity
  8
0
100
AcDbLine
 62
7
  6
CONTINUOUS
 10
310.3109078914
 20
606.6046576644
 11
314.3440784197
 21
602.2490115084
  0
LINE
  5
2D2
100
AcDbEntity
  8
0
100
AcDbLine
 62
7
  6
CONTINUOUS
 10
315.1695436051
 20
603.0133623622
 11
311.1363730768
 21
607.3690085181
  0
LINE
  5
2D3
100
AcDbEntity
  8
0
100
AcDbLine
 62
7
  6
CONTINUOUS
 10
320.7000367301
 20
610.1273244967
 11
322.2213098903
 21
607.6909199601
  0
LINE
  5
2D4
100
AcDbEntity
  8
0
100
AcDbLine
 62
7
  6
CONTINUOUS
 10
322.8108259318
 20
608.870907476
 11
321.6542951983
 21
610.7231564998
  0
LINE
  5
2D5
100
AcDbEntity
  8
KONSTRUKTIONSELEMENTE
100
AcDbLine
 62
7
  6
CONTINUOUS
 10
368.8108259318
 20
793.754679029
 11
368.8108259318
 21
568.754679029
  0
LINE
  5
2D6
100
AcDbEntity
  8
0
100
AcDbLine
 62
7
  6
CONTINUOUS
 10
349.3958259318
 20
495.9534023762
 11
349.1874922011
 21
495.3151045799
  0
LINE
  5
2D7
100
AcDbEntity
  8
0
100
AcDbLine
 62
7
  6
CONTINUOUS
 10
350.0208259318
 20
494.6768066346
 11
350.4374922011
 21
495.7406364441
  0
LINE
  5
2D8
100
AcDbEntity
  8
0
100
AcDbLine
 62
7
  6
CONTINUOUS
 10
340.0208259318
 20
500.2087213158
 11
339.6041590664
 21
499.3576575875
  0
LINE
  5
2D9
100
AcDbEntity
  8
0
100
AcDbLine
 62
7
  6
CONTINUOUS
 10
340.2291590664
 20
495.3151045799
 11
340.0208259318
 21
494.8895727157
  0
LINE
  5
2DA
100
AcDbEntity
  8
0
100
AcDbLine
 62
7
  6
CONTINUOUS
 10
335.0208259318
 20
500.6342537761
 11
335.4374926481
 21
501.2725515723
  0
LINE
  5
2DB
100
AcDbEntity
  8
0
100
AcDbLine
 62
7
  6
CONTINUOUS
 10
340.4374927971
 20
498.7193597913
 11
340.8541590664
 21
499.3576575875
  0
LINE
  5
2DC
100
AcDbEntity
  8
0
100
AcDbLine
 62
7
  6
CONTINUOUS
 10
340.6458259318
 20
494.0385088384
 11
341.0624927971
 21
494.6768066346
  0
LINE
  5
2DD
100
AcDbEntity
  8
0
100
AcDbLine
 62
7
  6
CONTINUOUS
 10
335.0208259318
 20
502.3363812327
 11
334.1874926109
 21
501.4853175044
  0
LINE
  5
2DE
100
AcDbEntity
  8
0
100
AcDbLine
 62
7
  6
CONTINUOUS
 10
305.0540774624
 20
599.2149560239
 11
304.1037787055
 21
599.2203590962
  0
LINE
  5
2DF
100
AcDbEntity
  8
0
100
AcDbLine
 62
7
  6
CONTINUOUS
 10
311.8004054937
 20
597.5448903071
 11
312.8711241679
 21
597.4924382251
  0
LINE
  5
2E0
100
AcDbEntity
  8
0
100
AcDbLine
 62
7
  6
CONTINUOUS
 10
312.3656660731
 20
598.5902506506
 11
311.700203714
 21
598.7569806337
  0
LINE
  5
2E1
100
AcDbEntity
  8
0
100
AcDbLine
 62
7
  6
CONTINUOUS
 10
319.5129798035
 20
610.9663976277
 11
320.135321454
 21
610.6777273574
  0
LINE
  5
2E2
100
AcDbEntity
  8
0
100
AcDbLine
 62
7
  6
CONTINUOUS
 10
320.9881614368
 20
611.4359867695
 11
320.2644018692
 21
611.8870835387
  0
LINE
  5
2E3
100
AcDbEntity
  8
BEZUGSACHSEN
100
AcDbLine
 62
7
  6
CONTINUOUS
 10
426.3108259318
 20
514.254679029
 11
428.3108259318
 21
512.254679029
  0
LINE
  5
2E4
100
AcDbEntity
  8
KONSTRUKTIONSELEMENTE
100
AcDbLine
 62
7
  6
CONTINUOUS
 10
385.1808653019
 20
512.254679029
 11
385.1808653019
 21
457.254679029
  0
LINE
  5
2E5
100
AcDbEntity
  8
0
100
AcDbLine
 62
7
  6
CONTINUOUS
 10
385.8108259318
 20
432.754679029
 11
385.8108259318
 21
315.754679029
  0
LINE
  5
2E6
100
AcDbEntity
  8
0
100
AcDbLine
 62
7
  6
CONTINUOUS
 10
349.1874922011
 20
495.3151045799
 11
348.7708259318
 21
494.6768066346
  0
LINE
  5
2E7
100
AcDbEntity
  8
0
100
AcDbLine
 62
7
  6
CONTINUOUS
 10
349.3958259318
 20
493.8257428318
 11
350.0208259318
 21
494.6768066346
  0
LINE
  5
2E8
100
AcDbEntity
  8
0
100
AcDbLine
 62
7
  6
CONTINUOUS
 10
339.6041590664
 20
499.3576575875
 11
339.1874927971
 21
498.9321257233
  0
LINE
  5
2E9
100
AcDbEntity
  8
0
100
AcDbLine
 62
7
  6
CONTINUOUS
 10
340.0208259318
 20
494.8895727157
 11
339.6041590664
 21
494.4640407026
  0
LINE
  5
2EA
100
AcDbEntity
  8
0
100
AcDbLine
 62
7
  6
CONTINUOUS
 10
339.6041590664
 20
498.081061995
 11
340.4374927971
 21
498.7193597913
  0
LINE
  5
2EB
100
AcDbEntity
  8
0
100
AcDbLine
 62
7
  6
CONTINUOUS
 10
344.3958259318
 20
497.4427641988
 11
345.2291596625
 21
498.081061995
  0
LINE
  5
2EC
100
AcDbEntity
  8
0
100
AcDbLine
 62
7
  6
CONTINUOUS
 10
335.4374926481
 20
501.2725515723
 11
336.0624926481
 21
501.6980834365
  0
LINE
  5
2ED
100
AcDbEntity
  8
0
100
AcDbLine
 62
7
  6
CONTINUOUS
 10
340.0208259318
 20
493.6129768997
 11
340.6458259318
 21
494.0385088384
  0
LINE
  5
2EE
100
AcDbEntity
  8
0
100
AcDbLine
 62
7
  6
CONTINUOUS
 10
345.0208259318
 20
499.1448916554
 11
343.9791596625
 21
498.5065938592
  0
LINE
  5
2EF
100
AcDbEntity
  8
0
100
AcDbLine
 62
7
  6
CONTINUOUS
 10
335.8541592155
 20
502.7619130969
 11
335.0208259318
 21
502.3363812327
  0
LINE
  5
2F0
100
AcDbEntity
  8
0
100
AcDbLine
 62
7
  6
CONTINUOUS
 10
312.8711241679
 20
597.4924382251
 11
313.6816391031
 21
597.7209962757
  0
LINE
  5
2F1
100
AcDbEntity
  8
0
100
AcDbLine
 62
7
  6
CONTINUOUS
 10
313.0386032718
 20
598.6914165877
 11
312.3656660731
 21
598.5902506506
  0
LINE
  5
2F2
100
AcDbEntity
  8
0
100
AcDbLine
 62
7
  6
CONTINUOUS
 10
303.8519648429
 20
598.2394569444
 11
304.3830345691
 21
598.3120017419
  0
LINE
  5
2F3
100
AcDbEntity
  8
0
100
AcDbLine
 62
7
  6
CONTINUOUS
 10
319.222557359
 20
612.1395703979
 11
318.3835492512
 21
612.0672033492
  0
LINE
  5
2F4
100
AcDbEntity
  8
0
100
AcDbLine
 62
7
  6
CONTINUOUS
 10
318.833014167
 20
610.993335534
 11
319.5129798035
 21
610.9663976277
  0
LINE
  5
2F5
100
AcDbEntity
  8
0
100
AcDbLine
 62
7
  6
CONTINUOUS
 10
320.2644018692
 20
611.8870835387
 11
319.222557359
 21
612.1395703979
  0
LINE
  5
2F6
100
AcDbEntity
  8
0
100
AcDbLine
 62
7
  6
CONTINUOUS
 10
368.8108259318
 20
608.8368002681
 11
369.4258434979
 21
608.5431776472
  0
LINE
  5
2F7
100
AcDbEntity
  8
0
100
AcDbLine
 62
7
  6
CONTINUOUS
 10
370.936082327
 20
609.0953168393
 11
368.8108259318
 21
610.1099599771
  0
LINE
  5
2F8
100
AcDbEntity
  8
0
100
AcDbLine
 62
7
  6
CONTINUOUS
 10
370.6633594715
 20
611.1352601629
 11
371.6785919111
 21
610.6505663488
  0
LINE
  5
2F9
100
AcDbEntity
  8
0
100
AcDbLine
 62
7
  6
CONTINUOUS
 10
368.8108259318
 20
613.2928598439
 11
369.8047241301
 21
612.8183514557
  0
LINE
  5
2FA
100
AcDbEntity
  8
0
100
AcDbLine
 62
7
  6
CONTINUOUS
 10
370.2997305195
 20
613.855184462
 11
368.8108259318
 21
614.5660195528
  0
LINE
  5
2FB
100
AcDbEntity
  8
0
100
AcDbLine
 62
7
  6
CONTINUOUS
 10
371.0632551967
 20
613.2784680655
 11
370.2997305195
 21
613.855184462
  0
LINE
  5
2FC
100
AcDbEntity
  8
0
100
AcDbLine
 62
7
  6
CONTINUOUS
 10
369.8047241301
 20
612.8183514557
 11
370.3990459825
 21
612.322416129
  0
LINE
  5
2FD
100
AcDbEntity
  8
0
100
AcDbLine
 62
7
  6
CONTINUOUS
 10
371.5750759843
 20
612.6097272377
 11
371.0632551967
 21
613.2784680655
  0
LINE
  5
2FE
100
AcDbEntity
  8
0
100
AcDbLine
 62
7
  6
CONTINUOUS
 10
370.3990459825
 20
612.322416129
 11
370.7416600726
 21
611.7344582198
  0
LINE
  5
2FF
100
AcDbEntity
  8
0
100
AcDbLine
 62
7
  6
CONTINUOUS
 10
371.9218946421
 20
611.5953754078
 11
371.5750759843
 21
612.6097272377
  0
LINE
  5
300
100
AcDbEntity
  8
BEZUGSACHSEN
100
AcDbLine
 62
7
  6
CONTINUOUS
 10
416.8108259318
 20
550.0852054969
 11
416.8108259318
 21
514.254679029
  0
LINE
  5
301
100
AcDbEntity
  8
BEZUGSACHSEN
100
AcDbLine
 62
7
  6
CONTINUOUS
 10
421.3598992925
 20
562.6589390395
 11
414.5480612611
 21
546.2137072794
  0
LINE
  5
302
100
AcDbEntity
  8
0
100
AcDbLine
 62
7
  6
CONTINUOUS
 10
348.7708259318
 20
494.6768066346
 11
348.1458259318
 21
494.2512747705
  0
LINE
  5
303
100
AcDbEntity
  8
0
100
AcDbLine
 62
7
  6
CONTINUOUS
 10
348.3541596625
 20
493.1874449797
 11
349.3958259318
 21
493.8257428318
  0
LINE
  5
304
100
AcDbEntity
  8
0
100
AcDbLine
 62
7
  6
CONTINUOUS
 10
339.6041590664
 20
494.4640407026
 11
339.1874927971
 21
494.2512747705
  0
LINE
  5
305
100
AcDbEntity
  8
0
100
AcDbLine
 62
7
  6
CONTINUOUS
 10
339.1874927971
 20
493.1874449797
 11
340.0208259318
 21
493.6129768997
  0
LINE
  5
306
100
AcDbEntity
  8
0
100
AcDbLine
 62
7
  6
CONTINUOUS
 10
339.1874927971
 20
498.9321257233
 11
337.9374924991
 21
498.5065938592
  0
LINE
  5
307
100
AcDbEntity
  8
RUNDUNGEN
100
AcDbLine
 62
7
  6
CONTINUOUS
 10
397.6083682715
 20
619.9994344943
 11
368.8108259318
 21
631.9277670944
  0
LINE
  5
308
100
AcDbEntity
  8
RUNDUNGEN
100
AcDbLine
 62
7
  6
CONTINUOUS
 10
421.3462000699
 20
567.2834918674
 11
421.3597499251
 21
567.2507796232
  0
LINE
  5
309
100
AcDbEntity
  8
BEZUGSACHSEN
100
AcDbLine
 62
7
  6
CONTINUOUS
 10
421.3597499251
 20
567.2507796232
 11
400.8555706993
 21
616.7522471956
  0
LINE
  5
30A
100
AcDbEntity
  8
BEZUGSACHSEN
100
AcDbLine
 62
7
  6
CONTINUOUS
 10
428.3108259318
 20
512.254679029
 11
428.3108259318
 21
456.5831061537
  0
LINE
  5
30B
100
AcDbEntity
  8
BEZUGSACHSEN
100
AcDbLine
 62
7
  6
CONTINUOUS
 10
430.8108259318
 20
453.254679029
 11
430.8108259318
 21
433.754679029
  0
LINE
  5
30C
100
AcDbEntity
  8
FASEN
100
AcDbLine
 62
7
  6
CONTINUOUS
 10
430.8108259318
 20
433.754679029
 11
429.8108259318
 21
432.754679029
  0
LINE
  5
30D
100
AcDbEntity
  8
0
100
AcDbLine
 62
7
  6
CONTINUOUS
 10
385.8108259318
 20
315.754679029
 11
382.8108259318
 21
312.754679029
  0
LINE
  5
30E
100
AcDbEntity
  8
0
100
AcDbLine
 62
7
  6
CONTINUOUS
 10
674.5337187363
 20
312.754679029
 11
748.5336062295
 21
312.754679029
  0
LINE
  5
30F
100
AcDbEntity
  8
0
100
AcDbLine
 62
7
  6
CONTINUOUS
 10
671.5336624829
 20
315.754679029
 11
751.5336624829
 21
315.754679029
  0
LINE
  5
310
100
AcDbEntity
  8
0
100
AcDbLine
 62
7
  6
CONTINUOUS
 10
671.5336624829
 20
315.754679029
 11
674.5336624829
 21
312.754679029
  0
LINE
  5
311
100
AcDbEntity
  8
FASEN
100
AcDbLine
 62
7
  6
CONTINUOUS
 10
626.5336624829
 20
433.754679029
 11
627.5336624829
 21
432.754679029
  0
LINE
  5
312
100
AcDbEntity
  8
FASEN
100
AcDbLine
 62
7
  6
CONTINUOUS
 10
627.5336624829
 20
432.754679029
 11
795.5336624829
 21
432.754679029
  0
LINE
  5
313
100
AcDbEntity
  8
FASEN
100
AcDbLine
 62
7
  6
CONTINUOUS
 10
626.5336624829
 20
433.754679029
 11
796.5336624829
 21
433.754679029
  0
LINE
  5
314
100
AcDbEntity
  8
BEZUGSACHSEN
100
AcDbLine
 62
7
  6
CONTINUOUS
 10
626.5336624829
 20
453.254679029
 11
796.5336624829
 21
453.254679029
  0
LINE
  5
315
100
AcDbEntity
  8
KONSTRUKTIONSELEMENTE
100
AcDbLine
 62
7
  6
CONTINUOUS
 10
794.5385767414
 20
455.254679029
 11
786.0336624829
 21
455.254679029
  0
LINE
  5
316
100
AcDbEntity
  8
KONSTRUKTIONSELEMENTE
100
AcDbLine
 62
7
  6
CONTINUOUS
 10
637.0336624829
 20
455.254679029
 11
628.5287482243
 21
455.254679029
  0
LINE
  5
317
100
AcDbEntity
  8
KONSTRUKTIONSELEMENTE
100
AcDbLine
 62
7
  6
CONTINUOUS
 10
620.5336624829
 20
636.754679029
 11
620.5336624829
 21
725.754679029
  0
LINE
  5
318
100
AcDbEntity
  8
BEZUGSACHSEN
100
AcDbLine
 62
7
  6
CONTINUOUS
 10
626.5336624829
 20
453.254679029
 11
626.5336624829
 21
433.754679029
  0
LINE
  5
319
100
AcDbEntity
  8
KONSTRUKTIONSELEMENTE
100
AcDbLine
 62
7
  6
CONTINUOUS
 10
639.0336624829
 20
457.254679029
 11
639.0336624829
 21
514.254679029
  0
LINE
  5
31A
100
AcDbEntity
  8
BEZUGSACHSEN
100
AcDbLine
 62
7
  6
CONTINUOUS
 10
640.5336624829
 20
528.454679029
 11
640.5336624829
 21
514.254679029
  0
LINE
  5
31B
100
AcDbEntity
  8
KONSTRUKTIONSELEMENTE
100
AcDbLine
 62
7
  6
CONTINUOUS
 10
784.0336624829
 20
512.254679029
 11
639.0336624829
 21
512.254679029
  0
LINE
  5
31C
100
AcDbEntity
  8
KONSTRUKTIONSELEMENTE
100
AcDbLine
 62
7
  6
CONTINUOUS
 10
666.5336624829
 20
636.754679029
 11
666.5336624829
 21
725.754679029
  0
LINE
  5
31D
100
AcDbEntity
  8
0
100
AcDbLine
 62
7
  6
CONTINUOUS
 10
671.5336624829
 20
432.754679029
 11
671.5336624829
 21
315.754679029
  0
LINE
  5
31E
100
AcDbEntity
  8
KONSTRUKTIONSELEMENTE
100
AcDbLine
 62
7
  6
CONTINUOUS
 10
639.0336624829
 20
514.254679029
 11
784.0336624829
 21
514.254679029
  0
LINE
  5
31F
100
AcDbEntity
  8
0
100
AcDbLine
 62
7
  6
CONTINUOUS
 10
691.0336624829
 20
608.407163796
 11
691.0336624829
 21
610.8245007086
  0
LINE
  5
320
100
AcDbEntity
  8
0
100
AcDbLine
 62
7
  6
CONTINUOUS
 10
691.0336624829
 20
611.0283872506
 11
691.0336624829
 21
624.3656195237
  0
LINE
  5
321
100
AcDbEntity
  8
BEZUGSACHSEN
100
AcDbLine
 62
7
  6
CONTINUOUS
 10
691.5336624829
 20
578.5470306267
 11
691.5336624829
 21
613.6907797366
  0
LINE
  5
322
100
AcDbEntity
  8
RUNDUNGEN
100
AcDbLine
 62
7
  6
CONTINUOUS
 10
691.5336624829
 20
613.6907797366
 11
691.5336624829
 21
633.8779336269
  0
LINE
  5
323
100
AcDbEntity
  8
RUNDUNGEN
100
AcDbLine
 62
7
  6
CONTINUOUS
 10
683.5044880118
 20
550.192432686
 11
681.4139368782
 21
543.3545480364
  0
LINE
  5
324
100
AcDbEntity
  8
BEZUGSACHSEN
100
AcDbLine
 62
7
  6
CONTINUOUS
 10
679.4691120209
 20
536.9933125594
 11
690.921924697
 21
574.4537748901
  0
LINE
  5
325
100
AcDbEntity
  8
BEZUGSACHSEN
100
AcDbLine
 62
7
  6
CONTINUOUS
 10
777.5336624829
 20
533.454679029
 11
748.3797788748
 21
533.454679029
  0
LINE
  5
326
100
AcDbEntity
  8
BEZUGSACHSEN
100
AcDbLine
 62
7
  6
CONTINUOUS
 10
674.6874378051
 20
533.454679029
 11
645.5336624829
 21
533.454679029
  0
LINE
  5
327
100
AcDbEntity
  8
BEZUGSACHSEN
100
AcDbLine
 62
7
  6
CONTINUOUS
 10
794.61944892
 20
455.1688925918
 11
796.5336624829
 21
453.254679029
  0
LINE
  5
328
100
AcDbEntity
  8
KONSTRUKTIONSELEMENTE
100
AcDbLine
 62
7
  6
CONTINUOUS
 10
794.61944892
 20
455.1688925918
 11
794.5385767414
 21
455.254679029
  0
LINE
  5
329
100
AcDbEntity
  8
BEZUGSACHSEN
100
AcDbLine
 62
7
  6
CONTINUOUS
 10
731.5336624829
 20
578.5470306267
 11
731.5336624829
 21
613.6907797366
  0
LINE
  5
32A
100
AcDbEntity
  8
RUNDUNGEN
100
AcDbLine
 62
7
  6
CONTINUOUS
 10
731.5336624829
 20
613.6907797366
 11
731.5336624829
 21
633.8779336269
  0
LINE
  5
32B
100
AcDbEntity
  8
KONSTRUKTIONSELEMENTE
100
AcDbLine
 62
7
  6
CONTINUOUS
 10
628.4478760458
 20
455.1688925918
 11
628.5287482243
 21
455.254679029
  0
LINE
  5
32C
100
AcDbEntity
  8
BEZUGSACHSEN
100
AcDbLine
 62
7
  6
CONTINUOUS
 10
628.4478760458
 20
455.1688925918
 11
626.5336624829
 21
453.254679029
  0
LWPOLYLINE
  5
32D
100
AcDbEntity
  8
RUNDUNGEN
100
AcDbPolyline
 62
7
  6
CONTINUOUS
 90
15
 70
0
 10
731.5336624546
 20
633.8779332433
 10
731.5141893916
 20
634.4125050282
 10
731.3959144061
 20
635.3092875853
 10
731.1726873854
 20
636.1763604165
 10
730.8503069374
 20
637.0026322434
 10
730.4380174169
 20
637.7730208985
 10
729.9425446432
 20
638.4803716675
 10
729.3715753197
 20
639.1175959781
 10
728.733538138
 20
639.6771450779
 10
728.0389630174
 20
640.1521746797
 10
727.2974998043
 20
640.5370591161
 10
726.5205910414
 20
640.8274692014
 10
725.7179484167
 20
641.0206654207
 10
724.8994066121
 20
641.1149586082
 10
724.5336622965
 20
641.1249660168
  0
LINE
  5
32E
100
AcDbEntity
  8
0
100
AcDbLine
 62
7
  6
CONTINUOUS
 10
732.5336624829
 20
619.7900469362
 11
732.5336624829
 21
589.3426476122
  0
LINE
  5
32F
100
AcDbEntity
  8
0
100
AcDbLine
 62
7
  6
CONTINUOUS
 10
731.5336624829
 20
589.3426476122
 11
732.5336624829
 21
589.3426476122
  0
LINE
  5
330
100
AcDbEntity
  8
0
100
AcDbLine
 62
7
  6
CONTINUOUS
 10
731.5336624829
 20
594.7109907587
 11
732.5336624829
 21
594.7109907587
  0
LINE
  5
331
100
AcDbEntity
  8
0
100
AcDbLine
 62
7
  6
CONTINUOUS
 10
731.5336624829
 20
598.3228078866
 11
732.5336624829
 21
598.3228078866
  0
LINE
  5
332
100
AcDbEntity
  8
0
100
AcDbLine
 62
7
  6
CONTINUOUS
 10
731.5336624829
 20
598.9610498784
 11
732.5336624829
 21
598.9610498784
  0
LINE
  5
333
100
AcDbEntity
  8
0
100
AcDbLine
 62
7
  6
CONTINUOUS
 10
731.5336624829
 20
599.2203590962
 11
732.5336624829
 21
599.2203590962
  0
LINE
  5
334
100
AcDbEntity
  8
0
100
AcDbLine
 62
7
  6
CONTINUOUS
 10
731.5336624829
 20
602.7829030311
 11
732.5336624829
 21
602.7829030311
  0
LINE
  5
335
100
AcDbEntity
  8
BEZUGSACHSEN
100
AcDbLine
 62
7
  6
CONTINUOUS
 10
743.5982129449
 20
536.9933125594
 11
732.1454002688
 21
574.4537748901
  0
LINE
  5
336
100
AcDbEntity
  8
0
100
AcDbLine
 62
7
  6
CONTINUOUS
 10
751.5336624829
 20
432.754679029
 11
751.5336624829
 21
315.754679029
  0
LINE
  5
337
100
AcDbEntity
  8
KONSTRUKTIONSELEMENTE
100
AcDbLine
 62
7
  6
CONTINUOUS
 10
756.5336624829
 20
725.754679029
 11
756.5336624829
 21
636.754679029
  0
LINE
  5
338
100
AcDbEntity
  8
0
100
AcDbLine
 62
7
  6
CONTINUOUS
 10
731.5336624829
 20
603.5472542493
 11
732.5336624829
 21
603.5472542493
  0
LINE
  5
339
100
AcDbEntity
  8
0
100
AcDbLine
 62
7
  6
CONTINUOUS
 10
731.5336624829
 20
606.6046576644
 11
732.5336624829
 21
606.6046576644
  0
LINE
  5
33A
100
AcDbEntity
  8
0
100
AcDbLine
 62
7
  6
CONTINUOUS
 10
731.5336624829
 20
607.3690085181
 11
732.5336624829
 21
607.3690085181
  0
LINE
  5
33B
100
AcDbEntity
  8
0
100
AcDbLine
 62
7
  6
CONTINUOUS
 10
691.5336624829
 20
608.3670632929
 11
691.0336624829
 21
608.3670632929
  0
LINE
  5
33C
100
AcDbEntity
  8
0
100
AcDbLine
 62
7
  6
CONTINUOUS
 10
691.5336624829
 20
608.407163796
 11
691.0336624829
 21
608.407163796
  0
LINE
  5
33D
100
AcDbEntity
  8
0
100
AcDbLine
 62
7
  6
CONTINUOUS
 10
731.5336624829
 20
609.3497752425
 11
732.5336624829
 21
609.3497752425
  0
LINE
  5
33E
100
AcDbEntity
  8
0
100
AcDbLine
 62
7
  6
CONTINUOUS
 10
691.5336624829
 20
610.8245007086
 11
691.0336624829
 21
610.8245007086
  0
LINE
  5
33F
100
AcDbEntity
  8
0
100
AcDbLine
 62
7
  6
CONTINUOUS
 10
731.5336624829
 20
611.733103255
 11
732.5336624829
 21
611.733103255
  0
LINE
  5
340
100
AcDbEntity
  8
0
100
AcDbLine
 62
7
  6
CONTINUOUS
 10
731.5336624829
 20
612.0672033492
 11
732.5336624829
 21
612.0672033492
  0
LINE
  5
341
100
AcDbEntity
  8
0
100
AcDbLine
 62
7
  6
CONTINUOUS
 10
731.5336624829
 20
612.1395703979
 11
732.5336624829
 21
612.1395703979
  0
LINE
  5
342
100
AcDbEntity
  8
0
100
AcDbLine
 62
7
  6
CONTINUOUS
 10
691.5336624829
 20
615.1670632929
 11
691.0336624829
 21
615.1670632929
  0
LINE
  5
343
100
AcDbEntity
  8
0
100
AcDbLine
 62
7
  6
CONTINUOUS
 10
691.5336624829
 20
617.5844002055
 11
691.0336624829
 21
617.5844002055
  0
LINE
  5
344
100
AcDbEntity
  8
0
100
AcDbLine
 62
7
  6
CONTINUOUS
 10
731.5336624829
 20
618.2872654128
 11
732.5336624829
 21
618.2872654128
  0
LINE
  5
345
100
AcDbEntity
  8
0
100
AcDbLine
 62
7
  6
CONTINUOUS
 10
731.5336624829
 20
618.4710692352
 11
732.5336624829
 21
618.4710692352
  0
LINE
  5
346
100
AcDbEntity
  8
0
100
AcDbLine
 62
7
  6
CONTINUOUS
 10
731.5336624829
 20
619.3288206397
 11
732.5336624829
 21
619.3288206397
  0
LINE
  5
347
100
AcDbEntity
  8
0
100
AcDbLine
 62
7
  6
CONTINUOUS
 10
731.5336624829
 20
619.5126244621
 11
732.5336624829
 21
619.5126244621
  0
LINE
  5
348
100
AcDbEntity
  8
0
100
AcDbLine
 62
7
  6
CONTINUOUS
 10
731.5336624829
 20
619.7900469362
 11
732.5336624829
 21
619.7900469362
  0
LINE
  5
349
100
AcDbEntity
  8
BEZUGSACHSEN
100
AcDbLine
 62
7
  6
CONTINUOUS
 10
782.5336624829
 20
514.254679029
 11
782.5336624829
 21
528.454679029
  0
LINE
  5
34A
100
AcDbEntity
  8
KONSTRUKTIONSELEMENTE
100
AcDbLine
 62
7
  6
CONTINUOUS
 10
784.0336624829
 20
514.254679029
 11
784.0336624829
 21
457.254679029
  0
LINE
  5
34B
100
AcDbEntity
  8
0
100
AcDbLine
 62
7
  6
CONTINUOUS
 10
691.5336624829
 20
621.9096258771
 11
691.0336624829
 21
621.9096258771
  0
LINE
  5
34C
100
AcDbEntity
  8
0
100
AcDbLine
 62
7
  6
CONTINUOUS
 10
691.5336624829
 20
624.3269627897
 11
691.0336624829
 21
624.3269627897
  0
LINE
  5
34D
100
AcDbEntity
  8
0
100
AcDbLine
 62
7
  6
CONTINUOUS
 10
691.5336624829
 20
624.3670632929
 11
691.0336624829
 21
624.3670632929
  0
LINE
  5
34E
100
AcDbEntity
  8
BEZUGSACHSEN
100
AcDbLine
 62
7
  6
CONTINUOUS
 10
796.5336624829
 20
453.254679029
 11
796.5336624829
 21
433.754679029
  0
LINE
  5
34F
100
AcDbEntity
  8
KONSTRUKTIONSELEMENTE
100
AcDbLine
 62
7
  6
CONTINUOUS
 10
802.5336624829
 20
725.754679029
 11
802.5336624829
 21
636.754679029
  0
LWPOLYLINE
  5
350
100
AcDbEntity
  8
RUNDUNGEN
100
AcDbPolyline
 62
7
  6
CONTINUOUS
 90
15
 70
0
 10
698.5336625429
 20
641.1249660332
 10
698.1304969922
 20
641.1128236114
 10
697.3125137197
 20
641.0140352338
 10
696.5110725392
 20
640.8164436474
 10
695.735918416
 20
640.5218837994
 10
694.9967553804
 20
640.1331378806
 10
694.3049308725
 20
639.6546356855
 10
693.6700452669
 20
639.0920384871
 10
693.1025420782
 20
638.4522044919
 10
692.6107656739
 20
637.7427090245
 10
692.2023531118
 20
636.9706040549
 10
691.8839639917
 20
636.1430408202
 10
691.6648650035
 20
635.2751120689
 10
691.5507309271
 20
634.377717408
 10
691.5336669533
 20
633.8801669272
  0
LINE
  5
351
100
AcDbEntity
  8
RUNDUNGEN
100
AcDbLine
 62
7
  6
CONTINUOUS
 10
698.5336624829
 20
641.1251102278
 11
724.5336623403
 21
641.1251102278
  0
LINE
  5
352
100
AcDbEntity
  8
FASEN
100
AcDbLine
 62
7
  6
CONTINUOUS
 10
796.5336624829
 20
433.754679029
 11
795.5336624829
 21
432.754679029
  0
LINE
  5
353
100
AcDbEntity
  8
0
100
AcDbLine
 62
7
  6
CONTINUOUS
 10
751.5336624829
 20
315.754679029
 11
748.5336624829
 21
312.754679029
  0
LWPOLYLINE
  5
354
100
AcDbEntity
  8
BEZUGSACHSEN
100
AcDbPolyline
 62
7
  6
CONTINUOUS
 90
5
 70
0
 10
269.8052808696
 20
107.1959004167
 10
269.8092549852
 20
106.9468869462
 10
269.8250263761
 20
106.6368090334
 10
269.8528049672
 20
106.3313364445
 10
269.8663409664
 20
106.2182461998
  0
LINE
  5
355
100
AcDbEntity
  8
BEZUGSACHSEN
100
AcDbLine
 62
7
  6
CONTINUOUS
 10
269.8051791336
 20
107.1959113049
 11
269.8051791336
 21
139.354206325
  0
LWPOLYLINE
  5
356
100
AcDbEntity
  8
BEZUGSACHSEN
100
AcDbPolyline
 62
7
  6
CONTINUOUS
 90
5
 70
0
 10
269.8663409664
 20
140.3318714301
 10
269.8528049672
 20
140.2187811855
 10
269.8250263761
 20
139.9133085965
 10
269.8092549852
 20
139.6032306837
 10
269.8052808696
 20
139.3542172132
  0
LINE
  5
357
100
AcDbEntity
  8
BEZUGSACHSEN
100
AcDbLine
 62
7
  6
CONTINUOUS
 10
269.8664096686
 20
140.3324104315
 11
269.8663409664
 21
140.3318714301
  0
LWPOLYLINE
  5
358
100
AcDbEntity
  8
BEZUGSACHSEN
100
AcDbPolyline
 62
7
  6
CONTINUOUS
 90
8
 70
0
 10
269.8664439176
 20
106.2176930458
 10
269.9368126975
 20
105.7780565941
 10
270.159158188
 20
104.925221282
 10
270.4896866317
 20
104.1061594364
 10
270.9237757324
 20
103.3334295911
 10
271.4562175886
 20
102.6185856175
 10
272.0773850753
 20
101.9754806068
 10
272.6400011954
 20
101.5138582907
  0
LINE
  5
359
100
AcDbEntity
  8
BEZUGSACHSEN
100
AcDbLine
 62
7
  6
CONTINUOUS
 10
269.866412027
 20
106.2176887774
 11
269.8663409664
 21
106.2182461998
  0
LWPOLYLINE
  5
35A
100
AcDbEntity
  8
BEZUGSACHSEN
100
AcDbPolyline
 62
7
  6
CONTINUOUS
 90
11
 70
0
 10
280.6433054185
 20
151.2112754873
 10
280.6434734518
 20
151.2115378734
 10
280.6122677784
 20
151.1781092864
 10
280.5465060447
 20
151.1113019165
 10
280.4543109604
 20
151.0215120059
 10
280.3380301221
 20
150.911970779
 10
280.2035574824
 20
150.788613317
 10
280.0528409967
 20
150.6532585097
 10
279.8899185649
 20
150.5094604188
 10
279.7164800953
 20
150.3585684213
 10
279.5354544952
 20
150.2029401359
  0
LINE
  5
35B
100
AcDbEntity
  8
KONSTRUKTIONSELEMENTE
100
AcDbLine
 62
7
  6
CONTINUOUS
 10
385.1808653019
 20
50.775058815
 11
368.3570920714
 21
50.775058815
  0
LINE
  5
35C
100
AcDbEntity
  8
KONSTRUKTIONSELEMENTE
100
AcDbLine
 62
7
  6
CONTINUOUS
 10
323.2557776088
 20
50.775058815
 11
306.4407865617
 21
50.775058815
  0
LWPOLYLINE
  5
35D
100
AcDbEntity
  8
BEZUGSACHSEN
100
AcDbPolyline
 62
7
  6
CONTINUOUS
 90
3
 70
0
 10
279.5354544952
 20
150.2029401359
 10
279.1545757999
 20
149.8801946888
 10
278.9785144283
 20
149.7326854797
  0
LWPOLYLINE
  5
35E
100
AcDbEntity
  8
BEZUGSACHSEN
100
AcDbPolyline
 62
7
  6
CONTINUOUS
 90
8
 70
0
 10
272.6400796545
 20
145.0363171684
 10
272.0284723598
 20
144.5296376457
 10
271.4206261664
 20
143.8893021201
 10
270.8999861815
 20
143.1797917438
 10
270.4756156793
 20
142.41448246
 10
270.1524375951
 20
141.6044501479
 10
269.934809935
 20
140.7616632183
 10
269.8664415637
 20
140.3324061626
  0
LWPOLYLINE
  5
35F
100
AcDbEntity
  8
BEZUGSACHSEN
100
AcDbPolyline
 62
7
  6
CONTINUOUS
 90
3
 70
0
 10
278.9780101073
 20
149.7322573778
 10
278.8754191816
 20
149.6480019661
 10
278.6002293147
 20
149.4355037909
  0
LINE
  5
360
100
AcDbEntity
  8
BEZUGSACHSEN
100
AcDbLine
 62
7
  6
CONTINUOUS
 10
278.5959193716
 20
149.4323213213
 11
272.6379219007
 21
145.034728407
  0
LINE
  5
361
100
AcDbEntity
  8
BEZUGSACHSEN
100
AcDbLine
 62
7
  6
CONTINUOUS
 10
278.6002101044
 20
149.4354883055
 11
278.600769653
 21
149.4359012848
  0
LINE
  5
362
100
AcDbEntity
  8
BEZUGSACHSEN
100
AcDbLine
 62
7
  6
CONTINUOUS
 10
272.6371721426
 20
101.5159426297
 11
278.5959193716
 21
97.1177963086
  0
LINE
  5
363
100
AcDbEntity
  8
BEZUGSACHSEN
100
AcDbLine
 62
7
  6
CONTINUOUS
 10
278.6002096492
 20
97.1146296604
 11
278.600769653
 21
97.1142163452
  0
LWPOLYLINE
  5
364
100
AcDbEntity
  8
BEZUGSACHSEN
100
AcDbPolyline
 62
7
  6
CONTINUOUS
 90
3
 70
0
 10
278.60022886
 20
97.1146141746
 10
278.851831477
 20
96.9210885448
 10
278.9780105652
 20
96.8178598697
  0
LWPOLYLINE
  5
365
100
AcDbEntity
  8
BEZUGSACHSEN
100
AcDbPolyline
 62
7
  6
CONTINUOUS
 90
11
 70
0
 10
278.9780092931
 20
96.8178609322
 10
279.1174080309
 20
96.7011400251
 10
279.3607856436
 20
96.4958834162
 10
279.5918593561
 20
96.2988647649
 10
279.8102079386
 20
96.1102513244
 10
280.0131829128
 20
95.9320757965
 10
280.2001239298
 20
95.7646185975
 10
280.3635574389
 20
95.6143683885
 10
280.5027696148
 20
95.4818351441
 10
280.5985198703
 20
95.3862693789
 10
280.6296618901
 20
95.3536337781
  0
LINE
  5
366
100
AcDbEntity
  8
0
100
AcDbLine
 62
7
  6
CONTINUOUS
 10
299.7982654821
 20
103.275058815
 11
299.7982654821
 21
102.275058815
  0
LINE
  5
367
100
AcDbEntity
  8
0
100
AcDbLine
 62
7
  6
CONTINUOUS
 10
302.4824370554
 20
103.275058815
 11
302.4824370554
 21
102.275058815
  0
LINE
  5
368
100
AcDbEntity
  8
0
100
AcDbLine
 62
7
  6
CONTINUOUS
 10
303.1953339007
 20
103.275058815
 11
303.1953339007
 21
102.275058815
  0
LINE
  5
369
100
AcDbEntity
  8
0
100
AcDbLine
 62
7
  6
CONTINUOUS
 10
304.1037787055
 20
103.275058815
 11
304.1037787055
 21
102.275058815
  0
LINE
  5
36A
100
AcDbEntity
  8
0
100
AcDbLine
 62
7
  6
CONTINUOUS
 10
305.0540774624
 20
103.275058815
 11
305.0540774624
 21
102.275058815
  0
LINE
  5
36B
100
AcDbEntity
  8
0
100
AcDbLine
 62
7
  6
CONTINUOUS
 10
305.6270008206
 20
103.275058815
 11
305.6270008206
 21
102.275058815
  0
LINE
  5
36C
100
AcDbEntity
  8
0
100
AcDbLine
 62
7
  6
CONTINUOUS
 10
306.1835815706
 20
103.275058815
 11
306.1835815706
 21
102.275058815
  0
LINE
  5
36D
100
AcDbEntity
  8
0
100
AcDbLine
 62
7
  6
CONTINUOUS
 10
307.0090471497
 20
103.275058815
 11
307.0090471497
 21
102.275058815
  0
LINE
  5
36E
100
AcDbEntity
  8
0
100
AcDbLine
 62
7
  6
CONTINUOUS
 10
310.3109078914
 20
103.275058815
 11
310.3109078914
 21
102.275058815
  0
LINE
  5
36F
100
AcDbEntity
  8
0
100
AcDbLine
 62
7
  6
CONTINUOUS
 10
311.1363730768
 20
103.275058815
 11
311.1363730768
 21
102.275058815
  0
LINE
  5
370
100
AcDbEntity
  8
0
100
AcDbLine
 62
7
  6
CONTINUOUS
 10
313.6698811805
 20
103.275058815
 11
313.6698811805
 21
102.275058815
  0
LINE
  5
371
100
AcDbEntity
  8
0
100
AcDbLine
 62
7
  6
CONTINUOUS
 10
317.4869150531
 20
103.275058815
 11
317.4869150531
 21
102.275058815
  0
LINE
  5
372
100
AcDbEntity
  8
0
100
AcDbLine
 62
7
  6
CONTINUOUS
 10
318.3835492512
 20
103.275058815
 11
318.3835492512
 21
102.275058815
  0
LINE
  5
373
100
AcDbEntity
  8
0
100
AcDbLine
 62
7
  6
CONTINUOUS
 10
319.222557359
 20
103.275058815
 11
319.222557359
 21
102.275058815
  0
LINE
  5
374
100
AcDbEntity
  8
0
100
AcDbLine
 62
7
  6
CONTINUOUS
 10
320.2644018692
 20
103.275058815
 11
320.2644018692
 21
102.275058815
  0
LINE
  5
375
100
AcDbEntity
  8
0
100
AcDbLine
 62
7
  6
CONTINUOUS
 10
320.9881614368
 20
103.275058815
 11
320.9881614368
 21
102.275058815
  0
LINE
  5
376
100
AcDbEntity
  8
0
100
AcDbLine
 62
7
  6
CONTINUOUS
 10
321.6542951983
 20
103.275058815
 11
321.6542951983
 21
102.275058815
  0
LINE
  5
377
100
AcDbEntity
  8
KONSTRUKTIONSELEMENTE
100
AcDbLine
 62
7
  6
CONTINUOUS
 10
322.8108259318
 20
191.275058815
 11
322.8108259318
 21
55.275058815
  0
LINE
  5
378
100
AcDbEntity
  8
0
100
AcDbLine
 62
7
  6
CONTINUOUS
 10
371.9218946421
 20
102.275058815
 11
368.8108259318
 21
102.275058815
  0
LINE
  5
379
100
AcDbEntity
  8
0
100
AcDbLine
 62
7
  6
CONTINUOUS
 10
322.8108259318
 20
102.275058815
 11
299.7982654821
 21
102.275058815
  0
LINE
  5
37A
100
AcDbEntity
  8
BEZUGSACHSEN
100
AcDbLine
 62
7
  6
CONTINUOUS
 10
409.1039441534
 20
103.275058815
 11
394.5469266395
 21
103.275058815
  0
LINE
  5
37B
100
AcDbEntity
  8
RUNDUNGEN
100
AcDbLine
 62
7
  6
CONTINUOUS
 10
394.5469266395
 20
103.275058815
 11
368.8108259318
 21
103.275058815
  0
LINE
  5
37C
100
AcDbEntity
  8
BEZUGSACHSEN
100
AcDbLine
 62
7
  6
CONTINUOUS
 10
282.5177077102
 20
103.275058815
 11
297.0747252241
 21
103.275058815
  0
LINE
  5
37D
100
AcDbEntity
  8
RUNDUNGEN
100
AcDbLine
 62
7
  6
CONTINUOUS
 10
297.0747252241
 20
103.275058815
 11
322.8108259318
 21
103.275058815
  0
LINE
  5
37E
100
AcDbEntity
  8
KONSTRUKTIONSELEMENTE
100
AcDbLine
 62
7
  6
CONTINUOUS
 10
368.8108259318
 20
191.275058815
 11
368.8108259318
 21
55.275058815
  0
LINE
  5
37F
100
AcDbEntity
  8
0
100
AcDbLine
 62
7
  6
CONTINUOUS
 10
370.2997305195
 20
103.275058815
 11
370.2997305195
 21
102.275058815
  0
LINE
  5
380
100
AcDbEntity
  8
0
100
AcDbLine
 62
7
  6
CONTINUOUS
 10
371.0632551967
 20
103.275058815
 11
371.0632551967
 21
102.275058815
  0
LINE
  5
381
100
AcDbEntity
  8
0
100
AcDbLine
 62
7
  6
CONTINUOUS
 10
371.5750759843
 20
103.275058815
 11
371.5750759843
 21
102.275058815
  0
LINE
  5
382
100
AcDbEntity
  8
RUNDUNGEN
100
AcDbLine
 62
7
  6
CONTINUOUS
 10
409.1039441534
 20
143.275058815
 11
368.8108259318
 21
143.275058815
  0
LINE
  5
383
100
AcDbEntity
  8
BEZUGSACHSEN
100
AcDbLine
 62
7
  6
CONTINUOUS
 10
282.5177077102
 20
143.275058815
 11
297.0747252241
 21
143.275058815
  0
LINE
  5
384
100
AcDbEntity
  8
RUNDUNGEN
100
AcDbLine
 62
7
  6
CONTINUOUS
 10
297.0747252241
 20
143.275058815
 11
322.8108259318
 21
143.275058815
  0
LINE
  5
385
100
AcDbEntity
  8
0
100
AcDbLine
 62
7
  6
CONTINUOUS
 10
371.9218946421
 20
103.275058815
 11
371.9218946421
 21
102.275058815
  0
LWPOLYLINE
  5
386
100
AcDbEntity
  8
BEZUGSACHSEN
100
AcDbPolyline
 62
7
  6
CONTINUOUS
 90
3
 70
0
 10
412.0861973684
 20
96.347177494
 10
412.4670760637
 20
96.6699229411
 10
412.6431374353
 20
96.8174321502
  0
LWPOLYLINE
  5
387
100
AcDbEntity
  8
BEZUGSACHSEN
100
AcDbPolyline
 62
7
  6
CONTINUOUS
 90
8
 70
0
 10
418.9815722091
 20
101.5138004615
 10
419.5931795038
 20
102.0204799843
 10
420.2010256972
 20
102.6608155099
 10
420.7216656821
 20
103.3703258862
 10
421.1460361843
 20
104.1356351699
 10
421.4692142685
 20
104.945667482
 10
421.6868419286
 20
105.7884544117
 10
421.7552102999
 20
106.2177114673
  0
LWPOLYLINE
  5
388
100
AcDbEntity
  8
BEZUGSACHSEN
100
AcDbPolyline
 62
7
  6
CONTINUOUS
 90
3
 70
0
 10
412.6436417563
 20
96.8178602521
 10
412.7462326838
 20
96.9021156653
 10
413.0214225489
 20
97.114613839
  0
LINE
  5
389
100
AcDbEntity
  8
BEZUGSACHSEN
100
AcDbLine
 62
7
  6
CONTINUOUS
 10
413.0214417592
 20
97.1146293244
 11
413.0208822106
 21
97.1142163452
  0
LINE
  5
38A
100
AcDbEntity
  8
BEZUGSACHSEN
100
AcDbLine
 62
7
  6
CONTINUOUS
 10
413.0257324919
 20
97.1177963086
 11
418.9837299629
 21
101.5153892229
  0
LINE
  5
38B
100
AcDbEntity
  8
RUNDUNGEN
100
AcDbLine
 62
7
  6
CONTINUOUS
 10
413.0214422144
 20
149.4354879695
 11
413.0208822106
 21
149.4359012848
  0
LINE
  5
38C
100
AcDbEntity
  8
RUNDUNGEN
100
AcDbLine
 62
7
  6
CONTINUOUS
 10
418.984479721
 20
145.0341750002
 11
413.0257324919
 21
149.4323213213
  0
LWPOLYLINE
  5
38D
100
AcDbEntity
  8
RUNDUNGEN
100
AcDbPolyline
 62
7
  6
CONTINUOUS
 90
3
 70
0
 10
413.0214230036
 20
149.4355034553
 10
412.7698204006
 20
149.6290290739
 10
412.6436412984
 20
149.7322577602
  0
LWPOLYLINE
  5
38E
100
AcDbEntity
  8
RUNDUNGEN
100
AcDbPolyline
 62
7
  6
CONTINUOUS
 90
11
 70
0
 10
412.6436425705
 20
149.7322566977
 10
412.5042438327
 20
149.8489776048
 10
412.26086622
 20
150.0542342137
 10
412.0297925075
 20
150.251252865
 10
411.8114439249
 20
150.4398663055
 10
411.6084689508
 20
150.6180418334
 10
411.4215279338
 20
150.7854990324
 10
411.2580944247
 20
150.9357492414
 10
411.1188822488
 20
151.0682824858
 10
411.0231319933
 20
151.163848251
 10
410.9919899734
 20
151.1964838519
  0
LWPOLYLINE
  5
38F
100
AcDbEntity
  8
BEZUGSACHSEN
100
AcDbPolyline
 62
7
  6
CONTINUOUS
 90
11
 70
0
 10
410.978346445
 20
95.3388421427
 10
410.9781784118
 20
95.3385797565
 10
411.0093840852
 20
95.3720083435
 10
411.0751458189
 20
95.4388157134
 10
411.1673409032
 20
95.528605624
 10
411.2836217415
 20
95.6381468509
 10
411.4180943812
 20
95.7615043129
 10
411.5688108669
 20
95.8968591202
 10
411.7317332987
 20
96.0406572111
 10
411.9051717683
 20
96.1915492086
 10
412.0861973684
 20
96.347177494
  0
LINE
  5
390
100
AcDbEntity
  8
KONSTRUKTIONSELEMENTE
100
AcDbLine
 62
7
  6
CONTINUOUS
 10
306.4407865617
 20
195.775058815
 11
323.2645597922
 21
195.775058815
  0
LINE
  5
391
100
AcDbEntity
  8
KONSTRUKTIONSELEMENTE
100
AcDbLine
 62
7
  6
CONTINUOUS
 10
368.3570920714
 20
195.775058815
 11
385.1808653019
 21
195.775058815
  0
LWPOLYLINE
  5
392
100
AcDbEntity
  8
RUNDUNGEN
100
AcDbPolyline
 62
7
  6
CONTINUOUS
 90
5
 70
0
 10
421.816370994
 20
139.3542172132
 10
421.8123968784
 20
139.6032306837
 10
421.7966254875
 20
139.9133085965
 10
421.7688468964
 20
140.2187811855
 10
421.7553108972
 20
140.3318714301
  0
LINE
  5
393
100
AcDbEntity
  8
BEZUGSACHSEN
100
AcDbLine
 62
7
  6
CONTINUOUS
 10
421.81647273
 20
139.354206325
 11
421.81647273
 21
107.1959113049
  0
LWPOLYLINE
  5
394
100
AcDbEntity
  8
BEZUGSACHSEN
100
AcDbPolyline
 62
7
  6
CONTINUOUS
 90
5
 70
0
 10
421.7553108972
 20
106.2182461998
 10
421.7688468964
 20
106.3313364445
 10
421.7966254875
 20
106.6368090334
 10
421.8123968784
 20
106.9468869462
 10
421.816370994
 20
107.1959004167
  0
LINE
  5
395
100
AcDbEntity
  8
BEZUGSACHSEN
100
AcDbLine
 62
7
  6
CONTINUOUS
 10
421.755242195
 20
106.2177071984
 11
421.7553108972
 21
106.2182461998
  0
LWPOLYLINE
  5
396
100
AcDbEntity
  8
RUNDUNGEN
100
AcDbPolyline
 62
7
  6
CONTINUOUS
 90
8
 70
0
 10
421.755207946
 20
140.3324245841
 10
421.6848391661
 20
140.7720610358
 10
421.4624936756
 20
141.6248963479
 10
421.1319652319
 20
142.4439581935
 10
420.6978761312
 20
143.2166880388
 10
420.165434275
 20
143.9315320124
 10
419.5442667883
 20
144.5746370231
 10
418.9816506682
 20
145.0362593392
  0
LINE
  5
397
100
AcDbEntity
  8
RUNDUNGEN
100
AcDbLine
 62
7
  6
CONTINUOUS
 10
421.7552398366
 20
140.3324288525
 11
421.7553108972
 21
140.3318714301
  0
ARC
  5
398
100
AcDbEntity
  8
KONSTRUKTIONSELEMENTE
100
AcDbCircle
 62
7
  6
CONTINUOUS
 10
365.330440962
 20
388.9644816563
 40
136.6325882195
100
AcDbArc
 50
113.5106131824
 51
115.5315082529
  0
ARC
  5
399
100
AcDbEntity
  8
KONSTRUKTIONSELEMENTE
100
AcDbCircle
 62
7
  6
CONTINUOUS
 10
326.2912109016
 20
388.9644816564
 40
136.6325882195
100
AcDbArc
 50
64.4684917471
 51
66.4893868176
  0
ARC
  5
39A
100
AcDbEntity
  8
RUNDUNGEN
100
AcDbCircle
 62
7
  6
CONTINUOUS
 10
345.8108259318
 20
564.254679029
 40
28.5
100
AcDbArc
 50
13.2763559261
 51
23.740842692
  0
ARC
  5
39B
100
AcDbEntity
  8
BEZUGSACHSEN
100
AcDbCircle
 62
7
  6
CONTINUOUS
 10
345.8108259318
 20
564.254679029
 40
28.5
100
AcDbArc
 50
143.8734184956
 51
36.1265815044
  0
ARC
  5
39C
100
AcDbEntity
  8
KONSTRUKTIONSELEMENTE
100
AcDbCircle
 62
7
  6
CONTINUOUS
 10
345.8108259318
 20
793.754679029
 40
23.0
100
AcDbArc
 50
0.0
 51
180.0
  0
ARC
  5
39D
100
AcDbEntity
  8
KONSTRUKTIONSELEMENTE
100
AcDbCircle
 62
7
  6
CONTINUOUS
 10
345.8108259318
 20
568.754679029
 40
23.0
100
AcDbArc
 50
180.0
 51
360.0
  0
ARC
  5
39E
100
AcDbEntity
  8
BEZUGSACHSEN
100
AcDbCircle
 62
7
  6
CONTINUOUS
 10
424.8107853776
 20
550.0851075904
 40
7.9999958932
100
AcDbArc
 50
157.4992410241
 51
179.9992987931
  0
ARC
  5
39F
100
AcDbEntity
  8
BEZUGSACHSEN
100
AcDbCircle
 62
7
  6
CONTINUOUS
 10
266.810866486
 20
550.0851075904
 40
7.9999958932
100
AcDbArc
 50
0.0007012069
 51
22.5007589759
  0
ARC
  5
3A0
100
AcDbEntity
  8
BEZUGSACHSEN
100
AcDbCircle
 62
7
  6
CONTINUOUS
 10
275.8051791336
 20
564.954679029
 40
6.0
100
AcDbArc
 50
157.5
 51
202.4962727337
  0
ARC
  5
3A1
100
AcDbEntity
  8
BEZUGSACHSEN
100
AcDbCircle
 62
7
  6
CONTINUOUS
 10
296.3093583594
 20
614.4561466014
 40
6.0
100
AcDbArc
 50
112.4997330509
 51
157.5
  0
ARC
  5
3A2
100
AcDbEntity
  8
RUNDUNGEN
100
AcDbCircle
 62
7
  6
CONTINUOUS
 10
395.3122935042
 20
614.4561466014
 40
6.0
100
AcDbArc
 50
22.5
 51
67.5002669491
  0
ARC
  5
3A3
100
AcDbEntity
  8
BEZUGSACHSEN
100
AcDbCircle
 62
7
  6
CONTINUOUS
 10
395.3122935042
 20
614.4561466014
 40
6.0
100
AcDbArc
 50
22.5
 51
67.5002669491
  0
ARC
  5
3A4
100
AcDbEntity
  8
RUNDUNGEN
100
AcDbCircle
 62
7
  6
CONTINUOUS
 10
415.81647273
 20
564.954679029
 40
6.0
100
AcDbArc
 50
337.5037272663
 51
22.5
  0
ARC
  5
3A5
100
AcDbEntity
  8
BEZUGSACHSEN
100
AcDbCircle
 62
7
  6
CONTINUOUS
 10
415.81647273
 20
564.954679029
 40
6.0
100
AcDbArc
 50
337.5037272663
 51
22.5
  0
ARC
  5
3A6
100
AcDbEntity
  8
KONSTRUKTIONSELEMENTE
100
AcDbCircle
 62
7
  6
CONTINUOUS
 10
430.3108259318
 20
456.5831061537
 40
2.0
100
AcDbArc
 50
180.0
 51
225.0
  0
ARC
  5
3A7
100
AcDbEntity
  8
KONSTRUKTIONSELEMENTE
100
AcDbCircle
 62
7
  6
CONTINUOUS
 10
261.3108259318
 20
456.5831061537
 40
2.0
100
AcDbArc
 50
315.0
 51
360.0
  0
ARC
  5
3A8
100
AcDbEntity
  8
BEZUGSACHSEN
100
AcDbCircle
 62
7
  6
CONTINUOUS
 10
677.5336624829
 20
578.5469930479
 40
14.0
100
AcDbArc
 50
342.9999388381
 51
0.0001537936
  0
ARC
  5
3A9
100
AcDbEntity
  8
BEZUGSACHSEN
100
AcDbCircle
 62
7
  6
CONTINUOUS
 10
645.5336624829
 20
528.454679029
 40
5.0
100
AcDbArc
 50
90.0
 51
180.0
  0
ARC
  5
3AA
100
AcDbEntity
  8
RUNDUNGEN
100
AcDbCircle
 62
7
  6
CONTINUOUS
 10
674.687437805
 20
538.454679029
 40
5.0
100
AcDbArc
 50
270.0012408672
 51
297.1996545672
  0
ARC
  5
3AB
100
AcDbEntity
  8
BEZUGSACHSEN
100
AcDbCircle
 62
7
  6
CONTINUOUS
 10
674.687437805
 20
538.454679029
 40
5.0
100
AcDbArc
 50
270.0001795574
 51
342.9999417403
  0
ARC
  5
3AC
100
AcDbEntity
  8
KONSTRUKTIONSELEMENTE
100
AcDbCircle
 62
7
  6
CONTINUOUS
 10
637.0336624829
 20
457.254679029
 40
2.0
100
AcDbArc
 50
270.0
 51
360.0
  0
ARC
  5
3AD
100
AcDbEntity
  8
BEZUGSACHSEN
100
AcDbCircle
 62
7
  6
CONTINUOUS
 10
745.5336624829
 20
578.5469930479
 40
14.0
100
AcDbArc
 50
179.9998462064
 51
197.0000611619
  0
ARC
  5
3AE
100
AcDbEntity
  8
BEZUGSACHSEN
100
AcDbCircle
 62
7
  6
CONTINUOUS
 10
777.5336624829
 20
528.454679029
 40
5.0
100
AcDbArc
 50
0.0
 51
90.0
  0
ARC
  5
3AF
100
AcDbEntity
  8
BEZUGSACHSEN
100
AcDbCircle
 62
7
  6
CONTINUOUS
 10
748.3798871607
 20
538.454679029
 40
5.0
100
AcDbArc
 50
197.0000582597
 51
269.9998204426
  0
ARC
  5
3B0
100
AcDbEntity
  8
KONSTRUKTIONSELEMENTE
100
AcDbCircle
 62
7
  6
CONTINUOUS
 10
786.0336624829
 20
457.254679029
 40
2.0
100
AcDbArc
 50
180.0
 51
270.0
  0
ARC
  5
3B1
100
AcDbEntity
  8
KONSTRUKTIONSELEMENTE
100
AcDbCircle
 62
7
  6
CONTINUOUS
 10
711.5336624829
 20
725.754679029
 40
91.0
100
AcDbArc
 50
0.0
 51
180.0
  0
ARC
  5
3B2
100
AcDbEntity
  8
KONSTRUKTIONSELEMENTE
100
AcDbCircle
 62
7
  6
CONTINUOUS
 10
711.5336624829
 20
636.754679029
 40
91.0
100
AcDbArc
 50
287.9420845303
 51
360.0
  0
ARC
  5
3B3
100
AcDbEntity
  8
KONSTRUKTIONSELEMENTE
100
AcDbCircle
 62
7
  6
CONTINUOUS
 10
711.5336624829
 20
636.754679029
 40
91.0
100
AcDbArc
 50
180.0
 51
252.0579154697
  0
ARC
  5
3B4
100
AcDbEntity
  8
KONSTRUKTIONSELEMENTE
100
AcDbCircle
 62
7
  6
CONTINUOUS
 10
711.5336624829
 20
725.754679029
 40
45.0
100
AcDbArc
 50
0.0
 51
180.0
  0
ARC
  5
3B5
100
AcDbEntity
  8
KONSTRUKTIONSELEMENTE
100
AcDbCircle
 62
7
  6
CONTINUOUS
 10
711.5336624829
 20
636.754679029
 40
45.0
100
AcDbArc
 50
297.8237605613
 51
360.0
  0
ARC
  5
3B6
100
AcDbEntity
  8
KONSTRUKTIONSELEMENTE
100
AcDbCircle
 62
7
  6
CONTINUOUS
 10
711.5336624829
 20
636.754679029
 40
45.0
100
AcDbArc
 50
180.0
 51
243.6052488748
  0
ARC
  5
3B7
100
AcDbEntity
  8
BEZUGSACHSEN
100
AcDbCircle
 62
7
  6
CONTINUOUS
 10
345.8108259318
 20
123.275058815
 40
85.0
100
AcDbArc
 50
281.7093680988
 51
78.2906319012
  0
ARC
  5
3B8
100
AcDbEntity
  8
BEZUGSACHSEN
100
AcDbCircle
 62
7
  6
CONTINUOUS
 10
345.8108259318
 20
123.275058815
 40
85.0
100
AcDbArc
 50
101.7093680988
 51
258.2886572817
  0
ARC
  5
3B9
100
AcDbEntity
  8
KONSTRUKTIONSELEMENTE
100
AcDbCircle
 62
7
  6
CONTINUOUS
 10
345.8108259318
 20
123.275058815
 40
83.0049142586
100
AcDbArc
 50
103.3274788693
 51
116.1637893325
  0
ARC
  5
3BA
100
AcDbEntity
  8
KONSTRUKTIONSELEMENTE
100
AcDbCircle
 62
7
  6
CONTINUOUS
 10
345.8108259318
 20
123.275058815
 40
83.0049142586
100
AcDbArc
 50
63.8362106675
 51
76.6812590026
  0
ARC
  5
3BB
100
AcDbEntity
  8
KONSTRUKTIONSELEMENTE
100
AcDbCircle
 62
7
  6
CONTINUOUS
 10
345.8108259318
 20
123.275058815
 40
83.0049142586
100
AcDbArc
 50
283.3274788693
 51
296.1637893325
  0
ARC
  5
3BC
100
AcDbEntity
  8
KONSTRUKTIONSELEMENTE
100
AcDbCircle
 62
7
  6
CONTINUOUS
 10
345.8108259318
 20
123.275058815
 40
83.0049142586
100
AcDbArc
 50
243.8362106675
 51
256.6812590026
  0
ARC
  5
3BD
100
AcDbEntity
  8
KONSTRUKTIONSELEMENTE
100
AcDbCircle
 62
7
  6
CONTINUOUS
 10
345.8108259318
 20
123.275058815
 40
82.5
100
AcDbArc
 50
298.3340519074
 51
61.6659480926
  0
ARC
  5
3BE
100
AcDbEntity
  8
KONSTRUKTIONSELEMENTE
100
AcDbCircle
 62
7
  6
CONTINUOUS
 10
345.8108259318
 20
123.275058815
 40
82.5
100
AcDbArc
 50
118.3340519074
 51
241.6659480926
  0
ARC
  5
3BF
100
AcDbEntity
  8
KONSTRUKTIONSELEMENTE
100
AcDbCircle
 62
7
  6
CONTINUOUS
 10
345.8108259318
 20
123.275058815
 40
80.5
100
AcDbArc
 50
115.7601690897
 51
244.2398309103
  0
ARC
  5
3C0
100
AcDbEntity
  8
KONSTRUKTIONSELEMENTE
100
AcDbCircle
 62
7
  6
CONTINUOUS
 10
345.8108259318
 20
123.275058815
 40
80.5
100
AcDbArc
 50
295.7601690897
 51
64.2398309103
  0
ARC
  5
3C1
100
AcDbEntity
  8
RUNDUNGEN
100
AcDbCircle
 62
7
  6
CONTINUOUS
 10
345.8108259318
 20
123.275058815
 40
71.0
100
AcDbArc
 50
23.0087913434
 51
33.936664389
  0
ARC
  5
3C2
100
AcDbEntity
  8
BEZUGSACHSEN
100
AcDbCircle
 62
7
  6
CONTINUOUS
 10
345.8108259318
 20
123.275058815
 40
71.0
100
AcDbArc
 50
108.9046835336
 51
156.9919889641
  0
ARC
  5
3C3
100
AcDbEntity
  8
BEZUGSACHSEN
100
AcDbCircle
 62
7
  6
CONTINUOUS
 10
345.8108259318
 20
123.275058815
 40
71.0
100
AcDbArc
 50
33.936664389
 51
71.0953164664
  0
ARC
  5
3C4
100
AcDbEntity
  8
BEZUGSACHSEN
100
AcDbCircle
 62
7
  6
CONTINUOUS
 10
345.8108259318
 20
123.275058815
 40
71.0
100
AcDbArc
 50
203.0087913434
 51
251.0953164664
  0
ARC
  5
3C5
100
AcDbEntity
  8
BEZUGSACHSEN
100
AcDbCircle
 62
7
  6
CONTINUOUS
 10
345.8108259318
 20
123.275058815
 40
71.0
100
AcDbArc
 50
288.9046835336
 51
336.9919889641
  0
ARC
  5
3C6
100
AcDbEntity
  8
KONSTRUKTIONSELEMENTE
100
AcDbCircle
 62
7
  6
CONTINUOUS
 10
345.8108259318
 20
55.275058815
 40
23.0
100
AcDbArc
 50
180.0
 51
360.0
  0
ARC
  5
3C7
100
AcDbEntity
  8
KONSTRUKTIONSELEMENTE
100
AcDbCircle
 62
7
  6
CONTINUOUS
 10
345.8108259318
 20
191.275058815
 40
23.0
100
AcDbArc
 50
0.0
 51
180.0
  0
SPLINE
  5
3C8
100
AcDbEntity
  8
KONSTRUKTIONSELEMENTE
100
AcDbSpline
 62
7
  6
CONTINUOUS
 70
0
 71
3
 72
9
 73
5
 74
0
 42
0.0000001
 43
0.0000001
 44
0.0000000001
 40
0.0
 40
0.0
 40
0.0
 40
0.0
 40
0.4944301835
 40
1.0
 40
1.0
 40
1.0
 40
1.0
 10
306.6553847106
 20
456.5831061537
 30
0.0
 10
306.5906025329
 20
456.6810943664
 30
0.0
 10
306.4816424793
 20
456.8955313173
 30
0.0
 10
306.4407865617
 20
457.1345657982
 30
0.0
 10
306.4407865617
 20
457.254679029
 30
0.0
  0
SPLINE
  5
3C9
100
AcDbEntity
  8
KONSTRUKTIONSELEMENTE
100
AcDbSpline
 62
7
  6
CONTINUOUS
 70
0
 71
3
 72
9
 73
5
 74
0
 42
0.0000001
 43
0.0000001
 44
0.0000000001
 40
0.0
 40
0.0
 40
0.0
 40
0.0
 40
0.5055689192
 40
1.0
 40
1.0
 40
1.0
 40
1.0
 10
385.1808653019
 20
457.254679029
 30
0.0
 10
385.1808653019
 20
457.1345660151
 30
0.0
 10
385.14000931
 20
456.8955315852
 30
0.0
 10
385.0310494463
 20
456.6810945413
 30
0.0
 10
384.966267153
 20
456.5831061537
 30
0.0
  0
SPLINE
  5
3CA
100
AcDbEntity
  8
KONSTRUKTIONSELEMENTE
100
AcDbSpline
 62
7
  6
CONTINUOUS
 70
0
 71
3
 72
13
 73
9
 74
0
 42
0.0000001
 43
0.0000001
 44
0.0000000001
 40
0.0
 40
0.0
 40
0.0
 40
0.0
 40
0.1376314474
 40
0.2661922607
 40
0.3864655091
 40
0.5028931046
 40
0.7423921185
 40
1.0
 40
1.0
 40
1.0
 40
1.0
 10
384.966267153
 20
456.5831061537
 30
0.0
 10
384.888910808
 20
456.4660985097
 30
0.0
 10
384.7375340367
 20
456.2408881716
 30
0.0
 10
384.4923191935
 20
455.9316198594
 30
0.0
 10
384.2179144154
 20
455.6769490638
 30
0.0
 10
383.7984698388
 20
455.4252884656
 30
0.0
 10
383.1800691244
 20
455.2754860623
 30
0.0
 10
382.6734456932
 20
455.254679029
 30
0.0
 10
382.4109050447
 20
455.254679029
 30
0.0
  0
SPLINE
  5
3CB
100
AcDbEntity
  8
KONSTRUKTIONSELEMENTE
100
AcDbSpline
 62
7
  6
CONTINUOUS
 70
0
 71
3
 72
13
 73
9
 74
0
 42
0.0000001
 43
0.0000001
 44
0.0000000001
 40
0.0
 40
0.0
 40
0.0
 40
0.0
 40
0.2576080646
 40
0.4971072544
 40
0.6135347979
 40
0.7338079505
 40
0.8623686228
 40
1.0
 40
1.0
 40
1.0
 40
1.0
 10
309.2107468189
 20
455.254679029
 30
0.0
 10
308.948205975
 20
455.254679029
 30
0.0
 10
308.4415820907
 20
455.2754857949
 30
0.0
 10
307.8231812724
 20
455.4252889265
 30
0.0
 10
307.4037364645
 20
455.6769492506
 30
0.0
 10
307.1293322971
 20
455.9316203264
 30
0.0
 10
306.8841176892
 20
456.2408883992
 30
0.0
 10
306.7327410188
 20
456.4660985654
 30
0.0
 10
306.6553847106
 20
456.5831061537
 30
0.0
  0
SPLINE
  5
3CC
100
AcDbEntity
  8
KONSTRUKTIONSELEMENTE
100
AcDbSpline
 62
7
  6
CONTINUOUS
 70
0
 71
3
 72
11
 73
7
 74
0
 42
0.0000001
 43
0.0000001
 44
0.0000000001
 40
0.0
 40
0.0
 40
0.0
 40
0.0
 40
0.2823560164
 40
0.5578652442
 40
0.8054660246
 40
1.0
 40
1.0
 40
1.0
 40
1.0
 10
309.2107468189
 20
48.775058815
 30
0.0
 10
308.9414833641
 20
48.9073415498
 30
0.0
 10
308.4203157382
 20
49.1919468384
 30
0.0
 10
307.7281647979
 20
49.7033296825
 30
0.0
 10
307.1878242587
 20
50.2372588946
 30
0.0
 10
306.8373139383
 20
50.5608367919
 30
0.0
 10
306.6553847106
 20
50.6589351042
 30
0.0
  0
SPLINE
  5
3CD
100
AcDbEntity
  8
KONSTRUKTIONSELEMENTE
100
AcDbSpline
 62
7
  6
CONTINUOUS
 70
0
 71
3
 72
11
 73
7
 74
0
 42
0.0000001
 43
0.0000001
 44
0.0000000001
 40
0.0
 40
0.0
 40
0.0
 40
0.0
 40
0.194523653
 40
0.4421238297
 40
0.7176347695
 40
1.0
 40
1.0
 40
1.0
 40
1.0
 10
306.6553847106
 20
195.8911825257
 30
0.0
 10
306.8373043216
 20
195.9892756526
 30
0.0
 10
307.1878128469
 20
196.3128372519
 30
0.0
 10
307.7281304389
 20
196.846777928
 30
0.0
 10
308.4203020996
 20
197.3581522685
 30
0.0
 10
308.9414745226
 20
197.6427717365
 30
0.0
 10
309.2107468189
 20
197.775058815
 30
0.0
  0
SPLINE
  5
3CE
100
AcDbEntity
  8
KONSTRUKTIONSELEMENTE
100
AcDbSpline
 62
7
  6
CONTINUOUS
 70
0
 71
3
 72
11
 73
7
 74
0
 42
0.0000001
 43
0.0000001
 44
0.0000000001
 40
0.0
 40
0.0
 40
0.0
 40
0.0
 40
0.2823654721
 40
0.5578765311
 40
0.8054765386
 40
1.0
 40
1.0
 40
1.0
 40
1.0
 10
382.4109050447
 20
197.775058815
 30
0.0
 10
382.6801775737
 20
197.6427716221
 30
0.0
 10
383.2013501743
 20
197.3581517233
 30
0.0
 10
383.8935224159
 20
196.8467777792
 30
0.0
 10
384.4338392903
 20
196.3128366702
 30
0.0
 10
384.7843477196
 20
195.9892755568
 30
0.0
 10
384.966267153
 20
195.8911825257
 30
0.0
  0
SPLINE
  5
3CF
100
AcDbEntity
  8
KONSTRUKTIONSELEMENTE
100
AcDbSpline
 62
7
  6
CONTINUOUS
 70
0
 71
3
 72
11
 73
7
 74
0
 42
0.0000001
 43
0.0000001
 44
0.0000000001
 40
0.0
 40
0.0
 40
0.0
 40
0.0
 40
0.1945341955
 40
0.4421351267
 40
0.7176442068
 40
1.0
 40
1.0
 40
1.0
 40
1.0
 10
384.966267153
 20
50.6589351042
 30
0.0
 10
384.7843377209
 20
50.5608366817
 30
0.0
 10
384.43382729
 20
50.2372582967
 30
0.0
 10
383.893486128
 20
49.7033294366
 30
0.0
 10
383.2013356772
 20
49.1919463683
 30
0.0
 10
382.6801682845
 20
48.9073414442
 30
0.0
 10
382.4109050447
 20
48.775058815
 30
0.0
  0
ENDSEC
  0
SECTION
  2
OBJECTS
  0
DICTIONARY
  5
C
100
AcDbDictionary
280
0
281
1
  3
ACAD_GROUP
350
D
  3
ACAD_MLINESTYLE
350
17
  3
ACAD_LAYOUT
350
1A
  3
ACAD_PLOTSETTINGS
350
19
  3
ACAD_PLOTSTYLENAME
350
E
  0
DICTIONARY
  5
D
102
{ACAD_REACTORS
330
C
102
}
100
AcDbDictionary
280
0
281
1
  0
ACDBDICTIONARYWDFLT
  5
E
102
{ACAD_REACTORS
330
C
102
}
100
AcDbDictionary
281
1
  3
Normal
350
F
100
AcDbDictionaryWithDefault
340
F
  0
DICTIONARY
  5
17
102
{ACAD_REACTORS
330
C
102
}
100
AcDbDictionary
280
0
281
1
  3
Standard
350
18
  0
DICTIONARY
  5
19
102
{ACAD_REACTORS
330
C
102
}
100
AcDbDictionary
281
1
  0
DICTIONARY
  5
1A
102
{ACAD_REACTORS
330
C
102
}
100
AcDbDictionary
281
1
  3
Model
350
3D0
  3
Layout1
350
3D1
  0
ACDBPLACEHOLDER
  5
F
102
{ACAD_REACTORS
330
E
102
}
  0
MLINESTYLE
  5
18
102
{ACAD_REACTORS
330
17
102
}
100
AcDbMlineStyle
  2
STANDARD
 70
0
  3

 62
256
 51
90.0
 52
90.0
 71
2
 49
0.5
 62
256
  6
BYLAYER
 49
-0.5
 62
256
  6
BYLAYER
  0
LAYOUT
  5
3D0
102
{ACAD_REACTORS
330
1A
102
}
100
AcDbPlotSettings
  1

  2
none_device
  4
ISO_A0_(1189.00_x_841.00_MM)
  6

 40
0.0
 41
0.0
 42
0.0
 43
0.0
 44
1189.0
 45
841.0
 46
0.0
 47
0.0
 48
0.0
 49
0.0
140
0.0
141
0.0
142
1.0
143
1.0
 70
1024
 72
1
 73
0
 74
0
  7

 75
0
147
1.0
148
0.0
149
0.0
100
AcDbLayout
  1
Model
 70
0
 71
0
 10
0.0
 20
0.0
 11
1189.0
 21
841.0
 12
0.0
 22
0.0
 32
0.0
 14
0.0
 24
0.0
 34
0.0
 15
0.0
 25
0.0
 35
0.0
146
0.0
 13
0.0
 23
0.0
 33
0.0
 16
1.0
 26
0.0
 36
0.0
 17
0.0
 27
1.0
 37
0.0
 76
0
330
211
345
0
346
0
  0
LAYOUT
  5
3D1
102
{ACAD_REACTORS
330
1A
102
}
100
AcDbPlotSettings
  1

  2
none_device
  4
ISO_A0_(1189.00_x_841.00_MM)
  6

 40
0.0
 41
0.0
 42
0.0
 43
0.0
 44
1189.0
 45
841.0
 46
0.0
 47
0.0
 48
0.0
 49
0.0
140
0.0
141
0.0
142
1.0
143
1.0
 70
0
 72
1
 73
0
 74
0
  7

 75
0
147
1.0
148
0.0
149
0.0
100
AcDbLayout
  1
Layout1
 70
0
 71
1
 10
0.0
 20
0.0
 11
1189.0
 21
841.0
 12
0.0
 22
0.0
 32
0.0
 14
0.0
 24
0.0
 34
0.0
 15
0.0
 25
0.0
 35
0.0
146
0.0
 13
0.0
 23
0.0
 33
0.0
 16
1.0
 26
0.0
 36
0.0
 17
0.0
 27
1.0
 37
0.0
 76
0
330
212
345
0
346
0
  0
ENDSEC
  0
EOF
