999
DXF file: 001-m33231-p-10.dxf
999
Pro/ENGINEER 2011490 by Parametric Technology Corporation
  0
SECTION
  2
HEADER
  9
$ACADVER
  1
AC1015
  9
$DWGCODEPAGE
  3
ANSI_1252
  9
$EXTMAX
 10
841.0
 20
594.0
 30
0.0
  9
$EXTMIN
 10
0.0
 20
0.0
 30
0.0
  9
$LIMMIN
 10
0.0
 20
0.0
  9
$LIMMAX
 10
841.0
 20
594.0
  9
$VIEWCTR
 10
420.5
 20
297.0
  9
$VIEWSIZE
 40
594.0
  9
$CLAYER
  8
0
  9
$LTSCALE
 40
46.255
  9
$CELTYPE
  6
BYLAYER
  9
$DIMSCALE
 40
1.0
  9
$DIMASZ
 40
3.5
  9
$DIMEXO
 40
5.25625
  9
$DIMDLI
 40
31.958
  9
$DIMEXE
 40
15.138
  9
$DIMCEN
 40
7.569
  9
$DIMLFAC
 40
1.0
  9
$DIMBLK
  1
_FILLED
  9
$DIMTXT
 40
3.5
  9
$DIMTOL
 70
1
  9
$DIMLIM
 70
0
  9
$DIMTFAC
 40
1.0
  9
$DIMTP
 40
0.005
  9
$DIMTM
 40
0.005
  9
$PDMODE
 70
3
  9
$PDSIZE
 40
0.3125
  9
$HANDSEED
  5
3C6
  9
$TILEMODE
 70
1
  9
$MEASUREMENT
 70
1
  9
$INSUNITS
 70
4
  0
ENDSEC
  0
SECTION
  2
CLASSES
  0
CLASS
  1
ACDBDICTIONARYWDFLT
  2
AcDbDictionaryWithDefault
  3
AutoCAD 2000
 90
0
280
0
281
0
  0
CLASS
  1
ACDBPLACEHOLDER
  2
AcDbPlaceHolder
  3
AutoCAD 2000
 90
0
280
0
281
0
  0
CLASS
  1
LAYOUT
  2
AcDbLayout
  3
AutoCAD 2000
 90
0
280
0
281
0
  0
ENDSEC
  0
SECTION
  2
TABLES
  0
TABLE
  2
VPORT
  5
8
100
AcDbSymbolTable
 70
2
  0
VPORT
  5
1F4
100
AcDbSymbolTableRecord
100
AcDbViewportTableRecord
  2
*ACTIVE
 70
0
 10
0.0
 20
0.0
 11
1.0
 21
1.0
 12
420.5
 22
297.0
 13
0.0
 23
0.0
 14
1.0
 24
1.0
 15
0.0
 25
0.0
 16
0.0
 26
0.0
 36
1.0
 17
0.0
 27
0.0
 37
0.0
 40
594.0
 41
1.4158249158
 42
50.0
 43
0.0
 44
0.0
 50
0.0
 51
0.0
 71
0
 72
100
 73
1
 74
1
 75
0
 76
0
 77
0
 78
0
  0
ENDTAB
  0
TABLE
  2
LTYPE
  5
5
100
AcDbSymbolTable
 70
6
  0
LTYPE
  5
14
100
AcDbSymbolTableRecord
100
AcDbLinetypeTableRecord
  2
BYBLOCK
 70
0
  3

 72
65
 73
0
 40
0.0
  0
LTYPE
  5
15
100
AcDbSymbolTableRecord
100
AcDbLinetypeTableRecord
  2
BYLAYER
 70
0
  3

 72
65
 73
0
 40
0.0
  0
LTYPE
  5
16
100
AcDbSymbolTableRecord
100
AcDbLinetypeTableRecord
  2
CONTINUOUS
 70
64
  3
Solid line
 72
65
 73
0
 40
0.0
  0
LTYPE
  5
1F5
100
AcDbSymbolTableRecord
100
AcDbLinetypeTableRecord
  2
CENTER
 70
64
  3
____ _ ____ _ ____ _ ____ _ ____ _ ____ _ ____
 72
65
 73
4
 40
0.6
 49
0.375
 74
0
 49
-0.075
 74
0
 49
0.075
 74
0
 49
-0.075
 74
0
  0
LTYPE
  5
1F6
100
AcDbSymbolTableRecord
100
AcDbLinetypeTableRecord
  2
HIDDEN
 70
64
  3
- - - - - - - - - - - - - - - - - - - -
 72
65
 73
2
 40
0.2
 49
0.1
 74
0
 49
-0.1
 74
0
  0
LTYPE
  5
1F7
100
AcDbSymbolTableRecord
100
AcDbLinetypeTableRecord
  2
PHANTOM
 70
64
  3
_____ _ _ _____ _ _ _____ _ _ _____
 72
65
 73
6
 40
0.8
 49
0.45
 74
0
 49
-0.05
 74
0
 49
0.1
 74
0
 49
-0.05
 74
0
 49
0.1
 74
0
 49
-0.05
 74
0
  0
LTYPE
  5
1F8
100
AcDbSymbolTableRecord
100
AcDbLinetypeTableRecord
  2
DOT
 70
64
  3
. . . . . . . . . . . . . . . . . . . .
 72
65
 73
2
 40
0.2
 49
0.1
 74
0
 49
-0.1
 74
0
  0
LTYPE
  5
1F9
100
AcDbSymbolTableRecord
100
AcDbLinetypeTableRecord
  2
DASHED
 70
64
  3
- - - - - - - - - - - - - - - - - - - -
 72
65
 73
2
 40
0.2
 49
0.1
 74
0
 49
-0.1
 74
0
  0
ENDTAB
  0
TABLE
  2
LAYER
  5
2
100
AcDbSymbolTable
 70
36
  0
LAYER
  5
10
100
AcDbSymbolTableRecord
100
AcDbLayerTableRecord
  2
0
 70
0
 62
7
  6
CONTINUOUS
370
-3
390
F
  0
LAYER
  5
1FA
100
AcDbSymbolTableRecord
100
AcDbLayerTableRecord
  2
DEFAULT_1
 70
0
 62
7
  6
CENTER
370
-3
390
F
  0
LAYER
  5
1FB
100
AcDbSymbolTableRecord
100
AcDbLayerTableRecord
  2
DEFAULT_2
 70
0
 62
8
  6
HIDDEN
370
-3
390
F
  0
LAYER
  5
1FC
100
AcDbSymbolTableRecord
100
AcDbLayerTableRecord
  2
DEFAULT_3
 70
0
 62
7
  6
PHANTOM
370
-3
390
F
  0
LAYER
  5
1FD
100
AcDbSymbolTableRecord
100
AcDbLayerTableRecord
  2
AUSFORMSCHRAEGEN
 70
0
 62
7
  6
CONTINUOUS
370
-3
390
F
  0
LAYER
  5
1FE
100
AcDbSymbolTableRecord
100
AcDbLayerTableRecord
  2
B-EBENEN
 70
0
 62
7
  6
CONTINUOUS
370
-3
390
F
  0
LAYER
  5
1FF
100
AcDbSymbolTableRecord
100
AcDbLayerTableRecord
  2
B-KOORSYS
 70
0
 62
7
  6
CONTINUOUS
370
-3
390
F
  0
LAYER
  5
200
100
AcDbSymbolTableRecord
100
AcDbLayerTableRecord
  2
B-KURVEN
 70
0
 62
7
  6
CONTINUOUS
370
-3
390
F
  0
LAYER
  5
201
100
AcDbSymbolTableRecord
100
AcDbLayerTableRecord
  2
BEMASSUNG
 70
0
 62
7
  6
CONTINUOUS
370
-3
390
F
  0
LAYER
  5
202
100
AcDbSymbolTableRecord
100
AcDbLayerTableRecord
  2
BEZUGSACHSEN
 70
0
 62
7
  6
CONTINUOUS
370
-3
390
F
  0
LAYER
  5
203
100
AcDbSymbolTableRecord
100
AcDbLayerTableRecord
  2
BEZUGSEBENEN
 70
0
 62
7
  6
CONTINUOUS
370
-3
390
F
  0
LAYER
  5
204
100
AcDbSymbolTableRecord
100
AcDbLayerTableRecord
  2
BEZUGSPUNKTE
 70
0
 62
7
  6
CONTINUOUS
370
-3
390
F
  0
LAYER
  5
205
100
AcDbSymbolTableRecord
100
AcDbLayerTableRecord
  2
BG_STARTBEZUEGE
 70
0
 62
7
  6
CONTINUOUS
370
-3
390
F
  0
LAYER
  5
206
100
AcDbSymbolTableRecord
100
AcDbLayerTableRecord
  2
BOHRUNGEN
 70
0
 62
7
  6
CONTINUOUS
370
-3
390
F
  0
LAYER
  5
207
100
AcDbSymbolTableRecord
100
AcDbLayerTableRecord
  2
FASEN
 70
0
 62
7
  6
CONTINUOUS
370
-3
390
F
  0
LAYER
  5
208
100
AcDbSymbolTableRecord
100
AcDbLayerTableRecord
  2
FLAECHEN
 70
0
 62
7
  6
CONTINUOUS
370
-3
390
F
  0
LAYER
  5
209
100
AcDbSymbolTableRecord
100
AcDbLayerTableRecord
  2
FLAECHENVERBUND
 70
0
 62
7
  6
CONTINUOUS
370
-3
390
F
  0
LAYER
  5
20A
100
AcDbSymbolTableRecord
100
AcDbLayerTableRecord
  2
GEWINDE
 70
0
 62
7
  6
CONTINUOUS
370
-3
390
F
  0
LAYER
  5
20B
100
AcDbSymbolTableRecord
100
AcDbLayerTableRecord
  2
HILFEN
 70
0
 62
7
  6
CONTINUOUS
370
-3
390
F
  0
LAYER
  5
20C
100
AcDbSymbolTableRecord
100
AcDbLayerTableRecord
  2
KONSTRUKTIONSELEMENTE
 70
0
 62
7
  6
CONTINUOUS
370
-3
390
F
  0
LAYER
  5
20D
100
AcDbSymbolTableRecord
100
AcDbLayerTableRecord
  2
KURVEN
 70
0
 62
7
  6
CONTINUOUS
370
-3
390
F
  0
LAYER
  5
20E
100
AcDbSymbolTableRecord
100
AcDbLayerTableRecord
  2
KURVENELEMENTE
 70
0
 62
7
  6
CONTINUOUS
370
-3
390
F
  0
LAYER
  5
20F
100
AcDbSymbolTableRecord
100
AcDbLayerTableRecord
  2
NOTIZEN
 70
0
 62
7
  6
CONTINUOUS
370
-3
390
F
  0
LAYER
  5
210
100
AcDbSymbolTableRecord
100
AcDbLayerTableRecord
  2
PLATZIERUNG
 70
0
 62
7
  6
CONTINUOUS
370
-3
390
F
  0
LAYER
  5
211
100
AcDbSymbolTableRecord
100
AcDbLayerTableRecord
  2
RUNDUNGEN
 70
0
 62
7
  6
CONTINUOUS
370
-3
390
F
  0
LAYER
  5
212
100
AcDbSymbolTableRecord
100
AcDbLayerTableRecord
  2
TEIL_STARTBEZUEGE
 70
0
 62
7
  6
CONTINUOUS
370
-3
390
F
  0
LAYER
  5
213
100
AcDbSymbolTableRecord
100
AcDbLayerTableRecord
  2
XSEC_DATUMS
 70
0
 62
7
  6
CONTINUOUS
370
-3
390
F
  0
LAYER
  5
214
100
AcDbSymbolTableRecord
100
AcDbLayerTableRecord
  2
ZEICHNUNGSBEMASSUNGEN
 70
0
 62
7
  6
CONTINUOUS
370
-3
390
F
  0
ENDTAB
  0
TABLE
  2
STYLE
  5
3
100
AcDbSymbolTable
 70
1
  0
STYLE
  5
11
100
AcDbSymbolTableRecord
100
AcDbTextStyleTableRecord
  2
STANDARD
 70
0
 40
0.0
 41
0.7
 50
0.0
 71
0
 42
0.2
  3
txt
  4

  0
STYLE
  5
215
100
AcDbSymbolTableRecord
100
AcDbTextStyleTableRecord
  2
TEXTSTYLE_1
 70
0
 40
0.0
 41
0.8
 50
0.0
 71
0
 42
0.2
  3
gdt
  4

  0
ENDTAB
  0
TABLE
  2
VIEW
  5
6
100
AcDbSymbolTable
 70
0
  0
ENDTAB
  0
TABLE
  2
UCS
  5
7
100
AcDbSymbolTable
 70
0
  0
ENDTAB
  0
TABLE
  2
APPID
  5
9
100
AcDbSymbolTable
 70
1
  0
APPID
  5
216
100
AcDbSymbolTableRecord
100
AcDbRegAppTableRecord
  2
ACAD
 70
0
  0
ENDTAB
  0
TABLE
  2
BLOCK_RECORD
  5
1
100
AcDbSymbolTable
 70
0
  0
BLOCK_RECORD
  5
217
100
AcDbSymbolTableRecord
100
AcDbBlockTableRecord
  2
*Model_Space
  0
BLOCK_RECORD
  5
218
100
AcDbSymbolTableRecord
100
AcDbBlockTableRecord
  2
*Paper_Space
  0
ENDTAB
  0
TABLE
  2
DIMSTYLE
  5
A
100
AcDbSymbolTable
 70
1
100
AcDbDimStyleTable
 71
0
  0
DIMSTYLE
105
219
100
AcDbSymbolTableRecord
100
AcDbDimStyleTableRecord
  2
STANDARD
 70
0
  3

  4

 40
1.0
 41
3.5
 42
0.0625
 43
0.38
 44
0.18
 45
0.0
 46
0.0
 47
0.005
 48
0.005
140
3.5
141
0.09
142
0.0
143
25.4
144
1.0
145
0.0
146
1.0
147
0.09
 71
1.0
 72
0.0
 73
0
 74
0
 75
0
 76
0
 77
1
 78
8
170
0
171
2
172
0
173
0
174
0
175
0
176
0
177
0
178
5
270
2
271
3
272
3
273
2
274
2
275
0
280
0
281
0
282
0
283
1
284
8
285
0
286
0
287
3
288
0
340
11
  0
ENDTAB
  0
ENDSEC
  0
SECTION
  2
BLOCKS
  0
BLOCK
  5
20
100
AcDbEntity
  8
0
100
AcDbBlockBegin
  2
*Model_Space
 70
0
 10
0.0
 20
0.0
 30
0.0
  3
*Model_Space
  1

  0
ENDBLK
  5
21
100
AcDbEntity
  8
0
100
AcDbBlockEnd
  0
BLOCK
  5
1C
100
AcDbEntity
  8
0
100
AcDbBlockBegin
  2
*Paper_Space
 70
0
 10
0.0
 20
0.0
 30
0.0
  3
*Paper_Space
  1

  0
ENDBLK
  5
1D
100
AcDbEntity
  8
0
100
AcDbBlockEnd
  0
ENDSEC
  0
SECTION
  2
ENTITIES
  0
MTEXT
  5
21A
100
AcDbEntity
  8
0
100
AcDbMText
 62
5
  6
CONTINUOUS
  7
STANDARD
 71
1
 72
1
 10
477.5414783466
 20
308.4628284144
 30
0.0
 11
1.0
 21
0.0
 31
0.0
 44
0.9
  1
VWBG 16t M56
 40
10.0
 41
98.0952380952
  0
MTEXT
  5
21B
100
AcDbEntity
  8
0
100
AcDbMText
 62
5
  6
CONTINUOUS
  7
STANDARD
 71
1
 72
1
 10
283.2344801488
 20
402.3529473679
 30
0.0
 11
0.0
 21
1.0
 31
0.0
 44
0.9
  1
VWBG 16t M56
 40
10.0
 41
98.0952380952
  0
MTEXT
  5
21C
100
AcDbEntity
  8
0
100
AcDbMText
 62
5
  6
CONTINUOUS
  7
STANDARD
 71
1
 72
1
 10
283.3820844146
 20
39.0044093784
 30
0.0
 11
0.0
 21
1.0
 31
0.0
 44
0.9
  1
VWBG 16t M56
 40
10.0
 41
98.0952380952
  0
LINE
  5
21D
100
AcDbEntity
  8
0
100
AcDbLine
 62
7
  6
CONTINUOUS
 10
0.0
 20
0.0
 11
0.0
 21
594.0
  0
LINE
  5
21E
100
AcDbEntity
  8
0
100
AcDbLine
 62
7
  6
CONTINUOUS
 10
0.0
 20
0.0
 11
841.0
 21
0.0
  0
LINE
  5
21F
100
AcDbEntity
  8
0
100
AcDbLine
 62
7
  6
CONTINUOUS
 10
0.0
 20
594.0
 11
841.0
 21
594.0
  0
LINE
  5
220
100
AcDbEntity
  8
0
100
AcDbLine
 62
7
  6
CONTINUOUS
 10
841.0
 20
0.0
 11
841.0
 21
594.0
  0
LINE
  5
221
100
AcDbEntity
  8
0
100
AcDbLine
 62
7
  6
CONTINUOUS
 10
313.3164180371
 20
188.9796841353
 11
263.3164180371
 21
188.9796841353
  0
LINE
  5
222
100
AcDbEntity
  8
0
100
AcDbLine
 62
7
  6
CONTINUOUS
 10
316.3164180371
 20
191.9796841353
 11
260.3164180371
 21
191.9796841353
  0
LINE
  5
223
100
AcDbEntity
  8
0
100
AcDbLine
 62
7
  6
CONTINUOUS
 10
260.3164180371
 20
191.9796841353
 11
263.3164180371
 21
188.9796841353
  0
LINE
  5
224
100
AcDbEntity
  8
FASEN
100
AcDbLine
 62
7
  6
CONTINUOUS
 10
347.8164180371
 20
272.9796841353
 11
228.8164180371
 21
272.9796841353
  0
LINE
  5
225
100
AcDbEntity
  8
FASEN
100
AcDbLine
 62
7
  6
CONTINUOUS
 10
348.3164180371
 20
273.4796841353
 11
228.3164180371
 21
273.4796841353
  0
LINE
  5
226
100
AcDbEntity
  8
FASEN
100
AcDbLine
 62
7
  6
CONTINUOUS
 10
228.3164180371
 20
273.4796841353
 11
228.8164180371
 21
272.9796841353
  0
LINE
  5
227
100
AcDbEntity
  8
BEZUGSACHSEN
100
AcDbLine
 62
7
  6
CONTINUOUS
 10
348.3164180371
 20
283.4796841353
 11
228.3164180371
 21
283.4796841353
  0
LINE
  5
228
100
AcDbEntity
  8
KONSTRUKTIONSELEMENTE
100
AcDbLine
 62
7
  6
CONTINUOUS
 10
314.5032467874
 20
287.4796841353
 11
262.1295892867
 21
287.4796841353
  0
LINE
  5
229
100
AcDbEntity
  8
0
100
AcDbLine
 62
7
  6
CONTINUOUS
 10
280.3164180371
 20
316.4796841353
 11
281.3164180371
 21
316.4796841353
  0
LINE
  5
22A
100
AcDbEntity
  8
0
100
AcDbLine
 62
7
  6
CONTINUOUS
 10
285.3164180371
 20
316.4796841353
 11
286.1497515293
 21
316.4796841353
  0
LINE
  5
22B
100
AcDbEntity
  8
BEZUGSACHSEN
100
AcDbLine
 62
7
  6
CONTINUOUS
 10
228.3164180371
 20
283.4796841353
 11
228.3164180371
 21
273.4796841353
  0
LINE
  5
22C
100
AcDbEntity
  8
BEZUGSACHSEN
100
AcDbLine
 62
7
  6
CONTINUOUS
 10
233.3164180371
 20
329.4796841353
 11
233.3164180371
 21
289.3081112601
  0
LINE
  5
22D
100
AcDbEntity
  8
0
100
AcDbLine
 62
7
  6
CONTINUOUS
 10
286.1497515293
 20
316.4796841353
 11
286.9830845448
 21
316.6498968959
  0
LINE
  5
22E
100
AcDbEntity
  8
0
100
AcDbLine
 62
7
  6
CONTINUOUS
 10
285.3164180371
 20
321.5860669822
 11
284.4830845448
 21
321.4158542365
  0
LINE
  5
22F
100
AcDbEntity
  8
0
100
AcDbLine
 62
7
  6
CONTINUOUS
 10
285.3164180371
 20
324.4796841353
 11
284.4830845448
 21
324.3094713897
  0
LINE
  5
230
100
AcDbEntity
  8
0
100
AcDbLine
 62
7
  6
CONTINUOUS
 10
286.3164180371
 20
317.3307479829
 11
285.1497515293
 21
317.3307479829
  0
LINE
  5
231
100
AcDbEntity
  8
0
100
AcDbLine
 62
7
  6
CONTINUOUS
 10
285.1497515293
 20
320.7350032538
 11
286.3164180371
 21
320.7350032538
  0
LINE
  5
232
100
AcDbEntity
  8
0
100
AcDbLine
 62
7
  6
CONTINUOUS
 10
289.9830850216
 20
321.2456414908
 11
291.3164180371
 21
321.2456414908
  0
LINE
  5
233
100
AcDbEntity
  8
0
100
AcDbLine
 62
7
  6
CONTINUOUS
 10
292.1497510525
 20
321.2456414908
 11
293.9830850216
 21
321.2456414908
  0
LINE
  5
234
100
AcDbEntity
  8
0
100
AcDbLine
 62
7
  6
CONTINUOUS
 10
286.1497515293
 20
321.5860669822
 11
285.3164180371
 21
321.5860669822
  0
LINE
  5
235
100
AcDbEntity
  8
0
100
AcDbLine
 62
7
  6
CONTINUOUS
 10
293.9830850216
 20
321.9264924735
 11
292.1497510525
 21
321.9264924735
  0
LINE
  5
236
100
AcDbEntity
  8
0
100
AcDbLine
 62
7
  6
CONTINUOUS
 10
291.3164180371
 20
321.9264924735
 11
289.9830850216
 21
321.9264924735
  0
LINE
  5
237
100
AcDbEntity
  8
0
100
AcDbLine
 62
7
  6
CONTINUOUS
 10
287.4830850216
 20
322.607343933
 11
288.3164180371
 21
322.607343933
  0
LINE
  5
238
100
AcDbEntity
  8
0
100
AcDbLine
 62
7
  6
CONTINUOUS
 10
292.1497510525
 20
323.2881949157
 11
291.3164180371
 21
323.2881949157
  0
LINE
  5
239
100
AcDbEntity
  8
0
100
AcDbLine
 62
7
  6
CONTINUOUS
 10
285.1497515293
 20
323.628620407
 11
286.1497515293
 21
323.628620407
  0
LINE
  5
23A
100
AcDbEntity
  8
0
100
AcDbLine
 62
7
  6
CONTINUOUS
 10
285.9830845448
 20
324.4796841353
 11
285.3164180371
 21
324.4796841353
  0
LINE
  5
23B
100
AcDbEntity
  8
0
100
AcDbLine
 62
7
  6
CONTINUOUS
 10
281.3164180371
 20
324.4796841353
 11
280.3164180371
 21
324.4796841353
  0
LINE
  5
23C
100
AcDbEntity
  8
KONSTRUKTIONSELEMENTE
100
AcDbLine
 62
7
  6
CONTINUOUS
 10
343.3164180371
 20
329.4796841353
 11
316.0427593031
 21
329.4796841353
  0
LINE
  5
23D
100
AcDbEntity
  8
KONSTRUKTIONSELEMENTE
100
AcDbLine
 62
7
  6
CONTINUOUS
 10
260.590076771
 20
329.4796841353
 11
233.3164180371
 21
329.4796841353
  0
LINE
  5
23E
100
AcDbEntity
  8
0
100
AcDbLine
 62
7
  6
CONTINUOUS
 10
292.6497510525
 20
316.6498968959
 11
293.6497510525
 21
316.4796841353
  0
LINE
  5
23F
100
AcDbEntity
  8
0
100
AcDbLine
 62
7
  6
CONTINUOUS
 10
284.4830845448
 20
316.6498968959
 11
285.3164180371
 21
316.4796841353
  0
LINE
  5
240
100
AcDbEntity
  8
0
100
AcDbLine
 62
7
  6
CONTINUOUS
 10
293.6497510525
 20
317.1605351776
 11
292.8164180371
 21
317.3307479829
  0
LINE
  5
241
100
AcDbEntity
  8
0
100
AcDbLine
 62
7
  6
CONTINUOUS
 10
286.9830845448
 20
321.4158542365
 11
286.1497515293
 21
321.5860669822
  0
LINE
  5
242
100
AcDbEntity
  8
0
100
AcDbLine
 62
7
  6
CONTINUOUS
 10
286.8164180371
 20
324.3094713897
 11
285.9830845448
 21
324.4796841353
  0
LINE
  5
243
100
AcDbEntity
  8
0
100
AcDbLine
 62
7
  6
CONTINUOUS
 10
285.1497515293
 20
317.3307479829
 11
284.6497515293
 21
317.5009607285
  0
LINE
  5
244
100
AcDbEntity
  8
0
100
AcDbLine
 62
7
  6
CONTINUOUS
 10
292.1497510525
 20
316.8201096565
 11
292.6497510525
 21
316.6498968959
  0
LINE
  5
245
100
AcDbEntity
  8
0
100
AcDbLine
 62
7
  6
CONTINUOUS
 10
286.3164180371
 20
320.7350032538
 11
286.8164180371
 21
320.5647905082
  0
LINE
  5
246
100
AcDbEntity
  8
0
100
AcDbLine
 62
7
  6
CONTINUOUS
 10
286.1497515293
 20
323.628620407
 11
286.6497515293
 21
323.4584076613
  0
LINE
  5
247
100
AcDbEntity
  8
0
100
AcDbLine
 62
7
  6
CONTINUOUS
 10
283.6497515293
 20
317.1605351776
 11
284.4830845448
 21
316.6498968959
  0
LINE
  5
248
100
AcDbEntity
  8
0
100
AcDbLine
 62
7
  6
CONTINUOUS
 10
287.8164180371
 20
320.9052159995
 11
286.9830845448
 21
321.4158542365
  0
LINE
  5
249
100
AcDbEntity
  8
0
100
AcDbLine
 62
7
  6
CONTINUOUS
 10
284.6497515293
 20
317.5009607285
 11
284.1497515293
 21
317.8413862199
  0
LINE
  5
24A
100
AcDbEntity
  8
0
100
AcDbLine
 62
7
  6
CONTINUOUS
 10
291.6497510525
 20
317.1605351776
 11
292.1497510525
 21
316.8201096565
  0
LINE
  5
24B
100
AcDbEntity
  8
0
100
AcDbLine
 62
7
  6
CONTINUOUS
 10
286.8164180371
 20
320.5647905082
 11
287.3164180371
 21
320.2243650168
  0
LINE
  5
24C
100
AcDbEntity
  8
BEZUGSACHSEN
100
AcDbLine
 62
7
  6
CONTINUOUS
 10
240.8164180371
 20
362.1211612678
 11
240.8164180371
 21
331.4796841353
  0
LINE
  5
24D
100
AcDbEntity
  8
BEZUGSACHSEN
100
AcDbLine
 62
7
  6
CONTINUOUS
 10
250.5957894087
 20
408.4531361628
 11
237.2674940437
 21
376.2757847295
  0
LINE
  5
24E
100
AcDbEntity
  8
RUNDUNGEN
100
AcDbLine
 62
7
  6
CONTINUOUS
 10
271.8164180371
 20
419.1451603562
 11
253.8429660095
 21
411.7003127637
  0
LINE
  5
24F
100
AcDbEntity
  8
KONSTRUKTIONSELEMENTE
100
AcDbLine
 62
7
  6
CONTINUOUS
 10
235.316573655
 20
331.4796841353
 11
341.3162624192
 21
331.4796841353
  0
LINE
  5
250
100
AcDbEntity
  8
BEZUGSACHSEN
100
AcDbLine
 62
7
  6
CONTINUOUS
 10
318.9791828627
 20
343.9796841353
 11
257.6536532114
 21
343.9796841353
  0
LINE
  5
251
100
AcDbEntity
  8
0
100
AcDbLine
 62
7
  6
CONTINUOUS
 10
287.6497510525
 20
323.7988331527
 11
286.8164180371
 21
324.3094713897
  0
LINE
  5
252
100
AcDbEntity
  8
0
100
AcDbLine
 62
7
  6
CONTINUOUS
 10
292.8164180371
 20
317.3307479829
 11
292.3164180371
 21
317.6711734742
  0
LINE
  5
253
100
AcDbEntity
  8
0
100
AcDbLine
 62
7
  6
CONTINUOUS
 10
286.6497515293
 20
323.4584076613
 11
287.1497515293
 21
323.11798217
  0
LINE
  5
254
100
AcDbEntity
  8
0
100
AcDbLine
 62
7
  6
CONTINUOUS
 10
287.3164180371
 20
320.2243650168
 11
287.6497510525
 21
319.8839395255
  0
LINE
  5
255
100
AcDbEntity
  8
0
100
AcDbLine
 62
7
  6
CONTINUOUS
 10
288.3164180371
 20
320.3945777625
 11
287.8164180371
 21
320.9052159995
  0
LINE
  5
256
100
AcDbEntity
  8
0
100
AcDbLine
 62
7
  6
CONTINUOUS
 10
283.1497512909
 20
317.8413862199
 11
283.6497515293
 21
317.1605351776
  0
LINE
  5
257
100
AcDbEntity
  8
0
100
AcDbLine
 62
7
  6
CONTINUOUS
 10
284.1497515293
 20
317.8413862199
 11
283.8164180371
 21
318.3520245761
  0
LINE
  5
258
100
AcDbEntity
  8
BEZUGSACHSEN
100
AcDbLine
 62
7
  6
CONTINUOUS
 10
237.2678730966
 20
371.6826684266
 11
242.7806867953
 21
358.3735588284
  0
LINE
  5
259
100
AcDbEntity
  8
0
100
AcDbLine
 62
7
  6
CONTINUOUS
 10
260.3164180371
 20
272.9796841353
 11
260.3164180371
 21
191.9796841353
  0
LINE
  5
25A
100
AcDbEntity
  8
KONSTRUKTIONSELEMENTE
100
AcDbLine
 62
7
  6
CONTINUOUS
 10
260.590076771
 20
329.4796841353
 11
260.590076771
 21
289.4796841353
  0
LINE
  5
25B
100
AcDbEntity
  8
0
100
AcDbLine
 62
7
  6
CONTINUOUS
 10
258.0436910525
 20
394.9112030842
 11
258.1046446582
 21
395.5633458474
  0
LINE
  5
25C
100
AcDbEntity
  8
0
100
AcDbLine
 62
7
  6
CONTINUOUS
 10
264.1278611335
 20
398.8807282639
 11
264.0412728025
 21
398.3585820362
  0
LINE
  5
25D
100
AcDbEntity
  8
0
100
AcDbLine
 62
7
  6
CONTINUOUS
 10
257.3367481879
 20
395.1869723106
 11
257.2281507191
 21
394.7377565303
  0
LINE
  5
25E
100
AcDbEntity
  8
0
100
AcDbLine
 62
7
  6
CONTINUOUS
 10
264.7883962104
 20
397.8470889614
 11
264.9756736752
 21
398.4747299311
  0
LINE
  5
25F
100
AcDbEntity
  8
0
100
AcDbLine
 62
7
  6
CONTINUOUS
 10
264.0412728025
 20
398.3585820362
 11
263.7462561708
 21
397.8337722927
  0
LINE
  5
260
100
AcDbEntity
  8
0
100
AcDbLine
 62
7
  6
CONTINUOUS
 10
264.3926910778
 20
397.2167850255
 11
264.7883962104
 21
397.8470889614
  0
LINE
  5
261
100
AcDbEntity
  8
0
100
AcDbLine
 62
7
  6
CONTINUOUS
 10
254.6347414652
 20
396.2102677363
 11
252.7598463758
 21
393.2548035758
  0
LINE
  5
262
100
AcDbEntity
  8
0
100
AcDbLine
 62
7
  6
CONTINUOUS
 10
253.857392235
 20
393.5947558147
 11
255.3416841063
 21
395.9344981576
  0
LINE
  5
263
100
AcDbEntity
  8
0
100
AcDbLine
 62
7
  6
CONTINUOUS
 10
257.2281507191
 20
394.7377565303
 11
255.7438588478
 21
392.3980141874
  0
LINE
  5
264
100
AcDbEntity
  8
0
100
AcDbLine
 62
7
  6
CONTINUOUS
 10
256.498445352
 20
391.9193176259
 11
257.8264960031
 21
394.0127713475
  0
LINE
  5
265
100
AcDbEntity
  8
0
100
AcDbLine
 62
7
  6
CONTINUOUS
 10
258.6707746967
 20
389.505013397
 11
259.139498469
 21
390.2438794371
  0
LINE
  5
266
100
AcDbEntity
  8
0
100
AcDbLine
 62
7
  6
CONTINUOUS
 10
261.0925141127
 20
393.3224878201
 11
261.6393586628
 21
394.1844984351
  0
LINE
  5
267
100
AcDbEntity
  8
0
100
AcDbLine
 62
7
  6
CONTINUOUS
 10
269.6409894339
 20
402.8836145014
 11
269.2470670062
 21
402.4283297254
  0
LINE
  5
268
100
AcDbEntity
  8
0
100
AcDbLine
 62
7
  6
CONTINUOUS
 10
269.7571968147
 20
401.6946275003
 11
270.2708562758
 21
402.233163273
  0
LINE
  5
269
100
AcDbEntity
  8
0
100
AcDbLine
 62
7
  6
CONTINUOUS
 10
260.9399734655
 20
403.7377655371
 11
260.3358400982
 21
403.1047980225
  0
LINE
  5
26A
100
AcDbEntity
  8
0
100
AcDbLine
 62
7
  6
CONTINUOUS
 10
257.9193066292
 20
400.572927964
 11
257.3151729739
 21
399.9399601475
  0
LINE
  5
26B
100
AcDbEntity
  8
0
100
AcDbLine
 62
7
  6
CONTINUOUS
 10
263.7462561708
 20
397.8337722927
 11
263.3435004006
 21
397.4117937484
  0
LINE
  5
26C
100
AcDbEntity
  8
0
100
AcDbLine
 62
7
  6
CONTINUOUS
 10
263.9899353076
 20
396.7948064812
 11
264.3926910778
 21
397.2167850255
  0
LINE
  5
26D
100
AcDbEntity
  8
0
100
AcDbLine
 62
7
  6
CONTINUOUS
 10
255.1511091007
 20
396.7462067935
 11
254.6347414652
 21
396.2102677363
  0
LINE
  5
26E
100
AcDbEntity
  8
0
100
AcDbLine
 62
7
  6
CONTINUOUS
 10
255.3416841063
 20
395.9344981576
 11
255.7018104098
 21
396.2241484174
  0
LINE
  5
26F
100
AcDbEntity
  8
0
100
AcDbLine
 62
7
  6
CONTINUOUS
 10
265.7611799715
 20
407.4419616117
 11
262.8875129157
 21
405.4439531901
  0
LINE
  5
270
100
AcDbEntity
  8
0
100
AcDbLine
 62
7
  6
CONTINUOUS
 10
264.1160594286
 20
405.209753156
 11
266.2713097204
 21
406.7082594722
  0
LINE
  5
271
100
AcDbEntity
  8
0
100
AcDbLine
 62
7
  6
CONTINUOUS
 10
269.2470670062
 20
402.4283297254
 11
267.0918167144
 21
400.9298234092
  0
LINE
  5
272
100
AcDbEntity
  8
0
100
AcDbLine
 62
7
  6
CONTINUOUS
 10
266.8835297589
 20
399.6966190787
 11
269.7571968147
 21
401.6946275003
  0
LINE
  5
273
100
AcDbEntity
  8
0
100
AcDbLine
 62
7
  6
CONTINUOUS
 10
263.3787518789
 20
396.3701649618
 11
263.9899353076
 21
396.7948064812
  0
LINE
  5
274
100
AcDbEntity
  8
0
100
AcDbLine
 62
7
  6
CONTINUOUS
 10
263.3435004006
 20
397.4117937484
 11
262.833006068
 21
397.0926470069
  0
LINE
  5
275
100
AcDbEntity
  8
0
100
AcDbLine
 62
7
  6
CONTINUOUS
 10
266.4448826897
 20
407.7359299939
 11
265.7611799715
 21
407.4419616117
  0
LINE
  5
276
100
AcDbEntity
  8
0
100
AcDbLine
 62
7
  6
CONTINUOUS
 10
266.2713097204
 20
406.7082594722
 11
266.8352753978
 21
406.9189768683
  0
LINE
  5
277
100
AcDbEntity
  8
BEZUGSACHSEN
100
AcDbLine
 62
7
  6
CONTINUOUS
 10
343.9022044747
 20
287.8938976977
 11
348.3164180371
 21
283.4796841353
  0
LINE
  5
278
100
AcDbEntity
  8
0
100
AcDbLine
 62
7
  6
CONTINUOUS
 10
288.1497510525
 20
323.11798217
 11
287.6497510525
 21
323.7988331527
  0
LINE
  5
279
100
AcDbEntity
  8
0
100
AcDbLine
 62
7
  6
CONTINUOUS
 10
287.1497515293
 20
323.11798217
 11
287.4830850216
 21
322.607343933
  0
LINE
  5
27A
100
AcDbEntity
  8
0
100
AcDbLine
 62
7
  6
CONTINUOUS
 10
291.3164180371
 20
317.8413862199
 11
291.6497510525
 21
317.1605351776
  0
LINE
  5
27B
100
AcDbEntity
  8
0
100
AcDbLine
 62
7
  6
CONTINUOUS
 10
282.8164180371
 20
318.6924500674
 11
283.1497512909
 21
317.8413862199
  0
LINE
  5
27C
100
AcDbEntity
  8
0
100
AcDbLine
 62
7
  6
CONTINUOUS
 10
257.2414606852
 20
395.5928266286
 11
257.3367481879
 21
395.1869723106
  0
LINE
  5
27D
100
AcDbEntity
  8
0
100
AcDbLine
 62
7
  6
CONTINUOUS
 10
264.9756736752
 20
398.4747299311
 11
264.9474728533
 21
399.3080333081
  0
LINE
  5
27E
100
AcDbEntity
  8
0
100
AcDbLine
 62
7
  6
CONTINUOUS
 10
269.8145623436
 20
403.9112851087
 11
269.8301545067
 21
403.3779330196
  0
LINE
  5
27F
100
AcDbEntity
  8
0
100
AcDbLine
 62
7
  6
CONTINUOUS
 10
271.8164180371
 20
376.6236885805
 11
271.8164180371
 21
560.3356796902
  0
LINE
  5
280
100
AcDbEntity
  8
0
100
AcDbLine
 62
7
  6
CONTINUOUS
 10
270.5797570563
 20
402.8107317709
 11
270.7186145798
 21
403.6328676595
  0
LINE
  5
281
100
AcDbEntity
  8
0
100
AcDbLine
 62
7
  6
CONTINUOUS
 10
269.8301545067
 20
403.3779330196
 11
269.6409894339
 21
402.8836145014
  0
LINE
  5
282
100
AcDbEntity
  8
0
100
AcDbLine
 62
7
  6
CONTINUOUS
 10
270.2708562758
 20
402.233163273
 11
270.5797570563
 21
402.8107317709
  0
LINE
  5
283
100
AcDbEntity
  8
0
100
AcDbLine
 62
7
  6
CONTINUOUS
 10
255.8408847932
 20
396.9994357554
 11
255.1511091007
 21
396.7462067935
  0
LINE
  5
284
100
AcDbEntity
  8
0
100
AcDbLine
 62
7
  6
CONTINUOUS
 10
262.7605178032
 20
396.1538488429
 11
263.3787518789
 21
396.3701649618
  0
LINE
  5
285
100
AcDbEntity
  8
0
100
AcDbLine
 62
7
  6
CONTINUOUS
 10
305.2621717047
 20
403.2975484069
 11
306.0497886016
 21
403.5711364218
  0
LINE
  5
286
100
AcDbEntity
  8
0
100
AcDbLine
 62
7
  6
CONTINUOUS
 10
256.9422879873
 20
395.9553191319
 11
257.2414606852
 21
395.5928266286
  0
LINE
  5
287
100
AcDbEntity
  8
0
100
AcDbLine
 62
7
  6
CONTINUOUS
 10
257.8359488749
 20
396.2519099084
 11
257.536776177
 21
396.6144024118
  0
LINE
  5
288
100
AcDbEntity
  8
0
100
AcDbLine
 62
7
  6
CONTINUOUS
 10
288.6497510525
 20
319.5435140342
 11
288.3164180371
 21
320.3945777625
  0
LINE
  5
289
100
AcDbEntity
  8
0
100
AcDbLine
 62
7
  6
CONTINUOUS
 10
258.1046446582
 20
395.5633458474
 11
257.8359488749
 21
396.2519099084
  0
LINE
  5
28A
100
AcDbEntity
  8
0
100
AcDbLine
 62
7
  6
CONTINUOUS
 10
264.9474728533
 20
399.3080333081
 11
264.7178938206
 21
399.9303471472
  0
LINE
  5
28B
100
AcDbEntity
  8
0
100
AcDbLine
 62
7
  6
CONTINUOUS
 10
283.8164180371
 20
318.3520245761
 11
283.6497515293
 21
318.8626628131
  0
LINE
  5
28C
100
AcDbEntity
  8
0
100
AcDbLine
 62
7
  6
CONTINUOUS
 10
287.6497510525
 20
319.8839395255
 11
287.8164180371
 21
319.3733010501
  0
LINE
  5
28D
100
AcDbEntity
  8
0
100
AcDbLine
 62
7
  6
CONTINUOUS
 10
288.3164180371
 20
322.607343933
 11
288.1497510525
 21
323.11798217
  0
LINE
  5
28E
100
AcDbEntity
  8
0
100
AcDbLine
 62
7
  6
CONTINUOUS
 10
292.3164180371
 20
317.6711734742
 11
292.1497510525
 21
318.1818118304
  0
LINE
  5
28F
100
AcDbEntity
  8
0
100
AcDbLine
 62
7
  6
CONTINUOUS
 10
264.0060213147
 20
399.4002108318
 11
264.1278611335
 21
398.8807282639
  0
LINE
  5
290
100
AcDbEntity
  8
0
100
AcDbLine
 62
7
  6
CONTINUOUS
 10
270.7186145798
 20
403.6328676595
 11
270.6180007323
 21
404.2885035242
  0
LINE
  5
291
100
AcDbEntity
  8
0
100
AcDbLine
 62
7
  6
CONTINUOUS
 10
282.6497512909
 20
319.8839395255
 11
282.8164180371
 21
318.6924500674
  0
LINE
  5
292
100
AcDbEntity
  8
0
100
AcDbLine
 62
7
  6
CONTINUOUS
 10
279.3164180371
 20
323.2881949157
 11
279.3164180371
 21
321.9264924735
  0
LINE
  5
293
100
AcDbEntity
  8
0
100
AcDbLine
 62
7
  6
CONTINUOUS
 10
280.3164180371
 20
323.11798217
 11
280.3164180371
 21
316.4796841353
  0
LINE
  5
294
100
AcDbEntity
  8
0
100
AcDbLine
 62
7
  6
CONTINUOUS
 10
281.3164180371
 20
316.4796841353
 11
281.3164180371
 21
324.4796841353
  0
LINE
  5
295
100
AcDbEntity
  8
0
100
AcDbLine
 62
7
  6
CONTINUOUS
 10
282.6497512909
 20
321.0754287452
 11
282.6497512909
 21
319.8839395255
  0
LINE
  5
296
100
AcDbEntity
  8
0
100
AcDbLine
 62
7
  6
CONTINUOUS
 10
283.4830845448
 20
320.7350032538
 11
283.4830845448
 21
321.0754287452
  0
LINE
  5
297
100
AcDbEntity
  8
0
100
AcDbLine
 62
7
  6
CONTINUOUS
 10
283.6497515293
 20
318.8626628131
 11
283.6497515293
 21
319.3733010501
  0
LINE
  5
298
100
AcDbEntity
  8
0
100
AcDbLine
 62
7
  6
CONTINUOUS
 10
287.8164180371
 20
319.3733010501
 11
287.8164180371
 21
318.8626628131
  0
LINE
  5
299
100
AcDbEntity
  8
0
100
AcDbLine
 62
7
  6
CONTINUOUS
 10
288.6497510525
 20
318.6924500674
 11
288.6497510525
 21
319.5435140342
  0
LINE
  5
29A
100
AcDbEntity
  8
0
100
AcDbLine
 62
7
  6
CONTINUOUS
 10
289.9830850216
 20
321.9264924735
 11
289.9830850216
 21
321.2456414908
  0
LINE
  5
29B
100
AcDbEntity
  8
0
100
AcDbLine
 62
7
  6
CONTINUOUS
 10
306.0497886016
 20
403.5711364218
 11
306.4456909342
 21
404.0395804628
  0
LINE
  5
29C
100
AcDbEntity
  8
0
100
AcDbLine
 62
7
  6
CONTINUOUS
 10
305.7286011729
 20
404.5626380616
 11
305.3990323231
 21
404.2275427276
  0
LINE
  5
29D
100
AcDbEntity
  8
BEZUGSACHSEN
100
AcDbLine
 62
7
  6
CONTINUOUS
 10
235.3164180371
 20
331.4796841353
 11
233.3164180371
 21
329.4796841353
  0
LINE
  5
29E
100
AcDbEntity
  8
0
100
AcDbLine
 62
7
  6
CONTINUOUS
 10
261.7908654428
 20
397.0793297436
 11
261.259220378
 21
397.385160357
  0
LINE
  5
29F
100
AcDbEntity
  8
0
100
AcDbLine
 62
7
  6
CONTINUOUS
 10
252.7598463758
 20
393.2548035758
 11
258.6707746967
 21
389.505013397
  0
LINE
  5
2A0
100
AcDbEntity
  8
0
100
AcDbLine
 62
7
  6
CONTINUOUS
 10
259.139498469
 20
390.2438794371
 11
256.498445352
 21
391.9193176259
  0
LINE
  5
2A1
100
AcDbEntity
  8
0
100
AcDbLine
 62
7
  6
CONTINUOUS
 10
255.7438588478
 20
392.3980141874
 11
253.857392235
 21
393.5947558147
  0
LINE
  5
2A2
100
AcDbEntity
  8
0
100
AcDbLine
 62
7
  6
CONTINUOUS
 10
256.5649943829
 20
396.1946676362
 11
256.9422879873
 21
395.9553191319
  0
LINE
  5
2A3
100
AcDbEntity
  8
0
100
AcDbLine
 62
7
  6
CONTINUOUS
 10
257.536776177
 20
396.6144024118
 11
257.0337181552
 21
396.9335336763
  0
LINE
  5
2A4
100
AcDbEntity
  8
0
100
AcDbLine
 62
7
  6
CONTINUOUS
 10
260.6550867227
 20
396.7521925406
 11
261.2944715022
 21
396.3435313316
  0
LINE
  5
2A5
100
AcDbEntity
  8
0
100
AcDbLine
 62
7
  6
CONTINUOUS
 10
257.3151729739
 20
399.9399601475
 11
260.6550867227
 21
396.7521925406
  0
LINE
  5
2A6
100
AcDbEntity
  8
0
100
AcDbLine
 62
7
  6
CONTINUOUS
 10
261.259220378
 20
397.385160357
 11
257.9193066292
 21
400.572927964
  0
LINE
  5
2A7
100
AcDbEntity
  8
0
100
AcDbLine
 62
7
  6
CONTINUOUS
 10
260.3358400982
 20
403.1047980225
 11
263.675753847
 21
399.9170304155
  0
LINE
  5
2A8
100
AcDbEntity
  8
0
100
AcDbLine
 62
7
  6
CONTINUOUS
 10
264.2798872143
 20
400.5499979301
 11
260.9399734655
 21
403.7377655371
  0
LINE
  5
2A9
100
AcDbEntity
  8
BEZUGSACHSEN
100
AcDbLine
 62
7
  6
CONTINUOUS
 10
341.3164180371
 20
331.4796841353
 11
343.3164180371
 21
329.4796841353
  0
LINE
  5
2AA
100
AcDbEntity
  8
0
100
AcDbLine
 62
7
  6
CONTINUOUS
 10
264.7178938206
 20
399.9303471472
 11
264.2798872143
 21
400.5499979301
  0
LINE
  5
2AB
100
AcDbEntity
  8
0
100
AcDbLine
 62
7
  6
CONTINUOUS
 10
262.8875129157
 20
405.4439531901
 11
266.8835297589
 21
399.6966190787
  0
LINE
  5
2AC
100
AcDbEntity
  8
0
100
AcDbLine
 62
7
  6
CONTINUOUS
 10
267.0918167144
 20
400.9298234092
 11
264.1160594286
 21
405.209753156
  0
LINE
  5
2AD
100
AcDbEntity
  8
0
100
AcDbLine
 62
7
  6
CONTINUOUS
 10
268.3188870234
 20
406.3179254218
 11
269.5942115148
 21
404.4836699017
  0
LINE
  5
2AE
100
AcDbEntity
  8
0
100
AcDbLine
 62
7
  6
CONTINUOUS
 10
270.3126282788
 20
404.9831720071
 11
269.0373037873
 21
406.8174275272
  0
LINE
  5
2AF
100
AcDbEntity
  8
0
100
AcDbLine
 62
7
  6
CONTINUOUS
 10
263.675753847
 20
399.9170304155
 11
264.0060213147
 21
399.4002108318
  0
LINE
  5
2B0
100
AcDbEntity
  8
0
100
AcDbLine
 62
7
  6
CONTINUOUS
 10
270.6180007323
 20
404.2885035242
 11
270.3126282788
 21
404.9831720071
  0
LINE
  5
2B1
100
AcDbEntity
  8
0
100
AcDbLine
 62
7
  6
CONTINUOUS
 10
269.5942115148
 20
404.4836699017
 11
269.8145623436
 21
403.9112851087
  0
LINE
  5
2B2
100
AcDbEntity
  8
0
100
AcDbLine
 62
7
  6
CONTINUOUS
 10
291.3164180371
 20
323.2881949157
 11
291.3164180371
 21
321.9264924735
  0
LINE
  5
2B3
100
AcDbEntity
  8
0
100
AcDbLine
 62
7
  6
CONTINUOUS
 10
291.3164180371
 20
321.2456414908
 11
291.3164180371
 21
317.8413862199
  0
LINE
  5
2B4
100
AcDbEntity
  8
0
100
AcDbLine
 62
7
  6
CONTINUOUS
 10
292.1497510525
 20
318.1818118304
 11
292.1497510525
 21
321.2456414908
  0
LINE
  5
2B5
100
AcDbEntity
  8
0
100
AcDbLine
 62
7
  6
CONTINUOUS
 10
292.1497510525
 20
321.9264924735
 11
292.1497510525
 21
323.2881949157
  0
LINE
  5
2B6
100
AcDbEntity
  8
0
100
AcDbLine
 62
7
  6
CONTINUOUS
 10
293.6497510525
 20
316.4796841353
 11
293.6497510525
 21
317.1605351776
  0
LINE
  5
2B7
100
AcDbEntity
  8
0
100
AcDbLine
 62
7
  6
CONTINUOUS
 10
293.9830850216
 20
321.2456414908
 11
293.9830850216
 21
321.9264924735
  0
LINE
  5
2B8
100
AcDbEntity
  8
0
100
AcDbLine
 62
7
  6
CONTINUOUS
 10
282.8164180371
 20
322.2669179648
 11
282.6497512909
 21
321.0754287452
  0
LINE
  5
2B9
100
AcDbEntity
  8
0
100
AcDbLine
 62
7
  6
CONTINUOUS
 10
307.3227022574
 20
408.0946530796
 11
307.254270303
 21
407.6296563591
  0
LINE
  5
2BA
100
AcDbEntity
  8
0
100
AcDbLine
 62
7
  6
CONTINUOUS
 10
283.4830845448
 20
321.0754287452
 11
283.6497515293
 21
322.0967052192
  0
LINE
  5
2BB
100
AcDbEntity
  8
0
100
AcDbLine
 62
7
  6
CONTINUOUS
 10
308.0376935007
 20
407.2399473738
 11
308.2387923279
 21
407.9716413214
  0
LINE
  5
2BC
100
AcDbEntity
  8
0
100
AcDbLine
 62
7
  6
CONTINUOUS
 10
283.6497515293
 20
322.0967052192
 11
283.8164180371
 21
322.607343933
  0
LINE
  5
2BD
100
AcDbEntity
  8
0
100
AcDbLine
 62
7
  6
CONTINUOUS
 10
283.6497515293
 20
319.3733010501
 11
283.8164180371
 21
319.8839395255
  0
LINE
  5
2BE
100
AcDbEntity
  8
0
100
AcDbLine
 62
7
  6
CONTINUOUS
 10
305.4821345787
 20
407.0140823155
 11
305.0841339604
 21
406.2139906344
  0
LINE
  5
2BF
100
AcDbEntity
  8
0
100
AcDbLine
 62
7
  6
CONTINUOUS
 10
306.259268757
 20
405.6294271565
 11
305.7286011729
 21
404.5626380616
  0
LINE
  5
2C0
100
AcDbEntity
  8
0
100
AcDbLine
 62
7
  6
CONTINUOUS
 10
306.4456909342
 20
404.0395804628
 11
307.4406925731
 21
406.0398098522
  0
LINE
  5
2C1
100
AcDbEntity
  8
0
100
AcDbLine
 62
7
  6
CONTINUOUS
 10
261.9268060171
 20
396.143195735
 11
262.7605178032
 21
396.1538488429
  0
LINE
  5
2C2
100
AcDbEntity
  8
0
100
AcDbLine
 62
7
  6
CONTINUOUS
 10
262.3154610317
 20
396.98182572
 11
261.7908654428
 21
397.0793297436
  0
LINE
  5
2C3
100
AcDbEntity
  8
0
100
AcDbLine
 62
7
  6
CONTINUOUS
 10
261.6393586628
 20
394.1844984351
 11
258.0436910525
 21
394.9112030842
  0
LINE
  5
2C4
100
AcDbEntity
  8
0
100
AcDbLine
 62
7
  6
CONTINUOUS
 10
257.8264960031
 20
394.0127713475
 11
261.0925141127
 21
393.3224878201
  0
LINE
  5
2C5
100
AcDbEntity
  8
0
100
AcDbLine
 62
7
  6
CONTINUOUS
 10
256.1095805765
 20
396.3108716944
 11
256.5649943829
 21
396.1946676362
  0
LINE
  5
2C6
100
AcDbEntity
  8
0
100
AcDbLine
 62
7
  6
CONTINUOUS
 10
257.0337181552
 20
396.9335336763
 11
256.5783043489
 21
397.0497377345
  0
LINE
  5
2C7
100
AcDbEntity
  8
0
100
AcDbLine
 62
7
  6
CONTINUOUS
 10
261.2944715022
 20
396.3435313316
 11
261.9268060171
 21
396.143195735
  0
LINE
  5
2C8
100
AcDbEntity
  8
0
100
AcDbLine
 62
7
  6
CONTINUOUS
 10
267.3645270294
 20
406.9241605412
 11
267.8590648535
 21
406.7238101482
  0
LINE
  5
2C9
100
AcDbEntity
  8
0
100
AcDbLine
 62
7
  6
CONTINUOUS
 10
268.4924597544
 20
407.3455962861
 11
267.9129005437
 21
407.6682300264
  0
LINE
  5
2CA
100
AcDbEntity
  8
0
100
AcDbLine
 62
7
  6
CONTINUOUS
 10
267.8590648535
 20
406.7238101482
 11
268.3188870234
 21
406.3179254218
  0
LINE
  5
2CB
100
AcDbEntity
  8
0
100
AcDbLine
 62
7
  6
CONTINUOUS
 10
269.0373037873
 20
406.8174275272
 11
268.4924597544
 21
407.3455962861
  0
LINE
  5
2CC
100
AcDbEntity
  8
0
100
AcDbLine
 62
7
  6
CONTINUOUS
 10
304.8164180371
 20
376.6236885805
 11
304.8164180371
 21
560.3356796902
  0
LINE
  5
2CD
100
AcDbEntity
  8
KONSTRUKTIONSELEMENTE
100
AcDbLine
 62
7
  6
CONTINUOUS
 10
316.0427593031
 20
329.4796841353
 11
316.0427593031
 21
289.4796841353
  0
LINE
  5
2CE
100
AcDbEntity
  8
0
100
AcDbLine
 62
7
  6
CONTINUOUS
 10
316.3164180371
 20
272.9796841353
 11
316.3164180371
 21
191.9796841353
  0
LINE
  5
2CF
100
AcDbEntity
  8
0
100
AcDbLine
 62
7
  6
CONTINUOUS
 10
287.8164180371
 20
318.8626628131
 11
287.6497510525
 21
318.3520245761
  0
LINE
  5
2D0
100
AcDbEntity
  8
0
100
AcDbLine
 62
7
  6
CONTINUOUS
 10
283.1497512909
 20
323.11798217
 11
282.8164180371
 21
322.2669179648
  0
LINE
  5
2D1
100
AcDbEntity
  8
0
100
AcDbLine
 62
7
  6
CONTINUOUS
 10
288.3164180371
 20
317.8413862199
 11
288.6497510525
 21
318.6924500674
  0
LINE
  5
2D2
100
AcDbEntity
  8
BEZUGSACHSEN
100
AcDbLine
 62
7
  6
CONTINUOUS
 10
232.7306315994
 20
287.8938976977
 11
228.3164180371
 21
283.4796841353
  0
LINE
  5
2D3
100
AcDbEntity
  8
0
100
AcDbLine
 62
7
  6
CONTINUOUS
 10
262.833006068
 20
397.0926470069
 11
262.3154610317
 21
396.98182572
  0
LINE
  5
2D4
100
AcDbEntity
  8
0
100
AcDbLine
 62
7
  6
CONTINUOUS
 10
255.7018104098
 20
396.2241484174
 11
256.1095805765
 21
396.3108716944
  0
LINE
  5
2D5
100
AcDbEntity
  8
0
100
AcDbLine
 62
7
  6
CONTINUOUS
 10
305.3990323231
 20
404.2275427276
 11
304.8746538049
 21
404.1556998998
  0
LINE
  5
2D6
100
AcDbEntity
  8
0
100
AcDbLine
 62
7
  6
CONTINUOUS
 10
304.8164180371
 20
409.6566083308
 11
304.8439564787
 21
409.6603812487
  0
LINE
  5
2D7
100
AcDbEntity
  8
0
100
AcDbLine
 62
7
  6
CONTINUOUS
 10
267.0938699919
 20
407.8243637001
 11
266.4448826897
 21
407.7359299939
  0
LINE
  5
2D8
100
AcDbEntity
  8
0
100
AcDbLine
 62
7
  6
CONTINUOUS
 10
256.5783043489
 20
397.0497377345
 11
255.8408847932
 21
396.9994357554
  0
LINE
  5
2D9
100
AcDbEntity
  8
0
100
AcDbLine
 62
7
  6
CONTINUOUS
 10
304.8164180371
 20
403.2928586004
 11
305.2621717047
 21
403.2975484069
  0
LINE
  5
2DA
100
AcDbEntity
  8
0
100
AcDbLine
 62
7
  6
CONTINUOUS
 10
305.1113885564
 20
410.5254234363
 11
304.8164180371
 21
410.5223200459
  0
LINE
  5
2DB
100
AcDbEntity
  8
0
100
AcDbLine
 62
7
  6
CONTINUOUS
 10
266.8352753978
 20
406.9189768683
 11
267.3645270294
 21
406.9241605412
  0
LINE
  5
2DC
100
AcDbEntity
  8
0
100
AcDbLine
 62
7
  6
CONTINUOUS
 10
267.9129005437
 20
407.6682300264
 11
267.0938699919
 21
407.8243637001
  0
LINE
  5
2DD
100
AcDbEntity
  8
0
100
AcDbLine
 62
7
  6
CONTINUOUS
 10
304.8746538049
 20
404.1556998998
 11
304.8164180371
 21
404.1682112217
  0
LINE
  5
2DE
100
AcDbEntity
  8
0
100
AcDbLine
 62
7
  6
CONTINUOUS
 10
305.0841339604
 20
406.2139906344
 11
306.259268757
 21
405.6294271565
  0
LINE
  5
2DF
100
AcDbEntity
  8
0
100
AcDbLine
 62
7
  6
CONTINUOUS
 10
308.2387923279
 20
407.9716413214
 11
307.9818429455
 21
408.7648422611
  0
LINE
  5
2E0
100
AcDbEntity
  8
0
100
AcDbLine
 62
7
  6
CONTINUOUS
 10
283.8164180371
 20
322.607343933
 11
284.1497515293
 21
323.11798217
  0
LINE
  5
2E1
100
AcDbEntity
  8
0
100
AcDbLine
 62
7
  6
CONTINUOUS
 10
287.6497510525
 20
318.3520245761
 11
287.3164180371
 21
317.8413862199
  0
LINE
  5
2E2
100
AcDbEntity
  8
0
100
AcDbLine
 62
7
  6
CONTINUOUS
 10
283.6497515293
 20
323.7988331527
 11
283.1497512909
 21
323.11798217
  0
LINE
  5
2E3
100
AcDbEntity
  8
0
100
AcDbLine
 62
7
  6
CONTINUOUS
 10
287.8164180371
 20
317.1605351776
 11
288.3164180371
 21
317.8413862199
  0
LINE
  5
2E4
100
AcDbEntity
  8
0
100
AcDbLine
 62
7
  6
CONTINUOUS
 10
280.3164180371
 20
324.4796841353
 11
279.3164180371
 21
323.2881949157
  0
LINE
  5
2E5
100
AcDbEntity
  8
0
100
AcDbLine
 62
7
  6
CONTINUOUS
 10
279.3164180371
 20
321.9264924735
 11
280.3164180371
 21
323.11798217
  0
LINE
  5
2E6
100
AcDbEntity
  8
0
100
AcDbLine
 62
7
  6
CONTINUOUS
 10
283.8164180371
 20
319.8839395255
 11
284.1497515293
 21
320.2243650168
  0
LINE
  5
2E7
100
AcDbEntity
  8
0
100
AcDbLine
 62
7
  6
CONTINUOUS
 10
304.8439564787
 20
409.6603812487
 11
305.4325730431
 21
409.5339233765
  0
LINE
  5
2E8
100
AcDbEntity
  8
0
100
AcDbLine
 62
7
  6
CONTINUOUS
 10
305.8305736615
 20
410.3340150576
 11
305.1113885564
 21
410.5254234363
  0
LINE
  5
2E9
100
AcDbEntity
  8
RUNDUNGEN
100
AcDbLine
 62
7
  6
CONTINUOUS
 10
304.8164180371
 20
419.1451603562
 11
322.7898700646
 21
411.7003127637
  0
LINE
  5
2EA
100
AcDbEntity
  8
0
100
AcDbLine
 62
7
  6
CONTINUOUS
 10
307.4406925731
 20
406.0398098522
 11
305.4821345787
 21
407.0140823155
  0
LINE
  5
2EB
100
AcDbEntity
  8
0
100
AcDbLine
 62
7
  6
CONTINUOUS
 10
307.254270303
 20
407.6296563591
 11
308.0376935007
 21
407.2399473738
  0
LINE
  5
2EC
100
AcDbEntity
  8
0
100
AcDbLine
 62
7
  6
CONTINUOUS
 10
305.4325730431
 20
409.5339233765
 11
306.6077078397
 21
408.9493598986
  0
LINE
  5
2ED
100
AcDbEntity
  8
0
100
AcDbLine
 62
7
  6
CONTINUOUS
 10
307.0057084581
 20
409.7494515796
 11
305.8305736615
 21
410.3340150576
  0
LINE
  5
2EE
100
AcDbEntity
  8
0
100
AcDbLine
 62
7
  6
CONTINUOUS
 10
307.5922266903
 20
409.2913459739
 11
307.0057084581
 21
409.7494515796
  0
LINE
  5
2EF
100
AcDbEntity
  8
0
100
AcDbLine
 62
7
  6
CONTINUOUS
 10
306.6077078397
 20
408.9493598986
 11
307.0636575313
 21
408.5562047993
  0
LINE
  5
2F0
100
AcDbEntity
  8
0
100
AcDbLine
 62
7
  6
CONTINUOUS
 10
307.9818429455
 20
408.7648422611
 11
307.5922266903
 21
409.2913459739
  0
LINE
  5
2F1
100
AcDbEntity
  8
0
100
AcDbLine
 62
7
  6
CONTINUOUS
 10
307.0636575313
 20
408.5562047993
 11
307.3227022574
 21
408.0946530796
  0
LINE
  5
2F2
100
AcDbEntity
  8
BEZUGSACHSEN
100
AcDbLine
 62
7
  6
CONTINUOUS
 10
335.8164180371
 20
362.1211612678
 11
335.8164180371
 21
331.4796841353
  0
LINE
  5
2F3
100
AcDbEntity
  8
BEZUGSACHSEN
100
AcDbLine
 62
7
  6
CONTINUOUS
 10
343.3164180371
 20
329.4796841353
 11
343.3164180371
 21
289.3081112601
  0
LINE
  5
2F4
100
AcDbEntity
  8
BEZUGSACHSEN
100
AcDbLine
 62
7
  6
CONTINUOUS
 10
339.3649629775
 20
371.6826684266
 11
333.8521492788
 21
358.3735588284
  0
LINE
  5
2F5
100
AcDbEntity
  8
0
100
AcDbLine
 62
7
  6
CONTINUOUS
 10
284.1497515293
 20
323.11798217
 11
284.6497515293
 21
323.4584076613
  0
LINE
  5
2F6
100
AcDbEntity
  8
0
100
AcDbLine
 62
7
  6
CONTINUOUS
 10
284.4830845448
 20
321.4158542365
 11
283.4830845448
 21
320.7350032538
  0
LINE
  5
2F7
100
AcDbEntity
  8
0
100
AcDbLine
 62
7
  6
CONTINUOUS
 10
284.1497515293
 20
320.2243650168
 11
284.6497515293
 21
320.5647905082
  0
LINE
  5
2F8
100
AcDbEntity
  8
0
100
AcDbLine
 62
7
  6
CONTINUOUS
 10
287.3164180371
 20
317.8413862199
 11
286.8164180371
 21
317.5009607285
  0
LINE
  5
2F9
100
AcDbEntity
  8
0
100
AcDbLine
 62
7
  6
CONTINUOUS
 10
284.4830845448
 20
324.3094713897
 11
283.6497515293
 21
323.7988331527
  0
LINE
  5
2FA
100
AcDbEntity
  8
0
100
AcDbLine
 62
7
  6
CONTINUOUS
 10
286.9830845448
 20
316.6498968959
 11
287.8164180371
 21
317.1605351776
  0
LINE
  5
2FB
100
AcDbEntity
  8
0
100
AcDbLine
 62
7
  6
CONTINUOUS
 10
284.6497515293
 20
323.4584076613
 11
285.1497515293
 21
323.628620407
  0
LINE
  5
2FC
100
AcDbEntity
  8
BEZUGSACHSEN
100
AcDbLine
 62
7
  6
CONTINUOUS
 10
326.0370466654
 20
408.4531361628
 11
339.3653420304
 21
376.2757847295
  0
LINE
  5
2FD
100
AcDbEntity
  8
BEZUGSACHSEN
100
AcDbLine
 62
7
  6
CONTINUOUS
 10
348.3164180371
 20
283.4796841353
 11
348.3164180371
 21
273.4796841353
  0
LINE
  5
2FE
100
AcDbEntity
  8
0
100
AcDbLine
 62
7
  6
CONTINUOUS
 10
284.6497515293
 20
320.5647905082
 11
285.1497515293
 21
320.7350032538
  0
LINE
  5
2FF
100
AcDbEntity
  8
0
100
AcDbLine
 62
7
  6
CONTINUOUS
 10
286.8164180371
 20
317.5009607285
 11
286.3164180371
 21
317.3307479829
  0
LINE
  5
300
100
AcDbEntity
  8
FASEN
100
AcDbLine
 62
7
  6
CONTINUOUS
 10
348.3164180371
 20
273.4796841353
 11
347.8164180371
 21
272.9796841353
  0
LINE
  5
301
100
AcDbEntity
  8
0
100
AcDbLine
 62
7
  6
CONTINUOUS
 10
316.3164180371
 20
191.9796841353
 11
313.3164180371
 21
188.9796841353
  0
LINE
  5
302
100
AcDbEntity
  8
0
100
AcDbLine
 62
7
  6
CONTINUOUS
 10
501.1435789953
 20
188.9796841353
 11
551.1434828126
 21
188.9796841353
  0
LINE
  5
303
100
AcDbEntity
  8
0
100
AcDbLine
 62
7
  6
CONTINUOUS
 10
498.1435309039
 20
191.9796841353
 11
554.1435309039
 21
191.9796841353
  0
LINE
  5
304
100
AcDbEntity
  8
0
100
AcDbLine
 62
7
  6
CONTINUOUS
 10
498.1435309039
 20
191.9796841353
 11
501.1435309039
 21
188.9796841353
  0
LINE
  5
305
100
AcDbEntity
  8
FASEN
100
AcDbLine
 62
7
  6
CONTINUOUS
 10
466.6435309039
 20
272.9796841353
 11
585.6435309039
 21
272.9796841353
  0
LINE
  5
306
100
AcDbEntity
  8
FASEN
100
AcDbLine
 62
7
  6
CONTINUOUS
 10
466.1435309039
 20
273.4796841353
 11
586.1435309039
 21
273.4796841353
  0
LINE
  5
307
100
AcDbEntity
  8
FASEN
100
AcDbLine
 62
7
  6
CONTINUOUS
 10
466.1435309039
 20
273.4796841353
 11
466.6435309039
 21
272.9796841353
  0
LINE
  5
308
100
AcDbEntity
  8
BEZUGSACHSEN
100
AcDbLine
 62
7
  6
CONTINUOUS
 10
466.1435309039
 20
283.4796841353
 11
586.1435309039
 21
283.4796841353
  0
LINE
  5
309
100
AcDbEntity
  8
KONSTRUKTIONSELEMENTE
100
AcDbLine
 62
7
  6
CONTINUOUS
 10
582.1435309039
 20
287.4796841353
 11
575.6435309039
 21
287.4796841353
  0
LINE
  5
30A
100
AcDbEntity
  8
KONSTRUKTIONSELEMENTE
100
AcDbLine
 62
7
  6
CONTINUOUS
 10
476.6435309039
 20
287.4796841353
 11
470.1435309039
 21
287.4796841353
  0
LINE
  5
30B
100
AcDbEntity
  8
0
100
AcDbLine
 62
7
  6
CONTINUOUS
 10
458.1435309039
 20
508.9796841353
 11
458.1435309039
 21
427.9796841353
  0
LINE
  5
30C
100
AcDbEntity
  8
BEZUGSACHSEN
100
AcDbLine
 62
7
  6
CONTINUOUS
 10
466.1435309039
 20
283.4796841353
 11
466.1435309039
 21
273.4796841353
  0
LINE
  5
30D
100
AcDbEntity
  8
KONSTRUKTIONSELEMENTE
100
AcDbLine
 62
7
  6
CONTINUOUS
 10
573.6435309039
 20
329.4796841353
 11
478.6435309039
 21
329.4796841353
  0
LINE
  5
30E
100
AcDbEntity
  8
BEZUGSACHSEN
100
AcDbLine
 62
7
  6
CONTINUOUS
 10
478.6435309039
 20
338.9796841353
 11
478.6435309039
 21
331.4796841353
  0
LINE
  5
30F
100
AcDbEntity
  8
KONSTRUKTIONSELEMENTE
100
AcDbLine
 62
7
  6
CONTINUOUS
 10
478.6435309039
 20
289.4796841353
 11
478.6435309039
 21
331.4796841353
  0
LINE
  5
310
100
AcDbEntity
  8
KONSTRUKTIONSELEMENTE
100
AcDbLine
 62
7
  6
CONTINUOUS
 10
478.6435309039
 20
331.4796841353
 11
573.6435309039
 21
331.4796841353
  0
LINE
  5
311
100
AcDbEntity
  8
0
100
AcDbLine
 62
7
  6
CONTINUOUS
 10
491.1435309039
 20
508.9796841353
 11
491.1435309039
 21
427.9796841353
  0
LINE
  5
312
100
AcDbEntity
  8
0
100
AcDbLine
 62
7
  6
CONTINUOUS
 10
498.1435309039
 20
272.9796841353
 11
498.1435309039
 21
191.9796841353
  0
LINE
  5
313
100
AcDbEntity
  8
BEZUGSACHSEN
100
AcDbLine
 62
7
  6
CONTINUOUS
 10
568.6435309039
 20
343.9796841353
 11
555.5722014242
 21
343.9796841353
  0
LINE
  5
314
100
AcDbEntity
  8
BEZUGSACHSEN
100
AcDbLine
 62
7
  6
CONTINUOUS
 10
496.7144982704
 20
343.9796841353
 11
483.6435309039
 21
343.9796841353
  0
LINE
  5
315
100
AcDbEntity
  8
BEZUGSACHSEN
100
AcDbLine
 62
7
  6
CONTINUOUS
 10
582.1435309039
 20
287.4796841353
 11
586.1435309039
 21
283.4796841353
  0
LINE
  5
316
100
AcDbEntity
  8
0
100
AcDbLine
 62
7
  6
CONTINUOUS
 10
512.1435309039
 20
404.843844903
 11
512.1435309039
 21
414.7937192741
  0
LINE
  5
317
100
AcDbEntity
  8
RUNDUNGEN
100
AcDbLine
 62
7
  6
CONTINUOUS
 10
512.6435309039
 20
420.5677231339
 11
512.6435309039
 21
407.0809151012
  0
LINE
  5
318
100
AcDbEntity
  8
BEZUGSACHSEN
100
AcDbLine
 62
7
  6
CONTINUOUS
 10
512.6435309039
 20
407.0809151012
 11
512.6435309039
 21
386.0720070977
  0
LINE
  5
319
100
AcDbEntity
  8
BEZUGSACHSEN
100
AcDbLine
 62
7
  6
CONTINUOUS
 10
512.0317927745
 20
381.9787788727
 11
501.4961921125
 21
347.5183818601
  0
LWPOLYLINE
  5
31A
100
AcDbEntity
  8
RUNDUNGEN
100
AcDbPolyline
 62
7
  6
CONTINUOUS
 90
12
 70
0
 10
539.6435234805
 20
420.5709713682
 10
539.6279814313
 20
420.9643602517
 10
539.5158060703
 20
421.7096912792
 10
539.2990321583
 20
422.4219717951
 10
538.9850819574
 20
423.0896822795
 10
538.5831717191
 20
423.698283858
 10
538.1016751505
 20
424.239378205
 10
537.5499910459
 20
424.7037862759
 10
536.9400562428
 20
425.0827914793
 10
536.2860115908
 20
425.3683081625
 10
535.5998179489
 20
425.5563632002
 10
534.8933970692
 20
425.6435583135
  0
LINE
  5
31B
100
AcDbEntity
  8
RUNDUNGEN
100
AcDbLine
 62
7
  6
CONTINUOUS
 10
539.6435297667
 20
420.5709478278
 11
539.6435309039
 21
407.0809151012
  0
LINE
  5
31C
100
AcDbEntity
  8
BEZUGSACHSEN
100
AcDbLine
 62
7
  6
CONTINUOUS
 10
539.6435309039
 20
407.0809151012
 11
539.6435309039
 21
386.0719981542
  0
LINE
  5
31D
100
AcDbEntity
  8
0
100
AcDbLine
 62
7
  6
CONTINUOUS
 10
540.6435309039
 20
414.4366601036
 11
540.6435309039
 21
389.505013397
  0
LINE
  5
31E
100
AcDbEntity
  8
0
100
AcDbLine
 62
7
  6
CONTINUOUS
 10
539.6435309039
 20
389.505013397
 11
540.6435309039
 21
389.505013397
  0
LINE
  5
31F
100
AcDbEntity
  8
0
100
AcDbLine
 62
7
  6
CONTINUOUS
 10
539.6435309039
 20
393.2548035758
 11
540.6435309039
 21
393.2548035758
  0
LINE
  5
320
100
AcDbEntity
  8
0
100
AcDbLine
 62
7
  6
CONTINUOUS
 10
539.6435309039
 20
396.2102677363
 11
540.6435309039
 21
396.2102677363
  0
LINE
  5
321
100
AcDbEntity
  8
0
100
AcDbLine
 62
7
  6
CONTINUOUS
 10
539.6435309039
 20
396.7462067935
 11
540.6435309039
 21
396.7462067935
  0
LINE
  5
322
100
AcDbEntity
  8
0
100
AcDbLine
 62
7
  6
CONTINUOUS
 10
539.6435309039
 20
396.9994357554
 11
540.6435309039
 21
396.9994357554
  0
LINE
  5
323
100
AcDbEntity
  8
0
100
AcDbLine
 62
7
  6
CONTINUOUS
 10
539.6435309039
 20
397.0497377345
 11
540.6435309039
 21
397.0497377345
  0
LINE
  5
324
100
AcDbEntity
  8
BEZUGSACHSEN
100
AcDbLine
 62
7
  6
CONTINUOUS
 10
540.2552690334
 20
381.9787788727
 11
550.7908696954
 21
347.5183818601
  0
LINE
  5
325
100
AcDbEntity
  8
0
100
AcDbLine
 62
7
  6
CONTINUOUS
 10
554.1435309039
 20
272.9796841353
 11
554.1435309039
 21
191.9796841353
  0
LINE
  5
326
100
AcDbEntity
  8
BEZUGSACHSEN
100
AcDbLine
 62
7
  6
CONTINUOUS
 10
470.1435309039
 20
287.4796841353
 11
466.1435309039
 21
283.4796841353
  0
LINE
  5
327
100
AcDbEntity
  8
0
100
AcDbLine
 62
7
  6
CONTINUOUS
 10
539.6435309039
 20
399.9399601475
 11
540.6435309039
 21
399.9399601475
  0
LINE
  5
328
100
AcDbEntity
  8
0
100
AcDbLine
 62
7
  6
CONTINUOUS
 10
539.6435309039
 20
400.572927964
 11
540.6435309039
 21
400.572927964
  0
LINE
  5
329
100
AcDbEntity
  8
0
100
AcDbLine
 62
7
  6
CONTINUOUS
 10
539.6435309039
 20
403.1047980225
 11
540.6435309039
 21
403.1047980225
  0
LINE
  5
32A
100
AcDbEntity
  8
0
100
AcDbLine
 62
7
  6
CONTINUOUS
 10
539.6435309039
 20
403.7377655371
 11
540.6435309039
 21
403.7377655371
  0
LINE
  5
32B
100
AcDbEntity
  8
0
100
AcDbLine
 62
7
  6
CONTINUOUS
 10
512.6435309039
 20
404.843844903
 11
512.1435309039
 21
404.843844903
  0
LINE
  5
32C
100
AcDbEntity
  8
0
100
AcDbLine
 62
7
  6
CONTINUOUS
 10
539.6435309039
 20
405.4439531901
 11
540.6435309039
 21
405.4439531901
  0
LINE
  5
32D
100
AcDbEntity
  8
0
100
AcDbLine
 62
7
  6
CONTINUOUS
 10
512.6435309039
 20
406.3546804734
 11
512.1435309039
 21
406.3546804734
  0
LINE
  5
32E
100
AcDbEntity
  8
0
100
AcDbLine
 62
7
  6
CONTINUOUS
 10
539.6435309039
 20
407.4419616117
 11
540.6435309039
 21
407.4419616117
  0
LINE
  5
32F
100
AcDbEntity
  8
0
100
AcDbLine
 62
7
  6
CONTINUOUS
 10
539.6435309039
 20
407.7359299939
 11
540.6435309039
 21
407.7359299939
  0
LINE
  5
330
100
AcDbEntity
  8
0
100
AcDbLine
 62
7
  6
CONTINUOUS
 10
539.6435309039
 20
407.8243637001
 11
540.6435309039
 21
407.8243637001
  0
LINE
  5
331
100
AcDbEntity
  8
0
100
AcDbLine
 62
7
  6
CONTINUOUS
 10
512.6435309039
 20
409.0687820885
 11
512.1435309039
 21
409.0687820885
  0
LINE
  5
332
100
AcDbEntity
  8
0
100
AcDbLine
 62
7
  6
CONTINUOUS
 10
512.6435309039
 20
410.5796176589
 11
512.1435309039
 21
410.5796176589
  0
LINE
  5
333
100
AcDbEntity
  8
0
100
AcDbLine
 62
7
  6
CONTINUOUS
 10
561.1435309039
 20
427.9796841353
 11
561.1435309039
 21
508.9796841353
  0
LINE
  5
334
100
AcDbEntity
  8
0
100
AcDbLine
 62
7
  6
CONTINUOUS
 10
539.6435309039
 20
413.0760807476
 11
540.6435309039
 21
413.0760807476
  0
LINE
  5
335
100
AcDbEntity
  8
0
100
AcDbLine
 62
7
  6
CONTINUOUS
 10
539.6435309039
 20
413.239409063
 11
540.6435309039
 21
413.239409063
  0
LINE
  5
336
100
AcDbEntity
  8
0
100
AcDbLine
 62
7
  6
CONTINUOUS
 10
512.6435309039
 20
413.2828837037
 11
512.1435309039
 21
413.2828837037
  0
LINE
  5
337
100
AcDbEntity
  8
0
100
AcDbLine
 62
7
  6
CONTINUOUS
 10
539.6435309039
 20
414.0016080754
 11
540.6435309039
 21
414.0016080754
  0
LINE
  5
338
100
AcDbEntity
  8
0
100
AcDbLine
 62
7
  6
CONTINUOUS
 10
539.6435309039
 20
414.1649363907
 11
540.6435309039
 21
414.1649363907
  0
LINE
  5
339
100
AcDbEntity
  8
0
100
AcDbLine
 62
7
  6
CONTINUOUS
 10
539.6435309039
 20
414.4366601036
 11
540.6435309039
 21
414.4366601036
  0
LINE
  5
33A
100
AcDbEntity
  8
0
100
AcDbLine
 62
7
  6
CONTINUOUS
 10
512.6435309039
 20
414.7937192741
 11
512.1435309039
 21
414.7937192741
  0
LINE
  5
33B
100
AcDbEntity
  8
RUNDUNGEN
100
AcDbLine
 62
7
  6
CONTINUOUS
 10
517.6435309039
 20
425.6501153342
 11
534.6435307808
 21
425.6501153342
  0
LINE
  5
33C
100
AcDbEntity
  8
KONSTRUKTIONSELEMENTE
100
AcDbLine
 62
7
  6
CONTINUOUS
 10
573.6435309039
 20
331.4796841353
 11
573.6435309039
 21
289.4796841353
  0
LINE
  5
33D
100
AcDbEntity
  8
BEZUGSACHSEN
100
AcDbLine
 62
7
  6
CONTINUOUS
 10
573.6435309039
 20
331.4796841353
 11
573.6435309039
 21
338.9796841353
  0
LWPOLYLINE
  5
33E
100
AcDbEntity
  8
RUNDUNGEN
100
AcDbPolyline
 62
7
  6
CONTINUOUS
 90
13
 70
0
 10
517.6435309598
 20
425.6499660296
 10
517.3559352016
 20
425.641493027
 10
516.6503368741
 20
425.5489258891
 10
515.9658698428
 20
425.3557293593
 10
515.3143429496
 20
425.0654800233
 10
514.7076461844
 20
424.682262007
 10
514.1597709312
 20
424.2142837907
 10
513.6825227602
 20
423.6702936172
 10
513.2851148545
 20
423.059411432
 10
512.9758247514
 20
422.3899815837
 10
512.7638849964
 20
421.6766358423
 10
512.6565930617
 20
420.9306073404
 10
512.643538543
 20
420.5710673384
  0
LINE
  5
33F
100
AcDbEntity
  8
RUNDUNGEN
100
AcDbLine
 62
7
  6
CONTINUOUS
 10
534.8933970692
 20
425.6435583135
 11
534.6435307418
 21
425.6499660419
  0
LINE
  5
340
100
AcDbEntity
  8
BEZUGSACHSEN
100
AcDbLine
 62
7
  6
CONTINUOUS
 10
586.1435309039
 20
283.4796841353
 11
586.1435309039
 21
273.4796841353
  0
LINE
  5
341
100
AcDbEntity
  8
0
100
AcDbLine
 62
7
  6
CONTINUOUS
 10
594.1435309039
 20
427.9796841353
 11
594.1435309039
 21
508.9796841353
  0
LINE
  5
342
100
AcDbEntity
  8
FASEN
100
AcDbLine
 62
7
  6
CONTINUOUS
 10
586.1435309039
 20
273.4796841353
 11
585.6435309039
 21
272.9796841353
  0
LINE
  5
343
100
AcDbEntity
  8
0
100
AcDbLine
 62
7
  6
CONTINUOUS
 10
554.1435309039
 20
191.9796841353
 11
551.1435309039
 21
188.9796841353
  0
LWPOLYLINE
  5
344
100
AcDbEntity
  8
BEZUGSACHSEN
100
AcDbPolyline
 62
7
  6
CONTINUOUS
 90
7
 70
0
 10
236.8105891769
 20
76.7458886828
 10
236.8404553945
 20
76.1948905818
 10
236.9861990788
 20
75.4196749867
 10
237.2512028964
 20
74.6727872933
 10
237.6314897795
 20
73.9708273681
 10
238.1211071741
 20
73.3298987021
 10
238.713821542
 20
72.7640177475
  0
LINE
  5
345
100
AcDbEntity
  8
BEZUGSACHSEN
100
AcDbLine
 62
7
  6
CONTINUOUS
 10
236.8107734732
 20
99.402933783
 11
236.8107712391
 21
99.403192324
  0
LINE
  5
346
100
AcDbEntity
  8
BEZUGSACHSEN
100
AcDbLine
 62
7
  6
CONTINUOUS
 10
236.8107712388
 20
76.7456004829
 11
236.8107712388
 21
99.4032013576
  0
LINE
  5
347
100
AcDbEntity
  8
BEZUGSACHSEN
100
AcDbLine
 62
7
  6
CONTINUOUS
 10
236.8107735989
 20
76.7458753175
 11
236.8107712391
 21
76.7456095164
  0
LINE
  5
348
100
AcDbEntity
  8
BEZUGSACHSEN
100
AcDbLine
 62
7
  6
CONTINUOUS
 10
245.872098729
 20
109.398799311
 11
245.871091724
 21
109.3967959646
  0
LWPOLYLINE
  5
349
100
AcDbEntity
  8
BEZUGSACHSEN
100
AcDbPolyline
 62
7
  6
CONTINUOUS
 90
7
 70
0
 10
245.8721060222
 20
109.3987925482
 10
245.6667506277
 20
109.0187547631
 10
245.4207835192
 20
108.6322409487
 10
245.181046605
 20
108.3172025488
 10
244.9319824878
 20
108.0433192635
 10
244.6499010474
 20
107.7844832042
 10
244.4261507539
 20
107.6089232142
  0
LWPOLYLINE
  5
34A
100
AcDbEntity
  8
BEZUGSACHSEN
100
AcDbPolyline
 62
7
  6
CONTINUOUS
 90
7
 70
0
 10
238.7099471084
 20
103.3816178806
 10
238.1144594666
 20
102.811463178
 10
237.6234608936
 20
102.1655251824
 10
237.2432781856
 20
101.4581075929
 10
236.9799254649
 20
100.7056277901
 10
236.8373942367
 20
99.9250041889
 10
236.8105890562
 20
99.4029202826
  0
LINE
  5
34B
100
AcDbEntity
  8
BEZUGSACHSEN
100
AcDbLine
 62
7
  6
CONTINUOUS
 10
238.8876773278
 20
103.5207412684
 11
238.7099471084
 21
103.3816178806
  0
LINE
  5
34C
100
AcDbEntity
  8
BEZUGSACHSEN
100
AcDbLine
 62
7
  6
CONTINUOUS
 10
244.4306229956
 20
107.6122527389
 11
238.9176200151
 21
103.5431098831
  0
LINE
  5
34D
100
AcDbEntity
  8
KONSTRUKTIONSELEMENTE
100
AcDbLine
 62
7
  6
CONTINUOUS
 10
316.0427593031
 20
40.5744009202
 11
304.8164180371
 21
40.5744009202
  0
LINE
  5
34E
100
AcDbEntity
  8
KONSTRUKTIONSELEMENTE
100
AcDbLine
 62
7
  6
CONTINUOUS
 10
271.8164180371
 20
40.5744009202
 11
260.590076771
 21
40.5744009202
  0
LINE
  5
34F
100
AcDbEntity
  8
BEZUGSACHSEN
100
AcDbLine
 62
7
  6
CONTINUOUS
 10
238.9176200151
 20
72.6056919574
 11
244.4306226629
 21
68.5365493471
  0
LINE
  5
350
100
AcDbEntity
  8
BEZUGSACHSEN
100
AcDbLine
 62
7
  6
CONTINUOUS
 10
238.713821542
 20
72.7640177475
 11
238.8880597944
 21
72.627772674
  0
LWPOLYLINE
  5
351
100
AcDbEntity
  8
BEZUGSACHSEN
100
AcDbPolyline
 62
7
  6
CONTINUOUS
 90
7
 70
0
 10
244.426141535
 20
68.5398854511
 10
244.6500398488
 20
68.3642025296
 10
244.9322961208
 20
68.1051670669
 10
245.1816556469
 20
67.8308674327
 10
245.4214437318
 20
67.5156137888
 10
245.6671158501
 20
67.1294196841
 10
245.8720881425
 20
66.7500448406
  0
LINE
  5
352
100
AcDbEntity
  8
BEZUGSACHSEN
100
AcDbLine
 62
7
  6
CONTINUOUS
 10
245.8720808493
 20
66.7500380777
 11
245.871091724
 21
66.7520058758
  0
LINE
  5
353
100
AcDbEntity
  8
0
100
AcDbLine
 62
7
  6
CONTINUOUS
 10
252.7598463758
 20
74.5744009202
 11
252.7598463758
 21
73.5744009202
  0
LINE
  5
354
100
AcDbEntity
  8
0
100
AcDbLine
 62
7
  6
CONTINUOUS
 10
254.6347414652
 20
74.5744009202
 11
254.6347414652
 21
73.5744009202
  0
LINE
  5
355
100
AcDbEntity
  8
0
100
AcDbLine
 62
7
  6
CONTINUOUS
 10
255.1511091007
 20
74.5744009202
 11
255.1511091007
 21
73.5744009202
  0
LINE
  5
356
100
AcDbEntity
  8
0
100
AcDbLine
 62
7
  6
CONTINUOUS
 10
255.8408847932
 20
74.5744009202
 11
255.8408847932
 21
73.5744009202
  0
LINE
  5
357
100
AcDbEntity
  8
0
100
AcDbLine
 62
7
  6
CONTINUOUS
 10
256.5783043489
 20
74.5744009202
 11
256.5783043489
 21
73.5744009202
  0
LINE
  5
358
100
AcDbEntity
  8
0
100
AcDbLine
 62
7
  6
CONTINUOUS
 10
257.0337181552
 20
74.5744009202
 11
257.0337181552
 21
73.5744009202
  0
LINE
  5
359
100
AcDbEntity
  8
0
100
AcDbLine
 62
7
  6
CONTINUOUS
 10
257.3151729739
 20
74.5744009202
 11
257.3151729739
 21
73.5744009202
  0
LINE
  5
35A
100
AcDbEntity
  8
0
100
AcDbLine
 62
7
  6
CONTINUOUS
 10
257.9193066292
 20
74.5744009202
 11
257.9193066292
 21
73.5744009202
  0
LINE
  5
35B
100
AcDbEntity
  8
0
100
AcDbLine
 62
7
  6
CONTINUOUS
 10
260.3358400982
 20
74.5744009202
 11
260.3358400982
 21
73.5744009202
  0
LINE
  5
35C
100
AcDbEntity
  8
0
100
AcDbLine
 62
7
  6
CONTINUOUS
 10
260.9399734655
 20
74.5744009202
 11
260.9399734655
 21
73.5744009202
  0
LINE
  5
35D
100
AcDbEntity
  8
0
100
AcDbLine
 62
7
  6
CONTINUOUS
 10
262.8875129157
 20
74.5744009202
 11
262.8875129157
 21
73.5744009202
  0
LINE
  5
35E
100
AcDbEntity
  8
0
100
AcDbLine
 62
7
  6
CONTINUOUS
 10
265.7611799715
 20
74.5744009202
 11
265.7611799715
 21
73.5744009202
  0
LINE
  5
35F
100
AcDbEntity
  8
0
100
AcDbLine
 62
7
  6
CONTINUOUS
 10
266.4448826897
 20
74.5744009202
 11
266.4448826897
 21
73.5744009202
  0
LINE
  5
360
100
AcDbEntity
  8
0
100
AcDbLine
 62
7
  6
CONTINUOUS
 10
267.0938699919
 20
74.5744009202
 11
267.0938699919
 21
73.5744009202
  0
LINE
  5
361
100
AcDbEntity
  8
0
100
AcDbLine
 62
7
  6
CONTINUOUS
 10
267.9129005437
 20
74.5744009202
 11
267.9129005437
 21
73.5744009202
  0
LINE
  5
362
100
AcDbEntity
  8
0
100
AcDbLine
 62
7
  6
CONTINUOUS
 10
268.4924597544
 20
74.5744009202
 11
268.4924597544
 21
73.5744009202
  0
LINE
  5
363
100
AcDbEntity
  8
0
100
AcDbLine
 62
7
  6
CONTINUOUS
 10
269.0373037873
 20
74.5744009202
 11
269.0373037873
 21
73.5744009202
  0
LINE
  5
364
100
AcDbEntity
  8
0
100
AcDbLine
 62
7
  6
CONTINUOUS
 10
270.3126282788
 20
74.5744009202
 11
270.3126282788
 21
73.5744009202
  0
LINE
  5
365
100
AcDbEntity
  8
0
100
AcDbLine
 62
7
  6
CONTINUOUS
 10
270.6180007323
 20
74.5744009202
 11
270.6180007323
 21
73.5744009202
  0
LINE
  5
366
100
AcDbEntity
  8
0
100
AcDbLine
 62
7
  6
CONTINUOUS
 10
270.7186145798
 20
74.5744009202
 11
270.7186145798
 21
73.5744009202
  0
LINE
  5
367
100
AcDbEntity
  8
0
100
AcDbLine
 62
7
  6
CONTINUOUS
 10
271.8164180371
 20
36.5744009202
 11
271.8164180371
 21
139.5744009202
  0
LINE
  5
368
100
AcDbEntity
  8
0
100
AcDbLine
 62
7
  6
CONTINUOUS
 10
308.2387923279
 20
73.5744009202
 11
304.8164180371
 21
73.5744009202
  0
LINE
  5
369
100
AcDbEntity
  8
0
100
AcDbLine
 62
7
  6
CONTINUOUS
 10
270.7186145798
 20
73.5744009202
 11
252.7598463758
 21
73.5744009202
  0
LINE
  5
36A
100
AcDbEntity
  8
RUNDUNGEN
100
AcDbLine
 62
7
  6
CONTINUOUS
 10
271.8164180371
 20
74.5744009202
 11
255.7563831714
 21
74.5744009202
  0
LINE
  5
36B
100
AcDbEntity
  8
BEZUGSACHSEN
100
AcDbLine
 62
7
  6
CONTINUOUS
 10
255.7563831714
 20
74.5744009202
 11
246.7371795056
 21
74.5744009202
  0
LINE
  5
36C
100
AcDbEntity
  8
RUNDUNGEN
100
AcDbLine
 62
7
  6
CONTINUOUS
 10
304.8164180371
 20
74.5744009202
 11
320.8764529027
 21
74.5744009202
  0
LINE
  5
36D
100
AcDbEntity
  8
BEZUGSACHSEN
100
AcDbLine
 62
7
  6
CONTINUOUS
 10
320.8764529027
 20
74.5744009202
 11
329.8956565685
 21
74.5744009202
  0
LINE
  5
36E
100
AcDbEntity
  8
0
100
AcDbLine
 62
7
  6
CONTINUOUS
 10
304.8164180371
 20
36.5744009202
 11
304.8164180371
 21
139.5744009202
  0
LINE
  5
36F
100
AcDbEntity
  8
0
100
AcDbLine
 62
7
  6
CONTINUOUS
 10
305.1113885564
 20
74.5744009202
 11
305.1113885564
 21
73.5744009202
  0
LINE
  5
370
100
AcDbEntity
  8
0
100
AcDbLine
 62
7
  6
CONTINUOUS
 10
305.8305736615
 20
74.5744009202
 11
305.8305736615
 21
73.5744009202
  0
LINE
  5
371
100
AcDbEntity
  8
0
100
AcDbLine
 62
7
  6
CONTINUOUS
 10
307.0057084581
 20
74.5744009202
 11
307.0057084581
 21
73.5744009202
  0
LINE
  5
372
100
AcDbEntity
  8
RUNDUNGEN
100
AcDbLine
 62
7
  6
CONTINUOUS
 10
271.8164180371
 20
101.5744009202
 11
255.7563831714
 21
101.5744009202
  0
LINE
  5
373
100
AcDbEntity
  8
BEZUGSACHSEN
100
AcDbLine
 62
7
  6
CONTINUOUS
 10
255.7563831714
 20
101.5744009202
 11
246.7371832101
 21
101.5744009202
  0
LINE
  5
374
100
AcDbEntity
  8
RUNDUNGEN
100
AcDbLine
 62
7
  6
CONTINUOUS
 10
304.8164180371
 20
101.5744009202
 11
329.895652864
 21
101.5744009202
  0
LINE
  5
375
100
AcDbEntity
  8
0
100
AcDbLine
 62
7
  6
CONTINUOUS
 10
307.5922266903
 20
74.5744009202
 11
307.5922266903
 21
73.5744009202
  0
LINE
  5
376
100
AcDbEntity
  8
0
100
AcDbLine
 62
7
  6
CONTINUOUS
 10
307.9818429455
 20
74.5744009202
 11
307.9818429455
 21
73.5744009202
  0
LINE
  5
377
100
AcDbEntity
  8
0
100
AcDbLine
 62
7
  6
CONTINUOUS
 10
308.2387923279
 20
74.5744009202
 11
308.2387923279
 21
73.5744009202
  0
LINE
  5
378
100
AcDbEntity
  8
BEZUGSACHSEN
100
AcDbLine
 62
7
  6
CONTINUOUS
 10
337.7451587463
 20
72.6280605721
 11
337.9228889658
 21
72.7671839598
  0
LINE
  5
379
100
AcDbEntity
  8
BEZUGSACHSEN
100
AcDbLine
 62
7
  6
CONTINUOUS
 10
332.2022130785
 20
68.5365491015
 11
337.715216059
 21
72.6056919574
  0
LINE
  5
37A
100
AcDbEntity
  8
RUNDUNGEN
100
AcDbLine
 62
7
  6
CONTINUOUS
 10
337.715216059
 20
103.5431098831
 11
332.2022134112
 21
107.6122524933
  0
LINE
  5
37B
100
AcDbEntity
  8
RUNDUNGEN
100
AcDbLine
 62
7
  6
CONTINUOUS
 10
337.9190145321
 20
103.3847840929
 11
337.7447762797
 21
103.5210291664
  0
LWPOLYLINE
  5
37C
100
AcDbEntity
  8
RUNDUNGEN
100
AcDbPolyline
 62
7
  6
CONTINUOUS
 90
7
 70
0
 10
332.2066945391
 20
107.6089163893
 10
331.9827962254
 20
107.7845993109
 10
331.7005399534
 20
108.0436347735
 10
331.4511804272
 20
108.3179344077
 10
331.2113923423
 20
108.6331880516
 10
330.965720224
 20
109.0193821564
 10
330.7607479316
 20
109.3987569999
  0
LINE
  5
37D
100
AcDbEntity
  8
BEZUGSACHSEN
100
AcDbLine
 62
7
  6
CONTINUOUS
 10
330.7607373452
 20
66.7500025294
 11
330.7617443501
 21
66.7520058758
  0
LWPOLYLINE
  5
37E
100
AcDbEntity
  8
BEZUGSACHSEN
100
AcDbPolyline
 62
7
  6
CONTINUOUS
 90
7
 70
0
 10
330.760730052
 20
66.7500092923
 10
330.9660854464
 20
67.1300470773
 10
331.2120525549
 20
67.5165608917
 10
331.4517894691
 20
67.8315992916
 10
331.7008535864
 20
68.1054825769
 10
331.9829350267
 20
68.3643186363
 10
332.2066853202
 20
68.5398786262
  0
LWPOLYLINE
  5
37F
100
AcDbEntity
  8
BEZUGSACHSEN
100
AcDbPolyline
 62
7
  6
CONTINUOUS
 90
7
 70
0
 10
337.9228889658
 20
72.7671839598
 10
338.5183766075
 20
73.3373386624
 10
339.0093751805
 20
73.983276658
 10
339.3895578885
 20
74.6906942476
 10
339.6529106092
 20
75.4431740504
 10
339.7954418374
 20
76.2237976515
 10
339.8222470179
 20
76.7458815579
  0
LINE
  5
380
100
AcDbEntity
  8
KONSTRUKTIONSELEMENTE
100
AcDbLine
 62
7
  6
CONTINUOUS
 10
260.590076771
 20
135.5744009202
 11
271.8164180371
 21
135.5744009202
  0
LINE
  5
381
100
AcDbEntity
  8
KONSTRUKTIONSELEMENTE
100
AcDbLine
 62
7
  6
CONTINUOUS
 10
304.8164180371
 20
135.5744009202
 11
316.0427593031
 21
135.5744009202
  0
LINE
  5
382
100
AcDbEntity
  8
RUNDUNGEN
100
AcDbLine
 62
7
  6
CONTINUOUS
 10
330.7607552249
 20
109.3987637628
 11
330.7617443501
 21
109.3967959646
  0
LWPOLYLINE
  5
383
100
AcDbEntity
  8
RUNDUNGEN
100
AcDbPolyline
 62
7
  6
CONTINUOUS
 90
7
 70
0
 10
339.8222468972
 20
99.4029131576
 10
339.7923806796
 20
99.9539112586
 10
339.6466369953
 20
100.7291268537
 10
339.3816331777
 20
101.4760145471
 10
339.0013462947
 20
102.1779744723
 10
338.5117289
 20
102.8189031384
 10
337.9190145321
 20
103.3847840929
  0
LINE
  5
384
100
AcDbEntity
  8
BEZUGSACHSEN
100
AcDbLine
 62
7
  6
CONTINUOUS
 10
339.8220626009
 20
76.7458680575
 11
339.822064835
 21
76.7456095164
  0
LINE
  5
385
100
AcDbEntity
  8
BEZUGSACHSEN
100
AcDbLine
 62
7
  6
CONTINUOUS
 10
339.8220648353
 20
99.4032013576
 11
339.8220648353
 21
76.7456004829
  0
LINE
  5
386
100
AcDbEntity
  8
RUNDUNGEN
100
AcDbLine
 62
7
  6
CONTINUOUS
 10
339.8220624752
 20
99.402926523
 11
339.822064835
 21
99.403192324
  0
ARC
  5
387
100
AcDbEntity
  8
KONSTRUKTIONSELEMENTE
100
AcDbCircle
 62
7
  6
CONTINUOUS
 10
273.4659163892
 20
245.1770143261
 40
94.4443099899
100
AcDbArc
 50
63.2040611522
 51
66.0350743256
  0
ARC
  5
388
100
AcDbEntity
  8
BEZUGSACHSEN
100
AcDbCircle
 62
7
  6
CONTINUOUS
 10
242.8107712388
 20
373.9796841353
 40
6.0
100
AcDbArc
 50
157.5
 51
202.5094585106
  0
ARC
  5
389
100
AcDbEntity
  8
BEZUGSACHSEN
100
AcDbCircle
 62
7
  6
CONTINUOUS
 10
235.8165765847
 20
362.1207784999
 40
4.9999849002
100
AcDbArc
 50
0.0043863354
 51
22.5047475465
  0
ARC
  5
38A
100
AcDbEntity
  8
KONSTRUKTIONSELEMENTE
100
AcDbCircle
 62
7
  6
CONTINUOUS
 10
231.3164180371
 20
289.3081112601
 40
2.0
100
AcDbArc
 50
315.0
 51
360.0
  0
ARC
  5
38B
100
AcDbEntity
  8
KONSTRUKTIONSELEMENTE
100
AcDbCircle
 62
7
  6
CONTINUOUS
 10
261.7666762388
 20
289.4800792126
 40
1.1765995341
100
AcDbArc
 50
180.0192387117
 51
188.4042691913
  0
ARC
  5
38C
100
AcDbEntity
  8
BEZUGSACHSEN
100
AcDbCircle
 62
7
  6
CONTINUOUS
 10
256.1390666037
 20
406.1570355687
 40
6.0
100
AcDbArc
 50
112.5
 51
157.5
  0
ARC
  5
38D
100
AcDbEntity
  8
KONSTRUKTIONSELEMENTE
100
AcDbCircle
 62
7
  6
CONTINUOUS
 10
303.1669196849
 20
245.1770143262
 40
94.4443099899
100
AcDbArc
 50
113.9649256744
 51
116.7959388478
  0
ARC
  5
38E
100
AcDbEntity
  8
BEZUGSACHSEN
100
AcDbCircle
 62
7
  6
CONTINUOUS
 10
288.3164180371
 20
371.4796841353
 40
21.5
100
AcDbArc
 50
140.1940459128
 51
39.8059540872
  0
ARC
  5
38F
100
AcDbEntity
  8
0
100
AcDbCircle
 62
7
  6
CONTINUOUS
 10
288.3164180371
 20
376.4796841353
 40
16.5
100
AcDbArc
 50
180.0
 51
360.0
  0
ARC
  5
390
100
AcDbEntity
  8
BEZUGSACHSEN
100
AcDbCircle
 62
7
  6
CONTINUOUS
 10
333.8220648353
 20
373.9796841353
 40
6.0
100
AcDbArc
 50
337.4905414894
 51
22.5
  0
ARC
  5
391
100
AcDbEntity
  8
BEZUGSACHSEN
100
AcDbCircle
 62
7
  6
CONTINUOUS
 10
340.8162594894
 20
362.1207784999
 40
4.9999849002
100
AcDbArc
 50
157.4952524539
 51
179.9956136649
  0
ARC
  5
392
100
AcDbEntity
  8
KONSTRUKTIONSELEMENTE
100
AcDbCircle
 62
7
  6
CONTINUOUS
 10
345.3164180371
 20
289.3081112601
 40
2.0
100
AcDbArc
 50
180.0
 51
225.0
  0
ARC
  5
393
100
AcDbEntity
  8
KONSTRUKTIONSELEMENTE
100
AcDbCircle
 62
7
  6
CONTINUOUS
 10
314.8661598353
 20
289.4800792126
 40
1.1765995341
100
AcDbArc
 50
351.5957308088
 51
359.9807612883
  0
ARC
  5
394
100
AcDbEntity
  8
0
100
AcDbCircle
 62
7
  6
CONTINUOUS
 10
288.3164180371
 20
560.4796841353
 40
16.5
100
AcDbArc
 50
0.0
 51
180.0
  0
ARC
  5
395
100
AcDbEntity
  8
BEZUGSACHSEN
100
AcDbCircle
 62
7
  6
CONTINUOUS
 10
320.4937694704
 20
406.1570355687
 40
6.0
100
AcDbArc
 50
22.5
 51
67.5
  0
ARC
  5
396
100
AcDbEntity
  8
BEZUGSACHSEN
100
AcDbCircle
 62
7
  6
CONTINUOUS
 10
498.6435309039
 20
386.0719981542
 40
14.0
100
AcDbArc
 50
342.9999340288
 51
0.0000366016
  0
ARC
  5
397
100
AcDbEntity
  8
RUNDUNGEN
100
AcDbCircle
 62
7
  6
CONTINUOUS
 10
496.7144982704
 20
348.9796841353
 40
5.0
100
AcDbArc
 50
270.0000692675
 51
325.7980851779
  0
ARC
  5
398
100
AcDbEntity
  8
BEZUGSACHSEN
100
AcDbCircle
 62
7
  6
CONTINUOUS
 10
496.7144982704
 20
348.9796841353
 40
5.0
100
AcDbArc
 50
270.0041495643
 51
343.0066654174
  0
ARC
  5
399
100
AcDbEntity
  8
BEZUGSACHSEN
100
AcDbCircle
 62
7
  6
CONTINUOUS
 10
483.6435309039
 20
338.9796841353
 40
5.0
100
AcDbArc
 50
90.0
 51
180.0
  0
ARC
  5
39A
100
AcDbEntity
  8
KONSTRUKTIONSELEMENTE
100
AcDbCircle
 62
7
  6
CONTINUOUS
 10
476.6435309039
 20
289.4796841353
 40
2.0
100
AcDbArc
 50
270.0
 51
360.0
  0
ARC
  5
39B
100
AcDbEntity
  8
BEZUGSACHSEN
100
AcDbCircle
 62
7
  6
CONTINUOUS
 10
553.6435309039
 20
386.0719981542
 40
14.0
100
AcDbArc
 50
179.9999633984
 51
197.0000659712
  0
ARC
  5
39C
100
AcDbEntity
  8
BEZUGSACHSEN
100
AcDbCircle
 62
7
  6
CONTINUOUS
 10
568.6435309039
 20
338.9796841353
 40
5.0
100
AcDbArc
 50
0.0
 51
90.0
  0
ARC
  5
39D
100
AcDbEntity
  8
BEZUGSACHSEN
100
AcDbCircle
 62
7
  6
CONTINUOUS
 10
555.5725635374
 20
348.9796841353
 40
5.0
100
AcDbArc
 50
196.9933345826
 51
269.9958504357
  0
ARC
  5
39E
100
AcDbEntity
  8
KONSTRUKTIONSELEMENTE
100
AcDbCircle
 62
7
  6
CONTINUOUS
 10
575.6435309039
 20
289.4796841353
 40
2.0
100
AcDbArc
 50
180.0
 51
270.0
  0
ARC
  5
39F
100
AcDbEntity
  8
0
100
AcDbCircle
 62
7
  6
CONTINUOUS
 10
526.1435309039
 20
508.9796841353
 40
68.0
100
AcDbArc
 50
0.0
 51
180.0
  0
ARC
  5
3A0
100
AcDbEntity
  8
0
100
AcDbCircle
 62
7
  6
CONTINUOUS
 10
526.1435309039
 20
427.9796841353
 40
68.0
100
AcDbArc
 50
180.0
 51
252.9611094927
  0
ARC
  5
3A1
100
AcDbEntity
  8
0
100
AcDbCircle
 62
7
  6
CONTINUOUS
 10
526.1435309039
 20
427.9796841353
 40
68.0
100
AcDbArc
 50
287.0388905073
 51
360.0
  0
ARC
  5
3A2
100
AcDbEntity
  8
0
100
AcDbCircle
 62
7
  6
CONTINUOUS
 10
526.1435309039
 20
427.9796841353
 40
35.0
100
AcDbArc
 50
180.0
 51
247.2893819826
  0
ARC
  5
3A3
100
AcDbEntity
  8
0
100
AcDbCircle
 62
7
  6
CONTINUOUS
 10
526.1435309039
 20
427.9796841353
 40
35.0
100
AcDbArc
 50
294.4862671152
 51
360.0
  0
ARC
  5
3A4
100
AcDbEntity
  8
0
100
AcDbCircle
 62
7
  6
CONTINUOUS
 10
526.1435309039
 20
508.9796841353
 40
35.0
100
AcDbArc
 50
0.0
 51
180.0
  0
ARC
  5
3A5
100
AcDbEntity
  8
BEZUGSACHSEN
100
AcDbCircle
 62
7
  6
CONTINUOUS
 10
288.3164180371
 20
88.0744009202
 40
60.0
100
AcDbArc
 50
284.6229476853
 51
75.3770523147
  0
ARC
  5
3A6
100
AcDbEntity
  8
BEZUGSACHSEN
100
AcDbCircle
 62
7
  6
CONTINUOUS
 10
288.3164180371
 20
88.0744009202
 40
60.0
100
AcDbArc
 50
104.6229476853
 51
255.3770523147
  0
ARC
  5
3A7
100
AcDbEntity
  8
KONSTRUKTIONSELEMENTE
100
AcDbCircle
 62
7
  6
CONTINUOUS
 10
288.3164180371
 20
88.0744009202
 40
56.0
100
AcDbArc
 50
106.9853538663
 51
117.8800420427
  0
ARC
  5
3A8
100
AcDbEntity
  8
KONSTRUKTIONSELEMENTE
100
AcDbCircle
 62
7
  6
CONTINUOUS
 10
288.3164180371
 20
88.0744009202
 40
56.0
100
AcDbArc
 50
62.1199579573
 51
73.0146461337
  0
ARC
  5
3A9
100
AcDbEntity
  8
KONSTRUKTIONSELEMENTE
100
AcDbCircle
 62
7
  6
CONTINUOUS
 10
288.3164180371
 20
88.0744009202
 40
56.0
100
AcDbArc
 50
286.9853538663
 51
297.8800420427
  0
ARC
  5
3AA
100
AcDbEntity
  8
KONSTRUKTIONSELEMENTE
100
AcDbCircle
 62
7
  6
CONTINUOUS
 10
288.3164180371
 20
88.0744009202
 40
56.0
100
AcDbArc
 50
242.1199579573
 51
253.0146461337
  0
ARC
  5
3AB
100
AcDbEntity
  8
KONSTRUKTIONSELEMENTE
100
AcDbCircle
 62
7
  6
CONTINUOUS
 10
288.3164180371
 20
88.0744009202
 40
55.0
100
AcDbArc
 50
300.2726413189
 51
59.7273586811
  0
ARC
  5
3AC
100
AcDbEntity
  8
KONSTRUKTIONSELEMENTE
100
AcDbCircle
 62
7
  6
CONTINUOUS
 10
288.3164180371
 20
88.0744009202
 40
55.0
100
AcDbArc
 50
120.2726413189
 51
239.7273586811
  0
ARC
  5
3AD
100
AcDbEntity
  8
KONSTRUKTIONSELEMENTE
100
AcDbCircle
 62
7
  6
CONTINUOUS
 10
288.3164180371
 20
88.0744009202
 40
53.0
100
AcDbArc
 50
116.333603957
 51
243.666396043
  0
ARC
  5
3AE
100
AcDbEntity
  8
KONSTRUKTIONSELEMENTE
100
AcDbCircle
 62
7
  6
CONTINUOUS
 10
288.3164180371
 20
88.0744009202
 40
53.0
100
AcDbArc
 50
296.333603957
 51
63.666396043
  0
ARC
  5
3AF
100
AcDbEntity
  8
RUNDUNGEN
100
AcDbCircle
 62
7
  6
CONTINUOUS
 10
288.3164180371
 20
88.0744009202
 40
47.5
100
AcDbArc
 50
26.672502508
 51
43.8241892718
  0
ARC
  5
3B0
100
AcDbEntity
  8
BEZUGSACHSEN
100
AcDbCircle
 62
7
  6
CONTINUOUS
 10
288.3164180371
 20
88.0744009202
 40
47.5
100
AcDbArc
 50
110.3531936304
 51
153.327497492
  0
ARC
  5
3B1
100
AcDbEntity
  8
BEZUGSACHSEN
100
AcDbCircle
 62
7
  6
CONTINUOUS
 10
288.3164180371
 20
88.0744009202
 40
47.5
100
AcDbArc
 50
43.8241892718
 51
69.6468063696
  0
ARC
  5
3B2
100
AcDbEntity
  8
BEZUGSACHSEN
100
AcDbCircle
 62
7
  6
CONTINUOUS
 10
288.3164180371
 20
88.0744009202
 40
47.5
100
AcDbArc
 50
206.672502508
 51
249.6707059089
  0
ARC
  5
3B3
100
AcDbEntity
  8
BEZUGSACHSEN
100
AcDbCircle
 62
7
  6
CONTINUOUS
 10
288.3164180371
 20
88.0744009202
 40
47.5
100
AcDbArc
 50
290.3292940911
 51
333.327497492
  0
ARC
  5
3B4
100
AcDbEntity
  8
0
100
AcDbCircle
 62
7
  6
CONTINUOUS
 10
288.3164180371
 20
139.5744009202
 40
16.5
100
AcDbArc
 50
0.0
 51
180.0
  0
ARC
  5
3B5
100
AcDbEntity
  8
0
100
AcDbCircle
 62
7
  6
CONTINUOUS
 10
288.3164180371
 20
36.5744009202
 40
16.5
100
AcDbArc
 50
180.0
 51
360.0
  0
SPLINE
  5
3B6
100
AcDbEntity
  8
KONSTRUKTIONSELEMENTE
100
AcDbSpline
 62
7
  6
CONTINUOUS
 70
0
 71
3
 72
11
 73
7
 74
0
 42
0.0000001
 43
0.0000001
 44
0.0000000001
 40
0.0
 40
0.0
 40
0.0
 40
0.0
 40
0.2870446764
 40
0.5567168161
 40
0.797473728
 40
1.0
 40
1.0
 40
1.0
 40
1.0
 10
316.030124391
 20
289.3081112601
 30
0.0
 10
316.0102170471
 20
289.1732384771
 30
0.0
 10
315.9780476306
 20
288.9107160326
 30
0.0
 10
315.9437397943
 20
288.5333932677
 30
0.0
 10
315.9142933049
 20
288.196380432
 30
0.0
 10
315.8853314862
 20
287.9869312963
 30
0.0
 10
315.8608870237
 20
287.8938976977
 30
0.0
  0
SPLINE
  5
3B7
100
AcDbEntity
  8
KONSTRUKTIONSELEMENTE
100
AcDbSpline
 62
7
  6
CONTINUOUS
 70
0
 71
3
 72
13
 73
9
 74
0
 42
0.0000001
 43
0.0000001
 44
0.0000000001
 40
0.0
 40
0.0
 40
0.0
 40
0.0
 40
0.1001976533
 40
0.2073503481
 40
0.3243935177
 40
0.4496629368
 40
0.7172787143
 40
1.0
 40
1.0
 40
1.0
 40
1.0
 10
315.8608870237
 20
287.8938976977
 30
0.0
 10
315.8482274079
 20
287.8457162487
 30
0.0
 10
315.7927890282
 20
287.7529323367
 30
0.0
 10
315.6591430606
 20
287.6585552322
 30
0.0
 10
315.4979784966
 20
287.5916338106
 30
0.0
 10
315.2520752769
 20
287.5278011517
 30
0.0
 10
314.9174584375
 20
287.4875938045
 30
0.0
 10
314.6438117766
 20
287.4796841353
 30
0.0
 10
314.5032467874
 20
287.4796841353
 30
0.0
  0
SPLINE
  5
3B8
100
AcDbEntity
  8
KONSTRUKTIONSELEMENTE
100
AcDbSpline
 62
7
  6
CONTINUOUS
 70
0
 71
3
 72
11
 73
7
 74
0
 42
0.0000001
 43
0.0000001
 44
0.0000000001
 40
0.0
 40
0.0
 40
0.0
 40
0.0
 40
0.202526272
 40
0.4432831839
 40
0.7129553236
 40
1.0
 40
1.0
 40
1.0
 40
1.0
 10
260.7719490504
 20
287.8938976977
 30
0.0
 10
260.7475045879
 20
287.9869312963
 30
0.0
 10
260.7185427693
 20
288.196380432
 30
0.0
 10
260.6890962798
 20
288.5333932677
 30
0.0
 10
260.6547884435
 20
288.9107160326
 30
0.0
 10
260.6226190271
 20
289.1732384771
 30
0.0
 10
260.6027116831
 20
289.3081112601
 30
0.0
  0
SPLINE
  5
3B9
100
AcDbEntity
  8
KONSTRUKTIONSELEMENTE
100
AcDbSpline
 62
7
  6
CONTINUOUS
 70
0
 71
3
 72
13
 73
9
 74
0
 42
0.0000001
 43
0.0000001
 44
0.0000000001
 40
0.0
 40
0.0
 40
0.0
 40
0.0
 40
0.2827696538
 40
0.5504078322
 40
0.6756648835
 40
0.7926822216
 40
0.8998074939
 40
1.0
 40
1.0
 40
1.0
 40
1.0
 10
262.1295892867
 20
287.4796841353
 30
0.0
 10
261.9890003569
 20
287.4796841353
 30
0.0
 10
261.7153194147
 20
287.4876072723
 30
0.0
 10
261.380672788
 20
287.5278132719
 30
0.0
 10
261.1347810739
 20
287.5916596824
 30
0.0
 10
260.9736520779
 20
287.6585816881
 30
0.0
 10
260.8400377213
 20
287.7529498088
 30
0.0
 10
260.7846080062
 20
287.8457187606
 30
0.0
 10
260.7719490504
 20
287.8938976977
 30
0.0
  0
SPLINE
  5
3BA
100
AcDbEntity
  8
KONSTRUKTIONSELEMENTE
100
AcDbSpline
 62
7
  6
CONTINUOUS
 70
0
 71
3
 72
11
 73
7
 74
0
 42
0.0000001
 43
0.0000001
 44
0.0000000001
 40
0.0
 40
0.0
 40
0.0
 40
0.0
 40
0.380173276
 40
0.6781153837
 40
0.8837195543
 40
1.0
 40
1.0
 40
1.0
 40
1.0
 10
260.7719490504
 20
39.7931221247
 30
0.0
 10
260.7518969822
 20
39.892424316
 30
0.0
 10
260.7254281844
 20
40.0706679086
 30
0.0
 10
260.6952703881
 20
40.3064147085
 30
0.0
 10
260.6670022257
 20
40.464488223
 30
0.0
 10
260.6294762868
 20
40.5514147279
 30
0.0
 10
260.6027116831
 20
40.5670280174
 30
0.0
  0
SPLINE
  5
3BB
100
AcDbEntity
  8
KONSTRUKTIONSELEMENTE
100
AcDbSpline
 62
7
  6
CONTINUOUS
 70
0
 71
3
 72
10
 73
6
 74
0
 42
0.0000001
 43
0.0000001
 44
0.0000000001
 40
0.0
 40
0.0
 40
0.0
 40
0.0
 40
0.2280240118
 40
0.4805843385
 40
1.0
 40
1.0
 40
1.0
 40
1.0
 10
260.7719490504
 20
136.3556797157
 30
0.0
 10
260.799982847
 20
136.4945091579
 30
0.0
 10
260.9692341781
 20
136.7583403853
 30
0.0
 10
261.4288608408
 20
137.1737273658
 30
0.0
 10
261.8444140795
 20
137.4235355805
 30
0.0
 10
262.1295892867
 20
137.5744009202
 30
0.0
  0
SPLINE
  5
3BC
100
AcDbEntity
  8
KONSTRUKTIONSELEMENTE
100
AcDbSpline
 62
7
  6
CONTINUOUS
 70
0
 71
3
 72
10
 73
6
 74
0
 42
0.0000001
 43
0.0000001
 44
0.0000000001
 40
0.0
 40
0.0
 40
0.0
 40
0.0
 40
0.519474754
 40
0.7720591138
 40
1.0
 40
1.0
 40
1.0
 40
1.0
 10
314.5032467874
 20
137.5744009202
 30
0.0
 10
314.7884548862
 20
137.42351818
 30
0.0
 10
315.2040411715
 20
137.1736692792
 30
0.0
 10
315.6636754274
 20
136.758276824
 30
0.0
 10
315.8328634028
 20
136.4944587659
 30
0.0
 10
315.8608870237
 20
136.3556797157
 30
0.0
  0
SPLINE
  5
3BD
100
AcDbEntity
  8
KONSTRUKTIONSELEMENTE
100
AcDbSpline
 62
7
  6
CONTINUOUS
 70
0
 71
3
 72
10
 73
6
 74
0
 42
0.0000001
 43
0.0000001
 44
0.0000000001
 40
0.0
 40
0.0
 40
0.0
 40
0.0
 40
0.2279602049
 40
0.4805360822
 40
1.0
 40
1.0
 40
1.0
 40
1.0
 10
315.8608870237
 20
39.7931221247
 30
0.0
 10
315.8328610437
 20
39.6543313919
 30
0.0
 10
315.6636587283
 20
39.3905121864
 30
0.0
 10
315.2040266904
 20
38.9751210404
 30
0.0
 10
314.7884487738
 20
38.7252804268
 30
0.0
 10
314.5032467874
 20
38.5744009202
 30
0.0
  0
SPLINE
  5
3BE
100
AcDbEntity
  8
KONSTRUKTIONSELEMENTE
100
AcDbSpline
 62
7
  6
CONTINUOUS
 70
0
 71
3
 72
11
 73
7
 74
0
 42
0.0000001
 43
0.0000001
 44
0.0000000001
 40
0.0
 40
0.0
 40
0.0
 40
0.0
 40
0.3801733031
 40
0.6781143536
 40
0.8837183989
 40
1.0
 40
1.0
 40
1.0
 40
1.0
 10
315.8608870237
 20
136.3556797157
 30
0.0
 10
315.8809390938
 20
136.256377515
 30
0.0
 10
315.9074077302
 20
136.0781341731
 30
0.0
 10
315.9375655704
 20
135.8423876807
 30
0.0
 10
315.965833583
 20
135.6843141742
 30
0.0
 10
316.0033595207
 20
135.5973872681
 30
0.0
 10
316.030124391
 20
135.581773823
 30
0.0
  0
SPLINE
  5
3BF
100
AcDbEntity
  8
KONSTRUKTIONSELEMENTE
100
AcDbSpline
 62
7
  6
CONTINUOUS
 70
0
 71
3
 72
9
 73
5
 74
0
 42
0.0000001
 43
0.0000001
 44
0.0000000001
 40
0.0
 40
0.0
 40
0.0
 40
0.0
 40
0.2075810758
 40
1.0
 40
1.0
 40
1.0
 40
1.0
 10
316.030124391
 20
40.5670280174
 30
0.0
 10
316.0258863018
 20
40.564555703
 30
0.0
 10
316.0070072974
 20
40.5499543841
 30
0.0
 10
315.9952790561
 20
40.5282088398
 30
0.0
 10
315.9877706199
 20
40.5110496432
 30
0.0
  0
SPLINE
  5
3C0
100
AcDbEntity
  8
KONSTRUKTIONSELEMENTE
100
AcDbSpline
 62
7
  6
CONTINUOUS
 70
0
 71
3
 72
11
 73
7
 74
0
 42
0.0000001
 43
0.0000001
 44
0.0000000001
 40
0.0
 40
0.0
 40
0.0
 40
0.0
 40
0.1555322897
 40
0.3768783122
 40
0.6606100204
 40
1.0
 40
1.0
 40
1.0
 40
1.0
 10
315.9877706199
 20
40.5110496432
 30
0.0
 10
315.9726010892
 20
40.4763823768
 30
0.0
 10
315.9508987758
 20
40.3864321284
 30
0.0
 10
315.9270313375
 20
40.227776045
 30
0.0
 10
315.9010947799
 20
40.0238557512
 30
0.0
 10
315.877231151
 20
39.8740617887
 30
0.0
 10
315.8608870237
 20
39.7931221247
 30
0.0
  0
SPLINE
  5
3C1
100
AcDbEntity
  8
KONSTRUKTIONSELEMENTE
100
AcDbSpline
 62
7
  6
CONTINUOUS
 70
0
 71
3
 72
9
 73
5
 74
0
 42
0.0000001
 43
0.0000001
 44
0.0000000001
 40
0.0
 40
0.0
 40
0.0
 40
0.0
 40
0.2073970522
 40
1.0
 40
1.0
 40
1.0
 40
1.0
 10
260.6027116831
 20
135.581773823
 30
0.0
 10
260.606967317
 20
135.5842563722
 30
0.0
 10
260.6259341853
 20
135.5989431533
 30
0.0
 10
260.6376850321
 20
135.6208223795
 30
0.0
 10
260.64520954
 20
135.6380821479
 30
0.0
  0
SPLINE
  5
3C2
100
AcDbEntity
  8
KONSTRUKTIONSELEMENTE
100
AcDbSpline
 62
7
  6
CONTINUOUS
 70
0
 71
3
 72
11
 73
7
 74
0
 42
0.0000001
 43
0.0000001
 44
0.0000000001
 40
0.0
 40
0.0
 40
0.0
 40
0.0
 40
0.1556820461
 40
0.3770772766
 40
0.6607544437
 40
1.0
 40
1.0
 40
1.0
 40
1.0
 10
260.64520954
 20
135.6380821479
 30
0.0
 10
260.6603390717
 20
135.6727863722
 30
0.0
 10
260.6820027249
 20
135.7627409585
 30
0.0
 10
260.7058461902
 20
135.9213599751
 30
0.0
 10
260.7317700898
 20
136.12514206
 30
0.0
 10
260.7556198907
 20
136.2748141749
 30
0.0
 10
260.7719490504
 20
136.3556797157
 30
0.0
  0
SPLINE
  5
3C3
100
AcDbEntity
  8
KONSTRUKTIONSELEMENTE
100
AcDbSpline
 62
7
  6
CONTINUOUS
 70
0
 71
3
 72
10
 73
6
 74
0
 42
0.0000001
 43
0.0000001
 44
0.0000000001
 40
0.0
 40
0.0
 40
0.0
 40
0.0
 40
0.5195342678
 40
0.7720751128
 40
1.0
 40
1.0
 40
1.0
 40
1.0
 10
262.1295892867
 20
38.5744009202
 30
0.0
 10
261.8443486252
 20
38.725300887
 30
0.0
 10
261.4287496334
 20
38.9751535915
 30
0.0
 10
260.9691365179
 20
39.3905680078
 30
0.0
 10
260.7999706933
 20
39.65435287
 30
0.0
 10
260.7719490504
 20
39.7931221247
 30
0.0
  0
ENDSEC
  0
SECTION
  2
OBJECTS
  0
DICTIONARY
  5
C
100
AcDbDictionary
280
0
281
1
  3
ACAD_GROUP
350
D
  3
ACAD_MLINESTYLE
350
17
  3
ACAD_LAYOUT
350
1A
  3
ACAD_PLOTSETTINGS
350
19
  3
ACAD_PLOTSTYLENAME
350
E
  0
DICTIONARY
  5
D
102
{ACAD_REACTORS
330
C
102
}
100
AcDbDictionary
280
0
281
1
  0
ACDBDICTIONARYWDFLT
  5
E
102
{ACAD_REACTORS
330
C
102
}
100
AcDbDictionary
281
1
  3
Normal
350
F
100
AcDbDictionaryWithDefault
340
F
  0
DICTIONARY
  5
17
102
{ACAD_REACTORS
330
C
102
}
100
AcDbDictionary
280
0
281
1
  3
Standard
350
18
  0
DICTIONARY
  5
19
102
{ACAD_REACTORS
330
C
102
}
100
AcDbDictionary
281
1
  0
DICTIONARY
  5
1A
102
{ACAD_REACTORS
330
C
102
}
100
AcDbDictionary
281
1
  3
Model
350
3C4
  3
Layout1
350
3C5
  0
ACDBPLACEHOLDER
  5
F
102
{ACAD_REACTORS
330
E
102
}
  0
MLINESTYLE
  5
18
102
{ACAD_REACTORS
330
17
102
}
100
AcDbMlineStyle
  2
STANDARD
 70
0
  3

 62
256
 51
90.0
 52
90.0
 71
2
 49
0.5
 62
256
  6
BYLAYER
 49
-0.5
 62
256
  6
BYLAYER
  0
LAYOUT
  5
3C4
102
{ACAD_REACTORS
330
1A
102
}
100
AcDbPlotSettings
  1

  2
none_device
  4
ISO_A1_(594.00_x_841.00_MM)
  6

 40
0.0
 41
0.0
 42
0.0
 43
0.0
 44
841.0
 45
594.0
 46
0.0
 47
0.0
 48
0.0
 49
0.0
140
0.0
141
0.0
142
1.0
143
1.0
 70
1024
 72
1
 73
0
 74
0
  7

 75
0
147
1.0
148
0.0
149
0.0
100
AcDbLayout
  1
Model
 70
0
 71
0
 10
0.0
 20
0.0
 11
841.0
 21
594.0
 12
0.0
 22
0.0
 32
0.0
 14
0.0
 24
0.0
 34
0.0
 15
0.0
 25
0.0
 35
0.0
146
0.0
 13
0.0
 23
0.0
 33
0.0
 16
1.0
 26
0.0
 36
0.0
 17
0.0
 27
1.0
 37
0.0
 76
0
330
217
345
0
346
0
  0
LAYOUT
  5
3C5
102
{ACAD_REACTORS
330
1A
102
}
100
AcDbPlotSettings
  1

  2
none_device
  4
ISO_A1_(594.00_x_841.00_MM)
  6

 40
0.0
 41
0.0
 42
0.0
 43
0.0
 44
841.0
 45
594.0
 46
0.0
 47
0.0
 48
0.0
 49
0.0
140
0.0
141
0.0
142
1.0
143
1.0
 70
0
 72
1
 73
0
 74
0
  7

 75
0
147
1.0
148
0.0
149
0.0
100
AcDbLayout
  1
Layout1
 70
0
 71
1
 10
0.0
 20
0.0
 11
841.0
 21
594.0
 12
0.0
 22
0.0
 32
0.0
 14
0.0
 24
0.0
 34
0.0
 15
0.0
 25
0.0
 35
0.0
146
0.0
 13
0.0
 23
0.0
 33
0.0
 16
1.0
 26
0.0
 36
0.0
 17
0.0
 27
1.0
 37
0.0
 76
0
330
218
345
0
346
0
  0
ENDSEC
  0
EOF
