999
DXF file: 001-m33245-p-30.dxf
999
Pro/ENGINEER 2011490 by Parametric Technology Corporation
  0
SECTION
  2
HEADER
  9
$ACADVER
  1
AC1015
  9
$DWGCODEPAGE
  3
ANSI_1252
  9
$EXTMAX
 10
841.0
 20
594.0
 30
0.0
  9
$EXTMIN
 10
0.0
 20
0.0
 30
0.0
  9
$LIMMIN
 10
0.0
 20
0.0
  9
$LIMMAX
 10
841.0
 20
594.0
  9
$VIEWCTR
 10
420.5
 20
297.0
  9
$VIEWSIZE
 40
594.0
  9
$CLAYER
  8
0
  9
$LTSCALE
 40
46.255
  9
$CELTYPE
  6
BYLAYER
  9
$DIMSCALE
 40
1.0
  9
$DIMASZ
 40
3.5
  9
$DIMEXO
 40
5.25625
  9
$DIMDLI
 40
31.958
  9
$DIMEXE
 40
15.138
  9
$DIMCEN
 40
7.569
  9
$DIMLFAC
 40
1.0
  9
$DIMBLK
  1
_FILLED
  9
$DIMTXT
 40
3.5
  9
$DIMTOL
 70
1
  9
$DIMLIM
 70
0
  9
$DIMTFAC
 40
1.0
  9
$DIMTP
 40
0.005
  9
$DIMTM
 40
0.005
  9
$PDMODE
 70
3
  9
$PDSIZE
 40
0.3125
  9
$HANDSEED
  5
3EF
  9
$TILEMODE
 70
1
  9
$MEASUREMENT
 70
1
  9
$INSUNITS
 70
4
  0
ENDSEC
  0
SECTION
  2
CLASSES
  0
CLASS
  1
ACDBDICTIONARYWDFLT
  2
AcDbDictionaryWithDefault
  3
AutoCAD 2000
 90
0
280
0
281
0
  0
CLASS
  1
ACDBPLACEHOLDER
  2
AcDbPlaceHolder
  3
AutoCAD 2000
 90
0
280
0
281
0
  0
CLASS
  1
LAYOUT
  2
AcDbLayout
  3
AutoCAD 2000
 90
0
280
0
281
0
  0
ENDSEC
  0
SECTION
  2
TABLES
  0
TABLE
  2
VPORT
  5
8
100
AcDbSymbolTable
 70
2
  0
VPORT
  5
1F4
100
AcDbSymbolTableRecord
100
AcDbViewportTableRecord
  2
*ACTIVE
 70
0
 10
0.0
 20
0.0
 11
1.0
 21
1.0
 12
420.5
 22
297.0
 13
0.0
 23
0.0
 14
1.0
 24
1.0
 15
0.0
 25
0.0
 16
0.0
 26
0.0
 36
1.0
 17
0.0
 27
0.0
 37
0.0
 40
594.0
 41
1.4158249158
 42
50.0
 43
0.0
 44
0.0
 50
0.0
 51
0.0
 71
0
 72
100
 73
1
 74
1
 75
0
 76
0
 77
0
 78
0
  0
ENDTAB
  0
TABLE
  2
LTYPE
  5
5
100
AcDbSymbolTable
 70
6
  0
LTYPE
  5
14
100
AcDbSymbolTableRecord
100
AcDbLinetypeTableRecord
  2
BYBLOCK
 70
0
  3

 72
65
 73
0
 40
0.0
  0
LTYPE
  5
15
100
AcDbSymbolTableRecord
100
AcDbLinetypeTableRecord
  2
BYLAYER
 70
0
  3

 72
65
 73
0
 40
0.0
  0
LTYPE
  5
16
100
AcDbSymbolTableRecord
100
AcDbLinetypeTableRecord
  2
CONTINUOUS
 70
64
  3
Solid line
 72
65
 73
0
 40
0.0
  0
LTYPE
  5
1F5
100
AcDbSymbolTableRecord
100
AcDbLinetypeTableRecord
  2
CENTER
 70
64
  3
____ _ ____ _ ____ _ ____ _ ____ _ ____ _ ____
 72
65
 73
4
 40
0.6
 49
0.375
 74
0
 49
-0.075
 74
0
 49
0.075
 74
0
 49
-0.075
 74
0
  0
LTYPE
  5
1F6
100
AcDbSymbolTableRecord
100
AcDbLinetypeTableRecord
  2
HIDDEN
 70
64
  3
- - - - - - - - - - - - - - - - - - - -
 72
65
 73
2
 40
0.2
 49
0.1
 74
0
 49
-0.1
 74
0
  0
LTYPE
  5
1F7
100
AcDbSymbolTableRecord
100
AcDbLinetypeTableRecord
  2
PHANTOM
 70
64
  3
_____ _ _ _____ _ _ _____ _ _ _____
 72
65
 73
6
 40
0.8
 49
0.45
 74
0
 49
-0.05
 74
0
 49
0.1
 74
0
 49
-0.05
 74
0
 49
0.1
 74
0
 49
-0.05
 74
0
  0
LTYPE
  5
1F8
100
AcDbSymbolTableRecord
100
AcDbLinetypeTableRecord
  2
DOT
 70
64
  3
. . . . . . . . . . . . . . . . . . . .
 72
65
 73
2
 40
0.2
 49
0.1
 74
0
 49
-0.1
 74
0
  0
LTYPE
  5
1F9
100
AcDbSymbolTableRecord
100
AcDbLinetypeTableRecord
  2
DASHED
 70
64
  3
- - - - - - - - - - - - - - - - - - - -
 72
65
 73
2
 40
0.2
 49
0.1
 74
0
 49
-0.1
 74
0
  0
ENDTAB
  0
TABLE
  2
LAYER
  5
2
100
AcDbSymbolTable
 70
36
  0
LAYER
  5
10
100
AcDbSymbolTableRecord
100
AcDbLayerTableRecord
  2
0
 70
0
 62
7
  6
CONTINUOUS
370
-3
390
F
  0
LAYER
  5
1FA
100
AcDbSymbolTableRecord
100
AcDbLayerTableRecord
  2
DEFAULT_1
 70
0
 62
7
  6
CENTER
370
-3
390
F
  0
LAYER
  5
1FB
100
AcDbSymbolTableRecord
100
AcDbLayerTableRecord
  2
DEFAULT_2
 70
0
 62
8
  6
HIDDEN
370
-3
390
F
  0
LAYER
  5
1FC
100
AcDbSymbolTableRecord
100
AcDbLayerTableRecord
  2
DEFAULT_3
 70
0
 62
7
  6
PHANTOM
370
-3
390
F
  0
LAYER
  5
1FD
100
AcDbSymbolTableRecord
100
AcDbLayerTableRecord
  2
AUSFORMSCHRAEGEN
 70
0
 62
7
  6
CONTINUOUS
370
-3
390
F
  0
LAYER
  5
1FE
100
AcDbSymbolTableRecord
100
AcDbLayerTableRecord
  2
BEZUGSACHSEN
 70
0
 62
7
  6
CONTINUOUS
370
-3
390
F
  0
LAYER
  5
1FF
100
AcDbSymbolTableRecord
100
AcDbLayerTableRecord
  2
BEZUGSEBENEN
 70
0
 62
7
  6
CONTINUOUS
370
-3
390
F
  0
LAYER
  5
200
100
AcDbSymbolTableRecord
100
AcDbLayerTableRecord
  2
BEZUGSPUNKTE
 70
0
 62
7
  6
CONTINUOUS
370
-3
390
F
  0
LAYER
  5
201
100
AcDbSymbolTableRecord
100
AcDbLayerTableRecord
  2
BG_STARTBEZUEGE
 70
0
 62
7
  6
CONTINUOUS
370
-3
390
F
  0
LAYER
  5
202
100
AcDbSymbolTableRecord
100
AcDbLayerTableRecord
  2
BOHRUNGEN
 70
0
 62
7
  6
CONTINUOUS
370
-3
390
F
  0
LAYER
  5
203
100
AcDbSymbolTableRecord
100
AcDbLayerTableRecord
  2
FASEN
 70
0
 62
7
  6
CONTINUOUS
370
-3
390
F
  0
LAYER
  5
204
100
AcDbSymbolTableRecord
100
AcDbLayerTableRecord
  2
FLAECHEN
 70
0
 62
7
  6
CONTINUOUS
370
-3
390
F
  0
LAYER
  5
205
100
AcDbSymbolTableRecord
100
AcDbLayerTableRecord
  2
FLAECHENVERBUND
 70
0
 62
7
  6
CONTINUOUS
370
-3
390
F
  0
LAYER
  5
206
100
AcDbSymbolTableRecord
100
AcDbLayerTableRecord
  2
GEWINDE
 70
0
 62
7
  6
CONTINUOUS
370
-3
390
F
  0
LAYER
  5
207
100
AcDbSymbolTableRecord
100
AcDbLayerTableRecord
  2
HILFEN
 70
0
 62
7
  6
CONTINUOUS
370
-3
390
F
  0
LAYER
  5
208
100
AcDbSymbolTableRecord
100
AcDbLayerTableRecord
  2
KONSTRUKTIONSELEMENTE
 70
0
 62
7
  6
CONTINUOUS
370
-3
390
F
  0
LAYER
  5
209
100
AcDbSymbolTableRecord
100
AcDbLayerTableRecord
  2
KURVEN
 70
0
 62
7
  6
CONTINUOUS
370
-3
390
F
  0
LAYER
  5
20A
100
AcDbSymbolTableRecord
100
AcDbLayerTableRecord
  2
PLATZIERUNG
 70
0
 62
7
  6
CONTINUOUS
370
-3
390
F
  0
LAYER
  5
20B
100
AcDbSymbolTableRecord
100
AcDbLayerTableRecord
  2
PLAZIERUNG
 70
0
 62
7
  6
CONTINUOUS
370
-3
390
F
  0
LAYER
  5
20C
100
AcDbSymbolTableRecord
100
AcDbLayerTableRecord
  2
RUNDUNGEN
 70
0
 62
7
  6
CONTINUOUS
370
-3
390
F
  0
LAYER
  5
20D
100
AcDbSymbolTableRecord
100
AcDbLayerTableRecord
  2
TEIL_STARTBEZUEGE
 70
0
 62
7
  6
CONTINUOUS
370
-3
390
F
  0
LAYER
  5
20E
100
AcDbSymbolTableRecord
100
AcDbLayerTableRecord
  2
XSEC_DATUMS
 70
0
 62
7
  6
CONTINUOUS
370
-3
390
F
  0
LAYER
  5
20F
100
AcDbSymbolTableRecord
100
AcDbLayerTableRecord
  2
ZEICHNUNGSBEMASSUNGEN
 70
0
 62
7
  6
CONTINUOUS
370
-3
390
F
  0
ENDTAB
  0
TABLE
  2
STYLE
  5
3
100
AcDbSymbolTable
 70
1
  0
STYLE
  5
11
100
AcDbSymbolTableRecord
100
AcDbTextStyleTableRecord
  2
STANDARD
 70
0
 40
0.0
 41
0.7
 50
0.0
 71
0
 42
0.2
  3
txt
  4

  0
STYLE
  5
210
100
AcDbSymbolTableRecord
100
AcDbTextStyleTableRecord
  2
TEXTSTYLE_1
 70
0
 40
0.0
 41
0.8
 50
0.0
 71
0
 42
0.2
  3
gdt
  4

  0
ENDTAB
  0
TABLE
  2
VIEW
  5
6
100
AcDbSymbolTable
 70
0
  0
ENDTAB
  0
TABLE
  2
UCS
  5
7
100
AcDbSymbolTable
 70
0
  0
ENDTAB
  0
TABLE
  2
APPID
  5
9
100
AcDbSymbolTable
 70
1
  0
APPID
  5
211
100
AcDbSymbolTableRecord
100
AcDbRegAppTableRecord
  2
ACAD
 70
0
  0
ENDTAB
  0
TABLE
  2
BLOCK_RECORD
  5
1
100
AcDbSymbolTable
 70
0
  0
BLOCK_RECORD
  5
212
100
AcDbSymbolTableRecord
100
AcDbBlockTableRecord
  2
*Model_Space
  0
BLOCK_RECORD
  5
213
100
AcDbSymbolTableRecord
100
AcDbBlockTableRecord
  2
*Paper_Space
  0
ENDTAB
  0
TABLE
  2
DIMSTYLE
  5
A
100
AcDbSymbolTable
 70
1
100
AcDbDimStyleTable
 71
0
  0
DIMSTYLE
105
214
100
AcDbSymbolTableRecord
100
AcDbDimStyleTableRecord
  2
STANDARD
 70
0
  3

  4

 40
1.0
 41
3.5
 42
0.0625
 43
0.38
 44
0.18
 45
0.0
 46
0.0
 47
0.005
 48
0.005
140
3.5
141
0.09
142
0.0
143
25.4
144
1.0
145
0.0
146
1.0
147
0.09
 71
1.0
 72
0.0
 73
0
 74
0
 75
0
 76
0
 77
1
 78
8
170
0
171
2
172
0
173
0
174
0
175
0
176
0
177
0
178
5
270
2
271
3
272
3
273
2
274
2
275
0
280
0
281
0
282
0
283
1
284
8
285
0
286
0
287
3
288
0
340
11
  0
ENDTAB
  0
ENDSEC
  0
SECTION
  2
BLOCKS
  0
BLOCK
  5
20
100
AcDbEntity
  8
0
100
AcDbBlockBegin
  2
*Model_Space
 70
0
 10
0.0
 20
0.0
 30
0.0
  3
*Model_Space
  1

  0
ENDBLK
  5
21
100
AcDbEntity
  8
0
100
AcDbBlockEnd
  0
BLOCK
  5
1C
100
AcDbEntity
  8
0
100
AcDbBlockBegin
  2
*Paper_Space
 70
0
 10
0.0
 20
0.0
 30
0.0
  3
*Paper_Space
  1

  0
ENDBLK
  5
1D
100
AcDbEntity
  8
0
100
AcDbBlockEnd
  0
ENDSEC
  0
SECTION
  2
ENTITIES
  0
MTEXT
  5
215
100
AcDbEntity
  8
0
100
AcDbMText
 62
5
  6
CONTINUOUS
  7
STANDARD
 71
1
 72
1
 10
446.5505564106
 20
317.4539103649
 30
0.0
 11
1.0
 21
0.0
 31
0.0
 44
0.9
  1
VWBG 13t M48
 40
8.0
 41
78.4761904762
  0
MTEXT
  5
216
100
AcDbEntity
  8
0
100
AcDbMText
 62
5
  6
CONTINUOUS
  7
STANDARD
 71
1
 72
1
 10
264.2629494863
 20
382.1042380137
 30
0.0
 11
0.0
 21
1.0
 31
0.0
 44
0.9
  1
VWBG 13t M48
 40
8.0
 41
78.4761904762
  0
MTEXT
  5
217
100
AcDbEntity
  8
0
100
AcDbMText
 62
5
  6
CONTINUOUS
  7
STANDARD
 71
1
 72
1
 10
261.8528810981
 20
89.2246240954
 30
0.0
 11
0.0
 21
1.0
 31
0.0
 44
0.9
  1
VWBG 13t M48
 40
8.0
 41
78.4761904762
  0
LINE
  5
218
100
AcDbEntity
  8
0
100
AcDbLine
 62
7
  6
CONTINUOUS
 10
0.0
 20
0.0
 11
0.0
 21
594.0
  0
LINE
  5
219
100
AcDbEntity
  8
0
100
AcDbLine
 62
7
  6
CONTINUOUS
 10
0.0
 20
0.0
 11
841.0
 21
0.0
  0
LINE
  5
21A
100
AcDbEntity
  8
0
100
AcDbLine
 62
7
  6
CONTINUOUS
 10
0.0
 20
594.0
 11
841.0
 21
594.0
  0
LINE
  5
21B
100
AcDbEntity
  8
0
100
AcDbLine
 62
7
  6
CONTINUOUS
 10
841.0
 20
0.0
 11
841.0
 21
594.0
  0
LINE
  5
21C
100
AcDbEntity
  8
0
100
AcDbLine
 62
7
  6
CONTINUOUS
 10
287.5931743006
 20
228.8695210892
 11
245.5931743006
 21
228.8695210892
  0
LINE
  5
21D
100
AcDbEntity
  8
0
100
AcDbLine
 62
7
  6
CONTINUOUS
 10
290.5931743006
 20
231.8695210892
 11
242.5931743006
 21
231.8695210892
  0
LINE
  5
21E
100
AcDbEntity
  8
0
100
AcDbLine
 62
7
  6
CONTINUOUS
 10
242.5931743006
 20
231.8695210892
 11
245.5931743006
 21
228.8695210892
  0
LINE
  5
21F
100
AcDbEntity
  8
FASEN
100
AcDbLine
 62
7
  6
CONTINUOUS
 10
217.5931743006
 20
297.3695210892
 11
218.0931743006
 21
296.8695210892
  0
LINE
  5
220
100
AcDbEntity
  8
FASEN
100
AcDbLine
 62
7
  6
CONTINUOUS
 10
315.0931743006
 20
296.8695210892
 11
218.0931743006
 21
296.8695210892
  0
LINE
  5
221
100
AcDbEntity
  8
FASEN
100
AcDbLine
 62
7
  6
CONTINUOUS
 10
315.5931743006
 20
297.3695210892
 11
217.5931743006
 21
297.3695210892
  0
LINE
  5
222
100
AcDbEntity
  8
BEZUGSACHSEN
100
AcDbLine
 62
7
  6
CONTINUOUS
 10
315.5931743006
 20
304.3695210892
 11
217.5931743006
 21
304.3695210892
  0
LINE
  5
223
100
AcDbEntity
  8
KONSTRUKTIONSELEMENTE
100
AcDbLine
 62
7
  6
CONTINUOUS
 10
284.586228516
 20
305.3695210892
 11
248.6001200851
 21
305.3695210892
  0
LINE
  5
224
100
AcDbEntity
  8
0
100
AcDbLine
 62
7
  6
CONTINUOUS
 10
266.5181743006
 20
328.8695210892
 11
267.1015074948
 21
329.0184572547
  0
LINE
  5
225
100
AcDbEntity
  8
0
100
AcDbLine
 62
7
  6
CONTINUOUS
 10
267.1015074948
 20
329.7631381082
 11
266.3723411063
 21
329.6142019558
  0
LINE
  5
226
100
AcDbEntity
  8
0
100
AcDbLine
 62
7
  6
CONTINUOUS
 10
264.9140074948
 20
334.9759041744
 11
265.6431743006
 21
335.1248403269
  0
LINE
  5
227
100
AcDbEntity
  8
0
100
AcDbLine
 62
7
  6
CONTINUOUS
 10
265.7890074948
 20
335.8695210892
 11
264.7681743006
 21
335.7205849367
  0
LINE
  5
228
100
AcDbEntity
  8
0
100
AcDbLine
 62
7
  6
CONTINUOUS
 10
261.2681743006
 20
328.8695210892
 11
262.1431743006
 21
328.8695210892
  0
LINE
  5
229
100
AcDbEntity
  8
0
100
AcDbLine
 62
7
  6
CONTINUOUS
 10
265.3515074948
 20
328.8695210892
 11
266.5181743006
 21
328.8695210892
  0
LINE
  5
22A
100
AcDbEntity
  8
0
100
AcDbLine
 62
7
  6
CONTINUOUS
 10
266.3723411063
 20
329.6142019558
 11
265.4973411063
 21
329.6142019558
  0
LINE
  5
22B
100
AcDbEntity
  8
0
100
AcDbLine
 62
7
  6
CONTINUOUS
 10
264.0390074948
 20
330.5078189748
 11
263.3098408977
 21
330.5078189748
  0
LINE
  5
22C
100
AcDbEntity
  8
0
100
AcDbLine
 62
7
  6
CONTINUOUS
 10
265.6431743006
 20
332.1461168605
 11
266.2265074948
 21
332.1461168605
  0
LINE
  5
22D
100
AcDbEntity
  8
0
100
AcDbLine
 62
7
  6
CONTINUOUS
 10
266.2265074948
 20
332.7418614703
 11
265.6431743006
 21
332.7418614703
  0
LINE
  5
22E
100
AcDbEntity
  8
0
100
AcDbLine
 62
7
  6
CONTINUOUS
 10
269.7265079121
 20
333.0397337752
 11
270.8931743006
 21
333.0397337752
  0
LINE
  5
22F
100
AcDbEntity
  8
0
100
AcDbLine
 62
7
  6
CONTINUOUS
 10
271.6223406891
 20
333.0397337752
 11
273.2265079121
 21
333.0397337752
  0
LINE
  5
230
100
AcDbEntity
  8
0
100
AcDbLine
 62
7
  6
CONTINUOUS
 10
273.2265079121
 20
333.6354783851
 11
271.6223406891
 21
333.6354783851
  0
LINE
  5
231
100
AcDbEntity
  8
0
100
AcDbLine
 62
7
  6
CONTINUOUS
 10
270.8931743006
 20
333.6354783851
 11
269.7265079121
 21
333.6354783851
  0
LINE
  5
232
100
AcDbEntity
  8
0
100
AcDbLine
 62
7
  6
CONTINUOUS
 10
263.4556743006
 20
334.2312234121
 11
264.1848411063
 21
334.2312234121
  0
LINE
  5
233
100
AcDbEntity
  8
0
100
AcDbLine
 62
7
  6
CONTINUOUS
 10
271.6223406891
 20
334.826968022
 11
270.8931743006
 21
334.826968022
  0
LINE
  5
234
100
AcDbEntity
  8
0
100
AcDbLine
 62
7
  6
CONTINUOUS
 10
265.6431743006
 20
335.1248403269
 11
266.2265074948
 21
335.1248403269
  0
LINE
  5
235
100
AcDbEntity
  8
0
100
AcDbLine
 62
7
  6
CONTINUOUS
 10
266.0806743006
 20
335.8695210892
 11
265.7890074948
 21
335.8695210892
  0
LINE
  5
236
100
AcDbEntity
  8
0
100
AcDbLine
 62
7
  6
CONTINUOUS
 10
262.1431743006
 20
335.8695210892
 11
261.2681743006
 21
335.8695210892
  0
LINE
  5
237
100
AcDbEntity
  8
0
100
AcDbLine
 62
7
  6
CONTINUOUS
 10
267.1015074948
 20
335.7205849367
 11
266.0806743006
 21
335.8695210892
  0
LINE
  5
238
100
AcDbEntity
  8
0
100
AcDbLine
 62
7
  6
CONTINUOUS
 10
272.0598406891
 20
329.0184572547
 11
272.9348406891
 21
328.8695210892
  0
LINE
  5
239
100
AcDbEntity
  8
0
100
AcDbLine
 62
7
  6
CONTINUOUS
 10
266.2265074948
 20
332.1461168605
 11
267.1015074948
 21
331.997180708
  0
LINE
  5
23A
100
AcDbEntity
  8
0
100
AcDbLine
 62
7
  6
CONTINUOUS
 10
265.4973411063
 20
329.6142019558
 11
264.7681743006
 21
329.7631381082
  0
LINE
  5
23B
100
AcDbEntity
  8
0
100
AcDbLine
 62
7
  6
CONTINUOUS
 10
272.9348406891
 20
329.4652657512
 11
272.2056743006
 21
329.6142019558
  0
LINE
  5
23C
100
AcDbEntity
  8
0
100
AcDbLine
 62
7
  6
CONTINUOUS
 10
266.2265074948
 20
335.1248403269
 11
266.9556743006
 21
334.9759041744
  0
LINE
  5
23D
100
AcDbEntity
  8
0
100
AcDbLine
 62
7
  6
CONTINUOUS
 10
264.7681743006
 20
329.0184572547
 11
265.3515074948
 21
328.8695210892
  0
LINE
  5
23E
100
AcDbEntity
  8
0
100
AcDbLine
 62
7
  6
CONTINUOUS
 10
271.6223406891
 20
329.1673934202
 11
272.0598406891
 21
329.0184572547
  0
LINE
  5
23F
100
AcDbEntity
  8
0
100
AcDbLine
 62
7
  6
CONTINUOUS
 10
268.1223406891
 20
332.1461168605
 11
267.3931743006
 21
332.4439891654
  0
LINE
  5
240
100
AcDbEntity
  8
0
100
AcDbLine
 62
7
  6
CONTINUOUS
 10
264.1848411063
 20
329.3163295987
 11
264.7681743006
 21
329.0184572547
  0
LINE
  5
241
100
AcDbEntity
  8
0
100
AcDbLine
 62
7
  6
CONTINUOUS
 10
264.7681743006
 20
329.7631381082
 11
264.4765074948
 21
329.9120742607
  0
LINE
  5
242
100
AcDbEntity
  8
BEZUGSACHSEN
100
AcDbLine
 62
7
  6
CONTINUOUS
 10
217.5931743006
 20
304.3695210892
 11
217.5931743006
 21
297.3695210892
  0
LINE
  5
243
100
AcDbEntity
  8
BEZUGSACHSEN
100
AcDbLine
 62
7
  6
CONTINUOUS
 10
219.5931743006
 20
342.3695210892
 11
219.5931743006
 21
307.1979482139
  0
LINE
  5
244
100
AcDbEntity
  8
KONSTRUKTIONSELEMENTE
100
AcDbLine
 62
7
  6
CONTINUOUS
 10
313.5931743006
 20
342.3695210892
 11
286.661806541
 21
342.3695210892
  0
LINE
  5
245
100
AcDbEntity
  8
KONSTRUKTIONSELEMENTE
100
AcDbLine
 62
7
  6
CONTINUOUS
 10
246.5245420602
 20
342.3695210892
 11
219.5931743006
 21
342.3695210892
  0
LINE
  5
246
100
AcDbEntity
  8
KONSTRUKTIONSELEMENTE
100
AcDbLine
 62
7
  6
CONTINUOUS
 10
221.5933764494
 20
344.3695210892
 11
311.5929721518
 21
344.3695210892
  0
LINE
  5
247
100
AcDbEntity
  8
0
100
AcDbLine
 62
7
  6
CONTINUOUS
 10
267.6848406891
 20
335.4227126318
 11
267.1015074948
 21
335.7205849367
  0
LINE
  5
248
100
AcDbEntity
  8
0
100
AcDbLine
 62
7
  6
CONTINUOUS
 10
263.7473408977
 20
329.6142019558
 11
264.1848411063
 21
329.3163295987
  0
LINE
  5
249
100
AcDbEntity
  8
0
100
AcDbLine
 62
7
  6
CONTINUOUS
 10
267.1015074948
 20
331.997180708
 11
267.5390079121
 21
331.6993084031
  0
LINE
  5
24A
100
AcDbEntity
  8
0
100
AcDbLine
 62
7
  6
CONTINUOUS
 10
271.1848406891
 20
329.4652657512
 11
271.6223406891
 21
329.1673934202
  0
LINE
  5
24B
100
AcDbEntity
  8
0
100
AcDbLine
 62
7
  6
CONTINUOUS
 10
272.2056743006
 20
329.6142019558
 11
271.7681743006
 21
329.9120742607
  0
LINE
  5
24C
100
AcDbEntity
  8
0
100
AcDbLine
 62
7
  6
CONTINUOUS
 10
266.9556743006
 20
334.9759041744
 11
267.3931743006
 21
334.6780318695
  0
LINE
  5
24D
100
AcDbEntity
  8
0
100
AcDbLine
 62
7
  6
CONTINUOUS
 10
264.4765074948
 20
329.9120742607
 11
264.1848411063
 21
330.2099466699
  0
LINE
  5
24E
100
AcDbEntity
  8
BEZUGSACHSEN
100
AcDbLine
 62
7
  6
CONTINUOUS
 10
230.0683905475
 20
355.3913817943
 11
222.4272249717
 21
373.8387873597
  0
LINE
  5
24F
100
AcDbEntity
  8
BEZUGSACHSEN
100
AcDbLine
 62
7
  6
CONTINUOUS
 10
226.5931743006
 20
363.1845588876
 11
226.5931743006
 21
344.3695210892
  0
LINE
  5
250
100
AcDbEntity
  8
BEZUGSACHSEN
100
AcDbLine
 62
7
  6
CONTINUOUS
 10
222.4275101415
 20
376.9009432795
 11
234.2807398323
 21
405.5171711569
  0
LINE
  5
251
100
AcDbEntity
  8
BEZUGSACHSEN
100
AcDbLine
 62
7
  6
CONTINUOUS
 10
292.8218912964
 20
353.8695210892
 11
240.3644573048
 21
353.8695210892
  0
LINE
  5
252
100
AcDbEntity
  8
0
100
AcDbLine
 62
7
  6
CONTINUOUS
 10
268.2681743006
 20
334.826968022
 11
267.6848406891
 21
335.4227126318
  0
LINE
  5
253
100
AcDbEntity
  8
0
100
AcDbLine
 62
7
  6
CONTINUOUS
 10
263.4556743006
 20
330.0610104131
 11
263.7473408977
 21
329.6142019558
  0
LINE
  5
254
100
AcDbEntity
  8
0
100
AcDbLine
 62
7
  6
CONTINUOUS
 10
242.5931743006
 20
296.8695210892
 11
242.5931743006
 21
231.8695210892
  0
LINE
  5
255
100
AcDbEntity
  8
0
100
AcDbLine
 62
7
  6
CONTINUOUS
 10
243.397521288
 20
393.4708747704
 11
243.4803309615
 21
394.0261497393
  0
LINE
  5
256
100
AcDbEntity
  8
0
100
AcDbLine
 62
7
  6
CONTINUOUS
 10
242.8054389916
 20
393.7401101519
 11
242.6913880734
 21
393.3607497017
  0
LINE
  5
257
100
AcDbEntity
  8
0
100
AcDbLine
 62
7
  6
CONTINUOUS
 10
240.5409973608
 20
394.7428610599
 11
238.7974922375
 21
392.301511047
  0
LINE
  5
258
100
AcDbEntity
  8
0
100
AcDbLine
 62
7
  6
CONTINUOUS
 10
239.7528046294
 20
392.5408900576
 11
241.1330794493
 21
394.4736253875
  0
LINE
  5
259
100
AcDbEntity
  8
BEZUGSACHSEN
100
AcDbLine
 62
7
  6
CONTINUOUS
 10
236.4455242329
 20
407.6819555575
 11
253.3431743006
 21
414.6811913877
  0
LINE
  5
25A
100
AcDbEntity
  8
RUNDUNGEN
100
AcDbLine
 62
7
  6
CONTINUOUS
 10
236.4455242329
 20
407.6819555575
 11
253.3431743006
 21
414.6811913877
  0
LINE
  5
25B
100
AcDbEntity
  8
BEZUGSACHSEN
100
AcDbLine
 62
7
  6
CONTINUOUS
 10
314.1789607382
 20
305.7837346515
 11
315.5931743006
 21
304.3695210892
  0
LINE
  5
25C
100
AcDbEntity
  8
0
100
AcDbLine
 62
7
  6
CONTINUOUS
 10
268.4140079121
 20
331.6993084031
 11
268.1223406891
 21
332.1461168605
  0
LINE
  5
25D
100
AcDbEntity
  8
0
100
AcDbLine
 62
7
  6
CONTINUOUS
 10
267.3931743006
 20
334.6780318695
 11
267.6848406891
 21
334.2312234121
  0
LINE
  5
25E
100
AcDbEntity
  8
0
100
AcDbLine
 62
7
  6
CONTINUOUS
 10
264.1848411063
 20
330.2099466699
 11
264.0390074948
 21
330.5078189748
  0
LINE
  5
25F
100
AcDbEntity
  8
0
100
AcDbLine
 62
7
  6
CONTINUOUS
 10
267.5390079121
 20
331.6993084031
 11
267.8306743006
 21
331.1035635847
  0
LINE
  5
260
100
AcDbEntity
  8
0
100
AcDbLine
 62
7
  6
CONTINUOUS
 10
270.8931743006
 20
330.0610104131
 11
271.1848406891
 21
329.4652657512
  0
LINE
  5
261
100
AcDbEntity
  8
0
100
AcDbLine
 62
7
  6
CONTINUOUS
 10
243.4803309615
 20
394.0261497393
 11
243.2827202131
 21
394.628085285
  0
LINE
  5
262
100
AcDbEntity
  8
0
100
AcDbLine
 62
7
  6
CONTINUOUS
 10
263.3098408977
 20
330.5078189748
 11
263.4556743006
 21
330.0610104131
  0
LINE
  5
263
100
AcDbEntity
  8
0
100
AcDbLine
 62
7
  6
CONTINUOUS
 10
242.7429567101
 20
394.0919394803
 11
242.8054389916
 21
393.7401101519
  0
LINE
  5
264
100
AcDbEntity
  8
KONSTRUKTIONSELEMENTE
100
AcDbLine
 62
7
  6
CONTINUOUS
 10
246.5245420602
 20
342.3695210892
 11
246.5245420602
 21
307.3695210892
  0
LINE
  5
265
100
AcDbEntity
  8
KONSTRUKTIONSELEMENTE
100
AcDbLine
 62
7
  6
CONTINUOUS
 10
253.3431743006
 20
378.6195210892
 11
253.3431743006
 21
544.1195210892
  0
LINE
  5
266
100
AcDbEntity
  8
0
100
AcDbLine
 62
7
  6
CONTINUOUS
 10
249.5492168755
 20
396.1526788574
 11
249.5755285294
 21
396.8668632804
  0
LINE
  5
267
100
AcDbEntity
  8
0
100
AcDbLine
 62
7
  6
CONTINUOUS
 10
248.8489005966
 20
396.5511106159
 11
248.7432719496
 21
396.1099128294
  0
LINE
  5
268
100
AcDbEntity
  8
0
100
AcDbLine
 62
7
  6
CONTINUOUS
 10
249.3511150612
 20
395.6273753461
 11
249.5492168755
 21
396.1526788574
  0
LINE
  5
269
100
AcDbEntity
  8
0
100
AcDbLine
 62
7
  6
CONTINUOUS
 10
248.7432719496
 20
396.1099128294
 11
248.4592750363
 21
395.6790497946
  0
LINE
  5
26A
100
AcDbEntity
  8
0
100
AcDbLine
 62
7
  6
CONTINUOUS
 10
242.6913880734
 20
393.3607497017
 11
241.3111132535
 21
391.4280143719
  0
LINE
  5
26B
100
AcDbEntity
  8
0
100
AcDbLine
 62
7
  6
CONTINUOUS
 10
241.9344365867
 20
390.9828641807
 11
243.1694193477
 21
392.7121537247
  0
LINE
  5
26C
100
AcDbEntity
  8
0
100
AcDbLine
 62
7
  6
CONTINUOUS
 10
243.6801922633
 20
388.8145008006
 11
244.1160685441
 21
389.4248383038
  0
LINE
  5
26D
100
AcDbEntity
  8
0
100
AcDbLine
 62
7
  6
CONTINUOUS
 10
245.9322196448
 20
391.9679111369
 11
246.440742111
 21
392.6799717513
  0
LINE
  5
26E
100
AcDbEntity
  8
0
100
AcDbLine
 62
7
  6
CONTINUOUS
 10
248.9746455549
 20
395.1124070182
 11
249.3511150612
 21
395.6273753461
  0
LINE
  5
26F
100
AcDbEntity
  8
0
100
AcDbLine
 62
7
  6
CONTINUOUS
 10
241.0081148862
 20
395.1772840444
 11
240.5409973608
 21
394.7428610599
  0
LINE
  5
270
100
AcDbEntity
  8
0
100
AcDbLine
 62
7
  6
CONTINUOUS
 10
246.4171439122
 20
400.8967986285
 11
245.8623061923
 21
400.3921649945
  0
LINE
  5
271
100
AcDbEntity
  8
0
100
AcDbLine
 62
7
  6
CONTINUOUS
 10
243.6429553127
 20
398.3736304584
 11
243.0881173282
 21
397.8689965838
  0
LINE
  5
272
100
AcDbEntity
  8
0
100
AcDbLine
 62
7
  6
CONTINUOUS
 10
248.4592750363
 20
395.6790497946
 11
248.0893830467
 21
395.3426272115
  0
LINE
  5
273
100
AcDbEntity
  8
0
100
AcDbLine
 62
7
  6
CONTINUOUS
 10
248.6047535653
 20
394.7759844351
 11
248.9746455549
 21
395.1124070182
  0
LINE
  5
274
100
AcDbEntity
  8
0
100
AcDbLine
 62
7
  6
CONTINUOUS
 10
241.1330794493
 20
394.4736253875
 11
241.4549048119
 21
394.7046024405
  0
LINE
  5
275
100
AcDbEntity
  8
0
100
AcDbLine
 62
7
  6
CONTINUOUS
 10
248.0564938911
 20
394.4498970272
 11
248.6047535653
 21
394.7759844351
  0
LINE
  5
276
100
AcDbEntity
  8
0
100
AcDbLine
 62
7
  6
CONTINUOUS
 10
250.8773733525
 20
403.775773936
 11
248.2750173176
 21
402.2832113519
  0
LINE
  5
277
100
AcDbEntity
  8
0
100
AcDbLine
 62
7
  6
CONTINUOUS
 10
249.3066860897
 20
401.9919207491
 11
251.2584531158
 21
403.1113426872
  0
LINE
  5
278
100
AcDbEntity
  8
0
100
AcDbLine
 62
7
  6
CONTINUOUS
 10
253.3431743006
 20
399.1562041043
 11
251.5296516869
 21
398.1160712545
  0
LINE
  5
279
100
AcDbEntity
  8
0
100
AcDbLine
 62
7
  6
CONTINUOUS
 10
251.260142486
 20
397.0784992821
 11
253.3431743006
 21
398.2732071954
  0
LINE
  5
27A
100
AcDbEntity
  8
0
100
AcDbLine
 62
7
  6
CONTINUOUS
 10
248.0893830467
 20
395.3426272115
 11
247.6335965098
 21
395.1006455614
  0
LINE
  5
27B
100
AcDbEntity
  8
0
100
AcDbLine
 62
7
  6
CONTINUOUS
 10
251.4830445673
 20
403.9759861702
 11
250.8773733525
 21
403.775773936
  0
LINE
  5
27C
100
AcDbEntity
  8
0
100
AcDbLine
 62
7
  6
CONTINUOUS
 10
238.7974922375
 20
392.301511047
 11
243.6801922633
 21
388.8145008006
  0
LINE
  5
27D
100
AcDbEntity
  8
0
100
AcDbLine
 62
7
  6
CONTINUOUS
 10
244.1160685441
 20
389.4248383038
 11
241.9344365867
 21
390.9828641807
  0
LINE
  5
27E
100
AcDbEntity
  8
0
100
AcDbLine
 62
7
  6
CONTINUOUS
 10
241.3111132535
 20
391.4280143719
 11
239.7528046294
 21
392.5408900576
  0
LINE
  5
27F
100
AcDbEntity
  8
0
100
AcDbLine
 62
7
  6
CONTINUOUS
 10
242.1922790633
 20
394.6388126995
 11
242.503941021
 21
394.4162373961
  0
LINE
  5
280
100
AcDbEntity
  8
0
100
AcDbLine
 62
7
  6
CONTINUOUS
 10
243.043704524
 20
394.9523832008
 11
242.6281553441
 21
395.2491502027
  0
LINE
  5
281
100
AcDbEntity
  8
0
100
AcDbLine
 62
7
  6
CONTINUOUS
 10
245.7508650577
 20
394.9413421842
 11
246.2728135694
 21
394.5532456917
  0
LINE
  5
282
100
AcDbEntity
  8
0
100
AcDbLine
 62
7
  6
CONTINUOUS
 10
243.0881173282
 20
397.8689965838
 11
245.7508650577
 21
394.9413421842
  0
LINE
  5
283
100
AcDbEntity
  8
0
100
AcDbLine
 62
7
  6
CONTINUOUS
 10
246.3057030421
 20
395.4459760588
 11
243.6429553127
 21
398.3736304584
  0
LINE
  5
284
100
AcDbEntity
  8
0
100
AcDbLine
 62
7
  6
CONTINUOUS
 10
245.8623061923
 20
400.3921649945
 11
248.5250539217
 21
397.4645105949
  0
LINE
  5
285
100
AcDbEntity
  8
0
100
AcDbLine
 62
7
  6
CONTINUOUS
 10
242.503941021
 20
394.4162373961
 11
242.7429567101
 21
394.0919394803
  0
LINE
  5
286
100
AcDbEntity
  8
0
100
AcDbLine
 62
7
  6
CONTINUOUS
 10
243.2827202131
 20
394.628085285
 11
243.043704524
 21
394.9523832008
  0
LINE
  5
287
100
AcDbEntity
  8
0
100
AcDbLine
 62
7
  6
CONTINUOUS
 10
249.4168938939
 20
397.4128362043
 11
249.0798916416
 21
397.9691442289
  0
LINE
  5
288
100
AcDbEntity
  8
0
100
AcDbLine
 62
7
  6
CONTINUOUS
 10
248.2750173176
 20
402.2832113519
 11
251.260142486
 21
397.0784992821
  0
LINE
  5
289
100
AcDbEntity
  8
0
100
AcDbLine
 62
7
  6
CONTINUOUS
 10
251.5296516869
 20
398.1160712545
 11
249.3066860897
 21
401.9919207491
  0
LINE
  5
28A
100
AcDbEntity
  8
0
100
AcDbLine
 62
7
  6
CONTINUOUS
 10
248.5250539217
 20
397.4645105949
 11
248.7761610976
 21
397.002643022
  0
LINE
  5
28B
100
AcDbEntity
  8
0
100
AcDbLine
 62
7
  6
CONTINUOUS
 10
271.7681743006
 20
329.9120742607
 11
271.6223406891
 21
330.3588828224
  0
LINE
  5
28C
100
AcDbEntity
  8
0
100
AcDbLine
 62
7
  6
CONTINUOUS
 10
249.5755285294
 20
396.8668632804
 11
249.4168938939
 21
397.4128362043
  0
LINE
  5
28D
100
AcDbEntity
  8
0
100
AcDbLine
 62
7
  6
CONTINUOUS
 10
268.5598406891
 20
331.1035635847
 11
268.4140079121
 21
331.6993084031
  0
LINE
  5
28E
100
AcDbEntity
  8
0
100
AcDbLine
 62
7
  6
CONTINUOUS
 10
268.4140079121
 20
334.2312234121
 11
268.2681743006
 21
334.826968022
  0
LINE
  5
28F
100
AcDbEntity
  8
0
100
AcDbLine
 62
7
  6
CONTINUOUS
 10
248.7761610976
 20
397.002643022
 11
248.8489005966
 21
396.5511106159
  0
LINE
  5
290
100
AcDbEntity
  8
0
100
AcDbLine
 62
7
  6
CONTINUOUS
 10
260.3931743006
 20
334.826968022
 11
260.3931743006
 21
333.6354783851
  0
LINE
  5
291
100
AcDbEntity
  8
0
100
AcDbLine
 62
7
  6
CONTINUOUS
 10
261.2681743006
 20
334.6780318695
 11
261.2681743006
 21
328.8695210892
  0
LINE
  5
292
100
AcDbEntity
  8
0
100
AcDbLine
 62
7
  6
CONTINUOUS
 10
262.1431743006
 20
328.8695210892
 11
262.1431743006
 21
335.8695210892
  0
LINE
  5
293
100
AcDbEntity
  8
0
100
AcDbLine
 62
7
  6
CONTINUOUS
 10
265.6431743006
 20
332.7418614703
 11
265.6431743006
 21
332.1461168605
  0
LINE
  5
294
100
AcDbEntity
  8
0
100
AcDbLine
 62
7
  6
CONTINUOUS
 10
267.6848406891
 20
334.2312234121
 11
267.6848406891
 21
333.93335069
  0
LINE
  5
295
100
AcDbEntity
  8
0
100
AcDbLine
 62
7
  6
CONTINUOUS
 10
267.8306743006
 20
331.1035635847
 11
267.8306743006
 21
330.5078189748
  0
LINE
  5
296
100
AcDbEntity
  8
0
100
AcDbLine
 62
7
  6
CONTINUOUS
 10
280.2597244303
 20
401.7460519848
 11
280.8094076252
 21
402.0610516584
  0
LINE
  5
297
100
AcDbEntity
  8
0
100
AcDbLine
 62
7
  6
CONTINUOUS
 10
283.6387154025
 20
402.0179727492
 11
283.1347314105
 21
401.7548167725
  0
LINE
  5
298
100
AcDbEntity
  8
0
100
AcDbLine
 62
7
  6
CONTINUOUS
 10
280.1753801781
 20
402.4815349035
 11
279.8433951382
 21
402.3493482602
  0
LINE
  5
299
100
AcDbEntity
  8
0
100
AcDbLine
 62
7
  6
CONTINUOUS
 10
283.6631896713
 20
401.2075244183
 11
284.0915203515
 21
401.3678531215
  0
LINE
  5
29A
100
AcDbEntity
  8
0
100
AcDbLine
 62
7
  6
CONTINUOUS
 10
241.6103606708
 20
395.3616005206
 11
241.0081148862
 21
395.1772840444
  0
LINE
  5
29B
100
AcDbEntity
  8
0
100
AcDbLine
 62
7
  6
CONTINUOUS
 10
283.960780712
 20
395.9169519246
 11
284.6661369323
 21
396.0319519722
  0
LINE
  5
29C
100
AcDbEntity
  8
0
100
AcDbLine
 62
7
  6
CONTINUOUS
 10
246.8013399299
 20
394.3436951103
 11
247.5148117261
 21
394.3023553723
  0
LINE
  5
29D
100
AcDbEntity
  8
0
100
AcDbLine
 62
7
  6
CONTINUOUS
 10
246.440742111
 20
392.6799717513
 11
243.397521288
 21
393.4708747704
  0
LINE
  5
29E
100
AcDbEntity
  8
0
100
AcDbLine
 62
7
  6
CONTINUOUS
 10
247.1843874369
 20
395.0372097139
 11
246.7417559483
 21
395.1523195368
  0
LINE
  5
29F
100
AcDbEntity
  8
0
100
AcDbLine
 62
7
  6
CONTINUOUS
 10
243.1694193477
 20
392.7121537247
 11
245.9322196448
 21
391.9679111369
  0
LINE
  5
2A0
100
AcDbEntity
  8
0
100
AcDbLine
 62
7
  6
CONTINUOUS
 10
241.8079714192
 20
394.7596649749
 11
242.1922790633
 21
394.6388126995
  0
LINE
  5
2A1
100
AcDbEntity
  8
0
100
AcDbLine
 62
7
  6
CONTINUOUS
 10
242.6281553441
 20
395.2491502027
 11
242.2438477
 21
395.3700024781
  0
LINE
  5
2A2
100
AcDbEntity
  8
0
100
AcDbLine
 62
7
  6
CONTINUOUS
 10
246.2728135694
 20
394.5532456917
 11
246.8013399299
 21
394.3436951103
  0
LINE
  5
2A3
100
AcDbEntity
  8
0
100
AcDbLine
 62
7
  6
CONTINUOUS
 10
246.7417559483
 20
395.1523195368
 11
246.3057030421
 21
395.4459760588
  0
LINE
  5
2A4
100
AcDbEntity
  8
0
100
AcDbLine
 62
7
  6
CONTINUOUS
 10
253.2024921071
 20
403.4905015949
 11
252.731575515
 21
403.8090753082
  0
LINE
  5
2A5
100
AcDbEntity
  8
BEZUGSACHSEN
100
AcDbLine
 62
7
  6
CONTINUOUS
 10
311.5931743006
 20
344.3695210892
 11
313.5931743006
 21
342.3695210892
  0
LINE
  5
2A6
100
AcDbEntity
  8
0
100
AcDbLine
 62
7
  6
CONTINUOUS
 10
252.6154165701
 20
403.0066220972
 11
252.9779008335
 21
402.6258578017
  0
LINE
  5
2A7
100
AcDbEntity
  8
0
100
AcDbLine
 62
7
  6
CONTINUOUS
 10
249.0798916416
 20
397.9691442289
 11
246.4171439122
 21
400.8967986285
  0
LINE
  5
2A8
100
AcDbEntity
  8
0
100
AcDbLine
 62
7
  6
CONTINUOUS
 10
253.3431743006
 20
403.3281867863
 11
253.2024921071
 21
403.4905015949
  0
LINE
  5
2A9
100
AcDbEntity
  8
0
100
AcDbLine
 62
7
  6
CONTINUOUS
 10
252.9779008335
 20
402.6258578017
 11
253.3431743006
 21
401.9889856052
  0
LINE
  5
2AA
100
AcDbEntity
  8
0
100
AcDbLine
 62
7
  6
CONTINUOUS
 10
268.4140079121
 20
333.93335069
 11
268.4140079121
 21
334.2312234121
  0
LINE
  5
2AB
100
AcDbEntity
  8
0
100
AcDbLine
 62
7
  6
CONTINUOUS
 10
268.5598406891
 20
330.5078189748
 11
268.5598406891
 21
331.1035635847
  0
LINE
  5
2AC
100
AcDbEntity
  8
0
100
AcDbLine
 62
7
  6
CONTINUOUS
 10
269.7265079121
 20
333.6354783851
 11
269.7265079121
 21
333.0397337752
  0
LINE
  5
2AD
100
AcDbEntity
  8
0
100
AcDbLine
 62
7
  6
CONTINUOUS
 10
270.8931743006
 20
334.826968022
 11
270.8931743006
 21
333.6354783851
  0
LINE
  5
2AE
100
AcDbEntity
  8
0
100
AcDbLine
 62
7
  6
CONTINUOUS
 10
270.8931743006
 20
333.0397337752
 11
270.8931743006
 21
330.0610104131
  0
LINE
  5
2AF
100
AcDbEntity
  8
0
100
AcDbLine
 62
7
  6
CONTINUOUS
 10
271.6223406891
 20
330.3588828224
 11
271.6223406891
 21
333.0397337752
  0
LINE
  5
2B0
100
AcDbEntity
  8
0
100
AcDbLine
 62
7
  6
CONTINUOUS
 10
271.6223406891
 20
333.6354783851
 11
271.6223406891
 21
334.826968022
  0
LINE
  5
2B1
100
AcDbEntity
  8
0
100
AcDbLine
 62
7
  6
CONTINUOUS
 10
272.9348406891
 20
328.8695210892
 11
272.9348406891
 21
329.4652657512
  0
LINE
  5
2B2
100
AcDbEntity
  8
0
100
AcDbLine
 62
7
  6
CONTINUOUS
 10
273.2265079121
 20
333.0397337752
 11
273.2265079121
 21
333.6354783851
  0
LINE
  5
2B3
100
AcDbEntity
  8
0
100
AcDbLine
 62
7
  6
CONTINUOUS
 10
280.2515408033
 20
400.4930602045
 11
280.2923643556
 21
400.8938487779
  0
LINE
  5
2B4
100
AcDbEntity
  8
0
100
AcDbLine
 62
7
  6
CONTINUOUS
 10
280.5890149387
 20
403.4152975349
 11
280.5481913139
 21
403.014508798
  0
LINE
  5
2B5
100
AcDbEntity
  8
0
100
AcDbLine
 62
7
  6
CONTINUOUS
 10
263.6015077035
 20
334.826968022
 11
263.4556743006
 21
334.2312234121
  0
LINE
  5
2B6
100
AcDbEntity
  8
0
100
AcDbLine
 62
7
  6
CONTINUOUS
 10
281.9231585208
 20
398.8424903576
 11
282.1250865146
 21
399.3278785866
  0
LINE
  5
2B7
100
AcDbEntity
  8
0
100
AcDbLine
 62
7
  6
CONTINUOUS
 10
280.5481913139
 20
403.014508798
 11
280.44478266
 21
402.7810682219
  0
LINE
  5
2B8
100
AcDbEntity
  8
0
100
AcDbLine
 62
7
  6
CONTINUOUS
 10
279.9930191685
 20
399.9094587643
 11
280.2515408033
 21
400.4930602045
  0
LINE
  5
2B9
100
AcDbEntity
  8
0
100
AcDbLine
 62
7
  6
CONTINUOUS
 10
281.078810107
 20
402.3605849768
 11
281.2856275597
 21
402.8274664559
  0
LINE
  5
2BA
100
AcDbEntity
  8
0
100
AcDbLine
 62
7
  6
CONTINUOUS
 10
281.5209745182
 20
399.7723430911
 11
281.2433930008
 21
399.1841273006
  0
LINE
  5
2BB
100
AcDbEntity
  8
0
100
AcDbLine
 62
7
  6
CONTINUOUS
 10
282.6557774793
 20
401.3147566591
 11
281.5209745182
 21
399.7723430911
  0
LINE
  5
2BC
100
AcDbEntity
  8
0
100
AcDbLine
 62
7
  6
CONTINUOUS
 10
282.1250865146
 20
399.3278785866
 11
283.2598894757
 21
400.8702921545
  0
LINE
  5
2BD
100
AcDbEntity
  8
0
100
AcDbLine
 62
7
  6
CONTINUOUS
 10
284.6939578465
 20
399.0227608328
 11
284.2400367044
 21
398.4057954633
  0
LINE
  5
2BE
100
AcDbEntity
  8
0
100
AcDbLine
 62
7
  6
CONTINUOUS
 10
285.146204699
 20
397.7390987064
 11
284.5409764037
 21
396.9164780696
  0
LINE
  5
2BF
100
AcDbEntity
  8
0
100
AcDbLine
 62
7
  6
CONTINUOUS
 10
285.0694348764
 20
396.3691860035
 11
286.2042378374
 21
397.9115995714
  0
LINE
  5
2C0
100
AcDbEntity
  8
0
100
AcDbLine
 62
7
  6
CONTINUOUS
 10
280.44478266
 20
402.7810682219
 11
280.1753801781
 21
402.4815349035
  0
LINE
  5
2C1
100
AcDbEntity
  8
0
100
AcDbLine
 62
7
  6
CONTINUOUS
 10
280.8094076252
 20
402.0610516584
 11
281.078810107
 21
402.3605849768
  0
LINE
  5
2C2
100
AcDbEntity
  8
0
100
AcDbLine
 62
7
  6
CONTINUOUS
 10
279.8431743006
 20
399.7428547433
 11
279.9930191685
 21
399.9094587643
  0
LINE
  5
2C3
100
AcDbEntity
  8
BEZUGSACHSEN
100
AcDbLine
 62
7
  6
CONTINUOUS
 10
221.5931743006
 20
344.3695210892
 11
219.5931743006
 21
342.3695210892
  0
LINE
  5
2C4
100
AcDbEntity
  8
0
100
AcDbLine
 62
7
  6
CONTINUOUS
 10
283.1347314105
 20
401.7548167725
 11
282.6557774793
 21
401.3147566591
  0
LINE
  5
2C5
100
AcDbEntity
  8
0
100
AcDbLine
 62
7
  6
CONTINUOUS
 10
283.2598894757
 20
400.8702921545
 11
283.6631896713
 21
401.2075244183
  0
LINE
  5
2C6
100
AcDbEntity
  8
0
100
AcDbLine
 62
7
  6
CONTINUOUS
 10
284.6661369323
 20
396.0319519722
 11
285.0694348764
 21
396.3691860035
  0
LINE
  5
2C7
100
AcDbEntity
  8
0
100
AcDbLine
 62
7
  6
CONTINUOUS
 10
284.5409764037
 20
396.9164780696
 11
284.2133320362
 21
396.6820716719
  0
LINE
  5
2C8
100
AcDbEntity
  8
0
100
AcDbLine
 62
7
  6
CONTINUOUS
 10
247.5148117261
 20
394.3023553723
 11
248.0564938911
 21
394.4498970272
  0
LINE
  5
2C9
100
AcDbEntity
  8
0
100
AcDbLine
 62
7
  6
CONTINUOUS
 10
284.3440715963
 20
402.1329727607
 11
283.6387154025
 21
402.0179727492
  0
LINE
  5
2CA
100
AcDbEntity
  8
0
100
AcDbLine
 62
7
  6
CONTINUOUS
 10
241.4549048119
 20
394.7046024405
 11
241.8079714192
 21
394.7596649749
  0
LINE
  5
2CB
100
AcDbEntity
  8
0
100
AcDbLine
 62
7
  6
CONTINUOUS
 10
247.6335965098
 20
395.1006455614
 11
247.1843874369
 21
395.0372097139
  0
LINE
  5
2CC
100
AcDbEntity
  8
0
100
AcDbLine
 62
7
  6
CONTINUOUS
 10
279.9794437173
 20
401.7305856295
 11
280.2597244303
 21
401.7460519848
  0
LINE
  5
2CD
100
AcDbEntity
  8
0
100
AcDbLine
 62
7
  6
CONTINUOUS
 10
252.0437967473
 20
404.0032692807
 11
251.4830445673
 21
403.9759861702
  0
LINE
  5
2CE
100
AcDbEntity
  8
0
100
AcDbLine
 62
7
  6
CONTINUOUS
 10
242.2438477
 20
395.3700024781
 11
241.6103606708
 21
395.3616005206
  0
LINE
  5
2CF
100
AcDbEntity
  8
0
100
AcDbLine
 62
7
  6
CONTINUOUS
 10
284.2133320362
 20
396.6820716719
 11
283.7599689377
 21
396.698648729
  0
LINE
  5
2D0
100
AcDbEntity
  8
0
100
AcDbLine
 62
7
  6
CONTINUOUS
 10
284.0915203515
 20
401.3678531215
 11
284.5448833971
 21
401.3512759924
  0
LINE
  5
2D1
100
AcDbEntity
  8
0
100
AcDbLine
 62
7
  6
CONTINUOUS
 10
251.7556920019
 20
403.2493643392
 11
252.208013094
 21
403.2144575792
  0
LINE
  5
2D2
100
AcDbEntity
  8
0
100
AcDbLine
 62
7
  6
CONTINUOUS
 10
283.4067315457
 20
396.0076070093
 11
283.960780712
 21
395.9169519246
  0
LINE
  5
2D3
100
AcDbEntity
  8
0
100
AcDbLine
 62
7
  6
CONTINUOUS
 10
284.8981207427
 20
402.042317649
 11
284.3440715963
 21
402.1329727607
  0
LINE
  5
2D4
100
AcDbEntity
  8
0
100
AcDbLine
 62
7
  6
CONTINUOUS
 10
252.731575515
 20
403.8090753082
 11
252.0437967473
 21
404.0032692807
  0
LINE
  5
2D5
100
AcDbEntity
  8
0
100
AcDbLine
 62
7
  6
CONTINUOUS
 10
283.7599689377
 20
396.698648729
 11
283.281573315
 21
396.8921314023
  0
LINE
  5
2D6
100
AcDbEntity
  8
0
100
AcDbLine
 62
7
  6
CONTINUOUS
 10
282.8276521199
 20
396.2751659607
 11
283.4067315457
 21
396.0076070093
  0
LINE
  5
2D7
100
AcDbEntity
  8
0
100
AcDbLine
 62
7
  6
CONTINUOUS
 10
252.208013094
 20
403.2144575792
 11
252.6154165701
 21
403.0066220972
  0
LINE
  5
2D8
100
AcDbEntity
  8
0
100
AcDbLine
 62
7
  6
CONTINUOUS
 10
281.9214841253
 20
396.9418627176
 11
282.8276521199
 21
396.2751659607
  0
LINE
  5
2D9
100
AcDbEntity
  8
0
100
AcDbLine
 62
7
  6
CONTINUOUS
 10
283.281573315
 20
396.8921314023
 11
282.3754053204
 21
397.5588281591
  0
LINE
  5
2DA
100
AcDbEntity
  8
KONSTRUKTIONSELEMENTE
100
AcDbLine
 62
7
  6
CONTINUOUS
 10
279.8431743006
 20
378.6195210892
 11
279.8431743006
 21
544.1195210892
  0
LINE
  5
2DB
100
AcDbEntity
  8
KONSTRUKTIONSELEMENTE
100
AcDbLine
 62
7
  6
CONTINUOUS
 10
286.661806541
 20
342.3695210892
 11
286.661806541
 21
307.3695210892
  0
LINE
  5
2DC
100
AcDbEntity
  8
0
100
AcDbLine
 62
7
  6
CONTINUOUS
 10
290.5931743006
 20
296.8695210892
 11
290.5931743006
 21
231.8695210892
  0
LINE
  5
2DD
100
AcDbEntity
  8
0
100
AcDbLine
 62
7
  6
CONTINUOUS
 10
281.8975678471
 20
398.3858534031
 11
281.9231585208
 21
398.8424903576
  0
LINE
  5
2DE
100
AcDbEntity
  8
0
100
AcDbLine
 62
7
  6
CONTINUOUS
 10
281.2856275597
 20
402.8274664559
 11
281.3264510396
 21
403.2282548658
  0
LINE
  5
2DF
100
AcDbEntity
  8
0
100
AcDbLine
 62
7
  6
CONTINUOUS
 10
281.2433930008
 20
399.1841273006
 11
281.1421487504
 21
398.6246627125
  0
LINE
  5
2E0
100
AcDbEntity
  8
0
100
AcDbLine
 62
7
  6
CONTINUOUS
 10
268.2681743006
 20
333.3376060802
 11
268.4140079121
 21
333.93335069
  0
LINE
  5
2E1
100
AcDbEntity
  8
0
100
AcDbLine
 62
7
  6
CONTINUOUS
 10
268.4140079121
 20
330.0610104131
 11
268.5598406891
 21
330.5078189748
  0
LINE
  5
2E2
100
AcDbEntity
  8
0
100
AcDbLine
 62
7
  6
CONTINUOUS
 10
286.4072845407
 20
399.6640713903
 11
286.2810075541
 21
399.2815121303
  0
LINE
  5
2E3
100
AcDbEntity
  8
0
100
AcDbLine
 62
7
  6
CONTINUOUS
 10
286.8851195505
 20
398.8370476258
 11
287.1627035844
 21
399.4252620089
  0
LINE
  5
2E4
100
AcDbEntity
  8
0
100
AcDbLine
 62
7
  6
CONTINUOUS
 10
251.2584531158
 20
403.1113426872
 11
251.7556920019
 21
403.2493643392
  0
LINE
  5
2E5
100
AcDbEntity
  8
0
100
AcDbLine
 62
7
  6
CONTINUOUS
 10
284.5448833971
 20
401.3512759924
 11
285.0232790198
 21
401.1577933191
  0
LINE
  5
2E6
100
AcDbEntity
  8
0
100
AcDbLine
 62
7
  6
CONTINUOUS
 10
279.8431743006
 20
404.164559543
 11
280.1726856465
 21
404.0185938103
  0
LINE
  5
2E7
100
AcDbEntity
  8
0
100
AcDbLine
 62
7
  6
CONTINUOUS
 10
280.3686221073
 20
404.7695430844
 11
279.8431743006
 21
405.002304035
  0
LINE
  5
2E8
100
AcDbEntity
  8
0
100
AcDbLine
 62
7
  6
CONTINUOUS
 10
285.4772001619
 20
401.7747586887
 11
284.8981207427
 21
402.042317649
  0
LINE
  5
2E9
100
AcDbEntity
  8
0
100
AcDbLine
 62
7
  6
CONTINUOUS
 10
280.8883626692
 20
404.3996862263
 11
280.3686221073
 21
404.7695430844
  0
LINE
  5
2EA
100
AcDbEntity
  8
0
100
AcDbLine
 62
7
  6
CONTINUOUS
 10
284.2400367044
 20
398.4057954633
 11
285.146204699
 21
397.7390987064
  0
LINE
  5
2EB
100
AcDbEntity
  8
0
100
AcDbLine
 62
7
  6
CONTINUOUS
 10
286.2042378374
 20
397.9115995714
 11
284.6939578465
 21
399.0227608328
  0
LINE
  5
2EC
100
AcDbEntity
  8
0
100
AcDbLine
 62
7
  6
CONTINUOUS
 10
286.2810075541
 20
399.2815121303
 11
286.8851195505
 21
398.8370476258
  0
LINE
  5
2ED
100
AcDbEntity
  8
0
100
AcDbLine
 62
7
  6
CONTINUOUS
 10
285.0232790198
 20
401.1577933191
 11
285.9294470144
 21
400.4910965622
  0
LINE
  5
2EE
100
AcDbEntity
  8
0
100
AcDbLine
 62
7
  6
CONTINUOUS
 10
286.3833681565
 20
401.1080619318
 11
285.4772001619
 21
401.7747586887
  0
LINE
  5
2EF
100
AcDbEntity
  8
0
100
AcDbLine
 62
7
  6
CONTINUOUS
 10
280.1726856465
 20
404.0185938103
 11
280.4638472065
 21
403.7499920438
  0
LINE
  5
2F0
100
AcDbEntity
  8
0
100
AcDbLine
 62
7
  6
CONTINUOUS
 10
281.4937117602
 20
397.4150768101
 11
281.9214841253
 21
396.9418627176
  0
LINE
  5
2F1
100
AcDbEntity
  8
0
100
AcDbLine
 62
7
  6
CONTINUOUS
 10
286.8111405283
 20
400.6348478482
 11
286.3833681565
 21
401.1080619318
  0
LINE
  5
2F2
100
AcDbEntity
  8
0
100
AcDbLine
 62
7
  6
CONTINUOUS
 10
282.3754053204
 20
397.5588281591
 11
282.0483167449
 21
397.9579659556
  0
LINE
  5
2F3
100
AcDbEntity
  8
0
100
AcDbLine
 62
7
  6
CONTINUOUS
 10
285.9294470144
 20
400.4910965622
 11
286.2565355898
 21
400.0919587658
  0
LINE
  5
2F4
100
AcDbEntity
  8
0
100
AcDbLine
 62
7
  6
CONTINUOUS
 10
280.1563157764
 20
401.5126114087
 11
279.9794437173
 21
401.7305856295
  0
LINE
  5
2F5
100
AcDbEntity
  8
0
100
AcDbLine
 62
7
  6
CONTINUOUS
 10
281.1904024605
 20
403.8470174966
 11
280.8883626692
 21
404.3996862263
  0
LINE
  5
2F6
100
AcDbEntity
  8
0
100
AcDbLine
 62
7
  6
CONTINUOUS
 10
281.2422767283
 20
397.9170421952
 11
281.4937117602
 21
397.4150768101
  0
LINE
  5
2F7
100
AcDbEntity
  8
0
100
AcDbLine
 62
7
  6
CONTINUOUS
 10
287.06257558
 20
400.1328824902
 11
286.8111405283
 21
400.6348478482
  0
LINE
  5
2F8
100
AcDbEntity
  8
0
100
AcDbLine
 62
7
  6
CONTINUOUS
 10
280.4638472065
 20
403.7499920438
 11
280.5890149387
 21
403.4152975349
  0
LINE
  5
2F9
100
AcDbEntity
  8
0
100
AcDbLine
 62
7
  6
CONTINUOUS
 10
282.0483167449
 20
397.9579659556
 11
281.8975678471
 21
398.3858534031
  0
LINE
  5
2FA
100
AcDbEntity
  8
0
100
AcDbLine
 62
7
  6
CONTINUOUS
 10
286.2565355898
 20
400.0919587658
 11
286.4072845407
 21
399.6640713903
  0
LINE
  5
2FB
100
AcDbEntity
  8
0
100
AcDbLine
 62
7
  6
CONTINUOUS
 10
280.2923643556
 20
400.8938487779
 11
280.1563157764
 21
401.5126114087
  0
LINE
  5
2FC
100
AcDbEntity
  8
0
100
AcDbLine
 62
7
  6
CONTINUOUS
 10
281.3264510396
 20
403.2282548658
 11
281.1904024605
 21
403.8470174966
  0
LINE
  5
2FD
100
AcDbEntity
  8
0
100
AcDbLine
 62
7
  6
CONTINUOUS
 10
281.1421487504
 20
398.6246627125
 11
281.2422767283
 21
397.9170421952
  0
LINE
  5
2FE
100
AcDbEntity
  8
0
100
AcDbLine
 62
7
  6
CONTINUOUS
 10
287.1627035844
 20
399.4252620089
 11
287.06257558
 21
400.1328824902
  0
LINE
  5
2FF
100
AcDbEntity
  8
0
100
AcDbLine
 62
7
  6
CONTINUOUS
 10
267.6848406891
 20
333.93335069
 11
267.3931743006
 21
333.3376060802
  0
LINE
  5
300
100
AcDbEntity
  8
0
100
AcDbLine
 62
7
  6
CONTINUOUS
 10
267.8306743006
 20
330.5078189748
 11
267.6848406891
 21
330.2099466699
  0
LINE
  5
301
100
AcDbEntity
  8
0
100
AcDbLine
 62
7
  6
CONTINUOUS
 10
264.1848411063
 20
334.2312234121
 11
264.4765074948
 21
334.6780318695
  0
LINE
  5
302
100
AcDbEntity
  8
0
100
AcDbLine
 62
7
  6
CONTINUOUS
 10
267.9765079121
 20
332.8907976228
 11
268.2681743006
 21
333.3376060802
  0
LINE
  5
303
100
AcDbEntity
  8
0
100
AcDbLine
 62
7
  6
CONTINUOUS
 10
261.2681743006
 20
335.8695210892
 11
260.3931743006
 21
334.826968022
  0
LINE
  5
304
100
AcDbEntity
  8
0
100
AcDbLine
 62
7
  6
CONTINUOUS
 10
260.3931743006
 20
333.6354783851
 11
261.2681743006
 21
334.6780318695
  0
LINE
  5
305
100
AcDbEntity
  8
BEZUGSACHSEN
100
AcDbLine
 62
7
  6
CONTINUOUS
 10
219.007387863
 20
305.7837346515
 11
217.5931743006
 21
304.3695210892
  0
LINE
  5
306
100
AcDbEntity
  8
RUNDUNGEN
100
AcDbLine
 62
7
  6
CONTINUOUS
 10
296.7408243683
 20
407.6819555575
 11
279.8431743006
 21
414.6811913877
  0
LINE
  5
307
100
AcDbEntity
  8
BEZUGSACHSEN
100
AcDbLine
 62
7
  6
CONTINUOUS
 10
310.7588384596
 20
376.9009432795
 11
298.9056087689
 21
405.5171711569
  0
LINE
  5
308
100
AcDbEntity
  8
BEZUGSACHSEN
100
AcDbLine
 62
7
  6
CONTINUOUS
 10
306.5931743006
 20
363.1845588876
 11
306.5931743006
 21
344.3695210892
  0
LINE
  5
309
100
AcDbEntity
  8
BEZUGSACHSEN
100
AcDbLine
 62
7
  6
CONTINUOUS
 10
313.5931743006
 20
342.3695210892
 11
313.5931743006
 21
307.1979482139
  0
LINE
  5
30A
100
AcDbEntity
  8
0
100
AcDbLine
 62
7
  6
CONTINUOUS
 10
268.1223406891
 20
329.6142019558
 11
268.4140079121
 21
330.0610104131
  0
LINE
  5
30B
100
AcDbEntity
  8
0
100
AcDbLine
 62
7
  6
CONTINUOUS
 10
264.1848411063
 20
335.4227126318
 11
263.6015077035
 21
334.826968022
  0
LINE
  5
30C
100
AcDbEntity
  8
0
100
AcDbLine
 62
7
  6
CONTINUOUS
 10
267.3931743006
 20
333.3376060802
 11
267.1015074948
 21
333.0397337752
  0
LINE
  5
30D
100
AcDbEntity
  8
0
100
AcDbLine
 62
7
  6
CONTINUOUS
 10
267.6848406891
 20
330.2099466699
 11
267.3931743006
 21
329.9120742607
  0
LINE
  5
30E
100
AcDbEntity
  8
0
100
AcDbLine
 62
7
  6
CONTINUOUS
 10
264.4765074948
 20
334.6780318695
 11
264.9140074948
 21
334.9759041744
  0
LINE
  5
30F
100
AcDbEntity
  8
BEZUGSACHSEN
100
AcDbLine
 62
7
  6
CONTINUOUS
 10
315.5931743006
 20
304.3695210892
 11
315.5931743006
 21
297.3695210892
  0
LINE
  5
310
100
AcDbEntity
  8
BEZUGSACHSEN
100
AcDbLine
 62
7
  6
CONTINUOUS
 10
303.1179580537
 20
355.3913817943
 11
310.7591236295
 21
373.8387873597
  0
LINE
  5
311
100
AcDbEntity
  8
0
100
AcDbLine
 62
7
  6
CONTINUOUS
 10
267.3931743006
 20
332.4439891654
 11
267.9765079121
 21
332.8907976228
  0
LINE
  5
312
100
AcDbEntity
  8
0
100
AcDbLine
 62
7
  6
CONTINUOUS
 10
267.6848406891
 20
329.3163295987
 11
268.1223406891
 21
329.6142019558
  0
LINE
  5
313
100
AcDbEntity
  8
0
100
AcDbLine
 62
7
  6
CONTINUOUS
 10
264.7681743006
 20
335.7205849367
 11
264.1848411063
 21
335.4227126318
  0
LINE
  5
314
100
AcDbEntity
  8
0
100
AcDbLine
 62
7
  6
CONTINUOUS
 10
267.3931743006
 20
329.9120742607
 11
267.1015074948
 21
329.7631381082
  0
LINE
  5
315
100
AcDbEntity
  8
0
100
AcDbLine
 62
7
  6
CONTINUOUS
 10
267.1015074948
 20
329.0184572547
 11
267.6848406891
 21
329.3163295987
  0
LINE
  5
316
100
AcDbEntity
  8
0
100
AcDbLine
 62
7
  6
CONTINUOUS
 10
267.1015074948
 20
333.0397337752
 11
266.2265074948
 21
332.7418614703
  0
LINE
  5
317
100
AcDbEntity
  8
FASEN
100
AcDbLine
 62
7
  6
CONTINUOUS
 10
315.5931743006
 20
297.3695210892
 11
315.0931743006
 21
296.8695210892
  0
LINE
  5
318
100
AcDbEntity
  8
0
100
AcDbLine
 62
7
  6
CONTINUOUS
 10
290.5931743006
 20
231.8695210892
 11
287.5931743006
 21
228.8695210892
  0
LINE
  5
319
100
AcDbEntity
  8
0
100
AcDbLine
 62
7
  6
CONTINUOUS
 10
464.1215422517
 20
228.8695210892
 11
506.1214068128
 21
228.8695210892
  0
LINE
  5
31A
100
AcDbEntity
  8
0
100
AcDbLine
 62
7
  6
CONTINUOUS
 10
461.1214745323
 20
231.8695210892
 11
509.1214745323
 21
231.8695210892
  0
LINE
  5
31B
100
AcDbEntity
  8
0
100
AcDbLine
 62
7
  6
CONTINUOUS
 10
461.1214745323
 20
231.8695210892
 11
464.1214745323
 21
228.8695210892
  0
LINE
  5
31C
100
AcDbEntity
  8
FASEN
100
AcDbLine
 62
7
  6
CONTINUOUS
 10
436.6215678295
 20
296.8695210892
 11
533.621381235
 21
296.8695210892
  0
LINE
  5
31D
100
AcDbEntity
  8
FASEN
100
AcDbLine
 62
7
  6
CONTINUOUS
 10
436.1214745323
 20
297.3695210892
 11
534.1214745323
 21
297.3695210892
  0
LINE
  5
31E
100
AcDbEntity
  8
FASEN
100
AcDbLine
 62
7
  6
CONTINUOUS
 10
436.1214745323
 20
297.3695210892
 11
436.6214745323
 21
296.8695210892
  0
LINE
  5
31F
100
AcDbEntity
  8
BEZUGSACHSEN
100
AcDbLine
 62
7
  6
CONTINUOUS
 10
436.1214745323
 20
304.3695210892
 11
534.1214745323
 21
304.3695210892
  0
LINE
  5
320
100
AcDbEntity
  8
KONSTRUKTIONSELEMENTE
100
AcDbLine
 62
7
  6
CONTINUOUS
 10
533.1213111566
 20
305.3695210892
 11
529.6214745323
 21
305.3695210892
  0
LINE
  5
321
100
AcDbEntity
  8
KONSTRUKTIONSELEMENTE
100
AcDbLine
 62
7
  6
CONTINUOUS
 10
440.6214745323
 20
305.3695210892
 11
437.1216379079
 21
305.3695210892
  0
LINE
  5
322
100
AcDbEntity
  8
KONSTRUKTIONSELEMENTE
100
AcDbLine
 62
7
  6
CONTINUOUS
 10
426.1214745323
 20
498.3695210892
 11
426.1214745323
 21
424.3695210892
  0
LINE
  5
323
100
AcDbEntity
  8
BEZUGSACHSEN
100
AcDbLine
 62
7
  6
CONTINUOUS
 10
436.1214745323
 20
304.3695210892
 11
436.1214745323
 21
297.3695210892
  0
LINE
  5
324
100
AcDbEntity
  8
KONSTRUKTIONSELEMENTE
100
AcDbLine
 62
7
  6
CONTINUOUS
 10
527.6214745323
 20
342.3695210892
 11
442.6214745323
 21
342.3695210892
  0
LINE
  5
325
100
AcDbEntity
  8
KONSTRUKTIONSELEMENTE
100
AcDbLine
 62
7
  6
CONTINUOUS
 10
442.6214745323
 20
344.3695210892
 11
527.6214745323
 21
344.3695210892
  0
LINE
  5
326
100
AcDbEntity
  8
KONSTRUKTIONSELEMENTE
100
AcDbLine
 62
7
  6
CONTINUOUS
 10
442.6214745323
 20
307.3695210892
 11
442.6214745323
 21
344.3695210892
  0
LINE
  5
327
100
AcDbEntity
  8
BEZUGSACHSEN
100
AcDbLine
 62
7
  6
CONTINUOUS
 10
445.1214745323
 20
349.8695210892
 11
445.1214745323
 21
344.3695210892
  0
LINE
  5
328
100
AcDbEntity
  8
BEZUGSACHSEN
100
AcDbLine
 62
7
  6
CONTINUOUS
 10
521.1214745323
 20
353.8695210892
 11
509.7803229033
 21
353.8695210892
  0
LINE
  5
329
100
AcDbEntity
  8
BEZUGSACHSEN
100
AcDbLine
 62
7
  6
CONTINUOUS
 10
460.46224044
 20
353.8695210892
 11
449.1214745323
 21
353.8695210892
  0
LINE
  5
32A
100
AcDbEntity
  8
KONSTRUKTIONSELEMENTE
100
AcDbLine
 62
7
  6
CONTINUOUS
 10
452.6214745323
 20
498.3695210892
 11
452.6214745323
 21
424.3695210892
  0
LINE
  5
32B
100
AcDbEntity
  8
0
100
AcDbLine
 62
7
  6
CONTINUOUS
 10
461.1214745323
 20
296.8695210892
 11
461.1214745323
 21
231.8695210892
  0
LINE
  5
32C
100
AcDbEntity
  8
BEZUGSACHSEN
100
AcDbLine
 62
7
  6
CONTINUOUS
 10
533.1214745323
 20
305.3695210892
 11
534.1214745323
 21
304.3695210892
  0
LINE
  5
32D
100
AcDbEntity
  8
0
100
AcDbLine
 62
7
  6
CONTINUOUS
 10
472.1214745323
 20
397.6283144103
 11
472.1214745323
 21
403.598239033
  0
LINE
  5
32E
100
AcDbEntity
  8
BEZUGSACHSEN
100
AcDbLine
 62
7
  6
CONTINUOUS
 10
472.6214745323
 20
386.5145710643
 11
472.6214745323
 21
416.3811483881
  0
LINE
  5
32F
100
AcDbEntity
  8
RUNDUNGEN
100
AcDbLine
 62
7
  6
CONTINUOUS
 10
464.3465158938
 20
358.1033509587
 11
463.8093410103
 21
356.3463310843
  0
LINE
  5
330
100
AcDbEntity
  8
BEZUGSACHSEN
100
AcDbLine
 62
7
  6
CONTINUOUS
 10
463.8093410103
 20
356.3463310843
 11
472.2282173359
 21
383.8832347588
  0
LINE
  5
331
100
AcDbEntity
  8
0
100
AcDbLine
 62
7
  6
CONTINUOUS
 10
497.6214745323
 20
388.8145008006
 11
498.6214745323
 21
388.8145008006
  0
LINE
  5
332
100
AcDbEntity
  8
0
100
AcDbLine
 62
7
  6
CONTINUOUS
 10
497.6214745323
 20
392.301511047
 11
498.6214745323
 21
392.301511047
  0
LINE
  5
333
100
AcDbEntity
  8
BEZUGSACHSEN
100
AcDbLine
 62
7
  6
CONTINUOUS
 10
497.6214745323
 20
386.5145710643
 11
497.6214745323
 21
416.3811483881
  0
LINE
  5
334
100
AcDbEntity
  8
0
100
AcDbLine
 62
7
  6
CONTINUOUS
 10
497.6214745323
 20
394.7428610599
 11
498.6214745323
 21
394.7428610599
  0
LINE
  5
335
100
AcDbEntity
  8
0
100
AcDbLine
 62
7
  6
CONTINUOUS
 10
497.6214745323
 20
395.1772840444
 11
498.6214745323
 21
395.1772840444
  0
LINE
  5
336
100
AcDbEntity
  8
0
100
AcDbLine
 62
7
  6
CONTINUOUS
 10
497.6214745323
 20
395.3616005206
 11
498.6214745323
 21
395.3616005206
  0
LINE
  5
337
100
AcDbEntity
  8
0
100
AcDbLine
 62
7
  6
CONTINUOUS
 10
497.6214745323
 20
395.3700024781
 11
498.6214745323
 21
395.3700024781
  0
LINE
  5
338
100
AcDbEntity
  8
0
100
AcDbLine
 62
7
  6
CONTINUOUS
 10
472.6214745323
 20
397.6283144103
 11
472.1214745323
 21
397.6283144103
  0
LINE
  5
339
100
AcDbEntity
  8
0
100
AcDbLine
 62
7
  6
CONTINUOUS
 10
497.6214745323
 20
397.8689965838
 11
498.6214745323
 21
397.8689965838
  0
LINE
  5
33A
100
AcDbEntity
  8
0
100
AcDbLine
 62
7
  6
CONTINUOUS
 10
497.6214745323
 20
398.3736304584
 11
498.6214745323
 21
398.3736304584
  0
LINE
  5
33B
100
AcDbEntity
  8
0
100
AcDbLine
 62
7
  6
CONTINUOUS
 10
472.6214745323
 20
398.5348157526
 11
472.1214745323
 21
398.5348157526
  0
LINE
  5
33C
100
AcDbEntity
  8
0
100
AcDbLine
 62
7
  6
CONTINUOUS
 10
472.6214745323
 20
400.1632767216
 11
472.1214745323
 21
400.1632767216
  0
LINE
  5
33D
100
AcDbEntity
  8
0
100
AcDbLine
 62
7
  6
CONTINUOUS
 10
497.6214745323
 20
400.3921649945
 11
498.6214745323
 21
400.3921649945
  0
LINE
  5
33E
100
AcDbEntity
  8
0
100
AcDbLine
 62
7
  6
CONTINUOUS
 10
497.6214745323
 20
400.8967986285
 11
498.6214745323
 21
400.8967986285
  0
LINE
  5
33F
100
AcDbEntity
  8
0
100
AcDbLine
 62
7
  6
CONTINUOUS
 10
472.6214745323
 20
401.0697780639
 11
472.1214745323
 21
401.0697780639
  0
LINE
  5
340
100
AcDbEntity
  8
0
100
AcDbLine
 62
7
  6
CONTINUOUS
 10
497.6214745323
 20
402.2832113519
 11
498.6214745323
 21
402.2832113519
  0
LINE
  5
341
100
AcDbEntity
  8
0
100
AcDbLine
 62
7
  6
CONTINUOUS
 10
472.6214745323
 20
402.6917376907
 11
472.1214745323
 21
402.6917376907
  0
LINE
  5
342
100
AcDbEntity
  8
0
100
AcDbLine
 62
7
  6
CONTINUOUS
 10
472.6214745323
 20
403.598239033
 11
472.1214745323
 21
403.598239033
  0
LINE
  5
343
100
AcDbEntity
  8
0
100
AcDbLine
 62
7
  6
CONTINUOUS
 10
497.6214745323
 20
403.775773936
 11
498.6214745323
 21
403.775773936
  0
LINE
  5
344
100
AcDbEntity
  8
0
100
AcDbLine
 62
7
  6
CONTINUOUS
 10
497.6214745323
 20
403.9759861702
 11
498.6214745323
 21
403.9759861702
  0
LINE
  5
345
100
AcDbEntity
  8
0
100
AcDbLine
 62
7
  6
CONTINUOUS
 10
497.6214745323
 20
404.0032692807
 11
498.6214745323
 21
404.0032692807
  0
LINE
  5
346
100
AcDbEntity
  8
BEZUGSACHSEN
100
AcDbLine
 62
7
  6
CONTINUOUS
 10
506.4336080543
 20
356.3463310843
 11
498.0147317286
 21
383.8832347588
  0
LINE
  5
347
100
AcDbEntity
  8
0
100
AcDbLine
 62
7
  6
CONTINUOUS
 10
498.6214745323
 20
407.8737578368
 11
498.6214745323
 21
407.6386519752
  0
LINE
  5
348
100
AcDbEntity
  8
0
100
AcDbLine
 62
7
  6
CONTINUOUS
 10
498.6214745323
 20
407.5882721615
 11
498.6214745323
 21
395.3700024781
  0
LINE
  5
349
100
AcDbEntity
  8
0
100
AcDbLine
 62
7
  6
CONTINUOUS
 10
498.6214745323
 20
395.3616005206
 11
498.6214745323
 21
388.8145008006
  0
LINE
  5
34A
100
AcDbEntity
  8
0
100
AcDbLine
 62
7
  6
CONTINUOUS
 10
509.1214745323
 20
296.8695210892
 11
509.1214745323
 21
231.8695210892
  0
LINE
  5
34B
100
AcDbEntity
  8
0
100
AcDbLine
 62
7
  6
CONTINUOUS
 10
497.6214745323
 20
407.5882721615
 11
498.6214745323
 21
407.5882721615
  0
LINE
  5
34C
100
AcDbEntity
  8
0
100
AcDbLine
 62
7
  6
CONTINUOUS
 10
497.6214745323
 20
407.6386519752
 11
498.6214745323
 21
407.6386519752
  0
LINE
  5
34D
100
AcDbEntity
  8
0
100
AcDbLine
 62
7
  6
CONTINUOUS
 10
497.6214745323
 20
407.8737578368
 11
498.6214745323
 21
407.8737578368
  0
LINE
  5
34E
100
AcDbEntity
  8
0
100
AcDbLine
 62
7
  6
CONTINUOUS
 10
497.6214745323
 20
407.9241376505
 11
498.6214745323
 21
407.9241376505
  0
LINE
  5
34F
100
AcDbEntity
  8
KONSTRUKTIONSELEMENTE
100
AcDbLine
 62
7
  6
CONTINUOUS
 10
517.6214745323
 20
424.3695210892
 11
517.6214745323
 21
498.3695210892
  0
LINE
  5
350
100
AcDbEntity
  8
BEZUGSACHSEN
100
AcDbLine
 62
7
  6
CONTINUOUS
 10
437.1214745323
 20
305.3695210892
 11
436.1214745323
 21
304.3695210892
  0
LINE
  5
351
100
AcDbEntity
  8
RUNDUNGEN
100
AcDbLine
 62
7
  6
CONTINUOUS
 10
495.5491947054
 20
419.8399502794
 11
495.5493150398
 21
419.8399508443
  0
LINE
  5
352
100
AcDbEntity
  8
RUNDUNGEN
100
AcDbLine
 62
7
  6
CONTINUOUS
 10
474.6936612842
 20
419.839952288
 11
495.5492877804
 21
419.839952288
  0
LINE
  5
353
100
AcDbEntity
  8
RUNDUNGEN
100
AcDbLine
 62
7
  6
CONTINUOUS
 10
474.6936340248
 20
419.8399508443
 11
474.6937543591
 21
419.8399502794
  0
LINE
  5
354
100
AcDbEntity
  8
BEZUGSACHSEN
100
AcDbLine
 62
7
  6
CONTINUOUS
 10
525.1214745323
 20
344.3695210892
 11
525.1214745323
 21
349.8695210892
  0
LINE
  5
355
100
AcDbEntity
  8
KONSTRUKTIONSELEMENTE
100
AcDbLine
 62
7
  6
CONTINUOUS
 10
527.6214745323
 20
344.3695210892
 11
527.6214745323
 21
307.3695210892
  0
LINE
  5
356
100
AcDbEntity
  8
BEZUGSACHSEN
100
AcDbLine
 62
7
  6
CONTINUOUS
 10
534.1214745323
 20
304.3695210892
 11
534.1214745323
 21
297.3695210892
  0
LINE
  5
357
100
AcDbEntity
  8
KONSTRUKTIONSELEMENTE
100
AcDbLine
 62
7
  6
CONTINUOUS
 10
544.1214745323
 20
424.3695210892
 11
544.1214745323
 21
498.3695210892
  0
LINE
  5
358
100
AcDbEntity
  8
FASEN
100
AcDbLine
 62
7
  6
CONTINUOUS
 10
534.1214745323
 20
297.3695210892
 11
533.6214745323
 21
296.8695210892
  0
LINE
  5
359
100
AcDbEntity
  8
0
100
AcDbLine
 62
7
  6
CONTINUOUS
 10
509.1214745323
 20
231.8695210892
 11
506.1214745323
 21
228.8695210892
  0
LWPOLYLINE
  5
35A
100
AcDbEntity
  8
BEZUGSACHSEN
100
AcDbPolyline
 62
7
  6
CONTINUOUS
 90
7
 70
0
 10
222.1225940417
 20
116.9533740825
 10
222.1373811496
 20
116.6297367715
 10
222.2432956423
 20
116.03588324
 10
222.4487537936
 20
115.4673371304
 10
222.7485427052
 20
114.9401396327
 10
223.1328237774
 20
114.4712756251
 10
223.557632824
 20
114.0972520622
  0
LINE
  5
35B
100
AcDbEntity
  8
BEZUGSACHSEN
100
AcDbLine
 62
7
  6
CONTINUOUS
 10
222.122743102
 20
140.6257494155
 11
222.1227449252
 21
140.6256041637
  0
LINE
  5
35C
100
AcDbEntity
  8
BEZUGSACHSEN
100
AcDbLine
 62
7
  6
CONTINUOUS
 10
222.1227431017
 20
116.9532443871
 11
222.1227431017
 21
140.6257462601
  0
LINE
  5
35D
100
AcDbEntity
  8
BEZUGSACHSEN
100
AcDbLine
 62
7
  6
CONTINUOUS
 10
222.122743102
 20
116.9532412317
 11
222.122744722
 21
116.9533782498
  0
LINE
  5
35E
100
AcDbEntity
  8
KONSTRUKTIONSELEMENTE
100
AcDbLine
 62
7
  6
CONTINUOUS
 10
286.661806541
 20
86.2894953236
 11
279.8431743006
 21
86.2894953236
  0
LINE
  5
35F
100
AcDbEntity
  8
KONSTRUKTIONSELEMENTE
100
AcDbLine
 62
7
  6
CONTINUOUS
 10
253.3431743006
 20
86.2894953236
 11
246.5245420602
 21
86.2894953236
  0
LWPOLYLINE
  5
360
100
AcDbEntity
  8
BEZUGSACHSEN
100
AcDbPolyline
 62
7
  6
CONTINUOUS
 90
7
 70
0
 10
223.5583611791
 20
143.4822886863
 10
223.1406952901
 20
143.1157940312
 10
222.7576338793
 20
142.6520183846
 10
222.4573453114
 20
142.1301548373
 10
222.2498021161
 20
141.5670740491
 10
222.1401736604
 20
140.9784081741
 10
222.1225942484
 20
140.6256083347
  0
LWPOLYLINE
  5
361
100
AcDbEntity
  8
BEZUGSACHSEN
100
AcDbPolyline
 62
7
  6
CONTINUOUS
 90
5
 70
0
 10
231.3173893477
 20
149.14814802
 10
231.071282355
 20
148.9980635083
 10
230.8215730967
 20
148.8343053953
 10
230.5654059394
 20
148.6541868988
 10
223.5823191283
 20
143.5002423038
  0
LINE
  5
362
100
AcDbEntity
  8
BEZUGSACHSEN
100
AcDbLine
 62
7
  6
CONTINUOUS
 10
231.530392998
 20
149.2689731306
 11
231.3173893477
 21
149.14814802
  0
LINE
  5
363
100
AcDbEntity
  8
BEZUGSACHSEN
100
AcDbLine
 62
7
  6
CONTINUOUS
 10
231.3173893477
 20
108.4308426272
 11
231.530392998
 21
108.3100175166
  0
LWPOLYLINE
  5
364
100
AcDbEntity
  8
BEZUGSACHSEN
100
AcDbPolyline
 62
7
  6
CONTINUOUS
 90
4
 70
0
 10
230.5654059394
 20
108.9248037484
 10
230.8215730967
 20
108.7446852519
 10
231.071282355
 20
108.580927139
 10
231.3173893477
 20
108.4308426272
  0
LINE
  5
365
100
AcDbEntity
  8
BEZUGSACHSEN
100
AcDbLine
 62
7
  6
CONTINUOUS
 10
230.5654059394
 20
108.9248037484
 11
223.5823191283
 21
114.0787483434
  0
LINE
  5
366
100
AcDbEntity
  8
BEZUGSACHSEN
100
AcDbLine
 62
7
  6
CONTINUOUS
 10
231.670367331
 20
149.3450481635
 11
231.5302468425
 21
149.26880594
  0
LINE
  5
367
100
AcDbEntity
  8
BEZUGSACHSEN
100
AcDbLine
 62
7
  6
CONTINUOUS
 10
231.5298634801
 20
108.3103942048
 11
231.6691389059
 21
108.2346091754
  0
LINE
  5
368
100
AcDbEntity
  8
0
100
AcDbLine
 62
7
  6
CONTINUOUS
 10
238.7974922375
 20
116.2894953236
 11
238.7974922375
 21
115.2894953236
  0
LINE
  5
369
100
AcDbEntity
  8
0
100
AcDbLine
 62
7
  6
CONTINUOUS
 10
240.5409973608
 20
116.2894953236
 11
240.5409973608
 21
115.2894953236
  0
LINE
  5
36A
100
AcDbEntity
  8
0
100
AcDbLine
 62
7
  6
CONTINUOUS
 10
241.0081148862
 20
116.2894953236
 11
241.0081148862
 21
115.2894953236
  0
LINE
  5
36B
100
AcDbEntity
  8
0
100
AcDbLine
 62
7
  6
CONTINUOUS
 10
241.6103606708
 20
116.2894953236
 11
241.6103606708
 21
115.2894953236
  0
LINE
  5
36C
100
AcDbEntity
  8
0
100
AcDbLine
 62
7
  6
CONTINUOUS
 10
242.2438477
 20
116.2894953236
 11
242.2438477
 21
115.2894953236
  0
LINE
  5
36D
100
AcDbEntity
  8
0
100
AcDbLine
 62
7
  6
CONTINUOUS
 10
242.6281553441
 20
116.2894953236
 11
242.6281553441
 21
115.2894953236
  0
LINE
  5
36E
100
AcDbEntity
  8
0
100
AcDbLine
 62
7
  6
CONTINUOUS
 10
243.043704524
 20
116.2894953236
 11
243.043704524
 21
115.2894953236
  0
LINE
  5
36F
100
AcDbEntity
  8
0
100
AcDbLine
 62
7
  6
CONTINUOUS
 10
243.0881173282
 20
116.2894953236
 11
243.0881173282
 21
115.2894953236
  0
LINE
  5
370
100
AcDbEntity
  8
0
100
AcDbLine
 62
7
  6
CONTINUOUS
 10
243.6429553127
 20
116.2894953236
 11
243.6429553127
 21
115.2894953236
  0
LINE
  5
371
100
AcDbEntity
  8
0
100
AcDbLine
 62
7
  6
CONTINUOUS
 10
245.8623061923
 20
116.2894953236
 11
245.8623061923
 21
115.2894953236
  0
LINE
  5
372
100
AcDbEntity
  8
0
100
AcDbLine
 62
7
  6
CONTINUOUS
 10
246.4171439122
 20
116.2894953236
 11
246.4171439122
 21
115.2894953236
  0
LINE
  5
373
100
AcDbEntity
  8
0
100
AcDbLine
 62
7
  6
CONTINUOUS
 10
248.2750173176
 20
116.2894953236
 11
248.2750173176
 21
115.2894953236
  0
LINE
  5
374
100
AcDbEntity
  8
0
100
AcDbLine
 62
7
  6
CONTINUOUS
 10
250.8773733525
 20
116.2894953236
 11
250.8773733525
 21
115.2894953236
  0
LINE
  5
375
100
AcDbEntity
  8
0
100
AcDbLine
 62
7
  6
CONTINUOUS
 10
251.4830445673
 20
116.2894953236
 11
251.4830445673
 21
115.2894953236
  0
LINE
  5
376
100
AcDbEntity
  8
0
100
AcDbLine
 62
7
  6
CONTINUOUS
 10
252.0437967473
 20
116.2894953236
 11
252.0437967473
 21
115.2894953236
  0
LINE
  5
377
100
AcDbEntity
  8
0
100
AcDbLine
 62
7
  6
CONTINUOUS
 10
252.731575515
 20
116.2894953236
 11
252.731575515
 21
115.2894953236
  0
LINE
  5
378
100
AcDbEntity
  8
0
100
AcDbLine
 62
7
  6
CONTINUOUS
 10
253.2024921071
 20
116.2894953236
 11
253.2024921071
 21
115.2894953236
  0
LINE
  5
379
100
AcDbEntity
  8
KONSTRUKTIONSELEMENTE
100
AcDbLine
 62
7
  6
CONTINUOUS
 10
253.3431743006
 20
83.0394953236
 11
253.3431743006
 21
174.5394953236
  0
LINE
  5
37A
100
AcDbEntity
  8
0
100
AcDbLine
 62
7
  6
CONTINUOUS
 10
287.1627035844
 20
115.2894953236
 11
279.8431743006
 21
115.2894953236
  0
LINE
  5
37B
100
AcDbEntity
  8
0
100
AcDbLine
 62
7
  6
CONTINUOUS
 10
253.3431743006
 20
115.2894953236
 11
238.7974922375
 21
115.2894953236
  0
LINE
  5
37C
100
AcDbEntity
  8
BEZUGSACHSEN
100
AcDbLine
 62
7
  6
CONTINUOUS
 10
302.9883707466
 20
116.2894953236
 11
279.8431743006
 21
116.2894953236
  0
LINE
  5
37D
100
AcDbEntity
  8
BEZUGSACHSEN
100
AcDbLine
 62
7
  6
CONTINUOUS
 10
230.1979778546
 20
116.2894953236
 11
253.3431743006
 21
116.2894953236
  0
LINE
  5
37E
100
AcDbEntity
  8
KONSTRUKTIONSELEMENTE
100
AcDbLine
 62
7
  6
CONTINUOUS
 10
279.8431743006
 20
83.0394953236
 11
279.8431743006
 21
174.5394953236
  0
LINE
  5
37F
100
AcDbEntity
  8
0
100
AcDbLine
 62
7
  6
CONTINUOUS
 10
280.3686221073
 20
116.2894953236
 11
280.3686221073
 21
115.2894953236
  0
LINE
  5
380
100
AcDbEntity
  8
0
100
AcDbLine
 62
7
  6
CONTINUOUS
 10
280.8883626692
 20
116.2894953236
 11
280.8883626692
 21
115.2894953236
  0
LINE
  5
381
100
AcDbEntity
  8
0
100
AcDbLine
 62
7
  6
CONTINUOUS
 10
281.1904024605
 20
116.2894953236
 11
281.1904024605
 21
115.2894953236
  0
LINE
  5
382
100
AcDbEntity
  8
0
100
AcDbLine
 62
7
  6
CONTINUOUS
 10
281.3264510396
 20
116.2894953236
 11
281.3264510396
 21
115.2894953236
  0
LINE
  5
383
100
AcDbEntity
  8
0
100
AcDbLine
 62
7
  6
CONTINUOUS
 10
281.5209745182
 20
116.2894953236
 11
281.5209745182
 21
115.2894953236
  0
LINE
  5
384
100
AcDbEntity
  8
RUNDUNGEN
100
AcDbLine
 62
7
  6
CONTINUOUS
 10
302.9883707466
 20
141.2894953236
 11
295.401432355
 21
141.2894953236
  0
LINE
  5
385
100
AcDbEntity
  8
BEZUGSACHSEN
100
AcDbLine
 62
7
  6
CONTINUOUS
 10
295.401432355
 20
141.2894953236
 11
279.8431743006
 21
141.2894953236
  0
LINE
  5
386
100
AcDbEntity
  8
BEZUGSACHSEN
100
AcDbLine
 62
7
  6
CONTINUOUS
 10
230.1979778546
 20
141.2894953236
 11
253.3431743006
 21
141.2894953236
  0
LINE
  5
387
100
AcDbEntity
  8
0
100
AcDbLine
 62
7
  6
CONTINUOUS
 10
282.6557774793
 20
116.2894953236
 11
282.6557774793
 21
115.2894953236
  0
LINE
  5
388
100
AcDbEntity
  8
0
100
AcDbLine
 62
7
  6
CONTINUOUS
 10
283.1347314105
 20
116.2894953236
 11
283.1347314105
 21
115.2894953236
  0
LINE
  5
389
100
AcDbEntity
  8
0
100
AcDbLine
 62
7
  6
CONTINUOUS
 10
283.6387154025
 20
116.2894953236
 11
283.6387154025
 21
115.2894953236
  0
LINE
  5
38A
100
AcDbEntity
  8
0
100
AcDbLine
 62
7
  6
CONTINUOUS
 10
284.3440715963
 20
116.2894953236
 11
284.3440715963
 21
115.2894953236
  0
LINE
  5
38B
100
AcDbEntity
  8
0
100
AcDbLine
 62
7
  6
CONTINUOUS
 10
284.8981207427
 20
116.2894953236
 11
284.8981207427
 21
115.2894953236
  0
LINE
  5
38C
100
AcDbEntity
  8
0
100
AcDbLine
 62
7
  6
CONTINUOUS
 10
285.4772001619
 20
116.2894953236
 11
285.4772001619
 21
115.2894953236
  0
LINE
  5
38D
100
AcDbEntity
  8
0
100
AcDbLine
 62
7
  6
CONTINUOUS
 10
286.3833681565
 20
116.2894953236
 11
286.3833681565
 21
115.2894953236
  0
LINE
  5
38E
100
AcDbEntity
  8
0
100
AcDbLine
 62
7
  6
CONTINUOUS
 10
286.8111405283
 20
116.2894953236
 11
286.8111405283
 21
115.2894953236
  0
LINE
  5
38F
100
AcDbEntity
  8
0
100
AcDbLine
 62
7
  6
CONTINUOUS
 10
287.06257558
 20
116.2894953236
 11
287.06257558
 21
115.2894953236
  0
LINE
  5
390
100
AcDbEntity
  8
0
100
AcDbLine
 62
7
  6
CONTINUOUS
 10
287.1627035844
 20
116.2894953236
 11
287.1627035844
 21
115.2894953236
  0
LWPOLYLINE
  5
391
100
AcDbEntity
  8
BEZUGSACHSEN
100
AcDbPolyline
 62
7
  6
CONTINUOUS
 90
5
 70
0
 10
301.8689592534
 20
108.4308426272
 10
302.1150662461
 20
108.580927139
 10
302.3647755044
 20
108.7446852519
 10
302.6209426618
 20
108.9248037484
 10
309.6040294728
 20
114.0787483434
  0
LINE
  5
392
100
AcDbEntity
  8
BEZUGSACHSEN
100
AcDbLine
 62
7
  6
CONTINUOUS
 10
301.6559556032
 20
108.3100175166
 11
301.8689592534
 21
108.4308426272
  0
LINE
  5
393
100
AcDbEntity
  8
BEZUGSACHSEN
100
AcDbLine
 62
7
  6
CONTINUOUS
 10
301.5159812701
 20
108.2339424837
 11
301.6561017587
 21
108.3101847072
  0
LINE
  5
394
100
AcDbEntity
  8
RUNDUNGEN
100
AcDbLine
 62
7
  6
CONTINUOUS
 10
301.656485121
 20
149.2685964424
 11
301.5172096953
 21
149.3443814719
  0
LINE
  5
395
100
AcDbEntity
  8
RUNDUNGEN
100
AcDbLine
 62
7
  6
CONTINUOUS
 10
301.8689592534
 20
149.14814802
 11
301.6559556032
 21
149.2689731306
  0
LWPOLYLINE
  5
396
100
AcDbEntity
  8
BEZUGSACHSEN
100
AcDbPolyline
 62
7
  6
CONTINUOUS
 90
7
 70
0
 10
309.627987422
 20
114.0967019609
 10
310.0456533111
 20
114.463196616
 10
310.4287147218
 20
114.9269722627
 10
310.7290032897
 20
115.4488358099
 10
310.9365464851
 20
116.0119165981
 10
311.0461749408
 20
116.6005824731
 10
311.0637543528
 20
116.9533823125
  0
LWPOLYLINE
  5
397
100
AcDbEntity
  8
RUNDUNGEN
100
AcDbPolyline
 62
7
  6
CONTINUOUS
 90
4
 70
0
 10
302.6209426618
 20
148.6541868988
 10
302.3647755044
 20
148.8343053953
 10
302.1150662461
 20
148.9980635083
 10
301.8689592534
 20
149.14814802
  0
LINE
  5
398
100
AcDbEntity
  8
RUNDUNGEN
100
AcDbLine
 62
7
  6
CONTINUOUS
 10
302.6209426618
 20
148.6541868988
 11
309.6040294728
 21
143.5002423038
  0
LWPOLYLINE
  5
399
100
AcDbEntity
  8
RUNDUNGEN
100
AcDbPolyline
 62
7
  6
CONTINUOUS
 90
7
 70
0
 10
311.0637545594
 20
140.6256165647
 10
311.0489674516
 20
140.9492538757
 10
310.9430529588
 20
141.5431074073
 10
310.7375948076
 20
142.1116535168
 10
310.437805896
 20
142.6388510146
 10
310.0535248238
 20
143.1077150221
 10
309.6287157772
 20
143.481738585
  0
LINE
  5
39A
100
AcDbEntity
  8
BEZUGSACHSEN
100
AcDbLine
 62
7
  6
CONTINUOUS
 10
311.0636054991
 20
116.9532412317
 11
311.0636036759
 21
116.9533864835
  0
LINE
  5
39B
100
AcDbEntity
  8
BEZUGSACHSEN
100
AcDbLine
 62
7
  6
CONTINUOUS
 10
311.0636054994
 20
140.6257462601
 11
311.0636054994
 21
116.9532443871
  0
LINE
  5
39C
100
AcDbEntity
  8
RUNDUNGEN
100
AcDbLine
 62
7
  6
CONTINUOUS
 10
311.0636054991
 20
140.6257494155
 11
311.0636038792
 21
140.6256123974
  0
LINE
  5
39D
100
AcDbEntity
  8
KONSTRUKTIONSELEMENTE
100
AcDbLine
 62
7
  6
CONTINUOUS
 10
246.5245420602
 20
171.2894953236
 11
253.3431743006
 21
171.2894953236
  0
LINE
  5
39E
100
AcDbEntity
  8
KONSTRUKTIONSELEMENTE
100
AcDbLine
 62
7
  6
CONTINUOUS
 10
279.8431743006
 20
171.2894953236
 11
286.661806541
 21
171.2894953236
  0
ARC
  5
39F
100
AcDbEntity
  8
RUNDUNGEN
100
AcDbCircle
 62
7
  6
CONTINUOUS
 10
266.5931743006
 20
375.3695210892
 40
16.0
100
AcDbArc
 50
19.6213526008
 51
32.0539189154
  0
ARC
  5
3A0
100
AcDbEntity
  8
BEZUGSACHSEN
100
AcDbCircle
 62
7
  6
CONTINUOUS
 10
266.5931743006
 20
375.3695210892
 40
16.0
100
AcDbArc
 50
145.9716098734
 51
34.0283901266
  0
ARC
  5
3A1
100
AcDbEntity
  8
KONSTRUKTIONSELEMENTE
100
AcDbCircle
 62
7
  6
CONTINUOUS
 10
266.5931743006
 20
544.1195210892
 40
13.25
100
AcDbArc
 50
0.0
 51
180.0
  0
ARC
  5
3A2
100
AcDbEntity
  8
KONSTRUKTIONSELEMENTE
100
AcDbCircle
 62
7
  6
CONTINUOUS
 10
266.5931743006
 20
378.6195210892
 40
13.25
100
AcDbArc
 50
180.0
 51
360.0
  0
ARC
  5
3A3
100
AcDbEntity
  8
BEZUGSACHSEN
100
AcDbCircle
 62
7
  6
CONTINUOUS
 10
226.1227431017
 20
375.3695210892
 40
4.0
100
AcDbArc
 50
157.4893258504
 51
202.5
  0
ARC
  5
3A4
100
AcDbEntity
  8
BEZUGSACHSEN
100
AcDbCircle
 62
7
  6
CONTINUOUS
 10
237.9762579623
 20
403.9864374274
 40
4.0
100
AcDbArc
 50
112.5
 51
157.5
  0
ARC
  5
3A5
100
AcDbEntity
  8
BEZUGSACHSEN
100
AcDbCircle
 62
7
  6
CONTINUOUS
 10
307.0636054994
 20
375.3695210892
 40
4.0
100
AcDbArc
 50
337.5
 51
22.5106741496
  0
ARC
  5
3A6
100
AcDbEntity
  8
BEZUGSACHSEN
100
AcDbCircle
 62
7
  6
CONTINUOUS
 10
295.2100906388
 20
403.9864374274
 40
4.0
100
AcDbArc
 50
22.5
 51
67.5
  0
ARC
  5
3A7
100
AcDbEntity
  8
RUNDUNGEN
100
AcDbCircle
 62
7
  6
CONTINUOUS
 10
295.2100906388
 20
403.9864374274
 40
4.0
100
AcDbArc
 50
27.8577193774
 51
29.9999993865
  0
ARC
  5
3A8
100
AcDbEntity
  8
BEZUGSACHSEN
100
AcDbCircle
 62
7
  6
CONTINUOUS
 10
309.5930176679
 20
363.1841807428
 40
2.9999890721
100
AcDbArc
 50
157.4921829844
 51
179.9927775886
  0
ARC
  5
3A9
100
AcDbEntity
  8
BEZUGSACHSEN
100
AcDbCircle
 62
7
  6
CONTINUOUS
 10
223.5933309333
 20
363.1841807428
 40
2.9999890721
100
AcDbArc
 50
0.0072224119
 51
22.5078170161
  0
ARC
  5
3AA
100
AcDbEntity
  8
KONSTRUKTIONSELEMENTE
100
AcDbCircle
 62
7
  6
CONTINUOUS
 10
315.5931743006
 20
307.1979482139
 40
2.0
100
AcDbArc
 50
180.0
 51
225.0
  0
ARC
  5
3AB
100
AcDbEntity
  8
KONSTRUKTIONSELEMENTE
100
AcDbCircle
 62
7
  6
CONTINUOUS
 10
217.5931743006
 20
307.1979482139
 40
2.0
100
AcDbArc
 50
315.0
 51
360.0
  0
ARC
  5
3AC
100
AcDbEntity
  8
KONSTRUKTIONSELEMENTE
100
AcDbCircle
 62
7
  6
CONTINUOUS
 10
285.7042607113
 20
307.3702056143
 40
0.9575460744
100
AcDbArc
 50
349.6363774166
 51
359.9590407136
  0
ARC
  5
3AD
100
AcDbEntity
  8
KONSTRUKTIONSELEMENTE
100
AcDbCircle
 62
7
  6
CONTINUOUS
 10
247.4820878899
 20
307.3702056143
 40
0.9575460744
100
AcDbArc
 50
180.0409592863
 51
190.3636225834
  0
ARC
  5
3AE
100
AcDbEntity
  8
BEZUGSACHSEN
100
AcDbCircle
 62
7
  6
CONTINUOUS
 10
463.6214745323
 20
386.5145801013
 40
9.0
100
AcDbArc
 50
343.0000302944
 51
359.9999424682
  0
ARC
  5
3AF
100
AcDbEntity
  8
BEZUGSACHSEN
100
AcDbCircle
 62
7
  6
CONTINUOUS
 10
449.1214745323
 20
349.8695210892
 40
4.0
100
AcDbArc
 50
90.0
 51
180.0
  0
ARC
  5
3B0
100
AcDbEntity
  8
RUNDUNGEN
100
AcDbCircle
 62
7
  6
CONTINUOUS
 10
460.46224044
 20
357.3695210892
 40
3.5
100
AcDbArc
 50
307.537497921
 51
342.9997215233
  0
ARC
  5
3B1
100
AcDbEntity
  8
RUNDUNGEN
100
AcDbCircle
 62
7
  6
CONTINUOUS
 10
460.46224044
 20
357.3695210892
 40
3.5
100
AcDbArc
 50
270.0002680268
 51
305.8844719706
  0
ARC
  5
3B2
100
AcDbEntity
  8
BEZUGSACHSEN
100
AcDbCircle
 62
7
  6
CONTINUOUS
 10
460.46224044
 20
357.3695210892
 40
3.5
100
AcDbArc
 50
270.0002680268
 51
343.00189947
  0
ARC
  5
3B3
100
AcDbEntity
  8
KONSTRUKTIONSELEMENTE
100
AcDbCircle
 62
7
  6
CONTINUOUS
 10
440.6214745323
 20
307.3695210892
 40
2.0
100
AcDbArc
 50
270.0
 51
360.0
  0
ARC
  5
3B4
100
AcDbEntity
  8
BEZUGSACHSEN
100
AcDbCircle
 62
7
  6
CONTINUOUS
 10
506.6214745323
 20
386.5145801013
 40
9.0
100
AcDbArc
 50
180.0000575318
 51
196.9999697056
  0
ARC
  5
3B5
100
AcDbEntity
  8
BEZUGSACHSEN
100
AcDbCircle
 62
7
  6
CONTINUOUS
 10
521.1214745323
 20
349.8695210892
 40
4.0
100
AcDbArc
 50
0.0
 51
90.0
  0
ARC
  5
3B6
100
AcDbEntity
  8
BEZUGSACHSEN
100
AcDbCircle
 62
7
  6
CONTINUOUS
 10
509.7807086245
 20
357.3695210892
 40
3.5
100
AcDbArc
 50
196.99810053
 51
269.9997319732
  0
ARC
  5
3B7
100
AcDbEntity
  8
KONSTRUKTIONSELEMENTE
100
AcDbCircle
 62
7
  6
CONTINUOUS
 10
529.6214745323
 20
307.3695210892
 40
2.0
100
AcDbArc
 50
180.0
 51
270.0
  0
ARC
  5
3B8
100
AcDbEntity
  8
KONSTRUKTIONSELEMENTE
100
AcDbCircle
 62
7
  6
CONTINUOUS
 10
485.1214745323
 20
498.3695210892
 40
59.0
100
AcDbArc
 50
0.0
 51
180.0
  0
ARC
  5
3B9
100
AcDbEntity
  8
KONSTRUKTIONSELEMENTE
100
AcDbCircle
 62
7
  6
CONTINUOUS
 10
485.1214745323
 20
424.3695210892
 40
59.0
100
AcDbArc
 50
180.0
 51
252.5211855934
  0
ARC
  5
3BA
100
AcDbEntity
  8
KONSTRUKTIONSELEMENTE
100
AcDbCircle
 62
7
  6
CONTINUOUS
 10
485.1214745323
 20
424.3695210892
 40
59.0
100
AcDbArc
 50
287.4788144066
 51
360.0
  0
ARC
  5
3BB
100
AcDbEntity
  8
KONSTRUKTIONSELEMENTE
100
AcDbCircle
 62
7
  6
CONTINUOUS
 10
485.1214745323
 20
498.3695210892
 40
32.5
100
AcDbArc
 50
0.0
 51
180.0
  0
ARC
  5
3BC
100
AcDbEntity
  8
KONSTRUKTIONSELEMENTE
100
AcDbCircle
 62
7
  6
CONTINUOUS
 10
485.1214745323
 20
424.3695210892
 40
32.5
100
AcDbArc
 50
180.0
 51
247.3787146618
  0
ARC
  5
3BD
100
AcDbEntity
  8
KONSTRUKTIONSELEMENTE
100
AcDbCircle
 62
7
  6
CONTINUOUS
 10
485.1214745323
 20
424.3695210892
 40
32.5
100
AcDbArc
 50
294.5529358531
 51
360.0
  0
ARC
  5
3BE
100
AcDbEntity
  8
BEZUGSACHSEN
100
AcDbCircle
 62
7
  6
CONTINUOUS
 10
229.7608908544
 20
104.7191214972
 40
4.0
100
AcDbArc
 50
33.1749023831
 51
61.4843410276
  0
ARC
  5
3BF
100
AcDbEntity
  8
BEZUGSACHSEN
100
AcDbCircle
 62
7
  6
CONTINUOUS
 10
229.7608908544
 20
152.85986915
 40
4.0
100
AcDbArc
 50
298.5156589724
 51
326.8250976169
  0
ARC
  5
3C0
100
AcDbEntity
  8
KONSTRUKTIONSELEMENTE
100
AcDbCircle
 62
7
  6
CONTINUOUS
 10
266.5931743006
 20
83.0394953236
 40
13.25
100
AcDbArc
 50
180.0
 51
360.0
  0
ARC
  5
3C1
100
AcDbEntity
  8
BEZUGSACHSEN
100
AcDbCircle
 62
7
  6
CONTINUOUS
 10
303.4254577467
 20
104.7191214972
 40
4.0
100
AcDbArc
 50
118.5156589724
 51
146.8250976169
  0
ARC
  5
3C2
100
AcDbEntity
  8
BEZUGSACHSEN
100
AcDbCircle
 62
7
  6
CONTINUOUS
 10
266.5931743006
 20
128.7894953236
 40
49.0
100
AcDbArc
 50
285.5919403521
 51
74.4094938983
  0
ARC
  5
3C3
100
AcDbEntity
  8
BEZUGSACHSEN
100
AcDbCircle
 62
7
  6
CONTINUOUS
 10
266.5931743006
 20
128.7894953236
 40
49.0
100
AcDbArc
 50
105.5919403521
 51
254.4080596479
  0
ARC
  5
3C4
100
AcDbEntity
  8
KONSTRUKTIONSELEMENTE
100
AcDbCircle
 62
7
  6
CONTINUOUS
 10
266.5931743006
 20
128.7894953236
 40
48.0
100
AcDbArc
 50
106.009143918
 51
112.0153695404
  0
ARC
  5
3C5
100
AcDbEntity
  8
KONSTRUKTIONSELEMENTE
100
AcDbCircle
 62
7
  6
CONTINUOUS
 10
266.5931743006
 20
128.7894953236
 40
48.0
100
AcDbArc
 50
67.9846304596
 51
73.9925878565
  0
ARC
  5
3C6
100
AcDbEntity
  8
KONSTRUKTIONSELEMENTE
100
AcDbCircle
 62
7
  6
CONTINUOUS
 10
266.5931743006
 20
128.7894953236
 40
48.0
100
AcDbArc
 50
286.009143918
 51
292.0153695404
  0
ARC
  5
3C7
100
AcDbEntity
  8
KONSTRUKTIONSELEMENTE
100
AcDbCircle
 62
7
  6
CONTINUOUS
 10
266.5931743006
 20
128.7894953236
 40
48.0
100
AcDbArc
 50
247.9846304596
 51
253.990856082
  0
ARC
  5
3C8
100
AcDbEntity
  8
KONSTRUKTIONSELEMENTE
100
AcDbCircle
 62
7
  6
CONTINUOUS
 10
266.5931743006
 20
128.7894953236
 40
47.0
100
AcDbArc
 50
295.2768269166
 51
64.7231730834
  0
ARC
  5
3C9
100
AcDbEntity
  8
KONSTRUKTIONSELEMENTE
100
AcDbCircle
 62
7
  6
CONTINUOUS
 10
266.5931743006
 20
128.7894953236
 40
47.0
100
AcDbArc
 50
115.2768269166
 51
244.7231730834
  0
ARC
  5
3CA
100
AcDbEntity
  8
KONSTRUKTIONSELEMENTE
100
AcDbCircle
 62
7
  6
CONTINUOUS
 10
266.5931743006
 20
128.7894953236
 40
45.0
100
AcDbArc
 50
289.1881364537
 51
340.2504493103
  0
ARC
  5
3CB
100
AcDbEntity
  8
KONSTRUKTIONSELEMENTE
100
AcDbCircle
 62
7
  6
CONTINUOUS
 10
266.5931743006
 20
128.7894953236
 40
45.0
100
AcDbArc
 50
351.3598756664
 51
8.6401243336
  0
ARC
  5
3CC
100
AcDbEntity
  8
KONSTRUKTIONSELEMENTE
100
AcDbCircle
 62
7
  6
CONTINUOUS
 10
266.5931743006
 20
128.7894953236
 40
45.0
100
AcDbArc
 50
19.7495506897
 51
70.8118635463
  0
ARC
  5
3CD
100
AcDbEntity
  8
KONSTRUKTIONSELEMENTE
100
AcDbCircle
 62
7
  6
CONTINUOUS
 10
266.5931743006
 20
128.7894953236
 40
45.0
100
AcDbArc
 50
109.1881364537
 51
160.2504493103
  0
ARC
  5
3CE
100
AcDbEntity
  8
KONSTRUKTIONSELEMENTE
100
AcDbCircle
 62
7
  6
CONTINUOUS
 10
266.5931743006
 20
128.7894953236
 40
45.0
100
AcDbArc
 50
171.3598756664
 51
188.6401243336
  0
ARC
  5
3CF
100
AcDbEntity
  8
KONSTRUKTIONSELEMENTE
100
AcDbCircle
 62
7
  6
CONTINUOUS
 10
266.5931743006
 20
128.7894953236
 40
45.0
100
AcDbArc
 50
199.7495506897
 51
250.8118635463
  0
ARC
  5
3D0
100
AcDbEntity
  8
RUNDUNGEN
100
AcDbCircle
 62
7
  6
CONTINUOUS
 10
266.5931743006
 20
128.7894953236
 40
40.0
100
AcDbArc
 50
33.1641589266
 51
43.233933997
  0
ARC
  5
3D1
100
AcDbEntity
  8
BEZUGSACHSEN
100
AcDbCircle
 62
7
  6
CONTINUOUS
 10
266.5931743006
 20
128.7894953236
 40
40.0
100
AcDbArc
 50
109.3680205201
 51
146.8358410734
  0
ARC
  5
3D2
100
AcDbEntity
  8
BEZUGSACHSEN
100
AcDbCircle
 62
7
  6
CONTINUOUS
 10
266.5931743006
 20
128.7894953236
 40
40.0
100
AcDbArc
 50
43.233933997
 51
70.6319794799
  0
ARC
  5
3D3
100
AcDbEntity
  8
BEZUGSACHSEN
100
AcDbCircle
 62
7
  6
CONTINUOUS
 10
266.5931743006
 20
128.7894953236
 40
40.0
100
AcDbArc
 50
213.1641589266
 51
250.6395079038
  0
ARC
  5
3D4
100
AcDbEntity
  8
BEZUGSACHSEN
100
AcDbCircle
 62
7
  6
CONTINUOUS
 10
266.5931743006
 20
128.7894953236
 40
40.0
100
AcDbArc
 50
289.3604920962
 51
326.8358410735
  0
ARC
  5
3D5
100
AcDbEntity
  8
KONSTRUKTIONSELEMENTE
100
AcDbCircle
 62
7
  6
CONTINUOUS
 10
266.5931743006
 20
174.5394953236
 40
13.25
100
AcDbArc
 50
0.0
 51
180.0
  0
ARC
  5
3D6
100
AcDbEntity
  8
RUNDUNGEN
100
AcDbCircle
 62
7
  6
CONTINUOUS
 10
303.4254577467
 20
152.85986915
 40
4.0
100
AcDbArc
 50
213.1749023831
 51
241.4843410276
  0
SPLINE
  5
3D7
100
AcDbEntity
  8
BEZUGSACHSEN
100
AcDbSpline
 62
7
  6
CONTINUOUS
 70
0
 71
3
 72
9
 73
5
 74
0
 42
0.0000001
 43
0.0000001
 44
0.0000000001
 40
0.0
 40
0.0
 40
0.0
 40
0.0
 40
0.4950364757
 40
1.0
 40
1.0
 40
1.0
 40
1.0
 10
230.0685525071
 20
355.3909907891
 30
0.0
 10
230.6754050506
 20
353.925048401
 30
0.0
 10
231.7420063457
 20
350.8997327301
 30
0.0
 10
232.69475696
 20
347.8380176421
 30
0.0
 10
233.1092941083
 20
346.2736052098
 30
0.0
  0
SPLINE
  5
3D8
100
AcDbEntity
  8
BEZUGSACHSEN
100
AcDbSpline
 62
7
  6
CONTINUOUS
 70
0
 71
3
 72
9
 73
5
 74
0
 42
0.0000001
 43
0.0000001
 44
0.0000000001
 40
0.0
 40
0.0
 40
0.0
 40
0.0
 40
0.4950364757
 40
1.0
 40
1.0
 40
1.0
 40
1.0
 10
303.1177960941
 20
355.3909907891
 30
0.0
 10
302.5109435506
 20
353.925048401
 30
0.0
 10
301.4443422555
 20
350.8997327301
 30
0.0
 10
300.4915916412
 20
347.8380176421
 30
0.0
 10
300.0770544928
 20
346.2736052098
 30
0.0
  0
SPLINE
  5
3D9
100
AcDbEntity
  8
KONSTRUKTIONSELEMENTE
100
AcDbSpline
 62
7
  6
CONTINUOUS
 70
0
 71
3
 72
10
 73
6
 74
0
 42
0.0000001
 43
0.0000001
 44
0.0000000001
 40
0.0
 40
0.0
 40
0.0
 40
0.0
 40
0.5547381711
 40
0.7952278569
 40
1.0
 40
1.0
 40
1.0
 40
1.0
 10
286.6461852691
 20
307.1979482139
 30
0.0
 10
286.5982756578
 20
306.9354566346
 30
0.0
 10
286.5455509526
 20
306.5562223877
 30
0.0
 10
286.4661181719
 20
306.0823579004
 30
0.0
 10
286.4101625878
 20
305.873839223
 30
0.0
 10
286.3703828172
 20
305.7837346515
 30
0.0
  0
SPLINE
  5
3DA
100
AcDbEntity
  8
KONSTRUKTIONSELEMENTE
100
AcDbSpline
 62
7
  6
CONTINUOUS
 70
0
 71
3
 72
12
 73
8
 74
0
 42
0.0000001
 43
0.0000001
 44
0.0000000001
 40
0.0
 40
0.0
 40
0.0
 40
0.0
 40
0.2079921653
 40
0.3292326319
 40
0.4567694617
 40
0.7235352786
 40
1.0
 40
1.0
 40
1.0
 40
1.0
 10
286.3703828172
 20
305.7837346515
 30
0.0
 10
286.3176453889
 20
305.6642798806
 30
0.0
 10
286.1107429699
 20
305.5501560333
 30
0.0
 10
285.8407818111
 20
305.4724019446
 30
0.0
 10
285.5204608338
 20
305.4128087219
 30
0.0
 10
285.1011054347
 20
305.376768616
 30
0.0
 10
284.7597940862
 20
305.3695210892
 30
0.0
 10
284.586228516
 20
305.3695210892
 30
0.0
  0
SPLINE
  5
3DB
100
AcDbEntity
  8
KONSTRUKTIONSELEMENTE
100
AcDbSpline
 62
7
  6
CONTINUOUS
 70
0
 71
3
 72
10
 73
6
 74
0
 42
0.0000001
 43
0.0000001
 44
0.0000000001
 40
0.0
 40
0.0
 40
0.0
 40
0.0
 40
0.2047721431
 40
0.4452618289
 40
1.0
 40
1.0
 40
1.0
 40
1.0
 10
246.8159657839
 20
305.7837346515
 30
0.0
 10
246.7761860133
 20
305.873839223
 30
0.0
 10
246.7202304293
 20
306.0823579004
 30
0.0
 10
246.6407976486
 20
306.5562223877
 30
0.0
 10
246.5880729434
 20
306.9354566346
 30
0.0
 10
246.5401633321
 20
307.1979482139
 30
0.0
  0
SPLINE
  5
3DC
100
AcDbEntity
  8
KONSTRUKTIONSELEMENTE
100
AcDbSpline
 62
7
  6
CONTINUOUS
 70
0
 71
3
 72
8
 73
4
 74
0
 42
0.0000001
 43
0.0000001
 44
0.0000000001
 40
0.0
 40
0.0
 40
0.0
 40
0.0
 40
1.0
 40
1.0
 40
1.0
 40
1.0
 10
251.8029748428
 20
344.3695210892
 30
0.0
 10
250.0155016453
 20
343.7820303088
 30
0.0
 10
248.254941293
 20
343.1083880218
 30
0.0
 10
246.5245420602
 20
342.3695210892
 30
0.0
  0
SPLINE
  5
3DD
100
AcDbEntity
  8
KONSTRUKTIONSELEMENTE
100
AcDbSpline
 62
7
  6
CONTINUOUS
 70
0
 71
3
 72
8
 73
4
 74
0
 42
0.0000001
 43
0.0000001
 44
0.0000000001
 40
0.0
 40
0.0
 40
0.0
 40
0.0
 40
1.0
 40
1.0
 40
1.0
 40
1.0
 10
286.661806541
 20
342.3695210892
 30
0.0
 10
284.9314073082
 20
343.1083880218
 30
0.0
 10
283.1708469559
 20
343.7820303088
 30
0.0
 10
281.3833737583
 20
344.3695210892
 30
0.0
  0
SPLINE
  5
3DE
100
AcDbEntity
  8
KONSTRUKTIONSELEMENTE
100
AcDbSpline
 62
7
  6
CONTINUOUS
 70
0
 71
3
 72
12
 73
8
 74
0
 42
0.0000001
 43
0.0000001
 44
0.0000000001
 40
0.0
 40
0.0
 40
0.0
 40
0.0
 40
0.2765221092
 40
0.543337948
 40
0.670891962
 40
0.7921335279
 40
1.0
 40
1.0
 40
1.0
 40
1.0
 10
248.6001200851
 20
305.3695210892
 30
0.0
 10
248.4265171118
 20
305.3695210892
 30
0.0
 10
248.0851361262
 20
305.3767682643
 30
0.0
 10
247.6656974444
 20
305.4128198015
 30
0.0
 10
247.3453395258
 20
305.4724552638
 30
0.0
 10
247.0754374176
 20
305.550205614
 30
0.0
 10
246.8686717596
 20
305.6643511236
 30
0.0
 10
246.8159657839
 20
305.7837346515
 30
0.0
  0
SPLINE
  5
3DF
100
AcDbEntity
  8
RUNDUNGEN
100
AcDbSpline
 62
7
  6
CONTINUOUS
 70
0
 71
3
 72
10
 73
6
 74
0
 42
0.0000001
 43
0.0000001
 44
0.0000000001
 40
0.0
 40
0.0
 40
0.0
 40
0.0
 40
0.2508908731
 40
0.5020068499
 40
1.0
 40
1.0
 40
1.0
 40
1.0
 10
474.6936340248
 20
419.8399508443
 30
0.0
 10
474.3766471869
 20
419.6855030842
 30
0.0
 10
473.7867451852
 20
419.2746788298
 30
0.0
 10
472.9044710038
 20
418.1628099406
 30
0.0
 10
472.6214745323
 20
417.0810464598
 30
0.0
 10
472.6214745323
 20
416.3811483881
 30
0.0
  0
SPLINE
  5
3E0
100
AcDbEntity
  8
RUNDUNGEN
100
AcDbSpline
 62
7
  6
CONTINUOUS
 70
0
 71
3
 72
10
 73
6
 74
0
 42
0.0000001
 43
0.0000001
 44
0.0000000001
 40
0.0
 40
0.0
 40
0.0
 40
0.0
 40
0.2508908731
 40
0.5020068499
 40
1.0
 40
1.0
 40
1.0
 40
1.0
 10
495.5493150398
 20
419.8399508443
 30
0.0
 10
495.8663018777
 20
419.6855030842
 30
0.0
 10
496.4562038794
 20
419.2746788298
 30
0.0
 10
497.3384780608
 20
418.1628099406
 30
0.0
 10
497.6214745323
 20
417.0810464598
 30
0.0
 10
497.6214745323
 20
416.3811483881
 30
0.0
  0
SPLINE
  5
3E1
100
AcDbEntity
  8
RUNDUNGEN
100
AcDbSpline
 62
7
  6
CONTINUOUS
 70
0
 71
3
 72
9
 73
5
 74
0
 42
0.0000001
 43
0.0000001
 44
0.0000000001
 40
0.0
 40
0.0
 40
0.0
 40
0.0
 40
0.2628422862
 40
1.0
 40
1.0
 40
1.0
 40
1.0
 10
476.1214745323
 20
419.535470418
 30
0.0
 10
476.0026927442
 20
419.5840647362
 30
0.0
 10
475.5439969553
 20
419.7506537964
 30
0.0
 10
475.0535646539
 20
419.8399356825
 30
0.0
 10
474.6936339915
 20
419.8399508446
 30
0.0
  0
SPLINE
  5
3E2
100
AcDbEntity
  8
RUNDUNGEN
100
AcDbSpline
 62
7
  6
CONTINUOUS
 70
0
 71
3
 72
9
 73
5
 74
0
 42
0.0000001
 43
0.0000001
 44
0.0000000001
 40
0.0
 40
0.0
 40
0.0
 40
0.0
 40
0.2387520631
 40
1.0
 40
1.0
 40
1.0
 40
1.0
 10
495.5493150731
 20
419.8399508446
 30
0.0
 10
495.4326992071
 20
419.8399459321
 30
0.0
 10
494.9442838333
 20
419.8108637422
 30
0.0
 10
494.4656126891
 20
419.6762593332
 30
0.0
 10
494.1214745323
 20
419.535470418
 30
0.0
  0
SPLINE
  5
3E3
100
AcDbEntity
  8
KONSTRUKTIONSELEMENTE
100
AcDbSpline
 62
7
  6
CONTINUOUS
 70
0
 71
3
 72
12
 73
8
 74
0
 42
0.0000001
 43
0.0000001
 44
0.0000000001
 40
0.0
 40
0.0
 40
0.0
 40
0.0
 40
0.1113488737
 40
0.232444602
 40
0.4850466975
 40
0.7420452836
 40
1.0
 40
1.0
 40
1.0
 40
1.0
 10
246.8159657839
 20
172.0707741191
 30
0.0
 10
246.8422429188
 20
172.1482208148
 30
0.0
 10
246.9361915494
 20
172.2957640391
 30
0.0
 10
247.1906420823
 20
172.5459536441
 30
0.0
 10
247.5774461464
 20
172.8065448558
 30
0.0
 10
248.0771882556
 20
173.0677119864
 30
0.0
 10
248.4244733486
 20
173.2184746213
 30
0.0
 10
248.6001200851
 20
173.2894953236
 30
0.0
  0
SPLINE
  5
3E4
100
AcDbEntity
  8
KONSTRUKTIONSELEMENTE
100
AcDbSpline
 62
7
  6
CONTINUOUS
 70
0
 71
3
 72
12
 73
8
 74
0
 42
0.0000001
 43
0.0000001
 44
0.0000000001
 40
0.0
 40
0.0
 40
0.0
 40
0.0
 40
0.2579487016
 40
0.5149417481
 40
0.7675490361
 40
0.8886436817
 40
1.0
 40
1.0
 40
1.0
 40
1.0
 10
284.586228516
 20
173.2894953236
 30
0.0
 10
284.7618711381
 20
173.2184762849
 30
0.0
 10
285.1091540405
 20
173.0677291726
 30
0.0
 10
285.6088827176
 20
172.8065464686
 30
0.0
 10
285.9956907083
 20
172.5459643814
 30
0.0
 10
286.2501510336
 20
172.2957726351
 30
0.0
 10
286.3441039284
 20
172.1482259844
 30
0.0
 10
286.3703828172
 20
172.0707741191
 30
0.0
  0
SPLINE
  5
3E5
100
AcDbEntity
  8
KONSTRUKTIONSELEMENTE
100
AcDbSpline
 62
7
  6
CONTINUOUS
 70
0
 71
3
 72
12
 73
8
 74
0
 42
0.0000001
 43
0.0000001
 44
0.0000000001
 40
0.0
 40
0.0
 40
0.0
 40
0.0
 40
0.1113787054
 40
0.2324850161
 40
0.4850770493
 40
0.74206035
 40
1.0
 40
1.0
 40
1.0
 40
1.0
 10
286.3703828172
 20
85.5082165281
 30
0.0
 10
286.3440986629
 20
85.4307491438
 30
0.0
 10
286.2501255622
 20
85.2831832672
 30
0.0
 10
285.9956397154
 20
85.0329995559
 30
0.0
 10
285.6088472638
 20
84.7724146985
 30
0.0
 10
285.1091287915
 20
84.5112658027
 30
0.0
 10
284.7618648569
 20
84.3605118226
 30
0.0
 10
284.586228516
 20
84.2894953236
 30
0.0
  0
SPLINE
  5
3E6
100
AcDbEntity
  8
KONSTRUKTIONSELEMENTE
100
AcDbSpline
 62
7
  6
CONTINUOUS
 70
0
 71
3
 72
11
 73
7
 74
0
 42
0.0000001
 43
0.0000001
 44
0.0000000001
 40
0.0
 40
0.0
 40
0.0
 40
0.0
 40
0.3742560723
 40
0.6688510636
 40
0.8753716104
 40
1.0
 40
1.0
 40
1.0
 40
1.0
 10
286.3703828172
 20
172.0707741191
 30
0.0
 10
286.4036549108
 20
171.9727111561
 30
0.0
 10
286.4526725058
 20
171.7944950699
 30
0.0
 10
286.5116616794
 20
171.5580872504
 30
0.0
 10
286.5611895484
 20
171.3954513964
 30
0.0
 10
286.6149977864
 20
171.3115810371
 30
0.0
 10
286.6461852691
 20
171.2968682264
 30
0.0
  0
SPLINE
  5
3E7
100
AcDbEntity
  8
KONSTRUKTIONSELEMENTE
100
AcDbSpline
 62
7
  6
CONTINUOUS
 70
0
 71
3
 72
9
 73
5
 74
0
 42
0.0000001
 43
0.0000001
 44
0.0000000001
 40
0.0
 40
0.0
 40
0.0
 40
0.0
 40
0.2155759827
 40
1.0
 40
1.0
 40
1.0
 40
1.0
 10
286.6461852691
 20
86.2821224208
 30
0.0
 10
286.6408897468
 20
86.2796242385
 30
0.0
 10
286.6175807081
 20
86.265290752
 30
0.0
 10
286.600718609
 20
86.2426254647
 30
0.0
 10
286.5897145021
 20
86.2243816601
 30
0.0
  0
SPLINE
  5
3E8
100
AcDbEntity
  8
KONSTRUKTIONSELEMENTE
100
AcDbSpline
 62
7
  6
CONTINUOUS
 70
0
 71
3
 72
11
 73
7
 74
0
 42
0.0000001
 43
0.0000001
 44
0.0000000001
 40
0.0
 40
0.0
 40
0.0
 40
0.0
 40
0.159782799
 40
0.3817930885
 40
0.6638548821
 40
1.0
 40
1.0
 40
1.0
 40
1.0
 10
286.5897145021
 20
86.2243816601
 30
0.0
 10
286.5690831867
 20
86.1901768227
 30
0.0
 10
286.5346579982
 20
86.1001606825
 30
0.0
 10
286.4909738584
 20
85.9403351286
 30
0.0
 10
286.4402569656
 20
85.7363999567
 30
0.0
 10
286.3973835869
 20
85.5877959953
 30
0.0
 10
286.3703828172
 20
85.5082165281
 30
0.0
  0
SPLINE
  5
3E9
100
AcDbEntity
  8
KONSTRUKTIONSELEMENTE
100
AcDbSpline
 62
7
  6
CONTINUOUS
 70
0
 71
3
 72
9
 73
5
 74
0
 42
0.0000001
 43
0.0000001
 44
0.0000000001
 40
0.0
 40
0.0
 40
0.0
 40
0.0
 40
0.2154124747
 40
1.0
 40
1.0
 40
1.0
 40
1.0
 10
246.5401633321
 20
171.2968682264
 30
0.0
 10
246.5454808058
 20
171.2993767644
 30
0.0
 10
246.5688985773
 20
171.313792986
 30
0.0
 10
246.5858076618
 20
171.3366020851
 30
0.0
 10
246.596842301
 20
171.3549547642
 30
0.0
  0
SPLINE
  5
3EA
100
AcDbEntity
  8
KONSTRUKTIONSELEMENTE
100
AcDbSpline
 62
7
  6
CONTINUOUS
 70
0
 71
3
 72
10
 73
6
 74
0
 42
0.0000001
 43
0.0000001
 44
0.0000000001
 40
0.0
 40
0.0
 40
0.0
 40
0.0
 40
0.1599397192
 40
0.3820211552
 40
1.0
 40
1.0
 40
1.0
 40
1.0
 10
246.596842301
 20
171.3549547642
 30
0.0
 10
246.6174326968
 20
171.3892004626
 30
0.0
 10
246.6518301511
 20
171.4792198528
 30
0.0
 10
246.7173520203
 20
171.719856329
 30
0.0
 10
246.7663582463
 20
171.924565642
 30
0.0
 10
246.8159657839
 20
172.0707741191
 30
0.0
  0
SPLINE
  5
3EB
100
AcDbEntity
  8
KONSTRUKTIONSELEMENTE
100
AcDbSpline
 62
7
  6
CONTINUOUS
 70
0
 71
3
 72
12
 73
8
 74
0
 42
0.0000001
 43
0.0000001
 44
0.0000000001
 40
0.0
 40
0.0
 40
0.0
 40
0.0
 40
0.2579951806
 40
0.5150318095
 40
0.7676522298
 40
0.8887283371
 40
1.0
 40
1.0
 40
1.0
 40
1.0
 10
248.6001200851
 20
84.2894953236
 30
0.0
 10
248.4244458394
 20
84.360527149
 30
0.0
 10
248.0771049918
 20
84.5113084079
 30
0.0
 10
247.5773125276
 20
84.7725269251
 30
0.0
 10
247.1904780431
 20
85.0331335598
 30
0.0
 10
246.9361289489
 20
85.2833438088
 30
0.0
 10
246.8422246913
 20
85.4308235543
 30
0.0
 10
246.8159657839
 20
85.5082165281
 30
0.0
  0
SPLINE
  5
3EC
100
AcDbEntity
  8
KONSTRUKTIONSELEMENTE
100
AcDbSpline
 62
7
  6
CONTINUOUS
 70
0
 71
3
 72
11
 73
7
 74
0
 42
0.0000001
 43
0.0000001
 44
0.0000000001
 40
0.0
 40
0.0
 40
0.0
 40
0.0
 40
0.3742560023
 40
0.6688521785
 40
0.8753728515
 40
1.0
 40
1.0
 40
1.0
 40
1.0
 10
246.8159657839
 20
85.5082165281
 30
0.0
 10
246.7826936977
 20
85.6062794696
 30
0.0
 10
246.7336758417
 20
85.7844957978
 30
0.0
 10
246.6746867304
 20
86.0209039778
 30
0.0
 10
246.6251586452
 20
86.1835398099
 30
0.0
 10
246.5713505031
 20
86.2674097571
 30
0.0
 10
246.5401633321
 20
86.2821224208
 30
0.0
  0
ENDSEC
  0
SECTION
  2
OBJECTS
  0
DICTIONARY
  5
C
100
AcDbDictionary
280
0
281
1
  3
ACAD_GROUP
350
D
  3
ACAD_MLINESTYLE
350
17
  3
ACAD_LAYOUT
350
1A
  3
ACAD_PLOTSETTINGS
350
19
  3
ACAD_PLOTSTYLENAME
350
E
  0
DICTIONARY
  5
D
102
{ACAD_REACTORS
330
C
102
}
100
AcDbDictionary
280
0
281
1
  0
ACDBDICTIONARYWDFLT
  5
E
102
{ACAD_REACTORS
330
C
102
}
100
AcDbDictionary
281
1
  3
Normal
350
F
100
AcDbDictionaryWithDefault
340
F
  0
DICTIONARY
  5
17
102
{ACAD_REACTORS
330
C
102
}
100
AcDbDictionary
280
0
281
1
  3
Standard
350
18
  0
DICTIONARY
  5
19
102
{ACAD_REACTORS
330
C
102
}
100
AcDbDictionary
281
1
  0
DICTIONARY
  5
1A
102
{ACAD_REACTORS
330
C
102
}
100
AcDbDictionary
281
1
  3
Model
350
3ED
  3
Layout1
350
3EE
  0
ACDBPLACEHOLDER
  5
F
102
{ACAD_REACTORS
330
E
102
}
  0
MLINESTYLE
  5
18
102
{ACAD_REACTORS
330
17
102
}
100
AcDbMlineStyle
  2
STANDARD
 70
0
  3

 62
256
 51
90.0
 52
90.0
 71
2
 49
0.5
 62
256
  6
BYLAYER
 49
-0.5
 62
256
  6
BYLAYER
  0
LAYOUT
  5
3ED
102
{ACAD_REACTORS
330
1A
102
}
100
AcDbPlotSettings
  1

  2
none_device
  4
ISO_A1_(594.00_x_841.00_MM)
  6

 40
0.0
 41
0.0
 42
0.0
 43
0.0
 44
841.0
 45
594.0
 46
0.0
 47
0.0
 48
0.0
 49
0.0
140
0.0
141
0.0
142
1.0
143
1.0
 70
1024
 72
1
 73
0
 74
0
  7

 75
0
147
1.0
148
0.0
149
0.0
100
AcDbLayout
  1
Model
 70
0
 71
0
 10
0.0
 20
0.0
 11
841.0
 21
594.0
 12
0.0
 22
0.0
 32
0.0
 14
0.0
 24
0.0
 34
0.0
 15
0.0
 25
0.0
 35
0.0
146
0.0
 13
0.0
 23
0.0
 33
0.0
 16
1.0
 26
0.0
 36
0.0
 17
0.0
 27
1.0
 37
0.0
 76
0
330
212
345
0
346
0
  0
LAYOUT
  5
3EE
102
{ACAD_REACTORS
330
1A
102
}
100
AcDbPlotSettings
  1

  2
none_device
  4
ISO_A1_(594.00_x_841.00_MM)
  6

 40
0.0
 41
0.0
 42
0.0
 43
0.0
 44
841.0
 45
594.0
 46
0.0
 47
0.0
 48
0.0
 49
0.0
140
0.0
141
0.0
142
1.0
143
1.0
 70
0
 72
1
 73
0
 74
0
  7

 75
0
147
1.0
148
0.0
149
0.0
100
AcDbLayout
  1
Layout1
 70
0
 71
1
 10
0.0
 20
0.0
 11
841.0
 21
594.0
 12
0.0
 22
0.0
 32
0.0
 14
0.0
 24
0.0
 34
0.0
 15
0.0
 25
0.0
 35
0.0
146
0.0
 13
0.0
 23
0.0
 33
0.0
 16
1.0
 26
0.0
 36
0.0
 17
0.0
 27
1.0
 37
0.0
 76
0
330
213
345
0
346
0
  0
ENDSEC
  0
EOF
