999
DXF file: 001-m33245-p-20.dxf
999
Pro/ENGINEER 2011490 by Parametric Technology Corporation
  0
SECTION
  2
HEADER
  9
$ACADVER
  1
AC1015
  9
$DWGCODEPAGE
  3
ANSI_1252
  9
$EXTMAX
 10
841.0
 20
594.0
 30
0.0
  9
$EXTMIN
 10
0.0
 20
0.0
 30
0.0
  9
$LIMMIN
 10
0.0
 20
0.0
  9
$LIMMAX
 10
841.0
 20
594.0
  9
$VIEWCTR
 10
420.5
 20
297.0
  9
$VIEWSIZE
 40
594.0
  9
$CLAYER
  8
0
  9
$LTSCALE
 40
46.255
  9
$CELTYPE
  6
BYLAYER
  9
$DIMSCALE
 40
1.0
  9
$DIMASZ
 40
3.5
  9
$DIMEXO
 40
5.25625
  9
$DIMDLI
 40
31.958
  9
$DIMEXE
 40
15.138
  9
$DIMCEN
 40
7.569
  9
$DIMLFAC
 40
1.0
  9
$DIMBLK
  1
_FILLED
  9
$DIMTXT
 40
3.5
  9
$DIMTOL
 70
1
  9
$DIMLIM
 70
0
  9
$DIMTFAC
 40
1.0
  9
$DIMTP
 40
0.005
  9
$DIMTM
 40
0.005
  9
$PDMODE
 70
3
  9
$PDSIZE
 40
0.3125
  9
$HANDSEED
  5
3D2
  9
$TILEMODE
 70
1
  9
$MEASUREMENT
 70
1
  9
$INSUNITS
 70
4
  0
ENDSEC
  0
SECTION
  2
CLASSES
  0
CLASS
  1
ACDBDICTIONARYWDFLT
  2
AcDbDictionaryWithDefault
  3
AutoCAD 2000
 90
0
280
0
281
0
  0
CLASS
  1
ACDBPLACEHOLDER
  2
AcDbPlaceHolder
  3
AutoCAD 2000
 90
0
280
0
281
0
  0
CLASS
  1
LAYOUT
  2
AcDbLayout
  3
AutoCAD 2000
 90
0
280
0
281
0
  0
ENDSEC
  0
SECTION
  2
TABLES
  0
TABLE
  2
VPORT
  5
8
100
AcDbSymbolTable
 70
2
  0
VPORT
  5
1F4
100
AcDbSymbolTableRecord
100
AcDbViewportTableRecord
  2
*ACTIVE
 70
0
 10
0.0
 20
0.0
 11
1.0
 21
1.0
 12
420.5
 22
297.0
 13
0.0
 23
0.0
 14
1.0
 24
1.0
 15
0.0
 25
0.0
 16
0.0
 26
0.0
 36
1.0
 17
0.0
 27
0.0
 37
0.0
 40
594.0
 41
1.4158249158
 42
50.0
 43
0.0
 44
0.0
 50
0.0
 51
0.0
 71
0
 72
100
 73
1
 74
1
 75
0
 76
0
 77
0
 78
0
  0
ENDTAB
  0
TABLE
  2
LTYPE
  5
5
100
AcDbSymbolTable
 70
6
  0
LTYPE
  5
14
100
AcDbSymbolTableRecord
100
AcDbLinetypeTableRecord
  2
BYBLOCK
 70
0
  3

 72
65
 73
0
 40
0.0
  0
LTYPE
  5
15
100
AcDbSymbolTableRecord
100
AcDbLinetypeTableRecord
  2
BYLAYER
 70
0
  3

 72
65
 73
0
 40
0.0
  0
LTYPE
  5
16
100
AcDbSymbolTableRecord
100
AcDbLinetypeTableRecord
  2
CONTINUOUS
 70
64
  3
Solid line
 72
65
 73
0
 40
0.0
  0
LTYPE
  5
1F5
100
AcDbSymbolTableRecord
100
AcDbLinetypeTableRecord
  2
CENTER
 70
64
  3
____ _ ____ _ ____ _ ____ _ ____ _ ____ _ ____
 72
65
 73
4
 40
0.6
 49
0.375
 74
0
 49
-0.075
 74
0
 49
0.075
 74
0
 49
-0.075
 74
0
  0
LTYPE
  5
1F6
100
AcDbSymbolTableRecord
100
AcDbLinetypeTableRecord
  2
HIDDEN
 70
64
  3
- - - - - - - - - - - - - - - - - - - -
 72
65
 73
2
 40
0.2
 49
0.1
 74
0
 49
-0.1
 74
0
  0
LTYPE
  5
1F7
100
AcDbSymbolTableRecord
100
AcDbLinetypeTableRecord
  2
PHANTOM
 70
64
  3
_____ _ _ _____ _ _ _____ _ _ _____
 72
65
 73
6
 40
0.8
 49
0.45
 74
0
 49
-0.05
 74
0
 49
0.1
 74
0
 49
-0.05
 74
0
 49
0.1
 74
0
 49
-0.05
 74
0
  0
LTYPE
  5
1F8
100
AcDbSymbolTableRecord
100
AcDbLinetypeTableRecord
  2
DOT
 70
64
  3
. . . . . . . . . . . . . . . . . . . .
 72
65
 73
2
 40
0.2
 49
0.1
 74
0
 49
-0.1
 74
0
  0
LTYPE
  5
1F9
100
AcDbSymbolTableRecord
100
AcDbLinetypeTableRecord
  2
DASHED
 70
64
  3
- - - - - - - - - - - - - - - - - - - -
 72
65
 73
2
 40
0.2
 49
0.1
 74
0
 49
-0.1
 74
0
  0
ENDTAB
  0
TABLE
  2
LAYER
  5
2
100
AcDbSymbolTable
 70
36
  0
LAYER
  5
10
100
AcDbSymbolTableRecord
100
AcDbLayerTableRecord
  2
0
 70
0
 62
7
  6
CONTINUOUS
370
-3
390
F
  0
LAYER
  5
1FA
100
AcDbSymbolTableRecord
100
AcDbLayerTableRecord
  2
DEFAULT_1
 70
0
 62
7
  6
CENTER
370
-3
390
F
  0
LAYER
  5
1FB
100
AcDbSymbolTableRecord
100
AcDbLayerTableRecord
  2
DEFAULT_2
 70
0
 62
8
  6
HIDDEN
370
-3
390
F
  0
LAYER
  5
1FC
100
AcDbSymbolTableRecord
100
AcDbLayerTableRecord
  2
DEFAULT_3
 70
0
 62
7
  6
PHANTOM
370
-3
390
F
  0
LAYER
  5
1FD
100
AcDbSymbolTableRecord
100
AcDbLayerTableRecord
  2
AUSFORMSCHRAEGEN
 70
0
 62
7
  6
CONTINUOUS
370
-3
390
F
  0
LAYER
  5
1FE
100
AcDbSymbolTableRecord
100
AcDbLayerTableRecord
  2
BEZUGSACHSEN
 70
0
 62
7
  6
CONTINUOUS
370
-3
390
F
  0
LAYER
  5
1FF
100
AcDbSymbolTableRecord
100
AcDbLayerTableRecord
  2
BEZUGSEBENEN
 70
0
 62
7
  6
CONTINUOUS
370
-3
390
F
  0
LAYER
  5
200
100
AcDbSymbolTableRecord
100
AcDbLayerTableRecord
  2
BEZUGSPUNKTE
 70
0
 62
7
  6
CONTINUOUS
370
-3
390
F
  0
LAYER
  5
201
100
AcDbSymbolTableRecord
100
AcDbLayerTableRecord
  2
BG_STARTBEZUEGE
 70
0
 62
7
  6
CONTINUOUS
370
-3
390
F
  0
LAYER
  5
202
100
AcDbSymbolTableRecord
100
AcDbLayerTableRecord
  2
BOHRUNGEN
 70
0
 62
7
  6
CONTINUOUS
370
-3
390
F
  0
LAYER
  5
203
100
AcDbSymbolTableRecord
100
AcDbLayerTableRecord
  2
FASEN
 70
0
 62
7
  6
CONTINUOUS
370
-3
390
F
  0
LAYER
  5
204
100
AcDbSymbolTableRecord
100
AcDbLayerTableRecord
  2
FLAECHEN
 70
0
 62
7
  6
CONTINUOUS
370
-3
390
F
  0
LAYER
  5
205
100
AcDbSymbolTableRecord
100
AcDbLayerTableRecord
  2
FLAECHENVERBUND
 70
0
 62
7
  6
CONTINUOUS
370
-3
390
F
  0
LAYER
  5
206
100
AcDbSymbolTableRecord
100
AcDbLayerTableRecord
  2
GEWINDE
 70
0
 62
7
  6
CONTINUOUS
370
-3
390
F
  0
LAYER
  5
207
100
AcDbSymbolTableRecord
100
AcDbLayerTableRecord
  2
HILFEN
 70
0
 62
7
  6
CONTINUOUS
370
-3
390
F
  0
LAYER
  5
208
100
AcDbSymbolTableRecord
100
AcDbLayerTableRecord
  2
KONSTRUKTIONSELEMENTE
 70
0
 62
7
  6
CONTINUOUS
370
-3
390
F
  0
LAYER
  5
209
100
AcDbSymbolTableRecord
100
AcDbLayerTableRecord
  2
KURVEN
 70
0
 62
7
  6
CONTINUOUS
370
-3
390
F
  0
LAYER
  5
20A
100
AcDbSymbolTableRecord
100
AcDbLayerTableRecord
  2
PLATZIERUNG
 70
0
 62
7
  6
CONTINUOUS
370
-3
390
F
  0
LAYER
  5
20B
100
AcDbSymbolTableRecord
100
AcDbLayerTableRecord
  2
PLAZIERUNG
 70
0
 62
7
  6
CONTINUOUS
370
-3
390
F
  0
LAYER
  5
20C
100
AcDbSymbolTableRecord
100
AcDbLayerTableRecord
  2
RUNDUNGEN
 70
0
 62
7
  6
CONTINUOUS
370
-3
390
F
  0
LAYER
  5
20D
100
AcDbSymbolTableRecord
100
AcDbLayerTableRecord
  2
TEIL_STARTBEZUEGE
 70
0
 62
7
  6
CONTINUOUS
370
-3
390
F
  0
LAYER
  5
20E
100
AcDbSymbolTableRecord
100
AcDbLayerTableRecord
  2
XSEC_DATUMS
 70
0
 62
7
  6
CONTINUOUS
370
-3
390
F
  0
LAYER
  5
20F
100
AcDbSymbolTableRecord
100
AcDbLayerTableRecord
  2
ZEICHNUNGSBEMASSUNGEN
 70
0
 62
7
  6
CONTINUOUS
370
-3
390
F
  0
ENDTAB
  0
TABLE
  2
STYLE
  5
3
100
AcDbSymbolTable
 70
1
  0
STYLE
  5
11
100
AcDbSymbolTableRecord
100
AcDbTextStyleTableRecord
  2
STANDARD
 70
0
 40
0.0
 41
0.7
 50
0.0
 71
0
 42
0.2
  3
txt
  4

  0
STYLE
  5
210
100
AcDbSymbolTableRecord
100
AcDbTextStyleTableRecord
  2
TEXTSTYLE_1
 70
0
 40
0.0
 41
0.8
 50
0.0
 71
0
 42
0.2
  3
gdt
  4

  0
ENDTAB
  0
TABLE
  2
VIEW
  5
6
100
AcDbSymbolTable
 70
0
  0
ENDTAB
  0
TABLE
  2
UCS
  5
7
100
AcDbSymbolTable
 70
0
  0
ENDTAB
  0
TABLE
  2
APPID
  5
9
100
AcDbSymbolTable
 70
1
  0
APPID
  5
211
100
AcDbSymbolTableRecord
100
AcDbRegAppTableRecord
  2
ACAD
 70
0
  0
ENDTAB
  0
TABLE
  2
BLOCK_RECORD
  5
1
100
AcDbSymbolTable
 70
0
  0
BLOCK_RECORD
  5
212
100
AcDbSymbolTableRecord
100
AcDbBlockTableRecord
  2
*Model_Space
  0
BLOCK_RECORD
  5
213
100
AcDbSymbolTableRecord
100
AcDbBlockTableRecord
  2
*Paper_Space
  0
ENDTAB
  0
TABLE
  2
DIMSTYLE
  5
A
100
AcDbSymbolTable
 70
1
100
AcDbDimStyleTable
 71
0
  0
DIMSTYLE
105
214
100
AcDbSymbolTableRecord
100
AcDbDimStyleTableRecord
  2
STANDARD
 70
0
  3

  4

 40
1.0
 41
3.5
 42
0.0625
 43
0.38
 44
0.18
 45
0.0
 46
0.0
 47
0.005
 48
0.005
140
3.5
141
0.09
142
0.0
143
25.4
144
1.0
145
0.0
146
1.0
147
0.09
 71
1.0
 72
0.0
 73
0
 74
0
 75
0
 76
0
 77
1
 78
8
170
0
171
2
172
0
173
0
174
0
175
0
176
0
177
0
178
5
270
2
271
3
272
3
273
2
274
2
275
0
280
0
281
0
282
0
283
1
284
8
285
0
286
0
287
3
288
0
340
11
  0
ENDTAB
  0
ENDSEC
  0
SECTION
  2
BLOCKS
  0
BLOCK
  5
20
100
AcDbEntity
  8
0
100
AcDbBlockBegin
  2
*Model_Space
 70
0
 10
0.0
 20
0.0
 30
0.0
  3
*Model_Space
  1

  0
ENDBLK
  5
21
100
AcDbEntity
  8
0
100
AcDbBlockEnd
  0
BLOCK
  5
1C
100
AcDbEntity
  8
0
100
AcDbBlockBegin
  2
*Paper_Space
 70
0
 10
0.0
 20
0.0
 30
0.0
  3
*Paper_Space
  1

  0
ENDBLK
  5
1D
100
AcDbEntity
  8
0
100
AcDbBlockEnd
  0
ENDSEC
  0
SECTION
  2
ENTITIES
  0
MTEXT
  5
215
100
AcDbEntity
  8
0
100
AcDbMText
 62
5
  6
CONTINUOUS
  7
STANDARD
 71
1
 72
1
 10
429.0684182048
 20
309.6920608988
 30
0.0
 11
1.0
 21
0.0
 31
0.0
 44
0.9
  1
VWBG 12t M45
 40
8.0
 41
78.4761904762
  0
MTEXT
  5
216
100
AcDbEntity
  8
0
100
AcDbMText
 62
5
  6
CONTINUOUS
  7
STANDARD
 71
1
 72
1
 10
284.4925871784
 20
381.6314089757
 30
0.0
 11
0.0
 21
1.0
 31
0.0
 44
0.9
  1
VWBG 12t M45
 40
8.0
 41
78.4761904762
  0
MTEXT
  5
217
100
AcDbEntity
  8
0
100
AcDbMText
 62
5
  6
CONTINUOUS
  7
STANDARD
 71
1
 72
1
 10
285.0366690452
 20
72.4509100117
 30
0.0
 11
0.0
 21
1.0
 31
0.0
 44
0.9
  1
VWBG 12t M45
 40
8.0
 41
78.4761904762
  0
LINE
  5
218
100
AcDbEntity
  8
0
100
AcDbLine
 62
7
  6
CONTINUOUS
 10
0.0
 20
0.0
 11
0.0
 21
594.0
  0
LINE
  5
219
100
AcDbEntity
  8
0
100
AcDbLine
 62
7
  6
CONTINUOUS
 10
0.0
 20
0.0
 11
841.0
 21
0.0
  0
LINE
  5
21A
100
AcDbEntity
  8
0
100
AcDbLine
 62
7
  6
CONTINUOUS
 10
0.0
 20
594.0
 11
841.0
 21
594.0
  0
LINE
  5
21B
100
AcDbEntity
  8
0
100
AcDbLine
 62
7
  6
CONTINUOUS
 10
841.0
 20
0.0
 11
841.0
 21
594.0
  0
LINE
  5
21C
100
AcDbEntity
  8
0
100
AcDbLine
 62
7
  6
CONTINUOUS
 10
307.1541760129
 20
221.2691358152
 11
268.1541760129
 21
221.2691358152
  0
LINE
  5
21D
100
AcDbEntity
  8
0
100
AcDbLine
 62
7
  6
CONTINUOUS
 10
310.1541760129
 20
224.2691358152
 11
265.1541760129
 21
224.2691358152
  0
LINE
  5
21E
100
AcDbEntity
  8
0
100
AcDbLine
 62
7
  6
CONTINUOUS
 10
265.1541760129
 20
224.2691358152
 11
268.1541760129
 21
221.2691358152
  0
LINE
  5
21F
100
AcDbEntity
  8
FASEN
100
AcDbLine
 62
7
  6
CONTINUOUS
 10
238.6541760129
 20
288.7691358152
 11
239.1541760129
 21
288.2691358152
  0
LINE
  5
220
100
AcDbEntity
  8
FASEN
100
AcDbLine
 62
7
  6
CONTINUOUS
 10
336.1541760129
 20
288.2691358152
 11
239.1541760129
 21
288.2691358152
  0
LINE
  5
221
100
AcDbEntity
  8
FASEN
100
AcDbLine
 62
7
  6
CONTINUOUS
 10
336.6541760129
 20
288.7691358152
 11
238.6541760129
 21
288.7691358152
  0
LINE
  5
222
100
AcDbEntity
  8
BEZUGSACHSEN
100
AcDbLine
 62
7
  6
CONTINUOUS
 10
336.6541760129
 20
295.7691358152
 11
238.6541760129
 21
295.7691358152
  0
LINE
  5
223
100
AcDbEntity
  8
KONSTRUKTIONSELEMENTE
100
AcDbLine
 62
7
  6
CONTINUOUS
 10
305.6472302284
 20
296.7691358152
 11
269.6611217975
 21
296.7691358152
  0
LINE
  5
224
100
AcDbEntity
  8
0
100
AcDbLine
 62
7
  6
CONTINUOUS
 10
287.0591758937
 20
328.1031784597
 11
287.6841760129
 21
328.230838019
  0
LINE
  5
225
100
AcDbEntity
  8
0
100
AcDbLine
 62
7
  6
CONTINUOUS
 10
287.8091758937
 20
328.8691358152
 11
286.9341760129
 21
328.741476256
  0
LINE
  5
226
100
AcDbEntity
  8
0
100
AcDbLine
 62
7
  6
CONTINUOUS
 10
283.9341760129
 20
322.8691358152
 11
284.6841760129
 21
322.8691358152
  0
LINE
  5
227
100
AcDbEntity
  8
0
100
AcDbLine
 62
7
  6
CONTINUOUS
 10
285.6841759533
 20
322.8691358152
 11
290.1841757745
 21
322.8691358152
  0
LINE
  5
228
100
AcDbEntity
  8
0
100
AcDbLine
 62
7
  6
CONTINUOUS
 10
290.1841757745
 20
323.5074337009
 11
286.6841758937
 21
323.5074337009
  0
LINE
  5
229
100
AcDbEntity
  8
0
100
AcDbLine
 62
7
  6
CONTINUOUS
 10
291.1841762513
 20
326.4436038318
 11
292.1841760129
 21
326.4436038318
  0
LINE
  5
22A
100
AcDbEntity
  8
0
100
AcDbLine
 62
7
  6
CONTINUOUS
 10
292.8091757745
 20
326.4436038318
 11
294.1841762513
 21
326.4436038318
  0
LINE
  5
22B
100
AcDbEntity
  8
0
100
AcDbLine
 62
7
  6
CONTINUOUS
 10
294.1841762513
 20
326.9542420688
 11
292.8091757745
 21
326.9542420688
  0
LINE
  5
22C
100
AcDbEntity
  8
0
100
AcDbLine
 62
7
  6
CONTINUOUS
 10
292.1841760129
 20
326.9542420688
 11
291.1841762513
 21
326.9542420688
  0
LINE
  5
22D
100
AcDbEntity
  8
0
100
AcDbLine
 62
7
  6
CONTINUOUS
 10
285.8091760129
 20
327.4648806635
 11
286.4341761321
 21
327.4648806635
  0
LINE
  5
22E
100
AcDbEntity
  8
0
100
AcDbLine
 62
7
  6
CONTINUOUS
 10
292.8091757745
 20
327.9755189005
 11
292.1841760129
 21
327.9755189005
  0
LINE
  5
22F
100
AcDbEntity
  8
0
100
AcDbLine
 62
7
  6
CONTINUOUS
 10
287.6841760129
 20
328.230838019
 11
288.1841758937
 21
328.230838019
  0
LINE
  5
230
100
AcDbEntity
  8
0
100
AcDbLine
 62
7
  6
CONTINUOUS
 10
288.3091761321
 20
328.8691358152
 11
287.8091758937
 21
328.8691358152
  0
LINE
  5
231
100
AcDbEntity
  8
0
100
AcDbLine
 62
7
  6
CONTINUOUS
 10
284.6841760129
 20
328.8691358152
 11
283.9341760129
 21
328.8691358152
  0
LINE
  5
232
100
AcDbEntity
  8
0
100
AcDbLine
 62
7
  6
CONTINUOUS
 10
293.1841757745
 20
322.9967953856
 11
293.9341757745
 21
322.8691358152
  0
LINE
  5
233
100
AcDbEntity
  8
0
100
AcDbLine
 62
7
  6
CONTINUOUS
 10
293.9341757745
 20
323.3797740969
 11
293.3091760129
 21
323.5074337009
  0
LINE
  5
234
100
AcDbEntity
  8
0
100
AcDbLine
 62
7
  6
CONTINUOUS
 10
288.1841758937
 20
328.230838019
 11
288.8091760129
 21
328.1031784597
  0
LINE
  5
235
100
AcDbEntity
  8
0
100
AcDbLine
 62
7
  6
CONTINUOUS
 10
292.8091757745
 20
323.1244549561
 11
293.1841757745
 21
322.9967953856
  0
LINE
  5
236
100
AcDbEntity
  8
BEZUGSACHSEN
100
AcDbLine
 62
7
  6
CONTINUOUS
 10
238.6541760129
 20
295.7691358152
 11
238.6541760129
 21
288.7691358152
  0
LINE
  5
237
100
AcDbEntity
  8
BEZUGSACHSEN
100
AcDbLine
 62
7
  6
CONTINUOUS
 10
240.6541760129
 20
333.7691358152
 11
240.6541760129
 21
298.5975629399
  0
LINE
  5
238
100
AcDbEntity
  8
KONSTRUKTIONSELEMENTE
100
AcDbLine
 62
7
  6
CONTINUOUS
 10
334.6541760129
 20
333.7691358152
 11
307.7228082533
 21
333.7691358152
  0
LINE
  5
239
100
AcDbEntity
  8
KONSTRUKTIONSELEMENTE
100
AcDbLine
 62
7
  6
CONTINUOUS
 10
267.5855437725
 20
333.7691358152
 11
240.6541760129
 21
333.7691358152
  0
LINE
  5
23A
100
AcDbEntity
  8
KONSTRUKTIONSELEMENTE
100
AcDbLine
 62
7
  6
CONTINUOUS
 10
242.6543781617
 20
335.7691358152
 11
332.6539738641
 21
335.7691358152
  0
LINE
  5
23B
100
AcDbEntity
  8
0
100
AcDbLine
 62
7
  6
CONTINUOUS
 10
289.0591761321
 20
328.741476256
 11
288.3091761321
 21
328.8691358152
  0
LINE
  5
23C
100
AcDbEntity
  8
0
100
AcDbLine
 62
7
  6
CONTINUOUS
 10
289.5591760129
 20
328.4861571375
 11
289.0591761321
 21
328.741476256
  0
LINE
  5
23D
100
AcDbEntity
  8
0
100
AcDbLine
 62
7
  6
CONTINUOUS
 10
292.4341757745
 20
323.3797740969
 11
292.8091757745
 21
323.1244549561
  0
LINE
  5
23E
100
AcDbEntity
  8
0
100
AcDbLine
 62
7
  6
CONTINUOUS
 10
293.3091760129
 20
323.5074337009
 11
292.9341760129
 21
323.7627528194
  0
LINE
  5
23F
100
AcDbEntity
  8
0
100
AcDbLine
 62
7
  6
CONTINUOUS
 10
288.8091760129
 20
328.1031784597
 11
289.1841760129
 21
327.8478593412
  0
LINE
  5
240
100
AcDbEntity
  8
BEZUGSACHSEN
100
AcDbLine
 62
7
  6
CONTINUOUS
 10
251.1293922598
 20
346.7909965203
 11
243.488226684
 21
365.2384020857
  0
LINE
  5
241
100
AcDbEntity
  8
BEZUGSACHSEN
100
AcDbLine
 62
7
  6
CONTINUOUS
 10
247.6541760129
 20
354.5841736137
 11
247.6541760129
 21
335.7691358152
  0
LINE
  5
242
100
AcDbEntity
  8
BEZUGSACHSEN
100
AcDbLine
 62
7
  6
CONTINUOUS
 10
243.4885118538
 20
368.3005580055
 11
255.3417415446
 21
396.9167858829
  0
LINE
  5
243
100
AcDbEntity
  8
BEZUGSACHSEN
100
AcDbLine
 62
7
  6
CONTINUOUS
 10
313.8828930087
 20
345.2691358152
 11
261.4254590171
 21
345.2691358152
  0
LINE
  5
244
100
AcDbEntity
  8
0
100
AcDbLine
 62
7
  6
CONTINUOUS
 10
290.0591762513
 20
327.9755189005
 11
289.5591760129
 21
328.4861571375
  0
LINE
  5
245
100
AcDbEntity
  8
0
100
AcDbLine
 62
7
  6
CONTINUOUS
 10
265.1541760129
 20
288.2691358152
 11
265.1541760129
 21
224.2691358152
  0
LINE
  5
246
100
AcDbEntity
  8
0
100
AcDbLine
 62
7
  6
CONTINUOUS
 10
264.4585230003
 20
384.8704894965
 11
264.5413326738
 21
385.4257644653
  0
LINE
  5
247
100
AcDbEntity
  8
0
100
AcDbLine
 62
7
  6
CONTINUOUS
 10
263.8664407039
 20
385.1397248779
 11
263.7523897857
 21
384.7603644277
  0
LINE
  5
248
100
AcDbEntity
  8
0
100
AcDbLine
 62
7
  6
CONTINUOUS
 10
261.6019990731
 20
386.1424757859
 11
259.8584939499
 21
383.7011257731
  0
LINE
  5
249
100
AcDbEntity
  8
BEZUGSACHSEN
100
AcDbLine
 62
7
  6
CONTINUOUS
 10
257.5065259452
 20
399.0815702835
 11
274.4041760129
 21
406.0808061138
  0
LINE
  5
24A
100
AcDbEntity
  8
RUNDUNGEN
100
AcDbLine
 62
7
  6
CONTINUOUS
 10
257.5065259452
 20
399.0815702835
 11
274.4041760129
 21
406.0808061138
  0
LINE
  5
24B
100
AcDbEntity
  8
BEZUGSACHSEN
100
AcDbLine
 62
7
  6
CONTINUOUS
 10
335.2399624505
 20
297.1833493776
 11
336.6541760129
 21
295.7691358152
  0
LINE
  5
24C
100
AcDbEntity
  8
0
100
AcDbLine
 62
7
  6
CONTINUOUS
 10
289.1841760129
 20
327.8478593412
 11
289.4341757745
 21
327.4648806635
  0
LINE
  5
24D
100
AcDbEntity
  8
0
100
AcDbLine
 62
7
  6
CONTINUOUS
 10
292.1841760129
 20
323.8904123786
 11
292.4341757745
 21
323.3797740969
  0
LINE
  5
24E
100
AcDbEntity
  8
0
100
AcDbLine
 62
7
  6
CONTINUOUS
 10
264.5413326738
 20
385.4257644653
 11
264.3437219254
 21
386.027700011
  0
LINE
  5
24F
100
AcDbEntity
  8
0
100
AcDbLine
 62
7
  6
CONTINUOUS
 10
263.8039584224
 20
385.4915542064
 11
263.8664407039
 21
385.1397248779
  0
LINE
  5
250
100
AcDbEntity
  8
KONSTRUKTIONSELEMENTE
100
AcDbLine
 62
7
  6
CONTINUOUS
 10
267.5855437725
 20
333.7691358152
 11
267.5855437725
 21
298.7691358152
  0
LINE
  5
251
100
AcDbEntity
  8
KONSTRUKTIONSELEMENTE
100
AcDbLine
 62
7
  6
CONTINUOUS
 10
274.4041760129
 20
370.0191358152
 11
274.4041760129
 21
535.5191358152
  0
LINE
  5
252
100
AcDbEntity
  8
0
100
AcDbLine
 62
7
  6
CONTINUOUS
 10
270.6102185878
 20
387.5522935835
 11
270.6365302417
 21
388.2664780065
  0
LINE
  5
253
100
AcDbEntity
  8
0
100
AcDbLine
 62
7
  6
CONTINUOUS
 10
269.9099023089
 20
387.950725342
 11
269.8042736619
 21
387.5095275554
  0
LINE
  5
254
100
AcDbEntity
  8
0
100
AcDbLine
 62
7
  6
CONTINUOUS
 10
270.4121167735
 20
387.0269900722
 11
270.6102185878
 21
387.5522935835
  0
LINE
  5
255
100
AcDbEntity
  8
0
100
AcDbLine
 62
7
  6
CONTINUOUS
 10
269.8042736619
 20
387.5095275554
 11
269.5202767487
 21
387.0786645206
  0
LINE
  5
256
100
AcDbEntity
  8
0
100
AcDbLine
 62
7
  6
CONTINUOUS
 10
260.8138063417
 20
383.9405047837
 11
262.1940811616
 21
385.8732401135
  0
LINE
  5
257
100
AcDbEntity
  8
0
100
AcDbLine
 62
7
  6
CONTINUOUS
 10
263.7523897857
 20
384.7603644277
 11
262.3721149658
 21
382.8276290979
  0
LINE
  5
258
100
AcDbEntity
  8
0
100
AcDbLine
 62
7
  6
CONTINUOUS
 10
262.995438299
 20
382.3824789067
 11
264.23042106
 21
384.1117684507
  0
LINE
  5
259
100
AcDbEntity
  8
0
100
AcDbLine
 62
7
  6
CONTINUOUS
 10
264.7411939756
 20
380.2141155266
 11
265.1770702564
 21
380.8244530298
  0
LINE
  5
25A
100
AcDbEntity
  8
0
100
AcDbLine
 62
7
  6
CONTINUOUS
 10
266.9932213571
 20
383.3675258629
 11
267.5017438233
 21
384.0795864773
  0
LINE
  5
25B
100
AcDbEntity
  8
0
100
AcDbLine
 62
7
  6
CONTINUOUS
 10
270.0356472672
 20
386.5120217443
 11
270.4121167735
 21
387.0269900722
  0
LINE
  5
25C
100
AcDbEntity
  8
0
100
AcDbLine
 62
7
  6
CONTINUOUS
 10
262.0691165986
 20
386.5768987704
 11
261.6019990731
 21
386.1424757859
  0
LINE
  5
25D
100
AcDbEntity
  8
0
100
AcDbLine
 62
7
  6
CONTINUOUS
 10
267.4781456245
 20
392.2964133545
 11
266.9233079046
 21
391.7917797205
  0
LINE
  5
25E
100
AcDbEntity
  8
0
100
AcDbLine
 62
7
  6
CONTINUOUS
 10
264.703957025
 20
389.7732451844
 11
264.1491190406
 21
389.2686113098
  0
LINE
  5
25F
100
AcDbEntity
  8
0
100
AcDbLine
 62
7
  6
CONTINUOUS
 10
269.5202767487
 20
387.0786645206
 11
269.150384759
 21
386.7422419375
  0
LINE
  5
260
100
AcDbEntity
  8
0
100
AcDbLine
 62
7
  6
CONTINUOUS
 10
269.6657552776
 20
386.1755991612
 11
270.0356472672
 21
386.5120217443
  0
LINE
  5
261
100
AcDbEntity
  8
0
100
AcDbLine
 62
7
  6
CONTINUOUS
 10
262.1940811616
 20
385.8732401135
 11
262.5159065242
 21
386.1042171666
  0
LINE
  5
262
100
AcDbEntity
  8
0
100
AcDbLine
 62
7
  6
CONTINUOUS
 10
269.1174956035
 20
385.8495117532
 11
269.6657552776
 21
386.1755991612
  0
LINE
  5
263
100
AcDbEntity
  8
0
100
AcDbLine
 62
7
  6
CONTINUOUS
 10
271.9383750649
 20
395.1753886621
 11
269.33601903
 21
393.6828260779
  0
LINE
  5
264
100
AcDbEntity
  8
0
100
AcDbLine
 62
7
  6
CONTINUOUS
 10
270.367687802
 20
393.3915354751
 11
272.3194548282
 21
394.5109574132
  0
LINE
  5
265
100
AcDbEntity
  8
0
100
AcDbLine
 62
7
  6
CONTINUOUS
 10
274.4041760129
 20
390.5558188303
 11
272.5906533992
 21
389.5156859806
  0
LINE
  5
266
100
AcDbEntity
  8
0
100
AcDbLine
 62
7
  6
CONTINUOUS
 10
272.3211441983
 20
388.4781140081
 11
274.4041760129
 21
389.6728219214
  0
LINE
  5
267
100
AcDbEntity
  8
0
100
AcDbLine
 62
7
  6
CONTINUOUS
 10
269.150384759
 20
386.7422419375
 11
268.6945982221
 21
386.5002602874
  0
LINE
  5
268
100
AcDbEntity
  8
0
100
AcDbLine
 62
7
  6
CONTINUOUS
 10
272.5440462796
 20
395.3756008962
 11
271.9383750649
 21
395.1753886621
  0
LINE
  5
269
100
AcDbEntity
  8
0
100
AcDbLine
 62
7
  6
CONTINUOUS
 10
259.8584939499
 20
383.7011257731
 11
264.7411939756
 21
380.2141155266
  0
LINE
  5
26A
100
AcDbEntity
  8
0
100
AcDbLine
 62
7
  6
CONTINUOUS
 10
265.1770702564
 20
380.8244530298
 11
262.995438299
 21
382.3824789067
  0
LINE
  5
26B
100
AcDbEntity
  8
0
100
AcDbLine
 62
7
  6
CONTINUOUS
 10
262.3721149658
 20
382.8276290979
 11
260.8138063417
 21
383.9405047837
  0
LINE
  5
26C
100
AcDbEntity
  8
0
100
AcDbLine
 62
7
  6
CONTINUOUS
 10
263.2532807757
 20
386.0384274255
 11
263.5649427333
 21
385.8158521221
  0
LINE
  5
26D
100
AcDbEntity
  8
0
100
AcDbLine
 62
7
  6
CONTINUOUS
 10
264.1047062363
 20
386.3519979268
 11
263.6891570565
 21
386.6487649288
  0
LINE
  5
26E
100
AcDbEntity
  8
0
100
AcDbLine
 62
7
  6
CONTINUOUS
 10
266.81186677
 20
386.3409569102
 11
267.3338152817
 21
385.9528604178
  0
LINE
  5
26F
100
AcDbEntity
  8
0
100
AcDbLine
 62
7
  6
CONTINUOUS
 10
264.1491190406
 20
389.2686113098
 11
266.81186677
 21
386.3409569102
  0
LINE
  5
270
100
AcDbEntity
  8
0
100
AcDbLine
 62
7
  6
CONTINUOUS
 10
267.3667047544
 20
386.8455907848
 11
264.703957025
 21
389.7732451844
  0
LINE
  5
271
100
AcDbEntity
  8
0
100
AcDbLine
 62
7
  6
CONTINUOUS
 10
266.9233079046
 20
391.7917797205
 11
269.586055634
 21
388.8641253209
  0
LINE
  5
272
100
AcDbEntity
  8
0
100
AcDbLine
 62
7
  6
CONTINUOUS
 10
270.1408933539
 20
389.3687589549
 11
267.4781456245
 21
392.2964133545
  0
LINE
  5
273
100
AcDbEntity
  8
0
100
AcDbLine
 62
7
  6
CONTINUOUS
 10
263.5649427333
 20
385.8158521221
 11
263.8039584224
 21
385.4915542064
  0
LINE
  5
274
100
AcDbEntity
  8
0
100
AcDbLine
 62
7
  6
CONTINUOUS
 10
264.3437219254
 20
386.027700011
 11
264.1047062363
 21
386.3519979268
  0
LINE
  5
275
100
AcDbEntity
  8
0
100
AcDbLine
 62
7
  6
CONTINUOUS
 10
270.4778956062
 20
388.8124509303
 11
270.1408933539
 21
389.3687589549
  0
LINE
  5
276
100
AcDbEntity
  8
0
100
AcDbLine
 62
7
  6
CONTINUOUS
 10
269.33601903
 20
393.6828260779
 11
272.3211441983
 21
388.4781140081
  0
LINE
  5
277
100
AcDbEntity
  8
0
100
AcDbLine
 62
7
  6
CONTINUOUS
 10
272.5906533992
 20
389.5156859806
 11
270.367687802
 21
393.3915354751
  0
LINE
  5
278
100
AcDbEntity
  8
0
100
AcDbLine
 62
7
  6
CONTINUOUS
 10
269.586055634
 20
388.8641253209
 11
269.8371628099
 21
388.402257748
  0
LINE
  5
279
100
AcDbEntity
  8
0
100
AcDbLine
 62
7
  6
CONTINUOUS
 10
292.9341760129
 20
323.7627528194
 11
292.8091757745
 21
324.1457315865
  0
LINE
  5
27A
100
AcDbEntity
  8
0
100
AcDbLine
 62
7
  6
CONTINUOUS
 10
270.6365302417
 20
388.2664780065
 11
270.4778956062
 21
388.8124509303
  0
LINE
  5
27B
100
AcDbEntity
  8
0
100
AcDbLine
 62
7
  6
CONTINUOUS
 10
290.1841757745
 20
327.4648806635
 11
290.0591762513
 21
327.9755189005
  0
LINE
  5
27C
100
AcDbEntity
  8
0
100
AcDbLine
 62
7
  6
CONTINUOUS
 10
269.8371628099
 20
388.402257748
 11
269.9099023089
 21
387.950725342
  0
LINE
  5
27D
100
AcDbEntity
  8
0
100
AcDbLine
 62
7
  6
CONTINUOUS
 10
283.1841760129
 20
327.9755189005
 11
283.1841760129
 21
326.9542420688
  0
LINE
  5
27E
100
AcDbEntity
  8
0
100
AcDbLine
 62
7
  6
CONTINUOUS
 10
283.9341760129
 20
327.8478593412
 11
283.9341760129
 21
322.8691358152
  0
LINE
  5
27F
100
AcDbEntity
  8
0
100
AcDbLine
 62
7
  6
CONTINUOUS
 10
284.6841760129
 20
322.8691358152
 11
284.6841760129
 21
328.8691358152
  0
LINE
  5
280
100
AcDbEntity
  8
0
100
AcDbLine
 62
7
  6
CONTINUOUS
 10
285.6841759533
 20
323.5074337009
 11
285.6841759533
 21
322.8691358152
  0
LINE
  5
281
100
AcDbEntity
  8
0
100
AcDbLine
 62
7
  6
CONTINUOUS
 10
301.3207261427
 20
393.1456667108
 11
301.8704093375
 21
393.4606663844
  0
LINE
  5
282
100
AcDbEntity
  8
0
100
AcDbLine
 62
7
  6
CONTINUOUS
 10
304.6997171148
 20
393.4175874752
 11
304.1957331228
 21
393.1544314986
  0
LINE
  5
283
100
AcDbEntity
  8
0
100
AcDbLine
 62
7
  6
CONTINUOUS
 10
301.2363818905
 20
393.8811496296
 11
300.9043968505
 21
393.7489629862
  0
LINE
  5
284
100
AcDbEntity
  8
0
100
AcDbLine
 62
7
  6
CONTINUOUS
 10
304.7241913836
 20
392.6071391443
 11
305.1525220639
 21
392.7674678475
  0
LINE
  5
285
100
AcDbEntity
  8
0
100
AcDbLine
 62
7
  6
CONTINUOUS
 10
262.6713623831
 20
386.7612152467
 11
262.0691165986
 21
386.5768987704
  0
LINE
  5
286
100
AcDbEntity
  8
0
100
AcDbLine
 62
7
  6
CONTINUOUS
 10
305.0217824243
 20
387.3165666507
 11
305.7271386446
 21
387.4315666982
  0
LINE
  5
287
100
AcDbEntity
  8
0
100
AcDbLine
 62
7
  6
CONTINUOUS
 10
267.8623416423
 20
385.7433098364
 11
268.5758134385
 21
385.7019700983
  0
LINE
  5
288
100
AcDbEntity
  8
0
100
AcDbLine
 62
7
  6
CONTINUOUS
 10
267.5017438233
 20
384.0795864773
 11
264.4585230003
 21
384.8704894965
  0
LINE
  5
289
100
AcDbEntity
  8
0
100
AcDbLine
 62
7
  6
CONTINUOUS
 10
268.2453891492
 20
386.4368244399
 11
267.8027576606
 21
386.5519342628
  0
LINE
  5
28A
100
AcDbEntity
  8
0
100
AcDbLine
 62
7
  6
CONTINUOUS
 10
264.23042106
 20
384.1117684507
 11
266.9932213571
 21
383.3675258629
  0
LINE
  5
28B
100
AcDbEntity
  8
0
100
AcDbLine
 62
7
  6
CONTINUOUS
 10
262.8689731315
 20
386.1592797009
 11
263.2532807757
 21
386.0384274255
  0
LINE
  5
28C
100
AcDbEntity
  8
0
100
AcDbLine
 62
7
  6
CONTINUOUS
 10
263.6891570565
 20
386.6487649288
 11
263.3048494123
 21
386.7696172042
  0
LINE
  5
28D
100
AcDbEntity
  8
0
100
AcDbLine
 62
7
  6
CONTINUOUS
 10
267.3338152817
 20
385.9528604178
 11
267.8623416423
 21
385.7433098364
  0
LINE
  5
28E
100
AcDbEntity
  8
0
100
AcDbLine
 62
7
  6
CONTINUOUS
 10
267.8027576606
 20
386.5519342628
 11
267.3667047544
 21
386.8455907848
  0
LINE
  5
28F
100
AcDbEntity
  8
0
100
AcDbLine
 62
7
  6
CONTINUOUS
 10
274.2634938194
 20
394.8901163209
 11
273.7925772273
 21
395.2086900343
  0
LINE
  5
290
100
AcDbEntity
  8
BEZUGSACHSEN
100
AcDbLine
 62
7
  6
CONTINUOUS
 10
332.6541760129
 20
335.7691358152
 11
334.6541760129
 21
333.7691358152
  0
LINE
  5
291
100
AcDbEntity
  8
0
100
AcDbLine
 62
7
  6
CONTINUOUS
 10
273.6764182825
 20
394.4062368232
 11
274.0389025458
 21
394.0254725277
  0
LINE
  5
292
100
AcDbEntity
  8
0
100
AcDbLine
 62
7
  6
CONTINUOUS
 10
274.4041760129
 20
394.7278015123
 11
274.2634938194
 21
394.8901163209
  0
LINE
  5
293
100
AcDbEntity
  8
0
100
AcDbLine
 62
7
  6
CONTINUOUS
 10
274.0389025458
 20
394.0254725277
 11
274.4041760129
 21
393.3886003312
  0
LINE
  5
294
100
AcDbEntity
  8
0
100
AcDbLine
 62
7
  6
CONTINUOUS
 10
289.4341757745
 20
327.4648806635
 11
289.4341757745
 21
327.2095611873
  0
LINE
  5
295
100
AcDbEntity
  8
0
100
AcDbLine
 62
7
  6
CONTINUOUS
 10
290.1841757745
 20
322.8691358152
 11
290.1841757745
 21
323.5074337009
  0
LINE
  5
296
100
AcDbEntity
  8
0
100
AcDbLine
 62
7
  6
CONTINUOUS
 10
290.1841757745
 20
327.2095611873
 11
290.1841757745
 21
327.4648806635
  0
LINE
  5
297
100
AcDbEntity
  8
0
100
AcDbLine
 62
7
  6
CONTINUOUS
 10
291.1841762513
 20
326.9542420688
 11
291.1841762513
 21
326.4436038318
  0
LINE
  5
298
100
AcDbEntity
  8
0
100
AcDbLine
 62
7
  6
CONTINUOUS
 10
292.1841760129
 20
327.9755189005
 11
292.1841760129
 21
326.9542420688
  0
LINE
  5
299
100
AcDbEntity
  8
0
100
AcDbLine
 62
7
  6
CONTINUOUS
 10
292.1841760129
 20
326.4436038318
 11
292.1841760129
 21
323.8904123786
  0
LINE
  5
29A
100
AcDbEntity
  8
0
100
AcDbLine
 62
7
  6
CONTINUOUS
 10
292.8091757745
 20
324.1457315865
 11
292.8091757745
 21
326.4436038318
  0
LINE
  5
29B
100
AcDbEntity
  8
0
100
AcDbLine
 62
7
  6
CONTINUOUS
 10
292.8091757745
 20
326.9542420688
 11
292.8091757745
 21
327.9755189005
  0
LINE
  5
29C
100
AcDbEntity
  8
0
100
AcDbLine
 62
7
  6
CONTINUOUS
 10
293.9341757745
 20
322.8691358152
 11
293.9341757745
 21
323.3797740969
  0
LINE
  5
29D
100
AcDbEntity
  8
0
100
AcDbLine
 62
7
  6
CONTINUOUS
 10
294.1841762513
 20
326.4436038318
 11
294.1841762513
 21
326.9542420688
  0
LINE
  5
29E
100
AcDbEntity
  8
0
100
AcDbLine
 62
7
  6
CONTINUOUS
 10
301.3125425156
 20
391.8926749306
 11
301.3533660679
 21
392.293463504
  0
LINE
  5
29F
100
AcDbEntity
  8
0
100
AcDbLine
 62
7
  6
CONTINUOUS
 10
285.9341760725
 20
327.9755189005
 11
285.8091760129
 21
327.4648806635
  0
LINE
  5
2A0
100
AcDbEntity
  8
0
100
AcDbLine
 62
7
  6
CONTINUOUS
 10
302.9841602331
 20
390.2421050836
 11
303.1860882269
 21
390.7274933126
  0
LINE
  5
2A1
100
AcDbEntity
  8
0
100
AcDbLine
 62
7
  6
CONTINUOUS
 10
301.6091930262
 20
394.414123524
 11
301.5057843723
 21
394.1806829479
  0
LINE
  5
2A2
100
AcDbEntity
  8
0
100
AcDbLine
 62
7
  6
CONTINUOUS
 10
301.0540208808
 20
391.3090734903
 11
301.3125425156
 21
391.8926749306
  0
LINE
  5
2A3
100
AcDbEntity
  8
0
100
AcDbLine
 62
7
  6
CONTINUOUS
 10
302.1398118194
 20
393.7601997028
 11
302.346629272
 21
394.2270811819
  0
LINE
  5
2A4
100
AcDbEntity
  8
0
100
AcDbLine
 62
7
  6
CONTINUOUS
 10
302.5819762306
 20
391.1719578171
 11
302.3043947131
 21
390.5837420266
  0
LINE
  5
2A5
100
AcDbEntity
  8
0
100
AcDbLine
 62
7
  6
CONTINUOUS
 10
303.7167791916
 20
392.7143713851
 11
302.5819762306
 21
391.1719578171
  0
LINE
  5
2A6
100
AcDbEntity
  8
0
100
AcDbLine
 62
7
  6
CONTINUOUS
 10
303.1860882269
 20
390.7274933126
 11
304.320891188
 21
392.2699068805
  0
LINE
  5
2A7
100
AcDbEntity
  8
0
100
AcDbLine
 62
7
  6
CONTINUOUS
 10
305.7549595588
 20
390.4223755589
 11
305.3010384168
 21
389.8054101893
  0
LINE
  5
2A8
100
AcDbEntity
  8
0
100
AcDbLine
 62
7
  6
CONTINUOUS
 10
306.2072064113
 20
389.1387134324
 11
305.601978116
 21
388.3160927956
  0
LINE
  5
2A9
100
AcDbEntity
  8
0
100
AcDbLine
 62
7
  6
CONTINUOUS
 10
301.5057843723
 20
394.1806829479
 11
301.2363818905
 21
393.8811496296
  0
LINE
  5
2AA
100
AcDbEntity
  8
0
100
AcDbLine
 62
7
  6
CONTINUOUS
 10
301.8704093375
 20
393.4606663844
 11
302.1398118194
 21
393.7601997028
  0
LINE
  5
2AB
100
AcDbEntity
  8
0
100
AcDbLine
 62
7
  6
CONTINUOUS
 10
300.9041760129
 20
391.1424694694
 11
301.0540208808
 21
391.3090734903
  0
LINE
  5
2AC
100
AcDbEntity
  8
BEZUGSACHSEN
100
AcDbLine
 62
7
  6
CONTINUOUS
 10
242.6541760129
 20
335.7691358152
 11
240.6541760129
 21
333.7691358152
  0
LINE
  5
2AD
100
AcDbEntity
  8
0
100
AcDbLine
 62
7
  6
CONTINUOUS
 10
304.1957331228
 20
393.1544314986
 11
303.7167791916
 21
392.7143713851
  0
LINE
  5
2AE
100
AcDbEntity
  8
0
100
AcDbLine
 62
7
  6
CONTINUOUS
 10
304.320891188
 20
392.2699068805
 11
304.7241913836
 21
392.6071391443
  0
LINE
  5
2AF
100
AcDbEntity
  8
0
100
AcDbLine
 62
7
  6
CONTINUOUS
 10
305.7271386446
 20
387.4315666982
 11
306.1304365887
 21
387.7688007295
  0
LINE
  5
2B0
100
AcDbEntity
  8
0
100
AcDbLine
 62
7
  6
CONTINUOUS
 10
305.601978116
 20
388.3160927956
 11
305.2743337486
 21
388.081686398
  0
LINE
  5
2B1
100
AcDbEntity
  8
0
100
AcDbLine
 62
7
  6
CONTINUOUS
 10
268.5758134385
 20
385.7019700983
 11
269.1174956035
 21
385.8495117532
  0
LINE
  5
2B2
100
AcDbEntity
  8
0
100
AcDbLine
 62
7
  6
CONTINUOUS
 10
305.4050733086
 20
393.5325874867
 11
304.6997171148
 21
393.4175874752
  0
LINE
  5
2B3
100
AcDbEntity
  8
0
100
AcDbLine
 62
7
  6
CONTINUOUS
 10
262.5159065242
 20
386.1042171666
 11
262.8689731315
 21
386.1592797009
  0
LINE
  5
2B4
100
AcDbEntity
  8
0
100
AcDbLine
 62
7
  6
CONTINUOUS
 10
268.6945982221
 20
386.5002602874
 11
268.2453891492
 21
386.4368244399
  0
LINE
  5
2B5
100
AcDbEntity
  8
0
100
AcDbLine
 62
7
  6
CONTINUOUS
 10
301.0404454297
 20
393.1302003555
 11
301.3207261427
 21
393.1456667108
  0
LINE
  5
2B6
100
AcDbEntity
  8
0
100
AcDbLine
 62
7
  6
CONTINUOUS
 10
273.1047984596
 20
395.4028840067
 11
272.5440462796
 21
395.3756008962
  0
LINE
  5
2B7
100
AcDbEntity
  8
0
100
AcDbLine
 62
7
  6
CONTINUOUS
 10
263.3048494123
 20
386.7696172042
 11
262.6713623831
 21
386.7612152467
  0
LINE
  5
2B8
100
AcDbEntity
  8
0
100
AcDbLine
 62
7
  6
CONTINUOUS
 10
305.2743337486
 20
388.081686398
 11
304.82097065
 21
388.098263455
  0
LINE
  5
2B9
100
AcDbEntity
  8
0
100
AcDbLine
 62
7
  6
CONTINUOUS
 10
305.1525220639
 20
392.7674678475
 11
305.6058851094
 21
392.7508907184
  0
LINE
  5
2BA
100
AcDbEntity
  8
0
100
AcDbLine
 62
7
  6
CONTINUOUS
 10
272.8166937142
 20
394.6489790652
 11
273.2690148064
 21
394.6140723053
  0
LINE
  5
2BB
100
AcDbEntity
  8
0
100
AcDbLine
 62
7
  6
CONTINUOUS
 10
304.467733258
 20
387.4072217354
 11
305.0217824243
 21
387.3165666507
  0
LINE
  5
2BC
100
AcDbEntity
  8
0
100
AcDbLine
 62
7
  6
CONTINUOUS
 10
305.9591224551
 20
393.4419323751
 11
305.4050733086
 21
393.5325874867
  0
LINE
  5
2BD
100
AcDbEntity
  8
0
100
AcDbLine
 62
7
  6
CONTINUOUS
 10
273.7925772273
 20
395.2086900343
 11
273.1047984596
 21
395.4028840067
  0
LINE
  5
2BE
100
AcDbEntity
  8
0
100
AcDbLine
 62
7
  6
CONTINUOUS
 10
304.82097065
 20
388.098263455
 11
304.3425750273
 21
388.2917461283
  0
LINE
  5
2BF
100
AcDbEntity
  8
0
100
AcDbLine
 62
7
  6
CONTINUOUS
 10
303.8886538323
 20
387.6747806867
 11
304.467733258
 21
387.4072217354
  0
LINE
  5
2C0
100
AcDbEntity
  8
0
100
AcDbLine
 62
7
  6
CONTINUOUS
 10
273.2690148064
 20
394.6140723053
 11
273.6764182825
 21
394.4062368232
  0
LINE
  5
2C1
100
AcDbEntity
  8
0
100
AcDbLine
 62
7
  6
CONTINUOUS
 10
302.9824858377
 20
388.3414774436
 11
303.8886538323
 21
387.6747806867
  0
LINE
  5
2C2
100
AcDbEntity
  8
0
100
AcDbLine
 62
7
  6
CONTINUOUS
 10
304.3425750273
 20
388.2917461283
 11
303.4364070327
 21
388.9584428852
  0
LINE
  5
2C3
100
AcDbEntity
  8
KONSTRUKTIONSELEMENTE
100
AcDbLine
 62
7
  6
CONTINUOUS
 10
300.9041760129
 20
370.0191358152
 11
300.9041760129
 21
535.5191358152
  0
LINE
  5
2C4
100
AcDbEntity
  8
KONSTRUKTIONSELEMENTE
100
AcDbLine
 62
7
  6
CONTINUOUS
 10
307.7228082533
 20
333.7691358152
 11
307.7228082533
 21
298.7691358152
  0
LINE
  5
2C5
100
AcDbEntity
  8
0
100
AcDbLine
 62
7
  6
CONTINUOUS
 10
310.1541760129
 20
288.2691358152
 11
310.1541760129
 21
224.2691358152
  0
LINE
  5
2C6
100
AcDbEntity
  8
0
100
AcDbLine
 62
7
  6
CONTINUOUS
 10
302.9585695594
 20
389.7854681291
 11
302.9841602331
 21
390.2421050836
  0
LINE
  5
2C7
100
AcDbEntity
  8
0
100
AcDbLine
 62
7
  6
CONTINUOUS
 10
301.650016651
 20
394.8149122609
 11
301.6091930262
 21
394.414123524
  0
LINE
  5
2C8
100
AcDbEntity
  8
0
100
AcDbLine
 62
7
  6
CONTINUOUS
 10
302.346629272
 20
394.2270811819
 11
302.387452752
 21
394.6278695919
  0
LINE
  5
2C9
100
AcDbEntity
  8
0
100
AcDbLine
 62
7
  6
CONTINUOUS
 10
302.3043947131
 20
390.5837420266
 11
302.2031504627
 21
390.0242774385
  0
LINE
  5
2CA
100
AcDbEntity
  8
0
100
AcDbLine
 62
7
  6
CONTINUOUS
 10
290.0591762513
 20
326.6989229503
 11
290.1841757745
 21
327.2095611873
  0
LINE
  5
2CB
100
AcDbEntity
  8
0
100
AcDbLine
 62
7
  6
CONTINUOUS
 10
307.468286253
 20
391.0636861163
 11
307.3420092665
 21
390.6811268564
  0
LINE
  5
2CC
100
AcDbEntity
  8
0
100
AcDbLine
 62
7
  6
CONTINUOUS
 10
307.9461212628
 20
390.2366623518
 11
308.2237052968
 21
390.8248767349
  0
LINE
  5
2CD
100
AcDbEntity
  8
0
100
AcDbLine
 62
7
  6
CONTINUOUS
 10
306.1304365887
 20
387.7688007295
 11
307.2652395498
 21
389.3112142974
  0
LINE
  5
2CE
100
AcDbEntity
  8
0
100
AcDbLine
 62
7
  6
CONTINUOUS
 10
272.3194548282
 20
394.5109574132
 11
272.8166937142
 21
394.6489790652
  0
LINE
  5
2CF
100
AcDbEntity
  8
0
100
AcDbLine
 62
7
  6
CONTINUOUS
 10
305.6058851094
 20
392.7508907184
 11
306.0842807322
 21
392.5574080451
  0
LINE
  5
2D0
100
AcDbEntity
  8
0
100
AcDbLine
 62
7
  6
CONTINUOUS
 10
300.9041760129
 20
395.5641742691
 11
301.2336873588
 21
395.4182085364
  0
LINE
  5
2D1
100
AcDbEntity
  8
0
100
AcDbLine
 62
7
  6
CONTINUOUS
 10
301.4296238196
 20
396.1691578104
 11
300.9041760129
 21
396.401918761
  0
LINE
  5
2D2
100
AcDbEntity
  8
0
100
AcDbLine
 62
7
  6
CONTINUOUS
 10
306.5382018742
 20
393.1743734147
 11
305.9591224551
 21
393.4419323751
  0
LINE
  5
2D3
100
AcDbEntity
  8
0
100
AcDbLine
 62
7
  6
CONTINUOUS
 10
301.9493643816
 20
395.7993009523
 11
301.4296238196
 21
396.1691578104
  0
LINE
  5
2D4
100
AcDbEntity
  8
0
100
AcDbLine
 62
7
  6
CONTINUOUS
 10
305.3010384168
 20
389.8054101893
 11
306.2072064113
 21
389.1387134324
  0
LINE
  5
2D5
100
AcDbEntity
  8
0
100
AcDbLine
 62
7
  6
CONTINUOUS
 10
307.2652395498
 20
389.3112142974
 11
305.7549595588
 21
390.4223755589
  0
LINE
  5
2D6
100
AcDbEntity
  8
0
100
AcDbLine
 62
7
  6
CONTINUOUS
 10
307.3420092665
 20
390.6811268564
 11
307.9461212628
 21
390.2366623518
  0
LINE
  5
2D7
100
AcDbEntity
  8
0
100
AcDbLine
 62
7
  6
CONTINUOUS
 10
306.0842807322
 20
392.5574080451
 11
306.9904487268
 21
391.8907112883
  0
LINE
  5
2D8
100
AcDbEntity
  8
0
100
AcDbLine
 62
7
  6
CONTINUOUS
 10
307.4443698688
 20
392.5076766578
 11
306.5382018742
 21
393.1743734147
  0
LINE
  5
2D9
100
AcDbEntity
  8
0
100
AcDbLine
 62
7
  6
CONTINUOUS
 10
301.2336873588
 20
395.4182085364
 11
301.5248489188
 21
395.1496067698
  0
LINE
  5
2DA
100
AcDbEntity
  8
0
100
AcDbLine
 62
7
  6
CONTINUOUS
 10
302.5547134725
 20
388.8146915362
 11
302.9824858377
 21
388.3414774436
  0
LINE
  5
2DB
100
AcDbEntity
  8
0
100
AcDbLine
 62
7
  6
CONTINUOUS
 10
307.8721422406
 20
392.0344625743
 11
307.4443698688
 21
392.5076766578
  0
LINE
  5
2DC
100
AcDbEntity
  8
0
100
AcDbLine
 62
7
  6
CONTINUOUS
 10
303.4364070327
 20
388.9584428852
 11
303.1093184573
 21
389.3575806816
  0
LINE
  5
2DD
100
AcDbEntity
  8
0
100
AcDbLine
 62
7
  6
CONTINUOUS
 10
306.9904487268
 20
391.8907112883
 11
307.3175373022
 21
391.4915734918
  0
LINE
  5
2DE
100
AcDbEntity
  8
0
100
AcDbLine
 62
7
  6
CONTINUOUS
 10
301.2173174888
 20
392.9122261347
 11
301.0404454297
 21
393.1302003555
  0
LINE
  5
2DF
100
AcDbEntity
  8
0
100
AcDbLine
 62
7
  6
CONTINUOUS
 10
302.2514041728
 20
395.2466322226
 11
301.9493643816
 21
395.7993009523
  0
LINE
  5
2E0
100
AcDbEntity
  8
0
100
AcDbLine
 62
7
  6
CONTINUOUS
 10
302.3032784406
 20
389.3166569212
 11
302.5547134725
 21
388.8146915362
  0
LINE
  5
2E1
100
AcDbEntity
  8
0
100
AcDbLine
 62
7
  6
CONTINUOUS
 10
308.1235772924
 20
391.5324972162
 11
307.8721422406
 21
392.0344625743
  0
LINE
  5
2E2
100
AcDbEntity
  8
0
100
AcDbLine
 62
7
  6
CONTINUOUS
 10
301.5248489188
 20
395.1496067698
 11
301.650016651
 21
394.8149122609
  0
LINE
  5
2E3
100
AcDbEntity
  8
0
100
AcDbLine
 62
7
  6
CONTINUOUS
 10
303.1093184573
 20
389.3575806816
 11
302.9585695594
 21
389.7854681291
  0
LINE
  5
2E4
100
AcDbEntity
  8
0
100
AcDbLine
 62
7
  6
CONTINUOUS
 10
307.3175373022
 20
391.4915734918
 11
307.468286253
 21
391.0636861163
  0
LINE
  5
2E5
100
AcDbEntity
  8
0
100
AcDbLine
 62
7
  6
CONTINUOUS
 10
301.3533660679
 20
392.293463504
 11
301.2173174888
 21
392.9122261347
  0
LINE
  5
2E6
100
AcDbEntity
  8
0
100
AcDbLine
 62
7
  6
CONTINUOUS
 10
302.387452752
 20
394.6278695919
 11
302.2514041728
 21
395.2466322226
  0
LINE
  5
2E7
100
AcDbEntity
  8
0
100
AcDbLine
 62
7
  6
CONTINUOUS
 10
302.2031504627
 20
390.0242774385
 11
302.3032784406
 21
389.3166569212
  0
LINE
  5
2E8
100
AcDbEntity
  8
0
100
AcDbLine
 62
7
  6
CONTINUOUS
 10
308.2237052968
 20
390.8248767349
 11
308.1235772924
 21
391.5324972162
  0
LINE
  5
2E9
100
AcDbEntity
  8
0
100
AcDbLine
 62
7
  6
CONTINUOUS
 10
289.4341757745
 20
327.2095611873
 11
289.1841760129
 21
326.6989229503
  0
LINE
  5
2EA
100
AcDbEntity
  8
0
100
AcDbLine
 62
7
  6
CONTINUOUS
 10
286.4341761321
 20
327.4648806635
 11
286.6841758937
 21
327.8478593412
  0
LINE
  5
2EB
100
AcDbEntity
  8
0
100
AcDbLine
 62
7
  6
CONTINUOUS
 10
289.8091757745
 20
326.3159442726
 11
290.0591762513
 21
326.6989229503
  0
LINE
  5
2EC
100
AcDbEntity
  8
0
100
AcDbLine
 62
7
  6
CONTINUOUS
 10
283.9341760129
 20
328.8691358152
 11
283.1841760129
 21
327.9755189005
  0
LINE
  5
2ED
100
AcDbEntity
  8
0
100
AcDbLine
 62
7
  6
CONTINUOUS
 10
283.1841760129
 20
326.9542420688
 11
283.9341760129
 21
327.8478593412
  0
LINE
  5
2EE
100
AcDbEntity
  8
BEZUGSACHSEN
100
AcDbLine
 62
7
  6
CONTINUOUS
 10
240.0683895753
 20
297.1833493776
 11
238.6541760129
 21
295.7691358152
  0
LINE
  5
2EF
100
AcDbEntity
  8
RUNDUNGEN
100
AcDbLine
 62
7
  6
CONTINUOUS
 10
317.8018260806
 20
399.0815702835
 11
300.9041760129
 21
406.0808061138
  0
LINE
  5
2F0
100
AcDbEntity
  8
BEZUGSACHSEN
100
AcDbLine
 62
7
  6
CONTINUOUS
 10
331.819840172
 20
368.3005580055
 11
319.9666104812
 21
396.9167858829
  0
LINE
  5
2F1
100
AcDbEntity
  8
BEZUGSACHSEN
100
AcDbLine
 62
7
  6
CONTINUOUS
 10
327.6541760129
 20
354.5841736137
 11
327.6541760129
 21
335.7691358152
  0
LINE
  5
2F2
100
AcDbEntity
  8
BEZUGSACHSEN
100
AcDbLine
 62
7
  6
CONTINUOUS
 10
334.6541760129
 20
333.7691358152
 11
334.6541760129
 21
298.5975629399
  0
LINE
  5
2F3
100
AcDbEntity
  8
0
100
AcDbLine
 62
7
  6
CONTINUOUS
 10
286.4341761321
 20
328.4861571375
 11
285.9341760725
 21
327.9755189005
  0
LINE
  5
2F4
100
AcDbEntity
  8
0
100
AcDbLine
 62
7
  6
CONTINUOUS
 10
289.1841760129
 20
326.6989229503
 11
285.6841759533
 21
323.5074337009
  0
LINE
  5
2F5
100
AcDbEntity
  8
0
100
AcDbLine
 62
7
  6
CONTINUOUS
 10
286.6841758937
 20
323.5074337009
 11
289.8091757745
 21
326.3159442726
  0
LINE
  5
2F6
100
AcDbEntity
  8
0
100
AcDbLine
 62
7
  6
CONTINUOUS
 10
286.6841758937
 20
327.8478593412
 11
287.0591758937
 21
328.1031784597
  0
LINE
  5
2F7
100
AcDbEntity
  8
BEZUGSACHSEN
100
AcDbLine
 62
7
  6
CONTINUOUS
 10
336.6541760129
 20
295.7691358152
 11
336.6541760129
 21
288.7691358152
  0
LINE
  5
2F8
100
AcDbEntity
  8
BEZUGSACHSEN
100
AcDbLine
 62
7
  6
CONTINUOUS
 10
324.178959766
 20
346.7909965203
 11
331.8201253418
 21
365.2384020857
  0
LINE
  5
2F9
100
AcDbEntity
  8
0
100
AcDbLine
 62
7
  6
CONTINUOUS
 10
286.9341760129
 20
328.741476256
 11
286.4341761321
 21
328.4861571375
  0
LINE
  5
2FA
100
AcDbEntity
  8
FASEN
100
AcDbLine
 62
7
  6
CONTINUOUS
 10
336.6541760129
 20
288.7691358152
 11
336.1541760129
 21
288.2691358152
  0
LINE
  5
2FB
100
AcDbEntity
  8
0
100
AcDbLine
 62
7
  6
CONTINUOUS
 10
310.1541760129
 20
224.2691358152
 11
307.1541760129
 21
221.2691358152
  0
LINE
  5
2FC
100
AcDbEntity
  8
0
100
AcDbLine
 62
7
  6
CONTINUOUS
 10
448.6106654569
 20
221.2691358152
 11
487.6106654569
 21
221.2691358152
  0
LINE
  5
2FD
100
AcDbEntity
  8
0
100
AcDbLine
 62
7
  6
CONTINUOUS
 10
445.6106654569
 20
224.2691358152
 11
490.6106654569
 21
224.2691358152
  0
LINE
  5
2FE
100
AcDbEntity
  8
0
100
AcDbLine
 62
7
  6
CONTINUOUS
 10
445.6106654569
 20
224.2691358152
 11
448.6106654569
 21
221.2691358152
  0
LINE
  5
2FF
100
AcDbEntity
  8
FASEN
100
AcDbLine
 62
7
  6
CONTINUOUS
 10
419.6107587542
 20
288.2691358152
 11
516.6105721597
 21
288.2691358152
  0
LINE
  5
300
100
AcDbEntity
  8
FASEN
100
AcDbLine
 62
7
  6
CONTINUOUS
 10
419.1106654569
 20
288.7691358152
 11
517.1106654569
 21
288.7691358152
  0
LINE
  5
301
100
AcDbEntity
  8
FASEN
100
AcDbLine
 62
7
  6
CONTINUOUS
 10
419.1106654569
 20
288.7691358152
 11
419.6106654569
 21
288.2691358152
  0
LINE
  5
302
100
AcDbEntity
  8
BEZUGSACHSEN
100
AcDbLine
 62
7
  6
CONTINUOUS
 10
419.1106654569
 20
295.7691358152
 11
517.1106654569
 21
295.7691358152
  0
LINE
  5
303
100
AcDbEntity
  8
KONSTRUKTIONSELEMENTE
100
AcDbLine
 62
7
  6
CONTINUOUS
 10
516.1105020813
 20
296.7691358152
 11
512.6106654569
 21
296.7691358152
  0
LINE
  5
304
100
AcDbEntity
  8
KONSTRUKTIONSELEMENTE
100
AcDbLine
 62
7
  6
CONTINUOUS
 10
423.6106654569
 20
296.7691358152
 11
420.1108288326
 21
296.7691358152
  0
LINE
  5
305
100
AcDbEntity
  8
KONSTRUKTIONSELEMENTE
100
AcDbLine
 62
7
  6
CONTINUOUS
 10
409.1106654569
 20
489.7691358152
 11
409.1106654569
 21
415.7691358152
  0
LINE
  5
306
100
AcDbEntity
  8
BEZUGSACHSEN
100
AcDbLine
 62
7
  6
CONTINUOUS
 10
419.1106654569
 20
295.7691358152
 11
419.1106654569
 21
288.7691358152
  0
LINE
  5
307
100
AcDbEntity
  8
KONSTRUKTIONSELEMENTE
100
AcDbLine
 62
7
  6
CONTINUOUS
 10
510.6106654569
 20
333.7691358152
 11
425.6106654569
 21
333.7691358152
  0
LINE
  5
308
100
AcDbEntity
  8
KONSTRUKTIONSELEMENTE
100
AcDbLine
 62
7
  6
CONTINUOUS
 10
425.6106654569
 20
335.7691358152
 11
510.6106654569
 21
335.7691358152
  0
LINE
  5
309
100
AcDbEntity
  8
KONSTRUKTIONSELEMENTE
100
AcDbLine
 62
7
  6
CONTINUOUS
 10
425.6106654569
 20
298.7691358152
 11
425.6106654569
 21
335.7691358152
  0
LINE
  5
30A
100
AcDbEntity
  8
BEZUGSACHSEN
100
AcDbLine
 62
7
  6
CONTINUOUS
 10
428.1106654569
 20
341.2691358152
 11
428.1106654569
 21
335.7691358152
  0
LINE
  5
30B
100
AcDbEntity
  8
BEZUGSACHSEN
100
AcDbLine
 62
7
  6
CONTINUOUS
 10
504.1106654569
 20
345.2691358152
 11
492.7695138279
 21
345.2691358152
  0
LINE
  5
30C
100
AcDbEntity
  8
BEZUGSACHSEN
100
AcDbLine
 62
7
  6
CONTINUOUS
 10
443.4514313647
 20
345.2691358152
 11
432.1106654569
 21
345.2691358152
  0
LINE
  5
30D
100
AcDbEntity
  8
KONSTRUKTIONSELEMENTE
100
AcDbLine
 62
7
  6
CONTINUOUS
 10
435.6106654569
 20
489.7691358152
 11
435.6106654569
 21
415.7691358152
  0
LINE
  5
30E
100
AcDbEntity
  8
0
100
AcDbLine
 62
7
  6
CONTINUOUS
 10
445.6106654569
 20
288.2691358152
 11
445.6106654569
 21
224.2691358152
  0
LINE
  5
30F
100
AcDbEntity
  8
BEZUGSACHSEN
100
AcDbLine
 62
7
  6
CONTINUOUS
 10
516.1106654569
 20
296.7691358152
 11
517.1106654569
 21
295.7691358152
  0
LINE
  5
310
100
AcDbEntity
  8
0
100
AcDbLine
 62
7
  6
CONTINUOUS
 10
455.1106654569
 20
389.0279291364
 11
455.1106654569
 21
394.997853759
  0
LINE
  5
311
100
AcDbEntity
  8
BEZUGSACHSEN
100
AcDbLine
 62
7
  6
CONTINUOUS
 10
455.6106654569
 20
377.9141857903
 11
455.6106654569
 21
407.7807631142
  0
LINE
  5
312
100
AcDbEntity
  8
RUNDUNGEN
100
AcDbLine
 62
7
  6
CONTINUOUS
 10
447.3357068185
 20
349.5029656847
 11
446.7985319349
 21
347.7459458104
  0
LINE
  5
313
100
AcDbEntity
  8
BEZUGSACHSEN
100
AcDbLine
 62
7
  6
CONTINUOUS
 10
446.7985319349
 20
347.7459458104
 11
455.2174082606
 21
375.2828494848
  0
LINE
  5
314
100
AcDbEntity
  8
0
100
AcDbLine
 62
7
  6
CONTINUOUS
 10
480.6106654569
 20
380.2141155266
 11
481.6106654569
 21
380.2141155266
  0
LINE
  5
315
100
AcDbEntity
  8
0
100
AcDbLine
 62
7
  6
CONTINUOUS
 10
480.6106654569
 20
383.7011257731
 11
481.6106654569
 21
383.7011257731
  0
LINE
  5
316
100
AcDbEntity
  8
0
100
AcDbLine
 62
7
  6
CONTINUOUS
 10
480.6106654569
 20
386.1424757859
 11
481.6106654569
 21
386.1424757859
  0
LINE
  5
317
100
AcDbEntity
  8
BEZUGSACHSEN
100
AcDbLine
 62
7
  6
CONTINUOUS
 10
480.6106654569
 20
377.9141857903
 11
480.6106654569
 21
407.7807631142
  0
LINE
  5
318
100
AcDbEntity
  8
0
100
AcDbLine
 62
7
  6
CONTINUOUS
 10
480.6106654569
 20
386.5768987704
 11
481.6106654569
 21
386.5768987704
  0
LINE
  5
319
100
AcDbEntity
  8
0
100
AcDbLine
 62
7
  6
CONTINUOUS
 10
480.6106654569
 20
386.7612152467
 11
481.6106654569
 21
386.7612152467
  0
LINE
  5
31A
100
AcDbEntity
  8
0
100
AcDbLine
 62
7
  6
CONTINUOUS
 10
480.6106654569
 20
386.7696172042
 11
481.6106654569
 21
386.7696172042
  0
LINE
  5
31B
100
AcDbEntity
  8
0
100
AcDbLine
 62
7
  6
CONTINUOUS
 10
455.6106654569
 20
389.0279291364
 11
455.1106654569
 21
389.0279291364
  0
LINE
  5
31C
100
AcDbEntity
  8
0
100
AcDbLine
 62
7
  6
CONTINUOUS
 10
480.6106654569
 20
389.2686113098
 11
481.6106654569
 21
389.2686113098
  0
LINE
  5
31D
100
AcDbEntity
  8
0
100
AcDbLine
 62
7
  6
CONTINUOUS
 10
480.6106654569
 20
389.7732451844
 11
481.6106654569
 21
389.7732451844
  0
LINE
  5
31E
100
AcDbEntity
  8
0
100
AcDbLine
 62
7
  6
CONTINUOUS
 10
455.6106654569
 20
389.9344304786
 11
455.1106654569
 21
389.9344304786
  0
LINE
  5
31F
100
AcDbEntity
  8
0
100
AcDbLine
 62
7
  6
CONTINUOUS
 10
455.6106654569
 20
391.5628914477
 11
455.1106654569
 21
391.5628914477
  0
LINE
  5
320
100
AcDbEntity
  8
0
100
AcDbLine
 62
7
  6
CONTINUOUS
 10
480.6106654569
 20
391.7917797205
 11
481.6106654569
 21
391.7917797205
  0
LINE
  5
321
100
AcDbEntity
  8
0
100
AcDbLine
 62
7
  6
CONTINUOUS
 10
480.6106654569
 20
392.2964133545
 11
481.6106654569
 21
392.2964133545
  0
LINE
  5
322
100
AcDbEntity
  8
0
100
AcDbLine
 62
7
  6
CONTINUOUS
 10
455.6106654569
 20
392.4693927899
 11
455.1106654569
 21
392.4693927899
  0
LINE
  5
323
100
AcDbEntity
  8
0
100
AcDbLine
 62
7
  6
CONTINUOUS
 10
480.6106654569
 20
393.6828260779
 11
481.6106654569
 21
393.6828260779
  0
LINE
  5
324
100
AcDbEntity
  8
0
100
AcDbLine
 62
7
  6
CONTINUOUS
 10
455.6106654569
 20
394.0913524168
 11
455.1106654569
 21
394.0913524168
  0
LINE
  5
325
100
AcDbEntity
  8
0
100
AcDbLine
 62
7
  6
CONTINUOUS
 10
455.6106654569
 20
394.997853759
 11
455.1106654569
 21
394.997853759
  0
LINE
  5
326
100
AcDbEntity
  8
0
100
AcDbLine
 62
7
  6
CONTINUOUS
 10
480.6106654569
 20
395.1753886621
 11
481.6106654569
 21
395.1753886621
  0
LINE
  5
327
100
AcDbEntity
  8
0
100
AcDbLine
 62
7
  6
CONTINUOUS
 10
480.6106654569
 20
395.3756008962
 11
481.6106654569
 21
395.3756008962
  0
LINE
  5
328
100
AcDbEntity
  8
0
100
AcDbLine
 62
7
  6
CONTINUOUS
 10
480.6106654569
 20
395.4028840067
 11
481.6106654569
 21
395.4028840067
  0
LINE
  5
329
100
AcDbEntity
  8
BEZUGSACHSEN
100
AcDbLine
 62
7
  6
CONTINUOUS
 10
489.4227989789
 20
347.7459458104
 11
481.0039226533
 21
375.2828494848
  0
LINE
  5
32A
100
AcDbEntity
  8
0
100
AcDbLine
 62
7
  6
CONTINUOUS
 10
481.6106654569
 20
399.2733725628
 11
481.6106654569
 21
399.0382667013
  0
LINE
  5
32B
100
AcDbEntity
  8
0
100
AcDbLine
 62
7
  6
CONTINUOUS
 10
481.6106654569
 20
398.9878868875
 11
481.6106654569
 21
386.7696172042
  0
LINE
  5
32C
100
AcDbEntity
  8
0
100
AcDbLine
 62
7
  6
CONTINUOUS
 10
481.6106654569
 20
386.7612152467
 11
481.6106654569
 21
380.2141155266
  0
LINE
  5
32D
100
AcDbEntity
  8
0
100
AcDbLine
 62
7
  6
CONTINUOUS
 10
490.6106654569
 20
288.2691358152
 11
490.6106654569
 21
224.2691358152
  0
LINE
  5
32E
100
AcDbEntity
  8
0
100
AcDbLine
 62
7
  6
CONTINUOUS
 10
480.6106654569
 20
398.9878868875
 11
481.6106654569
 21
398.9878868875
  0
LINE
  5
32F
100
AcDbEntity
  8
0
100
AcDbLine
 62
7
  6
CONTINUOUS
 10
480.6106654569
 20
399.0382667013
 11
481.6106654569
 21
399.0382667013
  0
LINE
  5
330
100
AcDbEntity
  8
0
100
AcDbLine
 62
7
  6
CONTINUOUS
 10
480.6106654569
 20
399.2733725628
 11
481.6106654569
 21
399.2733725628
  0
LINE
  5
331
100
AcDbEntity
  8
0
100
AcDbLine
 62
7
  6
CONTINUOUS
 10
480.6106654569
 20
399.3237523765
 11
481.6106654569
 21
399.3237523765
  0
LINE
  5
332
100
AcDbEntity
  8
KONSTRUKTIONSELEMENTE
100
AcDbLine
 62
7
  6
CONTINUOUS
 10
500.6106654569
 20
415.7691358152
 11
500.6106654569
 21
489.7691358152
  0
LINE
  5
333
100
AcDbEntity
  8
BEZUGSACHSEN
100
AcDbLine
 62
7
  6
CONTINUOUS
 10
420.1106654569
 20
296.7691358152
 11
419.1106654569
 21
295.7691358152
  0
LINE
  5
334
100
AcDbEntity
  8
RUNDUNGEN
100
AcDbLine
 62
7
  6
CONTINUOUS
 10
478.5383856301
 20
411.2395650055
 11
478.5385059644
 21
411.2395655703
  0
LINE
  5
335
100
AcDbEntity
  8
RUNDUNGEN
100
AcDbLine
 62
7
  6
CONTINUOUS
 10
457.6828522088
 20
411.239567014
 11
478.538478705
 21
411.239567014
  0
LINE
  5
336
100
AcDbEntity
  8
RUNDUNGEN
100
AcDbLine
 62
7
  6
CONTINUOUS
 10
457.6828249494
 20
411.2395655703
 11
457.6829452838
 21
411.2395650055
  0
LINE
  5
337
100
AcDbEntity
  8
BEZUGSACHSEN
100
AcDbLine
 62
7
  6
CONTINUOUS
 10
508.1106654569
 20
335.7691358152
 11
508.1106654569
 21
341.2691358152
  0
LINE
  5
338
100
AcDbEntity
  8
KONSTRUKTIONSELEMENTE
100
AcDbLine
 62
7
  6
CONTINUOUS
 10
510.6106654569
 20
335.7691358152
 11
510.6106654569
 21
298.7691358152
  0
LINE
  5
339
100
AcDbEntity
  8
BEZUGSACHSEN
100
AcDbLine
 62
7
  6
CONTINUOUS
 10
517.1106654569
 20
295.7691358152
 11
517.1106654569
 21
288.7691358152
  0
LINE
  5
33A
100
AcDbEntity
  8
KONSTRUKTIONSELEMENTE
100
AcDbLine
 62
7
  6
CONTINUOUS
 10
527.1106654569
 20
415.7691358152
 11
527.1106654569
 21
489.7691358152
  0
LINE
  5
33B
100
AcDbEntity
  8
FASEN
100
AcDbLine
 62
7
  6
CONTINUOUS
 10
517.1106654569
 20
288.7691358152
 11
516.6106654569
 21
288.2691358152
  0
LINE
  5
33C
100
AcDbEntity
  8
0
100
AcDbLine
 62
7
  6
CONTINUOUS
 10
490.6106654569
 20
224.2691358152
 11
487.6106654569
 21
221.2691358152
  0
LWPOLYLINE
  5
33D
100
AcDbEntity
  8
BEZUGSACHSEN
100
AcDbPolyline
 62
7
  6
CONTINUOUS
 90
7
 70
0
 10
243.1835957541
 20
97.5124494249
 10
243.1983828619
 20
97.188812114
 10
243.3042973546
 20
96.5949585824
 10
243.5097555059
 20
96.0264124729
 10
243.8095444175
 20
95.4992149751
 10
244.1938254897
 20
95.0303509676
 10
244.6186345363
 20
94.6563274047
  0
LINE
  5
33E
100
AcDbEntity
  8
BEZUGSACHSEN
100
AcDbLine
 62
7
  6
CONTINUOUS
 10
243.1837448143
 20
121.184824758
 11
243.1837466375
 21
121.1846795062
  0
LINE
  5
33F
100
AcDbEntity
  8
BEZUGSACHSEN
100
AcDbLine
 62
7
  6
CONTINUOUS
 10
243.1837448141
 20
97.5123197296
 11
243.1837448141
 21
121.1848216026
  0
LINE
  5
340
100
AcDbEntity
  8
BEZUGSACHSEN
100
AcDbLine
 62
7
  6
CONTINUOUS
 10
243.1837448143
 20
97.5123165742
 11
243.1837464343
 21
97.5124535922
  0
LINE
  5
341
100
AcDbEntity
  8
KONSTRUKTIONSELEMENTE
100
AcDbLine
 62
7
  6
CONTINUOUS
 10
307.7228082533
 20
66.8485706661
 11
300.9041760129
 21
66.8485706661
  0
LINE
  5
342
100
AcDbEntity
  8
KONSTRUKTIONSELEMENTE
100
AcDbLine
 62
7
  6
CONTINUOUS
 10
274.4041760129
 20
66.8485706661
 11
267.5855437725
 21
66.8485706661
  0
LWPOLYLINE
  5
343
100
AcDbEntity
  8
BEZUGSACHSEN
100
AcDbPolyline
 62
7
  6
CONTINUOUS
 90
7
 70
0
 10
244.6193628914
 20
124.0413640288
 10
244.2016970024
 20
123.6748693736
 10
243.8186355917
 20
123.211093727
 10
243.5183470238
 20
122.6892301798
 10
243.3108038284
 20
122.1261493916
 10
243.2011753727
 20
121.5374835166
 10
243.1835959607
 20
121.1846836772
  0
LWPOLYLINE
  5
344
100
AcDbEntity
  8
BEZUGSACHSEN
100
AcDbPolyline
 62
7
  6
CONTINUOUS
 90
5
 70
0
 10
252.3783910601
 20
129.7072233625
 10
252.1322840674
 20
129.5571388507
 10
251.882574809
 20
129.3933807377
 10
251.6264076517
 20
129.2132622413
 10
244.6433208407
 20
124.0593176462
  0
LINE
  5
345
100
AcDbEntity
  8
BEZUGSACHSEN
100
AcDbLine
 62
7
  6
CONTINUOUS
 10
252.5913947103
 20
129.8280484731
 11
252.3783910601
 21
129.7072233625
  0
LINE
  5
346
100
AcDbEntity
  8
BEZUGSACHSEN
100
AcDbLine
 62
7
  6
CONTINUOUS
 10
252.3783910601
 20
88.9899179697
 11
252.5913947103
 21
88.8690928591
  0
LWPOLYLINE
  5
347
100
AcDbEntity
  8
BEZUGSACHSEN
100
AcDbPolyline
 62
7
  6
CONTINUOUS
 90
4
 70
0
 10
251.6264076517
 20
89.4838790909
 10
251.882574809
 20
89.3037605944
 10
252.1322840674
 20
89.1400024814
 10
252.3783910601
 20
88.9899179697
  0
LINE
  5
348
100
AcDbEntity
  8
BEZUGSACHSEN
100
AcDbLine
 62
7
  6
CONTINUOUS
 10
251.6264076517
 20
89.4838790909
 11
244.6433208407
 21
94.6378236859
  0
LINE
  5
349
100
AcDbEntity
  8
BEZUGSACHSEN
100
AcDbLine
 62
7
  6
CONTINUOUS
 10
252.7313690434
 20
129.904123506
 11
252.5912485548
 21
129.8278812824
  0
LINE
  5
34A
100
AcDbEntity
  8
BEZUGSACHSEN
100
AcDbLine
 62
7
  6
CONTINUOUS
 10
252.5908651925
 20
88.8694695472
 11
252.7301406182
 21
88.7936845178
  0
LINE
  5
34B
100
AcDbEntity
  8
0
100
AcDbLine
 62
7
  6
CONTINUOUS
 10
259.8584939499
 20
96.8485706661
 11
259.8584939499
 21
95.8485706661
  0
LINE
  5
34C
100
AcDbEntity
  8
0
100
AcDbLine
 62
7
  6
CONTINUOUS
 10
261.6019990731
 20
96.8485706661
 11
261.6019990731
 21
95.8485706661
  0
LINE
  5
34D
100
AcDbEntity
  8
0
100
AcDbLine
 62
7
  6
CONTINUOUS
 10
262.0691165986
 20
96.8485706661
 11
262.0691165986
 21
95.8485706661
  0
LINE
  5
34E
100
AcDbEntity
  8
0
100
AcDbLine
 62
7
  6
CONTINUOUS
 10
262.6713623831
 20
96.8485706661
 11
262.6713623831
 21
95.8485706661
  0
LINE
  5
34F
100
AcDbEntity
  8
0
100
AcDbLine
 62
7
  6
CONTINUOUS
 10
263.3048494123
 20
96.8485706661
 11
263.3048494123
 21
95.8485706661
  0
LINE
  5
350
100
AcDbEntity
  8
0
100
AcDbLine
 62
7
  6
CONTINUOUS
 10
263.6891570565
 20
96.8485706661
 11
263.6891570565
 21
95.8485706661
  0
LINE
  5
351
100
AcDbEntity
  8
0
100
AcDbLine
 62
7
  6
CONTINUOUS
 10
264.1047062363
 20
96.8485706661
 11
264.1047062363
 21
95.8485706661
  0
LINE
  5
352
100
AcDbEntity
  8
0
100
AcDbLine
 62
7
  6
CONTINUOUS
 10
264.1491190406
 20
96.8485706661
 11
264.1491190406
 21
95.8485706661
  0
LINE
  5
353
100
AcDbEntity
  8
0
100
AcDbLine
 62
7
  6
CONTINUOUS
 10
264.703957025
 20
96.8485706661
 11
264.703957025
 21
95.8485706661
  0
LINE
  5
354
100
AcDbEntity
  8
0
100
AcDbLine
 62
7
  6
CONTINUOUS
 10
266.9233079046
 20
96.8485706661
 11
266.9233079046
 21
95.8485706661
  0
LINE
  5
355
100
AcDbEntity
  8
0
100
AcDbLine
 62
7
  6
CONTINUOUS
 10
267.4781456245
 20
96.8485706661
 11
267.4781456245
 21
95.8485706661
  0
LINE
  5
356
100
AcDbEntity
  8
0
100
AcDbLine
 62
7
  6
CONTINUOUS
 10
269.33601903
 20
96.8485706661
 11
269.33601903
 21
95.8485706661
  0
LINE
  5
357
100
AcDbEntity
  8
0
100
AcDbLine
 62
7
  6
CONTINUOUS
 10
271.9383750649
 20
96.8485706661
 11
271.9383750649
 21
95.8485706661
  0
LINE
  5
358
100
AcDbEntity
  8
0
100
AcDbLine
 62
7
  6
CONTINUOUS
 10
272.5440462796
 20
96.8485706661
 11
272.5440462796
 21
95.8485706661
  0
LINE
  5
359
100
AcDbEntity
  8
0
100
AcDbLine
 62
7
  6
CONTINUOUS
 10
273.1047984596
 20
96.8485706661
 11
273.1047984596
 21
95.8485706661
  0
LINE
  5
35A
100
AcDbEntity
  8
0
100
AcDbLine
 62
7
  6
CONTINUOUS
 10
273.7925772273
 20
96.8485706661
 11
273.7925772273
 21
95.8485706661
  0
LINE
  5
35B
100
AcDbEntity
  8
0
100
AcDbLine
 62
7
  6
CONTINUOUS
 10
274.2634938194
 20
96.8485706661
 11
274.2634938194
 21
95.8485706661
  0
LINE
  5
35C
100
AcDbEntity
  8
KONSTRUKTIONSELEMENTE
100
AcDbLine
 62
7
  6
CONTINUOUS
 10
274.4041760129
 20
63.5985706661
 11
274.4041760129
 21
155.0985706661
  0
LINE
  5
35D
100
AcDbEntity
  8
0
100
AcDbLine
 62
7
  6
CONTINUOUS
 10
308.2237052968
 20
95.8485706661
 11
300.9041760129
 21
95.8485706661
  0
LINE
  5
35E
100
AcDbEntity
  8
0
100
AcDbLine
 62
7
  6
CONTINUOUS
 10
274.4041760129
 20
95.8485706661
 11
259.8584939499
 21
95.8485706661
  0
LINE
  5
35F
100
AcDbEntity
  8
BEZUGSACHSEN
100
AcDbLine
 62
7
  6
CONTINUOUS
 10
324.0493724589
 20
96.8485706661
 11
300.9041760129
 21
96.8485706661
  0
LINE
  5
360
100
AcDbEntity
  8
BEZUGSACHSEN
100
AcDbLine
 62
7
  6
CONTINUOUS
 10
251.2589795669
 20
96.8485706661
 11
274.4041760129
 21
96.8485706661
  0
LINE
  5
361
100
AcDbEntity
  8
KONSTRUKTIONSELEMENTE
100
AcDbLine
 62
7
  6
CONTINUOUS
 10
300.9041760129
 20
63.5985706661
 11
300.9041760129
 21
155.0985706661
  0
LINE
  5
362
100
AcDbEntity
  8
0
100
AcDbLine
 62
7
  6
CONTINUOUS
 10
301.4296238196
 20
96.8485706661
 11
301.4296238196
 21
95.8485706661
  0
LINE
  5
363
100
AcDbEntity
  8
0
100
AcDbLine
 62
7
  6
CONTINUOUS
 10
301.9493643816
 20
96.8485706661
 11
301.9493643816
 21
95.8485706661
  0
LINE
  5
364
100
AcDbEntity
  8
0
100
AcDbLine
 62
7
  6
CONTINUOUS
 10
302.2514041728
 20
96.8485706661
 11
302.2514041728
 21
95.8485706661
  0
LINE
  5
365
100
AcDbEntity
  8
0
100
AcDbLine
 62
7
  6
CONTINUOUS
 10
302.387452752
 20
96.8485706661
 11
302.387452752
 21
95.8485706661
  0
LINE
  5
366
100
AcDbEntity
  8
0
100
AcDbLine
 62
7
  6
CONTINUOUS
 10
302.5819762306
 20
96.8485706661
 11
302.5819762306
 21
95.8485706661
  0
LINE
  5
367
100
AcDbEntity
  8
RUNDUNGEN
100
AcDbLine
 62
7
  6
CONTINUOUS
 10
324.0493724589
 20
121.8485706661
 11
316.4624340673
 21
121.8485706661
  0
LINE
  5
368
100
AcDbEntity
  8
BEZUGSACHSEN
100
AcDbLine
 62
7
  6
CONTINUOUS
 10
316.4624340673
 20
121.8485706661
 11
300.9041760129
 21
121.8485706661
  0
LINE
  5
369
100
AcDbEntity
  8
BEZUGSACHSEN
100
AcDbLine
 62
7
  6
CONTINUOUS
 10
251.2589795669
 20
121.8485706661
 11
274.4041760129
 21
121.8485706661
  0
LINE
  5
36A
100
AcDbEntity
  8
0
100
AcDbLine
 62
7
  6
CONTINUOUS
 10
303.7167791916
 20
96.8485706661
 11
303.7167791916
 21
95.8485706661
  0
LINE
  5
36B
100
AcDbEntity
  8
0
100
AcDbLine
 62
7
  6
CONTINUOUS
 10
304.1957331228
 20
96.8485706661
 11
304.1957331228
 21
95.8485706661
  0
LINE
  5
36C
100
AcDbEntity
  8
0
100
AcDbLine
 62
7
  6
CONTINUOUS
 10
304.6997171148
 20
96.8485706661
 11
304.6997171148
 21
95.8485706661
  0
LINE
  5
36D
100
AcDbEntity
  8
0
100
AcDbLine
 62
7
  6
CONTINUOUS
 10
305.4050733086
 20
96.8485706661
 11
305.4050733086
 21
95.8485706661
  0
LINE
  5
36E
100
AcDbEntity
  8
0
100
AcDbLine
 62
7
  6
CONTINUOUS
 10
305.9591224551
 20
96.8485706661
 11
305.9591224551
 21
95.8485706661
  0
LINE
  5
36F
100
AcDbEntity
  8
0
100
AcDbLine
 62
7
  6
CONTINUOUS
 10
306.5382018742
 20
96.8485706661
 11
306.5382018742
 21
95.8485706661
  0
LINE
  5
370
100
AcDbEntity
  8
0
100
AcDbLine
 62
7
  6
CONTINUOUS
 10
307.4443698688
 20
96.8485706661
 11
307.4443698688
 21
95.8485706661
  0
LINE
  5
371
100
AcDbEntity
  8
0
100
AcDbLine
 62
7
  6
CONTINUOUS
 10
307.8721422406
 20
96.8485706661
 11
307.8721422406
 21
95.8485706661
  0
LINE
  5
372
100
AcDbEntity
  8
0
100
AcDbLine
 62
7
  6
CONTINUOUS
 10
308.1235772924
 20
96.8485706661
 11
308.1235772924
 21
95.8485706661
  0
LINE
  5
373
100
AcDbEntity
  8
0
100
AcDbLine
 62
7
  6
CONTINUOUS
 10
308.2237052968
 20
96.8485706661
 11
308.2237052968
 21
95.8485706661
  0
LWPOLYLINE
  5
374
100
AcDbEntity
  8
BEZUGSACHSEN
100
AcDbPolyline
 62
7
  6
CONTINUOUS
 90
5
 70
0
 10
322.9299609657
 20
88.9899179697
 10
323.1760679585
 20
89.1400024814
 10
323.4257772168
 20
89.3037605944
 10
323.6819443741
 20
89.4838790909
 10
330.6650311851
 20
94.6378236859
  0
LINE
  5
375
100
AcDbEntity
  8
BEZUGSACHSEN
100
AcDbLine
 62
7
  6
CONTINUOUS
 10
322.7169573155
 20
88.8690928591
 11
322.9299609657
 21
88.9899179697
  0
LINE
  5
376
100
AcDbEntity
  8
BEZUGSACHSEN
100
AcDbLine
 62
7
  6
CONTINUOUS
 10
322.5769829824
 20
88.7930178261
 11
322.717103471
 21
88.8692600497
  0
LINE
  5
377
100
AcDbEntity
  8
RUNDUNGEN
100
AcDbLine
 62
7
  6
CONTINUOUS
 10
322.7174868333
 20
129.8276717849
 11
322.5782114076
 21
129.9034568143
  0
LINE
  5
378
100
AcDbEntity
  8
RUNDUNGEN
100
AcDbLine
 62
7
  6
CONTINUOUS
 10
322.9299609657
 20
129.7072233625
 11
322.7169573155
 21
129.8280484731
  0
LWPOLYLINE
  5
379
100
AcDbEntity
  8
BEZUGSACHSEN
100
AcDbPolyline
 62
7
  6
CONTINUOUS
 90
7
 70
0
 10
330.6889891344
 20
94.6557773034
 10
331.1066550234
 20
95.0222719585
 10
331.4897164341
 20
95.4860476051
 10
331.790005002
 20
96.0079111524
 10
331.9975481974
 20
96.5709919405
 10
332.1071766531
 20
97.1596578156
 10
332.1247560651
 20
97.5124576549
  0
LWPOLYLINE
  5
37A
100
AcDbEntity
  8
RUNDUNGEN
100
AcDbPolyline
 62
7
  6
CONTINUOUS
 90
4
 70
0
 10
323.6819443741
 20
129.2132622413
 10
323.4257772168
 20
129.3933807377
 10
323.1760679585
 20
129.5571388507
 10
322.9299609657
 20
129.7072233625
  0
LINE
  5
37B
100
AcDbEntity
  8
RUNDUNGEN
100
AcDbLine
 62
7
  6
CONTINUOUS
 10
323.6819443741
 20
129.2132622413
 11
330.6650311851
 21
124.0593176462
  0
LWPOLYLINE
  5
37C
100
AcDbEntity
  8
RUNDUNGEN
100
AcDbPolyline
 62
7
  6
CONTINUOUS
 90
7
 70
0
 10
332.1247562717
 20
121.1846919072
 10
332.1099691639
 20
121.5083292182
 10
332.0040546712
 20
122.1021827497
 10
331.7985965199
 20
122.6707288593
 10
331.4988076083
 20
123.197926357
 10
331.1145265361
 20
123.6667903646
 10
330.6897174895
 20
124.0408139275
  0
LINE
  5
37D
100
AcDbEntity
  8
BEZUGSACHSEN
100
AcDbLine
 62
7
  6
CONTINUOUS
 10
332.1246072115
 20
97.5123165742
 11
332.1246053883
 21
97.5124618259
  0
LINE
  5
37E
100
AcDbEntity
  8
BEZUGSACHSEN
100
AcDbLine
 62
7
  6
CONTINUOUS
 10
332.1246072117
 20
121.1848216026
 11
332.1246072117
 21
97.5123197296
  0
LINE
  5
37F
100
AcDbEntity
  8
RUNDUNGEN
100
AcDbLine
 62
7
  6
CONTINUOUS
 10
332.1246072115
 20
121.184824758
 11
332.1246055915
 21
121.1846877399
  0
LINE
  5
380
100
AcDbEntity
  8
KONSTRUKTIONSELEMENTE
100
AcDbLine
 62
7
  6
CONTINUOUS
 10
267.5855437725
 20
151.8485706661
 11
274.4041760129
 21
151.8485706661
  0
LINE
  5
381
100
AcDbEntity
  8
KONSTRUKTIONSELEMENTE
100
AcDbLine
 62
7
  6
CONTINUOUS
 10
300.9041760129
 20
151.8485706661
 11
307.7228082533
 21
151.8485706661
  0
ARC
  5
382
100
AcDbEntity
  8
RUNDUNGEN
100
AcDbCircle
 62
7
  6
CONTINUOUS
 10
287.6541760129
 20
366.7691358152
 40
16.0
100
AcDbArc
 50
19.6213526008
 51
32.0539189154
  0
ARC
  5
383
100
AcDbEntity
  8
BEZUGSACHSEN
100
AcDbCircle
 62
7
  6
CONTINUOUS
 10
287.6541760129
 20
366.7691358152
 40
16.0
100
AcDbArc
 50
145.9716098734
 51
34.0283901266
  0
ARC
  5
384
100
AcDbEntity
  8
KONSTRUKTIONSELEMENTE
100
AcDbCircle
 62
7
  6
CONTINUOUS
 10
287.6541760129
 20
535.5191358152
 40
13.25
100
AcDbArc
 50
0.0
 51
180.0
  0
ARC
  5
385
100
AcDbEntity
  8
KONSTRUKTIONSELEMENTE
100
AcDbCircle
 62
7
  6
CONTINUOUS
 10
287.6541760129
 20
370.0191358152
 40
13.25
100
AcDbArc
 50
180.0
 51
360.0
  0
ARC
  5
386
100
AcDbEntity
  8
BEZUGSACHSEN
100
AcDbCircle
 62
7
  6
CONTINUOUS
 10
247.1837448141
 20
366.7691358152
 40
4.0
100
AcDbArc
 50
157.4893258504
 51
202.5
  0
ARC
  5
387
100
AcDbEntity
  8
BEZUGSACHSEN
100
AcDbCircle
 62
7
  6
CONTINUOUS
 10
259.0372596747
 20
395.3860521534
 40
4.0
100
AcDbArc
 50
112.5
 51
157.5
  0
ARC
  5
388
100
AcDbEntity
  8
BEZUGSACHSEN
100
AcDbCircle
 62
7
  6
CONTINUOUS
 10
328.1246072117
 20
366.7691358152
 40
4.0
100
AcDbArc
 50
337.5
 51
22.5106741496
  0
ARC
  5
389
100
AcDbEntity
  8
BEZUGSACHSEN
100
AcDbCircle
 62
7
  6
CONTINUOUS
 10
316.2710923511
 20
395.3860521534
 40
4.0
100
AcDbArc
 50
22.5
 51
67.5
  0
ARC
  5
38A
100
AcDbEntity
  8
RUNDUNGEN
100
AcDbCircle
 62
7
  6
CONTINUOUS
 10
316.2710923511
 20
395.3860521534
 40
4.0
100
AcDbArc
 50
22.5
 51
60.0000005643
  0
ARC
  5
38B
100
AcDbEntity
  8
BEZUGSACHSEN
100
AcDbCircle
 62
7
  6
CONTINUOUS
 10
330.6540193802
 20
354.5837954688
 40
2.9999890721
100
AcDbArc
 50
157.4921829844
 51
179.9927775886
  0
ARC
  5
38C
100
AcDbEntity
  8
BEZUGSACHSEN
100
AcDbCircle
 62
7
  6
CONTINUOUS
 10
244.6543326456
 20
354.5837954688
 40
2.9999890721
100
AcDbArc
 50
0.0072224119
 51
22.5078170161
  0
ARC
  5
38D
100
AcDbEntity
  8
KONSTRUKTIONSELEMENTE
100
AcDbCircle
 62
7
  6
CONTINUOUS
 10
336.6541760129
 20
298.5975629399
 40
2.0
100
AcDbArc
 50
180.0
 51
225.0
  0
ARC
  5
38E
100
AcDbEntity
  8
KONSTRUKTIONSELEMENTE
100
AcDbCircle
 62
7
  6
CONTINUOUS
 10
238.6541760129
 20
298.5975629399
 40
2.0
100
AcDbArc
 50
315.0
 51
360.0
  0
ARC
  5
38F
100
AcDbEntity
  8
KONSTRUKTIONSELEMENTE
100
AcDbCircle
 62
7
  6
CONTINUOUS
 10
306.7652624236
 20
298.7698203403
 40
0.9575460744
100
AcDbArc
 50
349.6363774166
 51
359.9590407137
  0
ARC
  5
390
100
AcDbEntity
  8
KONSTRUKTIONSELEMENTE
100
AcDbCircle
 62
7
  6
CONTINUOUS
 10
268.5430896022
 20
298.7698203403
 40
0.9575460744
100
AcDbArc
 50
180.0409592863
 51
190.3636225834
  0
ARC
  5
391
100
AcDbEntity
  8
BEZUGSACHSEN
100
AcDbCircle
 62
7
  6
CONTINUOUS
 10
446.6106654569
 20
377.9141948273
 40
9.0
100
AcDbArc
 50
343.0000302944
 51
359.9999424682
  0
ARC
  5
392
100
AcDbEntity
  8
BEZUGSACHSEN
100
AcDbCircle
 62
7
  6
CONTINUOUS
 10
432.1106654569
 20
341.2691358152
 40
4.0
100
AcDbArc
 50
90.0
 51
180.0
  0
ARC
  5
393
100
AcDbEntity
  8
RUNDUNGEN
100
AcDbCircle
 62
7
  6
CONTINUOUS
 10
443.4514313647
 20
348.7691358152
 40
3.5
100
AcDbArc
 50
307.537497921
 51
342.9997215233
  0
ARC
  5
394
100
AcDbEntity
  8
RUNDUNGEN
100
AcDbCircle
 62
7
  6
CONTINUOUS
 10
443.4514313647
 20
348.7691358152
 40
3.5
100
AcDbArc
 50
270.0002680268
 51
305.8844719706
  0
ARC
  5
395
100
AcDbEntity
  8
BEZUGSACHSEN
100
AcDbCircle
 62
7
  6
CONTINUOUS
 10
443.4514313647
 20
348.7691358152
 40
3.5
100
AcDbArc
 50
270.0002680268
 51
343.00189947
  0
ARC
  5
396
100
AcDbEntity
  8
KONSTRUKTIONSELEMENTE
100
AcDbCircle
 62
7
  6
CONTINUOUS
 10
423.6106654569
 20
298.7691358152
 40
2.0
100
AcDbArc
 50
270.0
 51
360.0
  0
ARC
  5
397
100
AcDbEntity
  8
BEZUGSACHSEN
100
AcDbCircle
 62
7
  6
CONTINUOUS
 10
489.6106654569
 20
377.9141948273
 40
9.0
100
AcDbArc
 50
180.0000575318
 51
196.9999697056
  0
ARC
  5
398
100
AcDbEntity
  8
BEZUGSACHSEN
100
AcDbCircle
 62
7
  6
CONTINUOUS
 10
504.1106654569
 20
341.2691358152
 40
4.0
100
AcDbArc
 50
0.0
 51
90.0
  0
ARC
  5
399
100
AcDbEntity
  8
BEZUGSACHSEN
100
AcDbCircle
 62
7
  6
CONTINUOUS
 10
492.7698995492
 20
348.7691358152
 40
3.5
100
AcDbArc
 50
196.99810053
 51
269.9997319732
  0
ARC
  5
39A
100
AcDbEntity
  8
KONSTRUKTIONSELEMENTE
100
AcDbCircle
 62
7
  6
CONTINUOUS
 10
512.6106654569
 20
298.7691358152
 40
2.0
100
AcDbArc
 50
180.0
 51
270.0
  0
ARC
  5
39B
100
AcDbEntity
  8
KONSTRUKTIONSELEMENTE
100
AcDbCircle
 62
7
  6
CONTINUOUS
 10
468.1106654569
 20
489.7691358152
 40
59.0
100
AcDbArc
 50
0.0
 51
180.0
  0
ARC
  5
39C
100
AcDbEntity
  8
KONSTRUKTIONSELEMENTE
100
AcDbCircle
 62
7
  6
CONTINUOUS
 10
468.1106654569
 20
415.7691358152
 40
59.0
100
AcDbArc
 50
180.0
 51
252.5211855934
  0
ARC
  5
39D
100
AcDbEntity
  8
KONSTRUKTIONSELEMENTE
100
AcDbCircle
 62
7
  6
CONTINUOUS
 10
468.1106654569
 20
415.7691358152
 40
59.0
100
AcDbArc
 50
287.4788144066
 51
360.0
  0
ARC
  5
39E
100
AcDbEntity
  8
KONSTRUKTIONSELEMENTE
100
AcDbCircle
 62
7
  6
CONTINUOUS
 10
468.1106654569
 20
489.7691358152
 40
32.5
100
AcDbArc
 50
0.0
 51
180.0
  0
ARC
  5
39F
100
AcDbEntity
  8
KONSTRUKTIONSELEMENTE
100
AcDbCircle
 62
7
  6
CONTINUOUS
 10
468.1106654569
 20
415.7691358152
 40
32.5
100
AcDbArc
 50
180.0
 51
247.3787146618
  0
ARC
  5
3A0
100
AcDbEntity
  8
KONSTRUKTIONSELEMENTE
100
AcDbCircle
 62
7
  6
CONTINUOUS
 10
468.1106654569
 20
415.7691358152
 40
32.5
100
AcDbArc
 50
294.5529358531
 51
360.0
  0
ARC
  5
3A1
100
AcDbEntity
  8
BEZUGSACHSEN
100
AcDbCircle
 62
7
  6
CONTINUOUS
 10
250.8218925668
 20
85.2781968397
 40
4.0
100
AcDbArc
 50
33.1749023831
 51
61.4843410276
  0
ARC
  5
3A2
100
AcDbEntity
  8
BEZUGSACHSEN
100
AcDbCircle
 62
7
  6
CONTINUOUS
 10
250.8218925668
 20
133.4189444925
 40
4.0
100
AcDbArc
 50
298.5156589724
 51
326.8250976169
  0
ARC
  5
3A3
100
AcDbEntity
  8
KONSTRUKTIONSELEMENTE
100
AcDbCircle
 62
7
  6
CONTINUOUS
 10
287.6541760129
 20
63.5985706661
 40
13.25
100
AcDbArc
 50
180.0
 51
360.0
  0
ARC
  5
3A4
100
AcDbEntity
  8
BEZUGSACHSEN
100
AcDbCircle
 62
7
  6
CONTINUOUS
 10
324.486459459
 20
85.2781968397
 40
4.0
100
AcDbArc
 50
118.5156589724
 51
146.8250976169
  0
ARC
  5
3A5
100
AcDbEntity
  8
BEZUGSACHSEN
100
AcDbCircle
 62
7
  6
CONTINUOUS
 10
287.6541760129
 20
109.3485706661
 40
49.0
100
AcDbArc
 50
285.5919403521
 51
74.4094938983
  0
ARC
  5
3A6
100
AcDbEntity
  8
BEZUGSACHSEN
100
AcDbCircle
 62
7
  6
CONTINUOUS
 10
287.6541760129
 20
109.3485706661
 40
49.0
100
AcDbArc
 50
105.5919403521
 51
254.4080596479
  0
ARC
  5
3A7
100
AcDbEntity
  8
KONSTRUKTIONSELEMENTE
100
AcDbCircle
 62
7
  6
CONTINUOUS
 10
287.6541760129
 20
109.3485706661
 40
48.0
100
AcDbArc
 50
106.009143918
 51
112.0153695404
  0
ARC
  5
3A8
100
AcDbEntity
  8
KONSTRUKTIONSELEMENTE
100
AcDbCircle
 62
7
  6
CONTINUOUS
 10
287.6541760129
 20
109.3485706661
 40
48.0
100
AcDbArc
 50
67.9846304596
 51
73.9925878565
  0
ARC
  5
3A9
100
AcDbEntity
  8
KONSTRUKTIONSELEMENTE
100
AcDbCircle
 62
7
  6
CONTINUOUS
 10
287.6541760129
 20
109.3485706661
 40
48.0
100
AcDbArc
 50
286.009143918
 51
292.0153695404
  0
ARC
  5
3AA
100
AcDbEntity
  8
KONSTRUKTIONSELEMENTE
100
AcDbCircle
 62
7
  6
CONTINUOUS
 10
287.6541760129
 20
109.3485706661
 40
48.0
100
AcDbArc
 50
247.9846304596
 51
253.990856082
  0
ARC
  5
3AB
100
AcDbEntity
  8
KONSTRUKTIONSELEMENTE
100
AcDbCircle
 62
7
  6
CONTINUOUS
 10
287.6541760129
 20
109.3485706661
 40
47.0
100
AcDbArc
 50
295.2768269166
 51
64.7231730834
  0
ARC
  5
3AC
100
AcDbEntity
  8
KONSTRUKTIONSELEMENTE
100
AcDbCircle
 62
7
  6
CONTINUOUS
 10
287.6541760129
 20
109.3485706661
 40
47.0
100
AcDbArc
 50
115.2768269166
 51
244.7231730834
  0
ARC
  5
3AD
100
AcDbEntity
  8
KONSTRUKTIONSELEMENTE
100
AcDbCircle
 62
7
  6
CONTINUOUS
 10
287.6541760129
 20
109.3485706661
 40
45.0
100
AcDbArc
 50
109.1881364537
 51
160.2504493103
  0
ARC
  5
3AE
100
AcDbEntity
  8
KONSTRUKTIONSELEMENTE
100
AcDbCircle
 62
7
  6
CONTINUOUS
 10
287.6541760129
 20
109.3485706661
 40
45.0
100
AcDbArc
 50
171.3598756664
 51
188.6401243336
  0
ARC
  5
3AF
100
AcDbEntity
  8
KONSTRUKTIONSELEMENTE
100
AcDbCircle
 62
7
  6
CONTINUOUS
 10
287.6541760129
 20
109.3485706661
 40
45.0
100
AcDbArc
 50
199.7495506897
 51
250.8118635463
  0
ARC
  5
3B0
100
AcDbEntity
  8
KONSTRUKTIONSELEMENTE
100
AcDbCircle
 62
7
  6
CONTINUOUS
 10
287.6541760129
 20
109.3485706661
 40
45.0
100
AcDbArc
 50
289.1881364537
 51
340.2504493103
  0
ARC
  5
3B1
100
AcDbEntity
  8
KONSTRUKTIONSELEMENTE
100
AcDbCircle
 62
7
  6
CONTINUOUS
 10
287.6541760129
 20
109.3485706661
 40
45.0
100
AcDbArc
 50
351.3598756664
 51
8.6401243336
  0
ARC
  5
3B2
100
AcDbEntity
  8
KONSTRUKTIONSELEMENTE
100
AcDbCircle
 62
7
  6
CONTINUOUS
 10
287.6541760129
 20
109.3485706661
 40
45.0
100
AcDbArc
 50
19.7495506897
 51
70.8118635463
  0
ARC
  5
3B3
100
AcDbEntity
  8
RUNDUNGEN
100
AcDbCircle
 62
7
  6
CONTINUOUS
 10
287.6541760129
 20
109.3485706661
 40
40.0
100
AcDbArc
 50
33.1641589266
 51
43.233933997
  0
ARC
  5
3B4
100
AcDbEntity
  8
BEZUGSACHSEN
100
AcDbCircle
 62
7
  6
CONTINUOUS
 10
287.6541760129
 20
109.3485706661
 40
40.0
100
AcDbArc
 50
109.3680205201
 51
146.8358410734
  0
ARC
  5
3B5
100
AcDbEntity
  8
BEZUGSACHSEN
100
AcDbCircle
 62
7
  6
CONTINUOUS
 10
287.6541760129
 20
109.3485706661
 40
40.0
100
AcDbArc
 50
43.233933997
 51
70.6319794799
  0
ARC
  5
3B6
100
AcDbEntity
  8
BEZUGSACHSEN
100
AcDbCircle
 62
7
  6
CONTINUOUS
 10
287.6541760129
 20
109.3485706661
 40
40.0
100
AcDbArc
 50
213.1641589266
 51
250.6395079038
  0
ARC
  5
3B7
100
AcDbEntity
  8
BEZUGSACHSEN
100
AcDbCircle
 62
7
  6
CONTINUOUS
 10
287.6541760129
 20
109.3485706661
 40
40.0
100
AcDbArc
 50
289.3604920962
 51
326.8358410735
  0
ARC
  5
3B8
100
AcDbEntity
  8
KONSTRUKTIONSELEMENTE
100
AcDbCircle
 62
7
  6
CONTINUOUS
 10
287.6541760129
 20
155.0985706661
 40
13.25
100
AcDbArc
 50
0.0
 51
180.0
  0
ARC
  5
3B9
100
AcDbEntity
  8
RUNDUNGEN
100
AcDbCircle
 62
7
  6
CONTINUOUS
 10
324.486459459
 20
133.4189444925
 40
4.0
100
AcDbArc
 50
213.1749023831
 51
241.4843410276
  0
SPLINE
  5
3BA
100
AcDbEntity
  8
BEZUGSACHSEN
100
AcDbSpline
 62
7
  6
CONTINUOUS
 70
0
 71
3
 72
9
 73
5
 74
0
 42
0.0000001
 43
0.0000001
 44
0.0000000001
 40
0.0
 40
0.0
 40
0.0
 40
0.0
 40
0.4950364757
 40
1.0
 40
1.0
 40
1.0
 40
1.0
 10
251.1295542194
 20
346.7906055151
 30
0.0
 10
251.7364067629
 20
345.3246631271
 30
0.0
 10
252.803008058
 20
342.2993474561
 30
0.0
 10
253.7557586723
 20
339.2376323682
 30
0.0
 10
254.1702958207
 20
337.6732199358
 30
0.0
  0
SPLINE
  5
3BB
100
AcDbEntity
  8
BEZUGSACHSEN
100
AcDbSpline
 62
7
  6
CONTINUOUS
 70
0
 71
3
 72
9
 73
5
 74
0
 42
0.0000001
 43
0.0000001
 44
0.0000000001
 40
0.0
 40
0.0
 40
0.0
 40
0.0
 40
0.4950364757
 40
1.0
 40
1.0
 40
1.0
 40
1.0
 10
324.1787978064
 20
346.7906055151
 30
0.0
 10
323.5719452629
 20
345.3246631271
 30
0.0
 10
322.5053439678
 20
342.2993474561
 30
0.0
 10
321.5525933535
 20
339.2376323682
 30
0.0
 10
321.1380562051
 20
337.6732199358
 30
0.0
  0
SPLINE
  5
3BC
100
AcDbEntity
  8
KONSTRUKTIONSELEMENTE
100
AcDbSpline
 62
7
  6
CONTINUOUS
 70
0
 71
3
 72
10
 73
6
 74
0
 42
0.0000001
 43
0.0000001
 44
0.0000000001
 40
0.0
 40
0.0
 40
0.0
 40
0.0
 40
0.5547381711
 40
0.7952278569
 40
1.0
 40
1.0
 40
1.0
 40
1.0
 10
307.7071869814
 20
298.5975629399
 30
0.0
 10
307.6592773701
 20
298.3350713606
 30
0.0
 10
307.6065526649
 20
297.9558371137
 30
0.0
 10
307.5271198842
 20
297.4819726264
 30
0.0
 10
307.4711643002
 20
297.2734539491
 30
0.0
 10
307.4313845296
 20
297.1833493776
 30
0.0
  0
SPLINE
  5
3BD
100
AcDbEntity
  8
KONSTRUKTIONSELEMENTE
100
AcDbSpline
 62
7
  6
CONTINUOUS
 70
0
 71
3
 72
12
 73
8
 74
0
 42
0.0000001
 43
0.0000001
 44
0.0000000001
 40
0.0
 40
0.0
 40
0.0
 40
0.0
 40
0.2079921653
 40
0.3292326319
 40
0.4567694617
 40
0.7235352786
 40
1.0
 40
1.0
 40
1.0
 40
1.0
 10
307.4313845296
 20
297.1833493776
 30
0.0
 10
307.3786471012
 20
297.0638946066
 30
0.0
 10
307.1717446822
 20
296.9497707593
 30
0.0
 10
306.9017835234
 20
296.8720166707
 30
0.0
 10
306.5814625462
 20
296.8124234479
 30
0.0
 10
306.162107147
 20
296.776383342
 30
0.0
 10
305.8207957985
 20
296.7691358152
 30
0.0
 10
305.6472302284
 20
296.7691358152
 30
0.0
  0
SPLINE
  5
3BE
100
AcDbEntity
  8
KONSTRUKTIONSELEMENTE
100
AcDbSpline
 62
7
  6
CONTINUOUS
 70
0
 71
3
 72
10
 73
6
 74
0
 42
0.0000001
 43
0.0000001
 44
0.0000000001
 40
0.0
 40
0.0
 40
0.0
 40
0.0
 40
0.2047721431
 40
0.4452618289
 40
1.0
 40
1.0
 40
1.0
 40
1.0
 10
267.8769674962
 20
297.1833493776
 30
0.0
 10
267.8371877257
 20
297.2734539491
 30
0.0
 10
267.7812321416
 20
297.4819726264
 30
0.0
 10
267.7017993609
 20
297.9558371137
 30
0.0
 10
267.6490746557
 20
298.3350713606
 30
0.0
 10
267.6011650444
 20
298.5975629399
 30
0.0
  0
SPLINE
  5
3BF
100
AcDbEntity
  8
KONSTRUKTIONSELEMENTE
100
AcDbSpline
 62
7
  6
CONTINUOUS
 70
0
 71
3
 72
8
 73
4
 74
0
 42
0.0000001
 43
0.0000001
 44
0.0000000001
 40
0.0
 40
0.0
 40
0.0
 40
0.0
 40
1.0
 40
1.0
 40
1.0
 40
1.0
 10
272.8639765552
 20
335.7691358152
 30
0.0
 10
271.0765033576
 20
335.1816450348
 30
0.0
 10
269.3159430053
 20
334.5080027478
 30
0.0
 10
267.5855437725
 20
333.7691358152
 30
0.0
  0
SPLINE
  5
3C0
100
AcDbEntity
  8
KONSTRUKTIONSELEMENTE
100
AcDbSpline
 62
7
  6
CONTINUOUS
 70
0
 71
3
 72
8
 73
4
 74
0
 42
0.0000001
 43
0.0000001
 44
0.0000000001
 40
0.0
 40
0.0
 40
0.0
 40
0.0
 40
1.0
 40
1.0
 40
1.0
 40
1.0
 10
307.7228082533
 20
333.7691358152
 30
0.0
 10
305.9924090205
 20
334.5080027478
 30
0.0
 10
304.2318486682
 20
335.1816450348
 30
0.0
 10
302.4443754707
 20
335.7691358152
 30
0.0
  0
SPLINE
  5
3C1
100
AcDbEntity
  8
KONSTRUKTIONSELEMENTE
100
AcDbSpline
 62
7
  6
CONTINUOUS
 70
0
 71
3
 72
12
 73
8
 74
0
 42
0.0000001
 43
0.0000001
 44
0.0000000001
 40
0.0
 40
0.0
 40
0.0
 40
0.0
 40
0.2765221092
 40
0.543337948
 40
0.670891962
 40
0.7921335279
 40
1.0
 40
1.0
 40
1.0
 40
1.0
 10
269.6611217975
 20
296.7691358152
 30
0.0
 10
269.4875188241
 20
296.7691358152
 30
0.0
 10
269.1461378385
 20
296.7763829904
 30
0.0
 10
268.7266991567
 20
296.8124345275
 30
0.0
 10
268.4063412382
 20
296.8720699898
 30
0.0
 10
268.1364391299
 20
296.94982034
 30
0.0
 10
267.9296734719
 20
297.0639658497
 30
0.0
 10
267.8769674962
 20
297.1833493776
 30
0.0
  0
SPLINE
  5
3C2
100
AcDbEntity
  8
RUNDUNGEN
100
AcDbSpline
 62
7
  6
CONTINUOUS
 70
0
 71
3
 72
10
 73
6
 74
0
 42
0.0000001
 43
0.0000001
 44
0.0000000001
 40
0.0
 40
0.0
 40
0.0
 40
0.0
 40
0.2508908731
 40
0.5020068499
 40
1.0
 40
1.0
 40
1.0
 40
1.0
 10
457.6828249494
 20
411.2395655703
 30
0.0
 10
457.3658381115
 20
411.0851178102
 30
0.0
 10
456.7759361098
 20
410.6742935558
 30
0.0
 10
455.8936619284
 20
409.5624246666
 30
0.0
 10
455.6106654569
 20
408.4806611859
 30
0.0
 10
455.6106654569
 20
407.7807631142
 30
0.0
  0
SPLINE
  5
3C3
100
AcDbEntity
  8
RUNDUNGEN
100
AcDbSpline
 62
7
  6
CONTINUOUS
 70
0
 71
3
 72
10
 73
6
 74
0
 42
0.0000001
 43
0.0000001
 44
0.0000000001
 40
0.0
 40
0.0
 40
0.0
 40
0.0
 40
0.2508908731
 40
0.5020068499
 40
1.0
 40
1.0
 40
1.0
 40
1.0
 10
478.5385059644
 20
411.2395655703
 30
0.0
 10
478.8554928023
 20
411.0851178102
 30
0.0
 10
479.445394804
 20
410.6742935558
 30
0.0
 10
480.3276689854
 20
409.5624246666
 30
0.0
 10
480.6106654569
 20
408.4806611859
 30
0.0
 10
480.6106654569
 20
407.7807631142
 30
0.0
  0
SPLINE
  5
3C4
100
AcDbEntity
  8
RUNDUNGEN
100
AcDbSpline
 62
7
  6
CONTINUOUS
 70
0
 71
3
 72
9
 73
5
 74
0
 42
0.0000001
 43
0.0000001
 44
0.0000000001
 40
0.0
 40
0.0
 40
0.0
 40
0.0
 40
0.2628422862
 40
1.0
 40
1.0
 40
1.0
 40
1.0
 10
459.1106654569
 20
410.9350851441
 30
0.0
 10
458.9918836689
 20
410.9836794622
 30
0.0
 10
458.53318788
 20
411.1502685224
 30
0.0
 10
458.0427555786
 20
411.2395504085
 30
0.0
 10
457.6828249161
 20
411.2395655706
 30
0.0
  0
SPLINE
  5
3C5
100
AcDbEntity
  8
RUNDUNGEN
100
AcDbSpline
 62
7
  6
CONTINUOUS
 70
0
 71
3
 72
9
 73
5
 74
0
 42
0.0000001
 43
0.0000001
 44
0.0000000001
 40
0.0
 40
0.0
 40
0.0
 40
0.0
 40
0.2387520631
 40
1.0
 40
1.0
 40
1.0
 40
1.0
 10
478.5385059977
 20
411.2395655706
 30
0.0
 10
478.4218901318
 20
411.2395606582
 30
0.0
 10
477.933474758
 20
411.2104784682
 30
0.0
 10
477.4548036138
 20
411.0758740592
 30
0.0
 10
477.1106654569
 20
410.9350851441
 30
0.0
  0
SPLINE
  5
3C6
100
AcDbEntity
  8
KONSTRUKTIONSELEMENTE
100
AcDbSpline
 62
7
  6
CONTINUOUS
 70
0
 71
3
 72
9
 73
5
 74
0
 42
0.0000001
 43
0.0000001
 44
0.0000000001
 40
0.0
 40
0.0
 40
0.0
 40
0.0
 40
0.2155759827
 40
1.0
 40
1.0
 40
1.0
 40
1.0
 10
307.7071869814
 20
66.8411977633
 30
0.0
 10
307.7018914591
 20
66.838699581
 30
0.0
 10
307.6785824204
 20
66.8243660945
 30
0.0
 10
307.6617203213
 20
66.8017008071
 30
0.0
 10
307.6507162145
 20
66.7834570026
 30
0.0
  0
SPLINE
  5
3C7
100
AcDbEntity
  8
KONSTRUKTIONSELEMENTE
100
AcDbSpline
 62
7
  6
CONTINUOUS
 70
0
 71
3
 72
11
 73
7
 74
0
 42
0.0000001
 43
0.0000001
 44
0.0000000001
 40
0.0
 40
0.0
 40
0.0
 40
0.0
 40
0.159782799
 40
0.3817930885
 40
0.6638548821
 40
1.0
 40
1.0
 40
1.0
 40
1.0
 10
307.6507162145
 20
66.7834570026
 30
0.0
 10
307.630084899
 20
66.7492521652
 30
0.0
 10
307.5956597105
 20
66.6592360249
 30
0.0
 10
307.5519755707
 20
66.4994104711
 30
0.0
 10
307.5012586779
 20
66.2954752992
 30
0.0
 10
307.4583852992
 20
66.1468713378
 30
0.0
 10
307.4313845296
 20
66.0672918705
 30
0.0
  0
SPLINE
  5
3C8
100
AcDbEntity
  8
KONSTRUKTIONSELEMENTE
100
AcDbSpline
 62
7
  6
CONTINUOUS
 70
0
 71
3
 72
9
 73
5
 74
0
 42
0.0000001
 43
0.0000001
 44
0.0000000001
 40
0.0
 40
0.0
 40
0.0
 40
0.0
 40
0.2154124747
 40
1.0
 40
1.0
 40
1.0
 40
1.0
 10
267.6011650444
 20
151.8559435689
 30
0.0
 10
267.6064825181
 20
151.8584521068
 30
0.0
 10
267.6299002897
 20
151.8728683285
 30
0.0
 10
267.6468093742
 20
151.8956774276
 30
0.0
 10
267.6578440134
 20
151.9140301067
 30
0.0
  0
SPLINE
  5
3C9
100
AcDbEntity
  8
KONSTRUKTIONSELEMENTE
100
AcDbSpline
 62
7
  6
CONTINUOUS
 70
0
 71
3
 72
10
 73
6
 74
0
 42
0.0000001
 43
0.0000001
 44
0.0000000001
 40
0.0
 40
0.0
 40
0.0
 40
0.0
 40
0.1599397192
 40
0.3820211552
 40
1.0
 40
1.0
 40
1.0
 40
1.0
 10
267.6578440134
 20
151.9140301067
 30
0.0
 10
267.6784344091
 20
151.948275805
 30
0.0
 10
267.7128318634
 20
152.0382951952
 30
0.0
 10
267.7783537326
 20
152.2789316714
 30
0.0
 10
267.8273599586
 20
152.4836409845
 30
0.0
 10
267.8769674962
 20
152.6298494616
 30
0.0
  0
SPLINE
  5
3CA
100
AcDbEntity
  8
KONSTRUKTIONSELEMENTE
100
AcDbSpline
 62
7
  6
CONTINUOUS
 70
0
 71
3
 72
12
 73
8
 74
0
 42
0.0000001
 43
0.0000001
 44
0.0000000001
 40
0.0
 40
0.0
 40
0.0
 40
0.0
 40
0.2579951806
 40
0.5150318095
 40
0.7676522298
 40
0.8887283371
 40
1.0
 40
1.0
 40
1.0
 40
1.0
 10
269.6611217975
 20
64.8485706661
 30
0.0
 10
269.4854475517
 20
64.9196024914
 30
0.0
 10
269.1381067041
 20
65.0703837504
 30
0.0
 10
268.6383142399
 20
65.3316022675
 30
0.0
 10
268.2514797554
 20
65.5922089022
 30
0.0
 10
267.9971306612
 20
65.8424191512
 30
0.0
 10
267.9032264036
 20
65.9898988967
 30
0.0
 10
267.8769674962
 20
66.0672918705
 30
0.0
  0
SPLINE
  5
3CB
100
AcDbEntity
  8
KONSTRUKTIONSELEMENTE
100
AcDbSpline
 62
7
  6
CONTINUOUS
 70
0
 71
3
 72
11
 73
7
 74
0
 42
0.0000001
 43
0.0000001
 44
0.0000000001
 40
0.0
 40
0.0
 40
0.0
 40
0.0
 40
0.3742560023
 40
0.6688521785
 40
0.8753728515
 40
1.0
 40
1.0
 40
1.0
 40
1.0
 10
267.8769674962
 20
66.0672918705
 30
0.0
 10
267.84369541
 20
66.1653548121
 30
0.0
 10
267.794677554
 20
66.3435711403
 30
0.0
 10
267.7356884427
 20
66.5799793202
 30
0.0
 10
267.6861603575
 20
66.7426151524
 30
0.0
 10
267.6323522154
 20
66.8264850996
 30
0.0
 10
267.6011650444
 20
66.8411977633
 30
0.0
  0
SPLINE
  5
3CC
100
AcDbEntity
  8
KONSTRUKTIONSELEMENTE
100
AcDbSpline
 62
7
  6
CONTINUOUS
 70
0
 71
3
 72
12
 73
8
 74
0
 42
0.0000001
 43
0.0000001
 44
0.0000000001
 40
0.0
 40
0.0
 40
0.0
 40
0.0
 40
0.1113488737
 40
0.232444602
 40
0.4850466975
 40
0.7420452836
 40
1.0
 40
1.0
 40
1.0
 40
1.0
 10
267.8769674962
 20
152.6298494616
 30
0.0
 10
267.9032446311
 20
152.7072961573
 30
0.0
 10
267.9971932617
 20
152.8548393815
 30
0.0
 10
268.2516437946
 20
153.1050289866
 30
0.0
 10
268.6384478587
 20
153.3656201983
 30
0.0
 10
269.1381899679
 20
153.6267873288
 30
0.0
 10
269.485475061
 20
153.7775499638
 30
0.0
 10
269.6611217975
 20
153.8485706661
 30
0.0
  0
SPLINE
  5
3CD
100
AcDbEntity
  8
KONSTRUKTIONSELEMENTE
100
AcDbSpline
 62
7
  6
CONTINUOUS
 70
0
 71
3
 72
12
 73
8
 74
0
 42
0.0000001
 43
0.0000001
 44
0.0000000001
 40
0.0
 40
0.0
 40
0.0
 40
0.0
 40
0.2579487016
 40
0.5149417481
 40
0.7675490361
 40
0.8886436817
 40
1.0
 40
1.0
 40
1.0
 40
1.0
 10
305.6472302284
 20
153.8485706661
 30
0.0
 10
305.8228728504
 20
153.7775516274
 30
0.0
 10
306.1701557528
 20
153.6268045151
 30
0.0
 10
306.6698844299
 20
153.365621811
 30
0.0
 10
307.0566924206
 20
153.1050397239
 30
0.0
 10
307.311152746
 20
152.8548479775
 30
0.0
 10
307.4051056407
 20
152.7073013269
 30
0.0
 10
307.4313845296
 20
152.6298494616
 30
0.0
  0
SPLINE
  5
3CE
100
AcDbEntity
  8
KONSTRUKTIONSELEMENTE
100
AcDbSpline
 62
7
  6
CONTINUOUS
 70
0
 71
3
 72
12
 73
8
 74
0
 42
0.0000001
 43
0.0000001
 44
0.0000000001
 40
0.0
 40
0.0
 40
0.0
 40
0.0
 40
0.1113787054
 40
0.2324850161
 40
0.4850770493
 40
0.74206035
 40
1.0
 40
1.0
 40
1.0
 40
1.0
 10
307.4313845296
 20
66.0672918705
 30
0.0
 10
307.4051003752
 20
65.9898244863
 30
0.0
 10
307.3111272745
 20
65.8422586096
 30
0.0
 10
307.0566414278
 20
65.5920748984
 30
0.0
 10
306.6698489761
 20
65.3314900409
 30
0.0
 10
306.1701305039
 20
65.0703411452
 30
0.0
 10
305.8228665692
 20
64.919587165
 30
0.0
 10
305.6472302284
 20
64.8485706661
 30
0.0
  0
SPLINE
  5
3CF
100
AcDbEntity
  8
KONSTRUKTIONSELEMENTE
100
AcDbSpline
 62
7
  6
CONTINUOUS
 70
0
 71
3
 72
11
 73
7
 74
0
 42
0.0000001
 43
0.0000001
 44
0.0000000001
 40
0.0
 40
0.0
 40
0.0
 40
0.0
 40
0.3742560723
 40
0.6688510636
 40
0.8753716104
 40
1.0
 40
1.0
 40
1.0
 40
1.0
 10
307.4313845296
 20
152.6298494616
 30
0.0
 10
307.4646566231
 20
152.5317864985
 30
0.0
 10
307.5136742182
 20
152.3535704123
 30
0.0
 10
307.5726633918
 20
152.1171625929
 30
0.0
 10
307.6221912607
 20
151.9545267388
 30
0.0
 10
307.6759994988
 20
151.8706563796
 30
0.0
 10
307.7071869814
 20
151.8559435689
 30
0.0
  0
ENDSEC
  0
SECTION
  2
OBJECTS
  0
DICTIONARY
  5
C
100
AcDbDictionary
280
0
281
1
  3
ACAD_GROUP
350
D
  3
ACAD_MLINESTYLE
350
17
  3
ACAD_LAYOUT
350
1A
  3
ACAD_PLOTSETTINGS
350
19
  3
ACAD_PLOTSTYLENAME
350
E
  0
DICTIONARY
  5
D
102
{ACAD_REACTORS
330
C
102
}
100
AcDbDictionary
280
0
281
1
  0
ACDBDICTIONARYWDFLT
  5
E
102
{ACAD_REACTORS
330
C
102
}
100
AcDbDictionary
281
1
  3
Normal
350
F
100
AcDbDictionaryWithDefault
340
F
  0
DICTIONARY
  5
17
102
{ACAD_REACTORS
330
C
102
}
100
AcDbDictionary
280
0
281
1
  3
Standard
350
18
  0
DICTIONARY
  5
19
102
{ACAD_REACTORS
330
C
102
}
100
AcDbDictionary
281
1
  0
DICTIONARY
  5
1A
102
{ACAD_REACTORS
330
C
102
}
100
AcDbDictionary
281
1
  3
Model
350
3D0
  3
Layout1
350
3D1
  0
ACDBPLACEHOLDER
  5
F
102
{ACAD_REACTORS
330
E
102
}
  0
MLINESTYLE
  5
18
102
{ACAD_REACTORS
330
17
102
}
100
AcDbMlineStyle
  2
STANDARD
 70
0
  3

 62
256
 51
90.0
 52
90.0
 71
2
 49
0.5
 62
256
  6
BYLAYER
 49
-0.5
 62
256
  6
BYLAYER
  0
LAYOUT
  5
3D0
102
{ACAD_REACTORS
330
1A
102
}
100
AcDbPlotSettings
  1

  2
none_device
  4
ISO_A1_(594.00_x_841.00_MM)
  6

 40
0.0
 41
0.0
 42
0.0
 43
0.0
 44
841.0
 45
594.0
 46
0.0
 47
0.0
 48
0.0
 49
0.0
140
0.0
141
0.0
142
1.0
143
1.0
 70
1024
 72
1
 73
0
 74
0
  7

 75
0
147
1.0
148
0.0
149
0.0
100
AcDbLayout
  1
Model
 70
0
 71
0
 10
0.0
 20
0.0
 11
841.0
 21
594.0
 12
0.0
 22
0.0
 32
0.0
 14
0.0
 24
0.0
 34
0.0
 15
0.0
 25
0.0
 35
0.0
146
0.0
 13
0.0
 23
0.0
 33
0.0
 16
1.0
 26
0.0
 36
0.0
 17
0.0
 27
1.0
 37
0.0
 76
0
330
212
345
0
346
0
  0
LAYOUT
  5
3D1
102
{ACAD_REACTORS
330
1A
102
}
100
AcDbPlotSettings
  1

  2
none_device
  4
ISO_A1_(594.00_x_841.00_MM)
  6

 40
0.0
 41
0.0
 42
0.0
 43
0.0
 44
841.0
 45
594.0
 46
0.0
 47
0.0
 48
0.0
 49
0.0
140
0.0
141
0.0
142
1.0
143
1.0
 70
0
 72
1
 73
0
 74
0
  7

 75
0
147
1.0
148
0.0
149
0.0
100
AcDbLayout
  1
Layout1
 70
0
 71
1
 10
0.0
 20
0.0
 11
841.0
 21
594.0
 12
0.0
 22
0.0
 32
0.0
 14
0.0
 24
0.0
 34
0.0
 15
0.0
 25
0.0
 35
0.0
146
0.0
 13
0.0
 23
0.0
 33
0.0
 16
1.0
 26
0.0
 36
0.0
 17
0.0
 27
1.0
 37
0.0
 76
0
330
213
345
0
346
0
  0
ENDSEC
  0
EOF
