999
DXF file: 001-m33245-p-10.dxf
999
Pro/ENGINEER 2011490 by Parametric Technology Corporation
  0
SECTION
  2
HEADER
  9
$ACADVER
  1
AC1015
  9
$DWGCODEPAGE
  3
ANSI_1252
  9
$EXTMAX
 10
841.0
 20
594.0
 30
0.0
  9
$EXTMIN
 10
0.0
 20
0.0
 30
0.0
  9
$LIMMIN
 10
0.0
 20
0.0
  9
$LIMMAX
 10
841.0
 20
594.0
  9
$VIEWCTR
 10
420.5
 20
297.0
  9
$VIEWSIZE
 40
594.0
  9
$CLAYER
  8
0
  9
$LTSCALE
 40
46.255
  9
$CELTYPE
  6
BYLAYER
  9
$DIMSCALE
 40
1.0
  9
$DIMASZ
 40
3.5
  9
$DIMEXO
 40
5.25625
  9
$DIMDLI
 40
31.958
  9
$DIMEXE
 40
15.138
  9
$DIMCEN
 40
7.569
  9
$DIMLFAC
 40
1.0
  9
$DIMBLK
  1
_FILLED
  9
$DIMTXT
 40
3.5
  9
$DIMTOL
 70
1
  9
$DIMLIM
 70
0
  9
$DIMTFAC
 40
1.0
  9
$DIMTP
 40
0.005
  9
$DIMTM
 40
0.005
  9
$PDMODE
 70
3
  9
$PDSIZE
 40
0.3125
  9
$HANDSEED
  5
3D2
  9
$TILEMODE
 70
1
  9
$MEASUREMENT
 70
1
  9
$INSUNITS
 70
4
  0
ENDSEC
  0
SECTION
  2
CLASSES
  0
CLASS
  1
ACDBDICTIONARYWDFLT
  2
AcDbDictionaryWithDefault
  3
AutoCAD 2000
 90
0
280
0
281
0
  0
CLASS
  1
ACDBPLACEHOLDER
  2
AcDbPlaceHolder
  3
AutoCAD 2000
 90
0
280
0
281
0
  0
CLASS
  1
LAYOUT
  2
AcDbLayout
  3
AutoCAD 2000
 90
0
280
0
281
0
  0
ENDSEC
  0
SECTION
  2
TABLES
  0
TABLE
  2
VPORT
  5
8
100
AcDbSymbolTable
 70
2
  0
VPORT
  5
1F4
100
AcDbSymbolTableRecord
100
AcDbViewportTableRecord
  2
*ACTIVE
 70
0
 10
0.0
 20
0.0
 11
1.0
 21
1.0
 12
420.5
 22
297.0
 13
0.0
 23
0.0
 14
1.0
 24
1.0
 15
0.0
 25
0.0
 16
0.0
 26
0.0
 36
1.0
 17
0.0
 27
0.0
 37
0.0
 40
594.0
 41
1.4158249158
 42
50.0
 43
0.0
 44
0.0
 50
0.0
 51
0.0
 71
0
 72
100
 73
1
 74
1
 75
0
 76
0
 77
0
 78
0
  0
ENDTAB
  0
TABLE
  2
LTYPE
  5
5
100
AcDbSymbolTable
 70
6
  0
LTYPE
  5
14
100
AcDbSymbolTableRecord
100
AcDbLinetypeTableRecord
  2
BYBLOCK
 70
0
  3

 72
65
 73
0
 40
0.0
  0
LTYPE
  5
15
100
AcDbSymbolTableRecord
100
AcDbLinetypeTableRecord
  2
BYLAYER
 70
0
  3

 72
65
 73
0
 40
0.0
  0
LTYPE
  5
16
100
AcDbSymbolTableRecord
100
AcDbLinetypeTableRecord
  2
CONTINUOUS
 70
64
  3
Solid line
 72
65
 73
0
 40
0.0
  0
LTYPE
  5
1F5
100
AcDbSymbolTableRecord
100
AcDbLinetypeTableRecord
  2
CENTER
 70
64
  3
____ _ ____ _ ____ _ ____ _ ____ _ ____ _ ____
 72
65
 73
4
 40
0.6
 49
0.375
 74
0
 49
-0.075
 74
0
 49
0.075
 74
0
 49
-0.075
 74
0
  0
LTYPE
  5
1F6
100
AcDbSymbolTableRecord
100
AcDbLinetypeTableRecord
  2
HIDDEN
 70
64
  3
- - - - - - - - - - - - - - - - - - - -
 72
65
 73
2
 40
0.2
 49
0.1
 74
0
 49
-0.1
 74
0
  0
LTYPE
  5
1F7
100
AcDbSymbolTableRecord
100
AcDbLinetypeTableRecord
  2
PHANTOM
 70
64
  3
_____ _ _ _____ _ _ _____ _ _ _____
 72
65
 73
6
 40
0.8
 49
0.45
 74
0
 49
-0.05
 74
0
 49
0.1
 74
0
 49
-0.05
 74
0
 49
0.1
 74
0
 49
-0.05
 74
0
  0
LTYPE
  5
1F8
100
AcDbSymbolTableRecord
100
AcDbLinetypeTableRecord
  2
DOT
 70
64
  3
. . . . . . . . . . . . . . . . . . . .
 72
65
 73
2
 40
0.2
 49
0.1
 74
0
 49
-0.1
 74
0
  0
LTYPE
  5
1F9
100
AcDbSymbolTableRecord
100
AcDbLinetypeTableRecord
  2
DASHED
 70
64
  3
- - - - - - - - - - - - - - - - - - - -
 72
65
 73
2
 40
0.2
 49
0.1
 74
0
 49
-0.1
 74
0
  0
ENDTAB
  0
TABLE
  2
LAYER
  5
2
100
AcDbSymbolTable
 70
36
  0
LAYER
  5
10
100
AcDbSymbolTableRecord
100
AcDbLayerTableRecord
  2
0
 70
0
 62
7
  6
CONTINUOUS
370
-3
390
F
  0
LAYER
  5
1FA
100
AcDbSymbolTableRecord
100
AcDbLayerTableRecord
  2
DEFAULT_1
 70
0
 62
7
  6
CENTER
370
-3
390
F
  0
LAYER
  5
1FB
100
AcDbSymbolTableRecord
100
AcDbLayerTableRecord
  2
DEFAULT_2
 70
0
 62
8
  6
HIDDEN
370
-3
390
F
  0
LAYER
  5
1FC
100
AcDbSymbolTableRecord
100
AcDbLayerTableRecord
  2
DEFAULT_3
 70
0
 62
7
  6
PHANTOM
370
-3
390
F
  0
LAYER
  5
1FD
100
AcDbSymbolTableRecord
100
AcDbLayerTableRecord
  2
AUSFORMSCHRAEGEN
 70
0
 62
7
  6
CONTINUOUS
370
-3
390
F
  0
LAYER
  5
1FE
100
AcDbSymbolTableRecord
100
AcDbLayerTableRecord
  2
BEZUGSACHSEN
 70
0
 62
7
  6
CONTINUOUS
370
-3
390
F
  0
LAYER
  5
1FF
100
AcDbSymbolTableRecord
100
AcDbLayerTableRecord
  2
BEZUGSEBENEN
 70
0
 62
7
  6
CONTINUOUS
370
-3
390
F
  0
LAYER
  5
200
100
AcDbSymbolTableRecord
100
AcDbLayerTableRecord
  2
BEZUGSPUNKTE
 70
0
 62
7
  6
CONTINUOUS
370
-3
390
F
  0
LAYER
  5
201
100
AcDbSymbolTableRecord
100
AcDbLayerTableRecord
  2
BG_STARTBEZUEGE
 70
0
 62
7
  6
CONTINUOUS
370
-3
390
F
  0
LAYER
  5
202
100
AcDbSymbolTableRecord
100
AcDbLayerTableRecord
  2
BOHRUNGEN
 70
0
 62
7
  6
CONTINUOUS
370
-3
390
F
  0
LAYER
  5
203
100
AcDbSymbolTableRecord
100
AcDbLayerTableRecord
  2
FASEN
 70
0
 62
7
  6
CONTINUOUS
370
-3
390
F
  0
LAYER
  5
204
100
AcDbSymbolTableRecord
100
AcDbLayerTableRecord
  2
FLAECHEN
 70
0
 62
7
  6
CONTINUOUS
370
-3
390
F
  0
LAYER
  5
205
100
AcDbSymbolTableRecord
100
AcDbLayerTableRecord
  2
FLAECHENVERBUND
 70
0
 62
7
  6
CONTINUOUS
370
-3
390
F
  0
LAYER
  5
206
100
AcDbSymbolTableRecord
100
AcDbLayerTableRecord
  2
GEWINDE
 70
0
 62
7
  6
CONTINUOUS
370
-3
390
F
  0
LAYER
  5
207
100
AcDbSymbolTableRecord
100
AcDbLayerTableRecord
  2
HILFEN
 70
0
 62
7
  6
CONTINUOUS
370
-3
390
F
  0
LAYER
  5
208
100
AcDbSymbolTableRecord
100
AcDbLayerTableRecord
  2
KONSTRUKTIONSELEMENTE
 70
0
 62
7
  6
CONTINUOUS
370
-3
390
F
  0
LAYER
  5
209
100
AcDbSymbolTableRecord
100
AcDbLayerTableRecord
  2
KURVEN
 70
0
 62
7
  6
CONTINUOUS
370
-3
390
F
  0
LAYER
  5
20A
100
AcDbSymbolTableRecord
100
AcDbLayerTableRecord
  2
PLATZIERUNG
 70
0
 62
7
  6
CONTINUOUS
370
-3
390
F
  0
LAYER
  5
20B
100
AcDbSymbolTableRecord
100
AcDbLayerTableRecord
  2
PLAZIERUNG
 70
0
 62
7
  6
CONTINUOUS
370
-3
390
F
  0
LAYER
  5
20C
100
AcDbSymbolTableRecord
100
AcDbLayerTableRecord
  2
RUNDUNGEN
 70
0
 62
7
  6
CONTINUOUS
370
-3
390
F
  0
LAYER
  5
20D
100
AcDbSymbolTableRecord
100
AcDbLayerTableRecord
  2
TEIL_STARTBEZUEGE
 70
0
 62
7
  6
CONTINUOUS
370
-3
390
F
  0
LAYER
  5
20E
100
AcDbSymbolTableRecord
100
AcDbLayerTableRecord
  2
XSEC_DATUMS
 70
0
 62
7
  6
CONTINUOUS
370
-3
390
F
  0
LAYER
  5
20F
100
AcDbSymbolTableRecord
100
AcDbLayerTableRecord
  2
ZEICHNUNGSBEMASSUNGEN
 70
0
 62
7
  6
CONTINUOUS
370
-3
390
F
  0
ENDTAB
  0
TABLE
  2
STYLE
  5
3
100
AcDbSymbolTable
 70
1
  0
STYLE
  5
11
100
AcDbSymbolTableRecord
100
AcDbTextStyleTableRecord
  2
STANDARD
 70
0
 40
0.0
 41
0.7
 50
0.0
 71
0
 42
0.2
  3
txt
  4

  0
STYLE
  5
210
100
AcDbSymbolTableRecord
100
AcDbTextStyleTableRecord
  2
TEXTSTYLE_1
 70
0
 40
0.0
 41
0.8
 50
0.0
 71
0
 42
0.2
  3
gdt
  4

  0
ENDTAB
  0
TABLE
  2
VIEW
  5
6
100
AcDbSymbolTable
 70
0
  0
ENDTAB
  0
TABLE
  2
UCS
  5
7
100
AcDbSymbolTable
 70
0
  0
ENDTAB
  0
TABLE
  2
APPID
  5
9
100
AcDbSymbolTable
 70
1
  0
APPID
  5
211
100
AcDbSymbolTableRecord
100
AcDbRegAppTableRecord
  2
ACAD
 70
0
  0
ENDTAB
  0
TABLE
  2
BLOCK_RECORD
  5
1
100
AcDbSymbolTable
 70
0
  0
BLOCK_RECORD
  5
212
100
AcDbSymbolTableRecord
100
AcDbBlockTableRecord
  2
*Model_Space
  0
BLOCK_RECORD
  5
213
100
AcDbSymbolTableRecord
100
AcDbBlockTableRecord
  2
*Paper_Space
  0
ENDTAB
  0
TABLE
  2
DIMSTYLE
  5
A
100
AcDbSymbolTable
 70
1
100
AcDbDimStyleTable
 71
0
  0
DIMSTYLE
105
214
100
AcDbSymbolTableRecord
100
AcDbDimStyleTableRecord
  2
STANDARD
 70
0
  3

  4

 40
1.0
 41
3.5
 42
0.0625
 43
0.38
 44
0.18
 45
0.0
 46
0.0
 47
0.005
 48
0.005
140
3.5
141
0.09
142
0.0
143
25.4
144
1.0
145
0.0
146
1.0
147
0.09
 71
1.0
 72
0.0
 73
0
 74
0
 75
0
 76
0
 77
1
 78
8
170
0
171
2
172
0
173
0
174
0
175
0
176
0
177
0
178
5
270
2
271
3
272
3
273
2
274
2
275
0
280
0
281
0
282
0
283
1
284
8
285
0
286
0
287
3
288
0
340
11
  0
ENDTAB
  0
ENDSEC
  0
SECTION
  2
BLOCKS
  0
BLOCK
  5
20
100
AcDbEntity
  8
0
100
AcDbBlockBegin
  2
*Model_Space
 70
0
 10
0.0
 20
0.0
 30
0.0
  3
*Model_Space
  1

  0
ENDBLK
  5
21
100
AcDbEntity
  8
0
100
AcDbBlockEnd
  0
BLOCK
  5
1C
100
AcDbEntity
  8
0
100
AcDbBlockBegin
  2
*Paper_Space
 70
0
 10
0.0
 20
0.0
 30
0.0
  3
*Paper_Space
  1

  0
ENDBLK
  5
1D
100
AcDbEntity
  8
0
100
AcDbBlockEnd
  0
ENDSEC
  0
SECTION
  2
ENTITIES
  0
MTEXT
  5
215
100
AcDbEntity
  8
0
100
AcDbMText
 62
5
  6
CONTINUOUS
  7
STANDARD
 71
1
 72
1
 10
473.7087787304
 20
306.6230528559
 30
0.0
 11
1.0
 21
0.0
 31
0.0
 44
0.9
  1
VWBG 12t M42
 40
8.0
 41
79.0476190476
  0
MTEXT
  5
216
100
AcDbEntity
  8
0
100
AcDbMText
 62
5
  6
CONTINUOUS
  7
STANDARD
 71
1
 72
1
 10
309.1955221099
 20
379.0652069209
 30
0.0
 11
0.0
 21
1.0
 31
0.0
 44
0.9
  1
VWBG 12t M42
 40
8.0
 41
79.0476190476
  0
MTEXT
  5
217
100
AcDbEntity
  8
0
100
AcDbMText
 62
5
  6
CONTINUOUS
  7
STANDARD
 71
1
 72
1
 10
308.6256811384
 20
52.9449803099
 30
0.0
 11
0.0
 21
1.0
 31
0.0
 44
0.9
  1
VWBG 12t M42
 40
8.0
 41
79.0476190476
  0
LINE
  5
218
100
AcDbEntity
  8
0
100
AcDbLine
 62
7
  6
CONTINUOUS
 10
0.0
 20
0.0
 11
0.0
 21
594.0
  0
LINE
  5
219
100
AcDbEntity
  8
0
100
AcDbLine
 62
7
  6
CONTINUOUS
 10
0.0
 20
0.0
 11
841.0
 21
0.0
  0
LINE
  5
21A
100
AcDbEntity
  8
0
100
AcDbLine
 62
7
  6
CONTINUOUS
 10
0.0
 20
594.0
 11
841.0
 21
594.0
  0
LINE
  5
21B
100
AcDbEntity
  8
0
100
AcDbLine
 62
7
  6
CONTINUOUS
 10
841.0
 20
0.0
 11
841.0
 21
594.0
  0
LINE
  5
21C
100
AcDbEntity
  8
0
100
AcDbLine
 62
7
  6
CONTINUOUS
 10
330.9678799941
 20
221.8515683923
 11
294.9678799941
 21
221.8515683923
  0
LINE
  5
21D
100
AcDbEntity
  8
0
100
AcDbLine
 62
7
  6
CONTINUOUS
 10
333.9678799941
 20
224.8515683923
 11
291.9678799941
 21
224.8515683923
  0
LINE
  5
21E
100
AcDbEntity
  8
0
100
AcDbLine
 62
7
  6
CONTINUOUS
 10
291.9678799941
 20
224.8515683923
 11
294.9678799941
 21
221.8515683923
  0
LINE
  5
21F
100
AcDbEntity
  8
FASEN
100
AcDbLine
 62
7
  6
CONTINUOUS
 10
263.9678799941
 20
285.3515683923
 11
264.4678799941
 21
284.8515683923
  0
LINE
  5
220
100
AcDbEntity
  8
FASEN
100
AcDbLine
 62
7
  6
CONTINUOUS
 10
361.4678799941
 20
284.8515683923
 11
264.4678799941
 21
284.8515683923
  0
LINE
  5
221
100
AcDbEntity
  8
FASEN
100
AcDbLine
 62
7
  6
CONTINUOUS
 10
361.9678799941
 20
285.3515683923
 11
263.9678799941
 21
285.3515683923
  0
LINE
  5
222
100
AcDbEntity
  8
BEZUGSACHSEN
100
AcDbLine
 62
7
  6
CONTINUOUS
 10
361.9678799941
 20
292.3515683923
 11
263.9678799941
 21
292.3515683923
  0
LINE
  5
223
100
AcDbEntity
  8
KONSTRUKTIONSELEMENTE
100
AcDbLine
 62
7
  6
CONTINUOUS
 10
330.9609342095
 20
293.3515683923
 11
294.9748257786
 21
293.3515683923
  0
LINE
  5
224
100
AcDbEntity
  8
0
100
AcDbLine
 62
7
  6
CONTINUOUS
 10
311.4728798749
 20
323.8956110368
 11
312.0978799941
 21
324.023270596
  0
LINE
  5
225
100
AcDbEntity
  8
0
100
AcDbLine
 62
7
  6
CONTINUOUS
 10
312.2228798749
 20
324.6615683923
 11
311.3478799941
 21
324.533908833
  0
LINE
  5
226
100
AcDbEntity
  8
0
100
AcDbLine
 62
7
  6
CONTINUOUS
 10
308.3478799941
 20
318.6615683923
 11
309.0978799941
 21
318.6615683923
  0
LINE
  5
227
100
AcDbEntity
  8
0
100
AcDbLine
 62
7
  6
CONTINUOUS
 10
310.0978799345
 20
318.6615683923
 11
314.5978797557
 21
318.6615683923
  0
LINE
  5
228
100
AcDbEntity
  8
0
100
AcDbLine
 62
7
  6
CONTINUOUS
 10
314.5978797557
 20
319.2998662779
 11
311.0978798749
 21
319.2998662779
  0
LINE
  5
229
100
AcDbEntity
  8
0
100
AcDbLine
 62
7
  6
CONTINUOUS
 10
315.5978802325
 20
322.2360364089
 11
316.5978799941
 21
322.2360364089
  0
LINE
  5
22A
100
AcDbEntity
  8
0
100
AcDbLine
 62
7
  6
CONTINUOUS
 10
317.2228797557
 20
322.2360364089
 11
318.5978802325
 21
322.2360364089
  0
LINE
  5
22B
100
AcDbEntity
  8
0
100
AcDbLine
 62
7
  6
CONTINUOUS
 10
318.5978802325
 20
322.7466746459
 11
317.2228797557
 21
322.7466746459
  0
LINE
  5
22C
100
AcDbEntity
  8
0
100
AcDbLine
 62
7
  6
CONTINUOUS
 10
316.5978799941
 20
322.7466746459
 11
315.5978802325
 21
322.7466746459
  0
LINE
  5
22D
100
AcDbEntity
  8
0
100
AcDbLine
 62
7
  6
CONTINUOUS
 10
310.2228799941
 20
323.2573132405
 11
310.8478801133
 21
323.2573132405
  0
LINE
  5
22E
100
AcDbEntity
  8
0
100
AcDbLine
 62
7
  6
CONTINUOUS
 10
317.2228797557
 20
323.7679514775
 11
316.5978799941
 21
323.7679514775
  0
LINE
  5
22F
100
AcDbEntity
  8
0
100
AcDbLine
 62
7
  6
CONTINUOUS
 10
312.0978799941
 20
324.023270596
 11
312.5978798749
 21
324.023270596
  0
LINE
  5
230
100
AcDbEntity
  8
0
100
AcDbLine
 62
7
  6
CONTINUOUS
 10
312.7228801133
 20
324.6615683923
 11
312.2228798749
 21
324.6615683923
  0
LINE
  5
231
100
AcDbEntity
  8
0
100
AcDbLine
 62
7
  6
CONTINUOUS
 10
309.0978799941
 20
324.6615683923
 11
308.3478799941
 21
324.6615683923
  0
LINE
  5
232
100
AcDbEntity
  8
0
100
AcDbLine
 62
7
  6
CONTINUOUS
 10
317.5978797557
 20
318.7892279627
 11
318.3478797557
 21
318.6615683923
  0
LINE
  5
233
100
AcDbEntity
  8
0
100
AcDbLine
 62
7
  6
CONTINUOUS
 10
313.4728801133
 20
324.533908833
 11
312.7228801133
 21
324.6615683923
  0
LINE
  5
234
100
AcDbEntity
  8
0
100
AcDbLine
 62
7
  6
CONTINUOUS
 10
318.3478797557
 20
319.172206674
 11
317.7228799941
 21
319.2998662779
  0
LINE
  5
235
100
AcDbEntity
  8
0
100
AcDbLine
 62
7
  6
CONTINUOUS
 10
312.5978798749
 20
324.023270596
 11
313.2228799941
 21
323.8956110368
  0
LINE
  5
236
100
AcDbEntity
  8
0
100
AcDbLine
 62
7
  6
CONTINUOUS
 10
317.2228797557
 20
318.9168875331
 11
317.5978797557
 21
318.7892279627
  0
LINE
  5
237
100
AcDbEntity
  8
BEZUGSACHSEN
100
AcDbLine
 62
7
  6
CONTINUOUS
 10
263.9678799941
 20
292.3515683923
 11
263.9678799941
 21
285.3515683923
  0
LINE
  5
238
100
AcDbEntity
  8
BEZUGSACHSEN
100
AcDbLine
 62
7
  6
CONTINUOUS
 10
265.9678799941
 20
330.3515683923
 11
265.9678799941
 21
295.179995517
  0
LINE
  5
239
100
AcDbEntity
  8
KONSTRUKTIONSELEMENTE
100
AcDbLine
 62
7
  6
CONTINUOUS
 10
359.9678799941
 20
330.3515683923
 11
333.0365122345
 21
330.3515683923
  0
LINE
  5
23A
100
AcDbEntity
  8
KONSTRUKTIONSELEMENTE
100
AcDbLine
 62
7
  6
CONTINUOUS
 10
292.8992477537
 20
330.3515683923
 11
265.9678799941
 21
330.3515683923
  0
LINE
  5
23B
100
AcDbEntity
  8
KONSTRUKTIONSELEMENTE
100
AcDbLine
 62
7
  6
CONTINUOUS
 10
267.9680821429
 20
332.3515683923
 11
357.9676778452
 21
332.3515683923
  0
LINE
  5
23C
100
AcDbEntity
  8
0
100
AcDbLine
 62
7
  6
CONTINUOUS
 10
313.9728799941
 20
324.2785897145
 11
313.4728801133
 21
324.533908833
  0
LINE
  5
23D
100
AcDbEntity
  8
0
100
AcDbLine
 62
7
  6
CONTINUOUS
 10
316.8478797557
 20
319.172206674
 11
317.2228797557
 21
318.9168875331
  0
LINE
  5
23E
100
AcDbEntity
  8
0
100
AcDbLine
 62
7
  6
CONTINUOUS
 10
317.7228799941
 20
319.2998662779
 11
317.3478799941
 21
319.5551853964
  0
LINE
  5
23F
100
AcDbEntity
  8
0
100
AcDbLine
 62
7
  6
CONTINUOUS
 10
313.2228799941
 20
323.8956110368
 11
313.5978799941
 21
323.6402919183
  0
LINE
  5
240
100
AcDbEntity
  8
BEZUGSACHSEN
100
AcDbLine
 62
7
  6
CONTINUOUS
 10
276.443096241
 20
343.3734290974
 11
268.8019306652
 21
361.8208346628
  0
LINE
  5
241
100
AcDbEntity
  8
BEZUGSACHSEN
100
AcDbLine
 62
7
  6
CONTINUOUS
 10
272.9678799941
 20
351.1666061907
 11
272.9678799941
 21
332.3515683923
  0
LINE
  5
242
100
AcDbEntity
  8
BEZUGSACHSEN
100
AcDbLine
 62
7
  6
CONTINUOUS
 10
268.802215835
 20
364.8829905825
 11
280.6554455258
 21
393.49921846
  0
LINE
  5
243
100
AcDbEntity
  8
BEZUGSACHSEN
100
AcDbLine
 62
7
  6
CONTINUOUS
 10
339.1965969899
 20
341.8515683923
 11
286.7391629983
 21
341.8515683923
  0
LINE
  5
244
100
AcDbEntity
  8
0
100
AcDbLine
 62
7
  6
CONTINUOUS
 10
314.4728802325
 20
323.7679514775
 11
313.9728799941
 21
324.2785897145
  0
LINE
  5
245
100
AcDbEntity
  8
0
100
AcDbLine
 62
7
  6
CONTINUOUS
 10
289.7722269815
 20
381.4529220735
 11
289.855036655
 21
382.0081970424
  0
LINE
  5
246
100
AcDbEntity
  8
0
100
AcDbLine
 62
7
  6
CONTINUOUS
 10
289.1801446851
 20
381.7221574549
 11
289.0660937669
 21
381.3427970048
  0
LINE
  5
247
100
AcDbEntity
  8
BEZUGSACHSEN
100
AcDbLine
 62
7
  6
CONTINUOUS
 10
282.8202299264
 20
395.6640028605
 11
299.7178799941
 21
402.6632386908
  0
LINE
  5
248
100
AcDbEntity
  8
RUNDUNGEN
100
AcDbLine
 62
7
  6
CONTINUOUS
 10
282.8202299264
 20
395.6640028605
 11
299.7178799941
 21
402.6632386908
  0
LINE
  5
249
100
AcDbEntity
  8
BEZUGSACHSEN
100
AcDbLine
 62
7
  6
CONTINUOUS
 10
360.5536664317
 20
293.7657819546
 11
361.9678799941
 21
292.3515683923
  0
LINE
  5
24A
100
AcDbEntity
  8
0
100
AcDbLine
 62
7
  6
CONTINUOUS
 10
313.5978799941
 20
323.6402919183
 11
313.8478797557
 21
323.2573132405
  0
LINE
  5
24B
100
AcDbEntity
  8
0
100
AcDbLine
 62
7
  6
CONTINUOUS
 10
316.5978799941
 20
319.6828449557
 11
316.8478797557
 21
319.172206674
  0
LINE
  5
24C
100
AcDbEntity
  8
0
100
AcDbLine
 62
7
  6
CONTINUOUS
 10
289.855036655
 20
382.0081970424
 11
289.6574259066
 21
382.6101325881
  0
LINE
  5
24D
100
AcDbEntity
  8
0
100
AcDbLine
 62
7
  6
CONTINUOUS
 10
289.1176624036
 20
382.0739867834
 11
289.1801446851
 21
381.7221574549
  0
LINE
  5
24E
100
AcDbEntity
  8
0
100
AcDbLine
 62
7
  6
CONTINUOUS
 10
291.9678799941
 20
284.8515683923
 11
291.9678799941
 21
224.8515683923
  0
LINE
  5
24F
100
AcDbEntity
  8
KONSTRUKTIONSELEMENTE
100
AcDbLine
 62
7
  6
CONTINUOUS
 10
292.8992477537
 20
330.3515683923
 11
292.8992477537
 21
295.3515683923
  0
LINE
  5
250
100
AcDbEntity
  8
KONSTRUKTIONSELEMENTE
100
AcDbLine
 62
7
  6
CONTINUOUS
 10
299.7178799941
 20
366.6015683923
 11
299.7178799941
 21
532.1015683923
  0
LINE
  5
251
100
AcDbEntity
  8
0
100
AcDbLine
 62
7
  6
CONTINUOUS
 10
295.923922569
 20
384.1347261605
 11
295.9502342229
 21
384.8489105835
  0
LINE
  5
252
100
AcDbEntity
  8
0
100
AcDbLine
 62
7
  6
CONTINUOUS
 10
295.2236062901
 20
384.533157919
 11
295.1179776431
 21
384.0919601325
  0
LINE
  5
253
100
AcDbEntity
  8
0
100
AcDbLine
 62
7
  6
CONTINUOUS
 10
295.7258207547
 20
383.6094226492
 11
295.923922569
 21
384.1347261605
  0
LINE
  5
254
100
AcDbEntity
  8
0
100
AcDbLine
 62
7
  6
CONTINUOUS
 10
295.1179776431
 20
384.0919601325
 11
294.8339807298
 21
383.6610970977
  0
LINE
  5
255
100
AcDbEntity
  8
0
100
AcDbLine
 62
7
  6
CONTINUOUS
 10
286.9157030542
 20
382.724908363
 11
285.172197931
 21
380.2835583501
  0
LINE
  5
256
100
AcDbEntity
  8
0
100
AcDbLine
 62
7
  6
CONTINUOUS
 10
286.1275103229
 20
380.5229373607
 11
287.5077851428
 21
382.4556726905
  0
LINE
  5
257
100
AcDbEntity
  8
0
100
AcDbLine
 62
7
  6
CONTINUOUS
 10
289.0660937669
 20
381.3427970048
 11
287.685818947
 21
379.410061675
  0
LINE
  5
258
100
AcDbEntity
  8
0
100
AcDbLine
 62
7
  6
CONTINUOUS
 10
288.3091422802
 20
378.9649114838
 11
289.5441250412
 21
380.6942010277
  0
LINE
  5
259
100
AcDbEntity
  8
0
100
AcDbLine
 62
7
  6
CONTINUOUS
 10
290.0548979568
 20
376.7965481037
 11
290.4907742376
 21
377.4068856069
  0
LINE
  5
25A
100
AcDbEntity
  8
0
100
AcDbLine
 62
7
  6
CONTINUOUS
 10
292.3069253383
 20
379.94995844
 11
292.8154478045
 21
380.6620190544
  0
LINE
  5
25B
100
AcDbEntity
  8
0
100
AcDbLine
 62
7
  6
CONTINUOUS
 10
295.3493512484
 20
383.0944543213
 11
295.7258207547
 21
383.6094226492
  0
LINE
  5
25C
100
AcDbEntity
  8
0
100
AcDbLine
 62
7
  6
CONTINUOUS
 10
287.3828205797
 20
383.1593313475
 11
286.9157030542
 21
382.724908363
  0
LINE
  5
25D
100
AcDbEntity
  8
0
100
AcDbLine
 62
7
  6
CONTINUOUS
 10
292.7918496057
 20
388.8788459316
 11
292.2370118858
 21
388.3742122976
  0
LINE
  5
25E
100
AcDbEntity
  8
0
100
AcDbLine
 62
7
  6
CONTINUOUS
 10
290.0176610062
 20
386.3556777615
 11
289.4628230217
 21
385.8510438869
  0
LINE
  5
25F
100
AcDbEntity
  8
0
100
AcDbLine
 62
7
  6
CONTINUOUS
 10
294.8339807298
 20
383.6610970977
 11
294.4640887402
 21
383.3246745146
  0
LINE
  5
260
100
AcDbEntity
  8
0
100
AcDbLine
 62
7
  6
CONTINUOUS
 10
294.9794592588
 20
382.7580317382
 11
295.3493512484
 21
383.0944543213
  0
LINE
  5
261
100
AcDbEntity
  8
0
100
AcDbLine
 62
7
  6
CONTINUOUS
 10
287.5077851428
 20
382.4556726905
 11
287.8296105054
 21
382.6866497436
  0
LINE
  5
262
100
AcDbEntity
  8
0
100
AcDbLine
 62
7
  6
CONTINUOUS
 10
297.252079046
 20
391.7578212391
 11
294.6497230111
 21
390.265258655
  0
LINE
  5
263
100
AcDbEntity
  8
0
100
AcDbLine
 62
7
  6
CONTINUOUS
 10
295.6813917832
 20
389.9739680521
 11
297.6331588093
 21
391.0933899903
  0
LINE
  5
264
100
AcDbEntity
  8
0
100
AcDbLine
 62
7
  6
CONTINUOUS
 10
297.8577502608
 20
391.9580334732
 11
297.252079046
 21
391.7578212391
  0
LINE
  5
265
100
AcDbEntity
  8
0
100
AcDbLine
 62
7
  6
CONTINUOUS
 10
293.1164616418
 20
383.1343668399
 11
292.6804087356
 21
383.4280233619
  0
LINE
  5
266
100
AcDbEntity
  8
0
100
AcDbLine
 62
7
  6
CONTINUOUS
 10
285.172197931
 20
380.2835583501
 11
290.0548979568
 21
376.7965481037
  0
LINE
  5
267
100
AcDbEntity
  8
0
100
AcDbLine
 62
7
  6
CONTINUOUS
 10
290.4907742376
 20
377.4068856069
 11
288.3091422802
 21
378.9649114838
  0
LINE
  5
268
100
AcDbEntity
  8
0
100
AcDbLine
 62
7
  6
CONTINUOUS
 10
287.685818947
 20
379.410061675
 11
286.1275103229
 21
380.5229373607
  0
LINE
  5
269
100
AcDbEntity
  8
0
100
AcDbLine
 62
7
  6
CONTINUOUS
 10
288.5669847568
 20
382.6208600026
 11
288.8786467145
 21
382.3982846992
  0
LINE
  5
26A
100
AcDbEntity
  8
0
100
AcDbLine
 62
7
  6
CONTINUOUS
 10
289.4184102175
 20
382.9344305039
 11
289.0028610376
 21
383.2311975058
  0
LINE
  5
26B
100
AcDbEntity
  8
0
100
AcDbLine
 62
7
  6
CONTINUOUS
 10
292.1255707511
 20
382.9233894872
 11
292.6475192629
 21
382.5352929948
  0
LINE
  5
26C
100
AcDbEntity
  8
0
100
AcDbLine
 62
7
  6
CONTINUOUS
 10
289.4628230217
 20
385.8510438869
 11
292.1255707511
 21
382.9233894872
  0
LINE
  5
26D
100
AcDbEntity
  8
0
100
AcDbLine
 62
7
  6
CONTINUOUS
 10
292.6804087356
 20
383.4280233619
 11
290.0176610062
 21
386.3556777615
  0
LINE
  5
26E
100
AcDbEntity
  8
0
100
AcDbLine
 62
7
  6
CONTINUOUS
 10
292.2370118858
 20
388.3742122976
 11
294.8997596152
 21
385.446557898
  0
LINE
  5
26F
100
AcDbEntity
  8
0
100
AcDbLine
 62
7
  6
CONTINUOUS
 10
295.4545973351
 20
385.951191532
 11
292.7918496057
 21
388.8788459316
  0
LINE
  5
270
100
AcDbEntity
  8
0
100
AcDbLine
 62
7
  6
CONTINUOUS
 10
288.8786467145
 20
382.3982846992
 11
289.1176624036
 21
382.0739867834
  0
LINE
  5
271
100
AcDbEntity
  8
0
100
AcDbLine
 62
7
  6
CONTINUOUS
 10
289.6574259066
 20
382.6101325881
 11
289.4184102175
 21
382.9344305039
  0
LINE
  5
272
100
AcDbEntity
  8
0
100
AcDbLine
 62
7
  6
CONTINUOUS
 10
295.7915995874
 20
385.3948835074
 11
295.4545973351
 21
385.951191532
  0
LINE
  5
273
100
AcDbEntity
  8
0
100
AcDbLine
 62
7
  6
CONTINUOUS
 10
294.6497230111
 20
390.265258655
 11
297.6348481795
 21
385.0605465852
  0
LINE
  5
274
100
AcDbEntity
  8
0
100
AcDbLine
 62
7
  6
CONTINUOUS
 10
297.9043573804
 20
386.0981185576
 11
295.6813917832
 21
389.9739680521
  0
LINE
  5
275
100
AcDbEntity
  8
0
100
AcDbLine
 62
7
  6
CONTINUOUS
 10
294.8997596152
 20
385.446557898
 11
295.1508667911
 21
384.9846903251
  0
LINE
  5
276
100
AcDbEntity
  8
0
100
AcDbLine
 62
7
  6
CONTINUOUS
 10
317.3478799941
 20
319.5551853964
 11
317.2228797557
 21
319.9381641636
  0
LINE
  5
277
100
AcDbEntity
  8
0
100
AcDbLine
 62
7
  6
CONTINUOUS
 10
295.9502342229
 20
384.8489105835
 11
295.7915995874
 21
385.3948835074
  0
LINE
  5
278
100
AcDbEntity
  8
0
100
AcDbLine
 62
7
  6
CONTINUOUS
 10
314.5978797557
 20
323.2573132405
 11
314.4728802325
 21
323.7679514775
  0
LINE
  5
279
100
AcDbEntity
  8
0
100
AcDbLine
 62
7
  6
CONTINUOUS
 10
295.1508667911
 20
384.9846903251
 11
295.2236062901
 21
384.533157919
  0
LINE
  5
27A
100
AcDbEntity
  8
0
100
AcDbLine
 62
7
  6
CONTINUOUS
 10
307.5978799941
 20
323.7679514775
 11
307.5978799941
 21
322.7466746459
  0
LINE
  5
27B
100
AcDbEntity
  8
0
100
AcDbLine
 62
7
  6
CONTINUOUS
 10
308.3478799941
 20
323.6402919183
 11
308.3478799941
 21
318.6615683923
  0
LINE
  5
27C
100
AcDbEntity
  8
0
100
AcDbLine
 62
7
  6
CONTINUOUS
 10
309.0978799941
 20
318.6615683923
 11
309.0978799941
 21
324.6615683923
  0
LINE
  5
27D
100
AcDbEntity
  8
0
100
AcDbLine
 62
7
  6
CONTINUOUS
 10
310.0978799345
 20
319.2998662779
 11
310.0978799345
 21
318.6615683923
  0
LINE
  5
27E
100
AcDbEntity
  8
0
100
AcDbLine
 62
7
  6
CONTINUOUS
 10
313.8478797557
 20
323.2573132405
 11
313.8478797557
 21
323.0019937644
  0
LINE
  5
27F
100
AcDbEntity
  8
0
100
AcDbLine
 62
7
  6
CONTINUOUS
 10
294.4311995846
 20
382.4319443303
 11
294.9794592588
 21
382.7580317382
  0
LINE
  5
280
100
AcDbEntity
  8
0
100
AcDbLine
 62
7
  6
CONTINUOUS
 10
299.7178799941
 20
387.1382514074
 11
297.9043573804
 21
386.0981185576
  0
LINE
  5
281
100
AcDbEntity
  8
0
100
AcDbLine
 62
7
  6
CONTINUOUS
 10
297.6348481795
 20
385.0605465852
 11
299.7178799941
 21
386.2552544985
  0
LINE
  5
282
100
AcDbEntity
  8
0
100
AcDbLine
 62
7
  6
CONTINUOUS
 10
326.6344301238
 20
389.7280992878
 11
327.1841133187
 21
390.0430989615
  0
LINE
  5
283
100
AcDbEntity
  8
0
100
AcDbLine
 62
7
  6
CONTINUOUS
 10
294.4640887402
 20
383.3246745146
 11
294.0083022033
 21
383.0826928644
  0
LINE
  5
284
100
AcDbEntity
  8
0
100
AcDbLine
 62
7
  6
CONTINUOUS
 10
326.5500858716
 20
390.4635822066
 11
326.2181008317
 21
390.3313955633
  0
LINE
  5
285
100
AcDbEntity
  8
0
100
AcDbLine
 62
7
  6
CONTINUOUS
 10
330.0378953648
 20
389.1895717214
 11
330.466226045
 21
389.3499004245
  0
LINE
  5
286
100
AcDbEntity
  8
0
100
AcDbLine
 62
7
  6
CONTINUOUS
 10
287.9850663643
 20
383.3436478237
 11
287.3828205797
 21
383.1593313475
  0
LINE
  5
287
100
AcDbEntity
  8
0
100
AcDbLine
 62
7
  6
CONTINUOUS
 10
330.3354864055
 20
383.8989992277
 11
331.0408426258
 21
384.0139992752
  0
LINE
  5
288
100
AcDbEntity
  8
0
100
AcDbLine
 62
7
  6
CONTINUOUS
 10
288.6185533935
 20
383.3520497812
 11
287.9850663643
 21
383.3436478237
  0
LINE
  5
289
100
AcDbEntity
  8
0
100
AcDbLine
 62
7
  6
CONTINUOUS
 10
293.1760456234
 20
382.3257424134
 11
293.8895174196
 21
382.2844026754
  0
LINE
  5
28A
100
AcDbEntity
  8
0
100
AcDbLine
 62
7
  6
CONTINUOUS
 10
292.8154478045
 20
380.6620190544
 11
289.7722269815
 21
381.4529220735
  0
LINE
  5
28B
100
AcDbEntity
  8
0
100
AcDbLine
 62
7
  6
CONTINUOUS
 10
293.5590931304
 20
383.019257017
 11
293.1164616418
 21
383.1343668399
  0
LINE
  5
28C
100
AcDbEntity
  8
0
100
AcDbLine
 62
7
  6
CONTINUOUS
 10
289.5441250412
 20
380.6942010277
 11
292.3069253383
 21
379.94995844
  0
LINE
  5
28D
100
AcDbEntity
  8
0
100
AcDbLine
 62
7
  6
CONTINUOUS
 10
288.1826771127
 20
382.741712278
 11
288.5669847568
 21
382.6208600026
  0
LINE
  5
28E
100
AcDbEntity
  8
0
100
AcDbLine
 62
7
  6
CONTINUOUS
 10
289.0028610376
 20
383.2311975058
 11
288.6185533935
 21
383.3520497812
  0
LINE
  5
28F
100
AcDbEntity
  8
0
100
AcDbLine
 62
7
  6
CONTINUOUS
 10
292.6475192629
 20
382.5352929948
 11
293.1760456234
 21
382.3257424134
  0
LINE
  5
290
100
AcDbEntity
  8
0
100
AcDbLine
 62
7
  6
CONTINUOUS
 10
298.5827187875
 20
391.1965048823
 11
298.9901222636
 21
390.9886694003
  0
LINE
  5
291
100
AcDbEntity
  8
0
100
AcDbLine
 62
7
  6
CONTINUOUS
 10
299.5771978005
 20
391.472548898
 11
299.1062812085
 21
391.7911226113
  0
LINE
  5
292
100
AcDbEntity
  8
BEZUGSACHSEN
100
AcDbLine
 62
7
  6
CONTINUOUS
 10
357.9678799941
 20
332.3515683923
 11
359.9678799941
 21
330.3515683923
  0
LINE
  5
293
100
AcDbEntity
  8
0
100
AcDbLine
 62
7
  6
CONTINUOUS
 10
298.9901222636
 20
390.9886694003
 11
299.352606527
 21
390.6079051048
  0
LINE
  5
294
100
AcDbEntity
  8
0
100
AcDbLine
 62
7
  6
CONTINUOUS
 10
299.7178799941
 20
391.3102340893
 11
299.5771978005
 21
391.472548898
  0
LINE
  5
295
100
AcDbEntity
  8
0
100
AcDbLine
 62
7
  6
CONTINUOUS
 10
299.352606527
 20
390.6079051048
 11
299.7178799941
 21
389.9710329082
  0
LINE
  5
296
100
AcDbEntity
  8
0
100
AcDbLine
 62
7
  6
CONTINUOUS
 10
314.5978797557
 20
318.6615683923
 11
314.5978797557
 21
319.2998662779
  0
LINE
  5
297
100
AcDbEntity
  8
0
100
AcDbLine
 62
7
  6
CONTINUOUS
 10
314.5978797557
 20
323.0019937644
 11
314.5978797557
 21
323.2573132405
  0
LINE
  5
298
100
AcDbEntity
  8
0
100
AcDbLine
 62
7
  6
CONTINUOUS
 10
315.5978802325
 20
322.7466746459
 11
315.5978802325
 21
322.2360364089
  0
LINE
  5
299
100
AcDbEntity
  8
0
100
AcDbLine
 62
7
  6
CONTINUOUS
 10
316.5978799941
 20
323.7679514775
 11
316.5978799941
 21
322.7466746459
  0
LINE
  5
29A
100
AcDbEntity
  8
0
100
AcDbLine
 62
7
  6
CONTINUOUS
 10
316.5978799941
 20
322.2360364089
 11
316.5978799941
 21
319.6828449557
  0
LINE
  5
29B
100
AcDbEntity
  8
0
100
AcDbLine
 62
7
  6
CONTINUOUS
 10
317.2228797557
 20
319.9381641636
 11
317.2228797557
 21
322.2360364089
  0
LINE
  5
29C
100
AcDbEntity
  8
0
100
AcDbLine
 62
7
  6
CONTINUOUS
 10
317.2228797557
 20
322.7466746459
 11
317.2228797557
 21
323.7679514775
  0
LINE
  5
29D
100
AcDbEntity
  8
0
100
AcDbLine
 62
7
  6
CONTINUOUS
 10
318.3478797557
 20
318.6615683923
 11
318.3478797557
 21
319.172206674
  0
LINE
  5
29E
100
AcDbEntity
  8
0
100
AcDbLine
 62
7
  6
CONTINUOUS
 10
318.5978802325
 20
322.2360364089
 11
318.5978802325
 21
322.7466746459
  0
LINE
  5
29F
100
AcDbEntity
  8
0
100
AcDbLine
 62
7
  6
CONTINUOUS
 10
310.3478800537
 20
323.7679514775
 11
310.2228799941
 21
323.2573132405
  0
LINE
  5
2A0
100
AcDbEntity
  8
0
100
AcDbLine
 62
7
  6
CONTINUOUS
 10
326.9228970074
 20
390.9965561011
 11
326.8194883535
 21
390.763115525
  0
LINE
  5
2A1
100
AcDbEntity
  8
0
100
AcDbLine
 62
7
  6
CONTINUOUS
 10
326.367724862
 20
387.8915060674
 11
326.6262464967
 21
388.4751075076
  0
LINE
  5
2A2
100
AcDbEntity
  8
0
100
AcDbLine
 62
7
  6
CONTINUOUS
 10
327.4535158005
 20
390.3426322798
 11
327.6603332532
 21
390.809513759
  0
LINE
  5
2A3
100
AcDbEntity
  8
0
100
AcDbLine
 62
7
  6
CONTINUOUS
 10
327.8956802117
 20
387.7543903942
 11
327.6180986942
 21
387.1661746036
  0
LINE
  5
2A4
100
AcDbEntity
  8
0
100
AcDbLine
 62
7
  6
CONTINUOUS
 10
329.0304831728
 20
389.2968039622
 11
327.8956802117
 21
387.7543903942
  0
LINE
  5
2A5
100
AcDbEntity
  8
0
100
AcDbLine
 62
7
  6
CONTINUOUS
 10
328.4997922081
 20
387.3099258896
 11
329.6345951692
 21
388.8523394576
  0
LINE
  5
2A6
100
AcDbEntity
  8
0
100
AcDbLine
 62
7
  6
CONTINUOUS
 10
331.06866354
 20
387.0048081359
 11
330.6147423979
 21
386.3878427663
  0
LINE
  5
2A7
100
AcDbEntity
  8
0
100
AcDbLine
 62
7
  6
CONTINUOUS
 10
326.8194883535
 20
390.763115525
 11
326.5500858716
 21
390.4635822066
  0
LINE
  5
2A8
100
AcDbEntity
  8
0
100
AcDbLine
 62
7
  6
CONTINUOUS
 10
327.1841133187
 20
390.0430989615
 11
327.4535158005
 21
390.3426322798
  0
LINE
  5
2A9
100
AcDbEntity
  8
0
100
AcDbLine
 62
7
  6
CONTINUOUS
 10
326.2178799941
 20
387.7249020464
 11
326.367724862
 21
387.8915060674
  0
LINE
  5
2AA
100
AcDbEntity
  8
BEZUGSACHSEN
100
AcDbLine
 62
7
  6
CONTINUOUS
 10
267.9678799941
 20
332.3515683923
 11
265.9678799941
 21
330.3515683923
  0
LINE
  5
2AB
100
AcDbEntity
  8
0
100
AcDbLine
 62
7
  6
CONTINUOUS
 10
329.509437104
 20
389.7368640756
 11
329.0304831728
 21
389.2968039622
  0
LINE
  5
2AC
100
AcDbEntity
  8
0
100
AcDbLine
 62
7
  6
CONTINUOUS
 10
329.6345951692
 20
388.8523394576
 11
330.0378953648
 21
389.1895717214
  0
LINE
  5
2AD
100
AcDbEntity
  8
0
100
AcDbLine
 62
7
  6
CONTINUOUS
 10
331.0408426258
 20
384.0139992752
 11
331.4441405699
 21
384.3512333065
  0
LINE
  5
2AE
100
AcDbEntity
  8
0
100
AcDbLine
 62
7
  6
CONTINUOUS
 10
330.9156820972
 20
384.8985253727
 11
330.5880377297
 21
384.664118975
  0
LINE
  5
2AF
100
AcDbEntity
  8
0
100
AcDbLine
 62
7
  6
CONTINUOUS
 10
330.013421096
 20
390.0000200523
 11
329.509437104
 21
389.7368640756
  0
LINE
  5
2B0
100
AcDbEntity
  8
0
100
AcDbLine
 62
7
  6
CONTINUOUS
 10
297.6331588093
 20
391.0933899903
 11
298.1303976954
 21
391.2314116422
  0
LINE
  5
2B1
100
AcDbEntity
  8
0
100
AcDbLine
 62
7
  6
CONTINUOUS
 10
293.8895174196
 20
382.2844026754
 11
294.4311995846
 21
382.4319443303
  0
LINE
  5
2B2
100
AcDbEntity
  8
0
100
AcDbLine
 62
7
  6
CONTINUOUS
 10
330.7187772898
 20
390.1150200638
 11
330.013421096
 21
390.0000200523
  0
LINE
  5
2B3
100
AcDbEntity
  8
0
100
AcDbLine
 62
7
  6
CONTINUOUS
 10
287.8296105054
 20
382.6866497436
 11
288.1826771127
 21
382.741712278
  0
LINE
  5
2B4
100
AcDbEntity
  8
0
100
AcDbLine
 62
7
  6
CONTINUOUS
 10
294.0083022033
 20
383.0826928644
 11
293.5590931304
 21
383.019257017
  0
LINE
  5
2B5
100
AcDbEntity
  8
0
100
AcDbLine
 62
7
  6
CONTINUOUS
 10
326.3541494108
 20
389.7126329326
 11
326.6344301238
 21
389.7280992878
  0
LINE
  5
2B6
100
AcDbEntity
  8
0
100
AcDbLine
 62
7
  6
CONTINUOUS
 10
298.4185024408
 20
391.9853165838
 11
297.8577502608
 21
391.9580334732
  0
LINE
  5
2B7
100
AcDbEntity
  8
0
100
AcDbLine
 62
7
  6
CONTINUOUS
 10
330.5880377297
 20
384.664118975
 11
330.1346746312
 21
384.6806960321
  0
LINE
  5
2B8
100
AcDbEntity
  8
0
100
AcDbLine
 62
7
  6
CONTINUOUS
 10
330.466226045
 20
389.3499004245
 11
330.9195890906
 21
389.3333232954
  0
LINE
  5
2B9
100
AcDbEntity
  8
0
100
AcDbLine
 62
7
  6
CONTINUOUS
 10
298.1303976954
 20
391.2314116422
 11
298.5827187875
 21
391.1965048823
  0
LINE
  5
2BA
100
AcDbEntity
  8
0
100
AcDbLine
 62
7
  6
CONTINUOUS
 10
329.7814372392
 20
383.9896543124
 11
330.3354864055
 21
383.8989992277
  0
LINE
  5
2BB
100
AcDbEntity
  8
0
100
AcDbLine
 62
7
  6
CONTINUOUS
 10
331.2728264362
 20
390.0243649521
 11
330.7187772898
 21
390.1150200638
  0
LINE
  5
2BC
100
AcDbEntity
  8
0
100
AcDbLine
 62
7
  6
CONTINUOUS
 10
299.1062812085
 20
391.7911226113
 11
298.4185024408
 21
391.9853165838
  0
LINE
  5
2BD
100
AcDbEntity
  8
0
100
AcDbLine
 62
7
  6
CONTINUOUS
 10
330.1346746312
 20
384.6806960321
 11
329.6562790084
 21
384.8741787054
  0
LINE
  5
2BE
100
AcDbEntity
  8
0
100
AcDbLine
 62
7
  6
CONTINUOUS
 10
330.9195890906
 20
389.3333232954
 11
331.3979847133
 21
389.1398406222
  0
LINE
  5
2BF
100
AcDbEntity
  8
0
100
AcDbLine
 62
7
  6
CONTINUOUS
 10
329.2023578134
 20
384.2572132638
 11
329.7814372392
 21
383.9896543124
  0
LINE
  5
2C0
100
AcDbEntity
  8
0
100
AcDbLine
 62
7
  6
CONTINUOUS
 10
328.2961898188
 20
384.9239100206
 11
329.2023578134
 21
384.2572132638
  0
LINE
  5
2C1
100
AcDbEntity
  8
0
100
AcDbLine
 62
7
  6
CONTINUOUS
 10
329.6562790084
 20
384.8741787054
 11
328.7501110139
 21
385.5408754622
  0
LINE
  5
2C2
100
AcDbEntity
  8
0
100
AcDbLine
 62
7
  6
CONTINUOUS
 10
330.6147423979
 20
386.3878427663
 11
331.5209103925
 21
385.7211460095
  0
LINE
  5
2C3
100
AcDbEntity
  8
0
100
AcDbLine
 62
7
  6
CONTINUOUS
 10
327.8684174536
 20
385.3971241132
 11
328.2961898188
 21
384.9239100206
  0
LINE
  5
2C4
100
AcDbEntity
  8
KONSTRUKTIONSELEMENTE
100
AcDbLine
 62
7
  6
CONTINUOUS
 10
326.2178799941
 20
366.6015683923
 11
326.2178799941
 21
532.1015683923
  0
LINE
  5
2C5
100
AcDbEntity
  8
KONSTRUKTIONSELEMENTE
100
AcDbLine
 62
7
  6
CONTINUOUS
 10
333.0365122345
 20
330.3515683923
 11
333.0365122345
 21
295.3515683923
  0
LINE
  5
2C6
100
AcDbEntity
  8
0
100
AcDbLine
 62
7
  6
CONTINUOUS
 10
333.9678799941
 20
284.8515683923
 11
333.9678799941
 21
224.8515683923
  0
LINE
  5
2C7
100
AcDbEntity
  8
0
100
AcDbLine
 62
7
  6
CONTINUOUS
 10
328.2722735406
 20
386.3679007062
 11
328.2978642143
 21
386.8245376607
  0
LINE
  5
2C8
100
AcDbEntity
  8
0
100
AcDbLine
 62
7
  6
CONTINUOUS
 10
326.6262464967
 20
388.4751075076
 11
326.6670700491
 21
388.875896081
  0
LINE
  5
2C9
100
AcDbEntity
  8
0
100
AcDbLine
 62
7
  6
CONTINUOUS
 10
326.9637206321
 20
391.397344838
 11
326.9228970074
 21
390.9965561011
  0
LINE
  5
2CA
100
AcDbEntity
  8
0
100
AcDbLine
 62
7
  6
CONTINUOUS
 10
327.6603332532
 20
390.809513759
 11
327.7011567331
 21
391.2103021689
  0
LINE
  5
2CB
100
AcDbEntity
  8
0
100
AcDbLine
 62
7
  6
CONTINUOUS
 10
327.6180986942
 20
387.1661746036
 11
327.5168544439
 21
386.6067100155
  0
LINE
  5
2CC
100
AcDbEntity
  8
0
100
AcDbLine
 62
7
  6
CONTINUOUS
 10
314.4728802325
 20
322.4913555274
 11
314.5978797557
 21
323.0019937644
  0
LINE
  5
2CD
100
AcDbEntity
  8
0
100
AcDbLine
 62
7
  6
CONTINUOUS
 10
332.7819902342
 20
387.6461186934
 11
332.6557132476
 21
387.2635594334
  0
LINE
  5
2CE
100
AcDbEntity
  8
0
100
AcDbLine
 62
7
  6
CONTINUOUS
 10
328.2978642143
 20
386.8245376607
 11
328.4997922081
 21
387.3099258896
  0
LINE
  5
2CF
100
AcDbEntity
  8
0
100
AcDbLine
 62
7
  6
CONTINUOUS
 10
333.259825244
 20
386.8190949289
 11
333.5374092779
 21
387.407309312
  0
LINE
  5
2D0
100
AcDbEntity
  8
0
100
AcDbLine
 62
7
  6
CONTINUOUS
 10
331.5209103925
 20
385.7211460095
 11
330.9156820972
 21
384.8985253727
  0
LINE
  5
2D1
100
AcDbEntity
  8
0
100
AcDbLine
 62
7
  6
CONTINUOUS
 10
331.4441405699
 20
384.3512333065
 11
332.5789435309
 21
385.8936468745
  0
LINE
  5
2D2
100
AcDbEntity
  8
RUNDUNGEN
100
AcDbLine
 62
7
  6
CONTINUOUS
 10
343.1155300618
 20
395.6640028605
 11
326.2178799941
 21
402.6632386908
  0
LINE
  5
2D3
100
AcDbEntity
  8
0
100
AcDbLine
 62
7
  6
CONTINUOUS
 10
326.2178799941
 20
392.1466068461
 11
326.54739134
 21
392.0006411134
  0
LINE
  5
2D4
100
AcDbEntity
  8
0
100
AcDbLine
 62
7
  6
CONTINUOUS
 10
326.7433278008
 20
392.7515903875
 11
326.2178799941
 21
392.9843513381
  0
LINE
  5
2D5
100
AcDbEntity
  8
0
100
AcDbLine
 62
7
  6
CONTINUOUS
 10
331.8519058554
 20
389.7568059917
 11
331.2728264362
 21
390.0243649521
  0
LINE
  5
2D6
100
AcDbEntity
  8
0
100
AcDbLine
 62
7
  6
CONTINUOUS
 10
327.2630683627
 20
392.3817335293
 11
326.7433278008
 21
392.7515903875
  0
LINE
  5
2D7
100
AcDbEntity
  8
0
100
AcDbLine
 62
7
  6
CONTINUOUS
 10
332.5789435309
 20
385.8936468745
 11
331.06866354
 21
387.0048081359
  0
LINE
  5
2D8
100
AcDbEntity
  8
0
100
AcDbLine
 62
7
  6
CONTINUOUS
 10
332.6557132476
 20
387.2635594334
 11
333.259825244
 21
386.8190949289
  0
LINE
  5
2D9
100
AcDbEntity
  8
0
100
AcDbLine
 62
7
  6
CONTINUOUS
 10
331.3979847133
 20
389.1398406222
 11
332.3041527079
 21
388.4731438653
  0
LINE
  5
2DA
100
AcDbEntity
  8
0
100
AcDbLine
 62
7
  6
CONTINUOUS
 10
332.75807385
 20
389.0901092349
 11
331.8519058554
 21
389.7568059917
  0
LINE
  5
2DB
100
AcDbEntity
  8
0
100
AcDbLine
 62
7
  6
CONTINUOUS
 10
326.54739134
 20
392.0006411134
 11
326.8385529
 21
391.7320393468
  0
LINE
  5
2DC
100
AcDbEntity
  8
0
100
AcDbLine
 62
7
  6
CONTINUOUS
 10
333.1858462218
 20
388.6168951513
 11
332.75807385
 21
389.0901092349
  0
LINE
  5
2DD
100
AcDbEntity
  8
0
100
AcDbLine
 62
7
  6
CONTINUOUS
 10
328.7501110139
 20
385.5408754622
 11
328.4230224384
 21
385.9400132587
  0
LINE
  5
2DE
100
AcDbEntity
  8
0
100
AcDbLine
 62
7
  6
CONTINUOUS
 10
332.3041527079
 20
388.4731438653
 11
332.6312412833
 21
388.0740060688
  0
LINE
  5
2DF
100
AcDbEntity
  8
0
100
AcDbLine
 62
7
  6
CONTINUOUS
 10
326.5310214699
 20
389.4946587117
 11
326.3541494108
 21
389.7126329326
  0
LINE
  5
2E0
100
AcDbEntity
  8
0
100
AcDbLine
 62
7
  6
CONTINUOUS
 10
327.565108154
 20
391.8290647996
 11
327.2630683627
 21
392.3817335293
  0
LINE
  5
2E1
100
AcDbEntity
  8
0
100
AcDbLine
 62
7
  6
CONTINUOUS
 10
327.6169824218
 20
385.8990894983
 11
327.8684174536
 21
385.3971241132
  0
LINE
  5
2E2
100
AcDbEntity
  8
0
100
AcDbLine
 62
7
  6
CONTINUOUS
 10
333.4372812735
 20
388.1149297932
 11
333.1858462218
 21
388.6168951513
  0
LINE
  5
2E3
100
AcDbEntity
  8
0
100
AcDbLine
 62
7
  6
CONTINUOUS
 10
326.8385529
 20
391.7320393468
 11
326.9637206321
 21
391.397344838
  0
LINE
  5
2E4
100
AcDbEntity
  8
0
100
AcDbLine
 62
7
  6
CONTINUOUS
 10
328.4230224384
 20
385.9400132587
 11
328.2722735406
 21
386.3679007062
  0
LINE
  5
2E5
100
AcDbEntity
  8
0
100
AcDbLine
 62
7
  6
CONTINUOUS
 10
332.6312412833
 20
388.0740060688
 11
332.7819902342
 21
387.6461186934
  0
LINE
  5
2E6
100
AcDbEntity
  8
0
100
AcDbLine
 62
7
  6
CONTINUOUS
 10
326.6670700491
 20
388.875896081
 11
326.5310214699
 21
389.4946587117
  0
LINE
  5
2E7
100
AcDbEntity
  8
0
100
AcDbLine
 62
7
  6
CONTINUOUS
 10
327.7011567331
 20
391.2103021689
 11
327.565108154
 21
391.8290647996
  0
LINE
  5
2E8
100
AcDbEntity
  8
0
100
AcDbLine
 62
7
  6
CONTINUOUS
 10
327.5168544439
 20
386.6067100155
 11
327.6169824218
 21
385.8990894983
  0
LINE
  5
2E9
100
AcDbEntity
  8
0
100
AcDbLine
 62
7
  6
CONTINUOUS
 10
333.5374092779
 20
387.407309312
 11
333.4372812735
 21
388.1149297932
  0
LINE
  5
2EA
100
AcDbEntity
  8
0
100
AcDbLine
 62
7
  6
CONTINUOUS
 10
313.8478797557
 20
323.0019937644
 11
313.5978799941
 21
322.4913555274
  0
LINE
  5
2EB
100
AcDbEntity
  8
0
100
AcDbLine
 62
7
  6
CONTINUOUS
 10
310.8478801133
 20
323.2573132405
 11
311.0978798749
 21
323.6402919183
  0
LINE
  5
2EC
100
AcDbEntity
  8
0
100
AcDbLine
 62
7
  6
CONTINUOUS
 10
314.2228797557
 20
322.1083768496
 11
314.4728802325
 21
322.4913555274
  0
LINE
  5
2ED
100
AcDbEntity
  8
0
100
AcDbLine
 62
7
  6
CONTINUOUS
 10
308.3478799941
 20
324.6615683923
 11
307.5978799941
 21
323.7679514775
  0
LINE
  5
2EE
100
AcDbEntity
  8
0
100
AcDbLine
 62
7
  6
CONTINUOUS
 10
307.5978799941
 20
322.7466746459
 11
308.3478799941
 21
323.6402919183
  0
LINE
  5
2EF
100
AcDbEntity
  8
BEZUGSACHSEN
100
AcDbLine
 62
7
  6
CONTINUOUS
 10
265.3820935564
 20
293.7657819546
 11
263.9678799941
 21
292.3515683923
  0
LINE
  5
2F0
100
AcDbEntity
  8
BEZUGSACHSEN
100
AcDbLine
 62
7
  6
CONTINUOUS
 10
357.1335441531
 20
364.8829905825
 11
345.2803144624
 21
393.49921846
  0
LINE
  5
2F1
100
AcDbEntity
  8
BEZUGSACHSEN
100
AcDbLine
 62
7
  6
CONTINUOUS
 10
352.9678799941
 20
351.1666061907
 11
352.9678799941
 21
332.3515683923
  0
LINE
  5
2F2
100
AcDbEntity
  8
0
100
AcDbLine
 62
7
  6
CONTINUOUS
 10
310.8478801133
 20
324.2785897145
 11
310.3478800537
 21
323.7679514775
  0
LINE
  5
2F3
100
AcDbEntity
  8
0
100
AcDbLine
 62
7
  6
CONTINUOUS
 10
313.5978799941
 20
322.4913555274
 11
310.0978799345
 21
319.2998662779
  0
LINE
  5
2F4
100
AcDbEntity
  8
0
100
AcDbLine
 62
7
  6
CONTINUOUS
 10
311.0978798749
 20
319.2998662779
 11
314.2228797557
 21
322.1083768496
  0
LINE
  5
2F5
100
AcDbEntity
  8
BEZUGSACHSEN
100
AcDbLine
 62
7
  6
CONTINUOUS
 10
359.9678799941
 20
330.3515683923
 11
359.9678799941
 21
295.179995517
  0
LINE
  5
2F6
100
AcDbEntity
  8
BEZUGSACHSEN
100
AcDbLine
 62
7
  6
CONTINUOUS
 10
361.9678799941
 20
292.3515683923
 11
361.9678799941
 21
285.3515683923
  0
LINE
  5
2F7
100
AcDbEntity
  8
BEZUGSACHSEN
100
AcDbLine
 62
7
  6
CONTINUOUS
 10
349.4926637472
 20
343.3734290974
 11
357.1338293229
 21
361.8208346628
  0
LINE
  5
2F8
100
AcDbEntity
  8
0
100
AcDbLine
 62
7
  6
CONTINUOUS
 10
311.0978798749
 20
323.6402919183
 11
311.4728798749
 21
323.8956110368
  0
LINE
  5
2F9
100
AcDbEntity
  8
0
100
AcDbLine
 62
7
  6
CONTINUOUS
 10
311.3478799941
 20
324.533908833
 11
310.8478801133
 21
324.2785897145
  0
LINE
  5
2FA
100
AcDbEntity
  8
FASEN
100
AcDbLine
 62
7
  6
CONTINUOUS
 10
361.9678799941
 20
285.3515683923
 11
361.4678799941
 21
284.8515683923
  0
LINE
  5
2FB
100
AcDbEntity
  8
0
100
AcDbLine
 62
7
  6
CONTINUOUS
 10
333.9678799941
 20
224.8515683923
 11
330.9678799941
 21
221.8515683923
  0
LINE
  5
2FC
100
AcDbEntity
  8
0
100
AcDbLine
 62
7
  6
CONTINUOUS
 10
495.0678617727
 20
221.8515683923
 11
531.0677456822
 21
221.8515683923
  0
LINE
  5
2FD
100
AcDbEntity
  8
0
100
AcDbLine
 62
7
  6
CONTINUOUS
 10
492.0678037275
 20
224.8515683923
 11
534.0678037275
 21
224.8515683923
  0
LINE
  5
2FE
100
AcDbEntity
  8
0
100
AcDbLine
 62
7
  6
CONTINUOUS
 10
492.0678037275
 20
224.8515683923
 11
495.0678037275
 21
221.8515683923
  0
LINE
  5
2FF
100
AcDbEntity
  8
FASEN
100
AcDbLine
 62
7
  6
CONTINUOUS
 10
464.0678037275
 20
285.3515683923
 11
464.5678037275
 21
284.8515683923
  0
LINE
  5
300
100
AcDbEntity
  8
FASEN
100
AcDbLine
 62
7
  6
CONTINUOUS
 10
464.5678970247
 20
284.8515683923
 11
561.5677104302
 21
284.8515683923
  0
LINE
  5
301
100
AcDbEntity
  8
FASEN
100
AcDbLine
 62
7
  6
CONTINUOUS
 10
464.0678037275
 20
285.3515683923
 11
562.0678037275
 21
285.3515683923
  0
LINE
  5
302
100
AcDbEntity
  8
BEZUGSACHSEN
100
AcDbLine
 62
7
  6
CONTINUOUS
 10
464.0678037275
 20
292.3515683923
 11
562.0678037275
 21
292.3515683923
  0
LINE
  5
303
100
AcDbEntity
  8
KONSTRUKTIONSELEMENTE
100
AcDbLine
 62
7
  6
CONTINUOUS
 10
561.0676403518
 20
293.3515683923
 11
557.5678037275
 21
293.3515683923
  0
LINE
  5
304
100
AcDbEntity
  8
KONSTRUKTIONSELEMENTE
100
AcDbLine
 62
7
  6
CONTINUOUS
 10
468.5678037275
 20
293.3515683923
 11
465.0679671032
 21
293.3515683923
  0
LINE
  5
305
100
AcDbEntity
  8
KONSTRUKTIONSELEMENTE
100
AcDbLine
 62
7
  6
CONTINUOUS
 10
454.0678037275
 20
486.3515683923
 11
454.0678037275
 21
412.3515683923
  0
LINE
  5
306
100
AcDbEntity
  8
BEZUGSACHSEN
100
AcDbLine
 62
7
  6
CONTINUOUS
 10
464.0678037275
 20
292.3515683923
 11
464.0678037275
 21
285.3515683923
  0
LINE
  5
307
100
AcDbEntity
  8
KONSTRUKTIONSELEMENTE
100
AcDbLine
 62
7
  6
CONTINUOUS
 10
555.5678037275
 20
330.3515683923
 11
470.5678037275
 21
330.3515683923
  0
LINE
  5
308
100
AcDbEntity
  8
KONSTRUKTIONSELEMENTE
100
AcDbLine
 62
7
  6
CONTINUOUS
 10
470.5678037275
 20
332.3515683923
 11
555.5678037275
 21
332.3515683923
  0
LINE
  5
309
100
AcDbEntity
  8
KONSTRUKTIONSELEMENTE
100
AcDbLine
 62
7
  6
CONTINUOUS
 10
470.5678037275
 20
295.3515683923
 11
470.5678037275
 21
332.3515683923
  0
LINE
  5
30A
100
AcDbEntity
  8
BEZUGSACHSEN
100
AcDbLine
 62
7
  6
CONTINUOUS
 10
473.0678037275
 20
337.8515683923
 11
473.0678037275
 21
332.3515683923
  0
LINE
  5
30B
100
AcDbEntity
  8
BEZUGSACHSEN
100
AcDbLine
 62
7
  6
CONTINUOUS
 10
549.0678037275
 20
341.8515683923
 11
537.7266520985
 21
341.8515683923
  0
LINE
  5
30C
100
AcDbEntity
  8
BEZUGSACHSEN
100
AcDbLine
 62
7
  6
CONTINUOUS
 10
488.4085696352
 20
341.8515683923
 11
477.0678037275
 21
341.8515683923
  0
LINE
  5
30D
100
AcDbEntity
  8
KONSTRUKTIONSELEMENTE
100
AcDbLine
 62
7
  6
CONTINUOUS
 10
480.5678037275
 20
486.3515683923
 11
480.5678037275
 21
412.3515683923
  0
LINE
  5
30E
100
AcDbEntity
  8
BEZUGSACHSEN
100
AcDbLine
 62
7
  6
CONTINUOUS
 10
561.0678037275
 20
293.3515683923
 11
562.0678037275
 21
292.3515683923
  0
LINE
  5
30F
100
AcDbEntity
  8
0
100
AcDbLine
 62
7
  6
CONTINUOUS
 10
492.0678037275
 20
284.8515683923
 11
492.0678037275
 21
224.8515683923
  0
LINE
  5
310
100
AcDbEntity
  8
0
100
AcDbLine
 62
7
  6
CONTINUOUS
 10
500.0678037275
 20
385.6103617134
 11
500.0678037275
 21
391.580286336
  0
LINE
  5
311
100
AcDbEntity
  8
BEZUGSACHSEN
100
AcDbLine
 62
7
  6
CONTINUOUS
 10
500.5678037275
 20
374.4966183673
 11
500.5678037275
 21
404.3631956912
  0
LINE
  5
312
100
AcDbEntity
  8
RUNDUNGEN
100
AcDbLine
 62
7
  6
CONTINUOUS
 10
492.292845089
 20
346.0853982618
 11
491.7556702055
 21
344.3283783874
  0
LINE
  5
313
100
AcDbEntity
  8
BEZUGSACHSEN
100
AcDbLine
 62
7
  6
CONTINUOUS
 10
491.7556702055
 20
344.3283783874
 11
500.1745465311
 21
371.8652820619
  0
LINE
  5
314
100
AcDbEntity
  8
0
100
AcDbLine
 62
7
  6
CONTINUOUS
 10
525.5678037275
 20
376.7965481037
 11
526.5678037275
 21
376.7965481037
  0
LINE
  5
315
100
AcDbEntity
  8
0
100
AcDbLine
 62
7
  6
CONTINUOUS
 10
525.5678037275
 20
380.2835583501
 11
526.5678037275
 21
380.2835583501
  0
LINE
  5
316
100
AcDbEntity
  8
0
100
AcDbLine
 62
7
  6
CONTINUOUS
 10
525.5678037275
 20
382.724908363
 11
526.5678037275
 21
382.724908363
  0
LINE
  5
317
100
AcDbEntity
  8
0
100
AcDbLine
 62
7
  6
CONTINUOUS
 10
525.5678037275
 20
383.1593313475
 11
526.5678037275
 21
383.1593313475
  0
LINE
  5
318
100
AcDbEntity
  8
0
100
AcDbLine
 62
7
  6
CONTINUOUS
 10
525.5678037275
 20
383.3436478237
 11
526.5678037275
 21
383.3436478237
  0
LINE
  5
319
100
AcDbEntity
  8
0
100
AcDbLine
 62
7
  6
CONTINUOUS
 10
525.5678037275
 20
383.3520497812
 11
526.5678037275
 21
383.3520497812
  0
LINE
  5
31A
100
AcDbEntity
  8
BEZUGSACHSEN
100
AcDbLine
 62
7
  6
CONTINUOUS
 10
525.5678037275
 20
374.4966183673
 11
525.5678037275
 21
404.3631956912
  0
LINE
  5
31B
100
AcDbEntity
  8
0
100
AcDbLine
 62
7
  6
CONTINUOUS
 10
500.5678037275
 20
385.6103617134
 11
500.0678037275
 21
385.6103617134
  0
LINE
  5
31C
100
AcDbEntity
  8
0
100
AcDbLine
 62
7
  6
CONTINUOUS
 10
525.5678037275
 20
385.8510438869
 11
526.5678037275
 21
385.8510438869
  0
LINE
  5
31D
100
AcDbEntity
  8
0
100
AcDbLine
 62
7
  6
CONTINUOUS
 10
525.5678037275
 20
386.3556777615
 11
526.5678037275
 21
386.3556777615
  0
LINE
  5
31E
100
AcDbEntity
  8
0
100
AcDbLine
 62
7
  6
CONTINUOUS
 10
500.5678037275
 20
386.5168630556
 11
500.0678037275
 21
386.5168630556
  0
LINE
  5
31F
100
AcDbEntity
  8
0
100
AcDbLine
 62
7
  6
CONTINUOUS
 10
500.5678037275
 20
388.1453240247
 11
500.0678037275
 21
388.1453240247
  0
LINE
  5
320
100
AcDbEntity
  8
0
100
AcDbLine
 62
7
  6
CONTINUOUS
 10
525.5678037275
 20
388.3742122976
 11
526.5678037275
 21
388.3742122976
  0
LINE
  5
321
100
AcDbEntity
  8
0
100
AcDbLine
 62
7
  6
CONTINUOUS
 10
525.5678037275
 20
388.8788459316
 11
526.5678037275
 21
388.8788459316
  0
LINE
  5
322
100
AcDbEntity
  8
0
100
AcDbLine
 62
7
  6
CONTINUOUS
 10
500.5678037275
 20
389.051825367
 11
500.0678037275
 21
389.051825367
  0
LINE
  5
323
100
AcDbEntity
  8
0
100
AcDbLine
 62
7
  6
CONTINUOUS
 10
525.5678037275
 20
390.265258655
 11
526.5678037275
 21
390.265258655
  0
LINE
  5
324
100
AcDbEntity
  8
0
100
AcDbLine
 62
7
  6
CONTINUOUS
 10
500.5678037275
 20
390.6737849938
 11
500.0678037275
 21
390.6737849938
  0
LINE
  5
325
100
AcDbEntity
  8
0
100
AcDbLine
 62
7
  6
CONTINUOUS
 10
500.5678037275
 20
391.580286336
 11
500.0678037275
 21
391.580286336
  0
LINE
  5
326
100
AcDbEntity
  8
0
100
AcDbLine
 62
7
  6
CONTINUOUS
 10
525.5678037275
 20
391.7578212391
 11
526.5678037275
 21
391.7578212391
  0
LINE
  5
327
100
AcDbEntity
  8
0
100
AcDbLine
 62
7
  6
CONTINUOUS
 10
525.5678037275
 20
391.9580334732
 11
526.5678037275
 21
391.9580334732
  0
LINE
  5
328
100
AcDbEntity
  8
0
100
AcDbLine
 62
7
  6
CONTINUOUS
 10
525.5678037275
 20
391.9853165838
 11
526.5678037275
 21
391.9853165838
  0
LINE
  5
329
100
AcDbEntity
  8
0
100
AcDbLine
 62
7
  6
CONTINUOUS
 10
525.5678037275
 20
395.5703194646
 11
526.5678037275
 21
395.5703194646
  0
LINE
  5
32A
100
AcDbEntity
  8
0
100
AcDbLine
 62
7
  6
CONTINUOUS
 10
525.5678037275
 20
395.6206992783
 11
526.5678037275
 21
395.6206992783
  0
LINE
  5
32B
100
AcDbEntity
  8
0
100
AcDbLine
 62
7
  6
CONTINUOUS
 10
525.5678037275
 20
395.8558051398
 11
526.5678037275
 21
395.8558051398
  0
LINE
  5
32C
100
AcDbEntity
  8
0
100
AcDbLine
 62
7
  6
CONTINUOUS
 10
525.5678037275
 20
395.9061849536
 11
526.5678037275
 21
395.9061849536
  0
LINE
  5
32D
100
AcDbEntity
  8
BEZUGSACHSEN
100
AcDbLine
 62
7
  6
CONTINUOUS
 10
534.3799372495
 20
344.3283783874
 11
525.9610609238
 21
371.8652820619
  0
LINE
  5
32E
100
AcDbEntity
  8
0
100
AcDbLine
 62
7
  6
CONTINUOUS
 10
526.5678037275
 20
395.8558051398
 11
526.5678037275
 21
395.6206992783
  0
LINE
  5
32F
100
AcDbEntity
  8
0
100
AcDbLine
 62
7
  6
CONTINUOUS
 10
526.5678037275
 20
395.5703194646
 11
526.5678037275
 21
383.3520497812
  0
LINE
  5
330
100
AcDbEntity
  8
0
100
AcDbLine
 62
7
  6
CONTINUOUS
 10
526.5678037275
 20
383.3436478237
 11
526.5678037275
 21
376.7965481037
  0
LINE
  5
331
100
AcDbEntity
  8
0
100
AcDbLine
 62
7
  6
CONTINUOUS
 10
534.0678037275
 20
284.8515683923
 11
534.0678037275
 21
224.8515683923
  0
LINE
  5
332
100
AcDbEntity
  8
RUNDUNGEN
100
AcDbLine
 62
7
  6
CONTINUOUS
 10
523.4955239006
 20
407.8219975825
 11
523.495644235
 21
407.8219981473
  0
LINE
  5
333
100
AcDbEntity
  8
RUNDUNGEN
100
AcDbLine
 62
7
  6
CONTINUOUS
 10
502.6399904794
 20
407.8219995911
 11
523.4956169756
 21
407.8219995911
  0
LINE
  5
334
100
AcDbEntity
  8
RUNDUNGEN
100
AcDbLine
 62
7
  6
CONTINUOUS
 10
502.63996322
 20
407.8219981473
 11
502.6400835543
 21
407.8219975825
  0
LINE
  5
335
100
AcDbEntity
  8
KONSTRUKTIONSELEMENTE
100
AcDbLine
 62
7
  6
CONTINUOUS
 10
545.5678037275
 20
412.3515683923
 11
545.5678037275
 21
486.3515683923
  0
LINE
  5
336
100
AcDbEntity
  8
BEZUGSACHSEN
100
AcDbLine
 62
7
  6
CONTINUOUS
 10
465.0678037275
 20
293.3515683923
 11
464.0678037275
 21
292.3515683923
  0
LINE
  5
337
100
AcDbEntity
  8
BEZUGSACHSEN
100
AcDbLine
 62
7
  6
CONTINUOUS
 10
553.0678037275
 20
332.3515683923
 11
553.0678037275
 21
337.8515683923
  0
LINE
  5
338
100
AcDbEntity
  8
KONSTRUKTIONSELEMENTE
100
AcDbLine
 62
7
  6
CONTINUOUS
 10
555.5678037275
 20
332.3515683923
 11
555.5678037275
 21
295.3515683923
  0
LINE
  5
339
100
AcDbEntity
  8
BEZUGSACHSEN
100
AcDbLine
 62
7
  6
CONTINUOUS
 10
562.0678037275
 20
292.3515683923
 11
562.0678037275
 21
285.3515683923
  0
LINE
  5
33A
100
AcDbEntity
  8
KONSTRUKTIONSELEMENTE
100
AcDbLine
 62
7
  6
CONTINUOUS
 10
572.0678037275
 20
412.3515683923
 11
572.0678037275
 21
486.3515683923
  0
LINE
  5
33B
100
AcDbEntity
  8
FASEN
100
AcDbLine
 62
7
  6
CONTINUOUS
 10
562.0678037275
 20
285.3515683923
 11
561.5678037275
 21
284.8515683923
  0
LINE
  5
33C
100
AcDbEntity
  8
0
100
AcDbLine
 62
7
  6
CONTINUOUS
 10
534.0678037275
 20
224.8515683923
 11
531.0678037275
 21
221.8515683923
  0
LWPOLYLINE
  5
33D
100
AcDbEntity
  8
BEZUGSACHSEN
100
AcDbPolyline
 62
7
  6
CONTINUOUS
 90
7
 70
0
 10
268.4972997352
 20
80.7041499815
 10
268.512086843
 20
80.3805126705
 10
268.6180013358
 20
79.7866591389
 10
268.8234594871
 20
79.2181130294
 10
269.1232483987
 20
78.6909155316
 10
269.5075294709
 20
78.2220515241
 10
269.9323385175
 20
77.8480279612
  0
LINE
  5
33E
100
AcDbEntity
  8
BEZUGSACHSEN
100
AcDbLine
 62
7
  6
CONTINUOUS
 10
268.4974487955
 20
104.3765253145
 11
268.4974506187
 21
104.3763800627
  0
LINE
  5
33F
100
AcDbEntity
  8
BEZUGSACHSEN
100
AcDbLine
 62
7
  6
CONTINUOUS
 10
268.4974487952
 20
80.7040202861
 11
268.4974487952
 21
104.3765221591
  0
LINE
  5
340
100
AcDbEntity
  8
BEZUGSACHSEN
100
AcDbLine
 62
7
  6
CONTINUOUS
 10
268.4974487955
 20
80.7040171307
 11
268.4974504155
 21
80.7041541487
  0
LINE
  5
341
100
AcDbEntity
  8
KONSTRUKTIONSELEMENTE
100
AcDbLine
 62
7
  6
CONTINUOUS
 10
333.0365122345
 20
50.0402712226
 11
326.2178799941
 21
50.0402712226
  0
LINE
  5
342
100
AcDbEntity
  8
KONSTRUKTIONSELEMENTE
100
AcDbLine
 62
7
  6
CONTINUOUS
 10
299.7178799941
 20
50.0402712226
 11
292.8992477537
 21
50.0402712226
  0
LWPOLYLINE
  5
343
100
AcDbEntity
  8
BEZUGSACHSEN
100
AcDbPolyline
 62
7
  6
CONTINUOUS
 90
7
 70
0
 10
269.9330668726
 20
107.2330645853
 10
269.5154009836
 20
106.8665699301
 10
269.1323395728
 20
106.4027942835
 10
268.8320510049
 20
105.8809307363
 10
268.6245078096
 20
105.3178499481
 10
268.5148793539
 20
104.7291840731
 10
268.4972999419
 20
104.3763842337
  0
LWPOLYLINE
  5
344
100
AcDbEntity
  8
BEZUGSACHSEN
100
AcDbPolyline
 62
7
  6
CONTINUOUS
 90
5
 70
0
 10
277.6920950412
 20
112.898923919
 10
277.4459880485
 20
112.7488394072
 10
277.1962787902
 20
112.5850812942
 10
276.9401116329
 20
112.4049627978
 10
269.9570248218
 20
107.2510182027
  0
LINE
  5
345
100
AcDbEntity
  8
BEZUGSACHSEN
100
AcDbLine
 62
7
  6
CONTINUOUS
 10
277.9050986915
 20
113.0197490296
 11
277.6920950412
 21
112.898923919
  0
LINE
  5
346
100
AcDbEntity
  8
BEZUGSACHSEN
100
AcDbLine
 62
7
  6
CONTINUOUS
 10
277.6920950412
 20
72.1816185262
 11
277.9050986915
 21
72.0607934156
  0
LWPOLYLINE
  5
347
100
AcDbEntity
  8
BEZUGSACHSEN
100
AcDbPolyline
 62
7
  6
CONTINUOUS
 90
4
 70
0
 10
276.9401116329
 20
72.6755796474
 10
277.1962787902
 20
72.4954611509
 10
277.4459880485
 20
72.3317030379
 10
277.6920950412
 20
72.1816185262
  0
LINE
  5
348
100
AcDbEntity
  8
BEZUGSACHSEN
100
AcDbLine
 62
7
  6
CONTINUOUS
 10
276.9401116329
 20
72.6755796474
 11
269.9570248218
 21
77.8295242424
  0
LINE
  5
349
100
AcDbEntity
  8
BEZUGSACHSEN
100
AcDbLine
 62
7
  6
CONTINUOUS
 10
278.0450730245
 20
113.0958240625
 11
277.904952536
 21
113.0195818389
  0
LINE
  5
34A
100
AcDbEntity
  8
BEZUGSACHSEN
100
AcDbLine
 62
7
  6
CONTINUOUS
 10
277.9045691736
 20
72.0611701037
 11
278.0438445994
 21
71.9853850743
  0
LINE
  5
34B
100
AcDbEntity
  8
0
100
AcDbLine
 62
7
  6
CONTINUOUS
 10
285.172197931
 20
80.0402712226
 11
285.172197931
 21
79.0402712226
  0
LINE
  5
34C
100
AcDbEntity
  8
0
100
AcDbLine
 62
7
  6
CONTINUOUS
 10
286.9157030542
 20
80.0402712226
 11
286.9157030542
 21
79.0402712226
  0
LINE
  5
34D
100
AcDbEntity
  8
0
100
AcDbLine
 62
7
  6
CONTINUOUS
 10
287.3828205797
 20
80.0402712226
 11
287.3828205797
 21
79.0402712226
  0
LINE
  5
34E
100
AcDbEntity
  8
0
100
AcDbLine
 62
7
  6
CONTINUOUS
 10
287.9850663643
 20
80.0402712226
 11
287.9850663643
 21
79.0402712226
  0
LINE
  5
34F
100
AcDbEntity
  8
0
100
AcDbLine
 62
7
  6
CONTINUOUS
 10
288.6185533935
 20
80.0402712226
 11
288.6185533935
 21
79.0402712226
  0
LINE
  5
350
100
AcDbEntity
  8
0
100
AcDbLine
 62
7
  6
CONTINUOUS
 10
289.0028610376
 20
80.0402712226
 11
289.0028610376
 21
79.0402712226
  0
LINE
  5
351
100
AcDbEntity
  8
0
100
AcDbLine
 62
7
  6
CONTINUOUS
 10
289.4184102175
 20
80.0402712226
 11
289.4184102175
 21
79.0402712226
  0
LINE
  5
352
100
AcDbEntity
  8
0
100
AcDbLine
 62
7
  6
CONTINUOUS
 10
289.4628230217
 20
80.0402712226
 11
289.4628230217
 21
79.0402712226
  0
LINE
  5
353
100
AcDbEntity
  8
0
100
AcDbLine
 62
7
  6
CONTINUOUS
 10
290.0176610062
 20
80.0402712226
 11
290.0176610062
 21
79.0402712226
  0
LINE
  5
354
100
AcDbEntity
  8
0
100
AcDbLine
 62
7
  6
CONTINUOUS
 10
292.2370118858
 20
80.0402712226
 11
292.2370118858
 21
79.0402712226
  0
LINE
  5
355
100
AcDbEntity
  8
0
100
AcDbLine
 62
7
  6
CONTINUOUS
 10
292.7918496057
 20
80.0402712226
 11
292.7918496057
 21
79.0402712226
  0
LINE
  5
356
100
AcDbEntity
  8
0
100
AcDbLine
 62
7
  6
CONTINUOUS
 10
294.6497230111
 20
80.0402712226
 11
294.6497230111
 21
79.0402712226
  0
LINE
  5
357
100
AcDbEntity
  8
0
100
AcDbLine
 62
7
  6
CONTINUOUS
 10
297.252079046
 20
80.0402712226
 11
297.252079046
 21
79.0402712226
  0
LINE
  5
358
100
AcDbEntity
  8
0
100
AcDbLine
 62
7
  6
CONTINUOUS
 10
297.8577502608
 20
80.0402712226
 11
297.8577502608
 21
79.0402712226
  0
LINE
  5
359
100
AcDbEntity
  8
0
100
AcDbLine
 62
7
  6
CONTINUOUS
 10
298.4185024408
 20
80.0402712226
 11
298.4185024408
 21
79.0402712226
  0
LINE
  5
35A
100
AcDbEntity
  8
0
100
AcDbLine
 62
7
  6
CONTINUOUS
 10
299.1062812085
 20
80.0402712226
 11
299.1062812085
 21
79.0402712226
  0
LINE
  5
35B
100
AcDbEntity
  8
0
100
AcDbLine
 62
7
  6
CONTINUOUS
 10
299.5771978005
 20
80.0402712226
 11
299.5771978005
 21
79.0402712226
  0
LINE
  5
35C
100
AcDbEntity
  8
KONSTRUKTIONSELEMENTE
100
AcDbLine
 62
7
  6
CONTINUOUS
 10
299.7178799941
 20
46.7902712226
 11
299.7178799941
 21
138.2902712226
  0
LINE
  5
35D
100
AcDbEntity
  8
0
100
AcDbLine
 62
7
  6
CONTINUOUS
 10
333.5374092779
 20
79.0402712226
 11
326.2178799941
 21
79.0402712226
  0
LINE
  5
35E
100
AcDbEntity
  8
0
100
AcDbLine
 62
7
  6
CONTINUOUS
 10
299.7178799941
 20
79.0402712226
 11
285.172197931
 21
79.0402712226
  0
LINE
  5
35F
100
AcDbEntity
  8
BEZUGSACHSEN
100
AcDbLine
 62
7
  6
CONTINUOUS
 10
349.36307644
 20
80.0402712226
 11
326.2178799941
 21
80.0402712226
  0
LINE
  5
360
100
AcDbEntity
  8
BEZUGSACHSEN
100
AcDbLine
 62
7
  6
CONTINUOUS
 10
276.5726835481
 20
80.0402712226
 11
299.7178799941
 21
80.0402712226
  0
LINE
  5
361
100
AcDbEntity
  8
KONSTRUKTIONSELEMENTE
100
AcDbLine
 62
7
  6
CONTINUOUS
 10
326.2178799941
 20
46.7902712226
 11
326.2178799941
 21
138.2902712226
  0
LINE
  5
362
100
AcDbEntity
  8
0
100
AcDbLine
 62
7
  6
CONTINUOUS
 10
326.7433278008
 20
80.0402712226
 11
326.7433278008
 21
79.0402712226
  0
LINE
  5
363
100
AcDbEntity
  8
0
100
AcDbLine
 62
7
  6
CONTINUOUS
 10
327.2630683627
 20
80.0402712226
 11
327.2630683627
 21
79.0402712226
  0
LINE
  5
364
100
AcDbEntity
  8
0
100
AcDbLine
 62
7
  6
CONTINUOUS
 10
327.565108154
 20
80.0402712226
 11
327.565108154
 21
79.0402712226
  0
LINE
  5
365
100
AcDbEntity
  8
0
100
AcDbLine
 62
7
  6
CONTINUOUS
 10
327.7011567331
 20
80.0402712226
 11
327.7011567331
 21
79.0402712226
  0
LINE
  5
366
100
AcDbEntity
  8
0
100
AcDbLine
 62
7
  6
CONTINUOUS
 10
327.8956802117
 20
80.0402712226
 11
327.8956802117
 21
79.0402712226
  0
LINE
  5
367
100
AcDbEntity
  8
RUNDUNGEN
100
AcDbLine
 62
7
  6
CONTINUOUS
 10
349.36307644
 20
105.0402712226
 11
341.7761380485
 21
105.0402712226
  0
LINE
  5
368
100
AcDbEntity
  8
BEZUGSACHSEN
100
AcDbLine
 62
7
  6
CONTINUOUS
 10
341.7761380485
 20
105.0402712226
 11
326.2178799941
 21
105.0402712226
  0
LINE
  5
369
100
AcDbEntity
  8
BEZUGSACHSEN
100
AcDbLine
 62
7
  6
CONTINUOUS
 10
276.5726835481
 20
105.0402712226
 11
299.7178799941
 21
105.0402712226
  0
LINE
  5
36A
100
AcDbEntity
  8
0
100
AcDbLine
 62
7
  6
CONTINUOUS
 10
329.0304831728
 20
80.0402712226
 11
329.0304831728
 21
79.0402712226
  0
LINE
  5
36B
100
AcDbEntity
  8
0
100
AcDbLine
 62
7
  6
CONTINUOUS
 10
329.509437104
 20
80.0402712226
 11
329.509437104
 21
79.0402712226
  0
LINE
  5
36C
100
AcDbEntity
  8
0
100
AcDbLine
 62
7
  6
CONTINUOUS
 10
330.013421096
 20
80.0402712226
 11
330.013421096
 21
79.0402712226
  0
LINE
  5
36D
100
AcDbEntity
  8
0
100
AcDbLine
 62
7
  6
CONTINUOUS
 10
330.7187772898
 20
80.0402712226
 11
330.7187772898
 21
79.0402712226
  0
LINE
  5
36E
100
AcDbEntity
  8
0
100
AcDbLine
 62
7
  6
CONTINUOUS
 10
331.2728264362
 20
80.0402712226
 11
331.2728264362
 21
79.0402712226
  0
LINE
  5
36F
100
AcDbEntity
  8
0
100
AcDbLine
 62
7
  6
CONTINUOUS
 10
331.8519058554
 20
80.0402712226
 11
331.8519058554
 21
79.0402712226
  0
LINE
  5
370
100
AcDbEntity
  8
0
100
AcDbLine
 62
7
  6
CONTINUOUS
 10
332.75807385
 20
80.0402712226
 11
332.75807385
 21
79.0402712226
  0
LINE
  5
371
100
AcDbEntity
  8
0
100
AcDbLine
 62
7
  6
CONTINUOUS
 10
333.1858462218
 20
80.0402712226
 11
333.1858462218
 21
79.0402712226
  0
LINE
  5
372
100
AcDbEntity
  8
0
100
AcDbLine
 62
7
  6
CONTINUOUS
 10
333.4372812735
 20
80.0402712226
 11
333.4372812735
 21
79.0402712226
  0
LINE
  5
373
100
AcDbEntity
  8
0
100
AcDbLine
 62
7
  6
CONTINUOUS
 10
333.5374092779
 20
80.0402712226
 11
333.5374092779
 21
79.0402712226
  0
LWPOLYLINE
  5
374
100
AcDbEntity
  8
BEZUGSACHSEN
100
AcDbPolyline
 62
7
  6
CONTINUOUS
 90
5
 70
0
 10
348.2436649469
 20
72.1816185262
 10
348.4897719396
 20
72.3317030379
 10
348.7394811979
 20
72.4954611509
 10
348.9956483553
 20
72.6755796474
 10
355.9787351663
 20
77.8295242424
  0
LINE
  5
375
100
AcDbEntity
  8
BEZUGSACHSEN
100
AcDbLine
 62
7
  6
CONTINUOUS
 10
348.0306612967
 20
72.0607934156
 11
348.2436649469
 21
72.1816185262
  0
LINE
  5
376
100
AcDbEntity
  8
BEZUGSACHSEN
100
AcDbLine
 62
7
  6
CONTINUOUS
 10
347.8906869636
 20
71.9847183826
 11
348.0308074522
 21
72.0609606062
  0
LINE
  5
377
100
AcDbEntity
  8
RUNDUNGEN
100
AcDbLine
 62
7
  6
CONTINUOUS
 10
348.0311908145
 20
113.0193723414
 11
347.8919153888
 21
113.0951573708
  0
LINE
  5
378
100
AcDbEntity
  8
RUNDUNGEN
100
AcDbLine
 62
7
  6
CONTINUOUS
 10
348.2436649469
 20
112.898923919
 11
348.0306612967
 21
113.0197490296
  0
LWPOLYLINE
  5
379
100
AcDbEntity
  8
BEZUGSACHSEN
100
AcDbPolyline
 62
7
  6
CONTINUOUS
 90
7
 70
0
 10
356.0026931155
 20
77.8474778599
 10
356.4203590045
 20
78.213972515
 10
356.8034204153
 20
78.6777481616
 10
357.1037089832
 20
79.1996117089
 10
357.3112521786
 20
79.762692497
 10
357.4208806343
 20
80.3513583721
 10
357.4384600462
 20
80.7041582114
  0
LWPOLYLINE
  5
37A
100
AcDbEntity
  8
RUNDUNGEN
100
AcDbPolyline
 62
7
  6
CONTINUOUS
 90
4
 70
0
 10
348.9956483553
 20
112.4049627978
 10
348.7394811979
 20
112.5850812942
 10
348.4897719396
 20
112.7488394072
 10
348.2436649469
 20
112.898923919
  0
LINE
  5
37B
100
AcDbEntity
  8
RUNDUNGEN
100
AcDbLine
 62
7
  6
CONTINUOUS
 10
348.9956483553
 20
112.4049627978
 11
355.9787351663
 21
107.2510182027
  0
LWPOLYLINE
  5
37C
100
AcDbEntity
  8
RUNDUNGEN
100
AcDbPolyline
 62
7
  6
CONTINUOUS
 90
7
 70
0
 10
357.4384602529
 20
104.3763924637
 10
357.4236731451
 20
104.7000297747
 10
357.3177586523
 20
105.2938833062
 10
357.112300501
 20
105.8624294158
 10
356.8125115894
 20
106.3896269135
 10
356.4282305173
 20
106.8584909211
 10
356.0034214707
 20
107.232514484
  0
LINE
  5
37D
100
AcDbEntity
  8
BEZUGSACHSEN
100
AcDbLine
 62
7
  6
CONTINUOUS
 10
357.4383111926
 20
80.7040171307
 11
357.4383093694
 21
80.7041623824
  0
LINE
  5
37E
100
AcDbEntity
  8
BEZUGSACHSEN
100
AcDbLine
 62
7
  6
CONTINUOUS
 10
357.4383111929
 20
104.3765221591
 11
357.4383111929
 21
80.7040202861
  0
LINE
  5
37F
100
AcDbEntity
  8
RUNDUNGEN
100
AcDbLine
 62
7
  6
CONTINUOUS
 10
357.4383111926
 20
104.3765253145
 11
357.4383095727
 21
104.3763882964
  0
LINE
  5
380
100
AcDbEntity
  8
KONSTRUKTIONSELEMENTE
100
AcDbLine
 62
7
  6
CONTINUOUS
 10
292.8992477537
 20
135.0402712226
 11
299.7178799941
 21
135.0402712226
  0
LINE
  5
381
100
AcDbEntity
  8
KONSTRUKTIONSELEMENTE
100
AcDbLine
 62
7
  6
CONTINUOUS
 10
326.2178799941
 20
135.0402712226
 11
333.0365122345
 21
135.0402712226
  0
ARC
  5
382
100
AcDbEntity
  8
RUNDUNGEN
100
AcDbCircle
 62
7
  6
CONTINUOUS
 10
312.9678799941
 20
363.3515683923
 40
16.0
100
AcDbArc
 50
19.6213526008
 51
32.0539189154
  0
ARC
  5
383
100
AcDbEntity
  8
BEZUGSACHSEN
100
AcDbCircle
 62
7
  6
CONTINUOUS
 10
312.9678799941
 20
363.3515683923
 40
16.0
100
AcDbArc
 50
145.9716098734
 51
34.0283901266
  0
ARC
  5
384
100
AcDbEntity
  8
KONSTRUKTIONSELEMENTE
100
AcDbCircle
 62
7
  6
CONTINUOUS
 10
312.9678799941
 20
532.1015683923
 40
13.25
100
AcDbArc
 50
0.0
 51
180.0
  0
ARC
  5
385
100
AcDbEntity
  8
KONSTRUKTIONSELEMENTE
100
AcDbCircle
 62
7
  6
CONTINUOUS
 10
312.9678799941
 20
366.6015683923
 40
13.25
100
AcDbArc
 50
180.0
 51
360.0
  0
ARC
  5
386
100
AcDbEntity
  8
BEZUGSACHSEN
100
AcDbCircle
 62
7
  6
CONTINUOUS
 10
272.4974487952
 20
363.3515683923
 40
4.0
100
AcDbArc
 50
157.4893258504
 51
202.5
  0
ARC
  5
387
100
AcDbEntity
  8
BEZUGSACHSEN
100
AcDbCircle
 62
7
  6
CONTINUOUS
 10
284.3509636558
 20
391.9684847305
 40
4.0
100
AcDbArc
 50
112.5
 51
157.5
  0
ARC
  5
388
100
AcDbEntity
  8
BEZUGSACHSEN
100
AcDbCircle
 62
7
  6
CONTINUOUS
 10
353.4383111929
 20
363.3515683923
 40
4.0
100
AcDbArc
 50
337.5
 51
22.5106741496
  0
ARC
  5
389
100
AcDbEntity
  8
BEZUGSACHSEN
100
AcDbCircle
 62
7
  6
CONTINUOUS
 10
341.5847963323
 20
391.9684847305
 40
4.0
100
AcDbArc
 50
22.5
 51
67.5
  0
ARC
  5
38A
100
AcDbEntity
  8
RUNDUNGEN
100
AcDbCircle
 62
7
  6
CONTINUOUS
 10
341.5847963323
 20
391.9684847305
 40
4.0
100
AcDbArc
 50
22.5
 51
67.5
  0
ARC
  5
38B
100
AcDbEntity
  8
BEZUGSACHSEN
100
AcDbCircle
 62
7
  6
CONTINUOUS
 10
355.9677233613
 20
351.1662280459
 40
2.9999890721
100
AcDbArc
 50
157.4921829844
 51
179.9927775886
  0
ARC
  5
38C
100
AcDbEntity
  8
BEZUGSACHSEN
100
AcDbCircle
 62
7
  6
CONTINUOUS
 10
269.9680366268
 20
351.1662280458
 40
2.9999890721
100
AcDbArc
 50
0.0072224119
 51
22.5078170161
  0
ARC
  5
38D
100
AcDbEntity
  8
KONSTRUKTIONSELEMENTE
100
AcDbCircle
 62
7
  6
CONTINUOUS
 10
361.9678799941
 20
295.179995517
 40
2.0
100
AcDbArc
 50
180.0
 51
225.0
  0
ARC
  5
38E
100
AcDbEntity
  8
KONSTRUKTIONSELEMENTE
100
AcDbCircle
 62
7
  6
CONTINUOUS
 10
263.9678799941
 20
295.179995517
 40
2.0
100
AcDbArc
 50
315.0
 51
360.0
  0
ARC
  5
38F
100
AcDbEntity
  8
KONSTRUKTIONSELEMENTE
100
AcDbCircle
 62
7
  6
CONTINUOUS
 10
332.0789664048
 20
295.3522529174
 40
0.9575460744
100
AcDbArc
 50
349.6363774166
 51
359.9590407136
  0
ARC
  5
390
100
AcDbEntity
  8
KONSTRUKTIONSELEMENTE
100
AcDbCircle
 62
7
  6
CONTINUOUS
 10
293.8567935834
 20
295.3522529174
 40
0.9575460744
100
AcDbArc
 50
180.0409592863
 51
190.3636225834
  0
ARC
  5
391
100
AcDbEntity
  8
BEZUGSACHSEN
100
AcDbCircle
 62
7
  6
CONTINUOUS
 10
491.5678037275
 20
374.4966274044
 40
9.0
100
AcDbArc
 50
343.0000302944
 51
359.9999424682
  0
ARC
  5
392
100
AcDbEntity
  8
BEZUGSACHSEN
100
AcDbCircle
 62
7
  6
CONTINUOUS
 10
477.0678037275
 20
337.8515683923
 40
4.0
100
AcDbArc
 50
90.0
 51
180.0
  0
ARC
  5
393
100
AcDbEntity
  8
RUNDUNGEN
100
AcDbCircle
 62
7
  6
CONTINUOUS
 10
488.4085696352
 20
345.3515683923
 40
3.5
100
AcDbArc
 50
307.537497921
 51
342.9997215233
  0
ARC
  5
394
100
AcDbEntity
  8
RUNDUNGEN
100
AcDbCircle
 62
7
  6
CONTINUOUS
 10
488.4085696352
 20
345.3515683923
 40
3.5
100
AcDbArc
 50
270.0002680268
 51
305.8844719706
  0
ARC
  5
395
100
AcDbEntity
  8
BEZUGSACHSEN
100
AcDbCircle
 62
7
  6
CONTINUOUS
 10
488.4085696352
 20
345.3515683923
 40
3.5
100
AcDbArc
 50
270.0002680268
 51
343.00189947
  0
ARC
  5
396
100
AcDbEntity
  8
KONSTRUKTIONSELEMENTE
100
AcDbCircle
 62
7
  6
CONTINUOUS
 10
468.5678037275
 20
295.3515683923
 40
2.0
100
AcDbArc
 50
270.0
 51
360.0
  0
ARC
  5
397
100
AcDbEntity
  8
BEZUGSACHSEN
100
AcDbCircle
 62
7
  6
CONTINUOUS
 10
534.5678037275
 20
374.4966274044
 40
9.0
100
AcDbArc
 50
180.0000575318
 51
196.9999697056
  0
ARC
  5
398
100
AcDbEntity
  8
BEZUGSACHSEN
100
AcDbCircle
 62
7
  6
CONTINUOUS
 10
549.0678037275
 20
337.8515683923
 40
4.0
100
AcDbArc
 50
0.0
 51
90.0
  0
ARC
  5
399
100
AcDbEntity
  8
BEZUGSACHSEN
100
AcDbCircle
 62
7
  6
CONTINUOUS
 10
537.7270378197
 20
345.3515683923
 40
3.5
100
AcDbArc
 50
196.99810053
 51
269.9997319732
  0
ARC
  5
39A
100
AcDbEntity
  8
KONSTRUKTIONSELEMENTE
100
AcDbCircle
 62
7
  6
CONTINUOUS
 10
557.5678037275
 20
295.3515683923
 40
2.0
100
AcDbArc
 50
180.0
 51
270.0
  0
ARC
  5
39B
100
AcDbEntity
  8
KONSTRUKTIONSELEMENTE
100
AcDbCircle
 62
7
  6
CONTINUOUS
 10
513.0678037275
 20
486.3515683923
 40
59.0
100
AcDbArc
 50
0.0
 51
180.0
  0
ARC
  5
39C
100
AcDbEntity
  8
KONSTRUKTIONSELEMENTE
100
AcDbCircle
 62
7
  6
CONTINUOUS
 10
513.0678037275
 20
412.3515683923
 40
59.0
100
AcDbArc
 50
180.0
 51
252.5211855934
  0
ARC
  5
39D
100
AcDbEntity
  8
KONSTRUKTIONSELEMENTE
100
AcDbCircle
 62
7
  6
CONTINUOUS
 10
513.0678037275
 20
412.3515683923
 40
59.0
100
AcDbArc
 50
287.4788144066
 51
360.0
  0
ARC
  5
39E
100
AcDbEntity
  8
KONSTRUKTIONSELEMENTE
100
AcDbCircle
 62
7
  6
CONTINUOUS
 10
513.0678037275
 20
486.3515683923
 40
32.5
100
AcDbArc
 50
0.0
 51
180.0
  0
ARC
  5
39F
100
AcDbEntity
  8
KONSTRUKTIONSELEMENTE
100
AcDbCircle
 62
7
  6
CONTINUOUS
 10
513.0678037275
 20
412.3515683923
 40
32.5
100
AcDbArc
 50
180.0
 51
247.3787146618
  0
ARC
  5
3A0
100
AcDbEntity
  8
KONSTRUKTIONSELEMENTE
100
AcDbCircle
 62
7
  6
CONTINUOUS
 10
513.0678037275
 20
412.3515683923
 40
32.5
100
AcDbArc
 50
294.5529358531
 51
360.0
  0
ARC
  5
3A1
100
AcDbEntity
  8
BEZUGSACHSEN
100
AcDbCircle
 62
7
  6
CONTINUOUS
 10
276.1355965479
 20
68.4698973962
 40
4.0
100
AcDbArc
 50
33.1749023831
 51
61.4843410276
  0
ARC
  5
3A2
100
AcDbEntity
  8
BEZUGSACHSEN
100
AcDbCircle
 62
7
  6
CONTINUOUS
 10
276.1355965479
 20
116.610645049
 40
4.0
100
AcDbArc
 50
298.5156589724
 51
326.8250976169
  0
ARC
  5
3A3
100
AcDbEntity
  8
KONSTRUKTIONSELEMENTE
100
AcDbCircle
 62
7
  6
CONTINUOUS
 10
312.9678799941
 20
46.7902712226
 40
13.25
100
AcDbArc
 50
180.0
 51
360.0
  0
ARC
  5
3A4
100
AcDbEntity
  8
BEZUGSACHSEN
100
AcDbCircle
 62
7
  6
CONTINUOUS
 10
349.8001634402
 20
68.4698973962
 40
4.0
100
AcDbArc
 50
118.5156589724
 51
146.8250976169
  0
ARC
  5
3A5
100
AcDbEntity
  8
BEZUGSACHSEN
100
AcDbCircle
 62
7
  6
CONTINUOUS
 10
312.9678799941
 20
92.5402712226
 40
49.0
100
AcDbArc
 50
285.5919403521
 51
74.4094938983
  0
ARC
  5
3A6
100
AcDbEntity
  8
BEZUGSACHSEN
100
AcDbCircle
 62
7
  6
CONTINUOUS
 10
312.9678799941
 20
92.5402712226
 40
49.0
100
AcDbArc
 50
105.5919403521
 51
254.4080596479
  0
ARC
  5
3A7
100
AcDbEntity
  8
KONSTRUKTIONSELEMENTE
100
AcDbCircle
 62
7
  6
CONTINUOUS
 10
312.9678799941
 20
92.5402712226
 40
48.0
100
AcDbArc
 50
106.009143918
 51
112.0153695404
  0
ARC
  5
3A8
100
AcDbEntity
  8
KONSTRUKTIONSELEMENTE
100
AcDbCircle
 62
7
  6
CONTINUOUS
 10
312.9678799941
 20
92.5402712226
 40
48.0
100
AcDbArc
 50
67.9846304596
 51
73.9925878565
  0
ARC
  5
3A9
100
AcDbEntity
  8
KONSTRUKTIONSELEMENTE
100
AcDbCircle
 62
7
  6
CONTINUOUS
 10
312.9678799941
 20
92.5402712226
 40
48.0
100
AcDbArc
 50
286.009143918
 51
292.0153695404
  0
ARC
  5
3AA
100
AcDbEntity
  8
KONSTRUKTIONSELEMENTE
100
AcDbCircle
 62
7
  6
CONTINUOUS
 10
312.9678799941
 20
92.5402712226
 40
48.0
100
AcDbArc
 50
247.9846304596
 51
253.990856082
  0
ARC
  5
3AB
100
AcDbEntity
  8
KONSTRUKTIONSELEMENTE
100
AcDbCircle
 62
7
  6
CONTINUOUS
 10
312.9678799941
 20
92.5402712226
 40
47.0
100
AcDbArc
 50
295.2768269166
 51
64.7231730834
  0
ARC
  5
3AC
100
AcDbEntity
  8
KONSTRUKTIONSELEMENTE
100
AcDbCircle
 62
7
  6
CONTINUOUS
 10
312.9678799941
 20
92.5402712226
 40
47.0
100
AcDbArc
 50
115.2768269166
 51
244.7231730834
  0
ARC
  5
3AD
100
AcDbEntity
  8
KONSTRUKTIONSELEMENTE
100
AcDbCircle
 62
7
  6
CONTINUOUS
 10
312.9678799941
 20
92.5402712226
 40
45.0
100
AcDbArc
 50
109.1881364537
 51
160.2504493103
  0
ARC
  5
3AE
100
AcDbEntity
  8
KONSTRUKTIONSELEMENTE
100
AcDbCircle
 62
7
  6
CONTINUOUS
 10
312.9678799941
 20
92.5402712226
 40
45.0
100
AcDbArc
 50
171.3598756664
 51
188.6401243336
  0
ARC
  5
3AF
100
AcDbEntity
  8
KONSTRUKTIONSELEMENTE
100
AcDbCircle
 62
7
  6
CONTINUOUS
 10
312.9678799941
 20
92.5402712226
 40
45.0
100
AcDbArc
 50
199.7495506897
 51
250.8118635463
  0
ARC
  5
3B0
100
AcDbEntity
  8
KONSTRUKTIONSELEMENTE
100
AcDbCircle
 62
7
  6
CONTINUOUS
 10
312.9678799941
 20
92.5402712226
 40
45.0
100
AcDbArc
 50
289.1881364537
 51
340.2504493103
  0
ARC
  5
3B1
100
AcDbEntity
  8
KONSTRUKTIONSELEMENTE
100
AcDbCircle
 62
7
  6
CONTINUOUS
 10
312.9678799941
 20
92.5402712226
 40
45.0
100
AcDbArc
 50
351.3598756664
 51
8.6401243336
  0
ARC
  5
3B2
100
AcDbEntity
  8
KONSTRUKTIONSELEMENTE
100
AcDbCircle
 62
7
  6
CONTINUOUS
 10
312.9678799941
 20
92.5402712226
 40
45.0
100
AcDbArc
 50
19.7495506897
 51
70.8118635463
  0
ARC
  5
3B3
100
AcDbEntity
  8
RUNDUNGEN
100
AcDbCircle
 62
7
  6
CONTINUOUS
 10
312.9678799941
 20
92.5402712226
 40
40.0
100
AcDbArc
 50
33.1641589266
 51
43.233933997
  0
ARC
  5
3B4
100
AcDbEntity
  8
BEZUGSACHSEN
100
AcDbCircle
 62
7
  6
CONTINUOUS
 10
312.9678799941
 20
92.5402712226
 40
40.0
100
AcDbArc
 50
109.3680205201
 51
146.8358410734
  0
ARC
  5
3B5
100
AcDbEntity
  8
BEZUGSACHSEN
100
AcDbCircle
 62
7
  6
CONTINUOUS
 10
312.9678799941
 20
92.5402712226
 40
40.0
100
AcDbArc
 50
43.233933997
 51
70.6319794799
  0
ARC
  5
3B6
100
AcDbEntity
  8
BEZUGSACHSEN
100
AcDbCircle
 62
7
  6
CONTINUOUS
 10
312.9678799941
 20
92.5402712226
 40
40.0
100
AcDbArc
 50
213.1641589266
 51
250.6395079038
  0
ARC
  5
3B7
100
AcDbEntity
  8
BEZUGSACHSEN
100
AcDbCircle
 62
7
  6
CONTINUOUS
 10
312.9678799941
 20
92.5402712226
 40
40.0
100
AcDbArc
 50
289.3604920962
 51
326.8358410735
  0
ARC
  5
3B8
100
AcDbEntity
  8
KONSTRUKTIONSELEMENTE
100
AcDbCircle
 62
7
  6
CONTINUOUS
 10
312.9678799941
 20
138.2902712226
 40
13.25
100
AcDbArc
 50
0.0
 51
180.0
  0
ARC
  5
3B9
100
AcDbEntity
  8
RUNDUNGEN
100
AcDbCircle
 62
7
  6
CONTINUOUS
 10
349.8001634402
 20
116.610645049
 40
4.0
100
AcDbArc
 50
213.1749023831
 51
241.4843410276
  0
SPLINE
  5
3BA
100
AcDbEntity
  8
BEZUGSACHSEN
100
AcDbSpline
 62
7
  6
CONTINUOUS
 70
0
 71
3
 72
9
 73
5
 74
0
 42
0.0000001
 43
0.0000001
 44
0.0000000001
 40
0.0
 40
0.0
 40
0.0
 40
0.0
 40
0.4950364757
 40
1.0
 40
1.0
 40
1.0
 40
1.0
 10
276.4432582006
 20
343.3730380922
 30
0.0
 10
277.050110744
 20
341.9070957041
 30
0.0
 10
278.1167120392
 20
338.8817800332
 30
0.0
 10
279.0694626535
 20
335.8200649452
 30
0.0
 10
279.4839998018
 20
334.2556525129
 30
0.0
  0
SPLINE
  5
3BB
100
AcDbEntity
  8
BEZUGSACHSEN
100
AcDbSpline
 62
7
  6
CONTINUOUS
 70
0
 71
3
 72
9
 73
5
 74
0
 42
0.0000001
 43
0.0000001
 44
0.0000000001
 40
0.0
 40
0.0
 40
0.0
 40
0.0
 40
0.4950364757
 40
1.0
 40
1.0
 40
1.0
 40
1.0
 10
349.4925017875
 20
343.3730380922
 30
0.0
 10
348.8856492441
 20
341.9070957041
 30
0.0
 10
347.819047949
 20
338.8817800332
 30
0.0
 10
346.8662973347
 20
335.8200649452
 30
0.0
 10
346.4517601863
 20
334.2556525129
 30
0.0
  0
SPLINE
  5
3BC
100
AcDbEntity
  8
KONSTRUKTIONSELEMENTE
100
AcDbSpline
 62
7
  6
CONTINUOUS
 70
0
 71
3
 72
10
 73
6
 74
0
 42
0.0000001
 43
0.0000001
 44
0.0000000001
 40
0.0
 40
0.0
 40
0.0
 40
0.0
 40
0.5547381711
 40
0.7952278569
 40
1.0
 40
1.0
 40
1.0
 40
1.0
 10
333.0208909625
 20
295.179995517
 30
0.0
 10
332.9729813513
 20
294.9175039377
 30
0.0
 10
332.9202566461
 20
294.5382696908
 30
0.0
 10
332.8408238654
 20
294.0644052035
 30
0.0
 10
332.7848682813
 20
293.8558865261
 30
0.0
 10
332.7450885107
 20
293.7657819546
 30
0.0
  0
SPLINE
  5
3BD
100
AcDbEntity
  8
KONSTRUKTIONSELEMENTE
100
AcDbSpline
 62
7
  6
CONTINUOUS
 70
0
 71
3
 72
12
 73
8
 74
0
 42
0.0000001
 43
0.0000001
 44
0.0000000001
 40
0.0
 40
0.0
 40
0.0
 40
0.0
 40
0.2079921653
 40
0.3292326319
 40
0.4567694617
 40
0.7235352786
 40
1.0
 40
1.0
 40
1.0
 40
1.0
 10
332.7450885107
 20
293.7657819546
 30
0.0
 10
332.6923510824
 20
293.6463271836
 30
0.0
 10
332.4854486634
 20
293.5322033364
 30
0.0
 10
332.2154875046
 20
293.4544492477
 30
0.0
 10
331.8951665273
 20
293.394856025
 30
0.0
 10
331.4758111282
 20
293.358815919
 30
0.0
 10
331.1344997797
 20
293.3515683923
 30
0.0
 10
330.9609342095
 20
293.3515683923
 30
0.0
  0
SPLINE
  5
3BE
100
AcDbEntity
  8
KONSTRUKTIONSELEMENTE
100
AcDbSpline
 62
7
  6
CONTINUOUS
 70
0
 71
3
 72
10
 73
6
 74
0
 42
0.0000001
 43
0.0000001
 44
0.0000000001
 40
0.0
 40
0.0
 40
0.0
 40
0.0
 40
0.2047721431
 40
0.4452618289
 40
1.0
 40
1.0
 40
1.0
 40
1.0
 10
293.1906714774
 20
293.7657819546
 30
0.0
 10
293.1508917068
 20
293.8558865261
 30
0.0
 10
293.0949361228
 20
294.0644052035
 30
0.0
 10
293.0155033421
 20
294.5382696908
 30
0.0
 10
292.9627786368
 20
294.9175039377
 30
0.0
 10
292.9148690256
 20
295.179995517
 30
0.0
  0
SPLINE
  5
3BF
100
AcDbEntity
  8
KONSTRUKTIONSELEMENTE
100
AcDbSpline
 62
7
  6
CONTINUOUS
 70
0
 71
3
 72
8
 73
4
 74
0
 42
0.0000001
 43
0.0000001
 44
0.0000000001
 40
0.0
 40
0.0
 40
0.0
 40
0.0
 40
1.0
 40
1.0
 40
1.0
 40
1.0
 10
298.1776805363
 20
332.3515683923
 30
0.0
 10
296.3902073388
 20
331.7640776119
 30
0.0
 10
294.6296469865
 20
331.0904353249
 30
0.0
 10
292.8992477537
 20
330.3515683923
 30
0.0
  0
SPLINE
  5
3C0
100
AcDbEntity
  8
KONSTRUKTIONSELEMENTE
100
AcDbSpline
 62
7
  6
CONTINUOUS
 70
0
 71
3
 72
8
 73
4
 74
0
 42
0.0000001
 43
0.0000001
 44
0.0000000001
 40
0.0
 40
0.0
 40
0.0
 40
0.0
 40
1.0
 40
1.0
 40
1.0
 40
1.0
 10
333.0365122345
 20
330.3515683923
 30
0.0
 10
331.3061130017
 20
331.0904353249
 30
0.0
 10
329.5455526494
 20
331.7640776119
 30
0.0
 10
327.7580794518
 20
332.3515683923
 30
0.0
  0
SPLINE
  5
3C1
100
AcDbEntity
  8
KONSTRUKTIONSELEMENTE
100
AcDbSpline
 62
7
  6
CONTINUOUS
 70
0
 71
3
 72
12
 73
8
 74
0
 42
0.0000001
 43
0.0000001
 44
0.0000000001
 40
0.0
 40
0.0
 40
0.0
 40
0.0
 40
0.2765221092
 40
0.543337948
 40
0.670891962
 40
0.7921335279
 40
1.0
 40
1.0
 40
1.0
 40
1.0
 10
294.9748257786
 20
293.3515683923
 30
0.0
 10
294.8012228053
 20
293.3515683923
 30
0.0
 10
294.4598418196
 20
293.3588155674
 30
0.0
 10
294.0404031379
 20
293.3948671046
 30
0.0
 10
293.7200452193
 20
293.4545025669
 30
0.0
 10
293.4501431111
 20
293.532252917
 30
0.0
 10
293.2433774531
 20
293.6463984267
 30
0.0
 10
293.1906714774
 20
293.7657819546
 30
0.0
  0
SPLINE
  5
3C2
100
AcDbEntity
  8
RUNDUNGEN
100
AcDbSpline
 62
7
  6
CONTINUOUS
 70
0
 71
3
 72
10
 73
6
 74
0
 42
0.0000001
 43
0.0000001
 44
0.0000000001
 40
0.0
 40
0.0
 40
0.0
 40
0.0
 40
0.2508908731
 40
0.5020068499
 40
1.0
 40
1.0
 40
1.0
 40
1.0
 10
502.63996322
 20
407.8219981473
 30
0.0
 10
502.3229763821
 20
407.6675503873
 30
0.0
 10
501.7330743804
 20
407.2567261328
 30
0.0
 10
500.850800199
 20
406.1448572437
 30
0.0
 10
500.5678037275
 20
405.0630937629
 30
0.0
 10
500.5678037275
 20
404.3631956912
 30
0.0
  0
SPLINE
  5
3C3
100
AcDbEntity
  8
RUNDUNGEN
100
AcDbSpline
 62
7
  6
CONTINUOUS
 70
0
 71
3
 72
10
 73
6
 74
0
 42
0.0000001
 43
0.0000001
 44
0.0000000001
 40
0.0
 40
0.0
 40
0.0
 40
0.0
 40
0.2508908731
 40
0.5020068499
 40
1.0
 40
1.0
 40
1.0
 40
1.0
 10
523.495644235
 20
407.8219981473
 30
0.0
 10
523.8126310729
 20
407.6675503873
 30
0.0
 10
524.4025330746
 20
407.2567261328
 30
0.0
 10
525.284807256
 20
406.1448572437
 30
0.0
 10
525.5678037275
 20
405.0630937629
 30
0.0
 10
525.5678037275
 20
404.3631956912
 30
0.0
  0
SPLINE
  5
3C4
100
AcDbEntity
  8
RUNDUNGEN
100
AcDbSpline
 62
7
  6
CONTINUOUS
 70
0
 71
3
 72
9
 73
5
 74
0
 42
0.0000001
 43
0.0000001
 44
0.0000000001
 40
0.0
 40
0.0
 40
0.0
 40
0.0
 40
0.2628422862
 40
1.0
 40
1.0
 40
1.0
 40
1.0
 10
504.0678037275
 20
407.5175177211
 30
0.0
 10
503.9490219394
 20
407.5661120393
 30
0.0
 10
503.4903261505
 20
407.7327010995
 30
0.0
 10
502.9998938491
 20
407.8219829856
 30
0.0
 10
502.6399631867
 20
407.8219981477
 30
0.0
  0
SPLINE
  5
3C5
100
AcDbEntity
  8
RUNDUNGEN
100
AcDbSpline
 62
7
  6
CONTINUOUS
 70
0
 71
3
 72
9
 73
5
 74
0
 42
0.0000001
 43
0.0000001
 44
0.0000000001
 40
0.0
 40
0.0
 40
0.0
 40
0.0
 40
0.2387520631
 40
1.0
 40
1.0
 40
1.0
 40
1.0
 10
523.4956442683
 20
407.8219981477
 30
0.0
 10
523.3790284023
 20
407.8219932352
 30
0.0
 10
522.8906130285
 20
407.7929110452
 30
0.0
 10
522.4119418843
 20
407.6583066363
 30
0.0
 10
522.0678037275
 20
407.5175177211
 30
0.0
  0
SPLINE
  5
3C6
100
AcDbEntity
  8
KONSTRUKTIONSELEMENTE
100
AcDbSpline
 62
7
  6
CONTINUOUS
 70
0
 71
3
 72
9
 73
5
 74
0
 42
0.0000001
 43
0.0000001
 44
0.0000000001
 40
0.0
 40
0.0
 40
0.0
 40
0.0
 40
0.2155759827
 40
1.0
 40
1.0
 40
1.0
 40
1.0
 10
333.0208909625
 20
50.0328983198
 30
0.0
 10
333.0155954403
 20
50.0304001375
 30
0.0
 10
332.9922864016
 20
50.016066651
 30
0.0
 10
332.9754243025
 20
49.9934013637
 30
0.0
 10
332.9644201956
 20
49.9751575591
 30
0.0
  0
SPLINE
  5
3C7
100
AcDbEntity
  8
KONSTRUKTIONSELEMENTE
100
AcDbSpline
 62
7
  6
CONTINUOUS
 70
0
 71
3
 72
11
 73
7
 74
0
 42
0.0000001
 43
0.0000001
 44
0.0000000001
 40
0.0
 40
0.0
 40
0.0
 40
0.0
 40
0.159782799
 40
0.3817930885
 40
0.6638548821
 40
1.0
 40
1.0
 40
1.0
 40
1.0
 10
332.9644201956
 20
49.9751575591
 30
0.0
 10
332.9437888802
 20
49.9409527217
 30
0.0
 10
332.9093636917
 20
49.8509365814
 30
0.0
 10
332.8656795518
 20
49.6911110276
 30
0.0
 10
332.8149626591
 20
49.4871758557
 30
0.0
 10
332.7720892804
 20
49.3385718943
 30
0.0
 10
332.7450885107
 20
49.2589924271
 30
0.0
  0
SPLINE
  5
3C8
100
AcDbEntity
  8
KONSTRUKTIONSELEMENTE
100
AcDbSpline
 62
7
  6
CONTINUOUS
 70
0
 71
3
 72
9
 73
5
 74
0
 42
0.0000001
 43
0.0000001
 44
0.0000000001
 40
0.0
 40
0.0
 40
0.0
 40
0.0
 40
0.2154124747
 40
1.0
 40
1.0
 40
1.0
 40
1.0
 10
292.9148690256
 20
135.0476441254
 30
0.0
 10
292.9201864993
 20
135.0501526633
 30
0.0
 10
292.9436042708
 20
135.064568885
 30
0.0
 10
292.9605133553
 20
135.0873779841
 30
0.0
 10
292.9715479945
 20
135.1057306632
 30
0.0
  0
SPLINE
  5
3C9
100
AcDbEntity
  8
KONSTRUKTIONSELEMENTE
100
AcDbSpline
 62
7
  6
CONTINUOUS
 70
0
 71
3
 72
10
 73
6
 74
0
 42
0.0000001
 43
0.0000001
 44
0.0000000001
 40
0.0
 40
0.0
 40
0.0
 40
0.0
 40
0.1599397192
 40
0.3820211552
 40
1.0
 40
1.0
 40
1.0
 40
1.0
 10
292.9715479945
 20
135.1057306632
 30
0.0
 10
292.9921383903
 20
135.1399763615
 30
0.0
 10
293.0265358446
 20
135.2299957517
 30
0.0
 10
293.0920577138
 20
135.4706322279
 30
0.0
 10
293.1410639398
 20
135.675341541
 30
0.0
 10
293.1906714774
 20
135.8215500181
 30
0.0
  0
SPLINE
  5
3CA
100
AcDbEntity
  8
KONSTRUKTIONSELEMENTE
100
AcDbSpline
 62
7
  6
CONTINUOUS
 70
0
 71
3
 72
12
 73
8
 74
0
 42
0.0000001
 43
0.0000001
 44
0.0000000001
 40
0.0
 40
0.0
 40
0.0
 40
0.0
 40
0.2579951806
 40
0.5150318095
 40
0.7676522298
 40
0.8887283371
 40
1.0
 40
1.0
 40
1.0
 40
1.0
 10
294.9748257786
 20
48.0402712226
 30
0.0
 10
294.7991515329
 20
48.1113030479
 30
0.0
 10
294.4518106852
 20
48.2620843069
 30
0.0
 10
293.9520182211
 20
48.523302824
 30
0.0
 10
293.5651837366
 20
48.7839094587
 30
0.0
 10
293.3108346424
 20
49.0341197077
 30
0.0
 10
293.2169303848
 20
49.1815994533
 30
0.0
 10
293.1906714774
 20
49.2589924271
 30
0.0
  0
SPLINE
  5
3CB
100
AcDbEntity
  8
KONSTRUKTIONSELEMENTE
100
AcDbSpline
 62
7
  6
CONTINUOUS
 70
0
 71
3
 72
11
 73
7
 74
0
 42
0.0000001
 43
0.0000001
 44
0.0000000001
 40
0.0
 40
0.0
 40
0.0
 40
0.0
 40
0.3742560023
 40
0.6688521785
 40
0.8753728515
 40
1.0
 40
1.0
 40
1.0
 40
1.0
 10
293.1906714774
 20
49.2589924271
 30
0.0
 10
293.1573993912
 20
49.3570553686
 30
0.0
 10
293.1083815351
 20
49.5352716968
 30
0.0
 10
293.0493924239
 20
49.7716798767
 30
0.0
 10
292.9998643387
 20
49.9343157089
 30
0.0
 10
292.9460561966
 20
50.0181856561
 30
0.0
 10
292.9148690256
 20
50.0328983198
 30
0.0
  0
SPLINE
  5
3CC
100
AcDbEntity
  8
KONSTRUKTIONSELEMENTE
100
AcDbSpline
 62
7
  6
CONTINUOUS
 70
0
 71
3
 72
12
 73
8
 74
0
 42
0.0000001
 43
0.0000001
 44
0.0000000001
 40
0.0
 40
0.0
 40
0.0
 40
0.0
 40
0.1113488737
 40
0.232444602
 40
0.4850466975
 40
0.7420452836
 40
1.0
 40
1.0
 40
1.0
 40
1.0
 10
293.1906714774
 20
135.8215500181
 30
0.0
 10
293.2169486123
 20
135.8989967138
 30
0.0
 10
293.3108972429
 20
136.046539938
 30
0.0
 10
293.5653477758
 20
136.2967295431
 30
0.0
 10
293.9521518399
 20
136.5573207548
 30
0.0
 10
294.4518939491
 20
136.8184878853
 30
0.0
 10
294.7991790421
 20
136.9692505203
 30
0.0
 10
294.9748257786
 20
137.0402712226
 30
0.0
  0
SPLINE
  5
3CD
100
AcDbEntity
  8
KONSTRUKTIONSELEMENTE
100
AcDbSpline
 62
7
  6
CONTINUOUS
 70
0
 71
3
 72
12
 73
8
 74
0
 42
0.0000001
 43
0.0000001
 44
0.0000000001
 40
0.0
 40
0.0
 40
0.0
 40
0.0
 40
0.2579487016
 40
0.5149417481
 40
0.7675490361
 40
0.8886436817
 40
1.0
 40
1.0
 40
1.0
 40
1.0
 10
330.9609342095
 20
137.0402712226
 30
0.0
 10
331.1365768316
 20
136.9692521839
 30
0.0
 10
331.483859734
 20
136.8185050716
 30
0.0
 10
331.9835884111
 20
136.5573223675
 30
0.0
 10
332.3703964018
 20
136.2967402804
 30
0.0
 10
332.6248567271
 20
136.046548534
 30
0.0
 10
332.7188096219
 20
135.8990018834
 30
0.0
 10
332.7450885107
 20
135.8215500181
 30
0.0
  0
SPLINE
  5
3CE
100
AcDbEntity
  8
KONSTRUKTIONSELEMENTE
100
AcDbSpline
 62
7
  6
CONTINUOUS
 70
0
 71
3
 72
12
 73
8
 74
0
 42
0.0000001
 43
0.0000001
 44
0.0000000001
 40
0.0
 40
0.0
 40
0.0
 40
0.0
 40
0.1113787054
 40
0.2324850161
 40
0.4850770493
 40
0.74206035
 40
1.0
 40
1.0
 40
1.0
 40
1.0
 10
332.7450885107
 20
49.2589924271
 30
0.0
 10
332.7188043564
 20
49.1815250428
 30
0.0
 10
332.6248312557
 20
49.0339591661
 30
0.0
 10
332.3703454089
 20
48.7837754549
 30
0.0
 10
331.9835529573
 20
48.5231905974
 30
0.0
 10
331.483834485
 20
48.2620417017
 30
0.0
 10
331.1365705504
 20
48.1112877215
 30
0.0
 10
330.9609342095
 20
48.0402712226
 30
0.0
  0
SPLINE
  5
3CF
100
AcDbEntity
  8
KONSTRUKTIONSELEMENTE
100
AcDbSpline
 62
7
  6
CONTINUOUS
 70
0
 71
3
 72
11
 73
7
 74
0
 42
0.0000001
 43
0.0000001
 44
0.0000000001
 40
0.0
 40
0.0
 40
0.0
 40
0.0
 40
0.3742560723
 40
0.6688510636
 40
0.8753716104
 40
1.0
 40
1.0
 40
1.0
 40
1.0
 10
332.7450885107
 20
135.8215500181
 30
0.0
 10
332.7783606043
 20
135.723487055
 30
0.0
 10
332.8273781993
 20
135.5452709688
 30
0.0
 10
332.8863673729
 20
135.3088631494
 30
0.0
 10
332.9358952419
 20
135.1462272954
 30
0.0
 10
332.9897034799
 20
135.0623569361
 30
0.0
 10
333.0208909625
 20
135.0476441254
 30
0.0
  0
ENDSEC
  0
SECTION
  2
OBJECTS
  0
DICTIONARY
  5
C
100
AcDbDictionary
280
0
281
1
  3
ACAD_GROUP
350
D
  3
ACAD_MLINESTYLE
350
17
  3
ACAD_LAYOUT
350
1A
  3
ACAD_PLOTSETTINGS
350
19
  3
ACAD_PLOTSTYLENAME
350
E
  0
DICTIONARY
  5
D
102
{ACAD_REACTORS
330
C
102
}
100
AcDbDictionary
280
0
281
1
  0
ACDBDICTIONARYWDFLT
  5
E
102
{ACAD_REACTORS
330
C
102
}
100
AcDbDictionary
281
1
  3
Normal
350
F
100
AcDbDictionaryWithDefault
340
F
  0
DICTIONARY
  5
17
102
{ACAD_REACTORS
330
C
102
}
100
AcDbDictionary
280
0
281
1
  3
Standard
350
18
  0
DICTIONARY
  5
19
102
{ACAD_REACTORS
330
C
102
}
100
AcDbDictionary
281
1
  0
DICTIONARY
  5
1A
102
{ACAD_REACTORS
330
C
102
}
100
AcDbDictionary
281
1
  3
Model
350
3D0
  3
Layout1
350
3D1
  0
ACDBPLACEHOLDER
  5
F
102
{ACAD_REACTORS
330
E
102
}
  0
MLINESTYLE
  5
18
102
{ACAD_REACTORS
330
17
102
}
100
AcDbMlineStyle
  2
STANDARD
 70
0
  3

 62
256
 51
90.0
 52
90.0
 71
2
 49
0.5
 62
256
  6
BYLAYER
 49
-0.5
 62
256
  6
BYLAYER
  0
LAYOUT
  5
3D0
102
{ACAD_REACTORS
330
1A
102
}
100
AcDbPlotSettings
  1

  2
none_device
  4
ISO_A1_(594.00_x_841.00_MM)
  6

 40
0.0
 41
0.0
 42
0.0
 43
0.0
 44
841.0
 45
594.0
 46
0.0
 47
0.0
 48
0.0
 49
0.0
140
0.0
141
0.0
142
1.0
143
1.0
 70
1024
 72
1
 73
0
 74
0
  7

 75
0
147
1.0
148
0.0
149
0.0
100
AcDbLayout
  1
Model
 70
0
 71
0
 10
0.0
 20
0.0
 11
841.0
 21
594.0
 12
0.0
 22
0.0
 32
0.0
 14
0.0
 24
0.0
 34
0.0
 15
0.0
 25
0.0
 35
0.0
146
0.0
 13
0.0
 23
0.0
 33
0.0
 16
1.0
 26
0.0
 36
0.0
 17
0.0
 27
1.0
 37
0.0
 76
0
330
212
345
0
346
0
  0
LAYOUT
  5
3D1
102
{ACAD_REACTORS
330
1A
102
}
100
AcDbPlotSettings
  1

  2
none_device
  4
ISO_A1_(594.00_x_841.00_MM)
  6

 40
0.0
 41
0.0
 42
0.0
 43
0.0
 44
841.0
 45
594.0
 46
0.0
 47
0.0
 48
0.0
 49
0.0
140
0.0
141
0.0
142
1.0
143
1.0
 70
0
 72
1
 73
0
 74
0
  7

 75
0
147
1.0
148
0.0
149
0.0
100
AcDbLayout
  1
Layout1
 70
0
 71
1
 10
0.0
 20
0.0
 11
841.0
 21
594.0
 12
0.0
 22
0.0
 32
0.0
 14
0.0
 24
0.0
 34
0.0
 15
0.0
 25
0.0
 35
0.0
146
0.0
 13
0.0
 23
0.0
 33
0.0
 16
1.0
 26
0.0
 36
0.0
 17
0.0
 27
1.0
 37
0.0
 76
0
330
213
345
0
346
0
  0
ENDSEC
  0
EOF
