999
DXF file: 001-m33244-p-10.dxf
999
Pro/ENGINEER 2011490 by Parametric Technology Corporation
  0
SECTION
  2
HEADER
  9
$ACADVER
  1
AC1015
  9
$DWGCODEPAGE
  3
ANSI_1252
  9
$EXTMAX
 10
594.0
 20
420.0
 30
0.0
  9
$EXTMIN
 10
0.0
 20
0.0
 30
0.0
  9
$LIMMIN
 10
0.0
 20
0.0
  9
$LIMMAX
 10
594.0
 20
420.0
  9
$VIEWCTR
 10
297.0
 20
210.0
  9
$VIEWSIZE
 40
420.0
  9
$CLAYER
  8
0
  9
$LTSCALE
 40
32.67
  9
$CELTYPE
  6
BYLAYER
  9
$DIMSCALE
 40
1.0
  9
$DIMASZ
 40
3.5
  9
$DIMEXO
 40
3.7125
  9
$DIMDLI
 40
22.572
  9
$DIMEXE
 40
10.692
  9
$DIMCEN
 40
5.346
  9
$DIMLFAC
 40
1.0
  9
$DIMBLK
  1
_FILLED
  9
$DIMTXT
 40
3.5
  9
$DIMTOL
 70
1
  9
$DIMLIM
 70
0
  9
$DIMTFAC
 40
1.0
  9
$DIMTP
 40
0.005
  9
$DIMTM
 40
0.005
  9
$PDMODE
 70
3
  9
$PDSIZE
 40
0.3125
  9
$HANDSEED
  5
415
  9
$TILEMODE
 70
1
  9
$MEASUREMENT
 70
1
  9
$INSUNITS
 70
4
  0
ENDSEC
  0
SECTION
  2
CLASSES
  0
CLASS
  1
ACDBDICTIONARYWDFLT
  2
AcDbDictionaryWithDefault
  3
AutoCAD 2000
 90
0
280
0
281
0
  0
CLASS
  1
ACDBPLACEHOLDER
  2
AcDbPlaceHolder
  3
AutoCAD 2000
 90
0
280
0
281
0
  0
CLASS
  1
LAYOUT
  2
AcDbLayout
  3
AutoCAD 2000
 90
0
280
0
281
0
  0
ENDSEC
  0
SECTION
  2
TABLES
  0
TABLE
  2
VPORT
  5
8
100
AcDbSymbolTable
 70
2
  0
VPORT
  5
1F4
100
AcDbSymbolTableRecord
100
AcDbViewportTableRecord
  2
*ACTIVE
 70
0
 10
0.0
 20
0.0
 11
1.0
 21
1.0
 12
297.0
 22
210.0
 13
0.0
 23
0.0
 14
1.0
 24
1.0
 15
0.0
 25
0.0
 16
0.0
 26
0.0
 36
1.0
 17
0.0
 27
0.0
 37
0.0
 40
420.0
 41
1.4142857143
 42
50.0
 43
0.0
 44
0.0
 50
0.0
 51
0.0
 71
0
 72
100
 73
1
 74
1
 75
0
 76
0
 77
0
 78
0
  0
ENDTAB
  0
TABLE
  2
LTYPE
  5
5
100
AcDbSymbolTable
 70
6
  0
LTYPE
  5
14
100
AcDbSymbolTableRecord
100
AcDbLinetypeTableRecord
  2
BYBLOCK
 70
0
  3

 72
65
 73
0
 40
0.0
  0
LTYPE
  5
15
100
AcDbSymbolTableRecord
100
AcDbLinetypeTableRecord
  2
BYLAYER
 70
0
  3

 72
65
 73
0
 40
0.0
  0
LTYPE
  5
16
100
AcDbSymbolTableRecord
100
AcDbLinetypeTableRecord
  2
CONTINUOUS
 70
64
  3
Solid line
 72
65
 73
0
 40
0.0
  0
LTYPE
  5
1F5
100
AcDbSymbolTableRecord
100
AcDbLinetypeTableRecord
  2
CENTER
 70
64
  3
____ _ ____ _ ____ _ ____ _ ____ _ ____ _ ____
 72
65
 73
4
 40
0.6
 49
0.375
 74
0
 49
-0.075
 74
0
 49
0.075
 74
0
 49
-0.075
 74
0
  0
LTYPE
  5
1F6
100
AcDbSymbolTableRecord
100
AcDbLinetypeTableRecord
  2
HIDDEN
 70
64
  3
- - - - - - - - - - - - - - - - - - - -
 72
65
 73
2
 40
0.2
 49
0.1
 74
0
 49
-0.1
 74
0
  0
LTYPE
  5
1F7
100
AcDbSymbolTableRecord
100
AcDbLinetypeTableRecord
  2
PHANTOM
 70
64
  3
_____ _ _ _____ _ _ _____ _ _ _____
 72
65
 73
6
 40
0.8
 49
0.45
 74
0
 49
-0.05
 74
0
 49
0.1
 74
0
 49
-0.05
 74
0
 49
0.1
 74
0
 49
-0.05
 74
0
  0
LTYPE
  5
1F8
100
AcDbSymbolTableRecord
100
AcDbLinetypeTableRecord
  2
DOT
 70
64
  3
. . . . . . . . . . . . . . . . . . . .
 72
65
 73
2
 40
0.2
 49
0.1
 74
0
 49
-0.1
 74
0
  0
LTYPE
  5
1F9
100
AcDbSymbolTableRecord
100
AcDbLinetypeTableRecord
  2
DASHED
 70
64
  3
- - - - - - - - - - - - - - - - - - - -
 72
65
 73
2
 40
0.2
 49
0.1
 74
0
 49
-0.1
 74
0
  0
ENDTAB
  0
TABLE
  2
LAYER
  5
2
100
AcDbSymbolTable
 70
36
  0
LAYER
  5
10
100
AcDbSymbolTableRecord
100
AcDbLayerTableRecord
  2
0
 70
0
 62
7
  6
CONTINUOUS
370
-3
390
F
  0
LAYER
  5
1FA
100
AcDbSymbolTableRecord
100
AcDbLayerTableRecord
  2
DEFAULT_1
 70
0
 62
7
  6
CENTER
370
-3
390
F
  0
LAYER
  5
1FB
100
AcDbSymbolTableRecord
100
AcDbLayerTableRecord
  2
DEFAULT_2
 70
0
 62
8
  6
HIDDEN
370
-3
390
F
  0
LAYER
  5
1FC
100
AcDbSymbolTableRecord
100
AcDbLayerTableRecord
  2
DEFAULT_3
 70
0
 62
7
  6
PHANTOM
370
-3
390
F
  0
LAYER
  5
1FD
100
AcDbSymbolTableRecord
100
AcDbLayerTableRecord
  2
AUSFORMSCHRAEGEN
 70
0
 62
7
  6
CONTINUOUS
370
-3
390
F
  0
LAYER
  5
1FE
100
AcDbSymbolTableRecord
100
AcDbLayerTableRecord
  2
BEZUGSACHSEN
 70
0
 62
7
  6
CONTINUOUS
370
-3
390
F
  0
LAYER
  5
1FF
100
AcDbSymbolTableRecord
100
AcDbLayerTableRecord
  2
BEZUGSEBENEN
 70
0
 62
7
  6
CONTINUOUS
370
-3
390
F
  0
LAYER
  5
200
100
AcDbSymbolTableRecord
100
AcDbLayerTableRecord
  2
BEZUGSPUNKTE
 70
0
 62
7
  6
CONTINUOUS
370
-3
390
F
  0
LAYER
  5
201
100
AcDbSymbolTableRecord
100
AcDbLayerTableRecord
  2
BG_STARTBEZUEGE
 70
0
 62
7
  6
CONTINUOUS
370
-3
390
F
  0
LAYER
  5
202
100
AcDbSymbolTableRecord
100
AcDbLayerTableRecord
  2
BOHRUNGEN
 70
0
 62
7
  6
CONTINUOUS
370
-3
390
F
  0
LAYER
  5
203
100
AcDbSymbolTableRecord
100
AcDbLayerTableRecord
  2
FASEN
 70
0
 62
7
  6
CONTINUOUS
370
-3
390
F
  0
LAYER
  5
204
100
AcDbSymbolTableRecord
100
AcDbLayerTableRecord
  2
FLAECHEN
 70
0
 62
7
  6
CONTINUOUS
370
-3
390
F
  0
LAYER
  5
205
100
AcDbSymbolTableRecord
100
AcDbLayerTableRecord
  2
FLAECHENVERBUND
 70
0
 62
7
  6
CONTINUOUS
370
-3
390
F
  0
LAYER
  5
206
100
AcDbSymbolTableRecord
100
AcDbLayerTableRecord
  2
GEWINDE
 70
0
 62
7
  6
CONTINUOUS
370
-3
390
F
  0
LAYER
  5
207
100
AcDbSymbolTableRecord
100
AcDbLayerTableRecord
  2
HILFEN
 70
0
 62
7
  6
CONTINUOUS
370
-3
390
F
  0
LAYER
  5
208
100
AcDbSymbolTableRecord
100
AcDbLayerTableRecord
  2
KONSTRUKTIONSELEMENTE
 70
0
 62
7
  6
CONTINUOUS
370
-3
390
F
  0
LAYER
  5
209
100
AcDbSymbolTableRecord
100
AcDbLayerTableRecord
  2
KURVEN
 70
0
 62
7
  6
CONTINUOUS
370
-3
390
F
  0
LAYER
  5
20A
100
AcDbSymbolTableRecord
100
AcDbLayerTableRecord
  2
PLATZIERUNG
 70
0
 62
7
  6
CONTINUOUS
370
-3
390
F
  0
LAYER
  5
20B
100
AcDbSymbolTableRecord
100
AcDbLayerTableRecord
  2
PLAZIERUNG
 70
0
 62
7
  6
CONTINUOUS
370
-3
390
F
  0
LAYER
  5
20C
100
AcDbSymbolTableRecord
100
AcDbLayerTableRecord
  2
RUNDUNGEN
 70
0
 62
7
  6
CONTINUOUS
370
-3
390
F
  0
LAYER
  5
20D
100
AcDbSymbolTableRecord
100
AcDbLayerTableRecord
  2
TEIL_STARTBEZUEGE
 70
0
 62
7
  6
CONTINUOUS
370
-3
390
F
  0
LAYER
  5
20E
100
AcDbSymbolTableRecord
100
AcDbLayerTableRecord
  2
XSEC_DATUMS
 70
0
 62
7
  6
CONTINUOUS
370
-3
390
F
  0
LAYER
  5
20F
100
AcDbSymbolTableRecord
100
AcDbLayerTableRecord
  2
ZEICHNUNGSBEMASSUNGEN
 70
0
 62
7
  6
CONTINUOUS
370
-3
390
F
  0
ENDTAB
  0
TABLE
  2
STYLE
  5
3
100
AcDbSymbolTable
 70
1
  0
STYLE
  5
11
100
AcDbSymbolTableRecord
100
AcDbTextStyleTableRecord
  2
STANDARD
 70
0
 40
0.0
 41
0.7
 50
0.0
 71
0
 42
0.2
  3
txt
  4

  0
STYLE
  5
210
100
AcDbSymbolTableRecord
100
AcDbTextStyleTableRecord
  2
TEXTSTYLE_1
 70
0
 40
0.0
 41
0.8
 50
0.0
 71
0
 42
0.2
  3
gdt
  4

  0
ENDTAB
  0
TABLE
  2
VIEW
  5
6
100
AcDbSymbolTable
 70
0
  0
ENDTAB
  0
TABLE
  2
UCS
  5
7
100
AcDbSymbolTable
 70
0
  0
ENDTAB
  0
TABLE
  2
APPID
  5
9
100
AcDbSymbolTable
 70
1
  0
APPID
  5
211
100
AcDbSymbolTableRecord
100
AcDbRegAppTableRecord
  2
ACAD
 70
0
  0
ENDTAB
  0
TABLE
  2
BLOCK_RECORD
  5
1
100
AcDbSymbolTable
 70
0
  0
BLOCK_RECORD
  5
212
100
AcDbSymbolTableRecord
100
AcDbBlockTableRecord
  2
*Model_Space
  0
BLOCK_RECORD
  5
213
100
AcDbSymbolTableRecord
100
AcDbBlockTableRecord
  2
*Paper_Space
  0
ENDTAB
  0
TABLE
  2
DIMSTYLE
  5
A
100
AcDbSymbolTable
 70
1
100
AcDbDimStyleTable
 71
0
  0
DIMSTYLE
105
214
100
AcDbSymbolTableRecord
100
AcDbDimStyleTableRecord
  2
STANDARD
 70
0
  3

  4

 40
1.0
 41
3.5
 42
0.0625
 43
0.38
 44
0.18
 45
0.0
 46
0.0
 47
0.005
 48
0.005
140
3.5
141
0.09
142
0.0
143
25.4
144
1.0
145
0.0
146
1.0
147
0.09
 71
1.0
 72
0.0
 73
0
 74
0
 75
0
 76
0
 77
1
 78
8
170
0
171
2
172
0
173
0
174
0
175
0
176
0
177
0
178
5
270
2
271
3
272
3
273
2
274
2
275
0
280
0
281
0
282
0
283
1
284
8
285
0
286
0
287
3
288
0
340
11
  0
ENDTAB
  0
ENDSEC
  0
SECTION
  2
BLOCKS
  0
BLOCK
  5
20
100
AcDbEntity
  8
0
100
AcDbBlockBegin
  2
*Model_Space
 70
0
 10
0.0
 20
0.0
 30
0.0
  3
*Model_Space
  1

  0
ENDBLK
  5
21
100
AcDbEntity
  8
0
100
AcDbBlockEnd
  0
BLOCK
  5
1C
100
AcDbEntity
  8
0
100
AcDbBlockBegin
  2
*Paper_Space
 70
0
 10
0.0
 20
0.0
 30
0.0
  3
*Paper_Space
  1

  0
ENDBLK
  5
1D
100
AcDbEntity
  8
0
100
AcDbBlockEnd
  0
ENDSEC
  0
SECTION
  2
ENTITIES
  0
MTEXT
  5
215
100
AcDbEntity
  8
0
100
AcDbMText
 62
5
  6
CONTINUOUS
  7
STANDARD
 71
1
 72
1
 10
333.7011730202
 20
214.7254723512
 30
0.0
 11
1.0
 21
0.0
 31
0.0
 44
0.9
  1
VWBG 8t M36
 40
8.0
 41
73.9047619048
  0
MTEXT
  5
216
100
AcDbEntity
  8
0
100
AcDbMText
 62
5
  6
CONTINUOUS
  7
STANDARD
 71
1
 72
1
 10
222.9296590962
 20
281.1866315784
 30
0.0
 11
0.0
 21
1.0
 31
0.0
 44
0.9
  1
VWBG 8t M36
 40
8.0
 41
73.9047619048
  0
MTEXT
  5
217
100
AcDbEntity
  8
0
100
AcDbMText
 62
5
  6
CONTINUOUS
  7
STANDARD
 71
1
 72
1
 10
222.971031783
 20
25.231580431
 30
0.0
 11
0.0
 21
1.0
 31
0.0
 44
0.9
  1
VWBG 8t M36
 40
8.0
 41
73.9047619048
  0
LINE
  5
218
100
AcDbEntity
  8
0
100
AcDbLine
 62
7
  6
CONTINUOUS
 10
0.0
 20
0.0
 11
0.0
 21
420.0
  0
LINE
  5
219
100
AcDbEntity
  8
0
100
AcDbLine
 62
7
  6
CONTINUOUS
 10
0.0
 20
0.0
 11
594.0
 21
0.0
  0
LINE
  5
21A
100
AcDbEntity
  8
0
100
AcDbLine
 62
7
  6
CONTINUOUS
 10
0.0
 20
420.0
 11
594.0
 21
420.0
  0
LINE
  5
21B
100
AcDbEntity
  8
0
100
AcDbLine
 62
7
  6
CONTINUOUS
 10
594.0
 20
0.0
 11
594.0
 21
420.0
  0
LINE
  5
21C
100
AcDbEntity
  8
0
100
AcDbLine
 62
7
  6
CONTINUOUS
 10
241.9012864581
 20
126.9738076384
 11
211.9012864581
 21
126.9738076384
  0
LINE
  5
21D
100
AcDbEntity
  8
0
100
AcDbLine
 62
7
  6
CONTINUOUS
 10
244.9012864581
 20
129.9738076384
 11
208.9012864581
 21
129.9738076384
  0
LINE
  5
21E
100
AcDbEntity
  8
0
100
AcDbLine
 62
7
  6
CONTINUOUS
 10
208.9012864581
 20
129.9738076384
 11
211.9012864581
 21
126.9738076384
  0
LINE
  5
21F
100
AcDbEntity
  8
FASEN
100
AcDbLine
 62
7
  6
CONTINUOUS
 10
271.4012864581
 20
180.9738076384
 11
182.4012864581
 21
180.9738076384
  0
LINE
  5
220
100
AcDbEntity
  8
FASEN
100
AcDbLine
 62
7
  6
CONTINUOUS
 10
181.9012864581
 20
181.4738076384
 11
182.4012864581
 21
180.9738076384
  0
LINE
  5
221
100
AcDbEntity
  8
FASEN
100
AcDbLine
 62
7
  6
CONTINUOUS
 10
271.9012864581
 20
181.4738076384
 11
181.9012864581
 21
181.4738076384
  0
LINE
  5
222
100
AcDbEntity
  8
BEZUGSACHSEN
100
AcDbLine
 62
7
  6
CONTINUOUS
 10
271.9012864581
 20
188.4738076384
 11
181.9012864581
 21
188.4738076384
  0
LINE
  5
223
100
AcDbEntity
  8
KONSTRUKTIONSELEMENTE
100
AcDbLine
 62
7
  6
CONTINUOUS
 10
240.0161635067
 20
189.4738076384
 11
213.7864094095
 21
189.4738076384
  0
LINE
  5
224
100
AcDbEntity
  8
0
100
AcDbLine
 62
7
  6
CONTINUOUS
 10
226.9012864581
 20
213.2397650834
 11
226.4012863985
 21
213.1121055241
  0
LINE
  5
225
100
AcDbEntity
  8
0
100
AcDbLine
 62
7
  6
CONTINUOUS
 10
225.4012864581
 20
215.1546587403
 11
225.9012865177
 21
215.2823182996
  0
LINE
  5
226
100
AcDbEntity
  8
0
100
AcDbLine
 62
7
  6
CONTINUOUS
 10
226.9012864581
 20
215.9206160958
 11
226.4012863985
 21
215.7929565366
  0
LINE
  5
227
100
AcDbEntity
  8
0
100
AcDbLine
 62
7
  6
CONTINUOUS
 10
225.4012864581
 20
217.7078502829
 11
225.9012865177
 21
217.8355098422
  0
LINE
  5
228
100
AcDbEntity
  8
0
100
AcDbLine
 62
7
  6
CONTINUOUS
 10
226.5262864581
 20
212.4738076384
 11
227.1512865773
 21
212.6014672089
  0
LINE
  5
229
100
AcDbEntity
  8
0
100
AcDbLine
 62
7
  6
CONTINUOUS
 10
225.9012865177
 20
218.4738076384
 11
225.2762864879
 21
218.3461480792
  0
LINE
  5
22A
100
AcDbEntity
  8
0
100
AcDbLine
 62
7
  6
CONTINUOUS
 10
225.7762864581
 20
212.4738076384
 11
226.5262864581
 21
212.4738076384
  0
LINE
  5
22B
100
AcDbEntity
  8
0
100
AcDbLine
 62
7
  6
CONTINUOUS
 10
226.4012863985
 20
213.1121055241
 11
225.9012865177
 21
213.1121055241
  0
LINE
  5
22C
100
AcDbEntity
  8
0
100
AcDbLine
 62
7
  6
CONTINUOUS
 10
225.9012865177
 20
215.2823182996
 11
226.4012863985
 21
215.2823182996
  0
LINE
  5
22D
100
AcDbEntity
  8
0
100
AcDbLine
 62
7
  6
CONTINUOUS
 10
226.4012863985
 20
215.7929565366
 11
225.9012865177
 21
215.7929565366
  0
LINE
  5
22E
100
AcDbEntity
  8
0
100
AcDbLine
 62
7
  6
CONTINUOUS
 10
229.4012865773
 20
216.0482756551
 11
230.4012866965
 21
216.0482756551
  0
LINE
  5
22F
100
AcDbEntity
  8
0
100
AcDbLine
 62
7
  6
CONTINUOUS
 10
231.0262864581
 20
216.0482756551
 11
232.4012862197
 21
216.0482756551
  0
LINE
  5
230
100
AcDbEntity
  8
0
100
AcDbLine
 62
7
  6
CONTINUOUS
 10
232.4012862197
 20
216.5589138921
 11
231.0262864581
 21
216.5589138921
  0
LINE
  5
231
100
AcDbEntity
  8
0
100
AcDbLine
 62
7
  6
CONTINUOUS
 10
230.4012866965
 20
216.5589138921
 11
229.4012865773
 21
216.5589138921
  0
LINE
  5
232
100
AcDbEntity
  8
0
100
AcDbLine
 62
7
  6
CONTINUOUS
 10
231.0262864581
 20
217.5801907237
 11
230.4012866965
 21
217.5801907237
  0
LINE
  5
233
100
AcDbEntity
  8
0
100
AcDbLine
 62
7
  6
CONTINUOUS
 10
225.9012865177
 20
217.8355098422
 11
226.4012863985
 21
217.8355098422
  0
LINE
  5
234
100
AcDbEntity
  8
0
100
AcDbLine
 62
7
  6
CONTINUOUS
 10
226.4012863985
 20
218.4738076384
 11
225.9012865177
 21
218.4738076384
  0
LINE
  5
235
100
AcDbEntity
  8
0
100
AcDbLine
 62
7
  6
CONTINUOUS
 10
231.4012864581
 20
212.6014672089
 11
232.1512864581
 21
212.4738076384
  0
LINE
  5
236
100
AcDbEntity
  8
0
100
AcDbLine
 62
7
  6
CONTINUOUS
 10
225.1512864283
 20
212.6014672089
 11
225.7762864581
 21
212.4738076384
  0
LINE
  5
237
100
AcDbEntity
  8
0
100
AcDbLine
 62
7
  6
CONTINUOUS
 10
232.1512864581
 20
212.9844459202
 11
231.5262866965
 21
213.1121055241
  0
LINE
  5
238
100
AcDbEntity
  8
0
100
AcDbLine
 62
7
  6
CONTINUOUS
 10
227.0262863389
 20
218.3461480792
 11
226.4012863985
 21
218.4738076384
  0
LINE
  5
239
100
AcDbEntity
  8
0
100
AcDbLine
 62
7
  6
CONTINUOUS
 10
225.9012865177
 20
213.1121055241
 11
225.4012864581
 21
213.2397650834
  0
LINE
  5
23A
100
AcDbEntity
  8
0
100
AcDbLine
 62
7
  6
CONTINUOUS
 10
226.4012863985
 20
215.2823182996
 11
226.9012864581
 21
215.1546587403
  0
LINE
  5
23B
100
AcDbEntity
  8
0
100
AcDbLine
 62
7
  6
CONTINUOUS
 10
225.9012865177
 20
215.7929565366
 11
225.4012864581
 21
215.9206160958
  0
LINE
  5
23C
100
AcDbEntity
  8
0
100
AcDbLine
 62
7
  6
CONTINUOUS
 10
226.4012863985
 20
217.8355098422
 11
226.9012864581
 21
217.7078502829
  0
LINE
  5
23D
100
AcDbEntity
  8
0
100
AcDbLine
 62
7
  6
CONTINUOUS
 10
231.0262864581
 20
212.7291267793
 11
231.4012864581
 21
212.6014672089
  0
LINE
  5
23E
100
AcDbEntity
  8
0
100
AcDbLine
 62
7
  6
CONTINUOUS
 10
225.4012864581
 20
213.2397650834
 11
224.9012864879
 21
213.4950842019
  0
LINE
  5
23F
100
AcDbEntity
  8
0
100
AcDbLine
 62
7
  6
CONTINUOUS
 10
224.6512864581
 20
215.6652969773
 11
224.9012864879
 21
215.5376374181
  0
LINE
  5
240
100
AcDbEntity
  8
0
100
AcDbLine
 62
7
  6
CONTINUOUS
 10
224.5262864432
 20
212.9844459202
 11
225.1512864283
 21
212.6014672089
  0
LINE
  5
241
100
AcDbEntity
  8
BEZUGSACHSEN
100
AcDbLine
 62
7
  6
CONTINUOUS
 10
181.9012864581
 20
188.4738076384
 11
181.9012864581
 21
181.4738076384
  0
LINE
  5
242
100
AcDbEntity
  8
BEZUGSACHSEN
100
AcDbLine
 62
7
  6
CONTINUOUS
 10
183.9012864581
 20
226.4738076384
 11
183.9012864581
 21
191.3022347632
  0
LINE
  5
243
100
AcDbEntity
  8
BEZUGSACHSEN
100
AcDbLine
 62
7
  6
CONTINUOUS
 10
186.9012864581
 20
247.2888454369
 11
186.9012864581
 21
228.4738076384
  0
LINE
  5
244
100
AcDbEntity
  8
KONSTRUKTIONSELEMENTE
100
AcDbLine
 62
7
  6
CONTINUOUS
 10
269.9012864581
 20
226.4738076384
 11
242.6810202962
 21
226.4738076384
  0
LINE
  5
245
100
AcDbEntity
  8
KONSTRUKTIONSELEMENTE
100
AcDbLine
 62
7
  6
CONTINUOUS
 10
211.1215526201
 20
226.4738076384
 11
183.9012864581
 21
226.4738076384
  0
LINE
  5
246
100
AcDbEntity
  8
BEZUGSACHSEN
100
AcDbLine
 62
7
  6
CONTINUOUS
 10
235.9012864581
 20
228.4738076384
 11
217.9012864581
 21
228.4738076384
  0
LINE
  5
247
100
AcDbEntity
  8
KONSTRUKTIONSELEMENTE
100
AcDbLine
 62
7
  6
CONTINUOUS
 10
185.9012864581
 20
228.4738076384
 11
267.9012864581
 21
228.4738076384
  0
LINE
  5
248
100
AcDbEntity
  8
0
100
AcDbLine
 62
7
  6
CONTINUOUS
 10
226.9012864581
 20
215.1546587403
 11
227.4012863389
 21
214.8993396218
  0
LINE
  5
249
100
AcDbEntity
  8
0
100
AcDbLine
 62
7
  6
CONTINUOUS
 10
227.6512864581
 20
215.4099778588
 11
227.4012863389
 21
215.5376374181
  0
LINE
  5
24A
100
AcDbEntity
  8
0
100
AcDbLine
 62
7
  6
CONTINUOUS
 10
227.6512864581
 20
217.9631694014
 11
227.0262863389
 21
218.3461480792
  0
LINE
  5
24B
100
AcDbEntity
  8
0
100
AcDbLine
 62
7
  6
CONTINUOUS
 10
230.6512864581
 20
212.9844459202
 11
231.0262864581
 21
212.7291267793
  0
LINE
  5
24C
100
AcDbEntity
  8
0
100
AcDbLine
 62
7
  6
CONTINUOUS
 10
231.5262866965
 20
213.1121055241
 11
231.1512866965
 21
213.3674246426
  0
LINE
  5
24D
100
AcDbEntity
  8
0
100
AcDbLine
 62
7
  6
CONTINUOUS
 10
225.4012864581
 20
215.9206160958
 11
224.9012864879
 21
216.3035947736
  0
LINE
  5
24E
100
AcDbEntity
  8
0
100
AcDbLine
 62
7
  6
CONTINUOUS
 10
228.1512863389
 20
215.0269991811
 11
227.6512864581
 21
215.4099778588
  0
LINE
  5
24F
100
AcDbEntity
  8
0
100
AcDbLine
 62
7
  6
CONTINUOUS
 10
226.9012864581
 20
217.7078502829
 11
227.4012863389
 21
217.3248716052
  0
LINE
  5
250
100
AcDbEntity
  8
0
100
AcDbLine
 62
7
  6
CONTINUOUS
 10
224.1512864656
 20
213.3674246426
 11
224.5262864432
 21
212.9844459202
  0
LINE
  5
251
100
AcDbEntity
  8
0
100
AcDbLine
 62
7
  6
CONTINUOUS
 10
224.2762864581
 20
216.0482756551
 11
224.6512864581
 21
215.6652969773
  0
LINE
  5
252
100
AcDbEntity
  8
BEZUGSACHSEN
100
AcDbLine
 62
7
  6
CONTINUOUS
 10
190.376502705
 20
239.4956683436
 11
182.7353371292
 21
257.943073909
  0
LINE
  5
253
100
AcDbEntity
  8
BEZUGSACHSEN
100
AcDbLine
 62
7
  6
CONTINUOUS
 10
182.7356222991
 20
261.0052298287
 11
194.5888519898
 21
289.6214577061
  0
LINE
  5
254
100
AcDbEntity
  8
BEZUGSACHSEN
100
AcDbLine
 62
7
  6
CONTINUOUS
 10
196.7536363904
 20
291.7862421067
 11
215.6512864581
 21
299.6139050618
  0
LINE
  5
255
100
AcDbEntity
  8
RUNDUNGEN
100
AcDbLine
 62
7
  6
CONTINUOUS
 10
196.7536363904
 20
291.7862421067
 11
215.6512864581
 21
299.6139050618
  0
LINE
  5
256
100
AcDbEntity
  8
BEZUGSACHSEN
100
AcDbLine
 62
7
  6
CONTINUOUS
 10
253.1300034539
 20
237.9738076384
 11
200.6725694623
 21
237.9738076384
  0
LINE
  5
257
100
AcDbEntity
  8
0
100
AcDbLine
 62
7
  6
CONTINUOUS
 10
228.0262864581
 20
217.5801907237
 11
227.6512864581
 21
217.9631694014
  0
LINE
  5
258
100
AcDbEntity
  8
0
100
AcDbLine
 62
7
  6
CONTINUOUS
 10
224.9012864879
 20
213.4950842019
 11
224.5262864432
 21
214.0057225283
  0
LINE
  5
259
100
AcDbEntity
  8
0
100
AcDbLine
 62
7
  6
CONTINUOUS
 10
227.4012863389
 20
214.8993396218
 11
227.7762863389
 21
214.388701206
  0
LINE
  5
25A
100
AcDbEntity
  8
0
100
AcDbLine
 62
7
  6
CONTINUOUS
 10
224.9012864879
 20
216.3035947736
 11
224.6512864581
 21
216.6865734513
  0
LINE
  5
25B
100
AcDbEntity
  8
0
100
AcDbLine
 62
7
  6
CONTINUOUS
 10
203.7056334455
 20
277.5751613197
 11
203.7884431191
 21
278.1304362886
  0
LINE
  5
25C
100
AcDbEntity
  8
0
100
AcDbLine
 62
7
  6
CONTINUOUS
 10
209.1570127541
 20
280.6553971652
 11
209.0513841071
 21
280.2141993787
  0
LINE
  5
25D
100
AcDbEntity
  8
0
100
AcDbLine
 62
7
  6
CONTINUOUS
 10
203.1135511491
 20
277.8443967011
 11
202.999500231
 21
277.465036251
  0
LINE
  5
25E
100
AcDbEntity
  8
0
100
AcDbLine
 62
7
  6
CONTINUOUS
 10
209.6592272187
 20
279.7316618954
 11
209.857329033
 21
280.2569654067
  0
LINE
  5
25F
100
AcDbEntity
  8
0
100
AcDbLine
 62
7
  6
CONTINUOUS
 10
209.0513841071
 20
280.2141993787
 11
208.7673871939
 21
279.7833363439
  0
LINE
  5
260
100
AcDbEntity
  8
0
100
AcDbLine
 62
7
  6
CONTINUOUS
 10
200.8491095183
 20
278.8471476092
 11
199.1056043951
 21
276.4057975963
  0
LINE
  5
261
100
AcDbEntity
  8
0
100
AcDbLine
 62
7
  6
CONTINUOUS
 10
200.0609167869
 20
276.6451766069
 11
201.4411916068
 21
278.5779119367
  0
LINE
  5
262
100
AcDbEntity
  8
0
100
AcDbLine
 62
7
  6
CONTINUOUS
 10
202.999500231
 20
277.465036251
 11
201.619225411
 21
275.5323009212
  0
LINE
  5
263
100
AcDbEntity
  8
0
100
AcDbLine
 62
7
  6
CONTINUOUS
 10
202.2425487443
 20
275.08715073
 11
203.4775315052
 21
276.8164402739
  0
LINE
  5
264
100
AcDbEntity
  8
0
100
AcDbLine
 62
7
  6
CONTINUOUS
 10
203.9883044208
 20
272.9187873499
 11
204.4241807016
 21
273.5291248531
  0
LINE
  5
265
100
AcDbEntity
  8
0
100
AcDbLine
 62
7
  6
CONTINUOUS
 10
206.2403318023
 20
276.0721976862
 11
206.7488542685
 21
276.7842583006
  0
LINE
  5
266
100
AcDbEntity
  8
0
100
AcDbLine
 62
7
  6
CONTINUOUS
 10
209.2827577124
 20
279.2166935675
 11
209.6592272187
 21
279.7316618954
  0
LINE
  5
267
100
AcDbEntity
  8
0
100
AcDbLine
 62
7
  6
CONTINUOUS
 10
214.1597431689
 20
283.6992784769
 11
213.7895308706
 21
283.3397797419
  0
LINE
  5
268
100
AcDbEntity
  8
0
100
AcDbLine
 62
7
  6
CONTINUOUS
 10
201.3162270438
 20
279.2815705937
 11
200.8491095183
 21
278.8471476092
  0
LINE
  5
269
100
AcDbEntity
  8
0
100
AcDbLine
 62
7
  6
CONTINUOUS
 10
206.7252560697
 20
285.0010851778
 11
206.1704183498
 21
284.4964515438
  0
LINE
  5
26A
100
AcDbEntity
  8
0
100
AcDbLine
 62
7
  6
CONTINUOUS
 10
203.9510674702
 20
282.4779170077
 11
203.3962294858
 21
281.9732831331
  0
LINE
  5
26B
100
AcDbEntity
  8
0
100
AcDbLine
 62
7
  6
CONTINUOUS
 10
208.7673871939
 20
279.7833363439
 11
208.3974952042
 21
279.4469137608
  0
LINE
  5
26C
100
AcDbEntity
  8
0
100
AcDbLine
 62
7
  6
CONTINUOUS
 10
208.9128657228
 20
278.8802709844
 11
209.2827577124
 21
279.2166935675
  0
LINE
  5
26D
100
AcDbEntity
  8
0
100
AcDbLine
 62
7
  6
CONTINUOUS
 10
201.4411916068
 20
278.5779119367
 11
201.7630169694
 21
278.8088889898
  0
LINE
  5
26E
100
AcDbEntity
  8
0
100
AcDbLine
 62
7
  6
CONTINUOUS
 10
211.1854855101
 20
287.8800604853
 11
208.5831294752
 21
286.3874979011
  0
LINE
  5
26F
100
AcDbEntity
  8
0
100
AcDbLine
 62
7
  6
CONTINUOUS
 10
209.6147982472
 20
286.0962072983
 11
211.5665652734
 21
287.2156292365
  0
LINE
  5
270
100
AcDbEntity
  8
0
100
AcDbLine
 62
7
  6
CONTINUOUS
 10
213.7895308706
 20
283.3397797419
 11
211.8377638445
 21
282.2203578038
  0
LINE
  5
271
100
AcDbEntity
  8
0
100
AcDbLine
 62
7
  6
CONTINUOUS
 10
211.7911567249
 20
288.0802727194
 11
211.1854855101
 21
287.8800604853
  0
LINE
  5
272
100
AcDbEntity
  8
BEZUGSACHSEN
100
AcDbLine
 62
7
  6
CONTINUOUS
 10
270.4870728957
 20
189.8880212008
 11
271.9012864581
 21
188.4738076384
  0
LINE
  5
273
100
AcDbEntity
  8
0
100
AcDbLine
 62
7
  6
CONTINUOUS
 10
227.4012863389
 20
217.3248716052
 11
227.6512864581
 21
216.9418925698
  0
LINE
  5
274
100
AcDbEntity
  8
0
100
AcDbLine
 62
7
  6
CONTINUOUS
 10
224.0262864618
 20
216.5589138921
 11
224.2762864581
 21
216.0482756551
  0
LINE
  5
275
100
AcDbEntity
  8
0
100
AcDbLine
 62
7
  6
CONTINUOUS
 10
230.4012866965
 20
213.4950842019
 11
230.6512864581
 21
212.9844459202
  0
LINE
  5
276
100
AcDbEntity
  8
0
100
AcDbLine
 62
7
  6
CONTINUOUS
 10
223.9012864581
 20
214.0057225283
 11
224.1512864656
 21
213.3674246426
  0
LINE
  5
277
100
AcDbEntity
  8
0
100
AcDbLine
 62
7
  6
CONTINUOUS
 10
228.4012864581
 20
214.388701206
 11
228.1512863389
 21
215.0269991811
  0
LINE
  5
278
100
AcDbEntity
  8
0
100
AcDbLine
 62
7
  6
CONTINUOUS
 10
203.7884431191
 20
278.1304362886
 11
203.5908323706
 21
278.7323718343
  0
LINE
  5
279
100
AcDbEntity
  8
0
100
AcDbLine
 62
7
  6
CONTINUOUS
 10
203.0510688676
 20
278.1962260296
 11
203.1135511491
 21
277.8443967011
  0
LINE
  5
27A
100
AcDbEntity
  8
0
100
AcDbLine
 62
7
  6
CONTINUOUS
 10
215.135626682
 20
284.2589894459
 11
215.0984368785
 21
284.826324142
  0
LINE
  5
27B
100
AcDbEntity
  8
0
100
AcDbLine
 62
7
  6
CONTINUOUS
 10
208.9012864581
 20
180.9738076384
 11
208.9012864581
 21
129.9738076384
  0
LINE
  5
27C
100
AcDbEntity
  8
KONSTRUKTIONSELEMENTE
100
AcDbLine
 62
7
  6
CONTINUOUS
 10
211.1215526201
 20
226.4738076384
 11
211.1215526201
 21
191.4738076384
  0
LINE
  5
27D
100
AcDbEntity
  8
KONSTRUKTIONSELEMENTE
100
AcDbLine
 62
7
  6
CONTINUOUS
 10
215.6512864581
 20
263.7238076384
 11
215.6512864581
 21
400.2238076384
  0
LINE
  5
27E
100
AcDbEntity
  8
0
100
AcDbLine
 62
7
  6
CONTINUOUS
 10
209.857329033
 20
280.2569654067
 11
209.8836406869
 21
280.9711498297
  0
LINE
  5
27F
100
AcDbEntity
  8
0
100
AcDbLine
 62
7
  6
CONTINUOUS
 10
214.3843345759
 20
284.5639220374
 11
214.358011041
 21
284.1073259604
  0
LINE
  5
280
100
AcDbEntity
  8
0
100
AcDbLine
 62
7
  6
CONTINUOUS
 10
214.9559542876
 20
283.5672750478
 11
215.135626682
 21
284.2589894459
  0
LINE
  5
281
100
AcDbEntity
  8
0
100
AcDbLine
 62
7
  6
CONTINUOUS
 10
214.358011041
 20
284.1073259604
 11
214.1597431689
 21
283.6992784769
  0
LINE
  5
282
100
AcDbEntity
  8
0
100
AcDbLine
 62
7
  6
CONTINUOUS
 10
214.6492552999
 20
283.0970377423
 11
214.9559542876
 21
283.5672750478
  0
LINE
  5
283
100
AcDbEntity
  8
0
100
AcDbLine
 62
7
  6
CONTINUOUS
 10
214.1706106784
 20
282.6753484155
 11
214.6492552999
 21
283.0970377423
  0
LINE
  5
284
100
AcDbEntity
  8
0
100
AcDbLine
 62
7
  6
CONTINUOUS
 10
208.3646060487
 20
278.5541835765
 11
208.9128657228
 21
278.8802709844
  0
LINE
  5
285
100
AcDbEntity
  8
0
100
AcDbLine
 62
7
  6
CONTINUOUS
 10
211.5682546435
 20
281.1827858314
 11
214.1706106784
 21
282.6753484155
  0
LINE
  5
286
100
AcDbEntity
  8
0
100
AcDbLine
 62
7
  6
CONTINUOUS
 10
208.3974952042
 20
279.4469137608
 11
207.9417086673
 21
279.2049321106
  0
LINE
  5
287
100
AcDbEntity
  8
0
100
AcDbLine
 62
7
  6
CONTINUOUS
 10
240.4834923357
 20
286.5858214528
 11
240.1515072957
 21
286.4536348095
  0
LINE
  5
288
100
AcDbEntity
  8
0
100
AcDbLine
 62
7
  6
CONTINUOUS
 10
239.3977013971
 20
284.1346952403
 11
239.0657163209
 21
284.0025085153
  0
LINE
  5
289
100
AcDbEntity
  8
0
100
AcDbLine
 62
7
  6
CONTINUOUS
 10
243.9713018288
 20
285.3118109676
 11
244.3996325091
 21
285.4721396707
  0
LINE
  5
28A
100
AcDbEntity
  8
0
100
AcDbLine
 62
7
  6
CONTINUOUS
 10
201.9184728283
 20
279.4658870699
 11
201.3162270438
 21
279.2815705937
  0
LINE
  5
28B
100
AcDbEntity
  8
0
100
AcDbLine
 62
7
  6
CONTINUOUS
 10
199.1056043951
 20
276.4057975963
 11
203.9883044208
 21
272.9187873499
  0
LINE
  5
28C
100
AcDbEntity
  8
0
100
AcDbLine
 62
7
  6
CONTINUOUS
 10
204.4241807016
 20
273.5291248531
 11
202.2425487443
 21
275.08715073
  0
LINE
  5
28D
100
AcDbEntity
  8
0
100
AcDbLine
 62
7
  6
CONTINUOUS
 10
201.619225411
 20
275.5323009212
 11
200.0609167869
 21
276.6451766069
  0
LINE
  5
28E
100
AcDbEntity
  8
0
100
AcDbLine
 62
7
  6
CONTINUOUS
 10
203.3962294858
 20
281.9732831331
 11
206.0589772152
 21
279.0456287334
  0
LINE
  5
28F
100
AcDbEntity
  8
0
100
AcDbLine
 62
7
  6
CONTINUOUS
 10
202.8120531785
 20
278.5205239454
 11
203.0510688676
 21
278.1962260296
  0
LINE
  5
290
100
AcDbEntity
  8
0
100
AcDbLine
 62
7
  6
CONTINUOUS
 10
203.5908323706
 20
278.7323718343
 11
203.3518166815
 21
279.0566697501
  0
LINE
  5
291
100
AcDbEntity
  8
0
100
AcDbLine
 62
7
  6
CONTINUOUS
 10
208.8331660792
 20
281.5687971442
 11
209.0842732551
 21
281.1069295713
  0
LINE
  5
292
100
AcDbEntity
  8
0
100
AcDbLine
 62
7
  6
CONTINUOUS
 10
228.2762865773
 20
216.9418925698
 11
228.0262864581
 21
217.5801907237
  0
LINE
  5
293
100
AcDbEntity
  8
0
100
AcDbLine
 62
7
  6
CONTINUOUS
 10
231.1512866965
 20
213.3674246426
 11
231.0262864581
 21
213.7504034098
  0
LINE
  5
294
100
AcDbEntity
  8
0
100
AcDbLine
 62
7
  6
CONTINUOUS
 10
209.8836406869
 20
280.9711498297
 11
209.7250060514
 21
281.5171227536
  0
LINE
  5
295
100
AcDbEntity
  8
0
100
AcDbLine
 62
7
  6
CONTINUOUS
 10
209.0842732551
 20
281.1069295713
 11
209.1570127541
 21
280.6553971652
  0
LINE
  5
296
100
AcDbEntity
  8
0
100
AcDbLine
 62
7
  6
CONTINUOUS
 10
223.9012864581
 20
214.388701206
 11
223.9012864581
 21
214.0057225283
  0
LINE
  5
297
100
AcDbEntity
  8
0
100
AcDbLine
 62
7
  6
CONTINUOUS
 10
224.0262864618
 20
216.9418925698
 11
224.0262864618
 21
216.5589138921
  0
LINE
  5
298
100
AcDbEntity
  8
0
100
AcDbLine
 62
7
  6
CONTINUOUS
 10
224.5262864432
 20
214.0057225283
 11
224.5262864432
 21
214.388701206
  0
LINE
  5
299
100
AcDbEntity
  8
0
100
AcDbLine
 62
7
  6
CONTINUOUS
 10
224.6512864581
 20
216.6865734513
 11
224.6512864581
 21
216.9418925698
  0
LINE
  5
29A
100
AcDbEntity
  8
0
100
AcDbLine
 62
7
  6
CONTINUOUS
 10
227.6512864581
 20
216.9418925698
 11
227.6512864581
 21
216.6865734513
  0
LINE
  5
29B
100
AcDbEntity
  8
0
100
AcDbLine
 62
7
  6
CONTINUOUS
 10
227.7762863389
 20
214.388701206
 11
227.7762863389
 21
214.0057225283
  0
LINE
  5
29C
100
AcDbEntity
  8
0
100
AcDbLine
 62
7
  6
CONTINUOUS
 10
240.7528948175
 20
286.8853547712
 11
240.4834923357
 21
286.5858214528
  0
LINE
  5
29D
100
AcDbEntity
  8
0
100
AcDbLine
 62
7
  6
CONTINUOUS
 10
241.1175197827
 20
286.1653382077
 11
241.3869222646
 21
286.464871526
  0
LINE
  5
29E
100
AcDbEntity
  8
0
100
AcDbLine
 62
7
  6
CONTINUOUS
 10
239.6671038789
 20
284.4342285587
 11
239.3977013971
 21
284.1346952403
  0
LINE
  5
29F
100
AcDbEntity
  8
0
100
AcDbLine
 62
7
  6
CONTINUOUS
 10
240.0317288079
 20
283.7142119135
 11
240.301131326
 21
284.0137453136
  0
LINE
  5
2A0
100
AcDbEntity
  8
BEZUGSACHSEN
100
AcDbLine
 62
7
  6
CONTINUOUS
 10
185.9012864581
 20
228.4738076384
 11
183.9012864581
 21
226.4738076384
  0
LINE
  5
2A1
100
AcDbEntity
  8
0
100
AcDbLine
 62
7
  6
CONTINUOUS
 10
243.442843568
 20
285.8591033218
 11
242.9638896368
 21
285.4190432084
  0
LINE
  5
2A2
100
AcDbEntity
  8
0
100
AcDbLine
 62
7
  6
CONTINUOUS
 10
243.5680016332
 20
284.9745787038
 11
243.9713018288
 21
285.3118109676
  0
LINE
  5
2A3
100
AcDbEntity
  8
0
100
AcDbLine
 62
7
  6
CONTINUOUS
 10
244.8490885612
 20
281.0207646189
 11
244.5214441938
 21
280.7863582212
  0
LINE
  5
2A4
100
AcDbEntity
  8
0
100
AcDbLine
 62
7
  6
CONTINUOUS
 10
240.5678365879
 20
285.850338534
 11
241.1175197827
 21
286.1653382077
  0
LINE
  5
2A5
100
AcDbEntity
  8
0
100
AcDbLine
 62
7
  6
CONTINUOUS
 10
239.482045595
 20
283.3992121989
 11
240.0317288079
 21
283.7142119135
  0
LINE
  5
2A6
100
AcDbEntity
  8
0
100
AcDbLine
 62
7
  6
CONTINUOUS
 10
243.94682756
 20
286.1222592985
 11
243.442843568
 21
285.8591033218
  0
LINE
  5
2A7
100
AcDbEntity
  8
0
100
AcDbLine
 62
7
  6
CONTINUOUS
 10
203.4775315052
 20
276.8164402739
 11
206.2403318023
 21
276.0721976862
  0
LINE
  5
2A8
100
AcDbEntity
  8
0
100
AcDbLine
 62
7
  6
CONTINUOUS
 10
206.5809257269
 20
278.657532241
 11
207.1094520875
 21
278.4479816596
  0
LINE
  5
2A9
100
AcDbEntity
  8
0
100
AcDbLine
 62
7
  6
CONTINUOUS
 10
207.0498681058
 20
279.2566060861
 11
206.6138151997
 21
279.5502626081
  0
LINE
  5
2AA
100
AcDbEntity
  8
0
100
AcDbLine
 62
7
  6
CONTINUOUS
 10
202.5003912209
 20
278.7430992488
 11
202.8120531785
 21
278.5205239454
  0
LINE
  5
2AB
100
AcDbEntity
  8
0
100
AcDbLine
 62
7
  6
CONTINUOUS
 10
203.3518166815
 20
279.0566697501
 11
202.9362675017
 21
279.353436752
  0
LINE
  5
2AC
100
AcDbEntity
  8
0
100
AcDbLine
 62
7
  6
CONTINUOUS
 10
206.0589772152
 20
279.0456287334
 11
206.5809257269
 21
278.657532241
  0
LINE
  5
2AD
100
AcDbEntity
  8
BEZUGSACHSEN
100
AcDbLine
 62
7
  6
CONTINUOUS
 10
267.9012864581
 20
228.4738076384
 11
269.9012864581
 21
226.4738076384
  0
LINE
  5
2AE
100
AcDbEntity
  8
0
100
AcDbLine
 62
7
  6
CONTINUOUS
 10
206.6138151997
 20
279.5502626081
 11
203.9510674702
 21
282.4779170077
  0
LINE
  5
2AF
100
AcDbEntity
  8
0
100
AcDbLine
 62
7
  6
CONTINUOUS
 10
206.1704183498
 20
284.4964515438
 11
208.8331660792
 21
281.5687971442
  0
LINE
  5
2B0
100
AcDbEntity
  8
0
100
AcDbLine
 62
7
  6
CONTINUOUS
 10
209.3880037991
 20
282.0734307782
 11
206.7252560697
 21
285.0010851778
  0
LINE
  5
2B1
100
AcDbEntity
  8
0
100
AcDbLine
 62
7
  6
CONTINUOUS
 10
209.7250060514
 20
281.5171227536
 11
209.3880037991
 21
282.0734307782
  0
LINE
  5
2B2
100
AcDbEntity
  8
0
100
AcDbLine
 62
7
  6
CONTINUOUS
 10
208.5831294752
 20
286.3874979011
 11
211.5682546435
 21
281.1827858314
  0
LINE
  5
2B3
100
AcDbEntity
  8
0
100
AcDbLine
 62
7
  6
CONTINUOUS
 10
211.8377638445
 20
282.2203578038
 11
209.6147982472
 21
286.0962072983
  0
LINE
  5
2B4
100
AcDbEntity
  8
0
100
AcDbLine
 62
7
  6
CONTINUOUS
 10
213.286012991
 20
286.730144351
 11
214.2387124882
 21
285.0690660737
  0
LINE
  5
2B5
100
AcDbEntity
  8
0
100
AcDbLine
 62
7
  6
CONTINUOUS
 10
214.8893014969
 20
285.4422067198
 11
213.9366019997
 21
287.103284997
  0
LINE
  5
2B6
100
AcDbEntity
  8
0
100
AcDbLine
 62
7
  6
CONTINUOUS
 10
215.0984368785
 20
284.826324142
 11
214.8893014969
 21
285.4422067198
  0
LINE
  5
2B7
100
AcDbEntity
  8
0
100
AcDbLine
 62
7
  6
CONTINUOUS
 10
214.2387124882
 20
285.0690660737
 11
214.3843345759
 21
284.5639220374
  0
LINE
  5
2B8
100
AcDbEntity
  8
0
100
AcDbLine
 62
7
  6
CONTINUOUS
 10
228.2762865773
 20
216.5589138921
 11
228.2762865773
 21
216.9418925698
  0
LINE
  5
2B9
100
AcDbEntity
  8
0
100
AcDbLine
 62
7
  6
CONTINUOUS
 10
228.4012864581
 20
214.0057225283
 11
228.4012864581
 21
214.388701206
  0
LINE
  5
2BA
100
AcDbEntity
  8
0
100
AcDbLine
 62
7
  6
CONTINUOUS
 10
229.4012865773
 20
216.5589138921
 11
229.4012865773
 21
216.0482756551
  0
LINE
  5
2BB
100
AcDbEntity
  8
0
100
AcDbLine
 62
7
  6
CONTINUOUS
 10
230.4012866965
 20
217.5801907237
 11
230.4012866965
 21
216.5589138921
  0
LINE
  5
2BC
100
AcDbEntity
  8
0
100
AcDbLine
 62
7
  6
CONTINUOUS
 10
230.4012866965
 20
216.0482756551
 11
230.4012866965
 21
213.4950842019
  0
LINE
  5
2BD
100
AcDbEntity
  8
0
100
AcDbLine
 62
7
  6
CONTINUOUS
 10
231.0262864581
 20
213.7504034098
 11
231.0262864581
 21
216.0482756551
  0
LINE
  5
2BE
100
AcDbEntity
  8
0
100
AcDbLine
 62
7
  6
CONTINUOUS
 10
231.0262864581
 20
216.5589138921
 11
231.0262864581
 21
217.5801907237
  0
LINE
  5
2BF
100
AcDbEntity
  8
0
100
AcDbLine
 62
7
  6
CONTINUOUS
 10
232.1512864581
 20
212.4738076384
 11
232.1512864581
 21
212.9844459202
  0
LINE
  5
2C0
100
AcDbEntity
  8
0
100
AcDbLine
 62
7
  6
CONTINUOUS
 10
232.4012862197
 20
216.0482756551
 11
232.4012862197
 21
216.5589138921
  0
LINE
  5
2C1
100
AcDbEntity
  8
KONSTRUKTIONSELEMENTE
100
AcDbLine
 62
7
  6
CONTINUOUS
 10
238.1512864581
 20
263.7238076384
 11
238.1512864581
 21
400.2238076384
  0
LINE
  5
2C2
100
AcDbEntity
  8
0
100
AcDbLine
 62
7
  6
CONTINUOUS
 10
239.8630404122
 20
285.1851779963
 11
239.8222168598
 21
284.7843894229
  0
LINE
  5
2C3
100
AcDbEntity
  8
0
100
AcDbLine
 62
7
  6
CONTINUOUS
 10
242.2312706783
 20
282.9467769069
 11
242.4331986721
 21
283.4321651358
  0
LINE
  5
2C4
100
AcDbEntity
  8
0
100
AcDbLine
 62
7
  6
CONTINUOUS
 10
238.1512864581
 20
288.7280587171
 11
238.309312981
 21
289.0847967767
  0
LINE
  5
2C5
100
AcDbEntity
  8
0
100
AcDbLine
 62
7
  6
CONTINUOUS
 10
240.8563034714
 20
287.1187953473
 11
240.7528948175
 21
286.8853547712
  0
LINE
  5
2C6
100
AcDbEntity
  8
0
100
AcDbLine
 62
7
  6
CONTINUOUS
 10
239.8222168598
 20
284.7843894229
 11
239.6671038789
 21
284.4342285587
  0
LINE
  5
2C7
100
AcDbEntity
  8
0
100
AcDbLine
 62
7
  6
CONTINUOUS
 10
240.301131326
 20
284.0137453136
 11
240.5596529608
 21
284.5973467538
  0
LINE
  5
2C8
100
AcDbEntity
  8
0
100
AcDbLine
 62
7
  6
CONTINUOUS
 10
241.3869222646
 20
286.464871526
 11
241.5937397172
 21
286.9317530052
  0
LINE
  5
2C9
100
AcDbEntity
  8
0
100
AcDbLine
 62
7
  6
CONTINUOUS
 10
241.8290866758
 20
283.8766296404
 11
241.5515051583
 21
283.2884138498
  0
LINE
  5
2CA
100
AcDbEntity
  8
0
100
AcDbLine
 62
7
  6
CONTINUOUS
 10
242.9638896368
 20
285.4190432084
 11
241.8290866758
 21
283.8766296404
  0
LINE
  5
2CB
100
AcDbEntity
  8
0
100
AcDbLine
 62
7
  6
CONTINUOUS
 10
242.4331986721
 20
283.4321651358
 11
243.5680016332
 21
284.9745787038
  0
LINE
  5
2CC
100
AcDbEntity
  8
0
100
AcDbLine
 62
7
  6
CONTINUOUS
 10
245.002070004
 20
283.1270473821
 11
244.548148862
 21
282.5100820125
  0
LINE
  5
2CD
100
AcDbEntity
  8
0
100
AcDbLine
 62
7
  6
CONTINUOUS
 10
245.4543168566
 20
281.8433852557
 11
244.8490885612
 21
281.0207646189
  0
LINE
  5
2CE
100
AcDbEntity
  8
0
100
AcDbLine
 62
7
  6
CONTINUOUS
 10
245.3775470339
 20
280.4734725527
 11
246.512349995
 21
282.0158861207
  0
LINE
  5
2CF
100
AcDbEntity
  8
0
100
AcDbLine
 62
7
  6
CONTINUOUS
 10
244.9742490898
 20
280.1362385214
 11
245.3775470339
 21
280.4734725527
  0
LINE
  5
2D0
100
AcDbEntity
  8
0
100
AcDbLine
 62
7
  6
CONTINUOUS
 10
238.8697798284
 20
283.2515591697
 11
239.482045595
 21
283.3992121989
  0
LINE
  5
2D1
100
AcDbEntity
  8
0
100
AcDbLine
 62
7
  6
CONTINUOUS
 10
244.2688928696
 20
280.0212384739
 11
244.9742490898
 21
280.1362385214
  0
LINE
  5
2D2
100
AcDbEntity
  8
0
100
AcDbLine
 62
7
  6
CONTINUOUS
 10
202.5519598575
 20
279.4742890274
 11
201.9184728283
 21
279.4658870699
  0
LINE
  5
2D3
100
AcDbEntity
  8
0
100
AcDbLine
 62
7
  6
CONTINUOUS
 10
207.1094520875
 20
278.4479816596
 11
207.8229238837
 21
278.4066419216
  0
LINE
  5
2D4
100
AcDbEntity
  8
0
100
AcDbLine
 62
7
  6
CONTINUOUS
 10
206.7488542685
 20
276.7842583006
 11
203.7056334455
 21
277.5751613197
  0
LINE
  5
2D5
100
AcDbEntity
  8
0
100
AcDbLine
 62
7
  6
CONTINUOUS
 10
207.4924995944
 20
279.1414962632
 11
207.0498681058
 21
279.2566060861
  0
LINE
  5
2D6
100
AcDbEntity
  8
0
100
AcDbLine
 62
7
  6
CONTINUOUS
 10
202.1160835767
 20
278.8639515242
 11
202.5003912209
 21
278.7430992488
  0
LINE
  5
2D7
100
AcDbEntity
  8
0
100
AcDbLine
 62
7
  6
CONTINUOUS
 10
202.9362675017
 20
279.353436752
 11
202.5519598575
 21
279.4742890274
  0
LINE
  5
2D8
100
AcDbEntity
  8
0
100
AcDbLine
 62
7
  6
CONTINUOUS
 10
212.5161252516
 20
287.3187441285
 11
212.9235287277
 21
287.1109086464
  0
LINE
  5
2D9
100
AcDbEntity
  8
0
100
AcDbLine
 62
7
  6
CONTINUOUS
 10
213.5106042646
 20
287.5947881442
 11
213.0396876725
 21
287.9133618575
  0
LINE
  5
2DA
100
AcDbEntity
  8
0
100
AcDbLine
 62
7
  6
CONTINUOUS
 10
212.9235287277
 20
287.1109086464
 11
213.286012991
 21
286.730144351
  0
LINE
  5
2DB
100
AcDbEntity
  8
0
100
AcDbLine
 62
7
  6
CONTINUOUS
 10
213.9366019997
 20
287.103284997
 11
213.5106042646
 21
287.5947881442
  0
LINE
  5
2DC
100
AcDbEntity
  8
KONSTRUKTIONSELEMENTE
100
AcDbLine
 62
7
  6
CONTINUOUS
 10
242.6810202962
 20
226.4738076384
 11
242.6810202962
 21
191.4738076384
  0
LINE
  5
2DD
100
AcDbEntity
  8
0
100
AcDbLine
 62
7
  6
CONTINUOUS
 10
244.9012864581
 20
180.9738076384
 11
244.9012864581
 21
129.9738076384
  0
LINE
  5
2DE
100
AcDbEntity
  8
0
100
AcDbLine
 62
7
  6
CONTINUOUS
 10
242.2056800046
 20
282.4901399524
 11
242.2312706783
 21
282.9467769069
  0
LINE
  5
2DF
100
AcDbEntity
  8
0
100
AcDbLine
 62
7
  6
CONTINUOUS
 10
240.5596529608
 20
284.5973467538
 11
240.6004765131
 21
284.9981353272
  0
LINE
  5
2E0
100
AcDbEntity
  8
0
100
AcDbLine
 62
7
  6
CONTINUOUS
 10
240.8971270962
 20
287.5195840842
 11
240.8563034714
 21
287.1187953473
  0
LINE
  5
2E1
100
AcDbEntity
  8
0
100
AcDbLine
 62
7
  6
CONTINUOUS
 10
241.5937397172
 20
286.9317530052
 11
241.6345631972
 21
287.3325414151
  0
LINE
  5
2E2
100
AcDbEntity
  8
0
100
AcDbLine
 62
7
  6
CONTINUOUS
 10
241.5515051583
 20
283.2884138498
 11
241.4502609079
 21
282.7289492617
  0
LINE
  5
2E3
100
AcDbEntity
  8
0
100
AcDbLine
 62
7
  6
CONTINUOUS
 10
246.7153966982
 20
283.7683579396
 11
246.5891197117
 21
283.3857986796
  0
LINE
  5
2E4
100
AcDbEntity
  8
0
100
AcDbLine
 62
7
  6
CONTINUOUS
 10
224.2762864581
 20
217.5801907237
 11
224.0262864618
 21
216.9418925698
  0
LINE
  5
2E5
100
AcDbEntity
  8
0
100
AcDbLine
 62
7
  6
CONTINUOUS
 10
224.1512864656
 20
215.0269991811
 11
223.9012864581
 21
214.388701206
  0
LINE
  5
2E6
100
AcDbEntity
  8
0
100
AcDbLine
 62
7
  6
CONTINUOUS
 10
247.193231708
 20
282.941334175
 11
247.470815742
 21
283.5295485582
  0
LINE
  5
2E7
100
AcDbEntity
  8
0
100
AcDbLine
 62
7
  6
CONTINUOUS
 10
207.8229238837
 20
278.4066419216
 11
208.3646060487
 21
278.5541835765
  0
LINE
  5
2E8
100
AcDbEntity
  8
0
100
AcDbLine
 62
7
  6
CONTINUOUS
 10
244.6521837538
 20
286.23725931
 11
243.94682756
 21
286.1222592985
  0
LINE
  5
2E9
100
AcDbEntity
  8
0
100
AcDbLine
 62
7
  6
CONTINUOUS
 10
201.7630169694
 20
278.8088889898
 11
202.1160835767
 21
278.8639515242
  0
LINE
  5
2EA
100
AcDbEntity
  8
0
100
AcDbLine
 62
7
  6
CONTINUOUS
 10
207.9417086673
 20
279.2049321106
 11
207.4924995944
 21
279.1414962632
  0
LINE
  5
2EB
100
AcDbEntity
  8
0
100
AcDbLine
 62
7
  6
CONTINUOUS
 10
240.2875558749
 20
285.8348721788
 11
240.5678365879
 21
285.850338534
  0
LINE
  5
2EC
100
AcDbEntity
  8
0
100
AcDbLine
 62
7
  6
CONTINUOUS
 10
212.3519089048
 20
288.1075558299
 11
211.7911567249
 21
288.0802727194
  0
LINE
  5
2ED
100
AcDbEntity
  8
0
100
AcDbLine
 62
7
  6
CONTINUOUS
 10
244.5214441938
 20
280.7863582212
 11
244.0680810953
 21
280.8029352783
  0
LINE
  5
2EE
100
AcDbEntity
  8
0
100
AcDbLine
 62
7
  6
CONTINUOUS
 10
244.3996325091
 20
285.4721396707
 11
244.8529955546
 21
285.4555625416
  0
LINE
  5
2EF
100
AcDbEntity
  8
0
100
AcDbLine
 62
7
  6
CONTINUOUS
 10
212.0638041594
 20
287.3536508884
 11
212.5161252516
 21
287.3187441285
  0
LINE
  5
2F0
100
AcDbEntity
  8
0
100
AcDbLine
 62
7
  6
CONTINUOUS
 10
239.0657163209
 20
284.0025085153
 11
238.671146107
 21
284.0376697058
  0
LINE
  5
2F1
100
AcDbEntity
  8
0
100
AcDbLine
 62
7
  6
CONTINUOUS
 10
240.1515072957
 20
286.4536348095
 11
239.7569370817
 21
286.488796
  0
LINE
  5
2F2
100
AcDbEntity
  8
0
100
AcDbLine
 62
7
  6
CONTINUOUS
 10
243.7148437032
 20
280.1118935586
 11
244.2688928696
 21
280.0212384739
  0
LINE
  5
2F3
100
AcDbEntity
  8
0
100
AcDbLine
 62
7
  6
CONTINUOUS
 10
245.2062329003
 20
286.1466041983
 11
244.6521837538
 21
286.23725931
  0
LINE
  5
2F4
100
AcDbEntity
  8
0
100
AcDbLine
 62
7
  6
CONTINUOUS
 10
238.246630608
 20
283.3879754415
 11
238.8697798284
 21
283.2515591697
  0
LINE
  5
2F5
100
AcDbEntity
  8
0
100
AcDbLine
 62
7
  6
CONTINUOUS
 10
213.0396876725
 20
287.9133618575
 11
212.3519089048
 21
288.1075558299
  0
LINE
  5
2F6
100
AcDbEntity
  8
0
100
AcDbLine
 62
7
  6
CONTINUOUS
 10
244.0680810953
 20
280.8029352783
 11
243.5896854725
 21
280.9964179516
  0
LINE
  5
2F7
100
AcDbEntity
  8
0
100
AcDbLine
 62
7
  6
CONTINUOUS
 10
238.1512864581
 20
283.4302106449
 11
238.246630608
 21
283.3879754415
  0
LINE
  5
2F8
100
AcDbEntity
  8
0
100
AcDbLine
 62
7
  6
CONTINUOUS
 10
238.671146107
 20
284.0376697058
 11
238.1512864581
 21
284.2679552346
  0
LINE
  5
2F9
100
AcDbEntity
  8
0
100
AcDbLine
 62
7
  6
CONTINUOUS
 10
238.1512864581
 20
286.3623167578
 11
239.44671112
 21
285.7884742717
  0
LINE
  5
2FA
100
AcDbEntity
  8
0
100
AcDbLine
 62
7
  6
CONTINUOUS
 10
239.7569370817
 20
286.488796
 11
238.1512864581
 21
287.2000612497
  0
LINE
  5
2FB
100
AcDbEntity
  8
0
100
AcDbLine
 62
7
  6
CONTINUOUS
 10
243.1357642775
 20
280.37945251
 11
243.7148437032
 21
280.1118935586
  0
LINE
  5
2FC
100
AcDbEntity
  8
0
100
AcDbLine
 62
7
  6
CONTINUOUS
 10
242.2295962829
 20
281.0461492668
 11
243.1357642775
 21
280.37945251
  0
LINE
  5
2FD
100
AcDbEntity
  8
0
100
AcDbLine
 62
7
  6
CONTINUOUS
 10
243.5896854725
 20
280.9964179516
 11
242.6835174779
 21
281.6631147084
  0
LINE
  5
2FE
100
AcDbEntity
  8
0
100
AcDbLine
 62
7
  6
CONTINUOUS
 10
244.548148862
 20
282.5100820125
 11
245.4543168566
 21
281.8433852557
  0
LINE
  5
2FF
100
AcDbEntity
  8
0
100
AcDbLine
 62
7
  6
CONTINUOUS
 10
239.44671112
 20
285.7884742717
 11
239.73787268
 21
285.5198725051
  0
LINE
  5
300
100
AcDbEntity
  8
0
100
AcDbLine
 62
7
  6
CONTINUOUS
 10
241.8018239177
 20
281.5193633594
 11
242.2295962829
 21
281.0461492668
  0
LINE
  5
301
100
AcDbEntity
  8
0
100
AcDbLine
 62
7
  6
CONTINUOUS
 10
242.6835174779
 20
281.6631147084
 11
242.3564289025
 21
282.0622525049
  0
LINE
  5
302
100
AcDbEntity
  8
0
100
AcDbLine
 62
7
  6
CONTINUOUS
 10
240.464427934
 20
285.6168979579
 11
240.2875558749
 21
285.8348721788
  0
LINE
  5
303
100
AcDbEntity
  8
0
100
AcDbLine
 62
7
  6
CONTINUOUS
 10
241.5503888858
 20
282.0213287445
 11
241.8018239177
 21
281.5193633594
  0
LINE
  5
304
100
AcDbEntity
  8
0
100
AcDbLine
 62
7
  6
CONTINUOUS
 10
239.73787268
 20
285.5198725051
 11
239.8630404122
 21
285.1851779963
  0
LINE
  5
305
100
AcDbEntity
  8
0
100
AcDbLine
 62
7
  6
CONTINUOUS
 10
240.7719593641
 20
287.854278593
 11
240.8971270962
 21
287.5195840842
  0
LINE
  5
306
100
AcDbEntity
  8
0
100
AcDbLine
 62
7
  6
CONTINUOUS
 10
242.3564289025
 20
282.0622525049
 11
242.2056800046
 21
282.4901399524
  0
LINE
  5
307
100
AcDbEntity
  8
0
100
AcDbLine
 62
7
  6
CONTINUOUS
 10
240.6004765131
 20
284.9981353272
 11
240.464427934
 21
285.6168979579
  0
LINE
  5
308
100
AcDbEntity
  8
0
100
AcDbLine
 62
7
  6
CONTINUOUS
 10
241.6345631972
 20
287.3325414151
 11
241.498514618
 21
287.9513040458
  0
LINE
  5
309
100
AcDbEntity
  8
0
100
AcDbLine
 62
7
  6
CONTINUOUS
 10
241.4502609079
 20
282.7289492617
 11
241.5503888858
 21
282.0213287445
  0
LINE
  5
30A
100
AcDbEntity
  8
0
100
AcDbLine
 62
7
  6
CONTINUOUS
 10
228.1512863389
 20
213.3674246426
 11
228.4012864581
 21
214.0057225283
  0
LINE
  5
30B
100
AcDbEntity
  8
0
100
AcDbLine
 62
7
  6
CONTINUOUS
 10
228.0262864581
 20
216.0482756551
 11
228.2762865773
 21
216.5589138921
  0
LINE
  5
30C
100
AcDbEntity
  8
0
100
AcDbLine
 62
7
  6
CONTINUOUS
 10
224.6512864581
 20
216.9418925698
 11
224.9012864879
 21
217.3248716052
  0
LINE
  5
30D
100
AcDbEntity
  8
0
100
AcDbLine
 62
7
  6
CONTINUOUS
 10
227.6512864581
 20
216.6865734513
 11
227.4012863389
 21
216.3035947736
  0
LINE
  5
30E
100
AcDbEntity
  8
0
100
AcDbLine
 62
7
  6
CONTINUOUS
 10
224.5262864432
 20
214.388701206
 11
224.9012864879
 21
214.8993396218
  0
LINE
  5
30F
100
AcDbEntity
  8
BEZUGSACHSEN
100
AcDbLine
 62
7
  6
CONTINUOUS
 10
183.3155000205
 20
189.8880212008
 11
181.9012864581
 21
188.4738076384
  0
LINE
  5
310
100
AcDbEntity
  8
0
100
AcDbLine
 62
7
  6
CONTINUOUS
 10
211.5665652734
 20
287.2156292365
 11
212.0638041594
 21
287.3536508884
  0
LINE
  5
311
100
AcDbEntity
  8
0
100
AcDbLine
 62
7
  6
CONTINUOUS
 10
244.8529955546
 20
285.4555625416
 11
245.3313911774
 21
285.2620798684
  0
LINE
  5
312
100
AcDbEntity
  8
0
100
AcDbLine
 62
7
  6
CONTINUOUS
 10
238.309312981
 20
289.0847967767
 11
240.480797804
 21
288.1228803596
  0
LINE
  5
313
100
AcDbEntity
  8
0
100
AcDbLine
 62
7
  6
CONTINUOUS
 10
240.6767342648
 20
288.8738296337
 11
238.1512864581
 21
289.9925432806
  0
LINE
  5
314
100
AcDbEntity
  8
0
100
AcDbLine
 62
7
  6
CONTINUOUS
 10
245.7853123194
 20
285.8790452379
 11
245.2062329003
 21
286.1466041983
  0
LINE
  5
315
100
AcDbEntity
  8
0
100
AcDbLine
 62
7
  6
CONTINUOUS
 10
241.1964748268
 20
288.5039727755
 11
240.6767342648
 21
288.8738296337
  0
LINE
  5
316
100
AcDbEntity
  8
0
100
AcDbLine
 62
7
  6
CONTINUOUS
 10
246.512349995
 20
282.0158861207
 11
245.002070004
 21
283.1270473821
  0
LINE
  5
317
100
AcDbEntity
  8
0
100
AcDbLine
 62
7
  6
CONTINUOUS
 10
246.5891197117
 20
283.3857986796
 11
247.193231708
 21
282.941334175
  0
LINE
  5
318
100
AcDbEntity
  8
0
100
AcDbLine
 62
7
  6
CONTINUOUS
 10
245.3313911774
 20
285.2620798684
 11
246.237559172
 21
284.5953831115
  0
LINE
  5
319
100
AcDbEntity
  8
0
100
AcDbLine
 62
7
  6
CONTINUOUS
 10
246.691480314
 20
285.2123484811
 11
245.7853123194
 21
285.8790452379
  0
LINE
  5
31A
100
AcDbEntity
  8
0
100
AcDbLine
 62
7
  6
CONTINUOUS
 10
240.480797804
 20
288.1228803596
 11
240.7719593641
 21
287.854278593
  0
LINE
  5
31B
100
AcDbEntity
  8
0
100
AcDbLine
 62
7
  6
CONTINUOUS
 10
247.1192526858
 20
284.7391343975
 11
246.691480314
 21
285.2123484811
  0
LINE
  5
31C
100
AcDbEntity
  8
0
100
AcDbLine
 62
7
  6
CONTINUOUS
 10
246.237559172
 20
284.5953831115
 11
246.5646477474
 21
284.196245315
  0
LINE
  5
31D
100
AcDbEntity
  8
0
100
AcDbLine
 62
7
  6
CONTINUOUS
 10
241.498514618
 20
287.9513040458
 11
241.1964748268
 21
288.5039727755
  0
LINE
  5
31E
100
AcDbEntity
  8
0
100
AcDbLine
 62
7
  6
CONTINUOUS
 10
247.3706877376
 20
284.2371690394
 11
247.1192526858
 21
284.7391343975
  0
LINE
  5
31F
100
AcDbEntity
  8
0
100
AcDbLine
 62
7
  6
CONTINUOUS
 10
246.5646477474
 20
284.196245315
 11
246.7153966982
 21
283.7683579396
  0
LINE
  5
320
100
AcDbEntity
  8
0
100
AcDbLine
 62
7
  6
CONTINUOUS
 10
247.470815742
 20
283.5295485582
 11
247.3706877376
 21
284.2371690394
  0
LINE
  5
321
100
AcDbEntity
  8
BEZUGSACHSEN
100
AcDbLine
 62
7
  6
CONTINUOUS
 10
266.9012864581
 20
247.2888454369
 11
266.9012864581
 21
228.4738076384
  0
LINE
  5
322
100
AcDbEntity
  8
0
100
AcDbLine
 62
7
  6
CONTINUOUS
 10
227.7762863389
 20
214.0057225283
 11
227.4012863389
 21
213.4950842019
  0
LINE
  5
323
100
AcDbEntity
  8
0
100
AcDbLine
 62
7
  6
CONTINUOUS
 10
224.6512864581
 20
217.9631694014
 11
224.2762864581
 21
217.5801907237
  0
LINE
  5
324
100
AcDbEntity
  8
0
100
AcDbLine
 62
7
  6
CONTINUOUS
 10
227.6512864581
 20
215.6652969773
 11
228.0262864581
 21
216.0482756551
  0
LINE
  5
325
100
AcDbEntity
  8
0
100
AcDbLine
 62
7
  6
CONTINUOUS
 10
227.7762863389
 20
212.9844459202
 11
228.1512863389
 21
213.3674246426
  0
LINE
  5
326
100
AcDbEntity
  8
0
100
AcDbLine
 62
7
  6
CONTINUOUS
 10
224.9012864879
 20
217.3248716052
 11
225.4012864581
 21
217.7078502829
  0
LINE
  5
327
100
AcDbEntity
  8
RUNDUNGEN
100
AcDbLine
 62
7
  6
CONTINUOUS
 10
257.0489365258
 20
291.7862421067
 11
238.1512864581
 21
299.6139050618
  0
LINE
  5
328
100
AcDbEntity
  8
BEZUGSACHSEN
100
AcDbLine
 62
7
  6
CONTINUOUS
 10
271.0669506172
 20
261.0052298287
 11
259.2137209264
 21
289.6214577061
  0
LINE
  5
329
100
AcDbEntity
  8
BEZUGSACHSEN
100
AcDbLine
 62
7
  6
CONTINUOUS
 10
269.9012864581
 20
226.4738076384
 11
269.9012864581
 21
191.3022347632
  0
LINE
  5
32A
100
AcDbEntity
  8
BEZUGSACHSEN
100
AcDbLine
 62
7
  6
CONTINUOUS
 10
271.9012864581
 20
188.4738076384
 11
271.9012864581
 21
181.4738076384
  0
LINE
  5
32B
100
AcDbEntity
  8
BEZUGSACHSEN
100
AcDbLine
 62
7
  6
CONTINUOUS
 10
263.4260702112
 20
239.4956683436
 11
271.067235787
 21
257.943073909
  0
LINE
  5
32C
100
AcDbEntity
  8
0
100
AcDbLine
 62
7
  6
CONTINUOUS
 10
224.6512864581
 20
215.4099778588
 11
224.1512864656
 21
215.0269991811
  0
LINE
  5
32D
100
AcDbEntity
  8
0
100
AcDbLine
 62
7
  6
CONTINUOUS
 10
227.4012863389
 20
216.3035947736
 11
226.9012864581
 21
215.9206160958
  0
LINE
  5
32E
100
AcDbEntity
  8
0
100
AcDbLine
 62
7
  6
CONTINUOUS
 10
225.2762864879
 20
218.3461480792
 11
224.6512864581
 21
217.9631694014
  0
LINE
  5
32F
100
AcDbEntity
  8
0
100
AcDbLine
 62
7
  6
CONTINUOUS
 10
227.1512865773
 20
212.6014672089
 11
227.7762863389
 21
212.9844459202
  0
LINE
  5
330
100
AcDbEntity
  8
0
100
AcDbLine
 62
7
  6
CONTINUOUS
 10
224.9012864879
 20
215.5376374181
 11
224.6512864581
 21
215.4099778588
  0
LINE
  5
331
100
AcDbEntity
  8
0
100
AcDbLine
 62
7
  6
CONTINUOUS
 10
224.9012864879
 20
214.8993396218
 11
225.4012864581
 21
215.1546587403
  0
LINE
  5
332
100
AcDbEntity
  8
0
100
AcDbLine
 62
7
  6
CONTINUOUS
 10
227.4012863389
 20
215.5376374181
 11
227.6512864581
 21
215.6652969773
  0
LINE
  5
333
100
AcDbEntity
  8
0
100
AcDbLine
 62
7
  6
CONTINUOUS
 10
227.4012863389
 20
213.4950842019
 11
226.9012864581
 21
213.2397650834
  0
LINE
  5
334
100
AcDbEntity
  8
FASEN
100
AcDbLine
 62
7
  6
CONTINUOUS
 10
271.9012864581
 20
181.4738076384
 11
271.4012864581
 21
180.9738076384
  0
LINE
  5
335
100
AcDbEntity
  8
0
100
AcDbLine
 62
7
  6
CONTINUOUS
 10
244.9012864581
 20
129.9738076384
 11
241.9012864581
 21
126.9738076384
  0
LINE
  5
336
100
AcDbEntity
  8
0
100
AcDbLine
 62
7
  6
CONTINUOUS
 10
354.2859651145
 20
126.9738076384
 11
384.2859651145
 21
126.9738076384
  0
LINE
  5
337
100
AcDbEntity
  8
0
100
AcDbLine
 62
7
  6
CONTINUOUS
 10
351.2859651145
 20
129.9738076384
 11
387.2859651145
 21
129.9738076384
  0
LINE
  5
338
100
AcDbEntity
  8
0
100
AcDbLine
 62
7
  6
CONTINUOUS
 10
351.2859651145
 20
129.9738076384
 11
354.2859651145
 21
126.9738076384
  0
LINE
  5
339
100
AcDbEntity
  8
FASEN
100
AcDbLine
 62
7
  6
CONTINUOUS
 10
324.2859651145
 20
181.4738076384
 11
324.7859651145
 21
180.9738076384
  0
LINE
  5
33A
100
AcDbEntity
  8
FASEN
100
AcDbLine
 62
7
  6
CONTINUOUS
 10
324.7859651145
 20
180.9738076384
 11
413.7859651145
 21
180.9738076384
  0
LINE
  5
33B
100
AcDbEntity
  8
FASEN
100
AcDbLine
 62
7
  6
CONTINUOUS
 10
324.2859651145
 20
181.4738076384
 11
414.2859651145
 21
181.4738076384
  0
LINE
  5
33C
100
AcDbEntity
  8
BEZUGSACHSEN
100
AcDbLine
 62
7
  6
CONTINUOUS
 10
324.2859651145
 20
188.4738076384
 11
414.2859651145
 21
188.4738076384
  0
LINE
  5
33D
100
AcDbEntity
  8
KONSTRUKTIONSELEMENTE
100
AcDbLine
 62
7
  6
CONTINUOUS
 10
413.2859651145
 20
189.4738076384
 11
411.2859651145
 21
189.4738076384
  0
LINE
  5
33E
100
AcDbEntity
  8
KONSTRUKTIONSELEMENTE
100
AcDbLine
 62
7
  6
CONTINUOUS
 10
327.2859651145
 20
189.4738076384
 11
325.2859651145
 21
189.4738076384
  0
LINE
  5
33F
100
AcDbEntity
  8
KONSTRUKTIONSELEMENTE
100
AcDbLine
 62
7
  6
CONTINUOUS
 10
321.7859651145
 20
363.9738076384
 11
321.7859651145
 21
299.9738076384
  0
LINE
  5
340
100
AcDbEntity
  8
BEZUGSACHSEN
100
AcDbLine
 62
7
  6
CONTINUOUS
 10
324.2859651145
 20
188.4738076384
 11
324.2859651145
 21
181.4738076384
  0
LINE
  5
341
100
AcDbEntity
  8
BEZUGSACHSEN
100
AcDbLine
 62
7
  6
CONTINUOUS
 10
329.2859651145
 20
233.9738076384
 11
329.2859651145
 21
228.4738076384
  0
LINE
  5
342
100
AcDbEntity
  8
KONSTRUKTIONSELEMENTE
100
AcDbLine
 62
7
  6
CONTINUOUS
 10
329.2859651145
 20
191.4738076384
 11
329.2859651145
 21
228.4738076384
  0
LINE
  5
343
100
AcDbEntity
  8
KONSTRUKTIONSELEMENTE
100
AcDbLine
 62
7
  6
CONTINUOUS
 10
409.2859651145
 20
226.4738076384
 11
329.2859651145
 21
226.4738076384
  0
LINE
  5
344
100
AcDbEntity
  8
KONSTRUKTIONSELEMENTE
100
AcDbLine
 62
7
  6
CONTINUOUS
 10
329.2859651145
 20
228.4738076384
 11
409.2859651145
 21
228.4738076384
  0
LINE
  5
345
100
AcDbEntity
  8
BEZUGSACHSEN
100
AcDbLine
 62
7
  6
CONTINUOUS
 10
405.2859651145
 20
237.9738076384
 11
393.9448134855
 21
237.9738076384
  0
LINE
  5
346
100
AcDbEntity
  8
BEZUGSACHSEN
100
AcDbLine
 62
7
  6
CONTINUOUS
 10
344.6267310222
 20
237.9738076384
 11
333.2859651145
 21
237.9738076384
  0
LINE
  5
347
100
AcDbEntity
  8
KONSTRUKTIONSELEMENTE
100
AcDbLine
 62
7
  6
CONTINUOUS
 10
344.2859651145
 20
363.9738076384
 11
344.2859651145
 21
299.9738076384
  0
LINE
  5
348
100
AcDbEntity
  8
BEZUGSACHSEN
100
AcDbLine
 62
7
  6
CONTINUOUS
 10
413.2859651145
 20
189.4738076384
 11
414.2859651145
 21
188.4738076384
  0
LINE
  5
349
100
AcDbEntity
  8
0
100
AcDbLine
 62
7
  6
CONTINUOUS
 10
351.2859651145
 20
180.9738076384
 11
351.2859651145
 21
129.9738076384
  0
LINE
  5
34A
100
AcDbEntity
  8
0
100
AcDbLine
 62
7
  6
CONTINUOUS
 10
356.2859651145
 20
281.7326009596
 11
356.2859651145
 21
287.7025255822
  0
LINE
  5
34B
100
AcDbEntity
  8
BEZUGSACHSEN
100
AcDbLine
 62
7
  6
CONTINUOUS
 10
356.7859651145
 20
270.6188576135
 11
356.7859651145
 21
300.4854349374
  0
LINE
  5
34C
100
AcDbEntity
  8
RUNDUNGEN
100
AcDbLine
 62
7
  6
CONTINUOUS
 10
348.511006476
 20
242.207637508
 11
347.9738315925
 21
240.4506176336
  0
LINE
  5
34D
100
AcDbEntity
  8
BEZUGSACHSEN
100
AcDbLine
 62
7
  6
CONTINUOUS
 10
347.9738315925
 20
240.4506176336
 11
356.3927079181
 21
267.9875213081
  0
LINE
  5
34E
100
AcDbEntity
  8
0
100
AcDbLine
 62
7
  6
CONTINUOUS
 10
381.7859651145
 20
272.9187873499
 11
382.7859651145
 21
272.9187873499
  0
LINE
  5
34F
100
AcDbEntity
  8
0
100
AcDbLine
 62
7
  6
CONTINUOUS
 10
381.7859651145
 20
276.4057975963
 11
382.7859651145
 21
276.4057975963
  0
LINE
  5
350
100
AcDbEntity
  8
0
100
AcDbLine
 62
7
  6
CONTINUOUS
 10
381.7859651145
 20
278.8471476092
 11
382.7859651145
 21
278.8471476092
  0
LINE
  5
351
100
AcDbEntity
  8
0
100
AcDbLine
 62
7
  6
CONTINUOUS
 10
381.7859651145
 20
279.2815705937
 11
382.7859651145
 21
279.2815705937
  0
LINE
  5
352
100
AcDbEntity
  8
0
100
AcDbLine
 62
7
  6
CONTINUOUS
 10
381.7859651145
 20
279.4658870699
 11
382.7859651145
 21
279.4658870699
  0
LINE
  5
353
100
AcDbEntity
  8
0
100
AcDbLine
 62
7
  6
CONTINUOUS
 10
381.7859651145
 20
279.4742890274
 11
382.7859651145
 21
279.4742890274
  0
LINE
  5
354
100
AcDbEntity
  8
BEZUGSACHSEN
100
AcDbLine
 62
7
  6
CONTINUOUS
 10
381.7859651145
 20
270.6188576135
 11
381.7859651145
 21
300.4854349374
  0
LINE
  5
355
100
AcDbEntity
  8
0
100
AcDbLine
 62
7
  6
CONTINUOUS
 10
382.7859651145
 20
291.978044386
 11
382.7859651145
 21
291.7429385245
  0
LINE
  5
356
100
AcDbEntity
  8
0
100
AcDbLine
 62
7
  6
CONTINUOUS
 10
382.7859651145
 20
291.6925587108
 11
382.7859651145
 21
279.4742890274
  0
LINE
  5
357
100
AcDbEntity
  8
0
100
AcDbLine
 62
7
  6
CONTINUOUS
 10
382.7859651145
 20
279.4658870699
 11
382.7859651145
 21
272.9187873499
  0
LINE
  5
358
100
AcDbEntity
  8
0
100
AcDbLine
 62
7
  6
CONTINUOUS
 10
387.2859651145
 20
180.9738076384
 11
387.2859651145
 21
129.9738076384
  0
LINE
  5
359
100
AcDbEntity
  8
0
100
AcDbLine
 62
7
  6
CONTINUOUS
 10
356.7859651145
 20
281.7326009596
 11
356.2859651145
 21
281.7326009596
  0
LINE
  5
35A
100
AcDbEntity
  8
0
100
AcDbLine
 62
7
  6
CONTINUOUS
 10
381.7859651145
 20
281.9732831331
 11
382.7859651145
 21
281.9732831331
  0
LINE
  5
35B
100
AcDbEntity
  8
0
100
AcDbLine
 62
7
  6
CONTINUOUS
 10
381.7859651145
 20
282.4779170077
 11
382.7859651145
 21
282.4779170077
  0
LINE
  5
35C
100
AcDbEntity
  8
0
100
AcDbLine
 62
7
  6
CONTINUOUS
 10
356.7859651145
 20
282.6391023018
 11
356.2859651145
 21
282.6391023018
  0
LINE
  5
35D
100
AcDbEntity
  8
0
100
AcDbLine
 62
7
  6
CONTINUOUS
 10
356.7859651145
 20
284.2675632709
 11
356.2859651145
 21
284.2675632709
  0
LINE
  5
35E
100
AcDbEntity
  8
0
100
AcDbLine
 62
7
  6
CONTINUOUS
 10
381.7859651145
 20
284.4964515438
 11
382.7859651145
 21
284.4964515438
  0
LINE
  5
35F
100
AcDbEntity
  8
0
100
AcDbLine
 62
7
  6
CONTINUOUS
 10
381.7859651145
 20
285.0010851778
 11
382.7859651145
 21
285.0010851778
  0
LINE
  5
360
100
AcDbEntity
  8
0
100
AcDbLine
 62
7
  6
CONTINUOUS
 10
356.7859651145
 20
285.1740646132
 11
356.2859651145
 21
285.1740646132
  0
LINE
  5
361
100
AcDbEntity
  8
0
100
AcDbLine
 62
7
  6
CONTINUOUS
 10
381.7859651145
 20
286.3874979011
 11
382.7859651145
 21
286.3874979011
  0
LINE
  5
362
100
AcDbEntity
  8
0
100
AcDbLine
 62
7
  6
CONTINUOUS
 10
356.7859651145
 20
286.79602424
 11
356.2859651145
 21
286.79602424
  0
LINE
  5
363
100
AcDbEntity
  8
0
100
AcDbLine
 62
7
  6
CONTINUOUS
 10
356.7859651145
 20
287.7025255822
 11
356.2859651145
 21
287.7025255822
  0
LINE
  5
364
100
AcDbEntity
  8
0
100
AcDbLine
 62
7
  6
CONTINUOUS
 10
381.7859651145
 20
287.8800604853
 11
382.7859651145
 21
287.8800604853
  0
LINE
  5
365
100
AcDbEntity
  8
0
100
AcDbLine
 62
7
  6
CONTINUOUS
 10
381.7859651145
 20
288.0802727194
 11
382.7859651145
 21
288.0802727194
  0
LINE
  5
366
100
AcDbEntity
  8
0
100
AcDbLine
 62
7
  6
CONTINUOUS
 10
381.7859651145
 20
288.1075558299
 11
382.7859651145
 21
288.1075558299
  0
LINE
  5
367
100
AcDbEntity
  8
BEZUGSACHSEN
100
AcDbLine
 62
7
  6
CONTINUOUS
 10
390.5980986365
 20
240.4506176336
 11
382.1792223108
 21
267.9875213081
  0
LINE
  5
368
100
AcDbEntity
  8
KONSTRUKTIONSELEMENTE
100
AcDbLine
 62
7
  6
CONTINUOUS
 10
394.2859651145
 20
299.9738076384
 11
394.2859651145
 21
363.9738076384
  0
LINE
  5
369
100
AcDbEntity
  8
BEZUGSACHSEN
100
AcDbLine
 62
7
  6
CONTINUOUS
 10
325.2859651145
 20
189.4738076384
 11
324.2859651145
 21
188.4738076384
  0
LINE
  5
36A
100
AcDbEntity
  8
0
100
AcDbLine
 62
7
  6
CONTINUOUS
 10
381.7859651145
 20
291.6925587108
 11
382.7859651145
 21
291.6925587108
  0
LINE
  5
36B
100
AcDbEntity
  8
0
100
AcDbLine
 62
7
  6
CONTINUOUS
 10
381.7859651145
 20
291.7429385245
 11
382.7859651145
 21
291.7429385245
  0
LINE
  5
36C
100
AcDbEntity
  8
0
100
AcDbLine
 62
7
  6
CONTINUOUS
 10
381.7859651145
 20
291.978044386
 11
382.7859651145
 21
291.978044386
  0
LINE
  5
36D
100
AcDbEntity
  8
0
100
AcDbLine
 62
7
  6
CONTINUOUS
 10
381.7859651145
 20
292.0284241998
 11
382.7859651145
 21
292.0284241998
  0
LINE
  5
36E
100
AcDbEntity
  8
KONSTRUKTIONSELEMENTE
100
AcDbLine
 62
7
  6
CONTINUOUS
 10
409.2859651145
 20
228.4738076384
 11
409.2859651145
 21
191.4738076384
  0
LINE
  5
36F
100
AcDbEntity
  8
BEZUGSACHSEN
100
AcDbLine
 62
7
  6
CONTINUOUS
 10
409.2859651145
 20
228.4738076384
 11
409.2859651145
 21
233.9738076384
  0
LINE
  5
370
100
AcDbEntity
  8
RUNDUNGEN
100
AcDbLine
 62
7
  6
CONTINUOUS
 10
379.7136852876
 20
303.9442368287
 11
379.7138056219
 21
303.9442373935
  0
LINE
  5
371
100
AcDbEntity
  8
RUNDUNGEN
100
AcDbLine
 62
7
  6
CONTINUOUS
 10
358.8581518664
 20
303.9442388373
 11
379.7137783626
 21
303.9442388373
  0
LINE
  5
372
100
AcDbEntity
  8
RUNDUNGEN
100
AcDbLine
 62
7
  6
CONTINUOUS
 10
358.858124607
 20
303.9442373935
 11
358.8582449413
 21
303.9442368287
  0
LINE
  5
373
100
AcDbEntity
  8
BEZUGSACHSEN
100
AcDbLine
 62
7
  6
CONTINUOUS
 10
414.2859651145
 20
188.4738076384
 11
414.2859651145
 21
181.4738076384
  0
LINE
  5
374
100
AcDbEntity
  8
KONSTRUKTIONSELEMENTE
100
AcDbLine
 62
7
  6
CONTINUOUS
 10
416.7859651145
 20
299.9738076384
 11
416.7859651145
 21
363.9738076384
  0
LINE
  5
375
100
AcDbEntity
  8
FASEN
100
AcDbLine
 62
7
  6
CONTINUOUS
 10
414.2859651145
 20
181.4738076384
 11
413.7859651145
 21
180.9738076384
  0
LINE
  5
376
100
AcDbEntity
  8
0
100
AcDbLine
 62
7
  6
CONTINUOUS
 10
387.2859651145
 20
129.9738076384
 11
384.2859651145
 21
126.9738076384
  0
LWPOLYLINE
  5
377
100
AcDbEntity
  8
BEZUGSACHSEN
100
AcDbPolyline
 62
7
  6
CONTINUOUS
 90
7
 70
0
 10
182.4307061993
 20
51.3402533633
 10
182.4454933071
 20
51.0166160524
 10
182.5514077999
 20
50.4227625208
 10
182.7568659511
 20
49.8542164112
 10
183.0566548627
 20
49.3270189135
 10
183.4409359349
 20
48.8581549059
 10
183.8657449815
 20
48.484131343
  0
LINE
  5
378
100
AcDbEntity
  8
BEZUGSACHSEN
100
AcDbLine
 62
7
  6
CONTINUOUS
 10
182.4308552596
 20
75.0126286963
 11
182.4308570828
 21
75.0124834446
  0
LINE
  5
379
100
AcDbEntity
  8
BEZUGSACHSEN
100
AcDbLine
 62
7
  6
CONTINUOUS
 10
182.4308552593
 20
51.3401236679
 11
182.4308552593
 21
75.0126255409
  0
LINE
  5
37A
100
AcDbEntity
  8
BEZUGSACHSEN
100
AcDbLine
 62
7
  6
CONTINUOUS
 10
182.4308552596
 20
51.3401205125
 11
182.4308568795
 21
51.3402575306
  0
LWPOLYLINE
  5
37B
100
AcDbEntity
  8
BEZUGSACHSEN
100
AcDbPolyline
 62
7
  6
CONTINUOUS
 90
7
 70
0
 10
183.8664733366
 20
77.8691679671
 10
183.4488074476
 20
77.502673312
 10
183.0657460369
 20
77.0388976654
 10
182.765457469
 20
76.5170341181
 10
182.5579142736
 20
75.95395333
 10
182.4482858179
 20
75.3652874549
 10
182.4307064059
 20
75.0124876156
  0
LINE
  5
37C
100
AcDbEntity
  8
KONSTRUKTIONSELEMENTE
100
AcDbLine
 62
7
  6
CONTINUOUS
 10
242.6810202962
 20
23.1763746044
 11
237.4997510921
 21
23.1763746044
  0
LINE
  5
37D
100
AcDbEntity
  8
KONSTRUKTIONSELEMENTE
100
AcDbLine
 62
7
  6
CONTINUOUS
 10
216.3028218241
 20
23.1763746044
 11
211.1215526201
 21
23.1763746044
  0
LWPOLYLINE
  5
37E
100
AcDbEntity
  8
BEZUGSACHSEN
100
AcDbPolyline
 62
7
  6
CONTINUOUS
 90
5
 70
0
 10
191.6255015053
 20
83.5350273008
 10
191.3793945126
 20
83.3849427891
 10
191.1296852542
 20
83.2211846761
 10
190.8735180969
 20
83.0410661796
 10
183.8904312859
 20
77.8871215846
  0
LINE
  5
37F
100
AcDbEntity
  8
BEZUGSACHSEN
100
AcDbLine
 62
7
  6
CONTINUOUS
 10
191.8385051555
 20
83.6558524114
 11
191.6255015053
 21
83.5350273008
  0
LINE
  5
380
100
AcDbEntity
  8
BEZUGSACHSEN
100
AcDbLine
 62
7
  6
CONTINUOUS
 10
191.9784794886
 20
83.7319274444
 11
191.838359
 21
83.6556852208
  0
LINE
  5
381
100
AcDbEntity
  8
BEZUGSACHSEN
100
AcDbLine
 62
7
  6
CONTINUOUS
 10
191.8379756377
 20
42.6972734856
 11
191.9772510634
 21
42.6214884562
  0
LINE
  5
382
100
AcDbEntity
  8
BEZUGSACHSEN
100
AcDbLine
 62
7
  6
CONTINUOUS
 10
191.6255015053
 20
42.817721908
 11
191.8385051555
 21
42.6968967974
  0
LWPOLYLINE
  5
383
100
AcDbEntity
  8
BEZUGSACHSEN
100
AcDbPolyline
 62
7
  6
CONTINUOUS
 90
4
 70
0
 10
190.8735180969
 20
43.3116830292
 10
191.1296852542
 20
43.1315645328
 10
191.3793945126
 20
42.9678064198
 10
191.6255015053
 20
42.817721908
  0
LINE
  5
384
100
AcDbEntity
  8
BEZUGSACHSEN
100
AcDbLine
 62
7
  6
CONTINUOUS
 10
190.8735180969
 20
43.3116830292
 11
183.8904312859
 21
48.4656276243
  0
LINE
  5
385
100
AcDbEntity
  8
0
100
AcDbLine
 62
7
  6
CONTINUOUS
 10
199.1056043951
 20
50.6763746044
 11
199.1056043951
 21
49.6763746044
  0
LINE
  5
386
100
AcDbEntity
  8
0
100
AcDbLine
 62
7
  6
CONTINUOUS
 10
200.8491095183
 20
50.6763746044
 11
200.8491095183
 21
49.6763746044
  0
LINE
  5
387
100
AcDbEntity
  8
0
100
AcDbLine
 62
7
  6
CONTINUOUS
 10
201.3162270438
 20
50.6763746044
 11
201.3162270438
 21
49.6763746044
  0
LINE
  5
388
100
AcDbEntity
  8
0
100
AcDbLine
 62
7
  6
CONTINUOUS
 10
201.9184728283
 20
50.6763746044
 11
201.9184728283
 21
49.6763746044
  0
LINE
  5
389
100
AcDbEntity
  8
0
100
AcDbLine
 62
7
  6
CONTINUOUS
 10
202.5519598575
 20
50.6763746044
 11
202.5519598575
 21
49.6763746044
  0
LINE
  5
38A
100
AcDbEntity
  8
0
100
AcDbLine
 62
7
  6
CONTINUOUS
 10
202.9362675017
 20
50.6763746044
 11
202.9362675017
 21
49.6763746044
  0
LINE
  5
38B
100
AcDbEntity
  8
0
100
AcDbLine
 62
7
  6
CONTINUOUS
 10
203.3518166815
 20
50.6763746044
 11
203.3518166815
 21
49.6763746044
  0
LINE
  5
38C
100
AcDbEntity
  8
0
100
AcDbLine
 62
7
  6
CONTINUOUS
 10
203.3962294858
 20
50.6763746044
 11
203.3962294858
 21
49.6763746044
  0
LINE
  5
38D
100
AcDbEntity
  8
0
100
AcDbLine
 62
7
  6
CONTINUOUS
 10
203.9510674702
 20
50.6763746044
 11
203.9510674702
 21
49.6763746044
  0
LINE
  5
38E
100
AcDbEntity
  8
0
100
AcDbLine
 62
7
  6
CONTINUOUS
 10
206.1704183498
 20
50.6763746044
 11
206.1704183498
 21
49.6763746044
  0
LINE
  5
38F
100
AcDbEntity
  8
0
100
AcDbLine
 62
7
  6
CONTINUOUS
 10
206.7252560697
 20
50.6763746044
 11
206.7252560697
 21
49.6763746044
  0
LINE
  5
390
100
AcDbEntity
  8
0
100
AcDbLine
 62
7
  6
CONTINUOUS
 10
208.5831294752
 20
50.6763746044
 11
208.5831294752
 21
49.6763746044
  0
LINE
  5
391
100
AcDbEntity
  8
0
100
AcDbLine
 62
7
  6
CONTINUOUS
 10
211.1854855101
 20
50.6763746044
 11
211.1854855101
 21
49.6763746044
  0
LINE
  5
392
100
AcDbEntity
  8
0
100
AcDbLine
 62
7
  6
CONTINUOUS
 10
211.7911567249
 20
50.6763746044
 11
211.7911567249
 21
49.6763746044
  0
LINE
  5
393
100
AcDbEntity
  8
0
100
AcDbLine
 62
7
  6
CONTINUOUS
 10
212.3519089048
 20
50.6763746044
 11
212.3519089048
 21
49.6763746044
  0
LINE
  5
394
100
AcDbEntity
  8
0
100
AcDbLine
 62
7
  6
CONTINUOUS
 10
213.0396876725
 20
50.6763746044
 11
213.0396876725
 21
49.6763746044
  0
LINE
  5
395
100
AcDbEntity
  8
0
100
AcDbLine
 62
7
  6
CONTINUOUS
 10
213.5106042646
 20
50.6763746044
 11
213.5106042646
 21
49.6763746044
  0
LINE
  5
396
100
AcDbEntity
  8
0
100
AcDbLine
 62
7
  6
CONTINUOUS
 10
213.9366019997
 20
50.6763746044
 11
213.9366019997
 21
49.6763746044
  0
LINE
  5
397
100
AcDbEntity
  8
0
100
AcDbLine
 62
7
  6
CONTINUOUS
 10
247.470815742
 20
49.6763746044
 11
238.1512864581
 21
49.6763746044
  0
LINE
  5
398
100
AcDbEntity
  8
0
100
AcDbLine
 62
7
  6
CONTINUOUS
 10
215.135626682
 20
49.6763746044
 11
199.1056043951
 21
49.6763746044
  0
LINE
  5
399
100
AcDbEntity
  8
0
100
AcDbLine
 62
7
  6
CONTINUOUS
 10
214.8893014969
 20
50.6763746044
 11
214.8893014969
 21
49.6763746044
  0
LINE
  5
39A
100
AcDbEntity
  8
0
100
AcDbLine
 62
7
  6
CONTINUOUS
 10
215.0984368785
 20
50.6763746044
 11
215.0984368785
 21
49.6763746044
  0
LINE
  5
39B
100
AcDbEntity
  8
0
100
AcDbLine
 62
7
  6
CONTINUOUS
 10
215.135626682
 20
50.6763746044
 11
215.135626682
 21
49.6763746044
  0
LINE
  5
39C
100
AcDbEntity
  8
KONSTRUKTIONSELEMENTE
100
AcDbLine
 62
7
  6
CONTINUOUS
 10
215.6512864581
 20
26.9263746044
 11
215.6512864581
 21
99.4263746044
  0
LINE
  5
39D
100
AcDbEntity
  8
BEZUGSACHSEN
100
AcDbLine
 62
7
  6
CONTINUOUS
 10
263.2964829041
 20
50.6763746044
 11
238.1512864581
 21
50.6763746044
  0
LINE
  5
39E
100
AcDbEntity
  8
BEZUGSACHSEN
100
AcDbLine
 62
7
  6
CONTINUOUS
 10
190.5060900121
 20
50.6763746044
 11
215.6512864581
 21
50.6763746044
  0
LINE
  5
39F
100
AcDbEntity
  8
KONSTRUKTIONSELEMENTE
100
AcDbLine
 62
7
  6
CONTINUOUS
 10
238.1512864581
 20
26.9263746044
 11
238.1512864581
 21
99.4263746044
  0
LINE
  5
3A0
100
AcDbEntity
  8
RUNDUNGEN
100
AcDbLine
 62
7
  6
CONTINUOUS
 10
263.2964829041
 20
75.6763746044
 11
255.7095445125
 21
75.6763746044
  0
LINE
  5
3A1
100
AcDbEntity
  8
BEZUGSACHSEN
100
AcDbLine
 62
7
  6
CONTINUOUS
 10
255.7095445125
 20
75.6763746044
 11
238.1512864581
 21
75.6763746044
  0
LINE
  5
3A2
100
AcDbEntity
  8
BEZUGSACHSEN
100
AcDbLine
 62
7
  6
CONTINUOUS
 10
190.5060900121
 20
75.6763746044
 11
215.6512864581
 21
75.6763746044
  0
LINE
  5
3A3
100
AcDbEntity
  8
0
100
AcDbLine
 62
7
  6
CONTINUOUS
 10
240.6767342648
 20
50.6763746044
 11
240.6767342648
 21
49.6763746044
  0
LINE
  5
3A4
100
AcDbEntity
  8
0
100
AcDbLine
 62
7
  6
CONTINUOUS
 10
241.1964748268
 20
50.6763746044
 11
241.1964748268
 21
49.6763746044
  0
LINE
  5
3A5
100
AcDbEntity
  8
0
100
AcDbLine
 62
7
  6
CONTINUOUS
 10
241.498514618
 20
50.6763746044
 11
241.498514618
 21
49.6763746044
  0
LINE
  5
3A6
100
AcDbEntity
  8
0
100
AcDbLine
 62
7
  6
CONTINUOUS
 10
241.6345631972
 20
50.6763746044
 11
241.6345631972
 21
49.6763746044
  0
LINE
  5
3A7
100
AcDbEntity
  8
0
100
AcDbLine
 62
7
  6
CONTINUOUS
 10
241.8290866758
 20
50.6763746044
 11
241.8290866758
 21
49.6763746044
  0
LINE
  5
3A8
100
AcDbEntity
  8
0
100
AcDbLine
 62
7
  6
CONTINUOUS
 10
242.9638896368
 20
50.6763746044
 11
242.9638896368
 21
49.6763746044
  0
LINE
  5
3A9
100
AcDbEntity
  8
0
100
AcDbLine
 62
7
  6
CONTINUOUS
 10
243.442843568
 20
50.6763746044
 11
243.442843568
 21
49.6763746044
  0
LINE
  5
3AA
100
AcDbEntity
  8
0
100
AcDbLine
 62
7
  6
CONTINUOUS
 10
243.94682756
 20
50.6763746044
 11
243.94682756
 21
49.6763746044
  0
LINE
  5
3AB
100
AcDbEntity
  8
0
100
AcDbLine
 62
7
  6
CONTINUOUS
 10
244.6521837538
 20
50.6763746044
 11
244.6521837538
 21
49.6763746044
  0
LINE
  5
3AC
100
AcDbEntity
  8
0
100
AcDbLine
 62
7
  6
CONTINUOUS
 10
245.2062329003
 20
50.6763746044
 11
245.2062329003
 21
49.6763746044
  0
LINE
  5
3AD
100
AcDbEntity
  8
0
100
AcDbLine
 62
7
  6
CONTINUOUS
 10
245.7853123194
 20
50.6763746044
 11
245.7853123194
 21
49.6763746044
  0
LINE
  5
3AE
100
AcDbEntity
  8
0
100
AcDbLine
 62
7
  6
CONTINUOUS
 10
246.691480314
 20
50.6763746044
 11
246.691480314
 21
49.6763746044
  0
LINE
  5
3AF
100
AcDbEntity
  8
0
100
AcDbLine
 62
7
  6
CONTINUOUS
 10
247.1192526858
 20
50.6763746044
 11
247.1192526858
 21
49.6763746044
  0
LINE
  5
3B0
100
AcDbEntity
  8
0
100
AcDbLine
 62
7
  6
CONTINUOUS
 10
247.3706877376
 20
50.6763746044
 11
247.3706877376
 21
49.6763746044
  0
LINE
  5
3B1
100
AcDbEntity
  8
0
100
AcDbLine
 62
7
  6
CONTINUOUS
 10
247.470815742
 20
50.6763746044
 11
247.470815742
 21
49.6763746044
  0
LINE
  5
3B2
100
AcDbEntity
  8
BEZUGSACHSEN
100
AcDbLine
 62
7
  6
CONTINUOUS
 10
261.9640677607
 20
42.6968967974
 11
262.1770714109
 21
42.817721908
  0
LINE
  5
3B3
100
AcDbEntity
  8
BEZUGSACHSEN
100
AcDbLine
 62
7
  6
CONTINUOUS
 10
261.8240934277
 20
42.6208217645
 11
261.9642139162
 21
42.6970639881
  0
LINE
  5
3B4
100
AcDbEntity
  8
RUNDUNGEN
100
AcDbLine
 62
7
  6
CONTINUOUS
 10
261.9645972786
 20
83.6554757233
 11
261.8253218528
 21
83.7312607527
  0
LINE
  5
3B5
100
AcDbEntity
  8
RUNDUNGEN
100
AcDbLine
 62
7
  6
CONTINUOUS
 10
262.1770714109
 20
83.5350273008
 11
261.9640677607
 21
83.6558524114
  0
LWPOLYLINE
  5
3B6
100
AcDbEntity
  8
BEZUGSACHSEN
100
AcDbPolyline
 62
7
  6
CONTINUOUS
 90
7
 70
0
 10
269.9360995796
 20
48.4835812417
 10
270.3537654686
 20
48.8500758969
 10
270.7368268794
 20
49.3138515435
 10
271.0371154473
 20
49.8357150907
 10
271.2446586426
 20
50.3987958789
 10
271.3542870983
 20
50.9874617539
 10
271.3718665103
 20
51.3402615933
  0
LWPOLYLINE
  5
3B7
100
AcDbEntity
  8
BEZUGSACHSEN
100
AcDbPolyline
 62
7
  6
CONTINUOUS
 90
5
 70
0
 10
262.1770714109
 20
42.817721908
 10
262.4231784037
 20
42.9678064198
 10
262.672887662
 20
43.1315645328
 10
262.9290548193
 20
43.3116830292
 10
269.9121416304
 20
48.4656276243
  0
LWPOLYLINE
  5
3B8
100
AcDbEntity
  8
RUNDUNGEN
100
AcDbPolyline
 62
7
  6
CONTINUOUS
 90
4
 70
0
 10
262.9290548193
 20
83.0410661796
 10
262.672887662
 20
83.2211846761
 10
262.4231784037
 20
83.3849427891
 10
262.1770714109
 20
83.5350273008
  0
LINE
  5
3B9
100
AcDbEntity
  8
RUNDUNGEN
100
AcDbLine
 62
7
  6
CONTINUOUS
 10
262.9290548193
 20
83.0410661796
 11
269.9121416304
 21
77.8871215846
  0
LINE
  5
3BA
100
AcDbEntity
  8
KONSTRUKTIONSELEMENTE
100
AcDbLine
 62
7
  6
CONTINUOUS
 10
211.1215526201
 20
103.1763746044
 11
216.3028218241
 21
103.1763746044
  0
LINE
  5
3BB
100
AcDbEntity
  8
KONSTRUKTIONSELEMENTE
100
AcDbLine
 62
7
  6
CONTINUOUS
 10
237.5038298046
 20
103.1763746044
 11
242.6810202962
 21
103.1763746044
  0
LWPOLYLINE
  5
3BC
100
AcDbEntity
  8
RUNDUNGEN
100
AcDbPolyline
 62
7
  6
CONTINUOUS
 90
7
 70
0
 10
271.371866717
 20
75.0124958456
 10
271.3570796091
 20
75.3361331565
 10
271.2511651164
 20
75.9299866881
 10
271.0457069651
 20
76.4985327976
 10
270.7459180535
 20
77.0257302954
 10
270.3616369813
 20
77.4945943029
 10
269.9368279347
 20
77.8686178658
  0
LINE
  5
3BD
100
AcDbEntity
  8
BEZUGSACHSEN
100
AcDbLine
 62
7
  6
CONTINUOUS
 10
271.3717176567
 20
51.3401205125
 11
271.3717158335
 21
51.3402657643
  0
LINE
  5
3BE
100
AcDbEntity
  8
BEZUGSACHSEN
100
AcDbLine
 62
7
  6
CONTINUOUS
 10
271.3717176569
 20
75.0126255409
 11
271.3717176569
 21
51.3401236679
  0
LINE
  5
3BF
100
AcDbEntity
  8
RUNDUNGEN
100
AcDbLine
 62
7
  6
CONTINUOUS
 10
271.3717176567
 20
75.0126286963
 11
271.3717160367
 21
75.0124916783
  0
ARC
  5
3C0
100
AcDbEntity
  8
RUNDUNGEN
100
AcDbCircle
 62
7
  6
CONTINUOUS
 10
226.9012864581
 20
259.4738076384
 40
16.0
100
AcDbArc
 50
19.6213526008
 51
32.0539189154
  0
ARC
  5
3C1
100
AcDbEntity
  8
BEZUGSACHSEN
100
AcDbCircle
 62
7
  6
CONTINUOUS
 10
226.9012864581
 20
259.4738076384
 40
16.0
100
AcDbArc
 50
134.7088534976
 51
45.2911465024
  0
ARC
  5
3C2
100
AcDbEntity
  8
KONSTRUKTIONSELEMENTE
100
AcDbCircle
 62
7
  6
CONTINUOUS
 10
226.9012864581
 20
400.2238076384
 40
11.25
100
AcDbArc
 50
0.0
 51
180.0
  0
ARC
  5
3C3
100
AcDbEntity
  8
KONSTRUKTIONSELEMENTE
100
AcDbCircle
 62
7
  6
CONTINUOUS
 10
226.9012864581
 20
263.7238076384
 40
11.25
100
AcDbArc
 50
180.0
 51
360.0
  0
ARC
  5
3C4
100
AcDbEntity
  8
BEZUGSACHSEN
100
AcDbCircle
 62
7
  6
CONTINUOUS
 10
186.4308552593
 20
259.4738076384
 40
4.0
100
AcDbArc
 50
157.4893258504
 51
202.5
  0
ARC
  5
3C5
100
AcDbEntity
  8
BEZUGSACHSEN
100
AcDbCircle
 62
7
  6
CONTINUOUS
 10
198.2843701199
 20
288.0907239767
 40
4.0
100
AcDbArc
 50
112.5
 51
157.5
  0
ARC
  5
3C6
100
AcDbEntity
  8
BEZUGSACHSEN
100
AcDbCircle
 62
7
  6
CONTINUOUS
 10
267.3717176569
 20
259.4738076384
 40
4.0
100
AcDbArc
 50
337.5
 51
22.5106741496
  0
ARC
  5
3C7
100
AcDbEntity
  8
BEZUGSACHSEN
100
AcDbCircle
 62
7
  6
CONTINUOUS
 10
255.5182027963
 20
288.0907239767
 40
4.0
100
AcDbArc
 50
22.5
 51
67.5
  0
ARC
  5
3C8
100
AcDbEntity
  8
BEZUGSACHSEN
100
AcDbCircle
 62
7
  6
CONTINUOUS
 10
269.9011298254
 20
247.2884672921
 40
2.9999890721
100
AcDbArc
 50
157.4921829844
 51
179.9927775886
  0
ARC
  5
3C9
100
AcDbEntity
  8
BEZUGSACHSEN
100
AcDbCircle
 62
7
  6
CONTINUOUS
 10
183.9014430909
 20
247.288467292
 40
2.9999890721
100
AcDbArc
 50
0.0072224119
 51
22.5078170161
  0
ARC
  5
3CA
100
AcDbEntity
  8
KONSTRUKTIONSELEMENTE
100
AcDbCircle
 62
7
  6
CONTINUOUS
 10
271.9012864581
 20
191.3022347632
 40
2.0
100
AcDbArc
 50
180.0
 51
225.0
  0
ARC
  5
3CB
100
AcDbEntity
  8
KONSTRUKTIONSELEMENTE
100
AcDbCircle
 62
7
  6
CONTINUOUS
 10
181.9012864581
 20
191.3022347632
 40
2.0
100
AcDbArc
 50
315.0
 51
360.0
  0
ARC
  5
3CC
100
AcDbEntity
  8
KONSTRUKTIONSELEMENTE
100
AcDbCircle
 62
7
  6
CONTINUOUS
 10
211.9274878341
 20
191.4748530923
 40
0.8059358921
100
AcDbArc
 50
180.0743236685
 51
192.3676410348
  0
ARC
  5
3CD
100
AcDbEntity
  8
KONSTRUKTIONSELEMENTE
100
AcDbCircle
 62
7
  6
CONTINUOUS
 10
241.8750850821
 20
191.4748530923
 40
0.8059358921
100
AcDbArc
 50
347.6323589652
 51
359.9256763315
  0
ARC
  5
3CE
100
AcDbEntity
  8
BEZUGSACHSEN
100
AcDbCircle
 62
7
  6
CONTINUOUS
 10
347.7859651145
 20
270.6188666506
 40
9.0
100
AcDbArc
 50
343.0000302944
 51
359.9999424682
  0
ARC
  5
3CF
100
AcDbEntity
  8
BEZUGSACHSEN
100
AcDbCircle
 62
7
  6
CONTINUOUS
 10
333.2859651145
 20
233.9738076384
 40
4.0
100
AcDbArc
 50
90.0
 51
180.0
  0
ARC
  5
3D0
100
AcDbEntity
  8
RUNDUNGEN
100
AcDbCircle
 62
7
  6
CONTINUOUS
 10
344.6267310222
 20
241.4738076384
 40
3.5
100
AcDbArc
 50
307.537497921
 51
342.9997215233
  0
ARC
  5
3D1
100
AcDbEntity
  8
RUNDUNGEN
100
AcDbCircle
 62
7
  6
CONTINUOUS
 10
344.6267310222
 20
241.4738076384
 40
3.5
100
AcDbArc
 50
270.0002680268
 51
305.8844719706
  0
ARC
  5
3D2
100
AcDbEntity
  8
BEZUGSACHSEN
100
AcDbCircle
 62
7
  6
CONTINUOUS
 10
344.6267310222
 20
241.4738076384
 40
3.5
100
AcDbArc
 50
270.0002680268
 51
343.00189947
  0
ARC
  5
3D3
100
AcDbEntity
  8
KONSTRUKTIONSELEMENTE
100
AcDbCircle
 62
7
  6
CONTINUOUS
 10
327.2859651145
 20
191.4738076384
 40
2.0
100
AcDbArc
 50
270.0
 51
360.0
  0
ARC
  5
3D4
100
AcDbEntity
  8
BEZUGSACHSEN
100
AcDbCircle
 62
7
  6
CONTINUOUS
 10
390.7859651145
 20
270.6188666506
 40
9.0
100
AcDbArc
 50
180.0000575318
 51
196.9999697056
  0
ARC
  5
3D5
100
AcDbEntity
  8
BEZUGSACHSEN
100
AcDbCircle
 62
7
  6
CONTINUOUS
 10
405.2859651145
 20
233.9738076384
 40
4.0
100
AcDbArc
 50
0.0
 51
90.0
  0
ARC
  5
3D6
100
AcDbEntity
  8
BEZUGSACHSEN
100
AcDbCircle
 62
7
  6
CONTINUOUS
 10
393.9451992067
 20
241.4738076384
 40
3.5
100
AcDbArc
 50
196.99810053
 51
269.9997319732
  0
ARC
  5
3D7
100
AcDbEntity
  8
KONSTRUKTIONSELEMENTE
100
AcDbCircle
 62
7
  6
CONTINUOUS
 10
411.2859651145
 20
191.4738076384
 40
2.0
100
AcDbArc
 50
180.0
 51
270.0
  0
ARC
  5
3D8
100
AcDbEntity
  8
KONSTRUKTIONSELEMENTE
100
AcDbCircle
 62
7
  6
CONTINUOUS
 10
369.2859651145
 20
363.9738076384
 40
47.5
100
AcDbArc
 50
0.0
 51
180.0
  0
ARC
  5
3D9
100
AcDbEntity
  8
KONSTRUKTIONSELEMENTE
100
AcDbCircle
 62
7
  6
CONTINUOUS
 10
369.2859651145
 20
299.9738076384
 40
47.5
100
AcDbArc
 50
180.0
 51
249.4043747525
  0
ARC
  5
3DA
100
AcDbEntity
  8
KONSTRUKTIONSELEMENTE
100
AcDbCircle
 62
7
  6
CONTINUOUS
 10
369.2859651145
 20
299.9738076384
 40
47.5
100
AcDbArc
 50
290.5956252475
 51
360.0
  0
ARC
  5
3DB
100
AcDbEntity
  8
KONSTRUKTIONSELEMENTE
100
AcDbCircle
 62
7
  6
CONTINUOUS
 10
369.2859651145
 20
363.9738076384
 40
25.0
100
AcDbArc
 50
0.0
 51
180.0
  0
ARC
  5
3DC
100
AcDbEntity
  8
KONSTRUKTIONSELEMENTE
100
AcDbCircle
 62
7
  6
CONTINUOUS
 10
369.2859651145
 20
299.9738076384
 40
25.0
100
AcDbArc
 50
180.0
 51
239.985223191
  0
ARC
  5
3DD
100
AcDbEntity
  8
KONSTRUKTIONSELEMENTE
100
AcDbCircle
 62
7
  6
CONTINUOUS
 10
369.2859651145
 20
299.9738076384
 40
25.0
100
AcDbArc
 50
302.6891451912
 51
360.0
  0
ARC
  5
3DE
100
AcDbEntity
  8
BEZUGSACHSEN
100
AcDbCircle
 62
7
  6
CONTINUOUS
 10
190.069003012
 20
39.106000778
 40
4.0
100
AcDbArc
 50
33.1749023831
 51
61.4843410276
  0
ARC
  5
3DF
100
AcDbEntity
  8
BEZUGSACHSEN
100
AcDbCircle
 62
7
  6
CONTINUOUS
 10
190.069003012
 20
87.2467484308
 40
4.0
100
AcDbArc
 50
298.5156589724
 51
326.8250976169
  0
ARC
  5
3E0
100
AcDbEntity
  8
KONSTRUKTIONSELEMENTE
100
AcDbCircle
 62
7
  6
CONTINUOUS
 10
226.9012864581
 20
26.9263746044
 40
11.25
100
AcDbArc
 50
180.0
 51
360.0
  0
ARC
  5
3E1
100
AcDbEntity
  8
BEZUGSACHSEN
100
AcDbCircle
 62
7
  6
CONTINUOUS
 10
263.7335699043
 20
39.106000778
 40
4.0
100
AcDbArc
 50
118.5156589723
 51
146.8250976169
  0
ARC
  5
3E2
100
AcDbEntity
  8
BEZUGSACHSEN
100
AcDbCircle
 62
7
  6
CONTINUOUS
 10
226.9012864581
 20
63.1763746044
 40
45.0
100
AcDbArc
 50
280.0733578496
 51
340.2317093282
  0
ARC
  5
3E3
100
AcDbEntity
  8
BEZUGSACHSEN
100
AcDbCircle
 62
7
  6
CONTINUOUS
 10
226.9012864581
 20
63.1763746044
 40
45.0
100
AcDbArc
 50
199.7682906718
 51
259.9266421504
  0
ARC
  5
3E4
100
AcDbEntity
  8
BEZUGSACHSEN
100
AcDbCircle
 62
7
  6
CONTINUOUS
 10
226.9012864581
 20
63.1763746044
 40
45.0
100
AcDbArc
 50
351.3696587965
 51
8.6303412035
  0
ARC
  5
3E5
100
AcDbEntity
  8
BEZUGSACHSEN
100
AcDbCircle
 62
7
  6
CONTINUOUS
 10
226.9012864581
 20
63.1763746044
 40
45.0
100
AcDbArc
 50
19.7682906718
 51
79.9374236494
  0
ARC
  5
3E6
100
AcDbEntity
  8
BEZUGSACHSEN
100
AcDbCircle
 62
7
  6
CONTINUOUS
 10
226.9012864581
 20
63.1763746044
 40
45.0
100
AcDbArc
 50
100.0733578496
 51
160.2317093282
  0
ARC
  5
3E7
100
AcDbEntity
  8
BEZUGSACHSEN
100
AcDbCircle
 62
7
  6
CONTINUOUS
 10
226.9012864581
 20
63.1763746044
 40
45.0
100
AcDbArc
 50
171.3696587965
 51
188.6303412035
  0
ARC
  5
3E8
100
AcDbEntity
  8
KONSTRUKTIONSELEMENTE
100
AcDbCircle
 62
7
  6
CONTINUOUS
 10
226.9012864581
 20
63.1763746044
 40
44.0
100
AcDbArc
 50
101.7086731943
 51
107.3414428028
  0
ARC
  5
3E9
100
AcDbEntity
  8
KONSTRUKTIONSELEMENTE
100
AcDbCircle
 62
7
  6
CONTINUOUS
 10
226.9012864581
 20
63.1763746044
 40
44.0
100
AcDbArc
 50
72.6585571972
 51
78.283384611
  0
ARC
  5
3EA
100
AcDbEntity
  8
KONSTRUKTIONSELEMENTE
100
AcDbCircle
 62
7
  6
CONTINUOUS
 10
226.9012864581
 20
63.1763746044
 40
44.0
100
AcDbArc
 50
281.7086731943
 51
287.3414428028
  0
ARC
  5
3EB
100
AcDbEntity
  8
KONSTRUKTIONSELEMENTE
100
AcDbCircle
 62
7
  6
CONTINUOUS
 10
226.9012864581
 20
63.1763746044
 40
44.0
100
AcDbArc
 50
252.6585571972
 51
258.2913268057
  0
ARC
  5
3EC
100
AcDbEntity
  8
KONSTRUKTIONSELEMENTE
100
AcDbCircle
 62
7
  6
CONTINUOUS
 10
226.9012864581
 20
63.1763746044
 40
43.0
100
AcDbArc
 50
23.9425491947
 51
68.4710955944
  0
ARC
  5
3ED
100
AcDbEntity
  8
KONSTRUKTIONSELEMENTE
100
AcDbCircle
 62
7
  6
CONTINUOUS
 10
226.9012864581
 20
63.1763746044
 40
43.0
100
AcDbArc
 50
291.5289044056
 51
336.0574508053
  0
ARC
  5
3EE
100
AcDbEntity
  8
KONSTRUKTIONSELEMENTE
100
AcDbCircle
 62
7
  6
CONTINUOUS
 10
226.9012864581
 20
63.1763746044
 40
43.0
100
AcDbArc
 50
203.9425491947
 51
248.4710955944
  0
ARC
  5
3EF
100
AcDbEntity
  8
KONSTRUKTIONSELEMENTE
100
AcDbCircle
 62
7
  6
CONTINUOUS
 10
226.9012864581
 20
63.1763746044
 40
43.0
100
AcDbArc
 50
111.5289044056
 51
156.0574508053
  0
ARC
  5
3F0
100
AcDbEntity
  8
KONSTRUKTIONSELEMENTE
100
AcDbCircle
 62
7
  6
CONTINUOUS
 10
226.9012864581
 20
63.1763746044
 40
41.0
100
AcDbArc
 50
285.2071332519
 51
330.6769608089
  0
ARC
  5
3F1
100
AcDbEntity
  8
KONSTRUKTIONSELEMENTE
100
AcDbCircle
 62
7
  6
CONTINUOUS
 10
226.9012864581
 20
63.1763746044
 40
41.0
100
AcDbArc
 50
29.3230391911
 51
74.7985487537
  0
ARC
  5
3F2
100
AcDbEntity
  8
KONSTRUKTIONSELEMENTE
100
AcDbCircle
 62
7
  6
CONTINUOUS
 10
226.9012864581
 20
63.1763746044
 40
41.0
100
AcDbArc
 50
105.2071332519
 51
150.6769608089
  0
ARC
  5
3F3
100
AcDbEntity
  8
KONSTRUKTIONSELEMENTE
100
AcDbCircle
 62
7
  6
CONTINUOUS
 10
226.9012864581
 20
63.1763746044
 40
41.0
100
AcDbArc
 50
209.3230391911
 51
254.7928667481
  0
ARC
  5
3F4
100
AcDbEntity
  8
RUNDUNGEN
100
AcDbCircle
 62
7
  6
CONTINUOUS
 10
226.9012864581
 20
63.1763746044
 40
40.0
100
AcDbArc
 50
33.1641589266
 51
43.233933997
  0
ARC
  5
3F5
100
AcDbEntity
  8
BEZUGSACHSEN
100
AcDbCircle
 62
7
  6
CONTINUOUS
 10
226.9012864581
 20
63.1763746044
 40
40.0
100
AcDbArc
 50
106.0259367313
 51
146.8358410734
  0
ARC
  5
3F6
100
AcDbEntity
  8
BEZUGSACHSEN
100
AcDbCircle
 62
7
  6
CONTINUOUS
 10
226.9012864581
 20
63.1763746044
 40
40.0
100
AcDbArc
 50
43.233933997
 51
73.9739927682
  0
ARC
  5
3F7
100
AcDbEntity
  8
BEZUGSACHSEN
100
AcDbCircle
 62
7
  6
CONTINUOUS
 10
226.9012864581
 20
63.1763746044
 40
40.0
100
AcDbArc
 50
213.1641589266
 51
253.9931679671
  0
ARC
  5
3F8
100
AcDbEntity
  8
BEZUGSACHSEN
100
AcDbCircle
 62
7
  6
CONTINUOUS
 10
226.9012864581
 20
63.1763746044
 40
40.0
100
AcDbArc
 50
286.0068320329
 51
326.8358410735
  0
ARC
  5
3F9
100
AcDbEntity
  8
KONSTRUKTIONSELEMENTE
100
AcDbCircle
 62
7
  6
CONTINUOUS
 10
226.9012864581
 20
99.4263746044
 40
11.25
100
AcDbArc
 50
0.0
 51
180.0
  0
ARC
  5
3FA
100
AcDbEntity
  8
RUNDUNGEN
100
AcDbCircle
 62
7
  6
CONTINUOUS
 10
263.7335699043
 20
87.2467484308
 40
4.0
100
AcDbArc
 50
213.1749023831
 51
241.4843410276
  0
SPLINE
  5
3FB
100
AcDbEntity
  8
BEZUGSACHSEN
100
AcDbSpline
 62
7
  6
CONTINUOUS
 70
0
 71
3
 72
10
 73
6
 74
0
 42
0.0000001
 43
0.0000001
 44
0.0000000001
 40
0.0
 40
0.0
 40
0.0
 40
0.0
 40
0.2469577428
 40
0.4950728775
 40
1.0
 40
1.0
 40
1.0
 40
1.0
 10
190.3766646646
 20
239.4952773384
 30
0.0
 10
190.6794256653
 20
238.7639132054
 30
0.0
 10
191.2434377802
 20
237.2799575561
 30
0.0
 10
192.287408621
 20
234.2496849828
 30
0.0
 10
193.0028691175
 20
231.9423041914
 30
0.0
 10
193.4174062659
 20
230.3778917591
 30
0.0
  0
SPLINE
  5
3FC
100
AcDbEntity
  8
BEZUGSACHSEN
100
AcDbSpline
 62
7
  6
CONTINUOUS
 70
0
 71
3
 72
10
 73
6
 74
0
 42
0.0000001
 43
0.0000001
 44
0.0000000001
 40
0.0
 40
0.0
 40
0.0
 40
0.0
 40
0.2469577428
 40
0.4950728775
 40
1.0
 40
1.0
 40
1.0
 40
1.0
 10
263.4259082516
 20
239.4952773384
 30
0.0
 10
263.1231472509
 20
238.7639132054
 30
0.0
 10
262.559135136
 20
237.2799575561
 30
0.0
 10
261.5151642952
 20
234.2496849828
 30
0.0
 10
260.7997037987
 20
231.9423041914
 30
0.0
 10
260.3851666504
 20
230.3778917591
 30
0.0
  0
SPLINE
  5
3FD
100
AcDbEntity
  8
KONSTRUKTIONSELEMENTE
100
AcDbSpline
 62
7
  6
CONTINUOUS
 70
0
 71
3
 72
10
 73
6
 74
0
 42
0.0000001
 43
0.0000001
 44
0.0000000001
 40
0.0
 40
0.0
 40
0.0
 40
0.0
 40
0.5519893454
 40
0.7921562049
 40
1.0
 40
1.0
 40
1.0
 40
1.0
 10
242.6623179414
 20
191.3022347632
 30
0.0
 10
242.6046062631
 20
191.038185045
 30
0.0
 10
242.5352378441
 20
190.6561534214
 30
0.0
 10
242.4187291537
 20
190.1808726304
 30
0.0
 10
242.3367454943
 20
189.9746641601
 30
0.0
 10
242.2833565135
 20
189.8880212008
 30
0.0
  0
SPLINE
  5
3FE
100
AcDbEntity
  8
KONSTRUKTIONSELEMENTE
100
AcDbSpline
 62
7
  6
CONTINUOUS
 70
0
 71
3
 72
12
 73
8
 74
0
 42
0.0000001
 43
0.0000001
 44
0.0000000001
 40
0.0
 40
0.0
 40
0.0
 40
0.0
 40
0.1015445975
 40
0.2167502134
 40
0.4671349337
 40
0.7303463204
 40
1.0
 40
1.0
 40
1.0
 40
1.0
 10
242.2833565135
 20
189.8880212008
 30
0.0
 10
242.2415693573
 20
189.8202064043
 30
0.0
 10
242.0947061871
 20
189.7163762842
 30
0.0
 10
241.7498684701
 20
189.5963972621
 30
0.0
 10
241.2584872205
 20
189.5199595404
 30
0.0
 10
240.6459904846
 20
189.4800338724
 30
0.0
 10
240.2276904962
 20
189.4738076384
 30
0.0
 10
240.0161635067
 20
189.4738076384
 30
0.0
  0
SPLINE
  5
3FF
100
AcDbEntity
  8
KONSTRUKTIONSELEMENTE
100
AcDbSpline
 62
7
  6
CONTINUOUS
 70
0
 71
3
 72
10
 73
6
 74
0
 42
0.0000001
 43
0.0000001
 44
0.0000000001
 40
0.0
 40
0.0
 40
0.0
 40
0.0
 40
0.2078437951
 40
0.4480106546
 40
1.0
 40
1.0
 40
1.0
 40
1.0
 10
211.5192164027
 20
189.8880212008
 30
0.0
 10
211.4658274219
 20
189.9746641601
 30
0.0
 10
211.3838437626
 20
190.1808726304
 30
0.0
 10
211.2673350721
 20
190.6561534214
 30
0.0
 10
211.1979666531
 20
191.038185045
 30
0.0
 10
211.1402549749
 20
191.3022347632
 30
0.0
  0
SPLINE
  5
400
100
AcDbEntity
  8
KONSTRUKTIONSELEMENTE
100
AcDbSpline
 62
7
  6
CONTINUOUS
 70
0
 71
3
 72
9
 73
5
 74
0
 42
0.0000001
 43
0.0000001
 44
0.0000000001
 40
0.0
 40
0.0
 40
0.0
 40
0.0
 40
0.2500652431
 40
1.0
 40
1.0
 40
1.0
 40
1.0
 10
217.9012864581
 20
228.4738076384
 30
0.0
 10
217.3255274968
 20
228.347421525
 30
0.0
 10
215.0328132399
 20
227.7979914037
 30
0.0
 10
212.7811229604
 20
227.0828210863
 30
0.0
 10
211.1215526201
 20
226.4738076384
 30
0.0
  0
SPLINE
  5
401
100
AcDbEntity
  8
KONSTRUKTIONSELEMENTE
100
AcDbSpline
 62
7
  6
CONTINUOUS
 70
0
 71
3
 72
9
 73
5
 74
0
 42
0.0000001
 43
0.0000001
 44
0.0000000001
 40
0.0
 40
0.0
 40
0.0
 40
0.0
 40
0.7499347878
 40
1.0
 40
1.0
 40
1.0
 40
1.0
 10
242.6810202962
 20
226.4738076384
 30
0.0
 10
241.0214498872
 20
227.0828211115
 30
0.0
 10
238.7697596198
 20
227.7979914778
 30
0.0
 10
236.4770453484
 20
228.3474215406
 30
0.0
 10
235.9012864581
 20
228.4738076384
 30
0.0
  0
SPLINE
  5
402
100
AcDbEntity
  8
KONSTRUKTIONSELEMENTE
100
AcDbSpline
 62
7
  6
CONTINUOUS
 70
0
 71
3
 72
12
 73
8
 74
0
 42
0.0000001
 43
0.0000001
 44
0.0000000001
 40
0.0
 40
0.0
 40
0.0
 40
0.0
 40
0.2696590505
 40
0.5328732052
 40
0.7832571615
 40
0.8984654086
 40
1.0
 40
1.0
 40
1.0
 40
1.0
 10
213.7864094095
 20
189.4738076384
 30
0.0
 10
213.574878263
 20
189.4738076384
 30
0.0
 10
213.1565718549
 20
189.4800326826
 30
0.0
 10
212.5440700606
 20
189.5199609861
 30
0.0
 10
212.0526841457
 20
189.5963984884
 30
0.0
 10
211.707856788
 20
189.7163872432
 30
0.0
 10
211.5609994302
 20
189.8202131047
 30
0.0
 10
211.5192164027
 20
189.8880212008
 30
0.0
  0
SPLINE
  5
403
100
AcDbEntity
  8
RUNDUNGEN
100
AcDbSpline
 62
7
  6
CONTINUOUS
 70
0
 71
3
 72
10
 73
6
 74
0
 42
0.0000001
 43
0.0000001
 44
0.0000000001
 40
0.0
 40
0.0
 40
0.0
 40
0.0
 40
0.2508908731
 40
0.5020068499
 40
1.0
 40
1.0
 40
1.0
 40
1.0
 10
358.858124607
 20
303.9442373935
 30
0.0
 10
358.5411377691
 20
303.7897896335
 30
0.0
 10
357.9512357674
 20
303.378965379
 30
0.0
 10
357.068961586
 20
302.2670964899
 30
0.0
 10
356.7859651145
 20
301.1853330091
 30
0.0
 10
356.7859651145
 20
300.4854349374
 30
0.0
  0
SPLINE
  5
404
100
AcDbEntity
  8
RUNDUNGEN
100
AcDbSpline
 62
7
  6
CONTINUOUS
 70
0
 71
3
 72
10
 73
6
 74
0
 42
0.0000001
 43
0.0000001
 44
0.0000000001
 40
0.0
 40
0.0
 40
0.0
 40
0.0
 40
0.2508908731
 40
0.5020068499
 40
1.0
 40
1.0
 40
1.0
 40
1.0
 10
379.7138056219
 20
303.9442373935
 30
0.0
 10
380.0307924599
 20
303.7897896335
 30
0.0
 10
380.6206944616
 20
303.378965379
 30
0.0
 10
381.502968643
 20
302.2670964899
 30
0.0
 10
381.7859651145
 20
301.1853330091
 30
0.0
 10
381.7859651145
 20
300.4854349374
 30
0.0
  0
SPLINE
  5
405
100
AcDbEntity
  8
RUNDUNGEN
100
AcDbSpline
 62
7
  6
CONTINUOUS
 70
0
 71
3
 72
9
 73
5
 74
0
 42
0.0000001
 43
0.0000001
 44
0.0000000001
 40
0.0
 40
0.0
 40
0.0
 40
0.0
 40
0.2628422862
 40
1.0
 40
1.0
 40
1.0
 40
1.0
 10
360.2859651145
 20
303.6397569673
 30
0.0
 10
360.1671833264
 20
303.6883512855
 30
0.0
 10
359.7084875375
 20
303.8549403457
 30
0.0
 10
359.2180552361
 20
303.9442222318
 30
0.0
 10
358.8581245737
 20
303.9442373939
 30
0.0
  0
SPLINE
  5
406
100
AcDbEntity
  8
RUNDUNGEN
100
AcDbSpline
 62
7
  6
CONTINUOUS
 70
0
 71
3
 72
9
 73
5
 74
0
 42
0.0000001
 43
0.0000001
 44
0.0000000001
 40
0.0
 40
0.0
 40
0.0
 40
0.0
 40
0.2387520631
 40
1.0
 40
1.0
 40
1.0
 40
1.0
 10
379.7138056553
 20
303.9442373939
 30
0.0
 10
379.5971897893
 20
303.9442324814
 30
0.0
 10
379.1087744155
 20
303.9151502914
 30
0.0
 10
378.6301032713
 20
303.7805458825
 30
0.0
 10
378.2859651145
 20
303.6397569673
 30
0.0
  0
SPLINE
  5
407
100
AcDbEntity
  8
KONSTRUKTIONSELEMENTE
100
AcDbSpline
 62
7
  6
CONTINUOUS
 70
0
 71
3
 72
13
 73
9
 74
0
 42
0.0000001
 43
0.0000001
 44
0.0000000001
 40
0.0
 40
0.0
 40
0.0
 40
0.0
 40
0.2561460528
 40
0.511705658
 40
0.6387801203
 40
0.764520873
 40
0.886956589
 40
1.0
 40
1.0
 40
1.0
 40
1.0
 10
240.0161635067
 20
105.1763746044
 30
0.0
 10
240.2294111422
 20
105.1097861159
 30
0.0
 10
240.6524951754
 20
104.9672586999
 30
0.0
 10
241.1693254835
 20
104.7572992928
 30
0.0
 10
241.5666155615
 20
104.5601942893
 30
0.0
 10
241.8493237743
 20
104.3937158291
 30
0.0
 10
242.1011441186
 20
104.2051459717
 30
0.0
 10
242.2411590835
 20
104.0467596115
 30
0.0
 10
242.2833565135
 20
103.9576534
 30
0.0
  0
SPLINE
  5
408
100
AcDbEntity
  8
KONSTRUKTIONSELEMENTE
100
AcDbSpline
 62
7
  6
CONTINUOUS
 70
0
 71
3
 72
13
 73
9
 74
0
 42
0.0000001
 43
0.0000001
 44
0.0000000001
 40
0.0
 40
0.0
 40
0.0
 40
0.0
 40
0.1131009572
 40
0.2355455692
 40
0.361285039
 40
0.4883486459
 40
0.7438833528
 40
1.0
 40
1.0
 40
1.0
 40
1.0
 10
242.2833565135
 20
22.3950958089
 30
0.0
 10
242.241137508
 20
22.3059440374
 30
0.0
 10
242.1011084793
 20
22.147485056
 30
0.0
 10
241.8491743789
 20
21.958964094
 30
0.0
 10
241.5664761327
 20
21.7924814192
 30
0.0
 10
241.1692090307
 20
21.5953965437
 30
0.0
 10
240.6524277823
 20
21.385466944
 30
0.0
 10
240.2293871381
 20
21.2429555975
 30
0.0
 10
240.0161635067
 20
21.1763746044
 30
0.0
  0
SPLINE
  5
409
100
AcDbEntity
  8
KONSTRUKTIONSELEMENTE
100
AcDbSpline
 62
7
  6
CONTINUOUS
 70
0
 71
3
 72
12
 73
8
 74
0
 42
0.0000001
 43
0.0000001
 44
0.0000000001
 40
0.0
 40
0.0
 40
0.0
 40
0.0
 40
0.3675646303
 40
0.658887434
 40
0.7733504519
 40
0.8670247703
 40
1.0
 40
1.0
 40
1.0
 40
1.0
 10
242.2833565135
 20
103.9576534
 30
0.0
 10
242.3290473635
 20
103.8611703071
 30
0.0
 10
242.4003684432
 20
103.6831825334
 30
0.0
 10
242.4757146221
 20
103.4719435422
 30
0.0
 10
242.5335808182
 20
103.3382438014
 30
0.0
 10
242.5800803247
 20
103.2520649227
 30
0.0
 10
242.626384646
 20
103.197903543
 30
0.0
 10
242.6623179414
 20
103.1837475072
 30
0.0
  0
SPLINE
  5
40A
100
AcDbEntity
  8
KONSTRUKTIONSELEMENTE
100
AcDbSpline
 62
7
  6
CONTINUOUS
 70
0
 71
3
 72
9
 73
5
 74
0
 42
0.0000001
 43
0.0000001
 44
0.0000000001
 40
0.0
 40
0.0
 40
0.0
 40
0.0
 40
0.2344374895
 40
1.0
 40
1.0
 40
1.0
 40
1.0
 10
242.6623179414
 20
23.1690017016
 30
0.0
 10
242.6583711045
 20
23.1674468327
 30
0.0
 10
242.6419178388
 20
23.1598341161
 30
0.0
 10
242.6273207663
 20
23.1485997837
 30
0.0
 10
242.617280755
 20
23.1390555389
 30
0.0
  0
SPLINE
  5
40B
100
AcDbEntity
  8
KONSTRUKTIONSELEMENTE
100
AcDbSpline
 62
7
  6
CONTINUOUS
 70
0
 71
3
 72
9
 73
5
 74
0
 42
0.0000001
 43
0.0000001
 44
0.0000000001
 40
0.0
 40
0.0
 40
0.0
 40
0.0
 40
0.228014313
 40
1.0
 40
1.0
 40
1.0
 40
1.0
 10
242.617280755
 20
23.1390555389
 30
0.0
 10
242.613532894
 20
23.1354927438
 30
0.0
 10
242.597710666
 20
23.1192187893
 30
0.0
 10
242.5842055994
 20
23.1008178408
 30
0.0
 10
242.5746649628
 20
23.0861381369
 30
0.0
  0
SPLINE
  5
40C
100
AcDbEntity
  8
KONSTRUKTIONSELEMENTE
100
AcDbSpline
 62
7
  6
CONTINUOUS
 70
0
 71
3
 72
10
 73
6
 74
0
 42
0.0000001
 43
0.0000001
 44
0.0000000001
 40
0.0
 40
0.0
 40
0.0
 40
0.0
 40
0.1722137473
 40
0.3979775573
 40
1.0
 40
1.0
 40
1.0
 40
1.0
 10
242.5746649628
 20
23.0861381369
 30
0.0
 10
242.5511900183
 20
23.0500184047
 30
0.0
 10
242.5078684454
 20
22.9597669046
 30
0.0
 10
242.4188972302
 20
22.7262555117
 30
0.0
 10
242.3478091218
 20
22.5311971725
 30
0.0
 10
242.2833565135
 20
22.3950958089
 30
0.0
  0
SPLINE
  5
40D
100
AcDbEntity
  8
KONSTRUKTIONSELEMENTE
100
AcDbSpline
 62
7
  6
CONTINUOUS
 70
0
 71
3
 72
9
 73
5
 74
0
 42
0.0000001
 43
0.0000001
 44
0.0000000001
 40
0.0
 40
0.0
 40
0.0
 40
0.0
 40
0.2343498709
 40
1.0
 40
1.0
 40
1.0
 40
1.0
 10
211.1402549749
 20
103.1837475072
 30
0.0
 10
211.144219001
 20
103.1853091479
 30
0.0
 10
211.1607484294
 20
103.1929623773
 30
0.0
 10
211.1754028856
 20
103.2042685011
 30
0.0
 10
211.1854789647
 20
103.213872214
 30
0.0
  0
SPLINE
  5
40E
100
AcDbEntity
  8
KONSTRUKTIONSELEMENTE
100
AcDbSpline
 62
7
  6
CONTINUOUS
 70
0
 71
3
 72
9
 73
5
 74
0
 42
0.0000001
 43
0.0000001
 44
0.0000000001
 40
0.0
 40
0.0
 40
0.0
 40
0.0
 40
0.2279733143
 40
1.0
 40
1.0
 40
1.0
 40
1.0
 10
211.1854789647
 20
103.213872214
 30
0.0
 10
211.1892328362
 20
103.2174501042
 30
0.0
 10
211.2050819462
 20
103.2337939499
 30
0.0
 10
211.2186062924
 20
103.2522661846
 30
0.0
 10
211.2281611427
 20
103.2670011214
 30
0.0
  0
SPLINE
  5
40F
100
AcDbEntity
  8
KONSTRUKTIONSELEMENTE
100
AcDbSpline
 62
7
  6
CONTINUOUS
 70
0
 71
3
 72
10
 73
6
 74
0
 42
0.0000001
 43
0.0000001
 44
0.0000000001
 40
0.0
 40
0.0
 40
0.0
 40
0.0
 40
0.1723330067
 40
0.3981377778
 40
1.0
 40
1.0
 40
1.0
 40
1.0
 10
211.2281611427
 20
103.2670011214
 30
0.0
 10
211.2516004282
 20
103.30314783
 30
0.0
 10
211.2948715534
 20
103.3933942046
 30
0.0
 10
211.3837672181
 20
103.6267710957
 30
0.0
 10
211.4548207406
 20
103.8216722869
 30
0.0
 10
211.5192164027
 20
103.9576534
 30
0.0
  0
SPLINE
  5
410
100
AcDbEntity
  8
KONSTRUKTIONSELEMENTE
100
AcDbSpline
 62
7
  6
CONTINUOUS
 70
0
 71
3
 72
13
 73
9
 74
0
 42
0.0000001
 43
0.0000001
 44
0.0000000001
 40
0.0
 40
0.0
 40
0.0
 40
0.0
 40
0.2561216605
 40
0.5116592004
 40
0.6387237246
 40
0.7644620302
 40
0.8869101555
 40
1.0
 40
1.0
 40
1.0
 40
1.0
 10
213.7864094095
 20
21.1763746044
 30
0.0
 10
213.5731816312
 20
21.2429568924
 30
0.0
 10
213.1501342335
 20
21.3854694635
 30
0.0
 10
212.6333464115
 20
21.5954032627
 30
0.0
 10
212.2360780923
 20
21.7924905041
 30
0.0
 10
211.9533782213
 20
21.9589764037
 30
0.0
 10
211.7014556423
 20
22.1474998061
 30
0.0
 10
211.5614312547
 20
22.3059528082
 30
0.0
 10
211.5192164027
 20
22.3950958089
 30
0.0
  0
SPLINE
  5
411
100
AcDbEntity
  8
KONSTRUKTIONSELEMENTE
100
AcDbSpline
 62
7
  6
CONTINUOUS
 70
0
 71
3
 72
12
 73
8
 74
0
 42
0.0000001
 43
0.0000001
 44
0.0000000001
 40
0.0
 40
0.0
 40
0.0
 40
0.0
 40
0.3675644718
 40
0.6588886379
 40
0.7733521056
 40
0.8670265179
 40
1.0
 40
1.0
 40
1.0
 40
1.0
 10
211.5192164027
 20
22.3950958089
 30
0.0
 10
211.47352557
 20
22.4915788653
 30
0.0
 10
211.4022040288
 20
22.6695668179
 30
0.0
 10
211.3268585083
 20
22.880806671
 30
0.0
 10
211.2689909129
 20
23.0145063535
 30
0.0
 10
211.2224923773
 20
23.1006854314
 30
0.0
 10
211.1761877999
 20
23.1548458512
 30
0.0
 10
211.1402549749
 20
23.1690017016
 30
0.0
  0
SPLINE
  5
412
100
AcDbEntity
  8
KONSTRUKTIONSELEMENTE
100
AcDbSpline
 62
7
  6
CONTINUOUS
 70
0
 71
3
 72
13
 73
9
 74
0
 42
0.0000001
 43
0.0000001
 44
0.0000000001
 40
0.0
 40
0.0
 40
0.0
 40
0.0
 40
0.1130371846
 40
0.2354691658
 40
0.3612113977
 40
0.4882875265
 40
0.743850857
 40
1.0
 40
1.0
 40
1.0
 40
1.0
 10
211.5192164027
 20
103.9576534
 30
0.0
 10
211.5614114987
 20
104.0467546829
 30
0.0
 10
211.7014236322
 20
104.2051309031
 30
0.0
 10
211.9532288154
 20
104.3937078171
 30
0.0
 10
212.2359391094
 20
104.5601827094
 30
0.0
 10
212.6332326969
 20
104.7572931774
 30
0.0
 10
213.150069756
 20
104.9672560133
 30
0.0
 10
213.5731592506
 20
105.1097853279
 30
0.0
 10
213.7864094095
 20
105.1763746044
 30
0.0
  0
ENDSEC
  0
SECTION
  2
OBJECTS
  0
DICTIONARY
  5
C
100
AcDbDictionary
280
0
281
1
  3
ACAD_GROUP
350
D
  3
ACAD_MLINESTYLE
350
17
  3
ACAD_LAYOUT
350
1A
  3
ACAD_PLOTSETTINGS
350
19
  3
ACAD_PLOTSTYLENAME
350
E
  0
DICTIONARY
  5
D
102
{ACAD_REACTORS
330
C
102
}
100
AcDbDictionary
280
0
281
1
  0
ACDBDICTIONARYWDFLT
  5
E
102
{ACAD_REACTORS
330
C
102
}
100
AcDbDictionary
281
1
  3
Normal
350
F
100
AcDbDictionaryWithDefault
340
F
  0
DICTIONARY
  5
17
102
{ACAD_REACTORS
330
C
102
}
100
AcDbDictionary
280
0
281
1
  3
Standard
350
18
  0
DICTIONARY
  5
19
102
{ACAD_REACTORS
330
C
102
}
100
AcDbDictionary
281
1
  0
DICTIONARY
  5
1A
102
{ACAD_REACTORS
330
C
102
}
100
AcDbDictionary
281
1
  3
Model
350
413
  3
Layout1
350
414
  0
ACDBPLACEHOLDER
  5
F
102
{ACAD_REACTORS
330
E
102
}
  0
MLINESTYLE
  5
18
102
{ACAD_REACTORS
330
17
102
}
100
AcDbMlineStyle
  2
STANDARD
 70
0
  3

 62
256
 51
90.0
 52
90.0
 71
2
 49
0.5
 62
256
  6
BYLAYER
 49
-0.5
 62
256
  6
BYLAYER
  0
LAYOUT
  5
413
102
{ACAD_REACTORS
330
1A
102
}
100
AcDbPlotSettings
  1

  2
none_device
  4
ISO_A2_(594.00_x_420.00_MM)
  6

 40
0.0
 41
0.0
 42
0.0
 43
0.0
 44
594.0
 45
420.0
 46
0.0
 47
0.0
 48
0.0
 49
0.0
140
0.0
141
0.0
142
1.0
143
1.0
 70
1024
 72
1
 73
0
 74
0
  7

 75
0
147
1.0
148
0.0
149
0.0
100
AcDbLayout
  1
Model
 70
0
 71
0
 10
0.0
 20
0.0
 11
594.0
 21
420.0
 12
0.0
 22
0.0
 32
0.0
 14
0.0
 24
0.0
 34
0.0
 15
0.0
 25
0.0
 35
0.0
146
0.0
 13
0.0
 23
0.0
 33
0.0
 16
1.0
 26
0.0
 36
0.0
 17
0.0
 27
1.0
 37
0.0
 76
0
330
212
345
0
346
0
  0
LAYOUT
  5
414
102
{ACAD_REACTORS
330
1A
102
}
100
AcDbPlotSettings
  1

  2
none_device
  4
ISO_A2_(594.00_x_420.00_MM)
  6

 40
0.0
 41
0.0
 42
0.0
 43
0.0
 44
594.0
 45
420.0
 46
0.0
 47
0.0
 48
0.0
 49
0.0
140
0.0
141
0.0
142
1.0
143
1.0
 70
0
 72
1
 73
0
 74
0
  7

 75
0
147
1.0
148
0.0
149
0.0
100
AcDbLayout
  1
Layout1
 70
0
 71
1
 10
0.0
 20
0.0
 11
594.0
 21
420.0
 12
0.0
 22
0.0
 32
0.0
 14
0.0
 24
0.0
 34
0.0
 15
0.0
 25
0.0
 35
0.0
146
0.0
 13
0.0
 23
0.0
 33
0.0
 16
1.0
 26
0.0
 36
0.0
 17
0.0
 27
1.0
 37
0.0
 76
0
330
213
345
0
346
0
  0
ENDSEC
  0
EOF
