999
DXF file: 001-m34111-p-20.dxf
999
Pro/ENGINEER 2011490 by Parametric Technology Corporation
  0
SECTION
  2
HEADER
  9
$ACADVER
  1
AC1015
  9
$DWGCODEPAGE
  3
ANSI_1252
  9
$EXTMAX
 10
594.0
 20
420.0
 30
0.0
  9
$EXTMIN
 10
0.0
 20
0.0
 30
0.0
  9
$LIMMIN
 10
0.0
 20
0.0
  9
$LIMMAX
 10
594.0
 20
420.0
  9
$VIEWCTR
 10
297.0
 20
210.0
  9
$VIEWSIZE
 40
420.0
  9
$CLAYER
  8
0
  9
$LTSCALE
 40
32.67
  9
$CELTYPE
  6
BYLAYER
  9
$DIMSCALE
 40
1.0
  9
$DIMASZ
 40
3.5
  9
$DIMEXO
 40
3.7125
  9
$DIMDLI
 40
22.572
  9
$DIMEXE
 40
10.692
  9
$DIMCEN
 40
5.346
  9
$DIMLFAC
 40
1.0
  9
$DIMBLK
  1
_FILLED
  9
$DIMTXT
 40
3.5
  9
$DIMTOL
 70
1
  9
$DIMLIM
 70
0
  9
$DIMTFAC
 40
1.0
  9
$DIMTP
 40
0.005
  9
$DIMTM
 40
0.005
  9
$PDMODE
 70
3
  9
$PDSIZE
 40
0.3125
  9
$HANDSEED
  5
40F
  9
$TILEMODE
 70
1
  9
$MEASUREMENT
 70
1
  9
$INSUNITS
 70
4
  0
ENDSEC
  0
SECTION
  2
CLASSES
  0
CLASS
  1
ACDBDICTIONARYWDFLT
  2
AcDbDictionaryWithDefault
  3
AutoCAD 2000
 90
0
280
0
281
0
  0
CLASS
  1
ACDBPLACEHOLDER
  2
AcDbPlaceHolder
  3
AutoCAD 2000
 90
0
280
0
281
0
  0
CLASS
  1
LAYOUT
  2
AcDbLayout
  3
AutoCAD 2000
 90
0
280
0
281
0
  0
ENDSEC
  0
SECTION
  2
TABLES
  0
TABLE
  2
VPORT
  5
8
100
AcDbSymbolTable
 70
2
  0
VPORT
  5
1F4
100
AcDbSymbolTableRecord
100
AcDbViewportTableRecord
  2
*ACTIVE
 70
0
 10
0.0
 20
0.0
 11
1.0
 21
1.0
 12
297.0
 22
210.0
 13
0.0
 23
0.0
 14
1.0
 24
1.0
 15
0.0
 25
0.0
 16
0.0
 26
0.0
 36
1.0
 17
0.0
 27
0.0
 37
0.0
 40
420.0
 41
1.4142857143
 42
50.0
 43
0.0
 44
0.0
 50
0.0
 51
0.0
 71
0
 72
100
 73
1
 74
1
 75
0
 76
0
 77
0
 78
0
  0
ENDTAB
  0
TABLE
  2
LTYPE
  5
5
100
AcDbSymbolTable
 70
6
  0
LTYPE
  5
14
100
AcDbSymbolTableRecord
100
AcDbLinetypeTableRecord
  2
BYBLOCK
 70
0
  3

 72
65
 73
0
 40
0.0
  0
LTYPE
  5
15
100
AcDbSymbolTableRecord
100
AcDbLinetypeTableRecord
  2
BYLAYER
 70
0
  3

 72
65
 73
0
 40
0.0
  0
LTYPE
  5
16
100
AcDbSymbolTableRecord
100
AcDbLinetypeTableRecord
  2
CONTINUOUS
 70
64
  3
Solid line
 72
65
 73
0
 40
0.0
  0
LTYPE
  5
1F5
100
AcDbSymbolTableRecord
100
AcDbLinetypeTableRecord
  2
CENTER
 70
64
  3
____ _ ____ _ ____ _ ____ _ ____ _ ____ _ ____
 72
65
 73
4
 40
0.6
 49
0.375
 74
0
 49
-0.075
 74
0
 49
0.075
 74
0
 49
-0.075
 74
0
  0
LTYPE
  5
1F6
100
AcDbSymbolTableRecord
100
AcDbLinetypeTableRecord
  2
HIDDEN
 70
64
  3
- - - - - - - - - - - - - - - - - - - -
 72
65
 73
2
 40
0.2
 49
0.1
 74
0
 49
-0.1
 74
0
  0
LTYPE
  5
1F7
100
AcDbSymbolTableRecord
100
AcDbLinetypeTableRecord
  2
PHANTOM
 70
64
  3
_____ _ _ _____ _ _ _____ _ _ _____
 72
65
 73
6
 40
0.8
 49
0.45
 74
0
 49
-0.05
 74
0
 49
0.1
 74
0
 49
-0.05
 74
0
 49
0.1
 74
0
 49
-0.05
 74
0
  0
LTYPE
  5
1F8
100
AcDbSymbolTableRecord
100
AcDbLinetypeTableRecord
  2
DOT
 70
64
  3
. . . . . . . . . . . . . . . . . . . .
 72
65
 73
2
 40
0.2
 49
0.1
 74
0
 49
-0.1
 74
0
  0
LTYPE
  5
1F9
100
AcDbSymbolTableRecord
100
AcDbLinetypeTableRecord
  2
DASHED
 70
64
  3
- - - - - - - - - - - - - - - - - - - -
 72
65
 73
2
 40
0.2
 49
0.1
 74
0
 49
-0.1
 74
0
  0
ENDTAB
  0
TABLE
  2
LAYER
  5
2
100
AcDbSymbolTable
 70
36
  0
LAYER
  5
10
100
AcDbSymbolTableRecord
100
AcDbLayerTableRecord
  2
0
 70
0
 62
7
  6
CONTINUOUS
370
-3
390
F
  0
LAYER
  5
1FA
100
AcDbSymbolTableRecord
100
AcDbLayerTableRecord
  2
DEFAULT_1
 70
0
 62
7
  6
CENTER
370
-3
390
F
  0
LAYER
  5
1FB
100
AcDbSymbolTableRecord
100
AcDbLayerTableRecord
  2
DEFAULT_2
 70
0
 62
8
  6
HIDDEN
370
-3
390
F
  0
LAYER
  5
1FC
100
AcDbSymbolTableRecord
100
AcDbLayerTableRecord
  2
DEFAULT_3
 70
0
 62
7
  6
PHANTOM
370
-3
390
F
  0
LAYER
  5
1FD
100
AcDbSymbolTableRecord
100
AcDbLayerTableRecord
  2
AUSFORMSCHRAEGEN
 70
0
 62
7
  6
CONTINUOUS
370
-3
390
F
  0
LAYER
  5
1FE
100
AcDbSymbolTableRecord
100
AcDbLayerTableRecord
  2
BEZUGSACHSEN
 70
0
 62
7
  6
CONTINUOUS
370
-3
390
F
  0
LAYER
  5
1FF
100
AcDbSymbolTableRecord
100
AcDbLayerTableRecord
  2
BEZUGSEBENEN
 70
0
 62
7
  6
CONTINUOUS
370
-3
390
F
  0
LAYER
  5
200
100
AcDbSymbolTableRecord
100
AcDbLayerTableRecord
  2
BEZUGSPUNKTE
 70
0
 62
7
  6
CONTINUOUS
370
-3
390
F
  0
LAYER
  5
201
100
AcDbSymbolTableRecord
100
AcDbLayerTableRecord
  2
BG_STARTBEZUEGE
 70
0
 62
7
  6
CONTINUOUS
370
-3
390
F
  0
LAYER
  5
202
100
AcDbSymbolTableRecord
100
AcDbLayerTableRecord
  2
BOHRUNGEN
 70
0
 62
7
  6
CONTINUOUS
370
-3
390
F
  0
LAYER
  5
203
100
AcDbSymbolTableRecord
100
AcDbLayerTableRecord
  2
FASEN
 70
0
 62
7
  6
CONTINUOUS
370
-3
390
F
  0
LAYER
  5
204
100
AcDbSymbolTableRecord
100
AcDbLayerTableRecord
  2
FLAECHEN
 70
0
 62
7
  6
CONTINUOUS
370
-3
390
F
  0
LAYER
  5
205
100
AcDbSymbolTableRecord
100
AcDbLayerTableRecord
  2
FLAECHENVERBUND
 70
0
 62
7
  6
CONTINUOUS
370
-3
390
F
  0
LAYER
  5
206
100
AcDbSymbolTableRecord
100
AcDbLayerTableRecord
  2
GEWINDE
 70
0
 62
7
  6
CONTINUOUS
370
-3
390
F
  0
LAYER
  5
207
100
AcDbSymbolTableRecord
100
AcDbLayerTableRecord
  2
HILFEN
 70
0
 62
7
  6
CONTINUOUS
370
-3
390
F
  0
LAYER
  5
208
100
AcDbSymbolTableRecord
100
AcDbLayerTableRecord
  2
KONSTRUKTIONSELEMENTE
 70
0
 62
7
  6
CONTINUOUS
370
-3
390
F
  0
LAYER
  5
209
100
AcDbSymbolTableRecord
100
AcDbLayerTableRecord
  2
KURVEN
 70
0
 62
7
  6
CONTINUOUS
370
-3
390
F
  0
LAYER
  5
20A
100
AcDbSymbolTableRecord
100
AcDbLayerTableRecord
  2
PLATZIERUNG
 70
0
 62
7
  6
CONTINUOUS
370
-3
390
F
  0
LAYER
  5
20B
100
AcDbSymbolTableRecord
100
AcDbLayerTableRecord
  2
PLAZIERUNG
 70
0
 62
7
  6
CONTINUOUS
370
-3
390
F
  0
LAYER
  5
20C
100
AcDbSymbolTableRecord
100
AcDbLayerTableRecord
  2
RUNDUNGEN
 70
0
 62
7
  6
CONTINUOUS
370
-3
390
F
  0
LAYER
  5
20D
100
AcDbSymbolTableRecord
100
AcDbLayerTableRecord
  2
TEIL_STARTBEZUEGE
 70
0
 62
7
  6
CONTINUOUS
370
-3
390
F
  0
LAYER
  5
20E
100
AcDbSymbolTableRecord
100
AcDbLayerTableRecord
  2
XSEC_DATUMS
 70
0
 62
7
  6
CONTINUOUS
370
-3
390
F
  0
LAYER
  5
20F
100
AcDbSymbolTableRecord
100
AcDbLayerTableRecord
  2
ZEICHNUNGSBEMASSUNGEN
 70
0
 62
7
  6
CONTINUOUS
370
-3
390
F
  0
ENDTAB
  0
TABLE
  2
STYLE
  5
3
100
AcDbSymbolTable
 70
1
  0
STYLE
  5
11
100
AcDbSymbolTableRecord
100
AcDbTextStyleTableRecord
  2
STANDARD
 70
0
 40
0.0
 41
0.7
 50
0.0
 71
0
 42
0.2
  3
txt
  4

  0
STYLE
  5
210
100
AcDbSymbolTableRecord
100
AcDbTextStyleTableRecord
  2
TEXTSTYLE_1
 70
0
 40
0.0
 41
0.8
 50
0.0
 71
0
 42
0.2
  3
gdt
  4

  0
ENDTAB
  0
TABLE
  2
VIEW
  5
6
100
AcDbSymbolTable
 70
0
  0
ENDTAB
  0
TABLE
  2
UCS
  5
7
100
AcDbSymbolTable
 70
0
  0
ENDTAB
  0
TABLE
  2
APPID
  5
9
100
AcDbSymbolTable
 70
1
  0
APPID
  5
211
100
AcDbSymbolTableRecord
100
AcDbRegAppTableRecord
  2
ACAD
 70
0
  0
ENDTAB
  0
TABLE
  2
BLOCK_RECORD
  5
1
100
AcDbSymbolTable
 70
0
  0
BLOCK_RECORD
  5
212
100
AcDbSymbolTableRecord
100
AcDbBlockTableRecord
  2
*Model_Space
  0
BLOCK_RECORD
  5
213
100
AcDbSymbolTableRecord
100
AcDbBlockTableRecord
  2
*Paper_Space
  0
ENDTAB
  0
TABLE
  2
DIMSTYLE
  5
A
100
AcDbSymbolTable
 70
1
100
AcDbDimStyleTable
 71
0
  0
DIMSTYLE
105
214
100
AcDbSymbolTableRecord
100
AcDbDimStyleTableRecord
  2
STANDARD
 70
0
  3

  4

 40
1.0
 41
3.5
 42
0.0625
 43
0.38
 44
0.18
 45
0.0
 46
0.0
 47
0.005
 48
0.005
140
3.5
141
0.09
142
0.0
143
25.4
144
1.0
145
0.0
146
1.0
147
0.09
 71
1.0
 72
0.0
 73
0
 74
0
 75
0
 76
0
 77
1
 78
8
170
0
171
2
172
0
173
0
174
0
175
0
176
0
177
0
178
5
270
2
271
3
272
3
273
2
274
2
275
0
280
0
281
0
282
0
283
1
284
8
285
0
286
0
287
3
288
0
340
11
  0
ENDTAB
  0
ENDSEC
  0
SECTION
  2
BLOCKS
  0
BLOCK
  5
20
100
AcDbEntity
  8
0
100
AcDbBlockBegin
  2
*Model_Space
 70
0
 10
0.0
 20
0.0
 30
0.0
  3
*Model_Space
  1

  0
ENDBLK
  5
21
100
AcDbEntity
  8
0
100
AcDbBlockEnd
  0
BLOCK
  5
1C
100
AcDbEntity
  8
0
100
AcDbBlockBegin
  2
*Paper_Space
 70
0
 10
0.0
 20
0.0
 30
0.0
  3
*Paper_Space
  1

  0
ENDBLK
  5
1D
100
AcDbEntity
  8
0
100
AcDbBlockEnd
  0
ENDSEC
  0
SECTION
  2
ENTITIES
  0
MTEXT
  5
215
100
AcDbEntity
  8
0
100
AcDbMText
 62
5
  6
CONTINUOUS
  7
STANDARD
 71
1
 72
1
 10
333.7011730202
 20
214.7254723512
 30
0.0
 11
1.0
 21
0.0
 31
0.0
 44
0.9
  1
VWBG 6t M33
 40
8.0
 41
73.3333333333
  0
MTEXT
  5
216
100
AcDbEntity
  8
0
100
AcDbMText
 62
5
  6
CONTINUOUS
  7
STANDARD
 71
1
 72
1
 10
222.9296590962
 20
308.1511052626
 30
0.0
 11
0.0
 21
1.0
 31
0.0
 44
0.9
  1
VWBG 6t M33
 40
8.0
 41
73.3333333333
  0
MTEXT
  5
217
100
AcDbEntity
  8
0
100
AcDbMText
 62
5
  6
CONTINUOUS
  7
STANDARD
 71
1
 72
1
 10
222.971031783
 20
25.231580431
 30
0.0
 11
0.0
 21
1.0
 31
0.0
 44
0.9
  1
VWBG 6t M33
 40
8.0
 41
73.3333333333
  0
LINE
  5
218
100
AcDbEntity
  8
0
100
AcDbLine
 62
7
  6
CONTINUOUS
 10
0.0
 20
0.0
 11
0.0
 21
420.0
  0
LINE
  5
219
100
AcDbEntity
  8
0
100
AcDbLine
 62
7
  6
CONTINUOUS
 10
0.0
 20
0.0
 11
594.0
 21
0.0
  0
LINE
  5
21A
100
AcDbEntity
  8
0
100
AcDbLine
 62
7
  6
CONTINUOUS
 10
0.0
 20
420.0
 11
594.0
 21
420.0
  0
LINE
  5
21B
100
AcDbEntity
  8
0
100
AcDbLine
 62
7
  6
CONTINUOUS
 10
594.0
 20
0.0
 11
594.0
 21
420.0
  0
LINE
  5
21C
100
AcDbEntity
  8
0
100
AcDbLine
 62
7
  6
CONTINUOUS
 10
242.1819152059
 20
134.2494655332
 11
211.6206577103
 21
134.2494655332
  0
LINE
  5
21D
100
AcDbEntity
  8
0
100
AcDbLine
 62
7
  6
CONTINUOUS
 10
243.4012864581
 20
135.4688367854
 11
210.4012864581
 21
135.4688367854
  0
LINE
  5
21E
100
AcDbEntity
  8
0
100
AcDbLine
 62
7
  6
CONTINUOUS
 10
210.4012864581
 20
135.4688367854
 11
211.6206577103
 21
134.2494655332
  0
LINE
  5
21F
100
AcDbEntity
  8
FASEN
100
AcDbLine
 62
7
  6
CONTINUOUS
 10
271.4012864581
 20
184.2494655332
 11
182.4012864581
 21
184.2494655332
  0
LINE
  5
220
100
AcDbEntity
  8
FASEN
100
AcDbLine
 62
7
  6
CONTINUOUS
 10
271.9012864581
 20
184.7494655332
 11
181.9012864581
 21
184.7494655332
  0
LINE
  5
221
100
AcDbEntity
  8
FASEN
100
AcDbLine
 62
7
  6
CONTINUOUS
 10
181.9012864581
 20
184.7494655332
 11
182.4012864581
 21
184.2494655332
  0
LINE
  5
222
100
AcDbEntity
  8
BEZUGSACHSEN
100
AcDbLine
 62
7
  6
CONTINUOUS
 10
271.9012864581
 20
191.7494655332
 11
181.9012864581
 21
191.7494655332
  0
LINE
  5
223
100
AcDbEntity
  8
KONSTRUKTIONSELEMENTE
100
AcDbLine
 62
7
  6
CONTINUOUS
 10
240.0161635067
 20
192.7494655332
 11
213.7864094095
 21
192.7494655332
  0
LINE
  5
224
100
AcDbEntity
  8
0
100
AcDbLine
 62
7
  6
CONTINUOUS
 10
224.6058392193
 20
219.4904092148
 11
225.2308393385
 21
219.6180687852
  0
LINE
  5
225
100
AcDbEntity
  8
0
100
AcDbLine
 62
7
  6
CONTINUOUS
 10
223.9808392789
 20
223.3201963499
 11
223.3558392491
 21
223.1925367907
  0
LINE
  5
226
100
AcDbEntity
  8
0
100
AcDbLine
 62
7
  6
CONTINUOUS
 10
223.9808392789
 20
219.4904092148
 11
224.6058392193
 21
219.4904092148
  0
LINE
  5
227
100
AcDbEntity
  8
0
100
AcDbLine
 62
7
  6
CONTINUOUS
 10
224.7308392789
 20
220.1287071005
 11
223.8558392193
 21
220.1287071005
  0
LINE
  5
228
100
AcDbEntity
  8
0
100
AcDbLine
 62
7
  6
CONTINUOUS
 10
223.8558392193
 20
222.6818985537
 11
224.7308392789
 21
222.6818985537
  0
LINE
  5
229
100
AcDbEntity
  8
0
100
AcDbLine
 62
7
  6
CONTINUOUS
 10
227.4808393385
 20
223.0648772314
 11
228.4808394577
 21
223.0648772314
  0
LINE
  5
22A
100
AcDbEntity
  8
0
100
AcDbLine
 62
7
  6
CONTINUOUS
 10
229.1058392193
 20
223.0648772314
 11
230.4808389809
 21
223.0648772314
  0
LINE
  5
22B
100
AcDbEntity
  8
0
100
AcDbLine
 62
7
  6
CONTINUOUS
 10
224.6058392193
 20
223.3201963499
 11
223.9808392789
 21
223.3201963499
  0
LINE
  5
22C
100
AcDbEntity
  8
0
100
AcDbLine
 62
7
  6
CONTINUOUS
 10
230.4808389809
 20
223.5755154684
 11
229.1058392193
 21
223.5755154684
  0
LINE
  5
22D
100
AcDbEntity
  8
0
100
AcDbLine
 62
7
  6
CONTINUOUS
 10
228.4808394577
 20
223.5755154684
 11
227.4808393385
 21
223.5755154684
  0
LINE
  5
22E
100
AcDbEntity
  8
0
100
AcDbLine
 62
7
  6
CONTINUOUS
 10
225.6058393385
 20
224.0861540631
 11
226.2308391001
 21
224.0861540631
  0
LINE
  5
22F
100
AcDbEntity
  8
0
100
AcDbLine
 62
7
  6
CONTINUOUS
 10
229.1058392193
 20
224.5967923001
 11
228.4808394577
 21
224.5967923001
  0
LINE
  5
230
100
AcDbEntity
  8
0
100
AcDbLine
 62
7
  6
CONTINUOUS
 10
223.8558392193
 20
224.8521114186
 11
224.6058392193
 21
224.8521114186
  0
LINE
  5
231
100
AcDbEntity
  8
0
100
AcDbLine
 62
7
  6
CONTINUOUS
 10
224.4808391597
 20
225.4904092148
 11
223.9808392789
 21
225.4904092148
  0
LINE
  5
232
100
AcDbEntity
  8
0
100
AcDbLine
 62
7
  6
CONTINUOUS
 10
229.4808392193
 20
219.6180687852
 11
230.2308392193
 21
219.4904092148
  0
LINE
  5
233
100
AcDbEntity
  8
0
100
AcDbLine
 62
7
  6
CONTINUOUS
 10
223.3558392491
 20
219.6180687852
 11
223.9808392789
 21
219.4904092148
  0
LINE
  5
234
100
AcDbEntity
  8
0
100
AcDbLine
 62
7
  6
CONTINUOUS
 10
230.2308392193
 20
220.0010474965
 11
229.6058394577
 21
220.1287071005
  0
LINE
  5
235
100
AcDbEntity
  8
0
100
AcDbLine
 62
7
  6
CONTINUOUS
 10
225.2308393385
 20
223.1925367907
 11
224.6058392193
 21
223.3201963499
  0
LINE
  5
236
100
AcDbEntity
  8
0
100
AcDbLine
 62
7
  6
CONTINUOUS
 10
225.1058391001
 20
225.3627496556
 11
224.4808391597
 21
225.4904092148
  0
LINE
  5
237
100
AcDbEntity
  8
0
100
AcDbLine
 62
7
  6
CONTINUOUS
 10
223.8558392193
 20
220.1287071005
 11
223.4808392193
 21
220.2563666597
  0
LINE
  5
238
100
AcDbEntity
  8
0
100
AcDbLine
 62
7
  6
CONTINUOUS
 10
229.1058392193
 20
219.7457283557
 11
229.4808392193
 21
219.6180687852
  0
LINE
  5
239
100
AcDbEntity
  8
0
100
AcDbLine
 62
7
  6
CONTINUOUS
 10
224.7308392789
 20
222.6818985537
 11
225.1058391001
 21
222.5542389944
  0
LINE
  5
23A
100
AcDbEntity
  8
0
100
AcDbLine
 62
7
  6
CONTINUOUS
 10
222.7308392193
 20
220.0010474965
 11
223.3558392491
 21
219.6180687852
  0
LINE
  5
23B
100
AcDbEntity
  8
BEZUGSACHSEN
100
AcDbLine
 62
7
  6
CONTINUOUS
 10
181.9012864581
 20
191.7494655332
 11
181.9012864581
 21
184.7494655332
  0
LINE
  5
23C
100
AcDbEntity
  8
BEZUGSACHSEN
100
AcDbLine
 62
7
  6
CONTINUOUS
 10
183.9012864581
 20
229.7494655332
 11
183.9012864581
 21
194.5778926579
  0
LINE
  5
23D
100
AcDbEntity
  8
BEZUGSACHSEN
100
AcDbLine
 62
7
  6
CONTINUOUS
 10
186.9012864581
 20
250.5645033317
 11
186.9012864581
 21
231.7494655332
  0
LINE
  5
23E
100
AcDbEntity
  8
0
100
AcDbLine
 62
7
  6
CONTINUOUS
 10
223.9808392789
 20
225.4904092148
 11
223.3558392491
 21
225.3627496556
  0
LINE
  5
23F
100
AcDbEntity
  8
KONSTRUKTIONSELEMENTE
100
AcDbLine
 62
7
  6
CONTINUOUS
 10
269.9012864581
 20
229.7494655332
 11
242.6810202962
 21
229.7494655332
  0
LINE
  5
240
100
AcDbEntity
  8
KONSTRUKTIONSELEMENTE
100
AcDbLine
 62
7
  6
CONTINUOUS
 10
211.1215526201
 20
229.7494655332
 11
183.9012864581
 21
229.7494655332
  0
LINE
  5
241
100
AcDbEntity
  8
BEZUGSACHSEN
100
AcDbLine
 62
7
  6
CONTINUOUS
 10
235.9012864581
 20
231.7494655332
 11
217.9012864581
 21
231.7494655332
  0
LINE
  5
242
100
AcDbEntity
  8
KONSTRUKTIONSELEMENTE
100
AcDbLine
 62
7
  6
CONTINUOUS
 10
185.9012864581
 20
231.7494655332
 11
267.9012864581
 21
231.7494655332
  0
LINE
  5
243
100
AcDbEntity
  8
0
100
AcDbLine
 62
7
  6
CONTINUOUS
 10
224.6058392193
 20
224.8521114186
 11
224.9808392193
 21
224.7244518593
  0
LINE
  5
244
100
AcDbEntity
  8
0
100
AcDbLine
 62
7
  6
CONTINUOUS
 10
225.8558391001
 20
222.8095581129
 11
225.2308393385
 21
223.1925367907
  0
LINE
  5
245
100
AcDbEntity
  8
0
100
AcDbLine
 62
7
  6
CONTINUOUS
 10
225.7308392193
 20
224.9797709778
 11
225.1058391001
 21
225.3627496556
  0
LINE
  5
246
100
AcDbEntity
  8
0
100
AcDbLine
 62
7
  6
CONTINUOUS
 10
223.4808392193
 20
220.2563666597
 11
223.1058392193
 21
220.5116857782
  0
LINE
  5
247
100
AcDbEntity
  8
0
100
AcDbLine
 62
7
  6
CONTINUOUS
 10
228.7308392193
 20
220.0010474965
 11
229.1058392193
 21
219.7457283557
  0
LINE
  5
248
100
AcDbEntity
  8
0
100
AcDbLine
 62
7
  6
CONTINUOUS
 10
225.1058391001
 20
222.5542389944
 11
225.4808391001
 21
222.2989198759
  0
LINE
  5
249
100
AcDbEntity
  8
0
100
AcDbLine
 62
7
  6
CONTINUOUS
 10
229.6058394577
 20
220.1287071005
 11
229.2308394577
 21
220.384026219
  0
LINE
  5
24A
100
AcDbEntity
  8
0
100
AcDbLine
 62
7
  6
CONTINUOUS
 10
224.9808392193
 20
224.7244518593
 11
225.3558392193
 21
224.4691327408
  0
LINE
  5
24B
100
AcDbEntity
  8
BEZUGSACHSEN
100
AcDbLine
 62
7
  6
CONTINUOUS
 10
190.376502705
 20
242.7713262383
 11
182.7353371292
 21
261.2187318037
  0
LINE
  5
24C
100
AcDbEntity
  8
BEZUGSACHSEN
100
AcDbLine
 62
7
  6
CONTINUOUS
 10
182.7356222991
 20
264.2808877235
 11
194.5888519898
 21
292.8971156009
  0
LINE
  5
24D
100
AcDbEntity
  8
BEZUGSACHSEN
100
AcDbLine
 62
7
  6
CONTINUOUS
 10
196.7536363904
 20
295.0619000015
 11
215.6512864581
 21
302.8895629565
  0
LINE
  5
24E
100
AcDbEntity
  8
RUNDUNGEN
100
AcDbLine
 62
7
  6
CONTINUOUS
 10
196.7536363904
 20
295.0619000015
 11
215.6512864581
 21
302.8895629565
  0
LINE
  5
24F
100
AcDbEntity
  8
BEZUGSACHSEN
100
AcDbLine
 62
7
  6
CONTINUOUS
 10
253.1300034539
 20
241.2494655332
 11
200.6725694623
 21
241.2494655332
  0
LINE
  5
250
100
AcDbEntity
  8
0
100
AcDbLine
 62
7
  6
CONTINUOUS
 10
225.4808391001
 20
222.2989198759
 11
225.7308392193
 21
222.0436007574
  0
LINE
  5
251
100
AcDbEntity
  8
0
100
AcDbLine
 62
7
  6
CONTINUOUS
 10
226.2308391001
 20
222.4265794352
 11
225.8558391001
 21
222.8095581129
  0
LINE
  5
252
100
AcDbEntity
  8
0
100
AcDbLine
 62
7
  6
CONTINUOUS
 10
222.3558392193
 20
220.5116857782
 11
222.7308392193
 21
220.0010474965
  0
LINE
  5
253
100
AcDbEntity
  8
0
100
AcDbLine
 62
7
  6
CONTINUOUS
 10
226.1058392193
 20
224.4691327408
 11
225.7308392193
 21
224.9797709778
  0
LINE
  5
254
100
AcDbEntity
  8
0
100
AcDbLine
 62
7
  6
CONTINUOUS
 10
223.1058392193
 20
220.5116857782
 11
222.8558391895
 21
220.8946645454
  0
LINE
  5
255
100
AcDbEntity
  8
0
100
AcDbLine
 62
7
  6
CONTINUOUS
 10
225.3558392193
 20
224.4691327408
 11
225.6058393385
 21
224.0861540631
  0
LINE
  5
256
100
AcDbEntity
  8
0
100
AcDbLine
 62
7
  6
CONTINUOUS
 10
203.7056334455
 20
280.8508192145
 11
203.7884431191
 21
281.4060941833
  0
LINE
  5
257
100
AcDbEntity
  8
0
100
AcDbLine
 62
7
  6
CONTINUOUS
 10
209.1570127541
 20
283.93105506
 11
209.0513841071
 21
283.4898572734
  0
LINE
  5
258
100
AcDbEntity
  8
0
100
AcDbLine
 62
7
  6
CONTINUOUS
 10
203.1135511491
 20
281.1200545959
 11
202.999500231
 21
280.7406941457
  0
LINE
  5
259
100
AcDbEntity
  8
0
100
AcDbLine
 62
7
  6
CONTINUOUS
 10
209.6592272187
 20
283.0073197902
 11
209.857329033
 21
283.5326233015
  0
LINE
  5
25A
100
AcDbEntity
  8
0
100
AcDbLine
 62
7
  6
CONTINUOUS
 10
209.0513841071
 20
283.4898572734
 11
208.7673871939
 21
283.0589942386
  0
LINE
  5
25B
100
AcDbEntity
  8
0
100
AcDbLine
 62
7
  6
CONTINUOUS
 10
200.8491095183
 20
282.1228055039
 11
199.1056043951
 21
279.6814554911
  0
LINE
  5
25C
100
AcDbEntity
  8
0
100
AcDbLine
 62
7
  6
CONTINUOUS
 10
200.0609167869
 20
279.9208345016
 11
201.4411916068
 21
281.8535698315
  0
LINE
  5
25D
100
AcDbEntity
  8
0
100
AcDbLine
 62
7
  6
CONTINUOUS
 10
202.999500231
 20
280.7406941457
 11
201.619225411
 21
278.8079588159
  0
LINE
  5
25E
100
AcDbEntity
  8
0
100
AcDbLine
 62
7
  6
CONTINUOUS
 10
202.2425487443
 20
278.3628086247
 11
203.4775315052
 21
280.0920981687
  0
LINE
  5
25F
100
AcDbEntity
  8
0
100
AcDbLine
 62
7
  6
CONTINUOUS
 10
203.9883044208
 20
276.1944452446
 11
204.4241807016
 21
276.8047827478
  0
LINE
  5
260
100
AcDbEntity
  8
0
100
AcDbLine
 62
7
  6
CONTINUOUS
 10
206.2403318023
 20
279.3478555809
 11
206.7488542685
 21
280.0599161953
  0
LINE
  5
261
100
AcDbEntity
  8
0
100
AcDbLine
 62
7
  6
CONTINUOUS
 10
209.2827577124
 20
282.4923514623
 11
209.6592272187
 21
283.0073197902
  0
LINE
  5
262
100
AcDbEntity
  8
0
100
AcDbLine
 62
7
  6
CONTINUOUS
 10
201.3162270438
 20
282.5572284884
 11
200.8491095183
 21
282.1228055039
  0
LINE
  5
263
100
AcDbEntity
  8
0
100
AcDbLine
 62
7
  6
CONTINUOUS
 10
206.7252560697
 20
288.2767430725
 11
206.1704183498
 21
287.7721094385
  0
LINE
  5
264
100
AcDbEntity
  8
0
100
AcDbLine
 62
7
  6
CONTINUOUS
 10
203.9510674702
 20
285.7535749024
 11
203.3962294858
 21
285.2489410278
  0
LINE
  5
265
100
AcDbEntity
  8
0
100
AcDbLine
 62
7
  6
CONTINUOUS
 10
208.7673871939
 20
283.0589942386
 11
208.3974952042
 21
282.7225716555
  0
LINE
  5
266
100
AcDbEntity
  8
0
100
AcDbLine
 62
7
  6
CONTINUOUS
 10
201.4411916068
 20
281.8535698315
 11
201.7630169694
 21
282.0845468846
  0
LINE
  5
267
100
AcDbEntity
  8
0
100
AcDbLine
 62
7
  6
CONTINUOUS
 10
211.1854855101
 20
291.15571838
 11
208.5831294752
 21
289.6631557959
  0
LINE
  5
268
100
AcDbEntity
  8
0
100
AcDbLine
 62
7
  6
CONTINUOUS
 10
209.6147982472
 20
289.3718651931
 11
211.5665652734
 21
290.4912871312
  0
LINE
  5
269
100
AcDbEntity
  8
0
100
AcDbLine
 62
7
  6
CONTINUOUS
 10
211.7911567249
 20
291.3559306142
 11
211.1854855101
 21
291.15571838
  0
LINE
  5
26A
100
AcDbEntity
  8
BEZUGSACHSEN
100
AcDbLine
 62
7
  6
CONTINUOUS
 10
270.4870728957
 20
193.1636790956
 11
271.9012864581
 21
191.7494655332
  0
LINE
  5
26B
100
AcDbEntity
  8
0
100
AcDbLine
 62
7
  6
CONTINUOUS
 10
228.4808394577
 20
220.5116857782
 11
228.7308392193
 21
220.0010474965
  0
LINE
  5
26C
100
AcDbEntity
  8
0
100
AcDbLine
 62
7
  6
CONTINUOUS
 10
222.105839223
 20
221.1499836639
 11
222.3558392193
 21
220.5116857782
  0
LINE
  5
26D
100
AcDbEntity
  8
0
100
AcDbLine
 62
7
  6
CONTINUOUS
 10
226.4808392193
 20
221.7882816389
 11
226.2308391001
 21
222.4265794352
  0
LINE
  5
26E
100
AcDbEntity
  8
0
100
AcDbLine
 62
7
  6
CONTINUOUS
 10
203.7884431191
 20
281.4060941833
 11
203.5908323706
 21
282.008029729
  0
LINE
  5
26F
100
AcDbEntity
  8
0
100
AcDbLine
 62
7
  6
CONTINUOUS
 10
222.8558391895
 20
220.8946645454
 11
222.7308392193
 21
221.2776432231
  0
LINE
  5
270
100
AcDbEntity
  8
0
100
AcDbLine
 62
7
  6
CONTINUOUS
 10
203.0510688676
 20
281.4718839243
 11
203.1135511491
 21
281.1200545959
  0
LINE
  5
271
100
AcDbEntity
  8
0
100
AcDbLine
 62
7
  6
CONTINUOUS
 10
215.135626682
 20
287.5346473407
 11
215.0984368785
 21
288.1019820367
  0
LINE
  5
272
100
AcDbEntity
  8
0
100
AcDbLine
 62
7
  6
CONTINUOUS
 10
210.4012864581
 20
184.2494655332
 11
210.4012864581
 21
135.4688367854
  0
LINE
  5
273
100
AcDbEntity
  8
KONSTRUKTIONSELEMENTE
100
AcDbLine
 62
7
  6
CONTINUOUS
 10
211.1215526201
 20
229.7494655332
 11
211.1215526201
 21
194.7494655332
  0
LINE
  5
274
100
AcDbEntity
  8
KONSTRUKTIONSELEMENTE
100
AcDbLine
 62
7
  6
CONTINUOUS
 10
215.6512864581
 20
403.4994655332
 11
215.6512864581
 21
266.9994655332
  0
LINE
  5
275
100
AcDbEntity
  8
0
100
AcDbLine
 62
7
  6
CONTINUOUS
 10
209.857329033
 20
283.5326233015
 11
209.8836406869
 21
284.2468077244
  0
LINE
  5
276
100
AcDbEntity
  8
0
100
AcDbLine
 62
7
  6
CONTINUOUS
 10
214.3843345759
 20
287.8395799321
 11
214.358011041
 21
287.3829838551
  0
LINE
  5
277
100
AcDbEntity
  8
0
100
AcDbLine
 62
7
  6
CONTINUOUS
 10
214.9559542876
 20
286.8429329425
 11
215.135626682
 21
287.5346473407
  0
LINE
  5
278
100
AcDbEntity
  8
0
100
AcDbLine
 62
7
  6
CONTINUOUS
 10
214.358011041
 20
287.3829838551
 11
214.1597431689
 21
286.9749363716
  0
LINE
  5
279
100
AcDbEntity
  8
0
100
AcDbLine
 62
7
  6
CONTINUOUS
 10
214.6492552999
 20
286.372695637
 11
214.9559542876
 21
286.8429329425
  0
LINE
  5
27A
100
AcDbEntity
  8
0
100
AcDbLine
 62
7
  6
CONTINUOUS
 10
214.1597431689
 20
286.9749363716
 11
213.7895308706
 21
286.6154376367
  0
LINE
  5
27B
100
AcDbEntity
  8
0
100
AcDbLine
 62
7
  6
CONTINUOUS
 10
208.9128657228
 20
282.1559288792
 11
209.2827577124
 21
282.4923514623
  0
LINE
  5
27C
100
AcDbEntity
  8
0
100
AcDbLine
 62
7
  6
CONTINUOUS
 10
214.1706106784
 20
285.9510063103
 11
214.6492552999
 21
286.372695637
  0
LINE
  5
27D
100
AcDbEntity
  8
0
100
AcDbLine
 62
7
  6
CONTINUOUS
 10
208.3646060487
 20
281.8298414712
 11
208.9128657228
 21
282.1559288792
  0
LINE
  5
27E
100
AcDbEntity
  8
0
100
AcDbLine
 62
7
  6
CONTINUOUS
 10
213.7895308706
 20
286.6154376367
 11
211.8377638445
 21
285.4960156985
  0
LINE
  5
27F
100
AcDbEntity
  8
0
100
AcDbLine
 62
7
  6
CONTINUOUS
 10
211.5682546435
 20
284.4584437261
 11
214.1706106784
 21
285.9510063103
  0
LINE
  5
280
100
AcDbEntity
  8
0
100
AcDbLine
 62
7
  6
CONTINUOUS
 10
208.3974952042
 20
282.7225716555
 11
207.9417086673
 21
282.4805900054
  0
LINE
  5
281
100
AcDbEntity
  8
0
100
AcDbLine
 62
7
  6
CONTINUOUS
 10
240.4834923357
 20
289.8614793475
 11
240.1515072957
 21
289.7292927042
  0
LINE
  5
282
100
AcDbEntity
  8
0
100
AcDbLine
 62
7
  6
CONTINUOUS
 10
201.9184728283
 20
282.7415449646
 11
201.3162270438
 21
282.5572284884
  0
LINE
  5
283
100
AcDbEntity
  8
0
100
AcDbLine
 62
7
  6
CONTINUOUS
 10
199.1056043951
 20
279.6814554911
 11
203.9883044208
 21
276.1944452446
  0
LINE
  5
284
100
AcDbEntity
  8
0
100
AcDbLine
 62
7
  6
CONTINUOUS
 10
204.4241807016
 20
276.8047827478
 11
202.2425487443
 21
278.3628086247
  0
LINE
  5
285
100
AcDbEntity
  8
0
100
AcDbLine
 62
7
  6
CONTINUOUS
 10
201.619225411
 20
278.8079588159
 11
200.0609167869
 21
279.9208345016
  0
LINE
  5
286
100
AcDbEntity
  8
0
100
AcDbLine
 62
7
  6
CONTINUOUS
 10
203.3962294858
 20
285.2489410278
 11
206.0589772152
 21
282.3212866282
  0
LINE
  5
287
100
AcDbEntity
  8
0
100
AcDbLine
 62
7
  6
CONTINUOUS
 10
206.6138151997
 20
282.8259205028
 11
203.9510674702
 21
285.7535749024
  0
LINE
  5
288
100
AcDbEntity
  8
0
100
AcDbLine
 62
7
  6
CONTINUOUS
 10
202.8120531785
 20
281.7961818401
 11
203.0510688676
 21
281.4718839243
  0
LINE
  5
289
100
AcDbEntity
  8
0
100
AcDbLine
 62
7
  6
CONTINUOUS
 10
203.5908323706
 20
282.008029729
 11
203.3518166815
 21
282.3323276448
  0
LINE
  5
28A
100
AcDbEntity
  8
0
100
AcDbLine
 62
7
  6
CONTINUOUS
 10
209.7250060514
 20
284.7927806483
 11
209.3880037991
 21
285.3490886729
  0
LINE
  5
28B
100
AcDbEntity
  8
0
100
AcDbLine
 62
7
  6
CONTINUOUS
 10
208.8331660792
 20
284.8444550389
 11
209.0842732551
 21
284.382587466
  0
LINE
  5
28C
100
AcDbEntity
  8
0
100
AcDbLine
 62
7
  6
CONTINUOUS
 10
225.7308392193
 20
222.0436007574
 11
225.8558391001
 21
221.6606219009
  0
LINE
  5
28D
100
AcDbEntity
  8
0
100
AcDbLine
 62
7
  6
CONTINUOUS
 10
226.2308391001
 20
224.0861540631
 11
226.1058392193
 21
224.4691327408
  0
LINE
  5
28E
100
AcDbEntity
  8
0
100
AcDbLine
 62
7
  6
CONTINUOUS
 10
229.2308394577
 20
220.384026219
 11
229.1058392193
 21
220.7670049861
  0
LINE
  5
28F
100
AcDbEntity
  8
0
100
AcDbLine
 62
7
  6
CONTINUOUS
 10
209.8836406869
 20
284.2468077244
 11
209.7250060514
 21
284.7927806483
  0
LINE
  5
290
100
AcDbEntity
  8
0
100
AcDbLine
 62
7
  6
CONTINUOUS
 10
209.0842732551
 20
284.382587466
 11
209.1570127541
 21
283.93105506
  0
LINE
  5
291
100
AcDbEntity
  8
0
100
AcDbLine
 62
7
  6
CONTINUOUS
 10
221.9808392193
 20
222.0436007574
 11
222.105839223
 21
221.1499836639
  0
LINE
  5
292
100
AcDbEntity
  8
0
100
AcDbLine
 62
7
  6
CONTINUOUS
 10
221.9808392193
 20
222.9372176722
 11
221.9808392193
 21
222.0436007574
  0
LINE
  5
293
100
AcDbEntity
  8
0
100
AcDbLine
 62
7
  6
CONTINUOUS
 10
222.6058392044
 20
222.6818985537
 11
222.6058392044
 21
222.9372176722
  0
LINE
  5
294
100
AcDbEntity
  8
0
100
AcDbLine
 62
7
  6
CONTINUOUS
 10
222.7308392193
 20
221.2776432231
 11
222.7308392193
 21
221.6606219009
  0
LINE
  5
295
100
AcDbEntity
  8
0
100
AcDbLine
 62
7
  6
CONTINUOUS
 10
225.8558391001
 20
221.6606219009
 11
225.8558391001
 21
221.2776432231
  0
LINE
  5
296
100
AcDbEntity
  8
0
100
AcDbLine
 62
7
  6
CONTINUOUS
 10
226.4808392193
 20
221.1499836639
 11
226.4808392193
 21
221.7882816389
  0
LINE
  5
297
100
AcDbEntity
  8
0
100
AcDbLine
 62
7
  6
CONTINUOUS
 10
227.4808393385
 20
223.5755154684
 11
227.4808393385
 21
223.0648772314
  0
LINE
  5
298
100
AcDbEntity
  8
0
100
AcDbLine
 62
7
  6
CONTINUOUS
 10
240.7528948175
 20
290.1610126659
 11
240.4834923357
 21
289.8614793475
  0
LINE
  5
299
100
AcDbEntity
  8
0
100
AcDbLine
 62
7
  6
CONTINUOUS
 10
241.1175197827
 20
289.4409961024
 11
241.3869222646
 21
289.7405294208
  0
LINE
  5
29A
100
AcDbEntity
  8
0
100
AcDbLine
 62
7
  6
CONTINUOUS
 10
239.6671038789
 20
287.7098864535
 11
239.3977013971
 21
287.4103531351
  0
LINE
  5
29B
100
AcDbEntity
  8
BEZUGSACHSEN
100
AcDbLine
 62
7
  6
CONTINUOUS
 10
185.9012864581
 20
231.7494655332
 11
183.9012864581
 21
229.7494655332
  0
LINE
  5
29C
100
AcDbEntity
  8
0
100
AcDbLine
 62
7
  6
CONTINUOUS
 10
243.442843568
 20
289.1347612165
 11
242.9638896368
 21
288.6947011031
  0
LINE
  5
29D
100
AcDbEntity
  8
0
100
AcDbLine
 62
7
  6
CONTINUOUS
 10
243.5680016332
 20
288.2502365985
 11
243.9713018288
 21
288.5874688623
  0
LINE
  5
29E
100
AcDbEntity
  8
0
100
AcDbLine
 62
7
  6
CONTINUOUS
 10
240.5678365879
 20
289.1259964288
 11
241.1175197827
 21
289.4409961024
  0
LINE
  5
29F
100
AcDbEntity
  8
0
100
AcDbLine
 62
7
  6
CONTINUOUS
 10
239.482045595
 20
286.6748700937
 11
240.0317288079
 21
286.9898698082
  0
LINE
  5
2A0
100
AcDbEntity
  8
0
100
AcDbLine
 62
7
  6
CONTINUOUS
 10
243.94682756
 20
289.3979171932
 11
243.442843568
 21
289.1347612165
  0
LINE
  5
2A1
100
AcDbEntity
  8
0
100
AcDbLine
 62
7
  6
CONTINUOUS
 10
239.3977013971
 20
287.4103531351
 11
239.0657163209
 21
287.27816641
  0
LINE
  5
2A2
100
AcDbEntity
  8
0
100
AcDbLine
 62
7
  6
CONTINUOUS
 10
243.9713018288
 20
288.5874688623
 11
244.3996325091
 21
288.7477975655
  0
LINE
  5
2A3
100
AcDbEntity
  8
0
100
AcDbLine
 62
7
  6
CONTINUOUS
 10
206.7488542685
 20
280.0599161953
 11
203.7056334455
 21
280.8508192145
  0
LINE
  5
2A4
100
AcDbEntity
  8
0
100
AcDbLine
 62
7
  6
CONTINUOUS
 10
203.4775315052
 20
280.0920981687
 11
206.2403318023
 21
279.3478555809
  0
LINE
  5
2A5
100
AcDbEntity
  8
0
100
AcDbLine
 62
7
  6
CONTINUOUS
 10
202.1160835767
 20
282.1396094189
 11
202.5003912209
 21
282.0187571435
  0
LINE
  5
2A6
100
AcDbEntity
  8
0
100
AcDbLine
 62
7
  6
CONTINUOUS
 10
202.9362675017
 20
282.6290946467
 11
202.5519598575
 21
282.7499469221
  0
LINE
  5
2A7
100
AcDbEntity
  8
0
100
AcDbLine
 62
7
  6
CONTINUOUS
 10
206.5809257269
 20
281.9331901357
 11
207.1094520875
 21
281.7236395543
  0
LINE
  5
2A8
100
AcDbEntity
  8
0
100
AcDbLine
 62
7
  6
CONTINUOUS
 10
207.0498681058
 20
282.5322639808
 11
206.6138151997
 21
282.8259205028
  0
LINE
  5
2A9
100
AcDbEntity
  8
0
100
AcDbLine
 62
7
  6
CONTINUOUS
 10
202.5003912209
 20
282.0187571435
 11
202.8120531785
 21
281.7961818401
  0
LINE
  5
2AA
100
AcDbEntity
  8
0
100
AcDbLine
 62
7
  6
CONTINUOUS
 10
203.3518166815
 20
282.3323276448
 11
202.9362675017
 21
282.6290946467
  0
LINE
  5
2AB
100
AcDbEntity
  8
0
100
AcDbLine
 62
7
  6
CONTINUOUS
 10
206.0589772152
 20
282.3212866282
 11
206.5809257269
 21
281.9331901357
  0
LINE
  5
2AC
100
AcDbEntity
  8
BEZUGSACHSEN
100
AcDbLine
 62
7
  6
CONTINUOUS
 10
267.9012864581
 20
231.7494655332
 11
269.9012864581
 21
229.7494655332
  0
LINE
  5
2AD
100
AcDbEntity
  8
0
100
AcDbLine
 62
7
  6
CONTINUOUS
 10
212.9235287277
 20
290.3865665412
 11
213.286012991
 21
290.0058022457
  0
LINE
  5
2AE
100
AcDbEntity
  8
0
100
AcDbLine
 62
7
  6
CONTINUOUS
 10
206.1704183498
 20
287.7721094385
 11
208.8331660792
 21
284.8444550389
  0
LINE
  5
2AF
100
AcDbEntity
  8
0
100
AcDbLine
 62
7
  6
CONTINUOUS
 10
209.3880037991
 20
285.3490886729
 11
206.7252560697
 21
288.2767430725
  0
LINE
  5
2B0
100
AcDbEntity
  8
0
100
AcDbLine
 62
7
  6
CONTINUOUS
 10
213.9366019997
 20
290.3789428918
 11
213.5106042646
 21
290.8704460389
  0
LINE
  5
2B1
100
AcDbEntity
  8
0
100
AcDbLine
 62
7
  6
CONTINUOUS
 10
208.5831294752
 20
289.6631557959
 11
211.5682546435
 21
284.4584437261
  0
LINE
  5
2B2
100
AcDbEntity
  8
0
100
AcDbLine
 62
7
  6
CONTINUOUS
 10
211.8377638445
 20
285.4960156985
 11
209.6147982472
 21
289.3718651931
  0
LINE
  5
2B3
100
AcDbEntity
  8
0
100
AcDbLine
 62
7
  6
CONTINUOUS
 10
213.286012991
 20
290.0058022457
 11
214.2387124882
 21
288.3447239685
  0
LINE
  5
2B4
100
AcDbEntity
  8
0
100
AcDbLine
 62
7
  6
CONTINUOUS
 10
214.8893014969
 20
288.7178646145
 11
213.9366019997
 21
290.3789428918
  0
LINE
  5
2B5
100
AcDbEntity
  8
0
100
AcDbLine
 62
7
  6
CONTINUOUS
 10
215.0984368785
 20
288.1019820367
 11
214.8893014969
 21
288.7178646145
  0
LINE
  5
2B6
100
AcDbEntity
  8
0
100
AcDbLine
 62
7
  6
CONTINUOUS
 10
214.2387124882
 20
288.3447239685
 11
214.3843345759
 21
287.8395799321
  0
LINE
  5
2B7
100
AcDbEntity
  8
0
100
AcDbLine
 62
7
  6
CONTINUOUS
 10
228.4808394577
 20
224.5967923001
 11
228.4808394577
 21
223.5755154684
  0
LINE
  5
2B8
100
AcDbEntity
  8
0
100
AcDbLine
 62
7
  6
CONTINUOUS
 10
228.4808394577
 20
223.0648772314
 11
228.4808394577
 21
220.5116857782
  0
LINE
  5
2B9
100
AcDbEntity
  8
0
100
AcDbLine
 62
7
  6
CONTINUOUS
 10
229.1058392193
 20
220.7670049861
 11
229.1058392193
 21
223.0648772314
  0
LINE
  5
2BA
100
AcDbEntity
  8
0
100
AcDbLine
 62
7
  6
CONTINUOUS
 10
229.1058392193
 20
223.5755154684
 11
229.1058392193
 21
224.5967923001
  0
LINE
  5
2BB
100
AcDbEntity
  8
0
100
AcDbLine
 62
7
  6
CONTINUOUS
 10
230.2308392193
 20
219.4904092148
 11
230.2308392193
 21
220.0010474965
  0
LINE
  5
2BC
100
AcDbEntity
  8
0
100
AcDbLine
 62
7
  6
CONTINUOUS
 10
230.4808389809
 20
223.0648772314
 11
230.4808389809
 21
223.5755154684
  0
LINE
  5
2BD
100
AcDbEntity
  8
0
100
AcDbLine
 62
7
  6
CONTINUOUS
 10
222.105839223
 20
223.8308345869
 11
221.9808392193
 21
222.9372176722
  0
LINE
  5
2BE
100
AcDbEntity
  8
0
100
AcDbLine
 62
7
  6
CONTINUOUS
 10
222.6058392044
 20
222.9372176722
 11
222.7308392193
 21
223.7031750277
  0
LINE
  5
2BF
100
AcDbEntity
  8
0
100
AcDbLine
 62
7
  6
CONTINUOUS
 10
242.2312706783
 20
286.2224348016
 11
242.4331986721
 21
286.7078230306
  0
LINE
  5
2C0
100
AcDbEntity
  8
0
100
AcDbLine
 62
7
  6
CONTINUOUS
 10
238.1512864581
 20
292.0037166119
 11
238.309312981
 21
292.3604546714
  0
LINE
  5
2C1
100
AcDbEntity
  8
0
100
AcDbLine
 62
7
  6
CONTINUOUS
 10
240.8563034714
 20
290.394453242
 11
240.7528948175
 21
290.1610126659
  0
LINE
  5
2C2
100
AcDbEntity
  8
0
100
AcDbLine
 62
7
  6
CONTINUOUS
 10
239.8222168598
 20
288.0600473176
 11
239.6671038789
 21
287.7098864535
  0
LINE
  5
2C3
100
AcDbEntity
  8
0
100
AcDbLine
 62
7
  6
CONTINUOUS
 10
240.301131326
 20
287.2894032083
 11
240.5596529608
 21
287.8730046485
  0
LINE
  5
2C4
100
AcDbEntity
  8
0
100
AcDbLine
 62
7
  6
CONTINUOUS
 10
241.3869222646
 20
289.7405294208
 11
241.5937397172
 21
290.2074108999
  0
LINE
  5
2C5
100
AcDbEntity
  8
0
100
AcDbLine
 62
7
  6
CONTINUOUS
 10
241.8290866758
 20
287.1522875351
 11
241.5515051583
 21
286.5640717446
  0
LINE
  5
2C6
100
AcDbEntity
  8
0
100
AcDbLine
 62
7
  6
CONTINUOUS
 10
242.9638896368
 20
288.6947011031
 11
241.8290866758
 21
287.1522875351
  0
LINE
  5
2C7
100
AcDbEntity
  8
0
100
AcDbLine
 62
7
  6
CONTINUOUS
 10
242.4331986721
 20
286.7078230306
 11
243.5680016332
 21
288.2502365985
  0
LINE
  5
2C8
100
AcDbEntity
  8
0
100
AcDbLine
 62
7
  6
CONTINUOUS
 10
245.002070004
 20
286.4027052768
 11
244.548148862
 21
285.7857399073
  0
LINE
  5
2C9
100
AcDbEntity
  8
0
100
AcDbLine
 62
7
  6
CONTINUOUS
 10
245.4543168566
 20
285.1190431504
 11
244.8490885612
 21
284.2964225136
  0
LINE
  5
2CA
100
AcDbEntity
  8
0
100
AcDbLine
 62
7
  6
CONTINUOUS
 10
245.3775470339
 20
283.7491304475
 11
246.512349995
 21
285.2915440154
  0
LINE
  5
2CB
100
AcDbEntity
  8
0
100
AcDbLine
 62
7
  6
CONTINUOUS
 10
240.0317288079
 20
286.9898698082
 11
240.301131326
 21
287.2894032083
  0
LINE
  5
2CC
100
AcDbEntity
  8
0
100
AcDbLine
 62
7
  6
CONTINUOUS
 10
244.9742490898
 20
283.4118964162
 11
245.3775470339
 21
283.7491304475
  0
LINE
  5
2CD
100
AcDbEntity
  8
0
100
AcDbLine
 62
7
  6
CONTINUOUS
 10
244.8490885612
 20
284.2964225136
 11
244.5214441938
 21
284.0620161159
  0
LINE
  5
2CE
100
AcDbEntity
  8
0
100
AcDbLine
 62
7
  6
CONTINUOUS
 10
238.8697798284
 20
286.5272170644
 11
239.482045595
 21
286.6748700937
  0
LINE
  5
2CF
100
AcDbEntity
  8
0
100
AcDbLine
 62
7
  6
CONTINUOUS
 10
244.2688928696
 20
283.2968963687
 11
244.9742490898
 21
283.4118964162
  0
LINE
  5
2D0
100
AcDbEntity
  8
0
100
AcDbLine
 62
7
  6
CONTINUOUS
 10
207.9417086673
 20
282.4805900054
 11
207.4924995944
 21
282.4171541579
  0
LINE
  5
2D1
100
AcDbEntity
  8
0
100
AcDbLine
 62
7
  6
CONTINUOUS
 10
202.5519598575
 20
282.7499469221
 11
201.9184728283
 21
282.7415449646
  0
LINE
  5
2D2
100
AcDbEntity
  8
0
100
AcDbLine
 62
7
  6
CONTINUOUS
 10
244.5214441938
 20
284.0620161159
 11
244.0680810953
 21
284.078593173
  0
LINE
  5
2D3
100
AcDbEntity
  8
0
100
AcDbLine
 62
7
  6
CONTINUOUS
 10
207.1094520875
 20
281.7236395543
 11
207.8229238837
 21
281.6822998163
  0
LINE
  5
2D4
100
AcDbEntity
  8
0
100
AcDbLine
 62
7
  6
CONTINUOUS
 10
207.4924995944
 20
282.4171541579
 11
207.0498681058
 21
282.5322639808
  0
LINE
  5
2D5
100
AcDbEntity
  8
0
100
AcDbLine
 62
7
  6
CONTINUOUS
 10
212.5161252516
 20
290.5944020233
 11
212.9235287277
 21
290.3865665412
  0
LINE
  5
2D6
100
AcDbEntity
  8
0
100
AcDbLine
 62
7
  6
CONTINUOUS
 10
213.5106042646
 20
290.8704460389
 11
213.0396876725
 21
291.1890197522
  0
LINE
  5
2D7
100
AcDbEntity
  8
KONSTRUKTIONSELEMENTE
100
AcDbLine
 62
7
  6
CONTINUOUS
 10
238.1512864581
 20
403.4994655332
 11
238.1512864581
 21
266.9994655332
  0
LINE
  5
2D8
100
AcDbEntity
  8
KONSTRUKTIONSELEMENTE
100
AcDbLine
 62
7
  6
CONTINUOUS
 10
242.6810202962
 20
229.7494655332
 11
242.6810202962
 21
194.7494655332
  0
LINE
  5
2D9
100
AcDbEntity
  8
0
100
AcDbLine
 62
7
  6
CONTINUOUS
 10
243.4012864581
 20
184.2494655332
 11
243.4012864581
 21
135.4688367854
  0
LINE
  5
2DA
100
AcDbEntity
  8
0
100
AcDbLine
 62
7
  6
CONTINUOUS
 10
242.2056800046
 20
285.7657978471
 11
242.2312706783
 21
286.2224348016
  0
LINE
  5
2DB
100
AcDbEntity
  8
0
100
AcDbLine
 62
7
  6
CONTINUOUS
 10
239.8630404122
 20
288.460835891
 11
239.8222168598
 21
288.0600473176
  0
LINE
  5
2DC
100
AcDbEntity
  8
0
100
AcDbLine
 62
7
  6
CONTINUOUS
 10
240.5596529608
 20
287.8730046485
 11
240.6004765131
 21
288.2737932219
  0
LINE
  5
2DD
100
AcDbEntity
  8
0
100
AcDbLine
 62
7
  6
CONTINUOUS
 10
240.8971270962
 20
290.7952419789
 11
240.8563034714
 21
290.394453242
  0
LINE
  5
2DE
100
AcDbEntity
  8
0
100
AcDbLine
 62
7
  6
CONTINUOUS
 10
241.5937397172
 20
290.2074108999
 11
241.6345631972
 21
290.6081993098
  0
LINE
  5
2DF
100
AcDbEntity
  8
0
100
AcDbLine
 62
7
  6
CONTINUOUS
 10
241.5515051583
 20
286.5640717446
 11
241.4502609079
 21
286.0046071565
  0
LINE
  5
2E0
100
AcDbEntity
  8
0
100
AcDbLine
 62
7
  6
CONTINUOUS
 10
222.7308392193
 20
223.7031750277
 11
222.8558391895
 21
224.0861540631
  0
LINE
  5
2E1
100
AcDbEntity
  8
0
100
AcDbLine
 62
7
  6
CONTINUOUS
 10
222.7308392193
 20
221.6606219009
 11
222.8558391895
 21
222.0436007574
  0
LINE
  5
2E2
100
AcDbEntity
  8
0
100
AcDbLine
 62
7
  6
CONTINUOUS
 10
225.8558391001
 20
221.2776432231
 11
225.7308392193
 21
220.8946645454
  0
LINE
  5
2E3
100
AcDbEntity
  8
0
100
AcDbLine
 62
7
  6
CONTINUOUS
 10
246.7153966982
 20
287.0440158343
 11
246.5891197117
 21
286.6614565744
  0
LINE
  5
2E4
100
AcDbEntity
  8
0
100
AcDbLine
 62
7
  6
CONTINUOUS
 10
222.3558392193
 20
224.4691327408
 11
222.105839223
 21
223.8308345869
  0
LINE
  5
2E5
100
AcDbEntity
  8
0
100
AcDbLine
 62
7
  6
CONTINUOUS
 10
226.2308391001
 20
220.5116857782
 11
226.4808392193
 21
221.1499836639
  0
LINE
  5
2E6
100
AcDbEntity
  8
0
100
AcDbLine
 62
7
  6
CONTINUOUS
 10
247.193231708
 20
286.2169920698
 11
247.470815742
 21
286.8052064529
  0
LINE
  5
2E7
100
AcDbEntity
  8
0
100
AcDbLine
 62
7
  6
CONTINUOUS
 10
211.5665652734
 20
290.4912871312
 11
212.0638041594
 21
290.6293087832
  0
LINE
  5
2E8
100
AcDbEntity
  8
0
100
AcDbLine
 62
7
  6
CONTINUOUS
 10
207.8229238837
 20
281.6822998163
 11
208.3646060487
 21
281.8298414712
  0
LINE
  5
2E9
100
AcDbEntity
  8
0
100
AcDbLine
 62
7
  6
CONTINUOUS
 10
244.6521837538
 20
289.5129172047
 11
243.94682756
 21
289.3979171932
  0
LINE
  5
2EA
100
AcDbEntity
  8
0
100
AcDbLine
 62
7
  6
CONTINUOUS
 10
201.7630169694
 20
282.0845468846
 11
202.1160835767
 21
282.1396094189
  0
LINE
  5
2EB
100
AcDbEntity
  8
0
100
AcDbLine
 62
7
  6
CONTINUOUS
 10
240.2875558749
 20
289.1105300735
 11
240.5678365879
 21
289.1259964288
  0
LINE
  5
2EC
100
AcDbEntity
  8
0
100
AcDbLine
 62
7
  6
CONTINUOUS
 10
212.3519089048
 20
291.3832137247
 11
211.7911567249
 21
291.3559306142
  0
LINE
  5
2ED
100
AcDbEntity
  8
0
100
AcDbLine
 62
7
  6
CONTINUOUS
 10
244.3996325091
 20
288.7477975655
 11
244.8529955546
 21
288.7312204364
  0
LINE
  5
2EE
100
AcDbEntity
  8
0
100
AcDbLine
 62
7
  6
CONTINUOUS
 10
212.0638041594
 20
290.6293087832
 11
212.5161252516
 21
290.5944020233
  0
LINE
  5
2EF
100
AcDbEntity
  8
0
100
AcDbLine
 62
7
  6
CONTINUOUS
 10
239.0657163209
 20
287.27816641
 11
238.671146107
 21
287.3133276005
  0
LINE
  5
2F0
100
AcDbEntity
  8
0
100
AcDbLine
 62
7
  6
CONTINUOUS
 10
240.1515072957
 20
289.7292927042
 11
239.7569370817
 21
289.7644538947
  0
LINE
  5
2F1
100
AcDbEntity
  8
0
100
AcDbLine
 62
7
  6
CONTINUOUS
 10
243.7148437032
 20
283.3875514533
 11
244.2688928696
 21
283.2968963687
  0
LINE
  5
2F2
100
AcDbEntity
  8
0
100
AcDbLine
 62
7
  6
CONTINUOUS
 10
245.2062329003
 20
289.422262093
 11
244.6521837538
 21
289.5129172047
  0
LINE
  5
2F3
100
AcDbEntity
  8
0
100
AcDbLine
 62
7
  6
CONTINUOUS
 10
238.246630608
 20
286.6636333363
 11
238.8697798284
 21
286.5272170644
  0
LINE
  5
2F4
100
AcDbEntity
  8
0
100
AcDbLine
 62
7
  6
CONTINUOUS
 10
213.0396876725
 20
291.1890197522
 11
212.3519089048
 21
291.3832137247
  0
LINE
  5
2F5
100
AcDbEntity
  8
0
100
AcDbLine
 62
7
  6
CONTINUOUS
 10
244.0680810953
 20
284.078593173
 11
243.5896854725
 21
284.2720758463
  0
LINE
  5
2F6
100
AcDbEntity
  8
0
100
AcDbLine
 62
7
  6
CONTINUOUS
 10
244.8529955546
 20
288.7312204364
 11
245.3313911774
 21
288.5377377631
  0
LINE
  5
2F7
100
AcDbEntity
  8
0
100
AcDbLine
 62
7
  6
CONTINUOUS
 10
238.1512864581
 20
286.7058685396
 11
238.246630608
 21
286.6636333363
  0
LINE
  5
2F8
100
AcDbEntity
  8
0
100
AcDbLine
 62
7
  6
CONTINUOUS
 10
238.671146107
 20
287.3133276005
 11
238.1512864581
 21
287.5436131293
  0
LINE
  5
2F9
100
AcDbEntity
  8
0
100
AcDbLine
 62
7
  6
CONTINUOUS
 10
238.1512864581
 20
289.6379746525
 11
239.44671112
 21
289.0641321665
  0
LINE
  5
2FA
100
AcDbEntity
  8
0
100
AcDbLine
 62
7
  6
CONTINUOUS
 10
239.7569370817
 20
289.7644538947
 11
238.1512864581
 21
290.4757191445
  0
LINE
  5
2FB
100
AcDbEntity
  8
0
100
AcDbLine
 62
7
  6
CONTINUOUS
 10
243.1357642775
 20
283.6551104047
 11
243.7148437032
 21
283.3875514533
  0
LINE
  5
2FC
100
AcDbEntity
  8
0
100
AcDbLine
 62
7
  6
CONTINUOUS
 10
242.2295962829
 20
284.3218071616
 11
243.1357642775
 21
283.6551104047
  0
LINE
  5
2FD
100
AcDbEntity
  8
0
100
AcDbLine
 62
7
  6
CONTINUOUS
 10
243.5896854725
 20
284.2720758463
 11
242.6835174779
 21
284.9387726032
  0
LINE
  5
2FE
100
AcDbEntity
  8
0
100
AcDbLine
 62
7
  6
CONTINUOUS
 10
244.548148862
 20
285.7857399073
 11
245.4543168566
 21
285.1190431504
  0
LINE
  5
2FF
100
AcDbEntity
  8
0
100
AcDbLine
 62
7
  6
CONTINUOUS
 10
246.512349995
 20
285.2915440154
 11
245.002070004
 21
286.4027052768
  0
LINE
  5
300
100
AcDbEntity
  8
0
100
AcDbLine
 62
7
  6
CONTINUOUS
 10
239.44671112
 20
289.0641321665
 11
239.73787268
 21
288.7955303999
  0
LINE
  5
301
100
AcDbEntity
  8
0
100
AcDbLine
 62
7
  6
CONTINUOUS
 10
241.8018239177
 20
284.7950212541
 11
242.2295962829
 21
284.3218071616
  0
LINE
  5
302
100
AcDbEntity
  8
0
100
AcDbLine
 62
7
  6
CONTINUOUS
 10
242.6835174779
 20
284.9387726032
 11
242.3564289025
 21
285.3379103996
  0
LINE
  5
303
100
AcDbEntity
  8
0
100
AcDbLine
 62
7
  6
CONTINUOUS
 10
240.464427934
 20
288.8925558527
 11
240.2875558749
 21
289.1105300735
  0
LINE
  5
304
100
AcDbEntity
  8
0
100
AcDbLine
 62
7
  6
CONTINUOUS
 10
241.498514618
 20
291.2269619406
 11
241.1964748268
 21
291.7796306703
  0
LINE
  5
305
100
AcDbEntity
  8
0
100
AcDbLine
 62
7
  6
CONTINUOUS
 10
241.5503888858
 20
285.2969866392
 11
241.8018239177
 21
284.7950212541
  0
LINE
  5
306
100
AcDbEntity
  8
0
100
AcDbLine
 62
7
  6
CONTINUOUS
 10
239.73787268
 20
288.7955303999
 11
239.8630404122
 21
288.460835891
  0
LINE
  5
307
100
AcDbEntity
  8
0
100
AcDbLine
 62
7
  6
CONTINUOUS
 10
240.7719593641
 20
291.1299364878
 11
240.8971270962
 21
290.7952419789
  0
LINE
  5
308
100
AcDbEntity
  8
0
100
AcDbLine
 62
7
  6
CONTINUOUS
 10
242.3564289025
 20
285.3379103996
 11
242.2056800046
 21
285.7657978471
  0
LINE
  5
309
100
AcDbEntity
  8
0
100
AcDbLine
 62
7
  6
CONTINUOUS
 10
240.6004765131
 20
288.2737932219
 11
240.464427934
 21
288.8925558527
  0
LINE
  5
30A
100
AcDbEntity
  8
0
100
AcDbLine
 62
7
  6
CONTINUOUS
 10
241.6345631972
 20
290.6081993098
 11
241.498514618
 21
291.2269619406
  0
LINE
  5
30B
100
AcDbEntity
  8
0
100
AcDbLine
 62
7
  6
CONTINUOUS
 10
241.4502609079
 20
286.0046071565
 11
241.5503888858
 21
285.2969866392
  0
LINE
  5
30C
100
AcDbEntity
  8
0
100
AcDbLine
 62
7
  6
CONTINUOUS
 10
222.8558391895
 20
224.0861540631
 11
223.1058392193
 21
224.4691327408
  0
LINE
  5
30D
100
AcDbEntity
  8
0
100
AcDbLine
 62
7
  6
CONTINUOUS
 10
225.7308392193
 20
220.8946645454
 11
225.4808391001
 21
220.5116857782
  0
LINE
  5
30E
100
AcDbEntity
  8
0
100
AcDbLine
 62
7
  6
CONTINUOUS
 10
222.7308392193
 20
224.9797709778
 11
222.3558392193
 21
224.4691327408
  0
LINE
  5
30F
100
AcDbEntity
  8
BEZUGSACHSEN
100
AcDbLine
 62
7
  6
CONTINUOUS
 10
183.3155000205
 20
193.1636790956
 11
181.9012864581
 21
191.7494655332
  0
LINE
  5
310
100
AcDbEntity
  8
RUNDUNGEN
100
AcDbLine
 62
7
  6
CONTINUOUS
 10
257.0489365258
 20
295.0619000015
 11
238.1512864581
 21
302.8895629565
  0
LINE
  5
311
100
AcDbEntity
  8
0
100
AcDbLine
 62
7
  6
CONTINUOUS
 10
238.309312981
 20
292.3604546714
 11
240.480797804
 21
291.3985382544
  0
LINE
  5
312
100
AcDbEntity
  8
0
100
AcDbLine
 62
7
  6
CONTINUOUS
 10
240.6767342648
 20
292.1494875284
 11
238.1512864581
 21
293.2682011754
  0
LINE
  5
313
100
AcDbEntity
  8
0
100
AcDbLine
 62
7
  6
CONTINUOUS
 10
245.7853123194
 20
289.1547031327
 11
245.2062329003
 21
289.422262093
  0
LINE
  5
314
100
AcDbEntity
  8
0
100
AcDbLine
 62
7
  6
CONTINUOUS
 10
241.1964748268
 20
291.7796306703
 11
240.6767342648
 21
292.1494875284
  0
LINE
  5
315
100
AcDbEntity
  8
0
100
AcDbLine
 62
7
  6
CONTINUOUS
 10
246.5891197117
 20
286.6614565744
 11
247.193231708
 21
286.2169920698
  0
LINE
  5
316
100
AcDbEntity
  8
0
100
AcDbLine
 62
7
  6
CONTINUOUS
 10
245.3313911774
 20
288.5377377631
 11
246.237559172
 21
287.8710410062
  0
LINE
  5
317
100
AcDbEntity
  8
0
100
AcDbLine
 62
7
  6
CONTINUOUS
 10
246.691480314
 20
288.4880063758
 11
245.7853123194
 21
289.1547031327
  0
LINE
  5
318
100
AcDbEntity
  8
0
100
AcDbLine
 62
7
  6
CONTINUOUS
 10
240.480797804
 20
291.3985382544
 11
240.7719593641
 21
291.1299364878
  0
LINE
  5
319
100
AcDbEntity
  8
0
100
AcDbLine
 62
7
  6
CONTINUOUS
 10
247.1192526858
 20
288.0147922922
 11
246.691480314
 21
288.4880063758
  0
LINE
  5
31A
100
AcDbEntity
  8
0
100
AcDbLine
 62
7
  6
CONTINUOUS
 10
246.237559172
 20
287.8710410062
 11
246.5646477474
 21
287.4719032098
  0
LINE
  5
31B
100
AcDbEntity
  8
0
100
AcDbLine
 62
7
  6
CONTINUOUS
 10
247.3706877376
 20
287.5128269342
 11
247.1192526858
 21
288.0147922922
  0
LINE
  5
31C
100
AcDbEntity
  8
0
100
AcDbLine
 62
7
  6
CONTINUOUS
 10
246.5646477474
 20
287.4719032098
 11
246.7153966982
 21
287.0440158343
  0
LINE
  5
31D
100
AcDbEntity
  8
0
100
AcDbLine
 62
7
  6
CONTINUOUS
 10
247.470815742
 20
286.8052064529
 11
247.3706877376
 21
287.5128269342
  0
LINE
  5
31E
100
AcDbEntity
  8
BEZUGSACHSEN
100
AcDbLine
 62
7
  6
CONTINUOUS
 10
266.9012864581
 20
250.5645033317
 11
266.9012864581
 21
231.7494655332
  0
LINE
  5
31F
100
AcDbEntity
  8
0
100
AcDbLine
 62
7
  6
CONTINUOUS
 10
225.8558391001
 20
220.0010474965
 11
226.2308391001
 21
220.5116857782
  0
LINE
  5
320
100
AcDbEntity
  8
0
100
AcDbLine
 62
7
  6
CONTINUOUS
 10
222.8558391895
 20
222.0436007574
 11
223.1058392193
 21
222.2989198759
  0
LINE
  5
321
100
AcDbEntity
  8
0
100
AcDbLine
 62
7
  6
CONTINUOUS
 10
223.1058392193
 20
224.4691327408
 11
223.4808392193
 21
224.7244518593
  0
LINE
  5
322
100
AcDbEntity
  8
0
100
AcDbLine
 62
7
  6
CONTINUOUS
 10
223.3558392491
 20
223.1925367907
 11
222.6058392044
 21
222.6818985537
  0
LINE
  5
323
100
AcDbEntity
  8
0
100
AcDbLine
 62
7
  6
CONTINUOUS
 10
223.3558392491
 20
225.3627496556
 11
222.7308392193
 21
224.9797709778
  0
LINE
  5
324
100
AcDbEntity
  8
BEZUGSACHSEN
100
AcDbLine
 62
7
  6
CONTINUOUS
 10
271.0669506172
 20
264.2808877235
 11
259.2137209264
 21
292.8971156009
  0
LINE
  5
325
100
AcDbEntity
  8
BEZUGSACHSEN
100
AcDbLine
 62
7
  6
CONTINUOUS
 10
269.9012864581
 20
229.7494655332
 11
269.9012864581
 21
194.5778926579
  0
LINE
  5
326
100
AcDbEntity
  8
BEZUGSACHSEN
100
AcDbLine
 62
7
  6
CONTINUOUS
 10
271.9012864581
 20
191.7494655332
 11
271.9012864581
 21
184.7494655332
  0
LINE
  5
327
100
AcDbEntity
  8
BEZUGSACHSEN
100
AcDbLine
 62
7
  6
CONTINUOUS
 10
263.4260702112
 20
242.7713262383
 11
271.067235787
 21
261.2187318037
  0
LINE
  5
328
100
AcDbEntity
  8
0
100
AcDbLine
 62
7
  6
CONTINUOUS
 10
223.1058392193
 20
222.2989198759
 11
223.4808392193
 21
222.5542389944
  0
LINE
  5
329
100
AcDbEntity
  8
0
100
AcDbLine
 62
7
  6
CONTINUOUS
 10
225.4808391001
 20
220.5116857782
 11
225.1058391001
 21
220.2563666597
  0
LINE
  5
32A
100
AcDbEntity
  8
0
100
AcDbLine
 62
7
  6
CONTINUOUS
 10
225.2308393385
 20
219.6180687852
 11
225.8558391001
 21
220.0010474965
  0
LINE
  5
32B
100
AcDbEntity
  8
0
100
AcDbLine
 62
7
  6
CONTINUOUS
 10
223.4808392193
 20
224.7244518593
 11
223.8558392193
 21
224.8521114186
  0
LINE
  5
32C
100
AcDbEntity
  8
0
100
AcDbLine
 62
7
  6
CONTINUOUS
 10
223.4808392193
 20
222.5542389944
 11
223.8558392193
 21
222.6818985537
  0
LINE
  5
32D
100
AcDbEntity
  8
0
100
AcDbLine
 62
7
  6
CONTINUOUS
 10
225.1058391001
 20
220.2563666597
 11
224.7308392789
 21
220.1287071005
  0
LINE
  5
32E
100
AcDbEntity
  8
FASEN
100
AcDbLine
 62
7
  6
CONTINUOUS
 10
271.9012864581
 20
184.7494655332
 11
271.4012864581
 21
184.2494655332
  0
LINE
  5
32F
100
AcDbEntity
  8
0
100
AcDbLine
 62
7
  6
CONTINUOUS
 10
243.4012864581
 20
135.4688367854
 11
242.1819152059
 21
134.2494655332
  0
LINE
  5
330
100
AcDbEntity
  8
0
100
AcDbLine
 62
7
  6
CONTINUOUS
 10
354.0053363666
 20
134.2494655332
 11
384.5665938623
 21
134.2494655332
  0
LINE
  5
331
100
AcDbEntity
  8
0
100
AcDbLine
 62
7
  6
CONTINUOUS
 10
352.7859651145
 20
135.4688367854
 11
385.7859651145
 21
135.4688367854
  0
LINE
  5
332
100
AcDbEntity
  8
0
100
AcDbLine
 62
7
  6
CONTINUOUS
 10
352.7859651145
 20
135.4688367854
 11
354.0053363666
 21
134.2494655332
  0
LINE
  5
333
100
AcDbEntity
  8
FASEN
100
AcDbLine
 62
7
  6
CONTINUOUS
 10
324.7859651145
 20
184.2494655332
 11
413.7859651145
 21
184.2494655332
  0
LINE
  5
334
100
AcDbEntity
  8
FASEN
100
AcDbLine
 62
7
  6
CONTINUOUS
 10
324.2859651145
 20
184.7494655332
 11
414.2859651145
 21
184.7494655332
  0
LINE
  5
335
100
AcDbEntity
  8
FASEN
100
AcDbLine
 62
7
  6
CONTINUOUS
 10
324.2859651145
 20
184.7494655332
 11
324.7859651145
 21
184.2494655332
  0
LINE
  5
336
100
AcDbEntity
  8
BEZUGSACHSEN
100
AcDbLine
 62
7
  6
CONTINUOUS
 10
324.2859651145
 20
191.7494655332
 11
414.2859651145
 21
191.7494655332
  0
LINE
  5
337
100
AcDbEntity
  8
KONSTRUKTIONSELEMENTE
100
AcDbLine
 62
7
  6
CONTINUOUS
 10
413.2859651145
 20
192.7494655332
 11
411.2859651145
 21
192.7494655332
  0
LINE
  5
338
100
AcDbEntity
  8
KONSTRUKTIONSELEMENTE
100
AcDbLine
 62
7
  6
CONTINUOUS
 10
327.2859651145
 20
192.7494655332
 11
325.2859651145
 21
192.7494655332
  0
LINE
  5
339
100
AcDbEntity
  8
KONSTRUKTIONSELEMENTE
100
AcDbLine
 62
7
  6
CONTINUOUS
 10
321.7859651145
 20
303.2494655332
 11
321.7859651145
 21
367.2494655332
  0
LINE
  5
33A
100
AcDbEntity
  8
BEZUGSACHSEN
100
AcDbLine
 62
7
  6
CONTINUOUS
 10
324.2859651145
 20
191.7494655332
 11
324.2859651145
 21
184.7494655332
  0
LINE
  5
33B
100
AcDbEntity
  8
BEZUGSACHSEN
100
AcDbLine
 62
7
  6
CONTINUOUS
 10
329.2859651145
 20
237.2494655332
 11
329.2859651145
 21
231.7494655332
  0
LINE
  5
33C
100
AcDbEntity
  8
KONSTRUKTIONSELEMENTE
100
AcDbLine
 62
7
  6
CONTINUOUS
 10
329.2859651145
 20
194.7494655332
 11
329.2859651145
 21
231.7494655332
  0
LINE
  5
33D
100
AcDbEntity
  8
KONSTRUKTIONSELEMENTE
100
AcDbLine
 62
7
  6
CONTINUOUS
 10
409.2859651145
 20
229.7494655332
 11
329.2859651145
 21
229.7494655332
  0
LINE
  5
33E
100
AcDbEntity
  8
KONSTRUKTIONSELEMENTE
100
AcDbLine
 62
7
  6
CONTINUOUS
 10
329.2859651145
 20
231.7494655332
 11
409.2859651145
 21
231.7494655332
  0
LINE
  5
33F
100
AcDbEntity
  8
BEZUGSACHSEN
100
AcDbLine
 62
7
  6
CONTINUOUS
 10
405.2859651145
 20
241.2494655332
 11
393.9448134855
 21
241.2494655332
  0
LINE
  5
340
100
AcDbEntity
  8
BEZUGSACHSEN
100
AcDbLine
 62
7
  6
CONTINUOUS
 10
344.6267310222
 20
241.2494655332
 11
333.2859651145
 21
241.2494655332
  0
LINE
  5
341
100
AcDbEntity
  8
KONSTRUKTIONSELEMENTE
100
AcDbLine
 62
7
  6
CONTINUOUS
 10
344.2859651145
 20
303.2494655332
 11
344.2859651145
 21
367.2494655332
  0
LINE
  5
342
100
AcDbEntity
  8
BEZUGSACHSEN
100
AcDbLine
 62
7
  6
CONTINUOUS
 10
413.2859651145
 20
192.7494655332
 11
414.2859651145
 21
191.7494655332
  0
LINE
  5
343
100
AcDbEntity
  8
0
100
AcDbLine
 62
7
  6
CONTINUOUS
 10
352.7859651145
 20
184.2494655332
 11
352.7859651145
 21
135.4688367854
  0
LINE
  5
344
100
AcDbEntity
  8
0
100
AcDbLine
 62
7
  6
CONTINUOUS
 10
356.2859651145
 20
285.0082588543
 11
356.2859651145
 21
290.978183477
  0
LINE
  5
345
100
AcDbEntity
  8
BEZUGSACHSEN
100
AcDbLine
 62
7
  6
CONTINUOUS
 10
356.7859651145
 20
273.8945155083
 11
356.7859651145
 21
303.7610928322
  0
LINE
  5
346
100
AcDbEntity
  8
RUNDUNGEN
100
AcDbLine
 62
7
  6
CONTINUOUS
 10
348.511006476
 20
245.4832954027
 11
347.9738315925
 21
243.7262755284
  0
LINE
  5
347
100
AcDbEntity
  8
BEZUGSACHSEN
100
AcDbLine
 62
7
  6
CONTINUOUS
 10
347.9738315925
 20
243.7262755284
 11
356.3927079181
 21
271.2631792028
  0
LINE
  5
348
100
AcDbEntity
  8
0
100
AcDbLine
 62
7
  6
CONTINUOUS
 10
381.7859651145
 20
276.1944452446
 11
382.7859651145
 21
276.1944452446
  0
LINE
  5
349
100
AcDbEntity
  8
0
100
AcDbLine
 62
7
  6
CONTINUOUS
 10
381.7859651145
 20
279.6814554911
 11
382.7859651145
 21
279.6814554911
  0
LINE
  5
34A
100
AcDbEntity
  8
0
100
AcDbLine
 62
7
  6
CONTINUOUS
 10
381.7859651145
 20
282.1228055039
 11
382.7859651145
 21
282.1228055039
  0
LINE
  5
34B
100
AcDbEntity
  8
0
100
AcDbLine
 62
7
  6
CONTINUOUS
 10
381.7859651145
 20
282.5572284884
 11
382.7859651145
 21
282.5572284884
  0
LINE
  5
34C
100
AcDbEntity
  8
0
100
AcDbLine
 62
7
  6
CONTINUOUS
 10
381.7859651145
 20
282.7415449646
 11
382.7859651145
 21
282.7415449646
  0
LINE
  5
34D
100
AcDbEntity
  8
0
100
AcDbLine
 62
7
  6
CONTINUOUS
 10
381.7859651145
 20
282.7499469221
 11
382.7859651145
 21
282.7499469221
  0
LINE
  5
34E
100
AcDbEntity
  8
0
100
AcDbLine
 62
7
  6
CONTINUOUS
 10
356.7859651145
 20
285.0082588543
 11
356.2859651145
 21
285.0082588543
  0
LINE
  5
34F
100
AcDbEntity
  8
0
100
AcDbLine
 62
7
  6
CONTINUOUS
 10
381.7859651145
 20
285.2489410278
 11
382.7859651145
 21
285.2489410278
  0
LINE
  5
350
100
AcDbEntity
  8
BEZUGSACHSEN
100
AcDbLine
 62
7
  6
CONTINUOUS
 10
381.7859651145
 20
273.8945155083
 11
381.7859651145
 21
303.7610928322
  0
LINE
  5
351
100
AcDbEntity
  8
0
100
AcDbLine
 62
7
  6
CONTINUOUS
 10
382.7859651145
 20
295.2537022808
 11
382.7859651145
 21
295.0185964193
  0
LINE
  5
352
100
AcDbEntity
  8
0
100
AcDbLine
 62
7
  6
CONTINUOUS
 10
382.7859651145
 20
294.9682166055
 11
382.7859651145
 21
282.7499469221
  0
LINE
  5
353
100
AcDbEntity
  8
0
100
AcDbLine
 62
7
  6
CONTINUOUS
 10
382.7859651145
 20
282.7415449646
 11
382.7859651145
 21
276.1944452446
  0
LINE
  5
354
100
AcDbEntity
  8
0
100
AcDbLine
 62
7
  6
CONTINUOUS
 10
385.7859651145
 20
184.2494655332
 11
385.7859651145
 21
135.4688367854
  0
LINE
  5
355
100
AcDbEntity
  8
0
100
AcDbLine
 62
7
  6
CONTINUOUS
 10
381.7859651145
 20
285.7535749024
 11
382.7859651145
 21
285.7535749024
  0
LINE
  5
356
100
AcDbEntity
  8
0
100
AcDbLine
 62
7
  6
CONTINUOUS
 10
356.7859651145
 20
285.9147601966
 11
356.2859651145
 21
285.9147601966
  0
LINE
  5
357
100
AcDbEntity
  8
0
100
AcDbLine
 62
7
  6
CONTINUOUS
 10
356.7859651145
 20
287.5432211657
 11
356.2859651145
 21
287.5432211657
  0
LINE
  5
358
100
AcDbEntity
  8
0
100
AcDbLine
 62
7
  6
CONTINUOUS
 10
381.7859651145
 20
287.7721094385
 11
382.7859651145
 21
287.7721094385
  0
LINE
  5
359
100
AcDbEntity
  8
0
100
AcDbLine
 62
7
  6
CONTINUOUS
 10
381.7859651145
 20
288.2767430725
 11
382.7859651145
 21
288.2767430725
  0
LINE
  5
35A
100
AcDbEntity
  8
0
100
AcDbLine
 62
7
  6
CONTINUOUS
 10
356.7859651145
 20
288.4497225079
 11
356.2859651145
 21
288.4497225079
  0
LINE
  5
35B
100
AcDbEntity
  8
0
100
AcDbLine
 62
7
  6
CONTINUOUS
 10
381.7859651145
 20
289.6631557959
 11
382.7859651145
 21
289.6631557959
  0
LINE
  5
35C
100
AcDbEntity
  8
0
100
AcDbLine
 62
7
  6
CONTINUOUS
 10
356.7859651145
 20
290.0716821347
 11
356.2859651145
 21
290.0716821347
  0
LINE
  5
35D
100
AcDbEntity
  8
0
100
AcDbLine
 62
7
  6
CONTINUOUS
 10
356.7859651145
 20
290.978183477
 11
356.2859651145
 21
290.978183477
  0
LINE
  5
35E
100
AcDbEntity
  8
0
100
AcDbLine
 62
7
  6
CONTINUOUS
 10
381.7859651145
 20
291.15571838
 11
382.7859651145
 21
291.15571838
  0
LINE
  5
35F
100
AcDbEntity
  8
0
100
AcDbLine
 62
7
  6
CONTINUOUS
 10
381.7859651145
 20
291.3559306142
 11
382.7859651145
 21
291.3559306142
  0
LINE
  5
360
100
AcDbEntity
  8
0
100
AcDbLine
 62
7
  6
CONTINUOUS
 10
381.7859651145
 20
291.3832137247
 11
382.7859651145
 21
291.3832137247
  0
LINE
  5
361
100
AcDbEntity
  8
0
100
AcDbLine
 62
7
  6
CONTINUOUS
 10
381.7859651145
 20
294.9682166055
 11
382.7859651145
 21
294.9682166055
  0
LINE
  5
362
100
AcDbEntity
  8
0
100
AcDbLine
 62
7
  6
CONTINUOUS
 10
381.7859651145
 20
295.0185964193
 11
382.7859651145
 21
295.0185964193
  0
LINE
  5
363
100
AcDbEntity
  8
0
100
AcDbLine
 62
7
  6
CONTINUOUS
 10
381.7859651145
 20
295.2537022808
 11
382.7859651145
 21
295.2537022808
  0
LINE
  5
364
100
AcDbEntity
  8
0
100
AcDbLine
 62
7
  6
CONTINUOUS
 10
381.7859651145
 20
295.3040820945
 11
382.7859651145
 21
295.3040820945
  0
LINE
  5
365
100
AcDbEntity
  8
BEZUGSACHSEN
100
AcDbLine
 62
7
  6
CONTINUOUS
 10
390.5980986365
 20
243.7262755284
 11
382.1792223108
 21
271.2631792028
  0
LINE
  5
366
100
AcDbEntity
  8
KONSTRUKTIONSELEMENTE
100
AcDbLine
 62
7
  6
CONTINUOUS
 10
394.2859651145
 20
367.2494655332
 11
394.2859651145
 21
303.2494655332
  0
LINE
  5
367
100
AcDbEntity
  8
BEZUGSACHSEN
100
AcDbLine
 62
7
  6
CONTINUOUS
 10
325.2859651145
 20
192.7494655332
 11
324.2859651145
 21
191.7494655332
  0
LINE
  5
368
100
AcDbEntity
  8
KONSTRUKTIONSELEMENTE
100
AcDbLine
 62
7
  6
CONTINUOUS
 10
409.2859651145
 20
231.7494655332
 11
409.2859651145
 21
194.7494655332
  0
LINE
  5
369
100
AcDbEntity
  8
BEZUGSACHSEN
100
AcDbLine
 62
7
  6
CONTINUOUS
 10
409.2859651145
 20
231.7494655332
 11
409.2859651145
 21
237.2494655332
  0
LINE
  5
36A
100
AcDbEntity
  8
RUNDUNGEN
100
AcDbLine
 62
7
  6
CONTINUOUS
 10
379.7136852876
 20
307.2198947235
 11
379.7138056219
 21
307.2198952883
  0
LINE
  5
36B
100
AcDbEntity
  8
RUNDUNGEN
100
AcDbLine
 62
7
  6
CONTINUOUS
 10
358.8581518664
 20
307.219896732
 11
379.7137783626
 21
307.219896732
  0
LINE
  5
36C
100
AcDbEntity
  8
RUNDUNGEN
100
AcDbLine
 62
7
  6
CONTINUOUS
 10
358.858124607
 20
307.2198952883
 11
358.8582449413
 21
307.2198947235
  0
LINE
  5
36D
100
AcDbEntity
  8
BEZUGSACHSEN
100
AcDbLine
 62
7
  6
CONTINUOUS
 10
414.2859651145
 20
191.7494655332
 11
414.2859651145
 21
184.7494655332
  0
LINE
  5
36E
100
AcDbEntity
  8
KONSTRUKTIONSELEMENTE
100
AcDbLine
 62
7
  6
CONTINUOUS
 10
416.7859651145
 20
367.2494655332
 11
416.7859651145
 21
303.2494655332
  0
LINE
  5
36F
100
AcDbEntity
  8
FASEN
100
AcDbLine
 62
7
  6
CONTINUOUS
 10
414.2859651145
 20
184.7494655332
 11
413.7859651145
 21
184.2494655332
  0
LINE
  5
370
100
AcDbEntity
  8
0
100
AcDbLine
 62
7
  6
CONTINUOUS
 10
385.7859651145
 20
135.4688367854
 11
384.5665938623
 21
134.2494655332
  0
LWPOLYLINE
  5
371
100
AcDbEntity
  8
BEZUGSACHSEN
100
AcDbPolyline
 62
7
  6
CONTINUOUS
 90
7
 70
0
 10
182.4307061993
 20
51.3402533633
 10
182.4454933071
 20
51.0166160524
 10
182.5514077999
 20
50.4227625208
 10
182.7568659511
 20
49.8542164112
 10
183.0566548627
 20
49.3270189135
 10
183.4409359349
 20
48.8581549059
 10
183.8657449815
 20
48.484131343
  0
LINE
  5
372
100
AcDbEntity
  8
BEZUGSACHSEN
100
AcDbLine
 62
7
  6
CONTINUOUS
 10
182.4308552596
 20
75.0126286963
 11
182.4308570828
 21
75.0124834446
  0
LINE
  5
373
100
AcDbEntity
  8
BEZUGSACHSEN
100
AcDbLine
 62
7
  6
CONTINUOUS
 10
182.4308552593
 20
51.3401236679
 11
182.4308552593
 21
75.0126255409
  0
LINE
  5
374
100
AcDbEntity
  8
BEZUGSACHSEN
100
AcDbLine
 62
7
  6
CONTINUOUS
 10
182.4308552596
 20
51.3401205125
 11
182.4308568795
 21
51.3402575306
  0
LWPOLYLINE
  5
375
100
AcDbEntity
  8
BEZUGSACHSEN
100
AcDbPolyline
 62
7
  6
CONTINUOUS
 90
7
 70
0
 10
183.8664733366
 20
77.8691679671
 10
183.4488074476
 20
77.502673312
 10
183.0657460369
 20
77.0388976654
 10
182.765457469
 20
76.5170341181
 10
182.5579142736
 20
75.95395333
 10
182.4482858179
 20
75.3652874549
 10
182.4307064059
 20
75.0124876156
  0
LINE
  5
376
100
AcDbEntity
  8
KONSTRUKTIONSELEMENTE
100
AcDbLine
 62
7
  6
CONTINUOUS
 10
242.6810202962
 20
23.1763746044
 11
237.4997510921
 21
23.1763746044
  0
LINE
  5
377
100
AcDbEntity
  8
KONSTRUKTIONSELEMENTE
100
AcDbLine
 62
7
  6
CONTINUOUS
 10
216.2987431116
 20
23.1763746044
 11
211.1215526201
 21
23.1763746044
  0
LWPOLYLINE
  5
378
100
AcDbEntity
  8
BEZUGSACHSEN
100
AcDbPolyline
 62
7
  6
CONTINUOUS
 90
5
 70
0
 10
191.6255015053
 20
83.5350273008
 10
191.3793945126
 20
83.3849427891
 10
191.1296852542
 20
83.2211846761
 10
190.8735180969
 20
83.0410661796
 10
183.8904312859
 20
77.8871215846
  0
LINE
  5
379
100
AcDbEntity
  8
BEZUGSACHSEN
100
AcDbLine
 62
7
  6
CONTINUOUS
 10
191.8385051555
 20
83.6558524114
 11
191.6255015053
 21
83.5350273008
  0
LINE
  5
37A
100
AcDbEntity
  8
BEZUGSACHSEN
100
AcDbLine
 62
7
  6
CONTINUOUS
 10
191.9784794886
 20
83.7319274444
 11
191.838359
 21
83.6556852208
  0
LINE
  5
37B
100
AcDbEntity
  8
BEZUGSACHSEN
100
AcDbLine
 62
7
  6
CONTINUOUS
 10
191.8379756377
 20
42.6972734856
 11
191.9772510634
 21
42.6214884562
  0
LINE
  5
37C
100
AcDbEntity
  8
BEZUGSACHSEN
100
AcDbLine
 62
7
  6
CONTINUOUS
 10
191.6255015053
 20
42.817721908
 11
191.8385051555
 21
42.6968967974
  0
LWPOLYLINE
  5
37D
100
AcDbEntity
  8
BEZUGSACHSEN
100
AcDbPolyline
 62
7
  6
CONTINUOUS
 90
4
 70
0
 10
190.8735180969
 20
43.3116830292
 10
191.1296852542
 20
43.1315645328
 10
191.3793945126
 20
42.9678064198
 10
191.6255015053
 20
42.817721908
  0
LINE
  5
37E
100
AcDbEntity
  8
BEZUGSACHSEN
100
AcDbLine
 62
7
  6
CONTINUOUS
 10
190.8735180969
 20
43.3116830292
 11
183.8904312859
 21
48.4656276243
  0
LINE
  5
37F
100
AcDbEntity
  8
0
100
AcDbLine
 62
7
  6
CONTINUOUS
 10
199.1056043951
 20
50.6763746044
 11
199.1056043951
 21
49.6763746044
  0
LINE
  5
380
100
AcDbEntity
  8
0
100
AcDbLine
 62
7
  6
CONTINUOUS
 10
200.8491095183
 20
50.6763746044
 11
200.8491095183
 21
49.6763746044
  0
LINE
  5
381
100
AcDbEntity
  8
0
100
AcDbLine
 62
7
  6
CONTINUOUS
 10
201.3162270438
 20
50.6763746044
 11
201.3162270438
 21
49.6763746044
  0
LINE
  5
382
100
AcDbEntity
  8
0
100
AcDbLine
 62
7
  6
CONTINUOUS
 10
201.9184728283
 20
50.6763746044
 11
201.9184728283
 21
49.6763746044
  0
LINE
  5
383
100
AcDbEntity
  8
0
100
AcDbLine
 62
7
  6
CONTINUOUS
 10
202.5519598575
 20
50.6763746044
 11
202.5519598575
 21
49.6763746044
  0
LINE
  5
384
100
AcDbEntity
  8
0
100
AcDbLine
 62
7
  6
CONTINUOUS
 10
202.9362675017
 20
50.6763746044
 11
202.9362675017
 21
49.6763746044
  0
LINE
  5
385
100
AcDbEntity
  8
0
100
AcDbLine
 62
7
  6
CONTINUOUS
 10
203.3518166815
 20
50.6763746044
 11
203.3518166815
 21
49.6763746044
  0
LINE
  5
386
100
AcDbEntity
  8
0
100
AcDbLine
 62
7
  6
CONTINUOUS
 10
203.3962294858
 20
50.6763746044
 11
203.3962294858
 21
49.6763746044
  0
LINE
  5
387
100
AcDbEntity
  8
0
100
AcDbLine
 62
7
  6
CONTINUOUS
 10
203.9510674702
 20
50.6763746044
 11
203.9510674702
 21
49.6763746044
  0
LINE
  5
388
100
AcDbEntity
  8
0
100
AcDbLine
 62
7
  6
CONTINUOUS
 10
206.1704183498
 20
50.6763746044
 11
206.1704183498
 21
49.6763746044
  0
LINE
  5
389
100
AcDbEntity
  8
0
100
AcDbLine
 62
7
  6
CONTINUOUS
 10
206.7252560697
 20
50.6763746044
 11
206.7252560697
 21
49.6763746044
  0
LINE
  5
38A
100
AcDbEntity
  8
0
100
AcDbLine
 62
7
  6
CONTINUOUS
 10
208.5831294752
 20
50.6763746044
 11
208.5831294752
 21
49.6763746044
  0
LINE
  5
38B
100
AcDbEntity
  8
0
100
AcDbLine
 62
7
  6
CONTINUOUS
 10
211.1854855101
 20
50.6763746044
 11
211.1854855101
 21
49.6763746044
  0
LINE
  5
38C
100
AcDbEntity
  8
0
100
AcDbLine
 62
7
  6
CONTINUOUS
 10
211.7911567249
 20
50.6763746044
 11
211.7911567249
 21
49.6763746044
  0
LINE
  5
38D
100
AcDbEntity
  8
0
100
AcDbLine
 62
7
  6
CONTINUOUS
 10
212.3519089048
 20
50.6763746044
 11
212.3519089048
 21
49.6763746044
  0
LINE
  5
38E
100
AcDbEntity
  8
0
100
AcDbLine
 62
7
  6
CONTINUOUS
 10
213.0396876725
 20
50.6763746044
 11
213.0396876725
 21
49.6763746044
  0
LINE
  5
38F
100
AcDbEntity
  8
0
100
AcDbLine
 62
7
  6
CONTINUOUS
 10
213.5106042646
 20
50.6763746044
 11
213.5106042646
 21
49.6763746044
  0
LINE
  5
390
100
AcDbEntity
  8
0
100
AcDbLine
 62
7
  6
CONTINUOUS
 10
213.9366019997
 20
50.6763746044
 11
213.9366019997
 21
49.6763746044
  0
LINE
  5
391
100
AcDbEntity
  8
0
100
AcDbLine
 62
7
  6
CONTINUOUS
 10
247.470815742
 20
49.6763746044
 11
238.1512864581
 21
49.6763746044
  0
LINE
  5
392
100
AcDbEntity
  8
0
100
AcDbLine
 62
7
  6
CONTINUOUS
 10
215.135626682
 20
49.6763746044
 11
199.1056043951
 21
49.6763746044
  0
LINE
  5
393
100
AcDbEntity
  8
0
100
AcDbLine
 62
7
  6
CONTINUOUS
 10
214.8893014969
 20
50.6763746044
 11
214.8893014969
 21
49.6763746044
  0
LINE
  5
394
100
AcDbEntity
  8
0
100
AcDbLine
 62
7
  6
CONTINUOUS
 10
215.0984368785
 20
50.6763746044
 11
215.0984368785
 21
49.6763746044
  0
LINE
  5
395
100
AcDbEntity
  8
0
100
AcDbLine
 62
7
  6
CONTINUOUS
 10
215.135626682
 20
50.6763746044
 11
215.135626682
 21
49.6763746044
  0
LINE
  5
396
100
AcDbEntity
  8
KONSTRUKTIONSELEMENTE
100
AcDbLine
 62
7
  6
CONTINUOUS
 10
215.6512864581
 20
99.4263746044
 11
215.6512864581
 21
26.9263746044
  0
LINE
  5
397
100
AcDbEntity
  8
BEZUGSACHSEN
100
AcDbLine
 62
7
  6
CONTINUOUS
 10
263.2964829041
 20
50.6763746044
 11
238.1512864581
 21
50.6763746044
  0
LINE
  5
398
100
AcDbEntity
  8
BEZUGSACHSEN
100
AcDbLine
 62
7
  6
CONTINUOUS
 10
190.5060900121
 20
50.6763746044
 11
215.6512864581
 21
50.6763746044
  0
LINE
  5
399
100
AcDbEntity
  8
KONSTRUKTIONSELEMENTE
100
AcDbLine
 62
7
  6
CONTINUOUS
 10
238.1512864581
 20
99.4263746044
 11
238.1512864581
 21
26.9263746044
  0
LINE
  5
39A
100
AcDbEntity
  8
RUNDUNGEN
100
AcDbLine
 62
7
  6
CONTINUOUS
 10
263.2964829041
 20
75.6763746044
 11
255.7095445125
 21
75.6763746044
  0
LINE
  5
39B
100
AcDbEntity
  8
BEZUGSACHSEN
100
AcDbLine
 62
7
  6
CONTINUOUS
 10
255.7095445125
 20
75.6763746044
 11
238.1512864581
 21
75.6763746044
  0
LINE
  5
39C
100
AcDbEntity
  8
BEZUGSACHSEN
100
AcDbLine
 62
7
  6
CONTINUOUS
 10
190.5060900121
 20
75.6763746044
 11
215.6512864581
 21
75.6763746044
  0
LINE
  5
39D
100
AcDbEntity
  8
0
100
AcDbLine
 62
7
  6
CONTINUOUS
 10
240.6767342648
 20
50.6763746044
 11
240.6767342648
 21
49.6763746044
  0
LINE
  5
39E
100
AcDbEntity
  8
0
100
AcDbLine
 62
7
  6
CONTINUOUS
 10
241.1964748268
 20
50.6763746044
 11
241.1964748268
 21
49.6763746044
  0
LINE
  5
39F
100
AcDbEntity
  8
0
100
AcDbLine
 62
7
  6
CONTINUOUS
 10
241.498514618
 20
50.6763746044
 11
241.498514618
 21
49.6763746044
  0
LINE
  5
3A0
100
AcDbEntity
  8
0
100
AcDbLine
 62
7
  6
CONTINUOUS
 10
241.6345631972
 20
50.6763746044
 11
241.6345631972
 21
49.6763746044
  0
LINE
  5
3A1
100
AcDbEntity
  8
0
100
AcDbLine
 62
7
  6
CONTINUOUS
 10
241.8290866758
 20
50.6763746044
 11
241.8290866758
 21
49.6763746044
  0
LINE
  5
3A2
100
AcDbEntity
  8
0
100
AcDbLine
 62
7
  6
CONTINUOUS
 10
242.9638896368
 20
50.6763746044
 11
242.9638896368
 21
49.6763746044
  0
LINE
  5
3A3
100
AcDbEntity
  8
0
100
AcDbLine
 62
7
  6
CONTINUOUS
 10
243.442843568
 20
50.6763746044
 11
243.442843568
 21
49.6763746044
  0
LINE
  5
3A4
100
AcDbEntity
  8
0
100
AcDbLine
 62
7
  6
CONTINUOUS
 10
243.94682756
 20
50.6763746044
 11
243.94682756
 21
49.6763746044
  0
LINE
  5
3A5
100
AcDbEntity
  8
0
100
AcDbLine
 62
7
  6
CONTINUOUS
 10
244.6521837538
 20
50.6763746044
 11
244.6521837538
 21
49.6763746044
  0
LINE
  5
3A6
100
AcDbEntity
  8
0
100
AcDbLine
 62
7
  6
CONTINUOUS
 10
245.2062329003
 20
50.6763746044
 11
245.2062329003
 21
49.6763746044
  0
LINE
  5
3A7
100
AcDbEntity
  8
0
100
AcDbLine
 62
7
  6
CONTINUOUS
 10
245.7853123194
 20
50.6763746044
 11
245.7853123194
 21
49.6763746044
  0
LINE
  5
3A8
100
AcDbEntity
  8
0
100
AcDbLine
 62
7
  6
CONTINUOUS
 10
246.691480314
 20
50.6763746044
 11
246.691480314
 21
49.6763746044
  0
LINE
  5
3A9
100
AcDbEntity
  8
0
100
AcDbLine
 62
7
  6
CONTINUOUS
 10
247.1192526858
 20
50.6763746044
 11
247.1192526858
 21
49.6763746044
  0
LINE
  5
3AA
100
AcDbEntity
  8
0
100
AcDbLine
 62
7
  6
CONTINUOUS
 10
247.3706877376
 20
50.6763746044
 11
247.3706877376
 21
49.6763746044
  0
LINE
  5
3AB
100
AcDbEntity
  8
0
100
AcDbLine
 62
7
  6
CONTINUOUS
 10
247.470815742
 20
50.6763746044
 11
247.470815742
 21
49.6763746044
  0
LINE
  5
3AC
100
AcDbEntity
  8
BEZUGSACHSEN
100
AcDbLine
 62
7
  6
CONTINUOUS
 10
261.9640677607
 20
42.6968967974
 11
262.1770714109
 21
42.817721908
  0
LINE
  5
3AD
100
AcDbEntity
  8
BEZUGSACHSEN
100
AcDbLine
 62
7
  6
CONTINUOUS
 10
261.8240934277
 20
42.6208217645
 11
261.9642139162
 21
42.6970639881
  0
LINE
  5
3AE
100
AcDbEntity
  8
RUNDUNGEN
100
AcDbLine
 62
7
  6
CONTINUOUS
 10
261.9645972786
 20
83.6554757233
 11
261.8253218528
 21
83.7312607527
  0
LINE
  5
3AF
100
AcDbEntity
  8
RUNDUNGEN
100
AcDbLine
 62
7
  6
CONTINUOUS
 10
262.1770714109
 20
83.5350273008
 11
261.9640677607
 21
83.6558524114
  0
LWPOLYLINE
  5
3B0
100
AcDbEntity
  8
BEZUGSACHSEN
100
AcDbPolyline
 62
7
  6
CONTINUOUS
 90
7
 70
0
 10
269.9360995796
 20
48.4835812417
 10
270.3537654686
 20
48.8500758969
 10
270.7368268794
 20
49.3138515435
 10
271.0371154473
 20
49.8357150907
 10
271.2446586426
 20
50.3987958789
 10
271.3542870983
 20
50.9874617539
 10
271.3718665103
 20
51.3402615933
  0
LWPOLYLINE
  5
3B1
100
AcDbEntity
  8
BEZUGSACHSEN
100
AcDbPolyline
 62
7
  6
CONTINUOUS
 90
5
 70
0
 10
262.1770714109
 20
42.817721908
 10
262.4231784037
 20
42.9678064198
 10
262.672887662
 20
43.1315645328
 10
262.9290548193
 20
43.3116830292
 10
269.9121416304
 20
48.4656276243
  0
LWPOLYLINE
  5
3B2
100
AcDbEntity
  8
RUNDUNGEN
100
AcDbPolyline
 62
7
  6
CONTINUOUS
 90
4
 70
0
 10
262.9290548193
 20
83.0410661796
 10
262.672887662
 20
83.2211846761
 10
262.4231784037
 20
83.3849427891
 10
262.1770714109
 20
83.5350273008
  0
LINE
  5
3B3
100
AcDbEntity
  8
RUNDUNGEN
100
AcDbLine
 62
7
  6
CONTINUOUS
 10
262.9290548193
 20
83.0410661796
 11
269.9121416304
 21
77.8871215846
  0
LINE
  5
3B4
100
AcDbEntity
  8
KONSTRUKTIONSELEMENTE
100
AcDbLine
 62
7
  6
CONTINUOUS
 10
211.1215526201
 20
103.1763746044
 11
216.3028218241
 21
103.1763746044
  0
LINE
  5
3B5
100
AcDbEntity
  8
KONSTRUKTIONSELEMENTE
100
AcDbLine
 62
7
  6
CONTINUOUS
 10
237.4997510921
 20
103.1763746044
 11
242.6810202962
 21
103.1763746044
  0
LWPOLYLINE
  5
3B6
100
AcDbEntity
  8
RUNDUNGEN
100
AcDbPolyline
 62
7
  6
CONTINUOUS
 90
7
 70
0
 10
271.371866717
 20
75.0124958456
 10
271.3570796091
 20
75.3361331565
 10
271.2511651164
 20
75.9299866881
 10
271.0457069651
 20
76.4985327976
 10
270.7459180535
 20
77.0257302954
 10
270.3616369813
 20
77.4945943029
 10
269.9368279347
 20
77.8686178658
  0
LINE
  5
3B7
100
AcDbEntity
  8
BEZUGSACHSEN
100
AcDbLine
 62
7
  6
CONTINUOUS
 10
271.3717176567
 20
51.3401205125
 11
271.3717158335
 21
51.3402657643
  0
LINE
  5
3B8
100
AcDbEntity
  8
BEZUGSACHSEN
100
AcDbLine
 62
7
  6
CONTINUOUS
 10
271.3717176569
 20
75.0126255409
 11
271.3717176569
 21
51.3401236679
  0
LINE
  5
3B9
100
AcDbEntity
  8
RUNDUNGEN
100
AcDbLine
 62
7
  6
CONTINUOUS
 10
271.3717176567
 20
75.0126286963
 11
271.3717160367
 21
75.0124916783
  0
ARC
  5
3BA
100
AcDbEntity
  8
RUNDUNGEN
100
AcDbCircle
 62
7
  6
CONTINUOUS
 10
226.9012864581
 20
262.7494655332
 40
16.0
100
AcDbArc
 50
19.6213526008
 51
32.0539189154
  0
ARC
  5
3BB
100
AcDbEntity
  8
BEZUGSACHSEN
100
AcDbCircle
 62
7
  6
CONTINUOUS
 10
226.9012864581
 20
262.7494655332
 40
16.0
100
AcDbArc
 50
134.7088534976
 51
45.2911465024
  0
ARC
  5
3BC
100
AcDbEntity
  8
KONSTRUKTIONSELEMENTE
100
AcDbCircle
 62
7
  6
CONTINUOUS
 10
226.9012864581
 20
403.4994655332
 40
11.25
100
AcDbArc
 50
0.0
 51
180.0
  0
ARC
  5
3BD
100
AcDbEntity
  8
KONSTRUKTIONSELEMENTE
100
AcDbCircle
 62
7
  6
CONTINUOUS
 10
226.9012864581
 20
266.9994655332
 40
11.25
100
AcDbArc
 50
180.0
 51
360.0
  0
ARC
  5
3BE
100
AcDbEntity
  8
BEZUGSACHSEN
100
AcDbCircle
 62
7
  6
CONTINUOUS
 10
186.4308552593
 20
262.7494655332
 40
4.0
100
AcDbArc
 50
157.4893258504
 51
202.5
  0
ARC
  5
3BF
100
AcDbEntity
  8
BEZUGSACHSEN
100
AcDbCircle
 62
7
  6
CONTINUOUS
 10
198.2843701199
 20
291.3663818714
 40
4.0
100
AcDbArc
 50
112.5
 51
157.5
  0
ARC
  5
3C0
100
AcDbEntity
  8
BEZUGSACHSEN
100
AcDbCircle
 62
7
  6
CONTINUOUS
 10
267.3717176569
 20
262.7494655332
 40
4.0
100
AcDbArc
 50
337.5
 51
22.5106741496
  0
ARC
  5
3C1
100
AcDbEntity
  8
BEZUGSACHSEN
100
AcDbCircle
 62
7
  6
CONTINUOUS
 10
255.5182027963
 20
291.3663818714
 40
4.0
100
AcDbArc
 50
22.5
 51
67.5
  0
ARC
  5
3C2
100
AcDbEntity
  8
BEZUGSACHSEN
100
AcDbCircle
 62
7
  6
CONTINUOUS
 10
269.9011298254
 20
250.5641251868
 40
2.9999890721
100
AcDbArc
 50
157.4921829844
 51
179.9927775886
  0
ARC
  5
3C3
100
AcDbEntity
  8
BEZUGSACHSEN
100
AcDbCircle
 62
7
  6
CONTINUOUS
 10
183.9014430909
 20
250.5641251868
 40
2.9999890721
100
AcDbArc
 50
0.0072224119
 51
22.5078170161
  0
ARC
  5
3C4
100
AcDbEntity
  8
KONSTRUKTIONSELEMENTE
100
AcDbCircle
 62
7
  6
CONTINUOUS
 10
271.9012864581
 20
194.5778926579
 40
2.0
100
AcDbArc
 50
180.0
 51
225.0
  0
ARC
  5
3C5
100
AcDbEntity
  8
KONSTRUKTIONSELEMENTE
100
AcDbCircle
 62
7
  6
CONTINUOUS
 10
181.9012864581
 20
194.5778926579
 40
2.0
100
AcDbArc
 50
315.0
 51
360.0
  0
ARC
  5
3C6
100
AcDbEntity
  8
KONSTRUKTIONSELEMENTE
100
AcDbCircle
 62
7
  6
CONTINUOUS
 10
241.8750850821
 20
194.7505109871
 40
0.8059358921
100
AcDbArc
 50
347.6323589652
 51
359.9256763315
  0
ARC
  5
3C7
100
AcDbEntity
  8
KONSTRUKTIONSELEMENTE
100
AcDbCircle
 62
7
  6
CONTINUOUS
 10
211.9274878341
 20
194.7505109871
 40
0.8059358921
100
AcDbArc
 50
180.0743236685
 51
192.3676410348
  0
ARC
  5
3C8
100
AcDbEntity
  8
BEZUGSACHSEN
100
AcDbCircle
 62
7
  6
CONTINUOUS
 10
347.7859651145
 20
273.8945245453
 40
9.0
100
AcDbArc
 50
343.0000302944
 51
359.9999424682
  0
ARC
  5
3C9
100
AcDbEntity
  8
BEZUGSACHSEN
100
AcDbCircle
 62
7
  6
CONTINUOUS
 10
333.2859651145
 20
237.2494655332
 40
4.0
100
AcDbArc
 50
90.0
 51
180.0
  0
ARC
  5
3CA
100
AcDbEntity
  8
RUNDUNGEN
100
AcDbCircle
 62
7
  6
CONTINUOUS
 10
344.6267310222
 20
244.7494655332
 40
3.5
100
AcDbArc
 50
307.537497921
 51
342.9997215233
  0
ARC
  5
3CB
100
AcDbEntity
  8
RUNDUNGEN
100
AcDbCircle
 62
7
  6
CONTINUOUS
 10
344.6267310222
 20
244.7494655332
 40
3.5
100
AcDbArc
 50
270.0002680268
 51
305.8844719706
  0
ARC
  5
3CC
100
AcDbEntity
  8
BEZUGSACHSEN
100
AcDbCircle
 62
7
  6
CONTINUOUS
 10
344.6267310222
 20
244.7494655332
 40
3.5
100
AcDbArc
 50
270.0002680268
 51
343.00189947
  0
ARC
  5
3CD
100
AcDbEntity
  8
KONSTRUKTIONSELEMENTE
100
AcDbCircle
 62
7
  6
CONTINUOUS
 10
327.2859651145
 20
194.7494655332
 40
2.0
100
AcDbArc
 50
270.0
 51
360.0
  0
ARC
  5
3CE
100
AcDbEntity
  8
BEZUGSACHSEN
100
AcDbCircle
 62
7
  6
CONTINUOUS
 10
390.7859651145
 20
273.8945245453
 40
9.0
100
AcDbArc
 50
180.0000575318
 51
196.9999697056
  0
ARC
  5
3CF
100
AcDbEntity
  8
BEZUGSACHSEN
100
AcDbCircle
 62
7
  6
CONTINUOUS
 10
405.2859651145
 20
237.2494655332
 40
4.0
100
AcDbArc
 50
0.0
 51
90.0
  0
ARC
  5
3D0
100
AcDbEntity
  8
BEZUGSACHSEN
100
AcDbCircle
 62
7
  6
CONTINUOUS
 10
393.9451992067
 20
244.7494655332
 40
3.5
100
AcDbArc
 50
196.99810053
 51
269.9997319732
  0
ARC
  5
3D1
100
AcDbEntity
  8
KONSTRUKTIONSELEMENTE
100
AcDbCircle
 62
7
  6
CONTINUOUS
 10
411.2859651145
 20
194.7494655332
 40
2.0
100
AcDbArc
 50
180.0
 51
270.0
  0
ARC
  5
3D2
100
AcDbEntity
  8
KONSTRUKTIONSELEMENTE
100
AcDbCircle
 62
7
  6
CONTINUOUS
 10
369.2859651145
 20
367.2494655332
 40
47.5
100
AcDbArc
 50
0.0
 51
180.0
  0
ARC
  5
3D3
100
AcDbEntity
  8
KONSTRUKTIONSELEMENTE
100
AcDbCircle
 62
7
  6
CONTINUOUS
 10
369.2859651145
 20
303.2494655332
 40
47.5
100
AcDbArc
 50
290.5956252475
 51
360.0
  0
ARC
  5
3D4
100
AcDbEntity
  8
KONSTRUKTIONSELEMENTE
100
AcDbCircle
 62
7
  6
CONTINUOUS
 10
369.2859651145
 20
303.2494655332
 40
47.5
100
AcDbArc
 50
180.0
 51
249.4043747525
  0
ARC
  5
3D5
100
AcDbEntity
  8
KONSTRUKTIONSELEMENTE
100
AcDbCircle
 62
7
  6
CONTINUOUS
 10
369.2859651145
 20
367.2494655332
 40
25.0
100
AcDbArc
 50
0.0
 51
180.0
  0
ARC
  5
3D6
100
AcDbEntity
  8
KONSTRUKTIONSELEMENTE
100
AcDbCircle
 62
7
  6
CONTINUOUS
 10
369.2859651145
 20
303.2494655332
 40
25.0
100
AcDbArc
 50
302.8297322817
 51
360.0
  0
ARC
  5
3D7
100
AcDbEntity
  8
KONSTRUKTIONSELEMENTE
100
AcDbCircle
 62
7
  6
CONTINUOUS
 10
369.2859651145
 20
303.2494655332
 40
25.0
100
AcDbArc
 50
180.0
 51
239.985223191
  0
ARC
  5
3D8
100
AcDbEntity
  8
BEZUGSACHSEN
100
AcDbCircle
 62
7
  6
CONTINUOUS
 10
190.069003012
 20
39.106000778
 40
4.0
100
AcDbArc
 50
33.1749023831
 51
61.4843410276
  0
ARC
  5
3D9
100
AcDbEntity
  8
BEZUGSACHSEN
100
AcDbCircle
 62
7
  6
CONTINUOUS
 10
190.069003012
 20
87.2467484308
 40
4.0
100
AcDbArc
 50
298.5156589724
 51
326.8250976169
  0
ARC
  5
3DA
100
AcDbEntity
  8
KONSTRUKTIONSELEMENTE
100
AcDbCircle
 62
7
  6
CONTINUOUS
 10
226.9012864581
 20
26.9263746044
 40
11.25
100
AcDbArc
 50
180.0
 51
360.0
  0
ARC
  5
3DB
100
AcDbEntity
  8
BEZUGSACHSEN
100
AcDbCircle
 62
7
  6
CONTINUOUS
 10
263.7335699043
 20
39.106000778
 40
4.0
100
AcDbArc
 50
118.5156589723
 51
146.8250976169
  0
ARC
  5
3DC
100
AcDbEntity
  8
BEZUGSACHSEN
100
AcDbCircle
 62
7
  6
CONTINUOUS
 10
226.9012864581
 20
63.1763746044
 40
45.0
100
AcDbArc
 50
280.0733578496
 51
340.2317093282
  0
ARC
  5
3DD
100
AcDbEntity
  8
BEZUGSACHSEN
100
AcDbCircle
 62
7
  6
CONTINUOUS
 10
226.9012864581
 20
63.1763746044
 40
45.0
100
AcDbArc
 50
199.7682906718
 51
259.9374236494
  0
ARC
  5
3DE
100
AcDbEntity
  8
BEZUGSACHSEN
100
AcDbCircle
 62
7
  6
CONTINUOUS
 10
226.9012864581
 20
63.1763746044
 40
45.0
100
AcDbArc
 50
351.3696587965
 51
8.6303412035
  0
ARC
  5
3DF
100
AcDbEntity
  8
BEZUGSACHSEN
100
AcDbCircle
 62
7
  6
CONTINUOUS
 10
226.9012864581
 20
63.1763746044
 40
45.0
100
AcDbArc
 50
19.7682906718
 51
79.9266421504
  0
ARC
  5
3E0
100
AcDbEntity
  8
BEZUGSACHSEN
100
AcDbCircle
 62
7
  6
CONTINUOUS
 10
226.9012864581
 20
63.1763746044
 40
45.0
100
AcDbArc
 50
100.0733578496
 51
160.2317093282
  0
ARC
  5
3E1
100
AcDbEntity
  8
BEZUGSACHSEN
100
AcDbCircle
 62
7
  6
CONTINUOUS
 10
226.9012864581
 20
63.1763746044
 40
45.0
100
AcDbArc
 50
171.3696587965
 51
188.6303412035
  0
ARC
  5
3E2
100
AcDbEntity
  8
KONSTRUKTIONSELEMENTE
100
AcDbCircle
 62
7
  6
CONTINUOUS
 10
226.9012864581
 20
63.1763746044
 40
44.0
100
AcDbArc
 50
101.7086731943
 51
107.3414428028
  0
ARC
  5
3E3
100
AcDbEntity
  8
KONSTRUKTIONSELEMENTE
100
AcDbCircle
 62
7
  6
CONTINUOUS
 10
226.9012864581
 20
63.1763746044
 40
44.0
100
AcDbArc
 50
72.6585571972
 51
78.2913268057
  0
ARC
  5
3E4
100
AcDbEntity
  8
KONSTRUKTIONSELEMENTE
100
AcDbCircle
 62
7
  6
CONTINUOUS
 10
226.9012864581
 20
63.1763746044
 40
44.0
100
AcDbArc
 50
281.7086731943
 51
287.3414428028
  0
ARC
  5
3E5
100
AcDbEntity
  8
KONSTRUKTIONSELEMENTE
100
AcDbCircle
 62
7
  6
CONTINUOUS
 10
226.9012864581
 20
63.1763746044
 40
44.0
100
AcDbArc
 50
252.6585571972
 51
258.283384611
  0
ARC
  5
3E6
100
AcDbEntity
  8
KONSTRUKTIONSELEMENTE
100
AcDbCircle
 62
7
  6
CONTINUOUS
 10
226.9012864581
 20
63.1763746044
 40
43.0
100
AcDbArc
 50
23.9425491947
 51
68.4710955944
  0
ARC
  5
3E7
100
AcDbEntity
  8
KONSTRUKTIONSELEMENTE
100
AcDbCircle
 62
7
  6
CONTINUOUS
 10
226.9012864581
 20
63.1763746044
 40
43.0
100
AcDbArc
 50
291.5289044056
 51
336.0574508053
  0
ARC
  5
3E8
100
AcDbEntity
  8
KONSTRUKTIONSELEMENTE
100
AcDbCircle
 62
7
  6
CONTINUOUS
 10
226.9012864581
 20
63.1763746044
 40
43.0
100
AcDbArc
 50
203.9425491947
 51
248.4710955944
  0
ARC
  5
3E9
100
AcDbEntity
  8
KONSTRUKTIONSELEMENTE
100
AcDbCircle
 62
7
  6
CONTINUOUS
 10
226.9012864581
 20
63.1763746044
 40
43.0
100
AcDbArc
 50
111.5289044056
 51
156.0574508053
  0
ARC
  5
3EA
100
AcDbEntity
  8
KONSTRUKTIONSELEMENTE
100
AcDbCircle
 62
7
  6
CONTINUOUS
 10
226.9012864581
 20
63.1763746044
 40
41.0
100
AcDbArc
 50
105.2071332519
 51
150.6769608089
  0
ARC
  5
3EB
100
AcDbEntity
  8
KONSTRUKTIONSELEMENTE
100
AcDbCircle
 62
7
  6
CONTINUOUS
 10
226.9012864581
 20
63.1763746044
 40
41.0
100
AcDbArc
 50
209.3230391911
 51
254.7985487537
  0
ARC
  5
3EC
100
AcDbEntity
  8
KONSTRUKTIONSELEMENTE
100
AcDbCircle
 62
7
  6
CONTINUOUS
 10
226.9012864581
 20
63.1763746044
 40
41.0
100
AcDbArc
 50
285.2071332519
 51
330.6769608089
  0
ARC
  5
3ED
100
AcDbEntity
  8
KONSTRUKTIONSELEMENTE
100
AcDbCircle
 62
7
  6
CONTINUOUS
 10
226.9012864581
 20
63.1763746044
 40
41.0
100
AcDbArc
 50
29.3230391911
 51
74.7928667481
  0
ARC
  5
3EE
100
AcDbEntity
  8
RUNDUNGEN
100
AcDbCircle
 62
7
  6
CONTINUOUS
 10
226.9012864581
 20
63.1763746044
 40
40.0
100
AcDbArc
 50
33.1641589266
 51
43.233933997
  0
ARC
  5
3EF
100
AcDbEntity
  8
BEZUGSACHSEN
100
AcDbCircle
 62
7
  6
CONTINUOUS
 10
226.9012864581
 20
63.1763746044
 40
40.0
100
AcDbArc
 50
106.0259367313
 51
146.8358410734
  0
ARC
  5
3F0
100
AcDbEntity
  8
BEZUGSACHSEN
100
AcDbCircle
 62
7
  6
CONTINUOUS
 10
226.9012864581
 20
63.1763746044
 40
40.0
100
AcDbArc
 50
43.233933997
 51
73.9740632687
  0
ARC
  5
3F1
100
AcDbEntity
  8
BEZUGSACHSEN
100
AcDbCircle
 62
7
  6
CONTINUOUS
 10
226.9012864581
 20
63.1763746044
 40
40.0
100
AcDbArc
 50
213.1641589266
 51
253.993628653
  0
ARC
  5
3F2
100
AcDbEntity
  8
BEZUGSACHSEN
100
AcDbCircle
 62
7
  6
CONTINUOUS
 10
226.9012864581
 20
63.1763746044
 40
40.0
100
AcDbArc
 50
286.0068320329
 51
326.8358410735
  0
ARC
  5
3F3
100
AcDbEntity
  8
KONSTRUKTIONSELEMENTE
100
AcDbCircle
 62
7
  6
CONTINUOUS
 10
226.9012864581
 20
99.4263746044
 40
11.25
100
AcDbArc
 50
0.0
 51
180.0
  0
ARC
  5
3F4
100
AcDbEntity
  8
RUNDUNGEN
100
AcDbCircle
 62
7
  6
CONTINUOUS
 10
263.7335699043
 20
87.2467484308
 40
4.0
100
AcDbArc
 50
213.1749023831
 51
241.4843410276
  0
SPLINE
  5
3F5
100
AcDbEntity
  8
BEZUGSACHSEN
100
AcDbSpline
 62
7
  6
CONTINUOUS
 70
0
 71
3
 72
10
 73
6
 74
0
 42
0.0000001
 43
0.0000001
 44
0.0000000001
 40
0.0
 40
0.0
 40
0.0
 40
0.0
 40
0.2469577428
 40
0.4950728775
 40
1.0
 40
1.0
 40
1.0
 40
1.0
 10
190.3766646646
 20
242.7709352331
 30
0.0
 10
190.6794256653
 20
242.0395711001
 30
0.0
 10
191.2434377802
 20
240.5556154508
 30
0.0
 10
192.287408621
 20
237.5253428776
 30
0.0
 10
193.0028691175
 20
235.2179620862
 30
0.0
 10
193.4174062659
 20
233.6535496538
 30
0.0
  0
SPLINE
  5
3F6
100
AcDbEntity
  8
BEZUGSACHSEN
100
AcDbSpline
 62
7
  6
CONTINUOUS
 70
0
 71
3
 72
10
 73
6
 74
0
 42
0.0000001
 43
0.0000001
 44
0.0000000001
 40
0.0
 40
0.0
 40
0.0
 40
0.0
 40
0.2469577428
 40
0.4950728775
 40
1.0
 40
1.0
 40
1.0
 40
1.0
 10
263.4259082516
 20
242.7709352331
 30
0.0
 10
263.1231472509
 20
242.0395711001
 30
0.0
 10
262.559135136
 20
240.5556154508
 30
0.0
 10
261.5151642952
 20
237.5253428776
 30
0.0
 10
260.7997037987
 20
235.2179620862
 30
0.0
 10
260.3851666504
 20
233.6535496538
 30
0.0
  0
SPLINE
  5
3F7
100
AcDbEntity
  8
KONSTRUKTIONSELEMENTE
100
AcDbSpline
 62
7
  6
CONTINUOUS
 70
0
 71
3
 72
10
 73
6
 74
0
 42
0.0000001
 43
0.0000001
 44
0.0000000001
 40
0.0
 40
0.0
 40
0.0
 40
0.0
 40
0.5519893454
 40
0.7921562049
 40
1.0
 40
1.0
 40
1.0
 40
1.0
 10
242.6623179414
 20
194.5778926579
 30
0.0
 10
242.6046062631
 20
194.3138429397
 30
0.0
 10
242.5352378441
 20
193.9318113161
 30
0.0
 10
242.4187291537
 20
193.4565305251
 30
0.0
 10
242.3367454943
 20
193.2503220549
 30
0.0
 10
242.2833565135
 20
193.1636790956
 30
0.0
  0
SPLINE
  5
3F8
100
AcDbEntity
  8
KONSTRUKTIONSELEMENTE
100
AcDbSpline
 62
7
  6
CONTINUOUS
 70
0
 71
3
 72
12
 73
8
 74
0
 42
0.0000001
 43
0.0000001
 44
0.0000000001
 40
0.0
 40
0.0
 40
0.0
 40
0.0
 40
0.1015445975
 40
0.2167502134
 40
0.4671349337
 40
0.7303463204
 40
1.0
 40
1.0
 40
1.0
 40
1.0
 10
242.2833565135
 20
193.1636790956
 30
0.0
 10
242.2415693573
 20
193.095864299
 30
0.0
 10
242.0947061871
 20
192.992034179
 30
0.0
 10
241.7498684701
 20
192.8720551569
 30
0.0
 10
241.2584872205
 20
192.7956174351
 30
0.0
 10
240.6459904846
 20
192.7556917671
 30
0.0
 10
240.2276904962
 20
192.7494655332
 30
0.0
 10
240.0161635067
 20
192.7494655332
 30
0.0
  0
SPLINE
  5
3F9
100
AcDbEntity
  8
KONSTRUKTIONSELEMENTE
100
AcDbSpline
 62
7
  6
CONTINUOUS
 70
0
 71
3
 72
10
 73
6
 74
0
 42
0.0000001
 43
0.0000001
 44
0.0000000001
 40
0.0
 40
0.0
 40
0.0
 40
0.0
 40
0.2078437951
 40
0.4480106546
 40
1.0
 40
1.0
 40
1.0
 40
1.0
 10
211.5192164027
 20
193.1636790956
 30
0.0
 10
211.4658274219
 20
193.2503220549
 30
0.0
 10
211.3838437626
 20
193.4565305251
 30
0.0
 10
211.2673350721
 20
193.9318113161
 30
0.0
 10
211.1979666531
 20
194.3138429397
 30
0.0
 10
211.1402549749
 20
194.5778926579
 30
0.0
  0
SPLINE
  5
3FA
100
AcDbEntity
  8
KONSTRUKTIONSELEMENTE
100
AcDbSpline
 62
7
  6
CONTINUOUS
 70
0
 71
3
 72
9
 73
5
 74
0
 42
0.0000001
 43
0.0000001
 44
0.0000000001
 40
0.0
 40
0.0
 40
0.0
 40
0.0
 40
0.2500652431
 40
1.0
 40
1.0
 40
1.0
 40
1.0
 10
217.9012864581
 20
231.7494655332
 30
0.0
 10
217.3255274968
 20
231.6230794197
 30
0.0
 10
215.0328132399
 20
231.0736492985
 30
0.0
 10
212.7811229604
 20
230.358478981
 30
0.0
 10
211.1215526201
 20
229.7494655332
 30
0.0
  0
SPLINE
  5
3FB
100
AcDbEntity
  8
KONSTRUKTIONSELEMENTE
100
AcDbSpline
 62
7
  6
CONTINUOUS
 70
0
 71
3
 72
9
 73
5
 74
0
 42
0.0000001
 43
0.0000001
 44
0.0000000001
 40
0.0
 40
0.0
 40
0.0
 40
0.0
 40
0.7499347878
 40
1.0
 40
1.0
 40
1.0
 40
1.0
 10
242.6810202962
 20
229.7494655332
 30
0.0
 10
241.0214498872
 20
230.3584790062
 30
0.0
 10
238.7697596198
 20
231.0736493726
 30
0.0
 10
236.4770453484
 20
231.6230794353
 30
0.0
 10
235.9012864581
 20
231.7494655332
 30
0.0
  0
SPLINE
  5
3FC
100
AcDbEntity
  8
KONSTRUKTIONSELEMENTE
100
AcDbSpline
 62
7
  6
CONTINUOUS
 70
0
 71
3
 72
12
 73
8
 74
0
 42
0.0000001
 43
0.0000001
 44
0.0000000001
 40
0.0
 40
0.0
 40
0.0
 40
0.0
 40
0.2696590505
 40
0.5328732052
 40
0.7832571615
 40
0.8984654086
 40
1.0
 40
1.0
 40
1.0
 40
1.0
 10
213.7864094095
 20
192.7494655332
 30
0.0
 10
213.574878263
 20
192.7494655332
 30
0.0
 10
213.1565718549
 20
192.7556905774
 30
0.0
 10
212.5440700606
 20
192.7956188809
 30
0.0
 10
212.0526841457
 20
192.8720563832
 30
0.0
 10
211.707856788
 20
192.9920451379
 30
0.0
 10
211.5609994302
 20
193.0958709994
 30
0.0
 10
211.5192164027
 20
193.1636790956
 30
0.0
  0
SPLINE
  5
3FD
100
AcDbEntity
  8
RUNDUNGEN
100
AcDbSpline
 62
7
  6
CONTINUOUS
 70
0
 71
3
 72
10
 73
6
 74
0
 42
0.0000001
 43
0.0000001
 44
0.0000000001
 40
0.0
 40
0.0
 40
0.0
 40
0.0
 40
0.2508908731
 40
0.5020068499
 40
1.0
 40
1.0
 40
1.0
 40
1.0
 10
358.858124607
 20
307.2198952883
 30
0.0
 10
358.5411377691
 20
307.0654475282
 30
0.0
 10
357.9512357674
 20
306.6546232738
 30
0.0
 10
357.068961586
 20
305.5427543846
 30
0.0
 10
356.7859651145
 20
304.4609909039
 30
0.0
 10
356.7859651145
 20
303.7610928322
 30
0.0
  0
SPLINE
  5
3FE
100
AcDbEntity
  8
RUNDUNGEN
100
AcDbSpline
 62
7
  6
CONTINUOUS
 70
0
 71
3
 72
10
 73
6
 74
0
 42
0.0000001
 43
0.0000001
 44
0.0000000001
 40
0.0
 40
0.0
 40
0.0
 40
0.0
 40
0.2508908731
 40
0.5020068499
 40
1.0
 40
1.0
 40
1.0
 40
1.0
 10
379.7138056219
 20
307.2198952883
 30
0.0
 10
380.0307924599
 20
307.0654475282
 30
0.0
 10
380.6206944616
 20
306.6546232738
 30
0.0
 10
381.502968643
 20
305.5427543846
 30
0.0
 10
381.7859651145
 20
304.4609909039
 30
0.0
 10
381.7859651145
 20
303.7610928322
 30
0.0
  0
SPLINE
  5
3FF
100
AcDbEntity
  8
RUNDUNGEN
100
AcDbSpline
 62
7
  6
CONTINUOUS
 70
0
 71
3
 72
9
 73
5
 74
0
 42
0.0000001
 43
0.0000001
 44
0.0000000001
 40
0.0
 40
0.0
 40
0.0
 40
0.0
 40
0.2628422862
 40
1.0
 40
1.0
 40
1.0
 40
1.0
 10
360.2859651145
 20
306.9154148621
 30
0.0
 10
360.1671833264
 20
306.9640091802
 30
0.0
 10
359.7084875375
 20
307.1305982404
 30
0.0
 10
359.2180552361
 20
307.2198801265
 30
0.0
 10
358.8581245737
 20
307.2198952886
 30
0.0
  0
SPLINE
  5
400
100
AcDbEntity
  8
RUNDUNGEN
100
AcDbSpline
 62
7
  6
CONTINUOUS
 70
0
 71
3
 72
9
 73
5
 74
0
 42
0.0000001
 43
0.0000001
 44
0.0000000001
 40
0.0
 40
0.0
 40
0.0
 40
0.0
 40
0.2387520631
 40
1.0
 40
1.0
 40
1.0
 40
1.0
 10
379.7138056553
 20
307.2198952886
 30
0.0
 10
379.5971897893
 20
307.2198903762
 30
0.0
 10
379.1087744155
 20
307.1908081862
 30
0.0
 10
378.6301032713
 20
307.0562037772
 30
0.0
 10
378.2859651145
 20
306.9154148621
 30
0.0
  0
SPLINE
  5
401
100
AcDbEntity
  8
KONSTRUKTIONSELEMENTE
100
AcDbSpline
 62
7
  6
CONTINUOUS
 70
0
 71
3
 72
12
 73
8
 74
0
 42
0.0000001
 43
0.0000001
 44
0.0000000001
 40
0.0
 40
0.0
 40
0.0
 40
0.0
 40
0.3675644718
 40
0.6588886379
 40
0.7733521056
 40
0.8670265179
 40
1.0
 40
1.0
 40
1.0
 40
1.0
 10
211.5192164027
 20
22.3950958089
 30
0.0
 10
211.47352557
 20
22.4915788653
 30
0.0
 10
211.4022040288
 20
22.6695668179
 30
0.0
 10
211.3268585083
 20
22.880806671
 30
0.0
 10
211.2689909129
 20
23.0145063535
 30
0.0
 10
211.2224923773
 20
23.1006854314
 30
0.0
 10
211.1761877999
 20
23.1548458512
 30
0.0
 10
211.1402549749
 20
23.1690017016
 30
0.0
  0
SPLINE
  5
402
100
AcDbEntity
  8
KONSTRUKTIONSELEMENTE
100
AcDbSpline
 62
7
  6
CONTINUOUS
 70
0
 71
3
 72
13
 73
9
 74
0
 42
0.0000001
 43
0.0000001
 44
0.0000000001
 40
0.0
 40
0.0
 40
0.0
 40
0.0
 40
0.1130371846
 40
0.2354691658
 40
0.3612113977
 40
0.4882875265
 40
0.743850857
 40
1.0
 40
1.0
 40
1.0
 40
1.0
 10
211.5192164027
 20
103.9576534
 30
0.0
 10
211.5614114987
 20
104.0467546829
 30
0.0
 10
211.7014236322
 20
104.2051309031
 30
0.0
 10
211.9532288154
 20
104.3937078171
 30
0.0
 10
212.2359391094
 20
104.5601827094
 30
0.0
 10
212.6332326969
 20
104.7572931774
 30
0.0
 10
213.150069756
 20
104.9672560133
 30
0.0
 10
213.5731592506
 20
105.1097853279
 30
0.0
 10
213.7864094095
 20
105.1763746044
 30
0.0
  0
SPLINE
  5
403
100
AcDbEntity
  8
KONSTRUKTIONSELEMENTE
100
AcDbSpline
 62
7
  6
CONTINUOUS
 70
0
 71
3
 72
13
 73
9
 74
0
 42
0.0000001
 43
0.0000001
 44
0.0000000001
 40
0.0
 40
0.0
 40
0.0
 40
0.0
 40
0.2561460528
 40
0.511705658
 40
0.6387801203
 40
0.764520873
 40
0.886956589
 40
1.0
 40
1.0
 40
1.0
 40
1.0
 10
240.0161635067
 20
105.1763746044
 30
0.0
 10
240.2294111422
 20
105.1097861159
 30
0.0
 10
240.6524951754
 20
104.9672586999
 30
0.0
 10
241.1693254835
 20
104.7572992928
 30
0.0
 10
241.5666155615
 20
104.5601942893
 30
0.0
 10
241.8493237743
 20
104.3937158291
 30
0.0
 10
242.1011441186
 20
104.2051459717
 30
0.0
 10
242.2411590835
 20
104.0467596115
 30
0.0
 10
242.2833565135
 20
103.9576534
 30
0.0
  0
SPLINE
  5
404
100
AcDbEntity
  8
KONSTRUKTIONSELEMENTE
100
AcDbSpline
 62
7
  6
CONTINUOUS
 70
0
 71
3
 72
13
 73
9
 74
0
 42
0.0000001
 43
0.0000001
 44
0.0000000001
 40
0.0
 40
0.0
 40
0.0
 40
0.0
 40
0.1131009572
 40
0.2355455692
 40
0.361285039
 40
0.4883486459
 40
0.7438833528
 40
1.0
 40
1.0
 40
1.0
 40
1.0
 10
242.2833565135
 20
22.3950958089
 30
0.0
 10
242.241137508
 20
22.3059440374
 30
0.0
 10
242.1011084793
 20
22.147485056
 30
0.0
 10
241.8491743789
 20
21.958964094
 30
0.0
 10
241.5664761327
 20
21.7924814192
 30
0.0
 10
241.1692090307
 20
21.5953965437
 30
0.0
 10
240.6524277823
 20
21.385466944
 30
0.0
 10
240.2293871381
 20
21.2429555975
 30
0.0
 10
240.0161635067
 20
21.1763746044
 30
0.0
  0
SPLINE
  5
405
100
AcDbEntity
  8
KONSTRUKTIONSELEMENTE
100
AcDbSpline
 62
7
  6
CONTINUOUS
 70
0
 71
3
 72
12
 73
8
 74
0
 42
0.0000001
 43
0.0000001
 44
0.0000000001
 40
0.0
 40
0.0
 40
0.0
 40
0.0
 40
0.3675646303
 40
0.658887434
 40
0.7733504519
 40
0.8670247703
 40
1.0
 40
1.0
 40
1.0
 40
1.0
 10
242.2833565135
 20
103.9576534
 30
0.0
 10
242.3290473635
 20
103.8611703071
 30
0.0
 10
242.4003684432
 20
103.6831825334
 30
0.0
 10
242.4757146221
 20
103.4719435422
 30
0.0
 10
242.5335808182
 20
103.3382438014
 30
0.0
 10
242.5800803247
 20
103.2520649227
 30
0.0
 10
242.626384646
 20
103.197903543
 30
0.0
 10
242.6623179414
 20
103.1837475072
 30
0.0
  0
SPLINE
  5
406
100
AcDbEntity
  8
KONSTRUKTIONSELEMENTE
100
AcDbSpline
 62
7
  6
CONTINUOUS
 70
0
 71
3
 72
9
 73
5
 74
0
 42
0.0000001
 43
0.0000001
 44
0.0000000001
 40
0.0
 40
0.0
 40
0.0
 40
0.0
 40
0.2344374895
 40
1.0
 40
1.0
 40
1.0
 40
1.0
 10
242.6623179414
 20
23.1690017016
 30
0.0
 10
242.6583711045
 20
23.1674468327
 30
0.0
 10
242.6419178388
 20
23.1598341161
 30
0.0
 10
242.6273207663
 20
23.1485997837
 30
0.0
 10
242.617280755
 20
23.1390555389
 30
0.0
  0
SPLINE
  5
407
100
AcDbEntity
  8
KONSTRUKTIONSELEMENTE
100
AcDbSpline
 62
7
  6
CONTINUOUS
 70
0
 71
3
 72
9
 73
5
 74
0
 42
0.0000001
 43
0.0000001
 44
0.0000000001
 40
0.0
 40
0.0
 40
0.0
 40
0.0
 40
0.228014313
 40
1.0
 40
1.0
 40
1.0
 40
1.0
 10
242.617280755
 20
23.1390555389
 30
0.0
 10
242.613532894
 20
23.1354927438
 30
0.0
 10
242.597710666
 20
23.1192187893
 30
0.0
 10
242.5842055994
 20
23.1008178408
 30
0.0
 10
242.5746649628
 20
23.0861381369
 30
0.0
  0
SPLINE
  5
408
100
AcDbEntity
  8
KONSTRUKTIONSELEMENTE
100
AcDbSpline
 62
7
  6
CONTINUOUS
 70
0
 71
3
 72
10
 73
6
 74
0
 42
0.0000001
 43
0.0000001
 44
0.0000000001
 40
0.0
 40
0.0
 40
0.0
 40
0.0
 40
0.1722137473
 40
0.3979775573
 40
1.0
 40
1.0
 40
1.0
 40
1.0
 10
242.5746649628
 20
23.0861381369
 30
0.0
 10
242.5511900183
 20
23.0500184047
 30
0.0
 10
242.5078684454
 20
22.9597669046
 30
0.0
 10
242.4188972302
 20
22.7262555117
 30
0.0
 10
242.3478091218
 20
22.5311971725
 30
0.0
 10
242.2833565135
 20
22.3950958089
 30
0.0
  0
SPLINE
  5
409
100
AcDbEntity
  8
KONSTRUKTIONSELEMENTE
100
AcDbSpline
 62
7
  6
CONTINUOUS
 70
0
 71
3
 72
9
 73
5
 74
0
 42
0.0000001
 43
0.0000001
 44
0.0000000001
 40
0.0
 40
0.0
 40
0.0
 40
0.0
 40
0.2343498709
 40
1.0
 40
1.0
 40
1.0
 40
1.0
 10
211.1402549749
 20
103.1837475072
 30
0.0
 10
211.144219001
 20
103.1853091479
 30
0.0
 10
211.1607484294
 20
103.1929623773
 30
0.0
 10
211.1754028856
 20
103.2042685011
 30
0.0
 10
211.1854789647
 20
103.213872214
 30
0.0
  0
SPLINE
  5
40A
100
AcDbEntity
  8
KONSTRUKTIONSELEMENTE
100
AcDbSpline
 62
7
  6
CONTINUOUS
 70
0
 71
3
 72
9
 73
5
 74
0
 42
0.0000001
 43
0.0000001
 44
0.0000000001
 40
0.0
 40
0.0
 40
0.0
 40
0.0
 40
0.2279733143
 40
1.0
 40
1.0
 40
1.0
 40
1.0
 10
211.1854789647
 20
103.213872214
 30
0.0
 10
211.1892328362
 20
103.2174501042
 30
0.0
 10
211.2050819462
 20
103.2337939499
 30
0.0
 10
211.2186062924
 20
103.2522661846
 30
0.0
 10
211.2281611427
 20
103.2670011214
 30
0.0
  0
SPLINE
  5
40B
100
AcDbEntity
  8
KONSTRUKTIONSELEMENTE
100
AcDbSpline
 62
7
  6
CONTINUOUS
 70
0
 71
3
 72
10
 73
6
 74
0
 42
0.0000001
 43
0.0000001
 44
0.0000000001
 40
0.0
 40
0.0
 40
0.0
 40
0.0
 40
0.1723330067
 40
0.3981377778
 40
1.0
 40
1.0
 40
1.0
 40
1.0
 10
211.2281611427
 20
103.2670011214
 30
0.0
 10
211.2516004282
 20
103.30314783
 30
0.0
 10
211.2948715534
 20
103.3933942046
 30
0.0
 10
211.3837672181
 20
103.6267710957
 30
0.0
 10
211.4548207406
 20
103.8216722869
 30
0.0
 10
211.5192164027
 20
103.9576534
 30
0.0
  0
SPLINE
  5
40C
100
AcDbEntity
  8
KONSTRUKTIONSELEMENTE
100
AcDbSpline
 62
7
  6
CONTINUOUS
 70
0
 71
3
 72
13
 73
9
 74
0
 42
0.0000001
 43
0.0000001
 44
0.0000000001
 40
0.0
 40
0.0
 40
0.0
 40
0.0
 40
0.2561216605
 40
0.5116592004
 40
0.6387237246
 40
0.7644620302
 40
0.8869101555
 40
1.0
 40
1.0
 40
1.0
 40
1.0
 10
213.7864094095
 20
21.1763746044
 30
0.0
 10
213.5731816312
 20
21.2429568924
 30
0.0
 10
213.1501342335
 20
21.3854694635
 30
0.0
 10
212.6333464115
 20
21.5954032627
 30
0.0
 10
212.2360780923
 20
21.7924905041
 30
0.0
 10
211.9533782213
 20
21.9589764037
 30
0.0
 10
211.7014556423
 20
22.1474998061
 30
0.0
 10
211.5614312547
 20
22.3059528082
 30
0.0
 10
211.5192164027
 20
22.3950958089
 30
0.0
  0
ENDSEC
  0
SECTION
  2
OBJECTS
  0
DICTIONARY
  5
C
100
AcDbDictionary
280
0
281
1
  3
ACAD_GROUP
350
D
  3
ACAD_MLINESTYLE
350
17
  3
ACAD_LAYOUT
350
1A
  3
ACAD_PLOTSETTINGS
350
19
  3
ACAD_PLOTSTYLENAME
350
E
  0
DICTIONARY
  5
D
102
{ACAD_REACTORS
330
C
102
}
100
AcDbDictionary
280
0
281
1
  0
ACDBDICTIONARYWDFLT
  5
E
102
{ACAD_REACTORS
330
C
102
}
100
AcDbDictionary
281
1
  3
Normal
350
F
100
AcDbDictionaryWithDefault
340
F
  0
DICTIONARY
  5
17
102
{ACAD_REACTORS
330
C
102
}
100
AcDbDictionary
280
0
281
1
  3
Standard
350
18
  0
DICTIONARY
  5
19
102
{ACAD_REACTORS
330
C
102
}
100
AcDbDictionary
281
1
  0
DICTIONARY
  5
1A
102
{ACAD_REACTORS
330
C
102
}
100
AcDbDictionary
281
1
  3
Model
350
40D
  3
Layout1
350
40E
  0
ACDBPLACEHOLDER
  5
F
102
{ACAD_REACTORS
330
E
102
}
  0
MLINESTYLE
  5
18
102
{ACAD_REACTORS
330
17
102
}
100
AcDbMlineStyle
  2
STANDARD
 70
0
  3

 62
256
 51
90.0
 52
90.0
 71
2
 49
0.5
 62
256
  6
BYLAYER
 49
-0.5
 62
256
  6
BYLAYER
  0
LAYOUT
  5
40D
102
{ACAD_REACTORS
330
1A
102
}
100
AcDbPlotSettings
  1

  2
none_device
  4
ISO_A2_(594.00_x_420.00_MM)
  6

 40
0.0
 41
0.0
 42
0.0
 43
0.0
 44
594.0
 45
420.0
 46
0.0
 47
0.0
 48
0.0
 49
0.0
140
0.0
141
0.0
142
1.0
143
1.0
 70
1024
 72
1
 73
0
 74
0
  7

 75
0
147
1.0
148
0.0
149
0.0
100
AcDbLayout
  1
Model
 70
0
 71
0
 10
0.0
 20
0.0
 11
594.0
 21
420.0
 12
0.0
 22
0.0
 32
0.0
 14
0.0
 24
0.0
 34
0.0
 15
0.0
 25
0.0
 35
0.0
146
0.0
 13
0.0
 23
0.0
 33
0.0
 16
1.0
 26
0.0
 36
0.0
 17
0.0
 27
1.0
 37
0.0
 76
0
330
212
345
0
346
0
  0
LAYOUT
  5
40E
102
{ACAD_REACTORS
330
1A
102
}
100
AcDbPlotSettings
  1

  2
none_device
  4
ISO_A2_(594.00_x_420.00_MM)
  6

 40
0.0
 41
0.0
 42
0.0
 43
0.0
 44
594.0
 45
420.0
 46
0.0
 47
0.0
 48
0.0
 49
0.0
140
0.0
141
0.0
142
1.0
143
1.0
 70
0
 72
1
 73
0
 74
0
  7

 75
0
147
1.0
148
0.0
149
0.0
100
AcDbLayout
  1
Layout1
 70
0
 71
1
 10
0.0
 20
0.0
 11
594.0
 21
420.0
 12
0.0
 22
0.0
 32
0.0
 14
0.0
 24
0.0
 34
0.0
 15
0.0
 25
0.0
 35
0.0
146
0.0
 13
0.0
 23
0.0
 33
0.0
 16
1.0
 26
0.0
 36
0.0
 17
0.0
 27
1.0
 37
0.0
 76
0
330
213
345
0
346
0
  0
ENDSEC
  0
EOF
