999
DXF file: 001-m34692-p-10.dxf
999
Pro/ENGINEER 2011490 by Parametric Technology Corporation
  0
SECTION
  2
HEADER
  9
$ACADVER
  1
AC1015
  9
$DWGCODEPAGE
  3
ANSI_1252
  9
$EXTMAX
 10
1189.0
 20
841.0
 30
0.0
  9
$EXTMIN
 10
0.0
 20
0.0
 30
0.0
  9
$LIMMIN
 10
0.0
 20
0.0
  9
$LIMMAX
 10
1189.0
 20
841.0
  9
$VIEWCTR
 10
594.5
 20
420.5
  9
$VIEWSIZE
 40
841.0
  9
$CLAYER
  8
0
  9
$LTSCALE
 40
65.395
  9
$CELTYPE
  6
BYLAYER
  9
$DIMSCALE
 40
1.0
  9
$DIMASZ
 40
3.5
  9
$DIMEXO
 40
7.43125
  9
$DIMDLI
 40
45.182
  9
$DIMEXE
 40
21.402
  9
$DIMCEN
 40
10.701
  9
$DIMLFAC
 40
1.0
  9
$DIMBLK
  1
_FILLED
  9
$DIMTXT
 40
3.5
  9
$DIMTOL
 70
1
  9
$DIMLIM
 70
0
  9
$DIMTFAC
 40
1.0
  9
$DIMTP
 40
0.005
  9
$DIMTM
 40
0.005
  9
$PDMODE
 70
3
  9
$PDSIZE
 40
0.3125
  9
$HANDSEED
  5
3AC
  9
$TILEMODE
 70
1
  9
$MEASUREMENT
 70
1
  9
$INSUNITS
 70
4
  0
ENDSEC
  0
SECTION
  2
CLASSES
  0
CLASS
  1
ACDBDICTIONARYWDFLT
  2
AcDbDictionaryWithDefault
  3
AutoCAD 2000
 90
0
280
0
281
0
  0
CLASS
  1
ACDBPLACEHOLDER
  2
AcDbPlaceHolder
  3
AutoCAD 2000
 90
0
280
0
281
0
  0
CLASS
  1
LAYOUT
  2
AcDbLayout
  3
AutoCAD 2000
 90
0
280
0
281
0
  0
ENDSEC
  0
SECTION
  2
TABLES
  0
TABLE
  2
VPORT
  5
8
100
AcDbSymbolTable
 70
2
  0
VPORT
  5
1F4
100
AcDbSymbolTableRecord
100
AcDbViewportTableRecord
  2
*ACTIVE
 70
0
 10
0.0
 20
0.0
 11
1.0
 21
1.0
 12
594.5
 22
420.5
 13
0.0
 23
0.0
 14
1.0
 24
1.0
 15
0.0
 25
0.0
 16
0.0
 26
0.0
 36
1.0
 17
0.0
 27
0.0
 37
0.0
 40
841.0
 41
1.4137931034
 42
50.0
 43
0.0
 44
0.0
 50
0.0
 51
0.0
 71
0
 72
100
 73
1
 74
1
 75
0
 76
0
 77
0
 78
0
  0
ENDTAB
  0
TABLE
  2
LTYPE
  5
5
100
AcDbSymbolTable
 70
6
  0
LTYPE
  5
14
100
AcDbSymbolTableRecord
100
AcDbLinetypeTableRecord
  2
BYBLOCK
 70
0
  3

 72
65
 73
0
 40
0.0
  0
LTYPE
  5
15
100
AcDbSymbolTableRecord
100
AcDbLinetypeTableRecord
  2
BYLAYER
 70
0
  3

 72
65
 73
0
 40
0.0
  0
LTYPE
  5
16
100
AcDbSymbolTableRecord
100
AcDbLinetypeTableRecord
  2
CONTINUOUS
 70
64
  3
Solid line
 72
65
 73
0
 40
0.0
  0
LTYPE
  5
1F5
100
AcDbSymbolTableRecord
100
AcDbLinetypeTableRecord
  2
CENTER
 70
64
  3
____ _ ____ _ ____ _ ____ _ ____ _ ____ _ ____
 72
65
 73
4
 40
0.6
 49
0.375
 74
0
 49
-0.075
 74
0
 49
0.075
 74
0
 49
-0.075
 74
0
  0
LTYPE
  5
1F6
100
AcDbSymbolTableRecord
100
AcDbLinetypeTableRecord
  2
HIDDEN
 70
64
  3
- - - - - - - - - - - - - - - - - - - -
 72
65
 73
2
 40
0.2
 49
0.1
 74
0
 49
-0.1
 74
0
  0
LTYPE
  5
1F7
100
AcDbSymbolTableRecord
100
AcDbLinetypeTableRecord
  2
PHANTOM
 70
64
  3
_____ _ _ _____ _ _ _____ _ _ _____
 72
65
 73
6
 40
0.8
 49
0.45
 74
0
 49
-0.05
 74
0
 49
0.1
 74
0
 49
-0.05
 74
0
 49
0.1
 74
0
 49
-0.05
 74
0
  0
LTYPE
  5
1F8
100
AcDbSymbolTableRecord
100
AcDbLinetypeTableRecord
  2
DOT
 70
64
  3
. . . . . . . . . . . . . . . . . . . .
 72
65
 73
2
 40
0.2
 49
0.1
 74
0
 49
-0.1
 74
0
  0
LTYPE
  5
1F9
100
AcDbSymbolTableRecord
100
AcDbLinetypeTableRecord
  2
DASHED
 70
64
  3
- - - - - - - - - - - - - - - - - - - -
 72
65
 73
2
 40
0.2
 49
0.1
 74
0
 49
-0.1
 74
0
  0
ENDTAB
  0
TABLE
  2
LAYER
  5
2
100
AcDbSymbolTable
 70
36
  0
LAYER
  5
10
100
AcDbSymbolTableRecord
100
AcDbLayerTableRecord
  2
0
 70
0
 62
7
  6
CONTINUOUS
370
-3
390
F
  0
LAYER
  5
1FA
100
AcDbSymbolTableRecord
100
AcDbLayerTableRecord
  2
DEFAULT_1
 70
0
 62
7
  6
CENTER
370
-3
390
F
  0
LAYER
  5
1FB
100
AcDbSymbolTableRecord
100
AcDbLayerTableRecord
  2
DEFAULT_2
 70
0
 62
8
  6
HIDDEN
370
-3
390
F
  0
LAYER
  5
1FC
100
AcDbSymbolTableRecord
100
AcDbLayerTableRecord
  2
DEFAULT_3
 70
0
 62
7
  6
PHANTOM
370
-3
390
F
  0
LAYER
  5
1FD
100
AcDbSymbolTableRecord
100
AcDbLayerTableRecord
  2
AUSFORMSCHRAEGEN
 70
0
 62
7
  6
CONTINUOUS
370
-3
390
F
  0
LAYER
  5
1FE
100
AcDbSymbolTableRecord
100
AcDbLayerTableRecord
  2
BEZUGSACHSEN
 70
0
 62
7
  6
CONTINUOUS
370
-3
390
F
  0
LAYER
  5
1FF
100
AcDbSymbolTableRecord
100
AcDbLayerTableRecord
  2
BEZUGSEBENEN
 70
0
 62
7
  6
CONTINUOUS
370
-3
390
F
  0
LAYER
  5
200
100
AcDbSymbolTableRecord
100
AcDbLayerTableRecord
  2
BEZUGSPUNKTE
 70
0
 62
7
  6
CONTINUOUS
370
-3
390
F
  0
LAYER
  5
201
100
AcDbSymbolTableRecord
100
AcDbLayerTableRecord
  2
BG_STARTBEZUEGE
 70
0
 62
7
  6
CONTINUOUS
370
-3
390
F
  0
LAYER
  5
202
100
AcDbSymbolTableRecord
100
AcDbLayerTableRecord
  2
BOHRUNGEN
 70
0
 62
7
  6
CONTINUOUS
370
-3
390
F
  0
LAYER
  5
203
100
AcDbSymbolTableRecord
100
AcDbLayerTableRecord
  2
FASEN
 70
0
 62
7
  6
CONTINUOUS
370
-3
390
F
  0
LAYER
  5
204
100
AcDbSymbolTableRecord
100
AcDbLayerTableRecord
  2
FLAECHEN
 70
0
 62
7
  6
CONTINUOUS
370
-3
390
F
  0
LAYER
  5
205
100
AcDbSymbolTableRecord
100
AcDbLayerTableRecord
  2
FLAECHENVERBUND
 70
0
 62
7
  6
CONTINUOUS
370
-3
390
F
  0
LAYER
  5
206
100
AcDbSymbolTableRecord
100
AcDbLayerTableRecord
  2
GEWINDE
 70
0
 62
7
  6
CONTINUOUS
370
-3
390
F
  0
LAYER
  5
207
100
AcDbSymbolTableRecord
100
AcDbLayerTableRecord
  2
HILFEN
 70
0
 62
7
  6
CONTINUOUS
370
-3
390
F
  0
LAYER
  5
208
100
AcDbSymbolTableRecord
100
AcDbLayerTableRecord
  2
KONSTRUKTIONSELEMENTE
 70
0
 62
7
  6
CONTINUOUS
370
-3
390
F
  0
LAYER
  5
209
100
AcDbSymbolTableRecord
100
AcDbLayerTableRecord
  2
KURVEN
 70
0
 62
7
  6
CONTINUOUS
370
-3
390
F
  0
LAYER
  5
20A
100
AcDbSymbolTableRecord
100
AcDbLayerTableRecord
  2
PLATZIERUNG
 70
0
 62
7
  6
CONTINUOUS
370
-3
390
F
  0
LAYER
  5
20B
100
AcDbSymbolTableRecord
100
AcDbLayerTableRecord
  2
RUNDUNGEN
 70
0
 62
7
  6
CONTINUOUS
370
-3
390
F
  0
LAYER
  5
20C
100
AcDbSymbolTableRecord
100
AcDbLayerTableRecord
  2
TEIL_STARTBEZUEGE
 70
0
 62
7
  6
CONTINUOUS
370
-3
390
F
  0
LAYER
  5
20D
100
AcDbSymbolTableRecord
100
AcDbLayerTableRecord
  2
T_STARTBEZUEGE
 70
0
 62
7
  6
CONTINUOUS
370
-3
390
F
  0
LAYER
  5
20E
100
AcDbSymbolTableRecord
100
AcDbLayerTableRecord
  2
XSEC_DATUMS
 70
0
 62
7
  6
CONTINUOUS
370
-3
390
F
  0
LAYER
  5
20F
100
AcDbSymbolTableRecord
100
AcDbLayerTableRecord
  2
ZEICHNUNGSBEMASSUNGEN
 70
0
 62
7
  6
CONTINUOUS
370
-3
390
F
  0
ENDTAB
  0
TABLE
  2
STYLE
  5
3
100
AcDbSymbolTable
 70
1
  0
STYLE
  5
11
100
AcDbSymbolTableRecord
100
AcDbTextStyleTableRecord
  2
STANDARD
 70
0
 40
0.0
 41
0.7
 50
0.0
 71
0
 42
0.2
  3
txt
  4

  0
STYLE
  5
210
100
AcDbSymbolTableRecord
100
AcDbTextStyleTableRecord
  2
TEXTSTYLE_1
 70
0
 40
0.0
 41
0.8
 50
0.0
 71
0
 42
0.2
  3
gdt
  4

  0
ENDTAB
  0
TABLE
  2
VIEW
  5
6
100
AcDbSymbolTable
 70
0
  0
ENDTAB
  0
TABLE
  2
UCS
  5
7
100
AcDbSymbolTable
 70
0
  0
ENDTAB
  0
TABLE
  2
APPID
  5
9
100
AcDbSymbolTable
 70
1
  0
APPID
  5
211
100
AcDbSymbolTableRecord
100
AcDbRegAppTableRecord
  2
ACAD
 70
0
  0
ENDTAB
  0
TABLE
  2
BLOCK_RECORD
  5
1
100
AcDbSymbolTable
 70
0
  0
BLOCK_RECORD
  5
212
100
AcDbSymbolTableRecord
100
AcDbBlockTableRecord
  2
*Model_Space
  0
BLOCK_RECORD
  5
213
100
AcDbSymbolTableRecord
100
AcDbBlockTableRecord
  2
*Paper_Space
  0
ENDTAB
  0
TABLE
  2
DIMSTYLE
  5
A
100
AcDbSymbolTable
 70
1
100
AcDbDimStyleTable
 71
0
  0
DIMSTYLE
105
214
100
AcDbSymbolTableRecord
100
AcDbDimStyleTableRecord
  2
STANDARD
 70
0
  3

  4

 40
1.0
 41
3.5
 42
0.0625
 43
0.38
 44
0.18
 45
0.0
 46
0.0
 47
0.005
 48
0.005
140
3.5
141
0.09
142
0.0
143
25.4
144
1.0
145
0.0
146
1.0
147
0.09
 71
1.0
 72
0.0
 73
0
 74
0
 75
0
 76
0
 77
1
 78
8
170
0
171
2
172
0
173
0
174
0
175
0
176
0
177
0
178
5
270
2
271
3
272
3
273
2
274
2
275
0
280
0
281
0
282
0
283
1
284
8
285
0
286
0
287
3
288
0
340
11
  0
ENDTAB
  0
ENDSEC
  0
SECTION
  2
BLOCKS
  0
BLOCK
  5
20
100
AcDbEntity
  8
0
100
AcDbBlockBegin
  2
*Model_Space
 70
0
 10
0.0
 20
0.0
 30
0.0
  3
*Model_Space
  1

  0
ENDBLK
  5
21
100
AcDbEntity
  8
0
100
AcDbBlockEnd
  0
BLOCK
  5
1C
100
AcDbEntity
  8
0
100
AcDbBlockBegin
  2
*Paper_Space
 70
0
 10
0.0
 20
0.0
 30
0.0
  3
*Paper_Space
  1

  0
ENDBLK
  5
1D
100
AcDbEntity
  8
0
100
AcDbBlockEnd
  0
ENDSEC
  0
SECTION
  2
ENTITIES
  0
MTEXT
  5
215
100
AcDbEntity
  8
0
100
AcDbMText
 62
5
  6
CONTINUOUS
  7
STANDARD
 71
1
 72
1
 10
637.3349101994
 20
471.9615051736
 30
0.0
 11
1.0
 21
0.0
 31
0.0
 44
0.9
  1
VWBG 40t M100
 40
14.0
 41
149.3333333333
  0
MTEXT
  5
216
100
AcDbEntity
  8
0
100
AcDbMText
 62
5
  6
CONTINUOUS
  7
STANDARD
 71
1
 72
1
 10
346.8008153183
 20
567.9364194948
 30
0.0
 11
0.0
 21
1.0
 31
0.0
 44
0.9
  1
VWBG 40t M100
 40
14.0
 41
149.3333333333
  0
MTEXT
  5
217
100
AcDbEntity
  8
0
100
AcDbMText
 62
5
  6
CONTINUOUS
  7
STANDARD
 71
1
 72
1
 10
344.2309365097
 20
51.0032204642
 30
0.0
 11
0.0
 21
1.0
 31
0.0
 44
0.9
  1
VWBG 40t M100
 40
14.0
 41
149.3333333333
  0
LINE
  5
218
100
AcDbEntity
  8
0
100
AcDbLine
 62
7
  6
CONTINUOUS
 10
0.0
 20
0.0
 11
0.0
 21
841.0
  0
LINE
  5
219
100
AcDbEntity
  8
0
100
AcDbLine
 62
7
  6
CONTINUOUS
 10
0.0
 20
0.0
 11
1189.0
 21
0.0
  0
LINE
  5
21A
100
AcDbEntity
  8
0
100
AcDbLine
 62
7
  6
CONTINUOUS
 10
0.0
 20
841.0
 11
1189.0
 21
841.0
  0
LINE
  5
21B
100
AcDbEntity
  8
0
100
AcDbLine
 62
7
  6
CONTINUOUS
 10
1189.0
 20
0.0
 11
1189.0
 21
841.0
  0
LINE
  5
21C
100
AcDbEntity
  8
0
100
AcDbLine
 62
7
  6
CONTINUOUS
 10
396.5369603496
 20
252.6051897973
 11
306.5369603496
 21
252.6051897973
  0
LINE
  5
21D
100
AcDbEntity
  8
0
100
AcDbLine
 62
7
  6
CONTINUOUS
 10
401.5369603496
 20
257.6051897973
 11
301.5369603496
 21
257.6051897973
  0
LINE
  5
21E
100
AcDbEntity
  8
0
100
AcDbLine
 62
7
  6
CONTINUOUS
 10
301.5369603496
 20
257.6051897973
 11
306.5369603496
 21
252.6051897973
  0
LINE
  5
21F
100
AcDbEntity
  8
FASEN
100
AcDbLine
 62
7
  6
CONTINUOUS
 10
266.5369603496
 20
403.6051897973
 11
267.5369603496
 21
402.6051897973
  0
LINE
  5
220
100
AcDbEntity
  8
FASEN
100
AcDbLine
 62
7
  6
CONTINUOUS
 10
435.5369603496
 20
402.6051897973
 11
267.5369603496
 21
402.6051897973
  0
LINE
  5
221
100
AcDbEntity
  8
FASEN
100
AcDbLine
 62
7
  6
CONTINUOUS
 10
436.5369603496
 20
403.6051897973
 11
266.5369603496
 21
403.6051897973
  0
LINE
  5
222
100
AcDbEntity
  8
BEZUGSACHSEN
100
AcDbLine
 62
7
  6
CONTINUOUS
 10
436.5369603496
 20
423.1051897973
 11
266.5369603496
 21
423.1051897973
  0
LINE
  5
223
100
AcDbEntity
  8
KONSTRUKTIONSELEMENTE
100
AcDbLine
 62
7
  6
CONTINUOUS
 10
388.1370394625
 20
425.1051897973
 11
314.9368812367
 21
425.1051897973
  0
LINE
  5
224
100
AcDbEntity
  8
BEZUGSACHSEN
100
AcDbLine
 62
7
  6
CONTINUOUS
 10
266.5369603496
 20
423.1051897973
 11
266.5369603496
 21
403.6051897973
  0
LINE
  5
225
100
AcDbEntity
  8
BEZUGSACHSEN
100
AcDbLine
 62
7
  6
CONTINUOUS
 10
269.0369603496
 20
482.1051897973
 11
269.0369603496
 21
426.433616922
  0
LINE
  5
226
100
AcDbEntity
  8
BEZUGSACHSEN
100
AcDbLine
 62
7
  6
CONTINUOUS
 10
280.5369603496
 20
519.9357162652
 11
280.5369603496
 21
484.1051897973
  0
LINE
  5
227
100
AcDbEntity
  8
BEZUGSACHSEN
100
AcDbLine
 62
7
  6
CONTINUOUS
 10
275.9880363563
 20
537.1012903915
 11
296.4922155821
 21
586.6027579639
  0
LINE
  5
228
100
AcDbEntity
  8
RUNDUNGEN
100
AcDbLine
 62
7
  6
CONTINUOUS
 10
299.7394180099
 20
589.8499452626
 11
328.5369603496
 21
601.7782778627
  0
LINE
  5
229
100
AcDbEntity
  8
0
100
AcDbLine
 62
7
  6
CONTINUOUS
 10
354.8286266189
 20
463.8817855388
 11
353.7869603496
 21
463.6690196067
  0
LINE
  5
22A
100
AcDbEntity
  8
0
100
AcDbLine
 62
7
  6
CONTINUOUS
 10
352.7452940803
 20
471.3285942048
 11
353.7869603496
 21
471.5413601369
  0
LINE
  5
22B
100
AcDbEntity
  8
0
100
AcDbLine
 62
7
  6
CONTINUOUS
 10
353.7869603496
 20
462.6051897973
 11
355.0369603496
 21
462.817955748
  0
LINE
  5
22C
100
AcDbEntity
  8
0
100
AcDbLine
 62
7
  6
CONTINUOUS
 10
353.7869603496
 20
472.6051897973
 11
352.5369603496
 21
472.3924238652
  0
LINE
  5
22D
100
AcDbEntity
  8
0
100
AcDbLine
 62
7
  6
CONTINUOUS
 10
345.0369603496
 20
462.6051897973
 11
346.2869603496
 21
462.6051897973
  0
LINE
  5
22E
100
AcDbEntity
  8
0
100
AcDbLine
 62
7
  6
CONTINUOUS
 10
340.0369603496
 20
465.5839131445
 11
345.0369603496
 21
465.5839131445
  0
LINE
  5
22F
100
AcDbEntity
  8
0
100
AcDbLine
 62
7
  6
CONTINUOUS
 10
346.2869603496
 20
465.5839131445
 11
348.3702934843
 21
465.5839131445
  0
LINE
  5
230
100
AcDbEntity
  8
0
100
AcDbLine
 62
7
  6
CONTINUOUS
 10
348.3702934843
 20
466.860509035
 11
346.2869603496
 21
466.860509035
  0
LINE
  5
231
100
AcDbEntity
  8
0
100
AcDbLine
 62
7
  6
CONTINUOUS
 10
345.0369603496
 20
466.860509035
 11
341.4952936333
 21
466.860509035
  0
LINE
  5
232
100
AcDbEntity
  8
0
100
AcDbLine
 62
7
  6
CONTINUOUS
 10
359.2036266189
 20
468.5626364917
 11
360.8702928882
 21
468.5626364917
  0
LINE
  5
233
100
AcDbEntity
  8
0
100
AcDbLine
 62
7
  6
CONTINUOUS
 10
361.9119603496
 20
468.5626364917
 11
364.203627811
 21
468.5626364917
  0
LINE
  5
234
100
AcDbEntity
  8
0
100
AcDbLine
 62
7
  6
CONTINUOUS
 10
364.203627811
 20
469.41370022
 11
361.9119603496
 21
469.41370022
  0
LINE
  5
235
100
AcDbEntity
  8
0
100
AcDbLine
 62
7
  6
CONTINUOUS
 10
360.8702928882
 20
469.41370022
 11
359.2036266189
 21
469.41370022
  0
LINE
  5
236
100
AcDbEntity
  8
0
100
AcDbLine
 62
7
  6
CONTINUOUS
 10
361.9119603496
 20
471.1158282727
 11
360.8702928882
 21
471.1158282727
  0
LINE
  5
237
100
AcDbEntity
  8
0
100
AcDbLine
 62
7
  6
CONTINUOUS
 10
346.2869603496
 20
472.6051897973
 11
345.0369603496
 21
472.6051897973
  0
LINE
  5
238
100
AcDbEntity
  8
KONSTRUKTIONSELEMENTE
100
AcDbLine
 62
7
  6
CONTINUOUS
 10
434.0369603496
 20
482.1051897973
 11
390.9069997197
 21
482.1051897973
  0
LINE
  5
239
100
AcDbEntity
  8
KONSTRUKTIONSELEMENTE
100
AcDbLine
 62
7
  6
CONTINUOUS
 10
312.1669209795
 20
482.1051897973
 11
269.0369603496
 21
482.1051897973
  0
LINE
  5
23A
100
AcDbEntity
  8
0
100
AcDbLine
 62
7
  6
CONTINUOUS
 10
352.5369603496
 20
462.817955748
 11
353.7869603496
 21
462.6051897973
  0
LINE
  5
23B
100
AcDbEntity
  8
0
100
AcDbLine
 62
7
  6
CONTINUOUS
 10
362.5369603496
 20
462.817955748
 11
363.7869603496
 21
462.6051897973
  0
LINE
  5
23C
100
AcDbEntity
  8
0
100
AcDbLine
 62
7
  6
CONTINUOUS
 10
355.0369603496
 20
472.3924238652
 11
353.7869603496
 21
472.6051897973
  0
LINE
  5
23D
100
AcDbEntity
  8
0
100
AcDbLine
 62
7
  6
CONTINUOUS
 10
353.7869603496
 20
463.6690196067
 11
352.7452940803
 21
463.8817855388
  0
LINE
  5
23E
100
AcDbEntity
  8
0
100
AcDbLine
 62
7
  6
CONTINUOUS
 10
363.7869603496
 20
463.4562536001
 11
362.7452928882
 21
463.6690196067
  0
LINE
  5
23F
100
AcDbEntity
  8
0
100
AcDbLine
 62
7
  6
CONTINUOUS
 10
353.7869603496
 20
471.5413601369
 11
354.8286266189
 21
471.3285942048
  0
LINE
  5
240
100
AcDbEntity
  8
0
100
AcDbLine
 62
7
  6
CONTINUOUS
 10
361.9119603496
 20
463.0307216987
 11
362.5369603496
 21
462.817955748
  0
LINE
  5
241
100
AcDbEntity
  8
0
100
AcDbLine
 62
7
  6
CONTINUOUS
 10
351.4952940803
 20
463.4562536001
 11
352.5369603496
 21
462.817955748
  0
LINE
  5
242
100
AcDbEntity
  8
0
100
AcDbLine
 62
7
  6
CONTINUOUS
 10
352.7452940803
 20
463.8817855388
 11
352.1202940803
 21
464.307317403
  0
LINE
  5
243
100
AcDbEntity
  8
0
100
AcDbLine
 62
7
  6
CONTINUOUS
 10
361.2869603496
 20
463.4562536001
 11
361.9119603496
 21
463.0307216987
  0
LINE
  5
244
100
AcDbEntity
  8
BEZUGSACHSEN
100
AcDbLine
 62
7
  6
CONTINUOUS
 10
275.9878869889
 20
532.5094498078
 11
282.7997250203
 21
516.0642180477
  0
LINE
  5
245
100
AcDbEntity
  8
0
100
AcDbLine
 62
7
  6
CONTINUOUS
 10
301.5369603496
 20
402.6051897973
 11
301.5369603496
 21
257.6051897973
  0
LINE
  5
246
100
AcDbEntity
  8
KONSTRUKTIONSELEMENTE
100
AcDbLine
 62
7
  6
CONTINUOUS
 10
312.1669209795
 20
482.1051897973
 11
312.1669209795
 21
427.1051897973
  0
LINE
  5
247
100
AcDbEntity
  8
0
100
AcDbLine
 62
7
  6
CONTINUOUS
 10
312.4564382826
 20
566.1844991001
 11
312.5964114497
 21
567.0149085846
  0
LINE
  5
248
100
AcDbEntity
  8
0
100
AcDbLine
 62
7
  6
CONTINUOUS
 10
311.5761259494
 20
566.6051066994
 11
311.3942988302
 21
566.0394095051
  0
LINE
  5
249
100
AcDbEntity
  8
0
100
AcDbLine
 62
7
  6
CONTINUOUS
 10
321.3338586911
 20
569.3549921265
 11
321.623964528
 21
570.1455690336
  0
LINE
  5
24A
100
AcDbEntity
  8
0
100
AcDbLine
 62
7
  6
CONTINUOUS
 10
320.4156680605
 20
570.0706290636
 11
319.9954599319
 21
569.4205568891
  0
LINE
  5
24B
100
AcDbEntity
  8
0
100
AcDbLine
 62
7
  6
CONTINUOUS
 10
320.7760735679
 20
568.5775286167
 11
321.3338586911
 21
569.3549921265
  0
LINE
  5
24C
100
AcDbEntity
  8
0
100
AcDbLine
 62
7
  6
CONTINUOUS
 10
308.2085714732
 20
568.1733186549
 11
305.5243999
 21
564.561501527
  0
LINE
  5
24D
100
AcDbEntity
  8
0
100
AcDbLine
 62
7
  6
CONTINUOUS
 10
306.963914431
 20
564.8933555423
 11
309.0888834865
 21
567.752710625
  0
LINE
  5
24E
100
AcDbEntity
  8
0
100
AcDbLine
 62
7
  6
CONTINUOUS
 10
311.3942988302
 20
566.0394095051
 11
309.2693297748
 21
563.1800544224
  0
LINE
  5
24F
100
AcDbEntity
  8
0
100
AcDbLine
 62
7
  6
CONTINUOUS
 10
310.19149574
 20
562.4947341024
 11
312.0927838844
 21
565.0531044962
  0
LINE
  5
250
100
AcDbEntity
  8
0
100
AcDbLine
 62
7
  6
CONTINUOUS
 10
312.7480341558
 20
559.1931583805
 11
313.4190770491
 21
560.0961126625
  0
LINE
  5
251
100
AcDbEntity
  8
0
100
AcDbLine
 62
7
  6
CONTINUOUS
 10
316.2150889979
 20
563.8584220272
 11
316.9979725867
 21
564.9118689765
  0
LINE
  5
252
100
AcDbEntity
  8
0
100
AcDbLine
 62
7
  6
CONTINUOUS
 10
327.9059497219
 20
575.483756026
 11
327.3711962177
 21
574.9241081155
  0
LINE
  5
253
100
AcDbEntity
  8
0
100
AcDbLine
 62
7
  6
CONTINUOUS
 10
327.9797054959
 20
573.9495462781
 11
328.5369603496
 21
574.4788147925
  0
LINE
  5
254
100
AcDbEntity
  8
0
100
AcDbLine
 62
7
  6
CONTINUOUS
 10
316.8625074946
 20
577.2195192865
 11
316.0370423092
 21
576.4551684327
  0
LINE
  5
255
100
AcDbEntity
  8
0
100
AcDbLine
 62
7
  6
CONTINUOUS
 10
312.7351815675
 20
573.3977650176
 11
311.9097159885
 21
572.6334137994
  0
LINE
  5
256
100
AcDbEntity
  8
0
100
AcDbLine
 62
7
  6
CONTINUOUS
 10
319.9954599319
 20
569.4205568891
 11
319.4451495459
 21
568.9109894103
  0
LINE
  5
257
100
AcDbEntity
  8
0
100
AcDbLine
 62
7
  6
CONTINUOUS
 10
320.2257631819
 20
568.0679611379
 11
320.7760735679
 21
568.5775286167
  0
LINE
  5
258
100
AcDbEntity
  8
0
100
AcDbLine
 62
7
  6
CONTINUOUS
 10
308.9214683185
 20
568.8115606467
 11
308.2085714732
 21
568.1733186549
  0
LINE
  5
259
100
AcDbEntity
  8
0
100
AcDbLine
 62
7
  6
CONTINUOUS
 10
309.0888834865
 20
567.752710625
 11
309.5780992607
 21
568.0899677127
  0
LINE
  5
25A
100
AcDbEntity
  8
0
100
AcDbLine
 62
7
  6
CONTINUOUS
 10
323.2130494709
 20
581.5836140233
 11
319.3960155983
 21
579.2002860108
  0
LINE
  5
25B
100
AcDbEntity
  8
0
100
AcDbLine
 62
7
  6
CONTINUOUS
 10
320.9587832737
 20
578.8215562903
 11
323.8215586782
 21
580.6090522997
  0
LINE
  5
25C
100
AcDbEntity
  8
0
100
AcDbLine
 62
7
  6
CONTINUOUS
 10
327.3711962177
 20
574.9241081155
 11
324.5084208132
 21
573.1366121061
  0
LINE
  5
25D
100
AcDbEntity
  8
0
100
AcDbLine
 62
7
  6
CONTINUOUS
 10
324.1626716233
 20
571.5662182656
 11
327.9797054959
 21
573.9495462781
  0
LINE
  5
25E
100
AcDbEntity
  8
0
100
AcDbLine
 62
7
  6
CONTINUOUS
 10
319.4077735209
 20
567.571507044
 11
320.2257631819
 21
568.0679611379
  0
LINE
  5
25F
100
AcDbEntity
  8
0
100
AcDbLine
 62
7
  6
CONTINUOUS
 10
319.4451495459
 20
568.9109894103
 11
318.7647376896
 21
568.541927356
  0
LINE
  5
260
100
AcDbEntity
  8
0
100
AcDbLine
 62
7
  6
CONTINUOUS
 10
324.109683669
 20
581.9177141175
 11
323.2130494709
 21
581.5836140233
  0
LINE
  5
261
100
AcDbEntity
  8
0
100
AcDbLine
 62
7
  6
CONTINUOUS
 10
323.8215586782
 20
580.6090522997
 11
324.5591485848
 21
580.8438463024
  0
LINE
  5
262
100
AcDbEntity
  8
0
100
AcDbLine
 62
7
  6
CONTINUOUS
 10
309.8299131233
 20
569.0708698645
 11
308.9214683185
 21
568.8115606467
  0
LINE
  5
263
100
AcDbEntity
  8
KONSTRUKTIONSELEMENTE
100
AcDbLine
 62
7
  6
CONTINUOUS
 10
271.0369603496
 20
484.1051897973
 11
432.0369603496
 21
484.1051897973
  0
LINE
  5
264
100
AcDbEntity
  8
0
100
AcDbLine
 62
7
  6
CONTINUOUS
 10
356.0786266189
 20
471.7541260689
 11
355.0369603496
 21
472.3924238652
  0
LINE
  5
265
100
AcDbEntity
  8
0
100
AcDbLine
 62
7
  6
CONTINUOUS
 10
362.7452928882
 20
463.6690196067
 11
362.1202928882
 21
464.0945514709
  0
LINE
  5
266
100
AcDbEntity
  8
0
100
AcDbLine
 62
7
  6
CONTINUOUS
 10
354.8286266189
 20
471.3285942048
 11
355.4536266189
 21
470.9030623406
  0
LINE
  5
267
100
AcDbEntity
  8
0
100
AcDbLine
 62
7
  6
CONTINUOUS
 10
350.8702940803
 20
464.0945514709
 11
351.4952940803
 21
463.4562536001
  0
LINE
  5
268
100
AcDbEntity
  8
0
100
AcDbLine
 62
7
  6
CONTINUOUS
 10
356.7036266189
 20
471.1158282727
 11
356.0786266189
 21
471.7541260689
  0
LINE
  5
269
100
AcDbEntity
  8
0
100
AcDbLine
 62
7
  6
CONTINUOUS
 10
352.1202940803
 20
464.307317403
 11
351.2869603496
 21
465.5839131445
  0
LINE
  5
26A
100
AcDbEntity
  8
0
100
AcDbLine
 62
7
  6
CONTINUOUS
 10
328.5369603496
 20
803.6051897973
 11
328.5369603496
 21
538.6051897973
  0
LINE
  5
26B
100
AcDbEntity
  8
0
100
AcDbLine
 62
7
  6
CONTINUOUS
 10
328.1940746416
 20
576.7924179576
 11
328.1802424825
 21
576.1065260492
  0
LINE
  5
26C
100
AcDbEntity
  8
0
100
AcDbLine
 62
7
  6
CONTINUOUS
 10
321.623964528
 20
570.1455690336
 11
321.6538658386
 21
571.2171553442
  0
LINE
  5
26D
100
AcDbEntity
  8
0
100
AcDbLine
 62
7
  6
CONTINUOUS
 10
320.5681960471
 20
570.7338139802
 11
320.4156680605
 21
570.0706290636
  0
LINE
  5
26E
100
AcDbEntity
  8
0
100
AcDbLine
 62
7
  6
CONTINUOUS
 10
328.1802424825
 20
576.1065260492
 11
327.9059497219
 21
575.483756026
  0
LINE
  5
26F
100
AcDbEntity
  8
BEZUGSACHSEN
100
AcDbLine
 62
7
  6
CONTINUOUS
 10
271.0369603496
 20
484.1051897973
 11
269.0369603496
 21
482.1051897973
  0
LINE
  5
270
100
AcDbEntity
  8
0
100
AcDbLine
 62
7
  6
CONTINUOUS
 10
374.5369603496
 20
575.6012575313
 11
374.9254935135
 21
575.7433037944
  0
LINE
  5
271
100
AcDbEntity
  8
BEZUGSACHSEN
100
AcDbLine
 62
7
  6
CONTINUOUS
 10
406.294283772
 20
503.3051897973
 11
296.7796369272
 21
503.3051897973
  0
LINE
  5
272
100
AcDbEntity
  8
BEZUGSACHSEN
100
AcDbLine
 62
7
  6
CONTINUOUS
 10
434.6227467872
 20
425.0194033597
 11
436.5369603496
 21
423.1051897973
  0
LINE
  5
273
100
AcDbEntity
  8
0
100
AcDbLine
 62
7
  6
CONTINUOUS
 10
355.4536266189
 20
470.9030623406
 11
356.2869603496
 21
469.6264661521
  0
LINE
  5
274
100
AcDbEntity
  8
0
100
AcDbLine
 62
7
  6
CONTINUOUS
 10
350.4536266189
 20
464.9456153482
 11
350.8702940803
 21
464.0945514709
  0
LINE
  5
275
100
AcDbEntity
  8
0
100
AcDbLine
 62
7
  6
CONTINUOUS
 10
357.1202940803
 20
470.2647645444
 11
356.7036266189
 21
471.1158282727
  0
LINE
  5
276
100
AcDbEntity
  8
0
100
AcDbLine
 62
7
  6
CONTINUOUS
 10
360.8702928882
 20
464.307317403
 11
361.2869603496
 21
463.4562536001
  0
LINE
  5
277
100
AcDbEntity
  8
0
100
AcDbLine
 62
7
  6
CONTINUOUS
 10
350.2452940803
 20
465.5839131445
 11
350.4536266189
 21
464.9456153482
  0
LINE
  5
278
100
AcDbEntity
  8
0
100
AcDbLine
 62
7
  6
CONTINUOUS
 10
312.5964114497
 20
567.0149085846
 11
312.3171555862
 21
567.9232659389
  0
LINE
  5
279
100
AcDbEntity
  8
0
100
AcDbLine
 62
7
  6
CONTINUOUS
 10
321.6538658386
 20
571.2171553442
 11
321.408611517
 21
572.0339576002
  0
LINE
  5
27A
100
AcDbEntity
  8
0
100
AcDbLine
 62
7
  6
CONTINUOUS
 10
320.4530440741
 20
571.4101114421
 11
320.5681960471
 21
570.7338139802
  0
LINE
  5
27B
100
AcDbEntity
  8
0
100
AcDbLine
 62
7
  6
CONTINUOUS
 10
311.4924183654
 20
567.1345317103
 11
311.5761259494
 21
566.6051066994
  0
LINE
  5
27C
100
AcDbEntity
  8
0
100
AcDbLine
 62
7
  6
CONTINUOUS
 10
340.0369603496
 20
466.860509035
 11
340.0369603496
 21
465.5839131445
  0
LINE
  5
27D
100
AcDbEntity
  8
0
100
AcDbLine
 62
7
  6
CONTINUOUS
 10
345.0369603496
 20
470.9030623406
 11
345.0369603496
 21
466.860509035
  0
LINE
  5
27E
100
AcDbEntity
  8
0
100
AcDbLine
 62
7
  6
CONTINUOUS
 10
345.0369603496
 20
465.5839131445
 11
345.0369603496
 21
462.6051897973
  0
LINE
  5
27F
100
AcDbEntity
  8
0
100
AcDbLine
 62
7
  6
CONTINUOUS
 10
346.2869603496
 20
462.6051897973
 11
346.2869603496
 21
465.5839131445
  0
LINE
  5
280
100
AcDbEntity
  8
0
100
AcDbLine
 62
7
  6
CONTINUOUS
 10
346.2869603496
 20
466.860509035
 11
346.2869603496
 21
472.6051897973
  0
LINE
  5
281
100
AcDbEntity
  8
0
100
AcDbLine
 62
7
  6
CONTINUOUS
 10
348.3702934843
 20
465.5839131445
 11
348.3702934843
 21
466.860509035
  0
LINE
  5
282
100
AcDbEntity
  8
0
100
AcDbLine
 62
7
  6
CONTINUOUS
 10
350.0369603496
 20
468.5626364917
 11
350.0369603496
 21
466.6477431029
  0
LINE
  5
283
100
AcDbEntity
  8
0
100
AcDbLine
 62
7
  6
CONTINUOUS
 10
351.0786266189
 20
466.860509035
 11
351.0786266189
 21
468.3498705596
  0
LINE
  5
284
100
AcDbEntity
  8
0
100
AcDbLine
 62
7
  6
CONTINUOUS
 10
374.9254935135
 20
575.7433037944
 11
375.4247006556
 21
576.3537448499
  0
LINE
  5
285
100
AcDbEntity
  8
0
100
AcDbLine
 62
7
  6
CONTINUOUS
 10
315.9428865168
 20
568.2777676434
 11
316.7309755975
 21
567.702636217
  0
LINE
  5
286
100
AcDbEntity
  8
0
100
AcDbLine
 62
7
  6
CONTINUOUS
 10
305.5243999
 20
564.561501527
 11
312.7480341558
 21
559.1931583805
  0
LINE
  5
287
100
AcDbEntity
  8
0
100
AcDbLine
 62
7
  6
CONTINUOUS
 10
313.4190770491
 20
560.0961126625
 11
310.19149574
 21
562.4947341024
  0
LINE
  5
288
100
AcDbEntity
  8
0
100
AcDbLine
 62
7
  6
CONTINUOUS
 10
309.2693297748
 20
563.1800544224
 11
306.963914431
 21
564.8933555423
  0
LINE
  5
289
100
AcDbEntity
  8
0
100
AcDbLine
 62
7
  6
CONTINUOUS
 10
310.6820923451
 20
567.970344587
 11
311.1431757583
 21
567.6276841071
  0
LINE
  5
28A
100
AcDbEntity
  8
0
100
AcDbLine
 62
7
  6
CONTINUOUS
 10
311.9679129791
 20
568.4164183357
 11
311.3531352384
 21
568.873298869
  0
LINE
  5
28B
100
AcDbEntity
  8
0
100
AcDbLine
 62
7
  6
CONTINUOUS
 10
311.9097159885
 20
572.6334137994
 11
315.9428865168
 21
568.2777676434
  0
LINE
  5
28C
100
AcDbEntity
  8
0
100
AcDbLine
 62
7
  6
CONTINUOUS
 10
316.7683520958
 20
569.0421188616
 11
312.7351815675
 21
573.3977650176
  0
LINE
  5
28D
100
AcDbEntity
  8
0
100
AcDbLine
 62
7
  6
CONTINUOUS
 10
316.0370423092
 20
576.4551684327
 11
320.0702128375
 21
572.0995222767
  0
LINE
  5
28E
100
AcDbEntity
  8
0
100
AcDbLine
 62
7
  6
CONTINUOUS
 10
320.895678023
 20
572.8638731305
 11
316.8625074946
 21
577.2195192865
  0
LINE
  5
28F
100
AcDbEntity
  8
0
100
AcDbLine
 62
7
  6
CONTINUOUS
 10
311.1431757583
 20
567.6276841071
 11
311.4924183654
 21
567.1345317103
  0
LINE
  5
290
100
AcDbEntity
  8
0
100
AcDbLine
 62
7
  6
CONTINUOUS
 10
312.3171555862
 20
567.9232659389
 11
311.9679129791
 21
568.4164183357
  0
LINE
  5
291
100
AcDbEntity
  8
0
100
AcDbLine
 62
7
  6
CONTINUOUS
 10
319.3960155983
 20
579.2002860108
 11
324.1626716233
 21
571.5662182656
  0
LINE
  5
292
100
AcDbEntity
  8
0
100
AcDbLine
 62
7
  6
CONTINUOUS
 10
324.5084208132
 20
573.1366121061
 11
320.9587832737
 21
578.8215562903
  0
LINE
  5
293
100
AcDbEntity
  8
0
100
AcDbLine
 62
7
  6
CONTINUOUS
 10
326.4261711479
 20
579.977835265
 11
327.9474443081
 21
577.5414307284
  0
LINE
  5
294
100
AcDbEntity
  8
0
100
AcDbLine
 62
7
  6
CONTINUOUS
 10
328.5369603496
 20
578.7214182443
 11
327.3804296161
 21
580.5736672681
  0
LINE
  5
295
100
AcDbEntity
  8
0
100
AcDbLine
 62
7
  6
CONTINUOUS
 10
321.408611517
 20
572.0339576002
 11
320.895678023
 21
572.8638731305
  0
LINE
  5
296
100
AcDbEntity
  8
0
100
AcDbLine
 62
7
  6
CONTINUOUS
 10
320.0702128375
 20
572.0995222767
 11
320.4530440741
 21
571.4101114421
  0
LINE
  5
297
100
AcDbEntity
  8
0
100
AcDbLine
 62
7
  6
CONTINUOUS
 10
327.9474443081
 20
577.5414307284
 11
328.1940746416
 21
576.7924179576
  0
LINE
  5
298
100
AcDbEntity
  8
0
100
AcDbLine
 62
7
  6
CONTINUOUS
 10
357.3286266189
 20
469.6264661521
 11
357.1202940803
 21
470.2647645444
  0
LINE
  5
299
100
AcDbEntity
  8
0
100
AcDbLine
 62
7
  6
CONTINUOUS
 10
362.1202928882
 20
464.0945514709
 11
361.9119603496
 21
464.7328494161
  0
LINE
  5
29A
100
AcDbEntity
  8
0
100
AcDbLine
 62
7
  6
CONTINUOUS
 10
350.0369603496
 20
466.6477431029
 11
350.2452940803
 21
465.5839131445
  0
LINE
  5
29B
100
AcDbEntity
  8
0
100
AcDbLine
 62
7
  6
CONTINUOUS
 10
357.5369603496
 20
468.5626364917
 11
357.3286266189
 21
469.6264661521
  0
LINE
  5
29C
100
AcDbEntity
  8
0
100
AcDbLine
 62
7
  6
CONTINUOUS
 10
351.2869603496
 20
465.5839131445
 11
351.0786266189
 21
466.860509035
  0
LINE
  5
29D
100
AcDbEntity
  8
0
100
AcDbLine
 62
7
  6
CONTINUOUS
 10
356.2869603496
 20
469.6264661521
 11
356.4952940803
 21
468.3498705596
  0
LINE
  5
29E
100
AcDbEntity
  8
0
100
AcDbLine
 62
7
  6
CONTINUOUS
 10
356.4952940803
 20
468.3498705596
 11
356.4952940803
 21
466.860509035
  0
LINE
  5
29F
100
AcDbEntity
  8
0
100
AcDbLine
 62
7
  6
CONTINUOUS
 10
357.5369603496
 20
466.6477431029
 11
357.5369603496
 21
468.5626364917
  0
LINE
  5
2A0
100
AcDbEntity
  8
0
100
AcDbLine
 62
7
  6
CONTINUOUS
 10
359.2036266189
 20
469.41370022
 11
359.2036266189
 21
468.5626364917
  0
LINE
  5
2A1
100
AcDbEntity
  8
0
100
AcDbLine
 62
7
  6
CONTINUOUS
 10
360.8702928882
 20
471.1158282727
 11
360.8702928882
 21
469.41370022
  0
LINE
  5
2A2
100
AcDbEntity
  8
0
100
AcDbLine
 62
7
  6
CONTINUOUS
 10
360.8702928882
 20
468.5626364917
 11
360.8702928882
 21
464.307317403
  0
LINE
  5
2A3
100
AcDbEntity
  8
0
100
AcDbLine
 62
7
  6
CONTINUOUS
 10
361.9119603496
 20
464.7328494161
 11
361.9119603496
 21
468.5626364917
  0
LINE
  5
2A4
100
AcDbEntity
  8
0
100
AcDbLine
 62
7
  6
CONTINUOUS
 10
361.9119603496
 20
469.41370022
 11
361.9119603496
 21
471.1158282727
  0
LINE
  5
2A5
100
AcDbEntity
  8
0
100
AcDbLine
 62
7
  6
CONTINUOUS
 10
363.7869603496
 20
462.6051897973
 11
363.7869603496
 21
463.4562536001
  0
LINE
  5
2A6
100
AcDbEntity
  8
0
100
AcDbLine
 62
7
  6
CONTINUOUS
 10
364.203627811
 20
468.5626364917
 11
364.203627811
 21
469.41370022
  0
LINE
  5
2A7
100
AcDbEntity
  8
0
100
AcDbLine
 62
7
  6
CONTINUOUS
 10
376.4677944904
 20
581.5849689881
 11
376.3894938893
 21
580.9857709312
  0
LINE
  5
2A8
100
AcDbEntity
  8
0
100
AcDbLine
 62
7
  6
CONTINUOUS
 10
351.0786266189
 20
468.3498705596
 11
351.2869603496
 21
469.6264661521
  0
LINE
  5
2A9
100
AcDbEntity
  8
0
100
AcDbLine
 62
7
  6
CONTINUOUS
 10
356.4952940803
 20
466.860509035
 11
356.2869603496
 21
465.5839131445
  0
LINE
  5
2AA
100
AcDbEntity
  8
0
100
AcDbLine
 62
7
  6
CONTINUOUS
 10
350.2452940803
 20
469.6264661521
 11
350.0369603496
 21
468.5626364917
  0
LINE
  5
2AB
100
AcDbEntity
  8
0
100
AcDbLine
 62
7
  6
CONTINUOUS
 10
357.3286266189
 20
465.5839131445
 11
357.5369603496
 21
466.6477431029
  0
LINE
  5
2AC
100
AcDbEntity
  8
0
100
AcDbLine
 62
7
  6
CONTINUOUS
 10
377.4047263289
 20
580.5010771171
 11
377.6480290599
 21
581.4458861761
  0
LINE
  5
2AD
100
AcDbEntity
  8
0
100
AcDbLine
 62
7
  6
CONTINUOUS
 10
350.4536266189
 20
470.2647645444
 11
350.2452940803
 21
469.6264661521
  0
LINE
  5
2AE
100
AcDbEntity
  8
0
100
AcDbLine
 62
7
  6
CONTINUOUS
 10
375.1519779157
 20
578.3936884155
 11
374.5369603496
 21
577.1054817872
  0
LINE
  5
2AF
100
AcDbEntity
  8
0
100
AcDbLine
 62
7
  6
CONTINUOUS
 10
375.4247006556
 20
576.3537448499
 11
376.6622167448
 21
578.9458276076
  0
LINE
  5
2B0
100
AcDbEntity
  8
BEZUGSACHSEN
100
AcDbLine
 62
7
  6
CONTINUOUS
 10
268.451173912
 20
425.0194033597
 11
266.5369603496
 21
423.1051897973
  0
LINE
  5
2B1
100
AcDbEntity
  8
0
100
AcDbLine
 62
7
  6
CONTINUOUS
 10
318.0918004909
 20
568.4407614189
 11
317.4263381318
 21
568.607491402
  0
LINE
  5
2B2
100
AcDbEntity
  8
0
100
AcDbLine
 62
7
  6
CONTINUOUS
 10
316.9979725867
 20
564.9118689765
 11
312.4564382826
 21
566.1844991001
  0
LINE
  5
2B3
100
AcDbEntity
  8
0
100
AcDbLine
 62
7
  6
CONTINUOUS
 10
312.0927838844
 20
565.0531044962
 11
316.2150889979
 21
563.8584220272
  0
LINE
  5
2B4
100
AcDbEntity
  8
0
100
AcDbLine
 62
7
  6
CONTINUOUS
 10
310.1091689869
 20
568.1625125102
 11
310.6820923451
 21
567.970344587
  0
LINE
  5
2B5
100
AcDbEntity
  8
0
100
AcDbLine
 62
7
  6
CONTINUOUS
 10
311.3531352384
 20
568.873298869
 11
310.7802118802
 21
569.0654667922
  0
LINE
  5
2B6
100
AcDbEntity
  8
0
100
AcDbLine
 62
7
  6
CONTINUOUS
 10
316.7309755975
 20
567.702636217
 11
317.5265399115
 21
567.3954010754
  0
LINE
  5
2B7
100
AcDbEntity
  8
0
100
AcDbLine
 62
7
  6
CONTINUOUS
 10
326.7142958546
 20
581.2864975378
 11
325.990536287
 21
581.737594307
  0
LINE
  5
2B8
100
AcDbEntity
  8
0
100
AcDbLine
 62
7
  6
CONTINUOUS
 10
317.4263381318
 20
568.607491402
 11
316.7683520958
 21
569.0421188616
  0
LINE
  5
2B9
100
AcDbEntity
  8
0
100
AcDbLine
 62
7
  6
CONTINUOUS
 10
325.8614558718
 20
580.5282381257
 11
326.4261711479
 21
579.977835265
  0
LINE
  5
2BA
100
AcDbEntity
  8
BEZUGSACHSEN
100
AcDbLine
 62
7
  6
CONTINUOUS
 10
432.0369603496
 20
484.1051897973
 11
434.0369603496
 21
482.1051897973
  0
LINE
  5
2BB
100
AcDbEntity
  8
0
100
AcDbLine
 62
7
  6
CONTINUOUS
 10
327.3804296161
 20
580.5736672681
 11
326.7142958546
 21
581.2864975378
  0
LINE
  5
2BC
100
AcDbEntity
  8
0
100
AcDbLine
 62
7
  6
CONTINUOUS
 10
374.5369603496
 20
803.6051897973
 11
374.5369603496
 21
538.6051897973
  0
LINE
  5
2BD
100
AcDbEntity
  8
KONSTRUKTIONSELEMENTE
100
AcDbLine
 62
7
  6
CONTINUOUS
 10
390.9069997197
 20
482.1051897973
 11
390.9069997197
 21
427.1051897973
  0
LINE
  5
2BE
100
AcDbEntity
  8
0
100
AcDbLine
 62
7
  6
CONTINUOUS
 10
357.1202940803
 20
464.9456153482
 11
357.3286266189
 21
465.5839131445
  0
LINE
  5
2BF
100
AcDbEntity
  8
0
100
AcDbLine
 62
7
  6
CONTINUOUS
 10
350.8702940803
 20
471.1158282727
 11
350.4536266189
 21
470.2647645444
  0
LINE
  5
2C0
100
AcDbEntity
  8
0
100
AcDbLine
 62
7
  6
CONTINUOUS
 10
356.7036266189
 20
464.0945514709
 11
357.1202940803
 21
464.9456153482
  0
LINE
  5
2C1
100
AcDbEntity
  8
0
100
AcDbLine
 62
7
  6
CONTINUOUS
 10
351.2869603496
 20
469.6264661521
 11
352.1202940803
 21
470.9030623406
  0
LINE
  5
2C2
100
AcDbEntity
  8
0
100
AcDbLine
 62
7
  6
CONTINUOUS
 10
345.0369603496
 20
472.6051897973
 11
340.0369603496
 21
466.860509035
  0
LINE
  5
2C3
100
AcDbEntity
  8
0
100
AcDbLine
 62
7
  6
CONTINUOUS
 10
341.4952936333
 20
466.860509035
 11
345.0369603496
 21
470.9030623406
  0
LINE
  5
2C4
100
AcDbEntity
  8
0
100
AcDbLine
 62
7
  6
CONTINUOUS
 10
318.5972585858
 20
567.3429489934
 11
319.4077735209
 21
567.571507044
  0
LINE
  5
2C5
100
AcDbEntity
  8
0
100
AcDbLine
 62
7
  6
CONTINUOUS
 10
318.7647376896
 20
568.541927356
 11
318.0918004909
 21
568.4407614189
  0
LINE
  5
2C6
100
AcDbEntity
  8
0
100
AcDbLine
 62
7
  6
CONTINUOUS
 10
309.5780992607
 20
568.0899677127
 11
310.1091689869
 21
568.1625125102
  0
LINE
  5
2C7
100
AcDbEntity
  8
0
100
AcDbLine
 62
7
  6
CONTINUOUS
 10
310.7802118802
 20
569.0654667922
 11
309.8299131233
 21
569.0708698645
  0
LINE
  5
2C8
100
AcDbEntity
  8
0
100
AcDbLine
 62
7
  6
CONTINUOUS
 10
324.5591485848
 20
580.8438463024
 11
325.2391142213
 21
580.816908396
  0
LINE
  5
2C9
100
AcDbEntity
  8
0
100
AcDbLine
 62
7
  6
CONTINUOUS
 10
317.5265399115
 20
567.3954010754
 11
318.5972585858
 21
567.3429489934
  0
LINE
  5
2CA
100
AcDbEntity
  8
0
100
AcDbLine
 62
7
  6
CONTINUOUS
 10
325.990536287
 20
581.737594307
 11
324.9486917768
 21
581.9900811662
  0
LINE
  5
2CB
100
AcDbEntity
  8
0
100
AcDbLine
 62
7
  6
CONTINUOUS
 10
325.2391142213
 20
580.816908396
 11
325.8614558718
 21
580.5282381257
  0
LINE
  5
2CC
100
AcDbEntity
  8
0
100
AcDbLine
 62
7
  6
CONTINUOUS
 10
377.6480290599
 20
581.4458861761
 11
377.3012104021
 21
582.460238006
  0
LINE
  5
2CD
100
AcDbEntity
  8
0
100
AcDbLine
 62
7
  6
CONTINUOUS
 10
401.5369603496
 20
402.6051897973
 11
401.5369603496
 21
257.6051897973
  0
LINE
  5
2CE
100
AcDbEntity
  8
0
100
AcDbLine
 62
7
  6
CONTINUOUS
 10
356.2869603496
 20
465.5839131445
 11
355.4536266189
 21
464.307317403
  0
LINE
  5
2CF
100
AcDbEntity
  8
0
100
AcDbLine
 62
7
  6
CONTINUOUS
 10
351.4952940803
 20
471.7541260689
 11
350.8702940803
 21
471.1158282727
  0
LINE
  5
2D0
100
AcDbEntity
  8
0
100
AcDbLine
 62
7
  6
CONTINUOUS
 10
356.0786266189
 20
463.4562536001
 11
356.7036266189
 21
464.0945514709
  0
LINE
  5
2D1
100
AcDbEntity
  8
0
100
AcDbLine
 62
7
  6
CONTINUOUS
 10
352.1202940803
 20
470.9030623406
 11
352.7452940803
 21
471.3285942048
  0
LINE
  5
2D2
100
AcDbEntity
  8
0
100
AcDbLine
 62
7
  6
CONTINUOUS
 10
352.5369603496
 20
472.3924238652
 11
351.4952940803
 21
471.7541260689
  0
LINE
  5
2D3
100
AcDbEntity
  8
0
100
AcDbLine
 62
7
  6
CONTINUOUS
 10
324.9486917768
 20
581.9900811662
 11
324.109683669
 21
581.9177141175
  0
LINE
  5
2D4
100
AcDbEntity
  8
0
100
AcDbLine
 62
7
  6
CONTINUOUS
 10
374.5369603496
 20
578.6873110365
 11
375.1519779157
 21
578.3936884155
  0
LINE
  5
2D5
100
AcDbEntity
  8
0
100
AcDbLine
 62
7
  6
CONTINUOUS
 10
376.6622167448
 20
578.9458276076
 11
374.5369603496
 21
579.9604707454
  0
LINE
  5
2D6
100
AcDbEntity
  8
0
100
AcDbLine
 62
7
  6
CONTINUOUS
 10
376.3894938893
 20
580.9857709312
 11
377.4047263289
 21
580.5010771171
  0
LINE
  5
2D7
100
AcDbEntity
  8
0
100
AcDbLine
 62
7
  6
CONTINUOUS
 10
374.5369603496
 20
583.1433706122
 11
375.5308585479
 21
582.668862224
  0
LINE
  5
2D8
100
AcDbEntity
  8
0
100
AcDbLine
 62
7
  6
CONTINUOUS
 10
376.0258649373
 20
583.7056952303
 11
374.5369603496
 21
584.4165303211
  0
LINE
  5
2D9
100
AcDbEntity
  8
0
100
AcDbLine
 62
7
  6
CONTINUOUS
 10
376.7893896145
 20
583.1289788338
 11
376.0258649373
 21
583.7056952303
  0
LINE
  5
2DA
100
AcDbEntity
  8
0
100
AcDbLine
 62
7
  6
CONTINUOUS
 10
375.5308585479
 20
582.668862224
 11
376.1251804003
 21
582.1729268973
  0
LINE
  5
2DB
100
AcDbEntity
  8
0
100
AcDbLine
 62
7
  6
CONTINUOUS
 10
377.3012104021
 20
582.460238006
 11
376.7893896145
 21
583.1289788338
  0
LINE
  5
2DC
100
AcDbEntity
  8
0
100
AcDbLine
 62
7
  6
CONTINUOUS
 10
376.1251804003
 20
582.1729268973
 11
376.4677944904
 21
581.5849689881
  0
LINE
  5
2DD
100
AcDbEntity
  8
BEZUGSACHSEN
100
AcDbLine
 62
7
  6
CONTINUOUS
 10
422.5369603496
 20
519.9357162652
 11
422.5369603496
 21
484.1051897973
  0
LINE
  5
2DE
100
AcDbEntity
  8
BEZUGSACHSEN
100
AcDbLine
 62
7
  6
CONTINUOUS
 10
427.0860337103
 20
532.5094498078
 11
420.2741956789
 21
516.0642180477
  0
LINE
  5
2DF
100
AcDbEntity
  8
0
100
AcDbLine
 62
7
  6
CONTINUOUS
 10
355.4536266189
 20
464.307317403
 11
354.8286266189
 21
463.8817855388
  0
LINE
  5
2E0
100
AcDbEntity
  8
0
100
AcDbLine
 62
7
  6
CONTINUOUS
 10
355.0369603496
 20
462.817955748
 11
356.0786266189
 21
463.4562536001
  0
LINE
  5
2E1
100
AcDbEntity
  8
RUNDUNGEN
100
AcDbLine
 62
7
  6
CONTINUOUS
 10
403.3345026893
 20
589.8499452626
 11
374.5369603496
 21
601.7782778627
  0
LINE
  5
2E2
100
AcDbEntity
  8
RUNDUNGEN
100
AcDbLine
 62
7
  6
CONTINUOUS
 10
427.0723344877
 20
537.1340026357
 11
427.0858843429
 21
537.1012903915
  0
LINE
  5
2E3
100
AcDbEntity
  8
BEZUGSACHSEN
100
AcDbLine
 62
7
  6
CONTINUOUS
 10
427.0858843429
 20
537.1012903915
 11
406.5817051171
 21
586.6027579639
  0
LINE
  5
2E4
100
AcDbEntity
  8
BEZUGSACHSEN
100
AcDbLine
 62
7
  6
CONTINUOUS
 10
434.0369603496
 20
482.1051897973
 11
434.0369603496
 21
426.433616922
  0
LINE
  5
2E5
100
AcDbEntity
  8
BEZUGSACHSEN
100
AcDbLine
 62
7
  6
CONTINUOUS
 10
436.5369603496
 20
423.1051897973
 11
436.5369603496
 21
403.6051897973
  0
LINE
  5
2E6
100
AcDbEntity
  8
FASEN
100
AcDbLine
 62
7
  6
CONTINUOUS
 10
436.5369603496
 20
403.6051897973
 11
435.5369603496
 21
402.6051897973
  0
LINE
  5
2E7
100
AcDbEntity
  8
0
100
AcDbLine
 62
7
  6
CONTINUOUS
 10
401.5369603496
 20
257.6051897973
 11
396.5369603496
 21
252.6051897973
  0
LINE
  5
2E8
100
AcDbEntity
  8
0
100
AcDbLine
 62
7
  6
CONTINUOUS
 10
666.5336624829
 20
252.6051897973
 11
756.5336624829
 21
252.6051897973
  0
LINE
  5
2E9
100
AcDbEntity
  8
0
100
AcDbLine
 62
7
  6
CONTINUOUS
 10
661.5336624829
 20
257.6051897973
 11
761.5336624829
 21
257.6051897973
  0
LINE
  5
2EA
100
AcDbEntity
  8
0
100
AcDbLine
 62
7
  6
CONTINUOUS
 10
661.5336624829
 20
257.6051897973
 11
666.5336624829
 21
252.6051897973
  0
LINE
  5
2EB
100
AcDbEntity
  8
FASEN
100
AcDbLine
 62
7
  6
CONTINUOUS
 10
626.5336624829
 20
403.6051897973
 11
627.5336624829
 21
402.6051897973
  0
LINE
  5
2EC
100
AcDbEntity
  8
FASEN
100
AcDbLine
 62
7
  6
CONTINUOUS
 10
627.5336624829
 20
402.6051897973
 11
795.5336624829
 21
402.6051897973
  0
LINE
  5
2ED
100
AcDbEntity
  8
FASEN
100
AcDbLine
 62
7
  6
CONTINUOUS
 10
626.5336624829
 20
403.6051897973
 11
796.5336624829
 21
403.6051897973
  0
LINE
  5
2EE
100
AcDbEntity
  8
0
100
AcDbLine
 62
7
  6
CONTINUOUS
 10
610.5336624829
 20
616.6051897973
 11
610.5336624829
 21
725.6051897973
  0
LINE
  5
2EF
100
AcDbEntity
  8
BEZUGSACHSEN
100
AcDbLine
 62
7
  6
CONTINUOUS
 10
626.5336624829
 20
423.1051897973
 11
796.5336624829
 21
423.1051897973
  0
LINE
  5
2F0
100
AcDbEntity
  8
KONSTRUKTIONSELEMENTE
100
AcDbLine
 62
7
  6
CONTINUOUS
 10
794.5385767414
 20
425.1051897973
 11
786.0336624829
 21
425.1051897973
  0
LINE
  5
2F1
100
AcDbEntity
  8
KONSTRUKTIONSELEMENTE
100
AcDbLine
 62
7
  6
CONTINUOUS
 10
637.0336624829
 20
425.1051897973
 11
628.5287482243
 21
425.1051897973
  0
LINE
  5
2F2
100
AcDbEntity
  8
BEZUGSACHSEN
100
AcDbLine
 62
7
  6
CONTINUOUS
 10
626.5336624829
 20
423.1051897973
 11
626.5336624829
 21
403.6051897973
  0
LINE
  5
2F3
100
AcDbEntity
  8
KONSTRUKTIONSELEMENTE
100
AcDbLine
 62
7
  6
CONTINUOUS
 10
639.0336624829
 20
427.1051897973
 11
639.0336624829
 21
484.1051897973
  0
LINE
  5
2F4
100
AcDbEntity
  8
BEZUGSACHSEN
100
AcDbLine
 62
7
  6
CONTINUOUS
 10
640.5336624829
 20
498.3051897973
 11
640.5336624829
 21
484.1051897973
  0
LINE
  5
2F5
100
AcDbEntity
  8
0
100
AcDbLine
 62
7
  6
CONTINUOUS
 10
656.5336624829
 20
616.6051897973
 11
656.5336624829
 21
725.6051897973
  0
LINE
  5
2F6
100
AcDbEntity
  8
0
100
AcDbLine
 62
7
  6
CONTINUOUS
 10
661.5336624829
 20
402.6051897973
 11
661.5336624829
 21
257.6051897973
  0
LINE
  5
2F7
100
AcDbEntity
  8
KONSTRUKTIONSELEMENTE
100
AcDbLine
 62
7
  6
CONTINUOUS
 10
784.0336624829
 20
482.1051897973
 11
639.0336624829
 21
482.1051897973
  0
LINE
  5
2F8
100
AcDbEntity
  8
KONSTRUKTIONSELEMENTE
100
AcDbLine
 62
7
  6
CONTINUOUS
 10
639.0336624829
 20
484.1051897973
 11
784.0336624829
 21
484.1051897973
  0
LINE
  5
2F9
100
AcDbEntity
  8
0
100
AcDbLine
 62
7
  6
CONTINUOUS
 10
691.0336624829
 20
578.2576745643
 11
691.0336624829
 21
580.6750114769
  0
LINE
  5
2FA
100
AcDbEntity
  8
0
100
AcDbLine
 62
7
  6
CONTINUOUS
 10
691.0336624829
 20
580.8788980189
 11
691.0336624829
 21
594.2161302921
  0
LINE
  5
2FB
100
AcDbEntity
  8
BEZUGSACHSEN
100
AcDbLine
 62
7
  6
CONTINUOUS
 10
691.5336624829
 20
548.397541395
 11
691.5336624829
 21
583.5412905049
  0
LINE
  5
2FC
100
AcDbEntity
  8
RUNDUNGEN
100
AcDbLine
 62
7
  6
CONTINUOUS
 10
691.5336624829
 20
583.5412905049
 11
691.5336624829
 21
603.7284443952
  0
LINE
  5
2FD
100
AcDbEntity
  8
RUNDUNGEN
100
AcDbLine
 62
7
  6
CONTINUOUS
 10
683.3774255148
 20
519.6273407533
 11
681.4139368782
 21
513.2050588048
  0
LINE
  5
2FE
100
AcDbEntity
  8
BEZUGSACHSEN
100
AcDbLine
 62
7
  6
CONTINUOUS
 10
679.4691120209
 20
506.8438233277
 11
690.921924697
 21
544.3042856584
  0
LINE
  5
2FF
100
AcDbEntity
  8
BEZUGSACHSEN
100
AcDbLine
 62
7
  6
CONTINUOUS
 10
777.5336624829
 20
503.3051897973
 11
748.3797788748
 21
503.3051897973
  0
LINE
  5
300
100
AcDbEntity
  8
BEZUGSACHSEN
100
AcDbLine
 62
7
  6
CONTINUOUS
 10
674.6874378051
 20
503.3051897973
 11
645.5336624829
 21
503.3051897973
  0
LINE
  5
301
100
AcDbEntity
  8
BEZUGSACHSEN
100
AcDbLine
 62
7
  6
CONTINUOUS
 10
794.61944892
 20
425.0194033602
 11
796.5336624829
 21
423.1051897973
  0
LINE
  5
302
100
AcDbEntity
  8
KONSTRUKTIONSELEMENTE
100
AcDbLine
 62
7
  6
CONTINUOUS
 10
794.61944892
 20
425.0194033602
 11
794.5385767414
 21
425.1051897973
  0
LWPOLYLINE
  5
303
100
AcDbEntity
  8
RUNDUNGEN
100
AcDbPolyline
 62
7
  6
CONTINUOUS
 90
15
 70
0
 10
731.5336624546
 20
603.7284440116
 10
731.5141893916
 20
604.2630157965
 10
731.3959144061
 20
605.1597983536
 10
731.1726873854
 20
606.0268711848
 10
730.8503069374
 20
606.8531430117
 10
730.4380174169
 20
607.6235316668
 10
729.9425446432
 20
608.3308824358
 10
729.3715753197
 20
608.9681067464
 10
728.733538138
 20
609.5276558462
 10
728.0389630174
 20
610.002685448
 10
727.2974998043
 20
610.3875698844
 10
726.5205910414
 20
610.6779799697
 10
725.7179484167
 20
610.871176189
 10
724.8994066121
 20
610.9654693765
 10
724.5336622965
 20
610.9754767851
  0
LINE
  5
304
100
AcDbEntity
  8
BEZUGSACHSEN
100
AcDbLine
 62
7
  6
CONTINUOUS
 10
731.5336624829
 20
548.397541395
 11
731.5336624829
 21
583.5412905049
  0
LINE
  5
305
100
AcDbEntity
  8
RUNDUNGEN
100
AcDbLine
 62
7
  6
CONTINUOUS
 10
731.5336624829
 20
583.5412905049
 11
731.5336624829
 21
603.7284443952
  0
LINE
  5
306
100
AcDbEntity
  8
0
100
AcDbLine
 62
7
  6
CONTINUOUS
 10
732.5336624829
 20
589.6405577045
 11
732.5336624829
 21
559.1931583805
  0
LINE
  5
307
100
AcDbEntity
  8
KONSTRUKTIONSELEMENTE
100
AcDbLine
 62
7
  6
CONTINUOUS
 10
628.4478760458
 20
425.0194033602
 11
628.5287482243
 21
425.1051897973
  0
LINE
  5
308
100
AcDbEntity
  8
BEZUGSACHSEN
100
AcDbLine
 62
7
  6
CONTINUOUS
 10
628.4478760458
 20
425.0194033602
 11
626.5336624829
 21
423.1051897973
  0
LINE
  5
309
100
AcDbEntity
  8
0
100
AcDbLine
 62
7
  6
CONTINUOUS
 10
731.5336624829
 20
559.1931583805
 11
732.5336624829
 21
559.1931583805
  0
LINE
  5
30A
100
AcDbEntity
  8
BEZUGSACHSEN
100
AcDbLine
 62
7
  6
CONTINUOUS
 10
743.5982129449
 20
506.8438233277
 11
732.1454002688
 21
544.3042856584
  0
LINE
  5
30B
100
AcDbEntity
  8
0
100
AcDbLine
 62
7
  6
CONTINUOUS
 10
731.5336624829
 20
564.561501527
 11
732.5336624829
 21
564.561501527
  0
LINE
  5
30C
100
AcDbEntity
  8
0
100
AcDbLine
 62
7
  6
CONTINUOUS
 10
731.5336624829
 20
568.1733186549
 11
732.5336624829
 21
568.1733186549
  0
LINE
  5
30D
100
AcDbEntity
  8
0
100
AcDbLine
 62
7
  6
CONTINUOUS
 10
731.5336624829
 20
568.8115606467
 11
732.5336624829
 21
568.8115606467
  0
LINE
  5
30E
100
AcDbEntity
  8
0
100
AcDbLine
 62
7
  6
CONTINUOUS
 10
731.5336624829
 20
569.0708698645
 11
732.5336624829
 21
569.0708698645
  0
LINE
  5
30F
100
AcDbEntity
  8
0
100
AcDbLine
 62
7
  6
CONTINUOUS
 10
731.5336624829
 20
572.6334137994
 11
732.5336624829
 21
572.6334137994
  0
LINE
  5
310
100
AcDbEntity
  8
0
100
AcDbLine
 62
7
  6
CONTINUOUS
 10
731.5336624829
 20
573.3977650176
 11
732.5336624829
 21
573.3977650176
  0
LINE
  5
311
100
AcDbEntity
  8
0
100
AcDbLine
 62
7
  6
CONTINUOUS
 10
731.5336624829
 20
576.4551684327
 11
732.5336624829
 21
576.4551684327
  0
LINE
  5
312
100
AcDbEntity
  8
0
100
AcDbLine
 62
7
  6
CONTINUOUS
 10
731.5336624829
 20
577.2195192865
 11
732.5336624829
 21
577.2195192865
  0
LINE
  5
313
100
AcDbEntity
  8
0
100
AcDbLine
 62
7
  6
CONTINUOUS
 10
691.5336624829
 20
578.2175740612
 11
691.0336624829
 21
578.2175740612
  0
LINE
  5
314
100
AcDbEntity
  8
0
100
AcDbLine
 62
7
  6
CONTINUOUS
 10
691.5336624829
 20
578.2576745643
 11
691.0336624829
 21
578.2576745643
  0
LINE
  5
315
100
AcDbEntity
  8
0
100
AcDbLine
 62
7
  6
CONTINUOUS
 10
731.5336624829
 20
579.2002860108
 11
732.5336624829
 21
579.2002860108
  0
LINE
  5
316
100
AcDbEntity
  8
0
100
AcDbLine
 62
7
  6
CONTINUOUS
 10
691.5336624829
 20
580.6750114769
 11
691.0336624829
 21
580.6750114769
  0
LINE
  5
317
100
AcDbEntity
  8
0
100
AcDbLine
 62
7
  6
CONTINUOUS
 10
731.5336624829
 20
581.5836140233
 11
732.5336624829
 21
581.5836140233
  0
LINE
  5
318
100
AcDbEntity
  8
0
100
AcDbLine
 62
7
  6
CONTINUOUS
 10
731.5336624829
 20
581.9177141175
 11
732.5336624829
 21
581.9177141175
  0
LINE
  5
319
100
AcDbEntity
  8
0
100
AcDbLine
 62
7
  6
CONTINUOUS
 10
731.5336624829
 20
581.9900811662
 11
732.5336624829
 21
581.9900811662
  0
LINE
  5
31A
100
AcDbEntity
  8
0
100
AcDbLine
 62
7
  6
CONTINUOUS
 10
761.5336624829
 20
402.6051897973
 11
761.5336624829
 21
257.6051897973
  0
LINE
  5
31B
100
AcDbEntity
  8
0
100
AcDbLine
 62
7
  6
CONTINUOUS
 10
766.5336624829
 20
725.6051897973
 11
766.5336624829
 21
616.6051897973
  0
LINE
  5
31C
100
AcDbEntity
  8
0
100
AcDbLine
 62
7
  6
CONTINUOUS
 10
691.5336624829
 20
585.0175740612
 11
691.0336624829
 21
585.0175740612
  0
LINE
  5
31D
100
AcDbEntity
  8
0
100
AcDbLine
 62
7
  6
CONTINUOUS
 10
691.5336624829
 20
587.4349109738
 11
691.0336624829
 21
587.4349109738
  0
LINE
  5
31E
100
AcDbEntity
  8
0
100
AcDbLine
 62
7
  6
CONTINUOUS
 10
731.5336624829
 20
588.1377761811
 11
732.5336624829
 21
588.1377761811
  0
LINE
  5
31F
100
AcDbEntity
  8
0
100
AcDbLine
 62
7
  6
CONTINUOUS
 10
731.5336624829
 20
588.3215800035
 11
732.5336624829
 21
588.3215800035
  0
LINE
  5
320
100
AcDbEntity
  8
0
100
AcDbLine
 62
7
  6
CONTINUOUS
 10
731.5336624829
 20
589.179331408
 11
732.5336624829
 21
589.179331408
  0
LINE
  5
321
100
AcDbEntity
  8
0
100
AcDbLine
 62
7
  6
CONTINUOUS
 10
731.5336624829
 20
589.3631352304
 11
732.5336624829
 21
589.3631352304
  0
LINE
  5
322
100
AcDbEntity
  8
0
100
AcDbLine
 62
7
  6
CONTINUOUS
 10
731.5336624829
 20
589.6405577045
 11
732.5336624829
 21
589.6405577045
  0
LINE
  5
323
100
AcDbEntity
  8
0
100
AcDbLine
 62
7
  6
CONTINUOUS
 10
691.5336624829
 20
591.7601366454
 11
691.0336624829
 21
591.7601366454
  0
LINE
  5
324
100
AcDbEntity
  8
0
100
AcDbLine
 62
7
  6
CONTINUOUS
 10
691.5336624829
 20
594.177473558
 11
691.0336624829
 21
594.177473558
  0
LINE
  5
325
100
AcDbEntity
  8
0
100
AcDbLine
 62
7
  6
CONTINUOUS
 10
691.5336624829
 20
594.2175740612
 11
691.0336624829
 21
594.2175740612
  0
LINE
  5
326
100
AcDbEntity
  8
BEZUGSACHSEN
100
AcDbLine
 62
7
  6
CONTINUOUS
 10
782.5336624829
 20
484.1051897973
 11
782.5336624829
 21
498.3051897973
  0
LINE
  5
327
100
AcDbEntity
  8
KONSTRUKTIONSELEMENTE
100
AcDbLine
 62
7
  6
CONTINUOUS
 10
784.0336624829
 20
484.1051897973
 11
784.0336624829
 21
427.1051897973
  0
LWPOLYLINE
  5
328
100
AcDbEntity
  8
RUNDUNGEN
100
AcDbPolyline
 62
7
  6
CONTINUOUS
 90
15
 70
0
 10
698.5336625429
 20
610.9754768015
 10
698.1304969922
 20
610.9633343797
 10
697.3125137197
 20
610.8645460021
 10
696.5110725392
 20
610.6669544157
 10
695.735918416
 20
610.3723945677
 10
694.9967553804
 20
609.9836486489
 10
694.3049308725
 20
609.5051464538
 10
693.6700452669
 20
608.9425492554
 10
693.1025420782
 20
608.3027152602
 10
692.6107656739
 20
607.5932197928
 10
692.2023531118
 20
606.8211148232
 10
691.8839639917
 20
605.9935515885
 10
691.6648650035
 20
605.1256228372
 10
691.5507309271
 20
604.2282281763
 10
691.5336669533
 20
603.7306776955
  0
LINE
  5
329
100
AcDbEntity
  8
RUNDUNGEN
100
AcDbLine
 62
7
  6
CONTINUOUS
 10
698.5336624829
 20
610.9756209961
 11
724.5336623403
 21
610.9756209961
  0
LINE
  5
32A
100
AcDbEntity
  8
BEZUGSACHSEN
100
AcDbLine
 62
7
  6
CONTINUOUS
 10
796.5336624829
 20
423.1051897973
 11
796.5336624829
 21
403.6051897973
  0
LINE
  5
32B
100
AcDbEntity
  8
0
100
AcDbLine
 62
7
  6
CONTINUOUS
 10
812.5336624829
 20
725.6051897973
 11
812.5336624829
 21
616.6051897973
  0
LINE
  5
32C
100
AcDbEntity
  8
FASEN
100
AcDbLine
 62
7
  6
CONTINUOUS
 10
796.5336624829
 20
403.6051897973
 11
795.5336624829
 21
402.6051897973
  0
LINE
  5
32D
100
AcDbEntity
  8
0
100
AcDbLine
 62
7
  6
CONTINUOUS
 10
761.5336624829
 20
257.6051897973
 11
756.5336624829
 21
252.6051897973
  0
LWPOLYLINE
  5
32E
100
AcDbEntity
  8
BEZUGSACHSEN
100
AcDbPolyline
 62
7
  6
CONTINUOUS
 90
5
 70
0
 10
275.5314152874
 20
107.1959004167
 10
275.535389403
 20
106.9468869462
 10
275.5511607939
 20
106.6368090334
 10
275.578939385
 20
106.3313364445
 10
275.5924753842
 20
106.2182461998
  0
LINE
  5
32F
100
AcDbEntity
  8
BEZUGSACHSEN
100
AcDbLine
 62
7
  6
CONTINUOUS
 10
275.5313135514
 20
107.1959113049
 11
275.5313135514
 21
139.354206325
  0
LWPOLYLINE
  5
330
100
AcDbEntity
  8
BEZUGSACHSEN
100
AcDbPolyline
 62
7
  6
CONTINUOUS
 90
5
 70
0
 10
275.5924753842
 20
140.3318714301
 10
275.578939385
 20
140.2187811855
 10
275.5511607939
 20
139.9133085965
 10
275.535389403
 20
139.6032306837
 10
275.5314152874
 20
139.3542172132
  0
LINE
  5
331
100
AcDbEntity
  8
BEZUGSACHSEN
100
AcDbLine
 62
7
  6
CONTINUOUS
 10
275.5925440864
 20
140.3324104315
 11
275.5924753842
 21
140.3318714301
  0
LWPOLYLINE
  5
332
100
AcDbEntity
  8
BEZUGSACHSEN
100
AcDbPolyline
 62
7
  6
CONTINUOUS
 90
11
 70
0
 10
286.3694398364
 20
151.2112754873
 10
286.3696078696
 20
151.2115378734
 10
286.3384021962
 20
151.1781092864
 10
286.2726404625
 20
151.1113019165
 10
286.1804453782
 20
151.0215120059
 10
286.0641645399
 20
150.911970779
 10
285.9296919002
 20
150.788613317
 10
285.7789754145
 20
150.6532585097
 10
285.6160529827
 20
150.5094604188
 10
285.4426145131
 20
150.3585684213
 10
285.261588913
 20
150.2029401359
  0
LINE
  5
333
100
AcDbEntity
  8
KONSTRUKTIONSELEMENTE
100
AcDbLine
 62
7
  6
CONTINUOUS
 10
390.9069997197
 20
50.775058815
 11
374.5369603496
 21
50.775058815
  0
LINE
  5
334
100
AcDbEntity
  8
KONSTRUKTIONSELEMENTE
100
AcDbLine
 62
7
  6
CONTINUOUS
 10
328.5369603496
 20
50.775058815
 11
312.1669209795
 21
50.775058815
  0
LWPOLYLINE
  5
335
100
AcDbEntity
  8
BEZUGSACHSEN
100
AcDbPolyline
 62
7
  6
CONTINUOUS
 90
8
 70
0
 10
275.5925783354
 20
106.2176930458
 10
275.6629471153
 20
105.7780565941
 10
275.8852926058
 20
104.925221282
 10
276.2158210495
 20
104.1061594364
 10
276.6499101502
 20
103.3334295911
 10
277.1823520064
 20
102.6185856175
 10
277.8035194931
 20
101.9754806068
 10
278.3661356132
 20
101.5138582907
  0
LINE
  5
336
100
AcDbEntity
  8
BEZUGSACHSEN
100
AcDbLine
 62
7
  6
CONTINUOUS
 10
275.5925464448
 20
106.2176887774
 11
275.5924753842
 21
106.2182461998
  0
LWPOLYLINE
  5
337
100
AcDbEntity
  8
BEZUGSACHSEN
100
AcDbPolyline
 62
7
  6
CONTINUOUS
 90
3
 70
0
 10
285.261588913
 20
150.2029401359
 10
284.8807102177
 20
149.8801946888
 10
284.7046488461
 20
149.7326854797
  0
LWPOLYLINE
  5
338
100
AcDbEntity
  8
BEZUGSACHSEN
100
AcDbPolyline
 62
7
  6
CONTINUOUS
 90
8
 70
0
 10
278.3662140723
 20
145.0363171684
 10
277.7546067776
 20
144.5296376457
 10
277.1467605842
 20
143.8893021201
 10
276.6261205993
 20
143.1797917438
 10
276.2017500971
 20
142.41448246
 10
275.8785720129
 20
141.6044501479
 10
275.6609443528
 20
140.7616632183
 10
275.5925759815
 20
140.3324061626
  0
LWPOLYLINE
  5
339
100
AcDbEntity
  8
BEZUGSACHSEN
100
AcDbPolyline
 62
7
  6
CONTINUOUS
 90
3
 70
0
 10
284.7041445251
 20
149.7322573778
 10
284.6015535994
 20
149.6480019661
 10
284.3263637325
 20
149.4355037909
  0
LINE
  5
33A
100
AcDbEntity
  8
BEZUGSACHSEN
100
AcDbLine
 62
7
  6
CONTINUOUS
 10
284.3220537895
 20
149.4323213213
 11
278.3640563185
 21
145.034728407
  0
LINE
  5
33B
100
AcDbEntity
  8
BEZUGSACHSEN
100
AcDbLine
 62
7
  6
CONTINUOUS
 10
284.3263445222
 20
149.4354883055
 11
284.3269040708
 21
149.4359012848
  0
LINE
  5
33C
100
AcDbEntity
  8
BEZUGSACHSEN
100
AcDbLine
 62
7
  6
CONTINUOUS
 10
278.3633065604
 20
101.5159426297
 11
284.3220537895
 21
97.1177963086
  0
LINE
  5
33D
100
AcDbEntity
  8
BEZUGSACHSEN
100
AcDbLine
 62
7
  6
CONTINUOUS
 10
284.326344067
 20
97.1146296604
 11
284.3269040708
 21
97.1142163452
  0
LWPOLYLINE
  5
33E
100
AcDbEntity
  8
BEZUGSACHSEN
100
AcDbPolyline
 62
7
  6
CONTINUOUS
 90
3
 70
0
 10
284.3263632778
 20
97.1146141746
 10
284.5779658948
 20
96.9210885448
 10
284.704144983
 20
96.8178598697
  0
LWPOLYLINE
  5
33F
100
AcDbEntity
  8
BEZUGSACHSEN
100
AcDbPolyline
 62
7
  6
CONTINUOUS
 90
11
 70
0
 10
284.7041437109
 20
96.8178609322
 10
284.8435424487
 20
96.7011400251
 10
285.0869200614
 20
96.4958834162
 10
285.3179937739
 20
96.2988647649
 10
285.5363423565
 20
96.1102513244
 10
285.7393173306
 20
95.9320757965
 10
285.9262583476
 20
95.7646185975
 10
286.0896918567
 20
95.6143683885
 10
286.2289040326
 20
95.4818351441
 10
286.3246542881
 20
95.3862693789
 10
286.355796308
 20
95.3536337781
  0
LINE
  5
340
100
AcDbEntity
  8
0
100
AcDbLine
 62
7
  6
CONTINUOUS
 10
305.5243999
 20
103.275058815
 11
305.5243999
 21
102.275058815
  0
LINE
  5
341
100
AcDbEntity
  8
0
100
AcDbLine
 62
7
  6
CONTINUOUS
 10
308.2085714732
 20
103.275058815
 11
308.2085714732
 21
102.275058815
  0
LINE
  5
342
100
AcDbEntity
  8
0
100
AcDbLine
 62
7
  6
CONTINUOUS
 10
308.9214683185
 20
103.275058815
 11
308.9214683185
 21
102.275058815
  0
LINE
  5
343
100
AcDbEntity
  8
0
100
AcDbLine
 62
7
  6
CONTINUOUS
 10
309.8299131233
 20
103.275058815
 11
309.8299131233
 21
102.275058815
  0
LINE
  5
344
100
AcDbEntity
  8
0
100
AcDbLine
 62
7
  6
CONTINUOUS
 10
310.7802118802
 20
103.275058815
 11
310.7802118802
 21
102.275058815
  0
LINE
  5
345
100
AcDbEntity
  8
0
100
AcDbLine
 62
7
  6
CONTINUOUS
 10
311.3531352384
 20
103.275058815
 11
311.3531352384
 21
102.275058815
  0
LINE
  5
346
100
AcDbEntity
  8
0
100
AcDbLine
 62
7
  6
CONTINUOUS
 10
311.9097159885
 20
103.275058815
 11
311.9097159885
 21
102.275058815
  0
LINE
  5
347
100
AcDbEntity
  8
0
100
AcDbLine
 62
7
  6
CONTINUOUS
 10
312.7351815675
 20
103.275058815
 11
312.7351815675
 21
102.275058815
  0
LINE
  5
348
100
AcDbEntity
  8
0
100
AcDbLine
 62
7
  6
CONTINUOUS
 10
316.0370423092
 20
103.275058815
 11
316.0370423092
 21
102.275058815
  0
LINE
  5
349
100
AcDbEntity
  8
0
100
AcDbLine
 62
7
  6
CONTINUOUS
 10
316.8625074946
 20
103.275058815
 11
316.8625074946
 21
102.275058815
  0
LINE
  5
34A
100
AcDbEntity
  8
0
100
AcDbLine
 62
7
  6
CONTINUOUS
 10
319.3960155983
 20
103.275058815
 11
319.3960155983
 21
102.275058815
  0
LINE
  5
34B
100
AcDbEntity
  8
0
100
AcDbLine
 62
7
  6
CONTINUOUS
 10
323.2130494709
 20
103.275058815
 11
323.2130494709
 21
102.275058815
  0
LINE
  5
34C
100
AcDbEntity
  8
0
100
AcDbLine
 62
7
  6
CONTINUOUS
 10
324.109683669
 20
103.275058815
 11
324.109683669
 21
102.275058815
  0
LINE
  5
34D
100
AcDbEntity
  8
0
100
AcDbLine
 62
7
  6
CONTINUOUS
 10
324.9486917768
 20
103.275058815
 11
324.9486917768
 21
102.275058815
  0
LINE
  5
34E
100
AcDbEntity
  8
0
100
AcDbLine
 62
7
  6
CONTINUOUS
 10
325.990536287
 20
103.275058815
 11
325.990536287
 21
102.275058815
  0
LINE
  5
34F
100
AcDbEntity
  8
0
100
AcDbLine
 62
7
  6
CONTINUOUS
 10
326.7142958546
 20
103.275058815
 11
326.7142958546
 21
102.275058815
  0
LINE
  5
350
100
AcDbEntity
  8
0
100
AcDbLine
 62
7
  6
CONTINUOUS
 10
327.3804296161
 20
103.275058815
 11
327.3804296161
 21
102.275058815
  0
LINE
  5
351
100
AcDbEntity
  8
0
100
AcDbLine
 62
7
  6
CONTINUOUS
 10
328.5369603496
 20
201.275058815
 11
328.5369603496
 21
45.275058815
  0
LINE
  5
352
100
AcDbEntity
  8
0
100
AcDbLine
 62
7
  6
CONTINUOUS
 10
377.6480290599
 20
102.275058815
 11
374.5369603496
 21
102.275058815
  0
LINE
  5
353
100
AcDbEntity
  8
0
100
AcDbLine
 62
7
  6
CONTINUOUS
 10
328.5369603496
 20
102.275058815
 11
305.5243999
 21
102.275058815
  0
LINE
  5
354
100
AcDbEntity
  8
BEZUGSACHSEN
100
AcDbLine
 62
7
  6
CONTINUOUS
 10
414.8300785712
 20
103.275058815
 11
400.2730610573
 21
103.275058815
  0
LINE
  5
355
100
AcDbEntity
  8
RUNDUNGEN
100
AcDbLine
 62
7
  6
CONTINUOUS
 10
400.2730610573
 20
103.275058815
 11
374.5369603496
 21
103.275058815
  0
LINE
  5
356
100
AcDbEntity
  8
BEZUGSACHSEN
100
AcDbLine
 62
7
  6
CONTINUOUS
 10
288.243842128
 20
103.275058815
 11
302.8008596419
 21
103.275058815
  0
LINE
  5
357
100
AcDbEntity
  8
RUNDUNGEN
100
AcDbLine
 62
7
  6
CONTINUOUS
 10
302.8008596419
 20
103.275058815
 11
328.5369603496
 21
103.275058815
  0
LINE
  5
358
100
AcDbEntity
  8
0
100
AcDbLine
 62
7
  6
CONTINUOUS
 10
374.5369603496
 20
201.275058815
 11
374.5369603496
 21
45.275058815
  0
LINE
  5
359
100
AcDbEntity
  8
0
100
AcDbLine
 62
7
  6
CONTINUOUS
 10
376.0258649373
 20
103.275058815
 11
376.0258649373
 21
102.275058815
  0
LINE
  5
35A
100
AcDbEntity
  8
0
100
AcDbLine
 62
7
  6
CONTINUOUS
 10
376.7893896145
 20
103.275058815
 11
376.7893896145
 21
102.275058815
  0
LINE
  5
35B
100
AcDbEntity
  8
0
100
AcDbLine
 62
7
  6
CONTINUOUS
 10
377.3012104021
 20
103.275058815
 11
377.3012104021
 21
102.275058815
  0
LINE
  5
35C
100
AcDbEntity
  8
0
100
AcDbLine
 62
7
  6
CONTINUOUS
 10
377.6480290599
 20
103.275058815
 11
377.6480290599
 21
102.275058815
  0
LINE
  5
35D
100
AcDbEntity
  8
RUNDUNGEN
100
AcDbLine
 62
7
  6
CONTINUOUS
 10
414.8300785712
 20
143.275058815
 11
374.5369603496
 21
143.275058815
  0
LINE
  5
35E
100
AcDbEntity
  8
BEZUGSACHSEN
100
AcDbLine
 62
7
  6
CONTINUOUS
 10
288.243842128
 20
143.275058815
 11
302.8008596419
 21
143.275058815
  0
LINE
  5
35F
100
AcDbEntity
  8
RUNDUNGEN
100
AcDbLine
 62
7
  6
CONTINUOUS
 10
302.8008596419
 20
143.275058815
 11
328.5369603496
 21
143.275058815
  0
LINE
  5
360
100
AcDbEntity
  8
BEZUGSACHSEN
100
AcDbLine
 62
7
  6
CONTINUOUS
 10
418.747576177
 20
97.1146293244
 11
418.7470166284
 21
97.1142163452
  0
LINE
  5
361
100
AcDbEntity
  8
BEZUGSACHSEN
100
AcDbLine
 62
7
  6
CONTINUOUS
 10
418.7518669098
 20
97.1177963086
 11
424.7098643807
 21
101.5153892229
  0
LINE
  5
362
100
AcDbEntity
  8
RUNDUNGEN
100
AcDbLine
 62
7
  6
CONTINUOUS
 10
418.7475766322
 20
149.4354879695
 11
418.7470166284
 21
149.4359012848
  0
LINE
  5
363
100
AcDbEntity
  8
RUNDUNGEN
100
AcDbLine
 62
7
  6
CONTINUOUS
 10
424.7106141388
 20
145.0341750002
 11
418.7518669098
 21
149.4323213213
  0
LWPOLYLINE
  5
364
100
AcDbEntity
  8
RUNDUNGEN
100
AcDbPolyline
 62
7
  6
CONTINUOUS
 90
3
 70
0
 10
418.7475574214
 20
149.4355034553
 10
418.4959548184
 20
149.6290290739
 10
418.3697757162
 20
149.7322577602
  0
LWPOLYLINE
  5
365
100
AcDbEntity
  8
BEZUGSACHSEN
100
AcDbPolyline
 62
7
  6
CONTINUOUS
 90
11
 70
0
 10
416.7044808629
 20
95.3388421427
 10
416.7043128296
 20
95.3385797565
 10
416.735518503
 20
95.3720083435
 10
416.8012802367
 20
95.4388157134
 10
416.893475321
 20
95.528605624
 10
417.0097561593
 20
95.6381468509
 10
417.144228799
 20
95.7615043129
 10
417.2949452847
 20
95.8968591202
 10
417.4578677165
 20
96.0406572111
 10
417.6313061861
 20
96.1915492086
 10
417.8123317862
 20
96.347177494
  0
LWPOLYLINE
  5
366
100
AcDbEntity
  8
BEZUGSACHSEN
100
AcDbPolyline
 62
7
  6
CONTINUOUS
 90
3
 70
0
 10
417.8123317862
 20
96.347177494
 10
418.1932104815
 20
96.6699229411
 10
418.3692718531
 20
96.8174321502
  0
LWPOLYLINE
  5
367
100
AcDbEntity
  8
BEZUGSACHSEN
100
AcDbPolyline
 62
7
  6
CONTINUOUS
 90
8
 70
0
 10
424.7077066269
 20
101.5138004615
 10
425.3193139216
 20
102.0204799843
 10
425.927160115
 20
102.6608155099
 10
426.4478000999
 20
103.3703258862
 10
426.8721706021
 20
104.1356351699
 10
427.1953486863
 20
104.945667482
 10
427.4129763464
 20
105.7884544117
 10
427.4813447177
 20
106.2177114673
  0
LWPOLYLINE
  5
368
100
AcDbEntity
  8
BEZUGSACHSEN
100
AcDbPolyline
 62
7
  6
CONTINUOUS
 90
3
 70
0
 10
418.3697761741
 20
96.8178602521
 10
418.4723671016
 20
96.9021156653
 10
418.7475569667
 20
97.114613839
  0
LWPOLYLINE
  5
369
100
AcDbEntity
  8
RUNDUNGEN
100
AcDbPolyline
 62
7
  6
CONTINUOUS
 90
11
 70
0
 10
418.3697769883
 20
149.7322566977
 10
418.2303782505
 20
149.8489776048
 10
417.9870006378
 20
150.0542342137
 10
417.7559269253
 20
150.251252865
 10
417.5375783428
 20
150.4398663055
 10
417.3346033686
 20
150.6180418334
 10
417.1476623516
 20
150.7854990324
 10
416.9842288425
 20
150.9357492414
 10
416.8450166666
 20
151.0682824858
 10
416.7492664111
 20
151.163848251
 10
416.7181243913
 20
151.1964838519
  0
LWPOLYLINE
  5
36A
100
AcDbEntity
  8
RUNDUNGEN
100
AcDbPolyline
 62
7
  6
CONTINUOUS
 90
5
 70
0
 10
427.5425054118
 20
139.3542172132
 10
427.5385312962
 20
139.6032306837
 10
427.5227599053
 20
139.9133085965
 10
427.4949813142
 20
140.2187811855
 10
427.481445315
 20
140.3318714301
  0
LINE
  5
36B
100
AcDbEntity
  8
BEZUGSACHSEN
100
AcDbLine
 62
7
  6
CONTINUOUS
 10
427.5426071479
 20
139.354206325
 11
427.5426071479
 21
107.1959113049
  0
LWPOLYLINE
  5
36C
100
AcDbEntity
  8
BEZUGSACHSEN
100
AcDbPolyline
 62
7
  6
CONTINUOUS
 90
5
 70
0
 10
427.481445315
 20
106.2182461998
 10
427.4949813142
 20
106.3313364445
 10
427.5227599053
 20
106.6368090334
 10
427.5385312962
 20
106.9468869462
 10
427.5425054118
 20
107.1959004167
  0
LINE
  5
36D
100
AcDbEntity
  8
BEZUGSACHSEN
100
AcDbLine
 62
7
  6
CONTINUOUS
 10
427.4813766128
 20
106.2177071984
 11
427.481445315
 21
106.2182461998
  0
LINE
  5
36E
100
AcDbEntity
  8
KONSTRUKTIONSELEMENTE
100
AcDbLine
 62
7
  6
CONTINUOUS
 10
312.1669209795
 20
195.775058815
 11
328.5369603496
 21
195.775058815
  0
LINE
  5
36F
100
AcDbEntity
  8
KONSTRUKTIONSELEMENTE
100
AcDbLine
 62
7
  6
CONTINUOUS
 10
374.5369603496
 20
195.775058815
 11
390.9069997197
 21
195.775058815
  0
LWPOLYLINE
  5
370
100
AcDbEntity
  8
RUNDUNGEN
100
AcDbPolyline
 62
7
  6
CONTINUOUS
 90
8
 70
0
 10
427.4813423638
 20
140.3324245841
 10
427.4109735839
 20
140.7720610358
 10
427.1886280934
 20
141.6248963479
 10
426.8580996497
 20
142.4439581935
 10
426.424010549
 20
143.2166880388
 10
425.8915686928
 20
143.9315320124
 10
425.2704012061
 20
144.5746370231
 10
424.707785086
 20
145.0362593392
  0
LINE
  5
371
100
AcDbEntity
  8
RUNDUNGEN
100
AcDbLine
 62
7
  6
CONTINUOUS
 10
427.4813742544
 20
140.3324288525
 11
427.481445315
 21
140.3318714301
  0
ARC
  5
372
100
AcDbEntity
  8
KONSTRUKTIONSELEMENTE
100
AcDbCircle
 62
7
  6
CONTINUOUS
 10
371.0565753798
 20
358.8149924246
 40
136.6325882195
100
AcDbArc
 50
113.5106131824
 51
115.5315082529
  0
ARC
  5
373
100
AcDbEntity
  8
KONSTRUKTIONSELEMENTE
100
AcDbCircle
 62
7
  6
CONTINUOUS
 10
332.0173453194
 20
358.8149924245
 40
136.6325882196
100
AcDbArc
 50
64.4684917471
 51
66.4893868176
  0
ARC
  5
374
100
AcDbEntity
  8
RUNDUNGEN
100
AcDbCircle
 62
7
  6
CONTINUOUS
 10
351.5369603496
 20
534.1051897973
 40
28.5
100
AcDbArc
 50
13.2763559261
 51
23.740842692
  0
ARC
  5
375
100
AcDbEntity
  8
BEZUGSACHSEN
100
AcDbCircle
 62
7
  6
CONTINUOUS
 10
351.5369603496
 20
534.1051897973
 40
28.5
100
AcDbArc
 50
143.8734184956
 51
36.1265815044
  0
ARC
  5
376
100
AcDbEntity
  8
0
100
AcDbCircle
 62
7
  6
CONTINUOUS
 10
351.5369603496
 20
803.6051897973
 40
23.0
100
AcDbArc
 50
0.0
 51
180.0
  0
ARC
  5
377
100
AcDbEntity
  8
0
100
AcDbCircle
 62
7
  6
CONTINUOUS
 10
351.5369603496
 20
538.6051897973
 40
23.0
100
AcDbArc
 50
180.0
 51
360.0
  0
ARC
  5
378
100
AcDbEntity
  8
BEZUGSACHSEN
100
AcDbCircle
 62
7
  6
CONTINUOUS
 10
430.5369197954
 20
519.9356183587
 40
7.9999958932
100
AcDbArc
 50
157.4992410241
 51
179.9992987931
  0
ARC
  5
379
100
AcDbEntity
  8
BEZUGSACHSEN
100
AcDbCircle
 62
7
  6
CONTINUOUS
 10
272.5370009038
 20
519.9356183587
 40
7.9999958932
100
AcDbArc
 50
0.0007012069
 51
22.5007589759
  0
ARC
  5
37A
100
AcDbEntity
  8
BEZUGSACHSEN
100
AcDbCircle
 62
7
  6
CONTINUOUS
 10
281.5313135514
 20
534.8051897973
 40
6.0
100
AcDbArc
 50
157.5
 51
202.4962727337
  0
ARC
  5
37B
100
AcDbEntity
  8
BEZUGSACHSEN
100
AcDbCircle
 62
7
  6
CONTINUOUS
 10
302.0354927772
 20
584.3066573697
 40
6.0
100
AcDbArc
 50
112.4997330509
 51
157.5
  0
ARC
  5
37C
100
AcDbEntity
  8
RUNDUNGEN
100
AcDbCircle
 62
7
  6
CONTINUOUS
 10
401.038427922
 20
584.3066573697
 40
6.0
100
AcDbArc
 50
22.5
 51
67.5002669491
  0
ARC
  5
37D
100
AcDbEntity
  8
BEZUGSACHSEN
100
AcDbCircle
 62
7
  6
CONTINUOUS
 10
401.038427922
 20
584.3066573697
 40
6.0
100
AcDbArc
 50
22.5
 51
67.5002669491
  0
ARC
  5
37E
100
AcDbEntity
  8
RUNDUNGEN
100
AcDbCircle
 62
7
  6
CONTINUOUS
 10
421.5426071479
 20
534.8051897973
 40
6.0
100
AcDbArc
 50
337.5037272663
 51
22.5
  0
ARC
  5
37F
100
AcDbEntity
  8
BEZUGSACHSEN
100
AcDbCircle
 62
7
  6
CONTINUOUS
 10
421.5426071479
 20
534.8051897973
 40
6.0
100
AcDbArc
 50
337.5037272663
 51
22.5
  0
ARC
  5
380
100
AcDbEntity
  8
KONSTRUKTIONSELEMENTE
100
AcDbCircle
 62
7
  6
CONTINUOUS
 10
436.0369603496
 20
426.433616922
 40
2.0
100
AcDbArc
 50
180.0
 51
225.0
  0
ARC
  5
381
100
AcDbEntity
  8
KONSTRUKTIONSELEMENTE
100
AcDbCircle
 62
7
  6
CONTINUOUS
 10
267.0369603496
 20
426.433616922
 40
2.0
100
AcDbArc
 50
315.0
 51
360.0
  0
ARC
  5
382
100
AcDbEntity
  8
BEZUGSACHSEN
100
AcDbCircle
 62
7
  6
CONTINUOUS
 10
677.5336624829
 20
548.3975038162
 40
14.0
100
AcDbArc
 50
342.9999388381
 51
0.0001537936
  0
ARC
  5
383
100
AcDbEntity
  8
BEZUGSACHSEN
100
AcDbCircle
 62
7
  6
CONTINUOUS
 10
645.5336624829
 20
498.3051897973
 40
5.0
100
AcDbArc
 50
90.0
 51
180.0
  0
ARC
  5
384
100
AcDbEntity
  8
RUNDUNGEN
100
AcDbCircle
 62
7
  6
CONTINUOUS
 10
674.687437805
 20
508.3051897973
 40
5.0
100
AcDbArc
 50
270.0012408672
 51
297.1996545672
  0
ARC
  5
385
100
AcDbEntity
  8
BEZUGSACHSEN
100
AcDbCircle
 62
7
  6
CONTINUOUS
 10
674.687437805
 20
508.3051897973
 40
5.0
100
AcDbArc
 50
270.0001795574
 51
342.9999417403
  0
ARC
  5
386
100
AcDbEntity
  8
KONSTRUKTIONSELEMENTE
100
AcDbCircle
 62
7
  6
CONTINUOUS
 10
637.0336624829
 20
427.1051897973
 40
2.0
100
AcDbArc
 50
270.0
 51
360.0
  0
ARC
  5
387
100
AcDbEntity
  8
BEZUGSACHSEN
100
AcDbCircle
 62
7
  6
CONTINUOUS
 10
745.5336624829
 20
548.3975038162
 40
14.0
100
AcDbArc
 50
179.9998462064
 51
197.0000611619
  0
ARC
  5
388
100
AcDbEntity
  8
BEZUGSACHSEN
100
AcDbCircle
 62
7
  6
CONTINUOUS
 10
777.5336624829
 20
498.3051897973
 40
5.0
100
AcDbArc
 50
0.0
 51
90.0
  0
ARC
  5
389
100
AcDbEntity
  8
BEZUGSACHSEN
100
AcDbCircle
 62
7
  6
CONTINUOUS
 10
748.3798871607
 20
508.3051897973
 40
5.0
100
AcDbArc
 50
197.0000582597
 51
269.9998204426
  0
ARC
  5
38A
100
AcDbEntity
  8
KONSTRUKTIONSELEMENTE
100
AcDbCircle
 62
7
  6
CONTINUOUS
 10
786.0336624829
 20
427.1051897973
 40
2.0
100
AcDbArc
 50
180.0
 51
270.0
  0
ARC
  5
38B
100
AcDbEntity
  8
0
100
AcDbCircle
 62
7
  6
CONTINUOUS
 10
711.5336624829
 20
725.6051897973
 40
101.0
100
AcDbArc
 50
0.0
 51
180.0
  0
ARC
  5
38C
100
AcDbEntity
  8
0
100
AcDbCircle
 62
7
  6
CONTINUOUS
 10
711.5336624829
 20
616.6051897973
 40
101.0
100
AcDbArc
 50
286.1899432247
 51
360.0
  0
ARC
  5
38D
100
AcDbEntity
  8
0
100
AcDbCircle
 62
7
  6
CONTINUOUS
 10
711.5336624829
 20
616.6051897973
 40
101.0
100
AcDbArc
 50
180.0
 51
253.8100567753
  0
ARC
  5
38E
100
AcDbEntity
  8
0
100
AcDbCircle
 62
7
  6
CONTINUOUS
 10
711.5336624829
 20
725.6051897973
 40
55.0
100
AcDbArc
 50
0.0
 51
180.0
  0
ARC
  5
38F
100
AcDbEntity
  8
0
100
AcDbCircle
 62
7
  6
CONTINUOUS
 10
711.5336624829
 20
616.6051897973
 40
55.0
100
AcDbArc
 50
292.5
 51
360.0
  0
ARC
  5
390
100
AcDbEntity
  8
0
100
AcDbCircle
 62
7
  6
CONTINUOUS
 10
711.5336624829
 20
616.6051897973
 40
55.0
100
AcDbArc
 50
180.0
 51
248.6710236173
  0
ARC
  5
391
100
AcDbEntity
  8
BEZUGSACHSEN
100
AcDbCircle
 62
7
  6
CONTINUOUS
 10
351.5369603496
 20
123.275058815
 40
85.0
100
AcDbArc
 50
285.466936093
 51
74.533063907
  0
ARC
  5
392
100
AcDbEntity
  8
BEZUGSACHSEN
100
AcDbCircle
 62
7
  6
CONTINUOUS
 10
351.5369603496
 20
123.275058815
 40
85.0
100
AcDbArc
 50
105.466936093
 51
254.5367904548
  0
ARC
  5
393
100
AcDbEntity
  8
KONSTRUKTIONSELEMENTE
100
AcDbCircle
 62
7
  6
CONTINUOUS
 10
351.5369603496
 20
123.275058815
 40
83.0049142586
100
AcDbArc
 50
106.0353512224
 51
116.1637893325
  0
ARC
  5
394
100
AcDbEntity
  8
KONSTRUKTIONSELEMENTE
100
AcDbCircle
 62
7
  6
CONTINUOUS
 10
351.5369603496
 20
123.275058815
 40
83.0049142586
100
AcDbArc
 50
63.8362106675
 51
73.9646487776
  0
ARC
  5
395
100
AcDbEntity
  8
KONSTRUKTIONSELEMENTE
100
AcDbCircle
 62
7
  6
CONTINUOUS
 10
351.5369603496
 20
123.275058815
 40
83.0049142586
100
AcDbArc
 50
286.0353512224
 51
296.1637893325
  0
ARC
  5
396
100
AcDbEntity
  8
KONSTRUKTIONSELEMENTE
100
AcDbCircle
 62
7
  6
CONTINUOUS
 10
351.5369603496
 20
123.275058815
 40
83.0049142586
100
AcDbArc
 50
243.8362106675
 51
253.9643654002
  0
ARC
  5
397
100
AcDbEntity
  8
KONSTRUKTIONSELEMENTE
100
AcDbCircle
 62
7
  6
CONTINUOUS
 10
351.5369603496
 20
123.275058815
 40
82.5
100
AcDbArc
 50
298.3340519074
 51
61.6659480926
  0
ARC
  5
398
100
AcDbEntity
  8
KONSTRUKTIONSELEMENTE
100
AcDbCircle
 62
7
  6
CONTINUOUS
 10
351.5369603496
 20
123.275058815
 40
82.5
100
AcDbArc
 50
118.3340519074
 51
241.6659480926
  0
ARC
  5
399
100
AcDbEntity
  8
KONSTRUKTIONSELEMENTE
100
AcDbCircle
 62
7
  6
CONTINUOUS
 10
351.5369603496
 20
123.275058815
 40
80.5
100
AcDbArc
 50
295.7601690897
 51
64.2398309103
  0
ARC
  5
39A
100
AcDbEntity
  8
KONSTRUKTIONSELEMENTE
100
AcDbCircle
 62
7
  6
CONTINUOUS
 10
351.5369603496
 20
123.275058815
 40
80.5
100
AcDbArc
 50
115.7601690897
 51
244.2398309103
  0
ARC
  5
39B
100
AcDbEntity
  8
RUNDUNGEN
100
AcDbCircle
 62
7
  6
CONTINUOUS
 10
351.5369603496
 20
123.275058815
 40
71.0
100
AcDbArc
 50
23.0087913434
 51
33.936664389
  0
ARC
  5
39C
100
AcDbEntity
  8
BEZUGSACHSEN
100
AcDbCircle
 62
7
  6
CONTINUOUS
 10
351.5369603496
 20
123.275058815
 40
71.0
100
AcDbArc
 50
108.9046835336
 51
156.9919889641
  0
ARC
  5
39D
100
AcDbEntity
  8
BEZUGSACHSEN
100
AcDbCircle
 62
7
  6
CONTINUOUS
 10
351.5369603496
 20
123.275058815
 40
71.0
100
AcDbArc
 50
33.936664389
 51
71.0953164664
  0
ARC
  5
39E
100
AcDbEntity
  8
BEZUGSACHSEN
100
AcDbCircle
 62
7
  6
CONTINUOUS
 10
351.5369603496
 20
123.275058815
 40
71.0
100
AcDbArc
 50
203.0087913434
 51
251.0953164664
  0
ARC
  5
39F
100
AcDbEntity
  8
BEZUGSACHSEN
100
AcDbCircle
 62
7
  6
CONTINUOUS
 10
351.5369603496
 20
123.275058815
 40
71.0
100
AcDbArc
 50
288.9046835336
 51
336.9919889641
  0
ARC
  5
3A0
100
AcDbEntity
  8
0
100
AcDbCircle
 62
7
  6
CONTINUOUS
 10
351.5369603496
 20
201.275058815
 40
23.0
100
AcDbArc
 50
0.0
 51
180.0
  0
ARC
  5
3A1
100
AcDbEntity
  8
0
100
AcDbCircle
 62
7
  6
CONTINUOUS
 10
351.5369603496
 20
45.275058815
 40
23.0
100
AcDbArc
 50
180.0
 51
360.0
  0
SPLINE
  5
3A2
100
AcDbEntity
  8
KONSTRUKTIONSELEMENTE
100
AcDbSpline
 62
7
  6
CONTINUOUS
 70
0
 71
3
 72
13
 73
9
 74
0
 42
0.0000001
 43
0.0000001
 44
0.0000000001
 40
0.0
 40
0.0
 40
0.0
 40
0.0
 40
0.2576080646
 40
0.4971072544
 40
0.6135347979
 40
0.7338079505
 40
0.8623686228
 40
1.0
 40
1.0
 40
1.0
 40
1.0
 10
314.9368812367
 20
425.1051897973
 30
0.0
 10
314.6743403928
 20
425.1051897973
 30
0.0
 10
314.1677165085
 20
425.1259965632
 30
0.0
 10
313.5493156902
 20
425.2757996948
 30
0.0
 10
313.1298708823
 20
425.5274600189
 30
0.0
 10
312.8554667149
 20
425.7821310947
 30
0.0
 10
312.6102521071
 20
426.0913991675
 30
0.0
 10
312.4588754366
 20
426.3166093337
 30
0.0
 10
312.3815191284
 20
426.433616922
 30
0.0
  0
SPLINE
  5
3A3
100
AcDbEntity
  8
KONSTRUKTIONSELEMENTE
100
AcDbSpline
 62
7
  6
CONTINUOUS
 70
0
 71
3
 72
9
 73
5
 74
0
 42
0.0000001
 43
0.0000001
 44
0.0000000001
 40
0.0
 40
0.0
 40
0.0
 40
0.0
 40
0.4944301835
 40
1.0
 40
1.0
 40
1.0
 40
1.0
 10
312.3815191284
 20
426.433616922
 30
0.0
 10
312.3167369507
 20
426.5316051347
 30
0.0
 10
312.2077768971
 20
426.7460420856
 30
0.0
 10
312.1669209795
 20
426.9850765665
 30
0.0
 10
312.1669209795
 20
427.1051897973
 30
0.0
  0
SPLINE
  5
3A4
100
AcDbEntity
  8
KONSTRUKTIONSELEMENTE
100
AcDbSpline
 62
7
  6
CONTINUOUS
 70
0
 71
3
 72
9
 73
5
 74
0
 42
0.0000001
 43
0.0000001
 44
0.0000000001
 40
0.0
 40
0.0
 40
0.0
 40
0.0
 40
0.5055689192
 40
1.0
 40
1.0
 40
1.0
 40
1.0
 10
390.9069997197
 20
427.1051897973
 30
0.0
 10
390.9069997197
 20
426.9850767834
 30
0.0
 10
390.8661437278
 20
426.7460423535
 30
0.0
 10
390.7571838641
 20
426.5316053096
 30
0.0
 10
390.6924015708
 20
426.433616922
 30
0.0
  0
SPLINE
  5
3A5
100
AcDbEntity
  8
KONSTRUKTIONSELEMENTE
100
AcDbSpline
 62
7
  6
CONTINUOUS
 70
0
 71
3
 72
13
 73
9
 74
0
 42
0.0000001
 43
0.0000001
 44
0.0000000001
 40
0.0
 40
0.0
 40
0.0
 40
0.0
 40
0.1376314474
 40
0.2661922607
 40
0.3864655091
 40
0.5028931046
 40
0.7423921185
 40
1.0
 40
1.0
 40
1.0
 40
1.0
 10
390.6924015708
 20
426.433616922
 30
0.0
 10
390.6150452258
 20
426.316609278
 30
0.0
 10
390.4636684545
 20
426.0913989399
 30
0.0
 10
390.2184536113
 20
425.7821306277
 30
0.0
 10
389.9440488332
 20
425.5274598321
 30
0.0
 10
389.5246042566
 20
425.2757992339
 30
0.0
 10
388.9062035422
 20
425.1259968306
 30
0.0
 10
388.399580111
 20
425.1051897973
 30
0.0
 10
388.1370394625
 20
425.1051897973
 30
0.0
  0
SPLINE
  5
3A6
100
AcDbEntity
  8
KONSTRUKTIONSELEMENTE
100
AcDbSpline
 62
7
  6
CONTINUOUS
 70
0
 71
3
 72
11
 73
7
 74
0
 42
0.0000001
 43
0.0000001
 44
0.0000000001
 40
0.0
 40
0.0
 40
0.0
 40
0.0
 40
0.2823654721
 40
0.5578765311
 40
0.8054765386
 40
1.0
 40
1.0
 40
1.0
 40
1.0
 10
388.1370394625
 20
197.775058815
 30
0.0
 10
388.4063119915
 20
197.6427716221
 30
0.0
 10
388.9274845921
 20
197.3581517233
 30
0.0
 10
389.6196568337
 20
196.8467777792
 30
0.0
 10
390.1599737081
 20
196.3128366702
 30
0.0
 10
390.5104821374
 20
195.9892755568
 30
0.0
 10
390.6924015708
 20
195.8911825257
 30
0.0
  0
SPLINE
  5
3A7
100
AcDbEntity
  8
KONSTRUKTIONSELEMENTE
100
AcDbSpline
 62
7
  6
CONTINUOUS
 70
0
 71
3
 72
11
 73
7
 74
0
 42
0.0000001
 43
0.0000001
 44
0.0000000001
 40
0.0
 40
0.0
 40
0.0
 40
0.0
 40
0.1945341955
 40
0.4421351267
 40
0.7176442068
 40
1.0
 40
1.0
 40
1.0
 40
1.0
 10
390.6924015708
 20
50.6589351042
 30
0.0
 10
390.5104721387
 20
50.5608366817
 30
0.0
 10
390.1599617078
 20
50.2372582967
 30
0.0
 10
389.6196205459
 20
49.7033294366
 30
0.0
 10
388.927470095
 20
49.1919463683
 30
0.0
 10
388.4063027023
 20
48.9073414442
 30
0.0
 10
388.1370394625
 20
48.775058815
 30
0.0
  0
SPLINE
  5
3A8
100
AcDbEntity
  8
KONSTRUKTIONSELEMENTE
100
AcDbSpline
 62
7
  6
CONTINUOUS
 70
0
 71
3
 72
11
 73
7
 74
0
 42
0.0000001
 43
0.0000001
 44
0.0000000001
 40
0.0
 40
0.0
 40
0.0
 40
0.0
 40
0.2823560164
 40
0.5578652442
 40
0.8054660246
 40
1.0
 40
1.0
 40
1.0
 40
1.0
 10
314.9368812367
 20
48.775058815
 30
0.0
 10
314.6676177819
 20
48.9073415498
 30
0.0
 10
314.146450156
 20
49.1919468384
 30
0.0
 10
313.4542992157
 20
49.7033296825
 30
0.0
 10
312.9139586765
 20
50.2372588946
 30
0.0
 10
312.5634483561
 20
50.5608367919
 30
0.0
 10
312.3815191284
 20
50.6589351042
 30
0.0
  0
SPLINE
  5
3A9
100
AcDbEntity
  8
KONSTRUKTIONSELEMENTE
100
AcDbSpline
 62
7
  6
CONTINUOUS
 70
0
 71
3
 72
11
 73
7
 74
0
 42
0.0000001
 43
0.0000001
 44
0.0000000001
 40
0.0
 40
0.0
 40
0.0
 40
0.0
 40
0.194523653
 40
0.4421238297
 40
0.7176347695
 40
1.0
 40
1.0
 40
1.0
 40
1.0
 10
312.3815191284
 20
195.8911825257
 30
0.0
 10
312.5634387394
 20
195.9892756526
 30
0.0
 10
312.9139472647
 20
196.3128372519
 30
0.0
 10
313.4542648568
 20
196.846777928
 30
0.0
 10
314.1464365174
 20
197.3581522685
 30
0.0
 10
314.6676089404
 20
197.6427717365
 30
0.0
 10
314.9368812367
 20
197.775058815
 30
0.0
  0
ENDSEC
  0
SECTION
  2
OBJECTS
  0
DICTIONARY
  5
C
100
AcDbDictionary
280
0
281
1
  3
ACAD_GROUP
350
D
  3
ACAD_MLINESTYLE
350
17
  3
ACAD_LAYOUT
350
1A
  3
ACAD_PLOTSETTINGS
350
19
  3
ACAD_PLOTSTYLENAME
350
E
  0
DICTIONARY
  5
D
102
{ACAD_REACTORS
330
C
102
}
100
AcDbDictionary
280
0
281
1
  0
ACDBDICTIONARYWDFLT
  5
E
102
{ACAD_REACTORS
330
C
102
}
100
AcDbDictionary
281
1
  3
Normal
350
F
100
AcDbDictionaryWithDefault
340
F
  0
DICTIONARY
  5
17
102
{ACAD_REACTORS
330
C
102
}
100
AcDbDictionary
280
0
281
1
  3
Standard
350
18
  0
DICTIONARY
  5
19
102
{ACAD_REACTORS
330
C
102
}
100
AcDbDictionary
281
1
  0
DICTIONARY
  5
1A
102
{ACAD_REACTORS
330
C
102
}
100
AcDbDictionary
281
1
  3
Model
350
3AA
  3
Layout1
350
3AB
  0
ACDBPLACEHOLDER
  5
F
102
{ACAD_REACTORS
330
E
102
}
  0
MLINESTYLE
  5
18
102
{ACAD_REACTORS
330
17
102
}
100
AcDbMlineStyle
  2
STANDARD
 70
0
  3

 62
256
 51
90.0
 52
90.0
 71
2
 49
0.5
 62
256
  6
BYLAYER
 49
-0.5
 62
256
  6
BYLAYER
  0
LAYOUT
  5
3AA
102
{ACAD_REACTORS
330
1A
102
}
100
AcDbPlotSettings
  1

  2
none_device
  4
ISO_A0_(1189.00_x_841.00_MM)
  6

 40
0.0
 41
0.0
 42
0.0
 43
0.0
 44
1189.0
 45
841.0
 46
0.0
 47
0.0
 48
0.0
 49
0.0
140
0.0
141
0.0
142
1.0
143
1.0
 70
1024
 72
1
 73
0
 74
0
  7

 75
0
147
1.0
148
0.0
149
0.0
100
AcDbLayout
  1
Model
 70
0
 71
0
 10
0.0
 20
0.0
 11
1189.0
 21
841.0
 12
0.0
 22
0.0
 32
0.0
 14
0.0
 24
0.0
 34
0.0
 15
0.0
 25
0.0
 35
0.0
146
0.0
 13
0.0
 23
0.0
 33
0.0
 16
1.0
 26
0.0
 36
0.0
 17
0.0
 27
1.0
 37
0.0
 76
0
330
212
345
0
346
0
  0
LAYOUT
  5
3AB
102
{ACAD_REACTORS
330
1A
102
}
100
AcDbPlotSettings
  1

  2
none_device
  4
ISO_A0_(1189.00_x_841.00_MM)
  6

 40
0.0
 41
0.0
 42
0.0
 43
0.0
 44
1189.0
 45
841.0
 46
0.0
 47
0.0
 48
0.0
 49
0.0
140
0.0
141
0.0
142
1.0
143
1.0
 70
0
 72
1
 73
0
 74
0
  7

 75
0
147
1.0
148
0.0
149
0.0
100
AcDbLayout
  1
Layout1
 70
0
 71
1
 10
0.0
 20
0.0
 11
1189.0
 21
841.0
 12
0.0
 22
0.0
 32
0.0
 14
0.0
 24
0.0
 34
0.0
 15
0.0
 25
0.0
 35
0.0
146
0.0
 13
0.0
 23
0.0
 33
0.0
 16
1.0
 26
0.0
 36
0.0
 17
0.0
 27
1.0
 37
0.0
 76
0
330
213
345
0
346
0
  0
ENDSEC
  0
EOF
