999
DXF file: 001-m31713-p-30.dxf
999
Pro/ENGINEER 2011490 by Parametric Technology Corporation
  0
SECTION
  2
HEADER
  9
$ACADVER
  1
AC1015
  9
$DWGCODEPAGE
  3
ANSI_1252
  9
$EXTMAX
 10
594.0
 20
420.0
 30
0.0
  9
$EXTMIN
 10
0.0
 20
0.0
 30
0.0
  9
$LIMMIN
 10
0.0
 20
0.0
  9
$LIMMAX
 10
594.0
 20
420.0
  9
$VIEWCTR
 10
297.0
 20
210.0
  9
$VIEWSIZE
 40
420.0
  9
$CLAYER
  8
0
  9
$LTSCALE
 40
32.67
  9
$CELTYPE
  6
BYLAYER
  9
$DIMSCALE
 40
1.0
  9
$DIMASZ
 40
3.5
  9
$DIMEXO
 40
3.7125
  9
$DIMDLI
 40
22.572
  9
$DIMEXE
 40
10.692
  9
$DIMCEN
 40
5.346
  9
$DIMLFAC
 40
1.0
  9
$DIMBLK
  1
_FILLED
  9
$DIMTXT
 40
3.5
  9
$DIMTOL
 70
1
  9
$DIMLIM
 70
0
  9
$DIMTFAC
 40
1.0
  9
$DIMTP
 40
0.005
  9
$DIMTM
 40
0.005
  9
$PDMODE
 70
3
  9
$PDSIZE
 40
0.3125
  9
$HANDSEED
  5
4EC
  9
$TILEMODE
 70
1
  9
$MEASUREMENT
 70
1
  9
$INSUNITS
 70
4
  0
ENDSEC
  0
SECTION
  2
CLASSES
  0
CLASS
  1
ACDBDICTIONARYWDFLT
  2
AcDbDictionaryWithDefault
  3
AutoCAD 2000
 90
0
280
0
281
0
  0
CLASS
  1
ACDBPLACEHOLDER
  2
AcDbPlaceHolder
  3
AutoCAD 2000
 90
0
280
0
281
0
  0
CLASS
  1
LAYOUT
  2
AcDbLayout
  3
AutoCAD 2000
 90
0
280
0
281
0
  0
ENDSEC
  0
SECTION
  2
TABLES
  0
TABLE
  2
VPORT
  5
8
100
AcDbSymbolTable
 70
2
  0
VPORT
  5
1F4
100
AcDbSymbolTableRecord
100
AcDbViewportTableRecord
  2
*ACTIVE
 70
0
 10
0.0
 20
0.0
 11
1.0
 21
1.0
 12
297.0
 22
210.0
 13
0.0
 23
0.0
 14
1.0
 24
1.0
 15
0.0
 25
0.0
 16
0.0
 26
0.0
 36
1.0
 17
0.0
 27
0.0
 37
0.0
 40
420.0
 41
1.4142857143
 42
50.0
 43
0.0
 44
0.0
 50
0.0
 51
0.0
 71
0
 72
100
 73
1
 74
1
 75
0
 76
0
 77
0
 78
0
  0
ENDTAB
  0
TABLE
  2
LTYPE
  5
5
100
AcDbSymbolTable
 70
6
  0
LTYPE
  5
14
100
AcDbSymbolTableRecord
100
AcDbLinetypeTableRecord
  2
BYBLOCK
 70
0
  3

 72
65
 73
0
 40
0.0
  0
LTYPE
  5
15
100
AcDbSymbolTableRecord
100
AcDbLinetypeTableRecord
  2
BYLAYER
 70
0
  3

 72
65
 73
0
 40
0.0
  0
LTYPE
  5
16
100
AcDbSymbolTableRecord
100
AcDbLinetypeTableRecord
  2
CONTINUOUS
 70
64
  3
Solid line
 72
65
 73
0
 40
0.0
  0
LTYPE
  5
1F5
100
AcDbSymbolTableRecord
100
AcDbLinetypeTableRecord
  2
CENTER
 70
64
  3
____ _ ____ _ ____ _ ____ _ ____ _ ____ _ ____
 72
65
 73
4
 40
0.6
 49
0.375
 74
0
 49
-0.075
 74
0
 49
0.075
 74
0
 49
-0.075
 74
0
  0
LTYPE
  5
1F6
100
AcDbSymbolTableRecord
100
AcDbLinetypeTableRecord
  2
HIDDEN
 70
64
  3
- - - - - - - - - - - - - - - - - - - -
 72
65
 73
2
 40
0.2
 49
0.1
 74
0
 49
-0.1
 74
0
  0
LTYPE
  5
1F7
100
AcDbSymbolTableRecord
100
AcDbLinetypeTableRecord
  2
PHANTOM
 70
64
  3
_____ _ _ _____ _ _ _____ _ _ _____
 72
65
 73
6
 40
0.8
 49
0.45
 74
0
 49
-0.05
 74
0
 49
0.1
 74
0
 49
-0.05
 74
0
 49
0.1
 74
0
 49
-0.05
 74
0
  0
LTYPE
  5
1F8
100
AcDbSymbolTableRecord
100
AcDbLinetypeTableRecord
  2
DOT
 70
64
  3
. . . . . . . . . . . . . . . . . . . .
 72
65
 73
2
 40
0.2
 49
0.1
 74
0
 49
-0.1
 74
0
  0
LTYPE
  5
1F9
100
AcDbSymbolTableRecord
100
AcDbLinetypeTableRecord
  2
DASHED
 70
64
  3
- - - - - - - - - - - - - - - - - - - -
 72
65
 73
2
 40
0.2
 49
0.1
 74
0
 49
-0.1
 74
0
  0
ENDTAB
  0
TABLE
  2
LAYER
  5
2
100
AcDbSymbolTable
 70
36
  0
LAYER
  5
10
100
AcDbSymbolTableRecord
100
AcDbLayerTableRecord
  2
0
 70
0
 62
7
  6
CONTINUOUS
370
-3
390
F
  0
LAYER
  5
1FA
100
AcDbSymbolTableRecord
100
AcDbLayerTableRecord
  2
DEFAULT_1
 70
0
 62
7
  6
CENTER
370
-3
390
F
  0
LAYER
  5
1FB
100
AcDbSymbolTableRecord
100
AcDbLayerTableRecord
  2
DEFAULT_2
 70
0
 62
8
  6
HIDDEN
370
-3
390
F
  0
LAYER
  5
1FC
100
AcDbSymbolTableRecord
100
AcDbLayerTableRecord
  2
DEFAULT_3
 70
0
 62
7
  6
PHANTOM
370
-3
390
F
  0
LAYER
  5
1FD
100
AcDbSymbolTableRecord
100
AcDbLayerTableRecord
  2
AUSFORMSCHRAEGEN
 70
0
 62
7
  6
CONTINUOUS
370
-3
390
F
  0
LAYER
  5
1FE
100
AcDbSymbolTableRecord
100
AcDbLayerTableRecord
  2
B-EBENEN
 70
0
 62
7
  6
CONTINUOUS
370
-3
390
F
  0
LAYER
  5
1FF
100
AcDbSymbolTableRecord
100
AcDbLayerTableRecord
  2
B-KOORSYS
 70
0
 62
7
  6
CONTINUOUS
370
-3
390
F
  0
LAYER
  5
200
100
AcDbSymbolTableRecord
100
AcDbLayerTableRecord
  2
B-KURVEN
 70
0
 62
7
  6
CONTINUOUS
370
-3
390
F
  0
LAYER
  5
201
100
AcDbSymbolTableRecord
100
AcDbLayerTableRecord
  2
BEMASSUNG
 70
0
 62
7
  6
CONTINUOUS
370
-3
390
F
  0
LAYER
  5
202
100
AcDbSymbolTableRecord
100
AcDbLayerTableRecord
  2
BEZUGSACHSEN
 70
0
 62
7
  6
CONTINUOUS
370
-3
390
F
  0
LAYER
  5
203
100
AcDbSymbolTableRecord
100
AcDbLayerTableRecord
  2
BEZUGSEBENEN
 70
0
 62
7
  6
CONTINUOUS
370
-3
390
F
  0
LAYER
  5
204
100
AcDbSymbolTableRecord
100
AcDbLayerTableRecord
  2
BEZUGSPUNKTE
 70
0
 62
7
  6
CONTINUOUS
370
-3
390
F
  0
LAYER
  5
205
100
AcDbSymbolTableRecord
100
AcDbLayerTableRecord
  2
BG_STARTBEZUEGE
 70
0
 62
7
  6
CONTINUOUS
370
-3
390
F
  0
LAYER
  5
206
100
AcDbSymbolTableRecord
100
AcDbLayerTableRecord
  2
FASEN
 70
0
 62
7
  6
CONTINUOUS
370
-3
390
F
  0
LAYER
  5
207
100
AcDbSymbolTableRecord
100
AcDbLayerTableRecord
  2
FLAECHEN
 70
0
 62
7
  6
CONTINUOUS
370
-3
390
F
  0
LAYER
  5
208
100
AcDbSymbolTableRecord
100
AcDbLayerTableRecord
  2
FLAECHENVERBUND
 70
0
 62
7
  6
CONTINUOUS
370
-3
390
F
  0
LAYER
  5
209
100
AcDbSymbolTableRecord
100
AcDbLayerTableRecord
  2
HILFEN
 70
0
 62
7
  6
CONTINUOUS
370
-3
390
F
  0
LAYER
  5
20A
100
AcDbSymbolTableRecord
100
AcDbLayerTableRecord
  2
KONSTRUKTIONSELEMENTE
 70
0
 62
7
  6
CONTINUOUS
370
-3
390
F
  0
LAYER
  5
20B
100
AcDbSymbolTableRecord
100
AcDbLayerTableRecord
  2
KURVEN
 70
0
 62
7
  6
CONTINUOUS
370
-3
390
F
  0
LAYER
  5
20C
100
AcDbSymbolTableRecord
100
AcDbLayerTableRecord
  2
KURVENELEMENTE
 70
0
 62
7
  6
CONTINUOUS
370
-3
390
F
  0
LAYER
  5
20D
100
AcDbSymbolTableRecord
100
AcDbLayerTableRecord
  2
NORM
 70
0
 62
7
  6
CONTINUOUS
370
-3
390
F
  0
LAYER
  5
20E
100
AcDbSymbolTableRecord
100
AcDbLayerTableRecord
  2
NOTIZEN
 70
0
 62
7
  6
CONTINUOUS
370
-3
390
F
  0
LAYER
  5
20F
100
AcDbSymbolTableRecord
100
AcDbLayerTableRecord
  2
PLATZIERUNG
 70
0
 62
7
  6
CONTINUOUS
370
-3
390
F
  0
LAYER
  5
210
100
AcDbSymbolTableRecord
100
AcDbLayerTableRecord
  2
RUNDUNGEN
 70
0
 62
7
  6
CONTINUOUS
370
-3
390
F
  0
LAYER
  5
211
100
AcDbSymbolTableRecord
100
AcDbLayerTableRecord
  2
TEIL_STARTBEZUEGE
 70
0
 62
7
  6
CONTINUOUS
370
-3
390
F
  0
LAYER
  5
212
100
AcDbSymbolTableRecord
100
AcDbLayerTableRecord
  2
T_STARTBEZUEGE
 70
0
 62
7
  6
CONTINUOUS
370
-3
390
F
  0
LAYER
  5
213
100
AcDbSymbolTableRecord
100
AcDbLayerTableRecord
  2
ZEICHNUNGSBEMASSUNGEN
 70
0
 62
7
  6
CONTINUOUS
370
-3
390
F
  0
ENDTAB
  0
TABLE
  2
STYLE
  5
3
100
AcDbSymbolTable
 70
1
  0
STYLE
  5
11
100
AcDbSymbolTableRecord
100
AcDbTextStyleTableRecord
  2
STANDARD
 70
0
 40
0.0
 41
0.7
 50
0.0
 71
0
 42
0.2
  3
txt
  4

  0
STYLE
  5
214
100
AcDbSymbolTableRecord
100
AcDbTextStyleTableRecord
  2
TEXTSTYLE_1
 70
0
 40
0.0
 41
0.8
 50
0.0
 71
0
 42
0.2
  3
gdt
  4

  0
ENDTAB
  0
TABLE
  2
VIEW
  5
6
100
AcDbSymbolTable
 70
0
  0
ENDTAB
  0
TABLE
  2
UCS
  5
7
100
AcDbSymbolTable
 70
0
  0
ENDTAB
  0
TABLE
  2
APPID
  5
9
100
AcDbSymbolTable
 70
1
  0
APPID
  5
215
100
AcDbSymbolTableRecord
100
AcDbRegAppTableRecord
  2
ACAD
 70
0
  0
ENDTAB
  0
TABLE
  2
BLOCK_RECORD
  5
1
100
AcDbSymbolTable
 70
0
  0
BLOCK_RECORD
  5
216
100
AcDbSymbolTableRecord
100
AcDbBlockTableRecord
  2
*Model_Space
  0
BLOCK_RECORD
  5
217
100
AcDbSymbolTableRecord
100
AcDbBlockTableRecord
  2
*Paper_Space
  0
ENDTAB
  0
TABLE
  2
DIMSTYLE
  5
A
100
AcDbSymbolTable
 70
1
100
AcDbDimStyleTable
 71
0
  0
DIMSTYLE
105
218
100
AcDbSymbolTableRecord
100
AcDbDimStyleTableRecord
  2
STANDARD
 70
0
  3

  4

 40
1.0
 41
3.5
 42
0.0625
 43
0.38
 44
0.18
 45
0.0
 46
0.0
 47
0.005
 48
0.005
140
3.5
141
0.09
142
0.0
143
25.4
144
1.0
145
0.0
146
1.0
147
0.09
 71
1.0
 72
0.0
 73
0
 74
0
 75
0
 76
0
 77
1
 78
8
170
0
171
2
172
0
173
0
174
0
175
0
176
0
177
0
178
5
270
2
271
3
272
3
273
2
274
2
275
0
280
0
281
0
282
0
283
1
284
8
285
0
286
0
287
3
288
0
340
11
  0
ENDTAB
  0
ENDSEC
  0
SECTION
  2
BLOCKS
  0
BLOCK
  5
20
100
AcDbEntity
  8
0
100
AcDbBlockBegin
  2
*Model_Space
 70
0
 10
0.0
 20
0.0
 30
0.0
  3
*Model_Space
  1

  0
ENDBLK
  5
21
100
AcDbEntity
  8
0
100
AcDbBlockEnd
  0
BLOCK
  5
1C
100
AcDbEntity
  8
0
100
AcDbBlockBegin
  2
*Paper_Space
 70
0
 10
0.0
 20
0.0
 30
0.0
  3
*Paper_Space
  1

  0
ENDBLK
  5
1D
100
AcDbEntity
  8
0
100
AcDbBlockEnd
  0
ENDSEC
  0
SECTION
  2
ENTITIES
  0
MTEXT
  5
219
100
AcDbEntity
  8
0
100
AcDbMText
 62
5
  6
CONTINUOUS
  7
STANDARD
 71
1
 72
1
 10
168.3257784296
 20
64.9562992759
 30
0.0
 11
1.0
 21
0.0
 31
0.0
 44
0.9
  1
VWBG-V\P5t M30
 40
8.0
 41
44.0
  0
MTEXT
  5
21A
100
AcDbEntity
  8
0
100
AcDbMText
 62
5
  6
CONTINUOUS
  7
STANDARD
 71
1
 72
1
 10
155.7136338359
 20
213.7853772729
 30
0.0
 11
1.0
 21
0.0
 31
0.0
 44
0.9
  1
RUD VWBG-V \P5t M30
 40
8.0
 41
76.380952381
  0
LINE
  5
21B
100
AcDbEntity
  8
0
100
AcDbLine
 62
7
  6
CONTINUOUS
 10
0.0
 20
0.0
 11
0.0
 21
420.0
  0
LINE
  5
21C
100
AcDbEntity
  8
0
100
AcDbLine
 62
7
  6
CONTINUOUS
 10
0.0
 20
0.0
 11
594.0
 21
0.0
  0
LINE
  5
21D
100
AcDbEntity
  8
0
100
AcDbLine
 62
7
  6
CONTINUOUS
 10
0.0
 20
420.0
 11
594.0
 21
420.0
  0
LINE
  5
21E
100
AcDbEntity
  8
0
100
AcDbLine
 62
7
  6
CONTINUOUS
 10
594.0
 20
0.0
 11
594.0
 21
420.0
  0
LINE
  5
21F
100
AcDbEntity
  8
0
100
AcDbLine
 62
7
  6
CONTINUOUS
 10
199.6770752629
 20
122.2197905087
 11
176.6770752629
 21
122.2197905087
  0
LINE
  5
220
100
AcDbEntity
  8
0
100
AcDbLine
 62
7
  6
CONTINUOUS
 10
203.1770752629
 20
125.7197905087
 11
173.1770752629
 21
125.7197905087
  0
LINE
  5
221
100
AcDbEntity
  8
0
100
AcDbLine
 62
7
  6
CONTINUOUS
 10
173.1770752629
 20
125.7197905087
 11
176.6770752629
 21
122.2197905087
  0
LINE
  5
222
100
AcDbEntity
  8
0
100
AcDbLine
 62
7
  6
CONTINUOUS
 10
230.6770752629
 20
172.2197905087
 11
145.6770752629
 21
172.2197905087
  0
LINE
  5
223
100
AcDbEntity
  8
0
100
AcDbLine
 62
7
  6
CONTINUOUS
 10
145.6770752629
 20
209.9197905087
 11
144.1770752629
 21
209.9197905087
  0
LINE
  5
224
100
AcDbEntity
  8
RUNDUNGEN
100
AcDbLine
 62
7
  6
CONTINUOUS
 10
145.6770752629
 20
209.9197905087
 11
144.1770752629
 21
209.9197905087
  0
LINE
  5
225
100
AcDbEntity
  8
0
100
AcDbLine
 62
7
  6
CONTINUOUS
 10
141.1770752629
 20
303.2197905087
 11
141.1770752629
 21
368.2197905087
  0
LINE
  5
226
100
AcDbEntity
  8
RUNDUNGEN
100
AcDbLine
 62
7
  6
CONTINUOUS
 10
143.1770752629
 20
210.9197905087
 11
143.1770752629
 21
231.4197905087
  0
LINE
  5
227
100
AcDbEntity
  8
0
100
AcDbLine
 62
7
  6
CONTINUOUS
 10
145.6770752629
 20
202.4760212994
 11
145.6770752629
 21
172.2197905087
  0
LINE
  5
228
100
AcDbEntity
  8
RUNDUNGEN
100
AcDbLine
 62
7
  6
CONTINUOUS
 10
145.6770752629
 20
202.4760212994
 11
145.6770752629
 21
221.0686710401
  0
LINE
  5
229
100
AcDbEntity
  8
0
100
AcDbLine
 62
7
  6
CONTINUOUS
 10
148.4046619033
 20
202.4760212994
 11
148.4046619033
 21
172.2197905087
  0
LINE
  5
22A
100
AcDbEntity
  8
0
100
AcDbLine
 62
7
  6
CONTINUOUS
 10
148.6770752629
 20
236.2197905087
 11
148.6770752629
 21
234.2197905087
  0
LINE
  5
22B
100
AcDbEntity
  8
BEZUGSACHSEN
100
AcDbLine
 62
7
  6
CONTINUOUS
 10
149.1770752629
 20
236.2197905087
 11
149.1770752629
 21
239.7197905087
  0
LINE
  5
22C
100
AcDbEntity
  8
0
100
AcDbLine
 62
7
  6
CONTINUOUS
 10
145.1997538417
 20
232.4197905087
 11
144.1770752629
 21
232.4197905087
  0
LINE
  5
22D
100
AcDbEntity
  8
FASEN
100
AcDbLine
 62
7
  6
CONTINUOUS
 10
230.4185130332
 20
232.7425788791
 11
188.1770752629
 21
232.7425788791
  0
LINE
  5
22E
100
AcDbEntity
  8
RUNDUNGEN
100
AcDbLine
 62
7
  6
CONTINUOUS
 10
188.1770752629
 20
232.7425788791
 11
145.9351866756
 21
232.7422005988
  0
LINE
  5
22F
100
AcDbEntity
  8
FASEN
100
AcDbLine
 62
7
  6
CONTINUOUS
 10
228.6580407667
 20
234.2197905087
 11
147.696109759
 21
234.2197905087
  0
LINE
  5
230
100
AcDbEntity
  8
0
100
AcDbLine
 62
7
  6
CONTINUOUS
 10
227.6770752629
 20
236.2197905087
 11
148.6770752629
 21
236.2197905087
  0
LINE
  5
231
100
AcDbEntity
  8
0
100
AcDbLine
 62
7
  6
CONTINUOUS
 10
163.1770752629
 20
303.2197905087
 11
163.1770752629
 21
368.2197905087
  0
LINE
  5
232
100
AcDbEntity
  8
BEZUGSACHSEN
100
AcDbLine
 62
7
  6
CONTINUOUS
 10
169.0101456676
 20
242.7197905087
 11
152.1791110408
 21
242.7197905087
  0
LINE
  5
233
100
AcDbEntity
  8
BEZUGSACHSEN
100
AcDbLine
 62
7
  6
CONTINUOUS
 10
207.3454944159
 20
242.7197905087
 11
224.1750394849
 21
242.7197905087
  0
LINE
  5
234
100
AcDbEntity
  8
0
100
AcDbLine
 62
7
  6
CONTINUOUS
 10
173.1770752629
 20
172.2197905087
 11
173.1770752629
 21
125.7197905087
  0
LINE
  5
235
100
AcDbEntity
  8
0
100
AcDbLine
 62
7
  6
CONTINUOUS
 10
178.9270752629
 20
282.4208008389
 11
178.9270752629
 21
287.9585073262
  0
LINE
  5
236
100
AcDbEntity
  8
0
100
AcDbLine
 62
7
  6
CONTINUOUS
 10
178.9270752629
 20
287.9834675785
 11
178.9270752629
 21
292.6282874271
  0
LINE
  5
237
100
AcDbEntity
  8
RUNDUNGEN
100
AcDbLine
 62
7
  6
CONTINUOUS
 10
179.9270752629
 20
298.8902217075
 11
179.9270752629
 21
288.4425942972
  0
LINE
  5
238
100
AcDbEntity
  8
BEZUGSACHSEN
100
AcDbLine
 62
7
  6
CONTINUOUS
 10
179.9270752629
 20
288.4425942972
 11
179.9270752629
 21
267.8067225425
  0
LINE
  5
239
100
AcDbEntity
  8
0
100
AcDbLine
 62
7
  6
CONTINUOUS
 10
185.4494886224
 20
202.4760212994
 11
185.4494886224
 21
172.2197905087
  0
LINE
  5
23A
100
AcDbEntity
  8
BEZUGSACHSEN
100
AcDbLine
 62
7
  6
CONTINUOUS
 10
179.3843123213
 20
264.7285615827
 11
172.3317150879
 21
245.3517099354
  0
LINE
  5
23B
100
AcDbEntity
  8
FASEN
100
AcDbLine
 62
7
  6
CONTINUOUS
 10
147.696109759
 20
234.2197905087
 11
145.9351867342
 21
232.742200648
  0
LINE
  5
23C
100
AcDbEntity
  8
FASEN
100
AcDbLine
 62
7
  6
CONTINUOUS
 10
228.6580407667
 20
234.2197905087
 11
230.4185130332
 21
232.7425788791
  0
LINE
  5
23D
100
AcDbEntity
  8
0
100
AcDbLine
 62
7
  6
CONTINUOUS
 10
190.9046619033
 20
202.4760212994
 11
190.9046619033
 21
172.2197905087
  0
LINE
  5
23E
100
AcDbEntity
  8
RUNDUNGEN
100
AcDbLine
 62
7
  6
CONTINUOUS
 10
196.4270752629
 20
298.8902217075
 11
196.4270752629
 21
267.8067225425
  0
LINE
  5
23F
100
AcDbEntity
  8
RUNDUNGEN
100
AcDbLine
 62
7
  6
CONTINUOUS
 10
196.9698382044
 20
264.7285615827
 11
204.0224354378
 21
245.3517099354
  0
LINE
  5
240
100
AcDbEntity
  8
0
100
AcDbLine
 62
7
  6
CONTINUOUS
 10
203.1770752629
 20
172.2197905087
 11
203.1770752629
 21
125.7197905087
  0
LINE
  5
241
100
AcDbEntity
  8
0
100
AcDbLine
 62
7
  6
CONTINUOUS
 10
179.9270752629
 20
282.4208008389
 11
178.9270752629
 21
282.4208008389
  0
LINE
  5
242
100
AcDbEntity
  8
0
100
AcDbLine
 62
7
  6
CONTINUOUS
 10
179.9270752629
 20
282.6887946028
 11
178.9270752629
 21
282.6887946028
  0
LINE
  5
243
100
AcDbEntity
  8
0
100
AcDbLine
 62
7
  6
CONTINUOUS
 10
179.9270752629
 20
282.9963398979
 11
178.9270752629
 21
282.9963398979
  0
LINE
  5
244
100
AcDbEntity
  8
0
100
AcDbLine
 62
7
  6
CONTINUOUS
 10
179.9270752629
 20
283.3525701801
 11
178.9270752629
 21
283.3525701801
  0
LINE
  5
245
100
AcDbEntity
  8
0
100
AcDbLine
 62
7
  6
CONTINUOUS
 10
179.9270752629
 20
283.6739486656
 11
178.9270752629
 21
283.6739486656
  0
LINE
  5
246
100
AcDbEntity
  8
0
100
AcDbLine
 62
7
  6
CONTINUOUS
 10
179.9270752629
 20
283.9604754352
 11
178.9270752629
 21
283.9604754352
  0
LINE
  5
247
100
AcDbEntity
  8
0
100
AcDbLine
 62
7
  6
CONTINUOUS
 10
179.9270752629
 20
284.7298761664
 11
178.9270752629
 21
284.7298761664
  0
LINE
  5
248
100
AcDbEntity
  8
0
100
AcDbLine
 62
7
  6
CONTINUOUS
 10
179.9270752629
 20
285.0374214346
 11
178.9270752629
 21
285.0374214346
  0
LINE
  5
249
100
AcDbEntity
  8
0
100
AcDbLine
 62
7
  6
CONTINUOUS
 10
179.9270752629
 20
285.6519745181
 11
178.9270752629
 21
285.6519745181
  0
LINE
  5
24A
100
AcDbEntity
  8
0
100
AcDbLine
 62
7
  6
CONTINUOUS
 10
179.9270752629
 20
286.2670652699
 11
178.9270752629
 21
286.2670652699
  0
LINE
  5
24B
100
AcDbEntity
  8
0
100
AcDbLine
 62
7
  6
CONTINUOUS
 10
179.9270752629
 20
286.5464092081
 11
178.9270752629
 21
286.5464092081
  0
LINE
  5
24C
100
AcDbEntity
  8
0
100
AcDbLine
 62
7
  6
CONTINUOUS
 10
179.9270752629
 20
286.7696016659
 11
178.9270752629
 21
286.7696016659
  0
LINE
  5
24D
100
AcDbEntity
  8
0
100
AcDbLine
 62
7
  6
CONTINUOUS
 10
179.9270752629
 20
287.2451912049
 11
178.9270752629
 21
287.2451912049
  0
LINE
  5
24E
100
AcDbEntity
  8
0
100
AcDbLine
 62
7
  6
CONTINUOUS
 10
179.9270752629
 20
287.5523271309
 11
178.9270752629
 21
287.5523271309
  0
LINE
  5
24F
100
AcDbEntity
  8
0
100
AcDbLine
 62
7
  6
CONTINUOUS
 10
179.9270752629
 20
287.8198209315
 11
178.9270752629
 21
287.8198209315
  0
LINE
  5
250
100
AcDbEntity
  8
0
100
AcDbLine
 62
7
  6
CONTINUOUS
 10
179.9270752629
 20
287.9585073262
 11
178.9270752629
 21
287.9585073262
  0
LINE
  5
251
100
AcDbEntity
  8
0
100
AcDbLine
 62
7
  6
CONTINUOUS
 10
179.9270752629
 20
287.9834675785
 11
178.9270752629
 21
287.9834675785
  0
LINE
  5
252
100
AcDbEntity
  8
0
100
AcDbLine
 62
7
  6
CONTINUOUS
 10
179.9270752629
 20
288.4045965088
 11
178.9270752629
 21
288.4045965088
  0
LINE
  5
253
100
AcDbEntity
  8
0
100
AcDbLine
 62
7
  6
CONTINUOUS
 10
179.9270752629
 20
289.9203940319
 11
178.9270752629
 21
289.9203940319
  0
LINE
  5
254
100
AcDbEntity
  8
0
100
AcDbLine
 62
7
  6
CONTINUOUS
 10
213.1770752629
 20
368.2197905087
 11
213.1770752629
 21
303.2197905087
  0
LINE
  5
255
100
AcDbEntity
  8
0
100
AcDbLine
 62
7
  6
CONTINUOUS
 10
179.9270752629
 20
292.0967034978
 11
178.9270752629
 21
292.0967034978
  0
LINE
  5
256
100
AcDbEntity
  8
0
100
AcDbLine
 62
7
  6
CONTINUOUS
 10
179.9270752629
 20
292.1764411176
 11
178.9270752629
 21
292.1764411176
  0
LINE
  5
257
100
AcDbEntity
  8
0
100
AcDbLine
 62
7
  6
CONTINUOUS
 10
179.9270752629
 20
292.5485498073
 11
178.9270752629
 21
292.5485498073
  0
LINE
  5
258
100
AcDbEntity
  8
0
100
AcDbLine
 62
7
  6
CONTINUOUS
 10
179.9270752629
 20
292.6282874271
 11
178.9270752629
 21
292.6282874271
  0
LINE
  5
259
100
AcDbEntity
  8
BEZUGSACHSEN
100
AcDbLine
 62
7
  6
CONTINUOUS
 10
227.1770752629
 20
239.7197905087
 11
227.1770752629
 21
236.2197905087
  0
LINE
  5
25A
100
AcDbEntity
  8
0
100
AcDbLine
 62
7
  6
CONTINUOUS
 10
227.6770752629
 20
236.2197905087
 11
227.6770752629
 21
234.2197905087
  0
LINE
  5
25B
100
AcDbEntity
  8
0
100
AcDbLine
 62
7
  6
CONTINUOUS
 10
227.9494886224
 20
202.4760212994
 11
227.9494886224
 21
172.2197905087
  0
LINE
  5
25C
100
AcDbEntity
  8
RUNDUNGEN
100
AcDbLine
 62
7
  6
CONTINUOUS
 10
192.4270752629
 20
302.8902217075
 11
183.9270752629
 21
302.8902217075
  0
LINE
  5
25D
100
AcDbEntity
  8
BEZUGSACHSEN
100
AcDbLine
 62
7
  6
CONTINUOUS
 10
230.4185130332
 20
232.7425788791
 11
230.6770771814
 21
231.2761887264
  0
LINE
  5
25E
100
AcDbEntity
  8
RUNDUNGEN
100
AcDbLine
 62
7
  6
CONTINUOUS
 10
230.6770752629
 20
231.2761996063
 11
230.6770752629
 21
172.2197905087
  0
LINE
  5
25F
100
AcDbEntity
  8
0
100
AcDbLine
 62
7
  6
CONTINUOUS
 10
235.1770752629
 20
368.2197905087
 11
235.1770752629
 21
303.2197905087
  0
LINE
  5
260
100
AcDbEntity
  8
0
100
AcDbLine
 62
7
  6
CONTINUOUS
 10
203.1770752629
 20
125.7197905087
 11
199.6770752629
 21
122.2197905087
  0
LINE
  5
261
100
AcDbEntity
  8
0
100
AcDbLine
 62
7
  6
CONTINUOUS
 10
308.9225470524
 20
122.2197905087
 11
331.9225470524
 21
122.2197905087
  0
LINE
  5
262
100
AcDbEntity
  8
0
100
AcDbLine
 62
7
  6
CONTINUOUS
 10
335.4225470524
 20
125.7197905087
 11
305.4225470524
 21
125.7197905087
  0
LINE
  5
263
100
AcDbEntity
  8
0
100
AcDbLine
 62
7
  6
CONTINUOUS
 10
305.4225470524
 20
125.7197905087
 11
308.9225470524
 21
122.2197905087
  0
LINE
  5
264
100
AcDbEntity
  8
0
100
AcDbLine
 62
7
  6
CONTINUOUS
 10
367.9225470524
 20
172.2197905087
 11
272.9225470524
 21
172.2197905087
  0
LINE
  5
265
100
AcDbEntity
  8
RUNDUNGEN
100
AcDbLine
 62
7
  6
CONTINUOUS
 10
331.4225470524
 20
176.9197905087
 11
309.4225470524
 21
176.9197905087
  0
LINE
  5
266
100
AcDbEntity
  8
KONSTRUKTIONSELEMENTE
100
AcDbLine
 62
7
  6
CONTINUOUS
 10
321.9225473385
 20
177.8297905087
 11
322.5225476246
 21
178.0000032692
  0
LINE
  5
267
100
AcDbEntity
  8
KONSTRUKTIONSELEMENTE
100
AcDbLine
 62
7
  6
CONTINUOUS
 10
328.6725473385
 20
178.8510671019
 11
327.9225467663
 21
178.6808543562
  0
LINE
  5
268
100
AcDbEntity
  8
KONSTRUKTIONSELEMENTE
100
AcDbLine
 62
7
  6
CONTINUOUS
 10
322.5225476246
 20
178.8510671019
 11
321.7725470524
 21
178.6808543562
  0
LINE
  5
269
100
AcDbEntity
  8
KONSTRUKTIONSELEMENTE
100
AcDbLine
 62
7
  6
CONTINUOUS
 10
327.1725479107
 20
184.8085140347
 11
327.9225467663
 21
184.9787267803
  0
LINE
  5
26A
100
AcDbEntity
  8
KONSTRUKTIONSELEMENTE
100
AcDbLine
 62
7
  6
CONTINUOUS
 10
320.2725476246
 20
184.8085140347
 11
321.0225473385
 21
184.9787267803
  0
LINE
  5
26B
100
AcDbEntity
  8
KONSTRUKTIONSELEMENTE
100
AcDbLine
 62
7
  6
CONTINUOUS
 10
331.4329628449
 20
188.1297905087
 11
332.1621300679
 21
188.2787266742
  0
LINE
  5
26C
100
AcDbEntity
  8
KONSTRUKTIONSELEMENTE
100
AcDbLine
 62
7
  6
CONTINUOUS
 10
327.9225467663
 20
177.8297905087
 11
328.8225467663
 21
178.0000032692
  0
LINE
  5
26D
100
AcDbEntity
  8
KONSTRUKTIONSELEMENTE
100
AcDbLine
 62
7
  6
CONTINUOUS
 10
327.9225467663
 20
185.8297905087
 11
327.0225467663
 21
185.659577763
  0
LINE
  5
26E
100
AcDbEntity
  8
KONSTRUKTIONSELEMENTE
100
AcDbLine
 62
7
  6
CONTINUOUS
 10
321.1725476246
 20
185.8297905087
 11
320.1225473385
 21
185.659577763
  0
LINE
  5
26F
100
AcDbEntity
  8
KONSTRUKTIONSELEMENTE
100
AcDbLine
 62
7
  6
CONTINUOUS
 10
310.2225473385
 20
177.8297905087
 11
311.1225473385
 21
177.8297905087
  0
LINE
  5
270
100
AcDbEntity
  8
KONSTRUKTIONSELEMENTE
100
AcDbLine
 62
7
  6
CONTINUOUS
 10
313.222547267
 20
177.8297905087
 11
314.4225471955
 21
177.8297905087
  0
LINE
  5
271
100
AcDbEntity
  8
KONSTRUKTIONSELEMENTE
100
AcDbLine
 62
7
  6
CONTINUOUS
 10
316.5225473385
 20
177.8297905087
 11
317.4225473385
 21
177.8297905087
  0
LINE
  5
272
100
AcDbEntity
  8
KONSTRUKTIONSELEMENTE
100
AcDbLine
 62
7
  6
CONTINUOUS
 10
320.7225476246
 20
177.8297905087
 11
321.9225473385
 21
177.8297905087
  0
LINE
  5
273
100
AcDbEntity
  8
KONSTRUKTIONSELEMENTE
100
AcDbLine
 62
7
  6
CONTINUOUS
 10
321.7725470524
 20
178.6808543562
 11
320.8725470524
 21
178.6808543562
  0
LINE
  5
274
100
AcDbEntity
  8
KONSTRUKTIONSELEMENTE
100
AcDbLine
 62
7
  6
CONTINUOUS
 10
319.3725476246
 20
179.7021309494
 11
318.6225470524
 21
179.7021309494
  0
LINE
  5
275
100
AcDbEntity
  8
KONSTRUKTIONSELEMENTE
100
AcDbLine
 62
7
  6
CONTINUOUS
 10
321.0225473385
 20
181.5744713902
 11
321.6225476246
 21
181.5744713902
  0
LINE
  5
276
100
AcDbEntity
  8
KONSTRUKTIONSELEMENTE
100
AcDbLine
 62
7
  6
CONTINUOUS
 10
321.6225476246
 20
182.2553223728
 11
321.0225473385
 21
182.2553223728
  0
LINE
  5
277
100
AcDbEntity
  8
KONSTRUKTIONSELEMENTE
100
AcDbLine
 62
7
  6
CONTINUOUS
 10
318.7725473385
 20
183.9574503063
 11
319.5225470524
 21
183.9574503063
  0
LINE
  5
278
100
AcDbEntity
  8
KONSTRUKTIONSELEMENTE
100
AcDbLine
 62
7
  6
CONTINUOUS
 10
321.0225473385
 20
184.9787267803
 11
321.6225476246
 21
184.9787267803
  0
LINE
  5
279
100
AcDbEntity
  8
KONSTRUKTIONSELEMENTE
100
AcDbLine
 62
7
  6
CONTINUOUS
 10
321.4725473385
 20
185.8297905087
 11
321.1725476246
 21
185.8297905087
  0
LINE
  5
27A
100
AcDbEntity
  8
KONSTRUKTIONSELEMENTE
100
AcDbLine
 62
7
  6
CONTINUOUS
 10
317.4225473385
 20
185.8297905087
 11
316.0725473385
 21
185.8297905087
  0
LINE
  5
27B
100
AcDbEntity
  8
KONSTRUKTIONSELEMENTE
100
AcDbLine
 62
7
  6
CONTINUOUS
 10
311.5725473385
 20
185.8297905087
 11
310.2225473385
 21
185.8297905087
  0
LINE
  5
27C
100
AcDbEntity
  8
KONSTRUKTIONSELEMENTE
100
AcDbLine
 62
7
  6
CONTINUOUS
 10
322.5225476246
 20
185.659577763
 11
321.4725473385
 21
185.8297905087
  0
LINE
  5
27D
100
AcDbEntity
  8
KONSTRUKTIONSELEMENTE
100
AcDbLine
 62
7
  6
CONTINUOUS
 10
327.0225467663
 20
178.0000032692
 11
327.9225467663
 21
177.8297905087
  0
LINE
  5
27E
100
AcDbEntity
  8
KONSTRUKTIONSELEMENTE
100
AcDbLine
 62
7
  6
CONTINUOUS
 10
321.6225476246
 20
181.5744713902
 11
322.5225476246
 21
181.4042586445
  0
LINE
  5
27F
100
AcDbEntity
  8
KONSTRUKTIONSELEMENTE
100
AcDbLine
 62
7
  6
CONTINUOUS
 10
308.5371300679
 20
188.2787266742
 11
309.266296665
 21
188.1297905087
  0
LINE
  5
280
100
AcDbEntity
  8
KONSTRUKTIONSELEMENTE
100
AcDbLine
 62
7
  6
CONTINUOUS
 10
320.8725470524
 20
178.6808543562
 11
320.1225473385
 21
178.8510671019
  0
LINE
  5
281
100
AcDbEntity
  8
KONSTRUKTIONSELEMENTE
100
AcDbLine
 62
7
  6
CONTINUOUS
 10
327.9225467663
 20
178.6808543562
 11
327.1725479107
 21
178.8510671019
  0
LINE
  5
282
100
AcDbEntity
  8
KONSTRUKTIONSELEMENTE
100
AcDbLine
 62
7
  6
CONTINUOUS
 10
321.6225476246
 20
184.9787267803
 11
322.3725473385
 21
184.8085140347
  0
LINE
  5
283
100
AcDbEntity
  8
KONSTRUKTIONSELEMENTE
100
AcDbLine
 62
7
  6
CONTINUOUS
 10
320.1225473385
 20
178.0000032692
 11
320.7225476246
 21
177.8297905087
  0
LINE
  5
284
100
AcDbEntity
  8
KONSTRUKTIONSELEMENTE
100
AcDbLine
 62
7
  6
CONTINUOUS
 10
332.0162972908
 20
189.0234075277
 11
331.4329628449
 21
188.8744713753
  0
LINE
  5
285
100
AcDbEntity
  8
KONSTRUKTIONSELEMENTE
100
AcDbLine
 62
7
  6
CONTINUOUS
 10
325.4537972908
 20
189.0234075277
 11
324.8704628449
 21
188.8744713753
  0
LINE
  5
286
100
AcDbEntity
  8
KONSTRUKTIONSELEMENTE
100
AcDbLine
 62
7
  6
CONTINUOUS
 10
329.9746300679
 20
191.7042585849
 11
330.5579628449
 21
191.8531947373
  0
LINE
  5
287
100
AcDbEntity
  8
KONSTRUKTIONSELEMENTE
100
AcDbLine
 62
7
  6
CONTINUOUS
 10
323.7037972908
 20
191.2574501275
 11
324.2871300679
 21
191.40638628
  0
LINE
  5
288
100
AcDbEntity
  8
KONSTRUKTIONSELEMENTE
100
AcDbLine
 62
7
  6
CONTINUOUS
 10
325.4537972908
 20
192.1510670423
 11
324.8704628449
 21
192.0021308898
  0
LINE
  5
289
100
AcDbEntity
  8
KONSTRUKTIONSELEMENTE
100
AcDbLine
 62
7
  6
CONTINUOUS
 10
311.0162968736
 20
189.1723436802
 11
310.4329634707
 21
189.0234075277
  0
LINE
  5
28A
100
AcDbEntity
  8
KONSTRUKTIONSELEMENTE
100
AcDbLine
 62
7
  6
CONTINUOUS
 10
323.7037972908
 20
194.2361735939
 11
324.2871300679
 21
194.3851097464
  0
LINE
  5
28B
100
AcDbEntity
  8
KONSTRUKTIONSELEMENTE
100
AcDbLine
 62
7
  6
CONTINUOUS
 10
325.0162972908
 20
188.1297905087
 11
325.7454628449
 21
188.2787266742
  0
LINE
  5
28C
100
AcDbEntity
  8
KONSTRUKTIONSELEMENTE
100
AcDbLine
 62
7
  6
CONTINUOUS
 10
310.4329634707
 20
188.1297905087
 11
311.1621300679
 21
188.2787266742
  0
LINE
  5
28D
100
AcDbEntity
  8
KONSTRUKTIONSELEMENTE
100
AcDbLine
 62
7
  6
CONTINUOUS
 10
330.5579628449
 20
192.5978754996
 11
329.8287972908
 21
192.4489393472
  0
LINE
  5
28E
100
AcDbEntity
  8
KONSTRUKTIONSELEMENTE
100
AcDbLine
 62
7
  6
CONTINUOUS
 10
324.2871300679
 20
195.1297905087
 11
323.5579628449
 21
194.9808543562
  0
LINE
  5
28F
100
AcDbEntity
  8
KONSTRUKTIONSELEMENTE
100
AcDbLine
 62
7
  6
CONTINUOUS
 10
309.266296665
 20
188.1297905087
 11
310.4329634707
 21
188.1297905087
  0
LINE
  5
290
100
AcDbEntity
  8
KONSTRUKTIONSELEMENTE
100
AcDbLine
 62
7
  6
CONTINUOUS
 10
314.9537964564
 20
188.1297905087
 11
316.1204636793
 21
188.1297905087
  0
LINE
  5
291
100
AcDbEntity
  8
KONSTRUKTIONSELEMENTE
100
AcDbLine
 62
7
  6
CONTINUOUS
 10
318.4537964564
 20
188.1297905087
 11
319.6204636793
 21
188.1297905087
  0
LINE
  5
292
100
AcDbEntity
  8
KONSTRUKTIONSELEMENTE
100
AcDbLine
 62
7
  6
CONTINUOUS
 10
324.1412972908
 20
188.1297905087
 11
325.0162972908
 21
188.1297905087
  0
LINE
  5
293
100
AcDbEntity
  8
KONSTRUKTIONSELEMENTE
100
AcDbLine
 62
7
  6
CONTINUOUS
 10
330.5579628449
 20
188.1297905087
 11
331.4329628449
 21
188.1297905087
  0
LINE
  5
294
100
AcDbEntity
  8
KONSTRUKTIONSELEMENTE
100
AcDbLine
 62
7
  6
CONTINUOUS
 10
331.4329628449
 20
188.8744713753
 11
330.5579628449
 21
188.8744713753
  0
LINE
  5
295
100
AcDbEntity
  8
KONSTRUKTIONSELEMENTE
100
AcDbLine
 62
7
  6
CONTINUOUS
 10
324.8704628449
 20
188.8744713753
 11
324.2871300679
 21
188.8744713753
  0
LINE
  5
296
100
AcDbEntity
  8
KONSTRUKTIONSELEMENTE
100
AcDbLine
 62
7
  6
CONTINUOUS
 10
310.4329634707
 20
189.0234075277
 11
309.266296665
 21
189.0234075277
  0
LINE
  5
297
100
AcDbEntity
  8
KONSTRUKTIONSELEMENTE
100
AcDbLine
 62
7
  6
CONTINUOUS
 10
329.2454628449
 20
189.9170245468
 11
328.3704628449
 21
189.9170245468
  0
LINE
  5
298
100
AcDbEntity
  8
KONSTRUKTIONSELEMENTE
100
AcDbLine
 62
7
  6
CONTINUOUS
 10
308.0996300679
 20
190.0659606992
 11
307.2246300679
 21
190.0659606992
  0
LINE
  5
299
100
AcDbEntity
  8
KONSTRUKTIONSELEMENTE
100
AcDbLine
 62
7
  6
CONTINUOUS
 10
309.5579634707
 20
191.2574501275
 11
310.4329634707
 21
191.2574501275
  0
LINE
  5
29A
100
AcDbEntity
  8
KONSTRUKTIONSELEMENTE
100
AcDbLine
 62
7
  6
CONTINUOUS
 10
328.3704628449
 20
191.2574501275
 11
329.3912972908
 21
191.2574501275
  0
LINE
  5
29B
100
AcDbEntity
  8
KONSTRUKTIONSELEMENTE
100
AcDbLine
 62
7
  6
CONTINUOUS
 10
324.2871300679
 20
191.40638628
 11
324.8704628449
 21
191.40638628
  0
LINE
  5
29C
100
AcDbEntity
  8
KONSTRUKTIONSELEMENTE
100
AcDbLine
 62
7
  6
CONTINUOUS
 10
330.5579628449
 20
191.8531947373
 11
331.4329628449
 21
191.8531947373
  0
LINE
  5
29D
100
AcDbEntity
  8
KONSTRUKTIONSELEMENTE
100
AcDbLine
 62
7
  6
CONTINUOUS
 10
324.8704628449
 20
192.0021308898
 11
324.2871300679
 21
192.0021308898
  0
LINE
  5
29E
100
AcDbEntity
  8
KONSTRUKTIONSELEMENTE
100
AcDbLine
 62
7
  6
CONTINUOUS
 10
310.4329634707
 20
192.1510670423
 11
309.5579634707
 21
192.1510670423
  0
LINE
  5
29F
100
AcDbEntity
  8
KONSTRUKTIONSELEMENTE
100
AcDbLine
 62
7
  6
CONTINUOUS
 10
331.4329628449
 20
192.5978754996
 11
330.5579628449
 21
192.5978754996
  0
LINE
  5
2A0
100
AcDbEntity
  8
KONSTRUKTIONSELEMENTE
100
AcDbLine
 62
7
  6
CONTINUOUS
 10
311.3079632621
 20
193.4914928316
 11
312.1829632621
 21
193.4914928316
  0
LINE
  5
2A1
100
AcDbEntity
  8
KONSTRUKTIONSELEMENTE
100
AcDbLine
 62
7
  6
CONTINUOUS
 10
309.5579634707
 20
194.2361735939
 11
310.4329634707
 21
194.2361735939
  0
LINE
  5
2A2
100
AcDbEntity
  8
KONSTRUKTIONSELEMENTE
100
AcDbLine
 62
7
  6
CONTINUOUS
 10
324.2871300679
 20
194.3851097464
 11
324.8704628449
 21
194.3851097464
  0
LINE
  5
2A3
100
AcDbEntity
  8
KONSTRUKTIONSELEMENTE
100
AcDbLine
 62
7
  6
CONTINUOUS
 10
329.0996300679
 20
194.3851097464
 11
333.3287972908
 21
194.3851097464
  0
LINE
  5
2A4
100
AcDbEntity
  8
KONSTRUKTIONSELEMENTE
100
AcDbLine
 62
7
  6
CONTINUOUS
 10
333.3287972908
 20
195.1297905087
 11
328.3704628449
 21
195.1297905087
  0
LINE
  5
2A5
100
AcDbEntity
  8
KONSTRUKTIONSELEMENTE
100
AcDbLine
 62
7
  6
CONTINUOUS
 10
324.8704628449
 20
195.1297905087
 11
324.2871300679
 21
195.1297905087
  0
LINE
  5
2A6
100
AcDbEntity
  8
KONSTRUKTIONSELEMENTE
100
AcDbLine
 62
7
  6
CONTINUOUS
 10
320.7871300679
 20
195.1297905087
 11
319.9121300679
 21
195.1297905087
  0
LINE
  5
2A7
100
AcDbEntity
  8
KONSTRUKTIONSELEMENTE
100
AcDbLine
 62
7
  6
CONTINUOUS
 10
317.8704636793
 20
195.1297905087
 11
316.7037964564
 21
195.1297905087
  0
LINE
  5
2A8
100
AcDbEntity
  8
KONSTRUKTIONSELEMENTE
100
AcDbLine
 62
7
  6
CONTINUOUS
 10
314.6621300679
 20
195.1297905087
 11
313.7871300679
 21
195.1297905087
  0
LINE
  5
2A9
100
AcDbEntity
  8
KONSTRUKTIONSELEMENTE
100
AcDbLine
 62
7
  6
CONTINUOUS
 10
310.2871300679
 20
195.1297905087
 11
309.5579634707
 21
195.1297905087
  0
LINE
  5
2AA
100
AcDbEntity
  8
KONSTRUKTIONSELEMENTE
100
AcDbLine
 62
7
  6
CONTINUOUS
 10
328.8225467663
 20
185.659577763
 11
327.9225467663
 21
185.8297905087
  0
LINE
  5
2AB
100
AcDbEntity
  8
KONSTRUKTIONSELEMENTE
100
AcDbLine
 62
7
  6
CONTINUOUS
 10
323.4121300679
 20
188.2787266742
 11
324.1412972908
 21
188.1297905087
  0
LINE
  5
2AC
100
AcDbEntity
  8
KONSTRUKTIONSELEMENTE
100
AcDbLine
 62
7
  6
CONTINUOUS
 10
311.1621300679
 20
192.0021308898
 11
310.4329634707
 21
192.1510670423
  0
LINE
  5
2AD
100
AcDbEntity
  8
KONSTRUKTIONSELEMENTE
100
AcDbLine
 62
7
  6
CONTINUOUS
 10
329.8287972908
 20
188.2787266742
 11
330.5579628449
 21
188.1297905087
  0
LINE
  5
2AE
100
AcDbEntity
  8
KONSTRUKTIONSELEMENTE
100
AcDbLine
 62
7
  6
CONTINUOUS
 10
311.0162968736
 20
194.9808543562
 11
310.2871300679
 21
195.1297905087
  0
LINE
  5
2AF
100
AcDbEntity
  8
KONSTRUKTIONSELEMENTE
100
AcDbLine
 62
7
  6
CONTINUOUS
 10
332.1621300679
 20
192.4489393472
 11
331.4329628449
 21
192.5978754996
  0
LINE
  5
2B0
100
AcDbEntity
  8
KONSTRUKTIONSELEMENTE
100
AcDbLine
 62
7
  6
CONTINUOUS
 10
325.5996300679
 20
194.9808543562
 11
324.8704628449
 21
195.1297905087
  0
LINE
  5
2B1
100
AcDbEntity
  8
KONSTRUKTIONSELEMENTE
100
AcDbLine
 62
7
  6
CONTINUOUS
 10
327.9225467663
 20
184.9787267803
 11
328.6725473385
 21
184.8085140347
  0
LINE
  5
2B2
100
AcDbEntity
  8
KONSTRUKTIONSELEMENTE
100
AcDbLine
 62
7
  6
CONTINUOUS
 10
309.266296665
 20
189.0234075277
 11
308.6829633664
 21
189.1723436802
  0
LINE
  5
2B3
100
AcDbEntity
  8
KONSTRUKTIONSELEMENTE
100
AcDbLine
 62
7
  6
CONTINUOUS
 10
308.9746300679
 20
191.40638628
 11
309.5579634707
 21
191.2574501275
  0
LINE
  5
2B4
100
AcDbEntity
  8
KONSTRUKTIONSELEMENTE
100
AcDbLine
 62
7
  6
CONTINUOUS
 10
310.4329634707
 20
191.2574501275
 11
311.0162968736
 21
191.1085139751
  0
LINE
  5
2B5
100
AcDbEntity
  8
KONSTRUKTIONSELEMENTE
100
AcDbLine
 62
7
  6
CONTINUOUS
 10
324.2871300679
 20
188.8744713753
 11
323.7037972908
 21
189.0234075277
  0
LINE
  5
2B6
100
AcDbEntity
  8
KONSTRUKTIONSELEMENTE
100
AcDbLine
 62
7
  6
CONTINUOUS
 10
330.5579628449
 20
188.8744713753
 11
329.9746300679
 21
189.0234075277
  0
LINE
  5
2B7
100
AcDbEntity
  8
KONSTRUKTIONSELEMENTE
100
AcDbLine
 62
7
  6
CONTINUOUS
 10
324.8704628449
 20
191.40638628
 11
325.4537972908
 21
191.2574501275
  0
LINE
  5
2B8
100
AcDbEntity
  8
KONSTRUKTIONSELEMENTE
100
AcDbLine
 62
7
  6
CONTINUOUS
 10
324.2871300679
 20
192.0021308898
 11
323.7037972908
 21
192.1510670423
  0
LINE
  5
2B9
100
AcDbEntity
  8
KONSTRUKTIONSELEMENTE
100
AcDbLine
 62
7
  6
CONTINUOUS
 10
331.4329628449
 20
191.8531947373
 11
332.0162972908
 21
191.7042585849
  0
LINE
  5
2BA
100
AcDbEntity
  8
KONSTRUKTIONSELEMENTE
100
AcDbLine
 62
7
  6
CONTINUOUS
 10
324.8704628449
 20
194.3851097464
 11
325.4537972908
 21
194.2361735939
  0
LINE
  5
2BB
100
AcDbEntity
  8
KONSTRUKTIONSELEMENTE
100
AcDbLine
 62
7
  6
CONTINUOUS
 10
309.5579634707
 20
192.1510670423
 11
309.1204634707
 21
192.3000031947
  0
LINE
  5
2BC
100
AcDbEntity
  8
KONSTRUKTIONSELEMENTE
100
AcDbLine
 62
7
  6
CONTINUOUS
 10
310.4329634707
 20
194.2361735939
 11
310.8704632621
 21
194.0872374415
  0
LINE
  5
2BD
100
AcDbEntity
  8
KONSTRUKTIONSELEMENTE
100
AcDbLine
 62
7
  6
CONTINUOUS
 10
323.5725470524
 20
181.5744713902
 11
322.8225473385
 21
181.9148968815
  0
LINE
  5
2BE
100
AcDbEntity
  8
KONSTRUKTIONSELEMENTE
100
AcDbLine
 62
7
  6
CONTINUOUS
 10
308.3912967693
 20
191.7042585849
 11
308.9746300679
 21
191.40638628
  0
LINE
  5
2BF
100
AcDbEntity
  8
KONSTRUKTIONSELEMENTE
100
AcDbLine
 62
7
  6
CONTINUOUS
 10
311.7454632621
 20
191.7042585849
 11
311.1621300679
 21
192.0021308898
  0
LINE
  5
2C0
100
AcDbEntity
  8
KONSTRUKTIONSELEMENTE
100
AcDbLine
 62
7
  6
CONTINUOUS
 10
319.5225470524
 20
178.3404288053
 11
320.1225473385
 21
178.0000032692
  0
LINE
  5
2C1
100
AcDbEntity
  8
KONSTRUKTIONSELEMENTE
100
AcDbLine
 62
7
  6
CONTINUOUS
 10
320.1225473385
 20
178.8510671019
 11
319.8225476246
 21
179.0212798475
  0
LINE
  5
2C2
100
AcDbEntity
  8
KONSTRUKTIONSELEMENTE
100
AcDbLine
 62
7
  6
CONTINUOUS
 10
323.1225470524
 20
185.3191522717
 11
322.5225476246
 21
185.659577763
  0
LINE
  5
2C3
100
AcDbEntity
  8
KONSTRUKTIONSELEMENTE
100
AcDbLine
 62
7
  6
CONTINUOUS
 10
307.8079634186
 20
188.7255351706
 11
308.5371300679
 21
188.2787266742
  0
LINE
  5
2C4
100
AcDbEntity
  8
KONSTRUKTIONSELEMENTE
100
AcDbLine
 62
7
  6
CONTINUOUS
 10
326.2725479107
 20
178.5106415509
 11
327.0225467663
 21
178.0000032692
  0
LINE
  5
2C5
100
AcDbEntity
  8
KONSTRUKTIONSELEMENTE
100
AcDbLine
 62
7
  6
CONTINUOUS
 10
319.0725470524
 20
178.6808543562
 11
319.5225470524
 21
178.3404288053
  0
LINE
  5
2C6
100
AcDbEntity
  8
KONSTRUKTIONSELEMENTE
100
AcDbLine
 62
7
  6
CONTINUOUS
 10
309.5579634707
 20
195.1297905087
 11
308.9746300679
 21
194.9808543562
  0
LINE
  5
2C7
100
AcDbEntity
  8
KONSTRUKTIONSELEMENTE
100
AcDbLine
 62
7
  6
CONTINUOUS
 10
323.7037972908
 20
189.0234075277
 11
323.1204628449
 21
189.3212798326
  0
LINE
  5
2C8
100
AcDbEntity
  8
KONSTRUKTIONSELEMENTE
100
AcDbLine
 62
7
  6
CONTINUOUS
 10
322.8287972908
 20
191.8531947373
 11
323.1204628449
 21
191.7042585849
  0
LINE
  5
2C9
100
AcDbEntity
  8
KONSTRUKTIONSELEMENTE
100
AcDbLine
 62
7
  6
CONTINUOUS
 10
325.4537972908
 20
191.2574501275
 11
326.0371300679
 21
190.9595778226
  0
LINE
  5
2CA
100
AcDbEntity
  8
KONSTRUKTIONSELEMENTE
100
AcDbLine
 62
7
  6
CONTINUOUS
 10
326.3287972908
 20
191.5553224324
 11
326.0371300679
 21
191.7042585849
  0
LINE
  5
2CB
100
AcDbEntity
  8
KONSTRUKTIONSELEMENTE
100
AcDbLine
 62
7
  6
CONTINUOUS
 10
322.6829628449
 20
188.7255351706
 11
323.4121300679
 21
188.2787266742
  0
LINE
  5
2CC
100
AcDbEntity
  8
KONSTRUKTIONSELEMENTE
100
AcDbLine
 62
7
  6
CONTINUOUS
 10
329.0996300679
 20
188.7255351706
 11
329.8287972908
 21
188.2787266742
  0
LINE
  5
2CD
100
AcDbEntity
  8
KONSTRUKTIONSELEMENTE
100
AcDbLine
 62
7
  6
CONTINUOUS
 10
309.1204634707
 20
192.3000031947
 11
308.6829633664
 21
192.5978754996
  0
LINE
  5
2CE
100
AcDbEntity
  8
KONSTRUKTIONSELEMENTE
100
AcDbLine
 62
7
  6
CONTINUOUS
 10
311.0162968736
 20
191.1085139751
 11
311.4537968736
 21
190.8106416701
  0
LINE
  5
2CF
100
AcDbEntity
  8
KONSTRUKTIONSELEMENTE
100
AcDbLine
 62
7
  6
CONTINUOUS
 10
329.5725473385
 20
185.148939526
 11
328.8225467663
 21
185.659577763
  0
LINE
  5
2D0
100
AcDbEntity
  8
KONSTRUKTIONSELEMENTE
100
AcDbLine
 62
7
  6
CONTINUOUS
 10
329.9746300679
 20
189.0234075277
 11
329.5371300679
 21
189.3212798326
  0
LINE
  5
2D1
100
AcDbEntity
  8
KONSTRUKTIONSELEMENTE
100
AcDbLine
 62
7
  6
CONTINUOUS
 10
322.5225476246
 20
181.4042586445
 11
322.9725476246
 21
181.0638331532
  0
LINE
  5
2D2
100
AcDbEntity
  8
KONSTRUKTIONSELEMENTE
100
AcDbLine
 62
7
  6
CONTINUOUS
 10
327.1725479107
 20
178.8510671019
 11
326.7225479107
 21
179.1914925932
  0
LINE
  5
2D3
100
AcDbEntity
  8
KONSTRUKTIONSELEMENTE
100
AcDbLine
 62
7
  6
CONTINUOUS
 10
322.3725473385
 20
184.8085140347
 11
322.8225473385
 21
184.4680885433
  0
LINE
  5
2D4
100
AcDbEntity
  8
KONSTRUKTIONSELEMENTE
100
AcDbLine
 62
7
  6
CONTINUOUS
 10
328.6725473385
 20
184.8085140347
 11
329.1225473385
 21
184.4680885433
  0
LINE
  5
2D5
100
AcDbEntity
  8
KONSTRUKTIONSELEMENTE
100
AcDbLine
 62
7
  6
CONTINUOUS
 10
311.5996300679
 20
194.5340458988
 11
311.0162968736
 21
194.9808543562
  0
LINE
  5
2D6
100
AcDbEntity
  8
KONSTRUKTIONSELEMENTE
100
AcDbLine
 62
7
  6
CONTINUOUS
 10
308.6829633664
 20
189.1723436802
 11
308.2454633664
 21
189.6191522419
  0
LINE
  5
2D7
100
AcDbEntity
  8
KONSTRUKTIONSELEMENTE
100
AcDbLine
 62
7
  6
CONTINUOUS
 10
307.8079634186
 20
192.3000031947
 11
308.3912967693
 21
191.7042585849
  0
LINE
  5
2D8
100
AcDbEntity
  8
RUNDUNGEN
100
AcDbLine
 62
7
  6
CONTINUOUS
 10
309.4225470524
 20
209.9197905087
 11
331.4225470524
 21
209.9197905087
  0
LINE
  5
2D9
100
AcDbEntity
  8
KONSTRUKTIONSELEMENTE
100
AcDbLine
 62
7
  6
CONTINUOUS
 10
326.3287972908
 20
194.5340458988
 11
325.5996300679
 21
194.9808543562
  0
LINE
  5
2DA
100
AcDbEntity
  8
KONSTRUKTIONSELEMENTE
100
AcDbLine
 62
7
  6
CONTINUOUS
 10
332.8912972908
 20
192.0021308898
 11
332.1621300679
 21
192.4489393472
  0
LINE
  5
2DB
100
AcDbEntity
  8
KONSTRUKTIONSELEMENTE
100
AcDbLine
 62
7
  6
CONTINUOUS
 10
332.0162972908
 20
191.7042585849
 11
332.4537972908
 21
191.40638628
  0
LINE
  5
2DC
100
AcDbEntity
  8
KONSTRUKTIONSELEMENTE
100
AcDbLine
 62
7
  6
CONTINUOUS
 10
323.7037972908
 20
192.1510670423
 11
323.1204628449
 21
192.5978754996
  0
LINE
  5
2DD
100
AcDbEntity
  8
KONSTRUKTIONSELEMENTE
100
AcDbLine
 62
7
  6
CONTINUOUS
 10
326.9121300679
 20
191.1085139751
 11
326.3287972908
 21
191.5553224324
  0
LINE
  5
2DE
100
AcDbEntity
  8
KONSTRUKTIONSELEMENTE
100
AcDbLine
 62
7
  6
CONTINUOUS
 10
325.4537972908
 20
194.2361735939
 11
326.0371300679
 21
193.7893651365
  0
LINE
  5
2DF
100
AcDbEntity
  8
KONSTRUKTIONSELEMENTE
100
AcDbLine
 62
7
  6
CONTINUOUS
 10
312.3287968736
 20
191.1085139751
 11
311.7454632621
 21
191.7042585849
  0
LINE
  5
2E0
100
AcDbEntity
  8
KONSTRUKTIONSELEMENTE
100
AcDbLine
 62
7
  6
CONTINUOUS
 10
310.8704632621
 20
194.0872374415
 11
311.1621300679
 21
193.7893651365
  0
LINE
  5
2E1
100
AcDbEntity
  8
KONSTRUKTIONSELEMENTE
100
AcDbLine
 62
7
  6
CONTINUOUS
 10
322.2454628449
 20
189.1723436802
 11
322.6829628449
 21
188.7255351706
  0
LINE
  5
2E2
100
AcDbEntity
  8
KONSTRUKTIONSELEMENTE
100
AcDbLine
 62
7
  6
CONTINUOUS
 10
322.3912972908
 20
192.3000031947
 11
322.8287972908
 21
191.8531947373
  0
LINE
  5
2E3
100
AcDbEntity
  8
KONSTRUKTIONSELEMENTE
100
AcDbLine
 62
7
  6
CONTINUOUS
 10
319.8225476246
 20
179.0212798475
 11
319.5225470524
 21
179.3617054581
  0
LINE
  5
2E4
100
AcDbEntity
  8
KONSTRUKTIONSELEMENTE
100
AcDbLine
 62
7
  6
CONTINUOUS
 10
325.8225479107
 20
179.0212798475
 11
326.2725479107
 21
178.5106415509
  0
LINE
  5
2E5
100
AcDbEntity
  8
KONSTRUKTIONSELEMENTE
100
AcDbLine
 62
7
  6
CONTINUOUS
 10
323.7225473385
 20
184.638301289
 11
323.1225470524
 21
185.3191522717
  0
LINE
  5
2E6
100
AcDbEntity
  8
KONSTRUKTIONSELEMENTE
100
AcDbLine
 62
7
  6
CONTINUOUS
 10
312.0371300679
 20
193.938301289
 11
311.5996300679
 21
194.5340458988
  0
LINE
  5
2E7
100
AcDbEntity
  8
KONSTRUKTIONSELEMENTE
100
AcDbLine
 62
7
  6
CONTINUOUS
 10
311.4537968736
 20
190.8106416701
 11
311.7454632621
 21
190.3638330042
  0
LINE
  5
2E8
100
AcDbEntity
  8
KONSTRUKTIONSELEMENTE
100
AcDbLine
 62
7
  6
CONTINUOUS
 10
307.3704634055
 20
189.4702160894
 11
307.8079634186
 21
188.7255351706
  0
LINE
  5
2E9
100
AcDbEntity
  8
0
100
AcDbLine
 62
7
  6
CONTINUOUS
 10
272.9225470524
 20
202.4760212994
 11
272.9225470524
 21
172.2197905087
  0
LINE
  5
2EA
100
AcDbEntity
  8
RUNDUNGEN
100
AcDbLine
 62
7
  6
CONTINUOUS
 10
272.9225470524
 20
202.4760212994
 11
272.9225470524
 21
202.9200392273
  0
LINE
  5
2EB
100
AcDbEntity
  8
KONSTRUKTIONSELEMENTE
100
AcDbLine
 62
7
  6
CONTINUOUS
 10
326.7662972908
 20
194.0872374415
 11
326.3287972908
 21
194.5340458988
  0
LINE
  5
2EC
100
AcDbEntity
  8
KONSTRUKTIONSELEMENTE
100
AcDbLine
 62
7
  6
CONTINUOUS
 10
330.0225473385
 20
184.638301289
 11
329.5725473385
 21
185.148939526
  0
LINE
  5
2ED
100
AcDbEntity
  8
KONSTRUKTIONSELEMENTE
100
AcDbLine
 62
7
  6
CONTINUOUS
 10
323.1204628449
 20
189.3212798326
 11
322.6829628449
 21
189.9170245468
  0
LINE
  5
2EE
100
AcDbEntity
  8
KONSTRUKTIONSELEMENTE
100
AcDbLine
 62
7
  6
CONTINUOUS
 10
326.0371300679
 20
190.9595778226
 11
326.4746300679
 21
190.3638330042
  0
LINE
  5
2EF
100
AcDbEntity
  8
KONSTRUKTIONSELEMENTE
100
AcDbLine
 62
7
  6
CONTINUOUS
 10
328.6621300679
 20
189.3212798326
 11
329.0996300679
 21
188.7255351706
  0
LINE
  5
2F0
100
AcDbEntity
  8
KONSTRUKTIONSELEMENTE
100
AcDbLine
 62
7
  6
CONTINUOUS
 10
318.7725473385
 20
179.1914925932
 11
319.0725470524
 21
178.6808543562
  0
LINE
  5
2F1
100
AcDbEntity
  8
KONSTRUKTIONSELEMENTE
100
AcDbLine
 62
7
  6
CONTINUOUS
 10
323.8725476246
 20
181.0638331532
 11
323.5725470524
 21
181.5744713902
  0
LINE
  5
2F2
100
AcDbEntity
  8
KONSTRUKTIONSELEMENTE
100
AcDbLine
 62
7
  6
CONTINUOUS
 10
322.8225473385
 20
184.4680885433
 11
323.1225470524
 21
183.9574503063
  0
LINE
  5
2F3
100
AcDbEntity
  8
KONSTRUKTIONSELEMENTE
100
AcDbLine
 62
7
  6
CONTINUOUS
 10
326.7225479107
 20
179.1914925932
 11
326.1225467663
 21
180.2127691864
  0
LINE
  5
2F4
100
AcDbEntity
  8
KONSTRUKTIONSELEMENTE
100
AcDbLine
 62
7
  6
CONTINUOUS
 10
312.6204632621
 20
190.5127691566
 11
312.3287968736
 21
191.1085139751
  0
LINE
  5
2F5
100
AcDbEntity
  8
KONSTRUKTIONSELEMENTE
100
AcDbLine
 62
7
  6
CONTINUOUS
 10
311.1621300679
 20
193.7893651365
 11
311.3079632621
 21
193.4914928316
  0
LINE
  5
2F6
100
AcDbEntity
  8
0
100
AcDbLine
 62
7
  6
CONTINUOUS
 10
280.9225470524
 20
236.2197905087
 11
280.9225470524
 21
234.2197905087
  0
LINE
  5
2F7
100
AcDbEntity
  8
BEZUGSACHSEN
100
AcDbLine
 62
7
  6
CONTINUOUS
 10
281.4225470524
 20
239.881308193
 11
281.4225470524
 21
236.2197905087
  0
LINE
  5
2F8
100
AcDbEntity
  8
BEZUGSACHSEN
100
AcDbLine
 62
7
  6
CONTINUOUS
 10
278.1811092821
 20
232.7425788791
 11
272.9195359711
 21
202.902713818
  0
LINE
  5
2F9
100
AcDbEntity
  8
BEZUGSACHSEN
100
AcDbLine
 62
7
  6
CONTINUOUS
 10
291.5042251338
 20
289.9733280267
 11
281.0565977235
 21
264.7505242381
  0
LINE
  5
2FA
100
AcDbEntity
  8
RUNDUNGEN
100
AcDbLine
 62
7
  6
CONTINUOUS
 10
309.4225470524
 20
298.6634413226
 11
293.6690095344
 21
292.1381124272
  0
LINE
  5
2FB
100
AcDbEntity
  8
RUNDUNGEN
100
AcDbLine
 62
7
  6
CONTINUOUS
 10
362.6639848227
 20
232.7425788791
 11
278.1811092821
 21
232.7425788791
  0
LINE
  5
2FC
100
AcDbEntity
  8
FASEN
100
AcDbLine
 62
7
  6
CONTINUOUS
 10
360.9035125562
 20
234.2197905087
 11
279.9415815486
 21
234.2197905087
  0
LINE
  5
2FD
100
AcDbEntity
  8
0
100
AcDbLine
 62
7
  6
CONTINUOUS
 10
359.9225470524
 20
236.2197905087
 11
280.9225470524
 21
236.2197905087
  0
LINE
  5
2FE
100
AcDbEntity
  8
KONSTRUKTIONSELEMENTE
100
AcDbLine
 62
7
  6
CONTINUOUS
 10
333.3287972908
 20
191.40638628
 11
332.8912972908
 21
192.0021308898
  0
LINE
  5
2FF
100
AcDbEntity
  8
KONSTRUKTIONSELEMENTE
100
AcDbLine
 62
7
  6
CONTINUOUS
 10
323.1204628449
 20
192.5978754996
 11
322.8287972908
 21
193.044683957
  0
LINE
  5
300
100
AcDbEntity
  8
KONSTRUKTIONSELEMENTE
100
AcDbLine
 62
7
  6
CONTINUOUS
 10
326.0371300679
 20
193.7893651365
 11
326.3287972908
 21
193.3425562619
  0
LINE
  5
301
100
AcDbEntity
  8
KONSTRUKTIONSELEMENTE
100
AcDbLine
 62
7
  6
CONTINUOUS
 10
332.4537972908
 20
191.40638628
 11
332.7454628449
 21
190.9595778226
  0
LINE
  5
302
100
AcDbEntity
  8
KONSTRUKTIONSELEMENTE
100
AcDbLine
 62
7
  6
CONTINUOUS
 10
329.1225473385
 20
184.4680885433
 11
329.7225467663
 21
183.4468115925
  0
LINE
  5
303
100
AcDbEntity
  8
KONSTRUKTIONSELEMENTE
100
AcDbLine
 62
7
  6
CONTINUOUS
 10
322.0996300679
 20
192.8957478046
 11
322.3912972908
 21
192.3000031947
  0
LINE
  5
304
100
AcDbEntity
  8
KONSTRUKTIONSELEMENTE
100
AcDbLine
 62
7
  6
CONTINUOUS
 10
319.5225470524
 20
179.3617054581
 11
319.3725476246
 21
179.7021309494
  0
LINE
  5
305
100
AcDbEntity
  8
KONSTRUKTIONSELEMENTE
100
AcDbLine
 62
7
  6
CONTINUOUS
 10
322.9725476246
 20
181.0638331532
 11
323.2725473385
 21
180.3829819321
  0
LINE
  5
306
100
AcDbEntity
  8
KONSTRUKTIONSELEMENTE
100
AcDbLine
 62
7
  6
CONTINUOUS
 10
325.5225473385
 20
179.7021309494
 11
325.8225479107
 21
179.0212798475
  0
LINE
  5
307
100
AcDbEntity
  8
BEZUGSACHSEN
100
AcDbLine
 62
7
  6
CONTINUOUS
 10
281.0565977235
 20
261.6890567792
 11
286.6230201604
 21
248.2505242381
  0
LINE
  5
308
100
AcDbEntity
  8
KONSTRUKTIONSELEMENTE
100
AcDbLine
 62
7
  6
CONTINUOUS
 10
311.1225473385
 20
184.127663052
 11
313.222547267
 21
177.8297905087
  0
LINE
  5
309
100
AcDbEntity
  8
KONSTRUKTIONSELEMENTE
100
AcDbLine
 62
7
  6
CONTINUOUS
 10
308.2454633664
 20
189.6191522419
 11
308.0996300679
 21
190.0659606992
  0
LINE
  5
30A
100
AcDbEntity
  8
KONSTRUKTIONSELEMENTE
100
AcDbLine
 62
7
  6
CONTINUOUS
 10
308.6829633664
 20
192.5978754996
 11
308.5371300679
 21
193.044683957
  0
LINE
  5
30B
100
AcDbEntity
  8
KONSTRUKTIONSELEMENTE
100
AcDbLine
 62
7
  6
CONTINUOUS
 10
312.1829632621
 20
193.4914928316
 11
312.0371300679
 21
193.938301289
  0
LINE
  5
30C
100
AcDbEntity
  8
KONSTRUKTIONSELEMENTE
100
AcDbLine
 62
7
  6
CONTINUOUS
 10
313.8225473385
 20
178.6808543562
 11
311.5725473385
 21
185.8297905087
  0
LINE
  5
30D
100
AcDbEntity
  8
KONSTRUKTIONSELEMENTE
100
AcDbLine
 62
7
  6
CONTINUOUS
 10
307.2246300679
 20
190.0659606992
 11
307.3704634055
 21
189.4702160894
  0
LINE
  5
30E
100
AcDbEntity
  8
KONSTRUKTIONSELEMENTE
100
AcDbLine
 62
7
  6
CONTINUOUS
 10
307.6621300679
 20
192.8957478046
 11
307.8079634186
 21
192.3000031947
  0
LINE
  5
30F
100
AcDbEntity
  8
0
100
AcDbLine
 62
7
  6
CONTINUOUS
 10
298.719663606
 20
277.2117939609
 11
298.7417846746
 21
276.8722642665
  0
LINE
  5
310
100
AcDbEntity
  8
0
100
AcDbLine
 62
7
  6
CONTINUOUS
 10
294.3103877307
 20
202.4760212994
 11
294.3103877307
 21
172.2197905087
  0
LINE
  5
311
100
AcDbEntity
  8
0
100
AcDbLine
 62
7
  6
CONTINUOUS
 10
299.0347063741
 20
202.4760212994
 11
299.0347063741
 21
172.2197905087
  0
LINE
  5
312
100
AcDbEntity
  8
0
100
AcDbLine
 62
7
  6
CONTINUOUS
 10
299.2842665561
 20
276.6612757018
 11
299.3097571854
 21
277.0815650499
  0
LINE
  5
313
100
AcDbEntity
  8
0
100
AcDbLine
 62
7
  6
CONTINUOUS
 10
296.6501167565
 20
272.7629011906
 11
296.6077043223
 21
272.3782021377
  0
LINE
  5
314
100
AcDbEntity
  8
0
100
AcDbLine
 62
7
  6
CONTINUOUS
 10
297.1453910029
 20
272.1759483054
 11
297.2208100052
 21
272.6483945058
  0
LINE
  5
315
100
AcDbEntity
  8
0
100
AcDbLine
 62
7
  6
CONTINUOUS
 10
291.604652797
 20
269.2581923836
 11
291.1783341183
 21
267.0489498926
  0
LINE
  5
316
100
AcDbEntity
  8
0
100
AcDbLine
 62
7
  6
CONTINUOUS
 10
291.7549653258
 20
267.5105544243
 11
292.0924675961
 21
269.2595379753
  0
LINE
  5
317
100
AcDbEntity
  8
0
100
AcDbLine
 62
7
  6
CONTINUOUS
 10
293.5026224729
 20
268.9874196514
 11
293.1651202026
 21
267.2384361004
  0
LINE
  5
318
100
AcDbEntity
  8
0
100
AcDbLine
 62
7
  6
CONTINUOUS
 10
293.7291820479
 20
267.1295887912
 11
294.0311577702
 21
268.6944688451
  0
LINE
  5
319
100
AcDbEntity
  8
0
100
AcDbLine
 62
7
  6
CONTINUOUS
 10
295.5968191004
 20
266.1963125353
 11
295.7033987701
 21
266.748623158
  0
LINE
  5
31A
100
AcDbEntity
  8
0
100
AcDbLine
 62
7
  6
CONTINUOUS
 10
296.1474807101
 20
269.0499173318
 11
296.2718236919
 21
269.6942799006
  0
LINE
  5
31B
100
AcDbEntity
  8
0
100
AcDbLine
 62
7
  6
CONTINUOUS
 10
298.7417846746
 20
276.8722642665
 11
298.6338157528
 21
276.5005997868
  0
LINE
  5
31C
100
AcDbEntity
  8
0
100
AcDbLine
 62
7
  6
CONTINUOUS
 10
299.1286854348
 20
276.2088506188
 11
299.2842665561
 21
276.6612757018
  0
LINE
  5
31D
100
AcDbEntity
  8
0
100
AcDbLine
 62
7
  6
CONTINUOUS
 10
293.4616192876
 20
275.1642298326
 11
293.2635790763
 21
274.6377449566
  0
LINE
  5
31E
100
AcDbEntity
  8
0
100
AcDbLine
 62
7
  6
CONTINUOUS
 10
292.4714182311
 20
272.5318054524
 11
292.2733779254
 21
272.0053203253
  0
LINE
  5
31F
100
AcDbEntity
  8
0
100
AcDbLine
 62
7
  6
CONTINUOUS
 10
296.6077043223
 20
272.3782021377
 11
296.4756774518
 21
272.027212053
  0
LINE
  5
320
100
AcDbEntity
  8
0
100
AcDbLine
 62
7
  6
CONTINUOUS
 10
297.0133641324
 20
271.8249582207
 11
297.1453910029
 21
272.1759483054
  0
LINE
  5
321
100
AcDbEntity
  8
0
100
AcDbLine
 62
7
  6
CONTINUOUS
 10
291.7874795129
 20
269.7003101055
 11
291.604652797
 21
269.2581923836
  0
LINE
  5
322
100
AcDbEntity
  8
0
100
AcDbLine
 62
7
  6
CONTINUOUS
 10
292.0924675961
 20
269.2595379753
 11
292.2397677385
 21
269.5175520685
  0
LINE
  5
323
100
AcDbEntity
  8
0
100
AcDbLine
 62
7
  6
CONTINUOUS
 10
295.2522062499
 20
278.4942191074
 11
294.1095220056
 21
276.555979515
  0
LINE
  5
324
100
AcDbEntity
  8
0
100
AcDbLine
 62
7
  6
CONTINUOUS
 10
294.8900626908
 20
276.7487902791
 11
295.7470758741
 21
278.2024699735
  0
LINE
  5
325
100
AcDbEntity
  8
0
100
AcDbLine
 62
7
  6
CONTINUOUS
 10
298.6338157528
 20
276.5005997868
 11
297.7768025696
 21
275.0469200925
  0
LINE
  5
326
100
AcDbEntity
  8
0
100
AcDbLine
 62
7
  6
CONTINUOUS
 10
297.9860011904
 20
274.2706110263
 11
299.1286854348
 21
276.2088506188
  0
LINE
  5
327
100
AcDbEntity
  8
0
100
AcDbLine
 62
7
  6
CONTINUOUS
 10
296.7587162418
 20
271.4199299624
 11
297.0133641324
 21
271.8249582207
  0
LINE
  5
328
100
AcDbEntity
  8
0
100
AcDbLine
 62
7
  6
CONTINUOUS
 10
296.4756774518
 20
272.027212053
 11
296.2540363339
 21
271.7099314385
  0
LINE
  5
329
100
AcDbEntity
  8
0
100
AcDbLine
 62
7
  6
CONTINUOUS
 10
295.5727439198
 20
278.8493944749
 11
295.2522062499
 21
278.4942191074
  0
LINE
  5
32A
100
AcDbEntity
  8
0
100
AcDbLine
 62
7
  6
CONTINUOUS
 10
295.7470758741
 20
278.2024699735
 11
296.0200013372
 21
278.4768847418
  0
LINE
  5
32B
100
AcDbEntity
  8
0
100
AcDbLine
 62
7
  6
CONTINUOUS
 10
292.1405635317
 20
270.014093445
 11
291.7874795129
 21
269.7003101055
  0
LINE
  5
32C
100
AcDbEntity
  8
0
100
AcDbLine
 62
7
  6
CONTINUOUS
 10
303.4355258465
 20
287.3376332167
 11
302.9971637905
 21
286.9851492344
  0
LINE
  5
32D
100
AcDbEntity
  8
0
100
AcDbLine
 62
7
  6
CONTINUOUS
 10
300.9514736381
 20
285.3402235353
 11
300.5131115821
 21
284.9877395529
  0
LINE
  5
32E
100
AcDbEntity
  8
0
100
AcDbLine
 62
7
  6
CONTINUOUS
 10
304.501949481
 20
282.4208008389
 11
305.086431665
 21
282.8907790338
  0
LINE
  5
32F
100
AcDbEntity
  8
0
100
AcDbLine
 62
7
  6
CONTINUOUS
 10
295.9281476536
 20
279.0751843876
 11
295.5727439198
 21
278.8493944749
  0
LINE
  5
330
100
AcDbEntity
  8
0
100
AcDbLine
 62
7
  6
CONTINUOUS
 10
308.77566225
 20
290.3514357666
 11
308.2771862573
 21
290.0908058859
  0
LINE
  5
331
100
AcDbEntity
  8
0
100
AcDbLine
 62
7
  6
CONTINUOUS
 10
307.1140762414
 20
289.4826698293
 11
306.4494403167
 21
289.135162659
  0
LINE
  5
332
100
AcDbEntity
  8
0
100
AcDbLine
 62
7
  6
CONTINUOUS
 10
305.2863303009
 20
288.5270266023
 11
304.7878543081
 21
288.2663967217
  0
LINE
  5
333
100
AcDbEntity
  8
0
100
AcDbLine
 62
7
  6
CONTINUOUS
 10
307.5375273761
 20
284.6260949559
 11
308.2021633008
 21
284.9736021262
  0
LINE
  5
334
100
AcDbEntity
  8
0
100
AcDbLine
 62
7
  6
CONTINUOUS
 10
296.0200013372
 20
278.4768847418
 11
296.3277934092
 21
278.6219149795
  0
LINE
  5
335
100
AcDbEntity
  8
BEZUGSACHSEN
100
AcDbLine
 62
7
  6
CONTINUOUS
 10
350.896406856
 20
242.7197905087
 11
289.9486872488
 21
242.7197905087
  0
LINE
  5
336
100
AcDbEntity
  8
0
100
AcDbLine
 62
7
  6
CONTINUOUS
 10
293.3094079586
 20
269.5021022461
 11
293.4619020002
 21
269.281716181
  0
LINE
  5
337
100
AcDbEntity
  8
KONSTRUKTIONSELEMENTE
100
AcDbLine
 62
7
  6
CONTINUOUS
 10
328.3704628449
 20
189.9170245468
 11
328.6621300679
 21
189.3212798326
  0
LINE
  5
338
100
AcDbEntity
  8
KONSTRUKTIONSELEMENTE
100
AcDbLine
 62
7
  6
CONTINUOUS
 10
329.5371300679
 20
189.3212798326
 11
329.2454628449
 21
189.9170245468
  0
LINE
  5
339
100
AcDbEntity
  8
0
100
AcDbLine
 62
7
  6
CONTINUOUS
 10
297.1736079796
 20
273.0668025356
 11
296.9471770735
 21
273.5526285046
  0
LINE
  5
33A
100
AcDbEntity
  8
KONSTRUKTIONSELEMENTE
100
AcDbLine
 62
7
  6
CONTINUOUS
 10
330.3225479107
 20
183.9574503063
 11
330.0225473385
 21
184.638301289
  0
LINE
  5
33B
100
AcDbEntity
  8
KONSTRUKTIONSELEMENTE
100
AcDbLine
 62
7
  6
CONTINUOUS
 10
321.9537972908
 20
189.9170245468
 11
322.2454628449
 21
189.1723436802
  0
LINE
  5
33C
100
AcDbEntity
  8
KONSTRUKTIONSELEMENTE
100
AcDbLine
 62
7
  6
CONTINUOUS
 10
327.2037972908
 20
190.3638330042
 11
326.9121300679
 21
191.1085139751
  0
LINE
  5
33D
100
AcDbEntity
  8
KONSTRUKTIONSELEMENTE
100
AcDbLine
 62
7
  6
CONTINUOUS
 10
327.0579628449
 20
193.3425562619
 11
326.7662972908
 21
194.0872374415
  0
LINE
  5
33E
100
AcDbEntity
  8
KONSTRUKTIONSELEMENTE
100
AcDbLine
 62
7
  6
CONTINUOUS
 10
318.6225470524
 20
179.7021309494
 11
318.7725473385
 21
179.1914925932
  0
LINE
  5
33F
100
AcDbEntity
  8
KONSTRUKTIONSELEMENTE
100
AcDbLine
 62
7
  6
CONTINUOUS
 10
325.3725479107
 20
180.2127691864
 11
325.5225473385
 21
179.7021309494
  0
LINE
  5
340
100
AcDbEntity
  8
0
100
AcDbLine
 62
7
  6
CONTINUOUS
 10
293.9497168501
 20
269.283062036
 11
293.8327493312
 21
269.6875514664
  0
LINE
  5
341
100
AcDbEntity
  8
0
100
AcDbLine
 62
7
  6
CONTINUOUS
 10
296.5699079268
 20
273.0935615884
 11
296.6501167565
 21
272.7629011906
  0
LINE
  5
342
100
AcDbEntity
  8
0
100
AcDbLine
 62
7
  6
CONTINUOUS
 10
293.4619020002
 20
269.281716181
 11
293.5026224729
 21
268.9874196514
  0
LINE
  5
343
100
AcDbEntity
  8
0
100
AcDbLine
 62
7
  6
CONTINUOUS
 10
297.2208100052
 20
272.6483945058
 11
297.1736079796
 21
273.0668025356
  0
LINE
  5
344
100
AcDbEntity
  8
0
100
AcDbLine
 62
7
  6
CONTINUOUS
 10
305.4225470524
 20
172.2197905087
 11
305.4225470524
 21
125.7197905087
  0
LINE
  5
345
100
AcDbEntity
  8
RUNDUNGEN
100
AcDbLine
 62
7
  6
CONTINUOUS
 10
305.4225470524
 20
180.9197905087
 11
305.4225470524
 21
205.9197905087
  0
LINE
  5
346
100
AcDbEntity
  8
KONSTRUKTIONSELEMENTE
100
AcDbLine
 62
7
  6
CONTINUOUS
 10
307.6621300679
 20
193.4914928316
 11
307.6621300679
 21
192.8957478046
  0
LINE
  5
347
100
AcDbEntity
  8
KONSTRUKTIONSELEMENTE
100
AcDbLine
 62
7
  6
CONTINUOUS
 10
308.5371300679
 20
193.044683957
 11
308.5371300679
 21
193.3425562619
  0
LINE
  5
348
100
AcDbEntity
  8
RUNDUNGEN
100
AcDbLine
 62
7
  6
CONTINUOUS
 10
308.9225470524
 20
220.9197905087
 11
308.9225470524
 21
213.9197905087
  0
LINE
  5
349
100
AcDbEntity
  8
0
100
AcDbLine
 62
7
  6
CONTINUOUS
 10
309.4225470524
 20
267.3204538101
 11
309.4225470524
 21
404.1191272072
  0
LINE
  5
34A
100
AcDbEntity
  8
KONSTRUKTIONSELEMENTE
100
AcDbLine
 62
7
  6
CONTINUOUS
 10
310.2225473385
 20
185.8297905087
 11
310.2225473385
 21
177.8297905087
  0
LINE
  5
34B
100
AcDbEntity
  8
KONSTRUKTIONSELEMENTE
100
AcDbLine
 62
7
  6
CONTINUOUS
 10
311.1225473385
 20
177.8297905087
 11
311.1225473385
 21
184.127663052
  0
LINE
  5
34C
100
AcDbEntity
  8
0
100
AcDbLine
 62
7
  6
CONTINUOUS
 10
296.4474604752
 20
271.1363578227
 11
296.7587162418
 21
271.4199299624
  0
LINE
  5
34D
100
AcDbEntity
  8
0
100
AcDbLine
 62
7
  6
CONTINUOUS
 10
296.2540363339
 20
271.7099314385
 11
295.9757872929
 21
271.5141069603
  0
LINE
  5
34E
100
AcDbEntity
  8
0
100
AcDbLine
 62
7
  6
CONTINUOUS
 10
292.2397677385
 20
269.5175520685
 11
292.4633149271
 21
269.6653732608
  0
LINE
  5
34F
100
AcDbEntity
  8
0
100
AcDbLine
 62
7
  6
CONTINUOUS
 10
292.5698945968
 20
270.2176838835
 11
292.1405635317
 21
270.014093445
  0
LINE
  5
350
100
AcDbEntity
  8
0
100
AcDbLine
 62
7
  6
CONTINUOUS
 10
333.5368741106
 20
284.9166341662
 11
333.9664108195
 21
285.1197904396
  0
LINE
  5
351
100
AcDbEntity
  8
0
100
AcDbLine
 62
7
  6
CONTINUOUS
 10
295.9569760169
 20
270.9202041244
 11
296.4474604752
 21
271.1363578227
  0
LINE
  5
352
100
AcDbEntity
  8
0
100
AcDbLine
 62
7
  6
CONTINUOUS
 10
293.0451402972
 20
269.6485775834
 11
293.3094079586
 21
269.5021022461
  0
LINE
  5
353
100
AcDbEntity
  8
0
100
AcDbLine
 62
7
  6
CONTINUOUS
 10
293.5099979358
 20
270.0362716506
 11
293.2457302744
 21
270.1827469879
  0
LINE
  5
354
100
AcDbEntity
  8
0
100
AcDbLine
 62
7
  6
CONTINUOUS
 10
296.0416269783
 20
273.5927668033
 11
296.3670779587
 21
273.3701832841
  0
LINE
  5
355
100
AcDbEntity
  8
0
100
AcDbLine
 62
7
  6
CONTINUOUS
 10
298.2851512416
 20
277.7944478996
 11
298.5674526625
 21
277.519188802
  0
LINE
  5
356
100
AcDbEntity
  8
0
100
AcDbLine
 62
7
  6
CONTINUOUS
 10
296.9471770735
 20
273.5526285046
 11
296.6547326063
 21
273.862959192
  0
LINE
  5
357
100
AcDbEntity
  8
0
100
AcDbLine
 62
7
  6
CONTINUOUS
 10
293.8327493312
 20
269.6875514664
 11
293.5099979358
 21
270.0362716506
  0
LINE
  5
358
100
AcDbEntity
  8
0
100
AcDbLine
 62
7
  6
CONTINUOUS
 10
296.3670779587
 20
273.3701832841
 11
296.5699079268
 21
273.0935615884
  0
LINE
  5
359
100
AcDbEntity
  8
0
100
AcDbLine
 62
7
  6
CONTINUOUS
 10
299.1702912662
 20
277.5991041136
 11
298.9356019943
 21
277.9551238445
  0
LINE
  5
35A
100
AcDbEntity
  8
0
100
AcDbLine
 62
7
  6
CONTINUOUS
 10
298.5674526625
 20
277.519188802
 11
298.719663606
 21
277.2117939609
  0
LINE
  5
35B
100
AcDbEntity
  8
KONSTRUKTIONSELEMENTE
100
AcDbLine
 62
7
  6
CONTINUOUS
 10
333.6204628449
 20
190.6617053091
 11
333.3287972908
 21
191.40638628
  0
LINE
  5
35C
100
AcDbEntity
  8
0
100
AcDbLine
 62
7
  6
CONTINUOUS
 10
305.086431665
 20
282.8907790338
 11
303.4355258465
 21
287.3376332167
  0
LINE
  5
35D
100
AcDbEntity
  8
0
100
AcDbLine
 62
7
  6
CONTINUOUS
 10
302.9971637905
 20
286.9851492344
 11
304.4342060963
 21
283.1034781713
  0
LINE
  5
35E
100
AcDbEntity
  8
KONSTRUKTIONSELEMENTE
100
AcDbLine
 62
7
  6
CONTINUOUS
 10
332.7454628449
 20
190.9595778226
 11
332.8912972908
 21
190.5127691566
  0
LINE
  5
35F
100
AcDbEntity
  8
KONSTRUKTIONSELEMENTE
100
AcDbLine
 62
7
  6
CONTINUOUS
 10
330.4725473385
 20
183.4468115925
 11
330.3225479107
 21
183.9574503063
  0
LINE
  5
360
100
AcDbEntity
  8
0
100
AcDbLine
 62
7
  6
CONTINUOUS
 10
299.3097571854
 20
277.0815650499
 11
299.1702912662
 21
277.5991041136
  0
LINE
  5
361
100
AcDbEntity
  8
KONSTRUKTIONSELEMENTE
100
AcDbLine
 62
7
  6
CONTINUOUS
 10
324.0225470524
 20
180.3829819321
 11
323.8725476246
 21
181.0638331532
  0
LINE
  5
362
100
AcDbEntity
  8
KONSTRUKTIONSELEMENTE
100
AcDbLine
 62
7
  6
CONTINUOUS
 10
323.8725476246
 20
183.9574503063
 11
323.7225473385
 21
184.638301289
  0
LINE
  5
363
100
AcDbEntity
  8
KONSTRUKTIONSELEMENTE
100
AcDbLine
 62
7
  6
CONTINUOUS
 10
319.0371300679
 20
189.7680883943
 11
317.8704636793
 21
195.1297905087
  0
LINE
  5
364
100
AcDbEntity
  8
KONSTRUKTIONSELEMENTE
100
AcDbLine
 62
7
  6
CONTINUOUS
 10
317.2871300679
 20
193.7893651365
 11
318.4537964564
 21
188.1297905087
  0
LINE
  5
365
100
AcDbEntity
  8
KONSTRUKTIONSELEMENTE
100
AcDbLine
 62
7
  6
CONTINUOUS
 10
325.2225467663
 20
181.0638331532
 11
325.3725479107
 21
180.2127691864
  0
LINE
  5
366
100
AcDbEntity
  8
KONSTRUKTIONSELEMENTE
100
AcDbLine
 62
7
  6
CONTINUOUS
 10
313.7871300679
 20
195.1297905087
 11
314.9537964564
 21
188.1297905087
  0
LINE
  5
367
100
AcDbEntity
  8
KONSTRUKTIONSELEMENTE
100
AcDbLine
 62
7
  6
CONTINUOUS
 10
315.5371300679
 20
189.7680883943
 11
314.6621300679
 21
195.1297905087
  0
LINE
  5
368
100
AcDbEntity
  8
KONSTRUKTIONSELEMENTE
100
AcDbLine
 62
7
  6
CONTINUOUS
 10
311.7454632621
 20
190.3638330042
 11
311.7454632621
 21
189.9170245468
  0
LINE
  5
369
100
AcDbEntity
  8
KONSTRUKTIONSELEMENTE
100
AcDbLine
 62
7
  6
CONTINUOUS
 10
312.6204632621
 20
189.7680883943
 11
312.6204632621
 21
190.5127691566
  0
LINE
  5
36A
100
AcDbEntity
  8
KONSTRUKTIONSELEMENTE
100
AcDbLine
 62
7
  6
CONTINUOUS
 10
316.5225473385
 20
184.127663052
 11
316.5225473385
 21
177.8297905087
  0
LINE
  5
36B
100
AcDbEntity
  8
KONSTRUKTIONSELEMENTE
100
AcDbLine
 62
7
  6
CONTINUOUS
 10
317.4225473385
 20
177.8297905087
 11
317.4225473385
 21
185.8297905087
  0
LINE
  5
36C
100
AcDbEntity
  8
KONSTRUKTIONSELEMENTE
100
AcDbLine
 62
7
  6
CONTINUOUS
 10
321.0225473385
 20
182.2553223728
 11
321.0225473385
 21
181.5744713902
  0
LINE
  5
36D
100
AcDbEntity
  8
0
100
AcDbLine
 62
7
  6
CONTINUOUS
 10
332.9380984883
 20
289.9203940319
 11
331.7542961503
 21
287.7305233584
  0
LINE
  5
36E
100
AcDbEntity
  8
0
100
AcDbLine
 62
7
  6
CONTINUOUS
 10
332.3943033648
 20
287.9287421488
 11
333.1227971603
 21
289.2763549617
  0
LINE
  5
36F
100
AcDbEntity
  8
0
100
AcDbLine
 62
7
  6
CONTINUOUS
 10
333.9921827009
 20
285.7588921153
 11
333.7731203045
 21
285.5507963769
  0
LINE
  5
370
100
AcDbEntity
  8
0
100
AcDbLine
 62
7
  6
CONTINUOUS
 10
333.9664108195
 20
285.1197904396
 11
334.3590085651
 21
285.4517541484
  0
LINE
  5
371
100
AcDbEntity
  8
FASEN
100
AcDbLine
 62
7
  6
CONTINUOUS
 10
279.9415815486
 20
234.2197905087
 11
278.1811092821
 21
232.7425788792
  0
LINE
  5
372
100
AcDbEntity
  8
0
100
AcDbLine
 62
7
  6
CONTINUOUS
 10
333.7731203045
 20
285.5507963769
 11
333.4715842674
 21
285.3872842402
  0
LINE
  5
373
100
AcDbEntity
  8
0
100
AcDbLine
 62
7
  6
CONTINUOUS
 10
295.6409304543
 20
271.4397385712
 11
295.2494661331
 21
271.4868272991
  0
LINE
  5
374
100
AcDbEntity
  8
0
100
AcDbLine
 62
7
  6
CONTINUOUS
 10
295.0514258274
 20
270.960342172
 11
295.5325047737
 21
270.8795449781
  0
LINE
  5
375
100
AcDbEntity
  8
0
100
AcDbLine
 62
7
  6
CONTINUOUS
 10
291.1783341183
 20
267.0489498926
 11
295.5968191004
 21
266.1963125353
  0
LINE
  5
376
100
AcDbEntity
  8
0
100
AcDbLine
 62
7
  6
CONTINUOUS
 10
295.7033987701
 20
266.748623158
 11
293.7291820479
 21
267.1295887912
  0
LINE
  5
377
100
AcDbEntity
  8
0
100
AcDbLine
 62
7
  6
CONTINUOUS
 10
293.1651202026
 20
267.2384361004
 11
291.7549653258
 21
267.5105544243
  0
LINE
  5
378
100
AcDbEntity
  8
0
100
AcDbLine
 62
7
  6
CONTINUOUS
 10
292.7631091112
 20
269.7030012888
 11
293.0451402972
 21
269.6485775834
  0
LINE
  5
379
100
AcDbEntity
  8
0
100
AcDbLine
 62
7
  6
CONTINUOUS
 10
293.2457302744
 20
270.1827469879
 11
292.8696887808
 21
270.2553119116
  0
LINE
  5
37A
100
AcDbEntity
  8
0
100
AcDbLine
 62
7
  6
CONTINUOUS
 10
292.2733779254
 20
272.0053203253
 11
295.0514258274
 21
270.960342172
  0
LINE
  5
37B
100
AcDbEntity
  8
0
100
AcDbLine
 62
7
  6
CONTINUOUS
 10
295.2494661331
 20
271.4868272991
 11
292.4714182311
 21
272.5318054524
  0
LINE
  5
37C
100
AcDbEntity
  8
0
100
AcDbLine
 62
7
  6
CONTINUOUS
 10
293.2635790763
 20
274.6377449566
 11
296.0416269783
 21
273.5927668033
  0
LINE
  5
37D
100
AcDbEntity
  8
0
100
AcDbLine
 62
7
  6
CONTINUOUS
 10
296.2396671896
 20
274.1192516793
 11
293.4616192876
 21
275.1642298326
  0
LINE
  5
37E
100
AcDbEntity
  8
0
100
AcDbLine
 62
7
  6
CONTINUOUS
 10
294.1095220056
 20
276.555979515
 11
297.9860011904
 21
274.2706110263
  0
LINE
  5
37F
100
AcDbEntity
  8
0
100
AcDbLine
 62
7
  6
CONTINUOUS
 10
297.7768025696
 20
275.0469200925
 11
294.8900626908
 21
276.7487902791
  0
LINE
  5
380
100
AcDbEntity
  8
0
100
AcDbLine
 62
7
  6
CONTINUOUS
 10
297.0479770656
 20
278.5238208027
 11
298.2851512416
 21
277.7944478996
  0
LINE
  5
381
100
AcDbEntity
  8
0
100
AcDbLine
 62
7
  6
CONTINUOUS
 10
298.5708223027
 20
278.2790077977
 11
297.3336481267
 21
279.0083807008
  0
LINE
  5
382
100
AcDbEntity
  8
0
100
AcDbLine
 62
7
  6
CONTINUOUS
 10
296.6547326063
 20
273.862959192
 11
296.2396671896
 21
274.1192516793
  0
LINE
  5
383
100
AcDbEntity
  8
FASEN
100
AcDbLine
 62
7
  6
CONTINUOUS
 10
360.9035125562
 20
234.2197905087
 11
362.6639848227
 21
232.7425788792
  0
LINE
  5
384
100
AcDbEntity
  8
0
100
AcDbLine
 62
7
  6
CONTINUOUS
 10
298.9356019943
 20
277.9551238445
 11
298.5708223027
 21
278.2790077977
  0
LINE
  5
385
100
AcDbEntity
  8
0
100
AcDbLine
 62
7
  6
CONTINUOUS
 10
304.7878543081
 20
288.2663967217
 11
307.5375273761
 21
284.6260949559
  0
LINE
  5
386
100
AcDbEntity
  8
0
100
AcDbLine
 62
7
  6
CONTINUOUS
 10
307.3818574729
 20
285.733165301
 11
305.2863303009
 21
288.5270266023
  0
LINE
  5
387
100
AcDbEntity
  8
0
100
AcDbLine
 62
7
  6
CONTINUOUS
 10
308.2771862573
 20
290.0908058859
 11
309.3757614439
 21
286.7756848234
  0
LINE
  5
388
100
AcDbEntity
  8
0
100
AcDbLine
 62
7
  6
CONTINUOUS
 10
309.4225470524
 20
288.3770349628
 11
308.77566225
 21
290.3514357666
  0
LINE
  5
389
100
AcDbEntity
  8
0
100
AcDbLine
 62
7
  6
CONTINUOUS
 10
308.2021633008
 20
284.9736021262
 11
307.1810210273
 21
288.5452935378
  0
LINE
  5
38A
100
AcDbEntity
  8
0
100
AcDbLine
 62
7
  6
CONTINUOUS
 10
306.4494403167
 20
289.135162659
 11
307.3818574729
 21
285.733165301
  0
LINE
  5
38B
100
AcDbEntity
  8
KONSTRUKTIONSELEMENTE
100
AcDbLine
 62
7
  6
CONTINUOUS
 10
330.6225467663
 20
182.5957478642
 11
330.4725473385
 21
183.4468115925
  0
LINE
  5
38C
100
AcDbEntity
  8
KONSTRUKTIONSELEMENTE
100
AcDbLine
 62
7
  6
CONTINUOUS
 10
326.1225467663
 20
180.2127691864
 11
325.9725473385
 21
181.2340458988
  0
LINE
  5
38D
100
AcDbEntity
  8
KONSTRUKTIONSELEMENTE
100
AcDbLine
 62
7
  6
CONTINUOUS
 10
329.7225467663
 20
183.4468115925
 11
329.8725479107
 21
182.4255351185
  0
LINE
  5
38E
100
AcDbEntity
  8
KONSTRUKTIONSELEMENTE
100
AcDbLine
 62
7
  6
CONTINUOUS
 10
321.9537972908
 20
190.3638330042
 11
321.9537972908
 21
189.9170245468
  0
LINE
  5
38F
100
AcDbEntity
  8
KONSTRUKTIONSELEMENTE
100
AcDbLine
 62
7
  6
CONTINUOUS
 10
322.0996300679
 20
193.3425562619
 11
322.0996300679
 21
192.8957478046
  0
LINE
  5
390
100
AcDbEntity
  8
KONSTRUKTIONSELEMENTE
100
AcDbLine
 62
7
  6
CONTINUOUS
 10
322.6829628449
 20
189.9170245468
 11
322.6829628449
 21
190.3638330042
  0
LINE
  5
391
100
AcDbEntity
  8
KONSTRUKTIONSELEMENTE
100
AcDbLine
 62
7
  6
CONTINUOUS
 10
322.8287972908
 20
193.044683957
 11
322.8287972908
 21
193.3425562619
  0
LINE
  5
392
100
AcDbEntity
  8
KONSTRUKTIONSELEMENTE
100
AcDbLine
 62
7
  6
CONTINUOUS
 10
323.1225470524
 20
183.9574503063
 11
323.1225470524
 21
183.6170243382
  0
LINE
  5
393
100
AcDbEntity
  8
KONSTRUKTIONSELEMENTE
100
AcDbLine
 62
7
  6
CONTINUOUS
 10
323.2725473385
 20
180.3829819321
 11
323.2725473385
 21
179.7021309494
  0
LINE
  5
394
100
AcDbEntity
  8
KONSTRUKTIONSELEMENTE
100
AcDbLine
 62
7
  6
CONTINUOUS
 10
323.8725476246
 20
183.6170243382
 11
323.8725476246
 21
183.9574503063
  0
LINE
  5
395
100
AcDbEntity
  8
KONSTRUKTIONSELEMENTE
100
AcDbLine
 62
7
  6
CONTINUOUS
 10
324.0225470524
 20
179.7021309494
 11
324.0225470524
 21
180.3829819321
  0
LINE
  5
396
100
AcDbEntity
  8
KONSTRUKTIONSELEMENTE
100
AcDbLine
 62
7
  6
CONTINUOUS
 10
325.2225467663
 20
182.5957478642
 11
325.2225467663
 21
181.0638331532
  0
LINE
  5
397
100
AcDbEntity
  8
KONSTRUKTIONSELEMENTE
100
AcDbLine
 62
7
  6
CONTINUOUS
 10
325.9725473385
 20
181.2340458988
 11
325.9725473385
 21
182.4255351185
  0
LINE
  5
398
100
AcDbEntity
  8
KONSTRUKTIONSELEMENTE
100
AcDbLine
 62
7
  6
CONTINUOUS
 10
326.3287972908
 20
193.3425562619
 11
326.3287972908
 21
193.044683957
  0
LINE
  5
399
100
AcDbEntity
  8
KONSTRUKTIONSELEMENTE
100
AcDbLine
 62
7
  6
CONTINUOUS
 10
326.4746300679
 20
190.3638330042
 11
326.4746300679
 21
189.9170245468
  0
LINE
  5
39A
100
AcDbEntity
  8
KONSTRUKTIONSELEMENTE
100
AcDbLine
 62
7
  6
CONTINUOUS
 10
327.0579628449
 20
192.8957478046
 11
327.0579628449
 21
193.3425562619
  0
LINE
  5
39B
100
AcDbEntity
  8
KONSTRUKTIONSELEMENTE
100
AcDbLine
 62
7
  6
CONTINUOUS
 10
327.2037972908
 20
189.9170245468
 11
327.2037972908
 21
190.3638330042
  0
LINE
  5
39C
100
AcDbEntity
  8
KONSTRUKTIONSELEMENTE
100
AcDbLine
 62
7
  6
CONTINUOUS
 10
328.3704628449
 20
195.1297905087
 11
328.3704628449
 21
191.2574501275
  0
LINE
  5
39D
100
AcDbEntity
  8
KONSTRUKTIONSELEMENTE
100
AcDbLine
 62
7
  6
CONTINUOUS
 10
329.0996300679
 20
192.0021308898
 11
329.0996300679
 21
194.3851097464
  0
LINE
  5
39E
100
AcDbEntity
  8
KONSTRUKTIONSELEMENTE
100
AcDbLine
 62
7
  6
CONTINUOUS
 10
329.8725479107
 20
182.4255351185
 11
329.8725479107
 21
181.2340458988
  0
LINE
  5
39F
100
AcDbEntity
  8
KONSTRUKTIONSELEMENTE
100
AcDbLine
 62
7
  6
CONTINUOUS
 10
330.6225467663
 20
181.0638331532
 11
330.6225467663
 21
182.5957478642
  0
LINE
  5
3A0
100
AcDbEntity
  8
0
100
AcDbLine
 62
7
  6
CONTINUOUS
 10
331.4225470524
 20
267.3204538101
 11
331.4225470524
 21
404.1191272072
  0
LINE
  5
3A1
100
AcDbEntity
  8
RUNDUNGEN
100
AcDbLine
 62
7
  6
CONTINUOUS
 10
331.9225470524
 20
213.9197905087
 11
331.9225470524
 21
220.9197905087
  0
LINE
  5
3A2
100
AcDbEntity
  8
0
100
AcDbLine
 62
7
  6
CONTINUOUS
 10
331.8221611688
 20
286.2789309225
 11
331.8393449504
 21
286.7049973653
  0
LINE
  5
3A3
100
AcDbEntity
  8
KONSTRUKTIONSELEMENTE
100
AcDbLine
 62
7
  6
CONTINUOUS
 10
319.9121300679
 20
195.1297905087
 11
319.0371300679
 21
189.7680883943
  0
LINE
  5
3A4
100
AcDbEntity
  8
0
100
AcDbLine
 62
7
  6
CONTINUOUS
 10
334.1373672023
 20
286.2246027834
 11
334.0832444094
 21
285.9273436874
  0
LINE
  5
3A5
100
AcDbEntity
  8
KONSTRUKTIONSELEMENTE
100
AcDbLine
 62
7
  6
CONTINUOUS
 10
307.8079634186
 20
194.0872374415
 11
307.6621300679
 21
193.4914928316
  0
LINE
  5
3A6
100
AcDbEntity
  8
0
100
AcDbLine
 62
7
  6
CONTINUOUS
 10
335.8350604145
 20
283.6739486656
 11
335.9309489884
 21
283.9604754352
  0
LINE
  5
3A7
100
AcDbEntity
  8
0
100
AcDbLine
 62
7
  6
CONTINUOUS
 10
334.0832444094
 20
285.9273436874
 11
333.9921827009
 21
285.7588921153
  0
LINE
  5
3A8
100
AcDbEntity
  8
0
100
AcDbLine
 62
7
  6
CONTINUOUS
 10
335.5144600871
 20
287.9834675785
 11
335.7421143584
 21
288.4045965088
  0
LINE
  5
3A9
100
AcDbEntity
  8
0
100
AcDbLine
 62
7
  6
CONTINUOUS
 10
334.3590085651
 20
285.4517541484
 11
334.5411319821
 21
285.7886572927
  0
LINE
  5
3AA
100
AcDbEntity
  8
0
100
AcDbLine
 62
7
  6
CONTINUOUS
 10
336.207508605
 20
286.3782682458
 11
335.9792793877
 21
286.0707229776
  0
LINE
  5
3AB
100
AcDbEntity
  8
0
100
AcDbLine
 62
7
  6
CONTINUOUS
 10
337.2662445701
 20
286.5464092081
 11
336.8097859758
 21
285.9313184563
  0
LINE
  5
3AC
100
AcDbEntity
  8
0
100
AcDbLine
 62
7
  6
CONTINUOUS
 10
336.5815567585
 20
285.6237731881
 11
335.4404105523
 21
284.0860466854
  0
LINE
  5
3AD
100
AcDbEntity
  8
0
100
AcDbLine
 62
7
  6
CONTINUOUS
 10
335.9309489884
 20
283.9604754352
 11
336.957980546
 21
285.3444292499
  0
LINE
  5
3AE
100
AcDbEntity
  8
0
100
AcDbLine
 62
7
  6
CONTINUOUS
 10
337.1862097633
 20
285.6519745181
 11
337.6426683577
 21
286.2670652699
  0
LINE
  5
3AF
100
AcDbEntity
  8
0
100
AcDbLine
 62
7
  6
CONTINUOUS
 10
336.0379366152
 20
282.6887946028
 11
336.2661658524
 21
282.9963398979
  0
LINE
  5
3B0
100
AcDbEntity
  8
0
100
AcDbLine
 62
7
  6
CONTINUOUS
 10
337.7861080538
 20
284.7298761664
 11
338.0143372711
 21
285.0374214346
  0
LINE
  5
3B1
100
AcDbEntity
  8
0
100
AcDbLine
 62
7
  6
CONTINUOUS
 10
295.9757872929
 20
271.5141069603
 11
295.6409304543
 21
271.4397385712
  0
LINE
  5
3B2
100
AcDbEntity
  8
0
100
AcDbLine
 62
7
  6
CONTINUOUS
 10
296.2718236919
 20
269.6942799006
 11
293.9497168501
 21
269.283062036
  0
LINE
  5
3B3
100
AcDbEntity
  8
0
100
AcDbLine
 62
7
  6
CONTINUOUS
 10
294.0311577702
 20
268.6944688451
 11
296.1474807101
 21
269.0499173318
  0
LINE
  5
3B4
100
AcDbEntity
  8
0
100
AcDbLine
 62
7
  6
CONTINUOUS
 10
292.4633149271
 20
269.6653732608
 11
292.7631091112
 21
269.7030012888
  0
LINE
  5
3B5
100
AcDbEntity
  8
0
100
AcDbLine
 62
7
  6
CONTINUOUS
 10
292.8696887808
 20
270.2553119116
 11
292.5698945968
 21
270.2176838835
  0
LINE
  5
3B6
100
AcDbEntity
  8
0
100
AcDbLine
 62
7
  6
CONTINUOUS
 10
295.5325047737
 20
270.8795449781
 11
295.9569760169
 21
270.9202041244
  0
LINE
  5
3B7
100
AcDbEntity
  8
0
100
AcDbLine
 62
7
  6
CONTINUOUS
 10
296.3277934092
 20
278.6219149795
 11
296.670452321
 21
278.6375605504
  0
LINE
  5
3B8
100
AcDbEntity
  8
0
100
AcDbLine
 62
7
  6
CONTINUOUS
 10
296.8736448803
 20
279.1707454404
 11
296.4485079288
 21
279.203724589
  0
LINE
  5
3B9
100
AcDbEntity
  8
0
100
AcDbLine
 62
7
  6
CONTINUOUS
 10
296.670452321
 20
278.6375605504
 11
297.0479770656
 21
278.5238208027
  0
LINE
  5
3BA
100
AcDbEntity
  8
0
100
AcDbLine
 62
7
  6
CONTINUOUS
 10
297.3336481267
 20
279.0083807008
 11
296.8736448803
 21
279.1707454404
  0
LINE
  5
3BB
100
AcDbEntity
  8
0
100
AcDbLine
 62
7
  6
CONTINUOUS
 10
304.4342060963
 20
283.1034781713
 11
300.9514736381
 21
285.3402235353
  0
LINE
  5
3BC
100
AcDbEntity
  8
0
100
AcDbLine
 62
7
  6
CONTINUOUS
 10
300.5131115821
 20
284.9877395529
 11
304.501949481
 21
282.4208008389
  0
LINE
  5
3BD
100
AcDbEntity
  8
0
100
AcDbLine
 62
7
  6
CONTINUOUS
 10
309.3757614439
 20
286.7756848234
 11
307.1140762414
 21
289.4826698293
  0
LINE
  5
3BE
100
AcDbEntity
  8
0
100
AcDbLine
 62
7
  6
CONTINUOUS
 10
307.1810210273
 20
288.5452935378
 11
309.4225470524
 21
285.8018785164
  0
LINE
  5
3BF
100
AcDbEntity
  8
0
100
AcDbLine
 62
7
  6
CONTINUOUS
 10
334.1090163226
 20
286.566445422
 11
334.1373672023
 21
286.2246027834
  0
LINE
  5
3C0
100
AcDbEntity
  8
KONSTRUKTIONSELEMENTE
100
AcDbLine
 62
7
  6
CONTINUOUS
 10
332.8912972908
 20
190.5127691566
 11
332.8912972908
 21
190.2148968517
  0
LINE
  5
3C1
100
AcDbEntity
  8
KONSTRUKTIONSELEMENTE
100
AcDbLine
 62
7
  6
CONTINUOUS
 10
333.3287972908
 20
194.3851097464
 11
333.3287972908
 21
195.1297905087
  0
LINE
  5
3C2
100
AcDbEntity
  8
KONSTRUKTIONSELEMENTE
100
AcDbLine
 62
7
  6
CONTINUOUS
 10
333.6204628449
 20
190.0659606992
 11
333.6204628449
 21
190.6617053091
  0
LINE
  5
3C3
100
AcDbEntity
  8
RUNDUNGEN
100
AcDbLine
 62
7
  6
CONTINUOUS
 10
335.4225470524
 20
205.9197905087
 11
335.4225470524
 21
180.9197905087
  0
LINE
  5
3C4
100
AcDbEntity
  8
0
100
AcDbLine
 62
7
  6
CONTINUOUS
 10
335.4225470524
 20
172.2197905087
 11
335.4225470524
 21
125.7197905087
  0
LINE
  5
3C5
100
AcDbEntity
  8
0
100
AcDbLine
 62
7
  6
CONTINUOUS
 10
341.8103877307
 20
202.4760212994
 11
341.8103877307
 21
172.2197905087
  0
LINE
  5
3C6
100
AcDbEntity
  8
0
100
AcDbLine
 62
7
  6
CONTINUOUS
 10
334.5411319821
 20
285.7886572927
 11
334.6038428746
 21
286.2989516214
  0
LINE
  5
3C7
100
AcDbEntity
  8
KONSTRUKTIONSELEMENTE
100
AcDbLine
 62
7
  6
CONTINUOUS
 10
325.9725473385
 20
182.4255351185
 11
326.1225467663
 21
183.4468115925
  0
LINE
  5
3C8
100
AcDbEntity
  8
KONSTRUKTIONSELEMENTE
100
AcDbLine
 62
7
  6
CONTINUOUS
 10
319.6204636793
 20
188.1297905087
 11
320.7871300679
 21
195.1297905087
  0
LINE
  5
3C9
100
AcDbEntity
  8
KONSTRUKTIONSELEMENTE
100
AcDbLine
 62
7
  6
CONTINUOUS
 10
325.3725479107
 20
183.4468115925
 11
325.2225467663
 21
182.5957478642
  0
LINE
  5
3CA
100
AcDbEntity
  8
0
100
AcDbLine
 62
7
  6
CONTINUOUS
 10
335.4404105523
 20
284.0860466854
 11
335.3627515194
 21
283.6667633036
  0
LINE
  5
3CB
100
AcDbEntity
  8
KONSTRUKTIONSELEMENTE
100
AcDbLine
 62
7
  6
CONTINUOUS
 10
316.1204636793
 20
188.1297905087
 11
317.2871300679
 21
193.7893651365
  0
LINE
  5
3CC
100
AcDbEntity
  8
KONSTRUKTIONSELEMENTE
100
AcDbLine
 62
7
  6
CONTINUOUS
 10
316.7037964564
 20
195.1297905087
 11
315.5371300679
 21
189.7680883943
  0
LINE
  5
3CD
100
AcDbEntity
  8
KONSTRUKTIONSELEMENTE
100
AcDbLine
 62
7
  6
CONTINUOUS
 10
318.9225476246
 20
184.638301289
 11
318.7725473385
 21
183.9574503063
  0
LINE
  5
3CE
100
AcDbEntity
  8
KONSTRUKTIONSELEMENTE
100
AcDbLine
 62
7
  6
CONTINUOUS
 10
323.7225473385
 20
182.9361733555
 11
323.8725476246
 21
183.6170243382
  0
LINE
  5
3CF
100
AcDbEntity
  8
KONSTRUKTIONSELEMENTE
100
AcDbLine
 62
7
  6
CONTINUOUS
 10
316.0725473385
 20
185.8297905087
 11
313.8225473385
 21
178.6808543562
  0
LINE
  5
3D0
100
AcDbEntity
  8
KONSTRUKTIONSELEMENTE
100
AcDbLine
 62
7
  6
CONTINUOUS
 10
308.5371300679
 20
193.3425562619
 11
308.6829633664
 21
193.7893651365
  0
LINE
  5
3D1
100
AcDbEntity
  8
0
100
AcDbLine
 62
7
  6
CONTINUOUS
 10
296.4485079288
 20
279.203724589
 11
295.9281476536
 21
279.0751843876
  0
LINE
  5
3D2
100
AcDbEntity
  8
0
100
AcDbLine
 62
7
  6
CONTINUOUS
 10
332.331592536
 20
287.418447938
 11
332.7980682084
 21
287.4927967761
  0
LINE
  5
3D3
100
AcDbEntity
  8
0
100
AcDbLine
 62
7
  6
CONTINUOUS
 10
333.4715842674
 20
285.3872842402
 11
333.1331092829
 21
285.3525795684
  0
LINE
  5
3D4
100
AcDbEntity
  8
0
100
AcDbLine
 62
7
  6
CONTINUOUS
 10
332.9879248174
 20
284.8868689667
 11
333.5368741106
 21
284.9166341662
  0
LINE
  5
3D5
100
AcDbEntity
  8
0
100
AcDbLine
 62
7
  6
CONTINUOUS
 10
332.943252646
 20
287.9585073262
 11
332.3943033648
 21
287.9287421488
  0
LINE
  5
3D6
100
AcDbEntity
  8
0
100
AcDbLine
 62
7
  6
CONTINUOUS
 10
333.1331092829
 20
285.3525795684
 11
332.757695319
 21
285.4466823025
  0
LINE
  5
3D7
100
AcDbEntity
  8
0
100
AcDbLine
 62
7
  6
CONTINUOUS
 10
332.7980682084
 20
287.4927967761
 11
333.1734859475
 21
287.3986920012
  0
LINE
  5
3D8
100
AcDbEntity
  8
0
100
AcDbLine
 62
7
  6
CONTINUOUS
 10
332.5300410159
 20
285.0255533132
 11
332.9879248174
 21
284.8868689667
  0
LINE
  5
3D9
100
AcDbEntity
  8
0
100
AcDbLine
 62
7
  6
CONTINUOUS
 10
332.0352144638
 20
285.2930471138
 11
332.5300410159
 21
285.0255533132
  0
LINE
  5
3DA
100
AcDbEntity
  8
0
100
AcDbLine
 62
7
  6
CONTINUOUS
 10
332.757695319
 20
285.4466823025
 11
332.2628687669
 21
285.714176103
  0
LINE
  5
3DB
100
AcDbEntity
  8
0
100
AcDbLine
 62
7
  6
CONTINUOUS
 10
331.8393449504
 20
286.7049973653
 11
331.4225470524
 21
286.9303103631
  0
LINE
  5
3DC
100
AcDbEntity
  8
0
100
AcDbLine
 62
7
  6
CONTINUOUS
 10
331.6683886036
 20
285.600185088
 11
332.0352144638
 21
285.2930471138
  0
LINE
  5
3DD
100
AcDbEntity
  8
0
100
AcDbLine
 62
7
  6
CONTINUOUS
 10
332.2628687669
 20
285.714176103
 11
331.9785127363
 21
285.97673245
  0
LINE
  5
3DE
100
AcDbEntity
  8
0
100
AcDbLine
 62
7
  6
CONTINUOUS
 10
335.643286758
 20
283.1008926294
 11
336.0379366152
 21
282.6887946028
  0
LINE
  5
3DF
100
AcDbEntity
  8
0
100
AcDbLine
 62
7
  6
CONTINUOUS
 10
336.2661658524
 20
282.9963398979
 11
335.9467993892
 21
283.3525701801
  0
LINE
  5
3E0
100
AcDbEntity
  8
0
100
AcDbLine
 62
7
  6
CONTINUOUS
 10
335.474490484
 20
283.3453848046
 11
335.643286758
 21
283.1008926294
  0
LINE
  5
3E1
100
AcDbEntity
  8
0
100
AcDbLine
 62
7
  6
CONTINUOUS
 10
331.4225470524
 20
286.0241694167
 11
331.6683886036
 21
285.600185088
  0
LINE
  5
3E2
100
AcDbEntity
  8
0
100
AcDbLine
 62
7
  6
CONTINUOUS
 10
334.5385530156
 20
286.7696016659
 11
334.2627888599
 21
287.2451912049
  0
LINE
  5
3E3
100
AcDbEntity
  8
0
100
AcDbLine
 62
7
  6
CONTINUOUS
 10
331.9785127363
 20
285.97673245
 11
331.8221611688
 21
286.2789309225
  0
LINE
  5
3E4
100
AcDbEntity
  8
0
100
AcDbLine
 62
7
  6
CONTINUOUS
 10
333.952664755
 20
286.8686438944
 11
334.1090163226
 21
286.566445422
  0
LINE
  5
3E5
100
AcDbEntity
  8
0
100
AcDbLine
 62
7
  6
CONTINUOUS
 10
335.3627515194
 20
283.6667633036
 11
335.474490484
 21
283.3453848046
  0
LINE
  5
3E6
100
AcDbEntity
  8
0
100
AcDbLine
 62
7
  6
CONTINUOUS
 10
335.9467993892
 20
283.3525701801
 11
335.8350604145
 21
283.6739486656
  0
LINE
  5
3E7
100
AcDbEntity
  8
0
100
AcDbLine
 62
7
  6
CONTINUOUS
 10
334.6038428746
 20
286.2989516214
 11
334.5385530156
 21
286.7696016659
  0
LINE
  5
3E8
100
AcDbEntity
  8
0
100
AcDbLine
 62
7
  6
CONTINUOUS
 10
346.5347063741
 20
202.4760212994
 11
346.5347063741
 21
172.2197905087
  0
LINE
  5
3E9
100
AcDbEntity
  8
KONSTRUKTIONSELEMENTE
100
AcDbLine
 62
7
  6
CONTINUOUS
 10
329.8725479107
 20
181.2340458988
 11
329.7225467663
 21
180.2127691864
  0
LINE
  5
3EA
100
AcDbEntity
  8
KONSTRUKTIONSELEMENTE
100
AcDbLine
 62
7
  6
CONTINUOUS
 10
330.4725473385
 20
180.2127691864
 11
330.6225467663
 21
181.0638331532
  0
LINE
  5
3EB
100
AcDbEntity
  8
KONSTRUKTIONSELEMENTE
100
AcDbLine
 62
7
  6
CONTINUOUS
 10
323.8725476246
 20
179.1914925932
 11
324.0225470524
 21
179.7021309494
  0
LINE
  5
3EC
100
AcDbEntity
  8
KONSTRUKTIONSELEMENTE
100
AcDbLine
 62
7
  6
CONTINUOUS
 10
325.5225473385
 20
183.9574503063
 11
325.3725479107
 21
183.4468115925
  0
LINE
  5
3ED
100
AcDbEntity
  8
KONSTRUKTIONSELEMENTE
100
AcDbLine
 62
7
  6
CONTINUOUS
 10
314.4225471955
 20
177.8297905087
 11
316.5225473385
 21
184.127663052
  0
LINE
  5
3EE
100
AcDbEntity
  8
KONSTRUKTIONSELEMENTE
100
AcDbLine
 62
7
  6
CONTINUOUS
 10
322.3912972908
 20
194.0872374415
 11
322.0996300679
 21
193.3425562619
  0
LINE
  5
3EF
100
AcDbEntity
  8
KONSTRUKTIONSELEMENTE
100
AcDbLine
 62
7
  6
CONTINUOUS
 10
322.2454628449
 20
191.1085139751
 11
321.9537972908
 21
190.3638330042
  0
LINE
  5
3F0
100
AcDbEntity
  8
KONSTRUKTIONSELEMENTE
100
AcDbLine
 62
7
  6
CONTINUOUS
 10
312.3287968736
 20
189.1723436802
 11
312.6204632621
 21
189.7680883943
  0
LINE
  5
3F1
100
AcDbEntity
  8
0
100
AcDbLine
 62
7
  6
CONTINUOUS
 10
333.4011402188
 20
287.8198209315
 11
332.943252646
 21
287.9585073262
  0
LINE
  5
3F2
100
AcDbEntity
  8
RUNDUNGEN
100
AcDbLine
 62
7
  6
CONTINUOUS
 10
331.4225470524
 20
298.6634413226
 11
347.1760845704
 21
292.1381124272
  0
LINE
  5
3F3
100
AcDbEntity
  8
0
100
AcDbLine
 62
7
  6
CONTINUOUS
 10
331.7542961503
 20
287.7305233584
 11
332.331592536
 21
287.418447938
  0
LINE
  5
3F4
100
AcDbEntity
  8
0
100
AcDbLine
 62
7
  6
CONTINUOUS
 10
333.1734859475
 20
287.3986920012
 11
333.6683124996
 21
287.1311982006
  0
LINE
  5
3F5
100
AcDbEntity
  8
0
100
AcDbLine
 62
7
  6
CONTINUOUS
 10
333.8959667709
 20
287.5523271309
 11
333.4011402188
 21
287.8198209315
  0
LINE
  5
3F6
100
AcDbEntity
  8
0
100
AcDbLine
 62
7
  6
CONTINUOUS
 10
333.1227971603
 20
289.2763549617
 11
335.5144600871
 21
287.9834675785
  0
LINE
  5
3F7
100
AcDbEntity
  8
0
100
AcDbLine
 62
7
  6
CONTINUOUS
 10
335.7421143584
 20
288.4045965088
 11
332.9380984883
 21
289.9203940319
  0
LINE
  5
3F8
100
AcDbEntity
  8
0
100
AcDbLine
 62
7
  6
CONTINUOUS
 10
335.9792793877
 20
286.0707229776
 11
336.5815567585
 21
285.6237731881
  0
LINE
  5
3F9
100
AcDbEntity
  8
0
100
AcDbLine
 62
7
  6
CONTINUOUS
 10
336.957980546
 20
285.3444292499
 11
337.7861080538
 21
284.7298761664
  0
LINE
  5
3FA
100
AcDbEntity
  8
0
100
AcDbLine
 62
7
  6
CONTINUOUS
 10
338.0143372711
 20
285.0374214346
 11
337.1862097633
 21
285.6519745181
  0
LINE
  5
3FB
100
AcDbEntity
  8
0
100
AcDbLine
 62
7
  6
CONTINUOUS
 10
336.8097859758
 20
285.9313184563
 11
336.207508605
 21
286.3782682458
  0
LINE
  5
3FC
100
AcDbEntity
  8
0
100
AcDbLine
 62
7
  6
CONTINUOUS
 10
337.6426683577
 20
286.2670652699
 11
337.2662445701
 21
286.5464092081
  0
LINE
  5
3FD
100
AcDbEntity
  8
0
100
AcDbLine
 62
7
  6
CONTINUOUS
 10
334.2627888599
 20
287.2451912049
 11
333.8959667709
 21
287.5523271309
  0
LINE
  5
3FE
100
AcDbEntity
  8
0
100
AcDbLine
 62
7
  6
CONTINUOUS
 10
333.6683124996
 20
287.1311982006
 11
333.952664755
 21
286.8686438944
  0
LINE
  5
3FF
100
AcDbEntity
  8
BEZUGSACHSEN
100
AcDbLine
 62
7
  6
CONTINUOUS
 10
359.4225470524
 20
236.2197905087
 11
359.4225470524
 21
239.881308193
  0
LINE
  5
400
100
AcDbEntity
  8
0
100
AcDbLine
 62
7
  6
CONTINUOUS
 10
359.9225470524
 20
236.2197905087
 11
359.9225470524
 21
234.2197905087
  0
LINE
  5
401
100
AcDbEntity
  8
KONSTRUKTIONSELEMENTE
100
AcDbLine
 62
7
  6
CONTINUOUS
 10
330.3225479107
 20
179.7021309494
 11
330.4725473385
 21
180.2127691864
  0
LINE
  5
402
100
AcDbEntity
  8
KONSTRUKTIONSELEMENTE
100
AcDbLine
 62
7
  6
CONTINUOUS
 10
332.8912972908
 20
190.2148968517
 11
332.7454628449
 21
189.7680883943
  0
LINE
  5
403
100
AcDbEntity
  8
KONSTRUKTIONSELEMENTE
100
AcDbLine
 62
7
  6
CONTINUOUS
 10
326.9121300679
 20
189.1723436802
 11
327.2037972908
 21
189.9170245468
  0
LINE
  5
404
100
AcDbEntity
  8
KONSTRUKTIONSELEMENTE
100
AcDbLine
 62
7
  6
CONTINUOUS
 10
333.3287972908
 20
189.3212798326
 11
333.6204628449
 21
190.0659606992
  0
LINE
  5
405
100
AcDbEntity
  8
BEZUGSACHSEN
100
AcDbLine
 62
7
  6
CONTINUOUS
 10
359.7884963813
 20
261.6890567792
 11
354.2220739444
 21
248.2505242381
  0
LINE
  5
406
100
AcDbEntity
  8
KONSTRUKTIONSELEMENTE
100
AcDbLine
 62
7
  6
CONTINUOUS
 10
323.1225470524
 20
183.6170243382
 11
322.8225473385
 21
182.9361733555
  0
LINE
  5
407
100
AcDbEntity
  8
KONSTRUKTIONSELEMENTE
100
AcDbLine
 62
7
  6
CONTINUOUS
 10
323.2725473385
 20
179.7021309494
 11
323.1225470524
 21
179.3617054581
  0
LINE
  5
408
100
AcDbEntity
  8
KONSTRUKTIONSELEMENTE
100
AcDbLine
 62
7
  6
CONTINUOUS
 10
325.8225479107
 20
184.638301289
 11
325.5225473385
 21
183.9574503063
  0
LINE
  5
409
100
AcDbEntity
  8
KONSTRUKTIONSELEMENTE
100
AcDbLine
 62
7
  6
CONTINUOUS
 10
326.7662972908
 20
192.3000031947
 11
327.0579628449
 21
192.8957478046
  0
LINE
  5
40A
100
AcDbEntity
  8
KONSTRUKTIONSELEMENTE
100
AcDbLine
 62
7
  6
CONTINUOUS
 10
319.5225470524
 20
183.9574503063
 11
319.8225476246
 21
184.4680885433
  0
LINE
  5
40B
100
AcDbEntity
  8
KONSTRUKTIONSELEMENTE
100
AcDbLine
 62
7
  6
CONTINUOUS
 10
311.7454632621
 20
189.9170245468
 11
311.4537968736
 21
189.4702160894
  0
LINE
  5
40C
100
AcDbEntity
  8
BEZUGSACHSEN
100
AcDbLine
 62
7
  6
CONTINUOUS
 10
349.340868971
 20
289.9733280267
 11
359.7884963813
 21
264.7505242381
  0
LINE
  5
40D
100
AcDbEntity
  8
BEZUGSACHSEN
100
AcDbLine
 62
7
  6
CONTINUOUS
 10
362.6639848227
 20
232.7425788791
 11
367.9255581337
 21
202.902713818
  0
LINE
  5
40E
100
AcDbEntity
  8
RUNDUNGEN
100
AcDbLine
 62
7
  6
CONTINUOUS
 10
367.9225470524
 20
202.9200392273
 11
367.9225470524
 21
202.4760212994
  0
LINE
  5
40F
100
AcDbEntity
  8
0
100
AcDbLine
 62
7
  6
CONTINUOUS
 10
367.9225470524
 20
202.4760212994
 11
367.9225470524
 21
172.2197905087
  0
LINE
  5
410
100
AcDbEntity
  8
KONSTRUKTIONSELEMENTE
100
AcDbLine
 62
7
  6
CONTINUOUS
 10
330.0225473385
 20
179.0212798475
 11
330.3225479107
 21
179.7021309494
  0
LINE
  5
411
100
AcDbEntity
  8
KONSTRUKTIONSELEMENTE
100
AcDbLine
 62
7
  6
CONTINUOUS
 10
323.4225476246
 20
182.4255351185
 11
323.7225473385
 21
182.9361733555
  0
LINE
  5
412
100
AcDbEntity
  8
KONSTRUKTIONSELEMENTE
100
AcDbLine
 62
7
  6
CONTINUOUS
 10
326.1225467663
 20
183.4468115925
 11
326.7225479107
 21
184.4680885433
  0
LINE
  5
413
100
AcDbEntity
  8
KONSTRUKTIONSELEMENTE
100
AcDbLine
 62
7
  6
CONTINUOUS
 10
323.5725470524
 20
178.6808543562
 11
323.8725476246
 21
179.1914925932
  0
LINE
  5
414
100
AcDbEntity
  8
KONSTRUKTIONSELEMENTE
100
AcDbLine
 62
7
  6
CONTINUOUS
 10
322.8287972908
 20
193.3425562619
 11
323.1204628449
 21
193.7893651365
  0
LINE
  5
415
100
AcDbEntity
  8
KONSTRUKTIONSELEMENTE
100
AcDbLine
 62
7
  6
CONTINUOUS
 10
326.3287972908
 20
193.044683957
 11
326.0371300679
 21
192.5978754996
  0
LINE
  5
416
100
AcDbEntity
  8
KONSTRUKTIONSELEMENTE
100
AcDbLine
 62
7
  6
CONTINUOUS
 10
322.6829628449
 20
190.3638330042
 11
323.1204628449
 21
190.9595778226
  0
LINE
  5
417
100
AcDbEntity
  8
KONSTRUKTIONSELEMENTE
100
AcDbLine
 62
7
  6
CONTINUOUS
 10
326.4746300679
 20
189.9170245468
 11
326.0371300679
 21
189.3212798326
  0
LINE
  5
418
100
AcDbEntity
  8
KONSTRUKTIONSELEMENTE
100
AcDbLine
 62
7
  6
CONTINUOUS
 10
308.3912967693
 20
194.6829820513
 11
307.8079634186
 21
194.0872374415
  0
LINE
  5
419
100
AcDbEntity
  8
KONSTRUKTIONSELEMENTE
100
AcDbLine
 62
7
  6
CONTINUOUS
 10
311.7454632621
 20
188.5765990182
 11
312.3287968736
 21
189.1723436802
  0
LINE
  5
41A
100
AcDbEntity
  8
KONSTRUKTIONSELEMENTE
100
AcDbLine
 62
7
  6
CONTINUOUS
 10
329.7225467663
 20
180.2127691864
 11
329.1225473385
 21
179.1914925932
  0
LINE
  5
41B
100
AcDbEntity
  8
KONSTRUKTIONSELEMENTE
100
AcDbLine
 62
7
  6
CONTINUOUS
 10
332.7454628449
 20
189.7680883943
 11
332.4537972908
 21
189.3212798326
  0
LINE
  5
41C
100
AcDbEntity
  8
KONSTRUKTIONSELEMENTE
100
AcDbLine
 62
7
  6
CONTINUOUS
 10
332.8912972908
 20
188.7255351706
 11
333.3287972908
 21
189.3212798326
  0
LINE
  5
41D
100
AcDbEntity
  8
KONSTRUKTIONSELEMENTE
100
AcDbLine
 62
7
  6
CONTINUOUS
 10
319.5225470524
 20
185.3191522717
 11
318.9225476246
 21
184.638301289
  0
LINE
  5
41E
100
AcDbEntity
  8
KONSTRUKTIONSELEMENTE
100
AcDbLine
 62
7
  6
CONTINUOUS
 10
322.8225473385
 20
182.9361733555
 11
322.5225476246
 21
182.5957478642
  0
LINE
  5
41F
100
AcDbEntity
  8
KONSTRUKTIONSELEMENTE
100
AcDbLine
 62
7
  6
CONTINUOUS
 10
326.2725479107
 20
185.148939526
 11
325.8225479107
 21
184.638301289
  0
LINE
  5
420
100
AcDbEntity
  8
KONSTRUKTIONSELEMENTE
100
AcDbLine
 62
7
  6
CONTINUOUS
 10
323.1225470524
 20
179.3617054581
 11
322.8225473385
 21
179.0212798475
  0
LINE
  5
421
100
AcDbEntity
  8
KONSTRUKTIONSELEMENTE
100
AcDbLine
 62
7
  6
CONTINUOUS
 10
322.8287972908
 20
194.5340458988
 11
322.3912972908
 21
194.0872374415
  0
LINE
  5
422
100
AcDbEntity
  8
KONSTRUKTIONSELEMENTE
100
AcDbLine
 62
7
  6
CONTINUOUS
 10
326.3287972908
 20
191.8531947373
 11
326.7662972908
 21
192.3000031947
  0
LINE
  5
423
100
AcDbEntity
  8
KONSTRUKTIONSELEMENTE
100
AcDbLine
 62
7
  6
CONTINUOUS
 10
326.4746300679
 20
188.7255351706
 11
326.9121300679
 21
189.1723436802
  0
LINE
  5
424
100
AcDbEntity
  8
KONSTRUKTIONSELEMENTE
100
AcDbLine
 62
7
  6
CONTINUOUS
 10
323.1204628449
 20
193.7893651365
 11
323.7037972908
 21
194.2361735939
  0
LINE
  5
425
100
AcDbEntity
  8
KONSTRUKTIONSELEMENTE
100
AcDbLine
 62
7
  6
CONTINUOUS
 10
322.8287972908
 20
191.5553224324
 11
322.2454628449
 21
191.1085139751
  0
LINE
  5
426
100
AcDbEntity
  8
KONSTRUKTIONSELEMENTE
100
AcDbLine
 62
7
  6
CONTINUOUS
 10
308.6829633664
 20
193.7893651365
 11
309.1204634707
 21
194.0872374415
  0
LINE
  5
427
100
AcDbEntity
  8
KONSTRUKTIONSELEMENTE
100
AcDbLine
 62
7
  6
CONTINUOUS
 10
311.4537968736
 20
189.4702160894
 11
311.0162968736
 21
189.1723436802
  0
LINE
  5
428
100
AcDbEntity
  8
KONSTRUKTIONSELEMENTE
100
AcDbLine
 62
7
  6
CONTINUOUS
 10
308.9746300679
 20
194.9808543562
 11
308.3912967693
 21
194.6829820513
  0
LINE
  5
429
100
AcDbEntity
  8
KONSTRUKTIONSELEMENTE
100
AcDbLine
 62
7
  6
CONTINUOUS
 10
329.5725473385
 20
178.5106415509
 11
330.0225473385
 21
179.0212798475
  0
LINE
  5
42A
100
AcDbEntity
  8
KONSTRUKTIONSELEMENTE
100
AcDbLine
 62
7
  6
CONTINUOUS
 10
322.8225473385
 20
181.9148968815
 11
323.4225476246
 21
182.4255351185
  0
LINE
  5
42B
100
AcDbEntity
  8
KONSTRUKTIONSELEMENTE
100
AcDbLine
 62
7
  6
CONTINUOUS
 10
326.0371300679
 20
192.5978754996
 11
325.4537972908
 21
192.1510670423
  0
LINE
  5
42C
100
AcDbEntity
  8
KONSTRUKTIONSELEMENTE
100
AcDbLine
 62
7
  6
CONTINUOUS
 10
329.3912972908
 20
191.2574501275
 11
329.9746300679
 21
191.7042585849
  0
LINE
  5
42D
100
AcDbEntity
  8
KONSTRUKTIONSELEMENTE
100
AcDbLine
 62
7
  6
CONTINUOUS
 10
319.8225476246
 20
184.4680885433
 11
320.2725476246
 21
184.8085140347
  0
LINE
  5
42E
100
AcDbEntity
  8
KONSTRUKTIONSELEMENTE
100
AcDbLine
 62
7
  6
CONTINUOUS
 10
326.7225479107
 20
184.4680885433
 11
327.1725479107
 21
184.8085140347
  0
LINE
  5
42F
100
AcDbEntity
  8
KONSTRUKTIONSELEMENTE
100
AcDbLine
 62
7
  6
CONTINUOUS
 10
327.0225467663
 20
185.659577763
 11
326.2725479107
 21
185.148939526
  0
LINE
  5
430
100
AcDbEntity
  8
KONSTRUKTIONSELEMENTE
100
AcDbLine
 62
7
  6
CONTINUOUS
 10
332.4537972908
 20
189.3212798326
 11
332.0162972908
 21
189.0234075277
  0
LINE
  5
431
100
AcDbEntity
  8
KONSTRUKTIONSELEMENTE
100
AcDbLine
 62
7
  6
CONTINUOUS
 10
323.5579628449
 20
194.9808543562
 11
322.8287972908
 21
194.5340458988
  0
LINE
  5
432
100
AcDbEntity
  8
KONSTRUKTIONSELEMENTE
100
AcDbLine
 62
7
  6
CONTINUOUS
 10
329.8287972908
 20
192.4489393472
 11
329.0996300679
 21
192.0021308898
  0
LINE
  5
433
100
AcDbEntity
  8
KONSTRUKTIONSELEMENTE
100
AcDbLine
 62
7
  6
CONTINUOUS
 10
325.7454628449
 20
188.2787266742
 11
326.4746300679
 21
188.7255351706
  0
LINE
  5
434
100
AcDbEntity
  8
KONSTRUKTIONSELEMENTE
100
AcDbLine
 62
7
  6
CONTINUOUS
 10
320.1225473385
 20
185.659577763
 11
319.5225470524
 21
185.3191522717
  0
LINE
  5
435
100
AcDbEntity
  8
KONSTRUKTIONSELEMENTE
100
AcDbLine
 62
7
  6
CONTINUOUS
 10
311.1621300679
 20
188.2787266742
 11
311.7454632621
 21
188.5765990182
  0
LINE
  5
436
100
AcDbEntity
  8
KONSTRUKTIONSELEMENTE
100
AcDbLine
 62
7
  6
CONTINUOUS
 10
323.1204628449
 20
191.7042585849
 11
322.8287972908
 21
191.5553224324
  0
LINE
  5
437
100
AcDbEntity
  8
KONSTRUKTIONSELEMENTE
100
AcDbLine
 62
7
  6
CONTINUOUS
 10
323.1204628449
 20
190.9595778226
 11
323.7037972908
 21
191.2574501275
  0
LINE
  5
438
100
AcDbEntity
  8
KONSTRUKTIONSELEMENTE
100
AcDbLine
 62
7
  6
CONTINUOUS
 10
326.0371300679
 20
191.7042585849
 11
326.3287972908
 21
191.8531947373
  0
LINE
  5
439
100
AcDbEntity
  8
KONSTRUKTIONSELEMENTE
100
AcDbLine
 62
7
  6
CONTINUOUS
 10
326.0371300679
 20
189.3212798326
 11
325.4537972908
 21
189.0234075277
  0
LINE
  5
43A
100
AcDbEntity
  8
KONSTRUKTIONSELEMENTE
100
AcDbLine
 62
7
  6
CONTINUOUS
 10
309.1204634707
 20
194.0872374415
 11
309.5579634707
 21
194.2361735939
  0
LINE
  5
43B
100
AcDbEntity
  8
KONSTRUKTIONSELEMENTE
100
AcDbLine
 62
7
  6
CONTINUOUS
 10
323.1225470524
 20
178.3404288053
 11
323.5725470524
 21
178.6808543562
  0
LINE
  5
43C
100
AcDbEntity
  8
KONSTRUKTIONSELEMENTE
100
AcDbLine
 62
7
  6
CONTINUOUS
 10
329.1225473385
 20
179.1914925932
 11
328.6725473385
 21
178.8510671019
  0
LINE
  5
43D
100
AcDbEntity
  8
KONSTRUKTIONSELEMENTE
100
AcDbLine
 62
7
  6
CONTINUOUS
 10
328.8225467663
 20
178.0000032692
 11
329.5725473385
 21
178.5106415509
  0
LINE
  5
43E
100
AcDbEntity
  8
KONSTRUKTIONSELEMENTE
100
AcDbLine
 62
7
  6
CONTINUOUS
 10
332.1621300679
 20
188.2787266742
 11
332.8912972908
 21
188.7255351706
  0
LINE
  5
43F
100
AcDbEntity
  8
KONSTRUKTIONSELEMENTE
100
AcDbLine
 62
7
  6
CONTINUOUS
 10
322.8225473385
 20
179.0212798475
 11
322.5225476246
 21
178.8510671019
  0
LINE
  5
440
100
AcDbEntity
  8
KONSTRUKTIONSELEMENTE
100
AcDbLine
 62
7
  6
CONTINUOUS
 10
322.5225476246
 20
178.0000032692
 11
323.1225470524
 21
178.3404288053
  0
LINE
  5
441
100
AcDbEntity
  8
KONSTRUKTIONSELEMENTE
100
AcDbLine
 62
7
  6
CONTINUOUS
 10
322.5225476246
 20
182.5957478642
 11
321.6225476246
 21
182.2553223728
  0
LINE
  5
442
100
AcDbEntity
  8
0
100
AcDbLine
 62
7
  6
CONTINUOUS
 10
335.4225470524
 20
125.7197905087
 11
331.9225470524
 21
122.2197905087
  0
LINE
  5
443
100
AcDbEntity
  8
RUNDUNGEN
100
AcDbLine
 62
7
  6
CONTINUOUS
 10
143.1770752629
 20
44.828722421
 11
143.1770752629
 21
49.0183231477
  0
LINE
  5
444
100
AcDbEntity
  8
RUNDUNGEN
100
AcDbLine
 62
7
  6
CONTINUOUS
 10
143.1770752629
 20
61.6391216944
 11
143.1770752629
 21
65.828722421
  0
LINE
  5
445
100
AcDbEntity
  8
BEZUGSACHSEN
100
AcDbLine
 62
7
  6
CONTINUOUS
 10
145.6770752629
 20
76.7165630994
 11
148.4046619033
 21
81.4408817427
  0
LINE
  5
446
100
AcDbEntity
  8
RUNDUNGEN
100
AcDbLine
 62
7
  6
CONTINUOUS
 10
190.9046619033
 20
7.828722421
 11
185.4494886224
 21
7.828722421
  0
LINE
  5
447
100
AcDbEntity
  8
BEZUGSACHSEN
100
AcDbLine
 62
7
  6
CONTINUOUS
 10
148.4046619033
 20
29.2165630994
 11
145.6770752629
 21
33.9408817427
  0
LINE
  5
448
100
AcDbEntity
  8
RUNDUNGEN
100
AcDbLine
 62
7
  6
CONTINUOUS
 10
145.6770752629
 20
33.9408817427
 11
145.6770752629
 21
42.829609069
  0
LINE
  5
449
100
AcDbEntity
  8
RUNDUNGEN
100
AcDbLine
 62
7
  6
CONTINUOUS
 10
145.6770752629
 20
67.8278357731
 11
145.6770752629
 21
76.7165630994
  0
LINE
  5
44A
100
AcDbEntity
  8
BEZUGSACHSEN
100
AcDbLine
 62
7
  6
CONTINUOUS
 10
148.4046619033
 20
81.4408817427
 11
185.4494886224
 21
102.828722421
  0
LINE
  5
44B
100
AcDbEntity
  8
BEZUGSACHSEN
100
AcDbLine
 62
7
  6
CONTINUOUS
 10
193.2622748757
 20
15.6582912222
 11
183.09187565
 21
15.6582912222
  0
LINE
  5
44C
100
AcDbEntity
  8
BEZUGSACHSEN
100
AcDbLine
 62
7
  6
CONTINUOUS
 10
185.4494886224
 20
7.828722421
 11
148.4046619033
 21
29.2165630994
  0
LINE
  5
44D
100
AcDbEntity
  8
BEZUGSACHSEN
100
AcDbLine
 62
7
  6
CONTINUOUS
 10
180.0870879206
 20
93.6394662342
 11
174.0819960882
 21
86.8054170563
  0
LINE
  5
44E
100
AcDbEntity
  8
BEZUGSACHSEN
100
AcDbLine
 62
7
  6
CONTINUOUS
 10
174.0819960882
 20
23.8520277858
 11
180.0870879206
 21
17.0179786079
  0
LINE
  5
44F
100
AcDbEntity
  8
RUNDUNGEN
100
AcDbLine
 62
7
  6
CONTINUOUS
 10
227.6060298937
 20
33.9408817427
 11
229.6770752629
 21
33.9408817427
  0
LINE
  5
450
100
AcDbEntity
  8
0
100
AcDbLine
 62
7
  6
CONTINUOUS
 10
179.9270752629
 20
37.7369322024
 11
178.9270752629
 21
37.7369322024
  0
LINE
  5
451
100
AcDbEntity
  8
0
100
AcDbLine
 62
7
  6
CONTINUOUS
 10
179.9270752629
 20
38.1086011158
 11
178.9270752629
 21
38.1086011158
  0
LINE
  5
452
100
AcDbEntity
  8
0
100
AcDbLine
 62
7
  6
CONTINUOUS
 10
179.9270752629
 20
38.4850249033
 11
178.9270752629
 21
38.4850249033
  0
LINE
  5
453
100
AcDbEntity
  8
0
100
AcDbLine
 62
7
  6
CONTINUOUS
 10
179.9270752629
 20
38.9414834977
 11
178.9270752629
 21
38.9414834977
  0
LINE
  5
454
100
AcDbEntity
  8
0
100
AcDbLine
 62
7
  6
CONTINUOUS
 10
179.9270752629
 20
39.5437608685
 11
178.9270752629
 21
39.5437608685
  0
LINE
  5
455
100
AcDbEntity
  8
0
100
AcDbLine
 62
7
  6
CONTINUOUS
 10
179.9270752629
 20
39.7719900858
 11
178.9270752629
 21
39.7719900858
  0
LINE
  5
456
100
AcDbEntity
  8
0
100
AcDbLine
 62
7
  6
CONTINUOUS
 10
179.9270752629
 20
40.0091551151
 11
178.9270752629
 21
40.0091551151
  0
LINE
  5
457
100
AcDbEntity
  8
0
100
AcDbLine
 62
7
  6
CONTINUOUS
 10
178.9270752629
 20
37.7369322024
 11
178.9270752629
 21
44.328722421
  0
LINE
  5
458
100
AcDbEntity
  8
0
100
AcDbLine
 62
7
  6
CONTINUOUS
 10
178.9270752629
 20
66.328722421
 11
178.9270752629
 21
75.2381578914
  0
LINE
  5
459
100
AcDbEntity
  8
0
100
AcDbLine
 62
7
  6
CONTINUOUS
 10
178.9270752629
 20
76.441512288
 11
178.9270752629
 21
84.5729353551
  0
LINE
  5
45A
100
AcDbEntity
  8
0
100
AcDbLine
 62
7
  6
CONTINUOUS
 10
179.9270752629
 20
42.8131709851
 11
178.9270752629
 21
42.8131709851
  0
LINE
  5
45B
100
AcDbEntity
  8
RUNDUNGEN
100
AcDbLine
 62
7
  6
CONTINUOUS
 10
144.6770752629
 20
43.828722421
 11
144.1770752629
 21
43.828722421
  0
LINE
  5
45C
100
AcDbEntity
  8
0
100
AcDbLine
 62
7
  6
CONTINUOUS
 10
179.9270752629
 20
43.9969733231
 11
178.9270752629
 21
43.9969733231
  0
LINE
  5
45D
100
AcDbEntity
  8
0
100
AcDbLine
 62
7
  6
CONTINUOUS
 10
152.1770752629
 20
44.328722421
 11
224.1770752629
 21
44.328722421
  0
LINE
  5
45E
100
AcDbEntity
  8
RUNDUNGEN
100
AcDbLine
 62
7
  6
CONTINUOUS
 10
179.9270752629
 20
44.328722421
 11
179.9270752629
 21
30.1059186325
  0
LINE
  5
45F
100
AcDbEntity
  8
BEZUGSACHSEN
100
AcDbLine
 62
7
  6
CONTINUOUS
 10
179.9270752629
 20
30.1059186325
 11
179.9270752629
 21
21.5582606803
  0
LINE
  5
460
100
AcDbEntity
  8
RUNDUNGEN
100
AcDbLine
 62
7
  6
CONTINUOUS
 10
179.9270752629
 20
66.328722421
 11
179.9270752629
 21
80.5515262096
  0
LINE
  5
461
100
AcDbEntity
  8
BEZUGSACHSEN
100
AcDbLine
 62
7
  6
CONTINUOUS
 10
179.9270752629
 20
80.5515262096
 11
179.9270752629
 21
89.0991841618
  0
LINE
  5
462
100
AcDbEntity
  8
RUNDUNGEN
100
AcDbLine
 62
7
  6
CONTINUOUS
 10
196.4270752629
 20
44.328722421
 11
196.4270752629
 21
21.5582606803
  0
LINE
  5
463
100
AcDbEntity
  8
RUNDUNGEN
100
AcDbLine
 62
7
  6
CONTINUOUS
 10
196.4270752629
 20
66.328722421
 11
196.4270752629
 21
80.5515262096
  0
LINE
  5
464
100
AcDbEntity
  8
BEZUGSACHSEN
100
AcDbLine
 62
7
  6
CONTINUOUS
 10
196.4270752629
 20
66.328722421
 11
196.4270752629
 21
89.0991841618
  0
LINE
  5
465
100
AcDbEntity
  8
0
100
AcDbLine
 62
7
  6
CONTINUOUS
 10
152.1770752629
 20
66.328722421
 11
224.1770752629
 21
66.328722421
  0
LINE
  5
466
100
AcDbEntity
  8
RUNDUNGEN
100
AcDbLine
 62
7
  6
CONTINUOUS
 10
144.6770752629
 20
66.828722421
 11
144.1770752629
 21
66.828722421
  0
LINE
  5
467
100
AcDbEntity
  8
0
100
AcDbLine
 62
7
  6
CONTINUOUS
 10
179.9270752629
 20
66.9756072234
 11
178.9270752629
 21
66.9756072234
  0
LINE
  5
468
100
AcDbEntity
  8
0
100
AcDbLine
 62
7
  6
CONTINUOUS
 10
179.9270752629
 20
67.4740832162
 11
178.9270752629
 21
67.4740832162
  0
LINE
  5
469
100
AcDbEntity
  8
0
100
AcDbLine
 62
7
  6
CONTINUOUS
 10
179.9270752629
 20
68.637193232
 11
178.9270752629
 21
68.637193232
  0
LINE
  5
46A
100
AcDbEntity
  8
0
100
AcDbLine
 62
7
  6
CONTINUOUS
 10
179.9270752629
 20
69.3018291567
 11
178.9270752629
 21
69.3018291567
  0
LINE
  5
46B
100
AcDbEntity
  8
0
100
AcDbLine
 62
7
  6
CONTINUOUS
 10
179.9270752629
 20
70.4649391726
 11
178.9270752629
 21
70.4649391726
  0
LINE
  5
46C
100
AcDbEntity
  8
0
100
AcDbLine
 62
7
  6
CONTINUOUS
 10
179.9270752629
 20
70.9634151653
 11
178.9270752629
 21
70.9634151653
  0
LINE
  5
46D
100
AcDbEntity
  8
0
100
AcDbLine
 62
7
  6
CONTINUOUS
 10
179.9270752629
 20
72.3157436269
 11
178.9270752629
 21
72.3157436269
  0
LINE
  5
46E
100
AcDbEntity
  8
0
100
AcDbLine
 62
7
  6
CONTINUOUS
 10
179.9270752629
 20
72.754105683
 11
178.9270752629
 21
72.754105683
  0
LINE
  5
46F
100
AcDbEntity
  8
0
100
AcDbLine
 62
7
  6
CONTINUOUS
 10
179.9270752629
 20
74.7997958353
 11
178.9270752629
 21
74.7997958353
  0
LINE
  5
470
100
AcDbEntity
  8
0
100
AcDbLine
 62
7
  6
CONTINUOUS
 10
179.9270752629
 20
75.2381578914
 11
178.9270752629
 21
75.2381578914
  0
LINE
  5
471
100
AcDbEntity
  8
0
100
AcDbLine
 62
7
  6
CONTINUOUS
 10
179.9270752629
 20
76.441512288
 11
178.9270752629
 21
76.441512288
  0
LINE
  5
472
100
AcDbEntity
  8
0
100
AcDbLine
 62
7
  6
CONTINUOUS
 10
179.9270752629
 20
76.5809782073
 11
178.9270752629
 21
76.5809782073
  0
LINE
  5
473
100
AcDbEntity
  8
RUNDUNGEN
100
AcDbLine
 62
7
  6
CONTINUOUS
 10
227.6060305039
 20
76.7165630994
 11
229.6770752629
 21
76.7165630994
  0
LINE
  5
474
100
AcDbEntity
  8
0
100
AcDbLine
 62
7
  6
CONTINUOUS
 10
227.6059977223
 20
76.7165630994
 11
229.6770752629
 21
76.7165630994
  0
LINE
  5
475
100
AcDbEntity
  8
0
100
AcDbLine
 62
7
  6
CONTINUOUS
 10
179.9270752629
 20
76.8156674792
 11
178.9270752629
 21
76.8156674792
  0
LINE
  5
476
100
AcDbEntity
  8
0
100
AcDbLine
 62
7
  6
CONTINUOUS
 10
179.9270752629
 20
77.1804471708
 11
178.9270752629
 21
77.1804471708
  0
LINE
  5
477
100
AcDbEntity
  8
0
100
AcDbLine
 62
7
  6
CONTINUOUS
 10
179.9270752629
 20
78.4176213467
 11
178.9270752629
 21
78.4176213467
  0
LINE
  5
478
100
AcDbEntity
  8
0
100
AcDbLine
 62
7
  6
CONTINUOUS
 10
179.9270752629
 20
78.8776245932
 11
178.9270752629
 21
78.8776245932
  0
LINE
  5
479
100
AcDbEntity
  8
0
100
AcDbLine
 62
7
  6
CONTINUOUS
 10
179.9270752629
 20
79.3027615446
 11
178.9270752629
 21
79.3027615446
  0
LINE
  5
47A
100
AcDbEntity
  8
0
100
AcDbLine
 62
7
  6
CONTINUOUS
 10
179.9270752629
 20
79.8231218198
 11
178.9270752629
 21
79.8231218198
  0
LINE
  5
47B
100
AcDbEntity
  8
0
100
AcDbLine
 62
7
  6
CONTINUOUS
 10
179.9270752629
 20
80.1785255537
 11
178.9270752629
 21
80.1785255537
  0
LINE
  5
47C
100
AcDbEntity
  8
0
100
AcDbLine
 62
7
  6
CONTINUOUS
 10
179.9270752629
 20
80.4990632236
 11
178.9270752629
 21
80.4990632236
  0
LINE
  5
47D
100
AcDbEntity
  8
0
100
AcDbLine
 62
7
  6
CONTINUOUS
 10
179.9270752629
 20
81.6417474679
 11
178.9270752629
 21
81.6417474679
  0
LINE
  5
47E
100
AcDbEntity
  8
0
100
AcDbLine
 62
7
  6
CONTINUOUS
 10
179.9270752629
 20
82.2896501858
 11
178.9270752629
 21
82.2896501858
  0
LINE
  5
47F
100
AcDbEntity
  8
0
100
AcDbLine
 62
7
  6
CONTINUOUS
 10
179.9270752629
 20
82.4876903971
 11
178.9270752629
 21
82.4876903971
  0
LINE
  5
480
100
AcDbEntity
  8
RUNDUNGEN
100
AcDbLine
 62
7
  6
CONTINUOUS
 10
196.2670626051
 20
17.0179786079
 11
202.2721544375
 21
23.8520277858
  0
LINE
  5
481
100
AcDbEntity
  8
0
100
AcDbLine
 62
7
  6
CONTINUOUS
 10
179.9270752629
 20
83.2798512424
 11
178.9270752629
 21
83.2798512424
  0
LINE
  5
482
100
AcDbEntity
  8
0
100
AcDbLine
 62
7
  6
CONTINUOUS
 10
179.9270752629
 20
83.4778915481
 11
178.9270752629
 21
83.4778915481
  0
LINE
  5
483
100
AcDbEntity
  8
0
100
AcDbLine
 62
7
  6
CONTINUOUS
 10
179.9270752629
 20
83.6107059417
 11
178.9270752629
 21
83.6107059417
  0
LINE
  5
484
100
AcDbEntity
  8
0
100
AcDbLine
 62
7
  6
CONTINUOUS
 10
179.9270752629
 20
83.9637899606
 11
178.9270752629
 21
83.9637899606
  0
LINE
  5
485
100
AcDbEntity
  8
0
100
AcDbLine
 62
7
  6
CONTINUOUS
 10
179.9270752629
 20
84.1466166765
 11
178.9270752629
 21
84.1466166765
  0
LINE
  5
486
100
AcDbEntity
  8
0
100
AcDbLine
 62
7
  6
CONTINUOUS
 10
179.8951165347
 20
84.5729353551
 11
178.9270752629
 21
84.5729353551
  0
LINE
  5
487
100
AcDbEntity
  8
BEZUGSACHSEN
100
AcDbLine
 62
7
  6
CONTINUOUS
 10
202.2721544375
 20
86.8054170563
 11
196.2670626051
 21
93.6394662342
  0
LINE
  5
488
100
AcDbEntity
  8
BEZUGSACHSEN
100
AcDbLine
 62
7
  6
CONTINUOUS
 10
183.09187565
 20
94.9991536199
 11
193.2622748757
 21
94.9991536199
  0
LINE
  5
489
100
AcDbEntity
  8
RUNDUNGEN
100
AcDbLine
 62
7
  6
CONTINUOUS
 10
230.6770752629
 20
46.4573614639
 11
230.6770752629
 21
33.9408817427
  0
LINE
  5
48A
100
AcDbEntity
  8
RUNDUNGEN
100
AcDbLine
 62
7
  6
CONTINUOUS
 10
230.6770752629
 20
64.2000833782
 11
230.6770752629
 21
76.7165630994
  0
LINE
  5
48B
100
AcDbEntity
  8
BEZUGSACHSEN
100
AcDbLine
 62
7
  6
CONTINUOUS
 10
227.9494886224
 20
29.2165630994
 11
190.9046619033
 21
7.828722421
  0
LINE
  5
48C
100
AcDbEntity
  8
BEZUGSACHSEN
100
AcDbLine
 62
7
  6
CONTINUOUS
 10
190.9046619033
 20
102.828722421
 11
227.9494886224
 21
81.4408817427
  0
LINE
  5
48D
100
AcDbEntity
  8
RUNDUNGEN
100
AcDbLine
 62
7
  6
CONTINUOUS
 10
230.6770752629
 20
33.9408817427
 11
227.9494886224
 21
29.2165630994
  0
LINE
  5
48E
100
AcDbEntity
  8
RUNDUNGEN
100
AcDbLine
 62
7
  6
CONTINUOUS
 10
185.4494886224
 20
102.828722421
 11
190.9046619033
 21
102.828722421
  0
LINE
  5
48F
100
AcDbEntity
  8
RUNDUNGEN
100
AcDbLine
 62
7
  6
CONTINUOUS
 10
227.9494886224
 20
81.4408817427
 11
230.6770752629
 21
76.7165630994
  0
ARC
  5
490
100
AcDbEntity
  8
BEZUGSACHSEN
100
AcDbCircle
 62
7
  6
CONTINUOUS
 10
170.9270752629
 20
267.806733335
 40
9.0
100
AcDbArc
 50
340.0000646148
 51
359.9999312924
  0
ARC
  5
491
100
AcDbEntity
  8
BEZUGSACHSEN
100
AcDbCircle
 62
7
  6
CONTINUOUS
 10
168.5732768655
 20
246.7197905087
 40
3.9998438885
100
AcDbArc
 50
269.9952407157
 51
339.9983721018
  0
ARC
  5
492
100
AcDbEntity
  8
BEZUGSACHSEN
100
AcDbCircle
 62
7
  6
CONTINUOUS
 10
152.1770752629
 20
239.7197905087
 40
3.0
100
AcDbArc
 50
90.0
 51
180.0
  0
ARC
  5
493
100
AcDbEntity
  8
RUNDUNGEN
100
AcDbCircle
 62
7
  6
CONTINUOUS
 10
144.1770752629
 20
210.9197905087
 40
1.0
100
AcDbArc
 50
180.0
 51
270.0
  0
ARC
  5
494
100
AcDbEntity
  8
RUNDUNGEN
100
AcDbCircle
 62
7
  6
CONTINUOUS
 10
144.1770752629
 20
231.4197905087
 40
1.0
100
AcDbArc
 50
90.0
 51
180.0
  0
ARC
  5
495
100
AcDbEntity
  8
RUNDUNGEN
100
AcDbCircle
 62
7
  6
CONTINUOUS
 10
145.1997678032
 20
233.4197895406
 40
0.9999999226
100
AcDbArc
 50
270.0000000027
 51
317.343626759
  0
ARC
  5
496
100
AcDbEntity
  8
RUNDUNGEN
100
AcDbCircle
 62
7
  6
CONTINUOUS
 10
183.9270752629
 20
298.8902217075
 40
4.0
100
AcDbArc
 50
90.0
 51
180.0
  0
ARC
  5
497
100
AcDbEntity
  8
RUNDUNGEN
100
AcDbCircle
 62
7
  6
CONTINUOUS
 10
205.4270752629
 20
267.806733335
 40
9.0
100
AcDbArc
 50
180.0000687076
 51
199.9999353852
  0
ARC
  5
498
100
AcDbEntity
  8
RUNDUNGEN
100
AcDbCircle
 62
7
  6
CONTINUOUS
 10
207.7808736602
 20
246.7197905087
 40
3.9998438885
100
AcDbArc
 50
200.0016278982
 51
270.0047592843
  0
ARC
  5
499
100
AcDbEntity
  8
BEZUGSACHSEN
100
AcDbCircle
 62
7
  6
CONTINUOUS
 10
207.7808736602
 20
246.7197905087
 40
3.9998438885
100
AcDbArc
 50
200.0016278982
 51
263.7639281501
  0
ARC
  5
49A
100
AcDbEntity
  8
BEZUGSACHSEN
100
AcDbCircle
 62
7
  6
CONTINUOUS
 10
224.1770752629
 20
239.7197905087
 40
3.0
100
AcDbArc
 50
0.0
 51
90.0
  0
ARC
  5
49B
100
AcDbEntity
  8
RUNDUNGEN
100
AcDbCircle
 62
7
  6
CONTINUOUS
 10
229.6770752629
 20
229.9197905087
 40
1.0
100
AcDbArc
 50
0.0
 51
78.8048086357
  0
ARC
  5
49C
100
AcDbEntity
  8
0
100
AcDbCircle
 62
7
  6
CONTINUOUS
 10
188.1770752629
 20
368.2197905087
 40
47.0
100
AcDbArc
 50
0.0
 51
180.0
  0
ARC
  5
49D
100
AcDbEntity
  8
0
100
AcDbCircle
 62
7
  6
CONTINUOUS
 10
188.1770752629
 20
303.2197905087
 40
47.0
100
AcDbArc
 50
284.009996342
 51
360.0
  0
ARC
  5
49E
100
AcDbEntity
  8
0
100
AcDbCircle
 62
7
  6
CONTINUOUS
 10
188.1770752629
 20
303.2197905087
 40
47.0
100
AcDbArc
 50
180.0
 51
255.990003658
  0
ARC
  5
49F
100
AcDbEntity
  8
0
100
AcDbCircle
 62
7
  6
CONTINUOUS
 10
188.1770752629
 20
303.2197905087
 40
25.0
100
AcDbArc
 50
289.2776451524
 51
360.0
  0
ARC
  5
4A0
100
AcDbEntity
  8
0
100
AcDbCircle
 62
7
  6
CONTINUOUS
 10
188.1770752629
 20
303.2197905087
 40
25.0
100
AcDbArc
 50
180.0
 51
250.7223548476
  0
ARC
  5
4A1
100
AcDbEntity
  8
0
100
AcDbCircle
 62
7
  6
CONTINUOUS
 10
188.1770752629
 20
368.2197905087
 40
25.0
100
AcDbArc
 50
0.0
 51
180.0
  0
ARC
  5
4A2
100
AcDbEntity
  8
RUNDUNGEN
100
AcDbCircle
 62
7
  6
CONTINUOUS
 10
192.4270752629
 20
298.8902217075
 40
4.0
100
AcDbArc
 50
0.0
 51
90.0
  0
ARC
  5
4A3
100
AcDbEntity
  8
BEZUGSACHSEN
100
AcDbCircle
 62
7
  6
CONTINUOUS
 10
282.9275020304
 20
246.7197905087
 40
4.0
100
AcDbArc
 50
282.332106863
 51
22.5
  0
ARC
  5
4A4
100
AcDbEntity
  8
BEZUGSACHSEN
100
AcDbCircle
 62
7
  6
CONTINUOUS
 10
284.7521158536
 20
263.2197905087
 40
4.0
100
AcDbArc
 50
157.5
 51
202.5
  0
ARC
  5
4A5
100
AcDbEntity
  8
BEZUGSACHSEN
100
AcDbCircle
 62
7
  6
CONTINUOUS
 10
295.1997432639
 20
288.4425942972
 40
4.0
100
AcDbArc
 50
112.5
 51
157.5
  0
ARC
  5
4A6
100
AcDbEntity
  8
BEZUGSACHSEN
100
AcDbCircle
 62
7
  6
CONTINUOUS
 10
284.4225472751
 20
239.8812969648
 40
3.0000047214
100
AcDbArc
 50
102.3320652177
 51
179.9997855581
  0
ARC
  5
4A7
100
AcDbEntity
  8
RUNDUNGEN
100
AcDbCircle
 62
7
  6
CONTINUOUS
 10
309.4225470524
 20
180.9197905087
 40
4.0
100
AcDbArc
 50
180.0
 51
270.0
  0
ARC
  5
4A8
100
AcDbEntity
  8
RUNDUNGEN
100
AcDbCircle
 62
7
  6
CONTINUOUS
 10
309.4225470524
 20
205.9197905087
 40
4.0
100
AcDbArc
 50
90.0
 51
180.0
  0
ARC
  5
4A9
100
AcDbEntity
  8
RUNDUNGEN
100
AcDbCircle
 62
7
  6
CONTINUOUS
 10
312.9225470524
 20
213.9197905087
 40
4.0
100
AcDbArc
 50
180.0
 51
270.0
  0
ARC
  5
4AA
100
AcDbEntity
  8
RUNDUNGEN
100
AcDbCircle
 62
7
  6
CONTINUOUS
 10
320.4225470524
 20
220.9197905087
 40
11.5
100
AcDbArc
 50
0.0
 51
180.0
  0
ARC
  5
4AB
100
AcDbEntity
  8
RUNDUNGEN
100
AcDbCircle
 62
7
  6
CONTINUOUS
 10
331.4225470524
 20
180.9197905087
 40
4.0
100
AcDbArc
 50
270.0
 51
360.0
  0
ARC
  5
4AC
100
AcDbEntity
  8
RUNDUNGEN
100
AcDbCircle
 62
7
  6
CONTINUOUS
 10
331.4225470524
 20
205.9197905087
 40
4.0
100
AcDbArc
 50
0.0
 51
90.0
  0
ARC
  5
4AD
100
AcDbEntity
  8
RUNDUNGEN
100
AcDbCircle
 62
7
  6
CONTINUOUS
 10
327.9225470524
 20
213.9197905087
 40
4.0
100
AcDbArc
 50
270.0
 51
360.0
  0
ARC
  5
4AE
100
AcDbEntity
  8
RUNDUNGEN
100
AcDbCircle
 62
7
  6
CONTINUOUS
 10
320.4225470524
 20
263.2197905087
 40
15.0
100
AcDbArc
 50
0.4242367946
 51
13.9702495527
  0
ARC
  5
4AF
100
AcDbEntity
  8
BEZUGSACHSEN
100
AcDbCircle
 62
7
  6
CONTINUOUS
 10
320.4225470524
 20
263.2197905087
 40
15.0
100
AcDbArc
 50
137.2180464033
 51
42.7723426968
  0
ARC
  5
4B0
100
AcDbEntity
  8
0
100
AcDbCircle
 62
7
  6
CONTINUOUS
 10
320.4225470524
 20
267.2197905087
 40
11.0
100
AcDbArc
 50
180.0
 51
360.0
  0
ARC
  5
4B1
100
AcDbEntity
  8
RUNDUNGEN
100
AcDbCircle
 62
7
  6
CONTINUOUS
 10
356.0929782512
 20
263.2197905087
 40
4.0
100
AcDbArc
 50
5.040519199
 51
9.9249493183
  0
ARC
  5
4B2
100
AcDbEntity
  8
BEZUGSACHSEN
100
AcDbCircle
 62
7
  6
CONTINUOUS
 10
345.645350841
 20
288.4425942972
 40
4.0
100
AcDbArc
 50
22.5
 51
67.5
  0
ARC
  5
4B3
100
AcDbEntity
  8
BEZUGSACHSEN
100
AcDbCircle
 62
7
  6
CONTINUOUS
 10
356.0929782512
 20
263.2197905087
 40
4.0
100
AcDbArc
 50
337.5
 51
22.5
  0
ARC
  5
4B4
100
AcDbEntity
  8
RUNDUNGEN
100
AcDbCircle
 62
7
  6
CONTINUOUS
 10
357.9175920744
 20
246.7197905087
 40
4.0
100
AcDbArc
 50
157.5
 51
245.4801555483
  0
ARC
  5
4B5
100
AcDbEntity
  8
BEZUGSACHSEN
100
AcDbCircle
 62
7
  6
CONTINUOUS
 10
357.9175920744
 20
246.7197905087
 40
4.0
100
AcDbArc
 50
157.5
 51
257.6678931371
  0
ARC
  5
4B6
100
AcDbEntity
  8
BEZUGSACHSEN
100
AcDbCircle
 62
7
  6
CONTINUOUS
 10
356.4225468297
 20
239.8812969648
 40
3.0000047214
100
AcDbArc
 50
0.0002144419
 51
77.6679347823
  0
ARC
  5
4B7
100
AcDbEntity
  8
0
100
AcDbCircle
 62
7
  6
CONTINUOUS
 10
320.4225470524
 20
404.2197905087
 40
11.0
100
AcDbArc
 50
0.0
 51
180.0
  0
ARC
  5
4B8
100
AcDbEntity
  8
BEZUGSACHSEN
100
AcDbCircle
 62
7
  6
CONTINUOUS
 10
183.09187565
 20
19.6582912222
 40
4.0
100
AcDbArc
 50
221.3390357997
 51
270.0
  0
ARC
  5
4B9
100
AcDbEntity
  8
RUNDUNGEN
100
AcDbCircle
 62
7
  6
CONTINUOUS
 10
144.6735747395
 20
42.8332326596
 40
1.0037830543
100
AcDbArc
 50
16.1784640851
 51
89.8001906719
  0
ARC
  5
4BA
100
AcDbEntity
  8
RUNDUNGEN
100
AcDbCircle
 62
7
  6
CONTINUOUS
 10
144.1770752629
 20
44.828722421
 40
1.0
100
AcDbArc
 50
180.0
 51
270.0
  0
ARC
  5
4BB
100
AcDbEntity
  8
RUNDUNGEN
100
AcDbCircle
 62
7
  6
CONTINUOUS
 10
144.6770752629
 20
42.828722421
 40
1.0
100
AcDbArc
 50
7.0140100876
 51
90.0
  0
ARC
  5
4BC
100
AcDbEntity
  8
0
100
AcDbCircle
 62
7
  6
CONTINUOUS
 10
152.1770752629
 20
55.328722421
 40
11.0
100
AcDbArc
 50
90.0
 51
270.0
  0
ARC
  5
4BD
100
AcDbEntity
  8
BEZUGSACHSEN
100
AcDbCircle
 62
7
  6
CONTINUOUS
 10
183.09187565
 20
90.9991536199
 40
4.0
100
AcDbArc
 50
90.0
 51
138.6609642003
  0
ARC
  5
4BE
100
AcDbEntity
  8
RUNDUNGEN
100
AcDbCircle
 62
7
  6
CONTINUOUS
 10
144.6735742174
 20
67.8242139613
 40
1.0037844349
100
AcDbArc
 50
270.1998387801
 51
343.8212060223
  0
ARC
  5
4BF
100
AcDbEntity
  8
RUNDUNGEN
100
AcDbCircle
 62
7
  6
CONTINUOUS
 10
144.1770752629
 20
65.828722421
 40
1.0
100
AcDbArc
 50
90.0
 51
180.0
  0
ARC
  5
4C0
100
AcDbEntity
  8
RUNDUNGEN
100
AcDbCircle
 62
7
  6
CONTINUOUS
 10
144.6770752629
 20
67.828722421
 40
1.0
100
AcDbArc
 50
270.0
 51
352.9859899124
  0
ARC
  5
4C1
100
AcDbEntity
  8
RUNDUNGEN
100
AcDbCircle
 62
7
  6
CONTINUOUS
 10
193.2622748757
 20
19.6582912222
 40
4.0
100
AcDbArc
 50
270.0
 51
318.6609642003
  0
ARC
  5
4C2
100
AcDbEntity
  8
RUNDUNGEN
100
AcDbCircle
 62
7
  6
CONTINUOUS
 10
229.6770752629
 20
34.9408817427
 40
1.0
100
AcDbArc
 50
270.0
 51
360.0
  0
ARC
  5
4C3
100
AcDbEntity
  8
RUNDUNGEN
100
AcDbCircle
 62
7
  6
CONTINUOUS
 10
188.1770752629
 20
55.328722421
 40
42.2414377703
100
AcDbArc
 50
193.3311371748
 51
270.0
  0
ARC
  5
4C4
100
AcDbEntity
  8
FASEN
100
AcDbCircle
 62
7
  6
CONTINUOUS
 10
188.1770752629
 20
55.328722421
 40
42.2414377703
100
AcDbArc
 50
13.3133790093
 51
90.0
  0
ARC
  5
4C5
100
AcDbEntity
  8
FASEN
100
AcDbCircle
 62
7
  6
CONTINUOUS
 10
188.1770752629
 20
55.328722421
 40
42.2414377703
100
AcDbArc
 50
270.0
 51
346.6866209822
  0
ARC
  5
4C6
100
AcDbEntity
  8
RUNDUNGEN
100
AcDbCircle
 62
7
  6
CONTINUOUS
 10
188.1770752629
 20
55.328722421
 40
42.2414377703
100
AcDbArc
 50
90.0
 51
166.6688697797
  0
ARC
  5
4C7
100
AcDbEntity
  8
FASEN
100
AcDbCircle
 62
7
  6
CONTINUOUS
 10
188.1770752629
 20
55.328722421
 40
40.4809655038
100
AcDbArc
 50
15.1139419597
 51
164.8860580414
  0
ARC
  5
4C8
100
AcDbEntity
  8
FASEN
100
AcDbCircle
 62
7
  6
CONTINUOUS
 10
188.1770752629
 20
55.328722421
 40
40.4809655038
100
AcDbArc
 50
195.1139419597
 51
344.8860580414
  0
ARC
  5
4C9
100
AcDbEntity
  8
0
100
AcDbCircle
 62
7
  6
CONTINUOUS
 10
188.1770752629
 20
55.328722421
 40
39.5
100
AcDbArc
 50
15.8859358176
 51
78.8880412252
  0
ARC
  5
4CA
100
AcDbEntity
  8
0
100
AcDbCircle
 62
7
  6
CONTINUOUS
 10
188.1770752629
 20
55.328722421
 40
39.5
100
AcDbArc
 50
281.1119587748
 51
344.1140641824
  0
ARC
  5
4CB
100
AcDbEntity
  8
0
100
AcDbCircle
 62
7
  6
CONTINUOUS
 10
188.1770752629
 20
55.328722421
 40
39.5
100
AcDbArc
 50
195.8859358176
 51
258.8880412252
  0
ARC
  5
4CC
100
AcDbEntity
  8
0
100
AcDbCircle
 62
7
  6
CONTINUOUS
 10
188.1770752629
 20
55.328722421
 40
39.5
100
AcDbArc
 50
101.1119587748
 51
164.1140641824
  0
ARC
  5
4CD
100
AcDbEntity
  8
BEZUGSACHSEN
100
AcDbCircle
 62
7
  6
CONTINUOUS
 10
188.1770752629
 20
55.328722421
 40
39.0
100
AcDbArc
 50
282.2341912437
 51
286.0889049186
  0
ARC
  5
4CE
100
AcDbEntity
  8
RUNDUNGEN
100
AcDbCircle
 62
7
  6
CONTINUOUS
 10
188.1770752629
 20
55.328722421
 40
39.0
100
AcDbArc
 50
286.0889049186
 51
302.1721456435
  0
ARC
  5
4CF
100
AcDbEntity
  8
BEZUGSACHSEN
100
AcDbCircle
 62
7
  6
CONTINUOUS
 10
188.1770752629
 20
55.328722421
 40
39.0
100
AcDbArc
 50
16.2602606704
 51
77.7658087563
  0
ARC
  5
4D0
100
AcDbEntity
  8
BEZUGSACHSEN
100
AcDbCircle
 62
7
  6
CONTINUOUS
 10
188.1770752629
 20
55.328722421
 40
39.0
100
AcDbArc
 50
302.1721456435
 51
343.7397393296
  0
ARC
  5
4D1
100
AcDbEntity
  8
BEZUGSACHSEN
100
AcDbCircle
 62
7
  6
CONTINUOUS
 10
188.1770752629
 20
55.328722421
 40
39.0
100
AcDbArc
 50
102.2341912437
 51
163.7614696725
  0
ARC
  5
4D2
100
AcDbEntity
  8
BEZUGSACHSEN
100
AcDbCircle
 62
7
  6
CONTINUOUS
 10
188.1770752629
 20
55.328722421
 40
39.0
100
AcDbArc
 50
196.2385303275
 51
257.7658087563
  0
ARC
  5
4D3
100
AcDbEntity
  8
BEZUGSACHSEN
100
AcDbCircle
 62
7
  6
CONTINUOUS
 10
193.2622748757
 20
90.9991536199
 40
4.0
100
AcDbArc
 50
41.3390357997
 51
90.0
  0
ARC
  5
4D4
100
AcDbEntity
  8
0
100
AcDbCircle
 62
7
  6
CONTINUOUS
 10
224.1770752629
 20
55.328722421
 40
11.0
100
AcDbArc
 50
270.0
 51
90.0
  0
ARC
  5
4D5
100
AcDbEntity
  8
RUNDUNGEN
100
AcDbCircle
 62
7
  6
CONTINUOUS
 10
229.6770752629
 20
75.7165630994
 40
1.0
100
AcDbArc
 50
0.0
 51
90.0
  0
SPLINE
  5
4D6
100
AcDbEntity
  8
RUNDUNGEN
100
AcDbSpline
 62
7
  6
CONTINUOUS
 70
0
 71
3
 72
11
 73
7
 74
0
 42
0.0000001
 43
0.0000001
 44
0.0000000001
 40
0.0
 40
0.0
 40
0.0
 40
0.0
 40
0.2585654213
 40
0.4999999999
 40
0.7414345788
 40
1.0
 40
1.0
 40
1.0
 40
1.0
 10
230.6770752629
 20
202.4760212994
 30
0.0
 10
230.4675897894
 20
202.6122395322
 30
0.0
 10
230.0319659256
 20
202.8353557444
 30
0.0
 10
229.3132819426
 20
202.9605614521
 30
0.0
 10
228.5945979597
 20
202.8353557446
 30
0.0
 10
228.1589740958
 20
202.6122395322
 30
0.0
 10
227.9494886224
 20
202.4760212994
 30
0.0
  0
SPLINE
  5
4D7
100
AcDbEntity
  8
BEZUGSACHSEN
100
AcDbSpline
 62
7
  6
CONTINUOUS
 70
0
 71
3
 72
33
 73
29
 74
0
 42
0.0000001
 43
0.0000001
 44
0.0000000001
 40
0.0
 40
0.0
 40
0.0
 40
0.0
 40
0.0644159052
 40
0.1286674439
 40
0.192691137
 40
0.2563811699
 40
0.2880503051
 40
0.3195542496
 40
0.3508378205
 40
0.3818180036
 40
0.4123691913
 40
0.4423106327
 40
0.4714566548
 40
0.4857814155
 40
0.5000000186
 40
0.5142186239
 40
0.5285433766
 40
0.5576893768
 40
0.5876308192
 40
0.6181820013
 40
0.6491621833
 40
0.6804457525
 40
0.711949696
 40
0.7436188309
 40
0.8073088632
 40
0.8713325559
 40
0.9355840941
 40
1.0
 40
1.0
 40
1.0
 40
1.0
 10
227.9494886224
 20
202.4760212994
 30
0.0
 10
227.456908546
 20
203.926081154
 30
0.0
 10
226.445073967
 20
206.81313884
 30
0.0
 10
224.8251967705
 20
211.0989049623
 30
0.0
 10
223.0770057696
 20
215.3155678631
 30
0.0
 10
221.4763285856
 20
218.7522836912
 30
0.0
 10
220.074864981
 20
221.4236430727
 30
0.0
 10
218.9534293163
 20
223.3700647898
 30
0.0
 10
217.743446181
 20
225.2438468086
 30
0.0
 10
216.4232260494
 20
227.0146203557
 30
0.0
 10
214.9632996808
 20
228.6326452974
 30
0.0
 10
213.3295405785
 20
230.0139064148
 30
0.0
 10
211.7744984514
 20
230.8534071424
 30
0.0
 10
210.4450204606
 20
231.2140644926
 30
0.0
 10
209.4270738917
 20
231.3071518821
 30
0.0
 10
208.4091276833
 20
231.2140634537
 30
0.0
 10
207.0796502319
 20
230.853406718
 30
0.0
 10
205.5246091078
 20
230.0139054422
 30
0.0
 10
203.8908504746
 20
228.6326448748
 30
0.0
 10
202.4309242583
 20
227.0146199431
 30
0.0
 10
201.1107042461
 20
225.243846569
 30
0.0
 10
199.9007211635
 20
223.3700646237
 30
0.0
 10
198.7792854765
 20
221.4236430031
 30
0.0
 10
197.3778219378
 20
218.7522836391
 30
0.0
 10
195.7771447465
 20
215.3155678498
 30
0.0
 10
194.0289537692
 20
211.0989049753
 30
0.0
 10
192.40907654
 20
206.8131388689
 30
0.0
 10
191.3972419848
 20
203.9260811692
 30
0.0
 10
190.9046619033
 20
202.4760212994
 30
0.0
  0
SPLINE
  5
4D8
100
AcDbEntity
  8
RUNDUNGEN
100
AcDbSpline
 62
7
  6
CONTINUOUS
 70
0
 71
3
 72
11
 73
7
 74
0
 42
0.0000001
 43
0.0000001
 44
0.0000000001
 40
0.0
 40
0.0
 40
0.0
 40
0.0
 40
0.2500215334
 40
0.500000001
 40
0.749978467
 40
1.0
 40
1.0
 40
1.0
 40
1.0
 10
190.9046619033
 20
202.4760212994
 30
0.0
 10
190.4652470688
 20
202.618886366
 30
0.0
 10
189.5644256266
 20
202.8424737665
 30
0.0
 10
188.1770752601
 20
202.9584013507
 30
0.0
 10
186.7897248945
 20
202.8424737663
 30
0.0
 10
185.8889034562
 20
202.6188863658
 30
0.0
 10
185.4494886224
 20
202.4760212994
 30
0.0
  0
SPLINE
  5
4D9
100
AcDbEntity
  8
BEZUGSACHSEN
100
AcDbSpline
 62
7
  6
CONTINUOUS
 70
0
 71
3
 72
33
 73
29
 74
0
 42
0.0000001
 43
0.0000001
 44
0.0000000001
 40
0.0
 40
0.0
 40
0.0
 40
0.0
 40
0.0644159052
 40
0.1286674439
 40
0.192691137
 40
0.2563811699
 40
0.2880503051
 40
0.3195542496
 40
0.3508378205
 40
0.3818180036
 40
0.4123691913
 40
0.4423106327
 40
0.4714566548
 40
0.4857814155
 40
0.5000000186
 40
0.5142186239
 40
0.5285433766
 40
0.5576893768
 40
0.5876308192
 40
0.6181820013
 40
0.6491621833
 40
0.6804457525
 40
0.711949696
 40
0.7436188309
 40
0.8073088632
 40
0.8713325559
 40
0.9355840941
 40
1.0
 40
1.0
 40
1.0
 40
1.0
 10
185.4494886224
 20
202.4760212994
 30
0.0
 10
184.956908546
 20
203.926081154
 30
0.0
 10
183.945073967
 20
206.81313884
 30
0.0
 10
182.3251967705
 20
211.0989049623
 30
0.0
 10
180.5770057696
 20
215.3155678631
 30
0.0
 10
178.9763285856
 20
218.7522836912
 30
0.0
 10
177.574864981
 20
221.4236430727
 30
0.0
 10
176.4534293163
 20
223.3700647898
 30
0.0
 10
175.243446181
 20
225.2438468086
 30
0.0
 10
173.9232260494
 20
227.0146203557
 30
0.0
 10
172.4632996808
 20
228.6326452974
 30
0.0
 10
170.8295405785
 20
230.0139064148
 30
0.0
 10
169.2744984514
 20
230.8534071424
 30
0.0
 10
167.9450204606
 20
231.2140644926
 30
0.0
 10
166.9270738917
 20
231.3071518821
 30
0.0
 10
165.9091276833
 20
231.2140634537
 30
0.0
 10
164.5796502319
 20
230.853406718
 30
0.0
 10
163.0246091078
 20
230.0139054422
 30
0.0
 10
161.3908504746
 20
228.6326448748
 30
0.0
 10
159.9309242583
 20
227.0146199431
 30
0.0
 10
158.6107042461
 20
225.243846569
 30
0.0
 10
157.4007211635
 20
223.3700646237
 30
0.0
 10
156.2792854765
 20
221.4236430031
 30
0.0
 10
154.8778219378
 20
218.7522836391
 30
0.0
 10
153.2771447465
 20
215.3155678498
 30
0.0
 10
151.5289537692
 20
211.0989049753
 30
0.0
 10
149.90907654
 20
206.8131388689
 30
0.0
 10
148.8972419848
 20
203.9260811692
 30
0.0
 10
148.4046619033
 20
202.4760212994
 30
0.0
  0
SPLINE
  5
4DA
100
AcDbEntity
  8
BEZUGSACHSEN
100
AcDbSpline
 62
7
  6
CONTINUOUS
 70
0
 71
3
 72
11
 73
7
 74
0
 42
0.0000001
 43
0.0000001
 44
0.0000000001
 40
0.0
 40
0.0
 40
0.0
 40
0.0
 40
0.2585654213
 40
0.4999999999
 40
0.7414345788
 40
1.0
 40
1.0
 40
1.0
 40
1.0
 10
148.4046619033
 20
202.4760212994
 30
0.0
 10
148.1951764299
 20
202.6122395322
 30
0.0
 10
147.759552566
 20
202.8353557444
 30
0.0
 10
147.0408685831
 20
202.9605614521
 30
0.0
 10
146.3221846002
 20
202.8353557446
 30
0.0
 10
145.8865607362
 20
202.6122395322
 30
0.0
 10
145.6770752629
 20
202.4760212994
 30
0.0
  0
SPLINE
  5
4DB
100
AcDbEntity
  8
RUNDUNGEN
100
AcDbSpline
 62
7
  6
CONTINUOUS
 70
0
 71
3
 72
12
 73
8
 74
0
 42
0.0000001
 43
0.0000001
 44
0.0000000001
 40
0.0
 40
0.0
 40
0.0
 40
0.0
 40
0.1335296893
 40
0.2450474135
 40
0.3759934941
 40
0.6739079531
 40
1.0
 40
1.0
 40
1.0
 40
1.0
 10
145.6376008862
 20
221.3020970686
 30
0.0
 10
145.648400909
 20
221.3025973595
 30
0.0
 10
145.660366656
 20
221.277932553
 30
0.0
 10
145.666218806
 20
221.2505490275
 30
0.0
 10
145.6727878262
 20
221.2063089444
 30
0.0
 10
145.67625298
 20
221.1457472219
 30
0.0
 10
145.6770752629
 20
221.0950739931
 30
0.0
 10
145.6770752629
 20
221.0686710401
 30
0.0
  0
SPLINE
  5
4DC
100
AcDbEntity
  8
RUNDUNGEN
100
AcDbSpline
 62
7
  6
CONTINUOUS
 70
0
 71
3
 72
11
 73
7
 74
0
 42
0.0000001
 43
0.0000001
 44
0.0000000001
 40
0.0
 40
0.0
 40
0.0
 40
0.0
 40
0.3296507496
 40
0.6253258954
 40
0.8567691721
 40
1.0
 40
1.0
 40
1.0
 40
1.0
 10
144.6770752629
 20
221.3563483898
 30
0.0
 10
144.7824367608
 20
221.3473450041
 30
0.0
 10
144.9823882748
 20
221.3313843081
 30
0.0
 10
145.2566672073
 20
221.3131420432
 30
0.0
 10
145.4713930424
 20
221.3031466821
 30
0.0
 10
145.5916990209
 20
221.2999720024
 30
0.0
 10
145.6375954375
 20
221.3020980682
 30
0.0
  0
SPLINE
  5
4DD
100
AcDbEntity
  8
BEZUGSACHSEN
100
AcDbSpline
 62
7
  6
CONTINUOUS
 70
0
 71
3
 72
39
 73
35
 74
0
 42
0.0000001
 43
0.0000001
 44
0.0000000001
 40
0.0
 40
0.0
 40
0.0
 40
0.0
 40
0.0699849216
 40
0.1393907378
 40
0.2079896624
 40
0.2418771932
 40
0.2753994466
 40
0.3084552343
 40
0.3409011518
 40
0.3725211634
 40
0.4029803986
 40
0.431745656
 40
0.4452532263
 40
0.4580027757
 40
0.4698578825
 40
0.4807244565
 40
0.4906613477
 40
0.5000000125
 40
0.50933868
 40
0.5192755658
 40
0.5301421343
 40
0.5419972327
 40
0.5547467785
 40
0.5682543541
 40
0.5970196065
 40
0.6274788407
 40
0.6590988505
 40
0.6915447668
 40
0.7246005542
 40
0.7581228073
 40
0.7920103377
 40
0.860609262
 40
0.9300150777
 40
1.0
 40
1.0
 40
1.0
 40
1.0
 10
367.9225470524
 20
202.4760212994
 30
0.0
 10
367.6388147529
 20
203.9227213364
 30
0.0
 10
367.056551986
 20
206.8008425906
 30
0.0
 10
366.122567329
 20
211.0817121879
 30
0.0
 10
365.2801415822
 20
214.6037364385
 30
0.0
 10
364.5551985134
 20
217.3756931703
 30
0.0
 10
363.9848073587
 20
219.4138569067
 30
0.0
 10
363.3802446383
 20
221.4105151238
 30
0.0
 10
362.7348401606
 20
223.3522655387
 30
0.0
 10
362.0399222956
 20
225.2189543932
 30
0.0
 10
361.2843896441
 20
226.9780535798
 30
0.0
 10
360.5791994256
 20
228.3412455531
 30
0.0
 10
359.9554810813
 20
229.3192307827
 30
0.0
 10
359.4705053494
 20
229.9604603569
 30
0.0
 10
358.9564587146
 20
230.5055128263
 30
0.0
 10
358.4112304403
 20
230.9309769142
 30
0.0
 10
357.8332631531
 20
231.2095259035
 30
0.0
 10
357.2286258631
 20
231.3085020909
 30
0.0
 10
356.6239889716
 20
231.2095248648
 30
0.0
 10
356.0460217318
 20
230.9309763049
 30
0.0
 10
355.500793931
 20
230.505512179
 30
0.0
 10
354.9867478177
 20
229.9604597705
 30
0.0
 10
354.5017719535
 20
229.3192304707
 30
0.0
 10
353.8780539547
 20
228.341245089
 30
0.0
 10
353.1728636197
 20
226.9780532192
 30
0.0
 10
352.4173310877
 20
225.2189541461
 30
0.0
 10
351.722413238
 20
223.3522653826
 30
0.0
 10
351.0770087466
 20
221.4105150433
 30
0.0
 10
350.4724460583
 20
219.4138568571
 30
0.0
 10
349.9020549134
 20
217.3756931381
 30
0.0
 10
349.1771118398
 20
214.6037364298
 30
0.0
 10
348.3346861067
 20
211.0817122039
 30
0.0
 10
347.4007014286
 20
206.8008426145
 30
0.0
 10
346.8184386767
 20
203.9227213525
 30
0.0
 10
346.5347063741
 20
202.4760212994
 30
0.0
  0
SPLINE
  5
4DE
100
AcDbEntity
  8
BEZUGSACHSEN
100
AcDbSpline
 62
7
  6
CONTINUOUS
 70
0
 71
3
 72
11
 73
7
 74
0
 42
0.0000001
 43
0.0000001
 44
0.0000000001
 40
0.0
 40
0.0
 40
0.0
 40
0.0
 40
0.2510416665
 40
0.4999999999
 40
0.7489583336
 40
1.0
 40
1.0
 40
1.0
 40
1.0
 10
346.5347063741
 20
202.4760212994
 30
0.0
 10
346.1565763773
 20
202.6179799403
 30
0.0
 10
345.3790684865
 20
202.8416850787
 30
0.0
 10
344.1725470524
 20
202.958680504
 30
0.0
 10
342.9660256185
 20
202.8416850789
 30
0.0
 10
342.1885177274
 20
202.6179799402
 30
0.0
 10
341.8103877307
 20
202.4760212994
 30
0.0
  0
SPLINE
  5
4DF
100
AcDbEntity
  8
RUNDUNGEN
100
AcDbSpline
 62
7
  6
CONTINUOUS
 70
0
 71
3
 72
11
 73
7
 74
0
 42
0.0000001
 43
0.0000001
 44
0.0000000001
 40
0.0
 40
0.0
 40
0.0
 40
0.0
 40
0.2500130656
 40
0.500022105
 40
0.7500225516
 40
1.0
 40
1.0
 40
1.0
 40
1.0
 10
341.8103877307
 20
202.4760212994
 30
0.0
 10
341.1824713747
 20
204.0768376624
 30
0.0
 10
339.8886382347
 20
207.2637488285
 30
0.0
 10
337.8029445126
 20
211.9831002049
 30
0.0
 10
335.5265070475
 20
216.6136151267
 30
0.0
 10
333.8328389327
 20
219.6106575826
 30
0.0
 10
332.9216604045
 20
221.0686710401
 30
0.0
  0
SPLINE
  5
4E0
100
AcDbEntity
  8
RUNDUNGEN
100
AcDbSpline
 62
7
  6
CONTINUOUS
 70
0
 71
3
 72
9
 73
5
 74
0
 42
0.0000001
 43
0.0000001
 44
0.0000000001
 40
0.0
 40
0.0
 40
0.0
 40
0.0
 40
0.4909302425
 40
1.0
 40
1.0
 40
1.0
 40
1.0
 10
332.6383542364
 20
221.3020970686
 30
0.0
 10
332.6999743327
 20
221.3029237855
 30
0.0
 10
332.8175806912
 20
221.2239334078
 30
0.0
 10
332.8877941952
 20
221.1228617255
 30
0.0
 10
332.9216604045
 20
221.0686710401
 30
0.0
  0
SPLINE
  5
4E1
100
AcDbEntity
  8
RUNDUNGEN
100
AcDbSpline
 62
7
  6
CONTINUOUS
 70
0
 71
3
 72
9
 73
5
 74
0
 42
0.0000001
 43
0.0000001
 44
0.0000000001
 40
0.0
 40
0.0
 40
0.0
 40
0.0
 40
0.5090629849
 40
1.0
 40
1.0
 40
1.0
 40
1.0
 10
307.9234337004
 20
221.0686710401
 30
0.0
 10
307.9573005865
 20
221.1228628084
 30
0.0
 10
308.0275197142
 20
221.2239310915
 30
0.0
 10
308.1451218057
 20
221.3029429827
 30
0.0
 10
308.2067447839
 20
221.3021147893
 30
0.0
  0
SPLINE
  5
4E2
100
AcDbEntity
  8
RUNDUNGEN
100
AcDbSpline
 62
7
  6
CONTINUOUS
 70
0
 71
3
 72
11
 73
7
 74
0
 42
0.0000001
 43
0.0000001
 44
0.0000000001
 40
0.0
 40
0.0
 40
0.0
 40
0.0
 40
0.2499774494
 40
0.4999778964
 40
0.7499869363
 40
1.0
 40
1.0
 40
1.0
 40
1.0
 10
307.9234337004
 20
221.0686710401
 30
0.0
 10
307.0122551684
 20
219.6106575766
 30
0.0
 10
305.3185870362
 20
216.6136151191
 30
0.0
 10
303.0421495925
 20
211.9831001724
 30
0.0
 10
300.9564558317
 20
207.2637488206
 30
0.0
 10
299.6626227255
 20
204.0768376505
 30
0.0
 10
299.0347063741
 20
202.4760212994
 30
0.0
  0
SPLINE
  5
4E3
100
AcDbEntity
  8
BEZUGSACHSEN
100
AcDbSpline
 62
7
  6
CONTINUOUS
 70
0
 71
3
 72
11
 73
7
 74
0
 42
0.0000001
 43
0.0000001
 44
0.0000000001
 40
0.0
 40
0.0
 40
0.0
 40
0.0
 40
0.2510416665
 40
0.4999999999
 40
0.7489583336
 40
1.0
 40
1.0
 40
1.0
 40
1.0
 10
299.0347063741
 20
202.4760212994
 30
0.0
 10
298.6565763773
 20
202.6179799403
 30
0.0
 10
297.8790684865
 20
202.8416850787
 30
0.0
 10
296.6725470524
 20
202.958680504
 30
0.0
 10
295.4660256185
 20
202.8416850789
 30
0.0
 10
294.6885177274
 20
202.6179799402
 30
0.0
 10
294.3103877307
 20
202.4760212994
 30
0.0
  0
SPLINE
  5
4E4
100
AcDbEntity
  8
BEZUGSACHSEN
100
AcDbSpline
 62
7
  6
CONTINUOUS
 70
0
 71
3
 72
39
 73
35
 74
0
 42
0.0000001
 43
0.0000001
 44
0.0000000001
 40
0.0
 40
0.0
 40
0.0
 40
0.0
 40
0.0699849216
 40
0.1393907378
 40
0.2079896624
 40
0.2418771932
 40
0.2753994466
 40
0.3084552343
 40
0.3409011518
 40
0.3725211634
 40
0.4029803986
 40
0.431745656
 40
0.4452532263
 40
0.4580027757
 40
0.4698578825
 40
0.4807244565
 40
0.4906613477
 40
0.5000000125
 40
0.50933868
 40
0.5192755658
 40
0.5301421343
 40
0.5419972327
 40
0.5547467785
 40
0.5682543541
 40
0.5970196065
 40
0.6274788407
 40
0.6590988505
 40
0.6915447668
 40
0.7246005542
 40
0.7581228073
 40
0.7920103377
 40
0.860609262
 40
0.9300150777
 40
1.0
 40
1.0
 40
1.0
 40
1.0
 10
294.3103877307
 20
202.4760212994
 30
0.0
 10
294.0266554312
 20
203.9227213364
 30
0.0
 10
293.4443926643
 20
206.8008425906
 30
0.0
 10
292.5104080073
 20
211.0817121879
 30
0.0
 10
291.6679822605
 20
214.6037364385
 30
0.0
 10
290.9430391918
 20
217.3756931703
 30
0.0
 10
290.372648037
 20
219.4138569067
 30
0.0
 10
289.7680853166
 20
221.4105151238
 30
0.0
 10
289.122680839
 20
223.3522655387
 30
0.0
 10
288.4277629739
 20
225.2189543932
 30
0.0
 10
287.6722303224
 20
226.9780535798
 30
0.0
 10
286.9670401039
 20
228.3412455531
 30
0.0
 10
286.3433217596
 20
229.3192307827
 30
0.0
 10
285.8583460277
 20
229.9604603569
 30
0.0
 10
285.344299393
 20
230.5055128263
 30
0.0
 10
284.7990711187
 20
230.9309769142
 30
0.0
 10
284.2211038314
 20
231.2095259035
 30
0.0
 10
283.6164665415
 20
231.3085020909
 30
0.0
 10
283.0118296499
 20
231.2095248648
 30
0.0
 10
282.4338624102
 20
230.9309763049
 30
0.0
 10
281.8886346093
 20
230.505512179
 30
0.0
 10
281.3745884961
 20
229.9604597705
 30
0.0
 10
280.8896126318
 20
229.3192304707
 30
0.0
 10
280.265894633
 20
228.341245089
 30
0.0
 10
279.560704298
 20
226.9780532192
 30
0.0
 10
278.805171766
 20
225.2189541461
 30
0.0
 10
278.1102539163
 20
223.3522653826
 30
0.0
 10
277.4648494249
 20
221.4105150433
 30
0.0
 10
276.8602867366
 20
219.4138568571
 30
0.0
 10
276.2898955917
 20
217.3756931381
 30
0.0
 10
275.5649525181
 20
214.6037364298
 30
0.0
 10
274.722526785
 20
211.0817122039
 30
0.0
 10
273.7885421069
 20
206.8008426145
 30
0.0
 10
273.2062793551
 20
203.9227213525
 30
0.0
 10
272.9225470524
 20
202.4760212994
 30
0.0
  0
SPLINE
  5
4E5
100
AcDbEntity
  8
RUNDUNGEN
100
AcDbSpline
 62
7
  6
CONTINUOUS
 70
0
 71
3
 72
14
 73
10
 74
0
 42
0.0000001
 43
0.0000001
 44
0.0000000001
 40
0.0
 40
0.0
 40
0.0
 40
0.0
 40
0.0257104478
 40
0.0811595635
 40
0.168697371
 40
0.2869348361
 40
0.4330766915
 40
0.6035926626
 40
1.0
 40
1.0
 40
1.0
 40
1.0
 10
331.914257857
 20
221.3563483898
 30
0.0
 10
331.9144964431
 20
221.3500732878
 30
0.0
 10
331.9358554544
 20
221.3378078532
 30
0.0
 10
331.9730153331
 20
221.3294322962
 30
0.0
 10
332.0376952074
 20
221.3192217332
 30
0.0
 10
332.1226954902
 20
221.3118777718
 30
0.0
 10
332.2290005008
 20
221.3058671952
 30
0.0
 10
332.4029964178
 20
221.3007656457
 30
0.0
 10
332.5415441927
 20
221.3007992096
 30
0.0
 10
332.6383558011
 20
221.3020980682
 30
0.0
  0
SPLINE
  5
4E6
100
AcDbEntity
  8
RUNDUNGEN
100
AcDbSpline
 62
7
  6
CONTINUOUS
 70
0
 71
3
 72
14
 73
10
 74
0
 42
0.0000001
 43
0.0000001
 44
0.0000000001
 40
0.0
 40
0.0
 40
0.0
 40
0.0
 40
0.0257320229
 40
0.0811853327
 40
0.1687157305
 40
0.2869487541
 40
0.4330876081
 40
0.6036001107
 40
1.0
 40
1.0
 40
1.0
 40
1.0
 10
308.9308362478
 20
221.3563483898
 30
0.0
 10
308.930597387
 20
221.3500679375
 30
0.0
 10
308.9092529786
 20
221.3377772848
 30
0.0
 10
308.8720777928
 20
221.3293910141
 30
0.0
 10
308.8073991708
 20
221.3192182648
 30
0.0
 10
308.7223991038
 20
221.3118804431
 30
0.0
 10
308.6160958452
 20
221.3058713763
 30
0.0
 10
308.4421003407
 20
221.3007785766
 30
0.0
 10
308.3035535005
 20
221.3008152026
 30
0.0
 10
308.2067423981
 20
221.3021163134
 30
0.0
  0
SPLINE
  5
4E7
100
AcDbEntity
  8
RUNDUNGEN
100
AcDbSpline
 62
7
  6
CONTINUOUS
 70
0
 71
3
 72
9
 73
5
 74
0
 42
0.0000001
 43
0.0000001
 44
0.0000000001
 40
0.0
 40
0.0
 40
0.0
 40
0.0
 40
0.1900424934
 40
1.0
 40
1.0
 40
1.0
 40
1.0
 10
145.6770752629
 20
67.8278357731
 30
0.0
 10
145.6770752629
 20
67.8096885164
 30
0.0
 10
145.6745786883
 20
67.7142453256
 30
0.0
 10
145.6591193243
 20
67.6188147728
 30
0.0
 10
145.6376027256
 20
67.5445246895
 30
0.0
  0
SPLINE
  5
4E8
100
AcDbEntity
  8
RUNDUNGEN
100
AcDbSpline
 62
7
  6
CONTINUOUS
 70
0
 71
3
 72
9
 73
5
 74
0
 42
0.0000001
 43
0.0000001
 44
0.0000000001
 40
0.0
 40
0.0
 40
0.0
 40
0.0
 40
0.3220575427
 40
1.0
 40
1.0
 40
1.0
 40
1.0
 10
145.6376008862
 20
43.112915237
 30
0.0
 10
145.646162064
 20
43.0833557426
 30
0.0
 10
145.6682669358
 20
42.9902782308
 30
0.0
 10
145.6770752629
 20
42.894390051
 30
0.0
 10
145.6770752629
 20
42.829609069
 30
0.0
  0
ELLIPSE
  5
4E9
100
AcDbEntity
  8
0
100
AcDbEllipse
 62
7
  6
CONTINUOUS
 10
170.9270752629
 20
84.426705488
 30
0.0
 11
9.0
 21
-0.0
 31
0.0
 40
0.1929705229
 41
-0.0
 42
0.0842979638
  0
ENDSEC
  0
SECTION
  2
OBJECTS
  0
DICTIONARY
  5
C
100
AcDbDictionary
280
0
281
1
  3
ACAD_GROUP
350
D
  3
ACAD_MLINESTYLE
350
17
  3
ACAD_LAYOUT
350
1A
  3
ACAD_PLOTSETTINGS
350
19
  3
ACAD_PLOTSTYLENAME
350
E
  0
DICTIONARY
  5
D
102
{ACAD_REACTORS
330
C
102
}
100
AcDbDictionary
280
0
281
1
  0
ACDBDICTIONARYWDFLT
  5
E
102
{ACAD_REACTORS
330
C
102
}
100
AcDbDictionary
281
1
  3
Normal
350
F
100
AcDbDictionaryWithDefault
340
F
  0
DICTIONARY
  5
17
102
{ACAD_REACTORS
330
C
102
}
100
AcDbDictionary
280
0
281
1
  3
Standard
350
18
  0
DICTIONARY
  5
19
102
{ACAD_REACTORS
330
C
102
}
100
AcDbDictionary
281
1
  0
DICTIONARY
  5
1A
102
{ACAD_REACTORS
330
C
102
}
100
AcDbDictionary
281
1
  3
Model
350
4EA
  3
Layout1
350
4EB
  0
ACDBPLACEHOLDER
  5
F
102
{ACAD_REACTORS
330
E
102
}
  0
MLINESTYLE
  5
18
102
{ACAD_REACTORS
330
17
102
}
100
AcDbMlineStyle
  2
STANDARD
 70
0
  3

 62
256
 51
90.0
 52
90.0
 71
2
 49
0.5
 62
256
  6
BYLAYER
 49
-0.5
 62
256
  6
BYLAYER
  0
LAYOUT
  5
4EA
102
{ACAD_REACTORS
330
1A
102
}
100
AcDbPlotSettings
  1

  2
none_device
  4
ISO_A2_(594.00_x_420.00_MM)
  6

 40
0.0
 41
0.0
 42
0.0
 43
0.0
 44
594.0
 45
420.0
 46
0.0
 47
0.0
 48
0.0
 49
0.0
140
0.0
141
0.0
142
1.0
143
1.0
 70
1024
 72
1
 73
0
 74
0
  7

 75
0
147
1.0
148
0.0
149
0.0
100
AcDbLayout
  1
Model
 70
0
 71
0
 10
0.0
 20
0.0
 11
594.0
 21
420.0
 12
0.0
 22
0.0
 32
0.0
 14
0.0
 24
0.0
 34
0.0
 15
0.0
 25
0.0
 35
0.0
146
0.0
 13
0.0
 23
0.0
 33
0.0
 16
1.0
 26
0.0
 36
0.0
 17
0.0
 27
1.0
 37
0.0
 76
0
330
216
345
0
346
0
  0
LAYOUT
  5
4EB
102
{ACAD_REACTORS
330
1A
102
}
100
AcDbPlotSettings
  1

  2
none_device
  4
ISO_A2_(594.00_x_420.00_MM)
  6

 40
0.0
 41
0.0
 42
0.0
 43
0.0
 44
594.0
 45
420.0
 46
0.0
 47
0.0
 48
0.0
 49
0.0
140
0.0
141
0.0
142
1.0
143
1.0
 70
0
 72
1
 73
0
 74
0
  7

 75
0
147
1.0
148
0.0
149
0.0
100
AcDbLayout
  1
Layout1
 70
0
 71
1
 10
0.0
 20
0.0
 11
594.0
 21
420.0
 12
0.0
 22
0.0
 32
0.0
 14
0.0
 24
0.0
 34
0.0
 15
0.0
 25
0.0
 35
0.0
146
0.0
 13
0.0
 23
0.0
 33
0.0
 16
1.0
 26
0.0
 36
0.0
 17
0.0
 27
1.0
 37
0.0
 76
0
330
217
345
0
346
0
  0
ENDSEC
  0
EOF
