999
DXF file: 001-m31712-p-50.dxf
999
Pro/ENGINEER 2011490 by Parametric Technology Corporation
  0
SECTION
  2
HEADER
  9
$ACADVER
  1
AC1015
  9
$DWGCODEPAGE
  3
ANSI_1252
  9
$EXTMAX
 10
594.0
 20
420.0
 30
0.0
  9
$EXTMIN
 10
0.0
 20
0.0
 30
0.0
  9
$LIMMIN
 10
0.0
 20
0.0
  9
$LIMMAX
 10
594.0
 20
420.0
  9
$VIEWCTR
 10
297.0
 20
210.0
  9
$VIEWSIZE
 40
420.0
  9
$CLAYER
  8
0
  9
$LTSCALE
 40
32.67
  9
$CELTYPE
  6
BYLAYER
  9
$DIMSCALE
 40
1.0
  9
$DIMASZ
 40
3.5
  9
$DIMEXO
 40
3.7125
  9
$DIMDLI
 40
22.572
  9
$DIMEXE
 40
10.692
  9
$DIMCEN
 40
5.346
  9
$DIMLFAC
 40
1.0
  9
$DIMBLK
  1
_FILLED
  9
$DIMTXT
 40
3.5
  9
$DIMTOL
 70
1
  9
$DIMLIM
 70
0
  9
$DIMTFAC
 40
1.0
  9
$DIMTP
 40
0.005
  9
$DIMTM
 40
0.005
  9
$PDMODE
 70
3
  9
$PDSIZE
 40
0.3125
  9
$HANDSEED
  5
4D6
  9
$TILEMODE
 70
1
  9
$MEASUREMENT
 70
1
  9
$INSUNITS
 70
4
  0
ENDSEC
  0
SECTION
  2
CLASSES
  0
CLASS
  1
ACDBDICTIONARYWDFLT
  2
AcDbDictionaryWithDefault
  3
AutoCAD 2000
 90
0
280
0
281
0
  0
CLASS
  1
ACDBPLACEHOLDER
  2
AcDbPlaceHolder
  3
AutoCAD 2000
 90
0
280
0
281
0
  0
CLASS
  1
LAYOUT
  2
AcDbLayout
  3
AutoCAD 2000
 90
0
280
0
281
0
  0
ENDSEC
  0
SECTION
  2
TABLES
  0
TABLE
  2
VPORT
  5
8
100
AcDbSymbolTable
 70
2
  0
VPORT
  5
1F4
100
AcDbSymbolTableRecord
100
AcDbViewportTableRecord
  2
*ACTIVE
 70
0
 10
0.0
 20
0.0
 11
1.0
 21
1.0
 12
297.0
 22
210.0
 13
0.0
 23
0.0
 14
1.0
 24
1.0
 15
0.0
 25
0.0
 16
0.0
 26
0.0
 36
1.0
 17
0.0
 27
0.0
 37
0.0
 40
420.0
 41
1.4142857143
 42
50.0
 43
0.0
 44
0.0
 50
0.0
 51
0.0
 71
0
 72
100
 73
1
 74
1
 75
0
 76
0
 77
0
 78
0
  0
ENDTAB
  0
TABLE
  2
LTYPE
  5
5
100
AcDbSymbolTable
 70
6
  0
LTYPE
  5
14
100
AcDbSymbolTableRecord
100
AcDbLinetypeTableRecord
  2
BYBLOCK
 70
0
  3

 72
65
 73
0
 40
0.0
  0
LTYPE
  5
15
100
AcDbSymbolTableRecord
100
AcDbLinetypeTableRecord
  2
BYLAYER
 70
0
  3

 72
65
 73
0
 40
0.0
  0
LTYPE
  5
16
100
AcDbSymbolTableRecord
100
AcDbLinetypeTableRecord
  2
CONTINUOUS
 70
64
  3
Solid line
 72
65
 73
0
 40
0.0
  0
LTYPE
  5
1F5
100
AcDbSymbolTableRecord
100
AcDbLinetypeTableRecord
  2
CENTER
 70
64
  3
____ _ ____ _ ____ _ ____ _ ____ _ ____ _ ____
 72
65
 73
4
 40
0.6
 49
0.375
 74
0
 49
-0.075
 74
0
 49
0.075
 74
0
 49
-0.075
 74
0
  0
LTYPE
  5
1F6
100
AcDbSymbolTableRecord
100
AcDbLinetypeTableRecord
  2
HIDDEN
 70
64
  3
- - - - - - - - - - - - - - - - - - - -
 72
65
 73
2
 40
0.2
 49
0.1
 74
0
 49
-0.1
 74
0
  0
LTYPE
  5
1F7
100
AcDbSymbolTableRecord
100
AcDbLinetypeTableRecord
  2
PHANTOM
 70
64
  3
_____ _ _ _____ _ _ _____ _ _ _____
 72
65
 73
6
 40
0.8
 49
0.45
 74
0
 49
-0.05
 74
0
 49
0.1
 74
0
 49
-0.05
 74
0
 49
0.1
 74
0
 49
-0.05
 74
0
  0
LTYPE
  5
1F8
100
AcDbSymbolTableRecord
100
AcDbLinetypeTableRecord
  2
DOT
 70
64
  3
. . . . . . . . . . . . . . . . . . . .
 72
65
 73
2
 40
0.2
 49
0.1
 74
0
 49
-0.1
 74
0
  0
LTYPE
  5
1F9
100
AcDbSymbolTableRecord
100
AcDbLinetypeTableRecord
  2
DASHED
 70
64
  3
- - - - - - - - - - - - - - - - - - - -
 72
65
 73
2
 40
0.2
 49
0.1
 74
0
 49
-0.1
 74
0
  0
ENDTAB
  0
TABLE
  2
LAYER
  5
2
100
AcDbSymbolTable
 70
36
  0
LAYER
  5
10
100
AcDbSymbolTableRecord
100
AcDbLayerTableRecord
  2
0
 70
0
 62
7
  6
CONTINUOUS
370
-3
390
F
  0
LAYER
  5
1FA
100
AcDbSymbolTableRecord
100
AcDbLayerTableRecord
  2
DEFAULT_1
 70
0
 62
7
  6
CENTER
370
-3
390
F
  0
LAYER
  5
1FB
100
AcDbSymbolTableRecord
100
AcDbLayerTableRecord
  2
DEFAULT_2
 70
0
 62
8
  6
HIDDEN
370
-3
390
F
  0
LAYER
  5
1FC
100
AcDbSymbolTableRecord
100
AcDbLayerTableRecord
  2
DEFAULT_3
 70
0
 62
7
  6
PHANTOM
370
-3
390
F
  0
LAYER
  5
1FD
100
AcDbSymbolTableRecord
100
AcDbLayerTableRecord
  2
AUSFORMSCHRAEGEN
 70
0
 62
7
  6
CONTINUOUS
370
-3
390
F
  0
LAYER
  5
1FE
100
AcDbSymbolTableRecord
100
AcDbLayerTableRecord
  2
B-EBENEN
 70
0
 62
7
  6
CONTINUOUS
370
-3
390
F
  0
LAYER
  5
1FF
100
AcDbSymbolTableRecord
100
AcDbLayerTableRecord
  2
B-KOORSYS
 70
0
 62
7
  6
CONTINUOUS
370
-3
390
F
  0
LAYER
  5
200
100
AcDbSymbolTableRecord
100
AcDbLayerTableRecord
  2
B-KURVEN
 70
0
 62
7
  6
CONTINUOUS
370
-3
390
F
  0
LAYER
  5
201
100
AcDbSymbolTableRecord
100
AcDbLayerTableRecord
  2
BEMASSUNG
 70
0
 62
7
  6
CONTINUOUS
370
-3
390
F
  0
LAYER
  5
202
100
AcDbSymbolTableRecord
100
AcDbLayerTableRecord
  2
BEZUGSACHSEN
 70
0
 62
7
  6
CONTINUOUS
370
-3
390
F
  0
LAYER
  5
203
100
AcDbSymbolTableRecord
100
AcDbLayerTableRecord
  2
BEZUGSEBENEN
 70
0
 62
7
  6
CONTINUOUS
370
-3
390
F
  0
LAYER
  5
204
100
AcDbSymbolTableRecord
100
AcDbLayerTableRecord
  2
BEZUGSPUNKTE
 70
0
 62
7
  6
CONTINUOUS
370
-3
390
F
  0
LAYER
  5
205
100
AcDbSymbolTableRecord
100
AcDbLayerTableRecord
  2
BG_STARTBEZUEGE
 70
0
 62
7
  6
CONTINUOUS
370
-3
390
F
  0
LAYER
  5
206
100
AcDbSymbolTableRecord
100
AcDbLayerTableRecord
  2
FASEN
 70
0
 62
7
  6
CONTINUOUS
370
-3
390
F
  0
LAYER
  5
207
100
AcDbSymbolTableRecord
100
AcDbLayerTableRecord
  2
FLAECHEN
 70
0
 62
7
  6
CONTINUOUS
370
-3
390
F
  0
LAYER
  5
208
100
AcDbSymbolTableRecord
100
AcDbLayerTableRecord
  2
FLAECHENVERBUND
 70
0
 62
7
  6
CONTINUOUS
370
-3
390
F
  0
LAYER
  5
209
100
AcDbSymbolTableRecord
100
AcDbLayerTableRecord
  2
HILFEN
 70
0
 62
7
  6
CONTINUOUS
370
-3
390
F
  0
LAYER
  5
20A
100
AcDbSymbolTableRecord
100
AcDbLayerTableRecord
  2
KONSTRUKTIONSELEMENTE
 70
0
 62
7
  6
CONTINUOUS
370
-3
390
F
  0
LAYER
  5
20B
100
AcDbSymbolTableRecord
100
AcDbLayerTableRecord
  2
KURVEN
 70
0
 62
7
  6
CONTINUOUS
370
-3
390
F
  0
LAYER
  5
20C
100
AcDbSymbolTableRecord
100
AcDbLayerTableRecord
  2
KURVENELEMENTE
 70
0
 62
7
  6
CONTINUOUS
370
-3
390
F
  0
LAYER
  5
20D
100
AcDbSymbolTableRecord
100
AcDbLayerTableRecord
  2
NORM
 70
0
 62
7
  6
CONTINUOUS
370
-3
390
F
  0
LAYER
  5
20E
100
AcDbSymbolTableRecord
100
AcDbLayerTableRecord
  2
NOTIZEN
 70
0
 62
7
  6
CONTINUOUS
370
-3
390
F
  0
LAYER
  5
20F
100
AcDbSymbolTableRecord
100
AcDbLayerTableRecord
  2
PLATZIERUNG
 70
0
 62
7
  6
CONTINUOUS
370
-3
390
F
  0
LAYER
  5
210
100
AcDbSymbolTableRecord
100
AcDbLayerTableRecord
  2
RUNDUNGEN
 70
0
 62
7
  6
CONTINUOUS
370
-3
390
F
  0
LAYER
  5
211
100
AcDbSymbolTableRecord
100
AcDbLayerTableRecord
  2
TEIL_STARTBEZUEGE
 70
0
 62
7
  6
CONTINUOUS
370
-3
390
F
  0
LAYER
  5
212
100
AcDbSymbolTableRecord
100
AcDbLayerTableRecord
  2
T_STARTBEZUEGE
 70
0
 62
7
  6
CONTINUOUS
370
-3
390
F
  0
LAYER
  5
213
100
AcDbSymbolTableRecord
100
AcDbLayerTableRecord
  2
ZEICHNUNGSBEMASSUNGEN
 70
0
 62
7
  6
CONTINUOUS
370
-3
390
F
  0
ENDTAB
  0
TABLE
  2
STYLE
  5
3
100
AcDbSymbolTable
 70
1
  0
STYLE
  5
11
100
AcDbSymbolTableRecord
100
AcDbTextStyleTableRecord
  2
STANDARD
 70
0
 40
0.0
 41
0.7
 50
0.0
 71
0
 42
0.2
  3
txt
  4

  0
STYLE
  5
214
100
AcDbSymbolTableRecord
100
AcDbTextStyleTableRecord
  2
TEXTSTYLE_1
 70
0
 40
0.0
 41
0.8
 50
0.0
 71
0
 42
0.2
  3
gdt
  4

  0
ENDTAB
  0
TABLE
  2
VIEW
  5
6
100
AcDbSymbolTable
 70
0
  0
ENDTAB
  0
TABLE
  2
UCS
  5
7
100
AcDbSymbolTable
 70
0
  0
ENDTAB
  0
TABLE
  2
APPID
  5
9
100
AcDbSymbolTable
 70
1
  0
APPID
  5
215
100
AcDbSymbolTableRecord
100
AcDbRegAppTableRecord
  2
ACAD
 70
0
  0
ENDTAB
  0
TABLE
  2
BLOCK_RECORD
  5
1
100
AcDbSymbolTable
 70
0
  0
BLOCK_RECORD
  5
216
100
AcDbSymbolTableRecord
100
AcDbBlockTableRecord
  2
*Model_Space
  0
BLOCK_RECORD
  5
217
100
AcDbSymbolTableRecord
100
AcDbBlockTableRecord
  2
*Paper_Space
  0
ENDTAB
  0
TABLE
  2
DIMSTYLE
  5
A
100
AcDbSymbolTable
 70
1
100
AcDbDimStyleTable
 71
0
  0
DIMSTYLE
105
218
100
AcDbSymbolTableRecord
100
AcDbDimStyleTableRecord
  2
STANDARD
 70
0
  3

  4

 40
1.0
 41
3.5
 42
0.0625
 43
0.38
 44
0.18
 45
0.0
 46
0.0
 47
0.005
 48
0.005
140
3.5
141
0.09
142
0.0
143
25.4
144
1.0
145
0.0
146
1.0
147
0.09
 71
1.0
 72
0.0
 73
0
 74
0
 75
0
 76
0
 77
1
 78
8
170
0
171
2
172
0
173
0
174
0
175
0
176
0
177
0
178
5
270
2
271
3
272
3
273
2
274
2
275
0
280
0
281
0
282
0
283
1
284
8
285
0
286
0
287
3
288
0
340
11
  0
ENDTAB
  0
ENDSEC
  0
SECTION
  2
BLOCKS
  0
BLOCK
  5
20
100
AcDbEntity
  8
0
100
AcDbBlockBegin
  2
*Model_Space
 70
0
 10
0.0
 20
0.0
 30
0.0
  3
*Model_Space
  1

  0
ENDBLK
  5
21
100
AcDbEntity
  8
0
100
AcDbBlockEnd
  0
BLOCK
  5
1C
100
AcDbEntity
  8
0
100
AcDbBlockBegin
  2
*Paper_Space
 70
0
 10
0.0
 20
0.0
 30
0.0
  3
*Paper_Space
  1

  0
ENDBLK
  5
1D
100
AcDbEntity
  8
0
100
AcDbBlockEnd
  0
ENDSEC
  0
SECTION
  2
ENTITIES
  0
MTEXT
  5
219
100
AcDbEntity
  8
0
100
AcDbMText
 62
5
  6
CONTINUOUS
  7
STANDARD
 71
1
 72
1
 10
159.3004564924
 20
85.4216690722
 30
0.0
 11
1.0
 21
0.0
 31
0.0
 44
0.9
  1
VWBG-V\P3,5t M27
 40
6.0
 41
34.7142857143
  0
MTEXT
  5
21A
100
AcDbEntity
  8
0
100
AcDbMText
 62
5
  6
CONTINUOUS
  7
STANDARD
 71
1
 72
1
 10
147.2077137572
 20
240.179257623
 30
0.0
 11
1.0
 21
0.0
 31
0.0
 44
0.9
  1
RUD VWBG-V \P3,5t M27
 40
7.0
 41
66.8333333333
  0
LINE
  5
21B
100
AcDbEntity
  8
0
100
AcDbLine
 62
7
  6
CONTINUOUS
 10
0.0
 20
0.0
 11
0.0
 21
420.0
  0
LINE
  5
21C
100
AcDbEntity
  8
0
100
AcDbLine
 62
7
  6
CONTINUOUS
 10
0.0
 20
0.0
 11
594.0
 21
0.0
  0
LINE
  5
21D
100
AcDbEntity
  8
0
100
AcDbLine
 62
7
  6
CONTINUOUS
 10
0.0
 20
420.0
 11
594.0
 21
420.0
  0
LINE
  5
21E
100
AcDbEntity
  8
0
100
AcDbLine
 62
7
  6
CONTINUOUS
 10
594.0
 20
0.0
 11
594.0
 21
420.0
  0
LINE
  5
21F
100
AcDbEntity
  8
0
100
AcDbLine
 62
7
  6
CONTINUOUS
 10
168.2012826392
 20
165.9606077706
 11
189.2010365781
 21
165.9606077706
  0
LINE
  5
220
100
AcDbEntity
  8
0
100
AcDbLine
 62
7
  6
CONTINUOUS
 10
192.2011596086
 20
168.9606077706
 11
165.2011596086
 21
168.9606077706
  0
LINE
  5
221
100
AcDbEntity
  8
0
100
AcDbLine
 62
7
  6
CONTINUOUS
 10
165.2011596086
 20
168.9606077706
 11
168.2011596086
 21
165.9606077706
  0
LINE
  5
222
100
AcDbEntity
  8
0
100
AcDbLine
 62
7
  6
CONTINUOUS
 10
213.7008385578
 20
206.9606077706
 11
143.7008385578
 21
206.9606077706
  0
LWPOLYLINE
  5
223
100
AcDbEntity
  8
RUNDUNGEN
100
AcDbPolyline
 62
7
  6
CONTINUOUS
 90
8
 70
0
 10
143.6553974975
 20
233.2171971634
 10
143.6511933561
 20
233.2213455651
 10
143.6498038348
 20
233.2227454168
 10
143.6572303635
 20
233.2123031408
 10
143.6699132061
 20
233.1896909536
 10
143.6845830121
 20
233.1536402279
 10
143.6959534551
 20
233.108497394
 10
143.7008340322
 20
233.0563247232
  0
LINE
  5
224
100
AcDbEntity
  8
RUNDUNGEN
100
AcDbLine
 62
7
  6
CONTINUOUS
 10
143.7008385578
 20
232.9547077706
 11
141.2011596086
 21
232.9547077706
  0
LINE
  5
225
100
AcDbEntity
  8
RUNDUNGEN
100
AcDbLine
 62
7
  6
CONTINUOUS
 10
140.2011596086
 20
233.9547077706
 11
140.2011596086
 21
256.1606077706
  0
LINE
  5
226
100
AcDbEntity
  8
0
100
AcDbLine
 62
7
  6
CONTINUOUS
 10
140.7011596086
 20
314.9606077706
 11
140.7011596086
 21
359.9606077706
  0
LINE
  5
227
100
AcDbEntity
  8
0
100
AcDbLine
 62
7
  6
CONTINUOUS
 10
143.7008385578
 20
229.7071669767
 11
143.7008385578
 21
206.9606077706
  0
LINE
  5
228
100
AcDbEntity
  8
RUNDUNGEN
100
AcDbLine
 62
7
  6
CONTINUOUS
 10
143.7008385578
 20
229.7071669767
 11
143.7008385578
 21
239.5944209093
  0
LINE
  5
229
100
AcDbEntity
  8
0
100
AcDbLine
 62
7
  6
CONTINUOUS
 10
146.1156606488
 20
229.7071669767
 11
146.1156606488
 21
206.9606077706
  0
LINE
  5
22A
100
AcDbEntity
  8
0
100
AcDbLine
 62
7
  6
CONTINUOUS
 10
146.7011596086
 20
261.9606077706
 11
146.7011596086
 21
259.9606077706
  0
LINE
  5
22B
100
AcDbEntity
  8
BEZUGSACHSEN
100
AcDbLine
 62
7
  6
CONTINUOUS
 10
147.7011596086
 20
261.9606077706
 11
147.7011596086
 21
264.4606077706
  0
LINE
  5
22C
100
AcDbEntity
  8
BEZUGSACHSEN
100
AcDbLine
 62
7
  6
CONTINUOUS
 10
144.7820093022
 20
258.9758000176
 11
144.6075270803
 21
257.9862621649
  0
LWPOLYLINE
  5
22D
100
AcDbEntity
  8
RUNDUNGEN
100
AcDbPolyline
 62
7
  6
CONTINUOUS
 90
11
 70
0
 10
144.6076501704
 20
257.9869594464
 10
144.5788957774
 20
257.8674149026
 10
144.5277334649
 20
257.7349643573
 10
144.4583278357
 20
257.6110950097
 10
144.3720781333
 20
257.4983041903
 10
144.2707231932
 20
257.3988658733
 10
144.1563063972
 20
257.3147848448
 10
144.0311344581
 20
257.2477562687
 10
143.8977309286
 20
257.1991315254
 10
143.7587853293
 20
257.1698909647
 10
143.6228424515
 20
257.1606076412
  0
LINE
  5
22E
100
AcDbEntity
  8
0
100
AcDbLine
 62
7
  6
CONTINUOUS
 10
143.6229797507
 20
257.1606077706
 11
141.2011596086
 21
257.1606077706
  0
LINE
  5
22F
100
AcDbEntity
  8
0
100
AcDbLine
 62
7
  6
CONTINUOUS
 10
158.7011596086
 20
314.9606077706
 11
158.7011596086
 21
359.9606077706
  0
LINE
  5
230
100
AcDbEntity
  8
FASEN
100
AcDbLine
 62
7
  6
CONTINUOUS
 10
212.6203099151
 20
258.9758000176
 11
144.7820093022
 21
258.9758000176
  0
LINE
  5
231
100
AcDbEntity
  8
FASEN
100
AcDbLine
 62
7
  6
CONTINUOUS
 10
211.4466617374
 20
259.9606077706
 11
145.9556574799
 21
259.9606077706
  0
LINE
  5
232
100
AcDbEntity
  8
0
100
AcDbLine
 62
7
  6
CONTINUOUS
 10
210.7007846584
 20
261.9606077706
 11
146.7015345588
 21
261.9606077706
  0
LINE
  5
233
100
AcDbEntity
  8
0
100
AcDbLine
 62
7
  6
CONTINUOUS
 10
165.2011596086
 20
206.9606077706
 11
165.2011596086
 21
168.9606077706
  0
LINE
  5
234
100
AcDbEntity
  8
0
100
AcDbLine
 62
7
  6
CONTINUOUS
 10
171.2011596086
 20
291.2315859685
 11
171.2011596086
 21
297.8995279939
  0
LINE
  5
235
100
AcDbEntity
  8
0
100
AcDbLine
 62
7
  6
CONTINUOUS
 10
171.2011596086
 20
297.9160443324
 11
171.2011596086
 21
307.1010029345
  0
LINE
  5
236
100
AcDbEntity
  8
BEZUGSACHSEN
100
AcDbLine
 62
7
  6
CONTINUOUS
 10
171.8393170994
 20
287.1664536472
 11
165.6249160894
 21
270.0925271967
  0
LINE
  5
237
100
AcDbEntity
  8
BEZUGSACHSEN
100
AcDbLine
 62
7
  6
CONTINUOUS
 10
162.0797218902
 20
267.4606077706
 11
150.7011596086
 21
267.4606077706
  0
LINE
  5
238
100
AcDbEntity
  8
BEZUGSACHSEN
100
AcDbLine
 62
7
  6
CONTINUOUS
 10
195.3213333499
 20
267.4606077706
 11
206.7011596086
 21
267.4606077706
  0
LINE
  5
239
100
AcDbEntity
  8
BEZUGSACHSEN
100
AcDbLine
 62
7
  6
CONTINUOUS
 10
172.2011596086
 20
301.9487398503
 11
172.2011596086
 21
289.2185683654
  0
LINE
  5
23A
100
AcDbEntity
  8
0
100
AcDbLine
 62
7
  6
CONTINUOUS
 10
176.2011596086
 20
229.7071669767
 11
176.2011596086
 21
206.9606077706
  0
LINE
  5
23B
100
AcDbEntity
  8
RUNDUNGEN
100
AcDbLine
 62
7
  6
CONTINUOUS
 10
172.2011617528
 20
309.7352040884
 11
172.2011596086
 21
301.9487398503
  0
LINE
  5
23C
100
AcDbEntity
  8
FASEN
100
AcDbLine
 62
7
  6
CONTINUOUS
 10
145.9556574799
 20
259.9606077706
 11
144.7820093022
 21
258.9758000176
  0
LWPOLYLINE
  5
23D
100
AcDbEntity
  8
RUNDUNGEN
100
AcDbPolyline
 62
7
  6
CONTINUOUS
 90
10
 70
0
 10
185.2011594269
 20
309.7310380479
 10
185.1849487734
 20
310.1003858152
 10
185.0526693603
 20
310.8561095698
 10
184.7949594216
 20
311.5602151285
 10
184.4250096871
 20
312.1976556065
 10
183.9584123699
 20
312.7492886039
 10
183.4113365323
 20
313.2031491379
 10
182.8018946379
 20
313.5481535801
 10
182.1480410393
 20
313.7776273895
 10
181.4674013151
 20
313.8862104052
  0
LINE
  5
23E
100
AcDbEntity
  8
0
100
AcDbLine
 62
7
  6
CONTINUOUS
 10
181.2011596086
 20
229.7071669767
 11
181.2011596086
 21
206.9606077706
  0
LINE
  5
23F
100
AcDbEntity
  8
RUNDUNGEN
100
AcDbLine
 62
7
  6
CONTINUOUS
 10
185.2011596086
 20
309.7310389694
 11
185.2011596086
 21
289.2185683654
  0
LINE
  5
240
100
AcDbEntity
  8
FASEN
100
AcDbLine
 62
7
  6
CONTINUOUS
 10
211.4466617374
 20
259.9606077706
 11
212.6203099151
 21
258.9758000176
  0
LINE
  5
241
100
AcDbEntity
  8
RUNDUNGEN
100
AcDbLine
 62
7
  6
CONTINUOUS
 10
185.5630021178
 20
287.1664536472
 11
191.7774031278
 21
270.0925271967
  0
LINE
  5
242
100
AcDbEntity
  8
0
100
AcDbLine
 62
7
  6
CONTINUOUS
 10
192.2011596086
 20
206.9606077706
 11
192.2011596086
 21
168.9606077706
  0
LINE
  5
243
100
AcDbEntity
  8
0
100
AcDbLine
 62
7
  6
CONTINUOUS
 10
172.2011596086
 20
291.2315859685
 11
171.2011596086
 21
291.2315859685
  0
LINE
  5
244
100
AcDbEntity
  8
0
100
AcDbLine
 62
7
  6
CONTINUOUS
 10
172.2011596086
 20
291.3808614618
 11
171.2011596086
 21
291.3808614618
  0
LINE
  5
245
100
AcDbEntity
  8
0
100
AcDbLine
 62
7
  6
CONTINUOUS
 10
172.2011596086
 20
291.7676590013
 11
171.2011596086
 21
291.7676590013
  0
LINE
  5
246
100
AcDbEntity
  8
0
100
AcDbLine
 62
7
  6
CONTINUOUS
 10
172.2011596086
 20
292.0519832953
 11
171.2011596086
 21
292.0519832953
  0
LINE
  5
247
100
AcDbEntity
  8
0
100
AcDbLine
 62
7
  6
CONTINUOUS
 10
172.2011596086
 20
292.136725532
 11
171.2011596086
 21
292.136725532
  0
LINE
  5
248
100
AcDbEntity
  8
0
100
AcDbLine
 62
7
  6
CONTINUOUS
 10
172.2011596086
 20
292.2860010122
 11
171.2011596086
 21
292.2860010122
  0
LINE
  5
249
100
AcDbEntity
  8
0
100
AcDbLine
 62
7
  6
CONTINUOUS
 10
172.2011596086
 20
293.0548495768
 11
171.2011596086
 21
293.0548495768
  0
LINE
  5
24A
100
AcDbEntity
  8
0
100
AcDbLine
 62
7
  6
CONTINUOUS
 10
172.2011596086
 20
293.3534006419
 11
171.2011596086
 21
293.3534006419
  0
LINE
  5
24B
100
AcDbEntity
  8
0
100
AcDbLine
 62
7
  6
CONTINUOUS
 10
172.2011596086
 20
293.7028792982
 11
171.2011596086
 21
293.7028792982
  0
LINE
  5
24C
100
AcDbEntity
  8
0
100
AcDbLine
 62
7
  6
CONTINUOUS
 10
172.2011596086
 20
293.9634934434
 11
171.2011596086
 21
293.9634934434
  0
LINE
  5
24D
100
AcDbEntity
  8
0
100
AcDbLine
 62
7
  6
CONTINUOUS
 10
172.2011596086
 20
294.1462590791
 11
171.2011596086
 21
294.1462590791
  0
LINE
  5
24E
100
AcDbEntity
  8
0
100
AcDbLine
 62
7
  6
CONTINUOUS
 10
172.2011596086
 20
294.5153528841
 11
171.2011596086
 21
294.5153528841
  0
LINE
  5
24F
100
AcDbEntity
  8
0
100
AcDbLine
 62
7
  6
CONTINUOUS
 10
172.2011596086
 20
294.9003853007
 11
171.2011596086
 21
294.9003853007
  0
LINE
  5
250
100
AcDbEntity
  8
0
100
AcDbLine
 62
7
  6
CONTINUOUS
 10
172.2011596086
 20
295.3654713593
 11
171.2011596086
 21
295.3654713593
  0
LINE
  5
251
100
AcDbEntity
  8
0
100
AcDbLine
 62
7
  6
CONTINUOUS
 10
172.2011596086
 20
295.4788200039
 11
171.2011596086
 21
295.4788200039
  0
LINE
  5
252
100
AcDbEntity
  8
0
100
AcDbLine
 62
7
  6
CONTINUOUS
 10
172.2011596086
 20
295.7196867501
 11
171.2011596086
 21
295.7196867501
  0
LINE
  5
253
100
AcDbEntity
  8
0
100
AcDbLine
 62
7
  6
CONTINUOUS
 10
172.2011596086
 20
297.8995279939
 11
171.2011596086
 21
297.8995279939
  0
LINE
  5
254
100
AcDbEntity
  8
0
100
AcDbLine
 62
7
  6
CONTINUOUS
 10
172.2011596086
 20
298.1710497002
 11
171.2011596086
 21
298.1710497002
  0
LINE
  5
255
100
AcDbEntity
  8
0
100
AcDbLine
 62
7
  6
CONTINUOUS
 10
172.2011596086
 20
298.4775786981
 11
171.2011596086
 21
298.4775786981
  0
LINE
  5
256
100
AcDbEntity
  8
0
100
AcDbLine
 62
7
  6
CONTINUOUS
 10
172.2011596086
 20
298.7718750887
 11
171.2011596086
 21
298.7718750887
  0
LINE
  5
257
100
AcDbEntity
  8
0
100
AcDbLine
 62
7
  6
CONTINUOUS
 10
172.2011596086
 20
299.1421553393
 11
171.2011596086
 21
299.1421553393
  0
LINE
  5
258
100
AcDbEntity
  8
0
100
AcDbLine
 62
7
  6
CONTINUOUS
 10
172.2011596086
 20
299.230364642
 11
171.2011596086
 21
299.230364642
  0
LINE
  5
259
100
AcDbEntity
  8
0
100
AcDbLine
 62
7
  6
CONTINUOUS
 10
198.7011596086
 20
359.9606077706
 11
198.7011596086
 21
314.9606077706
  0
LINE
  5
25A
100
AcDbEntity
  8
0
100
AcDbLine
 62
7
  6
CONTINUOUS
 10
172.2011596086
 20
299.4338488274
 11
171.2011596086
 21
299.4338488274
  0
LINE
  5
25B
100
AcDbEntity
  8
0
100
AcDbLine
 62
7
  6
CONTINUOUS
 10
172.2011596086
 20
299.5613516899
 11
171.2011596086
 21
299.5613516899
  0
LINE
  5
25C
100
AcDbEntity
  8
0
100
AcDbLine
 62
7
  6
CONTINUOUS
 10
172.2011596086
 20
299.8678782401
 11
171.2011596086
 21
299.8678782401
  0
LINE
  5
25D
100
AcDbEntity
  8
0
100
AcDbLine
 62
7
  6
CONTINUOUS
 10
172.2011596086
 20
300.3289706958
 11
171.2011596086
 21
300.3289706958
  0
LINE
  5
25E
100
AcDbEntity
  8
0
100
AcDbLine
 62
7
  6
CONTINUOUS
 10
172.2011596086
 20
300.6625628262
 11
171.2011596086
 21
300.6625628262
  0
LINE
  5
25F
100
AcDbEntity
  8
0
100
AcDbLine
 62
7
  6
CONTINUOUS
 10
172.2011596086
 20
301.0869671617
 11
171.2011596086
 21
301.0869671617
  0
LINE
  5
260
100
AcDbEntity
  8
0
100
AcDbLine
 62
7
  6
CONTINUOUS
 10
172.2011596086
 20
301.1900118849
 11
171.2011596086
 21
301.1900118849
  0
LINE
  5
261
100
AcDbEntity
  8
0
100
AcDbLine
 62
7
  6
CONTINUOUS
 10
172.2011596086
 20
301.4869135365
 11
171.2011596086
 21
301.4869135365
  0
LINE
  5
262
100
AcDbEntity
  8
0
100
AcDbLine
 62
7
  6
CONTINUOUS
 10
172.2011596086
 20
301.5654979405
 11
171.2011596086
 21
301.5654979405
  0
LINE
  5
263
100
AcDbEntity
  8
0
100
AcDbLine
 62
7
  6
CONTINUOUS
 10
172.2011596086
 20
301.7791959547
 11
171.2011596086
 21
301.7791959547
  0
LINE
  5
264
100
AcDbEntity
  8
0
100
AcDbLine
 62
7
  6
CONTINUOUS
 10
172.2011596086
 20
305.0880300622
 11
171.2011596086
 21
305.0880300622
  0
LINE
  5
265
100
AcDbEntity
  8
0
100
AcDbLine
 62
7
  6
CONTINUOUS
 10
172.2011596086
 20
305.2518000572
 11
171.2011596086
 21
305.2518000572
  0
LINE
  5
266
100
AcDbEntity
  8
0
100
AcDbLine
 62
7
  6
CONTINUOUS
 10
172.2011596086
 20
306.0160596178
 11
171.2011596086
 21
306.0160596178
  0
LINE
  5
267
100
AcDbEntity
  8
0
100
AcDbLine
 62
7
  6
CONTINUOUS
 10
172.2011596086
 20
306.1798296128
 11
171.2011596086
 21
306.1798296128
  0
LINE
  5
268
100
AcDbEntity
  8
0
100
AcDbLine
 62
7
  6
CONTINUOUS
 10
172.2011596086
 20
306.3466397657
 11
171.2011596086
 21
306.3466397657
  0
LINE
  5
269
100
AcDbEntity
  8
0
100
AcDbLine
 62
7
  6
CONTINUOUS
 10
172.2011596086
 20
306.7131852867
 11
171.2011596086
 21
306.7131852867
  0
LINE
  5
26A
100
AcDbEntity
  8
0
100
AcDbLine
 62
7
  6
CONTINUOUS
 10
172.2011596086
 20
306.9101819011
 11
171.2011596086
 21
306.9101819011
  0
LINE
  5
26B
100
AcDbEntity
  8
0
100
AcDbLine
 62
7
  6
CONTINUOUS
 10
172.2011596086
 20
307.0292658714
 11
171.2011596086
 21
307.0292658714
  0
LINE
  5
26C
100
AcDbEntity
  8
0
100
AcDbLine
 62
7
  6
CONTINUOUS
 10
172.2011596086
 20
307.0910230962
 11
171.2011596086
 21
307.0910230962
  0
LINE
  5
26D
100
AcDbEntity
  8
0
100
AcDbLine
 62
7
  6
CONTINUOUS
 10
172.2011596086
 20
307.1010029345
 11
171.2011596086
 21
307.1010029345
  0
LINE
  5
26E
100
AcDbEntity
  8
BEZUGSACHSEN
100
AcDbLine
 62
7
  6
CONTINUOUS
 10
209.7011596086
 20
264.4606077706
 11
209.7011596086
 21
261.9606077706
  0
LINE
  5
26F
100
AcDbEntity
  8
0
100
AcDbLine
 62
7
  6
CONTINUOUS
 10
210.7011596086
 20
261.9606077706
 11
210.7011596086
 21
259.9606077706
  0
LINE
  5
270
100
AcDbEntity
  8
0
100
AcDbLine
 62
7
  6
CONTINUOUS
 10
211.2874553497
 20
229.7071669767
 11
211.2874553497
 21
206.9606077706
  0
LWPOLYLINE
  5
271
100
AcDbEntity
  8
RUNDUNGEN
100
AcDbPolyline
 62
7
  6
CONTINUOUS
 90
10
 70
0
 10
175.9702920271
 20
313.8885031728
 10
175.2853135471
 20
313.7853379352
 10
174.6246742599
 20
313.559070979
 10
174.0079513956
 20
313.2147858727
 10
173.453789116
 20
312.7590402745
 10
172.982988897
 20
312.2056935439
 10
172.6127952991
 20
311.5717519459
 10
172.3545888827
 20
310.8743175886
 10
172.219678806
 20
310.1264346849
 10
172.2011744217
 20
309.7352475422
  0
LINE
  5
272
100
AcDbEntity
  8
RUNDUNGEN
100
AcDbLine
 62
7
  6
CONTINUOUS
 10
176.2011601271
 20
313.8955343613
 11
175.9702920271
 21
313.8885031728
  0
LINE
  5
273
100
AcDbEntity
  8
RUNDUNGEN
100
AcDbLine
 62
7
  6
CONTINUOUS
 10
181.2011596086
 20
313.89582337
 11
176.2011599943
 21
313.89582337
  0
LINE
  5
274
100
AcDbEntity
  8
RUNDUNGEN
100
AcDbLine
 62
7
  6
CONTINUOUS
 10
181.4674013151
 20
313.8862104052
 11
181.2011594134
 21
313.8955342753
  0
LINE
  5
275
100
AcDbEntity
  8
BEZUGSACHSEN
100
AcDbLine
 62
7
  6
CONTINUOUS
 10
212.6203099151
 20
258.9758000176
 11
213.411813594
 21
254.4869595929
  0
LINE
  5
276
100
AcDbEntity
  8
RUNDUNGEN
100
AcDbLine
 62
7
  6
CONTINUOUS
 10
213.7008385578
 20
253.6002501049
 11
213.7008385578
 21
206.9606077706
  0
LINE
  5
277
100
AcDbEntity
  8
0
100
AcDbLine
 62
7
  6
CONTINUOUS
 10
216.7011596086
 20
359.9606077706
 11
216.7011596086
 21
314.9606077706
  0
LINE
  5
278
100
AcDbEntity
  8
0
100
AcDbLine
 62
7
  6
CONTINUOUS
 10
192.2011596086
 20
168.9606077706
 11
189.2011596086
 21
165.9606077706
  0
LINE
  5
279
100
AcDbEntity
  8
0
100
AcDbLine
 62
7
  6
CONTINUOUS
 10
322.4637324468
 20
165.9606077706
 11
301.4637324468
 21
165.9606077706
  0
LINE
  5
27A
100
AcDbEntity
  8
0
100
AcDbLine
 62
7
  6
CONTINUOUS
 10
325.4637324468
 20
168.9606077706
 11
298.4637324468
 21
168.9606077706
  0
LINE
  5
27B
100
AcDbEntity
  8
0
100
AcDbLine
 62
7
  6
CONTINUOUS
 10
298.4637324468
 20
168.9606077706
 11
301.4637324468
 21
165.9606077706
  0
LINE
  5
27C
100
AcDbEntity
  8
0
100
AcDbLine
 62
7
  6
CONTINUOUS
 10
350.9636862929
 20
206.9606077706
 11
272.9636862929
 21
206.9606077706
  0
LINE
  5
27D
100
AcDbEntity
  8
RUNDUNGEN
100
AcDbLine
 62
7
  6
CONTINUOUS
 10
302.4637324468
 20
210.1606077706
 11
321.4637324468
 21
210.1606077706
  0
LINE
  5
27E
100
AcDbEntity
  8
KONSTRUKTIONSELEMENTE
100
AcDbLine
 62
7
  6
CONTINUOUS
 10
303.0387321607
 20
213.5806077706
 11
303.8262321607
 21
213.5806077706
  0
LINE
  5
27F
100
AcDbEntity
  8
KONSTRUKTIONSELEMENTE
100
AcDbLine
 62
7
  6
CONTINUOUS
 10
305.6637320981
 20
213.5806077706
 11
306.7137320355
 21
213.5806077706
  0
LINE
  5
280
100
AcDbEntity
  8
KONSTRUKTIONSELEMENTE
100
AcDbLine
 62
7
  6
CONTINUOUS
 10
308.5512321607
 20
213.5806077706
 11
309.3387321607
 21
213.5806077706
  0
LINE
  5
281
100
AcDbEntity
  8
KONSTRUKTIONSELEMENTE
100
AcDbLine
 62
7
  6
CONTINUOUS
 10
310.3887319104
 20
213.5806077706
 11
315.1137319104
 21
213.5806077706
  0
LINE
  5
282
100
AcDbEntity
  8
KONSTRUKTIONSELEMENTE
100
AcDbLine
 62
7
  6
CONTINUOUS
 10
317.4762326614
 20
213.5806077706
 11
318.2637326614
 21
213.5806077706
  0
LINE
  5
283
100
AcDbEntity
  8
KONSTRUKTIONSELEMENTE
100
AcDbLine
 62
7
  6
CONTINUOUS
 10
315.1137319104
 20
214.3252886372
 11
311.438732411
 21
214.3252886372
  0
LINE
  5
284
100
AcDbEntity
  8
KONSTRUKTIONSELEMENTE
100
AcDbLine
 62
7
  6
CONTINUOUS
 10
311.832482411
 20
219.6869908559
 11
312.4887321607
 21
219.8359270083
  0
LINE
  5
285
100
AcDbEntity
  8
KONSTRUKTIONSELEMENTE
100
AcDbLine
 62
7
  6
CONTINUOUS
 10
320.0366494314
 20
224.5789056414
 11
319.5158157007
 21
224.4725226753
  0
LINE
  5
286
100
AcDbEntity
  8
KONSTRUKTIONSELEMENTE
100
AcDbLine
 62
7
  6
CONTINUOUS
 10
319.5158157007
 20
223.9406077706
 11
320.1408157007
 21
224.046990746
  0
LINE
  5
287
100
AcDbEntity
  8
KONSTRUKTIONSELEMENTE
100
AcDbLine
 62
7
  6
CONTINUOUS
 10
312.619982411
 20
220.5806077706
 11
311.7012321607
 21
220.4316716181
  0
LINE
  5
288
100
AcDbEntity
  8
KONSTRUKTIONSELEMENTE
100
AcDbLine
 62
7
  6
CONTINUOUS
 10
310.5199821607
 20
218.9423100936
 11
311.1762319104
 21
218.9423100936
  0
LINE
  5
289
100
AcDbEntity
  8
KONSTRUKTIONSELEMENTE
100
AcDbLine
 62
7
  6
CONTINUOUS
 10
312.4887321607
 20
219.8359270083
 11
313.013732411
 21
219.8359270083
  0
LINE
  5
28A
100
AcDbEntity
  8
KONSTRUKTIONSELEMENTE
100
AcDbLine
 62
7
  6
CONTINUOUS
 10
316.16373166
 20
219.8359270083
 11
320.10123166
 21
219.8359270083
  0
LINE
  5
28B
100
AcDbEntity
  8
KONSTRUKTIONSELEMENTE
100
AcDbLine
 62
7
  6
CONTINUOUS
 10
320.88873166
 20
220.5806077706
 11
316.16373166
 21
220.5806077706
  0
LINE
  5
28C
100
AcDbEntity
  8
KONSTRUKTIONSELEMENTE
100
AcDbLine
 62
7
  6
CONTINUOUS
 10
313.1449819104
 20
220.5806077706
 11
312.619982411
 21
220.5806077706
  0
LINE
  5
28D
100
AcDbEntity
  8
KONSTRUKTIONSELEMENTE
100
AcDbLine
 62
7
  6
CONTINUOUS
 10
309.3387321607
 20
220.5806077706
 11
308.1574821607
 21
220.5806077706
  0
LINE
  5
28E
100
AcDbEntity
  8
KONSTRUKTIONSELEMENTE
100
AcDbLine
 62
7
  6
CONTINUOUS
 10
304.2199821607
 20
220.5806077706
 11
303.0387321607
 21
220.5806077706
  0
LINE
  5
28F
100
AcDbEntity
  8
KONSTRUKTIONSELEMENTE
100
AcDbLine
 62
7
  6
CONTINUOUS
 10
303.994982715
 20
223.9406077706
 11
304.8283161477
 21
223.9406077706
  0
LINE
  5
290
100
AcDbEntity
  8
KONSTRUKTIONSELEMENTE
100
AcDbLine
 62
7
  6
CONTINUOUS
 10
308.057482566
 20
223.9406077706
 11
308.8908162967
 21
223.9406077706
  0
LINE
  5
291
100
AcDbEntity
  8
KONSTRUKTIONSELEMENTE
100
AcDbLine
 62
7
  6
CONTINUOUS
 10
310.557482566
 20
223.9406077706
 11
311.3908162967
 21
223.9406077706
  0
LINE
  5
292
100
AcDbEntity
  8
KONSTRUKTIONSELEMENTE
100
AcDbLine
 62
7
  6
CONTINUOUS
 10
314.0991494314
 20
223.9406077706
 11
314.7241494314
 21
223.9406077706
  0
LINE
  5
293
100
AcDbEntity
  8
KONSTRUKTIONSELEMENTE
100
AcDbLine
 62
7
  6
CONTINUOUS
 10
304.8283161477
 20
224.5789056414
 11
303.994982715
 21
224.5789056414
  0
LINE
  5
294
100
AcDbEntity
  8
KONSTRUKTIONSELEMENTE
100
AcDbLine
 62
7
  6
CONTINUOUS
 10
303.1616494314
 20
225.3235864782
 11
302.5366494314
 21
225.3235864782
  0
LINE
  5
295
100
AcDbEntity
  8
KONSTRUKTIONSELEMENTE
100
AcDbLine
 62
7
  6
CONTINUOUS
 10
313.9324819104
 20
220.4316716181
 11
313.1449819104
 21
220.5806077706
  0
LINE
  5
296
100
AcDbEntity
  8
KONSTRUKTIONSELEMENTE
100
AcDbLine
 62
7
  6
CONTINUOUS
 10
303.4741494314
 20
224.046990746
 11
303.994982715
 21
223.9406077706
  0
LINE
  5
297
100
AcDbEntity
  8
KONSTRUKTIONSELEMENTE
100
AcDbLine
 62
7
  6
CONTINUOUS
 10
313.013732411
 20
219.8359270083
 11
313.6699821607
 21
219.6869908559
  0
LINE
  5
298
100
AcDbEntity
  8
KONSTRUKTIONSELEMENTE
100
AcDbLine
 62
7
  6
CONTINUOUS
 10
303.994982715
 20
224.5789056414
 11
303.5783160732
 21
224.6852886074
  0
LINE
  5
299
100
AcDbEntity
  8
KONSTRUKTIONSELEMENTE
100
AcDbLine
 62
7
  6
CONTINUOUS
 10
305.244982864
 20
224.6852886074
 11
304.8283161477
 21
224.5789056414
  0
LINE
  5
29A
100
AcDbEntity
  8
KONSTRUKTIONSELEMENTE
100
AcDbLine
 62
7
  6
CONTINUOUS
 10
304.2033161477
 20
228.9406077706
 11
303.7866494314
 21
228.8342248046
  0
LINE
  5
29B
100
AcDbEntity
  8
KONSTRUKTIONSELEMENTE
100
AcDbLine
 62
7
  6
CONTINUOUS
 10
304.8283161477
 20
223.9406077706
 11
305.3491494314
 21
224.046990746
  0
LINE
  5
29C
100
AcDbEntity
  8
KONSTRUKTIONSELEMENTE
100
AcDbLine
 62
7
  6
CONTINUOUS
 10
318.994983162
 20
228.3023099744
 11
319.5158157007
 21
228.4086929404
  0
LINE
  5
29D
100
AcDbEntity
  8
KONSTRUKTIONSELEMENTE
100
AcDbLine
 62
7
  6
CONTINUOUS
 10
319.5158157007
 20
228.9406077706
 11
318.8908157007
 21
228.8342248046
  0
LINE
  5
29E
100
AcDbEntity
  8
KONSTRUKTIONSELEMENTE
100
AcDbLine
 62
7
  6
CONTINUOUS
 10
304.2033161477
 20
226.1746503555
 11
304.8283161477
 21
226.1746503555
  0
LINE
  5
29F
100
AcDbEntity
  8
KONSTRUKTIONSELEMENTE
100
AcDbLine
 62
7
  6
CONTINUOUS
 10
304.8283161477
 20
226.8129481517
 11
304.2033161477
 21
226.8129481517
  0
LINE
  5
2A0
100
AcDbEntity
  8
KONSTRUKTIONSELEMENTE
100
AcDbLine
 62
7
  6
CONTINUOUS
 10
305.4533159987
 20
227.7703951441
 11
306.0783159987
 21
227.7703951441
  0
LINE
  5
2A1
100
AcDbEntity
  8
KONSTRUKTIONSELEMENTE
100
AcDbLine
 62
7
  6
CONTINUOUS
 10
304.2033161477
 20
228.3023099744
 11
304.8283161477
 21
228.3023099744
  0
LINE
  5
2A2
100
AcDbEntity
  8
KONSTRUKTIONSELEMENTE
100
AcDbLine
 62
7
  6
CONTINUOUS
 10
313.057483162
 20
228.4086929404
 11
316.182483162
 21
228.4086929404
  0
LINE
  5
2A3
100
AcDbEntity
  8
KONSTRUKTIONSELEMENTE
100
AcDbLine
 62
7
  6
CONTINUOUS
 10
316.807483162
 20
228.9406077706
 11
313.057483162
 21
228.9406077706
  0
LINE
  5
2A4
100
AcDbEntity
  8
KONSTRUKTIONSELEMENTE
100
AcDbLine
 62
7
  6
CONTINUOUS
 10
312.2241494314
 20
228.9406077706
 11
311.5991494314
 21
228.9406077706
  0
LINE
  5
2A5
100
AcDbEntity
  8
KONSTRUKTIONSELEMENTE
100
AcDbLine
 62
7
  6
CONTINUOUS
 10
310.1408162967
 20
228.9406077706
 11
309.307482566
 21
228.9406077706
  0
LINE
  5
2A6
100
AcDbEntity
  8
KONSTRUKTIONSELEMENTE
100
AcDbLine
 62
7
  6
CONTINUOUS
 10
307.8491494314
 20
228.9406077706
 11
307.2241494314
 21
228.9406077706
  0
LINE
  5
2A7
100
AcDbEntity
  8
KONSTRUKTIONSELEMENTE
100
AcDbLine
 62
7
  6
CONTINUOUS
 10
304.7241494314
 20
228.9406077706
 11
304.2033161477
 21
228.9406077706
  0
LINE
  5
2A8
100
AcDbEntity
  8
RUNDUNGEN
100
AcDbLine
 62
7
  6
CONTINUOUS
 10
302.4629457016
 20
232.9547077706
 11
321.4645220723
 21
232.9547077706
  0
LINE
  5
2A9
100
AcDbEntity
  8
KONSTRUKTIONSELEMENTE
100
AcDbLine
 62
7
  6
CONTINUOUS
 10
318.8908157007
 20
224.046990746
 11
319.5158157007
 21
223.9406077706
  0
LINE
  5
2AA
100
AcDbEntity
  8
KONSTRUKTIONSELEMENTE
100
AcDbLine
 62
7
  6
CONTINUOUS
 10
320.1408157007
 20
228.8342248046
 11
319.5158157007
 21
228.9406077706
  0
LINE
  5
2AB
100
AcDbEntity
  8
KONSTRUKTIONSELEMENTE
100
AcDbLine
 62
7
  6
CONTINUOUS
 10
305.3491494314
 20
226.7065651857
 11
304.8283161477
 21
226.8129481517
  0
LINE
  5
2AC
100
AcDbEntity
  8
KONSTRUKTIONSELEMENTE
100
AcDbLine
 62
7
  6
CONTINUOUS
 10
319.5158157007
 20
224.4725226753
 11
318.994983162
 21
224.5789056414
  0
LINE
  5
2AD
100
AcDbEntity
  8
KONSTRUKTIONSELEMENTE
100
AcDbLine
 62
7
  6
CONTINUOUS
 10
305.244982864
 20
228.8342248046
 11
304.7241494314
 21
228.9406077706
  0
LINE
  5
2AE
100
AcDbEntity
  8
KONSTRUKTIONSELEMENTE
100
AcDbLine
 62
7
  6
CONTINUOUS
 10
319.5158157007
 20
228.4086929404
 11
320.0366494314
 21
228.3023099744
  0
LINE
  5
2AF
100
AcDbEntity
  8
KONSTRUKTIONSELEMENTE
100
AcDbLine
 62
7
  6
CONTINUOUS
 10
303.7866494314
 20
226.2810333215
 11
304.2033161477
 21
226.1746503555
  0
LINE
  5
2B0
100
AcDbEntity
  8
KONSTRUKTIONSELEMENTE
100
AcDbLine
 62
7
  6
CONTINUOUS
 10
304.8283161477
 20
226.1746503555
 11
305.244982864
 21
226.0682673895
  0
LINE
  5
2B1
100
AcDbEntity
  8
KONSTRUKTIONSELEMENTE
100
AcDbLine
 62
7
  6
CONTINUOUS
 10
304.2033161477
 20
226.8129481517
 11
303.8908161477
 21
226.9193311178
  0
LINE
  5
2B2
100
AcDbEntity
  8
KONSTRUKTIONSELEMENTE
100
AcDbLine
 62
7
  6
CONTINUOUS
 10
304.8283161477
 20
228.3023099744
 11
305.1408159987
 21
228.1959270083
  0
LINE
  5
2B3
100
AcDbEntity
  8
KONSTRUKTIONSELEMENTE
100
AcDbLine
 62
7
  6
CONTINUOUS
 10
303.3699827895
 20
226.4937992536
 11
303.7866494314
 21
226.2810333215
  0
LINE
  5
2B4
100
AcDbEntity
  8
KONSTRUKTIONSELEMENTE
100
AcDbLine
 62
7
  6
CONTINUOUS
 10
305.7658159987
 20
226.4937992536
 11
305.3491494314
 21
226.7065651857
  0
LINE
  5
2B5
100
AcDbEntity
  8
KONSTRUKTIONSELEMENTE
100
AcDbLine
 62
7
  6
CONTINUOUS
 10
314.4574821607
 20
220.1337993132
 11
313.9324819104
 21
220.4316716181
  0
LINE
  5
2B6
100
AcDbEntity
  8
KONSTRUKTIONSELEMENTE
100
AcDbLine
 62
7
  6
CONTINUOUS
 10
302.9533161104
 20
224.366139672
 11
303.4741494314
 21
224.046990746
  0
LINE
  5
2B7
100
AcDbEntity
  8
KONSTRUKTIONSELEMENTE
100
AcDbLine
 62
7
  6
CONTINUOUS
 10
303.8908161477
 20
226.9193311178
 11
303.5783160732
 21
227.1320970499
  0
LINE
  5
2B8
100
AcDbEntity
  8
KONSTRUKTIONSELEMENTE
100
AcDbLine
 62
7
  6
CONTINUOUS
 10
305.244982864
 20
226.0682673895
 11
305.557482864
 21
225.8555014574
  0
LINE
  5
2B9
100
AcDbEntity
  8
KONSTRUKTIONSELEMENTE
100
AcDbLine
 62
7
  6
CONTINUOUS
 10
313.6699821607
 20
219.6869908559
 11
314.0637321607
 21
219.3891185509
  0
LINE
  5
2BA
100
AcDbEntity
  8
KONSTRUKTIONSELEMENTE
100
AcDbLine
 62
7
  6
CONTINUOUS
 10
318.369983162
 20
224.366139672
 11
318.8908157007
 21
224.046990746
  0
LINE
  5
2BB
100
AcDbEntity
  8
KONSTRUKTIONSELEMENTE
100
AcDbLine
 62
7
  6
CONTINUOUS
 10
320.6616494314
 20
228.5150759064
 11
320.1408157007
 21
228.8342248046
  0
LINE
  5
2BC
100
AcDbEntity
  8
KONSTRUKTIONSELEMENTE
100
AcDbLine
 62
7
  6
CONTINUOUS
 10
318.994983162
 20
224.5789056414
 11
318.682483162
 21
224.7916715734
  0
LINE
  5
2BD
100
AcDbEntity
  8
KONSTRUKTIONSELEMENTE
100
AcDbLine
 62
7
  6
CONTINUOUS
 10
320.0366494314
 20
228.3023099744
 11
320.3491494314
 21
228.0895440423
  0
LINE
  5
2BE
100
AcDbEntity
  8
KONSTRUKTIONSELEMENTE
100
AcDbLine
 62
7
  6
CONTINUOUS
 10
305.6616494314
 20
228.5150759064
 11
305.244982864
 21
228.8342248046
  0
LINE
  5
2BF
100
AcDbEntity
  8
KONSTRUKTIONSELEMENTE
100
AcDbLine
 62
7
  6
CONTINUOUS
 10
303.5783160732
 20
224.6852886074
 11
303.2658160732
 21
225.00443758
  0
LINE
  5
2C0
100
AcDbEntity
  8
KONSTRUKTIONSELEMENTE
100
AcDbLine
 62
7
  6
CONTINUOUS
 10
302.9533161104
 20
226.9193311178
 11
303.3699827895
 21
226.4937992536
  0
LINE
  5
2C1
100
AcDbEntity
  8
KONSTRUKTIONSELEMENTE
100
AcDbLine
 62
7
  6
CONTINUOUS
 10
306.182482864
 20
226.0682673895
 11
305.7658159987
 21
226.4937992536
  0
LINE
  5
2C2
100
AcDbEntity
  8
KONSTRUKTIONSELEMENTE
100
AcDbLine
 62
7
  6
CONTINUOUS
 10
305.1408159987
 20
228.1959270083
 11
305.3491494314
 21
227.9831610762
  0
LINE
  5
2C3
100
AcDbEntity
  8
0
100
AcDbLine
 62
7
  6
CONTINUOUS
 10
272.9636862929
 20
229.7071669767
 11
272.9636862929
 21
206.9606077706
  0
LINE
  5
2C4
100
AcDbEntity
  8
BEZUGSACHSEN
100
AcDbLine
 62
7
  6
CONTINUOUS
 10
272.9636862929
 20
229.7071669767
 11
272.9636862929
 21
230.1606089391
  0
LINE
  5
2C5
100
AcDbEntity
  8
0
100
AcDbLine
 62
7
  6
CONTINUOUS
 10
279.9637324468
 20
261.9606077706
 11
279.9637324468
 21
259.9606077706
  0
LINE
  5
2C6
100
AcDbEntity
  8
KONSTRUKTIONSELEMENTE
100
AcDbLine
 62
7
  6
CONTINUOUS
 10
318.057483162
 20
224.6852886074
 11
318.369983162
 21
224.366139672
  0
LINE
  5
2C7
100
AcDbEntity
  8
KONSTRUKTIONSELEMENTE
100
AcDbLine
 62
7
  6
CONTINUOUS
 10
314.982482411
 20
219.5380547034
 11
314.4574821607
 21
220.1337993132
  0
LINE
  5
2C8
100
AcDbEntity
  8
KONSTRUKTIONSELEMENTE
100
AcDbLine
 62
7
  6
CONTINUOUS
 10
305.9741494314
 20
228.0895440423
 11
305.6616494314
 21
228.5150759064
  0
LINE
  5
2C9
100
AcDbEntity
  8
KONSTRUKTIONSELEMENTE
100
AcDbLine
 62
7
  6
CONTINUOUS
 10
305.557482864
 20
225.8555014574
 11
305.7658159987
 21
225.5363524102
  0
LINE
  5
2CA
100
AcDbEntity
  8
KONSTRUKTIONSELEMENTE
100
AcDbLine
 62
7
  6
CONTINUOUS
 10
302.6408161011
 20
224.898054614
 11
302.9533161104
 21
224.366139672
  0
LINE
  5
2CB
100
AcDbEntity
  8
BEZUGSACHSEN
100
AcDbLine
 62
7
  6
CONTINUOUS
 10
280.9637324468
 20
264.8788129145
 11
280.9637324468
 21
261.9606077706
  0
LINE
  5
2CC
100
AcDbEntity
  8
BEZUGSACHSEN
100
AcDbLine
 62
7
  6
CONTINUOUS
 10
278.0445821404
 20
258.9758000176
 11
272.9636862929
 21
230.1606077706
  0
LINE
  5
2CD
100
AcDbEntity
  8
FASEN
100
AcDbLine
 62
7
  6
CONTINUOUS
 10
272.963686705
 20
230.1606101079
 11
278.0445821404
 21
258.9758000176
  0
LINE
  5
2CE
100
AcDbEntity
  8
0
100
AcDbLine
 62
7
  6
CONTINUOUS
 10
289.5913032922
 20
291.856907136
 11
288.9433427545
 21
290.1064781882
  0
LINE
  5
2CF
100
AcDbEntity
  8
0
100
AcDbLine
 62
7
  6
CONTINUOUS
 10
289.5044005882
 20
290.396361565
 11
290.0173693215
 21
291.7821177458
  0
LINE
  5
2D0
100
AcDbEntity
  8
BEZUGSACHSEN
100
AcDbLine
 62
7
  6
CONTINUOUS
 10
289.7971075726
 20
304.2448404445
 11
281.380754907
 21
283.9259676936
  0
LINE
  5
2D1
100
AcDbEntity
  8
0
100
AcDbLine
 62
7
  6
CONTINUOUS
 10
291.9576051567
 20
296.4915694479
 11
291.721904159
 21
296.0888462958
  0
LINE
  5
2D2
100
AcDbEntity
  8
0
100
AcDbLine
 62
7
  6
CONTINUOUS
 10
290.7791001683
 20
294.4779536877
 11
290.5433990582
 21
294.0752303436
  0
LINE
  5
2D3
100
AcDbEntity
  8
0
100
AcDbLine
 62
7
  6
CONTINUOUS
 10
289.8061086365
 20
292.192035131
 11
289.5913032922
 21
291.856907136
  0
LINE
  5
2D4
100
AcDbEntity
  8
0
100
AcDbLine
 62
7
  6
CONTINUOUS
 10
293.9402875139
 20
299.0115448589
 11
292.7259139909
 21
297.5940995138
  0
LINE
  5
2D5
100
AcDbEntity
  8
0
100
AcDbLine
 62
7
  6
CONTINUOUS
 10
293.4172911683
 20
297.6162333134
 11
294.3280713106
 21
298.6793173222
  0
LINE
  5
2D6
100
AcDbEntity
  8
0
100
AcDbLine
 62
7
  6
CONTINUOUS
 10
294.2579128237
 20
299.2514749416
 11
293.9402875139
 21
299.0115448589
  0
LINE
  5
2D7
100
AcDbEntity
  8
0
100
AcDbLine
 62
7
  6
CONTINUOUS
 10
294.3280713106
 20
298.6793173222
 11
294.5950973375
 21
298.8601867316
  0
LINE
  5
2D8
100
AcDbEntity
  8
0
100
AcDbLine
 62
7
  6
CONTINUOUS
 10
302.0607444627
 20
305.0775001875
 11
301.6488274132
 21
304.8582623216
  0
LINE
  5
2D9
100
AcDbEntity
  8
0
100
AcDbLine
 62
7
  6
CONTINUOUS
 10
299.7265473253
 20
303.8351520018
 11
299.3146302759
 21
303.6159141359
  0
LINE
  5
2DA
100
AcDbEntity
  8
RUNDUNGEN
100
AcDbLine
 62
7
  6
CONTINUOUS
 10
302.9637324468
 20
310.3326857092
 11
290.8796240638
 21
305.3272841278
  0
LINE
  5
2DB
100
AcDbEntity
  8
KONSTRUKTIONSELEMENTE
100
AcDbLine
 62
7
  6
CONTINUOUS
 10
320.9741494314
 20
228.1959270083
 11
320.6616494314
 21
228.5150759064
  0
LINE
  5
2DC
100
AcDbEntity
  8
KONSTRUKTIONSELEMENTE
100
AcDbLine
 62
7
  6
CONTINUOUS
 10
318.682483162
 20
224.7916715734
 11
318.2658157007
 21
225.4299694442
  0
LINE
  5
2DD
100
AcDbEntity
  8
KONSTRUKTIONSELEMENTE
100
AcDbLine
 62
7
  6
CONTINUOUS
 10
314.0637321607
 20
219.3891185509
 11
314.3262319104
 21
218.9423100936
  0
LINE
  5
2DE
100
AcDbEntity
  8
KONSTRUKTIONSELEMENTE
100
AcDbLine
 62
7
  6
CONTINUOUS
 10
306.3908159987
 20
225.6427353763
 11
306.182482864
 21
226.0682673895
  0
LINE
  5
2DF
100
AcDbEntity
  8
KONSTRUKTIONSELEMENTE
100
AcDbLine
 62
7
  6
CONTINUOUS
 10
305.3491494314
 20
227.9831610762
 11
305.4533159987
 21
227.7703951441
  0
LINE
  5
2E0
100
AcDbEntity
  8
BEZUGSACHSEN
100
AcDbLine
 62
7
  6
CONTINUOUS
 10
281.3803979304
 20
282.3961096654
 11
285.2759804554
 21
272.9913415001
  0
LINE
  5
2E1
100
AcDbEntity
  8
KONSTRUKTIONSELEMENTE
100
AcDbLine
 62
7
  6
CONTINUOUS
 10
303.8262321607
 20
219.091246246
 11
305.6637320981
 21
213.5806077706
  0
LINE
  5
2E2
100
AcDbEntity
  8
KONSTRUKTIONSELEMENTE
100
AcDbLine
 62
7
  6
CONTINUOUS
 10
303.2658160732
 20
225.00443758
 11
303.1616494314
 21
225.3235864782
  0
LINE
  5
2E3
100
AcDbEntity
  8
KONSTRUKTIONSELEMENTE
100
AcDbLine
 62
7
  6
CONTINUOUS
 10
303.5783160732
 20
227.1320970499
 11
303.4741494314
 21
227.451245948
  0
LINE
  5
2E4
100
AcDbEntity
  8
KONSTRUKTIONSELEMENTE
100
AcDbLine
 62
7
  6
CONTINUOUS
 10
306.1887321607
 20
214.3252886372
 11
304.2199821607
 21
220.5806077706
  0
LINE
  5
2E5
100
AcDbEntity
  8
0
100
AcDbLine
 62
7
  6
CONTINUOUS
 10
294.3951981499
 20
294.2539170007
 11
294.4242500278
 21
293.9665781557
  0
LINE
  5
2E6
100
AcDbEntity
  8
0
100
AcDbLine
 62
7
  6
CONTINUOUS
 10
290.3922743635
 20
229.7071669767
 11
290.3922743635
 21
206.9606077706
  0
LINE
  5
2E7
100
AcDbEntity
  8
0
100
AcDbLine
 62
7
  6
CONTINUOUS
 10
294.5791436873
 20
229.7071669767
 11
294.5791436873
 21
206.9606077706
  0
LINE
  5
2E8
100
AcDbEntity
  8
0
100
AcDbLine
 62
7
  6
CONTINUOUS
 10
291.2157541702
 20
291.5872944733
 11
291.2145726428
 21
291.3389460828
  0
LINE
  5
2E9
100
AcDbEntity
  8
0
100
AcDbLine
 62
7
  6
CONTINUOUS
 10
294.9042403985
 20
293.7757666821
 11
294.9144721273
 21
294.1302261616
  0
LINE
  5
2EA
100
AcDbEntity
  8
0
100
AcDbLine
 62
7
  6
CONTINUOUS
 10
296.7504439157
 20
297.3208582277
 11
296.7279085361
 21
297.0329350085
  0
LINE
  5
2EB
100
AcDbEntity
  8
0
100
AcDbLine
 62
7
  6
CONTINUOUS
 10
297.1662916552
 20
296.7597681112
 11
297.2394257669
 21
297.1067513035
  0
LINE
  5
2EC
100
AcDbEntity
  8
0
100
AcDbLine
 62
7
  6
CONTINUOUS
 10
294.4242500278
 20
293.9665781557
 11
294.3405671171
 21
293.6551073069
  0
LINE
  5
2ED
100
AcDbEntity
  8
0
100
AcDbLine
 62
7
  6
CONTINUOUS
 10
294.7812741445
 20
293.3971755602
 11
294.9042403985
 21
293.7757666821
  0
LINE
  5
2EE
100
AcDbEntity
  8
0
100
AcDbLine
 62
7
  6
CONTINUOUS
 10
291.2145726428
 20
291.3389460828
 11
290.7016039095
 21
289.953189902
  0
LINE
  5
2EF
100
AcDbEntity
  8
0
100
AcDbLine
 62
7
  6
CONTINUOUS
 10
291.1804851486
 20
289.7759212699
 11
291.6394571833
 21
291.0158084065
  0
LINE
  5
2F0
100
AcDbEntity
  8
0
100
AcDbLine
 62
7
  6
CONTINUOUS
 10
292.6945795746
 20
288.7178737377
 11
292.856569709
 21
289.1554809747
  0
LINE
  5
2F1
100
AcDbEntity
  8
0
100
AcDbLine
 62
7
  6
CONTINUOUS
 10
293.5315285767
 20
290.9788443924
 11
293.7205171184
 21
291.489386308
  0
LINE
  5
2F2
100
AcDbEntity
  8
0
100
AcDbLine
 62
7
  6
CONTINUOUS
 10
296.7279085361
 20
297.0329350085
 11
296.5901437747
 21
296.7413230869
  0
LINE
  5
2F3
100
AcDbEntity
  8
0
100
AcDbLine
 62
7
  6
CONTINUOUS
 10
296.9779276167
 20
296.4090955114
 11
297.1662916552
 21
296.7597681112
  0
LINE
  5
2F4
100
AcDbEntity
  8
0
100
AcDbLine
 62
7
  6
CONTINUOUS
 10
294.3405671171
 20
293.6551073069
 11
294.1834330437
 21
293.3866250775
  0
LINE
  5
2F5
100
AcDbEntity
  8
0
100
AcDbLine
 62
7
  6
CONTINUOUS
 10
294.6241400711
 20
293.1286933308
 11
294.7812741445
 21
293.3971755602
  0
LINE
  5
2F6
100
AcDbEntity
  8
0
100
AcDbLine
 62
7
  6
CONTINUOUS
 10
290.0173693215
 20
291.7821177458
 11
290.1781779285
 21
291.9713765923
  0
LINE
  5
2F7
100
AcDbEntity
  8
0
100
AcDbLine
 62
7
  6
CONTINUOUS
 10
296.5901437747
 20
296.7413230869
 11
295.6793636324
 21
295.678239078
  0
LINE
  5
2F8
100
AcDbEntity
  8
0
100
AcDbLine
 62
7
  6
CONTINUOUS
 10
295.7635540936
 20
294.9916501663
 11
296.9779276167
 21
296.4090955114
  0
LINE
  5
2F9
100
AcDbEntity
  8
0
100
AcDbLine
 62
7
  6
CONTINUOUS
 10
294.3542714789
 20
292.8360794554
 11
294.6241400711
 21
293.1286933308
  0
LINE
  5
2FA
100
AcDbEntity
  8
0
100
AcDbLine
 62
7
  6
CONTINUOUS
 10
294.1834330437
 20
293.3866250775
 11
293.9528480325
 21
293.1611318517
  0
LINE
  5
2FB
100
AcDbEntity
  8
0
100
AcDbLine
 62
7
  6
CONTINUOUS
 10
294.0502350609
 20
292.6535744761
 11
294.3542714789
 21
292.8360794554
  0
LINE
  5
2FC
100
AcDbEntity
  8
0
100
AcDbLine
 62
7
  6
CONTINUOUS
 10
290.1535426533
 20
292.3951389033
 11
289.8061086365
 21
292.192035131
  0
LINE
  5
2FD
100
AcDbEntity
  8
0
100
AcDbLine
 62
7
  6
CONTINUOUS
 10
302.2924171111
 20
300.6695321586
 11
302.8416393199
 21
300.9618490344
  0
LINE
  5
2FE
100
AcDbEntity
  8
0
100
AcDbLine
 62
7
  6
CONTINUOUS
 10
293.9528480325
 20
293.1611318517
 11
293.6880951569
 21
293.0457475446
  0
LINE
  5
2FF
100
AcDbEntity
  8
0
100
AcDbLine
 62
7
  6
CONTINUOUS
 10
290.1781779285
 20
291.9713765923
 11
290.3918017455
 21
292.0581561968
  0
LINE
  5
300
100
AcDbEntity
  8
0
100
AcDbLine
 62
7
  6
CONTINUOUS
 10
294.5895694834
 20
299.3769730949
 11
294.2579128237
 21
299.2514749416
  0
LINE
  5
301
100
AcDbEntity
  8
FASEN
100
AcDbLine
 62
7
  6
CONTINUOUS
 10
345.8828827532
 20
258.9758000176
 11
278.0445821404
 21
258.9758000176
  0
LINE
  5
302
100
AcDbEntity
  8
FASEN
100
AcDbLine
 62
7
  6
CONTINUOUS
 10
344.7092345755
 20
259.9606077706
 11
279.218230318
 21
259.9606077706
  0
LINE
  5
303
100
AcDbEntity
  8
0
100
AcDbLine
 62
7
  6
CONTINUOUS
 10
343.9637324468
 20
261.9606077706
 11
279.9637324468
 21
261.9606077706
  0
LINE
  5
304
100
AcDbEntity
  8
KONSTRUKTIONSELEMENTE
100
AcDbLine
 62
7
  6
CONTINUOUS
 10
320.3491494314
 20
228.0895440423
 11
320.7658157007
 21
227.451245948
  0
LINE
  5
305
100
AcDbEntity
  8
KONSTRUKTIONSELEMENTE
100
AcDbLine
 62
7
  6
CONTINUOUS
 10
317.8491494314
 20
225.1108205461
 11
318.057483162
 21
224.6852886074
  0
LINE
  5
306
100
AcDbEntity
  8
KONSTRUKTIONSELEMENTE
100
AcDbLine
 62
7
  6
CONTINUOUS
 10
321.182483162
 20
227.7703951441
 11
320.9741494314
 21
228.1959270083
  0
LINE
  5
307
100
AcDbEntity
  8
KONSTRUKTIONSELEMENTE
100
AcDbLine
 62
7
  6
CONTINUOUS
 10
306.0783159987
 20
227.7703951441
 11
305.9741494314
 21
228.0895440423
  0
LINE
  5
308
100
AcDbEntity
  8
KONSTRUKTIONSELEMENTE
100
AcDbLine
 62
7
  6
CONTINUOUS
 10
302.5366494314
 20
225.3235864782
 11
302.6408161011
 21
224.898054614
  0
LINE
  5
309
100
AcDbEntity
  8
KONSTRUKTIONSELEMENTE
100
AcDbLine
 62
7
  6
CONTINUOUS
 10
302.8491494314
 20
227.344862982
 11
302.9533161104
 21
226.9193311178
  0
LINE
  5
30A
100
AcDbEntity
  8
0
100
AcDbLine
 62
7
  6
CONTINUOUS
 10
291.6418202766
 20
291.5125052918
 11
291.5901865942
 21
291.8633329242
  0
LINE
  5
30B
100
AcDbEntity
  8
0
100
AcDbLine
 62
7
  6
CONTINUOUS
 10
298.4637324468
 20
206.9606077706
 11
298.4637324468
 21
168.9606077706
  0
LINE
  5
30C
100
AcDbEntity
  8
RUNDUNGEN
100
AcDbLine
 62
7
  6
CONTINUOUS
 10
299.4637324468
 20
229.9547077706
 11
299.4637324468
 21
213.1606077706
  0
LINE
  5
30D
100
AcDbEntity
  8
RUNDUNGEN
100
AcDbLine
 62
7
  6
CONTINUOUS
 10
299.9637324468
 20
245.1606077706
 11
299.9637324468
 21
236.9547077706
  0
LINE
  5
30E
100
AcDbEntity
  8
KONSTRUKTIONSELEMENTE
100
AcDbLine
 62
7
  6
CONTINUOUS
 10
302.8491494314
 20
227.7703951441
 11
302.8491494314
 21
227.344862982
  0
LINE
  5
30F
100
AcDbEntity
  8
0
100
AcDbLine
 62
7
  6
CONTINUOUS
 10
302.9637324468
 20
286.0416976523
 11
302.9637324468
 21
388.8795178889
  0
LINE
  5
310
100
AcDbEntity
  8
KONSTRUKTIONSELEMENTE
100
AcDbLine
 62
7
  6
CONTINUOUS
 10
303.0387321607
 20
220.5806077706
 11
303.0387321607
 21
213.5806077706
  0
LINE
  5
311
100
AcDbEntity
  8
KONSTRUKTIONSELEMENTE
100
AcDbLine
 62
7
  6
CONTINUOUS
 10
303.4741494314
 20
227.451245948
 11
303.4741494314
 21
227.6640118801
  0
LINE
  5
312
100
AcDbEntity
  8
KONSTRUKTIONSELEMENTE
100
AcDbLine
 62
7
  6
CONTINUOUS
 10
303.8262321607
 20
213.5806077706
 11
303.8262321607
 21
219.091246246
  0
LINE
  5
313
100
AcDbEntity
  8
0
100
AcDbLine
 62
7
  6
CONTINUOUS
 10
326.5365072469
 20
301.5165820192
 11
326.2527258608
 21
301.3130978337
  0
LINE
  5
314
100
AcDbEntity
  8
0
100
AcDbLine
 62
7
  6
CONTINUOUS
 10
327.8294085923
 20
299.6914570977
 11
327.4873687118
 21
299.5394964531
  0
LINE
  5
315
100
AcDbEntity
  8
0
100
AcDbLine
 62
7
  6
CONTINUOUS
 10
326.5908923795
 20
298.1736549612
 11
326.4198737726
 21
298.0976734596
  0
LINE
  5
316
100
AcDbEntity
  8
0
100
AcDbLine
 62
7
  6
CONTINUOUS
 10
326.5440103325
 20
301.0554872049
 11
326.8296661566
 21
301.1436988661
  0
LINE
  5
317
100
AcDbEntity
  8
0
100
AcDbLine
 62
7
  6
CONTINUOUS
 10
327.5512505201
 20
299.1421553393
 11
327.836909011
 21
299.230364642
  0
LINE
  5
318
100
AcDbEntity
  8
0
100
AcDbLine
 62
7
  6
CONTINUOUS
 10
326.3691183243
 20
297.6881021416
 11
326.6547741484
 21
297.7763138027
  0
LINE
  5
319
100
AcDbEntity
  8
BEZUGSACHSEN
100
AcDbLine
 62
7
  6
CONTINUOUS
 10
334.4968825226
 20
267.4606077706
 11
289.430582371
 21
267.4606077706
  0
LINE
  5
31A
100
AcDbEntity
  8
0
100
AcDbLine
 62
7
  6
CONTINUOUS
 10
291.5901865942
 20
291.8633329242
 11
291.351927502
 21
292.2003156308
  0
LINE
  5
31B
100
AcDbEntity
  8
0
100
AcDbLine
 62
7
  6
CONTINUOUS
 10
294.2534115862
 20
294.5171237817
 11
294.3951981499
 21
294.2539170007
  0
LINE
  5
31C
100
AcDbEntity
  8
0
100
AcDbLine
 62
7
  6
CONTINUOUS
 10
291.1101238277
 20
291.7922531659
 11
291.2157541702
 21
291.5872944733
  0
LINE
  5
31D
100
AcDbEntity
  8
KONSTRUKTIONSELEMENTE
100
AcDbLine
 62
7
  6
CONTINUOUS
 10
317.744983162
 20
225.4299694442
 11
317.8491494314
 21
225.1108205461
  0
LINE
  5
31E
100
AcDbEntity
  8
KONSTRUKTIONSELEMENTE
100
AcDbLine
 62
7
  6
CONTINUOUS
 10
321.2866494314
 20
227.451245948
 11
321.182483162
 21
227.7703951441
  0
LINE
  5
31F
100
AcDbEntity
  8
0
100
AcDbLine
 62
7
  6
CONTINUOUS
 10
296.6577500039
 20
297.6050926667
 11
296.7504439157
 21
297.3208582277
  0
LINE
  5
320
100
AcDbEntity
  8
0
100
AcDbLine
 62
7
  6
CONTINUOUS
 10
294.9144721273
 20
294.1302261616
 11
294.7778015243
 21
294.5706628838
  0
LINE
  5
321
100
AcDbEntity
  8
KONSTRUKTIONSELEMENTE
100
AcDbLine
 62
7
  6
CONTINUOUS
 10
315.1137319104
 20
218.9423100936
 11
314.982482411
 21
219.5380547034
  0
LINE
  5
322
100
AcDbEntity
  8
KONSTRUKTIONSELEMENTE
100
AcDbLine
 62
7
  6
CONTINUOUS
 10
310.9741494314
 20
225.1108205461
 11
310.1408162967
 21
228.9406077706
  0
LINE
  5
323
100
AcDbEntity
  8
KONSTRUKTIONSELEMENTE
100
AcDbLine
 62
7
  6
CONTINUOUS
 10
309.7241494314
 20
227.9831610762
 11
310.557482566
 21
223.9406077706
  0
LINE
  5
324
100
AcDbEntity
  8
KONSTRUKTIONSELEMENTE
100
AcDbLine
 62
7
  6
CONTINUOUS
 10
307.2241494314
 20
228.9406077706
 11
308.057482566
 21
223.9406077706
  0
LINE
  5
325
100
AcDbEntity
  8
KONSTRUKTIONSELEMENTE
100
AcDbLine
 62
7
  6
CONTINUOUS
 10
308.4741494314
 20
225.1108205461
 11
307.8491494314
 21
228.9406077706
  0
LINE
  5
326
100
AcDbEntity
  8
0
100
AcDbLine
 62
7
  6
CONTINUOUS
 10
297.2394257669
 20
297.1067513035
 11
297.1832986073
 21
297.5644770129
  0
LINE
  5
327
100
AcDbEntity
  8
KONSTRUKTIONSELEMENTE
100
AcDbLine
 62
7
  6
CONTINUOUS
 10
305.7658159987
 20
225.5363524102
 11
305.7658159987
 21
225.2172035121
  0
LINE
  5
328
100
AcDbEntity
  8
KONSTRUKTIONSELEMENTE
100
AcDbLine
 62
7
  6
CONTINUOUS
 10
306.3908159987
 20
225.1108205461
 11
306.3908159987
 21
225.6427353763
  0
LINE
  5
329
100
AcDbEntity
  8
KONSTRUKTIONSELEMENTE
100
AcDbLine
 62
7
  6
CONTINUOUS
 10
308.5512321607
 20
219.091246246
 11
308.5512321607
 21
213.5806077706
  0
LINE
  5
32A
100
AcDbEntity
  8
KONSTRUKTIONSELEMENTE
100
AcDbLine
 62
7
  6
CONTINUOUS
 10
309.3387321607
 20
213.5806077706
 11
309.3387321607
 21
220.5806077706
  0
LINE
  5
32B
100
AcDbEntity
  8
KONSTRUKTIONSELEMENTE
100
AcDbLine
 62
7
  6
CONTINUOUS
 10
310.3887319104
 20
214.3252886372
 11
310.3887319104
 21
213.5806077706
  0
LINE
  5
32C
100
AcDbEntity
  8
KONSTRUKTIONSELEMENTE
100
AcDbLine
 62
7
  6
CONTINUOUS
 10
313.057483162
 20
228.9406077706
 11
313.057483162
 21
228.4086929404
  0
LINE
  5
32D
100
AcDbEntity
  8
0
100
AcDbLine
 62
7
  6
CONTINUOUS
 10
320.9637324468
 20
303.9550732169
 11
321.8433829015
 21
305.0880300622
  0
LINE
  5
32E
100
AcDbEntity
  8
0
100
AcDbLine
 62
7
  6
CONTINUOUS
 10
321.4064386416
 20
305.2518000572
 11
320.9637324468
 21
304.6826282131
  0
LINE
  5
32F
100
AcDbEntity
  8
0
100
AcDbLine
 62
7
  6
CONTINUOUS
 10
326.5627625547
 20
299.9027547077
 11
326.3372369962
 21
299.6477493399
  0
LINE
  5
330
100
AcDbEntity
  8
0
100
AcDbLine
 62
7
  6
CONTINUOUS
 10
327.9421715295
 20
299.8189599602
 11
327.8294085923
 21
299.6914570977
  0
LINE
  5
331
100
AcDbEntity
  8
0
100
AcDbLine
 62
7
  6
CONTINUOUS
 10
326.816417938
 20
298.428660329
 11
326.5908923795
 21
298.1736549612
  0
LINE
  5
332
100
AcDbEntity
  8
0
100
AcDbLine
 62
7
  6
CONTINUOUS
 10
328.1206903971
 20
299.4338488274
 11
328.2334533343
 21
299.5613516899
  0
LINE
  5
333
100
AcDbEntity
  8
0
100
AcDbLine
 62
7
  6
CONTINUOUS
 10
326.8821768512
 20
297.9160443324
 11
327.1077024097
 21
298.1710497002
  0
LINE
  5
334
100
AcDbEntity
  8
FASEN
100
AcDbLine
 62
7
  6
CONTINUOUS
 10
279.2182303181
 20
259.9606077707
 11
278.0445821404
 21
258.9758000176
  0
LINE
  5
335
100
AcDbEntity
  8
0
100
AcDbLine
 62
7
  6
CONTINUOUS
 10
327.836909011
 20
299.230364642
 11
328.1206903971
 21
299.4338488274
  0
LINE
  5
336
100
AcDbEntity
  8
0
100
AcDbLine
 62
7
  6
CONTINUOUS
 10
330.9564652341
 20
297.8995279939
 11
329.1323054971
 21
296.6470207786
  0
LINE
  5
337
100
AcDbEntity
  8
0
100
AcDbLine
 62
7
  6
CONTINUOUS
 10
329.7032108949
 20
296.5673244488
 11
330.8257708086
 21
297.3380981716
  0
LINE
  5
338
100
AcDbEntity
  8
0
100
AcDbLine
 62
7
  6
CONTINUOUS
 10
330.1461671589
 20
294.4186517408
 11
330.0058471943
 21
294.3223050423
  0
LINE
  5
339
100
AcDbEntity
  8
0
100
AcDbLine
 62
7
  6
CONTINUOUS
 10
332.1023910919
 20
295.4788200039
 11
332.4531910035
 21
295.7196867501
  0
LINE
  5
33A
100
AcDbEntity
  8
0
100
AcDbLine
 62
7
  6
CONTINUOUS
 10
330.1557947133
 20
293.9535656821
 11
330.4364346426
 21
294.1462590791
  0
LINE
  5
33B
100
AcDbEntity
  8
0
100
AcDbLine
 62
7
  6
CONTINUOUS
 10
326.6547741484
 20
297.7763138027
 11
326.8821768512
 21
297.9160443324
  0
LINE
  5
33C
100
AcDbEntity
  8
0
100
AcDbLine
 62
7
  6
CONTINUOUS
 10
331.9767712406
 20
293.9634934434
 11
331.6708196984
 21
293.8142179631
  0
LINE
  5
33D
100
AcDbEntity
  8
0
100
AcDbLine
 62
7
  6
CONTINUOUS
 10
332.861494394
 20
293.7028792982
 11
332.2495910954
 21
293.4043282332
  0
LINE
  5
33E
100
AcDbEntity
  8
0
100
AcDbLine
 62
7
  6
CONTINUOUS
 10
331.9436395532
 20
293.2550527529
 11
330.4138816818
 21
292.5086752732
  0
LINE
  5
33F
100
AcDbEntity
  8
0
100
AcDbLine
 62
7
  6
CONTINUOUS
 10
330.7373701108
 20
292.2338343831
 11
332.1141521576
 21
292.9055740965
  0
LINE
  5
340
100
AcDbEntity
  8
0
100
AcDbLine
 62
7
  6
CONTINUOUS
 10
332.4201036998
 20
293.0548495768
 11
333.0320069983
 21
293.3534006419
  0
LINE
  5
341
100
AcDbEntity
  8
0
100
AcDbLine
 62
7
  6
CONTINUOUS
 10
330.2794128995
 20
291.2315859685
 11
330.5853644685
 21
291.3808614618
  0
LINE
  5
342
100
AcDbEntity
  8
0
100
AcDbLine
 62
7
  6
CONTINUOUS
 10
332.4892777017
 20
292.136725532
 11
332.7952292439
 21
292.2860010122
  0
LINE
  5
343
100
AcDbEntity
  8
0
100
AcDbLine
 62
7
  6
CONTINUOUS
 10
330.0058471943
 20
294.3223050423
 11
329.7513465531
 21
294.2418970228
  0
LINE
  5
344
100
AcDbEntity
  8
0
100
AcDbLine
 62
7
  6
CONTINUOUS
 10
288.9433427545
 20
290.1064781882
 11
292.6945795746
 21
288.7178737377
  0
LINE
  5
345
100
AcDbEntity
  8
0
100
AcDbLine
 62
7
  6
CONTINUOUS
 10
292.856569709
 20
289.1554809747
 11
291.1804851486
 21
289.7759212699
  0
LINE
  5
346
100
AcDbEntity
  8
0
100
AcDbLine
 62
7
  6
CONTINUOUS
 10
290.7016039095
 20
289.953189902
 11
289.5044005882
 21
290.396361565
  0
LINE
  5
347
100
AcDbEntity
  8
0
100
AcDbLine
 62
7
  6
CONTINUOUS
 10
290.5433990582
 20
294.0752303436
 11
292.8203854093
 21
292.7425829606
  0
LINE
  5
348
100
AcDbEntity
  8
0
100
AcDbLine
 62
7
  6
CONTINUOUS
 10
293.0560865194
 20
293.1453063046
 11
290.7791001683
 21
294.4779536877
  0
LINE
  5
349
100
AcDbEntity
  8
0
100
AcDbLine
 62
7
  6
CONTINUOUS
 10
290.8976815381
 20
291.9538219518
 11
291.1101238277
 21
291.7922531659
  0
LINE
  5
34A
100
AcDbEntity
  8
0
100
AcDbLine
 62
7
  6
CONTINUOUS
 10
291.351927502
 20
292.2003156308
 11
291.1394852124
 21
292.3618844168
  0
LINE
  5
34B
100
AcDbEntity
  8
0
100
AcDbLine
 62
7
  6
CONTINUOUS
 10
292.7259139909
 20
297.5940995138
 11
295.7635540936
 21
294.9916501663
  0
LINE
  5
34C
100
AcDbEntity
  8
0
100
AcDbLine
 62
7
  6
CONTINUOUS
 10
295.6793636324
 20
295.678239078
 11
293.4172911683
 21
297.6162333134
  0
LINE
  5
34D
100
AcDbEntity
  8
0
100
AcDbLine
 62
7
  6
CONTINUOUS
 10
294.5625637465
 20
294.8768583143
 11
294.2345915078
 21
295.1589220648
  0
LINE
  5
34E
100
AcDbEntity
  8
0
100
AcDbLine
 62
7
  6
CONTINUOUS
 10
293.9988905101
 20
294.7561989128
 11
294.2534115862
 21
294.5171237817
  0
LINE
  5
34F
100
AcDbEntity
  8
0
100
AcDbLine
 62
7
  6
CONTINUOUS
 10
297.0259740175
 20
297.9040827469
 11
296.7534195574
 21
298.2399990248
  0
LINE
  5
350
100
AcDbEntity
  8
0
100
AcDbLine
 62
7
  6
CONTINUOUS
 10
296.4498261766
 20
297.8856376886
 11
296.6577500039
 21
297.6050926667
  0
LINE
  5
351
100
AcDbEntity
  8
0
100
AcDbLine
 62
7
  6
CONTINUOUS
 10
294.7778015243
 20
294.5706628838
 11
294.5625637465
 21
294.8768583143
  0
LINE
  5
352
100
AcDbEntity
  8
0
100
AcDbLine
 62
7
  6
CONTINUOUS
 10
297.1832986073
 20
297.5644770129
 11
297.0259740175
 21
297.9040827469
  0
LINE
  5
353
100
AcDbEntity
  8
KONSTRUKTIONSELEMENTE
100
AcDbLine
 62
7
  6
CONTINUOUS
 10
317.6408157007
 20
225.9618844234
 11
317.744983162
 21
225.4299694442
  0
LINE
  5
354
100
AcDbEntity
  8
KONSTRUKTIONSELEMENTE
100
AcDbLine
 62
7
  6
CONTINUOUS
 10
321.3908157007
 20
226.9193311178
 11
321.2866494314
 21
227.451245948
  0
LINE
  5
355
100
AcDbEntity
  8
0
100
AcDbLine
 62
7
  6
CONTINUOUS
 10
302.8416393199
 20
300.9618490344
 11
302.0607444627
 21
305.0775001875
  0
LINE
  5
356
100
AcDbEntity
  8
0
100
AcDbLine
 62
7
  6
CONTINUOUS
 10
301.6488274132
 20
304.8582623216
 11
302.3271115777
 21
301.2664582494
  0
LINE
  5
357
100
AcDbEntity
  8
KONSTRUKTIONSELEMENTE
100
AcDbLine
 62
7
  6
CONTINUOUS
 10
318.2658157007
 20
225.4299694442
 11
318.1616494314
 21
226.0682673895
  0
LINE
  5
358
100
AcDbEntity
  8
KONSTRUKTIONSELEMENTE
100
AcDbLine
 62
7
  6
CONTINUOUS
 10
320.7658157007
 20
227.451245948
 11
320.869983162
 21
226.8129481517
  0
LINE
  5
359
100
AcDbEntity
  8
KONSTRUKTIONSELEMENTE
100
AcDbLine
 62
7
  6
CONTINUOUS
 10
314.3262319104
 20
218.9423100936
 11
314.3262319104
 21
218.6444373714
  0
LINE
  5
35A
100
AcDbEntity
  8
KONSTRUKTIONSELEMENTE
100
AcDbLine
 62
7
  6
CONTINUOUS
 10
315.1137319104
 20
213.5806077706
 11
315.1137319104
 21
214.3252886372
  0
LINE
  5
35B
100
AcDbEntity
  8
KONSTRUKTIONSELEMENTE
100
AcDbLine
 62
7
  6
CONTINUOUS
 10
315.1137319104
 20
218.6444373714
 11
315.1137319104
 21
218.9423100936
  0
LINE
  5
35C
100
AcDbEntity
  8
KONSTRUKTIONSELEMENTE
100
AcDbLine
 62
7
  6
CONTINUOUS
 10
316.16373166
 20
220.5806077706
 11
316.16373166
 21
219.8359270083
  0
LINE
  5
35D
100
AcDbEntity
  8
KONSTRUKTIONSELEMENTE
100
AcDbLine
 62
7
  6
CONTINUOUS
 10
316.807483162
 20
228.4086929404
 11
316.807483162
 21
228.9406077706
  0
LINE
  5
35E
100
AcDbEntity
  8
KONSTRUKTIONSELEMENTE
100
AcDbLine
 62
7
  6
CONTINUOUS
 10
317.6408157007
 20
226.9193311178
 11
317.6408157007
 21
225.9618844234
  0
LINE
  5
35F
100
AcDbEntity
  8
KONSTRUKTIONSELEMENTE
100
AcDbLine
 62
7
  6
CONTINUOUS
 10
318.1616494314
 20
226.0682673895
 11
318.1616494314
 21
226.8129481517
  0
LINE
  5
360
100
AcDbEntity
  8
KONSTRUKTIONSELEMENTE
100
AcDbLine
 62
7
  6
CONTINUOUS
 10
320.869983162
 20
226.8129481517
 11
320.869983162
 21
226.0682673895
  0
LINE
  5
361
100
AcDbEntity
  8
KONSTRUKTIONSELEMENTE
100
AcDbLine
 62
7
  6
CONTINUOUS
 10
320.88873166
 20
219.8359270083
 11
320.88873166
 21
220.5806077706
  0
LINE
  5
362
100
AcDbEntity
  8
0
100
AcDbLine
 62
7
  6
CONTINUOUS
 10
320.9637324468
 20
286.0416976523
 11
320.9637324468
 21
388.8795178889
  0
LINE
  5
363
100
AcDbEntity
  8
KONSTRUKTIONSELEMENTE
100
AcDbLine
 62
7
  6
CONTINUOUS
 10
311.5991494314
 20
228.9406077706
 11
310.9741494314
 21
225.1108205461
  0
LINE
  5
364
100
AcDbEntity
  8
KONSTRUKTIONSELEMENTE
100
AcDbLine
 62
7
  6
CONTINUOUS
 10
311.3908162967
 20
223.9406077706
 11
312.2241494314
 21
228.9406077706
  0
LINE
  5
365
100
AcDbEntity
  8
KONSTRUKTIONSELEMENTE
100
AcDbLine
 62
7
  6
CONTINUOUS
 10
308.8908162967
 20
223.9406077706
 11
309.7241494314
 21
227.9831610762
  0
LINE
  5
366
100
AcDbEntity
  8
KONSTRUKTIONSELEMENTE
100
AcDbLine
 62
7
  6
CONTINUOUS
 10
309.307482566
 20
228.9406077706
 11
308.4741494314
 21
225.1108205461
  0
LINE
  5
367
100
AcDbEntity
  8
KONSTRUKTIONSELEMENTE
100
AcDbLine
 62
7
  6
CONTINUOUS
 10
302.9533161104
 20
228.1959270083
 11
302.8491494314
 21
227.7703951441
  0
LINE
  5
368
100
AcDbEntity
  8
0
100
AcDbLine
 62
7
  6
CONTINUOUS
 10
325.0217125756
 20
299.3342007044
 11
325.0762168605
 21
299.5132269291
  0
LINE
  5
369
100
AcDbEntity
  8
KONSTRUKTIONSELEMENTE
100
AcDbLine
 62
7
  6
CONTINUOUS
 10
303.4741494314
 20
227.6640118801
 11
303.5783160732
 21
227.9831610762
  0
LINE
  5
36A
100
AcDbEntity
  8
0
100
AcDbLine
 62
7
  6
CONTINUOUS
 10
324.7849350556
 20
299.7708351994
 11
324.6740466749
 21
299.5280599466
  0
LINE
  5
36B
100
AcDbEntity
  8
0
100
AcDbLine
 62
7
  6
CONTINUOUS
 10
327.1077024097
 20
298.1710497002
 11
327.2749695527
 21
298.4775786981
  0
LINE
  5
36C
100
AcDbEntity
  8
0
100
AcDbLine
 62
7
  6
CONTINUOUS
 10
328.2334533343
 20
299.5613516899
 11
328.4007230652
 21
299.8678782401
  0
LINE
  5
36D
100
AcDbEntity
  8
0
100
AcDbLine
 62
7
  6
CONTINUOUS
 10
328.5008655579
 20
296.213460568
 11
328.3082669679
 21
295.8925430808
  0
LINE
  5
36E
100
AcDbEntity
  8
0
100
AcDbLine
 62
7
  6
CONTINUOUS
 10
328.5723951634
 20
295.5078650416
 11
328.7649937534
 21
295.8287825288
  0
LINE
  5
36F
100
AcDbEntity
  8
0
100
AcDbLine
 62
7
  6
CONTINUOUS
 10
330.4364346426
 20
294.1462590791
 11
330.6991912489
 21
294.5153528841
  0
LINE
  5
370
100
AcDbEntity
  8
0
100
AcDbLine
 62
7
  6
CONTINUOUS
 10
330.31262651
 20
294.6272838842
 11
330.1461671589
 21
294.4186517408
  0
LINE
  5
371
100
AcDbEntity
  8
0
100
AcDbLine
 62
7
  6
CONTINUOUS
 10
330.4138816818
 20
292.5086752732
 11
330.1761354668
 21
292.2196076774
  0
LINE
  5
372
100
AcDbEntity
  8
0
100
AcDbLine
 62
7
  6
CONTINUOUS
 10
330.5420082971
 20
292.0519832953
 11
330.7373701108
 21
292.2338343831
  0
LINE
  5
373
100
AcDbEntity
  8
0
100
AcDbLine
 62
7
  6
CONTINUOUS
 10
329.716951349
 20
293.8409258935
 11
330.1557947133
 21
293.9535656821
  0
LINE
  5
374
100
AcDbEntity
  8
0
100
AcDbLine
 62
7
  6
CONTINUOUS
 10
291.6394571833
 20
291.0158084065
 11
293.5315285767
 21
290.9788443924
  0
LINE
  5
375
100
AcDbEntity
  8
0
100
AcDbLine
 62
7
  6
CONTINUOUS
 10
290.3918017455
 20
292.0581561968
 11
290.658240695
 21
292.0424563507
  0
LINE
  5
376
100
AcDbEntity
  8
0
100
AcDbLine
 62
7
  6
CONTINUOUS
 10
293.2269247972
 20
292.5947605168
 11
293.5992965359
 21
292.5570471236
  0
LINE
  5
377
100
AcDbEntity
  8
0
100
AcDbLine
 62
7
  6
CONTINUOUS
 10
293.3891745198
 20
293.0404720962
 11
293.0560865194
 21
293.1453063046
  0
LINE
  5
378
100
AcDbEntity
  8
0
100
AcDbLine
 62
7
  6
CONTINUOUS
 10
292.8203854093
 20
292.7425829606
 11
293.2269247972
 21
292.5947605168
  0
LINE
  5
379
100
AcDbEntity
  8
0
100
AcDbLine
 62
7
  6
CONTINUOUS
 10
290.658240695
 20
292.0424563507
 11
290.8976815381
 21
291.9538219518
  0
LINE
  5
37A
100
AcDbEntity
  8
0
100
AcDbLine
 62
7
  6
CONTINUOUS
 10
291.1394852124
 20
292.3618844168
 11
290.8202308294
 21
292.4800635876
  0
LINE
  5
37B
100
AcDbEntity
  8
0
100
AcDbLine
 62
7
  6
CONTINUOUS
 10
295.1712453595
 20
298.8786316348
 11
295.4803665944
 21
298.7162066078
  0
LINE
  5
37C
100
AcDbEntity
  8
0
100
AcDbLine
 62
7
  6
CONTINUOUS
 10
295.7839599751
 20
299.0705679441
 11
295.4102079264
 21
299.2883643823
  0
LINE
  5
37D
100
AcDbEntity
  8
0
100
AcDbLine
 62
7
  6
CONTINUOUS
 10
291.721904159
 20
296.0888462958
 11
293.9988905101
 21
294.7561989128
  0
LINE
  5
37E
100
AcDbEntity
  8
0
100
AcDbLine
 62
7
  6
CONTINUOUS
 10
294.2345915078
 20
295.1589220648
 11
291.9576051567
 21
296.4915694479
  0
LINE
  5
37F
100
AcDbEntity
  8
FASEN
100
AcDbLine
 62
7
  6
CONTINUOUS
 10
344.7092345755
 20
259.9606077707
 11
345.8828827531
 21
258.9758000177
  0
LINE
  5
380
100
AcDbEntity
  8
0
100
AcDbLine
 62
7
  6
CONTINUOUS
 10
295.4803665944
 20
298.7162066078
 11
296.4498261766
 21
297.8856376886
  0
LINE
  5
381
100
AcDbEntity
  8
0
100
AcDbLine
 62
7
  6
CONTINUOUS
 10
296.7534195574
 20
298.2399990248
 11
295.7839599751
 21
299.0705679441
  0
LINE
  5
382
100
AcDbEntity
  8
0
100
AcDbLine
 62
7
  6
CONTINUOUS
 10
302.3271115777
 20
301.2664582494
 11
299.7265473253
 21
303.8351520018
  0
LINE
  5
383
100
AcDbEntity
  8
0
100
AcDbLine
 62
7
  6
CONTINUOUS
 10
299.3146302759
 20
303.6159141359
 11
302.2924171111
 21
300.6695321586
  0
LINE
  5
384
100
AcDbEntity
  8
0
100
AcDbLine
 62
7
  6
CONTINUOUS
 10
328.1596911118
 20
295.5075106473
 11
328.1693186477
 21
295.042424576
  0
LINE
  5
385
100
AcDbEntity
  8
0
100
AcDbLine
 62
7
  6
CONTINUOUS
 10
325.0254614121
 20
299.1036556111
 11
325.0217125756
 21
299.3342007044
  0
LINE
  5
386
100
AcDbEntity
  8
0
100
AcDbLine
 62
7
  6
CONTINUOUS
 10
328.4007230652
 20
299.8678782401
 11
328.3932226465
 21
300.3289706958
  0
LINE
  5
387
100
AcDbEntity
  8
KONSTRUKTIONSELEMENTE
100
AcDbLine
 62
7
  6
CONTINUOUS
 10
321.3908157007
 20
225.9618844234
 11
321.3908157007
 21
226.9193311178
  0
LINE
  5
388
100
AcDbEntity
  8
RUNDUNGEN
100
AcDbLine
 62
7
  6
CONTINUOUS
 10
323.9637324468
 20
236.9547077706
 11
323.9637324468
 21
245.1606077706
  0
LINE
  5
389
100
AcDbEntity
  8
RUNDUNGEN
100
AcDbLine
 62
7
  6
CONTINUOUS
 10
324.4637324468
 20
213.1606077706
 11
324.4637324468
 21
229.9547077706
  0
LINE
  5
38A
100
AcDbEntity
  8
0
100
AcDbLine
 62
7
  6
CONTINUOUS
 10
325.4637324468
 20
206.9606077706
 11
325.4637324468
 21
168.9606077706
  0
LINE
  5
38B
100
AcDbEntity
  8
0
100
AcDbLine
 62
7
  6
CONTINUOUS
 10
329.3483212063
 20
229.7071669767
 11
329.3483212063
 21
206.9606077706
  0
LINE
  5
38C
100
AcDbEntity
  8
0
100
AcDbLine
 62
7
  6
CONTINUOUS
 10
328.5641392965
 20
295.2191793235
 11
328.5723951634
 21
295.5078650416
  0
LINE
  5
38D
100
AcDbEntity
  8
KONSTRUKTIONSELEMENTE
100
AcDbLine
 62
7
  6
CONTINUOUS
 10
318.1616494314
 20
226.8129481517
 11
318.2658157007
 21
227.451245948
  0
LINE
  5
38E
100
AcDbEntity
  8
0
100
AcDbLine
 62
7
  6
CONTINUOUS
 10
330.1761354668
 20
292.2196076774
 11
330.1254669328
 21
291.9352833769
  0
LINE
  5
38F
100
AcDbEntity
  8
0
100
AcDbLine
 62
7
  6
CONTINUOUS
 10
330.4913397764
 20
291.7676590013
 11
330.5420082971
 21
292.0519832953
  0
LINE
  5
390
100
AcDbEntity
  8
0
100
AcDbLine
 62
7
  6
CONTINUOUS
 10
324.6740466749
 20
299.5280599466
 11
324.621416828
 21
299.2337611975
  0
LINE
  5
391
100
AcDbEntity
  8
0
100
AcDbLine
 62
7
  6
CONTINUOUS
 10
327.2749695527
 20
298.4775786981
 11
327.3276020664
 21
298.7718750887
  0
LINE
  5
392
100
AcDbEntity
  8
0
100
AcDbLine
 62
7
  6
CONTINUOUS
 10
327.9948013764
 20
300.1132587093
 11
327.9421715295
 21
299.8189599602
  0
LINE
  5
393
100
AcDbEntity
  8
KONSTRUKTIONSELEMENTE
100
AcDbLine
 62
7
  6
CONTINUOUS
 10
317.744983162
 20
227.451245948
 11
317.6408157007
 21
226.9193311178
  0
LINE
  5
394
100
AcDbEntity
  8
KONSTRUKTIONSELEMENTE
100
AcDbLine
 62
7
  6
CONTINUOUS
 10
310.651232411
 20
219.5380547034
 11
310.5199821607
 21
218.9423100936
  0
LINE
  5
395
100
AcDbEntity
  8
KONSTRUKTIONSELEMENTE
100
AcDbLine
 62
7
  6
CONTINUOUS
 10
314.982482411
 20
218.0486927616
 11
315.1137319104
 21
218.6444373714
  0
LINE
  5
396
100
AcDbEntity
  8
0
100
AcDbLine
 62
7
  6
CONTINUOUS
 10
326.9254292535
 20
298.7867105093
 11
326.816417938
 21
298.428660329
  0
LINE
  5
397
100
AcDbEntity
  8
KONSTRUKTIONSELEMENTE
100
AcDbLine
 62
7
  6
CONTINUOUS
 10
308.1574821607
 20
220.5806077706
 11
306.1887321607
 21
214.3252886372
  0
LINE
  5
398
100
AcDbEntity
  8
KONSTRUKTIONSELEMENTE
100
AcDbLine
 62
7
  6
CONTINUOUS
 10
306.7137320355
 20
213.5806077706
 11
308.5512321607
 21
219.091246246
  0
LINE
  5
399
100
AcDbEntity
  8
0
100
AcDbLine
 62
7
  6
CONTINUOUS
 10
328.3082669679
 20
295.8925430808
 11
328.1596911118
 21
295.5075106473
  0
LINE
  5
39A
100
AcDbEntity
  8
0
100
AcDbLine
 62
7
  6
CONTINUOUS
 10
330.6991912489
 20
294.5153528841
 11
330.8477670804
 21
294.9003853007
  0
LINE
  5
39B
100
AcDbEntity
  8
0
100
AcDbLine
 62
7
  6
CONTINUOUS
 10
330.4350630534
 20
294.9000309233
 11
330.31262651
 21
294.6272838842
  0
LINE
  5
39C
100
AcDbEntity
  8
0
100
AcDbLine
 62
7
  6
CONTINUOUS
 10
326.5362889395
 20
296.101920512
 11
327.5467123451
 21
296.37247572
  0
LINE
  5
39D
100
AcDbEntity
  8
0
100
AcDbLine
 62
7
  6
CONTINUOUS
 10
327.2891305048
 20
296.6637856496
 11
326.2787070993
 21
296.3932304416
  0
LINE
  5
39E
100
AcDbEntity
  8
0
100
AcDbLine
 62
7
  6
CONTINUOUS
 10
290.5537918799
 20
292.4957634337
 11
290.1535426533
 21
292.3951389033
  0
LINE
  5
39F
100
AcDbEntity
  8
0
100
AcDbLine
 62
7
  6
CONTINUOUS
 10
293.5992965359
 20
292.5570471236
 11
294.0502350609
 21
292.6535744761
  0
LINE
  5
3A0
100
AcDbEntity
  8
0
100
AcDbLine
 62
7
  6
CONTINUOUS
 10
326.4198737726
 20
298.0976734596
 11
326.1905966319
 21
298.0732154543
  0
LINE
  5
3A1
100
AcDbEntity
  8
0
100
AcDbLine
 62
7
  6
CONTINUOUS
 10
327.4873687118
 20
299.5394964531
 11
327.2580916105
 21
299.5150384925
  0
LINE
  5
3A2
100
AcDbEntity
  8
0
100
AcDbLine
 62
7
  6
CONTINUOUS
 10
329.7513465531
 20
294.2418970228
 11
329.4528231535
 21
294.2256039327
  0
LINE
  5
3A3
100
AcDbEntity
  8
0
100
AcDbLine
 62
7
  6
CONTINUOUS
 10
293.6880951569
 20
293.0457475446
 11
293.3891745198
 21
293.0404720962
  0
LINE
  5
3A4
100
AcDbEntity
  8
0
100
AcDbLine
 62
7
  6
CONTINUOUS
 10
329.3042472973
 20
293.8405714993
 11
329.716951349
 21
293.8409258935
  0
LINE
  5
3A5
100
AcDbEntity
  8
0
100
AcDbLine
 62
7
  6
CONTINUOUS
 10
293.7205171184
 20
291.489386308
 11
291.6418202766
 21
291.5125052918
  0
LINE
  5
3A6
100
AcDbEntity
  8
0
100
AcDbLine
 62
7
  6
CONTINUOUS
 10
290.8202308294
 20
292.4800635876
 11
290.5537918799
 21
292.4957634337
  0
LINE
  5
3A7
100
AcDbEntity
  8
0
100
AcDbLine
 62
7
  6
CONTINUOUS
 10
326.0815853757
 20
297.7151653409
 11
326.3691183243
 21
297.6881021416
  0
LINE
  5
3A8
100
AcDbEntity
  8
0
100
AcDbLine
 62
7
  6
CONTINUOUS
 10
294.8761552935
 20
298.9266248876
 11
295.1712453595
 21
298.8786316348
  0
LINE
  5
3A9
100
AcDbEntity
  8
0
100
AcDbLine
 62
7
  6
CONTINUOUS
 10
295.4102079264
 20
299.2883643823
 11
295.0504874087
 21
299.391728736
  0
LINE
  5
3AA
100
AcDbEntity
  8
0
100
AcDbLine
 62
7
  6
CONTINUOUS
 10
324.621416828
 20
299.2337611975
 11
324.6834241786
 21
298.9516925857
  0
LINE
  5
3AB
100
AcDbEntity
  8
0
100
AcDbLine
 62
7
  6
CONTINUOUS
 10
330.1254669328
 20
291.9352833769
 11
330.1512862909
 21
291.6882779496
  0
LINE
  5
3AC
100
AcDbEntity
  8
0
100
AcDbLine
 62
7
  6
CONTINUOUS
 10
330.8477670804
 20
294.9003853007
 11
330.8381395261
 21
295.3654713593
  0
LINE
  5
3AD
100
AcDbEntity
  8
0
100
AcDbLine
 62
7
  6
CONTINUOUS
 10
333.5375975975
 20
229.7071669767
 11
333.5375975975
 21
206.9606077706
  0
LINE
  5
3AE
100
AcDbEntity
  8
0
100
AcDbLine
 62
7
  6
CONTINUOUS
 10
330.4433189203
 20
295.1887166414
 11
330.4350630534
 21
294.9000309233
  0
LINE
  5
3AF
100
AcDbEntity
  8
KONSTRUKTIONSELEMENTE
100
AcDbLine
 62
7
  6
CONTINUOUS
 10
320.869983162
 20
226.0682673895
 11
320.7658157007
 21
225.4299694442
  0
LINE
  5
3B0
100
AcDbEntity
  8
KONSTRUKTIONSELEMENTE
100
AcDbLine
 62
7
  6
CONTINUOUS
 10
321.2866494314
 20
225.4299694442
 11
321.3908157007
 21
225.9618844234
  0
LINE
  5
3B1
100
AcDbEntity
  8
KONSTRUKTIONSELEMENTE
100
AcDbLine
 62
7
  6
CONTINUOUS
 10
317.8491494314
 20
227.7703951441
 11
317.744983162
 21
227.451245948
  0
LINE
  5
3B2
100
AcDbEntity
  8
KONSTRUKTIONSELEMENTE
100
AcDbLine
 62
7
  6
CONTINUOUS
 10
306.182482864
 20
224.6852886074
 11
306.3908159987
 21
225.1108205461
  0
LINE
  5
3B3
100
AcDbEntity
  8
0
100
AcDbLine
 62
7
  6
CONTINUOUS
 10
294.5950973375
 20
298.8601867316
 11
294.8761552935
 21
298.9266248876
  0
LINE
  5
3B4
100
AcDbEntity
  8
0
100
AcDbLine
 62
7
  6
CONTINUOUS
 10
326.9950614495
 20
301.5654979405
 11
326.5365072469
 21
301.5165820192
  0
LINE
  5
3B5
100
AcDbEntity
  8
0
100
AcDbLine
 62
7
  6
CONTINUOUS
 10
295.0504874087
 20
299.391728736
 11
294.5895694834
 21
299.3769730949
  0
LINE
  5
3B6
100
AcDbEntity
  8
0
100
AcDbLine
 62
7
  6
CONTINUOUS
 10
327.149080374
 20
299.1569884014
 11
327.5512505201
 21
299.1421553393
  0
LINE
  5
3B7
100
AcDbEntity
  8
0
100
AcDbLine
 62
7
  6
CONTINUOUS
 10
326.8296661566
 20
301.1436988661
 11
327.1171990854
 21
301.1166356444
  0
LINE
  5
3B8
100
AcDbEntity
  8
0
100
AcDbLine
 62
7
  6
CONTINUOUS
 10
325.7357939376
 20
297.7937520867
 11
326.0815853757
 21
297.7151653409
  0
LINE
  5
3B9
100
AcDbEntity
  8
0
100
AcDbLine
 62
7
  6
CONTINUOUS
 10
326.1905966319
 20
298.0732154543
 11
326.0177009203
 21
298.1125088356
  0
LINE
  5
3BA
100
AcDbEntity
  8
0
100
AcDbLine
 62
7
  6
CONTINUOUS
 10
327.340850206
 20
301.4869135365
 11
326.9950614495
 21
301.5654979405
  0
LINE
  5
3BB
100
AcDbEntity
  8
0
100
AcDbLine
 62
7
  6
CONTINUOUS
 10
329.4404543868
 20
296.1982307112
 11
329.8270191258
 21
296.0862997111
  0
LINE
  5
3BC
100
AcDbEntity
  8
0
100
AcDbLine
 62
7
  6
CONTINUOUS
 10
329.4528231535
 20
294.2256039327
 11
329.1804390911
 21
294.3215962538
  0
LINE
  5
3BD
100
AcDbEntity
  8
0
100
AcDbLine
 62
7
  6
CONTINUOUS
 10
321.8433829015
 20
305.0880300622
 11
321.4064386416
 21
305.2518000572
  0
LINE
  5
3BE
100
AcDbEntity
  8
0
100
AcDbLine
 62
7
  6
CONTINUOUS
 10
327.2580916105
 20
299.5150384925
 11
326.795788532
 21
299.6966676197
  0
LINE
  5
3BF
100
AcDbEntity
  8
0
100
AcDbLine
 62
7
  6
CONTINUOUS
 10
328.8736598307
 20
294.0166174498
 11
329.3042472973
 21
293.8405714993
  0
LINE
  5
3C0
100
AcDbEntity
  8
0
100
AcDbLine
 62
7
  6
CONTINUOUS
 10
330.1337983432
 20
296.3912784855
 11
329.7032108949
 21
296.5673244488
  0
LINE
  5
3C1
100
AcDbEntity
  8
0
100
AcDbLine
 62
7
  6
CONTINUOUS
 10
325.4463865658
 20
297.9360878272
 11
325.7357939376
 21
297.7937520867
  0
LINE
  5
3C2
100
AcDbEntity
  8
0
100
AcDbLine
 62
7
  6
CONTINUOUS
 10
326.0177009203
 20
298.1125088356
 11
325.6700377258
 21
298.3063657639
  0
LINE
  5
3C3
100
AcDbEntity
  8
0
100
AcDbLine
 62
7
  6
CONTINUOUS
 10
327.1171990854
 20
301.1166356444
 11
327.4648649467
 21
300.9227763575
  0
LINE
  5
3C4
100
AcDbEntity
  8
0
100
AcDbLine
 62
7
  6
CONTINUOUS
 10
327.8050277225
 20
301.1900118849
 11
327.340850206
 21
301.4869135365
  0
LINE
  5
3C5
100
AcDbEntity
  8
0
100
AcDbLine
 62
7
  6
CONTINUOUS
 10
329.1804390911
 20
294.3215962538
 11
328.9341943168
 21
294.5298739524
  0
LINE
  5
3C6
100
AcDbEntity
  8
0
100
AcDbLine
 62
7
  6
CONTINUOUS
 10
329.8270191258
 20
296.0862997111
 11
330.0732659152
 21
295.8780190776
  0
LINE
  5
3C7
100
AcDbEntity
  8
0
100
AcDbLine
 62
7
  6
CONTINUOUS
 10
324.9803319445
 20
298.3482643616
 11
325.4463865658
 21
297.9360878272
  0
LINE
  5
3C8
100
AcDbEntity
  8
0
100
AcDbLine
 62
7
  6
CONTINUOUS
 10
325.6700377258
 20
298.3063657639
 11
325.3204974265
 21
298.6154975751
  0
LINE
  5
3C9
100
AcDbEntity
  8
0
100
AcDbLine
 62
7
  6
CONTINUOUS
 10
325.0762168605
 20
299.5132269291
 11
324.7849350556
 21
299.7708351994
  0
LINE
  5
3CA
100
AcDbEntity
  8
0
100
AcDbLine
 62
7
  6
CONTINUOUS
 10
326.3372369962
 20
299.6477493399
 11
326.5702629735
 21
299.4416622519
  0
LINE
  5
3CB
100
AcDbEntity
  8
0
100
AcDbLine
 62
7
  6
CONTINUOUS
 10
326.795788532
 20
299.6966676197
 11
326.5627625547
 21
299.9027547077
  0
LINE
  5
3CC
100
AcDbEntity
  8
0
100
AcDbLine
 62
7
  6
CONTINUOUS
 10
326.2527258608
 20
301.3130978337
 11
326.5440103325
 21
301.0554872049
  0
LINE
  5
3CD
100
AcDbEntity
  8
0
100
AcDbLine
 62
7
  6
CONTINUOUS
 10
327.4648649467
 20
300.9227763575
 11
327.697890924
 21
300.7166892695
  0
LINE
  5
3CE
100
AcDbEntity
  8
0
100
AcDbLine
 62
7
  6
CONTINUOUS
 10
327.9215420445
 20
301.0869671617
 11
327.8050277225
 21
301.1900118849
  0
LINE
  5
3CF
100
AcDbEntity
  8
0
100
AcDbLine
 62
7
  6
CONTINUOUS
 10
328.583394356
 20
294.2890071724
 11
328.8736598307
 21
294.0166174498
  0
LINE
  5
3D0
100
AcDbEntity
  8
0
100
AcDbLine
 62
7
  6
CONTINUOUS
 10
330.4240658268
 20
296.1188858238
 11
330.1337983432
 21
296.3912784855
  0
LINE
  5
3D1
100
AcDbEntity
  8
0
100
AcDbLine
 62
7
  6
CONTINUOUS
 10
326.2787070993
 20
296.3932304416
 11
326.5362889395
 21
296.101920512
  0
LINE
  5
3D2
100
AcDbEntity
  8
0
100
AcDbLine
 62
7
  6
CONTINUOUS
 10
327.5467123451
 20
296.37247572
 11
327.2891305048
 21
296.6637856496
  0
LINE
  5
3D3
100
AcDbEntity
  8
0
100
AcDbLine
 62
7
  6
CONTINUOUS
 10
328.2729567817
 20
300.6625628262
 11
327.9215420445
 21
301.0869671617
  0
LINE
  5
3D4
100
AcDbEntity
  8
0
100
AcDbLine
 62
7
  6
CONTINUOUS
 10
326.5702629735
 20
299.4416622519
 11
326.8634218831
 21
299.0687790988
  0
LINE
  5
3D5
100
AcDbEntity
  8
0
100
AcDbLine
 62
7
  6
CONTINUOUS
 10
325.3204974265
 20
298.6154975751
 11
325.0855943445
 21
298.9368595459
  0
LINE
  5
3D6
100
AcDbEntity
  8
0
100
AcDbLine
 62
7
  6
CONTINUOUS
 10
327.697890924
 20
300.7166892695
 11
327.932794006
 21
300.3953272988
  0
LINE
  5
3D7
100
AcDbEntity
  8
0
100
AcDbLine
 62
7
  6
CONTINUOUS
 10
328.3192661605
 20
294.6736852116
 11
328.583394356
 21
294.2890071724
  0
LINE
  5
3D8
100
AcDbEntity
  8
0
100
AcDbLine
 62
7
  6
CONTINUOUS
 10
328.9341943168
 20
294.5298739524
 11
328.6700661213
 21
294.9145519916
  0
LINE
  5
3D9
100
AcDbEntity
  8
0
100
AcDbLine
 62
7
  6
CONTINUOUS
 10
328.7649937534
 20
295.8287825288
 11
328.5008655579
 21
296.213460568
  0
LINE
  5
3DA
100
AcDbEntity
  8
0
100
AcDbLine
 62
7
  6
CONTINUOUS
 10
329.1323054971
 20
296.6470207786
 11
329.4404543868
 21
296.1982307112
  0
LINE
  5
3DB
100
AcDbEntity
  8
0
100
AcDbLine
 62
7
  6
CONTINUOUS
 10
330.0732659152
 20
295.8780190776
 11
330.3373941107
 21
295.4933410384
  0
LINE
  5
3DC
100
AcDbEntity
  8
0
100
AcDbLine
 62
7
  6
CONTINUOUS
 10
330.6881940223
 20
295.7342077847
 11
330.4240658268
 21
296.1188858238
  0
LINE
  5
3DD
100
AcDbEntity
  8
0
100
AcDbLine
 62
7
  6
CONTINUOUS
 10
330.8257708086
 20
297.3380981716
 11
332.1023910919
 21
295.4788200039
  0
LINE
  5
3DE
100
AcDbEntity
  8
0
100
AcDbLine
 62
7
  6
CONTINUOUS
 10
332.4531910035
 20
295.7196867501
 11
330.9564652341
 21
297.8995279939
  0
LINE
  5
3DF
100
AcDbEntity
  8
0
100
AcDbLine
 62
7
  6
CONTINUOUS
 10
324.8036873618
 20
298.6181027971
 11
324.9803319445
 21
298.3482643616
  0
LINE
  5
3E0
100
AcDbEntity
  8
0
100
AcDbLine
 62
7
  6
CONTINUOUS
 10
331.6708196984
 20
293.8142179631
 11
331.9436395532
 21
293.2550527529
  0
LINE
  5
3E1
100
AcDbEntity
  8
0
100
AcDbLine
 62
7
  6
CONTINUOUS
 10
332.1141521576
 20
292.9055740965
 11
332.4892777017
 21
292.136725532
  0
LINE
  5
3E2
100
AcDbEntity
  8
0
100
AcDbLine
 62
7
  6
CONTINUOUS
 10
332.7952292439
 20
292.2860010122
 11
332.4201036998
 21
293.0548495768
  0
LINE
  5
3E3
100
AcDbEntity
  8
0
100
AcDbLine
 62
7
  6
CONTINUOUS
 10
332.2495910954
 20
293.4043282332
 11
331.9767712406
 21
293.9634934434
  0
LINE
  5
3E4
100
AcDbEntity
  8
0
100
AcDbLine
 62
7
  6
CONTINUOUS
 10
333.0320069983
 20
293.3534006419
 11
332.861494394
 21
293.7028792982
  0
LINE
  5
3E5
100
AcDbEntity
  8
0
100
AcDbLine
 62
7
  6
CONTINUOUS
 10
327.3276020664
 20
298.7718750887
 11
327.149080374
 21
299.1569884014
  0
LINE
  5
3E6
100
AcDbEntity
  8
0
100
AcDbLine
 62
7
  6
CONTINUOUS
 10
328.1693186477
 20
295.042424576
 11
328.3192661605
 21
294.6736852116
  0
LINE
  5
3E7
100
AcDbEntity
  8
0
100
AcDbLine
 62
7
  6
CONTINUOUS
 10
330.8381395261
 20
295.3654713593
 11
330.6881940223
 21
295.7342077847
  0
LINE
  5
3E8
100
AcDbEntity
  8
0
100
AcDbLine
 62
7
  6
CONTINUOUS
 10
324.6834241786
 20
298.9516925857
 11
324.8036873618
 21
298.6181027971
  0
LINE
  5
3E9
100
AcDbEntity
  8
0
100
AcDbLine
 62
7
  6
CONTINUOUS
 10
325.0855943445
 20
298.9368595459
 11
325.0254614121
 21
299.1036556111
  0
LINE
  5
3EA
100
AcDbEntity
  8
0
100
AcDbLine
 62
7
  6
CONTINUOUS
 10
328.3932226465
 20
300.3289706958
 11
328.2729567817
 21
300.6625628262
  0
LINE
  5
3EB
100
AcDbEntity
  8
0
100
AcDbLine
 62
7
  6
CONTINUOUS
 10
328.6700661213
 20
294.9145519916
 11
328.5641392965
 21
295.2191793235
  0
LINE
  5
3EC
100
AcDbEntity
  8
0
100
AcDbLine
 62
7
  6
CONTINUOUS
 10
330.3373941107
 20
295.4933410384
 11
330.4433189203
 21
295.1887166414
  0
LINE
  5
3ED
100
AcDbEntity
  8
0
100
AcDbLine
 62
7
  6
CONTINUOUS
 10
330.1512862909
 20
291.6882779496
 11
330.2794128995
 21
291.2315859685
  0
LINE
  5
3EE
100
AcDbEntity
  8
0
100
AcDbLine
 62
7
  6
CONTINUOUS
 10
330.5853644685
 20
291.3808614618
 11
330.4913397764
 21
291.7676590013
  0
LINE
  5
3EF
100
AcDbEntity
  8
0
100
AcDbLine
 62
7
  6
CONTINUOUS
 10
326.8634218831
 20
299.0687790988
 11
326.9254292535
 21
298.7867105093
  0
LINE
  5
3F0
100
AcDbEntity
  8
0
100
AcDbLine
 62
7
  6
CONTINUOUS
 10
327.932794006
 20
300.3953272988
 11
327.9948013764
 21
300.1132587093
  0
LINE
  5
3F1
100
AcDbEntity
  8
BEZUGSACHSEN
100
AcDbLine
 62
7
  6
CONTINUOUS
 10
342.9637324468
 20
261.9606077706
 11
342.9637324468
 21
264.8788129145
  0
LINE
  5
3F2
100
AcDbEntity
  8
0
100
AcDbLine
 62
7
  6
CONTINUOUS
 10
343.9637324468
 20
261.9606077706
 11
343.9637324468
 21
259.9606077706
  0
LINE
  5
3F3
100
AcDbEntity
  8
KONSTRUKTIONSELEMENTE
100
AcDbLine
 62
7
  6
CONTINUOUS
 10
321.182483162
 20
225.1108205461
 11
321.2866494314
 21
225.4299694442
  0
LINE
  5
3F4
100
AcDbEntity
  8
BEZUGSACHSEN
100
AcDbLine
 62
7
  6
CONTINUOUS
 10
342.5470669632
 20
282.3961096654
 11
338.6514844382
 21
272.9913415001
  0
LINE
  5
3F5
100
AcDbEntity
  8
KONSTRUKTIONSELEMENTE
100
AcDbLine
 62
7
  6
CONTINUOUS
 10
320.10123166
 20
219.8359270083
 11
317.4762326614
 21
213.5806077706
  0
LINE
  5
3F6
100
AcDbEntity
  8
KONSTRUKTIONSELEMENTE
100
AcDbLine
 62
7
  6
CONTINUOUS
 10
318.2637326614
 20
213.5806077706
 11
320.88873166
 21
219.8359270083
  0
LINE
  5
3F7
100
AcDbEntity
  8
KONSTRUKTIONSELEMENTE
100
AcDbLine
 62
7
  6
CONTINUOUS
 10
314.3262319104
 20
218.6444373714
 11
314.0637321607
 21
218.0486927616
  0
LINE
  5
3F8
100
AcDbEntity
  8
KONSTRUKTIONSELEMENTE
100
AcDbLine
 62
7
  6
CONTINUOUS
 10
316.182483162
 20
228.4086929404
 11
314.0991494314
 21
223.9406077706
  0
LINE
  5
3F9
100
AcDbEntity
  8
KONSTRUKTIONSELEMENTE
100
AcDbLine
 62
7
  6
CONTINUOUS
 10
314.7241494314
 20
223.9406077706
 11
316.807483162
 21
228.4086929404
  0
LINE
  5
3FA
100
AcDbEntity
  8
KONSTRUKTIONSELEMENTE
100
AcDbLine
 62
7
  6
CONTINUOUS
 10
318.057483162
 20
228.1959270083
 11
317.8491494314
 21
227.7703951441
  0
LINE
  5
3FB
100
AcDbEntity
  8
KONSTRUKTIONSELEMENTE
100
AcDbLine
 62
7
  6
CONTINUOUS
 10
320.9741494314
 20
224.6852886074
 11
321.182483162
 21
225.1108205461
  0
LINE
  5
3FC
100
AcDbEntity
  8
KONSTRUKTIONSELEMENTE
100
AcDbLine
 62
7
  6
CONTINUOUS
 10
311.1762319104
 20
218.9423100936
 11
311.438732411
 21
219.3891185509
  0
LINE
  5
3FD
100
AcDbEntity
  8
KONSTRUKTIONSELEMENTE
100
AcDbLine
 62
7
  6
CONTINUOUS
 10
305.7658159987
 20
225.2172035121
 11
305.557482864
 21
224.898054614
  0
LINE
  5
3FE
100
AcDbEntity
  8
KONSTRUKTIONSELEMENTE
100
AcDbLine
 62
7
  6
CONTINUOUS
 10
303.3699827895
 20
228.6214588725
 11
302.9533161104
 21
228.1959270083
  0
LINE
  5
3FF
100
AcDbEntity
  8
RUNDUNGEN
100
AcDbLine
 62
7
  6
CONTINUOUS
 10
320.9637324468
 20
310.3326857092
 11
333.0478408298
 21
305.3272841278
  0
LINE
  5
400
100
AcDbEntity
  8
RUNDUNGEN
100
AcDbLine
 62
7
  6
CONTINUOUS
 10
342.5096221918
 20
284.0155055509
 11
342.5467099866
 21
283.9259676936
  0
LINE
  5
401
100
AcDbEntity
  8
BEZUGSACHSEN
100
AcDbLine
 62
7
  6
CONTINUOUS
 10
334.130357321
 20
304.2448404445
 11
342.5467099866
 21
283.9259676936
  0
LINE
  5
402
100
AcDbEntity
  8
BEZUGSACHSEN
100
AcDbLine
 62
7
  6
CONTINUOUS
 10
345.8828827532
 20
258.9758000176
 11
350.9636862929
 21
230.1611312738
  0
LINE
  5
403
100
AcDbEntity
  8
FASEN
100
AcDbLine
 62
7
  6
CONTINUOUS
 10
350.9636862929
 20
230.1611312738
 11
345.8828827532
 21
258.9758000176
  0
LINE
  5
404
100
AcDbEntity
  8
0
100
AcDbLine
 62
7
  6
CONTINUOUS
 10
350.9636862929
 20
229.7071669767
 11
350.9636862929
 21
206.9606077706
  0
LINE
  5
405
100
AcDbEntity
  8
BEZUGSACHSEN
100
AcDbLine
 62
7
  6
CONTINUOUS
 10
350.9636862929
 20
230.1611312738
 11
350.9636862929
 21
229.7071669767
  0
LINE
  5
406
100
AcDbEntity
  8
KONSTRUKTIONSELEMENTE
100
AcDbLine
 62
7
  6
CONTINUOUS
 10
314.7199819104
 20
217.6018843042
 11
314.982482411
 21
218.0486927616
  0
LINE
  5
407
100
AcDbEntity
  8
KONSTRUKTIONSELEMENTE
100
AcDbLine
 62
7
  6
CONTINUOUS
 10
318.2658157007
 20
227.451245948
 11
318.682483162
 21
228.0895440423
  0
LINE
  5
408
100
AcDbEntity
  8
KONSTRUKTIONSELEMENTE
100
AcDbLine
 62
7
  6
CONTINUOUS
 10
320.7658157007
 20
225.4299694442
 11
320.3491494314
 21
224.7916715734
  0
LINE
  5
409
100
AcDbEntity
  8
KONSTRUKTIONSELEMENTE
100
AcDbLine
 62
7
  6
CONTINUOUS
 10
311.1762319104
 20
220.1337993132
 11
310.651232411
 21
219.5380547034
  0
LINE
  5
40A
100
AcDbEntity
  8
KONSTRUKTIONSELEMENTE
100
AcDbLine
 62
7
  6
CONTINUOUS
 10
305.7658159987
 20
224.259756706
 11
306.182482864
 21
224.6852886074
  0
LINE
  5
40B
100
AcDbEntity
  8
KONSTRUKTIONSELEMENTE
100
AcDbLine
 62
7
  6
CONTINUOUS
 10
303.5783160732
 20
227.9831610762
 11
303.8908161477
 21
228.1959270083
  0
LINE
  5
40C
100
AcDbEntity
  8
KONSTRUKTIONSELEMENTE
100
AcDbLine
 62
7
  6
CONTINUOUS
 10
318.369983162
 20
228.5150759064
 11
318.057483162
 21
228.1959270083
  0
LINE
  5
40D
100
AcDbEntity
  8
KONSTRUKTIONSELEMENTE
100
AcDbLine
 62
7
  6
CONTINUOUS
 10
320.6616494314
 20
224.366139672
 11
320.9741494314
 21
224.6852886074
  0
LINE
  5
40E
100
AcDbEntity
  8
KONSTRUKTIONSELEMENTE
100
AcDbLine
 62
7
  6
CONTINUOUS
 10
314.0637321607
 20
218.0486927616
 11
310.3887319104
 21
214.3252886372
  0
LINE
  5
40F
100
AcDbEntity
  8
KONSTRUKTIONSELEMENTE
100
AcDbLine
 62
7
  6
CONTINUOUS
 10
311.438732411
 20
214.3252886372
 11
314.7199819104
 21
217.6018843042
  0
LINE
  5
410
100
AcDbEntity
  8
KONSTRUKTIONSELEMENTE
100
AcDbLine
 62
7
  6
CONTINUOUS
 10
311.438732411
 20
219.3891185509
 11
311.832482411
 21
219.6869908559
  0
LINE
  5
411
100
AcDbEntity
  8
KONSTRUKTIONSELEMENTE
100
AcDbLine
 62
7
  6
CONTINUOUS
 10
305.557482864
 20
224.898054614
 11
305.244982864
 21
224.6852886074
  0
LINE
  5
412
100
AcDbEntity
  8
KONSTRUKTIONSELEMENTE
100
AcDbLine
 62
7
  6
CONTINUOUS
 10
318.682483162
 20
228.0895440423
 11
318.994983162
 21
228.3023099744
  0
LINE
  5
413
100
AcDbEntity
  8
KONSTRUKTIONSELEMENTE
100
AcDbLine
 62
7
  6
CONTINUOUS
 10
318.8908157007
 20
228.8342248046
 11
318.369983162
 21
228.5150759064
  0
LINE
  5
414
100
AcDbEntity
  8
KONSTRUKTIONSELEMENTE
100
AcDbLine
 62
7
  6
CONTINUOUS
 10
303.7866494314
 20
228.8342248046
 11
303.3699827895
 21
228.6214588725
  0
LINE
  5
415
100
AcDbEntity
  8
KONSTRUKTIONSELEMENTE
100
AcDbLine
 62
7
  6
CONTINUOUS
 10
305.3491494314
 20
224.046990746
 11
305.7658159987
 21
224.259756706
  0
LINE
  5
416
100
AcDbEntity
  8
KONSTRUKTIONSELEMENTE
100
AcDbLine
 62
7
  6
CONTINUOUS
 10
303.8908161477
 20
228.1959270083
 11
304.2033161477
 21
228.3023099744
  0
LINE
  5
417
100
AcDbEntity
  8
KONSTRUKTIONSELEMENTE
100
AcDbLine
 62
7
  6
CONTINUOUS
 10
320.3491494314
 20
224.7916715734
 11
320.0366494314
 21
224.5789056414
  0
LINE
  5
418
100
AcDbEntity
  8
KONSTRUKTIONSELEMENTE
100
AcDbLine
 62
7
  6
CONTINUOUS
 10
320.1408157007
 20
224.046990746
 11
320.6616494314
 21
224.366139672
  0
LINE
  5
419
100
AcDbEntity
  8
KONSTRUKTIONSELEMENTE
100
AcDbLine
 62
7
  6
CONTINUOUS
 10
311.7012321607
 20
220.4316716181
 11
311.1762319104
 21
220.1337993132
  0
LINE
  5
41A
100
AcDbEntity
  8
0
100
AcDbLine
 62
7
  6
CONTINUOUS
 10
325.4637324468
 20
168.9606077706
 11
322.4637324468
 21
165.9606077706
  0
LINE
  5
41B
100
AcDbEntity
  8
RUNDUNGEN
100
AcDbLine
 62
7
  6
CONTINUOUS
 10
140.2011596086
 20
66.6752450725
 11
140.2011596086
 21
88.6752450725
  0
LINE
  5
41C
100
AcDbEntity
  8
BEZUGSACHSEN
100
AcDbLine
 62
7
  6
CONTINUOUS
 10
143.7008385578
 20
95.059833832
 11
146.1140671307
 21
99.2467031558
  0
LINE
  5
41D
100
AcDbEntity
  8
BEZUGSACHSEN
100
AcDbLine
 62
7
  6
CONTINUOUS
 10
181.2011596086
 20
38.6752912264
 11
176.2011596086
 21
38.6752912264
  0
LINE
  5
41E
100
AcDbEntity
  8
BEZUGSACHSEN
100
AcDbLine
 62
7
  6
CONTINUOUS
 10
146.1156606488
 20
56.1013799218
 11
143.7008385578
 21
60.2906563131
  0
LINE
  5
41F
100
AcDbEntity
  8
RUNDUNGEN
100
AcDbLine
 62
7
  6
CONTINUOUS
 10
143.7008385578
 20
60.2906563131
 11
143.7008385578
 21
64.6752450725
  0
LINE
  5
420
100
AcDbEntity
  8
RUNDUNGEN
100
AcDbLine
 62
7
  6
CONTINUOUS
 10
143.7008385578
 20
90.6752450725
 11
143.7008385578
 21
95.059833832
  0
LINE
  5
421
100
AcDbEntity
  8
BEZUGSACHSEN
100
AcDbLine
 62
7
  6
CONTINUOUS
 10
146.1140671307
 20
99.2467031558
 11
176.2026000244
 21
116.6752912264
  0
LINE
  5
422
100
AcDbEntity
  8
BEZUGSACHSEN
100
AcDbLine
 62
7
  6
CONTINUOUS
 10
176.2011596086
 20
38.6752912264
 11
146.1156606488
 21
56.1013799218
  0
LWPOLYLINE
  5
423
100
AcDbEntity
  8
RUNDUNGEN
100
AcDbPolyline
 62
7
  6
CONTINUOUS
 90
7
 70
0
 10
183.3089165325
 20
46.9995356172
 10
183.4246979818
 20
47.0189114388
 10
183.9475214632
 20
47.1554081027
 10
184.4503115179
 20
47.3691524446
 10
184.9222425731
 20
47.656976037
 10
185.3536331479
 20
48.0143693619
 10
185.5954250431
 20
48.2668723443
  0
LINE
  5
424
100
AcDbEntity
  8
RUNDUNGEN
100
AcDbLine
 62
7
  6
CONTINUOUS
 10
183.3089169475
 20
46.9995328153
 11
183.3086553713
 21
46.999492981
  0
LWPOLYLINE
  5
425
100
AcDbEntity
  8
RUNDUNGEN
100
AcDbPolyline
 62
7
  6
CONTINUOUS
 90
5
 70
0
 10
182.485891221
 20
46.9403720108
 10
182.623171171
 20
46.9420511779
 10
182.8992183048
 20
46.9548403358
 10
183.1798654563
 20
46.9818095285
 10
183.3086553713
 20
46.999492981
  0
LINE
  5
426
100
AcDbEntity
  8
BEZUGSACHSEN
100
AcDbLine
 62
7
  6
CONTINUOUS
 10
182.4858728987
 20
46.9400294731
 11
174.9164463186
 21
46.9400294731
  0
LWPOLYLINE
  5
427
100
AcDbEntity
  8
BEZUGSACHSEN
100
AcDbPolyline
 62
7
  6
CONTINUOUS
 90
5
 70
0
 10
174.0936638459
 20
46.999492981
 10
174.2224537609
 20
46.9818095285
 10
174.5031009125
 20
46.9548403358
 10
174.7791480463
 20
46.9420511779
 10
174.9164279962
 20
46.9403720108
  0
LINE
  5
428
100
AcDbEntity
  8
BEZUGSACHSEN
100
AcDbLine
 62
7
  6
CONTINUOUS
 10
174.0934092956
 20
46.9995317414
 11
174.0936638459
 21
46.999492981
  0
LWPOLYLINE
  5
429
100
AcDbEntity
  8
BEZUGSACHSEN
100
AcDbPolyline
 62
7
  6
CONTINUOUS
 90
7
 70
0
 10
171.8070425067
 20
48.2667032382
 10
172.0596015035
 20
48.0039678147
 10
172.4897854346
 20
47.6500694059
 10
172.9598671281
 20
47.3651233641
 10
173.4603039708
 20
47.1535353352
 10
173.9804405408
 20
47.0183941898
 10
174.0934097105
 20
46.9995345431
  0
LINE
  5
42A
100
AcDbEntity
  8
BEZUGSACHSEN
100
AcDbLine
 62
7
  6
CONTINUOUS
 10
171.8092135772
 20
107.0862635878
 11
167.3716079139
 21
102.0360769484
  0
LINE
  5
42B
100
AcDbEntity
  8
BEZUGSACHSEN
100
AcDbLine
 62
7
  6
CONTINUOUS
 10
167.3714249124
 20
53.3146217754
 11
171.8086881148
 21
48.2648245296
  0
LINE
  5
42C
100
AcDbEntity
  8
0
100
AcDbLine
 62
7
  6
CONTINUOUS
 10
172.2011596086
 20
56.606970521
 11
171.2011596086
 21
56.606970521
  0
LINE
  5
42D
100
AcDbEntity
  8
0
100
AcDbLine
 62
7
  6
CONTINUOUS
 10
172.2011596086
 20
56.7774831254
 11
171.2011596086
 21
56.7774831254
  0
LINE
  5
42E
100
AcDbEntity
  8
0
100
AcDbLine
 62
7
  6
CONTINUOUS
 10
172.2011596086
 20
57.1857865158
 11
171.2011596086
 21
57.1857865158
  0
LINE
  5
42F
100
AcDbEntity
  8
0
100
AcDbLine
 62
7
  6
CONTINUOUS
 10
172.2011596086
 20
58.6825122852
 11
171.2011596086
 21
58.6825122852
  0
LINE
  5
430
100
AcDbEntity
  8
RUNDUNGEN
100
AcDbLine
 62
7
  6
CONTINUOUS
 10
211.5395182457
 20
60.2893636322
 11
212.7008385578
 21
60.2893636322
  0
LINE
  5
431
100
AcDbEntity
  8
0
100
AcDbLine
 62
7
  6
CONTINUOUS
 10
172.2011596086
 20
60.5066720222
 11
171.2011596086
 21
60.5066720222
  0
LINE
  5
432
100
AcDbEntity
  8
0
100
AcDbLine
 62
7
  6
CONTINUOUS
 10
172.2011596086
 20
60.7047832025
 11
171.2011596086
 21
60.7047832025
  0
LINE
  5
433
100
AcDbEntity
  8
0
100
AcDbLine
 62
7
  6
CONTINUOUS
 10
172.2011596086
 20
60.8739837659
 11
171.2011596086
 21
60.8739837659
  0
LINE
  5
434
100
AcDbEntity
  8
0
100
AcDbLine
 62
7
  6
CONTINUOUS
 10
172.2011596086
 20
61.1381119614
 11
171.2011596086
 21
61.1381119614
  0
LINE
  5
435
100
AcDbEntity
  8
0
100
AcDbLine
 62
7
  6
CONTINUOUS
 10
172.2011596086
 20
61.2457548728
 11
171.2011596086
 21
61.2457548728
  0
LINE
  5
436
100
AcDbEntity
  8
0
100
AcDbLine
 62
7
  6
CONTINUOUS
 10
172.2011596086
 20
61.3660207376
 11
171.2011596086
 21
61.3660207376
  0
LINE
  5
437
100
AcDbEntity
  8
0
100
AcDbLine
 62
7
  6
CONTINUOUS
 10
172.2011596086
 20
61.7174354748
 11
171.2011596086
 21
61.7174354748
  0
LINE
  5
438
100
AcDbEntity
  8
0
100
AcDbLine
 62
7
  6
CONTINUOUS
 10
172.2011596086
 20
61.8339497969
 11
171.2011596086
 21
61.8339497969
  0
LINE
  5
439
100
AcDbEntity
  8
0
100
AcDbLine
 62
7
  6
CONTINUOUS
 10
172.2011596086
 20
62.2981273134
 11
171.2011596086
 21
62.2981273134
  0
LINE
  5
43A
100
AcDbEntity
  8
0
100
AcDbLine
 62
7
  6
CONTINUOUS
 10
172.2011596086
 20
62.6439160699
 11
171.2011596086
 21
62.6439160699
  0
LINE
  5
43B
100
AcDbEntity
  8
0
100
AcDbLine
 62
7
  6
CONTINUOUS
 10
172.2011596086
 20
63.1024702724
 11
171.2011596086
 21
63.1024702724
  0
LINE
  5
43C
100
AcDbEntity
  8
0
100
AcDbLine
 62
7
  6
CONTINUOUS
 10
172.2011596086
 20
63.3862516585
 11
171.2011596086
 21
63.3862516585
  0
LINE
  5
43D
100
AcDbEntity
  8
0
100
AcDbLine
 62
7
  6
CONTINUOUS
 10
172.2011596086
 20
63.4483808874
 11
171.2011596086
 21
63.4483808874
  0
LINE
  5
43E
100
AcDbEntity
  8
0
100
AcDbLine
 62
7
  6
CONTINUOUS
 10
172.2011596086
 20
63.6212765991
 11
171.2011596086
 21
63.6212765991
  0
LINE
  5
43F
100
AcDbEntity
  8
0
100
AcDbLine
 62
7
  6
CONTINUOUS
 10
172.2011596086
 20
63.9689397936
 11
171.2011596086
 21
63.9689397936
  0
LINE
  5
440
100
AcDbEntity
  8
0
100
AcDbLine
 62
7
  6
CONTINUOUS
 10
172.2011596086
 20
64.3184800928
 11
171.2011596086
 21
64.3184800928
  0
LINE
  5
441
100
AcDbEntity
  8
0
100
AcDbLine
 62
7
  6
CONTINUOUS
 10
172.2011596086
 20
64.5627606589
 11
171.2011596086
 21
64.5627606589
  0
LINE
  5
442
100
AcDbEntity
  8
0
100
AcDbLine
 62
7
  6
CONTINUOUS
 10
172.2011596086
 20
64.8540424637
 11
171.2011596086
 21
64.8540424637
  0
LINE
  5
443
100
AcDbEntity
  8
0
100
AcDbLine
 62
7
  6
CONTINUOUS
 10
172.2011596086
 20
64.9649308445
 11
171.2011596086
 21
64.9649308445
  0
LINE
  5
444
100
AcDbEntity
  8
0
100
AcDbLine
 62
7
  6
CONTINUOUS
 10
172.2011596086
 20
65.0175606913
 11
171.2011596086
 21
65.0175606913
  0
LINE
  5
445
100
AcDbEntity
  8
RUNDUNGEN
100
AcDbLine
 62
7
  6
CONTINUOUS
 10
143.6645947829
 20
65.6752450725
 11
141.2011596086
 21
65.6752450725
  0
LINE
  5
446
100
AcDbEntity
  8
0
100
AcDbLine
 62
7
  6
CONTINUOUS
 10
171.2011596086
 20
56.606970521
 11
171.2011596086
 21
61.2382544541
  0
LINE
  5
447
100
AcDbEntity
  8
0
100
AcDbLine
 62
7
  6
CONTINUOUS
 10
171.2011596086
 20
61.2457548728
 11
171.2011596086
 21
64.5533831748
  0
LINE
  5
448
100
AcDbEntity
  8
0
100
AcDbLine
 62
7
  6
CONTINUOUS
 10
171.2011596086
 20
64.5627606589
 11
171.2011596086
 21
65.0175606913
  0
LINE
  5
449
100
AcDbEntity
  8
0
100
AcDbLine
 62
7
  6
CONTINUOUS
 10
171.2011596086
 20
67.7955946179
 11
171.2011596086
 21
68.6752450725
  0
LINE
  5
44A
100
AcDbEntity
  8
0
100
AcDbLine
 62
7
  6
CONTINUOUS
 10
171.2011596086
 20
86.7973381994
 11
171.2011596086
 21
90.3243472435
  0
LINE
  5
44B
100
AcDbEntity
  8
0
100
AcDbLine
 62
7
  6
CONTINUOUS
 10
171.2011596086
 20
92.3995517525
 11
171.2011596086
 21
100.6956347648
  0
LINE
  5
44C
100
AcDbEntity
  8
0
100
AcDbLine
 62
7
  6
CONTINUOUS
 10
172.2011596086
 20
67.7955946179
 11
171.2011596086
 21
67.7955946179
  0
LINE
  5
44D
100
AcDbEntity
  8
0
100
AcDbLine
 62
7
  6
CONTINUOUS
 10
172.2011596086
 20
68.2325388777
 11
171.2011596086
 21
68.2325388777
  0
LINE
  5
44E
100
AcDbEntity
  8
0
100
AcDbLine
 62
7
  6
CONTINUOUS
 10
149.7011596086
 20
68.6752450725
 11
207.7011596086
 21
68.6752450725
  0
LINE
  5
44F
100
AcDbEntity
  8
RUNDUNGEN
100
AcDbLine
 62
7
  6
CONTINUOUS
 10
172.2011596086
 20
68.6752450725
 11
172.2011596086
 21
58.8871129928
  0
LINE
  5
450
100
AcDbEntity
  8
BEZUGSACHSEN
100
AcDbLine
 62
7
  6
CONTINUOUS
 10
172.2011596086
 20
58.8871129928
 11
172.2011596086
 21
53.6141033124
  0
LINE
  5
451
100
AcDbEntity
  8
RUNDUNGEN
100
AcDbLine
 62
7
  6
CONTINUOUS
 10
172.2011596086
 20
86.6752450725
 11
172.2011596086
 21
96.4633771523
  0
LINE
  5
452
100
AcDbEntity
  8
BEZUGSACHSEN
100
AcDbLine
 62
7
  6
CONTINUOUS
 10
172.2011596086
 20
86.6752450725
 11
172.2011596086
 21
101.7363862986
  0
LINE
  5
453
100
AcDbEntity
  8
BEZUGSACHSEN
100
AcDbLine
 62
7
  6
CONTINUOUS
 10
185.2011596086
 20
101.7363862986
 11
185.2011596086
 21
96.4633771523
  0
LINE
  5
454
100
AcDbEntity
  8
RUNDUNGEN
100
AcDbLine
 62
7
  6
CONTINUOUS
 10
185.2011596086
 20
68.6752450725
 11
185.2011596086
 21
53.6141033124
  0
LINE
  5
455
100
AcDbEntity
  8
RUNDUNGEN
100
AcDbLine
 62
7
  6
CONTINUOUS
 10
185.2011596086
 20
86.6752450725
 11
185.2011596086
 21
96.4633771523
  0
LINE
  5
456
100
AcDbEntity
  8
0
100
AcDbLine
 62
7
  6
CONTINUOUS
 10
149.7011596086
 20
86.6752450725
 11
207.7011596086
 21
86.6752450725
  0
LINE
  5
457
100
AcDbEntity
  8
0
100
AcDbLine
 62
7
  6
CONTINUOUS
 10
172.2011596086
 20
86.7973381994
 11
171.2011596086
 21
86.7973381994
  0
LINE
  5
458
100
AcDbEntity
  8
0
100
AcDbLine
 62
7
  6
CONTINUOUS
 10
172.2011596086
 20
87.5782330566
 11
171.2011596086
 21
87.5782330566
  0
LINE
  5
459
100
AcDbEntity
  8
0
100
AcDbLine
 62
7
  6
CONTINUOUS
 10
172.2011596086
 20
87.9901501061
 11
171.2011596086
 21
87.9901501061
  0
LINE
  5
45A
100
AcDbEntity
  8
RUNDUNGEN
100
AcDbLine
 62
7
  6
CONTINUOUS
 10
143.6645936163
 20
89.6752450725
 11
141.2011596086
 21
89.6752450725
  0
LINE
  5
45B
100
AcDbEntity
  8
0
100
AcDbLine
 62
7
  6
CONTINUOUS
 10
172.2011596086
 20
89.912430194
 11
171.2011596086
 21
89.912430194
  0
LINE
  5
45C
100
AcDbEntity
  8
0
100
AcDbLine
 62
7
  6
CONTINUOUS
 10
172.2011596086
 20
90.3243472435
 11
171.2011596086
 21
90.3243472435
  0
LINE
  5
45D
100
AcDbEntity
  8
0
100
AcDbLine
 62
7
  6
CONTINUOUS
 10
172.2011596086
 20
92.3995517525
 11
171.2011596086
 21
92.3995517525
  0
LINE
  5
45E
100
AcDbEntity
  8
0
100
AcDbLine
 62
7
  6
CONTINUOUS
 10
172.2011596086
 20
92.4556789121
 11
171.2011596086
 21
92.4556789121
  0
LINE
  5
45F
100
AcDbEntity
  8
0
100
AcDbLine
 62
7
  6
CONTINUOUS
 10
172.2011596086
 20
92.6130035018
 11
171.2011596086
 21
92.6130035018
  0
LINE
  5
460
100
AcDbEntity
  8
0
100
AcDbLine
 62
7
  6
CONTINUOUS
 10
172.2011596086
 20
92.885557962
 11
171.2011596086
 21
92.885557962
  0
LINE
  5
461
100
AcDbEntity
  8
0
100
AcDbLine
 62
7
  6
CONTINUOUS
 10
172.2011596086
 20
93.8550175442
 11
171.2011596086
 21
93.8550175442
  0
LINE
  5
462
100
AcDbEntity
  8
0
100
AcDbLine
 62
7
  6
CONTINUOUS
 10
172.2011596086
 20
94.2287695929
 11
171.2011596086
 21
94.2287695929
  0
LINE
  5
463
100
AcDbEntity
  8
0
100
AcDbLine
 62
7
  6
CONTINUOUS
 10
172.2011596086
 20
94.5884901106
 11
171.2011596086
 21
94.5884901106
  0
LINE
  5
464
100
AcDbEntity
  8
0
100
AcDbLine
 62
7
  6
CONTINUOUS
 10
172.2011596086
 20
95.0494080359
 11
171.2011596086
 21
95.0494080359
  0
LINE
  5
465
100
AcDbEntity
  8
RUNDUNGEN
100
AcDbLine
 62
7
  6
CONTINUOUS
 10
211.5395197108
 20
95.0611265129
 11
212.7008385578
 21
95.0611265129
  0
LINE
  5
466
100
AcDbEntity
  8
0
100
AcDbLine
 62
7
  6
CONTINUOUS
 10
211.539505951
 20
95.0611265129
 11
212.7008385578
 21
95.0611265129
  0
LINE
  5
467
100
AcDbEntity
  8
0
100
AcDbLine
 62
7
  6
CONTINUOUS
 10
172.2011596086
 20
95.3810646956
 11
171.2011596086
 21
95.3810646956
  0
LINE
  5
468
100
AcDbEntity
  8
0
100
AcDbLine
 62
7
  6
CONTINUOUS
 10
172.2011596086
 20
95.6986900054
 11
171.2011596086
 21
95.6986900054
  0
LINE
  5
469
100
AcDbEntity
  8
0
100
AcDbLine
 62
7
  6
CONTINUOUS
 10
172.2011596086
 20
96.9130635285
 11
171.2011596086
 21
96.9130635285
  0
LINE
  5
46A
100
AcDbEntity
  8
0
100
AcDbLine
 62
7
  6
CONTINUOUS
 10
172.2011596086
 20
97.6813723627
 11
171.2011596086
 21
97.6813723627
  0
LINE
  5
46B
100
AcDbEntity
  8
0
100
AcDbLine
 62
7
  6
CONTINUOUS
 10
172.2011596086
 20
97.9170733603
 11
171.2011596086
 21
97.9170733603
  0
LINE
  5
46C
100
AcDbEntity
  8
0
100
AcDbLine
 62
7
  6
CONTINUOUS
 10
172.2011596086
 20
98.859877351
 11
171.2011596086
 21
98.859877351
  0
LINE
  5
46D
100
AcDbEntity
  8
0
100
AcDbLine
 62
7
  6
CONTINUOUS
 10
172.2011596086
 20
99.0955784611
 11
171.2011596086
 21
99.0955784611
  0
LINE
  5
46E
100
AcDbEntity
  8
0
100
AcDbLine
 62
7
  6
CONTINUOUS
 10
172.2011596086
 20
99.485434866
 11
171.2011596086
 21
99.485434866
  0
LINE
  5
46F
100
AcDbEntity
  8
0
100
AcDbLine
 62
7
  6
CONTINUOUS
 10
172.2011596086
 20
99.8328688828
 11
171.2011596086
 21
99.8328688828
  0
LINE
  5
470
100
AcDbEntity
  8
RUNDUNGEN
100
AcDbLine
 62
7
  6
CONTINUOUS
 10
185.59310564
 20
48.2642265573
 11
190.0307113033
 21
53.3144131966
  0
LINE
  5
471
100
AcDbEntity
  8
0
100
AcDbLine
 62
7
  6
CONTINUOUS
 10
172.2011596086
 20
100.0476742271
 11
171.2011596086
 21
100.0476742271
  0
LINE
  5
472
100
AcDbEntity
  8
0
100
AcDbLine
 62
7
  6
CONTINUOUS
 10
172.2011596086
 20
100.6956347648
 11
171.2011596086
 21
100.6956347648
  0
LWPOLYLINE
  5
473
100
AcDbEntity
  8
BEZUGSACHSEN
100
AcDbPolyline
 62
7
  6
CONTINUOUS
 90
7
 70
0
 10
185.5952767105
 20
107.0837869069
 10
185.3427177137
 20
107.3465223303
 10
184.9125337827
 20
107.7004207391
 10
184.4424520892
 20
107.985366781
 10
183.9420152464
 20
108.1969548099
 10
183.4218786764
 20
108.3320959553
 10
183.3089095068
 20
108.350955602
  0
LINE
  5
474
100
AcDbEntity
  8
BEZUGSACHSEN
100
AcDbLine
 62
7
  6
CONTINUOUS
 10
190.0308943048
 20
102.0358683697
 11
185.5936311024
 21
107.0856656154
  0
LWPOLYLINE
  5
475
100
AcDbEntity
  8
BEZUGSACHSEN
100
AcDbPolyline
 62
7
  6
CONTINUOUS
 90
7
 70
0
 10
174.0934026847
 20
108.3509545279
 10
173.9776212354
 20
108.3315787062
 10
173.454797754
 20
108.1950820423
 10
172.9520076993
 20
107.9813377004
 10
172.4800766441
 20
107.6935141081
 10
172.0486860694
 20
107.3361207832
 10
171.8068941741
 20
107.0836178007
  0
LINE
  5
476
100
AcDbEntity
  8
BEZUGSACHSEN
100
AcDbLine
 62
7
  6
CONTINUOUS
 10
174.0934022697
 20
108.3509573297
 11
174.0936638459
 21
108.3509971641
  0
LWPOLYLINE
  5
477
100
AcDbEntity
  8
BEZUGSACHSEN
100
AcDbPolyline
 62
7
  6
CONTINUOUS
 90
5
 70
0
 10
174.9164279962
 20
108.4101181343
 10
174.7791480463
 20
108.4084389672
 10
174.5031009125
 20
108.3956498092
 10
174.2224537609
 20
108.3686806166
 10
174.0936638459
 20
108.3509971641
  0
LINE
  5
478
100
AcDbEntity
  8
BEZUGSACHSEN
100
AcDbLine
 62
7
  6
CONTINUOUS
 10
174.9164463186
 20
108.4104606719
 11
182.4858728987
 21
108.4104606719
  0
LWPOLYLINE
  5
479
100
AcDbEntity
  8
BEZUGSACHSEN
100
AcDbPolyline
 62
7
  6
CONTINUOUS
 90
5
 70
0
 10
183.3086553713
 20
108.3509971641
 10
183.1798654563
 20
108.3686806166
 10
182.8992183048
 20
108.3956498092
 10
182.623171171
 20
108.4084389672
 10
182.485891221
 20
108.4101181343
  0
LINE
  5
47A
100
AcDbEntity
  8
BEZUGSACHSEN
100
AcDbLine
 62
7
  6
CONTINUOUS
 10
183.3089099217
 20
108.3509584037
 11
183.3086553713
 21
108.3509971641
  0
LINE
  5
47B
100
AcDbEntity
  8
RUNDUNGEN
100
AcDbLine
 62
7
  6
CONTINUOUS
 10
213.7008385578
 20
95.0611264746
 11
213.7008385578
 21
84.3817658149
  0
LINE
  5
47C
100
AcDbEntity
  8
RUNDUNGEN
100
AcDbLine
 62
7
  6
CONTINUOUS
 10
213.7008385578
 20
70.9687243302
 11
213.7008385578
 21
60.2893638788
  0
LINE
  5
47D
100
AcDbEntity
  8
BEZUGSACHSEN
100
AcDbLine
 62
7
  6
CONTINUOUS
 10
211.2874553497
 20
56.1025834408
 11
181.2011596086
 21
38.6752912264
  0
LINE
  5
47E
100
AcDbEntity
  8
BEZUGSACHSEN
100
AcDbLine
 62
7
  6
CONTINUOUS
 10
181.1997191928
 20
116.6752912264
 11
211.2874553497
 21
99.2479067042
  0
LINE
  5
47F
100
AcDbEntity
  8
RUNDUNGEN
100
AcDbLine
 62
7
  6
CONTINUOUS
 10
213.7008386645
 20
60.2893638173
 11
211.2874553497
 21
56.1025834408
  0
LINE
  5
480
100
AcDbEntity
  8
BEZUGSACHSEN
100
AcDbLine
 62
7
  6
CONTINUOUS
 10
176.2026000244
 20
116.6752912264
 11
181.1997191928
 21
116.6752912264
  0
LINE
  5
481
100
AcDbEntity
  8
RUNDUNGEN
100
AcDbLine
 62
7
  6
CONTINUOUS
 10
211.2874553497
 20
99.2479067042
 11
213.7008385743
 21
95.0611264842
  0
ARC
  5
482
100
AcDbEntity
  8
RUNDUNGEN
100
AcDbCircle
 62
7
  6
CONTINUOUS
 10
141.2011596086
 20
256.1606077706
 40
1.0
100
AcDbArc
 50
90.0
 51
180.0
  0
ARC
  5
483
100
AcDbEntity
  8
RUNDUNGEN
100
AcDbCircle
 62
7
  6
CONTINUOUS
 10
141.2011596086
 20
233.9547077706
 40
1.0
100
AcDbArc
 50
180.0
 51
270.0
  0
ARC
  5
484
100
AcDbEntity
  8
BEZUGSACHSEN
100
AcDbCircle
 62
7
  6
CONTINUOUS
 10
150.7011596086
 20
264.4606077706
 40
3.0
100
AcDbArc
 50
90.0
 51
180.0
  0
ARC
  5
485
100
AcDbEntity
  8
BEZUGSACHSEN
100
AcDbCircle
 62
7
  6
CONTINUOUS
 10
162.0063946156
 20
271.4606077706
 40
4.0000065173
100
AcDbArc
 50
270.0000748201
 51
274.9635619379
  0
ARC
  5
486
100
AcDbEntity
  8
BEZUGSACHSEN
100
AcDbCircle
 62
7
  6
CONTINUOUS
 10
161.866478328
 20
271.4606077706
 40
3.999843672
100
AcDbArc
 50
269.9952341149
 51
339.9983698439
  0
ARC
  5
487
100
AcDbEntity
  8
BEZUGSACHSEN
100
AcDbCircle
 62
7
  6
CONTINUOUS
 10
166.2011596086
 20
289.2185696549
 40
6.0
100
AcDbArc
 50
340.0041419317
 51
359.9999876868
  0
ARC
  5
488
100
AcDbEntity
  8
RUNDUNGEN
100
AcDbCircle
 62
7
  6
CONTINUOUS
 10
191.2011596086
 20
289.2185696549
 40
6.0
100
AcDbArc
 50
180.0000123132
 51
199.9958580683
  0
ARC
  5
489
100
AcDbEntity
  8
BEZUGSACHSEN
100
AcDbCircle
 62
7
  6
CONTINUOUS
 10
195.3959246016
 20
271.4606077706
 40
4.0000065173
100
AcDbArc
 50
265.0364380621
 51
269.9999251799
  0
ARC
  5
48A
100
AcDbEntity
  8
RUNDUNGEN
100
AcDbCircle
 62
7
  6
CONTINUOUS
 10
195.5358408892
 20
271.4606077706
 40
3.999843672
100
AcDbArc
 50
200.0016301561
 51
270.0047658851
  0
ARC
  5
48B
100
AcDbEntity
  8
BEZUGSACHSEN
100
AcDbCircle
 62
7
  6
CONTINUOUS
 10
195.5358408892
 20
271.4606077706
 40
3.999843672
100
AcDbArc
 50
200.0016301561
 51
246.6702047168
  0
ARC
  5
48C
100
AcDbEntity
  8
BEZUGSACHSEN
100
AcDbCircle
 62
7
  6
CONTINUOUS
 10
195.5358408892
 20
271.4606077706
 40
3.999843672
100
AcDbArc
 50
263.1224877663
 51
270.0047658851
  0
ARC
  5
48D
100
AcDbEntity
  8
BEZUGSACHSEN
100
AcDbCircle
 62
7
  6
CONTINUOUS
 10
206.7011596086
 20
264.4606077706
 40
3.0
100
AcDbArc
 50
0.0
 51
90.0
  0
ARC
  5
48E
100
AcDbEntity
  8
RUNDUNGEN
100
AcDbCircle
 62
7
  6
CONTINUOUS
 10
212.7008385578
 20
253.6002661807
 40
1.0
100
AcDbArc
 50
0.0000000037
 51
32.0169707922
  0
ARC
  5
48F
100
AcDbEntity
  8
RUNDUNGEN
100
AcDbCircle
 62
7
  6
CONTINUOUS
 10
214.396621347
 20
254.6606077706
 40
1.0
100
AcDbArc
 50
190.0
 51
212.0496788055
  0
ARC
  5
490
100
AcDbEntity
  8
0
100
AcDbCircle
 62
7
  6
CONTINUOUS
 10
178.7011596086
 20
359.9606077706
 40
38.0
100
AcDbArc
 50
0.0
 51
180.0
  0
ARC
  5
491
100
AcDbEntity
  8
0
100
AcDbCircle
 62
7
  6
CONTINUOUS
 10
178.7011596086
 20
314.9606077706
 40
38.0
100
AcDbArc
 50
285.3815163343
 51
360.0
  0
ARC
  5
492
100
AcDbEntity
  8
0
100
AcDbCircle
 62
7
  6
CONTINUOUS
 10
178.7011596086
 20
314.9606077706
 40
38.0
100
AcDbArc
 50
180.0
 51
254.6184836657
  0
ARC
  5
493
100
AcDbEntity
  8
0
100
AcDbCircle
 62
7
  6
CONTINUOUS
 10
178.7011596086
 20
314.9606077706
 40
20.0
100
AcDbArc
 50
288.9658572744
 51
360.0
  0
ARC
  5
494
100
AcDbEntity
  8
0
100
AcDbCircle
 62
7
  6
CONTINUOUS
 10
178.7011596086
 20
314.9606077706
 40
20.0
100
AcDbArc
 50
180.0
 51
247.954055422
  0
ARC
  5
495
100
AcDbEntity
  8
0
100
AcDbCircle
 62
7
  6
CONTINUOUS
 10
178.7011596086
 20
359.9606077706
 40
20.0
100
AcDbArc
 50
0.0
 51
180.0
  0
ARC
  5
496
100
AcDbEntity
  8
BEZUGSACHSEN
100
AcDbCircle
 62
7
  6
CONTINUOUS
 10
281.5804623254
 20
271.4606077706
 40
4.0
100
AcDbArc
 50
289.9053385415
 51
22.5
  0
ARC
  5
497
100
AcDbEntity
  8
RUNDUNGEN
100
AcDbCircle
 62
7
  6
CONTINUOUS
 10
303.9637324468
 20
236.9547077706
 40
4.0
100
AcDbArc
 50
180.0
 51
270.0
  0
ARC
  5
498
100
AcDbEntity
  8
BEZUGSACHSEN
100
AcDbCircle
 62
7
  6
CONTINUOUS
 10
283.9637331135
 20
264.8787948353
 40
3.0000073826
100
AcDbArc
 50
109.9052329567
 51
179.9996547141
  0
ARC
  5
499
100
AcDbEntity
  8
RUNDUNGEN
100
AcDbCircle
 62
7
  6
CONTINUOUS
 10
302.4637324468
 20
229.9547077706
 40
3.0
100
AcDbArc
 50
89.9999949373
 51
180.0000000568
  0
ARC
  5
49A
100
AcDbEntity
  8
RUNDUNGEN
100
AcDbCircle
 62
7
  6
CONTINUOUS
 10
302.4637324468
 20
213.1606077706
 40
3.0
100
AcDbArc
 50
179.9999999399
 51
270.0000000564
  0
ARC
  5
49B
100
AcDbEntity
  8
BEZUGSACHSEN
100
AcDbCircle
 62
7
  6
CONTINUOUS
 10
283.2285168474
 20
283.1606077706
 40
2.0
100
AcDbArc
 50
157.5002152558
 51
202.4730590456
  0
ARC
  5
49C
100
AcDbEntity
  8
BEZUGSACHSEN
100
AcDbCircle
 62
7
  6
CONTINUOUS
 10
291.6448666376
 20
303.4794735798
 40
2.0
100
AcDbArc
 50
112.4961459564
 51
157.5
  0
ARC
  5
49D
100
AcDbEntity
  8
RUNDUNGEN
100
AcDbCircle
 62
7
  6
CONTINUOUS
 10
311.9637324468
 20
245.1606077706
 40
12.0
100
AcDbArc
 50
0.0
 51
180.0
  0
ARC
  5
49E
100
AcDbEntity
  8
RUNDUNGEN
100
AcDbCircle
 62
7
  6
CONTINUOUS
 10
319.9637324468
 20
236.9547077706
 40
4.0
100
AcDbArc
 50
270.0
 51
360.0
  0
ARC
  5
49F
100
AcDbEntity
  8
RUNDUNGEN
100
AcDbCircle
 62
7
  6
CONTINUOUS
 10
321.4637324468
 20
213.1606077706
 40
3.0
100
AcDbArc
 50
269.9999999399
 51
360.0
  0
ARC
  5
4A0
100
AcDbEntity
  8
RUNDUNGEN
100
AcDbCircle
 62
7
  6
CONTINUOUS
 10
321.4637324468
 20
229.9547077706
 40
3.0
100
AcDbArc
 50
359.9999999419
 51
90.0000049437
  0
ARC
  5
4A1
100
AcDbEntity
  8
RUNDUNGEN
100
AcDbCircle
 62
7
  6
CONTINUOUS
 10
311.9637324468
 20
283.1606077706
 40
11.75
100
AcDbArc
 50
9.6411502957
 51
22.6209273478
  0
ARC
  5
4A2
100
AcDbEntity
  8
BEZUGSACHSEN
100
AcDbCircle
 62
7
  6
CONTINUOUS
 10
311.9637324468
 20
283.1606077706
 40
11.75
100
AcDbArc
 50
140.0320857509
 51
39.9679142491
  0
ARC
  5
4A3
100
AcDbEntity
  8
0
100
AcDbCircle
 62
7
  6
CONTINUOUS
 10
311.9637324468
 20
285.9606077706
 40
9.0
100
AcDbArc
 50
180.0
 51
360.0
  0
ARC
  5
4A4
100
AcDbEntity
  8
RUNDUNGEN
100
AcDbCircle
 62
7
  6
CONTINUOUS
 10
342.3470025682
 20
271.4606077706
 40
4.0
100
AcDbArc
 50
157.5
 51
241.6248113829
  0
ARC
  5
4A5
100
AcDbEntity
  8
BEZUGSACHSEN
100
AcDbCircle
 62
7
  6
CONTINUOUS
 10
342.3470025682
 20
271.4606077706
 40
4.0
100
AcDbArc
 50
157.5
 51
250.0946614585
  0
ARC
  5
4A6
100
AcDbEntity
  8
BEZUGSACHSEN
100
AcDbCircle
 62
7
  6
CONTINUOUS
 10
339.96373178
 20
264.8787948353
 40
3.0000073826
100
AcDbArc
 50
0.0003452859
 51
70.0947670433
  0
ARC
  5
4A7
100
AcDbEntity
  8
BEZUGSACHSEN
100
AcDbCircle
 62
7
  6
CONTINUOUS
 10
340.6989480462
 20
283.1606077706
 40
2.0
100
AcDbArc
 50
337.5269409544
 51
22.4997847442
  0
ARC
  5
4A8
100
AcDbEntity
  8
0
100
AcDbCircle
 62
7
  6
CONTINUOUS
 10
311.9637324468
 20
388.9606077706
 40
9.0
100
AcDbArc
 50
0.0
 51
180.0
  0
ARC
  5
4A9
100
AcDbEntity
  8
BEZUGSACHSEN
100
AcDbCircle
 62
7
  6
CONTINUOUS
 10
332.282598256
 20
303.4794735798
 40
2.0
100
AcDbArc
 50
22.5
 51
67.5038540436
  0
ARC
  5
4AA
100
AcDbEntity
  8
RUNDUNGEN
100
AcDbCircle
 62
7
  6
CONTINUOUS
 10
141.2011596086
 20
66.6752450725
 40
1.0
100
AcDbArc
 50
180.0
 51
270.0
  0
ARC
  5
4AB
100
AcDbEntity
  8
RUNDUNGEN
100
AcDbCircle
 62
7
  6
CONTINUOUS
 10
142.7008385578
 20
64.6752450725
 40
1.0
100
AcDbArc
 50
0.0
 51
90.0
  0
ARC
  5
4AC
100
AcDbEntity
  8
0
100
AcDbCircle
 62
7
  6
CONTINUOUS
 10
149.7011596086
 20
77.6752450725
 40
9.0
100
AcDbArc
 50
90.0
 51
270.0
  0
ARC
  5
4AD
100
AcDbEntity
  8
RUNDUNGEN
100
AcDbCircle
 62
7
  6
CONTINUOUS
 10
141.2011596086
 20
88.6752450725
 40
1.0
100
AcDbArc
 50
90.0
 51
180.0
  0
ARC
  5
4AE
100
AcDbEntity
  8
RUNDUNGEN
100
AcDbCircle
 62
7
  6
CONTINUOUS
 10
142.7008385578
 20
90.6752450725
 40
1.0
100
AcDbArc
 50
270.0
 51
360.0
  0
ARC
  5
4AF
100
AcDbEntity
  8
RUNDUNGEN
100
AcDbCircle
 62
7
  6
CONTINUOUS
 10
212.7008385578
 20
61.2893636322
 40
1.0
100
AcDbArc
 50
270.0
 51
360.0
  0
ARC
  5
4B0
100
AcDbEntity
  8
FASEN
100
AcDbCircle
 62
7
  6
CONTINUOUS
 10
178.7011596086
 20
77.6752450725
 40
33.9191503064
100
AcDbArc
 50
193.8003388395
 51
346.1996611527
  0
ARC
  5
4B1
100
AcDbEntity
  8
FASEN
100
AcDbCircle
 62
7
  6
CONTINUOUS
 10
178.7011596086
 20
77.6752450725
 40
33.9191503064
100
AcDbArc
 50
13.8003388395
 51
166.1996611527
  0
ARC
  5
4B2
100
AcDbEntity
  8
FASEN
100
AcDbCircle
 62
7
  6
CONTINUOUS
 10
178.7011596086
 20
77.6752450725
 40
32.7455021288
100
AcDbArc
 50
15.2480469002
 51
164.7519531137
  0
ARC
  5
4B3
100
AcDbEntity
  8
FASEN
100
AcDbCircle
 62
7
  6
CONTINUOUS
 10
178.7011596086
 20
77.6752450725
 40
32.7455021288
100
AcDbArc
 50
195.2480469002
 51
344.7519531137
  0
ARC
  5
4B4
100
AcDbEntity
  8
0
100
AcDbCircle
 62
7
  6
CONTINUOUS
 10
178.7011596086
 20
77.6752450725
 40
32.0
100
AcDbArc
 50
196.0133594337
 51
343.9866405663
  0
ARC
  5
4B5
100
AcDbEntity
  8
0
100
AcDbCircle
 62
7
  6
CONTINUOUS
 10
178.7011596086
 20
77.6752450725
 40
32.0
100
AcDbArc
 50
16.0133594337
 51
163.9866405663
  0
ARC
  5
4B6
100
AcDbEntity
  8
BEZUGSACHSEN
100
AcDbCircle
 62
7
  6
CONTINUOUS
 10
178.7011596086
 20
77.6752450725
 40
31.0
100
AcDbArc
 50
279.4888231238
 51
284.9157974827
  0
ARC
  5
4B7
100
AcDbEntity
  8
RUNDUNGEN
100
AcDbCircle
 62
7
  6
CONTINUOUS
 10
178.7011596086
 20
77.6752450725
 40
31.0
100
AcDbArc
 50
284.9157974827
 51
306.4129822592
  0
ARC
  5
4B8
100
AcDbEntity
  8
BEZUGSACHSEN
100
AcDbCircle
 62
7
  6
CONTINUOUS
 10
178.7011596086
 20
77.6752450725
 40
31.0
100
AcDbArc
 50
16.8440779721
 51
80.5111768762
  0
ARC
  5
4B9
100
AcDbEntity
  8
BEZUGSACHSEN
100
AcDbCircle
 62
7
  6
CONTINUOUS
 10
178.7011596086
 20
77.6752450725
 40
31.0
100
AcDbArc
 50
306.4129822592
 51
343.1559220279
  0
ARC
  5
4BA
100
AcDbEntity
  8
BEZUGSACHSEN
100
AcDbCircle
 62
7
  6
CONTINUOUS
 10
178.7011596086
 20
77.6752450725
 40
31.0
100
AcDbArc
 50
81.7050692184
 51
98.2949307816
  0
ARC
  5
4BB
100
AcDbEntity
  8
BEZUGSACHSEN
100
AcDbCircle
 62
7
  6
CONTINUOUS
 10
178.7011596086
 20
77.6752450725
 40
31.0
100
AcDbArc
 50
261.7050692184
 51
278.2949307816
  0
ARC
  5
4BC
100
AcDbEntity
  8
BEZUGSACHSEN
100
AcDbCircle
 62
7
  6
CONTINUOUS
 10
178.7011596086
 20
77.6752450725
 40
31.0
100
AcDbArc
 50
99.4888231238
 51
163.1559220279
  0
ARC
  5
4BD
100
AcDbEntity
  8
BEZUGSACHSEN
100
AcDbCircle
 62
7
  6
CONTINUOUS
 10
178.7011596086
 20
77.6752450725
 40
31.0
100
AcDbArc
 50
196.8440779721
 51
260.5111768762
  0
ARC
  5
4BE
100
AcDbEntity
  8
0
100
AcDbCircle
 62
7
  6
CONTINUOUS
 10
207.7011596086
 20
77.6752450725
 40
9.0
100
AcDbArc
 50
270.0
 51
90.0
  0
ARC
  5
4BF
100
AcDbEntity
  8
RUNDUNGEN
100
AcDbCircle
 62
7
  6
CONTINUOUS
 10
212.7008385578
 20
94.0611265129
 40
1.0
100
AcDbArc
 50
0.0
 51
90.0
  0
SPLINE
  5
4C0
100
AcDbEntity
  8
RUNDUNGEN
100
AcDbSpline
 62
7
  6
CONTINUOUS
 70
0
 71
3
 72
11
 73
7
 74
0
 42
0.0000001
 43
0.0000001
 44
0.0000000001
 40
0.0
 40
0.0
 40
0.0
 40
0.0
 40
0.2510394248
 40
0.4909460591
 40
0.7360267519
 40
1.0
 40
1.0
 40
1.0
 40
1.0
 10
213.3851376155
 20
229.8999203649
 30
0.0
 10
213.2200784131
 20
229.9855684086
 30
0.0
 10
212.8755606451
 20
230.1174233096
 30
0.0
 10
212.3223096866
 20
230.1516103269
 30
0.0
 10
211.7778312614
 20
230.0089262318
 30
0.0
 10
211.4474853661
 20
229.8195303298
 30
0.0
 10
211.2874553497
 20
229.7071669767
 30
0.0
  0
SPLINE
  5
4C1
100
AcDbEntity
  8
BEZUGSACHSEN
100
AcDbSpline
 62
7
  6
CONTINUOUS
 70
0
 71
3
 72
33
 73
29
 74
0
 42
0.0000001
 43
0.0000001
 44
0.0000000001
 40
0.0
 40
0.0
 40
0.0
 40
0.0
 40
0.0644423136
 40
0.1287157589
 40
0.1927549914
 40
0.2564517232
 40
0.2881202268
 40
0.3196200196
 40
0.3508942744
 40
0.3818597444
 40
0.4123920199
 40
0.4423150989
 40
0.4714517525
 40
0.4857770031
 40
0.5000002909
 40
0.5142234987
 40
0.5285487479
 40
0.5576851965
 40
0.5876081587
 40
0.6181403827
 40
0.6491058381
 40
0.680380088
 40
0.7118798538
 40
0.7435483184
 40
0.807245038
 40
0.8712842576
 40
0.9355576907
 40
1.0
 40
1.0
 40
1.0
 40
1.0
 10
211.2874553497
 20
229.7071669767
 30
0.0
 10
210.88676264
 20
230.875396651
 30
0.0
 10
210.0635981323
 20
233.2010694743
 30
0.0
 10
208.7454536556
 20
236.6525695932
 30
0.0
 10
207.3226448161
 20
240.047013308
 30
0.0
 10
206.0196239425
 20
242.8119976772
 30
0.0
 10
204.8788874112
 20
244.9597006186
 30
0.0
 10
203.9662330346
 20
246.5234547295
 30
0.0
 10
202.9816761073
 20
248.0273827165
 30
0.0
 10
201.9079495029
 20
249.4467528109
 30
0.0
 10
200.7216723947
 20
250.7412407561
 30
0.0
 10
199.3960459923
 20
251.843155525
 30
0.0
 10
198.1379368378
 20
252.5096402165
 30
0.0
 10
197.0650283212
 20
252.7949935891
 30
0.0
 10
196.2442911209
 20
252.8686838096
 30
0.0
 10
195.4235576383
 20
252.7949746577
 30
0.0
 10
194.3506490498
 20
252.5096436184
 30
0.0
 10
193.0925532568
 20
251.8431411566
 30
0.0
 10
191.7669315255
 20
250.7412356801
 30
0.0
 10
190.5806574674
 20
249.4467485523
 30
0.0
 10
189.5069334188
 20
248.0273784709
 30
0.0
 10
188.5223802789
 20
246.5234489876
 30
0.0
 10
187.6097275158
 20
244.959695637
 30
0.0
 10
186.4689869833
 20
242.8119964856
 30
0.0
 10
185.1659707377
 20
240.0470111595
 30
0.0
 10
183.7431610163
 20
236.6525687073
 30
0.0
 10
182.4250167736
 20
233.2010690602
 30
0.0
 10
181.6018522918
 20
230.8753965736
 30
0.0
 10
181.2011596086
 20
229.7071669767
 30
0.0
  0
SPLINE
  5
4C2
100
AcDbEntity
  8
BEZUGSACHSEN
100
AcDbSpline
 62
7
  6
CONTINUOUS
 70
0
 71
3
 72
9
 73
5
 74
0
 42
0.0000001
 43
0.0000001
 44
0.0000000001
 40
0.0
 40
0.0
 40
0.0
 40
0.0
 40
0.5000563455
 40
1.0
 40
1.0
 40
1.0
 40
1.0
 10
181.2011596086
 20
229.7071669767
 30
0.0
 10
180.8014921977
 20
229.8521661144
 30
0.0
 10
179.9782245015
 20
230.0811608517
 30
0.0
 10
179.1262211667
 20
230.1611312738
 30
0.0
 10
178.7011596086
 20
230.1611312738
 30
0.0
  0
SPLINE
  5
4C3
100
AcDbEntity
  8
RUNDUNGEN
100
AcDbSpline
 62
7
  6
CONTINUOUS
 70
0
 71
3
 72
12
 73
8
 74
0
 42
0.0000001
 43
0.0000001
 44
0.0000000001
 40
0.0
 40
0.0
 40
0.0
 40
0.0
 40
0.0638504036
 40
0.156737015
 40
0.4051298097
 40
0.693307327
 40
1.0
 40
1.0
 40
1.0
 40
1.0
 10
143.6431936414
 20
239.9402292879
 30
0.0
 10
143.6508305381
 20
239.9395195841
 30
0.0
 10
143.6665637553
 20
239.9248394782
 30
0.0
 10
143.6826525834
 20
239.8793327351
 30
0.0
 10
143.6939240797
 20
239.8037024945
 30
0.0
 10
143.6998469128
 20
239.7027909817
 30
0.0
 10
143.7008385578
 20
239.6312612753
 30
0.0
 10
143.7008385578
 20
239.5944209093
 30
0.0
  0
LINE
  5
4C4
100
AcDbEntity
  8
RUNDUNGEN
100
AcDbLine
 62
7
  6
CONTINUOUS
 10
142.7008385578
 20
240.0278009532
 11
143.6431936414
 21
239.9402292879
  0
SPLINE
  5
4C5
100
AcDbEntity
  8
RUNDUNGEN
100
AcDbSpline
 62
7
  6
CONTINUOUS
 70
0
 71
3
 72
11
 73
7
 74
0
 42
0.0000001
 43
0.0000001
 44
0.0000000001
 40
0.0
 40
0.0
 40
0.0
 40
0.0
 40
0.3058475593
 40
0.5672425499
 40
0.7857068031
 40
1.0
 40
1.0
 40
1.0
 40
1.0
 10
213.4769117058
 20
229.9544483815
 30
0.0
 10
213.4711334442
 20
229.9437656838
 30
0.0
 10
213.4592427991
 20
229.9245377402
 30
0.0
 10
213.4373507701
 20
229.9016748652
 30
0.0
 10
213.4103189856
 20
229.8910758762
 30
0.0
 10
213.3926909383
 20
229.8960009974
 30
0.0
 10
213.3851376155
 20
229.8999203649
 30
0.0
  0
SPLINE
  5
4C6
100
AcDbEntity
  8
BEZUGSACHSEN
100
AcDbSpline
 62
7
  6
CONTINUOUS
 70
0
 71
3
 72
9
 73
5
 74
0
 42
0.0000001
 43
0.0000001
 44
0.0000000001
 40
0.0
 40
0.0
 40
0.0
 40
0.0
 40
0.4999436547
 40
1.0
 40
1.0
 40
1.0
 40
1.0
 10
178.7011596086
 20
230.1611312738
 30
0.0
 10
178.2760980503
 20
230.1611312738
 30
0.0
 10
177.4240947155
 20
230.0811608517
 30
0.0
 10
176.6008270194
 20
229.8521661144
 30
0.0
 10
176.2011596086
 20
229.7071669767
 30
0.0
  0
SPLINE
  5
4C7
100
AcDbEntity
  8
BEZUGSACHSEN
100
AcDbSpline
 62
7
  6
CONTINUOUS
 70
0
 71
3
 72
33
 73
29
 74
0
 42
0.0000001
 43
0.0000001
 44
0.0000000001
 40
0.0
 40
0.0
 40
0.0
 40
0.0
 40
0.064442247
 40
0.1287156235
 40
0.1927547846
 40
0.2564514424
 40
0.2881199086
 40
0.3196196649
 40
0.350893886
 40
0.3818593295
 40
0.4123915974
 40
0.4423147148
 40
0.4714515046
 40
0.4857768685
 40
0.5000002909
 40
0.5142236333
 40
0.5285489958
 40
0.5576855806
 40
0.5876085811
 40
0.6181407976
 40
0.6491062266
 40
0.6803804427
 40
0.711880172
 40
0.7435485993
 40
0.8072452448
 40
0.871284393
 40
0.9355577573
 40
1.0
 40
1.0
 40
1.0
 40
1.0
 10
176.2011596086
 20
229.7071669767
 30
0.0
 10
175.8004750784
 20
230.8753168751
 30
0.0
 10
174.9773270564
 20
233.2008299902
 30
0.0
 10
173.659207953
 20
236.6520895649
 30
0.0
 10
172.2364255504
 20
240.0462917114
 30
0.0
 10
170.9334283039
 20
242.81107332
 30
0.0
 10
169.7927125824
 20
244.958612847
 30
0.0
 10
168.8800752577
 20
246.522244165
 30
0.0
 10
167.8955376217
 20
248.026049007
 30
0.0
 10
166.8218338558
 20
249.4452961022
 30
0.0
 10
165.63558572
 20
250.7396627429
 30
0.0
 10
164.3099985566
 20
251.8414624238
 30
0.0
 10
163.0519412909
 20
252.5078647972
 30
0.0
 10
161.9790870975
 20
252.7931797392
 30
0.0
 10
161.1583937727
 20
252.8668597621
 30
0.0
 10
160.3377041639
 20
252.7931608131
 30
0.0
 10
159.2648498989
 20
252.5078681977
 30
0.0
 10
158.0068059921
 20
251.8414480574
 30
0.0
 10
156.6812234996
 20
250.7396576671
 30
0.0
 10
155.4949784144
 20
249.4452918435
 30
0.0
 10
154.4212772049
 20
248.0260447609
 30
0.0
 10
153.4367433556
 20
246.5222384236
 30
0.0
 10
152.524107643
 20
244.9586078667
 30
0.0
 10
151.3833879226
 20
242.8110721286
 30
0.0
 10
150.080395302
 20
240.0462895639
 30
0.0
 10
148.6576120182
 20
236.6520886794
 30
0.0
 10
147.3394931485
 20
233.2008295764
 30
0.0
 10
146.5163451525
 20
230.8753167977
 30
0.0
 10
146.1156606488
 20
229.7071669767
 30
0.0
  0
SPLINE
  5
4C8
100
AcDbEntity
  8
RUNDUNGEN
100
AcDbSpline
 62
7
  6
CONTINUOUS
 70
0
 71
3
 72
22
 73
18
 74
0
 42
0.0000001
 43
0.0000001
 44
0.0000000001
 40
0.0
 40
0.0
 40
0.0
 40
0.0
 40
0.1390724601
 40
0.2780027684
 40
0.4165638864
 40
0.5542849687
 40
0.6225062534
 40
0.6898809862
 40
0.75563142
 40
0.8176013156
 40
0.8455902714
 40
0.8693741792
 40
0.8884140632
 40
0.905946879
 40
0.9260684851
 40
0.9489006842
 40
1.0
 40
1.0
 40
1.0
 40
1.0
 10
213.7008386645
 20
229.0316797053
 30
0.0
 10
213.7008387449
 20
229.0858353057
 30
0.0
 10
213.6999470334
 20
229.1940934863
 30
0.0
 10
213.6956320015
 20
229.3562597421
 30
0.0
 10
213.6877402031
 20
229.5177660286
 30
0.0
 10
213.6772825011
 20
229.6515471237
 30
0.0
 10
213.665291055
 20
229.7573091188
 30
0.0
 10
213.6539603722
 20
229.8349219066
 30
0.0
 10
213.6392838887
 20
229.9094702708
 30
0.0
 10
213.6227805291
 20
229.9680372311
 30
0.0
 10
213.6043594638
 20
230.0084855919
 30
0.0
 10
213.5883675743
 20
230.0312008788
 30
0.0
 10
213.5669030144
 20
230.0441972363
 30
0.0
 10
213.5437355633
 20
230.0395789474
 30
0.0
 10
213.52498503
 20
230.0247875536
 30
0.0
 10
213.5010978221
 20
229.9969107688
 30
0.0
 10
213.4863785839
 20
229.9719504677
 30
0.0
 10
213.4769117058
 20
229.9544483815
 30
0.0
  0
SPLINE
  5
4C9
100
AcDbEntity
  8
BEZUGSACHSEN
100
AcDbSpline
 62
7
  6
CONTINUOUS
 70
0
 71
3
 72
11
 73
7
 74
0
 42
0.0000001
 43
0.0000001
 44
0.0000000001
 40
0.0
 40
0.0
 40
0.0
 40
0.0
 40
0.2597930776
 40
0.5000000554
 40
0.7402069682
 40
1.0
 40
1.0
 40
1.0
 40
1.0
 10
146.1156606488
 20
229.7071669767
 30
0.0
 10
145.9320762767
 20
229.8361456196
 30
0.0
 10
145.5495854459
 20
230.0492421293
 30
0.0
 10
144.9082495096
 20
230.1712828491
 30
0.0
 10
144.266913629
 20
230.0492420816
 30
0.0
 10
143.8844228975
 20
229.8361455968
 30
0.0
 10
143.7008385578
 20
229.7071669767
 30
0.0
  0
SPLINE
  5
4CA
100
AcDbEntity
  8
BEZUGSACHSEN
100
AcDbSpline
 62
7
  6
CONTINUOUS
 70
0
 71
3
 72
11
 73
7
 74
0
 42
0.0000001
 43
0.0000001
 44
0.0000000001
 40
0.0
 40
0.0
 40
0.0
 40
0.0
 40
0.2512068121
 40
0.5000000589
 40
0.7487932357
 40
1.0
 40
1.0
 40
1.0
 40
1.0
 10
294.5791436873
 20
229.7071669767
 30
0.0
 10
294.2459996659
 20
229.8419987186
 30
0.0
 10
293.5585559469
 20
230.0559067866
 30
0.0
 10
292.4857088691
 20
230.1686241897
 30
0.0
 10
291.4128618677
 20
230.0559067403
 30
0.0
 10
290.7254183215
 20
229.8419986929
 30
0.0
 10
290.3922743635
 20
229.7071669767
 30
0.0
  0
SPLINE
  5
4CB
100
AcDbEntity
  8
RUNDUNGEN
100
AcDbSpline
 62
7
  6
CONTINUOUS
 70
0
 71
3
 72
9
 73
5
 74
0
 42
0.0000001
 43
0.0000001
 44
0.0000000001
 40
0.0
 40
0.0
 40
0.0
 40
0.0
 40
0.5000136384
 40
1.0
 40
1.0
 40
1.0
 40
1.0
 10
329.3483212063
 20
229.7071669767
 30
0.0
 10
328.6838887248
 20
231.3834291732
 30
0.0
 10
327.3028048384
 20
234.715426628
 30
0.0
 10
325.7783286926
 20
237.9858800471
 30
0.0
 10
324.9637324468
 20
239.5944209093
 30
0.0
  0
SPLINE
  5
4CC
100
AcDbEntity
  8
RUNDUNGEN
100
AcDbSpline
 62
7
  6
CONTINUOUS
 70
0
 71
3
 72
9
 73
5
 74
0
 42
0.0000001
 43
0.0000001
 44
0.0000000001
 40
0.0
 40
0.0
 40
0.0
 40
0.0
 40
0.5113623593
 40
1.0
 40
1.0
 40
1.0
 40
1.0
 10
298.9637324468
 20
239.5944209093
 30
0.0
 10
299.0016892731
 20
239.6693722811
 30
0.0
 10
299.078560397
 20
239.807506776
 30
0.0
 10
299.2181097778
 20
239.9375815939
 30
0.0
 10
299.2983469956
 20
239.9402292787
 30
0.0
  0
SPLINE
  5
4CD
100
AcDbEntity
  8
RUNDUNGEN
100
AcDbSpline
 62
7
  6
CONTINUOUS
 70
0
 71
3
 72
9
 73
5
 74
0
 42
0.0000001
 43
0.0000001
 44
0.0000000001
 40
0.0
 40
0.0
 40
0.0
 40
0.0
 40
0.4999863666
 40
1.0
 40
1.0
 40
1.0
 40
1.0
 10
298.9637324468
 20
239.5944209093
 30
0.0
 10
298.1491361927
 20
237.9858800309
 30
0.0
 10
296.6246600657
 20
234.7154266033
 30
0.0
 10
295.243576162
 20
231.3834291562
 30
0.0
 10
294.5791436873
 20
229.7071669767
 30
0.0
  0
SPLINE
  5
4CE
100
AcDbEntity
  8
BEZUGSACHSEN
100
AcDbSpline
 62
7
  6
CONTINUOUS
 70
0
 71
3
 72
37
 73
33
 74
0
 42
0.0000001
 43
0.0000001
 44
0.0000000001
 40
0.0
 40
0.0
 40
0.0
 40
0.0
 40
0.0700652517
 40
0.1395379672
 40
0.2081850147
 40
0.2420877422
 40
0.2756162801
 40
0.3086696961
 40
0.3411014139
 40
0.3726912368
 40
0.4031024651
 40
0.431803239
 40
0.4579703128
 40
0.4698007579
 40
0.4806621911
 40
0.4906190103
 40
0.5000002016
 40
0.5093813662
 40
0.5193381482
 40
0.5301997299
 40
0.542029916
 40
0.5681969017
 40
0.596897633
 40
0.6273088635
 40
0.6588987026
 40
0.6913303972
 40
0.7243837584
 40
0.7579123058
 40
0.7918150179
 40
0.8604620519
 40
0.9299347532
 40
1.0
 40
1.0
 40
1.0
 40
1.0
 10
290.3922743635
 20
229.7071669767
 30
0.0
 10
290.1607097158
 20
230.8727954547
 30
0.0
 10
289.6854640543
 20
233.1914445846
 30
0.0
 10
288.9229468826
 20
236.6394076279
 30
0.0
 10
288.2349658184
 20
239.4752230547
 30
0.0
 10
287.6429215261
 20
241.7061740206
 30
0.0
 10
287.1770354486
 20
243.3457391583
 30
0.0
 10
286.6833578611
 20
244.9511159285
 30
0.0
 10
286.1563900935
 20
246.5113396871
 30
0.0
 10
285.5890656635
 20
248.0096434218
 30
0.0
 10
284.9726390049
 20
249.4203964747
 30
0.0
 10
284.2968450271
 20
250.7005986288
 30
0.0
 10
283.6533703086
 20
251.6383525058
 30
0.0
 10
283.0773291154
 20
252.2372218767
 30
0.0
 10
282.634697688
 20
252.5748474408
 30
0.0
 10
282.166551722
 20
252.7952049947
 30
0.0
 10
281.6779697113
 20
252.8733451162
 30
0.0
 10
281.1893948183
 20
252.7951860526
 30
0.0
 10
280.721239428
 20
252.5748455435
 30
0.0
 10
280.2786208931
 20
252.2372047651
 30
0.0
 10
279.7025771401
 20
251.6383449701
 30
0.0
 10
279.0591107212
 20
250.700591269
 30
0.0
 10
278.3833165332
 20
249.4203927091
 30
0.0
 10
277.7668919461
 20
248.0096388213
 30
0.0
 10
277.1995697307
 20
246.5113344464
 30
0.0
 10
276.6726030547
 20
244.9511114424
 30
0.0
 10
276.1789228859
 20
243.3457366779
 30
0.0
 10
275.7130394239
 20
241.7061718483
 30
0.0
 10
275.1209941987
 20
239.4752214897
 30
0.0
 10
274.4330139158
 20
236.6394066048
 30
0.0
 10
273.6704964801
 20
233.1914441981
 30
0.0
 10
273.1952509245
 20
230.8727953732
 30
0.0
 10
272.9636862929
 20
229.7071669767
 30
0.0
  0
SPLINE
  5
4CF
100
AcDbEntity
  8
BEZUGSACHSEN
100
AcDbSpline
 62
7
  6
CONTINUOUS
 70
0
 71
3
 72
37
 73
33
 74
0
 42
0.0000001
 43
0.0000001
 44
0.0000000001
 40
0.0
 40
0.0
 40
0.0
 40
0.0
 40
0.0700665745
 40
0.1395404349
 40
0.2081883821
 40
0.2420914361
 40
0.2756201938
 40
0.3086736956
 40
0.3411053334
 40
0.3726948663
 40
0.4031055437
 40
0.4318054703
 40
0.4579714668
 40
0.469801388
 40
0.4806624195
 40
0.4906190368
 40
0.5000002015
 40
0.5093813395
 40
0.5193379198
 40
0.5301990997
 40
0.5420287621
 40
0.5681946704
 40
0.5968945544
 40
0.627305234
 40
0.6588947831
 40
0.6913263976
 40
0.7243798446
 40
0.7579086118
 40
0.7918116505
 40
0.8604595842
 40
0.9299334304
 40
1.0
 40
1.0
 40
1.0
 40
1.0
 10
350.9636862929
 20
229.7071669767
 30
0.0
 10
350.7321508506
 20
230.8725556124
 30
0.0
 10
350.2569647643
 20
233.190724266
 30
0.0
 10
349.494540821
 20
236.6379649713
 30
0.0
 10
348.8066419733
 20
239.4731763812
 30
0.0
 10
348.2146674778
 20
241.7036420395
 30
0.0
 10
347.7488368827
 20
243.3428414329
 30
0.0
 10
347.2552182417
 20
244.9478509658
 30
0.0
 10
346.7283142908
 20
246.5077060666
 30
0.0
 10
346.1610604019
 20
248.0056403061
 30
0.0
 10
345.5447138237
 20
249.41602506
 30
0.0
 10
344.8690141118
 20
250.6958672304
 30
0.0
 10
344.2256362529
 20
251.6333325939
 30
0.0
 10
343.6496953871
 20
252.2319959548
 30
0.0
 10
343.2071481735
 20
252.5694967155
 30
0.0
 10
342.7391003829
 20
252.7897656688
 30
0.0
 10
342.2506313339
 20
252.8678720328
 30
0.0
 10
341.7621693947
 20
252.7897467425
 30
0.0
 10
341.2941121886
 20
252.5694948201
 30
0.0
 10
340.8515778583
 20
252.2319788517
 30
0.0
 10
340.2756344349
 20
251.6333250619
 30
0.0
 10
339.6322648704
 20
250.6958598722
 30
0.0
 10
338.9565649505
 20
249.4160212938
 30
0.0
 10
338.3402204443
 20
248.005635705
 30
0.0
 10
337.7729687684
 20
246.5077008274
 30
0.0
 10
337.2460659063
 20
244.9478464828
 30
0.0
 10
336.7524446881
 20
243.3428389545
 30
0.0
 10
336.2866167063
 20
241.7036398692
 30
0.0
 10
335.6946412777
 20
239.4731748181
 30
0.0
 10
335.0067432113
 20
236.6379639495
 30
0.0
 10
334.244319004
 20
233.19072388
 30
0.0
 10
333.7691330237
 20
230.872555531
 30
0.0
 10
333.5375975975
 20
229.7071669767
 30
0.0
  0
SPLINE
  5
4D0
100
AcDbEntity
  8
BEZUGSACHSEN
100
AcDbSpline
 62
7
  6
CONTINUOUS
 70
0
 71
3
 72
11
 73
7
 74
0
 42
0.0000001
 43
0.0000001
 44
0.0000000001
 40
0.0
 40
0.0
 40
0.0
 40
0.0
 40
0.2512083637
 40
0.500000059
 40
0.7487916841
 40
1.0
 40
1.0
 40
1.0
 40
1.0
 10
333.5375975975
 20
229.7071669767
 30
0.0
 10
333.2042790654
 20
229.8421526512
 30
0.0
 10
332.5164546064
 20
230.0563173029
 30
0.0
 10
331.4429592455
 20
230.1691777551
 30
0.0
 10
330.3694639609
 20
230.0563172567
 30
0.0
 10
329.681639675
 20
229.8421526255
 30
0.0
 10
329.3483212063
 20
229.7071669767
 30
0.0
  0
SPLINE
  5
4D1
100
AcDbEntity
  8
RUNDUNGEN
100
AcDbSpline
 62
7
  6
CONTINUOUS
 70
0
 71
3
 72
9
 73
5
 74
0
 42
0.0000001
 43
0.0000001
 44
0.0000000001
 40
0.0
 40
0.0
 40
0.0
 40
0.0
 40
0.4886376435
 40
1.0
 40
1.0
 40
1.0
 40
1.0
 10
324.6291178979
 20
239.9402292879
 30
0.0
 10
324.709355117
 20
239.9375816031
 30
0.0
 10
324.8489044934
 20
239.8075067747
 30
0.0
 10
324.9257756203
 20
239.6693722815
 30
0.0
 10
324.9637324468
 20
239.5944209093
 30
0.0
  0
SPLINE
  5
4D2
100
AcDbEntity
  8
RUNDUNGEN
100
AcDbSpline
 62
7
  6
CONTINUOUS
 70
0
 71
3
 72
13
 73
9
 74
0
 42
0.0000001
 43
0.0000001
 44
0.0000000001
 40
0.0
 40
0.0
 40
0.0
 40
0.0
 40
0.0271693324
 40
0.0826234029
 40
0.1695246538
 40
0.2866494416
 40
0.6017229366
 40
1.0
 40
1.0
 40
1.0
 40
1.0
 10
323.9637324468
 20
240.0278009532
 30
0.0
 10
323.9637324469
 20
240.0216563307
 30
0.0
 10
323.9818334328
 20
240.0080270606
 30
0.0
 10
324.0164398665
 20
239.9975537165
 30
0.0
 10
324.0748087114
 20
239.9842521559
 30
0.0
 10
324.1904395766
 20
239.9674600687
 30
0.0
 10
324.3780532423
 20
239.9507917403
 30
0.0
 10
324.5390924655
 20
239.9431999662
 30
0.0
 10
324.6291178979
 20
239.9402292879
 30
0.0
  0
SPLINE
  5
4D3
100
AcDbEntity
  8
RUNDUNGEN
100
AcDbSpline
 62
7
  6
CONTINUOUS
 70
0
 71
3
 72
13
 73
9
 74
0
 42
0.0000001
 43
0.0000001
 44
0.0000000001
 40
0.0
 40
0.0
 40
0.0
 40
0.0
 40
0.0271693355
 40
0.0826234082
 40
0.169524659
 40
0.2866494459
 40
0.601722939
 40
1.0
 40
1.0
 40
1.0
 40
1.0
 10
299.9637324468
 20
240.0278009532
 30
0.0
 10
299.9637324467
 20
240.0216563299
 30
0.0
 10
299.9456314622
 20
240.008027057
 30
0.0
 10
299.9110250279
 20
239.9975537072
 30
0.0
 10
299.8526561826
 20
239.9842521467
 30
0.0
 10
299.7370253171
 20
239.9674600603
 30
0.0
 10
299.5494116515
 20
239.9507917309
 30
0.0
 10
299.3883724281
 20
239.943199957
 30
0.0
 10
299.2983469956
 20
239.9402292787
 30
0.0
  0
ENDSEC
  0
SECTION
  2
OBJECTS
  0
DICTIONARY
  5
C
100
AcDbDictionary
280
0
281
1
  3
ACAD_GROUP
350
D
  3
ACAD_MLINESTYLE
350
17
  3
ACAD_LAYOUT
350
1A
  3
ACAD_PLOTSETTINGS
350
19
  3
ACAD_PLOTSTYLENAME
350
E
  0
DICTIONARY
  5
D
102
{ACAD_REACTORS
330
C
102
}
100
AcDbDictionary
280
0
281
1
  0
ACDBDICTIONARYWDFLT
  5
E
102
{ACAD_REACTORS
330
C
102
}
100
AcDbDictionary
281
1
  3
Normal
350
F
100
AcDbDictionaryWithDefault
340
F
  0
DICTIONARY
  5
17
102
{ACAD_REACTORS
330
C
102
}
100
AcDbDictionary
280
0
281
1
  3
Standard
350
18
  0
DICTIONARY
  5
19
102
{ACAD_REACTORS
330
C
102
}
100
AcDbDictionary
281
1
  0
DICTIONARY
  5
1A
102
{ACAD_REACTORS
330
C
102
}
100
AcDbDictionary
281
1
  3
Model
350
4D4
  3
Layout1
350
4D5
  0
ACDBPLACEHOLDER
  5
F
102
{ACAD_REACTORS
330
E
102
}
  0
MLINESTYLE
  5
18
102
{ACAD_REACTORS
330
17
102
}
100
AcDbMlineStyle
  2
STANDARD
 70
0
  3

 62
256
 51
90.0
 52
90.0
 71
2
 49
0.5
 62
256
  6
BYLAYER
 49
-0.5
 62
256
  6
BYLAYER
  0
LAYOUT
  5
4D4
102
{ACAD_REACTORS
330
1A
102
}
100
AcDbPlotSettings
  1

  2
none_device
  4
ISO_A2_(594.00_x_420.00_MM)
  6

 40
0.0
 41
0.0
 42
0.0
 43
0.0
 44
594.0
 45
420.0
 46
0.0
 47
0.0
 48
0.0
 49
0.0
140
0.0
141
0.0
142
1.0
143
1.0
 70
1024
 72
1
 73
0
 74
0
  7

 75
0
147
1.0
148
0.0
149
0.0
100
AcDbLayout
  1
Model
 70
0
 71
0
 10
0.0
 20
0.0
 11
594.0
 21
420.0
 12
0.0
 22
0.0
 32
0.0
 14
0.0
 24
0.0
 34
0.0
 15
0.0
 25
0.0
 35
0.0
146
0.0
 13
0.0
 23
0.0
 33
0.0
 16
1.0
 26
0.0
 36
0.0
 17
0.0
 27
1.0
 37
0.0
 76
0
330
216
345
0
346
0
  0
LAYOUT
  5
4D5
102
{ACAD_REACTORS
330
1A
102
}
100
AcDbPlotSettings
  1

  2
none_device
  4
ISO_A2_(594.00_x_420.00_MM)
  6

 40
0.0
 41
0.0
 42
0.0
 43
0.0
 44
594.0
 45
420.0
 46
0.0
 47
0.0
 48
0.0
 49
0.0
140
0.0
141
0.0
142
1.0
143
1.0
 70
0
 72
1
 73
0
 74
0
  7

 75
0
147
1.0
148
0.0
149
0.0
100
AcDbLayout
  1
Layout1
 70
0
 71
1
 10
0.0
 20
0.0
 11
594.0
 21
420.0
 12
0.0
 22
0.0
 32
0.0
 14
0.0
 24
0.0
 34
0.0
 15
0.0
 25
0.0
 35
0.0
146
0.0
 13
0.0
 23
0.0
 33
0.0
 16
1.0
 26
0.0
 36
0.0
 17
0.0
 27
1.0
 37
0.0
 76
0
330
217
345
0
346
0
  0
ENDSEC
  0
EOF
