999
DXF file: 001-m31712-p-30.dxf
999
Pro/ENGINEER 2011490 by Parametric Technology Corporation
  0
SECTION
  2
HEADER
  9
$ACADVER
  1
AC1015
  9
$DWGCODEPAGE
  3
ANSI_1252
  9
$EXTMAX
 10
594.0
 20
420.0
 30
0.0
  9
$EXTMIN
 10
0.0
 20
0.0
 30
0.0
  9
$LIMMIN
 10
0.0
 20
0.0
  9
$LIMMAX
 10
594.0
 20
420.0
  9
$VIEWCTR
 10
297.0
 20
210.0
  9
$VIEWSIZE
 40
420.0
  9
$CLAYER
  8
0
  9
$LTSCALE
 40
32.67
  9
$CELTYPE
  6
BYLAYER
  9
$DIMSCALE
 40
1.0
  9
$DIMASZ
 40
3.5
  9
$DIMEXO
 40
3.7125
  9
$DIMDLI
 40
22.572
  9
$DIMEXE
 40
10.692
  9
$DIMCEN
 40
5.346
  9
$DIMLFAC
 40
1.0
  9
$DIMBLK
  1
_FILLED
  9
$DIMTXT
 40
3.5
  9
$DIMTOL
 70
1
  9
$DIMLIM
 70
0
  9
$DIMTFAC
 40
1.0
  9
$DIMTP
 40
0.005
  9
$DIMTM
 40
0.005
  9
$PDMODE
 70
3
  9
$PDSIZE
 40
0.3125
  9
$HANDSEED
  5
4DC
  9
$TILEMODE
 70
1
  9
$MEASUREMENT
 70
1
  9
$INSUNITS
 70
4
  0
ENDSEC
  0
SECTION
  2
CLASSES
  0
CLASS
  1
ACDBDICTIONARYWDFLT
  2
AcDbDictionaryWithDefault
  3
AutoCAD 2000
 90
0
280
0
281
0
  0
CLASS
  1
ACDBPLACEHOLDER
  2
AcDbPlaceHolder
  3
AutoCAD 2000
 90
0
280
0
281
0
  0
CLASS
  1
LAYOUT
  2
AcDbLayout
  3
AutoCAD 2000
 90
0
280
0
281
0
  0
ENDSEC
  0
SECTION
  2
TABLES
  0
TABLE
  2
VPORT
  5
8
100
AcDbSymbolTable
 70
2
  0
VPORT
  5
1F4
100
AcDbSymbolTableRecord
100
AcDbViewportTableRecord
  2
*ACTIVE
 70
0
 10
0.0
 20
0.0
 11
1.0
 21
1.0
 12
297.0
 22
210.0
 13
0.0
 23
0.0
 14
1.0
 24
1.0
 15
0.0
 25
0.0
 16
0.0
 26
0.0
 36
1.0
 17
0.0
 27
0.0
 37
0.0
 40
420.0
 41
1.4142857143
 42
50.0
 43
0.0
 44
0.0
 50
0.0
 51
0.0
 71
0
 72
100
 73
1
 74
1
 75
0
 76
0
 77
0
 78
0
  0
ENDTAB
  0
TABLE
  2
LTYPE
  5
5
100
AcDbSymbolTable
 70
6
  0
LTYPE
  5
14
100
AcDbSymbolTableRecord
100
AcDbLinetypeTableRecord
  2
BYBLOCK
 70
0
  3

 72
65
 73
0
 40
0.0
  0
LTYPE
  5
15
100
AcDbSymbolTableRecord
100
AcDbLinetypeTableRecord
  2
BYLAYER
 70
0
  3

 72
65
 73
0
 40
0.0
  0
LTYPE
  5
16
100
AcDbSymbolTableRecord
100
AcDbLinetypeTableRecord
  2
CONTINUOUS
 70
64
  3
Solid line
 72
65
 73
0
 40
0.0
  0
LTYPE
  5
1F5
100
AcDbSymbolTableRecord
100
AcDbLinetypeTableRecord
  2
CENTER
 70
64
  3
____ _ ____ _ ____ _ ____ _ ____ _ ____ _ ____
 72
65
 73
4
 40
0.6
 49
0.375
 74
0
 49
-0.075
 74
0
 49
0.075
 74
0
 49
-0.075
 74
0
  0
LTYPE
  5
1F6
100
AcDbSymbolTableRecord
100
AcDbLinetypeTableRecord
  2
HIDDEN
 70
64
  3
- - - - - - - - - - - - - - - - - - - -
 72
65
 73
2
 40
0.2
 49
0.1
 74
0
 49
-0.1
 74
0
  0
LTYPE
  5
1F7
100
AcDbSymbolTableRecord
100
AcDbLinetypeTableRecord
  2
PHANTOM
 70
64
  3
_____ _ _ _____ _ _ _____ _ _ _____
 72
65
 73
6
 40
0.8
 49
0.45
 74
0
 49
-0.05
 74
0
 49
0.1
 74
0
 49
-0.05
 74
0
 49
0.1
 74
0
 49
-0.05
 74
0
  0
LTYPE
  5
1F8
100
AcDbSymbolTableRecord
100
AcDbLinetypeTableRecord
  2
DOT
 70
64
  3
. . . . . . . . . . . . . . . . . . . .
 72
65
 73
2
 40
0.2
 49
0.1
 74
0
 49
-0.1
 74
0
  0
LTYPE
  5
1F9
100
AcDbSymbolTableRecord
100
AcDbLinetypeTableRecord
  2
DASHED
 70
64
  3
- - - - - - - - - - - - - - - - - - - -
 72
65
 73
2
 40
0.2
 49
0.1
 74
0
 49
-0.1
 74
0
  0
ENDTAB
  0
TABLE
  2
LAYER
  5
2
100
AcDbSymbolTable
 70
36
  0
LAYER
  5
10
100
AcDbSymbolTableRecord
100
AcDbLayerTableRecord
  2
0
 70
0
 62
7
  6
CONTINUOUS
370
-3
390
F
  0
LAYER
  5
1FA
100
AcDbSymbolTableRecord
100
AcDbLayerTableRecord
  2
DEFAULT_1
 70
0
 62
7
  6
CENTER
370
-3
390
F
  0
LAYER
  5
1FB
100
AcDbSymbolTableRecord
100
AcDbLayerTableRecord
  2
DEFAULT_2
 70
0
 62
8
  6
HIDDEN
370
-3
390
F
  0
LAYER
  5
1FC
100
AcDbSymbolTableRecord
100
AcDbLayerTableRecord
  2
DEFAULT_3
 70
0
 62
7
  6
PHANTOM
370
-3
390
F
  0
LAYER
  5
1FD
100
AcDbSymbolTableRecord
100
AcDbLayerTableRecord
  2
AUSFORMSCHRAEGEN
 70
0
 62
7
  6
CONTINUOUS
370
-3
390
F
  0
LAYER
  5
1FE
100
AcDbSymbolTableRecord
100
AcDbLayerTableRecord
  2
B-EBENEN
 70
0
 62
7
  6
CONTINUOUS
370
-3
390
F
  0
LAYER
  5
1FF
100
AcDbSymbolTableRecord
100
AcDbLayerTableRecord
  2
B-KOORSYS
 70
0
 62
7
  6
CONTINUOUS
370
-3
390
F
  0
LAYER
  5
200
100
AcDbSymbolTableRecord
100
AcDbLayerTableRecord
  2
B-KURVEN
 70
0
 62
7
  6
CONTINUOUS
370
-3
390
F
  0
LAYER
  5
201
100
AcDbSymbolTableRecord
100
AcDbLayerTableRecord
  2
BEMASSUNG
 70
0
 62
7
  6
CONTINUOUS
370
-3
390
F
  0
LAYER
  5
202
100
AcDbSymbolTableRecord
100
AcDbLayerTableRecord
  2
BEZUGSACHSEN
 70
0
 62
7
  6
CONTINUOUS
370
-3
390
F
  0
LAYER
  5
203
100
AcDbSymbolTableRecord
100
AcDbLayerTableRecord
  2
BEZUGSEBENEN
 70
0
 62
7
  6
CONTINUOUS
370
-3
390
F
  0
LAYER
  5
204
100
AcDbSymbolTableRecord
100
AcDbLayerTableRecord
  2
BEZUGSPUNKTE
 70
0
 62
7
  6
CONTINUOUS
370
-3
390
F
  0
LAYER
  5
205
100
AcDbSymbolTableRecord
100
AcDbLayerTableRecord
  2
BG_STARTBEZUEGE
 70
0
 62
7
  6
CONTINUOUS
370
-3
390
F
  0
LAYER
  5
206
100
AcDbSymbolTableRecord
100
AcDbLayerTableRecord
  2
FASEN
 70
0
 62
7
  6
CONTINUOUS
370
-3
390
F
  0
LAYER
  5
207
100
AcDbSymbolTableRecord
100
AcDbLayerTableRecord
  2
FLAECHEN
 70
0
 62
7
  6
CONTINUOUS
370
-3
390
F
  0
LAYER
  5
208
100
AcDbSymbolTableRecord
100
AcDbLayerTableRecord
  2
FLAECHENVERBUND
 70
0
 62
7
  6
CONTINUOUS
370
-3
390
F
  0
LAYER
  5
209
100
AcDbSymbolTableRecord
100
AcDbLayerTableRecord
  2
HILFEN
 70
0
 62
7
  6
CONTINUOUS
370
-3
390
F
  0
LAYER
  5
20A
100
AcDbSymbolTableRecord
100
AcDbLayerTableRecord
  2
KONSTRUKTIONSELEMENTE
 70
0
 62
7
  6
CONTINUOUS
370
-3
390
F
  0
LAYER
  5
20B
100
AcDbSymbolTableRecord
100
AcDbLayerTableRecord
  2
KURVEN
 70
0
 62
7
  6
CONTINUOUS
370
-3
390
F
  0
LAYER
  5
20C
100
AcDbSymbolTableRecord
100
AcDbLayerTableRecord
  2
KURVENELEMENTE
 70
0
 62
7
  6
CONTINUOUS
370
-3
390
F
  0
LAYER
  5
20D
100
AcDbSymbolTableRecord
100
AcDbLayerTableRecord
  2
NORM
 70
0
 62
7
  6
CONTINUOUS
370
-3
390
F
  0
LAYER
  5
20E
100
AcDbSymbolTableRecord
100
AcDbLayerTableRecord
  2
NOTIZEN
 70
0
 62
7
  6
CONTINUOUS
370
-3
390
F
  0
LAYER
  5
20F
100
AcDbSymbolTableRecord
100
AcDbLayerTableRecord
  2
PLATZIERUNG
 70
0
 62
7
  6
CONTINUOUS
370
-3
390
F
  0
LAYER
  5
210
100
AcDbSymbolTableRecord
100
AcDbLayerTableRecord
  2
RUNDUNGEN
 70
0
 62
7
  6
CONTINUOUS
370
-3
390
F
  0
LAYER
  5
211
100
AcDbSymbolTableRecord
100
AcDbLayerTableRecord
  2
TEIL_STARTBEZUEGE
 70
0
 62
7
  6
CONTINUOUS
370
-3
390
F
  0
LAYER
  5
212
100
AcDbSymbolTableRecord
100
AcDbLayerTableRecord
  2
T_STARTBEZUEGE
 70
0
 62
7
  6
CONTINUOUS
370
-3
390
F
  0
LAYER
  5
213
100
AcDbSymbolTableRecord
100
AcDbLayerTableRecord
  2
ZEICHNUNGSBEMASSUNGEN
 70
0
 62
7
  6
CONTINUOUS
370
-3
390
F
  0
ENDTAB
  0
TABLE
  2
STYLE
  5
3
100
AcDbSymbolTable
 70
1
  0
STYLE
  5
11
100
AcDbSymbolTableRecord
100
AcDbTextStyleTableRecord
  2
STANDARD
 70
0
 40
0.0
 41
0.7
 50
0.0
 71
0
 42
0.2
  3
txt
  4

  0
STYLE
  5
214
100
AcDbSymbolTableRecord
100
AcDbTextStyleTableRecord
  2
TEXTSTYLE_1
 70
0
 40
0.0
 41
0.8
 50
0.0
 71
0
 42
0.2
  3
gdt
  4

  0
ENDTAB
  0
TABLE
  2
VIEW
  5
6
100
AcDbSymbolTable
 70
0
  0
ENDTAB
  0
TABLE
  2
UCS
  5
7
100
AcDbSymbolTable
 70
0
  0
ENDTAB
  0
TABLE
  2
APPID
  5
9
100
AcDbSymbolTable
 70
1
  0
APPID
  5
215
100
AcDbSymbolTableRecord
100
AcDbRegAppTableRecord
  2
ACAD
 70
0
  0
ENDTAB
  0
TABLE
  2
BLOCK_RECORD
  5
1
100
AcDbSymbolTable
 70
0
  0
BLOCK_RECORD
  5
216
100
AcDbSymbolTableRecord
100
AcDbBlockTableRecord
  2
*Model_Space
  0
BLOCK_RECORD
  5
217
100
AcDbSymbolTableRecord
100
AcDbBlockTableRecord
  2
*Paper_Space
  0
ENDTAB
  0
TABLE
  2
DIMSTYLE
  5
A
100
AcDbSymbolTable
 70
1
100
AcDbDimStyleTable
 71
0
  0
DIMSTYLE
105
218
100
AcDbSymbolTableRecord
100
AcDbDimStyleTableRecord
  2
STANDARD
 70
0
  3

  4

 40
1.0
 41
3.5
 42
0.0625
 43
0.38
 44
0.18
 45
0.0
 46
0.0
 47
0.005
 48
0.005
140
3.5
141
0.09
142
0.0
143
25.4
144
1.0
145
0.0
146
1.0
147
0.09
 71
1.0
 72
0.0
 73
0
 74
0
 75
0
 76
0
 77
1
 78
8
170
0
171
2
172
0
173
0
174
0
175
0
176
0
177
0
178
5
270
2
271
3
272
3
273
2
274
2
275
0
280
0
281
0
282
0
283
1
284
8
285
0
286
0
287
3
288
0
340
11
  0
ENDTAB
  0
ENDSEC
  0
SECTION
  2
BLOCKS
  0
BLOCK
  5
20
100
AcDbEntity
  8
0
100
AcDbBlockBegin
  2
*Model_Space
 70
0
 10
0.0
 20
0.0
 30
0.0
  3
*Model_Space
  1

  0
ENDBLK
  5
21
100
AcDbEntity
  8
0
100
AcDbBlockEnd
  0
BLOCK
  5
1C
100
AcDbEntity
  8
0
100
AcDbBlockBegin
  2
*Paper_Space
 70
0
 10
0.0
 20
0.0
 30
0.0
  3
*Paper_Space
  1

  0
ENDBLK
  5
1D
100
AcDbEntity
  8
0
100
AcDbBlockEnd
  0
ENDSEC
  0
SECTION
  2
ENTITIES
  0
MTEXT
  5
219
100
AcDbEntity
  8
0
100
AcDbMText
 62
5
  6
CONTINUOUS
  7
STANDARD
 71
1
 72
1
 10
175.3224400853
 20
98.2783457052
 30
0.0
 11
1.0
 21
0.0
 31
0.0
 44
0.9
  1
VWBG-V\P3,5t M24
 40
6.0
 41
34.7142857143
  0
MTEXT
  5
21A
100
AcDbEntity
  8
0
100
AcDbMText
 62
5
  6
CONTINUOUS
  7
STANDARD
 71
1
 72
1
 10
167.0592036627
 20
238.6001818779
 30
0.0
 11
1.0
 21
0.0
 31
0.0
 44
0.9
  1
RUD VWBG-V \P3,5t M24
 40
6.0
 41
57.2857142857
  0
LINE
  5
21B
100
AcDbEntity
  8
0
100
AcDbLine
 62
7
  6
CONTINUOUS
 10
0.0
 20
0.0
 11
0.0
 21
420.0
  0
LINE
  5
21C
100
AcDbEntity
  8
0
100
AcDbLine
 62
7
  6
CONTINUOUS
 10
0.0
 20
0.0
 11
594.0
 21
0.0
  0
LINE
  5
21D
100
AcDbEntity
  8
0
100
AcDbLine
 62
7
  6
CONTINUOUS
 10
0.0
 20
420.0
 11
594.0
 21
420.0
  0
LINE
  5
21E
100
AcDbEntity
  8
0
100
AcDbLine
 62
7
  6
CONTINUOUS
 10
594.0
 20
0.0
 11
594.0
 21
420.0
  0
LINE
  5
21F
100
AcDbEntity
  8
0
100
AcDbLine
 62
7
  6
CONTINUOUS
 10
184.7553033863
 20
168.4787213927
 11
202.7551567651
 21
168.4787213927
  0
LINE
  5
220
100
AcDbEntity
  8
0
100
AcDbLine
 62
7
  6
CONTINUOUS
 10
205.7552300757
 20
171.4787213927
 11
181.7552300757
 21
171.4787213927
  0
LINE
  5
221
100
AcDbEntity
  8
0
100
AcDbLine
 62
7
  6
CONTINUOUS
 10
181.7552300757
 20
171.4787213927
 11
184.7552300757
 21
168.4787213927
  0
LINE
  5
222
100
AcDbEntity
  8
0
100
AcDbLine
 62
7
  6
CONTINUOUS
 10
228.7549090249
 20
208.4787213927
 11
158.7549090249
 21
208.4787213927
  0
LWPOLYLINE
  5
223
100
AcDbEntity
  8
RUNDUNGEN
100
AcDbPolyline
 62
7
  6
CONTINUOUS
 90
8
 70
0
 10
158.7096096846
 20
234.7351747816
 10
158.7053456067
 20
234.7393763767
 10
158.7038715168
 20
234.7408760693
 10
158.7113186058
 20
234.7303859834
 10
158.7240408908
 20
234.7077252802
 10
158.738667766
 20
234.6717377632
 10
158.7500119846
 20
234.6266626987
 10
158.7549057307
 20
234.5744481519
  0
LINE
  5
224
100
AcDbEntity
  8
RUNDUNGEN
100
AcDbLine
 62
7
  6
CONTINUOUS
 10
158.7549090249
 20
234.4728213927
 11
156.2552300757
 21
234.4728213927
  0
LINE
  5
225
100
AcDbEntity
  8
RUNDUNGEN
100
AcDbLine
 62
7
  6
CONTINUOUS
 10
155.2552300757
 20
235.4728213927
 11
155.2552300757
 21
257.6787213927
  0
LINE
  5
226
100
AcDbEntity
  8
0
100
AcDbLine
 62
7
  6
CONTINUOUS
 10
155.7552300757
 20
316.4787213927
 11
155.7552300757
 21
361.4787213927
  0
LINE
  5
227
100
AcDbEntity
  8
0
100
AcDbLine
 62
7
  6
CONTINUOUS
 10
158.7549090249
 20
231.2252805988
 11
158.7549090249
 21
208.4787213927
  0
LINE
  5
228
100
AcDbEntity
  8
RUNDUNGEN
100
AcDbLine
 62
7
  6
CONTINUOUS
 10
158.7549090249
 20
231.2252805988
 11
158.7549090249
 21
241.1125345315
  0
LINE
  5
229
100
AcDbEntity
  8
0
100
AcDbLine
 62
7
  6
CONTINUOUS
 10
161.1697311159
 20
231.2252805988
 11
161.1697311159
 21
208.4787213927
  0
LINE
  5
22A
100
AcDbEntity
  8
0
100
AcDbLine
 62
7
  6
CONTINUOUS
 10
161.7552300757
 20
263.4787213927
 11
161.7552300757
 21
261.4787213927
  0
LINE
  5
22B
100
AcDbEntity
  8
BEZUGSACHSEN
100
AcDbLine
 62
7
  6
CONTINUOUS
 10
162.7552300757
 20
263.4787213927
 11
162.7552300757
 21
265.9787213927
  0
LINE
  5
22C
100
AcDbEntity
  8
BEZUGSACHSEN
100
AcDbLine
 62
7
  6
CONTINUOUS
 10
159.8360797693
 20
260.4939136397
 11
159.6614799875
 21
259.5037090716
  0
LWPOLYLINE
  5
22D
100
AcDbEntity
  8
RUNDUNGEN
100
AcDbPolyline
 62
7
  6
CONTINUOUS
 90
11
 70
0
 10
159.6617206248
 20
259.5050730812
 10
159.6329662565
 20
259.3855286179
 10
159.5818039514
 20
259.2530780606
 10
159.512398327
 20
259.1292087008
 10
159.4261486267
 20
259.0164178694
 10
159.3247936863
 20
258.9169795411
 10
159.2103768878
 20
258.8328985024
 10
159.0852049444
 20
258.7658699176
 10
158.951801409
 20
258.7172451673
 10
158.8128558029
 20
258.6880046014
 10
158.6769129027
 20
258.6787212749
  0
LINE
  5
22E
100
AcDbEntity
  8
0
100
AcDbLine
 62
7
  6
CONTINUOUS
 10
158.6771783905
 20
258.6787213927
 11
156.2552300757
 21
258.6787213927
  0
LINE
  5
22F
100
AcDbEntity
  8
FASEN
100
AcDbLine
 62
7
  6
CONTINUOUS
 10
227.6743803822
 20
260.4939136397
 11
159.8360797693
 21
260.4939136397
  0
LINE
  5
230
100
AcDbEntity
  8
0
100
AcDbLine
 62
7
  6
CONTINUOUS
 10
173.7552300757
 20
316.4787213927
 11
173.7552300757
 21
361.4787213927
  0
LINE
  5
231
100
AcDbEntity
  8
FASEN
100
AcDbLine
 62
7
  6
CONTINUOUS
 10
226.5007322045
 20
261.4787213927
 11
161.009727947
 21
261.4787213927
  0
LINE
  5
232
100
AcDbEntity
  8
0
100
AcDbLine
 62
7
  6
CONTINUOUS
 10
225.7548551255
 20
263.4787213927
 11
161.7556050259
 21
263.4787213927
  0
LINE
  5
233
100
AcDbEntity
  8
0
100
AcDbLine
 62
7
  6
CONTINUOUS
 10
181.7552300757
 20
208.4787213927
 11
181.7552300757
 21
171.4787213927
  0
LINE
  5
234
100
AcDbEntity
  8
0
100
AcDbLine
 62
7
  6
CONTINUOUS
 10
186.2552300757
 20
292.7496995906
 11
186.2552300757
 21
299.417641616
  0
LINE
  5
235
100
AcDbEntity
  8
0
100
AcDbLine
 62
7
  6
CONTINUOUS
 10
186.2552300757
 20
299.4341579545
 11
186.2552300757
 21
308.6191165566
  0
LINE
  5
236
100
AcDbEntity
  8
BEZUGSACHSEN
100
AcDbLine
 62
7
  6
CONTINUOUS
 10
186.8933875665
 20
288.6845672693
 11
180.6789865565
 21
271.6106408189
  0
LINE
  5
237
100
AcDbEntity
  8
BEZUGSACHSEN
100
AcDbLine
 62
7
  6
CONTINUOUS
 10
177.1337923573
 20
268.9787213927
 11
165.7552300757
 21
268.9787213927
  0
LINE
  5
238
100
AcDbEntity
  8
BEZUGSACHSEN
100
AcDbLine
 62
7
  6
CONTINUOUS
 10
210.375403817
 20
268.9787213927
 11
221.7552300757
 21
268.9787213927
  0
LINE
  5
239
100
AcDbEntity
  8
BEZUGSACHSEN
100
AcDbLine
 62
7
  6
CONTINUOUS
 10
187.2552300757
 20
303.4668534725
 11
187.2552300757
 21
290.7366819876
  0
LINE
  5
23A
100
AcDbEntity
  8
0
100
AcDbLine
 62
7
  6
CONTINUOUS
 10
191.2552300757
 20
231.2252805988
 11
191.2552300757
 21
208.4787213927
  0
LINE
  5
23B
100
AcDbEntity
  8
RUNDUNGEN
100
AcDbLine
 62
7
  6
CONTINUOUS
 10
187.2552322199
 20
311.2533177105
 11
187.2552300757
 21
303.4668534725
  0
LINE
  5
23C
100
AcDbEntity
  8
FASEN
100
AcDbLine
 62
7
  6
CONTINUOUS
 10
161.009727947
 20
261.4787213927
 11
159.8360797693
 21
260.4939136397
  0
LWPOLYLINE
  5
23D
100
AcDbEntity
  8
RUNDUNGEN
100
AcDbPolyline
 62
7
  6
CONTINUOUS
 90
10
 70
0
 10
200.255229894
 20
311.2491516701
 10
200.2390192405
 20
311.6184994373
 10
200.1067398274
 20
312.374223192
 10
199.8490298887
 20
313.0783287506
 10
199.4790801542
 20
313.7157692286
 10
199.012482837
 20
314.2674022261
 10
198.4654069994
 20
314.72126276
 10
197.855965105
 20
315.0662672022
 10
197.2021115064
 20
315.2957410116
 10
196.5214717822
 20
315.4043240273
  0
LINE
  5
23E
100
AcDbEntity
  8
0
100
AcDbLine
 62
7
  6
CONTINUOUS
 10
196.2552300757
 20
231.2252805988
 11
196.2552300757
 21
208.4787213927
  0
LINE
  5
23F
100
AcDbEntity
  8
RUNDUNGEN
100
AcDbLine
 62
7
  6
CONTINUOUS
 10
200.2552300757
 20
311.2491525916
 11
200.2552300757
 21
290.7366819876
  0
LINE
  5
240
100
AcDbEntity
  8
0
100
AcDbLine
 62
7
  6
CONTINUOUS
 10
187.2552300757
 20
292.7496995906
 11
186.2552300757
 21
292.7496995906
  0
LINE
  5
241
100
AcDbEntity
  8
0
100
AcDbLine
 62
7
  6
CONTINUOUS
 10
187.2552300757
 20
292.898975084
 11
186.2552300757
 21
292.898975084
  0
LINE
  5
242
100
AcDbEntity
  8
FASEN
100
AcDbLine
 62
7
  6
CONTINUOUS
 10
226.5007322045
 20
261.4787213927
 11
227.6743803822
 21
260.4939136397
  0
LINE
  5
243
100
AcDbEntity
  8
RUNDUNGEN
100
AcDbLine
 62
7
  6
CONTINUOUS
 10
200.6170725849
 20
288.6845672693
 11
206.8314735949
 21
271.6106408189
  0
LINE
  5
244
100
AcDbEntity
  8
0
100
AcDbLine
 62
7
  6
CONTINUOUS
 10
205.7552300757
 20
208.4787213927
 11
205.7552300757
 21
171.4787213927
  0
LINE
  5
245
100
AcDbEntity
  8
0
100
AcDbLine
 62
7
  6
CONTINUOUS
 10
187.2552300757
 20
293.2857726235
 11
186.2552300757
 21
293.2857726235
  0
LINE
  5
246
100
AcDbEntity
  8
0
100
AcDbLine
 62
7
  6
CONTINUOUS
 10
187.2552300757
 20
293.5700969175
 11
186.2552300757
 21
293.5700969175
  0
LINE
  5
247
100
AcDbEntity
  8
0
100
AcDbLine
 62
7
  6
CONTINUOUS
 10
187.2552300757
 20
293.6548391541
 11
186.2552300757
 21
293.6548391541
  0
LINE
  5
248
100
AcDbEntity
  8
0
100
AcDbLine
 62
7
  6
CONTINUOUS
 10
187.2552300757
 20
293.8041146344
 11
186.2552300757
 21
293.8041146344
  0
LINE
  5
249
100
AcDbEntity
  8
0
100
AcDbLine
 62
7
  6
CONTINUOUS
 10
187.2552300757
 20
294.5729631989
 11
186.2552300757
 21
294.5729631989
  0
LINE
  5
24A
100
AcDbEntity
  8
0
100
AcDbLine
 62
7
  6
CONTINUOUS
 10
187.2552300757
 20
294.871514264
 11
186.2552300757
 21
294.871514264
  0
LINE
  5
24B
100
AcDbEntity
  8
0
100
AcDbLine
 62
7
  6
CONTINUOUS
 10
187.2552300757
 20
295.2209929204
 11
186.2552300757
 21
295.2209929204
  0
LINE
  5
24C
100
AcDbEntity
  8
0
100
AcDbLine
 62
7
  6
CONTINUOUS
 10
187.2552300757
 20
295.4816070655
 11
186.2552300757
 21
295.4816070655
  0
LINE
  5
24D
100
AcDbEntity
  8
0
100
AcDbLine
 62
7
  6
CONTINUOUS
 10
187.2552300757
 20
295.6643727012
 11
186.2552300757
 21
295.6643727012
  0
LINE
  5
24E
100
AcDbEntity
  8
0
100
AcDbLine
 62
7
  6
CONTINUOUS
 10
187.2552300757
 20
296.0334665062
 11
186.2552300757
 21
296.0334665062
  0
LINE
  5
24F
100
AcDbEntity
  8
0
100
AcDbLine
 62
7
  6
CONTINUOUS
 10
187.2552300757
 20
296.4184989228
 11
186.2552300757
 21
296.4184989228
  0
LINE
  5
250
100
AcDbEntity
  8
0
100
AcDbLine
 62
7
  6
CONTINUOUS
 10
187.2552300757
 20
296.8835849815
 11
186.2552300757
 21
296.8835849815
  0
LINE
  5
251
100
AcDbEntity
  8
0
100
AcDbLine
 62
7
  6
CONTINUOUS
 10
187.2552300757
 20
296.996933626
 11
186.2552300757
 21
296.996933626
  0
LINE
  5
252
100
AcDbEntity
  8
0
100
AcDbLine
 62
7
  6
CONTINUOUS
 10
187.2552300757
 20
297.2378003723
 11
186.2552300757
 21
297.2378003723
  0
LINE
  5
253
100
AcDbEntity
  8
0
100
AcDbLine
 62
7
  6
CONTINUOUS
 10
187.2552300757
 20
299.417641616
 11
186.2552300757
 21
299.417641616
  0
LINE
  5
254
100
AcDbEntity
  8
0
100
AcDbLine
 62
7
  6
CONTINUOUS
 10
187.2552300757
 20
299.6891633223
 11
186.2552300757
 21
299.6891633223
  0
LINE
  5
255
100
AcDbEntity
  8
0
100
AcDbLine
 62
7
  6
CONTINUOUS
 10
187.2552300757
 20
299.9956923203
 11
186.2552300757
 21
299.9956923203
  0
LINE
  5
256
100
AcDbEntity
  8
0
100
AcDbLine
 62
7
  6
CONTINUOUS
 10
187.2552300757
 20
300.2899887108
 11
186.2552300757
 21
300.2899887108
  0
LINE
  5
257
100
AcDbEntity
  8
0
100
AcDbLine
 62
7
  6
CONTINUOUS
 10
187.2552300757
 20
300.6602689615
 11
186.2552300757
 21
300.6602689615
  0
LINE
  5
258
100
AcDbEntity
  8
0
100
AcDbLine
 62
7
  6
CONTINUOUS
 10
187.2552300757
 20
300.7484782641
 11
186.2552300757
 21
300.7484782641
  0
LINE
  5
259
100
AcDbEntity
  8
0
100
AcDbLine
 62
7
  6
CONTINUOUS
 10
187.2552300757
 20
300.9519624495
 11
186.2552300757
 21
300.9519624495
  0
LINE
  5
25A
100
AcDbEntity
  8
0
100
AcDbLine
 62
7
  6
CONTINUOUS
 10
187.2552300757
 20
301.079465312
 11
186.2552300757
 21
301.079465312
  0
LINE
  5
25B
100
AcDbEntity
  8
0
100
AcDbLine
 62
7
  6
CONTINUOUS
 10
213.7552300757
 20
361.4787213927
 11
213.7552300757
 21
316.4787213927
  0
LINE
  5
25C
100
AcDbEntity
  8
0
100
AcDbLine
 62
7
  6
CONTINUOUS
 10
187.2552300757
 20
301.3859918622
 11
186.2552300757
 21
301.3859918622
  0
LINE
  5
25D
100
AcDbEntity
  8
0
100
AcDbLine
 62
7
  6
CONTINUOUS
 10
187.2552300757
 20
301.847084318
 11
186.2552300757
 21
301.847084318
  0
LINE
  5
25E
100
AcDbEntity
  8
0
100
AcDbLine
 62
7
  6
CONTINUOUS
 10
187.2552300757
 20
302.1806764483
 11
186.2552300757
 21
302.1806764483
  0
LINE
  5
25F
100
AcDbEntity
  8
0
100
AcDbLine
 62
7
  6
CONTINUOUS
 10
187.2552300757
 20
302.6050807838
 11
186.2552300757
 21
302.6050807838
  0
LINE
  5
260
100
AcDbEntity
  8
0
100
AcDbLine
 62
7
  6
CONTINUOUS
 10
187.2552300757
 20
302.708125507
 11
186.2552300757
 21
302.708125507
  0
LINE
  5
261
100
AcDbEntity
  8
0
100
AcDbLine
 62
7
  6
CONTINUOUS
 10
187.2552300757
 20
303.0050271586
 11
186.2552300757
 21
303.0050271586
  0
LINE
  5
262
100
AcDbEntity
  8
0
100
AcDbLine
 62
7
  6
CONTINUOUS
 10
187.2552300757
 20
303.0836115627
 11
186.2552300757
 21
303.0836115627
  0
LINE
  5
263
100
AcDbEntity
  8
0
100
AcDbLine
 62
7
  6
CONTINUOUS
 10
187.2552300757
 20
303.2973095769
 11
186.2552300757
 21
303.2973095769
  0
LINE
  5
264
100
AcDbEntity
  8
0
100
AcDbLine
 62
7
  6
CONTINUOUS
 10
187.2552300757
 20
306.6061436843
 11
186.2552300757
 21
306.6061436843
  0
LINE
  5
265
100
AcDbEntity
  8
0
100
AcDbLine
 62
7
  6
CONTINUOUS
 10
187.2552300757
 20
306.7699136794
 11
186.2552300757
 21
306.7699136794
  0
LINE
  5
266
100
AcDbEntity
  8
0
100
AcDbLine
 62
7
  6
CONTINUOUS
 10
187.2552300757
 20
307.5341732399
 11
186.2552300757
 21
307.5341732399
  0
LINE
  5
267
100
AcDbEntity
  8
0
100
AcDbLine
 62
7
  6
CONTINUOUS
 10
187.2552300757
 20
307.697943235
 11
186.2552300757
 21
307.697943235
  0
LINE
  5
268
100
AcDbEntity
  8
0
100
AcDbLine
 62
7
  6
CONTINUOUS
 10
187.2552300757
 20
307.8647533878
 11
186.2552300757
 21
307.8647533878
  0
LINE
  5
269
100
AcDbEntity
  8
0
100
AcDbLine
 62
7
  6
CONTINUOUS
 10
187.2552300757
 20
308.2312989088
 11
186.2552300757
 21
308.2312989088
  0
LINE
  5
26A
100
AcDbEntity
  8
0
100
AcDbLine
 62
7
  6
CONTINUOUS
 10
187.2552300757
 20
308.4282955233
 11
186.2552300757
 21
308.4282955233
  0
LINE
  5
26B
100
AcDbEntity
  8
0
100
AcDbLine
 62
7
  6
CONTINUOUS
 10
187.2552300757
 20
308.5473794935
 11
186.2552300757
 21
308.5473794935
  0
LINE
  5
26C
100
AcDbEntity
  8
0
100
AcDbLine
 62
7
  6
CONTINUOUS
 10
187.2552300757
 20
308.6091367184
 11
186.2552300757
 21
308.6091367184
  0
LINE
  5
26D
100
AcDbEntity
  8
0
100
AcDbLine
 62
7
  6
CONTINUOUS
 10
187.2552300757
 20
308.6191165566
 11
186.2552300757
 21
308.6191165566
  0
LINE
  5
26E
100
AcDbEntity
  8
BEZUGSACHSEN
100
AcDbLine
 62
7
  6
CONTINUOUS
 10
224.7552300757
 20
265.9787213927
 11
224.7552300757
 21
263.4787213927
  0
LINE
  5
26F
100
AcDbEntity
  8
0
100
AcDbLine
 62
7
  6
CONTINUOUS
 10
225.7552300757
 20
263.4787213927
 11
225.7552300757
 21
261.4787213927
  0
LINE
  5
270
100
AcDbEntity
  8
0
100
AcDbLine
 62
7
  6
CONTINUOUS
 10
226.3415258168
 20
231.2252805988
 11
226.3415258168
 21
208.4787213927
  0
LWPOLYLINE
  5
271
100
AcDbEntity
  8
RUNDUNGEN
100
AcDbPolyline
 62
7
  6
CONTINUOUS
 90
10
 70
0
 10
191.0243624942
 20
315.4066167949
 10
190.3393840143
 20
315.3034515573
 10
189.678744727
 20
315.0771846012
 10
189.0620218627
 20
314.7328994948
 10
188.5078595831
 20
314.2771538967
 10
188.0370593641
 20
313.7238071661
 10
187.6668657662
 20
313.089865568
 10
187.4086593498
 20
312.3924312107
 10
187.2737492731
 20
311.644548307
 10
187.2552448888
 20
311.2533611643
  0
LINE
  5
272
100
AcDbEntity
  8
RUNDUNGEN
100
AcDbLine
 62
7
  6
CONTINUOUS
 10
191.2552305942
 20
315.4136479834
 11
191.0243624942
 21
315.4066167949
  0
LINE
  5
273
100
AcDbEntity
  8
RUNDUNGEN
100
AcDbLine
 62
7
  6
CONTINUOUS
 10
196.2552300757
 20
315.4139369922
 11
191.2552304614
 21
315.4139369922
  0
LINE
  5
274
100
AcDbEntity
  8
RUNDUNGEN
100
AcDbLine
 62
7
  6
CONTINUOUS
 10
196.5214717822
 20
315.4043240273
 11
196.2552298805
 21
315.4136478974
  0
LINE
  5
275
100
AcDbEntity
  8
BEZUGSACHSEN
100
AcDbLine
 62
7
  6
CONTINUOUS
 10
227.6743803822
 20
260.4939136397
 11
228.4658840611
 21
256.0050732151
  0
LINE
  5
276
100
AcDbEntity
  8
RUNDUNGEN
100
AcDbLine
 62
7
  6
CONTINUOUS
 10
228.7549090249
 20
255.1183643839
 11
228.7549090249
 21
208.4787213927
  0
LINE
  5
277
100
AcDbEntity
  8
0
100
AcDbLine
 62
7
  6
CONTINUOUS
 10
231.7552300757
 20
361.4787213927
 11
231.7552300757
 21
316.4787213927
  0
LINE
  5
278
100
AcDbEntity
  8
0
100
AcDbLine
 62
7
  6
CONTINUOUS
 10
205.7552300757
 20
171.4787213927
 11
202.7552300757
 21
168.4787213927
  0
LINE
  5
279
100
AcDbEntity
  8
0
100
AcDbLine
 62
7
  6
CONTINUOUS
 10
322.0544319242
 20
168.4787213927
 11
304.0544319242
 21
168.4787213927
  0
LINE
  5
27A
100
AcDbEntity
  8
0
100
AcDbLine
 62
7
  6
CONTINUOUS
 10
325.0544319242
 20
171.4787213927
 11
301.0544319242
 21
171.4787213927
  0
LINE
  5
27B
100
AcDbEntity
  8
0
100
AcDbLine
 62
7
  6
CONTINUOUS
 10
301.0544319242
 20
171.4787213927
 11
304.0544319242
 21
168.4787213927
  0
LINE
  5
27C
100
AcDbEntity
  8
0
100
AcDbLine
 62
7
  6
CONTINUOUS
 10
352.0543857703
 20
208.4787213927
 11
274.0543857703
 21
208.4787213927
  0
LINE
  5
27D
100
AcDbEntity
  8
RUNDUNGEN
100
AcDbLine
 62
7
  6
CONTINUOUS
 10
303.5544319242
 20
211.6787213927
 11
322.5544319242
 21
211.6787213927
  0
LINE
  5
27E
100
AcDbEntity
  8
KONSTRUKTIONSELEMENTE
100
AcDbLine
 62
7
  6
CONTINUOUS
 10
303.8669322103
 20
215.0987213927
 11
304.6544322103
 21
215.0987213927
  0
LINE
  5
27F
100
AcDbEntity
  8
KONSTRUKTIONSELEMENTE
100
AcDbLine
 62
7
  6
CONTINUOUS
 10
306.4919321477
 20
215.0987213927
 11
307.5419320851
 21
215.0987213927
  0
LINE
  5
280
100
AcDbEntity
  8
KONSTRUKTIONSELEMENTE
100
AcDbLine
 62
7
  6
CONTINUOUS
 10
309.3794322103
 20
215.0987213927
 11
310.1669322103
 21
215.0987213927
  0
LINE
  5
281
100
AcDbEntity
  8
KONSTRUKTIONSELEMENTE
100
AcDbLine
 62
7
  6
CONTINUOUS
 10
311.2169319599
 20
215.0987213927
 11
315.9419319599
 21
215.0987213927
  0
LINE
  5
282
100
AcDbEntity
  8
KONSTRUKTIONSELEMENTE
100
AcDbLine
 62
7
  6
CONTINUOUS
 10
320.1419317096
 20
215.0987213927
 11
320.9294317096
 21
215.0987213927
  0
LINE
  5
283
100
AcDbEntity
  8
KONSTRUKTIONSELEMENTE
100
AcDbLine
 62
7
  6
CONTINUOUS
 10
315.9419319599
 20
215.8434022593
 11
312.2669324606
 21
215.8434022593
  0
LINE
  5
284
100
AcDbEntity
  8
KONSTRUKTIONSELEMENTE
100
AcDbLine
 62
7
  6
CONTINUOUS
 10
316.9919317096
 20
217.1838277358
 11
320.1419317096
 21
217.1838277358
  0
LINE
  5
285
100
AcDbEntity
  8
KONSTRUKTIONSELEMENTE
100
AcDbLine
 62
7
  6
CONTINUOUS
 10
320.9294317096
 20
217.1838277358
 11
322.2419327109
 21
217.1838277358
  0
LINE
  5
286
100
AcDbEntity
  8
KONSTRUKTIONSELEMENTE
100
AcDbLine
 62
7
  6
CONTINUOUS
 10
322.2419327109
 20
218.0774448591
 11
320.9294317096
 21
218.0774448591
  0
LINE
  5
287
100
AcDbEntity
  8
KONSTRUKTIONSELEMENTE
100
AcDbLine
 62
7
  6
CONTINUOUS
 10
320.1419317096
 20
218.0774448591
 11
317.9106827109
 21
218.0774448591
  0
LINE
  5
288
100
AcDbEntity
  8
KONSTRUKTIONSELEMENTE
100
AcDbLine
 62
7
  6
CONTINUOUS
 10
312.6606824606
 20
221.205104478
 11
313.3169322103
 21
221.3540406304
  0
LINE
  5
289
100
AcDbEntity
  8
KONSTRUKTIONSELEMENTE
100
AcDbLine
 62
7
  6
CONTINUOUS
 10
321.1273489087
 20
226.0970192635
 11
320.606515178
 21
225.9906362975
  0
LINE
  5
28A
100
AcDbEntity
  8
KONSTRUKTIONSELEMENTE
100
AcDbLine
 62
7
  6
CONTINUOUS
 10
305.9190156251
 20
225.4587213927
 11
306.4398489087
 21
225.5651043681
  0
LINE
  5
28B
100
AcDbEntity
  8
KONSTRUKTIONSELEMENTE
100
AcDbLine
 62
7
  6
CONTINUOUS
 10
320.606515178
 20
225.4587213927
 11
321.231515178
 21
225.5651043681
  0
LINE
  5
28C
100
AcDbEntity
  8
KONSTRUKTIONSELEMENTE
100
AcDbLine
 62
7
  6
CONTINUOUS
 10
313.4481824606
 20
222.0987213927
 11
312.5294322103
 21
221.9497852403
  0
LINE
  5
28D
100
AcDbEntity
  8
KONSTRUKTIONSELEMENTE
100
AcDbLine
 62
7
  6
CONTINUOUS
 10
311.3481822103
 20
220.4604237157
 11
312.0044319599
 21
220.4604237157
  0
LINE
  5
28E
100
AcDbEntity
  8
KONSTRUKTIONSELEMENTE
100
AcDbLine
 62
7
  6
CONTINUOUS
 10
313.3169322103
 20
221.3540406304
 11
313.8419324606
 21
221.3540406304
  0
LINE
  5
28F
100
AcDbEntity
  8
KONSTRUKTIONSELEMENTE
100
AcDbLine
 62
7
  6
CONTINUOUS
 10
320.9294317096
 20
222.0987213927
 11
320.1419317096
 21
222.0987213927
  0
LINE
  5
290
100
AcDbEntity
  8
KONSTRUKTIONSELEMENTE
100
AcDbLine
 62
7
  6
CONTINUOUS
 10
313.9731819599
 20
222.0987213927
 11
313.4481824606
 21
222.0987213927
  0
LINE
  5
291
100
AcDbEntity
  8
KONSTRUKTIONSELEMENTE
100
AcDbLine
 62
7
  6
CONTINUOUS
 10
310.1669322103
 20
222.0987213927
 11
308.9856822103
 21
222.0987213927
  0
LINE
  5
292
100
AcDbEntity
  8
KONSTRUKTIONSELEMENTE
100
AcDbLine
 62
7
  6
CONTINUOUS
 10
305.0481822103
 20
222.0987213927
 11
303.8669322103
 21
222.0987213927
  0
LINE
  5
293
100
AcDbEntity
  8
KONSTRUKTIONSELEMENTE
100
AcDbLine
 62
7
  6
CONTINUOUS
 10
305.0856821924
 20
225.4587213927
 11
305.9190156251
 21
225.4587213927
  0
LINE
  5
294
100
AcDbEntity
  8
KONSTRUKTIONSELEMENTE
100
AcDbLine
 62
7
  6
CONTINUOUS
 10
309.1481820434
 20
225.4587213927
 11
309.9815157741
 21
225.4587213927
  0
LINE
  5
295
100
AcDbEntity
  8
KONSTRUKTIONSELEMENTE
100
AcDbLine
 62
7
  6
CONTINUOUS
 10
311.6481820434
 20
225.4587213927
 11
312.4815157741
 21
225.4587213927
  0
LINE
  5
296
100
AcDbEntity
  8
KONSTRUKTIONSELEMENTE
100
AcDbLine
 62
7
  6
CONTINUOUS
 10
315.1898489087
 20
225.4587213927
 11
315.8148489087
 21
225.4587213927
  0
LINE
  5
297
100
AcDbEntity
  8
KONSTRUKTIONSELEMENTE
100
AcDbLine
 62
7
  6
CONTINUOUS
 10
305.9190156251
 20
226.0970192635
 11
305.0856821924
 21
226.0970192635
  0
LINE
  5
298
100
AcDbEntity
  8
KONSTRUKTIONSELEMENTE
100
AcDbLine
 62
7
  6
CONTINUOUS
 10
304.2523489087
 20
226.8417001003
 11
303.6273489087
 21
226.8417001003
  0
LINE
  5
299
100
AcDbEntity
  8
KONSTRUKTIONSELEMENTE
100
AcDbLine
 62
7
  6
CONTINUOUS
 10
305.2940156251
 20
227.6927639776
 11
305.9190156251
 21
227.6927639776
  0
LINE
  5
29A
100
AcDbEntity
  8
KONSTRUKTIONSELEMENTE
100
AcDbLine
 62
7
  6
CONTINUOUS
 10
319.981515178
 20
225.5651043681
 11
320.606515178
 21
225.4587213927
  0
LINE
  5
29B
100
AcDbEntity
  8
KONSTRUKTIONSELEMENTE
100
AcDbLine
 62
7
  6
CONTINUOUS
 10
314.7606819599
 20
221.9497852403
 11
313.9731819599
 21
222.0987213927
  0
LINE
  5
29C
100
AcDbEntity
  8
KONSTRUKTIONSELEMENTE
100
AcDbLine
 62
7
  6
CONTINUOUS
 10
304.5648489087
 20
225.5651043681
 11
305.0856821924
 21
225.4587213927
  0
LINE
  5
29D
100
AcDbEntity
  8
KONSTRUKTIONSELEMENTE
100
AcDbLine
 62
7
  6
CONTINUOUS
 10
306.4398489087
 20
228.2246788078
 11
305.9190156251
 21
228.3310617739
  0
LINE
  5
29E
100
AcDbEntity
  8
KONSTRUKTIONSELEMENTE
100
AcDbLine
 62
7
  6
CONTINUOUS
 10
313.8419324606
 20
221.3540406304
 11
314.4981822103
 21
221.205104478
  0
LINE
  5
29F
100
AcDbEntity
  8
KONSTRUKTIONSELEMENTE
100
AcDbLine
 62
7
  6
CONTINUOUS
 10
305.0856821924
 20
226.0970192635
 11
304.6690155505
 21
226.2034022295
  0
LINE
  5
2A0
100
AcDbEntity
  8
KONSTRUKTIONSELEMENTE
100
AcDbLine
 62
7
  6
CONTINUOUS
 10
304.8773489087
 20
227.7991469437
 11
305.2940156251
 21
227.6927639776
  0
LINE
  5
2A1
100
AcDbEntity
  8
KONSTRUKTIONSELEMENTE
100
AcDbLine
 62
7
  6
CONTINUOUS
 10
305.9190156251
 20
227.6927639776
 11
306.3356823414
 21
227.5863810116
  0
LINE
  5
2A2
100
AcDbEntity
  8
KONSTRUKTIONSELEMENTE
100
AcDbLine
 62
7
  6
CONTINUOUS
 10
306.3356823414
 20
226.2034022295
 11
305.9190156251
 21
226.0970192635
  0
LINE
  5
2A3
100
AcDbEntity
  8
KONSTRUKTIONSELEMENTE
100
AcDbLine
 62
7
  6
CONTINUOUS
 10
305.2940156251
 20
230.4587213927
 11
304.8773489087
 21
230.3523384267
  0
LINE
  5
2A4
100
AcDbEntity
  8
KONSTRUKTIONSELEMENTE
100
AcDbLine
 62
7
  6
CONTINUOUS
 10
320.0856826394
 20
229.8204235965
 11
320.606515178
 21
229.9268065625
  0
LINE
  5
2A5
100
AcDbEntity
  8
KONSTRUKTIONSELEMENTE
100
AcDbLine
 62
7
  6
CONTINUOUS
 10
320.606515178
 20
230.4587213927
 11
319.981515178
 21
230.3523384267
  0
LINE
  5
2A6
100
AcDbEntity
  8
KONSTRUKTIONSELEMENTE
100
AcDbLine
 62
7
  6
CONTINUOUS
 10
305.9190156251
 20
228.3310617739
 11
305.2940156251
 21
228.3310617739
  0
LINE
  5
2A7
100
AcDbEntity
  8
KONSTRUKTIONSELEMENTE
100
AcDbLine
 62
7
  6
CONTINUOUS
 10
306.544015476
 20
229.2885087663
 11
307.169015476
 21
229.2885087663
  0
LINE
  5
2A8
100
AcDbEntity
  8
KONSTRUKTIONSELEMENTE
100
AcDbLine
 62
7
  6
CONTINUOUS
 10
305.2940156251
 20
229.8204235965
 11
305.9190156251
 21
229.8204235965
  0
LINE
  5
2A9
100
AcDbEntity
  8
KONSTRUKTIONSELEMENTE
100
AcDbLine
 62
7
  6
CONTINUOUS
 10
314.1481826394
 20
229.9268065625
 11
317.2731826394
 21
229.9268065625
  0
LINE
  5
2AA
100
AcDbEntity
  8
KONSTRUKTIONSELEMENTE
100
AcDbLine
 62
7
  6
CONTINUOUS
 10
317.8981826394
 20
230.4587213927
 11
314.1481826394
 21
230.4587213927
  0
LINE
  5
2AB
100
AcDbEntity
  8
KONSTRUKTIONSELEMENTE
100
AcDbLine
 62
7
  6
CONTINUOUS
 10
313.3148489087
 20
230.4587213927
 11
312.6898489087
 21
230.4587213927
  0
LINE
  5
2AC
100
AcDbEntity
  8
KONSTRUKTIONSELEMENTE
100
AcDbLine
 62
7
  6
CONTINUOUS
 10
311.2315157741
 20
230.4587213927
 11
310.3981820434
 21
230.4587213927
  0
LINE
  5
2AD
100
AcDbEntity
  8
KONSTRUKTIONSELEMENTE
100
AcDbLine
 62
7
  6
CONTINUOUS
 10
308.9398489087
 20
230.4587213927
 11
308.3148489087
 21
230.4587213927
  0
LINE
  5
2AE
100
AcDbEntity
  8
KONSTRUKTIONSELEMENTE
100
AcDbLine
 62
7
  6
CONTINUOUS
 10
305.8148489087
 20
230.4587213927
 11
305.2940156251
 21
230.4587213927
  0
LINE
  5
2AF
100
AcDbEntity
  8
RUNDUNGEN
100
AcDbLine
 62
7
  6
CONTINUOUS
 10
303.5536430322
 20
234.4728213927
 11
322.55522155
 21
234.4728213927
  0
LINE
  5
2B0
100
AcDbEntity
  8
KONSTRUKTIONSELEMENTE
100
AcDbLine
 62
7
  6
CONTINUOUS
 10
321.231515178
 20
230.3523384267
 11
320.606515178
 21
230.4587213927
  0
LINE
  5
2B1
100
AcDbEntity
  8
KONSTRUKTIONSELEMENTE
100
AcDbLine
 62
7
  6
CONTINUOUS
 10
320.606515178
 20
225.9906362975
 11
320.0856826394
 21
226.0970192635
  0
LINE
  5
2B2
100
AcDbEntity
  8
KONSTRUKTIONSELEMENTE
100
AcDbLine
 62
7
  6
CONTINUOUS
 10
306.3356823414
 20
230.3523384267
 11
305.8148489087
 21
230.4587213927
  0
LINE
  5
2B3
100
AcDbEntity
  8
KONSTRUKTIONSELEMENTE
100
AcDbLine
 62
7
  6
CONTINUOUS
 10
320.606515178
 20
229.9268065625
 11
321.1273489087
 21
229.8204235965
  0
LINE
  5
2B4
100
AcDbEntity
  8
KONSTRUKTIONSELEMENTE
100
AcDbLine
 62
7
  6
CONTINUOUS
 10
305.2940156251
 20
228.3310617739
 11
304.9815156251
 21
228.4374447399
  0
LINE
  5
2B5
100
AcDbEntity
  8
KONSTRUKTIONSELEMENTE
100
AcDbLine
 62
7
  6
CONTINUOUS
 10
305.9190156251
 20
229.8204235965
 11
306.231515476
 21
229.7140406304
  0
LINE
  5
2B6
100
AcDbEntity
  8
KONSTRUKTIONSELEMENTE
100
AcDbLine
 62
7
  6
CONTINUOUS
 10
304.4606822669
 20
228.0119128758
 11
304.8773489087
 21
227.7991469437
  0
LINE
  5
2B7
100
AcDbEntity
  8
KONSTRUKTIONSELEMENTE
100
AcDbLine
 62
7
  6
CONTINUOUS
 10
306.856515476
 20
228.0119128758
 11
306.4398489087
 21
228.2246788078
  0
LINE
  5
2B8
100
AcDbEntity
  8
KONSTRUKTIONSELEMENTE
100
AcDbLine
 62
7
  6
CONTINUOUS
 10
315.2856822103
 20
221.6519129354
 11
314.7606819599
 21
221.9497852403
  0
LINE
  5
2B9
100
AcDbEntity
  8
KONSTRUKTIONSELEMENTE
100
AcDbLine
 62
7
  6
CONTINUOUS
 10
304.0440155878
 20
225.8842532942
 11
304.5648489087
 21
225.5651043681
  0
LINE
  5
2BA
100
AcDbEntity
  8
KONSTRUKTIONSELEMENTE
100
AcDbLine
 62
7
  6
CONTINUOUS
 10
304.9815156251
 20
228.4374447399
 11
304.6690155505
 21
228.650210672
  0
LINE
  5
2BB
100
AcDbEntity
  8
KONSTRUKTIONSELEMENTE
100
AcDbLine
 62
7
  6
CONTINUOUS
 10
306.3356823414
 20
227.5863810116
 11
306.6481823414
 21
227.3736150795
  0
LINE
  5
2BC
100
AcDbEntity
  8
KONSTRUKTIONSELEMENTE
100
AcDbLine
 62
7
  6
CONTINUOUS
 10
314.4981822103
 20
221.205104478
 11
314.8919322103
 21
220.9072321731
  0
LINE
  5
2BD
100
AcDbEntity
  8
KONSTRUKTIONSELEMENTE
100
AcDbLine
 62
7
  6
CONTINUOUS
 10
319.4606826394
 20
225.8842532942
 11
319.981515178
 21
225.5651043681
  0
LINE
  5
2BE
100
AcDbEntity
  8
KONSTRUKTIONSELEMENTE
100
AcDbLine
 62
7
  6
CONTINUOUS
 10
321.7523489087
 20
230.0331895286
 11
321.231515178
 21
230.3523384267
  0
LINE
  5
2BF
100
AcDbEntity
  8
KONSTRUKTIONSELEMENTE
100
AcDbLine
 62
7
  6
CONTINUOUS
 10
320.0856826394
 20
226.0970192635
 11
319.7731826394
 21
226.3097851956
  0
LINE
  5
2C0
100
AcDbEntity
  8
KONSTRUKTIONSELEMENTE
100
AcDbLine
 62
7
  6
CONTINUOUS
 10
321.1273489087
 20
229.8204235965
 11
321.4398489087
 21
229.6076576644
  0
LINE
  5
2C1
100
AcDbEntity
  8
KONSTRUKTIONSELEMENTE
100
AcDbLine
 62
7
  6
CONTINUOUS
 10
306.7523489087
 20
230.0331895286
 11
306.3356823414
 21
230.3523384267
  0
LINE
  5
2C2
100
AcDbEntity
  8
KONSTRUKTIONSELEMENTE
100
AcDbLine
 62
7
  6
CONTINUOUS
 10
304.6690155505
 20
226.2034022295
 11
304.3565155505
 21
226.5225512022
  0
LINE
  5
2C3
100
AcDbEntity
  8
KONSTRUKTIONSELEMENTE
100
AcDbLine
 62
7
  6
CONTINUOUS
 10
304.0440155878
 20
228.4374447399
 11
304.4606822669
 21
228.0119128758
  0
LINE
  5
2C4
100
AcDbEntity
  8
KONSTRUKTIONSELEMENTE
100
AcDbLine
 62
7
  6
CONTINUOUS
 10
307.2731823414
 20
227.5863810116
 11
306.856515476
 21
228.0119128758
  0
LINE
  5
2C5
100
AcDbEntity
  8
KONSTRUKTIONSELEMENTE
100
AcDbLine
 62
7
  6
CONTINUOUS
 10
306.231515476
 20
229.7140406304
 11
306.4398489087
 21
229.5012746984
  0
LINE
  5
2C6
100
AcDbEntity
  8
0
100
AcDbLine
 62
7
  6
CONTINUOUS
 10
274.0543857703
 20
231.2252805988
 11
274.0543857703
 21
208.4787213927
  0
LINE
  5
2C7
100
AcDbEntity
  8
BEZUGSACHSEN
100
AcDbLine
 62
7
  6
CONTINUOUS
 10
274.0543857703
 20
231.2252805988
 11
274.0543857703
 21
231.6787225612
  0
LINE
  5
2C8
100
AcDbEntity
  8
0
100
AcDbLine
 62
7
  6
CONTINUOUS
 10
281.0544319242
 20
263.4787213927
 11
281.0544319242
 21
261.4787213927
  0
LINE
  5
2C9
100
AcDbEntity
  8
KONSTRUKTIONSELEMENTE
100
AcDbLine
 62
7
  6
CONTINUOUS
 10
319.1481826394
 20
226.2034022295
 11
319.4606826394
 21
225.8842532942
  0
LINE
  5
2CA
100
AcDbEntity
  8
KONSTRUKTIONSELEMENTE
100
AcDbLine
 62
7
  6
CONTINUOUS
 10
322.0648489087
 20
229.7140406304
 11
321.7523489087
 21
230.0331895286
  0
LINE
  5
2CB
100
AcDbEntity
  8
KONSTRUKTIONSELEMENTE
100
AcDbLine
 62
7
  6
CONTINUOUS
 10
315.8106824606
 20
221.0561683255
 11
315.2856822103
 21
221.6519129354
  0
LINE
  5
2CC
100
AcDbEntity
  8
KONSTRUKTIONSELEMENTE
100
AcDbLine
 62
7
  6
CONTINUOUS
 10
307.0648489087
 20
229.6076576644
 11
306.7523489087
 21
230.0331895286
  0
LINE
  5
2CD
100
AcDbEntity
  8
KONSTRUKTIONSELEMENTE
100
AcDbLine
 62
7
  6
CONTINUOUS
 10
306.6481823414
 20
227.3736150795
 11
306.856515476
 21
227.0544660324
  0
LINE
  5
2CE
100
AcDbEntity
  8
KONSTRUKTIONSELEMENTE
100
AcDbLine
 62
7
  6
CONTINUOUS
 10
303.7315155785
 20
226.4161682361
 11
304.0440155878
 21
225.8842532942
  0
LINE
  5
2CF
100
AcDbEntity
  8
BEZUGSACHSEN
100
AcDbLine
 62
7
  6
CONTINUOUS
 10
282.0544319242
 20
266.3969265366
 11
282.0544319242
 21
263.4787213927
  0
LINE
  5
2D0
100
AcDbEntity
  8
BEZUGSACHSEN
100
AcDbLine
 62
7
  6
CONTINUOUS
 10
279.1352816177
 20
260.4939136397
 11
274.0543857703
 21
231.6787213927
  0
LINE
  5
2D1
100
AcDbEntity
  8
FASEN
100
AcDbLine
 62
7
  6
CONTINUOUS
 10
274.0543861824
 20
231.67872373
 11
279.1352816177
 21
260.4939136397
  0
LINE
  5
2D2
100
AcDbEntity
  8
0
100
AcDbLine
 62
7
  6
CONTINUOUS
 10
290.6820027696
 20
293.3750207581
 11
290.0340422319
 21
291.6245918103
  0
LINE
  5
2D3
100
AcDbEntity
  8
0
100
AcDbLine
 62
7
  6
CONTINUOUS
 10
290.5951000655
 20
291.9144751872
 11
291.1080687988
 21
293.300231368
  0
LINE
  5
2D4
100
AcDbEntity
  8
BEZUGSACHSEN
100
AcDbLine
 62
7
  6
CONTINUOUS
 10
290.8878070499
 20
305.7629540667
 11
282.4714543844
 21
285.4440813157
  0
LINE
  5
2D5
100
AcDbEntity
  8
0
100
AcDbLine
 62
7
  6
CONTINUOUS
 10
293.048304634
 20
298.00968307
 11
292.8126036364
 21
297.606959918
  0
LINE
  5
2D6
100
AcDbEntity
  8
0
100
AcDbLine
 62
7
  6
CONTINUOUS
 10
291.8697996457
 20
295.9960673098
 11
291.6340985356
 21
295.5933439658
  0
LINE
  5
2D7
100
AcDbEntity
  8
0
100
AcDbLine
 62
7
  6
CONTINUOUS
 10
290.8968081139
 20
293.7101487531
 11
290.6820027696
 21
293.3750207581
  0
LINE
  5
2D8
100
AcDbEntity
  8
0
100
AcDbLine
 62
7
  6
CONTINUOUS
 10
295.0309869913
 20
300.529658481
 11
293.8166134682
 21
299.1122131359
  0
LINE
  5
2D9
100
AcDbEntity
  8
0
100
AcDbLine
 62
7
  6
CONTINUOUS
 10
294.5079906457
 20
299.1343469355
 11
295.418770788
 21
300.1974309443
  0
LINE
  5
2DA
100
AcDbEntity
  8
0
100
AcDbLine
 62
7
  6
CONTINUOUS
 10
295.3486123011
 20
300.7695885637
 11
295.0309869913
 21
300.529658481
  0
LINE
  5
2DB
100
AcDbEntity
  8
0
100
AcDbLine
 62
7
  6
CONTINUOUS
 10
295.418770788
 20
300.1974309443
 11
295.6857968149
 21
300.3783003538
  0
LINE
  5
2DC
100
AcDbEntity
  8
0
100
AcDbLine
 62
7
  6
CONTINUOUS
 10
303.1514439401
 20
306.5956138097
 11
302.7395268906
 21
306.3763759437
  0
LINE
  5
2DD
100
AcDbEntity
  8
0
100
AcDbLine
 62
7
  6
CONTINUOUS
 10
300.8172468027
 20
305.353265624
 11
300.4053297532
 21
305.134027758
  0
LINE
  5
2DE
100
AcDbEntity
  8
RUNDUNGEN
100
AcDbLine
 62
7
  6
CONTINUOUS
 10
304.0544319242
 20
311.8507993314
 11
291.9703235412
 21
306.84539775
  0
LINE
  5
2DF
100
AcDbEntity
  8
FASEN
100
AcDbLine
 62
7
  6
CONTINUOUS
 10
346.9735822306
 20
260.4939136397
 11
279.1352816177
 21
260.4939136397
  0
LINE
  5
2E0
100
AcDbEntity
  8
KONSTRUKTIONSELEMENTE
100
AcDbLine
 62
7
  6
CONTINUOUS
 10
319.7731826394
 20
226.3097851956
 11
319.356515178
 21
226.9480830663
  0
LINE
  5
2E1
100
AcDbEntity
  8
KONSTRUKTIONSELEMENTE
100
AcDbLine
 62
7
  6
CONTINUOUS
 10
314.8919322103
 20
220.9072321731
 11
315.1544319599
 21
220.4604237157
  0
LINE
  5
2E2
100
AcDbEntity
  8
KONSTRUKTIONSELEMENTE
100
AcDbLine
 62
7
  6
CONTINUOUS
 10
307.481515476
 20
227.1608489984
 11
307.2731823414
 21
227.5863810116
  0
LINE
  5
2E3
100
AcDbEntity
  8
KONSTRUKTIONSELEMENTE
100
AcDbLine
 62
7
  6
CONTINUOUS
 10
306.4398489087
 20
229.5012746984
 11
306.544015476
 21
229.2885087663
  0
LINE
  5
2E4
100
AcDbEntity
  8
BEZUGSACHSEN
100
AcDbLine
 62
7
  6
CONTINUOUS
 10
282.4710974078
 20
283.9142232875
 11
286.3666799328
 21
274.5094551222
  0
LINE
  5
2E5
100
AcDbEntity
  8
KONSTRUKTIONSELEMENTE
100
AcDbLine
 62
7
  6
CONTINUOUS
 10
304.6544322103
 20
220.6093598682
 11
306.4919321477
 21
215.0987213927
  0
LINE
  5
2E6
100
AcDbEntity
  8
KONSTRUKTIONSELEMENTE
100
AcDbLine
 62
7
  6
CONTINUOUS
 10
304.3565155505
 20
226.5225512022
 11
304.2523489087
 21
226.8417001003
  0
LINE
  5
2E7
100
AcDbEntity
  8
KONSTRUKTIONSELEMENTE
100
AcDbLine
 62
7
  6
CONTINUOUS
 10
304.6690155505
 20
228.650210672
 11
304.5648489087
 21
228.9693595701
  0
LINE
  5
2E8
100
AcDbEntity
  8
KONSTRUKTIONSELEMENTE
100
AcDbLine
 62
7
  6
CONTINUOUS
 10
307.0169322103
 20
215.8434022593
 11
305.0481822103
 21
222.0987213927
  0
LINE
  5
2E9
100
AcDbEntity
  8
0
100
AcDbLine
 62
7
  6
CONTINUOUS
 10
295.4858976273
 20
295.7720306229
 11
295.5149495052
 21
295.4846917779
  0
LINE
  5
2EA
100
AcDbEntity
  8
0
100
AcDbLine
 62
7
  6
CONTINUOUS
 10
291.4829738409
 20
231.2252805988
 11
291.4829738409
 21
208.4787213927
  0
LINE
  5
2EB
100
AcDbEntity
  8
0
100
AcDbLine
 62
7
  6
CONTINUOUS
 10
295.6698431647
 20
231.2252805988
 11
295.6698431647
 21
208.4787213927
  0
LINE
  5
2EC
100
AcDbEntity
  8
0
100
AcDbLine
 62
7
  6
CONTINUOUS
 10
292.3064536475
 20
293.1054080954
 11
292.3052721202
 21
292.8570597049
  0
LINE
  5
2ED
100
AcDbEntity
  8
0
100
AcDbLine
 62
7
  6
CONTINUOUS
 10
295.9949398759
 20
295.2938803042
 11
296.0051716047
 21
295.6483397838
  0
LINE
  5
2EE
100
AcDbEntity
  8
0
100
AcDbLine
 62
7
  6
CONTINUOUS
 10
297.841143393
 20
298.8389718498
 11
297.8186080135
 21
298.5510486307
  0
LINE
  5
2EF
100
AcDbEntity
  8
0
100
AcDbLine
 62
7
  6
CONTINUOUS
 10
298.2569911326
 20
298.2778817334
 11
298.3301252442
 21
298.6248649257
  0
LINE
  5
2F0
100
AcDbEntity
  8
0
100
AcDbLine
 62
7
  6
CONTINUOUS
 10
295.5149495052
 20
295.4846917779
 11
295.4312665945
 21
295.1732209291
  0
LINE
  5
2F1
100
AcDbEntity
  8
0
100
AcDbLine
 62
7
  6
CONTINUOUS
 10
295.8719736219
 20
294.9152891824
 11
295.9949398759
 21
295.2938803042
  0
LINE
  5
2F2
100
AcDbEntity
  8
0
100
AcDbLine
 62
7
  6
CONTINUOUS
 10
292.3052721202
 20
292.8570597049
 11
291.7923033869
 21
291.4713035241
  0
LINE
  5
2F3
100
AcDbEntity
  8
0
100
AcDbLine
 62
7
  6
CONTINUOUS
 10
292.271184626
 20
291.294034892
 11
292.7301566606
 21
292.5339220286
  0
LINE
  5
2F4
100
AcDbEntity
  8
0
100
AcDbLine
 62
7
  6
CONTINUOUS
 10
293.7852790519
 20
290.2359873599
 11
293.9472691864
 21
290.6735945968
  0
LINE
  5
2F5
100
AcDbEntity
  8
0
100
AcDbLine
 62
7
  6
CONTINUOUS
 10
294.6222280541
 20
292.4969580146
 11
294.8112165958
 21
293.0074999301
  0
LINE
  5
2F6
100
AcDbEntity
  8
0
100
AcDbLine
 62
7
  6
CONTINUOUS
 10
297.8186080135
 20
298.5510486307
 11
297.6808432521
 21
298.259436709
  0
LINE
  5
2F7
100
AcDbEntity
  8
0
100
AcDbLine
 62
7
  6
CONTINUOUS
 10
298.068627094
 20
297.9272091335
 11
298.2569911326
 21
298.2778817334
  0
LINE
  5
2F8
100
AcDbEntity
  8
0
100
AcDbLine
 62
7
  6
CONTINUOUS
 10
295.4312665945
 20
295.1732209291
 11
295.2741325211
 21
294.9047386997
  0
LINE
  5
2F9
100
AcDbEntity
  8
0
100
AcDbLine
 62
7
  6
CONTINUOUS
 10
295.7148395485
 20
294.646806953
 11
295.8719736219
 21
294.9152891824
  0
LINE
  5
2FA
100
AcDbEntity
  8
0
100
AcDbLine
 62
7
  6
CONTINUOUS
 10
291.1080687988
 20
293.300231368
 11
291.2688774059
 21
293.4894902144
  0
LINE
  5
2FB
100
AcDbEntity
  8
0
100
AcDbLine
 62
7
  6
CONTINUOUS
 10
297.6808432521
 20
298.259436709
 11
296.7700631098
 21
297.1963527002
  0
LINE
  5
2FC
100
AcDbEntity
  8
0
100
AcDbLine
 62
7
  6
CONTINUOUS
 10
296.854253571
 20
296.5097637885
 11
298.068627094
 21
297.9272091335
  0
LINE
  5
2FD
100
AcDbEntity
  8
0
100
AcDbLine
 62
7
  6
CONTINUOUS
 10
295.4449709563
 20
294.3541930775
 11
295.7148395485
 21
294.646806953
  0
LINE
  5
2FE
100
AcDbEntity
  8
0
100
AcDbLine
 62
7
  6
CONTINUOUS
 10
295.2741325211
 20
294.9047386997
 11
295.0435475098
 21
294.6792454738
  0
LINE
  5
2FF
100
AcDbEntity
  8
0
100
AcDbLine
 62
7
  6
CONTINUOUS
 10
295.1409345383
 20
294.1716880983
 11
295.4449709563
 21
294.3541930775
  0
LINE
  5
300
100
AcDbEntity
  8
0
100
AcDbLine
 62
7
  6
CONTINUOUS
 10
291.2442421307
 20
293.9132525255
 11
290.8968081139
 21
293.7101487531
  0
LINE
  5
301
100
AcDbEntity
  8
0
100
AcDbLine
 62
7
  6
CONTINUOUS
 10
303.3831165885
 20
302.1876457808
 11
303.9323387973
 21
302.4799626566
  0
LINE
  5
302
100
AcDbEntity
  8
0
100
AcDbLine
 62
7
  6
CONTINUOUS
 10
295.0435475098
 20
294.6792454738
 11
294.7787946342
 21
294.5638611668
  0
LINE
  5
303
100
AcDbEntity
  8
0
100
AcDbLine
 62
7
  6
CONTINUOUS
 10
291.2688774059
 20
293.4894902144
 11
291.4825012228
 21
293.5762698189
  0
LINE
  5
304
100
AcDbEntity
  8
0
100
AcDbLine
 62
7
  6
CONTINUOUS
 10
295.6802689608
 20
300.8950867171
 11
295.3486123011
 21
300.7695885637
  0
LINE
  5
305
100
AcDbEntity
  8
FASEN
100
AcDbLine
 62
7
  6
CONTINUOUS
 10
345.7999340529
 20
261.4787213927
 11
280.3089297954
 21
261.4787213927
  0
LINE
  5
306
100
AcDbEntity
  8
0
100
AcDbLine
 62
7
  6
CONTINUOUS
 10
345.0544319242
 20
263.4787213927
 11
281.0544319242
 21
263.4787213927
  0
LINE
  5
307
100
AcDbEntity
  8
KONSTRUKTIONSELEMENTE
100
AcDbLine
 62
7
  6
CONTINUOUS
 10
321.4398489087
 20
229.6076576644
 11
321.856515178
 21
228.9693595701
  0
LINE
  5
308
100
AcDbEntity
  8
KONSTRUKTIONSELEMENTE
100
AcDbLine
 62
7
  6
CONTINUOUS
 10
318.9398489087
 20
226.6289341682
 11
319.1481826394
 21
226.2034022295
  0
LINE
  5
309
100
AcDbEntity
  8
KONSTRUKTIONSELEMENTE
100
AcDbLine
 62
7
  6
CONTINUOUS
 10
322.2731826394
 20
229.2885087663
 11
322.0648489087
 21
229.7140406304
  0
LINE
  5
30A
100
AcDbEntity
  8
KONSTRUKTIONSELEMENTE
100
AcDbLine
 62
7
  6
CONTINUOUS
 10
307.169015476
 20
229.2885087663
 11
307.0648489087
 21
229.6076576644
  0
LINE
  5
30B
100
AcDbEntity
  8
KONSTRUKTIONSELEMENTE
100
AcDbLine
 62
7
  6
CONTINUOUS
 10
303.6273489087
 20
226.8417001003
 11
303.7315155785
 21
226.4161682361
  0
LINE
  5
30C
100
AcDbEntity
  8
KONSTRUKTIONSELEMENTE
100
AcDbLine
 62
7
  6
CONTINUOUS
 10
303.9398489087
 20
228.8629766041
 11
304.0440155878
 21
228.4374447399
  0
LINE
  5
30D
100
AcDbEntity
  8
0
100
AcDbLine
 62
7
  6
CONTINUOUS
 10
292.732519754
 20
293.0306189139
 11
292.6808860715
 21
293.3814465464
  0
LINE
  5
30E
100
AcDbEntity
  8
RUNDUNGEN
100
AcDbLine
 62
7
  6
CONTINUOUS
 10
300.5544319242
 20
231.4728213927
 11
300.5544319242
 21
214.6787213927
  0
LINE
  5
30F
100
AcDbEntity
  8
RUNDUNGEN
100
AcDbLine
 62
7
  6
CONTINUOUS
 10
301.0544319242
 20
246.6787213927
 11
301.0544319242
 21
238.4728213927
  0
LINE
  5
310
100
AcDbEntity
  8
0
100
AcDbLine
 62
7
  6
CONTINUOUS
 10
301.0544319242
 20
208.4787213927
 11
301.0544319242
 21
171.4787213927
  0
LINE
  5
311
100
AcDbEntity
  8
KONSTRUKTIONSELEMENTE
100
AcDbLine
 62
7
  6
CONTINUOUS
 10
303.8669322103
 20
222.0987213927
 11
303.8669322103
 21
215.0987213927
  0
LINE
  5
312
100
AcDbEntity
  8
KONSTRUKTIONSELEMENTE
100
AcDbLine
 62
7
  6
CONTINUOUS
 10
303.9398489087
 20
229.2885087663
 11
303.9398489087
 21
228.8629766041
  0
LINE
  5
313
100
AcDbEntity
  8
0
100
AcDbLine
 62
7
  6
CONTINUOUS
 10
304.0544319242
 20
287.5598112745
 11
304.0544319242
 21
390.397631511
  0
LINE
  5
314
100
AcDbEntity
  8
KONSTRUKTIONSELEMENTE
100
AcDbLine
 62
7
  6
CONTINUOUS
 10
304.5648489087
 20
228.9693595701
 11
304.5648489087
 21
229.1821255022
  0
LINE
  5
315
100
AcDbEntity
  8
KONSTRUKTIONSELEMENTE
100
AcDbLine
 62
7
  6
CONTINUOUS
 10
304.6544322103
 20
215.0987213927
 11
304.6544322103
 21
220.6093598682
  0
LINE
  5
316
100
AcDbEntity
  8
0
100
AcDbLine
 62
7
  6
CONTINUOUS
 10
327.6272067243
 20
303.0346956413
 11
327.3434253382
 21
302.8312114559
  0
LINE
  5
317
100
AcDbEntity
  8
0
100
AcDbLine
 62
7
  6
CONTINUOUS
 10
328.9201080696
 20
301.2095707198
 11
328.5780681891
 21
301.0576100753
  0
LINE
  5
318
100
AcDbEntity
  8
0
100
AcDbLine
 62
7
  6
CONTINUOUS
 10
327.6815918569
 20
299.6917685833
 11
327.51057325
 21
299.6157870818
  0
LINE
  5
319
100
AcDbEntity
  8
0
100
AcDbLine
 62
7
  6
CONTINUOUS
 10
327.6347098098
 20
302.5736008271
 11
327.9203656339
 21
302.6618124882
  0
LINE
  5
31A
100
AcDbEntity
  8
0
100
AcDbLine
 62
7
  6
CONTINUOUS
 10
328.6419499975
 20
300.6602689615
 11
328.9276084884
 21
300.7484782641
  0
LINE
  5
31B
100
AcDbEntity
  8
0
100
AcDbLine
 62
7
  6
CONTINUOUS
 10
327.4598178016
 20
299.2062157637
 11
327.7454736258
 21
299.2944274248
  0
LINE
  5
31C
100
AcDbEntity
  8
BEZUGSACHSEN
100
AcDbLine
 62
7
  6
CONTINUOUS
 10
335.587582
 20
268.9787213927
 11
290.5212818483
 21
268.9787213927
  0
LINE
  5
31D
100
AcDbEntity
  8
0
100
AcDbLine
 62
7
  6
CONTINUOUS
 10
292.6808860715
 20
293.3814465464
 11
292.4426269793
 21
293.7184292529
  0
LINE
  5
31E
100
AcDbEntity
  8
0
100
AcDbLine
 62
7
  6
CONTINUOUS
 10
295.8685010017
 20
296.0887765059
 11
295.6532632239
 21
296.3949719364
  0
LINE
  5
31F
100
AcDbEntity
  8
0
100
AcDbLine
 62
7
  6
CONTINUOUS
 10
295.3441110636
 20
296.0352374038
 11
295.4858976273
 21
295.7720306229
  0
LINE
  5
320
100
AcDbEntity
  8
0
100
AcDbLine
 62
7
  6
CONTINUOUS
 10
292.2008233051
 20
293.310366788
 11
292.3064536475
 21
293.1054080954
  0
LINE
  5
321
100
AcDbEntity
  8
0
100
AcDbLine
 62
7
  6
CONTINUOUS
 10
298.2739980846
 20
299.0825906351
 11
298.1166734949
 21
299.422196369
  0
LINE
  5
322
100
AcDbEntity
  8
KONSTRUKTIONSELEMENTE
100
AcDbLine
 62
7
  6
CONTINUOUS
 10
318.8356826394
 20
226.9480830663
 11
318.9398489087
 21
226.6289341682
  0
LINE
  5
323
100
AcDbEntity
  8
KONSTRUKTIONSELEMENTE
100
AcDbLine
 62
7
  6
CONTINUOUS
 10
322.3773489087
 20
228.9693595701
 11
322.2731826394
 21
229.2885087663
  0
LINE
  5
324
100
AcDbEntity
  8
0
100
AcDbLine
 62
7
  6
CONTINUOUS
 10
297.7484494813
 20
299.1232062888
 11
297.841143393
 21
298.8389718498
  0
LINE
  5
325
100
AcDbEntity
  8
0
100
AcDbLine
 62
7
  6
CONTINUOUS
 10
296.0051716047
 20
295.6483397838
 11
295.8685010017
 21
296.0887765059
  0
LINE
  5
326
100
AcDbEntity
  8
KONSTRUKTIONSELEMENTE
100
AcDbLine
 62
7
  6
CONTINUOUS
 10
315.9419319599
 20
220.4604237157
 11
315.8106824606
 21
221.0561683255
  0
LINE
  5
327
100
AcDbEntity
  8
KONSTRUKTIONSELEMENTE
100
AcDbLine
 62
7
  6
CONTINUOUS
 10
312.0648489087
 20
226.6289341682
 11
311.2315157741
 21
230.4587213927
  0
LINE
  5
328
100
AcDbEntity
  8
KONSTRUKTIONSELEMENTE
100
AcDbLine
 62
7
  6
CONTINUOUS
 10
310.8148489087
 20
229.5012746984
 11
311.6481820434
 21
225.4587213927
  0
LINE
  5
329
100
AcDbEntity
  8
KONSTRUKTIONSELEMENTE
100
AcDbLine
 62
7
  6
CONTINUOUS
 10
308.3148489087
 20
230.4587213927
 11
309.1481820434
 21
225.4587213927
  0
LINE
  5
32A
100
AcDbEntity
  8
KONSTRUKTIONSELEMENTE
100
AcDbLine
 62
7
  6
CONTINUOUS
 10
309.5648489087
 20
226.6289341682
 11
308.9398489087
 21
230.4587213927
  0
LINE
  5
32B
100
AcDbEntity
  8
0
100
AcDbLine
 62
7
  6
CONTINUOUS
 10
298.3301252442
 20
298.6248649257
 11
298.2739980846
 21
299.0825906351
  0
LINE
  5
32C
100
AcDbEntity
  8
KONSTRUKTIONSELEMENTE
100
AcDbLine
 62
7
  6
CONTINUOUS
 10
306.856515476
 20
227.0544660324
 11
306.856515476
 21
226.7353171342
  0
LINE
  5
32D
100
AcDbEntity
  8
KONSTRUKTIONSELEMENTE
100
AcDbLine
 62
7
  6
CONTINUOUS
 10
307.481515476
 20
226.6289341682
 11
307.481515476
 21
227.1608489984
  0
LINE
  5
32E
100
AcDbEntity
  8
KONSTRUKTIONSELEMENTE
100
AcDbLine
 62
7
  6
CONTINUOUS
 10
309.3794322103
 20
220.6093598682
 11
309.3794322103
 21
215.0987213927
  0
LINE
  5
32F
100
AcDbEntity
  8
KONSTRUKTIONSELEMENTE
100
AcDbLine
 62
7
  6
CONTINUOUS
 10
310.1669322103
 20
215.0987213927
 11
310.1669322103
 21
222.0987213927
  0
LINE
  5
330
100
AcDbEntity
  8
KONSTRUKTIONSELEMENTE
100
AcDbLine
 62
7
  6
CONTINUOUS
 10
311.2169319599
 20
215.8434022593
 11
311.2169319599
 21
215.0987213927
  0
LINE
  5
331
100
AcDbEntity
  8
0
100
AcDbLine
 62
7
  6
CONTINUOUS
 10
322.0544319242
 20
305.4731868391
 11
322.9340823788
 21
306.6061436843
  0
LINE
  5
332
100
AcDbEntity
  8
0
100
AcDbLine
 62
7
  6
CONTINUOUS
 10
322.497138119
 20
306.7699136794
 11
322.0544319242
 21
306.2007418352
  0
LINE
  5
333
100
AcDbEntity
  8
0
100
AcDbLine
 62
7
  6
CONTINUOUS
 10
327.6534620321
 20
301.4208683298
 11
327.4279364736
 21
301.165862962
  0
LINE
  5
334
100
AcDbEntity
  8
0
100
AcDbLine
 62
7
  6
CONTINUOUS
 10
329.0328710068
 20
301.3370735823
 11
328.9201080696
 21
301.2095707198
  0
LINE
  5
335
100
AcDbEntity
  8
0
100
AcDbLine
 62
7
  6
CONTINUOUS
 10
327.9071174154
 20
299.9467739511
 11
327.6815918569
 21
299.6917685833
  0
LINE
  5
336
100
AcDbEntity
  8
0
100
AcDbLine
 62
7
  6
CONTINUOUS
 10
329.2113898745
 20
300.9519624495
 11
329.3241528117
 21
301.079465312
  0
LINE
  5
337
100
AcDbEntity
  8
0
100
AcDbLine
 62
7
  6
CONTINUOUS
 10
327.9728763285
 20
299.4341579545
 11
328.198401887
 21
299.6891633223
  0
LINE
  5
338
100
AcDbEntity
  8
FASEN
100
AcDbLine
 62
7
  6
CONTINUOUS
 10
280.3089297955
 20
261.4787213928
 11
279.1352816178
 21
260.4939136398
  0
LINE
  5
339
100
AcDbEntity
  8
0
100
AcDbLine
 62
7
  6
CONTINUOUS
 10
328.9276084884
 20
300.7484782641
 11
329.2113898745
 21
300.9519624495
  0
LINE
  5
33A
100
AcDbEntity
  8
0
100
AcDbLine
 62
7
  6
CONTINUOUS
 10
332.0471647114
 20
299.417641616
 11
330.2230049745
 21
298.1651344008
  0
LINE
  5
33B
100
AcDbEntity
  8
0
100
AcDbLine
 62
7
  6
CONTINUOUS
 10
330.7939103723
 20
298.0854380709
 11
331.916470286
 21
298.8562117937
  0
LINE
  5
33C
100
AcDbEntity
  8
0
100
AcDbLine
 62
7
  6
CONTINUOUS
 10
331.2368666363
 20
295.9367653629
 11
331.0965466717
 21
295.8404186644
  0
LINE
  5
33D
100
AcDbEntity
  8
0
100
AcDbLine
 62
7
  6
CONTINUOUS
 10
333.1930905693
 20
296.996933626
 11
333.5438904809
 21
297.2378003723
  0
LINE
  5
33E
100
AcDbEntity
  8
0
100
AcDbLine
 62
7
  6
CONTINUOUS
 10
331.2464941906
 20
295.4716793042
 11
331.5271341199
 21
295.6643727012
  0
LINE
  5
33F
100
AcDbEntity
  8
0
100
AcDbLine
 62
7
  6
CONTINUOUS
 10
327.7454736258
 20
299.2944274248
 11
327.9728763285
 21
299.4341579545
  0
LINE
  5
340
100
AcDbEntity
  8
0
100
AcDbLine
 62
7
  6
CONTINUOUS
 10
333.0674707179
 20
295.4816070655
 11
332.7615191758
 21
295.3323315853
  0
LINE
  5
341
100
AcDbEntity
  8
0
100
AcDbLine
 62
7
  6
CONTINUOUS
 10
333.9521938713
 20
295.2209929204
 11
333.3402905727
 21
294.9224418553
  0
LINE
  5
342
100
AcDbEntity
  8
0
100
AcDbLine
 62
7
  6
CONTINUOUS
 10
333.0343390306
 20
294.773166375
 11
331.5045811591
 21
294.0267888953
  0
LINE
  5
343
100
AcDbEntity
  8
0
100
AcDbLine
 62
7
  6
CONTINUOUS
 10
331.8280695882
 20
293.7519480053
 11
333.204851635
 21
294.4236877187
  0
LINE
  5
344
100
AcDbEntity
  8
0
100
AcDbLine
 62
7
  6
CONTINUOUS
 10
333.5108031771
 20
294.5729631989
 11
334.1227064757
 21
294.871514264
  0
LINE
  5
345
100
AcDbEntity
  8
0
100
AcDbLine
 62
7
  6
CONTINUOUS
 10
331.3701123769
 20
292.7496995906
 11
331.6760639458
 21
292.898975084
  0
LINE
  5
346
100
AcDbEntity
  8
0
100
AcDbLine
 62
7
  6
CONTINUOUS
 10
333.5799771791
 20
293.6548391541
 11
333.8859287212
 21
293.8041146344
  0
LINE
  5
347
100
AcDbEntity
  8
0
100
AcDbLine
 62
7
  6
CONTINUOUS
 10
331.0965466717
 20
295.8404186644
 11
330.8420460305
 21
295.7600106449
  0
LINE
  5
348
100
AcDbEntity
  8
0
100
AcDbLine
 62
7
  6
CONTINUOUS
 10
290.0340422319
 20
291.6245918103
 11
293.7852790519
 21
290.2359873599
  0
LINE
  5
349
100
AcDbEntity
  8
0
100
AcDbLine
 62
7
  6
CONTINUOUS
 10
293.9472691864
 20
290.6735945968
 11
292.271184626
 21
291.294034892
  0
LINE
  5
34A
100
AcDbEntity
  8
0
100
AcDbLine
 62
7
  6
CONTINUOUS
 10
291.7923033869
 20
291.4713035241
 11
290.5951000655
 21
291.9144751872
  0
LINE
  5
34B
100
AcDbEntity
  8
0
100
AcDbLine
 62
7
  6
CONTINUOUS
 10
291.6340985356
 20
295.5933439658
 11
293.9110848867
 21
294.2606965827
  0
LINE
  5
34C
100
AcDbEntity
  8
0
100
AcDbLine
 62
7
  6
CONTINUOUS
 10
294.1467859968
 20
294.6634199268
 11
291.8697996457
 21
295.9960673098
  0
LINE
  5
34D
100
AcDbEntity
  8
0
100
AcDbLine
 62
7
  6
CONTINUOUS
 10
291.9883810155
 20
293.471935574
 11
292.2008233051
 21
293.310366788
  0
LINE
  5
34E
100
AcDbEntity
  8
0
100
AcDbLine
 62
7
  6
CONTINUOUS
 10
292.4426269793
 20
293.7184292529
 11
292.2301846898
 21
293.8799980389
  0
LINE
  5
34F
100
AcDbEntity
  8
0
100
AcDbLine
 62
7
  6
CONTINUOUS
 10
293.8166134682
 20
299.1122131359
 11
296.854253571
 21
296.5097637885
  0
LINE
  5
350
100
AcDbEntity
  8
0
100
AcDbLine
 62
7
  6
CONTINUOUS
 10
296.7700631098
 20
297.1963527002
 11
294.5079906457
 21
299.1343469355
  0
LINE
  5
351
100
AcDbEntity
  8
0
100
AcDbLine
 62
7
  6
CONTINUOUS
 10
295.6532632239
 20
296.3949719364
 11
295.3252909851
 21
296.6770356869
  0
LINE
  5
352
100
AcDbEntity
  8
0
100
AcDbLine
 62
7
  6
CONTINUOUS
 10
295.0895899875
 20
296.2743125349
 11
295.3441110636
 21
296.0352374038
  0
LINE
  5
353
100
AcDbEntity
  8
0
100
AcDbLine
 62
7
  6
CONTINUOUS
 10
298.1166734949
 20
299.422196369
 11
297.8441190347
 21
299.758112647
  0
LINE
  5
354
100
AcDbEntity
  8
0
100
AcDbLine
 62
7
  6
CONTINUOUS
 10
297.540525654
 20
299.4037513107
 11
297.7484494813
 21
299.1232062888
  0
LINE
  5
355
100
AcDbEntity
  8
KONSTRUKTIONSELEMENTE
100
AcDbLine
 62
7
  6
CONTINUOUS
 10
318.731515178
 20
227.4799980456
 11
318.8356826394
 21
226.9480830663
  0
LINE
  5
356
100
AcDbEntity
  8
KONSTRUKTIONSELEMENTE
100
AcDbLine
 62
7
  6
CONTINUOUS
 10
322.481515178
 20
228.4374447399
 11
322.3773489087
 21
228.9693595701
  0
LINE
  5
357
100
AcDbEntity
  8
0
100
AcDbLine
 62
7
  6
CONTINUOUS
 10
303.9323387973
 20
302.4799626566
 11
303.1514439401
 21
306.5956138097
  0
LINE
  5
358
100
AcDbEntity
  8
0
100
AcDbLine
 62
7
  6
CONTINUOUS
 10
302.7395268906
 20
306.3763759437
 11
303.4178110551
 21
302.7845718715
  0
LINE
  5
359
100
AcDbEntity
  8
KONSTRUKTIONSELEMENTE
100
AcDbLine
 62
7
  6
CONTINUOUS
 10
319.356515178
 20
226.9480830663
 11
319.2523489087
 21
227.5863810116
  0
LINE
  5
35A
100
AcDbEntity
  8
KONSTRUKTIONSELEMENTE
100
AcDbLine
 62
7
  6
CONTINUOUS
 10
321.856515178
 20
228.9693595701
 11
321.9606826394
 21
228.3310617739
  0
LINE
  5
35B
100
AcDbEntity
  8
KONSTRUKTIONSELEMENTE
100
AcDbLine
 62
7
  6
CONTINUOUS
 10
314.1481826394
 20
230.4587213927
 11
314.1481826394
 21
229.9268065625
  0
LINE
  5
35C
100
AcDbEntity
  8
KONSTRUKTIONSELEMENTE
100
AcDbLine
 62
7
  6
CONTINUOUS
 10
315.1544319599
 20
220.4604237157
 11
315.1544319599
 21
220.1625509935
  0
LINE
  5
35D
100
AcDbEntity
  8
KONSTRUKTIONSELEMENTE
100
AcDbLine
 62
7
  6
CONTINUOUS
 10
315.9419319599
 20
215.0987213927
 11
315.9419319599
 21
215.8434022593
  0
LINE
  5
35E
100
AcDbEntity
  8
KONSTRUKTIONSELEMENTE
100
AcDbLine
 62
7
  6
CONTINUOUS
 10
315.9419319599
 20
220.1625509935
 11
315.9419319599
 21
220.4604237157
  0
LINE
  5
35F
100
AcDbEntity
  8
KONSTRUKTIONSELEMENTE
100
AcDbLine
 62
7
  6
CONTINUOUS
 10
316.9919317096
 20
218.0774448591
 11
316.9919317096
 21
217.1838277358
  0
LINE
  5
360
100
AcDbEntity
  8
KONSTRUKTIONSELEMENTE
100
AcDbLine
 62
7
  6
CONTINUOUS
 10
317.8981826394
 20
229.9268065625
 11
317.8981826394
 21
230.4587213927
  0
LINE
  5
361
100
AcDbEntity
  8
KONSTRUKTIONSELEMENTE
100
AcDbLine
 62
7
  6
CONTINUOUS
 10
318.731515178
 20
228.4374447399
 11
318.731515178
 21
227.4799980456
  0
LINE
  5
362
100
AcDbEntity
  8
KONSTRUKTIONSELEMENTE
100
AcDbLine
 62
7
  6
CONTINUOUS
 10
319.2523489087
 20
227.5863810116
 11
319.2523489087
 21
228.3310617739
  0
LINE
  5
363
100
AcDbEntity
  8
KONSTRUKTIONSELEMENTE
100
AcDbLine
 62
7
  6
CONTINUOUS
 10
320.1419317096
 20
220.9072321731
 11
320.1419317096
 21
218.0774448591
  0
LINE
  5
364
100
AcDbEntity
  8
KONSTRUKTIONSELEMENTE
100
AcDbLine
 62
7
  6
CONTINUOUS
 10
320.1419317096
 20
217.1838277358
 11
320.1419317096
 21
215.0987213927
  0
LINE
  5
365
100
AcDbEntity
  8
KONSTRUKTIONSELEMENTE
100
AcDbLine
 62
7
  6
CONTINUOUS
 10
320.9294317096
 20
215.0987213927
 11
320.9294317096
 21
217.1838277358
  0
LINE
  5
366
100
AcDbEntity
  8
KONSTRUKTIONSELEMENTE
100
AcDbLine
 62
7
  6
CONTINUOUS
 10
320.9294317096
 20
218.0774448591
 11
320.9294317096
 21
222.0987213927
  0
LINE
  5
367
100
AcDbEntity
  8
KONSTRUKTIONSELEMENTE
100
AcDbLine
 62
7
  6
CONTINUOUS
 10
321.9606826394
 20
228.3310617739
 11
321.9606826394
 21
227.5863810116
  0
LINE
  5
368
100
AcDbEntity
  8
0
100
AcDbLine
 62
7
  6
CONTINUOUS
 10
322.0544319242
 20
287.5598112745
 11
322.0544319242
 21
390.397631511
  0
LINE
  5
369
100
AcDbEntity
  8
KONSTRUKTIONSELEMENTE
100
AcDbLine
 62
7
  6
CONTINUOUS
 10
322.2419327109
 20
217.1838277358
 11
322.2419327109
 21
218.0774448591
  0
LINE
  5
36A
100
AcDbEntity
  8
KONSTRUKTIONSELEMENTE
100
AcDbLine
 62
7
  6
CONTINUOUS
 10
312.6898489087
 20
230.4587213927
 11
312.0648489087
 21
226.6289341682
  0
LINE
  5
36B
100
AcDbEntity
  8
KONSTRUKTIONSELEMENTE
100
AcDbLine
 62
7
  6
CONTINUOUS
 10
312.4815157741
 20
225.4587213927
 11
313.3148489087
 21
230.4587213927
  0
LINE
  5
36C
100
AcDbEntity
  8
KONSTRUKTIONSELEMENTE
100
AcDbLine
 62
7
  6
CONTINUOUS
 10
309.9815157741
 20
225.4587213927
 11
310.8148489087
 21
229.5012746984
  0
LINE
  5
36D
100
AcDbEntity
  8
KONSTRUKTIONSELEMENTE
100
AcDbLine
 62
7
  6
CONTINUOUS
 10
310.3981820434
 20
230.4587213927
 11
309.5648489087
 21
226.6289341682
  0
LINE
  5
36E
100
AcDbEntity
  8
KONSTRUKTIONSELEMENTE
100
AcDbLine
 62
7
  6
CONTINUOUS
 10
304.0440155878
 20
229.7140406304
 11
303.9398489087
 21
229.2885087663
  0
LINE
  5
36F
100
AcDbEntity
  8
0
100
AcDbLine
 62
7
  6
CONTINUOUS
 10
326.112412053
 20
300.8523143265
 11
326.1669163378
 21
301.0313405512
  0
LINE
  5
370
100
AcDbEntity
  8
KONSTRUKTIONSELEMENTE
100
AcDbLine
 62
7
  6
CONTINUOUS
 10
304.5648489087
 20
229.1821255022
 11
304.6690155505
 21
229.5012746984
  0
LINE
  5
371
100
AcDbEntity
  8
0
100
AcDbLine
 62
7
  6
CONTINUOUS
 10
325.875634533
 20
301.2889488216
 11
325.7647461522
 21
301.0461735687
  0
LINE
  5
372
100
AcDbEntity
  8
0
100
AcDbLine
 62
7
  6
CONTINUOUS
 10
328.198401887
 20
299.6891633223
 11
328.3656690301
 21
299.9956923203
  0
LINE
  5
373
100
AcDbEntity
  8
0
100
AcDbLine
 62
7
  6
CONTINUOUS
 10
329.3241528117
 20
301.079465312
 11
329.4914225426
 21
301.3859918622
  0
LINE
  5
374
100
AcDbEntity
  8
0
100
AcDbLine
 62
7
  6
CONTINUOUS
 10
329.5915650353
 20
297.7315741901
 11
329.3989664453
 21
297.4106567029
  0
LINE
  5
375
100
AcDbEntity
  8
0
100
AcDbLine
 62
7
  6
CONTINUOUS
 10
329.6630946408
 20
297.0259786637
 11
329.8556932308
 21
297.3468961509
  0
LINE
  5
376
100
AcDbEntity
  8
0
100
AcDbLine
 62
7
  6
CONTINUOUS
 10
331.5271341199
 20
295.6643727012
 11
331.7898907263
 21
296.0334665062
  0
LINE
  5
377
100
AcDbEntity
  8
0
100
AcDbLine
 62
7
  6
CONTINUOUS
 10
331.4033259873
 20
296.1453975064
 11
331.2368666363
 21
295.9367653629
  0
LINE
  5
378
100
AcDbEntity
  8
0
100
AcDbLine
 62
7
  6
CONTINUOUS
 10
331.5045811591
 20
294.0267888953
 11
331.2668349442
 21
293.7377212996
  0
LINE
  5
379
100
AcDbEntity
  8
0
100
AcDbLine
 62
7
  6
CONTINUOUS
 10
331.6327077744
 20
293.5700969175
 11
331.8280695882
 21
293.7519480053
  0
LINE
  5
37A
100
AcDbEntity
  8
0
100
AcDbLine
 62
7
  6
CONTINUOUS
 10
330.8076508263
 20
295.3590395156
 11
331.2464941906
 21
295.4716793042
  0
LINE
  5
37B
100
AcDbEntity
  8
0
100
AcDbLine
 62
7
  6
CONTINUOUS
 10
294.8112165958
 20
293.0074999301
 11
292.732519754
 21
293.0306189139
  0
LINE
  5
37C
100
AcDbEntity
  8
0
100
AcDbLine
 62
7
  6
CONTINUOUS
 10
292.7301566606
 20
292.5339220286
 11
294.6222280541
 21
292.4969580146
  0
LINE
  5
37D
100
AcDbEntity
  8
0
100
AcDbLine
 62
7
  6
CONTINUOUS
 10
291.4825012228
 20
293.5762698189
 11
291.7489401724
 21
293.5605699728
  0
LINE
  5
37E
100
AcDbEntity
  8
0
100
AcDbLine
 62
7
  6
CONTINUOUS
 10
291.9109303068
 20
293.9981772098
 11
291.6444913573
 21
294.0138770559
  0
LINE
  5
37F
100
AcDbEntity
  8
0
100
AcDbLine
 62
7
  6
CONTINUOUS
 10
294.3176242745
 20
294.1128741389
 11
294.6899960133
 21
294.0751607457
  0
LINE
  5
380
100
AcDbEntity
  8
0
100
AcDbLine
 62
7
  6
CONTINUOUS
 10
294.4798739972
 20
294.5585857183
 11
294.1467859968
 21
294.6634199268
  0
LINE
  5
381
100
AcDbEntity
  8
0
100
AcDbLine
 62
7
  6
CONTINUOUS
 10
293.9110848867
 20
294.2606965827
 11
294.3176242745
 21
294.1128741389
  0
LINE
  5
382
100
AcDbEntity
  8
0
100
AcDbLine
 62
7
  6
CONTINUOUS
 10
291.7489401724
 20
293.5605699728
 11
291.9883810155
 21
293.471935574
  0
LINE
  5
383
100
AcDbEntity
  8
0
100
AcDbLine
 62
7
  6
CONTINUOUS
 10
292.2301846898
 20
293.8799980389
 11
291.9109303068
 21
293.9981772098
  0
LINE
  5
384
100
AcDbEntity
  8
0
100
AcDbLine
 62
7
  6
CONTINUOUS
 10
296.2619448368
 20
300.396745257
 11
296.5710660717
 21
300.2343202299
  0
LINE
  5
385
100
AcDbEntity
  8
0
100
AcDbLine
 62
7
  6
CONTINUOUS
 10
296.8746594525
 20
300.5886815662
 11
296.5009074038
 21
300.8064780045
  0
LINE
  5
386
100
AcDbEntity
  8
0
100
AcDbLine
 62
7
  6
CONTINUOUS
 10
292.8126036364
 20
297.606959918
 11
295.0895899875
 21
296.2743125349
  0
LINE
  5
387
100
AcDbEntity
  8
0
100
AcDbLine
 62
7
  6
CONTINUOUS
 10
295.3252909851
 20
296.6770356869
 11
293.048304634
 21
298.00968307
  0
LINE
  5
388
100
AcDbEntity
  8
FASEN
100
AcDbLine
 62
7
  6
CONTINUOUS
 10
345.7999340528
 20
261.4787213928
 11
346.9735822305
 21
260.4939136398
  0
LINE
  5
389
100
AcDbEntity
  8
0
100
AcDbLine
 62
7
  6
CONTINUOUS
 10
296.5710660717
 20
300.2343202299
 11
297.540525654
 21
299.4037513107
  0
LINE
  5
38A
100
AcDbEntity
  8
0
100
AcDbLine
 62
7
  6
CONTINUOUS
 10
297.8441190347
 20
299.758112647
 11
296.8746594525
 21
300.5886815662
  0
LINE
  5
38B
100
AcDbEntity
  8
0
100
AcDbLine
 62
7
  6
CONTINUOUS
 10
303.4178110551
 20
302.7845718715
 11
300.8172468027
 21
305.353265624
  0
LINE
  5
38C
100
AcDbEntity
  8
0
100
AcDbLine
 62
7
  6
CONTINUOUS
 10
300.4053297532
 20
305.134027758
 11
303.3831165885
 21
302.1876457808
  0
LINE
  5
38D
100
AcDbEntity
  8
0
100
AcDbLine
 62
7
  6
CONTINUOUS
 10
329.2503905892
 20
297.0256242695
 11
329.2600181251
 21
296.5605381982
  0
LINE
  5
38E
100
AcDbEntity
  8
0
100
AcDbLine
 62
7
  6
CONTINUOUS
 10
326.1161608895
 20
300.6217692332
 11
326.112412053
 21
300.8523143265
  0
LINE
  5
38F
100
AcDbEntity
  8
0
100
AcDbLine
 62
7
  6
CONTINUOUS
 10
329.4914225426
 20
301.3859918622
 11
329.4839221239
 21
301.847084318
  0
LINE
  5
390
100
AcDbEntity
  8
KONSTRUKTIONSELEMENTE
100
AcDbLine
 62
7
  6
CONTINUOUS
 10
322.481515178
 20
227.4799980456
 11
322.481515178
 21
228.4374447399
  0
LINE
  5
391
100
AcDbEntity
  8
0
100
AcDbLine
 62
7
  6
CONTINUOUS
 10
325.0544319242
 20
208.4787213927
 11
325.0544319242
 21
171.4787213927
  0
LINE
  5
392
100
AcDbEntity
  8
RUNDUNGEN
100
AcDbLine
 62
7
  6
CONTINUOUS
 10
325.0544319242
 20
238.4728213927
 11
325.0544319242
 21
246.6787213927
  0
LINE
  5
393
100
AcDbEntity
  8
RUNDUNGEN
100
AcDbLine
 62
7
  6
CONTINUOUS
 10
325.5544319242
 20
214.6787213927
 11
325.5544319242
 21
231.4728213927
  0
LINE
  5
394
100
AcDbEntity
  8
0
100
AcDbLine
 62
7
  6
CONTINUOUS
 10
329.6548387739
 20
296.7372929457
 11
329.6630946408
 21
297.0259786637
  0
LINE
  5
395
100
AcDbEntity
  8
KONSTRUKTIONSELEMENTE
100
AcDbLine
 62
7
  6
CONTINUOUS
 10
319.2523489087
 20
228.3310617739
 11
319.356515178
 21
228.9693595701
  0
LINE
  5
396
100
AcDbEntity
  8
0
100
AcDbLine
 62
7
  6
CONTINUOUS
 10
331.2668349442
 20
293.7377212996
 11
331.2161664101
 21
293.453396999
  0
LINE
  5
397
100
AcDbEntity
  8
0
100
AcDbLine
 62
7
  6
CONTINUOUS
 10
331.5820392538
 20
293.2857726235
 11
331.6327077744
 21
293.5700969175
  0
LINE
  5
398
100
AcDbEntity
  8
0
100
AcDbLine
 62
7
  6
CONTINUOUS
 10
325.7647461522
 20
301.0461735687
 11
325.7121163054
 21
300.7518748196
  0
LINE
  5
399
100
AcDbEntity
  8
0
100
AcDbLine
 62
7
  6
CONTINUOUS
 10
328.3656690301
 20
299.9956923203
 11
328.4183015438
 21
300.2899887108
  0
LINE
  5
39A
100
AcDbEntity
  8
0
100
AcDbLine
 62
7
  6
CONTINUOUS
 10
329.0855008537
 20
301.6313723314
 11
329.0328710068
 21
301.3370735823
  0
LINE
  5
39B
100
AcDbEntity
  8
KONSTRUKTIONSELEMENTE
100
AcDbLine
 62
7
  6
CONTINUOUS
 10
318.8356826394
 20
228.9693595701
 11
318.731515178
 21
228.4374447399
  0
LINE
  5
39C
100
AcDbEntity
  8
KONSTRUKTIONSELEMENTE
100
AcDbLine
 62
7
  6
CONTINUOUS
 10
311.4794324606
 20
221.0561683255
 11
311.3481822103
 21
220.4604237157
  0
LINE
  5
39D
100
AcDbEntity
  8
KONSTRUKTIONSELEMENTE
100
AcDbLine
 62
7
  6
CONTINUOUS
 10
315.8106824606
 20
219.5668063837
 11
315.9419319599
 21
220.1625509935
  0
LINE
  5
39E
100
AcDbEntity
  8
0
100
AcDbLine
 62
7
  6
CONTINUOUS
 10
328.0161287309
 20
300.3048241314
 11
327.9071174154
 21
299.9467739511
  0
LINE
  5
39F
100
AcDbEntity
  8
KONSTRUKTIONSELEMENTE
100
AcDbLine
 62
7
  6
CONTINUOUS
 10
308.9856822103
 20
222.0987213927
 11
307.0169322103
 21
215.8434022593
  0
LINE
  5
3A0
100
AcDbEntity
  8
KONSTRUKTIONSELEMENTE
100
AcDbLine
 62
7
  6
CONTINUOUS
 10
307.5419320851
 20
215.0987213927
 11
309.3794322103
 21
220.6093598682
  0
LINE
  5
3A1
100
AcDbEntity
  8
0
100
AcDbLine
 62
7
  6
CONTINUOUS
 10
329.3989664453
 20
297.4106567029
 11
329.2503905892
 21
297.0256242695
  0
LINE
  5
3A2
100
AcDbEntity
  8
0
100
AcDbLine
 62
7
  6
CONTINUOUS
 10
331.7898907263
 20
296.0334665062
 11
331.9384665578
 21
296.4184989228
  0
LINE
  5
3A3
100
AcDbEntity
  8
0
100
AcDbLine
 62
7
  6
CONTINUOUS
 10
331.5257625308
 20
296.4181445454
 11
331.4033259873
 21
296.1453975064
  0
LINE
  5
3A4
100
AcDbEntity
  8
0
100
AcDbLine
 62
7
  6
CONTINUOUS
 10
327.6269884169
 20
297.6200341342
 11
328.6374118224
 21
297.8905893421
  0
LINE
  5
3A5
100
AcDbEntity
  8
0
100
AcDbLine
 62
7
  6
CONTINUOUS
 10
328.3798299822
 20
298.1818992717
 11
327.3694065767
 21
297.9113440638
  0
LINE
  5
3A6
100
AcDbEntity
  8
0
100
AcDbLine
 62
7
  6
CONTINUOUS
 10
291.6444913573
 20
294.0138770559
 11
291.2442421307
 21
293.9132525255
  0
LINE
  5
3A7
100
AcDbEntity
  8
0
100
AcDbLine
 62
7
  6
CONTINUOUS
 10
294.6899960133
 20
294.0751607457
 11
295.1409345383
 21
294.1716880983
  0
LINE
  5
3A8
100
AcDbEntity
  8
0
100
AcDbLine
 62
7
  6
CONTINUOUS
 10
327.51057325
 20
299.6157870818
 11
327.2812961093
 21
299.5913290764
  0
LINE
  5
3A9
100
AcDbEntity
  8
0
100
AcDbLine
 62
7
  6
CONTINUOUS
 10
328.5780681891
 20
301.0576100753
 11
328.3487910879
 21
301.0331521146
  0
LINE
  5
3AA
100
AcDbEntity
  8
0
100
AcDbLine
 62
7
  6
CONTINUOUS
 10
330.8420460305
 20
295.7600106449
 11
330.5435226308
 21
295.7437175548
  0
LINE
  5
3AB
100
AcDbEntity
  8
0
100
AcDbLine
 62
7
  6
CONTINUOUS
 10
294.7787946342
 20
294.5638611668
 11
294.4798739972
 21
294.5585857183
  0
LINE
  5
3AC
100
AcDbEntity
  8
0
100
AcDbLine
 62
7
  6
CONTINUOUS
 10
330.3949467747
 20
295.3586851214
 11
330.8076508263
 21
295.3590395156
  0
LINE
  5
3AD
100
AcDbEntity
  8
0
100
AcDbLine
 62
7
  6
CONTINUOUS
 10
328.2397798514
 20
300.6751020236
 11
328.6419499975
 21
300.6602689615
  0
LINE
  5
3AE
100
AcDbEntity
  8
0
100
AcDbLine
 62
7
  6
CONTINUOUS
 10
327.172284853
 20
299.2332789631
 11
327.4598178016
 21
299.2062157637
  0
LINE
  5
3AF
100
AcDbEntity
  8
0
100
AcDbLine
 62
7
  6
CONTINUOUS
 10
295.9668547708
 20
300.4447385097
 11
296.2619448368
 21
300.396745257
  0
LINE
  5
3B0
100
AcDbEntity
  8
0
100
AcDbLine
 62
7
  6
CONTINUOUS
 10
296.5009074038
 20
300.8064780045
 11
296.141186886
 21
300.9098423582
  0
LINE
  5
3B1
100
AcDbEntity
  8
0
100
AcDbLine
 62
7
  6
CONTINUOUS
 10
330.5435226308
 20
295.7437175548
 11
330.2711385684
 21
295.8397098759
  0
LINE
  5
3B2
100
AcDbEntity
  8
0
100
AcDbLine
 62
7
  6
CONTINUOUS
 10
329.964359308
 20
295.534731072
 11
330.3949467747
 21
295.3586851214
  0
LINE
  5
3B3
100
AcDbEntity
  8
0
100
AcDbLine
 62
7
  6
CONTINUOUS
 10
325.7121163054
 20
300.7518748196
 11
325.774123656
 21
300.4698062078
  0
LINE
  5
3B4
100
AcDbEntity
  8
0
100
AcDbLine
 62
7
  6
CONTINUOUS
 10
331.2161664101
 20
293.453396999
 11
331.2419857683
 21
293.2063915718
  0
LINE
  5
3B5
100
AcDbEntity
  8
0
100
AcDbLine
 62
7
  6
CONTINUOUS
 10
331.9384665578
 20
296.4184989228
 11
331.9288390035
 21
296.8835849815
  0
LINE
  5
3B6
100
AcDbEntity
  8
0
100
AcDbLine
 62
7
  6
CONTINUOUS
 10
330.4390206836
 20
231.2252805988
 11
330.4390206836
 21
208.4787213927
  0
LINE
  5
3B7
100
AcDbEntity
  8
0
100
AcDbLine
 62
7
  6
CONTINUOUS
 10
334.6282970749
 20
231.2252805988
 11
334.6282970749
 21
208.4787213927
  0
LINE
  5
3B8
100
AcDbEntity
  8
0
100
AcDbLine
 62
7
  6
CONTINUOUS
 10
331.5340183977
 20
296.7068302635
 11
331.5257625308
 21
296.4181445454
  0
LINE
  5
3B9
100
AcDbEntity
  8
KONSTRUKTIONSELEMENTE
100
AcDbLine
 62
7
  6
CONTINUOUS
 10
321.9606826394
 20
227.5863810116
 11
321.856515178
 21
226.9480830663
  0
LINE
  5
3BA
100
AcDbEntity
  8
KONSTRUKTIONSELEMENTE
100
AcDbLine
 62
7
  6
CONTINUOUS
 10
322.3773489087
 20
226.9480830663
 11
322.481515178
 21
227.4799980456
  0
LINE
  5
3BB
100
AcDbEntity
  8
KONSTRUKTIONSELEMENTE
100
AcDbLine
 62
7
  6
CONTINUOUS
 10
318.9398489087
 20
229.2885087663
 11
318.8356826394
 21
228.9693595701
  0
LINE
  5
3BC
100
AcDbEntity
  8
KONSTRUKTIONSELEMENTE
100
AcDbLine
 62
7
  6
CONTINUOUS
 10
307.2731823414
 20
226.2034022295
 11
307.481515476
 21
226.6289341682
  0
LINE
  5
3BD
100
AcDbEntity
  8
0
100
AcDbLine
 62
7
  6
CONTINUOUS
 10
295.6857968149
 20
300.3783003538
 11
295.9668547708
 21
300.4447385097
  0
LINE
  5
3BE
100
AcDbEntity
  8
0
100
AcDbLine
 62
7
  6
CONTINUOUS
 10
328.0857609268
 20
303.0836115627
 11
327.6272067243
 21
303.0346956413
  0
LINE
  5
3BF
100
AcDbEntity
  8
0
100
AcDbLine
 62
7
  6
CONTINUOUS
 10
296.141186886
 20
300.9098423582
 11
295.6802689608
 21
300.8950867171
  0
LINE
  5
3C0
100
AcDbEntity
  8
0
100
AcDbLine
 62
7
  6
CONTINUOUS
 10
327.9203656339
 20
302.6618124882
 11
328.2078985628
 21
302.6347492665
  0
LINE
  5
3C1
100
AcDbEntity
  8
0
100
AcDbLine
 62
7
  6
CONTINUOUS
 10
326.8264934149
 20
299.3118657089
 11
327.172284853
 21
299.2332789631
  0
LINE
  5
3C2
100
AcDbEntity
  8
0
100
AcDbLine
 62
7
  6
CONTINUOUS
 10
327.2812961093
 20
299.5913290764
 11
327.1084003976
 21
299.6306224577
  0
LINE
  5
3C3
100
AcDbEntity
  8
0
100
AcDbLine
 62
7
  6
CONTINUOUS
 10
328.4315496833
 20
303.0050271586
 11
328.0857609268
 21
303.0836115627
  0
LINE
  5
3C4
100
AcDbEntity
  8
0
100
AcDbLine
 62
7
  6
CONTINUOUS
 10
330.5311538642
 20
297.7163443333
 11
330.9177186031
 21
297.6044133332
  0
LINE
  5
3C5
100
AcDbEntity
  8
0
100
AcDbLine
 62
7
  6
CONTINUOUS
 10
322.9340823788
 20
306.6061436843
 11
322.497138119
 21
306.7699136794
  0
LINE
  5
3C6
100
AcDbEntity
  8
0
100
AcDbLine
 62
7
  6
CONTINUOUS
 10
328.3487910879
 20
301.0331521146
 11
327.8864880093
 21
301.2147812419
  0
LINE
  5
3C7
100
AcDbEntity
  8
0
100
AcDbLine
 62
7
  6
CONTINUOUS
 10
331.2244978205
 20
297.9093921077
 11
330.7939103723
 21
298.0854380709
  0
LINE
  5
3C8
100
AcDbEntity
  8
0
100
AcDbLine
 62
7
  6
CONTINUOUS
 10
326.5370860431
 20
299.4542014493
 11
326.8264934149
 21
299.3118657089
  0
LINE
  5
3C9
100
AcDbEntity
  8
0
100
AcDbLine
 62
7
  6
CONTINUOUS
 10
327.1084003976
 20
299.6306224577
 11
326.7607372031
 21
299.8244793861
  0
LINE
  5
3CA
100
AcDbEntity
  8
0
100
AcDbLine
 62
7
  6
CONTINUOUS
 10
328.2078985628
 20
302.6347492665
 11
328.5555644241
 21
302.4408899796
  0
LINE
  5
3CB
100
AcDbEntity
  8
0
100
AcDbLine
 62
7
  6
CONTINUOUS
 10
328.8957271998
 20
302.708125507
 11
328.4315496833
 21
303.0050271586
  0
LINE
  5
3CC
100
AcDbEntity
  8
0
100
AcDbLine
 62
7
  6
CONTINUOUS
 10
330.2711385684
 20
295.8397098759
 11
330.0248937942
 21
296.0479875745
  0
LINE
  5
3CD
100
AcDbEntity
  8
0
100
AcDbLine
 62
7
  6
CONTINUOUS
 10
330.9177186031
 20
297.6044133332
 11
331.1639653925
 21
297.3961326998
  0
LINE
  5
3CE
100
AcDbEntity
  8
0
100
AcDbLine
 62
7
  6
CONTINUOUS
 10
326.0710314219
 20
299.8663779837
 11
326.5370860431
 21
299.4542014493
  0
LINE
  5
3CF
100
AcDbEntity
  8
0
100
AcDbLine
 62
7
  6
CONTINUOUS
 10
326.7607372031
 20
299.8244793861
 11
326.4111969039
 21
300.1336111973
  0
LINE
  5
3D0
100
AcDbEntity
  8
0
100
AcDbLine
 62
7
  6
CONTINUOUS
 10
326.1669163378
 20
301.0313405512
 11
325.875634533
 21
301.2889488216
  0
LINE
  5
3D1
100
AcDbEntity
  8
0
100
AcDbLine
 62
7
  6
CONTINUOUS
 10
327.4279364736
 20
301.165862962
 11
327.6609624508
 21
300.9597758741
  0
LINE
  5
3D2
100
AcDbEntity
  8
0
100
AcDbLine
 62
7
  6
CONTINUOUS
 10
327.8864880093
 20
301.2147812419
 11
327.6534620321
 21
301.4208683298
  0
LINE
  5
3D3
100
AcDbEntity
  8
0
100
AcDbLine
 62
7
  6
CONTINUOUS
 10
327.3434253382
 20
302.8312114559
 11
327.6347098098
 21
302.5736008271
  0
LINE
  5
3D4
100
AcDbEntity
  8
0
100
AcDbLine
 62
7
  6
CONTINUOUS
 10
328.5555644241
 20
302.4408899796
 11
328.7885904013
 21
302.2348028917
  0
LINE
  5
3D5
100
AcDbEntity
  8
0
100
AcDbLine
 62
7
  6
CONTINUOUS
 10
329.0122415218
 20
302.6050807838
 11
328.8957271998
 21
302.708125507
  0
LINE
  5
3D6
100
AcDbEntity
  8
0
100
AcDbLine
 62
7
  6
CONTINUOUS
 10
329.6740938334
 20
295.8071207946
 11
329.964359308
 21
295.534731072
  0
LINE
  5
3D7
100
AcDbEntity
  8
0
100
AcDbLine
 62
7
  6
CONTINUOUS
 10
331.5147653041
 20
297.636999446
 11
331.2244978205
 21
297.9093921077
  0
LINE
  5
3D8
100
AcDbEntity
  8
0
100
AcDbLine
 62
7
  6
CONTINUOUS
 10
327.3694065767
 20
297.9113440638
 11
327.6269884169
 21
297.6200341342
  0
LINE
  5
3D9
100
AcDbEntity
  8
0
100
AcDbLine
 62
7
  6
CONTINUOUS
 10
328.6374118224
 20
297.8905893421
 11
328.3798299822
 21
298.1818992717
  0
LINE
  5
3DA
100
AcDbEntity
  8
0
100
AcDbLine
 62
7
  6
CONTINUOUS
 10
329.3636562591
 20
302.1806764483
 11
329.0122415218
 21
302.6050807838
  0
LINE
  5
3DB
100
AcDbEntity
  8
0
100
AcDbLine
 62
7
  6
CONTINUOUS
 10
327.6609624508
 20
300.9597758741
 11
327.9541213605
 21
300.5868927209
  0
LINE
  5
3DC
100
AcDbEntity
  8
0
100
AcDbLine
 62
7
  6
CONTINUOUS
 10
326.4111969039
 20
300.1336111973
 11
326.1762938219
 21
300.454973168
  0
LINE
  5
3DD
100
AcDbEntity
  8
0
100
AcDbLine
 62
7
  6
CONTINUOUS
 10
328.7885904013
 20
302.2348028917
 11
329.0234934833
 21
301.9134409209
  0
LINE
  5
3DE
100
AcDbEntity
  8
0
100
AcDbLine
 62
7
  6
CONTINUOUS
 10
329.4099656379
 20
296.1917988338
 11
329.6740938334
 21
295.8071207946
  0
LINE
  5
3DF
100
AcDbEntity
  8
0
100
AcDbLine
 62
7
  6
CONTINUOUS
 10
330.0248937942
 20
296.0479875745
 11
329.7607655987
 21
296.4326656137
  0
LINE
  5
3E0
100
AcDbEntity
  8
0
100
AcDbLine
 62
7
  6
CONTINUOUS
 10
329.8556932308
 20
297.3468961509
 11
329.5915650353
 21
297.7315741901
  0
LINE
  5
3E1
100
AcDbEntity
  8
0
100
AcDbLine
 62
7
  6
CONTINUOUS
 10
330.2230049745
 20
298.1651344008
 11
330.5311538642
 21
297.7163443333
  0
LINE
  5
3E2
100
AcDbEntity
  8
0
100
AcDbLine
 62
7
  6
CONTINUOUS
 10
331.1639653925
 20
297.3961326998
 11
331.428093588
 21
297.0114546606
  0
LINE
  5
3E3
100
AcDbEntity
  8
0
100
AcDbLine
 62
7
  6
CONTINUOUS
 10
331.7788934996
 20
297.2523214068
 11
331.5147653041
 21
297.636999446
  0
LINE
  5
3E4
100
AcDbEntity
  8
0
100
AcDbLine
 62
7
  6
CONTINUOUS
 10
331.916470286
 20
298.8562117937
 11
333.1930905693
 21
296.996933626
  0
LINE
  5
3E5
100
AcDbEntity
  8
0
100
AcDbLine
 62
7
  6
CONTINUOUS
 10
333.5438904809
 20
297.2378003723
 11
332.0471647114
 21
299.417641616
  0
LINE
  5
3E6
100
AcDbEntity
  8
0
100
AcDbLine
 62
7
  6
CONTINUOUS
 10
325.8943868392
 20
300.1362164192
 11
326.0710314219
 21
299.8663779837
  0
LINE
  5
3E7
100
AcDbEntity
  8
0
100
AcDbLine
 62
7
  6
CONTINUOUS
 10
332.7615191758
 20
295.3323315853
 11
333.0343390306
 21
294.773166375
  0
LINE
  5
3E8
100
AcDbEntity
  8
0
100
AcDbLine
 62
7
  6
CONTINUOUS
 10
333.204851635
 20
294.4236877187
 11
333.5799771791
 21
293.6548391541
  0
LINE
  5
3E9
100
AcDbEntity
  8
0
100
AcDbLine
 62
7
  6
CONTINUOUS
 10
333.8859287212
 20
293.8041146344
 11
333.5108031771
 21
294.5729631989
  0
LINE
  5
3EA
100
AcDbEntity
  8
0
100
AcDbLine
 62
7
  6
CONTINUOUS
 10
333.3402905727
 20
294.9224418553
 11
333.0674707179
 21
295.4816070655
  0
LINE
  5
3EB
100
AcDbEntity
  8
0
100
AcDbLine
 62
7
  6
CONTINUOUS
 10
334.1227064757
 20
294.871514264
 11
333.9521938713
 21
295.2209929204
  0
LINE
  5
3EC
100
AcDbEntity
  8
0
100
AcDbLine
 62
7
  6
CONTINUOUS
 10
328.4183015438
 20
300.2899887108
 11
328.2397798514
 21
300.6751020236
  0
LINE
  5
3ED
100
AcDbEntity
  8
0
100
AcDbLine
 62
7
  6
CONTINUOUS
 10
329.2600181251
 20
296.5605381982
 11
329.4099656379
 21
296.1917988338
  0
LINE
  5
3EE
100
AcDbEntity
  8
0
100
AcDbLine
 62
7
  6
CONTINUOUS
 10
331.9288390035
 20
296.8835849815
 11
331.7788934996
 21
297.2523214068
  0
LINE
  5
3EF
100
AcDbEntity
  8
0
100
AcDbLine
 62
7
  6
CONTINUOUS
 10
325.774123656
 20
300.4698062078
 11
325.8943868392
 21
300.1362164192
  0
LINE
  5
3F0
100
AcDbEntity
  8
0
100
AcDbLine
 62
7
  6
CONTINUOUS
 10
326.1762938219
 20
300.454973168
 11
326.1161608895
 21
300.6217692332
  0
LINE
  5
3F1
100
AcDbEntity
  8
0
100
AcDbLine
 62
7
  6
CONTINUOUS
 10
329.4839221239
 20
301.847084318
 11
329.3636562591
 21
302.1806764483
  0
LINE
  5
3F2
100
AcDbEntity
  8
0
100
AcDbLine
 62
7
  6
CONTINUOUS
 10
329.7607655987
 20
296.4326656137
 11
329.6548387739
 21
296.7372929457
  0
LINE
  5
3F3
100
AcDbEntity
  8
0
100
AcDbLine
 62
7
  6
CONTINUOUS
 10
331.428093588
 20
297.0114546606
 11
331.5340183977
 21
296.7068302635
  0
LINE
  5
3F4
100
AcDbEntity
  8
0
100
AcDbLine
 62
7
  6
CONTINUOUS
 10
331.2419857683
 20
293.2063915718
 11
331.3701123769
 21
292.7496995906
  0
LINE
  5
3F5
100
AcDbEntity
  8
0
100
AcDbLine
 62
7
  6
CONTINUOUS
 10
331.6760639458
 20
292.898975084
 11
331.5820392538
 21
293.2857726235
  0
LINE
  5
3F6
100
AcDbEntity
  8
0
100
AcDbLine
 62
7
  6
CONTINUOUS
 10
327.9541213605
 20
300.5868927209
 11
328.0161287309
 21
300.3048241314
  0
LINE
  5
3F7
100
AcDbEntity
  8
0
100
AcDbLine
 62
7
  6
CONTINUOUS
 10
329.0234934833
 20
301.9134409209
 11
329.0855008537
 21
301.6313723314
  0
LINE
  5
3F8
100
AcDbEntity
  8
BEZUGSACHSEN
100
AcDbLine
 62
7
  6
CONTINUOUS
 10
344.0544319242
 20
263.4787213927
 11
344.0544319242
 21
266.3969265366
  0
LINE
  5
3F9
100
AcDbEntity
  8
0
100
AcDbLine
 62
7
  6
CONTINUOUS
 10
345.0544319242
 20
263.4787213927
 11
345.0544319242
 21
261.4787213927
  0
LINE
  5
3FA
100
AcDbEntity
  8
KONSTRUKTIONSELEMENTE
100
AcDbLine
 62
7
  6
CONTINUOUS
 10
322.2731826394
 20
226.6289341682
 11
322.3773489087
 21
226.9480830663
  0
LINE
  5
3FB
100
AcDbEntity
  8
BEZUGSACHSEN
100
AcDbLine
 62
7
  6
CONTINUOUS
 10
343.6377664406
 20
283.9142232875
 11
339.7421839155
 21
274.5094551222
  0
LINE
  5
3FC
100
AcDbEntity
  8
KONSTRUKTIONSELEMENTE
100
AcDbLine
 62
7
  6
CONTINUOUS
 10
315.1544319599
 20
220.1625509935
 11
314.8919322103
 21
219.5668063837
  0
LINE
  5
3FD
100
AcDbEntity
  8
KONSTRUKTIONSELEMENTE
100
AcDbLine
 62
7
  6
CONTINUOUS
 10
317.2731826394
 20
229.9268065625
 11
315.1898489087
 21
225.4587213927
  0
LINE
  5
3FE
100
AcDbEntity
  8
KONSTRUKTIONSELEMENTE
100
AcDbLine
 62
7
  6
CONTINUOUS
 10
315.8148489087
 20
225.4587213927
 11
317.8981826394
 21
229.9268065625
  0
LINE
  5
3FF
100
AcDbEntity
  8
KONSTRUKTIONSELEMENTE
100
AcDbLine
 62
7
  6
CONTINUOUS
 10
319.1481826394
 20
229.7140406304
 11
318.9398489087
 21
229.2885087663
  0
LINE
  5
400
100
AcDbEntity
  8
KONSTRUKTIONSELEMENTE
100
AcDbLine
 62
7
  6
CONTINUOUS
 10
322.0648489087
 20
226.2034022295
 11
322.2731826394
 21
226.6289341682
  0
LINE
  5
401
100
AcDbEntity
  8
KONSTRUKTIONSELEMENTE
100
AcDbLine
 62
7
  6
CONTINUOUS
 10
312.0044319599
 20
220.4604237157
 11
312.2669324606
 21
220.9072321731
  0
LINE
  5
402
100
AcDbEntity
  8
KONSTRUKTIONSELEMENTE
100
AcDbLine
 62
7
  6
CONTINUOUS
 10
306.856515476
 20
226.7353171342
 11
306.6481823414
 21
226.4161682361
  0
LINE
  5
403
100
AcDbEntity
  8
KONSTRUKTIONSELEMENTE
100
AcDbLine
 62
7
  6
CONTINUOUS
 10
304.4606822669
 20
230.1395724946
 11
304.0440155878
 21
229.7140406304
  0
LINE
  5
404
100
AcDbEntity
  8
RUNDUNGEN
100
AcDbLine
 62
7
  6
CONTINUOUS
 10
322.0544319242
 20
311.8507993314
 11
334.1385403072
 21
306.84539775
  0
LINE
  5
405
100
AcDbEntity
  8
RUNDUNGEN
100
AcDbLine
 62
7
  6
CONTINUOUS
 10
343.6003216691
 20
285.533619173
 11
343.637409464
 21
285.4440813157
  0
LINE
  5
406
100
AcDbEntity
  8
BEZUGSACHSEN
100
AcDbLine
 62
7
  6
CONTINUOUS
 10
335.2210567984
 20
305.7629540667
 11
343.637409464
 21
285.4440813157
  0
LINE
  5
407
100
AcDbEntity
  8
BEZUGSACHSEN
100
AcDbLine
 62
7
  6
CONTINUOUS
 10
346.9735822306
 20
260.4939136397
 11
352.0543857703
 21
231.679244896
  0
LINE
  5
408
100
AcDbEntity
  8
FASEN
100
AcDbLine
 62
7
  6
CONTINUOUS
 10
352.0543857703
 20
231.679244896
 11
346.9735822306
 21
260.4939136397
  0
LINE
  5
409
100
AcDbEntity
  8
BEZUGSACHSEN
100
AcDbLine
 62
7
  6
CONTINUOUS
 10
352.0543857703
 20
231.679244896
 11
352.0543857703
 21
231.2252805988
  0
LINE
  5
40A
100
AcDbEntity
  8
0
100
AcDbLine
 62
7
  6
CONTINUOUS
 10
352.0543857703
 20
231.2252805988
 11
352.0543857703
 21
208.4787213927
  0
LINE
  5
40B
100
AcDbEntity
  8
KONSTRUKTIONSELEMENTE
100
AcDbLine
 62
7
  6
CONTINUOUS
 10
315.5481819599
 20
219.1199979263
 11
315.8106824606
 21
219.5668063837
  0
LINE
  5
40C
100
AcDbEntity
  8
KONSTRUKTIONSELEMENTE
100
AcDbLine
 62
7
  6
CONTINUOUS
 10
319.356515178
 20
228.9693595701
 11
319.7731826394
 21
229.6076576644
  0
LINE
  5
40D
100
AcDbEntity
  8
KONSTRUKTIONSELEMENTE
100
AcDbLine
 62
7
  6
CONTINUOUS
 10
321.856515178
 20
226.9480830663
 11
321.4398489087
 21
226.3097851956
  0
LINE
  5
40E
100
AcDbEntity
  8
KONSTRUKTIONSELEMENTE
100
AcDbLine
 62
7
  6
CONTINUOUS
 10
312.0044319599
 20
221.6519129354
 11
311.4794324606
 21
221.0561683255
  0
LINE
  5
40F
100
AcDbEntity
  8
KONSTRUKTIONSELEMENTE
100
AcDbLine
 62
7
  6
CONTINUOUS
 10
306.856515476
 20
225.7778703281
 11
307.2731823414
 21
226.2034022295
  0
LINE
  5
410
100
AcDbEntity
  8
KONSTRUKTIONSELEMENTE
100
AcDbLine
 62
7
  6
CONTINUOUS
 10
304.6690155505
 20
229.5012746984
 11
304.9815156251
 21
229.7140406304
  0
LINE
  5
411
100
AcDbEntity
  8
KONSTRUKTIONSELEMENTE
100
AcDbLine
 62
7
  6
CONTINUOUS
 10
320.1419317096
 20
222.0987213927
 11
316.9919317096
 21
218.0774448591
  0
LINE
  5
412
100
AcDbEntity
  8
KONSTRUKTIONSELEMENTE
100
AcDbLine
 62
7
  6
CONTINUOUS
 10
317.9106827109
 20
218.0774448591
 11
320.1419317096
 21
220.9072321731
  0
LINE
  5
413
100
AcDbEntity
  8
KONSTRUKTIONSELEMENTE
100
AcDbLine
 62
7
  6
CONTINUOUS
 10
319.4606826394
 20
230.0331895286
 11
319.1481826394
 21
229.7140406304
  0
LINE
  5
414
100
AcDbEntity
  8
KONSTRUKTIONSELEMENTE
100
AcDbLine
 62
7
  6
CONTINUOUS
 10
321.7523489087
 20
225.8842532942
 11
322.0648489087
 21
226.2034022295
  0
LINE
  5
415
100
AcDbEntity
  8
KONSTRUKTIONSELEMENTE
100
AcDbLine
 62
7
  6
CONTINUOUS
 10
314.8919322103
 20
219.5668063837
 11
311.2169319599
 21
215.8434022593
  0
LINE
  5
416
100
AcDbEntity
  8
KONSTRUKTIONSELEMENTE
100
AcDbLine
 62
7
  6
CONTINUOUS
 10
312.2669324606
 20
215.8434022593
 11
315.5481819599
 21
219.1199979263
  0
LINE
  5
417
100
AcDbEntity
  8
KONSTRUKTIONSELEMENTE
100
AcDbLine
 62
7
  6
CONTINUOUS
 10
312.2669324606
 20
220.9072321731
 11
312.6606824606
 21
221.205104478
  0
LINE
  5
418
100
AcDbEntity
  8
KONSTRUKTIONSELEMENTE
100
AcDbLine
 62
7
  6
CONTINUOUS
 10
306.6481823414
 20
226.4161682361
 11
306.3356823414
 21
226.2034022295
  0
LINE
  5
419
100
AcDbEntity
  8
KONSTRUKTIONSELEMENTE
100
AcDbLine
 62
7
  6
CONTINUOUS
 10
319.7731826394
 20
229.6076576644
 11
320.0856826394
 21
229.8204235965
  0
LINE
  5
41A
100
AcDbEntity
  8
KONSTRUKTIONSELEMENTE
100
AcDbLine
 62
7
  6
CONTINUOUS
 10
319.981515178
 20
230.3523384267
 11
319.4606826394
 21
230.0331895286
  0
LINE
  5
41B
100
AcDbEntity
  8
KONSTRUKTIONSELEMENTE
100
AcDbLine
 62
7
  6
CONTINUOUS
 10
304.8773489087
 20
230.3523384267
 11
304.4606822669
 21
230.1395724946
  0
LINE
  5
41C
100
AcDbEntity
  8
KONSTRUKTIONSELEMENTE
100
AcDbLine
 62
7
  6
CONTINUOUS
 10
306.4398489087
 20
225.5651043681
 11
306.856515476
 21
225.7778703281
  0
LINE
  5
41D
100
AcDbEntity
  8
KONSTRUKTIONSELEMENTE
100
AcDbLine
 62
7
  6
CONTINUOUS
 10
304.9815156251
 20
229.7140406304
 11
305.2940156251
 21
229.8204235965
  0
LINE
  5
41E
100
AcDbEntity
  8
KONSTRUKTIONSELEMENTE
100
AcDbLine
 62
7
  6
CONTINUOUS
 10
321.4398489087
 20
226.3097851956
 11
321.1273489087
 21
226.0970192635
  0
LINE
  5
41F
100
AcDbEntity
  8
KONSTRUKTIONSELEMENTE
100
AcDbLine
 62
7
  6
CONTINUOUS
 10
321.231515178
 20
225.5651043681
 11
321.7523489087
 21
225.8842532942
  0
LINE
  5
420
100
AcDbEntity
  8
KONSTRUKTIONSELEMENTE
100
AcDbLine
 62
7
  6
CONTINUOUS
 10
312.5294322103
 20
221.9497852403
 11
312.0044319599
 21
221.6519129354
  0
LINE
  5
421
100
AcDbEntity
  8
0
100
AcDbLine
 62
7
  6
CONTINUOUS
 10
325.0544319242
 20
171.4787213927
 11
322.0544319242
 21
168.4787213927
  0
LINE
  5
422
100
AcDbEntity
  8
RUNDUNGEN
100
AcDbLine
 62
7
  6
CONTINUOUS
 10
155.2552300757
 20
79.6177052178
 11
155.2552300757
 21
101.6177052178
  0
LINE
  5
423
100
AcDbEntity
  8
BEZUGSACHSEN
100
AcDbLine
 62
7
  6
CONTINUOUS
 10
158.7549090249
 20
108.0022939773
 11
161.1681375978
 21
112.1891633011
  0
LINE
  5
424
100
AcDbEntity
  8
BEZUGSACHSEN
100
AcDbLine
 62
7
  6
CONTINUOUS
 10
196.2552300757
 20
51.6177513717
 11
191.2552300757
 21
51.6177513717
  0
LINE
  5
425
100
AcDbEntity
  8
BEZUGSACHSEN
100
AcDbLine
 62
7
  6
CONTINUOUS
 10
161.1697311159
 20
69.0438400671
 11
158.7549090249
 21
73.2331164583
  0
LINE
  5
426
100
AcDbEntity
  8
RUNDUNGEN
100
AcDbLine
 62
7
  6
CONTINUOUS
 10
158.7549090249
 20
73.2331164583
 11
158.7549090249
 21
77.6177052178
  0
LINE
  5
427
100
AcDbEntity
  8
RUNDUNGEN
100
AcDbLine
 62
7
  6
CONTINUOUS
 10
158.7549090249
 20
103.6177052178
 11
158.7549090249
 21
108.0022939773
  0
LINE
  5
428
100
AcDbEntity
  8
BEZUGSACHSEN
100
AcDbLine
 62
7
  6
CONTINUOUS
 10
161.1681375978
 20
112.1891633011
 11
191.2566704915
 21
129.6177513717
  0
LINE
  5
429
100
AcDbEntity
  8
BEZUGSACHSEN
100
AcDbLine
 62
7
  6
CONTINUOUS
 10
191.2552300757
 20
51.6177513717
 11
161.1697311159
 21
69.0438400671
  0
LWPOLYLINE
  5
42A
100
AcDbEntity
  8
RUNDUNGEN
100
AcDbPolyline
 62
7
  6
CONTINUOUS
 90
7
 70
0
 10
198.3629869996
 20
59.9419957624
 10
198.4787684489
 20
59.9613715841
 10
199.0015919303
 20
60.097868248
 10
199.504381985
 20
60.3116125899
 10
199.9763130402
 20
60.5994361823
 10
200.407703615
 20
60.9568295072
 10
200.6494955102
 20
61.2093324896
  0
LINE
  5
42B
100
AcDbEntity
  8
RUNDUNGEN
100
AcDbLine
 62
7
  6
CONTINUOUS
 10
198.3629874146
 20
59.9419929606
 11
198.3627258384
 21
59.9419531263
  0
LWPOLYLINE
  5
42C
100
AcDbEntity
  8
RUNDUNGEN
100
AcDbPolyline
 62
7
  6
CONTINUOUS
 90
5
 70
0
 10
197.5399616881
 20
59.8828321561
 10
197.6772416381
 20
59.8845113232
 10
197.9532887719
 20
59.8973004811
 10
198.2339359234
 20
59.9242696738
 10
198.3627258384
 20
59.9419531263
  0
LINE
  5
42D
100
AcDbEntity
  8
BEZUGSACHSEN
100
AcDbLine
 62
7
  6
CONTINUOUS
 10
197.5399433658
 20
59.8824896184
 11
189.9705167857
 21
59.8824896184
  0
LWPOLYLINE
  5
42E
100
AcDbEntity
  8
BEZUGSACHSEN
100
AcDbPolyline
 62
7
  6
CONTINUOUS
 90
5
 70
0
 10
189.147734313
 20
59.9419531263
 10
189.276524228
 20
59.9242696738
 10
189.5571713796
 20
59.8973004811
 10
189.8332185134
 20
59.8845113232
 10
189.9704984633
 20
59.8828321561
  0
LINE
  5
42F
100
AcDbEntity
  8
BEZUGSACHSEN
100
AcDbLine
 62
7
  6
CONTINUOUS
 10
189.1474797627
 20
59.9419918867
 11
189.147734313
 21
59.9419531263
  0
LWPOLYLINE
  5
430
100
AcDbEntity
  8
BEZUGSACHSEN
100
AcDbPolyline
 62
7
  6
CONTINUOUS
 90
7
 70
0
 10
186.8611129738
 20
61.2091633835
 10
187.1136719706
 20
60.94642796
 10
187.5438559017
 20
60.5925295512
 10
188.0139375952
 20
60.3075835094
 10
188.514374438
 20
60.0959954804
 10
189.0345110079
 20
59.960854335
 10
189.1474801776
 20
59.9419946883
  0
LINE
  5
431
100
AcDbEntity
  8
BEZUGSACHSEN
100
AcDbLine
 62
7
  6
CONTINUOUS
 10
186.8632840443
 20
120.0287237331
 11
182.425678381
 21
114.9785370937
  0
LINE
  5
432
100
AcDbEntity
  8
BEZUGSACHSEN
100
AcDbLine
 62
7
  6
CONTINUOUS
 10
182.4254953795
 20
66.2570819207
 11
186.8627585819
 21
61.2072846749
  0
LINE
  5
433
100
AcDbEntity
  8
0
100
AcDbLine
 62
7
  6
CONTINUOUS
 10
187.2552300757
 20
69.5494306663
 11
186.2552300757
 21
69.5494306663
  0
LINE
  5
434
100
AcDbEntity
  8
0
100
AcDbLine
 62
7
  6
CONTINUOUS
 10
187.2552300757
 20
69.7199432707
 11
186.2552300757
 21
69.7199432707
  0
LINE
  5
435
100
AcDbEntity
  8
0
100
AcDbLine
 62
7
  6
CONTINUOUS
 10
187.2552300757
 20
70.1282466611
 11
186.2552300757
 21
70.1282466611
  0
LINE
  5
436
100
AcDbEntity
  8
0
100
AcDbLine
 62
7
  6
CONTINUOUS
 10
187.2552300757
 20
71.6249724305
 11
186.2552300757
 21
71.6249724305
  0
LINE
  5
437
100
AcDbEntity
  8
RUNDUNGEN
100
AcDbLine
 62
7
  6
CONTINUOUS
 10
226.5935868022
 20
73.2318237775
 11
227.7549090249
 21
73.2318237775
  0
LINE
  5
438
100
AcDbEntity
  8
0
100
AcDbLine
 62
7
  6
CONTINUOUS
 10
187.2552300757
 20
73.4491321675
 11
186.2552300757
 21
73.4491321675
  0
LINE
  5
439
100
AcDbEntity
  8
0
100
AcDbLine
 62
7
  6
CONTINUOUS
 10
187.2552300757
 20
73.6472433478
 11
186.2552300757
 21
73.6472433478
  0
LINE
  5
43A
100
AcDbEntity
  8
0
100
AcDbLine
 62
7
  6
CONTINUOUS
 10
187.2552300757
 20
73.8164439112
 11
186.2552300757
 21
73.8164439112
  0
LINE
  5
43B
100
AcDbEntity
  8
0
100
AcDbLine
 62
7
  6
CONTINUOUS
 10
187.2552300757
 20
74.0805721067
 11
186.2552300757
 21
74.0805721067
  0
LINE
  5
43C
100
AcDbEntity
  8
0
100
AcDbLine
 62
7
  6
CONTINUOUS
 10
187.2552300757
 20
74.1882150181
 11
186.2552300757
 21
74.1882150181
  0
LINE
  5
43D
100
AcDbEntity
  8
0
100
AcDbLine
 62
7
  6
CONTINUOUS
 10
187.2552300757
 20
74.3084808829
 11
186.2552300757
 21
74.3084808829
  0
LINE
  5
43E
100
AcDbEntity
  8
0
100
AcDbLine
 62
7
  6
CONTINUOUS
 10
187.2552300757
 20
74.6598956201
 11
186.2552300757
 21
74.6598956201
  0
LINE
  5
43F
100
AcDbEntity
  8
0
100
AcDbLine
 62
7
  6
CONTINUOUS
 10
187.2552300757
 20
74.7764099421
 11
186.2552300757
 21
74.7764099421
  0
LINE
  5
440
100
AcDbEntity
  8
0
100
AcDbLine
 62
7
  6
CONTINUOUS
 10
187.2552300757
 20
75.2405874586
 11
186.2552300757
 21
75.2405874586
  0
LINE
  5
441
100
AcDbEntity
  8
0
100
AcDbLine
 62
7
  6
CONTINUOUS
 10
187.2552300757
 20
75.5863762151
 11
186.2552300757
 21
75.5863762151
  0
LINE
  5
442
100
AcDbEntity
  8
0
100
AcDbLine
 62
7
  6
CONTINUOUS
 10
187.2552300757
 20
76.0449304177
 11
186.2552300757
 21
76.0449304177
  0
LINE
  5
443
100
AcDbEntity
  8
0
100
AcDbLine
 62
7
  6
CONTINUOUS
 10
187.2552300757
 20
76.3287118038
 11
186.2552300757
 21
76.3287118038
  0
LINE
  5
444
100
AcDbEntity
  8
0
100
AcDbLine
 62
7
  6
CONTINUOUS
 10
187.2552300757
 20
76.3908410327
 11
186.2552300757
 21
76.3908410327
  0
LINE
  5
445
100
AcDbEntity
  8
0
100
AcDbLine
 62
7
  6
CONTINUOUS
 10
187.2552300757
 20
76.5637367444
 11
186.2552300757
 21
76.5637367444
  0
LINE
  5
446
100
AcDbEntity
  8
0
100
AcDbLine
 62
7
  6
CONTINUOUS
 10
187.2552300757
 20
76.9113999388
 11
186.2552300757
 21
76.9113999388
  0
LINE
  5
447
100
AcDbEntity
  8
0
100
AcDbLine
 62
7
  6
CONTINUOUS
 10
187.2552300757
 20
77.2609402381
 11
186.2552300757
 21
77.2609402381
  0
LINE
  5
448
100
AcDbEntity
  8
0
100
AcDbLine
 62
7
  6
CONTINUOUS
 10
187.2552300757
 20
77.5052208041
 11
186.2552300757
 21
77.5052208041
  0
LINE
  5
449
100
AcDbEntity
  8
0
100
AcDbLine
 62
7
  6
CONTINUOUS
 10
187.2552300757
 20
77.796502609
 11
186.2552300757
 21
77.796502609
  0
LINE
  5
44A
100
AcDbEntity
  8
0
100
AcDbLine
 62
7
  6
CONTINUOUS
 10
187.2552300757
 20
77.9073909898
 11
186.2552300757
 21
77.9073909898
  0
LINE
  5
44B
100
AcDbEntity
  8
0
100
AcDbLine
 62
7
  6
CONTINUOUS
 10
187.2552300757
 20
77.9600208366
 11
186.2552300757
 21
77.9600208366
  0
LINE
  5
44C
100
AcDbEntity
  8
RUNDUNGEN
100
AcDbLine
 62
7
  6
CONTINUOUS
 10
158.7186657897
 20
78.6177052178
 11
156.2552300757
 21
78.6177052178
  0
LINE
  5
44D
100
AcDbEntity
  8
0
100
AcDbLine
 62
7
  6
CONTINUOUS
 10
186.2552300757
 20
69.5494306663
 11
186.2552300757
 21
74.1807145994
  0
LINE
  5
44E
100
AcDbEntity
  8
0
100
AcDbLine
 62
7
  6
CONTINUOUS
 10
186.2552300757
 20
74.1882150181
 11
186.2552300757
 21
77.4958433201
  0
LINE
  5
44F
100
AcDbEntity
  8
0
100
AcDbLine
 62
7
  6
CONTINUOUS
 10
186.2552300757
 20
77.5052208041
 11
186.2552300757
 21
77.9600208366
  0
LINE
  5
450
100
AcDbEntity
  8
0
100
AcDbLine
 62
7
  6
CONTINUOUS
 10
186.2552300757
 20
80.7380547631
 11
186.2552300757
 21
81.6177052178
  0
LINE
  5
451
100
AcDbEntity
  8
0
100
AcDbLine
 62
7
  6
CONTINUOUS
 10
186.2552300757
 20
99.7397983447
 11
186.2552300757
 21
103.2668073887
  0
LINE
  5
452
100
AcDbEntity
  8
0
100
AcDbLine
 62
7
  6
CONTINUOUS
 10
186.2552300757
 20
105.3420118978
 11
186.2552300757
 21
113.6380949101
  0
LINE
  5
453
100
AcDbEntity
  8
0
100
AcDbLine
 62
7
  6
CONTINUOUS
 10
187.2552300757
 20
80.7380547631
 11
186.2552300757
 21
80.7380547631
  0
LINE
  5
454
100
AcDbEntity
  8
0
100
AcDbLine
 62
7
  6
CONTINUOUS
 10
187.2552300757
 20
81.174999023
 11
186.2552300757
 21
81.174999023
  0
LINE
  5
455
100
AcDbEntity
  8
0
100
AcDbLine
 62
7
  6
CONTINUOUS
 10
164.7552300757
 20
81.6177052178
 11
222.7552300757
 21
81.6177052178
  0
LINE
  5
456
100
AcDbEntity
  8
RUNDUNGEN
100
AcDbLine
 62
7
  6
CONTINUOUS
 10
187.2552300757
 20
81.6177052178
 11
187.2552300757
 21
71.8295731381
  0
LINE
  5
457
100
AcDbEntity
  8
BEZUGSACHSEN
100
AcDbLine
 62
7
  6
CONTINUOUS
 10
187.2552300757
 20
71.8295731381
 11
187.2552300757
 21
66.5565634577
  0
LINE
  5
458
100
AcDbEntity
  8
RUNDUNGEN
100
AcDbLine
 62
7
  6
CONTINUOUS
 10
187.2552300757
 20
99.6177052178
 11
187.2552300757
 21
109.4058372976
  0
LINE
  5
459
100
AcDbEntity
  8
BEZUGSACHSEN
100
AcDbLine
 62
7
  6
CONTINUOUS
 10
187.2552300757
 20
99.6177052178
 11
187.2552300757
 21
114.6788464439
  0
LINE
  5
45A
100
AcDbEntity
  8
BEZUGSACHSEN
100
AcDbLine
 62
7
  6
CONTINUOUS
 10
200.2552300757
 20
114.6788464439
 11
200.2552300757
 21
109.4058372976
  0
LINE
  5
45B
100
AcDbEntity
  8
RUNDUNGEN
100
AcDbLine
 62
7
  6
CONTINUOUS
 10
200.2552300757
 20
81.6177052178
 11
200.2552300757
 21
66.5565634577
  0
LINE
  5
45C
100
AcDbEntity
  8
RUNDUNGEN
100
AcDbLine
 62
7
  6
CONTINUOUS
 10
200.2552300757
 20
99.6177052178
 11
200.2552300757
 21
109.4058372976
  0
LINE
  5
45D
100
AcDbEntity
  8
0
100
AcDbLine
 62
7
  6
CONTINUOUS
 10
164.7552300757
 20
99.6177052178
 11
222.7552300757
 21
99.6177052178
  0
LINE
  5
45E
100
AcDbEntity
  8
0
100
AcDbLine
 62
7
  6
CONTINUOUS
 10
187.2552300757
 20
99.7397983447
 11
186.2552300757
 21
99.7397983447
  0
LINE
  5
45F
100
AcDbEntity
  8
0
100
AcDbLine
 62
7
  6
CONTINUOUS
 10
187.2552300757
 20
100.5206932019
 11
186.2552300757
 21
100.5206932019
  0
LINE
  5
460
100
AcDbEntity
  8
0
100
AcDbLine
 62
7
  6
CONTINUOUS
 10
187.2552300757
 20
100.9326102514
 11
186.2552300757
 21
100.9326102514
  0
LINE
  5
461
100
AcDbEntity
  8
RUNDUNGEN
100
AcDbLine
 62
7
  6
CONTINUOUS
 10
158.718664688
 20
102.6177052178
 11
156.2552300757
 21
102.6177052178
  0
LINE
  5
462
100
AcDbEntity
  8
0
100
AcDbLine
 62
7
  6
CONTINUOUS
 10
187.2552300757
 20
102.8548903393
 11
186.2552300757
 21
102.8548903393
  0
LINE
  5
463
100
AcDbEntity
  8
0
100
AcDbLine
 62
7
  6
CONTINUOUS
 10
187.2552300757
 20
103.2668073887
 11
186.2552300757
 21
103.2668073887
  0
LINE
  5
464
100
AcDbEntity
  8
0
100
AcDbLine
 62
7
  6
CONTINUOUS
 10
187.2552300757
 20
105.3420118978
 11
186.2552300757
 21
105.3420118978
  0
LINE
  5
465
100
AcDbEntity
  8
0
100
AcDbLine
 62
7
  6
CONTINUOUS
 10
187.2552300757
 20
105.3981390573
 11
186.2552300757
 21
105.3981390573
  0
LINE
  5
466
100
AcDbEntity
  8
0
100
AcDbLine
 62
7
  6
CONTINUOUS
 10
187.2552300757
 20
105.5554636471
 11
186.2552300757
 21
105.5554636471
  0
LINE
  5
467
100
AcDbEntity
  8
0
100
AcDbLine
 62
7
  6
CONTINUOUS
 10
187.2552300757
 20
105.8280181072
 11
186.2552300757
 21
105.8280181072
  0
LINE
  5
468
100
AcDbEntity
  8
0
100
AcDbLine
 62
7
  6
CONTINUOUS
 10
187.2552300757
 20
106.7974776895
 11
186.2552300757
 21
106.7974776895
  0
LINE
  5
469
100
AcDbEntity
  8
0
100
AcDbLine
 62
7
  6
CONTINUOUS
 10
187.2552300757
 20
107.1712297382
 11
186.2552300757
 21
107.1712297382
  0
LINE
  5
46A
100
AcDbEntity
  8
0
100
AcDbLine
 62
7
  6
CONTINUOUS
 10
187.2552300757
 20
107.5309502559
 11
186.2552300757
 21
107.5309502559
  0
LINE
  5
46B
100
AcDbEntity
  8
0
100
AcDbLine
 62
7
  6
CONTINUOUS
 10
187.2552300757
 20
107.9918681812
 11
186.2552300757
 21
107.9918681812
  0
LINE
  5
46C
100
AcDbEntity
  8
RUNDUNGEN
100
AcDbLine
 62
7
  6
CONTINUOUS
 10
226.5935883499
 20
108.0035866582
 11
227.7549090249
 21
108.0035866582
  0
LINE
  5
46D
100
AcDbEntity
  8
0
100
AcDbLine
 62
7
  6
CONTINUOUS
 10
187.2552300757
 20
108.3235248409
 11
186.2552300757
 21
108.3235248409
  0
LINE
  5
46E
100
AcDbEntity
  8
0
100
AcDbLine
 62
7
  6
CONTINUOUS
 10
187.2552300757
 20
108.6411501507
 11
186.2552300757
 21
108.6411501507
  0
LINE
  5
46F
100
AcDbEntity
  8
0
100
AcDbLine
 62
7
  6
CONTINUOUS
 10
187.2552300757
 20
109.8555236738
 11
186.2552300757
 21
109.8555236738
  0
LINE
  5
470
100
AcDbEntity
  8
0
100
AcDbLine
 62
7
  6
CONTINUOUS
 10
187.2552300757
 20
110.6238325079
 11
186.2552300757
 21
110.6238325079
  0
LINE
  5
471
100
AcDbEntity
  8
0
100
AcDbLine
 62
7
  6
CONTINUOUS
 10
187.2552300757
 20
110.8595335056
 11
186.2552300757
 21
110.8595335056
  0
LINE
  5
472
100
AcDbEntity
  8
0
100
AcDbLine
 62
7
  6
CONTINUOUS
 10
187.2552300757
 20
111.8023374963
 11
186.2552300757
 21
111.8023374963
  0
LINE
  5
473
100
AcDbEntity
  8
0
100
AcDbLine
 62
7
  6
CONTINUOUS
 10
187.2552300757
 20
112.0380386064
 11
186.2552300757
 21
112.0380386064
  0
LINE
  5
474
100
AcDbEntity
  8
0
100
AcDbLine
 62
7
  6
CONTINUOUS
 10
187.2552300757
 20
112.4278950113
 11
186.2552300757
 21
112.4278950113
  0
LINE
  5
475
100
AcDbEntity
  8
0
100
AcDbLine
 62
7
  6
CONTINUOUS
 10
187.2552300757
 20
112.7753290281
 11
186.2552300757
 21
112.7753290281
  0
LINE
  5
476
100
AcDbEntity
  8
RUNDUNGEN
100
AcDbLine
 62
7
  6
CONTINUOUS
 10
200.6471761071
 20
61.2066867026
 11
205.0847817704
 21
66.2568733419
  0
LINE
  5
477
100
AcDbEntity
  8
0
100
AcDbLine
 62
7
  6
CONTINUOUS
 10
187.2552300757
 20
112.9901343724
 11
186.2552300757
 21
112.9901343724
  0
LINE
  5
478
100
AcDbEntity
  8
0
100
AcDbLine
 62
7
  6
CONTINUOUS
 10
187.2552300757
 20
113.6380949101
 11
186.2552300757
 21
113.6380949101
  0
LWPOLYLINE
  5
479
100
AcDbEntity
  8
BEZUGSACHSEN
100
AcDbPolyline
 62
7
  6
CONTINUOUS
 90
7
 70
0
 10
200.6493471776
 20
120.0262470522
 10
200.3967881808
 20
120.2889824756
 10
199.9666042498
 20
120.6428808844
 10
199.4965225563
 20
120.9278269262
 10
198.9960857135
 20
121.1394149552
 10
198.4759491435
 20
121.2745561006
 10
198.3629799739
 20
121.2934157473
  0
LINE
  5
47A
100
AcDbEntity
  8
BEZUGSACHSEN
100
AcDbLine
 62
7
  6
CONTINUOUS
 10
205.0849647719
 20
114.978328515
 11
200.6477015695
 21
120.0281257607
  0
LWPOLYLINE
  5
47B
100
AcDbEntity
  8
BEZUGSACHSEN
100
AcDbPolyline
 62
7
  6
CONTINUOUS
 90
7
 70
0
 10
189.1474731518
 20
121.2934146732
 10
189.0316917025
 20
121.2740388515
 10
188.5088682211
 20
121.1375421876
 10
188.0060781664
 20
120.9237978457
 10
187.5341471112
 20
120.6359742533
 10
187.1027565365
 20
120.2785809284
 10
186.8609646412
 20
120.026077946
  0
LINE
  5
47C
100
AcDbEntity
  8
BEZUGSACHSEN
100
AcDbLine
 62
7
  6
CONTINUOUS
 10
189.1474727368
 20
121.293417475
 11
189.147734313
 21
121.2934573094
  0
LWPOLYLINE
  5
47D
100
AcDbEntity
  8
BEZUGSACHSEN
100
AcDbPolyline
 62
7
  6
CONTINUOUS
 90
5
 70
0
 10
189.9704984633
 20
121.3525782796
 10
189.8332185134
 20
121.3508991125
 10
189.5571713796
 20
121.3381099545
 10
189.276524228
 20
121.3111407619
 10
189.147734313
 20
121.2934573094
  0
LINE
  5
47E
100
AcDbEntity
  8
BEZUGSACHSEN
100
AcDbLine
 62
7
  6
CONTINUOUS
 10
189.9705167857
 20
121.3529208172
 11
197.5399433658
 21
121.3529208172
  0
LWPOLYLINE
  5
47F
100
AcDbEntity
  8
BEZUGSACHSEN
100
AcDbPolyline
 62
7
  6
CONTINUOUS
 90
5
 70
0
 10
198.3627258384
 20
121.2934573094
 10
198.2339359234
 20
121.3111407619
 10
197.9532887719
 20
121.3381099545
 10
197.6772416381
 20
121.3508991125
 10
197.5399616881
 20
121.3525782796
  0
LINE
  5
480
100
AcDbEntity
  8
BEZUGSACHSEN
100
AcDbLine
 62
7
  6
CONTINUOUS
 10
198.3629803888
 20
121.293418549
 11
198.3627258384
 21
121.2934573094
  0
LINE
  5
481
100
AcDbEntity
  8
RUNDUNGEN
100
AcDbLine
 62
7
  6
CONTINUOUS
 10
228.7549090249
 20
108.0035865652
 11
228.7549090249
 21
97.3242259602
  0
LINE
  5
482
100
AcDbEntity
  8
RUNDUNGEN
100
AcDbLine
 62
7
  6
CONTINUOUS
 10
228.7549090249
 20
83.9111844755
 11
228.7549090249
 21
73.231823806
  0
LINE
  5
483
100
AcDbEntity
  8
BEZUGSACHSEN
100
AcDbLine
 62
7
  6
CONTINUOUS
 10
226.3415258168
 20
69.0450435861
 11
196.2552300757
 21
51.6177513717
  0
LINE
  5
484
100
AcDbEntity
  8
BEZUGSACHSEN
100
AcDbLine
 62
7
  6
CONTINUOUS
 10
196.2537896599
 20
129.6177513717
 11
226.3415258168
 21
112.1903668495
  0
LINE
  5
485
100
AcDbEntity
  8
RUNDUNGEN
100
AcDbLine
 62
7
  6
CONTINUOUS
 10
228.7549090372
 20
73.2318237989
 11
226.3415258168
 21
69.0450435861
  0
LINE
  5
486
100
AcDbEntity
  8
BEZUGSACHSEN
100
AcDbLine
 62
7
  6
CONTINUOUS
 10
191.2566704915
 20
129.6177513717
 11
196.2537896599
 21
129.6177513717
  0
LINE
  5
487
100
AcDbEntity
  8
RUNDUNGEN
100
AcDbLine
 62
7
  6
CONTINUOUS
 10
226.3415258168
 20
112.1903668495
 11
228.7549090651
 21
108.0035865884
  0
ARC
  5
488
100
AcDbEntity
  8
RUNDUNGEN
100
AcDbCircle
 62
7
  6
CONTINUOUS
 10
156.2552300757
 20
257.6787213927
 40
1.0
100
AcDbArc
 50
90.0
 51
180.0
  0
ARC
  5
489
100
AcDbEntity
  8
RUNDUNGEN
100
AcDbCircle
 62
7
  6
CONTINUOUS
 10
156.2552300757
 20
235.4728213927
 40
1.0
100
AcDbArc
 50
180.0
 51
270.0
  0
ARC
  5
48A
100
AcDbEntity
  8
BEZUGSACHSEN
100
AcDbCircle
 62
7
  6
CONTINUOUS
 10
165.7552300757
 20
265.9787213927
 40
3.0
100
AcDbArc
 50
90.0
 51
180.0
  0
ARC
  5
48B
100
AcDbEntity
  8
BEZUGSACHSEN
100
AcDbCircle
 62
7
  6
CONTINUOUS
 10
177.0604650827
 20
272.9787213927
 40
4.0000065173
100
AcDbArc
 50
270.0000748201
 51
274.9635619379
  0
ARC
  5
48C
100
AcDbEntity
  8
BEZUGSACHSEN
100
AcDbCircle
 62
7
  6
CONTINUOUS
 10
176.9205487951
 20
272.9787213927
 40
3.999843672
100
AcDbArc
 50
269.9952341149
 51
339.9983698439
  0
ARC
  5
48D
100
AcDbEntity
  8
BEZUGSACHSEN
100
AcDbCircle
 62
7
  6
CONTINUOUS
 10
181.2552300757
 20
290.736683277
 40
6.0
100
AcDbArc
 50
340.0041419317
 51
359.9999876868
  0
ARC
  5
48E
100
AcDbEntity
  8
RUNDUNGEN
100
AcDbCircle
 62
7
  6
CONTINUOUS
 10
206.2552300757
 20
290.736683277
 40
6.0
100
AcDbArc
 50
180.0000123132
 51
199.9958580683
  0
ARC
  5
48F
100
AcDbEntity
  8
BEZUGSACHSEN
100
AcDbCircle
 62
7
  6
CONTINUOUS
 10
210.4499950687
 20
272.9787213927
 40
4.0000065173
100
AcDbArc
 50
265.0364380621
 51
269.9999251799
  0
ARC
  5
490
100
AcDbEntity
  8
RUNDUNGEN
100
AcDbCircle
 62
7
  6
CONTINUOUS
 10
210.5899113563
 20
272.9787213927
 40
3.999843672
100
AcDbArc
 50
200.0016301561
 51
270.0047658851
  0
ARC
  5
491
100
AcDbEntity
  8
BEZUGSACHSEN
100
AcDbCircle
 62
7
  6
CONTINUOUS
 10
210.5899113563
 20
272.9787213927
 40
3.999843672
100
AcDbArc
 50
200.0016301561
 51
246.6702047168
  0
ARC
  5
492
100
AcDbEntity
  8
BEZUGSACHSEN
100
AcDbCircle
 62
7
  6
CONTINUOUS
 10
210.5899113563
 20
272.9787213927
 40
3.999843672
100
AcDbArc
 50
263.1224877663
 51
270.0047658851
  0
ARC
  5
493
100
AcDbEntity
  8
BEZUGSACHSEN
100
AcDbCircle
 62
7
  6
CONTINUOUS
 10
221.7552300757
 20
265.9787213927
 40
3.0
100
AcDbArc
 50
0.0
 51
90.0
  0
ARC
  5
494
100
AcDbEntity
  8
RUNDUNGEN
100
AcDbCircle
 62
7
  6
CONTINUOUS
 10
227.7549090249
 20
255.1183798229
 40
1.0
100
AcDbArc
 50
0.0000000037
 51
32.0169704128
  0
ARC
  5
495
100
AcDbEntity
  8
RUNDUNGEN
100
AcDbCircle
 62
7
  6
CONTINUOUS
 10
229.4506918141
 20
256.1787213927
 40
1.0
100
AcDbArc
 50
190.0
 51
212.0493874527
  0
ARC
  5
496
100
AcDbEntity
  8
0
100
AcDbCircle
 62
7
  6
CONTINUOUS
 10
193.7552300757
 20
361.4787213927
 40
38.0
100
AcDbArc
 50
0.0
 51
180.0
  0
ARC
  5
497
100
AcDbEntity
  8
0
100
AcDbCircle
 62
7
  6
CONTINUOUS
 10
193.7552300757
 20
316.4787213927
 40
38.0
100
AcDbArc
 50
285.3815163343
 51
360.0
  0
ARC
  5
498
100
AcDbEntity
  8
0
100
AcDbCircle
 62
7
  6
CONTINUOUS
 10
193.7552300757
 20
316.4787213927
 40
38.0
100
AcDbArc
 50
180.0
 51
254.6184836657
  0
ARC
  5
499
100
AcDbEntity
  8
0
100
AcDbCircle
 62
7
  6
CONTINUOUS
 10
193.7552300757
 20
316.4787213927
 40
20.0
100
AcDbArc
 50
288.9658572744
 51
360.0
  0
ARC
  5
49A
100
AcDbEntity
  8
0
100
AcDbCircle
 62
7
  6
CONTINUOUS
 10
193.7552300757
 20
316.4787213927
 40
20.0
100
AcDbArc
 50
180.0
 51
247.954055422
  0
ARC
  5
49B
100
AcDbEntity
  8
0
100
AcDbCircle
 62
7
  6
CONTINUOUS
 10
193.7552300757
 20
361.4787213927
 40
20.0
100
AcDbArc
 50
0.0
 51
180.0
  0
ARC
  5
49C
100
AcDbEntity
  8
BEZUGSACHSEN
100
AcDbCircle
 62
7
  6
CONTINUOUS
 10
282.6711618028
 20
272.9787213927
 40
4.0
100
AcDbArc
 50
289.9053385415
 51
22.5
  0
ARC
  5
49D
100
AcDbEntity
  8
RUNDUNGEN
100
AcDbCircle
 62
7
  6
CONTINUOUS
 10
305.0544319242
 20
238.4728213927
 40
4.0
100
AcDbArc
 50
180.0
 51
270.0
  0
ARC
  5
49E
100
AcDbEntity
  8
BEZUGSACHSEN
100
AcDbCircle
 62
7
  6
CONTINUOUS
 10
285.0544325909
 20
266.3969084575
 40
3.0000073826
100
AcDbArc
 50
109.9052329567
 51
179.9996547141
  0
ARC
  5
49F
100
AcDbEntity
  8
RUNDUNGEN
100
AcDbCircle
 62
7
  6
CONTINUOUS
 10
303.5544319242
 20
231.4728213927
 40
3.0
100
AcDbArc
 50
89.999994697
 51
180.0000000834
  0
ARC
  5
4A0
100
AcDbEntity
  8
RUNDUNGEN
100
AcDbCircle
 62
7
  6
CONTINUOUS
 10
303.5544319242
 20
214.6787213927
 40
3.0
100
AcDbArc
 50
179.9999999399
 51
270.0000000564
  0
ARC
  5
4A1
100
AcDbEntity
  8
BEZUGSACHSEN
100
AcDbCircle
 62
7
  6
CONTINUOUS
 10
284.3192163247
 20
284.6787213927
 40
2.0
100
AcDbArc
 50
157.5002152558
 51
202.4730590456
  0
ARC
  5
4A2
100
AcDbEntity
  8
BEZUGSACHSEN
100
AcDbCircle
 62
7
  6
CONTINUOUS
 10
292.735566115
 20
304.9975872019
 40
2.0
100
AcDbArc
 50
112.4961459564
 51
157.5
  0
ARC
  5
4A3
100
AcDbEntity
  8
RUNDUNGEN
100
AcDbCircle
 62
7
  6
CONTINUOUS
 10
313.0544319242
 20
246.6787213927
 40
12.0
100
AcDbArc
 50
0.0
 51
180.0
  0
ARC
  5
4A4
100
AcDbEntity
  8
RUNDUNGEN
100
AcDbCircle
 62
7
  6
CONTINUOUS
 10
313.0544319242
 20
284.6787213927
 40
11.75
100
AcDbArc
 50
9.6411502957
 51
22.6209273478
  0
ARC
  5
4A5
100
AcDbEntity
  8
BEZUGSACHSEN
100
AcDbCircle
 62
7
  6
CONTINUOUS
 10
313.0544319242
 20
284.6787213927
 40
11.75
100
AcDbArc
 50
140.0320857509
 51
39.9679142491
  0
ARC
  5
4A6
100
AcDbEntity
  8
0
100
AcDbCircle
 62
7
  6
CONTINUOUS
 10
313.0544319242
 20
287.4787213927
 40
9.0
100
AcDbArc
 50
180.0
 51
360.0
  0
ARC
  5
4A7
100
AcDbEntity
  8
RUNDUNGEN
100
AcDbCircle
 62
7
  6
CONTINUOUS
 10
343.4377020456
 20
272.9787213927
 40
4.0
100
AcDbArc
 50
157.5
 51
241.6248113829
  0
ARC
  5
4A8
100
AcDbEntity
  8
BEZUGSACHSEN
100
AcDbCircle
 62
7
  6
CONTINUOUS
 10
343.4377020456
 20
272.9787213927
 40
4.0
100
AcDbArc
 50
157.5
 51
250.0946614585
  0
ARC
  5
4A9
100
AcDbEntity
  8
RUNDUNGEN
100
AcDbCircle
 62
7
  6
CONTINUOUS
 10
321.0544319242
 20
238.4728213927
 40
4.0
100
AcDbArc
 50
270.0
 51
360.0
  0
ARC
  5
4AA
100
AcDbEntity
  8
BEZUGSACHSEN
100
AcDbCircle
 62
7
  6
CONTINUOUS
 10
341.0544312574
 20
266.3969084575
 40
3.0000073826
100
AcDbArc
 50
0.0003452859
 51
70.0947670433
  0
ARC
  5
4AB
100
AcDbEntity
  8
RUNDUNGEN
100
AcDbCircle
 62
7
  6
CONTINUOUS
 10
322.5544319242
 20
214.6787213927
 40
3.0
100
AcDbArc
 50
269.9999999399
 51
360.0
  0
ARC
  5
4AC
100
AcDbEntity
  8
RUNDUNGEN
100
AcDbCircle
 62
7
  6
CONTINUOUS
 10
322.5544319242
 20
231.4728213927
 40
3.0
100
AcDbArc
 50
359.9999999285
 51
90.0000051862
  0
ARC
  5
4AD
100
AcDbEntity
  8
BEZUGSACHSEN
100
AcDbCircle
 62
7
  6
CONTINUOUS
 10
341.7896475236
 20
284.6787213927
 40
2.0
100
AcDbArc
 50
337.5269409544
 51
22.4997847442
  0
ARC
  5
4AE
100
AcDbEntity
  8
0
100
AcDbCircle
 62
7
  6
CONTINUOUS
 10
313.0544319242
 20
390.4787213927
 40
9.0
100
AcDbArc
 50
0.0
 51
180.0
  0
ARC
  5
4AF
100
AcDbEntity
  8
BEZUGSACHSEN
100
AcDbCircle
 62
7
  6
CONTINUOUS
 10
333.3732977334
 20
304.9975872019
 40
2.0
100
AcDbArc
 50
22.5
 51
67.5038540436
  0
ARC
  5
4B0
100
AcDbEntity
  8
RUNDUNGEN
100
AcDbCircle
 62
7
  6
CONTINUOUS
 10
156.2552300757
 20
79.6177052178
 40
1.0
100
AcDbArc
 50
180.0
 51
270.0
  0
ARC
  5
4B1
100
AcDbEntity
  8
RUNDUNGEN
100
AcDbCircle
 62
7
  6
CONTINUOUS
 10
157.7549090249
 20
77.6177052178
 40
1.0
100
AcDbArc
 50
0.0
 51
90.0
  0
ARC
  5
4B2
100
AcDbEntity
  8
0
100
AcDbCircle
 62
7
  6
CONTINUOUS
 10
164.7552300757
 20
90.6177052178
 40
9.0
100
AcDbArc
 50
90.0
 51
270.0
  0
ARC
  5
4B3
100
AcDbEntity
  8
RUNDUNGEN
100
AcDbCircle
 62
7
  6
CONTINUOUS
 10
156.2552300757
 20
101.6177052178
 40
1.0
100
AcDbArc
 50
90.0
 51
180.0
  0
ARC
  5
4B4
100
AcDbEntity
  8
RUNDUNGEN
100
AcDbCircle
 62
7
  6
CONTINUOUS
 10
157.7549090249
 20
103.6177052178
 40
1.0
100
AcDbArc
 50
270.0
 51
360.0
  0
ARC
  5
4B5
100
AcDbEntity
  8
RUNDUNGEN
100
AcDbCircle
 62
7
  6
CONTINUOUS
 10
227.7549090249
 20
74.2318237775
 40
1.0
100
AcDbArc
 50
270.0
 51
360.0
  0
ARC
  5
4B6
100
AcDbEntity
  8
FASEN
100
AcDbCircle
 62
7
  6
CONTINUOUS
 10
193.7552300757
 20
90.6177052178
 40
33.9191503064
100
AcDbArc
 50
13.8003388395
 51
166.1996611527
  0
ARC
  5
4B7
100
AcDbEntity
  8
FASEN
100
AcDbCircle
 62
7
  6
CONTINUOUS
 10
193.7552300757
 20
90.6177052178
 40
33.9191503064
100
AcDbArc
 50
193.8003388395
 51
346.1996611527
  0
ARC
  5
4B8
100
AcDbEntity
  8
FASEN
100
AcDbCircle
 62
7
  6
CONTINUOUS
 10
193.7552300757
 20
90.6177052178
 40
32.7455021288
100
AcDbArc
 50
15.2480469002
 51
164.7519531137
  0
ARC
  5
4B9
100
AcDbEntity
  8
FASEN
100
AcDbCircle
 62
7
  6
CONTINUOUS
 10
193.7552300757
 20
90.6177052178
 40
32.7455021288
100
AcDbArc
 50
195.2480469002
 51
344.7519531137
  0
ARC
  5
4BA
100
AcDbEntity
  8
0
100
AcDbCircle
 62
7
  6
CONTINUOUS
 10
193.7552300757
 20
90.6177052178
 40
32.0
100
AcDbArc
 50
196.0133594337
 51
343.9866405663
  0
ARC
  5
4BB
100
AcDbEntity
  8
0
100
AcDbCircle
 62
7
  6
CONTINUOUS
 10
193.7552300757
 20
90.6177052178
 40
32.0
100
AcDbArc
 50
16.0133594337
 51
163.9866405663
  0
ARC
  5
4BC
100
AcDbEntity
  8
BEZUGSACHSEN
100
AcDbCircle
 62
7
  6
CONTINUOUS
 10
193.7552300757
 20
90.6177052178
 40
31.0
100
AcDbArc
 50
279.4888231238
 51
284.9157974827
  0
ARC
  5
4BD
100
AcDbEntity
  8
RUNDUNGEN
100
AcDbCircle
 62
7
  6
CONTINUOUS
 10
193.7552300757
 20
90.6177052178
 40
31.0
100
AcDbArc
 50
284.9157974827
 51
306.4129822592
  0
ARC
  5
4BE
100
AcDbEntity
  8
BEZUGSACHSEN
100
AcDbCircle
 62
7
  6
CONTINUOUS
 10
193.7552300757
 20
90.6177052178
 40
31.0
100
AcDbArc
 50
16.8440779721
 51
80.5111768762
  0
ARC
  5
4BF
100
AcDbEntity
  8
BEZUGSACHSEN
100
AcDbCircle
 62
7
  6
CONTINUOUS
 10
193.7552300757
 20
90.6177052178
 40
31.0
100
AcDbArc
 50
306.4129822592
 51
343.1559220279
  0
ARC
  5
4C0
100
AcDbEntity
  8
BEZUGSACHSEN
100
AcDbCircle
 62
7
  6
CONTINUOUS
 10
193.7552300757
 20
90.6177052178
 40
31.0
100
AcDbArc
 50
81.7050692184
 51
98.2949307816
  0
ARC
  5
4C1
100
AcDbEntity
  8
BEZUGSACHSEN
100
AcDbCircle
 62
7
  6
CONTINUOUS
 10
193.7552300757
 20
90.6177052178
 40
31.0
100
AcDbArc
 50
261.7050692184
 51
278.2949307816
  0
ARC
  5
4C2
100
AcDbEntity
  8
BEZUGSACHSEN
100
AcDbCircle
 62
7
  6
CONTINUOUS
 10
193.7552300757
 20
90.6177052178
 40
31.0
100
AcDbArc
 50
99.4888231238
 51
163.1559220279
  0
ARC
  5
4C3
100
AcDbEntity
  8
BEZUGSACHSEN
100
AcDbCircle
 62
7
  6
CONTINUOUS
 10
193.7552300757
 20
90.6177052178
 40
31.0
100
AcDbArc
 50
196.8440779721
 51
260.5111768762
  0
ARC
  5
4C4
100
AcDbEntity
  8
0
100
AcDbCircle
 62
7
  6
CONTINUOUS
 10
222.7552300757
 20
90.6177052178
 40
9.0
100
AcDbArc
 50
270.0
 51
90.0
  0
ARC
  5
4C5
100
AcDbEntity
  8
RUNDUNGEN
100
AcDbCircle
 62
7
  6
CONTINUOUS
 10
227.7549090249
 20
107.0035866582
 40
1.0
100
AcDbArc
 50
0.0
 51
90.0
  0
SPLINE
  5
4C6
100
AcDbEntity
  8
BEZUGSACHSEN
100
AcDbSpline
 62
7
  6
CONTINUOUS
 70
0
 71
3
 72
33
 73
29
 74
0
 42
0.0000001
 43
0.0000001
 44
0.0000000001
 40
0.0
 40
0.0
 40
0.0
 40
0.0
 40
0.0644423136
 40
0.1287157589
 40
0.1927549914
 40
0.2564517232
 40
0.2881202268
 40
0.3196200196
 40
0.3508942744
 40
0.3818597444
 40
0.4123920199
 40
0.4423150989
 40
0.4714517525
 40
0.4857770031
 40
0.5000002909
 40
0.5142234987
 40
0.5285487479
 40
0.5576851965
 40
0.5876081587
 40
0.6181403827
 40
0.6491058381
 40
0.680380088
 40
0.7118798538
 40
0.7435483184
 40
0.807245038
 40
0.8712842576
 40
0.9355576907
 40
1.0
 40
1.0
 40
1.0
 40
1.0
 10
226.3415258168
 20
231.2252805988
 30
0.0
 10
225.9408331071
 20
232.3935102731
 30
0.0
 10
225.1176685994
 20
234.7191830964
 30
0.0
 10
223.7995241228
 20
238.1706832153
 30
0.0
 10
222.3767152832
 20
241.5651269301
 30
0.0
 10
221.0736944096
 20
244.3301112993
 30
0.0
 10
219.9329578783
 20
246.4778142408
 30
0.0
 10
219.0203035017
 20
248.0415683516
 30
0.0
 10
218.0357465744
 20
249.5454963387
 30
0.0
 10
216.96201997
 20
250.964866433
 30
0.0
 10
215.7757428618
 20
252.2593543783
 30
0.0
 10
214.4501164594
 20
253.3612691472
 30
0.0
 10
213.1920073049
 20
254.0277538387
 30
0.0
 10
212.1190987883
 20
254.3131072112
 30
0.0
 10
211.298361588
 20
254.3867974317
 30
0.0
 10
210.4776281054
 20
254.3130882798
 30
0.0
 10
209.4047195169
 20
254.0277572405
 30
0.0
 10
208.1466237239
 20
253.3612547787
 30
0.0
 10
206.8210019926
 20
252.2593493023
 30
0.0
 10
205.6347279345
 20
250.9648621744
 30
0.0
 10
204.5610038859
 20
249.545492093
 30
0.0
 10
203.5764507461
 20
248.0415626097
 30
0.0
 10
202.6637979829
 20
246.4778092591
 30
0.0
 10
201.5230574504
 20
244.3301101077
 30
0.0
 10
200.2200412049
 20
241.5651247817
 30
0.0
 10
198.7972314834
 20
238.1706823295
 30
0.0
 10
197.4790872407
 20
234.7191826824
 30
0.0
 10
196.6559227589
 20
232.3935101957
 30
0.0
 10
196.2552300757
 20
231.2252805988
 30
0.0
  0
SPLINE
  5
4C7
100
AcDbEntity
  8
BEZUGSACHSEN
100
AcDbSpline
 62
7
  6
CONTINUOUS
 70
0
 71
3
 72
9
 73
5
 74
0
 42
0.0000001
 43
0.0000001
 44
0.0000000001
 40
0.0
 40
0.0
 40
0.0
 40
0.0
 40
0.5000563455
 40
1.0
 40
1.0
 40
1.0
 40
1.0
 10
196.2552300757
 20
231.2252805988
 30
0.0
 10
195.8555626648
 20
231.3702797366
 30
0.0
 10
195.0322949686
 20
231.5992744738
 30
0.0
 10
194.1802916338
 20
231.679244896
 30
0.0
 10
193.7552300757
 20
231.679244896
 30
0.0
  0
SPLINE
  5
4C8
100
AcDbEntity
  8
RUNDUNGEN
100
AcDbSpline
 62
7
  6
CONTINUOUS
 70
0
 71
3
 72
11
 73
7
 74
0
 42
0.0000001
 43
0.0000001
 44
0.0000000001
 40
0.0
 40
0.0
 40
0.0
 40
0.0
 40
0.2510394265
 40
0.4909460592
 40
0.7360267521
 40
1.0
 40
1.0
 40
1.0
 40
1.0
 10
228.4392079109
 20
231.4180340084
 30
0.0
 10
228.2741487199
 20
231.5036820464
 30
0.0
 10
227.9296309922
 20
231.6355369885
 30
0.0
 10
227.3763800644
 20
231.6697239241
 30
0.0
 10
226.83190169
 20
231.5270398367
 30
0.0
 10
226.501555821
 20
231.3376439434
 30
0.0
 10
226.3415258168
 20
231.2252805988
 30
0.0
  0
SPLINE
  5
4C9
100
AcDbEntity
  8
BEZUGSACHSEN
100
AcDbSpline
 62
7
  6
CONTINUOUS
 70
0
 71
3
 72
11
 73
7
 74
0
 42
0.0000001
 43
0.0000001
 44
0.0000000001
 40
0.0
 40
0.0
 40
0.0
 40
0.0
 40
0.2597930776
 40
0.5000000554
 40
0.7402069682
 40
1.0
 40
1.0
 40
1.0
 40
1.0
 10
161.1697311159
 20
231.2252805988
 30
0.0
 10
160.9861467438
 20
231.3542592417
 30
0.0
 10
160.603655913
 20
231.5673557514
 30
0.0
 10
159.9623199767
 20
231.6893964713
 30
0.0
 10
159.3209840961
 20
231.5673557037
 30
0.0
 10
158.9384933646
 20
231.354259219
 30
0.0
 10
158.7549090249
 20
231.2252805988
 30
0.0
  0
SPLINE
  5
4CA
100
AcDbEntity
  8
RUNDUNGEN
100
AcDbSpline
 62
7
  6
CONTINUOUS
 70
0
 71
3
 72
12
 73
8
 74
0
 42
0.0000001
 43
0.0000001
 44
0.0000000001
 40
0.0
 40
0.0
 40
0.0
 40
0.0
 40
0.0638454291
 40
0.1567175818
 40
0.4051511201
 40
0.6933186669
 40
1.0
 40
1.0
 40
1.0
 40
1.0
 10
158.6972641085
 20
241.4583429087
 30
0.0
 10
158.7049004351
 20
241.4576332579
 30
0.0
 10
158.720632113
 20
241.4429561116
 30
0.0
 10
158.7367292126
 20
241.3974493569
 30
0.0
 10
158.7479938143
 20
241.3218146245
 30
0.0
 10
158.7539181139
 20
241.2209012258
 30
0.0
 10
158.7549090249
 20
241.149373655
 30
0.0
 10
158.7549090249
 20
241.1125345315
 30
0.0
  0
LINE
  5
4CB
100
AcDbEntity
  8
RUNDUNGEN
100
AcDbLine
 62
7
  6
CONTINUOUS
 10
157.7549090249
 20
241.5459145753
 11
158.6972641085
 21
241.4583429087
  0
SPLINE
  5
4CC
100
AcDbEntity
  8
RUNDUNGEN
100
AcDbSpline
 62
7
  6
CONTINUOUS
 70
0
 71
3
 72
11
 73
7
 74
0
 42
0.0000001
 43
0.0000001
 44
0.0000000001
 40
0.0
 40
0.0
 40
0.0
 40
0.0
 40
0.3058411581
 40
0.5672331611
 40
0.7856820532
 40
1.0
 40
1.0
 40
1.0
 40
1.0
 10
228.5309821138
 20
231.4725618579
 30
0.0
 10
228.5252040185
 20
231.4618794684
 30
0.0
 10
228.5133105963
 20
231.4426558178
 30
0.0
 10
228.4914273481
 20
231.4197818162
 30
0.0
 10
228.4643910835
 20
231.4091987439
 30
0.0
 10
228.446762047
 20
231.4141142203
 30
0.0
 10
228.4392079109
 20
231.4180340084
 30
0.0
  0
SPLINE
  5
4CD
100
AcDbEntity
  8
BEZUGSACHSEN
100
AcDbSpline
 62
7
  6
CONTINUOUS
 70
0
 71
3
 72
9
 73
5
 74
0
 42
0.0000001
 43
0.0000001
 44
0.0000000001
 40
0.0
 40
0.0
 40
0.0
 40
0.0
 40
0.4999436547
 40
1.0
 40
1.0
 40
1.0
 40
1.0
 10
193.7552300757
 20
231.679244896
 30
0.0
 10
193.3301685175
 20
231.679244896
 30
0.0
 10
192.4781651826
 20
231.5992744738
 30
0.0
 10
191.6548974865
 20
231.3702797365
 30
0.0
 10
191.2552300757
 20
231.2252805988
 30
0.0
  0
SPLINE
  5
4CE
100
AcDbEntity
  8
BEZUGSACHSEN
100
AcDbSpline
 62
7
  6
CONTINUOUS
 70
0
 71
3
 72
33
 73
29
 74
0
 42
0.0000001
 43
0.0000001
 44
0.0000000001
 40
0.0
 40
0.0
 40
0.0
 40
0.0
 40
0.064442247
 40
0.1287156235
 40
0.1927547846
 40
0.2564514424
 40
0.2881199086
 40
0.3196196649
 40
0.350893886
 40
0.3818593295
 40
0.4123915974
 40
0.4423147148
 40
0.4714515046
 40
0.4857768685
 40
0.5000002909
 40
0.5142236333
 40
0.5285489958
 40
0.5576855806
 40
0.5876085811
 40
0.6181407976
 40
0.6491062266
 40
0.6803804427
 40
0.711880172
 40
0.7435485993
 40
0.8072452448
 40
0.871284393
 40
0.9355577573
 40
1.0
 40
1.0
 40
1.0
 40
1.0
 10
191.2552300757
 20
231.2252805988
 30
0.0
 10
190.8545455455
 20
232.3934304972
 30
0.0
 10
190.0313975235
 20
234.7189436123
 30
0.0
 10
188.7132784201
 20
238.170203187
 30
0.0
 10
187.2904960175
 20
241.5644053336
 30
0.0
 10
185.987498771
 20
244.3291869422
 30
0.0
 10
184.8467830495
 20
246.4767264691
 30
0.0
 10
183.9341457248
 20
248.0403577872
 30
0.0
 10
182.9496080888
 20
249.5441626291
 30
0.0
 10
181.8759043229
 20
250.9634097243
 30
0.0
 10
180.6896561872
 20
252.257776365
 30
0.0
 10
179.3640690237
 20
253.359576046
 30
0.0
 10
178.106011758
 20
254.0259784194
 30
0.0
 10
177.0331575646
 20
254.3112933613
 30
0.0
 10
176.2124642398
 20
254.3849733843
 30
0.0
 10
175.391774631
 20
254.3112744353
 30
0.0
 10
174.318920366
 20
254.0259818198
 30
0.0
 10
173.0608764592
 20
253.3595616795
 30
0.0
 10
171.7352939667
 20
252.2577712892
 30
0.0
 10
170.5490488815
 20
250.9634054656
 30
0.0
 10
169.475347672
 20
249.544158383
 30
0.0
 10
168.4908138227
 20
248.0403520457
 30
0.0
 10
167.5781781101
 20
246.4767214888
 30
0.0
 10
166.4374583897
 20
244.3291857508
 30
0.0
 10
165.1344657691
 20
241.564403186
 30
0.0
 10
163.7116824854
 20
238.1702023015
 30
0.0
 10
162.3935636156
 20
234.7189431985
 30
0.0
 10
161.5704156196
 20
232.3934304198
 30
0.0
 10
161.1697311159
 20
231.2252805988
 30
0.0
  0
SPLINE
  5
4CF
100
AcDbEntity
  8
RUNDUNGEN
100
AcDbSpline
 62
7
  6
CONTINUOUS
 70
0
 71
3
 72
22
 73
18
 74
0
 42
0.0000001
 43
0.0000001
 44
0.0000000001
 40
0.0
 40
0.0
 40
0.0
 40
0.0
 40
0.1390420657
 40
0.2779422413
 40
0.4164738287
 40
0.554167678
 40
0.622374547
 40
0.6897434661
 40
0.755478171
 40
0.8175299779
 40
0.8454469865
 40
0.8693368088
 40
0.8883522416
 40
0.9059574447
 40
0.9260380136
 40
0.9489057804
 40
1.0
 40
1.0
 40
1.0
 40
1.0
 10
228.7549090372
 20
230.5498063548
 30
0.0
 10
228.7549093013
 20
230.6039489024
 30
0.0
 10
228.7540180106
 20
230.712181086
 30
0.0
 10
228.7497046569
 20
230.8743086362
 30
0.0
 10
228.741816046
 20
231.0357776105
 30
0.0
 10
228.7313669825
 20
231.1695282362
 30
0.0
 10
228.7193795187
 20
231.275270332
 30
0.0
 10
228.7080634675
 20
231.3528670607
 30
0.0
 10
228.6933735675
 20
231.427443815
 30
0.0
 10
228.6769251803
 20
231.4859930727
 30
0.0
 10
228.6585281842
 20
231.5265507496
 30
0.0
 10
228.6424127513
 20
231.5490981794
 30
0.0
 10
228.6210369188
 20
231.5624549275
 30
0.0
 10
228.5978779854
 20
231.5575624429
 30
0.0
 10
228.5789869341
 20
231.5430010841
 30
0.0
 10
228.5552263835
 20
231.514960817
 30
0.0
 10
228.5404479717
 20
231.4900617313
 30
0.0
 10
228.5309821138
 20
231.4725618579
 30
0.0
  0
SPLINE
  5
4D0
100
AcDbEntity
  8
RUNDUNGEN
100
AcDbSpline
 62
7
  6
CONTINUOUS
 70
0
 71
3
 72
9
 73
5
 74
0
 42
0.0000001
 43
0.0000001
 44
0.0000000001
 40
0.0
 40
0.0
 40
0.0
 40
0.0
 40
0.5000136384
 40
1.0
 40
1.0
 40
1.0
 40
1.0
 10
330.4390206836
 20
231.2252805988
 30
0.0
 10
329.7745882022
 20
232.9015427954
 30
0.0
 10
328.3935043158
 20
236.2335402502
 30
0.0
 10
326.86902817
 20
239.5039936692
 30
0.0
 10
326.0544319242
 20
241.1125345315
 30
0.0
  0
SPLINE
  5
4D1
100
AcDbEntity
  8
RUNDUNGEN
100
AcDbSpline
 62
7
  6
CONTINUOUS
 70
0
 71
3
 72
9
 73
5
 74
0
 42
0.0000001
 43
0.0000001
 44
0.0000000001
 40
0.0
 40
0.0
 40
0.0
 40
0.0
 40
0.5113409211
 40
1.0
 40
1.0
 40
1.0
 40
1.0
 10
300.0544319242
 20
241.1125345315
 30
0.0
 10
300.0923871995
 20
241.1874828406
 30
0.0
 10
300.1692549795
 20
241.3256196394
 30
0.0
 10
300.3088056496
 20
241.4556950939
 30
0.0
 10
300.389046473
 20
241.4583428976
 30
0.0
  0
SPLINE
  5
4D2
100
AcDbEntity
  8
RUNDUNGEN
100
AcDbSpline
 62
7
  6
CONTINUOUS
 70
0
 71
3
 72
9
 73
5
 74
0
 42
0.0000001
 43
0.0000001
 44
0.0000000001
 40
0.0
 40
0.0
 40
0.0
 40
0.0
 40
0.4999863666
 40
1.0
 40
1.0
 40
1.0
 40
1.0
 10
300.0544319242
 20
241.1125345315
 30
0.0
 10
299.2398356701
 20
239.503993653
 30
0.0
 10
297.7153595431
 20
236.2335402255
 30
0.0
 10
296.3342756393
 20
232.9015427783
 30
0.0
 10
295.6698431647
 20
231.2252805988
 30
0.0
  0
SPLINE
  5
4D3
100
AcDbEntity
  8
BEZUGSACHSEN
100
AcDbSpline
 62
7
  6
CONTINUOUS
 70
0
 71
3
 72
37
 73
33
 74
0
 42
0.0000001
 43
0.0000001
 44
0.0000000001
 40
0.0
 40
0.0
 40
0.0
 40
0.0
 40
0.0700652517
 40
0.1395379672
 40
0.2081850147
 40
0.2420877422
 40
0.2756162801
 40
0.3086696961
 40
0.3411014139
 40
0.3726912368
 40
0.4031024651
 40
0.431803239
 40
0.4579703128
 40
0.4698007579
 40
0.4806621911
 40
0.4906190103
 40
0.5000002016
 40
0.5093813662
 40
0.5193381482
 40
0.5301997299
 40
0.542029916
 40
0.5681969017
 40
0.596897633
 40
0.6273088635
 40
0.6588987026
 40
0.6913303972
 40
0.7243837584
 40
0.7579123058
 40
0.7918150179
 40
0.8604620519
 40
0.9299347532
 40
1.0
 40
1.0
 40
1.0
 40
1.0
 10
291.4829738409
 20
231.2252805988
 30
0.0
 10
291.2514091932
 20
232.3909090768
 30
0.0
 10
290.7761635316
 20
234.7095582068
 30
0.0
 10
290.0136463599
 20
238.1575212501
 30
0.0
 10
289.3256652958
 20
240.9933366768
 30
0.0
 10
288.7336210035
 20
243.2242876427
 30
0.0
 10
288.267734926
 20
244.8638527805
 30
0.0
 10
287.7740573385
 20
246.4692295507
 30
0.0
 10
287.2470895709
 20
248.0294533092
 30
0.0
 10
286.6797651409
 20
249.5277570439
 30
0.0
 10
286.0633384823
 20
250.9385100969
 30
0.0
 10
285.3875445045
 20
252.2187122509
 30
0.0
 10
284.744069786
 20
253.1564661279
 30
0.0
 10
284.1680285927
 20
253.7553354988
 30
0.0
 10
283.7253971654
 20
254.092961063
 30
0.0
 10
283.2572511994
 20
254.3133186168
 30
0.0
 10
282.7686691887
 20
254.3914587383
 30
0.0
 10
282.2800942957
 20
254.3132996747
 30
0.0
 10
281.8119389054
 20
254.0929591656
 30
0.0
 10
281.3693203705
 20
253.7553183872
 30
0.0
 10
280.7932766174
 20
253.1564585922
 30
0.0
 10
280.1498101986
 20
252.2187048911
 30
0.0
 10
279.4740160106
 20
250.9385063312
 30
0.0
 10
278.8575914234
 20
249.5277524434
 30
0.0
 10
278.290269208
 20
248.0294480685
 30
0.0
 10
277.763302532
 20
246.4692250645
 30
0.0
 10
277.2696223632
 20
244.8638503001
 30
0.0
 10
276.8037389012
 20
243.2242854704
 30
0.0
 10
276.2116936761
 20
240.9933351118
 30
0.0
 10
275.5237133932
 20
238.157520227
 30
0.0
 10
274.7611959574
 20
234.7095578202
 30
0.0
 10
274.2859504018
 20
232.3909089953
 30
0.0
 10
274.0543857703
 20
231.2252805988
 30
0.0
  0
SPLINE
  5
4D4
100
AcDbEntity
  8
BEZUGSACHSEN
100
AcDbSpline
 62
7
  6
CONTINUOUS
 70
0
 71
3
 72
37
 73
33
 74
0
 42
0.0000001
 43
0.0000001
 44
0.0000000001
 40
0.0
 40
0.0
 40
0.0
 40
0.0
 40
0.0700665745
 40
0.1395404349
 40
0.2081883821
 40
0.2420914361
 40
0.2756201938
 40
0.3086736956
 40
0.3411053334
 40
0.3726948663
 40
0.4031055437
 40
0.4318054703
 40
0.4579714668
 40
0.469801388
 40
0.4806624195
 40
0.4906190368
 40
0.5000002015
 40
0.5093813395
 40
0.5193379198
 40
0.5301990997
 40
0.5420287621
 40
0.5681946704
 40
0.5968945544
 40
0.627305234
 40
0.6588947831
 40
0.6913263976
 40
0.7243798446
 40
0.7579086118
 40
0.7918116505
 40
0.8604595842
 40
0.9299334304
 40
1.0
 40
1.0
 40
1.0
 40
1.0
 10
352.0543857703
 20
231.2252805988
 30
0.0
 10
351.8228503279
 20
232.3906692345
 30
0.0
 10
351.3476642417
 20
234.7088378881
 30
0.0
 10
350.5852402984
 20
238.1560785935
 30
0.0
 10
349.8973414506
 20
240.9912900033
 30
0.0
 10
349.3053669551
 20
243.2217556617
 30
0.0
 10
348.83953636
 20
244.860955055
 30
0.0
 10
348.345917719
 20
246.4659645879
 30
0.0
 10
347.8190137681
 20
248.0258196887
 30
0.0
 10
347.2517598793
 20
249.5237539282
 30
0.0
 10
346.635413301
 20
250.9341386821
 30
0.0
 10
345.9597135892
 20
252.2139808525
 30
0.0
 10
345.3163357303
 20
253.151446216
 30
0.0
 10
344.7403948645
 20
253.750109577
 30
0.0
 10
344.2978476509
 20
254.0876103377
 30
0.0
 10
343.8297998603
 20
254.3078792909
 30
0.0
 10
343.3413308113
 20
254.385985655
 30
0.0
 10
342.8528688721
 20
254.3078603647
 30
0.0
 10
342.384811666
 20
254.0876084422
 30
0.0
 10
341.9422773357
 20
253.7500924738
 30
0.0
 10
341.3663339122
 20
253.151438684
 30
0.0
 10
340.7229643478
 20
252.2139734943
 30
0.0
 10
340.0472644279
 20
250.9341349159
 30
0.0
 10
339.4309199217
 20
249.5237493272
 30
0.0
 10
338.8636682457
 20
248.0258144495
 30
0.0
 10
338.3367653837
 20
246.4659601049
 30
0.0
 10
337.8431441655
 20
244.8609525766
 30
0.0
 10
337.3773161837
 20
243.2217534913
 30
0.0
 10
336.785340755
 20
240.9912884403
 30
0.0
 10
336.0974426887
 20
238.1560775716
 30
0.0
 10
335.3350184814
 20
234.7088375021
 30
0.0
 10
334.8598325011
 20
232.3906691531
 30
0.0
 10
334.6282970749
 20
231.2252805988
 30
0.0
  0
SPLINE
  5
4D5
100
AcDbEntity
  8
BEZUGSACHSEN
100
AcDbSpline
 62
7
  6
CONTINUOUS
 70
0
 71
3
 72
11
 73
7
 74
0
 42
0.0000001
 43
0.0000001
 44
0.0000000001
 40
0.0
 40
0.0
 40
0.0
 40
0.0
 40
0.2512083637
 40
0.500000059
 40
0.7487916841
 40
1.0
 40
1.0
 40
1.0
 40
1.0
 10
334.6282970749
 20
231.2252805988
 30
0.0
 10
334.2949785427
 20
231.3602662733
 30
0.0
 10
333.6071540838
 20
231.574430925
 30
0.0
 10
332.5336587228
 20
231.6872913772
 30
0.0
 10
331.4601634383
 20
231.5744308788
 30
0.0
 10
330.7723391524
 20
231.3602662477
 30
0.0
 10
330.4390206836
 20
231.2252805988
 30
0.0
  0
SPLINE
  5
4D6
100
AcDbEntity
  8
RUNDUNGEN
100
AcDbSpline
 62
7
  6
CONTINUOUS
 70
0
 71
3
 72
9
 73
5
 74
0
 42
0.0000001
 43
0.0000001
 44
0.0000000001
 40
0.0
 40
0.0
 40
0.0
 40
0.0
 40
0.4886590821
 40
1.0
 40
1.0
 40
1.0
 40
1.0
 10
325.7198173753
 20
241.4583429087
 30
0.0
 10
325.8000582002
 20
241.4556951049
 30
0.0
 10
325.9396088651
 20
241.3256196379
 30
0.0
 10
326.0164766486
 20
241.1874828411
 30
0.0
 10
326.0544319242
 20
241.1125345315
 30
0.0
  0
SPLINE
  5
4D7
100
AcDbEntity
  8
RUNDUNGEN
100
AcDbSpline
 62
7
  6
CONTINUOUS
 70
0
 71
3
 72
13
 73
9
 74
0
 42
0.0000001
 43
0.0000001
 44
0.0000000001
 40
0.0
 40
0.0
 40
0.0
 40
0.0
 40
0.0271693328
 40
0.0826234037
 40
0.1695246546
 40
0.2866494423
 40
0.601722937
 40
1.0
 40
1.0
 40
1.0
 40
1.0
 10
325.0544319242
 20
241.5459145753
 30
0.0
 10
325.0544319243
 20
241.5397699527
 30
0.0
 10
325.0725329099
 20
241.5261406822
 30
0.0
 10
325.1071393438
 20
241.5156673373
 30
0.0
 10
325.1655081887
 20
241.5023657766
 30
0.0
 10
325.2811390539
 20
241.4855736896
 30
0.0
 10
325.4687527196
 20
241.4689053611
 30
0.0
 10
325.6297919428
 20
241.461313587
 30
0.0
 10
325.7198173753
 20
241.4583429087
 30
0.0
  0
SPLINE
  5
4D8
100
AcDbEntity
  8
RUNDUNGEN
100
AcDbSpline
 62
7
  6
CONTINUOUS
 70
0
 71
3
 72
13
 73
9
 74
0
 42
0.0000001
 43
0.0000001
 44
0.0000000001
 40
0.0
 40
0.0
 40
0.0
 40
0.0
 40
0.0271693366
 40
0.08262341
 40
0.1695246607
 40
0.2866494473
 40
0.6017229398
 40
1.0
 40
1.0
 40
1.0
 40
1.0
 10
301.0544319242
 20
241.5459145753
 30
0.0
 10
301.0544319241
 20
241.5397699518
 30
0.0
 10
301.03633094
 20
241.5261406779
 30
0.0
 10
301.0017245055
 20
241.5156673263
 30
0.0
 10
300.9433556601
 20
241.5023657658
 30
0.0
 10
300.8277247944
 20
241.4855736796
 30
0.0
 10
300.6401111289
 20
241.4689053498
 30
0.0
 10
300.4790719055
 20
241.461313576
 30
0.0
 10
300.389046473
 20
241.4583428976
 30
0.0
  0
SPLINE
  5
4D9
100
AcDbEntity
  8
BEZUGSACHSEN
100
AcDbSpline
 62
7
  6
CONTINUOUS
 70
0
 71
3
 72
11
 73
7
 74
0
 42
0.0000001
 43
0.0000001
 44
0.0000000001
 40
0.0
 40
0.0
 40
0.0
 40
0.0
 40
0.2512068121
 40
0.5000000589
 40
0.7487932357
 40
1.0
 40
1.0
 40
1.0
 40
1.0
 10
295.6698431647
 20
231.2252805988
 30
0.0
 10
295.3366991432
 20
231.3601123407
 30
0.0
 10
294.6492554243
 20
231.5740204087
 30
0.0
 10
293.5764083465
 20
231.6867378118
 30
0.0
 10
292.5035613451
 20
231.5740203625
 30
0.0
 10
291.8161177989
 20
231.360112315
 30
0.0
 10
291.4829738409
 20
231.2252805988
 30
0.0
  0
ENDSEC
  0
SECTION
  2
OBJECTS
  0
DICTIONARY
  5
C
100
AcDbDictionary
280
0
281
1
  3
ACAD_GROUP
350
D
  3
ACAD_MLINESTYLE
350
17
  3
ACAD_LAYOUT
350
1A
  3
ACAD_PLOTSETTINGS
350
19
  3
ACAD_PLOTSTYLENAME
350
E
  0
DICTIONARY
  5
D
102
{ACAD_REACTORS
330
C
102
}
100
AcDbDictionary
280
0
281
1
  0
ACDBDICTIONARYWDFLT
  5
E
102
{ACAD_REACTORS
330
C
102
}
100
AcDbDictionary
281
1
  3
Normal
350
F
100
AcDbDictionaryWithDefault
340
F
  0
DICTIONARY
  5
17
102
{ACAD_REACTORS
330
C
102
}
100
AcDbDictionary
280
0
281
1
  3
Standard
350
18
  0
DICTIONARY
  5
19
102
{ACAD_REACTORS
330
C
102
}
100
AcDbDictionary
281
1
  0
DICTIONARY
  5
1A
102
{ACAD_REACTORS
330
C
102
}
100
AcDbDictionary
281
1
  3
Model
350
4DA
  3
Layout1
350
4DB
  0
ACDBPLACEHOLDER
  5
F
102
{ACAD_REACTORS
330
E
102
}
  0
MLINESTYLE
  5
18
102
{ACAD_REACTORS
330
17
102
}
100
AcDbMlineStyle
  2
STANDARD
 70
0
  3

 62
256
 51
90.0
 52
90.0
 71
2
 49
0.5
 62
256
  6
BYLAYER
 49
-0.5
 62
256
  6
BYLAYER
  0
LAYOUT
  5
4DA
102
{ACAD_REACTORS
330
1A
102
}
100
AcDbPlotSettings
  1

  2
none_device
  4
ISO_A2_(594.00_x_420.00_MM)
  6

 40
0.0
 41
0.0
 42
0.0
 43
0.0
 44
594.0
 45
420.0
 46
0.0
 47
0.0
 48
0.0
 49
0.0
140
0.0
141
0.0
142
1.0
143
1.0
 70
1024
 72
1
 73
0
 74
0
  7

 75
0
147
1.0
148
0.0
149
0.0
100
AcDbLayout
  1
Model
 70
0
 71
0
 10
0.0
 20
0.0
 11
594.0
 21
420.0
 12
0.0
 22
0.0
 32
0.0
 14
0.0
 24
0.0
 34
0.0
 15
0.0
 25
0.0
 35
0.0
146
0.0
 13
0.0
 23
0.0
 33
0.0
 16
1.0
 26
0.0
 36
0.0
 17
0.0
 27
1.0
 37
0.0
 76
0
330
216
345
0
346
0
  0
LAYOUT
  5
4DB
102
{ACAD_REACTORS
330
1A
102
}
100
AcDbPlotSettings
  1

  2
none_device
  4
ISO_A2_(594.00_x_420.00_MM)
  6

 40
0.0
 41
0.0
 42
0.0
 43
0.0
 44
594.0
 45
420.0
 46
0.0
 47
0.0
 48
0.0
 49
0.0
140
0.0
141
0.0
142
1.0
143
1.0
 70
0
 72
1
 73
0
 74
0
  7

 75
0
147
1.0
148
0.0
149
0.0
100
AcDbLayout
  1
Layout1
 70
0
 71
1
 10
0.0
 20
0.0
 11
594.0
 21
420.0
 12
0.0
 22
0.0
 32
0.0
 14
0.0
 24
0.0
 34
0.0
 15
0.0
 25
0.0
 35
0.0
146
0.0
 13
0.0
 23
0.0
 33
0.0
 16
1.0
 26
0.0
 36
0.0
 17
0.0
 27
1.0
 37
0.0
 76
0
330
217
345
0
346
0
  0
ENDSEC
  0
EOF
