999
DXF file: 001-m31711-p-30.dxf
999
Pro/ENGINEER 2011490 by Parametric Technology Corporation
  0
SECTION
  2
HEADER
  9
$ACADVER
  1
AC1015
  9
$DWGCODEPAGE
  3
ANSI_1252
  9
$EXTMAX
 10
420.0
 20
297.0
 30
0.0
  9
$EXTMIN
 10
0.0
 20
0.0
 30
0.0
  9
$LIMMIN
 10
0.0
 20
0.0
  9
$LIMMAX
 10
420.0
 20
297.0
  9
$VIEWCTR
 10
210.0
 20
148.5
  9
$VIEWSIZE
 40
297.0
  9
$CLAYER
  8
0
  9
$LTSCALE
 40
23.1
  9
$CELTYPE
  6
BYLAYER
  9
$DIMSCALE
 40
1.0
  9
$DIMASZ
 40
3.5
  9
$DIMEXO
 40
2.625
  9
$DIMDLI
 40
15.96
  9
$DIMEXE
 40
7.56
  9
$DIMCEN
 40
3.78
  9
$DIMLFAC
 40
1.0
  9
$DIMBLK
  1
_FILLED
  9
$DIMTXT
 40
3.5
  9
$DIMTOL
 70
1
  9
$DIMLIM
 70
0
  9
$DIMTFAC
 40
1.0
  9
$DIMTP
 40
0.005
  9
$DIMTM
 40
0.005
  9
$PDMODE
 70
3
  9
$PDSIZE
 40
0.3125
  9
$HANDSEED
  5
4BF
  9
$TILEMODE
 70
1
  9
$MEASUREMENT
 70
1
  9
$INSUNITS
 70
4
  0
ENDSEC
  0
SECTION
  2
CLASSES
  0
CLASS
  1
ACDBDICTIONARYWDFLT
  2
AcDbDictionaryWithDefault
  3
AutoCAD 2000
 90
0
280
0
281
0
  0
CLASS
  1
ACDBPLACEHOLDER
  2
AcDbPlaceHolder
  3
AutoCAD 2000
 90
0
280
0
281
0
  0
CLASS
  1
LAYOUT
  2
AcDbLayout
  3
AutoCAD 2000
 90
0
280
0
281
0
  0
ENDSEC
  0
SECTION
  2
TABLES
  0
TABLE
  2
VPORT
  5
8
100
AcDbSymbolTable
 70
2
  0
VPORT
  5
1F4
100
AcDbSymbolTableRecord
100
AcDbViewportTableRecord
  2
*ACTIVE
 70
0
 10
0.0
 20
0.0
 11
1.0
 21
1.0
 12
210.0
 22
148.5
 13
0.0
 23
0.0
 14
1.0
 24
1.0
 15
0.0
 25
0.0
 16
0.0
 26
0.0
 36
1.0
 17
0.0
 27
0.0
 37
0.0
 40
297.0
 41
1.4141414141
 42
50.0
 43
0.0
 44
0.0
 50
0.0
 51
0.0
 71
0
 72
100
 73
1
 74
1
 75
0
 76
0
 77
0
 78
0
  0
ENDTAB
  0
TABLE
  2
LTYPE
  5
5
100
AcDbSymbolTable
 70
6
  0
LTYPE
  5
14
100
AcDbSymbolTableRecord
100
AcDbLinetypeTableRecord
  2
BYBLOCK
 70
0
  3

 72
65
 73
0
 40
0.0
  0
LTYPE
  5
15
100
AcDbSymbolTableRecord
100
AcDbLinetypeTableRecord
  2
BYLAYER
 70
0
  3

 72
65
 73
0
 40
0.0
  0
LTYPE
  5
16
100
AcDbSymbolTableRecord
100
AcDbLinetypeTableRecord
  2
CONTINUOUS
 70
64
  3
Solid line
 72
65
 73
0
 40
0.0
  0
LTYPE
  5
1F5
100
AcDbSymbolTableRecord
100
AcDbLinetypeTableRecord
  2
CENTER
 70
64
  3
____ _ ____ _ ____ _ ____ _ ____ _ ____ _ ____
 72
65
 73
4
 40
0.6
 49
0.375
 74
0
 49
-0.075
 74
0
 49
0.075
 74
0
 49
-0.075
 74
0
  0
LTYPE
  5
1F6
100
AcDbSymbolTableRecord
100
AcDbLinetypeTableRecord
  2
HIDDEN
 70
64
  3
- - - - - - - - - - - - - - - - - - - -
 72
65
 73
2
 40
0.2
 49
0.1
 74
0
 49
-0.1
 74
0
  0
LTYPE
  5
1F7
100
AcDbSymbolTableRecord
100
AcDbLinetypeTableRecord
  2
PHANTOM
 70
64
  3
_____ _ _ _____ _ _ _____ _ _ _____
 72
65
 73
6
 40
0.8
 49
0.45
 74
0
 49
-0.05
 74
0
 49
0.1
 74
0
 49
-0.05
 74
0
 49
0.1
 74
0
 49
-0.05
 74
0
  0
LTYPE
  5
1F8
100
AcDbSymbolTableRecord
100
AcDbLinetypeTableRecord
  2
DOT
 70
64
  3
. . . . . . . . . . . . . . . . . . . .
 72
65
 73
2
 40
0.2
 49
0.1
 74
0
 49
-0.1
 74
0
  0
LTYPE
  5
1F9
100
AcDbSymbolTableRecord
100
AcDbLinetypeTableRecord
  2
DASHED
 70
64
  3
- - - - - - - - - - - - - - - - - - - -
 72
65
 73
2
 40
0.2
 49
0.1
 74
0
 49
-0.1
 74
0
  0
ENDTAB
  0
TABLE
  2
LAYER
  5
2
100
AcDbSymbolTable
 70
36
  0
LAYER
  5
10
100
AcDbSymbolTableRecord
100
AcDbLayerTableRecord
  2
0
 70
0
 62
7
  6
CONTINUOUS
370
-3
390
F
  0
LAYER
  5
1FA
100
AcDbSymbolTableRecord
100
AcDbLayerTableRecord
  2
DEFAULT_1
 70
0
 62
7
  6
CENTER
370
-3
390
F
  0
LAYER
  5
1FB
100
AcDbSymbolTableRecord
100
AcDbLayerTableRecord
  2
DEFAULT_2
 70
0
 62
8
  6
HIDDEN
370
-3
390
F
  0
LAYER
  5
1FC
100
AcDbSymbolTableRecord
100
AcDbLayerTableRecord
  2
DEFAULT_3
 70
0
 62
7
  6
PHANTOM
370
-3
390
F
  0
LAYER
  5
1FD
100
AcDbSymbolTableRecord
100
AcDbLayerTableRecord
  2
AUSFORMSCHRAEGEN
 70
0
 62
7
  6
CONTINUOUS
370
-3
390
F
  0
LAYER
  5
1FE
100
AcDbSymbolTableRecord
100
AcDbLayerTableRecord
  2
B-EBENEN
 70
0
 62
7
  6
CONTINUOUS
370
-3
390
F
  0
LAYER
  5
1FF
100
AcDbSymbolTableRecord
100
AcDbLayerTableRecord
  2
B-KOORSYS
 70
0
 62
7
  6
CONTINUOUS
370
-3
390
F
  0
LAYER
  5
200
100
AcDbSymbolTableRecord
100
AcDbLayerTableRecord
  2
B-KURVEN
 70
0
 62
7
  6
CONTINUOUS
370
-3
390
F
  0
LAYER
  5
201
100
AcDbSymbolTableRecord
100
AcDbLayerTableRecord
  2
BEMASSUNG
 70
0
 62
7
  6
CONTINUOUS
370
-3
390
F
  0
LAYER
  5
202
100
AcDbSymbolTableRecord
100
AcDbLayerTableRecord
  2
BEZUGSACHSEN
 70
0
 62
7
  6
CONTINUOUS
370
-3
390
F
  0
LAYER
  5
203
100
AcDbSymbolTableRecord
100
AcDbLayerTableRecord
  2
BEZUGSEBENEN
 70
0
 62
7
  6
CONTINUOUS
370
-3
390
F
  0
LAYER
  5
204
100
AcDbSymbolTableRecord
100
AcDbLayerTableRecord
  2
BEZUGSPUNKTE
 70
0
 62
7
  6
CONTINUOUS
370
-3
390
F
  0
LAYER
  5
205
100
AcDbSymbolTableRecord
100
AcDbLayerTableRecord
  2
BG_STARTBEZUEGE
 70
0
 62
7
  6
CONTINUOUS
370
-3
390
F
  0
LAYER
  5
206
100
AcDbSymbolTableRecord
100
AcDbLayerTableRecord
  2
FASEN
 70
0
 62
7
  6
CONTINUOUS
370
-3
390
F
  0
LAYER
  5
207
100
AcDbSymbolTableRecord
100
AcDbLayerTableRecord
  2
FLAECHEN
 70
0
 62
7
  6
CONTINUOUS
370
-3
390
F
  0
LAYER
  5
208
100
AcDbSymbolTableRecord
100
AcDbLayerTableRecord
  2
FLAECHENVERBUND
 70
0
 62
7
  6
CONTINUOUS
370
-3
390
F
  0
LAYER
  5
209
100
AcDbSymbolTableRecord
100
AcDbLayerTableRecord
  2
HILFEN
 70
0
 62
7
  6
CONTINUOUS
370
-3
390
F
  0
LAYER
  5
20A
100
AcDbSymbolTableRecord
100
AcDbLayerTableRecord
  2
KONSTRUKTIONSELEMENTE
 70
0
 62
7
  6
CONTINUOUS
370
-3
390
F
  0
LAYER
  5
20B
100
AcDbSymbolTableRecord
100
AcDbLayerTableRecord
  2
KURVEN
 70
0
 62
7
  6
CONTINUOUS
370
-3
390
F
  0
LAYER
  5
20C
100
AcDbSymbolTableRecord
100
AcDbLayerTableRecord
  2
KURVENELEMENTE
 70
0
 62
7
  6
CONTINUOUS
370
-3
390
F
  0
LAYER
  5
20D
100
AcDbSymbolTableRecord
100
AcDbLayerTableRecord
  2
NORM
 70
0
 62
7
  6
CONTINUOUS
370
-3
390
F
  0
LAYER
  5
20E
100
AcDbSymbolTableRecord
100
AcDbLayerTableRecord
  2
NOTIZEN
 70
0
 62
7
  6
CONTINUOUS
370
-3
390
F
  0
LAYER
  5
20F
100
AcDbSymbolTableRecord
100
AcDbLayerTableRecord
  2
PLATZIERUNG
 70
0
 62
7
  6
CONTINUOUS
370
-3
390
F
  0
LAYER
  5
210
100
AcDbSymbolTableRecord
100
AcDbLayerTableRecord
  2
RUNDUNGEN
 70
0
 62
7
  6
CONTINUOUS
370
-3
390
F
  0
LAYER
  5
211
100
AcDbSymbolTableRecord
100
AcDbLayerTableRecord
  2
TEIL_STARTBEZUEGE
 70
0
 62
7
  6
CONTINUOUS
370
-3
390
F
  0
LAYER
  5
212
100
AcDbSymbolTableRecord
100
AcDbLayerTableRecord
  2
T_STARTBEZUEGE
 70
0
 62
7
  6
CONTINUOUS
370
-3
390
F
  0
LAYER
  5
213
100
AcDbSymbolTableRecord
100
AcDbLayerTableRecord
  2
ZEICHNUNGSBEMASSUNGEN
 70
0
 62
7
  6
CONTINUOUS
370
-3
390
F
  0
ENDTAB
  0
TABLE
  2
STYLE
  5
3
100
AcDbSymbolTable
 70
1
  0
STYLE
  5
11
100
AcDbSymbolTableRecord
100
AcDbTextStyleTableRecord
  2
STANDARD
 70
0
 40
0.0
 41
0.7
 50
0.0
 71
0
 42
0.2
  3
txt
  4

  0
STYLE
  5
214
100
AcDbSymbolTableRecord
100
AcDbTextStyleTableRecord
  2
TEXTSTYLE_1
 70
0
 40
0.0
 41
0.8
 50
0.0
 71
0
 42
0.2
  3
gdt
  4

  0
ENDTAB
  0
TABLE
  2
VIEW
  5
6
100
AcDbSymbolTable
 70
0
  0
ENDTAB
  0
TABLE
  2
UCS
  5
7
100
AcDbSymbolTable
 70
0
  0
ENDTAB
  0
TABLE
  2
APPID
  5
9
100
AcDbSymbolTable
 70
1
  0
APPID
  5
215
100
AcDbSymbolTableRecord
100
AcDbRegAppTableRecord
  2
ACAD
 70
0
  0
ENDTAB
  0
TABLE
  2
BLOCK_RECORD
  5
1
100
AcDbSymbolTable
 70
0
  0
BLOCK_RECORD
  5
216
100
AcDbSymbolTableRecord
100
AcDbBlockTableRecord
  2
*Model_Space
  0
BLOCK_RECORD
  5
217
100
AcDbSymbolTableRecord
100
AcDbBlockTableRecord
  2
*Paper_Space
  0
ENDTAB
  0
TABLE
  2
DIMSTYLE
  5
A
100
AcDbSymbolTable
 70
1
100
AcDbDimStyleTable
 71
0
  0
DIMSTYLE
105
218
100
AcDbSymbolTableRecord
100
AcDbDimStyleTableRecord
  2
STANDARD
 70
0
  3

  4

 40
1.0
 41
3.5
 42
0.0625
 43
0.38
 44
0.18
 45
0.0
 46
0.0
 47
0.005
 48
0.005
140
3.5
141
0.09
142
0.0
143
25.4
144
1.0
145
0.0
146
1.0
147
0.09
 71
1.0
 72
0.0
 73
0
 74
0
 75
0
 76
0
 77
1
 78
8
170
0
171
2
172
0
173
0
174
0
175
0
176
0
177
0
178
5
270
2
271
3
272
3
273
2
274
2
275
0
280
0
281
0
282
0
283
1
284
8
285
0
286
0
287
3
288
0
340
11
  0
ENDTAB
  0
ENDSEC
  0
SECTION
  2
BLOCKS
  0
BLOCK
  5
20
100
AcDbEntity
  8
0
100
AcDbBlockBegin
  2
*Model_Space
 70
0
 10
0.0
 20
0.0
 30
0.0
  3
*Model_Space
  1

  0
ENDBLK
  5
21
100
AcDbEntity
  8
0
100
AcDbBlockEnd
  0
BLOCK
  5
1C
100
AcDbEntity
  8
0
100
AcDbBlockBegin
  2
*Paper_Space
 70
0
 10
0.0
 20
0.0
 30
0.0
  3
*Paper_Space
  1

  0
ENDBLK
  5
1D
100
AcDbEntity
  8
0
100
AcDbBlockEnd
  0
ENDSEC
  0
SECTION
  2
ENTITIES
  0
MTEXT
  5
219
100
AcDbEntity
  8
0
100
AcDbMText
 62
5
  6
CONTINUOUS
  7
STANDARD
 71
1
 72
1
 10
148.6411069478
 20
63.5160115878
 30
0.0
 11
1.0
 21
0.0
 31
0.0
 44
0.9
  1
VWBG-V\P2t M22
 40
5.0
 41
27.5
  0
MTEXT
  5
21A
100
AcDbEntity
  8
0
100
AcDbMText
 62
5
  6
CONTINUOUS
  7
STANDARD
 71
1
 72
1
 10
135.5868584618
 20
166.6590937472
 30
0.0
 11
1.0
 21
0.0
 31
0.0
 44
0.9
  1
RUD VWBG-V \P2t M22
 40
6.0
 41
57.2857142857
  0
LINE
  5
21B
100
AcDbEntity
  8
0
100
AcDbLine
 62
7
  6
CONTINUOUS
 10
0.0
 20
0.0
 11
0.0
 21
297.0
  0
LINE
  5
21C
100
AcDbEntity
  8
0
100
AcDbLine
 62
7
  6
CONTINUOUS
 10
0.0
 20
0.0
 11
420.0
 21
0.0
  0
LINE
  5
21D
100
AcDbEntity
  8
0
100
AcDbLine
 62
7
  6
CONTINUOUS
 10
0.0
 20
297.0
 11
420.0
 21
297.0
  0
LINE
  5
21E
100
AcDbEntity
  8
0
100
AcDbLine
 62
7
  6
CONTINUOUS
 10
420.0
 20
0.0
 11
420.0
 21
297.0
  0
LINE
  5
21F
100
AcDbEntity
  8
0
100
AcDbLine
 62
7
  6
CONTINUOUS
 10
169.5915739999
 20
104.3976431193
 11
152.5915739999
 21
104.3976431193
  0
LINE
  5
220
100
AcDbEntity
  8
0
100
AcDbLine
 62
7
  6
CONTINUOUS
 10
172.0915739999
 20
106.8976431193
 11
150.0915739999
 21
106.8976431193
  0
LINE
  5
221
100
AcDbEntity
  8
0
100
AcDbLine
 62
7
  6
CONTINUOUS
 10
150.0915739999
 20
106.8976431193
 11
152.5915739999
 21
104.3976431193
  0
LINE
  5
222
100
AcDbEntity
  8
0
100
AcDbLine
 62
7
  6
CONTINUOUS
 10
188.5915739999
 20
137.3976431193
 11
133.5915739999
 21
137.3976431193
  0
LINE
  5
223
100
AcDbEntity
  8
0
100
AcDbLine
 62
7
  6
CONTINUOUS
 10
132.1550823268
 20
158.0976431193
 11
131.5915739999
 21
158.0976431193
  0
LINE
  5
224
100
AcDbEntity
  8
RUNDUNGEN
100
AcDbLine
 62
7
  6
CONTINUOUS
 10
132.1550823268
 20
158.0976431193
 11
131.5915739999
 21
158.0976431193
  0
LINE
  5
225
100
AcDbEntity
  8
RUNDUNGEN
100
AcDbLine
 62
7
  6
CONTINUOUS
 10
132.1572089837
 20
158.0976194293
 11
132.2437545137
 21
158.0944755195
  0
LWPOLYLINE
  5
226
100
AcDbEntity
  8
RUNDUNGEN
100
AcDbPolyline
 62
7
  6
CONTINUOUS
 90
14
 70
0
 10
132.2437545137
 20
158.0944755195
 10
132.3429067799
 20
158.0837648149
 10
132.4508333336
 20
158.0636765709
 10
132.5637224397
 20
158.0331165697
 10
132.6784992202
 20
157.9915236335
 10
132.7930577604
 20
157.9385294867
 10
132.9046421538
 20
157.8745594501
 10
133.0127368866
 20
157.7991199225
 10
133.1162334937
 20
157.7119323879
 10
133.213598926
 20
157.6130792908
 10
133.3033149444
 20
157.5027542616
 10
133.3838176805
 20
157.3813195053
 10
133.4534880811
 20
157.2493616844
 10
133.5107070478
 20
157.1076520604
  0
LWPOLYLINE
  5
227
100
AcDbEntity
  8
RUNDUNGEN
100
AcDbPolyline
 62
7
  6
CONTINUOUS
 90
3
 70
0
 10
133.5107070478
 20
157.1076520604
 10
133.5538436955
 20
156.957224952
 10
133.581294716
 20
156.7994136596
  0
LINE
  5
228
100
AcDbEntity
  8
RUNDUNGEN
100
AcDbLine
 62
7
  6
CONTINUOUS
 10
130.5915739999
 20
175.0976431193
 11
130.5915739999
 21
159.0976431193
  0
LINE
  5
229
100
AcDbEntity
  8
0
100
AcDbLine
 62
7
  6
CONTINUOUS
 10
130.5915739999
 20
221.8976431193
 11
130.5915739999
 21
256.8976431193
  0
LINE
  5
22A
100
AcDbEntity
  8
0
100
AcDbLine
 62
7
  6
CONTINUOUS
 10
133.5915739999
 20
156.9515729061
 11
133.5915739999
 21
137.3976431193
  0
LINE
  5
22B
100
AcDbEntity
  8
RUNDUNGEN
100
AcDbLine
 62
7
  6
CONTINUOUS
 10
133.5915739999
 20
156.9515729061
 11
133.5915739999
 21
166.1029117111
  0
LINE
  5
22C
100
AcDbEntity
  8
0
100
AcDbLine
 62
7
  6
CONTINUOUS
 10
134.8560073327
 20
156.9515729061
 11
134.8560073327
 21
137.3976431193
  0
LINE
  5
22D
100
AcDbEntity
  8
0
100
AcDbLine
 62
7
  6
CONTINUOUS
 10
135.0915739999
 20
180.3976431193
 11
135.0915739999
 21
178.3976431193
  0
LINE
  5
22E
100
AcDbEntity
  8
BEZUGSACHSEN
100
AcDbLine
 62
7
  6
CONTINUOUS
 10
135.5915739999
 20
180.3976431193
 11
135.5915739999
 21
182.3976431193
  0
LINE
  5
22F
100
AcDbEntity
  8
BEZUGSACHSEN
100
AcDbLine
 62
7
  6
CONTINUOUS
 10
133.6494466309
 20
177.4128353663
 11
133.6339673712
 21
177.3250481221
  0
LINE
  5
230
100
AcDbEntity
  8
0
100
AcDbLine
 62
7
  6
CONTINUOUS
 10
132.1611524767
 20
176.0976431193
 11
131.5915739999
 21
176.0976431193
  0
LINE
  5
231
100
AcDbEntity
  8
FASEN
100
AcDbLine
 62
7
  6
CONTINUOUS
 10
188.5337013688
 20
177.4128353663
 11
133.6494466309
 21
177.4128353663
  0
LINE
  5
232
100
AcDbEntity
  8
0
100
AcDbLine
 62
7
  6
CONTINUOUS
 10
143.5915739999
 20
221.8976431193
 11
143.5915739999
 21
256.8976431193
  0
LINE
  5
233
100
AcDbEntity
  8
FASEN
100
AcDbLine
 62
7
  6
CONTINUOUS
 10
187.3597453199
 20
178.3976431193
 11
134.8234026798
 21
178.3976431193
  0
LINE
  5
234
100
AcDbEntity
  8
0
100
AcDbLine
 62
7
  6
CONTINUOUS
 10
187.091119556
 20
180.3976431193
 11
135.0920284437
 21
180.3976431193
  0
LINE
  5
235
100
AcDbEntity
  8
0
100
AcDbLine
 62
7
  6
CONTINUOUS
 10
150.0915739999
 20
137.3976431193
 11
150.0915739999
 21
106.8976431193
  0
LINE
  5
236
100
AcDbEntity
  8
0
100
AcDbLine
 62
7
  6
CONTINUOUS
 10
155.0915739999
 20
203.156674501
 11
155.0915739999
 21
207.802407762
  0
LINE
  5
237
100
AcDbEntity
  8
0
100
AcDbLine
 62
7
  6
CONTINUOUS
 10
155.0915739999
 20
207.8152298299
 11
155.0915739999
 21
208.2732386435
  0
LINE
  5
238
100
AcDbEntity
  8
0
100
AcDbLine
 62
7
  6
CONTINUOUS
 10
155.0915739999
 20
208.7354402955
 11
155.0915739999
 21
213.1413309715
  0
LINE
  5
239
100
AcDbEntity
  8
0
100
AcDbLine
 62
7
  6
CONTINUOUS
 10
155.0915739999
 20
213.1466191291
 11
155.0915739999
 21
213.3991191595
  0
LINE
  5
23A
100
AcDbEntity
  8
BEZUGSACHSEN
100
AcDbLine
 62
7
  6
CONTINUOUS
 10
155.2297000391
 20
199.4034025834
 11
150.8504757339
 21
187.3715826901
  0
LINE
  5
23B
100
AcDbEntity
  8
RUNDUNGEN
100
AcDbLine
 62
7
  6
CONTINUOUS
 10
174.0318778751
 20
185.3976431193
 11
174.0317626149
 21
185.3976431126
  0
LINE
  5
23C
100
AcDbEntity
  8
BEZUGSACHSEN
100
AcDbLine
 62
7
  6
CONTINUOUS
 10
148.1508051901
 20
185.3976431193
 11
138.5949028469
 21
185.3976431193
  0
LINE
  5
23D
100
AcDbEntity
  8
BEZUGSACHSEN
100
AcDbLine
 62
7
  6
CONTINUOUS
 10
174.0318778719
 20
185.3976431193
 11
183.5882451528
 21
185.3976431193
  0
LINE
  5
23E
100
AcDbEntity
  8
RUNDUNGEN
100
AcDbLine
 62
7
  6
CONTINUOUS
 10
155.5915739999
 20
217.6502700061
 11
155.5915739999
 21
211.5340450398
  0
LINE
  5
23F
100
AcDbEntity
  8
BEZUGSACHSEN
100
AcDbLine
 62
7
  6
CONTINUOUS
 10
155.5915739999
 20
211.5340450398
 11
155.5915739999
 21
201.4556677393
  0
LINE
  5
240
100
AcDbEntity
  8
0
100
AcDbLine
 62
7
  6
CONTINUOUS
 10
159.827140667
 20
156.9515729061
 11
159.827140667
 21
137.3976431193
  0
LINE
  5
241
100
AcDbEntity
  8
FASEN
100
AcDbLine
 62
7
  6
CONTINUOUS
 10
134.8230948086
 20
178.3976431193
 11
133.6494466309
 21
177.4128353663
  0
LINE
  5
242
100
AcDbEntity
  8
0
100
AcDbLine
 62
7
  6
CONTINUOUS
 10
162.3560073327
 20
156.9515729061
 11
162.3560073327
 21
137.3976431193
  0
LINE
  5
243
100
AcDbEntity
  8
RUNDUNGEN
100
AcDbLine
 62
7
  6
CONTINUOUS
 10
166.5915739999
 20
217.6504665184
 11
166.5915739999
 21
201.4556677393
  0
LINE
  5
244
100
AcDbEntity
  8
FASEN
100
AcDbLine
 62
7
  6
CONTINUOUS
 10
187.3600531911
 20
178.3976431193
 11
188.5337013688
 21
177.4128353663
  0
LINE
  5
245
100
AcDbEntity
  8
RUNDUNGEN
100
AcDbLine
 62
7
  6
CONTINUOUS
 10
166.9534479606
 20
199.4034025834
 11
171.3326722658
 21
187.3715826901
  0
LINE
  5
246
100
AcDbEntity
  8
0
100
AcDbLine
 62
7
  6
CONTINUOUS
 10
172.0915739999
 20
137.3976431193
 11
172.0915739999
 21
106.8976431193
  0
LINE
  5
247
100
AcDbEntity
  8
0
100
AcDbLine
 62
7
  6
CONTINUOUS
 10
155.5915739999
 20
203.156674501
 11
155.0915739999
 21
203.156674501
  0
LINE
  5
248
100
AcDbEntity
  8
0
100
AcDbLine
 62
7
  6
CONTINUOUS
 10
155.5915739999
 20
203.2890358803
 11
155.0915739999
 21
203.2890358803
  0
LINE
  5
249
100
AcDbEntity
  8
0
100
AcDbLine
 62
7
  6
CONTINUOUS
 10
155.5915739999
 20
203.5715184742
 11
155.0915739999
 21
203.5715184742
  0
LINE
  5
24A
100
AcDbEntity
  8
0
100
AcDbLine
 62
7
  6
CONTINUOUS
 10
155.5915739999
 20
203.7873340456
 11
155.0915739999
 21
203.7873340456
  0
LINE
  5
24B
100
AcDbEntity
  8
0
100
AcDbLine
 62
7
  6
CONTINUOUS
 10
155.5915739999
 20
203.9364826293
 11
155.0915739999
 21
203.9364826293
  0
LINE
  5
24C
100
AcDbEntity
  8
0
100
AcDbLine
 62
7
  6
CONTINUOUS
 10
155.5915739999
 20
203.9834490983
 11
155.0915739999
 21
203.9834490983
  0
LINE
  5
24D
100
AcDbEntity
  8
0
100
AcDbLine
 62
7
  6
CONTINUOUS
 10
155.5915739999
 20
204.115810466
 11
155.0915739999
 21
204.115810466
  0
LINE
  5
24E
100
AcDbEntity
  8
0
100
AcDbLine
 62
7
  6
CONTINUOUS
 10
155.5915739999
 20
204.6644701981
 11
155.0915739999
 21
204.6644701981
  0
LINE
  5
24F
100
AcDbEntity
  8
0
100
AcDbLine
 62
7
  6
CONTINUOUS
 10
155.5915739999
 20
204.9291930263
 11
155.0915739999
 21
204.9291930263
  0
LINE
  5
250
100
AcDbEntity
  8
0
100
AcDbLine
 62
7
  6
CONTINUOUS
 10
155.5915739999
 20
205.1785852666
 11
155.0915739999
 21
205.1785852666
  0
LINE
  5
251
100
AcDbEntity
  8
0
100
AcDbLine
 62
7
  6
CONTINUOUS
 10
155.5915739999
 20
205.3128895663
 11
155.0915739999
 21
205.3128895663
  0
LINE
  5
252
100
AcDbEntity
  8
0
100
AcDbLine
 62
7
  6
CONTINUOUS
 10
155.5915739999
 20
205.8994613649
 11
155.0915739999
 21
205.8994613649
  0
LINE
  5
253
100
AcDbEntity
  8
0
100
AcDbLine
 62
7
  6
CONTINUOUS
 10
155.5915739999
 20
205.934334333
 11
155.0915739999
 21
205.934334333
  0
LINE
  5
254
100
AcDbEntity
  8
0
100
AcDbLine
 62
7
  6
CONTINUOUS
 10
155.5915739999
 20
206.0549736947
 11
155.0915739999
 21
206.0549736947
  0
LINE
  5
255
100
AcDbEntity
  8
0
100
AcDbLine
 62
7
  6
CONTINUOUS
 10
155.5915739999
 20
206.1375377416
 11
155.0915739999
 21
206.1375377416
  0
LINE
  5
256
100
AcDbEntity
  8
0
100
AcDbLine
 62
7
  6
CONTINUOUS
 10
155.5915739999
 20
206.3471541049
 11
155.0915739999
 21
206.3471541049
  0
LINE
  5
257
100
AcDbEntity
  8
0
100
AcDbLine
 62
7
  6
CONTINUOUS
 10
155.5915739999
 20
206.6902298613
 11
155.0915739999
 21
206.6902298613
  0
LINE
  5
258
100
AcDbEntity
  8
0
100
AcDbLine
 62
7
  6
CONTINUOUS
 10
155.5915739999
 20
206.9507416864
 11
155.0915739999
 21
206.9507416864
  0
LINE
  5
259
100
AcDbEntity
  8
0
100
AcDbLine
 62
7
  6
CONTINUOUS
 10
155.5915739999
 20
207.2589465112
 11
155.0915739999
 21
207.2589465112
  0
LINE
  5
25A
100
AcDbEntity
  8
0
100
AcDbLine
 62
7
  6
CONTINUOUS
 10
155.5915739999
 20
207.4368964415
 11
155.0915739999
 21
207.4368964415
  0
LINE
  5
25B
100
AcDbEntity
  8
0
100
AcDbLine
 62
7
  6
CONTINUOUS
 10
155.5915739999
 20
207.7070237994
 11
155.0915739999
 21
207.7070237994
  0
LINE
  5
25C
100
AcDbEntity
  8
0
100
AcDbLine
 62
7
  6
CONTINUOUS
 10
155.5915739999
 20
207.802407762
 11
155.0915739999
 21
207.802407762
  0
LINE
  5
25D
100
AcDbEntity
  8
0
100
AcDbLine
 62
7
  6
CONTINUOUS
 10
155.5915739999
 20
207.8152298299
 11
155.0915739999
 21
207.8152298299
  0
LINE
  5
25E
100
AcDbEntity
  8
0
100
AcDbLine
 62
7
  6
CONTINUOUS
 10
155.5915739999
 20
208.0159598394
 11
155.0915739999
 21
208.0159598394
  0
LINE
  5
25F
100
AcDbEntity
  8
0
100
AcDbLine
 62
7
  6
CONTINUOUS
 10
155.5915739999
 20
208.1876499118
 11
155.0915739999
 21
208.1876499118
  0
LINE
  5
260
100
AcDbEntity
  8
0
100
AcDbLine
 62
7
  6
CONTINUOUS
 10
155.5915739999
 20
208.2732386435
 11
155.0915739999
 21
208.2732386435
  0
LINE
  5
261
100
AcDbEntity
  8
0
100
AcDbLine
 62
7
  6
CONTINUOUS
 10
155.5915739999
 20
208.7354402955
 11
155.0915739999
 21
208.7354402955
  0
LINE
  5
262
100
AcDbEntity
  8
0
100
AcDbLine
 62
7
  6
CONTINUOUS
 10
178.5915739999
 20
256.8976431193
 11
178.5915739999
 21
221.8976431193
  0
LINE
  5
263
100
AcDbEntity
  8
0
100
AcDbLine
 62
7
  6
CONTINUOUS
 10
155.5915739999
 20
210.9746418796
 11
155.0915739999
 21
210.9746418796
  0
LINE
  5
264
100
AcDbEntity
  8
0
100
AcDbLine
 62
7
  6
CONTINUOUS
 10
155.5915739999
 20
211.1349600589
 11
155.0915739999
 21
211.1349600589
  0
LINE
  5
265
100
AcDbEntity
  8
0
100
AcDbLine
 62
7
  6
CONTINUOUS
 10
155.5915739999
 20
211.8831111549
 11
155.0915739999
 21
211.8831111549
  0
LINE
  5
266
100
AcDbEntity
  8
0
100
AcDbLine
 62
7
  6
CONTINUOUS
 10
155.5915739999
 20
212.0434293343
 11
155.0915739999
 21
212.0434293343
  0
LINE
  5
267
100
AcDbEntity
  8
0
100
AcDbLine
 62
7
  6
CONTINUOUS
 10
155.5915739999
 20
212.1401543495
 11
155.0915739999
 21
212.1401543495
  0
LINE
  5
268
100
AcDbEntity
  8
0
100
AcDbLine
 62
7
  6
CONTINUOUS
 10
155.5915739999
 20
212.4645846511
 11
155.0915739999
 21
212.4645846511
  0
LINE
  5
269
100
AcDbEntity
  8
0
100
AcDbLine
 62
7
  6
CONTINUOUS
 10
155.5915739999
 20
212.7586988815
 11
155.0915739999
 21
212.7586988815
  0
LINE
  5
26A
100
AcDbEntity
  8
0
100
AcDbLine
 62
7
  6
CONTINUOUS
 10
155.5915739999
 20
212.9273622352
 11
155.0915739999
 21
212.9273622352
  0
LINE
  5
26B
100
AcDbEntity
  8
0
100
AcDbLine
 62
7
  6
CONTINUOUS
 10
155.5915739999
 20
213.0441030841
 11
155.0915739999
 21
213.0441030841
  0
LINE
  5
26C
100
AcDbEntity
  8
0
100
AcDbLine
 62
7
  6
CONTINUOUS
 10
155.5915739999
 20
213.1413309715
 11
155.0915739999
 21
213.1413309715
  0
LINE
  5
26D
100
AcDbEntity
  8
0
100
AcDbLine
 62
7
  6
CONTINUOUS
 10
155.5915739999
 20
213.1466191291
 11
155.0915739999
 21
213.1466191291
  0
LINE
  5
26E
100
AcDbEntity
  8
0
100
AcDbLine
 62
7
  6
CONTINUOUS
 10
155.5915739999
 20
213.3368544227
 11
155.0915739999
 21
213.3368544227
  0
LINE
  5
26F
100
AcDbEntity
  8
0
100
AcDbLine
 62
7
  6
CONTINUOUS
 10
155.5915739999
 20
213.3991191595
 11
155.0915739999
 21
213.3991191595
  0
LINE
  5
270
100
AcDbEntity
  8
BEZUGSACHSEN
100
AcDbLine
 62
7
  6
CONTINUOUS
 10
186.5915739999
 20
182.3976431193
 11
186.5915739999
 21
180.3976431193
  0
LINE
  5
271
100
AcDbEntity
  8
0
100
AcDbLine
 62
7
  6
CONTINUOUS
 10
187.0915739999
 20
180.3976431193
 11
187.0915739999
 21
178.3976431193
  0
LINE
  5
272
100
AcDbEntity
  8
0
100
AcDbLine
 62
7
  6
CONTINUOUS
 10
187.327140667
 20
156.9515729061
 11
187.327140667
 21
137.3976431193
  0
LINE
  5
273
100
AcDbEntity
  8
RUNDUNGEN
100
AcDbLine
 62
7
  6
CONTINUOUS
 10
164.0915739999
 20
220.1504665184
 11
158.0915739999
 21
220.1504665184
  0
LINE
  5
274
100
AcDbEntity
  8
BEZUGSACHSEN
100
AcDbLine
 62
7
  6
CONTINUOUS
 10
188.5337013688
 20
177.4128353663
 11
188.5917275407
 21
177.0837525925
  0
LINE
  5
275
100
AcDbEntity
  8
RUNDUNGEN
100
AcDbLine
 62
7
  6
CONTINUOUS
 10
188.5915739999
 20
177.0846251808
 11
188.5915739999
 21
137.3976431193
  0
LINE
  5
276
100
AcDbEntity
  8
0
100
AcDbLine
 62
7
  6
CONTINUOUS
 10
191.5915739999
 20
256.8976431193
 11
191.5915739999
 21
221.8976431193
  0
LINE
  5
277
100
AcDbEntity
  8
0
100
AcDbLine
 62
7
  6
CONTINUOUS
 10
172.0915739999
 20
106.8976431193
 11
169.5915739999
 21
104.3976431193
  0
LINE
  5
278
100
AcDbEntity
  8
0
100
AcDbLine
 62
7
  6
CONTINUOUS
 10
253.9636862929
 20
104.3976431193
 11
270.9636862929
 21
104.3976431193
  0
LINE
  5
279
100
AcDbEntity
  8
0
100
AcDbLine
 62
7
  6
CONTINUOUS
 10
273.4636862929
 20
106.8976431193
 11
251.4636862929
 21
106.8976431193
  0
LINE
  5
27A
100
AcDbEntity
  8
0
100
AcDbLine
 62
7
  6
CONTINUOUS
 10
251.4636862929
 20
106.8976431193
 11
253.9636862929
 21
104.3976431193
  0
LINE
  5
27B
100
AcDbEntity
  8
0
100
AcDbLine
 62
7
  6
CONTINUOUS
 10
293.4879301733
 20
137.3976431193
 11
231.4394424126
 21
137.3976431193
  0
LINE
  5
27C
100
AcDbEntity
  8
RUNDUNGEN
100
AcDbLine
 62
7
  6
CONTINUOUS
 10
270.9636862929
 20
139.0976431193
 11
253.9636862929
 21
139.0976431193
  0
LINE
  5
27D
100
AcDbEntity
  8
KONSTRUKTIONSELEMENTE
100
AcDbLine
 62
7
  6
CONTINUOUS
 10
254.8136862929
 20
140.0976431193
 11
255.4886862929
 21
140.0976431193
  0
LINE
  5
27E
100
AcDbEntity
  8
KONSTRUKTIONSELEMENTE
100
AcDbLine
 62
7
  6
CONTINUOUS
 10
257.0636862393
 20
140.0976431193
 11
257.9636861856
 21
140.0976431193
  0
LINE
  5
27F
100
AcDbEntity
  8
KONSTRUKTIONSELEMENTE
100
AcDbLine
 62
7
  6
CONTINUOUS
 10
259.5386862929
 20
140.0976431193
 11
260.2136862929
 21
140.0976431193
  0
LINE
  5
280
100
AcDbEntity
  8
KONSTRUKTIONSELEMENTE
100
AcDbLine
 62
7
  6
CONTINUOUS
 10
261.1136860783
 20
140.0976431193
 11
265.1636860783
 21
140.0976431193
  0
LINE
  5
281
100
AcDbEntity
  8
KONSTRUKTIONSELEMENTE
100
AcDbLine
 62
7
  6
CONTINUOUS
 10
266.0636858638
 20
140.0976431193
 11
270.1136858638
 21
140.0976431193
  0
LINE
  5
282
100
AcDbEntity
  8
KONSTRUKTIONSELEMENTE
100
AcDbLine
 62
7
  6
CONTINUOUS
 10
270.1136858638
 20
140.7359410049
 11
266.9636862929
 21
140.7359410049
  0
LINE
  5
283
100
AcDbEntity
  8
KONSTRUKTIONSELEMENTE
100
AcDbLine
 62
7
  6
CONTINUOUS
 10
265.1636860783
 20
140.7359410049
 11
262.0136865075
 21
140.7359410049
  0
LINE
  5
284
100
AcDbEntity
  8
KONSTRUKTIONSELEMENTE
100
AcDbLine
 62
7
  6
CONTINUOUS
 10
261.2261862929
 20
144.6933879675
 11
261.7886860783
 21
144.6933879675
  0
LINE
  5
285
100
AcDbEntity
  8
KONSTRUKTIONSELEMENTE
100
AcDbLine
 62
7
  6
CONTINUOUS
 10
266.1761867221
 20
144.6933879675
 11
266.7386858638
 21
144.6933879675
  0
LINE
  5
286
100
AcDbEntity
  8
KONSTRUKTIONSELEMENTE
100
AcDbLine
 62
7
  6
CONTINUOUS
 10
271.2420200236
 20
148.74594099
 11
270.8253525622
 21
148.639558024
  0
LINE
  5
287
100
AcDbEntity
  8
KONSTRUKTIONSELEMENTE
100
AcDbLine
 62
7
  6
CONTINUOUS
 10
266.6586862929
 20
148.74594099
 11
266.2420200236
 21
148.639558024
  0
LINE
  5
288
100
AcDbEntity
  8
KONSTRUKTIONSELEMENTE
100
AcDbLine
 62
7
  6
CONTINUOUS
 10
269.7836862929
 20
150.6608346023
 11
270.2003525622
 21
150.7672175683
  0
LINE
  5
289
100
AcDbEntity
  8
KONSTRUKTIONSELEMENTE
100
AcDbLine
 62
7
  6
CONTINUOUS
 10
265.2003525622
 20
150.6608346023
 11
265.6170200236
 21
150.7672175683
  0
LINE
  5
28A
100
AcDbEntity
  8
KONSTRUKTIONSELEMENTE
100
AcDbLine
 62
7
  6
CONTINUOUS
 10
267.3011862929
 20
145.3316857638
 11
267.8636867221
 21
145.459345323
  0
LINE
  5
28B
100
AcDbEntity
  8
KONSTRUKTIONSELEMENTE
100
AcDbLine
 62
7
  6
CONTINUOUS
 10
262.3511865075
 20
145.3316857638
 11
262.9136862929
 21
145.459345323
  0
LINE
  5
28C
100
AcDbEntity
  8
KONSTRUKTIONSELEMENTE
100
AcDbLine
 62
7
  6
CONTINUOUS
 10
270.8253525622
 20
148.1076431193
 11
271.3461862929
 21
148.2140260946
  0
LINE
  5
28D
100
AcDbEntity
  8
KONSTRUKTIONSELEMENTE
100
AcDbLine
 62
7
  6
CONTINUOUS
 10
266.2420200236
 20
148.1076431193
 11
266.7628525622
 21
148.2140260946
  0
LINE
  5
28E
100
AcDbEntity
  8
KONSTRUKTIONSELEMENTE
100
AcDbLine
 62
7
  6
CONTINUOUS
 10
255.8253530093
 20
148.1076431193
 11
256.3461862929
 21
148.2140260946
  0
LINE
  5
28F
100
AcDbEntity
  8
KONSTRUKTIONSELEMENTE
100
AcDbLine
 62
7
  6
CONTINUOUS
 10
270.2003525622
 20
151.2991323985
 11
269.6795200236
 21
151.1927494325
  0
LINE
  5
290
100
AcDbEntity
  8
KONSTRUKTIONSELEMENTE
100
AcDbLine
 62
7
  6
CONTINUOUS
 10
265.6170200236
 20
151.2991323985
 11
265.0961862929
 21
151.1927494325
  0
LINE
  5
291
100
AcDbEntity
  8
KONSTRUKTIONSELEMENTE
100
AcDbLine
 62
7
  6
CONTINUOUS
 10
267.9761862929
 20
146.0976431193
 11
267.1886867221
 21
145.96998356
  0
LINE
  5
292
100
AcDbEntity
  8
KONSTRUKTIONSELEMENTE
100
AcDbLine
 62
7
  6
CONTINUOUS
 10
263.0261865075
 20
146.0976431193
 11
262.2386862929
 21
145.96998356
  0
LINE
  5
293
100
AcDbEntity
  8
KONSTRUKTIONSELEMENTE
100
AcDbLine
 62
7
  6
CONTINUOUS
 10
262.9136862929
 20
145.459345323
 11
263.3636865075
 21
145.459345323
  0
LINE
  5
294
100
AcDbEntity
  8
KONSTRUKTIONSELEMENTE
100
AcDbLine
 62
7
  6
CONTINUOUS
 10
267.8636867221
 20
145.459345323
 11
268.3136862929
 21
145.459345323
  0
LINE
  5
295
100
AcDbEntity
  8
KONSTRUKTIONSELEMENTE
100
AcDbLine
 62
7
  6
CONTINUOUS
 10
268.4261858638
 20
146.0976431193
 11
267.9761862929
 21
146.0976431193
  0
LINE
  5
296
100
AcDbEntity
  8
KONSTRUKTIONSELEMENTE
100
AcDbLine
 62
7
  6
CONTINUOUS
 10
263.4761860783
 20
146.0976431193
 11
263.0261865075
 21
146.0976431193
  0
LINE
  5
297
100
AcDbEntity
  8
KONSTRUKTIONSELEMENTE
100
AcDbLine
 62
7
  6
CONTINUOUS
 10
260.2136862929
 20
146.0976431193
 11
259.2011862929
 21
146.0976431193
  0
LINE
  5
298
100
AcDbEntity
  8
KONSTRUKTIONSELEMENTE
100
AcDbLine
 62
7
  6
CONTINUOUS
 10
255.8261862929
 20
146.0976431193
 11
254.8136862929
 21
146.0976431193
  0
LINE
  5
299
100
AcDbEntity
  8
KONSTRUKTIONSELEMENTE
100
AcDbLine
 62
7
  6
CONTINUOUS
 10
254.9920195766
 20
148.1076431193
 11
255.8253530093
 21
148.1076431193
  0
LINE
  5
29A
100
AcDbEntity
  8
KONSTRUKTIONSELEMENTE
100
AcDbLine
 62
7
  6
CONTINUOUS
 10
259.0545194276
 20
148.1076431193
 11
259.8878531583
 21
148.1076431193
  0
LINE
  5
29B
100
AcDbEntity
  8
KONSTRUKTIONSELEMENTE
100
AcDbLine
 62
7
  6
CONTINUOUS
 10
261.5545194276
 20
148.1076431193
 11
262.3878531583
 21
148.1076431193
  0
LINE
  5
29C
100
AcDbEntity
  8
KONSTRUKTIONSELEMENTE
100
AcDbLine
 62
7
  6
CONTINUOUS
 10
265.6170200236
 20
148.1076431193
 11
266.2420200236
 21
148.1076431193
  0
LINE
  5
29D
100
AcDbEntity
  8
KONSTRUKTIONSELEMENTE
100
AcDbLine
 62
7
  6
CONTINUOUS
 10
270.2003525622
 20
148.1076431193
 11
270.8253525622
 21
148.1076431193
  0
LINE
  5
29E
100
AcDbEntity
  8
KONSTRUKTIONSELEMENTE
100
AcDbLine
 62
7
  6
CONTINUOUS
 10
270.8253525622
 20
148.639558024
 11
270.2003525622
 21
148.639558024
  0
LINE
  5
29F
100
AcDbEntity
  8
KONSTRUKTIONSELEMENTE
100
AcDbLine
 62
7
  6
CONTINUOUS
 10
266.2420200236
 20
148.639558024
 11
265.6170200236
 21
148.639558024
  0
LINE
  5
2A0
100
AcDbEntity
  8
KONSTRUKTIONSELEMENTE
100
AcDbLine
 62
7
  6
CONTINUOUS
 10
255.8253530093
 20
148.74594099
 11
254.9920195766
 21
148.74594099
  0
LINE
  5
2A1
100
AcDbEntity
  8
KONSTRUKTIONSELEMENTE
100
AcDbLine
 62
7
  6
CONTINUOUS
 10
269.2628525622
 20
149.3842388608
 11
268.6378525622
 21
149.3842388608
  0
LINE
  5
2A2
100
AcDbEntity
  8
KONSTRUKTIONSELEMENTE
100
AcDbLine
 62
7
  6
CONTINUOUS
 10
264.6795200236
 20
149.3842388608
 11
264.0545200236
 21
149.3842388608
  0
LINE
  5
2A3
100
AcDbEntity
  8
KONSTRUKTIONSELEMENTE
100
AcDbLine
 62
7
  6
CONTINUOUS
 10
254.1586862929
 20
149.4906218268
 11
253.5336862929
 21
149.4906218268
  0
LINE
  5
2A4
100
AcDbEntity
  8
KONSTRUKTIONSELEMENTE
100
AcDbLine
 62
7
  6
CONTINUOUS
 10
255.2003530093
 20
150.3416857042
 11
255.8253530093
 21
150.3416857042
  0
LINE
  5
2A5
100
AcDbEntity
  8
KONSTRUKTIONSELEMENTE
100
AcDbLine
 62
7
  6
CONTINUOUS
 10
264.0545200236
 20
150.3416857042
 11
264.7836862929
 21
150.3416857042
  0
LINE
  5
2A6
100
AcDbEntity
  8
KONSTRUKTIONSELEMENTE
100
AcDbLine
 62
7
  6
CONTINUOUS
 10
268.6378525622
 20
150.3416857042
 11
269.3670200236
 21
150.3416857042
  0
LINE
  5
2A7
100
AcDbEntity
  8
KONSTRUKTIONSELEMENTE
100
AcDbLine
 62
7
  6
CONTINUOUS
 10
265.6170200236
 20
150.7672175683
 11
266.2420200236
 21
150.7672175683
  0
LINE
  5
2A8
100
AcDbEntity
  8
KONSTRUKTIONSELEMENTE
100
AcDbLine
 62
7
  6
CONTINUOUS
 10
270.2003525622
 20
150.7672175683
 11
270.8253525622
 21
150.7672175683
  0
LINE
  5
2A9
100
AcDbEntity
  8
KONSTRUKTIONSELEMENTE
100
AcDbLine
 62
7
  6
CONTINUOUS
 10
255.8253530093
 20
150.9799835004
 11
255.2003530093
 21
150.9799835004
  0
LINE
  5
2AA
100
AcDbEntity
  8
KONSTRUKTIONSELEMENTE
100
AcDbLine
 62
7
  6
CONTINUOUS
 10
270.8253525622
 20
151.2991323985
 11
270.2003525622
 21
151.2991323985
  0
LINE
  5
2AB
100
AcDbEntity
  8
KONSTRUKTIONSELEMENTE
100
AcDbLine
 62
7
  6
CONTINUOUS
 10
266.2420200236
 20
151.2991323985
 11
265.6170200236
 21
151.2991323985
  0
LINE
  5
2AC
100
AcDbEntity
  8
KONSTRUKTIONSELEMENTE
100
AcDbLine
 62
7
  6
CONTINUOUS
 10
264.1511860783
 20
145.96998356
 11
263.4761860783
 21
146.0976431193
  0
LINE
  5
2AD
100
AcDbEntity
  8
KONSTRUKTIONSELEMENTE
100
AcDbLine
 62
7
  6
CONTINUOUS
 10
269.1011858638
 20
145.96998356
 11
268.4261858638
 21
146.0976431193
  0
LINE
  5
2AE
100
AcDbEntity
  8
KONSTRUKTIONSELEMENTE
100
AcDbLine
 62
7
  6
CONTINUOUS
 10
254.4711862929
 20
148.2140260946
 11
254.9920195766
 21
148.1076431193
  0
LINE
  5
2AF
100
AcDbEntity
  8
KONSTRUKTIONSELEMENTE
100
AcDbLine
 62
7
  6
CONTINUOUS
 10
265.0961862929
 20
148.2140260946
 11
265.6170200236
 21
148.1076431193
  0
LINE
  5
2B0
100
AcDbEntity
  8
KONSTRUKTIONSELEMENTE
100
AcDbLine
 62
7
  6
CONTINUOUS
 10
256.3461862929
 20
150.8736005344
 11
255.8253530093
 21
150.9799835004
  0
LINE
  5
2B1
100
AcDbEntity
  8
KONSTRUKTIONSELEMENTE
100
AcDbLine
 62
7
  6
CONTINUOUS
 10
269.6795200236
 20
148.2140260946
 11
270.2003525622
 21
148.1076431193
  0
LINE
  5
2B2
100
AcDbEntity
  8
KONSTRUKTIONSELEMENTE
100
AcDbLine
 62
7
  6
CONTINUOUS
 10
263.3636865075
 20
145.459345323
 11
263.9261862929
 21
145.3316857638
  0
LINE
  5
2B3
100
AcDbEntity
  8
KONSTRUKTIONSELEMENTE
100
AcDbLine
 62
7
  6
CONTINUOUS
 10
268.3136862929
 20
145.459345323
 11
268.8761867221
 21
145.3316857638
  0
LINE
  5
2B4
100
AcDbEntity
  8
KONSTRUKTIONSELEMENTE
100
AcDbLine
 62
7
  6
CONTINUOUS
 10
254.9920195766
 20
148.74594099
 11
254.5753529348
 21
148.8523239561
  0
LINE
  5
2B5
100
AcDbEntity
  8
KONSTRUKTIONSELEMENTE
100
AcDbLine
 62
7
  6
CONTINUOUS
 10
254.7836862929
 20
150.4480686702
 11
255.2003530093
 21
150.3416857042
  0
LINE
  5
2B6
100
AcDbEntity
  8
KONSTRUKTIONSELEMENTE
100
AcDbLine
 62
7
  6
CONTINUOUS
 10
255.8253530093
 20
150.3416857042
 11
256.2420197256
 21
150.2353027381
  0
LINE
  5
2B7
100
AcDbEntity
  8
KONSTRUKTIONSELEMENTE
100
AcDbLine
 62
7
  6
CONTINUOUS
 10
265.6170200236
 20
148.639558024
 11
265.2003525622
 21
148.74594099
  0
LINE
  5
2B8
100
AcDbEntity
  8
KONSTRUKTIONSELEMENTE
100
AcDbLine
 62
7
  6
CONTINUOUS
 10
255.2003530093
 20
150.9799835004
 11
254.8878530093
 21
151.0863664665
  0
LINE
  5
2B9
100
AcDbEntity
  8
KONSTRUKTIONSELEMENTE
100
AcDbLine
 62
7
  6
CONTINUOUS
 10
253.950352972
 20
148.5331750207
 11
254.4711862929
 21
148.2140260946
  0
LINE
  5
2BA
100
AcDbEntity
  8
KONSTRUKTIONSELEMENTE
100
AcDbLine
 62
7
  6
CONTINUOUS
 10
256.2420197256
 20
148.8523239561
 11
255.8253530093
 21
148.74594099
  0
LINE
  5
2BB
100
AcDbEntity
  8
KONSTRUKTIONSELEMENTE
100
AcDbLine
 62
7
  6
CONTINUOUS
 10
255.2003530093
 20
153.1076431193
 11
254.7836862929
 21
153.0012601532
  0
LINE
  5
2BC
100
AcDbEntity
  8
KONSTRUKTIONSELEMENTE
100
AcDbLine
 62
7
  6
CONTINUOUS
 10
256.4503528602
 20
151.9374304928
 11
257.0753528602
 21
151.9374304928
  0
LINE
  5
2BD
100
AcDbEntity
  8
KONSTRUKTIONSELEMENTE
100
AcDbLine
 62
7
  6
CONTINUOUS
 10
255.2003530093
 20
152.469345323
 11
255.8253530093
 21
152.469345323
  0
LINE
  5
2BE
100
AcDbEntity
  8
KONSTRUKTIONSELEMENTE
100
AcDbLine
 62
7
  6
CONTINUOUS
 10
264.5753525622
 20
152.5757282891
 11
267.5961862929
 21
152.5757282891
  0
LINE
  5
2BF
100
AcDbEntity
  8
KONSTRUKTIONSELEMENTE
100
AcDbLine
 62
7
  6
CONTINUOUS
 10
269.1586862929
 20
152.5757282891
 11
272.1795200236
 21
152.5757282891
  0
LINE
  5
2C0
100
AcDbEntity
  8
KONSTRUKTIONSELEMENTE
100
AcDbLine
 62
7
  6
CONTINUOUS
 10
272.1795200236
 20
153.1076431193
 11
268.6378525622
 21
153.1076431193
  0
LINE
  5
2C1
100
AcDbEntity
  8
KONSTRUKTIONSELEMENTE
100
AcDbLine
 62
7
  6
CONTINUOUS
 10
267.5961862929
 20
153.1076431193
 11
264.0545200236
 21
153.1076431193
  0
LINE
  5
2C2
100
AcDbEntity
  8
KONSTRUKTIONSELEMENTE
100
AcDbLine
 62
7
  6
CONTINUOUS
 10
263.2211862929
 20
153.1076431193
 11
262.5961862929
 21
153.1076431193
  0
LINE
  5
2C3
100
AcDbEntity
  8
KONSTRUKTIONSELEMENTE
100
AcDbLine
 62
7
  6
CONTINUOUS
 10
261.1378531583
 20
153.1076431193
 11
260.3045194276
 21
153.1076431193
  0
LINE
  5
2C4
100
AcDbEntity
  8
KONSTRUKTIONSELEMENTE
100
AcDbLine
 62
7
  6
CONTINUOUS
 10
258.8461862929
 20
153.1076431193
 11
258.2211862929
 21
153.1076431193
  0
LINE
  5
2C5
100
AcDbEntity
  8
KONSTRUKTIONSELEMENTE
100
AcDbLine
 62
7
  6
CONTINUOUS
 10
255.7211862929
 20
153.1076431193
 11
255.2003530093
 21
153.1076431193
  0
LINE
  5
2C6
100
AcDbEntity
  8
RUNDUNGEN
100
AcDbLine
 62
7
  6
CONTINUOUS
 10
253.9636862929
 20
155.0976431193
 11
256.0976608891
 21
155.0976431193
  0
LINE
  5
2C7
100
AcDbEntity
  8
RUNDUNGEN
100
AcDbLine
 62
7
  6
CONTINUOUS
 10
268.8297116967
 20
155.0976431193
 11
270.9636862929
 21
155.0976431193
  0
LINE
  5
2C8
100
AcDbEntity
  8
KONSTRUKTIONSELEMENTE
100
AcDbLine
 62
7
  6
CONTINUOUS
 10
256.2420197256
 20
153.0012601532
 11
255.7211862929
 21
153.1076431193
  0
LINE
  5
2C9
100
AcDbEntity
  8
KONSTRUKTIONSELEMENTE
100
AcDbLine
 62
7
  6
CONTINUOUS
 10
266.7628525622
 20
151.1927494325
 11
266.2420200236
 21
151.2991323985
  0
LINE
  5
2CA
100
AcDbEntity
  8
KONSTRUKTIONSELEMENTE
100
AcDbLine
 62
7
  6
CONTINUOUS
 10
271.3461862929
 20
151.1927494325
 11
270.8253525622
 21
151.2991323985
  0
LINE
  5
2CB
100
AcDbEntity
  8
KONSTRUKTIONSELEMENTE
100
AcDbLine
 62
7
  6
CONTINUOUS
 10
270.2003525622
 20
148.639558024
 11
269.7836862929
 21
148.74594099
  0
LINE
  5
2CC
100
AcDbEntity
  8
KONSTRUKTIONSELEMENTE
100
AcDbLine
 62
7
  6
CONTINUOUS
 10
266.2420200236
 20
150.7672175683
 11
266.6586862929
 21
150.6608346023
  0
LINE
  5
2CD
100
AcDbEntity
  8
KONSTRUKTIONSELEMENTE
100
AcDbLine
 62
7
  6
CONTINUOUS
 10
270.8253525622
 20
150.7672175683
 11
271.2420200236
 21
150.6608346023
  0
LINE
  5
2CE
100
AcDbEntity
  8
KONSTRUKTIONSELEMENTE
100
AcDbLine
 62
7
  6
CONTINUOUS
 10
255.8253530093
 20
152.469345323
 11
256.1378528602
 21
152.362962357
  0
LINE
  5
2CF
100
AcDbEntity
  8
KONSTRUKTIONSELEMENTE
100
AcDbLine
 62
7
  6
CONTINUOUS
 10
254.3670196511
 20
150.6608346023
 11
254.7836862929
 21
150.4480686702
  0
LINE
  5
2D0
100
AcDbEntity
  8
KONSTRUKTIONSELEMENTE
100
AcDbLine
 62
7
  6
CONTINUOUS
 10
256.7628528602
 20
150.6608346023
 11
256.3461862929
 21
150.8736005344
  0
LINE
  5
2D1
100
AcDbEntity
  8
KONSTRUKTIONSELEMENTE
100
AcDbLine
 62
7
  6
CONTINUOUS
 10
264.6011862929
 20
145.7146644415
 11
264.1511860783
 21
145.96998356
  0
LINE
  5
2D2
100
AcDbEntity
  8
KONSTRUKTIONSELEMENTE
100
AcDbLine
 62
7
  6
CONTINUOUS
 10
269.5511867221
 20
145.7146644415
 11
269.1011858638
 21
145.96998356
  0
LINE
  5
2D3
100
AcDbEntity
  8
KONSTRUKTIONSELEMENTE
100
AcDbLine
 62
7
  6
CONTINUOUS
 10
264.5753525622
 20
148.5331750207
 11
265.0961862929
 21
148.2140260946
  0
LINE
  5
2D4
100
AcDbEntity
  8
KONSTRUKTIONSELEMENTE
100
AcDbLine
 62
7
  6
CONTINUOUS
 10
254.8878530093
 20
151.0863664665
 11
254.5753529348
 21
151.2991323985
  0
LINE
  5
2D5
100
AcDbEntity
  8
KONSTRUKTIONSELEMENTE
100
AcDbLine
 62
7
  6
CONTINUOUS
 10
256.2420197256
 20
150.2353027381
 11
256.5545197256
 21
150.022536806
  0
LINE
  5
2D6
100
AcDbEntity
  8
KONSTRUKTIONSELEMENTE
100
AcDbLine
 62
7
  6
CONTINUOUS
 10
263.9261862929
 20
145.3316857638
 11
264.2636862929
 21
145.0763666453
  0
LINE
  5
2D7
100
AcDbEntity
  8
KONSTRUKTIONSELEMENTE
100
AcDbLine
 62
7
  6
CONTINUOUS
 10
256.6586862929
 20
152.6821112551
 11
256.2420197256
 21
153.0012601532
  0
LINE
  5
2D8
100
AcDbEntity
  8
KONSTRUKTIONSELEMENTE
100
AcDbLine
 62
7
  6
CONTINUOUS
 10
254.5753529348
 20
148.8523239561
 11
254.2628529348
 21
149.1714729287
  0
LINE
  5
2D9
100
AcDbEntity
  8
RUNDUNGEN
100
AcDbLine
 62
7
  6
CONTINUOUS
 10
268.4636862929
 20
158.0976431193
 11
256.4636862929
 21
158.0976431193
  0
LINE
  5
2DA
100
AcDbEntity
  8
KONSTRUKTIONSELEMENTE
100
AcDbLine
 62
7
  6
CONTINUOUS
 10
269.1586862929
 20
148.5331750207
 11
269.6795200236
 21
148.2140260946
  0
LINE
  5
2DB
100
AcDbEntity
  8
KONSTRUKTIONSELEMENTE
100
AcDbLine
 62
7
  6
CONTINUOUS
 10
267.2836862929
 20
150.8736005344
 11
266.7628525622
 21
151.1927494325
  0
LINE
  5
2DC
100
AcDbEntity
  8
KONSTRUKTIONSELEMENTE
100
AcDbLine
 62
7
  6
CONTINUOUS
 10
271.8670200236
 20
150.8736005344
 11
271.3461862929
 21
151.1927494325
  0
LINE
  5
2DD
100
AcDbEntity
  8
KONSTRUKTIONSELEMENTE
100
AcDbLine
 62
7
  6
CONTINUOUS
 10
265.2003525622
 20
148.74594099
 11
264.8878525622
 21
148.9587069221
  0
LINE
  5
2DE
100
AcDbEntity
  8
KONSTRUKTIONSELEMENTE
100
AcDbLine
 62
7
  6
CONTINUOUS
 10
266.6586862929
 20
150.6608346023
 11
266.9711862929
 21
150.4480686702
  0
LINE
  5
2DF
100
AcDbEntity
  8
KONSTRUKTIONSELEMENTE
100
AcDbLine
 62
7
  6
CONTINUOUS
 10
269.7836862929
 20
148.74594099
 11
269.4711862929
 21
148.9587069221
  0
LINE
  5
2E0
100
AcDbEntity
  8
KONSTRUKTIONSELEMENTE
100
AcDbLine
 62
7
  6
CONTINUOUS
 10
271.2420200236
 20
150.6608346023
 11
271.5545200236
 21
150.4480686702
  0
LINE
  5
2E1
100
AcDbEntity
  8
KONSTRUKTIONSELEMENTE
100
AcDbLine
 62
7
  6
CONTINUOUS
 10
268.8761867221
 20
145.3316857638
 11
269.2136867221
 21
145.0763666453
  0
LINE
  5
2E2
100
AcDbEntity
  8
KONSTRUKTIONSELEMENTE
100
AcDbLine
 62
7
  6
CONTINUOUS
 10
253.950352972
 20
151.0863664665
 11
254.3670196511
 21
150.6608346023
  0
LINE
  5
2E3
100
AcDbEntity
  8
KONSTRUKTIONSELEMENTE
100
AcDbLine
 62
7
  6
CONTINUOUS
 10
257.1795197256
 20
150.2353027381
 11
256.7628528602
 21
150.6608346023
  0
LINE
  5
2E4
100
AcDbEntity
  8
KONSTRUKTIONSELEMENTE
100
AcDbLine
 62
7
  6
CONTINUOUS
 10
256.1378528602
 20
152.362962357
 11
256.3461862929
 21
152.1501964249
  0
LINE
  5
2E5
100
AcDbEntity
  8
KONSTRUKTIONSELEMENTE
100
AcDbLine
 62
7
  6
CONTINUOUS
 10
265.0511865075
 20
145.2040262045
 11
264.6011862929
 21
145.7146644415
  0
LINE
  5
2E6
100
AcDbEntity
  8
0
100
AcDbLine
 62
7
  6
CONTINUOUS
 10
231.4394424126
 20
156.9515729061
 11
231.4394424126
 21
137.3976431193
  0
LINE
  5
2E7
100
AcDbEntity
  8
BEZUGSACHSEN
100
AcDbLine
 62
7
  6
CONTINUOUS
 10
231.4394424126
 20
156.9515729061
 11
231.4394424126
 21
157.0976437107
  0
LINE
  5
2E8
100
AcDbEntity
  8
0
100
AcDbLine
 62
7
  6
CONTINUOUS
 10
236.4636862929
 20
180.3976431193
 11
236.4636862929
 21
178.3976431193
  0
LINE
  5
2E9
100
AcDbEntity
  8
BEZUGSACHSEN
100
AcDbLine
 62
7
  6
CONTINUOUS
 10
236.9636862929
 20
182.5713948238
 11
236.9636862929
 21
180.3976431193
  0
LINE
  5
2EA
100
AcDbEntity
  8
KONSTRUKTIONSELEMENTE
100
AcDbLine
 62
7
  6
CONTINUOUS
 10
270.0011862929
 20
145.2040262045
 11
269.5511867221
 21
145.7146644415
  0
LINE
  5
2EB
100
AcDbEntity
  8
KONSTRUKTIONSELEMENTE
100
AcDbLine
 62
7
  6
CONTINUOUS
 10
256.9711862929
 20
152.2565793909
 11
256.6586862929
 21
152.6821112551
  0
LINE
  5
2EC
100
AcDbEntity
  8
KONSTRUKTIONSELEMENTE
100
AcDbLine
 62
7
  6
CONTINUOUS
 10
264.2628525622
 20
148.9587069221
 11
264.5753525622
 21
148.5331750207
  0
LINE
  5
2ED
100
AcDbEntity
  8
KONSTRUKTIONSELEMENTE
100
AcDbLine
 62
7
  6
CONTINUOUS
 10
256.5545197256
 20
150.022536806
 11
256.7628528602
 21
149.7033877589
  0
LINE
  5
2EE
100
AcDbEntity
  8
KONSTRUKTIONSELEMENTE
100
AcDbLine
 62
7
  6
CONTINUOUS
 10
253.6378529627
 20
149.0650899627
 11
253.950352972
 21
148.5331750207
  0
LINE
  5
2EF
100
AcDbEntity
  8
BEZUGSACHSEN
100
AcDbLine
 62
7
  6
CONTINUOUS
 10
235.021558924
 20
177.4128353663
 11
231.4394424126
 21
157.0976431193
  0
LINE
  5
2F0
100
AcDbEntity
  8
FASEN
100
AcDbLine
 62
7
  6
CONTINUOUS
 10
231.4394426212
 20
157.0976443022
 11
235.021558924
 21
177.4128353663
  0
LINE
  5
2F1
100
AcDbEntity
  8
BEZUGSACHSEN
100
AcDbLine
 62
7
  6
CONTINUOUS
 10
245.0175855411
 20
212.2201555707
 11
238.9392242963
 21
197.5456934164
  0
LINE
  5
2F2
100
AcDbEntity
  8
RUNDUNGEN
100
AcDbLine
 62
7
  6
CONTINUOUS
 10
255.9636862929
 20
217.7052549638
 11
246.6411738415
 21
213.8437438711
  0
LINE
  5
2F3
100
AcDbEntity
  8
KONSTRUKTIONSELEMENTE
100
AcDbLine
 62
7
  6
CONTINUOUS
 10
267.5961862929
 20
150.4480686702
 11
267.2836862929
 21
150.8736005344
  0
LINE
  5
2F4
100
AcDbEntity
  8
KONSTRUKTIONSELEMENTE
100
AcDbLine
 62
7
  6
CONTINUOUS
 10
268.8461862929
 20
148.9587069221
 11
269.1586862929
 21
148.5331750207
  0
LINE
  5
2F5
100
AcDbEntity
  8
KONSTRUKTIONSELEMENTE
100
AcDbLine
 62
7
  6
CONTINUOUS
 10
272.1795200236
 20
150.4480686702
 11
271.8670200236
 21
150.8736005344
  0
LINE
  5
2F6
100
AcDbEntity
  8
KONSTRUKTIONSELEMENTE
100
AcDbLine
 62
7
  6
CONTINUOUS
 10
266.9711862929
 20
150.4480686702
 11
267.1795200236
 21
150.1289197721
  0
LINE
  5
2F7
100
AcDbEntity
  8
KONSTRUKTIONSELEMENTE
100
AcDbLine
 62
7
  6
CONTINUOUS
 10
264.2636862929
 20
145.0763666453
 11
264.4886860783
 21
144.6933879675
  0
LINE
  5
2F8
100
AcDbEntity
  8
KONSTRUKTIONSELEMENTE
100
AcDbLine
 62
7
  6
CONTINUOUS
 10
269.2136867221
 20
145.0763666453
 11
269.4386858638
 21
144.6933879675
  0
LINE
  5
2F9
100
AcDbEntity
  8
KONSTRUKTIONSELEMENTE
100
AcDbLine
 62
7
  6
CONTINUOUS
 10
257.3878528602
 20
149.8097707249
 11
257.1795197256
 21
150.2353027381
  0
LINE
  5
2FA
100
AcDbEntity
  8
KONSTRUKTIONSELEMENTE
100
AcDbLine
 62
7
  6
CONTINUOUS
 10
256.3461862929
 20
152.1501964249
 11
256.4503528602
 21
151.9374304928
  0
LINE
  5
2FB
100
AcDbEntity
  8
KONSTRUKTIONSELEMENTE
100
AcDbLine
 62
7
  6
CONTINUOUS
 10
264.0545200236
 20
149.3842388608
 11
264.2628525622
 21
148.9587069221
  0
LINE
  5
2FC
100
AcDbEntity
  8
BEZUGSACHSEN
100
AcDbLine
 62
7
  6
CONTINUOUS
 10
238.9392242963
 20
195.2495928222
 11
241.3018567886
 21
189.5456934164
  0
LINE
  5
2FD
100
AcDbEntity
  8
KONSTRUKTIONSELEMENTE
100
AcDbLine
 62
7
  6
CONTINUOUS
 10
255.4886862929
 20
144.8210475268
 11
257.0636862393
 21
140.0976431193
  0
LINE
  5
2FE
100
AcDbEntity
  8
KONSTRUKTIONSELEMENTE
100
AcDbLine
 62
7
  6
CONTINUOUS
 10
254.2628529348
 20
149.1714729287
 11
254.1586862929
 21
149.4906218268
  0
LINE
  5
2FF
100
AcDbEntity
  8
KONSTRUKTIONSELEMENTE
100
AcDbLine
 62
7
  6
CONTINUOUS
 10
254.5753529348
 20
151.2991323985
 11
254.4711862929
 21
151.6182812967
  0
LINE
  5
300
100
AcDbEntity
  8
KONSTRUKTIONSELEMENTE
100
AcDbLine
 62
7
  6
CONTINUOUS
 10
257.0753528602
 20
151.9374304928
 11
256.9711862929
 21
152.2565793909
  0
LINE
  5
301
100
AcDbEntity
  8
KONSTRUKTIONSELEMENTE
100
AcDbLine
 62
7
  6
CONTINUOUS
 10
257.5136862929
 20
140.7359410049
 11
255.8261862929
 21
146.0976431193
  0
LINE
  5
302
100
AcDbEntity
  8
KONSTRUKTIONSELEMENTE
100
AcDbLine
 62
7
  6
CONTINUOUS
 10
253.5336862929
 20
149.4906218268
 11
253.6378529627
 21
149.0650899627
  0
LINE
  5
303
100
AcDbEntity
  8
KONSTRUKTIONSELEMENTE
100
AcDbLine
 62
7
  6
CONTINUOUS
 10
253.8461862929
 20
151.5118983306
 11
253.950352972
 21
151.0863664665
  0
LINE
  5
304
100
AcDbEntity
  8
0
100
AcDbLine
 62
7
  6
CONTINUOUS
 10
245.8565329651
 20
156.9515729061
 11
245.8565329651
 21
137.3976431193
  0
LINE
  5
305
100
AcDbEntity
  8
0
100
AcDbLine
 62
7
  6
CONTINUOUS
 10
248.0465957404
 20
156.9515729061
 11
248.0465957404
 21
137.3976431193
  0
LINE
  5
306
100
AcDbEntity
  8
0
100
AcDbLine
 62
7
  6
CONTINUOUS
 10
247.8690703059
 20
202.4399539405
 11
247.8672987374
 21
202.2536989647
  0
LINE
  5
307
100
AcDbEntity
  8
0
100
AcDbLine
 62
7
  6
CONTINUOUS
 10
250.6625281369
 20
204.0586275315
 11
250.6747870942
 21
204.3243001902
  0
LINE
  5
308
100
AcDbEntity
  8
0
100
AcDbLine
 62
7
  6
CONTINUOUS
 10
252.41637697
 20
206.2525130966
 11
252.4790164147
 21
206.5109862826
  0
LINE
  5
309
100
AcDbEntity
  8
0
100
AcDbLine
 62
7
  6
CONTINUOUS
 10
250.3050578179
 20
204.2079253686
 11
250.2382748966
 21
203.9754397594
  0
LINE
  5
30A
100
AcDbEntity
  8
0
100
AcDbLine
 62
7
  6
CONTINUOUS
 10
250.5654186327
 20
203.7763174911
 11
250.6625281369
 21
204.0586275315
  0
LINE
  5
30B
100
AcDbEntity
  8
0
100
AcDbLine
 62
7
  6
CONTINUOUS
 10
246.6517071596
 20
202.6479527844
 11
246.1595014679
 21
201.3374560715
  0
LINE
  5
30C
100
AcDbEntity
  8
0
100
AcDbLine
 62
7
  6
CONTINUOUS
 10
246.5813236057
 20
201.5528658161
 11
246.9709864254
 21
202.5903423284
  0
LINE
  5
30D
100
AcDbEntity
  8
0
100
AcDbLine
 62
7
  6
CONTINUOUS
 10
247.8672987374
 20
202.2536989647
 11
247.4776359177
 21
201.2162224524
  0
LINE
  5
30E
100
AcDbEntity
  8
0
100
AcDbLine
 62
7
  6
CONTINUOUS
 10
247.8361607755
 20
201.0815651321
 11
248.1848064641
 21
202.009833611
  0
LINE
  5
30F
100
AcDbEntity
  8
0
100
AcDbLine
 62
7
  6
CONTINUOUS
 10
248.9679465225
 20
200.2826402699
 11
249.0909979454
 21
200.6102644481
  0
LINE
  5
310
100
AcDbEntity
  8
0
100
AcDbLine
 62
7
  6
CONTINUOUS
 10
249.603712188
 20
201.9753651386
 11
249.7472722206
 21
202.3575934506
  0
LINE
  5
311
100
AcDbEntity
  8
0
100
AcDbLine
 62
7
  6
CONTINUOUS
 10
252.0938892112
 20
206.4671676946
 11
251.9840455189
 21
206.251659633
  0
LINE
  5
312
100
AcDbEntity
  8
0
100
AcDbLine
 62
7
  6
CONTINUOUS
 10
252.267270963
 20
205.993868924
 11
252.41637697
 21
206.2525130966
  0
LINE
  5
313
100
AcDbEntity
  8
0
100
AcDbLine
 62
7
  6
CONTINUOUS
 10
248.4880200033
 20
206.1333025849
 11
248.3060597836
 21
205.8343548749
  0
LINE
  5
314
100
AcDbEntity
  8
0
100
AcDbLine
 62
7
  6
CONTINUOUS
 10
247.5782189049
 20
204.6385640351
 11
247.3962585984
 21
204.3396161826
  0
LINE
  5
315
100
AcDbEntity
  8
0
100
AcDbLine
 62
7
  6
CONTINUOUS
 10
250.2382748966
 20
203.9754397594
 11
250.1169680256
 21
203.7761411911
  0
LINE
  5
316
100
AcDbEntity
  8
0
100
AcDbLine
 62
7
  6
CONTINUOUS
 10
250.4441117618
 20
203.5770189228
 11
250.5654186327
 21
203.7763174911
  0
LINE
  5
317
100
AcDbEntity
  8
0
100
AcDbLine
 62
7
  6
CONTINUOUS
 10
246.8140041746
 20
202.8985300982
 11
246.6517071596
 21
202.6479527844
  0
LINE
  5
318
100
AcDbEntity
  8
0
100
AcDbLine
 62
7
  6
CONTINUOUS
 10
246.9709864254
 20
202.5903423284
 11
247.0922662798
 21
202.7317115308
  0
LINE
  5
319
100
AcDbEntity
  8
0
100
AcDbLine
 62
7
  6
CONTINUOUS
 10
250.0486716454
 20
208.0132294832
 11
249.106383182
 21
206.9779708058
  0
LINE
  5
31A
100
AcDbEntity
  8
0
100
AcDbLine
 62
7
  6
CONTINUOUS
 10
249.6251807089
 20
206.9789947962
 11
250.3318970564
 21
207.7554388042
  0
LINE
  5
31B
100
AcDbEntity
  8
0
100
AcDbLine
 62
7
  6
CONTINUOUS
 10
251.9840455189
 20
206.251659633
 11
251.2773291714
 21
205.475215625
  0
LINE
  5
31C
100
AcDbEntity
  8
0
100
AcDbLine
 62
7
  6
CONTINUOUS
 10
251.3249824996
 20
204.9586102466
 11
252.267270963
 21
205.993868924
  0
LINE
  5
31D
100
AcDbEntity
  8
0
100
AcDbLine
 62
7
  6
CONTINUOUS
 10
250.2379543488
 20
203.36108297
 11
250.4441117618
 21
203.5770189228
  0
LINE
  5
31E
100
AcDbEntity
  8
0
100
AcDbLine
 62
7
  6
CONTINUOUS
 10
250.1169680256
 20
203.7761411911
 11
249.9411373785
 21
203.6100299487
  0
LINE
  5
31F
100
AcDbEntity
  8
0
100
AcDbLine
 62
7
  6
CONTINUOUS
 10
250.2921861269
 20
208.1859434257
 11
250.0486716454
 21
208.0132294832
  0
LINE
  5
320
100
AcDbEntity
  8
0
100
AcDbLine
 62
7
  6
CONTINUOUS
 10
250.3318970564
 20
207.7554388042
 11
250.536149219
 21
207.8850166394
  0
LINE
  5
321
100
AcDbEntity
  8
0
100
AcDbLine
 62
7
  6
CONTINUOUS
 10
247.0753008659
 20
203.0496175048
 11
246.8140041746
 21
202.8985300982
  0
LINE
  5
322
100
AcDbEntity
  8
0
100
AcDbLine
 62
7
  6
CONTINUOUS
 10
250.0075995641
 20
203.228158492
 11
250.2379543488
 21
203.36108297
  0
LINE
  5
323
100
AcDbEntity
  8
0
100
AcDbLine
 62
7
  6
CONTINUOUS
 10
254.5982213808
 20
211.4907307285
 11
254.280462878
 21
211.3440719793
  0
LINE
  5
324
100
AcDbEntity
  8
0
100
AcDbLine
 62
7
  6
CONTINUOUS
 10
247.0922662798
 20
202.7317115308
 11
247.2527917263
 21
202.7960338688
  0
LINE
  5
325
100
AcDbEntity
  8
0
100
AcDbLine
 62
7
  6
CONTINUOUS
 10
250.5436425247
 20
208.2725561478
 11
250.2921861269
 21
208.1859434257
  0
LINE
  5
326
100
AcDbEntity
  8
FASEN
100
AcDbLine
 62
7
  6
CONTINUOUS
 10
289.9058136618
 20
177.4128353663
 11
235.021558924
 21
177.4128353663
  0
LINE
  5
327
100
AcDbEntity
  8
FASEN
100
AcDbLine
 62
7
  6
CONTINUOUS
 10
288.7321654841
 20
178.3976431193
 11
236.1952071017
 21
178.3976431193
  0
LINE
  5
328
100
AcDbEntity
  8
0
100
AcDbLine
 62
7
  6
CONTINUOUS
 10
288.4636862929
 20
180.3976431193
 11
236.4636862929
 21
180.3976431193
  0
LINE
  5
329
100
AcDbEntity
  8
KONSTRUKTIONSELEMENTE
100
AcDbLine
 62
7
  6
CONTINUOUS
 10
271.5545200236
 20
150.4480686702
 11
271.7628525622
 21
150.1289197721
  0
LINE
  5
32A
100
AcDbEntity
  8
KONSTRUKTIONSELEMENTE
100
AcDbLine
 62
7
  6
CONTINUOUS
 10
264.8878525622
 20
148.9587069221
 11
264.6795200236
 21
149.3842388608
  0
LINE
  5
32B
100
AcDbEntity
  8
KONSTRUKTIONSELEMENTE
100
AcDbLine
 62
7
  6
CONTINUOUS
 10
268.6378525622
 20
149.3842388608
 11
268.8461862929
 21
148.9587069221
  0
LINE
  5
32C
100
AcDbEntity
  8
KONSTRUKTIONSELEMENTE
100
AcDbLine
 62
7
  6
CONTINUOUS
 10
269.4711862929
 20
148.9587069221
 11
269.2628525622
 21
149.3842388608
  0
LINE
  5
32D
100
AcDbEntity
  8
0
100
AcDbLine
 62
7
  6
CONTINUOUS
 10
248.1883496304
 20
202.3823436408
 11
248.1508756068
 21
202.645645481
  0
LINE
  5
32E
100
AcDbEntity
  8
0
100
AcDbLine
 62
7
  6
CONTINUOUS
 10
252.4790164147
 20
206.5109862826
 11
252.4472473849
 21
206.8553896986
  0
LINE
  5
32F
100
AcDbEntity
  8
0
100
AcDbLine
 62
7
  6
CONTINUOUS
 10
250.2869899902
 20
204.4237733285
 11
250.3050578179
 21
204.2079253686
  0
LINE
  5
330
100
AcDbEntity
  8
0
100
AcDbLine
 62
7
  6
CONTINUOUS
 10
251.4636862929
 20
137.3976431193
 11
251.4636862929
 21
106.8976431193
  0
LINE
  5
331
100
AcDbEntity
  8
RUNDUNGEN
100
AcDbLine
 62
7
  6
CONTINUOUS
 10
251.9636862929
 20
141.0976431193
 11
251.9636862929
 21
153.0976431193
  0
LINE
  5
332
100
AcDbEntity
  8
RUNDUNGEN
100
AcDbLine
 62
7
  6
CONTINUOUS
 10
253.4636862929
 20
161.0976431193
 11
253.4636862929
 21
167.0976431193
  0
LINE
  5
333
100
AcDbEntity
  8
KONSTRUKTIONSELEMENTE
100
AcDbLine
 62
7
  6
CONTINUOUS
 10
253.8461862929
 20
151.9374304928
 11
253.8461862929
 21
151.5118983306
  0
LINE
  5
334
100
AcDbEntity
  8
KONSTRUKTIONSELEMENTE
100
AcDbLine
 62
7
  6
CONTINUOUS
 10
254.4711862929
 20
151.6182812967
 11
254.4711862929
 21
151.8310472287
  0
LINE
  5
335
100
AcDbEntity
  8
KONSTRUKTIONSELEMENTE
100
AcDbLine
 62
7
  6
CONTINUOUS
 10
254.8136862929
 20
146.0976431193
 11
254.8136862929
 21
140.0976431193
  0
LINE
  5
336
100
AcDbEntity
  8
KONSTRUKTIONSELEMENTE
100
AcDbLine
 62
7
  6
CONTINUOUS
 10
255.4886862929
 20
140.0976431193
 11
255.4886862929
 21
144.8210475268
  0
LINE
  5
337
100
AcDbEntity
  8
0
100
AcDbLine
 62
7
  6
CONTINUOUS
 10
255.9636862929
 20
197.9647519869
 11
255.9636862929
 21
280.8305342516
  0
LINE
  5
338
100
AcDbEntity
  8
RUNDUNGEN
100
AcDbLine
 62
7
  6
CONTINUOUS
 10
256.4636862929
 20
155.5976431193
 11
256.4636862929
 21
156.5976431212
  0
LINE
  5
339
100
AcDbEntity
  8
KONSTRUKTIONSELEMENTE
100
AcDbLine
 62
7
  6
CONTINUOUS
 10
256.7628528602
 20
149.7033877589
 11
256.7628528602
 21
149.3842388608
  0
LINE
  5
33A
100
AcDbEntity
  8
0
100
AcDbLine
 62
7
  6
CONTINUOUS
 10
252.1172667657
 20
206.6825052857
 11
252.0938892112
 21
206.4671676946
  0
LINE
  5
33B
100
AcDbEntity
  8
0
100
AcDbLine
 62
7
  6
CONTINUOUS
 10
249.9411373785
 20
203.6100299487
 11
249.7411093311
 21
203.5269301987
  0
LINE
  5
33C
100
AcDbEntity
  8
BEZUGSACHSEN
100
AcDbLine
 62
7
  6
CONTINUOUS
 10
280.870167098
 20
185.3976431193
 11
244.0577743541
 21
185.3976431193
  0
LINE
  5
33D
100
AcDbEntity
  8
0
100
AcDbLine
 62
7
  6
CONTINUOUS
 10
248.1508756068
 20
202.645645481
 11
247.9733847464
 21
202.8992291169
  0
LINE
  5
33E
100
AcDbEntity
  8
0
100
AcDbLine
 62
7
  6
CONTINUOUS
 10
250.1840714899
 20
204.6229835927
 11
250.2869899902
 21
204.4237733285
  0
LINE
  5
33F
100
AcDbEntity
  8
0
100
AcDbLine
 62
7
  6
CONTINUOUS
 10
247.7905791805
 20
202.5940478254
 11
247.8690703059
 21
202.4399539405
  0
LINE
  5
340
100
AcDbEntity
  8
KONSTRUKTIONSELEMENTE
100
AcDbLine
 62
7
  6
CONTINUOUS
 10
267.8045200236
 20
149.916153691
 11
267.5961862929
 21
150.4480686702
  0
LINE
  5
341
100
AcDbEntity
  8
KONSTRUKTIONSELEMENTE
100
AcDbLine
 62
7
  6
CONTINUOUS
 10
272.3878525622
 20
149.916153691
 11
272.1795200236
 21
150.4480686702
  0
LINE
  5
342
100
AcDbEntity
  8
KONSTRUKTIONSELEMENTE
100
AcDbLine
 62
7
  6
CONTINUOUS
 10
267.1795200236
 20
150.1289197721
 11
267.2836862929
 21
149.8097707249
  0
LINE
  5
343
100
AcDbEntity
  8
0
100
AcDbLine
 62
7
  6
CONTINUOUS
 10
252.0541782485
 20
206.8976723461
 11
252.1172667657
 21
206.6825052857
  0
LINE
  5
344
100
AcDbEntity
  8
0
100
AcDbLine
 62
7
  6
CONTINUOUS
 10
250.6747870942
 20
204.3243001902
 11
250.5779981474
 21
204.6563469335
  0
LINE
  5
345
100
AcDbEntity
  8
KONSTRUKTIONSELEMENTE
100
AcDbLine
 62
7
  6
CONTINUOUS
 10
265.1636860783
 20
144.6933879675
 11
265.0511865075
 21
145.2040262045
  0
LINE
  5
346
100
AcDbEntity
  8
KONSTRUKTIONSELEMENTE
100
AcDbLine
 62
7
  6
CONTINUOUS
 10
261.9711862929
 20
149.2778558947
 11
261.1378531583
 21
153.1076431193
  0
LINE
  5
347
100
AcDbEntity
  8
KONSTRUKTIONSELEMENTE
100
AcDbLine
 62
7
  6
CONTINUOUS
 10
260.7211862929
 20
152.1501964249
 11
261.5545194276
 21
148.1076431193
  0
LINE
  5
348
100
AcDbEntity
  8
KONSTRUKTIONSELEMENTE
100
AcDbLine
 62
7
  6
CONTINUOUS
 10
258.2211862929
 20
153.1076431193
 11
259.0545194276
 21
148.1076431193
  0
LINE
  5
349
100
AcDbEntity
  8
KONSTRUKTIONSELEMENTE
100
AcDbLine
 62
7
  6
CONTINUOUS
 10
259.4711862929
 20
149.2778558947
 11
258.8461862929
 21
153.1076431193
  0
LINE
  5
34A
100
AcDbEntity
  8
KONSTRUKTIONSELEMENTE
100
AcDbLine
 62
7
  6
CONTINUOUS
 10
257.3878528602
 20
149.2778558947
 11
257.3878528602
 21
149.8097707249
  0
LINE
  5
34B
100
AcDbEntity
  8
KONSTRUKTIONSELEMENTE
100
AcDbLine
 62
7
  6
CONTINUOUS
 10
259.5386862929
 20
144.8210475268
 11
259.5386862929
 21
140.0976431193
  0
LINE
  5
34C
100
AcDbEntity
  8
KONSTRUKTIONSELEMENTE
100
AcDbLine
 62
7
  6
CONTINUOUS
 10
260.2136862929
 20
140.0976431193
 11
260.2136862929
 21
146.0976431193
  0
LINE
  5
34D
100
AcDbEntity
  8
KONSTRUKTIONSELEMENTE
100
AcDbLine
 62
7
  6
CONTINUOUS
 10
261.1136860783
 20
140.7359410049
 11
261.1136860783
 21
140.0976431193
  0
LINE
  5
34E
100
AcDbEntity
  8
0
100
AcDbLine
 62
7
  6
CONTINUOUS
 10
269.0843506305
 20
208.7354402955
 11
271.288196858
 21
210.9746418796
  0
LINE
  5
34F
100
AcDbEntity
  8
0
100
AcDbLine
 62
7
  6
CONTINUOUS
 10
270.9771062985
 20
211.1349600589
 11
269.0523943448
 21
209.1827517671
  0
LINE
  5
350
100
AcDbEntity
  8
0
100
AcDbLine
 62
7
  6
CONTINUOUS
 10
272.7058892396
 20
206.4593337595
 11
272.4624739183
 21
206.2529239025
  0
LINE
  5
351
100
AcDbEntity
  8
0
100
AcDbLine
 62
7
  6
CONTINUOUS
 10
275.3467824451
 20
206.4044606007
 11
275.2494161938
 21
206.3218965538
  0
LINE
  5
352
100
AcDbEntity
  8
0
100
AcDbLine
 62
7
  6
CONTINUOUS
 10
273.8205357419
 20
204.6513867479
 11
274.0639510632
 21
204.8577966049
  0
LINE
  5
353
100
AcDbEntity
  8
0
100
AcDbLine
 62
7
  6
CONTINUOUS
 10
275.4757598311
 20
206.0549736947
 11
275.5731260824
 21
206.1375377416
  0
LINE
  5
354
100
AcDbEntity
  8
FASEN
100
AcDbLine
 62
7
  6
CONTINUOUS
 10
236.1952071018
 20
178.3976431194
 11
235.0215589241
 21
177.4128353664
  0
LINE
  5
355
100
AcDbEntity
  8
0
100
AcDbLine
 62
7
  6
CONTINUOUS
 10
275.8192772059
 20
205.3128895663
 11
275.6009464463
 21
205.1805281985
  0
LINE
  5
356
100
AcDbEntity
  8
0
100
AcDbLine
 62
7
  6
CONTINUOUS
 10
276.4978460491
 20
205.1785852666
 11
276.0611843769
 21
204.9138624384
  0
LINE
  5
357
100
AcDbEntity
  8
0
100
AcDbLine
 62
7
  6
CONTINUOUS
 10
275.8428536172
 20
204.7815010707
 11
274.7511997044
 21
204.1196941625
  0
LINE
  5
358
100
AcDbEntity
  8
0
100
AcDbLine
 62
7
  6
CONTINUOUS
 10
275.0115572773
 20
203.9364826293
 11
275.9940457721
 21
204.5321088304
  0
LINE
  5
359
100
AcDbEntity
  8
0
100
AcDbLine
 62
7
  6
CONTINUOUS
 10
276.2123765318
 20
204.6644701981
 11
276.649038204
 21
204.9291930263
  0
LINE
  5
35A
100
AcDbEntity
  8
0
100
AcDbLine
 62
7
  6
CONTINUOUS
 10
274.73787535
 20
203.156674501
 11
274.9562061288
 21
203.2890358803
  0
LINE
  5
35B
100
AcDbEntity
  8
0
100
AcDbLine
 62
7
  6
CONTINUOUS
 10
276.326666575
 20
203.9834490983
 11
276.5449973346
 21
204.115810466
  0
LINE
  5
35C
100
AcDbEntity
  8
0
100
AcDbLine
 62
7
  6
CONTINUOUS
 10
274.4852432164
 20
207.8152298299
 11
274.2527876227
 21
207.6945884318
  0
LINE
  5
35D
100
AcDbEntity
  8
0
100
AcDbLine
 62
7
  6
CONTINUOUS
 10
275.2433025106
 20
205.934334333
 11
275.4757598311
 21
206.0549736947
  0
LINE
  5
35E
100
AcDbEntity
  8
0
100
AcDbLine
 62
7
  6
CONTINUOUS
 10
246.1595014679
 20
201.3374560715
 11
248.9679465225
 21
200.2826402699
  0
LINE
  5
35F
100
AcDbEntity
  8
0
100
AcDbLine
 62
7
  6
CONTINUOUS
 10
249.0909979454
 20
200.6102644481
 11
247.8361607755
 21
201.0815651321
  0
LINE
  5
360
100
AcDbEntity
  8
0
100
AcDbLine
 62
7
  6
CONTINUOUS
 10
247.4776359177
 20
201.2162224524
 11
246.5813236057
 21
201.5528658161
  0
LINE
  5
361
100
AcDbEntity
  8
0
100
AcDbLine
 62
7
  6
CONTINUOUS
 10
247.3962585984
 20
204.3396161826
 11
249.0865012671
 21
203.3108177771
  0
LINE
  5
362
100
AcDbEntity
  8
0
100
AcDbLine
 62
7
  6
CONTINUOUS
 10
249.2684615736
 20
203.6097656296
 11
247.5782189049
 21
204.6385640351
  0
LINE
  5
363
100
AcDbEntity
  8
0
100
AcDbLine
 62
7
  6
CONTINUOUS
 10
247.6318253025
 20
202.7159804632
 11
247.7905791805
 21
202.5940478254
  0
LINE
  5
364
100
AcDbEntity
  8
0
100
AcDbLine
 62
7
  6
CONTINUOUS
 10
247.9733847464
 20
202.8992291169
 11
247.8146308684
 21
203.0211617547
  0
LINE
  5
365
100
AcDbEntity
  8
0
100
AcDbLine
 62
7
  6
CONTINUOUS
 10
250.4205556593
 20
204.8887442618
 11
250.1782626721
 21
205.1045041793
  0
LINE
  5
366
100
AcDbEntity
  8
0
100
AcDbLine
 62
7
  6
CONTINUOUS
 10
249.106383182
 20
206.9779708058
 11
251.3249824996
 21
204.9586102466
  0
LINE
  5
367
100
AcDbEntity
  8
0
100
AcDbLine
 62
7
  6
CONTINUOUS
 10
251.2773291714
 20
205.475215625
 11
249.6251807089
 21
206.9789947962
  0
LINE
  5
368
100
AcDbEntity
  8
0
100
AcDbLine
 62
7
  6
CONTINUOUS
 10
249.9963024524
 20
204.8055564694
 11
250.1840714899
 21
204.6229835927
  0
LINE
  5
369
100
AcDbEntity
  8
0
100
AcDbLine
 62
7
  6
CONTINUOUS
 10
252.3369545996
 20
207.1135219023
 11
252.1401952932
 21
207.3714830818
  0
LINE
  5
36A
100
AcDbEntity
  8
0
100
AcDbLine
 62
7
  6
CONTINUOUS
 10
251.9046231774
 20
207.1126684124
 11
252.0541782485
 21
206.8976723461
  0
LINE
  5
36B
100
AcDbEntity
  8
0
100
AcDbLine
 62
7
  6
CONTINUOUS
 10
250.5779981474
 20
204.6563469335
 11
250.4205556593
 21
204.8887442618
  0
LINE
  5
36C
100
AcDbEntity
  8
0
100
AcDbLine
 62
7
  6
CONTINUOUS
 10
252.4472473849
 20
206.8553896986
 11
252.3369545996
 21
207.1135219023
  0
LINE
  5
36D
100
AcDbEntity
  8
KONSTRUKTIONSELEMENTE
100
AcDbLine
 62
7
  6
CONTINUOUS
 10
271.7628525622
 20
150.1289197721
 11
271.8670200236
 21
149.8097707249
  0
LINE
  5
36E
100
AcDbEntity
  8
KONSTRUKTIONSELEMENTE
100
AcDbLine
 62
7
  6
CONTINUOUS
 10
270.1136858638
 20
144.6933879675
 11
270.0011862929
 21
145.2040262045
  0
LINE
  5
36F
100
AcDbEntity
  8
KONSTRUKTIONSELEMENTE
100
AcDbLine
 62
7
  6
CONTINUOUS
 10
264.0545200236
 20
153.1076431193
 11
264.0545200236
 21
150.3416857042
  0
LINE
  5
370
100
AcDbEntity
  8
KONSTRUKTIONSELEMENTE
100
AcDbLine
 62
7
  6
CONTINUOUS
 10
264.4886860783
 20
144.6933879675
 11
264.4886860783
 21
144.4380684914
  0
LINE
  5
371
100
AcDbEntity
  8
KONSTRUKTIONSELEMENTE
100
AcDbLine
 62
7
  6
CONTINUOUS
 10
264.5753525622
 20
150.8736005344
 11
264.5753525622
 21
152.5757282891
  0
LINE
  5
372
100
AcDbEntity
  8
KONSTRUKTIONSELEMENTE
100
AcDbLine
 62
7
  6
CONTINUOUS
 10
265.1636860783
 20
140.0976431193
 11
265.1636860783
 21
140.7359410049
  0
LINE
  5
373
100
AcDbEntity
  8
KONSTRUKTIONSELEMENTE
100
AcDbLine
 62
7
  6
CONTINUOUS
 10
265.1636860783
 20
144.4380684914
 11
265.1636860783
 21
144.6933879675
  0
LINE
  5
374
100
AcDbEntity
  8
KONSTRUKTIONSELEMENTE
100
AcDbLine
 62
7
  6
CONTINUOUS
 10
266.0636858638
 20
140.7359410049
 11
266.0636858638
 21
140.0976431193
  0
LINE
  5
375
100
AcDbEntity
  8
KONSTRUKTIONSELEMENTE
100
AcDbLine
 62
7
  6
CONTINUOUS
 10
267.2836862929
 20
149.8097707249
 11
267.2836862929
 21
149.5970047929
  0
LINE
  5
376
100
AcDbEntity
  8
KONSTRUKTIONSELEMENTE
100
AcDbLine
 62
7
  6
CONTINUOUS
 10
267.5961862929
 20
152.5757282891
 11
267.5961862929
 21
153.1076431193
  0
LINE
  5
377
100
AcDbEntity
  8
KONSTRUKTIONSELEMENTE
100
AcDbLine
 62
7
  6
CONTINUOUS
 10
267.8045200236
 20
149.4906218268
 11
267.8045200236
 21
149.916153691
  0
LINE
  5
378
100
AcDbEntity
  8
RUNDUNGEN
100
AcDbLine
 62
7
  6
CONTINUOUS
 10
268.4636862929
 20
156.5976431156
 11
268.4636862929
 21
155.5976431193
  0
LINE
  5
379
100
AcDbEntity
  8
KONSTRUKTIONSELEMENTE
100
AcDbLine
 62
7
  6
CONTINUOUS
 10
268.6378525622
 20
153.1076431193
 11
268.6378525622
 21
150.3416857042
  0
LINE
  5
37A
100
AcDbEntity
  8
0
100
AcDbLine
 62
7
  6
CONTINUOUS
 10
268.9636862929
 20
197.9647519869
 11
268.9636862929
 21
280.8305342516
  0
LINE
  5
37B
100
AcDbEntity
  8
KONSTRUKTIONSELEMENTE
100
AcDbLine
 62
7
  6
CONTINUOUS
 10
269.1586862929
 20
150.8736005344
 11
269.1586862929
 21
152.5757282891
  0
LINE
  5
37C
100
AcDbEntity
  8
KONSTRUKTIONSELEMENTE
100
AcDbLine
 62
7
  6
CONTINUOUS
 10
269.4386858638
 20
144.6933879675
 11
269.4386858638
 21
144.4380684914
  0
LINE
  5
37D
100
AcDbEntity
  8
KONSTRUKTIONSELEMENTE
100
AcDbLine
 62
7
  6
CONTINUOUS
 10
262.5961862929
 20
153.1076431193
 11
261.9711862929
 21
149.2778558947
  0
LINE
  5
37E
100
AcDbEntity
  8
0
100
AcDbLine
 62
7
  6
CONTINUOUS
 10
269.0523943448
 20
209.1827517671
 11
269.5253511454
 21
211.8831111549
  0
LINE
  5
37F
100
AcDbEntity
  8
0
100
AcDbLine
 62
7
  6
CONTINUOUS
 10
269.2142605859
 20
212.0434293343
 11
268.9636862929
 21
210.6200084054
  0
LINE
  5
380
100
AcDbEntity
  8
KONSTRUKTIONSELEMENTE
100
AcDbLine
 62
7
  6
CONTINUOUS
 10
259.8878531583
 20
148.1076431193
 11
260.7211862929
 21
152.1501964249
  0
LINE
  5
381
100
AcDbEntity
  8
KONSTRUKTIONSELEMENTE
100
AcDbLine
 62
7
  6
CONTINUOUS
 10
260.3045194276
 20
153.1076431193
 11
259.4711862929
 21
149.2778558947
  0
LINE
  5
382
100
AcDbEntity
  8
KONSTRUKTIONSELEMENTE
100
AcDbLine
 62
7
  6
CONTINUOUS
 10
253.950352972
 20
152.362962357
 11
253.8461862929
 21
151.9374304928
  0
LINE
  5
383
100
AcDbEntity
  8
KONSTRUKTIONSELEMENTE
100
AcDbLine
 62
7
  6
CONTINUOUS
 10
254.4711862929
 20
151.8310472287
 11
254.5753529348
 21
152.1501964249
  0
LINE
  5
384
100
AcDbEntity
  8
0
100
AcDbLine
 62
7
  6
CONTINUOUS
 10
274.7511997044
 20
204.1196941625
 11
274.5933460644
 21
203.8875754305
  0
LINE
  5
385
100
AcDbEntity
  8
0
100
AcDbLine
 62
7
  6
CONTINUOUS
 10
275.5731260824
 20
206.1375377416
 11
275.7301332213
 21
206.3471541049
  0
LINE
  5
386
100
AcDbEntity
  8
0
100
AcDbLine
 62
7
  6
CONTINUOUS
 10
274.8780470466
 20
203.7873340456
 11
275.0115572773
 21
203.9364826293
  0
LINE
  5
387
100
AcDbEntity
  8
0
100
AcDbLine
 62
7
  6
CONTINUOUS
 10
275.2494161938
 20
206.3218965538
 11
274.9792355094
 21
206.2457436565
  0
LINE
  5
388
100
AcDbEntity
  8
0
100
AcDbLine
 62
7
  6
CONTINUOUS
 10
249.7472722206
 20
202.3575934506
 11
248.1883496304
 21
202.3823436408
  0
LINE
  5
389
100
AcDbEntity
  8
0
100
AcDbLine
 62
7
  6
CONTINUOUS
 10
248.1848064641
 20
202.009833611
 11
249.603712188
 21
201.9753651386
  0
LINE
  5
38A
100
AcDbEntity
  8
0
100
AcDbLine
 62
7
  6
CONTINUOUS
 10
247.2527917263
 20
202.7960338688
 11
247.4525627062
 21
202.7833091863
  0
LINE
  5
38B
100
AcDbEntity
  8
0
100
AcDbLine
 62
7
  6
CONTINUOUS
 10
247.5756141291
 20
203.1109333645
 11
247.3758431493
 21
203.123658047
  0
LINE
  5
38C
100
AcDbEntity
  8
0
100
AcDbLine
 62
7
  6
CONTINUOUS
 10
249.3894477766
 20
203.1947072862
 11
249.6681970489
 21
203.1616083838
  0
LINE
  5
38D
100
AcDbEntity
  8
0
100
AcDbLine
 62
7
  6
CONTINUOUS
 10
249.5168839599
 20
203.5268418945
 11
249.2684615736
 21
203.6097656296
  0
LINE
  5
38E
100
AcDbEntity
  8
0
100
AcDbLine
 62
7
  6
CONTINUOUS
 10
247.4525627062
 20
202.7833091863
 11
247.6318253025
 21
202.7159804632
  0
LINE
  5
38F
100
AcDbEntity
  8
0
100
AcDbLine
 62
7
  6
CONTINUOUS
 10
247.8146308684
 20
203.0211617547
 11
247.5756141291
 21
203.1109333645
  0
LINE
  5
390
100
AcDbEntity
  8
0
100
AcDbLine
 62
7
  6
CONTINUOUS
 10
249.0865012671
 20
203.3108177771
 11
249.3894477766
 21
203.1947072862
  0
LINE
  5
391
100
AcDbEntity
  8
0
100
AcDbLine
 62
7
  6
CONTINUOUS
 10
250.9684807735
 20
207.885870009
 11
251.1965595837
 21
207.75714517
  0
LINE
  5
392
100
AcDbEntity
  8
0
100
AcDbLine
 62
7
  6
CONTINUOUS
 10
248.3060597836
 20
205.8343548749
 11
249.9963024524
 21
204.8055564694
  0
LINE
  5
393
100
AcDbEntity
  8
0
100
AcDbLine
 62
7
  6
CONTINUOUS
 10
250.1782626721
 20
205.1045041793
 11
248.4880200033
 21
206.1333025849
  0
LINE
  5
394
100
AcDbEntity
  8
0
100
AcDbLine
 62
7
  6
CONTINUOUS
 10
251.4321316995
 20
208.0159598394
 11
251.1568485219
 21
208.1876499118
  0
LINE
  5
395
100
AcDbEntity
  8
FASEN
100
AcDbLine
 62
7
  6
CONTINUOUS
 10
288.732165484
 20
178.3976431194
 11
289.9058136617
 21
177.4128353664
  0
LINE
  5
396
100
AcDbEntity
  8
0
100
AcDbLine
 62
7
  6
CONTINUOUS
 10
251.1965595837
 20
207.75714517
 11
251.9046231774
 21
207.1126684124
  0
LINE
  5
397
100
AcDbEntity
  8
0
100
AcDbLine
 62
7
  6
CONTINUOUS
 10
252.1401952932
 20
207.3714830818
 11
251.4321316995
 21
208.0159598394
  0
LINE
  5
398
100
AcDbEntity
  8
0
100
AcDbLine
 62
7
  6
CONTINUOUS
 10
255.9636862929
 20
209.9798022556
 11
254.5982213808
 21
211.4907307285
  0
LINE
  5
399
100
AcDbEntity
  8
0
100
AcDbLine
 62
7
  6
CONTINUOUS
 10
254.280462878
 20
211.3440719793
 11
255.9636862929
 21
209.4782951569
  0
LINE
  5
39A
100
AcDbEntity
  8
0
100
AcDbLine
 62
7
  6
CONTINUOUS
 10
275.4015774589
 20
206.8333068235
 11
275.4173831627
 21
206.6172814627
  0
LINE
  5
39B
100
AcDbEntity
  8
KONSTRUKTIONSELEMENTE
100
AcDbLine
 62
7
  6
CONTINUOUS
 10
270.1136858638
 20
140.0976431193
 11
270.1136858638
 21
140.7359410049
  0
LINE
  5
39C
100
AcDbEntity
  8
KONSTRUKTIONSELEMENTE
100
AcDbLine
 62
7
  6
CONTINUOUS
 10
270.1136858638
 20
144.4380684914
 11
270.1136858638
 21
144.6933879675
  0
LINE
  5
39D
100
AcDbEntity
  8
RUNDUNGEN
100
AcDbLine
 62
7
  6
CONTINUOUS
 10
271.4636862929
 20
167.0976431193
 11
271.4636862929
 21
161.0976431193
  0
LINE
  5
39E
100
AcDbEntity
  8
KONSTRUKTIONSELEMENTE
100
AcDbLine
 62
7
  6
CONTINUOUS
 10
271.8670200236
 20
149.8097707249
 11
271.8670200236
 21
149.5970047929
  0
LINE
  5
39F
100
AcDbEntity
  8
KONSTRUKTIONSELEMENTE
100
AcDbLine
 62
7
  6
CONTINUOUS
 10
272.1795200236
 20
152.5757282891
 11
272.1795200236
 21
153.1076431193
  0
LINE
  5
3A0
100
AcDbEntity
  8
KONSTRUKTIONSELEMENTE
100
AcDbLine
 62
7
  6
CONTINUOUS
 10
272.3878525622
 20
149.4906218268
 11
272.3878525622
 21
149.916153691
  0
LINE
  5
3A1
100
AcDbEntity
  8
RUNDUNGEN
100
AcDbLine
 62
7
  6
CONTINUOUS
 10
272.9636862929
 20
153.0976431193
 11
272.9636862929
 21
141.0976431193
  0
LINE
  5
3A2
100
AcDbEntity
  8
0
100
AcDbLine
 62
7
  6
CONTINUOUS
 10
273.4636862929
 20
137.3976431193
 11
273.4636862929
 21
106.8976431193
  0
LINE
  5
3A3
100
AcDbEntity
  8
0
100
AcDbLine
 62
7
  6
CONTINUOUS
 10
274.5933460644
 20
203.8875754305
 11
274.5748956911
 21
203.6717598533
  0
LINE
  5
3A4
100
AcDbEntity
  8
0
100
AcDbLine
 62
7
  6
CONTINUOUS
 10
274.8595966829
 20
203.5715184742
 11
274.8780470466
 21
203.7873340456
  0
LINE
  5
3A5
100
AcDbEntity
  8
0
100
AcDbLine
 62
7
  6
CONTINUOUS
 10
275.7301332213
 20
206.3471541049
 11
275.7739702685
 21
206.6902298613
  0
LINE
  5
3A6
100
AcDbEntity
  8
KONSTRUKTIONSELEMENTE
100
AcDbLine
 62
7
  6
CONTINUOUS
 10
262.3878531583
 20
148.1076431193
 11
263.2211862929
 21
153.1076431193
  0
LINE
  5
3A7
100
AcDbEntity
  8
KONSTRUKTIONSELEMENTE
100
AcDbLine
 62
7
  6
CONTINUOUS
 10
261.3386865075
 20
145.2040262045
 11
261.2261862929
 21
144.6933879675
  0
LINE
  5
3A8
100
AcDbEntity
  8
KONSTRUKTIONSELEMENTE
100
AcDbLine
 62
7
  6
CONTINUOUS
 10
265.0511865075
 20
143.9274302544
 11
265.1636860783
 21
144.4380684914
  0
LINE
  5
3A9
100
AcDbEntity
  8
KONSTRUKTIONSELEMENTE
100
AcDbLine
 62
7
  6
CONTINUOUS
 10
259.2011862929
 20
146.0976431193
 11
257.5136862929
 21
140.7359410049
  0
LINE
  5
3AA
100
AcDbEntity
  8
0
100
AcDbLine
 62
7
  6
CONTINUOUS
 10
275.4173831627
 20
206.6172814627
 11
275.3467824451
 21
206.4044606007
  0
LINE
  5
3AB
100
AcDbEntity
  8
KONSTRUKTIONSELEMENTE
100
AcDbLine
 62
7
  6
CONTINUOUS
 10
257.9636861856
 20
140.0976431193
 11
259.5386862929
 21
144.8210475268
  0
LINE
  5
3AC
100
AcDbEntity
  8
0
100
AcDbLine
 62
7
  6
CONTINUOUS
 10
247.3758431493
 20
203.123658047
 11
247.0753008659
 21
203.0496175048
  0
LINE
  5
3AD
100
AcDbEntity
  8
0
100
AcDbLine
 62
7
  6
CONTINUOUS
 10
249.6681970489
 20
203.1616083838
 11
250.0075995641
 21
203.228158492
  0
LINE
  5
3AE
100
AcDbEntity
  8
0
100
AcDbLine
 62
7
  6
CONTINUOUS
 10
275.0218066104
 20
205.8994613649
 11
275.2433025106
 21
205.934334333
  0
LINE
  5
3AF
100
AcDbEntity
  8
0
100
AcDbLine
 62
7
  6
CONTINUOUS
 10
274.4414078961
 20
207.4721520371
 11
274.6629037962
 21
207.5070250052
  0
LINE
  5
3B0
100
AcDbEntity
  8
0
100
AcDbLine
 62
7
  6
CONTINUOUS
 10
250.8895073928
 20
208.2732386435
 11
250.5436425247
 21
208.2725561478
  0
LINE
  5
3B1
100
AcDbEntity
  8
0
100
AcDbLine
 62
7
  6
CONTINUOUS
 10
249.7411093311
 20
203.5269301987
 11
249.5168839599
 21
203.5268418945
  0
LINE
  5
3B2
100
AcDbEntity
  8
0
100
AcDbLine
 62
7
  6
CONTINUOUS
 10
274.8308723555
 20
207.802407762
 11
274.4852432164
 21
207.8152298299
  0
LINE
  5
3B3
100
AcDbEntity
  8
0
100
AcDbLine
 62
7
  6
CONTINUOUS
 10
274.9792355094
 20
206.2457436565
 11
272.7058892396
 21
206.4593337595
  0
LINE
  5
3B4
100
AcDbEntity
  8
0
100
AcDbLine
 62
7
  6
CONTINUOUS
 10
273.0076796047
 20
206.1034379717
 11
275.0218066104
 21
205.8994613649
  0
LINE
  5
3B5
100
AcDbEntity
  8
0
100
AcDbLine
 62
7
  6
CONTINUOUS
 10
250.7483437473
 20
207.9284937478
 11
250.9684807735
 21
207.885870009
  0
LINE
  5
3B6
100
AcDbEntity
  8
0
100
AcDbLine
 62
7
  6
CONTINUOUS
 10
251.1568485219
 20
208.1876499118
 11
250.8895073928
 21
208.2732386435
  0
LINE
  5
3B7
100
AcDbEntity
  8
0
100
AcDbLine
 62
7
  6
CONTINUOUS
 10
274.5748956911
 20
203.6717598533
 11
274.6110280125
 21
203.4890346209
  0
LINE
  5
3B8
100
AcDbEntity
  8
0
100
AcDbLine
 62
7
  6
CONTINUOUS
 10
276.8807768455
 20
156.9515729061
 11
276.8807768455
 21
137.3976431193
  0
LINE
  5
3B9
100
AcDbEntity
  8
0
100
AcDbLine
 62
7
  6
CONTINUOUS
 10
279.0708396207
 20
156.9515729061
 11
279.0708396207
 21
137.3976431193
  0
LINE
  5
3BA
100
AcDbEntity
  8
KONSTRUKTIONSELEMENTE
100
AcDbLine
 62
7
  6
CONTINUOUS
 10
266.2886862929
 20
145.2040262045
 11
266.1761867221
 21
144.6933879675
  0
LINE
  5
3BB
100
AcDbEntity
  8
KONSTRUKTIONSELEMENTE
100
AcDbLine
 62
7
  6
CONTINUOUS
 10
270.0011862929
 20
143.9274302544
 11
270.1136858638
 21
144.4380684914
  0
LINE
  5
3BC
100
AcDbEntity
  8
KONSTRUKTIONSELEMENTE
100
AcDbLine
 62
7
  6
CONTINUOUS
 10
267.2836862929
 20
149.5970047929
 11
267.1795200236
 21
149.2778558947
  0
LINE
  5
3BD
100
AcDbEntity
  8
KONSTRUKTIONSELEMENTE
100
AcDbLine
 62
7
  6
CONTINUOUS
 10
257.1795197256
 20
148.8523239561
 11
257.3878528602
 21
149.2778558947
  0
LINE
  5
3BE
100
AcDbEntity
  8
0
100
AcDbLine
 62
7
  6
CONTINUOUS
 10
250.536149219
 20
207.8850166394
 11
250.7483437473
 21
207.9284937478
  0
LINE
  5
3BF
100
AcDbEntity
  8
0
100
AcDbLine
 62
7
  6
CONTINUOUS
 10
274.6629037962
 20
207.5070250052
 11
274.8734417297
 21
207.4561275069
  0
LINE
  5
3C0
100
AcDbEntity
  8
0
100
AcDbLine
 62
7
  6
CONTINUOUS
 10
275.079133653
 20
207.7070237994
 11
274.8308723555
 21
207.802407762
  0
LINE
  5
3C1
100
AcDbEntity
  8
0
100
AcDbLine
 62
7
  6
CONTINUOUS
 10
268.9636862929
 20
208.797623754
 11
269.0843506305
 21
208.7354402955
  0
LINE
  5
3C2
100
AcDbEntity
  8
0
100
AcDbLine
 62
7
  6
CONTINUOUS
 10
271.288196858
 20
210.9746418796
 11
270.9771062985
 21
211.1349600589
  0
LINE
  5
3C3
100
AcDbEntity
  8
0
100
AcDbLine
 62
7
  6
CONTINUOUS
 10
269.5253511454
 20
211.8831111549
 11
269.2142605859
 21
212.0434293343
  0
LINE
  5
3C4
100
AcDbEntity
  8
0
100
AcDbLine
 62
7
  6
CONTINUOUS
 10
274.8734417297
 20
207.4561275069
 11
275.1107450605
 21
207.2749730778
  0
LINE
  5
3C5
100
AcDbEntity
  8
0
100
AcDbLine
 62
7
  6
CONTINUOUS
 10
275.3918837116
 20
207.4368964415
 11
275.079133653
 21
207.7070237994
  0
LINE
  5
3C6
100
AcDbEntity
  8
0
100
AcDbLine
 62
7
  6
CONTINUOUS
 10
272.4624739183
 20
206.2529239025
 11
273.8205357419
 21
204.6513867479
  0
LINE
  5
3C7
100
AcDbEntity
  8
0
100
AcDbLine
 62
7
  6
CONTINUOUS
 10
274.0639510632
 20
204.8577966049
 11
273.0076796047
 21
206.1034379717
  0
LINE
  5
3C8
100
AcDbEntity
  8
0
100
AcDbLine
 62
7
  6
CONTINUOUS
 10
274.2527876227
 20
207.6945884318
 11
274.4414078961
 21
207.4721520371
  0
LINE
  5
3C9
100
AcDbEntity
  8
0
100
AcDbLine
 62
7
  6
CONTINUOUS
 10
275.1107450605
 20
207.2749730778
 11
275.261640243
 21
207.0970251839
  0
LINE
  5
3CA
100
AcDbEntity
  8
0
100
AcDbLine
 62
7
  6
CONTINUOUS
 10
275.542780621
 20
207.2589465112
 11
275.3918837116
 21
207.4368964415
  0
LINE
  5
3CB
100
AcDbEntity
  8
0
100
AcDbLine
 62
7
  6
CONTINUOUS
 10
275.6009464463
 20
205.1805281985
 11
275.8428536172
 21
204.7815010707
  0
LINE
  5
3CC
100
AcDbEntity
  8
0
100
AcDbLine
 62
7
  6
CONTINUOUS
 10
275.9940457721
 20
204.5321088304
 11
276.326666575
 21
203.9834490983
  0
LINE
  5
3CD
100
AcDbEntity
  8
0
100
AcDbLine
 62
7
  6
CONTINUOUS
 10
276.5449973346
 20
204.115810466
 11
276.2123765318
 21
204.6644701981
  0
LINE
  5
3CE
100
AcDbEntity
  8
0
100
AcDbLine
 62
7
  6
CONTINUOUS
 10
276.0611843769
 20
204.9138624384
 11
275.8192772059
 21
205.3128895663
  0
LINE
  5
3CF
100
AcDbEntity
  8
0
100
AcDbLine
 62
7
  6
CONTINUOUS
 10
276.649038204
 20
204.9291930263
 11
276.4978460491
 21
205.1785852666
  0
LINE
  5
3D0
100
AcDbEntity
  8
0
100
AcDbLine
 62
7
  6
CONTINUOUS
 10
275.7204412008
 20
206.9507416864
 11
275.542780621
 21
207.2589465112
  0
LINE
  5
3D1
100
AcDbEntity
  8
0
100
AcDbLine
 62
7
  6
CONTINUOUS
 10
275.261640243
 20
207.0970251839
 11
275.4015774589
 21
206.8333068235
  0
LINE
  5
3D2
100
AcDbEntity
  8
0
100
AcDbLine
 62
7
  6
CONTINUOUS
 10
274.6110280125
 20
203.4890346209
 11
274.73787535
 21
203.156674501
  0
LINE
  5
3D3
100
AcDbEntity
  8
0
100
AcDbLine
 62
7
  6
CONTINUOUS
 10
274.9562061288
 20
203.2890358803
 11
274.8595966829
 21
203.5715184742
  0
LINE
  5
3D4
100
AcDbEntity
  8
0
100
AcDbLine
 62
7
  6
CONTINUOUS
 10
275.7739702685
 20
206.6902298613
 11
275.7204412008
 21
206.9507416864
  0
LINE
  5
3D5
100
AcDbEntity
  8
BEZUGSACHSEN
100
AcDbLine
 62
7
  6
CONTINUOUS
 10
287.9636862929
 20
180.3976431193
 11
287.9636862929
 21
182.5713948238
  0
LINE
  5
3D6
100
AcDbEntity
  8
0
100
AcDbLine
 62
7
  6
CONTINUOUS
 10
288.4636862929
 20
180.3976431193
 11
288.4636862929
 21
178.3976431193
  0
LINE
  5
3D7
100
AcDbEntity
  8
KONSTRUKTIONSELEMENTE
100
AcDbLine
 62
7
  6
CONTINUOUS
 10
271.8670200236
 20
149.5970047929
 11
271.7628525622
 21
149.2778558947
  0
LINE
  5
3D8
100
AcDbEntity
  8
KONSTRUKTIONSELEMENTE
100
AcDbLine
 62
7
  6
CONTINUOUS
 10
267.5961862929
 20
148.9587069221
 11
267.8045200236
 21
149.4906218268
  0
LINE
  5
3D9
100
AcDbEntity
  8
KONSTRUKTIONSELEMENTE
100
AcDbLine
 62
7
  6
CONTINUOUS
 10
272.1795200236
 20
148.9587069221
 11
272.3878525622
 21
149.4906218268
  0
LINE
  5
3DA
100
AcDbEntity
  8
BEZUGSACHSEN
100
AcDbLine
 62
7
  6
CONTINUOUS
 10
285.9881482896
 20
195.2495928222
 11
283.6255157973
 21
189.5456934164
  0
LINE
  5
3DB
100
AcDbEntity
  8
KONSTRUKTIONSELEMENTE
100
AcDbLine
 62
7
  6
CONTINUOUS
 10
264.4886860783
 20
144.4380684914
 11
264.2636862929
 21
143.9274302544
  0
LINE
  5
3DC
100
AcDbEntity
  8
KONSTRUKTIONSELEMENTE
100
AcDbLine
 62
7
  6
CONTINUOUS
 10
261.7886860783
 20
144.6933879675
 11
262.0136865075
 21
145.0763666453
  0
LINE
  5
3DD
100
AcDbEntity
  8
KONSTRUKTIONSELEMENTE
100
AcDbLine
 62
7
  6
CONTINUOUS
 10
256.7628528602
 20
149.3842388608
 11
256.5545197256
 21
149.0650899627
  0
LINE
  5
3DE
100
AcDbEntity
  8
KONSTRUKTIONSELEMENTE
100
AcDbLine
 62
7
  6
CONTINUOUS
 10
254.3670196511
 20
152.7884942211
 11
253.950352972
 21
152.362962357
  0
LINE
  5
3DF
100
AcDbEntity
  8
RUNDUNGEN
100
AcDbLine
 62
7
  6
CONTINUOUS
 10
268.9636862929
 20
217.7052549638
 11
278.2861987443
 21
213.8437438711
  0
LINE
  5
3E0
100
AcDbEntity
  8
BEZUGSACHSEN
100
AcDbLine
 62
7
  6
CONTINUOUS
 10
279.9097870447
 20
212.2201555707
 11
285.9881482896
 21
197.5456934164
  0
LINE
  5
3E1
100
AcDbEntity
  8
BEZUGSACHSEN
100
AcDbLine
 62
7
  6
CONTINUOUS
 10
289.9058136618
 20
177.4128353663
 11
293.4879301733
 21
157.0976431193
  0
LINE
  5
3E2
100
AcDbEntity
  8
FASEN
100
AcDbLine
 62
7
  6
CONTINUOUS
 10
293.4879301733
 20
157.0976431193
 11
289.9058136618
 21
177.4128353663
  0
LINE
  5
3E3
100
AcDbEntity
  8
BEZUGSACHSEN
100
AcDbLine
 62
7
  6
CONTINUOUS
 10
293.4879301733
 20
157.0976437108
 11
293.4879301733
 21
156.9515729061
  0
LINE
  5
3E4
100
AcDbEntity
  8
0
100
AcDbLine
 62
7
  6
CONTINUOUS
 10
293.4879301733
 20
156.9515729061
 11
293.4879301733
 21
137.3976431193
  0
LINE
  5
3E5
100
AcDbEntity
  8
KONSTRUKTIONSELEMENTE
100
AcDbLine
 62
7
  6
CONTINUOUS
 10
269.4386858638
 20
144.4380684914
 11
269.2136867221
 21
143.9274302544
  0
LINE
  5
3E6
100
AcDbEntity
  8
KONSTRUKTIONSELEMENTE
100
AcDbLine
 62
7
  6
CONTINUOUS
 10
264.8261860783
 20
143.5444515766
 11
265.0511865075
 21
143.9274302544
  0
LINE
  5
3E7
100
AcDbEntity
  8
KONSTRUKTIONSELEMENTE
100
AcDbLine
 62
7
  6
CONTINUOUS
 10
266.7386858638
 20
144.6933879675
 11
266.9636862929
 21
145.0763666453
  0
LINE
  5
3E8
100
AcDbEntity
  8
KONSTRUKTIONSELEMENTE
100
AcDbLine
 62
7
  6
CONTINUOUS
 10
269.7761858638
 20
143.5444515766
 11
270.0011862929
 21
143.9274302544
  0
LINE
  5
3E9
100
AcDbEntity
  8
KONSTRUKTIONSELEMENTE
100
AcDbLine
 62
7
  6
CONTINUOUS
 10
267.1795200236
 20
149.2778558947
 11
266.9711862929
 21
148.9587069221
  0
LINE
  5
3EA
100
AcDbEntity
  8
KONSTRUKTIONSELEMENTE
100
AcDbLine
 62
7
  6
CONTINUOUS
 10
267.2836862929
 20
148.5331750207
 11
267.5961862929
 21
148.9587069221
  0
LINE
  5
3EB
100
AcDbEntity
  8
KONSTRUKTIONSELEMENTE
100
AcDbLine
 62
7
  6
CONTINUOUS
 10
261.7886860783
 20
145.7146644415
 11
261.3386865075
 21
145.2040262045
  0
LINE
  5
3EC
100
AcDbEntity
  8
KONSTRUKTIONSELEMENTE
100
AcDbLine
 62
7
  6
CONTINUOUS
 10
256.7628528602
 20
148.4267920546
 11
257.1795197256
 21
148.8523239561
  0
LINE
  5
3ED
100
AcDbEntity
  8
KONSTRUKTIONSELEMENTE
100
AcDbLine
 62
7
  6
CONTINUOUS
 10
254.5753529348
 20
152.1501964249
 11
254.8878530093
 21
152.362962357
  0
LINE
  5
3EE
100
AcDbEntity
  8
KONSTRUKTIONSELEMENTE
100
AcDbLine
 62
7
  6
CONTINUOUS
 10
271.7628525622
 20
149.2778558947
 11
271.5545200236
 21
148.9587069221
  0
LINE
  5
3EF
100
AcDbEntity
  8
KONSTRUKTIONSELEMENTE
100
AcDbLine
 62
7
  6
CONTINUOUS
 10
271.8670200236
 20
148.5331750207
 11
272.1795200236
 21
148.9587069221
  0
LINE
  5
3F0
100
AcDbEntity
  8
KONSTRUKTIONSELEMENTE
100
AcDbLine
 62
7
  6
CONTINUOUS
 10
266.7386858638
 20
145.7146644415
 11
266.2886862929
 21
145.2040262045
  0
LINE
  5
3F1
100
AcDbEntity
  8
KONSTRUKTIONSELEMENTE
100
AcDbLine
 62
7
  6
CONTINUOUS
 10
264.2636862929
 20
143.9274302544
 11
261.1136860783
 21
140.7359410049
  0
LINE
  5
3F2
100
AcDbEntity
  8
KONSTRUKTIONSELEMENTE
100
AcDbLine
 62
7
  6
CONTINUOUS
 10
262.0136865075
 20
140.7359410049
 11
264.8261860783
 21
143.5444515766
  0
LINE
  5
3F3
100
AcDbEntity
  8
KONSTRUKTIONSELEMENTE
100
AcDbLine
 62
7
  6
CONTINUOUS
 10
264.7836862929
 20
150.3416857042
 11
265.2003525622
 21
150.6608346023
  0
LINE
  5
3F4
100
AcDbEntity
  8
KONSTRUKTIONSELEMENTE
100
AcDbLine
 62
7
  6
CONTINUOUS
 10
256.5545197256
 20
149.0650899627
 11
256.2420197256
 21
148.8523239561
  0
LINE
  5
3F5
100
AcDbEntity
  8
KONSTRUKTIONSELEMENTE
100
AcDbLine
 62
7
  6
CONTINUOUS
 10
265.0961862929
 20
151.1927494325
 11
264.5753525622
 21
150.8736005344
  0
LINE
  5
3F6
100
AcDbEntity
  8
KONSTRUKTIONSELEMENTE
100
AcDbLine
 62
7
  6
CONTINUOUS
 10
254.7836862929
 20
153.0012601532
 11
254.3670196511
 21
152.7884942211
  0
LINE
  5
3F7
100
AcDbEntity
  8
KONSTRUKTIONSELEMENTE
100
AcDbLine
 62
7
  6
CONTINUOUS
 10
254.8878530093
 20
152.362962357
 11
255.2003530093
 21
152.469345323
  0
LINE
  5
3F8
100
AcDbEntity
  8
KONSTRUKTIONSELEMENTE
100
AcDbLine
 62
7
  6
CONTINUOUS
 10
269.2136867221
 20
143.9274302544
 11
266.0636858638
 21
140.7359410049
  0
LINE
  5
3F9
100
AcDbEntity
  8
KONSTRUKTIONSELEMENTE
100
AcDbLine
 62
7
  6
CONTINUOUS
 10
266.9636862929
 20
140.7359410049
 11
269.7761858638
 21
143.5444515766
  0
LINE
  5
3FA
100
AcDbEntity
  8
KONSTRUKTIONSELEMENTE
100
AcDbLine
 62
7
  6
CONTINUOUS
 10
269.3670200236
 20
150.3416857042
 11
269.7836862929
 21
150.6608346023
  0
LINE
  5
3FB
100
AcDbEntity
  8
KONSTRUKTIONSELEMENTE
100
AcDbLine
 62
7
  6
CONTINUOUS
 10
262.0136865075
 20
145.0763666453
 11
262.3511865075
 21
145.3316857638
  0
LINE
  5
3FC
100
AcDbEntity
  8
KONSTRUKTIONSELEMENTE
100
AcDbLine
 62
7
  6
CONTINUOUS
 10
266.9636862929
 20
145.0763666453
 11
267.3011862929
 21
145.3316857638
  0
LINE
  5
3FD
100
AcDbEntity
  8
KONSTRUKTIONSELEMENTE
100
AcDbLine
 62
7
  6
CONTINUOUS
 10
266.9711862929
 20
148.9587069221
 11
266.6586862929
 21
148.74594099
  0
LINE
  5
3FE
100
AcDbEntity
  8
KONSTRUKTIONSELEMENTE
100
AcDbLine
 62
7
  6
CONTINUOUS
 10
271.5545200236
 20
148.9587069221
 11
271.2420200236
 21
148.74594099
  0
LINE
  5
3FF
100
AcDbEntity
  8
KONSTRUKTIONSELEMENTE
100
AcDbLine
 62
7
  6
CONTINUOUS
 10
269.6795200236
 20
151.1927494325
 11
269.1586862929
 21
150.8736005344
  0
LINE
  5
400
100
AcDbEntity
  8
KONSTRUKTIONSELEMENTE
100
AcDbLine
 62
7
  6
CONTINUOUS
 10
266.7628525622
 20
148.2140260946
 11
267.2836862929
 21
148.5331750207
  0
LINE
  5
401
100
AcDbEntity
  8
KONSTRUKTIONSELEMENTE
100
AcDbLine
 62
7
  6
CONTINUOUS
 10
271.3461862929
 20
148.2140260946
 11
271.8670200236
 21
148.5331750207
  0
LINE
  5
402
100
AcDbEntity
  8
KONSTRUKTIONSELEMENTE
100
AcDbLine
 62
7
  6
CONTINUOUS
 10
262.2386862929
 20
145.96998356
 11
261.7886860783
 21
145.7146644415
  0
LINE
  5
403
100
AcDbEntity
  8
KONSTRUKTIONSELEMENTE
100
AcDbLine
 62
7
  6
CONTINUOUS
 10
267.1886867221
 20
145.96998356
 11
266.7386858638
 21
145.7146644415
  0
LINE
  5
404
100
AcDbEntity
  8
KONSTRUKTIONSELEMENTE
100
AcDbLine
 62
7
  6
CONTINUOUS
 10
256.3461862929
 20
148.2140260946
 11
256.7628528602
 21
148.4267920546
  0
LINE
  5
405
100
AcDbEntity
  8
0
100
AcDbLine
 62
7
  6
CONTINUOUS
 10
273.4636862929
 20
106.8976431193
 11
270.9636862929
 21
104.3976431193
  0
LINE
  5
406
100
AcDbEntity
  8
RUNDUNGEN
100
AcDbLine
 62
7
  6
CONTINUOUS
 10
130.5915739999
 20
65.1295590379
 11
130.5915739999
 21
49.1295590379
  0
LINE
  5
407
100
AcDbEntity
  8
BEZUGSACHSEN
100
AcDbLine
 62
7
  6
CONTINUOUS
 10
133.5915739999
 20
71.5466495904
 11
134.8560073327
 21
73.7367123657
  0
LINE
  5
408
100
AcDbEntity
  8
BEZUGSACHSEN
100
AcDbLine
 62
7
  6
CONTINUOUS
 10
162.3560073327
 20
26.1053151576
 11
159.827140667
 21
26.1053151576
  0
LINE
  5
409
100
AcDbEntity
  8
BEZUGSACHSEN
100
AcDbLine
 62
7
  6
CONTINUOUS
 10
134.8560073327
 20
40.5224057101
 11
133.5915739999
 21
42.7124684854
  0
LINE
  5
40A
100
AcDbEntity
  8
RUNDUNGEN
100
AcDbLine
 62
7
  6
CONTINUOUS
 10
133.5915739999
 20
42.7124684854
 11
133.5915739999
 21
46.6295590379
  0
LINE
  5
40B
100
AcDbEntity
  8
RUNDUNGEN
100
AcDbLine
 62
7
  6
CONTINUOUS
 10
133.5915739999
 20
67.6295590379
 11
133.5915739999
 21
71.5466495904
  0
LINE
  5
40C
100
AcDbEntity
  8
BEZUGSACHSEN
100
AcDbLine
 62
7
  6
CONTINUOUS
 10
134.8560073327
 20
73.7367123657
 11
159.827140667
 21
88.1538029182
  0
LINE
  5
40D
100
AcDbEntity
  8
BEZUGSACHSEN
100
AcDbLine
 62
7
  6
CONTINUOUS
 10
159.827140667
 20
26.1053151576
 11
134.8560073327
 21
40.5224057101
  0
LWPOLYLINE
  5
40E
100
AcDbEntity
  8
RUNDUNGEN
100
AcDbPolyline
 62
7
  6
CONTINUOUS
 90
5
 70
0
 10
165.3862831802
 20
33.3765284927
 10
165.7514060668
 20
33.4025588621
 10
166.3159050489
 20
33.5505730616
 10
166.8386116097
 20
33.825637537
 10
167.3069526714
 20
34.233888503
  0
LINE
  5
40F
100
AcDbEntity
  8
BEZUGSACHSEN
100
AcDbLine
 62
7
  6
CONTINUOUS
 10
156.7967546278
 20
33.376749338
 11
156.7962146789
 21
33.3767356388
  0
LINE
  5
410
100
AcDbEntity
  8
BEZUGSACHSEN
100
AcDbLine
 62
7
  6
CONTINUOUS
 10
165.3869421801
 20
33.3767356388
 11
156.7962058196
 21
33.3767356388
  0
LINE
  5
411
100
AcDbEntity
  8
RUNDUNGEN
100
AcDbLine
 62
7
  6
CONTINUOUS
 10
165.3863718766
 20
33.3767504498
 11
165.3869333208
 21
33.3767356388
  0
LWPOLYLINE
  5
412
100
AcDbEntity
  8
BEZUGSACHSEN
100
AcDbPolyline
 62
7
  6
CONTINUOUS
 90
5
 70
0
 10
154.8769826889
 20
34.2330311265
 10
155.3558401675
 20
33.8179750438
 10
155.8860872662
 20
33.5433482476
 10
156.4581472163
 20
33.3989071826
 10
156.7968441711
 20
33.3765274308
  0
LINE
  5
413
100
AcDbEntity
  8
BEZUGSACHSEN
100
AcDbLine
 62
7
  6
CONTINUOUS
 10
154.8485024608
 20
79.9945175723
 11
151.9999205234
 21
76.7526976778
  0
LINE
  5
414
100
AcDbEntity
  8
BEZUGSACHSEN
100
AcDbLine
 62
7
  6
CONTINUOUS
 10
152.0059964522
 20
37.4994928903
 11
154.8485024608
 21
34.2646005035
  0
LINE
  5
415
100
AcDbEntity
  8
BEZUGSACHSEN
100
AcDbLine
 62
7
  6
CONTINUOUS
 10
151.9999205234
 20
37.506420398
 11
152.0019468575
 21
37.5041073925
  0
LINE
  5
416
100
AcDbEntity
  8
RUNDUNGEN
100
AcDbLine
 62
7
  6
CONTINUOUS
 10
187.1605003264
 20
42.7124684854
 11
188.0915739999
 21
42.7124684854
  0
LINE
  5
417
100
AcDbEntity
  8
0
100
AcDbLine
 62
7
  6
CONTINUOUS
 10
155.5915739999
 20
42.9442071269
 11
155.0915739999
 21
42.9442071269
  0
LINE
  5
418
100
AcDbEntity
  8
0
100
AcDbLine
 62
7
  6
CONTINUOUS
 10
155.5915739999
 20
43.0953992817
 11
155.0915739999
 21
43.0953992817
  0
LINE
  5
419
100
AcDbEntity
  8
0
100
AcDbLine
 62
7
  6
CONTINUOUS
 10
155.5915739999
 20
43.5320609539
 11
155.0915739999
 21
43.5320609539
  0
LINE
  5
41A
100
AcDbEntity
  8
0
100
AcDbLine
 62
7
  6
CONTINUOUS
 10
155.5915739999
 20
43.7739681249
 11
155.0915739999
 21
43.7739681249
  0
LINE
  5
41B
100
AcDbEntity
  8
0
100
AcDbLine
 62
7
  6
CONTINUOUS
 10
155.5915739999
 20
43.8192750623
 11
155.0915739999
 21
43.8192750623
  0
LINE
  5
41C
100
AcDbEntity
  8
0
100
AcDbLine
 62
7
  6
CONTINUOUS
 10
155.5915739999
 20
43.87280413
 11
155.0915739999
 21
43.87280413
  0
LINE
  5
41D
100
AcDbEntity
  8
0
100
AcDbLine
 62
7
  6
CONTINUOUS
 10
155.5915739999
 20
44.0504647098
 11
155.0915739999
 21
44.0504647098
  0
LINE
  5
41E
100
AcDbEntity
  8
0
100
AcDbLine
 62
7
  6
CONTINUOUS
 10
155.5915739999
 20
44.2013616192
 11
155.0915739999
 21
44.2013616192
  0
LINE
  5
41F
100
AcDbEntity
  8
0
100
AcDbLine
 62
7
  6
CONTINUOUS
 10
155.5915739999
 20
44.5141116778
 11
155.0915739999
 21
44.5141116778
  0
LINE
  5
420
100
AcDbEntity
  8
0
100
AcDbLine
 62
7
  6
CONTINUOUS
 10
155.5915739999
 20
44.7623729753
 11
155.0915739999
 21
44.7623729753
  0
LINE
  5
421
100
AcDbEntity
  8
0
100
AcDbLine
 62
7
  6
CONTINUOUS
 10
155.5915739999
 20
45.1080021144
 11
155.0915739999
 21
45.1080021144
  0
LINE
  5
422
100
AcDbEntity
  8
0
100
AcDbLine
 62
7
  6
CONTINUOUS
 10
155.5915739999
 20
45.3404577081
 11
155.0915739999
 21
45.3404577081
  0
LINE
  5
423
100
AcDbEntity
  8
0
100
AcDbLine
 62
7
  6
CONTINUOUS
 10
155.5915739999
 20
46.8873560912
 11
155.0915739999
 21
46.8873560912
  0
LINE
  5
424
100
AcDbEntity
  8
0
100
AcDbLine
 62
7
  6
CONTINUOUS
 10
155.5915739999
 20
47.1307714125
 11
155.0915739999
 21
47.1307714125
  0
LINE
  5
425
100
AcDbEntity
  8
RUNDUNGEN
100
AcDbLine
 62
7
  6
CONTINUOUS
 10
132.1534899503
 20
48.1295590379
 11
131.5915739999
 21
48.1295590379
  0
LINE
  5
426
100
AcDbEntity
  8
0
100
AcDbLine
 62
7
  6
CONTINUOUS
 10
155.5915739999
 20
48.3050484728
 11
155.0915739999
 21
48.3050484728
  0
LINE
  5
427
100
AcDbEntity
  8
0
100
AcDbLine
 62
7
  6
CONTINUOUS
 10
155.5915739999
 20
48.6161390323
 11
155.0915739999
 21
48.6161390323
  0
LINE
  5
428
100
AcDbEntity
  8
0
100
AcDbLine
 62
7
  6
CONTINUOUS
 10
155.0915739999
 20
42.9442071269
 11
155.0915739999
 21
47.1307714125
  0
LINE
  5
429
100
AcDbEntity
  8
0
100
AcDbLine
 62
7
  6
CONTINUOUS
 10
155.0915739999
 20
48.3050484728
 11
155.0915739999
 21
50.6295590379
  0
LINE
  5
42A
100
AcDbEntity
  8
0
100
AcDbLine
 62
7
  6
CONTINUOUS
 10
155.0915739999
 20
63.6295590379
 11
155.0915739999
 21
65.3127824529
  0
LINE
  5
42B
100
AcDbEntity
  8
0
100
AcDbLine
 62
7
  6
CONTINUOUS
 10
155.0915739999
 20
67.1142289161
 11
155.0915739999
 21
72.1969867324
  0
LINE
  5
42C
100
AcDbEntity
  8
0
100
AcDbLine
 62
7
  6
CONTINUOUS
 10
155.0915739999
 20
72.2174021816
 11
155.0915739999
 21
73.4337438629
  0
LINE
  5
42D
100
AcDbEntity
  8
RUNDUNGEN
100
AcDbLine
 62
7
  6
CONTINUOUS
 10
155.5915739999
 20
50.6295590379
 11
155.5915739999
 21
42.2637551674
  0
LINE
  5
42E
100
AcDbEntity
  8
BEZUGSACHSEN
100
AcDbLine
 62
7
  6
CONTINUOUS
 10
155.5915739999
 20
42.2637551674
 11
155.5915739999
 21
37.9306419351
  0
LINE
  5
42F
100
AcDbEntity
  8
RUNDUNGEN
100
AcDbLine
 62
7
  6
CONTINUOUS
 10
155.5915739999
 20
63.6295590379
 11
155.5915739999
 21
71.9953629084
  0
LINE
  5
430
100
AcDbEntity
  8
BEZUGSACHSEN
100
AcDbLine
 62
7
  6
CONTINUOUS
 10
155.5915739999
 20
71.9953629084
 11
155.5915739999
 21
76.3284761407
  0
LINE
  5
431
100
AcDbEntity
  8
0
100
AcDbLine
 62
7
  6
CONTINUOUS
 10
155.5915739999
 20
50.0678941855
 11
155.0915739999
 21
50.0678941855
  0
LINE
  5
432
100
AcDbEntity
  8
0
100
AcDbLine
 62
7
  6
CONTINUOUS
 10
155.5915739999
 20
50.3789847449
 11
155.0915739999
 21
50.3789847449
  0
LINE
  5
433
100
AcDbEntity
  8
0
100
AcDbLine
 62
7
  6
CONTINUOUS
 10
137.0915739999
 20
50.6295590379
 11
185.0915739999
 21
50.6295590379
  0
LINE
  5
434
100
AcDbEntity
  8
RUNDUNGEN
100
AcDbLine
 62
7
  6
CONTINUOUS
 10
166.5915739999
 20
50.6295590379
 11
166.5915739999
 21
37.9306419351
  0
LINE
  5
435
100
AcDbEntity
  8
RUNDUNGEN
100
AcDbLine
 62
7
  6
CONTINUOUS
 10
166.5915739999
 20
63.6295590379
 11
166.5915739999
 21
71.9953629084
  0
LINE
  5
436
100
AcDbEntity
  8
BEZUGSACHSEN
100
AcDbLine
 62
7
  6
CONTINUOUS
 10
166.5915739999
 20
71.9953629084
 11
166.5915739999
 21
76.3284761407
  0
LINE
  5
437
100
AcDbEntity
  8
0
100
AcDbLine
 62
7
  6
CONTINUOUS
 10
137.0915739999
 20
63.6295590379
 11
185.0915739999
 21
63.6295590379
  0
LINE
  5
438
100
AcDbEntity
  8
0
100
AcDbLine
 62
7
  6
CONTINUOUS
 10
155.5915739999
 20
64.99502395
 11
155.0915739999
 21
64.99502395
  0
LINE
  5
439
100
AcDbEntity
  8
0
100
AcDbLine
 62
7
  6
CONTINUOUS
 10
155.5915739999
 20
65.3127824529
 11
155.0915739999
 21
65.3127824529
  0
LINE
  5
43A
100
AcDbEntity
  8
RUNDUNGEN
100
AcDbLine
 62
7
  6
CONTINUOUS
 10
132.1534899475
 20
66.1295590379
 11
131.5915739999
 21
66.1295590379
  0
LINE
  5
43B
100
AcDbEntity
  8
0
100
AcDbLine
 62
7
  6
CONTINUOUS
 10
155.5915739999
 20
67.1142289161
 11
155.0915739999
 21
67.1142289161
  0
LINE
  5
43C
100
AcDbEntity
  8
0
100
AcDbLine
 62
7
  6
CONTINUOUS
 10
155.5915739999
 20
67.1459979459
 11
155.0915739999
 21
67.1459979459
  0
LINE
  5
43D
100
AcDbEntity
  8
0
100
AcDbLine
 62
7
  6
CONTINUOUS
 10
155.5915739999
 20
67.2562907313
 11
155.0915739999
 21
67.2562907313
  0
LINE
  5
43E
100
AcDbEntity
  8
0
100
AcDbLine
 62
7
  6
CONTINUOUS
 10
155.5915739999
 20
67.4530500376
 11
155.0915739999
 21
67.4530500376
  0
LINE
  5
43F
100
AcDbEntity
  8
0
100
AcDbLine
 62
7
  6
CONTINUOUS
 10
155.5915739999
 20
68.1611136313
 11
155.0915739999
 21
68.1611136313
  0
LINE
  5
440
100
AcDbEntity
  8
0
100
AcDbLine
 62
7
  6
CONTINUOUS
 10
155.5915739999
 20
68.4363968089
 11
155.0915739999
 21
68.4363968089
  0
LINE
  5
441
100
AcDbEntity
  8
0
100
AcDbLine
 62
7
  6
CONTINUOUS
 10
155.5915739999
 20
68.703737938
 11
155.0915739999
 21
68.703737938
  0
LINE
  5
442
100
AcDbEntity
  8
0
100
AcDbLine
 62
7
  6
CONTINUOUS
 10
155.5915739999
 20
69.0496028061
 11
155.0915739999
 21
69.0496028061
  0
LINE
  5
443
100
AcDbEntity
  8
0
100
AcDbLine
 62
7
  6
CONTINUOUS
 10
155.5915739999
 20
69.3010592039
 11
155.0915739999
 21
69.3010592039
  0
LINE
  5
444
100
AcDbEntity
  8
0
100
AcDbLine
 62
7
  6
CONTINUOUS
 10
155.5915739999
 20
69.5445736854
 11
155.0915739999
 21
69.5445736854
  0
LINE
  5
445
100
AcDbEntity
  8
0
100
AcDbLine
 62
7
  6
CONTINUOUS
 10
155.5915739999
 20
70.4868621488
 11
155.0915739999
 21
70.4868621488
  0
LINE
  5
446
100
AcDbEntity
  8
0
100
AcDbLine
 62
7
  6
CONTINUOUS
 10
155.5915739999
 20
71.1052253275
 11
155.0915739999
 21
71.1052253275
  0
LINE
  5
447
100
AcDbEntity
  8
0
100
AcDbLine
 62
7
  6
CONTINUOUS
 10
155.5915739999
 20
71.2871855472
 11
155.0915739999
 21
71.2871855472
  0
LINE
  5
448
100
AcDbEntity
  8
RUNDUNGEN
100
AcDbLine
 62
7
  6
CONTINUOUS
 10
187.1605003264
 20
71.5466495904
 11
188.0915739999
 21
71.5466495904
  0
LINE
  5
449
100
AcDbEntity
  8
0
100
AcDbLine
 62
7
  6
CONTINUOUS
 10
155.5915739999
 20
72.015026426
 11
155.0915739999
 21
72.015026426
  0
LINE
  5
44A
100
AcDbEntity
  8
0
100
AcDbLine
 62
7
  6
CONTINUOUS
 10
155.5915739999
 20
72.1969867324
 11
155.0915739999
 21
72.1969867324
  0
LINE
  5
44B
100
AcDbEntity
  8
0
100
AcDbLine
 62
7
  6
CONTINUOUS
 10
155.5915739999
 20
72.2174021816
 11
155.0915739999
 21
72.2174021816
  0
LINE
  5
44C
100
AcDbEntity
  8
0
100
AcDbLine
 62
7
  6
CONTINUOUS
 10
155.5915739999
 20
72.5179444649
 11
155.0915739999
 21
72.5179444649
  0
LINE
  5
44D
100
AcDbEntity
  8
0
100
AcDbLine
 62
7
  6
CONTINUOUS
 10
155.5915739999
 20
72.7792411562
 11
155.0915739999
 21
72.7792411562
  0
LINE
  5
44E
100
AcDbEntity
  8
0
100
AcDbLine
 62
7
  6
CONTINUOUS
 10
155.5915739999
 20
72.9415381712
 11
155.0915739999
 21
72.9415381712
  0
LINE
  5
44F
100
AcDbEntity
  8
0
100
AcDbLine
 62
7
  6
CONTINUOUS
 10
155.5904106229
 20
73.4337438629
 11
155.0915739999
 21
73.4337438629
  0
LINE
  5
450
100
AcDbEntity
  8
RUNDUNGEN
100
AcDbLine
 62
7
  6
CONTINUOUS
 10
167.334645539
 20
34.2646005035
 11
170.1832274763
 21
37.506420398
  0
LINE
  5
451
100
AcDbEntity
  8
BEZUGSACHSEN
100
AcDbLine
 62
7
  6
CONTINUOUS
 10
170.1771515475
 20
76.7596251855
 11
167.334645539
 21
79.9945175723
  0
LINE
  5
452
100
AcDbEntity
  8
BEZUGSACHSEN
100
AcDbLine
 62
7
  6
CONTINUOUS
 10
170.1832274763
 20
76.7526976778
 11
170.1812011422
 21
76.7550106833
  0
LWPOLYLINE
  5
453
100
AcDbEntity
  8
BEZUGSACHSEN
100
AcDbPolyline
 62
7
  6
CONTINUOUS
 90
5
 70
0
 10
167.3061653108
 20
80.0260869493
 10
166.8273078323
 20
80.441143032
 10
166.2970607335
 20
80.7157698282
 10
165.7250007834
 20
80.8602108932
 10
165.3863038286
 20
80.882590645
  0
LWPOLYLINE
  5
454
100
AcDbEntity
  8
BEZUGSACHSEN
100
AcDbPolyline
 62
7
  6
CONTINUOUS
 90
5
 70
0
 10
156.7968648195
 20
80.8825895831
 10
156.4317419329
 20
80.8565592137
 10
155.8672429508
 20
80.7085450142
 10
155.34453639
 20
80.4334805388
 10
154.8761953284
 20
80.0252295727
  0
LINE
  5
455
100
AcDbEntity
  8
BEZUGSACHSEN
100
AcDbLine
 62
7
  6
CONTINUOUS
 10
165.3863933719
 20
80.8823687378
 11
165.3869333208
 21
80.882382437
  0
LINE
  5
456
100
AcDbEntity
  8
BEZUGSACHSEN
100
AcDbLine
 62
7
  6
CONTINUOUS
 10
156.7962058196
 20
80.882382437
 11
165.3869421801
 21
80.882382437
  0
LINE
  5
457
100
AcDbEntity
  8
BEZUGSACHSEN
100
AcDbLine
 62
7
  6
CONTINUOUS
 10
156.7967761231
 20
80.882367626
 11
156.7962146789
 21
80.882382437
  0
LINE
  5
458
100
AcDbEntity
  8
RUNDUNGEN
100
AcDbLine
 62
7
  6
CONTINUOUS
 10
188.5915739999
 20
51.6627458116
 11
188.5915739999
 21
42.7124684854
  0
LINE
  5
459
100
AcDbEntity
  8
RUNDUNGEN
100
AcDbLine
 62
7
  6
CONTINUOUS
 10
188.5915739999
 20
62.5963722642
 11
188.5915739999
 21
71.5466495904
  0
LINE
  5
45A
100
AcDbEntity
  8
BEZUGSACHSEN
100
AcDbLine
 62
7
  6
CONTINUOUS
 10
187.327140667
 20
40.5224057101
 11
162.3560073327
 21
26.1053151576
  0
LINE
  5
45B
100
AcDbEntity
  8
BEZUGSACHSEN
100
AcDbLine
 62
7
  6
CONTINUOUS
 10
162.3560073327
 20
88.1538029182
 11
187.327140667
 21
73.7367123657
  0
LINE
  5
45C
100
AcDbEntity
  8
RUNDUNGEN
100
AcDbLine
 62
7
  6
CONTINUOUS
 10
188.5915739999
 20
42.7124684854
 11
187.327140667
 21
40.5224057101
  0
LINE
  5
45D
100
AcDbEntity
  8
BEZUGSACHSEN
100
AcDbLine
 62
7
  6
CONTINUOUS
 10
159.827140667
 20
88.1538029182
 11
162.3560073327
 21
88.1538029182
  0
LINE
  5
45E
100
AcDbEntity
  8
RUNDUNGEN
100
AcDbLine
 62
7
  6
CONTINUOUS
 10
187.327140667
 20
73.7367123657
 11
188.5915739999
 21
71.5466495904
  0
ARC
  5
45F
100
AcDbEntity
  8
RUNDUNGEN
100
AcDbCircle
 62
7
  6
CONTINUOUS
 10
122.0800754317
 20
162.9552927403
 40
10.2292508416
100
AcDbArc
 50
348.1567608406
 51
349.5369301993
  0
ARC
  5
460
100
AcDbEntity
  8
BEZUGSACHSEN
100
AcDbCircle
 62
7
  6
CONTINUOUS
 10
149.5915739999
 20
201.4556050035
 40
6.0
100
AcDbArc
 50
339.999171163
 51
0.0005990832
  0
ARC
  5
461
100
AcDbEntity
  8
BEZUGSACHSEN
100
AcDbCircle
 62
7
  6
CONTINUOUS
 10
138.5915739999
 20
182.3976431193
 40
3.0
100
AcDbArc
 50
90.0
 51
180.0
  0
ARC
  5
462
100
AcDbEntity
  8
BEZUGSACHSEN
100
AcDbCircle
 62
7
  6
CONTINUOUS
 10
148.0314573124
 20
188.3976431193
 40
2.9999695329
100
AcDbArc
 50
269.9988647581
 51
339.9996117172
  0
ARC
  5
463
100
AcDbEntity
  8
RUNDUNGEN
100
AcDbCircle
 62
7
  6
CONTINUOUS
 10
132.1588965897
 20
177.5976398581
 40
1.4999995341
100
AcDbArc
 50
269.9999999999
 51
349.9999881164
  0
ARC
  5
464
100
AcDbEntity
  8
RUNDUNGEN
100
AcDbCircle
 62
7
  6
CONTINUOUS
 10
131.5915739999
 20
175.0976431193
 40
1.0
100
AcDbArc
 50
90.0
 51
180.0
  0
ARC
  5
465
100
AcDbEntity
  8
RUNDUNGEN
100
AcDbCircle
 62
7
  6
CONTINUOUS
 10
131.5915739999
 20
159.0976431193
 40
1.0
100
AcDbArc
 50
180.0
 51
270.0
  0
ARC
  5
466
100
AcDbEntity
  8
RUNDUNGEN
100
AcDbCircle
 62
7
  6
CONTINUOUS
 10
172.5915739999
 20
201.4556050035
 40
6.0
100
AcDbArc
 50
179.9994009168
 51
200.000828837
  0
ARC
  5
467
100
AcDbEntity
  8
BEZUGSACHSEN
100
AcDbCircle
 62
7
  6
CONTINUOUS
 10
183.5915739999
 20
182.3976431193
 40
3.0
100
AcDbArc
 50
0.0
 51
90.0
  0
ARC
  5
468
100
AcDbEntity
  8
RUNDUNGEN
100
AcDbCircle
 62
7
  6
CONTINUOUS
 10
174.1516906874
 20
188.3976431193
 40
2.9999695329
100
AcDbArc
 50
200.0003882828
 51
270.0011352419
  0
ARC
  5
469
100
AcDbEntity
  8
BEZUGSACHSEN
100
AcDbCircle
 62
7
  6
CONTINUOUS
 10
174.1516906874
 20
188.3976431193
 40
2.9999695329
100
AcDbArc
 50
200.0003882828
 51
230.3084876312
  0
ARC
  5
46A
100
AcDbEntity
  8
0
100
AcDbCircle
 62
7
  6
CONTINUOUS
 10
161.0915739999
 20
256.8976431193
 40
30.5
100
AcDbArc
 50
0.0
 51
180.0
  0
ARC
  5
46B
100
AcDbEntity
  8
0
100
AcDbCircle
 62
7
  6
CONTINUOUS
 10
161.0915739999
 20
221.8976431193
 40
30.5
100
AcDbArc
 50
285.8902692072
 51
360.0
  0
ARC
  5
46C
100
AcDbEntity
  8
0
100
AcDbCircle
 62
7
  6
CONTINUOUS
 10
161.0915739999
 20
221.8976431193
 40
30.5
100
AcDbArc
 50
180.0
 51
254.1097307928
  0
ARC
  5
46D
100
AcDbEntity
  8
0
100
AcDbCircle
 62
7
  6
CONTINUOUS
 10
161.0915739999
 20
221.8976431193
 40
17.5
100
AcDbArc
 50
288.3246461252
 51
360.0
  0
ARC
  5
46E
100
AcDbEntity
  8
0
100
AcDbCircle
 62
7
  6
CONTINUOUS
 10
161.0915739999
 20
221.8976431193
 40
17.5
100
AcDbArc
 50
180.0
 51
249.94807574
  0
ARC
  5
46F
100
AcDbEntity
  8
0
100
AcDbCircle
 62
7
  6
CONTINUOUS
 10
161.0915739999
 20
256.8976431193
 40
17.5
100
AcDbArc
 50
0.0
 51
180.0
  0
ARC
  5
470
100
AcDbEntity
  8
RUNDUNGEN
100
AcDbCircle
 62
7
  6
CONTINUOUS
 10
158.0915739999
 20
217.6504665184
 40
2.5
100
AcDbArc
 50
90.0
 51
180.0
  0
ARC
  5
471
100
AcDbEntity
  8
RUNDUNGEN
100
AcDbCircle
 62
7
  6
CONTINUOUS
 10
164.0915739999
 20
217.6504665184
 40
2.5
100
AcDbArc
 50
0.0
 51
90.0
  0
ARC
  5
472
100
AcDbEntity
  8
BEZUGSACHSEN
100
AcDbCircle
 62
7
  6
CONTINUOUS
 10
239.9636855879
 20
182.5713906035
 40
3.0000019648
100
AcDbArc
 50
103.822263961
 51
179.9999193984
  0
ARC
  5
473
100
AcDbEntity
  8
BEZUGSACHSEN
100
AcDbCircle
 62
7
  6
CONTINUOUS
 10
238.530218191
 20
188.3976431193
 40
3.0
100
AcDbArc
 50
283.8222962928
 51
22.5
  0
ARC
  5
474
100
AcDbEntity
  8
BEZUGSACHSEN
100
AcDbCircle
 62
7
  6
CONTINUOUS
 10
241.7108628938
 20
196.3976431193
 40
3.0
100
AcDbArc
 50
157.5
 51
202.5
  0
ARC
  5
475
100
AcDbEntity
  8
RUNDUNGEN
100
AcDbCircle
 62
7
  6
CONTINUOUS
 10
256.4636862929
 20
161.0976431193
 40
3.0
100
AcDbArc
 50
180.0
 51
270.0
  0
ARC
  5
476
100
AcDbEntity
  8
RUNDUNGEN
100
AcDbCircle
 62
7
  6
CONTINUOUS
 10
253.9636862929
 20
141.0976431193
 40
2.0
100
AcDbArc
 50
180.0
 51
270.0
  0
ARC
  5
477
100
AcDbEntity
  8
RUNDUNGEN
100
AcDbCircle
 62
7
  6
CONTINUOUS
 10
253.9636862929
 20
153.0976431193
 40
2.0
100
AcDbArc
 50
90.0
 51
180.0
  0
ARC
  5
478
100
AcDbEntity
  8
RUNDUNGEN
100
AcDbCircle
 62
7
  6
CONTINUOUS
 10
255.9636862929
 20
155.5976431193
 40
0.5
100
AcDbArc
 50
270.0000000029
 51
360.0
  0
ARC
  5
479
100
AcDbEntity
  8
BEZUGSACHSEN
100
AcDbCircle
 62
7
  6
CONTINUOUS
 10
247.7892241386
 20
211.0721052736
 40
3.0
100
AcDbArc
 50
112.5
 51
157.5
  0
ARC
  5
47A
100
AcDbEntity
  8
RUNDUNGEN
100
AcDbCircle
 62
7
  6
CONTINUOUS
 10
262.4636862929
 20
167.0976431193
 40
9.0
100
AcDbArc
 50
0.0
 51
180.0
  0
ARC
  5
47B
100
AcDbEntity
  8
RUNDUNGEN
100
AcDbCircle
 62
7
  6
CONTINUOUS
 10
262.4636862929
 20
196.3976431193
 40
8.0
100
AcDbArc
 50
11.8199694279
 51
28.7971873513
  0
ARC
  5
47C
100
AcDbEntity
  8
BEZUGSACHSEN
100
AcDbCircle
 62
7
  6
CONTINUOUS
 10
262.4636862929
 20
196.3976431193
 40
8.0
100
AcDbArc
 50
144.4626878253
 51
35.5373121747
  0
ARC
  5
47D
100
AcDbEntity
  8
0
100
AcDbCircle
 62
7
  6
CONTINUOUS
 10
262.4636862929
 20
197.8976431193
 40
6.5
100
AcDbArc
 50
180.0
 51
360.0
  0
ARC
  5
47E
100
AcDbEntity
  8
BEZUGSACHSEN
100
AcDbCircle
 62
7
  6
CONTINUOUS
 10
284.963686998
 20
182.5713906035
 40
3.0000019648
100
AcDbArc
 50
0.0000806016
 51
76.177736039
  0
ARC
  5
47F
100
AcDbEntity
  8
BEZUGSACHSEN
100
AcDbCircle
 62
7
  6
CONTINUOUS
 10
283.216509692
 20
196.3976431193
 40
3.0
100
AcDbArc
 50
337.5
 51
22.5
  0
ARC
  5
480
100
AcDbEntity
  8
RUNDUNGEN
100
AcDbCircle
 62
7
  6
CONTINUOUS
 10
286.3971543948
 20
188.3976431193
 40
3.0
100
AcDbArc
 50
157.5
 51
246.6781584794
  0
ARC
  5
481
100
AcDbEntity
  8
BEZUGSACHSEN
100
AcDbCircle
 62
7
  6
CONTINUOUS
 10
286.3971543948
 20
188.3976431193
 40
3.0
100
AcDbArc
 50
157.5
 51
256.1777037072
  0
ARC
  5
482
100
AcDbEntity
  8
RUNDUNGEN
100
AcDbCircle
 62
7
  6
CONTINUOUS
 10
268.4636862929
 20
161.0976431193
 40
3.0
100
AcDbArc
 50
270.0
 51
360.0
  0
ARC
  5
483
100
AcDbEntity
  8
RUNDUNGEN
100
AcDbCircle
 62
7
  6
CONTINUOUS
 10
270.9636862929
 20
141.0976431193
 40
2.0
100
AcDbArc
 50
270.0
 51
360.0
  0
ARC
  5
484
100
AcDbEntity
  8
RUNDUNGEN
100
AcDbCircle
 62
7
  6
CONTINUOUS
 10
270.9636862929
 20
153.0976431193
 40
2.0
100
AcDbArc
 50
0.0
 51
90.0
  0
ARC
  5
485
100
AcDbEntity
  8
RUNDUNGEN
100
AcDbCircle
 62
7
  6
CONTINUOUS
 10
268.9636862929
 20
155.5976431193
 40
0.5
100
AcDbArc
 50
180.0
 51
270.0
  0
ARC
  5
486
100
AcDbEntity
  8
0
100
AcDbCircle
 62
7
  6
CONTINUOUS
 10
262.4636862929
 20
280.8976431193
 40
6.5
100
AcDbArc
 50
0.0
 51
180.0
  0
ARC
  5
487
100
AcDbEntity
  8
RUNDUNGEN
100
AcDbCircle
 62
7
  6
CONTINUOUS
 10
277.1381484472
 20
211.0721052736
 40
3.0
100
AcDbArc
 50
22.5
 51
34.9964240987
  0
ARC
  5
488
100
AcDbEntity
  8
BEZUGSACHSEN
100
AcDbCircle
 62
7
  6
CONTINUOUS
 10
277.1381484472
 20
211.0721052736
 40
3.0
100
AcDbArc
 50
22.5
 51
67.5
  0
ARC
  5
489
100
AcDbEntity
  8
RUNDUNGEN
100
AcDbCircle
 62
7
  6
CONTINUOUS
 10
132.0915739999
 20
46.6295590379
 40
1.5
100
AcDbArc
 50
0.0
 51
87.6387897645
  0
ARC
  5
48A
100
AcDbEntity
  8
RUNDUNGEN
100
AcDbCircle
 62
7
  6
CONTINUOUS
 10
131.5915739999
 20
49.1295590379
 40
1.0
100
AcDbArc
 50
180.0
 51
270.0
  0
ARC
  5
48B
100
AcDbEntity
  8
0
100
AcDbCircle
 62
7
  6
CONTINUOUS
 10
137.0915739999
 20
57.1295590379
 40
6.5
100
AcDbArc
 50
90.0
 51
270.0
  0
ARC
  5
48C
100
AcDbEntity
  8
RUNDUNGEN
100
AcDbCircle
 62
7
  6
CONTINUOUS
 10
132.0915739999
 20
67.6295590379
 40
1.5
100
AcDbArc
 50
272.3612101301
 51
360.0
  0
ARC
  5
48D
100
AcDbEntity
  8
RUNDUNGEN
100
AcDbCircle
 62
7
  6
CONTINUOUS
 10
131.5915739999
 20
65.1295590379
 40
1.0
100
AcDbArc
 50
90.0
 51
180.0
  0
ARC
  5
48E
100
AcDbEntity
  8
RUNDUNGEN
100
AcDbCircle
 62
7
  6
CONTINUOUS
 10
188.0915739999
 20
43.2124684854
 40
0.5
100
AcDbArc
 50
270.0
 51
360.0
  0
ARC
  5
48F
100
AcDbEntity
  8
FASEN
100
AcDbCircle
 62
7
  6
CONTINUOUS
 10
161.0915739999
 20
57.1295590379
 40
27.4421273689
100
AcDbArc
 50
12.3162554795
 51
167.68374456
  0
ARC
  5
490
100
AcDbEntity
  8
FASEN
100
AcDbCircle
 62
7
  6
CONTINUOUS
 10
161.0915739999
 20
57.1295590379
 40
27.4421273689
100
AcDbArc
 50
192.3162554795
 51
347.68374456
  0
ARC
  5
491
100
AcDbEntity
  8
FASEN
100
AcDbCircle
 62
7
  6
CONTINUOUS
 10
161.0915739999
 20
57.1295590379
 40
26.2684791912
100
AcDbArc
 50
13.9336062405
 51
166.066393769
  0
ARC
  5
492
100
AcDbEntity
  8
FASEN
100
AcDbCircle
 62
7
  6
CONTINUOUS
 10
161.0915739999
 20
57.1295590379
 40
26.2684791912
100
AcDbArc
 50
193.9336062405
 51
346.066393769
  0
ARC
  5
493
100
AcDbEntity
  8
0
100
AcDbCircle
 62
7
  6
CONTINUOUS
 10
161.0915739999
 20
57.1295590379
 40
26.0
100
AcDbArc
 50
194.2073315656
 51
345.7926684344
  0
ARC
  5
494
100
AcDbEntity
  8
0
100
AcDbCircle
 62
7
  6
CONTINUOUS
 10
161.0915739999
 20
57.1295590379
 40
26.0
100
AcDbArc
 50
14.2073315656
 51
165.7926684344
  0
ARC
  5
495
100
AcDbEntity
  8
RUNDUNGEN
100
AcDbCircle
 62
7
  6
CONTINUOUS
 10
161.0915739999
 20
57.1295590379
 40
25.5
100
AcDbArc
 50
286.6370852354
 51
305.1078185359
  0
ARC
  5
496
100
AcDbEntity
  8
BEZUGSACHSEN
100
AcDbCircle
 62
7
  6
CONTINUOUS
 10
161.0915739999
 20
57.1295590379
 40
25.5
100
AcDbArc
 50
305.1078185359
 51
345.2967063289
  0
ARC
  5
497
100
AcDbEntity
  8
BEZUGSACHSEN
100
AcDbCircle
 62
7
  6
CONTINUOUS
 10
161.0915739999
 20
57.1295590379
 40
25.5
100
AcDbArc
 50
14.7032936711
 51
165.2967063289
  0
ARC
  5
498
100
AcDbEntity
  8
BEZUGSACHSEN
100
AcDbCircle
 62
7
  6
CONTINUOUS
 10
161.0915739999
 20
57.1295590379
 40
25.5
100
AcDbArc
 50
194.7032936711
 51
286.6370852354
  0
ARC
  5
499
100
AcDbEntity
  8
0
100
AcDbCircle
 62
7
  6
CONTINUOUS
 10
185.0915739999
 20
57.1295590379
 40
6.5
100
AcDbArc
 50
270.0
 51
90.0
  0
ARC
  5
49A
100
AcDbEntity
  8
RUNDUNGEN
100
AcDbCircle
 62
7
  6
CONTINUOUS
 10
188.0915739999
 20
71.0466495904
 40
0.5
100
AcDbArc
 50
0.0
 51
90.0
  0
SPLINE
  5
49B
100
AcDbEntity
  8
BEZUGSACHSEN
100
AcDbSpline
 62
7
  6
CONTINUOUS
 70
0
 71
3
 72
34
 73
30
 74
0
 42
0.0000001
 43
0.0000001
 44
0.0000000001
 40
0.0
 40
0.0
 40
0.0
 40
0.0
 40
0.0643438988
 40
0.1285350167
 40
0.1925139786
 40
0.2561817082
 40
0.2878510426
 40
0.3193654875
 40
0.3506712398
 40
0.3816873352
 40
0.4122883789
 40
0.4422851534
 40
0.4570077723
 40
0.4715193068
 40
0.4858341854
 40
0.500031415
 40
0.5142287277
 40
0.5285436097
 40
0.5577147032
 40
0.587711541
 40
0.6183126019
 40
0.6493287023
 40
0.6806344602
 40
0.7121489224
 40
0.743818273
 40
0.8074860087
 40
0.8714649757
 40
0.9356560985
 40
1.0
 40
1.0
 40
1.0
 40
1.0
 10
187.327140667
 20
156.9515729061
 30
0.0
 10
186.9967343901
 20
157.9562231829
 30
0.0
 10
186.3182599385
 20
159.9571505102
 30
0.0
 10
185.2329364782
 20
162.9298463519
 30
0.0
 10
184.0623892067
 20
165.8582440097
 30
0.0
 10
182.9912333751
 20
168.2491128373
 30
0.0
 10
182.0534704777
 20
170.1117261075
 30
0.0
 10
181.3028110482
 20
171.47188743
 30
0.0
 10
180.4923080539
 20
172.784978335
 30
0.0
 10
179.6064805943
 20
174.0310969398
 30
0.0
 10
178.6251576537
 20
175.1763626061
 30
0.0
 10
177.6968548449
 20
176.0057223118
 30
0.0
 10
176.8767597039
 20
176.5343267758
 30
0.0
 10
176.2272251242
 20
176.8410671707
 30
0.0
 10
175.5445689523
 20
177.0386591436
 30
0.0
 10
174.8415857707
 20
177.1075113328
 30
0.0
 10
174.1385833242
 20
177.0386560494
 30
0.0
 10
173.2233943113
 20
176.7738246317
 30
0.0
 10
172.1624434007
 20
176.1638500537
 30
0.0
 10
171.0585299196
 20
175.1766328974
 30
0.0
 10
170.0765242582
 20
174.0310249933
 30
0.0
 10
169.1908816878
 20
172.785000527
 30
0.0
 10
168.3803264394
 20
171.4718845946
 30
0.0
 10
167.6296805426
 20
170.1117294087
 30
0.0
 10
166.6919144465
 20
168.2491125046
 30
0.0
 10
165.6207592378
 20
165.8582450589
 30
0.0
 10
164.4502114671
 20
162.9298466304
 30
0.0
 10
163.364888112
 20
159.9571507114
 30
0.0
 10
162.6864136233
 20
157.9562232245
 30
0.0
 10
162.3560073327
 20
156.9515729061
 30
0.0
  0
SPLINE
  5
49C
100
AcDbEntity
  8
BEZUGSACHSEN
100
AcDbSpline
 62
7
  6
CONTINUOUS
 70
0
 71
3
 72
8
 73
4
 74
0
 42
0.0000001
 43
0.0000001
 44
0.0000000001
 40
0.0
 40
0.0
 40
0.0
 40
0.0
 40
1.0
 40
1.0
 40
1.0
 40
1.0
 10
161.0915843318
 20
157.0976437108
 30
0.0
 10
160.6673000375
 20
157.0976437108
 30
0.0
 10
160.2405432842
 20
157.0470477116
 30
0.0
 10
159.827140667
 20
156.9515729061
 30
0.0
  0
SPLINE
  5
49D
100
AcDbEntity
  8
BEZUGSACHSEN
100
AcDbSpline
 62
7
  6
CONTINUOUS
 70
0
 71
3
 72
8
 73
4
 74
0
 42
0.0000001
 43
0.0000001
 44
0.0000000001
 40
0.0
 40
0.0
 40
0.0
 40
0.0
 40
1.0
 40
1.0
 40
1.0
 40
1.0
 10
162.3560073327
 20
156.9515729061
 30
0.0
 10
161.9426113825
 20
157.0470461719
 30
0.0
 10
161.5158617836
 20
157.0976437108
 30
0.0
 10
161.0915843318
 20
157.0976437108
 30
0.0
  0
SPLINE
  5
49E
100
AcDbEntity
  8
RUNDUNGEN
100
AcDbSpline
 62
7
  6
CONTINUOUS
 70
0
 71
3
 72
15
 73
11
 74
0
 42
0.0000001
 43
0.0000001
 44
0.0000000001
 40
0.0
 40
0.0
 40
0.0
 40
0.0
 40
0.2508858969
 40
0.3560998381
 40
0.4486747002
 40
0.5313153541
 40
0.6126415299
 40
0.7246304576
 40
0.8403646751
 40
1.0
 40
1.0
 40
1.0
 40
1.0
 10
188.0915739999
 20
173.4627137705
 30
0.0
 10
188.1268905742
 20
173.5215726741
 30
0.0
 10
188.1822745016
 20
173.6027116489
 30
0.0
 10
188.2692850008
 20
173.6898479504
 30
0.0
 10
188.3324008646
 20
173.7343581954
 30
0.0
 10
188.3992382228
 20
173.7594540748
 30
0.0
 10
188.4782226533
 20
173.753541349
 30
0.0
 10
188.5453962313
 20
173.6924609499
 30
0.0
 10
188.584293398
 20
173.5923569243
 30
0.0
 10
188.5915739999
 20
173.5163989589
 30
0.0
 10
188.5915739999
 20
173.4727234087
 30
0.0
  0
SPLINE
  5
49F
100
AcDbEntity
  8
BEZUGSACHSEN
100
AcDbSpline
 62
7
  6
CONTINUOUS
 70
0
 71
3
 72
34
 73
30
 74
0
 42
0.0000001
 43
0.0000001
 44
0.0000000001
 40
0.0
 40
0.0
 40
0.0
 40
0.0
 40
0.0643438988
 40
0.1285350167
 40
0.1925139786
 40
0.2561817082
 40
0.2878510426
 40
0.3193654875
 40
0.3506712398
 40
0.3816873352
 40
0.4122883789
 40
0.4422851534
 40
0.4570077723
 40
0.4715193068
 40
0.4858341854
 40
0.500031415
 40
0.5142287277
 40
0.5285436097
 40
0.5577147032
 40
0.587711541
 40
0.6183126019
 40
0.6493287023
 40
0.6806344602
 40
0.7121489224
 40
0.743818273
 40
0.8074860087
 40
0.8714649757
 40
0.9356560985
 40
1.0
 40
1.0
 40
1.0
 40
1.0
 10
159.827140667
 20
156.9515729061
 30
0.0
 10
159.4967343901
 20
157.9562231829
 30
0.0
 10
158.8182599385
 20
159.9571505102
 30
0.0
 10
157.7329364782
 20
162.9298463519
 30
0.0
 10
156.5623892067
 20
165.8582440097
 30
0.0
 10
155.4912333751
 20
168.2491128373
 30
0.0
 10
154.5534704777
 20
170.1117261075
 30
0.0
 10
153.8028110482
 20
171.47188743
 30
0.0
 10
152.9923080539
 20
172.784978335
 30
0.0
 10
152.1064805943
 20
174.0310969398
 30
0.0
 10
151.1251576537
 20
175.1763626061
 30
0.0
 10
150.1968548449
 20
176.0057223118
 30
0.0
 10
149.3767597039
 20
176.5343267758
 30
0.0
 10
148.7272251242
 20
176.8410671707
 30
0.0
 10
148.0445689523
 20
177.0386591436
 30
0.0
 10
147.3415857707
 20
177.1075113328
 30
0.0
 10
146.6385833242
 20
177.0386560494
 30
0.0
 10
145.7233943113
 20
176.7738246317
 30
0.0
 10
144.6624434007
 20
176.1638500537
 30
0.0
 10
143.5585299196
 20
175.1766328974
 30
0.0
 10
142.5765242582
 20
174.0310249933
 30
0.0
 10
141.6908816878
 20
172.785000527
 30
0.0
 10
140.8803264394
 20
171.4718845946
 30
0.0
 10
140.1296805426
 20
170.1117294087
 30
0.0
 10
139.1919144465
 20
168.2491125046
 30
0.0
 10
138.1207592378
 20
165.8582450589
 30
0.0
 10
136.9502114671
 20
162.9298466304
 30
0.0
 10
135.864888112
 20
159.9571507114
 30
0.0
 10
135.1864136233
 20
157.9562232245
 30
0.0
 10
134.8560073327
 20
156.9515729061
 30
0.0
  0
SPLINE
  5
4A0
100
AcDbEntity
  8
BEZUGSACHSEN
100
AcDbSpline
 62
7
  6
CONTINUOUS
 70
0
 71
3
 72
11
 73
7
 74
0
 42
0.0000001
 43
0.0000001
 44
0.0000000001
 40
0.0
 40
0.0
 40
0.0
 40
0.0
 40
0.2546128952
 40
0.5
 40
0.7453871049
 40
1.0
 40
1.0
 40
1.0
 40
1.0
 10
134.8560073327
 20
156.9515729061
 30
0.0
 10
134.7554196202
 20
156.9980341131
 30
0.0
 10
134.5487422974
 20
157.0715505364
 30
0.0
 10
134.2237906663
 20
157.1104133498
 30
0.0
 10
133.8988390351
 20
157.0715505365
 30
0.0
 10
133.6921617123
 20
156.9980341131
 30
0.0
 10
133.5915739999
 20
156.9515729061
 30
0.0
  0
LINE
  5
4A1
100
AcDbEntity
  8
RUNDUNGEN
100
AcDbLine
 62
7
  6
CONTINUOUS
 10
133.504625395
 20
166.6360657964
 11
132.0915740055
 21
166.7674212017
  0
SPLINE
  5
4A2
100
AcDbEntity
  8
RUNDUNGEN
100
AcDbSpline
 62
7
  6
CONTINUOUS
 70
0
 71
3
 72
29
 73
25
 74
0
 42
0.0000001
 43
0.0000001
 44
0.0000000001
 40
0.0
 40
0.0
 40
0.0
 40
0.0
 40
0.0615361598
 40
0.119482203
 40
0.1451186707
 40
0.1559703223
 40
0.1647067481
 40
0.172320229
 40
0.1817934627
 40
0.1937651264
 40
0.2072906549
 40
0.2217688539
 40
0.2368407316
 40
0.2680254424
 40
0.3000228001
 40
0.3324850385
 40
0.3981863824
 40
0.4644670786
 40
0.5310646672
 40
0.5978517231
 40
0.6647573982
 40
0.7317396475
 40
0.865832933
 40
1.0
 40
1.0
 40
1.0
 40
1.0
 10
188.5915739999
 20
158.2501705408
 30
0.0
 10
188.5915739999
 20
158.2107282437
 30
0.0
 10
188.5901665214
 20
158.1341216437
 30
0.0
 10
188.5830073262
 20
158.0413220617
 30
0.0
 10
188.5701512268
 20
157.981718407
 30
0.0
 10
188.5587408801
 20
157.9550947953
 30
0.0
 10
188.546841543
 20
157.9411328912
 30
0.0
 10
188.5287613296
 20
157.9387196322
 30
0.0
 10
188.5130917317
 20
157.9506707408
 30
0.0
 10
188.4986554147
 20
157.9675526854
 30
0.0
 10
188.4848256278
 20
157.9892949895
 30
0.0
 10
188.4717048078
 20
158.013566791
 30
0.0
 10
188.4548884584
 20
158.0487006109
 30
0.0
 10
188.4355652584
 20
158.0950091937
 30
0.0
 10
188.4141727513
 20
158.1524698748
 30
0.0
 10
188.3871760703
 20
158.2314167231
 30
0.0
 10
188.3559861487
 20
158.3321188501
 30
0.0
 10
188.3212501893
 20
158.4545761429
 30
0.0
 10
188.2884632104
 20
158.578288095
 30
0.0
 10
188.2572210306
 20
158.7028097801
 30
0.0
 10
188.2272585423
 20
158.8278983578
 30
0.0
 10
188.1887499844
 20
158.9952934809
 30
0.0
 10
188.1429974169
 20
159.2052511745
 30
0.0
 10
188.1084302468
 20
159.3736890304
 30
0.0
 10
188.0915739999
 20
159.4580167328
 30
0.0
  0
SPLINE
  5
4A3
100
AcDbEntity
  8
RUNDUNGEN
100
AcDbSpline
 62
7
  6
CONTINUOUS
 70
0
 71
3
 72
14
 73
10
 74
0
 42
0.0000001
 43
0.0000001
 44
0.0000000001
 40
0.0
 40
0.0
 40
0.0
 40
0.0
 40
0.0636952743
 40
0.1070481457
 40
0.1577821708
 40
0.2752316756
 40
0.4070636988
 40
0.6946952245
 40
1.0
 40
1.0
 40
1.0
 40
1.0
 10
133.504625395
 20
166.6360657964
 30
0.0
 10
133.5163600959
 20
166.6349749022
 30
0.0
 10
133.5331153338
 20
166.6190970201
 30
0.0
 10
133.5457439244
 20
166.5933746377
 30
0.0
 10
133.5586907051
 20
166.556127734
 30
0.0
 10
133.569886943
 20
166.5017176671
 30
0.0
 10
133.5825417867
 20
166.4031086334
 30
0.0
 10
133.5900660652
 20
166.2691086735
 30
0.0
 10
133.5915739999
 20
166.1594011111
 30
0.0
 10
133.5915739999
 20
166.1029117111
 30
0.0
  0
SPLINE
  5
4A4
100
AcDbEntity
  8
RUNDUNGEN
100
AcDbSpline
 62
7
  6
CONTINUOUS
 70
0
 71
3
 72
13
 73
9
 74
0
 42
0.0000001
 43
0.0000001
 44
0.0000000001
 40
0.0
 40
0.0
 40
0.0
 40
0.0
 40
0.073595118
 40
0.1657103939
 40
0.2748941428
 40
0.3994060017
 40
0.6852377878
 40
1.0
 40
1.0
 40
1.0
 40
1.0
 10
188.0915739999
 20
173.4627137705
 30
0.0
 10
187.9706358554
 20
173.261157229
 30
0.0
 10
187.7363147144
 20
172.7846908943
 30
0.0
 10
187.4299929574
 20
171.9608544436
 30
0.0
 10
187.1539617788
 20
170.9560777928
 30
0.0
 10
186.8499949793
 20
169.3231219153
 30
0.0
 10
186.7300158141
 20
166.997783505
 30
0.0
 10
186.9619240271
 20
165.0831551699
 30
0.0
 10
187.1605003264
 20
164.0976431193
 30
0.0
  0
SPLINE
  5
4A5
100
AcDbEntity
  8
RUNDUNGEN
100
AcDbSpline
 62
7
  6
CONTINUOUS
 70
0
 71
3
 72
8
 73
4
 74
0
 42
0.0000001
 43
0.0000001
 44
0.0000000001
 40
0.0
 40
0.0
 40
0.0
 40
0.0
 40
1.0
 40
1.0
 40
1.0
 40
1.0
 10
188.0915739999
 20
159.4580167328
 30
0.0
 10
187.7823890562
 20
161.0047937844
 30
0.0
 10
187.4720724934
 20
162.5513451656
 30
0.0
 10
187.1605003264
 20
164.0976431193
 30
0.0
  0
SPLINE
  5
4A6
100
AcDbEntity
  8
RUNDUNGEN
100
AcDbSpline
 62
7
  6
CONTINUOUS
 70
0
 71
3
 72
11
 73
7
 74
0
 42
0.0000001
 43
0.0000001
 44
0.0000000001
 40
0.0
 40
0.0
 40
0.0
 40
0.0
 40
0.2546128952
 40
0.5
 40
0.7453871049
 40
1.0
 40
1.0
 40
1.0
 40
1.0
 10
188.5915739999
 20
156.9515729061
 30
0.0
 10
188.4909862874
 20
156.9980341131
 30
0.0
 10
188.2843089646
 20
157.0715505364
 30
0.0
 10
187.9593573334
 20
157.1104133498
 30
0.0
 10
187.6344057023
 20
157.0715505365
 30
0.0
 10
187.4277283795
 20
156.9980341131
 30
0.0
 10
187.327140667
 20
156.9515729061
 30
0.0
  0
SPLINE
  5
4A7
100
AcDbEntity
  8
RUNDUNGEN
100
AcDbSpline
 62
7
  6
CONTINUOUS
 70
0
 71
3
 72
13
 73
9
 74
0
 42
0.0000001
 43
0.0000001
 44
0.0000000001
 40
0.0
 40
0.0
 40
0.0
 40
0.0
 40
0.1444039515
 40
0.2878988171
 40
0.56244749
 40
0.6884817695
 40
0.8035467413
 40
1.0
 40
1.0
 40
1.0
 40
1.0
 10
268.4636862929
 20
156.5976431193
 30
0.0
 10
268.4636822594
 20
156.6992139692
 30
0.0
 10
268.4428716211
 20
156.9023789372
 30
0.0
 10
268.3248384733
 20
157.2819714755
 30
0.0
 10
268.1128415806
 20
157.6113415941
 30
0.0
 10
267.8463646648
 20
157.8597034796
 30
0.0
 10
267.5892648244
 20
158.0292938497
 30
0.0
 10
267.3698167765
 20
158.0976389955
 30
0.0
 10
267.2316354853
 20
158.0976431193
 30
0.0
  0
SPLINE
  5
4A8
100
AcDbEntity
  8
RUNDUNGEN
100
AcDbSpline
 62
7
  6
CONTINUOUS
 70
0
 71
3
 72
13
 73
9
 74
0
 42
0.0000001
 43
0.0000001
 44
0.0000000001
 40
0.0
 40
0.0
 40
0.0
 40
0.0
 40
0.1966589362
 40
0.311817266
 40
0.4379389375
 40
0.7124565551
 40
0.8557947916
 40
1.0
 40
1.0
 40
1.0
 40
1.0
 10
257.6957371005
 20
158.0976431193
 30
0.0
 10
257.5574111666
 20
158.0975072753
 30
0.0
 10
257.3377353704
 20
158.0292424153
 30
0.0
 10
257.0805192801
 20
157.859290757
 30
0.0
 10
256.8140507932
 20
157.61078236
 30
0.0
 10
256.6022508758
 20
157.2813570044
 30
0.0
 10
256.4844488335
 20
156.9019872971
 30
0.0
 10
256.4636827589
 20
156.6990742066
 30
0.0
 10
256.4636862929
 20
156.5976431193
 30
0.0
  0
SPLINE
  5
4A9
100
AcDbEntity
  8
BEZUGSACHSEN
100
AcDbSpline
 62
7
  6
CONTINUOUS
 70
0
 71
3
 72
39
 73
35
 74
0
 42
0.0000001
 43
0.0000001
 44
0.0000000001
 40
0.0
 40
0.0
 40
0.0
 40
0.0
 40
0.0696666103
 40
0.1387990656
 40
0.207186563
 40
0.2409999243
 40
0.274474598
 40
0.3075172729
 40
0.3399932348
 40
0.3716965788
 40
0.402305997
 40
0.4312982831
 40
0.4449446081
 40
0.4578380733
 40
0.4698211184
 40
0.4807730077
 40
0.4907181911
 40
0.4999998621
 40
0.5092815672
 40
0.5192267888
 40
0.5301785871
 40
0.5421618176
 40
0.555055174
 40
0.5687016611
 40
0.5976939552
 40
0.6283033662
 40
0.6600067065
 40
0.692482687
 40
0.7255253848
 40
0.7590000531
 40
0.7928134234
 40
0.8612009258
 40
0.9303333866
 40
1.0
 40
1.0
 40
1.0
 40
1.0
 10
245.8565329651
 20
156.9515729061
 30
0.0
 10
245.6661816428
 20
157.9540700512
 30
0.0
 10
245.2756529889
 20
159.9492691347
 30
0.0
 10
244.6498177325
 20
162.9188211413
 30
0.0
 10
244.085797604
 20
165.364391517
 30
0.0
 10
243.600735218
 20
167.2915954414
 30
0.0
 10
243.2189576844
 20
168.7107651307
 30
0.0
 10
242.8143252231
 20
170.1032478094
 30
0.0
 10
242.3822285528
 20
171.4603140489
 30
0.0
 10
241.9165717878
 20
172.7686887457
 30
0.0
 10
241.4095419195
 20
174.0067460562
 30
0.0
 10
240.9353992954
 20
174.9710391403
 30
0.0
 10
240.5146586488
 20
175.6678167043
 30
0.0
 10
240.1860670871
 20
176.1274228525
 30
0.0
 10
239.8366450312
 20
176.5207694561
 30
0.0
 10
239.4642447849
 20
176.8301482126
 30
0.0
 10
239.0669293831
 20
177.0348575633
 30
0.0
 10
238.6479937046
 20
177.1086445659
 30
0.0
 10
238.2290527152
 20
177.0348695142
 30
0.0
 10
237.8317443935
 20
176.8301471897
 30
0.0
 10
237.4593326799
 20
176.520780631
 30
0.0
 10
237.1099178273
 20
176.1274266971
 30
0.0
 10
236.7813158962
 20
175.6678243497
 30
0.0
 10
236.3605829249
 20
174.9710404811
 30
0.0
 10
235.8864342377
 20
174.0067485562
 30
0.0
 10
235.3794049627
 20
172.7686906401
 30
0.0
 10
234.9137468175
 20
171.4603164486
 30
0.0
 10
234.4816501995
 20
170.1032495524
 30
0.0
 10
234.0770185892
 20
168.7107660966
 30
0.0
 10
233.6952399436
 20
167.2915963047
 30
0.0
 10
233.2101781411
 20
165.3643920992
 30
0.0
 10
232.6461575602
 20
162.9188215431
 30
0.0
 10
232.0203224336
 20
159.949269299
 30
0.0
 10
231.6297937432
 20
157.954070095
 30
0.0
 10
231.4394424126
 20
156.9515729061
 30
0.0
  0
SPLINE
  5
4AA
100
AcDbEntity
  8
BEZUGSACHSEN
100
AcDbSpline
 62
7
  6
CONTINUOUS
 70
0
 71
3
 72
39
 73
35
 74
0
 42
0.0000001
 43
0.0000001
 44
0.0000000001
 40
0.0
 40
0.0
 40
0.0
 40
0.0
 40
0.0696666103
 40
0.1387990656
 40
0.207186563
 40
0.2409999243
 40
0.274474598
 40
0.3075172729
 40
0.3399932348
 40
0.3716965788
 40
0.402305997
 40
0.4312982831
 40
0.4449446081
 40
0.4578380733
 40
0.4698211184
 40
0.4807730077
 40
0.4907181911
 40
0.4999998621
 40
0.5092815672
 40
0.5192267888
 40
0.5301785871
 40
0.5421618176
 40
0.555055174
 40
0.5687016611
 40
0.5976939552
 40
0.6283033662
 40
0.6600067065
 40
0.692482687
 40
0.7255253848
 40
0.7590000531
 40
0.7928134234
 40
0.8612009258
 40
0.9303333866
 40
1.0
 40
1.0
 40
1.0
 40
1.0
 10
293.4879301733
 20
156.9515729061
 30
0.0
 10
293.2975788509
 20
157.9540700512
 30
0.0
 10
292.907050197
 20
159.9492691347
 30
0.0
 10
292.2812149406
 20
162.9188211413
 30
0.0
 10
291.7171948122
 20
165.364391517
 30
0.0
 10
291.2321324261
 20
167.2915954414
 30
0.0
 10
290.8503548926
 20
168.7107651307
 30
0.0
 10
290.4457224312
 20
170.1032478094
 30
0.0
 10
290.013625761
 20
171.4603140489
 30
0.0
 10
289.5479689959
 20
172.7686887457
 30
0.0
 10
289.0409391277
 20
174.0067460562
 30
0.0
 10
288.5667965035
 20
174.9710391403
 30
0.0
 10
288.146055857
 20
175.6678167043
 30
0.0
 10
287.8174642952
 20
176.1274228525
 30
0.0
 10
287.4680422393
 20
176.5207694561
 30
0.0
 10
287.0956419931
 20
176.8301482126
 30
0.0
 10
286.6983265912
 20
177.0348575633
 30
0.0
 10
286.2793909128
 20
177.1086445659
 30
0.0
 10
285.8604499234
 20
177.0348695142
 30
0.0
 10
285.4631416016
 20
176.8301471897
 30
0.0
 10
285.0907298881
 20
176.520780631
 30
0.0
 10
284.7413150354
 20
176.1274266971
 30
0.0
 10
284.4127131044
 20
175.6678243497
 30
0.0
 10
283.991980133
 20
174.9710404811
 30
0.0
 10
283.5178314459
 20
174.0067485562
 30
0.0
 10
283.0108021709
 20
172.7686906401
 30
0.0
 10
282.5451440256
 20
171.4603164486
 30
0.0
 10
282.1130474077
 20
170.1032495524
 30
0.0
 10
281.7084157974
 20
168.7107660966
 30
0.0
 10
281.3266371517
 20
167.2915963047
 30
0.0
 10
280.8415753493
 20
165.3643920992
 30
0.0
 10
280.2775547684
 20
162.9188215431
 30
0.0
 10
279.6517196417
 20
159.949269299
 30
0.0
 10
279.2611909514
 20
157.954070095
 30
0.0
 10
279.0708396207
 20
156.9515729061
 30
0.0
  0
SPLINE
  5
4AB
100
AcDbEntity
  8
BEZUGSACHSEN
100
AcDbSpline
 62
7
  6
CONTINUOUS
 70
0
 71
3
 72
9
 73
5
 74
0
 42
0.0000001
 43
0.0000001
 44
0.0000000001
 40
0.0
 40
0.0
 40
0.0
 40
0.0
 40
0.5
 40
1.0
 40
1.0
 40
1.0
 40
1.0
 10
279.0708396207
 20
156.9515729061
 30
0.0
 10
278.7150316629
 20
157.0464585668
 30
0.0
 10
277.9758082331
 20
157.1487802653
 30
0.0
 10
277.2365848032
 20
157.0464585668
 30
0.0
 10
276.8807768455
 20
156.9515729061
 30
0.0
  0
SPLINE
  5
4AC
100
AcDbEntity
  8
RUNDUNGEN
100
AcDbSpline
 62
7
  6
CONTINUOUS
 70
0
 71
3
 72
9
 73
5
 74
0
 42
0.0000001
 43
0.0000001
 44
0.0000000001
 40
0.0
 40
0.0
 40
0.0
 40
0.0
 40
0.5000165202
 40
1.0
 40
1.0
 40
1.0
 40
1.0
 10
276.8807768455
 20
156.9515729061
 30
0.0
 10
276.291595879
 20
158.5030521117
 30
0.0
 10
275.064370399
 20
161.5875717767
 30
0.0
 10
273.699066198
 20
164.6152711785
 30
0.0
 10
272.9636862929
 20
166.1029117111
 30
0.0
  0
SPLINE
  5
4AD
100
AcDbEntity
  8
RUNDUNGEN
100
AcDbSpline
 62
7
  6
CONTINUOUS
 70
0
 71
3
 72
11
 73
7
 74
0
 42
0.0000001
 43
0.0000001
 44
0.0000000001
 40
0.0
 40
0.0
 40
0.0
 40
0.0
 40
0.249632743
 40
0.499560558
 40
0.7497141113
 40
1.0
 40
1.0
 40
1.0
 40
1.0
 10
268.8297116967
 20
155.0976431193
 30
0.0
 10
268.7443462841
 20
155.0976431193
 30
0.0
 10
268.5726827302
 20
155.1311877969
 30
0.0
 10
268.3444301522
 20
155.2528773515
 30
0.0
 10
268.145221875
 20
155.4160808139
 30
0.0
 10
268.024206689
 20
155.5371227232
 30
0.0
 10
267.9636862929
 20
155.5976431193
 30
0.0
  0
SPLINE
  5
4AE
100
AcDbEntity
  8
RUNDUNGEN
100
AcDbSpline
 62
7
  6
CONTINUOUS
 70
0
 71
3
 72
11
 73
7
 74
0
 42
0.0000001
 43
0.0000001
 44
0.0000000001
 40
0.0
 40
0.0
 40
0.0
 40
0.0
 40
0.2502870648
 40
0.5004417668
 40
0.750369121
 40
1.0
 40
1.0
 40
1.0
 40
1.0
 10
256.9636862929
 20
155.5976431193
 30
0.0
 10
256.9031656121
 20
155.5371224384
 30
0.0
 10
256.7821498389
 20
155.4160800035
 30
0.0
 10
256.5829410053
 20
155.2528761424
 30
0.0
 10
256.3546883633
 20
155.1311875581
 30
0.0
 10
256.1830256648
 20
155.0976431193
 30
0.0
 10
256.0976608891
 20
155.0976431193
 30
0.0
  0
SPLINE
  5
4AF
100
AcDbEntity
  8
RUNDUNGEN
100
AcDbSpline
 62
7
  6
CONTINUOUS
 70
0
 71
3
 72
15
 73
11
 74
0
 42
0.0000001
 43
0.0000001
 44
0.0000000001
 40
0.0
 40
0.0
 40
0.0
 40
0.0
 40
0.0271771437
 40
0.0510642711
 40
0.0827346888
 40
0.1695536793
 40
0.2867149224
 40
0.4318075476
 40
0.6017117194
 40
1.0
 40
1.0
 40
1.0
 40
1.0
 10
253.4636862929
 20
166.7674212041
 30
0.0
 10
253.4636862929
 20
166.7582124234
 30
0.0
 10
253.4465983325
 20
166.7451648341
 30
0.0
 10
253.4222179396
 20
166.7343876503
 30
0.0
 10
253.3756928666
 20
166.7190607503
 30
0.0
 10
253.297860604
 20
166.702713106
 30
0.0
 10
253.1806955193
 20
166.6849750286
 30
0.0
 10
253.0351609995
 20
166.6690934367
 30
0.0
 10
252.7942108323
 20
166.6495764868
 30
0.0
 10
252.6018445427
 20
166.6405317682
 30
0.0
 10
252.4669613219
 20
166.6360657964
 30
0.0
  0
SPLINE
  5
4B0
100
AcDbEntity
  8
RUNDUNGEN
100
AcDbSpline
 62
7
  6
CONTINUOUS
 70
0
 71
3
 72
15
 73
11
 74
0
 42
0.0000001
 43
0.0000001
 44
0.0000000001
 40
0.0
 40
0.0
 40
0.0
 40
0.0
 40
0.3982882798
 40
0.5681924515
 40
0.7132850766
 40
0.8304463198
 40
0.9172653108
 40
0.9489357287
 40
0.9728228563
 40
1.0
 40
1.0
 40
1.0
 40
1.0
 10
272.460411264
 20
166.6360657964
 30
0.0
 10
272.3255280436
 20
166.6405317682
 30
0.0
 10
272.1331617544
 20
166.6495764848
 30
0.0
 10
271.8922115878
 20
166.6690934351
 30
0.0
 10
271.7466770681
 20
166.6849750269
 30
0.0
 10
271.6295119833
 20
166.7027131042
 30
0.0
 10
271.5516797206
 20
166.7190607489
 30
0.0
 10
271.5051546473
 20
166.7343876487
 30
0.0
 10
271.4807742542
 20
166.7451648323
 30
0.0
 10
271.4636862933
 20
166.758212421
 30
0.0
 10
271.4636862929
 20
166.7674212017
 30
0.0
  0
SPLINE
  5
4B1
100
AcDbEntity
  8
RUNDUNGEN
100
AcDbSpline
 62
7
  6
CONTINUOUS
 70
0
 71
3
 72
10
 73
6
 74
0
 42
0.0000001
 43
0.0000001
 44
0.0000000001
 40
0.0
 40
0.0
 40
0.0
 40
0.0
 40
0.487919948
 40
0.7437500219
 40
1.0
 40
1.0
 40
1.0
 40
1.0
 10
272.460411264
 20
166.6360657964
 30
0.0
 10
272.5825415147
 20
166.6320220743
 30
0.0
 10
272.7407751766
 20
166.4789444928
 30
0.0
 10
272.874115865
 20
166.274674574
 30
0.0
 10
272.9352470898
 20
166.1604429421
 30
0.0
 10
272.9636862929
 20
166.1029117111
 30
0.0
  0
SPLINE
  5
4B2
100
AcDbEntity
  8
RUNDUNGEN
100
AcDbSpline
 62
7
  6
CONTINUOUS
 70
0
 71
3
 72
10
 73
6
 74
0
 42
0.0000001
 43
0.0000001
 44
0.0000000001
 40
0.0
 40
0.0
 40
0.0
 40
0.0
 40
0.2562499781
 40
0.512080052
 40
1.0
 40
1.0
 40
1.0
 40
1.0
 10
251.9636862929
 20
166.1029117111
 30
0.0
 10
251.992125496
 20
166.1604429421
 30
0.0
 10
252.0532567209
 20
166.2746745741
 30
0.0
 10
252.1865974092
 20
166.4789444928
 30
0.0
 10
252.3448310712
 20
166.6320220743
 30
0.0
 10
252.4669613219
 20
166.6360657964
 30
0.0
  0
SPLINE
  5
4B3
100
AcDbEntity
  8
RUNDUNGEN
100
AcDbSpline
 62
7
  6
CONTINUOUS
 70
0
 71
3
 72
9
 73
5
 74
0
 42
0.0000001
 43
0.0000001
 44
0.0000000001
 40
0.0
 40
0.0
 40
0.0
 40
0.0
 40
0.4999834797
 40
1.0
 40
1.0
 40
1.0
 40
1.0
 10
251.9636862929
 20
166.1029117111
 30
0.0
 10
251.228306388
 20
164.6152711789
 30
0.0
 10
249.8630021858
 20
161.5875717777
 30
0.0
 10
248.635776707
 20
158.5030521121
 30
0.0
 10
248.0465957404
 20
156.9515729061
 30
0.0
  0
SPLINE
  5
4B4
100
AcDbEntity
  8
BEZUGSACHSEN
100
AcDbSpline
 62
7
  6
CONTINUOUS
 70
0
 71
3
 72
9
 73
5
 74
0
 42
0.0000001
 43
0.0000001
 44
0.0000000001
 40
0.0
 40
0.0
 40
0.0
 40
0.0
 40
0.5
 40
1.0
 40
1.0
 40
1.0
 40
1.0
 10
248.0465957404
 20
156.9515729061
 30
0.0
 10
247.6907877826
 20
157.0464585668
 30
0.0
 10
246.9515643527
 20
157.1487802653
 30
0.0
 10
246.2123409229
 20
157.0464585668
 30
0.0
 10
245.8565329651
 20
156.9515729061
 30
0.0
  0
SPLINE
  5
4B5
100
AcDbEntity
  8
RUNDUNGEN
100
AcDbSpline
 62
7
  6
CONTINUOUS
 70
0
 71
3
 72
18
 73
14
 74
0
 42
0.0000001
 43
0.0000001
 44
0.0000000001
 40
0.0
 40
0.0
 40
0.0
 40
0.0
 40
0.0243745022
 40
0.0473884623
 40
0.0723797916
 40
0.1021308687
 40
0.1383237891
 40
0.1817832396
 40
0.2914745417
 40
0.4309392129
 40
0.5977030738
 40
0.788530406
 40
1.0
 40
1.0
 40
1.0
 40
1.0
 10
187.1605003264
 20
71.5466495904
 30
0.0
 10
187.1229629673
 20
71.5466495904
 30
0.0
 10
187.0488922838
 20
71.5363281558
 30
0.0
 10
186.9506990522
 20
71.4773254202
 30
0.0
 10
186.8786666161
 20
71.3786001711
 30
0.0
 10
186.8310992794
 20
71.2456260612
 30
0.0
 10
186.805086005
 20
71.0785012471
 30
0.0
 10
186.7970266094
 20
70.7865133992
 30
0.0
 10
186.8449084203
 20
70.3369880656
 30
0.0
 10
186.9624016162
 20
69.7072872375
 30
0.0
 10
187.1343559806
 20
68.9611730767
 30
0.0
 10
187.3467494317
 20
68.1109584994
 30
0.0
 10
187.4992747367
 20
67.5104707568
 30
0.0
 10
187.5785284355
 20
67.1945927901
 30
0.0
  0
LINE
  5
4B6
100
AcDbEntity
  8
RUNDUNGEN
100
AcDbLine
 62
7
  6
CONTINUOUS
 10
187.5785284355
 20
67.1945927901
 11
187.5943720608
 21
67.1313953677
  0
SPLINE
  5
4B7
100
AcDbEntity
  8
RUNDUNGEN
100
AcDbSpline
 62
7
  6
CONTINUOUS
 70
0
 71
3
 72
9
 73
5
 74
0
 42
0.0000001
 43
0.0000001
 44
0.0000000001
 40
0.0
 40
0.0
 40
0.0
 40
0.0
 40
0.2388534866
 40
1.0
 40
1.0
 40
1.0
 40
1.0
 10
187.5943720608
 20
67.1313953677
 30
0.0
 10
187.6357136289
 20
66.9663566312
 30
0.0
 10
187.8077512597
 20
66.2751373843
 30
0.0
 10
187.972731161
 20
65.5821242011
 30
0.0
 10
188.0915739999
 20
65.0531366782
 30
0.0
  0
SPLINE
  5
4B8
100
AcDbEntity
  8
RUNDUNGEN
100
AcDbSpline
 62
7
  6
CONTINUOUS
 70
0
 71
3
 72
27
 73
23
 74
0
 42
0.0000001
 43
0.0000001
 44
0.0000000001
 40
0.0
 40
0.0
 40
0.0
 40
0.0
 40
0.2572419196
 40
0.3887630706
 40
0.5218079076
 40
0.588779657
 40
0.6559597856
 40
0.7232395071
 40
0.7904245889
 40
0.8238657638
 40
0.857074584
 40
0.8898538508
 40
0.9059558113
 40
0.9217197866
 40
0.9369684244
 40
0.9514263822
 40
0.9642039271
 40
0.9736931469
 40
0.9783621595
 40
0.9823789465
 40
0.9900256427
 40
1.0
 40
1.0
 40
1.0
 40
1.0
 10
188.0915739999
 20
49.2059813976
 30
0.0
 10
188.1314878475
 20
49.3836439944
 30
0.0
 10
188.1920133041
 20
49.6520949668
 30
0.0
 10
188.2736555892
 20
50.0123254623
 30
0.0
 10
188.3258414233
 20
50.2411317707
 30
0.0
 10
188.3682910617
 20
50.4254441825
 30
0.0
 10
188.4005911838
 20
50.564322829
 30
0.0
 10
188.4333788979
 20
50.7032423181
 30
0.0
 10
188.4612755111
 20
50.8187771969
 30
0.0
 10
188.4841329904
 20
50.9107146656
 30
0.0
 10
188.5015547136
 20
50.978908461
 30
0.0
 10
188.5164539664
 20
51.0350705213
 30
0.0
 10
188.5287027114
 20
51.0791714348
 30
0.0
 10
188.5379411063
 20
51.1111867534
 30
0.0
 10
188.5474232852
 20
51.1420583993
 30
0.0
 10
188.5565538846
 20
51.1703323231
 30
0.0
 10
188.5664044936
 20
51.1956066837
 30
0.0
 10
188.572686248
 20
51.2108159555
 30
0.0
 10
188.5840014049
 20
51.224865374
 30
0.0
 10
188.5906517104
 20
51.2107087193
 30
0.0
 10
188.5908952646
 20
51.1969593526
 30
0.0
 10
188.5915739999
 20
51.1839933255
 30
0.0
 10
188.5915739999
 20
51.1769328892
 30
0.0
  0
SPLINE
  5
4B9
100
AcDbEntity
  8
RUNDUNGEN
100
AcDbSpline
 62
7
  6
CONTINUOUS
 70
0
 71
3
 72
27
 73
23
 74
0
 42
0.0000001
 43
0.0000001
 44
0.0000000001
 40
0.0
 40
0.0
 40
0.0
 40
0.0
 40
0.0099746059
 40
0.0176222259
 40
0.0216282724
 40
0.0262532166
 40
0.0357163741
 40
0.0485332105
 40
0.0629181309
 40
0.0781680944
 40
0.0939391904
 40
0.1100434475
 40
0.142817656
 40
0.1760309827
 40
0.2094743663
 40
0.2766670902
 40
0.3439549395
 40
0.4111435206
 40
0.4781238791
 40
0.6111860451
 40
0.7427244776
 40
1.0
 40
1.0
 40
1.0
 40
1.0
 10
188.5915739999
 20
63.0821851865
 30
0.0
 10
188.5915739999
 20
63.0751245975
 30
0.0
 10
188.5908866339
 20
63.0621625413
 30
0.0
 10
188.5906578927
 20
63.0484048433
 30
0.0
 10
188.5840370978
 20
63.0343232618
 30
0.0
 10
188.5726552485
 20
63.048130067
 30
0.0
 10
188.5664881673
 20
63.0634383993
 30
0.0
 10
188.5566295264
 20
63.0886344267
 30
0.0
 10
188.5474616087
 20
63.1168836694
 30
0.0
 10
188.538007852
 20
63.1477131625
 30
0.0
 10
188.5287630752
 20
63.1797351274
 30
0.0
 10
188.5165130747
 20
63.2238385083
 30
0.0
 10
188.5016082909
 20
63.280000291
 30
0.0
 10
188.4841865063
 20
63.3481950195
 30
0.0
 10
188.461323712
 20
63.4401413226
 30
0.0
 10
188.433423753
 20
63.5556880892
 30
0.0
 10
188.4006313038
 20
63.6946235939
 30
0.0
 10
188.368326903
 20
63.8335190715
 30
0.0
 10
188.3258716408
 20
64.0178545308
 30
0.0
 10
188.2736789536
 20
64.2466898641
 30
0.0
 10
188.1920261539
 20
64.6069662412
 30
0.0
 10
188.1314929301
 20
64.875451458
 30
0.0
 10
188.0915739999
 20
65.0531366782
 30
0.0
  0
SPLINE
  5
4BA
100
AcDbEntity
  8
RUNDUNGEN
100
AcDbSpline
 62
7
  6
CONTINUOUS
 70
0
 71
3
 72
9
 73
5
 74
0
 42
0.0000001
 43
0.0000001
 44
0.0000000001
 40
0.0
 40
0.0
 40
0.0
 40
0.0
 40
0.2602502679
 40
1.0
 40
1.0
 40
1.0
 40
1.0
 10
188.0915739999
 20
49.2059813976
 30
0.0
 10
188.0509388767
 20
49.0251082938
 30
0.0
 10
187.8918705328
 20
48.3307673108
 30
0.0
 10
187.7224077027
 20
47.6388508532
 30
0.0
 10
187.5943676415
 20
47.127705099
 30
0.0
  0
LINE
  5
4BB
100
AcDbEntity
  8
RUNDUNGEN
100
AcDbLine
 62
7
  6
CONTINUOUS
 10
187.5943676415
 20
47.127705099
 11
187.5782284292
 21
47.0633295867
  0
SPLINE
  5
4BC
100
AcDbEntity
  8
RUNDUNGEN
100
AcDbSpline
 62
7
  6
CONTINUOUS
 70
0
 71
3
 72
18
 73
14
 74
0
 42
0.0000001
 43
0.0000001
 44
0.0000000001
 40
0.0
 40
0.0
 40
0.0
 40
0.0
 40
0.2114728366
 40
0.402300543
 40
0.5690625094
 40
0.7085237991
 40
0.8182114276
 40
0.8616695379
 40
0.8978617822
 40
0.9276131681
 40
0.95260597
 40
0.9756224593
 40
1.0
 40
1.0
 40
1.0
 40
1.0
 10
187.5782284292
 20
47.0633295867
 30
0.0
 10
187.4989925091
 20
46.7475315459
 30
0.0
 10
187.3465055881
 20
46.1471987674
 30
0.0
 10
187.1341771537
 20
45.2972060496
 30
0.0
 10
186.9622886858
 20
44.5512938379
 30
0.0
 10
186.8448553722
 20
43.9217694549
 30
0.0
 10
186.7970163762
 20
43.4723732636
 30
0.0
 10
186.8050992761
 20
43.1804725391
 30
0.0
 10
186.8311238928
 20
43.0133976686
 30
0.0
 10
186.8786964273
 20
42.8804632707
 30
0.0
 10
186.9507276485
 20
42.7817693971
 30
0.0
 10
187.0489090914
 20
42.7227865697
 30
0.0
 10
187.1229682989
 20
42.7124684854
 30
0.0
 10
187.1605003264
 20
42.7124684854
 30
0.0
  0
ENDSEC
  0
SECTION
  2
OBJECTS
  0
DICTIONARY
  5
C
100
AcDbDictionary
280
0
281
1
  3
ACAD_GROUP
350
D
  3
ACAD_MLINESTYLE
350
17
  3
ACAD_LAYOUT
350
1A
  3
ACAD_PLOTSETTINGS
350
19
  3
ACAD_PLOTSTYLENAME
350
E
  0
DICTIONARY
  5
D
102
{ACAD_REACTORS
330
C
102
}
100
AcDbDictionary
280
0
281
1
  0
ACDBDICTIONARYWDFLT
  5
E
102
{ACAD_REACTORS
330
C
102
}
100
AcDbDictionary
281
1
  3
Normal
350
F
100
AcDbDictionaryWithDefault
340
F
  0
DICTIONARY
  5
17
102
{ACAD_REACTORS
330
C
102
}
100
AcDbDictionary
280
0
281
1
  3
Standard
350
18
  0
DICTIONARY
  5
19
102
{ACAD_REACTORS
330
C
102
}
100
AcDbDictionary
281
1
  0
DICTIONARY
  5
1A
102
{ACAD_REACTORS
330
C
102
}
100
AcDbDictionary
281
1
  3
Model
350
4BD
  3
Layout1
350
4BE
  0
ACDBPLACEHOLDER
  5
F
102
{ACAD_REACTORS
330
E
102
}
  0
MLINESTYLE
  5
18
102
{ACAD_REACTORS
330
17
102
}
100
AcDbMlineStyle
  2
STANDARD
 70
0
  3

 62
256
 51
90.0
 52
90.0
 71
2
 49
0.5
 62
256
  6
BYLAYER
 49
-0.5
 62
256
  6
BYLAYER
  0
LAYOUT
  5
4BD
102
{ACAD_REACTORS
330
1A
102
}
100
AcDbPlotSettings
  1

  2
none_device
  4
ISO_A3_(420.00_x_297.00_MM)
  6

 40
0.0
 41
0.0
 42
0.0
 43
0.0
 44
420.0
 45
297.0
 46
0.0
 47
0.0
 48
0.0
 49
0.0
140
0.0
141
0.0
142
1.0
143
1.0
 70
1024
 72
1
 73
0
 74
0
  7

 75
0
147
1.0
148
0.0
149
0.0
100
AcDbLayout
  1
Model
 70
0
 71
0
 10
0.0
 20
0.0
 11
420.0
 21
297.0
 12
0.0
 22
0.0
 32
0.0
 14
0.0
 24
0.0
 34
0.0
 15
0.0
 25
0.0
 35
0.0
146
0.0
 13
0.0
 23
0.0
 33
0.0
 16
1.0
 26
0.0
 36
0.0
 17
0.0
 27
1.0
 37
0.0
 76
0
330
216
345
0
346
0
  0
LAYOUT
  5
4BE
102
{ACAD_REACTORS
330
1A
102
}
100
AcDbPlotSettings
  1

  2
none_device
  4
ISO_A3_(420.00_x_297.00_MM)
  6

 40
0.0
 41
0.0
 42
0.0
 43
0.0
 44
420.0
 45
297.0
 46
0.0
 47
0.0
 48
0.0
 49
0.0
140
0.0
141
0.0
142
1.0
143
1.0
 70
0
 72
1
 73
0
 74
0
  7

 75
0
147
1.0
148
0.0
149
0.0
100
AcDbLayout
  1
Layout1
 70
0
 71
1
 10
0.0
 20
0.0
 11
420.0
 21
297.0
 12
0.0
 22
0.0
 32
0.0
 14
0.0
 24
0.0
 34
0.0
 15
0.0
 25
0.0
 35
0.0
146
0.0
 13
0.0
 23
0.0
 33
0.0
 16
1.0
 26
0.0
 36
0.0
 17
0.0
 27
1.0
 37
0.0
 76
0
330
217
345
0
346
0
  0
ENDSEC
  0
EOF
