999
DXF file: 001-m31711-p-10.dxf
999
Pro/ENGINEER 2011490 by Parametric Technology Corporation
  0
SECTION
  2
HEADER
  9
$ACADVER
  1
AC1015
  9
$DWGCODEPAGE
  3
ANSI_1252
  9
$EXTMAX
 10
420.0
 20
297.0
 30
0.0
  9
$EXTMIN
 10
0.0
 20
0.0
 30
0.0
  9
$LIMMIN
 10
0.0
 20
0.0
  9
$LIMMAX
 10
420.0
 20
297.0
  9
$VIEWCTR
 10
210.0
 20
148.5
  9
$VIEWSIZE
 40
297.0
  9
$CLAYER
  8
0
  9
$LTSCALE
 40
23.1
  9
$CELTYPE
  6
BYLAYER
  9
$DIMSCALE
 40
1.0
  9
$DIMASZ
 40
3.5
  9
$DIMEXO
 40
2.625
  9
$DIMDLI
 40
15.96
  9
$DIMEXE
 40
7.56
  9
$DIMCEN
 40
3.78
  9
$DIMLFAC
 40
1.0
  9
$DIMBLK
  1
_FILLED
  9
$DIMTXT
 40
3.5
  9
$DIMTOL
 70
1
  9
$DIMLIM
 70
0
  9
$DIMTFAC
 40
1.0
  9
$DIMTP
 40
0.005
  9
$DIMTM
 40
0.005
  9
$PDMODE
 70
3
  9
$PDSIZE
 40
0.3125
  9
$HANDSEED
  5
4D0
  9
$TILEMODE
 70
1
  9
$MEASUREMENT
 70
1
  9
$INSUNITS
 70
4
  0
ENDSEC
  0
SECTION
  2
CLASSES
  0
CLASS
  1
ACDBDICTIONARYWDFLT
  2
AcDbDictionaryWithDefault
  3
AutoCAD 2000
 90
0
280
0
281
0
  0
CLASS
  1
ACDBPLACEHOLDER
  2
AcDbPlaceHolder
  3
AutoCAD 2000
 90
0
280
0
281
0
  0
CLASS
  1
LAYOUT
  2
AcDbLayout
  3
AutoCAD 2000
 90
0
280
0
281
0
  0
ENDSEC
  0
SECTION
  2
TABLES
  0
TABLE
  2
VPORT
  5
8
100
AcDbSymbolTable
 70
2
  0
VPORT
  5
1F4
100
AcDbSymbolTableRecord
100
AcDbViewportTableRecord
  2
*ACTIVE
 70
0
 10
0.0
 20
0.0
 11
1.0
 21
1.0
 12
210.0
 22
148.5
 13
0.0
 23
0.0
 14
1.0
 24
1.0
 15
0.0
 25
0.0
 16
0.0
 26
0.0
 36
1.0
 17
0.0
 27
0.0
 37
0.0
 40
297.0
 41
1.4141414141
 42
50.0
 43
0.0
 44
0.0
 50
0.0
 51
0.0
 71
0
 72
100
 73
1
 74
1
 75
0
 76
0
 77
0
 78
0
  0
ENDTAB
  0
TABLE
  2
LTYPE
  5
5
100
AcDbSymbolTable
 70
6
  0
LTYPE
  5
14
100
AcDbSymbolTableRecord
100
AcDbLinetypeTableRecord
  2
BYBLOCK
 70
0
  3

 72
65
 73
0
 40
0.0
  0
LTYPE
  5
15
100
AcDbSymbolTableRecord
100
AcDbLinetypeTableRecord
  2
BYLAYER
 70
0
  3

 72
65
 73
0
 40
0.0
  0
LTYPE
  5
16
100
AcDbSymbolTableRecord
100
AcDbLinetypeTableRecord
  2
CONTINUOUS
 70
64
  3
Solid line
 72
65
 73
0
 40
0.0
  0
LTYPE
  5
1F5
100
AcDbSymbolTableRecord
100
AcDbLinetypeTableRecord
  2
CENTER
 70
64
  3
____ _ ____ _ ____ _ ____ _ ____ _ ____ _ ____
 72
65
 73
4
 40
0.6
 49
0.375
 74
0
 49
-0.075
 74
0
 49
0.075
 74
0
 49
-0.075
 74
0
  0
LTYPE
  5
1F6
100
AcDbSymbolTableRecord
100
AcDbLinetypeTableRecord
  2
HIDDEN
 70
64
  3
- - - - - - - - - - - - - - - - - - - -
 72
65
 73
2
 40
0.2
 49
0.1
 74
0
 49
-0.1
 74
0
  0
LTYPE
  5
1F7
100
AcDbSymbolTableRecord
100
AcDbLinetypeTableRecord
  2
PHANTOM
 70
64
  3
_____ _ _ _____ _ _ _____ _ _ _____
 72
65
 73
6
 40
0.8
 49
0.45
 74
0
 49
-0.05
 74
0
 49
0.1
 74
0
 49
-0.05
 74
0
 49
0.1
 74
0
 49
-0.05
 74
0
  0
LTYPE
  5
1F8
100
AcDbSymbolTableRecord
100
AcDbLinetypeTableRecord
  2
DOT
 70
64
  3
. . . . . . . . . . . . . . . . . . . .
 72
65
 73
2
 40
0.2
 49
0.1
 74
0
 49
-0.1
 74
0
  0
LTYPE
  5
1F9
100
AcDbSymbolTableRecord
100
AcDbLinetypeTableRecord
  2
DASHED
 70
64
  3
- - - - - - - - - - - - - - - - - - - -
 72
65
 73
2
 40
0.2
 49
0.1
 74
0
 49
-0.1
 74
0
  0
ENDTAB
  0
TABLE
  2
LAYER
  5
2
100
AcDbSymbolTable
 70
36
  0
LAYER
  5
10
100
AcDbSymbolTableRecord
100
AcDbLayerTableRecord
  2
0
 70
0
 62
7
  6
CONTINUOUS
370
-3
390
F
  0
LAYER
  5
1FA
100
AcDbSymbolTableRecord
100
AcDbLayerTableRecord
  2
DEFAULT_1
 70
0
 62
7
  6
CENTER
370
-3
390
F
  0
LAYER
  5
1FB
100
AcDbSymbolTableRecord
100
AcDbLayerTableRecord
  2
DEFAULT_2
 70
0
 62
8
  6
HIDDEN
370
-3
390
F
  0
LAYER
  5
1FC
100
AcDbSymbolTableRecord
100
AcDbLayerTableRecord
  2
DEFAULT_3
 70
0
 62
7
  6
PHANTOM
370
-3
390
F
  0
LAYER
  5
1FD
100
AcDbSymbolTableRecord
100
AcDbLayerTableRecord
  2
AUSFORMSCHRAEGEN
 70
0
 62
7
  6
CONTINUOUS
370
-3
390
F
  0
LAYER
  5
1FE
100
AcDbSymbolTableRecord
100
AcDbLayerTableRecord
  2
B-EBENEN
 70
0
 62
7
  6
CONTINUOUS
370
-3
390
F
  0
LAYER
  5
1FF
100
AcDbSymbolTableRecord
100
AcDbLayerTableRecord
  2
B-KOORSYS
 70
0
 62
7
  6
CONTINUOUS
370
-3
390
F
  0
LAYER
  5
200
100
AcDbSymbolTableRecord
100
AcDbLayerTableRecord
  2
B-KURVEN
 70
0
 62
7
  6
CONTINUOUS
370
-3
390
F
  0
LAYER
  5
201
100
AcDbSymbolTableRecord
100
AcDbLayerTableRecord
  2
BEMASSUNG
 70
0
 62
7
  6
CONTINUOUS
370
-3
390
F
  0
LAYER
  5
202
100
AcDbSymbolTableRecord
100
AcDbLayerTableRecord
  2
BEZUGSACHSEN
 70
0
 62
7
  6
CONTINUOUS
370
-3
390
F
  0
LAYER
  5
203
100
AcDbSymbolTableRecord
100
AcDbLayerTableRecord
  2
BEZUGSEBENEN
 70
0
 62
7
  6
CONTINUOUS
370
-3
390
F
  0
LAYER
  5
204
100
AcDbSymbolTableRecord
100
AcDbLayerTableRecord
  2
BEZUGSPUNKTE
 70
0
 62
7
  6
CONTINUOUS
370
-3
390
F
  0
LAYER
  5
205
100
AcDbSymbolTableRecord
100
AcDbLayerTableRecord
  2
BG_STARTBEZUEGE
 70
0
 62
7
  6
CONTINUOUS
370
-3
390
F
  0
LAYER
  5
206
100
AcDbSymbolTableRecord
100
AcDbLayerTableRecord
  2
FASEN
 70
0
 62
7
  6
CONTINUOUS
370
-3
390
F
  0
LAYER
  5
207
100
AcDbSymbolTableRecord
100
AcDbLayerTableRecord
  2
FLAECHEN
 70
0
 62
7
  6
CONTINUOUS
370
-3
390
F
  0
LAYER
  5
208
100
AcDbSymbolTableRecord
100
AcDbLayerTableRecord
  2
FLAECHENVERBUND
 70
0
 62
7
  6
CONTINUOUS
370
-3
390
F
  0
LAYER
  5
209
100
AcDbSymbolTableRecord
100
AcDbLayerTableRecord
  2
HILFEN
 70
0
 62
7
  6
CONTINUOUS
370
-3
390
F
  0
LAYER
  5
20A
100
AcDbSymbolTableRecord
100
AcDbLayerTableRecord
  2
KONSTRUKTIONSELEMENTE
 70
0
 62
7
  6
CONTINUOUS
370
-3
390
F
  0
LAYER
  5
20B
100
AcDbSymbolTableRecord
100
AcDbLayerTableRecord
  2
KURVEN
 70
0
 62
7
  6
CONTINUOUS
370
-3
390
F
  0
LAYER
  5
20C
100
AcDbSymbolTableRecord
100
AcDbLayerTableRecord
  2
KURVENELEMENTE
 70
0
 62
7
  6
CONTINUOUS
370
-3
390
F
  0
LAYER
  5
20D
100
AcDbSymbolTableRecord
100
AcDbLayerTableRecord
  2
NORM
 70
0
 62
7
  6
CONTINUOUS
370
-3
390
F
  0
LAYER
  5
20E
100
AcDbSymbolTableRecord
100
AcDbLayerTableRecord
  2
NOTIZEN
 70
0
 62
7
  6
CONTINUOUS
370
-3
390
F
  0
LAYER
  5
20F
100
AcDbSymbolTableRecord
100
AcDbLayerTableRecord
  2
PLATZIERUNG
 70
0
 62
7
  6
CONTINUOUS
370
-3
390
F
  0
LAYER
  5
210
100
AcDbSymbolTableRecord
100
AcDbLayerTableRecord
  2
RUNDUNGEN
 70
0
 62
7
  6
CONTINUOUS
370
-3
390
F
  0
LAYER
  5
211
100
AcDbSymbolTableRecord
100
AcDbLayerTableRecord
  2
TEIL_STARTBEZUEGE
 70
0
 62
7
  6
CONTINUOUS
370
-3
390
F
  0
LAYER
  5
212
100
AcDbSymbolTableRecord
100
AcDbLayerTableRecord
  2
T_STARTBEZUEGE
 70
0
 62
7
  6
CONTINUOUS
370
-3
390
F
  0
LAYER
  5
213
100
AcDbSymbolTableRecord
100
AcDbLayerTableRecord
  2
ZEICHNUNGSBEMASSUNGEN
 70
0
 62
7
  6
CONTINUOUS
370
-3
390
F
  0
ENDTAB
  0
TABLE
  2
STYLE
  5
3
100
AcDbSymbolTable
 70
1
  0
STYLE
  5
11
100
AcDbSymbolTableRecord
100
AcDbTextStyleTableRecord
  2
STANDARD
 70
0
 40
0.0
 41
0.7
 50
0.0
 71
0
 42
0.2
  3
txt
  4

  0
STYLE
  5
214
100
AcDbSymbolTableRecord
100
AcDbTextStyleTableRecord
  2
TEXTSTYLE_1
 70
0
 40
0.0
 41
0.8
 50
0.0
 71
0
 42
0.2
  3
gdt
  4

  0
ENDTAB
  0
TABLE
  2
VIEW
  5
6
100
AcDbSymbolTable
 70
0
  0
ENDTAB
  0
TABLE
  2
UCS
  5
7
100
AcDbSymbolTable
 70
0
  0
ENDTAB
  0
TABLE
  2
APPID
  5
9
100
AcDbSymbolTable
 70
1
  0
APPID
  5
215
100
AcDbSymbolTableRecord
100
AcDbRegAppTableRecord
  2
ACAD
 70
0
  0
ENDTAB
  0
TABLE
  2
BLOCK_RECORD
  5
1
100
AcDbSymbolTable
 70
0
  0
BLOCK_RECORD
  5
216
100
AcDbSymbolTableRecord
100
AcDbBlockTableRecord
  2
*Model_Space
  0
BLOCK_RECORD
  5
217
100
AcDbSymbolTableRecord
100
AcDbBlockTableRecord
  2
*Paper_Space
  0
ENDTAB
  0
TABLE
  2
DIMSTYLE
  5
A
100
AcDbSymbolTable
 70
1
100
AcDbDimStyleTable
 71
0
  0
DIMSTYLE
105
218
100
AcDbSymbolTableRecord
100
AcDbDimStyleTableRecord
  2
STANDARD
 70
0
  3

  4

 40
1.0
 41
3.5
 42
0.0625
 43
0.38
 44
0.18
 45
0.0
 46
0.0
 47
0.005
 48
0.005
140
3.5
141
0.09
142
0.0
143
25.4
144
1.0
145
0.0
146
1.0
147
0.09
 71
1.0
 72
0.0
 73
0
 74
0
 75
0
 76
0
 77
1
 78
8
170
0
171
2
172
0
173
0
174
0
175
0
176
0
177
0
178
5
270
2
271
3
272
3
273
2
274
2
275
0
280
0
281
0
282
0
283
1
284
8
285
0
286
0
287
3
288
0
340
11
  0
ENDTAB
  0
ENDSEC
  0
SECTION
  2
BLOCKS
  0
BLOCK
  5
20
100
AcDbEntity
  8
0
100
AcDbBlockBegin
  2
*Model_Space
 70
0
 10
0.0
 20
0.0
 30
0.0
  3
*Model_Space
  1

  0
ENDBLK
  5
21
100
AcDbEntity
  8
0
100
AcDbBlockEnd
  0
BLOCK
  5
1C
100
AcDbEntity
  8
0
100
AcDbBlockBegin
  2
*Paper_Space
 70
0
 10
0.0
 20
0.0
 30
0.0
  3
*Paper_Space
  1

  0
ENDBLK
  5
1D
100
AcDbEntity
  8
0
100
AcDbBlockEnd
  0
ENDSEC
  0
SECTION
  2
ENTITIES
  0
MTEXT
  5
219
100
AcDbEntity
  8
0
100
AcDbMText
 62
5
  6
CONTINUOUS
  7
STANDARD
 71
1
 72
1
 10
152.7279797658
 20
60.1998782584
 30
0.0
 11
1.0
 21
0.0
 31
0.0
 44
0.9
  1
VWBG-V\P2t M20
 40
5.0
 41
27.5
  0
MTEXT
  5
21A
100
AcDbEntity
  8
0
100
AcDbMText
 62
5
  6
CONTINUOUS
  7
STANDARD
 71
1
 72
1
 10
145.5477074357
 20
163.2838024482
 30
0.0
 11
1.0
 21
0.0
 31
0.0
 44
0.9
  1
RUD VWBG-V \P2t M20
 40
5.0
 41
47.7380952381
  0
LINE
  5
21B
100
AcDbEntity
  8
0
100
AcDbLine
 62
7
  6
CONTINUOUS
 10
0.0
 20
0.0
 11
0.0
 21
297.0
  0
LINE
  5
21C
100
AcDbEntity
  8
0
100
AcDbLine
 62
7
  6
CONTINUOUS
 10
0.0
 20
0.0
 11
420.0
 21
0.0
  0
LINE
  5
21D
100
AcDbEntity
  8
0
100
AcDbLine
 62
7
  6
CONTINUOUS
 10
0.0
 20
297.0
 11
420.0
 21
297.0
  0
LINE
  5
21E
100
AcDbEntity
  8
0
100
AcDbLine
 62
7
  6
CONTINUOUS
 10
420.0
 20
0.0
 11
420.0
 21
297.0
  0
LINE
  5
21F
100
AcDbEntity
  8
0
100
AcDbLine
 62
7
  6
CONTINUOUS
 10
173.0102148976
 20
104.0281972158
 11
158.0102148976
 21
104.0281972158
  0
LINE
  5
220
100
AcDbEntity
  8
0
100
AcDbLine
 62
7
  6
CONTINUOUS
 10
175.5102148976
 20
106.5281972158
 11
155.5102148976
 21
106.5281972158
  0
LINE
  5
221
100
AcDbEntity
  8
0
100
AcDbLine
 62
7
  6
CONTINUOUS
 10
155.5102148976
 20
106.5281972158
 11
158.0102148976
 21
104.0281972158
  0
LINE
  5
222
100
AcDbEntity
  8
0
100
AcDbLine
 62
7
  6
CONTINUOUS
 10
193.0102148976
 20
137.0281972158
 11
138.0102148976
 21
137.0281972158
  0
LINE
  5
223
100
AcDbEntity
  8
0
100
AcDbLine
 62
7
  6
CONTINUOUS
 10
136.5737232245
 20
157.7281972158
 11
136.0102148976
 21
157.7281972158
  0
LINE
  5
224
100
AcDbEntity
  8
RUNDUNGEN
100
AcDbLine
 62
7
  6
CONTINUOUS
 10
136.5737232245
 20
157.7281972158
 11
136.0102148976
 21
157.7281972158
  0
LINE
  5
225
100
AcDbEntity
  8
RUNDUNGEN
100
AcDbLine
 62
7
  6
CONTINUOUS
 10
136.5758498814
 20
157.7281735258
 11
136.6623954115
 21
157.725029616
  0
LWPOLYLINE
  5
226
100
AcDbEntity
  8
RUNDUNGEN
100
AcDbPolyline
 62
7
  6
CONTINUOUS
 90
14
 70
0
 10
136.6623954115
 20
157.725029616
 10
136.7615476777
 20
157.7143189114
 10
136.8694742314
 20
157.6942306674
 10
136.9823633375
 20
157.6636706662
 10
137.097140118
 20
157.62207773
 10
137.2116986581
 20
157.5690835832
 10
137.3232830516
 20
157.5051135466
 10
137.4313777844
 20
157.429674019
 10
137.5348743914
 20
157.3424864844
 10
137.6322398237
 20
157.2436333873
 10
137.7219558421
 20
157.1333083581
 10
137.8024585782
 20
157.0118736018
 10
137.8721289789
 20
156.8799157809
 10
137.9293479456
 20
156.7382061569
  0
LWPOLYLINE
  5
227
100
AcDbEntity
  8
RUNDUNGEN
100
AcDbPolyline
 62
7
  6
CONTINUOUS
 90
3
 70
0
 10
137.9293479456
 20
156.7382061569
 10
137.9724845932
 20
156.5877790485
 10
137.9999356138
 20
156.4299677561
  0
LINE
  5
228
100
AcDbEntity
  8
RUNDUNGEN
100
AcDbLine
 62
7
  6
CONTINUOUS
 10
135.0102148976
 20
174.7281033485
 11
135.0102148976
 21
158.7281972158
  0
LINE
  5
229
100
AcDbEntity
  8
0
100
AcDbLine
 62
7
  6
CONTINUOUS
 10
135.0102148976
 20
221.5281972158
 11
135.0102148976
 21
256.5281972158
  0
LINE
  5
22A
100
AcDbEntity
  8
0
100
AcDbLine
 62
7
  6
CONTINUOUS
 10
138.0102148976
 20
156.5821270026
 11
138.0102148976
 21
137.0281972158
  0
LINE
  5
22B
100
AcDbEntity
  8
RUNDUNGEN
100
AcDbLine
 62
7
  6
CONTINUOUS
 10
138.0102148976
 20
156.5821270026
 11
138.0102148976
 21
165.7334658076
  0
LINE
  5
22C
100
AcDbEntity
  8
0
100
AcDbLine
 62
7
  6
CONTINUOUS
 10
139.2746482305
 20
156.5821270026
 11
139.2746482305
 21
137.0281972158
  0
LINE
  5
22D
100
AcDbEntity
  8
0
100
AcDbLine
 62
7
  6
CONTINUOUS
 10
139.5102148976
 20
180.0281972158
 11
139.5102148976
 21
178.0281972158
  0
LINE
  5
22E
100
AcDbEntity
  8
BEZUGSACHSEN
100
AcDbLine
 62
7
  6
CONTINUOUS
 10
140.0102148976
 20
180.0281972158
 11
140.0102148976
 21
182.0281972158
  0
LINE
  5
22F
100
AcDbEntity
  8
BEZUGSACHSEN
100
AcDbLine
 62
7
  6
CONTINUOUS
 10
138.0680875287
 20
177.0433894628
 11
138.0546649197
 21
176.9672660641
  0
LINE
  5
230
100
AcDbEntity
  8
0
100
AcDbLine
 62
7
  6
CONTINUOUS
 10
136.5776194555
 20
175.7281972158
 11
136.0102148976
 21
175.7281972158
  0
LINE
  5
231
100
AcDbEntity
  8
FASEN
100
AcDbLine
 62
7
  6
CONTINUOUS
 10
192.9523422665
 20
177.0433894628
 11
138.0680875287
 21
177.0433894628
  0
LINE
  5
232
100
AcDbEntity
  8
0
100
AcDbLine
 62
7
  6
CONTINUOUS
 10
148.0102148976
 20
221.5281972158
 11
148.0102148976
 21
256.5281972158
  0
LINE
  5
233
100
AcDbEntity
  8
FASEN
100
AcDbLine
 62
7
  6
CONTINUOUS
 10
191.7783862177
 20
178.0281972158
 11
139.2420435776
 21
178.0281972158
  0
LINE
  5
234
100
AcDbEntity
  8
0
100
AcDbLine
 62
7
  6
CONTINUOUS
 10
191.5097604538
 20
180.0281972158
 11
139.5106693415
 21
180.0281972158
  0
LINE
  5
235
100
AcDbEntity
  8
0
100
AcDbLine
 62
7
  6
CONTINUOUS
 10
155.5102148976
 20
137.0281972158
 11
155.5102148976
 21
106.5281972158
  0
LINE
  5
236
100
AcDbEntity
  8
0
100
AcDbLine
 62
7
  6
CONTINUOUS
 10
159.5102148976
 20
202.7872285975
 11
159.5102148976
 21
207.4329618586
  0
LINE
  5
237
100
AcDbEntity
  8
0
100
AcDbLine
 62
7
  6
CONTINUOUS
 10
159.5102148976
 20
207.4457839264
 11
159.5102148976
 21
207.90379274
  0
LINE
  5
238
100
AcDbEntity
  8
0
100
AcDbLine
 62
7
  6
CONTINUOUS
 10
159.5102148976
 20
208.365994392
 11
159.5102148976
 21
212.771885068
  0
LINE
  5
239
100
AcDbEntity
  8
0
100
AcDbLine
 62
7
  6
CONTINUOUS
 10
159.5102148976
 20
212.7771732256
 11
159.5102148976
 21
213.0296732561
  0
LINE
  5
23A
100
AcDbEntity
  8
BEZUGSACHSEN
100
AcDbLine
 62
7
  6
CONTINUOUS
 10
159.6483409369
 20
199.03395668
 11
155.2691166317
 21
187.0021367866
  0
LINE
  5
23B
100
AcDbEntity
  8
RUNDUNGEN
100
AcDbLine
 62
7
  6
CONTINUOUS
 10
178.4505187728
 20
185.0281972158
 11
178.4504035127
 21
185.0281972091
  0
LINE
  5
23C
100
AcDbEntity
  8
BEZUGSACHSEN
100
AcDbLine
 62
7
  6
CONTINUOUS
 10
152.5694460879
 20
185.0281972158
 11
143.0135437446
 21
185.0281972158
  0
LINE
  5
23D
100
AcDbEntity
  8
BEZUGSACHSEN
100
AcDbLine
 62
7
  6
CONTINUOUS
 10
178.4505187696
 20
185.0281972158
 11
188.0068860506
 21
185.0281972158
  0
LINE
  5
23E
100
AcDbEntity
  8
RUNDUNGEN
100
AcDbLine
 62
7
  6
CONTINUOUS
 10
160.0102148976
 20
217.2808241026
 11
160.0102148976
 21
211.1645991363
  0
LINE
  5
23F
100
AcDbEntity
  8
BEZUGSACHSEN
100
AcDbLine
 62
7
  6
CONTINUOUS
 10
160.0102148976
 20
211.1645991363
 11
160.0102148976
 21
201.0862218358
  0
LINE
  5
240
100
AcDbEntity
  8
0
100
AcDbLine
 62
7
  6
CONTINUOUS
 10
164.2457815648
 20
156.5821270026
 11
164.2457815648
 21
137.0281972158
  0
LINE
  5
241
100
AcDbEntity
  8
FASEN
100
AcDbLine
 62
7
  6
CONTINUOUS
 10
139.2417357064
 20
178.0281972158
 11
138.0680875287
 21
177.0433894628
  0
LINE
  5
242
100
AcDbEntity
  8
0
100
AcDbLine
 62
7
  6
CONTINUOUS
 10
166.7746482305
 20
156.5821270026
 11
166.7746482305
 21
137.0281972158
  0
LINE
  5
243
100
AcDbEntity
  8
RUNDUNGEN
100
AcDbLine
 62
7
  6
CONTINUOUS
 10
171.0102148976
 20
217.2810206149
 11
171.0102148976
 21
201.0862218358
  0
LINE
  5
244
100
AcDbEntity
  8
FASEN
100
AcDbLine
 62
7
  6
CONTINUOUS
 10
191.7786940889
 20
178.0281972158
 11
192.9523422665
 21
177.0433894628
  0
LINE
  5
245
100
AcDbEntity
  8
RUNDUNGEN
100
AcDbLine
 62
7
  6
CONTINUOUS
 10
171.3720888584
 20
199.03395668
 11
175.7513131636
 21
187.0021367866
  0
LINE
  5
246
100
AcDbEntity
  8
0
100
AcDbLine
 62
7
  6
CONTINUOUS
 10
175.5102148976
 20
137.0281972158
 11
175.5102148976
 21
106.5281972158
  0
LINE
  5
247
100
AcDbEntity
  8
0
100
AcDbLine
 62
7
  6
CONTINUOUS
 10
160.0102148976
 20
202.7872285975
 11
159.5102148976
 21
202.7872285975
  0
LINE
  5
248
100
AcDbEntity
  8
0
100
AcDbLine
 62
7
  6
CONTINUOUS
 10
160.0102148976
 20
202.9195899769
 11
159.5102148976
 21
202.9195899769
  0
LINE
  5
249
100
AcDbEntity
  8
0
100
AcDbLine
 62
7
  6
CONTINUOUS
 10
160.0102148976
 20
203.2020725707
 11
159.5102148976
 21
203.2020725707
  0
LINE
  5
24A
100
AcDbEntity
  8
0
100
AcDbLine
 62
7
  6
CONTINUOUS
 10
160.0102148976
 20
203.4178881421
 11
159.5102148976
 21
203.4178881421
  0
LINE
  5
24B
100
AcDbEntity
  8
0
100
AcDbLine
 62
7
  6
CONTINUOUS
 10
160.0102148976
 20
203.5670367258
 11
159.5102148976
 21
203.5670367258
  0
LINE
  5
24C
100
AcDbEntity
  8
0
100
AcDbLine
 62
7
  6
CONTINUOUS
 10
160.0102148976
 20
203.6140031948
 11
159.5102148976
 21
203.6140031948
  0
LINE
  5
24D
100
AcDbEntity
  8
0
100
AcDbLine
 62
7
  6
CONTINUOUS
 10
160.0102148976
 20
203.7463645626
 11
159.5102148976
 21
203.7463645626
  0
LINE
  5
24E
100
AcDbEntity
  8
0
100
AcDbLine
 62
7
  6
CONTINUOUS
 10
160.0102148976
 20
204.2950242947
 11
159.5102148976
 21
204.2950242947
  0
LINE
  5
24F
100
AcDbEntity
  8
0
100
AcDbLine
 62
7
  6
CONTINUOUS
 10
160.0102148976
 20
204.5597471228
 11
159.5102148976
 21
204.5597471228
  0
LINE
  5
250
100
AcDbEntity
  8
0
100
AcDbLine
 62
7
  6
CONTINUOUS
 10
160.0102148976
 20
204.8091393631
 11
159.5102148976
 21
204.8091393631
  0
LINE
  5
251
100
AcDbEntity
  8
0
100
AcDbLine
 62
7
  6
CONTINUOUS
 10
160.0102148976
 20
204.9434436628
 11
159.5102148976
 21
204.9434436628
  0
LINE
  5
252
100
AcDbEntity
  8
0
100
AcDbLine
 62
7
  6
CONTINUOUS
 10
160.0102148976
 20
205.5300154614
 11
159.5102148976
 21
205.5300154614
  0
LINE
  5
253
100
AcDbEntity
  8
0
100
AcDbLine
 62
7
  6
CONTINUOUS
 10
160.0102148976
 20
205.5648884295
 11
159.5102148976
 21
205.5648884295
  0
LINE
  5
254
100
AcDbEntity
  8
0
100
AcDbLine
 62
7
  6
CONTINUOUS
 10
160.0102148976
 20
205.6855277912
 11
159.5102148976
 21
205.6855277912
  0
LINE
  5
255
100
AcDbEntity
  8
0
100
AcDbLine
 62
7
  6
CONTINUOUS
 10
160.0102148976
 20
205.7680918381
 11
159.5102148976
 21
205.7680918381
  0
LINE
  5
256
100
AcDbEntity
  8
0
100
AcDbLine
 62
7
  6
CONTINUOUS
 10
160.0102148976
 20
205.9777082014
 11
159.5102148976
 21
205.9777082014
  0
LINE
  5
257
100
AcDbEntity
  8
0
100
AcDbLine
 62
7
  6
CONTINUOUS
 10
160.0102148976
 20
206.3207839578
 11
159.5102148976
 21
206.3207839578
  0
LINE
  5
258
100
AcDbEntity
  8
0
100
AcDbLine
 62
7
  6
CONTINUOUS
 10
160.0102148976
 20
206.581295783
 11
159.5102148976
 21
206.581295783
  0
LINE
  5
259
100
AcDbEntity
  8
0
100
AcDbLine
 62
7
  6
CONTINUOUS
 10
160.0102148976
 20
206.8895006077
 11
159.5102148976
 21
206.8895006077
  0
LINE
  5
25A
100
AcDbEntity
  8
0
100
AcDbLine
 62
7
  6
CONTINUOUS
 10
160.0102148976
 20
207.067450538
 11
159.5102148976
 21
207.067450538
  0
LINE
  5
25B
100
AcDbEntity
  8
0
100
AcDbLine
 62
7
  6
CONTINUOUS
 10
160.0102148976
 20
207.3375778959
 11
159.5102148976
 21
207.3375778959
  0
LINE
  5
25C
100
AcDbEntity
  8
0
100
AcDbLine
 62
7
  6
CONTINUOUS
 10
160.0102148976
 20
207.4329618586
 11
159.5102148976
 21
207.4329618586
  0
LINE
  5
25D
100
AcDbEntity
  8
0
100
AcDbLine
 62
7
  6
CONTINUOUS
 10
160.0102148976
 20
207.4457839264
 11
159.5102148976
 21
207.4457839264
  0
LINE
  5
25E
100
AcDbEntity
  8
0
100
AcDbLine
 62
7
  6
CONTINUOUS
 10
160.0102148976
 20
207.6465139359
 11
159.5102148976
 21
207.6465139359
  0
LINE
  5
25F
100
AcDbEntity
  8
0
100
AcDbLine
 62
7
  6
CONTINUOUS
 10
160.0102148976
 20
207.8182040084
 11
159.5102148976
 21
207.8182040084
  0
LINE
  5
260
100
AcDbEntity
  8
0
100
AcDbLine
 62
7
  6
CONTINUOUS
 10
160.0102148976
 20
207.90379274
 11
159.5102148976
 21
207.90379274
  0
LINE
  5
261
100
AcDbEntity
  8
0
100
AcDbLine
 62
7
  6
CONTINUOUS
 10
160.0102148976
 20
208.365994392
 11
159.5102148976
 21
208.365994392
  0
LINE
  5
262
100
AcDbEntity
  8
0
100
AcDbLine
 62
7
  6
CONTINUOUS
 10
183.0102148976
 20
256.5281972158
 11
183.0102148976
 21
221.5281972158
  0
LINE
  5
263
100
AcDbEntity
  8
0
100
AcDbLine
 62
7
  6
CONTINUOUS
 10
160.0102148976
 20
210.6051959761
 11
159.5102148976
 21
210.6051959761
  0
LINE
  5
264
100
AcDbEntity
  8
0
100
AcDbLine
 62
7
  6
CONTINUOUS
 10
160.0102148976
 20
210.7655141555
 11
159.5102148976
 21
210.7655141555
  0
LINE
  5
265
100
AcDbEntity
  8
0
100
AcDbLine
 62
7
  6
CONTINUOUS
 10
160.0102148976
 20
211.5136652514
 11
159.5102148976
 21
211.5136652514
  0
LINE
  5
266
100
AcDbEntity
  8
0
100
AcDbLine
 62
7
  6
CONTINUOUS
 10
160.0102148976
 20
211.6739834308
 11
159.5102148976
 21
211.6739834308
  0
LINE
  5
267
100
AcDbEntity
  8
0
100
AcDbLine
 62
7
  6
CONTINUOUS
 10
160.0102148976
 20
211.770708446
 11
159.5102148976
 21
211.770708446
  0
LINE
  5
268
100
AcDbEntity
  8
0
100
AcDbLine
 62
7
  6
CONTINUOUS
 10
160.0102148976
 20
212.0951387476
 11
159.5102148976
 21
212.0951387476
  0
LINE
  5
269
100
AcDbEntity
  8
0
100
AcDbLine
 62
7
  6
CONTINUOUS
 10
160.0102148976
 20
212.389252978
 11
159.5102148976
 21
212.389252978
  0
LINE
  5
26A
100
AcDbEntity
  8
0
100
AcDbLine
 62
7
  6
CONTINUOUS
 10
160.0102148976
 20
212.5579163317
 11
159.5102148976
 21
212.5579163317
  0
LINE
  5
26B
100
AcDbEntity
  8
0
100
AcDbLine
 62
7
  6
CONTINUOUS
 10
160.0102148976
 20
212.6746571806
 11
159.5102148976
 21
212.6746571806
  0
LINE
  5
26C
100
AcDbEntity
  8
0
100
AcDbLine
 62
7
  6
CONTINUOUS
 10
160.0102148976
 20
212.771885068
 11
159.5102148976
 21
212.771885068
  0
LINE
  5
26D
100
AcDbEntity
  8
0
100
AcDbLine
 62
7
  6
CONTINUOUS
 10
160.0102148976
 20
212.7771732256
 11
159.5102148976
 21
212.7771732256
  0
LINE
  5
26E
100
AcDbEntity
  8
0
100
AcDbLine
 62
7
  6
CONTINUOUS
 10
160.0102148976
 20
212.9674085193
 11
159.5102148976
 21
212.9674085193
  0
LINE
  5
26F
100
AcDbEntity
  8
0
100
AcDbLine
 62
7
  6
CONTINUOUS
 10
160.0102148976
 20
213.0296732561
 11
159.5102148976
 21
213.0296732561
  0
LINE
  5
270
100
AcDbEntity
  8
BEZUGSACHSEN
100
AcDbLine
 62
7
  6
CONTINUOUS
 10
191.0102148976
 20
182.0281972158
 11
191.0102148976
 21
180.0281972158
  0
LINE
  5
271
100
AcDbEntity
  8
0
100
AcDbLine
 62
7
  6
CONTINUOUS
 10
191.5102148976
 20
180.0281972158
 11
191.5102148976
 21
178.0281972158
  0
LINE
  5
272
100
AcDbEntity
  8
0
100
AcDbLine
 62
7
  6
CONTINUOUS
 10
191.7457815648
 20
156.5821270026
 11
191.7457815648
 21
137.0281972158
  0
LINE
  5
273
100
AcDbEntity
  8
RUNDUNGEN
100
AcDbLine
 62
7
  6
CONTINUOUS
 10
168.5102148976
 20
219.7810206149
 11
162.5102148976
 21
219.7810206149
  0
LINE
  5
274
100
AcDbEntity
  8
BEZUGSACHSEN
100
AcDbLine
 62
7
  6
CONTINUOUS
 10
192.9523422665
 20
177.0433894628
 11
193.0131827064
 21
176.698346182
  0
LINE
  5
275
100
AcDbEntity
  8
RUNDUNGEN
100
AcDbLine
 62
7
  6
CONTINUOUS
 10
193.0102148976
 20
176.7155879973
 11
193.0102148976
 21
137.0281972158
  0
LINE
  5
276
100
AcDbEntity
  8
0
100
AcDbLine
 62
7
  6
CONTINUOUS
 10
196.0102148976
 20
256.5281972158
 11
196.0102148976
 21
221.5281972158
  0
LINE
  5
277
100
AcDbEntity
  8
0
100
AcDbLine
 62
7
  6
CONTINUOUS
 10
175.5102148976
 20
106.5281972158
 11
173.0102148976
 21
104.0281972158
  0
LINE
  5
278
100
AcDbEntity
  8
0
100
AcDbLine
 62
7
  6
CONTINUOUS
 10
254.9637741719
 20
104.0281972158
 11
269.963598414
 21
104.0281972158
  0
LINE
  5
279
100
AcDbEntity
  8
0
100
AcDbLine
 62
7
  6
CONTINUOUS
 10
272.4636862929
 20
106.5281972158
 11
252.4636862929
 21
106.5281972158
  0
LINE
  5
27A
100
AcDbEntity
  8
0
100
AcDbLine
 62
7
  6
CONTINUOUS
 10
252.4636862929
 20
106.5281972158
 11
254.9636862929
 21
104.0281972158
  0
LINE
  5
27B
100
AcDbEntity
  8
0
100
AcDbLine
 62
7
  6
CONTINUOUS
 10
293.4879301733
 20
137.0281972158
 11
231.4394424126
 21
137.0281972158
  0
LINE
  5
27C
100
AcDbEntity
  8
KONSTRUKTIONSELEMENTE
100
AcDbLine
 62
7
  6
CONTINUOUS
 10
268.6511862929
 20
140.4941546607
 11
268.0886858638
 21
140.3664951014
  0
LINE
  5
27D
100
AcDbEntity
  8
KONSTRUKTIONSELEMENTE
100
AcDbLine
 62
7
  6
CONTINUOUS
 10
268.0886858638
 20
139.7281972158
 11
268.7636858638
 21
139.8558567862
  0
LINE
  5
27E
100
AcDbEntity
  8
RUNDUNGEN
100
AcDbLine
 62
7
  6
CONTINUOUS
 10
270.9636862929
 20
138.7281972158
 11
253.9636862924
 21
138.7281972158
  0
LINE
  5
27F
100
AcDbEntity
  8
KONSTRUKTIONSELEMENTE
100
AcDbLine
 62
7
  6
CONTINUOUS
 10
254.8136862929
 20
139.7281972158
 11
255.4886862929
 21
139.7281972158
  0
LINE
  5
280
100
AcDbEntity
  8
KONSTRUKTIONSELEMENTE
100
AcDbLine
 62
7
  6
CONTINUOUS
 10
257.0636862393
 20
139.7281972158
 11
257.9636861856
 21
139.7281972158
  0
LINE
  5
281
100
AcDbEntity
  8
KONSTRUKTIONSELEMENTE
100
AcDbLine
 62
7
  6
CONTINUOUS
 10
259.5386862929
 20
139.7281972158
 11
260.2136862929
 21
139.7281972158
  0
LINE
  5
282
100
AcDbEntity
  8
KONSTRUKTIONSELEMENTE
100
AcDbLine
 62
7
  6
CONTINUOUS
 10
261.1136860783
 20
139.7281972158
 11
265.1636860783
 21
139.7281972158
  0
LINE
  5
283
100
AcDbEntity
  8
KONSTRUKTIONSELEMENTE
100
AcDbLine
 62
7
  6
CONTINUOUS
 10
265.1636860783
 20
140.3664951014
 11
262.0136865075
 21
140.3664951014
  0
LINE
  5
284
100
AcDbEntity
  8
KONSTRUKTIONSELEMENTE
100
AcDbLine
 62
7
  6
CONTINUOUS
 10
261.2261862929
 20
144.323942064
 11
261.7886860783
 21
144.323942064
  0
LINE
  5
285
100
AcDbEntity
  8
KONSTRUKTIONSELEMENTE
100
AcDbLine
 62
7
  6
CONTINUOUS
 10
267.4136858638
 20
139.8558567862
 11
268.0886858638
 21
139.7281972158
  0
LINE
  5
286
100
AcDbEntity
  8
KONSTRUKTIONSELEMENTE
100
AcDbLine
 62
7
  6
CONTINUOUS
 10
268.0886858638
 20
140.3664951014
 11
267.5261867221
 21
140.4941546607
  0
LINE
  5
287
100
AcDbEntity
  8
KONSTRUKTIONSELEMENTE
100
AcDbLine
 62
7
  6
CONTINUOUS
 10
271.2420200236
 20
148.3764950865
 11
270.8253525622
 21
148.2701121205
  0
LINE
  5
288
100
AcDbEntity
  8
KONSTRUKTIONSELEMENTE
100
AcDbLine
 62
7
  6
CONTINUOUS
 10
266.6586862929
 20
148.3764950865
 11
266.2420200236
 21
148.2701121205
  0
LINE
  5
289
100
AcDbEntity
  8
KONSTRUKTIONSELEMENTE
100
AcDbLine
 62
7
  6
CONTINUOUS
 10
269.7836862929
 20
150.2913886988
 11
270.2003525622
 21
150.3977716648
  0
LINE
  5
28A
100
AcDbEntity
  8
KONSTRUKTIONSELEMENTE
100
AcDbLine
 62
7
  6
CONTINUOUS
 10
265.2003525622
 20
150.2913886988
 11
265.6170200236
 21
150.3977716648
  0
LINE
  5
28B
100
AcDbEntity
  8
KONSTRUKTIONSELEMENTE
100
AcDbLine
 62
7
  6
CONTINUOUS
 10
267.5261867221
 20
144.9622398603
 11
268.0886858638
 21
145.0898994195
  0
LINE
  5
28C
100
AcDbEntity
  8
KONSTRUKTIONSELEMENTE
100
AcDbLine
 62
7
  6
CONTINUOUS
 10
262.3511865075
 20
144.9622398603
 11
262.9136862929
 21
145.0898994195
  0
LINE
  5
28D
100
AcDbEntity
  8
KONSTRUKTIONSELEMENTE
100
AcDbLine
 62
7
  6
CONTINUOUS
 10
270.8253525622
 20
147.7381972158
 11
271.3461862929
 21
147.8445801911
  0
LINE
  5
28E
100
AcDbEntity
  8
KONSTRUKTIONSELEMENTE
100
AcDbLine
 62
7
  6
CONTINUOUS
 10
266.2420200236
 20
147.7381972158
 11
266.7628525622
 21
147.8445801911
  0
LINE
  5
28F
100
AcDbEntity
  8
KONSTRUKTIONSELEMENTE
100
AcDbLine
 62
7
  6
CONTINUOUS
 10
255.8253530093
 20
147.7381972158
 11
256.3461862929
 21
147.8445801911
  0
LINE
  5
290
100
AcDbEntity
  8
KONSTRUKTIONSELEMENTE
100
AcDbLine
 62
7
  6
CONTINUOUS
 10
270.2003525622
 20
150.9296864951
 11
269.6795200236
 21
150.823303529
  0
LINE
  5
291
100
AcDbEntity
  8
KONSTRUKTIONSELEMENTE
100
AcDbLine
 62
7
  6
CONTINUOUS
 10
265.6170200236
 20
150.9296864951
 11
265.0961862929
 21
150.823303529
  0
LINE
  5
292
100
AcDbEntity
  8
KONSTRUKTIONSELEMENTE
100
AcDbLine
 62
7
  6
CONTINUOUS
 10
268.0886858638
 20
145.7281972158
 11
267.4136858638
 21
145.6005376565
  0
LINE
  5
293
100
AcDbEntity
  8
KONSTRUKTIONSELEMENTE
100
AcDbLine
 62
7
  6
CONTINUOUS
 10
263.0261865075
 20
145.7281972158
 11
262.2386862929
 21
145.6005376565
  0
LINE
  5
294
100
AcDbEntity
  8
KONSTRUKTIONSELEMENTE
100
AcDbLine
 62
7
  6
CONTINUOUS
 10
262.9136862929
 20
145.0898994195
 11
263.3636865075
 21
145.0898994195
  0
LINE
  5
295
100
AcDbEntity
  8
KONSTRUKTIONSELEMENTE
100
AcDbLine
 62
7
  6
CONTINUOUS
 10
263.4761860783
 20
145.7281972158
 11
263.0261865075
 21
145.7281972158
  0
LINE
  5
296
100
AcDbEntity
  8
KONSTRUKTIONSELEMENTE
100
AcDbLine
 62
7
  6
CONTINUOUS
 10
260.2136862929
 20
145.7281972158
 11
259.2011862929
 21
145.7281972158
  0
LINE
  5
297
100
AcDbEntity
  8
KONSTRUKTIONSELEMENTE
100
AcDbLine
 62
7
  6
CONTINUOUS
 10
255.8261862929
 20
145.7281972158
 11
254.8136862929
 21
145.7281972158
  0
LINE
  5
298
100
AcDbEntity
  8
KONSTRUKTIONSELEMENTE
100
AcDbLine
 62
7
  6
CONTINUOUS
 10
254.9920195766
 20
147.7381972158
 11
255.8253530093
 21
147.7381972158
  0
LINE
  5
299
100
AcDbEntity
  8
KONSTRUKTIONSELEMENTE
100
AcDbLine
 62
7
  6
CONTINUOUS
 10
259.0545194276
 20
147.7381972158
 11
259.8878531583
 21
147.7381972158
  0
LINE
  5
29A
100
AcDbEntity
  8
KONSTRUKTIONSELEMENTE
100
AcDbLine
 62
7
  6
CONTINUOUS
 10
261.5545194276
 20
147.7381972158
 11
262.3878531583
 21
147.7381972158
  0
LINE
  5
29B
100
AcDbEntity
  8
KONSTRUKTIONSELEMENTE
100
AcDbLine
 62
7
  6
CONTINUOUS
 10
265.6170200236
 20
147.7381972158
 11
266.2420200236
 21
147.7381972158
  0
LINE
  5
29C
100
AcDbEntity
  8
KONSTRUKTIONSELEMENTE
100
AcDbLine
 62
7
  6
CONTINUOUS
 10
270.2003525622
 20
147.7381972158
 11
270.8253525622
 21
147.7381972158
  0
LINE
  5
29D
100
AcDbEntity
  8
KONSTRUKTIONSELEMENTE
100
AcDbLine
 62
7
  6
CONTINUOUS
 10
270.8253525622
 20
148.2701121205
 11
270.2003525622
 21
148.2701121205
  0
LINE
  5
29E
100
AcDbEntity
  8
KONSTRUKTIONSELEMENTE
100
AcDbLine
 62
7
  6
CONTINUOUS
 10
266.2420200236
 20
148.2701121205
 11
265.6170200236
 21
148.2701121205
  0
LINE
  5
29F
100
AcDbEntity
  8
KONSTRUKTIONSELEMENTE
100
AcDbLine
 62
7
  6
CONTINUOUS
 10
255.8253530093
 20
148.3764950865
 11
254.9920195766
 21
148.3764950865
  0
LINE
  5
2A0
100
AcDbEntity
  8
KONSTRUKTIONSELEMENTE
100
AcDbLine
 62
7
  6
CONTINUOUS
 10
269.2628525622
 20
149.0147929573
 11
268.6378525622
 21
149.0147929573
  0
LINE
  5
2A1
100
AcDbEntity
  8
KONSTRUKTIONSELEMENTE
100
AcDbLine
 62
7
  6
CONTINUOUS
 10
264.6795200236
 20
149.0147929573
 11
264.0545200236
 21
149.0147929573
  0
LINE
  5
2A2
100
AcDbEntity
  8
KONSTRUKTIONSELEMENTE
100
AcDbLine
 62
7
  6
CONTINUOUS
 10
254.1586862929
 20
149.1211759233
 11
253.5336862929
 21
149.1211759233
  0
LINE
  5
2A3
100
AcDbEntity
  8
KONSTRUKTIONSELEMENTE
100
AcDbLine
 62
7
  6
CONTINUOUS
 10
255.2003530093
 20
149.9722398007
 11
255.8253530093
 21
149.9722398007
  0
LINE
  5
2A4
100
AcDbEntity
  8
KONSTRUKTIONSELEMENTE
100
AcDbLine
 62
7
  6
CONTINUOUS
 10
264.0545200236
 20
149.9722398007
 11
264.7836862929
 21
149.9722398007
  0
LINE
  5
2A5
100
AcDbEntity
  8
KONSTRUKTIONSELEMENTE
100
AcDbLine
 62
7
  6
CONTINUOUS
 10
268.6378525622
 20
149.9722398007
 11
269.3670200236
 21
149.9722398007
  0
LINE
  5
2A6
100
AcDbEntity
  8
KONSTRUKTIONSELEMENTE
100
AcDbLine
 62
7
  6
CONTINUOUS
 10
265.6170200236
 20
150.3977716648
 11
266.2420200236
 21
150.3977716648
  0
LINE
  5
2A7
100
AcDbEntity
  8
KONSTRUKTIONSELEMENTE
100
AcDbLine
 62
7
  6
CONTINUOUS
 10
270.2003525622
 20
150.3977716648
 11
270.8253525622
 21
150.3977716648
  0
LINE
  5
2A8
100
AcDbEntity
  8
KONSTRUKTIONSELEMENTE
100
AcDbLine
 62
7
  6
CONTINUOUS
 10
255.8253530093
 20
150.6105375969
 11
255.2003530093
 21
150.6105375969
  0
LINE
  5
2A9
100
AcDbEntity
  8
KONSTRUKTIONSELEMENTE
100
AcDbLine
 62
7
  6
CONTINUOUS
 10
270.8253525622
 20
150.9296864951
 11
270.2003525622
 21
150.9296864951
  0
LINE
  5
2AA
100
AcDbEntity
  8
KONSTRUKTIONSELEMENTE
100
AcDbLine
 62
7
  6
CONTINUOUS
 10
266.2420200236
 20
150.9296864951
 11
265.6170200236
 21
150.9296864951
  0
LINE
  5
2AB
100
AcDbEntity
  8
KONSTRUKTIONSELEMENTE
100
AcDbLine
 62
7
  6
CONTINUOUS
 10
264.1511860783
 20
145.6005376565
 11
263.4761860783
 21
145.7281972158
  0
LINE
  5
2AC
100
AcDbEntity
  8
KONSTRUKTIONSELEMENTE
100
AcDbLine
 62
7
  6
CONTINUOUS
 10
268.7636858638
 20
145.6005376565
 11
268.0886858638
 21
145.7281972158
  0
LINE
  5
2AD
100
AcDbEntity
  8
KONSTRUKTIONSELEMENTE
100
AcDbLine
 62
7
  6
CONTINUOUS
 10
254.4711862929
 20
147.8445801911
 11
254.9920195766
 21
147.7381972158
  0
LINE
  5
2AE
100
AcDbEntity
  8
KONSTRUKTIONSELEMENTE
100
AcDbLine
 62
7
  6
CONTINUOUS
 10
265.0961862929
 20
147.8445801911
 11
265.6170200236
 21
147.7381972158
  0
LINE
  5
2AF
100
AcDbEntity
  8
KONSTRUKTIONSELEMENTE
100
AcDbLine
 62
7
  6
CONTINUOUS
 10
256.3461862929
 20
150.5041546309
 11
255.8253530093
 21
150.6105375969
  0
LINE
  5
2B0
100
AcDbEntity
  8
KONSTRUKTIONSELEMENTE
100
AcDbLine
 62
7
  6
CONTINUOUS
 10
269.6795200236
 20
147.8445801911
 11
270.2003525622
 21
147.7381972158
  0
LINE
  5
2B1
100
AcDbEntity
  8
KONSTRUKTIONSELEMENTE
100
AcDbLine
 62
7
  6
CONTINUOUS
 10
263.3636865075
 20
145.0898994195
 11
263.9261862929
 21
144.9622398603
  0
LINE
  5
2B2
100
AcDbEntity
  8
KONSTRUKTIONSELEMENTE
100
AcDbLine
 62
7
  6
CONTINUOUS
 10
268.0886858638
 20
145.0898994195
 11
268.6511862929
 21
144.9622398603
  0
LINE
  5
2B3
100
AcDbEntity
  8
KONSTRUKTIONSELEMENTE
100
AcDbLine
 62
7
  6
CONTINUOUS
 10
254.9920195766
 20
148.3764950865
 11
254.5753529348
 21
148.4828780526
  0
LINE
  5
2B4
100
AcDbEntity
  8
KONSTRUKTIONSELEMENTE
100
AcDbLine
 62
7
  6
CONTINUOUS
 10
254.7836862929
 20
150.0786227667
 11
255.2003530093
 21
149.9722398007
  0
LINE
  5
2B5
100
AcDbEntity
  8
KONSTRUKTIONSELEMENTE
100
AcDbLine
 62
7
  6
CONTINUOUS
 10
255.8253530093
 20
149.9722398007
 11
256.2420197256
 21
149.8658568346
  0
LINE
  5
2B6
100
AcDbEntity
  8
KONSTRUKTIONSELEMENTE
100
AcDbLine
 62
7
  6
CONTINUOUS
 10
265.6170200236
 20
148.2701121205
 11
265.2003525622
 21
148.3764950865
  0
LINE
  5
2B7
100
AcDbEntity
  8
KONSTRUKTIONSELEMENTE
100
AcDbLine
 62
7
  6
CONTINUOUS
 10
255.2003530093
 20
150.6105375969
 11
254.8878530093
 21
150.716920563
  0
LINE
  5
2B8
100
AcDbEntity
  8
KONSTRUKTIONSELEMENTE
100
AcDbLine
 62
7
  6
CONTINUOUS
 10
253.950352972
 20
148.1637291172
 11
254.4711862929
 21
147.8445801911
  0
LINE
  5
2B9
100
AcDbEntity
  8
KONSTRUKTIONSELEMENTE
100
AcDbLine
 62
7
  6
CONTINUOUS
 10
256.2420197256
 20
148.4828780526
 11
255.8253530093
 21
148.3764950865
  0
LINE
  5
2BA
100
AcDbEntity
  8
KONSTRUKTIONSELEMENTE
100
AcDbLine
 62
7
  6
CONTINUOUS
 10
255.2003530093
 20
152.7381972158
 11
254.7836862929
 21
152.6318142497
  0
LINE
  5
2BB
100
AcDbEntity
  8
KONSTRUKTIONSELEMENTE
100
AcDbLine
 62
7
  6
CONTINUOUS
 10
256.4503528602
 20
151.5679845893
 11
257.0753528602
 21
151.5679845893
  0
LINE
  5
2BC
100
AcDbEntity
  8
KONSTRUKTIONSELEMENTE
100
AcDbLine
 62
7
  6
CONTINUOUS
 10
255.2003530093
 20
152.0998994195
 11
255.8253530093
 21
152.0998994195
  0
LINE
  5
2BD
100
AcDbEntity
  8
KONSTRUKTIONSELEMENTE
100
AcDbLine
 62
7
  6
CONTINUOUS
 10
264.5753525622
 20
152.2062823856
 11
267.5961862929
 21
152.2062823856
  0
LINE
  5
2BE
100
AcDbEntity
  8
KONSTRUKTIONSELEMENTE
100
AcDbLine
 62
7
  6
CONTINUOUS
 10
269.1586862929
 20
152.2062823856
 11
272.1795200236
 21
152.2062823856
  0
LINE
  5
2BF
100
AcDbEntity
  8
KONSTRUKTIONSELEMENTE
100
AcDbLine
 62
7
  6
CONTINUOUS
 10
272.1795200236
 20
152.7381972158
 11
268.6378525622
 21
152.7381972158
  0
LINE
  5
2C0
100
AcDbEntity
  8
KONSTRUKTIONSELEMENTE
100
AcDbLine
 62
7
  6
CONTINUOUS
 10
267.5961862929
 20
152.7381972158
 11
264.0545200236
 21
152.7381972158
  0
LINE
  5
2C1
100
AcDbEntity
  8
KONSTRUKTIONSELEMENTE
100
AcDbLine
 62
7
  6
CONTINUOUS
 10
263.2211862929
 20
152.7381972158
 11
262.5961862929
 21
152.7381972158
  0
LINE
  5
2C2
100
AcDbEntity
  8
KONSTRUKTIONSELEMENTE
100
AcDbLine
 62
7
  6
CONTINUOUS
 10
261.1378531583
 20
152.7381972158
 11
260.3045194276
 21
152.7381972158
  0
LINE
  5
2C3
100
AcDbEntity
  8
KONSTRUKTIONSELEMENTE
100
AcDbLine
 62
7
  6
CONTINUOUS
 10
258.8461862929
 20
152.7381972158
 11
258.2211862929
 21
152.7381972158
  0
LINE
  5
2C4
100
AcDbEntity
  8
KONSTRUKTIONSELEMENTE
100
AcDbLine
 62
7
  6
CONTINUOUS
 10
255.7211862929
 20
152.7381972158
 11
255.2003530093
 21
152.7381972158
  0
LINE
  5
2C5
100
AcDbEntity
  8
RUNDUNGEN
100
AcDbLine
 62
7
  6
CONTINUOUS
 10
270.9636862934
 20
154.7281972158
 11
268.9636862929
 21
154.7281972158
  0
LINE
  5
2C6
100
AcDbEntity
  8
RUNDUNGEN
100
AcDbLine
 62
7
  6
CONTINUOUS
 10
255.9636862929
 20
154.7281972158
 11
253.9636862929
 21
154.7281972158
  0
LINE
  5
2C7
100
AcDbEntity
  8
KONSTRUKTIONSELEMENTE
100
AcDbLine
 62
7
  6
CONTINUOUS
 10
256.2420197256
 20
152.6318142497
 11
255.7211862929
 21
152.7381972158
  0
LINE
  5
2C8
100
AcDbEntity
  8
KONSTRUKTIONSELEMENTE
100
AcDbLine
 62
7
  6
CONTINUOUS
 10
266.7628525622
 20
150.823303529
 11
266.2420200236
 21
150.9296864951
  0
LINE
  5
2C9
100
AcDbEntity
  8
KONSTRUKTIONSELEMENTE
100
AcDbLine
 62
7
  6
CONTINUOUS
 10
271.3461862929
 20
150.823303529
 11
270.8253525622
 21
150.9296864951
  0
LINE
  5
2CA
100
AcDbEntity
  8
KONSTRUKTIONSELEMENTE
100
AcDbLine
 62
7
  6
CONTINUOUS
 10
270.2003525622
 20
148.2701121205
 11
269.7836862929
 21
148.3764950865
  0
LINE
  5
2CB
100
AcDbEntity
  8
KONSTRUKTIONSELEMENTE
100
AcDbLine
 62
7
  6
CONTINUOUS
 10
266.2420200236
 20
150.3977716648
 11
266.6586862929
 21
150.2913886988
  0
LINE
  5
2CC
100
AcDbEntity
  8
KONSTRUKTIONSELEMENTE
100
AcDbLine
 62
7
  6
CONTINUOUS
 10
270.8253525622
 20
150.3977716648
 11
271.2420200236
 21
150.2913886988
  0
LINE
  5
2CD
100
AcDbEntity
  8
KONSTRUKTIONSELEMENTE
100
AcDbLine
 62
7
  6
CONTINUOUS
 10
255.8253530093
 20
152.0998994195
 11
256.1378528602
 21
151.9935164535
  0
LINE
  5
2CE
100
AcDbEntity
  8
KONSTRUKTIONSELEMENTE
100
AcDbLine
 62
7
  6
CONTINUOUS
 10
254.3670196511
 20
150.2913886988
 11
254.7836862929
 21
150.0786227667
  0
LINE
  5
2CF
100
AcDbEntity
  8
KONSTRUKTIONSELEMENTE
100
AcDbLine
 62
7
  6
CONTINUOUS
 10
256.7628528602
 20
150.2913886988
 11
256.3461862929
 21
150.5041546309
  0
LINE
  5
2D0
100
AcDbEntity
  8
KONSTRUKTIONSELEMENTE
100
AcDbLine
 62
7
  6
CONTINUOUS
 10
264.6011862929
 20
145.345218538
 11
264.1511860783
 21
145.6005376565
  0
LINE
  5
2D1
100
AcDbEntity
  8
KONSTRUKTIONSELEMENTE
100
AcDbLine
 62
7
  6
CONTINUOUS
 10
264.5753525622
 20
148.1637291172
 11
265.0961862929
 21
147.8445801911
  0
LINE
  5
2D2
100
AcDbEntity
  8
KONSTRUKTIONSELEMENTE
100
AcDbLine
 62
7
  6
CONTINUOUS
 10
266.8511867221
 20
140.2388354975
 11
267.4136858638
 21
139.8558567862
  0
LINE
  5
2D3
100
AcDbEntity
  8
KONSTRUKTIONSELEMENTE
100
AcDbLine
 62
7
  6
CONTINUOUS
 10
254.8878530093
 20
150.716920563
 11
254.5753529348
 21
150.9296864951
  0
LINE
  5
2D4
100
AcDbEntity
  8
KONSTRUKTIONSELEMENTE
100
AcDbLine
 62
7
  6
CONTINUOUS
 10
256.2420197256
 20
149.8658568346
 11
256.5545197256
 21
149.6530909026
  0
LINE
  5
2D5
100
AcDbEntity
  8
KONSTRUKTIONSELEMENTE
100
AcDbLine
 62
7
  6
CONTINUOUS
 10
267.5261867221
 20
140.4941546607
 11
267.1886867221
 21
140.7494737792
  0
LINE
  5
2D6
100
AcDbEntity
  8
KONSTRUKTIONSELEMENTE
100
AcDbLine
 62
7
  6
CONTINUOUS
 10
263.9261862929
 20
144.9622398603
 11
264.2636862929
 21
144.7069207418
  0
LINE
  5
2D7
100
AcDbEntity
  8
KONSTRUKTIONSELEMENTE
100
AcDbLine
 62
7
  6
CONTINUOUS
 10
256.6586862929
 20
152.3126653516
 11
256.2420197256
 21
152.6318142497
  0
LINE
  5
2D8
100
AcDbEntity
  8
KONSTRUKTIONSELEMENTE
100
AcDbLine
 62
7
  6
CONTINUOUS
 10
254.5753529348
 20
148.4828780526
 11
254.2628529348
 21
148.8020270252
  0
LINE
  5
2D9
100
AcDbEntity
  8
RUNDUNGEN
100
AcDbLine
 62
7
  6
CONTINUOUS
 10
268.4636862929
 20
157.7281972158
 11
256.4636862929
 21
157.7281972158
  0
LINE
  5
2DA
100
AcDbEntity
  8
KONSTRUKTIONSELEMENTE
100
AcDbLine
 62
7
  6
CONTINUOUS
 10
269.1586862929
 20
148.1637291172
 11
269.6795200236
 21
147.8445801911
  0
LINE
  5
2DB
100
AcDbEntity
  8
KONSTRUKTIONSELEMENTE
100
AcDbLine
 62
7
  6
CONTINUOUS
 10
267.2836862929
 20
150.5041546309
 11
266.7628525622
 21
150.823303529
  0
LINE
  5
2DC
100
AcDbEntity
  8
KONSTRUKTIONSELEMENTE
100
AcDbLine
 62
7
  6
CONTINUOUS
 10
271.8670200236
 20
150.5041546309
 11
271.3461862929
 21
150.823303529
  0
LINE
  5
2DD
100
AcDbEntity
  8
KONSTRUKTIONSELEMENTE
100
AcDbLine
 62
7
  6
CONTINUOUS
 10
269.3261862929
 20
145.2175589788
 11
268.7636858638
 21
145.6005376565
  0
LINE
  5
2DE
100
AcDbEntity
  8
KONSTRUKTIONSELEMENTE
100
AcDbLine
 62
7
  6
CONTINUOUS
 10
265.2003525622
 20
148.3764950865
 11
264.8878525622
 21
148.5892610186
  0
LINE
  5
2DF
100
AcDbEntity
  8
KONSTRUKTIONSELEMENTE
100
AcDbLine
 62
7
  6
CONTINUOUS
 10
266.6586862929
 20
150.2913886988
 11
266.9711862929
 21
150.0786227667
  0
LINE
  5
2E0
100
AcDbEntity
  8
KONSTRUKTIONSELEMENTE
100
AcDbLine
 62
7
  6
CONTINUOUS
 10
269.7836862929
 20
148.3764950865
 11
269.4711862929
 21
148.5892610186
  0
LINE
  5
2E1
100
AcDbEntity
  8
KONSTRUKTIONSELEMENTE
100
AcDbLine
 62
7
  6
CONTINUOUS
 10
271.2420200236
 20
150.2913886988
 11
271.5545200236
 21
150.0786227667
  0
LINE
  5
2E2
100
AcDbEntity
  8
KONSTRUKTIONSELEMENTE
100
AcDbLine
 62
7
  6
CONTINUOUS
 10
268.6511862929
 20
144.9622398603
 11
268.9886862929
 21
144.7069207418
  0
LINE
  5
2E3
100
AcDbEntity
  8
KONSTRUKTIONSELEMENTE
100
AcDbLine
 62
7
  6
CONTINUOUS
 10
253.950352972
 20
150.716920563
 11
254.3670196511
 21
150.2913886988
  0
LINE
  5
2E4
100
AcDbEntity
  8
KONSTRUKTIONSELEMENTE
100
AcDbLine
 62
7
  6
CONTINUOUS
 10
257.1795197256
 20
149.8658568346
 11
256.7628528602
 21
150.2913886988
  0
LINE
  5
2E5
100
AcDbEntity
  8
KONSTRUKTIONSELEMENTE
100
AcDbLine
 62
7
  6
CONTINUOUS
 10
256.1378528602
 20
151.9935164535
 11
256.3461862929
 21
151.7807505214
  0
LINE
  5
2E6
100
AcDbEntity
  8
KONSTRUKTIONSELEMENTE
100
AcDbLine
 62
7
  6
CONTINUOUS
 10
266.5136867221
 20
140.6218142199
 11
266.8511867221
 21
140.2388354975
  0
LINE
  5
2E7
100
AcDbEntity
  8
KONSTRUKTIONSELEMENTE
100
AcDbLine
 62
7
  6
CONTINUOUS
 10
265.0511865075
 20
144.834580301
 11
264.6011862929
 21
145.345218538
  0
LINE
  5
2E8
100
AcDbEntity
  8
0
100
AcDbLine
 62
7
  6
CONTINUOUS
 10
231.4394424126
 20
156.5821270026
 11
231.4394424126
 21
137.0281972158
  0
LINE
  5
2E9
100
AcDbEntity
  8
BEZUGSACHSEN
100
AcDbLine
 62
7
  6
CONTINUOUS
 10
231.4394424126
 20
156.5821270026
 11
231.4394424126
 21
156.7281978072
  0
LINE
  5
2EA
100
AcDbEntity
  8
0
100
AcDbLine
 62
7
  6
CONTINUOUS
 10
236.4636862929
 20
180.0281972158
 11
236.4636862929
 21
178.0281972158
  0
LINE
  5
2EB
100
AcDbEntity
  8
BEZUGSACHSEN
100
AcDbLine
 62
7
  6
CONTINUOUS
 10
236.9636862929
 20
182.2019489203
 11
236.9636862929
 21
180.0281972158
  0
LINE
  5
2EC
100
AcDbEntity
  8
KONSTRUKTIONSELEMENTE
100
AcDbLine
 62
7
  6
CONTINUOUS
 10
269.6636862929
 20
144.834580301
 11
269.3261862929
 21
145.2175589788
  0
LINE
  5
2ED
100
AcDbEntity
  8
KONSTRUKTIONSELEMENTE
100
AcDbLine
 62
7
  6
CONTINUOUS
 10
256.9711862929
 20
151.8871334874
 11
256.6586862929
 21
152.3126653516
  0
LINE
  5
2EE
100
AcDbEntity
  8
KONSTRUKTIONSELEMENTE
100
AcDbLine
 62
7
  6
CONTINUOUS
 10
264.2628525622
 20
148.5892610186
 11
264.5753525622
 21
148.1637291172
  0
LINE
  5
2EF
100
AcDbEntity
  8
KONSTRUKTIONSELEMENTE
100
AcDbLine
 62
7
  6
CONTINUOUS
 10
256.5545197256
 20
149.6530909026
 11
256.7628528602
 21
149.3339418554
  0
LINE
  5
2F0
100
AcDbEntity
  8
KONSTRUKTIONSELEMENTE
100
AcDbLine
 62
7
  6
CONTINUOUS
 10
253.6378529627
 20
148.6956440592
 11
253.950352972
 21
148.1637291172
  0
LINE
  5
2F1
100
AcDbEntity
  8
BEZUGSACHSEN
100
AcDbLine
 62
7
  6
CONTINUOUS
 10
235.021558924
 20
177.0433894628
 11
231.4394424126
 21
156.7281972158
  0
LINE
  5
2F2
100
AcDbEntity
  8
FASEN
100
AcDbLine
 62
7
  6
CONTINUOUS
 10
231.4394426212
 20
156.7281983987
 11
235.021558924
 21
177.0433894628
  0
LINE
  5
2F3
100
AcDbEntity
  8
BEZUGSACHSEN
100
AcDbLine
 62
7
  6
CONTINUOUS
 10
245.0175855411
 20
211.8507096672
 11
238.9392242963
 21
197.1762475129
  0
LINE
  5
2F4
100
AcDbEntity
  8
RUNDUNGEN
100
AcDbLine
 62
7
  6
CONTINUOUS
 10
255.9636862929
 20
217.3358090604
 11
246.6411738415
 21
213.4742979676
  0
LINE
  5
2F5
100
AcDbEntity
  8
KONSTRUKTIONSELEMENTE
100
AcDbLine
 62
7
  6
CONTINUOUS
 10
267.5961862929
 20
150.0786227667
 11
267.2836862929
 21
150.5041546309
  0
LINE
  5
2F6
100
AcDbEntity
  8
KONSTRUKTIONSELEMENTE
100
AcDbLine
 62
7
  6
CONTINUOUS
 10
268.8461862929
 20
148.5892610186
 11
269.1586862929
 21
148.1637291172
  0
LINE
  5
2F7
100
AcDbEntity
  8
KONSTRUKTIONSELEMENTE
100
AcDbLine
 62
7
  6
CONTINUOUS
 10
272.1795200236
 20
150.0786227667
 11
271.8670200236
 21
150.5041546309
  0
LINE
  5
2F8
100
AcDbEntity
  8
KONSTRUKTIONSELEMENTE
100
AcDbLine
 62
7
  6
CONTINUOUS
 10
266.9711862929
 20
150.0786227667
 11
267.1795200236
 21
149.7594738686
  0
LINE
  5
2F9
100
AcDbEntity
  8
KONSTRUKTIONSELEMENTE
100
AcDbLine
 62
7
  6
CONTINUOUS
 10
264.2636862929
 20
144.7069207418
 11
264.4886860783
 21
144.323942064
  0
LINE
  5
2FA
100
AcDbEntity
  8
KONSTRUKTIONSELEMENTE
100
AcDbLine
 62
7
  6
CONTINUOUS
 10
267.1886867221
 20
140.7494737792
 11
266.7386858638
 21
141.5154312241
  0
LINE
  5
2FB
100
AcDbEntity
  8
KONSTRUKTIONSELEMENTE
100
AcDbLine
 62
7
  6
CONTINUOUS
 10
268.9886862929
 20
144.7069207418
 11
269.4386858638
 21
143.9409630287
  0
LINE
  5
2FC
100
AcDbEntity
  8
KONSTRUKTIONSELEMENTE
100
AcDbLine
 62
7
  6
CONTINUOUS
 10
257.3878528602
 20
149.4403248215
 11
257.1795197256
 21
149.8658568346
  0
LINE
  5
2FD
100
AcDbEntity
  8
KONSTRUKTIONSELEMENTE
100
AcDbLine
 62
7
  6
CONTINUOUS
 10
256.3461862929
 20
151.7807505214
 11
256.4503528602
 21
151.5679845893
  0
LINE
  5
2FE
100
AcDbEntity
  8
KONSTRUKTIONSELEMENTE
100
AcDbLine
 62
7
  6
CONTINUOUS
 10
264.0545200236
 20
149.0147929573
 11
264.2628525622
 21
148.5892610186
  0
LINE
  5
2FF
100
AcDbEntity
  8
BEZUGSACHSEN
100
AcDbLine
 62
7
  6
CONTINUOUS
 10
238.9392242963
 20
194.8801469187
 11
241.3018567886
 21
189.1762475129
  0
LINE
  5
300
100
AcDbEntity
  8
KONSTRUKTIONSELEMENTE
100
AcDbLine
 62
7
  6
CONTINUOUS
 10
255.4886862929
 20
144.4516016233
 11
257.0636862393
 21
139.7281972158
  0
LINE
  5
301
100
AcDbEntity
  8
KONSTRUKTIONSELEMENTE
100
AcDbLine
 62
7
  6
CONTINUOUS
 10
254.2628529348
 20
148.8020270252
 11
254.1586862929
 21
149.1211759233
  0
LINE
  5
302
100
AcDbEntity
  8
KONSTRUKTIONSELEMENTE
100
AcDbLine
 62
7
  6
CONTINUOUS
 10
254.5753529348
 20
150.9296864951
 11
254.4711862929
 21
151.2488353932
  0
LINE
  5
303
100
AcDbEntity
  8
KONSTRUKTIONSELEMENTE
100
AcDbLine
 62
7
  6
CONTINUOUS
 10
257.0753528602
 20
151.5679845893
 11
256.9711862929
 21
151.8871334874
  0
LINE
  5
304
100
AcDbEntity
  8
KONSTRUKTIONSELEMENTE
100
AcDbLine
 62
7
  6
CONTINUOUS
 10
257.5136862929
 20
140.3664951014
 11
255.8261862929
 21
145.7281972158
  0
LINE
  5
305
100
AcDbEntity
  8
KONSTRUKTIONSELEMENTE
100
AcDbLine
 62
7
  6
CONTINUOUS
 10
253.5336862929
 20
149.1211759233
 11
253.6378529627
 21
148.6956440592
  0
LINE
  5
306
100
AcDbEntity
  8
KONSTRUKTIONSELEMENTE
100
AcDbLine
 62
7
  6
CONTINUOUS
 10
253.8461862929
 20
151.1424524271
 11
253.950352972
 21
150.716920563
  0
LINE
  5
307
100
AcDbEntity
  8
0
100
AcDbLine
 62
7
  6
CONTINUOUS
 10
245.8565329651
 20
156.5821270026
 11
245.8565329651
 21
137.0281972158
  0
LINE
  5
308
100
AcDbEntity
  8
0
100
AcDbLine
 62
7
  6
CONTINUOUS
 10
248.0465957404
 20
156.5821270026
 11
248.0465957404
 21
137.0281972158
  0
LINE
  5
309
100
AcDbEntity
  8
0
100
AcDbLine
 62
7
  6
CONTINUOUS
 10
247.8690703059
 20
202.070508037
 11
247.8672987374
 21
201.8842530612
  0
LINE
  5
30A
100
AcDbEntity
  8
0
100
AcDbLine
 62
7
  6
CONTINUOUS
 10
250.6625281369
 20
203.689181628
 11
250.6747870942
 21
203.9548542867
  0
LINE
  5
30B
100
AcDbEntity
  8
0
100
AcDbLine
 62
7
  6
CONTINUOUS
 10
252.41637697
 20
205.8830671931
 11
252.4790164147
 21
206.1415403791
  0
LINE
  5
30C
100
AcDbEntity
  8
0
100
AcDbLine
 62
7
  6
CONTINUOUS
 10
250.3050578179
 20
203.8384794651
 11
250.2382748966
 21
203.605993856
  0
LINE
  5
30D
100
AcDbEntity
  8
0
100
AcDbLine
 62
7
  6
CONTINUOUS
 10
250.5654186327
 20
203.4068715877
 11
250.6625281369
 21
203.689181628
  0
LINE
  5
30E
100
AcDbEntity
  8
0
100
AcDbLine
 62
7
  6
CONTINUOUS
 10
246.6517071596
 20
202.2785068809
 11
246.1595014679
 21
200.968010168
  0
LINE
  5
30F
100
AcDbEntity
  8
0
100
AcDbLine
 62
7
  6
CONTINUOUS
 10
246.5813236057
 20
201.1834199126
 11
246.9709864254
 21
202.2208964249
  0
LINE
  5
310
100
AcDbEntity
  8
0
100
AcDbLine
 62
7
  6
CONTINUOUS
 10
247.8672987374
 20
201.8842530612
 11
247.4776359177
 21
200.8467765489
  0
LINE
  5
311
100
AcDbEntity
  8
0
100
AcDbLine
 62
7
  6
CONTINUOUS
 10
247.8361607755
 20
200.7121192286
 11
248.1848064641
 21
201.6403877075
  0
LINE
  5
312
100
AcDbEntity
  8
0
100
AcDbLine
 62
7
  6
CONTINUOUS
 10
248.9679465225
 20
199.9131943664
 11
249.0909979454
 21
200.2408185446
  0
LINE
  5
313
100
AcDbEntity
  8
0
100
AcDbLine
 62
7
  6
CONTINUOUS
 10
249.603712188
 20
201.6059192351
 11
249.7472722206
 21
201.9881475472
  0
LINE
  5
314
100
AcDbEntity
  8
0
100
AcDbLine
 62
7
  6
CONTINUOUS
 10
252.0938892112
 20
206.0977217911
 11
251.9840455189
 21
205.8822137296
  0
LINE
  5
315
100
AcDbEntity
  8
0
100
AcDbLine
 62
7
  6
CONTINUOUS
 10
252.267270963
 20
205.6244230205
 11
252.41637697
 21
205.8830671931
  0
LINE
  5
316
100
AcDbEntity
  8
0
100
AcDbLine
 62
7
  6
CONTINUOUS
 10
248.4880200033
 20
205.7638566814
 11
248.3060597836
 21
205.4649089714
  0
LINE
  5
317
100
AcDbEntity
  8
0
100
AcDbLine
 62
7
  6
CONTINUOUS
 10
247.5782189049
 20
204.2691181316
 11
247.3962585984
 21
203.9701702791
  0
LINE
  5
318
100
AcDbEntity
  8
0
100
AcDbLine
 62
7
  6
CONTINUOUS
 10
250.2382748966
 20
203.605993856
 11
250.1169680256
 21
203.4066952876
  0
LINE
  5
319
100
AcDbEntity
  8
0
100
AcDbLine
 62
7
  6
CONTINUOUS
 10
250.4441117618
 20
203.2075730193
 11
250.5654186327
 21
203.4068715877
  0
LINE
  5
31A
100
AcDbEntity
  8
0
100
AcDbLine
 62
7
  6
CONTINUOUS
 10
246.8140041746
 20
202.5290841947
 11
246.6517071596
 21
202.2785068809
  0
LINE
  5
31B
100
AcDbEntity
  8
0
100
AcDbLine
 62
7
  6
CONTINUOUS
 10
246.9709864254
 20
202.2208964249
 11
247.0922662798
 21
202.3622656273
  0
LINE
  5
31C
100
AcDbEntity
  8
0
100
AcDbLine
 62
7
  6
CONTINUOUS
 10
250.0486716454
 20
207.6437835797
 11
249.106383182
 21
206.6085249023
  0
LINE
  5
31D
100
AcDbEntity
  8
0
100
AcDbLine
 62
7
  6
CONTINUOUS
 10
249.6251807089
 20
206.6095488927
 11
250.3318970564
 21
207.3859929008
  0
LINE
  5
31E
100
AcDbEntity
  8
0
100
AcDbLine
 62
7
  6
CONTINUOUS
 10
251.9840455189
 20
205.8822137296
 11
251.2773291714
 21
205.1057697215
  0
LINE
  5
31F
100
AcDbEntity
  8
0
100
AcDbLine
 62
7
  6
CONTINUOUS
 10
251.3249824996
 20
204.5891643431
 11
252.267270963
 21
205.6244230205
  0
LINE
  5
320
100
AcDbEntity
  8
0
100
AcDbLine
 62
7
  6
CONTINUOUS
 10
250.2379543488
 20
202.9916370665
 11
250.4441117618
 21
203.2075730193
  0
LINE
  5
321
100
AcDbEntity
  8
0
100
AcDbLine
 62
7
  6
CONTINUOUS
 10
250.1169680256
 20
203.4066952876
 11
249.9411373785
 21
203.2405840452
  0
LINE
  5
322
100
AcDbEntity
  8
0
100
AcDbLine
 62
7
  6
CONTINUOUS
 10
250.2921861269
 20
207.8164975222
 11
250.0486716454
 21
207.6437835797
  0
LINE
  5
323
100
AcDbEntity
  8
0
100
AcDbLine
 62
7
  6
CONTINUOUS
 10
250.3318970564
 20
207.3859929008
 11
250.536149219
 21
207.515570736
  0
LINE
  5
324
100
AcDbEntity
  8
0
100
AcDbLine
 62
7
  6
CONTINUOUS
 10
247.0753008659
 20
202.6801716013
 11
246.8140041746
 21
202.5290841947
  0
LINE
  5
325
100
AcDbEntity
  8
0
100
AcDbLine
 62
7
  6
CONTINUOUS
 10
250.0075995641
 20
202.8587125885
 11
250.2379543488
 21
202.9916370665
  0
LINE
  5
326
100
AcDbEntity
  8
0
100
AcDbLine
 62
7
  6
CONTINUOUS
 10
254.5982213808
 20
211.121284825
 11
254.280462878
 21
210.9746260759
  0
LINE
  5
327
100
AcDbEntity
  8
0
100
AcDbLine
 62
7
  6
CONTINUOUS
 10
247.0922662798
 20
202.3622656273
 11
247.2527917263
 21
202.4265879653
  0
LINE
  5
328
100
AcDbEntity
  8
0
100
AcDbLine
 62
7
  6
CONTINUOUS
 10
250.5436425247
 20
207.9031102443
 11
250.2921861269
 21
207.8164975222
  0
LINE
  5
329
100
AcDbEntity
  8
FASEN
100
AcDbLine
 62
7
  6
CONTINUOUS
 10
289.9058136618
 20
177.0433894628
 11
235.021558924
 21
177.0433894628
  0
LINE
  5
32A
100
AcDbEntity
  8
FASEN
100
AcDbLine
 62
7
  6
CONTINUOUS
 10
288.7321654841
 20
178.0281972158
 11
236.1952071017
 21
178.0281972158
  0
LINE
  5
32B
100
AcDbEntity
  8
0
100
AcDbLine
 62
7
  6
CONTINUOUS
 10
288.4636862929
 20
180.0281972158
 11
236.4636862929
 21
180.0281972158
  0
LINE
  5
32C
100
AcDbEntity
  8
KONSTRUKTIONSELEMENTE
100
AcDbLine
 62
7
  6
CONTINUOUS
 10
271.5545200236
 20
150.0786227667
 11
271.7628525622
 21
149.7594738686
  0
LINE
  5
32D
100
AcDbEntity
  8
KONSTRUKTIONSELEMENTE
100
AcDbLine
 62
7
  6
CONTINUOUS
 10
264.8878525622
 20
148.5892610186
 11
264.6795200236
 21
149.0147929573
  0
LINE
  5
32E
100
AcDbEntity
  8
KONSTRUKTIONSELEMENTE
100
AcDbLine
 62
7
  6
CONTINUOUS
 10
268.6378525622
 20
149.0147929573
 11
268.8461862929
 21
148.5892610186
  0
LINE
  5
32F
100
AcDbEntity
  8
KONSTRUKTIONSELEMENTE
100
AcDbLine
 62
7
  6
CONTINUOUS
 10
269.4711862929
 20
148.5892610186
 11
269.2628525622
 21
149.0147929573
  0
LINE
  5
330
100
AcDbEntity
  8
KONSTRUKTIONSELEMENTE
100
AcDbLine
 62
7
  6
CONTINUOUS
 10
266.2886862929
 20
141.1324525463
 11
266.5136867221
 21
140.6218142199
  0
LINE
  5
331
100
AcDbEntity
  8
KONSTRUKTIONSELEMENTE
100
AcDbLine
 62
7
  6
CONTINUOUS
 10
269.8886867221
 20
144.323942064
 11
269.6636862929
 21
144.834580301
  0
LINE
  5
332
100
AcDbEntity
  8
0
100
AcDbLine
 62
7
  6
CONTINUOUS
 10
248.1883496304
 20
202.0128977373
 11
248.1508756068
 21
202.2761995775
  0
LINE
  5
333
100
AcDbEntity
  8
0
100
AcDbLine
 62
7
  6
CONTINUOUS
 10
252.4790164147
 20
206.1415403791
 11
252.4472473849
 21
206.4859437951
  0
LINE
  5
334
100
AcDbEntity
  8
0
100
AcDbLine
 62
7
  6
CONTINUOUS
 10
250.2869899902
 20
204.054327425
 11
250.3050578179
 21
203.8384794651
  0
LINE
  5
335
100
AcDbEntity
  8
RUNDUNGEN
100
AcDbLine
 62
7
  6
CONTINUOUS
 10
251.9636862929
 20
152.7281972163
 11
251.9636862929
 21
140.7281972158
  0
LINE
  5
336
100
AcDbEntity
  8
0
100
AcDbLine
 62
7
  6
CONTINUOUS
 10
252.4636862929
 20
137.0281972158
 11
252.4636862929
 21
106.5281972158
  0
LINE
  5
337
100
AcDbEntity
  8
RUNDUNGEN
100
AcDbLine
 62
7
  6
CONTINUOUS
 10
253.4636862929
 20
160.7281972158
 11
253.4636862929
 21
166.7281972158
  0
LINE
  5
338
100
AcDbEntity
  8
KONSTRUKTIONSELEMENTE
100
AcDbLine
 62
7
  6
CONTINUOUS
 10
253.8461862929
 20
151.5679845893
 11
253.8461862929
 21
151.1424524271
  0
LINE
  5
339
100
AcDbEntity
  8
KONSTRUKTIONSELEMENTE
100
AcDbLine
 62
7
  6
CONTINUOUS
 10
254.4711862929
 20
151.2488353932
 11
254.4711862929
 21
151.4616013253
  0
LINE
  5
33A
100
AcDbEntity
  8
KONSTRUKTIONSELEMENTE
100
AcDbLine
 62
7
  6
CONTINUOUS
 10
254.8136862929
 20
145.7281972158
 11
254.8136862929
 21
139.7281972158
  0
LINE
  5
33B
100
AcDbEntity
  8
KONSTRUKTIONSELEMENTE
100
AcDbLine
 62
7
  6
CONTINUOUS
 10
255.4886862929
 20
139.7281972158
 11
255.4886862929
 21
144.4516016233
  0
LINE
  5
33C
100
AcDbEntity
  8
0
100
AcDbLine
 62
7
  6
CONTINUOUS
 10
255.9636862929
 20
197.5953060834
 11
255.9636862929
 21
280.4610883481
  0
LINE
  5
33D
100
AcDbEntity
  8
RUNDUNGEN
100
AcDbLine
 62
7
  6
CONTINUOUS
 10
256.4636862929
 20
155.2281972146
 11
256.4636862929
 21
156.2281972173
  0
LINE
  5
33E
100
AcDbEntity
  8
KONSTRUKTIONSELEMENTE
100
AcDbLine
 62
7
  6
CONTINUOUS
 10
256.7628528602
 20
149.3339418554
 11
256.7628528602
 21
149.0147929573
  0
LINE
  5
33F
100
AcDbEntity
  8
0
100
AcDbLine
 62
7
  6
CONTINUOUS
 10
252.1172667657
 20
206.3130593822
 11
252.0938892112
 21
206.0977217911
  0
LINE
  5
340
100
AcDbEntity
  8
0
100
AcDbLine
 62
7
  6
CONTINUOUS
 10
249.9411373785
 20
203.2405840452
 11
249.7411093311
 21
203.1574842952
  0
LINE
  5
341
100
AcDbEntity
  8
BEZUGSACHSEN
100
AcDbLine
 62
7
  6
CONTINUOUS
 10
280.870167098
 20
185.0281972158
 11
244.0577743541
 21
185.0281972158
  0
LINE
  5
342
100
AcDbEntity
  8
0
100
AcDbLine
 62
7
  6
CONTINUOUS
 10
248.1508756068
 20
202.2761995775
 11
247.9733847464
 21
202.5297832135
  0
LINE
  5
343
100
AcDbEntity
  8
0
100
AcDbLine
 62
7
  6
CONTINUOUS
 10
250.1840714899
 20
204.2535376892
 11
250.2869899902
 21
204.054327425
  0
LINE
  5
344
100
AcDbEntity
  8
0
100
AcDbLine
 62
7
  6
CONTINUOUS
 10
247.7905791805
 20
202.224601922
 11
247.8690703059
 21
202.070508037
  0
LINE
  5
345
100
AcDbEntity
  8
KONSTRUKTIONSELEMENTE
100
AcDbLine
 62
7
  6
CONTINUOUS
 10
267.8045200236
 20
149.5467077875
 11
267.5961862929
 21
150.0786227667
  0
LINE
  5
346
100
AcDbEntity
  8
KONSTRUKTIONSELEMENTE
100
AcDbLine
 62
7
  6
CONTINUOUS
 10
272.3878525622
 20
149.5467077875
 11
272.1795200236
 21
150.0786227667
  0
LINE
  5
347
100
AcDbEntity
  8
KONSTRUKTIONSELEMENTE
100
AcDbLine
 62
7
  6
CONTINUOUS
 10
267.1795200236
 20
149.7594738686
 11
267.2836862929
 21
149.4403248215
  0
LINE
  5
348
100
AcDbEntity
  8
KONSTRUKTIONSELEMENTE
100
AcDbLine
 62
7
  6
CONTINUOUS
 10
266.1761867221
 20
141.5154312241
 11
266.2886862929
 21
141.1324525463
  0
LINE
  5
349
100
AcDbEntity
  8
KONSTRUKTIONSELEMENTE
100
AcDbLine
 62
7
  6
CONTINUOUS
 10
270.0011862929
 20
143.9409630287
 11
269.8886867221
 21
144.323942064
  0
LINE
  5
34A
100
AcDbEntity
  8
0
100
AcDbLine
 62
7
  6
CONTINUOUS
 10
252.0541782485
 20
206.5282264426
 11
252.1172667657
 21
206.3130593822
  0
LINE
  5
34B
100
AcDbEntity
  8
0
100
AcDbLine
 62
7
  6
CONTINUOUS
 10
250.6747870942
 20
203.9548542867
 11
250.5779981474
 21
204.2869010301
  0
LINE
  5
34C
100
AcDbEntity
  8
KONSTRUKTIONSELEMENTE
100
AcDbLine
 62
7
  6
CONTINUOUS
 10
265.1636860783
 20
144.323942064
 11
265.0511865075
 21
144.834580301
  0
LINE
  5
34D
100
AcDbEntity
  8
KONSTRUKTIONSELEMENTE
100
AcDbLine
 62
7
  6
CONTINUOUS
 10
261.9711862929
 20
148.9084099913
 11
261.1378531583
 21
152.7381972158
  0
LINE
  5
34E
100
AcDbEntity
  8
KONSTRUKTIONSELEMENTE
100
AcDbLine
 62
7
  6
CONTINUOUS
 10
260.7211862929
 20
151.7807505214
 11
261.5545194276
 21
147.7381972158
  0
LINE
  5
34F
100
AcDbEntity
  8
KONSTRUKTIONSELEMENTE
100
AcDbLine
 62
7
  6
CONTINUOUS
 10
266.0636858638
 20
142.1537291992
 11
266.1761867221
 21
141.5154312241
  0
LINE
  5
350
100
AcDbEntity
  8
KONSTRUKTIONSELEMENTE
100
AcDbLine
 62
7
  6
CONTINUOUS
 10
258.2211862929
 20
152.7381972158
 11
259.0545194276
 21
147.7381972158
  0
LINE
  5
351
100
AcDbEntity
  8
KONSTRUKTIONSELEMENTE
100
AcDbLine
 62
7
  6
CONTINUOUS
 10
259.4711862929
 20
148.9084099913
 11
258.8461862929
 21
152.7381972158
  0
LINE
  5
352
100
AcDbEntity
  8
KONSTRUKTIONSELEMENTE
100
AcDbLine
 62
7
  6
CONTINUOUS
 10
257.3878528602
 20
148.9084099913
 11
257.3878528602
 21
149.4403248215
  0
LINE
  5
353
100
AcDbEntity
  8
KONSTRUKTIONSELEMENTE
100
AcDbLine
 62
7
  6
CONTINUOUS
 10
259.5386862929
 20
144.4516016233
 11
259.5386862929
 21
139.7281972158
  0
LINE
  5
354
100
AcDbEntity
  8
KONSTRUKTIONSELEMENTE
100
AcDbLine
 62
7
  6
CONTINUOUS
 10
260.2136862929
 20
139.7281972158
 11
260.2136862929
 21
145.7281972158
  0
LINE
  5
355
100
AcDbEntity
  8
KONSTRUKTIONSELEMENTE
100
AcDbLine
 62
7
  6
CONTINUOUS
 10
261.1136860783
 20
140.3664951014
 11
261.1136860783
 21
139.7281972158
  0
LINE
  5
356
100
AcDbEntity
  8
0
100
AcDbLine
 62
7
  6
CONTINUOUS
 10
269.0843506305
 20
208.365994392
 11
271.288196858
 21
210.6051959761
  0
LINE
  5
357
100
AcDbEntity
  8
0
100
AcDbLine
 62
7
  6
CONTINUOUS
 10
270.9771062985
 20
210.7655141555
 11
269.0523943448
 21
208.8133058636
  0
LINE
  5
358
100
AcDbEntity
  8
0
100
AcDbLine
 62
7
  6
CONTINUOUS
 10
272.7058892396
 20
206.089887856
 11
272.4624739183
 21
205.883477999
  0
LINE
  5
359
100
AcDbEntity
  8
0
100
AcDbLine
 62
7
  6
CONTINUOUS
 10
275.3467824451
 20
206.0350146972
 11
275.2494161938
 21
205.9524506503
  0
LINE
  5
35A
100
AcDbEntity
  8
0
100
AcDbLine
 62
7
  6
CONTINUOUS
 10
273.8205357419
 20
204.2819408444
 11
274.0639510632
 21
204.4883507014
  0
LINE
  5
35B
100
AcDbEntity
  8
0
100
AcDbLine
 62
7
  6
CONTINUOUS
 10
275.4757598311
 20
205.6855277912
 11
275.5731260824
 21
205.7680918381
  0
LINE
  5
35C
100
AcDbEntity
  8
FASEN
100
AcDbLine
 62
7
  6
CONTINUOUS
 10
236.1952071018
 20
178.0281972159
 11
235.0215589241
 21
177.0433894629
  0
LINE
  5
35D
100
AcDbEntity
  8
0
100
AcDbLine
 62
7
  6
CONTINUOUS
 10
275.8192772059
 20
204.9434436628
 11
275.6009464463
 21
204.811082295
  0
LINE
  5
35E
100
AcDbEntity
  8
0
100
AcDbLine
 62
7
  6
CONTINUOUS
 10
276.4978460491
 20
204.8091393631
 11
276.0611843769
 21
204.544416535
  0
LINE
  5
35F
100
AcDbEntity
  8
0
100
AcDbLine
 62
7
  6
CONTINUOUS
 10
275.8428536172
 20
204.4120551672
 11
274.7511997044
 21
203.7502482591
  0
LINE
  5
360
100
AcDbEntity
  8
0
100
AcDbLine
 62
7
  6
CONTINUOUS
 10
275.0115572773
 20
203.5670367258
 11
275.9940457721
 21
204.1626629269
  0
LINE
  5
361
100
AcDbEntity
  8
0
100
AcDbLine
 62
7
  6
CONTINUOUS
 10
276.2123765318
 20
204.2950242947
 11
276.649038204
 21
204.5597471228
  0
LINE
  5
362
100
AcDbEntity
  8
0
100
AcDbLine
 62
7
  6
CONTINUOUS
 10
274.73787535
 20
202.7872285975
 11
274.9562061288
 21
202.9195899769
  0
LINE
  5
363
100
AcDbEntity
  8
0
100
AcDbLine
 62
7
  6
CONTINUOUS
 10
276.326666575
 20
203.6140031948
 11
276.5449973346
 21
203.7463645626
  0
LINE
  5
364
100
AcDbEntity
  8
0
100
AcDbLine
 62
7
  6
CONTINUOUS
 10
274.4852432164
 20
207.4457839264
 11
274.2527876227
 21
207.3251425283
  0
LINE
  5
365
100
AcDbEntity
  8
0
100
AcDbLine
 62
7
  6
CONTINUOUS
 10
275.2433025106
 20
205.5648884295
 11
275.4757598311
 21
205.6855277912
  0
LINE
  5
366
100
AcDbEntity
  8
0
100
AcDbLine
 62
7
  6
CONTINUOUS
 10
246.1595014679
 20
200.968010168
 11
248.9679465225
 21
199.9131943664
  0
LINE
  5
367
100
AcDbEntity
  8
0
100
AcDbLine
 62
7
  6
CONTINUOUS
 10
249.0909979454
 20
200.2408185446
 11
247.8361607755
 21
200.7121192286
  0
LINE
  5
368
100
AcDbEntity
  8
0
100
AcDbLine
 62
7
  6
CONTINUOUS
 10
247.4776359177
 20
200.8467765489
 11
246.5813236057
 21
201.1834199126
  0
LINE
  5
369
100
AcDbEntity
  8
0
100
AcDbLine
 62
7
  6
CONTINUOUS
 10
247.3962585984
 20
203.9701702791
 11
249.0865012671
 21
202.9413718736
  0
LINE
  5
36A
100
AcDbEntity
  8
0
100
AcDbLine
 62
7
  6
CONTINUOUS
 10
249.2684615736
 20
203.2403197261
 11
247.5782189049
 21
204.2691181316
  0
LINE
  5
36B
100
AcDbEntity
  8
0
100
AcDbLine
 62
7
  6
CONTINUOUS
 10
247.6318253025
 20
202.3465345598
 11
247.7905791805
 21
202.224601922
  0
LINE
  5
36C
100
AcDbEntity
  8
0
100
AcDbLine
 62
7
  6
CONTINUOUS
 10
247.9733847464
 20
202.5297832135
 11
247.8146308684
 21
202.6517158513
  0
LINE
  5
36D
100
AcDbEntity
  8
0
100
AcDbLine
 62
7
  6
CONTINUOUS
 10
250.4205556593
 20
204.5192983583
 11
250.1782626721
 21
204.7350582759
  0
LINE
  5
36E
100
AcDbEntity
  8
0
100
AcDbLine
 62
7
  6
CONTINUOUS
 10
249.106383182
 20
206.6085249023
 11
251.3249824996
 21
204.5891643431
  0
LINE
  5
36F
100
AcDbEntity
  8
0
100
AcDbLine
 62
7
  6
CONTINUOUS
 10
251.2773291714
 20
205.1057697215
 11
249.6251807089
 21
206.6095488927
  0
LINE
  5
370
100
AcDbEntity
  8
0
100
AcDbLine
 62
7
  6
CONTINUOUS
 10
249.9963024524
 20
204.4361105659
 11
250.1840714899
 21
204.2535376892
  0
LINE
  5
371
100
AcDbEntity
  8
0
100
AcDbLine
 62
7
  6
CONTINUOUS
 10
252.3369545996
 20
206.7440759988
 11
252.1401952932
 21
207.0020371783
  0
LINE
  5
372
100
AcDbEntity
  8
0
100
AcDbLine
 62
7
  6
CONTINUOUS
 10
251.9046231774
 20
206.743222509
 11
252.0541782485
 21
206.5282264426
  0
LINE
  5
373
100
AcDbEntity
  8
0
100
AcDbLine
 62
7
  6
CONTINUOUS
 10
250.5779981474
 20
204.2869010301
 11
250.4205556593
 21
204.5192983583
  0
LINE
  5
374
100
AcDbEntity
  8
0
100
AcDbLine
 62
7
  6
CONTINUOUS
 10
252.4472473849
 20
206.4859437951
 11
252.3369545996
 21
206.7440759988
  0
LINE
  5
375
100
AcDbEntity
  8
KONSTRUKTIONSELEMENTE
100
AcDbLine
 62
7
  6
CONTINUOUS
 10
271.7628525622
 20
149.7594738686
 11
271.8670200236
 21
149.4403248215
  0
LINE
  5
376
100
AcDbEntity
  8
KONSTRUKTIONSELEMENTE
100
AcDbLine
 62
7
  6
CONTINUOUS
 10
270.1136858638
 20
143.3026652324
 11
270.0011862929
 21
143.9409630287
  0
LINE
  5
377
100
AcDbEntity
  8
KONSTRUKTIONSELEMENTE
100
AcDbLine
 62
7
  6
CONTINUOUS
 10
266.7386858638
 20
141.5154312241
 11
266.6261862929
 21
142.2813887584
  0
LINE
  5
378
100
AcDbEntity
  8
KONSTRUKTIONSELEMENTE
100
AcDbLine
 62
7
  6
CONTINUOUS
 10
269.4386858638
 20
143.9409630287
 11
269.5511867221
 21
143.1750056732
  0
LINE
  5
379
100
AcDbEntity
  8
KONSTRUKTIONSELEMENTE
100
AcDbLine
 62
7
  6
CONTINUOUS
 10
264.0545200236
 20
152.7381972158
 11
264.0545200236
 21
149.9722398007
  0
LINE
  5
37A
100
AcDbEntity
  8
KONSTRUKTIONSELEMENTE
100
AcDbLine
 62
7
  6
CONTINUOUS
 10
264.4886860783
 20
144.323942064
 11
264.4886860783
 21
144.0686225879
  0
LINE
  5
37B
100
AcDbEntity
  8
KONSTRUKTIONSELEMENTE
100
AcDbLine
 62
7
  6
CONTINUOUS
 10
264.5753525622
 20
150.5041546309
 11
264.5753525622
 21
152.2062823856
  0
LINE
  5
37C
100
AcDbEntity
  8
KONSTRUKTIONSELEMENTE
100
AcDbLine
 62
7
  6
CONTINUOUS
 10
265.1636860783
 20
139.7281972158
 11
265.1636860783
 21
140.3664951014
  0
LINE
  5
37D
100
AcDbEntity
  8
KONSTRUKTIONSELEMENTE
100
AcDbLine
 62
7
  6
CONTINUOUS
 10
265.1636860783
 20
144.0686225879
 11
265.1636860783
 21
144.323942064
  0
LINE
  5
37E
100
AcDbEntity
  8
KONSTRUKTIONSELEMENTE
100
AcDbLine
 62
7
  6
CONTINUOUS
 10
266.0636858638
 20
143.3026652324
 11
266.0636858638
 21
142.1537291992
  0
LINE
  5
37F
100
AcDbEntity
  8
KONSTRUKTIONSELEMENTE
100
AcDbLine
 62
7
  6
CONTINUOUS
 10
266.6261862929
 20
142.2813887584
 11
266.6261862929
 21
143.1750056732
  0
LINE
  5
380
100
AcDbEntity
  8
KONSTRUKTIONSELEMENTE
100
AcDbLine
 62
7
  6
CONTINUOUS
 10
267.2836862929
 20
149.4403248215
 11
267.2836862929
 21
149.2275588894
  0
LINE
  5
381
100
AcDbEntity
  8
KONSTRUKTIONSELEMENTE
100
AcDbLine
 62
7
  6
CONTINUOUS
 10
267.5961862929
 20
152.2062823856
 11
267.5961862929
 21
152.7381972158
  0
LINE
  5
382
100
AcDbEntity
  8
KONSTRUKTIONSELEMENTE
100
AcDbLine
 62
7
  6
CONTINUOUS
 10
267.8045200236
 20
149.1211759233
 11
267.8045200236
 21
149.5467077875
  0
LINE
  5
383
100
AcDbEntity
  8
RUNDUNGEN
100
AcDbLine
 62
7
  6
CONTINUOUS
 10
268.4636862929
 20
156.2281972164
 11
268.4636737659
 21
155.2281972158
  0
LINE
  5
384
100
AcDbEntity
  8
KONSTRUKTIONSELEMENTE
100
AcDbLine
 62
7
  6
CONTINUOUS
 10
268.6378525622
 20
152.7381972158
 11
268.6378525622
 21
149.9722398007
  0
LINE
  5
385
100
AcDbEntity
  8
0
100
AcDbLine
 62
7
  6
CONTINUOUS
 10
268.9636862929
 20
197.5953060834
 11
268.9636862929
 21
280.4610883481
  0
LINE
  5
386
100
AcDbEntity
  8
KONSTRUKTIONSELEMENTE
100
AcDbLine
 62
7
  6
CONTINUOUS
 10
269.1586862929
 20
150.5041546309
 11
269.1586862929
 21
152.2062823856
  0
LINE
  5
387
100
AcDbEntity
  8
KONSTRUKTIONSELEMENTE
100
AcDbLine
 62
7
  6
CONTINUOUS
 10
269.5511867221
 20
143.1750056732
 11
269.5511867221
 21
142.2813887584
  0
LINE
  5
388
100
AcDbEntity
  8
KONSTRUKTIONSELEMENTE
100
AcDbLine
 62
7
  6
CONTINUOUS
 10
262.5961862929
 20
152.7381972158
 11
261.9711862929
 21
148.9084099913
  0
LINE
  5
389
100
AcDbEntity
  8
0
100
AcDbLine
 62
7
  6
CONTINUOUS
 10
269.0523943448
 20
208.8133058636
 11
269.5253511454
 21
211.5136652514
  0
LINE
  5
38A
100
AcDbEntity
  8
0
100
AcDbLine
 62
7
  6
CONTINUOUS
 10
269.2142605859
 20
211.6739834308
 11
268.9636862929
 21
210.2505625019
  0
LINE
  5
38B
100
AcDbEntity
  8
KONSTRUKTIONSELEMENTE
100
AcDbLine
 62
7
  6
CONTINUOUS
 10
259.8878531583
 20
147.7381972158
 11
260.7211862929
 21
151.7807505214
  0
LINE
  5
38C
100
AcDbEntity
  8
KONSTRUKTIONSELEMENTE
100
AcDbLine
 62
7
  6
CONTINUOUS
 10
260.3045194276
 20
152.7381972158
 11
259.4711862929
 21
148.9084099913
  0
LINE
  5
38D
100
AcDbEntity
  8
KONSTRUKTIONSELEMENTE
100
AcDbLine
 62
7
  6
CONTINUOUS
 10
253.950352972
 20
151.9935164535
 11
253.8461862929
 21
151.5679845893
  0
LINE
  5
38E
100
AcDbEntity
  8
KONSTRUKTIONSELEMENTE
100
AcDbLine
 62
7
  6
CONTINUOUS
 10
254.4711862929
 20
151.4616013253
 11
254.5753529348
 21
151.7807505214
  0
LINE
  5
38F
100
AcDbEntity
  8
0
100
AcDbLine
 62
7
  6
CONTINUOUS
 10
274.7511997044
 20
203.7502482591
 11
274.5933460644
 21
203.518129527
  0
LINE
  5
390
100
AcDbEntity
  8
0
100
AcDbLine
 62
7
  6
CONTINUOUS
 10
275.5731260824
 20
205.7680918381
 11
275.7301332213
 21
205.9777082014
  0
LINE
  5
391
100
AcDbEntity
  8
0
100
AcDbLine
 62
7
  6
CONTINUOUS
 10
274.8780470466
 20
203.4178881421
 11
275.0115572773
 21
203.5670367258
  0
LINE
  5
392
100
AcDbEntity
  8
0
100
AcDbLine
 62
7
  6
CONTINUOUS
 10
275.2494161938
 20
205.9524506503
 11
274.9792355094
 21
205.876297753
  0
LINE
  5
393
100
AcDbEntity
  8
0
100
AcDbLine
 62
7
  6
CONTINUOUS
 10
249.7472722206
 20
201.9881475472
 11
248.1883496304
 21
202.0128977373
  0
LINE
  5
394
100
AcDbEntity
  8
0
100
AcDbLine
 62
7
  6
CONTINUOUS
 10
248.1848064641
 20
201.6403877075
 11
249.603712188
 21
201.6059192351
  0
LINE
  5
395
100
AcDbEntity
  8
0
100
AcDbLine
 62
7
  6
CONTINUOUS
 10
247.2527917263
 20
202.4265879653
 11
247.4525627062
 21
202.4138632828
  0
LINE
  5
396
100
AcDbEntity
  8
0
100
AcDbLine
 62
7
  6
CONTINUOUS
 10
247.5756141291
 20
202.741487461
 11
247.3758431493
 21
202.7542121435
  0
LINE
  5
397
100
AcDbEntity
  8
0
100
AcDbLine
 62
7
  6
CONTINUOUS
 10
249.3894477766
 20
202.8252613827
 11
249.6681970489
 21
202.7921624803
  0
LINE
  5
398
100
AcDbEntity
  8
0
100
AcDbLine
 62
7
  6
CONTINUOUS
 10
249.5168839599
 20
203.157395991
 11
249.2684615736
 21
203.2403197261
  0
LINE
  5
399
100
AcDbEntity
  8
0
100
AcDbLine
 62
7
  6
CONTINUOUS
 10
247.4525627062
 20
202.4138632828
 11
247.6318253025
 21
202.3465345598
  0
LINE
  5
39A
100
AcDbEntity
  8
0
100
AcDbLine
 62
7
  6
CONTINUOUS
 10
247.8146308684
 20
202.6517158513
 11
247.5756141291
 21
202.741487461
  0
LINE
  5
39B
100
AcDbEntity
  8
0
100
AcDbLine
 62
7
  6
CONTINUOUS
 10
249.0865012671
 20
202.9413718736
 11
249.3894477766
 21
202.8252613827
  0
LINE
  5
39C
100
AcDbEntity
  8
0
100
AcDbLine
 62
7
  6
CONTINUOUS
 10
250.9684807735
 20
207.5164241055
 11
251.1965595837
 21
207.3876992665
  0
LINE
  5
39D
100
AcDbEntity
  8
0
100
AcDbLine
 62
7
  6
CONTINUOUS
 10
248.3060597836
 20
205.4649089714
 11
249.9963024524
 21
204.4361105659
  0
LINE
  5
39E
100
AcDbEntity
  8
0
100
AcDbLine
 62
7
  6
CONTINUOUS
 10
250.1782626721
 20
204.7350582759
 11
248.4880200033
 21
205.7638566814
  0
LINE
  5
39F
100
AcDbEntity
  8
0
100
AcDbLine
 62
7
  6
CONTINUOUS
 10
251.4321316995
 20
207.6465139359
 11
251.1568485219
 21
207.8182040084
  0
LINE
  5
3A0
100
AcDbEntity
  8
FASEN
100
AcDbLine
 62
7
  6
CONTINUOUS
 10
288.732165484
 20
178.0281972159
 11
289.9058136617
 21
177.0433894629
  0
LINE
  5
3A1
100
AcDbEntity
  8
0
100
AcDbLine
 62
7
  6
CONTINUOUS
 10
251.1965595837
 20
207.3876992665
 11
251.9046231774
 21
206.743222509
  0
LINE
  5
3A2
100
AcDbEntity
  8
0
100
AcDbLine
 62
7
  6
CONTINUOUS
 10
252.1401952932
 20
207.0020371783
 11
251.4321316995
 21
207.6465139359
  0
LINE
  5
3A3
100
AcDbEntity
  8
0
100
AcDbLine
 62
7
  6
CONTINUOUS
 10
255.9636862929
 20
209.6103563521
 11
254.5982213808
 21
211.121284825
  0
LINE
  5
3A4
100
AcDbEntity
  8
0
100
AcDbLine
 62
7
  6
CONTINUOUS
 10
254.280462878
 20
210.9746260759
 11
255.9636862929
 21
209.1088492534
  0
LINE
  5
3A5
100
AcDbEntity
  8
0
100
AcDbLine
 62
7
  6
CONTINUOUS
 10
275.4015774589
 20
206.46386092
 11
275.4173831627
 21
206.2478355592
  0
LINE
  5
3A6
100
AcDbEntity
  8
KONSTRUKTIONSELEMENTE
100
AcDbLine
 62
7
  6
CONTINUOUS
 10
270.1136858638
 20
142.1537291992
 11
270.1136858638
 21
143.3026652324
  0
LINE
  5
3A7
100
AcDbEntity
  8
RUNDUNGEN
100
AcDbLine
 62
7
  6
CONTINUOUS
 10
271.4636862929
 20
166.7281972158
 11
271.4636862929
 21
160.7281972158
  0
LINE
  5
3A8
100
AcDbEntity
  8
KONSTRUKTIONSELEMENTE
100
AcDbLine
 62
7
  6
CONTINUOUS
 10
271.8670200236
 20
149.4403248215
 11
271.8670200236
 21
149.2275588894
  0
LINE
  5
3A9
100
AcDbEntity
  8
KONSTRUKTIONSELEMENTE
100
AcDbLine
 62
7
  6
CONTINUOUS
 10
272.1795200236
 20
152.2062823856
 11
272.1795200236
 21
152.7381972158
  0
LINE
  5
3AA
100
AcDbEntity
  8
KONSTRUKTIONSELEMENTE
100
AcDbLine
 62
7
  6
CONTINUOUS
 10
272.3878525622
 20
149.1211759233
 11
272.3878525622
 21
149.5467077875
  0
LINE
  5
3AB
100
AcDbEntity
  8
0
100
AcDbLine
 62
7
  6
CONTINUOUS
 10
272.4636862929
 20
137.0281972158
 11
272.4636862929
 21
106.5281972158
  0
LINE
  5
3AC
100
AcDbEntity
  8
RUNDUNGEN
100
AcDbLine
 62
7
  6
CONTINUOUS
 10
272.9636862929
 20
152.7281972158
 11
272.9636862929
 21
140.7281972153
  0
LINE
  5
3AD
100
AcDbEntity
  8
0
100
AcDbLine
 62
7
  6
CONTINUOUS
 10
274.5933460644
 20
203.518129527
 11
274.5748956911
 21
203.3023139498
  0
LINE
  5
3AE
100
AcDbEntity
  8
0
100
AcDbLine
 62
7
  6
CONTINUOUS
 10
274.8595966829
 20
203.2020725707
 11
274.8780470466
 21
203.4178881421
  0
LINE
  5
3AF
100
AcDbEntity
  8
0
100
AcDbLine
 62
7
  6
CONTINUOUS
 10
275.7301332213
 20
205.9777082014
 11
275.7739702685
 21
206.3207839578
  0
LINE
  5
3B0
100
AcDbEntity
  8
KONSTRUKTIONSELEMENTE
100
AcDbLine
 62
7
  6
CONTINUOUS
 10
266.6261862929
 20
143.1750056732
 11
266.7386858638
 21
143.9409630287
  0
LINE
  5
3B1
100
AcDbEntity
  8
KONSTRUKTIONSELEMENTE
100
AcDbLine
 62
7
  6
CONTINUOUS
 10
262.3878531583
 20
147.7381972158
 11
263.2211862929
 21
152.7381972158
  0
LINE
  5
3B2
100
AcDbEntity
  8
KONSTRUKTIONSELEMENTE
100
AcDbLine
 62
7
  6
CONTINUOUS
 10
266.1761867221
 20
143.9409630287
 11
266.0636858638
 21
143.3026652324
  0
LINE
  5
3B3
100
AcDbEntity
  8
KONSTRUKTIONSELEMENTE
100
AcDbLine
 62
7
  6
CONTINUOUS
 10
261.3386865075
 20
144.834580301
 11
261.2261862929
 21
144.323942064
  0
LINE
  5
3B4
100
AcDbEntity
  8
KONSTRUKTIONSELEMENTE
100
AcDbLine
 62
7
  6
CONTINUOUS
 10
265.0511865075
 20
143.5579843509
 11
265.1636860783
 21
144.0686225879
  0
LINE
  5
3B5
100
AcDbEntity
  8
KONSTRUKTIONSELEMENTE
100
AcDbLine
 62
7
  6
CONTINUOUS
 10
259.2011862929
 20
145.7281972158
 11
257.5136862929
 21
140.3664951014
  0
LINE
  5
3B6
100
AcDbEntity
  8
0
100
AcDbLine
 62
7
  6
CONTINUOUS
 10
275.4173831627
 20
206.2478355592
 11
275.3467824451
 21
206.0350146972
  0
LINE
  5
3B7
100
AcDbEntity
  8
KONSTRUKTIONSELEMENTE
100
AcDbLine
 62
7
  6
CONTINUOUS
 10
257.9636861856
 20
139.7281972158
 11
259.5386862929
 21
144.4516016233
  0
LINE
  5
3B8
100
AcDbEntity
  8
0
100
AcDbLine
 62
7
  6
CONTINUOUS
 10
247.3758431493
 20
202.7542121435
 11
247.0753008659
 21
202.6801716013
  0
LINE
  5
3B9
100
AcDbEntity
  8
0
100
AcDbLine
 62
7
  6
CONTINUOUS
 10
249.6681970489
 20
202.7921624803
 11
250.0075995641
 21
202.8587125885
  0
LINE
  5
3BA
100
AcDbEntity
  8
0
100
AcDbLine
 62
7
  6
CONTINUOUS
 10
275.0218066104
 20
205.5300154614
 11
275.2433025106
 21
205.5648884295
  0
LINE
  5
3BB
100
AcDbEntity
  8
0
100
AcDbLine
 62
7
  6
CONTINUOUS
 10
274.4414078961
 20
207.1027061336
 11
274.6629037962
 21
207.1375791017
  0
LINE
  5
3BC
100
AcDbEntity
  8
0
100
AcDbLine
 62
7
  6
CONTINUOUS
 10
250.8895073928
 20
207.90379274
 11
250.5436425247
 21
207.9031102443
  0
LINE
  5
3BD
100
AcDbEntity
  8
0
100
AcDbLine
 62
7
  6
CONTINUOUS
 10
249.7411093311
 20
203.1574842952
 11
249.5168839599
 21
203.157395991
  0
LINE
  5
3BE
100
AcDbEntity
  8
0
100
AcDbLine
 62
7
  6
CONTINUOUS
 10
274.8308723555
 20
207.4329618586
 11
274.4852432164
 21
207.4457839264
  0
LINE
  5
3BF
100
AcDbEntity
  8
0
100
AcDbLine
 62
7
  6
CONTINUOUS
 10
274.9792355094
 20
205.876297753
 11
272.7058892396
 21
206.089887856
  0
LINE
  5
3C0
100
AcDbEntity
  8
0
100
AcDbLine
 62
7
  6
CONTINUOUS
 10
273.0076796047
 20
205.7339920682
 11
275.0218066104
 21
205.5300154614
  0
LINE
  5
3C1
100
AcDbEntity
  8
0
100
AcDbLine
 62
7
  6
CONTINUOUS
 10
250.7483437473
 20
207.5590478443
 11
250.9684807735
 21
207.5164241055
  0
LINE
  5
3C2
100
AcDbEntity
  8
0
100
AcDbLine
 62
7
  6
CONTINUOUS
 10
251.1568485219
 20
207.8182040084
 11
250.8895073928
 21
207.90379274
  0
LINE
  5
3C3
100
AcDbEntity
  8
0
100
AcDbLine
 62
7
  6
CONTINUOUS
 10
274.5748956911
 20
203.3023139498
 11
274.6110280125
 21
203.1195887174
  0
LINE
  5
3C4
100
AcDbEntity
  8
0
100
AcDbLine
 62
7
  6
CONTINUOUS
 10
276.8807768455
 20
156.5821270026
 11
276.8807768455
 21
137.0281972158
  0
LINE
  5
3C5
100
AcDbEntity
  8
0
100
AcDbLine
 62
7
  6
CONTINUOUS
 10
279.0708396207
 20
156.5821270026
 11
279.0708396207
 21
137.0281972158
  0
LINE
  5
3C6
100
AcDbEntity
  8
KONSTRUKTIONSELEMENTE
100
AcDbLine
 62
7
  6
CONTINUOUS
 10
269.5511867221
 20
142.2813887584
 11
269.4386858638
 21
141.5154312241
  0
LINE
  5
3C7
100
AcDbEntity
  8
KONSTRUKTIONSELEMENTE
100
AcDbLine
 62
7
  6
CONTINUOUS
 10
270.0011862929
 20
141.5154312241
 11
270.1136858638
 21
142.1537291992
  0
LINE
  5
3C8
100
AcDbEntity
  8
KONSTRUKTIONSELEMENTE
100
AcDbLine
 62
7
  6
CONTINUOUS
 10
266.2886862929
 20
144.323942064
 11
266.1761867221
 21
143.9409630287
  0
LINE
  5
3C9
100
AcDbEntity
  8
KONSTRUKTIONSELEMENTE
100
AcDbLine
 62
7
  6
CONTINUOUS
 10
267.2836862929
 20
149.2275588894
 11
267.1795200236
 21
148.9084099913
  0
LINE
  5
3CA
100
AcDbEntity
  8
KONSTRUKTIONSELEMENTE
100
AcDbLine
 62
7
  6
CONTINUOUS
 10
257.1795197256
 20
148.4828780526
 11
257.3878528602
 21
148.9084099913
  0
LINE
  5
3CB
100
AcDbEntity
  8
0
100
AcDbLine
 62
7
  6
CONTINUOUS
 10
250.536149219
 20
207.515570736
 11
250.7483437473
 21
207.5590478443
  0
LINE
  5
3CC
100
AcDbEntity
  8
0
100
AcDbLine
 62
7
  6
CONTINUOUS
 10
274.6629037962
 20
207.1375791017
 11
274.8734417297
 21
207.0866816034
  0
LINE
  5
3CD
100
AcDbEntity
  8
0
100
AcDbLine
 62
7
  6
CONTINUOUS
 10
275.079133653
 20
207.3375778959
 11
274.8308723555
 21
207.4329618586
  0
LINE
  5
3CE
100
AcDbEntity
  8
0
100
AcDbLine
 62
7
  6
CONTINUOUS
 10
268.9636862929
 20
208.4281778505
 11
269.0843506305
 21
208.365994392
  0
LINE
  5
3CF
100
AcDbEntity
  8
0
100
AcDbLine
 62
7
  6
CONTINUOUS
 10
271.288196858
 20
210.6051959761
 11
270.9771062985
 21
210.7655141555
  0
LINE
  5
3D0
100
AcDbEntity
  8
0
100
AcDbLine
 62
7
  6
CONTINUOUS
 10
269.5253511454
 20
211.5136652514
 11
269.2142605859
 21
211.6739834308
  0
LINE
  5
3D1
100
AcDbEntity
  8
0
100
AcDbLine
 62
7
  6
CONTINUOUS
 10
274.8734417297
 20
207.0866816034
 11
275.1107450605
 21
206.9055271743
  0
LINE
  5
3D2
100
AcDbEntity
  8
0
100
AcDbLine
 62
7
  6
CONTINUOUS
 10
275.3918837116
 20
207.067450538
 11
275.079133653
 21
207.3375778959
  0
LINE
  5
3D3
100
AcDbEntity
  8
0
100
AcDbLine
 62
7
  6
CONTINUOUS
 10
272.4624739183
 20
205.883477999
 11
273.8205357419
 21
204.2819408444
  0
LINE
  5
3D4
100
AcDbEntity
  8
0
100
AcDbLine
 62
7
  6
CONTINUOUS
 10
274.0639510632
 20
204.4883507014
 11
273.0076796047
 21
205.7339920682
  0
LINE
  5
3D5
100
AcDbEntity
  8
0
100
AcDbLine
 62
7
  6
CONTINUOUS
 10
274.2527876227
 20
207.3251425283
 11
274.4414078961
 21
207.1027061336
  0
LINE
  5
3D6
100
AcDbEntity
  8
0
100
AcDbLine
 62
7
  6
CONTINUOUS
 10
275.1107450605
 20
206.9055271743
 11
275.261640243
 21
206.7275792804
  0
LINE
  5
3D7
100
AcDbEntity
  8
0
100
AcDbLine
 62
7
  6
CONTINUOUS
 10
275.542780621
 20
206.8895006077
 11
275.3918837116
 21
207.067450538
  0
LINE
  5
3D8
100
AcDbEntity
  8
0
100
AcDbLine
 62
7
  6
CONTINUOUS
 10
275.6009464463
 20
204.811082295
 11
275.8428536172
 21
204.4120551672
  0
LINE
  5
3D9
100
AcDbEntity
  8
0
100
AcDbLine
 62
7
  6
CONTINUOUS
 10
275.9940457721
 20
204.1626629269
 11
276.326666575
 21
203.6140031948
  0
LINE
  5
3DA
100
AcDbEntity
  8
0
100
AcDbLine
 62
7
  6
CONTINUOUS
 10
276.5449973346
 20
203.7463645626
 11
276.2123765318
 21
204.2950242947
  0
LINE
  5
3DB
100
AcDbEntity
  8
0
100
AcDbLine
 62
7
  6
CONTINUOUS
 10
276.0611843769
 20
204.544416535
 11
275.8192772059
 21
204.9434436628
  0
LINE
  5
3DC
100
AcDbEntity
  8
0
100
AcDbLine
 62
7
  6
CONTINUOUS
 10
276.649038204
 20
204.5597471228
 11
276.4978460491
 21
204.8091393631
  0
LINE
  5
3DD
100
AcDbEntity
  8
0
100
AcDbLine
 62
7
  6
CONTINUOUS
 10
275.7204412008
 20
206.581295783
 11
275.542780621
 21
206.8895006077
  0
LINE
  5
3DE
100
AcDbEntity
  8
0
100
AcDbLine
 62
7
  6
CONTINUOUS
 10
275.261640243
 20
206.7275792804
 11
275.4015774589
 21
206.46386092
  0
LINE
  5
3DF
100
AcDbEntity
  8
0
100
AcDbLine
 62
7
  6
CONTINUOUS
 10
274.6110280125
 20
203.1195887174
 11
274.73787535
 21
202.7872285975
  0
LINE
  5
3E0
100
AcDbEntity
  8
0
100
AcDbLine
 62
7
  6
CONTINUOUS
 10
274.9562061288
 20
202.9195899769
 11
274.8595966829
 21
203.2020725707
  0
LINE
  5
3E1
100
AcDbEntity
  8
0
100
AcDbLine
 62
7
  6
CONTINUOUS
 10
275.7739702685
 20
206.3207839578
 11
275.7204412008
 21
206.581295783
  0
LINE
  5
3E2
100
AcDbEntity
  8
BEZUGSACHSEN
100
AcDbLine
 62
7
  6
CONTINUOUS
 10
287.9636862929
 20
180.0281972158
 11
287.9636862929
 21
182.2019489203
  0
LINE
  5
3E3
100
AcDbEntity
  8
0
100
AcDbLine
 62
7
  6
CONTINUOUS
 10
288.4636862929
 20
180.0281972158
 11
288.4636862929
 21
178.0281972158
  0
LINE
  5
3E4
100
AcDbEntity
  8
KONSTRUKTIONSELEMENTE
100
AcDbLine
 62
7
  6
CONTINUOUS
 10
269.8886867221
 20
141.1324525463
 11
270.0011862929
 21
141.5154312241
  0
LINE
  5
3E5
100
AcDbEntity
  8
KONSTRUKTIONSELEMENTE
100
AcDbLine
 62
7
  6
CONTINUOUS
 10
271.8670200236
 20
149.2275588894
 11
271.7628525622
 21
148.9084099913
  0
LINE
  5
3E6
100
AcDbEntity
  8
KONSTRUKTIONSELEMENTE
100
AcDbLine
 62
7
  6
CONTINUOUS
 10
267.5961862929
 20
148.5892610186
 11
267.8045200236
 21
149.1211759233
  0
LINE
  5
3E7
100
AcDbEntity
  8
KONSTRUKTIONSELEMENTE
100
AcDbLine
 62
7
  6
CONTINUOUS
 10
272.1795200236
 20
148.5892610186
 11
272.3878525622
 21
149.1211759233
  0
LINE
  5
3E8
100
AcDbEntity
  8
BEZUGSACHSEN
100
AcDbLine
 62
7
  6
CONTINUOUS
 10
285.9881482896
 20
194.8801469187
 11
283.6255157973
 21
189.1762475129
  0
LINE
  5
3E9
100
AcDbEntity
  8
KONSTRUKTIONSELEMENTE
100
AcDbLine
 62
7
  6
CONTINUOUS
 10
264.4886860783
 20
144.0686225879
 11
264.2636862929
 21
143.5579843509
  0
LINE
  5
3EA
100
AcDbEntity
  8
KONSTRUKTIONSELEMENTE
100
AcDbLine
 62
7
  6
CONTINUOUS
 10
266.5136867221
 20
144.834580301
 11
266.2886862929
 21
144.323942064
  0
LINE
  5
3EB
100
AcDbEntity
  8
KONSTRUKTIONSELEMENTE
100
AcDbLine
 62
7
  6
CONTINUOUS
 10
261.7886860783
 20
144.323942064
 11
262.0136865075
 21
144.7069207418
  0
LINE
  5
3EC
100
AcDbEntity
  8
KONSTRUKTIONSELEMENTE
100
AcDbLine
 62
7
  6
CONTINUOUS
 10
256.7628528602
 20
149.0147929573
 11
256.5545197256
 21
148.6956440592
  0
LINE
  5
3ED
100
AcDbEntity
  8
KONSTRUKTIONSELEMENTE
100
AcDbLine
 62
7
  6
CONTINUOUS
 10
254.3670196511
 20
152.4190483177
 11
253.950352972
 21
151.9935164535
  0
LINE
  5
3EE
100
AcDbEntity
  8
RUNDUNGEN
100
AcDbLine
 62
7
  6
CONTINUOUS
 10
268.9636862929
 20
217.3358090604
 11
278.2861987443
 21
213.4742979676
  0
LINE
  5
3EF
100
AcDbEntity
  8
BEZUGSACHSEN
100
AcDbLine
 62
7
  6
CONTINUOUS
 10
279.9097870447
 20
211.8507096672
 11
285.9881482896
 21
197.1762475129
  0
LINE
  5
3F0
100
AcDbEntity
  8
BEZUGSACHSEN
100
AcDbLine
 62
7
  6
CONTINUOUS
 10
289.9058136618
 20
177.0433894628
 11
293.4879301733
 21
156.7281972158
  0
LINE
  5
3F1
100
AcDbEntity
  8
FASEN
100
AcDbLine
 62
7
  6
CONTINUOUS
 10
293.4879301733
 20
156.7281972158
 11
289.9058136618
 21
177.0433894628
  0
LINE
  5
3F2
100
AcDbEntity
  8
0
100
AcDbLine
 62
7
  6
CONTINUOUS
 10
293.4879301733
 20
156.5821270026
 11
293.4879301733
 21
137.0281972158
  0
LINE
  5
3F3
100
AcDbEntity
  8
BEZUGSACHSEN
100
AcDbLine
 62
7
  6
CONTINUOUS
 10
293.4879301733
 20
156.7281978073
 11
293.4879301733
 21
156.5821270026
  0
LINE
  5
3F4
100
AcDbEntity
  8
KONSTRUKTIONSELEMENTE
100
AcDbLine
 62
7
  6
CONTINUOUS
 10
269.6636862929
 20
140.6218142199
 11
269.8886867221
 21
141.1324525463
  0
LINE
  5
3F5
100
AcDbEntity
  8
KONSTRUKTIONSELEMENTE
100
AcDbLine
 62
7
  6
CONTINUOUS
 10
264.8261860783
 20
143.1750056732
 11
265.0511865075
 21
143.5579843509
  0
LINE
  5
3F6
100
AcDbEntity
  8
KONSTRUKTIONSELEMENTE
100
AcDbLine
 62
7
  6
CONTINUOUS
 10
266.7386858638
 20
143.9409630287
 11
267.1886867221
 21
144.7069207418
  0
LINE
  5
3F7
100
AcDbEntity
  8
KONSTRUKTIONSELEMENTE
100
AcDbLine
 62
7
  6
CONTINUOUS
 10
267.1795200236
 20
148.9084099913
 11
266.9711862929
 21
148.5892610186
  0
LINE
  5
3F8
100
AcDbEntity
  8
KONSTRUKTIONSELEMENTE
100
AcDbLine
 62
7
  6
CONTINUOUS
 10
267.2836862929
 20
148.1637291172
 11
267.5961862929
 21
148.5892610186
  0
LINE
  5
3F9
100
AcDbEntity
  8
KONSTRUKTIONSELEMENTE
100
AcDbLine
 62
7
  6
CONTINUOUS
 10
261.7886860783
 20
145.345218538
 11
261.3386865075
 21
144.834580301
  0
LINE
  5
3FA
100
AcDbEntity
  8
KONSTRUKTIONSELEMENTE
100
AcDbLine
 62
7
  6
CONTINUOUS
 10
256.7628528602
 20
148.0573461512
 11
257.1795197256
 21
148.4828780526
  0
LINE
  5
3FB
100
AcDbEntity
  8
KONSTRUKTIONSELEMENTE
100
AcDbLine
 62
7
  6
CONTINUOUS
 10
254.5753529348
 20
151.7807505214
 11
254.8878530093
 21
151.9935164535
  0
LINE
  5
3FC
100
AcDbEntity
  8
KONSTRUKTIONSELEMENTE
100
AcDbLine
 62
7
  6
CONTINUOUS
 10
269.4386858638
 20
141.5154312241
 11
268.9886862929
 21
140.7494737792
  0
LINE
  5
3FD
100
AcDbEntity
  8
KONSTRUKTIONSELEMENTE
100
AcDbLine
 62
7
  6
CONTINUOUS
 10
271.7628525622
 20
148.9084099913
 11
271.5545200236
 21
148.5892610186
  0
LINE
  5
3FE
100
AcDbEntity
  8
KONSTRUKTIONSELEMENTE
100
AcDbLine
 62
7
  6
CONTINUOUS
 10
271.8670200236
 20
148.1637291172
 11
272.1795200236
 21
148.5892610186
  0
LINE
  5
3FF
100
AcDbEntity
  8
KONSTRUKTIONSELEMENTE
100
AcDbLine
 62
7
  6
CONTINUOUS
 10
266.8511867221
 20
145.2175589788
 11
266.5136867221
 21
144.834580301
  0
LINE
  5
400
100
AcDbEntity
  8
KONSTRUKTIONSELEMENTE
100
AcDbLine
 62
7
  6
CONTINUOUS
 10
264.2636862929
 20
143.5579843509
 11
261.1136860783
 21
140.3664951014
  0
LINE
  5
401
100
AcDbEntity
  8
KONSTRUKTIONSELEMENTE
100
AcDbLine
 62
7
  6
CONTINUOUS
 10
262.0136865075
 20
140.3664951014
 11
264.8261860783
 21
143.1750056732
  0
LINE
  5
402
100
AcDbEntity
  8
KONSTRUKTIONSELEMENTE
100
AcDbLine
 62
7
  6
CONTINUOUS
 10
264.7836862929
 20
149.9722398007
 11
265.2003525622
 21
150.2913886988
  0
LINE
  5
403
100
AcDbEntity
  8
KONSTRUKTIONSELEMENTE
100
AcDbLine
 62
7
  6
CONTINUOUS
 10
256.5545197256
 20
148.6956440592
 11
256.2420197256
 21
148.4828780526
  0
LINE
  5
404
100
AcDbEntity
  8
KONSTRUKTIONSELEMENTE
100
AcDbLine
 62
7
  6
CONTINUOUS
 10
265.0961862929
 20
150.823303529
 11
264.5753525622
 21
150.5041546309
  0
LINE
  5
405
100
AcDbEntity
  8
KONSTRUKTIONSELEMENTE
100
AcDbLine
 62
7
  6
CONTINUOUS
 10
254.7836862929
 20
152.6318142497
 11
254.3670196511
 21
152.4190483177
  0
LINE
  5
406
100
AcDbEntity
  8
KONSTRUKTIONSELEMENTE
100
AcDbLine
 62
7
  6
CONTINUOUS
 10
254.8878530093
 20
151.9935164535
 11
255.2003530093
 21
152.0998994195
  0
LINE
  5
407
100
AcDbEntity
  8
KONSTRUKTIONSELEMENTE
100
AcDbLine
 62
7
  6
CONTINUOUS
 10
269.3261862929
 20
140.2388354975
 11
269.6636862929
 21
140.6218142199
  0
LINE
  5
408
100
AcDbEntity
  8
KONSTRUKTIONSELEMENTE
100
AcDbLine
 62
7
  6
CONTINUOUS
 10
269.3670200236
 20
149.9722398007
 11
269.7836862929
 21
150.2913886988
  0
LINE
  5
409
100
AcDbEntity
  8
KONSTRUKTIONSELEMENTE
100
AcDbLine
 62
7
  6
CONTINUOUS
 10
262.0136865075
 20
144.7069207418
 11
262.3511865075
 21
144.9622398603
  0
LINE
  5
40A
100
AcDbEntity
  8
KONSTRUKTIONSELEMENTE
100
AcDbLine
 62
7
  6
CONTINUOUS
 10
267.1886867221
 20
144.7069207418
 11
267.5261867221
 21
144.9622398603
  0
LINE
  5
40B
100
AcDbEntity
  8
KONSTRUKTIONSELEMENTE
100
AcDbLine
 62
7
  6
CONTINUOUS
 10
266.9711862929
 20
148.5892610186
 11
266.6586862929
 21
148.3764950865
  0
LINE
  5
40C
100
AcDbEntity
  8
KONSTRUKTIONSELEMENTE
100
AcDbLine
 62
7
  6
CONTINUOUS
 10
271.5545200236
 20
148.5892610186
 11
271.2420200236
 21
148.3764950865
  0
LINE
  5
40D
100
AcDbEntity
  8
KONSTRUKTIONSELEMENTE
100
AcDbLine
 62
7
  6
CONTINUOUS
 10
267.4136858638
 20
145.6005376565
 11
266.8511867221
 21
145.2175589788
  0
LINE
  5
40E
100
AcDbEntity
  8
KONSTRUKTIONSELEMENTE
100
AcDbLine
 62
7
  6
CONTINUOUS
 10
269.6795200236
 20
150.823303529
 11
269.1586862929
 21
150.5041546309
  0
LINE
  5
40F
100
AcDbEntity
  8
KONSTRUKTIONSELEMENTE
100
AcDbLine
 62
7
  6
CONTINUOUS
 10
266.7628525622
 20
147.8445801911
 11
267.2836862929
 21
148.1637291172
  0
LINE
  5
410
100
AcDbEntity
  8
KONSTRUKTIONSELEMENTE
100
AcDbLine
 62
7
  6
CONTINUOUS
 10
271.3461862929
 20
147.8445801911
 11
271.8670200236
 21
148.1637291172
  0
LINE
  5
411
100
AcDbEntity
  8
KONSTRUKTIONSELEMENTE
100
AcDbLine
 62
7
  6
CONTINUOUS
 10
262.2386862929
 20
145.6005376565
 11
261.7886860783
 21
145.345218538
  0
LINE
  5
412
100
AcDbEntity
  8
KONSTRUKTIONSELEMENTE
100
AcDbLine
 62
7
  6
CONTINUOUS
 10
256.3461862929
 20
147.8445801911
 11
256.7628528602
 21
148.0573461512
  0
LINE
  5
413
100
AcDbEntity
  8
KONSTRUKTIONSELEMENTE
100
AcDbLine
 62
7
  6
CONTINUOUS
 10
268.9886862929
 20
140.7494737792
 11
268.6511862929
 21
140.4941546607
  0
LINE
  5
414
100
AcDbEntity
  8
KONSTRUKTIONSELEMENTE
100
AcDbLine
 62
7
  6
CONTINUOUS
 10
268.7636858638
 20
139.8558567862
 11
269.3261862929
 21
140.2388354975
  0
LINE
  5
415
100
AcDbEntity
  8
0
100
AcDbLine
 62
7
  6
CONTINUOUS
 10
272.4636862929
 20
106.5281972158
 11
269.9636862929
 21
104.0281972158
  0
LINE
  5
416
100
AcDbEntity
  8
RUNDUNGEN
100
AcDbLine
 62
7
  6
CONTINUOUS
 10
135.0102148976
 20
62.0365104095
 11
135.0102148976
 21
46.0365104095
  0
LINE
  5
417
100
AcDbEntity
  8
BEZUGSACHSEN
100
AcDbLine
 62
7
  6
CONTINUOUS
 10
138.0102148976
 20
68.453600962
 11
139.2746482305
 21
70.6436637373
  0
LINE
  5
418
100
AcDbEntity
  8
BEZUGSACHSEN
100
AcDbLine
 62
7
  6
CONTINUOUS
 10
166.7746482305
 20
23.0122665291
 11
164.2457815648
 21
23.0122665291
  0
LINE
  5
419
100
AcDbEntity
  8
BEZUGSACHSEN
100
AcDbLine
 62
7
  6
CONTINUOUS
 10
139.2746482305
 20
37.4293570817
 11
138.0102148976
 21
39.6194198569
  0
LINE
  5
41A
100
AcDbEntity
  8
RUNDUNGEN
100
AcDbLine
 62
7
  6
CONTINUOUS
 10
138.0102148976
 20
39.6194198569
 11
138.0102148976
 21
43.5365104095
  0
LINE
  5
41B
100
AcDbEntity
  8
RUNDUNGEN
100
AcDbLine
 62
7
  6
CONTINUOUS
 10
138.0102148976
 20
64.5365104095
 11
138.0102148976
 21
68.453600962
  0
LINE
  5
41C
100
AcDbEntity
  8
BEZUGSACHSEN
100
AcDbLine
 62
7
  6
CONTINUOUS
 10
139.2746482305
 20
70.6436637373
 11
164.2457815648
 21
85.0607542898
  0
LINE
  5
41D
100
AcDbEntity
  8
BEZUGSACHSEN
100
AcDbLine
 62
7
  6
CONTINUOUS
 10
164.2457815648
 20
23.0122665291
 11
139.2746482305
 21
37.4293570817
  0
LWPOLYLINE
  5
41E
100
AcDbEntity
  8
RUNDUNGEN
100
AcDbPolyline
 62
7
  6
CONTINUOUS
 90
5
 70
0
 10
169.804924078
 20
30.2834798642
 10
170.1700469646
 20
30.3095102336
 10
170.7345459466
 20
30.4575244332
 10
171.2572525075
 20
30.7325889086
 10
171.7255935691
 20
31.1408398746
  0
LINE
  5
41F
100
AcDbEntity
  8
BEZUGSACHSEN
100
AcDbLine
 62
7
  6
CONTINUOUS
 10
161.2153955256
 20
30.2837007096
 11
161.2148555766
 21
30.2836870103
  0
LINE
  5
420
100
AcDbEntity
  8
BEZUGSACHSEN
100
AcDbLine
 62
7
  6
CONTINUOUS
 10
169.8055830778
 20
30.2836870103
 11
161.2148467174
 21
30.2836870103
  0
LINE
  5
421
100
AcDbEntity
  8
RUNDUNGEN
100
AcDbLine
 62
7
  6
CONTINUOUS
 10
169.8050127744
 20
30.2837018214
 11
169.8055742186
 21
30.2836870103
  0
LWPOLYLINE
  5
422
100
AcDbEntity
  8
BEZUGSACHSEN
100
AcDbPolyline
 62
7
  6
CONTINUOUS
 90
5
 70
0
 10
159.2956235867
 20
31.139982498
 10
159.7744810652
 20
30.7249264153
 10
160.3047281639
 20
30.4502996191
 10
160.8767881141
 20
30.3058585542
 10
161.2154850689
 20
30.2834788024
  0
LINE
  5
423
100
AcDbEntity
  8
BEZUGSACHSEN
100
AcDbLine
 62
7
  6
CONTINUOUS
 10
159.2671433585
 20
76.9014689439
 11
156.4185614212
 21
73.6596490494
  0
LINE
  5
424
100
AcDbEntity
  8
BEZUGSACHSEN
100
AcDbLine
 62
7
  6
CONTINUOUS
 10
156.42463735
 20
34.4064442619
 11
159.2671433585
 21
31.171551875
  0
LINE
  5
425
100
AcDbEntity
  8
BEZUGSACHSEN
100
AcDbLine
 62
7
  6
CONTINUOUS
 10
156.4185614212
 20
34.4133717695
 11
156.4205877552
 21
34.411058764
  0
LINE
  5
426
100
AcDbEntity
  8
RUNDUNGEN
100
AcDbLine
 62
7
  6
CONTINUOUS
 10
191.5791412242
 20
39.6194198569
 11
192.5102148976
 21
39.6194198569
  0
LINE
  5
427
100
AcDbEntity
  8
0
100
AcDbLine
 62
7
  6
CONTINUOUS
 10
160.0102148976
 20
39.8511584984
 11
159.5102148976
 21
39.8511584984
  0
LINE
  5
428
100
AcDbEntity
  8
0
100
AcDbLine
 62
7
  6
CONTINUOUS
 10
160.0102148976
 20
40.0023506533
 11
159.5102148976
 21
40.0023506533
  0
LINE
  5
429
100
AcDbEntity
  8
0
100
AcDbLine
 62
7
  6
CONTINUOUS
 10
160.0102148976
 20
40.4390123255
 11
159.5102148976
 21
40.4390123255
  0
LINE
  5
42A
100
AcDbEntity
  8
0
100
AcDbLine
 62
7
  6
CONTINUOUS
 10
160.0102148976
 20
40.6809194965
 11
159.5102148976
 21
40.6809194965
  0
LINE
  5
42B
100
AcDbEntity
  8
0
100
AcDbLine
 62
7
  6
CONTINUOUS
 10
160.0102148976
 20
40.7262264339
 11
159.5102148976
 21
40.7262264339
  0
LINE
  5
42C
100
AcDbEntity
  8
0
100
AcDbLine
 62
7
  6
CONTINUOUS
 10
160.0102148976
 20
40.7797555016
 11
159.5102148976
 21
40.7797555016
  0
LINE
  5
42D
100
AcDbEntity
  8
0
100
AcDbLine
 62
7
  6
CONTINUOUS
 10
160.0102148976
 20
40.9574160814
 11
159.5102148976
 21
40.9574160814
  0
LINE
  5
42E
100
AcDbEntity
  8
0
100
AcDbLine
 62
7
  6
CONTINUOUS
 10
160.0102148976
 20
41.1083129908
 11
159.5102148976
 21
41.1083129908
  0
LINE
  5
42F
100
AcDbEntity
  8
0
100
AcDbLine
 62
7
  6
CONTINUOUS
 10
160.0102148976
 20
41.4210630494
 11
159.5102148976
 21
41.4210630494
  0
LINE
  5
430
100
AcDbEntity
  8
0
100
AcDbLine
 62
7
  6
CONTINUOUS
 10
160.0102148976
 20
41.6693243468
 11
159.5102148976
 21
41.6693243468
  0
LINE
  5
431
100
AcDbEntity
  8
0
100
AcDbLine
 62
7
  6
CONTINUOUS
 10
160.0102148976
 20
42.014953486
 11
159.5102148976
 21
42.014953486
  0
LINE
  5
432
100
AcDbEntity
  8
0
100
AcDbLine
 62
7
  6
CONTINUOUS
 10
160.0102148976
 20
42.2474090797
 11
159.5102148976
 21
42.2474090797
  0
LINE
  5
433
100
AcDbEntity
  8
0
100
AcDbLine
 62
7
  6
CONTINUOUS
 10
160.0102148976
 20
43.7943074628
 11
159.5102148976
 21
43.7943074628
  0
LINE
  5
434
100
AcDbEntity
  8
0
100
AcDbLine
 62
7
  6
CONTINUOUS
 10
160.0102148976
 20
44.037722784
 11
159.5102148976
 21
44.037722784
  0
LINE
  5
435
100
AcDbEntity
  8
RUNDUNGEN
100
AcDbLine
 62
7
  6
CONTINUOUS
 10
136.5721370516
 20
45.0365104095
 11
136.0102148976
 21
45.0365104095
  0
LINE
  5
436
100
AcDbEntity
  8
0
100
AcDbLine
 62
7
  6
CONTINUOUS
 10
160.0102148976
 20
45.2119998444
 11
159.5102148976
 21
45.2119998444
  0
LINE
  5
437
100
AcDbEntity
  8
0
100
AcDbLine
 62
7
  6
CONTINUOUS
 10
160.0102148976
 20
45.5230904039
 11
159.5102148976
 21
45.5230904039
  0
LINE
  5
438
100
AcDbEntity
  8
0
100
AcDbLine
 62
7
  6
CONTINUOUS
 10
159.5102148976
 20
39.8511584984
 11
159.5102148976
 21
44.037722784
  0
LINE
  5
439
100
AcDbEntity
  8
0
100
AcDbLine
 62
7
  6
CONTINUOUS
 10
159.5102148976
 20
45.2119998444
 11
159.5102148976
 21
47.5365104095
  0
LINE
  5
43A
100
AcDbEntity
  8
0
100
AcDbLine
 62
7
  6
CONTINUOUS
 10
159.5102148976
 20
60.5365104095
 11
159.5102148976
 21
62.2197338244
  0
LINE
  5
43B
100
AcDbEntity
  8
0
100
AcDbLine
 62
7
  6
CONTINUOUS
 10
159.5102148976
 20
64.0211802877
 11
159.5102148976
 21
69.103938104
  0
LINE
  5
43C
100
AcDbEntity
  8
0
100
AcDbLine
 62
7
  6
CONTINUOUS
 10
159.5102148976
 20
69.1243535531
 11
159.5102148976
 21
70.3406952345
  0
LINE
  5
43D
100
AcDbEntity
  8
RUNDUNGEN
100
AcDbLine
 62
7
  6
CONTINUOUS
 10
160.0102148976
 20
47.5365104095
 11
160.0102148976
 21
39.170706539
  0
LINE
  5
43E
100
AcDbEntity
  8
BEZUGSACHSEN
100
AcDbLine
 62
7
  6
CONTINUOUS
 10
160.0102148976
 20
39.170706539
 11
160.0102148976
 21
34.8375933066
  0
LINE
  5
43F
100
AcDbEntity
  8
RUNDUNGEN
100
AcDbLine
 62
7
  6
CONTINUOUS
 10
160.0102148976
 20
60.5365104095
 11
160.0102148976
 21
68.9023142799
  0
LINE
  5
440
100
AcDbEntity
  8
BEZUGSACHSEN
100
AcDbLine
 62
7
  6
CONTINUOUS
 10
160.0102148976
 20
68.9023142799
 11
160.0102148976
 21
73.2354275123
  0
LINE
  5
441
100
AcDbEntity
  8
0
100
AcDbLine
 62
7
  6
CONTINUOUS
 10
160.0102148976
 20
46.974845557
 11
159.5102148976
 21
46.974845557
  0
LINE
  5
442
100
AcDbEntity
  8
0
100
AcDbLine
 62
7
  6
CONTINUOUS
 10
160.0102148976
 20
47.2859361165
 11
159.5102148976
 21
47.2859361165
  0
LINE
  5
443
100
AcDbEntity
  8
0
100
AcDbLine
 62
7
  6
CONTINUOUS
 10
141.5102148976
 20
47.5365104095
 11
189.5102148976
 21
47.5365104095
  0
LINE
  5
444
100
AcDbEntity
  8
RUNDUNGEN
100
AcDbLine
 62
7
  6
CONTINUOUS
 10
171.0102148976
 20
47.5365104095
 11
171.0102148976
 21
34.8375933066
  0
LINE
  5
445
100
AcDbEntity
  8
RUNDUNGEN
100
AcDbLine
 62
7
  6
CONTINUOUS
 10
171.0102148976
 20
60.5365104095
 11
171.0102148976
 21
68.9023142799
  0
LINE
  5
446
100
AcDbEntity
  8
BEZUGSACHSEN
100
AcDbLine
 62
7
  6
CONTINUOUS
 10
171.0102148976
 20
68.9023142799
 11
171.0102148976
 21
73.2354275123
  0
LINE
  5
447
100
AcDbEntity
  8
0
100
AcDbLine
 62
7
  6
CONTINUOUS
 10
141.5102148976
 20
60.5365104095
 11
189.5102148976
 21
60.5365104095
  0
LINE
  5
448
100
AcDbEntity
  8
0
100
AcDbLine
 62
7
  6
CONTINUOUS
 10
160.0102148976
 20
61.9019753216
 11
159.5102148976
 21
61.9019753216
  0
LINE
  5
449
100
AcDbEntity
  8
0
100
AcDbLine
 62
7
  6
CONTINUOUS
 10
160.0102148976
 20
62.2197338244
 11
159.5102148976
 21
62.2197338244
  0
LINE
  5
44A
100
AcDbEntity
  8
RUNDUNGEN
100
AcDbLine
 62
7
  6
CONTINUOUS
 10
136.572136986
 20
63.0365104095
 11
136.0102148976
 21
63.0365104095
  0
LINE
  5
44B
100
AcDbEntity
  8
0
100
AcDbLine
 62
7
  6
CONTINUOUS
 10
160.0102148976
 20
64.0211802877
 11
159.5102148976
 21
64.0211802877
  0
LINE
  5
44C
100
AcDbEntity
  8
0
100
AcDbLine
 62
7
  6
CONTINUOUS
 10
160.0102148976
 20
64.0529493175
 11
159.5102148976
 21
64.0529493175
  0
LINE
  5
44D
100
AcDbEntity
  8
0
100
AcDbLine
 62
7
  6
CONTINUOUS
 10
160.0102148976
 20
64.1632421028
 11
159.5102148976
 21
64.1632421028
  0
LINE
  5
44E
100
AcDbEntity
  8
0
100
AcDbLine
 62
7
  6
CONTINUOUS
 10
160.0102148976
 20
64.3600014092
 11
159.5102148976
 21
64.3600014092
  0
LINE
  5
44F
100
AcDbEntity
  8
0
100
AcDbLine
 62
7
  6
CONTINUOUS
 10
160.0102148976
 20
65.0680650029
 11
159.5102148976
 21
65.0680650029
  0
LINE
  5
450
100
AcDbEntity
  8
0
100
AcDbLine
 62
7
  6
CONTINUOUS
 10
160.0102148976
 20
65.3433481805
 11
159.5102148976
 21
65.3433481805
  0
LINE
  5
451
100
AcDbEntity
  8
0
100
AcDbLine
 62
7
  6
CONTINUOUS
 10
160.0102148976
 20
65.6106893096
 11
159.5102148976
 21
65.6106893096
  0
LINE
  5
452
100
AcDbEntity
  8
0
100
AcDbLine
 62
7
  6
CONTINUOUS
 10
160.0102148976
 20
65.9565541777
 11
159.5102148976
 21
65.9565541777
  0
LINE
  5
453
100
AcDbEntity
  8
0
100
AcDbLine
 62
7
  6
CONTINUOUS
 10
160.0102148976
 20
66.2080105755
 11
159.5102148976
 21
66.2080105755
  0
LINE
  5
454
100
AcDbEntity
  8
0
100
AcDbLine
 62
7
  6
CONTINUOUS
 10
160.0102148976
 20
66.451525057
 11
159.5102148976
 21
66.451525057
  0
LINE
  5
455
100
AcDbEntity
  8
0
100
AcDbLine
 62
7
  6
CONTINUOUS
 10
160.0102148976
 20
67.3938135204
 11
159.5102148976
 21
67.3938135204
  0
LINE
  5
456
100
AcDbEntity
  8
0
100
AcDbLine
 62
7
  6
CONTINUOUS
 10
160.0102148976
 20
68.0121766991
 11
159.5102148976
 21
68.0121766991
  0
LINE
  5
457
100
AcDbEntity
  8
0
100
AcDbLine
 62
7
  6
CONTINUOUS
 10
160.0102148976
 20
68.1941369188
 11
159.5102148976
 21
68.1941369188
  0
LINE
  5
458
100
AcDbEntity
  8
RUNDUNGEN
100
AcDbLine
 62
7
  6
CONTINUOUS
 10
191.5791412242
 20
68.453600962
 11
192.5102148976
 21
68.453600962
  0
LINE
  5
459
100
AcDbEntity
  8
0
100
AcDbLine
 62
7
  6
CONTINUOUS
 10
191.5791412242
 20
68.453600962
 11
192.5102148976
 21
68.453600962
  0
LINE
  5
45A
100
AcDbEntity
  8
0
100
AcDbLine
 62
7
  6
CONTINUOUS
 10
160.0102148976
 20
68.9219777975
 11
159.5102148976
 21
68.9219777975
  0
LINE
  5
45B
100
AcDbEntity
  8
0
100
AcDbLine
 62
7
  6
CONTINUOUS
 10
160.0102148976
 20
69.103938104
 11
159.5102148976
 21
69.103938104
  0
LINE
  5
45C
100
AcDbEntity
  8
0
100
AcDbLine
 62
7
  6
CONTINUOUS
 10
160.0102148976
 20
69.1243535531
 11
159.5102148976
 21
69.1243535531
  0
LINE
  5
45D
100
AcDbEntity
  8
0
100
AcDbLine
 62
7
  6
CONTINUOUS
 10
160.0102148976
 20
69.4248958365
 11
159.5102148976
 21
69.4248958365
  0
LINE
  5
45E
100
AcDbEntity
  8
0
100
AcDbLine
 62
7
  6
CONTINUOUS
 10
160.0102148976
 20
69.6861925278
 11
159.5102148976
 21
69.6861925278
  0
LINE
  5
45F
100
AcDbEntity
  8
0
100
AcDbLine
 62
7
  6
CONTINUOUS
 10
160.0102148976
 20
69.8484895428
 11
159.5102148976
 21
69.8484895428
  0
LINE
  5
460
100
AcDbEntity
  8
0
100
AcDbLine
 62
7
  6
CONTINUOUS
 10
160.0090515207
 20
70.3406952345
 11
159.5102148976
 21
70.3406952345
  0
LINE
  5
461
100
AcDbEntity
  8
RUNDUNGEN
100
AcDbLine
 62
7
  6
CONTINUOUS
 10
171.7532864367
 20
31.171551875
 11
174.6018683741
 21
34.4133717695
  0
LINE
  5
462
100
AcDbEntity
  8
BEZUGSACHSEN
100
AcDbLine
 62
7
  6
CONTINUOUS
 10
174.5957924453
 20
73.6665765571
 11
171.7532864367
 21
76.9014689439
  0
LINE
  5
463
100
AcDbEntity
  8
BEZUGSACHSEN
100
AcDbLine
 62
7
  6
CONTINUOUS
 10
174.6018683741
 20
73.6596490494
 11
174.59984204
 21
73.6619620549
  0
LWPOLYLINE
  5
464
100
AcDbEntity
  8
BEZUGSACHSEN
100
AcDbPolyline
 62
7
  6
CONTINUOUS
 90
5
 70
0
 10
171.7248062086
 20
76.9330383209
 10
171.24594873
 20
77.3480944036
 10
170.7157016313
 20
77.6227211998
 10
170.1436416812
 20
77.7671622648
 10
169.8049447263
 20
77.7895420166
  0
LWPOLYLINE
  5
465
100
AcDbEntity
  8
BEZUGSACHSEN
100
AcDbPolyline
 62
7
  6
CONTINUOUS
 90
5
 70
0
 10
161.2155057173
 20
77.7895409547
 10
160.8503828307
 20
77.7635105853
 10
160.2858838486
 20
77.6154963858
 10
159.7631772878
 20
77.3404319103
 10
159.2948362261
 20
76.9321809443
  0
LINE
  5
466
100
AcDbEntity
  8
BEZUGSACHSEN
100
AcDbLine
 62
7
  6
CONTINUOUS
 10
169.8050342696
 20
77.7893201093
 11
169.8055742186
 21
77.7893338086
  0
LINE
  5
467
100
AcDbEntity
  8
BEZUGSACHSEN
100
AcDbLine
 62
7
  6
CONTINUOUS
 10
161.2148467174
 20
77.7893338086
 11
169.8055830778
 21
77.7893338086
  0
LINE
  5
468
100
AcDbEntity
  8
BEZUGSACHSEN
100
AcDbLine
 62
7
  6
CONTINUOUS
 10
161.2154170209
 20
77.7893189976
 11
161.2148555766
 21
77.7893338086
  0
LINE
  5
469
100
AcDbEntity
  8
RUNDUNGEN
100
AcDbLine
 62
7
  6
CONTINUOUS
 10
193.0102148976
 20
48.5696971832
 11
193.0102148976
 21
39.6194198569
  0
LINE
  5
46A
100
AcDbEntity
  8
RUNDUNGEN
100
AcDbLine
 62
7
  6
CONTINUOUS
 10
193.0102148976
 20
59.5033236358
 11
193.0102148976
 21
68.453600962
  0
LINE
  5
46B
100
AcDbEntity
  8
BEZUGSACHSEN
100
AcDbLine
 62
7
  6
CONTINUOUS
 10
191.7457815648
 20
37.4293570817
 11
166.7746482305
 21
23.0122665291
  0
LINE
  5
46C
100
AcDbEntity
  8
BEZUGSACHSEN
100
AcDbLine
 62
7
  6
CONTINUOUS
 10
166.7746482305
 20
85.0607542898
 11
191.7457815648
 21
70.6436637373
  0
LINE
  5
46D
100
AcDbEntity
  8
RUNDUNGEN
100
AcDbLine
 62
7
  6
CONTINUOUS
 10
193.0102148976
 20
39.6194198569
 11
191.7457815648
 21
37.4293570817
  0
LINE
  5
46E
100
AcDbEntity
  8
BEZUGSACHSEN
100
AcDbLine
 62
7
  6
CONTINUOUS
 10
164.2457815648
 20
85.0607542898
 11
166.7746482305
 21
85.0607542898
  0
LINE
  5
46F
100
AcDbEntity
  8
RUNDUNGEN
100
AcDbLine
 62
7
  6
CONTINUOUS
 10
191.7457815648
 20
70.6436637373
 11
193.0102148976
 21
68.453600962
  0
ARC
  5
470
100
AcDbEntity
  8
RUNDUNGEN
100
AcDbCircle
 62
7
  6
CONTINUOUS
 10
126.4988724811
 20
162.5858160327
 40
10.2290916924
100
AcDbArc
 50
348.1567501905
 51
349.536941035
  0
ARC
  5
471
100
AcDbEntity
  8
BEZUGSACHSEN
100
AcDbCircle
 62
7
  6
CONTINUOUS
 10
154.0102148976
 20
201.0861591
 40
6.0
100
AcDbArc
 50
339.999171163
 51
0.0005990832
  0
ARC
  5
472
100
AcDbEntity
  8
BEZUGSACHSEN
100
AcDbCircle
 62
7
  6
CONTINUOUS
 10
143.0102148976
 20
182.0281972158
 40
3.0
100
AcDbArc
 50
90.0
 51
180.0
  0
ARC
  5
473
100
AcDbEntity
  8
BEZUGSACHSEN
100
AcDbCircle
 62
7
  6
CONTINUOUS
 10
152.4500982101
 20
188.0281972158
 40
2.9999695329
100
AcDbArc
 50
269.9988647581
 51
339.9996117172
  0
ARC
  5
474
100
AcDbEntity
  8
RUNDUNGEN
100
AcDbCircle
 62
7
  6
CONTINUOUS
 10
136.5775342064
 20
177.2281972135
 40
1.4999999997
100
AcDbArc
 50
269.9999999998
 51
349.9999999899
  0
ARC
  5
475
100
AcDbEntity
  8
RUNDUNGEN
100
AcDbCircle
 62
7
  6
CONTINUOUS
 10
136.0102148976
 20
174.7281972158
 40
1.0
100
AcDbArc
 50
90.0
 51
180.0
  0
ARC
  5
476
100
AcDbEntity
  8
RUNDUNGEN
100
AcDbCircle
 62
7
  6
CONTINUOUS
 10
136.0102148976
 20
158.7281972158
 40
1.0
100
AcDbArc
 50
180.0
 51
270.0
  0
ARC
  5
477
100
AcDbEntity
  8
RUNDUNGEN
100
AcDbCircle
 62
7
  6
CONTINUOUS
 10
177.0102148976
 20
201.0861591
 40
6.0
100
AcDbArc
 50
179.9994009168
 51
200.000828837
  0
ARC
  5
478
100
AcDbEntity
  8
BEZUGSACHSEN
100
AcDbCircle
 62
7
  6
CONTINUOUS
 10
188.0102148976
 20
182.0281972158
 40
3.0
100
AcDbArc
 50
0.0
 51
90.0
  0
ARC
  5
479
100
AcDbEntity
  8
RUNDUNGEN
100
AcDbCircle
 62
7
  6
CONTINUOUS
 10
178.5703315851
 20
188.0281972158
 40
2.9999695329
100
AcDbArc
 50
200.0003882828
 51
270.0011352419
  0
ARC
  5
47A
100
AcDbEntity
  8
BEZUGSACHSEN
100
AcDbCircle
 62
7
  6
CONTINUOUS
 10
178.5703315851
 20
188.0281972158
 40
2.9999695329
100
AcDbArc
 50
200.0003882828
 51
230.3084876312
  0
ARC
  5
47B
100
AcDbEntity
  8
0
100
AcDbCircle
 62
7
  6
CONTINUOUS
 10
165.5102148976
 20
256.5281972158
 40
30.5
100
AcDbArc
 50
0.0
 51
180.0
  0
ARC
  5
47C
100
AcDbEntity
  8
0
100
AcDbCircle
 62
7
  6
CONTINUOUS
 10
165.5102148976
 20
221.5281972158
 40
30.5
100
AcDbArc
 50
285.8902692072
 51
360.0
  0
ARC
  5
47D
100
AcDbEntity
  8
0
100
AcDbCircle
 62
7
  6
CONTINUOUS
 10
165.5102148976
 20
221.5281972158
 40
30.5
100
AcDbArc
 50
180.0
 51
254.1097307928
  0
ARC
  5
47E
100
AcDbEntity
  8
0
100
AcDbCircle
 62
7
  6
CONTINUOUS
 10
165.5102148976
 20
221.5281972158
 40
17.5
100
AcDbArc
 50
288.3246461252
 51
360.0
  0
ARC
  5
47F
100
AcDbEntity
  8
0
100
AcDbCircle
 62
7
  6
CONTINUOUS
 10
165.5102148976
 20
221.5281972158
 40
17.5
100
AcDbArc
 50
180.0
 51
249.94807574
  0
ARC
  5
480
100
AcDbEntity
  8
0
100
AcDbCircle
 62
7
  6
CONTINUOUS
 10
165.5102148976
 20
256.5281972158
 40
17.5
100
AcDbArc
 50
0.0
 51
180.0
  0
ARC
  5
481
100
AcDbEntity
  8
RUNDUNGEN
100
AcDbCircle
 62
7
  6
CONTINUOUS
 10
162.5102148976
 20
217.2810206149
 40
2.5
100
AcDbArc
 50
90.0
 51
180.0
  0
ARC
  5
482
100
AcDbEntity
  8
RUNDUNGEN
100
AcDbCircle
 62
7
  6
CONTINUOUS
 10
168.5102148976
 20
217.2810206149
 40
2.5
100
AcDbArc
 50
0.0
 51
90.0
  0
ARC
  5
483
100
AcDbEntity
  8
BEZUGSACHSEN
100
AcDbCircle
 62
7
  6
CONTINUOUS
 10
239.9636855879
 20
182.2019447
 40
3.0000019648
100
AcDbArc
 50
103.822263961
 51
179.9999193984
  0
ARC
  5
484
100
AcDbEntity
  8
BEZUGSACHSEN
100
AcDbCircle
 62
7
  6
CONTINUOUS
 10
238.530218191
 20
188.0281972158
 40
3.0
100
AcDbArc
 50
283.8222962928
 51
22.5
  0
ARC
  5
485
100
AcDbEntity
  8
BEZUGSACHSEN
100
AcDbCircle
 62
7
  6
CONTINUOUS
 10
241.7108628938
 20
196.0281972158
 40
3.0
100
AcDbArc
 50
157.5
 51
202.5
  0
ARC
  5
486
100
AcDbEntity
  8
RUNDUNGEN
100
AcDbCircle
 62
7
  6
CONTINUOUS
 10
256.4636862929
 20
160.7281972158
 40
3.0
100
AcDbArc
 50
180.0
 51
270.0
  0
ARC
  5
487
100
AcDbEntity
  8
RUNDUNGEN
100
AcDbCircle
 62
7
  6
CONTINUOUS
 10
253.9636862929
 20
152.7281972158
 40
2.0
100
AcDbArc
 50
89.9999999774
 51
179.9999999849
  0
ARC
  5
488
100
AcDbEntity
  8
RUNDUNGEN
100
AcDbCircle
 62
7
  6
CONTINUOUS
 10
253.9636862929
 20
140.7281972158
 40
2.0
100
AcDbArc
 50
179.9999999774
 51
269.9999999849
  0
ARC
  5
489
100
AcDbEntity
  8
RUNDUNGEN
100
AcDbCircle
 62
7
  6
CONTINUOUS
 10
255.9636862925
 20
155.2281972162
 40
0.5000000004
100
AcDbArc
 50
270.0000000505
 51
359.9999999508
  0
ARC
  5
48A
100
AcDbEntity
  8
BEZUGSACHSEN
100
AcDbCircle
 62
7
  6
CONTINUOUS
 10
247.7892241386
 20
210.7026593701
 40
3.0
100
AcDbArc
 50
112.5
 51
157.5
  0
ARC
  5
48B
100
AcDbEntity
  8
RUNDUNGEN
100
AcDbCircle
 62
7
  6
CONTINUOUS
 10
262.4636862929
 20
166.7281972158
 40
9.0
100
AcDbArc
 50
0.0
 51
180.0
  0
ARC
  5
48C
100
AcDbEntity
  8
RUNDUNGEN
100
AcDbCircle
 62
7
  6
CONTINUOUS
 10
268.4636862929
 20
160.7281972158
 40
3.0
100
AcDbArc
 50
270.0
 51
360.0
  0
ARC
  5
48D
100
AcDbEntity
  8
RUNDUNGEN
100
AcDbCircle
 62
7
  6
CONTINUOUS
 10
270.9636862929
 20
140.7281972158
 40
2.0
100
AcDbArc
 50
269.9999999774
 51
359.9999999849
  0
ARC
  5
48E
100
AcDbEntity
  8
RUNDUNGEN
100
AcDbCircle
 62
7
  6
CONTINUOUS
 10
270.9636862929
 20
152.7281972158
 40
2.0
100
AcDbArc
 50
0.0
 51
89.9999999849
  0
ARC
  5
48F
100
AcDbEntity
  8
RUNDUNGEN
100
AcDbCircle
 62
7
  6
CONTINUOUS
 10
268.9636862929
 20
155.2281972158
 40
0.5
100
AcDbArc
 50
181.6568928532
 51
270.0
  0
ARC
  5
490
100
AcDbEntity
  8
RUNDUNGEN
100
AcDbCircle
 62
7
  6
CONTINUOUS
 10
262.4636862929
 20
196.0281972158
 40
8.0
100
AcDbArc
 50
11.8199694279
 51
28.7971873513
  0
ARC
  5
491
100
AcDbEntity
  8
BEZUGSACHSEN
100
AcDbCircle
 62
7
  6
CONTINUOUS
 10
262.4636862929
 20
196.0281972158
 40
8.0
100
AcDbArc
 50
144.4626878253
 51
35.5373121747
  0
ARC
  5
492
100
AcDbEntity
  8
0
100
AcDbCircle
 62
7
  6
CONTINUOUS
 10
262.4636862929
 20
197.5281972158
 40
6.5
100
AcDbArc
 50
180.0
 51
360.0
  0
ARC
  5
493
100
AcDbEntity
  8
BEZUGSACHSEN
100
AcDbCircle
 62
7
  6
CONTINUOUS
 10
284.963686998
 20
182.2019447
 40
3.0000019648
100
AcDbArc
 50
0.0000806016
 51
76.177736039
  0
ARC
  5
494
100
AcDbEntity
  8
BEZUGSACHSEN
100
AcDbCircle
 62
7
  6
CONTINUOUS
 10
283.216509692
 20
196.0281972158
 40
3.0
100
AcDbArc
 50
337.5
 51
22.5
  0
ARC
  5
495
100
AcDbEntity
  8
RUNDUNGEN
100
AcDbCircle
 62
7
  6
CONTINUOUS
 10
286.3971543948
 20
188.0281972158
 40
3.0
100
AcDbArc
 50
157.5
 51
246.6781584794
  0
ARC
  5
496
100
AcDbEntity
  8
BEZUGSACHSEN
100
AcDbCircle
 62
7
  6
CONTINUOUS
 10
286.3971543948
 20
188.0281972158
 40
3.0
100
AcDbArc
 50
157.5
 51
256.1777037072
  0
ARC
  5
497
100
AcDbEntity
  8
0
100
AcDbCircle
 62
7
  6
CONTINUOUS
 10
262.4636862929
 20
280.5281972158
 40
6.5
100
AcDbArc
 50
0.0
 51
180.0
  0
ARC
  5
498
100
AcDbEntity
  8
RUNDUNGEN
100
AcDbCircle
 62
7
  6
CONTINUOUS
 10
277.1381484472
 20
210.7026593701
 40
3.0
100
AcDbArc
 50
55.0035730081
 51
57.4964259674
  0
ARC
  5
499
100
AcDbEntity
  8
RUNDUNGEN
100
AcDbCircle
 62
7
  6
CONTINUOUS
 10
277.1381484472
 20
210.7026593701
 40
3.0
100
AcDbArc
 50
22.5
 51
34.9964240987
  0
ARC
  5
49A
100
AcDbEntity
  8
BEZUGSACHSEN
100
AcDbCircle
 62
7
  6
CONTINUOUS
 10
277.1381484472
 20
210.7026593701
 40
3.0
100
AcDbArc
 50
22.5
 51
67.5
  0
ARC
  5
49B
100
AcDbEntity
  8
RUNDUNGEN
100
AcDbCircle
 62
7
  6
CONTINUOUS
 10
136.5102148976
 20
43.5365104095
 40
1.5
100
AcDbArc
 50
0.0
 51
90.0
  0
ARC
  5
49C
100
AcDbEntity
  8
RUNDUNGEN
100
AcDbCircle
 62
7
  6
CONTINUOUS
 10
136.0102148976
 20
46.0365104095
 40
1.0
100
AcDbArc
 50
180.0
 51
270.0
  0
ARC
  5
49D
100
AcDbEntity
  8
0
100
AcDbCircle
 62
7
  6
CONTINUOUS
 10
141.5102148976
 20
54.0365104095
 40
6.5
100
AcDbArc
 50
90.0
 51
270.0
  0
ARC
  5
49E
100
AcDbEntity
  8
RUNDUNGEN
100
AcDbCircle
 62
7
  6
CONTINUOUS
 10
136.5102148976
 20
64.5365104095
 40
1.5
100
AcDbArc
 50
270.0000000002
 51
360.0
  0
ARC
  5
49F
100
AcDbEntity
  8
RUNDUNGEN
100
AcDbCircle
 62
7
  6
CONTINUOUS
 10
136.0102148976
 20
62.0365104095
 40
1.0
100
AcDbArc
 50
90.0
 51
180.0
  0
ARC
  5
4A0
100
AcDbEntity
  8
RUNDUNGEN
100
AcDbCircle
 62
7
  6
CONTINUOUS
 10
192.5102148976
 20
40.1194198569
 40
0.5
100
AcDbArc
 50
270.0
 51
360.0
  0
ARC
  5
4A1
100
AcDbEntity
  8
FASEN
100
AcDbCircle
 62
7
  6
CONTINUOUS
 10
165.5102148976
 20
54.0365104095
 40
27.4421273689
100
AcDbArc
 50
12.3162554795
 51
167.68374456
  0
ARC
  5
4A2
100
AcDbEntity
  8
FASEN
100
AcDbCircle
 62
7
  6
CONTINUOUS
 10
165.5102148976
 20
54.0365104095
 40
27.4421273689
100
AcDbArc
 50
192.3162554795
 51
347.68374456
  0
ARC
  5
4A3
100
AcDbEntity
  8
FASEN
100
AcDbCircle
 62
7
  6
CONTINUOUS
 10
165.5102148976
 20
54.0365104095
 40
26.2684791912
100
AcDbArc
 50
13.9336062405
 51
166.066393769
  0
ARC
  5
4A4
100
AcDbEntity
  8
FASEN
100
AcDbCircle
 62
7
  6
CONTINUOUS
 10
165.5102148976
 20
54.0365104095
 40
26.2684791912
100
AcDbArc
 50
193.9336062405
 51
346.066393769
  0
ARC
  5
4A5
100
AcDbEntity
  8
0
100
AcDbCircle
 62
7
  6
CONTINUOUS
 10
165.5102148976
 20
54.0365104095
 40
26.0
100
AcDbArc
 50
194.2073315656
 51
345.7926684344
  0
ARC
  5
4A6
100
AcDbEntity
  8
0
100
AcDbCircle
 62
7
  6
CONTINUOUS
 10
165.5102148976
 20
54.0365104095
 40
26.0
100
AcDbArc
 50
14.2073315656
 51
165.7926684344
  0
ARC
  5
4A7
100
AcDbEntity
  8
RUNDUNGEN
100
AcDbCircle
 62
7
  6
CONTINUOUS
 10
165.5102148976
 20
54.0365104095
 40
25.5
100
AcDbArc
 50
286.6370852354
 51
305.1078185359
  0
ARC
  5
4A8
100
AcDbEntity
  8
BEZUGSACHSEN
100
AcDbCircle
 62
7
  6
CONTINUOUS
 10
165.5102148976
 20
54.0365104095
 40
25.5
100
AcDbArc
 50
305.1078185359
 51
345.2967063289
  0
ARC
  5
4A9
100
AcDbEntity
  8
BEZUGSACHSEN
100
AcDbCircle
 62
7
  6
CONTINUOUS
 10
165.5102148976
 20
54.0365104095
 40
25.5
100
AcDbArc
 50
14.7032936711
 51
165.2967063289
  0
ARC
  5
4AA
100
AcDbEntity
  8
BEZUGSACHSEN
100
AcDbCircle
 62
7
  6
CONTINUOUS
 10
165.5102148976
 20
54.0365104095
 40
25.5
100
AcDbArc
 50
194.7032936711
 51
286.6370852354
  0
ARC
  5
4AB
100
AcDbEntity
  8
0
100
AcDbCircle
 62
7
  6
CONTINUOUS
 10
189.5102148976
 20
54.0365104095
 40
6.5
100
AcDbArc
 50
270.0
 51
90.0
  0
ARC
  5
4AC
100
AcDbEntity
  8
RUNDUNGEN
100
AcDbCircle
 62
7
  6
CONTINUOUS
 10
192.5102148976
 20
67.953600962
 40
0.5
100
AcDbArc
 50
0.0
 51
90.0
  0
SPLINE
  5
4AD
100
AcDbEntity
  8
RUNDUNGEN
100
AcDbSpline
 62
7
  6
CONTINUOUS
 70
0
 71
3
 72
29
 73
25
 74
0
 42
0.0000001
 43
0.0000001
 44
0.0000000001
 40
0.0
 40
0.0
 40
0.0
 40
0.0
 40
0.0615457787
 40
0.1195050148
 40
0.1450743564
 40
0.1559315326
 40
0.164707371
 40
0.1723262565
 40
0.1817377192
 40
0.1936815886
 40
0.2071869301
 40
0.2216529922
 40
0.2367223641
 40
0.2679044408
 40
0.2999048526
 40
0.3323704443
 40
0.3980807135
 40
0.4643721728
 40
0.5309810622
 40
0.5977797512
 40
0.664697378
 40
0.7316915281
 40
0.865808861
 40
1.0
 40
1.0
 40
1.0
 40
1.0
 10
193.0102148976
 20
157.8807246373
 30
0.0
 10
193.0102148976
 20
157.8412750799
 30
0.0
 10
193.0088367016
 20
157.7646089937
 30
0.0
 10
193.0015697667
 20
157.6719848991
 30
0.0
 10
192.988887387
 20
157.6121784483
 30
0.0
 10
192.9771979881
 20
157.5858805965
 30
0.0
 10
192.965712462
 20
157.5712902963
 30
0.0
 10
192.947519492
 20
157.5695744734
 30
0.0
 10
192.9317543864
 20
157.5809537048
 30
0.0
 10
192.9174725163
 20
157.5980284343
 30
0.0
 10
192.9035774219
 20
157.6196247188
 30
0.0
 10
192.8904585831
 20
157.6438929332
 30
0.0
 10
192.8736393744
 20
157.6790073235
 30
0.0
 10
192.8543025065
 20
157.7253138355
 30
0.0
 10
192.8329024762
 20
157.7827750701
 30
0.0
 10
192.8058960835
 20
157.8617317944
 30
0.0
 10
192.7746926182
 20
157.9624480994
 30
0.0
 10
192.7399468341
 20
158.0849270199
 30
0.0
 10
192.7071499611
 20
158.2086623501
 30
0.0
 10
192.6758996382
 20
158.333208734
 30
0.0
 10
192.6459298501
 20
158.4583226227
 30
0.0
 10
192.6074118983
 20
158.6257519845
 30
0.0
 10
192.5616492196
 20
158.8357529606
 30
0.0
 10
192.5270746369
 20
159.0042256557
 30
0.0
 10
192.5102148976
 20
159.0885708293
 30
0.0
  0
SPLINE
  5
4AE
100
AcDbEntity
  8
RUNDUNGEN
100
AcDbSpline
 62
7
  6
CONTINUOUS
 70
0
 71
3
 72
15
 73
11
 74
0
 42
0.0000001
 43
0.0000001
 44
0.0000000001
 40
0.0
 40
0.0
 40
0.0
 40
0.0
 40
0.2509425013
 40
0.3561740779
 40
0.4487608728
 40
0.5314132919
 40
0.6127712676
 40
0.7249061443
 40
0.8404264108
 40
1.0
 40
1.0
 40
1.0
 40
1.0
 10
192.5102148976
 20
173.0932678671
 30
0.0
 10
192.5455402913
 20
173.152141469
 30
0.0
 10
192.6009383656
 20
173.2332991329
 30
0.0
 10
192.6879759049
 20
173.3204467194
 30
0.0
 10
192.7511121206
 20
173.3649521151
 30
0.0
 10
192.8179764023
 20
173.3900301656
 30
0.0
 10
192.8970225747
 20
173.3840444859
 30
0.0
 10
192.9640863754
 20
173.3228680775
 30
0.0
 10
193.003065387
 20
173.2228483319
 30
0.0
 10
193.0102148976
 20
173.1469372169
 30
0.0
 10
193.0102148976
 20
173.1032775052
 30
0.0
  0
SPLINE
  5
4AF
100
AcDbEntity
  8
BEZUGSACHSEN
100
AcDbSpline
 62
7
  6
CONTINUOUS
 70
0
 71
3
 72
34
 73
30
 74
0
 42
0.0000001
 43
0.0000001
 44
0.0000000001
 40
0.0
 40
0.0
 40
0.0
 40
0.0
 40
0.0643438988
 40
0.1285350167
 40
0.1925139786
 40
0.2561817082
 40
0.2878510426
 40
0.3193654875
 40
0.3506712398
 40
0.3816873352
 40
0.4122883789
 40
0.4422851534
 40
0.4570077723
 40
0.4715193068
 40
0.4858341854
 40
0.500031415
 40
0.5142287277
 40
0.5285436097
 40
0.5577147032
 40
0.587711541
 40
0.6183126019
 40
0.6493287023
 40
0.6806344602
 40
0.7121489224
 40
0.743818273
 40
0.8074860087
 40
0.8714649757
 40
0.9356560985
 40
1.0
 40
1.0
 40
1.0
 40
1.0
 10
164.2457815648
 20
156.5821270026
 30
0.0
 10
163.9153752879
 20
157.5867772795
 30
0.0
 10
163.2369008363
 20
159.5877046067
 30
0.0
 10
162.1515773759
 20
162.5604004484
 30
0.0
 10
160.9810301045
 20
165.4887981062
 30
0.0
 10
159.9098742729
 20
167.8796669338
 30
0.0
 10
158.9721113754
 20
169.742280204
 30
0.0
 10
158.2214519459
 20
171.1024415266
 30
0.0
 10
157.4109489517
 20
172.4155324315
 30
0.0
 10
156.525121492
 20
173.6616510363
 30
0.0
 10
155.5437985514
 20
174.8069167026
 30
0.0
 10
154.6154957427
 20
175.6362764083
 30
0.0
 10
153.7954006017
 20
176.1648808723
 30
0.0
 10
153.1458660219
 20
176.4716212672
 30
0.0
 10
152.4632098501
 20
176.6692132401
 30
0.0
 10
151.7602266685
 20
176.7380654293
 30
0.0
 10
151.0572242219
 20
176.6692101459
 30
0.0
 10
150.1420352091
 20
176.4043787282
 30
0.0
 10
149.0810842985
 20
175.7944041502
 30
0.0
 10
147.9771708174
 20
174.8071869939
 30
0.0
 10
146.995165156
 20
173.6615790898
 30
0.0
 10
146.1095225856
 20
172.4155546235
 30
0.0
 10
145.2989673371
 20
171.1024386911
 30
0.0
 10
144.5483214404
 20
169.7422835053
 30
0.0
 10
143.6105553442
 20
167.8796666011
 30
0.0
 10
142.5394001356
 20
165.4887991554
 30
0.0
 10
141.3688523648
 20
162.5604007269
 30
0.0
 10
140.2835290098
 20
159.5877048079
 30
0.0
 10
139.605054521
 20
157.586777321
 30
0.0
 10
139.2746482305
 20
156.5821270026
 30
0.0
  0
SPLINE
  5
4B0
100
AcDbEntity
  8
BEZUGSACHSEN
100
AcDbSpline
 62
7
  6
CONTINUOUS
 70
0
 71
3
 72
11
 73
7
 74
0
 42
0.0000001
 43
0.0000001
 44
0.0000000001
 40
0.0
 40
0.0
 40
0.0
 40
0.0
 40
0.2546128952
 40
0.5
 40
0.7453871049
 40
1.0
 40
1.0
 40
1.0
 40
1.0
 10
139.2746482305
 20
156.5821270026
 30
0.0
 10
139.174060518
 20
156.6285882096
 30
0.0
 10
138.9673831952
 20
156.702104633
 30
0.0
 10
138.642431564
 20
156.7409674463
 30
0.0
 10
138.3174799329
 20
156.702104633
 30
0.0
 10
138.1108026101
 20
156.6285882096
 30
0.0
 10
138.0102148976
 20
156.5821270026
 30
0.0
  0
SPLINE
  5
4B1
100
AcDbEntity
  8
RUNDUNGEN
100
AcDbSpline
 62
7
  6
CONTINUOUS
 70
0
 71
3
 72
13
 73
9
 74
0
 42
0.0000001
 43
0.0000001
 44
0.0000000001
 40
0.0
 40
0.0
 40
0.0
 40
0.0
 40
0.073595118
 40
0.1657103939
 40
0.2748941428
 40
0.3994060017
 40
0.6852377878
 40
1.0
 40
1.0
 40
1.0
 40
1.0
 10
192.5102148976
 20
173.0932678671
 30
0.0
 10
192.3892767532
 20
172.8917113255
 30
0.0
 10
192.1549556122
 20
172.4152449908
 30
0.0
 10
191.8486338551
 20
171.5914085401
 30
0.0
 10
191.5726026765
 20
170.5866318893
 30
0.0
 10
191.2686358771
 20
168.9536760118
 30
0.0
 10
191.1486567119
 20
166.6283376015
 30
0.0
 10
191.3805649249
 20
164.7137092664
 30
0.0
 10
191.5791412242
 20
163.7281972158
 30
0.0
  0
SPLINE
  5
4B2
100
AcDbEntity
  8
RUNDUNGEN
100
AcDbSpline
 62
7
  6
CONTINUOUS
 70
0
 71
3
 72
8
 73
4
 74
0
 42
0.0000001
 43
0.0000001
 44
0.0000000001
 40
0.0
 40
0.0
 40
0.0
 40
0.0
 40
1.0
 40
1.0
 40
1.0
 40
1.0
 10
192.5102148976
 20
159.0885708293
 30
0.0
 10
192.2010299539
 20
160.6353478809
 30
0.0
 10
191.8907133912
 20
162.1818992621
 30
0.0
 10
191.5791412242
 20
163.7281972158
 30
0.0
  0
SPLINE
  5
4B3
100
AcDbEntity
  8
RUNDUNGEN
100
AcDbSpline
 62
7
  6
CONTINUOUS
 70
0
 71
3
 72
11
 73
7
 74
0
 42
0.0000001
 43
0.0000001
 44
0.0000000001
 40
0.0
 40
0.0
 40
0.0
 40
0.0
 40
0.2546128952
 40
0.5
 40
0.7453871049
 40
1.0
 40
1.0
 40
1.0
 40
1.0
 10
193.0102148976
 20
156.5821270026
 30
0.0
 10
192.9096271851
 20
156.6285882096
 30
0.0
 10
192.7029498623
 20
156.702104633
 30
0.0
 10
192.3779982312
 20
156.7409674463
 30
0.0
 10
192.0530466
 20
156.702104633
 30
0.0
 10
191.8463692772
 20
156.6285882096
 30
0.0
 10
191.7457815648
 20
156.5821270026
 30
0.0
  0
SPLINE
  5
4B4
100
AcDbEntity
  8
BEZUGSACHSEN
100
AcDbSpline
 62
7
  6
CONTINUOUS
 70
0
 71
3
 72
34
 73
30
 74
0
 42
0.0000001
 43
0.0000001
 44
0.0000000001
 40
0.0
 40
0.0
 40
0.0
 40
0.0
 40
0.0643438988
 40
0.1285350167
 40
0.1925139786
 40
0.2561817082
 40
0.2878510426
 40
0.3193654875
 40
0.3506712398
 40
0.3816873352
 40
0.4122883789
 40
0.4422851534
 40
0.4570077723
 40
0.4715193068
 40
0.4858341854
 40
0.500031415
 40
0.5142287277
 40
0.5285436097
 40
0.5577147032
 40
0.587711541
 40
0.6183126019
 40
0.6493287023
 40
0.6806344602
 40
0.7121489224
 40
0.743818273
 40
0.8074860087
 40
0.8714649757
 40
0.9356560985
 40
1.0
 40
1.0
 40
1.0
 40
1.0
 10
191.7457815648
 20
156.5821270026
 30
0.0
 10
191.4153752879
 20
157.5867772795
 30
0.0
 10
190.7369008363
 20
159.5877046067
 30
0.0
 10
189.6515773759
 20
162.5604004484
 30
0.0
 10
188.4810301045
 20
165.4887981062
 30
0.0
 10
187.4098742729
 20
167.8796669338
 30
0.0
 10
186.4721113754
 20
169.742280204
 30
0.0
 10
185.7214519459
 20
171.1024415266
 30
0.0
 10
184.9109489517
 20
172.4155324315
 30
0.0
 10
184.025121492
 20
173.6616510363
 30
0.0
 10
183.0437985514
 20
174.8069167026
 30
0.0
 10
182.1154957427
 20
175.6362764083
 30
0.0
 10
181.2954006017
 20
176.1648808723
 30
0.0
 10
180.6458660219
 20
176.4716212672
 30
0.0
 10
179.9632098501
 20
176.6692132401
 30
0.0
 10
179.2602266685
 20
176.7380654293
 30
0.0
 10
178.5572242219
 20
176.6692101459
 30
0.0
 10
177.6420352091
 20
176.4043787282
 30
0.0
 10
176.5810842985
 20
175.7944041502
 30
0.0
 10
175.4771708174
 20
174.8071869939
 30
0.0
 10
174.495165156
 20
173.6615790898
 30
0.0
 10
173.6095225856
 20
172.4155546235
 30
0.0
 10
172.7989673371
 20
171.1024386911
 30
0.0
 10
172.0483214404
 20
169.7422835053
 30
0.0
 10
171.1105553442
 20
167.8796666011
 30
0.0
 10
170.0394001356
 20
165.4887991554
 30
0.0
 10
168.8688523648
 20
162.5604007269
 30
0.0
 10
167.7835290098
 20
159.5877048079
 30
0.0
 10
167.105054521
 20
157.586777321
 30
0.0
 10
166.7746482305
 20
156.5821270026
 30
0.0
  0
LINE
  5
4B5
100
AcDbEntity
  8
RUNDUNGEN
100
AcDbLine
 62
7
  6
CONTINUOUS
 10
137.9232662928
 20
166.2666198929
 11
136.5102148976
 21
166.3980729662
  0
SPLINE
  5
4B6
100
AcDbEntity
  8
RUNDUNGEN
100
AcDbSpline
 62
7
  6
CONTINUOUS
 70
0
 71
3
 72
14
 73
10
 74
0
 42
0.0000001
 43
0.0000001
 44
0.0000000001
 40
0.0
 40
0.0
 40
0.0
 40
0.0
 40
0.063704398
 40
0.1070655893
 40
0.1577762133
 40
0.2751731301
 40
0.4070456682
 40
0.6946792233
 40
1.0
 40
1.0
 40
1.0
 40
1.0
 10
137.9232662928
 20
166.2666198929
 30
0.0
 10
137.9350026256
 20
166.265528847
 30
0.0
 10
137.951761022
 20
166.2496467265
 30
0.0
 10
137.9643796558
 20
166.2239209088
 30
0.0
 10
137.9773235329
 20
166.1866872077
 30
0.0
 10
137.9885294121
 20
166.1322858491
 30
0.0
 10
138.0011801669
 20
166.0336782593
 30
0.0
 10
138.0087070293
 20
165.8996684987
 30
0.0
 10
138.0102148976
 20
165.7899579329
 30
0.0
 10
138.0102148976
 20
165.7334658076
 30
0.0
  0
SPLINE
  5
4B7
100
AcDbEntity
  8
BEZUGSACHSEN
100
AcDbSpline
 62
7
  6
CONTINUOUS
 70
0
 71
3
 72
8
 73
4
 74
0
 42
0.0000001
 43
0.0000001
 44
0.0000000001
 40
0.0
 40
0.0
 40
0.0
 40
0.0
 40
1.0
 40
1.0
 40
1.0
 40
1.0
 10
165.5102252296
 20
156.7281978073
 30
0.0
 10
165.0859409353
 20
156.7281978073
 30
0.0
 10
164.659184182
 20
156.6776018081
 30
0.0
 10
164.2457815648
 20
156.5821270026
 30
0.0
  0
SPLINE
  5
4B8
100
AcDbEntity
  8
BEZUGSACHSEN
100
AcDbSpline
 62
7
  6
CONTINUOUS
 70
0
 71
3
 72
8
 73
4
 74
0
 42
0.0000001
 43
0.0000001
 44
0.0000000001
 40
0.0
 40
0.0
 40
0.0
 40
0.0
 40
1.0
 40
1.0
 40
1.0
 40
1.0
 10
166.7746482305
 20
156.5821270026
 30
0.0
 10
166.3612522802
 20
156.6776002684
 30
0.0
 10
165.9345026814
 20
156.7281978073
 30
0.0
 10
165.5102252296
 20
156.7281978073
 30
0.0
  0
LINE
  5
4B9
100
AcDbEntity
  8
RUNDUNGEN
100
AcDbLine
 62
7
  6
CONTINUOUS
 10
268.4637363802
 20
155.2281972158
 11
268.4638953444
 21
155.2137401132
  0
SPLINE
  5
4BA
100
AcDbEntity
  8
RUNDUNGEN
100
AcDbSpline
 62
7
  6
CONTINUOUS
 70
0
 71
3
 72
13
 73
9
 74
0
 42
0.0000001
 43
0.0000001
 44
0.0000000001
 40
0.0
 40
0.0
 40
0.0
 40
0.0
 40
0.1442671027
 40
0.2876207128
 40
0.5621181214
 40
0.6882195285
 40
0.8033736991
 40
1.0
 40
1.0
 40
1.0
 40
1.0
 10
268.4636862929
 20
156.2281972158
 30
0.0
 10
268.463687409
 20
156.3296716021
 30
0.0
 10
268.4429122343
 20
156.5326396002
 30
0.0
 10
268.3250511921
 20
156.912034626
 30
0.0
 10
268.1132389874
 20
157.2414171774
 30
0.0
 10
267.8467956704
 20
157.4899163095
 30
0.0
 10
267.5895705553
 20
157.6597601298
 30
0.0
 10
267.3699381828
 20
157.7281122788
 30
0.0
 10
267.2316354853
 20
157.7281972158
 30
0.0
  0
SPLINE
  5
4BB
100
AcDbEntity
  8
RUNDUNGEN
100
AcDbSpline
 62
7
  6
CONTINUOUS
 70
0
 71
3
 72
13
 73
9
 74
0
 42
0.0000001
 43
0.0000001
 44
0.0000000001
 40
0.0
 40
0.0
 40
0.0
 40
0.0
 40
0.1966264137
 40
0.3117805313
 40
0.4378819523
 40
0.7123792854
 40
0.8557328719
 40
1.0
 40
1.0
 40
1.0
 40
1.0
 10
257.6957371005
 20
157.7281972158
 30
0.0
 10
257.557434323
 20
157.7281123492
 30
0.0
 10
257.3378019053
 20
157.6597600854
 30
0.0
 10
257.0805767637
 20
157.4899162075
 30
0.0
 10
256.8141336183
 20
157.2414170891
 30
0.0
 10
256.6023208214
 20
156.9120346768
 30
0.0
 10
256.4844611774
 20
156.532639591
 30
0.0
 10
256.4636837406
 20
156.3296716204
 30
0.0
 10
256.4636862929
 20
156.2281972158
 30
0.0
  0
SPLINE
  5
4BC
100
AcDbEntity
  8
RUNDUNGEN
100
AcDbSpline
 62
7
  6
CONTINUOUS
 70
0
 71
3
 72
10
 73
6
 74
0
 42
0.0000001
 43
0.0000001
 44
0.0000000001
 40
0.0
 40
0.0
 40
0.0
 40
0.0
 40
0.2562626971
 40
0.5120928533
 40
1.0
 40
1.0
 40
1.0
 40
1.0
 10
251.9636862929
 20
165.7334658076
 30
0.0
 10
251.9921269407
 20
165.7909999612
 30
0.0
 10
252.0532611786
 20
165.9052337488
 30
0.0
 10
252.1865997549
 20
166.1095058178
 30
0.0
 10
252.3448341333
 20
166.2625762722
 30
0.0
 10
252.4669613219
 20
166.2666198929
 30
0.0
  0
SPLINE
  5
4BD
100
AcDbEntity
  8
RUNDUNGEN
100
AcDbSpline
 62
7
  6
CONTINUOUS
 70
0
 71
3
 72
10
 73
6
 74
0
 42
0.0000001
 43
0.0000001
 44
0.0000000001
 40
0.0
 40
0.0
 40
0.0
 40
0.0
 40
0.4879071467
 40
0.7437373029
 40
1.0
 40
1.0
 40
1.0
 40
1.0
 10
272.460411264
 20
166.2666198929
 30
0.0
 10
272.5825384526
 20
166.2625762722
 30
0.0
 10
272.740772831
 20
166.1095058178
 30
0.0
 10
272.8741114073
 20
165.9052337488
 30
0.0
 10
272.9352456452
 20
165.7909999612
 30
0.0
 10
272.9636862929
 20
165.7334658076
 30
0.0
  0
SPLINE
  5
4BE
100
AcDbEntity
  8
RUNDUNGEN
100
AcDbSpline
 62
7
  6
CONTINUOUS
 70
0
 71
3
 72
9
 73
5
 74
0
 42
0.0000001
 43
0.0000001
 44
0.0000000001
 40
0.0
 40
0.0
 40
0.0
 40
0.0
 40
0.4999834797
 40
1.0
 40
1.0
 40
1.0
 40
1.0
 10
251.9636862929
 20
165.7334658076
 30
0.0
 10
251.228306388
 20
164.2458252754
 30
0.0
 10
249.8630021858
 20
161.2181258742
 30
0.0
 10
248.635776707
 20
158.1336062086
 30
0.0
 10
248.0465957404
 20
156.5821270026
 30
0.0
  0
SPLINE
  5
4BF
100
AcDbEntity
  8
BEZUGSACHSEN
100
AcDbSpline
 62
7
  6
CONTINUOUS
 70
0
 71
3
 72
9
 73
5
 74
0
 42
0.0000001
 43
0.0000001
 44
0.0000000001
 40
0.0
 40
0.0
 40
0.0
 40
0.0
 40
0.5
 40
1.0
 40
1.0
 40
1.0
 40
1.0
 10
248.0465957404
 20
156.5821270026
 30
0.0
 10
247.6907877826
 20
156.6770126633
 30
0.0
 10
246.9515643527
 20
156.7793343618
 30
0.0
 10
246.2123409229
 20
156.6770126633
 30
0.0
 10
245.8565329651
 20
156.5821270026
 30
0.0
  0
SPLINE
  5
4C0
100
AcDbEntity
  8
BEZUGSACHSEN
100
AcDbSpline
 62
7
  6
CONTINUOUS
 70
0
 71
3
 72
39
 73
35
 74
0
 42
0.0000001
 43
0.0000001
 44
0.0000000001
 40
0.0
 40
0.0
 40
0.0
 40
0.0
 40
0.0696666103
 40
0.1387990656
 40
0.207186563
 40
0.2409999243
 40
0.274474598
 40
0.3075172729
 40
0.3399932348
 40
0.3716965788
 40
0.402305997
 40
0.4312982831
 40
0.4449446081
 40
0.4578380733
 40
0.4698211184
 40
0.4807730077
 40
0.4907181911
 40
0.4999998621
 40
0.5092815672
 40
0.5192267888
 40
0.5301785871
 40
0.5421618176
 40
0.555055174
 40
0.5687016611
 40
0.5976939552
 40
0.6283033662
 40
0.6600067065
 40
0.692482687
 40
0.7255253848
 40
0.7590000531
 40
0.7928134234
 40
0.8612009258
 40
0.9303333866
 40
1.0
 40
1.0
 40
1.0
 40
1.0
 10
245.8565329651
 20
156.5821270026
 30
0.0
 10
245.6661816428
 20
157.5846241477
 30
0.0
 10
245.2756529889
 20
159.5798232312
 30
0.0
 10
244.6498177325
 20
162.5493752378
 30
0.0
 10
244.085797604
 20
164.9949456135
 30
0.0
 10
243.600735218
 20
166.9221495379
 30
0.0
 10
243.2189576844
 20
168.3413192272
 30
0.0
 10
242.8143252231
 20
169.7338019059
 30
0.0
 10
242.3822285528
 20
171.0908681454
 30
0.0
 10
241.9165717878
 20
172.3992428423
 30
0.0
 10
241.4095419195
 20
173.6373001527
 30
0.0
 10
240.9353992954
 20
174.6015932368
 30
0.0
 10
240.5146586488
 20
175.2983708008
 30
0.0
 10
240.1860670871
 20
175.757976949
 30
0.0
 10
239.8366450312
 20
176.1513235526
 30
0.0
 10
239.4642447849
 20
176.4607023092
 30
0.0
 10
239.0669293831
 20
176.6654116598
 30
0.0
 10
238.6479937046
 20
176.7391986624
 30
0.0
 10
238.2290527152
 20
176.6654236107
 30
0.0
 10
237.8317443935
 20
176.4607012863
 30
0.0
 10
237.4593326799
 20
176.1513347275
 30
0.0
 10
237.1099178273
 20
175.7579807936
 30
0.0
 10
236.7813158962
 20
175.2983784462
 30
0.0
 10
236.3605829249
 20
174.6015945776
 30
0.0
 10
235.8864342377
 20
173.6373026527
 30
0.0
 10
235.3794049627
 20
172.3992447366
 30
0.0
 10
234.9137468175
 20
171.0908705451
 30
0.0
 10
234.4816501995
 20
169.7338036489
 30
0.0
 10
234.0770185892
 20
168.3413201931
 30
0.0
 10
233.6952399436
 20
166.9221504012
 30
0.0
 10
233.2101781411
 20
164.9949461957
 30
0.0
 10
232.6461575602
 20
162.5493756396
 30
0.0
 10
232.0203224336
 20
159.5798233955
 30
0.0
 10
231.6297937432
 20
157.5846241915
 30
0.0
 10
231.4394424126
 20
156.5821270026
 30
0.0
  0
SPLINE
  5
4C1
100
AcDbEntity
  8
BEZUGSACHSEN
100
AcDbSpline
 62
7
  6
CONTINUOUS
 70
0
 71
3
 72
39
 73
35
 74
0
 42
0.0000001
 43
0.0000001
 44
0.0000000001
 40
0.0
 40
0.0
 40
0.0
 40
0.0
 40
0.0696666103
 40
0.1387990656
 40
0.207186563
 40
0.2409999243
 40
0.274474598
 40
0.3075172729
 40
0.3399932348
 40
0.3716965788
 40
0.402305997
 40
0.4312982831
 40
0.4449446081
 40
0.4578380733
 40
0.4698211184
 40
0.4807730077
 40
0.4907181911
 40
0.4999998621
 40
0.5092815672
 40
0.5192267888
 40
0.5301785871
 40
0.5421618176
 40
0.555055174
 40
0.5687016611
 40
0.5976939552
 40
0.6283033662
 40
0.6600067065
 40
0.692482687
 40
0.7255253848
 40
0.7590000531
 40
0.7928134234
 40
0.8612009258
 40
0.9303333866
 40
1.0
 40
1.0
 40
1.0
 40
1.0
 10
293.4879301733
 20
156.5821270026
 30
0.0
 10
293.2975788509
 20
157.5846241477
 30
0.0
 10
292.907050197
 20
159.5798232312
 30
0.0
 10
292.2812149406
 20
162.5493752378
 30
0.0
 10
291.7171948122
 20
164.9949456135
 30
0.0
 10
291.2321324261
 20
166.9221495379
 30
0.0
 10
290.8503548926
 20
168.3413192272
 30
0.0
 10
290.4457224312
 20
169.7338019059
 30
0.0
 10
290.013625761
 20
171.0908681454
 30
0.0
 10
289.5479689959
 20
172.3992428423
 30
0.0
 10
289.0409391277
 20
173.6373001527
 30
0.0
 10
288.5667965035
 20
174.6015932368
 30
0.0
 10
288.146055857
 20
175.2983708008
 30
0.0
 10
287.8174642952
 20
175.757976949
 30
0.0
 10
287.4680422393
 20
176.1513235526
 30
0.0
 10
287.0956419931
 20
176.4607023092
 30
0.0
 10
286.6983265912
 20
176.6654116598
 30
0.0
 10
286.2793909128
 20
176.7391986624
 30
0.0
 10
285.8604499234
 20
176.6654236107
 30
0.0
 10
285.4631416016
 20
176.4607012863
 30
0.0
 10
285.0907298881
 20
176.1513347275
 30
0.0
 10
284.7413150354
 20
175.7579807936
 30
0.0
 10
284.4127131044
 20
175.2983784462
 30
0.0
 10
283.991980133
 20
174.6015945776
 30
0.0
 10
283.5178314459
 20
173.6373026527
 30
0.0
 10
283.0108021709
 20
172.3992447366
 30
0.0
 10
282.5451440256
 20
171.0908705451
 30
0.0
 10
282.1130474077
 20
169.7338036489
 30
0.0
 10
281.7084157974
 20
168.3413201931
 30
0.0
 10
281.3266371517
 20
166.9221504012
 30
0.0
 10
280.8415753493
 20
164.9949461957
 30
0.0
 10
280.2775547684
 20
162.5493756396
 30
0.0
 10
279.6517196417
 20
159.5798233955
 30
0.0
 10
279.2611909514
 20
157.5846241915
 30
0.0
 10
279.0708396207
 20
156.5821270026
 30
0.0
  0
SPLINE
  5
4C2
100
AcDbEntity
  8
BEZUGSACHSEN
100
AcDbSpline
 62
7
  6
CONTINUOUS
 70
0
 71
3
 72
9
 73
5
 74
0
 42
0.0000001
 43
0.0000001
 44
0.0000000001
 40
0.0
 40
0.0
 40
0.0
 40
0.0
 40
0.5
 40
1.0
 40
1.0
 40
1.0
 40
1.0
 10
279.0708396207
 20
156.5821270026
 30
0.0
 10
278.7150316629
 20
156.6770126633
 30
0.0
 10
277.9758082331
 20
156.7793343618
 30
0.0
 10
277.2365848032
 20
156.6770126633
 30
0.0
 10
276.8807768455
 20
156.5821270026
 30
0.0
  0
SPLINE
  5
4C3
100
AcDbEntity
  8
RUNDUNGEN
100
AcDbSpline
 62
7
  6
CONTINUOUS
 70
0
 71
3
 72
9
 73
5
 74
0
 42
0.0000001
 43
0.0000001
 44
0.0000000001
 40
0.0
 40
0.0
 40
0.0
 40
0.0
 40
0.5000165202
 40
1.0
 40
1.0
 40
1.0
 40
1.0
 10
276.8807768455
 20
156.5821270026
 30
0.0
 10
276.291595879
 20
158.1336062082
 30
0.0
 10
275.064370399
 20
161.2181258732
 30
0.0
 10
273.699066198
 20
164.245825275
 30
0.0
 10
272.9636862929
 20
165.7334658076
 30
0.0
  0
SPLINE
  5
4C4
100
AcDbEntity
  8
RUNDUNGEN
100
AcDbSpline
 62
7
  6
CONTINUOUS
 70
0
 71
3
 72
15
 73
11
 74
0
 42
0.0000001
 43
0.0000001
 44
0.0000000001
 40
0.0
 40
0.0
 40
0.0
 40
0.0
 40
0.0275205581
 40
0.051496133
 40
0.0831583897
 40
0.1699161539
 40
0.2870061281
 40
0.4320717753
 40
0.6018962695
 40
1.0
 40
1.0
 40
1.0
 40
1.0
 10
253.4636862929
 20
166.3986228472
 30
0.0
 10
253.4636873473
 20
166.3892934691
 30
0.0
 10
253.4467504535
 20
166.3759147463
 30
0.0
 10
253.4222628222
 20
166.3648472477
 30
0.0
 10
253.3757185549
 20
166.3495568143
 30
0.0
 10
253.2978550163
 20
166.3333408373
 30
0.0
 10
253.1807170654
 20
166.3154969154
 30
0.0
 10
253.0351662713
 20
166.2996558773
 30
0.0
 10
252.7942089081
 20
166.2801286806
 30
0.0
 10
252.6018432578
 20
166.2710858221
 30
0.0
 10
252.4669613219
 20
166.2666198929
 30
0.0
  0
SPLINE
  5
4C5
100
AcDbEntity
  8
RUNDUNGEN
100
AcDbSpline
 62
7
  6
CONTINUOUS
 70
0
 71
3
 72
15
 73
11
 74
0
 42
0.0000001
 43
0.0000001
 44
0.0000000001
 40
0.0
 40
0.0
 40
0.0
 40
0.0
 40
0.3982456842
 40
0.5681322288
 40
0.7132516084
 40
0.8303839554
 40
0.9171960415
 40
0.948864865
 40
0.9727713468
 40
1.0
 40
1.0
 40
1.0
 40
1.0
 10
272.460411264
 20
166.2666198929
 30
0.0
 10
272.3255327517
 20
166.2710857089
 30
0.0
 10
272.133172443
 20
166.2801278723
 30
0.0
 10
271.8922175721
 20
166.2996519206
 30
0.0
 10
271.746675992
 20
166.3155163791
 30
0.0
 10
271.6295119546
 20
166.3332821392
 30
0.0
 10
271.5516780315
 20
166.3496062581
 30
0.0
 10
271.5051494428
 20
166.3649285418
 30
0.0
 10
271.4807422127
 20
166.3757363764
 30
0.0
 10
271.4636860749
 20
166.3888460671
 30
0.0
 10
271.4636862929
 20
166.3980729662
 30
0.0
  0
SPLINE
  5
4C6
100
AcDbEntity
  8
RUNDUNGEN
100
AcDbSpline
 62
7
  6
CONTINUOUS
 70
0
 71
3
 72
18
 73
14
 74
0
 42
0.0000001
 43
0.0000001
 44
0.0000000001
 40
0.0
 40
0.0
 40
0.0
 40
0.0
 40
0.0243745022
 40
0.0473884623
 40
0.0723797916
 40
0.1021308687
 40
0.1383237891
 40
0.1817832396
 40
0.2914745417
 40
0.4309392129
 40
0.5977030738
 40
0.788530406
 40
1.0
 40
1.0
 40
1.0
 40
1.0
 10
191.5791412242
 20
68.453600962
 30
0.0
 10
191.5416038651
 20
68.453600962
 30
0.0
 10
191.4675331815
 20
68.4432795274
 30
0.0
 10
191.3693399499
 20
68.3842767918
 30
0.0
 10
191.2973075139
 20
68.2855515427
 30
0.0
 10
191.2497401772
 20
68.1525774328
 30
0.0
 10
191.2237269027
 20
67.9854526187
 30
0.0
 10
191.2156675072
 20
67.6934647707
 30
0.0
 10
191.2635493181
 20
67.2439394372
 30
0.0
 10
191.381042514
 20
66.6142386091
 30
0.0
 10
191.5529968783
 20
65.8681244483
 30
0.0
 10
191.7653903295
 20
65.017909871
 30
0.0
 10
191.9179156345
 20
64.4174221284
 30
0.0
 10
191.9971693332
 20
64.1015441617
 30
0.0
  0
LINE
  5
4C7
100
AcDbEntity
  8
RUNDUNGEN
100
AcDbLine
 62
7
  6
CONTINUOUS
 10
191.9971693332
 20
64.1015441617
 11
192.0130129586
 21
64.0383467393
  0
SPLINE
  5
4C8
100
AcDbEntity
  8
RUNDUNGEN
100
AcDbSpline
 62
7
  6
CONTINUOUS
 70
0
 71
3
 72
9
 73
5
 74
0
 42
0.0000001
 43
0.0000001
 44
0.0000000001
 40
0.0
 40
0.0
 40
0.0
 40
0.0
 40
0.2388534866
 40
1.0
 40
1.0
 40
1.0
 40
1.0
 10
192.0130129586
 20
64.0383467393
 30
0.0
 10
192.0543545267
 20
63.8733080028
 30
0.0
 10
192.2263921575
 20
63.1820887559
 30
0.0
 10
192.3913720587
 20
62.4890755727
 30
0.0
 10
192.5102148976
 20
61.9600880498
 30
0.0
  0
SPLINE
  5
4C9
100
AcDbEntity
  8
RUNDUNGEN
100
AcDbSpline
 62
7
  6
CONTINUOUS
 70
0
 71
3
 72
9
 73
5
 74
0
 42
0.0000001
 43
0.0000001
 44
0.0000000001
 40
0.0
 40
0.0
 40
0.0
 40
0.0
 40
0.2602502679
 40
1.0
 40
1.0
 40
1.0
 40
1.0
 10
192.5102148976
 20
46.1129327692
 30
0.0
 10
192.4695797745
 20
45.9320596654
 30
0.0
 10
192.3105114305
 20
45.2377186824
 30
0.0
 10
192.1410486004
 20
44.5458022248
 30
0.0
 10
192.0130085393
 20
44.0346564705
 30
0.0
  0
LINE
  5
4CA
100
AcDbEntity
  8
RUNDUNGEN
100
AcDbLine
 62
7
  6
CONTINUOUS
 10
192.0130085393
 20
44.0346564705
 11
191.996869327
 21
43.9702809583
  0
SPLINE
  5
4CB
100
AcDbEntity
  8
RUNDUNGEN
100
AcDbSpline
 62
7
  6
CONTINUOUS
 70
0
 71
3
 72
18
 73
14
 74
0
 42
0.0000001
 43
0.0000001
 44
0.0000000001
 40
0.0
 40
0.0
 40
0.0
 40
0.0
 40
0.2114728366
 40
0.402300543
 40
0.5690625094
 40
0.7085237991
 40
0.8182114276
 40
0.8616695379
 40
0.8978617822
 40
0.9276131681
 40
0.95260597
 40
0.9756224593
 40
1.0
 40
1.0
 40
1.0
 40
1.0
 10
191.996869327
 20
43.9702809583
 30
0.0
 10
191.9176334069
 20
43.6544829174
 30
0.0
 10
191.7651464859
 20
43.0541501389
 30
0.0
 10
191.5528180514
 20
42.2041574212
 30
0.0
 10
191.3809295835
 20
41.4582452095
 30
0.0
 10
191.26349627
 20
40.8287208265
 30
0.0
 10
191.2156572739
 20
40.3793246351
 30
0.0
 10
191.2237401739
 20
40.0874239106
 30
0.0
 10
191.2497647906
 20
39.9203490402
 30
0.0
 10
191.2973373251
 20
39.7874146423
 30
0.0
 10
191.3693685463
 20
39.6887207687
 30
0.0
 10
191.4675499891
 20
39.6297379413
 30
0.0
 10
191.5416091966
 20
39.6194198569
 30
0.0
 10
191.5791412242
 20
39.6194198569
 30
0.0
  0
SPLINE
  5
4CC
100
AcDbEntity
  8
RUNDUNGEN
100
AcDbSpline
 62
7
  6
CONTINUOUS
 70
0
 71
3
 72
27
 73
23
 74
0
 42
0.0000001
 43
0.0000001
 44
0.0000000001
 40
0.0
 40
0.0
 40
0.0
 40
0.0
 40
0.2573276202
 40
0.3888930856
 40
0.5219826764
 40
0.588976763
 40
0.6561790049
 40
0.7234801179
 40
0.7906852785
 40
0.824134214
 40
0.8573515997
 40
0.8901292256
 40
0.9062272432
 40
0.9219990525
 40
0.937248906
 40
0.9516168091
 40
0.9643601168
 40
0.9738993755
 40
0.9784041733
 40
0.98237199
 40
0.9900349348
 40
1.0
 40
1.0
 40
1.0
 40
1.0
 10
192.5102148976
 20
46.1129327692
 30
0.0
 10
192.5501401678
 20
46.2906462095
 30
0.0
 10
192.610683088
 20
46.5591743365
 30
0.0
 10
192.6923491182
 20
46.9195085097
 30
0.0
 10
192.7445504549
 20
47.1483808605
 30
0.0
 10
192.7870130741
 20
47.3327459637
 30
0.0
 10
192.8193230089
 20
47.4716633014
 30
0.0
 10
192.8521214233
 20
47.6106196301
 30
0.0
 10
192.8800268318
 20
47.7261824696
 30
0.0
 10
192.9028939087
 20
47.8181395869
 30
0.0
 10
192.9203200766
 20
47.886339368
 30
0.0
 10
192.9352248304
 20
47.9424999624
 30
0.0
 10
192.9474812499
 20
47.9865969584
 30
0.0
 10
192.9567197007
 20
48.0186178709
 30
0.0
 10
192.9661985491
 20
48.0494165703
 30
0.0
 10
192.9752787702
 20
48.0776570561
 30
0.0
 10
192.9853276686
 20
48.1026827707
 30
0.0
 10
192.9911651318
 20
48.1182141438
 30
0.0
 10
193.0027245737
 20
48.1315122519
 30
0.0
 10
193.0093575851
 20
48.1176820218
 30
0.0
 10
193.0094837866
 20
48.1038818232
 30
0.0
 10
193.0102148976
 20
48.0909377884
 30
0.0
 10
193.0102148976
 20
48.0838842608
 30
0.0
  0
SPLINE
  5
4CD
100
AcDbEntity
  8
RUNDUNGEN
100
AcDbSpline
 62
7
  6
CONTINUOUS
 70
0
 71
3
 72
27
 73
23
 74
0
 42
0.0000001
 43
0.0000001
 44
0.0000000001
 40
0.0
 40
0.0
 40
0.0
 40
0.0
 40
0.0099645627
 40
0.01762585
 40
0.0215936688
 40
0.0260829752
 40
0.0356333837
 40
0.0483544061
 40
0.0627212836
 40
0.0779734477
 40
0.093743454
 40
0.1098425808
 40
0.1426212029
 40
0.1758396493
 40
0.2092897389
 40
0.2764972148
 40
0.3438005763
 40
0.411004959
 40
0.4780011677
 40
0.6110949206
 40
0.7426644739
 40
1.0
 40
1.0
 40
1.0
 40
1.0
 10
193.0102148976
 20
59.9891365581
 30
0.0
 10
193.0102148976
 20
59.982083404
 30
0.0
 10
193.00948187
 20
59.969141345
 30
0.0
 10
193.0093590098
 20
59.9553413866
 30
0.0
 10
193.0027335855
 20
59.941526852
 30
0.0
 10
192.9911581807
 20
59.9547788245
 30
0.0
 10
192.9853486532
 20
59.9703183015
 30
0.0
 10
192.9752899719
 20
59.9953220527
 30
0.0
 10
192.9662153586
 20
60.0235515437
 30
0.0
 10
192.9567362129
 20
60.054348877
 30
0.0
 10
192.9474957497
 20
60.0863705422
 30
0.0
 10
192.935239636
 20
60.1304676526
 30
0.0
 10
192.9203332049
 20
60.1866300005
 30
0.0
 10
192.9029063856
 20
60.2548317697
 30
0.0
 10
192.8800382059
 20
60.3467916724
 30
0.0
 10
192.8521316549
 20
60.4623580901
 30
0.0
 10
192.8193321265
 20
60.6013186613
 30
0.0
 10
192.7870210833
 20
60.7402401028
 30
0.0
 10
192.7445572045
 20
60.9246105448
 30
0.0
 10
192.6923543087
 20
61.1534894612
 30
0.0
 10
192.6106859339
 20
61.5138338707
 30
0.0
 10
192.5501412934
 20
61.7823695989
 30
0.0
 10
192.5102148976
 20
61.9600880498
 30
0.0
  0
ENDSEC
  0
SECTION
  2
OBJECTS
  0
DICTIONARY
  5
C
100
AcDbDictionary
280
0
281
1
  3
ACAD_GROUP
350
D
  3
ACAD_MLINESTYLE
350
17
  3
ACAD_LAYOUT
350
1A
  3
ACAD_PLOTSETTINGS
350
19
  3
ACAD_PLOTSTYLENAME
350
E
  0
DICTIONARY
  5
D
102
{ACAD_REACTORS
330
C
102
}
100
AcDbDictionary
280
0
281
1
  0
ACDBDICTIONARYWDFLT
  5
E
102
{ACAD_REACTORS
330
C
102
}
100
AcDbDictionary
281
1
  3
Normal
350
F
100
AcDbDictionaryWithDefault
340
F
  0
DICTIONARY
  5
17
102
{ACAD_REACTORS
330
C
102
}
100
AcDbDictionary
280
0
281
1
  3
Standard
350
18
  0
DICTIONARY
  5
19
102
{ACAD_REACTORS
330
C
102
}
100
AcDbDictionary
281
1
  0
DICTIONARY
  5
1A
102
{ACAD_REACTORS
330
C
102
}
100
AcDbDictionary
281
1
  3
Model
350
4CE
  3
Layout1
350
4CF
  0
ACDBPLACEHOLDER
  5
F
102
{ACAD_REACTORS
330
E
102
}
  0
MLINESTYLE
  5
18
102
{ACAD_REACTORS
330
17
102
}
100
AcDbMlineStyle
  2
STANDARD
 70
0
  3

 62
256
 51
90.0
 52
90.0
 71
2
 49
0.5
 62
256
  6
BYLAYER
 49
-0.5
 62
256
  6
BYLAYER
  0
LAYOUT
  5
4CE
102
{ACAD_REACTORS
330
1A
102
}
100
AcDbPlotSettings
  1

  2
none_device
  4
ISO_A3_(420.00_x_297.00_MM)
  6

 40
0.0
 41
0.0
 42
0.0
 43
0.0
 44
420.0
 45
297.0
 46
0.0
 47
0.0
 48
0.0
 49
0.0
140
0.0
141
0.0
142
1.0
143
1.0
 70
1024
 72
1
 73
0
 74
0
  7

 75
0
147
1.0
148
0.0
149
0.0
100
AcDbLayout
  1
Model
 70
0
 71
0
 10
0.0
 20
0.0
 11
420.0
 21
297.0
 12
0.0
 22
0.0
 32
0.0
 14
0.0
 24
0.0
 34
0.0
 15
0.0
 25
0.0
 35
0.0
146
0.0
 13
0.0
 23
0.0
 33
0.0
 16
1.0
 26
0.0
 36
0.0
 17
0.0
 27
1.0
 37
0.0
 76
0
330
216
345
0
346
0
  0
LAYOUT
  5
4CF
102
{ACAD_REACTORS
330
1A
102
}
100
AcDbPlotSettings
  1

  2
none_device
  4
ISO_A3_(420.00_x_297.00_MM)
  6

 40
0.0
 41
0.0
 42
0.0
 43
0.0
 44
420.0
 45
297.0
 46
0.0
 47
0.0
 48
0.0
 49
0.0
140
0.0
141
0.0
142
1.0
143
1.0
 70
0
 72
1
 73
0
 74
0
  7

 75
0
147
1.0
148
0.0
149
0.0
100
AcDbLayout
  1
Layout1
 70
0
 71
1
 10
0.0
 20
0.0
 11
420.0
 21
297.0
 12
0.0
 22
0.0
 32
0.0
 14
0.0
 24
0.0
 34
0.0
 15
0.0
 25
0.0
 35
0.0
146
0.0
 13
0.0
 23
0.0
 33
0.0
 16
1.0
 26
0.0
 36
0.0
 17
0.0
 27
1.0
 37
0.0
 76
0
330
217
345
0
346
0
  0
ENDSEC
  0
EOF
