999
DXF file: 001-m32402-p-10.dxf
999
Pro/ENGINEER 2011490 by Parametric Technology Corporation
  0
SECTION
  2
HEADER
  9
$ACADVER
  1
AC1015
  9
$DWGCODEPAGE
  3
ANSI_1252
  9
$EXTMAX
 10
420.0
 20
297.0
 30
0.0
  9
$EXTMIN
 10
0.0
 20
0.0
 30
0.0
  9
$LIMMIN
 10
0.0
 20
0.0
  9
$LIMMAX
 10
420.0
 20
297.0
  9
$VIEWCTR
 10
210.0
 20
148.5
  9
$VIEWSIZE
 40
297.0
  9
$CLAYER
  8
0
  9
$LTSCALE
 40
23.1
  9
$CELTYPE
  6
BYLAYER
  9
$DIMSCALE
 40
1.0
  9
$DIMASZ
 40
3.5
  9
$DIMEXO
 40
2.625
  9
$DIMDLI
 40
15.96
  9
$DIMEXE
 40
7.56
  9
$DIMCEN
 40
3.78
  9
$DIMLFAC
 40
1.0
  9
$DIMBLK
  1
_FILLED
  9
$DIMTXT
 40
3.5
  9
$DIMTOL
 70
1
  9
$DIMLIM
 70
0
  9
$DIMTFAC
 40
1.0
  9
$DIMTP
 40
0.005
  9
$DIMTM
 40
0.005
  9
$PDMODE
 70
3
  9
$PDSIZE
 40
0.3125
  9
$HANDSEED
  5
3F2
  9
$TILEMODE
 70
1
  9
$MEASUREMENT
 70
1
  9
$INSUNITS
 70
4
  0
ENDSEC
  0
SECTION
  2
CLASSES
  0
CLASS
  1
ACDBDICTIONARYWDFLT
  2
AcDbDictionaryWithDefault
  3
AutoCAD 2000
 90
0
280
0
281
0
  0
CLASS
  1
ACDBPLACEHOLDER
  2
AcDbPlaceHolder
  3
AutoCAD 2000
 90
0
280
0
281
0
  0
CLASS
  1
LAYOUT
  2
AcDbLayout
  3
AutoCAD 2000
 90
0
280
0
281
0
  0
ENDSEC
  0
SECTION
  2
TABLES
  0
TABLE
  2
VPORT
  5
8
100
AcDbSymbolTable
 70
2
  0
VPORT
  5
1F4
100
AcDbSymbolTableRecord
100
AcDbViewportTableRecord
  2
*ACTIVE
 70
0
 10
0.0
 20
0.0
 11
1.0
 21
1.0
 12
210.0
 22
148.5
 13
0.0
 23
0.0
 14
1.0
 24
1.0
 15
0.0
 25
0.0
 16
0.0
 26
0.0
 36
1.0
 17
0.0
 27
0.0
 37
0.0
 40
297.0
 41
1.4141414141
 42
50.0
 43
0.0
 44
0.0
 50
0.0
 51
0.0
 71
0
 72
100
 73
1
 74
1
 75
0
 76
0
 77
0
 78
0
  0
ENDTAB
  0
TABLE
  2
LTYPE
  5
5
100
AcDbSymbolTable
 70
6
  0
LTYPE
  5
14
100
AcDbSymbolTableRecord
100
AcDbLinetypeTableRecord
  2
BYBLOCK
 70
0
  3

 72
65
 73
0
 40
0.0
  0
LTYPE
  5
15
100
AcDbSymbolTableRecord
100
AcDbLinetypeTableRecord
  2
BYLAYER
 70
0
  3

 72
65
 73
0
 40
0.0
  0
LTYPE
  5
16
100
AcDbSymbolTableRecord
100
AcDbLinetypeTableRecord
  2
CONTINUOUS
 70
64
  3
Solid line
 72
65
 73
0
 40
0.0
  0
LTYPE
  5
1F5
100
AcDbSymbolTableRecord
100
AcDbLinetypeTableRecord
  2
CENTER
 70
64
  3
____ _ ____ _ ____ _ ____ _ ____ _ ____ _ ____
 72
65
 73
4
 40
0.6
 49
0.375
 74
0
 49
-0.075
 74
0
 49
0.075
 74
0
 49
-0.075
 74
0
  0
LTYPE
  5
1F6
100
AcDbSymbolTableRecord
100
AcDbLinetypeTableRecord
  2
HIDDEN
 70
64
  3
- - - - - - - - - - - - - - - - - - - -
 72
65
 73
2
 40
0.2
 49
0.1
 74
0
 49
-0.1
 74
0
  0
LTYPE
  5
1F7
100
AcDbSymbolTableRecord
100
AcDbLinetypeTableRecord
  2
PHANTOM
 70
64
  3
_____ _ _ _____ _ _ _____ _ _ _____
 72
65
 73
6
 40
0.8
 49
0.45
 74
0
 49
-0.05
 74
0
 49
0.1
 74
0
 49
-0.05
 74
0
 49
0.1
 74
0
 49
-0.05
 74
0
  0
LTYPE
  5
1F8
100
AcDbSymbolTableRecord
100
AcDbLinetypeTableRecord
  2
DOT
 70
64
  3
. . . . . . . . . . . . . . . . . . . .
 72
65
 73
2
 40
0.2
 49
0.1
 74
0
 49
-0.1
 74
0
  0
LTYPE
  5
1F9
100
AcDbSymbolTableRecord
100
AcDbLinetypeTableRecord
  2
DASHED
 70
64
  3
- - - - - - - - - - - - - - - - - - - -
 72
65
 73
2
 40
0.2
 49
0.1
 74
0
 49
-0.1
 74
0
  0
ENDTAB
  0
TABLE
  2
LAYER
  5
2
100
AcDbSymbolTable
 70
36
  0
LAYER
  5
10
100
AcDbSymbolTableRecord
100
AcDbLayerTableRecord
  2
0
 70
0
 62
7
  6
CONTINUOUS
370
-3
390
F
  0
LAYER
  5
1FA
100
AcDbSymbolTableRecord
100
AcDbLayerTableRecord
  2
DEFAULT_1
 70
0
 62
7
  6
CENTER
370
-3
390
F
  0
LAYER
  5
1FB
100
AcDbSymbolTableRecord
100
AcDbLayerTableRecord
  2
DEFAULT_2
 70
0
 62
8
  6
HIDDEN
370
-3
390
F
  0
LAYER
  5
1FC
100
AcDbSymbolTableRecord
100
AcDbLayerTableRecord
  2
DEFAULT_3
 70
0
 62
7
  6
PHANTOM
370
-3
390
F
  0
LAYER
  5
1FD
100
AcDbSymbolTableRecord
100
AcDbLayerTableRecord
  2
AUSFORMSCHRAEGEN
 70
0
 62
7
  6
CONTINUOUS
370
-3
390
F
  0
LAYER
  5
1FE
100
AcDbSymbolTableRecord
100
AcDbLayerTableRecord
  2
B-EBENEN
 70
0
 62
7
  6
CONTINUOUS
370
-3
390
F
  0
LAYER
  5
1FF
100
AcDbSymbolTableRecord
100
AcDbLayerTableRecord
  2
B-KOORSYS
 70
0
 62
7
  6
CONTINUOUS
370
-3
390
F
  0
LAYER
  5
200
100
AcDbSymbolTableRecord
100
AcDbLayerTableRecord
  2
B-KURVEN
 70
0
 62
7
  6
CONTINUOUS
370
-3
390
F
  0
LAYER
  5
201
100
AcDbSymbolTableRecord
100
AcDbLayerTableRecord
  2
BEMASSUNG
 70
0
 62
7
  6
CONTINUOUS
370
-3
390
F
  0
LAYER
  5
202
100
AcDbSymbolTableRecord
100
AcDbLayerTableRecord
  2
BEZUGSACHSEN
 70
0
 62
7
  6
CONTINUOUS
370
-3
390
F
  0
LAYER
  5
203
100
AcDbSymbolTableRecord
100
AcDbLayerTableRecord
  2
BEZUGSEBENEN
 70
0
 62
7
  6
CONTINUOUS
370
-3
390
F
  0
LAYER
  5
204
100
AcDbSymbolTableRecord
100
AcDbLayerTableRecord
  2
BEZUGSPUNKTE
 70
0
 62
7
  6
CONTINUOUS
370
-3
390
F
  0
LAYER
  5
205
100
AcDbSymbolTableRecord
100
AcDbLayerTableRecord
  2
BG_STARTBEZUEGE
 70
0
 62
7
  6
CONTINUOUS
370
-3
390
F
  0
LAYER
  5
206
100
AcDbSymbolTableRecord
100
AcDbLayerTableRecord
  2
FASEN
 70
0
 62
7
  6
CONTINUOUS
370
-3
390
F
  0
LAYER
  5
207
100
AcDbSymbolTableRecord
100
AcDbLayerTableRecord
  2
FLAECHEN
 70
0
 62
7
  6
CONTINUOUS
370
-3
390
F
  0
LAYER
  5
208
100
AcDbSymbolTableRecord
100
AcDbLayerTableRecord
  2
FLAECHENVERBUND
 70
0
 62
7
  6
CONTINUOUS
370
-3
390
F
  0
LAYER
  5
209
100
AcDbSymbolTableRecord
100
AcDbLayerTableRecord
  2
HILFEN
 70
0
 62
7
  6
CONTINUOUS
370
-3
390
F
  0
LAYER
  5
20A
100
AcDbSymbolTableRecord
100
AcDbLayerTableRecord
  2
KONSTRUKTIONSELEMENTE
 70
0
 62
7
  6
CONTINUOUS
370
-3
390
F
  0
LAYER
  5
20B
100
AcDbSymbolTableRecord
100
AcDbLayerTableRecord
  2
KURVEN
 70
0
 62
7
  6
CONTINUOUS
370
-3
390
F
  0
LAYER
  5
20C
100
AcDbSymbolTableRecord
100
AcDbLayerTableRecord
  2
KURVENELEMENTE
 70
0
 62
7
  6
CONTINUOUS
370
-3
390
F
  0
LAYER
  5
20D
100
AcDbSymbolTableRecord
100
AcDbLayerTableRecord
  2
NORM
 70
0
 62
7
  6
CONTINUOUS
370
-3
390
F
  0
LAYER
  5
20E
100
AcDbSymbolTableRecord
100
AcDbLayerTableRecord
  2
NOTIZEN
 70
0
 62
7
  6
CONTINUOUS
370
-3
390
F
  0
LAYER
  5
20F
100
AcDbSymbolTableRecord
100
AcDbLayerTableRecord
  2
PLATZIERUNG
 70
0
 62
7
  6
CONTINUOUS
370
-3
390
F
  0
LAYER
  5
210
100
AcDbSymbolTableRecord
100
AcDbLayerTableRecord
  2
RUNDUNGEN
 70
0
 62
7
  6
CONTINUOUS
370
-3
390
F
  0
LAYER
  5
211
100
AcDbSymbolTableRecord
100
AcDbLayerTableRecord
  2
TEIL_STARTBEZUEGE
 70
0
 62
7
  6
CONTINUOUS
370
-3
390
F
  0
LAYER
  5
212
100
AcDbSymbolTableRecord
100
AcDbLayerTableRecord
  2
T_STARTBEZUEGE
 70
0
 62
7
  6
CONTINUOUS
370
-3
390
F
  0
LAYER
  5
213
100
AcDbSymbolTableRecord
100
AcDbLayerTableRecord
  2
ZEICHNUNGSBEMASSUNGEN
 70
0
 62
7
  6
CONTINUOUS
370
-3
390
F
  0
ENDTAB
  0
TABLE
  2
STYLE
  5
3
100
AcDbSymbolTable
 70
1
  0
STYLE
  5
11
100
AcDbSymbolTableRecord
100
AcDbTextStyleTableRecord
  2
STANDARD
 70
0
 40
0.0
 41
0.7
 50
0.0
 71
0
 42
0.2
  3
txt
  4

  0
STYLE
  5
214
100
AcDbSymbolTableRecord
100
AcDbTextStyleTableRecord
  2
TEXTSTYLE_1
 70
0
 40
0.0
 41
0.8
 50
0.0
 71
0
 42
0.2
  3
gdt
  4

  0
ENDTAB
  0
TABLE
  2
VIEW
  5
6
100
AcDbSymbolTable
 70
0
  0
ENDTAB
  0
TABLE
  2
UCS
  5
7
100
AcDbSymbolTable
 70
0
  0
ENDTAB
  0
TABLE
  2
APPID
  5
9
100
AcDbSymbolTable
 70
1
  0
APPID
  5
215
100
AcDbSymbolTableRecord
100
AcDbRegAppTableRecord
  2
ACAD
 70
0
  0
ENDTAB
  0
TABLE
  2
BLOCK_RECORD
  5
1
100
AcDbSymbolTable
 70
0
  0
BLOCK_RECORD
  5
216
100
AcDbSymbolTableRecord
100
AcDbBlockTableRecord
  2
*Model_Space
  0
BLOCK_RECORD
  5
217
100
AcDbSymbolTableRecord
100
AcDbBlockTableRecord
  2
*Paper_Space
  0
ENDTAB
  0
TABLE
  2
DIMSTYLE
  5
A
100
AcDbSymbolTable
 70
1
100
AcDbDimStyleTable
 71
0
  0
DIMSTYLE
105
218
100
AcDbSymbolTableRecord
100
AcDbDimStyleTableRecord
  2
STANDARD
 70
0
  3

  4

 40
1.0
 41
3.5
 42
0.0625
 43
0.38
 44
0.18
 45
0.0
 46
0.0
 47
0.005
 48
0.005
140
3.5
141
0.09
142
0.0
143
25.4
144
1.0
145
0.0
146
1.0
147
0.09
 71
1.0
 72
0.0
 73
0
 74
0
 75
0
 76
0
 77
1
 78
8
170
0
171
2
172
0
173
0
174
0
175
0
176
0
177
0
178
5
270
2
271
3
272
3
273
2
274
2
275
0
280
0
281
0
282
0
283
1
284
8
285
0
286
0
287
3
288
0
340
11
  0
ENDTAB
  0
ENDSEC
  0
SECTION
  2
BLOCKS
  0
BLOCK
  5
20
100
AcDbEntity
  8
0
100
AcDbBlockBegin
  2
*Model_Space
 70
0
 10
0.0
 20
0.0
 30
0.0
  3
*Model_Space
  1

  0
ENDBLK
  5
21
100
AcDbEntity
  8
0
100
AcDbBlockEnd
  0
BLOCK
  5
1C
100
AcDbEntity
  8
0
100
AcDbBlockBegin
  2
*Paper_Space
 70
0
 10
0.0
 20
0.0
 30
0.0
  3
*Paper_Space
  1

  0
ENDBLK
  5
1D
100
AcDbEntity
  8
0
100
AcDbBlockEnd
  0
ENDSEC
  0
SECTION
  2
ENTITIES
  0
MTEXT
  5
219
100
AcDbEntity
  8
0
100
AcDbMText
 62
5
  6
CONTINUOUS
  7
STANDARD
 71
1
 72
1
 10
145.5220470327
 20
53.6343158505
 30
0.0
 11
1.0
 21
0.0
 31
0.0
 44
0.9
  1
VWBG-V\P1,8t M18
 40
5.0
 41
27.5
  0
MTEXT
  5
21A
100
AcDbEntity
  8
0
100
AcDbMText
 62
5
  6
CONTINUOUS
  7
STANDARD
 71
1
 72
1
 10
135.0979219871
 20
160.0530335837
 30
0.0
 11
1.0
 21
0.0
 31
0.0
 44
0.9
  1
RUD VWBG-V \P1.8t M18
 40
6.0
 41
57.2857142857
  0
LINE
  5
21B
100
AcDbEntity
  8
0
100
AcDbLine
 62
7
  6
CONTINUOUS
 10
0.0
 20
0.0
 11
0.0
 21
297.0
  0
LINE
  5
21C
100
AcDbEntity
  8
0
100
AcDbLine
 62
7
  6
CONTINUOUS
 10
0.0
 20
0.0
 11
420.0
 21
0.0
  0
LINE
  5
21D
100
AcDbEntity
  8
0
100
AcDbLine
 62
7
  6
CONTINUOUS
 10
0.0
 20
297.0
 11
420.0
 21
297.0
  0
LINE
  5
21E
100
AcDbEntity
  8
0
100
AcDbLine
 62
7
  6
CONTINUOUS
 10
420.0
 20
0.0
 11
420.0
 21
297.0
  0
LINE
  5
21F
100
AcDbEntity
  8
0
100
AcDbLine
 62
7
  6
CONTINUOUS
 10
154.5335604399
 20
106.586333126
 11
168.5333157394
 21
106.586333126
  0
LINE
  5
220
100
AcDbEntity
  8
0
100
AcDbLine
 62
7
  6
CONTINUOUS
 10
170.5334380896
 20
108.586333126
 11
152.5334380896
 21
108.586333126
  0
LINE
  5
221
100
AcDbEntity
  8
0
100
AcDbLine
 62
7
  6
CONTINUOUS
 10
152.5334380896
 20
108.586333126
 11
154.5334380896
 21
106.586333126
  0
LINE
  5
222
100
AcDbEntity
  8
0
100
AcDbLine
 62
7
  6
CONTINUOUS
 10
189.0334380896
 20
133.586333126
 11
134.0334380896
 21
133.586333126
  0
LWPOLYLINE
  5
223
100
AcDbEntity
  8
RUNDUNGEN
100
AcDbPolyline
 62
7
  6
CONTINUOUS
 90
14
 70
0
 10
132.6856186035
 20
154.2831655262
 10
132.7847708697
 20
154.2724548216
 10
132.8926974234
 20
154.2523665776
 10
133.0055865295
 20
154.2218065764
 10
133.12036331
 20
154.1802136403
 10
133.2349218501
 20
154.1272194934
 10
133.3465062436
 20
154.0632494568
 10
133.4546009764
 20
153.9878099292
 10
133.5580975834
 20
153.9006223946
 10
133.6554630158
 20
153.8017692975
 10
133.7451790341
 20
153.6914442684
 10
133.8256817703
 20
153.570009512
 10
133.8953521709
 20
153.4380516911
 10
133.9525711376
 20
153.2963420671
  0
LINE
  5
224
100
AcDbEntity
  8
0
100
AcDbLine
 62
7
  6
CONTINUOUS
 10
132.5969464165
 20
154.286333126
 11
132.0334380896
 21
154.286333126
  0
LINE
  5
225
100
AcDbEntity
  8
RUNDUNGEN
100
AcDbLine
 62
7
  6
CONTINUOUS
 10
132.5969464165
 20
154.286333126
 11
132.0334380896
 21
154.286333126
  0
LINE
  5
226
100
AcDbEntity
  8
RUNDUNGEN
100
AcDbLine
 62
7
  6
CONTINUOUS
 10
132.5990730734
 20
154.286309436
 11
132.6856186035
 21
154.2831655262
  0
LWPOLYLINE
  5
227
100
AcDbEntity
  8
RUNDUNGEN
100
AcDbPolyline
 62
7
  6
CONTINUOUS
 90
3
 70
0
 10
133.9525711376
 20
153.2963420671
 10
133.9957077853
 20
153.1459149587
 10
134.0231588058
 20
152.9881036663
  0
LINE
  5
228
100
AcDbEntity
  8
RUNDUNGEN
100
AcDbLine
 62
7
  6
CONTINUOUS
 10
131.0334380896
 20
171.2862392587
 11
131.0334380896
 21
155.286333126
  0
LINE
  5
229
100
AcDbEntity
  8
0
100
AcDbLine
 62
7
  6
CONTINUOUS
 10
131.0334380896
 20
218.086333126
 11
131.0334380896
 21
253.086333126
  0
LINE
  5
22A
100
AcDbEntity
  8
0
100
AcDbLine
 62
7
  6
CONTINUOUS
 10
134.0334380896
 20
153.1402629128
 11
134.0334380896
 21
133.586333126
  0
LINE
  5
22B
100
AcDbEntity
  8
RUNDUNGEN
100
AcDbLine
 62
7
  6
CONTINUOUS
 10
134.0334380896
 20
153.1402629128
 11
134.0334380896
 21
162.2916017179
  0
LINE
  5
22C
100
AcDbEntity
  8
0
100
AcDbLine
 62
7
  6
CONTINUOUS
 10
135.2978714225
 20
153.1402629128
 11
135.2978714225
 21
133.586333126
  0
LINE
  5
22D
100
AcDbEntity
  8
0
100
AcDbLine
 62
7
  6
CONTINUOUS
 10
135.5334380896
 20
176.586333126
 11
135.5334380896
 21
174.586333126
  0
LINE
  5
22E
100
AcDbEntity
  8
BEZUGSACHSEN
100
AcDbLine
 62
7
  6
CONTINUOUS
 10
136.0334380896
 20
176.586333126
 11
136.0334380896
 21
178.586333126
  0
LINE
  5
22F
100
AcDbEntity
  8
BEZUGSACHSEN
100
AcDbLine
 62
7
  6
CONTINUOUS
 10
134.0913107207
 20
173.601525373
 11
134.0778881117
 21
173.5254019744
  0
LINE
  5
230
100
AcDbEntity
  8
0
100
AcDbLine
 62
7
  6
CONTINUOUS
 10
132.6008426475
 20
172.286333126
 11
132.0334380896
 21
172.286333126
  0
LINE
  5
231
100
AcDbEntity
  8
FASEN
100
AcDbLine
 62
7
  6
CONTINUOUS
 10
188.9755654586
 20
173.601525373
 11
134.0913107207
 21
173.601525373
  0
LINE
  5
232
100
AcDbEntity
  8
FASEN
100
AcDbLine
 62
7
  6
CONTINUOUS
 10
187.8016094097
 20
174.586333126
 11
135.2652667696
 21
174.586333126
  0
LINE
  5
233
100
AcDbEntity
  8
0
100
AcDbLine
 62
7
  6
CONTINUOUS
 10
187.5329836458
 20
176.586333126
 11
135.5338925335
 21
176.586333126
  0
LINE
  5
234
100
AcDbEntity
  8
0
100
AcDbLine
 62
7
  6
CONTINUOUS
 10
144.0334380896
 20
218.086333126
 11
144.0334380896
 21
253.086333126
  0
LINE
  5
235
100
AcDbEntity
  8
RUNDUNGEN
100
AcDbLine
 62
7
  6
CONTINUOUS
 10
174.4737419649
 20
181.586333126
 11
174.4736267047
 21
181.5863331193
  0
LINE
  5
236
100
AcDbEntity
  8
BEZUGSACHSEN
100
AcDbLine
 62
7
  6
CONTINUOUS
 10
148.5926692799
 20
181.586333126
 11
139.0367669367
 21
181.586333126
  0
LINE
  5
237
100
AcDbEntity
  8
BEZUGSACHSEN
100
AcDbLine
 62
7
  6
CONTINUOUS
 10
174.4737419617
 20
181.586333126
 11
184.0301092426
 21
181.586333126
  0
LINE
  5
238
100
AcDbEntity
  8
0
100
AcDbLine
 62
7
  6
CONTINUOUS
 10
152.5334380896
 20
133.586333126
 11
152.5334380896
 21
108.586333126
  0
LINE
  5
239
100
AcDbEntity
  8
0
100
AcDbLine
 62
7
  6
CONTINUOUS
 10
155.5334380896
 20
201.647779452
 11
155.5334380896
 21
204.4619286502
  0
LINE
  5
23A
100
AcDbEntity
  8
0
100
AcDbLine
 62
7
  6
CONTINUOUS
 10
155.5334380896
 20
204.9241303022
 11
155.5334380896
 21
209.3300209782
  0
LINE
  5
23B
100
AcDbEntity
  8
0
100
AcDbLine
 62
7
  6
CONTINUOUS
 10
155.5334380896
 20
209.3353091359
 11
155.5334380896
 21
209.5878091663
  0
LINE
  5
23C
100
AcDbEntity
  8
RUNDUNGEN
100
AcDbLine
 62
7
  6
CONTINUOUS
 10
156.0334380896
 20
213.8389600128
 11
156.0334380896
 21
207.7227350465
  0
LINE
  5
23D
100
AcDbEntity
  8
BEZUGSACHSEN
100
AcDbLine
 62
7
  6
CONTINUOUS
 10
156.0334380896
 20
207.7227350465
 11
156.0334380896
 21
197.6443577461
  0
LINE
  5
23E
100
AcDbEntity
  8
BEZUGSACHSEN
100
AcDbLine
 62
7
  6
CONTINUOUS
 10
155.6715641289
 20
195.5920925902
 11
151.2923398237
 21
183.5602726969
  0
LINE
  5
23F
100
AcDbEntity
  8
0
100
AcDbLine
 62
7
  6
CONTINUOUS
 10
160.2690047568
 20
153.1402629128
 11
160.2690047568
 21
133.586333126
  0
LINE
  5
240
100
AcDbEntity
  8
FASEN
100
AcDbLine
 62
7
  6
CONTINUOUS
 10
135.2649588984
 20
174.586333126
 11
134.0913107207
 21
173.601525373
  0
LINE
  5
241
100
AcDbEntity
  8
0
100
AcDbLine
 62
7
  6
CONTINUOUS
 10
162.7978714225
 20
153.1402629128
 11
162.7978714225
 21
133.586333126
  0
LINE
  5
242
100
AcDbEntity
  8
RUNDUNGEN
100
AcDbLine
 62
7
  6
CONTINUOUS
 10
167.0334380896
 20
213.8391565251
 11
167.0334380896
 21
197.6443577461
  0
LINE
  5
243
100
AcDbEntity
  8
FASEN
100
AcDbLine
 62
7
  6
CONTINUOUS
 10
187.8019172809
 20
174.586333126
 11
188.9755654586
 21
173.601525373
  0
LINE
  5
244
100
AcDbEntity
  8
RUNDUNGEN
100
AcDbLine
 62
7
  6
CONTINUOUS
 10
167.3953120504
 20
195.5920925902
 11
171.7745363556
 21
183.5602726969
  0
LINE
  5
245
100
AcDbEntity
  8
0
100
AcDbLine
 62
7
  6
CONTINUOUS
 10
170.5334380896
 20
133.586333126
 11
170.5334380896
 21
108.586333126
  0
LINE
  5
246
100
AcDbEntity
  8
0
100
AcDbLine
 62
7
  6
CONTINUOUS
 10
156.0334380896
 20
202.1825589307
 11
155.5334380896
 21
202.1825589307
  0
LINE
  5
247
100
AcDbEntity
  8
0
100
AcDbLine
 62
7
  6
CONTINUOUS
 10
156.0334380896
 20
202.4412031033
 11
155.5334380896
 21
202.4412031033
  0
LINE
  5
248
100
AcDbEntity
  8
0
100
AcDbLine
 62
7
  6
CONTINUOUS
 10
156.0334380896
 20
202.6996762893
 11
155.5334380896
 21
202.6996762893
  0
LINE
  5
249
100
AcDbEntity
  8
0
100
AcDbLine
 62
7
  6
CONTINUOUS
 10
156.0334380896
 20
203.0440797053
 11
155.5334380896
 21
203.0440797053
  0
LINE
  5
24A
100
AcDbEntity
  8
0
100
AcDbLine
 62
7
  6
CONTINUOUS
 10
156.0334380896
 20
203.3022119091
 11
155.5334380896
 21
203.3022119091
  0
LINE
  5
24B
100
AcDbEntity
  8
0
100
AcDbLine
 62
7
  6
CONTINUOUS
 10
156.0334380896
 20
203.5601730885
 11
155.5334380896
 21
203.5601730885
  0
LINE
  5
24C
100
AcDbEntity
  8
0
100
AcDbLine
 62
7
  6
CONTINUOUS
 10
156.0334380896
 20
204.2046498461
 11
155.5334380896
 21
204.2046498461
  0
LINE
  5
24D
100
AcDbEntity
  8
0
100
AcDbLine
 62
7
  6
CONTINUOUS
 10
156.0334380896
 20
204.3763399186
 11
155.5334380896
 21
204.3763399186
  0
LINE
  5
24E
100
AcDbEntity
  8
0
100
AcDbLine
 62
7
  6
CONTINUOUS
 10
156.0334380896
 20
204.4619286502
 11
155.5334380896
 21
204.4619286502
  0
LINE
  5
24F
100
AcDbEntity
  8
0
100
AcDbLine
 62
7
  6
CONTINUOUS
 10
156.0334380896
 20
204.9241303022
 11
155.5334380896
 21
204.9241303022
  0
LINE
  5
250
100
AcDbEntity
  8
0
100
AcDbLine
 62
7
  6
CONTINUOUS
 10
156.0334380896
 20
207.1633318863
 11
155.5334380896
 21
207.1633318863
  0
LINE
  5
251
100
AcDbEntity
  8
0
100
AcDbLine
 62
7
  6
CONTINUOUS
 10
156.0334380896
 20
207.3236500657
 11
155.5334380896
 21
207.3236500657
  0
LINE
  5
252
100
AcDbEntity
  8
0
100
AcDbLine
 62
7
  6
CONTINUOUS
 10
156.0334380896
 20
208.0718011617
 11
155.5334380896
 21
208.0718011617
  0
LINE
  5
253
100
AcDbEntity
  8
0
100
AcDbLine
 62
7
  6
CONTINUOUS
 10
156.0334380896
 20
208.232119341
 11
155.5334380896
 21
208.232119341
  0
LINE
  5
254
100
AcDbEntity
  8
0
100
AcDbLine
 62
7
  6
CONTINUOUS
 10
156.0334380896
 20
208.3288443562
 11
155.5334380896
 21
208.3288443562
  0
LINE
  5
255
100
AcDbEntity
  8
0
100
AcDbLine
 62
7
  6
CONTINUOUS
 10
179.0334380896
 20
253.086333126
 11
179.0334380896
 21
218.086333126
  0
LINE
  5
256
100
AcDbEntity
  8
0
100
AcDbLine
 62
7
  6
CONTINUOUS
 10
156.0334380896
 20
208.6532746578
 11
155.5334380896
 21
208.6532746578
  0
LINE
  5
257
100
AcDbEntity
  8
0
100
AcDbLine
 62
7
  6
CONTINUOUS
 10
156.0334380896
 20
208.9473888883
 11
155.5334380896
 21
208.9473888883
  0
LINE
  5
258
100
AcDbEntity
  8
0
100
AcDbLine
 62
7
  6
CONTINUOUS
 10
156.0334380896
 20
209.1160522419
 11
155.5334380896
 21
209.1160522419
  0
LINE
  5
259
100
AcDbEntity
  8
0
100
AcDbLine
 62
7
  6
CONTINUOUS
 10
156.0334380896
 20
209.2327930909
 11
155.5334380896
 21
209.2327930909
  0
LINE
  5
25A
100
AcDbEntity
  8
0
100
AcDbLine
 62
7
  6
CONTINUOUS
 10
156.0334380896
 20
209.3300209782
 11
155.5334380896
 21
209.3300209782
  0
LINE
  5
25B
100
AcDbEntity
  8
0
100
AcDbLine
 62
7
  6
CONTINUOUS
 10
156.0334380896
 20
209.3353091359
 11
155.5334380896
 21
209.3353091359
  0
LINE
  5
25C
100
AcDbEntity
  8
0
100
AcDbLine
 62
7
  6
CONTINUOUS
 10
156.0334380896
 20
209.5255444295
 11
155.5334380896
 21
209.5255444295
  0
LINE
  5
25D
100
AcDbEntity
  8
0
100
AcDbLine
 62
7
  6
CONTINUOUS
 10
156.0334380896
 20
209.5878091663
 11
155.5334380896
 21
209.5878091663
  0
LINE
  5
25E
100
AcDbEntity
  8
BEZUGSACHSEN
100
AcDbLine
 62
7
  6
CONTINUOUS
 10
187.0334380896
 20
178.586333126
 11
187.0334380896
 21
176.586333126
  0
LINE
  5
25F
100
AcDbEntity
  8
RUNDUNGEN
100
AcDbLine
 62
7
  6
CONTINUOUS
 10
164.5334380896
 20
216.3391565251
 11
158.5334380896
 21
216.3391565251
  0
LINE
  5
260
100
AcDbEntity
  8
BEZUGSACHSEN
100
AcDbLine
 62
7
  6
CONTINUOUS
 10
188.9755654586
 20
173.601525373
 11
189.0364058985
 21
173.2564820923
  0
LINE
  5
261
100
AcDbEntity
  8
0
100
AcDbLine
 62
7
  6
CONTINUOUS
 10
187.5334380896
 20
176.586333126
 11
187.5334380896
 21
174.586333126
  0
LINE
  5
262
100
AcDbEntity
  8
0
100
AcDbLine
 62
7
  6
CONTINUOUS
 10
187.7690047568
 20
153.1402629128
 11
187.7690047568
 21
133.586333126
  0
LINE
  5
263
100
AcDbEntity
  8
RUNDUNGEN
100
AcDbLine
 62
7
  6
CONTINUOUS
 10
189.0334380896
 20
173.2737239075
 11
189.0334380896
 21
133.586333126
  0
LINE
  5
264
100
AcDbEntity
  8
0
100
AcDbLine
 62
7
  6
CONTINUOUS
 10
192.0334380896
 20
253.086333126
 11
192.0334380896
 21
218.086333126
  0
LINE
  5
265
100
AcDbEntity
  8
0
100
AcDbLine
 62
7
  6
CONTINUOUS
 10
170.5334380896
 20
108.586333126
 11
168.5334380896
 21
106.586333126
  0
LINE
  5
266
100
AcDbEntity
  8
0
100
AcDbLine
 62
7
  6
CONTINUOUS
 10
269.4636862929
 20
106.586333126
 11
255.4636862929
 21
106.586333126
  0
LINE
  5
267
100
AcDbEntity
  8
0
100
AcDbLine
 62
7
  6
CONTINUOUS
 10
271.4636862929
 20
108.586333126
 11
253.4636862929
 21
108.586333126
  0
LINE
  5
268
100
AcDbEntity
  8
0
100
AcDbLine
 62
7
  6
CONTINUOUS
 10
253.4636862929
 20
108.586333126
 11
255.4636862929
 21
106.586333126
  0
LINE
  5
269
100
AcDbEntity
  8
0
100
AcDbLine
 62
7
  6
CONTINUOUS
 10
267.2003525622
 20
138.4346309968
 11
266.7836862929
 21
138.3282480307
  0
LINE
  5
26A
100
AcDbEntity
  8
0
100
AcDbLine
 62
7
  6
CONTINUOUS
 10
266.8878525622
 20
137.796333126
 11
267.4086862929
 21
137.9027161014
  0
LINE
  5
26B
100
AcDbEntity
  8
0
100
AcDbLine
 62
7
  6
CONTINUOUS
 10
293.4879301733
 20
133.586333126
 11
231.4394424126
 21
133.586333126
  0
LINE
  5
26C
100
AcDbEntity
  8
RUNDUNGEN
100
AcDbLine
 62
7
  6
CONTINUOUS
 10
270.9636862929
 20
135.286333126
 11
253.9636862924
 21
135.286333126
  0
LINE
  5
26D
100
AcDbEntity
  8
0
100
AcDbLine
 62
7
  6
CONTINUOUS
 10
256.7836862929
 20
137.796333126
 11
257.4086862929
 21
137.796333126
  0
LINE
  5
26E
100
AcDbEntity
  8
0
100
AcDbLine
 62
7
  6
CONTINUOUS
 10
258.8670195766
 20
137.796333126
 11
259.7003528602
 21
137.796333126
  0
LINE
  5
26F
100
AcDbEntity
  8
0
100
AcDbLine
 62
7
  6
CONTINUOUS
 10
261.1586862929
 20
137.796333126
 11
261.7836862929
 21
137.796333126
  0
LINE
  5
270
100
AcDbEntity
  8
0
100
AcDbLine
 62
7
  6
CONTINUOUS
 10
263.2420194276
 20
137.796333126
 11
263.8670194276
 21
137.796333126
  0
LINE
  5
271
100
AcDbEntity
  8
0
100
AcDbLine
 62
7
  6
CONTINUOUS
 10
266.2628531583
 20
137.796333126
 11
266.8878525622
 21
137.796333126
  0
LINE
  5
272
100
AcDbEntity
  8
0
100
AcDbLine
 62
7
  6
CONTINUOUS
 10
266.7836862929
 20
138.3282480307
 11
266.3670194276
 21
138.3282480307
  0
LINE
  5
273
100
AcDbEntity
  8
0
100
AcDbLine
 62
7
  6
CONTINUOUS
 10
265.9503531583
 20
140.0303757109
 11
266.3670194276
 21
140.1367586769
  0
LINE
  5
274
100
AcDbEntity
  8
0
100
AcDbLine
 62
7
  6
CONTINUOUS
 10
267.2003525622
 20
140.6686735072
 11
266.7836862929
 21
140.5622905411
  0
LINE
  5
275
100
AcDbEntity
  8
0
100
AcDbLine
 62
7
  6
CONTINUOUS
 10
265.9503531583
 20
142.1580353298
 11
266.3670194276
 21
142.2644182958
  0
LINE
  5
276
100
AcDbEntity
  8
0
100
AcDbLine
 62
7
  6
CONTINUOUS
 10
266.3670194276
 20
142.796333126
 11
265.8461862929
 21
142.68995016
  0
LINE
  5
277
100
AcDbEntity
  8
0
100
AcDbLine
 62
7
  6
CONTINUOUS
 10
266.3670194276
 20
140.1367586769
 11
266.7836862929
 21
140.1367586769
  0
LINE
  5
278
100
AcDbEntity
  8
0
100
AcDbLine
 62
7
  6
CONTINUOUS
 10
266.7836862929
 20
140.5622905411
 11
266.3670194276
 21
140.5622905411
  0
LINE
  5
279
100
AcDbEntity
  8
0
100
AcDbLine
 62
7
  6
CONTINUOUS
 10
266.3670194276
 20
142.2644182958
 11
266.7836862929
 21
142.2644182958
  0
LINE
  5
27A
100
AcDbEntity
  8
0
100
AcDbLine
 62
7
  6
CONTINUOUS
 10
266.7836862929
 20
142.796333126
 11
266.3670194276
 21
142.796333126
  0
LINE
  5
27B
100
AcDbEntity
  8
0
100
AcDbLine
 62
7
  6
CONTINUOUS
 10
263.8670194276
 20
142.796333126
 11
263.2420194276
 21
142.796333126
  0
LINE
  5
27C
100
AcDbEntity
  8
0
100
AcDbLine
 62
7
  6
CONTINUOUS
 10
261.7836862929
 20
142.796333126
 11
260.8461862929
 21
142.796333126
  0
LINE
  5
27D
100
AcDbEntity
  8
0
100
AcDbLine
 62
7
  6
CONTINUOUS
 10
257.7211862929
 20
142.796333126
 11
256.7836862929
 21
142.796333126
  0
LINE
  5
27E
100
AcDbEntity
  8
0
100
AcDbLine
 62
7
  6
CONTINUOUS
 10
265.7420194276
 20
137.9027161014
 11
266.2628531583
 21
137.796333126
  0
LINE
  5
27F
100
AcDbEntity
  8
0
100
AcDbLine
 62
7
  6
CONTINUOUS
 10
267.3045200236
 20
142.68995016
 11
266.7836862929
 21
142.796333126
  0
LINE
  5
280
100
AcDbEntity
  8
0
100
AcDbLine
 62
7
  6
CONTINUOUS
 10
266.3670194276
 20
138.3282480307
 11
265.9503531583
 21
138.4346309968
  0
LINE
  5
281
100
AcDbEntity
  8
0
100
AcDbLine
 62
7
  6
CONTINUOUS
 10
266.7836862929
 20
140.1367586769
 11
267.2003525622
 21
140.0303757109
  0
LINE
  5
282
100
AcDbEntity
  8
0
100
AcDbLine
 62
7
  6
CONTINUOUS
 10
266.3670194276
 20
140.5622905411
 11
265.9503531583
 21
140.6686735072
  0
LINE
  5
283
100
AcDbEntity
  8
0
100
AcDbLine
 62
7
  6
CONTINUOUS
 10
266.7836862929
 20
142.2644182958
 11
267.2003525622
 21
142.1580353298
  0
LINE
  5
284
100
AcDbEntity
  8
RUNDUNGEN
100
AcDbLine
 62
7
  6
CONTINUOUS
 10
270.9636862934
 20
151.286333126
 11
268.9636862929
 21
151.286333126
  0
LINE
  5
285
100
AcDbEntity
  8
RUNDUNGEN
100
AcDbLine
 62
7
  6
CONTINUOUS
 10
255.9636862929
 20
151.286333126
 11
253.9636862929
 21
151.286333126
  0
LINE
  5
286
100
AcDbEntity
  8
0
100
AcDbLine
 62
7
  6
CONTINUOUS
 10
265.9503531583
 20
138.4346309968
 11
265.5336862929
 21
138.6473969288
  0
LINE
  5
287
100
AcDbEntity
  8
0
100
AcDbLine
 62
7
  6
CONTINUOUS
 10
265.3253531583
 20
140.4559075751
 11
265.5336862929
 21
140.349524609
  0
LINE
  5
288
100
AcDbEntity
  8
0
100
AcDbLine
 62
7
  6
CONTINUOUS
 10
267.2003525622
 20
140.0303757109
 11
267.6170200236
 21
139.8176097788
  0
LINE
  5
289
100
AcDbEntity
  8
0
100
AcDbLine
 62
7
  6
CONTINUOUS
 10
267.8253525622
 20
140.243141643
 11
267.6170200236
 21
140.349524609
  0
LINE
  5
28A
100
AcDbEntity
  8
0
100
AcDbLine
 62
7
  6
CONTINUOUS
 10
265.2211862929
 20
138.2218650274
 11
265.7420194276
 21
137.9027161014
  0
LINE
  5
28B
100
AcDbEntity
  8
RUNDUNGEN
100
AcDbLine
 62
7
  6
CONTINUOUS
 10
268.4636862929
 20
154.286333126
 11
256.4636862929
 21
154.286333126
  0
LINE
  5
28C
100
AcDbEntity
  8
0
100
AcDbLine
 62
7
  6
CONTINUOUS
 10
267.8253525622
 20
142.3708012618
 11
267.3045200236
 21
142.68995016
  0
LINE
  5
28D
100
AcDbEntity
  8
0
100
AcDbLine
 62
7
  6
CONTINUOUS
 10
265.9503531583
 20
140.6686735072
 11
265.5336862929
 21
140.9878224053
  0
LINE
  5
28E
100
AcDbEntity
  8
0
100
AcDbLine
 62
7
  6
CONTINUOUS
 10
268.2420200236
 20
139.9239927449
 11
267.8253525622
 21
140.243141643
  0
LINE
  5
28F
100
AcDbEntity
  8
0
100
AcDbLine
 62
7
  6
CONTINUOUS
 10
267.2003525622
 20
142.1580353298
 11
267.6170200236
 21
141.8388864316
  0
LINE
  5
290
100
AcDbEntity
  8
0
100
AcDbLine
 62
7
  6
CONTINUOUS
 10
264.9086862929
 20
138.5410139628
 11
265.2211862929
 21
138.2218650274
  0
LINE
  5
291
100
AcDbEntity
  8
0
100
AcDbLine
 62
7
  6
CONTINUOUS
 10
231.4394424126
 20
153.1402629128
 11
231.4394424126
 21
133.586333126
  0
LINE
  5
292
100
AcDbEntity
  8
BEZUGSACHSEN
100
AcDbLine
 62
7
  6
CONTINUOUS
 10
231.4394424126
 20
153.1402629128
 11
231.4394424126
 21
153.2863337174
  0
LINE
  5
293
100
AcDbEntity
  8
0
100
AcDbLine
 62
7
  6
CONTINUOUS
 10
265.0128531583
 20
140.7750564732
 11
265.3253531583
 21
140.4559075751
  0
LINE
  5
294
100
AcDbEntity
  8
0
100
AcDbLine
 62
7
  6
CONTINUOUS
 10
268.1378525622
 20
142.0516523637
 11
267.8253525622
 21
142.3708012618
  0
LINE
  5
295
100
AcDbEntity
  8
0
100
AcDbLine
 62
7
  6
CONTINUOUS
 10
265.5336862929
 20
138.6473969288
 11
265.2211862929
 21
139.0729288675
  0
LINE
  5
296
100
AcDbEntity
  8
0
100
AcDbLine
 62
7
  6
CONTINUOUS
 10
236.4636862929
 20
176.586333126
 11
236.4636862929
 21
174.586333126
  0
LINE
  5
297
100
AcDbEntity
  8
BEZUGSACHSEN
100
AcDbLine
 62
7
  6
CONTINUOUS
 10
236.9636862929
 20
178.7600848305
 11
236.9636862929
 21
176.586333126
  0
LINE
  5
298
100
AcDbEntity
  8
0
100
AcDbLine
 62
7
  6
CONTINUOUS
 10
267.6170200236
 20
139.8176097788
 11
267.9295200236
 21
139.3920777656
  0
LINE
  5
299
100
AcDbEntity
  8
0
100
AcDbLine
 62
7
  6
CONTINUOUS
 10
265.5336862929
 20
140.9878224053
 11
265.3253531583
 21
141.3069713034
  0
LINE
  5
29A
100
AcDbEntity
  8
0
100
AcDbLine
 62
7
  6
CONTINUOUS
 10
267.6170200236
 20
141.8388864316
 11
267.8253525622
 21
141.5197372355
  0
LINE
  5
29B
100
AcDbEntity
  8
BEZUGSACHSEN
100
AcDbLine
 62
7
  6
CONTINUOUS
 10
235.021558924
 20
173.601525373
 11
231.4394424126
 21
153.286333126
  0
LINE
  5
29C
100
AcDbEntity
  8
FASEN
100
AcDbLine
 62
7
  6
CONTINUOUS
 10
231.4394426212
 20
153.286334309
 11
235.021558924
 21
173.601525373
  0
LINE
  5
29D
100
AcDbEntity
  8
BEZUGSACHSEN
100
AcDbLine
 62
7
  6
CONTINUOUS
 10
245.0175855411
 20
208.4088455774
 11
238.9392242963
 21
193.7343834231
  0
LINE
  5
29E
100
AcDbEntity
  8
RUNDUNGEN
100
AcDbLine
 62
7
  6
CONTINUOUS
 10
255.9636862929
 20
213.8939449706
 11
246.6411738415
 21
210.0324338778
  0
LINE
  5
29F
100
AcDbEntity
  8
FASEN
100
AcDbLine
 62
7
  6
CONTINUOUS
 10
289.9058136618
 20
173.601525373
 11
235.021558924
 21
173.601525373
  0
LINE
  5
2A0
100
AcDbEntity
  8
FASEN
100
AcDbLine
 62
7
  6
CONTINUOUS
 10
288.7321654841
 20
174.586333126
 11
236.1952071017
 21
174.586333126
  0
LINE
  5
2A1
100
AcDbEntity
  8
0
100
AcDbLine
 62
7
  6
CONTINUOUS
 10
288.4636862929
 20
176.586333126
 11
236.4636862929
 21
176.586333126
  0
LINE
  5
2A2
100
AcDbEntity
  8
0
100
AcDbLine
 62
7
  6
CONTINUOUS
 10
264.8045194276
 20
141.2005883374
 11
265.0128531583
 21
140.7750564732
  0
LINE
  5
2A3
100
AcDbEntity
  8
BEZUGSACHSEN
100
AcDbLine
 62
7
  6
CONTINUOUS
 10
238.9392242963
 20
191.4382828289
 11
241.3018567886
 21
185.7343834231
  0
LINE
  5
2A4
100
AcDbEntity
  8
0
100
AcDbLine
 62
7
  6
CONTINUOUS
 10
264.7003531583
 20
139.0729288675
 11
264.9086862929
 21
138.5410139628
  0
LINE
  5
2A5
100
AcDbEntity
  8
0
100
AcDbLine
 62
7
  6
CONTINUOUS
 10
257.4086862929
 20
141.7325034656
 11
258.8670195766
 21
137.796333126
  0
LINE
  5
2A6
100
AcDbEntity
  8
0
100
AcDbLine
 62
7
  6
CONTINUOUS
 10
259.2836862929
 20
138.3282480307
 11
257.7211862929
 21
142.796333126
  0
LINE
  5
2A7
100
AcDbEntity
  8
0
100
AcDbLine
 62
7
  6
CONTINUOUS
 10
250.2869899902
 20
200.6124633353
 11
250.3050578179
 21
200.3966153754
  0
LINE
  5
2A8
100
AcDbEntity
  8
0
100
AcDbLine
 62
7
  6
CONTINUOUS
 10
245.8565329651
 20
153.1402629128
 11
245.8565329651
 21
133.586333126
  0
LINE
  5
2A9
100
AcDbEntity
  8
0
100
AcDbLine
 62
7
  6
CONTINUOUS
 10
248.0465957404
 20
153.1402629128
 11
248.0465957404
 21
133.586333126
  0
LINE
  5
2AA
100
AcDbEntity
  8
0
100
AcDbLine
 62
7
  6
CONTINUOUS
 10
247.8690703059
 20
198.6286439473
 11
247.8672987374
 21
198.4423889714
  0
LINE
  5
2AB
100
AcDbEntity
  8
0
100
AcDbLine
 62
7
  6
CONTINUOUS
 10
250.6625281369
 20
200.2473175382
 11
250.6747870942
 21
200.512990197
  0
LINE
  5
2AC
100
AcDbEntity
  8
0
100
AcDbLine
 62
7
  6
CONTINUOUS
 10
250.3050578179
 20
200.3966153754
 11
250.2382748966
 21
200.1641297662
  0
LINE
  5
2AD
100
AcDbEntity
  8
0
100
AcDbLine
 62
7
  6
CONTINUOUS
 10
250.5654186327
 20
199.9650074979
 11
250.6625281369
 21
200.2473175382
  0
LINE
  5
2AE
100
AcDbEntity
  8
0
100
AcDbLine
 62
7
  6
CONTINUOUS
 10
246.6517071596
 20
198.8366427911
 11
246.1595014679
 21
197.5261460782
  0
LINE
  5
2AF
100
AcDbEntity
  8
0
100
AcDbLine
 62
7
  6
CONTINUOUS
 10
246.5813236057
 20
197.7415558228
 11
246.9709864254
 21
198.7790323351
  0
LINE
  5
2B0
100
AcDbEntity
  8
0
100
AcDbLine
 62
7
  6
CONTINUOUS
 10
247.8672987374
 20
198.4423889714
 11
247.4776359177
 21
197.4049124592
  0
LINE
  5
2B1
100
AcDbEntity
  8
0
100
AcDbLine
 62
7
  6
CONTINUOUS
 10
247.8361607755
 20
197.2702551388
 11
248.1848064641
 21
198.1985236177
  0
LINE
  5
2B2
100
AcDbEntity
  8
0
100
AcDbLine
 62
7
  6
CONTINUOUS
 10
248.9679465225
 20
196.4713302766
 11
249.0909979454
 21
196.7989544548
  0
LINE
  5
2B3
100
AcDbEntity
  8
0
100
AcDbLine
 62
7
  6
CONTINUOUS
 10
249.603712188
 20
198.1640551453
 11
249.7472722206
 21
198.5462834574
  0
LINE
  5
2B4
100
AcDbEntity
  8
0
100
AcDbLine
 62
7
  6
CONTINUOUS
 10
252.0938892112
 20
202.6558577013
 11
251.9840455189
 21
202.4403496398
  0
LINE
  5
2B5
100
AcDbEntity
  8
0
100
AcDbLine
 62
7
  6
CONTINUOUS
 10
252.267270963
 20
202.1825589307
 11
252.41637697
 21
202.4412031033
  0
LINE
  5
2B6
100
AcDbEntity
  8
0
100
AcDbLine
 62
7
  6
CONTINUOUS
 10
248.4880200033
 20
202.3219925916
 11
248.3060597836
 21
202.0230448817
  0
LINE
  5
2B7
100
AcDbEntity
  8
0
100
AcDbLine
 62
7
  6
CONTINUOUS
 10
247.5782189049
 20
200.8272540419
 11
247.3962585984
 21
200.5283061894
  0
LINE
  5
2B8
100
AcDbEntity
  8
0
100
AcDbLine
 62
7
  6
CONTINUOUS
 10
250.2382748966
 20
200.1641297662
 11
250.1169680256
 21
199.9648311978
  0
LINE
  5
2B9
100
AcDbEntity
  8
0
100
AcDbLine
 62
7
  6
CONTINUOUS
 10
250.4441117618
 20
199.7657089296
 11
250.5654186327
 21
199.9650074979
  0
LINE
  5
2BA
100
AcDbEntity
  8
0
100
AcDbLine
 62
7
  6
CONTINUOUS
 10
246.8140041746
 20
199.087220105
 11
246.6517071596
 21
198.8366427911
  0
LINE
  5
2BB
100
AcDbEntity
  8
0
100
AcDbLine
 62
7
  6
CONTINUOUS
 10
246.9709864254
 20
198.7790323351
 11
247.0922662798
 21
198.9204015375
  0
LINE
  5
2BC
100
AcDbEntity
  8
0
100
AcDbLine
 62
7
  6
CONTINUOUS
 10
250.0486716454
 20
204.2019194899
 11
249.106383182
 21
203.1666608125
  0
LINE
  5
2BD
100
AcDbEntity
  8
0
100
AcDbLine
 62
7
  6
CONTINUOUS
 10
249.6251807089
 20
203.1676848029
 11
250.3318970564
 21
203.944128811
  0
LINE
  5
2BE
100
AcDbEntity
  8
0
100
AcDbLine
 62
7
  6
CONTINUOUS
 10
251.9840455189
 20
202.4403496398
 11
251.2773291714
 21
201.6639056317
  0
LINE
  5
2BF
100
AcDbEntity
  8
0
100
AcDbLine
 62
7
  6
CONTINUOUS
 10
251.3249824996
 20
201.1473002533
 11
252.267270963
 21
202.1825589307
  0
LINE
  5
2C0
100
AcDbEntity
  8
0
100
AcDbLine
 62
7
  6
CONTINUOUS
 10
250.2379543488
 20
199.5497729767
 11
250.4441117618
 21
199.7657089296
  0
LINE
  5
2C1
100
AcDbEntity
  8
0
100
AcDbLine
 62
7
  6
CONTINUOUS
 10
250.1169680256
 20
199.9648311978
 11
249.9411373785
 21
199.7987199554
  0
LINE
  5
2C2
100
AcDbEntity
  8
0
100
AcDbLine
 62
7
  6
CONTINUOUS
 10
250.2921861269
 20
204.3746334325
 11
250.0486716454
 21
204.2019194899
  0
LINE
  5
2C3
100
AcDbEntity
  8
0
100
AcDbLine
 62
7
  6
CONTINUOUS
 10
250.3318970564
 20
203.944128811
 11
250.536149219
 21
204.0737066462
  0
LINE
  5
2C4
100
AcDbEntity
  8
0
100
AcDbLine
 62
7
  6
CONTINUOUS
 10
254.5982213808
 20
207.6794207352
 11
254.280462878
 21
207.5327619861
  0
LINE
  5
2C5
100
AcDbEntity
  8
0
100
AcDbLine
 62
7
  6
CONTINUOUS
 10
250.5436425247
 20
204.4612461545
 11
250.2921861269
 21
204.3746334325
  0
LINE
  5
2C6
100
AcDbEntity
  8
BEZUGSACHSEN
100
AcDbLine
 62
7
  6
CONTINUOUS
 10
280.870167098
 20
181.586333126
 11
244.0577743541
 21
181.586333126
  0
LINE
  5
2C7
100
AcDbEntity
  8
0
100
AcDbLine
 62
7
  6
CONTINUOUS
 10
268.4503525622
 20
139.3920777656
 11
268.2420200236
 21
139.9239927449
  0
LINE
  5
2C8
100
AcDbEntity
  8
0
100
AcDbLine
 62
7
  6
CONTINUOUS
 10
268.3461862929
 20
141.5197372355
 11
268.1378525622
 21
142.0516523637
  0
LINE
  5
2C9
100
AcDbEntity
  8
0
100
AcDbLine
 62
7
  6
CONTINUOUS
 10
248.1883496304
 20
198.5710336475
 11
248.1508756068
 21
198.8343354877
  0
LINE
  5
2CA
100
AcDbEntity
  8
0
100
AcDbLine
 62
7
  6
CONTINUOUS
 10
252.4790164147
 20
202.6996762893
 11
252.4472473849
 21
203.0440797053
  0
LINE
  5
2CB
100
AcDbEntity
  8
RUNDUNGEN
100
AcDbLine
 62
7
  6
CONTINUOUS
 10
251.9636862929
 20
149.2863331265
 11
251.9636862929
 21
137.286333126
  0
LINE
  5
2CC
100
AcDbEntity
  8
0
100
AcDbLine
 62
7
  6
CONTINUOUS
 10
253.4636862929
 20
133.586333126
 11
253.4636862929
 21
108.586333126
  0
LINE
  5
2CD
100
AcDbEntity
  8
RUNDUNGEN
100
AcDbLine
 62
7
  6
CONTINUOUS
 10
253.4636862929
 20
157.286333126
 11
253.4636862929
 21
163.286333126
  0
LINE
  5
2CE
100
AcDbEntity
  8
0
100
AcDbLine
 62
7
  6
CONTINUOUS
 10
255.9636862929
 20
194.1534419937
 11
255.9636862929
 21
277.0192242584
  0
LINE
  5
2CF
100
AcDbEntity
  8
RUNDUNGEN
100
AcDbLine
 62
7
  6
CONTINUOUS
 10
256.4636862929
 20
151.7863331249
 11
256.4636862929
 21
152.7863331275
  0
LINE
  5
2D0
100
AcDbEntity
  8
0
100
AcDbLine
 62
7
  6
CONTINUOUS
 10
256.7836862929
 20
142.796333126
 11
256.7836862929
 21
137.796333126
  0
LINE
  5
2D1
100
AcDbEntity
  8
0
100
AcDbLine
 62
7
  6
CONTINUOUS
 10
252.1172667657
 20
202.8711952924
 11
252.0938892112
 21
202.6558577013
  0
LINE
  5
2D2
100
AcDbEntity
  8
0
100
AcDbLine
 62
7
  6
CONTINUOUS
 10
252.41637697
 20
202.4412031033
 11
252.4790164147
 21
202.6996762893
  0
LINE
  5
2D3
100
AcDbEntity
  8
0
100
AcDbLine
 62
7
  6
CONTINUOUS
 10
247.0753008659
 20
199.2383075115
 11
246.8140041746
 21
199.087220105
  0
LINE
  5
2D4
100
AcDbEntity
  8
0
100
AcDbLine
 62
7
  6
CONTINUOUS
 10
250.0075995641
 20
199.4168484988
 11
250.2379543488
 21
199.5497729767
  0
LINE
  5
2D5
100
AcDbEntity
  8
0
100
AcDbLine
 62
7
  6
CONTINUOUS
 10
249.9411373785
 20
199.7987199554
 11
249.7411093311
 21
199.7156202054
  0
LINE
  5
2D6
100
AcDbEntity
  8
0
100
AcDbLine
 62
7
  6
CONTINUOUS
 10
247.0922662798
 20
198.9204015375
 11
247.2527917263
 21
198.9847238755
  0
LINE
  5
2D7
100
AcDbEntity
  8
0
100
AcDbLine
 62
7
  6
CONTINUOUS
 10
247.6318253025
 20
198.90467047
 11
247.7905791805
 21
198.7827378322
  0
LINE
  5
2D8
100
AcDbEntity
  8
0
100
AcDbLine
 62
7
  6
CONTINUOUS
 10
247.9733847464
 20
199.0879191237
 11
247.8146308684
 21
199.2098517615
  0
LINE
  5
2D9
100
AcDbEntity
  8
0
100
AcDbLine
 62
7
  6
CONTINUOUS
 10
248.1508756068
 20
198.8343354877
 11
247.9733847464
 21
199.0879191237
  0
LINE
  5
2DA
100
AcDbEntity
  8
0
100
AcDbLine
 62
7
  6
CONTINUOUS
 10
250.5779981474
 20
200.8450369403
 11
250.4205556593
 21
201.0774342685
  0
LINE
  5
2DB
100
AcDbEntity
  8
0
100
AcDbLine
 62
7
  6
CONTINUOUS
 10
250.1840714899
 20
200.8116735994
 11
250.2869899902
 21
200.6124633353
  0
LINE
  5
2DC
100
AcDbEntity
  8
0
100
AcDbLine
 62
7
  6
CONTINUOUS
 10
247.7905791805
 20
198.7827378322
 11
247.8690703059
 21
198.6286439473
  0
LINE
  5
2DD
100
AcDbEntity
  8
0
100
AcDbLine
 62
7
  6
CONTINUOUS
 10
252.4472473849
 20
203.0440797053
 11
252.3369545996
 21
203.3022119091
  0
LINE
  5
2DE
100
AcDbEntity
  8
0
100
AcDbLine
 62
7
  6
CONTINUOUS
 10
252.0541782485
 20
203.0863623529
 11
252.1172667657
 21
202.8711952924
  0
LINE
  5
2DF
100
AcDbEntity
  8
0
100
AcDbLine
 62
7
  6
CONTINUOUS
 10
250.6747870942
 20
200.512990197
 11
250.5779981474
 21
200.8450369403
  0
LINE
  5
2E0
100
AcDbEntity
  8
0
100
AcDbLine
 62
7
  6
CONTINUOUS
 10
257.4086862929
 20
137.796333126
 11
257.4086862929
 21
141.7325034656
  0
LINE
  5
2E1
100
AcDbEntity
  8
0
100
AcDbLine
 62
7
  6
CONTINUOUS
 10
261.1586862929
 20
141.7325034656
 11
261.1586862929
 21
137.796333126
  0
LINE
  5
2E2
100
AcDbEntity
  8
0
100
AcDbLine
 62
7
  6
CONTINUOUS
 10
261.7836862929
 20
137.796333126
 11
261.7836862929
 21
142.796333126
  0
LINE
  5
2E3
100
AcDbEntity
  8
0
100
AcDbLine
 62
7
  6
CONTINUOUS
 10
262.6170194276
 20
142.0516523637
 11
262.6170194276
 21
141.2005883374
  0
LINE
  5
2E4
100
AcDbEntity
  8
0
100
AcDbLine
 62
7
  6
CONTINUOUS
 10
263.2420194276
 20
141.9452693977
 11
263.2420194276
 21
137.796333126
  0
LINE
  5
2E5
100
AcDbEntity
  8
0
100
AcDbLine
 62
7
  6
CONTINUOUS
 10
269.0843506305
 20
204.9241303022
 11
271.288196858
 21
207.1633318863
  0
LINE
  5
2E6
100
AcDbEntity
  8
0
100
AcDbLine
 62
7
  6
CONTINUOUS
 10
270.9771062985
 20
207.3236500657
 11
269.0523943448
 21
205.3714417739
  0
LINE
  5
2E7
100
AcDbEntity
  8
FASEN
100
AcDbLine
 62
7
  6
CONTINUOUS
 10
236.1952071018
 20
174.5863331261
 11
235.0215589241
 21
173.6015253731
  0
LINE
  5
2E8
100
AcDbEntity
  8
0
100
AcDbLine
 62
7
  6
CONTINUOUS
 10
249.5168839599
 20
199.7155319012
 11
249.2684615736
 21
199.7984556363
  0
LINE
  5
2E9
100
AcDbEntity
  8
0
100
AcDbLine
 62
7
  6
CONTINUOUS
 10
246.1595014679
 20
197.5261460782
 11
248.9679465225
 21
196.4713302766
  0
LINE
  5
2EA
100
AcDbEntity
  8
0
100
AcDbLine
 62
7
  6
CONTINUOUS
 10
249.0909979454
 20
196.7989544548
 11
247.8361607755
 21
197.2702551388
  0
LINE
  5
2EB
100
AcDbEntity
  8
0
100
AcDbLine
 62
7
  6
CONTINUOUS
 10
247.4776359177
 20
197.4049124592
 11
246.5813236057
 21
197.7415558228
  0
LINE
  5
2EC
100
AcDbEntity
  8
0
100
AcDbLine
 62
7
  6
CONTINUOUS
 10
247.4525627062
 20
198.971999193
 11
247.6318253025
 21
198.90467047
  0
LINE
  5
2ED
100
AcDbEntity
  8
0
100
AcDbLine
 62
7
  6
CONTINUOUS
 10
247.8146308684
 20
199.2098517615
 11
247.5756141291
 21
199.2996233712
  0
LINE
  5
2EE
100
AcDbEntity
  8
0
100
AcDbLine
 62
7
  6
CONTINUOUS
 10
249.0865012671
 20
199.4995077838
 11
249.3894477766
 21
199.383397293
  0
LINE
  5
2EF
100
AcDbEntity
  8
0
100
AcDbLine
 62
7
  6
CONTINUOUS
 10
247.3962585984
 20
200.5283061894
 11
249.0865012671
 21
199.4995077838
  0
LINE
  5
2F0
100
AcDbEntity
  8
0
100
AcDbLine
 62
7
  6
CONTINUOUS
 10
249.2684615736
 20
199.7984556363
 11
247.5782189049
 21
200.8272540419
  0
LINE
  5
2F1
100
AcDbEntity
  8
0
100
AcDbLine
 62
7
  6
CONTINUOUS
 10
248.3060597836
 20
202.0230448817
 11
249.9963024524
 21
200.9942464761
  0
LINE
  5
2F2
100
AcDbEntity
  8
0
100
AcDbLine
 62
7
  6
CONTINUOUS
 10
250.1782626721
 20
201.2931941861
 11
248.4880200033
 21
202.3219925916
  0
LINE
  5
2F3
100
AcDbEntity
  8
0
100
AcDbLine
 62
7
  6
CONTINUOUS
 10
250.4205556593
 20
201.0774342685
 11
250.1782626721
 21
201.2931941861
  0
LINE
  5
2F4
100
AcDbEntity
  8
0
100
AcDbLine
 62
7
  6
CONTINUOUS
 10
249.106383182
 20
203.1666608125
 11
251.3249824996
 21
201.1473002533
  0
LINE
  5
2F5
100
AcDbEntity
  8
0
100
AcDbLine
 62
7
  6
CONTINUOUS
 10
251.2773291714
 20
201.6639056317
 11
249.6251807089
 21
203.1676848029
  0
LINE
  5
2F6
100
AcDbEntity
  8
0
100
AcDbLine
 62
7
  6
CONTINUOUS
 10
251.1965595837
 20
203.9458351767
 11
251.9046231774
 21
203.3013584192
  0
LINE
  5
2F7
100
AcDbEntity
  8
0
100
AcDbLine
 62
7
  6
CONTINUOUS
 10
252.1401952932
 20
203.5601730885
 11
251.4321316995
 21
204.2046498461
  0
LINE
  5
2F8
100
AcDbEntity
  8
0
100
AcDbLine
 62
7
  6
CONTINUOUS
 10
249.9963024524
 20
200.9942464761
 11
250.1840714899
 21
200.8116735994
  0
LINE
  5
2F9
100
AcDbEntity
  8
0
100
AcDbLine
 62
7
  6
CONTINUOUS
 10
252.3369545996
 20
203.3022119091
 11
252.1401952932
 21
203.5601730885
  0
LINE
  5
2FA
100
AcDbEntity
  8
0
100
AcDbLine
 62
7
  6
CONTINUOUS
 10
251.9046231774
 20
203.3013584192
 11
252.0541782485
 21
203.0863623529
  0
LINE
  5
2FB
100
AcDbEntity
  8
0
100
AcDbLine
 62
7
  6
CONTINUOUS
 10
263.8670194276
 20
137.796333126
 11
263.8670194276
 21
142.796333126
  0
LINE
  5
2FC
100
AcDbEntity
  8
0
100
AcDbLine
 62
7
  6
CONTINUOUS
 10
264.7003531583
 20
139.3920777656
 11
264.7003531583
 21
139.0729288675
  0
LINE
  5
2FD
100
AcDbEntity
  8
0
100
AcDbLine
 62
7
  6
CONTINUOUS
 10
264.8045194276
 20
141.5197372355
 11
264.8045194276
 21
141.2005883374
  0
LINE
  5
2FE
100
AcDbEntity
  8
0
100
AcDbLine
 62
7
  6
CONTINUOUS
 10
265.2211862929
 20
139.0729288675
 11
265.2211862929
 21
139.3920777656
  0
LINE
  5
2FF
100
AcDbEntity
  8
0
100
AcDbLine
 62
7
  6
CONTINUOUS
 10
265.3253531583
 20
141.3069713034
 11
265.3253531583
 21
141.5197372355
  0
LINE
  5
300
100
AcDbEntity
  8
0
100
AcDbLine
 62
7
  6
CONTINUOUS
 10
267.8253525622
 20
141.5197372355
 11
267.8253525622
 21
141.3069713034
  0
LINE
  5
301
100
AcDbEntity
  8
0
100
AcDbLine
 62
7
  6
CONTINUOUS
 10
267.9295200236
 20
139.3920777656
 11
267.9295200236
 21
139.0729288675
  0
LINE
  5
302
100
AcDbEntity
  8
0
100
AcDbLine
 62
7
  6
CONTINUOUS
 10
268.3461862929
 20
141.2005883374
 11
268.3461862929
 21
141.5197372355
  0
LINE
  5
303
100
AcDbEntity
  8
0
100
AcDbLine
 62
7
  6
CONTINUOUS
 10
268.4503525622
 20
139.0729288675
 11
268.4503525622
 21
139.3920777656
  0
LINE
  5
304
100
AcDbEntity
  8
RUNDUNGEN
100
AcDbLine
 62
7
  6
CONTINUOUS
 10
268.4636862929
 20
152.7863331266
 11
268.4636737659
 21
151.786333126
  0
LINE
  5
305
100
AcDbEntity
  8
0
100
AcDbLine
 62
7
  6
CONTINUOUS
 10
268.9636862929
 20
194.1534419937
 11
268.9636862929
 21
277.0192242584
  0
LINE
  5
306
100
AcDbEntity
  8
0
100
AcDbLine
 62
7
  6
CONTINUOUS
 10
269.0523943448
 20
205.3714417739
 11
269.5253511454
 21
208.0718011617
  0
LINE
  5
307
100
AcDbEntity
  8
0
100
AcDbLine
 62
7
  6
CONTINUOUS
 10
269.2142605859
 20
208.232119341
 11
268.9636862929
 21
206.8086984121
  0
LINE
  5
308
100
AcDbEntity
  8
0
100
AcDbLine
 62
7
  6
CONTINUOUS
 10
249.6681970489
 20
199.3502983905
 11
250.0075995641
 21
199.4168484988
  0
LINE
  5
309
100
AcDbEntity
  8
0
100
AcDbLine
 62
7
  6
CONTINUOUS
 10
249.7411093311
 20
199.7156202054
 11
249.5168839599
 21
199.7155319012
  0
LINE
  5
30A
100
AcDbEntity
  8
0
100
AcDbLine
 62
7
  6
CONTINUOUS
 10
249.7472722206
 20
198.5462834574
 11
248.1883496304
 21
198.5710336475
  0
LINE
  5
30B
100
AcDbEntity
  8
0
100
AcDbLine
 62
7
  6
CONTINUOUS
 10
248.1848064641
 20
198.1985236177
 11
249.603712188
 21
198.1640551453
  0
LINE
  5
30C
100
AcDbEntity
  8
0
100
AcDbLine
 62
7
  6
CONTINUOUS
 10
247.2527917263
 20
198.9847238755
 11
247.4525627062
 21
198.971999193
  0
LINE
  5
30D
100
AcDbEntity
  8
0
100
AcDbLine
 62
7
  6
CONTINUOUS
 10
247.5756141291
 20
199.2996233712
 11
247.3758431493
 21
199.3123480538
  0
LINE
  5
30E
100
AcDbEntity
  8
0
100
AcDbLine
 62
7
  6
CONTINUOUS
 10
249.3894477766
 20
199.383397293
 11
249.6681970489
 21
199.3502983905
  0
LINE
  5
30F
100
AcDbEntity
  8
0
100
AcDbLine
 62
7
  6
CONTINUOUS
 10
250.7483437473
 20
204.1171837545
 11
250.9684807735
 21
204.0745600157
  0
LINE
  5
310
100
AcDbEntity
  8
0
100
AcDbLine
 62
7
  6
CONTINUOUS
 10
251.1568485219
 20
204.3763399186
 11
250.8895073928
 21
204.4619286502
  0
LINE
  5
311
100
AcDbEntity
  8
0
100
AcDbLine
 62
7
  6
CONTINUOUS
 10
250.9684807735
 20
204.0745600157
 11
251.1965595837
 21
203.9458351767
  0
LINE
  5
312
100
AcDbEntity
  8
0
100
AcDbLine
 62
7
  6
CONTINUOUS
 10
251.4321316995
 20
204.2046498461
 11
251.1568485219
 21
204.3763399186
  0
LINE
  5
313
100
AcDbEntity
  8
FASEN
100
AcDbLine
 62
7
  6
CONTINUOUS
 10
288.732165484
 20
174.5863331261
 11
289.9058136617
 21
173.6015253731
  0
LINE
  5
314
100
AcDbEntity
  8
0
100
AcDbLine
 62
7
  6
CONTINUOUS
 10
255.9636862929
 20
206.1684922623
 11
254.5982213808
 21
207.6794207352
  0
LINE
  5
315
100
AcDbEntity
  8
0
100
AcDbLine
 62
7
  6
CONTINUOUS
 10
254.280462878
 20
207.5327619861
 11
255.9636862929
 21
205.6669851636
  0
LINE
  5
316
100
AcDbEntity
  8
RUNDUNGEN
100
AcDbLine
 62
7
  6
CONTINUOUS
 10
271.4636862929
 20
163.286333126
 11
271.4636862929
 21
157.286333126
  0
LINE
  5
317
100
AcDbEntity
  8
0
100
AcDbLine
 62
7
  6
CONTINUOUS
 10
271.4636862929
 20
133.586333126
 11
271.4636862929
 21
108.586333126
  0
LINE
  5
318
100
AcDbEntity
  8
0
100
AcDbLine
 62
7
  6
CONTINUOUS
 10
272.5003891421
 20
143.9037499154
 11
272.5003891421
 21
149.286333126
  0
LINE
  5
319
100
AcDbEntity
  8
RUNDUNGEN
100
AcDbLine
 62
7
  6
CONTINUOUS
 10
272.9636862929
 20
149.286333126
 11
272.9636862929
 21
137.2863331255
  0
LINE
  5
31A
100
AcDbEntity
  8
0
100
AcDbLine
 62
7
  6
CONTINUOUS
 10
247.3758431493
 20
199.3123480538
 11
247.0753008659
 21
199.2383075115
  0
LINE
  5
31B
100
AcDbEntity
  8
0
100
AcDbLine
 62
7
  6
CONTINUOUS
 10
250.536149219
 20
204.0737066462
 11
250.7483437473
 21
204.1171837545
  0
LINE
  5
31C
100
AcDbEntity
  8
0
100
AcDbLine
 62
7
  6
CONTINUOUS
 10
250.8895073928
 20
204.4619286502
 11
250.5436425247
 21
204.4612461545
  0
LINE
  5
31D
100
AcDbEntity
  8
0
100
AcDbLine
 62
7
  6
CONTINUOUS
 10
268.9636862929
 20
204.9863137608
 11
269.0843506305
 21
204.9241303022
  0
LINE
  5
31E
100
AcDbEntity
  8
0
100
AcDbLine
 62
7
  6
CONTINUOUS
 10
276.8807768455
 20
153.1402629128
 11
276.8807768455
 21
133.586333126
  0
LINE
  5
31F
100
AcDbEntity
  8
0
100
AcDbLine
 62
7
  6
CONTINUOUS
 10
279.0708396207
 20
153.1402629128
 11
279.0708396207
 21
133.586333126
  0
LINE
  5
320
100
AcDbEntity
  8
0
100
AcDbLine
 62
7
  6
CONTINUOUS
 10
260.8461862929
 20
142.796333126
 11
259.2836862929
 21
138.3282480307
  0
LINE
  5
321
100
AcDbEntity
  8
0
100
AcDbLine
 62
7
  6
CONTINUOUS
 10
259.7003528602
 20
137.796333126
 11
261.1586862929
 21
141.7325034656
  0
LINE
  5
322
100
AcDbEntity
  8
0
100
AcDbLine
 62
7
  6
CONTINUOUS
 10
271.288196858
 20
207.1633318863
 11
270.9771062985
 21
207.3236500657
  0
LINE
  5
323
100
AcDbEntity
  8
0
100
AcDbLine
 62
7
  6
CONTINUOUS
 10
269.5253511454
 20
208.0718011617
 11
269.2142605859
 21
208.232119341
  0
LINE
  5
324
100
AcDbEntity
  8
BEZUGSACHSEN
100
AcDbLine
 62
7
  6
CONTINUOUS
 10
287.9636862929
 20
176.586333126
 11
287.9636862929
 21
178.7600848305
  0
LINE
  5
325
100
AcDbEntity
  8
0
100
AcDbLine
 62
7
  6
CONTINUOUS
 10
265.0128531583
 20
142.0516523637
 11
264.8045194276
 21
141.5197372355
  0
LINE
  5
326
100
AcDbEntity
  8
0
100
AcDbLine
 62
7
  6
CONTINUOUS
 10
264.9086862929
 20
139.9239927449
 11
264.7003531583
 21
139.3920777656
  0
LINE
  5
327
100
AcDbEntity
  8
BEZUGSACHSEN
100
AcDbLine
 62
7
  6
CONTINUOUS
 10
285.9881482896
 20
191.4382828289
 11
283.6255157973
 21
185.7343834231
  0
LINE
  5
328
100
AcDbEntity
  8
RUNDUNGEN
100
AcDbLine
 62
7
  6
CONTINUOUS
 10
268.9636862929
 20
213.8939449706
 11
278.2861987443
 21
210.0324338778
  0
LINE
  5
329
100
AcDbEntity
  8
BEZUGSACHSEN
100
AcDbLine
 62
7
  6
CONTINUOUS
 10
279.9097870447
 20
208.4088455774
 11
285.9881482896
 21
193.7343834231
  0
LINE
  5
32A
100
AcDbEntity
  8
BEZUGSACHSEN
100
AcDbLine
 62
7
  6
CONTINUOUS
 10
289.9058136618
 20
173.601525373
 11
293.4879301733
 21
153.286333126
  0
LINE
  5
32B
100
AcDbEntity
  8
FASEN
100
AcDbLine
 62
7
  6
CONTINUOUS
 10
293.4879301733
 20
153.286333126
 11
289.9058136618
 21
173.601525373
  0
LINE
  5
32C
100
AcDbEntity
  8
0
100
AcDbLine
 62
7
  6
CONTINUOUS
 10
288.4636862929
 20
176.586333126
 11
288.4636862929
 21
174.586333126
  0
LINE
  5
32D
100
AcDbEntity
  8
BEZUGSACHSEN
100
AcDbLine
 62
7
  6
CONTINUOUS
 10
293.4879301733
 20
153.2863337176
 11
293.4879301733
 21
153.1402629128
  0
LINE
  5
32E
100
AcDbEntity
  8
0
100
AcDbLine
 62
7
  6
CONTINUOUS
 10
293.4879301733
 20
153.1402629128
 11
293.4879301733
 21
133.586333126
  0
LINE
  5
32F
100
AcDbEntity
  8
0
100
AcDbLine
 62
7
  6
CONTINUOUS
 10
268.2420200236
 20
138.5410139628
 11
268.4503525622
 21
139.0729288675
  0
LINE
  5
330
100
AcDbEntity
  8
0
100
AcDbLine
 62
7
  6
CONTINUOUS
 10
268.1378525622
 20
140.7750564732
 11
268.3461862929
 21
141.2005883374
  0
LINE
  5
331
100
AcDbEntity
  8
0
100
AcDbLine
 62
7
  6
CONTINUOUS
 10
265.3253531583
 20
141.5197372355
 11
265.5336862929
 21
141.8388864316
  0
LINE
  5
332
100
AcDbEntity
  8
0
100
AcDbLine
 62
7
  6
CONTINUOUS
 10
267.8253525622
 20
141.3069713034
 11
267.6170200236
 21
140.9878224053
  0
LINE
  5
333
100
AcDbEntity
  8
0
100
AcDbLine
 62
7
  6
CONTINUOUS
 10
265.2211862929
 20
139.3920777656
 11
265.5336862929
 21
139.8176097788
  0
LINE
  5
334
100
AcDbEntity
  8
0
100
AcDbLine
 62
7
  6
CONTINUOUS
 10
267.9295200236
 20
139.0729288675
 11
267.6170200236
 21
138.6473969288
  0
LINE
  5
335
100
AcDbEntity
  8
0
100
AcDbLine
 62
7
  6
CONTINUOUS
 10
263.2420194276
 20
142.796333126
 11
262.6170194276
 21
142.0516523637
  0
LINE
  5
336
100
AcDbEntity
  8
0
100
AcDbLine
 62
7
  6
CONTINUOUS
 10
262.6170194276
 20
141.2005883374
 11
263.2420194276
 21
141.9452693977
  0
LINE
  5
337
100
AcDbEntity
  8
0
100
AcDbLine
 62
7
  6
CONTINUOUS
 10
265.3253531583
 20
142.3708012618
 11
265.0128531583
 21
142.0516523637
  0
LINE
  5
338
100
AcDbEntity
  8
0
100
AcDbLine
 62
7
  6
CONTINUOUS
 10
267.8253525622
 20
140.4559075751
 11
268.1378525622
 21
140.7750564732
  0
LINE
  5
339
100
AcDbEntity
  8
0
100
AcDbLine
 62
7
  6
CONTINUOUS
 10
267.9295200236
 20
138.2218650274
 11
268.2420200236
 21
138.5410139628
  0
LINE
  5
33A
100
AcDbEntity
  8
0
100
AcDbLine
 62
7
  6
CONTINUOUS
 10
265.5336862929
 20
141.8388864316
 11
265.9503531583
 21
142.1580353298
  0
LINE
  5
33B
100
AcDbEntity
  8
0
100
AcDbLine
 62
7
  6
CONTINUOUS
 10
265.3253531583
 20
140.243141643
 11
264.9086862929
 21
139.9239927449
  0
LINE
  5
33C
100
AcDbEntity
  8
0
100
AcDbLine
 62
7
  6
CONTINUOUS
 10
267.6170200236
 20
140.9878224053
 11
267.2003525622
 21
140.6686735072
  0
LINE
  5
33D
100
AcDbEntity
  8
0
100
AcDbLine
 62
7
  6
CONTINUOUS
 10
265.8461862929
 20
142.68995016
 11
265.3253531583
 21
142.3708012618
  0
LINE
  5
33E
100
AcDbEntity
  8
0
100
AcDbLine
 62
7
  6
CONTINUOUS
 10
265.5336862929
 20
140.349524609
 11
265.3253531583
 21
140.243141643
  0
LINE
  5
33F
100
AcDbEntity
  8
0
100
AcDbLine
 62
7
  6
CONTINUOUS
 10
265.5336862929
 20
139.8176097788
 11
265.9503531583
 21
140.0303757109
  0
LINE
  5
340
100
AcDbEntity
  8
0
100
AcDbLine
 62
7
  6
CONTINUOUS
 10
267.4086862929
 20
137.9027161014
 11
267.9295200236
 21
138.2218650274
  0
LINE
  5
341
100
AcDbEntity
  8
0
100
AcDbLine
 62
7
  6
CONTINUOUS
 10
267.6170200236
 20
140.349524609
 11
267.8253525622
 21
140.4559075751
  0
LINE
  5
342
100
AcDbEntity
  8
0
100
AcDbLine
 62
7
  6
CONTINUOUS
 10
267.6170200236
 20
138.6473969288
 11
267.2003525622
 21
138.4346309968
  0
LINE
  5
343
100
AcDbEntity
  8
0
100
AcDbLine
 62
7
  6
CONTINUOUS
 10
271.4636862929
 20
108.586333126
 11
269.4636862929
 21
106.586333126
  0
LINE
  5
344
100
AcDbEntity
  8
RUNDUNGEN
100
AcDbLine
 62
7
  6
CONTINUOUS
 10
131.0334380896
 20
55.4085490628
 11
131.0334380896
 21
39.4085490628
  0
LINE
  5
345
100
AcDbEntity
  8
BEZUGSACHSEN
100
AcDbLine
 62
7
  6
CONTINUOUS
 10
134.0334380896
 20
61.8256396154
 11
135.2978714225
 21
64.0157023906
  0
LINE
  5
346
100
AcDbEntity
  8
BEZUGSACHSEN
100
AcDbLine
 62
7
  6
CONTINUOUS
 10
162.7978714225
 20
16.3843051825
 11
160.2690047568
 21
16.3843051825
  0
LINE
  5
347
100
AcDbEntity
  8
BEZUGSACHSEN
100
AcDbLine
 62
7
  6
CONTINUOUS
 10
135.2978714225
 20
30.801395735
 11
134.0334380896
 21
32.9914585103
  0
LINE
  5
348
100
AcDbEntity
  8
RUNDUNGEN
100
AcDbLine
 62
7
  6
CONTINUOUS
 10
134.0334380896
 20
32.9914585103
 11
134.0334380896
 21
36.9085490628
  0
LINE
  5
349
100
AcDbEntity
  8
RUNDUNGEN
100
AcDbLine
 62
7
  6
CONTINUOUS
 10
134.0334380896
 20
57.9085490628
 11
134.0334380896
 21
61.8256396154
  0
LINE
  5
34A
100
AcDbEntity
  8
BEZUGSACHSEN
100
AcDbLine
 62
7
  6
CONTINUOUS
 10
135.2978714225
 20
64.0157023906
 11
160.2690047568
 21
78.4327929432
  0
LINE
  5
34B
100
AcDbEntity
  8
BEZUGSACHSEN
100
AcDbLine
 62
7
  6
CONTINUOUS
 10
160.2690047568
 20
16.3843051825
 11
135.2978714225
 21
30.801395735
  0
LWPOLYLINE
  5
34C
100
AcDbEntity
  8
RUNDUNGEN
100
AcDbPolyline
 62
7
  6
CONTINUOUS
 90
5
 70
0
 10
165.82814727
 20
23.6555185176
 10
166.1932701566
 20
23.681548887
 10
166.7577691387
 20
23.8295630865
 10
167.2804756995
 20
24.1046275619
 10
167.7488167611
 20
24.512878528
  0
LINE
  5
34D
100
AcDbEntity
  8
BEZUGSACHSEN
100
AcDbLine
 62
7
  6
CONTINUOUS
 10
157.2386187176
 20
23.655739363
 11
157.2380787687
 21
23.6557256637
  0
LINE
  5
34E
100
AcDbEntity
  8
BEZUGSACHSEN
100
AcDbLine
 62
7
  6
CONTINUOUS
 10
165.8288062699
 20
23.6557256637
 11
157.2380699094
 21
23.6557256637
  0
LINE
  5
34F
100
AcDbEntity
  8
RUNDUNGEN
100
AcDbLine
 62
7
  6
CONTINUOUS
 10
165.8282359664
 20
23.6557404747
 11
165.8287974106
 21
23.6557256637
  0
LWPOLYLINE
  5
350
100
AcDbEntity
  8
BEZUGSACHSEN
100
AcDbPolyline
 62
7
  6
CONTINUOUS
 90
5
 70
0
 10
155.3188467787
 20
24.5120211514
 10
155.7977042572
 20
24.0969650687
 10
156.327951356
 20
23.8223382725
 10
156.9000113061
 20
23.6778972075
 10
157.2387082609
 20
23.6555174557
  0
LINE
  5
351
100
AcDbEntity
  8
BEZUGSACHSEN
100
AcDbLine
 62
7
  6
CONTINUOUS
 10
155.2903665505
 20
70.2735075972
 11
152.4417846132
 21
67.0316877028
  0
LINE
  5
352
100
AcDbEntity
  8
BEZUGSACHSEN
100
AcDbLine
 62
7
  6
CONTINUOUS
 10
152.447860542
 20
27.7784829152
 11
155.2903665505
 21
24.5435905284
  0
LINE
  5
353
100
AcDbEntity
  8
BEZUGSACHSEN
100
AcDbLine
 62
7
  6
CONTINUOUS
 10
152.4417846132
 20
27.7854104229
 11
152.4438109473
 21
27.7830974174
  0
LINE
  5
354
100
AcDbEntity
  8
RUNDUNGEN
100
AcDbLine
 62
7
  6
CONTINUOUS
 10
187.6023644162
 20
32.9914585103
 11
188.5334380896
 21
32.9914585103
  0
LINE
  5
355
100
AcDbEntity
  8
RUNDUNGEN
100
AcDbLine
 62
7
  6
CONTINUOUS
 10
132.5953602436
 20
38.4085490628
 11
132.0334380896
 21
38.4085490628
  0
LINE
  5
356
100
AcDbEntity
  8
0
100
AcDbLine
 62
7
  6
CONTINUOUS
 10
156.0334380896
 20
38.5840384978
 11
155.5334380896
 21
38.5840384978
  0
LINE
  5
357
100
AcDbEntity
  8
0
100
AcDbLine
 62
7
  6
CONTINUOUS
 10
156.0334380896
 20
38.8951290573
 11
155.5334380896
 21
38.8951290573
  0
LINE
  5
358
100
AcDbEntity
  8
0
100
AcDbLine
 62
7
  6
CONTINUOUS
 10
155.5334380896
 20
38.5840384978
 11
155.5334380896
 21
40.9085490628
  0
LINE
  5
359
100
AcDbEntity
  8
0
100
AcDbLine
 62
7
  6
CONTINUOUS
 10
155.5334380896
 20
53.9085490628
 11
155.5334380896
 21
55.5917724778
  0
LINE
  5
35A
100
AcDbEntity
  8
0
100
AcDbLine
 62
7
  6
CONTINUOUS
 10
155.5334380896
 20
57.3932189411
 11
155.5334380896
 21
62.4759767574
  0
LINE
  5
35B
100
AcDbEntity
  8
0
100
AcDbLine
 62
7
  6
CONTINUOUS
 10
155.5334380896
 20
62.4963922065
 11
155.5334380896
 21
63.7127338879
  0
LINE
  5
35C
100
AcDbEntity
  8
RUNDUNGEN
100
AcDbLine
 62
7
  6
CONTINUOUS
 10
156.0334380896
 20
40.9085490628
 11
156.0334380896
 21
32.5427451924
  0
LINE
  5
35D
100
AcDbEntity
  8
BEZUGSACHSEN
100
AcDbLine
 62
7
  6
CONTINUOUS
 10
156.0334380896
 20
32.5427451924
 11
156.0334380896
 21
28.20963196
  0
LINE
  5
35E
100
AcDbEntity
  8
RUNDUNGEN
100
AcDbLine
 62
7
  6
CONTINUOUS
 10
156.0334380896
 20
53.9085490628
 11
156.0334380896
 21
62.2743529333
  0
LINE
  5
35F
100
AcDbEntity
  8
BEZUGSACHSEN
100
AcDbLine
 62
7
  6
CONTINUOUS
 10
156.0334380896
 20
62.2743529333
 11
156.0334380896
 21
66.6074661657
  0
LINE
  5
360
100
AcDbEntity
  8
0
100
AcDbLine
 62
7
  6
CONTINUOUS
 10
156.0334380896
 20
40.3468842104
 11
155.5334380896
 21
40.3468842104
  0
LINE
  5
361
100
AcDbEntity
  8
0
100
AcDbLine
 62
7
  6
CONTINUOUS
 10
156.0334380896
 20
40.6579747699
 11
155.5334380896
 21
40.6579747699
  0
LINE
  5
362
100
AcDbEntity
  8
0
100
AcDbLine
 62
7
  6
CONTINUOUS
 10
137.5334380896
 20
40.9085490628
 11
185.5334380896
 21
40.9085490628
  0
LINE
  5
363
100
AcDbEntity
  8
RUNDUNGEN
100
AcDbLine
 62
7
  6
CONTINUOUS
 10
167.0334380896
 20
40.9085490628
 11
167.0334380896
 21
28.20963196
  0
LINE
  5
364
100
AcDbEntity
  8
RUNDUNGEN
100
AcDbLine
 62
7
  6
CONTINUOUS
 10
167.0334380896
 20
53.9085490628
 11
167.0334380896
 21
62.2743529333
  0
LINE
  5
365
100
AcDbEntity
  8
BEZUGSACHSEN
100
AcDbLine
 62
7
  6
CONTINUOUS
 10
167.0334380896
 20
62.2743529333
 11
167.0334380896
 21
66.6074661657
  0
LINE
  5
366
100
AcDbEntity
  8
0
100
AcDbLine
 62
7
  6
CONTINUOUS
 10
137.5334380896
 20
53.9085490628
 11
185.5334380896
 21
53.9085490628
  0
LINE
  5
367
100
AcDbEntity
  8
0
100
AcDbLine
 62
7
  6
CONTINUOUS
 10
156.0334380896
 20
55.2740139749
 11
155.5334380896
 21
55.2740139749
  0
LINE
  5
368
100
AcDbEntity
  8
0
100
AcDbLine
 62
7
  6
CONTINUOUS
 10
156.0334380896
 20
55.5917724778
 11
155.5334380896
 21
55.5917724778
  0
LINE
  5
369
100
AcDbEntity
  8
RUNDUNGEN
100
AcDbLine
 62
7
  6
CONTINUOUS
 10
132.5953601781
 20
56.4085490628
 11
132.0334380896
 21
56.4085490628
  0
LINE
  5
36A
100
AcDbEntity
  8
0
100
AcDbLine
 62
7
  6
CONTINUOUS
 10
156.0334380896
 20
57.3932189411
 11
155.5334380896
 21
57.3932189411
  0
LINE
  5
36B
100
AcDbEntity
  8
0
100
AcDbLine
 62
7
  6
CONTINUOUS
 10
156.0334380896
 20
57.4249879708
 11
155.5334380896
 21
57.4249879708
  0
LINE
  5
36C
100
AcDbEntity
  8
0
100
AcDbLine
 62
7
  6
CONTINUOUS
 10
156.0334380896
 20
57.5352807562
 11
155.5334380896
 21
57.5352807562
  0
LINE
  5
36D
100
AcDbEntity
  8
0
100
AcDbLine
 62
7
  6
CONTINUOUS
 10
156.0334380896
 20
57.7320400625
 11
155.5334380896
 21
57.7320400625
  0
LINE
  5
36E
100
AcDbEntity
  8
0
100
AcDbLine
 62
7
  6
CONTINUOUS
 10
156.0334380896
 20
58.4401036562
 11
155.5334380896
 21
58.4401036562
  0
LINE
  5
36F
100
AcDbEntity
  8
0
100
AcDbLine
 62
7
  6
CONTINUOUS
 10
156.0334380896
 20
58.7153868339
 11
155.5334380896
 21
58.7153868339
  0
LINE
  5
370
100
AcDbEntity
  8
0
100
AcDbLine
 62
7
  6
CONTINUOUS
 10
156.0334380896
 20
58.9827279629
 11
155.5334380896
 21
58.9827279629
  0
LINE
  5
371
100
AcDbEntity
  8
0
100
AcDbLine
 62
7
  6
CONTINUOUS
 10
156.0334380896
 20
59.3285928311
 11
155.5334380896
 21
59.3285928311
  0
LINE
  5
372
100
AcDbEntity
  8
0
100
AcDbLine
 62
7
  6
CONTINUOUS
 10
156.0334380896
 20
59.5800492289
 11
155.5334380896
 21
59.5800492289
  0
LINE
  5
373
100
AcDbEntity
  8
0
100
AcDbLine
 62
7
  6
CONTINUOUS
 10
156.0334380896
 20
59.8235637104
 11
155.5334380896
 21
59.8235637104
  0
LINE
  5
374
100
AcDbEntity
  8
0
100
AcDbLine
 62
7
  6
CONTINUOUS
 10
156.0334380896
 20
60.7658521737
 11
155.5334380896
 21
60.7658521737
  0
LINE
  5
375
100
AcDbEntity
  8
0
100
AcDbLine
 62
7
  6
CONTINUOUS
 10
156.0334380896
 20
61.3842153524
 11
155.5334380896
 21
61.3842153524
  0
LINE
  5
376
100
AcDbEntity
  8
0
100
AcDbLine
 62
7
  6
CONTINUOUS
 10
156.0334380896
 20
61.5661755721
 11
155.5334380896
 21
61.5661755721
  0
LINE
  5
377
100
AcDbEntity
  8
RUNDUNGEN
100
AcDbLine
 62
7
  6
CONTINUOUS
 10
187.6023644162
 20
61.8256396154
 11
188.5334380896
 21
61.8256396154
  0
LINE
  5
378
100
AcDbEntity
  8
0
100
AcDbLine
 62
7
  6
CONTINUOUS
 10
187.6023644162
 20
61.8256396154
 11
188.5334380896
 21
61.8256396154
  0
LINE
  5
379
100
AcDbEntity
  8
0
100
AcDbLine
 62
7
  6
CONTINUOUS
 10
156.0334380896
 20
62.2940164509
 11
155.5334380896
 21
62.2940164509
  0
LINE
  5
37A
100
AcDbEntity
  8
0
100
AcDbLine
 62
7
  6
CONTINUOUS
 10
156.0334380896
 20
62.4759767574
 11
155.5334380896
 21
62.4759767574
  0
LINE
  5
37B
100
AcDbEntity
  8
0
100
AcDbLine
 62
7
  6
CONTINUOUS
 10
156.0334380896
 20
62.4963922065
 11
155.5334380896
 21
62.4963922065
  0
LINE
  5
37C
100
AcDbEntity
  8
0
100
AcDbLine
 62
7
  6
CONTINUOUS
 10
156.0334380896
 20
62.7969344899
 11
155.5334380896
 21
62.7969344899
  0
LINE
  5
37D
100
AcDbEntity
  8
0
100
AcDbLine
 62
7
  6
CONTINUOUS
 10
156.0334380896
 20
63.0582311812
 11
155.5334380896
 21
63.0582311812
  0
LINE
  5
37E
100
AcDbEntity
  8
0
100
AcDbLine
 62
7
  6
CONTINUOUS
 10
156.0334380896
 20
63.2205281961
 11
155.5334380896
 21
63.2205281961
  0
LINE
  5
37F
100
AcDbEntity
  8
0
100
AcDbLine
 62
7
  6
CONTINUOUS
 10
156.0322747127
 20
63.7127338879
 11
155.5334380896
 21
63.7127338879
  0
LINE
  5
380
100
AcDbEntity
  8
RUNDUNGEN
100
AcDbLine
 62
7
  6
CONTINUOUS
 10
167.7765096287
 20
24.5435905284
 11
170.6250915661
 21
27.7854104229
  0
LINE
  5
381
100
AcDbEntity
  8
BEZUGSACHSEN
100
AcDbLine
 62
7
  6
CONTINUOUS
 10
170.6190156373
 20
67.0386152104
 11
167.7765096287
 21
70.2735075972
  0
LINE
  5
382
100
AcDbEntity
  8
BEZUGSACHSEN
100
AcDbLine
 62
7
  6
CONTINUOUS
 10
170.6250915661
 20
67.0316877028
 11
170.623065232
 21
67.0340007082
  0
LWPOLYLINE
  5
383
100
AcDbEntity
  8
BEZUGSACHSEN
100
AcDbPolyline
 62
7
  6
CONTINUOUS
 90
5
 70
0
 10
167.7480294006
 20
70.3050769742
 10
167.269171922
 20
70.720133057
 10
166.7389248233
 20
70.9947598532
 10
166.1668648732
 20
71.1392009181
 10
165.8281679184
 20
71.1615806699
  0
LWPOLYLINE
  5
384
100
AcDbEntity
  8
BEZUGSACHSEN
100
AcDbPolyline
 62
7
  6
CONTINUOUS
 90
5
 70
0
 10
157.2387289093
 20
71.1615796081
 10
156.8736060227
 20
71.1355492387
 10
156.3091070406
 20
70.9875350391
 10
155.7864004798
 20
70.7124705637
 10
155.3180594181
 20
70.3042195977
  0
LINE
  5
385
100
AcDbEntity
  8
BEZUGSACHSEN
100
AcDbLine
 62
7
  6
CONTINUOUS
 10
165.8282574617
 20
71.1613587627
 11
165.8287974106
 21
71.1613724619
  0
LINE
  5
386
100
AcDbEntity
  8
BEZUGSACHSEN
100
AcDbLine
 62
7
  6
CONTINUOUS
 10
157.2380699094
 20
71.161372462
 11
165.8288062699
 21
71.161372462
  0
LINE
  5
387
100
AcDbEntity
  8
BEZUGSACHSEN
100
AcDbLine
 62
7
  6
CONTINUOUS
 10
157.2386402129
 20
71.1613576509
 11
157.2380787687
 21
71.1613724619
  0
LINE
  5
388
100
AcDbEntity
  8
RUNDUNGEN
100
AcDbLine
 62
7
  6
CONTINUOUS
 10
189.0334380896
 20
41.9417358365
 11
189.0334380896
 21
32.9914585103
  0
LINE
  5
389
100
AcDbEntity
  8
RUNDUNGEN
100
AcDbLine
 62
7
  6
CONTINUOUS
 10
189.0334380896
 20
52.8753622891
 11
189.0334380896
 21
61.8256396154
  0
LINE
  5
38A
100
AcDbEntity
  8
BEZUGSACHSEN
100
AcDbLine
 62
7
  6
CONTINUOUS
 10
187.7690047568
 20
30.801395735
 11
162.7978714225
 21
16.3843051825
  0
LINE
  5
38B
100
AcDbEntity
  8
BEZUGSACHSEN
100
AcDbLine
 62
7
  6
CONTINUOUS
 10
162.7978714225
 20
78.4327929432
 11
187.7690047568
 21
64.0157023906
  0
LINE
  5
38C
100
AcDbEntity
  8
RUNDUNGEN
100
AcDbLine
 62
7
  6
CONTINUOUS
 10
189.0334380896
 20
32.9914585103
 11
187.7690047568
 21
30.801395735
  0
LINE
  5
38D
100
AcDbEntity
  8
BEZUGSACHSEN
100
AcDbLine
 62
7
  6
CONTINUOUS
 10
160.2690047568
 20
78.4327929432
 11
162.7978714225
 21
78.4327929432
  0
LINE
  5
38E
100
AcDbEntity
  8
RUNDUNGEN
100
AcDbLine
 62
7
  6
CONTINUOUS
 10
187.7690047568
 20
64.0157023906
 11
189.0334380896
 21
61.8256396154
  0
ARC
  5
38F
100
AcDbEntity
  8
RUNDUNGEN
100
AcDbCircle
 62
7
  6
CONTINUOUS
 10
122.5220956731
 20
159.1439519429
 40
10.2290916924
100
AcDbArc
 50
348.1567501905
 51
349.536941035
  0
ARC
  5
390
100
AcDbEntity
  8
BEZUGSACHSEN
100
AcDbCircle
 62
7
  6
CONTINUOUS
 10
150.0334380896
 20
197.6442950103
 40
6.0
100
AcDbArc
 50
339.999171163
 51
0.0005990832
  0
ARC
  5
391
100
AcDbEntity
  8
BEZUGSACHSEN
100
AcDbCircle
 62
7
  6
CONTINUOUS
 10
139.0334380896
 20
178.586333126
 40
3.0
100
AcDbArc
 50
90.0
 51
180.0
  0
ARC
  5
392
100
AcDbEntity
  8
BEZUGSACHSEN
100
AcDbCircle
 62
7
  6
CONTINUOUS
 10
148.4733214021
 20
184.586333126
 40
2.9999695329
100
AcDbArc
 50
269.9988647581
 51
339.9996117172
  0
ARC
  5
393
100
AcDbEntity
  8
RUNDUNGEN
100
AcDbCircle
 62
7
  6
CONTINUOUS
 10
132.6007573985
 20
173.7863331237
 40
1.4999999997
100
AcDbArc
 50
269.9999999998
 51
349.9999999899
  0
ARC
  5
394
100
AcDbEntity
  8
RUNDUNGEN
100
AcDbCircle
 62
7
  6
CONTINUOUS
 10
132.0334380896
 20
171.286333126
 40
1.0
100
AcDbArc
 50
90.0
 51
180.0
  0
ARC
  5
395
100
AcDbEntity
  8
RUNDUNGEN
100
AcDbCircle
 62
7
  6
CONTINUOUS
 10
132.0334380896
 20
155.286333126
 40
1.0
100
AcDbArc
 50
180.0
 51
270.0
  0
ARC
  5
396
100
AcDbEntity
  8
RUNDUNGEN
100
AcDbCircle
 62
7
  6
CONTINUOUS
 10
173.0334380896
 20
197.6442950103
 40
6.0
100
AcDbArc
 50
179.9994009168
 51
200.000828837
  0
ARC
  5
397
100
AcDbEntity
  8
BEZUGSACHSEN
100
AcDbCircle
 62
7
  6
CONTINUOUS
 10
184.0334380896
 20
178.586333126
 40
3.0
100
AcDbArc
 50
0.0
 51
90.0
  0
ARC
  5
398
100
AcDbEntity
  8
RUNDUNGEN
100
AcDbCircle
 62
7
  6
CONTINUOUS
 10
174.5935547771
 20
184.586333126
 40
2.9999695329
100
AcDbArc
 50
200.0003882828
 51
270.0011352419
  0
ARC
  5
399
100
AcDbEntity
  8
BEZUGSACHSEN
100
AcDbCircle
 62
7
  6
CONTINUOUS
 10
174.5935547771
 20
184.586333126
 40
2.9999695329
100
AcDbArc
 50
200.0003882828
 51
230.3084876312
  0
ARC
  5
39A
100
AcDbEntity
  8
0
100
AcDbCircle
 62
7
  6
CONTINUOUS
 10
161.5334380896
 20
253.086333126
 40
30.5
100
AcDbArc
 50
0.0
 51
180.0
  0
ARC
  5
39B
100
AcDbEntity
  8
0
100
AcDbCircle
 62
7
  6
CONTINUOUS
 10
161.5334380896
 20
218.086333126
 40
30.5
100
AcDbArc
 50
285.8902692072
 51
360.0
  0
ARC
  5
39C
100
AcDbEntity
  8
0
100
AcDbCircle
 62
7
  6
CONTINUOUS
 10
161.5334380896
 20
218.086333126
 40
30.5
100
AcDbArc
 50
180.0
 51
254.1097307928
  0
ARC
  5
39D
100
AcDbEntity
  8
0
100
AcDbCircle
 62
7
  6
CONTINUOUS
 10
161.5334380896
 20
218.086333126
 40
17.5
100
AcDbArc
 50
288.3246461252
 51
360.0
  0
ARC
  5
39E
100
AcDbEntity
  8
0
100
AcDbCircle
 62
7
  6
CONTINUOUS
 10
161.5334380896
 20
218.086333126
 40
17.5
100
AcDbArc
 50
180.0
 51
251.6753538748
  0
ARC
  5
39F
100
AcDbEntity
  8
0
100
AcDbCircle
 62
7
  6
CONTINUOUS
 10
161.5334380896
 20
253.086333126
 40
17.5
100
AcDbArc
 50
0.0
 51
180.0
  0
ARC
  5
3A0
100
AcDbEntity
  8
RUNDUNGEN
100
AcDbCircle
 62
7
  6
CONTINUOUS
 10
158.5334380896
 20
213.8391565251
 40
2.5
100
AcDbArc
 50
90.0
 51
180.0
  0
ARC
  5
3A1
100
AcDbEntity
  8
RUNDUNGEN
100
AcDbCircle
 62
7
  6
CONTINUOUS
 10
164.5334380896
 20
213.8391565251
 40
2.5
100
AcDbArc
 50
0.0
 51
90.0
  0
ARC
  5
3A2
100
AcDbEntity
  8
BEZUGSACHSEN
100
AcDbCircle
 62
7
  6
CONTINUOUS
 10
239.9636855879
 20
178.7600806102
 40
3.0000019648
100
AcDbArc
 50
103.822263961
 51
179.9999193984
  0
ARC
  5
3A3
100
AcDbEntity
  8
BEZUGSACHSEN
100
AcDbCircle
 62
7
  6
CONTINUOUS
 10
238.530218191
 20
184.586333126
 40
3.0
100
AcDbArc
 50
283.8222962928
 51
22.5
  0
ARC
  5
3A4
100
AcDbEntity
  8
BEZUGSACHSEN
100
AcDbCircle
 62
7
  6
CONTINUOUS
 10
241.7108628938
 20
192.586333126
 40
3.0
100
AcDbArc
 50
157.5
 51
202.5
  0
ARC
  5
3A5
100
AcDbEntity
  8
RUNDUNGEN
100
AcDbCircle
 62
7
  6
CONTINUOUS
 10
256.4636862929
 20
157.286333126
 40
3.0
100
AcDbArc
 50
180.0
 51
270.0
  0
ARC
  5
3A6
100
AcDbEntity
  8
RUNDUNGEN
100
AcDbCircle
 62
7
  6
CONTINUOUS
 10
253.9636862929
 20
149.286333126
 40
2.0
100
AcDbArc
 50
89.9999999774
 51
179.9999999849
  0
ARC
  5
3A7
100
AcDbEntity
  8
RUNDUNGEN
100
AcDbCircle
 62
7
  6
CONTINUOUS
 10
253.9636862929
 20
137.286333126
 40
2.0
100
AcDbArc
 50
179.9999999774
 51
269.9999999849
  0
ARC
  5
3A8
100
AcDbEntity
  8
RUNDUNGEN
100
AcDbCircle
 62
7
  6
CONTINUOUS
 10
255.9636862925
 20
151.7863331264
 40
0.5000000004
100
AcDbArc
 50
270.0000000505
 51
359.9999999508
  0
ARC
  5
3A9
100
AcDbEntity
  8
BEZUGSACHSEN
100
AcDbCircle
 62
7
  6
CONTINUOUS
 10
247.7892241386
 20
207.2607952803
 40
3.0
100
AcDbArc
 50
112.5
 51
157.5
  0
ARC
  5
3AA
100
AcDbEntity
  8
RUNDUNGEN
100
AcDbCircle
 62
7
  6
CONTINUOUS
 10
262.4636862929
 20
163.286333126
 40
9.0
100
AcDbArc
 50
0.0
 51
180.0
  0
ARC
  5
3AB
100
AcDbEntity
  8
RUNDUNGEN
100
AcDbCircle
 62
7
  6
CONTINUOUS
 10
268.4636862929
 20
157.286333126
 40
3.0
100
AcDbArc
 50
270.0
 51
360.0
  0
ARC
  5
3AC
100
AcDbEntity
  8
RUNDUNGEN
100
AcDbCircle
 62
7
  6
CONTINUOUS
 10
270.9636862929
 20
137.286333126
 40
2.0
100
AcDbArc
 50
269.9999999774
 51
359.9999999849
  0
ARC
  5
3AD
100
AcDbEntity
  8
RUNDUNGEN
100
AcDbCircle
 62
7
  6
CONTINUOUS
 10
270.9636862929
 20
149.286333126
 40
2.0
100
AcDbArc
 50
0.0
 51
89.9999999849
  0
ARC
  5
3AE
100
AcDbEntity
  8
RUNDUNGEN
100
AcDbCircle
 62
7
  6
CONTINUOUS
 10
268.9636862929
 20
151.786333126
 40
0.5
100
AcDbArc
 50
181.6568928532
 51
270.0
  0
ARC
  5
3AF
100
AcDbEntity
  8
RUNDUNGEN
100
AcDbCircle
 62
7
  6
CONTINUOUS
 10
262.4636862929
 20
192.586333126
 40
8.0
100
AcDbArc
 50
11.8199694279
 51
28.7971873513
  0
ARC
  5
3B0
100
AcDbEntity
  8
BEZUGSACHSEN
100
AcDbCircle
 62
7
  6
CONTINUOUS
 10
262.4636862929
 20
192.586333126
 40
8.0
100
AcDbArc
 50
144.4626878253
 51
35.5373121747
  0
ARC
  5
3B1
100
AcDbEntity
  8
0
100
AcDbCircle
 62
7
  6
CONTINUOUS
 10
262.4636862929
 20
194.086333126
 40
6.5
100
AcDbArc
 50
180.0
 51
360.0
  0
ARC
  5
3B2
100
AcDbEntity
  8
BEZUGSACHSEN
100
AcDbCircle
 62
7
  6
CONTINUOUS
 10
284.963686998
 20
178.7600806102
 40
3.0000019648
100
AcDbArc
 50
0.0000806016
 51
76.177736039
  0
ARC
  5
3B3
100
AcDbEntity
  8
BEZUGSACHSEN
100
AcDbCircle
 62
7
  6
CONTINUOUS
 10
283.216509692
 20
192.586333126
 40
3.0
100
AcDbArc
 50
337.5
 51
22.5
  0
ARC
  5
3B4
100
AcDbEntity
  8
RUNDUNGEN
100
AcDbCircle
 62
7
  6
CONTINUOUS
 10
286.3971543948
 20
184.586333126
 40
3.0
100
AcDbArc
 50
157.5
 51
246.6781584794
  0
ARC
  5
3B5
100
AcDbEntity
  8
BEZUGSACHSEN
100
AcDbCircle
 62
7
  6
CONTINUOUS
 10
286.3971543948
 20
184.586333126
 40
3.0
100
AcDbArc
 50
157.5
 51
256.1777037072
  0
ARC
  5
3B6
100
AcDbEntity
  8
0
100
AcDbCircle
 62
7
  6
CONTINUOUS
 10
262.4636862929
 20
277.086333126
 40
6.5
100
AcDbArc
 50
0.0
 51
180.0
  0
ARC
  5
3B7
100
AcDbEntity
  8
RUNDUNGEN
100
AcDbCircle
 62
7
  6
CONTINUOUS
 10
277.1381484472
 20
207.2607952803
 40
3.0
100
AcDbArc
 50
22.5
 51
34.9964240987
  0
ARC
  5
3B8
100
AcDbEntity
  8
BEZUGSACHSEN
100
AcDbCircle
 62
7
  6
CONTINUOUS
 10
277.1381484472
 20
207.2607952803
 40
3.0
100
AcDbArc
 50
22.5
 51
67.5
  0
ARC
  5
3B9
100
AcDbEntity
  8
RUNDUNGEN
100
AcDbCircle
 62
7
  6
CONTINUOUS
 10
132.5334380896
 20
36.9085490628
 40
1.5
100
AcDbArc
 50
0.0
 51
90.0
  0
ARC
  5
3BA
100
AcDbEntity
  8
RUNDUNGEN
100
AcDbCircle
 62
7
  6
CONTINUOUS
 10
132.0334380896
 20
39.4085490628
 40
1.0
100
AcDbArc
 50
180.0
 51
270.0
  0
ARC
  5
3BB
100
AcDbEntity
  8
0
100
AcDbCircle
 62
7
  6
CONTINUOUS
 10
137.5334380896
 20
47.4085490628
 40
6.5
100
AcDbArc
 50
90.0
 51
270.0
  0
ARC
  5
3BC
100
AcDbEntity
  8
RUNDUNGEN
100
AcDbCircle
 62
7
  6
CONTINUOUS
 10
132.5334380896
 20
57.9085490628
 40
1.5
100
AcDbArc
 50
270.0000000002
 51
360.0
  0
ARC
  5
3BD
100
AcDbEntity
  8
RUNDUNGEN
100
AcDbCircle
 62
7
  6
CONTINUOUS
 10
132.0334380896
 20
55.4085490628
 40
1.0
100
AcDbArc
 50
90.0
 51
180.0
  0
ARC
  5
3BE
100
AcDbEntity
  8
RUNDUNGEN
100
AcDbCircle
 62
7
  6
CONTINUOUS
 10
188.5334380896
 20
33.4914585103
 40
0.5
100
AcDbArc
 50
270.0
 51
360.0
  0
ARC
  5
3BF
100
AcDbEntity
  8
FASEN
100
AcDbCircle
 62
7
  6
CONTINUOUS
 10
161.5334380896
 20
47.4085490628
 40
27.4421273689
100
AcDbArc
 50
12.3162554795
 51
167.68374456
  0
ARC
  5
3C0
100
AcDbEntity
  8
FASEN
100
AcDbCircle
 62
7
  6
CONTINUOUS
 10
161.5334380896
 20
47.4085490628
 40
27.4421273689
100
AcDbArc
 50
192.3162554795
 51
347.68374456
  0
ARC
  5
3C1
100
AcDbEntity
  8
FASEN
100
AcDbCircle
 62
7
  6
CONTINUOUS
 10
161.5334380896
 20
47.4085490628
 40
26.2684791912
100
AcDbArc
 50
13.9336062405
 51
166.066393769
  0
ARC
  5
3C2
100
AcDbEntity
  8
FASEN
100
AcDbCircle
 62
7
  6
CONTINUOUS
 10
161.5334380896
 20
47.4085490628
 40
26.2684791912
100
AcDbArc
 50
193.9336062405
 51
346.066393769
  0
ARC
  5
3C3
100
AcDbEntity
  8
0
100
AcDbCircle
 62
7
  6
CONTINUOUS
 10
161.5334380896
 20
47.4085490628
 40
26.0
100
AcDbArc
 50
194.2073315656
 51
345.7926684344
  0
ARC
  5
3C4
100
AcDbEntity
  8
0
100
AcDbCircle
 62
7
  6
CONTINUOUS
 10
161.5334380896
 20
47.4085490628
 40
26.0
100
AcDbArc
 50
14.2073315656
 51
165.7926684344
  0
ARC
  5
3C5
100
AcDbEntity
  8
RUNDUNGEN
100
AcDbCircle
 62
7
  6
CONTINUOUS
 10
161.5334380896
 20
47.4085490628
 40
25.5
100
AcDbArc
 50
286.6370852354
 51
305.1078185359
  0
ARC
  5
3C6
100
AcDbEntity
  8
BEZUGSACHSEN
100
AcDbCircle
 62
7
  6
CONTINUOUS
 10
161.5334380896
 20
47.4085490628
 40
25.5
100
AcDbArc
 50
305.1078185359
 51
345.2967063289
  0
ARC
  5
3C7
100
AcDbEntity
  8
BEZUGSACHSEN
100
AcDbCircle
 62
7
  6
CONTINUOUS
 10
161.5334380896
 20
47.4085490628
 40
25.5
100
AcDbArc
 50
14.7032936711
 51
165.2967063289
  0
ARC
  5
3C8
100
AcDbEntity
  8
BEZUGSACHSEN
100
AcDbCircle
 62
7
  6
CONTINUOUS
 10
161.5334380896
 20
47.4085490628
 40
25.5
100
AcDbArc
 50
194.7032936711
 51
286.6370852354
  0
ARC
  5
3C9
100
AcDbEntity
  8
0
100
AcDbCircle
 62
7
  6
CONTINUOUS
 10
185.5334380896
 20
47.4085490628
 40
6.5
100
AcDbArc
 50
270.0
 51
90.0
  0
ARC
  5
3CA
100
AcDbEntity
  8
RUNDUNGEN
100
AcDbCircle
 62
7
  6
CONTINUOUS
 10
188.5334380896
 20
61.3256396154
 40
0.5
100
AcDbArc
 50
0.0
 51
90.0
  0
SPLINE
  5
3CB
100
AcDbEntity
  8
RUNDUNGEN
100
AcDbSpline
 62
7
  6
CONTINUOUS
 70
0
 71
3
 72
13
 73
9
 74
0
 42
0.0000001
 43
0.0000001
 44
0.0000000001
 40
0.0
 40
0.0
 40
0.0
 40
0.0
 40
0.073595118
 40
0.1657103939
 40
0.2748941428
 40
0.3994060017
 40
0.6852377878
 40
1.0
 40
1.0
 40
1.0
 40
1.0
 10
188.5334380896
 20
169.6514037773
 30
0.0
 10
188.4124999452
 20
169.4498472357
 30
0.0
 10
188.1781788042
 20
168.973380901
 30
0.0
 10
187.8718570471
 20
168.1495444503
 30
0.0
 10
187.5958258686
 20
167.1447677995
 30
0.0
 10
187.2918590691
 20
165.5118119221
 30
0.0
 10
187.1718799039
 20
163.1864735118
 30
0.0
 10
187.4037881169
 20
161.2718451766
 30
0.0
 10
187.6023644162
 20
160.286333126
 30
0.0
  0
SPLINE
  5
3CC
100
AcDbEntity
  8
RUNDUNGEN
100
AcDbSpline
 62
7
  6
CONTINUOUS
 70
0
 71
3
 72
8
 73
4
 74
0
 42
0.0000001
 43
0.0000001
 44
0.0000000001
 40
0.0
 40
0.0
 40
0.0
 40
0.0
 40
1.0
 40
1.0
 40
1.0
 40
1.0
 10
188.5334380896
 20
155.6467067395
 30
0.0
 10
188.2242531459
 20
157.1934837912
 30
0.0
 10
187.9139365832
 20
158.7400351723
 30
0.0
 10
187.6023644162
 20
160.286333126
 30
0.0
  0
SPLINE
  5
3CD
100
AcDbEntity
  8
RUNDUNGEN
100
AcDbSpline
 62
7
  6
CONTINUOUS
 70
0
 71
3
 72
11
 73
7
 74
0
 42
0.0000001
 43
0.0000001
 44
0.0000000001
 40
0.0
 40
0.0
 40
0.0
 40
0.0
 40
0.2546128952
 40
0.5
 40
0.7453871049
 40
1.0
 40
1.0
 40
1.0
 40
1.0
 10
189.0334380896
 20
153.1402629128
 30
0.0
 10
188.9328503772
 20
153.1867241198
 30
0.0
 10
188.7261730544
 20
153.2602405432
 30
0.0
 10
188.4012214232
 20
153.2991033565
 30
0.0
 10
188.076269792
 20
153.2602405432
 30
0.0
 10
187.8695924693
 20
153.1867241198
 30
0.0
 10
187.7690047568
 20
153.1402629128
 30
0.0
  0
SPLINE
  5
3CE
100
AcDbEntity
  8
BEZUGSACHSEN
100
AcDbSpline
 62
7
  6
CONTINUOUS
 70
0
 71
3
 72
34
 73
30
 74
0
 42
0.0000001
 43
0.0000001
 44
0.0000000001
 40
0.0
 40
0.0
 40
0.0
 40
0.0
 40
0.0643438988
 40
0.1285350167
 40
0.1925139786
 40
0.2561817082
 40
0.2878510426
 40
0.3193654875
 40
0.3506712398
 40
0.3816873352
 40
0.4122883789
 40
0.4422851534
 40
0.4570077723
 40
0.4715193068
 40
0.4858341854
 40
0.500031415
 40
0.5142287277
 40
0.5285436097
 40
0.5577147032
 40
0.587711541
 40
0.6183126019
 40
0.6493287023
 40
0.6806344602
 40
0.7121489224
 40
0.743818273
 40
0.8074860087
 40
0.8714649757
 40
0.9356560985
 40
1.0
 40
1.0
 40
1.0
 40
1.0
 10
187.7690047568
 20
153.1402629128
 30
0.0
 10
187.4385984799
 20
154.1449131897
 30
0.0
 10
186.7601240283
 20
156.1458405169
 30
0.0
 10
185.6748005679
 20
159.1185363586
 30
0.0
 10
184.5042532965
 20
162.0469340164
 30
0.0
 10
183.4330974649
 20
164.4378028441
 30
0.0
 10
182.4953345675
 20
166.3004161142
 30
0.0
 10
181.7446751379
 20
167.6605774368
 30
0.0
 10
180.9341721437
 20
168.9736683417
 30
0.0
 10
180.0483446841
 20
170.2197869465
 30
0.0
 10
179.0670217434
 20
171.3650526128
 30
0.0
 10
178.1387189347
 20
172.1944123186
 30
0.0
 10
177.3186237937
 20
172.7230167826
 30
0.0
 10
176.669089214
 20
173.0297571774
 30
0.0
 10
175.9864330421
 20
173.2273491503
 30
0.0
 10
175.2834498605
 20
173.2962013396
 30
0.0
 10
174.5804474139
 20
173.2273460561
 30
0.0
 10
173.6652584011
 20
172.9625146384
 30
0.0
 10
172.6043074905
 20
172.3525400604
 30
0.0
 10
171.5003940094
 20
171.3653229041
 30
0.0
 10
170.518388348
 20
170.219715
 30
0.0
 10
169.6327457776
 20
168.9736905337
 30
0.0
 10
168.8221905291
 20
167.6605746014
 30
0.0
 10
168.0715446324
 20
166.3004194155
 30
0.0
 10
167.1337785363
 20
164.4378025113
 30
0.0
 10
166.0626233276
 20
162.0469350656
 30
0.0
 10
164.8920755568
 20
159.1185366371
 30
0.0
 10
163.8067522018
 20
156.1458407182
 30
0.0
 10
163.1282777131
 20
154.1449132312
 30
0.0
 10
162.7978714225
 20
153.1402629128
 30
0.0
  0
SPLINE
  5
3CF
100
AcDbEntity
  8
BEZUGSACHSEN
100
AcDbSpline
 62
7
  6
CONTINUOUS
 70
0
 71
3
 72
8
 73
4
 74
0
 42
0.0000001
 43
0.0000001
 44
0.0000000001
 40
0.0
 40
0.0
 40
0.0
 40
0.0
 40
1.0
 40
1.0
 40
1.0
 40
1.0
 10
161.5334484216
 20
153.2863337176
 30
0.0
 10
161.1091641273
 20
153.2863337176
 30
0.0
 10
160.682407374
 20
153.2357377183
 30
0.0
 10
160.2690047568
 20
153.1402629128
 30
0.0
  0
SPLINE
  5
3D0
100
AcDbEntity
  8
BEZUGSACHSEN
100
AcDbSpline
 62
7
  6
CONTINUOUS
 70
0
 71
3
 72
8
 73
4
 74
0
 42
0.0000001
 43
0.0000001
 44
0.0000000001
 40
0.0
 40
0.0
 40
0.0
 40
0.0
 40
1.0
 40
1.0
 40
1.0
 40
1.0
 10
162.7978714225
 20
153.1402629128
 30
0.0
 10
162.3844754723
 20
153.2357361786
 30
0.0
 10
161.9577258734
 20
153.2863337176
 30
0.0
 10
161.5334484216
 20
153.2863337176
 30
0.0
  0
LINE
  5
3D1
100
AcDbEntity
  8
RUNDUNGEN
100
AcDbLine
 62
7
  6
CONTINUOUS
 10
133.9464894848
 20
162.8247558032
 11
132.5334380896
 21
162.9562088764
  0
SPLINE
  5
3D2
100
AcDbEntity
  8
RUNDUNGEN
100
AcDbSpline
 62
7
  6
CONTINUOUS
 70
0
 71
3
 72
14
 73
10
 74
0
 42
0.0000001
 43
0.0000001
 44
0.0000000001
 40
0.0
 40
0.0
 40
0.0
 40
0.0
 40
0.063704398
 40
0.1070655893
 40
0.1577762133
 40
0.2751731301
 40
0.4070456682
 40
0.6946792233
 40
1.0
 40
1.0
 40
1.0
 40
1.0
 10
133.9464894848
 20
162.8247558032
 30
0.0
 10
133.9582258176
 20
162.8236647572
 30
0.0
 10
133.974984214
 20
162.8077826367
 30
0.0
 10
133.9876028478
 20
162.782056819
 30
0.0
 10
134.0005467249
 20
162.7448231179
 30
0.0
 10
134.0117526041
 20
162.6904217594
 30
0.0
 10
134.024403359
 20
162.5918141696
 30
0.0
 10
134.0319302213
 20
162.4578044089
 30
0.0
 10
134.0334380896
 20
162.3480938431
 30
0.0
 10
134.0334380896
 20
162.2916017179
 30
0.0
  0
SPLINE
  5
3D3
100
AcDbEntity
  8
BEZUGSACHSEN
100
AcDbSpline
 62
7
  6
CONTINUOUS
 70
0
 71
3
 72
34
 73
30
 74
0
 42
0.0000001
 43
0.0000001
 44
0.0000000001
 40
0.0
 40
0.0
 40
0.0
 40
0.0
 40
0.0643438988
 40
0.1285350167
 40
0.1925139786
 40
0.2561817082
 40
0.2878510426
 40
0.3193654875
 40
0.3506712398
 40
0.3816873352
 40
0.4122883789
 40
0.4422851534
 40
0.4570077723
 40
0.4715193068
 40
0.4858341854
 40
0.500031415
 40
0.5142287277
 40
0.5285436097
 40
0.5577147032
 40
0.587711541
 40
0.6183126019
 40
0.6493287023
 40
0.6806344602
 40
0.7121489224
 40
0.743818273
 40
0.8074860087
 40
0.8714649757
 40
0.9356560985
 40
1.0
 40
1.0
 40
1.0
 40
1.0
 10
160.2690047568
 20
153.1402629128
 30
0.0
 10
159.9385984799
 20
154.1449131897
 30
0.0
 10
159.2601240283
 20
156.1458405169
 30
0.0
 10
158.1748005679
 20
159.1185363586
 30
0.0
 10
157.0042532965
 20
162.0469340164
 30
0.0
 10
155.9330974649
 20
164.4378028441
 30
0.0
 10
154.9953345675
 20
166.3004161142
 30
0.0
 10
154.2446751379
 20
167.6605774368
 30
0.0
 10
153.4341721437
 20
168.9736683417
 30
0.0
 10
152.5483446841
 20
170.2197869465
 30
0.0
 10
151.5670217434
 20
171.3650526128
 30
0.0
 10
150.6387189347
 20
172.1944123186
 30
0.0
 10
149.8186237937
 20
172.7230167826
 30
0.0
 10
149.169089214
 20
173.0297571774
 30
0.0
 10
148.4864330421
 20
173.2273491503
 30
0.0
 10
147.7834498605
 20
173.2962013396
 30
0.0
 10
147.0804474139
 20
173.2273460561
 30
0.0
 10
146.1652584011
 20
172.9625146384
 30
0.0
 10
145.1043074905
 20
172.3525400604
 30
0.0
 10
144.0003940094
 20
171.3653229041
 30
0.0
 10
143.018388348
 20
170.219715
 30
0.0
 10
142.1327457776
 20
168.9736905337
 30
0.0
 10
141.3221905291
 20
167.6605746014
 30
0.0
 10
140.5715446324
 20
166.3004194155
 30
0.0
 10
139.6337785363
 20
164.4378025113
 30
0.0
 10
138.5626233276
 20
162.0469350656
 30
0.0
 10
137.3920755568
 20
159.1185366371
 30
0.0
 10
136.3067522018
 20
156.1458407182
 30
0.0
 10
135.6282777131
 20
154.1449132312
 30
0.0
 10
135.2978714225
 20
153.1402629128
 30
0.0
  0
SPLINE
  5
3D4
100
AcDbEntity
  8
BEZUGSACHSEN
100
AcDbSpline
 62
7
  6
CONTINUOUS
 70
0
 71
3
 72
11
 73
7
 74
0
 42
0.0000001
 43
0.0000001
 44
0.0000000001
 40
0.0
 40
0.0
 40
0.0
 40
0.0
 40
0.2546128952
 40
0.5
 40
0.7453871049
 40
1.0
 40
1.0
 40
1.0
 40
1.0
 10
135.2978714225
 20
153.1402629128
 30
0.0
 10
135.19728371
 20
153.1867241198
 30
0.0
 10
134.9906063872
 20
153.2602405432
 30
0.0
 10
134.665654756
 20
153.2991033565
 30
0.0
 10
134.3407031249
 20
153.2602405432
 30
0.0
 10
134.1340258021
 20
153.1867241198
 30
0.0
 10
134.0334380896
 20
153.1402629128
 30
0.0
  0
SPLINE
  5
3D5
100
AcDbEntity
  8
RUNDUNGEN
100
AcDbSpline
 62
7
  6
CONTINUOUS
 70
0
 71
3
 72
29
 73
25
 74
0
 42
0.0000001
 43
0.0000001
 44
0.0000000001
 40
0.0
 40
0.0
 40
0.0
 40
0.0
 40
0.0615457787
 40
0.1195050148
 40
0.1450743564
 40
0.1559315326
 40
0.164707371
 40
0.1723262565
 40
0.1817377192
 40
0.1936815886
 40
0.2071869301
 40
0.2216529922
 40
0.2367223641
 40
0.2679044408
 40
0.2999048526
 40
0.3323704443
 40
0.3980807135
 40
0.4643721728
 40
0.5309810622
 40
0.5977797512
 40
0.664697378
 40
0.7316915281
 40
0.865808861
 40
1.0
 40
1.0
 40
1.0
 40
1.0
 10
189.0334380896
 20
154.4388605476
 30
0.0
 10
189.0334380896
 20
154.3994109901
 30
0.0
 10
189.0320598937
 20
154.3227449039
 30
0.0
 10
189.0247929587
 20
154.2301208093
 30
0.0
 10
189.012110579
 20
154.1703143585
 30
0.0
 10
189.0004211801
 20
154.1440165067
 30
0.0
 10
188.9889356541
 20
154.1294262065
 30
0.0
 10
188.970742684
 20
154.1277103837
 30
0.0
 10
188.9549775784
 20
154.1390896151
 30
0.0
 10
188.9406957084
 20
154.1561643445
 30
0.0
 10
188.9268006139
 20
154.177760629
 30
0.0
 10
188.9136817751
 20
154.2020288434
 30
0.0
 10
188.8968625664
 20
154.2371432337
 30
0.0
 10
188.8775256985
 20
154.2834497458
 30
0.0
 10
188.8561256682
 20
154.3409109804
 30
0.0
 10
188.8291192755
 20
154.4198677046
 30
0.0
 10
188.7979158102
 20
154.5205840096
 30
0.0
 10
188.7631700261
 20
154.6430629301
 30
0.0
 10
188.7303731531
 20
154.7667982603
 30
0.0
 10
188.6991228302
 20
154.8913446443
 30
0.0
 10
188.6691530421
 20
155.0164585329
 30
0.0
 10
188.6306350903
 20
155.1838878948
 30
0.0
 10
188.5848724117
 20
155.3938888708
 30
0.0
 10
188.5502978289
 20
155.5623615659
 30
0.0
 10
188.5334380896
 20
155.6467067395
 30
0.0
  0
SPLINE
  5
3D6
100
AcDbEntity
  8
RUNDUNGEN
100
AcDbSpline
 62
7
  6
CONTINUOUS
 70
0
 71
3
 72
15
 73
11
 74
0
 42
0.0000001
 43
0.0000001
 44
0.0000000001
 40
0.0
 40
0.0
 40
0.0
 40
0.0
 40
0.2509425013
 40
0.3561740779
 40
0.4487608728
 40
0.5314132919
 40
0.6127712676
 40
0.7249061443
 40
0.8404264108
 40
1.0
 40
1.0
 40
1.0
 40
1.0
 10
188.5334380896
 20
169.6514037773
 30
0.0
 10
188.5687634833
 20
169.7102773792
 30
0.0
 10
188.6241615576
 20
169.7914350431
 30
0.0
 10
188.7111990969
 20
169.8785826297
 30
0.0
 10
188.7743353126
 20
169.9230880254
 30
0.0
 10
188.8411995943
 20
169.9481660758
 30
0.0
 10
188.9202457667
 20
169.9421803961
 30
0.0
 10
188.9873095674
 20
169.8810039877
 30
0.0
 10
189.026288579
 20
169.7809842422
 30
0.0
 10
189.0334380896
 20
169.7050731271
 30
0.0
 10
189.0334380896
 20
169.6614134154
 30
0.0
  0
LINE
  5
3D7
100
AcDbEntity
  8
RUNDUNGEN
100
AcDbLine
 62
7
  6
CONTINUOUS
 10
268.4637363802
 20
151.786333126
 11
268.4638953444
 21
151.7718760234
  0
SPLINE
  5
3D8
100
AcDbEntity
  8
RUNDUNGEN
100
AcDbSpline
 62
7
  6
CONTINUOUS
 70
0
 71
3
 72
13
 73
9
 74
0
 42
0.0000001
 43
0.0000001
 44
0.0000000001
 40
0.0
 40
0.0
 40
0.0
 40
0.0
 40
0.1442671027
 40
0.2876207128
 40
0.5621181214
 40
0.6882195285
 40
0.8033736991
 40
1.0
 40
1.0
 40
1.0
 40
1.0
 10
268.4636862929
 20
152.786333126
 30
0.0
 10
268.463687409
 20
152.8878075123
 30
0.0
 10
268.4429122343
 20
153.0907755105
 30
0.0
 10
268.3250511921
 20
153.4701705362
 30
0.0
 10
268.1132389874
 20
153.7995530876
 30
0.0
 10
267.8467956704
 20
154.0480522197
 30
0.0
 10
267.5895705553
 20
154.21789604
 30
0.0
 10
267.3699381828
 20
154.286248189
 30
0.0
 10
267.2316354853
 20
154.286333126
 30
0.0
  0
SPLINE
  5
3D9
100
AcDbEntity
  8
RUNDUNGEN
100
AcDbSpline
 62
7
  6
CONTINUOUS
 70
0
 71
3
 72
13
 73
9
 74
0
 42
0.0000001
 43
0.0000001
 44
0.0000000001
 40
0.0
 40
0.0
 40
0.0
 40
0.0
 40
0.1966264137
 40
0.3117805313
 40
0.4378819523
 40
0.7123792854
 40
0.8557328719
 40
1.0
 40
1.0
 40
1.0
 40
1.0
 10
257.6957371005
 20
154.286333126
 30
0.0
 10
257.557434323
 20
154.2862482594
 30
0.0
 10
257.3378019053
 20
154.2178959956
 30
0.0
 10
257.0805767637
 20
154.0480521177
 30
0.0
 10
256.8141336183
 20
153.7995529993
 30
0.0
 10
256.6023208214
 20
153.470170587
 30
0.0
 10
256.4844611774
 20
153.0907755012
 30
0.0
 10
256.4636837406
 20
152.8878075306
 30
0.0
 10
256.4636862929
 20
152.786333126
 30
0.0
  0
LINE
  5
3DA
100
AcDbEntity
  8
0
100
AcDbLine
 62
7
  6
CONTINUOUS
 10
272.4820845502
 20
143.9037499154
 11
272.4636862929
 21
143.9037499154
  0
LINE
  5
3DB
100
AcDbEntity
  8
0
100
AcDbLine
 62
7
  6
CONTINUOUS
 10
272.5003891421
 20
143.9037499154
 11
272.4820845502
 21
143.9037499154
  0
LINE
  5
3DC
100
AcDbEntity
  8
0
100
AcDbLine
 62
7
  6
CONTINUOUS
 10
272.4590821054
 20
149.4037697639
 11
272.5003891421
 21
149.4037697639
  0
LINE
  5
3DD
100
AcDbEntity
  8
0
100
AcDbLine
 62
7
  6
CONTINUOUS
 10
272.5003891421
 20
149.4037697639
 11
272.5003891421
 21
149.286333126
  0
SPLINE
  5
3DE
100
AcDbEntity
  8
RUNDUNGEN
100
AcDbSpline
 62
7
  6
CONTINUOUS
 70
0
 71
3
 72
9
 73
5
 74
0
 42
0.0000001
 43
0.0000001
 44
0.0000000001
 40
0.0
 40
0.0
 40
0.0
 40
0.0
 40
0.4999834797
 40
1.0
 40
1.0
 40
1.0
 40
1.0
 10
251.9636862929
 20
162.2916017179
 30
0.0
 10
251.228306388
 20
160.8039611857
 30
0.0
 10
249.8630021858
 20
157.7762617844
 30
0.0
 10
248.635776707
 20
154.6917421188
 30
0.0
 10
248.0465957404
 20
153.1402629128
 30
0.0
  0
SPLINE
  5
3DF
100
AcDbEntity
  8
BEZUGSACHSEN
100
AcDbSpline
 62
7
  6
CONTINUOUS
 70
0
 71
3
 72
9
 73
5
 74
0
 42
0.0000001
 43
0.0000001
 44
0.0000000001
 40
0.0
 40
0.0
 40
0.0
 40
0.0
 40
0.5
 40
1.0
 40
1.0
 40
1.0
 40
1.0
 10
248.0465957404
 20
153.1402629128
 30
0.0
 10
247.6907877826
 20
153.2351485735
 30
0.0
 10
246.9515643527
 20
153.337470272
 30
0.0
 10
246.2123409229
 20
153.2351485735
 30
0.0
 10
245.8565329651
 20
153.1402629128
 30
0.0
  0
SPLINE
  5
3E0
100
AcDbEntity
  8
BEZUGSACHSEN
100
AcDbSpline
 62
7
  6
CONTINUOUS
 70
0
 71
3
 72
39
 73
35
 74
0
 42
0.0000001
 43
0.0000001
 44
0.0000000001
 40
0.0
 40
0.0
 40
0.0
 40
0.0
 40
0.0696666103
 40
0.1387990656
 40
0.207186563
 40
0.2409999243
 40
0.274474598
 40
0.3075172729
 40
0.3399932348
 40
0.3716965788
 40
0.402305997
 40
0.4312982831
 40
0.4449446081
 40
0.4578380733
 40
0.4698211184
 40
0.4807730077
 40
0.4907181911
 40
0.4999998621
 40
0.5092815672
 40
0.5192267888
 40
0.5301785871
 40
0.5421618176
 40
0.555055174
 40
0.5687016611
 40
0.5976939552
 40
0.6283033662
 40
0.6600067065
 40
0.692482687
 40
0.7255253848
 40
0.7590000531
 40
0.7928134234
 40
0.8612009258
 40
0.9303333866
 40
1.0
 40
1.0
 40
1.0
 40
1.0
 10
245.8565329651
 20
153.1402629128
 30
0.0
 10
245.6661816428
 20
154.1427600579
 30
0.0
 10
245.2756529889
 20
156.1379591415
 30
0.0
 10
244.6498177325
 20
159.107511148
 30
0.0
 10
244.085797604
 20
161.5530815238
 30
0.0
 10
243.600735218
 20
163.4802854481
 30
0.0
 10
243.2189576844
 20
164.8994551374
 30
0.0
 10
242.8143252231
 20
166.2919378161
 30
0.0
 10
242.3822285528
 20
167.6490040556
 30
0.0
 10
241.9165717878
 20
168.9573787525
 30
0.0
 10
241.4095419195
 20
170.1954360629
 30
0.0
 10
240.9353992954
 20
171.159729147
 30
0.0
 10
240.5146586488
 20
171.8565067111
 30
0.0
 10
240.1860670871
 20
172.3161128592
 30
0.0
 10
239.8366450312
 20
172.7094594629
 30
0.0
 10
239.4642447849
 20
173.0188382194
 30
0.0
 10
239.0669293831
 20
173.22354757
 30
0.0
 10
238.6479937046
 20
173.2973345726
 30
0.0
 10
238.2290527152
 20
173.223559521
 30
0.0
 10
237.8317443935
 20
173.0188371965
 30
0.0
 10
237.4593326799
 20
172.7094706377
 30
0.0
 10
237.1099178273
 20
172.3161167039
 30
0.0
 10
236.7813158962
 20
171.8565143565
 30
0.0
 10
236.3605829249
 20
171.1597304878
 30
0.0
 10
235.8864342377
 20
170.195438563
 30
0.0
 10
235.3794049627
 20
168.9573806469
 30
0.0
 10
234.9137468175
 20
167.6490064553
 30
0.0
 10
234.4816501995
 20
166.2919395591
 30
0.0
 10
234.0770185892
 20
164.8994561033
 30
0.0
 10
233.6952399436
 20
163.4802863114
 30
0.0
 10
233.2101781411
 20
161.5530821059
 30
0.0
 10
232.6461575602
 20
159.1075115498
 30
0.0
 10
232.0203224336
 20
156.1379593057
 30
0.0
 10
231.6297937432
 20
154.1427601017
 30
0.0
 10
231.4394424126
 20
153.1402629128
 30
0.0
  0
SPLINE
  5
3E1
100
AcDbEntity
  8
BEZUGSACHSEN
100
AcDbSpline
 62
7
  6
CONTINUOUS
 70
0
 71
3
 72
39
 73
35
 74
0
 42
0.0000001
 43
0.0000001
 44
0.0000000001
 40
0.0
 40
0.0
 40
0.0
 40
0.0
 40
0.0696666103
 40
0.1387990656
 40
0.207186563
 40
0.2409999243
 40
0.274474598
 40
0.3075172729
 40
0.3399932348
 40
0.3716965788
 40
0.402305997
 40
0.4312982831
 40
0.4449446081
 40
0.4578380733
 40
0.4698211184
 40
0.4807730077
 40
0.4907181911
 40
0.4999998621
 40
0.5092815672
 40
0.5192267888
 40
0.5301785871
 40
0.5421618176
 40
0.555055174
 40
0.5687016611
 40
0.5976939552
 40
0.6283033662
 40
0.6600067065
 40
0.692482687
 40
0.7255253848
 40
0.7590000531
 40
0.7928134234
 40
0.8612009258
 40
0.9303333866
 40
1.0
 40
1.0
 40
1.0
 40
1.0
 10
293.4879301733
 20
153.1402629128
 30
0.0
 10
293.2975788509
 20
154.1427600579
 30
0.0
 10
292.907050197
 20
156.1379591415
 30
0.0
 10
292.2812149406
 20
159.107511148
 30
0.0
 10
291.7171948122
 20
161.5530815238
 30
0.0
 10
291.2321324261
 20
163.4802854481
 30
0.0
 10
290.8503548926
 20
164.8994551374
 30
0.0
 10
290.4457224312
 20
166.2919378161
 30
0.0
 10
290.013625761
 20
167.6490040556
 30
0.0
 10
289.5479689959
 20
168.9573787525
 30
0.0
 10
289.0409391277
 20
170.1954360629
 30
0.0
 10
288.5667965035
 20
171.159729147
 30
0.0
 10
288.146055857
 20
171.8565067111
 30
0.0
 10
287.8174642952
 20
172.3161128592
 30
0.0
 10
287.4680422393
 20
172.7094594629
 30
0.0
 10
287.0956419931
 20
173.0188382194
 30
0.0
 10
286.6983265912
 20
173.22354757
 30
0.0
 10
286.2793909128
 20
173.2973345726
 30
0.0
 10
285.8604499234
 20
173.223559521
 30
0.0
 10
285.4631416016
 20
173.0188371965
 30
0.0
 10
285.0907298881
 20
172.7094706377
 30
0.0
 10
284.7413150354
 20
172.3161167039
 30
0.0
 10
284.4127131044
 20
171.8565143565
 30
0.0
 10
283.991980133
 20
171.1597304878
 30
0.0
 10
283.5178314459
 20
170.195438563
 30
0.0
 10
283.0108021709
 20
168.9573806469
 30
0.0
 10
282.5451440256
 20
167.6490064553
 30
0.0
 10
282.1130474077
 20
166.2919395591
 30
0.0
 10
281.7084157974
 20
164.8994561033
 30
0.0
 10
281.3266371517
 20
163.4802863114
 30
0.0
 10
280.8415753493
 20
161.5530821059
 30
0.0
 10
280.2775547684
 20
159.1075115498
 30
0.0
 10
279.6517196417
 20
156.1379593057
 30
0.0
 10
279.2611909514
 20
154.1427601017
 30
0.0
 10
279.0708396207
 20
153.1402629128
 30
0.0
  0
SPLINE
  5
3E2
100
AcDbEntity
  8
BEZUGSACHSEN
100
AcDbSpline
 62
7
  6
CONTINUOUS
 70
0
 71
3
 72
9
 73
5
 74
0
 42
0.0000001
 43
0.0000001
 44
0.0000000001
 40
0.0
 40
0.0
 40
0.0
 40
0.0
 40
0.5
 40
1.0
 40
1.0
 40
1.0
 40
1.0
 10
279.0708396207
 20
153.1402629128
 30
0.0
 10
278.7150316629
 20
153.2351485735
 30
0.0
 10
277.9758082331
 20
153.337470272
 30
0.0
 10
277.2365848032
 20
153.2351485735
 30
0.0
 10
276.8807768455
 20
153.1402629128
 30
0.0
  0
SPLINE
  5
3E3
100
AcDbEntity
  8
RUNDUNGEN
100
AcDbSpline
 62
7
  6
CONTINUOUS
 70
0
 71
3
 72
9
 73
5
 74
0
 42
0.0000001
 43
0.0000001
 44
0.0000000001
 40
0.0
 40
0.0
 40
0.0
 40
0.0
 40
0.5000165202
 40
1.0
 40
1.0
 40
1.0
 40
1.0
 10
276.8807768455
 20
153.1402629128
 30
0.0
 10
276.291595879
 20
154.6917421184
 30
0.0
 10
275.064370399
 20
157.7762617835
 30
0.0
 10
273.699066198
 20
160.8039611853
 30
0.0
 10
272.9636862929
 20
162.2916017179
 30
0.0
  0
SPLINE
  5
3E4
100
AcDbEntity
  8
RUNDUNGEN
100
AcDbSpline
 62
7
  6
CONTINUOUS
 70
0
 71
3
 72
15
 73
11
 74
0
 42
0.0000001
 43
0.0000001
 44
0.0000000001
 40
0.0
 40
0.0
 40
0.0
 40
0.0
 40
0.0275205581
 40
0.051496133
 40
0.0831583897
 40
0.1699161539
 40
0.2870061281
 40
0.4320717753
 40
0.6018962695
 40
1.0
 40
1.0
 40
1.0
 40
1.0
 10
253.4636862929
 20
162.9567587574
 30
0.0
 10
253.4636873473
 20
162.9474293793
 30
0.0
 10
253.4467504535
 20
162.9340506565
 30
0.0
 10
253.4222628222
 20
162.922983158
 30
0.0
 10
253.3757185549
 20
162.9076927246
 30
0.0
 10
253.2978550163
 20
162.8914767475
 30
0.0
 10
253.1807170654
 20
162.8736328256
 30
0.0
 10
253.0351662713
 20
162.8577917875
 30
0.0
 10
252.7942089081
 20
162.8382645908
 30
0.0
 10
252.6018432578
 20
162.8292217324
 30
0.0
 10
252.4669613219
 20
162.8247558032
 30
0.0
  0
SPLINE
  5
3E5
100
AcDbEntity
  8
RUNDUNGEN
100
AcDbSpline
 62
7
  6
CONTINUOUS
 70
0
 71
3
 72
15
 73
11
 74
0
 42
0.0000001
 43
0.0000001
 44
0.0000000001
 40
0.0
 40
0.0
 40
0.0
 40
0.0
 40
0.3982456842
 40
0.5681322288
 40
0.7132516084
 40
0.8303839554
 40
0.9171960415
 40
0.948864865
 40
0.9727713468
 40
1.0
 40
1.0
 40
1.0
 40
1.0
 10
272.460411264
 20
162.8247558032
 30
0.0
 10
272.3255327517
 20
162.8292216191
 30
0.0
 10
272.133172443
 20
162.8382637825
 30
0.0
 10
271.8922175721
 20
162.8577878308
 30
0.0
 10
271.746675992
 20
162.8736522893
 30
0.0
 10
271.6295119546
 20
162.8914180494
 30
0.0
 10
271.5516780315
 20
162.9077421684
 30
0.0
 10
271.5051494428
 20
162.923064452
 30
0.0
 10
271.4807422127
 20
162.9338722866
 30
0.0
 10
271.4636860749
 20
162.9469819773
 30
0.0
 10
271.4636862929
 20
162.9562088764
 30
0.0
  0
SPLINE
  5
3E6
100
AcDbEntity
  8
RUNDUNGEN
100
AcDbSpline
 62
7
  6
CONTINUOUS
 70
0
 71
3
 72
10
 73
6
 74
0
 42
0.0000001
 43
0.0000001
 44
0.0000000001
 40
0.0
 40
0.0
 40
0.0
 40
0.0
 40
0.2562626971
 40
0.5120928533
 40
1.0
 40
1.0
 40
1.0
 40
1.0
 10
251.9636862929
 20
162.2916017179
 30
0.0
 10
251.9921269407
 20
162.3491358714
 30
0.0
 10
252.0532611786
 20
162.463369659
 30
0.0
 10
252.1865997549
 20
162.6676417281
 30
0.0
 10
252.3448341333
 20
162.8207121824
 30
0.0
 10
252.4669613219
 20
162.8247558032
 30
0.0
  0
SPLINE
  5
3E7
100
AcDbEntity
  8
RUNDUNGEN
100
AcDbSpline
 62
7
  6
CONTINUOUS
 70
0
 71
3
 72
10
 73
6
 74
0
 42
0.0000001
 43
0.0000001
 44
0.0000000001
 40
0.0
 40
0.0
 40
0.0
 40
0.0
 40
0.4879071467
 40
0.7437373029
 40
1.0
 40
1.0
 40
1.0
 40
1.0
 10
272.460411264
 20
162.8247558032
 30
0.0
 10
272.5825384526
 20
162.8207121824
 30
0.0
 10
272.740772831
 20
162.667641728
 30
0.0
 10
272.8741114073
 20
162.463369659
 30
0.0
 10
272.9352456452
 20
162.3491358714
 30
0.0
 10
272.9636862929
 20
162.2916017179
 30
0.0
  0
SPLINE
  5
3E8
100
AcDbEntity
  8
RUNDUNGEN
100
AcDbSpline
 62
7
  6
CONTINUOUS
 70
0
 71
3
 72
27
 73
23
 74
0
 42
0.0000001
 43
0.0000001
 44
0.0000000001
 40
0.0
 40
0.0
 40
0.0
 40
0.0
 40
0.2573276202
 40
0.3888930856
 40
0.5219826764
 40
0.588976763
 40
0.6561790049
 40
0.7234801179
 40
0.7906852785
 40
0.824134214
 40
0.8573515997
 40
0.8901292256
 40
0.9062272432
 40
0.9219990525
 40
0.937248906
 40
0.9516168091
 40
0.9643601168
 40
0.9738993755
 40
0.9784041733
 40
0.98237199
 40
0.9900349348
 40
1.0
 40
1.0
 40
1.0
 40
1.0
 10
188.5334380896
 20
39.4849714225
 30
0.0
 10
188.5733633598
 20
39.6626848628
 30
0.0
 10
188.6339062801
 20
39.9312129899
 30
0.0
 10
188.7155723102
 20
40.2915471631
 30
0.0
 10
188.7677736469
 20
40.5204195138
 30
0.0
 10
188.8102362662
 20
40.7047846171
 30
0.0
 10
188.8425462009
 20
40.8437019547
 30
0.0
 10
188.8753446153
 20
40.9826582835
 30
0.0
 10
188.9032500238
 20
41.0982211229
 30
0.0
 10
188.9261171007
 20
41.1901782403
 30
0.0
 10
188.9435432687
 20
41.2583780213
 30
0.0
 10
188.9584480224
 20
41.3145386158
 30
0.0
 10
188.9707044419
 20
41.3586356118
 30
0.0
 10
188.9799428927
 20
41.3906565243
 30
0.0
 10
188.9894217411
 20
41.4214552237
 30
0.0
 10
188.9985019623
 20
41.4496957095
 30
0.0
 10
189.0085508607
 20
41.474721424
 30
0.0
 10
189.0143883239
 20
41.4902527971
 30
0.0
 10
189.0259477657
 20
41.5035509053
 30
0.0
 10
189.0325807771
 20
41.4897206752
 30
0.0
 10
189.0327069786
 20
41.4759204766
 30
0.0
 10
189.0334380896
 20
41.4629764418
 30
0.0
 10
189.0334380896
 20
41.4559229142
 30
0.0
  0
SPLINE
  5
3E9
100
AcDbEntity
  8
RUNDUNGEN
100
AcDbSpline
 62
7
  6
CONTINUOUS
 70
0
 71
3
 72
27
 73
23
 74
0
 42
0.0000001
 43
0.0000001
 44
0.0000000001
 40
0.0
 40
0.0
 40
0.0
 40
0.0
 40
0.0099645627
 40
0.01762585
 40
0.0215936688
 40
0.0260829752
 40
0.0356333837
 40
0.0483544061
 40
0.0627212836
 40
0.0779734477
 40
0.093743454
 40
0.1098425808
 40
0.1426212029
 40
0.1758396493
 40
0.2092897389
 40
0.2764972148
 40
0.3438005763
 40
0.411004959
 40
0.4780011677
 40
0.6110949206
 40
0.7426644739
 40
1.0
 40
1.0
 40
1.0
 40
1.0
 10
189.0334380896
 20
53.3611752115
 30
0.0
 10
189.0334380896
 20
53.3541220574
 30
0.0
 10
189.032705062
 20
53.3411799983
 30
0.0
 10
189.0325822018
 20
53.32738004
 30
0.0
 10
189.0259567775
 20
53.3135655054
 30
0.0
 10
189.0143813727
 20
53.3268174779
 30
0.0
 10
189.0085718453
 20
53.3423569549
 30
0.0
 10
188.998513164
 20
53.3673607061
 30
0.0
 10
188.9894385506
 20
53.3955901971
 30
0.0
 10
188.9799594049
 20
53.4263875303
 30
0.0
 10
188.9707189417
 20
53.4584091955
 30
0.0
 10
188.958462828
 20
53.5025063059
 30
0.0
 10
188.9435563969
 20
53.5586686539
 30
0.0
 10
188.9261295776
 20
53.6268704231
 30
0.0
 10
188.9032613979
 20
53.7188303258
 30
0.0
 10
188.8753548469
 20
53.8343967434
 30
0.0
 10
188.8425553185
 20
53.9733573147
 30
0.0
 10
188.8102442754
 20
54.1122787562
 30
0.0
 10
188.7677803965
 20
54.2966491981
 30
0.0
 10
188.7155775007
 20
54.5255281146
 30
0.0
 10
188.6339091259
 20
54.885872524
 30
0.0
 10
188.5733644855
 20
55.1544082523
 30
0.0
 10
188.5334380896
 20
55.3321267031
 30
0.0
  0
SPLINE
  5
3EA
100
AcDbEntity
  8
RUNDUNGEN
100
AcDbSpline
 62
7
  6
CONTINUOUS
 70
0
 71
3
 72
18
 73
14
 74
0
 42
0.0000001
 43
0.0000001
 44
0.0000000001
 40
0.0
 40
0.0
 40
0.0
 40
0.0
 40
0.0243745022
 40
0.0473884623
 40
0.0723797916
 40
0.1021308687
 40
0.1383237891
 40
0.1817832396
 40
0.2914745417
 40
0.4309392129
 40
0.5977030738
 40
0.788530406
 40
1.0
 40
1.0
 40
1.0
 40
1.0
 10
187.6023644162
 20
61.8256396154
 30
0.0
 10
187.5648270571
 20
61.8256396154
 30
0.0
 10
187.4907563736
 20
61.8153181807
 30
0.0
 10
187.392563142
 20
61.7563154452
 30
0.0
 10
187.3205307059
 20
61.6575901961
 30
0.0
 10
187.2729633692
 20
61.5246160862
 30
0.0
 10
187.2469500948
 20
61.3574912721
 30
0.0
 10
187.2388906992
 20
61.0655034241
 30
0.0
 10
187.2867725101
 20
60.6159780905
 30
0.0
 10
187.404265706
 20
59.9862772625
 30
0.0
 10
187.5762200704
 20
59.2401631016
 30
0.0
 10
187.7886135215
 20
58.3899485244
 30
0.0
 10
187.9411388265
 20
57.7894607817
 30
0.0
 10
188.0203925253
 20
57.473582815
 30
0.0
  0
LINE
  5
3EB
100
AcDbEntity
  8
RUNDUNGEN
100
AcDbLine
 62
7
  6
CONTINUOUS
 10
188.0203925253
 20
57.473582815
 11
188.0362361506
 21
57.4103853927
  0
SPLINE
  5
3EC
100
AcDbEntity
  8
RUNDUNGEN
100
AcDbSpline
 62
7
  6
CONTINUOUS
 70
0
 71
3
 72
9
 73
5
 74
0
 42
0.0000001
 43
0.0000001
 44
0.0000000001
 40
0.0
 40
0.0
 40
0.0
 40
0.0
 40
0.2388534866
 40
1.0
 40
1.0
 40
1.0
 40
1.0
 10
188.0362361506
 20
57.4103853927
 30
0.0
 10
188.0775777187
 20
57.2453466562
 30
0.0
 10
188.2496153495
 20
56.5541274092
 30
0.0
 10
188.4145952507
 20
55.861114226
 30
0.0
 10
188.5334380896
 20
55.3321267031
 30
0.0
  0
SPLINE
  5
3ED
100
AcDbEntity
  8
RUNDUNGEN
100
AcDbSpline
 62
7
  6
CONTINUOUS
 70
0
 71
3
 72
9
 73
5
 74
0
 42
0.0000001
 43
0.0000001
 44
0.0000000001
 40
0.0
 40
0.0
 40
0.0
 40
0.0
 40
0.2602502679
 40
1.0
 40
1.0
 40
1.0
 40
1.0
 10
188.5334380896
 20
39.4849714225
 30
0.0
 10
188.4928029665
 20
39.3040983187
 30
0.0
 10
188.3337346225
 20
38.6097573358
 30
0.0
 10
188.1642717925
 20
37.9178408781
 30
0.0
 10
188.0362317313
 20
37.4066951239
 30
0.0
  0
LINE
  5
3EE
100
AcDbEntity
  8
RUNDUNGEN
100
AcDbLine
 62
7
  6
CONTINUOUS
 10
188.0362317313
 20
37.4066951239
 11
188.020092519
 21
37.3423196117
  0
SPLINE
  5
3EF
100
AcDbEntity
  8
RUNDUNGEN
100
AcDbSpline
 62
7
  6
CONTINUOUS
 70
0
 71
3
 72
18
 73
14
 74
0
 42
0.0000001
 43
0.0000001
 44
0.0000000001
 40
0.0
 40
0.0
 40
0.0
 40
0.0
 40
0.2114728366
 40
0.402300543
 40
0.5690625094
 40
0.7085237991
 40
0.8182114276
 40
0.8616695379
 40
0.8978617822
 40
0.9276131681
 40
0.95260597
 40
0.9756224593
 40
1.0
 40
1.0
 40
1.0
 40
1.0
 10
188.020092519
 20
37.3423196117
 30
0.0
 10
187.9408565989
 20
37.0265215708
 30
0.0
 10
187.7883696779
 20
36.4261887923
 30
0.0
 10
187.5760412435
 20
35.5761960745
 30
0.0
 10
187.4041527756
 20
34.8302838628
 30
0.0
 10
187.286719462
 20
34.2007594798
 30
0.0
 10
187.2388804659
 20
33.7513632885
 30
0.0
 10
187.2469633659
 20
33.459462564
 30
0.0
 10
187.2729879826
 20
33.2923876936
 30
0.0
 10
187.3205605171
 20
33.1594532956
 30
0.0
 10
187.3925917383
 20
33.060759422
 30
0.0
 10
187.4907731812
 20
33.0017765946
 30
0.0
 10
187.5648323886
 20
32.9914585103
 30
0.0
 10
187.6023644162
 20
32.9914585103
 30
0.0
  0
ENDSEC
  0
SECTION
  2
OBJECTS
  0
DICTIONARY
  5
C
100
AcDbDictionary
280
0
281
1
  3
ACAD_GROUP
350
D
  3
ACAD_MLINESTYLE
350
17
  3
ACAD_LAYOUT
350
1A
  3
ACAD_PLOTSETTINGS
350
19
  3
ACAD_PLOTSTYLENAME
350
E
  0
DICTIONARY
  5
D
102
{ACAD_REACTORS
330
C
102
}
100
AcDbDictionary
280
0
281
1
  0
ACDBDICTIONARYWDFLT
  5
E
102
{ACAD_REACTORS
330
C
102
}
100
AcDbDictionary
281
1
  3
Normal
350
F
100
AcDbDictionaryWithDefault
340
F
  0
DICTIONARY
  5
17
102
{ACAD_REACTORS
330
C
102
}
100
AcDbDictionary
280
0
281
1
  3
Standard
350
18
  0
DICTIONARY
  5
19
102
{ACAD_REACTORS
330
C
102
}
100
AcDbDictionary
281
1
  0
DICTIONARY
  5
1A
102
{ACAD_REACTORS
330
C
102
}
100
AcDbDictionary
281
1
  3
Model
350
3F0
  3
Layout1
350
3F1
  0
ACDBPLACEHOLDER
  5
F
102
{ACAD_REACTORS
330
E
102
}
  0
MLINESTYLE
  5
18
102
{ACAD_REACTORS
330
17
102
}
100
AcDbMlineStyle
  2
STANDARD
 70
0
  3

 62
256
 51
90.0
 52
90.0
 71
2
 49
0.5
 62
256
  6
BYLAYER
 49
-0.5
 62
256
  6
BYLAYER
  0
LAYOUT
  5
3F0
102
{ACAD_REACTORS
330
1A
102
}
100
AcDbPlotSettings
  1

  2
none_device
  4
ISO_A3_(420.00_x_297.00_MM)
  6

 40
0.0
 41
0.0
 42
0.0
 43
0.0
 44
420.0
 45
297.0
 46
0.0
 47
0.0
 48
0.0
 49
0.0
140
0.0
141
0.0
142
1.0
143
1.0
 70
1024
 72
1
 73
0
 74
0
  7

 75
0
147
1.0
148
0.0
149
0.0
100
AcDbLayout
  1
Model
 70
0
 71
0
 10
0.0
 20
0.0
 11
420.0
 21
297.0
 12
0.0
 22
0.0
 32
0.0
 14
0.0
 24
0.0
 34
0.0
 15
0.0
 25
0.0
 35
0.0
146
0.0
 13
0.0
 23
0.0
 33
0.0
 16
1.0
 26
0.0
 36
0.0
 17
0.0
 27
1.0
 37
0.0
 76
0
330
216
345
0
346
0
  0
LAYOUT
  5
3F1
102
{ACAD_REACTORS
330
1A
102
}
100
AcDbPlotSettings
  1

  2
none_device
  4
ISO_A3_(420.00_x_297.00_MM)
  6

 40
0.0
 41
0.0
 42
0.0
 43
0.0
 44
420.0
 45
297.0
 46
0.0
 47
0.0
 48
0.0
 49
0.0
140
0.0
141
0.0
142
1.0
143
1.0
 70
0
 72
1
 73
0
 74
0
  7

 75
0
147
1.0
148
0.0
149
0.0
100
AcDbLayout
  1
Layout1
 70
0
 71
1
 10
0.0
 20
0.0
 11
420.0
 21
297.0
 12
0.0
 22
0.0
 32
0.0
 14
0.0
 24
0.0
 34
0.0
 15
0.0
 25
0.0
 35
0.0
146
0.0
 13
0.0
 23
0.0
 33
0.0
 16
1.0
 26
0.0
 36
0.0
 17
0.0
 27
1.0
 37
0.0
 76
0
330
217
345
0
346
0
  0
ENDSEC
  0
EOF
