999
DXF file: 001-m09397-p-40.dxf
999
Pro/ENGINEER 2011490 by Parametric Technology Corporation
  0
SECTION
  2
HEADER
  9
$ACADVER
  1
AC1015
  9
$DWGCODEPAGE
  3
ANSI_1252
  9
$EXTMAX
 10
420.0
 20
297.0
 30
0.0
  9
$EXTMIN
 10
0.0
 20
0.0
 30
0.0
  9
$LIMMIN
 10
0.0
 20
0.0
  9
$LIMMAX
 10
420.0
 20
297.0
  9
$VIEWCTR
 10
210.0
 20
148.5
  9
$VIEWSIZE
 40
297.0
  9
$CLAYER
  8
0
  9
$LTSCALE
 40
23.1
  9
$CELTYPE
  6
BYLAYER
  9
$DIMSCALE
 40
1.0
  9
$DIMASZ
 40
3.5
  9
$DIMEXO
 40
2.625
  9
$DIMDLI
 40
15.96
  9
$DIMEXE
 40
7.56
  9
$DIMCEN
 40
3.78
  9
$DIMLFAC
 40
1.0
  9
$DIMBLK
  1
_FILLED
  9
$DIMTXT
 40
3.5
  9
$DIMTOL
 70
1
  9
$DIMLIM
 70
0
  9
$DIMTFAC
 40
1.0
  9
$DIMTP
 40
0.005
  9
$DIMTM
 40
0.005
  9
$PDMODE
 70
3
  9
$PDSIZE
 40
0.3125
  9
$HANDSEED
  5
4B6
  9
$TILEMODE
 70
1
  9
$MEASUREMENT
 70
1
  9
$INSUNITS
 70
4
  0
ENDSEC
  0
SECTION
  2
CLASSES
  0
CLASS
  1
ACDBDICTIONARYWDFLT
  2
AcDbDictionaryWithDefault
  3
AutoCAD 2000
 90
0
280
0
281
0
  0
CLASS
  1
ACDBPLACEHOLDER
  2
AcDbPlaceHolder
  3
AutoCAD 2000
 90
0
280
0
281
0
  0
CLASS
  1
LAYOUT
  2
AcDbLayout
  3
AutoCAD 2000
 90
0
280
0
281
0
  0
ENDSEC
  0
SECTION
  2
TABLES
  0
TABLE
  2
VPORT
  5
8
100
AcDbSymbolTable
 70
2
  0
VPORT
  5
1F4
100
AcDbSymbolTableRecord
100
AcDbViewportTableRecord
  2
*ACTIVE
 70
0
 10
0.0
 20
0.0
 11
1.0
 21
1.0
 12
210.0
 22
148.5
 13
0.0
 23
0.0
 14
1.0
 24
1.0
 15
0.0
 25
0.0
 16
0.0
 26
0.0
 36
1.0
 17
0.0
 27
0.0
 37
0.0
 40
297.0
 41
1.4141414141
 42
50.0
 43
0.0
 44
0.0
 50
0.0
 51
0.0
 71
0
 72
100
 73
1
 74
1
 75
0
 76
0
 77
0
 78
0
  0
ENDTAB
  0
TABLE
  2
LTYPE
  5
5
100
AcDbSymbolTable
 70
6
  0
LTYPE
  5
14
100
AcDbSymbolTableRecord
100
AcDbLinetypeTableRecord
  2
BYBLOCK
 70
0
  3

 72
65
 73
0
 40
0.0
  0
LTYPE
  5
15
100
AcDbSymbolTableRecord
100
AcDbLinetypeTableRecord
  2
BYLAYER
 70
0
  3

 72
65
 73
0
 40
0.0
  0
LTYPE
  5
16
100
AcDbSymbolTableRecord
100
AcDbLinetypeTableRecord
  2
CONTINUOUS
 70
64
  3
Solid line
 72
65
 73
0
 40
0.0
  0
LTYPE
  5
1F5
100
AcDbSymbolTableRecord
100
AcDbLinetypeTableRecord
  2
CENTER
 70
64
  3
____ _ ____ _ ____ _ ____ _ ____ _ ____ _ ____
 72
65
 73
4
 40
0.6
 49
0.375
 74
0
 49
-0.075
 74
0
 49
0.075
 74
0
 49
-0.075
 74
0
  0
LTYPE
  5
1F6
100
AcDbSymbolTableRecord
100
AcDbLinetypeTableRecord
  2
HIDDEN
 70
64
  3
- - - - - - - - - - - - - - - - - - - -
 72
65
 73
2
 40
0.2
 49
0.1
 74
0
 49
-0.1
 74
0
  0
LTYPE
  5
1F7
100
AcDbSymbolTableRecord
100
AcDbLinetypeTableRecord
  2
PHANTOM
 70
64
  3
_____ _ _ _____ _ _ _____ _ _ _____
 72
65
 73
6
 40
0.8
 49
0.45
 74
0
 49
-0.05
 74
0
 49
0.1
 74
0
 49
-0.05
 74
0
 49
0.1
 74
0
 49
-0.05
 74
0
  0
LTYPE
  5
1F8
100
AcDbSymbolTableRecord
100
AcDbLinetypeTableRecord
  2
DOT
 70
64
  3
. . . . . . . . . . . . . . . . . . . .
 72
65
 73
2
 40
0.2
 49
0.1
 74
0
 49
-0.1
 74
0
  0
LTYPE
  5
1F9
100
AcDbSymbolTableRecord
100
AcDbLinetypeTableRecord
  2
DASHED
 70
64
  3
- - - - - - - - - - - - - - - - - - - -
 72
65
 73
2
 40
0.2
 49
0.1
 74
0
 49
-0.1
 74
0
  0
ENDTAB
  0
TABLE
  2
LAYER
  5
2
100
AcDbSymbolTable
 70
36
  0
LAYER
  5
10
100
AcDbSymbolTableRecord
100
AcDbLayerTableRecord
  2
0
 70
0
 62
7
  6
CONTINUOUS
370
-3
390
F
  0
LAYER
  5
1FA
100
AcDbSymbolTableRecord
100
AcDbLayerTableRecord
  2
DEFAULT_1
 70
0
 62
7
  6
CENTER
370
-3
390
F
  0
LAYER
  5
1FB
100
AcDbSymbolTableRecord
100
AcDbLayerTableRecord
  2
DEFAULT_2
 70
0
 62
8
  6
HIDDEN
370
-3
390
F
  0
LAYER
  5
1FC
100
AcDbSymbolTableRecord
100
AcDbLayerTableRecord
  2
DEFAULT_3
 70
0
 62
7
  6
PHANTOM
370
-3
390
F
  0
LAYER
  5
1FD
100
AcDbSymbolTableRecord
100
AcDbLayerTableRecord
  2
AUSFORMSCHRAEGEN
 70
0
 62
7
  6
CONTINUOUS
370
-3
390
F
  0
LAYER
  5
1FE
100
AcDbSymbolTableRecord
100
AcDbLayerTableRecord
  2
B-EBENEN
 70
0
 62
7
  6
CONTINUOUS
370
-3
390
F
  0
LAYER
  5
1FF
100
AcDbSymbolTableRecord
100
AcDbLayerTableRecord
  2
B-KOORSYS
 70
0
 62
7
  6
CONTINUOUS
370
-3
390
F
  0
LAYER
  5
200
100
AcDbSymbolTableRecord
100
AcDbLayerTableRecord
  2
B-KURVEN
 70
0
 62
7
  6
CONTINUOUS
370
-3
390
F
  0
LAYER
  5
201
100
AcDbSymbolTableRecord
100
AcDbLayerTableRecord
  2
BEMASSUNG
 70
0
 62
7
  6
CONTINUOUS
370
-3
390
F
  0
LAYER
  5
202
100
AcDbSymbolTableRecord
100
AcDbLayerTableRecord
  2
BEZUGSACHSEN
 70
0
 62
7
  6
CONTINUOUS
370
-3
390
F
  0
LAYER
  5
203
100
AcDbSymbolTableRecord
100
AcDbLayerTableRecord
  2
BEZUGSEBENEN
 70
0
 62
7
  6
CONTINUOUS
370
-3
390
F
  0
LAYER
  5
204
100
AcDbSymbolTableRecord
100
AcDbLayerTableRecord
  2
BEZUGSPUNKTE
 70
0
 62
7
  6
CONTINUOUS
370
-3
390
F
  0
LAYER
  5
205
100
AcDbSymbolTableRecord
100
AcDbLayerTableRecord
  2
BG_STARTBEZUEGE
 70
0
 62
7
  6
CONTINUOUS
370
-3
390
F
  0
LAYER
  5
206
100
AcDbSymbolTableRecord
100
AcDbLayerTableRecord
  2
FASEN
 70
0
 62
7
  6
CONTINUOUS
370
-3
390
F
  0
LAYER
  5
207
100
AcDbSymbolTableRecord
100
AcDbLayerTableRecord
  2
FLAECHEN
 70
0
 62
7
  6
CONTINUOUS
370
-3
390
F
  0
LAYER
  5
208
100
AcDbSymbolTableRecord
100
AcDbLayerTableRecord
  2
FLAECHENVERBUND
 70
0
 62
7
  6
CONTINUOUS
370
-3
390
F
  0
LAYER
  5
209
100
AcDbSymbolTableRecord
100
AcDbLayerTableRecord
  2
HILFEN
 70
0
 62
7
  6
CONTINUOUS
370
-3
390
F
  0
LAYER
  5
20A
100
AcDbSymbolTableRecord
100
AcDbLayerTableRecord
  2
KONSTRUKTIONSELEMENTE
 70
0
 62
7
  6
CONTINUOUS
370
-3
390
F
  0
LAYER
  5
20B
100
AcDbSymbolTableRecord
100
AcDbLayerTableRecord
  2
KURVEN
 70
0
 62
7
  6
CONTINUOUS
370
-3
390
F
  0
LAYER
  5
20C
100
AcDbSymbolTableRecord
100
AcDbLayerTableRecord
  2
KURVENELEMENTE
 70
0
 62
7
  6
CONTINUOUS
370
-3
390
F
  0
LAYER
  5
20D
100
AcDbSymbolTableRecord
100
AcDbLayerTableRecord
  2
NORM
 70
0
 62
7
  6
CONTINUOUS
370
-3
390
F
  0
LAYER
  5
20E
100
AcDbSymbolTableRecord
100
AcDbLayerTableRecord
  2
NOTIZEN
 70
0
 62
7
  6
CONTINUOUS
370
-3
390
F
  0
LAYER
  5
20F
100
AcDbSymbolTableRecord
100
AcDbLayerTableRecord
  2
PLATZIERUNG
 70
0
 62
7
  6
CONTINUOUS
370
-3
390
F
  0
LAYER
  5
210
100
AcDbSymbolTableRecord
100
AcDbLayerTableRecord
  2
RUNDUNGEN
 70
0
 62
7
  6
CONTINUOUS
370
-3
390
F
  0
LAYER
  5
211
100
AcDbSymbolTableRecord
100
AcDbLayerTableRecord
  2
TEIL_STARTBEZUEGE
 70
0
 62
7
  6
CONTINUOUS
370
-3
390
F
  0
LAYER
  5
212
100
AcDbSymbolTableRecord
100
AcDbLayerTableRecord
  2
ZEICHNUNGSBEMASSUNGEN
 70
0
 62
7
  6
CONTINUOUS
370
-3
390
F
  0
ENDTAB
  0
TABLE
  2
STYLE
  5
3
100
AcDbSymbolTable
 70
1
  0
STYLE
  5
11
100
AcDbSymbolTableRecord
100
AcDbTextStyleTableRecord
  2
STANDARD
 70
0
 40
0.0
 41
0.7
 50
0.0
 71
0
 42
0.2
  3
txt
  4

  0
STYLE
  5
213
100
AcDbSymbolTableRecord
100
AcDbTextStyleTableRecord
  2
TEXTSTYLE_1
 70
0
 40
0.0
 41
0.8
 50
0.0
 71
0
 42
0.2
  3
gdt
  4

  0
ENDTAB
  0
TABLE
  2
VIEW
  5
6
100
AcDbSymbolTable
 70
0
  0
ENDTAB
  0
TABLE
  2
UCS
  5
7
100
AcDbSymbolTable
 70
0
  0
ENDTAB
  0
TABLE
  2
APPID
  5
9
100
AcDbSymbolTable
 70
1
  0
APPID
  5
214
100
AcDbSymbolTableRecord
100
AcDbRegAppTableRecord
  2
ACAD
 70
0
  0
ENDTAB
  0
TABLE
  2
BLOCK_RECORD
  5
1
100
AcDbSymbolTable
 70
0
  0
BLOCK_RECORD
  5
215
100
AcDbSymbolTableRecord
100
AcDbBlockTableRecord
  2
*Model_Space
  0
BLOCK_RECORD
  5
216
100
AcDbSymbolTableRecord
100
AcDbBlockTableRecord
  2
*Paper_Space
  0
ENDTAB
  0
TABLE
  2
DIMSTYLE
  5
A
100
AcDbSymbolTable
 70
1
100
AcDbDimStyleTable
 71
0
  0
DIMSTYLE
105
217
100
AcDbSymbolTableRecord
100
AcDbDimStyleTableRecord
  2
STANDARD
 70
0
  3

  4

 40
1.0
 41
3.5
 42
0.0625
 43
0.38
 44
0.18
 45
0.0
 46
0.0
 47
0.005
 48
0.005
140
3.5
141
0.09
142
0.0
143
25.4
144
1.0
145
0.0
146
1.0
147
0.09
 71
1.0
 72
0.0
 73
0
 74
0
 75
0
 76
0
 77
1
 78
8
170
0
171
2
172
0
173
0
174
0
175
0
176
0
177
0
178
5
270
2
271
3
272
3
273
2
274
2
275
0
280
0
281
0
282
0
283
1
284
8
285
0
286
0
287
3
288
0
340
11
  0
ENDTAB
  0
ENDSEC
  0
SECTION
  2
BLOCKS
  0
BLOCK
  5
20
100
AcDbEntity
  8
0
100
AcDbBlockBegin
  2
*Model_Space
 70
0
 10
0.0
 20
0.0
 30
0.0
  3
*Model_Space
  1

  0
ENDBLK
  5
21
100
AcDbEntity
  8
0
100
AcDbBlockEnd
  0
BLOCK
  5
1C
100
AcDbEntity
  8
0
100
AcDbBlockBegin
  2
*Paper_Space
 70
0
 10
0.0
 20
0.0
 30
0.0
  3
*Paper_Space
  1

  0
ENDBLK
  5
1D
100
AcDbEntity
  8
0
100
AcDbBlockEnd
  0
ENDSEC
  0
SECTION
  2
ENTITIES
  0
MTEXT
  5
218
100
AcDbEntity
  8
0
100
AcDbMText
 62
5
  6
CONTINUOUS
  7
STANDARD
 71
1
 72
1
 10
148.057700926
 20
57.9663737959
 30
0.0
 11
1.0
 21
0.0
 31
0.0
 44
0.9
  1
VWBG-V\P1,3t M16
 40
5.0
 41
27.5
  0
MTEXT
  5
219
100
AcDbEntity
  8
0
100
AcDbMText
 62
5
  6
CONTINUOUS
  7
STANDARD
 71
1
 72
1
 10
145.108158876
 20
172.1775517934
 30
0.0
 11
1.0
 21
0.0
 31
0.0
 44
0.9
  1
RUD VWBG-V \P1.3t M16
 40
4.0
 41
38.1904761905
  0
LINE
  5
21A
100
AcDbEntity
  8
0
100
AcDbLine
 62
7
  6
CONTINUOUS
 10
0.0
 20
0.0
 11
0.0
 21
297.0
  0
LINE
  5
21B
100
AcDbEntity
  8
0
100
AcDbLine
 62
7
  6
CONTINUOUS
 10
0.0
 20
0.0
 11
420.0
 21
0.0
  0
LINE
  5
21C
100
AcDbEntity
  8
0
100
AcDbLine
 62
7
  6
CONTINUOUS
 10
0.0
 20
297.0
 11
420.0
 21
297.0
  0
LINE
  5
21D
100
AcDbEntity
  8
0
100
AcDbLine
 62
7
  6
CONTINUOUS
 10
420.0
 20
0.0
 11
420.0
 21
297.0
  0
LINE
  5
21E
100
AcDbEntity
  8
0
100
AcDbLine
 62
7
  6
CONTINUOUS
 10
155.0335517006
 20
125.274527535
 11
168.0333244787
 21
125.274527535
  0
LINE
  5
21F
100
AcDbEntity
  8
0
100
AcDbLine
 62
7
  6
CONTINUOUS
 10
169.5334380896
 20
126.774527535
 11
153.5334380896
 21
126.774527535
  0
LINE
  5
220
100
AcDbEntity
  8
0
100
AcDbLine
 62
7
  6
CONTINUOUS
 10
153.5334380896
 20
126.774527535
 11
155.0334380896
 21
125.274527535
  0
LINE
  5
221
100
AcDbEntity
  8
0
100
AcDbLine
 62
7
  6
CONTINUOUS
 10
182.0334380896
 20
150.274527535
 11
141.0334380896
 21
150.274527535
  0
LINE
  5
222
100
AcDbEntity
  8
RUNDUNGEN
100
AcDbLine
 62
7
  6
CONTINUOUS
 10
138.0334380896
 20
166.774527535
 11
140.2663797118
 21
166.774527535
  0
LWPOLYLINE
  5
223
100
AcDbEntity
  8
RUNDUNGEN
100
AcDbPolyline
 62
7
  6
CONTINUOUS
 90
12
 70
0
 10
140.2661143979
 20
166.7745301001
 10
140.2680548105
 20
166.7744203162
 10
140.2794152316
 20
166.7732223146
 10
140.3090367274
 20
166.768000683
 10
140.3570833696
 20
166.7554240345
 10
140.4247475156
 20
166.7309251412
 10
140.5090156034
 20
166.6902243362
 10
140.6076003016
 20
166.6277440628
 10
140.7101152713
 20
166.5429839461
 10
140.8095017769
 20
166.4352812627
 10
140.8929827807
 20
166.3150545645
 10
140.9532837192
 20
166.1978162437
  0
LWPOLYLINE
  5
224
100
AcDbEntity
  8
RUNDUNGEN
100
AcDbPolyline
 62
7
  6
CONTINUOUS
 90
15
 70
0
 10
140.2738750327
 20
166.7738065506
 10
140.2855173237
 20
166.7723478837
 10
140.3110867289
 20
166.7675556274
 10
140.3476257913
 20
166.7582438941
 10
140.3938717201
 20
166.74303906
 10
140.4484358024
 20
166.7206211257
 10
140.5098025242
 20
166.6897896867
 10
140.576251346
 20
166.6494613738
 10
140.6455400842
 20
166.5989733767
 10
140.7154807265
 20
166.5378905639
 10
140.7832510973
 20
166.4667533447
 10
140.8460033538
 20
166.3870077276
 10
140.9023111573
 20
166.2991002373
 10
140.950389072
 20
166.2043871614
 10
140.9884622408
 20
166.1052284171
  0
LINE
  5
225
100
AcDbEntity
  8
0
100
AcDbLine
 62
7
  6
CONTINUOUS
 10
129.5334380896
 20
225.274527535
 11
129.5334380896
 21
245.274527535
  0
LWPOLYLINE
  5
226
100
AcDbEntity
  8
RUNDUNGEN
100
AcDbPolyline
 62
7
  6
CONTINUOUS
 90
3
 70
0
 10
140.9532837192
 20
166.1978162437
 10
140.9944037028
 20
166.0862771823
 10
141.0184275071
 20
165.9886851016
  0
LWPOLYLINE
  5
227
100
AcDbEntity
  8
RUNDUNGEN
100
AcDbPolyline
 62
7
  6
CONTINUOUS
 90
3
 70
0
 10
140.9884622408
 20
166.1052284171
 10
141.0152221055
 20
166.0047666174
 10
141.0299044169
 20
165.9085012859
  0
LINE
  5
228
100
AcDbEntity
  8
RUNDUNGEN
100
AcDbLine
 62
7
  6
CONTINUOUS
 10
137.0334380896
 20
167.774527535
 11
137.0334380896
 21
179.774527535
  0
LINE
  5
229
100
AcDbEntity
  8
0
100
AcDbLine
 62
7
  6
CONTINUOUS
 10
141.0334380896
 20
166.1079257469
 11
141.0334380896
 21
150.274527535
  0
LINE
  5
22A
100
AcDbEntity
  8
RUNDUNGEN
100
AcDbLine
 62
7
  6
CONTINUOUS
 10
141.0334380896
 20
166.1079257469
 11
141.0334380896
 21
170.8549892181
  0
LINE
  5
22B
100
AcDbEntity
  8
0
100
AcDbLine
 62
7
  6
CONTINUOUS
 10
142.1962695156
 20
166.1079257469
 11
142.1962695156
 21
150.274527535
  0
LINE
  5
22C
100
AcDbEntity
  8
BEZUGSACHSEN
100
AcDbLine
 62
7
  6
CONTINUOUS
 10
142.5334380896
 20
183.274527535
 11
142.5334380896
 21
181.274527535
  0
LINE
  5
22D
100
AcDbEntity
  8
0
100
AcDbLine
 62
7
  6
CONTINUOUS
 10
142.5334380896
 20
225.274527535
 11
142.5334380896
 21
245.274527535
  0
LINE
  5
22E
100
AcDbEntity
  8
BEZUGSACHSEN
100
AcDbLine
 62
7
  6
CONTINUOUS
 10
143.0334380896
 20
183.274527535
 11
143.0334380896
 21
184.774527535
  0
LINE
  5
22F
100
AcDbEntity
  8
0
100
AcDbLine
 62
7
  6
CONTINUOUS
 10
140.5364611807
 20
180.774527535
 11
138.0334380896
 21
180.774527535
  0
LINE
  5
230
100
AcDbEntity
  8
FASEN
100
AcDbLine
 62
7
  6
CONTINUOUS
 10
181.9753574678
 20
180.7821236585
 11
161.5334380896
 21
180.7821236585
  0
LINE
  5
231
100
AcDbEntity
  8
RUNDUNGEN
100
AcDbLine
 62
7
  6
CONTINUOUS
 10
161.5334380896
 20
180.7821236585
 11
141.2194824317
 21
180.7821236585
  0
LINE
  5
232
100
AcDbEntity
  8
FASEN
100
AcDbLine
 62
7
  6
CONTINUOUS
 10
181.3881863559
 20
181.274527535
 11
141.6786898233
 21
181.274527535
  0
LINE
  5
233
100
AcDbEntity
  8
BEZUGSACHSEN
100
AcDbLine
 62
7
  6
CONTINUOUS
 10
180.5334380896
 20
183.274527535
 11
142.5334380896
 21
183.274527535
  0
LINE
  5
234
100
AcDbEntity
  8
BEZUGSACHSEN
100
AcDbLine
 62
7
  6
CONTINUOUS
 10
177.0334380896
 20
187.774527535
 11
172.811525332
 21
187.774527535
  0
LINE
  5
235
100
AcDbEntity
  8
BEZUGSACHSEN
100
AcDbLine
 62
7
  6
CONTINUOUS
 10
150.2553508473
 20
187.774527535
 11
146.035959854
 21
187.774527535
  0
LINE
  5
236
100
AcDbEntity
  8
0
100
AcDbLine
 62
7
  6
CONTINUOUS
 10
153.5334380896
 20
150.274527535
 11
153.5334380896
 21
126.774527535
  0
LINE
  5
237
100
AcDbEntity
  8
0
100
AcDbLine
 62
7
  6
CONTINUOUS
 10
156.7834380896
 20
204.9611127217
 11
156.7834380896
 21
206.6878570366
  0
LINE
  5
238
100
AcDbEntity
  8
0
100
AcDbLine
 62
7
  6
CONTINUOUS
 10
156.7834380896
 20
206.715546097
 11
156.7834380896
 21
212.7584402018
  0
LINE
  5
239
100
AcDbEntity
  8
RUNDUNGEN
100
AcDbLine
 62
7
  6
CONTINUOUS
 10
157.2834380896
 20
216.0271544406
 11
157.2834380896
 21
210.9360557214
  0
LINE
  5
23A
100
AcDbEntity
  8
BEZUGSACHSEN
100
AcDbLine
 62
7
  6
CONTINUOUS
 10
157.2834380896
 20
203.332552155
 11
157.2834380896
 21
215.9892907004
  0
LINE
  5
23B
100
AcDbEntity
  8
0
100
AcDbLine
 62
7
  6
CONTINUOUS
 10
160.3706066637
 20
166.1079257469
 11
160.3706066637
 21
150.274527535
  0
LINE
  5
23C
100
AcDbEntity
  8
BEZUGSACHSEN
100
AcDbLine
 62
7
  6
CONTINUOUS
 10
156.9215641289
 20
201.2802869991
 11
152.6045823992
 21
189.4194771767
  0
LINE
  5
23D
100
AcDbEntity
  8
FASEN
100
AcDbLine
 62
7
  6
CONTINUOUS
 10
181.388533379
 20
181.274527535
 11
181.9753574678
 21
180.7821236585
  0
LINE
  5
23E
100
AcDbEntity
  8
0
100
AcDbLine
 62
7
  6
CONTINUOUS
 10
162.6962695156
 20
166.1079257469
 11
162.6962695156
 21
150.274527535
  0
LINE
  5
23F
100
AcDbEntity
  8
RUNDUNGEN
100
AcDbLine
 62
7
  6
CONTINUOUS
 10
165.7834380896
 20
216.0273509341
 11
165.7834380896
 21
203.332552155
  0
LINE
  5
240
100
AcDbEntity
  8
FASEN
100
AcDbLine
 62
7
  6
CONTINUOUS
 10
141.6783428003
 20
181.274527535
 11
141.5006167112
 21
181.1253976392
  0
LINE
  5
241
100
AcDbEntity
  8
0
100
AcDbLine
 62
7
  6
CONTINUOUS
 10
157.2834380896
 20
204.9611127217
 11
156.7834380896
 21
204.9611127217
  0
LINE
  5
242
100
AcDbEntity
  8
0
100
AcDbLine
 62
7
  6
CONTINUOUS
 10
157.2834380896
 20
205.0857526064
 11
156.7834380896
 21
205.0857526064
  0
LINE
  5
243
100
AcDbEntity
  8
0
100
AcDbLine
 62
7
  6
CONTINUOUS
 10
157.2834380896
 20
205.2884648518
 11
156.7834380896
 21
205.2884648518
  0
LINE
  5
244
100
AcDbEntity
  8
0
100
AcDbLine
 62
7
  6
CONTINUOUS
 10
157.2834380896
 20
205.4537158342
 11
156.7834380896
 21
205.4537158342
  0
LINE
  5
245
100
AcDbEntity
  8
0
100
AcDbLine
 62
7
  6
CONTINUOUS
 10
157.2834380896
 20
205.5815055863
 11
156.7834380896
 21
205.5815055863
  0
LINE
  5
246
100
AcDbEntity
  8
0
100
AcDbLine
 62
7
  6
CONTINUOUS
 10
157.2834380896
 20
205.7649722754
 11
156.7834380896
 21
205.7649722754
  0
LINE
  5
247
100
AcDbEntity
  8
0
100
AcDbLine
 62
7
  6
CONTINUOUS
 10
157.2834380896
 20
205.8896121492
 11
156.7834380896
 21
205.8896121492
  0
LINE
  5
248
100
AcDbEntity
  8
0
100
AcDbLine
 62
7
  6
CONTINUOUS
 10
157.2834380896
 20
206.2670249357
 11
156.7834380896
 21
206.2670249357
  0
LINE
  5
249
100
AcDbEntity
  8
0
100
AcDbLine
 62
7
  6
CONTINUOUS
 10
157.2834380896
 20
206.5163047706
 11
156.7834380896
 21
206.5163047706
  0
LINE
  5
24A
100
AcDbEntity
  8
0
100
AcDbLine
 62
7
  6
CONTINUOUS
 10
157.2834380896
 20
206.6878570366
 11
156.7834380896
 21
206.6878570366
  0
LINE
  5
24B
100
AcDbEntity
  8
0
100
AcDbLine
 62
7
  6
CONTINUOUS
 10
157.2834380896
 20
206.7130605134
 11
156.7834380896
 21
206.7130605134
  0
LINE
  5
24C
100
AcDbEntity
  8
0
100
AcDbLine
 62
7
  6
CONTINUOUS
 10
157.2834380896
 20
206.8868475331
 11
156.7834380896
 21
206.8868475331
  0
LINE
  5
24D
100
AcDbEntity
  8
0
100
AcDbLine
 62
7
  6
CONTINUOUS
 10
157.2834380896
 20
207.100747725
 11
156.7834380896
 21
207.100747725
  0
LINE
  5
24E
100
AcDbEntity
  8
0
100
AcDbLine
 62
7
  6
CONTINUOUS
 10
157.2834380896
 20
207.1492987169
 11
156.7834380896
 21
207.1492987169
  0
LINE
  5
24F
100
AcDbEntity
  8
0
100
AcDbLine
 62
7
  6
CONTINUOUS
 10
157.2834380896
 20
207.2651806789
 11
156.7834380896
 21
207.2651806789
  0
LINE
  5
250
100
AcDbEntity
  8
0
100
AcDbLine
 62
7
  6
CONTINUOUS
 10
157.2834380896
 20
207.3384653924
 11
156.7834380896
 21
207.3384653924
  0
LINE
  5
251
100
AcDbEntity
  8
RUNDUNGEN
100
AcDbLine
 62
7
  6
CONTINUOUS
 10
166.1453120504
 20
201.2802869991
 11
170.46229378
 21
189.4194771767
  0
LINE
  5
252
100
AcDbEntity
  8
0
100
AcDbLine
 62
7
  6
CONTINUOUS
 10
169.5334380896
 20
150.274527535
 11
169.5334380896
 21
126.774527535
  0
LINE
  5
253
100
AcDbEntity
  8
0
100
AcDbLine
 62
7
  6
CONTINUOUS
 10
157.2834380896
 20
207.5157218741
 11
156.7834380896
 21
207.5157218741
  0
LINE
  5
254
100
AcDbEntity
  8
0
100
AcDbLine
 62
7
  6
CONTINUOUS
 10
157.2834380896
 20
207.7850415401
 11
156.7834380896
 21
207.7850415401
  0
LINE
  5
255
100
AcDbEntity
  8
0
100
AcDbLine
 62
7
  6
CONTINUOUS
 10
157.2834380896
 20
207.981078
 11
156.7834380896
 21
207.981078
  0
LINE
  5
256
100
AcDbEntity
  8
0
100
AcDbLine
 62
7
  6
CONTINUOUS
 10
157.2834380896
 20
208.232533934
 11
156.7834380896
 21
208.232533934
  0
LINE
  5
257
100
AcDbEntity
  8
0
100
AcDbLine
 62
7
  6
CONTINUOUS
 10
157.2834380896
 20
208.2939098585
 11
156.7834380896
 21
208.2939098585
  0
LINE
  5
258
100
AcDbEntity
  8
0
100
AcDbLine
 62
7
  6
CONTINUOUS
 10
157.2834380896
 20
208.4720811816
 11
156.7834380896
 21
208.4720811816
  0
LINE
  5
259
100
AcDbEntity
  8
0
100
AcDbLine
 62
7
  6
CONTINUOUS
 10
157.2834380896
 20
208.5215470149
 11
156.7834380896
 21
208.5215470149
  0
LINE
  5
25A
100
AcDbEntity
  8
0
100
AcDbLine
 62
7
  6
CONTINUOUS
 10
157.2834380896
 20
209.8330815182
 11
156.7834380896
 21
209.8330815182
  0
LINE
  5
25B
100
AcDbEntity
  8
0
100
AcDbLine
 62
7
  6
CONTINUOUS
 10
157.2834380896
 20
209.9829220311
 11
156.7834380896
 21
209.9829220311
  0
LINE
  5
25C
100
AcDbEntity
  8
0
100
AcDbLine
 62
7
  6
CONTINUOUS
 10
157.2834380896
 20
211.6528061588
 11
156.7834380896
 21
211.6528061588
  0
LINE
  5
25D
100
AcDbEntity
  8
0
100
AcDbLine
 62
7
  6
CONTINUOUS
 10
157.2834380896
 20
211.7379095246
 11
156.7834380896
 21
211.7379095246
  0
LINE
  5
25E
100
AcDbEntity
  8
0
100
AcDbLine
 62
7
  6
CONTINUOUS
 10
157.2834380896
 20
212.1350583488
 11
156.7834380896
 21
212.1350583488
  0
LINE
  5
25F
100
AcDbEntity
  8
0
100
AcDbLine
 62
7
  6
CONTINUOUS
 10
157.2834380896
 20
212.2201617146
 11
156.7834380896
 21
212.2201617146
  0
LINE
  5
260
100
AcDbEntity
  8
0
100
AcDbLine
 62
7
  6
CONTINUOUS
 10
157.2834380896
 20
212.2610868824
 11
156.7834380896
 21
212.2610868824
  0
LINE
  5
261
100
AcDbEntity
  8
0
100
AcDbLine
 62
7
  6
CONTINUOUS
 10
157.2834380896
 20
212.4891726478
 11
156.7834380896
 21
212.4891726478
  0
LINE
  5
262
100
AcDbEntity
  8
0
100
AcDbLine
 62
7
  6
CONTINUOUS
 10
157.2834380896
 20
212.6113699641
 11
156.7834380896
 21
212.6113699641
  0
LINE
  5
263
100
AcDbEntity
  8
0
100
AcDbLine
 62
7
  6
CONTINUOUS
 10
157.2834380896
 20
212.6847002025
 11
156.7834380896
 21
212.6847002025
  0
LINE
  5
264
100
AcDbEntity
  8
0
100
AcDbLine
 62
7
  6
CONTINUOUS
 10
157.2834380896
 20
212.7213950834
 11
156.7834380896
 21
212.7213950834
  0
LINE
  5
265
100
AcDbEntity
  8
0
100
AcDbLine
 62
7
  6
CONTINUOUS
 10
157.2834380896
 20
212.7584402018
 11
156.7834380896
 21
212.7584402018
  0
LINE
  5
266
100
AcDbEntity
  8
RUNDUNGEN
100
AcDbLine
 62
7
  6
CONTINUOUS
 10
182.0041591582
 20
180.6659788167
 11
181.9975763434
 21
180.6854365254
  0
LINE
  5
267
100
AcDbEntity
  8
RUNDUNGEN
100
AcDbLine
 62
7
  6
CONTINUOUS
 10
181.9975763434
 20
180.6854365254
 11
181.9819589388
 21
180.745901222
  0
LINE
  5
268
100
AcDbEntity
  8
RUNDUNGEN
100
AcDbLine
 62
7
  6
CONTINUOUS
 10
181.9817130331
 20
180.7468532761
 11
181.9793860142
 21
180.7592738192
  0
LINE
  5
269
100
AcDbEntity
  8
RUNDUNGEN
100
AcDbLine
 62
7
  6
CONTINUOUS
 10
181.9793925435
 20
180.7592394726
 11
181.9794025094
 21
180.7591830857
  0
LINE
  5
26A
100
AcDbEntity
  8
BEZUGSACHSEN
100
AcDbLine
 62
7
  6
CONTINUOUS
 10
181.9753574678
 20
180.7821236585
 11
181.9794442163
 21
180.7589465564
  0
LINE
  5
26B
100
AcDbEntity
  8
BEZUGSACHSEN
100
AcDbLine
 62
7
  6
CONTINUOUS
 10
180.0334380896
 20
184.774527535
 11
180.0334380896
 21
183.274527535
  0
LINE
  5
26C
100
AcDbEntity
  8
0
100
AcDbLine
 62
7
  6
CONTINUOUS
 10
180.5334380896
 20
245.274527535
 11
180.5334380896
 21
225.274527535
  0
LINE
  5
26D
100
AcDbEntity
  8
BEZUGSACHSEN
100
AcDbLine
 62
7
  6
CONTINUOUS
 10
180.5334380896
 20
183.274527535
 11
180.5334380896
 21
181.274527535
  0
LINE
  5
26E
100
AcDbEntity
  8
0
100
AcDbLine
 62
7
  6
CONTINUOUS
 10
180.8706066637
 20
166.1079257469
 11
180.8706066637
 21
150.274527535
  0
LINE
  5
26F
100
AcDbEntity
  8
RUNDUNGEN
100
AcDbLine
 62
7
  6
CONTINUOUS
 10
182.0334380896
 20
150.274527535
 11
182.0334380896
 21
180.4976687208
  0
LINE
  5
270
100
AcDbEntity
  8
RUNDUNGEN
100
AcDbLine
 62
7
  6
CONTINUOUS
 10
163.2834380896
 20
218.5273509341
 11
159.7834380896
 21
218.5273509341
  0
LINE
  5
271
100
AcDbEntity
  8
0
100
AcDbLine
 62
7
  6
CONTINUOUS
 10
193.5334380896
 20
245.274527535
 11
193.5334380896
 21
225.274527535
  0
LINE
  5
272
100
AcDbEntity
  8
0
100
AcDbLine
 62
7
  6
CONTINUOUS
 10
169.5334380896
 20
126.774527535
 11
168.0334380896
 21
125.274527535
  0
LINE
  5
273
100
AcDbEntity
  8
0
100
AcDbLine
 62
7
  6
CONTINUOUS
 10
268.9636862929
 20
125.274527535
 11
255.9636862929
 21
125.274527535
  0
LINE
  5
274
100
AcDbEntity
  8
0
100
AcDbLine
 62
7
  6
CONTINUOUS
 10
270.4636862929
 20
126.774527535
 11
254.4636862929
 21
126.774527535
  0
LINE
  5
275
100
AcDbEntity
  8
0
100
AcDbLine
 62
7
  6
CONTINUOUS
 10
254.4636862929
 20
126.774527535
 11
255.9636862929
 21
125.274527535
  0
LINE
  5
276
100
AcDbEntity
  8
KONSTRUKTIONSELEMENTE
100
AcDbLine
 62
7
  6
CONTINUOUS
 10
266.3074357922
 20
153.354527535
 11
266.7761861499
 21
153.4609105103
  0
LINE
  5
277
100
AcDbEntity
  8
0
100
AcDbLine
 62
7
  6
CONTINUOUS
 10
285.4636862929
 20
150.274527535
 11
239.4636862929
 21
150.274527535
  0
LINE
  5
278
100
AcDbEntity
  8
RUNDUNGEN
100
AcDbLine
 62
7
  6
CONTINUOUS
 10
257.7136862929
 20
151.774527535
 11
267.2136862929
 21
151.774527535
  0
LINE
  5
279
100
AcDbEntity
  8
KONSTRUKTIONSELEMENTE
100
AcDbLine
 62
7
  6
CONTINUOUS
 10
257.2136861499
 20
153.354527535
 11
257.7761861499
 21
153.354527535
  0
LINE
  5
27A
100
AcDbEntity
  8
KONSTRUKTIONSELEMENTE
100
AcDbLine
 62
7
  6
CONTINUOUS
 10
259.0886861052
 20
153.354527535
 11
259.8386860605
 21
153.354527535
  0
LINE
  5
27B
100
AcDbEntity
  8
KONSTRUKTIONSELEMENTE
100
AcDbLine
 62
7
  6
CONTINUOUS
 10
261.1511861499
 20
153.354527535
 11
261.7136861499
 21
153.354527535
  0
LINE
  5
27C
100
AcDbEntity
  8
KONSTRUKTIONSELEMENTE
100
AcDbLine
 62
7
  6
CONTINUOUS
 10
263.0261859711
 20
153.354527535
 11
263.5886859711
 21
153.354527535
  0
LINE
  5
27D
100
AcDbEntity
  8
KONSTRUKTIONSELEMENTE
100
AcDbLine
 62
7
  6
CONTINUOUS
 10
265.8386859711
 20
153.354527535
 11
266.3074357922
 21
153.354527535
  0
LINE
  5
27E
100
AcDbEntity
  8
KONSTRUKTIONSELEMENTE
100
AcDbLine
 62
7
  6
CONTINUOUS
 10
266.4011865075
 20
153.8864424397
 11
265.7449363287
 21
153.8864424397
  0
LINE
  5
27F
100
AcDbEntity
  8
KONSTRUKTIONSELEMENTE
100
AcDbLine
 62
7
  6
CONTINUOUS
 10
265.8386859711
 20
156.5460168142
 11
265.3699361499
 21
156.4396338482
  0
LINE
  5
280
100
AcDbEntity
  8
KONSTRUKTIONSELEMENTE
100
AcDbLine
 62
7
  6
CONTINUOUS
 10
265.8386859711
 20
158.354527535
 11
265.3699361499
 21
158.2481445689
  0
LINE
  5
281
100
AcDbEntity
  8
KONSTRUKTIONSELEMENTE
100
AcDbLine
 62
7
  6
CONTINUOUS
 10
265.7449363287
 20
156.014101984
 11
266.4011865075
 21
156.014101984
  0
LINE
  5
282
100
AcDbEntity
  8
KONSTRUKTIONSELEMENTE
100
AcDbLine
 62
7
  6
CONTINUOUS
 10
266.3074357922
 20
156.5460168142
 11
265.8386859711
 21
156.5460168142
  0
LINE
  5
283
100
AcDbEntity
  8
KONSTRUKTIONSELEMENTE
100
AcDbLine
 62
7
  6
CONTINUOUS
 10
267.0574361499
 20
157.1843149085
 11
267.5261865075
 21
157.1843149085
  0
LINE
  5
284
100
AcDbEntity
  8
KONSTRUKTIONSELEMENTE
100
AcDbLine
 62
7
  6
CONTINUOUS
 10
265.7449363287
 20
157.8226127048
 11
266.3074357922
 21
157.8226127048
  0
LINE
  5
285
100
AcDbEntity
  8
KONSTRUKTIONSELEMENTE
100
AcDbLine
 62
7
  6
CONTINUOUS
 10
266.2136861499
 20
158.354527535
 11
265.8386859711
 21
158.354527535
  0
LINE
  5
286
100
AcDbEntity
  8
KONSTRUKTIONSELEMENTE
100
AcDbLine
 62
7
  6
CONTINUOUS
 10
263.5886859711
 20
158.354527535
 11
263.0261859711
 21
158.354527535
  0
LINE
  5
287
100
AcDbEntity
  8
KONSTRUKTIONSELEMENTE
100
AcDbLine
 62
7
  6
CONTINUOUS
 10
261.7136861499
 20
158.354527535
 11
260.8699361499
 21
158.354527535
  0
LINE
  5
288
100
AcDbEntity
  8
KONSTRUKTIONSELEMENTE
100
AcDbLine
 62
7
  6
CONTINUOUS
 10
258.0574361499
 20
158.354527535
 11
257.2136861499
 21
158.354527535
  0
LINE
  5
289
100
AcDbEntity
  8
KONSTRUKTIONSELEMENTE
100
AcDbLine
 62
7
  6
CONTINUOUS
 10
265.3699361499
 20
153.4609105103
 11
265.8386859711
 21
153.354527535
  0
LINE
  5
28A
100
AcDbEntity
  8
KONSTRUKTIONSELEMENTE
100
AcDbLine
 62
7
  6
CONTINUOUS
 10
266.7761861499
 20
156.4396338482
 11
266.3074357922
 21
156.5460168142
  0
LINE
  5
28B
100
AcDbEntity
  8
KONSTRUKTIONSELEMENTE
100
AcDbLine
 62
7
  6
CONTINUOUS
 10
265.7449363287
 20
153.8864424397
 11
265.4636863287
 21
153.9928254057
  0
LINE
  5
28C
100
AcDbEntity
  8
KONSTRUKTIONSELEMENTE
100
AcDbLine
 62
7
  6
CONTINUOUS
 10
257.9220195468
 20
160.6502722044
 11
257.5886861737
 21
160.5651658316
  0
LINE
  5
28D
100
AcDbEntity
  8
KONSTRUKTIONSELEMENTE
100
AcDbLine
 62
7
  6
CONTINUOUS
 10
257.5886861737
 20
160.054527535
 11
258.0053528006
 21
160.1396339153
  0
LINE
  5
28E
100
AcDbEntity
  8
KONSTRUKTIONSELEMENTE
100
AcDbLine
 62
7
  6
CONTINUOUS
 10
256.9220194276
 20
160.054527535
 11
257.5886861737
 21
160.054527535
  0
LINE
  5
28F
100
AcDbEntity
  8
KONSTRUKTIONSELEMENTE
100
AcDbLine
 62
7
  6
CONTINUOUS
 10
260.1720193084
 20
160.054527535
 11
260.8386862929
 21
160.054527535
  0
LINE
  5
290
100
AcDbEntity
  8
KONSTRUKTIONSELEMENTE
100
AcDbLine
 62
7
  6
CONTINUOUS
 10
262.1720193084
 20
160.054527535
 11
262.8386862929
 21
160.054527535
  0
LINE
  5
291
100
AcDbEntity
  8
KONSTRUKTIONSELEMENTE
100
AcDbLine
 62
7
  6
CONTINUOUS
 10
266.1720197852
 20
160.054527535
 11
266.6720197852
 21
160.054527535
  0
LINE
  5
292
100
AcDbEntity
  8
KONSTRUKTIONSELEMENTE
100
AcDbLine
 62
7
  6
CONTINUOUS
 10
268.6720197852
 20
160.054527535
 11
269.1720197852
 21
160.054527535
  0
LINE
  5
293
100
AcDbEntity
  8
KONSTRUKTIONSELEMENTE
100
AcDbLine
 62
7
  6
CONTINUOUS
 10
257.5886861737
 20
160.5651658316
 11
256.9220194276
 21
160.5651658316
  0
LINE
  5
294
100
AcDbEntity
  8
KONSTRUKTIONSELEMENTE
100
AcDbLine
 62
7
  6
CONTINUOUS
 10
256.2553528006
 20
161.160910501
 11
255.7553528006
 21
161.160910501
  0
LINE
  5
295
100
AcDbEntity
  8
KONSTRUKTIONSELEMENTE
100
AcDbLine
 62
7
  6
CONTINUOUS
 10
264.1720197852
 20
161.2460168739
 11
266.1720197852
 21
161.2460168739
  0
LINE
  5
296
100
AcDbEntity
  8
KONSTRUKTIONSELEMENTE
100
AcDbLine
 62
7
  6
CONTINUOUS
 10
266.6720197852
 20
161.2460168739
 11
267.5053528006
 21
161.2460168739
  0
LINE
  5
297
100
AcDbEntity
  8
KONSTRUKTIONSELEMENTE
100
AcDbLine
 62
7
  6
CONTINUOUS
 10
267.5053528006
 20
161.7566552301
 11
266.6720197852
 21
161.7566552301
  0
LINE
  5
298
100
AcDbEntity
  8
KONSTRUKTIONSELEMENTE
100
AcDbLine
 62
7
  6
CONTINUOUS
 10
266.1720197852
 20
161.7566552301
 11
264.7553528006
 21
161.7566552301
  0
LINE
  5
299
100
AcDbEntity
  8
KONSTRUKTIONSELEMENTE
100
AcDbLine
 62
7
  6
CONTINUOUS
 10
257.0886861737
 20
161.8417616029
 11
257.5886861737
 21
161.8417616029
  0
LINE
  5
29A
100
AcDbEntity
  8
KONSTRUKTIONSELEMENTE
100
AcDbLine
 62
7
  6
CONTINUOUS
 10
257.5886861737
 20
162.3523998399
 11
257.0886861737
 21
162.3523998399
  0
LINE
  5
29B
100
AcDbEntity
  8
KONSTRUKTIONSELEMENTE
100
AcDbLine
 62
7
  6
CONTINUOUS
 10
258.0886860545
 20
163.1183574338
 11
258.5886860545
 21
163.1183574338
  0
LINE
  5
29C
100
AcDbEntity
  8
KONSTRUKTIONSELEMENTE
100
AcDbLine
 62
7
  6
CONTINUOUS
 10
257.0886861737
 20
163.543889298
 11
257.5886861737
 21
163.543889298
  0
LINE
  5
29D
100
AcDbEntity
  8
KONSTRUKTIONSELEMENTE
100
AcDbLine
 62
7
  6
CONTINUOUS
 10
269.1720197852
 20
164.054527535
 11
268.6720197852
 21
164.054527535
  0
LINE
  5
29E
100
AcDbEntity
  8
KONSTRUKTIONSELEMENTE
100
AcDbLine
 62
7
  6
CONTINUOUS
 10
266.6720197852
 20
164.054527535
 11
266.1720197852
 21
164.054527535
  0
LINE
  5
29F
100
AcDbEntity
  8
KONSTRUKTIONSELEMENTE
100
AcDbLine
 62
7
  6
CONTINUOUS
 10
263.5053528006
 20
164.054527535
 11
263.0053528006
 21
164.054527535
  0
LINE
  5
2A0
100
AcDbEntity
  8
KONSTRUKTIONSELEMENTE
100
AcDbLine
 62
7
  6
CONTINUOUS
 10
261.8386862929
 20
164.054527535
 11
261.1720193084
 21
164.054527535
  0
LINE
  5
2A1
100
AcDbEntity
  8
KONSTRUKTIONSELEMENTE
100
AcDbLine
 62
7
  6
CONTINUOUS
 10
260.0053528006
 20
164.054527535
 11
259.5053528006
 21
164.054527535
  0
LINE
  5
2A2
100
AcDbEntity
  8
KONSTRUKTIONSELEMENTE
100
AcDbLine
 62
7
  6
CONTINUOUS
 10
257.5053528006
 20
164.054527535
 11
257.0886861737
 21
164.054527535
  0
LINE
  5
2A3
100
AcDbEntity
  8
KONSTRUKTIONSELEMENTE
100
AcDbLine
 62
7
  6
CONTINUOUS
 10
256.5053528006
 20
160.1396339153
 11
256.9220194276
 21
160.054527535
  0
LINE
  5
2A4
100
AcDbEntity
  8
KONSTRUKTIONSELEMENTE
100
AcDbLine
 62
7
  6
CONTINUOUS
 10
258.0053528006
 20
162.2672934671
 11
257.5886861737
 21
162.3523998399
  0
LINE
  5
2A5
100
AcDbEntity
  8
KONSTRUKTIONSELEMENTE
100
AcDbLine
 62
7
  6
CONTINUOUS
 10
257.9220195468
 20
163.9694211621
 11
257.5053528006
 21
164.054527535
  0
LINE
  5
2A6
100
AcDbEntity
  8
KONSTRUKTIONSELEMENTE
100
AcDbLine
 62
7
  6
CONTINUOUS
 10
266.6824365075
 20
158.2481445689
 11
266.2136861499
 21
158.354527535
  0
LINE
  5
2A7
100
AcDbEntity
  8
KONSTRUKTIONSELEMENTE
100
AcDbLine
 62
7
  6
CONTINUOUS
 10
256.9220194276
 20
160.5651658316
 11
256.5886861141
 21
160.6502722044
  0
LINE
  5
2A8
100
AcDbEntity
  8
KONSTRUKTIONSELEMENTE
100
AcDbLine
 62
7
  6
CONTINUOUS
 10
256.7553528006
 20
161.9268679757
 11
257.0886861737
 21
161.8417616029
  0
LINE
  5
2A9
100
AcDbEntity
  8
KONSTRUKTIONSELEMENTE
100
AcDbLine
 62
7
  6
CONTINUOUS
 10
257.5886861737
 20
161.8417616029
 11
257.9220195468
 21
161.7566552301
  0
LINE
  5
2AA
100
AcDbEntity
  8
KONSTRUKTIONSELEMENTE
100
AcDbLine
 62
7
  6
CONTINUOUS
 10
257.0886861737
 20
162.3523998399
 11
256.8386861737
 21
162.4375062127
  0
LINE
  5
2AB
100
AcDbEntity
  8
KONSTRUKTIONSELEMENTE
100
AcDbLine
 62
7
  6
CONTINUOUS
 10
257.5886861737
 20
163.543889298
 11
257.8386860545
 21
163.4587829251
  0
LINE
  5
2AC
100
AcDbEntity
  8
KONSTRUKTIONSELEMENTE
100
AcDbLine
 62
7
  6
CONTINUOUS
 10
266.4011865075
 20
156.014101984
 11
266.6824365075
 21
155.907719018
  0
LINE
  5
2AD
100
AcDbEntity
  8
KONSTRUKTIONSELEMENTE
100
AcDbLine
 62
7
  6
CONTINUOUS
 10
266.3074357922
 20
157.8226127048
 11
266.5886857922
 21
157.7162297387
  0
LINE
  5
2AE
100
AcDbEntity
  8
KONSTRUKTIONSELEMENTE
100
AcDbLine
 62
7
  6
CONTINUOUS
 10
256.4220194872
 20
162.0970807214
 11
256.7553528006
 21
161.9268679757
  0
LINE
  5
2AF
100
AcDbEntity
  8
KONSTRUKTIONSELEMENTE
100
AcDbLine
 62
7
  6
CONTINUOUS
 10
258.3386860545
 20
162.0970807214
 11
258.0053528006
 21
162.2672934671
  0
LINE
  5
2B0
100
AcDbEntity
  8
KONSTRUKTIONSELEMENTE
100
AcDbLine
 62
7
  6
CONTINUOUS
 10
256.0886861439
 20
160.3949530561
 11
256.5053528006
 21
160.1396339153
  0
LINE
  5
2B1
100
AcDbEntity
  8
KONSTRUKTIONSELEMENTE
100
AcDbLine
 62
7
  6
CONTINUOUS
 10
264.9011863287
 20
153.7800594364
 11
265.3699361499
 21
153.4609105103
  0
LINE
  5
2B2
100
AcDbEntity
  8
KONSTRUKTIONSELEMENTE
100
AcDbLine
 62
7
  6
CONTINUOUS
 10
257.0886861737
 20
164.054527535
 11
256.7553528006
 21
163.9694211621
  0
LINE
  5
2B3
100
AcDbEntity
  8
RUNDUNGEN
100
AcDbLine
 62
7
  6
CONTINUOUS
 10
256.4636862929
 20
166.774527535
 11
268.4636862929
 21
166.774527535
  0
LINE
  5
2B4
100
AcDbEntity
  8
KONSTRUKTIONSELEMENTE
100
AcDbLine
 62
7
  6
CONTINUOUS
 10
256.8386861737
 20
162.4375062127
 11
256.5886861141
 21
162.6077189584
  0
LINE
  5
2B5
100
AcDbEntity
  8
KONSTRUKTIONSELEMENTE
100
AcDbLine
 62
7
  6
CONTINUOUS
 10
257.9220195468
 20
161.7566552301
 11
258.1720195468
 21
161.5864424844
  0
LINE
  5
2B6
100
AcDbEntity
  8
KONSTRUKTIONSELEMENTE
100
AcDbLine
 62
7
  6
CONTINUOUS
 10
267.2449365075
 20
156.1204849501
 11
266.7761861499
 21
156.4396338482
  0
LINE
  5
2B7
100
AcDbEntity
  8
KONSTRUKTIONSELEMENTE
100
AcDbLine
 62
7
  6
CONTINUOUS
 10
267.1511857922
 20
157.9289956708
 11
266.6824365075
 21
158.2481445689
  0
LINE
  5
2B8
100
AcDbEntity
  8
KONSTRUKTIONSELEMENTE
100
AcDbLine
 62
7
  6
CONTINUOUS
 10
265.4636863287
 20
153.9928254057
 11
265.1824363287
 21
154.2055913378
  0
LINE
  5
2B9
100
AcDbEntity
  8
KONSTRUKTIONSELEMENTE
100
AcDbLine
 62
7
  6
CONTINUOUS
 10
266.6824365075
 20
155.907719018
 11
266.9636865075
 21
155.6949530859
  0
LINE
  5
2BA
100
AcDbEntity
  8
KONSTRUKTIONSELEMENTE
100
AcDbLine
 62
7
  6
CONTINUOUS
 10
266.5886857922
 20
157.7162297387
 11
266.8699357922
 21
157.5034638066
  0
LINE
  5
2BB
100
AcDbEntity
  8
KONSTRUKTIONSELEMENTE
100
AcDbLine
 62
7
  6
CONTINUOUS
 10
258.2553528006
 20
163.7141020436
 11
257.9220195468
 21
163.9694211621
  0
LINE
  5
2BC
100
AcDbEntity
  8
KONSTRUKTIONSELEMENTE
100
AcDbLine
 62
7
  6
CONTINUOUS
 10
256.5886861141
 20
160.6502722044
 11
256.3386861141
 21
160.9055913825
  0
LINE
  5
2BD
100
AcDbEntity
  8
KONSTRUKTIONSELEMENTE
100
AcDbLine
 62
7
  6
CONTINUOUS
 10
256.0886861439
 20
162.4375062127
 11
256.4220194872
 21
162.0970807214
  0
LINE
  5
2BE
100
AcDbEntity
  8
KONSTRUKTIONSELEMENTE
100
AcDbLine
 62
7
  6
CONTINUOUS
 10
258.6720195468
 20
161.7566552301
 11
258.3386860545
 21
162.0970807214
  0
LINE
  5
2BF
100
AcDbEntity
  8
KONSTRUKTIONSELEMENTE
100
AcDbLine
 62
7
  6
CONTINUOUS
 10
257.8386860545
 20
163.4587829251
 11
258.0053528006
 21
163.2885701795
  0
LINE
  5
2C0
100
AcDbEntity
  8
KONSTRUKTIONSELEMENTE
100
AcDbLine
 62
7
  6
CONTINUOUS
 10
266.9636865075
 20
155.6949530859
 11
267.1511857922
 21
155.4821871538
  0
LINE
  5
2C1
100
AcDbEntity
  8
KONSTRUKTIONSELEMENTE
100
AcDbLine
 62
7
  6
CONTINUOUS
 10
267.5261865075
 20
155.801336052
 11
267.2449365075
 21
156.1204849501
  0
LINE
  5
2C2
100
AcDbEntity
  8
KONSTRUKTIONSELEMENTE
100
AcDbLine
 62
7
  6
CONTINUOUS
 10
255.8386861365
 20
160.8204850097
 11
256.0886861439
 21
160.3949530561
  0
LINE
  5
2C3
100
AcDbEntity
  8
0
100
AcDbLine
 62
7
  6
CONTINUOUS
 10
239.4636862929
 20
166.1079257469
 11
239.4636862929
 21
150.274527535
  0
LINE
  5
2C4
100
AcDbEntity
  8
RUNDUNGEN
100
AcDbLine
 62
7
  6
CONTINUOUS
 10
239.4636862929
 20
166.1079257469
 11
239.4636862929
 21
166.2750969028
  0
LINE
  5
2C5
100
AcDbEntity
  8
KONSTRUKTIONSELEMENTE
100
AcDbLine
 62
7
  6
CONTINUOUS
 10
258.5053528006
 20
163.3736765523
 11
258.2553528006
 21
163.7141020436
  0
LINE
  5
2C6
100
AcDbEntity
  8
KONSTRUKTIONSELEMENTE
100
AcDbLine
 62
7
  6
CONTINUOUS
 10
264.6199363287
 20
154.2055913378
 11
264.9011863287
 21
153.7800594364
  0
LINE
  5
2C7
100
AcDbEntity
  8
KONSTRUKTIONSELEMENTE
100
AcDbLine
 62
7
  6
CONTINUOUS
 10
258.1720195468
 20
161.5864424844
 11
258.3386860545
 21
161.3311232467
  0
LINE
  5
2C8
100
AcDbEntity
  8
KONSTRUKTIONSELEMENTE
100
AcDbLine
 62
7
  6
CONTINUOUS
 10
265.1824363287
 20
154.2055913378
 11
264.9949359711
 21
154.5247403104
  0
LINE
  5
2C9
100
AcDbEntity
  8
KONSTRUKTIONSELEMENTE
100
AcDbLine
 62
7
  6
CONTINUOUS
 10
258.8386860545
 20
161.4162296195
 11
258.6720195468
 21
161.7566552301
  0
LINE
  5
2CA
100
AcDbEntity
  8
KONSTRUKTIONSELEMENTE
100
AcDbLine
 62
7
  6
CONTINUOUS
 10
258.0053528006
 20
163.2885701795
 11
258.0886860545
 21
163.1183574338
  0
LINE
  5
2CB
100
AcDbEntity
  8
BEZUGSACHSEN
100
AcDbLine
 62
7
  6
CONTINUOUS
 10
243.4636862929
 20
183.274527535
 11
243.4636862929
 21
181.274527535
  0
LINE
  5
2CC
100
AcDbEntity
  8
BEZUGSACHSEN
100
AcDbLine
 62
7
  6
CONTINUOUS
 10
243.9636862929
 20
186.9642485947
 11
243.9636862929
 21
183.274527535
  0
LINE
  5
2CD
100
AcDbEntity
  8
BEZUGSACHSEN
100
AcDbLine
 62
7
  6
CONTINUOUS
 10
242.0217669147
 20
180.7821236585
 11
239.4605114895
 21
166.2565223299
  0
LINE
  5
2CE
100
AcDbEntity
  8
BEZUGSACHSEN
100
AcDbLine
 62
7
  6
CONTINUOUS
 10
247.4924592753
 20
211.6221662522
 11
242.4392242963
 21
199.4225778321
  0
LINE
  5
2CF
100
AcDbEntity
  8
RUNDUNGEN
100
AcDbLine
 62
7
  6
CONTINUOUS
 10
255.9636862929
 20
216.0821393796
 11
249.1160475757
 21
213.2457545526
  0
LINE
  5
2D0
100
AcDbEntity
  8
RUNDUNGEN
100
AcDbLine
 62
7
  6
CONTINUOUS
 10
282.9056056711
 20
180.7821236585
 11
264.7473836007
 21
180.7821236585
  0
LINE
  5
2D1
100
AcDbEntity
  8
RUNDUNGEN
100
AcDbLine
 62
7
  6
CONTINUOUS
 10
260.1799889851
 20
180.7821236585
 11
242.0217669147
 21
180.7821236585
  0
LINE
  5
2D2
100
AcDbEntity
  8
FASEN
100
AcDbLine
 62
7
  6
CONTINUOUS
 10
282.3187815822
 20
181.274527535
 11
242.6085910037
 21
181.274527535
  0
LINE
  5
2D3
100
AcDbEntity
  8
BEZUGSACHSEN
100
AcDbLine
 62
7
  6
CONTINUOUS
 10
281.4636862929
 20
183.274527535
 11
243.4636862929
 21
183.274527535
  0
LINE
  5
2D4
100
AcDbEntity
  8
KONSTRUKTIONSELEMENTE
100
AcDbLine
 62
7
  6
CONTINUOUS
 10
267.4324357922
 20
157.5034638066
 11
267.1511857922
 21
157.9289956708
  0
LINE
  5
2D5
100
AcDbEntity
  8
KONSTRUKTIONSELEMENTE
100
AcDbLine
 62
7
  6
CONTINUOUS
 10
266.8699357922
 20
157.5034638066
 11
267.0574361499
 21
157.1843149085
  0
LINE
  5
2D6
100
AcDbEntity
  8
BEZUGSACHSEN
100
AcDbLine
 62
7
  6
CONTINUOUS
 10
242.4392242963
 20
197.1264772379
 11
244.8811131225
 21
191.2312361159
  0
LINE
  5
2D7
100
AcDbEntity
  8
KONSTRUKTIONSELEMENTE
100
AcDbLine
 62
7
  6
CONTINUOUS
 10
257.7761861499
 20
157.2906978746
 11
259.0886861052
 21
153.354527535
  0
LINE
  5
2D8
100
AcDbEntity
  8
KONSTRUKTIONSELEMENTE
100
AcDbLine
 62
7
  6
CONTINUOUS
 10
256.3386861141
 20
160.9055913825
 11
256.2553528006
 21
161.160910501
  0
LINE
  5
2D9
100
AcDbEntity
  8
KONSTRUKTIONSELEMENTE
100
AcDbLine
 62
7
  6
CONTINUOUS
 10
256.5886861141
 20
162.6077189584
 11
256.5053528006
 21
162.8630380769
  0
LINE
  5
2DA
100
AcDbEntity
  8
KONSTRUKTIONSELEMENTE
100
AcDbLine
 62
7
  6
CONTINUOUS
 10
258.5886860545
 20
163.1183574338
 11
258.5053528006
 21
163.3736765523
  0
LINE
  5
2DB
100
AcDbEntity
  8
KONSTRUKTIONSELEMENTE
100
AcDbLine
 62
7
  6
CONTINUOUS
 10
259.4636861499
 20
153.8864424397
 11
258.0574361499
 21
158.354527535
  0
LINE
  5
2DC
100
AcDbEntity
  8
KONSTRUKTIONSELEMENTE
100
AcDbLine
 62
7
  6
CONTINUOUS
 10
255.7553528006
 20
161.160910501
 11
255.8386861365
 21
160.8204850097
  0
LINE
  5
2DD
100
AcDbEntity
  8
KONSTRUKTIONSELEMENTE
100
AcDbLine
 62
7
  6
CONTINUOUS
 10
256.0053528006
 20
162.7779317041
 11
256.0886861439
 21
162.4375062127
  0
LINE
  5
2DE
100
AcDbEntity
  8
0
100
AcDbLine
 62
7
  6
CONTINUOUS
 10
250.9537603668
 20
204.7982726206
 11
250.9383224801
 21
204.9976589902
  0
LINE
  5
2DF
100
AcDbEntity
  8
0
100
AcDbLine
 62
7
  6
CONTINUOUS
 10
249.9566447378
 20
166.1079257469
 11
249.9566447378
 21
150.274527535
  0
LINE
  5
2E0
100
AcDbEntity
  8
0
100
AcDbLine
 62
7
  6
CONTINUOUS
 10
251.9707278481
 20
166.1079257469
 11
251.9707278481
 21
150.274527535
  0
LINE
  5
2E1
100
AcDbEntity
  8
0
100
AcDbLine
 62
7
  6
CONTINUOUS
 10
250.6986201481
 20
204.884464662
 11
250.6866531264
 21
204.7472920139
  0
LINE
  5
2E2
100
AcDbEntity
  8
0
100
AcDbLine
 62
7
  6
CONTINUOUS
 10
252.7098000881
 20
205.8903684083
 11
252.6509343697
 21
205.7229165665
  0
LINE
  5
2E3
100
AcDbEntity
  8
0
100
AcDbLine
 62
7
  6
CONTINUOUS
 10
252.906464912
 20
205.5317093885
 11
252.9906940521
 21
205.7330570832
  0
LINE
  5
2E4
100
AcDbEntity
  8
0
100
AcDbLine
 62
7
  6
CONTINUOUS
 10
249.7251501556
 20
205.2044989066
 11
249.2526872214
 21
204.3049922149
  0
LINE
  5
2E5
100
AcDbEntity
  8
0
100
AcDbLine
 62
7
  6
CONTINUOUS
 10
249.6062571805
 20
204.4061973295
 11
249.9802903179
 21
205.118306758
  0
LINE
  5
2E6
100
AcDbEntity
  8
0
100
AcDbLine
 62
7
  6
CONTINUOUS
 10
250.6866531264
 20
204.7472920139
 11
250.312619989
 21
204.0351825854
  0
LINE
  5
2E7
100
AcDbEntity
  8
0
100
AcDbLine
 62
7
  6
CONTINUOUS
 10
250.5951650596
 20
203.8867767154
 11
250.9298262953
 21
204.5239272708
  0
LINE
  5
2E8
100
AcDbEntity
  8
0
100
AcDbLine
 62
7
  6
CONTINUOUS
 10
251.4659572052
 20
203.1424794284
 11
251.5840729387
 21
203.3673561013
  0
LINE
  5
2E9
100
AcDbEntity
  8
0
100
AcDbLine
 62
7
  6
CONTINUOUS
 10
252.0762218097
 20
204.3043422027
 11
252.2140235364
 21
204.5666983926
  0
LINE
  5
2EA
100
AcDbEntity
  8
0
100
AcDbLine
 62
7
  6
CONTINUOUS
 10
254.1294819242
 20
207.4249673407
 11
254.0443342166
 21
207.2692269222
  0
LINE
  5
2EB
100
AcDbEntity
  8
0
100
AcDbLine
 62
7
  6
CONTINUOUS
 10
254.2656134864
 20
207.0392453409
 11
254.3812683479
 21
207.2243385546
  0
LINE
  5
2EC
100
AcDbEntity
  8
0
100
AcDbLine
 62
7
  6
CONTINUOUS
 10
251.3106253959
 20
207.5718346893
 11
251.1584442628
 21
207.3684588125
  0
LINE
  5
2ED
100
AcDbEntity
  8
0
100
AcDbLine
 62
7
  6
CONTINUOUS
 10
250.5497197303
 20
206.5549553054
 11
250.3975385246
 21
206.3515793317
  0
LINE
  5
2EE
100
AcDbEntity
  8
0
100
AcDbLine
 62
7
  6
CONTINUOUS
 10
252.6509343697
 20
205.7229165665
 11
252.5494802326
 21
205.587332584
  0
LINE
  5
2EF
100
AcDbEntity
  8
0
100
AcDbLine
 62
7
  6
CONTINUOUS
 10
252.8050107748
 20
205.396125406
 11
252.906464912
 21
205.5317093885
  0
LINE
  5
2F0
100
AcDbEntity
  8
0
100
AcDbLine
 62
7
  6
CONTINUOUS
 10
249.8706707974
 20
205.3671618581
 11
249.7251501556
 21
205.2044989066
  0
LINE
  5
2F1
100
AcDbEntity
  8
0
100
AcDbLine
 62
7
  6
CONTINUOUS
 10
252.5322592025
 20
208.8407677322
 11
251.8000930149
 21
208.1363061036
  0
LINE
  5
2F2
100
AcDbEntity
  8
0
100
AcDbLine
 62
7
  6
CONTINUOUS
 10
252.2044138057
 20
208.0824399563
 11
252.7535384464
 21
208.6107861777
  0
LINE
  5
2F3
100
AcDbEntity
  8
0
100
AcDbLine
 62
7
  6
CONTINUOUS
 10
254.0443342166
 20
207.2692269222
 11
253.4952095759
 21
206.7408807007
  0
LINE
  5
2F4
100
AcDbEntity
  8
0
100
AcDbLine
 62
7
  6
CONTINUOUS
 10
249.9802903179
 20
205.118306758
 11
250.0864390298
 21
205.2060107828
  0
LINE
  5
2F5
100
AcDbEntity
  8
0
100
AcDbLine
 62
7
  6
CONTINUOUS
 10
252.7216738152
 20
208.9492004244
 11
252.5322592025
 21
208.8407677322
  0
LINE
  5
2F6
100
AcDbEntity
  8
0
100
AcDbLine
 62
7
  6
CONTINUOUS
 10
252.7535384464
 20
208.6107861777
 11
252.9124459019
 21
208.6898660781
  0
LINE
  5
2F7
100
AcDbEntity
  8
0
100
AcDbLine
 62
7
  6
CONTINUOUS
 10
255.9134979673
 20
211.2242886619
 11
255.6823413333
 21
211.1189916766
  0
LINE
  5
2F8
100
AcDbEntity
  8
BEZUGSACHSEN
100
AcDbLine
 62
7
  6
CONTINUOUS
 10
273.0964069303
 20
187.774527535
 11
251.8309656555
 21
187.774527535
  0
LINE
  5
2F9
100
AcDbEntity
  8
KONSTRUKTIONSELEMENTE
100
AcDbLine
 62
7
  6
CONTINUOUS
 10
264.4324359711
 20
154.7375062425
 11
264.6199363287
 21
154.2055913378
  0
LINE
  5
2FA
100
AcDbEntity
  8
KONSTRUKTIONSELEMENTE
100
AcDbLine
 62
7
  6
CONTINUOUS
 10
267.7136857922
 20
155.2694212218
 11
267.5261865075
 21
155.801336052
  0
LINE
  5
2FB
100
AcDbEntity
  8
KONSTRUKTIONSELEMENTE
100
AcDbLine
 62
7
  6
CONTINUOUS
 10
264.9949359711
 20
154.5247403104
 11
264.9011863287
 21
154.8438892086
  0
LINE
  5
2FC
100
AcDbEntity
  8
0
100
AcDbLine
 62
7
  6
CONTINUOUS
 10
254.4295361719
 20
207.4184092422
 11
254.4040442446
 21
207.6891404514
  0
LINE
  5
2FD
100
AcDbEntity
  8
0
100
AcDbLine
 62
7
  6
CONTINUOUS
 10
252.7007137873
 20
206.0557920875
 11
252.7098000881
 21
205.8903684083
  0
LINE
  5
2FE
100
AcDbEntity
  8
0
100
AcDbLine
 62
7
  6
CONTINUOUS
 10
254.4636862929
 20
150.274527535
 11
254.4636862929
 21
126.774527535
  0
LINE
  5
2FF
100
AcDbEntity
  8
RUNDUNGEN
100
AcDbLine
 62
7
  6
CONTINUOUS
 10
254.7136862929
 20
163.774527535
 11
254.7136862929
 21
154.774527535
  0
LINE
  5
300
100
AcDbEntity
  8
RUNDUNGEN
100
AcDbLine
 62
7
  6
CONTINUOUS
 10
255.4636862929
 20
173.774527535
 11
255.4636862929
 21
167.774527535
  0
LINE
  5
301
100
AcDbEntity
  8
0
100
AcDbLine
 62
7
  6
CONTINUOUS
 10
255.9636862929
 20
199.774527535
 11
255.9636862929
 21
270.774527535
  0
LINE
  5
302
100
AcDbEntity
  8
KONSTRUKTIONSELEMENTE
100
AcDbLine
 62
7
  6
CONTINUOUS
 10
256.0053528006
 20
163.1183574338
 11
256.0053528006
 21
162.7779317041
  0
LINE
  5
303
100
AcDbEntity
  8
KONSTRUKTIONSELEMENTE
100
AcDbLine
 62
7
  6
CONTINUOUS
 10
256.5053528006
 20
162.8630380769
 11
256.5053528006
 21
163.0332508226
  0
LINE
  5
304
100
AcDbEntity
  8
KONSTRUKTIONSELEMENTE
100
AcDbLine
 62
7
  6
CONTINUOUS
 10
257.2136861499
 20
158.354527535
 11
257.2136861499
 21
153.354527535
  0
LINE
  5
305
100
AcDbEntity
  8
KONSTRUKTIONSELEMENTE
100
AcDbLine
 62
7
  6
CONTINUOUS
 10
257.7761861499
 20
153.354527535
 11
257.7761861499
 21
157.2906978746
  0
LINE
  5
306
100
AcDbEntity
  8
0
100
AcDbLine
 62
7
  6
CONTINUOUS
 10
252.9906940521
 20
205.7330570832
 11
253.0069713405
 21
205.9323767926
  0
LINE
  5
307
100
AcDbEntity
  8
0
100
AcDbLine
 62
7
  6
CONTINUOUS
 10
254.1472429239
 20
207.5896855893
 11
254.1294819242
 21
207.4249673407
  0
LINE
  5
308
100
AcDbEntity
  8
0
100
AcDbLine
 62
7
  6
CONTINUOUS
 10
254.3812683479
 20
207.2243385546
 11
254.4295361719
 21
207.4184092422
  0
LINE
  5
309
100
AcDbEntity
  8
0
100
AcDbLine
 62
7
  6
CONTINUOUS
 10
253.5334472987
 20
206.3347837122
 11
254.2656134864
 21
207.0392453409
  0
LINE
  5
30A
100
AcDbEntity
  8
0
100
AcDbLine
 62
7
  6
CONTINUOUS
 10
252.6356047898
 20
205.2585134354
 11
252.8050107748
 21
205.396125406
  0
LINE
  5
30B
100
AcDbEntity
  8
0
100
AcDbLine
 62
7
  6
CONTINUOUS
 10
252.5494802326
 20
205.587332584
 11
252.4054378218
 21
205.4836166547
  0
LINE
  5
30C
100
AcDbEntity
  8
0
100
AcDbLine
 62
7
  6
CONTINUOUS
 10
252.448973804
 20
205.1866651798
 11
252.6356047898
 21
205.2585134354
  0
LINE
  5
30D
100
AcDbEntity
  8
0
100
AcDbLine
 62
7
  6
CONTINUOUS
 10
271.0172527024
 20
209.9829220311
 11
270.5925022173
 21
209.8321068152
  0
LINE
  5
30E
100
AcDbEntity
  8
0
100
AcDbLine
 62
7
  6
CONTINUOUS
 10
270.3414804012
 20
209.4885001475
 11
270.7662309742
 21
209.6393154838
  0
LINE
  5
30F
100
AcDbEntity
  8
0
100
AcDbLine
 62
7
  6
CONTINUOUS
 10
250.0906871363
 20
205.4428766693
 11
249.8706707974
 21
205.3671618581
  0
LINE
  5
310
100
AcDbEntity
  8
0
100
AcDbLine
 62
7
  6
CONTINUOUS
 10
250.5222237893
 20
205.1205745567
 11
250.6438103878
 21
205.008892212
  0
LINE
  5
311
100
AcDbEntity
  8
0
100
AcDbLine
 62
7
  6
CONTINUOUS
 10
250.8090169665
 20
205.2090345733
 11
250.687430368
 21
205.320716918
  0
LINE
  5
312
100
AcDbEntity
  8
0
100
AcDbLine
 62
7
  6
CONTINUOUS
 10
252.9380717878
 20
206.1954322234
 11
252.818445079
 21
206.3906955771
  0
LINE
  5
313
100
AcDbEntity
  8
0
100
AcDbLine
 62
7
  6
CONTINUOUS
 10
250.9383224801
 20
204.9976589902
 11
250.8090169665
 21
205.2090345733
  0
LINE
  5
314
100
AcDbEntity
  8
0
100
AcDbLine
 62
7
  6
CONTINUOUS
 10
252.6236755271
 20
206.2191875596
 11
252.7007137873
 21
206.0557920875
  0
LINE
  5
315
100
AcDbEntity
  8
0
100
AcDbLine
 62
7
  6
CONTINUOUS
 10
250.6438103878
 20
205.008892212
 11
250.6986201481
 21
204.884464662
  0
LINE
  5
316
100
AcDbEntity
  8
0
100
AcDbLine
 62
7
  6
CONTINUOUS
 10
254.4040442446
 20
207.6891404514
 11
254.3175386881
 21
207.9011667623
  0
LINE
  5
317
100
AcDbEntity
  8
KONSTRUKTIONSELEMENTE
100
AcDbLine
 62
7
  6
CONTINUOUS
 10
267.1511857922
 20
155.4821871538
 11
267.2449365075
 21
155.1630381067
  0
LINE
  5
318
100
AcDbEntity
  8
KONSTRUKTIONSELEMENTE
100
AcDbLine
 62
7
  6
CONTINUOUS
 10
267.5261865075
 20
157.1843149085
 11
267.4324357922
 21
157.5034638066
  0
LINE
  5
319
100
AcDbEntity
  8
0
100
AcDbLine
 62
7
  6
CONTINUOUS
 10
254.0976172672
 20
207.7633816142
 11
254.1472429239
 21
207.5896855893
  0
LINE
  5
31A
100
AcDbEntity
  8
0
100
AcDbLine
 62
7
  6
CONTINUOUS
 10
253.0069713405
 20
205.9323767926
 11
252.9380717878
 21
206.1954322234
  0
LINE
  5
31B
100
AcDbEntity
  8
KONSTRUKTIONSELEMENTE
100
AcDbLine
 62
7
  6
CONTINUOUS
 10
262.5053528006
 20
160.9906977554
 11
261.8386862929
 21
164.054527535
  0
LINE
  5
31C
100
AcDbEntity
  8
KONSTRUKTIONSELEMENTE
100
AcDbLine
 62
7
  6
CONTINUOUS
 10
261.5053528006
 20
163.2885701795
 11
262.1720193084
 21
160.054527535
  0
LINE
  5
31D
100
AcDbEntity
  8
KONSTRUKTIONSELEMENTE
100
AcDbLine
 62
7
  6
CONTINUOUS
 10
259.5053528006
 20
164.054527535
 11
260.1720193084
 21
160.054527535
  0
LINE
  5
31E
100
AcDbEntity
  8
KONSTRUKTIONSELEMENTE
100
AcDbLine
 62
7
  6
CONTINUOUS
 10
260.5053528006
 20
160.9906977554
 11
260.0053528006
 21
164.054527535
  0
LINE
  5
31F
100
AcDbEntity
  8
KONSTRUKTIONSELEMENTE
100
AcDbLine
 62
7
  6
CONTINUOUS
 10
258.3386860545
 20
161.3311232467
 11
258.3386860545
 21
161.0758041282
  0
LINE
  5
320
100
AcDbEntity
  8
KONSTRUKTIONSELEMENTE
100
AcDbLine
 62
7
  6
CONTINUOUS
 10
258.8386860545
 20
160.9906977554
 11
258.8386860545
 21
161.4162296195
  0
LINE
  5
321
100
AcDbEntity
  8
KONSTRUKTIONSELEMENTE
100
AcDbLine
 62
7
  6
CONTINUOUS
 10
261.1511861499
 20
157.2906978746
 11
261.1511861499
 21
153.354527535
  0
LINE
  5
322
100
AcDbEntity
  8
KONSTRUKTIONSELEMENTE
100
AcDbLine
 62
7
  6
CONTINUOUS
 10
261.7136861499
 20
153.354527535
 11
261.7136861499
 21
158.354527535
  0
LINE
  5
323
100
AcDbEntity
  8
KONSTRUKTIONSELEMENTE
100
AcDbLine
 62
7
  6
CONTINUOUS
 10
262.4636859711
 20
157.6098467727
 11
262.4636859711
 21
156.7587827463
  0
LINE
  5
324
100
AcDbEntity
  8
KONSTRUKTIONSELEMENTE
100
AcDbLine
 62
7
  6
CONTINUOUS
 10
263.0261859711
 20
157.5034638066
 11
263.0261859711
 21
153.354527535
  0
LINE
  5
325
100
AcDbEntity
  8
0
100
AcDbLine
 62
7
  6
CONTINUOUS
 10
272.2379239425
 20
208.497729642
 11
272.0545311843
 21
208.38184768
  0
LINE
  5
326
100
AcDbEntity
  8
0
100
AcDbLine
 62
7
  6
CONTINUOUS
 10
272.7855816031
 20
207.1492987169
 11
272.9689743612
 21
207.2651806789
  0
LINE
  5
327
100
AcDbEntity
  8
0
100
AcDbLine
 62
7
  6
CONTINUOUS
 10
271.9664811311
 20
206.3124806599
 11
272.1113178224
 21
206.3917189373
  0
LINE
  5
328
100
AcDbEntity
  8
0
100
AcDbLine
 62
7
  6
CONTINUOUS
 10
270.3793345587
 20
207.6445105198
 11
269.8081438026
 21
207.3605889644
  0
LINE
  5
329
100
AcDbEntity
  8
0
100
AcDbLine
 62
7
  6
CONTINUOUS
 10
269.9700526998
 20
207.2242367568
 11
270.5412434559
 21
207.5081583122
  0
LINE
  5
32A
100
AcDbEntity
  8
0
100
AcDbLine
 62
7
  6
CONTINUOUS
 10
272.8231578119
 20
207.4186183829
 11
272.6106006759
 21
207.3334250856
  0
LINE
  5
32B
100
AcDbEntity
  8
0
100
AcDbLine
 62
7
  6
CONTINUOUS
 10
271.9654999381
 20
206.5451580462
 11
271.8592220376
 21
206.5025606951
  0
LINE
  5
32C
100
AcDbEntity
  8
0
100
AcDbLine
 62
7
  6
CONTINUOUS
 10
252.0656779906
 20
205.4734759468
 11
251.8699608902
 21
205.5670515338
  0
LINE
  5
32D
100
AcDbEntity
  8
0
100
AcDbLine
 62
7
  6
CONTINUOUS
 10
249.2526872214
 20
204.3049922149
 11
251.4659572052
 21
203.1424794284
  0
LINE
  5
32E
100
AcDbEntity
  8
0
100
AcDbLine
 62
7
  6
CONTINUOUS
 10
251.5840729387
 20
203.3673561013
 11
250.5951650596
 21
203.8867767154
  0
LINE
  5
32F
100
AcDbEntity
  8
0
100
AcDbLine
 62
7
  6
CONTINUOUS
 10
250.312619989
 20
204.0351825854
 11
249.6062571805
 21
204.4061973295
  0
LINE
  5
330
100
AcDbEntity
  8
0
100
AcDbLine
 62
7
  6
CONTINUOUS
 10
250.3809511221
 20
205.194777561
 11
250.5222237893
 21
205.1205745567
  0
LINE
  5
331
100
AcDbEntity
  8
0
100
AcDbLine
 62
7
  6
CONTINUOUS
 10
250.687430368
 20
205.320716918
 11
250.4990668556
 21
205.4196542339
  0
LINE
  5
332
100
AcDbEntity
  8
0
100
AcDbLine
 62
7
  6
CONTINUOUS
 10
251.7177796845
 20
205.36367556
 11
251.9560853488
 21
205.2382323078
  0
LINE
  5
333
100
AcDbEntity
  8
0
100
AcDbLine
 62
7
  6
CONTINUOUS
 10
250.3975385246
 20
206.3515793317
 11
251.7177796845
 21
205.36367556
  0
LINE
  5
334
100
AcDbEntity
  8
0
100
AcDbLine
 62
7
  6
CONTINUOUS
 10
251.8699608902
 20
205.5670515338
 11
250.5497197303
 21
206.5549553054
  0
LINE
  5
335
100
AcDbEntity
  8
0
100
AcDbLine
 62
7
  6
CONTINUOUS
 10
251.1584442628
 20
207.3684588125
 11
252.4786854227
 21
206.3805550409
  0
LINE
  5
336
100
AcDbEntity
  8
0
100
AcDbLine
 62
7
  6
CONTINUOUS
 10
252.6308665558
 20
206.5839309177
 11
251.3106253959
 21
207.5718346893
  0
LINE
  5
337
100
AcDbEntity
  8
0
100
AcDbLine
 62
7
  6
CONTINUOUS
 10
253.6104479649
 20
208.6971244534
 11
253.3955416836
 21
208.8594234003
  0
LINE
  5
338
100
AcDbEntity
  8
FASEN
100
AcDbLine
 62
7
  6
CONTINUOUS
 10
282.3187815818
 20
181.2745275354
 11
282.9056056706
 21
180.7821236589
  0
LINE
  5
339
100
AcDbEntity
  8
0
100
AcDbLine
 62
7
  6
CONTINUOUS
 10
252.818445079
 20
206.3906955771
 11
252.6308665558
 21
206.5839309177
  0
LINE
  5
33A
100
AcDbEntity
  8
0
100
AcDbLine
 62
7
  6
CONTINUOUS
 10
251.8000930149
 20
208.1363061036
 11
253.5334472987
 21
206.3347837122
  0
LINE
  5
33B
100
AcDbEntity
  8
0
100
AcDbLine
 62
7
  6
CONTINUOUS
 10
253.4952095759
 20
206.7408807007
 11
252.2044138057
 21
208.0824399563
  0
LINE
  5
33C
100
AcDbEntity
  8
0
100
AcDbLine
 62
7
  6
CONTINUOUS
 10
253.427406418
 20
208.5210090462
 11
253.9806045794
 21
207.9460551064
  0
LINE
  5
33D
100
AcDbEntity
  8
0
100
AcDbLine
 62
7
  6
CONTINUOUS
 10
254.1636461263
 20
208.1221705136
 11
253.6104479649
 21
208.6971244534
  0
LINE
  5
33E
100
AcDbEntity
  8
0
100
AcDbLine
 62
7
  6
CONTINUOUS
 10
252.4786854227
 20
206.3805550409
 11
252.6236755271
 21
206.2191875596
  0
LINE
  5
33F
100
AcDbEntity
  8
0
100
AcDbLine
 62
7
  6
CONTINUOUS
 10
254.3175386881
 20
207.9011667623
 11
254.1636461263
 21
208.1221705136
  0
LINE
  5
340
100
AcDbEntity
  8
0
100
AcDbLine
 62
7
  6
CONTINUOUS
 10
253.9806045794
 20
207.9460551064
 11
254.0976172672
 21
207.7633816142
  0
LINE
  5
341
100
AcDbEntity
  8
KONSTRUKTIONSELEMENTE
100
AcDbLine
 62
7
  6
CONTINUOUS
 10
264.3386863287
 20
155.4821871538
 11
264.4324359711
 21
154.7375062425
  0
LINE
  5
342
100
AcDbEntity
  8
KONSTRUKTIONSELEMENTE
100
AcDbLine
 62
7
  6
CONTINUOUS
 10
263.5886859711
 20
153.354527535
 11
263.5886859711
 21
158.354527535
  0
LINE
  5
343
100
AcDbEntity
  8
KONSTRUKTIONSELEMENTE
100
AcDbLine
 62
7
  6
CONTINUOUS
 10
264.1720197852
 20
161.7566552301
 11
264.1720197852
 21
161.2460168739
  0
LINE
  5
344
100
AcDbEntity
  8
KONSTRUKTIONSELEMENTE
100
AcDbLine
 62
7
  6
CONTINUOUS
 10
264.3386863287
 20
156.2268679161
 11
264.3386863287
 21
155.4821871538
  0
LINE
  5
345
100
AcDbEntity
  8
KONSTRUKTIONSELEMENTE
100
AcDbLine
 62
7
  6
CONTINUOUS
 10
264.8074361499
 20
156.014101984
 11
264.8074361499
 21
156.2268679161
  0
LINE
  5
346
100
AcDbEntity
  8
KONSTRUKTIONSELEMENTE
100
AcDbLine
 62
7
  6
CONTINUOUS
 10
264.9011863287
 20
154.8438892086
 11
264.9011863287
 21
155.1630381067
  0
LINE
  5
347
100
AcDbEntity
  8
KONSTRUKTIONSELEMENTE
100
AcDbLine
 62
7
  6
CONTINUOUS
 10
266.1720197852
 20
163.3736765523
 11
266.1720197852
 21
161.7566552301
  0
LINE
  5
348
100
AcDbEntity
  8
KONSTRUKTIONSELEMENTE
100
AcDbLine
 62
7
  6
CONTINUOUS
 10
266.1720197852
 20
161.2460168739
 11
266.1720197852
 21
160.054527535
  0
LINE
  5
349
100
AcDbEntity
  8
KONSTRUKTIONSELEMENTE
100
AcDbLine
 62
7
  6
CONTINUOUS
 10
266.6720197852
 20
160.054527535
 11
266.6720197852
 21
161.2460168739
  0
LINE
  5
34A
100
AcDbEntity
  8
KONSTRUKTIONSELEMENTE
100
AcDbLine
 62
7
  6
CONTINUOUS
 10
266.6720197852
 20
161.7566552301
 11
266.6720197852
 21
164.054527535
  0
LINE
  5
34B
100
AcDbEntity
  8
KONSTRUKTIONSELEMENTE
100
AcDbLine
 62
7
  6
CONTINUOUS
 10
267.2449365075
 20
155.1630381067
 11
267.2449365075
 21
154.8438892086
  0
LINE
  5
34C
100
AcDbEntity
  8
KONSTRUKTIONSELEMENTE
100
AcDbLine
 62
7
  6
CONTINUOUS
 10
267.5053528006
 20
161.2460168739
 11
267.5053528006
 21
161.7566552301
  0
LINE
  5
34D
100
AcDbEntity
  8
KONSTRUKTIONSELEMENTE
100
AcDbLine
 62
7
  6
CONTINUOUS
 10
267.7136857922
 20
154.7375062425
 11
267.7136857922
 21
155.2694212218
  0
LINE
  5
34E
100
AcDbEntity
  8
KONSTRUKTIONSELEMENTE
100
AcDbLine
 62
7
  6
CONTINUOUS
 10
268.1720197852
 20
163.4587829251
 11
268.1720197852
 21
162.7779317041
  0
LINE
  5
34F
100
AcDbEntity
  8
KONSTRUKTIONSELEMENTE
100
AcDbLine
 62
7
  6
CONTINUOUS
 10
256.0886861439
 20
163.4587829251
 11
256.0053528006
 21
163.1183574338
  0
LINE
  5
350
100
AcDbEntity
  8
0
100
AcDbLine
 62
7
  6
CONTINUOUS
 10
271.1592983287
 20
207.2390661698
 11
271.2072488085
 21
207.3430394454
  0
LINE
  5
351
100
AcDbEntity
  8
0
100
AcDbLine
 62
7
  6
CONTINUOUS
 10
271.0614322591
 20
207.4964771494
 11
270.9749229886
 21
207.3558629475
  0
LINE
  5
352
100
AcDbEntity
  8
0
100
AcDbLine
 62
7
  6
CONTINUOUS
 10
272.2655475377
 20
206.5382881592
 11
272.390612929
 21
206.715546097
  0
LINE
  5
353
100
AcDbEntity
  8
0
100
AcDbLine
 62
7
  6
CONTINUOUS
 10
273.0460893269
 20
207.3384653924
 11
273.1711559992
 21
207.5157218741
  0
LINE
  5
354
100
AcDbEntity
  8
0
100
AcDbLine
 62
7
  6
CONTINUOUS
 10
270.5925022173
 20
209.8321068152
 11
270.3414804012
 21
209.4885001475
  0
LINE
  5
355
100
AcDbEntity
  8
0
100
AcDbLine
 62
7
  6
CONTINUOUS
 10
270.7662309742
 20
209.6393154838
 11
269.5424998732
 21
207.9642333249
  0
LINE
  5
356
100
AcDbEntity
  8
0
100
AcDbLine
 62
7
  6
CONTINUOUS
 10
269.7476063461
 20
207.814392812
 11
271.2223591753
 21
209.8330815182
  0
LINE
  5
357
100
AcDbEntity
  8
0
100
AcDbLine
 62
7
  6
CONTINUOUS
 10
272.5404532291
 20
205.4537158342
 11
272.6449806748
 21
205.5815055863
  0
LINE
  5
358
100
AcDbEntity
  8
0
100
AcDbLine
 62
7
  6
CONTINUOUS
 10
272.1064091062
 20
207.5551086011
 11
271.952179391
 21
207.4085393792
  0
LINE
  5
359
100
AcDbEntity
  8
0
100
AcDbLine
 62
7
  6
CONTINUOUS
 10
272.9002727775
 20
207.4919030965
 11
272.8231578119
 21
207.4186183829
  0
LINE
  5
35A
100
AcDbEntity
  8
0
100
AcDbLine
 62
7
  6
CONTINUOUS
 10
272.1197296533
 20
206.691727268
 11
271.9654999381
 21
206.5451580462
  0
LINE
  5
35B
100
AcDbEntity
  8
0
100
AcDbLine
 62
7
  6
CONTINUOUS
 10
272.9689743612
 20
207.2651806789
 11
273.0460893269
 21
207.3384653924
  0
LINE
  5
35C
100
AcDbEntity
  8
0
100
AcDbLine
 62
7
  6
CONTINUOUS
 10
272.1113178224
 20
206.3917189373
 11
272.2655475377
 21
206.5382881592
  0
LINE
  5
35D
100
AcDbEntity
  8
FASEN
100
AcDbLine
 62
7
  6
CONTINUOUS
 10
242.608591004
 20
181.2745275354
 11
242.0217669152
 21
180.7821236589
  0
LINE
  5
35E
100
AcDbEntity
  8
0
100
AcDbLine
 62
7
  6
CONTINUOUS
 10
273.2709776035
 20
206.7130605134
 11
273.0985414016
 21
206.5884206396
  0
LINE
  5
35F
100
AcDbEntity
  8
0
100
AcDbLine
 62
7
  6
CONTINUOUS
 10
273.8142514205
 20
206.6878570366
 11
273.4693788959
 21
206.4385772018
  0
LINE
  5
360
100
AcDbEntity
  8
0
100
AcDbLine
 62
7
  6
CONTINUOUS
 10
273.296942694
 20
206.313937328
 11
272.434761594
 21
205.6907378937
  0
LINE
  5
361
100
AcDbEntity
  8
0
100
AcDbLine
 62
7
  6
CONTINUOUS
 10
272.6449806748
 20
205.5815055863
 11
273.4209436437
 21
206.142385062
  0
LINE
  5
362
100
AcDbEntity
  8
0
100
AcDbLine
 62
7
  6
CONTINUOUS
 10
273.5933798456
 20
206.2670249357
 11
273.9382523701
 21
206.5163047706
  0
LINE
  5
363
100
AcDbEntity
  8
0
100
AcDbLine
 62
7
  6
CONTINUOUS
 10
272.437091138
 20
204.9611127217
 11
272.6095273549
 21
205.0857526064
  0
LINE
  5
364
100
AcDbEntity
  8
0
100
AcDbLine
 62
7
  6
CONTINUOUS
 10
273.6937441436
 20
205.7649722754
 11
273.8661803455
 21
205.8896121492
  0
LINE
  5
365
100
AcDbEntity
  8
0
100
AcDbLine
 62
7
  6
CONTINUOUS
 10
271.7924827589
 20
206.2639282633
 11
271.9664811311
 21
206.3124806599
  0
LINE
  5
366
100
AcDbEntity
  8
0
100
AcDbLine
 62
7
  6
CONTINUOUS
 10
272.6115818959
 20
207.100747725
 11
272.7855816031
 21
207.1492987169
  0
LINE
  5
367
100
AcDbEntity
  8
0
100
AcDbLine
 62
7
  6
CONTINUOUS
 10
272.2003490687
 20
208.2284085712
 11
272.3743474409
 21
208.2769609679
  0
LINE
  5
368
100
AcDbEntity
  8
0
100
AcDbLine
 62
7
  6
CONTINUOUS
 10
271.8592220376
 20
206.5025606951
 11
271.7237797322
 21
206.490651983
  0
LINE
  5
369
100
AcDbEntity
  8
0
100
AcDbLine
 62
7
  6
CONTINUOUS
 10
272.6106006759
 20
207.3334250856
 11
272.4751583975
 21
207.3215163991
  0
LINE
  5
36A
100
AcDbEntity
  8
0
100
AcDbLine
 62
7
  6
CONTINUOUS
 10
250.3381083835
 20
205.4563777591
 11
250.0906871363
 21
205.4428766693
  0
LINE
  5
36B
100
AcDbEntity
  8
0
100
AcDbLine
 62
7
  6
CONTINUOUS
 10
252.1771661221
 20
205.1785528396
 11
252.448973804
 21
205.1866651798
  0
LINE
  5
36C
100
AcDbEntity
  8
0
100
AcDbLine
 62
7
  6
CONTINUOUS
 10
252.244170388
 20
205.4456644572
 11
252.0656779906
 21
205.4734759468
  0
LINE
  5
36D
100
AcDbEntity
  8
0
100
AcDbLine
 62
7
  6
CONTINUOUS
 10
252.2140235364
 20
204.5666983926
 11
250.9537603668
 21
204.7982726206
  0
LINE
  5
36E
100
AcDbEntity
  8
0
100
AcDbLine
 62
7
  6
CONTINUOUS
 10
250.9298262953
 20
204.5239272708
 11
252.0762218097
 21
204.3043422027
  0
LINE
  5
36F
100
AcDbEntity
  8
0
100
AcDbLine
 62
7
  6
CONTINUOUS
 10
250.21999265
 20
205.2315010862
 11
250.3809511221
 21
205.194777561
  0
LINE
  5
370
100
AcDbEntity
  8
0
100
AcDbLine
 62
7
  6
CONTINUOUS
 10
250.4990668556
 20
205.4196542339
 11
250.3381083835
 21
205.4563777591
  0
LINE
  5
371
100
AcDbEntity
  8
0
100
AcDbLine
 62
7
  6
CONTINUOUS
 10
251.9560853488
 20
205.2382323078
 11
252.1771661221
 21
205.1785528396
  0
LINE
  5
372
100
AcDbEntity
  8
0
100
AcDbLine
 62
7
  6
CONTINUOUS
 10
253.0777264233
 20
208.7012632636
 11
253.249380114
 21
208.6449776266
  0
LINE
  5
373
100
AcDbEntity
  8
0
100
AcDbLine
 62
7
  6
CONTINUOUS
 10
253.3955416836
 20
208.8594234003
 11
253.1870082223
 21
208.9540391889
  0
LINE
  5
374
100
AcDbEntity
  8
0
100
AcDbLine
 62
7
  6
CONTINUOUS
 10
253.249380114
 20
208.6449776266
 11
253.427406418
 21
208.5210090462
  0
LINE
  5
375
100
AcDbEntity
  8
0
100
AcDbLine
 62
7
  6
CONTINUOUS
 10
255.9636862929
 20
211.1638243871
 11
255.9134979673
 21
211.2242886619
  0
LINE
  5
376
100
AcDbEntity
  8
0
100
AcDbLine
 62
7
  6
CONTINUOUS
 10
255.6823413333
 20
211.1189916766
 11
255.9636862929
 21
210.7795109961
  0
LINE
  5
377
100
AcDbEntity
  8
0
100
AcDbLine
 62
7
  6
CONTINUOUS
 10
270.9175781229
 20
207.1845601067
 11
270.9279537154
 21
207.0192122986
  0
LINE
  5
378
100
AcDbEntity
  8
0
100
AcDbLine
 62
7
  6
CONTINUOUS
 10
272.2052563959
 20
207.0650202609
 11
272.2156320018
 21
206.8996724656
  0
LINE
  5
379
100
AcDbEntity
  8
0
100
AcDbLine
 62
7
  6
CONTINUOUS
 10
272.9472420372
 20
207.8285537326
 11
272.9576176432
 21
207.6632059373
  0
LINE
  5
37A
100
AcDbEntity
  8
KONSTRUKTIONSELEMENTE
100
AcDbLine
 62
7
  6
CONTINUOUS
 10
268.6720197852
 20
163.3736765523
 11
268.6720197852
 21
160.054527535
  0
LINE
  5
37B
100
AcDbEntity
  8
0
100
AcDbLine
 62
7
  6
CONTINUOUS
 10
268.9636862929
 20
199.774527535
 11
268.9636862929
 21
270.774527535
  0
LINE
  5
37C
100
AcDbEntity
  8
KONSTRUKTIONSELEMENTE
100
AcDbLine
 62
7
  6
CONTINUOUS
 10
269.1720197852
 20
160.054527535
 11
269.1720197852
 21
164.054527535
  0
LINE
  5
37D
100
AcDbEntity
  8
RUNDUNGEN
100
AcDbLine
 62
7
  6
CONTINUOUS
 10
269.4636862929
 20
167.774527535
 11
269.4636862929
 21
173.774527535
  0
LINE
  5
37E
100
AcDbEntity
  8
RUNDUNGEN
100
AcDbLine
 62
7
  6
CONTINUOUS
 10
270.2136862929
 20
154.774527535
 11
270.2136862929
 21
163.774527535
  0
LINE
  5
37F
100
AcDbEntity
  8
0
100
AcDbLine
 62
7
  6
CONTINUOUS
 10
270.4636862929
 20
150.274527535
 11
270.4636862929
 21
126.774527535
  0
LINE
  5
380
100
AcDbEntity
  8
0
100
AcDbLine
 62
7
  6
CONTINUOUS
 10
272.9566447378
 20
166.1079257469
 11
272.9566447378
 21
150.274527535
  0
LINE
  5
381
100
AcDbEntity
  8
0
100
AcDbLine
 62
7
  6
CONTINUOUS
 10
272.311925984
 20
205.4974767885
 11
272.3001082182
 21
205.3322258006
  0
LINE
  5
382
100
AcDbEntity
  8
0
100
AcDbLine
 62
7
  6
CONTINUOUS
 10
272.5286354709
 20
205.2884648518
 11
272.5404532291
 21
205.4537158342
  0
LINE
  5
383
100
AcDbEntity
  8
KONSTRUKTIONSELEMENTE
100
AcDbLine
 62
7
  6
CONTINUOUS
 10
264.4324359711
 20
156.9715486784
 11
264.3386863287
 21
156.2268679161
  0
LINE
  5
384
100
AcDbEntity
  8
0
100
AcDbLine
 62
7
  6
CONTINUOUS
 10
271.1405095298
 20
207.1044070135
 11
271.1592983287
 21
207.2390661698
  0
LINE
  5
385
100
AcDbEntity
  8
0
100
AcDbLine
 62
7
  6
CONTINUOUS
 10
273.1711559992
 20
207.5157218741
 11
273.208732208
 21
207.7850415401
  0
LINE
  5
386
100
AcDbEntity
  8
KONSTRUKTIONSELEMENTE
100
AcDbLine
 62
7
  6
CONTINUOUS
 10
264.8074361499
 20
156.2268679161
 11
264.9011863287
 21
156.8651657124
  0
LINE
  5
387
100
AcDbEntity
  8
KONSTRUKTIONSELEMENTE
100
AcDbLine
 62
7
  6
CONTINUOUS
 10
263.0053528006
 20
164.054527535
 11
262.5053528006
 21
160.9906977554
  0
LINE
  5
388
100
AcDbEntity
  8
KONSTRUKTIONSELEMENTE
100
AcDbLine
 62
7
  6
CONTINUOUS
 10
262.8386862929
 20
160.054527535
 11
263.5053528006
 21
164.054527535
  0
LINE
  5
389
100
AcDbEntity
  8
KONSTRUKTIONSELEMENTE
100
AcDbLine
 62
7
  6
CONTINUOUS
 10
260.8386862929
 20
160.054527535
 11
261.5053528006
 21
163.2885701795
  0
LINE
  5
38A
100
AcDbEntity
  8
KONSTRUKTIONSELEMENTE
100
AcDbLine
 62
7
  6
CONTINUOUS
 10
261.1720193084
 20
164.054527535
 11
260.5053528006
 21
160.9906977554
  0
LINE
  5
38B
100
AcDbEntity
  8
KONSTRUKTIONSELEMENTE
100
AcDbLine
 62
7
  6
CONTINUOUS
 10
256.5053528006
 20
163.0332508226
 11
256.5886861141
 21
163.2885701795
  0
LINE
  5
38C
100
AcDbEntity
  8
0
100
AcDbLine
 62
7
  6
CONTINUOUS
 10
270.9749229886
 20
207.3558629475
 11
270.9175781229
 21
207.1845601067
  0
LINE
  5
38D
100
AcDbEntity
  8
0
100
AcDbLine
 62
7
  6
CONTINUOUS
 10
272.390612929
 20
206.715546097
 11
272.4479591297
 21
206.8868475331
  0
LINE
  5
38E
100
AcDbEntity
  8
0
100
AcDbLine
 62
7
  6
CONTINUOUS
 10
272.9576176432
 20
207.6632059373
 11
272.9002727775
 21
207.4919030965
  0
LINE
  5
38F
100
AcDbEntity
  8
0
100
AcDbLine
 62
7
  6
CONTINUOUS
 10
272.2156320018
 20
206.8996724656
 11
272.1197296533
 21
206.691727268
  0
LINE
  5
390
100
AcDbEntity
  8
0
100
AcDbLine
 62
7
  6
CONTINUOUS
 10
272.434761594
 20
205.6907378937
 11
272.311925984
 21
205.4974767885
  0
LINE
  5
391
100
AcDbEntity
  8
0
100
AcDbLine
 62
7
  6
CONTINUOUS
 10
252.4054378218
 20
205.4836166547
 11
252.244170388
 21
205.4456644572
  0
LINE
  5
392
100
AcDbEntity
  8
0
100
AcDbLine
 62
7
  6
CONTINUOUS
 10
252.9174611448
 20
208.9899500657
 11
252.7216738152
 21
208.9492004244
  0
LINE
  5
393
100
AcDbEntity
  8
0
100
AcDbLine
 62
7
  6
CONTINUOUS
 10
250.0864390298
 20
205.2060107828
 11
250.21999265
 21
205.2315010862
  0
LINE
  5
394
100
AcDbEntity
  8
0
100
AcDbLine
 62
7
  6
CONTINUOUS
 10
272.5088084992
 20
208.5215470149
 11
272.2379239425
 21
208.497729642
  0
LINE
  5
395
100
AcDbEntity
  8
0
100
AcDbLine
 62
7
  6
CONTINUOUS
 10
252.9124459019
 20
208.6898660781
 11
253.0777264233
 21
208.7012632636
  0
LINE
  5
396
100
AcDbEntity
  8
0
100
AcDbLine
 62
7
  6
CONTINUOUS
 10
272.379256103
 20
207.1135712528
 11
272.6115818959
 21
207.100747725
  0
LINE
  5
397
100
AcDbEntity
  8
0
100
AcDbLine
 62
7
  6
CONTINUOUS
 10
271.6278774242
 20
206.2827068239
 11
271.7924827589
 21
206.2639282633
  0
LINE
  5
398
100
AcDbEntity
  8
0
100
AcDbLine
 62
7
  6
CONTINUOUS
 10
272.3743474409
 20
208.2769609679
 11
272.5389527621
 21
208.2581823944
  0
LINE
  5
399
100
AcDbEntity
  8
0
100
AcDbLine
 62
7
  6
CONTINUOUS
 10
253.1870082223
 20
208.9540391889
 11
252.9174611448
 21
208.9899500657
  0
LINE
  5
39A
100
AcDbEntity
  8
0
100
AcDbLine
 62
7
  6
CONTINUOUS
 10
271.434107715
 20
206.3321740523
 11
271.6278774242
 21
206.2827068239
  0
LINE
  5
39B
100
AcDbEntity
  8
0
100
AcDbLine
 62
7
  6
CONTINUOUS
 10
271.7237797322
 20
206.490651983
 11
271.6268948827
 21
206.515385602
  0
LINE
  5
39C
100
AcDbEntity
  8
0
100
AcDbLine
 62
7
  6
CONTINUOUS
 10
272.7025768633
 20
208.4720811816
 11
272.5088084992
 21
208.5215470149
  0
LINE
  5
39D
100
AcDbEntity
  8
0
100
AcDbLine
 62
7
  6
CONTINUOUS
 10
272.4751583975
 20
207.3215163991
 11
272.2230626127
 21
207.4323581569
  0
LINE
  5
39E
100
AcDbEntity
  8
0
100
AcDbLine
 62
7
  6
CONTINUOUS
 10
271.2788967763
 20
206.4182821878
 11
271.434107715
 21
206.3321740523
  0
LINE
  5
39F
100
AcDbEntity
  8
0
100
AcDbLine
 62
7
  6
CONTINUOUS
 10
271.6268948827
 20
206.515385602
 11
271.4425209045
 21
206.6321810006
  0
LINE
  5
3A0
100
AcDbEntity
  8
0
100
AcDbLine
 62
7
  6
CONTINUOUS
 10
269.5424998732
 20
207.9642333249
 11
269.7476063461
 21
207.814392812
  0
LINE
  5
3A1
100
AcDbEntity
  8
0
100
AcDbLine
 62
7
  6
CONTINUOUS
 10
269.8081438026
 20
207.3605889644
 11
269.9700526998
 21
207.2242367568
  0
LINE
  5
3A2
100
AcDbEntity
  8
0
100
AcDbLine
 62
7
  6
CONTINUOUS
 10
270.5412434559
 20
207.5081583122
 11
270.3793345587
 21
207.6445105198
  0
LINE
  5
3A3
100
AcDbEntity
  8
0
100
AcDbLine
 62
7
  6
CONTINUOUS
 10
271.0455884284
 20
206.663784481
 11
271.2788967763
 21
206.4182821878
  0
LINE
  5
3A4
100
AcDbEntity
  8
0
100
AcDbLine
 62
7
  6
CONTINUOUS
 10
271.4425209045
 20
206.6321810006
 11
271.2675399773
 21
206.8163073693
  0
LINE
  5
3A5
100
AcDbEntity
  8
0
100
AcDbLine
 62
7
  6
CONTINUOUS
 10
271.2072488085
 20
207.3430394454
 11
271.0614322591
 21
207.4964771494
  0
LINE
  5
3A6
100
AcDbEntity
  8
0
100
AcDbLine
 62
7
  6
CONTINUOUS
 10
271.952179391
 20
207.4085393792
 11
272.0688328975
 21
207.285788935
  0
LINE
  5
3A7
100
AcDbEntity
  8
0
100
AcDbLine
 62
7
  6
CONTINUOUS
 10
271.2675399773
 20
206.8163073693
 11
271.1602795218
 21
207.0063887836
  0
LINE
  5
3A8
100
AcDbEntity
  8
0
100
AcDbLine
 62
7
  6
CONTINUOUS
 10
270.9674923541
 20
206.8231772338
 11
271.0455884284
 21
206.663784481
  0
LINE
  5
3A9
100
AcDbEntity
  8
0
100
AcDbLine
 62
7
  6
CONTINUOUS
 10
272.3313995067
 20
205.1981347839
 11
272.437091138
 21
204.9611127217
  0
LINE
  5
3AA
100
AcDbEntity
  8
0
100
AcDbLine
 62
7
  6
CONTINUOUS
 10
272.6095273549
 20
205.0857526064
 11
272.5286354709
 21
205.2884648518
  0
LINE
  5
3AB
100
AcDbEntity
  8
0
100
AcDbLine
 62
7
  6
CONTINUOUS
 10
272.4479591297
 20
206.8868475331
 11
272.379256103
 21
207.1135712528
  0
LINE
  5
3AC
100
AcDbEntity
  8
0
100
AcDbLine
 62
7
  6
CONTINUOUS
 10
272.3001082182
 20
205.3322258006
 11
272.3313995067
 21
205.1981347839
  0
LINE
  5
3AD
100
AcDbEntity
  8
0
100
AcDbLine
 62
7
  6
CONTINUOUS
 10
270.9279537154
 20
207.0192122986
 11
270.9674923541
 21
206.8231772338
  0
LINE
  5
3AE
100
AcDbEntity
  8
0
100
AcDbLine
 62
7
  6
CONTINUOUS
 10
271.1602795218
 20
207.0063887836
 11
271.1405095298
 21
207.1044070135
  0
LINE
  5
3AF
100
AcDbEntity
  8
0
100
AcDbLine
 62
7
  6
CONTINUOUS
 10
274.9707278481
 20
166.1079257469
 11
274.9707278481
 21
150.274527535
  0
LINE
  5
3B0
100
AcDbEntity
  8
KONSTRUKTIONSELEMENTE
100
AcDbLine
 62
7
  6
CONTINUOUS
 10
264.9011863287
 20
156.8651657124
 11
264.9949359711
 21
157.1843149085
  0
LINE
  5
3B1
100
AcDbEntity
  8
KONSTRUKTIONSELEMENTE
100
AcDbLine
 62
7
  6
CONTINUOUS
 10
264.9011863287
 20
155.1630381067
 11
264.9949359711
 21
155.4821871538
  0
LINE
  5
3B2
100
AcDbEntity
  8
KONSTRUKTIONSELEMENTE
100
AcDbLine
 62
7
  6
CONTINUOUS
 10
260.8699361499
 20
158.354527535
 11
259.4636861499
 21
153.8864424397
  0
LINE
  5
3B3
100
AcDbEntity
  8
KONSTRUKTIONSELEMENTE
100
AcDbLine
 62
7
  6
CONTINUOUS
 10
259.8386860605
 20
153.354527535
 11
261.1511861499
 21
157.2906978746
  0
LINE
  5
3B4
100
AcDbEntity
  8
KONSTRUKTIONSELEMENTE
100
AcDbLine
 62
7
  6
CONTINUOUS
 10
264.6199363287
 20
157.5034638066
 11
264.4324359711
 21
156.9715486784
  0
LINE
  5
3B5
100
AcDbEntity
  8
KONSTRUKTIONSELEMENTE
100
AcDbLine
 62
7
  6
CONTINUOUS
 10
258.6720195468
 20
160.6502722044
 11
258.8386860545
 21
160.9906977554
  0
LINE
  5
3B6
100
AcDbEntity
  8
RUNDUNGEN
100
AcDbLine
 62
7
  6
CONTINUOUS
 10
268.9636862929
 20
216.0821393796
 11
275.8113250101
 21
213.2457545526
  0
LINE
  5
3B7
100
AcDbEntity
  8
0
100
AcDbLine
 62
7
  6
CONTINUOUS
 10
272.5389527621
 20
208.2581823944
 11
272.7233280752
 21
208.1413855911
  0
LINE
  5
3B8
100
AcDbEntity
  8
0
100
AcDbLine
 62
7
  6
CONTINUOUS
 10
271.2223591753
 20
209.8330815182
 11
271.0172527024
 21
209.9829220311
  0
LINE
  5
3B9
100
AcDbEntity
  8
0
100
AcDbLine
 62
7
  6
CONTINUOUS
 10
272.9452782622
 20
208.2939098585
 11
272.7025768633
 21
208.4720811816
  0
LINE
  5
3BA
100
AcDbEntity
  8
0
100
AcDbLine
 62
7
  6
CONTINUOUS
 10
272.2230626127
 20
207.4323581569
 11
272.1064091062
 21
207.5551086011
  0
LINE
  5
3BB
100
AcDbEntity
  8
0
100
AcDbLine
 62
7
  6
CONTINUOUS
 10
272.0545311843
 20
208.38184768
 11
272.2003490687
 21
208.2284085712
  0
LINE
  5
3BC
100
AcDbEntity
  8
0
100
AcDbLine
 62
7
  6
CONTINUOUS
 10
272.7233280752
 20
208.1413855911
 11
272.8399815817
 21
208.0186351469
  0
LINE
  5
3BD
100
AcDbEntity
  8
0
100
AcDbLine
 62
7
  6
CONTINUOUS
 10
273.0036056829
 20
208.232533934
 11
272.9452782622
 21
208.2939098585
  0
LINE
  5
3BE
100
AcDbEntity
  8
0
100
AcDbLine
 62
7
  6
CONTINUOUS
 10
273.0985414016
 20
206.5884206396
 11
273.296942694
 21
206.313937328
  0
LINE
  5
3BF
100
AcDbEntity
  8
0
100
AcDbLine
 62
7
  6
CONTINUOUS
 10
273.4209436437
 20
206.142385062
 11
273.6937441436
 21
205.7649722754
  0
LINE
  5
3C0
100
AcDbEntity
  8
0
100
AcDbLine
 62
7
  6
CONTINUOUS
 10
273.8661803455
 20
205.8896121492
 11
273.5933798456
 21
206.2670249357
  0
LINE
  5
3C1
100
AcDbEntity
  8
0
100
AcDbLine
 62
7
  6
CONTINUOUS
 10
273.4693788959
 20
206.4385772018
 11
273.2709776035
 21
206.7130605134
  0
LINE
  5
3C2
100
AcDbEntity
  8
0
100
AcDbLine
 62
7
  6
CONTINUOUS
 10
273.9382523701
 20
206.5163047706
 11
273.8142514205
 21
206.6878570366
  0
LINE
  5
3C3
100
AcDbEntity
  8
0
100
AcDbLine
 62
7
  6
CONTINUOUS
 10
273.1691922242
 20
207.981078
 11
273.0036056829
 21
208.232533934
  0
LINE
  5
3C4
100
AcDbEntity
  8
0
100
AcDbLine
 62
7
  6
CONTINUOUS
 10
272.0688328975
 20
207.285788935
 11
272.2052563959
 21
207.0650202609
  0
LINE
  5
3C5
100
AcDbEntity
  8
0
100
AcDbLine
 62
7
  6
CONTINUOUS
 10
272.8399815817
 20
208.0186351469
 11
272.9472420372
 21
207.8285537326
  0
LINE
  5
3C6
100
AcDbEntity
  8
0
100
AcDbLine
 62
7
  6
CONTINUOUS
 10
273.208732208
 20
207.7850415401
 11
273.1691922242
 21
207.981078
  0
LINE
  5
3C7
100
AcDbEntity
  8
BEZUGSACHSEN
100
AcDbLine
 62
7
  6
CONTINUOUS
 10
282.9056056711
 20
180.7821236585
 11
285.4668610964
 21
166.2565223299
  0
LINE
  5
3C8
100
AcDbEntity
  8
BEZUGSACHSEN
100
AcDbLine
 62
7
  6
CONTINUOUS
 10
280.9636862929
 20
183.274527535
 11
280.9636862929
 21
186.9642485947
  0
LINE
  5
3C9
100
AcDbEntity
  8
BEZUGSACHSEN
100
AcDbLine
 62
7
  6
CONTINUOUS
 10
281.4636862929
 20
183.274527535
 11
281.4636862929
 21
181.274527535
  0
LINE
  5
3CA
100
AcDbEntity
  8
KONSTRUKTIONSELEMENTE
100
AcDbLine
 62
7
  6
CONTINUOUS
 10
267.2449365075
 20
154.8438892086
 11
267.1511857922
 21
154.5247403104
  0
LINE
  5
3CB
100
AcDbEntity
  8
KONSTRUKTIONSELEMENTE
100
AcDbLine
 62
7
  6
CONTINUOUS
 10
267.5261865075
 20
154.2055913378
 11
267.7136857922
 21
154.7375062425
  0
LINE
  5
3CC
100
AcDbEntity
  8
BEZUGSACHSEN
100
AcDbLine
 62
7
  6
CONTINUOUS
 10
282.4881482896
 20
197.1264772379
 11
280.0462594634
 21
191.2312361159
  0
LINE
  5
3CD
100
AcDbEntity
  8
KONSTRUKTIONSELEMENTE
100
AcDbLine
 62
7
  6
CONTINUOUS
 10
258.3386860545
 20
161.0758041282
 11
258.1720195468
 21
160.8204850097
  0
LINE
  5
3CE
100
AcDbEntity
  8
KONSTRUKTIONSELEMENTE
100
AcDbLine
 62
7
  6
CONTINUOUS
 10
256.4220194872
 20
163.7992084165
 11
256.0886861439
 21
163.4587829251
  0
LINE
  5
3CF
100
AcDbEntity
  8
BEZUGSACHSEN
100
AcDbLine
 62
7
  6
CONTINUOUS
 10
277.4349133106
 20
211.6221662522
 11
282.4881482896
 21
199.4225778321
  0
LINE
  5
3D0
100
AcDbEntity
  8
RUNDUNGEN
100
AcDbLine
 62
7
  6
CONTINUOUS
 10
285.4636862929
 20
166.2750969028
 11
285.4636862929
 21
166.1079257469
  0
LINE
  5
3D1
100
AcDbEntity
  8
0
100
AcDbLine
 62
7
  6
CONTINUOUS
 10
285.4636862929
 20
166.1079257469
 11
285.4636862929
 21
150.274527535
  0
LINE
  5
3D2
100
AcDbEntity
  8
KONSTRUKTIONSELEMENTE
100
AcDbLine
 62
7
  6
CONTINUOUS
 10
264.9949359711
 20
157.1843149085
 11
265.1824363287
 21
157.5034638066
  0
LINE
  5
3D3
100
AcDbEntity
  8
KONSTRUKTIONSELEMENTE
100
AcDbLine
 62
7
  6
CONTINUOUS
 10
264.9011863287
 20
157.9289956708
 11
264.6199363287
 21
157.5034638066
  0
LINE
  5
3D4
100
AcDbEntity
  8
KONSTRUKTIONSELEMENTE
100
AcDbLine
 62
7
  6
CONTINUOUS
 10
263.0261859711
 20
158.354527535
 11
262.4636859711
 21
157.6098467727
  0
LINE
  5
3D5
100
AcDbEntity
  8
KONSTRUKTIONSELEMENTE
100
AcDbLine
 62
7
  6
CONTINUOUS
 10
262.4636859711
 20
156.7587827463
 11
263.0261859711
 21
157.5034638066
  0
LINE
  5
3D6
100
AcDbEntity
  8
KONSTRUKTIONSELEMENTE
100
AcDbLine
 62
7
  6
CONTINUOUS
 10
258.3386860545
 20
160.3098466833
 11
258.6720195468
 21
160.6502722044
  0
LINE
  5
3D7
100
AcDbEntity
  8
KONSTRUKTIONSELEMENTE
100
AcDbLine
 62
7
  6
CONTINUOUS
 10
267.1511857922
 20
154.5247403104
 11
266.9636865075
 21
154.2055913378
  0
LINE
  5
3D8
100
AcDbEntity
  8
KONSTRUKTIONSELEMENTE
100
AcDbLine
 62
7
  6
CONTINUOUS
 10
267.2449365075
 20
153.7800594364
 11
267.5261865075
 21
154.2055913378
  0
LINE
  5
3D9
100
AcDbEntity
  8
KONSTRUKTIONSELEMENTE
100
AcDbLine
 62
7
  6
CONTINUOUS
 10
268.6720197852
 20
164.054527535
 11
268.1720197852
 21
163.4587829251
  0
LINE
  5
3DA
100
AcDbEntity
  8
KONSTRUKTIONSELEMENTE
100
AcDbLine
 62
7
  6
CONTINUOUS
 10
268.1720197852
 20
162.7779317041
 11
268.6720197852
 21
163.3736765523
  0
LINE
  5
3DB
100
AcDbEntity
  8
KONSTRUKTIONSELEMENTE
100
AcDbLine
 62
7
  6
CONTINUOUS
 10
266.1720197852
 20
164.054527535
 11
264.1720197852
 21
161.7566552301
  0
LINE
  5
3DC
100
AcDbEntity
  8
KONSTRUKTIONSELEMENTE
100
AcDbLine
 62
7
  6
CONTINUOUS
 10
264.7553528006
 20
161.7566552301
 11
266.1720197852
 21
163.3736765523
  0
LINE
  5
3DD
100
AcDbEntity
  8
KONSTRUKTIONSELEMENTE
100
AcDbLine
 62
7
  6
CONTINUOUS
 10
264.9949359711
 20
155.4821871538
 11
265.1824363287
 21
155.6949530859
  0
LINE
  5
3DE
100
AcDbEntity
  8
KONSTRUKTIONSELEMENTE
100
AcDbLine
 62
7
  6
CONTINUOUS
 10
256.5886861141
 20
163.2885701795
 11
256.8386861737
 21
163.4587829251
  0
LINE
  5
3DF
100
AcDbEntity
  8
KONSTRUKTIONSELEMENTE
100
AcDbLine
 62
7
  6
CONTINUOUS
 10
258.1720195468
 20
160.8204850097
 11
257.9220195468
 21
160.6502722044
  0
LINE
  5
3E0
100
AcDbEntity
  8
KONSTRUKTIONSELEMENTE
100
AcDbLine
 62
7
  6
CONTINUOUS
 10
256.7553528006
 20
163.9694211621
 11
256.4220194872
 21
163.7992084165
  0
LINE
  5
3E1
100
AcDbEntity
  8
KONSTRUKTIONSELEMENTE
100
AcDbLine
 62
7
  6
CONTINUOUS
 10
265.1824363287
 20
157.5034638066
 11
265.4636863287
 21
157.7162297387
  0
LINE
  5
3E2
100
AcDbEntity
  8
KONSTRUKTIONSELEMENTE
100
AcDbLine
 62
7
  6
CONTINUOUS
 10
265.3699361499
 20
156.4396338482
 11
264.8074361499
 21
156.014101984
  0
LINE
  5
3E3
100
AcDbEntity
  8
KONSTRUKTIONSELEMENTE
100
AcDbLine
 62
7
  6
CONTINUOUS
 10
265.3699361499
 20
158.2481445689
 11
264.9011863287
 21
157.9289956708
  0
LINE
  5
3E4
100
AcDbEntity
  8
KONSTRUKTIONSELEMENTE
100
AcDbLine
 62
7
  6
CONTINUOUS
 10
258.0053528006
 20
160.1396339153
 11
258.3386860545
 21
160.3098466833
  0
LINE
  5
3E5
100
AcDbEntity
  8
KONSTRUKTIONSELEMENTE
100
AcDbLine
 62
7
  6
CONTINUOUS
 10
256.8386861737
 20
163.4587829251
 11
257.0886861737
 21
163.543889298
  0
LINE
  5
3E6
100
AcDbEntity
  8
KONSTRUKTIONSELEMENTE
100
AcDbLine
 62
7
  6
CONTINUOUS
 10
265.1824363287
 20
155.6949530859
 11
265.4636863287
 21
155.907719018
  0
LINE
  5
3E7
100
AcDbEntity
  8
KONSTRUKTIONSELEMENTE
100
AcDbLine
 62
7
  6
CONTINUOUS
 10
266.9636865075
 20
154.2055913378
 11
266.6824365075
 21
153.9928254057
  0
LINE
  5
3E8
100
AcDbEntity
  8
KONSTRUKTIONSELEMENTE
100
AcDbLine
 62
7
  6
CONTINUOUS
 10
266.7761861499
 20
153.4609105103
 11
267.2449365075
 21
153.7800594364
  0
LINE
  5
3E9
100
AcDbEntity
  8
KONSTRUKTIONSELEMENTE
100
AcDbLine
 62
7
  6
CONTINUOUS
 10
265.4636863287
 20
157.7162297387
 11
265.7449363287
 21
157.8226127048
  0
LINE
  5
3EA
100
AcDbEntity
  8
KONSTRUKTIONSELEMENTE
100
AcDbLine
 62
7
  6
CONTINUOUS
 10
265.4636863287
 20
155.907719018
 11
265.7449363287
 21
156.014101984
  0
LINE
  5
3EB
100
AcDbEntity
  8
KONSTRUKTIONSELEMENTE
100
AcDbLine
 62
7
  6
CONTINUOUS
 10
266.6824365075
 20
153.9928254057
 11
266.4011865075
 21
153.8864424397
  0
LINE
  5
3EC
100
AcDbEntity
  8
0
100
AcDbLine
 62
7
  6
CONTINUOUS
 10
270.4636862929
 20
126.774527535
 11
268.9636862929
 21
125.274527535
  0
LINE
  5
3ED
100
AcDbEntity
  8
BEZUGSACHSEN
100
AcDbLine
 62
7
  6
CONTINUOUS
 10
141.0334380896
 20
62.3201484054
 11
142.1962695156
 21
64.3342315157
  0
LINE
  5
3EE
100
AcDbEntity
  8
RUNDUNGEN
100
AcDbLine
 62
7
  6
CONTINUOUS
 10
162.6962695156
 20
28.8271899606
 11
160.3706066637
 21
28.8271899606
  0
LINE
  5
3EF
100
AcDbEntity
  8
BEZUGSACHSEN
100
AcDbLine
 62
7
  6
CONTINUOUS
 10
142.1962695156
 20
39.3201484054
 11
141.0334380896
 21
41.3342315157
  0
LINE
  5
3F0
100
AcDbEntity
  8
RUNDUNGEN
100
AcDbLine
 62
7
  6
CONTINUOUS
 10
141.0334380896
 20
41.3342315157
 11
141.0334380896
 21
43.3271899606
  0
LINE
  5
3F1
100
AcDbEntity
  8
RUNDUNGEN
100
AcDbLine
 62
7
  6
CONTINUOUS
 10
141.0334380896
 20
60.3271899606
 11
141.0334380896
 21
62.3201484054
  0
LINE
  5
3F2
100
AcDbEntity
  8
BEZUGSACHSEN
100
AcDbLine
 62
7
  6
CONTINUOUS
 10
142.1962695156
 20
64.3342315157
 11
160.3706066637
 21
74.8271899606
  0
LWPOLYLINE
  5
3F3
100
AcDbEntity
  8
RUNDUNGEN
100
AcDbPolyline
 62
7
  6
CONTINUOUS
 90
5
 70
0
 10
164.57814727
 20
31.5741594154
 10
164.9432701566
 20
31.6001897847
 10
165.5077691387
 20
31.7482039843
 10
166.0304756995
 20
32.0232684597
 10
166.4988167611
 20
32.4315194257
  0
LINE
  5
3F4
100
AcDbEntity
  8
BEZUGSACHSEN
100
AcDbLine
 62
7
  6
CONTINUOUS
 10
158.4886187176
 20
31.5743802607
 11
158.4880787687
 21
31.5743665615
  0
LINE
  5
3F5
100
AcDbEntity
  8
BEZUGSACHSEN
100
AcDbLine
 62
7
  6
CONTINUOUS
 10
164.5788062699
 20
31.5743665615
 11
158.4880699094
 21
31.5743665615
  0
LINE
  5
3F6
100
AcDbEntity
  8
RUNDUNGEN
100
AcDbLine
 62
7
  6
CONTINUOUS
 10
164.5782359664
 20
31.5743813725
 11
164.5787974106
 21
31.5743665615
  0
LINE
  5
3F7
100
AcDbEntity
  8
BEZUGSACHSEN
100
AcDbLine
 62
7
  6
CONTINUOUS
 10
160.3706066637
 20
28.8271899606
 11
142.1962695156
 21
39.3201484054
  0
LINE
  5
3F8
100
AcDbEntity
  8
BEZUGSACHSEN
100
AcDbLine
 62
7
  6
CONTINUOUS
 10
153.695864471
 20
67.954982539
 11
153.6930545179
 21
67.9517772611
  0
LINE
  5
3F9
100
AcDbEntity
  8
BEZUGSACHSEN
100
AcDbLine
 62
7
  6
CONTINUOUS
 10
156.5403665505
 20
71.192148495
 11
153.6982074765
 21
67.9576509344
  0
LWPOLYLINE
  5
3FA
100
AcDbEntity
  8
BEZUGSACHSEN
100
AcDbPolyline
 62
7
  6
CONTINUOUS
 90
5
 70
0
 10
156.5688467787
 20
32.4306620492
 10
157.0477042572
 20
32.0156059665
 10
157.577951356
 20
31.7409791703
 10
158.1500113061
 20
31.5965381053
 10
158.4887082609
 20
31.5741583535
  0
LINE
  5
3FB
100
AcDbEntity
  8
BEZUGSACHSEN
100
AcDbLine
 62
7
  6
CONTINUOUS
 10
153.6982074765
 20
35.6967289868
 11
156.5403665505
 21
32.4622314262
  0
LINE
  5
3FC
100
AcDbEntity
  8
BEZUGSACHSEN
100
AcDbLine
 62
7
  6
CONTINUOUS
 10
153.695864471
 20
35.6993973821
 11
153.6935248834
 21
35.7020657329
  0
LINE
  5
3FD
100
AcDbEntity
  8
0
100
AcDbLine
 62
7
  6
CONTINUOUS
 10
157.2834380896
 20
40.3526238834
 11
156.7834380896
 21
40.3526238834
  0
LINE
  5
3FE
100
AcDbEntity
  8
0
100
AcDbLine
 62
7
  6
CONTINUOUS
 10
157.2834380896
 20
40.476624833
 11
156.7834380896
 21
40.476624833
  0
LINE
  5
3FF
100
AcDbEntity
  8
0
100
AcDbLine
 62
7
  6
CONTINUOUS
 10
157.2834380896
 20
40.8214973576
 11
156.7834380896
 21
40.8214973576
  0
LINE
  5
400
100
AcDbEntity
  8
0
100
AcDbLine
 62
7
  6
CONTINUOUS
 10
157.2834380896
 20
41.01989865
 11
156.7834380896
 21
41.01989865
  0
LINE
  5
401
100
AcDbEntity
  8
0
100
AcDbLine
 62
7
  6
CONTINUOUS
 10
157.2834380896
 20
41.0821440455
 11
156.7834380896
 21
41.0821440455
  0
LINE
  5
402
100
AcDbEntity
  8
0
100
AcDbLine
 62
7
  6
CONTINUOUS
 10
157.2834380896
 20
41.1216840293
 11
156.7834380896
 21
41.1216840293
  0
LINE
  5
403
100
AcDbEntity
  8
0
100
AcDbLine
 62
7
  6
CONTINUOUS
 10
157.2834380896
 20
41.2872705706
 11
156.7834380896
 21
41.2872705706
  0
LINE
  5
404
100
AcDbEntity
  8
0
100
AcDbLine
 62
7
  6
CONTINUOUS
 10
157.2834380896
 20
41.3455979913
 11
156.7834380896
 21
41.3455979913
  0
LINE
  5
405
100
AcDbEntity
  8
0
100
AcDbLine
 62
7
  6
CONTINUOUS
 10
157.2834380896
 20
41.5882993902
 11
156.7834380896
 21
41.5882993902
  0
LINE
  5
406
100
AcDbEntity
  8
0
100
AcDbLine
 62
7
  6
CONTINUOUS
 10
157.2834380896
 20
41.7820677543
 11
156.7834380896
 21
41.7820677543
  0
LINE
  5
407
100
AcDbEntity
  8
0
100
AcDbLine
 62
7
  6
CONTINUOUS
 10
157.2834380896
 20
42.052952311
 11
156.7834380896
 21
42.052952311
  0
LINE
  5
408
100
AcDbEntity
  8
0
100
AcDbLine
 62
7
  6
CONTINUOUS
 10
157.2834380896
 20
42.2363450692
 11
156.7834380896
 21
42.2363450692
  0
LINE
  5
409
100
AcDbEntity
  8
0
100
AcDbLine
 62
7
  6
CONTINUOUS
 10
157.2834380896
 20
42.3386968625
 11
156.7834380896
 21
42.3386968625
  0
LINE
  5
40A
100
AcDbEntity
  8
0
100
AcDbLine
 62
7
  6
CONTINUOUS
 10
157.2834380896
 20
42.4316542159
 11
156.7834380896
 21
42.4316542159
  0
LINE
  5
40B
100
AcDbEntity
  8
0
100
AcDbLine
 62
7
  6
CONTINUOUS
 10
157.2834380896
 20
42.5670965213
 11
156.7834380896
 21
42.5670965213
  0
LINE
  5
40C
100
AcDbEntity
  8
0
100
AcDbLine
 62
7
  6
CONTINUOUS
 10
157.2834380896
 20
42.6639813708
 11
156.7834380896
 21
42.6639813708
  0
LINE
  5
40D
100
AcDbEntity
  8
0
100
AcDbLine
 62
7
  6
CONTINUOUS
 10
157.2834380896
 20
42.848355349
 11
156.7834380896
 21
42.848355349
  0
LINE
  5
40E
100
AcDbEntity
  8
0
100
AcDbLine
 62
7
  6
CONTINUOUS
 10
157.2834380896
 20
43.0233362762
 11
156.7834380896
 21
43.0233362762
  0
LINE
  5
40F
100
AcDbEntity
  8
0
100
AcDbLine
 62
7
  6
CONTINUOUS
 10
157.2834380896
 20
43.0685170782
 11
156.7834380896
 21
43.0685170782
  0
LINE
  5
410
100
AcDbEntity
  8
0
100
AcDbLine
 62
7
  6
CONTINUOUS
 10
157.2834380896
 20
43.2736235511
 11
156.7834380896
 21
43.2736235511
  0
LINE
  5
411
100
AcDbEntity
  8
0
100
AcDbLine
 62
7
  6
CONTINUOUS
 10
157.2834380896
 20
43.6983740362
 11
156.7834380896
 21
43.6983740362
  0
LINE
  5
412
100
AcDbEntity
  8
0
100
AcDbLine
 62
7
  6
CONTINUOUS
 10
157.2834380896
 20
43.9493958523
 11
156.7834380896
 21
43.9493958523
  0
LINE
  5
413
100
AcDbEntity
  8
0
100
AcDbLine
 62
7
  6
CONTINUOUS
 10
157.2834380896
 20
44.7483763803
 11
156.7834380896
 21
44.7483763803
  0
LINE
  5
414
100
AcDbEntity
  8
0
100
AcDbLine
 62
7
  6
CONTINUOUS
 10
139.9458976236
 20
44.8271899606
 11
138.0334380896
 21
44.8271899606
  0
LINE
  5
415
100
AcDbEntity
  8
RUNDUNGEN
100
AcDbLine
 62
7
  6
CONTINUOUS
 10
139.9458872079
 20
44.8271899606
 11
138.0334380896
 21
44.8271899606
  0
LINE
  5
416
100
AcDbEntity
  8
0
100
AcDbLine
 62
7
  6
CONTINUOUS
 10
136.0334380896
 20
45.3271899606
 11
187.0334380896
 21
45.3271899606
  0
LINE
  5
417
100
AcDbEntity
  8
0
100
AcDbLine
 62
7
  6
CONTINUOUS
 10
156.7834380896
 20
40.3526238834
 11
156.7834380896
 21
44.7483763803
  0
LINE
  5
418
100
AcDbEntity
  8
0
100
AcDbLine
 62
7
  6
CONTINUOUS
 10
156.7834380896
 20
58.3271899606
 11
156.7834380896
 21
58.6085349202
  0
LINE
  5
419
100
AcDbEntity
  8
0
100
AcDbLine
 62
7
  6
CONTINUOUS
 10
156.7834380896
 20
59.8613400817
 11
156.7834380896
 21
65.0381890321
  0
LINE
  5
41A
100
AcDbEntity
  8
RUNDUNGEN
100
AcDbLine
 62
7
  6
CONTINUOUS
 10
157.2834380896
 20
45.3271899606
 11
157.2834380896
 21
39.4362598243
  0
LINE
  5
41B
100
AcDbEntity
  8
BEZUGSACHSEN
100
AcDbLine
 62
7
  6
CONTINUOUS
 10
157.2834380896
 20
36.1282728578
 11
157.2834380896
 21
45.3271899606
  0
LINE
  5
41C
100
AcDbEntity
  8
RUNDUNGEN
100
AcDbLine
 62
7
  6
CONTINUOUS
 10
157.2834380896
 20
58.3271899606
 11
157.2834380896
 21
64.2181200969
  0
LINE
  5
41D
100
AcDbEntity
  8
BEZUGSACHSEN
100
AcDbLine
 62
7
  6
CONTINUOUS
 10
157.2834380896
 20
58.3271899606
 11
157.2834380896
 21
67.5261330494
  0
LINE
  5
41E
100
AcDbEntity
  8
BEZUGSACHSEN
100
AcDbLine
 62
7
  6
CONTINUOUS
 10
165.7834380896
 20
67.5261330494
 11
165.7834380896
 21
58.3271899606
  0
LINE
  5
41F
100
AcDbEntity
  8
RUNDUNGEN
100
AcDbLine
 62
7
  6
CONTINUOUS
 10
165.7834380896
 20
45.3271899606
 11
165.7834380896
 21
36.1282728578
  0
LINE
  5
420
100
AcDbEntity
  8
RUNDUNGEN
100
AcDbLine
 62
7
  6
CONTINUOUS
 10
165.7834380896
 20
58.3271899606
 11
165.7834380896
 21
64.2181200969
  0
LINE
  5
421
100
AcDbEntity
  8
0
100
AcDbLine
 62
7
  6
CONTINUOUS
 10
136.0334380896
 20
58.3271899606
 11
187.0334380896
 21
58.3271899606
  0
LINE
  5
422
100
AcDbEntity
  8
0
100
AcDbLine
 62
7
  6
CONTINUOUS
 10
157.2834380896
 20
58.3773782862
 11
156.7834380896
 21
58.3773782862
  0
LINE
  5
423
100
AcDbEntity
  8
0
100
AcDbLine
 62
7
  6
CONTINUOUS
 10
157.2834380896
 20
58.6085349202
 11
156.7834380896
 21
58.6085349202
  0
LINE
  5
424
100
AcDbEntity
  8
RUNDUNGEN
100
AcDbLine
 62
7
  6
CONTINUOUS
 10
139.9458842135
 20
58.8271899606
 11
138.0334380896
 21
58.8271899606
  0
LINE
  5
425
100
AcDbEntity
  8
0
100
AcDbLine
 62
7
  6
CONTINUOUS
 10
157.2834380896
 20
59.8613400817
 11
156.7834380896
 21
59.8613400817
  0
LINE
  5
426
100
AcDbEntity
  8
0
100
AcDbLine
 62
7
  6
CONTINUOUS
 10
157.2834380896
 20
59.8868320089
 11
156.7834380896
 21
59.8868320089
  0
LINE
  5
427
100
AcDbEntity
  8
0
100
AcDbLine
 62
7
  6
CONTINUOUS
 10
157.2834380896
 20
59.9733375654
 11
156.7834380896
 21
59.9733375654
  0
LINE
  5
428
100
AcDbEntity
  8
0
100
AcDbLine
 62
7
  6
CONTINUOUS
 10
157.2834380896
 20
60.1272301272
 11
156.7834380896
 21
60.1272301272
  0
LINE
  5
429
100
AcDbEntity
  8
0
100
AcDbLine
 62
7
  6
CONTINUOUS
 10
157.2834380896
 20
60.6804282886
 11
156.7834380896
 21
60.6804282886
  0
LINE
  5
42A
100
AcDbEntity
  8
0
100
AcDbLine
 62
7
  6
CONTINUOUS
 10
157.2834380896
 20
60.8953345699
 11
156.7834380896
 21
60.8953345699
  0
LINE
  5
42B
100
AcDbEntity
  8
0
100
AcDbLine
 62
7
  6
CONTINUOUS
 10
157.2834380896
 20
61.1038680312
 11
156.7834380896
 21
61.1038680312
  0
LINE
  5
42C
100
AcDbEntity
  8
0
100
AcDbLine
 62
7
  6
CONTINUOUS
 10
157.2834380896
 20
61.3734151087
 11
156.7834380896
 21
61.3734151087
  0
LINE
  5
42D
100
AcDbEntity
  8
0
100
AcDbLine
 62
7
  6
CONTINUOUS
 10
157.2834380896
 20
61.5692024383
 11
156.7834380896
 21
61.5692024383
  0
LINE
  5
42E
100
AcDbEntity
  8
0
100
AcDbLine
 62
7
  6
CONTINUOUS
 10
157.2834380896
 20
61.758617051
 11
156.7834380896
 21
61.758617051
  0
LINE
  5
42F
100
AcDbEntity
  8
0
100
AcDbLine
 62
7
  6
CONTINUOUS
 10
157.2834380896
 20
62.4907832387
 11
156.7834380896
 21
62.4907832387
  0
LINE
  5
430
100
AcDbEntity
  8
0
100
AcDbLine
 62
7
  6
CONTINUOUS
 10
157.2834380896
 20
62.9802508576
 11
156.7834380896
 21
62.9802508576
  0
LINE
  5
431
100
AcDbEntity
  8
0
100
AcDbLine
 62
7
  6
CONTINUOUS
 10
157.2834380896
 20
63.1324319907
 11
156.7834380896
 21
63.1324319907
  0
LINE
  5
432
100
AcDbEntity
  8
0
100
AcDbLine
 62
7
  6
CONTINUOUS
 10
157.2834380896
 20
63.7411565232
 11
156.7834380896
 21
63.7411565232
  0
LINE
  5
433
100
AcDbEntity
  8
0
100
AcDbLine
 62
7
  6
CONTINUOUS
 10
157.2834380896
 20
63.8933377289
 11
156.7834380896
 21
63.8933377289
  0
LINE
  5
434
100
AcDbEntity
  8
0
100
AcDbLine
 62
7
  6
CONTINUOUS
 10
157.2834380896
 20
63.95276787
 11
156.7834380896
 21
63.95276787
  0
LINE
  5
435
100
AcDbEntity
  8
0
100
AcDbLine
 62
7
  6
CONTINUOUS
 10
157.2834380896
 20
64.2001891172
 11
156.7834380896
 21
64.2001891172
  0
LINE
  5
436
100
AcDbEntity
  8
0
100
AcDbLine
 62
7
  6
CONTINUOUS
 10
157.2834380896
 20
64.4202054561
 11
156.7834380896
 21
64.4202054561
  0
LINE
  5
437
100
AcDbEntity
  8
0
100
AcDbLine
 62
7
  6
CONTINUOUS
 10
157.2834380896
 20
64.5657260979
 11
156.7834380896
 21
64.5657260979
  0
LINE
  5
438
100
AcDbEntity
  8
0
100
AcDbLine
 62
7
  6
CONTINUOUS
 10
157.2834380896
 20
65.0381890321
 11
156.7834380896
 21
65.0381890321
  0
LINE
  5
439
100
AcDbEntity
  8
RUNDUNGEN
100
AcDbLine
 62
7
  6
CONTINUOUS
 10
169.3710117083
 20
35.6993973821
 11
169.3738216613
 21
35.7026026601
  0
LINE
  5
43A
100
AcDbEntity
  8
RUNDUNGEN
100
AcDbLine
 62
7
  6
CONTINUOUS
 10
166.5265096287
 20
32.4622314262
 11
169.3686687028
 21
35.6967289868
  0
LWPOLYLINE
  5
43B
100
AcDbEntity
  8
BEZUGSACHSEN
100
AcDbPolyline
 62
7
  6
CONTINUOUS
 90
5
 70
0
 10
166.4980294006
 20
71.223717872
 10
166.019171922
 20
71.6387739547
 10
165.4889248233
 20
71.9134007509
 10
164.9168648732
 20
72.0578418159
 10
164.5781679184
 20
72.0802215677
  0
LINE
  5
43C
100
AcDbEntity
  8
BEZUGSACHSEN
100
AcDbLine
 62
7
  6
CONTINUOUS
 10
169.3686687028
 20
67.9576509344
 11
166.5265096287
 21
71.192148495
  0
LINE
  5
43D
100
AcDbEntity
  8
BEZUGSACHSEN
100
AcDbLine
 62
7
  6
CONTINUOUS
 10
169.3710117083
 20
67.954982539
 11
169.3733512959
 21
67.9523141883
  0
LINE
  5
43E
100
AcDbEntity
  8
RUNDUNGEN
100
AcDbLine
 62
7
  6
CONTINUOUS
 10
182.0334380896
 20
62.3201484054
 11
182.0334380896
 21
58.3271899606
  0
LINE
  5
43F
100
AcDbEntity
  8
RUNDUNGEN
100
AcDbLine
 62
7
  6
CONTINUOUS
 10
182.0334380896
 20
41.3342315157
 11
182.0334380896
 21
45.3271899606
  0
LINE
  5
440
100
AcDbEntity
  8
BEZUGSACHSEN
100
AcDbLine
 62
7
  6
CONTINUOUS
 10
180.8706066637
 20
39.3201484054
 11
162.6962695156
 21
28.8271899606
  0
LWPOLYLINE
  5
441
100
AcDbEntity
  8
BEZUGSACHSEN
100
AcDbPolyline
 62
7
  6
CONTINUOUS
 90
5
 70
0
 10
158.4887289093
 20
72.0802205058
 10
158.1236060227
 20
72.0541901364
 10
157.5591070406
 20
71.9061759369
 10
157.0364004798
 20
71.6311114615
 10
156.5680594181
 20
71.2228604954
  0
LINE
  5
442
100
AcDbEntity
  8
BEZUGSACHSEN
100
AcDbLine
 62
7
  6
CONTINUOUS
 10
164.5782574617
 20
72.0799996604
 11
164.5787974106
 21
72.0800133597
  0
LINE
  5
443
100
AcDbEntity
  8
BEZUGSACHSEN
100
AcDbLine
 62
7
  6
CONTINUOUS
 10
158.4880699094
 20
72.0800133597
 11
164.5788062699
 21
72.0800133597
  0
LINE
  5
444
100
AcDbEntity
  8
BEZUGSACHSEN
100
AcDbLine
 62
7
  6
CONTINUOUS
 10
158.4886402129
 20
72.0799985487
 11
158.4880787687
 21
72.0800133597
  0
LINE
  5
445
100
AcDbEntity
  8
BEZUGSACHSEN
100
AcDbLine
 62
7
  6
CONTINUOUS
 10
162.6962695156
 20
74.8271899606
 11
180.8706066637
 21
64.3342315157
  0
LINE
  5
446
100
AcDbEntity
  8
RUNDUNGEN
100
AcDbLine
 62
7
  6
CONTINUOUS
 10
182.0334380896
 20
41.3342315157
 11
180.8706066637
 21
39.3201484054
  0
LINE
  5
447
100
AcDbEntity
  8
RUNDUNGEN
100
AcDbLine
 62
7
  6
CONTINUOUS
 10
160.3706066637
 20
74.8271899606
 11
162.6962695156
 21
74.8271899606
  0
LINE
  5
448
100
AcDbEntity
  8
RUNDUNGEN
100
AcDbLine
 62
7
  6
CONTINUOUS
 10
180.8706066637
 20
64.3342315157
 11
182.0334380896
 21
62.3201484054
  0
ARC
  5
449
100
AcDbEntity
  8
RUNDUNGEN
100
AcDbCircle
 62
7
  6
CONTINUOUS
 10
140.5365106502
 20
182.2745275296
 40
1.4999999991
100
AcDbArc
 50
269.9999999997
 51
309.9999999303
  0
ARC
  5
44A
100
AcDbEntity
  8
RUNDUNGEN
100
AcDbCircle
 62
7
  6
CONTINUOUS
 10
138.0334380896
 20
179.774527535
 40
1.0
100
AcDbArc
 50
90.0
 51
180.0
  0
ARC
  5
44B
100
AcDbEntity
  8
RUNDUNGEN
100
AcDbCircle
 62
7
  6
CONTINUOUS
 10
138.0334380896
 20
167.774527535
 40
1.0
100
AcDbArc
 50
180.0
 51
270.0
  0
ARC
  5
44C
100
AcDbEntity
  8
BEZUGSACHSEN
100
AcDbCircle
 62
7
  6
CONTINUOUS
 10
146.0334380896
 20
184.774527535
 40
3.0
100
AcDbArc
 50
90.0
 51
180.0
  0
ARC
  5
44D
100
AcDbEntity
  8
BEZUGSACHSEN
100
AcDbCircle
 62
7
  6
CONTINUOUS
 10
151.2834380896
 20
203.3324894192
 40
6.0
100
AcDbArc
 50
339.9991711569
 51
0.0005990838
  0
ARC
  5
44E
100
AcDbEntity
  8
BEZUGSACHSEN
100
AcDbCircle
 62
7
  6
CONTINUOUS
 10
150.2554893366
 20
190.274527535
 40
2.5
100
AcDbArc
 50
269.9984369086
 51
340.0
  0
ARC
  5
44F
100
AcDbEntity
  8
RUNDUNGEN
100
AcDbCircle
 62
7
  6
CONTINUOUS
 10
171.7834380896
 20
203.3324894192
 40
6.0
100
AcDbArc
 50
179.9994009162
 51
200.0008288431
  0
ARC
  5
450
100
AcDbEntity
  8
BEZUGSACHSEN
100
AcDbCircle
 62
7
  6
CONTINUOUS
 10
177.0334380896
 20
184.774527535
 40
3.0
100
AcDbArc
 50
0.0
 51
90.0
  0
ARC
  5
451
100
AcDbEntity
  8
RUNDUNGEN
100
AcDbCircle
 62
7
  6
CONTINUOUS
 10
172.811525332
 20
190.274527535
 40
2.5
100
AcDbArc
 50
200.0
 51
270.0
  0
ARC
  5
452
100
AcDbEntity
  8
BEZUGSACHSEN
100
AcDbCircle
 62
7
  6
CONTINUOUS
 10
172.811525332
 20
190.274527535
 40
2.5
100
AcDbArc
 50
200.0
 51
209.196321181
  0
ARC
  5
453
100
AcDbEntity
  8
BEZUGSACHSEN
100
AcDbCircle
 62
7
  6
CONTINUOUS
 10
172.811525332
 20
190.274527535
 40
2.5
100
AcDbArc
 50
211.6689804066
 51
222.7149944818
  0
ARC
  5
454
100
AcDbEntity
  8
BEZUGSACHSEN
100
AcDbCircle
 62
7
  6
CONTINUOUS
 10
172.811525332
 20
190.274527535
 40
2.5
100
AcDbArc
 50
224.1395244657
 51
270.0
  0
ARC
  5
455
100
AcDbEntity
  8
RUNDUNGEN
100
AcDbCircle
 62
7
  6
CONTINUOUS
 10
181.5334380896
 20
180.4973898173
 40
0.5
100
AcDbArc
 50
0.0000000007
 51
19.7079104234
  0
ARC
  5
456
100
AcDbEntity
  8
0
100
AcDbCircle
 62
7
  6
CONTINUOUS
 10
161.5334380896
 20
245.274527535
 40
32.0
100
AcDbArc
 50
0.0
 51
180.0
  0
ARC
  5
457
100
AcDbEntity
  8
0
100
AcDbCircle
 62
7
  6
CONTINUOUS
 10
161.5334380896
 20
225.274527535
 40
32.0
100
AcDbArc
 50
283.0463932773
 51
360.0
  0
ARC
  5
458
100
AcDbEntity
  8
0
100
AcDbCircle
 62
7
  6
CONTINUOUS
 10
161.5334380896
 20
225.274527535
 40
32.0
100
AcDbArc
 50
180.0
 51
256.9536067227
  0
ARC
  5
459
100
AcDbEntity
  8
0
100
AcDbCircle
 62
7
  6
CONTINUOUS
 10
161.5334380896
 20
225.274527535
 40
19.0
100
AcDbArc
 50
282.92962372
 51
360.0
  0
ARC
  5
45A
100
AcDbEntity
  8
0
100
AcDbCircle
 62
7
  6
CONTINUOUS
 10
161.5334380896
 20
225.274527535
 40
19.0
100
AcDbArc
 50
180.0
 51
255.4174736563
  0
ARC
  5
45B
100
AcDbEntity
  8
0
100
AcDbCircle
 62
7
  6
CONTINUOUS
 10
161.5334380896
 20
245.274527535
 40
19.0
100
AcDbArc
 50
0.0
 51
180.0
  0
ARC
  5
45C
100
AcDbEntity
  8
RUNDUNGEN
100
AcDbCircle
 62
7
  6
CONTINUOUS
 10
159.7834380896
 20
216.0273509341
 40
2.5
100
AcDbArc
 50
90.0
 51
180.0
  0
ARC
  5
45D
100
AcDbEntity
  8
RUNDUNGEN
100
AcDbCircle
 62
7
  6
CONTINUOUS
 10
163.2834380896
 20
216.0273509341
 40
2.5
100
AcDbArc
 50
0.0
 51
90.0
  0
ARC
  5
45E
100
AcDbEntity
  8
BEZUGSACHSEN
100
AcDbCircle
 62
7
  6
CONTINUOUS
 10
246.9636863727
 20
186.9642480157
 40
3.0000002248
100
AcDbArc
 50
142.9961268775
 51
179.9999889427
  0
ARC
  5
45F
100
AcDbEntity
  8
BEZUGSACHSEN
100
AcDbCircle
 62
7
  6
CONTINUOUS
 10
245.2108628938
 20
198.274527535
 40
3.0
100
AcDbArc
 50
157.5
 51
202.5
  0
ARC
  5
460
100
AcDbEntity
  8
BEZUGSACHSEN
100
AcDbCircle
 62
7
  6
CONTINUOUS
 10
250.2640978728
 20
210.4741159551
 40
3.0
100
AcDbArc
 50
112.5
 51
157.5
  0
ARC
  5
461
100
AcDbEntity
  8
RUNDUNGEN
100
AcDbCircle
 62
7
  6
CONTINUOUS
 10
257.7136862929
 20
154.774527535
 40
3.0
100
AcDbArc
 50
179.9999999733
 51
270.0000000227
  0
ARC
  5
462
100
AcDbEntity
  8
RUNDUNGEN
100
AcDbCircle
 62
7
  6
CONTINUOUS
 10
257.7136862929
 20
163.774527535
 40
3.0
100
AcDbArc
 50
89.9999999733
 51
180.0000000227
  0
ARC
  5
463
100
AcDbEntity
  8
BEZUGSACHSEN
100
AcDbCircle
 62
7
  6
CONTINUOUS
 10
242.5714145665
 20
190.274527535
 40
2.4999998728
100
AcDbArc
 50
322.9961347905
 51
22.5000024147
  0
ARC
  5
464
100
AcDbEntity
  8
RUNDUNGEN
100
AcDbCircle
 62
7
  6
CONTINUOUS
 10
256.4636862929
 20
167.774527535
 40
1.0
100
AcDbArc
 50
180.0
 51
270.0
  0
ARC
  5
465
100
AcDbEntity
  8
RUNDUNGEN
100
AcDbCircle
 62
7
  6
CONTINUOUS
 10
262.4636862929
 20
173.774527535
 40
7.0
100
AcDbArc
 50
0.0
 51
180.0
  0
ARC
  5
466
100
AcDbEntity
  8
RUNDUNGEN
100
AcDbCircle
 62
7
  6
CONTINUOUS
 10
267.2136862929
 20
154.774527535
 40
3.0
100
AcDbArc
 50
269.9999999733
 51
360.0
  0
ARC
  5
467
100
AcDbEntity
  8
RUNDUNGEN
100
AcDbCircle
 62
7
  6
CONTINUOUS
 10
267.2136862929
 20
163.774527535
 40
3.0
100
AcDbArc
 50
0.0
 51
90.0000000227
  0
ARC
  5
468
100
AcDbEntity
  8
RUNDUNGEN
100
AcDbCircle
 62
7
  6
CONTINUOUS
 10
268.4636862929
 20
167.774527535
 40
1.0
100
AcDbArc
 50
270.0
 51
360.0
  0
ARC
  5
469
100
AcDbEntity
  8
RUNDUNGEN
100
AcDbCircle
 62
7
  6
CONTINUOUS
 10
262.4636862929
 20
198.274527535
 40
8.0
100
AcDbArc
 50
11.8199694279
 51
28.7971873513
  0
ARC
  5
46A
100
AcDbEntity
  8
BEZUGSACHSEN
100
AcDbCircle
 62
7
  6
CONTINUOUS
 10
262.4636862929
 20
198.274527535
 40
8.0
100
AcDbArc
 50
144.4673860425
 51
35.5326139575
  0
ARC
  5
46B
100
AcDbEntity
  8
0
100
AcDbCircle
 62
7
  6
CONTINUOUS
 10
262.4636862929
 20
199.774527535
 40
6.5
100
AcDbArc
 50
180.0
 51
360.0
  0
ARC
  5
46C
100
AcDbEntity
  8
BEZUGSACHSEN
100
AcDbCircle
 62
7
  6
CONTINUOUS
 10
277.9636862131
 20
186.9642480157
 40
3.0000002248
100
AcDbArc
 50
0.0000110573
 51
37.0038731225
  0
ARC
  5
46D
100
AcDbEntity
  8
BEZUGSACHSEN
100
AcDbCircle
 62
7
  6
CONTINUOUS
 10
274.6632747131
 20
210.4741159551
 40
3.0
100
AcDbArc
 50
22.5
 51
67.5
  0
ARC
  5
46E
100
AcDbEntity
  8
BEZUGSACHSEN
100
AcDbCircle
 62
7
  6
CONTINUOUS
 10
279.716509692
 20
198.274527535
 40
3.0
100
AcDbArc
 50
337.5
 51
22.5
  0
ARC
  5
46F
100
AcDbEntity
  8
RUNDUNGEN
100
AcDbCircle
 62
7
  6
CONTINUOUS
 10
282.3559580193
 20
190.274527535
 40
2.4999998728
100
AcDbArc
 50
157.4999975853
 51
195.0098702031
  0
ARC
  5
470
100
AcDbEntity
  8
BEZUGSACHSEN
100
AcDbCircle
 62
7
  6
CONTINUOUS
 10
282.3559580193
 20
190.274527535
 40
2.4999998728
100
AcDbArc
 50
157.4999975853
 51
217.0038652095
  0
ARC
  5
471
100
AcDbEntity
  8
0
100
AcDbCircle
 62
7
  6
CONTINUOUS
 10
262.4636862929
 20
270.774527535
 40
6.5
100
AcDbArc
 50
0.0
 51
180.0
  0
ARC
  5
472
100
AcDbEntity
  8
BEZUGSACHSEN
100
AcDbCircle
 62
7
  6
CONTINUOUS
 10
155.9087011362
 20
38.1033747739
 40
3.6682075968
100
AcDbArc
 50
232.7513552561
 51
247.6472974299
  0
ARC
  5
473
100
AcDbEntity
  8
RUNDUNGEN
100
AcDbCircle
 62
7
  6
CONTINUOUS
 10
139.5334380896
 20
43.3271899606
 40
1.5
100
AcDbArc
 50
0.0
 51
90.0
  0
ARC
  5
474
100
AcDbEntity
  8
RUNDUNGEN
100
AcDbCircle
 62
7
  6
CONTINUOUS
 10
138.0334380896
 20
45.8271899606
 40
1.0
100
AcDbArc
 50
210.0000000419
 51
270.0
  0
ARC
  5
475
100
AcDbEntity
  8
0
100
AcDbCircle
 62
7
  6
CONTINUOUS
 10
136.0334380896
 20
51.8271899606
 40
6.5
100
AcDbArc
 50
90.0
 51
270.0
  0
ARC
  5
476
100
AcDbEntity
  8
BEZUGSACHSEN
100
AcDbCircle
 62
7
  6
CONTINUOUS
 10
155.9087011362
 20
65.5510051472
 40
3.6682075968
100
AcDbArc
 50
112.3527025701
 51
127.2486447439
  0
ARC
  5
477
100
AcDbEntity
  8
RUNDUNGEN
100
AcDbCircle
 62
7
  6
CONTINUOUS
 10
139.5334380896
 20
60.3271899606
 40
1.5
100
AcDbArc
 50
270.0
 51
360.0
  0
ARC
  5
478
100
AcDbEntity
  8
RUNDUNGEN
100
AcDbCircle
 62
7
  6
CONTINUOUS
 10
138.0334380896
 20
57.8271899606
 40
1.0
100
AcDbArc
 50
90.0
 51
150.0000000004
  0
ARC
  5
479
100
AcDbEntity
  8
RUNDUNGEN
100
AcDbCircle
 62
7
  6
CONTINUOUS
 10
167.1581750431
 20
38.1033747739
 40
3.6682075968
100
AcDbArc
 50
292.3527025701
 51
307.2486447439
  0
ARC
  5
47A
100
AcDbEntity
  8
RUNDUNGEN
100
AcDbCircle
 62
7
  6
CONTINUOUS
 10
161.5334380896
 20
51.8271899606
 40
20.4419193782
100
AcDbArc
 50
262.4397201378
 51
270.0
  0
ARC
  5
47B
100
AcDbEntity
  8
RUNDUNGEN
100
AcDbCircle
 62
7
  6
CONTINUOUS
 10
161.5334380896
 20
51.8271899606
 40
20.4419193782
100
AcDbArc
 50
198.5536283055
 51
258.4366164367
  0
ARC
  5
47C
100
AcDbEntity
  8
FASEN
100
AcDbCircle
 62
7
  6
CONTINUOUS
 10
161.5334380896
 20
51.8271899606
 40
20.4419193782
100
AcDbArc
 50
82.5595408805
 51
90.0
  0
ARC
  5
47D
100
AcDbEntity
  8
FASEN
100
AcDbCircle
 62
7
  6
CONTINUOUS
 10
161.5334380896
 20
51.8271899606
 40
20.4419193782
100
AcDbArc
 50
18.5452047946
 51
78.3971257858
  0
ARC
  5
47E
100
AcDbEntity
  8
FASEN
100
AcDbCircle
 62
7
  6
CONTINUOUS
 10
161.5334380896
 20
51.8271899606
 40
20.4419193782
100
AcDbArc
 50
281.6157710047
 51
341.4547951711
  0
ARC
  5
47F
100
AcDbEntity
  8
FASEN
100
AcDbCircle
 62
7
  6
CONTINUOUS
 10
161.5334380896
 20
51.8271899606
 40
20.4419193782
100
AcDbArc
 50
270.0
 51
277.4404592534
  0
ARC
  5
480
100
AcDbEntity
  8
RUNDUNGEN
100
AcDbCircle
 62
7
  6
CONTINUOUS
 10
161.5334380896
 20
51.8271899606
 40
20.4419193782
100
AcDbArc
 50
101.5764835701
 51
161.4463714486
  0
ARC
  5
481
100
AcDbEntity
  8
RUNDUNGEN
100
AcDbCircle
 62
7
  6
CONTINUOUS
 10
161.5334380896
 20
51.8271899606
 40
20.4419193782
100
AcDbArc
 50
90.0
 51
97.5602801317
  0
ARC
  5
482
100
AcDbEntity
  8
FASEN
100
AcDbCircle
 62
7
  6
CONTINUOUS
 10
161.5334380896
 20
51.8271899606
 40
19.8550952894
100
AcDbArc
 50
199.1124857045
 51
254.8802444223
  0
ARC
  5
483
100
AcDbEntity
  8
FASEN
100
AcDbCircle
 62
7
  6
CONTINUOUS
 10
161.5334380896
 20
51.8271899606
 40
19.8550952894
100
AcDbArc
 50
105.1197555914
 51
160.8875143595
  0
ARC
  5
484
100
AcDbEntity
  8
FASEN
100
AcDbCircle
 62
7
  6
CONTINUOUS
 10
161.5334380896
 20
51.8271899606
 40
19.8550952894
100
AcDbArc
 50
19.1124857045
 51
74.8802444223
  0
ARC
  5
485
100
AcDbEntity
  8
FASEN
100
AcDbCircle
 62
7
  6
CONTINUOUS
 10
161.5334380896
 20
51.8271899606
 40
19.8550952894
100
AcDbArc
 50
285.1197555914
 51
340.8875143595
  0
ARC
  5
486
100
AcDbEntity
  8
BEZUGSACHSEN
100
AcDbCircle
 62
7
  6
CONTINUOUS
 10
161.5334380896
 20
51.8271899606
 40
19.0
100
AcDbArc
 50
200.036935843
 51
250.69934242
  0
ARC
  5
487
100
AcDbEntity
  8
BEZUGSACHSEN
100
AcDbCircle
 62
7
  6
CONTINUOUS
 10
161.5334380896
 20
51.8271899606
 40
19.0
100
AcDbArc
 50
109.30065758
 51
159.963064157
  0
ARC
  5
488
100
AcDbEntity
  8
BEZUGSACHSEN
100
AcDbCircle
 62
7
  6
CONTINUOUS
 10
161.5334380896
 20
51.8271899606
 40
19.0
100
AcDbArc
 50
20.036935843
 51
70.69934242
  0
ARC
  5
489
100
AcDbEntity
  8
BEZUGSACHSEN
100
AcDbCircle
 62
7
  6
CONTINUOUS
 10
161.5334380896
 20
51.8271899606
 40
19.0
100
AcDbArc
 50
289.30065758
 51
339.963064157
  0
ARC
  5
48A
100
AcDbEntity
  8
RUNDUNGEN
100
AcDbCircle
 62
7
  6
CONTINUOUS
 10
161.5334380896
 20
51.8271899606
 40
18.5
100
AcDbArc
 50
292.0345453272
 51
316.6871169406
  0
ARC
  5
48B
100
AcDbEntity
  8
BEZUGSACHSEN
100
AcDbCircle
 62
7
  6
CONTINUOUS
 10
161.5334380896
 20
51.8271899606
 40
18.5
100
AcDbArc
 50
20.6299673812
 51
67.9654546728
  0
ARC
  5
48C
100
AcDbEntity
  8
BEZUGSACHSEN
100
AcDbCircle
 62
7
  6
CONTINUOUS
 10
161.5334380896
 20
51.8271899606
 40
18.5
100
AcDbArc
 50
316.6871169406
 51
339.3700326188
  0
ARC
  5
48D
100
AcDbEntity
  8
BEZUGSACHSEN
100
AcDbCircle
 62
7
  6
CONTINUOUS
 10
161.5334380896
 20
51.8271899606
 40
18.5
100
AcDbArc
 50
112.0345453272
 51
159.4102069517
  0
ARC
  5
48E
100
AcDbEntity
  8
BEZUGSACHSEN
100
AcDbCircle
 62
7
  6
CONTINUOUS
 10
161.5334380896
 20
51.8271899606
 40
18.5
100
AcDbArc
 50
200.5897930483
 51
247.9654546728
  0
ARC
  5
48F
100
AcDbEntity
  8
BEZUGSACHSEN
100
AcDbCircle
 62
7
  6
CONTINUOUS
 10
167.1581750431
 20
65.5510051472
 40
3.6682075967
100
AcDbArc
 50
52.7513552561
 51
67.6472974299
  0
ARC
  5
490
100
AcDbEntity
  8
0
100
AcDbCircle
 62
7
  6
CONTINUOUS
 10
187.0334380896
 20
51.8271899606
 40
6.5
100
AcDbArc
 50
270.0
 51
90.0
  0
SPLINE
  5
491
100
AcDbEntity
  8
RUNDUNGEN
100
AcDbSpline
 62
7
  6
CONTINUOUS
 70
0
 71
3
 72
14
 73
10
 74
0
 42
0.0000001
 43
0.0000001
 44
0.0000000001
 40
0.0
 40
0.0
 40
0.0
 40
0.0
 40
0.3863705674
 40
0.5514789694
 40
0.6933783774
 40
0.8097718223
 40
0.899338957
 40
0.9617884543
 40
1.0
 40
1.0
 40
1.0
 40
1.0
 10
168.5532202077
 20
189.2117946762
 30
0.0
 10
168.8505556976
 20
189.110561862
 30
0.0
 10
169.28437852
 20
188.9931111712
 30
0.0
 10
169.8360845314
 20
188.8779577891
 30
0.0
 10
170.1750367306
 20
188.8170494817
 30
0.0
 10
170.453745873
 20
188.7714747643
 30
0.0
 10
170.669690043
 20
188.7340859333
 30
0.0
 10
170.8186338721
 20
188.700428576
 30
0.0
 10
170.8976399559
 20
188.665796633
 30
0.0
 10
170.917923333
 20
188.6422692256
 30
0.0
  0
SPLINE
  5
492
100
AcDbEntity
  8
RUNDUNGEN
100
AcDbSpline
 62
7
  6
CONTINUOUS
 70
0
 71
3
 72
8
 73
4
 74
0
 42
0.0000001
 43
0.0000001
 44
0.0000000001
 40
0.0
 40
0.0
 40
0.0
 40
0.0
 40
1.0
 40
1.0
 40
1.0
 40
1.0
 10
168.5535217451
 20
189.2118209688
 30
0.0
 10
168.4203780717
 20
189.2572042388
 30
0.0
 10
168.2835178372
 20
189.2942948905
 30
0.0
 10
168.1444606878
 20
189.3155078145
 30
0.0
  0
SPLINE
  5
493
100
AcDbEntity
  8
RUNDUNGEN
100
AcDbSpline
 62
7
  6
CONTINUOUS
 70
0
 71
3
 72
9
 73
5
 74
0
 42
0.0000001
 43
0.0000001
 44
0.0000000001
 40
0.0
 40
0.0
 40
0.0
 40
0.0
 40
0.2542854766
 40
1.0
 40
1.0
 40
1.0
 40
1.0
 10
166.7942095778
 20
189.6270688181
 30
0.0
 10
166.9064669581
 20
189.592306604
 30
0.0
 10
167.3505138386
 20
189.464143346
 30
0.0
 10
167.8037710712
 20
189.3674795432
 30
0.0
 10
168.1444573375
 20
189.3155085003
 30
0.0
  0
SPLINE
  5
494
100
AcDbEntity
  8
BEZUGSACHSEN
100
AcDbSpline
 62
7
  6
CONTINUOUS
 70
0
 71
3
 72
9
 73
5
 74
0
 42
0.0000001
 43
0.0000001
 44
0.0000000001
 40
0.0
 40
0.0
 40
0.0
 40
0.0
 40
0.2542854766
 40
1.0
 40
1.0
 40
1.0
 40
1.0
 10
156.2726666015
 20
189.6270688181
 30
0.0
 10
156.1604092212
 20
189.592306604
 30
0.0
 10
155.7163623407
 20
189.464143346
 30
0.0
 10
155.263105108
 20
189.3674795432
 30
0.0
 10
154.9224188418
 20
189.3155085003
 30
0.0
  0
SPLINE
  5
495
100
AcDbEntity
  8
BEZUGSACHSEN
100
AcDbSpline
 62
7
  6
CONTINUOUS
 70
0
 71
3
 72
8
 73
4
 74
0
 42
0.0000001
 43
0.0000001
 44
0.0000000001
 40
0.0
 40
0.0
 40
0.0
 40
0.0
 40
1.0
 40
1.0
 40
1.0
 40
1.0
 10
154.5133544342
 20
189.2118209688
 30
0.0
 10
154.6464981076
 20
189.2572042388
 30
0.0
 10
154.7833583421
 20
189.2942948905
 30
0.0
 10
154.9224154915
 20
189.3155078145
 30
0.0
  0
SPLINE
  5
496
100
AcDbEntity
  8
BEZUGSACHSEN
100
AcDbSpline
 62
7
  6
CONTINUOUS
 70
0
 71
3
 72
14
 73
10
 74
0
 42
0.0000001
 43
0.0000001
 44
0.0000000001
 40
0.0
 40
0.0
 40
0.0
 40
0.0
 40
0.3863705674
 40
0.5514789694
 40
0.6933783774
 40
0.8097718223
 40
0.899338957
 40
0.9617884543
 40
1.0
 40
1.0
 40
1.0
 40
1.0
 10
154.5136559716
 20
189.2117946762
 30
0.0
 10
154.2163204817
 20
189.110561862
 30
0.0
 10
153.7824976592
 20
188.9931111712
 30
0.0
 10
153.2307916479
 20
188.8779577891
 30
0.0
 10
152.8918394487
 20
188.8170494817
 30
0.0
 10
152.6131303062
 20
188.7714747643
 30
0.0
 10
152.3971861362
 20
188.7340859333
 30
0.0
 10
152.2482423072
 20
188.700428576
 30
0.0
 10
152.1692362234
 20
188.665796633
 30
0.0
 10
152.1489528463
 20
188.6422692256
 30
0.0
  0
SPLINE
  5
497
100
AcDbEntity
  8
BEZUGSACHSEN
100
AcDbSpline
 62
7
  6
CONTINUOUS
 70
0
 71
3
 72
11
 73
7
 74
0
 42
0.0000001
 43
0.0000001
 44
0.0000000001
 40
0.0
 40
0.0
 40
0.0
 40
0.0
 40
0.2568256725
 40
0.5000001068
 40
0.7431744349
 40
1.0
 40
1.0
 40
1.0
 40
1.0
 10
142.1962695156
 20
166.1079257469
 30
0.0
 10
142.1056276965
 20
166.1598385428
 30
0.0
 10
141.9178836805
 20
166.2436749018
 30
0.0
 10
141.6148537096
 20
166.289463768
 30
0.0
 10
141.3118237559
 20
166.2436749595
 30
0.0
 10
141.1240798708
 20
166.1598385211
 30
0.0
 10
141.0334380896
 20
166.1079257469
 30
0.0
  0
SPLINE
  5
498
100
AcDbEntity
  8
BEZUGSACHSEN
100
AcDbSpline
 62
7
  6
CONTINUOUS
 70
0
 71
3
 72
33
 73
29
 74
0
 42
0.0000001
 43
0.0000001
 44
0.0000000001
 40
0.0
 40
0.0
 40
0.0
 40
0.0
 40
0.0643784504
 40
0.1285977359
 40
0.1925959665
 40
0.2562702962
 40
0.2879376883
 40
0.3194439673
 40
0.3507344432
 40
0.3817298814
 40
0.4123056713
 40
0.4422792017
 40
0.471450027
 40
0.4857799287
 40
0.4999999574
 40
0.5142200103
 40
0.5285498374
 40
0.5577206575
 40
0.5876942593
 40
0.6182700715
 40
0.6492655374
 40
0.6805560188
 40
0.7120622962
 40
0.7437296951
 40
0.8074040277
 40
0.8714022608
 40
0.9356215481
 40
1.0
 40
1.0
 40
1.0
 40
1.0
 10
180.8706066637
 20
166.1079257469
 30
0.0
 10
180.6294891256
 20
166.8273667286
 30
0.0
 10
180.1342681875
 20
168.2599782575
 30
0.0
 10
179.3417133141
 20
170.3873779235
 30
0.0
 10
178.4866309417
 20
172.4816055837
 30
0.0
 10
177.7037793738
 20
174.1896952773
 30
0.0
 10
177.018558943
 20
175.5187794723
 30
0.0
 10
176.4700656848
 20
176.4880677667
 30
0.0
 10
175.8780011803
 20
177.4222970626
 30
0.0
 10
175.2317119154
 20
178.3068549082
 30
0.0
 10
174.5161348888
 20
179.1174006788
 30
0.0
 10
173.7136371948
 20
179.81216943
 30
0.0
 10
172.9465859354
 20
180.2376342261
 30
0.0
 10
172.288183657
 20
180.4207697668
 30
0.0
 10
171.7834393579
 20
180.4686510368
 30
0.0
 10
171.2786952494
 20
180.4207726722
 30
0.0
 10
170.6202950367
 20
180.2376323561
 30
0.0
 10
169.8532416432
 20
179.8121730875
 30
0.0
 10
169.0507427943
 20
179.1174031575
 30
0.0
 10
168.3351646227
 20
178.3068566896
 30
0.0
 10
167.6888757293
 20
177.4222976824
 30
0.0
 10
167.0968110456
 20
176.4880681106
 30
0.0
 10
166.5483171103
 20
175.518780039
 30
0.0
 10
165.863097163
 20
174.1896954839
 30
0.0
 10
165.080245148
 20
172.4816058551
 30
0.0
 10
164.2251629052
 20
170.3873780377
 30
0.0
 10
163.4326079778
 20
168.2599783229
 30
0.0
 10
162.9373870591
 20
166.8273667448
 30
0.0
 10
162.6962695156
 20
166.1079257469
 30
0.0
  0
SPLINE
  5
499
100
AcDbEntity
  8
RUNDUNGEN
100
AcDbSpline
 62
7
  6
CONTINUOUS
 70
0
 71
3
 72
9
 73
5
 74
0
 42
0.0000001
 43
0.0000001
 44
0.0000000001
 40
0.0
 40
0.0
 40
0.0
 40
0.0
 40
0.500000002
 40
1.0
 40
1.0
 40
1.0
 40
1.0
 10
162.6962695156
 20
166.1079257469
 30
0.0
 10
162.3198336685
 20
166.2157227742
 30
0.0
 10
161.533438088
 20
166.3332375831
 30
0.0
 10
160.7470425078
 20
166.2157227734
 30
0.0
 10
160.3706066637
 20
166.1079257469
 30
0.0
  0
SPLINE
  5
49A
100
AcDbEntity
  8
RUNDUNGEN
100
AcDbSpline
 62
7
  6
CONTINUOUS
 70
0
 71
3
 72
11
 73
7
 74
0
 42
0.0000001
 43
0.0000001
 44
0.0000000001
 40
0.0
 40
0.0
 40
0.0
 40
0.0
 40
0.3105712474
 40
0.5835936789
 40
0.8046879899
 40
1.0
 40
1.0
 40
1.0
 40
1.0
 10
181.9093964191
 20
166.253469076
 30
0.0
 10
181.9057423912
 20
166.2447139109
 30
0.0
 10
181.8981290749
 20
166.22850957
 30
0.0
 10
181.8843345431
 20
166.208117258
 30
0.0
 10
181.8668235237
 20
166.1946033846
 30
0.0
 10
181.8529097788
 20
166.1953115408
 30
0.0
 10
181.8473507148
 20
166.1974778306
 30
0.0
  0
SPLINE
  5
49B
100
AcDbEntity
  8
BEZUGSACHSEN
100
AcDbSpline
 62
7
  6
CONTINUOUS
 70
0
 71
3
 72
33
 73
29
 74
0
 42
0.0000001
 43
0.0000001
 44
0.0000000001
 40
0.0
 40
0.0
 40
0.0
 40
0.0
 40
0.0643784504
 40
0.1285977359
 40
0.1925959665
 40
0.2562702962
 40
0.2879376883
 40
0.3194439673
 40
0.3507344432
 40
0.3817298814
 40
0.4123056713
 40
0.4422792017
 40
0.471450027
 40
0.4857799287
 40
0.4999999574
 40
0.5142200103
 40
0.5285498374
 40
0.5577206575
 40
0.5876942593
 40
0.6182700715
 40
0.6492655374
 40
0.6805560188
 40
0.7120622962
 40
0.7437296951
 40
0.8074040277
 40
0.8714022608
 40
0.9356215481
 40
1.0
 40
1.0
 40
1.0
 40
1.0
 10
160.3706066637
 20
166.1079257469
 30
0.0
 10
160.1294891256
 20
166.8273667286
 30
0.0
 10
159.6342681875
 20
168.2599782575
 30
0.0
 10
158.8417133141
 20
170.3873779235
 30
0.0
 10
157.9866309417
 20
172.4816055837
 30
0.0
 10
157.2037793738
 20
174.1896952773
 30
0.0
 10
156.518558943
 20
175.5187794723
 30
0.0
 10
155.9700656848
 20
176.4880677667
 30
0.0
 10
155.3780011803
 20
177.4222970626
 30
0.0
 10
154.7317119154
 20
178.3068549082
 30
0.0
 10
154.0161348888
 20
179.1174006788
 30
0.0
 10
153.2136371948
 20
179.81216943
 30
0.0
 10
152.4465859354
 20
180.2376342261
 30
0.0
 10
151.788183657
 20
180.4207697668
 30
0.0
 10
151.2834393579
 20
180.4686510368
 30
0.0
 10
150.7786952494
 20
180.4207726722
 30
0.0
 10
150.1202950367
 20
180.2376323561
 30
0.0
 10
149.3532416432
 20
179.8121730875
 30
0.0
 10
148.5507427943
 20
179.1174031575
 30
0.0
 10
147.8351646227
 20
178.3068566896
 30
0.0
 10
147.1888757293
 20
177.4222976824
 30
0.0
 10
146.5968110456
 20
176.4880681106
 30
0.0
 10
146.0483171103
 20
175.518780039
 30
0.0
 10
145.363097163
 20
174.1896954839
 30
0.0
 10
144.580245148
 20
172.4816058551
 30
0.0
 10
143.7251629052
 20
170.3873780377
 30
0.0
 10
142.9326079778
 20
168.2599783229
 30
0.0
 10
142.4373870591
 20
166.8273667448
 30
0.0
 10
142.1962695156
 20
166.1079257469
 30
0.0
  0
SPLINE
  5
49C
100
AcDbEntity
  8
RUNDUNGEN
100
AcDbSpline
 62
7
  6
CONTINUOUS
 70
0
 71
3
 72
14
 73
10
 74
0
 42
0.0000001
 43
0.0000001
 44
0.0000000001
 40
0.0
 40
0.0
 40
0.0
 40
0.0
 40
0.0657302042
 40
0.1108065476
 40
0.1629844122
 40
0.2822352334
 40
0.4143891833
 40
0.6996152001
 40
1.0
 40
1.0
 40
1.0
 40
1.0
 10
140.9355854444
 20
171.4638806937
 30
0.0
 10
140.9493980023
 20
171.4625864735
 30
0.0
 10
140.9687666596
 20
171.4430496925
 30
0.0
 10
140.9828147925
 20
171.4124584998
 30
0.0
 10
140.9973597769
 20
171.3687609126
 30
0.0
 10
141.0096681423
 20
171.3058594976
 30
0.0
 10
141.0235624784
 20
171.1933680266
 30
0.0
 10
141.0317764218
 20
171.04198778
 30
0.0
 10
141.0334380896
 20
170.9183886258
 30
0.0
 10
141.0334380896
 20
170.8549892181
 30
0.0
  0
LINE
  5
49D
100
AcDbEntity
  8
RUNDUNGEN
100
AcDbLine
 62
7
  6
CONTINUOUS
 10
139.5334380896
 20
171.5952509088
 11
140.9355854444
 21
171.4638806937
  0
SPLINE
  5
49E
100
AcDbEntity
  8
RUNDUNGEN
100
AcDbSpline
 62
7
  6
CONTINUOUS
 70
0
 71
3
 72
22
 73
18
 74
0
 42
0.0000001
 43
0.0000001
 44
0.0000000001
 40
0.0
 40
0.0
 40
0.0
 40
0.0
 40
0.1383528015
 40
0.2765827763
 40
0.4144834778
 40
0.4831897817
 40
0.5516029014
 40
0.6195257193
 40
0.686541348
 40
0.751620055
 40
0.7825976126
 40
0.8114144967
 40
0.8360790768
 40
0.8546854305
 40
0.8931607395
 40
0.9439788615
 40
1.0
 40
1.0
 40
1.0
 40
1.0
 10
182.0334380896
 20
165.7774765174
 30
0.0
 10
182.0334382323
 20
165.8080081243
 30
0.0
 10
182.0329779632
 20
165.8690456571
 30
0.0
 10
182.0307139467
 20
165.9604901061
 30
0.0
 10
182.0272320814
 20
166.0365178122
 30
0.0
 10
182.0231277546
 20
166.0970725328
 30
0.0
 10
182.0192403814
 20
166.1421573474
 30
0.0
 10
182.0142979289
 20
166.1867649066
 30
0.0
 10
182.0079472715
 20
166.2304604752
 30
0.0
 10
182.0007503036
 20
166.2657453909
 30
0.0
 10
181.9931373566
 20
166.2922863605
 30
0.0
 10
181.9859481447
 20
166.3094757203
 30
0.0
 10
181.9779673135
 20
166.3234767258
 30
0.0
 10
181.9602518415
 20
166.3328482499
 30
0.0
 10
181.9387554427
 20
166.3134743429
 30
0.0
 10
181.9242723483
 20
166.2866662253
 30
0.0
 10
181.9141579233
 20
166.2648780481
 30
0.0
 10
181.9093964191
 20
166.253469076
 30
0.0
  0
SPLINE
  5
49F
100
AcDbEntity
  8
RUNDUNGEN
100
AcDbSpline
 62
7
  6
CONTINUOUS
 70
0
 71
3
 72
11
 73
7
 74
0
 42
0.0000001
 43
0.0000001
 44
0.0000000001
 40
0.0
 40
0.0
 40
0.0
 40
0.0
 40
0.2494124729
 40
0.4925218695
 40
0.7397075853
 40
1.0
 40
1.0
 40
1.0
 40
1.0
 10
181.8473507148
 20
166.1974778306
 30
0.0
 10
181.7687392766
 20
166.2281116109
 30
0.0
 10
181.6065693962
 20
166.2730000018
 30
0.0
 10
181.3539327251
 20
166.2800883952
 30
0.0
 10
181.1038009336
 20
166.2246505533
 30
0.0
 10
180.9470125468
 20
166.1516852726
 30
0.0
 10
180.8706066637
 20
166.1079257469
 30
0.0
  0
SPLINE
  5
4A0
100
AcDbEntity
  8
BEZUGSACHSEN
100
AcDbSpline
 62
7
  6
CONTINUOUS
 70
0
 71
3
 72
10
 73
6
 74
0
 42
0.0000001
 43
0.0000001
 44
0.0000000001
 40
0.0
 40
0.0
 40
0.0
 40
0.0
 40
0.2414135104
 40
0.4642040397
 40
1.0
 40
1.0
 40
1.0
 40
1.0
 10
244.9861187179
 20
189.6270688181
 30
0.0
 10
244.9776375284
 20
189.5954395454
 30
0.0
 10
244.9701469013
 20
189.5308409376
 30
0.0
 10
245.0191180105
 20
189.398960356
 30
0.0
 10
245.1177378759
 20
189.3424246491
 30
0.0
 10
245.1852482291
 20
189.3155085003
 30
0.0
  0
SPLINE
  5
4A1
100
AcDbEntity
  8
BEZUGSACHSEN
100
AcDbSpline
 62
7
  6
CONTINUOUS
 70
0
 71
3
 72
9
 73
5
 74
0
 42
0.0000001
 43
0.0000001
 44
0.0000000001
 40
0.0
 40
0.0
 40
0.0
 40
0.0
 40
0.2700563805
 40
1.0
 40
1.0
 40
1.0
 40
1.0
 10
245.347365851
 20
189.2118209688
 30
0.0
 10
245.3340185174
 20
189.2229136846
 30
0.0
 10
245.2837318301
 20
189.2627588366
 30
0.0
 10
245.2288234947
 20
189.298134966
 30
0.0
 10
245.1852494363
 20
189.3155078145
 30
0.0
  0
SPLINE
  5
4A2
100
AcDbEntity
  8
BEZUGSACHSEN
100
AcDbSpline
 62
7
  6
CONTINUOUS
 70
0
 71
3
 72
12
 73
8
 74
0
 42
0.0000001
 43
0.0000001
 44
0.0000000001
 40
0.0
 40
0.0
 40
0.0
 40
0.0
 40
0.0800984544
 40
0.1742413651
 40
0.407496884
 40
0.6897439815
 40
1.0
 40
1.0
 40
1.0
 40
1.0
 10
245.3472915624
 20
189.2117946762
 30
0.0
 10
245.417660327
 20
189.153410488
 30
0.0
 10
245.5921540014
 20
189.0524927397
 30
0.0
 10
246.0335953826
 20
188.9019432855
 30
0.0
 10
246.725269318
 20
188.7970780802
 30
0.0
 10
247.6642183179
 20
188.7244850126
 30
0.0
 10
248.3394060422
 20
188.6784577438
 30
0.0
 10
248.691722203
 20
188.6422692256
 30
0.0
  0
SPLINE
  5
4A3
100
AcDbEntity
  8
BEZUGSACHSEN
100
AcDbSpline
 62
7
  6
CONTINUOUS
 70
0
 71
3
 72
12
 73
8
 74
0
 42
0.0000001
 43
0.0000001
 44
0.0000000001
 40
0.0
 40
0.0
 40
0.0
 40
0.0
 40
0.0800984544
 40
0.1742413651
 40
0.407496884
 40
0.6897439815
 40
1.0
 40
1.0
 40
1.0
 40
1.0
 10
279.5800810234
 20
189.2117946762
 30
0.0
 10
279.5097122589
 20
189.153410488
 30
0.0
 10
279.3352185844
 20
189.0524927397
 30
0.0
 10
278.8937772033
 20
188.9019432855
 30
0.0
 10
278.2021032679
 20
188.7970780802
 30
0.0
 10
277.2631542679
 20
188.7244850126
 30
0.0
 10
276.5879665436
 20
188.6784577438
 30
0.0
 10
276.2356503829
 20
188.6422692256
 30
0.0
  0
SPLINE
  5
4A4
100
AcDbEntity
  8
BEZUGSACHSEN
100
AcDbSpline
 62
7
  6
CONTINUOUS
 70
0
 71
3
 72
9
 73
5
 74
0
 42
0.0000001
 43
0.0000001
 44
0.0000000001
 40
0.0
 40
0.0
 40
0.0
 40
0.0
 40
0.2700563805
 40
1.0
 40
1.0
 40
1.0
 40
1.0
 10
279.5800067348
 20
189.2118209688
 30
0.0
 10
279.5933540684
 20
189.2229136846
 30
0.0
 10
279.6436407557
 20
189.2627588366
 30
0.0
 10
279.6985490911
 20
189.298134966
 30
0.0
 10
279.7421231495
 20
189.3155078145
 30
0.0
  0
SPLINE
  5
4A5
100
AcDbEntity
  8
BEZUGSACHSEN
100
AcDbSpline
 62
7
  6
CONTINUOUS
 70
0
 71
3
 72
10
 73
6
 74
0
 42
0.0000001
 43
0.0000001
 44
0.0000000001
 40
0.0
 40
0.0
 40
0.0
 40
0.0
 40
0.2414135104
 40
0.4642040397
 40
1.0
 40
1.0
 40
1.0
 40
1.0
 10
279.9412538679
 20
189.6270688181
 30
0.0
 10
279.9497350574
 20
189.5954395454
 30
0.0
 10
279.9572256846
 20
189.5308409376
 30
0.0
 10
279.9082545753
 20
189.398960356
 30
0.0
 10
279.80963471
 20
189.3424246491
 30
0.0
 10
279.7421243567
 20
189.3155085003
 30
0.0
  0
SPLINE
  5
4A6
100
AcDbEntity
  8
RUNDUNGEN
100
AcDbSpline
 62
7
  6
CONTINUOUS
 70
0
 71
3
 72
13
 73
9
 74
0
 42
0.0000001
 43
0.0000001
 44
0.0000000001
 40
0.0
 40
0.0
 40
0.0
 40
0.0
 40
0.2530200662
 40
0.5056219844
 40
0.6315361752
 40
0.7566719709
 40
0.8800766443
 40
1.0
 40
1.0
 40
1.0
 40
1.0
 10
253.9636862929
 20
170.8549892181
 30
0.0
 10
253.9933392573
 20
170.9194009761
 30
0.0
 10
254.0562564879
 20
171.0464589665
 30
0.0
 10
254.1483365867
 20
171.1981712478
 30
0.0
 10
254.235322683
 20
171.309593041
 30
0.0
 10
254.309525199
 20
171.3843117914
 30
0.0
 10
254.3951857533
 20
171.4435415357
 30
0.0
 10
254.462999075
 20
171.462684598
 30
0.0
 10
254.4965866544
 20
171.4638806915
 30
0.0
  0
SPLINE
  5
4A7
100
AcDbEntity
  8
RUNDUNGEN
100
AcDbSpline
 62
7
  6
CONTINUOUS
 70
0
 71
3
 72
8
 73
4
 74
0
 42
0.0000001
 43
0.0000001
 44
0.0000000001
 40
0.0
 40
0.0
 40
0.0
 40
0.0
 40
1.0
 40
1.0
 40
1.0
 40
1.0
 10
253.9636862929
 20
170.8549892181
 30
0.0
 10
253.2460276618
 20
169.2961010899
 30
0.0
 10
252.5901027934
 20
167.7084071694
 30
0.0
 10
251.9707278481
 20
166.1079257469
 30
0.0
  0
SPLINE
  5
4A8
100
AcDbEntity
  8
BEZUGSACHSEN
100
AcDbSpline
 62
7
  6
CONTINUOUS
 70
0
 71
3
 72
39
 73
35
 74
0
 42
0.0000001
 43
0.0000001
 44
0.0000000001
 40
0.0
 40
0.0
 40
0.0
 40
0.0
 40
0.0698422441
 40
0.1391249305
 40
0.2076273256
 40
0.2414805352
 40
0.2749790267
 40
0.308028197
 40
0.3404849961
 40
0.3721378304
 40
0.402661926
 40
0.4315281472
 40
0.4450957714
 40
0.45791283
 40
0.4698234619
 40
0.4807336007
 40
0.4906783592
 40
0.4999999701
 40
0.5093215912
 40
0.5192663147
 40
0.5301764721
 40
0.5420870518
 40
0.554904198
 40
0.5684717803
 40
0.5973380215
 40
0.6278621513
 40
0.6595149917
 40
0.6919717853
 40
0.7250209643
 40
0.7585194575
 40
0.7923726677
 40
0.8608750656
 40
0.9301577542
 40
1.0
 40
1.0
 40
1.0
 40
1.0
 10
249.9566447378
 20
166.1079257469
 30
0.0
 10
249.817747681
 20
166.825753165
 30
0.0
 10
249.5327387595
 20
168.2540715356
 30
0.0
 10
249.0757589567
 20
170.3791216406
 30
0.0
 10
248.6636961668
 20
172.1282157277
 30
0.0
 10
248.309231165
 20
173.5055724093
 30
0.0
 10
248.0302202739
 20
174.518968112
 30
0.0
 10
247.7346179457
 20
175.5124432638
 30
0.0
 10
247.418918757
 20
176.4794595511
 30
0.0
 10
247.0788394789
 20
177.4102523075
 30
0.0
 10
246.7088959896
 20
178.2890174252
 30
0.0
 10
246.3634295821
 20
178.9716234081
 30
0.0
 10
246.0571531461
 20
179.4627575204
 30
0.0
 10
245.8188366186
 20
179.7858228813
 30
0.0
 10
245.5654716146
 20
180.0609794911
 30
0.0
 10
245.2965482159
 20
180.2768458936
 30
0.0
 10
245.0103415296
 20
180.4183300153
 30
0.0
 10
244.7101664326
 20
180.4693760929
 30
0.0
 10
244.4099905232
 20
180.4183328733
 30
0.0
 10
244.1237859111
 20
180.2768448132
 30
0.0
 10
243.8548606811
 20
180.0609823776
 30
0.0
 10
243.6014956491
 20
179.7858245975
 30
0.0
 10
243.3631798143
 20
179.462758981
 30
0.0
 10
243.0569010298
 20
178.9716255038
 30
0.0
 10
242.7114354526
 20
178.2890188326
 30
0.0
 10
242.3414919491
 20
177.4102530964
 30
0.0
 10
242.0014126337
 20
176.4794599558
 30
0.0
 10
241.6857129687
 20
175.5124437248
 30
0.0
 10
241.3901109154
 20
174.5189684335
 30
0.0
 10
241.1110999244
 20
173.5055726429
 30
0.0
 10
240.7566348383
 20
172.1282159254
 30
0.0
 10
240.3445720917
 20
170.379121768
 30
0.0
 10
239.8875922645
 20
168.2540715962
 30
0.0
 10
239.602583353
 20
166.8257531825
 30
0.0
 10
239.4636862929
 20
166.1079257469
 30
0.0
  0
SPLINE
  5
4A9
100
AcDbEntity
  8
BEZUGSACHSEN
100
AcDbSpline
 62
7
  6
CONTINUOUS
 70
0
 71
3
 72
9
 73
5
 74
0
 42
0.0000001
 43
0.0000001
 44
0.0000000001
 40
0.0
 40
0.0
 40
0.0
 40
0.0
 40
0.5000001177
 40
1.0
 40
1.0
 40
1.0
 40
1.0
 10
251.9707278481
 20
166.1079257469
 30
0.0
 10
251.6476892498
 20
166.2147425551
 30
0.0
 10
250.9636862039
 20
166.3342198391
 30
0.0
 10
250.2796831839
 20
166.2147425048
 30
0.0
 10
249.9566447378
 20
166.1079257469
 30
0.0
  0
SPLINE
  5
4AA
100
AcDbEntity
  8
RUNDUNGEN
100
AcDbSpline
 62
7
  6
CONTINUOUS
 70
0
 71
3
 72
15
 73
11
 74
0
 42
0.0000001
 43
0.0000001
 44
0.0000000001
 40
0.0
 40
0.0
 40
0.0
 40
0.0
 40
0.0274486881
 40
0.0513329859
 40
0.0829373507
 40
0.1694996817
 40
0.2863263624
 40
0.4311218003
 40
0.6008909685
 40
1.0
 40
1.0
 40
1.0
 40
1.0
 10
269.4636862929
 20
171.5952509088
 30
0.0
 10
269.4636862929
 20
171.5862183883
 30
0.0
 10
269.4800501336
 20
171.5732544743
 30
0.0
 10
269.5037497057
 20
171.5625220387
 30
0.0
 10
269.5486818933
 20
171.5473225029
 30
0.0
 10
269.6239983297
 20
171.5310658672
 30
0.0
 10
269.7374080112
 20
171.5133921305
 30
0.0
 10
269.8784443491
 20
171.4974974453
 30
0.0
 10
270.1125119334
 20
171.4778215013
 30
0.0
 10
270.2995346004
 20
171.4685547089
 30
0.0
 10
270.4307859311
 20
171.4638806937
 30
0.0
  0
SPLINE
  5
4AB
100
AcDbEntity
  8
BEZUGSACHSEN
100
AcDbSpline
 62
7
  6
CONTINUOUS
 70
0
 71
3
 72
9
 73
5
 74
0
 42
0.0000001
 43
0.0000001
 44
0.0000000001
 40
0.0
 40
0.0
 40
0.0
 40
0.0
 40
0.5000001177
 40
1.0
 40
1.0
 40
1.0
 40
1.0
 10
274.9707278481
 20
166.1079257469
 30
0.0
 10
274.6476892498
 20
166.2147425551
 30
0.0
 10
273.9636862039
 20
166.3342198391
 30
0.0
 10
273.2796831839
 20
166.2147425048
 30
0.0
 10
272.9566447378
 20
166.1079257469
 30
0.0
  0
SPLINE
  5
4AC
100
AcDbEntity
  8
BEZUGSACHSEN
100
AcDbSpline
 62
7
  6
CONTINUOUS
 70
0
 71
3
 72
39
 73
35
 74
0
 42
0.0000001
 43
0.0000001
 44
0.0000000001
 40
0.0
 40
0.0
 40
0.0
 40
0.0
 40
0.0698422441
 40
0.1391249305
 40
0.2076273256
 40
0.2414805352
 40
0.2749790267
 40
0.308028197
 40
0.3404849961
 40
0.3721378304
 40
0.402661926
 40
0.4315281472
 40
0.4450957714
 40
0.45791283
 40
0.4698234619
 40
0.4807336007
 40
0.4906783592
 40
0.4999999701
 40
0.5093215912
 40
0.5192663147
 40
0.5301764721
 40
0.5420870518
 40
0.554904198
 40
0.5684717803
 40
0.5973380215
 40
0.6278621513
 40
0.6595149917
 40
0.6919717853
 40
0.7250209643
 40
0.7585194575
 40
0.7923726677
 40
0.8608750656
 40
0.9301577542
 40
1.0
 40
1.0
 40
1.0
 40
1.0
 10
285.4636862929
 20
166.1079257469
 30
0.0
 10
285.3247892362
 20
166.825753165
 30
0.0
 10
285.0397803146
 20
168.2540715356
 30
0.0
 10
284.5828005119
 20
170.3791216406
 30
0.0
 10
284.170737722
 20
172.1282157277
 30
0.0
 10
283.8162727201
 20
173.5055724093
 30
0.0
 10
283.5372618291
 20
174.518968112
 30
0.0
 10
283.2416595009
 20
175.5124432638
 30
0.0
 10
282.9259603122
 20
176.4794595511
 30
0.0
 10
282.5858810341
 20
177.4102523075
 30
0.0
 10
282.2159375448
 20
178.2890174252
 30
0.0
 10
281.8704711372
 20
178.9716234081
 30
0.0
 10
281.5641947012
 20
179.4627575204
 30
0.0
 10
281.3258781738
 20
179.7858228813
 30
0.0
 10
281.0725131698
 20
180.0609794911
 30
0.0
 10
280.8035897711
 20
180.2768458936
 30
0.0
 10
280.5173830847
 20
180.4183300153
 30
0.0
 10
280.2172079877
 20
180.4693760929
 30
0.0
 10
279.9170320783
 20
180.4183328733
 30
0.0
 10
279.6308274663
 20
180.2768448132
 30
0.0
 10
279.3619022363
 20
180.0609823776
 30
0.0
 10
279.1085372043
 20
179.7858245975
 30
0.0
 10
278.8702213694
 20
179.462758981
 30
0.0
 10
278.5639425849
 20
178.9716255038
 30
0.0
 10
278.2184770077
 20
178.2890188326
 30
0.0
 10
277.8485335042
 20
177.4102530964
 30
0.0
 10
277.5084541888
 20
176.4794599558
 30
0.0
 10
277.1927545239
 20
175.5124437248
 30
0.0
 10
276.8971524706
 20
174.5189684335
 30
0.0
 10
276.6181414796
 20
173.5055726429
 30
0.0
 10
276.2636763935
 20
172.1282159254
 30
0.0
 10
275.8516136469
 20
170.379121768
 30
0.0
 10
275.3946338196
 20
168.2540715962
 30
0.0
 10
275.1096249082
 20
166.8257531825
 30
0.0
 10
274.9707278481
 20
166.1079257469
 30
0.0
  0
SPLINE
  5
4AD
100
AcDbEntity
  8
RUNDUNGEN
100
AcDbSpline
 62
7
  6
CONTINUOUS
 70
0
 71
3
 72
8
 73
4
 74
0
 42
0.0000001
 43
0.0000001
 44
0.0000000001
 40
0.0
 40
0.0
 40
0.0
 40
0.0
 40
1.0
 40
1.0
 40
1.0
 40
1.0
 10
272.9566447378
 20
166.1079257469
 30
0.0
 10
272.3372697924
 20
167.7084071694
 30
0.0
 10
271.6813449241
 20
169.2961010899
 30
0.0
 10
270.9636862929
 20
170.8549892181
 30
0.0
  0
SPLINE
  5
4AE
100
AcDbEntity
  8
RUNDUNGEN
100
AcDbSpline
 62
7
  6
CONTINUOUS
 70
0
 71
3
 72
13
 73
9
 74
0
 42
0.0000001
 43
0.0000001
 44
0.0000000001
 40
0.0
 40
0.0
 40
0.0
 40
0.0
 40
0.1199233559
 40
0.2433280291
 40
0.3684638249
 40
0.4943780156
 40
0.7469799338
 40
1.0
 40
1.0
 40
1.0
 40
1.0
 10
270.4307859311
 20
171.4638806937
 30
0.0
 10
270.4643735106
 20
171.4626846002
 30
0.0
 10
270.5321868314
 20
171.4435415346
 30
0.0
 10
270.6178473867
 20
171.3843117922
 30
0.0
 10
270.6920499025
 20
171.3095930412
 30
0.0
 10
270.779035999
 20
171.1981712481
 30
0.0
 10
270.8711160978
 20
171.0464589666
 30
0.0
 10
270.9340333285
 20
170.9194009762
 30
0.0
 10
270.9636862929
 20
170.8549892181
 30
0.0
  0
SPLINE
  5
4AF
100
AcDbEntity
  8
RUNDUNGEN
100
AcDbSpline
 62
7
  6
CONTINUOUS
 70
0
 71
3
 72
15
 73
11
 74
0
 42
0.0000001
 43
0.0000001
 44
0.0000000001
 40
0.0
 40
0.0
 40
0.0
 40
0.0
 40
0.027448688
 40
0.0513329857
 40
0.0829373505
 40
0.1694996816
 40
0.2863263623
 40
0.4311218003
 40
0.6008909685
 40
1.0
 40
1.0
 40
1.0
 40
1.0
 10
255.4636862929
 20
171.5952509088
 30
0.0
 10
255.4636862929
 20
171.5862183883
 30
0.0
 10
255.4473224523
 20
171.5732544744
 30
0.0
 10
255.42362288
 20
171.5625220391
 30
0.0
 10
255.3786906925
 20
171.5473225033
 30
0.0
 10
255.3033742561
 20
171.5310658672
 30
0.0
 10
255.1899645746
 20
171.51339213
 30
0.0
 10
255.0489282366
 20
171.4974974443
 30
0.0
 10
254.8148606523
 20
171.4778214996
 30
0.0
 10
254.6278379852
 20
171.4685547069
 30
0.0
 10
254.4965866544
 20
171.4638806915
 30
0.0
  0
SPLINE
  5
4B0
100
AcDbEntity
  8
RUNDUNGEN
100
AcDbSpline
 62
7
  6
CONTINUOUS
 70
0
 71
3
 72
9
 73
5
 74
0
 42
0.0000001
 43
0.0000001
 44
0.0000000001
 40
0.0
 40
0.0
 40
0.0
 40
0.0
 40
0.4983719434
 40
1.0
 40
1.0
 40
1.0
 40
1.0
 10
169.3784499813
 20
35.1834216627
 30
0.0
 10
169.8193591958
 20
35.5178709796
 30
0.0
 10
170.5612053547
 20
36.398815172
 30
0.0
 10
170.868789605
 20
37.5003762559
 30
0.0
 10
170.917923333
 20
38.0552258706
 30
0.0
  0
SPLINE
  5
4B1
100
AcDbEntity
  8
BEZUGSACHSEN
100
AcDbSpline
 62
7
  6
CONTINUOUS
 70
0
 71
3
 72
9
 73
5
 74
0
 42
0.0000001
 43
0.0000001
 44
0.0000000001
 40
0.0
 40
0.0
 40
0.0
 40
0.0
 40
0.4983719434
 40
1.0
 40
1.0
 40
1.0
 40
1.0
 10
169.3784499813
 20
68.4709582584
 30
0.0
 10
169.8193591958
 20
68.1365089416
 30
0.0
 10
170.5612053547
 20
67.2555647491
 30
0.0
 10
170.868789605
 20
66.1540036652
 30
0.0
 10
170.917923333
 20
65.5991540505
 30
0.0
  0
SPLINE
  5
4B2
100
AcDbEntity
  8
BEZUGSACHSEN
100
AcDbSpline
 62
7
  6
CONTINUOUS
 70
0
 71
3
 72
9
 73
5
 74
0
 42
0.0000001
 43
0.0000001
 44
0.0000000001
 40
0.0
 40
0.0
 40
0.0
 40
0.0
 40
0.4983719434
 40
1.0
 40
1.0
 40
1.0
 40
1.0
 10
153.688426198
 20
35.1834216627
 30
0.0
 10
153.2475169835
 20
35.5178709796
 30
0.0
 10
152.5056708246
 20
36.398815172
 30
0.0
 10
152.1980865742
 20
37.5003762559
 30
0.0
 10
152.1489528463
 20
38.0552258706
 30
0.0
  0
SPLINE
  5
4B3
100
AcDbEntity
  8
BEZUGSACHSEN
100
AcDbSpline
 62
7
  6
CONTINUOUS
 70
0
 71
3
 72
9
 73
5
 74
0
 42
0.0000001
 43
0.0000001
 44
0.0000000001
 40
0.0
 40
0.0
 40
0.0
 40
0.0
 40
0.4983719434
 40
1.0
 40
1.0
 40
1.0
 40
1.0
 10
153.688426198
 20
68.4709582584
 30
0.0
 10
153.2475169835
 20
68.1365089416
 30
0.0
 10
152.5056708246
 20
67.2555647491
 30
0.0
 10
152.1980865742
 20
66.1540036652
 30
0.0
 10
152.1489528463
 20
65.5991540505
 30
0.0
  0
ENDSEC
  0
SECTION
  2
OBJECTS
  0
DICTIONARY
  5
C
100
AcDbDictionary
280
0
281
1
  3
ACAD_GROUP
350
D
  3
ACAD_MLINESTYLE
350
17
  3
ACAD_LAYOUT
350
1A
  3
ACAD_PLOTSETTINGS
350
19
  3
ACAD_PLOTSTYLENAME
350
E
  0
DICTIONARY
  5
D
102
{ACAD_REACTORS
330
C
102
}
100
AcDbDictionary
280
0
281
1
  0
ACDBDICTIONARYWDFLT
  5
E
102
{ACAD_REACTORS
330
C
102
}
100
AcDbDictionary
281
1
  3
Normal
350
F
100
AcDbDictionaryWithDefault
340
F
  0
DICTIONARY
  5
17
102
{ACAD_REACTORS
330
C
102
}
100
AcDbDictionary
280
0
281
1
  3
Standard
350
18
  0
DICTIONARY
  5
19
102
{ACAD_REACTORS
330
C
102
}
100
AcDbDictionary
281
1
  0
DICTIONARY
  5
1A
102
{ACAD_REACTORS
330
C
102
}
100
AcDbDictionary
281
1
  3
Model
350
4B4
  3
Layout1
350
4B5
  0
ACDBPLACEHOLDER
  5
F
102
{ACAD_REACTORS
330
E
102
}
  0
MLINESTYLE
  5
18
102
{ACAD_REACTORS
330
17
102
}
100
AcDbMlineStyle
  2
STANDARD
 70
0
  3

 62
256
 51
90.0
 52
90.0
 71
2
 49
0.5
 62
256
  6
BYLAYER
 49
-0.5
 62
256
  6
BYLAYER
  0
LAYOUT
  5
4B4
102
{ACAD_REACTORS
330
1A
102
}
100
AcDbPlotSettings
  1

  2
none_device
  4
ISO_A3_(420.00_x_297.00_MM)
  6

 40
0.0
 41
0.0
 42
0.0
 43
0.0
 44
420.0
 45
297.0
 46
0.0
 47
0.0
 48
0.0
 49
0.0
140
0.0
141
0.0
142
1.0
143
1.0
 70
1024
 72
1
 73
0
 74
0
  7

 75
0
147
1.0
148
0.0
149
0.0
100
AcDbLayout
  1
Model
 70
0
 71
0
 10
0.0
 20
0.0
 11
420.0
 21
297.0
 12
0.0
 22
0.0
 32
0.0
 14
0.0
 24
0.0
 34
0.0
 15
0.0
 25
0.0
 35
0.0
146
0.0
 13
0.0
 23
0.0
 33
0.0
 16
1.0
 26
0.0
 36
0.0
 17
0.0
 27
1.0
 37
0.0
 76
0
330
215
345
0
346
0
  0
LAYOUT
  5
4B5
102
{ACAD_REACTORS
330
1A
102
}
100
AcDbPlotSettings
  1

  2
none_device
  4
ISO_A3_(420.00_x_297.00_MM)
  6

 40
0.0
 41
0.0
 42
0.0
 43
0.0
 44
420.0
 45
297.0
 46
0.0
 47
0.0
 48
0.0
 49
0.0
140
0.0
141
0.0
142
1.0
143
1.0
 70
0
 72
1
 73
0
 74
0
  7

 75
0
147
1.0
148
0.0
149
0.0
100
AcDbLayout
  1
Layout1
 70
0
 71
1
 10
0.0
 20
0.0
 11
420.0
 21
297.0
 12
0.0
 22
0.0
 32
0.0
 14
0.0
 24
0.0
 34
0.0
 15
0.0
 25
0.0
 35
0.0
146
0.0
 13
0.0
 23
0.0
 33
0.0
 16
1.0
 26
0.0
 36
0.0
 17
0.0
 27
1.0
 37
0.0
 76
0
330
216
345
0
346
0
  0
ENDSEC
  0
EOF
