999
DXF file: 001-m31707-p-30.dxf
999
Pro/ENGINEER 2011490 by Parametric Technology Corporation
  0
SECTION
  2
HEADER
  9
$ACADVER
  1
AC1015
  9
$DWGCODEPAGE
  3
ANSI_1252
  9
$EXTMAX
 10
297.0
 20
210.0
 30
0.0
  9
$EXTMIN
 10
0.0
 20
0.0
 30
0.0
  9
$LIMMIN
 10
0.0
 20
0.0
  9
$LIMMAX
 10
297.0
 20
210.0
  9
$VIEWCTR
 10
148.5
 20
105.0
  9
$VIEWSIZE
 40
210.0
  9
$CLAYER
  8
0
  9
$LTSCALE
 40
16.335
  9
$CELTYPE
  6
BYLAYER
  9
$DIMSCALE
 40
1.0
  9
$DIMASZ
 40
3.5
  9
$DIMEXO
 40
1.85625
  9
$DIMDLI
 40
11.286
  9
$DIMEXE
 40
5.346
  9
$DIMCEN
 40
2.673
  9
$DIMLFAC
 40
1.0
  9
$DIMBLK
  1
_FILLED
  9
$DIMTXT
 40
3.5
  9
$DIMTOL
 70
1
  9
$DIMLIM
 70
0
  9
$DIMTFAC
 40
1.0
  9
$DIMTP
 40
0.005
  9
$DIMTM
 40
0.005
  9
$PDMODE
 70
3
  9
$PDSIZE
 40
0.3125
  9
$HANDSEED
  5
50E
  9
$TILEMODE
 70
1
  9
$MEASUREMENT
 70
1
  9
$INSUNITS
 70
4
  0
ENDSEC
  0
SECTION
  2
CLASSES
  0
CLASS
  1
ACDBDICTIONARYWDFLT
  2
AcDbDictionaryWithDefault
  3
AutoCAD 2000
 90
0
280
0
281
0
  0
CLASS
  1
ACDBPLACEHOLDER
  2
AcDbPlaceHolder
  3
AutoCAD 2000
 90
0
280
0
281
0
  0
CLASS
  1
LAYOUT
  2
AcDbLayout
  3
AutoCAD 2000
 90
0
280
0
281
0
  0
ENDSEC
  0
SECTION
  2
TABLES
  0
TABLE
  2
VPORT
  5
8
100
AcDbSymbolTable
 70
2
  0
VPORT
  5
1F4
100
AcDbSymbolTableRecord
100
AcDbViewportTableRecord
  2
*ACTIVE
 70
0
 10
0.0
 20
0.0
 11
1.0
 21
1.0
 12
148.5
 22
105.0
 13
0.0
 23
0.0
 14
1.0
 24
1.0
 15
0.0
 25
0.0
 16
0.0
 26
0.0
 36
1.0
 17
0.0
 27
0.0
 37
0.0
 40
210.0
 41
1.4142857143
 42
50.0
 43
0.0
 44
0.0
 50
0.0
 51
0.0
 71
0
 72
100
 73
1
 74
1
 75
0
 76
0
 77
0
 78
0
  0
ENDTAB
  0
TABLE
  2
LTYPE
  5
5
100
AcDbSymbolTable
 70
6
  0
LTYPE
  5
14
100
AcDbSymbolTableRecord
100
AcDbLinetypeTableRecord
  2
BYBLOCK
 70
0
  3

 72
65
 73
0
 40
0.0
  0
LTYPE
  5
15
100
AcDbSymbolTableRecord
100
AcDbLinetypeTableRecord
  2
BYLAYER
 70
0
  3

 72
65
 73
0
 40
0.0
  0
LTYPE
  5
16
100
AcDbSymbolTableRecord
100
AcDbLinetypeTableRecord
  2
CONTINUOUS
 70
64
  3
Solid line
 72
65
 73
0
 40
0.0
  0
LTYPE
  5
1F5
100
AcDbSymbolTableRecord
100
AcDbLinetypeTableRecord
  2
CENTER
 70
64
  3
____ _ ____ _ ____ _ ____ _ ____ _ ____ _ ____
 72
65
 73
4
 40
0.6
 49
0.375
 74
0
 49
-0.075
 74
0
 49
0.075
 74
0
 49
-0.075
 74
0
  0
LTYPE
  5
1F6
100
AcDbSymbolTableRecord
100
AcDbLinetypeTableRecord
  2
HIDDEN
 70
64
  3
- - - - - - - - - - - - - - - - - - - -
 72
65
 73
2
 40
0.2
 49
0.1
 74
0
 49
-0.1
 74
0
  0
LTYPE
  5
1F7
100
AcDbSymbolTableRecord
100
AcDbLinetypeTableRecord
  2
PHANTOM
 70
64
  3
_____ _ _ _____ _ _ _____ _ _ _____
 72
65
 73
6
 40
0.8
 49
0.45
 74
0
 49
-0.05
 74
0
 49
0.1
 74
0
 49
-0.05
 74
0
 49
0.1
 74
0
 49
-0.05
 74
0
  0
LTYPE
  5
1F8
100
AcDbSymbolTableRecord
100
AcDbLinetypeTableRecord
  2
DOT
 70
64
  3
. . . . . . . . . . . . . . . . . . . .
 72
65
 73
2
 40
0.2
 49
0.1
 74
0
 49
-0.1
 74
0
  0
LTYPE
  5
1F9
100
AcDbSymbolTableRecord
100
AcDbLinetypeTableRecord
  2
DASHED
 70
64
  3
- - - - - - - - - - - - - - - - - - - -
 72
65
 73
2
 40
0.2
 49
0.1
 74
0
 49
-0.1
 74
0
  0
ENDTAB
  0
TABLE
  2
LAYER
  5
2
100
AcDbSymbolTable
 70
36
  0
LAYER
  5
10
100
AcDbSymbolTableRecord
100
AcDbLayerTableRecord
  2
0
 70
0
 62
7
  6
CONTINUOUS
370
-3
390
F
  0
LAYER
  5
1FA
100
AcDbSymbolTableRecord
100
AcDbLayerTableRecord
  2
DEFAULT_1
 70
0
 62
7
  6
CENTER
370
-3
390
F
  0
LAYER
  5
1FB
100
AcDbSymbolTableRecord
100
AcDbLayerTableRecord
  2
DEFAULT_2
 70
0
 62
8
  6
HIDDEN
370
-3
390
F
  0
LAYER
  5
1FC
100
AcDbSymbolTableRecord
100
AcDbLayerTableRecord
  2
DEFAULT_3
 70
0
 62
7
  6
PHANTOM
370
-3
390
F
  0
LAYER
  5
1FD
100
AcDbSymbolTableRecord
100
AcDbLayerTableRecord
  2
AUSFORMSCHRAEGEN
 70
0
 62
7
  6
CONTINUOUS
370
-3
390
F
  0
LAYER
  5
1FE
100
AcDbSymbolTableRecord
100
AcDbLayerTableRecord
  2
BEZUGSACHSEN
 70
0
 62
7
  6
CONTINUOUS
370
-3
390
F
  0
LAYER
  5
1FF
100
AcDbSymbolTableRecord
100
AcDbLayerTableRecord
  2
BEZUGSEBENEN
 70
0
 62
7
  6
CONTINUOUS
370
-3
390
F
  0
LAYER
  5
200
100
AcDbSymbolTableRecord
100
AcDbLayerTableRecord
  2
BEZUGSPUNKTE
 70
0
 62
7
  6
CONTINUOUS
370
-3
390
F
  0
LAYER
  5
201
100
AcDbSymbolTableRecord
100
AcDbLayerTableRecord
  2
BG_STARTBEZUEGE
 70
0
 62
7
  6
CONTINUOUS
370
-3
390
F
  0
LAYER
  5
202
100
AcDbSymbolTableRecord
100
AcDbLayerTableRecord
  2
FASEN
 70
0
 62
7
  6
CONTINUOUS
370
-3
390
F
  0
LAYER
  5
203
100
AcDbSymbolTableRecord
100
AcDbLayerTableRecord
  2
FLAECHEN
 70
0
 62
7
  6
CONTINUOUS
370
-3
390
F
  0
LAYER
  5
204
100
AcDbSymbolTableRecord
100
AcDbLayerTableRecord
  2
FLAECHENVERBUND
 70
0
 62
7
  6
CONTINUOUS
370
-3
390
F
  0
LAYER
  5
205
100
AcDbSymbolTableRecord
100
AcDbLayerTableRecord
  2
HILFEN
 70
0
 62
7
  6
CONTINUOUS
370
-3
390
F
  0
LAYER
  5
206
100
AcDbSymbolTableRecord
100
AcDbLayerTableRecord
  2
KONSTRUKTIONSELEMENTE
 70
0
 62
7
  6
CONTINUOUS
370
-3
390
F
  0
LAYER
  5
207
100
AcDbSymbolTableRecord
100
AcDbLayerTableRecord
  2
KURVEN
 70
0
 62
7
  6
CONTINUOUS
370
-3
390
F
  0
LAYER
  5
208
100
AcDbSymbolTableRecord
100
AcDbLayerTableRecord
  2
NORM
 70
0
 62
7
  6
CONTINUOUS
370
-3
390
F
  0
LAYER
  5
209
100
AcDbSymbolTableRecord
100
AcDbLayerTableRecord
  2
PLATZIERUNG
 70
0
 62
7
  6
CONTINUOUS
370
-3
390
F
  0
LAYER
  5
20A
100
AcDbSymbolTableRecord
100
AcDbLayerTableRecord
  2
RUNDUNGEN
 70
0
 62
7
  6
CONTINUOUS
370
-3
390
F
  0
LAYER
  5
20B
100
AcDbSymbolTableRecord
100
AcDbLayerTableRecord
  2
TEIL_STARTBEZUEGE
 70
0
 62
7
  6
CONTINUOUS
370
-3
390
F
  0
LAYER
  5
20C
100
AcDbSymbolTableRecord
100
AcDbLayerTableRecord
  2
ZEICHNUNGSBEMASSUNGEN
 70
0
 62
7
  6
CONTINUOUS
370
-3
390
F
  0
ENDTAB
  0
TABLE
  2
STYLE
  5
3
100
AcDbSymbolTable
 70
1
  0
STYLE
  5
11
100
AcDbSymbolTableRecord
100
AcDbTextStyleTableRecord
  2
STANDARD
 70
0
 40
0.0
 41
0.7
 50
0.0
 71
0
 42
0.2
  3
txt
  4

  0
STYLE
  5
20D
100
AcDbSymbolTableRecord
100
AcDbTextStyleTableRecord
  2
TEXTSTYLE_1
 70
0
 40
0.0
 41
0.8
 50
0.0
 71
0
 42
0.2
  3
gdt
  4

  0
ENDTAB
  0
TABLE
  2
VIEW
  5
6
100
AcDbSymbolTable
 70
0
  0
ENDTAB
  0
TABLE
  2
UCS
  5
7
100
AcDbSymbolTable
 70
0
  0
ENDTAB
  0
TABLE
  2
APPID
  5
9
100
AcDbSymbolTable
 70
1
  0
APPID
  5
20E
100
AcDbSymbolTableRecord
100
AcDbRegAppTableRecord
  2
ACAD
 70
0
  0
ENDTAB
  0
TABLE
  2
BLOCK_RECORD
  5
1
100
AcDbSymbolTable
 70
0
  0
BLOCK_RECORD
  5
20F
100
AcDbSymbolTableRecord
100
AcDbBlockTableRecord
  2
*Model_Space
  0
BLOCK_RECORD
  5
210
100
AcDbSymbolTableRecord
100
AcDbBlockTableRecord
  2
*Paper_Space
  0
ENDTAB
  0
TABLE
  2
DIMSTYLE
  5
A
100
AcDbSymbolTable
 70
1
100
AcDbDimStyleTable
 71
0
  0
DIMSTYLE
105
211
100
AcDbSymbolTableRecord
100
AcDbDimStyleTableRecord
  2
STANDARD
 70
0
  3

  4

 40
1.0
 41
3.5
 42
0.0625
 43
0.38
 44
0.18
 45
0.0
 46
0.0
 47
0.005
 48
0.005
140
3.5
141
0.09
142
0.0
143
25.4
144
1.0
145
0.0
146
1.0
147
0.09
 71
1.0
 72
0.0
 73
0
 74
0
 75
0
 76
0
 77
1
 78
8
170
0
171
2
172
0
173
0
174
0
175
0
176
0
177
0
178
5
270
2
271
3
272
3
273
2
274
2
275
0
280
0
281
0
282
0
283
1
284
8
285
0
286
0
287
3
288
0
340
11
  0
ENDTAB
  0
ENDSEC
  0
SECTION
  2
BLOCKS
  0
BLOCK
  5
20
100
AcDbEntity
  8
0
100
AcDbBlockBegin
  2
*Model_Space
 70
0
 10
0.0
 20
0.0
 30
0.0
  3
*Model_Space
  1

  0
ENDBLK
  5
21
100
AcDbEntity
  8
0
100
AcDbBlockEnd
  0
BLOCK
  5
1C
100
AcDbEntity
  8
0
100
AcDbBlockBegin
  2
*Paper_Space
 70
0
 10
0.0
 20
0.0
 30
0.0
  3
*Paper_Space
  1

  0
ENDBLK
  5
1D
100
AcDbEntity
  8
0
100
AcDbBlockEnd
  0
ENDSEC
  0
SECTION
  2
ENTITIES
  0
MTEXT
  5
212
100
AcDbEntity
  8
0
100
AcDbMText
 62
5
  6
CONTINUOUS
  7
STANDARD
 71
1
 72
1
 10
76.9590386925
 20
36.3629422636
 30
0.0
 11
1.0
 21
0.0
 31
0.0
 44
0.9
  1
VWBG-V\P0,6t M12
 40
4.0
 41
22.8571428571
  0
MTEXT
  5
213
100
AcDbEntity
  8
0
100
AcDbMText
 62
5
  6
CONTINUOUS
  7
STANDARD
 71
1
 72
1
 10
69.1071382133
 20
101.7755206947
 30
0.0
 11
1.0
 21
0.0
 31
0.0
 44
0.9
  1
RUD VWBG-V \P0,6t M12
 40
4.0
 41
38.1904761905
  0
LINE
  5
214
100
AcDbEntity
  8
0
100
AcDbLine
 62
7
  6
CONTINUOUS
 10
0.0
 20
0.0
 11
0.0
 21
210.0
  0
LINE
  5
215
100
AcDbEntity
  8
0
100
AcDbLine
 62
7
  6
CONTINUOUS
 10
0.0
 20
0.0
 11
297.0
 21
0.0
  0
LINE
  5
216
100
AcDbEntity
  8
0
100
AcDbLine
 62
7
  6
CONTINUOUS
 10
0.0
 20
210.0
 11
297.0
 21
210.0
  0
LINE
  5
217
100
AcDbEntity
  8
0
100
AcDbLine
 62
7
  6
CONTINUOUS
 10
297.0
 20
0.0
 11
297.0
 21
210.0
  0
LINE
  5
218
100
AcDbEntity
  8
0
100
AcDbLine
 62
7
  6
CONTINUOUS
 10
81.6064938121
 20
67.9078090281
 11
91.6062212415
 21
67.9078090281
  0
LINE
  5
219
100
AcDbEntity
  8
0
100
AcDbLine
 62
7
  6
CONTINUOUS
 10
92.6063575268
 20
68.9078090281
 11
80.6063575268
 21
68.9078090281
  0
LINE
  5
21A
100
AcDbEntity
  8
0
100
AcDbLine
 62
7
  6
CONTINUOUS
 10
80.6063575268
 20
68.9078090281
 11
81.6063575268
 21
67.9078090281
  0
LINE
  5
21B
100
AcDbEntity
  8
0
100
AcDbLine
 62
7
  6
CONTINUOUS
 10
104.6063575268
 20
88.9078090281
 11
68.6063575268
 21
88.9078090281
  0
LINE
  5
21C
100
AcDbEntity
  8
RUNDUNGEN
100
AcDbLine
 62
7
  6
CONTINUOUS
 10
67.9093013821
 20
99.9081222429
 11
67.9111659665
 21
99.9078090281
  0
LWPOLYLINE
  5
21D
100
AcDbEntity
  8
RUNDUNGEN
100
AcDbPolyline
 62
7
  6
CONTINUOUS
 90
3
 70
0
 10
67.9140904833
 20
99.9073177646
 10
67.9369017983
 20
99.90264343
 10
67.9846966757
 20
99.8886889134
  0
LWPOLYLINE
  5
21E
100
AcDbEntity
  8
RUNDUNGEN
100
AcDbPolyline
 62
7
  6
CONTINUOUS
 90
3
 70
0
 10
67.981175316
 20
99.8898755857
 10
68.0420173316
 20
99.8662136395
 10
68.117749363
 20
99.8278083169
  0
LINE
  5
21F
100
AcDbEntity
  8
RUNDUNGEN
100
AcDbLine
 62
7
  6
CONTINUOUS
 10
67.9846966757
 20
99.8886889134
 11
68.0491649812
 21
99.8630168501
  0
LWPOLYLINE
  5
220
100
AcDbEntity
  8
RUNDUNGEN
100
AcDbPolyline
 62
7
  6
CONTINUOUS
 90
3
 70
0
 10
68.0491649812
 20
99.8630168501
 10
68.1236006898
 20
99.8244281054
 10
68.2041368061
 20
99.7715525187
  0
LINE
  5
221
100
AcDbEntity
  8
RUNDUNGEN
100
AcDbLine
 62
7
  6
CONTINUOUS
 10
68.117749363
 20
99.8278083169
 11
68.2019024467
 21
99.7731831572
  0
LWPOLYLINE
  5
222
100
AcDbEntity
  8
RUNDUNGEN
100
AcDbPolyline
 62
7
  6
CONTINUOUS
 90
5
 70
0
 10
68.2041368061
 20
99.7715525187
 10
68.2892723522
 20
99.7012713563
 10
68.3717251446
 20
99.6154253027
 10
68.4427710566
 20
99.5217635496
 10
68.5011769396
 20
99.4232771532
  0
LWPOLYLINE
  5
223
100
AcDbEntity
  8
RUNDUNGEN
100
AcDbPolyline
 62
7
  6
CONTINUOUS
 90
4
 70
0
 10
68.2858240343
 20
99.7044472254
 10
68.3649155324
 20
99.6233221924
 10
68.4375853608
 20
99.5294119488
 10
68.4997564642
 20
99.4260033796
  0
LINE
  5
224
100
AcDbEntity
  8
RUNDUNGEN
100
AcDbLine
 62
7
  6
CONTINUOUS
 10
66.1063575268
 20
99.9078090281
 11
67.9096036482
 21
99.9078090281
  0
LWPOLYLINE
  5
225
100
AcDbEntity
  8
RUNDUNGEN
100
AcDbPolyline
 62
7
  6
CONTINUOUS
 90
3
 70
0
 10
67.9083068744
 20
99.9081623991
 10
67.9077737306
 20
99.9082052977
 10
67.9105602577
 20
99.9078090281
  0
LINE
  5
226
100
AcDbEntity
  8
RUNDUNGEN
100
AcDbLine
 62
7
  6
CONTINUOUS
 10
68.5011769396
 20
99.4232771532
 11
68.548830808
 21
99.3166375357
  0
LINE
  5
227
100
AcDbEntity
  8
KONSTRUKTIONSELEMENTE
100
AcDbLine
 62
7
  6
CONTINUOUS
 10
58.3063575268
 20
178.4078090281
 11
58.3063575268
 21
153.4078090281
  0
LINE
  5
228
100
AcDbEntity
  8
RUNDUNGEN
100
AcDbLine
 62
7
  6
CONTINUOUS
 10
68.5454431331
 20
99.3254747382
 11
68.5767567049
 21
99.2304756324
  0
LINE
  5
229
100
AcDbEntity
  8
RUNDUNGEN
100
AcDbLine
 62
7
  6
CONTINUOUS
 10
68.548830808
 20
99.3166375357
 11
68.5820641597
 21
99.2100012266
  0
LWPOLYLINE
  5
22A
100
AcDbEntity
  8
RUNDUNGEN
100
AcDbPolyline
 62
7
  6
CONTINUOUS
 90
4
 70
0
 10
68.5767567049
 20
99.2304756324
 10
68.5961049415
 20
99.1416380355
 10
68.605045344
 20
99.0628260427
 10
68.6063578169
 20
99.0213195608
  0
LWPOLYLINE
  5
22B
100
AcDbEntity
  8
RUNDUNGEN
100
AcDbPolyline
 62
7
  6
CONTINUOUS
 90
4
 70
0
 10
68.5820641597
 20
99.2100012266
 10
68.6001336564
 20
99.1141558962
 10
68.6061601275
 20
99.0370300319
 10
68.6063577202
 20
99.0209881507
  0
LINE
  5
22C
100
AcDbEntity
  8
RUNDUNGEN
100
AcDbLine
 62
7
  6
CONTINUOUS
 10
65.1063575268
 20
100.9078090281
 11
65.1063575268
 21
112.707647854
  0
LINE
  5
22D
100
AcDbEntity
  8
0
100
AcDbLine
 62
7
  6
CONTINUOUS
 10
67.8710748468
 20
113.7078090281
 11
66.1063575268
 21
113.7078090281
  0
LINE
  5
22E
100
AcDbEntity
  8
FASEN
100
AcDbLine
 62
7
  6
CONTINUOUS
 10
104.548276905
 20
113.9154051515
 11
86.6063575268
 21
113.9154051515
  0
LINE
  5
22F
100
AcDbEntity
  8
RUNDUNGEN
100
AcDbLine
 62
7
  6
CONTINUOUS
 10
86.6063575268
 20
113.9154051515
 11
68.7244599399
 21
113.9154051515
  0
LINE
  5
230
100
AcDbEntity
  8
FASEN
100
AcDbLine
 62
7
  6
CONTINUOUS
 10
103.9614528162
 20
114.4078090281
 11
69.2512622374
 21
114.4078090281
  0
LINE
  5
231
100
AcDbEntity
  8
BEZUGSACHSEN
100
AcDbLine
 62
7
  6
CONTINUOUS
 10
102.6056386108
 20
116.4078090281
 11
70.6070764428
 21
116.4078090281
  0
LINE
  5
232
100
AcDbEntity
  8
0
100
AcDbLine
 62
7
  6
CONTINUOUS
 10
68.6063575268
 20
99.3742000563
 11
68.6063575268
 21
88.9078090281
  0
LINE
  5
233
100
AcDbEntity
  8
RUNDUNGEN
100
AcDbLine
 62
7
  6
CONTINUOUS
 10
68.6063575268
 20
99.3742000563
 11
68.6063575268
 21
103.0173846514
  0
LINE
  5
234
100
AcDbEntity
  8
0
100
AcDbLine
 62
7
  6
CONTINUOUS
 10
69.0993159716
 20
99.3742000563
 11
69.0993159716
 21
88.9078090281
  0
LINE
  5
235
100
AcDbEntity
  8
KONSTRUKTIONSELEMENTE
100
AcDbLine
 62
7
  6
CONTINUOUS
 10
69.1063575268
 20
178.4078090281
 11
69.1063575268
 21
153.4078090281
  0
LINE
  5
236
100
AcDbEntity
  8
BEZUGSACHSEN
100
AcDbLine
 62
7
  6
CONTINUOUS
 10
70.6063575268
 20
116.4078090281
 11
70.6063575268
 21
114.4078090281
  0
LINE
  5
237
100
AcDbEntity
  8
BEZUGSACHSEN
100
AcDbLine
 62
7
  6
CONTINUOUS
 10
71.1063575268
 20
116.4078090281
 11
71.1063575268
 21
118.4078090281
  0
LINE
  5
238
100
AcDbEntity
  8
BEZUGSACHSEN
100
AcDbLine
 62
7
  6
CONTINUOUS
 10
100.6063575268
 20
119.9078090281
 11
96.8333899491
 21
119.9078090281
  0
LINE
  5
239
100
AcDbEntity
  8
BEZUGSACHSEN
100
AcDbLine
 62
7
  6
CONTINUOUS
 10
76.3793251044
 20
119.9078090281
 11
72.6090665389
 21
119.9078090281
  0
LINE
  5
23A
100
AcDbEntity
  8
0
100
AcDbLine
 62
7
  6
CONTINUOUS
 10
80.6063575268
 20
88.9078090281
 11
80.6063575268
 21
68.9078090281
  0
LINE
  5
23B
100
AcDbEntity
  8
FASEN
100
AcDbLine
 62
7
  6
CONTINUOUS
 10
103.9614528162
 20
114.4078090281
 11
104.548276905
 21
113.9154051515
  0
LINE
  5
23C
100
AcDbEntity
  8
0
100
AcDbLine
 62
7
  6
CONTINUOUS
 10
82.6063575268
 20
134.0042585664
 11
82.6063575268
 21
137.3053087453
  0
LINE
  5
23D
100
AcDbEntity
  8
0
100
AcDbLine
 62
7
  6
CONTINUOUS
 10
82.6063575268
 20
137.3259668387
 11
82.6063575268
 21
142.4024792446
  0
LINE
  5
23E
100
AcDbEntity
  8
BEZUGSACHSEN
100
AcDbLine
 62
7
  6
CONTINUOUS
 10
83.1063575268
 20
144.2430246275
 11
83.1063575268
 21
135.7448845084
  0
LINE
  5
23F
100
AcDbEntity
  8
0
100
AcDbLine
 62
7
  6
CONTINUOUS
 10
86.113399082
 20
99.3742000563
 11
86.113399082
 21
88.9078090281
  0
LINE
  5
240
100
AcDbEntity
  8
0
100
AcDbLine
 62
7
  6
CONTINUOUS
 10
87.0993159716
 20
99.3742000563
 11
87.0993159716
 21
88.9078090281
  0
LINE
  5
241
100
AcDbEntity
  8
BEZUGSACHSEN
100
AcDbLine
 62
7
  6
CONTINUOUS
 10
82.5635396785
 20
132.666429247
 11
78.4466488702
 21
121.3553647127
  0
LINE
  5
242
100
AcDbEntity
  8
0
100
AcDbLine
 62
7
  6
CONTINUOUS
 10
82.9364584953
 20
134.0042585664
 11
82.6063575268
 21
134.0042585664
  0
LINE
  5
243
100
AcDbEntity
  8
0
100
AcDbLine
 62
7
  6
CONTINUOUS
 10
82.9601498034
 20
134.1290902799
 11
82.6063575268
 21
134.1290902799
  0
LINE
  5
244
100
AcDbEntity
  8
0
100
AcDbLine
 62
7
  6
CONTINUOUS
 10
82.9907253309
 20
134.3066945812
 11
82.6063575268
 21
134.3066945812
  0
LINE
  5
245
100
AcDbEntity
  8
0
100
AcDbLine
 62
7
  6
CONTINUOUS
 10
83.0137455384
 20
134.4569479832
 11
82.6063575268
 21
134.4569479832
  0
LINE
  5
246
100
AcDbEntity
  8
0
100
AcDbLine
 62
7
  6
CONTINUOUS
 10
83.0306504892
 20
134.5798505189
 11
82.6063575268
 21
134.5798505189
  0
LINE
  5
247
100
AcDbEntity
  8
0
100
AcDbLine
 62
7
  6
CONTINUOUS
 10
83.0586729674
 20
134.8195230983
 11
82.6063575268
 21
134.8195230983
  0
LINE
  5
248
100
AcDbEntity
  8
0
100
AcDbLine
 62
7
  6
CONTINUOUS
 10
83.0706960164
 20
134.9443548009
 11
82.6063575268
 21
134.9443548009
  0
LINE
  5
249
100
AcDbEntity
  8
0
100
AcDbLine
 62
7
  6
CONTINUOUS
 10
83.0936376131
 20
135.2664249268
 11
82.6063575268
 21
135.2664249268
  0
LINE
  5
24A
100
AcDbEntity
  8
0
100
AcDbLine
 62
7
  6
CONTINUOUS
 10
83.1034522264
 20
135.5160884195
 11
82.6063575268
 21
135.5160884195
  0
LINE
  5
24B
100
AcDbEntity
  8
0
100
AcDbLine
 62
7
  6
CONTINUOUS
 10
83.1059815261
 20
135.6624847842
 11
82.6063575268
 21
135.6624847842
  0
LINE
  5
24C
100
AcDbEntity
  8
0
100
AcDbLine
 62
7
  6
CONTINUOUS
 10
83.1063575268
 20
135.8105177331
 11
82.6063575268
 21
135.8105177331
  0
LINE
  5
24D
100
AcDbEntity
  8
0
100
AcDbLine
 62
7
  6
CONTINUOUS
 10
83.1063575268
 20
136.0054904063
 11
82.6063575268
 21
136.0054904063
  0
LINE
  5
24E
100
AcDbEntity
  8
0
100
AcDbLine
 62
7
  6
CONTINUOUS
 10
83.1063575268
 20
136.254371388
 11
82.6063575268
 21
136.254371388
  0
LINE
  5
24F
100
AcDbEntity
  8
0
100
AcDbLine
 62
7
  6
CONTINUOUS
 10
83.1063575268
 20
136.3049980911
 11
82.6063575268
 21
136.3049980911
  0
LINE
  5
250
100
AcDbEntity
  8
0
100
AcDbLine
 62
7
  6
CONTINUOUS
 10
83.1063575268
 20
136.4460624558
 11
82.6063575268
 21
136.4460624558
  0
LINE
  5
251
100
AcDbEntity
  8
0
100
AcDbLine
 62
7
  6
CONTINUOUS
 10
83.1063575268
 20
136.6790720714
 11
82.6063575268
 21
136.6790720714
  0
LINE
  5
252
100
AcDbEntity
  8
0
100
AcDbLine
 62
7
  6
CONTINUOUS
 10
83.1063575268
 20
136.9279530531
 11
82.6063575268
 21
136.9279530531
  0
LINE
  5
253
100
AcDbEntity
  8
0
100
AcDbLine
 62
7
  6
CONTINUOUS
 10
83.1063575268
 20
137.10076015
 11
82.6063575268
 21
137.10076015
  0
LINE
  5
254
100
AcDbEntity
  8
0
100
AcDbLine
 62
7
  6
CONTINUOUS
 10
83.1063575268
 20
137.2085755333
 11
82.6063575268
 21
137.2085755333
  0
LINE
  5
255
100
AcDbEntity
  8
0
100
AcDbLine
 62
7
  6
CONTINUOUS
 10
83.1063575268
 20
137.3053087453
 11
82.6063575268
 21
137.3053087453
  0
LINE
  5
256
100
AcDbEntity
  8
0
100
AcDbLine
 62
7
  6
CONTINUOUS
 10
83.1063575268
 20
137.3259668387
 11
82.6063575268
 21
137.3259668387
  0
LINE
  5
257
100
AcDbEntity
  8
0
100
AcDbLine
 62
7
  6
CONTINUOUS
 10
83.1063575268
 20
137.4318837829
 11
82.6063575268
 21
137.4318837829
  0
LINE
  5
258
100
AcDbEntity
  8
0
100
AcDbLine
 62
7
  6
CONTINUOUS
 10
83.1063575268
 20
137.8634162478
 11
82.6063575268
 21
137.8634162478
  0
LINE
  5
259
100
AcDbEntity
  8
BEZUGSACHSEN
100
AcDbLine
 62
7
  6
CONTINUOUS
 10
90.1063575268
 20
144.2430246275
 11
90.1063575268
 21
140.2149159143
  0
LINE
  5
25A
100
AcDbEntity
  8
RUNDUNGEN
100
AcDbLine
 62
7
  6
CONTINUOUS
 10
90.1063575268
 20
144.2430246275
 11
90.1063575268
 21
135.7448845084
  0
LINE
  5
25B
100
AcDbEntity
  8
0
100
AcDbLine
 62
7
  6
CONTINUOUS
 10
83.1063575268
 20
138.1253127757
 11
82.6063575268
 21
138.1253127757
  0
LINE
  5
25C
100
AcDbEntity
  8
0
100
AcDbLine
 62
7
  6
CONTINUOUS
 10
83.1063575268
 20
138.2913123205
 11
82.6063575268
 21
138.2913123205
  0
LINE
  5
25D
100
AcDbEntity
  8
0
100
AcDbLine
 62
7
  6
CONTINUOUS
 10
83.1063575268
 20
138.5274160522
 11
82.6063575268
 21
138.5274160522
  0
LINE
  5
25E
100
AcDbEntity
  8
0
100
AcDbLine
 62
7
  6
CONTINUOUS
 10
83.1063575268
 20
138.7377269876
 11
82.6063575268
 21
138.7377269876
  0
LINE
  5
25F
100
AcDbEntity
  8
0
100
AcDbLine
 62
7
  6
CONTINUOUS
 10
83.1063575268
 20
138.992348434
 11
82.6063575268
 21
138.992348434
  0
LINE
  5
260
100
AcDbEntity
  8
0
100
AcDbLine
 62
7
  6
CONTINUOUS
 10
83.1063575268
 20
139.1732300466
 11
82.6063575268
 21
139.1732300466
  0
LINE
  5
261
100
AcDbEntity
  8
0
100
AcDbLine
 62
7
  6
CONTINUOUS
 10
83.1063575268
 20
139.258215556
 11
82.6063575268
 21
139.258215556
  0
LINE
  5
262
100
AcDbEntity
  8
0
100
AcDbLine
 62
7
  6
CONTINUOUS
 10
83.1063575268
 20
141.0891545117
 11
82.6063575268
 21
141.0891545117
  0
LINE
  5
263
100
AcDbEntity
  8
0
100
AcDbLine
 62
7
  6
CONTINUOUS
 10
83.1063575268
 20
141.1685848393
 11
82.6063575268
 21
141.1685848393
  0
LINE
  5
264
100
AcDbEntity
  8
0
100
AcDbLine
 62
7
  6
CONTINUOUS
 10
83.1063575268
 20
141.5392594995
 11
82.6063575268
 21
141.5392594995
  0
LINE
  5
265
100
AcDbEntity
  8
0
100
AcDbLine
 62
7
  6
CONTINUOUS
 10
83.1063575268
 20
141.6186898272
 11
82.6063575268
 21
141.6186898272
  0
LINE
  5
266
100
AcDbEntity
  8
0
100
AcDbLine
 62
7
  6
CONTINUOUS
 10
83.1063575268
 20
141.6690540382
 11
82.6063575268
 21
141.6690540382
  0
LINE
  5
267
100
AcDbEntity
  8
0
100
AcDbLine
 62
7
  6
CONTINUOUS
 10
83.1063575268
 20
141.9435986267
 11
82.6063575268
 21
141.9435986267
  0
LINE
  5
268
100
AcDbEntity
  8
0
100
AcDbLine
 62
7
  6
CONTINUOUS
 10
83.1063575268
 20
142.0923708333
 11
82.6063575268
 21
142.0923708333
  0
LINE
  5
269
100
AcDbEntity
  8
0
100
AcDbLine
 62
7
  6
CONTINUOUS
 10
83.1063575268
 20
142.1840067064
 11
82.6063575268
 21
142.1840067064
  0
LINE
  5
26A
100
AcDbEntity
  8
0
100
AcDbLine
 62
7
  6
CONTINUOUS
 10
83.1063575268
 20
142.2357562131
 11
82.6063575268
 21
142.2357562131
  0
LINE
  5
26B
100
AcDbEntity
  8
0
100
AcDbLine
 62
7
  6
CONTINUOUS
 10
83.1063575268
 20
142.3356786636
 11
82.6063575268
 21
142.3356786636
  0
LINE
  5
26C
100
AcDbEntity
  8
0
100
AcDbLine
 62
7
  6
CONTINUOUS
 10
83.1063575268
 20
142.4024792446
 11
82.6063575268
 21
142.4024792446
  0
LINE
  5
26D
100
AcDbEntity
  8
0
100
AcDbLine
 62
7
  6
CONTINUOUS
 10
83.1063575268
 20
142.4167873817
 11
82.6063575268
 21
142.4167873817
  0
LINE
  5
26E
100
AcDbEntity
  8
RUNDUNGEN
100
AcDbLine
 62
7
  6
CONTINUOUS
 10
90.6491753751
 20
132.666429247
 11
94.7660661834
 21
121.3553647127
  0
LINE
  5
26F
100
AcDbEntity
  8
0
100
AcDbLine
 62
7
  6
CONTINUOUS
 10
92.6063575268
 20
88.9078090281
 11
92.6063575268
 21
68.9078090281
  0
LINE
  5
270
100
AcDbEntity
  8
FASEN
100
AcDbLine
 62
7
  6
CONTINUOUS
 10
69.2512622374
 20
114.4078090281
 11
68.8352490467
 21
114.0587325131
  0
LINE
  5
271
100
AcDbEntity
  8
RUNDUNGEN
100
AcDbLine
 62
7
  6
CONTINUOUS
 10
89.1671510845
 20
146.0782364163
 11
89.1669695025
 21
146.0782349097
  0
LINE
  5
272
100
AcDbEntity
  8
RUNDUNGEN
100
AcDbLine
 62
7
  6
CONTINUOUS
 10
89.1671086804
 20
146.0782402269
 11
84.0456063732
 21
146.0782402269
  0
LINE
  5
273
100
AcDbEntity
  8
RUNDUNGEN
100
AcDbLine
 62
7
  6
CONTINUOUS
 10
84.0457455511
 20
146.0782349097
 11
84.0455639691
 21
146.0782364163
  0
LINE
  5
274
100
AcDbEntity
  8
BEZUGSACHSEN
100
AcDbLine
 62
7
  6
CONTINUOUS
 10
102.1063575268
 20
118.4078090281
 11
102.1063575268
 21
116.4078090281
  0
LINE
  5
275
100
AcDbEntity
  8
BEZUGSACHSEN
100
AcDbLine
 62
7
  6
CONTINUOUS
 10
104.548276905
 20
113.9154051515
 11
104.60127671
 21
113.614828321
  0
LWPOLYLINE
  5
276
100
AcDbEntity
  8
RUNDUNGEN
100
AcDbPolyline
 62
7
  6
CONTINUOUS
 90
4
 70
0
 10
104.6063575268
 20
113.542268423
 10
104.6054039147
 20
113.5731342796
 10
104.6024412987
 20
113.6047254792
 10
104.6009236217
 20
113.6147749976
  0
LINE
  5
277
100
AcDbEntity
  8
BEZUGSACHSEN
100
AcDbLine
 62
7
  6
CONTINUOUS
 10
102.6063575268
 20
116.4078090281
 11
102.6063575268
 21
114.4078090281
  0
LINE
  5
278
100
AcDbEntity
  8
KONSTRUKTIONSELEMENTE
100
AcDbLine
 62
7
  6
CONTINUOUS
 10
104.1063575268
 20
153.4078090281
 11
104.1063575268
 21
178.4078090281
  0
LINE
  5
279
100
AcDbEntity
  8
0
100
AcDbLine
 62
7
  6
CONTINUOUS
 10
104.113399082
 20
99.3742000563
 11
104.113399082
 21
88.9078090281
  0
LINE
  5
27A
100
AcDbEntity
  8
RUNDUNGEN
100
AcDbLine
 62
7
  6
CONTINUOUS
 10
104.6063575268
 20
113.5426427772
 11
104.6063575268
 21
88.9078090281
  0
LINE
  5
27B
100
AcDbEntity
  8
KONSTRUKTIONSELEMENTE
100
AcDbLine
 62
7
  6
CONTINUOUS
 10
114.9063575268
 20
153.4078090281
 11
114.9063575268
 21
178.4078090281
  0
LINE
  5
27C
100
AcDbEntity
  8
0
100
AcDbLine
 62
7
  6
CONTINUOUS
 10
92.6063575268
 20
68.9078090281
 11
91.6063575268
 21
67.9078090281
  0
LINE
  5
27D
100
AcDbEntity
  8
0
100
AcDbLine
 62
7
  6
CONTINUOUS
 10
179.7475432095
 20
67.9078090281
 11
169.7475432095
 21
67.9078090281
  0
LINE
  5
27E
100
AcDbEntity
  8
0
100
AcDbLine
 62
7
  6
CONTINUOUS
 10
180.7475432095
 20
68.9078090281
 11
168.7475432095
 21
68.9078090281
  0
LINE
  5
27F
100
AcDbEntity
  8
0
100
AcDbLine
 62
7
  6
CONTINUOUS
 10
168.7475432095
 20
68.9078090281
 11
169.7475432095
 21
67.9078090281
  0
LINE
  5
280
100
AcDbEntity
  8
0
100
AcDbLine
 62
7
  6
CONTINUOUS
 10
195.2475432095
 20
88.9078090281
 11
154.2475432095
 21
88.9078090281
  0
LINE
  5
281
100
AcDbEntity
  8
RUNDUNGEN
100
AcDbLine
 62
7
  6
CONTINUOUS
 10
169.9975432095
 20
90.9078090281
 11
179.4975432095
 21
90.9078090281
  0
LINE
  5
282
100
AcDbEntity
  8
KONSTRUKTIONSELEMENTE
100
AcDbLine
 62
7
  6
CONTINUOUS
 10
171.0725430664
 20
91.6278090281
 11
171.4662930664
 21
91.6278090281
  0
LINE
  5
283
100
AcDbEntity
  8
KONSTRUKTIONSELEMENTE
100
AcDbLine
 62
7
  6
CONTINUOUS
 10
172.3850430352
 20
91.6278090281
 11
172.9100430039
 21
91.6278090281
  0
LINE
  5
284
100
AcDbEntity
  8
KONSTRUKTIONSELEMENTE
100
AcDbLine
 62
7
  6
CONTINUOUS
 10
173.8287930664
 20
91.6278090281
 11
174.2225430664
 21
91.6278090281
  0
LINE
  5
285
100
AcDbEntity
  8
KONSTRUKTIONSELEMENTE
100
AcDbLine
 62
7
  6
CONTINUOUS
 10
175.1412929413
 20
91.6278090281
 11
175.5350429413
 21
91.6278090281
  0
LINE
  5
286
100
AcDbEntity
  8
KONSTRUKTIONSELEMENTE
100
AcDbLine
 62
7
  6
CONTINUOUS
 10
176.0600431916
 20
91.6278090281
 11
178.4225428161
 21
91.6278090281
  0
LINE
  5
287
100
AcDbEntity
  8
KONSTRUKTIONSELEMENTE
100
AcDbLine
 62
7
  6
CONTINUOUS
 10
178.4225428161
 20
92.0001494614
 11
176.5850430664
 21
92.0001494614
  0
LINE
  5
288
100
AcDbEntity
  8
KONSTRUKTIONSELEMENTE
100
AcDbLine
 62
7
  6
CONTINUOUS
 10
176.1256679413
 20
94.3086601895
 11
176.4537931916
 21
94.3086601895
  0
LINE
  5
289
100
AcDbEntity
  8
KONSTRUKTIONSELEMENTE
100
AcDbLine
 62
7
  6
CONTINUOUS
 10
176.7787932095
 20
96.0378090281
 11
177.0287929711
 21
96.1016388133
  0
LINE
  5
28A
100
AcDbEntity
  8
KONSTRUKTIONSELEMENTE
100
AcDbLine
 62
7
  6
CONTINUOUS
 10
170.7162932691
 20
96.4846175301
 11
170.4662932393
 21
96.4207877505
  0
LINE
  5
28B
100
AcDbEntity
  8
KONSTRUKTIONSELEMENTE
100
AcDbLine
 62
7
  6
CONTINUOUS
 10
176.7819180664
 20
94.6810005707
 11
177.1100429413
 21
94.7554686469
  0
LINE
  5
28C
100
AcDbEntity
  8
KONSTRUKTIONSELEMENTE
100
AcDbLine
 62
7
  6
CONTINUOUS
 10
179.4662929711
 20
96.0378090281
 11
179.7787932095
 21
96.1016388133
  0
LINE
  5
28D
100
AcDbEntity
  8
KONSTRUKTIONSELEMENTE
100
AcDbLine
 62
7
  6
CONTINUOUS
 10
177.0287929711
 20
96.4207877505
 11
176.7162934479
 21
96.3569579709
  0
LINE
  5
28E
100
AcDbEntity
  8
KONSTRUKTIONSELEMENTE
100
AcDbLine
 62
7
  6
CONTINUOUS
 10
170.4662932393
 20
96.0378090281
 11
170.7787932095
 21
96.1016388133
  0
LINE
  5
28F
100
AcDbEntity
  8
KONSTRUKTIONSELEMENTE
100
AcDbLine
 62
7
  6
CONTINUOUS
 10
179.1537934479
 20
97.9527025956
 11
178.8412932095
 21
97.888872816
  0
LINE
  5
290
100
AcDbEntity
  8
KONSTRUKTIONSELEMENTE
100
AcDbLine
 62
7
  6
CONTINUOUS
 10
179.1537934479
 20
99.0378090281
 11
178.8412932095
 21
98.9739792484
  0
LINE
  5
291
100
AcDbEntity
  8
KONSTRUKTIONSELEMENTE
100
AcDbLine
 62
7
  6
CONTINUOUS
 10
176.0912929711
 20
98.6548303503
 11
176.4037932095
 21
98.7186601299
  0
LINE
  5
292
100
AcDbEntity
  8
KONSTRUKTIONSELEMENTE
100
AcDbLine
 62
7
  6
CONTINUOUS
 10
177.1756680664
 20
95.1278090281
 11
176.7162929413
 21
95.0533409518
  0
LINE
  5
293
100
AcDbEntity
  8
KONSTRUKTIONSELEMENTE
100
AcDbLine
 62
7
  6
CONTINUOUS
 10
176.4662929711
 20
99.0378090281
 11
176.0287932095
 21
98.9739792484
  0
LINE
  5
294
100
AcDbEntity
  8
KONSTRUKTIONSELEMENTE
100
AcDbLine
 62
7
  6
CONTINUOUS
 10
177.1100429413
 20
94.7554686469
 11
177.3725430664
 21
94.7554686469
  0
LINE
  5
295
100
AcDbEntity
  8
KONSTRUKTIONSELEMENTE
100
AcDbLine
 62
7
  6
CONTINUOUS
 10
177.4381678161
 20
95.1278090281
 11
177.1756680664
 21
95.1278090281
  0
LINE
  5
296
100
AcDbEntity
  8
KONSTRUKTIONSELEMENTE
100
AcDbLine
 62
7
  6
CONTINUOUS
 10
175.5350429413
 20
95.1278090281
 11
175.1412929413
 21
95.1278090281
  0
LINE
  5
297
100
AcDbEntity
  8
KONSTRUKTIONSELEMENTE
100
AcDbLine
 62
7
  6
CONTINUOUS
 10
174.2225430664
 20
95.1278090281
 11
173.6319180664
 21
95.1278090281
  0
LINE
  5
298
100
AcDbEntity
  8
KONSTRUKTIONSELEMENTE
100
AcDbLine
 62
7
  6
CONTINUOUS
 10
171.6631680664
 20
95.1278090281
 11
171.0725430664
 21
95.1278090281
  0
LINE
  5
299
100
AcDbEntity
  8
KONSTRUKTIONSELEMENTE
100
AcDbLine
 62
7
  6
CONTINUOUS
 10
169.9662931797
 20
96.0378090281
 11
170.4662932393
 21
96.0378090281
  0
LINE
  5
29A
100
AcDbEntity
  8
KONSTRUKTIONSELEMENTE
100
AcDbLine
 62
7
  6
CONTINUOUS
 10
172.4037930903
 20
96.0378090281
 11
172.9037933287
 21
96.0378090281
  0
LINE
  5
29B
100
AcDbEntity
  8
KONSTRUKTIONSELEMENTE
100
AcDbLine
 62
7
  6
CONTINUOUS
 10
173.9037930903
 20
96.0378090281
 11
174.4037933287
 21
96.0378090281
  0
LINE
  5
29C
100
AcDbEntity
  8
KONSTRUKTIONSELEMENTE
100
AcDbLine
 62
7
  6
CONTINUOUS
 10
176.2787929711
 20
96.0378090281
 11
176.7787932095
 21
96.0378090281
  0
LINE
  5
29D
100
AcDbEntity
  8
KONSTRUKTIONSELEMENTE
100
AcDbLine
 62
7
  6
CONTINUOUS
 10
179.1537934479
 20
96.0378090281
 11
179.4662929711
 21
96.0378090281
  0
LINE
  5
29E
100
AcDbEntity
  8
KONSTRUKTIONSELEMENTE
100
AcDbLine
 62
7
  6
CONTINUOUS
 10
179.5287934479
 20
96.3569579709
 11
179.0912929711
 21
96.3569579709
  0
LINE
  5
29F
100
AcDbEntity
  8
KONSTRUKTIONSELEMENTE
100
AcDbLine
 62
7
  6
CONTINUOUS
 10
176.7162934479
 20
96.3569579709
 11
176.3412934479
 21
96.3569579709
  0
LINE
  5
2A0
100
AcDbEntity
  8
KONSTRUKTIONSELEMENTE
100
AcDbLine
 62
7
  6
CONTINUOUS
 10
170.4662932393
 20
96.4207877505
 11
169.9662931797
 21
96.4207877505
  0
LINE
  5
2A1
100
AcDbEntity
  8
KONSTRUKTIONSELEMENTE
100
AcDbLine
 62
7
  6
CONTINUOUS
 10
175.7162929711
 20
96.7399366933
 11
175.4037934479
 21
96.7399366933
  0
LINE
  5
2A2
100
AcDbEntity
  8
KONSTRUKTIONSELEMENTE
100
AcDbLine
 62
7
  6
CONTINUOUS
 10
169.4662932095
 20
96.8675962526
 11
169.0912932095
 21
96.8675962526
  0
LINE
  5
2A3
100
AcDbEntity
  8
KONSTRUKTIONSELEMENTE
100
AcDbLine
 62
7
  6
CONTINUOUS
 10
170.0912932393
 20
97.378234579
 11
170.4662932393
 21
97.378234579
  0
LINE
  5
2A4
100
AcDbEntity
  8
KONSTRUKTIONSELEMENTE
100
AcDbLine
 62
7
  6
CONTINUOUS
 10
176.4037932095
 20
97.4420643586
 11
176.6537929711
 21
97.4420643586
  0
LINE
  5
2A5
100
AcDbEntity
  8
KONSTRUKTIONSELEMENTE
100
AcDbLine
 62
7
  6
CONTINUOUS
 10
179.0912929711
 20
97.6335536975
 11
179.5287934479
 21
97.6335536975
  0
LINE
  5
2A6
100
AcDbEntity
  8
KONSTRUKTIONSELEMENTE
100
AcDbLine
 62
7
  6
CONTINUOUS
 10
176.6537929711
 20
97.6973834771
 11
176.4037932095
 21
97.6973834771
  0
LINE
  5
2A7
100
AcDbEntity
  8
KONSTRUKTIONSELEMENTE
100
AcDbLine
 62
7
  6
CONTINUOUS
 10
170.4662932393
 20
97.7612132567
 11
170.0912932393
 21
97.7612132567
  0
LINE
  5
2A8
100
AcDbEntity
  8
KONSTRUKTIONSELEMENTE
100
AcDbLine
 62
7
  6
CONTINUOUS
 10
179.4662929711
 20
97.9527025956
 11
179.1537934479
 21
97.9527025956
  0
LINE
  5
2A9
100
AcDbEntity
  8
KONSTRUKTIONSELEMENTE
100
AcDbLine
 62
7
  6
CONTINUOUS
 10
170.8412931499
 20
98.3356814522
 11
171.2162931499
 21
98.3356814522
  0
LINE
  5
2AA
100
AcDbEntity
  8
KONSTRUKTIONSELEMENTE
100
AcDbLine
 62
7
  6
CONTINUOUS
 10
175.4662932095
 20
98.3356814522
 11
175.7787934479
 21
98.3356814522
  0
LINE
  5
2AB
100
AcDbEntity
  8
KONSTRUKTIONSELEMENTE
100
AcDbLine
 62
7
  6
CONTINUOUS
 10
179.9662932095
 20
98.3356814522
 11
180.2787934479
 21
98.3356814522
  0
LINE
  5
2AC
100
AcDbEntity
  8
KONSTRUKTIONSELEMENTE
100
AcDbLine
 62
7
  6
CONTINUOUS
 10
170.0912932393
 20
98.6548303503
 11
170.4662932393
 21
98.6548303503
  0
LINE
  5
2AD
100
AcDbEntity
  8
KONSTRUKTIONSELEMENTE
100
AcDbLine
 62
7
  6
CONTINUOUS
 10
176.4037932095
 20
98.7186601299
 11
176.6537929711
 21
98.7186601299
  0
LINE
  5
2AE
100
AcDbEntity
  8
KONSTRUKTIONSELEMENTE
100
AcDbLine
 62
7
  6
CONTINUOUS
 10
179.0912929711
 20
98.7186601299
 11
179.4662929711
 21
98.7186601299
  0
LINE
  5
2AF
100
AcDbEntity
  8
KONSTRUKTIONSELEMENTE
100
AcDbLine
 62
7
  6
CONTINUOUS
 10
179.4037932095
 20
99.0378090281
 11
179.1537934479
 21
99.0378090281
  0
LINE
  5
2B0
100
AcDbEntity
  8
KONSTRUKTIONSELEMENTE
100
AcDbLine
 62
7
  6
CONTINUOUS
 10
176.5912932095
 20
99.0378090281
 11
176.4662929711
 21
99.0378090281
  0
LINE
  5
2B1
100
AcDbEntity
  8
KONSTRUKTIONSELEMENTE
100
AcDbLine
 62
7
  6
CONTINUOUS
 10
174.9037932095
 20
99.0378090281
 11
174.5287932095
 21
99.0378090281
  0
LINE
  5
2B2
100
AcDbEntity
  8
KONSTRUKTIONSELEMENTE
100
AcDbLine
 62
7
  6
CONTINUOUS
 10
173.6537933287
 20
99.0378090281
 11
173.1537930903
 21
99.0378090281
  0
LINE
  5
2B3
100
AcDbEntity
  8
KONSTRUKTIONSELEMENTE
100
AcDbLine
 62
7
  6
CONTINUOUS
 10
172.2787932095
 20
99.0378090281
 11
171.9037932095
 21
99.0378090281
  0
LINE
  5
2B4
100
AcDbEntity
  8
KONSTRUKTIONSELEMENTE
100
AcDbLine
 62
7
  6
CONTINUOUS
 10
170.4037932095
 20
99.0378090281
 11
170.0912932393
 21
99.0378090281
  0
LINE
  5
2B5
100
AcDbEntity
  8
KONSTRUKTIONSELEMENTE
100
AcDbLine
 62
7
  6
CONTINUOUS
 10
176.6537929711
 20
97.4420643586
 11
177.0287929711
 21
97.378234579
  0
LINE
  5
2B6
100
AcDbEntity
  8
KONSTRUKTIONSELEMENTE
100
AcDbLine
 62
7
  6
CONTINUOUS
 10
177.8319178161
 20
95.0533409518
 11
177.4381678161
 21
95.1278090281
  0
LINE
  5
2B7
100
AcDbEntity
  8
KONSTRUKTIONSELEMENTE
100
AcDbLine
 62
7
  6
CONTINUOUS
 10
169.6537932095
 20
96.1016388133
 11
169.9662931797
 21
96.0378090281
  0
LINE
  5
2B8
100
AcDbEntity
  8
KONSTRUKTIONSELEMENTE
100
AcDbLine
 62
7
  6
CONTINUOUS
 10
176.3412934479
 20
96.3569579709
 11
176.0287932095
 21
96.4207877505
  0
LINE
  5
2B9
100
AcDbEntity
  8
KONSTRUKTIONSELEMENTE
100
AcDbLine
 62
7
  6
CONTINUOUS
 10
170.7787932095
 20
97.6973834771
 11
170.4662932393
 21
97.7612132567
  0
LINE
  5
2BA
100
AcDbEntity
  8
KONSTRUKTIONSELEMENTE
100
AcDbLine
 62
7
  6
CONTINUOUS
 10
178.8412932095
 20
96.1016388133
 11
179.1537934479
 21
96.0378090281
  0
LINE
  5
2BB
100
AcDbEntity
  8
KONSTRUKTIONSELEMENTE
100
AcDbLine
 62
7
  6
CONTINUOUS
 10
170.7162932691
 20
98.9739792484
 11
170.4037932095
 21
99.0378090281
  0
LINE
  5
2BC
100
AcDbEntity
  8
KONSTRUKTIONSELEMENTE
100
AcDbLine
 62
7
  6
CONTINUOUS
 10
177.3725430664
 20
94.7554686469
 11
177.7006683168
 21
94.6810005707
  0
LINE
  5
2BD
100
AcDbEntity
  8
KONSTRUKTIONSELEMENTE
100
AcDbLine
 62
7
  6
CONTINUOUS
 10
169.9662931797
 20
96.4207877505
 11
169.7162931946
 21
96.4846175301
  0
LINE
  5
2BE
100
AcDbEntity
  8
KONSTRUKTIONSELEMENTE
100
AcDbLine
 62
7
  6
CONTINUOUS
 10
169.8412932095
 20
97.4420643586
 11
170.0912932393
 21
97.378234579
  0
LINE
  5
2BF
100
AcDbEntity
  8
KONSTRUKTIONSELEMENTE
100
AcDbLine
 62
7
  6
CONTINUOUS
 10
170.4662932393
 20
97.378234579
 11
170.7162932691
 21
97.3144047994
  0
LINE
  5
2C0
100
AcDbEntity
  8
KONSTRUKTIONSELEMENTE
100
AcDbLine
 62
7
  6
CONTINUOUS
 10
176.0287932095
 20
96.1016388133
 11
176.2787929711
 21
96.0378090281
  0
LINE
  5
2C1
100
AcDbEntity
  8
KONSTRUKTIONSELEMENTE
100
AcDbLine
 62
7
  6
CONTINUOUS
 10
170.0912932393
 20
97.7612132567
 11
169.9037932393
 21
97.8250430364
  0
LINE
  5
2C2
100
AcDbEntity
  8
KONSTRUKTIONSELEMENTE
100
AcDbLine
 62
7
  6
CONTINUOUS
 10
170.4662932393
 20
98.6548303503
 11
170.6537931499
 21
98.5910005707
  0
LINE
  5
2C3
100
AcDbEntity
  8
KONSTRUKTIONSELEMENTE
100
AcDbLine
 62
7
  6
CONTINUOUS
 10
170.0912932393
 20
99.0378090281
 11
169.8412932095
 21
98.9739792484
  0
LINE
  5
2C4
100
AcDbEntity
  8
RUNDUNGEN
100
AcDbLine
 62
7
  6
CONTINUOUS
 10
168.8475432095
 20
99.9078090281
 11
180.6475432095
 21
99.9078090281
  0
LINE
  5
2C5
100
AcDbEntity
  8
KONSTRUKTIONSELEMENTE
100
AcDbLine
 62
7
  6
CONTINUOUS
 10
177.0287929711
 20
98.9739792484
 11
176.5912932095
 21
99.0378090281
  0
LINE
  5
2C6
100
AcDbEntity
  8
KONSTRUKTIONSELEMENTE
100
AcDbLine
 62
7
  6
CONTINUOUS
 10
179.7787932095
 20
97.888872816
 11
179.4662929711
 21
97.9527025956
  0
LINE
  5
2C7
100
AcDbEntity
  8
KONSTRUKTIONSELEMENTE
100
AcDbLine
 62
7
  6
CONTINUOUS
 10
176.6537929711
 20
98.7186601299
 11
176.9662932095
 21
98.6548303503
  0
LINE
  5
2C8
100
AcDbEntity
  8
KONSTRUKTIONSELEMENTE
100
AcDbLine
 62
7
  6
CONTINUOUS
 10
179.7162934479
 20
98.9739792484
 11
179.4037932095
 21
99.0378090281
  0
LINE
  5
2C9
100
AcDbEntity
  8
KONSTRUKTIONSELEMENTE
100
AcDbLine
 62
7
  6
CONTINUOUS
 10
179.0912929711
 20
96.3569579709
 11
178.9037929711
 21
96.4207877505
  0
LINE
  5
2CA
100
AcDbEntity
  8
KONSTRUKTIONSELEMENTE
100
AcDbLine
 62
7
  6
CONTINUOUS
 10
179.5287934479
 20
97.6335536975
 11
179.7162934479
 21
97.5697239179
  0
LINE
  5
2CB
100
AcDbEntity
  8
KONSTRUKTIONSELEMENTE
100
AcDbLine
 62
7
  6
CONTINUOUS
 10
179.4662929711
 20
98.7186601299
 11
179.6537929711
 21
98.6548303503
  0
LINE
  5
2CC
100
AcDbEntity
  8
KONSTRUKTIONSELEMENTE
100
AcDbLine
 62
7
  6
CONTINUOUS
 10
177.4662934479
 20
97.4420643586
 11
177.1537932095
 21
97.5697239179
  0
LINE
  5
2CD
100
AcDbEntity
  8
KONSTRUKTIONSELEMENTE
100
AcDbLine
 62
7
  6
CONTINUOUS
 10
169.5912932244
 20
97.5697239179
 11
169.8412932095
 21
97.4420643586
  0
LINE
  5
2CE
100
AcDbEntity
  8
KONSTRUKTIONSELEMENTE
100
AcDbLine
 62
7
  6
CONTINUOUS
 10
171.0287931499
 20
97.5697239179
 11
170.7787932095
 21
97.6973834771
  0
LINE
  5
2CF
100
AcDbEntity
  8
KONSTRUKTIONSELEMENTE
100
AcDbLine
 62
7
  6
CONTINUOUS
 10
175.7787934479
 20
96.2292983893
 11
176.0287932095
 21
96.1016388133
  0
LINE
  5
2D0
100
AcDbEntity
  8
KONSTRUKTIONSELEMENTE
100
AcDbLine
 62
7
  6
CONTINUOUS
 10
176.0287932095
 20
96.4207877505
 11
175.9037929711
 21
96.4846175301
  0
LINE
  5
2D1
100
AcDbEntity
  8
KONSTRUKTIONSELEMENTE
100
AcDbLine
 62
7
  6
CONTINUOUS
 10
178.0944183168
 20
94.9044047994
 11
177.8319178161
 21
95.0533409518
  0
LINE
  5
2D2
100
AcDbEntity
  8
KONSTRUKTIONSELEMENTE
100
AcDbLine
 62
7
  6
CONTINUOUS
 10
169.3412932169
 20
96.2931281689
 11
169.6537932095
 21
96.1016388133
  0
LINE
  5
2D3
100
AcDbEntity
  8
KONSTRUKTIONSELEMENTE
100
AcDbLine
 62
7
  6
CONTINUOUS
 10
169.9037932393
 20
97.8250430364
 11
169.7162931946
 21
97.9527025956
  0
LINE
  5
2D4
100
AcDbEntity
  8
KONSTRUKTIONSELEMENTE
100
AcDbLine
 62
7
  6
CONTINUOUS
 10
170.7162932691
 20
97.3144047994
 11
170.9037932691
 21
97.1867452401
  0
LINE
  5
2D5
100
AcDbEntity
  8
KONSTRUKTIONSELEMENTE
100
AcDbLine
 62
7
  6
CONTINUOUS
 10
175.5912934479
 20
96.3569579709
 11
175.7787934479
 21
96.2292983893
  0
LINE
  5
2D6
100
AcDbEntity
  8
KONSTRUKTIONSELEMENTE
100
AcDbLine
 62
7
  6
CONTINUOUS
 10
177.2787934479
 20
98.8463196892
 11
177.0287929711
 21
98.9739792484
  0
LINE
  5
2D7
100
AcDbEntity
  8
KONSTRUKTIONSELEMENTE
100
AcDbLine
 62
7
  6
CONTINUOUS
 10
178.5287929711
 20
96.2931281689
 11
178.8412932095
 21
96.1016388133
  0
LINE
  5
2D8
100
AcDbEntity
  8
KONSTRUKTIONSELEMENTE
100
AcDbLine
 62
7
  6
CONTINUOUS
 10
180.0912934479
 20
97.6973834771
 11
179.7787932095
 21
97.888872816
  0
LINE
  5
2D9
100
AcDbEntity
  8
KONSTRUKTIONSELEMENTE
100
AcDbLine
 62
7
  6
CONTINUOUS
 10
180.0287929711
 20
98.7824899096
 11
179.7162934479
 21
98.9739792484
  0
LINE
  5
2DA
100
AcDbEntity
  8
KONSTRUKTIONSELEMENTE
100
AcDbLine
 62
7
  6
CONTINUOUS
 10
177.0287929711
 20
97.378234579
 11
177.2162929711
 21
97.2505750197
  0
LINE
  5
2DB
100
AcDbEntity
  8
KONSTRUKTIONSELEMENTE
100
AcDbLine
 62
7
  6
CONTINUOUS
 10
178.9037929711
 20
96.4207877505
 11
178.7162929711
 21
96.5484473098
  0
LINE
  5
2DC
100
AcDbEntity
  8
KONSTRUKTIONSELEMENTE
100
AcDbLine
 62
7
  6
CONTINUOUS
 10
176.9662932095
 20
98.6548303503
 11
177.1537932095
 21
98.5271707911
  0
LINE
  5
2DD
100
AcDbEntity
  8
KONSTRUKTIONSELEMENTE
100
AcDbLine
 62
7
  6
CONTINUOUS
 10
179.7162934479
 20
97.5697239179
 11
179.9037934479
 21
97.4420643586
  0
LINE
  5
2DE
100
AcDbEntity
  8
KONSTRUKTIONSELEMENTE
100
AcDbLine
 62
7
  6
CONTINUOUS
 10
179.6537929711
 20
98.6548303503
 11
179.8412929711
 21
98.5271707911
  0
LINE
  5
2DF
100
AcDbEntity
  8
KONSTRUKTIONSELEMENTE
100
AcDbLine
 62
7
  6
CONTINUOUS
 10
177.7006683168
 20
94.6810005707
 11
177.8975433168
 21
94.5320644182
  0
LINE
  5
2E0
100
AcDbEntity
  8
KONSTRUKTIONSELEMENTE
100
AcDbLine
 62
7
  6
CONTINUOUS
 10
170.9662932095
 20
98.7824899096
 11
170.7162932691
 21
98.9739792484
  0
LINE
  5
2E1
100
AcDbEntity
  8
KONSTRUKTIONSELEMENTE
100
AcDbLine
 62
7
  6
CONTINUOUS
 10
169.7162931946
 20
96.4846175301
 11
169.5287931946
 21
96.6761069137
  0
LINE
  5
2E2
100
AcDbEntity
  8
KONSTRUKTIONSELEMENTE
100
AcDbLine
 62
7
  6
CONTINUOUS
 10
169.3412932169
 20
97.8250430364
 11
169.5912932244
 21
97.5697239179
  0
LINE
  5
2E3
100
AcDbEntity
  8
KONSTRUKTIONSELEMENTE
100
AcDbLine
 62
7
  6
CONTINUOUS
 10
171.2787932691
 20
97.3144047994
 11
171.0287931499
 21
97.5697239179
  0
LINE
  5
2E4
100
AcDbEntity
  8
KONSTRUKTIONSELEMENTE
100
AcDbLine
 62
7
  6
CONTINUOUS
 10
170.6537931499
 20
98.5910005707
 11
170.7787932095
 21
98.4633410114
  0
LINE
  5
2E5
100
AcDbEntity
  8
KONSTRUKTIONSELEMENTE
100
AcDbLine
 62
7
  6
CONTINUOUS
 10
175.9037929711
 20
96.4846175301
 11
175.7787934479
 21
96.6122771341
  0
LINE
  5
2E6
100
AcDbEntity
  8
KONSTRUKTIONSELEMENTE
100
AcDbLine
 62
7
  6
CONTINUOUS
 10
177.5287932095
 20
98.5910005707
 11
177.2787934479
 21
98.8463196892
  0
LINE
  5
2E7
100
AcDbEntity
  8
KONSTRUKTIONSELEMENTE
100
AcDbLine
 62
7
  6
CONTINUOUS
 10
179.9037934479
 20
97.4420643586
 11
180.0287929711
 21
97.3144047994
  0
LINE
  5
2E8
100
AcDbEntity
  8
KONSTRUKTIONSELEMENTE
100
AcDbLine
 62
7
  6
CONTINUOUS
 10
180.2787934479
 20
97.5058941382
 11
180.0912934479
 21
97.6973834771
  0
LINE
  5
2E9
100
AcDbEntity
  8
KONSTRUKTIONSELEMENTE
100
AcDbLine
 62
7
  6
CONTINUOUS
 10
178.3569180664
 20
94.6065324944
 11
178.0944183168
 21
94.9044047994
  0
LINE
  5
2EA
100
AcDbEntity
  8
KONSTRUKTIONSELEMENTE
100
AcDbLine
 62
7
  6
CONTINUOUS
 10
171.1537932095
 20
98.5271707911
 11
170.9662932095
 21
98.7824899096
  0
LINE
  5
2EB
100
AcDbEntity
  8
KONSTRUKTIONSELEMENTE
100
AcDbLine
 62
7
  6
CONTINUOUS
 10
170.9037932691
 20
97.1867452401
 11
171.0287931499
 21
96.9952558118
  0
LINE
  5
2EC
100
AcDbEntity
  8
KONSTRUKTIONSELEMENTE
100
AcDbLine
 62
7
  6
CONTINUOUS
 10
169.1537932114
 20
96.6122771341
 11
169.3412932169
 21
96.2931281689
  0
LINE
  5
2ED
100
AcDbEntity
  8
0
100
AcDbLine
 62
7
  6
CONTINUOUS
 10
154.2475432095
 20
99.3742000563
 11
154.2475432095
 21
88.9078090281
  0
LINE
  5
2EE
100
AcDbEntity
  8
RUNDUNGEN
100
AcDbLine
 62
7
  6
CONTINUOUS
 10
192.6894625877
 20
113.9154051515
 11
176.2139025332
 21
113.9154051515
  0
LINE
  5
2EF
100
AcDbEntity
  8
RUNDUNGEN
100
AcDbLine
 62
7
  6
CONTINUOUS
 10
173.2811838858
 20
113.9154051515
 11
156.8056238313
 21
113.9154051515
  0
LINE
  5
2F0
100
AcDbEntity
  8
FASEN
100
AcDbLine
 62
7
  6
CONTINUOUS
 10
192.1026384987
 20
114.4078090281
 11
157.3924479203
 21
114.4078090281
  0
LINE
  5
2F1
100
AcDbEntity
  8
BEZUGSACHSEN
100
AcDbLine
 62
7
  6
CONTINUOUS
 10
190.7475432095
 20
116.4078090281
 11
158.7475432095
 21
116.4078090281
  0
LINE
  5
2F2
100
AcDbEntity
  8
KONSTRUKTIONSELEMENTE
100
AcDbLine
 62
7
  6
CONTINUOUS
 10
178.3412929711
 20
96.5484473098
 11
178.5287929711
 21
96.2931281689
  0
LINE
  5
2F3
100
AcDbEntity
  8
KONSTRUKTIONSELEMENTE
100
AcDbLine
 62
7
  6
CONTINUOUS
 10
175.4662932095
 20
96.5484473098
 11
175.5912934479
 21
96.3569579709
  0
LINE
  5
2F4
100
AcDbEntity
  8
KONSTRUKTIONSELEMENTE
100
AcDbLine
 62
7
  6
CONTINUOUS
 10
177.5912929711
 20
97.2505750197
 11
177.4662934479
 21
97.4420643586
  0
LINE
  5
2F5
100
AcDbEntity
  8
KONSTRUKTIONSELEMENTE
100
AcDbLine
 62
7
  6
CONTINUOUS
 10
177.1537932095
 20
98.5271707911
 11
177.2787934479
 21
98.3356814522
  0
LINE
  5
2F6
100
AcDbEntity
  8
KONSTRUKTIONSELEMENTE
100
AcDbLine
 62
7
  6
CONTINUOUS
 10
178.7162929711
 20
96.5484473098
 11
178.5912934479
 21
96.7399366933
  0
LINE
  5
2F7
100
AcDbEntity
  8
KONSTRUKTIONSELEMENTE
100
AcDbLine
 62
7
  6
CONTINUOUS
 10
177.8975433168
 20
94.5320644182
 11
178.0287928161
 21
94.3086601895
  0
LINE
  5
2F8
100
AcDbEntity
  8
KONSTRUKTIONSELEMENTE
100
AcDbLine
 62
7
  6
CONTINUOUS
 10
171.4037931499
 20
97.0590855915
 11
171.2787932691
 21
97.3144047994
  0
LINE
  5
2F9
100
AcDbEntity
  8
KONSTRUKTIONSELEMENTE
100
AcDbLine
 62
7
  6
CONTINUOUS
 10
170.7787932095
 20
98.4633410114
 11
170.8412931499
 21
98.3356814522
  0
LINE
  5
2FA
100
AcDbEntity
  8
BEZUGSACHSEN
100
AcDbLine
 62
7
  6
CONTINUOUS
 10
158.3815938806
 20
127.8770752986
 11
160.4225743457
 21
122.9497125793
  0
LINE
  5
2FB
100
AcDbEntity
  8
BEZUGSACHSEN
100
AcDbLine
 62
7
  6
CONTINUOUS
 10
158.7475432095
 20
116.4078090281
 11
158.7475432095
 21
114.4078090281
  0
LINE
  5
2FC
100
AcDbEntity
  8
BEZUGSACHSEN
100
AcDbLine
 62
7
  6
CONTINUOUS
 10
159.2475432095
 20
119.2561120479
 11
159.2475432095
 21
116.4078090281
  0
LINE
  5
2FD
100
AcDbEntity
  8
BEZUGSACHSEN
100
AcDbLine
 62
7
  6
CONTINUOUS
 10
184.3082862681
 20
119.9078090281
 11
165.1868001509
 21
119.9078090281
  0
LINE
  5
2FE
100
AcDbEntity
  8
KONSTRUKTIONSELEMENTE
100
AcDbLine
 62
7
  6
CONTINUOUS
 10
180.2162929711
 20
98.5271707911
 11
180.0287929711
 21
98.7824899096
  0
LINE
  5
2FF
100
AcDbEntity
  8
KONSTRUKTIONSELEMENTE
100
AcDbLine
 62
7
  6
CONTINUOUS
 10
179.8412929711
 20
98.5271707911
 11
179.9662932095
 21
98.3356814522
  0
LINE
  5
300
100
AcDbEntity
  8
KONSTRUKTIONSELEMENTE
100
AcDbLine
 62
7
  6
CONTINUOUS
 10
175.7787934479
 20
96.6122771341
 11
175.7162929711
 21
96.7399366933
  0
LINE
  5
301
100
AcDbEntity
  8
KONSTRUKTIONSELEMENTE
100
AcDbLine
 62
7
  6
CONTINUOUS
 10
177.2162929711
 20
97.2505750197
 11
177.3412932095
 21
96.9952558118
  0
LINE
  5
302
100
AcDbEntity
  8
KONSTRUKTIONSELEMENTE
100
AcDbLine
 62
7
  6
CONTINUOUS
 10
171.4662930664
 20
94.3831282658
 11
172.3850430352
 21
91.6278090281
  0
LINE
  5
303
100
AcDbEntity
  8
KONSTRUKTIONSELEMENTE
100
AcDbLine
 62
7
  6
CONTINUOUS
 10
169.5287931946
 20
96.6761069137
 11
169.4662932095
 21
96.8675962526
  0
LINE
  5
304
100
AcDbEntity
  8
KONSTRUKTIONSELEMENTE
100
AcDbLine
 62
7
  6
CONTINUOUS
 10
169.7162931946
 20
97.9527025956
 11
169.6537932095
 21
98.1441919345
  0
LINE
  5
305
100
AcDbEntity
  8
KONSTRUKTIONSELEMENTE
100
AcDbLine
 62
7
  6
CONTINUOUS
 10
171.2162931499
 20
98.3356814522
 11
171.1537932095
 21
98.5271707911
  0
LINE
  5
306
100
AcDbEntity
  8
KONSTRUKTIONSELEMENTE
100
AcDbLine
 62
7
  6
CONTINUOUS
 10
172.6475430664
 20
92.0001494614
 11
171.6631680664
 21
95.1278090281
  0
LINE
  5
307
100
AcDbEntity
  8
KONSTRUKTIONSELEMENTE
100
AcDbLine
 62
7
  6
CONTINUOUS
 10
169.0912932095
 20
96.8675962526
 11
169.1537932114
 21
96.6122771341
  0
LINE
  5
308
100
AcDbEntity
  8
KONSTRUKTIONSELEMENTE
100
AcDbLine
 62
7
  6
CONTINUOUS
 10
169.2787932095
 20
98.0803621549
 11
169.3412932169
 21
97.8250430364
  0
LINE
  5
309
100
AcDbEntity
  8
0
100
AcDbLine
 62
7
  6
CONTINUOUS
 10
164.0706286733
 20
99.3742000563
 11
164.0706286733
 21
88.9078090281
  0
LINE
  5
30A
100
AcDbEntity
  8
0
100
AcDbLine
 62
7
  6
CONTINUOUS
 10
164.9244577457
 20
99.3742000563
 11
164.9244577457
 21
88.9078090281
  0
LINE
  5
30B
100
AcDbEntity
  8
0
100
AcDbLine
 62
7
  6
CONTINUOUS
 10
165.3075079859
 20
136.4729256636
 11
165.3013241655
 21
136.3538661222
  0
LINE
  5
30C
100
AcDbEntity
  8
BEZUGSACHSEN
100
AcDbLine
 62
7
  6
CONTINUOUS
 10
156.8056238313
 20
113.9154051515
 11
154.2468890514
 21
99.4040991129
  0
LINE
  5
30D
100
AcDbEntity
  8
BEZUGSACHSEN
100
AcDbLine
 62
7
  6
CONTINUOUS
 10
162.0926772582
 20
139.8978905788
 11
158.3815938806
 21
130.9385427575
  0
LINE
  5
30E
100
AcDbEntity
  8
KONSTRUKTIONSELEMENTE
100
AcDbLine
 62
7
  6
CONTINUOUS
 10
178.2162934479
 20
96.8675962526
 11
178.3412929711
 21
96.5484473098
  0
LINE
  5
30F
100
AcDbEntity
  8
KONSTRUKTIONSELEMENTE
100
AcDbLine
 62
7
  6
CONTINUOUS
 10
180.4037929711
 20
97.1867452401
 11
180.2787934479
 21
97.5058941382
  0
LINE
  5
310
100
AcDbEntity
  8
KONSTRUKTIONSELEMENTE
100
AcDbLine
 62
7
  6
CONTINUOUS
 10
175.4037934479
 20
96.7399366933
 11
175.4662932095
 21
96.5484473098
  0
LINE
  5
311
100
AcDbEntity
  8
KONSTRUKTIONSELEMENTE
100
AcDbLine
 62
7
  6
CONTINUOUS
 10
174.1537932095
 20
96.7399366933
 11
173.6537933287
 21
99.0378090281
  0
LINE
  5
312
100
AcDbEntity
  8
KONSTRUKTIONSELEMENTE
100
AcDbLine
 62
7
  6
CONTINUOUS
 10
173.4037932095
 20
98.4633410114
 11
173.9037930903
 21
96.0378090281
  0
LINE
  5
313
100
AcDbEntity
  8
KONSTRUKTIONSELEMENTE
100
AcDbLine
 62
7
  6
CONTINUOUS
 10
171.9037932095
 20
99.0378090281
 11
172.4037930903
 21
96.0378090281
  0
LINE
  5
314
100
AcDbEntity
  8
0
100
AcDbLine
 62
7
  6
CONTINUOUS
 10
165.5872525415
 20
136.3156819615
 11
165.5607872112
 21
136.499044274
  0
LINE
  5
315
100
AcDbEntity
  8
RUNDUNGEN
100
AcDbLine
 62
7
  6
CONTINUOUS
 10
166.9975432095
 20
96.9078090281
 11
166.9975432095
 21
93.9078090281
  0
LINE
  5
316
100
AcDbEntity
  8
RUNDUNGEN
100
AcDbLine
 62
7
  6
CONTINUOUS
 10
167.8475432095
 20
106.8078090281
 11
167.8475432095
 21
100.9078090281
  0
LINE
  5
317
100
AcDbEntity
  8
0
100
AcDbLine
 62
7
  6
CONTINUOUS
 10
168.7475432095
 20
88.9078090281
 11
168.7475432095
 21
68.9078090281
  0
LINE
  5
318
100
AcDbEntity
  8
KONSTRUKTIONSELEMENTE
100
AcDbLine
 62
7
  6
CONTINUOUS
 10
169.2787932095
 20
98.3356814522
 11
169.2787932095
 21
98.0803621549
  0
LINE
  5
319
100
AcDbEntity
  8
KONSTRUKTIONSELEMENTE
100
AcDbLine
 62
7
  6
CONTINUOUS
 10
169.3475432095
 20
201.3078090281
 11
169.3475432095
 21
130.5078090281
  0
LINE
  5
31A
100
AcDbEntity
  8
KONSTRUKTIONSELEMENTE
100
AcDbLine
 62
7
  6
CONTINUOUS
 10
169.6537932095
 20
98.1441919345
 11
169.6537932095
 21
98.2718514937
  0
LINE
  5
31B
100
AcDbEntity
  8
0
100
AcDbLine
 62
7
  6
CONTINUOUS
 10
167.6711736721
 20
136.5674784508
 11
167.6725995987
 21
136.7527354296
  0
LINE
  5
31C
100
AcDbEntity
  8
0
100
AcDbLine
 62
7
  6
CONTINUOUS
 10
168.654977725
 20
138.0586088204
 11
168.6518300237
 21
137.8960473252
  0
LINE
  5
31D
100
AcDbEntity
  8
0
100
AcDbLine
 62
7
  6
CONTINUOUS
 10
168.9098944976
 20
137.6110876492
 11
168.9397928567
 21
137.7939215027
  0
LINE
  5
31E
100
AcDbEntity
  8
0
100
AcDbLine
 62
7
  6
CONTINUOUS
 10
167.3723570502
 20
136.8093624938
 11
167.3250141563
 21
136.6684437043
  0
LINE
  5
31F
100
AcDbEntity
  8
0
100
AcDbLine
 62
7
  6
CONTINUOUS
 10
167.60051592
 20
136.402414608
 11
167.6711736721
 21
136.5674784508
  0
LINE
  5
320
100
AcDbEntity
  8
0
100
AcDbLine
 62
7
  6
CONTINUOUS
 10
168.6518300237
 20
137.8960473252
 11
168.5833794039
 21
137.764085528
  0
LINE
  5
321
100
AcDbEntity
  8
0
100
AcDbLine
 62
7
  6
CONTINUOUS
 10
168.8146929339
 20
137.458853235
 11
168.9098944976
 21
137.6110876492
  0
LINE
  5
322
100
AcDbEntity
  8
0
100
AcDbLine
 62
7
  6
CONTINUOUS
 10
164.2405953925
 20
137.0649763852
 11
163.7745999617
 21
136.4078954566
  0
LINE
  5
323
100
AcDbEntity
  8
0
100
AcDbLine
 62
7
  6
CONTINUOUS
 10
164.1514268618
 20
136.3875435624
 11
164.5203398926
 21
136.9077326047
  0
LINE
  5
324
100
AcDbEntity
  8
0
100
AcDbLine
 62
7
  6
CONTINUOUS
 10
165.3013241655
 20
136.3538661222
 11
164.9324111347
 21
135.8336770799
  0
LINE
  5
325
100
AcDbEntity
  8
0
100
AcDbLine
 62
7
  6
CONTINUOUS
 10
165.2448047855
 20
135.6121305282
 11
165.574884873
 21
136.0775628396
  0
LINE
  5
326
100
AcDbEntity
  8
0
100
AcDbLine
 62
7
  6
CONTINUOUS
 10
166.2216838515
 20
134.6724472619
 11
166.3381827092
 21
134.8367174941
  0
LINE
  5
327
100
AcDbEntity
  8
0
100
AcDbLine
 62
7
  6
CONTINUOUS
 10
166.8235945977
 20
135.5211767686
 11
166.9595099687
 21
135.712825425
  0
LINE
  5
328
100
AcDbEntity
  8
0
100
AcDbLine
 62
7
  6
CONTINUOUS
 10
165.815458029
 20
138.8726315105
 11
165.675568322
 21
138.7277606615
  0
LINE
  5
329
100
AcDbEntity
  8
0
100
AcDbLine
 62
7
  6
CONTINUOUS
 10
165.1160094937
 20
138.1482772658
 11
164.9761197199
 21
138.0034063478
  0
LINE
  5
32A
100
AcDbEntity
  8
0
100
AcDbLine
 62
7
  6
CONTINUOUS
 10
167.3250141563
 20
136.6684437043
 11
167.2317543071
 21
136.5718630923
  0
LINE
  5
32B
100
AcDbEntity
  8
0
100
AcDbLine
 62
7
  6
CONTINUOUS
 10
167.5072560708
 20
136.305833996
 11
167.60051592
 21
136.402414608
  0
LINE
  5
32C
100
AcDbEntity
  8
0
100
AcDbLine
 62
7
  6
CONTINUOUS
 10
167.0027369443
 20
139.8498395359
 11
166.3607191101
 21
139.3633005459
  0
LINE
  5
32D
100
AcDbEntity
  8
0
100
AcDbLine
 62
7
  6
CONTINUOUS
 10
166.7525370717
 20
139.1797030361
 11
167.2340504473
 21
139.5446072786
  0
LINE
  5
32E
100
AcDbEntity
  8
0
100
AcDbLine
 62
7
  6
CONTINUOUS
 10
164.3897434009
 20
137.1649438461
 11
164.2405953925
 21
137.0649763852
  0
LINE
  5
32F
100
AcDbEntity
  8
RUNDUNGEN
100
AcDbLine
 62
7
  6
CONTINUOUS
 10
169.3475432095
 20
144.1710557912
 11
164.2574616588
 21
142.0626749793
  0
LINE
  5
330
100
AcDbEntity
  8
0
100
AcDbLine
 62
7
  6
CONTINUOUS
 10
167.1750430122
 20
139.90032986
 11
167.0027369443
 21
139.8498395359
  0
LINE
  5
331
100
AcDbEntity
  8
0
100
AcDbLine
 62
7
  6
CONTINUOUS
 10
183.2430923328
 20
135.1686775798
 11
183.5081307302
 21
135.2399635169
  0
LINE
  5
332
100
AcDbEntity
  8
0
100
AcDbLine
 62
7
  6
CONTINUOUS
 10
166.9595099687
 20
135.712825425
 11
165.5872525415
 21
136.3156819615
  0
LINE
  5
333
100
AcDbEntity
  8
0
100
AcDbLine
 62
7
  6
CONTINUOUS
 10
165.574884873
 20
136.0775628396
 11
166.8235945977
 21
135.5211767686
  0
LINE
  5
334
100
AcDbEntity
  8
0
100
AcDbLine
 62
7
  6
CONTINUOUS
 10
164.7736191179
 20
136.9338512152
 11
164.9492324011
 21
136.8504562853
  0
LINE
  5
335
100
AcDbEntity
  8
0
100
AcDbLine
 62
7
  6
CONTINUOUS
 10
165.0657312588
 20
137.0147265174
 11
164.8901179756
 21
137.0981214473
  0
LINE
  5
336
100
AcDbEntity
  8
0
100
AcDbLine
 62
7
  6
CONTINUOUS
 10
166.6524452977
 20
136.4313769578
 11
166.8827430755
 21
136.3023145226
  0
LINE
  5
337
100
AcDbEntity
  8
0
100
AcDbLine
 62
7
  6
CONTINUOUS
 10
163.7745999617
 20
136.4078954566
 11
166.2216838515
 21
134.6724472619
  0
LINE
  5
338
100
AcDbEntity
  8
0
100
AcDbLine
 62
7
  6
CONTINUOUS
 10
166.3381827092
 20
134.8367174941
 11
165.2448047855
 21
135.6121305282
  0
LINE
  5
339
100
AcDbEntity
  8
0
100
AcDbLine
 62
7
  6
CONTINUOUS
 10
164.9324111347
 20
135.8336770799
 11
164.1514268618
 21
136.3875435624
  0
LINE
  5
33A
100
AcDbEntity
  8
0
100
AcDbLine
 62
7
  6
CONTINUOUS
 10
164.9492324011
 20
136.8504562853
 11
165.1054293724
 21
136.739682906
  0
LINE
  5
33B
100
AcDbEntity
  8
0
100
AcDbLine
 62
7
  6
CONTINUOUS
 10
165.2739938385
 20
136.8670287129
 11
165.0657312588
 21
137.0147265174
  0
LINE
  5
33C
100
AcDbEntity
  8
0
100
AcDbLine
 62
7
  6
CONTINUOUS
 10
166.7464179828
 20
136.6205859151
 11
166.5394352996
 21
136.7737935759
  0
LINE
  5
33D
100
AcDbEntity
  8
0
100
AcDbLine
 62
7
  6
CONTINUOUS
 10
166.3995455258
 20
136.6289226579
 11
166.6524452977
 21
136.4313769578
  0
LINE
  5
33E
100
AcDbEntity
  8
FASEN
100
AcDbLine
 62
7
  6
CONTINUOUS
 10
192.1026384981
 20
114.4078090287
 11
192.6894625869
 21
113.9154051522
  0
LINE
  5
33F
100
AcDbEntity
  8
0
100
AcDbLine
 62
7
  6
CONTINUOUS
 10
164.9761197199
 20
138.0034063478
 11
166.3995455258
 21
136.6289226579
  0
LINE
  5
340
100
AcDbEntity
  8
0
100
AcDbLine
 62
7
  6
CONTINUOUS
 10
166.5394352996
 20
136.7737935759
 11
165.1160094937
 21
138.1482772658
  0
LINE
  5
341
100
AcDbEntity
  8
0
100
AcDbLine
 62
7
  6
CONTINUOUS
 10
165.675568322
 20
138.7277606615
 11
167.0989941278
 21
137.3532769716
  0
LINE
  5
342
100
AcDbEntity
  8
0
100
AcDbLine
 62
7
  6
CONTINUOUS
 10
167.2388838349
 20
137.4981478206
 11
165.815458029
 21
138.8726315105
  0
LINE
  5
343
100
AcDbEntity
  8
0
100
AcDbLine
 62
7
  6
CONTINUOUS
 10
165.1054293724
 20
136.739682906
 11
165.24220974
 21
136.6015312843
  0
LINE
  5
344
100
AcDbEntity
  8
0
100
AcDbLine
 62
7
  6
CONTINUOUS
 10
165.4107742062
 20
136.7288770912
 11
165.2739938385
 21
136.8670287129
  0
LINE
  5
345
100
AcDbEntity
  8
0
100
AcDbLine
 62
7
  6
CONTINUOUS
 10
167.4451536155
 20
137.2523117454
 11
167.2388838349
 21
137.4981478206
  0
LINE
  5
346
100
AcDbEntity
  8
0
100
AcDbLine
 62
7
  6
CONTINUOUS
 10
167.0989941278
 20
137.3532769716
 11
167.2593469532
 21
137.151779074
  0
LINE
  5
347
100
AcDbEntity
  8
0
100
AcDbLine
 62
7
  6
CONTINUOUS
 10
166.3607191101
 20
139.3633005459
 11
168.1726750998
 21
136.9723142449
  0
LINE
  5
348
100
AcDbEntity
  8
0
100
AcDbLine
 62
7
  6
CONTINUOUS
 10
168.1018660283
 20
137.3991812854
 11
166.7525370717
 21
139.1797030361
  0
LINE
  5
349
100
AcDbEntity
  8
0
100
AcDbLine
 62
7
  6
CONTINUOUS
 10
167.8870803892
 20
139.238611209
 11
168.4653642007
 21
138.4755304944
  0
LINE
  5
34A
100
AcDbEntity
  8
0
100
AcDbLine
 62
7
  6
CONTINUOUS
 10
165.5607872112
 20
136.499044274
 11
165.4107742062
 21
136.7288770912
  0
LINE
  5
34B
100
AcDbEntity
  8
0
100
AcDbLine
 62
7
  6
CONTINUOUS
 10
167.5821916108
 20
137.0266687672
 11
167.4451536155
 21
137.2523117454
  0
LINE
  5
34C
100
AcDbEntity
  8
0
100
AcDbLine
 62
7
  6
CONTINUOUS
 10
168.7918792707
 20
138.3225326468
 11
168.6258686593
 21
138.5971652419
  0
LINE
  5
34D
100
AcDbEntity
  8
0
100
AcDbLine
 62
7
  6
CONTINUOUS
 10
168.4653642007
 20
138.4755304944
 11
168.5928225617
 21
138.2517699422
  0
LINE
  5
34E
100
AcDbEntity
  8
0
100
AcDbLine
 62
7
  6
CONTINUOUS
 10
165.24220974
 20
136.6015312843
 11
165.3075079859
 21
136.4729256636
  0
LINE
  5
34F
100
AcDbEntity
  8
0
100
AcDbLine
 62
7
  6
CONTINUOUS
 10
167.2593469532
 20
137.151779074
 11
167.3504679611
 21
136.9704743044
  0
LINE
  5
350
100
AcDbEntity
  8
0
100
AcDbLine
 62
7
  6
CONTINUOUS
 10
168.8925867115
 20
138.0784994465
 11
168.7918792707
 21
138.3225326468
  0
LINE
  5
351
100
AcDbEntity
  8
0
100
AcDbLine
 62
7
  6
CONTINUOUS
 10
167.6725995987
 20
136.7527354296
 11
167.5821916108
 21
137.0266687672
  0
LINE
  5
352
100
AcDbEntity
  8
KONSTRUKTIONSELEMENTE
100
AcDbLine
 62
7
  6
CONTINUOUS
 10
178.5912934479
 20
96.7399366933
 11
178.5287929711
 21
96.9314260322
  0
LINE
  5
353
100
AcDbEntity
  8
KONSTRUKTIONSELEMENTE
100
AcDbLine
 62
7
  6
CONTINUOUS
 10
180.0287929711
 20
97.3144047994
 11
180.0912934479
 21
97.1229153711
  0
LINE
  5
354
100
AcDbEntity
  8
KONSTRUKTIONSELEMENTE
100
AcDbLine
 62
7
  6
CONTINUOUS
 10
180.2787934479
 20
98.3356814522
 11
180.2162929711
 21
98.5271707911
  0
LINE
  5
355
100
AcDbEntity
  8
0
100
AcDbLine
 62
7
  6
CONTINUOUS
 10
168.5928225617
 20
138.2517699422
 11
168.654977725
 21
138.0586088204
  0
LINE
  5
356
100
AcDbEntity
  8
KONSTRUKTIONSELEMENTE
100
AcDbLine
 62
7
  6
CONTINUOUS
 10
177.6537934479
 20
96.9952558118
 11
177.5912929711
 21
97.2505750197
  0
LINE
  5
357
100
AcDbEntity
  8
KONSTRUKTIONSELEMENTE
100
AcDbLine
 62
7
  6
CONTINUOUS
 10
177.5912929711
 20
98.3356814522
 11
177.5287932095
 21
98.5910005707
  0
LINE
  5
358
100
AcDbEntity
  8
KONSTRUKTIONSELEMENTE
100
AcDbLine
 62
7
  6
CONTINUOUS
 10
178.4225428161
 20
94.3086601895
 11
178.3569180664
 21
94.6065324944
  0
LINE
  5
359
100
AcDbEntity
  8
0
100
AcDbLine
 62
7
  6
CONTINUOUS
 10
168.9397928567
 20
137.7939215027
 11
168.8925867115
 21
138.0784994465
  0
LINE
  5
35A
100
AcDbEntity
  8
KONSTRUKTIONSELEMENTE
100
AcDbLine
 62
7
  6
CONTINUOUS
 10
172.6537932095
 20
96.7399366933
 11
172.2787932095
 21
99.0378090281
  0
LINE
  5
35B
100
AcDbEntity
  8
0
100
AcDbLine
 62
7
  6
CONTINUOUS
 10
167.3504679611
 20
136.9704743044
 11
167.3723570502
 21
136.8093624938
  0
LINE
  5
35C
100
AcDbEntity
  8
KONSTRUKTIONSELEMENTE
100
AcDbLine
 62
7
  6
CONTINUOUS
 10
171.0287931499
 20
96.9952558118
 11
171.0287931499
 21
96.803766473
  0
LINE
  5
35D
100
AcDbEntity
  8
KONSTRUKTIONSELEMENTE
100
AcDbLine
 62
7
  6
CONTINUOUS
 10
171.0725430664
 20
95.1278090281
 11
171.0725430664
 21
91.6278090281
  0
LINE
  5
35E
100
AcDbEntity
  8
KONSTRUKTIONSELEMENTE
100
AcDbLine
 62
7
  6
CONTINUOUS
 10
171.4037931499
 20
96.7399366933
 11
171.4037931499
 21
97.0590855915
  0
LINE
  5
35F
100
AcDbEntity
  8
KONSTRUKTIONSELEMENTE
100
AcDbLine
 62
7
  6
CONTINUOUS
 10
171.4662930664
 20
91.6278090281
 11
171.4662930664
 21
94.3831282658
  0
LINE
  5
360
100
AcDbEntity
  8
KONSTRUKTIONSELEMENTE
100
AcDbLine
 62
7
  6
CONTINUOUS
 10
173.8287930664
 20
94.3831282658
 11
173.8287930664
 21
91.6278090281
  0
LINE
  5
361
100
AcDbEntity
  8
KONSTRUKTIONSELEMENTE
100
AcDbLine
 62
7
  6
CONTINUOUS
 10
174.2225430664
 20
91.6278090281
 11
174.2225430664
 21
95.1278090281
  0
LINE
  5
362
100
AcDbEntity
  8
KONSTRUKTIONSELEMENTE
100
AcDbLine
 62
7
  6
CONTINUOUS
 10
174.7475429413
 20
94.6065324944
 11
174.7475429413
 21
94.010787676
  0
LINE
  5
363
100
AcDbEntity
  8
KONSTRUKTIONSELEMENTE
100
AcDbLine
 62
7
  6
CONTINUOUS
 10
175.1412929413
 20
94.5320644182
 11
175.1412929413
 21
91.6278090281
  0
LINE
  5
364
100
AcDbEntity
  8
0
100
AcDbLine
 62
7
  6
CONTINUOUS
 10
168.5833794039
 20
137.764085528
 11
168.1018660283
 21
137.3991812854
  0
LINE
  5
365
100
AcDbEntity
  8
0
100
AcDbLine
 62
7
  6
CONTINUOUS
 10
168.1726750998
 20
136.9723142449
 11
168.8146929339
 21
137.458853235
  0
LINE
  5
366
100
AcDbEntity
  8
0
100
AcDbLine
 62
7
  6
CONTINUOUS
 10
167.3447644001
 20
136.2294465161
 11
167.5072560708
 21
136.305833996
  0
LINE
  5
367
100
AcDbEntity
  8
0
100
AcDbLine
 62
7
  6
CONTINUOUS
 10
164.5203398926
 20
136.9077326047
 11
164.6306549299
 21
136.9529432955
  0
LINE
  5
368
100
AcDbEntity
  8
0
100
AcDbLine
 62
7
  6
CONTINUOUS
 10
167.2317543071
 20
136.5718630923
 11
167.0925776361
 21
136.519620796
  0
LINE
  5
369
100
AcDbEntity
  8
0
100
AcDbLine
 62
7
  6
CONTINUOUS
 10
184.7421364693
 20
137.3259668387
 11
184.4770980898
 21
137.2546809149
  0
LINE
  5
36A
100
AcDbEntity
  8
0
100
AcDbLine
 62
7
  6
CONTINUOUS
 10
181.8872185841
 20
137.126011725
 11
181.7273122012
 21
137.0965824022
  0
LINE
  5
36B
100
AcDbEntity
  8
0
100
AcDbLine
 62
7
  6
CONTINUOUS
 10
182.7899443141
 20
138.9668907195
 11
182.9498506969
 21
138.9963200423
  0
LINE
  5
36C
100
AcDbEntity
  8
0
100
AcDbLine
 62
7
  6
CONTINUOUS
 10
183.5831924655
 20
136.4241635191
 11
183.7257127037
 21
136.4463290954
  0
LINE
  5
36D
100
AcDbEntity
  8
0
100
AcDbLine
 62
7
  6
CONTINUOUS
 10
181.5418590239
 20
136.8346858449
 11
181.7943244302
 21
136.8677527211
  0
LINE
  5
36E
100
AcDbEntity
  8
0
100
AcDbLine
 62
7
  6
CONTINUOUS
 10
167.1596706283
 20
136.2215422708
 11
167.3447644001
 21
136.2294465161
  0
LINE
  5
36F
100
AcDbEntity
  8
0
100
AcDbLine
 62
7
  6
CONTINUOUS
 10
164.6236061129
 20
137.1636840323
 11
164.3897434009
 21
137.1649438461
  0
LINE
  5
370
100
AcDbEntity
  8
0
100
AcDbLine
 62
7
  6
CONTINUOUS
 10
183.3881218117
 20
135.4016872087
 11
183.2256003924
 21
135.4064751698
  0
LINE
  5
371
100
AcDbEntity
  8
0
100
AcDbLine
 62
7
  6
CONTINUOUS
 10
183.7257127037
 20
136.4463290954
 11
183.888234123
 21
136.4415411343
  0
LINE
  5
372
100
AcDbEntity
  8
0
100
AcDbLine
 62
7
  6
CONTINUOUS
 10
184.1245244265
 20
136.6586806176
 11
183.7994815878
 21
136.6682565398
  0
LINE
  5
373
100
AcDbEntity
  8
0
100
AcDbLine
 62
7
  6
CONTINUOUS
 10
184.5971070083
 20
137.0929572231
 11
184.7596284277
 21
137.088169262
  0
LINE
  5
374
100
AcDbEntity
  8
0
100
AcDbLine
 62
7
  6
CONTINUOUS
 10
182.9893091419
 20
135.189336897
 11
183.2430923328
 21
135.1686775798
  0
LINE
  5
375
100
AcDbEntity
  8
0
100
AcDbLine
 62
7
  6
CONTINUOUS
 10
167.0925776361
 20
136.519620796
 11
166.9307988399
 21
136.5358617576
  0
LINE
  5
376
100
AcDbEntity
  8
0
100
AcDbLine
 62
7
  6
CONTINUOUS
 10
164.6306549299
 20
136.9529432955
 11
164.7736191179
 21
136.9338512152
  0
LINE
  5
377
100
AcDbEntity
  8
0
100
AcDbLine
 62
7
  6
CONTINUOUS
 10
164.8901179756
 20
137.0981214473
 11
164.6236061129
 21
137.1636840323
  0
LINE
  5
378
100
AcDbEntity
  8
0
100
AcDbLine
 62
7
  6
CONTINUOUS
 10
167.3796055681
 20
139.57482499
 11
167.5369622984
 21
139.533898278
  0
LINE
  5
379
100
AcDbEntity
  8
0
100
AcDbLine
 62
7
  6
CONTINUOUS
 10
166.8827430755
 20
136.3023145226
 11
167.1596706283
 21
136.2215422708
  0
LINE
  5
37A
100
AcDbEntity
  8
0
100
AcDbLine
 62
7
  6
CONTINUOUS
 10
166.9307988399
 20
136.5358617576
 11
166.7464179828
 21
136.6205859151
  0
LINE
  5
37B
100
AcDbEntity
  8
0
100
AcDbLine
 62
7
  6
CONTINUOUS
 10
167.6203622559
 20
139.7572771113
 11
167.3591503836
 21
139.8796755285
  0
LINE
  5
37C
100
AcDbEntity
  8
0
100
AcDbLine
 62
7
  6
CONTINUOUS
 10
167.5369622984
 20
139.533898278
 11
167.7061207461
 21
139.421827
  0
LINE
  5
37D
100
AcDbEntity
  8
0
100
AcDbLine
 62
7
  6
CONTINUOUS
 10
167.8280728461
 20
139.5943339329
 11
167.6203622559
 21
139.7572771113
  0
LINE
  5
37E
100
AcDbEntity
  8
0
100
AcDbLine
 62
7
  6
CONTINUOUS
 10
167.7061207461
 20
139.421827
 11
167.8870803892
 21
139.238611209
  0
LINE
  5
37F
100
AcDbEntity
  8
0
100
AcDbLine
 62
7
  6
CONTINUOUS
 10
168.0475848477
 20
139.3602459565
 11
167.8280728461
 21
139.5943339329
  0
LINE
  5
380
100
AcDbEntity
  8
0
100
AcDbLine
 62
7
  6
CONTINUOUS
 10
168.6258686593
 20
138.5971652419
 11
168.0475848477
 21
139.3602459565
  0
LINE
  5
381
100
AcDbEntity
  8
KONSTRUKTIONSELEMENTE
100
AcDbLine
 62
7
  6
CONTINUOUS
 10
178.1537929711
 20
97.3144047994
 11
178.2162934479
 21
96.8675962526
  0
LINE
  5
382
100
AcDbEntity
  8
KONSTRUKTIONSELEMENTE
100
AcDbLine
 62
7
  6
CONTINUOUS
 10
175.5350429413
 20
91.6278090281
 11
175.5350429413
 21
95.1278090281
  0
LINE
  5
383
100
AcDbEntity
  8
KONSTRUKTIONSELEMENTE
100
AcDbLine
 62
7
  6
CONTINUOUS
 10
176.0600431916
 20
92.0001494614
 11
176.0600431916
 21
91.6278090281
  0
LINE
  5
384
100
AcDbEntity
  8
KONSTRUKTIONSELEMENTE
100
AcDbLine
 62
7
  6
CONTINUOUS
 10
176.4037932095
 20
97.6973834771
 11
176.4037932095
 21
97.4420643586
  0
LINE
  5
385
100
AcDbEntity
  8
KONSTRUKTIONSELEMENTE
100
AcDbLine
 62
7
  6
CONTINUOUS
 10
177.2787934479
 20
98.3356814522
 11
177.2787934479
 21
98.2080217141
  0
LINE
  5
386
100
AcDbEntity
  8
KONSTRUKTIONSELEMENTE
100
AcDbLine
 62
7
  6
CONTINUOUS
 10
177.3412932095
 20
96.9952558118
 11
177.3412932095
 21
96.7399366933
  0
LINE
  5
387
100
AcDbEntity
  8
KONSTRUKTIONSELEMENTE
100
AcDbLine
 62
7
  6
CONTINUOUS
 10
177.5912929711
 20
98.2080217141
 11
177.5912929711
 21
98.3356814522
  0
LINE
  5
388
100
AcDbEntity
  8
KONSTRUKTIONSELEMENTE
100
AcDbLine
 62
7
  6
CONTINUOUS
 10
177.6537934479
 20
96.7399366933
 11
177.6537934479
 21
96.9952558118
  0
LINE
  5
389
100
AcDbEntity
  8
KONSTRUKTIONSELEMENTE
100
AcDbLine
 62
7
  6
CONTINUOUS
 10
178.0287928161
 20
94.3086601895
 11
178.0287928161
 21
94.1597238285
  0
LINE
  5
38A
100
AcDbEntity
  8
KONSTRUKTIONSELEMENTE
100
AcDbLine
 62
7
  6
CONTINUOUS
 10
178.1537929711
 20
97.7612132567
 11
178.1537929711
 21
97.3144047994
  0
LINE
  5
38B
100
AcDbEntity
  8
KONSTRUKTIONSELEMENTE
100
AcDbLine
 62
7
  6
CONTINUOUS
 10
178.4225428161
 20
91.6278090281
 11
178.4225428161
 21
92.0001494614
  0
LINE
  5
38C
100
AcDbEntity
  8
KONSTRUKTIONSELEMENTE
100
AcDbLine
 62
7
  6
CONTINUOUS
 10
178.4225428161
 20
94.1597238285
 11
178.4225428161
 21
94.3086601895
  0
LINE
  5
38D
100
AcDbEntity
  8
KONSTRUKTIONSELEMENTE
100
AcDbLine
 62
7
  6
CONTINUOUS
 10
178.4662932095
 20
97.6335536975
 11
178.4662932095
 21
97.7612132567
  0
LINE
  5
38E
100
AcDbEntity
  8
KONSTRUKTIONSELEMENTE
100
AcDbLine
 62
7
  6
CONTINUOUS
 10
178.5287929711
 20
96.9314260322
 11
178.5287929711
 21
97.1229153711
  0
LINE
  5
38F
100
AcDbEntity
  8
KONSTRUKTIONSELEMENTE
100
AcDbLine
 62
7
  6
CONTINUOUS
 10
180.0912934479
 20
97.1229153711
 11
180.0912934479
 21
96.9314260322
  0
LINE
  5
390
100
AcDbEntity
  8
KONSTRUKTIONSELEMENTE
100
AcDbLine
 62
7
  6
CONTINUOUS
 10
180.1475432095
 20
201.3078090281
 11
180.1475432095
 21
130.5078090281
  0
LINE
  5
391
100
AcDbEntity
  8
KONSTRUKTIONSELEMENTE
100
AcDbLine
 62
7
  6
CONTINUOUS
 10
169.3412932169
 20
98.5910005707
 11
169.2787932095
 21
98.3356814522
  0
LINE
  5
392
100
AcDbEntity
  8
0
100
AcDbLine
 62
7
  6
CONTINUOUS
 10
181.5096900021
 20
137.967589568
 11
181.4085025371
 21
137.8015901576
  0
LINE
  5
393
100
AcDbEntity
  8
0
100
AcDbLine
 62
7
  6
CONTINUOUS
 10
180.1475432095
 20
140.5665966814
 11
180.4918270874
 21
141.0891545117
  0
LINE
  5
394
100
AcDbEntity
  8
0
100
AcDbLine
 62
7
  6
CONTINUOUS
 10
180.3067662432
 20
141.1685848393
 11
180.1475432095
 21
140.9271924925
  0
LINE
  5
395
100
AcDbEntity
  8
0
100
AcDbLine
 62
7
  6
CONTINUOUS
 10
181.6951443668
 20
138.2294851489
 11
181.5096900021
 21
137.967589568
  0
LINE
  5
396
100
AcDbEntity
  8
0
100
AcDbLine
 62
7
  6
CONTINUOUS
 10
181.6357562905
 20
137.8568112624
 11
181.8633429213
 21
138.1666559092
  0
LINE
  5
397
100
AcDbEntity
  8
0
100
AcDbLine
 62
7
  6
CONTINUOUS
 10
182.0743451498
 20
138.6610176138
 11
181.6951443668
 21
138.2294851489
  0
LINE
  5
398
100
AcDbEntity
  8
0
100
AcDbLine
 62
7
  6
CONTINUOUS
 10
181.8633429213
 20
138.1666559092
 11
182.1582768636
 21
138.5022922708
  0
LINE
  5
399
100
AcDbEntity
  8
0
100
AcDbLine
 62
7
  6
CONTINUOUS
 10
182.1582768636
 20
138.5022922708
 11
182.4362913358
 21
138.7678243111
  0
LINE
  5
39A
100
AcDbEntity
  8
0
100
AcDbLine
 62
7
  6
CONTINUOUS
 10
182.518886005
 20
137.5906101401
 11
182.240872628
 21
137.3250770184
  0
LINE
  5
39B
100
AcDbEntity
  8
0
100
AcDbLine
 62
7
  6
CONTINUOUS
 10
182.3102250475
 20
138.8786026167
 11
182.0743451498
 21
138.6610176138
  0
LINE
  5
39C
100
AcDbEntity
  8
0
100
AcDbLine
 62
7
  6
CONTINUOUS
 10
182.3669377622
 20
137.2142997271
 11
182.6028188731
 21
137.4318837829
  0
LINE
  5
39D
100
AcDbEntity
  8
0
100
AcDbLine
 62
7
  6
CONTINUOUS
 10
182.4618382225
 20
139.0002916505
 11
182.3102250475
 21
138.8786026167
  0
LINE
  5
39E
100
AcDbEntity
  8
0
100
AcDbLine
 62
7
  6
CONTINUOUS
 10
182.2153247052
 20
137.0926108275
 11
182.3669377622
 21
137.2142997271
  0
LINE
  5
39F
100
AcDbEntity
  8
0
100
AcDbLine
 62
7
  6
CONTINUOUS
 10
182.68079865
 20
139.1477723321
 11
182.4618382225
 21
139.0002916505
  0
LINE
  5
3A0
100
AcDbEntity
  8
0
100
AcDbLine
 62
7
  6
CONTINUOUS
 10
181.9963642481
 20
136.9451301124
 11
182.2153247052
 21
137.0926108275
  0
LINE
  5
3A1
100
AcDbEntity
  8
0
100
AcDbLine
 62
7
  6
CONTINUOUS
 10
184.1808022679
 20
137.1184044048
 11
183.8019917263
 21
136.8790993452
  0
LINE
  5
3A2
100
AcDbEntity
  8
0
100
AcDbLine
 62
7
  6
CONTINUOUS
 10
183.9019985479
 20
136.7443304246
 11
184.2295515251
 21
136.9455973079
  0
LINE
  5
3A3
100
AcDbEntity
  8
0
100
AcDbLine
 62
7
  6
CONTINUOUS
 10
182.4362913358
 20
138.7678243111
 11
182.7899443141
 21
138.9668907195
  0
LINE
  5
3A4
100
AcDbEntity
  8
0
100
AcDbLine
 62
7
  6
CONTINUOUS
 10
182.240872628
 20
137.3250770184
 11
181.8872185841
 21
137.126011725
  0
LINE
  5
3A5
100
AcDbEntity
  8
0
100
AcDbLine
 62
7
  6
CONTINUOUS
 10
184.2295515251
 20
136.9455973079
 11
184.4033282901
 21
137.0327547044
  0
LINE
  5
3A6
100
AcDbEntity
  8
0
100
AcDbLine
 62
7
  6
CONTINUOUS
 10
183.4094157723
 20
136.3370061759
 11
183.5831924655
 21
136.4241635191
  0
LINE
  5
3A7
100
AcDbEntity
  8
0
100
AcDbLine
 62
7
  6
CONTINUOUS
 10
182.3505622029
 20
136.3848500261
 11
181.6974865284
 21
136.0576923963
  0
LINE
  5
3A8
100
AcDbEntity
  8
0
100
AcDbLine
 62
7
  6
CONTINUOUS
 10
181.8111091998
 20
135.9341835683
 11
182.4641848743
 21
136.261341198
  0
LINE
  5
3A9
100
AcDbEntity
  8
0
100
AcDbLine
 62
7
  6
CONTINUOUS
 10
184.4770980898
 20
137.2546809149
 11
184.1808022679
 21
137.1184044048
  0
LINE
  5
3AA
100
AcDbEntity
  8
0
100
AcDbLine
 62
7
  6
CONTINUOUS
 10
182.8828384532
 20
139.2251497066
 11
182.68079865
 21
139.1477723321
  0
LINE
  5
3AB
100
AcDbEntity
  8
0
100
AcDbLine
 62
7
  6
CONTINUOUS
 10
181.7943244302
 20
136.8677527211
 11
181.9963642481
 21
136.9451301124
  0
LINE
  5
3AC
100
AcDbEntity
  8
0
100
AcDbLine
 62
7
  6
CONTINUOUS
 10
184.4033282901
 20
137.0327547044
 11
184.5971070083
 21
137.0929572231
  0
LINE
  5
3AD
100
AcDbEntity
  8
0
100
AcDbLine
 62
7
  6
CONTINUOUS
 10
183.5819005658
 20
135.461889754
 11
183.3881218117
 21
135.4016872087
  0
LINE
  5
3AE
100
AcDbEntity
  8
0
100
AcDbLine
 62
7
  6
CONTINUOUS
 10
167.2340504473
 20
139.5446072786
 11
167.3796055681
 21
139.57482499
  0
LINE
  5
3AF
100
AcDbEntity
  8
0
100
AcDbLine
 62
7
  6
CONTINUOUS
 10
183.1353050026
 20
139.258215556
 11
182.8828384532
 21
139.2251497066
  0
LINE
  5
3B0
100
AcDbEntity
  8
0
100
AcDbLine
 62
7
  6
CONTINUOUS
 10
184.9959187312
 20
137.3053087453
 11
184.7421364693
 21
137.3259668387
  0
LINE
  5
3B1
100
AcDbEntity
  8
0
100
AcDbLine
 62
7
  6
CONTINUOUS
 10
167.3591503836
 20
139.8796755285
 11
167.1750430122
 21
139.90032986
  0
LINE
  5
3B2
100
AcDbEntity
  8
0
100
AcDbLine
 62
7
  6
CONTINUOUS
 10
181.7273122012
 20
137.0965824022
 11
181.5591136467
 21
137.1594116419
  0
LINE
  5
3B3
100
AcDbEntity
  8
0
100
AcDbLine
 62
7
  6
CONTINUOUS
 10
182.9498506969
 20
138.9963200423
 11
183.1180504056
 21
138.9334897884
  0
LINE
  5
3B4
100
AcDbEntity
  8
0
100
AcDbLine
 62
7
  6
CONTINUOUS
 10
183.2256003924
 20
135.4064751698
 11
183.1143374531
 21
135.4493000733
  0
LINE
  5
3B5
100
AcDbEntity
  8
0
100
AcDbLine
 62
7
  6
CONTINUOUS
 10
183.888234123
 20
136.4415411343
 11
183.9994970623
 21
136.3987162308
  0
LINE
  5
3B6
100
AcDbEntity
  8
0
100
AcDbLine
 62
7
  6
CONTINUOUS
 10
184.7596284277
 20
137.088169262
 11
184.870891367
 21
137.0453443585
  0
LINE
  5
3B7
100
AcDbEntity
  8
0
100
AcDbLine
 62
7
  6
CONTINUOUS
 10
181.3484465155
 20
136.91967135
 11
181.5418590239
 21
136.8346858449
  0
LINE
  5
3B8
100
AcDbEntity
  8
0
100
AcDbLine
 62
7
  6
CONTINUOUS
 10
183.3287175073
 20
139.1732300466
 11
183.1353050026
 21
139.258215556
  0
LINE
  5
3B9
100
AcDbEntity
  8
0
100
AcDbLine
 62
7
  6
CONTINUOUS
 10
182.8380438357
 20
135.2860688719
 11
182.9893091419
 21
135.189336897
  0
LINE
  5
3BA
100
AcDbEntity
  8
0
100
AcDbLine
 62
7
  6
CONTINUOUS
 10
184.2757906438
 20
136.5619474056
 11
184.1245244265
 21
136.6586806176
  0
LINE
  5
3BB
100
AcDbEntity
  8
0
100
AcDbLine
 62
7
  6
CONTINUOUS
 10
181.6974865284
 20
136.0576923963
 11
181.8111091998
 21
135.9341835683
  0
LINE
  5
3BC
100
AcDbEntity
  8
0
100
AcDbLine
 62
7
  6
CONTINUOUS
 10
182.4641848743
 20
136.261341198
 11
182.3505622029
 21
136.3848500261
  0
LINE
  5
3BD
100
AcDbEntity
  8
0
100
AcDbLine
 62
7
  6
CONTINUOUS
 10
182.7380360984
 20
135.4208390264
 11
182.8380438357
 21
135.2860688719
  0
LINE
  5
3BE
100
AcDbEntity
  8
0
100
AcDbLine
 62
7
  6
CONTINUOUS
 10
182.9743273534
 20
135.6379773025
 11
182.9655813742
 21
135.7568760908
  0
LINE
  5
3BF
100
AcDbEntity
  8
0
100
AcDbLine
 62
7
  6
CONTINUOUS
 10
184.139507162
 20
136.2100390016
 11
184.1482531412
 21
136.0911402133
  0
LINE
  5
3C0
100
AcDbEntity
  8
0
100
AcDbLine
 62
7
  6
CONTINUOUS
 10
184.9909002854
 20
136.8836206667
 11
184.9996462646
 21
136.7647218783
  0
LINE
  5
3C1
100
AcDbEntity
  8
KONSTRUKTIONSELEMENTE
100
AcDbLine
 62
7
  6
CONTINUOUS
 10
180.4037929711
 20
96.8675962526
 11
180.4037929711
 21
97.1867452401
  0
LINE
  5
3C2
100
AcDbEntity
  8
0
100
AcDbLine
 62
7
  6
CONTINUOUS
 10
180.7475432095
 20
88.9078090281
 11
180.7475432095
 21
68.9078090281
  0
LINE
  5
3C3
100
AcDbEntity
  8
RUNDUNGEN
100
AcDbLine
 62
7
  6
CONTINUOUS
 10
181.6475432095
 20
100.9078090281
 11
181.6475432095
 21
106.8078090281
  0
LINE
  5
3C4
100
AcDbEntity
  8
RUNDUNGEN
100
AcDbLine
 62
7
  6
CONTINUOUS
 10
182.4975432095
 20
93.9078090281
 11
182.4975432095
 21
96.9078090281
  0
LINE
  5
3C5
100
AcDbEntity
  8
0
100
AcDbLine
 62
7
  6
CONTINUOUS
 10
184.5706286733
 20
99.3742000563
 11
184.5706286733
 21
88.9078090281
  0
LINE
  5
3C6
100
AcDbEntity
  8
0
100
AcDbLine
 62
7
  6
CONTINUOUS
 10
181.2396348388
 20
137.35517544
 11
181.2393008552
 21
137.1005529669
  0
LINE
  5
3C7
100
AcDbEntity
  8
0
100
AcDbLine
 62
7
  6
CONTINUOUS
 10
183.4375280446
 20
138.7377269876
 11
183.4378631714
 21
138.992348434
  0
LINE
  5
3C8
100
AcDbEntity
  8
0
100
AcDbLine
 62
7
  6
CONTINUOUS
 10
181.4751807787
 20
137.3181379992
 11
181.4838080771
 21
137.480500883
  0
LINE
  5
3C9
100
AcDbEntity
  8
0
100
AcDbLine
 62
7
  6
CONTINUOUS
 10
183.2019821195
 20
138.7747644453
 11
183.193354821
 21
138.6124015615
  0
LINE
  5
3CA
100
AcDbEntity
  8
0
100
AcDbLine
 62
7
  6
CONTINUOUS
 10
183.5985775771
 20
134.3301870754
 11
183.5921286524
 21
134.2111415963
  0
LINE
  5
3CB
100
AcDbEntity
  8
KONSTRUKTIONSELEMENTE
100
AcDbLine
 62
7
  6
CONTINUOUS
 10
178.2162934479
 20
98.2080217141
 11
178.1537929711
 21
97.7612132567
  0
LINE
  5
3CC
100
AcDbEntity
  8
KONSTRUKTIONSELEMENTE
100
AcDbLine
 62
7
  6
CONTINUOUS
 10
174.5287932095
 20
99.0378090281
 11
174.1537932095
 21
96.7399366933
  0
LINE
  5
3CD
100
AcDbEntity
  8
KONSTRUKTIONSELEMENTE
100
AcDbLine
 62
7
  6
CONTINUOUS
 10
178.4662932095
 20
97.7612132567
 11
178.5287929711
 21
98.1441919345
  0
LINE
  5
3CE
100
AcDbEntity
  8
KONSTRUKTIONSELEMENTE
100
AcDbLine
 62
7
  6
CONTINUOUS
 10
174.4037933287
 20
96.0378090281
 11
174.9037932095
 21
99.0378090281
  0
LINE
  5
3CF
100
AcDbEntity
  8
KONSTRUKTIONSELEMENTE
100
AcDbLine
 62
7
  6
CONTINUOUS
 10
172.9037933287
 20
96.0378090281
 11
173.4037932095
 21
98.4633410114
  0
LINE
  5
3D0
100
AcDbEntity
  8
0
100
AcDbLine
 62
7
  6
CONTINUOUS
 10
182.7430554777
 20
135.8425258845
 11
182.6892868457
 21
135.5936461266
  0
LINE
  5
3D1
100
AcDbEntity
  8
0
100
AcDbLine
 62
7
  6
CONTINUOUS
 10
184.3707790198
 20
136.0054904063
 11
184.4245467227
 21
136.254371388
  0
LINE
  5
3D2
100
AcDbEntity
  8
KONSTRUKTIONSELEMENTE
100
AcDbLine
 62
7
  6
CONTINUOUS
 10
173.1537930903
 20
99.0378090281
 11
172.6537932095
 21
96.7399366933
  0
LINE
  5
3D3
100
AcDbEntity
  8
0
100
AcDbLine
 62
7
  6
CONTINUOUS
 10
181.2903955724
 20
137.5654863923
 11
181.2396348388
 21
137.35517544
  0
LINE
  5
3D4
100
AcDbEntity
  8
0
100
AcDbLine
 62
7
  6
CONTINUOUS
 10
183.3867673258
 20
138.5274160522
 11
183.4375280446
 21
138.7377269876
  0
LINE
  5
3D5
100
AcDbEntity
  8
KONSTRUKTIONSELEMENTE
100
AcDbLine
 62
7
  6
CONTINUOUS
 10
175.5287929711
 20
98.5910005707
 11
175.4662932095
 21
98.3356814522
  0
LINE
  5
3D6
100
AcDbEntity
  8
0
100
AcDbLine
 62
7
  6
CONTINUOUS
 10
182.9655813742
 20
135.7568760908
 11
183.0080938751
 21
135.9138118216
  0
LINE
  5
3D7
100
AcDbEntity
  8
0
100
AcDbLine
 62
7
  6
CONTINUOUS
 10
184.1482531412
 20
136.0911402133
 11
184.1057406403
 21
135.9342044825
  0
LINE
  5
3D8
100
AcDbEntity
  8
0
100
AcDbLine
 62
7
  6
CONTINUOUS
 10
184.9996462646
 20
136.7647218783
 11
184.9571337637
 21
136.6077861476
  0
LINE
  5
3D9
100
AcDbEntity
  8
KONSTRUKTIONSELEMENTE
100
AcDbLine
 62
7
  6
CONTINUOUS
 10
169.6537932095
 20
98.2718514937
 11
169.7162931946
 21
98.4633410114
  0
LINE
  5
3DA
100
AcDbEntity
  8
0
100
AcDbLine
 62
7
  6
CONTINUOUS
 10
181.4838080771
 20
137.480500883
 11
181.6357562905
 21
137.8568112624
  0
LINE
  5
3DB
100
AcDbEntity
  8
0
100
AcDbLine
 62
7
  6
CONTINUOUS
 10
183.193354821
 20
138.6124015615
 11
183.0414076734
 21
138.2360900671
  0
LINE
  5
3DC
100
AcDbEntity
  8
0
100
AcDbLine
 62
7
  6
CONTINUOUS
 10
183.6607068995
 20
134.480440483
 11
183.5985775771
 21
134.3301870754
  0
LINE
  5
3DD
100
AcDbEntity
  8
0
100
AcDbLine
 62
7
  6
CONTINUOUS
 10
183.8312604983
 20
134.3066945812
 11
183.893389811
 21
134.4569479832
  0
LINE
  5
3DE
100
AcDbEntity
  8
0
100
AcDbLine
 62
7
  6
CONTINUOUS
 10
184.1057406403
 20
135.9342044825
 11
184.0432269582
 21
135.8042222891
  0
LINE
  5
3DF
100
AcDbEntity
  8
0
100
AcDbLine
 62
7
  6
CONTINUOUS
 10
184.2770080388
 20
135.8105177331
 11
184.3707790198
 21
136.0054904063
  0
LINE
  5
3E0
100
AcDbEntity
  8
0
100
AcDbLine
 62
7
  6
CONTINUOUS
 10
181.4085025371
 20
137.8015901576
 11
181.2903955724
 21
137.5654863923
  0
LINE
  5
3E1
100
AcDbEntity
  8
0
100
AcDbLine
 62
7
  6
CONTINUOUS
 10
183.2686603906
 20
138.2913123205
 11
183.3867673258
 21
138.5274160522
  0
LINE
  5
3E2
100
AcDbEntity
  8
0
100
AcDbLine
 62
7
  6
CONTINUOUS
 10
183.1674728076
 20
138.1253127757
 11
183.2686603906
 21
138.2913123205
  0
LINE
  5
3E3
100
AcDbEntity
  8
0
100
AcDbLine
 62
7
  6
CONTINUOUS
 10
182.8880849566
 20
136.0755355134
 11
182.7430554777
 21
135.8425258845
  0
LINE
  5
3E4
100
AcDbEntity
  8
0
100
AcDbLine
 62
7
  6
CONTINUOUS
 10
185.0771426822
 20
136.4460624558
 11
185.2221721432
 21
136.6790720714
  0
LINE
  5
3E5
100
AcDbEntity
  8
0
100
AcDbLine
 62
7
  6
CONTINUOUS
 10
183.0080938751
 20
135.9138118216
 11
183.1218660732
 21
136.081830984
  0
LINE
  5
3E6
100
AcDbEntity
  8
0
100
AcDbLine
 62
7
  6
CONTINUOUS
 10
184.9571337637
 20
136.6077861476
 11
184.8433606859
 21
136.4397682456
  0
LINE
  5
3E7
100
AcDbEntity
  8
0
100
AcDbLine
 62
7
  6
CONTINUOUS
 10
182.9820196561
 20
137.8634162478
 11
183.1674728076
 21
138.1253127757
  0
LINE
  5
3E8
100
AcDbEntity
  8
0
100
AcDbLine
 62
7
  6
CONTINUOUS
 10
183.0414076734
 20
138.2360900671
 11
182.8138199474
 21
137.9262465017
  0
LINE
  5
3E9
100
AcDbEntity
  8
0
100
AcDbLine
 62
7
  6
CONTINUOUS
 10
182.8138199474
 20
137.9262465017
 11
182.518886005
 21
137.5906101401
  0
LINE
  5
3EA
100
AcDbEntity
  8
0
100
AcDbLine
 62
7
  6
CONTINUOUS
 10
182.6028188731
 20
137.4318837829
 11
182.9820196561
 21
137.8634162478
  0
LINE
  5
3EB
100
AcDbEntity
  8
0
100
AcDbLine
 62
7
  6
CONTINUOUS
 10
183.1043741148
 20
136.3196285607
 11
182.8880849566
 21
136.0755355134
  0
LINE
  5
3EC
100
AcDbEntity
  8
0
100
AcDbLine
 62
7
  6
CONTINUOUS
 10
184.0607189165
 20
135.5664247124
 11
184.2770080388
 21
135.8105177331
  0
LINE
  5
3ED
100
AcDbEntity
  8
0
100
AcDbLine
 62
7
  6
CONTINUOUS
 10
183.1218660732
 20
136.081830984
 11
183.2556403321
 21
136.2228953486
  0
LINE
  5
3EE
100
AcDbEntity
  8
0
100
AcDbLine
 62
7
  6
CONTINUOUS
 10
184.0432269582
 20
135.8042222891
 11
183.9094526274
 21
135.6631578712
  0
LINE
  5
3EF
100
AcDbEntity
  8
0
100
AcDbLine
 62
7
  6
CONTINUOUS
 10
184.9433684232
 20
136.3049980911
 11
185.0771426822
 21
136.4460624558
  0
LINE
  5
3F0
100
AcDbEntity
  8
0
100
AcDbLine
 62
7
  6
CONTINUOUS
 10
183.8506072579
 20
134.6638310104
 11
183.6607068995
 21
134.480440483
  0
LINE
  5
3F1
100
AcDbEntity
  8
0
100
AcDbLine
 62
7
  6
CONTINUOUS
 10
183.4431823658
 20
136.6128407483
 11
183.1043741148
 21
136.3196285607
  0
LINE
  5
3F2
100
AcDbEntity
  8
FASEN
100
AcDbLine
 62
7
  6
CONTINUOUS
 10
157.3924479208
 20
114.4078090286
 11
156.805623832
 21
113.9154051521
  0
LINE
  5
3F3
100
AcDbEntity
  8
0
100
AcDbLine
 62
7
  6
CONTINUOUS
 10
183.893389811
 20
134.4569479832
 11
184.0440207878
 21
134.5798505189
  0
LINE
  5
3F4
100
AcDbEntity
  8
0
100
AcDbLine
 62
7
  6
CONTINUOUS
 10
183.8019917263
 20
136.8790993452
 11
183.4431823658
 21
136.6128407483
  0
LINE
  5
3F5
100
AcDbEntity
  8
0
100
AcDbLine
 62
7
  6
CONTINUOUS
 10
183.7994815878
 20
136.6682565398
 11
183.9019985479
 21
136.7443304246
  0
LINE
  5
3F6
100
AcDbEntity
  8
0
100
AcDbLine
 62
7
  6
CONTINUOUS
 10
183.2556403321
 20
136.2228953486
 11
183.4094157723
 21
136.3370061759
  0
LINE
  5
3F7
100
AcDbEntity
  8
0
100
AcDbLine
 62
7
  6
CONTINUOUS
 10
183.9094526274
 20
135.6631578712
 11
183.7556771872
 21
135.5490470439
  0
LINE
  5
3F8
100
AcDbEntity
  8
0
100
AcDbLine
 62
7
  6
CONTINUOUS
 10
183.8044264444
 20
135.376239947
 11
184.0607189165
 21
135.5664247124
  0
LINE
  5
3F9
100
AcDbEntity
  8
0
100
AcDbLine
 62
7
  6
CONTINUOUS
 10
185.0556526241
 20
135.647055207
 11
184.8329310528
 21
135.5222235044
  0
LINE
  5
3FA
100
AcDbEntity
  8
0
100
AcDbLine
 62
7
  6
CONTINUOUS
 10
185.6323801008
 20
135.6624847842
 11
185.1869368024
 21
135.4128212915
  0
LINE
  5
3FB
100
AcDbEntity
  8
0
100
AcDbLine
 62
7
  6
CONTINUOUS
 10
184.9642152311
 20
135.2879895889
 11
183.8506072579
 21
134.6638310104
  0
LINE
  5
3FC
100
AcDbEntity
  8
0
100
AcDbLine
 62
7
  6
CONTINUOUS
 10
184.0440207878
 20
134.5798505189
 11
185.0462679365
 21
135.1415932243
  0
LINE
  5
3FD
100
AcDbEntity
  8
0
100
AcDbLine
 62
7
  6
CONTINUOUS
 10
185.2689895077
 20
135.2664249268
 11
185.7144328062
 21
135.5160884195
  0
LINE
  5
3FE
100
AcDbEntity
  8
0
100
AcDbLine
 62
7
  6
CONTINUOUS
 10
183.6349112006
 20
134.0042585664
 11
183.8576327914
 21
134.1290902799
  0
LINE
  5
3FF
100
AcDbEntity
  8
0
100
AcDbLine
 62
7
  6
CONTINUOUS
 10
185.2267828365
 20
134.8195230983
 11
185.4495044078
 21
134.9443548009
  0
LINE
  5
400
100
AcDbEntity
  8
0
100
AcDbLine
 62
7
  6
CONTINUOUS
 10
183.7556771872
 20
135.5490470439
 11
183.5819005658
 21
135.461889754
  0
LINE
  5
401
100
AcDbEntity
  8
0
100
AcDbLine
 62
7
  6
CONTINUOUS
 10
183.5081307302
 20
135.2399635169
 11
183.8044264444
 21
135.376239947
  0
LINE
  5
402
100
AcDbEntity
  8
RUNDUNGEN
100
AcDbLine
 62
7
  6
CONTINUOUS
 10
180.1475432095
 20
144.1710557912
 11
185.2376247602
 21
142.0626749793
  0
LINE
  5
403
100
AcDbEntity
  8
0
100
AcDbLine
 62
7
  6
CONTINUOUS
 10
180.4918270874
 20
141.0891545117
 11
180.3067662432
 21
141.1685848393
  0
LINE
  5
404
100
AcDbEntity
  8
0
100
AcDbLine
 62
7
  6
CONTINUOUS
 10
185.1471849485
 20
137.2085755333
 11
184.9959187312
 21
137.3053087453
  0
LINE
  5
405
100
AcDbEntity
  8
0
100
AcDbLine
 62
7
  6
CONTINUOUS
 10
183.1143374531
 20
135.4493000733
 11
182.9743273534
 21
135.6379773025
  0
LINE
  5
406
100
AcDbEntity
  8
0
100
AcDbLine
 62
7
  6
CONTINUOUS
 10
183.9994970623
 20
136.3987162308
 11
184.139507162
 21
136.2100390016
  0
LINE
  5
407
100
AcDbEntity
  8
0
100
AcDbLine
 62
7
  6
CONTINUOUS
 10
184.3757983811
 20
136.4271772511
 11
184.2757906438
 21
136.5619474056
  0
LINE
  5
408
100
AcDbEntity
  8
0
100
AcDbLine
 62
7
  6
CONTINUOUS
 10
184.8433606859
 20
136.4397682456
 11
184.9433684232
 21
136.3049980911
  0
LINE
  5
409
100
AcDbEntity
  8
0
100
AcDbLine
 62
7
  6
CONTINUOUS
 10
184.870891367
 20
137.0453443585
 11
184.9909002854
 21
136.8836206667
  0
LINE
  5
40A
100
AcDbEntity
  8
0
100
AcDbLine
 62
7
  6
CONTINUOUS
 10
185.2271905889
 20
137.10076015
 11
185.1471849485
 21
137.2085755333
  0
LINE
  5
40B
100
AcDbEntity
  8
0
100
AcDbLine
 62
7
  6
CONTINUOUS
 10
181.2393008552
 20
137.1005529669
 11
181.3484465155
 21
136.91967135
  0
LINE
  5
40C
100
AcDbEntity
  8
0
100
AcDbLine
 62
7
  6
CONTINUOUS
 10
183.4378631714
 20
138.992348434
 11
183.3287175073
 21
139.1732300466
  0
LINE
  5
40D
100
AcDbEntity
  8
0
100
AcDbLine
 62
7
  6
CONTINUOUS
 10
184.8329310528
 20
135.5222235044
 11
184.9642152311
 21
135.2879895889
  0
LINE
  5
40E
100
AcDbEntity
  8
0
100
AcDbLine
 62
7
  6
CONTINUOUS
 10
185.0462679365
 20
135.1415932243
 11
185.2267828365
 21
134.8195230983
  0
LINE
  5
40F
100
AcDbEntity
  8
0
100
AcDbLine
 62
7
  6
CONTINUOUS
 10
185.4495044078
 20
134.9443548009
 11
185.2689895077
 21
135.2664249268
  0
LINE
  5
410
100
AcDbEntity
  8
0
100
AcDbLine
 62
7
  6
CONTINUOUS
 10
185.1869368024
 20
135.4128212915
 11
185.0556526241
 21
135.647055207
  0
LINE
  5
411
100
AcDbEntity
  8
0
100
AcDbLine
 62
7
  6
CONTINUOUS
 10
185.7144328062
 20
135.5160884195
 11
185.6323801008
 21
135.6624847842
  0
LINE
  5
412
100
AcDbEntity
  8
0
100
AcDbLine
 62
7
  6
CONTINUOUS
 10
181.5591136467
 20
137.1594116419
 11
181.4751807787
 21
137.3181379992
  0
LINE
  5
413
100
AcDbEntity
  8
0
100
AcDbLine
 62
7
  6
CONTINUOUS
 10
183.1180504056
 20
138.9334897884
 11
183.2019821195
 21
138.7747644453
  0
LINE
  5
414
100
AcDbEntity
  8
0
100
AcDbLine
 62
7
  6
CONTINUOUS
 10
182.6892868457
 20
135.5936461266
 11
182.7380360984
 21
135.4208390264
  0
LINE
  5
415
100
AcDbEntity
  8
0
100
AcDbLine
 62
7
  6
CONTINUOUS
 10
184.4245467227
 20
136.254371388
 11
184.3757983811
 21
136.4271772511
  0
LINE
  5
416
100
AcDbEntity
  8
0
100
AcDbLine
 62
7
  6
CONTINUOUS
 10
185.2759398461
 20
136.9279530531
 11
185.2271905889
 21
137.10076015
  0
LINE
  5
417
100
AcDbEntity
  8
0
100
AcDbLine
 62
7
  6
CONTINUOUS
 10
183.5921286524
 20
134.2111415963
 11
183.6349112006
 21
134.0042585664
  0
LINE
  5
418
100
AcDbEntity
  8
0
100
AcDbLine
 62
7
  6
CONTINUOUS
 10
183.8576327914
 20
134.1290902799
 11
183.8312604983
 21
134.3066945812
  0
LINE
  5
419
100
AcDbEntity
  8
0
100
AcDbLine
 62
7
  6
CONTINUOUS
 10
185.4244577457
 20
99.3742000563
 11
185.4244577457
 21
88.9078090281
  0
LINE
  5
41A
100
AcDbEntity
  8
0
100
AcDbLine
 62
7
  6
CONTINUOUS
 10
185.2221721432
 20
136.6790720714
 11
185.2759398461
 21
136.9279530531
  0
LINE
  5
41B
100
AcDbEntity
  8
KONSTRUKTIONSELEMENTE
100
AcDbLine
 62
7
  6
CONTINUOUS
 10
176.1912930664
 20
94.6065324944
 11
176.1256679413
 21
94.3086601895
  0
LINE
  5
41C
100
AcDbEntity
  8
KONSTRUKTIONSELEMENTE
100
AcDbLine
 62
7
  6
CONTINUOUS
 10
178.3569180664
 20
93.8618515235
 11
178.4225428161
 21
94.1597238285
  0
LINE
  5
41D
100
AcDbEntity
  8
KONSTRUKTIONSELEMENTE
100
AcDbLine
 62
7
  6
CONTINUOUS
 10
177.5287932095
 20
97.9527025956
 11
177.5912929711
 21
98.2080217141
  0
LINE
  5
41E
100
AcDbEntity
  8
KONSTRUKTIONSELEMENTE
100
AcDbLine
 62
7
  6
CONTINUOUS
 10
173.6319180664
 20
95.1278090281
 11
172.6475430664
 21
92.0001494614
  0
LINE
  5
41F
100
AcDbEntity
  8
KONSTRUKTIONSELEMENTE
100
AcDbLine
 62
7
  6
CONTINUOUS
 10
172.9100430039
 20
91.6278090281
 11
173.8287930664
 21
94.3831282658
  0
LINE
  5
420
100
AcDbEntity
  8
KONSTRUKTIONSELEMENTE
100
AcDbLine
 62
7
  6
CONTINUOUS
 10
171.2787932691
 20
96.4846175301
 11
171.4037931499
 21
96.7399366933
  0
LINE
  5
421
100
AcDbEntity
  8
BEZUGSACHSEN
100
AcDbLine
 62
7
  6
CONTINUOUS
 10
187.4024091608
 20
139.8978905788
 11
191.1134925384
 21
130.9385427575
  0
LINE
  5
422
100
AcDbEntity
  8
BEZUGSACHSEN
100
AcDbLine
 62
7
  6
CONTINUOUS
 10
192.6894625877
 20
113.9154051515
 11
195.2481973676
 21
99.4040991129
  0
LINE
  5
423
100
AcDbEntity
  8
BEZUGSACHSEN
100
AcDbLine
 62
7
  6
CONTINUOUS
 10
190.2475432095
 20
116.4078090281
 11
190.2475432095
 21
119.2561120479
  0
LINE
  5
424
100
AcDbEntity
  8
BEZUGSACHSEN
100
AcDbLine
 62
7
  6
CONTINUOUS
 10
190.7475432095
 20
116.4078090281
 11
190.7475432095
 21
114.4078090281
  0
LINE
  5
425
100
AcDbEntity
  8
KONSTRUKTIONSELEMENTE
100
AcDbLine
 62
7
  6
CONTINUOUS
 10
177.5912929711
 20
96.5484473098
 11
177.6537934479
 21
96.7399366933
  0
LINE
  5
426
100
AcDbEntity
  8
KONSTRUKTIONSELEMENTE
100
AcDbLine
 62
7
  6
CONTINUOUS
 10
178.5287929711
 20
98.1441919345
 11
178.5912934479
 21
98.3356814522
  0
LINE
  5
427
100
AcDbEntity
  8
KONSTRUKTIONSELEMENTE
100
AcDbLine
 62
7
  6
CONTINUOUS
 10
178.5287929711
 20
97.1229153711
 11
178.5912934479
 21
97.3144047994
  0
LINE
  5
428
100
AcDbEntity
  8
KONSTRUKTIONSELEMENTE
100
AcDbLine
 62
7
  6
CONTINUOUS
 10
180.0912934479
 20
96.9314260322
 11
180.0287929711
 21
96.7399366933
  0
LINE
  5
429
100
AcDbEntity
  8
KONSTRUKTIONSELEMENTE
100
AcDbLine
 62
7
  6
CONTINUOUS
 10
178.3412929711
 20
98.5271707911
 11
178.2162934479
 21
98.2080217141
  0
LINE
  5
42A
100
AcDbEntity
  8
BEZUGSACHSEN
100
AcDbLine
 62
7
  6
CONTINUOUS
 10
191.1134925384
 20
127.8770752986
 11
189.0725120733
 21
122.9497125793
  0
LINE
  5
42B
100
AcDbEntity
  8
KONSTRUKTIONSELEMENTE
100
AcDbLine
 62
7
  6
CONTINUOUS
 10
177.2787934479
 20
98.2080217141
 11
177.1537932095
 21
97.9527025956
  0
LINE
  5
42C
100
AcDbEntity
  8
KONSTRUKTIONSELEMENTE
100
AcDbLine
 62
7
  6
CONTINUOUS
 10
171.0287931499
 20
96.803766473
 11
170.9037932691
 21
96.6122771341
  0
LINE
  5
42D
100
AcDbEntity
  8
RUNDUNGEN
100
AcDbLine
 62
7
  6
CONTINUOUS
 10
195.2475432095
 20
99.407836495
 11
195.2475432095
 21
99.3742000563
  0
LINE
  5
42E
100
AcDbEntity
  8
0
100
AcDbLine
 62
7
  6
CONTINUOUS
 10
195.2475432095
 20
99.3742000563
 11
195.2475432095
 21
88.9078090281
  0
LINE
  5
42F
100
AcDbEntity
  8
KONSTRUKTIONSELEMENTE
100
AcDbLine
 62
7
  6
CONTINUOUS
 10
180.2787934479
 20
96.5484473098
 11
180.4037929711
 21
96.8675962526
  0
LINE
  5
430
100
AcDbEntity
  8
KONSTRUKTIONSELEMENTE
100
AcDbLine
 62
7
  6
CONTINUOUS
 10
178.0287928161
 20
94.1597238285
 11
177.8975433168
 21
93.8618515235
  0
LINE
  5
431
100
AcDbEntity
  8
KONSTRUKTIONSELEMENTE
100
AcDbLine
 62
7
  6
CONTINUOUS
 10
177.3412932095
 20
96.7399366933
 11
177.2787934479
 21
96.6122771341
  0
LINE
  5
432
100
AcDbEntity
  8
KONSTRUKTIONSELEMENTE
100
AcDbLine
 62
7
  6
CONTINUOUS
 10
176.4537931916
 20
94.3086601895
 11
176.5850430664
 21
94.5320644182
  0
LINE
  5
433
100
AcDbEntity
  8
KONSTRUKTIONSELEMENTE
100
AcDbLine
 62
7
  6
CONTINUOUS
 10
175.7787934479
 20
98.3356814522
 11
175.9037929711
 21
98.5271707911
  0
LINE
  5
434
100
AcDbEntity
  8
KONSTRUKTIONSELEMENTE
100
AcDbLine
 62
7
  6
CONTINUOUS
 10
177.4037929711
 20
97.7612132567
 11
177.5287932095
 21
97.9527025956
  0
LINE
  5
435
100
AcDbEntity
  8
KONSTRUKTIONSELEMENTE
100
AcDbLine
 62
7
  6
CONTINUOUS
 10
178.5912934479
 20
98.3356814522
 11
178.7162929711
 21
98.5271707911
  0
LINE
  5
436
100
AcDbEntity
  8
KONSTRUKTIONSELEMENTE
100
AcDbLine
 62
7
  6
CONTINUOUS
 10
177.4662934479
 20
96.3569579709
 11
177.5912929711
 21
96.5484473098
  0
LINE
  5
437
100
AcDbEntity
  8
KONSTRUKTIONSELEMENTE
100
AcDbLine
 62
7
  6
CONTINUOUS
 10
169.5912932244
 20
98.8463196892
 11
169.3412932169
 21
98.5910005707
  0
LINE
  5
438
100
AcDbEntity
  8
KONSTRUKTIONSELEMENTE
100
AcDbLine
 62
7
  6
CONTINUOUS
 10
178.2256678161
 20
93.6384472949
 11
178.3569180664
 21
93.8618515235
  0
LINE
  5
439
100
AcDbEntity
  8
KONSTRUKTIONSELEMENTE
100
AcDbLine
 62
7
  6
CONTINUOUS
 10
180.0287929711
 20
96.7399366933
 11
179.9037934479
 21
96.5484473098
  0
LINE
  5
43A
100
AcDbEntity
  8
KONSTRUKTIONSELEMENTE
100
AcDbLine
 62
7
  6
CONTINUOUS
 10
178.5287929711
 20
98.7824899096
 11
178.3412929711
 21
98.5271707911
  0
LINE
  5
43B
100
AcDbEntity
  8
KONSTRUKTIONSELEMENTE
100
AcDbLine
 62
7
  6
CONTINUOUS
 10
180.0912934479
 20
96.2931281689
 11
180.2787934479
 21
96.5484473098
  0
LINE
  5
43C
100
AcDbEntity
  8
KONSTRUKTIONSELEMENTE
100
AcDbLine
 62
7
  6
CONTINUOUS
 10
175.1412929413
 20
95.1278090281
 11
174.7475429413
 21
94.6065324944
  0
LINE
  5
43D
100
AcDbEntity
  8
KONSTRUKTIONSELEMENTE
100
AcDbLine
 62
7
  6
CONTINUOUS
 10
174.7475429413
 20
94.010787676
 11
175.1412929413
 21
94.5320644182
  0
LINE
  5
43E
100
AcDbEntity
  8
KONSTRUKTIONSELEMENTE
100
AcDbLine
 62
7
  6
CONTINUOUS
 10
176.4537931916
 20
94.9044047994
 11
176.1912930664
 21
94.6065324944
  0
LINE
  5
43F
100
AcDbEntity
  8
KONSTRUKTIONSELEMENTE
100
AcDbLine
 62
7
  6
CONTINUOUS
 10
171.0287931499
 20
96.2292983893
 11
171.2787932691
 21
96.4846175301
  0
LINE
  5
440
100
AcDbEntity
  8
KONSTRUKTIONSELEMENTE
100
AcDbLine
 62
7
  6
CONTINUOUS
 10
175.7787934479
 20
98.8463196892
 11
175.5287929711
 21
98.5910005707
  0
LINE
  5
441
100
AcDbEntity
  8
KONSTRUKTIONSELEMENTE
100
AcDbLine
 62
7
  6
CONTINUOUS
 10
177.1537932095
 20
97.9527025956
 11
177.0287929711
 21
97.8250430364
  0
LINE
  5
442
100
AcDbEntity
  8
KONSTRUKTIONSELEMENTE
100
AcDbLine
 62
7
  6
CONTINUOUS
 10
169.7162931946
 20
98.4633410114
 11
169.9037932393
 21
98.5910005707
  0
LINE
  5
443
100
AcDbEntity
  8
KONSTRUKTIONSELEMENTE
100
AcDbLine
 62
7
  6
CONTINUOUS
 10
177.2787934479
 20
96.6122771341
 11
177.1537932095
 21
96.4846175301
  0
LINE
  5
444
100
AcDbEntity
  8
KONSTRUKTIONSELEMENTE
100
AcDbLine
 62
7
  6
CONTINUOUS
 10
178.5912934479
 20
97.3144047994
 11
178.7162929711
 21
97.4420643586
  0
LINE
  5
445
100
AcDbEntity
  8
KONSTRUKTIONSELEMENTE
100
AcDbLine
 62
7
  6
CONTINUOUS
 10
177.8975433168
 20
93.8618515235
 11
176.0600431916
 21
92.0001494614
  0
LINE
  5
446
100
AcDbEntity
  8
KONSTRUKTIONSELEMENTE
100
AcDbLine
 62
7
  6
CONTINUOUS
 10
176.5850430664
 20
92.0001494614
 11
178.2256678161
 21
93.6384472949
  0
LINE
  5
447
100
AcDbEntity
  8
KONSTRUKTIONSELEMENTE
100
AcDbLine
 62
7
  6
CONTINUOUS
 10
177.1537932095
 20
97.5697239179
 11
177.4037929711
 21
97.7612132567
  0
LINE
  5
448
100
AcDbEntity
  8
KONSTRUKTIONSELEMENTE
100
AcDbLine
 62
7
  6
CONTINUOUS
 10
170.9037932691
 20
96.6122771341
 11
170.7162932691
 21
96.4846175301
  0
LINE
  5
449
100
AcDbEntity
  8
KONSTRUKTIONSELEMENTE
100
AcDbLine
 62
7
  6
CONTINUOUS
 10
175.9037929711
 20
98.5271707911
 11
176.0912929711
 21
98.6548303503
  0
LINE
  5
44A
100
AcDbEntity
  8
KONSTRUKTIONSELEMENTE
100
AcDbLine
 62
7
  6
CONTINUOUS
 10
178.7162929711
 20
98.5271707911
 11
178.9037929711
 21
98.6548303503
  0
LINE
  5
44B
100
AcDbEntity
  8
KONSTRUKTIONSELEMENTE
100
AcDbLine
 62
7
  6
CONTINUOUS
 10
169.8412932095
 20
98.9739792484
 11
169.5912932244
 21
98.8463196892
  0
LINE
  5
44C
100
AcDbEntity
  8
KONSTRUKTIONSELEMENTE
100
AcDbLine
 62
7
  6
CONTINUOUS
 10
176.5850430664
 20
94.5320644182
 11
176.7819180664
 21
94.6810005707
  0
LINE
  5
44D
100
AcDbEntity
  8
KONSTRUKTIONSELEMENTE
100
AcDbLine
 62
7
  6
CONTINUOUS
 10
178.8412932095
 20
97.888872816
 11
178.4662932095
 21
97.6335536975
  0
LINE
  5
44E
100
AcDbEntity
  8
KONSTRUKTIONSELEMENTE
100
AcDbLine
 62
7
  6
CONTINUOUS
 10
178.7162929711
 20
97.4420643586
 11
178.9037929711
 21
97.5697239179
  0
LINE
  5
44F
100
AcDbEntity
  8
KONSTRUKTIONSELEMENTE
100
AcDbLine
 62
7
  6
CONTINUOUS
 10
177.2787934479
 20
96.2292983893
 11
177.4662934479
 21
96.3569579709
  0
LINE
  5
450
100
AcDbEntity
  8
KONSTRUKTIONSELEMENTE
100
AcDbLine
 62
7
  6
CONTINUOUS
 10
179.9037934479
 20
96.5484473098
 11
179.7162934479
 21
96.4207877505
  0
LINE
  5
451
100
AcDbEntity
  8
KONSTRUKTIONSELEMENTE
100
AcDbLine
 62
7
  6
CONTINUOUS
 10
178.8412932095
 20
98.9739792484
 11
178.5287929711
 21
98.7824899096
  0
LINE
  5
452
100
AcDbEntity
  8
KONSTRUKTIONSELEMENTE
100
AcDbLine
 62
7
  6
CONTINUOUS
 10
179.7787932095
 20
96.1016388133
 11
180.0912934479
 21
96.2931281689
  0
LINE
  5
453
100
AcDbEntity
  8
KONSTRUKTIONSELEMENTE
100
AcDbLine
 62
7
  6
CONTINUOUS
 10
176.7162929413
 20
95.0533409518
 11
176.4537931916
 21
94.9044047994
  0
LINE
  5
454
100
AcDbEntity
  8
KONSTRUKTIONSELEMENTE
100
AcDbLine
 62
7
  6
CONTINUOUS
 10
176.0287932095
 20
98.9739792484
 11
175.7787934479
 21
98.8463196892
  0
LINE
  5
455
100
AcDbEntity
  8
KONSTRUKTIONSELEMENTE
100
AcDbLine
 62
7
  6
CONTINUOUS
 10
170.7787932095
 20
96.1016388133
 11
171.0287931499
 21
96.2292983893
  0
LINE
  5
456
100
AcDbEntity
  8
KONSTRUKTIONSELEMENTE
100
AcDbLine
 62
7
  6
CONTINUOUS
 10
177.1537932095
 20
96.4846175301
 11
177.0287929711
 21
96.4207877505
  0
LINE
  5
457
100
AcDbEntity
  8
KONSTRUKTIONSELEMENTE
100
AcDbLine
 62
7
  6
CONTINUOUS
 10
177.0287929711
 20
96.1016388133
 11
177.2787934479
 21
96.2292983893
  0
LINE
  5
458
100
AcDbEntity
  8
KONSTRUKTIONSELEMENTE
100
AcDbLine
 62
7
  6
CONTINUOUS
 10
169.9037932393
 20
98.5910005707
 11
170.0912932393
 21
98.6548303503
  0
LINE
  5
459
100
AcDbEntity
  8
KONSTRUKTIONSELEMENTE
100
AcDbLine
 62
7
  6
CONTINUOUS
 10
178.9037929711
 20
98.6548303503
 11
179.0912929711
 21
98.7186601299
  0
LINE
  5
45A
100
AcDbEntity
  8
KONSTRUKTIONSELEMENTE
100
AcDbLine
 62
7
  6
CONTINUOUS
 10
177.0287929711
 20
97.8250430364
 11
176.6537929711
 21
97.6973834771
  0
LINE
  5
45B
100
AcDbEntity
  8
KONSTRUKTIONSELEMENTE
100
AcDbLine
 62
7
  6
CONTINUOUS
 10
178.9037929711
 20
97.5697239179
 11
179.0912929711
 21
97.6335536975
  0
LINE
  5
45C
100
AcDbEntity
  8
KONSTRUKTIONSELEMENTE
100
AcDbLine
 62
7
  6
CONTINUOUS
 10
179.7162934479
 20
96.4207877505
 11
179.5287934479
 21
96.3569579709
  0
LINE
  5
45D
100
AcDbEntity
  8
0
100
AcDbLine
 62
7
  6
CONTINUOUS
 10
180.7475432095
 20
68.9078090281
 11
179.7475432095
 21
67.9078090281
  0
LINE
  5
45E
100
AcDbEntity
  8
RUNDUNGEN
100
AcDbLine
 62
7
  6
CONTINUOUS
 10
65.1063575268
 20
25.4819272264
 11
65.1063575268
 21
25.9819272264
  0
LINE
  5
45F
100
AcDbEntity
  8
RUNDUNGEN
100
AcDbLine
 62
7
  6
CONTINUOUS
 10
65.1063575268
 20
36.7819272264
 11
65.1063575268
 21
37.2819272264
  0
LINE
  5
460
100
AcDbEntity
  8
BEZUGSACHSEN
100
AcDbLine
 62
7
  6
CONTINUOUS
 10
68.6063575268
 20
41.2050126902
 11
69.0993159716
 21
42.0588417627
  0
LINE
  5
461
100
AcDbEntity
  8
RUNDUNGEN
100
AcDbLine
 62
7
  6
CONTINUOUS
 10
87.0993159716
 20
10.8819272264
 11
86.113399082
 21
10.8819272264
  0
LINE
  5
462
100
AcDbEntity
  8
BEZUGSACHSEN
100
AcDbLine
 62
7
  6
CONTINUOUS
 10
69.0993159716
 20
20.7050126902
 11
68.6063575268
 21
21.5588417627
  0
LINE
  5
463
100
AcDbEntity
  8
RUNDUNGEN
100
AcDbLine
 62
7
  6
CONTINUOUS
 10
68.6063575268
 20
21.5588417627
 11
68.6063575268
 21
22.9819272264
  0
LINE
  5
464
100
AcDbEntity
  8
RUNDUNGEN
100
AcDbLine
 62
7
  6
CONTINUOUS
 10
68.6063575268
 20
39.7819272264
 11
68.6063575268
 21
41.2050126902
  0
LINE
  5
465
100
AcDbEntity
  8
BEZUGSACHSEN
100
AcDbLine
 62
7
  6
CONTINUOUS
 10
69.0993159716
 20
42.0588417627
 11
86.113399082
 21
51.8819272264
  0
LWPOLYLINE
  5
466
100
AcDbEntity
  8
RUNDUNGEN
100
AcDbPolyline
 62
7
  6
CONTINUOUS
 90
5
 70
0
 10
89.7051929884
 20
14.7113117034
 10
89.9267862961
 20
14.7220230435
 10
90.4327025019
 20
14.830546331
 10
90.913498977
 20
15.0562723473
 10
91.3553100114
 20
15.4035968845
  0
LINE
  5
467
100
AcDbEntity
  8
BEZUGSACHSEN
100
AcDbLine
 62
7
  6
CONTINUOUS
 10
83.5072922471
 20
14.711503471
 11
83.5058774145
 21
14.7114960277
  0
LINE
  5
468
100
AcDbEntity
  8
BEZUGSACHSEN
100
AcDbLine
 62
7
  6
CONTINUOUS
 10
89.7068356476
 20
14.7114960276
 11
83.505879406
 21
14.7114960276
  0
LINE
  5
469
100
AcDbEntity
  8
RUNDUNGEN
100
AcDbLine
 62
7
  6
CONTINUOUS
 10
89.7052654035
 20
14.7115052265
 11
89.7068376391
 21
14.7114960277
  0
LINE
  5
46A
100
AcDbEntity
  8
BEZUGSACHSEN
100
AcDbLine
 62
7
  6
CONTINUOUS
 10
86.113399082
 20
10.8819272264
 11
69.0993159716
 21
20.7050126902
  0
LINE
  5
46B
100
AcDbEntity
  8
BEZUGSACHSEN
100
AcDbLine
 62
7
  6
CONTINUOUS
 10
81.724889824
 20
47.2202737824
 11
79.3465014411
 21
44.5135669366
  0
LINE
  5
46C
100
AcDbEntity
  8
BEZUGSACHSEN
100
AcDbLine
 62
7
  6
CONTINUOUS
 10
81.8574050422
 20
47.3602575684
 11
81.7417487425
 21
47.2390098394
  0
LWPOLYLINE
  5
46D
100
AcDbEntity
  8
BEZUGSACHSEN
100
AcDbPolyline
 62
7
  6
CONTINUOUS
 90
5
 70
0
 10
81.8637594897
 20
15.397375601
 10
82.3135321249
 20
15.0475317013
 10
82.8023509679
 20
14.8231550684
 10
83.3159223153
 20
14.7192954504
 10
83.5073666255
 20
14.7113100116
  0
LINE
  5
46E
100
AcDbEntity
  8
BEZUGSACHSEN
100
AcDbLine
 62
7
  6
CONTINUOUS
 10
81.7423895685
 20
15.5241395761
 11
81.8637594897
 21
15.397375601
  0
LINE
  5
46F
100
AcDbEntity
  8
BEZUGSACHSEN
100
AcDbLine
 62
7
  6
CONTINUOUS
 10
79.343939797
 20
18.2532055566
 11
81.724889824
 21
15.5435806705
  0
LINE
  5
470
100
AcDbEntity
  8
0
100
AcDbLine
 62
7
  6
CONTINUOUS
 10
83.1034522264
 20
20.4150376298
 11
82.6063575268
 21
20.4150376298
  0
LINE
  5
471
100
AcDbEntity
  8
0
100
AcDbLine
 62
7
  6
CONTINUOUS
 10
83.1059815261
 20
20.4970903351
 11
82.6063575268
 21
20.4970903351
  0
LINE
  5
472
100
AcDbEntity
  8
0
100
AcDbLine
 62
7
  6
CONTINUOUS
 10
83.1063575268
 20
20.8535305898
 11
82.6063575268
 21
20.8535305898
  0
LINE
  5
473
100
AcDbEntity
  8
0
100
AcDbLine
 62
7
  6
CONTINUOUS
 10
83.1063575268
 20
20.902279847
 11
82.6063575268
 21
20.902279847
  0
LINE
  5
474
100
AcDbEntity
  8
0
100
AcDbLine
 62
7
  6
CONTINUOUS
 10
83.1063575268
 20
20.9822854875
 11
82.6063575268
 21
20.9822854875
  0
LINE
  5
475
100
AcDbEntity
  8
0
100
AcDbLine
 62
7
  6
CONTINUOUS
 10
83.1063575268
 20
21.1335517048
 11
82.6063575268
 21
21.1335517048
  0
LINE
  5
476
100
AcDbEntity
  8
0
100
AcDbLine
 62
7
  6
CONTINUOUS
 10
83.1063575268
 20
21.3873339666
 11
82.6063575268
 21
21.3873339666
  0
LINE
  5
477
100
AcDbEntity
  8
0
100
AcDbLine
 62
7
  6
CONTINUOUS
 10
83.1063575268
 20
21.6523723461
 11
82.6063575268
 21
21.6523723461
  0
LINE
  5
478
100
AcDbEntity
  8
0
100
AcDbLine
 62
7
  6
CONTINUOUS
 10
83.1063575268
 20
21.948668168
 11
82.6063575268
 21
21.948668168
  0
LINE
  5
479
100
AcDbEntity
  8
0
100
AcDbLine
 62
7
  6
CONTINUOUS
 10
83.1063575268
 20
22.3274787097
 11
82.6063575268
 21
22.3274787097
  0
LINE
  5
47A
100
AcDbEntity
  8
0
100
AcDbLine
 62
7
  6
CONTINUOUS
 10
83.1063575268
 20
22.6916072646
 11
82.6063575268
 21
22.6916072646
  0
LINE
  5
47B
100
AcDbEntity
  8
0
100
AcDbLine
 62
7
  6
CONTINUOUS
 10
83.1063575268
 20
22.8007529286
 11
82.6063575268
 21
22.8007529286
  0
LINE
  5
47C
100
AcDbEntity
  8
0
100
AcDbLine
 62
7
  6
CONTINUOUS
 10
83.1063575268
 20
22.9941654333
 11
82.6063575268
 21
22.9941654333
  0
LINE
  5
47D
100
AcDbEntity
  8
0
100
AcDbLine
 62
7
  6
CONTINUOUS
 10
83.1063575268
 20
23.2466319827
 11
82.6063575268
 21
23.2466319827
  0
LINE
  5
47E
100
AcDbEntity
  8
0
100
AcDbLine
 62
7
  6
CONTINUOUS
 10
83.1063575268
 20
23.4486717859
 11
82.6063575268
 21
23.4486717859
  0
LINE
  5
47F
100
AcDbEntity
  8
0
100
AcDbLine
 62
7
  6
CONTINUOUS
 10
83.1063575268
 20
23.6676322134
 11
82.6063575268
 21
23.6676322134
  0
LINE
  5
480
100
AcDbEntity
  8
0
100
AcDbLine
 62
7
  6
CONTINUOUS
 10
83.1063575268
 20
23.8192453885
 11
82.6063575268
 21
23.8192453885
  0
LINE
  5
481
100
AcDbEntity
  8
0
100
AcDbLine
 62
7
  6
CONTINUOUS
 10
83.1063575268
 20
24.0551252862
 11
82.6063575268
 21
24.0551252862
  0
LINE
  5
482
100
AcDbEntity
  8
0
100
AcDbLine
 62
7
  6
CONTINUOUS
 10
83.1063575268
 20
24.4343260692
 11
82.6063575268
 21
24.4343260692
  0
LINE
  5
483
100
AcDbEntity
  8
RUNDUNGEN
100
AcDbLine
 62
7
  6
CONTINUOUS
 10
67.6672603724
 20
24.4819272264
 11
66.1063575268
 21
24.4819272264
  0
LINE
  5
484
100
AcDbEntity
  8
0
100
AcDbLine
 62
7
  6
CONTINUOUS
 10
83.1063575268
 20
24.6197804339
 11
82.6063575268
 21
24.6197804339
  0
LINE
  5
485
100
AcDbEntity
  8
0
100
AcDbLine
 62
7
  6
CONTINUOUS
 10
83.1063575268
 20
24.7209678989
 11
82.6063575268
 21
24.7209678989
  0
LINE
  5
486
100
AcDbEntity
  8
0
100
AcDbLine
 62
7
  6
CONTINUOUS
 10
83.1063575268
 20
24.8390748635
 11
82.6063575268
 21
24.8390748635
  0
LINE
  5
487
100
AcDbEntity
  8
0
100
AcDbLine
 62
7
  6
CONTINUOUS
 10
83.1063575268
 20
24.8898355971
 11
82.6063575268
 21
24.8898355971
  0
LINE
  5
488
100
AcDbEntity
  8
0
100
AcDbLine
 62
7
  6
CONTINUOUS
 10
83.1063575268
 20
25.6376433485
 11
82.6063575268
 21
25.6376433485
  0
LINE
  5
489
100
AcDbEntity
  8
0
100
AcDbLine
 62
7
  6
CONTINUOUS
 10
83.1063575268
 20
25.8227041927
 11
82.6063575268
 21
25.8227041927
  0
LINE
  5
48A
100
AcDbEntity
  8
KONSTRUKTIONSELEMENTE
100
AcDbLine
 62
7
  6
CONTINUOUS
 10
109.5063575268
 20
25.9819272264
 11
63.7063575268
 21
25.9819272264
  0
LINE
  5
48B
100
AcDbEntity
  8
0
100
AcDbLine
 62
7
  6
CONTINUOUS
 10
82.6063575268
 20
20.4150376298
 11
82.6063575268
 21
22.6862880701
  0
LINE
  5
48C
100
AcDbEntity
  8
0
100
AcDbLine
 62
7
  6
CONTINUOUS
 10
82.6063575268
 20
22.6916072646
 11
82.6063575268
 21
24.8898355971
  0
LINE
  5
48D
100
AcDbEntity
  8
0
100
AcDbLine
 62
7
  6
CONTINUOUS
 10
82.6063575268
 20
25.6376433485
 11
82.6063575268
 21
25.9819272264
  0
LINE
  5
48E
100
AcDbEntity
  8
0
100
AcDbLine
 62
7
  6
CONTINUOUS
 10
82.6063575268
 20
37.1896775792
 11
82.6063575268
 21
42.3548704742
  0
LINE
  5
48F
100
AcDbEntity
  8
BEZUGSACHSEN
100
AcDbLine
 62
7
  6
CONTINUOUS
 10
83.1063575268
 20
25.9819272264
 11
83.1063575268
 21
19.1716142368
  0
LINE
  5
490
100
AcDbEntity
  8
BEZUGSACHSEN
100
AcDbLine
 62
7
  6
CONTINUOUS
 10
83.1063575268
 20
36.7819272264
 11
83.1063575268
 21
43.5922951632
  0
LWPOLYLINE
  5
491
100
AcDbEntity
  8
RUNDUNGEN
100
AcDbPolyline
 62
7
  6
CONTINUOUS
 90
6
 70
0
 10
90.1857951928
 20
24.4970483528
 10
90.1796612717
 20
24.5180798936
 10
90.1521785232
 20
24.6497379838
 10
90.1233772211
 20
24.9025154283
 10
90.1072627073
 20
25.2874581832
 10
90.1063639223
 20
25.4067117285
  0
LINE
  5
492
100
AcDbEntity
  8
BEZUGSACHSEN
100
AcDbLine
 62
7
  6
CONTINUOUS
 10
90.1063575268
 20
43.5922951632
 11
90.1063575268
 21
36.7819272264
  0
LINE
  5
493
100
AcDbEntity
  8
BEZUGSACHSEN
100
AcDbLine
 62
7
  6
CONTINUOUS
 10
90.1063575268
 20
25.9819272264
 11
90.1063575268
 21
21.6572125405
  0
LINE
  5
494
100
AcDbEntity
  8
RUNDUNGEN
100
AcDbLine
 62
7
  6
CONTINUOUS
 10
90.1063575268
 20
25.9819272264
 11
90.1063575268
 21
19.1716142368
  0
LINE
  5
495
100
AcDbEntity
  8
KONSTRUKTIONSELEMENTE
100
AcDbLine
 62
7
  6
CONTINUOUS
 10
109.5063575268
 20
36.7819272264
 11
63.7063575268
 21
36.7819272264
  0
LINE
  5
496
100
AcDbEntity
  8
0
100
AcDbLine
 62
7
  6
CONTINUOUS
 10
83.1063575268
 20
37.1896775792
 11
82.6063575268
 21
37.1896775792
  0
LINE
  5
497
100
AcDbEntity
  8
0
100
AcDbLine
 62
7
  6
CONTINUOUS
 10
83.1063575268
 20
37.2368837244
 11
82.6063575268
 21
37.2368837244
  0
LINE
  5
498
100
AcDbEntity
  8
0
100
AcDbLine
 62
7
  6
CONTINUOUS
 10
83.1063575268
 20
37.3375911652
 11
82.6063575268
 21
37.3375911652
  0
LINE
  5
499
100
AcDbEntity
  8
0
100
AcDbLine
 62
7
  6
CONTINUOUS
 10
83.1063575268
 20
37.5036017767
 11
82.6063575268
 21
37.5036017767
  0
LINE
  5
49A
100
AcDbEntity
  8
0
100
AcDbLine
 62
7
  6
CONTINUOUS
 10
83.1063575268
 20
38.0818855882
 11
82.6063575268
 21
38.0818855882
  0
LINE
  5
49B
100
AcDbEntity
  8
RUNDUNGEN
100
AcDbLine
 62
7
  6
CONTINUOUS
 10
67.6672562261
 20
38.2819272264
 11
66.1063575268
 21
38.2819272264
  0
LINE
  5
49C
100
AcDbEntity
  8
0
100
AcDbLine
 62
7
  6
CONTINUOUS
 10
83.1063575268
 20
38.3013975898
 11
82.6063575268
 21
38.3013975898
  0
LINE
  5
49D
100
AcDbEntity
  8
0
100
AcDbLine
 62
7
  6
CONTINUOUS
 10
83.1063575268
 20
38.50910818
 11
82.6063575268
 21
38.50910818
  0
LINE
  5
49E
100
AcDbEntity
  8
0
100
AcDbLine
 62
7
  6
CONTINUOUS
 10
83.1063575268
 20
38.7703200524
 11
82.6063575268
 21
38.7703200524
  0
LINE
  5
49F
100
AcDbEntity
  8
0
100
AcDbLine
 62
7
  6
CONTINUOUS
 10
83.1063575268
 20
38.9544274237
 11
82.6063575268
 21
38.9544274237
  0
LINE
  5
4A0
100
AcDbEntity
  8
0
100
AcDbLine
 62
7
  6
CONTINUOUS
 10
83.1063575268
 20
39.1267334917
 11
82.6063575268
 21
39.1267334917
  0
LINE
  5
4A1
100
AcDbEntity
  8
0
100
AcDbLine
 62
7
  6
CONTINUOUS
 10
83.1063575268
 20
39.7687513258
 11
82.6063575268
 21
39.7687513258
  0
LINE
  5
4A2
100
AcDbEntity
  8
0
100
AcDbLine
 62
7
  6
CONTINUOUS
 10
83.1063575268
 20
40.3140124069
 11
82.6063575268
 21
40.3140124069
  0
LINE
  5
4A3
100
AcDbEntity
  8
0
100
AcDbLine
 62
7
  6
CONTINUOUS
 10
83.1063575268
 20
40.453902114
 11
82.6063575268
 21
40.453902114
  0
LINE
  5
4A4
100
AcDbEntity
  8
0
100
AcDbLine
 62
7
  6
CONTINUOUS
 10
83.1063575268
 20
41.0134609422
 11
82.6063575268
 21
41.0134609422
  0
LINE
  5
4A5
100
AcDbEntity
  8
0
100
AcDbLine
 62
7
  6
CONTINUOUS
 10
83.1063575268
 20
41.153350716
 11
82.6063575268
 21
41.153350716
  0
LINE
  5
4A6
100
AcDbEntity
  8
0
100
AcDbLine
 62
7
  6
CONTINUOUS
 10
83.1063575268
 20
41.2393524603
 11
82.6063575268
 21
41.2393524603
  0
LINE
  5
4A7
100
AcDbEntity
  8
0
100
AcDbLine
 62
7
  6
CONTINUOUS
 10
83.1063575268
 20
41.5058643231
 11
82.6063575268
 21
41.5058643231
  0
LINE
  5
4A8
100
AcDbEntity
  8
0
100
AcDbLine
 62
7
  6
CONTINUOUS
 10
83.1063575268
 20
41.7397270351
 11
82.6063575268
 21
41.7397270351
  0
LINE
  5
4A9
100
AcDbEntity
  8
0
100
AcDbLine
 62
7
  6
CONTINUOUS
 10
83.1063575268
 20
41.8888750435
 11
82.6063575268
 21
41.8888750435
  0
LINE
  5
4AA
100
AcDbEntity
  8
0
100
AcDbLine
 62
7
  6
CONTINUOUS
 10
83.1063575268
 20
42.3548704742
 11
82.6063575268
 21
42.3548704742
  0
LINE
  5
4AB
100
AcDbEntity
  8
RUNDUNGEN
100
AcDbLine
 62
7
  6
CONTINUOUS
 10
91.4878252296
 20
15.5435806705
 11
93.8662136124
 21
18.2502875163
  0
LINE
  5
4AC
100
AcDbEntity
  8
BEZUGSACHSEN
100
AcDbLine
 62
7
  6
CONTINUOUS
 10
93.8687752566
 20
44.5106488963
 11
91.4878252296
 21
47.2202737824
  0
LINE
  5
4AD
100
AcDbEntity
  8
RUNDUNGEN
100
AcDbLine
 62
7
  6
CONTINUOUS
 10
91.3553100114
 20
15.4035968845
 11
91.4709663111
 21
15.5248446135
  0
LWPOLYLINE
  5
4AE
100
AcDbEntity
  8
BEZUGSACHSEN
100
AcDbPolyline
 62
7
  6
CONTINUOUS
 90
5
 70
0
 10
91.3489555639
 20
47.3664788519
 10
90.8991829287
 20
47.7163227516
 10
90.4103640857
 20
47.9406993845
 10
89.8967927383
 20
48.0445590025
 10
89.7053484281
 20
48.0525444412
  0
LINE
  5
4AF
100
AcDbEntity
  8
BEZUGSACHSEN
100
AcDbLine
 62
7
  6
CONTINUOUS
 10
91.4703254851
 20
47.2397148768
 11
91.3489555639
 21
47.3664788519
  0
LINE
  5
4B0
100
AcDbEntity
  8
RUNDUNGEN
100
AcDbLine
 62
7
  6
CONTINUOUS
 10
104.6063575268
 20
41.2050126902
 11
104.6063575268
 21
36.7819272264
  0
LINE
  5
4B1
100
AcDbEntity
  8
RUNDUNGEN
100
AcDbLine
 62
7
  6
CONTINUOUS
 10
104.6063575268
 20
25.9819272264
 11
104.6063575268
 21
21.5588417627
  0
LINE
  5
4B2
100
AcDbEntity
  8
BEZUGSACHSEN
100
AcDbLine
 62
7
  6
CONTINUOUS
 10
104.113399082
 20
20.7050126902
 11
87.0993159716
 21
10.8819272264
  0
LWPOLYLINE
  5
4B3
100
AcDbEntity
  8
BEZUGSACHSEN
100
AcDbPolyline
 62
7
  6
CONTINUOUS
 90
5
 70
0
 10
83.5075220652
 20
48.0525427495
 10
83.2859287574
 20
48.0418314094
 10
82.7800125516
 20
47.9333081219
 10
82.2992160766
 20
47.7075821056
 10
81.8574050422
 20
47.3602575684
  0
LINE
  5
4B4
100
AcDbEntity
  8
BEZUGSACHSEN
100
AcDbLine
 62
7
  6
CONTINUOUS
 10
89.7054228065
 20
48.0523509819
 11
89.7068376391
 21
48.0523584252
  0
LINE
  5
4B5
100
AcDbEntity
  8
BEZUGSACHSEN
100
AcDbLine
 62
7
  6
CONTINUOUS
 10
83.505879406
 20
48.0523584253
 11
89.7068356476
 21
48.0523584253
  0
LINE
  5
4B6
100
AcDbEntity
  8
BEZUGSACHSEN
100
AcDbLine
 62
7
  6
CONTINUOUS
 10
83.50744965
 20
48.0523492264
 11
83.5058774145
 21
48.0523584252
  0
LINE
  5
4B7
100
AcDbEntity
  8
BEZUGSACHSEN
100
AcDbLine
 62
7
  6
CONTINUOUS
 10
87.0993159716
 20
51.8819272264
 11
104.113399082
 21
42.0588417627
  0
LINE
  5
4B8
100
AcDbEntity
  8
RUNDUNGEN
100
AcDbLine
 62
7
  6
CONTINUOUS
 10
104.6063575268
 20
21.5588417627
 11
104.113399082
 21
20.7050126902
  0
LINE
  5
4B9
100
AcDbEntity
  8
RUNDUNGEN
100
AcDbLine
 62
7
  6
CONTINUOUS
 10
86.113399082
 20
51.8819272264
 11
87.0993159716
 21
51.8819272264
  0
LINE
  5
4BA
100
AcDbEntity
  8
RUNDUNGEN
100
AcDbLine
 62
7
  6
CONTINUOUS
 10
104.113399082
 20
42.0588417627
 11
104.6063575268
 21
41.2050126902
  0
ARC
  5
4BB
100
AcDbEntity
  8
BEZUGSACHSEN
100
AcDbCircle
 62
7
  6
CONTINUOUS
 10
74.1063575268
 20
135.7447518544
 40
9.0
100
AcDbArc
 50
339.9990426053
 51
0.0008445004
  0
ARC
  5
4BC
100
AcDbEntity
  8
BEZUGSACHSEN
100
AcDbCircle
 62
7
  6
CONTINUOUS
 10
76.3793251044
 20
122.1078090281
 40
2.2
100
AcDbArc
 50
270.0
 51
340.0000608868
  0
ARC
  5
4BD
100
AcDbEntity
  8
BEZUGSACHSEN
100
AcDbCircle
 62
7
  6
CONTINUOUS
 10
72.6063575268
 20
118.4078090281
 40
1.5
100
AcDbArc
 50
90.0
 51
180.0
  0
ARC
  5
4BE
100
AcDbEntity
  8
RUNDUNGEN
100
AcDbCircle
 62
7
  6
CONTINUOUS
 10
67.8710771897
 20
115.2077994453
 40
1.4999982888
100
AcDbArc
 50
270.0
 51
309.9999049773
  0
ARC
  5
4BF
100
AcDbEntity
  8
RUNDUNGEN
100
AcDbCircle
 62
7
  6
CONTINUOUS
 10
66.1063575268
 20
112.7078090281
 40
1.0
100
AcDbArc
 50
90.0
 51
180.0
  0
ARC
  5
4C0
100
AcDbEntity
  8
RUNDUNGEN
100
AcDbCircle
 62
7
  6
CONTINUOUS
 10
66.1063575268
 20
100.9078090281
 40
1.0
100
AcDbArc
 50
180.0
 51
270.0
  0
ARC
  5
4C1
100
AcDbEntity
  8
RUNDUNGEN
100
AcDbCircle
 62
7
  6
CONTINUOUS
 10
99.1063575268
 20
135.7447518544
 40
9.0
100
AcDbArc
 50
179.9991554996
 51
200.0009573947
  0
ARC
  5
4C2
100
AcDbEntity
  8
RUNDUNGEN
100
AcDbCircle
 62
7
  6
CONTINUOUS
 10
86.6063575268
 20
95.7756116478
 40
3.632195832
100
AcDbArc
 50
82.1997944775
 51
97.8002055225
  0
ARC
  5
4C3
100
AcDbEntity
  8
RUNDUNGEN
100
AcDbCircle
 62
7
  6
CONTINUOUS
 10
96.8333899491
 20
122.1078090281
 40
2.2
100
AcDbArc
 50
199.9999391132
 51
270.0
  0
ARC
  5
4C4
100
AcDbEntity
  8
BEZUGSACHSEN
100
AcDbCircle
 62
7
  6
CONTINUOUS
 10
96.8333899491
 20
122.1078090281
 40
2.2
100
AcDbArc
 50
240.0189578728
 51
270.0
  0
ARC
  5
4C5
100
AcDbEntity
  8
BEZUGSACHSEN
100
AcDbCircle
 62
7
  6
CONTINUOUS
 10
100.6063575268
 20
118.4078090281
 40
1.5
100
AcDbArc
 50
0.0
 51
90.0
  0
ARC
  5
4C6
100
AcDbEntity
  8
KONSTRUKTIONSELEMENTE
100
AcDbCircle
 62
7
  6
CONTINUOUS
 10
86.6063575268
 20
153.4078090281
 40
28.3
100
AcDbArc
 50
180.0
 51
256.6901515809
  0
ARC
  5
4C7
100
AcDbEntity
  8
KONSTRUKTIONSELEMENTE
100
AcDbCircle
 62
7
  6
CONTINUOUS
 10
86.6063575268
 20
153.4078090281
 40
28.3
100
AcDbArc
 50
283.3098484191
 51
360.0
  0
ARC
  5
4C8
100
AcDbEntity
  8
KONSTRUKTIONSELEMENTE
100
AcDbCircle
 62
7
  6
CONTINUOUS
 10
86.6063575268
 20
178.4078090281
 40
28.3
100
AcDbArc
 50
0.0
 51
180.0
  0
ARC
  5
4C9
100
AcDbEntity
  8
KONSTRUKTIONSELEMENTE
100
AcDbCircle
 62
7
  6
CONTINUOUS
 10
86.6063575268
 20
178.4078090281
 40
17.5
100
AcDbArc
 50
0.0
 51
180.0
  0
ARC
  5
4CA
100
AcDbEntity
  8
KONSTRUKTIONSELEMENTE
100
AcDbCircle
 62
7
  6
CONTINUOUS
 10
86.6063575268
 20
153.4078090281
 40
17.5
100
AcDbArc
 50
180.0
 51
256.7472253095
  0
ARC
  5
4CB
100
AcDbEntity
  8
KONSTRUKTIONSELEMENTE
100
AcDbCircle
 62
7
  6
CONTINUOUS
 10
86.6063575268
 20
153.4078090281
 40
17.5
100
AcDbArc
 50
281.5456774344
 51
360.0
  0
ARC
  5
4CC
100
AcDbEntity
  8
BEZUGSACHSEN
100
AcDbCircle
 62
7
  6
CONTINUOUS
 10
162.0771120107
 20
129.4078090281
 40
4.0
100
AcDbArc
 50
157.5
 51
202.5
  0
ARC
  5
4CD
100
AcDbEntity
  8
BEZUGSACHSEN
100
AcDbCircle
 62
7
  6
CONTINUOUS
 10
165.7881953882
 20
138.3671568493
 40
4.0
100
AcDbArc
 50
112.5
 51
157.5
  0
ARC
  5
4CE
100
AcDbEntity
  8
RUNDUNGEN
100
AcDbCircle
 62
7
  6
CONTINUOUS
 10
169.9975432095
 20
93.9078090281
 40
3.0
100
AcDbArc
 50
179.999999942
 51
270.000000063
  0
ARC
  5
4CF
100
AcDbEntity
  8
RUNDUNGEN
100
AcDbCircle
 62
7
  6
CONTINUOUS
 10
169.9975432095
 20
96.9078090281
 40
3.0
100
AcDbArc
 50
89.999999942
 51
180.000000063
  0
ARC
  5
4D0
100
AcDbEntity
  8
BEZUGSACHSEN
100
AcDbCircle
 62
7
  6
CONTINUOUS
 10
164.4975432095
 20
96.679459644
 40
2.7283478354
100
AcDbArc
 50
80.9977270451
 51
99.0022729549
  0
ARC
  5
4D1
100
AcDbEntity
  8
BEZUGSACHSEN
100
AcDbCircle
 62
7
  6
CONTINUOUS
 10
158.390040741
 20
122.1078090281
 40
2.1999993385
100
AcDbArc
 50
309.5806101537
 51
22.5000136226
  0
ARC
  5
4D2
100
AcDbEntity
  8
BEZUGSACHSEN
100
AcDbCircle
 62
7
  6
CONTINUOUS
 10
160.7475432913
 20
119.2561111425
 40
1.500000304
100
AcDbArc
 50
129.5805905272
 51
179.9999654168
  0
ARC
  5
4D3
100
AcDbEntity
  8
RUNDUNGEN
100
AcDbCircle
 62
7
  6
CONTINUOUS
 10
168.8475432095
 20
100.9078090281
 40
1.0
100
AcDbArc
 50
180.0
 51
270.0
  0
ARC
  5
4D4
100
AcDbEntity
  8
RUNDUNGEN
100
AcDbCircle
 62
7
  6
CONTINUOUS
 10
174.7475432095
 20
106.8078090281
 40
6.9
100
AcDbArc
 50
0.0
 51
180.0
  0
ARC
  5
4D5
100
AcDbEntity
  8
RUNDUNGEN
100
AcDbCircle
 62
7
  6
CONTINUOUS
 10
179.4975432095
 20
93.9078090281
 40
3.0
100
AcDbArc
 50
269.999999942
 51
0.000000063
  0
ARC
  5
4D6
100
AcDbEntity
  8
RUNDUNGEN
100
AcDbCircle
 62
7
  6
CONTINUOUS
 10
179.4975432095
 20
96.9078090281
 40
3.0
100
AcDbArc
 50
359.999999942
 51
90.000000063
  0
ARC
  5
4D7
100
AcDbEntity
  8
RUNDUNGEN
100
AcDbCircle
 62
7
  6
CONTINUOUS
 10
180.6475432095
 20
100.9078090281
 40
1.0
100
AcDbArc
 50
270.0
 51
360.0
  0
ARC
  5
4D8
100
AcDbEntity
  8
BEZUGSACHSEN
100
AcDbCircle
 62
7
  6
CONTINUOUS
 10
174.7475432095
 20
129.4078090281
 40
6.5
100
AcDbArc
 50
146.1807623076
 51
33.8192376924
  0
ARC
  5
4D9
100
AcDbEntity
  8
KONSTRUKTIONSELEMENTE
100
AcDbCircle
 62
7
  6
CONTINUOUS
 10
174.7475432095
 20
130.5078090281
 40
5.4
100
AcDbArc
 50
180.0
 51
360.0
  0
ARC
  5
4DA
100
AcDbEntity
  8
BEZUGSACHSEN
100
AcDbCircle
 62
7
  6
CONTINUOUS
 10
184.9975432095
 20
96.679459644
 40
2.7283478354
100
AcDbArc
 50
80.9977270451
 51
99.0022729549
  0
ARC
  5
4DB
100
AcDbEntity
  8
RUNDUNGEN
100
AcDbCircle
 62
7
  6
CONTINUOUS
 10
183.7068910307
 20
138.3671568493
 40
4.0
100
AcDbArc
 50
57.4964269565
 51
67.5
  0
ARC
  5
4DC
100
AcDbEntity
  8
BEZUGSACHSEN
100
AcDbCircle
 62
7
  6
CONTINUOUS
 10
183.7068910307
 20
138.3671568493
 40
4.0
100
AcDbArc
 50
22.5
 51
67.5
  0
ARC
  5
4DD
100
AcDbEntity
  8
BEZUGSACHSEN
100
AcDbCircle
 62
7
  6
CONTINUOUS
 10
187.4179744083
 20
129.4078090281
 40
4.0
100
AcDbArc
 50
337.5
 51
22.5
  0
ARC
  5
4DE
100
AcDbEntity
  8
RUNDUNGEN
100
AcDbCircle
 62
7
  6
CONTINUOUS
 10
191.105045678
 20
122.1078090281
 40
2.1999993385
100
AcDbArc
 50
157.4999863774
 51
205.1925211884
  0
ARC
  5
4DF
100
AcDbEntity
  8
BEZUGSACHSEN
100
AcDbCircle
 62
7
  6
CONTINUOUS
 10
191.105045678
 20
122.1078090281
 40
2.1999993385
100
AcDbArc
 50
157.4999863774
 51
230.4193898463
  0
ARC
  5
4E0
100
AcDbEntity
  8
BEZUGSACHSEN
100
AcDbCircle
 62
7
  6
CONTINUOUS
 10
188.7475431277
 20
119.2561111425
 40
1.500000304
100
AcDbArc
 50
0.0000345831
 51
50.4194094728
  0
ARC
  5
4E1
100
AcDbEntity
  8
KONSTRUKTIONSELEMENTE
100
AcDbCircle
 62
7
  6
CONTINUOUS
 10
174.7475432095
 20
201.3078090281
 40
5.4
100
AcDbArc
 50
0.0
 51
180.0
  0
ARC
  5
4E2
100
AcDbEntity
  8
RUNDUNGEN
100
AcDbCircle
 62
7
  6
CONTINUOUS
 10
67.1063575268
 20
22.9819272264
 40
1.5
100
AcDbArc
 50
0.0
 51
90.0
  0
ARC
  5
4E3
100
AcDbEntity
  8
RUNDUNGEN
100
AcDbCircle
 62
7
  6
CONTINUOUS
 10
66.1063575268
 20
25.4819272264
 40
1.0
100
AcDbArc
 50
180.0
 51
270.0
  0
ARC
  5
4E4
100
AcDbEntity
  8
KONSTRUKTIONSELEMENTE
100
AcDbCircle
 62
7
  6
CONTINUOUS
 10
63.7063575268
 20
31.3819272264
 40
5.4
100
AcDbArc
 50
90.0
 51
270.0
  0
ARC
  5
4E5
100
AcDbEntity
  8
RUNDUNGEN
100
AcDbCircle
 62
7
  6
CONTINUOUS
 10
67.1063575268
 20
39.7819272264
 40
1.5
100
AcDbArc
 50
270.0
 51
360.0
  0
ARC
  5
4E6
100
AcDbEntity
  8
RUNDUNGEN
100
AcDbCircle
 62
7
  6
CONTINUOUS
 10
66.1063575268
 20
37.2819272264
 40
1.0
100
AcDbArc
 50
90.0
 51
180.0
  0
ARC
  5
4E7
100
AcDbEntity
  8
RUNDUNGEN
100
AcDbCircle
 62
7
  6
CONTINUOUS
 10
86.6063575268
 20
31.3819272264
 40
17.9419193782
100
AcDbArc
 50
197.5241019585
 51
270.0
  0
ARC
  5
4E8
100
AcDbEntity
  8
FASEN
100
AcDbCircle
 62
7
  6
CONTINUOUS
 10
86.6063575268
 20
31.3819272264
 40
17.9419193782
100
AcDbArc
 50
17.5331480558
 51
90.0
  0
ARC
  5
4E9
100
AcDbEntity
  8
FASEN
100
AcDbCircle
 62
7
  6
CONTINUOUS
 10
86.6063575268
 20
31.3819272264
 40
17.9419193782
100
AcDbArc
 50
270.0
 51
342.4668519395
  0
ARC
  5
4EA
100
AcDbEntity
  8
RUNDUNGEN
100
AcDbCircle
 62
7
  6
CONTINUOUS
 10
86.6063575268
 20
31.3819272264
 40
17.9419193782
100
AcDbArc
 50
90.0
 51
162.4758982664
  0
ARC
  5
4EB
100
AcDbEntity
  8
FASEN
100
AcDbCircle
 62
7
  6
CONTINUOUS
 10
86.6063575268
 20
31.3819272264
 40
17.3550952894
100
AcDbArc
 50
18.1496770058
 51
161.8503229573
  0
ARC
  5
4EC
100
AcDbEntity
  8
FASEN
100
AcDbCircle
 62
7
  6
CONTINUOUS
 10
86.6063575268
 20
31.3819272264
 40
17.3550952894
100
AcDbArc
 50
198.1496770058
 51
341.8503229573
  0
ARC
  5
4ED
100
AcDbEntity
  8
BEZUGSACHSEN
100
AcDbCircle
 62
7
  6
CONTINUOUS
 10
86.6063575268
 20
31.3819272264
 40
16.0
100
AcDbArc
 50
199.74143999
 51
249.1910069906
  0
ARC
  5
4EE
100
AcDbEntity
  8
BEZUGSACHSEN
100
AcDbCircle
 62
7
  6
CONTINUOUS
 10
86.6063575268
 20
31.3819272264
 40
16.0
100
AcDbArc
 50
110.8089930094
 51
160.25856001
  0
ARC
  5
4EF
100
AcDbEntity
  8
BEZUGSACHSEN
100
AcDbCircle
 62
7
  6
CONTINUOUS
 10
86.6063575268
 20
31.3819272264
 40
16.0
100
AcDbArc
 50
19.74143999
 51
69.1910069906
  0
ARC
  5
4F0
100
AcDbEntity
  8
BEZUGSACHSEN
100
AcDbCircle
 62
7
  6
CONTINUOUS
 10
86.6063575268
 20
31.3819272264
 40
16.0
100
AcDbArc
 50
290.8089930094
 51
340.25856001
  0
ARC
  5
4F1
100
AcDbEntity
  8
RUNDUNGEN
100
AcDbCircle
 62
7
  6
CONTINUOUS
 10
86.6063575268
 20
31.3819272264
 40
15.5
100
AcDbArc
 50
294.3503071006
 51
316.9285215085
  0
ARC
  5
4F2
100
AcDbEntity
  8
BEZUGSACHSEN
100
AcDbCircle
 62
7
  6
CONTINUOUS
 10
86.6063575268
 20
31.3819272264
 40
15.5
100
AcDbArc
 50
20.4470730431
 51
65.6496928994
  0
ARC
  5
4F3
100
AcDbEntity
  8
BEZUGSACHSEN
100
AcDbCircle
 62
7
  6
CONTINUOUS
 10
86.6063575268
 20
31.3819272264
 40
15.5
100
AcDbArc
 50
316.9285215085
 51
339.5529269569
  0
ARC
  5
4F4
100
AcDbEntity
  8
BEZUGSACHSEN
100
AcDbCircle
 62
7
  6
CONTINUOUS
 10
86.6063575268
 20
31.3819272264
 40
15.5
100
AcDbArc
 50
114.3503071006
 51
159.5529269569
  0
ARC
  5
4F5
100
AcDbEntity
  8
BEZUGSACHSEN
100
AcDbCircle
 62
7
  6
CONTINUOUS
 10
86.6063575268
 20
31.3819272264
 40
15.5
100
AcDbArc
 50
200.4470730431
 51
245.6496928994
  0
ARC
  5
4F6
100
AcDbEntity
  8
KONSTRUKTIONSELEMENTE
100
AcDbCircle
 62
7
  6
CONTINUOUS
 10
109.5063575268
 20
31.3819272264
 40
5.4
100
AcDbArc
 50
270.0
 51
90.0
  0
SPLINE
  5
4F7
100
AcDbEntity
  8
RUNDUNGEN
100
AcDbSpline
 62
7
  6
CONTINUOUS
 70
0
 71
3
 72
9
 73
5
 74
0
 42
0.0000001
 43
0.0000001
 44
0.0000000001
 40
0.0
 40
0.0
 40
0.0
 40
0.0
 40
0.500255788
 40
1.0
 40
1.0
 40
1.0
 40
1.0
 10
83.1063575268
 20
144.2430246275
 30
0.0
 10
83.1063575268
 20
144.5971639324
 30
0.0
 10
83.2678177014
 20
145.3164991624
 30
0.0
 10
83.7540313116
 20
145.877819394
 30
0.0
 10
84.0455639691
 20
146.0782364163
 30
0.0
  0
SPLINE
  5
4F8
100
AcDbEntity
  8
RUNDUNGEN
100
AcDbSpline
 62
7
  6
CONTINUOUS
 70
0
 71
3
 72
9
 73
5
 74
0
 42
0.0000001
 43
0.0000001
 44
0.0000000001
 40
0.0
 40
0.0
 40
0.0
 40
0.0
 40
0.500255788
 40
1.0
 40
1.0
 40
1.0
 40
1.0
 10
90.1063575268
 20
144.2430246275
 30
0.0
 10
90.1063575268
 20
144.5971639324
 30
0.0
 10
89.9448973521
 20
145.3164991624
 30
0.0
 10
89.458683742
 20
145.877819394
 30
0.0
 10
89.1671510845
 20
146.0782364163
 30
0.0
  0
SPLINE
  5
4F9
100
AcDbEntity
  8
RUNDUNGEN
100
AcDbSpline
 62
7
  6
CONTINUOUS
 70
0
 71
3
 72
9
 73
5
 74
0
 42
0.0000001
 43
0.0000001
 44
0.0000000001
 40
0.0
 40
0.0
 40
0.0
 40
0.0
 40
0.2291538001
 40
1.0
 40
1.0
 40
1.0
 40
1.0
 10
89.1669678709
 20
146.0782364279
 30
0.0
 10
89.082175431
 20
146.0782366376
 30
0.0
 10
88.7121363198
 20
146.0467301667
 30
0.0
 10
88.3572088959
 20
145.9095181396
 30
0.0
 10
88.1063575268
 20
145.7737583569
 30
0.0
  0
SPLINE
  5
4FA
100
AcDbEntity
  8
RUNDUNGEN
100
AcDbSpline
 62
7
  6
CONTINUOUS
 70
0
 71
3
 72
9
 73
5
 74
0
 42
0.0000001
 43
0.0000001
 44
0.0000000001
 40
0.0
 40
0.0
 40
0.0
 40
0.0
 40
0.2728166678
 40
1.0
 40
1.0
 40
1.0
 40
1.0
 10
85.1063575268
 20
145.7737583569
 30
0.0
 10
85.0176452495
 20
145.8217690954
 30
0.0
 10
84.685143328
 20
145.9818774475
 30
0.0
 10
84.3146145361
 20
146.0782370928
 30
0.0
 10
84.0457471826
 20
146.0782364279
 30
0.0
  0
SPLINE
  5
4FB
100
AcDbEntity
  8
RUNDUNGEN
100
AcDbSpline
 62
7
  6
CONTINUOUS
 70
0
 71
3
 72
9
 73
5
 74
0
 42
0.0000001
 43
0.0000001
 44
0.0000000001
 40
0.0
 40
0.0
 40
0.0
 40
0.0
 40
0.2487627021
 40
1.0
 40
1.0
 40
1.0
 40
1.0
 10
104.4285382763
 20
99.4052007237
 30
0.0
 10
104.4022823382
 20
99.4071955665
 30
0.0
 10
104.2964164205
 20
99.4106727556
 30
0.0
 10
104.1901169068
 20
99.3951189362
 30
0.0
 10
104.113399082
 20
99.3742000563
 30
0.0
  0
SPLINE
  5
4FC
100
AcDbEntity
  8
BEZUGSACHSEN
100
AcDbSpline
 62
7
  6
CONTINUOUS
 70
0
 71
3
 72
35
 73
31
 74
0
 42
0.0000001
 43
0.0000001
 44
0.0000000001
 40
0.0
 40
0.0
 40
0.0
 40
0.0
 40
0.0642731919
 40
0.128404193
 40
0.1923375611
 40
0.2559804513
 40
0.287647986
 40
0.3191700152
 40
0.3504947124
 40
0.3815434485
 40
0.4121917971
 40
0.4422427555
 40
0.4569932393
 40
0.4715111266
 40
0.4858238003
 40
0.4999997396
 40
0.5141754634
 40
0.5284884705
 40
0.5430062748
 40
0.5577569953
 40
0.5878080564
 40
0.6184564847
 40
0.649505229
 40
0.6808299227
 40
0.7123519683
 40
0.7440195265
 40
0.8076624232
 40
0.871595798
 40
0.9357268052
 40
1.0
 40
1.0
 40
1.0
 40
1.0
 10
104.113399082
 20
99.3742000563
 30
0.0
 10
103.8892376462
 20
100.0774019475
 30
0.0
 10
103.4290974752
 20
101.4783748554
 30
0.0
 10
102.6936504303
 20
103.561246487
 30
0.0
 10
101.9010242036
 20
105.6153961664
 30
0.0
 10
101.1761880331
 20
107.2951189007
 30
0.0
 10
100.5417668531
 20
108.6063941224
 30
0.0
 10
100.033793971
 20
109.5658618893
 30
0.0
 10
99.4850207208
 20
110.4945494606
 30
0.0
 10
98.8845414837
 20
111.379229686
 30
0.0
 10
98.2178171471
 20
112.1969928953
 30
0.0
 10
97.584206431
 20
112.7947859147
 30
0.0
 10
97.0205373666
 20
113.1800145942
 30
0.0
 10
96.5715545816
 20
113.4052380553
 30
0.0
 10
96.0971093939
 20
113.5519083591
 30
0.0
 10
95.6063686853
 20
113.6027122744
 30
0.0
 10
95.1156281015
 20
113.5518988414
 30
0.0
 10
94.6411725352
 20
113.4052579817
 30
0.0
 10
94.1921930211
 20
113.1800135749
 30
0.0
 10
93.6285113209
 20
112.7948003671
 30
0.0
 10
92.9949023815
 20
112.1969951436
 30
0.0
 10
92.3281767779
 20
111.3792316195
 30
0.0
 10
91.7276966079
 20
110.4945505006
 30
0.0
 10
91.1789213289
 20
109.5658639581
 30
0.0
 10
90.6709480055
 20
108.6063958742
 30
0.0
 10
90.0365285691
 20
107.2951192406
 30
0.0
 10
89.3116905896
 20
105.6153968715
 30
0.0
 10
88.5190647307
 20
103.5612467736
 30
0.0
 10
87.7836175782
 20
101.4783750033
 30
0.0
 10
87.3234774175
 20
100.0774019791
 30
0.0
 10
87.0993159716
 20
99.3742000563
 30
0.0
  0
SPLINE
  5
4FD
100
AcDbEntity
  8
BEZUGSACHSEN
100
AcDbSpline
 62
7
  6
CONTINUOUS
 70
0
 71
3
 72
35
 73
31
 74
0
 42
0.0000001
 43
0.0000001
 44
0.0000000001
 40
0.0
 40
0.0
 40
0.0
 40
0.0
 40
0.0642731919
 40
0.128404193
 40
0.1923375611
 40
0.2559804513
 40
0.287647986
 40
0.3191700152
 40
0.3504947124
 40
0.3815434485
 40
0.4121917971
 40
0.4422427555
 40
0.4569932393
 40
0.4715111266
 40
0.4858238003
 40
0.4999997396
 40
0.5141754634
 40
0.5284884705
 40
0.5430062748
 40
0.5577569953
 40
0.5878080564
 40
0.6184564847
 40
0.649505229
 40
0.6808299227
 40
0.7123519683
 40
0.7440195265
 40
0.8076624232
 40
0.871595798
 40
0.9357268052
 40
1.0
 40
1.0
 40
1.0
 40
1.0
 10
86.113399082
 20
99.3742000563
 30
0.0
 10
85.8892376462
 20
100.0774019475
 30
0.0
 10
85.4290974752
 20
101.4783748554
 30
0.0
 10
84.6936504303
 20
103.561246487
 30
0.0
 10
83.9010242036
 20
105.6153961664
 30
0.0
 10
83.1761880331
 20
107.2951189007
 30
0.0
 10
82.5417668531
 20
108.6063941224
 30
0.0
 10
82.033793971
 20
109.5658618893
 30
0.0
 10
81.4850207208
 20
110.4945494606
 30
0.0
 10
80.8845414837
 20
111.379229686
 30
0.0
 10
80.2178171471
 20
112.1969928953
 30
0.0
 10
79.584206431
 20
112.7947859147
 30
0.0
 10
79.0205373666
 20
113.1800145942
 30
0.0
 10
78.5715545816
 20
113.4052380553
 30
0.0
 10
78.0971093939
 20
113.5519083591
 30
0.0
 10
77.6063686853
 20
113.6027122744
 30
0.0
 10
77.1156281015
 20
113.5518988414
 30
0.0
 10
76.6411725352
 20
113.4052579817
 30
0.0
 10
76.1921930211
 20
113.1800135749
 30
0.0
 10
75.6285113209
 20
112.7948003671
 30
0.0
 10
74.9949023815
 20
112.1969951436
 30
0.0
 10
74.3281767779
 20
111.3792316195
 30
0.0
 10
73.7276966079
 20
110.4945505006
 30
0.0
 10
73.1789213289
 20
109.5658639581
 30
0.0
 10
72.6709480055
 20
108.6063958742
 30
0.0
 10
72.0365285691
 20
107.2951192406
 30
0.0
 10
71.3116905896
 20
105.6153968715
 30
0.0
 10
70.5190647307
 20
103.5612467736
 30
0.0
 10
69.7836175782
 20
101.4783750033
 30
0.0
 10
69.3234774175
 20
100.0774019791
 30
0.0
 10
69.0993159716
 20
99.3742000563
 30
0.0
  0
SPLINE
  5
4FE
100
AcDbEntity
  8
BEZUGSACHSEN
100
AcDbSpline
 62
7
  6
CONTINUOUS
 70
0
 71
3
 72
9
 73
5
 74
0
 42
0.0000001
 43
0.0000001
 44
0.0000000001
 40
0.0
 40
0.0
 40
0.0
 40
0.0
 40
0.5
 40
1.0
 40
1.0
 40
1.0
 40
1.0
 10
69.0993159716
 20
99.3742000563
 30
0.0
 10
69.0193167
 20
99.3960136982
 30
0.0
 10
68.8528367492
 20
99.4196012606
 30
0.0
 10
68.6863567985
 20
99.3960136982
 30
0.0
 10
68.6063575268
 20
99.3742000563
 30
0.0
  0
SPLINE
  5
4FF
100
AcDbEntity
  8
RUNDUNGEN
100
AcDbSpline
 62
7
  6
CONTINUOUS
 70
0
 71
3
 72
9
 73
5
 74
0
 42
0.0000001
 43
0.0000001
 44
0.0000000001
 40
0.0
 40
0.0
 40
0.0
 40
0.0
 40
0.3133294138
 40
1.0
 40
1.0
 40
1.0
 40
1.0
 10
104.4822134127
 20
99.4622161974
 30
0.0
 10
104.4789528229
 20
99.4545264714
 30
0.0
 10
104.4684841754
 20
99.4315595832
 30
0.0
 10
104.4467902993
 20
99.4038139925
 30
0.0
 10
104.4285382763
 20
99.4052007237
 30
0.0
  0
SPLINE
  5
500
100
AcDbEntity
  8
RUNDUNGEN
100
AcDbSpline
 62
7
  6
CONTINUOUS
 70
0
 71
3
 72
14
 73
10
 74
0
 42
0.0000001
 43
0.0000001
 44
0.0000000001
 40
0.0
 40
0.0
 40
0.0
 40
0.0
 40
0.0696895814
 40
0.1172889073
 40
0.1715542939
 40
0.2930082709
 40
0.4252469665
 40
0.7065861308
 40
1.0
 40
1.0
 40
1.0
 40
1.0
 10
68.4875597678
 20
103.7615581085
 30
0.0
 10
68.5054408642
 20
103.7598568034
 30
0.0
 10
68.529675291
 20
103.7332670019
 30
0.0
 10
68.5467005399
 20
103.6936826403
 30
0.0
 10
68.5640528757
 20
103.6382829832
 30
0.0
 10
68.5786015329
 20
103.5602887178
 30
0.0
 10
68.5948045969
 20
103.4232263657
 30
0.0
 10
68.6044124857
 20
103.2411515125
 30
0.0
 10
68.6063575268
 20
103.0930093821
 30
0.0
 10
68.6063575268
 20
103.0173846514
 30
0.0
  0
LINE
  5
501
100
AcDbEntity
  8
RUNDUNGEN
100
AcDbLine
 62
7
  6
CONTINUOUS
 10
67.1063575268
 20
103.8929603054
 11
68.4875597678
 21
103.7615581085
  0
SPLINE
  5
502
100
AcDbEntity
  8
RUNDUNGEN
100
AcDbSpline
 62
7
  6
CONTINUOUS
 70
0
 71
3
 72
24
 73
20
 74
0
 42
0.0000001
 43
0.0000001
 44
0.0000000001
 40
0.0
 40
0.0
 40
0.0
 40
0.0
 40
0.138448017
 40
0.2767688654
 40
0.4147482068
 40
0.4834843405
 40
0.5519153616
 40
0.6198344695
 40
0.6868064975
 40
0.7517417807
 40
0.7825791609
 40
0.8111608015
 40
0.8354499911
 40
0.8538941954
 40
0.8719327313
 40
0.8935036937
 40
0.9179614112
 40
0.9441883548
 40
1.0
 40
1.0
 40
1.0
 40
1.0
 10
104.6063575268
 20
98.9922538048
 30
0.0
 10
104.6063576535
 20
99.0224750584
 30
0.0
 10
104.6058944641
 20
99.0828912628
 30
0.0
 10
104.6036159335
 20
99.173400921
 30
0.0
 10
104.6001089506
 20
99.2486450566
 30
0.0
 10
104.5959728198
 20
99.3085655531
 30
0.0
 10
104.5920530092
 20
99.3531646895
 30
0.0
 10
104.5870676607
 20
99.3972714618
 30
0.0
 10
104.5806541549
 20
99.4404324995
 30
0.0
 10
104.5733931825
 20
99.4752334049
 30
0.0
 10
104.5656750517
 20
99.5013207048
 30
0.0
 10
104.5584716718
 20
99.5180926045
 30
0.0
 10
104.5502458226
 20
99.531635618
 30
0.0
 10
104.5372953889
 20
99.5381422915
 30
0.0
 10
104.5244889043
 20
99.5332604757
 30
0.0
 10
104.5148854637
 20
99.5229675983
 30
0.0
 10
104.5058026441
 20
99.510040189
 30
0.0
 10
104.4943891492
 20
99.4897596783
 30
0.0
 10
104.4869692485
 20
99.4734324801
 30
0.0
 10
104.4822134127
 20
99.4622161974
 30
0.0
  0
SPLINE
  5
503
100
AcDbEntity
  8
BEZUGSACHSEN
100
AcDbSpline
 62
7
  6
CONTINUOUS
 70
0
 71
3
 72
39
 73
35
 74
0
 42
0.0000001
 43
0.0000001
 44
0.0000000001
 40
0.0
 40
0.0
 40
0.0
 40
0.0
 40
0.0693615764
 40
0.1382297238
 40
0.2064093511
 40
0.2401473363
 40
0.2735714525
 40
0.3065951104
 40
0.3390916503
 40
0.3708661083
 40
0.4016114295
 40
0.4308175162
 40
0.4446017495
 40
0.457635697
 40
0.4697594223
 40
0.4808026762
 40
0.4907714362
 40
0.4999998475
 40
0.5092281287
 40
0.5191969676
 40
0.5302402322
 40
0.5423640607
 40
0.5553980176
 40
0.5691823414
 40
0.5983885222
 40
0.6291338441
 40
0.6609082819
 40
0.693404836
 40
0.7264285277
 40
0.7598526365
 40
0.7935906318
 40
0.8617702659
 40
0.9306384203
 40
1.0
 40
1.0
 40
1.0
 40
1.0
 10
164.0706286733
 20
99.3742000563
 30
0.0
 10
163.941465927
 20
100.076005978
 30
0.0
 10
163.6765496658
 20
101.4732646374
 30
0.0
 10
163.2524246668
 20
103.5540958485
 30
0.0
 10
162.8705400568
 20
105.2692968256
 30
0.0
 10
162.5423197936
 20
106.6224999186
 30
0.0
 10
162.2839515378
 20
107.620355154
 30
0.0
 10
162.0101422941
 20
108.6008596736
 30
0.0
 10
161.7176845698
 20
109.5582727686
 30
0.0
 10
161.4023018067
 20
110.4837920937
 30
0.0
 10
161.0584723272
 20
111.3629540688
 30
0.0
 10
160.7363866397
 20
112.0509667275
 30
0.0
 10
160.449822104
 20
112.5514993174
 30
0.0
 10
160.2249480767
 20
112.8836553958
 30
0.0
 10
159.9851739398
 20
113.169867662
 30
0.0
 10
159.728286899
 20
113.3966242303
 30
0.0
 10
159.4526087787
 20
113.5487182273
 30
0.0
 10
159.1590918199
 20
113.6036726709
 30
0.0
 10
158.8655793258
 20
113.5487105037
 30
0.0
 10
158.589887404
 20
113.3966416076
 30
0.0
 10
158.3330100386
 20
113.169868633
 30
0.0
 10
158.0932248546
 20
112.8836657572
 30
0.0
 10
157.8683543092
 20
112.5515037879
 30
0.0
 10
157.5817858951
 20
112.050971648
 30
0.0
 10
157.2597022628
 20
111.3629554694
 30
0.0
 10
156.915871221
 20
110.4837935293
 30
0.0
 10
156.6004874379
 20
109.5582745321
 30
0.0
 10
156.3080293593
 20
108.6008612501
 30
0.0
 10
156.0342212294
 20
107.6203559853
 30
0.0
 10
155.7758518788
 20
106.6225006512
 30
0.0
 10
155.4476321131
 20
105.2692973289
 30
0.0
 10
155.0657471414
 20
103.5540961891
 30
0.0
 10
154.6416222565
 20
101.4732647707
 30
0.0
 10
154.3767059619
 20
100.0760060112
 30
0.0
 10
154.2475432095
 20
99.3742000563
 30
0.0
  0
SPLINE
  5
504
100
AcDbEntity
  8
RUNDUNGEN
100
AcDbSpline
 62
7
  6
CONTINUOUS
 70
0
 71
3
 72
15
 73
11
 74
0
 42
0.0000001
 43
0.0000001
 44
0.0000000001
 40
0.0
 40
0.0
 40
0.0
 40
0.0
 40
0.0279914625
 40
0.0518900334
 40
0.0833789458
 40
0.1695522335
 40
0.2857274254
 40
0.4299769041
 40
0.5995572786
 40
1.0
 40
1.0
 40
1.0
 40
1.0
 10
181.6475432095
 20
103.8929603054
 30
0.0
 10
181.6475432099
 20
103.8842302945
 30
0.0
 10
181.6626699418
 20
103.8714392947
 30
0.0
 10
181.6851621624
 20
103.8607637689
 30
0.0
 10
181.7273249376
 20
103.8457584789
 30
0.0
 10
181.7982435632
 20
103.8296791612
 30
0.0
 10
181.9050747639
 20
103.8120937786
 30
0.0
 10
182.0382228158
 20
103.7961933114
 30
0.0
 10
182.260134957
 20
103.7762315919
 30
0.0
 10
182.4377066313
 20
103.7665873092
 30
0.0
 10
182.5624958871
 20
103.7615581085
 30
0.0
  0
SPLINE
  5
505
100
AcDbEntity
  8
RUNDUNGEN
100
AcDbSpline
 62
7
  6
CONTINUOUS
 70
0
 71
3
 72
15
 73
11
 74
0
 42
0.0000001
 43
0.0000001
 44
0.0000000001
 40
0.0
 40
0.0
 40
0.0
 40
0.0
 40
0.0279914627
 40
0.0518900339
 40
0.0833789463
 40
0.169552234
 40
0.2857274257
 40
0.4299769043
 40
0.5995572788
 40
1.0
 40
1.0
 40
1.0
 40
1.0
 10
167.8475432095
 20
103.8929603054
 30
0.0
 10
167.8475432091
 20
103.8842302944
 30
0.0
 10
167.8324164772
 20
103.8714392946
 30
0.0
 10
167.8099242567
 20
103.8607637681
 30
0.0
 10
167.7677614816
 20
103.8457584774
 30
0.0
 10
167.6968428559
 20
103.82967916
 30
0.0
 10
167.5900116552
 20
103.8120937782
 30
0.0
 10
167.4568636033
 20
103.7961933115
 30
0.0
 10
167.2349514622
 20
103.7762315926
 30
0.0
 10
167.057379788
 20
103.7665873103
 30
0.0
 10
166.9325905322
 20
103.7615581097
 30
0.0
  0
SPLINE
  5
506
100
AcDbEntity
  8
RUNDUNGEN
100
AcDbSpline
 62
7
  6
CONTINUOUS
 70
0
 71
3
 72
13
 73
9
 74
0
 42
0.0000001
 43
0.0000001
 44
0.0000000001
 40
0.0
 40
0.0
 40
0.0
 40
0.0
 40
0.1188717123
 40
0.2422187194
 40
0.3674959444
 40
0.4936012164
 40
0.746599008
 40
1.0
 40
1.0
 40
1.0
 40
1.0
 10
182.5624958871
 20
103.7615581085
 30
0.0
 10
182.6013986511
 20
103.7599902667
 30
0.0
 10
182.6797746027
 20
103.7332934775
 30
0.0
 10
182.7739644756
 20
103.6569148022
 30
0.0
 10
182.8547579243
 20
103.5640167852
 30
0.0
 10
182.9487266996
 20
103.4278982646
 30
0.0
 10
183.0478569304
 20
103.2454684945
 30
0.0
 10
183.11560202
 20
103.0939892909
 30
0.0
 10
183.1475432095
 20
103.0173846514
 30
0.0
  0
SPLINE
  5
507
100
AcDbEntity
  8
BEZUGSACHSEN
100
AcDbSpline
 62
7
  6
CONTINUOUS
 70
0
 71
3
 72
39
 73
35
 74
0
 42
0.0000001
 43
0.0000001
 44
0.0000000001
 40
0.0
 40
0.0
 40
0.0
 40
0.0
 40
0.0693615764
 40
0.1382297238
 40
0.2064093511
 40
0.2401473363
 40
0.2735714525
 40
0.3065951104
 40
0.3390916503
 40
0.3708661083
 40
0.4016114295
 40
0.4308175162
 40
0.4446017495
 40
0.457635697
 40
0.4697594223
 40
0.4808026762
 40
0.4907714362
 40
0.4999998475
 40
0.5092281287
 40
0.5191969676
 40
0.5302402322
 40
0.5423640607
 40
0.5553980176
 40
0.5691823414
 40
0.5983885222
 40
0.6291338441
 40
0.6609082819
 40
0.693404836
 40
0.7264285277
 40
0.7598526365
 40
0.7935906318
 40
0.8617702659
 40
0.9306384203
 40
1.0
 40
1.0
 40
1.0
 40
1.0
 10
195.2475432095
 20
99.3742000563
 30
0.0
 10
195.1183804632
 20
100.076005978
 30
0.0
 10
194.853464202
 20
101.4732646374
 30
0.0
 10
194.429339203
 20
103.5540958485
 30
0.0
 10
194.047454593
 20
105.2692968256
 30
0.0
 10
193.7192343299
 20
106.6224999186
 30
0.0
 10
193.460866074
 20
107.620355154
 30
0.0
 10
193.1870568304
 20
108.6008596736
 30
0.0
 10
192.894599106
 20
109.5582727686
 30
0.0
 10
192.579216343
 20
110.4837920937
 30
0.0
 10
192.2353868634
 20
111.3629540688
 30
0.0
 10
191.9133011759
 20
112.0509667275
 30
0.0
 10
191.6267366403
 20
112.5514993174
 30
0.0
 10
191.4018626129
 20
112.8836553958
 30
0.0
 10
191.162088476
 20
113.169867662
 30
0.0
 10
190.9052014352
 20
113.3966242303
 30
0.0
 10
190.629523315
 20
113.5487182273
 30
0.0
 10
190.3360063561
 20
113.6036726709
 30
0.0
 10
190.042493862
 20
113.5487105037
 30
0.0
 10
189.7668019402
 20
113.3966416076
 30
0.0
 10
189.5099245748
 20
113.169868633
 30
0.0
 10
189.2701393909
 20
112.8836657572
 30
0.0
 10
189.0452688454
 20
112.5515037879
 30
0.0
 10
188.7587004314
 20
112.050971648
 30
0.0
 10
188.436616799
 20
111.3629554694
 30
0.0
 10
188.0927857572
 20
110.4837935293
 30
0.0
 10
187.7774019741
 20
109.5582745321
 30
0.0
 10
187.4849438955
 20
108.6008612501
 30
0.0
 10
187.2111357657
 20
107.6203559853
 30
0.0
 10
186.952766415
 20
106.6225006512
 30
0.0
 10
186.6245466494
 20
105.2692973289
 30
0.0
 10
186.2426616777
 20
103.5540961891
 30
0.0
 10
185.8185367927
 20
101.4732647707
 30
0.0
 10
185.5536204982
 20
100.0760060112
 30
0.0
 10
185.4244577457
 20
99.3742000563
 30
0.0
  0
SPLINE
  5
508
100
AcDbEntity
  8
RUNDUNGEN
100
AcDbSpline
 62
7
  6
CONTINUOUS
 70
0
 71
3
 72
8
 73
4
 74
0
 42
0.0000001
 43
0.0000001
 44
0.0000000001
 40
0.0
 40
0.0
 40
0.0
 40
0.0
 40
1.0
 40
1.0
 40
1.0
 40
1.0
 10
184.5706286733
 20
99.3742000563
 30
0.0
 10
184.1202740983
 20
100.5977010913
 30
0.0
 10
183.6492893277
 20
101.8140456059
 30
0.0
 10
183.1475432095
 20
103.0173846514
 30
0.0
  0
SPLINE
  5
509
100
AcDbEntity
  8
RUNDUNGEN
100
AcDbSpline
 62
7
  6
CONTINUOUS
 70
0
 71
3
 72
13
 73
9
 74
0
 42
0.0000001
 43
0.0000001
 44
0.0000000001
 40
0.0
 40
0.0
 40
0.0
 40
0.0
 40
0.253400992
 40
0.5063987836
 40
0.6325040555
 40
0.7577812806
 40
0.8811282876
 40
1.0
 40
1.0
 40
1.0
 40
1.0
 10
166.3475432095
 20
103.0173846514
 30
0.0
 10
166.379484399
 20
103.0939892909
 30
0.0
 10
166.4472294887
 20
103.2454684946
 30
0.0
 10
166.5463597195
 20
103.4278982648
 30
0.0
 10
166.640328495
 20
103.5640167855
 30
0.0
 10
166.7211219435
 20
103.6569148027
 30
0.0
 10
166.815311817
 20
103.7332934769
 30
0.0
 10
166.8936877681
 20
103.759990268
 30
0.0
 10
166.9325905322
 20
103.7615581097
 30
0.0
  0
SPLINE
  5
50A
100
AcDbEntity
  8
RUNDUNGEN
100
AcDbSpline
 62
7
  6
CONTINUOUS
 70
0
 71
3
 72
8
 73
4
 74
0
 42
0.0000001
 43
0.0000001
 44
0.0000000001
 40
0.0
 40
0.0
 40
0.0
 40
0.0
 40
1.0
 40
1.0
 40
1.0
 40
1.0
 10
166.3475432095
 20
103.0173846514
 30
0.0
 10
165.8457970913
 20
101.8140456059
 30
0.0
 10
165.3748123207
 20
100.5977010913
 30
0.0
 10
164.9244577457
 20
99.3742000563
 30
0.0
  0
ELLIPSE
  5
50B
100
AcDbEntity
  8
0
100
AcDbEllipse
 62
7
  6
CONTINUOUS
 10
74.1063575268
 20
20.3503115059
 30
0.0
 11
-0.0
 21
16.0575727127
 31
0.0
 40
0.5604832163
 41
-1.5547148772
 42
-1.5408408968
  0
ENDSEC
  0
SECTION
  2
OBJECTS
  0
DICTIONARY
  5
C
100
AcDbDictionary
280
0
281
1
  3
ACAD_GROUP
350
D
  3
ACAD_MLINESTYLE
350
17
  3
ACAD_LAYOUT
350
1A
  3
ACAD_PLOTSETTINGS
350
19
  3
ACAD_PLOTSTYLENAME
350
E
  0
DICTIONARY
  5
D
102
{ACAD_REACTORS
330
C
102
}
100
AcDbDictionary
280
0
281
1
  0
ACDBDICTIONARYWDFLT
  5
E
102
{ACAD_REACTORS
330
C
102
}
100
AcDbDictionary
281
1
  3
Normal
350
F
100
AcDbDictionaryWithDefault
340
F
  0
DICTIONARY
  5
17
102
{ACAD_REACTORS
330
C
102
}
100
AcDbDictionary
280
0
281
1
  3
Standard
350
18
  0
DICTIONARY
  5
19
102
{ACAD_REACTORS
330
C
102
}
100
AcDbDictionary
281
1
  0
DICTIONARY
  5
1A
102
{ACAD_REACTORS
330
C
102
}
100
AcDbDictionary
281
1
  3
Model
350
50C
  3
Layout1
350
50D
  0
ACDBPLACEHOLDER
  5
F
102
{ACAD_REACTORS
330
E
102
}
  0
MLINESTYLE
  5
18
102
{ACAD_REACTORS
330
17
102
}
100
AcDbMlineStyle
  2
STANDARD
 70
0
  3

 62
256
 51
90.0
 52
90.0
 71
2
 49
0.5
 62
256
  6
BYLAYER
 49
-0.5
 62
256
  6
BYLAYER
  0
LAYOUT
  5
50C
102
{ACAD_REACTORS
330
1A
102
}
100
AcDbPlotSettings
  1

  2
none_device
  4
ISO_A4_(297.00_x_210.00_MM)
  6

 40
0.0
 41
0.0
 42
0.0
 43
0.0
 44
297.0
 45
210.0
 46
0.0
 47
0.0
 48
0.0
 49
0.0
140
0.0
141
0.0
142
1.0
143
1.0
 70
1024
 72
1
 73
0
 74
0
  7

 75
0
147
1.0
148
0.0
149
0.0
100
AcDbLayout
  1
Model
 70
0
 71
0
 10
0.0
 20
0.0
 11
297.0
 21
210.0
 12
0.0
 22
0.0
 32
0.0
 14
0.0
 24
0.0
 34
0.0
 15
0.0
 25
0.0
 35
0.0
146
0.0
 13
0.0
 23
0.0
 33
0.0
 16
1.0
 26
0.0
 36
0.0
 17
0.0
 27
1.0
 37
0.0
 76
0
330
20F
345
0
346
0
  0
LAYOUT
  5
50D
102
{ACAD_REACTORS
330
1A
102
}
100
AcDbPlotSettings
  1

  2
none_device
  4
ISO_A4_(297.00_x_210.00_MM)
  6

 40
0.0
 41
0.0
 42
0.0
 43
0.0
 44
297.0
 45
210.0
 46
0.0
 47
0.0
 48
0.0
 49
0.0
140
0.0
141
0.0
142
1.0
143
1.0
 70
0
 72
1
 73
0
 74
0
  7

 75
0
147
1.0
148
0.0
149
0.0
100
AcDbLayout
  1
Layout1
 70
0
 71
1
 10
0.0
 20
0.0
 11
297.0
 21
210.0
 12
0.0
 22
0.0
 32
0.0
 14
0.0
 24
0.0
 34
0.0
 15
0.0
 25
0.0
 35
0.0
146
0.0
 13
0.0
 23
0.0
 33
0.0
 16
1.0
 26
0.0
 36
0.0
 17
0.0
 27
1.0
 37
0.0
 76
0
330
210
345
0
346
0
  0
ENDSEC
  0
EOF
