999
DXF file: 001-m31708-p-10.dxf
999
Pro/ENGINEER 2011490 by Parametric Technology Corporation
  0
SECTION
  2
HEADER
  9
$ACADVER
  1
AC1015
  9
$DWGCODEPAGE
  3
ANSI_1252
  9
$EXTMAX
 10
297.0
 20
210.0
 30
0.0
  9
$EXTMIN
 10
0.0
 20
0.0
 30
0.0
  9
$LIMMIN
 10
0.0
 20
0.0
  9
$LIMMAX
 10
297.0
 20
210.0
  9
$VIEWCTR
 10
148.5
 20
105.0
  9
$VIEWSIZE
 40
210.0
  9
$CLAYER
  8
0
  9
$LTSCALE
 40
16.335
  9
$CELTYPE
  6
BYLAYER
  9
$DIMSCALE
 40
1.0
  9
$DIMASZ
 40
3.5
  9
$DIMEXO
 40
1.85625
  9
$DIMDLI
 40
11.286
  9
$DIMEXE
 40
5.346
  9
$DIMCEN
 40
2.673
  9
$DIMLFAC
 40
1.0
  9
$DIMBLK
  1
_FILLED
  9
$DIMTXT
 40
3.5
  9
$DIMTOL
 70
1
  9
$DIMLIM
 70
0
  9
$DIMTFAC
 40
1.0
  9
$DIMTP
 40
0.005
  9
$DIMTM
 40
0.005
  9
$PDMODE
 70
3
  9
$PDSIZE
 40
0.3125
  9
$HANDSEED
  5
48E
  9
$TILEMODE
 70
1
  9
$MEASUREMENT
 70
1
  9
$INSUNITS
 70
4
  0
ENDSEC
  0
SECTION
  2
CLASSES
  0
CLASS
  1
ACDBDICTIONARYWDFLT
  2
AcDbDictionaryWithDefault
  3
AutoCAD 2000
 90
0
280
0
281
0
  0
CLASS
  1
ACDBPLACEHOLDER
  2
AcDbPlaceHolder
  3
AutoCAD 2000
 90
0
280
0
281
0
  0
CLASS
  1
LAYOUT
  2
AcDbLayout
  3
AutoCAD 2000
 90
0
280
0
281
0
  0
ENDSEC
  0
SECTION
  2
TABLES
  0
TABLE
  2
VPORT
  5
8
100
AcDbSymbolTable
 70
2
  0
VPORT
  5
1F4
100
AcDbSymbolTableRecord
100
AcDbViewportTableRecord
  2
*ACTIVE
 70
0
 10
0.0
 20
0.0
 11
1.0
 21
1.0
 12
148.5
 22
105.0
 13
0.0
 23
0.0
 14
1.0
 24
1.0
 15
0.0
 25
0.0
 16
0.0
 26
0.0
 36
1.0
 17
0.0
 27
0.0
 37
0.0
 40
210.0
 41
1.4142857143
 42
50.0
 43
0.0
 44
0.0
 50
0.0
 51
0.0
 71
0
 72
100
 73
1
 74
1
 75
0
 76
0
 77
0
 78
0
  0
ENDTAB
  0
TABLE
  2
LTYPE
  5
5
100
AcDbSymbolTable
 70
6
  0
LTYPE
  5
14
100
AcDbSymbolTableRecord
100
AcDbLinetypeTableRecord
  2
BYBLOCK
 70
0
  3

 72
65
 73
0
 40
0.0
  0
LTYPE
  5
15
100
AcDbSymbolTableRecord
100
AcDbLinetypeTableRecord
  2
BYLAYER
 70
0
  3

 72
65
 73
0
 40
0.0
  0
LTYPE
  5
16
100
AcDbSymbolTableRecord
100
AcDbLinetypeTableRecord
  2
CONTINUOUS
 70
64
  3
Solid line
 72
65
 73
0
 40
0.0
  0
LTYPE
  5
1F5
100
AcDbSymbolTableRecord
100
AcDbLinetypeTableRecord
  2
CENTER
 70
64
  3
____ _ ____ _ ____ _ ____ _ ____ _ ____ _ ____
 72
65
 73
4
 40
0.6
 49
0.375
 74
0
 49
-0.075
 74
0
 49
0.075
 74
0
 49
-0.075
 74
0
  0
LTYPE
  5
1F6
100
AcDbSymbolTableRecord
100
AcDbLinetypeTableRecord
  2
HIDDEN
 70
64
  3
- - - - - - - - - - - - - - - - - - - -
 72
65
 73
2
 40
0.2
 49
0.1
 74
0
 49
-0.1
 74
0
  0
LTYPE
  5
1F7
100
AcDbSymbolTableRecord
100
AcDbLinetypeTableRecord
  2
PHANTOM
 70
64
  3
_____ _ _ _____ _ _ _____ _ _ _____
 72
65
 73
6
 40
0.8
 49
0.45
 74
0
 49
-0.05
 74
0
 49
0.1
 74
0
 49
-0.05
 74
0
 49
0.1
 74
0
 49
-0.05
 74
0
  0
LTYPE
  5
1F8
100
AcDbSymbolTableRecord
100
AcDbLinetypeTableRecord
  2
DOT
 70
64
  3
. . . . . . . . . . . . . . . . . . . .
 72
65
 73
2
 40
0.2
 49
0.1
 74
0
 49
-0.1
 74
0
  0
LTYPE
  5
1F9
100
AcDbSymbolTableRecord
100
AcDbLinetypeTableRecord
  2
DASHED
 70
64
  3
- - - - - - - - - - - - - - - - - - - -
 72
65
 73
2
 40
0.2
 49
0.1
 74
0
 49
-0.1
 74
0
  0
ENDTAB
  0
TABLE
  2
LAYER
  5
2
100
AcDbSymbolTable
 70
36
  0
LAYER
  5
10
100
AcDbSymbolTableRecord
100
AcDbLayerTableRecord
  2
0
 70
0
 62
7
  6
CONTINUOUS
370
-3
390
F
  0
LAYER
  5
1FA
100
AcDbSymbolTableRecord
100
AcDbLayerTableRecord
  2
DEFAULT_1
 70
0
 62
7
  6
CENTER
370
-3
390
F
  0
LAYER
  5
1FB
100
AcDbSymbolTableRecord
100
AcDbLayerTableRecord
  2
DEFAULT_2
 70
0
 62
8
  6
HIDDEN
370
-3
390
F
  0
LAYER
  5
1FC
100
AcDbSymbolTableRecord
100
AcDbLayerTableRecord
  2
DEFAULT_3
 70
0
 62
7
  6
PHANTOM
370
-3
390
F
  0
LAYER
  5
1FD
100
AcDbSymbolTableRecord
100
AcDbLayerTableRecord
  2
AUSFORMSCHRAEGEN
 70
0
 62
7
  6
CONTINUOUS
370
-3
390
F
  0
LAYER
  5
1FE
100
AcDbSymbolTableRecord
100
AcDbLayerTableRecord
  2
B-EBENEN
 70
0
 62
7
  6
CONTINUOUS
370
-3
390
F
  0
LAYER
  5
1FF
100
AcDbSymbolTableRecord
100
AcDbLayerTableRecord
  2
B-KOORSYS
 70
0
 62
7
  6
CONTINUOUS
370
-3
390
F
  0
LAYER
  5
200
100
AcDbSymbolTableRecord
100
AcDbLayerTableRecord
  2
B-KURVEN
 70
0
 62
7
  6
CONTINUOUS
370
-3
390
F
  0
LAYER
  5
201
100
AcDbSymbolTableRecord
100
AcDbLayerTableRecord
  2
BEMASSUNG
 70
0
 62
7
  6
CONTINUOUS
370
-3
390
F
  0
LAYER
  5
202
100
AcDbSymbolTableRecord
100
AcDbLayerTableRecord
  2
BEZUGSACHSEN
 70
0
 62
7
  6
CONTINUOUS
370
-3
390
F
  0
LAYER
  5
203
100
AcDbSymbolTableRecord
100
AcDbLayerTableRecord
  2
BEZUGSEBENEN
 70
0
 62
7
  6
CONTINUOUS
370
-3
390
F
  0
LAYER
  5
204
100
AcDbSymbolTableRecord
100
AcDbLayerTableRecord
  2
BEZUGSPUNKTE
 70
0
 62
7
  6
CONTINUOUS
370
-3
390
F
  0
LAYER
  5
205
100
AcDbSymbolTableRecord
100
AcDbLayerTableRecord
  2
BG_STARTBEZUEGE
 70
0
 62
7
  6
CONTINUOUS
370
-3
390
F
  0
LAYER
  5
206
100
AcDbSymbolTableRecord
100
AcDbLayerTableRecord
  2
FASEN
 70
0
 62
7
  6
CONTINUOUS
370
-3
390
F
  0
LAYER
  5
207
100
AcDbSymbolTableRecord
100
AcDbLayerTableRecord
  2
FLAECHEN
 70
0
 62
7
  6
CONTINUOUS
370
-3
390
F
  0
LAYER
  5
208
100
AcDbSymbolTableRecord
100
AcDbLayerTableRecord
  2
FLAECHENVERBUND
 70
0
 62
7
  6
CONTINUOUS
370
-3
390
F
  0
LAYER
  5
209
100
AcDbSymbolTableRecord
100
AcDbLayerTableRecord
  2
HILFEN
 70
0
 62
7
  6
CONTINUOUS
370
-3
390
F
  0
LAYER
  5
20A
100
AcDbSymbolTableRecord
100
AcDbLayerTableRecord
  2
KONSTRUKTIONSELEMENTE
 70
0
 62
7
  6
CONTINUOUS
370
-3
390
F
  0
LAYER
  5
20B
100
AcDbSymbolTableRecord
100
AcDbLayerTableRecord
  2
KURVEN
 70
0
 62
7
  6
CONTINUOUS
370
-3
390
F
  0
LAYER
  5
20C
100
AcDbSymbolTableRecord
100
AcDbLayerTableRecord
  2
KURVENELEMENTE
 70
0
 62
7
  6
CONTINUOUS
370
-3
390
F
  0
LAYER
  5
20D
100
AcDbSymbolTableRecord
100
AcDbLayerTableRecord
  2
NORM
 70
0
 62
7
  6
CONTINUOUS
370
-3
390
F
  0
LAYER
  5
20E
100
AcDbSymbolTableRecord
100
AcDbLayerTableRecord
  2
NOTIZEN
 70
0
 62
7
  6
CONTINUOUS
370
-3
390
F
  0
LAYER
  5
20F
100
AcDbSymbolTableRecord
100
AcDbLayerTableRecord
  2
PLATZIERUNG
 70
0
 62
7
  6
CONTINUOUS
370
-3
390
F
  0
LAYER
  5
210
100
AcDbSymbolTableRecord
100
AcDbLayerTableRecord
  2
RUNDUNGEN
 70
0
 62
7
  6
CONTINUOUS
370
-3
390
F
  0
LAYER
  5
211
100
AcDbSymbolTableRecord
100
AcDbLayerTableRecord
  2
TEIL_STARTBEZUEGE
 70
0
 62
7
  6
CONTINUOUS
370
-3
390
F
  0
LAYER
  5
212
100
AcDbSymbolTableRecord
100
AcDbLayerTableRecord
  2
ZEICHNUNGSBEMASSUNGEN
 70
0
 62
7
  6
CONTINUOUS
370
-3
390
F
  0
ENDTAB
  0
TABLE
  2
STYLE
  5
3
100
AcDbSymbolTable
 70
1
  0
STYLE
  5
11
100
AcDbSymbolTableRecord
100
AcDbTextStyleTableRecord
  2
STANDARD
 70
0
 40
0.0
 41
0.7
 50
0.0
 71
0
 42
0.2
  3
txt
  4

  0
STYLE
  5
213
100
AcDbSymbolTableRecord
100
AcDbTextStyleTableRecord
  2
TEXTSTYLE_1
 70
0
 40
0.0
 41
0.8
 50
0.0
 71
0
 42
0.2
  3
gdt
  4

  0
ENDTAB
  0
TABLE
  2
VIEW
  5
6
100
AcDbSymbolTable
 70
0
  0
ENDTAB
  0
TABLE
  2
UCS
  5
7
100
AcDbSymbolTable
 70
0
  0
ENDTAB
  0
TABLE
  2
APPID
  5
9
100
AcDbSymbolTable
 70
1
  0
APPID
  5
214
100
AcDbSymbolTableRecord
100
AcDbRegAppTableRecord
  2
ACAD
 70
0
  0
ENDTAB
  0
TABLE
  2
BLOCK_RECORD
  5
1
100
AcDbSymbolTable
 70
0
  0
BLOCK_RECORD
  5
215
100
AcDbSymbolTableRecord
100
AcDbBlockTableRecord
  2
*Model_Space
  0
BLOCK_RECORD
  5
216
100
AcDbSymbolTableRecord
100
AcDbBlockTableRecord
  2
*Paper_Space
  0
ENDTAB
  0
TABLE
  2
DIMSTYLE
  5
A
100
AcDbSymbolTable
 70
1
100
AcDbDimStyleTable
 71
0
  0
DIMSTYLE
105
217
100
AcDbSymbolTableRecord
100
AcDbDimStyleTableRecord
  2
STANDARD
 70
0
  3

  4

 40
1.0
 41
3.5
 42
0.0625
 43
0.38
 44
0.18
 45
0.0
 46
0.0
 47
0.005
 48
0.005
140
3.5
141
0.09
142
0.0
143
25.4
144
1.0
145
0.0
146
1.0
147
0.09
 71
1.0
 72
0.0
 73
0
 74
0
 75
0
 76
0
 77
1
 78
8
170
0
171
2
172
0
173
0
174
0
175
0
176
0
177
0
178
5
270
2
271
3
272
3
273
2
274
2
275
0
280
0
281
0
282
0
283
1
284
8
285
0
286
0
287
3
288
0
340
11
  0
ENDTAB
  0
ENDSEC
  0
SECTION
  2
BLOCKS
  0
BLOCK
  5
20
100
AcDbEntity
  8
0
100
AcDbBlockBegin
  2
*Model_Space
 70
0
 10
0.0
 20
0.0
 30
0.0
  3
*Model_Space
  1

  0
ENDBLK
  5
21
100
AcDbEntity
  8
0
100
AcDbBlockEnd
  0
BLOCK
  5
1C
100
AcDbEntity
  8
0
100
AcDbBlockBegin
  2
*Paper_Space
 70
0
 10
0.0
 20
0.0
 30
0.0
  3
*Paper_Space
  1

  0
ENDBLK
  5
1D
100
AcDbEntity
  8
0
100
AcDbBlockEnd
  0
ENDSEC
  0
SECTION
  2
ENTITIES
  0
MTEXT
  5
218
100
AcDbEntity
  8
0
100
AcDbMText
 62
5
  6
CONTINUOUS
  7
STANDARD
 71
1
 72
1
 10
87.9254854411
 20
49.8547915952
 30
0.0
 11
1.0
 21
0.0
 31
0.0
 44
0.9
  1
VWBG-V\P0,45t M10
 40
3.0
 41
19.2857142857
  0
MTEXT
  5
219
100
AcDbEntity
  8
0
100
AcDbMText
 62
5
  6
CONTINUOUS
  7
STANDARD
 71
1
 72
1
 10
84.4409566327
 20
127.5585926861
 30
0.0
 11
1.0
 21
0.0
 31
0.0
 44
0.9
  1
RUD VWBG-V \P0,45t M10
 40
3.0
 41
28.6428571429
  0
LINE
  5
21A
100
AcDbEntity
  8
0
100
AcDbLine
 62
7
  6
CONTINUOUS
 10
0.0
 20
0.0
 11
0.0
 21
210.0
  0
LINE
  5
21B
100
AcDbEntity
  8
0
100
AcDbLine
 62
7
  6
CONTINUOUS
 10
0.0
 20
0.0
 11
297.0
 21
0.0
  0
LINE
  5
21C
100
AcDbEntity
  8
0
100
AcDbLine
 62
7
  6
CONTINUOUS
 10
0.0
 20
210.0
 11
297.0
 21
210.0
  0
LINE
  5
21D
100
AcDbEntity
  8
0
100
AcDbLine
 62
7
  6
CONTINUOUS
 10
297.0
 20
0.0
 11
297.0
 21
210.0
  0
LINE
  5
21E
100
AcDbEntity
  8
0
100
AcDbLine
 62
7
  6
CONTINUOUS
 10
93.2702394342
 20
96.9998278467
 11
101.2698799762
 21
96.9998278467
  0
LINE
  5
21F
100
AcDbEntity
  8
0
100
AcDbLine
 62
7
  6
CONTINUOUS
 10
102.2700597052
 20
97.9998278467
 11
92.2700597052
 21
97.9998278467
  0
LINE
  5
220
100
AcDbEntity
  8
0
100
AcDbLine
 62
7
  6
CONTINUOUS
 10
92.2700597052
 20
97.9998278467
 11
93.2700597052
 21
96.9998278467
  0
LINE
  5
221
100
AcDbEntity
  8
0
100
AcDbLine
 62
7
  6
CONTINUOUS
 10
112.2700597052
 20
113.9998278467
 11
82.2700597052
 21
113.9998278467
  0
LINE
  5
222
100
AcDbEntity
  8
0
100
AcDbLine
 62
7
  6
CONTINUOUS
 10
74.7700597052
 20
177.4998278467
 11
74.7700597052
 21
166.4998278467
  0
LINE
  5
223
100
AcDbEntity
  8
RUNDUNGEN
100
AcDbLine
 62
7
  6
CONTINUOUS
 10
80.7700597052
 20
125.9998278467
 11
82.2700597052
 21
125.9998278467
  0
LINE
  5
224
100
AcDbEntity
  8
RUNDUNGEN
100
AcDbLine
 62
7
  6
CONTINUOUS
 10
80.2700597052
 20
133.6996699047
 11
80.2700597052
 21
126.4998278467
  0
LINE
  5
225
100
AcDbEntity
  8
0
100
AcDbLine
 62
7
  6
CONTINUOUS
 10
82.2700597052
 20
124.3346682195
 11
82.2700597052
 21
113.9998278467
  0
LINE
  5
226
100
AcDbEntity
  8
RUNDUNGEN
100
AcDbLine
 62
7
  6
CONTINUOUS
 10
82.2700597052
 20
124.3346682195
 11
82.2700597052
 21
131.1690485806
  0
LINE
  5
227
100
AcDbEntity
  8
RUNDUNGEN
100
AcDbLine
 62
7
  6
CONTINUOUS
 10
82.2700597052
 20
134.2040858436
 11
82.2700597052
 21
134.3998110769
  0
LINE
  5
228
100
AcDbEntity
  8
0
100
AcDbLine
 62
7
  6
CONTINUOUS
 10
82.7700597052
 20
177.4998278467
 11
82.7700597052
 21
166.4998278467
  0
LINE
  5
229
100
AcDbEntity
  8
0
100
AcDbLine
 62
7
  6
CONTINUOUS
 10
83.2582086784
 20
124.3346682195
 11
83.2582086784
 21
113.9998278467
  0
LINE
  5
22A
100
AcDbEntity
  8
BEZUGSACHSEN
100
AcDbLine
 62
7
  6
CONTINUOUS
 10
84.2700597052
 20
134.4998278467
 11
84.2700597052
 21
136.4998278467
  0
LINE
  5
22B
100
AcDbEntity
  8
0
100
AcDbLine
 62
7
  6
CONTINUOUS
 10
82.0626364097
 20
134.1998278467
 11
80.7700597052
 21
134.1998278467
  0
LINE
  5
22C
100
AcDbEntity
  8
FASEN
100
AcDbLine
 62
7
  6
CONTINUOUS
 10
112.2700597052
 20
134.2043855208
 11
105.7053056914
 21
134.2043855208
  0
LINE
  5
22D
100
AcDbEntity
  8
RUNDUNGEN
100
AcDbLine
 62
7
  6
CONTINUOUS
 10
88.834813719
 20
134.2043855208
 11
82.274184389
 21
134.2043855208
  0
LINE
  5
22E
100
AcDbEntity
  8
FASEN
100
AcDbLine
 62
7
  6
CONTINUOUS
 10
90.7053056914
 20
134.2043855208
 11
103.834813719
 21
134.2043855208
  0
LINE
  5
22F
100
AcDbEntity
  8
FASEN
100
AcDbLine
 62
7
  6
CONTINUOUS
 10
82.5833882014
 20
134.4998278467
 11
111.9564405814
 21
134.4998278467
  0
LINE
  5
230
100
AcDbEntity
  8
BEZUGSACHSEN
100
AcDbLine
 62
7
  6
CONTINUOUS
 10
90.3760014066
 20
137.9998278467
 11
85.7750756804
 21
137.9998278467
  0
LINE
  5
231
100
AcDbEntity
  8
BEZUGSACHSEN
100
AcDbLine
 62
7
  6
CONTINUOUS
 10
104.164118017
 20
137.9998278467
 11
108.76504373
 21
137.9998278467
  0
LINE
  5
232
100
AcDbEntity
  8
0
100
AcDbLine
 62
7
  6
CONTINUOUS
 10
92.2700597052
 20
113.9998278467
 11
92.2700597052
 21
97.9998278467
  0
LINE
  5
233
100
AcDbEntity
  8
0
100
AcDbLine
 62
7
  6
CONTINUOUS
 10
94.0200597052
 20
152.3786203693
 11
94.0200597052
 21
156.5406478031
  0
LINE
  5
234
100
AcDbEntity
  8
RUNDUNGEN
100
AcDbLine
 62
7
  6
CONTINUOUS
 10
94.5200597052
 20
159.2520617455
 11
94.5200597052
 21
155.8425948785
  0
LINE
  5
235
100
AcDbEntity
  8
BEZUGSACHSEN
100
AcDbLine
 62
7
  6
CONTINUOUS
 10
94.5200597052
 20
155.8425948785
 11
94.5200597052
 21
148.0867589042
  0
LINE
  5
236
100
AcDbEntity
  8
0
100
AcDbLine
 62
7
  6
CONTINUOUS
 10
96.2819107319
 20
124.3346682195
 11
96.2819107319
 21
113.9998278467
  0
LINE
  5
237
100
AcDbEntity
  8
BEZUGSACHSEN
100
AcDbLine
 62
7
  6
CONTINUOUS
 10
93.9772951602
 20
145.0085945153
 11
91.7855403378
 21
138.9867976317
  0
LINE
  5
238
100
AcDbEntity
  8
FASEN
100
AcDbLine
 62
7
  6
CONTINUOUS
 10
111.9567898981
 20
134.4998278467
 11
112.2743759306
 21
134.233341524
  0
LINE
  5
239
100
AcDbEntity
  8
0
100
AcDbLine
 62
7
  6
CONTINUOUS
 10
98.2582086784
 20
124.3346682195
 11
98.2582086784
 21
113.9998278467
  0
LINE
  5
23A
100
AcDbEntity
  8
RUNDUNGEN
100
AcDbLine
 62
7
  6
CONTINUOUS
 10
100.0200597052
 20
159.2526512458
 11
100.0200597052
 21
148.0867589042
  0
LINE
  5
23B
100
AcDbEntity
  8
FASEN
100
AcDbLine
 62
7
  6
CONTINUOUS
 10
82.5833295123
 20
134.4998278467
 11
82.2657434862
 21
134.2333415293
  0
LINE
  5
23C
100
AcDbEntity
  8
0
100
AcDbLine
 62
7
  6
CONTINUOUS
 10
94.5200597052
 20
152.445436083
 11
94.0200597052
 21
152.445436083
  0
LINE
  5
23D
100
AcDbEntity
  8
0
100
AcDbLine
 62
7
  6
CONTINUOUS
 10
94.5200597052
 20
152.4718205308
 11
94.0200597052
 21
152.4718205308
  0
LINE
  5
23E
100
AcDbEntity
  8
RUNDUNGEN
100
AcDbLine
 62
7
  6
CONTINUOUS
 10
100.5628242501
 20
145.0085945153
 11
102.7545790726
 21
138.9867976317
  0
LINE
  5
23F
100
AcDbEntity
  8
0
100
AcDbLine
 62
7
  6
CONTINUOUS
 10
102.2700597052
 20
113.9998278467
 11
102.2700597052
 21
97.9998278467
  0
LINE
  5
240
100
AcDbEntity
  8
0
100
AcDbLine
 62
7
  6
CONTINUOUS
 10
94.5200597052
 20
153.5936085522
 11
94.0200597052
 21
153.5936085522
  0
LINE
  5
241
100
AcDbEntity
  8
0
100
AcDbLine
 62
7
  6
CONTINUOUS
 10
94.5200597052
 20
153.742092782
 11
94.0200597052
 21
153.742092782
  0
LINE
  5
242
100
AcDbEntity
  8
0
100
AcDbLine
 62
7
  6
CONTINUOUS
 10
94.5200597052
 20
154.4350188101
 11
94.0200597052
 21
154.4350188101
  0
LINE
  5
243
100
AcDbEntity
  8
0
100
AcDbLine
 62
7
  6
CONTINUOUS
 10
94.5200597052
 20
154.5835030399
 11
94.0200597052
 21
154.5835030399
  0
LINE
  5
244
100
AcDbEntity
  8
0
100
AcDbLine
 62
7
  6
CONTINUOUS
 10
94.5200597052
 20
154.685457777
 11
94.0200597052
 21
154.685457777
  0
LINE
  5
245
100
AcDbEntity
  8
0
100
AcDbLine
 62
7
  6
CONTINUOUS
 10
94.5200597052
 20
154.8964014863
 11
94.0200597052
 21
154.8964014863
  0
LINE
  5
246
100
AcDbEntity
  8
0
100
AcDbLine
 62
7
  6
CONTINUOUS
 10
94.5200597052
 20
155.0412461032
 11
94.0200597052
 21
155.0412461032
  0
LINE
  5
247
100
AcDbEntity
  8
0
100
AcDbLine
 62
7
  6
CONTINUOUS
 10
94.5200597052
 20
155.2529690945
 11
94.0200597052
 21
155.2529690945
  0
LINE
  5
248
100
AcDbEntity
  8
0
100
AcDbLine
 62
7
  6
CONTINUOUS
 10
94.5200597052
 20
155.4673490026
 11
94.0200597052
 21
155.4673490026
  0
LINE
  5
249
100
AcDbEntity
  8
0
100
AcDbLine
 62
7
  6
CONTINUOUS
 10
94.5200597052
 20
155.6026648382
 11
94.0200597052
 21
155.6026648382
  0
LINE
  5
24A
100
AcDbEntity
  8
0
100
AcDbLine
 62
7
  6
CONTINUOUS
 10
94.5200597052
 20
155.7125113369
 11
94.0200597052
 21
155.7125113369
  0
LINE
  5
24B
100
AcDbEntity
  8
0
100
AcDbLine
 62
7
  6
CONTINUOUS
 10
94.5200597052
 20
155.8390775625
 11
94.0200597052
 21
155.8390775625
  0
LINE
  5
24C
100
AcDbEntity
  8
0
100
AcDbLine
 62
7
  6
CONTINUOUS
 10
94.5200597052
 20
155.8698599887
 11
94.0200597052
 21
155.8698599887
  0
LINE
  5
24D
100
AcDbEntity
  8
0
100
AcDbLine
 62
7
  6
CONTINUOUS
 10
94.5200597052
 20
155.9287911983
 11
94.0200597052
 21
155.9287911983
  0
LINE
  5
24E
100
AcDbEntity
  8
0
100
AcDbLine
 62
7
  6
CONTINUOUS
 10
94.5200597052
 20
156.1150422353
 11
94.0200597052
 21
156.1150422353
  0
LINE
  5
24F
100
AcDbEntity
  8
0
100
AcDbLine
 62
7
  6
CONTINUOUS
 10
94.5200597052
 20
156.2653635619
 11
94.0200597052
 21
156.2653635619
  0
LINE
  5
250
100
AcDbEntity
  8
0
100
AcDbLine
 62
7
  6
CONTINUOUS
 10
94.5200597052
 20
156.3377497579
 11
94.0200597052
 21
156.3377497579
  0
LINE
  5
251
100
AcDbEntity
  8
0
100
AcDbLine
 62
7
  6
CONTINUOUS
 10
94.5200597052
 20
156.4835757004
 11
94.0200597052
 21
156.4835757004
  0
LINE
  5
252
100
AcDbEntity
  8
0
100
AcDbLine
 62
7
  6
CONTINUOUS
 10
94.5200597052
 20
156.5406478031
 11
94.0200597052
 21
156.5406478031
  0
LINE
  5
253
100
AcDbEntity
  8
BEZUGSACHSEN
100
AcDbLine
 62
7
  6
CONTINUOUS
 10
110.2700597052
 20
136.4998278467
 11
110.2700597052
 21
134.4998278467
  0
LINE
  5
254
100
AcDbEntity
  8
0
100
AcDbLine
 62
7
  6
CONTINUOUS
 10
111.2819107319
 20
124.3346682195
 11
111.2819107319
 21
113.9998278467
  0
LINE
  5
255
100
AcDbEntity
  8
0
100
AcDbLine
 62
7
  6
CONTINUOUS
 10
111.7700597052
 20
166.4998278467
 11
111.7700597052
 21
177.4998278467
  0
LINE
  5
256
100
AcDbEntity
  8
FASEN
100
AcDbLine
 62
7
  6
CONTINUOUS
 10
112.2700597052
 20
134.2369610244
 11
112.2700597052
 21
131.8420649265
  0
LINE
  5
257
100
AcDbEntity
  8
0
100
AcDbLine
 62
7
  6
CONTINUOUS
 10
112.2700597052
 20
131.8420649265
 11
112.2700597052
 21
113.9998278467
  0
LINE
  5
258
100
AcDbEntity
  8
RUNDUNGEN
100
AcDbLine
 62
7
  6
CONTINUOUS
 10
98.5200597052
 20
160.7526512458
 11
96.0200597052
 21
160.7526512458
  0
LINE
  5
259
100
AcDbEntity
  8
0
100
AcDbLine
 62
7
  6
CONTINUOUS
 10
119.7700597052
 20
166.4998278467
 11
119.7700597052
 21
177.4998278467
  0
LINE
  5
25A
100
AcDbEntity
  8
0
100
AcDbLine
 62
7
  6
CONTINUOUS
 10
102.2700597052
 20
97.9998278467
 11
101.2700597052
 21
96.9998278467
  0
LINE
  5
25B
100
AcDbEntity
  8
0
100
AcDbLine
 62
7
  6
CONTINUOUS
 10
186.5880923119
 20
96.9998278467
 11
178.5880923119
 21
96.9998278467
  0
LINE
  5
25C
100
AcDbEntity
  8
0
100
AcDbLine
 62
7
  6
CONTINUOUS
 10
187.5880923119
 20
97.9998278467
 11
177.5880923119
 21
97.9998278467
  0
LINE
  5
25D
100
AcDbEntity
  8
0
100
AcDbLine
 62
7
  6
CONTINUOUS
 10
177.5880923119
 20
97.9998278467
 11
178.5880923119
 21
96.9998278467
  0
LINE
  5
25E
100
AcDbEntity
  8
0
100
AcDbLine
 62
7
  6
CONTINUOUS
 10
199.3380923119
 20
113.9998278467
 11
165.8380923119
 21
113.9998278467
  0
LINE
  5
25F
100
AcDbEntity
  8
RUNDUNGEN
100
AcDbLine
 62
7
  6
CONTINUOUS
 10
187.0880923119
 20
115.9998278467
 11
178.0880923119
 21
115.9998278467
  0
LINE
  5
260
100
AcDbEntity
  8
KONSTRUKTIONSELEMENTE
100
AcDbLine
 62
7
  6
CONTINUOUS
 10
185.0068423119
 20
117.1028065692
 11
184.7255924192
 21
117.0389767895
  0
LINE
  5
261
100
AcDbEntity
  8
KONSTRUKTIONSELEMENTE
100
AcDbLine
 62
7
  6
CONTINUOUS
 10
184.4443422046
 20
119.336849169
 11
184.7255924192
 21
119.4006789486
  0
LINE
  5
262
100
AcDbEntity
  8
KONSTRUKTIONSELEMENTE
100
AcDbLine
 62
7
  6
CONTINUOUS
 10
184.7255924192
 20
116.7198278467
 11
185.0630920973
 21
116.7836576319
  0
LINE
  5
263
100
AcDbEntity
  8
KONSTRUKTIONSELEMENTE
100
AcDbLine
 62
7
  6
CONTINUOUS
 10
184.7255924192
 20
119.7198278467
 11
184.3880924192
 21
119.6559980671
  0
LINE
  5
264
100
AcDbEntity
  8
KONSTRUKTIONSELEMENTE
100
AcDbLine
 62
7
  6
CONTINUOUS
 10
179.4380923119
 20
116.7198278467
 11
179.7755923119
 21
116.7198278467
  0
LINE
  5
265
100
AcDbEntity
  8
KONSTRUKTIONSELEMENTE
100
AcDbLine
 62
7
  6
CONTINUOUS
 10
180.5630922851
 20
116.7198278467
 11
181.0130922583
 21
116.7198278467
  0
LINE
  5
266
100
AcDbEntity
  8
KONSTRUKTIONSELEMENTE
100
AcDbLine
 62
7
  6
CONTINUOUS
 10
181.8005923119
 20
116.7198278467
 11
182.1380923119
 21
116.7198278467
  0
LINE
  5
267
100
AcDbEntity
  8
KONSTRUKTIONSELEMENTE
100
AcDbLine
 62
7
  6
CONTINUOUS
 10
182.9255922046
 20
116.7198278467
 11
183.2630922046
 21
116.7198278467
  0
LINE
  5
268
100
AcDbEntity
  8
KONSTRUKTIONSELEMENTE
100
AcDbLine
 62
7
  6
CONTINUOUS
 10
183.2630922046
 20
119.7198278467
 11
182.9255922046
 21
119.7198278467
  0
LINE
  5
269
100
AcDbEntity
  8
KONSTRUKTIONSELEMENTE
100
AcDbLine
 62
7
  6
CONTINUOUS
 10
182.1380923119
 20
119.7198278467
 11
181.6318423119
 21
119.7198278467
  0
LINE
  5
26A
100
AcDbEntity
  8
KONSTRUKTIONSELEMENTE
100
AcDbLine
 62
7
  6
CONTINUOUS
 10
179.9443423119
 20
119.7198278467
 11
179.4380923119
 21
119.7198278467
  0
LINE
  5
26B
100
AcDbEntity
  8
KONSTRUKTIONSELEMENTE
100
AcDbLine
 62
7
  6
CONTINUOUS
 10
184.3880924192
 20
116.7836576319
 11
184.7255924192
 21
116.7198278467
  0
LINE
  5
26C
100
AcDbEntity
  8
KONSTRUKTIONSELEMENTE
100
AcDbLine
 62
7
  6
CONTINUOUS
 10
184.7255924192
 20
117.0389767895
 11
184.4443422046
 21
117.1028065692
  0
LINE
  5
26D
100
AcDbEntity
  8
KONSTRUKTIONSELEMENTE
100
AcDbLine
 62
7
  6
CONTINUOUS
 10
184.6193423119
 20
121.1298278467
 11
184.8693420735
 21
121.1936576319
  0
LINE
  5
26E
100
AcDbEntity
  8
KONSTRUKTIONSELEMENTE
100
AcDbLine
 62
7
  6
CONTINUOUS
 10
178.5568423715
 20
121.5766363488
 11
178.3068423417
 21
121.5128065692
  0
LINE
  5
26F
100
AcDbEntity
  8
KONSTRUKTIONSELEMENTE
100
AcDbLine
 62
7
  6
CONTINUOUS
 10
187.4318423119
 20
121.5128065692
 11
187.1193420735
 21
121.4489767895
  0
LINE
  5
270
100
AcDbEntity
  8
KONSTRUKTIONSELEMENTE
100
AcDbLine
 62
7
  6
CONTINUOUS
 10
184.8693420735
 20
121.5128065692
 11
184.5568425503
 21
121.4489767895
  0
LINE
  5
271
100
AcDbEntity
  8
KONSTRUKTIONSELEMENTE
100
AcDbLine
 62
7
  6
CONTINUOUS
 10
178.3068423417
 20
121.1298278467
 11
178.6193423119
 21
121.1936576319
  0
LINE
  5
272
100
AcDbEntity
  8
KONSTRUKTIONSELEMENTE
100
AcDbLine
 62
7
  6
CONTINUOUS
 10
186.8068425503
 20
123.746849169
 11
187.1193420735
 21
123.8106789486
  0
LINE
  5
273
100
AcDbEntity
  8
KONSTRUKTIONSELEMENTE
100
AcDbLine
 62
7
  6
CONTINUOUS
 10
187.1193420735
 20
121.1298278467
 11
187.4943420735
 21
121.1936576319
  0
LINE
  5
274
100
AcDbEntity
  8
KONSTRUKTIONSELEMENTE
100
AcDbLine
 62
7
  6
CONTINUOUS
 10
177.8068422821
 20
121.1298278467
 11
178.3068423417
 21
121.1298278467
  0
LINE
  5
275
100
AcDbEntity
  8
KONSTRUKTIONSELEMENTE
100
AcDbLine
 62
7
  6
CONTINUOUS
 10
180.2443421927
 20
121.1298278467
 11
180.7443424311
 21
121.1298278467
  0
LINE
  5
276
100
AcDbEntity
  8
KONSTRUKTIONSELEMENTE
100
AcDbLine
 62
7
  6
CONTINUOUS
 10
181.7443421927
 20
121.1298278467
 11
182.2443424311
 21
121.1298278467
  0
LINE
  5
277
100
AcDbEntity
  8
KONSTRUKTIONSELEMENTE
100
AcDbLine
 62
7
  6
CONTINUOUS
 10
184.1193420735
 20
121.1298278467
 11
184.6193423119
 21
121.1298278467
  0
LINE
  5
278
100
AcDbEntity
  8
KONSTRUKTIONSELEMENTE
100
AcDbLine
 62
7
  6
CONTINUOUS
 10
184.5568425503
 20
121.4489767895
 11
184.1818425503
 21
121.4489767895
  0
LINE
  5
279
100
AcDbEntity
  8
KONSTRUKTIONSELEMENTE
100
AcDbLine
 62
7
  6
CONTINUOUS
 10
178.3068423417
 20
121.5128065692
 11
177.8068422821
 21
121.5128065692
  0
LINE
  5
27A
100
AcDbEntity
  8
KONSTRUKTIONSELEMENTE
100
AcDbLine
 62
7
  6
CONTINUOUS
 10
183.5568420735
 20
121.831955512
 11
183.2443425503
 21
121.831955512
  0
LINE
  5
27B
100
AcDbEntity
  8
KONSTRUKTIONSELEMENTE
100
AcDbLine
 62
7
  6
CONTINUOUS
 10
177.3068423119
 20
121.9596150712
 11
176.9318423119
 21
121.9596150712
  0
LINE
  5
27C
100
AcDbEntity
  8
KONSTRUKTIONSELEMENTE
100
AcDbLine
 62
7
  6
CONTINUOUS
 10
177.9318423417
 20
122.4702533976
 11
178.3068423417
 21
122.4702533976
  0
LINE
  5
27D
100
AcDbEntity
  8
KONSTRUKTIONSELEMENTE
100
AcDbLine
 62
7
  6
CONTINUOUS
 10
184.2443423119
 20
122.5340831773
 11
184.4943420735
 21
122.5340831773
  0
LINE
  5
27E
100
AcDbEntity
  8
KONSTRUKTIONSELEMENTE
100
AcDbLine
 62
7
  6
CONTINUOUS
 10
184.4943420735
 20
122.7894022958
 11
184.2443423119
 21
122.7894022958
  0
LINE
  5
27F
100
AcDbEntity
  8
KONSTRUKTIONSELEMENTE
100
AcDbLine
 62
7
  6
CONTINUOUS
 10
178.3068423417
 20
122.8532320754
 11
177.9318423417
 21
122.8532320754
  0
LINE
  5
280
100
AcDbEntity
  8
KONSTRUKTIONSELEMENTE
100
AcDbLine
 62
7
  6
CONTINUOUS
 10
178.6818422523
 20
123.4277002708
 11
179.0568422523
 21
123.4277002708
  0
LINE
  5
281
100
AcDbEntity
  8
KONSTRUKTIONSELEMENTE
100
AcDbLine
 62
7
  6
CONTINUOUS
 10
183.3068423119
 20
123.4277002708
 11
183.6193425503
 21
123.4277002708
  0
LINE
  5
282
100
AcDbEntity
  8
KONSTRUKTIONSELEMENTE
100
AcDbLine
 62
7
  6
CONTINUOUS
 10
186.7443420735
 20
121.1936576319
 11
187.1193420735
 21
121.1298278467
  0
LINE
  5
283
100
AcDbEntity
  8
KONSTRUKTIONSELEMENTE
100
AcDbLine
 62
7
  6
CONTINUOUS
 10
184.4943420735
 20
122.5340831773
 11
184.8693420735
 21
122.4702533976
  0
LINE
  5
284
100
AcDbEntity
  8
KONSTRUKTIONSELEMENTE
100
AcDbLine
 62
7
  6
CONTINUOUS
 10
185.0630920973
 20
119.6559980671
 11
184.7255924192
 21
119.7198278467
  0
LINE
  5
285
100
AcDbEntity
  8
KONSTRUKTIONSELEMENTE
100
AcDbLine
 62
7
  6
CONTINUOUS
 10
177.4943423119
 20
121.1936576319
 11
177.8068422821
 21
121.1298278467
  0
LINE
  5
286
100
AcDbEntity
  8
KONSTRUKTIONSELEMENTE
100
AcDbLine
 62
7
  6
CONTINUOUS
 10
184.1818425503
 20
121.4489767895
 11
183.8693423119
 21
121.5128065692
  0
LINE
  5
287
100
AcDbEntity
  8
KONSTRUKTIONSELEMENTE
100
AcDbLine
 62
7
  6
CONTINUOUS
 10
178.6193423119
 20
122.7894022958
 11
178.3068423417
 21
122.8532320754
  0
LINE
  5
288
100
AcDbEntity
  8
KONSTRUKTIONSELEMENTE
100
AcDbLine
 62
7
  6
CONTINUOUS
 10
187.1193420735
 20
121.4489767895
 11
186.8068425503
 21
121.5128065692
  0
LINE
  5
289
100
AcDbEntity
  8
KONSTRUKTIONSELEMENTE
100
AcDbLine
 62
7
  6
CONTINUOUS
 10
184.7255924192
 20
119.4006789486
 11
185.0068423119
 21
119.336849169
  0
LINE
  5
28A
100
AcDbEntity
  8
KONSTRUKTIONSELEMENTE
100
AcDbLine
 62
7
  6
CONTINUOUS
 10
177.8068422821
 20
121.5128065692
 11
177.556842297
 21
121.5766363488
  0
LINE
  5
28B
100
AcDbEntity
  8
KONSTRUKTIONSELEMENTE
100
AcDbLine
 62
7
  6
CONTINUOUS
 10
177.6818423119
 20
122.5340831773
 11
177.9318423417
 21
122.4702533976
  0
LINE
  5
28C
100
AcDbEntity
  8
KONSTRUKTIONSELEMENTE
100
AcDbLine
 62
7
  6
CONTINUOUS
 10
178.3068423417
 20
122.4702533976
 11
178.5568423715
 21
122.406423618
  0
LINE
  5
28D
100
AcDbEntity
  8
KONSTRUKTIONSELEMENTE
100
AcDbLine
 62
7
  6
CONTINUOUS
 10
183.8693423119
 20
121.1936576319
 11
184.1193420735
 21
121.1298278467
  0
LINE
  5
28E
100
AcDbEntity
  8
KONSTRUKTIONSELEMENTE
100
AcDbLine
 62
7
  6
CONTINUOUS
 10
177.9318423417
 20
122.8532320754
 11
177.7443423417
 21
122.917061855
  0
LINE
  5
28F
100
AcDbEntity
  8
KONSTRUKTIONSELEMENTE
100
AcDbLine
 62
7
  6
CONTINUOUS
 10
178.3068423417
 20
123.746849169
 11
178.4943422523
 21
123.6830193893
  0
LINE
  5
290
100
AcDbEntity
  8
KONSTRUKTIONSELEMENTE
100
AcDbLine
 62
7
  6
CONTINUOUS
 10
177.4318423268
 20
122.6617427365
 11
177.6818423119
 21
122.5340831773
  0
LINE
  5
291
100
AcDbEntity
  8
KONSTRUKTIONSELEMENTE
100
AcDbLine
 62
7
  6
CONTINUOUS
 10
177.1818423194
 20
121.3851469876
 11
177.4943423119
 21
121.1936576319
  0
LINE
  5
292
100
AcDbEntity
  8
KONSTRUKTIONSELEMENTE
100
AcDbLine
 62
7
  6
CONTINUOUS
 10
184.1068422046
 20
116.9751469876
 11
184.3880924192
 21
116.7836576319
  0
LINE
  5
293
100
AcDbEntity
  8
KONSTRUKTIONSELEMENTE
100
AcDbLine
 62
7
  6
CONTINUOUS
 10
177.9318423417
 20
124.1298278467
 11
177.6818423119
 21
124.0659980671
  0
LINE
  5
294
100
AcDbEntity
  8
KONSTRUKTIONSELEMENTE
100
AcDbLine
 62
7
  6
CONTINUOUS
 10
183.9318420735
 20
123.746849169
 11
184.2443423119
 21
123.8106789486
  0
LINE
  5
295
100
AcDbEntity
  8
KONSTRUKTIONSELEMENTE
100
AcDbLine
 62
7
  6
CONTINUOUS
 10
187.1193420735
 20
124.1298278467
 11
186.7443420735
 21
124.0659980671
  0
LINE
  5
296
100
AcDbEntity
  8
KONSTRUKTIONSELEMENTE
100
AcDbLine
 62
7
  6
CONTINUOUS
 10
184.3068420735
 20
124.1298278467
 11
183.8693423119
 21
124.0659980671
  0
LINE
  5
297
100
AcDbEntity
  8
KONSTRUKTIONSELEMENTE
100
AcDbLine
 62
7
  6
CONTINUOUS
 10
177.9318423417
 20
123.746849169
 11
178.3068423417
 21
123.746849169
  0
LINE
  5
298
100
AcDbEntity
  8
KONSTRUKTIONSELEMENTE
100
AcDbLine
 62
7
  6
CONTINUOUS
 10
184.2443423119
 20
123.8106789486
 11
184.4943420735
 21
123.8106789486
  0
LINE
  5
299
100
AcDbEntity
  8
KONSTRUKTIONSELEMENTE
100
AcDbLine
 62
7
  6
CONTINUOUS
 10
184.4318423119
 20
124.1298278467
 11
184.3068420735
 21
124.1298278467
  0
LINE
  5
29A
100
AcDbEntity
  8
KONSTRUKTIONSELEMENTE
100
AcDbLine
 62
7
  6
CONTINUOUS
 10
182.7443423119
 20
124.1298278467
 11
182.3693423119
 21
124.1298278467
  0
LINE
  5
29B
100
AcDbEntity
  8
KONSTRUKTIONSELEMENTE
100
AcDbLine
 62
7
  6
CONTINUOUS
 10
181.4943424311
 20
124.1298278467
 11
180.9943421927
 21
124.1298278467
  0
LINE
  5
29C
100
AcDbEntity
  8
KONSTRUKTIONSELEMENTE
100
AcDbLine
 62
7
  6
CONTINUOUS
 10
180.1193423119
 20
124.1298278467
 11
179.7443423119
 21
124.1298278467
  0
LINE
  5
29D
100
AcDbEntity
  8
KONSTRUKTIONSELEMENTE
100
AcDbLine
 62
7
  6
CONTINUOUS
 10
178.2443423119
 20
124.1298278467
 11
177.9318423417
 21
124.1298278467
  0
LINE
  5
29E
100
AcDbEntity
  8
RUNDUNGEN
100
AcDbLine
 62
7
  6
CONTINUOUS
 10
178.0880923119
 20
125.9998278467
 11
187.0880923117
 21
125.9998278467
  0
LINE
  5
29F
100
AcDbEntity
  8
KONSTRUKTIONSELEMENTE
100
AcDbLine
 62
7
  6
CONTINUOUS
 10
184.8693420735
 20
124.0659980671
 11
184.4318423119
 21
124.1298278467
  0
LINE
  5
2A0
100
AcDbEntity
  8
KONSTRUKTIONSELEMENTE
100
AcDbLine
 62
7
  6
CONTINUOUS
 10
187.4943420735
 20
124.0659980671
 11
187.1193420735
 21
124.1298278467
  0
LINE
  5
2A1
100
AcDbEntity
  8
KONSTRUKTIONSELEMENTE
100
AcDbLine
 62
7
  6
CONTINUOUS
 10
178.5568423715
 20
124.0659980671
 11
178.2443423119
 21
124.1298278467
  0
LINE
  5
2A2
100
AcDbEntity
  8
KONSTRUKTIONSELEMENTE
100
AcDbLine
 62
7
  6
CONTINUOUS
 10
184.4943420735
 20
123.8106789486
 11
184.8068423119
 21
123.746849169
  0
LINE
  5
2A3
100
AcDbEntity
  8
KONSTRUKTIONSELEMENTE
100
AcDbLine
 62
7
  6
CONTINUOUS
 10
187.1193420735
 20
123.8106789486
 11
187.4318423119
 21
123.746849169
  0
LINE
  5
2A4
100
AcDbEntity
  8
KONSTRUKTIONSELEMENTE
100
AcDbLine
 62
7
  6
CONTINUOUS
 10
185.3068425503
 20
122.5340831773
 11
184.9943423119
 21
122.6617427365
  0
LINE
  5
2A5
100
AcDbEntity
  8
KONSTRUKTIONSELEMENTE
100
AcDbLine
 62
7
  6
CONTINUOUS
 10
178.8693422523
 20
122.6617427365
 11
178.6193423119
 21
122.7894022958
  0
LINE
  5
2A6
100
AcDbEntity
  8
KONSTRUKTIONSELEMENTE
100
AcDbLine
 62
7
  6
CONTINUOUS
 10
183.6193425503
 20
121.3213172079
 11
183.8693423119
 21
121.1936576319
  0
LINE
  5
2A7
100
AcDbEntity
  8
KONSTRUKTIONSELEMENTE
100
AcDbLine
 62
7
  6
CONTINUOUS
 10
183.8693423119
 20
121.5128065692
 11
183.7443420735
 21
121.5766363488
  0
LINE
  5
2A8
100
AcDbEntity
  8
KONSTRUKTIONSELEMENTE
100
AcDbLine
 62
7
  6
CONTINUOUS
 10
177.7443423417
 20
122.917061855
 11
177.556842297
 21
123.0447214143
  0
LINE
  5
2A9
100
AcDbEntity
  8
KONSTRUKTIONSELEMENTE
100
AcDbLine
 62
7
  6
CONTINUOUS
 10
178.5568423715
 20
122.406423618
 11
178.7443423715
 21
122.2787640588
  0
LINE
  5
2AA
100
AcDbEntity
  8
KONSTRUKTIONSELEMENTE
100
AcDbLine
 62
7
  6
CONTINUOUS
 10
185.3443423119
 20
119.4645087282
 11
185.0630920973
 21
119.6559980671
  0
LINE
  5
2AB
100
AcDbEntity
  8
KONSTRUKTIONSELEMENTE
100
AcDbLine
 62
7
  6
CONTINUOUS
 10
183.4318425503
 20
121.4489767895
 11
183.6193425503
 21
121.3213172079
  0
LINE
  5
2AC
100
AcDbEntity
  8
KONSTRUKTIONSELEMENTE
100
AcDbLine
 62
7
  6
CONTINUOUS
 10
184.4443422046
 20
117.1028065692
 11
184.2755922046
 21
117.2304661284
  0
LINE
  5
2AD
100
AcDbEntity
  8
KONSTRUKTIONSELEMENTE
100
AcDbLine
 62
7
  6
CONTINUOUS
 10
185.0068423119
 20
119.336849169
 11
185.1755923119
 21
119.2091896097
  0
LINE
  5
2AE
100
AcDbEntity
  8
KONSTRUKTIONSELEMENTE
100
AcDbLine
 62
7
  6
CONTINUOUS
 10
178.8068423119
 20
123.8745087282
 11
178.5568423715
 21
124.0659980671
  0
LINE
  5
2AF
100
AcDbEntity
  8
KONSTRUKTIONSELEMENTE
100
AcDbLine
 62
7
  6
CONTINUOUS
 10
177.556842297
 20
121.5766363488
 11
177.369342297
 21
121.7681257324
  0
LINE
  5
2B0
100
AcDbEntity
  8
KONSTRUKTIONSELEMENTE
100
AcDbLine
 62
7
  6
CONTINUOUS
 10
177.1818423194
 20
122.917061855
 11
177.4318423268
 21
122.6617427365
  0
LINE
  5
2B1
100
AcDbEntity
  8
KONSTRUKTIONSELEMENTE
100
AcDbLine
 62
7
  6
CONTINUOUS
 10
185.1193425503
 20
123.9383385078
 11
184.8693420735
 21
124.0659980671
  0
LINE
  5
2B2
100
AcDbEntity
  8
KONSTRUKTIONSELEMENTE
100
AcDbLine
 62
7
  6
CONTINUOUS
 10
186.4318425503
 20
121.3851469876
 11
186.7443420735
 21
121.1936576319
  0
LINE
  5
2B3
100
AcDbEntity
  8
KONSTRUKTIONSELEMENTE
100
AcDbLine
 62
7
  6
CONTINUOUS
 10
187.8068423119
 20
123.8745087282
 11
187.4943420735
 21
124.0659980671
  0
LINE
  5
2B4
100
AcDbEntity
  8
KONSTRUKTIONSELEMENTE
100
AcDbLine
 62
7
  6
CONTINUOUS
 10
184.8693420735
 20
122.4702533976
 11
185.0568420735
 21
122.3425938384
  0
LINE
  5
2B5
100
AcDbEntity
  8
KONSTRUKTIONSELEMENTE
100
AcDbLine
 62
7
  6
CONTINUOUS
 10
186.8068425503
 20
121.5128065692
 11
186.6193425503
 21
121.6404661284
  0
LINE
  5
2B6
100
AcDbEntity
  8
KONSTRUKTIONSELEMENTE
100
AcDbLine
 62
7
  6
CONTINUOUS
 10
184.8068423119
 20
123.746849169
 11
184.9943423119
 21
123.6191896097
  0
LINE
  5
2B7
100
AcDbEntity
  8
KONSTRUKTIONSELEMENTE
100
AcDbLine
 62
7
  6
CONTINUOUS
 10
187.4318423119
 20
123.746849169
 11
187.6193423119
 21
123.6191896097
  0
LINE
  5
2B8
100
AcDbEntity
  8
KONSTRUKTIONSELEMENTE
100
AcDbLine
 62
7
  6
CONTINUOUS
 10
179.1193423715
 20
122.406423618
 11
178.8693422523
 21
122.6617427365
  0
LINE
  5
2B9
100
AcDbEntity
  8
KONSTRUKTIONSELEMENTE
100
AcDbLine
 62
7
  6
CONTINUOUS
 10
178.4943422523
 20
123.6830193893
 11
178.6193423119
 21
123.5553598301
  0
LINE
  5
2BA
100
AcDbEntity
  8
KONSTRUKTIONSELEMENTE
100
AcDbLine
 62
7
  6
CONTINUOUS
 10
183.7443420735
 20
121.5766363488
 11
183.6193425503
 21
121.7042959527
  0
LINE
  5
2BB
100
AcDbEntity
  8
KONSTRUKTIONSELEMENTE
100
AcDbLine
 62
7
  6
CONTINUOUS
 10
183.9380922046
 20
117.1666363488
 11
184.1068422046
 21
116.9751469876
  0
LINE
  5
2BC
100
AcDbEntity
  8
KONSTRUKTIONSELEMENTE
100
AcDbLine
 62
7
  6
CONTINUOUS
 10
178.9943423119
 20
123.6191896097
 11
178.8068423119
 21
123.8745087282
  0
LINE
  5
2BD
100
AcDbEntity
  8
KONSTRUKTIONSELEMENTE
100
AcDbLine
 62
7
  6
CONTINUOUS
 10
176.9943423138
 20
121.7042959527
 11
177.1818423194
 21
121.3851469876
  0
LINE
  5
2BE
100
AcDbEntity
  8
0
100
AcDbLine
 62
7
  6
CONTINUOUS
 10
165.8380923119
 20
124.3346682195
 11
165.8380923119
 21
113.9998278467
  0
LINE
  5
2BF
100
AcDbEntity
  8
FASEN
100
AcDbLine
 62
7
  6
CONTINUOUS
 10
165.8380923119
 20
124.3346682195
 11
165.8380923119
 21
124.5004596349
  0
LINE
  5
2C0
100
AcDbEntity
  8
RUNDUNGEN
100
AcDbLine
 62
7
  6
CONTINUOUS
 10
195.0385088468
 20
134.2043855208
 11
183.7238608812
 21
134.2043855208
  0
LINE
  5
2C1
100
AcDbEntity
  8
RUNDUNGEN
100
AcDbLine
 62
7
  6
CONTINUOUS
 10
181.4523420843
 20
134.2043855208
 11
170.1376757771
 21
134.2043855208
  0
LINE
  5
2C2
100
AcDbEntity
  8
FASEN
100
AcDbLine
 62
7
  6
CONTINUOUS
 10
169.0577467333
 20
134.2043855208
 11
167.5492676657
 21
134.2043855208
  0
LINE
  5
2C3
100
AcDbEntity
  8
FASEN
100
AcDbLine
 62
7
  6
CONTINUOUS
 10
196.1184378906
 20
134.2043855208
 11
197.6269169581
 21
134.2043855208
  0
LINE
  5
2C4
100
AcDbEntity
  8
FASEN
100
AcDbLine
 62
7
  6
CONTINUOUS
 10
167.901362119
 20
134.4998278467
 11
197.2746322975
 21
134.4998278467
  0
LINE
  5
2C5
100
AcDbEntity
  8
KONSTRUKTIONSELEMENTE
100
AcDbLine
 62
7
  6
CONTINUOUS
 10
186.2443425503
 20
121.5766363488
 11
186.4318425503
 21
121.3851469876
  0
LINE
  5
2C6
100
AcDbEntity
  8
KONSTRUKTIONSELEMENTE
100
AcDbLine
 62
7
  6
CONTINUOUS
 10
185.3693423119
 20
123.6830193893
 11
185.1193425503
 21
123.9383385078
  0
LINE
  5
2C7
100
AcDbEntity
  8
KONSTRUKTIONSELEMENTE
100
AcDbLine
 62
7
  6
CONTINUOUS
 10
185.5130923119
 20
119.2730193893
 11
185.3443423119
 21
119.4645087282
  0
LINE
  5
2C8
100
AcDbEntity
  8
KONSTRUKTIONSELEMENTE
100
AcDbLine
 62
7
  6
CONTINUOUS
 10
178.7443423715
 20
122.2787640588
 11
178.8693422523
 21
122.0872746305
  0
LINE
  5
2C9
100
AcDbEntity
  8
KONSTRUKTIONSELEMENTE
100
AcDbLine
 62
7
  6
CONTINUOUS
 10
183.3068423119
 20
121.6404661284
 11
183.4318425503
 21
121.4489767895
  0
LINE
  5
2CA
100
AcDbEntity
  8
KONSTRUKTIONSELEMENTE
100
AcDbLine
 62
7
  6
CONTINUOUS
 10
184.2755922046
 20
117.2304661284
 11
184.0505924192
 21
117.6134448509
  0
LINE
  5
2CB
100
AcDbEntity
  8
KONSTRUKTIONSELEMENTE
100
AcDbLine
 62
7
  6
CONTINUOUS
 10
179.2443422523
 20
122.1511044101
 11
179.1193423715
 21
122.406423618
  0
LINE
  5
2CC
100
AcDbEntity
  8
KONSTRUKTIONSELEMENTE
100
AcDbLine
 62
7
  6
CONTINUOUS
 10
178.6193423119
 20
123.5553598301
 11
178.6818422523
 21
123.4277002708
  0
LINE
  5
2CD
100
AcDbEntity
  8
BEZUGSACHSEN
100
AcDbLine
 62
7
  6
CONTINUOUS
 10
168.5636304728
 20
145.3517771693
 11
170.7498182469
 21
140.0738529953
  0
LINE
  5
2CE
100
AcDbEntity
  8
BEZUGSACHSEN
100
AcDbLine
 62
7
  6
CONTINUOUS
 10
169.5880923119
 20
137.0447306851
 11
169.5880923119
 21
134.4998278467
  0
LINE
  5
2CF
100
AcDbEntity
  8
BEZUGSACHSEN
100
AcDbLine
 62
7
  6
CONTINUOUS
 10
167.5492676657
 20
134.2043855208
 11
165.8349555466
 21
124.4820383665
  0
LINE
  5
2D0
100
AcDbEntity
  8
BEZUGSACHSEN
100
AcDbLine
 62
7
  6
CONTINUOUS
 10
171.8595059814
 20
155.6048258768
 11
168.563630088
 21
147.6478775952
  0
LINE
  5
2D1
100
AcDbEntity
  8
RUNDUNGEN
100
AcDbLine
 62
7
  6
CONTINUOUS
 10
178.5880923119
 20
159.3429735972
 11
173.4830942818
 21
157.2284141773
  0
LINE
  5
2D2
100
AcDbEntity
  8
BEZUGSACHSEN
100
AcDbLine
 62
7
  6
CONTINUOUS
 10
191.7925455915
 20
137.9998278467
 11
173.3836390324
 21
137.9998278467
  0
LINE
  5
2D3
100
AcDbEntity
  8
KONSTRUKTIONSELEMENTE
100
AcDbLine
 62
7
  6
CONTINUOUS
 10
187.9943423119
 20
123.6830193893
 11
187.8068423119
 21
123.8745087282
  0
LINE
  5
2D4
100
AcDbEntity
  8
KONSTRUKTIONSELEMENTE
100
AcDbLine
 62
7
  6
CONTINUOUS
 10
185.4318420735
 20
122.3425938384
 11
185.3068425503
 21
122.5340831773
  0
LINE
  5
2D5
100
AcDbEntity
  8
KONSTRUKTIONSELEMENTE
100
AcDbLine
 62
7
  6
CONTINUOUS
 10
184.9943423119
 20
123.6191896097
 11
185.1193425503
 21
123.4277002708
  0
LINE
  5
2D6
100
AcDbEntity
  8
KONSTRUKTIONSELEMENTE
100
AcDbLine
 62
7
  6
CONTINUOUS
 10
186.6193425503
 20
121.6404661284
 11
186.3693420735
 21
122.0234448509
  0
LINE
  5
2D7
100
AcDbEntity
  8
KONSTRUKTIONSELEMENTE
100
AcDbLine
 62
7
  6
CONTINUOUS
 10
185.1755923119
 20
119.2091896097
 11
185.4005920973
 21
118.8262107531
  0
LINE
  5
2D8
100
AcDbEntity
  8
KONSTRUKTIONSELEMENTE
100
AcDbLine
 62
7
  6
CONTINUOUS
 10
183.6193425503
 20
121.7042959527
 11
183.5568420735
 21
121.831955512
  0
LINE
  5
2D9
100
AcDbEntity
  8
KONSTRUKTIONSELEMENTE
100
AcDbLine
 62
7
  6
CONTINUOUS
 10
183.8255923119
 20
117.421955512
 11
183.9380922046
 21
117.1666363488
  0
LINE
  5
2DA
100
AcDbEntity
  8
KONSTRUKTIONSELEMENTE
100
AcDbLine
 62
7
  6
CONTINUOUS
 10
179.7755923119
 20
119.0815300505
 11
180.5630922851
 21
116.7198278467
  0
LINE
  5
2DB
100
AcDbEntity
  8
KONSTRUKTIONSELEMENTE
100
AcDbLine
 62
7
  6
CONTINUOUS
 10
177.369342297
 20
121.7681257324
 11
177.3068423119
 21
121.9596150712
  0
LINE
  5
2DC
100
AcDbEntity
  8
KONSTRUKTIONSELEMENTE
100
AcDbLine
 62
7
  6
CONTINUOUS
 10
177.556842297
 20
123.0447214143
 11
177.4943423119
 21
123.2362107531
  0
LINE
  5
2DD
100
AcDbEntity
  8
KONSTRUKTIONSELEMENTE
100
AcDbLine
 62
7
  6
CONTINUOUS
 10
179.0568422523
 20
123.4277002708
 11
178.9943423119
 21
123.6191896097
  0
LINE
  5
2DE
100
AcDbEntity
  8
KONSTRUKTIONSELEMENTE
100
AcDbLine
 62
7
  6
CONTINUOUS
 10
180.7880923119
 20
117.0389767895
 11
179.9443423119
 21
119.7198278467
  0
LINE
  5
2DF
100
AcDbEntity
  8
KONSTRUKTIONSELEMENTE
100
AcDbLine
 62
7
  6
CONTINUOUS
 10
176.9318423119
 20
121.9596150712
 11
176.9943423138
 21
121.7042959527
  0
LINE
  5
2E0
100
AcDbEntity
  8
KONSTRUKTIONSELEMENTE
100
AcDbLine
 62
7
  6
CONTINUOUS
 10
177.1193423119
 20
123.1723809735
 11
177.1818423194
 21
122.917061855
  0
LINE
  5
2E1
100
AcDbEntity
  8
0
100
AcDbLine
 62
7
  6
CONTINUOUS
 10
174.0929650887
 20
150.0259101586
 11
174.0930883644
 21
149.9042258647
  0
LINE
  5
2E2
100
AcDbEntity
  8
0
100
AcDbLine
 62
7
  6
CONTINUOUS
 10
173.3573301984
 20
124.3346682195
 11
173.3573301984
 21
113.9998278467
  0
LINE
  5
2E3
100
AcDbEntity
  8
0
100
AcDbLine
 62
7
  6
CONTINUOUS
 10
175.0688544255
 20
124.3346682195
 11
175.0688544255
 21
113.9998278467
  0
LINE
  5
2E4
100
AcDbEntity
  8
0
100
AcDbLine
 62
7
  6
CONTINUOUS
 10
175.960565266
 20
151.0637411571
 11
175.9709377766
 21
151.2376379048
  0
LINE
  5
2E5
100
AcDbEntity
  8
0
100
AcDbLine
 62
7
  6
CONTINUOUS
 10
175.7251047777
 20
151.1695251226
 11
175.6789065001
 21
151.0185911501
  0
LINE
  5
2E6
100
AcDbEntity
  8
0
100
AcDbLine
 62
7
  6
CONTINUOUS
 10
175.8938610707
 20
150.8808145191
 11
175.960565266
 21
151.0637411571
  0
LINE
  5
2E7
100
AcDbEntity
  8
0
100
AcDbLine
 62
7
  6
CONTINUOUS
 10
173.2822058226
 20
150.165421591
 11
172.9641401461
 21
149.3106713371
  0
LINE
  5
2E8
100
AcDbEntity
  8
0
100
AcDbLine
 62
7
  6
CONTINUOUS
 10
173.2430639918
 20
149.4501563394
 11
173.494865973
 21
150.1268335898
  0
LINE
  5
2E9
100
AcDbEntity
  8
0
100
AcDbLine
 62
7
  6
CONTINUOUS
 10
174.0930883644
 20
149.9042258647
 11
173.8412863832
 21
149.2275486143
  0
LINE
  5
2EA
100
AcDbEntity
  8
0
100
AcDbLine
 62
7
  6
CONTINUOUS
 10
174.0805752951
 20
149.1385055408
 11
174.3058718096
 21
149.7439536204
  0
LINE
  5
2EB
100
AcDbEntity
  8
0
100
AcDbLine
 62
7
  6
CONTINUOUS
 10
174.8385701792
 20
148.6131671788
 11
174.9180865984
 21
148.8268547423
  0
LINE
  5
2EC
100
AcDbEntity
  8
0
100
AcDbLine
 62
7
  6
CONTINUOUS
 10
175.2494049987
 20
149.7172195561
 11
175.3421741796
 21
149.9665217814
  0
LINE
  5
2ED
100
AcDbEntity
  8
0
100
AcDbLine
 62
7
  6
CONTINUOUS
 10
176.954433104
 20
152.5997448433
 11
176.876615767
 21
152.4624140715
  0
LINE
  5
2EE
100
AcDbEntity
  8
0
100
AcDbLine
 62
7
  6
CONTINUOUS
 10
174.5381462868
 20
152.4719494285
 11
174.4151102926
 21
152.279992715
  0
LINE
  5
2EF
100
AcDbEntity
  8
0
100
AcDbLine
 62
7
  6
CONTINUOUS
 10
173.9229663162
 20
151.5121658611
 11
173.7999302634
 21
151.3202090561
  0
LINE
  5
2F0
100
AcDbEntity
  8
0
100
AcDbLine
 62
7
  6
CONTINUOUS
 10
175.6789065001
 20
151.0185911501
 11
175.5968824649
 21
150.8906199468
  0
LINE
  5
2F1
100
AcDbEntity
  8
0
100
AcDbLine
 62
7
  6
CONTINUOUS
 10
175.8118370355
 20
150.7528433158
 11
175.8938610707
 21
150.8808145191
  0
LINE
  5
2F2
100
AcDbEntity
  8
0
100
AcDbLine
 62
7
  6
CONTINUOUS
 10
173.3883510031
 20
150.3286540823
 11
173.2822058226
 21
150.165421591
  0
LINE
  5
2F3
100
AcDbEntity
  8
0
100
AcDbLine
 62
7
  6
CONTINUOUS
 10
173.494865973
 20
150.1268335898
 11
173.5745056679
 21
150.2188368593
  0
LINE
  5
2F4
100
AcDbEntity
  8
0
100
AcDbLine
 62
7
  6
CONTINUOUS
 10
175.6467657388
 20
153.6999035392
 11
174.9998830686
 21
153.0570142936
  0
LINE
  5
2F5
100
AcDbEntity
  8
0
100
AcDbLine
 62
7
  6
CONTINUOUS
 10
175.3415817675
 20
153.036640607
 11
175.8267437702
 21
153.5188075412
  0
LINE
  5
2F6
100
AcDbEntity
  8
0
100
AcDbLine
 62
7
  6
CONTINUOUS
 10
176.876615767
 20
152.4624140715
 11
176.3914537643
 21
151.9802471374
  0
LINE
  5
2F7
100
AcDbEntity
  8
0
100
AcDbLine
 62
7
  6
CONTINUOUS
 10
175.8115294032
 20
153.8036562345
 11
175.6467657388
 21
153.6999035392
  0
LINE
  5
2F8
100
AcDbEntity
  8
0
100
AcDbLine
 62
7
  6
CONTINUOUS
 10
175.8267437702
 20
153.5188075412
 11
175.9645537843
 21
153.5957729802
  0
LINE
  5
2F9
100
AcDbEntity
  8
KONSTRUKTIONSELEMENTE
100
AcDbLine
 62
7
  6
CONTINUOUS
 10
187.6193423119
 20
123.6191896097
 11
187.8693420735
 21
123.2362107531
  0
LINE
  5
2FA
100
AcDbEntity
  8
0
100
AcDbLine
 62
7
  6
CONTINUOUS
 10
174.0397076037
 20
150.1268204049
 11
174.0929650887
 21
150.0259101586
  0
LINE
  5
2FB
100
AcDbEntity
  8
KONSTRUKTIONSELEMENTE
100
AcDbLine
 62
7
  6
CONTINUOUS
 10
185.0568420735
 20
122.3425938384
 11
185.1818423119
 21
122.0872746305
  0
LINE
  5
2FC
100
AcDbEntity
  8
KONSTRUKTIONSELEMENTE
100
AcDbLine
 62
7
  6
CONTINUOUS
 10
186.1193423119
 20
121.831955512
 11
186.2443425503
 21
121.5766363488
  0
LINE
  5
2FD
100
AcDbEntity
  8
KONSTRUKTIONSELEMENTE
100
AcDbLine
 62
7
  6
CONTINUOUS
 10
185.6255925265
 20
119.0177002708
 11
185.5130923119
 21
119.2730193893
  0
LINE
  5
2FE
100
AcDbEntity
  8
KONSTRUKTIONSELEMENTE
100
AcDbLine
 62
7
  6
CONTINUOUS
 10
183.2443425503
 20
121.831955512
 11
183.3068423119
 21
121.6404661284
  0
LINE
  5
2FF
100
AcDbEntity
  8
KONSTRUKTIONSELEMENTE
100
AcDbLine
 62
7
  6
CONTINUOUS
 10
183.7693422046
 20
117.6134448509
 11
183.8255923119
 21
117.421955512
  0
LINE
  5
300
100
AcDbEntity
  8
KONSTRUKTIONSELEMENTE
100
AcDbLine
 62
7
  6
CONTINUOUS
 10
179.7443423119
 20
124.1298278467
 11
180.2443421927
 21
121.1298278467
  0
LINE
  5
301
100
AcDbEntity
  8
0
100
AcDbLine
 62
7
  6
CONTINUOUS
 10
174.305625277
 20
149.9873222593
 11
174.2788732398
 21
150.1594616254
  0
LINE
  5
302
100
AcDbEntity
  8
0
100
AcDbLine
 62
7
  6
CONTINUOUS
 10
175.7149712345
 20
151.3114290338
 11
175.7251047777
 21
151.1695251226
  0
LINE
  5
303
100
AcDbEntity
  8
0
100
AcDbLine
 62
7
  6
CONTINUOUS
 10
177.2091857946
 20
152.612949529
 11
177.1970141053
 21
152.8408283104
  0
LINE
  5
304
100
AcDbEntity
  8
RUNDUNGEN
100
AcDbLine
 62
7
  6
CONTINUOUS
 10
176.0880923119
 20
117.9998278467
 11
176.0880923119
 21
123.9998278467
  0
LINE
  5
305
100
AcDbEntity
  8
KONSTRUKTIONSELEMENTE
100
AcDbLine
 62
7
  6
CONTINUOUS
 10
177.1193423119
 20
123.4277002708
 11
177.1193423119
 21
123.1723809735
  0
LINE
  5
306
100
AcDbEntity
  8
KONSTRUKTIONSELEMENTE
100
AcDbLine
 62
7
  6
CONTINUOUS
 10
177.4943423119
 20
123.2362107531
 11
177.4943423119
 21
123.3638703124
  0
LINE
  5
307
100
AcDbEntity
  8
0
100
AcDbLine
 62
7
  6
CONTINUOUS
 10
177.5880923119
 20
113.9998278467
 11
177.5880923119
 21
97.9998278467
  0
LINE
  5
308
100
AcDbEntity
  8
0
100
AcDbLine
 62
7
  6
CONTINUOUS
 10
178.5880923119
 20
195.9998278467
 11
178.5880923119
 21
147.9998278467
  0
LINE
  5
309
100
AcDbEntity
  8
RUNDUNGEN
100
AcDbLine
 62
7
  6
CONTINUOUS
 10
178.5880923119
 20
126.4998278467
 11
178.5880923119
 21
130.1998278467
  0
LINE
  5
30A
100
AcDbEntity
  8
KONSTRUKTIONSELEMENTE
100
AcDbLine
 62
7
  6
CONTINUOUS
 10
178.8693422523
 20
122.0872746305
 11
178.8693422523
 21
121.8957852916
  0
LINE
  5
30B
100
AcDbEntity
  8
KONSTRUKTIONSELEMENTE
100
AcDbLine
 62
7
  6
CONTINUOUS
 10
179.2443422523
 20
121.831955512
 11
179.2443422523
 21
122.1511044101
  0
LINE
  5
30C
100
AcDbEntity
  8
KONSTRUKTIONSELEMENTE
100
AcDbLine
 62
7
  6
CONTINUOUS
 10
179.4380923119
 20
119.7198278467
 11
179.4380923119
 21
116.7198278467
  0
LINE
  5
30D
100
AcDbEntity
  8
0
100
AcDbLine
 62
7
  6
CONTINUOUS
 10
176.9753007397
 20
152.7404713528
 11
176.954433104
 21
152.5997448433
  0
LINE
  5
30E
100
AcDbEntity
  8
0
100
AcDbLine
 62
7
  6
CONTINUOUS
 10
177.161364804
 20
152.445436083
 11
177.2091857946
 21
152.612949529
  0
LINE
  5
30F
100
AcDbEntity
  8
0
100
AcDbLine
 62
7
  6
CONTINUOUS
 10
177.0565938194
 20
152.2813180524
 11
177.161364804
 21
152.445436083
  0
LINE
  5
310
100
AcDbEntity
  8
0
100
AcDbLine
 62
7
  6
CONTINUOUS
 10
176.4097111492
 20
151.6384288068
 11
177.0565938194
 21
152.2813180524
  0
LINE
  5
311
100
AcDbEntity
  8
0
100
AcDbLine
 62
7
  6
CONTINUOUS
 10
175.6734813188
 20
150.6158422201
 11
175.8118370355
 21
150.7528433158
  0
LINE
  5
312
100
AcDbEntity
  8
0
100
AcDbLine
 62
7
  6
CONTINUOUS
 10
175.5968824649
 20
150.8906199468
 11
175.4790327895
 21
150.7856116957
  0
LINE
  5
313
100
AcDbEntity
  8
0
100
AcDbLine
 62
7
  6
CONTINUOUS
 10
173.5610063925
 20
150.4265908873
 11
173.3883510031
 21
150.3286540823
  0
LINE
  5
314
100
AcDbEntity
  8
0
100
AcDbLine
 62
7
  6
CONTINUOUS
 10
175.519805759
 20
150.5337965611
 11
175.6734813188
 21
150.6158422201
  0
LINE
  5
315
100
AcDbEntity
  8
0
100
AcDbLine
 62
7
  6
CONTINUOUS
 10
173.5745056679
 20
150.2188368593
 11
173.6807741242
 21
150.2603850566
  0
LINE
  5
316
100
AcDbEntity
  8
0
100
AcDbLine
 62
7
  6
CONTINUOUS
 10
175.4790327895
 20
150.7856116957
 11
175.3458632521
 21
150.7355588933
  0
LINE
  5
317
100
AcDbEntity
  8
0
100
AcDbLine
 62
7
  6
CONTINUOUS
 10
173.9333158717
 20
150.2069565016
 11
174.0397076037
 21
150.1268204049
  0
LINE
  5
318
100
AcDbEntity
  8
0
100
AcDbLine
 62
7
  6
CONTINUOUS
 10
174.1591055081
 20
150.3256674561
 11
174.0527137761
 21
150.4058035528
  0
LINE
  5
319
100
AcDbEntity
  8
0
100
AcDbLine
 62
7
  6
CONTINUOUS
 10
174.2788732398
 20
150.1594616254
 11
174.1591055081
 21
150.3256674561
  0
LINE
  5
31A
100
AcDbEntity
  8
0
100
AcDbLine
 62
7
  6
CONTINUOUS
 10
175.9096587689
 20
151.4574601928
 11
175.8073676723
 21
151.6132967957
  0
LINE
  5
31B
100
AcDbEntity
  8
0
100
AcDbLine
 62
7
  6
CONTINUOUS
 10
175.6485059206
 20
151.4443028514
 11
175.7149712345
 21
151.3114290338
  0
LINE
  5
31C
100
AcDbEntity
  8
KONSTRUKTIONSELEMENTE
100
AcDbLine
 62
7
  6
CONTINUOUS
 10
188.1193425503
 20
123.4277002708
 11
187.9943423119
 21
123.6830193893
  0
LINE
  5
31D
100
AcDbEntity
  8
0
100
AcDbLine
 62
7
  6
CONTINUOUS
 10
177.1970141053
 20
152.8408283104
 11
177.1309357221
 21
153.0151332028
  0
LINE
  5
31E
100
AcDbEntity
  8
KONSTRUKTIONSELEMENTE
100
AcDbLine
 62
7
  6
CONTINUOUS
 10
186.0568425503
 20
122.0234448509
 11
186.1193423119
 21
121.831955512
  0
LINE
  5
31F
100
AcDbEntity
  8
KONSTRUKTIONSELEMENTE
100
AcDbLine
 62
7
  6
CONTINUOUS
 10
185.6818423119
 20
118.8262107531
 11
185.6255925265
 21
119.0177002708
  0
LINE
  5
320
100
AcDbEntity
  8
0
100
AcDbLine
 62
7
  6
CONTINUOUS
 10
175.9709377766
 20
151.2376379048
 11
175.9096587689
 21
151.4574601928
  0
LINE
  5
321
100
AcDbEntity
  8
0
100
AcDbLine
 62
7
  6
CONTINUOUS
 10
176.939218716
 20
152.8845935578
 11
176.9753007397
 21
152.7404713528
  0
LINE
  5
322
100
AcDbEntity
  8
KONSTRUKTIONSELEMENTE
100
AcDbLine
 62
7
  6
CONTINUOUS
 10
185.4943425503
 20
122.0872746305
 11
185.4318420735
 21
122.3425938384
  0
LINE
  5
323
100
AcDbEntity
  8
KONSTRUKTIONSELEMENTE
100
AcDbLine
 62
7
  6
CONTINUOUS
 10
185.4318420735
 20
123.4277002708
 11
185.3693423119
 21
123.6830193893
  0
LINE
  5
324
100
AcDbEntity
  8
KONSTRUKTIONSELEMENTE
100
AcDbLine
 62
7
  6
CONTINUOUS
 10
181.9943423119
 20
121.831955512
 11
181.4943424311
 21
124.1298278467
  0
LINE
  5
325
100
AcDbEntity
  8
KONSTRUKTIONSELEMENTE
100
AcDbLine
 62
7
  6
CONTINUOUS
 10
181.2443423119
 20
123.5553598301
 11
181.7443421927
 21
121.1298278467
  0
LINE
  5
326
100
AcDbEntity
  8
KONSTRUKTIONSELEMENTE
100
AcDbLine
 62
7
  6
CONTINUOUS
 10
183.7130924192
 20
117.9325938384
 11
183.7693422046
 21
117.6134448509
  0
LINE
  5
327
100
AcDbEntity
  8
KONSTRUKTIONSELEMENTE
100
AcDbLine
 62
7
  6
CONTINUOUS
 10
180.4943423119
 20
121.831955512
 11
180.1193423119
 21
124.1298278467
  0
LINE
  5
328
100
AcDbEntity
  8
KONSTRUKTIONSELEMENTE
100
AcDbLine
 62
7
  6
CONTINUOUS
 10
179.7755923119
 20
116.7198278467
 11
179.7755923119
 21
119.0815300505
  0
LINE
  5
329
100
AcDbEntity
  8
KONSTRUKTIONSELEMENTE
100
AcDbLine
 62
7
  6
CONTINUOUS
 10
181.8005923119
 20
119.0815300505
 11
181.8005923119
 21
116.7198278467
  0
LINE
  5
32A
100
AcDbEntity
  8
KONSTRUKTIONSELEMENTE
100
AcDbLine
 62
7
  6
CONTINUOUS
 10
182.1380923119
 20
116.7198278467
 11
182.1380923119
 21
119.7198278467
  0
LINE
  5
32B
100
AcDbEntity
  8
KONSTRUKTIONSELEMENTE
100
AcDbLine
 62
7
  6
CONTINUOUS
 10
182.5880922046
 20
119.2730193893
 11
182.5880922046
 21
118.7623809735
  0
LINE
  5
32C
100
AcDbEntity
  8
KONSTRUKTIONSELEMENTE
100
AcDbLine
 62
7
  6
CONTINUOUS
 10
182.9255922046
 20
119.2091896097
 11
182.9255922046
 21
116.7198278467
  0
LINE
  5
32D
100
AcDbEntity
  8
0
100
AcDbLine
 62
7
  6
CONTINUOUS
 10
187.9133536218
 20
152.4718205308
 11
189.6772310884
 21
153.5936085522
  0
LINE
  5
32E
100
AcDbEntity
  8
0
100
AcDbLine
 62
7
  6
CONTINUOUS
 10
189.5042060347
 20
153.742092782
 11
187.9642764626
 21
152.7645655283
  0
LINE
  5
32F
100
AcDbEntity
  8
0
100
AcDbLine
 62
7
  6
CONTINUOUS
 10
175.1973739031
 20
150.7404615076
 11
175.033564952
 21
150.8003199207
  0
LINE
  5
330
100
AcDbEntity
  8
0
100
AcDbLine
 62
7
  6
CONTINUOUS
 10
172.9641401461
 20
149.3106713371
 11
174.8385701792
 21
148.6131671788
  0
LINE
  5
331
100
AcDbEntity
  8
0
100
AcDbLine
 62
7
  6
CONTINUOUS
 10
174.9180865984
 20
148.8268547423
 11
174.0805752951
 21
149.1385055408
  0
LINE
  5
332
100
AcDbEntity
  8
0
100
AcDbLine
 62
7
  6
CONTINUOUS
 10
173.8412863832
 20
149.2275486143
 11
173.2430639918
 21
149.4501563394
  0
LINE
  5
333
100
AcDbEntity
  8
0
100
AcDbLine
 62
7
  6
CONTINUOUS
 10
173.813671304
 20
150.2514780799
 11
173.9333158717
 21
150.2069565016
  0
LINE
  5
334
100
AcDbEntity
  8
0
100
AcDbLine
 62
7
  6
CONTINUOUS
 10
174.0527137761
 20
150.4058035528
 11
173.8931877231
 21
150.4651656433
  0
LINE
  5
335
100
AcDbEntity
  8
0
100
AcDbLine
 62
7
  6
CONTINUOUS
 10
174.9105288992
 20
150.6083631157
 11
175.1101637252
 21
150.5255421165
  0
LINE
  5
336
100
AcDbEntity
  8
0
100
AcDbLine
 62
7
  6
CONTINUOUS
 10
173.7999302634
 20
151.3202090561
 11
174.9105288992
 21
150.6083631157
  0
LINE
  5
337
100
AcDbEntity
  8
0
100
AcDbLine
 62
7
  6
CONTINUOUS
 10
175.033564952
 20
150.8003199207
 11
173.9229663162
 21
151.5121658611
  0
LINE
  5
338
100
AcDbEntity
  8
0
100
AcDbLine
 62
7
  6
CONTINUOUS
 10
174.4151102926
 20
152.279992715
 11
175.5257089284
 21
151.5681467746
  0
LINE
  5
339
100
AcDbEntity
  8
0
100
AcDbLine
 62
7
  6
CONTINUOUS
 10
175.6487449225
 20
151.7601034881
 11
174.5381462868
 21
152.4719494285
  0
LINE
  5
33A
100
AcDbEntity
  8
FASEN
100
AcDbLine
 62
7
  6
CONTINUOUS
 10
197.2748225048
 20
134.4998278467
 11
197.6269169581
 21
134.2043855208
  0
LINE
  5
33B
100
AcDbEntity
  8
0
100
AcDbLine
 62
7
  6
CONTINUOUS
 10
175.8073676723
 20
151.6132967957
 11
175.6487449225
 21
151.7601034881
  0
LINE
  5
33C
100
AcDbEntity
  8
0
100
AcDbLine
 62
7
  6
CONTINUOUS
 10
174.9998830686
 20
153.0570142936
 11
176.4097111492
 21
151.6384288068
  0
LINE
  5
33D
100
AcDbEntity
  8
0
100
AcDbLine
 62
7
  6
CONTINUOUS
 10
176.3914537643
 20
151.9802471374
 11
175.3415817675
 21
153.036640607
  0
LINE
  5
33E
100
AcDbEntity
  8
0
100
AcDbLine
 62
7
  6
CONTINUOUS
 10
176.396241583
 20
153.4848512101
 11
176.8461867035
 21
153.0321111728
  0
LINE
  5
33F
100
AcDbEntity
  8
0
100
AcDbLine
 62
7
  6
CONTINUOUS
 10
177.007907371
 20
153.1928334842
 11
176.5579622506
 21
153.6455735215
  0
LINE
  5
340
100
AcDbEntity
  8
0
100
AcDbLine
 62
7
  6
CONTINUOUS
 10
175.5257089284
 20
151.5681467746
 11
175.6485059206
 21
151.4443028514
  0
LINE
  5
341
100
AcDbEntity
  8
0
100
AcDbLine
 62
7
  6
CONTINUOUS
 10
177.1309357221
 20
153.0151332028
 11
177.007907371
 21
153.1928334842
  0
LINE
  5
342
100
AcDbEntity
  8
0
100
AcDbLine
 62
7
  6
CONTINUOUS
 10
176.8461867035
 20
153.0321111728
 11
176.939218716
 21
152.8845935578
  0
LINE
  5
343
100
AcDbEntity
  8
KONSTRUKTIONSELEMENTE
100
AcDbLine
 62
7
  6
CONTINUOUS
 10
188.1818423119
 20
123.2362107531
 11
188.1193425503
 21
123.4277002708
  0
LINE
  5
344
100
AcDbEntity
  8
KONSTRUKTIONSELEMENTE
100
AcDbLine
 62
7
  6
CONTINUOUS
 10
185.9943420735
 20
122.3425938384
 11
186.0568425503
 21
122.0234448509
  0
LINE
  5
345
100
AcDbEntity
  8
KONSTRUKTIONSELEMENTE
100
AcDbLine
 62
7
  6
CONTINUOUS
 10
185.7380920973
 20
118.507061855
 11
185.6818423119
 21
118.8262107531
  0
LINE
  5
346
100
AcDbEntity
  8
KONSTRUKTIONSELEMENTE
100
AcDbLine
 62
7
  6
CONTINUOUS
 10
186.3693420735
 20
122.0234448509
 11
186.3068423119
 21
122.406423618
  0
LINE
  5
347
100
AcDbEntity
  8
KONSTRUKTIONSELEMENTE
100
AcDbLine
 62
7
  6
CONTINUOUS
 10
184.0505924192
 20
117.6134448509
 11
183.9943423119
 21
117.996423618
  0
LINE
  5
348
100
AcDbEntity
  8
KONSTRUKTIONSELEMENTE
100
AcDbLine
 62
7
  6
CONTINUOUS
 10
185.4005920973
 20
118.8262107531
 11
185.4568425265
 21
118.4432320754
  0
LINE
  5
349
100
AcDbEntity
  8
KONSTRUKTIONSELEMENTE
100
AcDbLine
 62
7
  6
CONTINUOUS
 10
183.2630922046
 20
116.7198278467
 11
183.2630922046
 21
119.7198278467
  0
LINE
  5
34A
100
AcDbEntity
  8
KONSTRUKTIONSELEMENTE
100
AcDbLine
 62
7
  6
CONTINUOUS
 10
183.7130924192
 20
118.507061855
 11
183.7130924192
 21
117.9325938384
  0
LINE
  5
34B
100
AcDbEntity
  8
KONSTRUKTIONSELEMENTE
100
AcDbLine
 62
7
  6
CONTINUOUS
 10
183.9943423119
 20
117.996423618
 11
183.9943423119
 21
118.4432320754
  0
LINE
  5
34C
100
AcDbEntity
  8
KONSTRUKTIONSELEMENTE
100
AcDbLine
 62
7
  6
CONTINUOUS
 10
184.2443423119
 20
122.7894022958
 11
184.2443423119
 21
122.5340831773
  0
LINE
  5
34D
100
AcDbEntity
  8
KONSTRUKTIONSELEMENTE
100
AcDbLine
 62
7
  6
CONTINUOUS
 10
185.1193425503
 20
123.4277002708
 11
185.1193425503
 21
123.3000405328
  0
LINE
  5
34E
100
AcDbEntity
  8
KONSTRUKTIONSELEMENTE
100
AcDbLine
 62
7
  6
CONTINUOUS
 10
185.1818423119
 20
122.0872746305
 11
185.1818423119
 21
121.831955512
  0
LINE
  5
34F
100
AcDbEntity
  8
KONSTRUKTIONSELEMENTE
100
AcDbLine
 62
7
  6
CONTINUOUS
 10
185.4318420735
 20
123.3000405328
 11
185.4318420735
 21
123.4277002708
  0
LINE
  5
350
100
AcDbEntity
  8
KONSTRUKTIONSELEMENTE
100
AcDbLine
 62
7
  6
CONTINUOUS
 10
185.4568425265
 20
118.4432320754
 11
185.4568425265
 21
117.996423618
  0
LINE
  5
351
100
AcDbEntity
  8
KONSTRUKTIONSELEMENTE
100
AcDbLine
 62
7
  6
CONTINUOUS
 10
185.4943425503
 20
121.831955512
 11
185.4943425503
 21
122.0872746305
  0
LINE
  5
352
100
AcDbEntity
  8
KONSTRUKTIONSELEMENTE
100
AcDbLine
 62
7
  6
CONTINUOUS
 10
185.7380920973
 20
117.9325938384
 11
185.7380920973
 21
118.507061855
  0
LINE
  5
353
100
AcDbEntity
  8
KONSTRUKTIONSELEMENTE
100
AcDbLine
 62
7
  6
CONTINUOUS
 10
185.9943420735
 20
122.917061855
 11
185.9943420735
 21
122.3425938384
  0
LINE
  5
354
100
AcDbEntity
  8
KONSTRUKTIONSELEMENTE
100
AcDbLine
 62
7
  6
CONTINUOUS
 10
186.3068423119
 20
122.406423618
 11
186.3068423119
 21
122.8532320754
  0
LINE
  5
355
100
AcDbEntity
  8
0
100
AcDbLine
 62
7
  6
CONTINUOUS
 10
186.5880923119
 20
195.9998278467
 11
186.5880923119
 21
147.9998278467
  0
LINE
  5
356
100
AcDbEntity
  8
RUNDUNGEN
100
AcDbLine
 62
7
  6
CONTINUOUS
 10
186.5880923119
 20
130.1998278467
 11
186.5880923119
 21
126.4998278467
  0
LINE
  5
357
100
AcDbEntity
  8
KONSTRUKTIONSELEMENTE
100
AcDbLine
 62
7
  6
CONTINUOUS
 10
182.3693423119
 20
124.1298278467
 11
181.9943423119
 21
121.831955512
  0
LINE
  5
358
100
AcDbEntity
  8
0
100
AcDbLine
 62
7
  6
CONTINUOUS
 10
186.7882414315
 20
155.0412461032
 11
186.8316782567
 21
155.2529690945
  0
LINE
  5
359
100
AcDbEntity
  8
KONSTRUKTIONSELEMENTE
100
AcDbLine
 62
7
  6
CONTINUOUS
 10
180.7443424311
 20
121.1298278467
 11
181.2443423119
 21
123.5553598301
  0
LINE
  5
35A
100
AcDbEntity
  8
KONSTRUKTIONSELEMENTE
100
AcDbLine
 62
7
  6
CONTINUOUS
 10
180.9943421927
 20
124.1298278467
 11
180.4943423119
 21
121.831955512
  0
LINE
  5
35B
100
AcDbEntity
  8
KONSTRUKTIONSELEMENTE
100
AcDbLine
 62
7
  6
CONTINUOUS
 10
177.1818423194
 20
123.6830193893
 11
177.1193423119
 21
123.4277002708
  0
LINE
  5
35C
100
AcDbEntity
  8
KONSTRUKTIONSELEMENTE
100
AcDbLine
 62
7
  6
CONTINUOUS
 10
177.4943423119
 20
123.3638703124
 11
177.556842297
 21
123.5553598301
  0
LINE
  5
35D
100
AcDbEntity
  8
0
100
AcDbLine
 62
7
  6
CONTINUOUS
 10
186.5880923119
 20
154.5388060861
 11
186.6465116373
 21
154.685457777
  0
LINE
  5
35E
100
AcDbEntity
  8
0
100
AcDbLine
 62
7
  6
CONTINUOUS
 10
187.9642764626
 20
152.7645655283
 11
188.6967562243
 21
154.4350188101
  0
LINE
  5
35F
100
AcDbEntity
  8
0
100
AcDbLine
 62
7
  6
CONTINUOUS
 10
188.5237311706
 20
154.5835030399
 11
187.6826531102
 21
152.6697998815
  0
LINE
  5
360
100
AcDbEntity
  8
0
100
AcDbLine
 62
7
  6
CONTINUOUS
 10
186.9795345721
 20
154.2876937258
 11
186.8692009746
 21
154.1057710377
  0
LINE
  5
361
100
AcDbEntity
  8
0
100
AcDbLine
 62
7
  6
CONTINUOUS
 10
187.3240855493
 20
153.8298898262
 11
187.4344191469
 21
154.0118125144
  0
LINE
  5
362
100
AcDbEntity
  8
FASEN
100
AcDbLine
 62
7
  6
CONTINUOUS
 10
167.9013621211
 20
134.4998278485
 11
167.5492676679
 21
134.2043855226
  0
LINE
  5
363
100
AcDbEntity
  8
0
100
AcDbLine
 62
7
  6
CONTINUOUS
 10
173.7602905433
 20
150.4740726201
 11
173.5610063925
 21
150.4265908873
  0
LINE
  5
364
100
AcDbEntity
  8
0
100
AcDbLine
 62
7
  6
CONTINUOUS
 10
175.2944787983
 20
150.4976766255
 11
175.519805759
 21
150.5337965611
  0
LINE
  5
365
100
AcDbEntity
  8
0
100
AcDbLine
 62
7
  6
CONTINUOUS
 10
175.3421741796
 20
149.9665217814
 11
174.305625277
 21
149.9873222593
  0
LINE
  5
366
100
AcDbEntity
  8
0
100
AcDbLine
 62
7
  6
CONTINUOUS
 10
174.3058718096
 20
149.7439536204
 11
175.2494049987
 21
149.7172195561
  0
LINE
  5
367
100
AcDbEntity
  8
0
100
AcDbLine
 62
7
  6
CONTINUOUS
 10
175.3458632521
 20
150.7355588933
 11
175.1973739031
 21
150.7404615076
  0
LINE
  5
368
100
AcDbEntity
  8
0
100
AcDbLine
 62
7
  6
CONTINUOUS
 10
173.6807741242
 20
150.2603850566
 11
173.813671304
 21
150.2514780799
  0
LINE
  5
369
100
AcDbEntity
  8
0
100
AcDbLine
 62
7
  6
CONTINUOUS
 10
173.8931877231
 20
150.4651656433
 11
173.7602905433
 21
150.4740726201
  0
LINE
  5
36A
100
AcDbEntity
  8
0
100
AcDbLine
 62
7
  6
CONTINUOUS
 10
175.1101637252
 20
150.5255421165
 11
175.2944787983
 21
150.4976766255
  0
LINE
  5
36B
100
AcDbEntity
  8
0
100
AcDbLine
 62
7
  6
CONTINUOUS
 10
176.1054067952
 20
153.6157688033
 11
176.249302887
 21
153.5787949257
  0
LINE
  5
36C
100
AcDbEntity
  8
0
100
AcDbLine
 62
7
  6
CONTINUOUS
 10
176.3810271319
 20
153.769699988
 11
176.2071347857
 21
153.8368564473
  0
LINE
  5
36D
100
AcDbEntity
  8
0
100
AcDbLine
 62
7
  6
CONTINUOUS
 10
176.249302887
 20
153.5787949257
 11
176.396241583
 21
153.4848512101
  0
LINE
  5
36E
100
AcDbEntity
  8
0
100
AcDbLine
 62
7
  6
CONTINUOUS
 10
176.5579622506
 20
153.6455735215
 11
176.3810271319
 21
153.769699988
  0
LINE
  5
36F
100
AcDbEntity
  8
KONSTRUKTIONSELEMENTE
100
AcDbLine
 62
7
  6
CONTINUOUS
 10
188.2443420735
 20
122.917061855
 11
188.1818423119
 21
123.2362107531
  0
LINE
  5
370
100
AcDbEntity
  8
KONSTRUKTIONSELEMENTE
100
AcDbLine
 62
7
  6
CONTINUOUS
 10
187.8693420735
 20
123.2362107531
 11
187.9318425503
 21
122.8532320754
  0
LINE
  5
371
100
AcDbEntity
  8
0
100
AcDbLine
 62
7
  6
CONTINUOUS
 10
187.5880923119
 20
113.9998278467
 11
187.5880923119
 21
97.9998278467
  0
LINE
  5
372
100
AcDbEntity
  8
KONSTRUKTIONSELEMENTE
100
AcDbLine
 62
7
  6
CONTINUOUS
 10
187.9318425503
 20
122.8532320754
 11
187.9318425503
 21
122.406423618
  0
LINE
  5
373
100
AcDbEntity
  8
KONSTRUKTIONSELEMENTE
100
AcDbLine
 62
7
  6
CONTINUOUS
 10
188.2443420735
 20
122.3425938384
 11
188.2443420735
 21
122.917061855
  0
LINE
  5
374
100
AcDbEntity
  8
RUNDUNGEN
100
AcDbLine
 62
7
  6
CONTINUOUS
 10
189.0880923119
 20
123.9998278467
 11
189.0880923119
 21
117.9998278467
  0
LINE
  5
375
100
AcDbEntity
  8
0
100
AcDbLine
 62
7
  6
CONTINUOUS
 10
190.1073301984
 20
124.3346682195
 11
190.1073301984
 21
113.9998278467
  0
LINE
  5
376
100
AcDbEntity
  8
KONSTRUKTIONSELEMENTE
100
AcDbLine
 62
7
  6
CONTINUOUS
 10
183.9943423119
 20
118.4432320754
 11
184.0505924192
 21
118.8262107531
  0
LINE
  5
377
100
AcDbEntity
  8
KONSTRUKTIONSELEMENTE
100
AcDbLine
 62
7
  6
CONTINUOUS
 10
185.4568425265
 20
117.996423618
 11
185.4005920973
 21
117.6134448509
  0
LINE
  5
378
100
AcDbEntity
  8
KONSTRUKTIONSELEMENTE
100
AcDbLine
 62
7
  6
CONTINUOUS
 10
182.2443424311
 20
121.1298278467
 11
182.7443423119
 21
124.1298278467
  0
LINE
  5
379
100
AcDbEntity
  8
KONSTRUKTIONSELEMENTE
100
AcDbLine
 62
7
  6
CONTINUOUS
 10
183.7693422046
 20
118.8262107531
 11
183.7130924192
 21
118.507061855
  0
LINE
  5
37A
100
AcDbEntity
  8
KONSTRUKTIONSELEMENTE
100
AcDbLine
 62
7
  6
CONTINUOUS
 10
183.3693420735
 20
123.6830193893
 11
183.3068423119
 21
123.4277002708
  0
LINE
  5
37B
100
AcDbEntity
  8
0
100
AcDbLine
 62
7
  6
CONTINUOUS
 10
175.9793357559
 20
153.8504390072
 11
175.8115294032
 21
153.8036562345
  0
LINE
  5
37C
100
AcDbEntity
  8
0
100
AcDbLine
 62
7
  6
CONTINUOUS
 10
175.9645537843
 20
153.5957729802
 11
176.1054067952
 21
153.6157688033
  0
LINE
  5
37D
100
AcDbEntity
  8
0
100
AcDbLine
 62
7
  6
CONTINUOUS
 10
176.2071347857
 20
153.8368564473
 11
175.9793357559
 21
153.8504390072
  0
LINE
  5
37E
100
AcDbEntity
  8
0
100
AcDbLine
 62
7
  6
CONTINUOUS
 10
186.6465116373
 20
154.685457777
 11
186.5880923119
 21
154.7087293639
  0
LINE
  5
37F
100
AcDbEntity
  8
0
100
AcDbLine
 62
7
  6
CONTINUOUS
 10
186.5764262386
 20
155.1256235869
 11
186.7882414315
 21
155.0412461032
  0
LINE
  5
380
100
AcDbEntity
  8
0
100
AcDbLine
 62
7
  6
CONTINUOUS
 10
186.8692009746
 20
154.1057710377
 11
187.3240855493
 21
153.8298898262
  0
LINE
  5
381
100
AcDbEntity
  8
0
100
AcDbLine
 62
7
  6
CONTINUOUS
 10
187.4344191469
 20
154.0118125144
 11
186.9795345721
 21
154.2876937258
  0
LINE
  5
382
100
AcDbEntity
  8
0
100
AcDbLine
 62
7
  6
CONTINUOUS
 10
187.6826531102
 20
152.6697998815
 11
187.9133536218
 21
152.4718205308
  0
LINE
  5
383
100
AcDbEntity
  8
0
100
AcDbLine
 62
7
  6
CONTINUOUS
 10
186.7534588784
 20
155.4673490026
 11
186.6437439903
 21
155.6026648382
  0
LINE
  5
384
100
AcDbEntity
  8
0
100
AcDbLine
 62
7
  6
CONTINUOUS
 10
186.8316782567
 20
155.2529690945
 11
186.7534588784
 21
155.4673490026
  0
LINE
  5
385
100
AcDbEntity
  8
0
100
AcDbLine
 62
7
  6
CONTINUOUS
 10
191.8188544255
 20
124.3346682195
 11
191.8188544255
 21
113.9998278467
  0
LINE
  5
386
100
AcDbEntity
  8
KONSTRUKTIONSELEMENTE
100
AcDbLine
 62
7
  6
CONTINUOUS
 10
186.3068423119
 20
122.8532320754
 11
186.3693420735
 21
123.2362107531
  0
LINE
  5
387
100
AcDbEntity
  8
KONSTRUKTIONSELEMENTE
100
AcDbLine
 62
7
  6
CONTINUOUS
 10
187.9318425503
 20
122.406423618
 11
187.8693420735
 21
122.0234448509
  0
LINE
  5
388
100
AcDbEntity
  8
KONSTRUKTIONSELEMENTE
100
AcDbLine
 62
7
  6
CONTINUOUS
 10
185.6818423119
 20
117.6134448509
 11
185.7380920973
 21
117.9325938384
  0
LINE
  5
389
100
AcDbEntity
  8
KONSTRUKTIONSELEMENTE
100
AcDbLine
 62
7
  6
CONTINUOUS
 10
186.0568425503
 20
123.2362107531
 11
185.9943420735
 21
122.917061855
  0
LINE
  5
38A
100
AcDbEntity
  8
KONSTRUKTIONSELEMENTE
100
AcDbLine
 62
7
  6
CONTINUOUS
 10
188.1818423119
 20
122.0234448509
 11
188.2443420735
 21
122.3425938384
  0
LINE
  5
38B
100
AcDbEntity
  8
KONSTRUKTIONSELEMENTE
100
AcDbLine
 62
7
  6
CONTINUOUS
 10
185.3693423119
 20
123.0447214143
 11
185.4318420735
 21
123.3000405328
  0
LINE
  5
38C
100
AcDbEntity
  8
KONSTRUKTIONSELEMENTE
100
AcDbLine
 62
7
  6
CONTINUOUS
 10
183.8255923119
 20
119.0177002708
 11
183.7693422046
 21
118.8262107531
  0
LINE
  5
38D
100
AcDbEntity
  8
KONSTRUKTIONSELEMENTE
100
AcDbLine
 62
7
  6
CONTINUOUS
 10
181.6318423119
 20
119.7198278467
 11
180.7880923119
 21
117.0389767895
  0
LINE
  5
38E
100
AcDbEntity
  8
KONSTRUKTIONSELEMENTE
100
AcDbLine
 62
7
  6
CONTINUOUS
 10
185.4318420735
 20
121.6404661284
 11
185.4943425503
 21
121.831955512
  0
LINE
  5
38F
100
AcDbEntity
  8
KONSTRUKTIONSELEMENTE
100
AcDbLine
 62
7
  6
CONTINUOUS
 10
186.1193423119
 20
123.4277002708
 11
186.0568425503
 21
123.2362107531
  0
LINE
  5
390
100
AcDbEntity
  8
KONSTRUKTIONSELEMENTE
100
AcDbLine
 62
7
  6
CONTINUOUS
 10
181.0130922583
 20
116.7198278467
 11
181.8005923119
 21
119.0815300505
  0
LINE
  5
391
100
AcDbEntity
  8
KONSTRUKTIONSELEMENTE
100
AcDbLine
 62
7
  6
CONTINUOUS
 10
179.1193423715
 20
121.5766363488
 11
179.2443422523
 21
121.831955512
  0
LINE
  5
392
100
AcDbEntity
  8
0
100
AcDbLine
 62
7
  6
CONTINUOUS
 10
186.6437439903
 20
155.6026648382
 11
186.5880923119
 21
155.6406902532
  0
LINE
  5
393
100
AcDbEntity
  8
0
100
AcDbLine
 62
7
  6
CONTINUOUS
 10
189.6772310884
 20
153.5936085522
 11
189.5042060347
 21
153.742092782
  0
LINE
  5
394
100
AcDbEntity
  8
0
100
AcDbLine
 62
7
  6
CONTINUOUS
 10
188.6967562243
 20
154.4350188101
 11
188.5237311706
 21
154.5835030399
  0
LINE
  5
395
100
AcDbEntity
  8
BEZUGSACHSEN
100
AcDbLine
 62
7
  6
CONTINUOUS
 10
195.5880923119
 20
134.4998278467
 11
195.5880923119
 21
137.0447306851
  0
LINE
  5
396
100
AcDbEntity
  8
KONSTRUKTIONSELEMENTE
100
AcDbLine
 62
7
  6
CONTINUOUS
 10
185.6255925265
 20
117.421955512
 11
185.6818423119
 21
117.6134448509
  0
LINE
  5
397
100
AcDbEntity
  8
KONSTRUKTIONSELEMENTE
100
AcDbLine
 62
7
  6
CONTINUOUS
 10
188.1193425503
 20
121.831955512
 11
188.1818423119
 21
122.0234448509
  0
LINE
  5
398
100
AcDbEntity
  8
BEZUGSACHSEN
100
AcDbLine
 62
7
  6
CONTINUOUS
 10
196.612554151
 20
145.3517771693
 11
194.426366377
 21
140.0738529953
  0
LINE
  5
399
100
AcDbEntity
  8
KONSTRUKTIONSELEMENTE
100
AcDbLine
 62
7
  6
CONTINUOUS
 10
183.9380922046
 20
119.2730193893
 11
183.8255923119
 21
119.0177002708
  0
LINE
  5
39A
100
AcDbEntity
  8
KONSTRUKTIONSELEMENTE
100
AcDbLine
 62
7
  6
CONTINUOUS
 10
185.1193425503
 20
123.3000405328
 11
184.9943423119
 21
123.0447214143
  0
LINE
  5
39B
100
AcDbEntity
  8
KONSTRUKTIONSELEMENTE
100
AcDbLine
 62
7
  6
CONTINUOUS
 10
185.1818423119
 20
121.831955512
 11
185.1193425503
 21
121.7042959527
  0
LINE
  5
39C
100
AcDbEntity
  8
KONSTRUKTIONSELEMENTE
100
AcDbLine
 62
7
  6
CONTINUOUS
 10
186.2443425503
 20
123.6830193893
 11
186.1193423119
 21
123.4277002708
  0
LINE
  5
39D
100
AcDbEntity
  8
KONSTRUKTIONSELEMENTE
100
AcDbLine
 62
7
  6
CONTINUOUS
 10
178.8693422523
 20
121.8957852916
 11
178.7443423715
 21
121.7042959527
  0
LINE
  5
39E
100
AcDbEntity
  8
KONSTRUKTIONSELEMENTE
100
AcDbLine
 62
7
  6
CONTINUOUS
 10
183.6193425503
 20
123.4277002708
 11
183.7443420735
 21
123.6191896097
  0
LINE
  5
39F
100
AcDbEntity
  8
KONSTRUKTIONSELEMENTE
100
AcDbLine
 62
7
  6
CONTINUOUS
 10
177.4318423268
 20
123.9383385078
 11
177.1818423194
 21
123.6830193893
  0
LINE
  5
3A0
100
AcDbEntity
  8
RUNDUNGEN
100
AcDbLine
 62
7
  6
CONTINUOUS
 10
186.5880923119
 20
159.3429735972
 11
191.693090342
 21
157.2284141773
  0
LINE
  5
3A1
100
AcDbEntity
  8
BEZUGSACHSEN
100
AcDbLine
 62
7
  6
CONTINUOUS
 10
193.3166786425
 20
155.6048258768
 11
196.6125545358
 21
147.6478775952
  0
LINE
  5
3A2
100
AcDbEntity
  8
BEZUGSACHSEN
100
AcDbLine
 62
7
  6
CONTINUOUS
 10
197.6269169581
 20
134.2043855208
 11
199.3412290773
 21
124.4820383665
  0
LINE
  5
3A3
100
AcDbEntity
  8
FASEN
100
AcDbLine
 62
7
  6
CONTINUOUS
 10
199.3380923119
 20
124.5004596349
 11
199.3380923119
 21
124.3346682195
  0
LINE
  5
3A4
100
AcDbEntity
  8
0
100
AcDbLine
 62
7
  6
CONTINUOUS
 10
199.3380923119
 20
124.3346682195
 11
199.3380923119
 21
113.9998278467
  0
LINE
  5
3A5
100
AcDbEntity
  8
KONSTRUKTIONSELEMENTE
100
AcDbLine
 62
7
  6
CONTINUOUS
 10
185.5130923119
 20
117.1666363488
 11
185.6255925265
 21
117.421955512
  0
LINE
  5
3A6
100
AcDbEntity
  8
KONSTRUKTIONSELEMENTE
100
AcDbLine
 62
7
  6
CONTINUOUS
 10
187.9943423119
 20
121.5766363488
 11
188.1193425503
 21
121.831955512
  0
LINE
  5
3A7
100
AcDbEntity
  8
KONSTRUKTIONSELEMENTE
100
AcDbLine
 62
7
  6
CONTINUOUS
 10
184.0505924192
 20
118.8262107531
 11
184.2755922046
 21
119.2091896097
  0
LINE
  5
3A8
100
AcDbEntity
  8
KONSTRUKTIONSELEMENTE
100
AcDbLine
 62
7
  6
CONTINUOUS
 10
185.4005920973
 20
117.6134448509
 11
185.1755923119
 21
117.2304661284
  0
LINE
  5
3A9
100
AcDbEntity
  8
KONSTRUKTIONSELEMENTE
100
AcDbLine
 62
7
  6
CONTINUOUS
 10
185.2443420735
 20
122.8532320754
 11
185.3693423119
 21
123.0447214143
  0
LINE
  5
3AA
100
AcDbEntity
  8
KONSTRUKTIONSELEMENTE
100
AcDbLine
 62
7
  6
CONTINUOUS
 10
186.3693420735
 20
123.2362107531
 11
186.6193425503
 21
123.6191896097
  0
LINE
  5
3AB
100
AcDbEntity
  8
KONSTRUKTIONSELEMENTE
100
AcDbLine
 62
7
  6
CONTINUOUS
 10
185.3068425503
 20
121.4489767895
 11
185.4318420735
 21
121.6404661284
  0
LINE
  5
3AC
100
AcDbEntity
  8
KONSTRUKTIONSELEMENTE
100
AcDbLine
 62
7
  6
CONTINUOUS
 10
182.9255922046
 20
119.7198278467
 11
182.5880922046
 21
119.2730193893
  0
LINE
  5
3AD
100
AcDbEntity
  8
KONSTRUKTIONSELEMENTE
100
AcDbLine
 62
7
  6
CONTINUOUS
 10
182.5880922046
 20
118.7623809735
 11
182.9255922046
 21
119.2091896097
  0
LINE
  5
3AE
100
AcDbEntity
  8
KONSTRUKTIONSELEMENTE
100
AcDbLine
 62
7
  6
CONTINUOUS
 10
178.8693422523
 20
121.3213172079
 11
179.1193423715
 21
121.5766363488
  0
LINE
  5
3AF
100
AcDbEntity
  8
KONSTRUKTIONSELEMENTE
100
AcDbLine
 62
7
  6
CONTINUOUS
 10
183.6193425503
 20
123.9383385078
 11
183.3693420735
 21
123.6830193893
  0
LINE
  5
3B0
100
AcDbEntity
  8
KONSTRUKTIONSELEMENTE
100
AcDbLine
 62
7
  6
CONTINUOUS
 10
177.556842297
 20
123.5553598301
 11
177.7443423417
 21
123.6830193893
  0
LINE
  5
3B1
100
AcDbEntity
  8
KONSTRUKTIONSELEMENTE
100
AcDbLine
 62
7
  6
CONTINUOUS
 10
187.8693420735
 20
122.0234448509
 11
187.6193423119
 21
121.6404661284
  0
LINE
  5
3B2
100
AcDbEntity
  8
KONSTRUKTIONSELEMENTE
100
AcDbLine
 62
7
  6
CONTINUOUS
 10
184.1068422046
 20
119.4645087282
 11
183.9380922046
 21
119.2730193893
  0
LINE
  5
3B3
100
AcDbEntity
  8
KONSTRUKTIONSELEMENTE
100
AcDbLine
 62
7
  6
CONTINUOUS
 10
184.9943423119
 20
123.0447214143
 11
184.8693420735
 21
122.917061855
  0
LINE
  5
3B4
100
AcDbEntity
  8
KONSTRUKTIONSELEMENTE
100
AcDbLine
 62
7
  6
CONTINUOUS
 10
186.4318425503
 20
123.8745087282
 11
186.2443425503
 21
123.6830193893
  0
LINE
  5
3B5
100
AcDbEntity
  8
KONSTRUKTIONSELEMENTE
100
AcDbLine
 62
7
  6
CONTINUOUS
 10
185.1193425503
 20
121.7042959527
 11
184.9943423119
 21
121.5766363488
  0
LINE
  5
3B6
100
AcDbEntity
  8
KONSTRUKTIONSELEMENTE
100
AcDbLine
 62
7
  6
CONTINUOUS
 10
184.9943423119
 20
122.6617427365
 11
185.2443420735
 21
122.8532320754
  0
LINE
  5
3B7
100
AcDbEntity
  8
KONSTRUKTIONSELEMENTE
100
AcDbLine
 62
7
  6
CONTINUOUS
 10
178.7443423715
 20
121.7042959527
 11
178.5568423715
 21
121.5766363488
  0
LINE
  5
3B8
100
AcDbEntity
  8
KONSTRUKTIONSELEMENTE
100
AcDbLine
 62
7
  6
CONTINUOUS
 10
183.7443420735
 20
123.6191896097
 11
183.9318420735
 21
123.746849169
  0
LINE
  5
3B9
100
AcDbEntity
  8
KONSTRUKTIONSELEMENTE
100
AcDbLine
 62
7
  6
CONTINUOUS
 10
177.6818423119
 20
124.0659980671
 11
177.4318423268
 21
123.9383385078
  0
LINE
  5
3BA
100
AcDbEntity
  8
KONSTRUKTIONSELEMENTE
100
AcDbLine
 62
7
  6
CONTINUOUS
 10
177.7443423417
 20
123.6830193893
 11
177.9318423417
 21
123.746849169
  0
LINE
  5
3BB
100
AcDbEntity
  8
KONSTRUKTIONSELEMENTE
100
AcDbLine
 62
7
  6
CONTINUOUS
 10
185.3443423119
 20
116.9751469876
 11
185.5130923119
 21
117.1666363488
  0
LINE
  5
3BC
100
AcDbEntity
  8
KONSTRUKTIONSELEMENTE
100
AcDbLine
 62
7
  6
CONTINUOUS
 10
187.8068423119
 20
121.3851469876
 11
187.9943423119
 21
121.5766363488
  0
LINE
  5
3BD
100
AcDbEntity
  8
KONSTRUKTIONSELEMENTE
100
AcDbLine
 62
7
  6
CONTINUOUS
 10
184.2755922046
 20
119.2091896097
 11
184.4443422046
 21
119.336849169
  0
LINE
  5
3BE
100
AcDbEntity
  8
KONSTRUKTIONSELEMENTE
100
AcDbLine
 62
7
  6
CONTINUOUS
 10
186.6193425503
 20
123.6191896097
 11
186.8068425503
 21
123.746849169
  0
LINE
  5
3BF
100
AcDbEntity
  8
KONSTRUKTIONSELEMENTE
100
AcDbLine
 62
7
  6
CONTINUOUS
 10
185.1193425503
 20
121.3213172079
 11
185.3068425503
 21
121.4489767895
  0
LINE
  5
3C0
100
AcDbEntity
  8
KONSTRUKTIONSELEMENTE
100
AcDbLine
 62
7
  6
CONTINUOUS
 10
184.3880924192
 20
119.6559980671
 11
184.1068422046
 21
119.4645087282
  0
LINE
  5
3C1
100
AcDbEntity
  8
KONSTRUKTIONSELEMENTE
100
AcDbLine
 62
7
  6
CONTINUOUS
 10
187.6193423119
 20
121.6404661284
 11
187.4318423119
 21
121.5128065692
  0
LINE
  5
3C2
100
AcDbEntity
  8
KONSTRUKTIONSELEMENTE
100
AcDbLine
 62
7
  6
CONTINUOUS
 10
186.7443420735
 20
124.0659980671
 11
186.4318425503
 21
123.8745087282
  0
LINE
  5
3C3
100
AcDbEntity
  8
KONSTRUKTIONSELEMENTE
100
AcDbLine
 62
7
  6
CONTINUOUS
 10
183.8693423119
 20
124.0659980671
 11
183.6193425503
 21
123.9383385078
  0
LINE
  5
3C4
100
AcDbEntity
  8
KONSTRUKTIONSELEMENTE
100
AcDbLine
 62
7
  6
CONTINUOUS
 10
178.6193423119
 20
121.1936576319
 11
178.8693422523
 21
121.3213172079
  0
LINE
  5
3C5
100
AcDbEntity
  8
KONSTRUKTIONSELEMENTE
100
AcDbLine
 62
7
  6
CONTINUOUS
 10
184.9943423119
 20
121.5766363488
 11
184.8693420735
 21
121.5128065692
  0
LINE
  5
3C6
100
AcDbEntity
  8
KONSTRUKTIONSELEMENTE
100
AcDbLine
 62
7
  6
CONTINUOUS
 10
184.8693420735
 20
121.1936576319
 11
185.1193425503
 21
121.3213172079
  0
LINE
  5
3C7
100
AcDbEntity
  8
KONSTRUKTIONSELEMENTE
100
AcDbLine
 62
7
  6
CONTINUOUS
 10
184.8693420735
 20
122.917061855
 11
184.4943420735
 21
122.7894022958
  0
LINE
  5
3C8
100
AcDbEntity
  8
KONSTRUKTIONSELEMENTE
100
AcDbLine
 62
7
  6
CONTINUOUS
 10
185.1755923119
 20
117.2304661284
 11
185.0068423119
 21
117.1028065692
  0
LINE
  5
3C9
100
AcDbEntity
  8
KONSTRUKTIONSELEMENTE
100
AcDbLine
 62
7
  6
CONTINUOUS
 10
185.0630920973
 20
116.7836576319
 11
185.3443423119
 21
116.9751469876
  0
LINE
  5
3CA
100
AcDbEntity
  8
KONSTRUKTIONSELEMENTE
100
AcDbLine
 62
7
  6
CONTINUOUS
 10
187.4943420735
 20
121.1936576319
 11
187.8068423119
 21
121.3851469876
  0
LINE
  5
3CB
100
AcDbEntity
  8
0
100
AcDbLine
 62
7
  6
CONTINUOUS
 10
187.5880923119
 20
97.9998278467
 11
186.5880923119
 21
96.9998278467
  0
LINE
  5
3CC
100
AcDbEntity
  8
BEZUGSACHSEN
100
AcDbLine
 62
7
  6
CONTINUOUS
 10
82.2700597052
 20
53.60219468
 11
83.2582086784
 21
55.313718907
  0
LINE
  5
3CD
100
AcDbEntity
  8
FASEN
100
AcDbLine
 62
7
  6
CONTINUOUS
 10
98.2582086784
 20
29.3329567935
 11
96.2819107319
 21
29.3329567935
  0
LINE
  5
3CE
100
AcDbEntity
  8
BEZUGSACHSEN
100
AcDbLine
 62
7
  6
CONTINUOUS
 10
83.2582086784
 20
36.85219468
 11
82.2700597052
 21
38.563718907
  0
LINE
  5
3CF
100
AcDbEntity
  8
RUNDUNGEN
100
AcDbLine
 62
7
  6
CONTINUOUS
 10
82.2700597052
 20
38.563718907
 11
82.2700597052
 21
41.8936118365
  0
LINE
  5
3D0
100
AcDbEntity
  8
RUNDUNGEN
100
AcDbLine
 62
7
  6
CONTINUOUS
 10
82.2700597052
 20
50.2723017505
 11
82.2700597052
 21
53.60219468
  0
LINE
  5
3D1
100
AcDbEntity
  8
FASEN
100
AcDbLine
 62
7
  6
CONTINUOUS
 10
83.2582086784
 20
55.313718907
 11
96.2819107319
 21
62.8329567935
  0
LINE
  5
3D2
100
AcDbEntity
  8
FASEN
100
AcDbLine
 62
7
  6
CONTINUOUS
 10
96.2819107319
 20
29.3329567935
 11
83.2582086784
 21
36.85219468
  0
LINE
  5
3D3
100
AcDbEntity
  8
BEZUGSACHSEN
100
AcDbLine
 62
7
  6
CONTINUOUS
 10
93.5707913238
 20
58.5434086427
 11
93.2852967004
 21
58.4499347205
  0
LINE
  5
3D4
100
AcDbEntity
  8
BEZUGSACHSEN
100
AcDbLine
 62
7
  6
CONTINUOUS
 10
93.2824367132
 20
58.4562693198
 11
93.5580892225
 21
58.5417398455
  0
LWPOLYLINE
  5
3D5
100
AcDbEntity
  8
RUNDUNGEN
100
AcDbPolyline
 62
7
  6
CONTINUOUS
 90
7
 70
0
 10
98.6403902899
 20
31.8301961976
 10
98.8417604538
 20
31.8434014777
 10
99.1871556621
 20
31.9304845578
 10
99.4891783692
 20
32.0844614902
 10
99.7340350639
 20
32.2818963545
 10
99.9260312367
 20
32.506616611
 10
100.0788440299
 20
32.7585853676
  0
LINE
  5
3D6
100
AcDbEntity
  8
BEZUGSACHSEN
100
AcDbLine
 62
7
  6
CONTINUOUS
 10
95.8996688683
 20
31.8301362839
 11
95.899358958
 21
31.8301333972
  0
LINE
  5
3D7
100
AcDbEntity
  8
BEZUGSACHSEN
100
AcDbLine
 62
7
  6
CONTINUOUS
 10
98.6425656602
 20
31.8301333944
 11
95.8975537502
 21
31.8301333944
  0
LINE
  5
3D8
100
AcDbEntity
  8
RUNDUNGEN
100
AcDbLine
 62
7
  6
CONTINUOUS
 10
98.6404206316
 20
31.83013685
 11
98.6407604524
 21
31.8301333972
  0
LINE
  5
3D9
100
AcDbEntity
  8
BEZUGSACHSEN
100
AcDbLine
 62
7
  6
CONTINUOUS
 10
93.2821967697
 20
33.7097215978
 11
93.5580892225
 21
33.6241737415
  0
LINE
  5
3DA
100
AcDbEntity
  8
BEZUGSACHSEN
100
AcDbLine
 62
7
  6
CONTINUOUS
 10
93.2850272837
 20
33.7160664315
 11
93.5708653824
 21
33.6224901603
  0
LINE
  5
3DB
100
AcDbEntity
  8
BEZUGSACHSEN
100
AcDbLine
 62
7
  6
CONTINUOUS
 10
94.2601584226
 20
59.1194288152
 11
92.4417473733
 21
57.0499999456
  0
LINE
  5
3DC
100
AcDbEntity
  8
BEZUGSACHSEN
100
AcDbLine
 62
7
  6
CONTINUOUS
 10
92.4420336667
 20
35.1155878852
 11
94.2600368249
 21
33.0466231328
  0
LWPOLYLINE
  5
3DD
100
AcDbEntity
  8
BEZUGSACHSEN
100
AcDbPolyline
 62
7
  6
CONTINUOUS
 90
6
 70
0
 10
94.2601591715
 20
33.0464824677
 10
94.2841381258
 20
33.018673958
 10
94.3413871926
 20
32.9474013875
 10
94.3892485387
 20
32.8807057061
 10
94.4289414488
 20
32.8178682804
 10
94.4576320018
 20
32.7655709833
  0
LWPOLYLINE
  5
3DE
100
AcDbEntity
  8
BEZUGSACHSEN
100
AcDbPolyline
 62
7
  6
CONTINUOUS
 90
7
 70
0
 10
94.4605547634
 20
32.75998519
 10
94.6126452596
 20
32.5086318882
 10
94.808586437
 20
32.2794456263
 10
95.0606309909
 20
32.0781656964
 10
95.3710661954
 20
31.9237485615
 10
95.724888464
 20
31.8401352997
 10
95.8996989662
 20
31.8301956165
  0
LINE
  5
3DF
100
AcDbEntity
  8
BEZUGSACHSEN
100
AcDbLine
 62
7
  6
CONTINUOUS
 10
94.4576297487
 20
59.4003381627
 11
94.4612189459
 21
59.4073570166
  0
LWPOLYLINE
  5
3E0
100
AcDbEntity
  8
BEZUGSACHSEN
100
AcDbPolyline
 62
7
  6
CONTINUOUS
 90
6
 70
0
 10
94.4576297487
 20
59.4003381627
 10
94.4288982058
 20
59.3479717234
 10
94.3892200541
 20
59.2851656481
 10
94.3413884023
 20
59.2185137915
 10
94.2841478638
 20
59.1472511412
 10
94.2601577
 20
59.1194294452
  0
LINE
  5
3E1
100
AcDbEntity
  8
BEZUGSACHSEN
100
AcDbLine
 62
7
  6
CONTINUOUS
 10
94.4576320018
 20
32.7655709833
 11
94.4604985135
 21
32.75995657
  0
LINE
  5
3E2
100
AcDbEntity
  8
0
100
AcDbLine
 62
7
  6
CONTINUOUS
 10
94.5200597052
 20
38.9938180171
 11
94.0200597052
 21
38.9938180171
  0
LINE
  5
3E3
100
AcDbEntity
  8
0
100
AcDbLine
 62
7
  6
CONTINUOUS
 10
94.5200597052
 20
39.1668430707
 11
94.0200597052
 21
39.1668430707
  0
LINE
  5
3E4
100
AcDbEntity
  8
0
100
AcDbLine
 62
7
  6
CONTINUOUS
 10
94.5200597052
 20
39.9742928811
 11
94.0200597052
 21
39.9742928811
  0
LINE
  5
3E5
100
AcDbEntity
  8
0
100
AcDbLine
 62
7
  6
CONTINUOUS
 10
94.5200597052
 20
40.1473179348
 11
94.0200597052
 21
40.1473179348
  0
LINE
  5
3E6
100
AcDbEntity
  8
0
100
AcDbLine
 62
7
  6
CONTINUOUS
 10
94.5200597052
 20
40.9883959952
 11
94.0200597052
 21
40.9883959952
  0
LINE
  5
3E7
100
AcDbEntity
  8
0
100
AcDbLine
 62
7
  6
CONTINUOUS
 10
94.5200597052
 20
41.2366299585
 11
94.0200597052
 21
41.2366299585
  0
LINE
  5
3E8
100
AcDbEntity
  8
0
100
AcDbLine
 62
7
  6
CONTINUOUS
 10
94.5200597052
 20
41.6915145333
 11
94.0200597052
 21
41.6915145333
  0
LINE
  5
3E9
100
AcDbEntity
  8
0
100
AcDbLine
 62
7
  6
CONTINUOUS
 10
94.5200597052
 20
41.8018481309
 11
94.0200597052
 21
41.8018481309
  0
LINE
  5
3EA
100
AcDbEntity
  8
0
100
AcDbLine
 62
7
  6
CONTINUOUS
 10
94.5200597052
 20
41.8393708487
 11
94.0200597052
 21
41.8393708487
  0
LINE
  5
3EB
100
AcDbEntity
  8
0
100
AcDbLine
 62
7
  6
CONTINUOUS
 10
94.5200597052
 20
41.917590227
 11
94.0200597052
 21
41.917590227
  0
LINE
  5
3EC
100
AcDbEntity
  8
0
100
AcDbLine
 62
7
  6
CONTINUOUS
 10
94.5200597052
 20
42.0273051151
 11
94.0200597052
 21
42.0273051151
  0
LINE
  5
3ED
100
AcDbEntity
  8
0
100
AcDbLine
 62
7
  6
CONTINUOUS
 10
115.7700597052
 20
42.0829567935
 11
78.7700597052
 21
42.0829567935
  0
LINE
  5
3EE
100
AcDbEntity
  8
0
100
AcDbLine
 62
7
  6
CONTINUOUS
 10
94.0200597052
 20
38.9938180171
 11
94.0200597052
 21
40.9883959952
  0
LINE
  5
3EF
100
AcDbEntity
  8
0
100
AcDbLine
 62
7
  6
CONTINUOUS
 10
94.0200597052
 20
41.2366299585
 11
94.0200597052
 21
41.8018481309
  0
LINE
  5
3F0
100
AcDbEntity
  8
0
100
AcDbLine
 62
7
  6
CONTINUOUS
 10
94.0200597052
 20
41.8393708487
 11
94.0200597052
 21
42.0946228668
  0
LINE
  5
3F1
100
AcDbEntity
  8
0
100
AcDbLine
 62
7
  6
CONTINUOUS
 10
94.0200597052
 20
51.4740350001
 11
94.0200597052
 21
55.7069089593
  0
LINE
  5
3F2
100
AcDbEntity
  8
RUNDUNGEN
100
AcDbLine
 62
7
  6
CONTINUOUS
 10
94.5200597052
 20
42.0829567935
 11
94.5200597052
 21
37.5519839119
  0
LINE
  5
3F3
100
AcDbEntity
  8
BEZUGSACHSEN
100
AcDbLine
 62
7
  6
CONTINUOUS
 10
94.5200597052
 20
37.5519839119
 11
94.5200597052
 21
33.8638734605
  0
LINE
  5
3F4
100
AcDbEntity
  8
RUNDUNGEN
100
AcDbLine
 62
7
  6
CONTINUOUS
 10
94.5200597052
 20
50.0829567935
 11
94.5200597052
 21
54.6139296751
  0
LINE
  5
3F5
100
AcDbEntity
  8
BEZUGSACHSEN
100
AcDbLine
 62
7
  6
CONTINUOUS
 10
94.5200597052
 20
54.6139296751
 11
94.5200597052
 21
58.3020401265
  0
LINE
  5
3F6
100
AcDbEntity
  8
RUNDUNGEN
100
AcDbLine
 62
7
  6
CONTINUOUS
 10
100.0200597052
 20
42.0829567935
 11
100.0200597052
 21
33.8638734605
  0
LINE
  5
3F7
100
AcDbEntity
  8
RUNDUNGEN
100
AcDbLine
 62
7
  6
CONTINUOUS
 10
100.0200597052
 20
50.0829567935
 11
100.0200597052
 21
54.6139296751
  0
LINE
  5
3F8
100
AcDbEntity
  8
BEZUGSACHSEN
100
AcDbLine
 62
7
  6
CONTINUOUS
 10
100.0200597052
 20
54.6139296751
 11
100.0200597052
 21
58.3020401265
  0
LINE
  5
3F9
100
AcDbEntity
  8
0
100
AcDbLine
 62
7
  6
CONTINUOUS
 10
115.7700597052
 20
50.0829567935
 11
78.7700597052
 21
50.0829567935
  0
LINE
  5
3FA
100
AcDbEntity
  8
0
100
AcDbLine
 62
7
  6
CONTINUOUS
 10
94.5200597052
 20
51.4618633109
 11
94.0200597052
 21
51.4618633109
  0
LINE
  5
3FB
100
AcDbEntity
  8
0
100
AcDbLine
 62
7
  6
CONTINUOUS
 10
94.5200597052
 20
51.4740350001
 11
94.0200597052
 21
51.4740350001
  0
LINE
  5
3FC
100
AcDbEntity
  8
0
100
AcDbLine
 62
7
  6
CONTINUOUS
 10
94.5200597052
 20
51.5401133833
 11
94.0200597052
 21
51.5401133833
  0
LINE
  5
3FD
100
AcDbEntity
  8
0
100
AcDbLine
 62
7
  6
CONTINUOUS
 10
94.5200597052
 20
51.6631417344
 11
94.0200597052
 21
51.6631417344
  0
LINE
  5
3FE
100
AcDbEntity
  8
0
100
AcDbLine
 62
7
  6
CONTINUOUS
 10
94.5200597052
 20
52.1130868549
 11
94.0200597052
 21
52.1130868549
  0
LINE
  5
3FF
100
AcDbEntity
  8
0
100
AcDbLine
 62
7
  6
CONTINUOUS
 10
94.5200597052
 20
52.2900219735
 11
94.0200597052
 21
52.2900219735
  0
LINE
  5
400
100
AcDbEntity
  8
0
100
AcDbLine
 62
7
  6
CONTINUOUS
 10
94.5200597052
 20
52.4639143198
 11
94.0200597052
 21
52.4639143198
  0
LINE
  5
401
100
AcDbEntity
  8
0
100
AcDbLine
 62
7
  6
CONTINUOUS
 10
94.5200597052
 20
52.6917133496
 11
94.0200597052
 21
52.6917133496
  0
LINE
  5
402
100
AcDbEntity
  8
0
100
AcDbLine
 62
7
  6
CONTINUOUS
 10
94.5200597052
 20
52.8595197022
 11
94.0200597052
 21
52.8595197022
  0
LINE
  5
403
100
AcDbEntity
  8
0
100
AcDbLine
 62
7
  6
CONTINUOUS
 10
94.5200597052
 20
53.0242833666
 11
94.0200597052
 21
53.0242833666
  0
LINE
  5
404
100
AcDbEntity
  8
0
100
AcDbLine
 62
7
  6
CONTINUOUS
 10
94.5200597052
 20
53.6711660368
 11
94.0200597052
 21
53.6711660368
  0
LINE
  5
405
100
AcDbEntity
  8
RUNDUNGEN
100
AcDbLine
 62
7
  6
CONTINUOUS
 10
100.0824896616
 20
32.7655754243
 11
100.0789004645
 21
32.7585565704
  0
LWPOLYLINE
  5
406
100
AcDbEntity
  8
RUNDUNGEN
100
AcDbPolyline
 62
7
  6
CONTINUOUS
 90
6
 70
0
 10
100.0824896616
 20
32.7655754243
 10
100.1112212045
 20
32.8179418636
 10
100.1508993563
 20
32.8807479389
 10
100.1987310081
 20
32.9473997955
 10
100.2559715466
 20
33.0186624458
 10
100.2799617103
 20
33.0464841418
  0
LINE
  5
407
100
AcDbEntity
  8
0
100
AcDbLine
 62
7
  6
CONTINUOUS
 10
94.5200597052
 20
54.1329028187
 11
94.0200597052
 21
54.1329028187
  0
LINE
  5
408
100
AcDbEntity
  8
0
100
AcDbLine
 62
7
  6
CONTINUOUS
 10
94.5200597052
 20
54.2559388128
 11
94.0200597052
 21
54.2559388128
  0
LINE
  5
409
100
AcDbEntity
  8
0
100
AcDbLine
 62
7
  6
CONTINUOUS
 10
94.5200597052
 20
54.7480827893
 11
94.0200597052
 21
54.7480827893
  0
LINE
  5
40A
100
AcDbEntity
  8
0
100
AcDbLine
 62
7
  6
CONTINUOUS
 10
94.5200597052
 20
54.871118842
 11
94.0200597052
 21
54.871118842
  0
LINE
  5
40B
100
AcDbEntity
  8
0
100
AcDbLine
 62
7
  6
CONTINUOUS
 10
94.5200597052
 20
54.9107585621
 11
94.0200597052
 21
54.9107585621
  0
LINE
  5
40C
100
AcDbEntity
  8
0
100
AcDbLine
 62
7
  6
CONTINUOUS
 10
94.5200597052
 20
55.1100427129
 11
94.0200597052
 21
55.1100427129
  0
LINE
  5
40D
100
AcDbEntity
  8
0
100
AcDbLine
 62
7
  6
CONTINUOUS
 10
94.5200597052
 20
55.2826981023
 11
94.0200597052
 21
55.2826981023
  0
LINE
  5
40E
100
AcDbEntity
  8
0
100
AcDbLine
 62
7
  6
CONTINUOUS
 10
94.5200597052
 20
55.3888432829
 11
94.0200597052
 21
55.3888432829
  0
LWPOLYLINE
  5
40F
100
AcDbEntity
  8
BEZUGSACHSEN
100
AcDbPolyline
 62
7
  6
CONTINUOUS
 90
7
 70
0
 10
100.079564647
 20
59.4059283971
 10
99.9274741508
 20
59.6572816988
 10
99.7315329733
 20
59.8864679607
 10
99.4794884194
 20
60.0877478906
 10
99.1690532149
 20
60.2421650255
 10
98.8152309464
 20
60.3257782874
 10
98.6404204441
 20
60.3357179705
  0
LINE
  5
410
100
AcDbEntity
  8
BEZUGSACHSEN
100
AcDbLine
 62
7
  6
CONTINUOUS
 10
100.0824874085
 20
59.4003426037
 11
100.0796208968
 21
59.405957017
  0
LINE
  5
411
100
AcDbEntity
  8
RUNDUNGEN
100
AcDbLine
 62
7
  6
CONTINUOUS
 10
100.2800825854
 20
33.0466231328
 11
102.098372037
 21
35.1159136414
  0
LINE
  5
412
100
AcDbEntity
  8
0
100
AcDbLine
 62
7
  6
CONTINUOUS
 10
94.5200597052
 20
55.7069089593
 11
94.0200597052
 21
55.7069089593
  0
LINE
  5
413
100
AcDbEntity
  8
BEZUGSACHSEN
100
AcDbLine
 62
7
  6
CONTINUOUS
 10
102.0980857437
 20
57.0503257018
 11
100.2800825854
 21
59.1192904542
  0
LWPOLYLINE
  5
414
100
AcDbEntity
  8
BEZUGSACHSEN
100
AcDbPolyline
 62
7
  6
CONTINUOUS
 90
6
 70
0
 10
100.2799602388
 20
59.1194311194
 10
100.2559812846
 20
59.147239629
 10
100.1987322177
 20
59.2185121995
 10
100.1508708716
 20
59.2852078809
 10
100.1111779615
 20
59.3480453066
 10
100.0824874085
 20
59.4003426037
  0
LINE
  5
415
100
AcDbEntity
  8
RUNDUNGEN
100
AcDbLine
 62
7
  6
CONTINUOUS
 10
100.9693280865
 20
33.6225049443
 11
101.25482271
 21
33.7159788665
  0
LINE
  5
416
100
AcDbEntity
  8
RUNDUNGEN
100
AcDbLine
 62
7
  6
CONTINUOUS
 10
101.2576826971
 20
33.7096442672
 11
100.9820301878
 21
33.6241737415
  0
LINE
  5
417
100
AcDbEntity
  8
BEZUGSACHSEN
100
AcDbLine
 62
7
  6
CONTINUOUS
 10
101.2579226406
 20
58.4561919892
 11
100.9820301878
 21
58.5417398455
  0
LINE
  5
418
100
AcDbEntity
  8
BEZUGSACHSEN
100
AcDbLine
 62
7
  6
CONTINUOUS
 10
101.2550921266
 20
58.4498471555
 11
100.9692540279
 21
58.5434234268
  0
LINE
  5
419
100
AcDbEntity
  8
0
100
AcDbLine
 62
7
  6
CONTINUOUS
 10
112.2700597052
 20
53.60219468
 11
112.2700597052
 21
50.0829567935
  0
LINE
  5
41A
100
AcDbEntity
  8
0
100
AcDbLine
 62
7
  6
CONTINUOUS
 10
112.2700597052
 20
42.0829567935
 11
112.2700597052
 21
38.563718907
  0
LINE
  5
41B
100
AcDbEntity
  8
FASEN
100
AcDbLine
 62
7
  6
CONTINUOUS
 10
111.2819107319
 20
36.85219468
 11
98.2582086784
 21
29.3329567935
  0
LWPOLYLINE
  5
41C
100
AcDbEntity
  8
BEZUGSACHSEN
100
AcDbPolyline
 62
7
  6
CONTINUOUS
 90
7
 70
0
 10
95.8997291204
 20
60.3357173894
 10
95.6983589565
 20
60.3225121093
 10
95.3529637483
 20
60.2354290292
 10
95.0509410412
 20
60.0814520968
 10
94.8060843465
 20
59.8840172325
 10
94.6140881737
 20
59.659296976
 10
94.4612753804
 20
59.4073282194
  0
LINE
  5
41D
100
AcDbEntity
  8
BEZUGSACHSEN
100
AcDbLine
 62
7
  6
CONTINUOUS
 10
98.6404505421
 20
60.3357773031
 11
98.6407604524
 21
60.3357801898
  0
LINE
  5
41E
100
AcDbEntity
  8
BEZUGSACHSEN
100
AcDbLine
 62
7
  6
CONTINUOUS
 10
95.8975537502
 20
60.3357801926
 11
98.6425656602
 21
60.3357801926
  0
LINE
  5
41F
100
AcDbEntity
  8
BEZUGSACHSEN
100
AcDbLine
 62
7
  6
CONTINUOUS
 10
95.8996987788
 20
60.335776737
 11
95.899358958
 21
60.3357801898
  0
LINE
  5
420
100
AcDbEntity
  8
FASEN
100
AcDbLine
 62
7
  6
CONTINUOUS
 10
98.2582086784
 20
62.8329567935
 11
111.2819107319
 21
55.313718907
  0
LINE
  5
421
100
AcDbEntity
  8
BEZUGSACHSEN
100
AcDbLine
 62
7
  6
CONTINUOUS
 10
112.2700597052
 20
38.563718907
 11
111.2819107319
 21
36.85219468
  0
LINE
  5
422
100
AcDbEntity
  8
FASEN
100
AcDbLine
 62
7
  6
CONTINUOUS
 10
96.2819107319
 20
62.8329567935
 11
98.2582086784
 21
62.8329567935
  0
LINE
  5
423
100
AcDbEntity
  8
BEZUGSACHSEN
100
AcDbLine
 62
7
  6
CONTINUOUS
 10
111.2819107319
 20
55.313718907
 11
112.2700597052
 21
53.60219468
  0
ARC
  5
424
100
AcDbEntity
  8
FASEN
100
AcDbCircle
 62
7
  6
CONTINUOUS
 10
89.7700597052
 20
120.7460667578
 40
13.4907756998
100
AcDbArc
 50
86.0247902996
 51
93.9752097004
  0
ARC
  5
425
100
AcDbEntity
  8
BEZUGSACHSEN
100
AcDbCircle
 62
7
  6
CONTINUOUS
 10
85.5200597052
 20
148.0867706731
 40
9.0
100
AcDbArc
 50
340.0000347693
 51
359.999925077
  0
ARC
  5
426
100
AcDbEntity
  8
BEZUGSACHSEN
100
AcDbCircle
 62
7
  6
CONTINUOUS
 10
85.7700597052
 20
136.4998278467
 40
1.5
100
AcDbArc
 50
90.0
 51
180.0
  0
ARC
  5
427
100
AcDbEntity
  8
BEZUGSACHSEN
100
AcDbCircle
 62
7
  6
CONTINUOUS
 10
90.3760030307
 20
139.4998278467
 40
1.499999237
100
AcDbArc
 50
270.0
 51
339.9999787827
  0
ARC
  5
428
100
AcDbEntity
  8
RUNDUNGEN
100
AcDbCircle
 62
7
  6
CONTINUOUS
 10
80.7700597052
 20
133.6998278467
 40
0.5
100
AcDbArc
 50
90.0
 51
180.0
  0
ARC
  5
429
100
AcDbEntity
  8
RUNDUNGEN
100
AcDbCircle
 62
7
  6
CONTINUOUS
 10
80.7700597052
 20
126.4998278467
 40
0.5
100
AcDbArc
 50
180.0
 51
270.0
  0
ARC
  5
42A
100
AcDbEntity
  8
RUNDUNGEN
100
AcDbCircle
 62
7
  6
CONTINUOUS
 10
82.0626264865
 20
134.3998106645
 40
0.1999991823
100
AcDbArc
 50
269.9994844846
 51
0.0001186712
  0
ARC
  5
42B
100
AcDbEntity
  8
RUNDUNGEN
100
AcDbCircle
 62
7
  6
CONTINUOUS
 10
96.0200597052
 20
159.2526512458
 40
1.5
100
AcDbArc
 50
90.0
 51
180.0
  0
ARC
  5
42C
100
AcDbEntity
  8
FASEN
100
AcDbCircle
 62
7
  6
CONTINUOUS
 10
104.7700597052
 20
120.7460667578
 40
13.4907756998
100
AcDbArc
 50
86.0247902996
 51
93.9752097004
  0
ARC
  5
42D
100
AcDbEntity
  8
RUNDUNGEN
100
AcDbCircle
 62
7
  6
CONTINUOUS
 10
109.0200597052
 20
148.0867706731
 40
9.0
100
AcDbArc
 50
180.000074923
 51
199.9999652307
  0
ARC
  5
42E
100
AcDbEntity
  8
BEZUGSACHSEN
100
AcDbCircle
 62
7
  6
CONTINUOUS
 10
108.7700597052
 20
136.4998278467
 40
1.5
100
AcDbArc
 50
0.0
 51
90.0
  0
ARC
  5
42F
100
AcDbEntity
  8
RUNDUNGEN
100
AcDbCircle
 62
7
  6
CONTINUOUS
 10
104.1641163797
 20
139.4998278467
 40
1.499999237
100
AcDbArc
 50
200.0000212173
 51
270.0
  0
ARC
  5
430
100
AcDbEntity
  8
BEZUGSACHSEN
100
AcDbCircle
 62
7
  6
CONTINUOUS
 10
104.1641163797
 20
139.4998278467
 40
1.499999237
100
AcDbArc
 50
200.0000212173
 51
270.0
  0
ARC
  5
431
100
AcDbEntity
  8
BEZUGSACHSEN
100
AcDbCircle
 62
7
  6
CONTINUOUS
 10
111.5682617281
 20
123.2840554817
 40
1.2634506423
100
AcDbArc
 50
56.2575039156
 51
56.610372921
  0
ARC
  5
432
100
AcDbEntity
  8
0
100
AcDbCircle
 62
7
  6
CONTINUOUS
 10
97.2700597052
 20
177.4998278467
 40
22.5
100
AcDbArc
 50
0.0
 51
180.0
  0
ARC
  5
433
100
AcDbEntity
  8
0
100
AcDbCircle
 62
7
  6
CONTINUOUS
 10
97.2700597052
 20
166.4998278467
 40
22.5
100
AcDbArc
 50
180.0
 51
260.9095477418
  0
ARC
  5
434
100
AcDbEntity
  8
0
100
AcDbCircle
 62
7
  6
CONTINUOUS
 10
97.2700597052
 20
166.4998278467
 40
22.5
100
AcDbArc
 50
279.0904522582
 51
360.0
  0
ARC
  5
435
100
AcDbEntity
  8
0
100
AcDbCircle
 62
7
  6
CONTINUOUS
 10
97.2700597052
 20
166.4998278467
 40
14.5
100
AcDbArc
 50
180.0
 51
259.0588048513
  0
ARC
  5
436
100
AcDbEntity
  8
0
100
AcDbCircle
 62
7
  6
CONTINUOUS
 10
97.2700597052
 20
166.4998278467
 40
14.5
100
AcDbArc
 50
280.9411951487
 51
360.0
  0
ARC
  5
437
100
AcDbEntity
  8
0
100
AcDbCircle
 62
7
  6
CONTINUOUS
 10
97.2700597052
 20
177.4998278467
 40
14.5
100
AcDbArc
 50
0.0
 51
180.0
  0
ARC
  5
438
100
AcDbEntity
  8
RUNDUNGEN
100
AcDbCircle
 62
7
  6
CONTINUOUS
 10
98.5200597052
 20
159.2526512458
 40
1.5
100
AcDbArc
 50
0.0
 51
90.0
  0
ARC
  5
439
100
AcDbEntity
  8
FASEN
100
AcDbCircle
 62
7
  6
CONTINUOUS
 10
169.5977112552
 20
129.7401486579
 40
4.4967735604
100
AcDbArc
 50
83.1033836541
 51
96.8966163459
  0
ARC
  5
43A
100
AcDbEntity
  8
BEZUGSACHSEN
100
AcDbCircle
 62
7
  6
CONTINUOUS
 10
171.3352689128
 20
146.4998278467
 40
3.0
100
AcDbArc
 50
157.5000113406
 51
202.5000078624
  0
ARC
  5
43B
100
AcDbEntity
  8
BEZUGSACHSEN
100
AcDbCircle
 62
7
  6
CONTINUOUS
 10
174.6311445789
 20
154.4567755797
 40
3.0
100
AcDbArc
 50
112.5
 51
157.5
  0
ARC
  5
43C
100
AcDbEntity
  8
RUNDUNGEN
100
AcDbCircle
 62
7
  6
CONTINUOUS
 10
181.4535568872
 20
131.9747178066
 40
2.2296680986
100
AcDbArc
 50
88.8725617111
 51
90.033643056
  0
ARC
  5
43D
100
AcDbEntity
  8
RUNDUNGEN
100
AcDbCircle
 62
7
  6
CONTINUOUS
 10
178.0880923119
 20
123.9998278467
 40
2.0
100
AcDbArc
 50
89.9999997937
 51
180.0000001204
  0
ARC
  5
43E
100
AcDbEntity
  8
RUNDUNGEN
100
AcDbCircle
 62
7
  6
CONTINUOUS
 10
178.0880923119
 20
117.9998278467
 40
2.0
100
AcDbArc
 50
179.9999997937
 51
270.0000001204
  0
ARC
  5
43F
100
AcDbEntity
  8
BEZUGSACHSEN
100
AcDbCircle
 62
7
  6
CONTINUOUS
 10
171.0880923186
 20
137.0447305866
 40
1.5000000422
100
AcDbArc
 50
125.0784688948
 51
179.9999962385
  0
ARC
  5
440
100
AcDbEntity
  8
BEZUGSACHSEN
100
AcDbCircle
 62
7
  6
CONTINUOUS
 10
169.3639990681
 20
139.4998278467
 40
1.4999999446
100
AcDbArc
 50
305.0784708476
 51
22.5000017536
  0
ARC
  5
441
100
AcDbEntity
  8
RUNDUNGEN
100
AcDbCircle
 62
7
  6
CONTINUOUS
 10
179.0880923119
 20
126.4998278467
 40
0.5
100
AcDbArc
 50
180.0
 51
270.0
  0
ARC
  5
442
100
AcDbEntity
  8
RUNDUNGEN
100
AcDbCircle
 62
7
  6
CONTINUOUS
 10
182.5880923119
 20
130.1998278467
 40
4.0
100
AcDbArc
 50
0.0
 51
180.0
  0
ARC
  5
443
100
AcDbEntity
  8
RUNDUNGEN
100
AcDbCircle
 62
7
  6
CONTINUOUS
 10
183.7226802239
 20
131.9754653571
 40
2.228920518
100
AcDbArc
 50
89.9676948792
 51
91.1286469374
  0
ARC
  5
444
100
AcDbEntity
  8
RUNDUNGEN
100
AcDbCircle
 62
7
  6
CONTINUOUS
 10
187.0880923119
 20
123.9998278467
 40
2.0
100
AcDbArc
 50
359.9999997937
 51
90.0000001204
  0
ARC
  5
445
100
AcDbEntity
  8
RUNDUNGEN
100
AcDbCircle
 62
7
  6
CONTINUOUS
 10
187.0880923119
 20
117.9998278467
 40
2.0
100
AcDbArc
 50
269.9999997937
 51
0.0000001204
  0
ARC
  5
446
100
AcDbEntity
  8
RUNDUNGEN
100
AcDbCircle
 62
7
  6
CONTINUOUS
 10
186.0880923119
 20
126.4998278467
 40
0.5
100
AcDbArc
 50
270.0
 51
360.0
  0
ARC
  5
447
100
AcDbEntity
  8
BEZUGSACHSEN
100
AcDbCircle
 62
7
  6
CONTINUOUS
 10
182.5880923119
 20
146.4998278467
 40
5.5
100
AcDbArc
 50
136.6624113513
 51
43.3375886487
  0
ARC
  5
448
100
AcDbEntity
  8
0
100
AcDbCircle
 62
7
  6
CONTINUOUS
 10
182.5880923119
 20
147.9998278467
 40
4.0
100
AcDbArc
 50
180.0
 51
360.0
  0
ARC
  5
449
100
AcDbEntity
  8
FASEN
100
AcDbCircle
 62
7
  6
CONTINUOUS
 10
195.5784733687
 20
129.7401486578
 40
4.4967735605
100
AcDbArc
 50
83.1033836542
 51
96.8966163458
  0
ARC
  5
44A
100
AcDbEntity
  8
RUNDUNGEN
100
AcDbCircle
 62
7
  6
CONTINUOUS
 10
190.5450400449
 20
154.4567755797
 40
3.0
100
AcDbArc
 50
44.9999984507
 51
67.5
  0
ARC
  5
44B
100
AcDbEntity
  8
RUNDUNGEN
100
AcDbCircle
 62
7
  6
CONTINUOUS
 10
190.5450400449
 20
154.4567755797
 40
3.0
100
AcDbArc
 50
22.5
 51
34.9964238524
  0
ARC
  5
44C
100
AcDbEntity
  8
BEZUGSACHSEN
100
AcDbCircle
 62
7
  6
CONTINUOUS
 10
190.5450400449
 20
154.4567755797
 40
3.0
100
AcDbArc
 50
22.5
 51
67.5
  0
ARC
  5
44D
100
AcDbEntity
  8
BEZUGSACHSEN
100
AcDbCircle
 62
7
  6
CONTINUOUS
 10
193.840915711
 20
146.4998278467
 40
3.0
100
AcDbArc
 50
337.4999921376
 51
22.4999886594
  0
ARC
  5
44E
100
AcDbEntity
  8
BEZUGSACHSEN
100
AcDbCircle
 62
7
  6
CONTINUOUS
 10
194.0880923052
 20
137.0447305866
 40
1.5000000422
100
AcDbArc
 50
0.0000037615
 51
54.9215311052
  0
ARC
  5
44F
100
AcDbEntity
  8
RUNDUNGEN
100
AcDbCircle
 62
7
  6
CONTINUOUS
 10
195.8121855558
 20
139.4998278467
 40
1.4999999446
100
AcDbArc
 50
157.4999982464
 51
222.7529571395
  0
ARC
  5
450
100
AcDbEntity
  8
BEZUGSACHSEN
100
AcDbCircle
 62
7
  6
CONTINUOUS
 10
195.8121855558
 20
139.4998278467
 40
1.4999999446
100
AcDbArc
 50
157.4999982464
 51
234.9215291524
  0
ARC
  5
451
100
AcDbEntity
  8
0
100
AcDbCircle
 62
7
  6
CONTINUOUS
 10
182.5880923119
 20
195.9998278467
 40
4.0
100
AcDbArc
 50
0.0
 51
180.0
  0
ARC
  5
452
100
AcDbEntity
  8
0
100
AcDbCircle
 62
7
  6
CONTINUOUS
 10
61.2333500573
 20
44.3464903492
 40
51.3283830029
100
AcDbArc
 50
6.4215840491
 51
6.9719137367
  0
ARC
  5
453
100
AcDbEntity
  8
RUNDUNGEN
100
AcDbCircle
 62
7
  6
CONTINUOUS
 10
81.9700597052
 20
41.7829567935
 40
0.3
100
AcDbArc
 50
0.0
 51
76.569697991
  0
ARC
  5
454
100
AcDbEntity
  8
0
100
AcDbCircle
 62
7
  6
CONTINUOUS
 10
64.7386453183
 20
47.4078488101
 40
47.799051628
100
AcDbArc
 50
353.0077689558
 51
353.5987251959
  0
ARC
  5
455
100
AcDbEntity
  8
0
100
AcDbCircle
 62
7
  6
CONTINUOUS
 10
78.7700597052
 20
46.0829567935
 40
4.0
100
AcDbArc
 50
90.0
 51
270.0
  0
ARC
  5
456
100
AcDbEntity
  8
RUNDUNGEN
100
AcDbCircle
 62
7
  6
CONTINUOUS
 10
81.9700597052
 20
50.3829567935
 40
0.3
100
AcDbArc
 50
283.4303020145
 51
350.5370422675
  0
ARC
  5
457
100
AcDbEntity
  8
FASEN
100
AcDbCircle
 62
7
  6
CONTINUOUS
 10
97.2700597052
 20
46.0829567935
 40
15.0388246462
100
AcDbArc
 50
244.1179200689
 51
295.8820799311
  0
ARC
  5
458
100
AcDbEntity
  8
RUNDUNGEN
100
AcDbCircle
 62
7
  6
CONTINUOUS
 10
97.2700597052
 20
46.0829567935
 40
15.0388246462
100
AcDbArc
 50
124.1179200689
 51
164.5659180325
  0
ARC
  5
459
100
AcDbEntity
  8
RUNDUNGEN
100
AcDbCircle
 62
7
  6
CONTINUOUS
 10
97.2700597052
 20
46.0829567935
 40
15.0388246462
100
AcDbArc
 50
195.4340822584
 51
235.8820799311
  0
ARC
  5
45A
100
AcDbEntity
  8
FASEN
100
AcDbCircle
 62
7
  6
CONTINUOUS
 10
97.2700597052
 20
46.0829567935
 40
15.0388246462
100
AcDbArc
 50
64.1179200689
 51
115.8820799311
  0
ARC
  5
45B
100
AcDbEntity
  8
FASEN
100
AcDbCircle
 62
7
  6
CONTINUOUS
 10
97.2700597052
 20
46.0829567935
 40
15.0388246462
100
AcDbArc
 50
304.1179200689
 51
344.564455848
  0
ARC
  5
45C
100
AcDbEntity
  8
FASEN
100
AcDbCircle
 62
7
  6
CONTINUOUS
 10
97.2700597052
 20
46.0829567935
 40
15.0388246462
100
AcDbArc
 50
15.4355441545
 51
55.8820799311
  0
ARC
  5
45D
100
AcDbEntity
  8
FASEN
100
AcDbCircle
 62
7
  6
CONTINUOUS
 10
97.2700597052
 20
46.0829567935
 40
14.6867301929
100
AcDbArc
 50
195.8173119682
 51
344.1713319572
  0
ARC
  5
45E
100
AcDbEntity
  8
FASEN
100
AcDbCircle
 62
7
  6
CONTINUOUS
 10
97.2700597052
 20
46.0829567935
 40
14.6867301929
100
AcDbArc
 50
15.8138786156
 51
164.1930387861
  0
ARC
  5
45F
100
AcDbEntity
  8
BEZUGSACHSEN
100
AcDbCircle
 62
7
  6
CONTINUOUS
 10
97.2700597052
 20
46.0829567935
 40
13.0
100
AcDbArc
 50
285.4032226037
 51
286.5909019561
  0
ARC
  5
460
100
AcDbEntity
  8
RUNDUNGEN
100
AcDbCircle
 62
7
  6
CONTINUOUS
 10
97.2700597052
 20
46.0829567935
 40
13.0
100
AcDbArc
 50
287.8628909968
 51
306.8329028601
  0
ARC
  5
461
100
AcDbEntity
  8
BEZUGSACHSEN
100
AcDbCircle
 62
7
  6
CONTINUOUS
 10
97.2700597052
 20
46.0829567935
 40
13.0
100
AcDbArc
 50
73.4090980439
 51
74.5967773963
  0
ARC
  5
462
100
AcDbEntity
  8
BEZUGSACHSEN
100
AcDbCircle
 62
7
  6
CONTINUOUS
 10
97.2700597052
 20
46.0829567935
 40
13.0
100
AcDbArc
 50
17.9835147172
 51
72.135997919
  0
ARC
  5
463
100
AcDbEntity
  8
BEZUGSACHSEN
100
AcDbCircle
 62
7
  6
CONTINUOUS
 10
97.2700597052
 20
46.0829567935
 40
13.0
100
AcDbArc
 50
306.8329028601
 51
342.0164852828
  0
ARC
  5
464
100
AcDbEntity
  8
BEZUGSACHSEN
100
AcDbCircle
 62
7
  6
CONTINUOUS
 10
97.2700597052
 20
46.0829567935
 40
13.0
100
AcDbArc
 50
105.4032226037
 51
106.5909019561
  0
ARC
  5
465
100
AcDbEntity
  8
BEZUGSACHSEN
100
AcDbCircle
 62
7
  6
CONTINUOUS
 10
97.2700597052
 20
46.0829567935
 40
13.0
100
AcDbArc
 50
253.4090980439
 51
254.5967773963
  0
ARC
  5
466
100
AcDbEntity
  8
BEZUGSACHSEN
100
AcDbCircle
 62
7
  6
CONTINUOUS
 10
97.2700597052
 20
46.0829567935
 40
13.0
100
AcDbArc
 50
107.8628909968
 51
162.074066563
  0
ARC
  5
467
100
AcDbEntity
  8
BEZUGSACHSEN
100
AcDbCircle
 62
7
  6
CONTINUOUS
 10
97.2700597052
 20
46.0829567935
 40
13.0
100
AcDbArc
 50
197.925933437
 51
252.135997919
  0
ARC
  5
468
100
AcDbEntity
  8
0
100
AcDbCircle
 62
7
  6
CONTINUOUS
 10
115.7700597052
 20
46.0829567935
 40
4.0
100
AcDbArc
 50
270.0
 51
90.0
  0
SPLINE
  5
469
100
AcDbEntity
  8
RUNDUNGEN
100
AcDbSpline
 62
7
  6
CONTINUOUS
 70
0
 71
3
 72
12
 73
8
 74
0
 42
0.0000001
 43
0.0000001
 44
0.0000000001
 40
0.0
 40
0.0
 40
0.0
 40
0.0
 40
0.2357400711
 40
0.4833979083
 40
0.7383247455
 40
0.8690705609
 40
1.0
 40
1.0
 40
1.0
 40
1.0
 10
104.509347693
 20
136.540127269
 30
0.0
 10
104.2226450643
 20
136.5821387077
 30
0.0
 10
103.6430207065
 20
136.7300659292
 30
0.0
 10
102.8039314369
 20
137.0743922457
 30
0.0
 10
102.0872661008
 20
137.3872717892
 30
0.0
 10
101.4674536474
 20
137.5284984111
 30
0.0
 10
101.1339857982
 20
137.5163150267
 30
0.0
 10
100.9820301878
 20
137.4633116009
 30
0.0
  0
SPLINE
  5
46A
100
AcDbEntity
  8
BEZUGSACHSEN
100
AcDbSpline
 62
7
  6
CONTINUOUS
 70
0
 71
3
 72
12
 73
8
 74
0
 42
0.0000001
 43
0.0000001
 44
0.0000000001
 40
0.0
 40
0.0
 40
0.0
 40
0.0
 40
0.2357400711
 40
0.4833979083
 40
0.7383247455
 40
0.8690705609
 40
1.0
 40
1.0
 40
1.0
 40
1.0
 10
90.0307717173
 20
136.540127269
 30
0.0
 10
90.317474346
 20
136.5821387077
 30
0.0
 10
90.8970987039
 20
136.7300659292
 30
0.0
 10
91.7361879735
 20
137.0743922457
 30
0.0
 10
92.4528533095
 20
137.3872717892
 30
0.0
 10
93.0726657629
 20
137.5284984111
 30
0.0
 10
93.4061336121
 20
137.5163150267
 30
0.0
 10
93.5580892225
 20
137.4633116009
 30
0.0
  0
SPLINE
  5
46B
100
AcDbEntity
  8
FASEN
100
AcDbSpline
 62
7
  6
CONTINUOUS
 70
0
 71
3
 72
16
 73
12
 74
0
 42
0.0000001
 43
0.0000001
 44
0.0000000001
 40
0.0
 40
0.0
 40
0.0
 40
0.0
 40
0.2554003485
 40
0.3825711155
 40
0.509195052
 40
0.6350075848
 40
0.7595155498
 40
0.8210458697
 40
0.8818225387
 40
0.9415872595
 40
1.0
 40
1.0
 40
1.0
 40
1.0
 10
111.2819107319
 20
124.3346682195
 30
0.0
 10
110.965025804
 20
125.2646121646
 30
0.0
 10
110.4662659118
 20
126.6498715968
 30
0.0
 10
109.7270994599
 20
128.4640637473
 30
0.0
 10
109.1268949618
 20
129.7957845354
 30
0.0
 10
108.4650117317
 20
131.0866336495
 30
0.0
 10
107.8395249164
 20
132.1127964468
 30
0.0
 10
107.2729843358
 20
132.875566652
 30
0.0
 10
106.8093288955
 20
133.4020810375
 30
0.0
 10
106.2962259853
 20
133.8636695209
 30
0.0
 10
105.9086420267
 20
134.1087659224
 30
0.0
 10
105.7053056914
 20
134.2043855208
 30
0.0
  0
SPLINE
  5
46C
100
AcDbEntity
  8
FASEN
100
AcDbSpline
 62
7
  6
CONTINUOUS
 70
0
 71
3
 72
11
 73
7
 74
0
 42
0.0000001
 43
0.0000001
 44
0.0000000001
 40
0.0
 40
0.0
 40
0.0
 40
0.0
 40
0.2499834532
 40
0.5000000037
 40
0.7500165511
 40
1.0
 40
1.0
 40
1.0
 40
1.0
 10
98.2582086784
 20
124.3346682195
 30
0.0
 10
98.0993234541
 20
124.3877344121
 30
0.0
 10
97.77315445
 20
124.4709328424
 30
0.0
 10
97.2700596997
 20
124.5141661211
 30
0.0
 10
96.7669649517
 20
124.4709328442
 30
0.0
 10
96.4407959534
 20
124.3877344112
 30
0.0
 10
96.2819107319
 20
124.3346682195
 30
0.0
  0
SPLINE
  5
46D
100
AcDbEntity
  8
0
100
AcDbSpline
 62
7
  6
CONTINUOUS
 70
0
 71
3
 72
12
 73
8
 74
0
 42
0.0000001
 43
0.0000001
 44
0.0000000001
 40
0.0
 40
0.0
 40
0.0
 40
0.0
 40
0.0959981539
 40
0.2030185287
 40
0.4448611221
 40
0.7146801107
 40
1.0
 40
1.0
 40
1.0
 40
1.0
 10
112.2700597052
 20
131.8420649265
 30
0.0
 10
112.2385256825
 20
131.6033635349
 30
0.0
 10
112.1718057196
 20
131.0985449165
 30
0.0
 10
112.0426572985
 20
129.9902573705
 30
0.0
 10
111.9305180017
 20
128.4410645776
 30
0.0
 10
111.9681914267
 20
126.4391259868
 30
0.0
 10
112.1435282461
 20
125.0546168317
 30
0.0
 10
112.2700597052
 20
124.3502741781
 30
0.0
  0
SPLINE
  5
46E
100
AcDbEntity
  8
FASEN
100
AcDbSpline
 62
7
  6
CONTINUOUS
 70
0
 71
3
 72
16
 73
12
 74
0
 42
0.0000001
 43
0.0000001
 44
0.0000000001
 40
0.0
 40
0.0
 40
0.0
 40
0.0
 40
0.2554003485
 40
0.3825711155
 40
0.509195052
 40
0.6350075848
 40
0.7595155498
 40
0.8210458697
 40
0.8818225387
 40
0.9415872595
 40
1.0
 40
1.0
 40
1.0
 40
1.0
 10
96.2819107319
 20
124.3346682195
 30
0.0
 10
95.965025804
 20
125.2646121646
 30
0.0
 10
95.4662659118
 20
126.6498715968
 30
0.0
 10
94.7270994599
 20
128.4640637473
 30
0.0
 10
94.1268949618
 20
129.7957845354
 30
0.0
 10
93.4650117317
 20
131.0866336495
 30
0.0
 10
92.8395249164
 20
132.1127964468
 30
0.0
 10
92.2729843358
 20
132.875566652
 30
0.0
 10
91.8093288955
 20
133.4020810375
 30
0.0
 10
91.2962259853
 20
133.8636695209
 30
0.0
 10
90.9086420267
 20
134.1087659224
 30
0.0
 10
90.7053056914
 20
134.2043855208
 30
0.0
  0
SPLINE
  5
46F
100
AcDbEntity
  8
BEZUGSACHSEN
100
AcDbSpline
 62
7
  6
CONTINUOUS
 70
0
 71
3
 72
11
 73
7
 74
0
 42
0.0000001
 43
0.0000001
 44
0.0000000001
 40
0.0
 40
0.0
 40
0.0
 40
0.0
 40
0.2585217473
 40
0.4995443367
 40
0.7408413801
 40
1.0
 40
1.0
 40
1.0
 40
1.0
 10
112.2635760006
 20
124.3389704488
 30
0.0
 10
112.1883267567
 20
124.3885680594
 30
0.0
 10
112.0316876786
 20
124.4698437177
 30
0.0
 10
111.77239013
 20
124.5147707243
 30
0.0
 10
111.5133449374
 20
124.4673584816
 30
0.0
 10
111.3570377136
 20
124.384851651
 30
0.0
 10
111.2819107319
 20
124.3346682195
 30
0.0
  0
SPLINE
  5
470
100
AcDbEntity
  8
RUNDUNGEN
100
AcDbSpline
 62
7
  6
CONTINUOUS
 70
0
 71
3
 72
8
 73
4
 74
0
 42
0.0000001
 43
0.0000001
 44
0.0000000001
 40
0.0
 40
0.0
 40
0.0
 40
0.0
 40
1.0
 40
1.0
 40
1.0
 40
1.0
 10
82.2252968339
 20
131.1651142205
 30
0.0
 10
82.2181363216
 20
131.1315676126
 30
0.0
 10
82.2095568845
 20
131.0982770507
 30
0.0
 10
82.1992801016
 20
131.0655503709
 30
0.0
  0
SPLINE
  5
471
100
AcDbEntity
  8
RUNDUNGEN
100
AcDbSpline
 62
7
  6
CONTINUOUS
 70
0
 71
3
 72
9
 73
5
 74
0
 42
0.0000001
 43
0.0000001
 44
0.0000000001
 40
0.0
 40
0.0
 40
0.0
 40
0.0
 40
0.4971233222
 40
1.0
 40
1.0
 40
1.0
 40
1.0
 10
82.1992801016
 20
131.0655503709
 30
0.0
 10
82.1771997788
 20
130.9952350145
 30
0.0
 10
82.1151361336
 20
130.858272271
 30
0.0
 10
82.0200602051
 20
130.7432110769
 30
0.0
 10
81.9701807675
 20
130.6878009092
 30
0.0
  0
SPLINE
  5
472
100
AcDbEntity
  8
RUNDUNGEN
100
AcDbSpline
 62
7
  6
CONTINUOUS
 70
0
 71
3
 72
22
 73
18
 74
0
 42
0.0000001
 43
0.0000001
 44
0.0000000001
 40
0.0
 40
0.0
 40
0.0
 40
0.0
 40
0.1618069948
 40
0.2418439605
 40
0.3201892051
 40
0.3959722343
 40
0.4648327604
 40
0.4909912714
 40
0.5092517576
 40
0.5212227926
 40
0.5328078556
 40
0.5495357692
 40
0.5709820287
 40
0.6209529878
 40
0.6770064262
 40
0.7373807695
 40
1.0
 40
1.0
 40
1.0
 40
1.0
 10
82.2252725789
 20
131.1650130325
 30
0.0
 10
82.2277405661
 20
131.1765679937
 30
0.0
 10
82.2315350189
 20
131.1938176654
 30
0.0
 10
82.2370010742
 20
131.2165504212
 30
0.0
 10
82.2412859814
 20
131.2331090481
 30
0.0
 10
82.2459408318
 20
131.2487082191
 30
0.0
 10
82.2499588441
 20
131.2605432803
 30
0.0
 10
82.2538139276
 20
131.2679123824
 30
0.0
 10
82.2563647656
 20
131.2711499682
 30
0.0
 10
82.2595614733
 20
131.2724653398
 30
0.0
 10
82.2621034101
 20
131.2703289382
 30
0.0
 10
82.2634201188
 20
131.2669545932
 30
0.0
 10
82.2651520684
 20
131.2607369102
 30
0.0
 10
82.2666479691
 20
131.2515365543
 30
0.0
 10
82.2679342929
 20
131.2394518449
 30
0.0
 10
82.2697725678
 20
131.2118287719
 30
0.0
 10
82.2700597052
 20
131.1882257508
 30
0.0
 10
82.2700597052
 20
131.1690485806
 30
0.0
  0
SPLINE
  5
473
100
AcDbEntity
  8
FASEN
100
AcDbSpline
 62
7
  6
CONTINUOUS
 70
0
 71
3
 72
16
 73
12
 74
0
 42
0.0000001
 43
0.0000001
 44
0.0000000001
 40
0.0
 40
0.0
 40
0.0
 40
0.0
 40
0.0584126619
 40
0.1181772656
 40
0.1789539424
 40
0.2404842599
 40
0.3649922513
 40
0.4908048173
 40
0.6174287869
 40
0.7445995862
 40
1.0
 40
1.0
 40
1.0
 40
1.0
 10
103.834813719
 20
134.2043855208
 30
0.0
 10
103.6314776568
 20
134.1087660509
 30
0.0
 10
103.2438939588
 20
133.8636705799
 30
0.0
 10
102.7307924119
 20
133.402081662
 30
0.0
 10
102.2671361743
 20
132.8755686175
 30
0.0
 10
101.7005955885
 20
132.1127981944
 30
0.0
 10
101.075108425
 20
131.0866353888
 30
0.0
 10
100.4132250928
 20
129.7957859045
 30
0.0
 10
99.8130203285
 20
128.4640648235
 30
0.0
 10
99.0738537114
 20
126.6498721894
 30
0.0
 10
98.575093688
 20
125.2646124042
 30
0.0
 10
98.2582086784
 20
124.3346682195
 30
0.0
  0
SPLINE
  5
474
100
AcDbEntity
  8
FASEN
100
AcDbSpline
 62
7
  6
CONTINUOUS
 70
0
 71
3
 72
16
 73
12
 74
0
 42
0.0000001
 43
0.0000001
 44
0.0000000001
 40
0.0
 40
0.0
 40
0.0
 40
0.0
 40
0.0584126619
 40
0.1181772656
 40
0.1789539424
 40
0.2404842599
 40
0.3649922513
 40
0.4908048173
 40
0.6174287869
 40
0.7445995862
 40
1.0
 40
1.0
 40
1.0
 40
1.0
 10
88.834813719
 20
134.2043855208
 30
0.0
 10
88.6314776568
 20
134.1087660509
 30
0.0
 10
88.2438939588
 20
133.8636705799
 30
0.0
 10
87.7307924119
 20
133.402081662
 30
0.0
 10
87.2671361743
 20
132.8755686175
 30
0.0
 10
86.7005955885
 20
132.1127981944
 30
0.0
 10
86.075108425
 20
131.0866353888
 30
0.0
 10
85.4132250928
 20
129.7957859045
 30
0.0
 10
84.8130203285
 20
128.4640648235
 30
0.0
 10
84.0738537114
 20
126.6498721894
 30
0.0
 10
83.575093688
 20
125.2646124042
 30
0.0
 10
83.2582086784
 20
124.3346682195
 30
0.0
  0
SPLINE
  5
475
100
AcDbEntity
  8
BEZUGSACHSEN
100
AcDbSpline
 62
7
  6
CONTINUOUS
 70
0
 71
3
 72
11
 73
7
 74
0
 42
0.0000001
 43
0.0000001
 44
0.0000000001
 40
0.0
 40
0.0
 40
0.0
 40
0.0
 40
0.2589374259
 40
0.4999999983
 40
0.7410625722
 40
1.0
 40
1.0
 40
1.0
 40
1.0
 10
83.2582086784
 20
124.3346682195
 30
0.0
 10
83.1825922946
 20
124.3851785625
 30
0.0
 10
83.0251895505
 20
124.4681376726
 30
0.0
 10
82.7641341932
 20
124.5150006726
 30
0.0
 10
82.5030788357
 20
124.4681376717
 30
0.0
 10
82.3456760895
 20
124.3851785629
 30
0.0
 10
82.2700597052
 20
124.3346682195
 30
0.0
  0
LINE
  5
476
100
AcDbEntity
  8
RUNDUNGEN
100
AcDbLine
 62
7
  6
CONTINUOUS
 10
82.2703216021
 20
134.2039534394
 11
82.2741901512
 21
134.2043855208
  0
LINE
  5
477
100
AcDbEntity
  8
RUNDUNGEN
100
AcDbLine
 62
7
  6
CONTINUOUS
 10
82.0416974736
 20
130.1998278467
 11
81.9700597052
 21
129.8068200132
  0
SPLINE
  5
478
100
AcDbEntity
  8
BEZUGSACHSEN
100
AcDbSpline
 62
7
  6
CONTINUOUS
 70
0
 71
3
 72
17
 73
13
 74
0
 42
0.0000001
 43
0.0000001
 44
0.0000000001
 40
0.0
 40
0.0
 40
0.0
 40
0.0
 40
0.2827052459
 40
0.4223993905
 40
0.5609363186
 40
0.6945740971
 40
0.757487517
 40
0.81600711
 40
0.8687064448
 40
0.9148790921
 40
0.955159237
 40
1.0
 40
1.0
 40
1.0
 40
1.0
 10
193.3859027117
 20
136.540127269
 30
0.0
 10
193.5681416098
 20
136.579983101
 30
0.0
 10
193.832127165
 20
136.6863730679
 30
0.0
 10
194.1389555836
 20
136.8942406025
 30
0.0
 10
194.3464100729
 20
137.0704440632
 30
0.0
 10
194.5068740098
 20
137.222533576
 30
0.0
 10
194.6309312714
 20
137.3362951228
 30
0.0
 10
194.7187784619
 20
137.4104793192
 30
0.0
 10
194.8043577795
 20
137.4697677513
 30
0.0
 10
194.8866232759
 20
137.5113026209
 30
0.0
 10
194.9774482698
 20
137.5211361419
 30
0.0
 10
195.0271365565
 20
137.4853540532
 30
0.0
 10
195.0468753639
 20
137.4633116009
 30
0.0
  0
SPLINE
  5
479
100
AcDbEntity
  8
BEZUGSACHSEN
100
AcDbSpline
 62
7
  6
CONTINUOUS
 70
0
 71
3
 72
17
 73
13
 74
0
 42
0.0000001
 43
0.0000001
 44
0.0000000001
 40
0.0
 40
0.0
 40
0.0
 40
0.0
 40
0.2827052459
 40
0.4223993905
 40
0.5609363186
 40
0.6945740971
 40
0.757487517
 40
0.81600711
 40
0.8687064448
 40
0.9148790921
 40
0.955159237
 40
1.0
 40
1.0
 40
1.0
 40
1.0
 10
171.7902819122
 20
136.540127269
 30
0.0
 10
171.6080430141
 20
136.579983101
 30
0.0
 10
171.3440574588
 20
136.6863730679
 30
0.0
 10
171.0372290403
 20
136.8942406025
 30
0.0
 10
170.8297745509
 20
137.0704440632
 30
0.0
 10
170.669310614
 20
137.222533576
 30
0.0
 10
170.5452533524
 20
137.3362951228
 30
0.0
 10
170.4574061619
 20
137.4104793192
 30
0.0
 10
170.3718268443
 20
137.4697677513
 30
0.0
 10
170.289561348
 20
137.5113026209
 30
0.0
 10
170.1987363541
 20
137.5211361419
 30
0.0
 10
170.1490480674
 20
137.4853540532
 30
0.0
 10
170.12930926
 20
137.4633116009
 30
0.0
  0
SPLINE
  5
47A
100
AcDbEntity
  8
RUNDUNGEN
100
AcDbSpline
 62
7
  6
CONTINUOUS
 70
0
 71
3
 72
18
 73
14
 74
0
 42
0.0000001
 43
0.0000001
 44
0.0000000001
 40
0.0
 40
0.0
 40
0.0
 40
0.0
 40
0.1241683379
 40
0.247482938
 40
0.3089880568
 40
0.3705622105
 40
0.4307141897
 40
0.4926120675
 40
0.555654822
 40
0.6191028036
 40
0.7457969325
 40
0.8728790987
 40
1.0
 40
1.0
 40
1.0
 40
1.0
 10
186.6163867674
 20
131.1650130325
 30
0.0
 10
186.6177299228
 20
131.1765959825
 30
0.0
 10
186.6210164969
 20
131.1995867403
 30
0.0
 10
186.6276133654
 20
131.2280354553
 30
0.0
 10
186.6366279991
 20
131.2493247744
 30
0.0
 10
186.6459231298
 20
131.2642463659
 30
0.0
 10
186.6619339693
 20
131.2728826298
 30
0.0
 10
186.6800939601
 20
131.2717497528
 30
0.0
 10
186.6958030056
 20
131.2630702059
 30
0.0
 10
186.7146643458
 20
131.2485818082
 30
0.0
 10
186.7353109328
 20
131.2268920166
 30
0.0
 10
186.7573605732
 20
131.1987202682
 30
0.0
 10
186.7708927195
 20
131.1790326115
 30
0.0
 10
186.777437269
 20
131.1690485806
 30
0.0
  0
SPLINE
  5
47B
100
AcDbEntity
  8
RUNDUNGEN
100
AcDbSpline
 62
7
  6
CONTINUOUS
 70
0
 71
3
 72
18
 73
14
 74
0
 42
0.0000001
 43
0.0000001
 44
0.0000000001
 40
0.0
 40
0.0
 40
0.0
 40
0.0
 40
0.1271172786
 40
0.2542019262
 40
0.3808697971
 40
0.4443366306
 40
0.5075037562
 40
0.5692132784
 40
0.629543935
 40
0.6909796093
 40
0.7525289831
 40
0.8758331231
 40
1.0
 40
1.0
 40
1.0
 40
1.0
 10
178.3987473549
 20
131.1690485806
 30
0.0
 10
178.4052917217
 20
131.1790323328
 30
0.0
 10
178.4188229732
 20
131.1987213337
 30
0.0
 10
178.4408746559
 20
131.2268847997
 30
0.0
 10
178.4615085666
 20
131.2485944548
 30
0.0
 10
178.4803970529
 20
131.2630550602
 30
0.0
 10
178.4960843281
 20
131.2717874602
 30
0.0
 10
178.5142561416
 20
131.2728530521
 30
0.0
 10
178.5302631715
 20
131.2642524192
 30
0.0
 10
178.5395687495
 20
131.2493224943
 30
0.0
 10
178.5485550457
 20
131.2280332729
 30
0.0
 10
178.5551745468
 20
131.1995886145
 30
0.0
 10
178.5584555257
 20
131.1765971094
 30
0.0
 10
178.5597982589
 20
131.1650142418
 30
0.0
  0
SPLINE
  5
47C
100
AcDbEntity
  8
FASEN
100
AcDbSpline
 62
7
  6
CONTINUOUS
 70
0
 71
3
 72
17
 73
13
 74
0
 42
0.0000001
 43
0.0000001
 44
0.0000000001
 40
0.0
 40
0.0
 40
0.0
 40
0.0
 40
0.1355098451
 40
0.2700156561
 40
0.4031680701
 40
0.5344141695
 40
0.6628013702
 40
0.7865212075
 40
0.8455995762
 40
0.9017844926
 40
0.9538185166
 40
1.0
 40
1.0
 40
1.0
 40
1.0
 10
199.3380923119
 20
124.3346682195
 30
0.0
 10
199.2466996766
 20
124.799212391
 30
0.0
 10
199.0595147276
 20
125.7238722824
 30
0.0
 10
198.761149528
 20
127.1005703269
 30
0.0
 10
198.4420473965
 20
128.4573384947
 30
0.0
 10
198.0966610737
 20
129.7857017905
 30
0.0
 10
197.7167853324
 20
131.0703077219
 30
0.0
 10
197.3567919209
 20
132.0972940795
 30
0.0
 10
197.0282484647
 20
132.8652391259
 30
0.0
 10
196.7638889827
 20
133.3874127707
 30
0.0
 10
196.4741492799
 20
133.8432096727
 30
0.0
 10
196.2435415205
 20
134.1024882713
 30
0.0
 10
196.1184378906
 20
134.2043855208
 30
0.0
  0
SPLINE
  5
47D
100
AcDbEntity
  8
FASEN
100
AcDbSpline
 62
7
  6
CONTINUOUS
 70
0
 71
3
 72
17
 73
13
 74
0
 42
0.0000001
 43
0.0000001
 44
0.0000000001
 40
0.0
 40
0.0
 40
0.0
 40
0.0
 40
0.0461814103
 40
0.0982153487
 40
0.154400243
 40
0.2134786024
 40
0.3371984609
 40
0.4655856946
 40
0.5968318268
 40
0.7299842746
 40
0.8644901191
 40
1.0
 40
1.0
 40
1.0
 40
1.0
 10
169.0577467333
 20
134.2043855208
 30
0.0
 10
168.9326433013
 20
134.1024884325
 30
0.0
 10
168.7020355406
 20
133.8432105633
 30
0.0
 10
168.4122969212
 20
133.3874137009
 30
0.0
 10
168.1479366926
 20
132.8652409352
 30
0.0
 10
167.8193933608
 20
132.0972958339
 30
0.0
 10
167.4593996991
 20
131.0703094221
 30
0.0
 10
167.0795239285
 20
129.7857031686
 30
0.0
 10
166.7341374388
 20
128.4573395583
 30
0.0
 10
166.4150352521
 20
127.1005710408
 30
0.0
 10
166.1166699372
 20
125.7238726512
 30
0.0
 10
165.9294849715
 20
124.7992125144
 30
0.0
 10
165.8380923119
 20
124.3346682195
 30
0.0
  0
SPLINE
  5
47E
100
AcDbEntity
  8
RUNDUNGEN
100
AcDbSpline
 62
7
  6
CONTINUOUS
 70
0
 71
3
 72
9
 73
5
 74
0
 42
0.0000001
 43
0.0000001
 44
0.0000000001
 40
0.0
 40
0.0
 40
0.0
 40
0.0
 40
0.4604950392
 40
1.0
 40
1.0
 40
1.0
 40
1.0
 10
178.6179558729
 20
130.6876974784
 30
0.0
 10
178.6269487953
 20
130.7610522008
 30
0.0
 10
178.6019668144
 20
130.9228023471
 30
0.0
 10
178.5697409927
 20
131.0790853179
 30
0.0
 10
178.5597867015
 20
131.1650952597
 30
0.0
  0
SPLINE
  5
47F
100
AcDbEntity
  8
RUNDUNGEN
100
AcDbSpline
 62
7
  6
CONTINUOUS
 70
0
 71
3
 72
11
 73
7
 74
0
 42
0.0000001
 43
0.0000001
 44
0.0000000001
 40
0.0
 40
0.0
 40
0.0
 40
0.0
 40
0.2499763773
 40
0.4999764654
 40
0.7499868603
 40
1.0
 40
1.0
 40
1.0
 40
1.0
 10
178.3987473549
 20
131.1690485806
 30
0.0
 10
178.0509390184
 20
130.638449917
 30
0.0
 10
177.4099229717
 20
129.5412512335
 30
0.0
 10
176.5570253383
 20
127.8388655828
 30
0.0
 10
175.7806496826
 20
126.1003118457
 30
0.0
 10
175.3011852118
 20
124.925131074
 30
0.0
 10
175.0688544255
 20
124.3346682195
 30
0.0
  0
SPLINE
  5
480
100
AcDbEntity
  8
BEZUGSACHSEN
100
AcDbSpline
 62
7
  6
CONTINUOUS
 70
0
 71
3
 72
11
 73
7
 74
0
 42
0.0000001
 43
0.0000001
 44
0.0000000001
 40
0.0
 40
0.0
 40
0.0
 40
0.0
 40
0.2510658266
 40
0.4999999981
 40
0.7489341712
 40
1.0
 40
1.0
 40
1.0
 40
1.0
 10
175.0688544255
 20
124.3346682195
 30
0.0
 10
174.9321627675
 20
124.3873846259
 30
0.0
 10
174.6507009142
 20
124.4706193752
 30
0.0
 10
174.2130923144
 20
124.5142628922
 30
0.0
 10
173.7754837136
 20
124.4706193743
 30
0.0
 10
173.4940218576
 20
124.3873846264
 30
0.0
 10
173.3573301984
 20
124.3346682195
 30
0.0
  0
SPLINE
  5
481
100
AcDbEntity
  8
FASEN
100
AcDbSpline
 62
7
  6
CONTINUOUS
 70
0
 71
3
 72
17
 73
13
 74
0
 42
0.0000001
 43
0.0000001
 44
0.0000000001
 40
0.0
 40
0.0
 40
0.0
 40
0.0
 40
0.1355098451
 40
0.2700156561
 40
0.4031680701
 40
0.5344141695
 40
0.6628013702
 40
0.7865212075
 40
0.8455995762
 40
0.9017844926
 40
0.9538185166
 40
1.0
 40
1.0
 40
1.0
 40
1.0
 10
173.3573301984
 20
124.3346682195
 30
0.0
 10
173.2659375631
 20
124.799212391
 30
0.0
 10
173.0787526141
 20
125.7238722824
 30
0.0
 10
172.7803874144
 20
127.1005703269
 30
0.0
 10
172.461285283
 20
128.4573384947
 30
0.0
 10
172.1158989601
 20
129.7857017905
 30
0.0
 10
171.7360232189
 20
131.0703077219
 30
0.0
 10
171.3760298074
 20
132.0972940795
 30
0.0
 10
171.0474863512
 20
132.8652391259
 30
0.0
 10
170.7831268691
 20
133.3874127707
 30
0.0
 10
170.4933871663
 20
133.8432096727
 30
0.0
 10
170.2627794069
 20
134.1024882713
 30
0.0
 10
170.1376757771
 20
134.2043855208
 30
0.0
  0
SPLINE
  5
482
100
AcDbEntity
  8
FASEN
100
AcDbSpline
 62
7
  6
CONTINUOUS
 70
0
 71
3
 72
17
 73
13
 74
0
 42
0.0000001
 43
0.0000001
 44
0.0000000001
 40
0.0
 40
0.0
 40
0.0
 40
0.0
 40
0.0461814103
 40
0.0982153487
 40
0.154400243
 40
0.2134786024
 40
0.3371984609
 40
0.4655856946
 40
0.5968318268
 40
0.7299842746
 40
0.8644901191
 40
1.0
 40
1.0
 40
1.0
 40
1.0
 10
195.0385088468
 20
134.2043855208
 30
0.0
 10
194.9134054148
 20
134.1024884325
 30
0.0
 10
194.6827976541
 20
133.8432105633
 30
0.0
 10
194.3930590348
 20
133.3874137009
 30
0.0
 10
194.1286988062
 20
132.8652409352
 30
0.0
 10
193.8001554743
 20
132.0972958339
 30
0.0
 10
193.4401618126
 20
131.0703094221
 30
0.0
 10
193.0602860421
 20
129.7857031686
 30
0.0
 10
192.7148995524
 20
128.4573395583
 30
0.0
 10
192.3957973657
 20
127.1005710408
 30
0.0
 10
192.0974320507
 20
125.7238726512
 30
0.0
 10
191.910247085
 20
124.7992125144
 30
0.0
 10
191.8188544255
 20
124.3346682195
 30
0.0
  0
SPLINE
  5
483
100
AcDbEntity
  8
BEZUGSACHSEN
100
AcDbSpline
 62
7
  6
CONTINUOUS
 70
0
 71
3
 72
11
 73
7
 74
0
 42
0.0000001
 43
0.0000001
 44
0.0000000001
 40
0.0
 40
0.0
 40
0.0
 40
0.0
 40
0.2510658266
 40
0.4999999981
 40
0.7489341712
 40
1.0
 40
1.0
 40
1.0
 40
1.0
 10
191.8188544255
 20
124.3346682195
 30
0.0
 10
191.6821627675
 20
124.3873846259
 30
0.0
 10
191.4007009142
 20
124.4706193752
 30
0.0
 10
190.9630923144
 20
124.5142628922
 30
0.0
 10
190.5254837136
 20
124.4706193743
 30
0.0
 10
190.2440218576
 20
124.3873846264
 30
0.0
 10
190.1073301984
 20
124.3346682195
 30
0.0
  0
SPLINE
  5
484
100
AcDbEntity
  8
RUNDUNGEN
100
AcDbSpline
 62
7
  6
CONTINUOUS
 70
0
 71
3
 72
11
 73
7
 74
0
 42
0.0000001
 43
0.0000001
 44
0.0000000001
 40
0.0
 40
0.0
 40
0.0
 40
0.0
 40
0.2500131479
 40
0.5000235451
 40
0.7500236378
 40
1.0
 40
1.0
 40
1.0
 40
1.0
 10
190.1073301984
 20
124.3346682195
 30
0.0
 10
189.8749994044
 20
124.9251310934
 30
0.0
 10
189.3955349045
 20
126.1003118818
 30
0.0
 10
188.6191592302
 20
127.8388656518
 30
0.0
 10
187.7662616252
 20
129.5412512934
 30
0.0
 10
187.1252455842
 20
130.6384499493
 30
0.0
 10
186.777437269
 20
131.1690485806
 30
0.0
  0
SPLINE
  5
485
100
AcDbEntity
  8
RUNDUNGEN
100
AcDbSpline
 62
7
  6
CONTINUOUS
 70
0
 71
3
 72
9
 73
5
 74
0
 42
0.0000001
 43
0.0000001
 44
0.0000000001
 40
0.0
 40
0.0
 40
0.0
 40
0.0
 40
0.539542158
 40
1.0
 40
1.0
 40
1.0
 40
1.0
 10
186.6164012597
 20
131.1651142205
 30
0.0
 10
186.6064482543
 20
131.079113296
 30
0.0
 10
186.5742516713
 20
130.9228547655
 30
0.0
 10
186.5492290092
 20
130.7611373766
 30
0.0
 10
186.5582160488
 20
130.6878009092
 30
0.0
  0
SPLINE
  5
486
100
AcDbEntity
  8
RUNDUNGEN
100
AcDbSpline
 62
7
  6
CONTINUOUS
 70
0
 71
3
 72
9
 73
5
 74
0
 42
0.0000001
 43
0.0000001
 44
0.0000000001
 40
0.0
 40
0.0
 40
0.0
 40
0.0
 40
0.1980724435
 40
1.0
 40
1.0
 40
1.0
 40
1.0
 10
82.2252968339
 20
42.0546478457
 30
0.0
 10
82.2217127411
 20
42.0565911235
 30
0.0
 10
82.2037465926
 20
42.066629656
 30
0.0
 10
82.1854680377
 20
42.0761766803
 30
0.0
 10
82.1703752236
 20
42.0828602019
 30
0.0
  0
SPLINE
  5
487
100
AcDbEntity
  8
RUNDUNGEN
100
AcDbSpline
 62
7
  6
CONTINUOUS
 70
0
 71
3
 72
10
 73
6
 74
0
 42
0.0000001
 43
0.0000001
 44
0.0000000001
 40
0.0
 40
0.0
 40
0.0
 40
0.0
 40
0.4254347106
 40
0.7510640843
 40
1.0
 40
1.0
 40
1.0
 40
1.0
 10
82.2252725789
 20
42.054662338
 30
0.0
 10
82.2466135637
 20
42.0430759762
 30
0.0
 10
82.2634125339
 20
41.9959011303
 30
0.0
 10
82.2690162805
 20
41.9409199212
 30
0.0
 10
82.2700597052
 20
41.9078208314
 30
0.0
 10
82.2700597052
 20
41.8936118365
 30
0.0
  0
SPLINE
  5
488
100
AcDbEntity
  8
RUNDUNGEN
100
AcDbSpline
 62
7
  6
CONTINUOUS
 70
0
 71
3
 72
10
 73
6
 74
0
 42
0.0000001
 43
0.0000001
 44
0.0000000001
 40
0.0
 40
0.0
 40
0.0
 40
0.0
 40
0.2489297692
 40
0.5747019137
 40
1.0
 40
1.0
 40
1.0
 40
1.0
 10
82.2700597052
 20
50.2723017505
 30
0.0
 10
82.2700597052
 20
50.2580928873
 30
0.0
 10
82.2690149893
 20
50.2249856357
 30
0.0
 10
82.2634174539
 20
50.1700028614
 30
0.0
 10
82.2466084271
 20
50.1228313176
 30
0.0
 10
82.2252726918
 20
50.1112508465
 30
0.0
  0
SPLINE
  5
489
100
AcDbEntity
  8
0
100
AcDbSpline
 62
7
  6
CONTINUOUS
 70
0
 71
3
 72
17
 73
13
 74
0
 42
0.0000001
 43
0.0000001
 44
0.0000000001
 40
0.0
 40
0.0
 40
0.0
 40
0.0
 40
0.026533706
 40
0.053265153
 40
0.0824133189
 40
0.1157625577
 40
0.1992302368
 40
0.3085855583
 40
0.4445868804
 40
0.6063218874
 40
0.7920981393
 40
1.0
 40
1.0
 40
1.0
 40
1.0
 10
112.2700597052
 20
53.5960521619
 30
0.0
 10
112.2426481584
 20
53.5907015016
 30
0.0
 10
112.1886846962
 20
53.5721432797
 30
0.0
 10
112.1183119998
 20
53.5192717555
 30
0.0
 10
112.0612396023
 20
53.4434103397
 30
0.0
 10
111.9978504079
 20
53.3024756573
 30
0.0
 10
111.9556439877
 20
53.0655042286
 30
0.0
 10
111.9483686022
 20
52.7192341755
 30
0.0
 10
111.9754564955
 20
52.2911811869
 30
0.0
 10
112.0299404002
 20
51.7851624893
 30
0.0
 10
112.1032314074
 20
51.2051358554
 30
0.0
 10
112.1556767726
 20
50.7940928207
 30
0.0
 10
112.1821993175
 20
50.5768724211
 30
0.0
  0
SPLINE
  5
48A
100
AcDbEntity
  8
0
100
AcDbSpline
 62
7
  6
CONTINUOUS
 70
0
 71
3
 72
17
 73
13
 74
0
 42
0.0000001
 43
0.0000001
 44
0.0000000001
 40
0.0
 40
0.0
 40
0.0
 40
0.0
 40
0.2079018862
 40
0.3936778707
 40
0.5554126484
 40
0.6914138598
 40
0.8007692066
 40
0.8842371154
 40
0.9175864777
 40
0.9467347947
 40
0.9734663083
 40
1.0
 40
1.0
 40
1.0
 40
1.0
 10
112.1821994943
 20
41.5890427739
 30
0.0
 10
112.1556769397
 20
41.3718222479
 30
0.0
 10
112.1032316336
 20
40.9607792729
 30
0.0
 10
112.0299406405
 20
40.3807528652
 30
0.0
 10
111.9754566163
 20
39.8747346032
 30
0.0
 10
111.9483685406
 20
39.4466817294
 30
0.0
 10
111.9556441495
 20
39.1004114342
 30
0.0
 10
111.9978495765
 20
38.863439322
 30
0.0
 10
112.0612390355
 20
38.7225039924
 30
0.0
 10
112.1183121515
 20
38.6466426649
 30
0.0
 10
112.1886846449
 20
38.5937705559
 30
0.0
 10
112.2426481607
 20
38.575212085
 30
0.0
 10
112.2700597052
 20
38.5698614251
 30
0.0
  0
SPLINE
  5
48B
100
AcDbEntity
  8
RUNDUNGEN
100
AcDbSpline
 62
7
  6
CONTINUOUS
 70
0
 71
3
 72
9
 73
5
 74
0
 42
0.0000001
 43
0.0000001
 44
0.0000000001
 40
0.0
 40
0.0
 40
0.0
 40
0.0
 40
0.3021433859
 40
1.0
 40
1.0
 40
1.0
 40
1.0
 10
82.1703853512
 20
50.0830541159
 30
0.0
 10
82.176071537
 20
50.0855722536
 30
0.0
 10
82.1947349199
 20
50.0942753362
 30
0.0
 10
82.2126650491
 20
50.1044163457
 30
0.0
 10
82.2252921
 20
50.1112624039
 30
0.0
  0
ENDSEC
  0
SECTION
  2
OBJECTS
  0
DICTIONARY
  5
C
100
AcDbDictionary
280
0
281
1
  3
ACAD_GROUP
350
D
  3
ACAD_MLINESTYLE
350
17
  3
ACAD_LAYOUT
350
1A
  3
ACAD_PLOTSETTINGS
350
19
  3
ACAD_PLOTSTYLENAME
350
E
  0
DICTIONARY
  5
D
102
{ACAD_REACTORS
330
C
102
}
100
AcDbDictionary
280
0
281
1
  0
ACDBDICTIONARYWDFLT
  5
E
102
{ACAD_REACTORS
330
C
102
}
100
AcDbDictionary
281
1
  3
Normal
350
F
100
AcDbDictionaryWithDefault
340
F
  0
DICTIONARY
  5
17
102
{ACAD_REACTORS
330
C
102
}
100
AcDbDictionary
280
0
281
1
  3
Standard
350
18
  0
DICTIONARY
  5
19
102
{ACAD_REACTORS
330
C
102
}
100
AcDbDictionary
281
1
  0
DICTIONARY
  5
1A
102
{ACAD_REACTORS
330
C
102
}
100
AcDbDictionary
281
1
  3
Model
350
48C
  3
Layout1
350
48D
  0
ACDBPLACEHOLDER
  5
F
102
{ACAD_REACTORS
330
E
102
}
  0
MLINESTYLE
  5
18
102
{ACAD_REACTORS
330
17
102
}
100
AcDbMlineStyle
  2
STANDARD
 70
0
  3

 62
256
 51
90.0
 52
90.0
 71
2
 49
0.5
 62
256
  6
BYLAYER
 49
-0.5
 62
256
  6
BYLAYER
  0
LAYOUT
  5
48C
102
{ACAD_REACTORS
330
1A
102
}
100
AcDbPlotSettings
  1

  2
none_device
  4
ISO_A4_(297.00_x_210.00_MM)
  6

 40
0.0
 41
0.0
 42
0.0
 43
0.0
 44
297.0
 45
210.0
 46
0.0
 47
0.0
 48
0.0
 49
0.0
140
0.0
141
0.0
142
1.0
143
1.0
 70
1024
 72
1
 73
0
 74
0
  7

 75
0
147
1.0
148
0.0
149
0.0
100
AcDbLayout
  1
Model
 70
0
 71
0
 10
0.0
 20
0.0
 11
297.0
 21
210.0
 12
0.0
 22
0.0
 32
0.0
 14
0.0
 24
0.0
 34
0.0
 15
0.0
 25
0.0
 35
0.0
146
0.0
 13
0.0
 23
0.0
 33
0.0
 16
1.0
 26
0.0
 36
0.0
 17
0.0
 27
1.0
 37
0.0
 76
0
330
215
345
0
346
0
  0
LAYOUT
  5
48D
102
{ACAD_REACTORS
330
1A
102
}
100
AcDbPlotSettings
  1

  2
none_device
  4
ISO_A4_(297.00_x_210.00_MM)
  6

 40
0.0
 41
0.0
 42
0.0
 43
0.0
 44
297.0
 45
210.0
 46
0.0
 47
0.0
 48
0.0
 49
0.0
140
0.0
141
0.0
142
1.0
143
1.0
 70
0
 72
1
 73
0
 74
0
  7

 75
0
147
1.0
148
0.0
149
0.0
100
AcDbLayout
  1
Layout1
 70
0
 71
1
 10
0.0
 20
0.0
 11
297.0
 21
210.0
 12
0.0
 22
0.0
 32
0.0
 14
0.0
 24
0.0
 34
0.0
 15
0.0
 25
0.0
 35
0.0
146
0.0
 13
0.0
 23
0.0
 33
0.0
 16
1.0
 26
0.0
 36
0.0
 17
0.0
 27
1.0
 37
0.0
 76
0
330
216
345
0
346
0
  0
ENDSEC
  0
EOF
