999
DXF file: 001-m33226-p-10.dxf
999
Pro/ENGINEER 2011490 by Parametric Technology Corporation
  0
SECTION
  2
HEADER
  9
$ACADVER
  1
AC1015
  9
$DWGCODEPAGE
  3
ANSI_1252
  9
$EXTMAX
 10
297.0
 20
210.0
 30
0.0
  9
$EXTMIN
 10
0.0
 20
0.0
 30
0.0
  9
$LIMMIN
 10
0.0
 20
0.0
  9
$LIMMAX
 10
297.0
 20
210.0
  9
$VIEWCTR
 10
148.5
 20
105.0
  9
$VIEWSIZE
 40
210.0
  9
$CLAYER
  8
0
  9
$LTSCALE
 40
16.335
  9
$CELTYPE
  6
BYLAYER
  9
$DIMSCALE
 40
1.0
  9
$DIMASZ
 40
3.5
  9
$DIMEXO
 40
1.85625
  9
$DIMDLI
 40
11.286
  9
$DIMEXE
 40
5.346
  9
$DIMCEN
 40
2.673
  9
$DIMLFAC
 40
1.0
  9
$DIMBLK
  1
_FILLED
  9
$DIMTXT
 40
3.5
  9
$DIMTOL
 70
1
  9
$DIMLIM
 70
0
  9
$DIMTFAC
 40
1.0
  9
$DIMTP
 40
0.005
  9
$DIMTM
 40
0.005
  9
$PDMODE
 70
3
  9
$PDSIZE
 40
0.3125
  9
$HANDSEED
  5
43A
  9
$TILEMODE
 70
1
  9
$MEASUREMENT
 70
1
  9
$INSUNITS
 70
4
  0
ENDSEC
  0
SECTION
  2
CLASSES
  0
CLASS
  1
ACDBDICTIONARYWDFLT
  2
AcDbDictionaryWithDefault
  3
AutoCAD 2000
 90
0
280
0
281
0
  0
CLASS
  1
ACDBPLACEHOLDER
  2
AcDbPlaceHolder
  3
AutoCAD 2000
 90
0
280
0
281
0
  0
CLASS
  1
LAYOUT
  2
AcDbLayout
  3
AutoCAD 2000
 90
0
280
0
281
0
  0
ENDSEC
  0
SECTION
  2
TABLES
  0
TABLE
  2
VPORT
  5
8
100
AcDbSymbolTable
 70
2
  0
VPORT
  5
1F4
100
AcDbSymbolTableRecord
100
AcDbViewportTableRecord
  2
*ACTIVE
 70
0
 10
0.0
 20
0.0
 11
1.0
 21
1.0
 12
148.5
 22
105.0
 13
0.0
 23
0.0
 14
1.0
 24
1.0
 15
0.0
 25
0.0
 16
0.0
 26
0.0
 36
1.0
 17
0.0
 27
0.0
 37
0.0
 40
210.0
 41
1.4142857143
 42
50.0
 43
0.0
 44
0.0
 50
0.0
 51
0.0
 71
0
 72
100
 73
1
 74
1
 75
0
 76
0
 77
0
 78
0
  0
ENDTAB
  0
TABLE
  2
LTYPE
  5
5
100
AcDbSymbolTable
 70
6
  0
LTYPE
  5
14
100
AcDbSymbolTableRecord
100
AcDbLinetypeTableRecord
  2
BYBLOCK
 70
0
  3

 72
65
 73
0
 40
0.0
  0
LTYPE
  5
15
100
AcDbSymbolTableRecord
100
AcDbLinetypeTableRecord
  2
BYLAYER
 70
0
  3

 72
65
 73
0
 40
0.0
  0
LTYPE
  5
16
100
AcDbSymbolTableRecord
100
AcDbLinetypeTableRecord
  2
CONTINUOUS
 70
64
  3
Solid line
 72
65
 73
0
 40
0.0
  0
LTYPE
  5
1F5
100
AcDbSymbolTableRecord
100
AcDbLinetypeTableRecord
  2
CENTER
 70
64
  3
____ _ ____ _ ____ _ ____ _ ____ _ ____ _ ____
 72
65
 73
4
 40
0.6
 49
0.375
 74
0
 49
-0.075
 74
0
 49
0.075
 74
0
 49
-0.075
 74
0
  0
LTYPE
  5
1F6
100
AcDbSymbolTableRecord
100
AcDbLinetypeTableRecord
  2
HIDDEN
 70
64
  3
- - - - - - - - - - - - - - - - - - - -
 72
65
 73
2
 40
0.2
 49
0.1
 74
0
 49
-0.1
 74
0
  0
LTYPE
  5
1F7
100
AcDbSymbolTableRecord
100
AcDbLinetypeTableRecord
  2
PHANTOM
 70
64
  3
_____ _ _ _____ _ _ _____ _ _ _____
 72
65
 73
6
 40
0.8
 49
0.45
 74
0
 49
-0.05
 74
0
 49
0.1
 74
0
 49
-0.05
 74
0
 49
0.1
 74
0
 49
-0.05
 74
0
  0
LTYPE
  5
1F8
100
AcDbSymbolTableRecord
100
AcDbLinetypeTableRecord
  2
DOT
 70
64
  3
. . . . . . . . . . . . . . . . . . . .
 72
65
 73
2
 40
0.2
 49
0.1
 74
0
 49
-0.1
 74
0
  0
LTYPE
  5
1F9
100
AcDbSymbolTableRecord
100
AcDbLinetypeTableRecord
  2
DASHED
 70
64
  3
- - - - - - - - - - - - - - - - - - - -
 72
65
 73
2
 40
0.2
 49
0.1
 74
0
 49
-0.1
 74
0
  0
ENDTAB
  0
TABLE
  2
LAYER
  5
2
100
AcDbSymbolTable
 70
36
  0
LAYER
  5
10
100
AcDbSymbolTableRecord
100
AcDbLayerTableRecord
  2
0
 70
0
 62
7
  6
CONTINUOUS
370
-3
390
F
  0
LAYER
  5
1FA
100
AcDbSymbolTableRecord
100
AcDbLayerTableRecord
  2
DEFAULT_1
 70
0
 62
7
  6
CENTER
370
-3
390
F
  0
LAYER
  5
1FB
100
AcDbSymbolTableRecord
100
AcDbLayerTableRecord
  2
DEFAULT_2
 70
0
 62
8
  6
HIDDEN
370
-3
390
F
  0
LAYER
  5
1FC
100
AcDbSymbolTableRecord
100
AcDbLayerTableRecord
  2
DEFAULT_3
 70
0
 62
7
  6
PHANTOM
370
-3
390
F
  0
LAYER
  5
1FD
100
AcDbSymbolTableRecord
100
AcDbLayerTableRecord
  2
AUSFORMSCHRAEGEN
 70
0
 62
7
  6
CONTINUOUS
370
-3
390
F
  0
LAYER
  5
1FE
100
AcDbSymbolTableRecord
100
AcDbLayerTableRecord
  2
B-EBENEN
 70
0
 62
7
  6
CONTINUOUS
370
-3
390
F
  0
LAYER
  5
1FF
100
AcDbSymbolTableRecord
100
AcDbLayerTableRecord
  2
B-KOORSYS
 70
0
 62
7
  6
CONTINUOUS
370
-3
390
F
  0
LAYER
  5
200
100
AcDbSymbolTableRecord
100
AcDbLayerTableRecord
  2
B-KURVEN
 70
0
 62
7
  6
CONTINUOUS
370
-3
390
F
  0
LAYER
  5
201
100
AcDbSymbolTableRecord
100
AcDbLayerTableRecord
  2
BEMASSUNG
 70
0
 62
7
  6
CONTINUOUS
370
-3
390
F
  0
LAYER
  5
202
100
AcDbSymbolTableRecord
100
AcDbLayerTableRecord
  2
BEZUGSACHSEN
 70
0
 62
7
  6
CONTINUOUS
370
-3
390
F
  0
LAYER
  5
203
100
AcDbSymbolTableRecord
100
AcDbLayerTableRecord
  2
BEZUGSEBENEN
 70
0
 62
7
  6
CONTINUOUS
370
-3
390
F
  0
LAYER
  5
204
100
AcDbSymbolTableRecord
100
AcDbLayerTableRecord
  2
BEZUGSPUNKTE
 70
0
 62
7
  6
CONTINUOUS
370
-3
390
F
  0
LAYER
  5
205
100
AcDbSymbolTableRecord
100
AcDbLayerTableRecord
  2
BG_STARTBEZUEGE
 70
0
 62
7
  6
CONTINUOUS
370
-3
390
F
  0
LAYER
  5
206
100
AcDbSymbolTableRecord
100
AcDbLayerTableRecord
  2
FASEN
 70
0
 62
7
  6
CONTINUOUS
370
-3
390
F
  0
LAYER
  5
207
100
AcDbSymbolTableRecord
100
AcDbLayerTableRecord
  2
FLAECHEN
 70
0
 62
7
  6
CONTINUOUS
370
-3
390
F
  0
LAYER
  5
208
100
AcDbSymbolTableRecord
100
AcDbLayerTableRecord
  2
FLAECHENVERBUND
 70
0
 62
7
  6
CONTINUOUS
370
-3
390
F
  0
LAYER
  5
209
100
AcDbSymbolTableRecord
100
AcDbLayerTableRecord
  2
HILFEN
 70
0
 62
7
  6
CONTINUOUS
370
-3
390
F
  0
LAYER
  5
20A
100
AcDbSymbolTableRecord
100
AcDbLayerTableRecord
  2
KONSTRUKTIONSELEMENTE
 70
0
 62
7
  6
CONTINUOUS
370
-3
390
F
  0
LAYER
  5
20B
100
AcDbSymbolTableRecord
100
AcDbLayerTableRecord
  2
KURVEN
 70
0
 62
7
  6
CONTINUOUS
370
-3
390
F
  0
LAYER
  5
20C
100
AcDbSymbolTableRecord
100
AcDbLayerTableRecord
  2
KURVENELEMENTE
 70
0
 62
7
  6
CONTINUOUS
370
-3
390
F
  0
LAYER
  5
20D
100
AcDbSymbolTableRecord
100
AcDbLayerTableRecord
  2
NORM
 70
0
 62
7
  6
CONTINUOUS
370
-3
390
F
  0
LAYER
  5
20E
100
AcDbSymbolTableRecord
100
AcDbLayerTableRecord
  2
NOTIZEN
 70
0
 62
7
  6
CONTINUOUS
370
-3
390
F
  0
LAYER
  5
20F
100
AcDbSymbolTableRecord
100
AcDbLayerTableRecord
  2
PLATZIERUNG
 70
0
 62
7
  6
CONTINUOUS
370
-3
390
F
  0
LAYER
  5
210
100
AcDbSymbolTableRecord
100
AcDbLayerTableRecord
  2
RUNDUNGEN
 70
0
 62
7
  6
CONTINUOUS
370
-3
390
F
  0
LAYER
  5
211
100
AcDbSymbolTableRecord
100
AcDbLayerTableRecord
  2
TEIL_STARTBEZUEGE
 70
0
 62
7
  6
CONTINUOUS
370
-3
390
F
  0
LAYER
  5
212
100
AcDbSymbolTableRecord
100
AcDbLayerTableRecord
  2
ZEICHNUNGSBEMASSUNGEN
 70
0
 62
7
  6
CONTINUOUS
370
-3
390
F
  0
ENDTAB
  0
TABLE
  2
STYLE
  5
3
100
AcDbSymbolTable
 70
1
  0
STYLE
  5
11
100
AcDbSymbolTableRecord
100
AcDbTextStyleTableRecord
  2
STANDARD
 70
0
 40
0.0
 41
0.7
 50
0.0
 71
0
 42
0.2
  3
txt
  4

  0
STYLE
  5
213
100
AcDbSymbolTableRecord
100
AcDbTextStyleTableRecord
  2
TEXTSTYLE_1
 70
0
 40
0.0
 41
0.8
 50
0.0
 71
0
 42
0.2
  3
gdt
  4

  0
ENDTAB
  0
TABLE
  2
VIEW
  5
6
100
AcDbSymbolTable
 70
0
  0
ENDTAB
  0
TABLE
  2
UCS
  5
7
100
AcDbSymbolTable
 70
0
  0
ENDTAB
  0
TABLE
  2
APPID
  5
9
100
AcDbSymbolTable
 70
1
  0
APPID
  5
214
100
AcDbSymbolTableRecord
100
AcDbRegAppTableRecord
  2
ACAD
 70
0
  0
ENDTAB
  0
TABLE
  2
BLOCK_RECORD
  5
1
100
AcDbSymbolTable
 70
0
  0
BLOCK_RECORD
  5
215
100
AcDbSymbolTableRecord
100
AcDbBlockTableRecord
  2
*Model_Space
  0
BLOCK_RECORD
  5
216
100
AcDbSymbolTableRecord
100
AcDbBlockTableRecord
  2
*Paper_Space
  0
ENDTAB
  0
TABLE
  2
DIMSTYLE
  5
A
100
AcDbSymbolTable
 70
1
100
AcDbDimStyleTable
 71
0
  0
DIMSTYLE
105
217
100
AcDbSymbolTableRecord
100
AcDbDimStyleTableRecord
  2
STANDARD
 70
0
  3

  4

 40
1.0
 41
3.5
 42
0.0625
 43
0.38
 44
0.18
 45
0.0
 46
0.0
 47
0.005
 48
0.005
140
3.5
141
0.09
142
0.0
143
25.4
144
1.0
145
0.0
146
1.0
147
0.09
 71
1.0
 72
0.0
 73
0
 74
0
 75
0
 76
0
 77
1
 78
8
170
0
171
2
172
0
173
0
174
0
175
0
176
0
177
0
178
5
270
2
271
3
272
3
273
2
274
2
275
0
280
0
281
0
282
0
283
1
284
8
285
0
286
0
287
3
288
0
340
11
  0
ENDTAB
  0
ENDSEC
  0
SECTION
  2
BLOCKS
  0
BLOCK
  5
20
100
AcDbEntity
  8
0
100
AcDbBlockBegin
  2
*Model_Space
 70
0
 10
0.0
 20
0.0
 30
0.0
  3
*Model_Space
  1

  0
ENDBLK
  5
21
100
AcDbEntity
  8
0
100
AcDbBlockEnd
  0
BLOCK
  5
1C
100
AcDbEntity
  8
0
100
AcDbBlockBegin
  2
*Paper_Space
 70
0
 10
0.0
 20
0.0
 30
0.0
  3
*Paper_Space
  1

  0
ENDBLK
  5
1D
100
AcDbEntity
  8
0
100
AcDbBlockEnd
  0
ENDSEC
  0
SECTION
  2
ENTITIES
  0
MTEXT
  5
218
100
AcDbEntity
  8
0
100
AcDbMText
 62
5
  6
CONTINUOUS
  7
STANDARD
 71
1
 72
1
 10
83.2419899069
 20
49.8115431969
 30
0.0
 11
1.0
 21
0.0
 31
0.0
 44
0.9
  1
VWBG-V\P0,3t M8
 40
3.0
 41
16.5
  0
MTEXT
  5
219
100
AcDbEntity
  8
0
100
AcDbMText
 62
5
  6
CONTINUOUS
  7
STANDARD
 71
1
 72
1
 10
78.1010106084
 20
127.9245631068
 30
0.0
 11
1.0
 21
0.0
 31
0.0
 44
0.9
  1
RUD VWBG-V \P0,3t M8
 40
3.0
 41
28.6428571429
  0
LINE
  5
21A
100
AcDbEntity
  8
0
100
AcDbLine
 62
7
  6
CONTINUOUS
 10
0.0
 20
0.0
 11
0.0
 21
210.0
  0
LINE
  5
21B
100
AcDbEntity
  8
0
100
AcDbLine
 62
7
  6
CONTINUOUS
 10
0.0
 20
0.0
 11
297.0
 21
0.0
  0
LINE
  5
21C
100
AcDbEntity
  8
0
100
AcDbLine
 62
7
  6
CONTINUOUS
 10
0.0
 20
210.0
 11
297.0
 21
210.0
  0
LINE
  5
21D
100
AcDbEntity
  8
0
100
AcDbLine
 62
7
  6
CONTINUOUS
 10
297.0
 20
0.0
 11
297.0
 21
210.0
  0
LINE
  5
21E
100
AcDbEntity
  8
0
100
AcDbLine
 62
7
  6
CONTINUOUS
 10
87.5166663969
 20
102.8419480892
 11
94.5166663969
 21
102.8419480892
  0
LINE
  5
21F
100
AcDbEntity
  8
0
100
AcDbLine
 62
7
  6
CONTINUOUS
 10
95.0166663969
 20
103.3419480892
 11
87.0166663969
 21
103.3419480892
  0
LINE
  5
220
100
AcDbEntity
  8
0
100
AcDbLine
 62
7
  6
CONTINUOUS
 10
104.5166663969
 20
115.8419480892
 11
77.5166663969
 21
115.8419480892
  0
LINE
  5
221
100
AcDbEntity
  8
0
100
AcDbLine
 62
7
  6
CONTINUOUS
 10
87.0166663969
 20
103.3419480892
 11
87.5166663969
 21
102.8419480892
  0
LINE
  5
222
100
AcDbEntity
  8
RUNDUNGEN
100
AcDbLine
 62
7
  6
CONTINUOUS
 10
76.5166663969
 20
126.5419480892
 11
77.5166663969
 21
126.5419480892
  0
LINE
  5
223
100
AcDbEntity
  8
0
100
AcDbLine
 62
7
  6
CONTINUOUS
 10
68.5166663969
 20
177.3419480892
 11
68.5166663969
 21
166.3419480892
  0
LINE
  5
224
100
AcDbEntity
  8
RUNDUNGEN
100
AcDbLine
 62
7
  6
CONTINUOUS
 10
76.0166663969
 20
133.8419480892
 11
76.0166663969
 21
127.0419480892
  0
LINE
  5
225
100
AcDbEntity
  8
0
100
AcDbLine
 62
7
  6
CONTINUOUS
 10
76.5166663969
 20
177.3419480892
 11
76.5166663969
 21
166.3419480892
  0
LINE
  5
226
100
AcDbEntity
  8
0
100
AcDbLine
 62
7
  6
CONTINUOUS
 10
77.1479417588
 20
134.3419480892
 11
76.5166663969
 21
134.3419480892
  0
LINE
  5
227
100
AcDbEntity
  8
FASEN
100
AcDbLine
 62
7
  6
CONTINUOUS
 10
104.4818180238
 20
134.5465057633
 11
91.0166663969
 21
134.5465057633
  0
LINE
  5
228
100
AcDbEntity
  8
RUNDUNGEN
100
AcDbLine
 62
7
  6
CONTINUOUS
 10
91.0166663969
 20
134.5465057633
 11
77.5512979516
 21
134.5463238309
  0
LINE
  5
229
100
AcDbEntity
  8
FASEN
100
AcDbLine
 62
7
  6
CONTINUOUS
 10
104.1294943138
 20
134.8419480892
 11
77.90383848
 21
134.8419480892
  0
LINE
  5
22A
100
AcDbEntity
  8
0
100
AcDbLine
 62
7
  6
CONTINUOUS
 10
77.5166663969
 20
125.6457879944
 11
77.5166663969
 21
115.8419480892
  0
LINE
  5
22B
100
AcDbEntity
  8
RUNDUNGEN
100
AcDbLine
 62
7
  6
CONTINUOUS
 10
77.5166663969
 20
125.6457879944
 11
77.5166663969
 21
130.2074202714
  0
LINE
  5
22C
100
AcDbEntity
  8
BEZUGSACHSEN
100
AcDbLine
 62
7
  6
CONTINUOUS
 10
78.0166663969
 20
134.8419480892
 11
78.0166663969
 21
136.3419480892
  0
LINE
  5
22D
100
AcDbEntity
  8
0
100
AcDbLine
 62
7
  6
CONTINUOUS
 10
78.5359042834
 20
125.6457879944
 11
78.5359042834
 21
115.8419480892
  0
LINE
  5
22E
100
AcDbEntity
  8
BEZUGSACHSEN
100
AcDbLine
 62
7
  6
CONTINUOUS
 10
102.5166663969
 20
137.8419480892
 11
98.274694943
 21
137.8419480892
  0
LINE
  5
22F
100
AcDbEntity
  8
BEZUGSACHSEN
100
AcDbLine
 62
7
  6
CONTINUOUS
 10
79.5166663969
 20
137.8419480892
 11
83.7586378508
 21
137.8419480892
  0
LINE
  5
230
100
AcDbEntity
  8
0
100
AcDbLine
 62
7
  6
CONTINUOUS
 10
87.0166663969
 20
115.8419480892
 11
87.0166663969
 21
103.3419480892
  0
LINE
  5
231
100
AcDbEntity
  8
0
100
AcDbLine
 62
7
  6
CONTINUOUS
 10
87.7666663969
 20
152.2207406119
 11
87.7666663969
 21
156.3827680457
  0
LINE
  5
232
100
AcDbEntity
  8
FASEN
100
AcDbLine
 62
7
  6
CONTINUOUS
 10
104.1297235705
 20
134.8419480892
 11
104.4818180238
 21
134.5465057633
  0
LINE
  5
233
100
AcDbEntity
  8
RUNDUNGEN
100
AcDbLine
 62
7
  6
CONTINUOUS
 10
88.2666663969
 20
159.0941820021
 11
88.2666663969
 21
155.684715121
  0
LINE
  5
234
100
AcDbEntity
  8
BEZUGSACHSEN
100
AcDbLine
 62
7
  6
CONTINUOUS
 10
88.2666663969
 20
155.684715121
 11
88.2666663969
 21
148.9289023815
  0
LINE
  5
235
100
AcDbEntity
  8
0
100
AcDbLine
 62
7
  6
CONTINUOUS
 10
89.9974285104
 20
125.6457879944
 11
89.9974285104
 21
115.8419480892
  0
LINE
  5
236
100
AcDbEntity
  8
BEZUGSACHSEN
100
AcDbLine
 62
7
  6
CONTINUOUS
 10
87.7239011515
 20
145.8507128333
 11
85.1681767952
 21
138.8289178743
  0
LINE
  5
237
100
AcDbEntity
  8
0
100
AcDbLine
 62
7
  6
CONTINUOUS
 10
92.0359042834
 20
125.6457879944
 11
92.0359042834
 21
115.8419480892
  0
LINE
  5
238
100
AcDbEntity
  8
RUNDUNGEN
100
AcDbLine
 62
7
  6
CONTINUOUS
 10
93.7666663969
 20
159.0947714884
 11
93.7666663969
 21
148.9289023815
  0
LINE
  5
239
100
AcDbEntity
  8
0
100
AcDbLine
 62
7
  6
CONTINUOUS
 10
95.0166663969
 20
115.8419480892
 11
95.0166663969
 21
103.3419480892
  0
LINE
  5
23A
100
AcDbEntity
  8
RUNDUNGEN
100
AcDbLine
 62
7
  6
CONTINUOUS
 10
77.5515090418
 20
134.5465009032
 11
77.4991002953
 21
134.4858257494
  0
LINE
  5
23B
100
AcDbEntity
  8
0
100
AcDbLine
 62
7
  6
CONTINUOUS
 10
88.2666663969
 20
152.2875563256
 11
87.7666663969
 21
152.2875563256
  0
LINE
  5
23C
100
AcDbEntity
  8
0
100
AcDbLine
 62
7
  6
CONTINUOUS
 10
88.2666663969
 20
152.3139407734
 11
87.7666663969
 21
152.3139407734
  0
LINE
  5
23D
100
AcDbEntity
  8
0
100
AcDbLine
 62
7
  6
CONTINUOUS
 10
88.2666663969
 20
153.4357287947
 11
87.7666663969
 21
153.4357287947
  0
LINE
  5
23E
100
AcDbEntity
  8
0
100
AcDbLine
 62
7
  6
CONTINUOUS
 10
88.2666663969
 20
153.5842130245
 11
87.7666663969
 21
153.5842130245
  0
LINE
  5
23F
100
AcDbEntity
  8
0
100
AcDbLine
 62
7
  6
CONTINUOUS
 10
88.2666663969
 20
154.2771390526
 11
87.7666663969
 21
154.2771390526
  0
LINE
  5
240
100
AcDbEntity
  8
0
100
AcDbLine
 62
7
  6
CONTINUOUS
 10
88.2666663969
 20
154.4256232824
 11
87.7666663969
 21
154.4256232824
  0
LINE
  5
241
100
AcDbEntity
  8
0
100
AcDbLine
 62
7
  6
CONTINUOUS
 10
88.2666663969
 20
154.5275780195
 11
87.7666663969
 21
154.5275780195
  0
LINE
  5
242
100
AcDbEntity
  8
0
100
AcDbLine
 62
7
  6
CONTINUOUS
 10
88.2666663969
 20
154.7385217288
 11
87.7666663969
 21
154.7385217288
  0
LINE
  5
243
100
AcDbEntity
  8
0
100
AcDbLine
 62
7
  6
CONTINUOUS
 10
88.2666663969
 20
154.8833663457
 11
87.7666663969
 21
154.8833663457
  0
LINE
  5
244
100
AcDbEntity
  8
0
100
AcDbLine
 62
7
  6
CONTINUOUS
 10
88.2666663969
 20
155.095089337
 11
87.7666663969
 21
155.095089337
  0
LINE
  5
245
100
AcDbEntity
  8
0
100
AcDbLine
 62
7
  6
CONTINUOUS
 10
88.2666663969
 20
155.3094692451
 11
87.7666663969
 21
155.3094692451
  0
LINE
  5
246
100
AcDbEntity
  8
RUNDUNGEN
100
AcDbLine
 62
7
  6
CONTINUOUS
 10
94.3094316424
 20
145.8507128333
 11
96.8651559986
 21
138.8289178743
  0
LINE
  5
247
100
AcDbEntity
  8
FASEN
100
AcDbLine
 62
7
  6
CONTINUOUS
 10
77.9036092233
 20
134.8419480892
 11
77.5513220446
 21
134.5463440475
  0
LWPOLYLINE
  5
248
100
AcDbEntity
  8
RUNDUNGEN
100
AcDbPolyline
 62
7
  6
CONTINUOUS
 90
6
 70
0
 10
77.4991002953
 20
134.4858257494
 10
77.4303473764
 20
134.429205936
 10
77.3525320671
 20
134.3856347993
 10
77.2680930272
 20
134.356551255
 10
77.1797071299
 20
134.3429458722
 10
77.1481351871
 20
134.3419480868
  0
LINE
  5
249
100
AcDbEntity
  8
0
100
AcDbLine
 62
7
  6
CONTINUOUS
 10
88.2666663969
 20
155.4447850807
 11
87.7666663969
 21
155.4447850807
  0
LINE
  5
24A
100
AcDbEntity
  8
0
100
AcDbLine
 62
7
  6
CONTINUOUS
 10
88.2666663969
 20
155.5546315794
 11
87.7666663969
 21
155.5546315794
  0
LINE
  5
24B
100
AcDbEntity
  8
0
100
AcDbLine
 62
7
  6
CONTINUOUS
 10
88.2666663969
 20
155.681197805
 11
87.7666663969
 21
155.681197805
  0
LINE
  5
24C
100
AcDbEntity
  8
0
100
AcDbLine
 62
7
  6
CONTINUOUS
 10
88.2666663969
 20
155.7119802312
 11
87.7666663969
 21
155.7119802312
  0
LINE
  5
24D
100
AcDbEntity
  8
0
100
AcDbLine
 62
7
  6
CONTINUOUS
 10
88.2666663969
 20
155.7709114408
 11
87.7666663969
 21
155.7709114408
  0
LINE
  5
24E
100
AcDbEntity
  8
0
100
AcDbLine
 62
7
  6
CONTINUOUS
 10
88.2666663969
 20
155.9571624778
 11
87.7666663969
 21
155.9571624778
  0
LINE
  5
24F
100
AcDbEntity
  8
0
100
AcDbLine
 62
7
  6
CONTINUOUS
 10
88.2666663969
 20
156.1074838044
 11
87.7666663969
 21
156.1074838044
  0
LINE
  5
250
100
AcDbEntity
  8
0
100
AcDbLine
 62
7
  6
CONTINUOUS
 10
88.2666663969
 20
156.1798700004
 11
87.7666663969
 21
156.1798700004
  0
LINE
  5
251
100
AcDbEntity
  8
0
100
AcDbLine
 62
7
  6
CONTINUOUS
 10
88.2666663969
 20
156.3256959429
 11
87.7666663969
 21
156.3256959429
  0
LINE
  5
252
100
AcDbEntity
  8
0
100
AcDbLine
 62
7
  6
CONTINUOUS
 10
88.2666663969
 20
156.3827680457
 11
87.7666663969
 21
156.3827680457
  0
LINE
  5
253
100
AcDbEntity
  8
RUNDUNGEN
100
AcDbLine
 62
7
  6
CONTINUOUS
 10
92.2666663969
 20
160.5947714884
 11
89.7666663969
 21
160.5947714884
  0
LINE
  5
254
100
AcDbEntity
  8
BEZUGSACHSEN
100
AcDbLine
 62
7
  6
CONTINUOUS
 10
104.4818180238
 20
134.5465057633
 11
104.5201838234
 21
134.3289225016
  0
LINE
  5
255
100
AcDbEntity
  8
0
100
AcDbLine
 62
7
  6
CONTINUOUS
 10
103.4974285104
 20
125.6457879944
 11
103.4974285104
 21
115.8419480892
  0
LINE
  5
256
100
AcDbEntity
  8
BEZUGSACHSEN
100
AcDbLine
 62
7
  6
CONTINUOUS
 10
104.0166663969
 20
136.3419480892
 11
104.0166663969
 21
134.8419480892
  0
LINE
  5
257
100
AcDbEntity
  8
0
100
AcDbLine
 62
7
  6
CONTINUOUS
 10
104.5166663969
 20
134.3494110266
 11
104.5166663969
 21
115.8419480892
  0
LINE
  5
258
100
AcDbEntity
  8
0
100
AcDbLine
 62
7
  6
CONTINUOUS
 10
105.5166663969
 20
166.3419480892
 11
105.5166663969
 21
177.3419480892
  0
LINE
  5
259
100
AcDbEntity
  8
0
100
AcDbLine
 62
7
  6
CONTINUOUS
 10
113.5166663969
 20
166.3419480892
 11
113.5166663969
 21
177.3419480892
  0
LINE
  5
25A
100
AcDbEntity
  8
0
100
AcDbLine
 62
7
  6
CONTINUOUS
 10
95.0166663969
 20
103.3419480892
 11
94.5166663969
 21
102.8419480892
  0
LINE
  5
25B
100
AcDbEntity
  8
0
100
AcDbLine
 62
7
  6
CONTINUOUS
 10
190.9884355009
 20
102.8419480892
 11
183.9884355009
 21
102.8419480892
  0
LINE
  5
25C
100
AcDbEntity
  8
0
100
AcDbLine
 62
7
  6
CONTINUOUS
 10
191.4884355009
 20
103.3419480892
 11
183.4884355009
 21
103.3419480892
  0
LINE
  5
25D
100
AcDbEntity
  8
0
100
AcDbLine
 62
7
  6
CONTINUOUS
 10
202.4884355009
 20
115.8419480892
 11
172.4884355009
 21
115.8419480892
  0
LINE
  5
25E
100
AcDbEntity
  8
RUNDUNGEN
100
AcDbLine
 62
7
  6
CONTINUOUS
 10
183.9884355009
 20
116.8419480892
 11
190.9884355009
 21
116.8419480892
  0
LINE
  5
25F
100
AcDbEntity
  8
0
100
AcDbLine
 62
7
  6
CONTINUOUS
 10
183.4884355009
 20
103.3419480892
 11
183.9884355009
 21
102.8419480892
  0
LINE
  5
260
100
AcDbEntity
  8
KONSTRUKTIONSELEMENTE
100
AcDbLine
 62
7
  6
CONTINUOUS
 10
189.4009353937
 20
118.4449268117
 11
189.1759356082
 21
118.3810970321
  0
LINE
  5
261
100
AcDbEntity
  8
KONSTRUKTIONSELEMENTE
100
AcDbLine
 62
7
  6
CONTINUOUS
 10
188.7259353937
 20
119.4023736402
 11
188.9509355009
 21
119.4662034198
  0
LINE
  5
262
100
AcDbEntity
  8
KONSTRUKTIONSELEMENTE
100
AcDbLine
 62
7
  6
CONTINUOUS
 10
189.4009353937
 20
119.7853523179
 11
189.1759356082
 21
119.7215225383
  0
LINE
  5
263
100
AcDbEntity
  8
KONSTRUKTIONSELEMENTE
100
AcDbLine
 62
7
  6
CONTINUOUS
 10
189.2321853937
 20
118.0619480892
 11
189.5134356082
 21
118.1257778745
  0
LINE
  5
264
100
AcDbEntity
  8
KONSTRUKTIONSELEMENTE
100
AcDbLine
 62
7
  6
CONTINUOUS
 10
184.9009355009
 20
118.0619480892
 11
185.2384355009
 21
118.0619480892
  0
LINE
  5
265
100
AcDbEntity
  8
KONSTRUKTIONSELEMENTE
100
AcDbLine
 62
7
  6
CONTINUOUS
 10
186.0259354741
 20
118.0619480892
 11
186.4759354473
 21
118.0619480892
  0
LINE
  5
266
100
AcDbEntity
  8
KONSTRUKTIONSELEMENTE
100
AcDbLine
 62
7
  6
CONTINUOUS
 10
187.2634355009
 20
118.0619480892
 11
187.6009355009
 21
118.0619480892
  0
LINE
  5
267
100
AcDbEntity
  8
KONSTRUKTIONSELEMENTE
100
AcDbLine
 62
7
  6
CONTINUOUS
 10
188.8946853937
 20
118.0619480892
 11
189.2321853937
 21
118.0619480892
  0
LINE
  5
268
100
AcDbEntity
  8
KONSTRUKTIONSELEMENTE
100
AcDbLine
 62
7
  6
CONTINUOUS
 10
189.1759356082
 20
118.3810970321
 11
188.9509355009
 21
118.3810970321
  0
LINE
  5
269
100
AcDbEntity
  8
KONSTRUKTIONSELEMENTE
100
AcDbLine
 62
7
  6
CONTINUOUS
 10
188.9509355009
 20
119.4662034198
 11
189.1759356082
 21
119.4662034198
  0
LINE
  5
26A
100
AcDbEntity
  8
KONSTRUKTIONSELEMENTE
100
AcDbLine
 62
7
  6
CONTINUOUS
 10
189.1759356082
 20
119.7215225383
 11
188.9509355009
 21
119.7215225383
  0
LINE
  5
26B
100
AcDbEntity
  8
KONSTRUKTIONSELEMENTE
100
AcDbLine
 62
7
  6
CONTINUOUS
 10
188.9509355009
 20
120.7427991911
 11
189.1759356082
 21
120.7427991911
  0
LINE
  5
26C
100
AcDbEntity
  8
KONSTRUKTIONSELEMENTE
100
AcDbLine
 62
7
  6
CONTINUOUS
 10
189.1759356082
 20
121.0619480892
 11
188.9509355009
 21
121.0619480892
  0
LINE
  5
26D
100
AcDbEntity
  8
KONSTRUKTIONSELEMENTE
100
AcDbLine
 62
7
  6
CONTINUOUS
 10
187.6009355009
 20
121.0619480892
 11
187.0946855009
 21
121.0619480892
  0
LINE
  5
26E
100
AcDbEntity
  8
KONSTRUKTIONSELEMENTE
100
AcDbLine
 62
7
  6
CONTINUOUS
 10
185.4071855009
 20
121.0619480892
 11
184.9009355009
 21
121.0619480892
  0
LINE
  5
26F
100
AcDbEntity
  8
KONSTRUKTIONSELEMENTE
100
AcDbLine
 62
7
  6
CONTINUOUS
 10
188.6134355009
 20
118.1257778745
 11
188.8946853937
 21
118.0619480892
  0
LINE
  5
270
100
AcDbEntity
  8
KONSTRUKTIONSELEMENTE
100
AcDbLine
 62
7
  6
CONTINUOUS
 10
188.9509355009
 20
118.3810970321
 11
188.7259353937
 21
118.4449268117
  0
LINE
  5
271
100
AcDbEntity
  8
KONSTRUKTIONSELEMENTE
100
AcDbLine
 62
7
  6
CONTINUOUS
 10
189.1759356082
 20
119.4662034198
 11
189.4009353937
 21
119.4023736402
  0
LINE
  5
272
100
AcDbEntity
  8
KONSTRUKTIONSELEMENTE
100
AcDbLine
 62
7
  6
CONTINUOUS
 10
188.9509355009
 20
119.7215225383
 11
188.7259353937
 21
119.7853523179
  0
LINE
  5
273
100
AcDbEntity
  8
KONSTRUKTIONSELEMENTE
100
AcDbLine
 62
7
  6
CONTINUOUS
 10
188.7259353937
 20
120.6789694115
 11
188.9509355009
 21
120.7427991911
  0
LINE
  5
274
100
AcDbEntity
  8
KONSTRUKTIONSELEMENTE
100
AcDbLine
 62
7
  6
CONTINUOUS
 10
184.1290607096
 20
122.8442885076
 11
183.9207273514
 21
122.7910970246
  0
LINE
  5
275
100
AcDbEntity
  8
KONSTRUKTIONSELEMENTE
100
AcDbLine
 62
7
  6
CONTINUOUS
 10
188.9509355009
 20
121.0619480892
 11
188.6696856082
 21
120.9981183096
  0
LINE
  5
276
100
AcDbEntity
  8
KONSTRUKTIONSELEMENTE
100
AcDbLine
 62
7
  6
CONTINUOUS
 10
183.9207273514
 20
122.4719480892
 11
184.1811439932
 21
122.5251395769
  0
LINE
  5
277
100
AcDbEntity
  8
KONSTRUKTIONSELEMENTE
100
AcDbLine
 62
7
  6
CONTINUOUS
 10
183.5040606351
 20
122.4719480892
 11
183.9207273514
 21
122.4719480892
  0
LINE
  5
278
100
AcDbEntity
  8
KONSTRUKTIONSELEMENTE
100
AcDbLine
 62
7
  6
CONTINUOUS
 10
185.5353105605
 20
122.4719480892
 11
185.9519774259
 21
122.4719480892
  0
LINE
  5
279
100
AcDbEntity
  8
KONSTRUKTIONSELEMENTE
100
AcDbLine
 62
7
  6
CONTINUOUS
 10
186.7853105605
 20
122.4719480892
 11
187.2019774259
 21
122.4719480892
  0
LINE
  5
27A
100
AcDbEntity
  8
KONSTRUKTIONSELEMENTE
100
AcDbLine
 62
7
  6
CONTINUOUS
 10
188.0353108586
 20
122.4719480892
 11
189.9103108586
 21
122.4719480892
  0
LINE
  5
27B
100
AcDbEntity
  8
KONSTRUKTIONSELEMENTE
100
AcDbLine
 62
7
  6
CONTINUOUS
 10
190.8478108586
 20
122.4719480892
 11
191.1603108586
 21
122.4719480892
  0
LINE
  5
27C
100
AcDbEntity
  8
KONSTRUKTIONSELEMENTE
100
AcDbLine
 62
7
  6
CONTINUOUS
 10
189.9103108586
 20
122.7379055416
 11
188.4519771279
 21
122.7379055416
  0
LINE
  5
27D
100
AcDbEntity
  8
KONSTRUKTIONSELEMENTE
100
AcDbLine
 62
7
  6
CONTINUOUS
 10
183.9207273514
 20
122.7910970246
 11
183.5040606351
 21
122.7910970246
  0
LINE
  5
27E
100
AcDbEntity
  8
KONSTRUKTIONSELEMENTE
100
AcDbLine
 62
7
  6
CONTINUOUS
 10
183.0873939932
 20
123.163437443
 11
182.7748939932
 21
123.163437443
  0
LINE
  5
27F
100
AcDbEntity
  8
KONSTRUKTIONSELEMENTE
100
AcDbLine
 62
7
  6
CONTINUOUS
 10
183.6082273514
 20
123.5889693817
 11
183.9207273514
 21
123.5889693817
  0
LINE
  5
280
100
AcDbEntity
  8
KONSTRUKTIONSELEMENTE
100
AcDbLine
 62
7
  6
CONTINUOUS
 10
183.9207273514
 20
123.9081182798
 11
183.6082273514
 21
123.9081182798
  0
LINE
  5
281
100
AcDbEntity
  8
KONSTRUKTIONSELEMENTE
100
AcDbLine
 62
7
  6
CONTINUOUS
 10
184.2332272769
 20
124.386841776
 11
184.5457272769
 21
124.386841776
  0
LINE
  5
282
100
AcDbEntity
  8
KONSTRUKTIONSELEMENTE
100
AcDbLine
 62
7
  6
CONTINUOUS
 10
188.0873939932
 20
124.386841776
 11
188.3478108586
 21
124.386841776
  0
LINE
  5
283
100
AcDbEntity
  8
KONSTRUKTIONSELEMENTE
100
AcDbLine
 62
7
  6
CONTINUOUS
 10
183.6082273514
 20
124.6527991911
 11
183.9207273514
 21
124.6527991911
  0
LINE
  5
284
100
AcDbEntity
  8
KONSTRUKTIONSELEMENTE
100
AcDbLine
 62
7
  6
CONTINUOUS
 10
188.8686439932
 20
124.7059906741
 11
189.0769771279
 21
124.7059906741
  0
LINE
  5
285
100
AcDbEntity
  8
KONSTRUKTIONSELEMENTE
100
AcDbLine
 62
7
  6
CONTINUOUS
 10
190.3269771279
 20
124.7059906741
 11
191.8894771279
 21
124.7059906741
  0
LINE
  5
286
100
AcDbEntity
  8
KONSTRUKTIONSELEMENTE
100
AcDbLine
 62
7
  6
CONTINUOUS
 10
183.2436439932
 20
122.5251395769
 11
183.5040606351
 21
122.4719480892
  0
LINE
  5
287
100
AcDbEntity
  8
KONSTRUKTIONSELEMENTE
100
AcDbLine
 62
7
  6
CONTINUOUS
 10
184.1811439932
 20
123.8549267968
 11
183.9207273514
 21
123.9081182798
  0
LINE
  5
288
100
AcDbEntity
  8
KONSTRUKTIONSELEMENTE
100
AcDbLine
 62
7
  6
CONTINUOUS
 10
189.4571855009
 20
120.9981183096
 11
189.1759356082
 21
121.0619480892
  0
LINE
  5
289
100
AcDbEntity
  8
KONSTRUKTIONSELEMENTE
100
AcDbLine
 62
7
  6
CONTINUOUS
 10
183.5040606351
 20
122.7910970246
 11
183.2957273141
 21
122.8442885076
  0
LINE
  5
28A
100
AcDbEntity
  8
KONSTRUKTIONSELEMENTE
100
AcDbLine
 62
7
  6
CONTINUOUS
 10
183.3998939932
 20
123.6421608647
 11
183.6082273514
 21
123.5889693817
  0
LINE
  5
28B
100
AcDbEntity
  8
KONSTRUKTIONSELEMENTE
100
AcDbLine
 62
7
  6
CONTINUOUS
 10
183.9207273514
 20
123.5889693817
 11
184.1290607096
 21
123.5357778987
  0
LINE
  5
28C
100
AcDbEntity
  8
KONSTRUKTIONSELEMENTE
100
AcDbLine
 62
7
  6
CONTINUOUS
 10
189.1759356082
 20
120.7427991911
 11
189.4009353937
 21
120.6789694115
  0
LINE
  5
28D
100
AcDbEntity
  8
KONSTRUKTIONSELEMENTE
100
AcDbLine
 62
7
  6
CONTINUOUS
 10
183.6082273514
 20
123.9081182798
 11
183.4519773514
 21
123.9613097628
  0
LINE
  5
28E
100
AcDbEntity
  8
KONSTRUKTIONSELEMENTE
100
AcDbLine
 62
7
  6
CONTINUOUS
 10
188.7259353937
 20
118.4449268117
 11
188.5009356082
 21
118.5725863709
  0
LINE
  5
28F
100
AcDbEntity
  8
KONSTRUKTIONSELEMENTE
100
AcDbLine
 62
7
  6
CONTINUOUS
 10
188.3884353937
 20
119.6576927587
 11
188.5009356082
 21
119.5938629791
  0
LINE
  5
290
100
AcDbEntity
  8
KONSTRUKTIONSELEMENTE
100
AcDbLine
 62
7
  6
CONTINUOUS
 10
189.4009353937
 20
119.4023736402
 11
189.6259355009
 21
119.2747140809
  0
LINE
  5
291
100
AcDbEntity
  8
KONSTRUKTIONSELEMENTE
100
AcDbLine
 62
7
  6
CONTINUOUS
 10
182.9832273328
 20
122.6847140399
 11
183.2436439932
 21
122.5251395769
  0
LINE
  5
292
100
AcDbEntity
  8
KONSTRUKTIONSELEMENTE
100
AcDbLine
 62
7
  6
CONTINUOUS
 10
188.3321856082
 20
118.3172672301
 11
188.6134355009
 21
118.1257778745
  0
LINE
  5
293
100
AcDbEntity
  8
KONSTRUKTIONSELEMENTE
100
AcDbLine
 62
7
  6
CONTINUOUS
 10
183.6082273514
 20
124.9719480892
 11
183.3998939932
 21
124.9187566062
  0
LINE
  5
294
100
AcDbEntity
  8
KONSTRUKTIONSELEMENTE
100
AcDbLine
 62
7
  6
CONTINUOUS
 10
188.6082271279
 20
124.6527991911
 11
188.8686439932
 21
124.7059906741
  0
LINE
  5
295
100
AcDbEntity
  8
KONSTRUKTIONSELEMENTE
100
AcDbLine
 62
7
  6
CONTINUOUS
 10
188.9207271279
 20
124.9719480892
 11
188.5561439932
 21
124.9187566062
  0
LINE
  5
296
100
AcDbEntity
  8
KONSTRUKTIONSELEMENTE
100
AcDbLine
 62
7
  6
CONTINUOUS
 10
192.2019771279
 20
124.9719480892
 11
190.3269771279
 21
124.9719480892
  0
LINE
  5
297
100
AcDbEntity
  8
KONSTRUKTIONSELEMENTE
100
AcDbLine
 62
7
  6
CONTINUOUS
 10
189.1290608586
 20
124.9719480892
 11
188.9207271279
 21
124.9719480892
  0
LINE
  5
298
100
AcDbEntity
  8
KONSTRUKTIONSELEMENTE
100
AcDbLine
 62
7
  6
CONTINUOUS
 10
187.6186439932
 20
124.9719480892
 11
187.3061439932
 21
124.9719480892
  0
LINE
  5
299
100
AcDbEntity
  8
KONSTRUKTIONSELEMENTE
100
AcDbLine
 62
7
  6
CONTINUOUS
 10
186.5769774259
 20
124.9719480892
 11
186.1603105605
 21
124.9719480892
  0
LINE
  5
29A
100
AcDbEntity
  8
KONSTRUKTIONSELEMENTE
100
AcDbLine
 62
7
  6
CONTINUOUS
 10
185.4311439932
 20
124.9719480892
 11
185.1186439932
 21
124.9719480892
  0
LINE
  5
29B
100
AcDbEntity
  8
KONSTRUKTIONSELEMENTE
100
AcDbLine
 62
7
  6
CONTINUOUS
 10
183.8686439932
 20
124.9719480892
 11
183.6082273514
 21
124.9719480892
  0
LINE
  5
29C
100
AcDbEntity
  8
RUNDUNGEN
100
AcDbLine
 62
7
  6
CONTINUOUS
 10
183.9884355009
 20
126.5419480892
 11
190.9884355009
 21
126.5419480892
  0
LINE
  5
29D
100
AcDbEntity
  8
KONSTRUKTIONSELEMENTE
100
AcDbLine
 62
7
  6
CONTINUOUS
 10
189.4415608586
 20
124.9187566062
 11
189.1290608586
 21
124.9719480892
  0
LINE
  5
29E
100
AcDbEntity
  8
KONSTRUKTIONSELEMENTE
100
AcDbLine
 62
7
  6
CONTINUOUS
 10
184.1290607096
 20
124.9187566062
 11
183.8686439932
 21
124.9719480892
  0
LINE
  5
29F
100
AcDbEntity
  8
KONSTRUKTIONSELEMENTE
100
AcDbLine
 62
7
  6
CONTINUOUS
 10
189.0769771279
 20
124.7059906741
 11
189.3373939932
 21
124.6527991911
  0
LINE
  5
2A0
100
AcDbEntity
  8
KONSTRUKTIONSELEMENTE
100
AcDbLine
 62
7
  6
CONTINUOUS
 10
183.9207273514
 20
124.6527991911
 11
184.0769772769
 21
124.5996077081
  0
LINE
  5
2A1
100
AcDbEntity
  8
KONSTRUKTIONSELEMENTE
100
AcDbLine
 62
7
  6
CONTINUOUS
 10
183.1915606723
 20
123.7485438307
 11
183.3998939932
 21
123.6421608647
  0
LINE
  5
2A2
100
AcDbEntity
  8
KONSTRUKTIONSELEMENTE
100
AcDbLine
 62
7
  6
CONTINUOUS
 10
184.3894772769
 20
123.7485438307
 11
184.1811439932
 21
123.8549267968
  0
LINE
  5
2A3
100
AcDbEntity
  8
KONSTRUKTIONSELEMENTE
100
AcDbLine
 62
7
  6
CONTINUOUS
 10
189.7384353937
 20
119.5300331994
 11
189.6259355009
 21
119.5938629791
  0
LINE
  5
2A4
100
AcDbEntity
  8
KONSTRUKTIONSELEMENTE
100
AcDbLine
 62
7
  6
CONTINUOUS
 10
183.4519773514
 20
123.9613097628
 11
183.2957273141
 21
124.0676927289
  0
LINE
  5
2A5
100
AcDbEntity
  8
KONSTRUKTIONSELEMENTE
100
AcDbLine
 62
7
  6
CONTINUOUS
 10
184.1290607096
 20
123.5357778987
 11
184.2853107096
 21
123.4293949326
  0
LINE
  5
2A6
100
AcDbEntity
  8
KONSTRUKTIONSELEMENTE
100
AcDbLine
 62
7
  6
CONTINUOUS
 10
189.7384353937
 20
120.8066289707
 11
189.4571855009
 21
120.9981183096
  0
LINE
  5
2A7
100
AcDbEntity
  8
KONSTRUKTIONSELEMENTE
100
AcDbLine
 62
7
  6
CONTINUOUS
 10
189.6498939932
 20
124.8123736402
 11
189.4415608586
 21
124.9187566062
  0
LINE
  5
2A8
100
AcDbEntity
  8
KONSTRUKTIONSELEMENTE
100
AcDbLine
 62
7
  6
CONTINUOUS
 10
189.3373939932
 20
124.6527991911
 11
189.4936439932
 21
124.5464162251
  0
LINE
  5
2A9
100
AcDbEntity
  8
KONSTRUKTIONSELEMENTE
100
AcDbLine
 62
7
  6
CONTINUOUS
 10
184.3373939932
 20
124.7591821572
 11
184.1290607096
 21
124.9187566062
  0
LINE
  5
2AA
100
AcDbEntity
  8
KONSTRUKTIONSELEMENTE
100
AcDbLine
 62
7
  6
CONTINUOUS
 10
188.7259353937
 20
119.7853523179
 11
188.5009356082
 21
119.9768416568
  0
LINE
  5
2AB
100
AcDbEntity
  8
KONSTRUKTIONSELEMENTE
100
AcDbLine
 62
7
  6
CONTINUOUS
 10
189.9634355009
 20
119.3385438606
 11
189.7384353937
 21
119.5300331994
  0
LINE
  5
2AC
100
AcDbEntity
  8
KONSTRUKTIONSELEMENTE
100
AcDbLine
 62
7
  6
CONTINUOUS
 10
189.4009353937
 20
120.6789694115
 11
189.6259355009
 21
120.4874800726
  0
LINE
  5
2AD
100
AcDbEntity
  8
KONSTRUKTIONSELEMENTE
100
AcDbLine
 62
7
  6
CONTINUOUS
 10
183.2957273141
 20
122.8442885076
 11
183.1394773141
 21
123.003862994
  0
LINE
  5
2AE
100
AcDbEntity
  8
KONSTRUKTIONSELEMENTE
100
AcDbLine
 62
7
  6
CONTINUOUS
 10
182.9832273328
 20
123.9613097628
 11
183.1915606723
 21
123.7485438307
  0
LINE
  5
2AF
100
AcDbEntity
  8
KONSTRUKTIONSELEMENTE
100
AcDbLine
 62
7
  6
CONTINUOUS
 10
184.5978107096
 20
123.5357778987
 11
184.3894772769
 21
123.7485438307
  0
LINE
  5
2B0
100
AcDbEntity
  8
KONSTRUKTIONSELEMENTE
100
AcDbLine
 62
7
  6
CONTINUOUS
 10
184.0769772769
 20
124.5996077081
 11
184.1811439932
 21
124.4932247421
  0
LINE
  5
2B1
100
AcDbEntity
  8
KONSTRUKTIONSELEMENTE
100
AcDbLine
 62
7
  6
CONTINUOUS
 10
188.1634356082
 20
118.5087565913
 11
188.3321856082
 21
118.3172672301
  0
LINE
  5
2B2
100
AcDbEntity
  8
KONSTRUKTIONSELEMENTE
100
AcDbLine
 62
7
  6
CONTINUOUS
 10
188.2196853937
 20
119.8491820976
 11
188.3884353937
 21
119.6576927587
  0
LINE
  5
2B3
100
AcDbEntity
  8
RUNDUNGEN
100
AcDbLine
 62
7
  6
CONTINUOUS
 10
200.9535871279
 20
134.5465057633
 11
174.023283874
 21
134.5465057633
  0
LINE
  5
2B4
100
AcDbEntity
  8
FASEN
100
AcDbLine
 62
7
  6
CONTINUOUS
 10
200.6014926745
 20
134.8419480892
 11
174.3753783274
 21
134.8419480892
  0
LINE
  5
2B5
100
AcDbEntity
  8
KONSTRUKTIONSELEMENTE
100
AcDbLine
 62
7
  6
CONTINUOUS
 10
189.8582271279
 20
124.5996077081
 11
189.6498939932
 21
124.8123736402
  0
LINE
  5
2B6
100
AcDbEntity
  8
KONSTRUKTIONSELEMENTE
100
AcDbLine
 62
7
  6
CONTINUOUS
 10
189.9071853937
 20
120.6151396319
 11
189.7384353937
 21
120.8066289707
  0
LINE
  5
2B7
100
AcDbEntity
  8
KONSTRUKTIONSELEMENTE
100
AcDbLine
 62
7
  6
CONTINUOUS
 10
184.4936439932
 20
124.5464162251
 11
184.3373939932
 21
124.7591821572
  0
LINE
  5
2B8
100
AcDbEntity
  8
KONSTRUKTIONSELEMENTE
100
AcDbLine
 62
7
  6
CONTINUOUS
 10
188.5009356082
 20
118.5725863709
 11
188.3321856082
 21
118.8279055341
  0
LINE
  5
2B9
100
AcDbEntity
  8
KONSTRUKTIONSELEMENTE
100
AcDbLine
 62
7
  6
CONTINUOUS
 10
184.2853107096
 20
123.4293949326
 11
184.3894772769
 21
123.2698204091
  0
LINE
  5
2BA
100
AcDbEntity
  8
KONSTRUKTIONSELEMENTE
100
AcDbLine
 62
7
  6
CONTINUOUS
 10
182.8269773281
 20
122.9506715109
 11
182.9832273328
 21
122.6847140399
  0
LINE
  5
2BB
100
AcDbEntity
  8
0
100
AcDbLine
 62
7
  6
CONTINUOUS
 10
172.4884355009
 20
125.6457879944
 11
172.4884355009
 21
115.8419480892
  0
LINE
  5
2BC
100
AcDbEntity
  8
RUNDUNGEN
100
AcDbLine
 62
7
  6
CONTINUOUS
 10
172.4884355009
 20
125.6457879944
 11
172.4884355009
 21
125.8419480892
  0
LINE
  5
2BD
100
AcDbEntity
  8
BEZUGSACHSEN
100
AcDbLine
 62
7
  6
CONTINUOUS
 10
196.4086945676
 20
137.8419480892
 11
178.5681764343
 21
137.8419480892
  0
LINE
  5
2BE
100
AcDbEntity
  8
KONSTRUKTIONSELEMENTE
100
AcDbLine
 62
7
  6
CONTINUOUS
 10
189.6259355009
 20
119.2747140809
 11
189.7946855009
 21
119.019394873
  0
LINE
  5
2BF
100
AcDbEntity
  8
KONSTRUKTIONSELEMENTE
100
AcDbLine
 62
7
  6
CONTINUOUS
 10
188.5009356082
 20
119.9768416568
 11
188.3884353937
 21
120.1683309957
  0
LINE
  5
2C0
100
AcDbEntity
  8
KONSTRUKTIONSELEMENTE
100
AcDbLine
 62
7
  6
CONTINUOUS
 10
189.6259355009
 20
120.4874800726
 11
189.7384353937
 21
120.2959905549
  0
LINE
  5
2C1
100
AcDbEntity
  8
KONSTRUKTIONSELEMENTE
100
AcDbLine
 62
7
  6
CONTINUOUS
 10
184.7019772769
 20
123.3230118921
 11
184.5978107096
 21
123.5357778987
  0
LINE
  5
2C2
100
AcDbEntity
  8
KONSTRUKTIONSELEMENTE
100
AcDbLine
 62
7
  6
CONTINUOUS
 10
184.1811439932
 20
124.4932247421
 11
184.2332272769
 21
124.386841776
  0
LINE
  5
2C3
100
AcDbEntity
  8
BEZUGSACHSEN
100
AcDbLine
 62
7
  6
CONTINUOUS
 10
173.4639734045
 20
145.193898033
 11
175.6501614359
 21
139.9159732378
  0
LINE
  5
2C4
100
AcDbEntity
  8
BEZUGSACHSEN
100
AcDbLine
 62
7
  6
CONTINUOUS
 10
174.4884355009
 20
136.8868509277
 11
174.4884355009
 21
134.8419480892
  0
LINE
  5
2C5
100
AcDbEntity
  8
BEZUGSACHSEN
100
AcDbLine
 62
7
  6
CONTINUOUS
 10
174.023283874
 20
134.5465057633
 11
172.4884354026
 21
125.8419475318
  0
LINE
  5
2C6
100
AcDbEntity
  8
BEZUGSACHSEN
100
AcDbLine
 62
7
  6
CONTINUOUS
 10
176.7598491704
 20
155.4469461193
 11
173.4639737563
 21
147.4899989948
  0
LINE
  5
2C7
100
AcDbEntity
  8
KONSTRUKTIONSELEMENTE
100
AcDbLine
 62
7
  6
CONTINUOUS
 10
189.4936439932
 20
124.5464162251
 11
189.5978108586
 21
124.386841776
  0
LINE
  5
2C8
100
AcDbEntity
  8
KONSTRUKTIONSELEMENTE
100
AcDbLine
 62
7
  6
CONTINUOUS
 10
188.1071855009
 20
120.1045012161
 11
188.2196853937
 21
119.8491820976
  0
LINE
  5
2C9
100
AcDbEntity
  8
KONSTRUKTIONSELEMENTE
100
AcDbLine
 62
7
  6
CONTINUOUS
 10
188.0509353937
 20
118.8279055341
 11
188.1634356082
 21
118.5087565913
  0
LINE
  5
2CA
100
AcDbEntity
  8
KONSTRUKTIONSELEMENTE
100
AcDbLine
 62
7
  6
CONTINUOUS
 10
185.2384355009
 20
120.423650293
 11
186.0259354741
 21
118.0619480892
  0
LINE
  5
2CB
100
AcDbEntity
  8
KONSTRUKTIONSELEMENTE
100
AcDbLine
 62
7
  6
CONTINUOUS
 10
183.1394773141
 20
123.003862994
 11
183.0873939932
 21
123.163437443
  0
LINE
  5
2CC
100
AcDbEntity
  8
KONSTRUKTIONSELEMENTE
100
AcDbLine
 62
7
  6
CONTINUOUS
 10
183.2957273141
 20
124.0676927289
 11
183.2436439932
 21
124.2272671779
  0
LINE
  5
2CD
100
AcDbEntity
  8
KONSTRUKTIONSELEMENTE
100
AcDbLine
 62
7
  6
CONTINUOUS
 10
184.5457272769
 20
124.386841776
 11
184.4936439932
 21
124.5464162251
  0
LINE
  5
2CE
100
AcDbEntity
  8
KONSTRUKTIONSELEMENTE
100
AcDbLine
 62
7
  6
CONTINUOUS
 10
186.2509355009
 20
118.3810970321
 11
185.4071855009
 21
121.0619480892
  0
LINE
  5
2CF
100
AcDbEntity
  8
KONSTRUKTIONSELEMENTE
100
AcDbLine
 62
7
  6
CONTINUOUS
 10
182.7748939932
 20
123.163437443
 11
182.8269773281
 21
122.9506715109
  0
LINE
  5
2D0
100
AcDbEntity
  8
KONSTRUKTIONSELEMENTE
100
AcDbLine
 62
7
  6
CONTINUOUS
 10
182.9311439932
 20
124.1740756949
 11
182.9832273328
 21
123.9613097628
  0
LINE
  5
2D1
100
AcDbEntity
  8
0
100
AcDbLine
 62
7
  6
CONTINUOUS
 10
180.6153144235
 20
151.1535492763
 11
180.6254479667
 21
151.0116453652
  0
LINE
  5
2D2
100
AcDbEntity
  8
0
100
AcDbLine
 62
7
  6
CONTINUOUS
 10
178.9933082777
 20
149.8680304012
 11
178.9934315534
 21
149.7463461072
  0
LINE
  5
2D3
100
AcDbEntity
  8
0
100
AcDbLine
 62
7
  6
CONTINUOUS
 10
179.1057495988
 20
125.6457879944
 11
179.1057495988
 21
115.8419480892
  0
LINE
  5
2D4
100
AcDbEntity
  8
0
100
AcDbLine
 62
7
  6
CONTINUOUS
 10
180.8711214031
 20
125.6457879944
 11
180.8711214031
 21
115.8419480892
  0
LINE
  5
2D5
100
AcDbEntity
  8
0
100
AcDbLine
 62
7
  6
CONTINUOUS
 10
180.860908455
 20
150.9058613997
 11
180.8712809656
 21
151.0797581473
  0
LINE
  5
2D6
100
AcDbEntity
  8
0
100
AcDbLine
 62
7
  6
CONTINUOUS
 10
180.6254479667
 20
151.0116453652
 11
180.5792496891
 21
150.8607113927
  0
LINE
  5
2D7
100
AcDbEntity
  8
0
100
AcDbLine
 62
7
  6
CONTINUOUS
 10
178.1825490116
 20
150.0075418336
 11
177.8644833351
 21
149.1527915797
  0
LINE
  5
2D8
100
AcDbEntity
  8
0
100
AcDbLine
 62
7
  6
CONTINUOUS
 10
178.1434071808
 20
149.292276582
 11
178.395209162
 21
149.9689538323
  0
LINE
  5
2D9
100
AcDbEntity
  8
0
100
AcDbLine
 62
7
  6
CONTINUOUS
 10
178.9934315534
 20
149.7463461072
 11
178.7416295722
 21
149.0696688568
  0
LINE
  5
2DA
100
AcDbEntity
  8
0
100
AcDbLine
 62
7
  6
CONTINUOUS
 10
178.9809184841
 20
148.9806257834
 11
179.2062149986
 21
149.5860738629
  0
LINE
  5
2DB
100
AcDbEntity
  8
0
100
AcDbLine
 62
7
  6
CONTINUOUS
 10
179.4384894758
 20
152.314069671
 11
179.3154534817
 21
152.1221129576
  0
LINE
  5
2DC
100
AcDbEntity
  8
0
100
AcDbLine
 62
7
  6
CONTINUOUS
 10
178.8233095052
 20
151.3542861037
 11
178.7002734524
 21
151.1623292987
  0
LINE
  5
2DD
100
AcDbEntity
  8
0
100
AcDbLine
 62
7
  6
CONTINUOUS
 10
178.2886941921
 20
150.1707743249
 11
178.1825490116
 21
150.0075418336
  0
LINE
  5
2DE
100
AcDbEntity
  8
0
100
AcDbLine
 62
7
  6
CONTINUOUS
 10
180.5471089279
 20
153.5420237817
 11
179.9002262576
 21
152.8991345361
  0
LINE
  5
2DF
100
AcDbEntity
  8
RUNDUNGEN
100
AcDbLine
 62
7
  6
CONTINUOUS
 10
183.4884355009
 20
159.1850938397
 11
178.3834374708
 21
157.0705344198
  0
LINE
  5
2E0
100
AcDbEntity
  8
0
100
AcDbLine
 62
7
  6
CONTINUOUS
 10
179.1792164289
 20
150.001581868
 11
179.0594486972
 21
150.1677876987
  0
LINE
  5
2E1
100
AcDbEntity
  8
0
100
AcDbLine
 62
7
  6
CONTINUOUS
 10
178.9400507927
 20
149.9689406474
 11
178.9933082777
 21
149.8680304012
  0
LINE
  5
2E2
100
AcDbEntity
  8
KONSTRUKTIONSELEMENTE
100
AcDbLine
 62
7
  6
CONTINUOUS
 10
190.0759353937
 20
119.019394873
 11
189.9634355009
 21
119.3385438606
  0
LINE
  5
2E3
100
AcDbEntity
  8
KONSTRUKTIONSELEMENTE
100
AcDbLine
 62
7
  6
CONTINUOUS
 10
190.0196856082
 20
120.2959905549
 11
189.9071853937
 21
120.6151396319
  0
LINE
  5
2E4
100
AcDbEntity
  8
0
100
AcDbLine
 62
7
  6
CONTINUOUS
 10
180.8712809656
 20
151.0797581473
 11
180.8100019579
 21
151.2995804354
  0
LINE
  5
2E5
100
AcDbEntity
  8
KONSTRUKTIONSELEMENTE
100
AcDbLine
 62
7
  6
CONTINUOUS
 10
186.9936439932
 20
123.057054477
 11
186.5769774259
 21
124.9719480892
  0
LINE
  5
2E6
100
AcDbEntity
  8
KONSTRUKTIONSELEMENTE
100
AcDbLine
 62
7
  6
CONTINUOUS
 10
186.3686439932
 20
124.4932247421
 11
186.7853105605
 21
122.4719480892
  0
LINE
  5
2E7
100
AcDbEntity
  8
KONSTRUKTIONSELEMENTE
100
AcDbLine
 62
7
  6
CONTINUOUS
 10
185.1186439932
 20
124.9719480892
 11
185.5353105605
 21
122.4719480892
  0
LINE
  5
2E8
100
AcDbEntity
  8
0
100
AcDbLine
 62
7
  6
CONTINUOUS
 10
179.205968466
 20
149.8294425018
 11
179.1792164289
 21
150.001581868
  0
LINE
  5
2E9
100
AcDbEntity
  8
0
100
AcDbLine
 62
7
  6
CONTINUOUS
 10
182.1095289836
 20
152.4550697716
 11
182.0973572944
 21
152.6829485529
  0
LINE
  5
2EA
100
AcDbEntity
  8
RUNDUNGEN
100
AcDbLine
 62
7
  6
CONTINUOUS
 10
181.9884355009
 20
124.5419480892
 11
181.9884355009
 21
118.8419480892
  0
LINE
  5
2EB
100
AcDbEntity
  8
KONSTRUKTIONSELEMENTE
100
AcDbLine
 62
7
  6
CONTINUOUS
 10
182.9311439932
 20
124.386841776
 11
182.9311439932
 21
124.1740756949
  0
LINE
  5
2EC
100
AcDbEntity
  8
KONSTRUKTIONSELEMENTE
100
AcDbLine
 62
7
  6
CONTINUOUS
 10
183.2436439932
 20
124.2272671779
 11
183.2436439932
 21
124.333650144
  0
LINE
  5
2ED
100
AcDbEntity
  8
0
100
AcDbLine
 62
7
  6
CONTINUOUS
 10
183.4884355009
 20
195.8419480892
 11
183.4884355009
 21
147.8419480892
  0
LINE
  5
2EE
100
AcDbEntity
  8
0
100
AcDbLine
 62
7
  6
CONTINUOUS
 10
183.4884355009
 20
115.8419480892
 11
183.4884355009
 21
103.3419480892
  0
LINE
  5
2EF
100
AcDbEntity
  8
RUNDUNGEN
100
AcDbLine
 62
7
  6
CONTINUOUS
 10
183.4884355009
 20
127.0419480892
 11
183.4884355009
 21
130.3419480892
  0
LINE
  5
2F0
100
AcDbEntity
  8
KONSTRUKTIONSELEMENTE
100
AcDbLine
 62
7
  6
CONTINUOUS
 10
184.3894772769
 20
123.2698204091
 11
184.3894772769
 21
123.11024596
  0
LINE
  5
2F1
100
AcDbEntity
  8
0
100
AcDbLine
 62
7
  6
CONTINUOUS
 10
181.8756439287
 20
152.5825915953
 11
181.854776293
 21
152.4418650858
  0
LINE
  5
2F2
100
AcDbEntity
  8
0
100
AcDbLine
 62
7
  6
CONTINUOUS
 10
182.061707993
 20
152.2875563256
 11
182.1095289836
 21
152.4550697716
  0
LINE
  5
2F3
100
AcDbEntity
  8
0
100
AcDbLine
 62
7
  6
CONTINUOUS
 10
180.7942042597
 20
150.7229347616
 11
180.860908455
 21
150.9058613997
  0
LINE
  5
2F4
100
AcDbEntity
  8
0
100
AcDbLine
 62
7
  6
CONTINUOUS
 10
179.7389133683
 20
148.4552874213
 11
179.8184297874
 21
148.6689749848
  0
LINE
  5
2F5
100
AcDbEntity
  8
0
100
AcDbLine
 62
7
  6
CONTINUOUS
 10
180.1497481877
 20
149.5593397987
 11
180.2425173686
 21
149.808642024
  0
LINE
  5
2F6
100
AcDbEntity
  8
0
100
AcDbLine
 62
7
  6
CONTINUOUS
 10
181.854776293
 20
152.4418650858
 11
181.776958956
 21
152.3045343141
  0
LINE
  5
2F7
100
AcDbEntity
  8
0
100
AcDbLine
 62
7
  6
CONTINUOUS
 10
181.9569370084
 20
152.1234382949
 11
182.061707993
 21
152.2875563256
  0
LINE
  5
2F8
100
AcDbEntity
  8
0
100
AcDbLine
 62
7
  6
CONTINUOUS
 10
180.5792496891
 20
150.8607113927
 11
180.4972256539
 21
150.7327401893
  0
LINE
  5
2F9
100
AcDbEntity
  8
0
100
AcDbLine
 62
7
  6
CONTINUOUS
 10
180.7121802245
 20
150.5949635583
 11
180.7942042597
 21
150.7229347616
  0
LINE
  5
2FA
100
AcDbEntity
  8
0
100
AcDbLine
 62
7
  6
CONTINUOUS
 10
178.395209162
 20
149.9689538323
 11
178.4748488569
 21
150.0609571018
  0
LINE
  5
2FB
100
AcDbEntity
  8
0
100
AcDbLine
 62
7
  6
CONTINUOUS
 10
180.2419249566
 20
152.8787608495
 11
180.7270869592
 21
153.3609277837
  0
LINE
  5
2FC
100
AcDbEntity
  8
0
100
AcDbLine
 62
7
  6
CONTINUOUS
 10
181.776958956
 20
152.3045343141
 11
181.2917969534
 21
151.8223673799
  0
LINE
  5
2FD
100
AcDbEntity
  8
0
100
AcDbLine
 62
7
  6
CONTINUOUS
 10
181.3100543382
 20
151.4805490494
 11
181.9569370084
 21
152.1234382949
  0
LINE
  5
2FE
100
AcDbEntity
  8
0
100
AcDbLine
 62
7
  6
CONTINUOUS
 10
180.5738245078
 20
150.4579624626
 11
180.7121802245
 21
150.5949635583
  0
LINE
  5
2FF
100
AcDbEntity
  8
0
100
AcDbLine
 62
7
  6
CONTINUOUS
 10
180.4972256539
 20
150.7327401893
 11
180.3793759785
 21
150.6277319382
  0
LINE
  5
300
100
AcDbEntity
  8
0
100
AcDbLine
 62
7
  6
CONTINUOUS
 10
180.7118725922
 20
153.645776477
 11
180.5471089279
 21
153.5420237817
  0
LINE
  5
301
100
AcDbEntity
  8
0
100
AcDbLine
 62
7
  6
CONTINUOUS
 10
178.4613495815
 20
150.2687111298
 11
178.2886941921
 21
150.1707743249
  0
LINE
  5
302
100
AcDbEntity
  8
0
100
AcDbLine
 62
7
  6
CONTINUOUS
 10
180.7270869592
 20
153.3609277837
 11
180.8648969734
 21
153.4378932228
  0
LINE
  5
303
100
AcDbEntity
  8
0
100
AcDbLine
 62
7
  6
CONTINUOUS
 10
180.0977170921
 20
150.5825817502
 11
179.933908141
 21
150.6424401633
  0
LINE
  5
304
100
AcDbEntity
  8
0
100
AcDbLine
 62
7
  6
CONTINUOUS
 10
177.8644833351
 20
149.1527915797
 11
179.7389133683
 21
148.4552874213
  0
LINE
  5
305
100
AcDbEntity
  8
0
100
AcDbLine
 62
7
  6
CONTINUOUS
 10
179.8184297874
 20
148.6689749848
 11
178.9809184841
 21
148.9806257834
  0
LINE
  5
306
100
AcDbEntity
  8
0
100
AcDbLine
 62
7
  6
CONTINUOUS
 10
178.7416295722
 20
149.0696688568
 11
178.1434071808
 21
149.292276582
  0
LINE
  5
307
100
AcDbEntity
  8
0
100
AcDbLine
 62
7
  6
CONTINUOUS
 10
178.714014493
 20
150.0935983224
 11
178.8336590607
 21
150.0490767441
  0
LINE
  5
308
100
AcDbEntity
  8
0
100
AcDbLine
 62
7
  6
CONTINUOUS
 10
178.9530569651
 20
150.2479237953
 11
178.7935309121
 21
150.3072858859
  0
LINE
  5
309
100
AcDbEntity
  8
0
100
AcDbLine
 62
7
  6
CONTINUOUS
 10
179.8108720882
 20
150.4504833583
 11
180.0105069143
 21
150.3676623591
  0
LINE
  5
30A
100
AcDbEntity
  8
0
100
AcDbLine
 62
7
  6
CONTINUOUS
 10
178.7002734524
 20
151.1623292987
 11
179.8108720882
 21
150.4504833583
  0
LINE
  5
30B
100
AcDbEntity
  8
0
100
AcDbLine
 62
7
  6
CONTINUOUS
 10
179.933908141
 20
150.6424401633
 11
178.8233095052
 21
151.3542861037
  0
LINE
  5
30C
100
AcDbEntity
  8
0
100
AcDbLine
 62
7
  6
CONTINUOUS
 10
179.3154534817
 20
152.1221129576
 11
180.4260521174
 21
151.4102670171
  0
LINE
  5
30D
100
AcDbEntity
  8
0
100
AcDbLine
 62
7
  6
CONTINUOUS
 10
180.5490881116
 20
151.6022237306
 11
179.4384894758
 21
152.314069671
  0
LINE
  5
30E
100
AcDbEntity
  8
0
100
AcDbLine
 62
7
  6
CONTINUOUS
 10
178.8336590607
 20
150.0490767441
 11
178.9400507927
 21
149.9689406474
  0
LINE
  5
30F
100
AcDbEntity
  8
0
100
AcDbLine
 62
7
  6
CONTINUOUS
 10
179.0594486972
 20
150.1677876987
 11
178.9530569651
 21
150.2479237953
  0
LINE
  5
310
100
AcDbEntity
  8
FASEN
100
AcDbLine
 62
7
  6
CONTINUOUS
 10
200.601492674
 20
134.8419480897
 11
200.9535871273
 21
134.5465057638
  0
LINE
  5
311
100
AcDbEntity
  8
0
100
AcDbLine
 62
7
  6
CONTINUOUS
 10
180.7077108614
 20
151.4554170382
 11
180.5490881116
 21
151.6022237306
  0
LINE
  5
312
100
AcDbEntity
  8
0
100
AcDbLine
 62
7
  6
CONTINUOUS
 10
179.9002262576
 20
152.8991345361
 11
181.3100543382
 21
151.4805490494
  0
LINE
  5
313
100
AcDbEntity
  8
0
100
AcDbLine
 62
7
  6
CONTINUOUS
 10
181.2917969534
 20
151.8223673799
 11
180.2419249566
 21
152.8787608495
  0
LINE
  5
314
100
AcDbEntity
  8
0
100
AcDbLine
 62
7
  6
CONTINUOUS
 10
181.296584772
 20
153.3269714526
 11
181.7465298925
 21
152.8742314153
  0
LINE
  5
315
100
AcDbEntity
  8
0
100
AcDbLine
 62
7
  6
CONTINUOUS
 10
180.4260521174
 20
151.4102670171
 11
180.5488491097
 21
151.2864230939
  0
LINE
  5
316
100
AcDbEntity
  8
0
100
AcDbLine
 62
7
  6
CONTINUOUS
 10
182.0312789111
 20
152.8572534453
 11
181.9082505601
 21
153.0349537267
  0
LINE
  5
317
100
AcDbEntity
  8
0
100
AcDbLine
 62
7
  6
CONTINUOUS
 10
180.8100019579
 20
151.2995804354
 11
180.7077108614
 21
151.4554170382
  0
LINE
  5
318
100
AcDbEntity
  8
0
100
AcDbLine
 62
7
  6
CONTINUOUS
 10
181.7465298925
 20
152.8742314153
 11
181.839561905
 21
152.7267138003
  0
LINE
  5
319
100
AcDbEntity
  8
0
100
AcDbLine
 62
7
  6
CONTINUOUS
 10
180.5488491097
 20
151.2864230939
 11
180.6153144235
 21
151.1535492763
  0
LINE
  5
31A
100
AcDbEntity
  8
0
100
AcDbLine
 62
7
  6
CONTINUOUS
 10
182.0973572944
 20
152.6829485529
 11
182.0312789111
 21
152.8572534453
  0
LINE
  5
31B
100
AcDbEntity
  8
0
100
AcDbLine
 62
7
  6
CONTINUOUS
 10
181.839561905
 20
152.7267138003
 11
181.8756439287
 21
152.5825915953
  0
LINE
  5
31C
100
AcDbEntity
  8
KONSTRUKTIONSELEMENTE
100
AcDbLine
 62
7
  6
CONTINUOUS
 10
189.9103108586
 20
124.386841776
 11
189.8582271279
 21
124.5996077081
  0
LINE
  5
31D
100
AcDbEntity
  8
KONSTRUKTIONSELEMENTE
100
AcDbLine
 62
7
  6
CONTINUOUS
 10
185.7436439932
 20
123.057054477
 11
185.4311439932
 21
124.9719480892
  0
LINE
  5
31E
100
AcDbEntity
  8
KONSTRUKTIONSELEMENTE
100
AcDbLine
 62
7
  6
CONTINUOUS
 10
184.7019772769
 20
123.057054477
 11
184.7019772769
 21
123.3230118921
  0
LINE
  5
31F
100
AcDbEntity
  8
KONSTRUKTIONSELEMENTE
100
AcDbLine
 62
7
  6
CONTINUOUS
 10
184.9009355009
 20
121.0619480892
 11
184.9009355009
 21
118.0619480892
  0
LINE
  5
320
100
AcDbEntity
  8
KONSTRUKTIONSELEMENTE
100
AcDbLine
 62
7
  6
CONTINUOUS
 10
185.2384355009
 20
118.0619480892
 11
185.2384355009
 21
120.423650293
  0
LINE
  5
321
100
AcDbEntity
  8
KONSTRUKTIONSELEMENTE
100
AcDbLine
 62
7
  6
CONTINUOUS
 10
187.2634355009
 20
120.423650293
 11
187.2634355009
 21
118.0619480892
  0
LINE
  5
322
100
AcDbEntity
  8
KONSTRUKTIONSELEMENTE
100
AcDbLine
 62
7
  6
CONTINUOUS
 10
187.6009355009
 20
118.0619480892
 11
187.6009355009
 21
121.0619480892
  0
LINE
  5
323
100
AcDbEntity
  8
0
100
AcDbLine
 62
7
  6
CONTINUOUS
 10
180.420148948
 20
150.3759168036
 11
180.5738245078
 21
150.4579624626
  0
LINE
  5
324
100
AcDbEntity
  8
0
100
AcDbLine
 62
7
  6
CONTINUOUS
 10
178.4748488569
 20
150.0609571018
 11
178.5811173132
 21
150.1025052992
  0
LINE
  5
325
100
AcDbEntity
  8
0
100
AcDbLine
 62
7
  6
CONTINUOUS
 10
180.3793759785
 20
150.6277319382
 11
180.2462064411
 21
150.5776791359
  0
LINE
  5
326
100
AcDbEntity
  8
0
100
AcDbLine
 62
7
  6
CONTINUOUS
 10
180.1948219873
 20
150.339796868
 11
180.420148948
 21
150.3759168036
  0
LINE
  5
327
100
AcDbEntity
  8
0
100
AcDbLine
 62
7
  6
CONTINUOUS
 10
180.2425173686
 20
149.808642024
 11
179.205968466
 21
149.8294425018
  0
LINE
  5
328
100
AcDbEntity
  8
0
100
AcDbLine
 62
7
  6
CONTINUOUS
 10
179.2062149986
 20
149.5860738629
 11
180.1497481877
 21
149.5593397987
  0
LINE
  5
329
100
AcDbEntity
  8
0
100
AcDbLine
 62
7
  6
CONTINUOUS
 10
180.2462064411
 20
150.5776791359
 11
180.0977170921
 21
150.5825817502
  0
LINE
  5
32A
100
AcDbEntity
  8
0
100
AcDbLine
 62
7
  6
CONTINUOUS
 10
178.5811173132
 20
150.1025052992
 11
178.714014493
 21
150.0935983224
  0
LINE
  5
32B
100
AcDbEntity
  8
0
100
AcDbLine
 62
7
  6
CONTINUOUS
 10
178.7935309121
 20
150.3072858859
 11
178.6606337323
 21
150.3161928626
  0
LINE
  5
32C
100
AcDbEntity
  8
0
100
AcDbLine
 62
7
  6
CONTINUOUS
 10
180.0105069143
 20
150.3676623591
 11
180.1948219873
 21
150.339796868
  0
LINE
  5
32D
100
AcDbEntity
  8
0
100
AcDbLine
 62
7
  6
CONTINUOUS
 10
181.0057499843
 20
153.4578890458
 11
181.149646076
 21
153.4209151682
  0
LINE
  5
32E
100
AcDbEntity
  8
0
100
AcDbLine
 62
7
  6
CONTINUOUS
 10
181.281370321
 20
153.6118202305
 11
181.1074779747
 21
153.6789766898
  0
LINE
  5
32F
100
AcDbEntity
  8
0
100
AcDbLine
 62
7
  6
CONTINUOUS
 10
181.149646076
 20
153.4209151682
 11
181.296584772
 21
153.3269714526
  0
LINE
  5
330
100
AcDbEntity
  8
0
100
AcDbLine
 62
7
  6
CONTINUOUS
 10
181.4583054396
 20
153.487693764
 11
181.281370321
 21
153.6118202305
  0
LINE
  5
331
100
AcDbEntity
  8
0
100
AcDbLine
 62
7
  6
CONTINUOUS
 10
181.9082505601
 20
153.0349537267
 11
181.4583054396
 21
153.487693764
  0
LINE
  5
332
100
AcDbEntity
  8
KONSTRUKTIONSELEMENTE
100
AcDbLine
 62
7
  6
CONTINUOUS
 10
188.0353108586
 20
122.7379055416
 11
188.0353108586
 21
122.4719480892
  0
LINE
  5
333
100
AcDbEntity
  8
KONSTRUKTIONSELEMENTE
100
AcDbLine
 62
7
  6
CONTINUOUS
 10
188.0509353937
 20
119.019394873
 11
188.0509353937
 21
118.8279055341
  0
LINE
  5
334
100
AcDbEntity
  8
KONSTRUKTIONSELEMENTE
100
AcDbLine
 62
7
  6
CONTINUOUS
 10
188.1071855009
 20
120.2959905549
 11
188.1071855009
 21
120.1045012161
  0
LINE
  5
335
100
AcDbEntity
  8
KONSTRUKTIONSELEMENTE
100
AcDbLine
 62
7
  6
CONTINUOUS
 10
188.3321856082
 20
118.8279055341
 11
188.3321856082
 21
119.019394873
  0
LINE
  5
336
100
AcDbEntity
  8
KONSTRUKTIONSELEMENTE
100
AcDbLine
 62
7
  6
CONTINUOUS
 10
188.3884353937
 20
120.1683309957
 11
188.3884353937
 21
120.2959905549
  0
LINE
  5
337
100
AcDbEntity
  8
KONSTRUKTIONSELEMENTE
100
AcDbLine
 62
7
  6
CONTINUOUS
 10
189.5978108586
 20
124.386841776
 11
189.5978108586
 21
124.280458661
  0
LINE
  5
338
100
AcDbEntity
  8
KONSTRUKTIONSELEMENTE
100
AcDbLine
 62
7
  6
CONTINUOUS
 10
189.7384353937
 20
120.2959905549
 11
189.7384353937
 21
120.1683309957
  0
LINE
  5
339
100
AcDbEntity
  8
KONSTRUKTIONSELEMENTE
100
AcDbLine
 62
7
  6
CONTINUOUS
 10
189.7946855009
 20
119.019394873
 11
189.7946855009
 21
118.8279055341
  0
LINE
  5
33A
100
AcDbEntity
  8
KONSTRUKTIONSELEMENTE
100
AcDbLine
 62
7
  6
CONTINUOUS
 10
189.9103108586
 20
122.4719480892
 11
189.9103108586
 21
122.7379055416
  0
LINE
  5
33B
100
AcDbEntity
  8
KONSTRUKTIONSELEMENTE
100
AcDbLine
 62
7
  6
CONTINUOUS
 10
189.9103108586
 20
124.280458661
 11
189.9103108586
 21
124.386841776
  0
LINE
  5
33C
100
AcDbEntity
  8
KONSTRUKTIONSELEMENTE
100
AcDbLine
 62
7
  6
CONTINUOUS
 10
190.0196856082
 20
120.1045012161
 11
190.0196856082
 21
120.2959905549
  0
LINE
  5
33D
100
AcDbEntity
  8
KONSTRUKTIONSELEMENTE
100
AcDbLine
 62
7
  6
CONTINUOUS
 10
190.0759353937
 20
118.8279055341
 11
190.0759353937
 21
119.019394873
  0
LINE
  5
33E
100
AcDbEntity
  8
KONSTRUKTIONSELEMENTE
100
AcDbLine
 62
7
  6
CONTINUOUS
 10
190.3269771279
 20
124.9719480892
 11
190.3269771279
 21
124.7059906741
  0
LINE
  5
33F
100
AcDbEntity
  8
0
100
AcDbLine
 62
7
  6
CONTINUOUS
 10
191.6885846205
 20
154.8833663457
 11
191.7320214457
 21
155.095089337
  0
LINE
  5
340
100
AcDbEntity
  8
KONSTRUKTIONSELEMENTE
100
AcDbLine
 62
7
  6
CONTINUOUS
 10
182.9832273328
 20
124.5996077081
 11
182.9311439932
 21
124.386841776
  0
LINE
  5
341
100
AcDbEntity
  8
0
100
AcDbLine
 62
7
  6
CONTINUOUS
 10
191.4884355009
 20
154.3809263286
 11
191.5468548263
 21
154.5275780195
  0
LINE
  5
342
100
AcDbEntity
  8
0
100
AcDbLine
 62
7
  6
CONTINUOUS
 10
191.8798777612
 20
154.1298139684
 11
191.7695441636
 21
153.9478912802
  0
LINE
  5
343
100
AcDbEntity
  8
0
100
AcDbLine
 62
7
  6
CONTINUOUS
 10
192.2244287383
 20
153.6720100687
 11
192.3347623359
 21
153.8539327569
  0
LINE
  5
344
100
AcDbEntity
  8
0
100
AcDbLine
 62
7
  6
CONTINUOUS
 10
192.8136968108
 20
152.3139407734
 11
194.5775742774
 21
153.4357287947
  0
LINE
  5
345
100
AcDbEntity
  8
0
100
AcDbLine
 62
7
  6
CONTINUOUS
 10
194.4045492237
 20
153.5842130245
 11
192.8646196516
 21
152.6066857708
  0
LINE
  5
346
100
AcDbEntity
  8
0
100
AcDbLine
 62
7
  6
CONTINUOUS
 10
178.6606337323
 20
150.3161928626
 11
178.4613495815
 21
150.2687111298
  0
LINE
  5
347
100
AcDbEntity
  8
0
100
AcDbLine
 62
7
  6
CONTINUOUS
 10
180.8648969734
 20
153.4378932228
 11
181.0057499843
 21
153.4578890458
  0
LINE
  5
348
100
AcDbEntity
  8
0
100
AcDbLine
 62
7
  6
CONTINUOUS
 10
181.1074779747
 20
153.6789766898
 11
180.8796789449
 21
153.6925592498
  0
LINE
  5
349
100
AcDbEntity
  8
0
100
AcDbLine
 62
7
  6
CONTINUOUS
 10
191.4884355009
 20
195.8419480892
 11
191.4884355009
 21
147.8419480892
  0
LINE
  5
34A
100
AcDbEntity
  8
RUNDUNGEN
100
AcDbLine
 62
7
  6
CONTINUOUS
 10
191.4884355009
 20
130.3419480892
 11
191.4884355009
 21
127.0419480892
  0
LINE
  5
34B
100
AcDbEntity
  8
0
100
AcDbLine
 62
7
  6
CONTINUOUS
 10
191.4884355009
 20
115.8419480892
 11
191.4884355009
 21
103.3419480892
  0
LINE
  5
34C
100
AcDbEntity
  8
KONSTRUKTIONSELEMENTE
100
AcDbLine
 62
7
  6
CONTINUOUS
 10
192.2019771279
 20
124.7059906741
 11
192.2019771279
 21
124.9719480892
  0
LINE
  5
34D
100
AcDbEntity
  8
RUNDUNGEN
100
AcDbLine
 62
7
  6
CONTINUOUS
 10
192.9884355009
 20
118.8419480892
 11
192.9884355009
 21
124.5419480892
  0
LINE
  5
34E
100
AcDbEntity
  8
0
100
AcDbLine
 62
7
  6
CONTINUOUS
 10
194.1057495988
 20
125.6457879944
 11
194.1057495988
 21
115.8419480892
  0
LINE
  5
34F
100
AcDbEntity
  8
KONSTRUKTIONSELEMENTE
100
AcDbLine
 62
7
  6
CONTINUOUS
 10
187.3061439932
 20
124.9719480892
 11
186.9936439932
 21
123.057054477
  0
LINE
  5
350
100
AcDbEntity
  8
KONSTRUKTIONSELEMENTE
100
AcDbLine
 62
7
  6
CONTINUOUS
 10
187.2019774259
 20
122.4719480892
 11
187.6186439932
 21
124.9719480892
  0
LINE
  5
351
100
AcDbEntity
  8
KONSTRUKTIONSELEMENTE
100
AcDbLine
 62
7
  6
CONTINUOUS
 10
185.9519774259
 20
122.4719480892
 11
186.3686439932
 21
124.4932247421
  0
LINE
  5
352
100
AcDbEntity
  8
KONSTRUKTIONSELEMENTE
100
AcDbLine
 62
7
  6
CONTINUOUS
 10
186.1603105605
 20
124.9719480892
 11
185.7436439932
 21
123.057054477
  0
LINE
  5
353
100
AcDbEntity
  8
KONSTRUKTIONSELEMENTE
100
AcDbLine
 62
7
  6
CONTINUOUS
 10
188.1394771279
 20
124.5996077081
 11
188.0873939932
 21
124.386841776
  0
LINE
  5
354
100
AcDbEntity
  8
KONSTRUKTIONSELEMENTE
100
AcDbLine
 62
7
  6
CONTINUOUS
 10
183.2436439932
 20
124.333650144
 11
183.2957273141
 21
124.4932247421
  0
LINE
  5
355
100
AcDbEntity
  8
0
100
AcDbLine
 62
7
  6
CONTINUOUS
 10
192.8646196516
 20
152.6066857708
 11
193.5970994133
 21
154.2771390526
  0
LINE
  5
356
100
AcDbEntity
  8
0
100
AcDbLine
 62
7
  6
CONTINUOUS
 10
193.4240743596
 20
154.4256232824
 11
192.5829962992
 21
152.511920124
  0
LINE
  5
357
100
AcDbEntity
  8
FASEN
100
AcDbLine
 62
7
  6
CONTINUOUS
 10
174.3753783278
 20
134.8419480896
 11
174.0232838745
 21
134.5465057637
  0
LINE
  5
358
100
AcDbEntity
  8
0
100
AcDbLine
 62
7
  6
CONTINUOUS
 10
180.8796789449
 20
153.6925592498
 11
180.7118725922
 21
153.645776477
  0
LINE
  5
359
100
AcDbEntity
  8
0
100
AcDbLine
 62
7
  6
CONTINUOUS
 10
191.5468548263
 20
154.5275780195
 11
191.4884355009
 21
154.5508496065
  0
LINE
  5
35A
100
AcDbEntity
  8
0
100
AcDbLine
 62
7
  6
CONTINUOUS
 10
191.4767694276
 20
154.9677438294
 11
191.6885846205
 21
154.8833663457
  0
LINE
  5
35B
100
AcDbEntity
  8
0
100
AcDbLine
 62
7
  6
CONTINUOUS
 10
191.7695441636
 20
153.9478912802
 11
192.2244287383
 21
153.6720100687
  0
LINE
  5
35C
100
AcDbEntity
  8
0
100
AcDbLine
 62
7
  6
CONTINUOUS
 10
192.3347623359
 20
153.8539327569
 11
191.8798777612
 21
154.1298139684
  0
LINE
  5
35D
100
AcDbEntity
  8
0
100
AcDbLine
 62
7
  6
CONTINUOUS
 10
191.5440871793
 20
155.4447850807
 11
191.4884355009
 21
155.4828104957
  0
LINE
  5
35E
100
AcDbEntity
  8
0
100
AcDbLine
 62
7
  6
CONTINUOUS
 10
192.5829962992
 20
152.511920124
 11
192.8136968108
 21
152.3139407734
  0
LINE
  5
35F
100
AcDbEntity
  8
0
100
AcDbLine
 62
7
  6
CONTINUOUS
 10
194.5775742774
 20
153.4357287947
 11
194.4045492237
 21
153.5842130245
  0
LINE
  5
360
100
AcDbEntity
  8
0
100
AcDbLine
 62
7
  6
CONTINUOUS
 10
193.5970994133
 20
154.2771390526
 11
193.4240743596
 21
154.4256232824
  0
LINE
  5
361
100
AcDbEntity
  8
0
100
AcDbLine
 62
7
  6
CONTINUOUS
 10
191.6538020674
 20
155.3094692451
 11
191.5440871793
 21
155.4447850807
  0
LINE
  5
362
100
AcDbEntity
  8
0
100
AcDbLine
 62
7
  6
CONTINUOUS
 10
191.7320214457
 20
155.095089337
 11
191.6538020674
 21
155.3094692451
  0
LINE
  5
363
100
AcDbEntity
  8
0
100
AcDbLine
 62
7
  6
CONTINUOUS
 10
195.8711214031
 20
125.6457879944
 11
195.8711214031
 21
115.8419480892
  0
LINE
  5
364
100
AcDbEntity
  8
KONSTRUKTIONSELEMENTE
100
AcDbLine
 62
7
  6
CONTINUOUS
 10
189.8582271279
 20
124.0676927289
 11
189.9103108586
 21
124.280458661
  0
LINE
  5
365
100
AcDbEntity
  8
KONSTRUKTIONSELEMENTE
100
AcDbLine
 62
7
  6
CONTINUOUS
 10
187.0946855009
 20
121.0619480892
 11
186.2509355009
 21
118.3810970321
  0
LINE
  5
366
100
AcDbEntity
  8
KONSTRUKTIONSELEMENTE
100
AcDbLine
 62
7
  6
CONTINUOUS
 10
186.4759354473
 20
118.0619480892
 11
187.2634355009
 21
120.423650293
  0
LINE
  5
367
100
AcDbEntity
  8
KONSTRUKTIONSELEMENTE
100
AcDbLine
 62
7
  6
CONTINUOUS
 10
184.5978107096
 20
122.8442885076
 11
184.7019772769
 21
123.057054477
  0
LINE
  5
368
100
AcDbEntity
  8
RUNDUNGEN
100
AcDbLine
 62
7
  6
CONTINUOUS
 10
191.4884355009
 20
159.1850938397
 11
196.5934335311
 21
157.0705344198
  0
LINE
  5
369
100
AcDbEntity
  8
BEZUGSACHSEN
100
AcDbLine
 62
7
  6
CONTINUOUS
 10
200.9535871279
 20
134.5465057633
 11
202.4884355992
 21
125.8419475318
  0
LINE
  5
36A
100
AcDbEntity
  8
0
100
AcDbLine
 62
7
  6
CONTINUOUS
 10
200.4884355009
 20
134.8419480892
 11
200.4884355009
 21
136.8868509277
  0
LINE
  5
36B
100
AcDbEntity
  8
KONSTRUKTIONSELEMENTE
100
AcDbLine
 62
7
  6
CONTINUOUS
 10
188.2196853937
 20
120.6151396319
 11
188.1071855009
 21
120.2959905549
  0
LINE
  5
36C
100
AcDbEntity
  8
KONSTRUKTIONSELEMENTE
100
AcDbLine
 62
7
  6
CONTINUOUS
 10
188.1634356082
 20
119.3385438606
 11
188.0509353937
 21
119.019394873
  0
LINE
  5
36D
100
AcDbEntity
  8
KONSTRUKTIONSELEMENTE
100
AcDbLine
 62
7
  6
CONTINUOUS
 10
189.9634355009
 20
118.5087565913
 11
190.0759353937
 21
118.8279055341
  0
LINE
  5
36E
100
AcDbEntity
  8
KONSTRUKTIONSELEMENTE
100
AcDbLine
 62
7
  6
CONTINUOUS
 10
189.5978108586
 20
124.280458661
 11
189.4936439932
 21
124.0676927289
  0
LINE
  5
36F
100
AcDbEntity
  8
KONSTRUKTIONSELEMENTE
100
AcDbLine
 62
7
  6
CONTINUOUS
 10
184.3894772769
 20
123.11024596
 11
184.2853107096
 21
122.9506715109
  0
LINE
  5
370
100
AcDbEntity
  8
BEZUGSACHSEN
100
AcDbLine
 62
7
  6
CONTINUOUS
 10
198.2170218315
 20
155.4469461193
 11
201.5128972456
 21
147.4899989948
  0
LINE
  5
371
100
AcDbEntity
  8
RUNDUNGEN
100
AcDbLine
 62
7
  6
CONTINUOUS
 10
202.4884355009
 20
125.8419480892
 11
202.4884355009
 21
125.6457879944
  0
LINE
  5
372
100
AcDbEntity
  8
0
100
AcDbLine
 62
7
  6
CONTINUOUS
 10
202.4884355009
 20
125.6457879944
 11
202.4884355009
 21
115.8419480892
  0
LINE
  5
373
100
AcDbEntity
  8
BEZUGSACHSEN
100
AcDbLine
 62
7
  6
CONTINUOUS
 10
201.5128975974
 20
145.193898033
 11
199.326709566
 21
139.9159732378
  0
LINE
  5
374
100
AcDbEntity
  8
KONSTRUKTIONSELEMENTE
100
AcDbLine
 62
7
  6
CONTINUOUS
 10
189.9071853937
 20
119.8491820976
 11
190.0196856082
 21
120.1045012161
  0
LINE
  5
375
100
AcDbEntity
  8
KONSTRUKTIONSELEMENTE
100
AcDbLine
 62
7
  6
CONTINUOUS
 10
191.8894771279
 20
124.7059906741
 11
190.8478108586
 21
122.4719480892
  0
LINE
  5
376
100
AcDbEntity
  8
KONSTRUKTIONSELEMENTE
100
AcDbLine
 62
7
  6
CONTINUOUS
 10
191.1603108586
 20
122.4719480892
 11
192.2019771279
 21
124.7059906741
  0
LINE
  5
377
100
AcDbEntity
  8
KONSTRUKTIONSELEMENTE
100
AcDbLine
 62
7
  6
CONTINUOUS
 10
188.3884353937
 20
120.2959905549
 11
188.5009356082
 21
120.4874800726
  0
LINE
  5
378
100
AcDbEntity
  8
KONSTRUKTIONSELEMENTE
100
AcDbLine
 62
7
  6
CONTINUOUS
 10
188.3478108586
 20
124.386841776
 11
188.4519771279
 21
124.5464162251
  0
LINE
  5
379
100
AcDbEntity
  8
KONSTRUKTIONSELEMENTE
100
AcDbLine
 62
7
  6
CONTINUOUS
 10
189.7540608586
 20
123.9081182798
 11
189.8582271279
 21
124.0676927289
  0
LINE
  5
37A
100
AcDbEntity
  8
KONSTRUKTIONSELEMENTE
100
AcDbLine
 62
7
  6
CONTINUOUS
 10
183.1915606723
 20
124.8123736402
 11
182.9832273328
 21
124.5996077081
  0
LINE
  5
37B
100
AcDbEntity
  8
KONSTRUKTIONSELEMENTE
100
AcDbLine
 62
7
  6
CONTINUOUS
 10
189.7384353937
 20
120.1683309957
 11
189.6259355009
 21
119.9768416568
  0
LINE
  5
37C
100
AcDbEntity
  8
KONSTRUKTIONSELEMENTE
100
AcDbLine
 62
7
  6
CONTINUOUS
 10
188.3321856082
 20
119.019394873
 11
188.5009356082
 21
119.2747140809
  0
LINE
  5
37D
100
AcDbEntity
  8
KONSTRUKTIONSELEMENTE
100
AcDbLine
 62
7
  6
CONTINUOUS
 10
189.7946855009
 20
118.8279055341
 11
189.6259355009
 21
118.5725863709
  0
LINE
  5
37E
100
AcDbEntity
  8
KONSTRUKTIONSELEMENTE
100
AcDbLine
 62
7
  6
CONTINUOUS
 10
184.3894772769
 20
122.6315225569
 11
184.5978107096
 21
122.8442885076
  0
LINE
  5
37F
100
AcDbEntity
  8
KONSTRUKTIONSELEMENTE
100
AcDbLine
 62
7
  6
CONTINUOUS
 10
188.3478108586
 20
124.8123736402
 11
188.1394771279
 21
124.5996077081
  0
LINE
  5
380
100
AcDbEntity
  8
KONSTRUKTIONSELEMENTE
100
AcDbLine
 62
7
  6
CONTINUOUS
 10
183.2957273141
 20
124.4932247421
 11
183.4519773514
 21
124.5996077081
  0
LINE
  5
381
100
AcDbEntity
  8
KONSTRUKTIONSELEMENTE
100
AcDbLine
 62
7
  6
CONTINUOUS
 10
188.3884353937
 20
120.8066289707
 11
188.2196853937
 21
120.6151396319
  0
LINE
  5
382
100
AcDbEntity
  8
KONSTRUKTIONSELEMENTE
100
AcDbLine
 62
7
  6
CONTINUOUS
 10
189.7384353937
 20
119.6576927587
 11
189.9071853937
 21
119.8491820976
  0
LINE
  5
383
100
AcDbEntity
  8
KONSTRUKTIONSELEMENTE
100
AcDbLine
 62
7
  6
CONTINUOUS
 10
189.7946855009
 20
118.3172672301
 11
189.9634355009
 21
118.5087565913
  0
LINE
  5
384
100
AcDbEntity
  8
KONSTRUKTIONSELEMENTE
100
AcDbLine
 62
7
  6
CONTINUOUS
 10
189.4936439932
 20
124.0676927289
 11
188.0353108586
 21
122.7379055416
  0
LINE
  5
385
100
AcDbEntity
  8
KONSTRUKTIONSELEMENTE
100
AcDbLine
 62
7
  6
CONTINUOUS
 10
188.4519771279
 20
122.7379055416
 11
189.7540608586
 21
123.9081182798
  0
LINE
  5
386
100
AcDbEntity
  8
KONSTRUKTIONSELEMENTE
100
AcDbLine
 62
7
  6
CONTINUOUS
 10
184.2853107096
 20
122.9506715109
 11
184.1290607096
 21
122.8442885076
  0
LINE
  5
387
100
AcDbEntity
  8
KONSTRUKTIONSELEMENTE
100
AcDbLine
 62
7
  6
CONTINUOUS
 10
188.4519771279
 20
124.5464162251
 11
188.6082271279
 21
124.6527991911
  0
LINE
  5
388
100
AcDbEntity
  8
KONSTRUKTIONSELEMENTE
100
AcDbLine
 62
7
  6
CONTINUOUS
 10
183.3998939932
 20
124.9187566062
 11
183.1915606723
 21
124.8123736402
  0
LINE
  5
389
100
AcDbEntity
  8
KONSTRUKTIONSELEMENTE
100
AcDbLine
 62
7
  6
CONTINUOUS
 10
188.5561439932
 20
124.9187566062
 11
188.3478108586
 21
124.8123736402
  0
LINE
  5
38A
100
AcDbEntity
  8
KONSTRUKTIONSELEMENTE
100
AcDbLine
 62
7
  6
CONTINUOUS
 10
183.4519773514
 20
124.5996077081
 11
183.6082273514
 21
124.6527991911
  0
LINE
  5
38B
100
AcDbEntity
  8
KONSTRUKTIONSELEMENTE
100
AcDbLine
 62
7
  6
CONTINUOUS
 10
188.5009356082
 20
120.4874800726
 11
188.7259353937
 21
120.6789694115
  0
LINE
  5
38C
100
AcDbEntity
  8
KONSTRUKTIONSELEMENTE
100
AcDbLine
 62
7
  6
CONTINUOUS
 10
188.3884353937
 20
119.5300331994
 11
188.1634356082
 21
119.3385438606
  0
LINE
  5
38D
100
AcDbEntity
  8
KONSTRUKTIONSELEMENTE
100
AcDbLine
 62
7
  6
CONTINUOUS
 10
189.6259355009
 20
119.9768416568
 11
189.4009353937
 21
119.7853523179
  0
LINE
  5
38E
100
AcDbEntity
  8
KONSTRUKTIONSELEMENTE
100
AcDbLine
 62
7
  6
CONTINUOUS
 10
188.6696856082
 20
120.9981183096
 11
188.3884353937
 21
120.8066289707
  0
LINE
  5
38F
100
AcDbEntity
  8
KONSTRUKTIONSELEMENTE
100
AcDbLine
 62
7
  6
CONTINUOUS
 10
184.1811439932
 20
122.5251395769
 11
184.3894772769
 21
122.6315225569
  0
LINE
  5
390
100
AcDbEntity
  8
KONSTRUKTIONSELEMENTE
100
AcDbLine
 62
7
  6
CONTINUOUS
 10
189.5134356082
 20
118.1257778745
 11
189.7946855009
 21
118.3172672301
  0
LINE
  5
391
100
AcDbEntity
  8
KONSTRUKTIONSELEMENTE
100
AcDbLine
 62
7
  6
CONTINUOUS
 10
188.5009356082
 20
119.5938629791
 11
188.3884353937
 21
119.5300331994
  0
LINE
  5
392
100
AcDbEntity
  8
KONSTRUKTIONSELEMENTE
100
AcDbLine
 62
7
  6
CONTINUOUS
 10
188.5009356082
 20
119.2747140809
 11
188.7259353937
 21
119.4023736402
  0
LINE
  5
393
100
AcDbEntity
  8
KONSTRUKTIONSELEMENTE
100
AcDbLine
 62
7
  6
CONTINUOUS
 10
189.6259355009
 20
119.5938629791
 11
189.7384353937
 21
119.6576927587
  0
LINE
  5
394
100
AcDbEntity
  8
KONSTRUKTIONSELEMENTE
100
AcDbLine
 62
7
  6
CONTINUOUS
 10
189.6259355009
 20
118.5725863709
 11
189.4009353937
 21
118.4449268117
  0
LINE
  5
395
100
AcDbEntity
  8
0
100
AcDbLine
 62
7
  6
CONTINUOUS
 10
191.4884355009
 20
103.3419480892
 11
190.9884355009
 21
102.8419480892
  0
LINE
  5
396
100
AcDbEntity
  8
BEZUGSACHSEN
100
AcDbLine
 62
7
  6
CONTINUOUS
 10
77.5166663969
 20
52.7002708913
 11
78.5359042834
 21
54.4656426957
  0
LWPOLYLINE
  5
397
100
AcDbEntity
  8
RUNDUNGEN
100
AcDbPolyline
 62
7
  6
CONTINUOUS
 90
6
 70
0
 10
92.5889819627
 20
31.8301658337
 10
92.7971179342
 20
31.8435682405
 10
93.2094462819
 20
31.9541196642
 10
93.5781964759
 20
32.1655538172
 10
93.8860035226
 20
32.4593410659
 10
93.932951598
 20
32.517412255
  0
LINE
  5
398
100
AcDbEntity
  8
BEZUGSACHSEN
100
AcDbLine
 62
7
  6
CONTINUOUS
 10
89.4440596739
 20
31.8301472191
 11
89.4429235457
 21
31.8301334016
  0
LINE
  5
399
100
AcDbEntity
  8
RUNDUNGEN
100
AcDbLine
 62
7
  6
CONTINUOUS
 10
92.0359042834
 20
31.0829567935
 11
89.9974285104
 21
31.0829567935
  0
LINE
  5
39A
100
AcDbEntity
  8
BEZUGSACHSEN
100
AcDbLine
 62
7
  6
CONTINUOUS
 10
92.592339989
 20
31.8301333944
 11
89.4409928048
 21
31.8301333944
  0
LINE
  5
39B
100
AcDbEntity
  8
BEZUGSACHSEN
100
AcDbLine
 62
7
  6
CONTINUOUS
 10
78.5359042834
 20
37.7002708913
 11
77.5166663969
 21
39.4656426957
  0
LINE
  5
39C
100
AcDbEntity
  8
RUNDUNGEN
100
AcDbLine
 62
7
  6
CONTINUOUS
 10
77.5166663969
 20
39.4656426957
 11
77.5166663969
 21
41.5829567935
  0
LINE
  5
39D
100
AcDbEntity
  8
RUNDUNGEN
100
AcDbLine
 62
7
  6
CONTINUOUS
 10
77.5166663969
 20
50.5829567935
 11
77.5166663969
 21
52.7002708913
  0
LINE
  5
39E
100
AcDbEntity
  8
BEZUGSACHSEN
100
AcDbLine
 62
7
  6
CONTINUOUS
 10
78.5359042834
 20
54.4656426957
 11
89.9974285104
 21
61.0829567935
  0
LINE
  5
39F
100
AcDbEntity
  8
BEZUGSACHSEN
100
AcDbLine
 62
7
  6
CONTINUOUS
 10
89.9974285104
 20
31.0829567935
 11
78.5359042834
 21
37.7002708913
  0
LWPOLYLINE
  5
3A0
100
AcDbEntity
  8
BEZUGSACHSEN
100
AcDbPolyline
 62
7
  6
CONTINUOUS
 90
3
 70
0
 10
88.0865645916
 20
59.6308481111
 10
88.0680583868
 20
59.6070241658
 10
88.0360625749
 20
59.5677661494
  0
LINE
  5
3A1
100
AcDbEntity
  8
BEZUGSACHSEN
100
AcDbLine
 62
7
  6
CONTINUOUS
 10
88.0360625749
 20
59.5677661494
 11
88.0066657021
 21
59.5335292454
  0
LINE
  5
3A2
100
AcDbEntity
  8
BEZUGSACHSEN
100
AcDbLine
 62
7
  6
CONTINUOUS
 10
88.0066656929
 20
59.5335292534
 11
85.8243838308
 21
57.0499999456
  0
LWPOLYLINE
  5
3A3
100
AcDbEntity
  8
BEZUGSACHSEN
100
AcDbPolyline
 62
7
  6
CONTINUOUS
 90
5
 70
0
 10
88.156159017
 20
32.4489268809
 10
88.4737712344
 20
32.1517177674
 10
88.8505880044
 20
31.9433168634
 10
89.2687118824
 20
31.8396726267
 10
89.4441689647
 20
31.8301612715
  0
LINE
  5
3A4
100
AcDbEntity
  8
BEZUGSACHSEN
100
AcDbLine
 62
7
  6
CONTINUOUS
 10
85.8246144038
 20
35.1156512787
 11
88.0066435167
 21
32.6324095705
  0
LWPOLYLINE
  5
3A5
100
AcDbEntity
  8
BEZUGSACHSEN
100
AcDbPolyline
 62
7
  6
CONTINUOUS
 90
4
 70
0
 10
88.0066657021
 20
32.6323843416
 10
88.0360625749
 20
32.5981474376
 10
88.0680583868
 20
32.5588894212
 10
88.0865645916
 20
32.5350654759
  0
LINE
  5
3A6
100
AcDbEntity
  8
BEZUGSACHSEN
100
AcDbLine
 62
7
  6
CONTINUOUS
 10
88.1021785046
 20
32.5151509443
 11
88.156159017
 21
32.4489268809
  0
LINE
  5
3A7
100
AcDbEntity
  8
0
100
AcDbLine
 62
7
  6
CONTINUOUS
 10
88.2666663969
 20
38.9938180171
 11
87.7666663969
 21
38.9938180171
  0
LINE
  5
3A8
100
AcDbEntity
  8
0
100
AcDbLine
 62
7
  6
CONTINUOUS
 10
88.2666663969
 20
39.1668430707
 11
87.7666663969
 21
39.1668430707
  0
LINE
  5
3A9
100
AcDbEntity
  8
0
100
AcDbLine
 62
7
  6
CONTINUOUS
 10
88.2666663969
 20
39.9742928811
 11
87.7666663969
 21
39.9742928811
  0
LINE
  5
3AA
100
AcDbEntity
  8
0
100
AcDbLine
 62
7
  6
CONTINUOUS
 10
88.2666663969
 20
40.1473179348
 11
87.7666663969
 21
40.1473179348
  0
LINE
  5
3AB
100
AcDbEntity
  8
0
100
AcDbLine
 62
7
  6
CONTINUOUS
 10
88.2666663969
 20
40.9883959952
 11
87.7666663969
 21
40.9883959952
  0
LINE
  5
3AC
100
AcDbEntity
  8
0
100
AcDbLine
 62
7
  6
CONTINUOUS
 10
88.2666663969
 20
41.2366299585
 11
87.7666663969
 21
41.2366299585
  0
LINE
  5
3AD
100
AcDbEntity
  8
0
100
AcDbLine
 62
7
  6
CONTINUOUS
 10
88.2666663969
 20
41.6915145333
 11
87.7666663969
 21
41.6915145333
  0
LINE
  5
3AE
100
AcDbEntity
  8
0
100
AcDbLine
 62
7
  6
CONTINUOUS
 10
88.2666663969
 20
41.8018481309
 11
87.7666663969
 21
41.8018481309
  0
LINE
  5
3AF
100
AcDbEntity
  8
0
100
AcDbLine
 62
7
  6
CONTINUOUS
 10
88.2666663969
 20
41.8393708487
 11
87.7666663969
 21
41.8393708487
  0
LINE
  5
3B0
100
AcDbEntity
  8
0
100
AcDbLine
 62
7
  6
CONTINUOUS
 10
88.2666663969
 20
41.917590227
 11
87.7666663969
 21
41.917590227
  0
LINE
  5
3B1
100
AcDbEntity
  8
0
100
AcDbLine
 62
7
  6
CONTINUOUS
 10
88.2666663969
 20
42.0273051151
 11
87.7666663969
 21
42.0273051151
  0
LINE
  5
3B2
100
AcDbEntity
  8
0
100
AcDbLine
 62
7
  6
CONTINUOUS
 10
109.5166663969
 20
42.0829567935
 11
72.5166663969
 21
42.0829567935
  0
LINE
  5
3B3
100
AcDbEntity
  8
RUNDUNGEN
100
AcDbLine
 62
7
  6
CONTINUOUS
 10
77.0088024749
 20
42.0829567935
 11
77.0255777549
 21
42.082476334
  0
LINE
  5
3B4
100
AcDbEntity
  8
0
100
AcDbLine
 62
7
  6
CONTINUOUS
 10
87.7666663969
 20
38.9938180171
 11
87.7666663969
 21
40.9883959952
  0
LINE
  5
3B5
100
AcDbEntity
  8
0
100
AcDbLine
 62
7
  6
CONTINUOUS
 10
87.7666663969
 20
41.2366299585
 11
87.7666663969
 21
41.8018481309
  0
LINE
  5
3B6
100
AcDbEntity
  8
0
100
AcDbLine
 62
7
  6
CONTINUOUS
 10
87.7666663969
 20
41.8393708487
 11
87.7666663969
 21
42.0946228668
  0
LINE
  5
3B7
100
AcDbEntity
  8
0
100
AcDbLine
 62
7
  6
CONTINUOUS
 10
87.7666663969
 20
51.4740350001
 11
87.7666663969
 21
55.7069089593
  0
LINE
  5
3B8
100
AcDbEntity
  8
RUNDUNGEN
100
AcDbLine
 62
7
  6
CONTINUOUS
 10
88.2666663969
 20
42.0829567935
 11
88.2666663969
 21
37.5519839119
  0
LINE
  5
3B9
100
AcDbEntity
  8
BEZUGSACHSEN
100
AcDbLine
 62
7
  6
CONTINUOUS
 10
88.2666663969
 20
37.5519839119
 11
88.2666663969
 21
34.278096647
  0
LINE
  5
3BA
100
AcDbEntity
  8
RUNDUNGEN
100
AcDbLine
 62
7
  6
CONTINUOUS
 10
88.2666663969
 20
50.0829567935
 11
88.2666663969
 21
54.6139296751
  0
LINE
  5
3BB
100
AcDbEntity
  8
BEZUGSACHSEN
100
AcDbLine
 62
7
  6
CONTINUOUS
 10
88.2666663969
 20
54.6139296751
 11
88.2666663969
 21
57.8878216893
  0
LINE
  5
3BC
100
AcDbEntity
  8
BEZUGSACHSEN
100
AcDbLine
 62
7
  6
CONTINUOUS
 10
93.7666663969
 20
57.8878216893
 11
93.7666663969
 21
54.6139296751
  0
LINE
  5
3BD
100
AcDbEntity
  8
RUNDUNGEN
100
AcDbLine
 62
7
  6
CONTINUOUS
 10
93.7666663969
 20
42.0829567935
 11
93.7666663969
 21
34.278096647
  0
LINE
  5
3BE
100
AcDbEntity
  8
RUNDUNGEN
100
AcDbLine
 62
7
  6
CONTINUOUS
 10
93.7666663969
 20
50.0829567935
 11
93.7666663969
 21
54.6139296751
  0
LINE
  5
3BF
100
AcDbEntity
  8
RUNDUNGEN
100
AcDbLine
 62
7
  6
CONTINUOUS
 10
77.0254184033
 20
50.0834230304
 11
77.0072672826
 21
50.0829465357
  0
LINE
  5
3C0
100
AcDbEntity
  8
0
100
AcDbLine
 62
7
  6
CONTINUOUS
 10
109.5166663969
 20
50.0829567935
 11
72.5166663969
 21
50.0829567935
  0
LINE
  5
3C1
100
AcDbEntity
  8
0
100
AcDbLine
 62
7
  6
CONTINUOUS
 10
88.2666663969
 20
51.4618633109
 11
87.7666663969
 21
51.4618633109
  0
LINE
  5
3C2
100
AcDbEntity
  8
0
100
AcDbLine
 62
7
  6
CONTINUOUS
 10
88.2666663969
 20
51.4740350001
 11
87.7666663969
 21
51.4740350001
  0
LINE
  5
3C3
100
AcDbEntity
  8
0
100
AcDbLine
 62
7
  6
CONTINUOUS
 10
88.2666663969
 20
51.5401133833
 11
87.7666663969
 21
51.5401133833
  0
LINE
  5
3C4
100
AcDbEntity
  8
0
100
AcDbLine
 62
7
  6
CONTINUOUS
 10
88.2666663969
 20
51.6631417344
 11
87.7666663969
 21
51.6631417344
  0
LINE
  5
3C5
100
AcDbEntity
  8
0
100
AcDbLine
 62
7
  6
CONTINUOUS
 10
88.2666663969
 20
52.1130868549
 11
87.7666663969
 21
52.1130868549
  0
LINE
  5
3C6
100
AcDbEntity
  8
0
100
AcDbLine
 62
7
  6
CONTINUOUS
 10
88.2666663969
 20
52.2900219735
 11
87.7666663969
 21
52.2900219735
  0
LINE
  5
3C7
100
AcDbEntity
  8
0
100
AcDbLine
 62
7
  6
CONTINUOUS
 10
88.2666663969
 20
52.4639143198
 11
87.7666663969
 21
52.4639143198
  0
LINE
  5
3C8
100
AcDbEntity
  8
0
100
AcDbLine
 62
7
  6
CONTINUOUS
 10
88.2666663969
 20
52.6917133496
 11
87.7666663969
 21
52.6917133496
  0
LINE
  5
3C9
100
AcDbEntity
  8
0
100
AcDbLine
 62
7
  6
CONTINUOUS
 10
88.2666663969
 20
52.8595197022
 11
87.7666663969
 21
52.8595197022
  0
LINE
  5
3CA
100
AcDbEntity
  8
0
100
AcDbLine
 62
7
  6
CONTINUOUS
 10
88.2666663969
 20
53.0242833666
 11
87.7666663969
 21
53.0242833666
  0
LINE
  5
3CB
100
AcDbEntity
  8
0
100
AcDbLine
 62
7
  6
CONTINUOUS
 10
88.2666663969
 20
53.6711660368
 11
87.7666663969
 21
53.6711660368
  0
LINE
  5
3CC
100
AcDbEntity
  8
0
100
AcDbLine
 62
7
  6
CONTINUOUS
 10
88.2666663969
 20
54.1329028187
 11
87.7666663969
 21
54.1329028187
  0
LINE
  5
3CD
100
AcDbEntity
  8
0
100
AcDbLine
 62
7
  6
CONTINUOUS
 10
88.2666663969
 20
54.2559388128
 11
87.7666663969
 21
54.2559388128
  0
LINE
  5
3CE
100
AcDbEntity
  8
0
100
AcDbLine
 62
7
  6
CONTINUOUS
 10
88.2666663969
 20
54.7480827893
 11
87.7666663969
 21
54.7480827893
  0
LINE
  5
3CF
100
AcDbEntity
  8
0
100
AcDbLine
 62
7
  6
CONTINUOUS
 10
88.2666663969
 20
54.871118842
 11
87.7666663969
 21
54.871118842
  0
LINE
  5
3D0
100
AcDbEntity
  8
0
100
AcDbLine
 62
7
  6
CONTINUOUS
 10
88.2666663969
 20
54.9107585621
 11
87.7666663969
 21
54.9107585621
  0
LINE
  5
3D1
100
AcDbEntity
  8
0
100
AcDbLine
 62
7
  6
CONTINUOUS
 10
88.2666663969
 20
55.1100427129
 11
87.7666663969
 21
55.1100427129
  0
LINE
  5
3D2
100
AcDbEntity
  8
0
100
AcDbLine
 62
7
  6
CONTINUOUS
 10
88.2666663969
 20
55.2826981023
 11
87.7666663969
 21
55.2826981023
  0
LWPOLYLINE
  5
3D3
100
AcDbEntity
  8
RUNDUNGEN
100
AcDbPolyline
 62
7
  6
CONTINUOUS
 90
3
 70
0
 10
93.9467682022
 20
32.5350654759
 10
93.9652744071
 20
32.5588894212
 10
93.9972702189
 20
32.5981474376
  0
LINE
  5
3D4
100
AcDbEntity
  8
RUNDUNGEN
100
AcDbLine
 62
7
  6
CONTINUOUS
 10
93.9972702189
 20
32.5981474376
 11
94.0266670917
 21
32.6323843416
  0
LINE
  5
3D5
100
AcDbEntity
  8
0
100
AcDbLine
 62
7
  6
CONTINUOUS
 10
88.2666663969
 20
55.3888432829
 11
87.7666663969
 21
55.3888432829
  0
LINE
  5
3D6
100
AcDbEntity
  8
0
100
AcDbLine
 62
7
  6
CONTINUOUS
 10
88.2666663969
 20
55.7069089593
 11
87.7666663969
 21
55.7069089593
  0
LWPOLYLINE
  5
3D7
100
AcDbEntity
  8
BEZUGSACHSEN
100
AcDbPolyline
 62
7
  6
CONTINUOUS
 90
4
 70
0
 10
94.0266670917
 20
59.5335292454
 10
93.9972702189
 20
59.5677661494
 10
93.9652744071
 20
59.6070241658
 10
93.9467682022
 20
59.6308481111
  0
LINE
  5
3D8
100
AcDbEntity
  8
BEZUGSACHSEN
100
AcDbLine
 62
7
  6
CONTINUOUS
 10
93.9311542892
 20
59.6507626427
 11
93.8771737768
 21
59.7169867061
  0
LINE
  5
3D9
100
AcDbEntity
  8
RUNDUNGEN
100
AcDbLine
 62
7
  6
CONTINUOUS
 10
94.0266892772
 20
32.6324095705
 11
96.208948963
 21
35.1159136414
  0
LWPOLYLINE
  5
3DA
100
AcDbEntity
  8
BEZUGSACHSEN
100
AcDbPolyline
 62
7
  6
CONTINUOUS
 90
5
 70
0
 10
93.8771737768
 20
59.7169867061
 10
93.5595615594
 20
60.0141958196
 10
93.1827447894
 20
60.2225967236
 10
92.7646209114
 20
60.3262409604
 10
92.5891638291
 20
60.3357523155
  0
LINE
  5
3DB
100
AcDbEntity
  8
BEZUGSACHSEN
100
AcDbLine
 62
7
  6
CONTINUOUS
 10
96.20871839
 20
57.0502623083
 11
94.0266892772
 21
59.5335040165
  0
LINE
  5
3DC
100
AcDbEntity
  8
0
100
AcDbLine
 62
7
  6
CONTINUOUS
 10
104.5166663969
 20
52.7002708913
 11
104.5166663969
 21
50.0829567935
  0
LINE
  5
3DD
100
AcDbEntity
  8
0
100
AcDbLine
 62
7
  6
CONTINUOUS
 10
104.5166663969
 20
42.0829567935
 11
104.5166663969
 21
39.4656426957
  0
LINE
  5
3DE
100
AcDbEntity
  8
BEZUGSACHSEN
100
AcDbLine
 62
7
  6
CONTINUOUS
 10
103.4974285104
 20
37.7002708913
 11
92.0359042834
 21
31.0829567935
  0
LWPOLYLINE
  5
3DF
100
AcDbEntity
  8
BEZUGSACHSEN
100
AcDbPolyline
 62
7
  6
CONTINUOUS
 90
6
 70
0
 10
89.4443508311
 20
60.3357477533
 10
89.2362148596
 20
60.3223453465
 10
88.823886512
 20
60.2117939228
 10
88.4551363179
 20
60.0003597698
 10
88.1473292713
 20
59.7065725211
 10
88.1003811958
 20
59.648501332
  0
LINE
  5
3E0
100
AcDbEntity
  8
BEZUGSACHSEN
100
AcDbLine
 62
7
  6
CONTINUOUS
 10
92.5892731199
 20
60.3357663679
 11
92.5904092481
 21
60.3357801854
  0
LINE
  5
3E1
100
AcDbEntity
  8
BEZUGSACHSEN
100
AcDbLine
 62
7
  6
CONTINUOUS
 10
89.4409928048
 20
60.3357801926
 11
92.592339989
 21
60.3357801926
  0
LINE
  5
3E2
100
AcDbEntity
  8
BEZUGSACHSEN
100
AcDbLine
 62
7
  6
CONTINUOUS
 10
92.0359042834
 20
61.0829567935
 11
103.4974285104
 21
54.4656426957
  0
LINE
  5
3E3
100
AcDbEntity
  8
BEZUGSACHSEN
100
AcDbLine
 62
7
  6
CONTINUOUS
 10
104.5166663969
 20
39.4656426957
 11
103.4974285104
 21
37.7002708913
  0
LINE
  5
3E4
100
AcDbEntity
  8
RUNDUNGEN
100
AcDbLine
 62
7
  6
CONTINUOUS
 10
89.9974285104
 20
61.0829567935
 11
92.0359042834
 21
61.0829567935
  0
LINE
  5
3E5
100
AcDbEntity
  8
BEZUGSACHSEN
100
AcDbLine
 62
7
  6
CONTINUOUS
 10
103.4974285104
 20
54.4656426957
 11
104.5166663969
 21
52.7002708913
  0
ARC
  5
3E6
100
AcDbEntity
  8
RUNDUNGEN
100
AcDbCircle
 62
7
  6
CONTINUOUS
 10
66.6491827031
 20
128.7627828976
 40
10.4779247688
100
AcDbArc
 50
8.3262129214
 51
8.6674788597
  0
ARC
  5
3E7
100
AcDbEntity
  8
BEZUGSACHSEN
100
AcDbCircle
 62
7
  6
CONTINUOUS
 10
79.2666663969
 20
148.9288909156
 40
9.0
100
AcDbArc
 50
340.0000217309
 51
0.0000729938
  0
ARC
  5
3E8
100
AcDbEntity
  8
BEZUGSACHSEN
100
AcDbCircle
 62
7
  6
CONTINUOUS
 10
79.5166663969
 20
136.3419480892
 40
1.5
100
AcDbArc
 50
90.0
 51
180.0
  0
ARC
  5
3E9
100
AcDbEntity
  8
BEZUGSACHSEN
100
AcDbCircle
 62
7
  6
CONTINUOUS
 10
83.7586394881
 20
139.3419480892
 40
1.499999237
100
AcDbArc
 50
270.0
 51
339.9999787827
  0
ARC
  5
3EA
100
AcDbEntity
  8
RUNDUNGEN
100
AcDbCircle
 62
7
  6
CONTINUOUS
 10
76.5166663969
 20
133.8419480892
 40
0.5
100
AcDbArc
 50
90.0
 51
180.0
  0
ARC
  5
3EB
100
AcDbEntity
  8
RUNDUNGEN
100
AcDbCircle
 62
7
  6
CONTINUOUS
 10
76.5166663969
 20
127.0419480892
 40
0.5
100
AcDbArc
 50
180.0
 51
270.0
  0
ARC
  5
3EC
100
AcDbEntity
  8
0
100
AcDbCircle
 62
7
  6
CONTINUOUS
 10
91.0166663969
 20
177.3419480892
 40
22.5
100
AcDbArc
 50
0.0
 51
180.0
  0
ARC
  5
3ED
100
AcDbEntity
  8
0
100
AcDbCircle
 62
7
  6
CONTINUOUS
 10
91.0166663969
 20
166.3419480892
 40
22.5
100
AcDbArc
 50
180.0
 51
260.0243943825
  0
ARC
  5
3EE
100
AcDbEntity
  8
0
100
AcDbCircle
 62
7
  6
CONTINUOUS
 10
91.0166663969
 20
166.3419480892
 40
22.5
100
AcDbArc
 50
279.9756056175
 51
360.0
  0
ARC
  5
3EF
100
AcDbEntity
  8
0
100
AcDbCircle
 62
7
  6
CONTINUOUS
 10
91.0166663969
 20
166.3419480892
 40
14.5
100
AcDbArc
 50
180.0
 51
259.0588048513
  0
ARC
  5
3F0
100
AcDbEntity
  8
0
100
AcDbCircle
 62
7
  6
CONTINUOUS
 10
91.0166663969
 20
166.3419480892
 40
14.5
100
AcDbArc
 50
280.9411951487
 51
360.0
  0
ARC
  5
3F1
100
AcDbEntity
  8
0
100
AcDbCircle
 62
7
  6
CONTINUOUS
 10
91.0166663969
 20
177.3419480892
 40
14.5
100
AcDbArc
 50
0.0
 51
180.0
  0
ARC
  5
3F2
100
AcDbEntity
  8
RUNDUNGEN
100
AcDbCircle
 62
7
  6
CONTINUOUS
 10
89.7666663969
 20
159.0947714884
 40
1.5
100
AcDbArc
 50
90.0
 51
180.0
  0
ARC
  5
3F3
100
AcDbEntity
  8
RUNDUNGEN
100
AcDbCircle
 62
7
  6
CONTINUOUS
 10
92.2666663969
 20
159.0947714884
 40
1.5
100
AcDbArc
 50
0.0
 51
90.0
  0
ARC
  5
3F4
100
AcDbEntity
  8
0
100
AcDbCircle
 62
7
  6
CONTINUOUS
 10
124.8884412868
 20
128.8407498858
 40
20.6051623633
100
AcDbArc
 50
188.3725803762
 51
188.6317560939
  0
ARC
  5
3F5
100
AcDbEntity
  8
RUNDUNGEN
100
AcDbCircle
 62
7
  6
CONTINUOUS
 10
102.7666663969
 20
148.9288909156
 40
9.0
100
AcDbArc
 50
179.9999270062
 51
199.9999782691
  0
ARC
  5
3F6
100
AcDbEntity
  8
BEZUGSACHSEN
100
AcDbCircle
 62
7
  6
CONTINUOUS
 10
102.5166663969
 20
136.3419480892
 40
1.5
100
AcDbArc
 50
0.0
 51
90.0
  0
ARC
  5
3F7
100
AcDbEntity
  8
RUNDUNGEN
100
AcDbCircle
 62
7
  6
CONTINUOUS
 10
98.2746933057
 20
139.3419480892
 40
1.499999237
100
AcDbArc
 50
200.0000212173
 51
270.0
  0
ARC
  5
3F8
100
AcDbEntity
  8
BEZUGSACHSEN
100
AcDbCircle
 62
7
  6
CONTINUOUS
 10
98.2746933057
 20
139.3419480892
 40
1.499999237
100
AcDbArc
 50
200.0000212173
 51
270.0
  0
ARC
  5
3F9
100
AcDbEntity
  8
BEZUGSACHSEN
100
AcDbCircle
 62
7
  6
CONTINUOUS
 10
103.7506994186
 20
124.6503250826
 40
1.2560461061
100
AcDbArc
 50
52.4232266309
 51
55.00502194
  0
ARC
  5
3FA
100
AcDbEntity
  8
BEZUGSACHSEN
100
AcDbCircle
 62
7
  6
CONTINUOUS
 10
176.2356121018
 20
146.3419480892
 40
3.0
100
AcDbArc
 50
157.4999874212
 51
202.4999950211
  0
ARC
  5
3FB
100
AcDbEntity
  8
BEZUGSACHSEN
100
AcDbCircle
 62
7
  6
CONTINUOUS
 10
179.5314877679
 20
154.2988958223
 40
3.0
100
AcDbArc
 50
112.5
 51
157.5
  0
ARC
  5
3FC
100
AcDbEntity
  8
RUNDUNGEN
100
AcDbCircle
 62
7
  6
CONTINUOUS
 10
183.9884355009
 20
118.8419480892
 40
2.0
100
AcDbArc
 50
179.9999997937
 51
270.0000001204
  0
ARC
  5
3FD
100
AcDbEntity
  8
RUNDUNGEN
100
AcDbCircle
 62
7
  6
CONTINUOUS
 10
183.9884355009
 20
124.5419480892
 40
2.0
100
AcDbArc
 50
89.9999997937
 51
180.0000001204
  0
ARC
  5
3FE
100
AcDbEntity
  8
BEZUGSACHSEN
100
AcDbCircle
 62
7
  6
CONTINUOUS
 10
175.988435502
 20
136.8868509103
 40
1.5000000074
100
AcDbArc
 50
125.0784705007
 51
179.9999993375
  0
ARC
  5
3FF
100
AcDbEntity
  8
BEZUGSACHSEN
100
AcDbCircle
 62
7
  6
CONTINUOUS
 10
174.2643422571
 20
139.3419480892
 40
1.4999999446
100
AcDbArc
 50
305.0784708476
 51
22.5000017536
  0
ARC
  5
400
100
AcDbEntity
  8
RUNDUNGEN
100
AcDbCircle
 62
7
  6
CONTINUOUS
 10
183.9884355009
 20
127.0419480892
 40
0.5
100
AcDbArc
 50
180.0
 51
270.0
  0
ARC
  5
401
100
AcDbEntity
  8
RUNDUNGEN
100
AcDbCircle
 62
7
  6
CONTINUOUS
 10
187.4884355009
 20
130.3419480892
 40
4.0
100
AcDbArc
 50
0.0
 51
180.0
  0
ARC
  5
402
100
AcDbEntity
  8
RUNDUNGEN
100
AcDbCircle
 62
7
  6
CONTINUOUS
 10
190.9884355009
 20
118.8419480892
 40
2.0
100
AcDbArc
 50
269.9999997937
 51
0.0000001204
  0
ARC
  5
403
100
AcDbEntity
  8
RUNDUNGEN
100
AcDbCircle
 62
7
  6
CONTINUOUS
 10
190.9884355009
 20
124.5419480892
 40
2.0
100
AcDbArc
 50
359.9999997937
 51
90.0000001204
  0
ARC
  5
404
100
AcDbEntity
  8
RUNDUNGEN
100
AcDbCircle
 62
7
  6
CONTINUOUS
 10
190.9884355009
 20
127.0419480892
 40
0.5
100
AcDbArc
 50
270.0
 51
360.0
  0
ARC
  5
405
100
AcDbEntity
  8
BEZUGSACHSEN
100
AcDbCircle
 62
7
  6
CONTINUOUS
 10
187.4884355009
 20
146.3419480892
 40
5.5
100
AcDbArc
 50
136.6726595302
 51
43.3273404698
  0
ARC
  5
406
100
AcDbEntity
  8
0
100
AcDbCircle
 62
7
  6
CONTINUOUS
 10
187.4884355009
 20
147.8419480892
 40
4.0
100
AcDbArc
 50
180.0
 51
360.0
  0
ARC
  5
407
100
AcDbEntity
  8
RUNDUNGEN
100
AcDbCircle
 62
7
  6
CONTINUOUS
 10
195.445383234
 20
154.2988958223
 40
3.0
100
AcDbArc
 50
44.9999984507
 51
67.5
  0
ARC
  5
408
100
AcDbEntity
  8
RUNDUNGEN
100
AcDbCircle
 62
7
  6
CONTINUOUS
 10
195.445383234
 20
154.2988958223
 40
3.0
100
AcDbArc
 50
22.5
 51
34.9964238524
  0
ARC
  5
409
100
AcDbEntity
  8
BEZUGSACHSEN
100
AcDbCircle
 62
7
  6
CONTINUOUS
 10
195.445383234
 20
154.2988958223
 40
3.0
100
AcDbArc
 50
22.5
 51
67.5
  0
ARC
  5
40A
100
AcDbEntity
  8
BEZUGSACHSEN
100
AcDbCircle
 62
7
  6
CONTINUOUS
 10
198.7412589001
 20
146.3419480892
 40
3.0
100
AcDbArc
 50
337.5000049789
 51
22.5000125788
  0
ARC
  5
40B
100
AcDbEntity
  8
BEZUGSACHSEN
100
AcDbCircle
 62
7
  6
CONTINUOUS
 10
198.9884354999
 20
136.8868509103
 40
1.5000000074
100
AcDbArc
 50
0.0000006625
 51
54.9215294993
  0
ARC
  5
40C
100
AcDbEntity
  8
RUNDUNGEN
100
AcDbCircle
 62
7
  6
CONTINUOUS
 10
200.7125287448
 20
139.3419480892
 40
1.4999999446
100
AcDbArc
 50
157.4999982464
 51
219.408619775
  0
ARC
  5
40D
100
AcDbEntity
  8
BEZUGSACHSEN
100
AcDbCircle
 62
7
  6
CONTINUOUS
 10
200.7125287448
 20
139.3419480892
 40
1.4999999446
100
AcDbArc
 50
157.4999982464
 51
234.9215291524
  0
ARC
  5
40E
100
AcDbEntity
  8
0
100
AcDbCircle
 62
7
  6
CONTINUOUS
 10
187.4884355009
 20
195.8419480892
 40
4.0
100
AcDbArc
 50
0.0
 51
180.0
  0
ARC
  5
40F
100
AcDbEntity
  8
RUNDUNGEN
100
AcDbCircle
 62
7
  6
CONTINUOUS
 10
77.0166663969
 20
41.5829567935
 40
0.5
100
AcDbArc
 50
0.0
 51
90.0
  0
ARC
  5
410
100
AcDbEntity
  8
0
100
AcDbCircle
 62
7
  6
CONTINUOUS
 10
72.5166663969
 20
46.0829567935
 40
4.0
100
AcDbArc
 50
90.0
 51
270.0
  0
ARC
  5
411
100
AcDbEntity
  8
RUNDUNGEN
100
AcDbCircle
 62
7
  6
CONTINUOUS
 10
77.0166663969
 20
50.5829567935
 40
0.5
100
AcDbArc
 50
270.9958058267
 51
360.0
  0
ARC
  5
412
100
AcDbEntity
  8
RUNDUNGEN
100
AcDbCircle
 62
7
  6
CONTINUOUS
 10
91.0166663969
 20
46.0829567935
 40
13.4651516269
100
AcDbArc
 50
197.289326391
 51
255.4279969655
  0
ARC
  5
413
100
AcDbEntity
  8
FASEN
100
AcDbCircle
 62
7
  6
CONTINUOUS
 10
91.0166663969
 20
46.0829567935
 40
13.4651516269
100
AcDbArc
 50
17.2881949897
 51
75.4374416908
  0
ARC
  5
414
100
AcDbEntity
  8
FASEN
100
AcDbCircle
 62
7
  6
CONTINUOUS
 10
91.0166663969
 20
46.0829567935
 40
13.4651516269
100
AcDbArc
 50
284.5625583704
 51
342.7118049728
  0
ARC
  5
415
100
AcDbEntity
  8
RUNDUNGEN
100
AcDbCircle
 62
7
  6
CONTINUOUS
 10
91.0166663969
 20
46.0829567935
 40
13.4651516269
100
AcDbArc
 50
104.5720030234
 51
162.7106736038
  0
ARC
  5
416
100
AcDbEntity
  8
FASEN
100
AcDbCircle
 62
7
  6
CONTINUOUS
 10
91.0166663969
 20
46.0829567935
 40
13.1130571736
100
AcDbArc
 50
197.769478185
 51
253.0667437383
  0
ARC
  5
417
100
AcDbEntity
  8
FASEN
100
AcDbCircle
 62
7
  6
CONTINUOUS
 10
91.0166663969
 20
46.0829567935
 40
13.1130571736
100
AcDbArc
 50
106.9332561335
 51
162.2305217981
  0
ARC
  5
418
100
AcDbEntity
  8
FASEN
100
AcDbCircle
 62
7
  6
CONTINUOUS
 10
91.0166663969
 20
46.0829567935
 40
13.1130571736
100
AcDbArc
 50
17.769478185
 51
73.0667437383
  0
ARC
  5
419
100
AcDbEntity
  8
FASEN
100
AcDbCircle
 62
7
  6
CONTINUOUS
 10
91.0166663969
 20
46.0829567935
 40
13.1130571736
100
AcDbArc
 50
286.9332561335
 51
342.2305217981
  0
ARC
  5
41A
100
AcDbEntity
  8
BEZUGSACHSEN
100
AcDbCircle
 62
7
  6
CONTINUOUS
 10
91.0166663969
 20
46.0829567935
 40
13.0
100
AcDbArc
 50
287.6642200273
 51
288.4928162465
  0
ARC
  5
41B
100
AcDbEntity
  8
RUNDUNGEN
100
AcDbCircle
 62
7
  6
CONTINUOUS
 10
91.0166663969
 20
46.0829567935
 40
13.0
100
AcDbArc
 50
288.4928162465
 51
309.1337565624
  0
ARC
  5
41C
100
AcDbEntity
  8
BEZUGSACHSEN
100
AcDbCircle
 62
7
  6
CONTINUOUS
 10
91.0166663969
 20
46.0829567935
 40
13.0
100
AcDbArc
 50
17.9675604321
 51
72.3357799727
  0
ARC
  5
41D
100
AcDbEntity
  8
BEZUGSACHSEN
100
AcDbCircle
 62
7
  6
CONTINUOUS
 10
91.0166663969
 20
46.0829567935
 40
13.0
100
AcDbArc
 50
309.1337565624
 51
342.0324395679
  0
ARC
  5
41E
100
AcDbEntity
  8
BEZUGSACHSEN
100
AcDbCircle
 62
7
  6
CONTINUOUS
 10
91.0166663969
 20
46.0829567935
 40
13.0
100
AcDbArc
 50
107.6642200273
 51
162.0564609269
  0
ARC
  5
41F
100
AcDbEntity
  8
BEZUGSACHSEN
100
AcDbCircle
 62
7
  6
CONTINUOUS
 10
91.0166663969
 20
46.0829567935
 40
13.0
100
AcDbArc
 50
197.9435390731
 51
252.3357799727
  0
ARC
  5
420
100
AcDbEntity
  8
0
100
AcDbCircle
 62
7
  6
CONTINUOUS
 10
109.5166663969
 20
46.0829567935
 40
4.0
100
AcDbArc
 50
270.0
 51
90.0
  0
SPLINE
  5
421
100
AcDbEntity
  8
RUNDUNGEN
100
AcDbSpline
 62
7
  6
CONTINUOUS
 70
0
 71
3
 72
11
 73
7
 74
0
 42
0.0000001
 43
0.0000001
 44
0.0000000001
 40
0.0
 40
0.0
 40
0.0
 40
0.0
 40
0.1432358607
 40
0.3895695331
 40
0.6833028517
 40
1.0
 40
1.0
 40
1.0
 40
1.0
 10
77.4930966923
 20
130.3481044875
 30
0.0
 10
77.5000588409
 20
130.3477364624
 30
0.0
 10
77.5098119272
 20
130.3250063838
 30
0.0
 10
77.513283738
 20
130.2950536665
 30
0.0
 10
77.5164060957
 20
130.2522679351
 30
0.0
 10
77.5166663969
 20
130.222835203
 30
0.0
 10
77.5166663969
 20
130.2074202714
 30
0.0
  0
SPLINE
  5
422
100
AcDbEntity
  8
RUNDUNGEN
100
AcDbSpline
 62
7
  6
CONTINUOUS
 70
0
 71
3
 72
15
 73
11
 74
0
 42
0.0000001
 43
0.0000001
 44
0.0000000001
 40
0.0
 40
0.0
 40
0.0
 40
0.0
 40
0.1476016417
 40
0.253750246
 40
0.3794840599
 40
0.5255572723
 40
0.6776630851
 40
0.7540501506
 40
0.8348795718
 40
1.0
 40
1.0
 40
1.0
 40
1.0
 10
77.4930966923
 20
130.3481044875
 30
0.0
 10
77.467620991
 20
130.3494336359
 30
0.0
 10
77.4239524995
 20
130.3543030931
 30
0.0
 10
77.3583886196
 20
130.3547935967
 30
0.0
 10
77.2928892583
 20
130.3585431296
 30
0.0
 10
77.2217544792
 20
130.3749991573
 30
0.0
 10
77.1564093966
 20
130.38539218
 30
0.0
 10
77.103831787
 20
130.3710138368
 30
0.0
 10
77.0568775096
 20
130.3401012311
 30
0.0
 10
77.0293457096
 20
130.305646425
 30
0.0
 10
77.0166663969
 20
130.2800796125
 30
0.0
  0
SPLINE
  5
423
100
AcDbEntity
  8
RUNDUNGEN
100
AcDbSpline
 62
7
  6
CONTINUOUS
 70
0
 71
3
 72
11
 73
7
 74
0
 42
0.0000001
 43
0.0000001
 44
0.0000000001
 40
0.0
 40
0.0
 40
0.0
 40
0.0
 40
0.2500233633
 40
0.5000000091
 40
0.7499766371
 40
1.0
 40
1.0
 40
1.0
 40
1.0
 10
92.0359042834
 20
125.6457879944
 30
0.0
 10
91.8737295426
 20
125.7081397175
 30
0.0
 10
91.538546319
 20
125.8071626713
 30
0.0
 10
91.01666639
 20
125.859339174
 30
0.0
 10
90.4947864625
 20
125.8071626667
 30
0.0
 10
90.1596032509
 20
125.7081397174
 30
0.0
 10
89.9974285104
 20
125.6457879944
 30
0.0
  0
SPLINE
  5
424
100
AcDbEntity
  8
0
100
AcDbSpline
 62
7
  6
CONTINUOUS
 70
0
 71
3
 72
12
 73
8
 74
0
 42
0.0000001
 43
0.0000001
 44
0.0000000001
 40
0.0
 40
0.0
 40
0.0
 40
0.0
 40
0.0967922491
 40
0.2040381693
 40
0.4451709574
 40
0.7139862224
 40
1.0
 40
1.0
 40
1.0
 40
1.0
 10
104.5166663969
 20
132.6634508383
 30
0.0
 10
104.4980536653
 20
132.4435152401
 30
0.0
 10
104.4548943159
 20
131.980228426
 30
0.0
 10
104.3628684465
 20
130.969286234
 30
0.0
 10
104.2711010473
 20
129.5641784653
 30
0.0
 10
104.2828033846
 20
127.7470559186
 30
0.0
 10
104.4079165299
 20
126.4857056102
 30
0.0
 10
104.5028860742
 20
125.8404407865
 30
0.0
  0
SPLINE
  5
425
100
AcDbEntity
  8
BEZUGSACHSEN
100
AcDbSpline
 62
7
  6
CONTINUOUS
 70
0
 71
3
 72
29
 73
25
 74
0
 42
0.0000001
 43
0.0000001
 44
0.0000000001
 40
0.0
 40
0.0
 40
0.0
 40
0.0
 40
0.064450162
 40
0.1287288986
 40
0.1927697183
 40
0.2564630966
 40
0.3196086587
 40
0.3508778766
 40
0.3818392909
 40
0.4123685589
 40
0.4423001876
 40
0.4714777421
 40
0.5000007513
 40
0.5285235107
 40
0.55770032
 40
0.587631615
 40
0.6181609411
 40
0.6491223373
 40
0.6803914409
 40
0.7435369748
 40
0.8072303194
 40
0.8712711205
 40
0.9355498425
 40
1.0
 40
1.0
 40
1.0
 40
1.0
 10
89.9974285104
 20
125.6457879944
 30
0.0
 10
89.8445535788
 20
126.0864210579
 30
0.0
 10
89.5304656785
 20
126.9635274068
 30
0.0
 10
89.0273982229
 20
128.2648372101
 30
0.0
 10
88.4843343143
 20
129.5442236056
 30
0.0
 10
87.8885628909
 20
130.7910050823
 30
0.0
 10
87.3298012737
 20
131.791149209
 30
0.0
 10
86.8274460733
 20
132.5472851574
 30
0.0
 10
86.4179138512
 20
133.0800389487
 30
0.0
 10
85.9658903259
 20
133.5650058108
 30
0.0
 10
85.4609716321
 20
133.9767127176
 30
0.0
 10
84.892752414
 20
134.2728202695
 30
0.0
 10
84.2666521112
 20
134.3864676526
 30
0.0
 10
83.6405600074
 20
134.2728074395
 30
0.0
 10
83.0723538866
 20
133.9766989613
 30
0.0
 10
82.5674340113
 20
133.56500532
 30
0.0
 10
82.1154154957
 20
133.0800358662
 30
0.0
 10
81.7058870789
 20
132.547280248
 30
0.0
 10
81.2035283427
 20
131.7911480246
 30
0.0
 10
80.6447706698
 20
130.7910029407
 30
0.0
 10
80.0489981516
 20
129.5442227932
 30
0.0
 10
79.5059346586
 20
128.2648366869
 30
0.0
 10
79.0028670438
 20
126.9635272574
 30
0.0
 10
78.6887792044
 20
126.0864210274
 30
0.0
 10
78.5359042834
 20
125.6457879944
 30
0.0
  0
SPLINE
  5
426
100
AcDbEntity
  8
BEZUGSACHSEN
100
AcDbSpline
 62
7
  6
CONTINUOUS
 70
0
 71
3
 72
11
 73
7
 74
0
 42
0.0000001
 43
0.0000001
 44
0.0000000001
 40
0.0
 40
0.0
 40
0.0
 40
0.0
 40
0.2578411161
 40
0.4961682478
 40
0.7368622221
 40
1.0
 40
1.0
 40
1.0
 40
1.0
 10
104.4710476835
 20
125.6792809602
 30
0.0
 10
104.3970123191
 20
125.731075221
 30
0.0
 10
104.2422406731
 20
125.8162038033
 30
0.0
 10
103.9811778439
 20
125.8581269167
 30
0.0
 10
103.7225512821
 20
125.7963355465
 30
0.0
 10
103.5705266887
 20
125.7019964686
 30
0.0
 10
103.4974285104
 20
125.6457879944
 30
0.0
  0
SPLINE
  5
427
100
AcDbEntity
  8
BEZUGSACHSEN
100
AcDbSpline
 62
7
  6
CONTINUOUS
 70
0
 71
3
 72
29
 73
25
 74
0
 42
0.0000001
 43
0.0000001
 44
0.0000000001
 40
0.0
 40
0.0
 40
0.0
 40
0.0
 40
0.064450162
 40
0.1287288986
 40
0.1927697183
 40
0.2564630966
 40
0.3196086587
 40
0.3508778766
 40
0.3818392909
 40
0.4123685589
 40
0.4423001876
 40
0.4714777421
 40
0.5000007513
 40
0.5285235107
 40
0.55770032
 40
0.587631615
 40
0.6181609411
 40
0.6491223373
 40
0.6803914409
 40
0.7435369748
 40
0.8072303194
 40
0.8712711205
 40
0.9355498425
 40
1.0
 40
1.0
 40
1.0
 40
1.0
 10
103.4974285104
 20
125.6457879944
 30
0.0
 10
103.3445535788
 20
126.0864210579
 30
0.0
 10
103.0304656785
 20
126.9635274068
 30
0.0
 10
102.5273982229
 20
128.2648372101
 30
0.0
 10
101.9843343143
 20
129.5442236056
 30
0.0
 10
101.3885628909
 20
130.7910050823
 30
0.0
 10
100.8298012737
 20
131.791149209
 30
0.0
 10
100.3274460733
 20
132.5472851574
 30
0.0
 10
99.9179138512
 20
133.0800389487
 30
0.0
 10
99.4658903259
 20
133.5650058108
 30
0.0
 10
98.9609716321
 20
133.9767127176
 30
0.0
 10
98.392752414
 20
134.2728202695
 30
0.0
 10
97.7666521112
 20
134.3864676526
 30
0.0
 10
97.1405600074
 20
134.2728074395
 30
0.0
 10
96.5723538866
 20
133.9766989613
 30
0.0
 10
96.0674340113
 20
133.56500532
 30
0.0
 10
95.6154154957
 20
133.0800358662
 30
0.0
 10
95.2058870789
 20
132.547280248
 30
0.0
 10
94.7035283427
 20
131.7911480246
 30
0.0
 10
94.1447706698
 20
130.7910029407
 30
0.0
 10
93.5489981516
 20
129.5442227932
 30
0.0
 10
93.0059346586
 20
128.2648366869
 30
0.0
 10
92.5028670438
 20
126.9635272574
 30
0.0
 10
92.1887792044
 20
126.0864210274
 30
0.0
 10
92.0359042834
 20
125.6457879944
 30
0.0
  0
SPLINE
  5
428
100
AcDbEntity
  8
BEZUGSACHSEN
100
AcDbSpline
 62
7
  6
CONTINUOUS
 70
0
 71
3
 72
11
 73
7
 74
0
 42
0.0000001
 43
0.0000001
 44
0.0000000001
 40
0.0
 40
0.0
 40
0.0
 40
0.0
 40
0.2613219077
 40
0.4999999982
 40
0.7386780901
 40
1.0
 40
1.0
 40
1.0
 40
1.0
 10
78.5359042834
 20
125.6457879944
 30
0.0
 10
78.4594430294
 20
125.7045824887
 30
0.0
 10
78.2998704574
 20
125.8027356719
 30
0.0
 10
78.0262853418
 20
125.860472128
 30
0.0
 10
77.752700226
 20
125.8027356711
 30
0.0
 10
77.5931276516
 20
125.7045824892
 30
0.0
 10
77.5166663969
 20
125.6457879944
 30
0.0
  0
SPLINE
  5
429
100
AcDbEntity
  8
BEZUGSACHSEN
100
AcDbSpline
 62
7
  6
CONTINUOUS
 70
0
 71
3
 72
11
 73
7
 74
0
 42
0.0000001
 43
0.0000001
 44
0.0000000001
 40
0.0
 40
0.0
 40
0.0
 40
0.0
 40
0.2513914138
 40
0.4999999979
 40
0.7486085836
 40
1.0
 40
1.0
 40
1.0
 40
1.0
 10
180.8711214031
 20
125.6457879944
 30
0.0
 10
180.7318465986
 20
125.7076191229
 30
0.0
 10
180.4430043285
 20
125.8066258765
 30
0.0
 10
179.9884355039
 20
125.8593140374
 30
0.0
 10
179.5338666781
 20
125.8066258754
 30
0.0
 10
179.2450244047
 20
125.7076191236
 30
0.0
 10
179.1057495988
 20
125.6457879944
 30
0.0
  0
SPLINE
  5
42A
100
AcDbEntity
  8
BEZUGSACHSEN
100
AcDbSpline
 62
7
  6
CONTINUOUS
 70
0
 71
3
 72
35
 73
31
 74
0
 42
0.0000001
 43
0.0000001
 44
0.0000000001
 40
0.0
 40
0.0
 40
0.0
 40
0.0
 40
0.0701713017
 40
0.1397339703
 40
0.2084484888
 40
0.2759122721
 40
0.308968131
 40
0.3413842252
 40
0.3729452586
 40
0.4033073894
 40
0.4319335349
 40
0.4580151003
 40
0.4698144432
 40
0.4806514919
 40
0.4906053713
 40
0.5000004494
 40
0.5093951512
 40
0.5193494299
 40
0.5301859926
 40
0.5419854109
 40
0.5680665639
 40
0.5966928129
 40
0.6270549859
 40
0.6586158723
 40
0.6910319508
 40
0.7240878111
 40
0.7915515557
 40
0.8602660525
 40
0.9298287036
 40
1.0
 40
1.0
 40
1.0
 40
1.0
 10
179.1057495988
 20
125.6457879944
 30
0.0
 10
179.0177021033
 20
126.0853482736
 30
0.0
 10
178.8369848232
 20
126.95959211
 30
0.0
 10
178.5469714674
 20
128.2593849277
 30
0.0
 10
178.234203392
 20
129.5361216463
 30
0.0
 10
177.9469886667
 20
130.5787045037
 30
0.0
 10
177.694927198
 20
131.3897833746
 30
0.0
 10
177.4944018402
 20
131.9764697399
 30
0.0
 10
177.2787248463
 20
132.539409398
 30
0.0
 10
177.0444711932
 20
133.0688115997
 30
0.0
 10
176.7877555311
 20
133.5483288543
 30
0.0
 10
176.543675116
 20
133.8989367389
 30
0.0
 10
176.3254441946
 20
134.1219810677
 30
0.0
 10
176.1581398049
 20
134.247813958
 30
0.0
 10
175.9811945738
 20
134.3290975272
 30
0.0
 10
175.7970863195
 20
134.3584707861
 30
0.0
 10
175.6129731327
 20
134.3290997335
 30
0.0
 10
175.4360397483
 20
134.2477991626
 30
0.0
 10
175.2687248301
 20
134.1219817114
 30
0.0
 10
175.0505156093
 20
133.8989214833
 30
0.0
 10
174.8064206976
 20
133.5483296147
 30
0.0
 10
174.5497129545
 20
133.0688075817
 30
0.0
 10
174.3154606076
 20
132.5394057408
 30
0.0
 10
174.0997818295
 20
131.9764673559
 30
0.0
 10
173.8992573121
 20
131.3897818273
 30
0.0
 10
173.6471967211
 20
130.5787030309
 30
0.0
 10
173.3599815407
 20
129.5361207086
 30
0.0
 10
173.0472136772
 20
128.2593844401
 30
0.0
 10
172.7572002336
 20
126.9595919372
 30
0.0
 10
172.5764829899
 20
126.0853482406
 30
0.0
 10
172.4884355009
 20
125.6457879944
 30
0.0
  0
SPLINE
  5
42B
100
AcDbEntity
  8
RUNDUNGEN
100
AcDbSpline
 62
7
  6
CONTINUOUS
 70
0
 71
3
 72
9
 73
5
 74
0
 42
0.0000001
 43
0.0000001
 44
0.0000000001
 40
0.0
 40
0.0
 40
0.0
 40
0.0
 40
0.4903565881
 40
1.0
 40
1.0
 40
1.0
 40
1.0
 10
191.8367312701
 20
130.3481044875
 30
0.0
 10
191.8714085035
 20
130.3475208048
 30
0.0
 10
191.9348739976
 20
130.2975861162
 30
0.0
 10
191.9708808439
 20
130.2389030878
 30
0.0
 10
191.9884355009
 20
130.2074202714
 30
0.0
  0
SPLINE
  5
42C
100
AcDbEntity
  8
RUNDUNGEN
100
AcDbSpline
 62
7
  6
CONTINUOUS
 70
0
 71
3
 72
19
 73
15
 74
0
 42
0.0000001
 43
0.0000001
 44
0.0000000001
 40
0.0
 40
0.0
 40
0.0
 40
0.0
 40
0.1816496722
 40
0.3511241193
 40
0.5035152232
 40
0.6356129181
 40
0.6938476795
 40
0.7474306146
 40
0.7966829165
 40
0.8389365217
 40
0.8713187377
 40
0.8984337906
 40
0.939241071
 40
1.0
 40
1.0
 40
1.0
 40
1.0
 10
191.8367312701
 20
130.3481044875
 30
0.0
 10
191.8137196636
 20
130.3484867772
 30
0.0
 10
191.7692541372
 20
130.3499965433
 30
0.0
 10
191.7055310657
 20
130.3531805653
 30
0.0
 10
191.6480482217
 20
130.3546365487
 30
0.0
 10
191.6045876201
 20
130.3556008466
 30
0.0
 10
191.5738943936
 20
130.3596054907
 30
0.0
 10
191.5540658195
 20
130.3646961121
 30
0.0
 10
191.5371253844
 20
130.3721194447
 30
0.0
 10
191.5230157417
 20
130.3784239741
 30
0.0
 10
191.510136227
 20
130.3827063152
 30
0.0
 10
191.497625065
 20
130.3762131613
 30
0.0
 10
191.4931630583
 20
130.3594322059
 30
0.0
 10
191.4912411644
 20
130.3470210345
 30
0.0
 10
191.4905012738
 20
130.339358595
 30
0.0
  0
SPLINE
  5
42D
100
AcDbEntity
  8
RUNDUNGEN
100
AcDbSpline
 62
7
  6
CONTINUOUS
 70
0
 71
3
 72
9
 73
5
 74
0
 42
0.0000001
 43
0.0000001
 44
0.0000000001
 40
0.0
 40
0.0
 40
0.0
 40
0.0
 40
0.5096461049
 40
1.0
 40
1.0
 40
1.0
 40
1.0
 10
182.9884355009
 20
130.2074202714
 30
0.0
 10
183.0059911151
 20
130.2389048044
 30
0.0
 10
183.0419988268
 20
130.2975907484
 30
0.0
 10
183.1054724297
 20
130.3475261588
 30
0.0
 10
183.1401512638
 20
130.3481048794
 30
0.0
  0
SPLINE
  5
42E
100
AcDbEntity
  8
RUNDUNGEN
100
AcDbSpline
 62
7
  6
CONTINUOUS
 70
0
 71
3
 72
15
 73
11
 74
0
 42
0.0000001
 43
0.0000001
 44
0.0000000001
 40
0.0
 40
0.0
 40
0.0
 40
0.0
 40
0.2057066103
 40
0.3874860134
 40
0.5304407896
 40
0.6243397691
 40
0.6900884055
 40
0.7722709155
 40
0.8781360296
 40
1.0
 40
1.0
 40
1.0
 40
1.0
 10
183.4884355009
 20
130.280904288
 30
0.0
 10
183.4884355009
 20
130.2916877268
 30
0.0
 10
183.4882200651
 20
130.311942428
 30
0.0
 10
183.4867429488
 20
130.3399514279
 30
0.0
 10
183.483410805
 20
130.3611384784
 30
0.0
 10
183.4781673142
 20
130.3775005182
 30
0.0
 10
183.4649592569
 20
130.3823058834
 30
0.0
 10
183.4520676169
 20
130.3774826463
 30
0.0
 10
183.43738873
 20
130.3709425759
 30
0.0
 10
183.4263044019
 20
130.3663215011
 30
0.0
 10
183.4202196302
 20
130.3643758002
 30
0.0
  0
SPLINE
  5
42F
100
AcDbEntity
  8
RUNDUNGEN
100
AcDbSpline
 62
7
  6
CONTINUOUS
 70
0
 71
3
 72
11
 73
7
 74
0
 42
0.0000001
 43
0.0000001
 44
0.0000000001
 40
0.0
 40
0.0
 40
0.0
 40
0.0
 40
0.1920141199
 40
0.4265906071
 40
0.6996499597
 40
1.0
 40
1.0
 40
1.0
 40
1.0
 10
183.4202196302
 20
130.3643758002
 30
0.0
 10
183.4030971629
 20
130.3589006236
 30
0.0
 10
183.3628415773
 20
130.3547955916
 30
0.0
 10
183.2975248004
 20
130.3544511941
 30
0.0
 10
183.2218999336
 20
130.350607554
 30
0.0
 10
183.1682665855
 20
130.3485639288
 30
0.0
 10
183.1401512638
 20
130.3481048794
 30
0.0
  0
SPLINE
  5
430
100
AcDbEntity
  8
BEZUGSACHSEN
100
AcDbSpline
 62
7
  6
CONTINUOUS
 70
0
 71
3
 72
35
 73
31
 74
0
 42
0.0000001
 43
0.0000001
 44
0.0000000001
 40
0.0
 40
0.0
 40
0.0
 40
0.0
 40
0.0701713017
 40
0.1397339703
 40
0.2084484888
 40
0.2759122721
 40
0.308968131
 40
0.3413842252
 40
0.3729452586
 40
0.4033073894
 40
0.4319335349
 40
0.4580151003
 40
0.4698144432
 40
0.4806514919
 40
0.4906053713
 40
0.5000004494
 40
0.5093951512
 40
0.5193494299
 40
0.5301859926
 40
0.5419854109
 40
0.5680665639
 40
0.5966928129
 40
0.6270549859
 40
0.6586158723
 40
0.6910319508
 40
0.7240878111
 40
0.7915515557
 40
0.8602660525
 40
0.9298287036
 40
1.0
 40
1.0
 40
1.0
 40
1.0
 10
202.4884355009
 20
125.6457879944
 30
0.0
 10
202.4003880054
 20
126.0853482736
 30
0.0
 10
202.2196707254
 20
126.95959211
 30
0.0
 10
201.9296573696
 20
128.2593849277
 30
0.0
 10
201.6168892942
 20
129.5361216463
 30
0.0
 10
201.3296745689
 20
130.5787045037
 30
0.0
 10
201.0776131002
 20
131.3897833746
 30
0.0
 10
200.8770877424
 20
131.9764697399
 30
0.0
 10
200.6614107485
 20
132.539409398
 30
0.0
 10
200.4271570954
 20
133.0688115997
 30
0.0
 10
200.1704414332
 20
133.5483288543
 30
0.0
 10
199.9263610182
 20
133.8989367389
 30
0.0
 10
199.7081300968
 20
134.1219810677
 30
0.0
 10
199.5408257071
 20
134.247813958
 30
0.0
 10
199.363880476
 20
134.3290975272
 30
0.0
 10
199.1797722216
 20
134.3584707861
 30
0.0
 10
198.9956590349
 20
134.3290997335
 30
0.0
 10
198.8187256505
 20
134.2477991626
 30
0.0
 10
198.6514107323
 20
134.1219817114
 30
0.0
 10
198.4332015115
 20
133.8989214833
 30
0.0
 10
198.1891065998
 20
133.5483296147
 30
0.0
 10
197.9323988566
 20
133.0688075817
 30
0.0
 10
197.6981465098
 20
132.5394057408
 30
0.0
 10
197.4824677317
 20
131.9764673559
 30
0.0
 10
197.2819432143
 20
131.3897818273
 30
0.0
 10
197.0298826233
 20
130.5787030309
 30
0.0
 10
196.7426674429
 20
129.5361207086
 30
0.0
 10
196.4298995794
 20
128.2593844401
 30
0.0
 10
196.1398861358
 20
126.9595919372
 30
0.0
 10
195.959168892
 20
126.0853482406
 30
0.0
 10
195.8711214031
 20
125.6457879944
 30
0.0
  0
SPLINE
  5
431
100
AcDbEntity
  8
BEZUGSACHSEN
100
AcDbSpline
 62
7
  6
CONTINUOUS
 70
0
 71
3
 72
11
 73
7
 74
0
 42
0.0000001
 43
0.0000001
 44
0.0000000001
 40
0.0
 40
0.0
 40
0.0
 40
0.0
 40
0.2513914138
 40
0.4999999979
 40
0.7486085836
 40
1.0
 40
1.0
 40
1.0
 40
1.0
 10
195.8711214031
 20
125.6457879944
 30
0.0
 10
195.7318465986
 20
125.7076191229
 30
0.0
 10
195.4430043285
 20
125.8066258765
 30
0.0
 10
194.9884355039
 20
125.8593140374
 30
0.0
 10
194.5338666781
 20
125.8066258754
 30
0.0
 10
194.2450244047
 20
125.7076191236
 30
0.0
 10
194.1057495988
 20
125.6457879944
 30
0.0
  0
SPLINE
  5
432
100
AcDbEntity
  8
RUNDUNGEN
100
AcDbSpline
 62
7
  6
CONTINUOUS
 70
0
 71
3
 72
9
 73
5
 74
0
 42
0.0000001
 43
0.0000001
 44
0.0000000001
 40
0.0
 40
0.0
 40
0.0
 40
0.0
 40
0.5000333697
 40
1.0
 40
1.0
 40
1.0
 40
1.0
 10
194.1057495988
 20
125.6457879944
 30
0.0
 10
193.7938747648
 20
126.4242757201
 30
0.0
 10
193.1400167821
 20
127.9691913652
 30
0.0
 10
192.3967991997
 20
129.4750539615
 30
0.0
 10
191.9884355009
 20
130.2074202714
 30
0.0
  0
SPLINE
  5
433
100
AcDbEntity
  8
RUNDUNGEN
100
AcDbSpline
 62
7
  6
CONTINUOUS
 70
0
 71
3
 72
9
 73
5
 74
0
 42
0.0000001
 43
0.0000001
 44
0.0000000001
 40
0.0
 40
0.0
 40
0.0
 40
0.0
 40
0.4999666404
 40
1.0
 40
1.0
 40
1.0
 40
1.0
 10
182.9884355009
 20
130.2074202714
 30
0.0
 10
182.5800717939
 20
129.4750539467
 30
0.0
 10
181.8368542309
 20
127.9691913412
 30
0.0
 10
181.1829962307
 20
126.4242757042
 30
0.0
 10
180.8711214031
 20
125.6457879944
 30
0.0
  0
SPLINE
  5
434
100
AcDbEntity
  8
0
100
AcDbSpline
 62
7
  6
CONTINUOUS
 70
0
 71
3
 72
11
 73
7
 74
0
 42
0.0000001
 43
0.0000001
 44
0.0000000001
 40
0.0
 40
0.0
 40
0.0
 40
0.0
 40
0.1915355305
 40
0.4127177747
 40
0.6793090771
 40
1.0
 40
1.0
 40
1.0
 40
1.0
 10
104.5166663969
 20
52.6591162912
 30
0.0
 10
104.4853850714
 20
52.6403632993
 30
0.0
 10
104.4260935211
 20
52.5857674906
 30
0.0
 10
104.3628175012
 20
52.4713476797
 30
0.0
 10
104.3185874228
 20
52.3230907329
 30
0.0
 10
104.3023190665
 20
52.2121674936
 30
0.0
 10
104.2960173781
 20
52.1514281265
 30
0.0
  0
SPLINE
  5
435
100
AcDbEntity
  8
0
100
AcDbSpline
 62
7
  6
CONTINUOUS
 70
0
 71
3
 72
11
 73
7
 74
0
 42
0.0000001
 43
0.0000001
 44
0.0000000001
 40
0.0
 40
0.0
 40
0.0
 40
0.0
 40
0.1840534947
 40
0.4136333378
 40
0.6866427274
 40
1.0
 40
1.0
 40
1.0
 40
1.0
 10
104.2960173781
 20
52.1514281265
 30
0.0
 10
104.2828892174
 20
52.0248912171
 30
0.0
 10
104.2778915241
 20
51.7382102659
 30
0.0
 10
104.305422944
 20
51.2643916259
 30
0.0
 10
104.3575288686
 20
50.7027418322
 30
0.0
 10
104.3984855033
 20
50.2995435236
 30
0.0
 10
104.4193982835
 20
50.0839657955
 30
0.0
  0
SPLINE
  5
436
100
AcDbEntity
  8
0
100
AcDbSpline
 62
7
  6
CONTINUOUS
 70
0
 71
3
 72
11
 73
7
 74
0
 42
0.0000001
 43
0.0000001
 44
0.0000000001
 40
0.0
 40
0.0
 40
0.0
 40
0.0
 40
0.3133073787
 40
0.5862979466
 40
0.8158942717
 40
1.0
 40
1.0
 40
1.0
 40
1.0
 10
104.4193953411
 20
42.0819178157
 30
0.0
 10
104.3984934905
 20
41.8664532631
 30
0.0
 10
104.3575579525
 20
41.4634494645
 30
0.0
 10
104.3054676136
 20
40.9020420466
 30
0.0
 10
104.2779155036
 20
40.4283637597
 30
0.0
 10
104.2828601486
 20
40.1417422778
 30
0.0
 10
104.2959418869
 20
40.0152110618
 30
0.0
  0
SPLINE
  5
437
100
AcDbEntity
  8
0
100
AcDbSpline
 62
7
  6
CONTINUOUS
 70
0
 71
3
 72
11
 73
7
 74
0
 42
0.0000001
 43
0.0000001
 44
0.0000000001
 40
0.0
 40
0.0
 40
0.0
 40
0.0
 40
0.3207563631
 40
0.5873679843
 40
0.8085247354
 40
1.0
 40
1.0
 40
1.0
 40
1.0
 10
104.2959418869
 20
40.0152110618
 30
0.0
 10
104.3022310785
 20
39.9543797682
 30
0.0
 10
104.3184792958
 20
39.8432931089
 30
0.0
 10
104.362706254
 20
39.6948181395
 30
0.0
 10
104.4260096615
 20
39.5802369399
 30
0.0
 10
104.4853551376
 20
39.5255682329
 30
0.0
 10
104.5166663969
 20
39.5067972958
 30
0.0
  0
ENDSEC
  0
SECTION
  2
OBJECTS
  0
DICTIONARY
  5
C
100
AcDbDictionary
280
0
281
1
  3
ACAD_GROUP
350
D
  3
ACAD_MLINESTYLE
350
17
  3
ACAD_LAYOUT
350
1A
  3
ACAD_PLOTSETTINGS
350
19
  3
ACAD_PLOTSTYLENAME
350
E
  0
DICTIONARY
  5
D
102
{ACAD_REACTORS
330
C
102
}
100
AcDbDictionary
280
0
281
1
  0
ACDBDICTIONARYWDFLT
  5
E
102
{ACAD_REACTORS
330
C
102
}
100
AcDbDictionary
281
1
  3
Normal
350
F
100
AcDbDictionaryWithDefault
340
F
  0
DICTIONARY
  5
17
102
{ACAD_REACTORS
330
C
102
}
100
AcDbDictionary
280
0
281
1
  3
Standard
350
18
  0
DICTIONARY
  5
19
102
{ACAD_REACTORS
330
C
102
}
100
AcDbDictionary
281
1
  0
DICTIONARY
  5
1A
102
{ACAD_REACTORS
330
C
102
}
100
AcDbDictionary
281
1
  3
Model
350
438
  3
Layout1
350
439
  0
ACDBPLACEHOLDER
  5
F
102
{ACAD_REACTORS
330
E
102
}
  0
MLINESTYLE
  5
18
102
{ACAD_REACTORS
330
17
102
}
100
AcDbMlineStyle
  2
STANDARD
 70
0
  3

 62
256
 51
90.0
 52
90.0
 71
2
 49
0.5
 62
256
  6
BYLAYER
 49
-0.5
 62
256
  6
BYLAYER
  0
LAYOUT
  5
438
102
{ACAD_REACTORS
330
1A
102
}
100
AcDbPlotSettings
  1

  2
none_device
  4
ISO_A4_(297.00_x_210.00_MM)
  6

 40
0.0
 41
0.0
 42
0.0
 43
0.0
 44
297.0
 45
210.0
 46
0.0
 47
0.0
 48
0.0
 49
0.0
140
0.0
141
0.0
142
1.0
143
1.0
 70
1024
 72
1
 73
0
 74
0
  7

 75
0
147
1.0
148
0.0
149
0.0
100
AcDbLayout
  1
Model
 70
0
 71
0
 10
0.0
 20
0.0
 11
297.0
 21
210.0
 12
0.0
 22
0.0
 32
0.0
 14
0.0
 24
0.0
 34
0.0
 15
0.0
 25
0.0
 35
0.0
146
0.0
 13
0.0
 23
0.0
 33
0.0
 16
1.0
 26
0.0
 36
0.0
 17
0.0
 27
1.0
 37
0.0
 76
0
330
215
345
0
346
0
  0
LAYOUT
  5
439
102
{ACAD_REACTORS
330
1A
102
}
100
AcDbPlotSettings
  1

  2
none_device
  4
ISO_A4_(297.00_x_210.00_MM)
  6

 40
0.0
 41
0.0
 42
0.0
 43
0.0
 44
297.0
 45
210.0
 46
0.0
 47
0.0
 48
0.0
 49
0.0
140
0.0
141
0.0
142
1.0
143
1.0
 70
0
 72
1
 73
0
 74
0
  7

 75
0
147
1.0
148
0.0
149
0.0
100
AcDbLayout
  1
Layout1
 70
0
 71
1
 10
0.0
 20
0.0
 11
297.0
 21
210.0
 12
0.0
 22
0.0
 32
0.0
 14
0.0
 24
0.0
 34
0.0
 15
0.0
 25
0.0
 35
0.0
146
0.0
 13
0.0
 23
0.0
 33
0.0
 16
1.0
 26
0.0
 36
0.0
 17
0.0
 27
1.0
 37
0.0
 76
0
330
216
345
0
346
0
  0
ENDSEC
  0
EOF
