999
DXF file: drw0002.dxf
999
Pro/ENGINEER 9509 by Parametric Technology Corporation
0
SECTION
2
HEADER
9
$EXTMAX
10
46.811024
20
33.110236
9
$EXTMIN
10
0.000000
20
0.000000
9
$LIMMIN
10
0.000000
20
0.000000
9
$LIMMAX
10
46.811024
20
33.110236
9
$VIEWCTR
10
23.405512
20
16.555118
9
$VIEWSIZE
40
33.110236
9
$CLAYER
8
0
9
$LTSCALE
40
2.574606
9
$CELTYPE
6
BYLAYER
9
$DIMSCALE
40
1
9
$DIMASZ
40
0.187500
9
$DIMEXO
40
0.292569
9
$DIMDLI
40
1.778819
9
$DIMEXE
40
0.842598
9
$DIMCEN
40
0.421299
9
$DIMTXT
40
0.528975
0
ENDSEC
0
SECTION
2
TABLES
0
TABLE
2
LTYPE
70
6
0
LTYPE
2
CONTINUOUS
70
64
3
Solid line
72
65
73
0
40
0
0
LTYPE
2
CENTER
70
64
3
____ _ ____ _ ____ _ ____ _ ____ _ ____ _ ____
72
65
73
4
40
0.6
49
0.375
49
-0.075
49
0.075
49
-0.075
0
LTYPE
2
HIDDEN
70
64
3
- - - - - - - - - - - - - - - - - - - -
72
65
73
2
40
0.2
49
0.1
49
-0.1
0
LTYPE
2
PHANTOM
70
64
3
_____ _ _ _____ _ _ _____ _ _ _____
72
65
73
6
40
0.8
49
0.45
49
-0.05
49
0.1
49
-0.05
49
0.1
49
-0.05
0
LTYPE
2
DOT
70
64
3
. . . . . . . . . . . . . . . . . . . .
72
65
73
2
40
0.2
49
0.1
49
-0.1
0
LTYPE
2
DASHED
70
64
3
- - - - - - - - - - - - - - - - - - - -
72
65
73
2
40
0.2
49
0.1
49
-0.1
0
ENDTAB
0
TABLE
2
LAYER
70
36
0
LAYER
2
0
70
0
62
7
6
CONTINUOUS
0
LAYER
2
DEFAULT_1
70
0
62
7
6
CENTER
0
LAYER
2
DEFAULT_2
70
0
62
7
6
HIDDEN
0
LAYER
2
DEFAULT_3
70
0
62
7
6
PHANTOM
0
ENDTAB
0
ENDSEC
0
SECTION
2
BLOCKS
0
ENDSEC
0
SECTION
2
ENTITIES
0
LINE
8
0
62
2
10
0.742406
20
1.751220
11
0.784591
21
1.683728
0
LINE
8
0
62
2
10
3.513780
20
1.723098
11
3.562992
21
1.644358
0
LINE
8
0
62
2
10
0.565945
20
6.752626
11
0.595472
21
6.683728
0
LINE
8
0
62
2
10
3.321850
20
1.437665
11
3.351378
21
1.368768
0
LINE
8
0
62
2
10
0.577898
20
1.467193
11
0.603205
21
1.408138
0
LINE
8
0
62
2
10
0.472441
20
1.801839
11
0.506185
21
1.683728
0
LINE
8
0
62
2
10
0.442913
20
7.097114
11
0.482283
21
6.959319
0
LINE
8
0
62
2
10
0.329020
20
1.801839
11
0.352220
21
1.683728
0
LINE
8
0
62
2
10
0.375421
20
1.801839
11
0.398622
21
1.683728
0
LINE
8
0
62
2
10
0.275591
20
7.097114
11
0.302657
21
6.959319
0
LINE
8
0
62
2
10
0.329724
20
7.097114
11
0.356791
21
6.959319
0
LINE
8
0
62
2
10
-0.000000
20
7.845142
11
-0.000000
21
7.667980
0
LINE
8
0
62
2
10
0.015748
20
2.628610
11
0.015748
21
2.333335
0
LINE
8
0
62
2
10
0.039370
20
7.667980
11
0.039370
21
7.538055
0
LINE
8
0
62
2
10
0.059055
20
2.333335
11
0.059055
21
2.234909
0
LINE
8
0
62
2
10
0.127953
20
7.195539
11
0.127953
21
6.919949
0
LINE
8
0
62
2
10
0.187008
20
6.959319
11
0.187008
21
7.097114
0
LINE
8
0
62
2
10
0.206693
20
1.919949
11
0.206693
21
1.604988
0
LINE
8
0
62
2
10
0.218504
20
2.774280
11
0.218504
21
2.707350
0
LINE
8
0
62
2
10
0.253094
20
1.683728
11
0.253094
21
1.801839
0
LINE
8
0
62
2
10
0.255906
20
6.872705
11
0.255906
21
6.526248
0
LINE
8
0
62
2
10
0.255906
20
1.565618
11
0.255906
21
1.211287
0
LINE
8
0
62
2
10
0.255906
20
6.959319
11
0.255906
21
7.097114
0
LINE
8
0
62
2
10
0.259843
20
7.510496
11
0.259843
21
7.431681
0
LINE
8
0
62
2
10
0.312150
20
1.683728
11
0.312150
21
1.801839
0
LINE
8
0
62
2
10
0.354331
20
7.333335
11
0.354331
21
7.293965
0
LINE
8
0
62
2
10
0.354331
20
2.234909
11
0.354331
21
2.038059
0
LINE
8
0
62
2
10
0.501969
20
6.988846
11
0.501969
21
7.008531
0
LINE
8
0
62
2
10
0.523059
20
1.709039
11
0.523059
21
1.725909
0
LINE
8
0
62
2
10
0.526575
20
6.683728
11
0.526575
21
6.821524
0
LINE
8
0
62
2
10
0.544150
20
1.408138
11
0.544150
21
1.526248
0
LINE
8
0
62
2
10
0.561024
20
6.988846
11
0.561024
21
7.008531
0
LINE
8
0
62
2
10
0.573677
20
1.709039
11
0.573677
21
1.725909
0
LINE
8
0
62
2
10
0.595472
20
6.782154
11
0.595472
21
6.791996
0
LINE
8
0
62
2
10
0.603205
20
1.492504
11
0.603205
21
1.500937
0
LINE
8
0
62
2
10
0.615157
20
6.713256
11
0.615157
21
6.821524
0
LINE
8
0
62
2
10
0.620079
20
1.433449
11
0.620079
21
1.526248
0
LINE
8
0
62
2
10
0.649606
20
1.683728
11
0.649606
21
1.801839
0
LINE
8
DEFAULT_1
62
3
10
0.649606
20
0.668736
11
0.649606
21
1.683728
0
LINE
8
DEFAULT_1
62
3
10
0.649606
20
1.801839
11
0.649606
21
2.974697
0
LINE
8
0
62
2
10
0.649606
20
6.959319
11
0.649606
21
7.097114
0
LINE
8
DEFAULT_1
62
3
10
0.649606
20
5.990028
11
0.649606
21
6.959319
0
LINE
8
DEFAULT_1
62
3
10
0.649606
20
7.097114
11
0.649606
21
8.204201
0
LINE
8
0
62
2
10
0.679134
20
1.433449
11
0.679134
21
1.526248
0
LINE
8
0
62
2
10
0.684055
20
6.713256
11
0.684055
21
6.821524
0
LINE
8
0
62
2
10
0.696008
20
1.408138
11
0.696008
21
1.526248
0
LINE
8
0
62
2
10
0.703740
20
6.683728
11
0.703740
21
6.821524
0
LINE
8
0
62
2
10
0.708661
20
1.776528
11
0.708661
21
1.768094
0
LINE
8
0
62
2
10
0.718504
20
6.988846
11
0.718504
21
7.067587
0
LINE
8
0
62
2
10
0.725535
20
1.683728
11
0.725535
21
1.801839
0
LINE
8
0
62
2
10
0.738189
20
6.959319
11
0.738189
21
7.097114
0
LINE
8
0
62
2
10
0.755063
20
1.433449
11
0.755063
21
1.500937
0
LINE
8
0
62
2
10
0.039370
20
7.538055
11
0.066929
21
7.510496
0
LINE
8
0
62
2
10
0.757874
20
7.038059
11
0.807087
21
6.959319
0
LINE
8
0
62
2
10
1.175709
20
7.884512
11
1.050736
21
8.100972
0
LINE
8
0
62
2
10
3.198819
20
1.782154
11
3.238189
21
1.644358
0
LINE
8
0
62
2
10
3.031496
20
1.782154
11
3.058563
21
1.644358
0
LINE
8
0
62
2
10
3.085630
20
1.782154
11
3.112697
21
1.644358
0
LINE
8
0
62
2
10
0.772638
20
6.713256
11
0.772638
21
6.791996
0
LINE
8
0
62
2
10
0.860516
20
1.768094
11
0.860516
21
1.776528
0
LINE
8
0
62
2
10
0.895669
20
7.057744
11
0.895669
21
7.067587
0
LINE
8
0
62
2
10
0.928008
20
1.801839
11
0.928008
21
1.742783
0
LINE
8
0
62
2
10
0.928008
20
1.709039
11
0.928008
21
1.717472
0
LINE
8
0
62
2
10
0.944882
20
2.038059
11
0.944882
21
2.234909
0
LINE
8
0
62
2
10
0.944882
20
7.293965
11
0.944882
21
7.333335
0
LINE
8
0
62
2
10
0.974409
20
7.097114
11
0.974409
21
7.028217
0
LINE
8
0
62
2
10
0.974409
20
6.988846
11
0.974409
21
6.998689
0
LINE
8
0
62
2
10
0.978626
20
1.734346
11
0.978626
21
1.709039
0
LINE
8
0
62
2
10
0.995500
20
1.709039
11
0.995500
21
1.776528
0
LINE
8
0
62
2
10
1.033465
20
7.018374
11
1.033465
21
6.988846
0
LINE
8
0
62
2
10
1.039370
20
7.431681
11
1.039370
21
7.510496
0
LINE
8
0
62
2
10
1.043307
20
1.211287
11
1.043307
21
1.565618
0
LINE
8
0
62
2
10
1.043307
20
6.526248
11
1.043307
21
6.872705
0
LINE
8
0
62
2
10
1.046118
20
1.709039
11
1.046118
21
1.776528
0
LINE
8
0
62
2
10
1.053150
20
6.988846
11
1.053150
21
7.067587
0
LINE
8
0
62
2
10
1.080709
20
2.707350
11
1.080709
21
2.774280
0
LINE
8
0
62
2
10
1.092520
20
1.604988
11
1.092520
21
1.919949
0
LINE
8
0
62
2
10
1.112205
20
6.988846
11
1.112205
21
7.067587
0
LINE
8
0
62
2
10
1.171260
20
6.919949
11
1.171260
21
7.195539
0
LINE
8
0
62
2
10
1.240157
20
2.234909
11
1.240157
21
2.333335
0
LINE
8
0
62
2
10
1.259843
20
7.538055
11
1.259843
21
7.667980
0
LINE
8
0
62
2
10
1.283465
20
2.333335
11
1.283465
21
2.628610
0
LINE
8
0
62
2
10
1.299213
20
7.667980
11
1.299213
21
7.845142
0
LINE
8
0
62
2
10
6.269685
20
1.723098
11
6.318898
21
1.644358
0
LINE
8
0
62
2
10
3.513780
20
7.038059
11
3.562992
21
6.959319
0
LINE
8
0
62
2
10
3.321850
20
6.752626
11
3.351378
21
6.683728
0
LINE
8
0
62
2
10
6.077756
20
1.398295
11
6.107283
21
1.329398
0
LINE
8
0
62
2
10
3.198819
20
7.097114
11
3.238189
21
6.959319
0
LINE
8
0
62
2
10
3.031496
20
7.097114
11
3.058563
21
6.959319
0
LINE
8
0
62
2
10
3.085630
20
7.097114
11
3.112697
21
6.959319
0
LINE
8
0
62
2
10
2.614173
20
2.746720
11
2.614173
21
2.471130
0
LINE
8
0
62
2
10
2.618110
20
8.061614
11
2.618110
21
7.825394
0
LINE
8
0
62
2
10
2.657480
20
7.825394
11
2.657480
21
7.675787
0
LINE
8
0
62
2
10
2.657480
20
2.471130
11
2.657480
21
2.333335
0
LINE
8
0
62
2
10
2.795276
20
7.156169
11
2.795276
21
6.919949
0
LINE
8
0
62
2
10
2.883858
20
1.880579
11
2.883858
21
1.604988
0
LINE
8
0
62
2
10
2.895669
20
3.049870
11
2.895669
21
2.845146
0
LINE
8
0
62
2
10
2.937008
20
7.648228
11
2.937008
21
7.569555
0
LINE
8
0
62
2
10
2.942913
20
1.644358
11
2.942913
21
1.782154
0
LINE
8
0
62
2
10
2.942913
20
6.959319
11
2.942913
21
7.097114
0
LINE
8
0
62
2
10
3.011811
20
6.872705
11
3.011811
21
6.526248
0
LINE
8
0
62
2
10
3.011811
20
1.557744
11
3.011811
21
1.211287
0
LINE
8
0
62
2
10
3.011811
20
1.644358
11
3.011811
21
1.782154
0
LINE
8
0
62
2
10
3.011811
20
6.959319
11
3.011811
21
7.097114
0
LINE
8
0
62
2
10
3.051181
20
7.490815
11
3.051181
21
7.234909
0
LINE
8
0
62
2
10
3.051181
20
2.333335
11
3.051181
21
2.038059
0
LINE
8
0
62
2
10
3.257874
20
1.673886
11
3.257874
21
1.693571
0
LINE
8
0
62
2
10
3.257874
20
6.988846
11
3.257874
21
7.008531
0
LINE
8
0
62
2
10
3.282480
20
1.368768
11
3.282480
21
1.506563
0
LINE
8
0
62
2
10
3.282480
20
6.683728
11
3.282480
21
6.821524
0
LINE
8
0
62
2
10
3.316929
20
1.673886
11
3.316929
21
1.693571
0
LINE
8
0
62
2
10
3.316929
20
6.988846
11
3.316929
21
7.008531
0
LINE
8
0
62
2
10
3.351378
20
1.467193
11
3.351378
21
1.477035
0
LINE
8
0
62
2
10
3.351378
20
6.782154
11
3.351378
21
6.791996
0
LINE
8
0
62
2
10
3.371063
20
1.398295
11
3.371063
21
1.506563
0
LINE
8
0
62
2
10
3.371063
20
6.713256
11
3.371063
21
6.821524
0
LINE
8
0
62
2
10
3.405512
20
1.644358
11
3.405512
21
1.782154
0
LINE
8
DEFAULT_1
62
3
10
3.405512
20
0.646720
11
3.405512
21
1.644358
0
LINE
8
DEFAULT_1
62
3
10
3.405512
20
1.782154
11
3.405512
21
3.271917
0
LINE
8
0
62
2
10
3.405512
20
6.959319
11
3.405512
21
7.097114
0
LINE
8
DEFAULT_1
62
3
10
3.405512
20
5.964803
11
3.405512
21
6.959319
0
LINE
8
DEFAULT_1
62
3
10
3.405512
20
7.097114
11
3.405512
21
8.544732
0
LINE
8
0
62
2
10
3.439961
20
1.398295
11
3.439961
21
1.506563
0
LINE
8
0
62
2
10
3.439961
20
6.713256
11
3.439961
21
6.821524
0
LINE
8
0
62
2
10
3.459646
20
1.368768
11
3.459646
21
1.506563
0
LINE
8
0
62
2
10
3.459646
20
6.683728
11
3.459646
21
6.821524
0
LINE
8
0
62
2
10
3.474409
20
1.752626
11
3.474409
21
1.742783
0
LINE
8
0
62
2
10
3.474409
20
6.988846
11
3.474409
21
7.067587
0
LINE
8
0
62
2
10
3.494094
20
1.644358
11
3.494094
21
1.782154
0
LINE
8
0
62
2
10
3.494094
20
6.959319
11
3.494094
21
7.097114
0
LINE
8
0
62
2
10
3.528543
20
1.398295
11
3.528543
21
1.477035
0
LINE
8
0
62
2
10
3.528543
20
6.713256
11
3.528543
21
6.791996
0
LINE
8
0
62
2
10
3.651575
20
7.097114
11
3.651575
21
7.028217
0
LINE
8
0
62
2
10
3.651575
20
1.782154
11
3.651575
21
1.713256
0
LINE
8
0
62
2
10
3.651575
20
1.673886
11
3.651575
21
1.683728
0
LINE
8
0
62
2
10
3.651575
20
6.988846
11
3.651575
21
6.998689
0
LINE
8
0
62
2
10
3.710630
20
7.018374
11
3.710630
21
6.988846
0
LINE
8
0
62
2
10
3.710630
20
1.703413
11
3.710630
21
1.673886
0
LINE
8
0
62
2
10
3.730315
20
1.673886
11
3.730315
21
1.752626
0
LINE
8
0
62
2
10
3.730315
20
6.988846
11
3.730315
21
7.067587
0
LINE
8
0
62
2
10
3.759843
20
2.038059
11
3.759843
21
2.333335
0
LINE
8
0
62
2
10
3.759843
20
7.234909
11
3.759843
21
7.490815
0
LINE
8
0
62
2
10
3.789370
20
1.673886
11
3.789370
21
1.752626
0
LINE
8
0
62
2
10
3.789370
20
6.988846
11
3.789370
21
7.067587
0
LINE
8
0
62
2
10
3.799213
20
1.211287
11
3.799213
21
1.557744
0
LINE
8
0
62
2
10
3.799213
20
6.526248
11
3.799213
21
6.872705
0
LINE
8
0
62
2
10
3.809055
20
1.673886
11
3.809055
21
1.752626
0
LINE
8
0
62
2
10
3.809055
20
6.988846
11
3.809055
21
7.067587
0
LINE
8
0
62
2
10
3.868110
20
1.673886
11
3.868110
21
1.752626
0
LINE
8
0
62
2
10
3.868110
20
6.988846
11
3.868110
21
7.067587
0
LINE
8
0
62
2
10
3.874016
20
7.569555
11
3.874016
21
7.648228
0
LINE
8
0
62
2
10
3.915354
20
2.845146
11
3.915354
21
3.049870
0
LINE
8
0
62
2
10
3.927165
20
1.604988
11
3.927165
21
1.880579
0
LINE
8
0
62
2
10
4.015748
20
6.919949
11
4.015748
21
7.156169
0
LINE
8
0
62
2
10
0.302657
20
6.959319
11
0.329724
21
7.097114
0
LINE
8
0
62
2
10
0.356791
20
6.959319
11
0.383858
21
7.097114
0
LINE
8
0
62
2
10
0.352220
20
1.683728
11
0.375421
21
1.801839
0
LINE
8
0
62
2
10
0.398622
20
1.683728
11
0.421823
21
1.801839
0
LINE
8
0
62
2
10
0.403543
20
6.959319
11
0.442913
21
7.097114
0
LINE
8
0
62
2
10
2.657480
20
7.675787
11
2.685039
21
7.648228
0
LINE
8
0
62
2
10
8.425197
20
2.467193
11
8.444882
21
2.447508
0
LINE
8
0
62
2
10
9.389764
20
1.723098
11
9.438976
21
1.644358
0
LINE
8
0
62
2
10
6.269685
20
7.038059
11
6.318898
21
6.959319
0
LINE
8
0
62
2
10
4.044492
20
8.100984
11
3.885382
21
8.376575
0
LINE
8
0
62
2
10
6.077756
20
6.713256
11
6.107283
21
6.644358
0
LINE
8
0
62
2
10
5.954724
20
1.782154
11
5.994094
21
1.644358
0
LINE
8
0
62
2
10
5.787402
20
1.782154
11
5.814469
21
1.644358
0
LINE
8
0
62
2
10
5.841535
20
1.782154
11
5.868602
21
1.644358
0
LINE
8
0
62
2
10
4.153543
20
2.333335
11
4.153543
21
2.471130
0
LINE
8
0
62
2
10
4.153543
20
7.675787
11
4.153543
21
7.825394
0
LINE
8
0
62
2
10
4.192913
20
7.825394
11
4.192913
21
8.061614
0
LINE
8
0
62
2
10
4.196850
20
2.471130
11
4.196850
21
2.746720
0
LINE
8
0
62
2
10
5.370079
20
2.746720
11
5.370079
21
2.471130
0
LINE
8
0
62
2
10
5.374016
20
8.061614
11
5.374016
21
7.825394
0
LINE
8
0
62
2
10
5.413386
20
7.825394
11
5.413386
21
7.675787
0
LINE
8
0
62
2
10
5.413386
20
2.471130
11
5.413386
21
2.333335
0
LINE
8
0
62
2
10
5.551181
20
7.156169
11
5.551181
21
6.919949
0
LINE
8
0
62
2
10
5.639764
20
1.880579
11
5.639764
21
1.601539
0
LINE
8
0
62
2
10
5.651575
20
3.049870
11
5.651575
21
2.845146
0
LINE
8
0
62
2
10
3.058563
20
6.959319
11
3.085630
21
7.097114
0
LINE
8
0
62
2
10
3.112697
20
6.959319
11
3.139764
21
7.097114
0
LINE
8
0
62
2
10
0.438697
20
1.683728
11
0.472441
21
1.801839
0
LINE
8
0
62
2
10
5.413386
20
7.675787
11
5.440945
21
7.648228
0
LINE
8
0
62
2
10
10.196850
20
3.416012
11
10.118110
21
3.494752
0
LINE
8
0
62
2
10
6.800398
20
8.100984
11
6.641287
21
8.376575
0
LINE
8
0
62
2
10
9.227362
20
1.398295
11
9.256890
21
1.329398
0
LINE
8
0
62
2
10
5.954724
20
7.097114
11
5.994094
21
6.959319
0
LINE
8
0
62
2
10
9.074803
20
1.782154
11
9.114173
21
1.644358
0
LINE
8
0
62
2
10
5.787402
20
7.097114
11
5.814469
21
6.959319
0
LINE
8
0
62
2
10
5.841535
20
7.097114
11
5.868602
21
6.959319
0
LINE
8
0
62
2
10
5.669291
20
6.841209
11
5.669291
21
6.349083
0
LINE
8
0
62
2
10
5.669291
20
1.557744
11
5.669291
21
1.034122
0
LINE
8
0
62
2
10
5.692913
20
7.648228
11
5.692913
21
7.569555
0
LINE
8
0
62
2
10
5.698819
20
1.644358
11
5.698819
21
1.782154
0
LINE
8
0
62
2
10
5.698819
20
6.959319
11
5.698819
21
7.097114
0
LINE
8
0
62
2
10
5.767717
20
1.644358
11
5.767717
21
1.782154
0
LINE
8
0
62
2
10
5.767717
20
6.959319
11
5.767717
21
7.097114
0
LINE
8
0
62
2
10
5.807087
20
7.490815
11
5.807087
21
7.234909
0
LINE
8
0
62
2
10
5.807087
20
2.333335
11
5.807087
21
2.038059
0
LINE
8
0
62
2
10
6.013780
20
7.067587
11
6.013780
21
7.052823
0
LINE
8
0
62
2
10
6.013780
20
7.013453
11
6.013780
21
6.988846
0
LINE
8
0
62
2
10
6.013780
20
1.752626
11
6.013780
21
1.737862
0
LINE
8
0
62
2
10
6.013780
20
1.698492
11
6.013780
21
1.673886
0
LINE
8
0
62
2
10
6.038386
20
1.329398
11
6.038386
21
1.467193
0
LINE
8
0
62
2
10
6.038386
20
6.644358
11
6.038386
21
6.782154
0
LINE
8
0
62
2
10
6.072835
20
7.067587
11
6.072835
21
7.052823
0
LINE
8
0
62
2
10
6.072835
20
7.013453
11
6.072835
21
6.988846
0
LINE
8
0
62
2
10
6.072835
20
1.752626
11
6.072835
21
1.737862
0
LINE
8
0
62
2
10
6.072835
20
1.698492
11
6.072835
21
1.673886
0
LINE
8
0
62
2
10
6.107283
20
1.427823
11
6.107283
21
1.437665
0
LINE
8
0
62
2
10
6.107283
20
6.742783
11
6.107283
21
6.752626
0
LINE
8
0
62
2
10
6.126969
20
1.358925
11
6.126969
21
1.467193
0
LINE
8
0
62
2
10
6.126969
20
6.673886
11
6.126969
21
6.782154
0
LINE
8
0
62
2
10
6.161417
20
1.644358
11
6.161417
21
1.782154
0
LINE
8
DEFAULT_1
62
3
10
6.161417
20
0.352209
11
6.161417
21
1.644358
0
LINE
8
DEFAULT_1
62
3
10
6.161417
20
1.782154
11
6.161417
21
3.251776
0
LINE
8
0
62
2
10
6.161417
20
6.959319
11
6.161417
21
7.097114
0
LINE
8
DEFAULT_1
62
3
10
6.161417
20
5.667169
11
6.161417
21
6.959319
0
LINE
8
DEFAULT_1
62
3
10
6.161417
20
7.097114
11
6.161417
21
8.566736
0
LINE
8
0
62
2
10
6.195866
20
1.358925
11
6.195866
21
1.467193
0
LINE
8
0
62
2
10
6.195866
20
6.673886
11
6.195866
21
6.782154
0
LINE
8
0
62
2
10
6.215551
20
1.329398
11
6.215551
21
1.467193
0
LINE
8
0
62
2
10
6.215551
20
6.644358
11
6.215551
21
6.782154
0
LINE
8
0
62
2
10
6.230315
20
1.752626
11
6.230315
21
1.742783
0
LINE
8
0
62
2
10
6.230315
20
6.988846
11
6.230315
21
7.067587
0
LINE
8
0
62
2
10
6.250000
20
1.644358
11
6.250000
21
1.782154
0
LINE
8
0
62
2
10
6.250000
20
6.959319
11
6.250000
21
7.097114
0
LINE
8
0
62
2
10
6.284449
20
1.358925
11
6.284449
21
1.437665
0
LINE
8
0
62
2
10
6.284449
20
6.673886
11
6.284449
21
6.752626
0
LINE
8
0
62
2
10
6.407480
20
7.097114
11
6.407480
21
7.028217
0
LINE
8
0
62
2
10
6.407480
20
1.782154
11
6.407480
21
1.713256
0
LINE
8
0
62
2
10
6.407480
20
1.673886
11
6.407480
21
1.683728
0
LINE
8
0
62
2
10
6.407480
20
6.988846
11
6.407480
21
6.998689
0
LINE
8
0
62
2
10
6.466535
20
7.018374
11
6.466535
21
6.988846
0
LINE
8
0
62
2
10
6.466535
20
1.703413
11
6.466535
21
1.673886
0
LINE
8
0
62
2
10
6.486220
20
1.673886
11
6.486220
21
1.752626
0
LINE
8
0
62
2
10
6.486220
20
6.988846
11
6.486220
21
7.067587
0
LINE
8
0
62
2
10
6.515748
20
2.038059
11
6.515748
21
2.333335
0
LINE
8
0
62
2
10
6.515748
20
7.234909
11
6.515748
21
7.490815
0
LINE
8
0
62
2
10
6.545276
20
1.673886
11
6.545276
21
1.752626
0
LINE
8
0
62
2
10
6.545276
20
6.988846
11
6.545276
21
7.067587
0
LINE
8
0
62
2
10
6.564961
20
1.673886
11
6.564961
21
1.752626
0
LINE
8
0
62
2
10
6.564961
20
6.988846
11
6.564961
21
7.067587
0
LINE
8
0
62
2
10
6.624016
20
1.673886
11
6.624016
21
1.752626
0
LINE
8
0
62
2
10
6.624016
20
6.988846
11
6.624016
21
7.067587
0
LINE
8
0
62
2
10
6.629921
20
7.569555
11
6.629921
21
7.648228
0
LINE
8
0
62
2
10
6.653543
20
1.034122
11
6.653543
21
1.557744
0
LINE
8
0
62
2
10
6.653543
20
6.349083
11
6.653543
21
6.841209
0
LINE
8
0
62
2
10
6.671260
20
2.845146
11
6.671260
21
3.049870
0
LINE
8
0
62
2
10
6.683071
20
1.601539
11
6.683071
21
1.880579
0
LINE
8
0
62
2
10
6.771654
20
6.919949
11
6.771654
21
7.156169
0
LINE
8
0
62
2
10
6.909449
20
2.333335
11
6.909449
21
2.471130
0
LINE
8
0
62
2
10
6.909449
20
7.675787
11
6.909449
21
7.825394
0
LINE
8
0
62
2
10
6.948819
20
7.825394
11
6.948819
21
8.061614
0
LINE
8
0
62
2
10
6.952756
20
2.471130
11
6.952756
21
2.746720
0
LINE
8
0
62
2
10
3.058563
20
1.644358
11
3.085630
21
1.782154
0
LINE
8
0
62
2
10
3.112697
20
1.644358
11
3.139764
21
1.782154
0
LINE
8
0
62
2
10
3.159449
20
6.959319
11
3.198819
21
7.097114
0
LINE
8
0
62
2
10
0.504882
20
7.021327
11
0.541339
21
7.097114
0
LINE
8
0
62
2
10
8.326772
20
7.913988
11
8.366142
21
7.874618
0
LINE
8
0
62
2
10
9.401012
20
7.049307
11
9.457256
21
6.959319
0
LINE
8
0
62
2
10
13.360516
20
1.773717
11
13.416760
21
1.683728
0
LINE
8
0
62
2
10
9.215409
20
6.723098
11
9.249157
21
6.644358
0
LINE
8
0
62
2
10
9.041059
20
7.116799
11
9.086051
21
6.959319
0
LINE
8
0
62
2
10
8.907480
20
1.782154
11
8.934547
21
1.644358
0
LINE
8
0
62
2
10
8.961614
20
1.782154
11
8.988681
21
1.644358
0
LINE
8
0
62
2
10
8.287402
20
8.366744
11
8.287402
21
8.051783
0
LINE
8
0
62
2
10
8.326772
20
8.051783
11
8.326772
21
7.913988
0
LINE
8
0
62
2
10
8.425197
20
3.416012
11
8.425197
21
2.727035
0
LINE
8
0
62
2
10
8.425197
20
2.624673
11
8.425197
21
2.467193
0
LINE
8
0
62
2
10
8.582677
20
7.195539
11
8.582677
21
6.919949
0
LINE
8
0
62
2
10
8.685039
20
7.874618
11
8.685039
21
7.687665
0
LINE
8
0
62
2
10
8.700787
20
1.880579
11
8.700787
21
1.604988
0
LINE
8
0
62
2
10
8.748594
20
6.959319
11
8.748594
21
7.116799
0
LINE
8
0
62
2
10
8.818898
20
6.841209
11
8.818898
21
6.349083
0
LINE
8
0
62
2
10
8.818898
20
2.447508
11
8.818898
21
1.959319
0
LINE
8
0
62
2
10
8.818898
20
1.526248
11
8.818898
21
1.034122
0
LINE
8
0
62
2
10
8.818898
20
1.644358
11
8.818898
21
1.782154
0
LINE
8
0
62
2
10
8.827335
20
6.959319
11
8.827335
21
7.116799
0
LINE
8
0
62
2
10
8.887795
20
1.644358
11
8.887795
21
1.782154
0
LINE
8
0
62
2
10
8.893701
20
7.530185
11
8.893701
21
7.353020
0
LINE
8
0
62
2
10
5.814469
20
6.959319
11
5.841535
21
7.097114
0
LINE
8
0
62
2
10
5.868602
20
6.959319
11
5.895669
21
7.097114
0
LINE
8
0
62
2
10
3.159449
20
1.644358
11
3.198819
21
1.782154
0
LINE
8
0
62
2
10
0.248476
20
8.100972
11
0.123504
21
7.884512
0
LINE
8
DEFAULT_1
62
3
10
12.923622
20
0.837272
11
13.572441
21
0.837272
0
LINE
8
DEFAULT_1
62
3
10
5.903150
20
1.053807
11
6.419685
21
1.053807
0
LINE
8
DEFAULT_1
62
3
10
9.052756
20
1.053807
11
9.569291
21
1.053807
0
LINE
8
DEFAULT_1
62
3
10
0.435819
20
1.171917
11
0.863394
21
1.171917
0
LINE
8
DEFAULT_1
62
3
10
3.191724
20
1.171917
11
3.619299
21
1.171917
0
LINE
8
0
62
2
10
13.241000
20
1.250657
11
13.255063
21
1.250657
0
LINE
8
0
62
2
10
13.325366
20
1.250657
11
13.381610
21
1.250657
0
LINE
8
0
62
2
10
6.156496
20
1.329398
11
6.166339
21
1.329398
0
LINE
8
0
62
2
10
6.215551
20
1.329398
11
6.254921
21
1.329398
0
LINE
8
0
62
2
10
9.306102
20
1.329398
11
9.315945
21
1.329398
0
LINE
8
0
62
2
10
9.365157
20
1.329398
11
9.404528
21
1.329398
0
LINE
8
0
62
2
10
13.072272
20
1.349083
11
13.128516
21
1.349083
0
LINE
8
0
62
2
10
3.400591
20
1.368768
11
3.410433
21
1.368768
0
LINE
8
0
62
2
10
3.459646
20
1.368768
11
3.499016
21
1.368768
0
LINE
8
0
62
2
10
6.038386
20
1.398295
11
6.077756
21
1.398295
0
LINE
8
0
62
2
10
9.187992
20
1.398295
11
9.227362
21
1.398295
0
LINE
8
0
62
2
10
0.645390
20
1.408138
11
0.653823
21
1.408138
0
LINE
8
0
62
2
10
0.696008
20
1.408138
11
0.729752
21
1.408138
0
LINE
8
0
62
2
10
3.282480
20
1.437665
11
3.321850
21
1.437665
0
LINE
8
0
62
2
10
13.072272
20
1.447508
11
13.128516
21
1.447508
0
LINE
8
0
62
2
10
13.325366
20
1.447508
11
13.381610
21
1.447508
0
LINE
8
0
62
2
10
0.544150
20
1.467193
11
0.577898
21
1.467193
0
LINE
8
0
62
2
10
6.038386
20
1.467193
11
6.077756
21
1.467193
0
LINE
8
0
62
2
10
6.215551
20
1.467193
11
6.254921
21
1.467193
0
LINE
8
0
62
2
10
9.187992
20
1.467193
11
9.227362
21
1.467193
0
LINE
8
0
62
2
10
9.365157
20
1.467193
11
9.404528
21
1.467193
0
LINE
8
0
62
2
10
3.282480
20
1.506563
11
3.321850
21
1.506563
0
LINE
8
0
62
2
10
3.459646
20
1.506563
11
3.499016
21
1.506563
0
LINE
8
0
62
2
10
0.544150
20
1.526248
11
0.577898
21
1.526248
0
LINE
8
0
62
2
10
0.696008
20
1.526248
11
0.729752
21
1.526248
0
LINE
8
0
62
2
10
0.206693
20
1.604988
11
1.092520
21
1.604988
0
LINE
8
0
62
2
10
2.883858
20
1.604988
11
3.927165
21
1.604988
0
LINE
8
0
62
2
10
5.639764
20
1.604988
11
6.683071
21
1.604988
0
LINE
8
0
62
2
10
8.700787
20
1.604988
11
9.921260
21
1.604988
0
LINE
8
0
62
2
10
12.519685
20
1.604988
11
13.976378
21
1.604988
0
LINE
8
0
62
2
10
0.860516
20
1.683728
11
0.911138
21
1.683728
0
LINE
8
0
62
2
10
3.170689
20
1.683728
11
3.226949
21
1.683728
0
LINE
8
0
62
2
10
5.926594
20
1.683728
11
5.982854
21
1.683728
0
LINE
8
0
62
2
10
9.046673
20
1.683728
11
9.102933
21
1.683728
0
LINE
8
0
62
2
10
13.517996
20
1.683728
11
13.585488
21
1.683728
0
LINE
8
0
62
2
10
2.942913
20
1.713256
11
3.011811
21
1.713256
0
LINE
8
0
62
2
10
3.405512
20
1.713256
11
3.444882
21
1.713256
0
LINE
8
0
62
2
10
5.698819
20
1.713256
11
5.767717
21
1.713256
0
LINE
8
0
62
2
10
6.161417
20
1.713256
11
6.200787
21
1.713256
0
LINE
8
0
62
2
10
8.818898
20
1.713256
11
8.887795
21
1.713256
0
LINE
8
0
62
2
10
9.281496
20
1.713256
11
9.320866
21
1.713256
0
LINE
8
0
62
2
10
0.448331
20
1.717472
11
0.496551
21
1.717472
0
LINE
8
0
62
2
10
6.033465
20
1.718177
11
6.053150
21
1.718177
0
LINE
8
0
62
2
10
9.153543
20
1.718177
11
9.173228
21
1.718177
0
LINE
8
0
62
2
10
12.900921
20
1.728724
11
12.965220
21
1.728724
0
LINE
8
0
62
2
10
3.671260
20
1.732941
11
3.681102
21
1.732941
0
LINE
8
0
62
2
10
6.427165
20
1.732941
11
6.437008
21
1.732941
0
LINE
8
0
62
2
10
0.253094
20
1.742783
11
0.312150
21
1.742783
0
LINE
8
0
62
2
10
0.649606
20
1.742783
11
0.683350
21
1.742783
0
LINE
8
0
62
2
10
0.944882
20
1.759657
11
0.953319
21
1.759657
0
LINE
8
0
62
2
10
12.640606
20
1.762469
11
12.719346
21
1.762469
0
LINE
8
0
62
2
10
13.236783
20
1.762469
11
13.281776
21
1.762469
0
LINE
8
0
62
2
10
3.405512
20
1.782154
11
3.444882
21
1.782154
0
LINE
8
0
62
2
10
3.651575
20
1.782154
11
3.710630
21
1.782154
0
LINE
8
0
62
2
10
6.161417
20
1.782154
11
6.200787
21
1.782154
0
LINE
8
0
62
2
10
6.407480
20
1.782154
11
6.466535
21
1.782154
0
LINE
8
0
62
2
10
9.281496
20
1.782154
11
9.320866
21
1.782154
0
LINE
8
0
62
2
10
0.649606
20
1.801839
11
0.683350
21
1.801839
0
LINE
8
0
62
2
10
0.928008
20
1.801839
11
0.978626
21
1.801839
0
LINE
8
0
62
2
10
13.236783
20
1.841209
11
13.281776
21
1.841209
0
LINE
8
0
62
2
10
9.921260
20
1.880579
11
8.700787
21
1.880579
0
LINE
8
0
62
2
10
6.683071
20
1.880579
11
5.639764
21
1.880579
0
LINE
8
0
62
2
10
3.927165
20
1.880579
11
2.883858
21
1.880579
0
LINE
8
0
62
2
10
13.976378
20
1.919949
11
12.519685
21
1.919949
0
LINE
8
0
62
2
10
1.092520
20
1.919949
11
0.206693
21
1.919949
0
LINE
8
0
62
2
10
10.141583
20
8.406114
11
9.948374
21
8.740760
0
LINE
8
0
62
2
10
13.128516
20
1.349083
11
13.170697
21
1.250657
0
LINE
8
0
62
2
10
8.849831
20
7.116799
11
8.880764
21
6.959319
0
LINE
8
0
62
2
10
8.911697
20
7.116799
11
8.942634
21
6.959319
0
LINE
8
0
62
2
10
9.108547
20
7.083055
11
9.108547
21
7.066181
0
LINE
8
0
62
2
10
9.108547
20
7.021185
11
9.108547
21
6.993063
0
LINE
8
0
62
2
10
9.133858
20
1.752626
11
9.133858
21
1.737862
0
LINE
8
0
62
2
10
9.133858
20
1.698492
11
9.133858
21
1.673886
0
LINE
8
0
62
2
10
9.170417
20
6.644358
11
9.170417
21
6.801839
0
LINE
8
0
62
2
10
9.176039
20
7.083055
11
9.176039
21
7.066181
0
LINE
8
0
62
2
10
9.176039
20
7.021185
11
9.176039
21
6.993063
0
LINE
8
0
62
2
10
9.187992
20
1.329398
11
9.187992
21
1.467193
0
LINE
8
0
62
2
10
9.192913
20
1.752626
11
9.192913
21
1.737862
0
LINE
8
0
62
2
10
9.192913
20
1.698492
11
9.192913
21
1.673886
0
LINE
8
0
62
2
10
9.249157
20
6.756843
11
9.249157
21
6.768094
0
LINE
8
0
62
2
10
9.256890
20
1.427823
11
9.256890
21
1.437665
0
LINE
8
0
62
2
10
9.271654
20
6.678102
11
9.271654
21
6.801839
0
LINE
8
0
62
2
10
9.276575
20
1.358925
11
9.276575
21
1.467193
0
LINE
8
0
62
2
10
9.277280
20
6.959319
11
9.277280
21
7.116799
0
LINE
8
0
62
2
10
9.281496
20
1.644358
11
9.281496
21
1.782154
0
LINE
8
DEFAULT_1
62
3
10
9.311024
20
0.323886
11
9.311024
21
3.634122
0
LINE
8
DEFAULT_1
62
3
10
9.311024
20
5.638846
11
9.311024
21
8.949083
0
LINE
8
0
62
2
10
9.345472
20
1.358925
11
9.345472
21
1.467193
0
LINE
8
0
62
2
10
9.350394
20
1.752626
11
9.350394
21
1.742783
0
LINE
8
0
62
2
10
9.350394
20
6.678102
11
9.350394
21
6.801839
0
LINE
8
0
62
2
10
9.356020
20
6.993063
11
9.356020
21
7.083055
0
LINE
8
0
62
2
10
9.365157
20
1.329398
11
9.365157
21
1.467193
0
LINE
8
0
62
2
10
9.370079
20
1.644358
11
9.370079
21
1.782154
0
LINE
8
0
62
2
10
9.372890
20
6.644358
11
9.372890
21
6.801839
0
LINE
8
0
62
2
10
9.378516
20
6.959319
11
9.378516
21
7.116799
0
LINE
8
0
62
2
10
9.434055
20
1.358925
11
9.434055
21
1.437665
0
LINE
8
0
62
2
10
9.451630
20
6.678102
11
9.451630
21
6.768094
0
LINE
8
0
62
2
10
9.566929
20
1.644358
11
9.566929
21
1.782154
0
LINE
8
0
62
2
10
9.586614
20
1.673886
11
9.586614
21
1.752626
0
LINE
8
0
62
2
10
9.603488
20
6.959319
11
9.603488
21
7.116799
0
LINE
8
0
62
2
10
9.625984
20
6.993063
11
9.625984
21
7.083055
0
LINE
8
0
62
2
10
9.645669
20
1.673886
11
9.645669
21
1.752626
0
LINE
8
0
62
2
10
9.665354
20
1.673886
11
9.665354
21
1.752626
0
LINE
8
0
62
2
10
9.693476
20
6.993063
11
9.693476
21
7.083055
0
LINE
8
0
62
2
10
9.715972
20
6.993063
11
9.715972
21
7.083055
0
LINE
8
0
62
2
10
9.724409
20
1.673886
11
9.724409
21
1.752626
0
LINE
8
0
62
2
10
9.728346
20
7.353020
11
9.728346
21
7.530185
0
LINE
8
0
62
2
10
9.744094
20
1.673886
11
9.744094
21
1.752626
0
LINE
8
0
62
2
10
9.783465
20
6.993063
11
9.783465
21
7.083055
0
LINE
8
0
62
2
10
9.803150
20
1.034122
11
9.803150
21
1.526248
0
LINE
8
0
62
2
10
9.803150
20
1.673886
11
9.803150
21
1.752626
0
LINE
8
0
62
2
10
9.803150
20
1.959319
11
9.803150
21
2.447508
0
LINE
8
0
62
2
10
9.803150
20
6.349083
11
9.803150
21
6.841209
0
LINE
8
0
62
2
10
9.805961
20
6.993063
11
9.805961
21
7.083055
0
LINE
8
0
62
2
10
9.873453
20
6.993063
11
9.873453
21
7.083055
0
LINE
8
0
62
2
10
9.921260
20
1.604988
11
9.921260
21
1.880579
0
LINE
8
0
62
2
10
9.937008
20
7.687665
11
9.937008
21
7.874618
0
LINE
8
0
62
2
10
10.039370
20
6.919949
11
10.039370
21
7.195539
0
LINE
8
0
62
2
10
10.196850
20
2.467193
11
10.196850
21
2.624673
0
LINE
8
0
62
2
10
10.196850
20
2.727035
11
10.196850
21
3.416012
0
LINE
8
0
62
2
10
10.295276
20
7.913988
11
10.295276
21
8.051783
0
LINE
8
0
62
2
10
10.334646
20
8.051783
11
10.334646
21
8.366744
0
LINE
8
0
62
2
10
5.814469
20
1.644358
11
5.841535
21
1.782154
0
LINE
8
0
62
2
10
5.868602
20
1.644358
11
5.895669
21
1.782154
0
LINE
8
0
62
2
10
5.915354
20
6.959319
11
5.954724
21
7.097114
0
LINE
8
0
62
2
10
0.525555
20
1.736878
11
0.556807
21
1.801839
0
LINE
8
0
62
2
10
3.260787
20
7.021327
11
3.297244
21
7.097114
0
LINE
8
0
62
2
10
2.925642
20
8.376575
11
2.766531
21
8.100984
0
LINE
8
0
62
2
10
0.952598
20
7.052528
11
0.895669
21
6.959319
0
LINE
8
0
62
2
10
0.797244
20
7.097114
11
0.738189
21
7.008531
0
LINE
8
0
62
2
10
0.059055
20
2.234909
11
1.240157
21
2.234909
0
LINE
8
0
62
2
10
0.015748
20
2.333335
11
1.283465
21
2.333335
0
LINE
8
0
62
2
10
2.657480
20
2.333335
11
4.153543
21
2.333335
0
LINE
8
0
62
2
10
5.413386
20
2.333335
11
6.909449
21
2.333335
0
LINE
8
0
62
2
10
8.444882
20
2.447508
11
10.177165
21
2.447508
0
LINE
8
0
62
2
10
8.425197
20
2.467193
11
10.196850
21
2.467193
0
LINE
8
0
62
2
10
2.614173
20
2.471130
11
4.196850
21
2.471130
0
LINE
8
0
62
2
10
5.370079
20
2.471130
11
6.952756
21
2.471130
0
LINE
8
0
62
2
10
12.332677
20
2.549870
11
14.163386
21
2.549870
0
LINE
8
0
62
2
10
10.196850
20
2.624673
11
8.425197
21
2.624673
0
LINE
8
0
62
2
10
12.332677
20
2.667980
11
14.163386
21
2.667980
0
LINE
8
0
62
2
10
0.059055
20
2.671917
11
1.240157
21
2.671917
0
LINE
8
0
62
2
10
8.425197
20
2.727035
11
10.196850
21
2.727035
0
LINE
8
0
62
2
10
6.889764
20
2.809713
11
5.433071
21
2.809713
0
LINE
8
0
62
2
10
2.677165
20
2.809713
11
4.133858
21
2.809713
0
LINE
8
0
62
2
10
1.017717
20
2.837272
11
0.281496
21
2.837272
0
LINE
8
0
62
2
10
12.263780
20
2.864831
11
14.232283
21
2.864831
0
LINE
8
0
62
2
10
6.608268
20
3.112862
11
5.714567
21
3.112862
0
LINE
8
0
62
2
10
3.852362
20
3.112862
11
2.958661
21
3.112862
0
LINE
8
0
62
2
10
10.196850
20
3.416012
11
8.425197
21
3.416012
0
LINE
8
0
62
2
10
10.118110
20
3.494752
11
8.503937
21
3.494752
0
LINE
8
0
62
2
10
12.027559
20
8.160067
11
12.066929
21
8.120697
0
LINE
8
0
62
2
10
13.388638
20
7.111173
11
13.458941
21
6.998689
0
LINE
8
0
62
2
10
13.128516
20
6.624673
11
13.170697
21
6.526248
0
LINE
8
0
62
2
10
12.933071
20
1.841209
11
12.978067
21
1.683728
0
LINE
8
0
62
2
10
12.741846
20
1.841209
11
12.772780
21
1.683728
0
LINE
8
0
62
2
10
12.803713
20
1.841209
11
12.834646
21
1.683728
0
LINE
8
0
62
2
10
11.988189
20
8.770303
11
11.988189
21
8.356917
0
LINE
8
0
62
2
10
12.027559
20
8.356917
11
12.027559
21
8.160067
0
LINE
8
0
62
2
10
8.880764
20
6.959319
11
8.911697
21
7.116799
0
LINE
8
0
62
2
10
8.942634
20
6.959319
11
8.973567
21
7.116799
0
LINE
8
0
62
2
10
8.934547
20
1.644358
11
8.961614
21
1.782154
0
LINE
8
0
62
2
10
8.988681
20
1.644358
11
9.015748
21
1.782154
0
LINE
8
0
62
2
10
5.915354
20
1.644358
11
5.954724
21
1.782154
0
LINE
8
0
62
2
10
8.996063
20
6.959319
11
9.041059
21
7.116799
0
LINE
8
0
62
2
10
3.260787
20
1.706366
11
3.297244
21
1.782154
0
LINE
8
0
62
2
10
5.681547
20
8.376575
11
5.522437
21
8.100984
0
LINE
8
0
62
2
10
0.909315
20
1.763622
11
0.860516
21
1.683728
0
LINE
8
0
62
2
10
3.553150
20
7.097114
11
3.494094
21
7.008531
0
LINE
8
0
62
2
10
14.232283
20
3.849083
11
12.263780
21
3.849083
0
LINE
8
0
62
2
10
14.320902
20
8.809673
11
14.082232
21
9.223059
0
LINE
8
0
62
2
10
12.854331
20
7.195539
11
12.910575
21
6.998689
0
LINE
8
0
62
2
10
12.615299
20
7.195539
11
12.653965
21
6.998689
0
LINE
8
0
62
2
10
12.692634
20
7.195539
11
12.731299
21
6.998689
0
LINE
8
0
62
2
10
12.224409
20
7.313650
11
12.224409
21
6.919949
0
LINE
8
0
62
2
10
12.263780
20
3.849083
11
12.263780
21
2.864831
0
LINE
8
0
62
2
10
12.332677
20
2.667980
11
12.332677
21
2.549870
0
LINE
8
0
62
2
10
12.425197
20
8.120697
11
12.425197
21
7.904201
0
LINE
8
0
62
2
10
12.488752
20
6.998689
11
12.488752
21
7.195539
0
LINE
8
0
62
2
10
12.519685
20
1.919949
11
12.519685
21
1.604988
0
LINE
8
0
62
2
10
12.587177
20
6.998689
11
12.587177
21
7.195539
0
LINE
8
0
62
2
10
12.618110
20
6.801839
11
12.618110
21
6.171917
0
LINE
8
0
62
2
10
12.618110
20
1.526248
11
12.618110
21
0.856957
0
LINE
8
0
62
2
10
12.640606
20
1.683728
11
12.640606
21
1.841209
0
LINE
8
0
62
2
10
12.647638
20
2.549870
11
12.647638
21
2.038059
0
LINE
8
0
62
2
10
12.719346
20
1.683728
11
12.719346
21
1.841209
0
LINE
8
0
62
2
10
12.775591
20
7.746720
11
12.775591
21
7.471130
0
LINE
8
0
62
2
10
12.994937
20
6.998689
11
12.994937
21
7.195539
0
LINE
8
0
62
2
10
13.023059
20
7.040870
11
13.023059
21
7.153358
0
LINE
8
0
62
2
10
13.045555
20
1.683728
11
13.045555
21
1.841209
0
LINE
8
0
62
2
10
13.068055
20
1.717472
11
13.068055
21
1.807465
0
LINE
8
0
62
2
10
13.072272
20
1.250657
11
13.072272
21
1.447508
0
LINE
8
0
62
2
10
13.072272
20
6.526248
11
13.072272
21
6.723098
0
LINE
8
0
62
2
10
13.107425
20
7.040870
11
13.107425
21
7.153358
0
LINE
8
0
62
2
10
13.135547
20
1.717472
11
13.135547
21
1.807465
0
LINE
8
0
62
2
10
13.170697
20
1.391264
11
13.170697
21
1.405327
0
LINE
8
0
62
2
10
13.170697
20
6.666854
11
13.170697
21
6.680917
0
LINE
8
0
62
2
10
13.198819
20
1.292839
11
13.198819
21
1.447508
0
LINE
8
0
62
2
10
13.198819
20
6.568429
11
13.198819
21
6.723098
0
LINE
8
0
62
2
10
13.233972
20
6.998689
11
13.233972
21
7.195539
0
LINE
8
0
62
2
10
13.236783
20
1.683728
11
13.236783
21
1.841209
0
LINE
8
DEFAULT_1
62
3
10
13.248031
20
-0.000000
11
13.248031
21
4.036748
0
LINE
8
DEFAULT_1
62
3
10
13.248031
20
5.308402
11
13.248031
21
9.456654
0
LINE
8
0
62
2
10
13.297244
20
1.292839
11
13.297244
21
1.447508
0
LINE
8
0
62
2
10
13.297244
20
6.568429
11
13.297244
21
6.723098
0
LINE
8
0
62
2
10
13.315524
20
1.807465
11
13.315524
21
1.796213
0
LINE
8
0
62
2
10
13.325366
20
1.250657
11
13.325366
21
1.447508
0
LINE
8
0
62
2
10
13.325366
20
6.526248
11
13.325366
21
6.723098
0
LINE
8
0
62
2
10
13.332398
20
7.040870
11
13.332398
21
7.153358
0
LINE
8
0
62
2
10
13.338020
20
1.683728
11
13.338020
21
1.841209
0
LINE
8
0
62
2
10
13.360516
20
6.998689
11
13.360516
21
7.195539
0
LINE
8
0
62
2
10
13.423791
20
1.292839
11
13.423791
21
1.405327
0
LINE
8
0
62
2
10
13.423791
20
6.568429
11
13.423791
21
6.680917
0
LINE
8
0
62
2
10
13.517996
20
1.796213
11
13.517996
21
1.807465
0
LINE
8
0
62
2
10
13.585488
20
7.139295
11
13.585488
21
7.153358
0
LINE
8
0
62
2
10
13.607988
20
1.717472
11
13.607988
21
1.807465
0
LINE
8
0
62
2
10
13.675476
20
1.717472
11
13.675476
21
1.807465
0
LINE
8
0
62
2
10
13.697976
20
1.717472
11
13.697976
21
1.807465
0
LINE
8
0
62
2
10
13.697976
20
7.040870
11
13.697976
21
7.153358
0
LINE
8
0
62
2
10
13.720472
20
7.471130
11
13.720472
21
7.746720
0
LINE
8
0
62
2
10
13.765469
20
1.717472
11
13.765469
21
1.807465
0
LINE
8
0
62
2
10
13.782339
20
7.040870
11
13.782339
21
7.153358
0
LINE
8
0
62
2
10
13.787965
20
1.717472
11
13.787965
21
1.807465
0
LINE
8
0
62
2
10
13.810461
20
7.040870
11
13.810461
21
7.153358
0
LINE
8
0
62
2
10
9.035433
20
1.644358
11
9.074803
21
1.782154
0
LINE
8
0
62
2
10
0.776154
20
1.801839
11
0.725535
21
1.725909
0
LINE
8
DEFAULT_1
62
3
10
12.923622
20
6.152232
11
13.572441
21
6.152232
0
LINE
8
DEFAULT_1
62
3
10
5.903150
20
6.368768
11
6.419685
21
6.368768
0
LINE
8
DEFAULT_1
62
3
10
9.052756
20
6.368768
11
9.569291
21
6.368768
0
LINE
8
DEFAULT_1
62
3
10
0.435819
20
6.486878
11
0.863394
21
6.486878
0
LINE
8
DEFAULT_1
62
3
10
3.191724
20
6.486878
11
3.619299
21
6.486878
0
LINE
8
0
62
2
10
13.241000
20
6.526248
11
13.255063
21
6.526248
0
LINE
8
0
62
2
10
13.325366
20
6.526248
11
13.381610
21
6.526248
0
LINE
8
0
62
2
10
13.072272
20
6.624673
11
13.128516
21
6.624673
0
LINE
8
0
62
2
10
6.156496
20
6.644358
11
6.166339
21
6.644358
0
LINE
8
0
62
2
10
6.215551
20
6.644358
11
6.254921
21
6.644358
0
LINE
8
0
62
2
10
9.305398
20
6.644358
11
9.316650
21
6.644358
0
LINE
8
0
62
2
10
9.372890
20
6.644358
11
9.417886
21
6.644358
0
LINE
8
0
62
2
10
0.644685
20
6.683728
11
0.654528
21
6.683728
0
LINE
8
0
62
2
10
0.703740
20
6.683728
11
0.743110
21
6.683728
0
LINE
8
0
62
2
10
3.400591
20
6.683728
11
3.410433
21
6.683728
0
LINE
8
0
62
2
10
3.459646
20
6.683728
11
3.499016
21
6.683728
0
LINE
8
0
62
2
10
6.038386
20
6.713256
11
6.077756
21
6.713256
0
LINE
8
0
62
2
10
9.170417
20
6.723098
11
9.215409
21
6.723098
0
LINE
8
0
62
2
10
13.072272
20
6.723098
11
13.128516
21
6.723098
0
LINE
8
0
62
2
10
13.325366
20
6.723098
11
13.381610
21
6.723098
0
LINE
8
0
62
2
10
0.526575
20
6.752626
11
0.565945
21
6.752626
0
LINE
8
0
62
2
10
3.282480
20
6.752626
11
3.321850
21
6.752626
0
LINE
8
0
62
2
10
6.038386
20
6.782154
11
6.077756
21
6.782154
0
LINE
8
0
62
2
10
6.215551
20
6.782154
11
6.254921
21
6.782154
0
LINE
8
0
62
2
10
9.170417
20
6.801839
11
9.215409
21
6.801839
0
LINE
8
0
62
2
10
9.372890
20
6.801839
11
9.417886
21
6.801839
0
LINE
8
0
62
2
10
0.526575
20
6.821524
11
0.565945
21
6.821524
0
LINE
8
0
62
2
10
0.703740
20
6.821524
11
0.743110
21
6.821524
0
LINE
8
0
62
2
10
3.282480
20
6.821524
11
3.321850
21
6.821524
0
LINE
8
0
62
2
10
3.459646
20
6.821524
11
3.499016
21
6.821524
0
LINE
8
0
62
2
10
0.127953
20
6.919949
11
1.171260
21
6.919949
0
LINE
8
0
62
2
10
2.795276
20
6.919949
11
4.015748
21
6.919949
0
LINE
8
0
62
2
10
5.551181
20
6.919949
11
6.771654
21
6.919949
0
LINE
8
0
62
2
10
8.582677
20
6.919949
11
10.039370
21
6.919949
0
LINE
8
0
62
2
10
12.224409
20
6.919949
11
14.271654
21
6.919949
0
LINE
8
0
62
2
10
0.649606
20
6.959319
11
0.688976
21
6.959319
0
LINE
8
0
62
2
10
0.895669
20
6.959319
11
0.954724
21
6.959319
0
LINE
8
0
62
2
10
3.405512
20
6.959319
11
3.444882
21
6.959319
0
LINE
8
0
62
2
10
6.161417
20
6.959319
11
6.200787
21
6.959319
0
LINE
8
0
62
2
10
9.277280
20
6.959319
11
9.322272
21
6.959319
0
LINE
8
0
62
2
10
13.848425
20
2.038059
11
13.848425
21
2.549870
0
LINE
8
0
62
2
10
13.855457
20
1.717472
11
13.855457
21
1.807465
0
LINE
8
0
62
2
10
13.877953
20
0.856957
11
13.877953
21
1.526248
0
LINE
8
0
62
2
10
13.877953
20
6.171917
11
13.877953
21
6.801839
0
LINE
8
0
62
2
10
13.894827
20
7.040870
11
13.894827
21
7.153358
0
LINE
8
0
62
2
10
13.922949
20
7.040870
11
13.922949
21
7.153358
0
LINE
8
0
62
2
10
13.976378
20
1.604988
11
13.976378
21
1.919949
0
LINE
8
0
62
2
10
14.007311
20
7.040870
11
14.007311
21
7.153358
0
LINE
8
0
62
2
10
14.070866
20
7.904201
11
14.070866
21
8.120697
0
LINE
8
0
62
2
10
14.163386
20
2.549870
11
14.163386
21
2.667980
0
LINE
8
0
62
2
10
14.232283
20
2.864831
11
14.232283
21
3.849083
0
LINE
8
0
62
2
10
14.271654
20
6.919949
11
14.271654
21
7.313650
0
LINE
8
0
62
2
10
14.468504
20
8.160067
11
14.468504
21
8.356917
0
LINE
8
0
62
2
10
14.507874
20
8.356917
11
14.507874
21
8.770303
0
LINE
8
0
62
2
10
12.731299
20
6.998689
11
12.769965
21
7.195539
0
LINE
8
0
62
2
10
12.653965
20
6.998689
11
12.692634
21
7.195539
0
LINE
8
0
62
2
10
8.673673
20
8.740760
11
8.480465
21
8.406114
0
LINE
8
0
62
2
10
6.309055
20
7.097114
11
6.250000
21
7.008531
0
LINE
8
0
62
2
10
3.553150
20
1.782154
11
3.494094
21
1.693571
0
LINE
8
0
62
2
10
1.232283
20
7.510496
11
1.259843
21
7.538055
0
LINE
8
0
62
2
10
0.414783
20
6.998689
11
0.471043
21
6.998689
0
LINE
8
0
62
2
10
3.170689
20
6.998689
11
3.226949
21
6.998689
0
LINE
8
0
62
2
10
5.926594
20
6.998689
11
5.982854
21
6.998689
0
LINE
8
0
62
2
10
13.233972
20
6.998689
11
13.290213
21
6.998689
0
LINE
8
0
62
2
10
13.585488
20
6.998689
11
13.669854
21
6.998689
0
LINE
8
0
62
2
10
9.008909
20
7.004315
11
9.073205
21
7.004315
0
LINE
8
0
62
2
10
0.187008
20
7.028217
11
0.255906
21
7.028217
0
LINE
8
0
62
2
10
2.942913
20
7.028217
11
3.011811
21
7.028217
0
LINE
8
0
62
2
10
5.698819
20
7.028217
11
5.767717
21
7.028217
0
LINE
8
0
62
2
10
6.033465
20
7.033138
11
6.053150
21
7.033138
0
LINE
8
0
62
2
10
8.748594
20
7.038059
11
8.827335
21
7.038059
0
LINE
8
0
62
2
10
9.131047
20
7.043685
11
9.153543
21
7.043685
0
LINE
8
0
62
2
10
0.994094
20
7.047902
11
1.003937
21
7.047902
0
LINE
8
0
62
2
10
3.671260
20
7.047902
11
3.681102
21
7.047902
0
LINE
8
0
62
2
10
6.427165
20
7.047902
11
6.437008
21
7.047902
0
LINE
8
0
62
2
10
12.814146
20
7.054933
11
12.894516
21
7.054933
0
LINE
8
0
62
2
10
0.649606
20
7.097114
11
0.688976
21
7.097114
0
LINE
8
0
62
2
10
0.974409
20
7.097114
11
1.033465
21
7.097114
0
LINE
8
0
62
2
10
3.405512
20
7.097114
11
3.444882
21
7.097114
0
LINE
8
0
62
2
10
3.651575
20
7.097114
11
3.710630
21
7.097114
0
LINE
8
0
62
2
10
6.161417
20
7.097114
11
6.200787
21
7.097114
0
LINE
8
0
62
2
10
6.407480
20
7.097114
11
6.466535
21
7.097114
0
LINE
8
0
62
2
10
12.488752
20
7.097114
11
12.587177
21
7.097114
0
LINE
8
0
62
2
10
9.277280
20
7.116799
11
9.322272
21
7.116799
0
LINE
8
0
62
2
10
6.771654
20
7.156169
11
5.551181
21
7.156169
0
LINE
8
0
62
2
10
4.015748
20
7.156169
11
2.795276
21
7.156169
0
LINE
8
0
62
2
10
10.039370
20
7.195539
11
8.582677
21
7.195539
0
LINE
8
0
62
2
10
1.171260
20
7.195539
11
0.127953
21
7.195539
0
LINE
8
0
62
2
10
13.233972
20
7.195539
11
13.290213
21
7.195539
0
LINE
8
0
62
2
10
14.271654
20
7.313650
11
12.224409
21
7.313650
0
LINE
8
0
62
2
10
1.043307
20
7.431760
11
0.255906
21
7.431760
0
LINE
8
0
62
2
10
0.066929
20
7.510496
11
1.232283
21
7.510496
0
LINE
8
0
62
2
10
2.937008
20
7.569555
11
3.874016
21
7.569555
0
LINE
8
0
62
2
10
5.692913
20
7.569555
11
6.629921
21
7.569555
0
LINE
8
0
62
2
10
2.685039
20
7.648228
11
4.125984
21
7.648228
0
LINE
8
0
62
2
10
5.440945
20
7.648228
11
6.881890
21
7.648228
0
LINE
8
0
62
2
10
-0.000000
20
7.667980
11
1.299213
21
7.667980
0
LINE
8
0
62
2
10
8.685039
20
7.687665
11
9.937008
21
7.687665
0
LINE
8
0
62
2
10
2.618110
20
7.825394
11
4.192913
21
7.825394
0
LINE
8
0
62
2
10
5.374016
20
7.825394
11
6.948819
21
7.825394
0
LINE
8
0
62
2
10
8.366142
20
7.874618
11
10.255906
21
7.874618
0
LINE
8
0
62
2
10
1.259843
20
7.884512
11
0.039370
21
7.884512
0
LINE
8
0
62
2
10
12.425197
20
7.904201
11
14.070866
21
7.904201
0
LINE
8
0
62
2
10
8.287402
20
8.051783
11
10.334646
21
8.051783
0
LINE
8
0
62
2
10
1.050736
20
8.100972
11
0.248476
21
8.100972
0
LINE
8
0
62
2
10
6.909449
20
8.100984
11
5.413386
21
8.100984
0
LINE
8
0
62
2
10
4.153543
20
8.100984
11
2.657480
21
8.100984
0
LINE
8
0
62
2
10
12.066929
20
8.120697
11
14.429134
21
8.120697
0
LINE
8
0
62
2
10
11.988189
20
8.356917
11
14.507874
21
8.356917
0
LINE
8
0
62
2
10
6.641287
20
8.376575
11
5.681547
21
8.376575
0
LINE
8
0
62
2
10
3.885382
20
8.376575
11
2.925642
21
8.376575
0
LINE
8
0
62
2
10
10.295276
20
8.406114
11
8.326772
21
8.406114
0
LINE
8
0
62
2
10
12.772780
20
1.683728
11
12.803713
21
1.841209
0
LINE
8
0
62
2
10
12.834646
20
1.683728
11
12.865579
21
1.841209
0
LINE
8
0
62
2
10
12.798087
20
6.998689
11
12.854331
21
7.195539
0
LINE
8
0
62
2
10
9.446008
20
7.116799
11
9.378516
21
7.015563
0
LINE
8
0
62
2
10
4.125984
20
7.648228
11
4.153543
21
7.675787
0
LINE
8
0
62
2
10
9.948374
20
8.740760
11
8.673673
21
8.740760
0
LINE
8
0
62
2
10
12.027559
20
8.809673
11
14.468504
21
8.809673
0
LINE
8
0
62
2
10
14.082232
20
9.223059
11
12.413831
21
9.223059
0
LINE
8
0
62
2
10
12.888075
20
1.683728
11
12.933071
21
1.841209
0
LINE
8
0
62
2
10
12.413831
20
9.223059
11
12.175161
21
8.809673
0
LINE
8
0
62
2
10
6.309055
20
1.782154
11
6.250000
21
1.693571
0
LINE
8
0
62
2
10
6.881890
20
7.648228
11
6.909449
21
7.675787
0
LINE
8
0
62
2
10
13.666815
20
7.131843
11
13.585488
21
6.998689
0
LINE
8
0
62
2
10
9.429134
20
1.782154
11
9.370079
21
1.693571
0
LINE
8
0
62
2
10
13.444882
20
7.195539
11
13.360516
21
7.068992
0
LINE
8
0
62
2
10
10.255906
20
7.874618
11
10.295276
21
7.913988
0
LINE
8
0
62
2
10
13.583059
20
1.790252
11
13.517996
21
1.683728
0
LINE
8
0
62
2
10
13.405512
20
1.841209
11
13.338020
21
1.739972
0
LINE
8
0
62
2
10
8.503937
20
3.494752
11
8.425197
21
3.416012
0
LINE
8
0
62
2
10
14.429134
20
8.120697
11
14.468504
21
8.160067
0
LINE
8
0
62
2
10
9.558492
20
7.083055
11
9.603488
21
7.116799
0
LINE
8
0
62
2
10
10.177165
20
2.447508
11
10.196850
21
2.467193
0
LINE
8
0
62
2
10
12.938697
20
7.153358
11
12.994937
21
7.195539
0
LINE
8
0
62
2
10
9.527559
20
1.752626
11
9.566929
21
1.782154
0
LINE
8
0
62
2
10
13.000563
20
1.807465
11
13.045555
21
1.841209
0
CIRCLE
8
0
62
2
10
0.649606
20
6.486878
40
0.149606
0
ARC
8
0
62
2
10
0.649606
20
6.526248
40
0.393701
50
180.000000
51
360.000000
0
ARC
8
0
62
2
10
1.259843
20
7.845142
40
0.039370
50
0.000000
51
90.000000
0
ARC
8
0
62
2
10
0.039370
20
7.845142
40
0.039370
50
90.000000
51
180.000000
0
ARC
8
0
62
2
10
1.043307
20
7.333335
40
0.098425
50
92.292442
51
180.000000
0
ARC
8
0
62
2
10
1.043307
20
7.293965
40
0.098425
50
180.000000
51
270.000000
0
ARC
8
0
62
2
10
0.255906
20
7.293965
40
0.098425
50
270.000000
51
360.000000
0
ARC
8
0
62
2
10
0.255906
20
7.333335
40
0.098425
50
0.000000
51
87.707558
0
ARC
8
0
62
2
10
1.090551
20
6.872705
40
0.047244
50
90.000000
51
180.000000
0
ARC
8
0
62
2
10
0.208661
20
6.872705
40
0.047244
50
0.000000
51
90.000000
0
ARC
8
0
62
2
10
0.531496
20
6.988846
40
0.029528
50
180.000000
51
360.000000
0
ARC
8
0
62
2
10
0.531496
20
7.008531
40
0.029528
50
0.000000
51
180.000000
0
ARC
8
0
62
2
10
0.688976
20
7.067587
40
0.029528
50
0.000000
51
90.000000
0
ARC
8
0
62
2
10
0.688976
20
6.988846
40
0.029528
50
270.000000
51
360.000000
0
ARC
8
0
62
2
10
0.925197
20
7.067587
40
0.029529
50
329.372942
51
540.000000
0
ARC
8
0
62
2
10
0.994094
20
7.028217
40
0.019685
50
90.000000
51
180.000000
0
ARC
8
0
62
2
10
1.003937
20
7.018374
40
0.029528
50
0.000000
51
90.000000
0
ARC
8
0
62
2
10
1.003937
20
6.988846
40
0.029528
50
180.000000
51
360.000000
0
ARC
8
0
62
2
10
1.082677
20
6.988846
40
0.029528
50
180.000000
51
360.000000
0
ARC
8
0
62
2
10
1.082677
20
7.067587
40
0.029528
50
0.000000
51
180.000000
0
ARC
8
0
62
2
10
0.565945
20
6.791996
40
0.029528
50
0.000000
51
90.000000
0
ARC
8
0
62
2
10
0.565945
20
6.782154
40
0.029528
50
270.000000
51
360.000000
0
ARC
8
0
62
2
10
0.644685
20
6.713256
40
0.029528
50
180.000000
51
270.000000
0
ARC
8
0
62
2
10
0.654528
20
6.713256
40
0.029528
50
270.000000
51
360.000000
0
ARC
8
0
62
2
10
0.743110
20
6.791996
40
0.029528
50
0.000000
51
90.000000
0
ARC
8
0
62
2
10
0.743110
20
6.713256
40
0.029528
50
270.000000
51
360.000000
0
ARC
8
0
62
2
10
4.153543
20
8.061614
40
0.039370
50
0.000000
51
90.000000
0
ARC
8
0
62
2
10
2.657480
20
8.061614
40
0.039370
50
90.000000
51
180.000000
0
ARC
8
0
62
2
10
3.838583
20
7.490815
40
0.078740
50
90.000000
51
180.000000
0
ARC
8
0
62
2
10
2.972441
20
7.490815
40
0.078740
50
0.000000
51
90.000000
0
ARC
8
0
62
2
10
2.972441
20
7.234909
40
0.078740
50
270.000000
51
360.000000
0
ARC
8
0
62
2
10
3.838583
20
7.234909
40
0.078740
50
180.000000
51
270.000000
0
ARC
8
0
62
2
10
3.405512
20
6.526248
40
0.393701
50
180.000000
51
360.000000
0
CIRCLE
8
0
62
2
10
3.405512
20
6.486878
40
0.149606
0
ARC
8
0
62
2
10
3.846457
20
6.872705
40
0.047244
50
90.000000
51
180.000000
0
ARC
8
0
62
2
10
2.964567
20
6.872705
40
0.047244
50
0.000000
51
90.000000
0
ARC
8
0
62
2
10
3.287402
20
6.988846
40
0.029528
50
180.000000
51
360.000000
0
ARC
8
0
62
2
10
3.287402
20
7.008531
40
0.029528
50
0.000000
51
180.000000
0
ARC
8
0
62
2
10
3.444882
20
7.067587
40
0.029528
50
0.000000
51
90.000000
0
ARC
8
0
62
2
10
3.444882
20
6.988846
40
0.029528
50
270.000000
51
360.000000
0
ARC
8
0
62
2
10
3.671260
20
7.028217
40
0.019685
50
90.000000
51
180.000000
0
ARC
8
0
62
2
10
3.681102
20
7.018374
40
0.029528
50
0.000000
51
90.000000
0
ARC
8
0
62
2
10
3.681102
20
6.988846
40
0.029528
50
180.000000
51
360.000000
0
ARC
8
0
62
2
10
3.759843
20
6.988846
40
0.029528
50
180.000000
51
360.000000
0
ARC
8
0
62
2
10
3.759843
20
7.067587
40
0.029528
50
0.000000
51
180.000000
0
ARC
8
0
62
2
10
3.838583
20
6.988846
40
0.029528
50
180.000000
51
360.000000
0
ARC
8
0
62
2
10
3.838583
20
7.067587
40
0.029528
50
0.000000
51
180.000000
0
ARC
8
0
62
2
10
3.321850
20
6.791996
40
0.029528
50
0.000000
51
90.000000
0
ARC
8
0
62
2
10
3.321850
20
6.782154
40
0.029528
50
270.000000
51
360.000000
0
ARC
8
0
62
2
10
3.400591
20
6.713256
40
0.029528
50
180.000000
51
270.000000
0
ARC
8
0
62
2
10
3.410433
20
6.713256
40
0.029528
50
270.000000
51
360.000000
0
ARC
8
0
62
2
10
3.499016
20
6.791996
40
0.029528
50
0.000000
51
90.000000
0
ARC
8
0
62
2
10
3.499016
20
6.713256
40
0.029528
50
270.000000
51
360.000000
0
ARC
8
0
62
2
10
6.594488
20
7.234909
40
0.078740
50
180.000000
51
270.000000
0
ARC
8
0
62
2
10
6.594488
20
7.490815
40
0.078740
50
90.000000
51
180.000000
0
ARC
8
0
62
2
10
6.909449
20
8.061614
40
0.039370
50
0.000000
51
90.000000
0
ARC
8
0
62
2
10
5.413386
20
8.061614
40
0.039370
50
90.000000
51
180.000000
0
ARC
8
0
62
2
10
5.728346
20
7.490815
40
0.078740
50
0.000000
51
90.000000
0
ARC
8
0
62
2
10
5.728346
20
7.234909
40
0.078740
50
270.000000
51
360.000000
0
ARC
8
0
62
2
10
6.161417
20
6.349083
40
0.492126
50
180.000000
51
360.000000
0
CIRCLE
8
0
62
2
10
6.161417
20
6.368768
40
0.192913
0
ARC
8
0
62
2
10
6.043307
20
7.067587
40
0.029528
50
0.000000
51
180.000000
0
ARC
8
0
62
2
10
6.033465
20
7.052823
40
0.019685
50
180.000000
51
270.000000
0
ARC
8
0
62
2
10
6.053150
20
7.052823
40
0.019685
50
270.000000
51
360.000000
0
ARC
8
0
62
2
10
6.033465
20
7.013453
40
0.019685
50
90.000000
51
180.000000
0
ARC
8
0
62
2
10
6.053150
20
7.013453
40
0.019685
50
0.000000
51
90.000000
0
ARC
8
0
62
2
10
6.043307
20
6.988846
40
0.029528
50
180.000000
51
360.000000
0
ARC
8
0
62
2
10
6.200787
20
7.067587
40
0.029528
50
0.000000
51
90.000000
0
ARC
8
0
62
2
10
6.200787
20
6.988846
40
0.029528
50
270.000000
51
360.000000
0
ARC
8
0
62
2
10
6.427165
20
7.028217
40
0.019685
50
90.000000
51
180.000000
0
ARC
8
0
62
2
10
6.437008
20
7.018374
40
0.029528
50
0.000000
51
90.000000
0
ARC
8
0
62
2
10
6.437008
20
6.988846
40
0.029528
50
180.000000
51
360.000000
0
ARC
8
0
62
2
10
6.515748
20
6.988846
40
0.029528
50
180.000000
51
360.000000
0
ARC
8
0
62
2
10
6.515748
20
7.067587
40
0.029528
50
0.000000
51
180.000000
0
ARC
8
0
62
2
10
6.594488
20
6.988846
40
0.029528
50
180.000000
51
360.000000
0
ARC
8
0
62
2
10
6.594488
20
7.067587
40
0.029528
50
0.000000
51
180.000000
0
ARC
8
0
62
2
10
6.077756
20
6.752626
40
0.029528
50
0.000000
51
90.000000
0
ARC
8
0
62
2
10
6.077756
20
6.742783
40
0.029528
50
270.000000
51
360.000000
0
ARC
8
0
62
2
10
6.156496
20
6.673886
40
0.029528
50
180.000000
51
270.000000
0
ARC
8
0
62
2
10
6.166339
20
6.673886
40
0.029528
50
270.000000
51
360.000000
0
ARC
8
0
62
2
10
6.254921
20
6.752626
40
0.029528
50
0.000000
51
90.000000
0
ARC
8
0
62
2
10
6.254921
20
6.673886
40
0.029528
50
270.000000
51
360.000000
0
ARC
8
0
62
2
10
6.732283
20
6.841209
40
0.078740
50
90.000000
51
180.000000
0
ARC
8
0
62
2
10
5.590551
20
6.841209
40
0.078740
50
0.000000
51
90.000000
0
ARC
8
0
62
2
10
1.240157
20
2.628610
40
0.043307
50
0.000000
51
90.000000
0
ARC
8
0
62
2
10
1.116142
20
2.707350
40
0.035433
50
180.000000
51
270.000000
0
ARC
8
0
62
2
10
1.017717
20
2.774280
40
0.062992
50
0.000000
51
90.000000
0
ARC
8
0
62
2
10
0.281496
20
2.774280
40
0.062992
50
90.000000
51
180.000000
0
ARC
8
0
62
2
10
0.183071
20
2.707350
40
0.035433
50
270.000000
51
360.000000
0
ARC
8
0
62
2
10
0.059055
20
2.628610
40
0.043307
50
90.000000
51
180.000000
0
ARC
8
0
62
2
10
1.062992
20
2.038059
40
0.118110
50
180.000000
51
270.000000
0
ARC
8
0
62
2
10
0.236220
20
2.038059
40
0.118110
50
270.000000
51
360.000000
0
ARC
8
0
62
2
10
1.082677
20
1.565618
40
0.039370
50
90.000000
51
180.000000
0
ARC
8
0
62
2
10
0.216535
20
1.565618
40
0.039370
50
0.000000
51
90.000000
0
ARC
8
0
62
2
10
0.649606
20
1.211287
40
0.393701
50
180.000000
51
360.000000
0
CIRCLE
8
0
62
2
10
0.649606
20
1.171917
40
0.149606
0
ARC
8
0
62
2
10
0.548370
20
1.709039
40
0.025311
50
180.000000
51
360.000000
0
ARC
8
0
62
2
10
0.548370
20
1.725909
40
0.025307
50
0.000000
51
180.000000
0
ARC
8
0
62
2
10
0.683350
20
1.776528
40
0.025311
50
0.000000
51
90.000000
0
ARC
8
0
62
2
10
0.683350
20
1.768094
40
0.025311
50
270.000000
51
360.000000
0
ARC
8
0
62
2
10
0.885827
20
1.776528
40
0.025310
50
329.374038
51
540.000000
0
ARC
8
0
62
2
10
0.944882
20
1.742783
40
0.016874
50
90.000000
51
180.000000
0
ARC
8
0
62
2
10
0.953319
20
1.734346
40
0.025307
50
0.000000
51
90.000000
0
ARC
8
0
62
2
10
0.953319
20
1.709039
40
0.025311
50
180.000000
51
360.000000
0
ARC
8
0
62
2
10
1.020811
20
1.709039
40
0.025311
50
180.000000
51
360.000000
0
ARC
8
0
62
2
10
1.020811
20
1.776528
40
0.025307
50
0.000000
51
180.000000
0
ARC
8
0
62
2
10
0.577898
20
1.500937
40
0.025307
50
0.000000
51
90.000000
0
ARC
8
0
62
2
10
0.577898
20
1.492504
40
0.025311
50
270.000000
51
360.000000
0
ARC
8
0
62
2
10
0.645390
20
1.433449
40
0.025311
50
180.000000
51
270.000000
0
ARC
8
0
62
2
10
0.653823
20
1.433449
40
0.025311
50
270.000000
51
360.000000
0
ARC
8
0
62
2
10
0.729752
20
1.500937
40
0.025311
50
0.000000
51
90.000000
0
ARC
8
0
62
2
10
0.729752
20
1.433449
40
0.025311
50
270.000000
51
360.000000
0
ARC
8
0
62
2
10
14.468504
20
8.770303
40
0.039370
50
0.000000
51
90.000000
0
ARC
8
0
62
2
10
12.027559
20
8.770303
40
0.039370
50
90.000000
51
180.000000
0
CIRCLE
8
0
62
2
10
13.248031
20
6.152232
40
0.240157
0
ARC
8
0
62
2
10
13.248031
20
6.171917
40
0.629921
50
180.000000
51
360.000000
0
ARC
8
0
62
2
10
13.996063
20
6.801839
40
0.118110
50
90.000000
51
180.000000
0
ARC
8
0
62
2
10
12.500000
20
6.801839
40
0.118110
50
0.000000
51
90.000000
0
ARC
8
0
62
2
10
13.877953
20
7.471130
40
0.157480
50
180.000000
51
270.000000
0
ARC
8
0
62
2
10
13.877953
20
7.746720
40
0.157480
50
90.000000
51
180.000000
0
ARC
8
0
62
2
10
12.618110
20
7.746720
40
0.157480
50
0.000000
51
90.000000
0
ARC
8
0
62
2
10
12.618110
20
7.471130
40
0.157480
50
270.000000
51
360.000000
0
ARC
8
0
62
2
10
13.065240
20
7.040870
40
0.042181
50
180.000000
51
360.000000
0
ARC
8
0
62
2
10
13.065240
20
7.153358
40
0.042185
50
0.000000
51
180.000000
0
ARC
8
0
62
2
10
13.290213
20
7.153358
40
0.042185
50
0.000000
51
90.000000
0
ARC
8
0
62
2
10
13.290213
20
7.040870
40
0.042181
50
270.000000
51
360.000000
0
ARC
8
0
62
2
10
13.627673
20
7.153358
40
0.042181
50
329.368246
51
540.000000
0
ARC
8
0
62
2
10
13.740157
20
7.040870
40
0.042181
50
180.000000
51
360.000000
0
ARC
8
0
62
2
10
13.740157
20
7.153358
40
0.042181
50
0.000000
51
180.000000
0
ARC
8
0
62
2
10
13.852642
20
7.040870
40
0.042181
50
180.000000
51
360.000000
0
ARC
8
0
62
2
10
13.852642
20
7.153358
40
0.042185
50
0.000000
51
180.000000
0
ARC
8
0
62
2
10
13.965130
20
7.040870
40
0.042181
50
180.000000
51
360.000000
0
ARC
8
0
62
2
10
13.965130
20
7.153358
40
0.042181
50
0.000000
51
180.000000
0
ARC
8
0
62
2
10
13.128516
20
6.680917
40
0.042181
50
0.000000
51
90.000000
0
ARC
8
0
62
2
10
13.128516
20
6.666854
40
0.042181
50
270.000000
51
360.000000
0
ARC
8
0
62
2
10
13.241000
20
6.568429
40
0.042181
50
180.000000
51
270.000000
0
ARC
8
0
62
2
10
13.255063
20
6.568429
40
0.042181
50
270.000000
51
360.000000
0
ARC
8
0
62
2
10
13.381610
20
6.680917
40
0.042181
50
0.000000
51
90.000000
0
ARC
8
0
62
2
10
13.381610
20
6.568429
40
0.042181
50
270.000000
51
360.000000
0
ARC
8
0
62
2
10
10.295276
20
8.366744
40
0.039370
50
0.000000
51
90.000000
0
ARC
8
0
62
2
10
8.326772
20
8.366744
40
0.039370
50
90.000000
51
180.000000
0
CIRCLE
8
0
62
2
10
9.311024
20
6.368768
40
0.192913
0
ARC
8
0
62
2
10
9.311024
20
6.349083
40
0.492126
50
180.000000
51
360.000000
0
ARC
8
0
62
2
10
9.881890
20
6.841209
40
0.078740
50
90.000000
51
180.000000
0
ARC
8
0
62
2
10
8.740157
20
6.841209
40
0.078740
50
0.000000
51
90.000000
0
ARC
8
0
62
2
10
9.885827
20
7.353020
40
0.157480
50
180.000000
51
270.000000
0
ARC
8
0
62
2
10
9.885827
20
7.530185
40
0.157480
50
90.000000
51
180.000000
0
ARC
8
0
62
2
10
8.736220
20
7.530185
40
0.157480
50
0.000000
51
90.000000
0
ARC
8
0
62
2
10
8.736220
20
7.353020
40
0.157480
50
270.000000
51
360.000000
0
ARC
8
0
62
2
10
9.142295
20
7.083055
40
0.033744
50
0.000000
51
180.000000
0
ARC
8
0
62
2
10
9.131047
20
7.066181
40
0.022500
50
180.000000
51
270.000000
0
ARC
8
0
62
2
10
9.153543
20
7.066181
40
0.022496
50
270.000000
51
360.000000
0
ARC
8
0
62
2
10
9.131047
20
7.021185
40
0.022500
50
90.000000
51
180.000000
0
ARC
8
0
62
2
10
9.153543
20
7.021185
40
0.022496
50
0.000000
51
90.000000
0
ARC
8
0
62
2
10
9.142295
20
6.993063
40
0.033748
50
180.000000
51
360.000000
0
ARC
8
0
62
2
10
9.322272
20
7.083055
40
0.033748
50
0.000000
51
90.000000
0
ARC
8
0
62
2
10
9.322272
20
6.993063
40
0.033744
50
270.000000
51
360.000000
0
ARC
8
0
62
2
10
9.659728
20
6.993063
40
0.033744
50
180.000000
51
360.000000
0
ARC
8
0
62
2
10
9.659728
20
7.083055
40
0.033748
50
0.000000
51
180.000000
0
ARC
8
0
62
2
10
9.749720
20
6.993063
40
0.033748
50
180.000000
51
360.000000
0
ARC
8
0
62
2
10
9.749720
20
7.083055
40
0.033744
50
0.000000
51
180.000000
0
ARC
8
0
62
2
10
9.839709
20
6.993063
40
0.033748
50
180.000000
51
360.000000
0
ARC
8
0
62
2
10
9.839709
20
7.083055
40
0.033744
50
0.000000
51
180.000000
0
ARC
8
0
62
2
10
9.215409
20
6.768094
40
0.033748
50
0.000000
51
90.000000
0
ARC
8
0
62
2
10
9.215409
20
6.756843
40
0.033744
50
270.000000
51
360.000000
0
ARC
8
0
62
2
10
9.305398
20
6.678102
40
0.033744
50
180.000000
51
270.000000
0
ARC
8
0
62
2
10
9.316650
20
6.678102
40
0.033744
50
270.000000
51
360.000000
0
ARC
8
0
62
2
10
9.417886
20
6.768094
40
0.033744
50
0.000000
51
90.000000
0
ARC
8
0
62
2
10
9.417886
20
6.678102
40
0.033744
50
270.000000
51
360.000000
0
ARC
8
0
62
2
10
3.405512
20
1.211287
40
0.393701
50
180.000000
51
360.000000
0
CIRCLE
8
0
62
2
10
3.405512
20
1.171917
40
0.149606
0
ARC
8
0
62
2
10
4.133858
20
2.746720
40
0.062992
50
0.000000
51
90.000000
0
ARC
8
0
62
2
10
3.950787
20
2.845146
40
0.035433
50
180.000000
51
270.000000
0
ARC
8
0
62
2
10
3.852362
20
3.049870
40
0.062992
50
0.000000
51
90.000000
0
ARC
8
0
62
2
10
2.958661
20
3.049870
40
0.062992
50
90.000000
51
180.000000
0
ARC
8
0
62
2
10
2.860236
20
2.845146
40
0.035433
50
270.000000
51
360.000000
0
ARC
8
0
62
2
10
2.677165
20
2.746720
40
0.062992
50
90.000000
51
180.000000
0
ARC
8
0
62
2
10
3.846457
20
1.557744
40
0.047244
50
90.000000
51
180.000000
0
ARC
8
0
62
2
10
2.964567
20
1.557744
40
0.047244
50
0.000000
51
90.000000
0
ARC
8
0
62
2
10
3.917323
20
2.038059
40
0.157480
50
180.000000
51
270.000000
0
ARC
8
0
62
2
10
2.893701
20
2.038059
40
0.157480
50
270.000000
51
360.000000
0
ARC
8
0
62
2
10
3.287402
20
1.673886
40
0.029528
50
180.000000
51
360.000000
0
ARC
8
0
62
2
10
3.287402
20
1.693571
40
0.029528
50
0.000000
51
180.000000
0
ARC
8
0
62
2
10
3.444882
20
1.752626
40
0.029528
50
0.000000
51
90.000000
0
ARC
8
0
62
2
10
3.444882
20
1.742783
40
0.029528
50
270.000000
51
360.000000
0
ARC
8
0
62
2
10
3.671260
20
1.713256
40
0.019685
50
90.000000
51
180.000000
0
ARC
8
0
62
2
10
3.681102
20
1.703413
40
0.029528
50
0.000000
51
90.000000
0
ARC
8
0
62
2
10
3.681102
20
1.673886
40
0.029528
50
180.000000
51
360.000000
0
ARC
8
0
62
2
10
3.759843
20
1.673886
40
0.029528
50
180.000000
51
360.000000
0
ARC
8
0
62
2
10
3.759843
20
1.752626
40
0.029528
50
0.000000
51
180.000000
0
ARC
8
0
62
2
10
3.838583
20
1.673886
40
0.029528
50
180.000000
51
360.000000
0
ARC
8
0
62
2
10
3.838583
20
1.752626
40
0.029528
50
0.000000
51
180.000000
0
ARC
8
0
62
2
10
3.321850
20
1.477035
40
0.029528
50
0.000000
51
90.000000
0
ARC
8
0
62
2
10
3.321850
20
1.467193
40
0.029528
50
270.000000
51
360.000000
0
ARC
8
0
62
2
10
3.400591
20
1.398295
40
0.029528
50
180.000000
51
270.000000
0
ARC
8
0
62
2
10
3.410433
20
1.398295
40
0.029528
50
270.000000
51
360.000000
0
ARC
8
0
62
2
10
3.499016
20
1.477035
40
0.029528
50
0.000000
51
90.000000
0
ARC
8
0
62
2
10
3.499016
20
1.398295
40
0.029528
50
270.000000
51
360.000000
0
ARC
8
0
62
2
10
6.673228
20
2.038059
40
0.157480
50
180.000000
51
270.000000
0
ARC
8
0
62
2
10
6.889764
20
2.746720
40
0.062992
50
0.000000
51
90.000000
0
ARC
8
0
62
2
10
6.706693
20
2.845146
40
0.035433
50
180.000000
51
270.000000
0
ARC
8
0
62
2
10
6.608268
20
3.049870
40
0.062992
50
0.000000
51
90.000000
0
ARC
8
0
62
2
10
5.714567
20
3.049870
40
0.062992
50
90.000000
51
180.000000
0
ARC
8
0
62
2
10
5.616142
20
2.845146
40
0.035433
50
270.000000
51
360.000000
0
ARC
8
0
62
2
10
5.433071
20
2.746720
40
0.062992
50
90.000000
51
180.000000
0
ARC
8
0
62
2
10
5.649606
20
2.038059
40
0.157480
50
270.000000
51
360.000000
0
CIRCLE
8
0
62
2
10
6.161417
20
1.053807
40
0.192913
0
ARC
8
0
62
2
10
6.161417
20
1.034122
40
0.492126
50
180.000000
51
360.000000
0
ARC
8
0
62
2
10
6.700787
20
1.557744
40
0.047243
50
112.024846
51
180.000000
0
ARC
8
0
62
2
10
5.622047
20
1.557744
40
0.047244
50
0.000000
51
67.975154
0
ARC
8
0
62
2
10
6.043307
20
1.752626
40
0.029528
50
0.000000
51
180.000000
0
ARC
8
0
62
2
10
6.033465
20
1.737862
40
0.019685
50
180.000000
51
270.000000
0
ARC
8
0
62
2
10
6.053150
20
1.737862
40
0.019685
50
270.000000
51
360.000000
0
ARC
8
0
62
2
10
6.033465
20
1.698492
40
0.019685
50
90.000000
51
180.000000
0
ARC
8
0
62
2
10
6.053150
20
1.698492
40
0.019685
50
0.000000
51
90.000000
0
ARC
8
0
62
2
10
6.043307
20
1.673886
40
0.029528
50
180.000000
51
360.000000
0
ARC
8
0
62
2
10
6.200787
20
1.752626
40
0.029528
50
0.000000
51
90.000000
0
ARC
8
0
62
2
10
6.200787
20
1.742783
40
0.029528
50
270.000000
51
360.000000
0
ARC
8
0
62
2
10
6.427165
20
1.713256
40
0.019685
50
90.000000
51
180.000000
0
ARC
8
0
62
2
10
6.437008
20
1.703413
40
0.029528
50
0.000000
51
90.000000
0
ARC
8
0
62
2
10
6.437008
20
1.673886
40
0.029528
50
180.000000
51
360.000000
0
ARC
8
0
62
2
10
6.515748
20
1.673886
40
0.029528
50
180.000000
51
360.000000
0
ARC
8
0
62
2
10
6.515748
20
1.752626
40
0.029528
50
0.000000
51
180.000000
0
ARC
8
0
62
2
10
6.594488
20
1.673886
40
0.029528
50
180.000000
51
360.000000
0
ARC
8
0
62
2
10
6.594488
20
1.752626
40
0.029528
50
0.000000
51
180.000000
0
ARC
8
0
62
2
10
6.077756
20
1.437665
40
0.029528
50
0.000000
51
90.000000
0
ARC
8
0
62
2
10
6.077756
20
1.427823
40
0.029528
50
270.000000
51
360.000000
0
ARC
8
0
62
2
10
6.156496
20
1.358925
40
0.029528
50
180.000000
51
270.000000
0
ARC
8
0
62
2
10
6.166339
20
1.358925
40
0.029528
50
270.000000
51
360.000000
0
ARC
8
0
62
2
10
6.254921
20
1.437665
40
0.029528
50
0.000000
51
90.000000
0
ARC
8
0
62
2
10
6.254921
20
1.358925
40
0.029528
50
270.000000
51
360.000000
0
ARC
8
0
62
2
10
10.000000
20
2.675854
40
0.129919
50
336.799814
51
383.200186
0
ARC
8
0
62
2
10
8.622047
20
2.675854
40
0.129919
50
156.799814
51
203.200186
0
CIRCLE
8
0
62
2
10
9.311024
20
1.053807
40
0.192913
0
ARC
8
0
62
2
10
9.311024
20
1.034122
40
0.492126
50
180.000000
51
360.000000
0
ARC
8
0
62
2
10
9.881890
20
1.526248
40
0.078740
50
90.000000
51
180.000000
0
ARC
8
0
62
2
10
8.740157
20
1.526248
40
0.078740
50
0.000000
51
90.000000
0
ARC
8
0
62
2
10
9.881890
20
1.959319
40
0.078740
50
180.000000
51
270.000000
0
ARC
8
0
62
2
10
8.740157
20
1.959319
40
0.078740
50
270.000000
51
360.000000
0
ARC
8
0
62
2
10
9.163386
20
1.752626
40
0.029528
50
0.000000
51
180.000000
0
ARC
8
0
62
2
10
9.153543
20
1.737862
40
0.019685
50
180.000000
51
270.000000
0
ARC
8
0
62
2
10
9.173228
20
1.737862
40
0.019685
50
270.000000
51
360.000000
0
ARC
8
0
62
2
10
9.153543
20
1.698492
40
0.019685
50
90.000000
51
180.000000
0
ARC
8
0
62
2
10
9.173228
20
1.698492
40
0.019685
50
0.000000
51
90.000000
0
ARC
8
0
62
2
10
9.163386
20
1.673886
40
0.029528
50
180.000000
51
360.000000
0
ARC
8
0
62
2
10
9.320866
20
1.752626
40
0.029528
50
0.000000
51
90.000000
0
ARC
8
0
62
2
10
9.320866
20
1.742783
40
0.029528
50
270.000000
51
360.000000
0
ARC
8
0
62
2
10
9.616142
20
1.673886
40
0.029528
50
180.000000
51
360.000000
0
ARC
8
0
62
2
10
9.616142
20
1.752626
40
0.029528
50
0.000000
51
180.000000
0
ARC
8
0
62
2
10
9.694882
20
1.673886
40
0.029528
50
180.000000
51
360.000000
0
ARC
8
0
62
2
10
9.694882
20
1.752626
40
0.029528
50
0.000000
51
180.000000
0
ARC
8
0
62
2
10
9.773622
20
1.673886
40
0.029528
50
180.000000
51
360.000000
0
ARC
8
0
62
2
10
9.773622
20
1.752626
40
0.029528
50
0.000000
51
180.000000
0
ARC
8
0
62
2
10
9.227362
20
1.437665
40
0.029528
50
0.000000
51
90.000000
0
ARC
8
0
62
2
10
9.227362
20
1.427823
40
0.029528
50
270.000000
51
360.000000
0
ARC
8
0
62
2
10
9.306102
20
1.358925
40
0.029528
50
180.000000
51
270.000000
0
ARC
8
0
62
2
10
9.315945
20
1.358925
40
0.029528
50
270.000000
51
360.000000
0
ARC
8
0
62
2
10
9.404528
20
1.437665
40
0.029528
50
0.000000
51
90.000000
0
ARC
8
0
62
2
10
9.404528
20
1.358925
40
0.029528
50
270.000000
51
360.000000
0
CIRCLE
8
0
62
2
10
13.248031
20
0.837272
40
0.240157
0
ARC
8
0
62
2
10
13.248031
20
0.856957
40
0.629921
50
180.000000
51
360.000000
0
ARC
8
0
62
2
10
13.973425
20
2.766406
40
0.129922
50
310.749503
51
409.250497
0
ARC
8
0
62
2
10
12.522638
20
2.766406
40
0.129922
50
130.749503
51
229.250497
0
ARC
8
0
62
2
10
13.966535
20
2.038059
40
0.118110
50
180.000000
51
270.000000
0
ARC
8
0
62
2
10
12.529528
20
2.038059
40
0.118110
50
270.000000
51
360.000000
0
ARC
8
0
62
2
10
13.956693
20
1.526248
40
0.078740
50
90.000000
51
180.000000
0
ARC
8
0
62
2
10
12.539370
20
1.526248
40
0.078740
50
0.000000
51
90.000000
0
ARC
8
0
62
2
10
13.101799
20
1.717472
40
0.033744
50
180.000000
51
360.000000
0
ARC
8
0
62
2
10
13.101799
20
1.807465
40
0.033748
50
0.000000
51
180.000000
0
ARC
8
0
62
2
10
13.281776
20
1.807465
40
0.033748
50
0.000000
51
90.000000
0
ARC
8
0
62
2
10
13.281776
20
1.796213
40
0.033744
50
270.000000
51
360.000000
0
ARC
8
0
62
2
10
13.551744
20
1.807465
40
0.033746
50
329.362963
51
540.000000
0
ARC
8
0
62
2
10
13.641732
20
1.717472
40
0.033744
50
180.000000
51
360.000000
0
ARC
8
0
62
2
10
13.641732
20
1.807465
40
0.033744
50
0.000000
51
180.000000
0
ARC
8
0
62
2
10
13.731720
20
1.717472
40
0.033744
50
180.000000
51
360.000000
0
ARC
8
0
62
2
10
13.731720
20
1.807465
40
0.033748
50
0.000000
51
180.000000
0
ARC
8
0
62
2
10
13.821709
20
1.717472
40
0.033744
50
180.000000
51
360.000000
0
ARC
8
0
62
2
10
13.821709
20
1.807465
40
0.033748
50
0.000000
51
180.000000
0
ARC
8
0
62
2
10
13.128516
20
1.405327
40
0.042181
50
0.000000
51
90.000000
0
ARC
8
0
62
2
10
13.128516
20
1.391264
40
0.042181
50
270.000000
51
360.000000
0
ARC
8
0
62
2
10
13.241000
20
1.292839
40
0.042181
50
180.000000
51
270.000000
0
ARC
8
0
62
2
10
13.255063
20
1.292839
40
0.042181
50
270.000000
51
360.000000
0
ARC
8
0
62
2
10
13.381610
20
1.405327
40
0.042181
50
0.000000
51
90.000000
0
ARC
8
0
62
2
10
13.381610
20
1.292839
40
0.042181
50
270.000000
51
360.000000
0
ENDSEC
0
EOF
